  0
SECTION
  2
HEADER
  9
$ACADVER
  1
AC1009
  9
$INSBASE
 10
0.0
 20
0.0
 30
0.0
  9
$EXTMIN
 10
867.99324330406671
 20
327.38164749855792
 30
-0.0000000000000053
  9
$EXTMAX
 10
32765.33210850941
 20
22484.553276491992
 30
0.0000000000000099
  9
$LIMMIN
 10
0.0
 20
0.0
  9
$LIMMAX
 10
33600.0
 20
23760.0
  9
$ORTHOMODE
 70
     1
  9
$REGENMODE
 70
     1
  9
$FILLMODE
 70
     1
  9
$QTEXTMODE
 70
     0
  9
$MIRRTEXT
 70
     1
  9
$DRAGMODE
 70
     2
  9
$LTSCALE
 40
80.0
  9
$OSMODE
 70
  3071
  9
$ATTMODE
 70
     1
  9
$TEXTSIZE
 40
0.2
  9
$TRACEWID
 40
0.05
  9
$TEXTSTYLE
  7
00
  9
$CLAYER
  8
0
  9
$CELTYPE
  6
BYLAYER
  9
$CECOLOR
 62
   256
  9
$DIMSCALE
 40
1.0
  9
$DIMASZ
 40
0.18
  9
$DIMEXO
 40
0.0625
  9
$DIMDLI
 40
0.38
  9
$DIMRND
 40
0.0
  9
$DIMDLE
 40
0.0
  9
$DIMEXE
 40
0.18
  9
$DIMTP
 40
0.0
  9
$DIMTM
 40
0.0
  9
$DIMTXT
 40
0.18
  9
$DIMCEN
 40
0.09
  9
$DIMTSZ
 40
0.0
  9
$DIMTOL
 70
     0
  9
$DIMLIM
 70
     0
  9
$DIMTIH
 70
     1
  9
$DIMTOH
 70
     1
  9
$DIMSE1
 70
     0
  9
$DIMSE2
 70
     0
  9
$DIMTAD
 70
     0
  9
$DIMZIN
 70
     0
  9
$DIMBLK
  1

  9
$DIMASO
 70
     1
  9
$DIMSHO
 70
     1
  9
$DIMPOST
  1

  9
$DIMAPOST
  1

  9
$DIMALT
 70
     0
  9
$DIMALTD
 70
     2
  9
$DIMALTF
 40
25.399999999999999
  9
$DIMLFAC
 40
1.0
  9
$DIMTOFL
 70
     0
  9
$DIMTVP
 40
0.0
  9
$DIMTIX
 70
     0
  9
$DIMSOXD
 70
     0
  9
$DIMSAH
 70
     0
  9
$DIMBLK1
  1

  9
$DIMBLK2
  1

  9
$DIMSTYLE
  2
STANDARD
  9
$DIMCLRD
 70
     0
  9
$DIMCLRE
 70
     0
  9
$DIMCLRT
 70
     0
  9
$DIMTFAC
 40
1.0
  9
$DIMGAP
 40
0.09
  9
$LUNITS
 70
     2
  9
$LUPREC
 70
     4
  9
$SKETCHINC
 40
0.1
  9
$FILLETRAD
 40
0.0
  9
$AUNITS
 70
     0
  9
$AUPREC
 70
     0
  9
$MENU
  1
acad
  9
$ELEVATION
 40
0.0
  9
$PELEVATION
 40
0.0
  9
$THICKNESS
 40
0.0
  9
$LIMCHECK
 70
     0
  9
$BLIPMODE
 70
     1
  9
$CHAMFERA
 40
0.0
  9
$CHAMFERB
 40
0.0
  9
$SKPOLY
 70
     0
  9
$TDCREATE
 40
2311940.0750526162
  9
$TDUPDATE
 40
2458942.4404361229
  9
$TDINDWG
 40
0.0432818056
  9
$TDUSRTIMER
 40
0.043280706
  9
$USRTIMER
 70
     1
  9
$ANGBASE
 50
0.0
  9
$ANGDIR
 70
     0
  9
$PDMODE
 70
     0
  9
$PDSIZE
 40
0.0
  9
$PLINEWID
 40
0.0
  9
$COORDS
 70
     1
  9
$SPLFRAME
 70
     0
  9
$SPLINETYPE
 70
     6
  9
$SPLINESEGS
 70
     8
  9
$ATTDIA
 70
     1
  9
$ATTREQ
 70
     1
  9
$HANDLING
 70
     1
  9
$HANDSEED
  5
40C8
  9
$SURFTAB1
 70
     6
  9
$SURFTAB2
 70
     6
  9
$SURFTYPE
 70
     6
  9
$SURFU
 70
     6
  9
$SURFV
 70
     6
  9
$UCSNAME
  2

  9
$UCSORG
 10
0.0
 20
0.0
 30
0.0
  9
$UCSXDIR
 10
1.0
 20
0.0
 30
0.0
  9
$UCSYDIR
 10
0.0
 20
1.0
 30
0.0
  9
$PUCSNAME
  2

  9
$PUCSORG
 10
0.0
 20
0.0
 30
0.0
  9
$PUCSXDIR
 10
1.0
 20
0.0
 30
0.0
  9
$PUCSYDIR
 10
0.0
 20
1.0
 30
0.0
  9
$USERI1
 70
     0
  9
$USERI2
 70
     0
  9
$USERI3
 70
     0
  9
$USERI4
 70
     0
  9
$USERI5
 70
     0
  9
$USERR1
 40
0.0
  9
$USERR2
 40
0.0
  9
$USERR3
 40
0.0
  9
$USERR4
 40
0.0
  9
$USERR5
 40
0.0
  9
$WORLDVIEW
 70
     1
  9
$SHADEDGE
 70
     3
  9
$SHADEDIF
 70
    70
  9
$TILEMODE
 70
     1
  9
$MAXACTVP
 70
    16
  9
$PLIMCHECK
 70
     0
  9
$PEXTMIN
 10
1.0000000000000000E+020
 20
1.0000000000000000E+020
 30
1.0000000000000000E+020
  9
$PEXTMAX
 10
-1.0000000000000000E+020
 20
-1.0000000000000000E+020
 30
-1.0000000000000000E+020
  9
$PLIMMIN
 10
0.0
 20
0.0
  9
$PLIMMAX
 10
12.0
 20
9.0
  9
$UNITMODE
 70
     0
  9
$VISRETAIN
 70
     0
  9
$PLINEGEN
 70
     1
  9
$PSLTSCALE
 70
     0
  0
ENDSEC
  0
SECTION
  2
TABLES
  0
TABLE
  2
VPORT
 70
     1
  0
VPORT
  2
*ACTIVE
 70
     0
 10
0.0
 20
0.0
 11
1.0
 21
1.0
 12
16800.0
 22
11880.0
 13
0.0
 23
0.0
 14
1.0
 24
1.0
 15
0.0
 25
0.0
 16
0.0
 26
0.0
 36
1.0
 17
0.0
 27
0.0
 37
0.0
 40
23981.023255813951
 41
2.195652173913043
 42
50.0
 43
0.0
 44
0.0
 50
0.0
 51
0.0
 71
     0
 72
 10000
 73
     1
 74
     1
 75
     0
 76
     0
 77
     0
 78
     0
  0
ENDTAB
  0
TABLE
  2
LTYPE
 70
     3
  0
LTYPE
  2
CONTINUOUS
 70
     0
  3
Solid line
 72
    65
 73
     0
 40
0.0
  0
LTYPE
  2
DASHED3
 70
     0
  3
------  ------  ------  ------  
 72
    65
 73
     2
 40
5.0
 49
3.75
 49
-1.25
  0
LTYPE
  2
CENTER2
 70
     0
  3
----------  --  ----------  --  
 72
    65
 73
     4
 40
20.0
 49
12.5
 49
-2.5
 49
2.5
 49
-2.5
  0
ENDTAB
  0
TABLE
  2
LAYER
 70
    17
  0
LAYER
  2
0
 70
     0
 62
     7
  6
CONTINUOUS
  0
LAYER
  2
SUNPOU
 70
     0
 62
     4
  6
CONTINUOUS
  0
LAYER
  2
0-1
 70
     0
 62
     7
  6
CONTINUOUS
  0
LAYER
  2
0-2
 70
     0
 62
     7
  6
CONTINUOUS
  0
LAYER
  2
0-5
 70
     0
 62
     7
  6
CONTINUOUS
  0
LAYER
  2
2-0
 70
     0
 62
     7
  6
CONTINUOUS
  0
LAYER
  2
0-6
 70
     0
 62
     7
  6
CONTINUOUS
  0
LAYER
  2
0-7
 70
     0
 62
     7
  6
CONTINUOUS
  0
LAYER
  2
YODOROGO
 70
     0
 62
   130
  6
CONTINUOUS
  0
LAYER
  2
WAKUSEN-01
 70
     0
 62
    50
  6
CONTINUOUS
  0
LAYER
  2
WAKUSEN-02
 70
     0
 62
   130
  6
CONTINUOUS
  0
LAYER
  2
WAKUMOJI-01
 70
     0
 62
   130
  6
CONTINUOUS
  0
LAYER
  2
FILENAME
 70
     0
 62
     7
  6
CONTINUOUS
  0
LAYER
  2
NAME
 70
     0
 62
    20
  6
CONTINUOUS
  0
LAYER
  2
0-4
 70
     0
 62
     7
  6
CONTINUOUS
  0
ENDTAB
  0
TABLE
  2
STYLE
 70
     5
  0
STYLE
  2
STANDARD
 70
     0
 40
0.0
 41
1.0
 50
0.0
 71
     0
 42
0.0
  3
txt
  4
BIGFONT
  0
STYLE
  2
00
 70
     0
 40
0.0
 41
0.6666666666666666
 50
0.0
 71
     0
 42
0.2
  3
ROMANS
  4
BIGFONT
  0
STYLE
  2
01
 70
     0
 40
3.0
 41
1.0
 50
0.0
 71
     0
 42
0.2
  3
ROMANS
  4
BIGFONT
  0
STYLE
  2
WAKUMOJI
 70
     0
 40
3.0
 41
1.0
 50
0.0
 71
     0
 42
3.0
  3
SIMPLEX
  4
BIGFONT
  0
STYLE
  2
FILENAME
 70
     0
 40
200.0
 41
1.0
 50
0.0
 71
     0
 42
200.0
  3
romans
  4
bigfont
  0
ENDTAB
  0
TABLE
  2
VIEW
 70
     0
  0
ENDTAB
  0
TABLE
  2
UCS
 70
     0
  0
ENDTAB
  0
TABLE
  2
APPID
 70
    13
  0
APPID
  2
ACAD
 70
     0
  0
APPID
  2
ACADANNOTATIVE
 70
     0
  0
APPID
  2
ACAD_PSEXT
 70
     0
  0
APPID
  2
DCO15
 70
     0
  0
APPID
  2
ACAD_MLEADERVER
 70
     0
  0
APPID
  2
AUTOCAD_POSTSCRIPT_FIGURE
 70
     0
  0
APPID
  2
ACAD_EXEMPT_FROM_CAD_STANDARDS
 70
     0
  0
APPID
  2
ACAD_DSTYLE_DIMJAG
 70
     0
  0
APPID
  2
ACAD_DSTYLE_DIMTALN
 70
     0
  0
APPID
  2
ACAD_DSTYLE_DIM_LINETYPE
 70
     0
  0
APPID
  2
ACAD_DSTYLE_DIM_EXT1_LINETYPE
 70
     0
  0
APPID
  2
ACAD_DSTYLE_DIM_EXT2_LINETYPE
 70
     0
  0
APPID
  2
ACAD_NAV_VCDISPLAY
 70
     0
  0
ENDTAB
  0
TABLE
  2
DIMSTYLE
 70
     2
  0
DIMSTYLE
  2
STANDARD
 70
     0
  3

  4

  5

  6

  7

 40
1.0
 41
0.18
 42
0.0625
 43
0.38
 44
0.18
 45
0.0
 46
0.0
 47
0.0
 48
0.0
140
0.18
141
0.09
142
0.0
143
25.399999999999999
144
1.0
145
0.0
146
1.0
147
0.09
 71
     0
 72
     0
 73
     1
 74
     1
 75
     0
 76
     0
 77
     0
 78
     0
170
     0
171
     2
172
     0
173
     0
174
     0
175
     0
176
     0
177
     0
178
     0
  0
ENDTAB
  0
ENDSEC
  0
SECTION
  2
BLOCKS
  0
BLOCK
  8
0
  2
$MODEL_SPACE
 70
     0
 10
0.0
 20
0.0
 30
0.0
  3
$MODEL_SPACE
  1

  0
ENDBLK
  5
366D
  8
0
  0
BLOCK
 67
     1
  8
0
  2
$PAPER_SPACE
 70
     0
 10
0.0
 20
0.0
 30
0.0
  3
$PAPER_SPACE
  1

  0
ENDBLK
  5
3669
 67
     1
  8
0
  0
ENDSEC
  0
SECTION
  2
ENTITIES
  0
LINE
  5
369A
  8
0-1
  6
CONTINUOUS
 62
     3
 10
11506.348117999991
 20
18946.466746999991
 30
0.0
 11
11506.348117999991
 21
19870.982161000022
 31
0.0
  0
LINE
  5
369B
  8
0-1
  6
CONTINUOUS
 62
     3
 10
11469.347947
 20
18979.639519
 30
0.0
 11
11469.347947
 21
19870.982161000022
 31
0.0
  0
LINE
  5
369C
  8
0-1
  6
CONTINUOUS
 62
     3
 10
14177.34828899999
 20
13671.986885999981
 30
0.0
 11
14177.34828899999
 21
19870.982161000022
 31
0.0
  0
LINE
  5
369D
  8
0-1
  6
CONTINUOUS
 62
     3
 10
11005.847551000001
 20
13671.986885999981
 30
0.0
 11
11005.847551000001
 21
19870.982161000022
 31
0.0
  0
LINE
  5
369E
  8
0-1
  6
CONTINUOUS
 62
     3
 10
10870.346535000001
 20
13639.98697799999
 30
0.0
 11
10870.346535000001
 21
19880.981632999989
 31
0.0
  0
LINE
  5
369F
  8
0-1
  6
CONTINUOUS
 62
     3
 10
14312.848316
 20
13639.98697799999
 30
0.0
 11
14312.848316
 21
19880.981632999989
 31
0.0
  0
LINE
  5
36A0
  8
0-1
  6
CONTINUOUS
 62
     3
 10
11067.34632399998
 20
19340.066303
 30
0.0
 11
11067.34632399998
 21
19870.982161000022
 31
0.0
  0
LINE
  5
36A1
  8
0-1
  6
CONTINUOUS
 62
     3
 10
11104.347485
 20
19306.893530999991
 30
0.0
 11
11104.347485
 21
19870.982161000022
 31
0.0
  0
LINE
  5
36A2
  8
0-1
  6
CONTINUOUS
 62
     3
 10
11267.347973
 20
19160.749632999999
 30
0.0
 11
11267.347973
 21
19870.982161000022
 31
0.0
  0
LINE
  5
36A3
  8
0-1
  6
CONTINUOUS
 62
     3
 10
11304.348144999991
 20
19127.578839999991
 30
0.0
 11
11304.348144999991
 21
19870.982161000022
 31
0.0
  0
LINE
  5
36A4
  8
0-1
  6
CONTINUOUS
 62
     3
 10
11669.348606999991
 20
18800.322849
 30
0.0
 11
11669.348606999991
 21
19870.982161000011
 31
0.0
  0
LINE
  5
36A5
  8
0-1
  6
CONTINUOUS
 62
     3
 10
11706.34679899999
 20
18767.14809699999
 30
0.0
 11
11706.34679899999
 21
19870.982161000022
 31
0.0
  0
LINE
  5
36A6
  8
0-1
  6
CONTINUOUS
 62
     3
 10
11869.346297
 20
18621.004198999992
 30
0.0
 11
11869.346297
 21
19870.982161000022
 31
0.0
  0
LINE
  5
36A7
  8
0-1
  6
CONTINUOUS
 62
     3
 10
11906.347459000001
 20
18587.831427000001
 30
0.0
 11
11906.347459000001
 21
19870.982161000022
 31
0.0
  0
LINE
  5
36A8
  8
0-1
  6
CONTINUOUS
 62
     3
 10
12294.58252
 20
18234.74293
 30
0.0
 11
12472.781752000001
 21
18410.084727000001
 31
0.0
  0
LINE
  5
36A9
  8
0-1
  6
CONTINUOUS
 62
     3
 10
12817.763342
 20
17351.610196000001
 30
0.0
 11
12995.96257399999
 21
17526.953971999988
 31
0.0
  0
LINE
  5
36AA
  8
0-1
  6
CONTINUOUS
 62
     3
 10
12817.763342
 20
17351.610196000001
 30
0.0
 11
12472.781752000001
 21
18410.084727000001
 31
0.0
  0
LINE
  5
36AB
  8
0-1
  6
CONTINUOUS
 62
     3
 10
10916.347655999991
 20
13795.986899
 30
0.0
 11
14269.84917399999
 21
13795.986899
 31
0.0
  0
LINE
  5
36AC
  8
0-1
  6
CONTINUOUS
 62
     3
 10
10958.84792
 20
13874.987505999999
 30
0.0
 11
14227.347919999989
 21
13874.987505999999
 31
0.0
  0
LINE
  5
36AD
  8
0-1
  6
CONTINUOUS
 62
     3
 10
10870.346535000001
 20
13639.98697799999
 30
0.0
 11
14312.848316
 21
13639.98697799999
 31
0.0
  0
LINE
  5
36AE
  8
0-1
  6
CONTINUOUS
 62
     3
 10
10870.346535000001
 20
13671.986885999981
 30
0.0
 11
14312.848316
 21
13671.986885999981
 31
0.0
  0
LINE
  5
36AF
  8
0-1
  6
CONTINUOUS
 62
     3
 10
14227.347919999989
 20
13795.986899
 30
0.0
 11
14227.347919999989
 21
16305.873935
 31
0.0
  0
LINE
  5
36B0
  8
0-1
  6
CONTINUOUS
 62
     3
 10
14269.84917399999
 20
13795.986899
 30
0.0
 11
14269.84917399999
 21
16264.06155299999
 31
0.0
  0
LINE
  5
36B1
  8
0-1
  6
CONTINUOUS
 62
     3
 10
14584.405563
 20
15954.605392999991
 30
0.0
 11
12995.96257399999
 21
17526.953971999988
 31
0.0
  0
LINE
  5
36B2
  8
0-1
  6
CONTINUOUS
 62
     3
 10
12294.58252
 20
18234.74293
 30
0.0
 11
10605.978937999969
 21
19753.728281
 31
0.0
  0
LINE
  5
36B3
  8
0-1
  6
CONTINUOUS
 62
     3
 10
10958.84792
 20
13795.986899
 30
0.0
 11
10958.84792
 21
19437.347763999991
 31
0.0
  0
LINE
  5
36B4
  8
0-1
  6
CONTINUOUS
 62
     3
 10
10916.347655999991
 20
13795.986899
 30
0.0
 11
10916.347655999991
 21
19475.453496999991
 31
0.0
  0
LINE
  5
36B5
  8
0-1
  6
CONTINUOUS
 62
     3
 10
12069.347946999989
 20
18436.685496999991
 30
0.0
 11
12069.347946999989
 21
19870.982161000022
 31
0.0
  0
LINE
  5
36B6
  8
0-1
  6
CONTINUOUS
 62
     3
 10
12106.34910799998
 20
18403.512725000001
 30
0.0
 11
12106.34910799998
 21
19870.982161000022
 31
0.0
  0
LINE
  5
36B7
  8
0-1
  6
CONTINUOUS
 62
     3
 10
12269.348607
 20
18257.370806999988
 30
0.0
 11
12269.348607
 21
19870.982161000022
 31
0.0
  0
LINE
  5
36B8
  8
0-1
  6
CONTINUOUS
 62
     3
 10
12669.34794699998
 20
17809.130387000001
 30
0.0
 11
12669.34794699998
 21
19870.982161000022
 31
0.0
  0
LINE
  5
36B9
  8
0-1
  6
CONTINUOUS
 62
     3
 10
12706.349108
 20
17695.072506
 30
0.0
 11
12706.349108
 21
19870.982161000022
 31
0.0
  0
LINE
  5
36BA
  8
0-1
  6
CONTINUOUS
 62
     3
 10
12869.348606999991
 20
17402.367031999991
 30
0.0
 11
12869.348606999991
 21
19870.982161000022
 31
0.0
  0
LINE
  5
36BB
  8
0-1
  6
CONTINUOUS
 62
     3
 10
12906.34679899999
 20
17438.774336999992
 30
0.0
 11
12906.34679899999
 21
19870.982161000022
 31
0.0
  0
LINE
  5
36BC
  8
0-1
  6
CONTINUOUS
 62
     3
 10
13069.347287000001
 20
17454.758949999999
 30
0.0
 11
13069.347287000001
 21
19870.982161000022
 31
0.0
  0
LINE
  5
36BD
  8
0-1
  6
CONTINUOUS
 62
     3
 10
13106.348448000001
 20
17418.359561999991
 30
0.0
 11
13106.348448000001
 21
19870.982161000022
 31
0.0
  0
LINE
  5
36BE
  8
0-1
  6
CONTINUOUS
 62
     3
 10
13269.347947
 20
17258.002721000001
 30
0.0
 11
13269.347947
 21
19870.982161000022
 31
0.0
  0
LINE
  5
36BF
  8
0-1
  6
CONTINUOUS
 62
     3
 10
13306.349108
 20
17221.603332999988
 30
0.0
 11
13306.349108
 21
19870.982161000022
 31
0.0
  0
LINE
  5
36C0
  8
0-1
  6
CONTINUOUS
 62
     3
 10
13469.347616999999
 20
17061.246491999991
 30
0.0
 11
13469.347616999999
 21
19870.982161000022
 31
0.0
  0
LINE
  5
36C1
  8
0-1
  6
CONTINUOUS
 62
     3
 10
13506.34679899999
 20
17014.847000000002
 30
0.0
 11
13506.34679899999
 21
19870.982161000022
 31
0.0
  0
LINE
  5
36C2
  8
0-1
  6
CONTINUOUS
 62
     3
 10
13679.847722
 20
16854.490158000001
 30
0.0
 11
13679.847722
 21
19870.982161000022
 31
0.0
  0
LINE
  5
36C3
  8
0-1
  6
CONTINUOUS
 62
     3
 10
13716.848883000001
 20
16818.090770999999
 30
0.0
 11
13716.848883000001
 21
19870.982161000022
 31
0.0
  0
LINE
  5
36C4
  8
0-1
  6
CONTINUOUS
 62
     3
 10
13879.848382
 20
16657.733929000002
 30
0.0
 11
13879.848382
 21
19870.982161000022
 31
0.0
  0
LINE
  5
36C5
  8
0-1
  6
CONTINUOUS
 62
     3
 10
13916.849543
 20
16621.33454199999
 30
0.0
 11
13916.849543
 21
19870.982161000022
 31
0.0
  0
LINE
  5
36C6
  8
0-1
  6
CONTINUOUS
 62
     3
 10
14079.84805199999
 20
16460.977701
 30
0.0
 11
14079.84805199999
 21
19870.982161000022
 31
0.0
  0
LINE
  5
36C7
  8
0-1
  6
CONTINUOUS
 62
     3
 10
14116.847234000001
 20
16434.578418000001
 30
0.0
 11
14116.847234000001
 21
19870.982161000022
 31
0.0
  0
LINE
  5
36C8
  8
0-1
  6
CONTINUOUS
 62
     3
 10
12306.346799000001
 20
18246.319155000001
 30
0.0
 11
12306.346799000001
 21
19870.982161000022
 31
0.0
  0
LINE
  5
36C9
  8
0-1
  6
CONTINUOUS
 62
     3
 10
12469.347287000001
 20
18406.709648
 30
0.0
 11
12469.347287000001
 21
19870.982161000022
 31
0.0
  0
LINE
  5
36CA
  8
0-1
  6
CONTINUOUS
 62
     3
 10
12506.347459000001
 20
18306.611332
 30
0.0
 11
12506.347459000001
 21
19870.982161000022
 31
0.0
  0
LINE
  5
36CB
  8
0-1
  6
CONTINUOUS
 62
     3
 10
10958.84792
 20
15336.7271595
 30
0.0
 11
14227.347919999989
 21
15336.7271595
 31
0.0
  0
LINE
  5
36CC
  8
0-1
  6
CONTINUOUS
 62
     3
 10
10958.84792
 20
15246.727357500011
 30
0.0
 11
14227.347919999989
 21
15246.727357500011
 31
0.0
  0
LINE
  5
36CD
  8
0-1
  6
CONTINUOUS
 62
     3
 10
10958.84792
 20
16795.482688999989
 30
0.0
 11
13739.82515499998
 21
16795.482688999989
 31
0.0
  0
LINE
  5
36CE
  8
0-1
  6
CONTINUOUS
 62
     3
 10
10958.84792
 20
16705.483876999999
 30
0.0
 11
13831.310585999991
 21
16705.483876999999
 31
0.0
  0
LINE
  5
36CF
  8
0-1
  6
CONTINUOUS
 62
     3
 10
10958.84792
 20
18164.483876999991
 30
0.0
 11
12552.453416
 21
18164.483876999991
 31
0.0
  0
LINE
  5
36D0
  8
0-1
  6
CONTINUOUS
 62
     3
 10
10958.84792
 20
18254.482688999989
 30
0.0
 11
12523.257495999989
 21
18254.482688999989
 31
0.0
  0
LINE
  5
36D1
  8
0-1
  6
CONTINUOUS
 62
     3
 10
11028.846666999991
 20
15291.72676350001
 30
0.0
 11
14157.348183999989
 21
13832.486252000001
 31
0.0
  0
LINE
  5
36D2
  8
0-1
  6
CONTINUOUS
 62
     3
 10
14157.348183999989
 20
15291.72676350001
 30
0.0
 11
11028.846666999991
 21
13832.486252000001
 31
0.0
  0
LINE
  5
36D3
  8
0-1
  6
CONTINUOUS
 62
     3
 10
11028.846666999991
 20
16750.486251999992
 30
0.0
 11
14157.348183999989
 21
15291.72676350001
 31
0.0
  0
LINE
  5
36D4
  8
0-1
  6
CONTINUOUS
 62
     3
 10
11028.846666999991
 20
18209.486251999992
 30
0.0
 11
13440.023029
 21
17090.095996
 31
0.0
  0
LINE
  5
36D5
  8
0-1
  6
CONTINUOUS
 62
     3
 10
11028.846666999991
 20
16750.486251999992
 30
0.0
 11
12749.268040000001
 21
17562.759504000001
 31
0.0
  0
LINE
  5
36D6
  8
0-1
  6
CONTINUOUS
 62
     3
 10
11028.846666999991
 20
18209.486251999992
 30
0.0
 11
11880.042626
 21
18611.41937
 31
0.0
  0
LINE
  5
36D7
  8
0-1
  6
CONTINUOUS
 62
     3
 10
13905.12485499998
 20
16632.865237999991
 30
0.0
 11
11028.846666999991
 21
15291.72676350001
 31
0.0
  0
LINE
  5
36D8
  8
0-1
  6
CONTINUOUS
 62
     3
 10
9673.5677129999895
 20
8478.9693009999955
 30
0.0
 11
15554.567118999979
 21
8478.9693009999955
 31
0.0
  0
LINE
  5
36D9
  8
0-1
  6
CONTINUOUS
 62
     3
 10
8963.567843999992
 20
6467.9239179999977
 30
0.0
 11
15587.066920999991
 21
6467.9239179999977
 31
0.0
  0
LINE
  5
36DA
  8
0-1
  6
CONTINUOUS
 62
     3
 10
9768.56777899999
 20
6617.9239179999977
 30
0.0
 11
12541.567053000001
 21
6617.9239179999977
 31
0.0
  0
LINE
  5
36DB
  8
0-1
  6
CONTINUOUS
 62
     3
 10
9646.0669209999924
 20
6567.9232579999998
 30
0.0
 11
15587.066920999991
 21
6567.9232579999998
 31
0.0
  0
LINE
  5
36DC
  8
0-1
  6
CONTINUOUS
 62
     3
 10
9768.56777899999
 20
8478.9693009999955
 30
0.0
 11
9768.56777899999
 21
6567.9232579999998
 31
0.0
  0
LINE
  5
36DD
  8
0-1
  6
CONTINUOUS
 62
     3
 10
9653.565666999988
 20
8601.0046419999962
 30
0.0
 11
9653.565666999988
 21
6567.9232579999998
 31
0.0
  0
LINE
  5
36DE
  8
0-1
  6
CONTINUOUS
 62
     3
 10
9673.5677129999895
 20
8601.6222520000028
 30
0.0
 11
9673.5677129999895
 21
6567.9232579999998
 31
0.0
  0
LINE
  5
36DF
  8
0-1
  6
CONTINUOUS
 62
     3
 10
9892.0669729999972
 20
6617.9239179999977
 30
0.0
 11
9892.0669729999972
 21
8478.9693009999955
 31
0.0
  0
LINE
  5
36E0
  8
0-1
  6
CONTINUOUS
 62
     3
 10
9907.0667759999887
 20
6617.9239179999977
 30
0.0
 11
9907.0667759999887
 21
8478.9693009999955
 31
0.0
  0
LINE
  5
36E1
  8
0-1
  6
CONTINUOUS
 62
     3
 10
10308.065772999969
 20
6617.9239179999977
 30
0.0
 11
10308.065772999969
 21
8478.9693009999955
 31
0.0
  0
LINE
  5
36E2
  8
0-1
  6
CONTINUOUS
 62
     3
 10
10293.065970999971
 20
6617.9239179999977
 30
0.0
 11
10293.065970999971
 21
8478.9693009999955
 31
0.0
  0
LINE
  5
36E3
  8
0-1
  6
CONTINUOUS
 62
     3
 10
10160.066075999979
 20
6617.9239179999977
 30
0.0
 11
10160.066075999979
 21
8478.9693009999955
 31
0.0
  0
LINE
  5
36E4
  8
0-1
  6
CONTINUOUS
 62
     3
 10
10040.067659999981
 20
6617.9239179999977
 30
0.0
 11
10040.067659999981
 21
8478.9693009999955
 31
0.0
  0
LINE
  5
36E5
  8
0-1
  6
CONTINUOUS
 62
     3
 10
10110.066405999991
 20
6617.9239179999977
 30
0.0
 11
10110.066405999991
 21
8478.9693009999955
 31
0.0
  0
LINE
  5
36E6
  8
0-1
  6
CONTINUOUS
 62
     3
 10
10090.06633999999
 20
6617.9239179999977
 30
0.0
 11
10090.06633999999
 21
8478.9693009999955
 31
0.0
  0
LINE
  5
36E7
  8
0-1
  6
CONTINUOUS
 62
     3
 10
9646.0669209999924
 20
6467.9239179999977
 30
0.0
 11
9646.0669209999924
 21
6567.9232579999998
 31
0.0
  0
LINE
  5
36E8
  8
0-1
  6
CONTINUOUS
 62
     3
 10
15649.57807199998
 20
8785.4680609999978
 30
0.0
 11
15645.56459799999
 21
8915.4066299999977
 31
0.0
  0
LINE
  5
36E9
  8
0-1
  6
CONTINUOUS
 62
     3
 10
12686.566789
 20
6617.9239179999977
 30
0.0
 11
15459.56705299999
 21
6617.9239179999977
 31
0.0
  0
LINE
  5
36EA
  8
0-1
  6
CONTINUOUS
 62
     3
 10
12686.566789
 20
8478.9693009999955
 30
0.0
 11
12686.566789
 21
6567.9232579999998
 31
0.0
  0
LINE
  5
36EB
  8
0-1
  6
CONTINUOUS
 62
     3
 10
12541.567053000001
 20
8478.9693009999955
 30
0.0
 11
12541.567053000001
 21
6567.9232579999998
 31
0.0
  0
LINE
  5
36EC
  8
0-1
  6
CONTINUOUS
 62
     3
 10
12810.06697399999
 20
6617.9239179999977
 30
0.0
 11
12810.06697399999
 21
8478.9693009999955
 31
0.0
  0
LINE
  5
36ED
  8
0-1
  6
CONTINUOUS
 62
     3
 10
12825.067766
 20
6617.9239179999977
 30
0.0
 11
12825.067766
 21
8478.9693009999955
 31
0.0
  0
LINE
  5
36EE
  8
0-1
  6
CONTINUOUS
 62
     3
 10
12958.06667
 20
6617.9239179999977
 30
0.0
 11
12958.06667
 21
8478.9693009999955
 31
0.0
  0
LINE
  5
36EF
  8
0-1
  6
CONTINUOUS
 62
     3
 10
13008.06832
 20
6617.9239179999977
 30
0.0
 11
13008.06832
 21
8478.9693009999955
 31
0.0
  0
LINE
  5
36F0
  8
0-1
  6
CONTINUOUS
 62
     3
 10
13028.066405999991
 20
6617.9239179999977
 30
0.0
 11
13028.066405999991
 21
8478.9693009999955
 31
0.0
  0
LINE
  5
36F1
  8
0-1
  6
CONTINUOUS
 62
     3
 10
12200.068426
 20
6617.9239179999977
 30
0.0
 11
12200.068426
 21
8478.9693009999955
 31
0.0
  0
LINE
  5
36F2
  8
0-1
  6
CONTINUOUS
 62
     3
 10
12220.067501999991
 20
6617.9239179999977
 30
0.0
 11
12220.067501999991
 21
8478.9693009999955
 31
0.0
  0
LINE
  5
36F3
  8
0-1
  6
CONTINUOUS
 62
     3
 10
12270.068162
 20
6617.9239179999977
 30
0.0
 11
12270.068162
 21
8478.9693009999955
 31
0.0
  0
LINE
  5
36F4
  8
0-1
  6
CONTINUOUS
 62
     3
 10
12403.068056
 20
6617.9239179999977
 30
0.0
 11
12403.068056
 21
8478.9693009999955
 31
0.0
  0
LINE
  5
36F5
  8
0-1
  6
CONTINUOUS
 62
     3
 10
12418.066867999991
 20
6617.9239179999977
 30
0.0
 11
12418.066867999991
 21
8478.9693009999955
 31
0.0
  0
LINE
  5
36F6
  8
0-1
  6
CONTINUOUS
 62
     3
 10
12150.067766
 20
6617.9239179999977
 30
0.0
 11
12150.067766
 21
8478.9693009999955
 31
0.0
  0
LINE
  5
36F7
  8
0-1
  6
CONTINUOUS
 62
     3
 10
12017.06787099999
 20
6617.9239179999977
 30
0.0
 11
12017.06787099999
 21
8478.9693009999955
 31
0.0
  0
LINE
  5
36F8
  8
0-1
  6
CONTINUOUS
 62
     3
 10
12002.06707899998
 20
6617.9239179999977
 30
0.0
 11
12002.06707899998
 21
8478.9693009999955
 31
0.0
  0
LINE
  5
36F9
  8
0-1
  6
CONTINUOUS
 62
     3
 10
10800.066775999991
 20
6617.9239179999977
 30
0.0
 11
10800.066775999991
 21
8478.9693009999955
 31
0.0
  0
LINE
  5
36FA
  8
0-1
  6
CONTINUOUS
 62
     3
 10
10820.06882099999
 20
6617.9239179999977
 30
0.0
 11
10820.06882099999
 21
8478.9693009999955
 31
0.0
  0
LINE
  5
36FB
  8
0-1
  6
CONTINUOUS
 62
     3
 10
10750.067106
 20
6617.9239179999977
 30
0.0
 11
10750.067106
 21
8478.9693009999955
 31
0.0
  0
LINE
  5
36FC
  8
0-1
  6
CONTINUOUS
 62
     3
 10
10870.066511999999
 20
6617.9239179999977
 30
0.0
 11
10870.066511999999
 21
8478.9693009999955
 31
0.0
  0
LINE
  5
36FD
  8
0-1
  6
CONTINUOUS
 62
     3
 10
11003.067395999989
 20
6617.9239179999977
 30
0.0
 11
11003.067395999989
 21
8478.9693009999955
 31
0.0
  0
LINE
  5
36FE
  8
0-1
  6
CONTINUOUS
 62
     3
 10
11018.068187999999
 20
6617.9239179999977
 30
0.0
 11
11018.068187999999
 21
8478.9693009999955
 31
0.0
  0
LINE
  5
36FF
  8
0-1
  6
CONTINUOUS
 62
     3
 10
10617.06622199999
 20
6617.9239179999977
 30
0.0
 11
10617.06622199999
 21
8478.9693009999955
 31
0.0
  0
LINE
  5
3700
  8
0-1
  6
CONTINUOUS
 62
     3
 10
10602.06740899999
 20
6617.9239179999977
 30
0.0
 11
10602.06740899999
 21
8478.9693009999955
 31
0.0
  0
LINE
  5
3701
  8
0-1
  6
CONTINUOUS
 62
     3
 10
11302.06675
 20
6617.9239179999977
 30
0.0
 11
11302.06675
 21
8478.9693009999955
 31
0.0
  0
LINE
  5
3702
  8
0-1
  6
CONTINUOUS
 62
     3
 10
11317.065561999991
 20
6617.9239179999977
 30
0.0
 11
11317.065561999991
 21
8478.9693009999955
 31
0.0
  0
LINE
  5
3703
  8
0-1
  6
CONTINUOUS
 62
     3
 10
11718.06752799999
 20
6617.9239179999977
 30
0.0
 11
11718.06752799999
 21
8478.9693009999955
 31
0.0
  0
LINE
  5
3704
  8
0-1
  6
CONTINUOUS
 62
     3
 10
11703.066735999981
 20
6617.9239179999977
 30
0.0
 11
11703.066735999981
 21
8478.9693009999955
 31
0.0
  0
LINE
  5
3705
  8
0-1
  6
CONTINUOUS
 62
     3
 10
11570.065851999991
 20
6617.9239179999977
 30
0.0
 11
11570.065851999991
 21
8478.9693009999955
 31
0.0
  0
LINE
  5
3706
  8
0-1
  6
CONTINUOUS
 62
     3
 10
11450.068425999991
 20
6617.9239179999977
 30
0.0
 11
11450.068425999991
 21
8478.9693009999955
 31
0.0
  0
LINE
  5
3707
  8
0-1
  6
CONTINUOUS
 62
     3
 10
11520.068162
 20
6617.9239179999977
 30
0.0
 11
11520.068162
 21
8478.9693009999955
 31
0.0
  0
LINE
  5
3708
  8
0-1
  6
CONTINUOUS
 62
     3
 10
11500.06809599999
 20
6617.9239179999977
 30
0.0
 11
11500.06809599999
 21
8478.9693009999955
 31
0.0
  0
LINE
  5
3709
  8
0-1
  6
CONTINUOUS
 62
     3
 10
11841.567713
 20
8478.9693009999955
 30
0.0
 11
11841.567713
 21
6617.9239179999977
 31
0.0
  0
LINE
  5
370A
  8
0-1
  6
CONTINUOUS
 62
     3
 10
11878.566894999991
 20
8478.9693009999955
 30
0.0
 11
11878.566894999991
 21
6617.9239179999977
 31
0.0
  0
LINE
  5
370B
  8
0-1
  6
CONTINUOUS
 62
     3
 10
10431.565956999981
 20
8478.9693009999955
 30
0.0
 11
10431.565956999981
 21
6617.9239179999977
 31
0.0
  0
LINE
  5
370C
  8
0-1
  6
CONTINUOUS
 62
     3
 10
10468.566128999981
 20
8478.9693009999955
 30
0.0
 11
10468.566128999981
 21
6617.9239179999977
 31
0.0
  0
LINE
  5
370D
  8
0-1
  6
CONTINUOUS
 62
     3
 10
11141.568373
 20
8478.9693009999955
 30
0.0
 11
11141.568373
 21
6617.9239179999977
 31
0.0
  0
LINE
  5
370E
  8
0-1
  6
CONTINUOUS
 62
     3
 10
11178.567555
 20
8478.9693009999955
 30
0.0
 11
11178.567555
 21
6617.9239179999977
 31
0.0
  0
LINE
  5
370F
  8
0-1
  6
CONTINUOUS
 62
     3
 10
12614.01545399998
 20
8692.0773429999954
 30
0.0
 11
12610.00296899999
 21
8822.0159119999971
 31
0.0
  0
LINE
  5
3710
  8
0-1
  6
CONTINUOUS
 62
     3
 10
12614.066920999991
 20
8692.0793229999981
 30
0.0
 11
12614.066920999991
 21
8478.9693009999955
 31
0.0
  0
LINE
  5
3711
  8
0-1
  6
CONTINUOUS
 62
     3
 10
15459.56705299999
 20
8478.9693009999955
 30
0.0
 11
15459.56705299999
 21
6567.9232579999998
 31
0.0
  0
LINE
  5
3712
  8
0-1
  6
CONTINUOUS
 62
     3
 10
15574.568173999991
 20
8783.1530139999977
 30
0.0
 11
15574.568173999991
 21
6567.9232579999998
 31
0.0
  0
LINE
  5
3713
  8
0-1
  6
CONTINUOUS
 62
     3
 10
15554.567118999979
 20
8782.5354040000002
 30
0.0
 11
15554.567118999979
 21
6567.9232579999998
 31
0.0
  0
LINE
  5
3714
  8
0-1
  6
CONTINUOUS
 62
     3
 10
14049.568267000001
 20
8478.9693009999955
 30
0.0
 11
14049.568267000001
 21
6617.9239179999977
 31
0.0
  0
LINE
  5
3715
  8
0-1
  6
CONTINUOUS
 62
     3
 10
14086.56843899999
 20
8478.9693009999955
 30
0.0
 11
14086.56843899999
 21
6617.9239179999977
 31
0.0
  0
LINE
  5
3716
  8
0-1
  6
CONTINUOUS
 62
     3
 10
14749.56760699999
 20
8478.9693009999955
 30
0.0
 11
14749.56760699999
 21
6617.9239179999977
 31
0.0
  0
LINE
  5
3717
  8
0-1
  6
CONTINUOUS
 62
     3
 10
14786.56678899999
 20
8478.9693009999955
 30
0.0
 11
14786.56678899999
 21
6617.9239179999977
 31
0.0
  0
LINE
  5
3718
  8
0-1
  6
CONTINUOUS
 62
     3
 10
13349.565957999999
 20
8478.9693009999955
 30
0.0
 11
13349.565957999999
 21
6617.9239179999977
 31
0.0
  0
LINE
  5
3719
  8
0-1
  6
CONTINUOUS
 62
     3
 10
13386.56711899999
 20
8478.9693009999955
 30
0.0
 11
13386.56711899999
 21
6617.9239179999977
 31
0.0
  0
LINE
  5
371A
  8
0-1
  6
CONTINUOUS
 62
     3
 10
13728.065747000001
 20
6617.9239179999977
 30
0.0
 11
13728.065747000001
 21
8478.9693009999955
 31
0.0
  0
LINE
  5
371B
  8
0-1
  6
CONTINUOUS
 62
     3
 10
13708.066669999989
 20
6617.9239179999977
 30
0.0
 11
13708.066669999989
 21
8478.9693009999955
 31
0.0
  0
LINE
  5
371C
  8
0-1
  6
CONTINUOUS
 62
     3
 10
13778.067395999989
 20
6617.9239179999977
 30
0.0
 11
13778.067395999989
 21
8478.9693009999955
 31
0.0
  0
LINE
  5
371D
  8
0-1
  6
CONTINUOUS
 62
     3
 10
13658.06799
 20
6617.9239179999977
 30
0.0
 11
13658.06799
 21
8478.9693009999955
 31
0.0
  0
LINE
  5
371E
  8
0-1
  6
CONTINUOUS
 62
     3
 10
13525.067106
 20
6617.9239179999977
 30
0.0
 11
13525.067106
 21
8478.9693009999955
 31
0.0
  0
LINE
  5
371F
  8
0-1
  6
CONTINUOUS
 62
     3
 10
13510.067303999989
 20
6617.9239179999977
 30
0.0
 11
13510.067303999989
 21
8478.9693009999955
 31
0.0
  0
LINE
  5
3720
  8
0-1
  6
CONTINUOUS
 62
     3
 10
13911.06828
 20
6617.9239179999977
 30
0.0
 11
13911.06828
 21
8478.9693009999955
 31
0.0
  0
LINE
  5
3721
  8
0-1
  6
CONTINUOUS
 62
     3
 10
13926.068081999991
 20
6617.9239179999977
 30
0.0
 11
13926.068081999991
 21
8478.9693009999955
 31
0.0
  0
LINE
  5
3722
  8
0-1
  6
CONTINUOUS
 62
     3
 10
14626.06742299998
 20
6617.9239179999977
 30
0.0
 11
14626.06742299998
 21
8478.9693009999955
 31
0.0
  0
LINE
  5
3723
  8
0-1
  6
CONTINUOUS
 62
     3
 10
14611.066630999991
 20
6617.9239179999977
 30
0.0
 11
14611.066630999991
 21
8478.9693009999955
 31
0.0
  0
LINE
  5
3724
  8
0-1
  6
CONTINUOUS
 62
     3
 10
14210.066644
 20
6617.9239179999977
 30
0.0
 11
14210.066644
 21
8478.9693009999955
 31
0.0
  0
LINE
  5
3725
  8
0-1
  6
CONTINUOUS
 62
     3
 10
14225.068425999991
 20
6617.9239179999977
 30
0.0
 11
14225.068425999991
 21
8478.9693009999955
 31
0.0
  0
LINE
  5
3726
  8
0-1
  6
CONTINUOUS
 62
     3
 10
14358.06831999998
 20
6617.9239179999977
 30
0.0
 11
14358.06831999998
 21
8478.9693009999955
 31
0.0
  0
LINE
  5
3727
  8
0-1
  6
CONTINUOUS
 62
     3
 10
14478.065747000001
 20
6617.9239179999977
 30
0.0
 11
14478.065747000001
 21
8478.9693009999955
 31
0.0
  0
LINE
  5
3728
  8
0-1
  6
CONTINUOUS
 62
     3
 10
14408.06601099999
 20
6617.9239179999977
 30
0.0
 11
14408.06601099999
 21
8478.9693009999955
 31
0.0
  0
LINE
  5
3729
  8
0-1
  6
CONTINUOUS
 62
     3
 10
14428.068056
 20
6617.9239179999977
 30
0.0
 11
14428.068056
 21
8478.9693009999955
 31
0.0
  0
LINE
  5
372A
  8
0-1
  6
CONTINUOUS
 62
     3
 10
15128.067396
 20
6617.9239179999977
 30
0.0
 11
15128.067396
 21
8478.9693009999955
 31
0.0
  0
LINE
  5
372B
  8
0-1
  6
CONTINUOUS
 62
     3
 10
15108.06831999998
 20
6617.9239179999977
 30
0.0
 11
15108.06831999998
 21
8478.9693009999955
 31
0.0
  0
LINE
  5
372C
  8
0-1
  6
CONTINUOUS
 62
     3
 10
15178.06805599998
 20
6617.9239179999977
 30
0.0
 11
15178.06805599998
 21
8478.9693009999955
 31
0.0
  0
LINE
  5
372D
  8
0-1
  6
CONTINUOUS
 62
     3
 10
15058.067660000001
 20
6617.9239179999977
 30
0.0
 11
15058.067660000001
 21
8478.9693009999955
 31
0.0
  0
LINE
  5
372E
  8
0-1
  6
CONTINUOUS
 62
     3
 10
14925.067765999989
 20
6617.9239179999977
 30
0.0
 11
14925.067765999989
 21
8478.9693009999955
 31
0.0
  0
LINE
  5
372F
  8
0-1
  6
CONTINUOUS
 62
     3
 10
14910.065984000001
 20
6617.9239179999977
 30
0.0
 11
14910.065984000001
 21
8478.9693009999955
 31
0.0
  0
LINE
  5
3730
  8
0-1
  6
CONTINUOUS
 62
     3
 10
15321.068054999991
 20
6617.9239179999977
 30
0.0
 11
15321.068054999991
 21
8478.9693009999955
 31
0.0
  0
LINE
  5
3731
  8
0-1
  6
CONTINUOUS
 62
     3
 10
15336.066867999991
 20
6617.9239179999977
 30
0.0
 11
15336.066867999991
 21
8478.9693009999955
 31
0.0
  0
LINE
  5
3732
  8
0-1
  6
CONTINUOUS
 62
     3
 10
13226.065773
 20
6617.9239179999977
 30
0.0
 11
13226.065773
 21
8478.9693009999955
 31
0.0
  0
LINE
  5
3733
  8
0-1
  6
CONTINUOUS
 62
     3
 10
13211.066961
 20
6617.9239179999977
 30
0.0
 11
13211.066961
 21
8478.9693009999955
 31
0.0
  0
LINE
  5
3734
  8
0-1
  6
CONTINUOUS
 62
     3
 10
13078.06805599998
 20
6617.9239179999977
 30
0.0
 11
13078.06805599998
 21
8478.9693009999955
 31
0.0
  0
LINE
  5
3735
  8
0-1
  6
CONTINUOUS
 62
     3
 10
15587.066920999991
 20
6567.9232579999998
 30
0.0
 11
15587.066920999991
 21
6467.9239179999977
 31
0.0
  0
LINE
  5
3736
  8
0-1
  6
CONTINUOUS
 62
     3
 10
9476.0958879999871
 20
8643.5494449999951
 30
0.0
 11
9475.0487219999868
 21
8677.5348099999956
 31
0.0
  0
LINE
  5
3737
  8
0-1
  6
CONTINUOUS
 62
     3
 10
9477.9546559999926
 20
8680.6248389999982
 30
0.0
 11
15658.94812299998
 21
8870.7981789999976
 31
0.0
  0
LINE
  5
3738
  8
0-1
  6
CONTINUOUS
 62
     3
 10
15660.181362999991
 20
8830.8168519999981
 30
0.0
 11
9479.1878959999922
 21
8640.6435120000024
 31
0.0
  0
LINE
  5
3739
  8
0-1
  6
CONTINUOUS
 62
     3
 10
9477.8012429999908
 20
8685.6231229999976
 30
0.0
 11
15658.79372099998
 21
8875.7954730000001
 31
0.0
  0
LINE
  5
373A
  8
0-1
  6
CONTINUOUS
 62
     3
 10
15660.334775999991
 20
8825.818567999997
 30
0.0
 11
9479.3403189999863
 21
8635.6462179999962
 31
0.0
  0
LINE
  5
373B
  8
0-1
  6
CONTINUOUS
 62
     3
 10
9476.4343849999877
 20
8632.5551990000004
 30
0.0
 11
9476.4343849999877
 21
8632.6205229999978
 31
0.0
  0
LINE
  5
373C
  8
0-1
  6
CONTINUOUS
 62
     3
 10
9476.4343849999877
 20
8632.6205229999978
 30
0.0
 11
9477.4241449999918
 21
8600.5711280000032
 31
0.0
  0
LINE
  5
373D
  8
0-1
  6
CONTINUOUS
 62
     3
 10
9482.5758419999911
 20
8595.7282360000008
 30
0.0
 11
15682.54200499999
 21
8786.4855330000028
 31
0.0
  0
LINE
  5
373E
  8
0-1
  6
CONTINUOUS
 62
     3
 10
15678.53149999999
 20
8916.4250919999977
 30
0.0
 11
9478.5653369999909
 21
8725.6658149999967
 31
0.0
  0
LINE
  5
373F
  8
0-1
  6
CONTINUOUS
 62
     3
 10
9473.7204649999876
 20
8720.5131280000005
 30
0.0
 11
9474.7092349999912
 21
8688.5290559999976
 31
0.0
  0
LINE
  5
3740
  8
0-1
  6
CONTINUOUS
 62
     3
 10
9491.0600579999864
 20
8726.0508310000005
 30
0.0
 11
9495.0705629999884
 21
8596.1122620000006
 31
0.0
  0
LINE
  5
3741
  8
0-1
  6
CONTINUOUS
 62
     3
 10
14294.849543
 20
16242.41749699998
 30
0.0
 11
14294.849543
 21
19873.483215999979
 31
0.0
  0
LINE
  5
3742
  8
0-1
  6
CONTINUOUS
 62
     3
 10
10888.346297
 20
19495.17939999999
 30
0.0
 11
10888.346297
 21
19873.483215999979
 31
0.0
  0
LINE
  5
3743
  8
0-1
  6
CONTINUOUS
 62
     3
 10
10888.346297
 20
19850.984007999989
 30
0.0
 11
10938.848765000001
 21
19850.984007999989
 31
0.0
  0
LINE
  5
3744
  8
0-1
  6
CONTINUOUS
 62
     3
 10
10888.346297
 20
19873.483215999979
 30
0.0
 11
10870.346535000001
 21
19873.483215999979
 31
0.0
  0
LINE
  5
3745
  8
0-1
  6
CONTINUOUS
 62
     3
 10
10938.848765000001
 20
19890.982161
 30
0.0
 11
10875.34778799999
 21
19890.982161
 31
0.0
  0
LINE
  5
3746
  8
0-1
  6
CONTINUOUS
 62
     3
 10
10870.346535000001
 20
19885.981897000001
 30
0.0
 11
10870.346535000001
 21
19850.984007999989
 31
0.0
  0
LINE
  5
3747
  8
0-1
  6
CONTINUOUS
 62
     3
 10
10943.849028999981
 20
19855.984272000002
 30
0.0
 11
10943.849028999981
 21
19885.981897000001
 31
0.0
  0
LINE
  5
3748
  8
0-1
  6
CONTINUOUS
 62
     3
 10
10943.84902899997
 20
19870.982161000022
 30
0.0
 11
14239.347800999991
 21
19870.982161000022
 31
0.0
  0
LINE
  5
3749
  8
0-1
  6
CONTINUOUS
 62
     3
 10
14244.347074999991
 20
19890.982161
 30
0.0
 11
14307.848051999979
 21
19890.982161
 31
0.0
  0
LINE
  5
374A
  8
0-1
  6
CONTINUOUS
 62
     3
 10
14294.849543
 20
19850.984007999989
 30
0.0
 11
14244.347074999991
 21
19850.984007999989
 31
0.0
  0
LINE
  5
374B
  8
0-1
  6
CONTINUOUS
 62
     3
 10
14239.347800999991
 20
19855.984272000002
 30
0.0
 11
14239.347800999991
 21
19885.981897000001
 31
0.0
  0
LINE
  5
374C
  8
0-1
  6
CONTINUOUS
 62
     3
 10
14312.848316
 20
19885.981897000001
 30
0.0
 11
14312.848316
 21
19850.984007999989
 31
0.0
  0
LINE
  5
374D
  8
0-1
  6
CONTINUOUS
 62
     3
 10
14294.849543
 20
19873.483215999979
 30
0.0
 11
14312.848316
 21
19873.483215999979
 31
0.0
  0
LINE
  5
3751
  8
0-5
  6
CONTINUOUS
 62
     4
 10
18457.442461999992
 20
6675.7694099999972
 30
0.0
 11
18577.438899000001
 21
6467.9239179999977
 31
0.0
  0
LINE
  5
3752
  8
0-5
  6
CONTINUOUS
 62
     4
 10
15667.066196
 20
6467.9239179999977
 30
0.0
 11
20549.312579000001
 21
6467.9239179999977
 31
0.0
  0
LINE
  5
3753
  8
0-5
  6
CONTINUOUS
 62
     4
 10
18577.438899000001
 20
6467.9239179999977
 30
0.0
 11
18697.439295
 21
6675.7694099999972
 31
0.0
  0
LINE
  5
3754
  8
0-5
  6
CONTINUOUS
 62
     4
 10
18697.439295
 20
6675.7694099999972
 30
0.0
 11
18457.442461999992
 21
6675.7694099999972
 31
0.0
  0
LINE
  5
3757
  8
0-6
  6
CONTINUOUS
 62
     6
 10
12544.734283
 20
19608.708749000001
 30
0.0
 11
12688.63835499999
 21
20120.982424000002
 31
0.0
  0
LINE
  5
3758
  8
0-6
  6
CONTINUOUS
 62
     6
 10
12518.847129
 20
19615.104574000001
 30
0.0
 11
12506.347459000001
 21
19453.383844
 31
0.0
  0
LINE
  5
3759
  8
0-6
  6
CONTINUOUS
 62
     6
 10
12506.347459000001
 20
19453.383844
 30
0.0
 11
12570.622426999989
 21
19602.30896599999
 31
0.0
  0
LINE
  5
375A
  8
0-6
  6
CONTINUOUS
 62
     6
 10
12506.347459000001
 20
19453.383844
 30
0.0
 11
12518.847129
 21
19615.104574000001
 31
0.0
  0
LINE
  5
375B
  8
0-6
  6
CONTINUOUS
 62
     6
 10
12518.847129
 20
19615.104574000001
 30
0.0
 11
12570.622426999989
 21
19602.30896599999
 31
0.0
  0
LINE
  5
375C
  8
0-6
  6
CONTINUOUS
 62
     6
 10
12570.622426999989
 20
19602.30896599999
 30
0.0
 11
12506.347459000001
 21
19453.383844
 31
0.0
  0
LINE
  5
375D
  8
0-6
  6
CONTINUOUS
 62
     6
 10
12570.622426999989
 20
19602.30896599999
 30
0.0
 11
12518.847129
 21
19615.104574000001
 31
0.0
  0
LINE
  5
375E
  8
0-6
  6
CONTINUOUS
 62
     6
 10
12688.63835499999
 20
20120.982424000002
 30
0.0
 11
13240.445986000001
 21
20120.982424000002
 31
0.0
  0
LINE
  5
375F
  8
0-6
  6
CONTINUOUS
 62
     6
 10
11048.663626999991
 20
18779.886299000002
 30
0.0
 11
10958.84792
 21
18914.958749000001
 31
0.0
  0
LINE
  5
3760
  8
0-6
  6
CONTINUOUS
 62
     6
 10
10958.84792
 20
18914.958749000001
 30
0.0
 11
11000.00211199998
 21
18758.060127000001
 31
0.0
  0
LINE
  5
3761
  8
0-6
  6
CONTINUOUS
 62
     6
 10
10958.84792
 20
18914.958749000001
 30
0.0
 11
11048.663626999991
 21
18779.886299000002
 31
0.0
  0
LINE
  5
3762
  8
0-6
  6
CONTINUOUS
 62
     6
 10
11048.663626999991
 20
18779.886299000002
 30
0.0
 11
11000.00211199998
 21
18758.060127000001
 31
0.0
  0
LINE
  5
3763
  8
0-6
  6
CONTINUOUS
 62
     6
 10
11000.00211199998
 20
18758.060127000001
 30
0.0
 11
10958.84792
 21
18914.958749000001
 31
0.0
  0
LINE
  5
3764
  8
0-6
  6
CONTINUOUS
 62
     6
 10
11000.00211199998
 20
18758.060127000001
 30
0.0
 11
11048.663626999991
 21
18779.886299000002
 31
0.0
  0
LINE
  5
3765
  8
0-6
  6
CONTINUOUS
 62
     6
 10
11123.375607
 20
18548.179690000001
 30
0.0
 11
11643.375342999991
 21
18548.179690000001
 31
0.0
  0
LINE
  5
3766
  8
0-6
  6
CONTINUOUS
 62
     6
 10
12109.229307999991
 20
14026.876956999989
 30
0.0
 11
12166.28695099998
 21
14148.67673499999
 31
0.0
  0
LINE
  5
3767
  8
0-6
  6
CONTINUOUS
 62
     6
 10
12166.28695099998
 20
14148.67673499999
 30
0.0
 11
12966.28662099999
 21
14148.67673499999
 31
0.0
  0
LINE
  5
3768
  8
0-6
  6
CONTINUOUS
 62
     6
 10
12716.27243499999
 20
13517.43993199999
 30
0.0
 11
12610.00296899999
 21
13639.98697799999
 31
0.0
  0
LINE
  5
3769
  8
0-6
  6
CONTINUOUS
 62
     6
 10
12610.00296899999
 20
13639.98697799999
 30
0.0
 11
12670.783097999991
 21
13489.59800299999
 31
0.0
  0
LINE
  5
376A
  8
0-6
  6
CONTINUOUS
 62
     6
 10
12610.00296899999
 20
13639.98697799999
 30
0.0
 11
12716.27243499999
 21
13517.43993199999
 31
0.0
  0
LINE
  5
376B
  8
0-6
  6
CONTINUOUS
 62
     6
 10
12716.27243499999
 20
13517.43993199999
 30
0.0
 11
12670.783097999991
 21
13489.59800299999
 31
0.0
  0
LINE
  5
376C
  8
0-6
  6
CONTINUOUS
 62
     6
 10
12670.783097999991
 20
13489.59800299999
 30
0.0
 11
12610.00296899999
 21
13639.98697799999
 31
0.0
  0
LINE
  5
376D
  8
0-6
  6
CONTINUOUS
 62
     6
 10
12670.783097999991
 20
13489.59800299999
 30
0.0
 11
12716.27243499999
 21
13517.43993199999
 31
0.0
  0
LINE
  5
376E
  8
0-6
  6
CONTINUOUS
 62
     6
 10
12085.080170999991
 20
14038.188915999999
 30
0.0
 11
12041.35458499999
 21
13881.986094
 31
0.0
  0
LINE
  5
376F
  8
0-6
  6
CONTINUOUS
 62
     6
 10
12041.35458499999
 20
13881.986094
 30
0.0
 11
12133.377454999991
 21
14015.565986999991
 31
0.0
  0
LINE
  5
3770
  8
0-6
  6
CONTINUOUS
 62
     6
 10
12041.35458499999
 20
13881.986094
 30
0.0
 11
12085.080170999991
 21
14038.188915999999
 31
0.0
  0
LINE
  5
3771
  8
0-6
  6
CONTINUOUS
 62
     6
 10
12085.080170999991
 20
14038.188915999999
 30
0.0
 11
12133.377454999991
 21
14015.565986999991
 31
0.0
  0
LINE
  5
3772
  8
0-6
  6
CONTINUOUS
 62
     6
 10
12133.377454999991
 20
14015.565986999991
 30
0.0
 11
12041.35458499999
 21
13881.986094
 31
0.0
  0
LINE
  5
3773
  8
0-6
  6
CONTINUOUS
 62
     6
 10
12133.377454999991
 20
14015.565986999991
 30
0.0
 11
12085.080170999991
 21
14038.188915999999
 31
0.0
  0
LINE
  5
3774
  8
0-6
  6
CONTINUOUS
 62
     6
 10
13099.641838999991
 20
12839.987307999991
 30
0.0
 11
13972.721454999981
 21
12839.987307999991
 31
0.0
  0
LINE
  5
3775
  8
0-6
  6
CONTINUOUS
 62
     6
 10
12693.52776599999
 20
13503.518966999991
 30
0.0
 11
13099.641838999991
 21
12839.987307999991
 31
0.0
  0
LINE
  5
3776
  8
0-6
  6
CONTINUOUS
 62
     6
 10
10806.898095
 20
14212.27668699999
 30
0.0
 11
10829.346825000001
 21
14372.92352799999
 31
0.0
  0
LINE
  5
3777
  8
0-6
  6
CONTINUOUS
 62
     6
 10
10829.346825000001
 20
14372.92352799999
 30
0.0
 11
10756.00962099999
 21
14228.241504999991
 31
0.0
  0
LINE
  5
3778
  8
0-6
  6
CONTINUOUS
 62
     6
 10
10829.346825000001
 20
14372.92352799999
 30
0.0
 11
10806.898095
 21
14212.27668699999
 31
0.0
  0
LINE
  5
3779
  8
0-6
  6
CONTINUOUS
 62
     6
 10
10806.898095
 20
14212.27668699999
 30
0.0
 11
10756.00962099999
 21
14228.241504999991
 31
0.0
  0
LINE
  5
377A
  8
0-6
  6
CONTINUOUS
 62
     6
 10
10756.00962099999
 20
14228.241504999991
 30
0.0
 11
10829.346825000001
 21
14372.92352799999
 31
0.0
  0
LINE
  5
377B
  8
0-6
  6
CONTINUOUS
 62
     6
 10
10756.00962099999
 20
14228.241504999991
 30
0.0
 11
10806.898095
 21
14212.27668699999
 31
0.0
  0
LINE
  5
377C
  8
0-6
  6
CONTINUOUS
 62
     6
 10
9114.7145539999983
 20
12349.987176000001
 30
0.0
 11
10194.714158000001
 21
12349.987176000001
 31
0.0
  0
LINE
  5
377D
  8
0-6
  6
CONTINUOUS
 62
     6
 10
10781.45534199999
 20
14220.259095999991
 30
0.0
 11
10194.714158000001
 21
12349.987176000001
 31
0.0
  0
LINE
  5
377E
  8
0-6
  6
CONTINUOUS
 62
     6
 10
11024.33336399998
 20
18768.97321299999
 30
0.0
 11
11123.375607
 21
18548.179690000001
 31
0.0
  0
LINE
  5
377F
  8
0-6
  6
CONTINUOUS
 62
     6
 10
13547.676176999999
 20
18305.843278
 30
0.0
 11
14731.584749999991
 21
18708.57414199999
 31
0.0
  0
LINE
  5
3780
  8
0-6
  6
CONTINUOUS
 62
     6
 10
13547.676176999999
 20
16846.843278
 30
0.0
 11
14731.584749999991
 21
17254.574195000001
 31
0.0
  0
LINE
  5
3781
  8
0-6
  6
CONTINUOUS
 62
     6
 10
14731.584749999991
 20
17254.574195000001
 30
0.0
 11
16726.02791099999
 21
17254.574195000001
 31
0.0
  0
LINE
  5
3782
  8
0-6
  6
CONTINUOUS
 62
     6
 10
14731.584749999991
 20
18708.57414199999
 30
0.0
 11
16726.02791099999
 21
18708.57414199999
 31
0.0
  0
LINE
  5
3783
  8
0-6
  6
CONTINUOUS
 62
     6
 10
13545.236420999991
 20
15188.669067500001
 30
0.0
 11
14731.584749999991
 21
14725.554968
 31
0.0
  0
LINE
  5
3784
  8
0-6
  6
CONTINUOUS
 62
     6
 10
14731.584749999991
 20
14725.554968
 30
0.0
 11
16726.02791099999
 21
14725.554968
 31
0.0
  0
LINE
  5
3785
  8
0-6
  6
CONTINUOUS
 62
     6
 10
13826.052985
 20
15446.21829150001
 30
0.0
 11
14731.584749999991
 21
15747.909012
 31
0.0
  0
LINE
  5
3786
  8
0-6
  6
CONTINUOUS
 62
     6
 10
14731.584749999991
 20
15747.909012
 30
0.0
 11
15611.583694000001
 21
15747.909012
 31
0.0
  0
LINE
  5
3787
  8
0-6
  6
CONTINUOUS
 62
     6
 10
13969.022725000001
 20
15522.835558500001
 30
0.0
 11
13826.052985
 21
15446.21829150001
 31
0.0
  0
LINE
  5
3788
  8
0-6
  6
CONTINUOUS
 62
     6
 10
13826.052985
 20
15446.21829150001
 30
0.0
 11
13986.143581
 21
15472.32418250001
 31
0.0
  0
LINE
  5
3789
  8
0-6
  6
CONTINUOUS
 62
     6
 10
13826.052985
 20
15446.21829150001
 30
0.0
 11
13969.022725000001
 21
15522.835558500001
 31
0.0
  0
LINE
  5
378A
  8
0-6
  6
CONTINUOUS
 62
     6
 10
13969.022725000001
 20
15522.835558500001
 30
0.0
 11
13986.143581
 21
15472.32418250001
 31
0.0
  0
LINE
  5
378B
  8
0-6
  6
CONTINUOUS
 62
     6
 10
13986.143581
 20
15472.32418250001
 30
0.0
 11
13826.052985
 21
15446.21829150001
 31
0.0
  0
LINE
  5
378C
  8
0-6
  6
CONTINUOUS
 62
     6
 10
13986.143581
 20
15472.32418250001
 30
0.0
 11
13969.022725000001
 21
15522.835558500001
 31
0.0
  0
LINE
  5
378D
  8
0-6
  6
CONTINUOUS
 62
     6
 10
13554.914286999991
 20
15213.517964500021
 30
0.0
 11
13396.143040000001
 21
15246.727357500011
 31
0.0
  0
LINE
  5
378E
  8
0-6
  6
CONTINUOUS
 62
     6
 10
13396.143040000001
 20
15246.727357500011
 30
0.0
 11
13535.560534
 21
15163.819180500001
 31
0.0
  0
LINE
  5
378F
  8
0-6
  6
CONTINUOUS
 62
     6
 10
13396.143040000001
 20
15246.727357500011
 30
0.0
 11
13554.914286999991
 21
15213.517964500021
 31
0.0
  0
LINE
  5
3790
  8
0-6
  6
CONTINUOUS
 62
     6
 10
13554.914286999991
 20
15213.517964500021
 30
0.0
 11
13535.560534
 21
15163.819180500001
 31
0.0
  0
LINE
  5
3791
  8
0-6
  6
CONTINUOUS
 62
     6
 10
13535.560534
 20
15163.819180500001
 30
0.0
 11
13396.143040000001
 21
15246.727357500011
 31
0.0
  0
LINE
  5
3792
  8
0-6
  6
CONTINUOUS
 62
     6
 10
13535.560534
 20
15163.819180500001
 30
0.0
 11
13554.914286999991
 21
15213.517964500021
 31
0.0
  0
LINE
  5
3793
  8
0-6
  6
CONTINUOUS
 62
     6
 10
13539.113769999991
 20
16872.103915
 30
0.0
 11
13396.143040000001
 21
16795.482688999989
 31
0.0
  0
LINE
  5
3794
  8
0-6
  6
CONTINUOUS
 62
     6
 10
13396.143040000001
 20
16795.482688999989
 30
0.0
 11
13556.234625999999
 21
16821.590560000001
 31
0.0
  0
LINE
  5
3795
  8
0-6
  6
CONTINUOUS
 62
     6
 10
13396.143040000001
 20
16795.482688999989
 30
0.0
 11
13539.113769999991
 21
16872.103915
 31
0.0
  0
LINE
  5
3796
  8
0-6
  6
CONTINUOUS
 62
     6
 10
13539.113769999991
 20
16872.103915
 30
0.0
 11
13556.234625999999
 21
16821.590560000001
 31
0.0
  0
LINE
  5
3797
  8
0-6
  6
CONTINUOUS
 62
     6
 10
13556.234625999999
 20
16821.590560000001
 30
0.0
 11
13396.143040000001
 21
16795.482688999989
 31
0.0
  0
LINE
  5
3798
  8
0-6
  6
CONTINUOUS
 62
     6
 10
13556.234625999999
 20
16821.590560000001
 30
0.0
 11
13539.113769999991
 21
16872.103915
 31
0.0
  0
LINE
  5
3799
  8
0-6
  6
CONTINUOUS
 62
     6
 10
13539.113769999991
 20
18331.103914999989
 30
0.0
 11
13396.143040000001
 21
18254.482688999989
 31
0.0
  0
LINE
  5
379A
  8
0-6
  6
CONTINUOUS
 62
     6
 10
13396.143040000001
 20
18254.482688999989
 30
0.0
 11
13556.234625999999
 21
18280.590560000001
 31
0.0
  0
LINE
  5
379B
  8
0-6
  6
CONTINUOUS
 62
     6
 10
13396.143040000001
 20
18254.482688999989
 30
0.0
 11
13539.113769999991
 21
18331.103914999989
 31
0.0
  0
LINE
  5
379C
  8
0-6
  6
CONTINUOUS
 62
     6
 10
13539.113769999991
 20
18331.103914999989
 30
0.0
 11
13556.234625999999
 21
18280.590560000001
 31
0.0
  0
LINE
  5
379D
  8
0-6
  6
CONTINUOUS
 62
     6
 10
13556.234625999999
 20
18280.590560000001
 30
0.0
 11
13396.143040000001
 21
18254.482688999989
 31
0.0
  0
LINE
  5
379E
  8
0-6
  6
CONTINUOUS
 62
     6
 10
13556.234625999999
 20
18280.590560000001
 30
0.0
 11
13539.113769999991
 21
18331.103914999989
 31
0.0
  0
LINE
  5
379F
  8
0-6
  6
CONTINUOUS
 62
     6
 10
14401.536647000001
 20
20024.791678000001
 30
0.0
 11
14309.848316
 21
19890.982161
 31
0.0
  0
LINE
  5
37A0
  8
0-6
  6
CONTINUOUS
 62
     6
 10
14309.848316
 20
19890.982161
 30
0.0
 11
14439.97691899999
 21
19987.826147999978
 31
0.0
  0
LINE
  5
37A1
  8
0-6
  6
CONTINUOUS
 62
     6
 10
14309.848316
 20
19890.982161
 30
0.0
 11
14401.536647000001
 21
20024.791678000001
 31
0.0
  0
LINE
  5
37A2
  8
0-6
  6
CONTINUOUS
 62
     6
 10
14401.536647000001
 20
20024.791678000001
 30
0.0
 11
14439.97691899999
 21
19987.826147999978
 31
0.0
  0
LINE
  5
37A3
  8
0-6
  6
CONTINUOUS
 62
     6
 10
14439.97691899999
 20
19987.826147999978
 30
0.0
 11
14309.848316
 21
19890.982161
 31
0.0
  0
LINE
  5
37A4
  8
0-6
  6
CONTINUOUS
 62
     6
 10
14439.97691899999
 20
19987.826147999978
 30
0.0
 11
14401.536647000001
 21
20024.791678000001
 31
0.0
  0
LINE
  5
37A5
  8
0-6
  6
CONTINUOUS
 62
     6
 10
14420.755793
 20
20006.304953999988
 30
0.0
 11
14937.746660999999
 21
20510.985196000001
 31
0.0
  0
LINE
  5
37A6
  8
0-6
  6
CONTINUOUS
 62
     6
 10
14937.746660999999
 20
20510.985196000001
 30
0.0
 11
16612.745010999999
 21
20510.985196000001
 31
0.0
  0
LINE
  5
37A7
  8
2-0
  6
DASHED3
 62
     6
 10
10958.84792
 20
19629.48379699999
 30
0.0
 11
14227.347919999989
 21
19629.48379699999
 31
0.0
  0
LINE
  5
37A8
  8
2-0
  6
DASHED3
 62
     6
 10
10916.347655999991
 20
19475.453496999991
 30
0.0
 11
10916.347655999991
 21
19714.486303999991
 31
0.0
  0
LINE
  5
37A9
  8
2-0
  6
DASHED3
 62
     6
 10
10958.84792
 20
19437.347763999991
 30
0.0
 11
10958.84792
 21
19714.486303999991
 31
0.0
  0
LINE
  5
37AA
  8
2-0
  6
DASHED3
 62
     6
 10
10916.347655999991
 20
19714.486303999991
 30
0.0
 11
14269.84917399999
 21
19714.486303999991
 31
0.0
  0
LINE
  5
37AB
  8
2-0
  6
DASHED3
 62
     6
 10
14227.347919999989
 20
16305.873935
 30
0.0
 11
14227.347919999989
 21
19714.486303999991
 31
0.0
  0
LINE
  5
37AC
  8
2-0
  6
DASHED3
 62
     6
 10
14269.84917399999
 20
16264.06155299999
 30
0.0
 11
14269.84917399999
 21
19714.486303999991
 31
0.0
  0
LINE
  5
37AD
  8
0-7
  6
CONTINUOUS
 62
     6
 10
13831.310585999991
 20
16705.483876999999
 30
0.0
 11
14227.347919999989
 21
16705.483876999999
 31
0.0
  0
LINE
  5
37AE
  8
0-7
  6
CONTINUOUS
 62
     6
 10
13739.82515499998
 20
16795.482688999989
 30
0.0
 11
14227.347919999989
 21
16795.482688999989
 31
0.0
  0
LINE
  5
37AF
  8
2-0
  6
DASHED3
 62
     6
 10
12552.453416
 20
18164.483876999991
 30
0.0
 11
14227.347919999989
 21
18164.483876999991
 31
0.0
  0
LINE
  5
37B0
  8
2-0
  6
DASHED3
 62
     6
 10
12523.257495999989
 20
18254.482688999989
 30
0.0
 11
14227.347919999989
 21
18254.482688999989
 31
0.0
  0
LINE
  5
37B1
  8
0-7
  6
CONTINUOUS
 62
     6
 10
14157.348183999989
 20
16750.486251999992
 30
0.0
 11
13905.12485499998
 21
16632.865237999991
 31
0.0
  0
LINE
  5
37B2
  8
2-0
  6
DASHED3
 62
     6
 10
11028.846666999991
 20
19668.486251999992
 30
0.0
 11
14157.348183999989
 21
18209.486251999992
 31
0.0
  0
LINE
  5
37B3
  8
2-0
  6
DASHED3
 62
     6
 10
12749.268040000001
 20
17562.759504000001
 30
0.0
 11
14157.348183999989
 21
18209.486251999992
 31
0.0
  0
LINE
  5
37B4
  8
2-0
  6
DASHED3
 62
     6
 10
11880.042626
 20
18611.41937
 30
0.0
 11
14157.348183999989
 21
19668.486251999992
 31
0.0
  0
LINE
  5
37B5
  8
0-7
  6
CONTINUOUS
 62
     6
 10
13440.023029
 20
17090.095996
 30
0.0
 11
14157.348183999989
 21
16750.486251999992
 31
0.0
  0
LINE
  5
37B6
  8
2-0
  6
CENTER2
 62
     6
 10
14227.347919999989
 20
20910.984535999989
 30
0.0
 11
14227.347919999989
 21
19960.981896999991
 31
0.0
  0
LINE
  5
37B7
  8
2-0
  6
CENTER2
 62
     6
 10
9629.3478150000028
 20
19668.486251999992
 30
0.0
 11
11275.84703599999
 21
19668.486251999992
 31
0.0
  0
LINE
  5
37B8
  8
2-0
  6
CENTER2
 62
     6
 10
10958.84792
 20
20910.984535999989
 30
0.0
 11
10958.84792
 21
19960.981896999991
 31
0.0
  0
LINE
  5
37B9
  8
2-0
  6
CENTER2
 62
     6
 10
9629.3478150000028
 20
16750.486251999992
 30
0.0
 11
11275.84703599999
 21
16750.486251999992
 31
0.0
  0
LINE
  5
37BA
  8
2-0
  6
CENTER2
 62
     6
 10
9629.3478150000028
 20
13832.486252000001
 30
0.0
 11
11275.84703599999
 21
13832.486252000001
 31
0.0
  0
LINE
  5
37BB
  8
2-0
  6
CENTER2
 62
     6
 10
10740.051731999991
 20
15291.72676350001
 30
0.0
 11
14399.14439899999
 21
15291.72676350001
 31
0.0
  0
LINE
  5
37BC
  8
2-0
  6
CENTER2
 62
     6
 10
10740.051731999991
 20
18209.486251999992
 30
0.0
 11
14399.14439899999
 21
18209.486251999992
 31
0.0
  0
LINE
  5
37BD
  8
2-0
  6
CENTER2
 62
     6
 10
9696.0669209999924
 20
6205.2705050000013
 30
0.0
 11
9696.0669209999924
 21
7262.4131029999999
 31
0.0
  0
LINE
  5
37BE
  8
2-0
  6
CENTER2
 62
     6
 10
12614.066920999991
 20
6205.2705050000013
 30
0.0
 11
12614.066920999991
 21
7262.4131029999999
 31
0.0
  0
LINE
  5
37BF
  8
2-0
  6
CENTER2
 62
     6
 10
15532.066920999991
 20
6205.2705050000013
 30
0.0
 11
15532.066920999991
 21
7262.4131029999999
 31
0.0
  0
ARC
  5
37C0
  8
0-1
  6
CONTINUOUS
 62
     3
 10
9480.7645819999907
 20
8638.1918779999978
 30
0.0
 40
2.5
 50
271.76798999988188
 51
91.767989999881905
  0
ARC
  5
37C1
  8
0-1
  6
CONTINUOUS
 62
     3
 10
9479.3769399999946
 20
8683.1695100000015
 30
0.0
 40
2.5
 50
271.76798999988188
 51
91.767989999881905
  0
ARC
  5
37C2
  8
0-1
  6
CONTINUOUS
 62
     3
 10
9478.0457129999886
 20
8677.6268579999978
 30
0.0
 40
3.0
 50
91.767989999881905
 51
181.7679900000025
  0
ARC
  5
37C3
  8
0-1
  6
CONTINUOUS
 62
     3
 10
15659.56474299999
 20
8850.8070199999984
 30
0.0
 40
20.0
 50
271.76798999988188
 51
91.767989999881905
  0
ARC
  5
37C4
  8
0-1
  6
CONTINUOUS
 62
     3
 10
9479.0958479999917
 20
8643.6434729999946
 30
0.0
 40
3.0
 50
181.7679900000025
 51
271.76798999988188
  0
ARC
  5
37C5
  8
0-1
  6
CONTINUOUS
 62
     3
 10
15659.56474299999
 20
8850.8070199999984
 30
0.0
 40
24.999998999999999
 50
271.76798999988188
 51
91.767989999881905
  0
ARC
  5
37C6
  8
0-1
  6
CONTINUOUS
 62
     3
 10
9479.4363249999915
 20
8632.6482369999976
 30
0.0
 40
3.0
 50
91.767989999881905
 51
181.7679900000025
  0
ARC
  5
37C7
  8
0-1
  6
CONTINUOUS
 62
     3
 10
9482.4214389999943
 20
8600.7255299999979
 30
0.0
 40
5.0
 50
181.7679900000025
 51
271.76798999988188
  0
ARC
  5
37C8
  8
0-1
  6
CONTINUOUS
 62
     3
 10
15654.567447999991
 20
8850.6526179999983
 30
0.0
 40
69.999999000000003
 50
293.55477900012983
 51
69.98120099991209
  0
ARC
  5
37C9
  8
0-1
  6
CONTINUOUS
 62
     3
 10
9478.7197399999877
 20
8720.6675300000006
 30
0.0
 40
5.0
 50
91.767989999881905
 51
181.7679900000025
  0
ARC
  5
37CA
  8
0-1
  6
CONTINUOUS
 62
     3
 10
9477.7062259999911
 20
8688.6211039999998
 30
0.0
 40
3.0
 50
181.7679900000025
 51
271.76798999988188
  0
ARC
  5
37CB
  8
0-1
  6
CONTINUOUS
 62
     3
 10
10875.34778799999
 20
19885.981897000001
 30
0.0
 40
5.0
 50
90.0
 51
180.0
  0
ARC
  5
37CC
  8
0-1
  6
CONTINUOUS
 62
     3
 10
10938.848765000001
 20
19885.981897000001
 30
0.0
 40
5.0
 50
0.0
 51
90.0
  0
ARC
  5
37CD
  8
0-1
  6
CONTINUOUS
 62
     3
 10
10938.848765000001
 20
19855.984272000002
 30
0.0
 40
5.0
 50
269.9999850001808
 51
0.0
  0
ARC
  5
37CE
  8
0-1
  6
CONTINUOUS
 62
     3
 10
14244.347074999991
 20
19855.984272000002
 30
0.0
 40
5.0
 50
180.0
 51
269.9999850001808
  0
ARC
  5
37CF
  8
0-1
  6
CONTINUOUS
 62
     3
 10
14244.347074999991
 20
19885.981897000001
 30
0.0
 40
5.0
 50
90.0
 51
180.0
  0
ARC
  5
37D0
  8
0-1
  6
CONTINUOUS
 62
     3
 10
14307.848051999979
 20
19885.981897000001
 30
0.0
 40
5.0
 50
0.0
 51
90.0
  0
CIRCLE
  5
37D1
  8
0-5
  6
CONTINUOUS
 62
     4
 10
9429.3481449999999
 20
19668.486251999992
 30
0.0
 40
199.9999949999999
  0
CIRCLE
  5
37D2
  8
0-5
  6
CONTINUOUS
 62
     4
 10
9429.3481449999999
 20
16750.486251999992
 30
0.0
 40
199.9999949999999
  0
CIRCLE
  5
37D3
  8
0-5
  6
CONTINUOUS
 62
     4
 10
9429.3481449999999
 20
13832.486252000001
 30
0.0
 40
199.9999949999999
  0
CIRCLE
  5
37D4
  8
0-5
  6
CONTINUOUS
 62
     4
 10
15128.713709
 20
1375.9998589999991
 30
0.0
 40
20.0
  0
ARC
  5
37D5
  8
0-5
  6
CONTINUOUS
 62
     4
 10
15128.713709
 20
1375.9998589999991
 30
0.0
 40
20.0
 50
180.0
 51
0.0
  0
ARC
  5
37D6
  8
0-5
  6
CONTINUOUS
 62
     4
 10
15128.713709
 20
1375.9998589999991
 30
0.0
 40
20.0
 50
0.0
 51
179.99998499999839
  0
CIRCLE
  5
37D7
  8
0-5
  6
CONTINUOUS
 62
     4
 10
15128.713709
 20
1776.0000649999979
 30
0.0
 40
20.0
  0
ARC
  5
37D8
  8
0-5
  6
CONTINUOUS
 62
     4
 10
15128.713709
 20
1776.0000649999979
 30
0.0
 40
20.0
 50
180.0
 51
0.0
  0
ARC
  5
37D9
  8
0-5
  6
CONTINUOUS
 62
     4
 10
15128.713709
 20
1776.0000649999979
 30
0.0
 40
20.0
 50
0.0
 51
179.99998499999839
  0
TEXT
  5
37DE
  8
0-5
  6
CONTINUOUS
 62
     7
 10
9377.7925729999988
 20
19572.891339999991
 30
0.0
 40
160.0
  1
C
 72
     4
 11
9431.1259063333328
 21
19652.891339999991
 31
0.0
  0
TEXT
  5
37DF
  8
0-5
  6
CONTINUOUS
 62
     7
 10
9377.7925729999988
 20
16654.891340999991
 30
0.0
 40
160.0
  1
B
 72
     4
 11
9431.1259063333328
 21
16734.891340999991
 31
0.0
  0
TEXT
  5
37E2
  8
0-5
  6
CONTINUOUS
 62
     7
 10
9377.7925729999988
 20
13736.89529999998
 30
0.0
 40
160.0
  1
A
 72
     4
 11
9431.1259063333328
 21
13816.89529999998
 31
0.0
  0
TEXT
  5
37E3
  8
0-5
  6
CONTINUOUS
 62
     7
 10
18457.442461999992
 20
6755.7701679999973
 30
0.0
 40
160.0
  1
G.L
 72
     4
 11
18617.442461999992
 21
6835.7701679999982
 31
0.0
  0
TEXT
  5
37E4
  8
0-5
  6
CONTINUOUS
 62
     7
 10
16601.002427999982
 20
1655.9999159999991
 30
0.0
 40
160.0
  1
H
  0
TEXT
  5
37E5
  8
0-5
  6
CONTINUOUS
 62
     7
 10
15176.145944
 20
1655.9999159999991
 30
0.0
 40
160.0
  1
（ ）内寸法ハ、  タ イプヲ示ス。
  0
TEXT
  5
37E6
  8
0-5
  6
CONTINUOUS
 62
     7
 10
15288.713247
 20
1255.999957999999
 30
0.0
 40
160.0
  1
有効高サハ、基礎高サヲ含ミマセン。
  0
TEXT
  5
37E7
  8
0-6
  6
CONTINUOUS
 62
     7
 10
12768.63861899999
 20
20200.984668000001
 30
0.0
 40
160.0
  1
屋根
 72
     4
 11
12939.30528566666
 21
20280.984668000001
 31
0.0
  0
TEXT
  5
37E8
  8
0-6
  6
CONTINUOUS
 62
     7
 10
12246.287215
 20
14228.676998999999
 30
0.0
 40
160.0
  1
桁（前）
 72
     4
 11
12566.287215
 21
14308.676998999999
 31
0.0
  0
TEXT
  5
37E9
  8
0-6
  6
CONTINUOUS
 62
     7
 10
13179.642102999989
 20
12919.987571999991
 30
0.0
 40
160.0
  1
鼻隠し前
 72
     4
 11
13542.308769666661
 21
12999.987571999991
 31
0.0
  0
TEXT
  5
37EA
  8
0-6
  6
CONTINUOUS
 62
     7
 10
9194.7148179999986
 20
12429.98645
 30
0.0
 40
160.0
  1
ケラバ 左
 72
     4
 11
9610.7148180000004
 21
12509.98645
 31
0.0
  0
TEXT
  5
37EB
  8
0-6
  6
CONTINUOUS
 62
     7
 10
11203.374880999991
 20
18628.179953999981
 30
0.0
 40
160.0
  1
上枠
 72
     4
 11
11374.04154766666
 21
18708.179953999981
 31
0.0
  0
TEXT
  5
37EC
  8
0-6
  6
CONTINUOUS
 62
     7
 10
14811.585013
 20
15827.909276
 30
0.0
 40
160.0
  1
ブレース
 72
     4
 11
15174.25167966667
 21
15913.242609333331
 31
0.0
  0
TEXT
  5
37ED
  8
0-6
  6
CONTINUOUS
 62
     7
 10
15017.744945
 20
20590.985459999989
 30
0.0
 40
160.0
  1
鼻隠しコーナー後
 72
     4
 11
15764.41161166667
 21
20670.985459999989
 31
0.0
  0
TEXT
  5
37EE
  8
2-0
  6
CONTINUOUS
 62
     7
 10
14825.711847999981
 20
18794.107160999989
 30
0.0
 40
160.0
  1
桁中B +  桁中補強B
 72
     4
 11
15759.04518133332
 21
18874.107160999989
 31
0.0
  0
TEXT
  5
37EF
  8
2-0
  6
CONTINUOUS
 62
     7
 10
14825.711847999981
 20
17340.109193
 30
0.0
 40
160.0
  1
桁中A +  桁中補強A
 72
     4
 11
15759.04518133332
 21
17420.109193
 31
0.0
  0
TEXT
  5
37F0
  8
2-0
  6
CONTINUOUS
 62
     7
 10
14825.711847999981
 20
14811.084026999981
 30
0.0
 40
160.0
  1
桁中B +  桁中補強B
 50
0.000118
 72
     4
 11
15759.04501657225
 21
14891.085949189101
 31
0.0
  0
TEXT
  5
37F1
  8
2-0
  6
CONTINUOUS
 62
     7
 10
11283.554291999981
 20
11608.824737000001
 30
0.0
 40
160.0
  1
小 屋 伏 図
 72
     4
 11
11784.88762533332
 21
11688.824737000001
 31
0.0
  0
TEXT
  5
37F2
  8
2-0
  6
CONTINUOUS
 62
     7
 10
11294.743520999989
 20
3506.7732069999979
 30
0.0
 40
160.0
  1
側 面 立 面 図
 72
     4
 11
11940.076854333331
 21
3586.7732069999979
 31
0.0
  0
TEXT
  5
37FA
  8
2-0
  6
CONTINUOUS
 62
     7
 10
13291.56903947094
 20
3533.9685759999988
 30
0.0
 40
160.0
  1
1
 72
     4
 11
13318.23570613761
 21
3613.9685759999988
 31
0.0
  0
TEXT
  5
37FB
  8
2-0
  6
CONTINUOUS
 62
     7
 10
13534.65775672165
 20
3453.9700439999988
 30
0.0
 40
160.0
  1
80
 72
     4
 11
13654.65775672165
 21
3533.9700439999988
 31
0.0
  0
TEXT
  5
37FC
  8
2-0
  6
CONTINUOUS
 62
     7
 10
12792.571005470951
 20
3506.7732069999979
 30
0.0
 40
160.0
  1
(S=  /   )
 72
     4
 11
13352.571005470951
 21
3586.7732069999979
 31
0.0
  0
TEXT
  5
37FD
  8
2-0
  6
CONTINUOUS
 62
     7
 10
13136.37981047094
 20
11636.020106
 30
0.0
 40
160.0
  1
1
 72
     4
 11
13163.04647713761
 21
11716.020106
 31
0.0
  0
TEXT
  5
37FE
  8
2-0
  6
CONTINUOUS
 62
     7
 10
13379.46852772165
 20
11556.02157399998
 30
0.0
 40
160.0
  1
80
 72
     4
 11
13499.46852772165
 21
11636.02157399998
 31
0.0
  0
TEXT
  5
37FF
  8
2-0
  6
CONTINUOUS
 62
     7
 10
12637.38177647096
 20
11608.824737000001
 30
0.0
 40
160.0
  1
(S=  /   )
 72
     4
 11
13197.38177647096
 21
11688.824737000001
 31
0.0
  0
TEXT
  5
3800
  8
0-6
  6
CONTINUOUS
 62
     7
 10
11062.632051144819
 20
20200.984667000001
 30
0.0
 40
160.0
  1
桁後+桁後補強
 72
     4
 11
11697.298717811491
 21
20280.984667000001
 31
0.0
  0
LINE
  5
3801
  8
0-6
  6
CONTINUOUS
 62
     6
 10
12506.347459000001
 20
19714.486303999991
 30
0.0
 11
12372.95351111876
 21
20120.986382999989
 31
0.0
  0
LINE
  5
3802
  8
0-6
  6
CONTINUOUS
 62
     6
 10
11023.21115754954
 20
20120.986382999989
 30
0.0
 11
12372.95351111876
 21
20120.986382999989
 31
0.0
  0
LINE
  5
3803
  8
0-6
  6
CONTINUOUS
 62
     6
 10
12482.740003632711
 20
19874.96774242492
 30
0.0
 11
12431.966359859751
 21
19858.634226240149
 31
0.0
  0
LINE
  5
3804
  8
0-6
  6
CONTINUOUS
 62
     6
 10
12482.740003632711
 20
19874.96774242492
 30
0.0
 11
12506.347459000001
 21
19714.486303999991
 31
0.0
  0
LINE
  5
3805
  8
0-6
  6
CONTINUOUS
 62
     6
 10
12431.966359859751
 20
19858.634226240149
 30
0.0
 11
12482.740003632711
 21
19874.96774242492
 31
0.0
  0
LINE
  5
3806
  8
0-6
  6
CONTINUOUS
 62
     6
 10
12506.347459000001
 20
19714.486303999991
 30
0.0
 11
12431.966359859751
 21
19858.634226240149
 31
0.0
  0
LINE
  5
3807
  8
0-6
  6
CONTINUOUS
 62
     6
 10
12506.347459000001
 20
19714.486303999991
 30
0.0
 11
12482.740003632711
 21
19874.96774242492
 31
0.0
  0
LINE
  5
3808
  8
0-6
  6
CONTINUOUS
 62
     6
 10
12431.966359859751
 20
19858.634226240149
 30
0.0
 11
12506.347459000001
 21
19714.486303999991
 31
0.0
  0
TEXT
  5
3809
  8
2-0
  6
CONTINUOUS
 62
     7
 10
21078.271616000009
 20
11601.604441999991
 30
0.0
 40
160.0
  1
平　面　図
 72
     4
 11
21531.604949333341
 21
11676.27110866666
 31
0.0
  0
TEXT
  5
380A
  8
2-0
  6
CONTINUOUS
 62
     7
 10
22883.097134470991
 20
11623.46647766667
 30
0.0
 40
160.0
  1
1
 72
     4
 11
22909.763801137651
 21
11703.46647766667
 31
0.0
  0
TEXT
  5
380B
  8
2-0
  6
CONTINUOUS
 62
     7
 10
23126.185851721671
 20
11543.467945666671
 30
0.0
 40
160.0
  1
80
 72
     4
 11
23246.185851721671
 21
11623.467945666671
 31
0.0
  0
TEXT
  5
380C
  8
2-0
  6
CONTINUOUS
 62
     7
 10
22384.099100470969
 20
11596.27110866666
 30
0.0
 40
160.0
  1
(S=  /   )
 72
     4
 11
22944.099100470969
 21
11676.27110866666
 31
0.0
  0
LINE
  5
380D
  8
2-0
  6
CONTINUOUS
 62
     6
 10
22264.654586000001
 20
13192.485129999999
 30
0.0
 11
23264.647987999961
 21
13192.485129999999
 31
0.0
  0
LINE
  5
380E
  8
2-0
  6
CONTINUOUS
 62
     6
 10
23732.588365
 20
13662.905844000001
 30
0.0
 11
23264.647987999961
 21
13192.485129999999
 31
0.0
  0
LINE
  5
380F
  8
2-0
  6
CONTINUOUS
 62
     6
 10
22281.365681999989
 20
17871.605194999989
 30
0.0
 11
23299.341029999981
 21
17871.605194999989
 31
0.0
  0
LINE
  5
3810
  8
2-0
  6
CONTINUOUS
 62
     6
 10
23755.766547999981
 20
18096.320144000001
 30
0.0
 11
23299.341029999981
 21
17871.605194999989
 31
0.0
  0
LINE
  5
3811
  8
2-0
  6
CONTINUOUS
 62
     6
 10
23693.948162000001
 20
16854.513491000002
 30
0.0
 11
23389.25274399999
 21
16958.16702200002
 31
0.0
  0
LINE
  5
3812
  8
2-0
  6
CONTINUOUS
 62
     6
 10
23848.97020099996
 20
16364.89144700002
 30
0.0
 11
23389.25274399999
 21
16120.978136000011
 31
0.0
  0
LINE
  5
3813
  8
2-0
  6
CONTINUOUS
 62
     6
 10
22469.249708999982
 20
16120.978136000011
 30
0.0
 11
23389.25274399999
 21
16120.978136000011
 31
0.0
  0
LINE
  5
3814
  8
2-0
  6
CONTINUOUS
 62
     6
 10
22189.258681999989
 20
16958.16702200002
 30
0.0
 11
23389.25274399999
 21
16958.16702200002
 31
0.0
  0
LINE
  5
3815
  8
2-0
  6
CONTINUOUS
 62
     6
 10
23765.147486000002
 20
13984.58948999998
 30
0.0
 11
23389.25274399999
 21
14165.533325
 31
0.0
  0
LINE
  5
3816
  8
2-0
  6
CONTINUOUS
 62
     6
 10
22281.365681999989
 20
14953.84273700001
 30
0.0
 11
23299.341029999981
 21
14953.84273700001
 31
0.0
  0
LINE
  5
3817
  8
2-0
  6
CONTINUOUS
 62
     6
 10
22869.251027999999
 20
14165.533325
 30
0.0
 11
23389.25274399999
 21
14165.533325
 31
0.0
  0
LINE
  5
3818
  8
2-0
  6
CONTINUOUS
 62
     6
 10
23755.766547999981
 20
15178.55570700001
 30
0.0
 11
23299.341029999981
 21
14953.84273700001
 31
0.0
  0
LINE
  5
3819
  8
2-0
  6
CONTINUOUS
 62
     4
 10
20679.313502000001
 20
19790.986780000021
 30
0.0
 11
20679.313502000001
 21
20520.983745000001
 31
0.0
  0
LINE
  5
381A
  8
2-0
  6
CONTINUOUS
 62
     3
 10
23960.314161999991
 20
19601.984326000009
 30
0.0
 11
23960.314161999991
 21
19595.988364000012
 31
0.0
  0
LINE
  5
381B
  8
2-0
  6
CONTINUOUS
 62
     3
 10
23960.314161999991
 20
19595.988364000012
 30
0.0
 11
23990.311785999991
 21
19595.988364000012
 31
0.0
  0
LINE
  5
381C
  8
2-0
  6
CONTINUOUS
 62
     3
 10
23990.311785999991
 20
19625.987968000001
 30
0.0
 11
23909.309885999988
 21
19625.987968000001
 31
0.0
  0
LINE
  5
381D
  8
2-0
  6
CONTINUOUS
 62
     3
 10
23960.314161999991
 20
19585.690908
 30
0.0
 11
23990.311785999991
 21
19585.690908
 31
0.0
  0
LINE
  5
381E
  8
2-0
  6
CONTINUOUS
 62
     3
 10
23960.314161999991
 20
19603.692650000001
 30
0.0
 11
23960.314161999991
 21
19585.690908
 31
0.0
  0
LINE
  5
381F
  8
2-0
  6
CONTINUOUS
 62
     3
 10
23985.311521999989
 20
19603.692650000001
 30
0.0
 11
23960.314161999991
 21
19603.692650000001
 31
0.0
  0
LINE
  5
3820
  8
2-0
  6
CONTINUOUS
 62
     3
 10
23985.311521999989
 20
19598.68446800001
 30
0.0
 11
23985.311521999989
 21
19603.692650000001
 31
0.0
  0
LINE
  5
3821
  8
2-0
  6
CONTINUOUS
 62
     3
 10
23978.309965000011
 20
19598.68446800001
 30
0.0
 11
23985.311521999989
 21
19598.68446800001
 31
0.0
  0
LINE
  5
3822
  8
2-0
  6
CONTINUOUS
 62
     3
 10
23878.013696999999
 20
19698.984695000021
 30
0.0
 11
23878.013696999999
 21
19705.990211000011
 31
0.0
  0
LINE
  5
3823
  8
2-0
  6
CONTINUOUS
 62
     3
 10
23878.013696999999
 20
19705.990211000011
 30
0.0
 11
23883.01396099999
 21
19705.990211000011
 31
0.0
  0
LINE
  5
3824
  8
2-0
  6
CONTINUOUS
 62
     3
 10
23883.01396099999
 20
19705.990211000011
 30
0.0
 11
23883.01396099999
 21
19680.980973999998
 31
0.0
  0
LINE
  5
3825
  8
2-0
  6
CONTINUOUS
 62
     3
 10
23883.01396099999
 20
19680.980973999998
 30
0.0
 11
23865.012218999971
 21
19680.980973999998
 31
0.0
  0
LINE
  5
3826
  8
2-0
  6
CONTINUOUS
 62
     3
 10
23865.012218999971
 20
19680.980973999998
 30
0.0
 11
23865.012218999971
 21
19710.984537000011
 31
0.0
  0
LINE
  5
3827
  8
2-0
  6
CONTINUOUS
 62
     3
 10
23875.309675
 20
19710.984537000011
 30
0.0
 11
23990.311785999991
 21
19710.984537000011
 31
0.0
  0
LINE
  5
3828
  8
2-0
  6
CONTINUOUS
 62
     3
 10
23875.309675
 20
19680.980973999998
 30
0.0
 11
23875.309675
 21
19710.984537000011
 31
0.0
  0
LINE
  5
3829
  8
2-0
  6
CONTINUOUS
 62
     3
 10
23881.311575
 20
19680.980973999998
 30
0.0
 11
23875.309675
 21
19680.980973999998
 31
0.0
  0
LINE
  5
382A
  8
2-0
  6
CONTINUOUS
 62
     3
 10
23978.309965000011
 20
18894.887645499992
 30
0.0
 11
23985.311521999989
 21
18894.887645499992
 31
0.0
  0
LINE
  5
382B
  8
2-0
  6
CONTINUOUS
 62
     3
 10
23985.311521999989
 20
18894.887645499992
 30
0.0
 11
23985.311521999989
 21
18899.887909500001
 31
0.0
  0
LINE
  5
382C
  8
2-0
  6
CONTINUOUS
 62
     3
 10
23985.311521999989
 20
18899.887909500001
 30
0.0
 11
23960.314161999991
 21
18899.887909500001
 31
0.0
  0
LINE
  5
382D
  8
2-0
  6
CONTINUOUS
 62
     3
 10
23960.314161999991
 20
18899.887909500001
 30
0.0
 11
23960.314161999991
 21
18881.892105499999
 31
0.0
  0
LINE
  5
382E
  8
2-0
  6
CONTINUOUS
 62
     3
 10
23960.314161999991
 20
18881.892105499999
 30
0.0
 11
23990.311785999991
 21
18881.892105499999
 31
0.0
  0
LINE
  5
382F
  8
2-0
  6
CONTINUOUS
 62
     3
 10
23960.314161999991
 20
18897.98361249996
 30
0.0
 11
23960.314161999991
 21
18891.985671499999
 31
0.0
  0
LINE
  5
3830
  8
2-0
  6
CONTINUOUS
 62
     3
 10
23960.314161999991
 20
18891.985671499999
 30
0.0
 11
23990.311785999991
 21
18891.985671499999
 31
0.0
  0
LINE
  5
3831
  8
2-0
  6
CONTINUOUS
 62
     3
 10
23990.311785999991
 20
18891.985671499999
 30
0.0
 11
23990.311785999991
 21
18928.986832499992
 31
0.0
  0
LINE
  5
3832
  8
2-0
  6
CONTINUOUS
 62
     3
 10
23960.314161999991
 20
18928.986832499992
 30
0.0
 11
23990.311785999991
 21
18928.986832499992
 31
0.0
  0
LINE
  5
3833
  8
2-0
  6
CONTINUOUS
 62
     3
 10
23960.314161999991
 20
18922.982952499991
 30
0.0
 11
23960.314161999991
 21
18928.986832499992
 31
0.0
  0
LINE
  5
3834
  8
2-0
  6
CONTINUOUS
 62
     3
 10
23960.314161999991
 20
18939.082377499992
 30
0.0
 11
23990.311785999991
 21
18939.082377499992
 31
0.0
  0
LINE
  5
3835
  8
2-0
  6
CONTINUOUS
 62
     3
 10
23960.314161999991
 20
18921.080635499999
 30
0.0
 11
23960.314161999991
 21
18939.082377499992
 31
0.0
  0
LINE
  5
3836
  8
2-0
  6
CONTINUOUS
 62
     3
 10
23985.311521999989
 20
18921.080635499999
 30
0.0
 11
23960.314161999991
 21
18921.080635499999
 31
0.0
  0
LINE
  5
3837
  8
2-0
  6
CONTINUOUS
 62
     3
 10
23985.311521999989
 20
18926.080899500001
 30
0.0
 11
23985.311521999989
 21
18921.080635499999
 31
0.0
  0
LINE
  5
3838
  8
2-0
  6
CONTINUOUS
 62
     3
 10
23978.309965000011
 20
18926.080899500001
 30
0.0
 11
23985.311521999989
 21
18926.080899500001
 31
0.0
  0
LINE
  5
3839
  8
2-0
  6
CONTINUOUS
 62
     3
 10
23978.309965000011
 20
18193.886655999999
 30
0.0
 11
23985.311521999989
 21
18193.886655999999
 31
0.0
  0
LINE
  5
383A
  8
2-0
  6
CONTINUOUS
 62
     3
 10
23985.311521999989
 20
18193.886655999999
 30
0.0
 11
23985.311521999989
 21
18198.892857999999
 31
0.0
  0
LINE
  5
383B
  8
2-0
  6
CONTINUOUS
 62
     3
 10
23985.311521999989
 20
18198.892857999999
 30
0.0
 11
23960.314161999991
 21
18198.892857999999
 31
0.0
  0
LINE
  5
383C
  8
2-0
  6
CONTINUOUS
 62
     3
 10
23960.314161999991
 20
18198.892857999999
 30
0.0
 11
23960.314161999991
 21
18180.89111600001
 31
0.0
  0
LINE
  5
383D
  8
2-0
  6
CONTINUOUS
 62
     3
 10
23960.314161999991
 20
18180.89111600001
 30
0.0
 11
23990.311785999991
 21
18180.89111600001
 31
0.0
  0
LINE
  5
383E
  8
2-0
  6
CONTINUOUS
 62
     3
 10
23960.314161999991
 20
18196.982622999989
 30
0.0
 11
23960.314161999991
 21
18190.986660999999
 31
0.0
  0
LINE
  5
383F
  8
2-0
  6
CONTINUOUS
 62
     3
 10
23960.314161999991
 20
18190.986660999999
 30
0.0
 11
23990.311785999991
 21
18190.986660999999
 31
0.0
  0
LINE
  5
3840
  8
2-0
  6
CONTINUOUS
 62
     3
 10
23990.311785999991
 20
18190.986660999999
 30
0.0
 11
23990.311785999991
 21
18227.985842999991
 31
0.0
  0
LINE
  5
3841
  8
2-0
  6
CONTINUOUS
 62
     3
 10
23960.314161999991
 20
18227.985842999991
 30
0.0
 11
23990.311785999991
 21
18227.985842999991
 31
0.0
  0
LINE
  5
3842
  8
2-0
  6
CONTINUOUS
 62
     3
 10
23960.314161999991
 20
18221.989881000001
 30
0.0
 11
23960.314161999991
 21
18227.985842999991
 31
0.0
  0
LINE
  5
3843
  8
2-0
  6
CONTINUOUS
 62
     3
 10
23960.314161999991
 20
18238.08138800001
 30
0.0
 11
23990.311785999991
 21
18238.08138800001
 31
0.0
  0
LINE
  5
3844
  8
2-0
  6
CONTINUOUS
 62
     3
 10
23960.314161999991
 20
18220.079645999998
 30
0.0
 11
23960.314161999991
 21
18238.08138800001
 31
0.0
  0
LINE
  5
3845
  8
2-0
  6
CONTINUOUS
 62
     3
 10
23985.311521999989
 20
18220.079645999998
 30
0.0
 11
23960.314161999991
 21
18220.079645999998
 31
0.0
  0
LINE
  5
3846
  8
2-0
  6
CONTINUOUS
 62
     3
 10
23985.311521999989
 20
18225.085847999992
 30
0.0
 11
23985.311521999989
 21
18220.079645999998
 31
0.0
  0
LINE
  5
3847
  8
2-0
  6
CONTINUOUS
 62
     3
 10
23978.309965000011
 20
18225.085847999992
 30
0.0
 11
23985.311521999989
 21
18225.085847999992
 31
0.0
  0
LINE
  5
3848
  8
2-0
  6
CONTINUOUS
 62
     3
 10
23978.309965000011
 20
17524.07991
 30
0.0
 11
23985.311521999989
 21
17524.07991
 31
0.0
  0
LINE
  5
3849
  8
2-0
  6
CONTINUOUS
 62
     3
 10
23985.311521999989
 20
17524.07991
 30
0.0
 11
23985.311521999989
 21
17519.091522999999
 31
0.0
  0
LINE
  5
384A
  8
2-0
  6
CONTINUOUS
 62
     3
 10
23985.311521999989
 20
17519.091522999999
 30
0.0
 11
23960.314161999991
 21
17519.091522999999
 31
0.0
  0
LINE
  5
384B
  8
2-0
  6
CONTINUOUS
 62
     3
 10
23960.314161999991
 20
17519.091522999999
 30
0.0
 11
23960.314161999991
 21
17537.087326000001
 31
0.0
  0
LINE
  5
384C
  8
2-0
  6
CONTINUOUS
 62
     3
 10
23960.314161999991
 20
17537.087326000001
 30
0.0
 11
23990.311785999991
 21
17537.087326000001
 31
0.0
  0
LINE
  5
384D
  8
2-0
  6
CONTINUOUS
 62
     3
 10
23960.314161999991
 20
17520.989881000001
 30
0.0
 11
23960.314161999991
 21
17526.985842999999
 31
0.0
  0
LINE
  5
384E
  8
2-0
  6
CONTINUOUS
 62
     3
 10
23960.314161999991
 20
17526.985842999999
 30
0.0
 11
23990.311785999991
 21
17526.985842999999
 31
0.0
  0
LINE
  5
384F
  8
2-0
  6
CONTINUOUS
 62
     3
 10
23990.311785999991
 20
17526.985842999999
 30
0.0
 11
23990.311785999991
 21
17489.98666100001
 31
0.0
  0
LINE
  5
3850
  8
2-0
  6
CONTINUOUS
 62
     3
 10
23960.314161999991
 20
17489.98666100001
 30
0.0
 11
23990.311785999991
 21
17489.98666100001
 31
0.0
  0
LINE
  5
3851
  8
2-0
  6
CONTINUOUS
 62
     3
 10
23960.314161999991
 20
17495.988561999991
 30
0.0
 11
23960.314161999991
 21
17489.98666100001
 31
0.0
  0
LINE
  5
3852
  8
2-0
  6
CONTINUOUS
 62
     3
 10
23960.314161999991
 20
17479.897055000001
 30
0.0
 11
23990.311785999991
 21
17479.897055000001
 31
0.0
  0
LINE
  5
3853
  8
2-0
  6
CONTINUOUS
 62
     3
 10
23960.314161999991
 20
17497.892857999988
 30
0.0
 11
23960.314161999991
 21
17479.897055000001
 31
0.0
  0
LINE
  5
3854
  8
2-0
  6
CONTINUOUS
 62
     3
 10
23985.311521999989
 20
17497.892857999988
 30
0.0
 11
23960.314161999991
 21
17497.892857999988
 31
0.0
  0
LINE
  5
3855
  8
2-0
  6
CONTINUOUS
 62
     3
 10
23985.311521999989
 20
17492.892595000001
 30
0.0
 11
23985.311521999989
 21
17497.892857999988
 31
0.0
  0
LINE
  5
3856
  8
2-0
  6
CONTINUOUS
 62
     3
 10
23978.309965000011
 20
17492.892595000001
 30
0.0
 11
23985.311521999989
 21
17492.892595000001
 31
0.0
  0
LINE
  5
3857
  8
2-0
  6
CONTINUOUS
 62
     3
 10
23987.425648
 20
16772.983480999999
 30
0.0
 11
23987.425648
 21
16792.984536
 31
0.0
  0
LINE
  5
3858
  8
2-0
  6
CONTINUOUS
 62
     3
 10
23987.425648
 20
16792.984536
 30
0.0
 11
23902.42907899999
 21
16792.984536
 31
0.0
  0
LINE
  5
3859
  8
2-0
  6
CONTINUOUS
 62
     3
 10
23978.309965000011
 20
16819.591246
 30
0.0
 11
23985.311521999989
 21
16819.591246
 31
0.0
  0
LINE
  5
385A
  8
2-0
  6
CONTINUOUS
 62
     3
 10
23985.311521999989
 20
16819.591246
 30
0.0
 11
23985.311521999989
 21
16814.596920000011
 31
0.0
  0
LINE
  5
385B
  8
2-0
  6
CONTINUOUS
 62
     3
 10
23985.311521999989
 20
16814.596920000011
 30
0.0
 11
23960.314161999991
 21
16814.596920000011
 31
0.0
  0
LINE
  5
385C
  8
2-0
  6
CONTINUOUS
 62
     3
 10
23960.314161999991
 20
16814.596920000011
 30
0.0
 11
23960.314161999991
 21
16832.592723999991
 31
0.0
  0
LINE
  5
385D
  8
2-0
  6
CONTINUOUS
 62
     3
 10
23960.314161999991
 20
16832.592723999991
 30
0.0
 11
23990.311785999991
 21
16832.592723999991
 31
0.0
  0
LINE
  5
385E
  8
2-0
  6
CONTINUOUS
 62
     3
 10
23960.314161999991
 20
16822.98413999999
 30
0.0
 11
23960.314161999991
 21
16816.982240000001
 31
0.0
  0
LINE
  5
385F
  8
2-0
  6
CONTINUOUS
 62
     3
 10
23990.311785999991
 20
16822.98413999999
 30
0.0
 11
23960.314161999991
 21
16822.98413999999
 31
0.0
  0
LINE
  5
3860
  8
2-0
  6
CONTINUOUS
 62
     3
 10
23990.311785999991
 20
16832.592723999991
 30
0.0
 11
23990.311785999991
 21
17479.897055000001
 31
0.0
  0
LINE
  5
3861
  8
2-0
  6
CONTINUOUS
 62
     3
 10
23990.311785999991
 20
17537.087326000001
 30
0.0
 11
23990.311785999991
 21
18180.89111600001
 31
0.0
  0
LINE
  5
3862
  8
2-0
  6
CONTINUOUS
 62
     3
 10
23990.311785999991
 20
16677.982424999991
 30
0.0
 11
23960.314161999991
 21
16677.982424999991
 31
0.0
  0
LINE
  5
3863
  8
2-0
  6
CONTINUOUS
 62
     3
 10
23960.314161999991
 20
16677.982424999991
 30
0.0
 11
23960.314161999991
 21
16683.984325000001
 31
0.0
  0
LINE
  5
3864
  8
2-0
  6
CONTINUOUS
 62
     3
 10
23902.42907899999
 20
16707.987968000001
 30
0.0
 11
23987.425648
 21
16707.987968000001
 31
0.0
  0
LINE
  5
3865
  8
2-0
  6
CONTINUOUS
 62
     3
 10
23987.425648
 20
16707.987968000001
 30
0.0
 11
23987.425648
 21
16727.983085000011
 31
0.0
  0
LINE
  5
3866
  8
2-0
  6
CONTINUOUS
 62
     3
 10
23960.314161999991
 20
16668.373842000012
 30
0.0
 11
23990.311785999991
 21
16668.373842000012
 31
0.0
  0
LINE
  5
3867
  8
2-0
  6
CONTINUOUS
 62
     3
 10
23960.314161999991
 20
16686.369644999992
 30
0.0
 11
23960.314161999991
 21
16668.373842000012
 31
0.0
  0
LINE
  5
3868
  8
2-0
  6
CONTINUOUS
 62
     3
 10
23985.311521999989
 20
16686.369644999992
 30
0.0
 11
23960.314161999991
 21
16686.369644999992
 31
0.0
  0
LINE
  5
3869
  8
2-0
  6
CONTINUOUS
 62
     3
 10
23985.311521999989
 20
16681.369381000011
 30
0.0
 11
23985.311521999989
 21
16686.369644999992
 31
0.0
  0
LINE
  5
386A
  8
2-0
  6
CONTINUOUS
 62
     3
 10
23978.309965000011
 20
16681.369381000011
 30
0.0
 11
23985.311521999989
 21
16681.369381000011
 31
0.0
  0
LINE
  5
386B
  8
2-0
  6
CONTINUOUS
 62
     3
 10
23978.309965000011
 20
15976.887150499981
 30
0.0
 11
23985.311521999989
 21
15976.887150499981
 31
0.0
  0
LINE
  5
386C
  8
2-0
  6
CONTINUOUS
 62
     3
 10
23985.311521999989
 20
15976.887150499981
 30
0.0
 11
23985.311521999989
 21
15981.88741449999
 31
0.0
  0
LINE
  5
386D
  8
2-0
  6
CONTINUOUS
 62
     3
 10
23985.311521999989
 20
15981.88741449999
 30
0.0
 11
23960.314161999991
 21
15981.88741449999
 31
0.0
  0
LINE
  5
386E
  8
2-0
  6
CONTINUOUS
 62
     3
 10
23960.314161999991
 20
15981.88741449999
 30
0.0
 11
23960.314161999991
 21
15963.885672500001
 31
0.0
  0
LINE
  5
386F
  8
2-0
  6
CONTINUOUS
 62
     3
 10
23960.314161999991
 20
15963.885672500001
 30
0.0
 11
23990.311785999991
 21
15963.885672500001
 31
0.0
  0
LINE
  5
3870
  8
2-0
  6
CONTINUOUS
 62
     3
 10
23960.314161999991
 20
15979.9831175
 30
0.0
 11
23960.314161999991
 21
15973.986166500001
 31
0.0
  0
LINE
  5
3871
  8
2-0
  6
CONTINUOUS
 62
     3
 10
23960.314161999991
 20
15973.986166500001
 30
0.0
 11
23990.311785999991
 21
15973.986166500001
 31
0.0
  0
LINE
  5
3872
  8
2-0
  6
CONTINUOUS
 62
     3
 10
23990.311785999991
 20
15973.986166500001
 30
0.0
 11
23990.311785999991
 21
16010.9863375
 31
0.0
  0
LINE
  5
3873
  8
2-0
  6
CONTINUOUS
 62
     3
 10
23960.314161999991
 20
16010.9863375
 30
0.0
 11
23990.311785999991
 21
16010.9863375
 31
0.0
  0
LINE
  5
3874
  8
2-0
  6
CONTINUOUS
 62
     3
 10
23960.314161999991
 20
16004.983447500001
 30
0.0
 11
23960.314161999991
 21
16010.9863375
 31
0.0
  0
LINE
  5
3875
  8
2-0
  6
CONTINUOUS
 62
     3
 10
23960.314161999991
 20
16021.081882500001
 30
0.0
 11
23990.311785999991
 21
16021.081882500001
 31
0.0
  0
LINE
  5
3876
  8
2-0
  6
CONTINUOUS
 62
     3
 10
23960.314161999991
 20
16003.074201499991
 30
0.0
 11
23960.314161999991
 21
16021.081882500001
 31
0.0
  0
LINE
  5
3877
  8
2-0
  6
CONTINUOUS
 62
     3
 10
23985.311521999989
 20
16003.074201499991
 30
0.0
 11
23960.314161999991
 21
16003.074201499991
 31
0.0
  0
LINE
  5
3878
  8
2-0
  6
CONTINUOUS
 62
     3
 10
23985.311521999989
 20
16008.0804045
 30
0.0
 11
23985.311521999989
 21
16003.074201499991
 31
0.0
  0
LINE
  5
3879
  8
2-0
  6
CONTINUOUS
 62
     3
 10
23978.309965000011
 20
16008.0804045
 30
0.0
 11
23985.311521999989
 21
16008.0804045
 31
0.0
  0
LINE
  5
387A
  8
2-0
  6
CONTINUOUS
 62
     3
 10
23978.309965000011
 20
15307.320421
 30
0.0
 11
23985.311521999989
 21
15307.320421
 31
0.0
  0
LINE
  5
387B
  8
2-0
  6
CONTINUOUS
 62
     3
 10
23985.311521999989
 20
15307.320421
 30
0.0
 11
23985.311521999989
 21
15302.326096000001
 31
0.0
  0
LINE
  5
387C
  8
2-0
  6
CONTINUOUS
 62
     3
 10
23985.311521999989
 20
15302.326096000001
 30
0.0
 11
23960.314161999991
 21
15302.326096000001
 31
0.0
  0
LINE
  5
387D
  8
2-0
  6
CONTINUOUS
 62
     3
 10
23960.314161999991
 20
15302.326096000001
 30
0.0
 11
23960.314161999991
 21
15320.32189900001
 31
0.0
  0
LINE
  5
387E
  8
2-0
  6
CONTINUOUS
 62
     3
 10
23960.314161999991
 20
15320.32189900001
 30
0.0
 11
23990.311785999991
 21
15320.32189900001
 31
0.0
  0
LINE
  5
387F
  8
2-0
  6
CONTINUOUS
 62
     3
 10
23960.314161999991
 20
15304.22445400001
 30
0.0
 11
23960.314161999991
 21
15310.226354
 31
0.0
  0
LINE
  5
3880
  8
2-0
  6
CONTINUOUS
 62
     3
 10
23960.314161999991
 20
15310.226354
 30
0.0
 11
23990.311785999991
 21
15310.226354
 31
0.0
  0
LINE
  5
3881
  8
2-0
  6
CONTINUOUS
 62
     3
 10
23990.311785999991
 20
15273.22717300001
 30
0.0
 11
23990.311785999991
 21
15310.226354
 31
0.0
  0
LINE
  5
3882
  8
2-0
  6
CONTINUOUS
 62
     3
 10
23960.314161999991
 20
15273.22717300001
 30
0.0
 11
23990.311785999991
 21
15273.22717300001
 31
0.0
  0
LINE
  5
3883
  8
2-0
  6
CONTINUOUS
 62
     3
 10
23960.314161999991
 20
15279.224124
 30
0.0
 11
23960.314161999991
 21
15273.22717300001
 31
0.0
  0
LINE
  5
3884
  8
2-0
  6
CONTINUOUS
 62
     3
 10
23960.314161999991
 20
15263.12568899999
 30
0.0
 11
23990.311785999991
 21
15263.12568899999
 31
0.0
  0
LINE
  5
3885
  8
2-0
  6
CONTINUOUS
 62
     3
 10
23960.314161999991
 20
15281.13336999999
 30
0.0
 11
23960.314161999991
 21
15263.12568899999
 31
0.0
  0
LINE
  5
3886
  8
2-0
  6
CONTINUOUS
 62
     3
 10
23985.311521999989
 20
15281.13336999999
 30
0.0
 11
23960.314161999991
 21
15281.13336999999
 31
0.0
  0
LINE
  5
3887
  8
2-0
  6
CONTINUOUS
 62
     3
 10
23985.311521999989
 20
15276.133106000019
 30
0.0
 11
23985.311521999989
 21
15281.13336999999
 31
0.0
  0
LINE
  5
3888
  8
2-0
  6
CONTINUOUS
 62
     3
 10
23978.309965000011
 20
15276.133106000019
 30
0.0
 11
23985.311521999989
 21
15276.133106000019
 31
0.0
  0
LINE
  5
3889
  8
2-0
  6
CONTINUOUS
 62
     3
 10
23990.311785999991
 20
16668.373842000012
 30
0.0
 11
23990.311785999991
 21
16021.081882500001
 31
0.0
  0
LINE
  5
388A
  8
2-0
  6
CONTINUOUS
 62
     3
 10
23990.311785999991
 20
16822.98413999999
 30
0.0
 11
23990.311785999991
 21
16677.982424999991
 31
0.0
  0
LINE
  5
388B
  8
2-0
  6
CONTINUOUS
 62
     3
 10
23902.42907899999
 20
16792.984536
 30
0.0
 11
23902.42907899999
 21
16707.987968000001
 31
0.0
  0
LINE
  5
388C
  8
2-0
  6
CONTINUOUS
 62
     6
 10
22364.220411999991
 20
18561.431801499992
 30
0.0
 11
23389.25274399999
 21
18561.431801499992
 31
0.0
  0
LINE
  5
388D
  8
2-0
  6
CONTINUOUS
 62
     3
 10
23978.309965000011
 20
14574.892099000001
 30
0.0
 11
23985.311521999989
 21
14574.892099000001
 31
0.0
  0
LINE
  5
388E
  8
2-0
  6
CONTINUOUS
 62
     3
 10
23985.311521999989
 20
14574.892099000001
 30
0.0
 11
23985.311521999989
 21
14579.886425000001
 31
0.0
  0
LINE
  5
388F
  8
2-0
  6
CONTINUOUS
 62
     3
 10
23985.311521999989
 20
14579.886425000001
 30
0.0
 11
23960.314161999991
 21
14579.886425000001
 31
0.0
  0
LINE
  5
3890
  8
2-0
  6
CONTINUOUS
 62
     3
 10
23960.314161999991
 20
14579.886425000001
 30
0.0
 11
23960.314161999991
 21
14561.890621
 31
0.0
  0
LINE
  5
3891
  8
2-0
  6
CONTINUOUS
 62
     3
 10
23960.314161999991
 20
14561.890621
 30
0.0
 11
23990.311785999991
 21
14561.890621
 31
0.0
  0
LINE
  5
3892
  8
2-0
  6
CONTINUOUS
 62
     3
 10
23960.314161999991
 20
14577.989056
 30
0.0
 11
23960.314161999991
 21
14571.98616600001
 31
0.0
  0
LINE
  5
3893
  8
2-0
  6
CONTINUOUS
 62
     3
 10
23960.314161999991
 20
14571.98616600001
 30
0.0
 11
23990.311785999991
 21
14571.98616600001
 31
0.0
  0
LINE
  5
3894
  8
2-0
  6
CONTINUOUS
 62
     3
 10
23990.311785999991
 20
14571.98616600001
 30
0.0
 11
23990.311785999991
 21
14608.986337999981
 31
0.0
  0
LINE
  5
3895
  8
2-0
  6
CONTINUOUS
 62
     3
 10
23960.314161999991
 20
14608.986337999981
 30
0.0
 11
23990.311785999991
 21
14608.986337999981
 31
0.0
  0
LINE
  5
3896
  8
2-0
  6
CONTINUOUS
 62
     3
 10
23960.314161999991
 20
14602.98938599999
 30
0.0
 11
23960.314161999991
 21
14608.986337999981
 31
0.0
  0
LINE
  5
3897
  8
2-0
  6
CONTINUOUS
 62
     3
 10
23960.314161999991
 20
14619.086831000001
 30
0.0
 11
23990.311785999991
 21
14619.086831000001
 31
0.0
  0
LINE
  5
3898
  8
2-0
  6
CONTINUOUS
 62
     3
 10
23960.314161999991
 20
14601.08014
 30
0.0
 11
23960.314161999991
 21
14619.086831000001
 31
0.0
  0
LINE
  5
3899
  8
2-0
  6
CONTINUOUS
 62
     3
 10
23985.311521999989
 20
14601.08014
 30
0.0
 11
23960.314161999991
 21
14601.08014
 31
0.0
  0
LINE
  5
389A
  8
2-0
  6
CONTINUOUS
 62
     3
 10
23985.311521999989
 20
14606.085353
 30
0.0
 11
23985.311521999989
 21
14601.08014
 31
0.0
  0
LINE
  5
389B
  8
2-0
  6
CONTINUOUS
 62
     3
 10
23978.309965000011
 20
14606.085353
 30
0.0
 11
23985.311521999989
 21
14606.085353
 31
0.0
  0
LINE
  5
389C
  8
2-0
  6
CONTINUOUS
 62
     3
 10
23960.314161999991
 20
13898.988179
 30
0.0
 11
23960.314161999991
 21
13904.993047999989
 31
0.0
  0
LINE
  5
389D
  8
2-0
  6
CONTINUOUS
 62
     3
 10
23960.314161999991
 20
13904.993047999989
 30
0.0
 11
23990.311785999991
 21
13904.993047999989
 31
0.0
  0
LINE
  5
389E
  8
2-0
  6
CONTINUOUS
 62
     3
 10
23990.311785999991
 20
13904.993047999989
 30
0.0
 11
23990.311785999991
 21
13789.988957
 31
0.0
  0
LINE
  5
389F
  8
2-0
  6
CONTINUOUS
 62
     3
 10
23990.311785999991
 20
13789.988957
 30
0.0
 11
23905.313237999992
 21
13789.988957
 31
0.0
  0
LINE
  5
38A0
  8
2-0
  6
CONTINUOUS
 62
     3
 10
23905.313237999992
 20
13789.988957
 30
0.0
 11
23905.313237999992
 21
13874.984536
 31
0.0
  0
LINE
  5
38A1
  8
2-0
  6
CONTINUOUS
 62
     3
 10
23905.313237999992
 20
13874.984536
 30
0.0
 11
23937.312155999989
 21
13874.984536
 31
0.0
  0
LINE
  5
38A2
  8
2-0
  6
CONTINUOUS
 62
     3
 10
23978.309965000011
 20
13902.022781
 30
0.0
 11
23985.311521999989
 21
13902.022781
 31
0.0
  0
LINE
  5
38A3
  8
2-0
  6
CONTINUOUS
 62
     3
 10
23985.311521999989
 20
13902.022781
 30
0.0
 11
23985.311521999989
 21
13897.02548599998
 31
0.0
  0
LINE
  5
38A4
  8
2-0
  6
CONTINUOUS
 62
     3
 10
23985.311521999989
 20
13897.02548599998
 30
0.0
 11
23960.314161999991
 21
13897.02548599998
 31
0.0
  0
LINE
  5
38A5
  8
2-0
  6
CONTINUOUS
 62
     3
 10
23960.314161999991
 20
13897.02548599998
 30
0.0
 11
23960.314161999991
 21
13915.024258999991
 31
0.0
  0
LINE
  5
38A6
  8
2-0
  6
CONTINUOUS
 62
     3
 10
23960.314161999991
 20
13915.024258999991
 30
0.0
 11
23990.311785999991
 21
13915.024258999991
 31
0.0
  0
LINE
  5
38A7
  8
2-0
  6
CENTER2
 62
     6
 10
23947.813502000001
 20
13592.49139899999
 30
0.0
 11
23947.813502000001
 21
14748.360157000019
 31
0.0
  0
LINE
  5
38A8
  8
2-0
  6
CONTINUOUS
 62
     3
 10
23990.311785999991
 20
18238.08138800001
 30
0.0
 11
23990.311785999991
 21
18881.892105499999
 31
0.0
  0
LINE
  5
38A9
  8
2-0
  6
CONTINUOUS
 62
     6
 10
24682.816668999982
 20
20440.987440000012
 30
0.0
 11
25882.810730999961
 21
20440.987440000012
 31
0.0
  0
LINE
  5
38AA
  8
2-0
  6
CONTINUOUS
 62
     6
 10
23820.783835999981
 20
18803.586309499991
 30
0.0
 11
23389.25274399999
 21
18561.431801499992
 31
0.0
  0
LINE
  5
38AB
  8
2-0
  6
CONTINUOUS
 62
     6
 10
24142.352669999971
 20
19853.664277000022
 30
0.0
 11
24682.816668999982
 21
20440.987440000012
 31
0.0
  0
LINE
  5
38AC
  8
2-0
  6
CONTINUOUS
 62
     3
 10
23899.307379000002
 20
18166.984997999989
 30
0.0
 11
23946.313026999971
 21
18166.984997999989
 31
0.0
  0
LINE
  5
38AD
  8
2-0
  6
CONTINUOUS
 62
     3
 10
23946.313026999971
 20
18251.985526
 30
0.0
 11
23899.307379000002
 21
18251.985526
 31
0.0
  0
LINE
  5
38AE
  8
2-0
  6
CONTINUOUS
 62
     3
 10
23946.313026999971
 20
18166.984997999989
 30
0.0
 11
23946.313026999971
 21
18191.988297
 31
0.0
  0
LINE
  5
38AF
  8
2-0
  6
CONTINUOUS
 62
     3
 10
23946.313026999971
 20
18226.984206000001
 30
0.0
 11
23946.313026999971
 21
18251.985526
 31
0.0
  0
LINE
  5
38B0
  8
2-0
  6
CONTINUOUS
 62
     3
 10
23899.307379000002
 20
18251.985526
 30
0.0
 11
23899.307379000002
 21
18166.984997999989
 31
0.0
  0
LINE
  5
38B1
  8
2-0
  6
CONTINUOUS
 62
     3
 10
23990.311785999991
 20
15963.885672500001
 30
0.0
 11
23990.311785999991
 21
15320.32189900001
 31
0.0
  0
LINE
  5
38B2
  8
2-0
  6
CONTINUOUS
 62
     3
 10
23899.307379000002
 20
15248.987967999999
 30
0.0
 11
23946.313026999971
 21
15248.987967999999
 31
0.0
  0
LINE
  5
38B3
  8
2-0
  6
CONTINUOUS
 62
     3
 10
23946.313026999971
 20
15333.984535999991
 30
0.0
 11
23899.307379000002
 21
15333.984535999991
 31
0.0
  0
LINE
  5
38B4
  8
2-0
  6
CONTINUOUS
 62
     3
 10
23946.313026999971
 20
15248.987967999999
 30
0.0
 11
23946.313026999971
 21
15273.983349
 31
0.0
  0
LINE
  5
38B5
  8
2-0
  6
CONTINUOUS
 62
     3
 10
23946.313026999971
 20
15308.98321700001
 30
0.0
 11
23946.313026999971
 21
15333.984535999991
 31
0.0
  0
LINE
  5
38B6
  8
2-0
  6
CONTINUOUS
 62
     3
 10
23899.307379000002
 20
15333.984535999991
 30
0.0
 11
23899.307379000002
 21
15248.987967999999
 31
0.0
  0
LINE
  5
38B7
  8
2-0
  6
CONTINUOUS
 62
     6
 10
23807.72693099999
 20
18826.84565349999
 30
0.0
 11
23960.314161999991
 21
18881.892105499999
 31
0.0
  0
LINE
  5
38B8
  8
2-0
  6
CONTINUOUS
 62
     6
 10
23960.314161999991
 20
18881.892105499999
 30
0.0
 11
23833.832822
 21
18780.332905499981
 31
0.0
  0
LINE
  5
38B9
  8
2-0
  6
CONTINUOUS
 62
     6
 10
23807.72693099999
 20
18826.84565349999
 30
0.0
 11
23833.832822
 21
18780.332905499981
 31
0.0
  0
LINE
  5
38BA
  8
2-0
  6
CONTINUOUS
 62
     6
 10
23833.832822
 20
18780.332905499981
 30
0.0
 11
23960.314161999991
 21
18881.892105499999
 31
0.0
  0
LINE
  5
38BB
  8
2-0
  6
CONTINUOUS
 62
     6
 10
23960.314161999991
 20
18881.892105499999
 30
0.0
 11
23807.72693099999
 21
18826.84565349999
 31
0.0
  0
LINE
  5
38BC
  8
2-0
  6
CONTINUOUS
 62
     6
 10
23807.72693099999
 20
18826.84565349999
 30
0.0
 11
23960.314161999991
 21
18881.892105499999
 31
0.0
  0
LINE
  5
38BD
  8
2-0
  6
CONTINUOUS
 62
     6
 10
23833.832822
 20
18780.332905499981
 30
0.0
 11
23960.314161999991
 21
18881.892105499999
 31
0.0
  0
LINE
  5
38BE
  8
2-0
  6
CONTINUOUS
 62
     6
 10
23833.832822
 20
18780.332905499981
 30
0.0
 11
23807.72693099999
 21
18826.84565349999
 31
0.0
  0
LINE
  5
38BF
  8
2-0
  6
CONTINUOUS
 62
     6
 10
24161.96969899999
 20
19835.603150000021
 30
0.0
 11
24034.007678999998
 21
19735.920532000011
 31
0.0
  0
LINE
  5
38C0
  8
2-0
  6
CONTINUOUS
 62
     6
 10
24034.007678999998
 20
19735.920532000011
 30
0.0
 11
24122.721783999979
 21
19871.717487000009
 31
0.0
  0
LINE
  5
38C1
  8
2-0
  6
CONTINUOUS
 62
     6
 10
24161.96969899999
 20
19835.603150000021
 30
0.0
 11
24122.721783999979
 21
19871.717487000009
 31
0.0
  0
LINE
  5
38C2
  8
2-0
  6
CONTINUOUS
 62
     6
 10
24122.721783999979
 20
19871.717487000009
 30
0.0
 11
24034.007678999998
 21
19735.920532000011
 31
0.0
  0
LINE
  5
38C3
  8
2-0
  6
CONTINUOUS
 62
     6
 10
24034.007678999998
 20
19735.920532000011
 30
0.0
 11
24161.96969899999
 21
19835.603150000021
 31
0.0
  0
LINE
  5
38C4
  8
2-0
  6
CONTINUOUS
 62
     6
 10
24161.96969899999
 20
19835.603150000021
 30
0.0
 11
24034.007678999998
 21
19735.920532000011
 31
0.0
  0
LINE
  5
38C5
  8
2-0
  6
CONTINUOUS
 62
     6
 10
24122.721783999979
 20
19871.717487000009
 30
0.0
 11
24034.007678999998
 21
19735.920532000011
 31
0.0
  0
LINE
  5
38C6
  8
2-0
  6
CONTINUOUS
 62
     6
 10
24122.721783999979
 20
19871.717487000009
 30
0.0
 11
24161.96969899999
 21
19835.603150000021
 31
0.0
  0
LINE
  5
38C7
  8
2-0
  6
CONTINUOUS
 62
     4
 10
20679.313502000001
 20
19790.986780000021
 30
0.0
 11
20679.313502000001
 21
20520.983745000001
 31
0.0
  0
LINE
  5
38C8
  8
2-0
  6
CONTINUOUS
 62
     6
 10
23743.988411999992
 20
15202.48115800001
 30
0.0
 11
23899.307379000002
 21
15249.22847900001
 31
0.0
  0
LINE
  5
38C9
  8
2-0
  6
CONTINUOUS
 62
     6
 10
23899.307379000002
 20
15249.22847900001
 30
0.0
 11
23767.546662999968
 21
15154.63619400001
 31
0.0
  0
LINE
  5
38CA
  8
2-0
  6
CONTINUOUS
 62
     6
 10
23743.988411999992
 20
15202.48115800001
 30
0.0
 11
23767.546662999968
 21
15154.63619400001
 31
0.0
  0
LINE
  5
38CB
  8
2-0
  6
CONTINUOUS
 62
     6
 10
23767.546662999968
 20
15154.63619400001
 30
0.0
 11
23899.307379000002
 21
15249.22847900001
 31
0.0
  0
LINE
  5
38CC
  8
2-0
  6
CONTINUOUS
 62
     6
 10
23899.307379000002
 20
15249.22847900001
 30
0.0
 11
23743.988411999992
 21
15202.48115800001
 31
0.0
  0
LINE
  5
38CD
  8
2-0
  6
CONTINUOUS
 62
     6
 10
23743.988411999992
 20
15202.48115800001
 30
0.0
 11
23899.307379000002
 21
15249.22847900001
 31
0.0
  0
LINE
  5
38CE
  8
2-0
  6
CONTINUOUS
 62
     6
 10
23767.546662999968
 20
15154.63619400001
 30
0.0
 11
23899.307379000002
 21
15249.22847900001
 31
0.0
  0
LINE
  5
38CF
  8
2-0
  6
CONTINUOUS
 62
     6
 10
23767.546662999968
 20
15154.63619400001
 30
0.0
 11
23743.988411999992
 21
15202.48115800001
 31
0.0
  0
LINE
  5
38D0
  8
2-0
  6
CONTINUOUS
 62
     6
 10
23713.674064999999
 20
13681.716218999991
 30
0.0
 11
23845.420923999991
 21
13776.343145999999
 31
0.0
  0
LINE
  5
38D1
  8
2-0
  6
CONTINUOUS
 62
     6
 10
23845.420923999991
 20
13776.343145999999
 30
0.0
 11
23751.490787999988
 21
13644.10437599999
 31
0.0
  0
LINE
  5
38D2
  8
2-0
  6
CONTINUOUS
 62
     6
 10
23713.674064999999
 20
13681.716218999991
 30
0.0
 11
23751.490787999988
 21
13644.10437599999
 31
0.0
  0
LINE
  5
38D3
  8
2-0
  6
CONTINUOUS
 62
     6
 10
23751.490787999988
 20
13644.10437599999
 30
0.0
 11
23845.420923999991
 21
13776.343145999999
 31
0.0
  0
LINE
  5
38D4
  8
2-0
  6
CONTINUOUS
 62
     6
 10
23845.420923999991
 20
13776.343145999999
 30
0.0
 11
23713.674064999999
 21
13681.716218999991
 31
0.0
  0
LINE
  5
38D5
  8
2-0
  6
CONTINUOUS
 62
     6
 10
23713.674064999999
 20
13681.716218999991
 30
0.0
 11
23845.420923999991
 21
13776.343145999999
 31
0.0
  0
LINE
  5
38D6
  8
2-0
  6
CONTINUOUS
 62
     6
 10
23751.490787999988
 20
13644.10437599999
 30
0.0
 11
23845.420923999991
 21
13776.343145999999
 31
0.0
  0
LINE
  5
38D7
  8
2-0
  6
CONTINUOUS
 62
     6
 10
23751.490787999988
 20
13644.10437599999
 30
0.0
 11
23713.674064999999
 21
13681.716218999991
 31
0.0
  0
LINE
  5
38D8
  8
2-0
  6
CONTINUOUS
 62
     6
 10
23776.70985399999
 20
14008.620845999991
 30
0.0
 11
23909.309885999988
 21
13915.192517999991
 31
0.0
  0
LINE
  5
38D9
  8
2-0
  6
CONTINUOUS
 62
     6
 10
23909.309885999988
 20
13915.192517999991
 30
0.0
 11
23753.5772
 21
13960.568031999999
 31
0.0
  0
LINE
  5
38DA
  8
2-0
  6
CONTINUOUS
 62
     6
 10
23776.70985399999
 20
14008.620845999991
 30
0.0
 11
23753.5772
 21
13960.568031999999
 31
0.0
  0
LINE
  5
38DB
  8
2-0
  6
CONTINUOUS
 62
     6
 10
23753.5772
 20
13960.568031999999
 30
0.0
 11
23909.309885999988
 21
13915.192517999991
 31
0.0
  0
LINE
  5
38DC
  8
2-0
  6
CONTINUOUS
 62
     6
 10
23909.309885999988
 20
13915.192517999991
 30
0.0
 11
23776.70985399999
 21
14008.620845999991
 31
0.0
  0
LINE
  5
38DD
  8
2-0
  6
CONTINUOUS
 62
     6
 10
23776.70985399999
 20
14008.620845999991
 30
0.0
 11
23909.309885999988
 21
13915.192517999991
 31
0.0
  0
LINE
  5
38DE
  8
2-0
  6
CONTINUOUS
 62
     6
 10
23753.5772
 20
13960.568031999999
 30
0.0
 11
23909.309885999988
 21
13915.192517999991
 31
0.0
  0
LINE
  5
38DF
  8
2-0
  6
CONTINUOUS
 62
     6
 10
23753.5772
 20
13960.568031999999
 30
0.0
 11
23776.70985399999
 21
14008.620845999991
 31
0.0
  0
LINE
  5
38E0
  8
2-0
  6
CONTINUOUS
 62
     6
 10
23836.473499999989
 20
16388.441779000019
 30
0.0
 11
23990.311785999991
 21
16439.875610000021
 31
0.0
  0
LINE
  5
38E1
  8
2-0
  6
CONTINUOUS
 62
     6
 10
23990.311785999991
 20
16439.875610000021
 30
0.0
 11
23861.47679899996
 21
16341.33517500002
 31
0.0
  0
LINE
  5
38E2
  8
2-0
  6
CONTINUOUS
 62
     6
 10
23836.473499999989
 20
16388.441779000019
 30
0.0
 11
23861.47679899996
 21
16341.33517500002
 31
0.0
  0
LINE
  5
38E3
  8
2-0
  6
CONTINUOUS
 62
     6
 10
23861.47679899996
 20
16341.33517500002
 30
0.0
 11
23990.311785999991
 21
16439.875610000021
 31
0.0
  0
LINE
  5
38E4
  8
2-0
  6
CONTINUOUS
 62
     6
 10
23990.311785999991
 20
16439.875610000021
 30
0.0
 11
23836.473499999989
 21
16388.441779000019
 31
0.0
  0
LINE
  5
38E5
  8
2-0
  6
CONTINUOUS
 62
     6
 10
23836.473499999989
 20
16388.441779000019
 30
0.0
 11
23990.311785999991
 21
16439.875610000021
 31
0.0
  0
LINE
  5
38E6
  8
2-0
  6
CONTINUOUS
 62
     6
 10
23861.47679899996
 20
16341.33517500002
 30
0.0
 11
23990.311785999991
 21
16439.875610000021
 31
0.0
  0
LINE
  5
38E7
  8
2-0
  6
CONTINUOUS
 62
     6
 10
23861.47679899996
 20
16341.33517500002
 30
0.0
 11
23836.473499999989
 21
16388.441779000019
 31
0.0
  0
LINE
  5
38E8
  8
2-0
  6
CONTINUOUS
 62
     6
 10
23702.537293000001
 20
16879.76027100001
 30
0.0
 11
23845.420923999991
 21
16802.984641999999
 31
0.0
  0
LINE
  5
38E9
  8
2-0
  6
CONTINUOUS
 62
     6
 10
23845.420923999991
 20
16802.984641999999
 30
0.0
 11
23685.359031
 21
16829.266711000011
 31
0.0
  0
LINE
  5
38EA
  8
2-0
  6
CONTINUOUS
 62
     6
 10
23702.537293000001
 20
16879.76027100001
 30
0.0
 11
23685.359031
 21
16829.266711000011
 31
0.0
  0
LINE
  5
38EB
  8
2-0
  6
CONTINUOUS
 62
     6
 10
23685.359031
 20
16829.266711000011
 30
0.0
 11
23845.420923999991
 21
16802.984641999999
 31
0.0
  0
LINE
  5
38EC
  8
2-0
  6
CONTINUOUS
 62
     6
 10
23845.420923999991
 20
16802.984641999999
 30
0.0
 11
23702.537293000001
 21
16879.76027100001
 31
0.0
  0
LINE
  5
38ED
  8
2-0
  6
CONTINUOUS
 62
     6
 10
23702.537293000001
 20
16879.76027100001
 30
0.0
 11
23845.420923999991
 21
16802.984641999999
 31
0.0
  0
LINE
  5
38EE
  8
2-0
  6
CONTINUOUS
 62
     6
 10
23685.359031
 20
16829.266711000011
 30
0.0
 11
23845.420923999991
 21
16802.984641999999
 31
0.0
  0
LINE
  5
38EF
  8
2-0
  6
CONTINUOUS
 62
     6
 10
23685.359031
 20
16829.266711000011
 30
0.0
 11
23702.537293000001
 21
16879.76027100001
 31
0.0
  0
LINE
  5
38F0
  8
2-0
  6
CONTINUOUS
 62
     6
 10
23743.988411999992
 20
18120.240645999991
 30
0.0
 11
23899.307379000002
 21
18166.984997999989
 31
0.0
  0
LINE
  5
38F1
  8
2-0
  6
CONTINUOUS
 62
     6
 10
23899.307379000002
 20
18166.984997999989
 30
0.0
 11
23767.546662999968
 21
18072.389744
 31
0.0
  0
LINE
  5
38F2
  8
2-0
  6
CONTINUOUS
 62
     6
 10
23743.988411999992
 20
18120.240645999991
 30
0.0
 11
23767.546662999968
 21
18072.389744
 31
0.0
  0
LINE
  5
38F3
  8
2-0
  6
CONTINUOUS
 62
     6
 10
23767.546662999968
 20
18072.389744
 30
0.0
 11
23899.307379000002
 21
18166.984997999989
 31
0.0
  0
LINE
  5
38F4
  8
2-0
  6
CONTINUOUS
 62
     6
 10
23899.307379000002
 20
18166.984997999989
 30
0.0
 11
23743.988411999992
 21
18120.240645999991
 31
0.0
  0
LINE
  5
38F5
  8
2-0
  6
CONTINUOUS
 62
     6
 10
23743.988411999992
 20
18120.240645999991
 30
0.0
 11
23899.307379000002
 21
18166.984997999989
 31
0.0
  0
LINE
  5
38F6
  8
2-0
  6
CONTINUOUS
 62
     6
 10
23767.546662999968
 20
18072.389744
 30
0.0
 11
23899.307379000002
 21
18166.984997999989
 31
0.0
  0
LINE
  5
38F7
  8
2-0
  6
CONTINUOUS
 62
     6
 10
23767.546662999968
 20
18072.389744
 30
0.0
 11
23743.988411999992
 21
18120.240645999991
 31
0.0
  0
LINE
  5
38F8
  8
2-0
  6
CONTINUOUS
 62
     3
 10
20666.814821999989
 20
19601.984326000009
 30
0.0
 11
20666.814821999989
 21
19595.988364000012
 31
0.0
  0
LINE
  5
38F9
  8
2-0
  6
CONTINUOUS
 62
     3
 10
20666.814821999989
 20
19595.988364000012
 30
0.0
 11
20636.817196999989
 21
19595.988364000012
 31
0.0
  0
LINE
  5
38FA
  8
2-0
  6
CONTINUOUS
 62
     3
 10
20636.817196999989
 20
19595.988364000012
 30
0.0
 11
20636.817196999989
 21
19710.984537000011
 31
0.0
  0
LINE
  5
38FB
  8
2-0
  6
CONTINUOUS
 62
     3
 10
20636.817196999989
 20
19625.987968000001
 30
0.0
 11
20717.815138000002
 21
19625.987968000001
 31
0.0
  0
LINE
  5
38FC
  8
2-0
  6
CONTINUOUS
 62
     3
 10
20666.814821999989
 20
19585.690908
 30
0.0
 11
20636.817196999989
 21
19585.690908
 31
0.0
  0
LINE
  5
38FD
  8
2-0
  6
CONTINUOUS
 62
     3
 10
20666.814821999989
 20
19603.692650000001
 30
0.0
 11
20666.814821999989
 21
19585.690908
 31
0.0
  0
LINE
  5
38FE
  8
2-0
  6
CONTINUOUS
 62
     3
 10
20641.821419999989
 20
19603.692650000001
 30
0.0
 11
20666.814821999989
 21
19603.692650000001
 31
0.0
  0
LINE
  5
38FF
  8
2-0
  6
CONTINUOUS
 62
     3
 10
20641.821419999989
 20
19598.68446800001
 30
0.0
 11
20641.821419999989
 21
19603.692650000001
 31
0.0
  0
LINE
  5
3900
  8
2-0
  6
CONTINUOUS
 62
     3
 10
20648.819017999969
 20
19598.68446800001
 30
0.0
 11
20641.821419999989
 21
19598.68446800001
 31
0.0
  0
LINE
  5
3901
  8
2-0
  6
CONTINUOUS
 62
     3
 10
20749.113306999989
 20
19698.984695000021
 30
0.0
 11
20749.113306999989
 21
19705.990211000011
 31
0.0
  0
LINE
  5
3902
  8
2-0
  6
CONTINUOUS
 62
     3
 10
20749.113306999989
 20
19705.990211000011
 30
0.0
 11
20744.111062999989
 21
19705.990211000011
 31
0.0
  0
LINE
  5
3903
  8
2-0
  6
CONTINUOUS
 62
     3
 10
20744.111062999989
 20
19705.990211000011
 30
0.0
 11
20744.111062999989
 21
19680.980973999998
 31
0.0
  0
LINE
  5
3904
  8
2-0
  6
CONTINUOUS
 62
     3
 10
20744.111062999989
 20
19680.980973999998
 30
0.0
 11
20762.118743999981
 21
19680.980973999998
 31
0.0
  0
LINE
  5
3905
  8
2-0
  6
CONTINUOUS
 62
     3
 10
20762.118743999981
 20
19680.980973999998
 30
0.0
 11
20762.118743999981
 21
19710.984537000011
 31
0.0
  0
LINE
  5
3906
  8
2-0
  6
CONTINUOUS
 62
     3
 10
20751.819307999991
 20
19710.984537000011
 30
0.0
 11
20636.817196999989
 21
19710.984537000011
 31
0.0
  0
LINE
  5
3907
  8
2-0
  6
CONTINUOUS
 62
     3
 10
20751.819307999991
 20
19680.980973999998
 30
0.0
 11
20751.819307999991
 21
19710.984537000011
 31
0.0
  0
LINE
  5
3908
  8
2-0
  6
CONTINUOUS
 62
     3
 10
20745.815428999991
 20
19680.980973999998
 30
0.0
 11
20751.819307999991
 21
19680.980973999998
 31
0.0
  0
LINE
  5
3909
  8
2-0
  6
CONTINUOUS
 62
     3
 10
20666.814821999989
 20
19601.984326000009
 30
0.0
 11
20666.814821999989
 21
19595.988364000012
 31
0.0
  0
LINE
  5
390A
  8
2-0
  6
CONTINUOUS
 62
     3
 10
20666.814821999989
 20
19595.988364000012
 30
0.0
 11
20636.817196999989
 21
19595.988364000012
 31
0.0
  0
LINE
  5
390B
  8
2-0
  6
CONTINUOUS
 62
     3
 10
20636.817196999989
 20
19595.988364000012
 30
0.0
 11
20636.817196999989
 21
19710.984537000011
 31
0.0
  0
LINE
  5
390C
  8
2-0
  6
CONTINUOUS
 62
     3
 10
20636.817196999989
 20
19625.987968000001
 30
0.0
 11
20717.815138000002
 21
19625.987968000001
 31
0.0
  0
LINE
  5
390D
  8
2-0
  6
CONTINUOUS
 62
     3
 10
20666.814821999989
 20
19585.690908
 30
0.0
 11
20636.817196999989
 21
19585.690908
 31
0.0
  0
LINE
  5
390E
  8
2-0
  6
CONTINUOUS
 62
     3
 10
20666.814821999989
 20
19603.692650000001
 30
0.0
 11
20666.814821999989
 21
19585.690908
 31
0.0
  0
LINE
  5
390F
  8
2-0
  6
CONTINUOUS
 62
     3
 10
20641.821419999989
 20
19603.692650000001
 30
0.0
 11
20666.814821999989
 21
19603.692650000001
 31
0.0
  0
LINE
  5
3910
  8
2-0
  6
CONTINUOUS
 62
     3
 10
20641.821419999989
 20
19598.68446800001
 30
0.0
 11
20641.821419999989
 21
19603.692650000001
 31
0.0
  0
LINE
  5
3911
  8
2-0
  6
CONTINUOUS
 62
     3
 10
20648.819017999969
 20
19598.68446800001
 30
0.0
 11
20641.821419999989
 21
19598.68446800001
 31
0.0
  0
LINE
  5
3912
  8
2-0
  6
CONTINUOUS
 62
     3
 10
20648.819017999969
 20
18894.887645499992
 30
0.0
 11
20641.821419999989
 21
18894.887645499992
 31
0.0
  0
LINE
  5
3913
  8
2-0
  6
CONTINUOUS
 62
     3
 10
20641.821419999989
 20
18894.887645499992
 30
0.0
 11
20641.821419999989
 21
18899.887909500001
 31
0.0
  0
LINE
  5
3914
  8
2-0
  6
CONTINUOUS
 62
     3
 10
20641.821419999989
 20
18899.887909500001
 30
0.0
 11
20666.814821999989
 21
18899.887909500001
 31
0.0
  0
LINE
  5
3915
  8
2-0
  6
CONTINUOUS
 62
     3
 10
20666.814821999989
 20
18899.887909500001
 30
0.0
 11
20666.814821999989
 21
18881.892105499981
 31
0.0
  0
LINE
  5
3916
  8
2-0
  6
CONTINUOUS
 62
     3
 10
20666.814821999989
 20
18881.892105499981
 30
0.0
 11
20636.817196999989
 21
18881.892105499981
 31
0.0
  0
LINE
  5
3917
  8
2-0
  6
CONTINUOUS
 62
     3
 10
20666.814821999989
 20
18897.98361249996
 30
0.0
 11
20666.814821999989
 21
18891.985671499991
 31
0.0
  0
LINE
  5
3918
  8
2-0
  6
CONTINUOUS
 62
     3
 10
20666.814821999989
 20
18891.985671499991
 30
0.0
 11
20636.817196999989
 21
18891.985671499991
 31
0.0
  0
LINE
  5
3919
  8
2-0
  6
CONTINUOUS
 62
     3
 10
20636.817196999989
 20
18891.985671499991
 30
0.0
 11
20636.817196999989
 21
18928.986832499992
 31
0.0
  0
LINE
  5
391A
  8
2-0
  6
CONTINUOUS
 62
     3
 10
20666.814821999989
 20
18928.986832499992
 30
0.0
 11
20636.817196999989
 21
18928.986832499992
 31
0.0
  0
LINE
  5
391B
  8
2-0
  6
CONTINUOUS
 62
     3
 10
20666.814821999989
 20
18922.982952499991
 30
0.0
 11
20666.814821999989
 21
18928.986832499992
 31
0.0
  0
LINE
  5
391C
  8
2-0
  6
CONTINUOUS
 62
     3
 10
20666.814821999989
 20
18939.082377499981
 30
0.0
 11
20636.817196999989
 21
18939.082377499981
 31
0.0
  0
LINE
  5
391D
  8
2-0
  6
CONTINUOUS
 62
     3
 10
20666.814821999989
 20
18921.080635499999
 30
0.0
 11
20666.814821999989
 21
18939.082377499981
 31
0.0
  0
LINE
  5
391E
  8
2-0
  6
CONTINUOUS
 62
     3
 10
20641.821419999989
 20
18921.080635499999
 30
0.0
 11
20666.814821999989
 21
18921.080635499999
 31
0.0
  0
LINE
  5
391F
  8
2-0
  6
CONTINUOUS
 62
     3
 10
20641.821419999989
 20
18926.080899499979
 30
0.0
 11
20641.821419999989
 21
18921.080635499999
 31
0.0
  0
LINE
  5
3920
  8
2-0
  6
CONTINUOUS
 62
     3
 10
20648.819017999969
 20
18926.080899499979
 30
0.0
 11
20641.821419999989
 21
18926.080899499979
 31
0.0
  0
LINE
  5
3921
  8
2-0
  6
CONTINUOUS
 62
     3
 10
20648.819017999969
 20
18193.886655999999
 30
0.0
 11
20641.821419999989
 21
18193.886655999999
 31
0.0
  0
LINE
  5
3922
  8
2-0
  6
CONTINUOUS
 62
     3
 10
20641.821419999989
 20
18193.886655999999
 30
0.0
 11
20641.821419999989
 21
18198.892857999999
 31
0.0
  0
LINE
  5
3923
  8
2-0
  6
CONTINUOUS
 62
     3
 10
20641.821419999989
 20
18198.892857999999
 30
0.0
 11
20666.814821999989
 21
18198.892857999999
 31
0.0
  0
LINE
  5
3924
  8
2-0
  6
CONTINUOUS
 62
     3
 10
20666.814821999989
 20
18198.892857999999
 30
0.0
 11
20666.814821999989
 21
18180.891115999992
 31
0.0
  0
LINE
  5
3925
  8
2-0
  6
CONTINUOUS
 62
     3
 10
20666.814821999989
 20
18180.891115999992
 30
0.0
 11
20636.817196999989
 21
18180.891115999992
 31
0.0
  0
LINE
  5
3926
  8
2-0
  6
CONTINUOUS
 62
     3
 10
20666.814821999989
 20
18196.982622999982
 30
0.0
 11
20666.814821999989
 21
18190.986660999992
 31
0.0
  0
LINE
  5
3927
  8
2-0
  6
CONTINUOUS
 62
     3
 10
20666.814821999989
 20
18190.986660999992
 30
0.0
 11
20636.817196999989
 21
18190.986660999992
 31
0.0
  0
LINE
  5
3928
  8
2-0
  6
CONTINUOUS
 62
     3
 10
20636.817196999989
 20
18190.986660999992
 30
0.0
 11
20636.817196999989
 21
18227.985842999991
 31
0.0
  0
LINE
  5
3929
  8
2-0
  6
CONTINUOUS
 62
     3
 10
20666.814821999989
 20
18227.985842999991
 30
0.0
 11
20636.817196999989
 21
18227.985842999991
 31
0.0
  0
LINE
  5
392A
  8
2-0
  6
CONTINUOUS
 62
     3
 10
20666.814821999989
 20
18221.989881000001
 30
0.0
 11
20666.814821999989
 21
18227.985842999991
 31
0.0
  0
LINE
  5
392B
  8
2-0
  6
CONTINUOUS
 62
     3
 10
20666.814821999989
 20
18238.081387999999
 30
0.0
 11
20636.817196999989
 21
18238.081387999999
 31
0.0
  0
LINE
  5
392C
  8
2-0
  6
CONTINUOUS
 62
     3
 10
20666.814821999989
 20
18220.079645999991
 30
0.0
 11
20666.814821999989
 21
18238.081387999999
 31
0.0
  0
LINE
  5
392D
  8
2-0
  6
CONTINUOUS
 62
     3
 10
20641.821419999989
 20
18220.079645999991
 30
0.0
 11
20666.814821999989
 21
18220.079645999991
 31
0.0
  0
LINE
  5
392E
  8
2-0
  6
CONTINUOUS
 62
     3
 10
20641.821419999989
 20
18225.085847999992
 30
0.0
 11
20641.821419999989
 21
18220.079645999991
 31
0.0
  0
LINE
  5
392F
  8
2-0
  6
CONTINUOUS
 62
     3
 10
20648.819017999969
 20
18225.085847999992
 30
0.0
 11
20641.821419999989
 21
18225.085847999992
 31
0.0
  0
LINE
  5
3930
  8
2-0
  6
CONTINUOUS
 62
     3
 10
20648.819017999969
 20
17524.079909999989
 30
0.0
 11
20641.821419999989
 21
17524.079909999989
 31
0.0
  0
LINE
  5
3931
  8
2-0
  6
CONTINUOUS
 62
     3
 10
20641.821419999989
 20
17524.079909999989
 30
0.0
 11
20641.821419999989
 21
17519.091522999999
 31
0.0
  0
LINE
  5
3932
  8
2-0
  6
CONTINUOUS
 62
     3
 10
20641.821419999989
 20
17519.091522999999
 30
0.0
 11
20666.814821999989
 21
17519.091522999999
 31
0.0
  0
LINE
  5
3933
  8
2-0
  6
CONTINUOUS
 62
     3
 10
20666.814821999989
 20
17519.091522999999
 30
0.0
 11
20666.814821999989
 21
17537.08732599999
 31
0.0
  0
LINE
  5
3934
  8
2-0
  6
CONTINUOUS
 62
     3
 10
20666.814821999989
 20
17537.08732599999
 30
0.0
 11
20636.817196999989
 21
17537.08732599999
 31
0.0
  0
LINE
  5
3935
  8
2-0
  6
CONTINUOUS
 62
     3
 10
20666.814821999989
 20
17520.989881000001
 30
0.0
 11
20666.814821999989
 21
17526.985842999991
 31
0.0
  0
LINE
  5
3936
  8
2-0
  6
CONTINUOUS
 62
     3
 10
20666.814821999989
 20
17526.985842999991
 30
0.0
 11
20636.817196999989
 21
17526.985842999991
 31
0.0
  0
LINE
  5
3937
  8
2-0
  6
CONTINUOUS
 62
     3
 10
20636.817196999989
 20
17526.985842999991
 30
0.0
 11
20636.817196999989
 21
17489.986660999992
 31
0.0
  0
LINE
  5
3938
  8
2-0
  6
CONTINUOUS
 62
     3
 10
20666.814821999989
 20
17489.986660999992
 30
0.0
 11
20636.817196999989
 21
17489.986660999992
 31
0.0
  0
LINE
  5
3939
  8
2-0
  6
CONTINUOUS
 62
     3
 10
20666.814821999989
 20
17495.988561999991
 30
0.0
 11
20666.814821999989
 21
17489.986660999992
 31
0.0
  0
LINE
  5
393A
  8
2-0
  6
CONTINUOUS
 62
     3
 10
20666.814821999989
 20
17479.897055000001
 30
0.0
 11
20636.817196999989
 21
17479.897055000001
 31
0.0
  0
LINE
  5
393B
  8
2-0
  6
CONTINUOUS
 62
     3
 10
20666.814821999989
 20
17497.892857999981
 30
0.0
 11
20666.814821999989
 21
17479.897055000001
 31
0.0
  0
LINE
  5
393C
  8
2-0
  6
CONTINUOUS
 62
     3
 10
20641.821419999989
 20
17497.892857999981
 30
0.0
 11
20666.814821999989
 21
17497.892857999981
 31
0.0
  0
LINE
  5
393D
  8
2-0
  6
CONTINUOUS
 62
     3
 10
20641.821419999989
 20
17492.892595000001
 30
0.0
 11
20641.821419999989
 21
17497.892857999981
 31
0.0
  0
LINE
  5
393E
  8
2-0
  6
CONTINUOUS
 62
     3
 10
20648.819017999969
 20
17492.892595000001
 30
0.0
 11
20641.821419999989
 21
17492.892595000001
 31
0.0
  0
LINE
  5
393F
  8
2-0
  6
CONTINUOUS
 62
     3
 10
20639.703334999991
 20
16772.983480999999
 30
0.0
 11
20639.703334999991
 21
16792.984536
 31
0.0
  0
LINE
  5
3940
  8
2-0
  6
CONTINUOUS
 62
     3
 10
20639.703334999991
 20
16792.984536
 30
0.0
 11
20724.703862999999
 21
16792.984536
 31
0.0
  0
LINE
  5
3941
  8
2-0
  6
CONTINUOUS
 62
     3
 10
20648.819017999969
 20
16819.591246
 30
0.0
 11
20641.821419999989
 21
16819.591246
 31
0.0
  0
LINE
  5
3942
  8
2-0
  6
CONTINUOUS
 62
     3
 10
20641.821419999989
 20
16819.591246
 30
0.0
 11
20641.821419999989
 21
16814.596920000011
 31
0.0
  0
LINE
  5
3943
  8
2-0
  6
CONTINUOUS
 62
     3
 10
20641.821419999989
 20
16814.596920000011
 30
0.0
 11
20666.814821999989
 21
16814.596920000011
 31
0.0
  0
LINE
  5
3944
  8
2-0
  6
CONTINUOUS
 62
     3
 10
20666.814821999989
 20
16814.596920000011
 30
0.0
 11
20666.814821999989
 21
16832.592723999991
 31
0.0
  0
LINE
  5
3945
  8
2-0
  6
CONTINUOUS
 62
     3
 10
20666.814821999989
 20
16832.592723999991
 30
0.0
 11
20636.817196999989
 21
16832.592723999991
 31
0.0
  0
LINE
  5
3946
  8
2-0
  6
CONTINUOUS
 62
     3
 10
20666.814821999989
 20
16822.98413999999
 30
0.0
 11
20666.814821999989
 21
16816.982240000001
 31
0.0
  0
LINE
  5
3947
  8
2-0
  6
CONTINUOUS
 62
     3
 10
20636.817196999989
 20
16822.98413999999
 30
0.0
 11
20666.814821999989
 21
16822.98413999999
 31
0.0
  0
LINE
  5
3948
  8
2-0
  6
CONTINUOUS
 62
     3
 10
20636.817196999989
 20
16832.592723999991
 30
0.0
 11
20636.817196999989
 21
17479.897055000001
 31
0.0
  0
LINE
  5
3949
  8
2-0
  6
CONTINUOUS
 62
     3
 10
20636.817196999989
 20
17537.08732599999
 30
0.0
 11
20636.817196999989
 21
18180.891115999992
 31
0.0
  0
LINE
  5
394A
  8
2-0
  6
CONTINUOUS
 62
     3
 10
20636.817196999989
 20
16677.982424999991
 30
0.0
 11
20666.814821999989
 21
16677.982424999991
 31
0.0
  0
LINE
  5
394B
  8
2-0
  6
CONTINUOUS
 62
     3
 10
20666.814821999989
 20
16677.982424999991
 30
0.0
 11
20666.814821999989
 21
16683.984325000001
 31
0.0
  0
LINE
  5
394C
  8
2-0
  6
CONTINUOUS
 62
     3
 10
20724.703862999999
 20
16707.987968000001
 30
0.0
 11
20639.703334999991
 21
16707.987968000001
 31
0.0
  0
LINE
  5
394D
  8
2-0
  6
CONTINUOUS
 62
     3
 10
20639.703334999991
 20
16707.987968000001
 30
0.0
 11
20639.703334999991
 21
16727.983085000011
 31
0.0
  0
LINE
  5
394E
  8
2-0
  6
CONTINUOUS
 62
     3
 10
20666.814821999989
 20
16668.373842000012
 30
0.0
 11
20636.817196999989
 21
16668.373842000012
 31
0.0
  0
LINE
  5
394F
  8
2-0
  6
CONTINUOUS
 62
     3
 10
20666.814821999989
 20
16686.369644999992
 30
0.0
 11
20666.814821999989
 21
16668.373842000012
 31
0.0
  0
LINE
  5
3950
  8
2-0
  6
CONTINUOUS
 62
     3
 10
20641.821419999989
 20
16686.369644999992
 30
0.0
 11
20666.814821999989
 21
16686.369644999992
 31
0.0
  0
LINE
  5
3951
  8
2-0
  6
CONTINUOUS
 62
     3
 10
20641.821419999989
 20
16681.369381000011
 30
0.0
 11
20641.821419999989
 21
16686.369644999992
 31
0.0
  0
LINE
  5
3952
  8
2-0
  6
CONTINUOUS
 62
     3
 10
20648.819017999969
 20
16681.369381000011
 30
0.0
 11
20641.821419999989
 21
16681.369381000011
 31
0.0
  0
LINE
  5
3953
  8
2-0
  6
CONTINUOUS
 62
     3
 10
20648.819017999969
 20
15976.887150499981
 30
0.0
 11
20641.821419999989
 21
15976.887150499981
 31
0.0
  0
LINE
  5
3954
  8
2-0
  6
CONTINUOUS
 62
     3
 10
20641.821419999989
 20
15976.887150499981
 30
0.0
 11
20641.821419999989
 21
15981.88741449999
 31
0.0
  0
LINE
  5
3955
  8
2-0
  6
CONTINUOUS
 62
     3
 10
20641.821419999989
 20
15981.88741449999
 30
0.0
 11
20666.814821999989
 21
15981.88741449999
 31
0.0
  0
LINE
  5
3956
  8
2-0
  6
CONTINUOUS
 62
     3
 10
20666.814821999989
 20
15981.88741449999
 30
0.0
 11
20666.814821999989
 21
15963.88567249999
 31
0.0
  0
LINE
  5
3957
  8
2-0
  6
CONTINUOUS
 62
     3
 10
20666.814821999989
 20
15963.88567249999
 30
0.0
 11
20636.817196999989
 21
15963.88567249999
 31
0.0
  0
LINE
  5
3958
  8
2-0
  6
CONTINUOUS
 62
     3
 10
20666.814821999989
 20
15979.9831175
 30
0.0
 11
20666.814821999989
 21
15973.986166500001
 31
0.0
  0
LINE
  5
3959
  8
2-0
  6
CONTINUOUS
 62
     3
 10
20666.814821999989
 20
15973.986166500001
 30
0.0
 11
20636.817196999989
 21
15973.986166500001
 31
0.0
  0
LINE
  5
395A
  8
2-0
  6
CONTINUOUS
 62
     3
 10
20636.817196999989
 20
15973.986166500001
 30
0.0
 11
20636.817196999989
 21
16010.9863375
 31
0.0
  0
LINE
  5
395B
  8
2-0
  6
CONTINUOUS
 62
     3
 10
20666.814821999989
 20
16010.9863375
 30
0.0
 11
20636.817196999989
 21
16010.9863375
 31
0.0
  0
LINE
  5
395C
  8
2-0
  6
CONTINUOUS
 62
     3
 10
20666.814821999989
 20
16004.983447500001
 30
0.0
 11
20666.814821999989
 21
16010.9863375
 31
0.0
  0
LINE
  5
395D
  8
2-0
  6
CONTINUOUS
 62
     3
 10
20666.814821999989
 20
16021.08188249999
 30
0.0
 11
20636.817196999989
 21
16021.08188249999
 31
0.0
  0
LINE
  5
395E
  8
2-0
  6
CONTINUOUS
 62
     3
 10
20666.814821999989
 20
16003.074201499991
 30
0.0
 11
20666.814821999989
 21
16021.08188249999
 31
0.0
  0
LINE
  5
395F
  8
2-0
  6
CONTINUOUS
 62
     3
 10
20641.821419999989
 20
16003.074201499991
 30
0.0
 11
20666.814821999989
 21
16003.074201499991
 31
0.0
  0
LINE
  5
3960
  8
2-0
  6
CONTINUOUS
 62
     3
 10
20641.821419999989
 20
16008.0804045
 30
0.0
 11
20641.821419999989
 21
16003.074201499991
 31
0.0
  0
LINE
  5
3961
  8
2-0
  6
CONTINUOUS
 62
     3
 10
20648.819017999969
 20
16008.0804045
 30
0.0
 11
20641.821419999989
 21
16008.0804045
 31
0.0
  0
LINE
  5
3962
  8
2-0
  6
CONTINUOUS
 62
     3
 10
20648.819017999969
 20
15307.320421
 30
0.0
 11
20641.821419999989
 21
15307.320421
 31
0.0
  0
LINE
  5
3963
  8
2-0
  6
CONTINUOUS
 62
     3
 10
20641.821419999989
 20
15307.320421
 30
0.0
 11
20641.821419999989
 21
15302.326096000001
 31
0.0
  0
LINE
  5
3964
  8
2-0
  6
CONTINUOUS
 62
     3
 10
20641.821419999989
 20
15302.326096000001
 30
0.0
 11
20666.814821999989
 21
15302.326096000001
 31
0.0
  0
LINE
  5
3965
  8
2-0
  6
CONTINUOUS
 62
     3
 10
20666.814821999989
 20
15302.326096000001
 30
0.0
 11
20666.814821999989
 21
15320.32189900001
 31
0.0
  0
LINE
  5
3966
  8
2-0
  6
CONTINUOUS
 62
     3
 10
20666.814821999989
 20
15320.32189900001
 30
0.0
 11
20636.817196999989
 21
15320.32189900001
 31
0.0
  0
LINE
  5
3967
  8
2-0
  6
CONTINUOUS
 62
     3
 10
20666.814821999989
 20
15304.22445399999
 30
0.0
 11
20666.814821999989
 21
15310.226354
 31
0.0
  0
LINE
  5
3968
  8
2-0
  6
CONTINUOUS
 62
     3
 10
20666.814821999989
 20
15310.226354
 30
0.0
 11
20636.817196999989
 21
15310.226354
 31
0.0
  0
LINE
  5
3969
  8
2-0
  6
CONTINUOUS
 62
     3
 10
20636.817196999989
 20
15273.22717300001
 30
0.0
 11
20636.817196999989
 21
15310.226354
 31
0.0
  0
LINE
  5
396A
  8
2-0
  6
CONTINUOUS
 62
     3
 10
20666.814821999989
 20
15273.22717300001
 30
0.0
 11
20636.817196999989
 21
15273.22717300001
 31
0.0
  0
LINE
  5
396B
  8
2-0
  6
CONTINUOUS
 62
     3
 10
20666.814821999989
 20
15279.224124
 30
0.0
 11
20666.814821999989
 21
15273.22717300001
 31
0.0
  0
LINE
  5
396C
  8
2-0
  6
CONTINUOUS
 62
     3
 10
20666.814821999989
 20
15263.12568899999
 30
0.0
 11
20636.817196999989
 21
15263.12568899999
 31
0.0
  0
LINE
  5
396D
  8
2-0
  6
CONTINUOUS
 62
     3
 10
20666.814821999989
 20
15281.13336999999
 30
0.0
 11
20666.814821999989
 21
15263.12568899999
 31
0.0
  0
LINE
  5
396E
  8
2-0
  6
CONTINUOUS
 62
     3
 10
20641.821419999989
 20
15281.13336999999
 30
0.0
 11
20666.814821999989
 21
15281.13336999999
 31
0.0
  0
LINE
  5
396F
  8
2-0
  6
CONTINUOUS
 62
     3
 10
20641.821419999989
 20
15276.133106000019
 30
0.0
 11
20641.821419999989
 21
15281.13336999999
 31
0.0
  0
LINE
  5
3970
  8
2-0
  6
CONTINUOUS
 62
     3
 10
20648.819017999969
 20
15276.133106000019
 30
0.0
 11
20641.821419999989
 21
15276.133106000019
 31
0.0
  0
LINE
  5
3971
  8
2-0
  6
CONTINUOUS
 62
     3
 10
20636.817196999989
 20
16668.373842000012
 30
0.0
 11
20636.817196999989
 21
16021.08188249999
 31
0.0
  0
LINE
  5
3972
  8
2-0
  6
CONTINUOUS
 62
     3
 10
20636.817196999989
 20
16822.98413999999
 30
0.0
 11
20636.817196999989
 21
16677.982424999991
 31
0.0
  0
LINE
  5
3973
  8
2-0
  6
CONTINUOUS
 62
     3
 10
20724.703862999999
 20
16792.984536
 30
0.0
 11
20724.703862999999
 21
16707.987968000001
 31
0.0
  0
LINE
  5
3974
  8
2-0
  6
CONTINUOUS
 62
     3
 10
20648.819017999969
 20
14574.892099000001
 30
0.0
 11
20641.821419999989
 21
14574.892099000001
 31
0.0
  0
LINE
  5
3975
  8
2-0
  6
CONTINUOUS
 62
     3
 10
20641.821419999989
 20
14574.892099000001
 30
0.0
 11
20641.821419999989
 21
14579.88642500001
 31
0.0
  0
LINE
  5
3976
  8
2-0
  6
CONTINUOUS
 62
     3
 10
20641.821419999989
 20
14579.88642500001
 30
0.0
 11
20666.814821999989
 21
14579.88642500001
 31
0.0
  0
LINE
  5
3977
  8
2-0
  6
CONTINUOUS
 62
     3
 10
20666.814821999989
 20
14579.88642500001
 30
0.0
 11
20666.814821999989
 21
14561.890621
 31
0.0
  0
LINE
  5
3978
  8
2-0
  6
CONTINUOUS
 62
     3
 10
20666.814821999989
 20
14561.890621
 30
0.0
 11
20636.817196999989
 21
14561.890621
 31
0.0
  0
LINE
  5
3979
  8
2-0
  6
CONTINUOUS
 62
     3
 10
20666.814821999989
 20
14577.989056
 30
0.0
 11
20666.814821999989
 21
14571.98616600001
 31
0.0
  0
LINE
  5
397A
  8
2-0
  6
CONTINUOUS
 62
     3
 10
20666.814821999989
 20
14571.98616600001
 30
0.0
 11
20636.817196999989
 21
14571.98616600001
 31
0.0
  0
LINE
  5
397B
  8
2-0
  6
CONTINUOUS
 62
     3
 10
20636.817196999989
 20
14571.98616600001
 30
0.0
 11
20636.817196999989
 21
14608.986337999981
 31
0.0
  0
LINE
  5
397C
  8
2-0
  6
CONTINUOUS
 62
     3
 10
20666.814821999989
 20
14608.986337999981
 30
0.0
 11
20636.817196999989
 21
14608.986337999981
 31
0.0
  0
LINE
  5
397D
  8
2-0
  6
CONTINUOUS
 62
     3
 10
20666.814821999989
 20
14602.989385999999
 30
0.0
 11
20666.814821999989
 21
14608.986337999981
 31
0.0
  0
LINE
  5
397E
  8
2-0
  6
CONTINUOUS
 62
     3
 10
20666.814821999989
 20
14619.086831000001
 30
0.0
 11
20636.817196999989
 21
14619.086831000001
 31
0.0
  0
LINE
  5
397F
  8
2-0
  6
CONTINUOUS
 62
     3
 10
20666.814821999989
 20
14601.08014
 30
0.0
 11
20666.814821999989
 21
14619.086831000001
 31
0.0
  0
LINE
  5
3980
  8
2-0
  6
CONTINUOUS
 62
     3
 10
20641.821419999989
 20
14601.08014
 30
0.0
 11
20666.814821999989
 21
14601.08014
 31
0.0
  0
LINE
  5
3981
  8
2-0
  6
CONTINUOUS
 62
     3
 10
20641.821419999989
 20
14606.085353
 30
0.0
 11
20641.821419999989
 21
14601.08014
 31
0.0
  0
LINE
  5
3982
  8
2-0
  6
CONTINUOUS
 62
     3
 10
20648.819017999969
 20
14606.085353
 30
0.0
 11
20641.821419999989
 21
14606.085353
 31
0.0
  0
LINE
  5
3983
  8
2-0
  6
CONTINUOUS
 62
     3
 10
20666.814821999989
 20
13898.988179
 30
0.0
 11
20666.814821999989
 21
13904.993047999989
 31
0.0
  0
LINE
  5
3984
  8
2-0
  6
CONTINUOUS
 62
     3
 10
20666.814821999989
 20
13904.993047999989
 30
0.0
 11
20636.817196999989
 21
13904.993047999989
 31
0.0
  0
LINE
  5
3985
  8
2-0
  6
CONTINUOUS
 62
     3
 10
20636.817196999989
 20
13904.993047999989
 30
0.0
 11
20636.817196999989
 21
13789.988957
 31
0.0
  0
LINE
  5
3986
  8
2-0
  6
CONTINUOUS
 62
     3
 10
20636.817196999989
 20
13789.988957
 30
0.0
 11
20721.815745
 21
13789.988957
 31
0.0
  0
LINE
  5
3987
  8
2-0
  6
CONTINUOUS
 62
     3
 10
20721.815745
 20
13789.988957
 30
0.0
 11
20721.815745
 21
13874.984536
 31
0.0
  0
LINE
  5
3988
  8
2-0
  6
CONTINUOUS
 62
     3
 10
20721.815745
 20
13874.984536
 30
0.0
 11
20689.818806999989
 21
13874.984536
 31
0.0
  0
LINE
  5
3989
  8
2-0
  6
CONTINUOUS
 62
     3
 10
20648.819017999969
 20
13902.022781
 30
0.0
 11
20641.821419999989
 21
13902.022781
 31
0.0
  0
LINE
  5
398A
  8
2-0
  6
CONTINUOUS
 62
     3
 10
20641.821419999989
 20
13902.022781
 30
0.0
 11
20641.821419999989
 21
13897.02548599998
 31
0.0
  0
LINE
  5
398B
  8
2-0
  6
CONTINUOUS
 62
     3
 10
20641.821419999989
 20
13897.02548599998
 30
0.0
 11
20666.814821999989
 21
13897.02548599998
 31
0.0
  0
LINE
  5
398C
  8
2-0
  6
CONTINUOUS
 62
     3
 10
20666.814821999989
 20
13897.02548599998
 30
0.0
 11
20666.814821999989
 21
13915.024258999991
 31
0.0
  0
LINE
  5
398D
  8
2-0
  6
CONTINUOUS
 62
     3
 10
20666.814821999989
 20
13915.024258999991
 30
0.0
 11
20636.817196999989
 21
13915.024258999991
 31
0.0
  0
LINE
  5
398E
  8
2-0
  6
CONTINUOUS
 62
     3
 10
20636.817196999989
 20
14619.086831000001
 30
0.0
 11
20636.817196999989
 21
15263.12568899999
 31
0.0
  0
LINE
  5
398F
  8
2-0
  6
CONTINUOUS
 62
     3
 10
20636.817196999989
 20
18238.081387999999
 30
0.0
 11
20636.817196999989
 21
18881.892105499981
 31
0.0
  0
LINE
  5
3990
  8
2-0
  6
CONTINUOUS
 62
     3
 10
20727.819625
 20
18166.984997999982
 30
0.0
 11
20680.815955999991
 21
18166.984997999982
 31
0.0
  0
LINE
  5
3991
  8
2-0
  6
CONTINUOUS
 62
     3
 10
20680.815955999991
 20
18251.985526
 30
0.0
 11
20727.819625
 21
18251.985526
 31
0.0
  0
LINE
  5
3992
  8
2-0
  6
CONTINUOUS
 62
     3
 10
20680.815955999991
 20
18166.984997999982
 30
0.0
 11
20680.815955999991
 21
18191.988297
 31
0.0
  0
LINE
  5
3993
  8
2-0
  6
CONTINUOUS
 62
     3
 10
20680.815955999991
 20
18226.984206000001
 30
0.0
 11
20680.815955999991
 21
18251.985526
 31
0.0
  0
LINE
  5
3994
  8
2-0
  6
CONTINUOUS
 62
     3
 10
20727.819625
 20
18251.985526
 30
0.0
 11
20727.819625
 21
18166.984997999982
 31
0.0
  0
LINE
  5
3995
  8
2-0
  6
CONTINUOUS
 62
     3
 10
20636.817196999989
 20
15963.88567249999
 30
0.0
 11
20636.817196999989
 21
15320.32189900001
 31
0.0
  0
LINE
  5
3996
  8
2-0
  6
CONTINUOUS
 62
     3
 10
20727.819625
 20
15248.987967999999
 30
0.0
 11
20680.815955999991
 21
15248.987967999999
 31
0.0
  0
LINE
  5
3997
  8
2-0
  6
CONTINUOUS
 62
     3
 10
20680.815955999991
 20
15333.984535999991
 30
0.0
 11
20727.819625
 21
15333.984535999991
 31
0.0
  0
LINE
  5
3998
  8
2-0
  6
CONTINUOUS
 62
     3
 10
20680.815955999991
 20
15248.987967999999
 30
0.0
 11
20680.815955999991
 21
15273.983349
 31
0.0
  0
LINE
  5
3999
  8
2-0
  6
CONTINUOUS
 62
     3
 10
20680.815955999991
 20
15308.98321700001
 30
0.0
 11
20680.815955999991
 21
15333.984535999991
 31
0.0
  0
LINE
  5
399A
  8
2-0
  6
CONTINUOUS
 62
     3
 10
20727.819625
 20
15333.984535999991
 30
0.0
 11
20727.819625
 21
15248.987967999999
 31
0.0
  0
LINE
  5
399B
  8
2-0
  6
CONTINUOUS
 62
     3
 10
23990.311785999991
 20
19595.988364000012
 30
0.0
 11
23990.311785999991
 21
19710.984537000011
 31
0.0
  0
LINE
  5
399C
  8
2-0
  6
CENTER2
 62
     6
 10
19349.858925
 20
19668.486251999992
 30
0.0
 11
24840.313106000001
 21
19668.486251999992
 31
0.0
  0
LINE
  5
399D
  8
2-0
  6
CENTER2
 62
     6
 10
19349.858925
 20
16750.486251999992
 30
0.0
 11
24840.313106000001
 21
16750.486251999992
 31
0.0
  0
LINE
  5
399E
  8
2-0
  6
CENTER2
 62
     6
 10
19349.858925
 20
13832.486252000001
 30
0.0
 11
24840.313106000001
 21
13832.486252000001
 31
0.0
  0
LINE
  5
399F
  8
2-0
  6
CONTINUOUS
 62
     3
 10
20636.817196999989
 20
19625.987968000001
 30
0.0
 11
23909.309885999988
 21
19625.987968000001
 31
0.0
  0
LINE
  5
39A0
  8
2-0
  6
CONTINUOUS
 62
     3
 10
20636.817196999989
 20
13915.024258999991
 30
0.0
 11
20636.817196999989
 21
14561.890621
 31
0.0
  0
LINE
  5
39A1
  8
2-0
  6
CENTER2
 62
     6
 10
20679.313502000001
 20
20910.984537000018
 30
0.0
 11
20679.313502000001
 21
13206.722818
 31
0.0
  0
LINE
  5
39A2
  8
2-0
  6
CENTER2
 62
     6
 10
23947.813502000001
 20
20910.984537000018
 30
0.0
 11
23947.813502000001
 21
13206.722818
 31
0.0
  0
LINE
  5
39A3
  8
2-0
  6
CONTINUOUS
 62
     3
 10
23990.311785999991
 20
19585.690908
 30
0.0
 11
23990.311785999991
 21
18939.082377499992
 31
0.0
  0
LINE
  5
39A4
  8
2-0
  6
CONTINUOUS
 62
     3
 10
20636.817196999989
 20
19585.690908
 30
0.0
 11
20636.817196999989
 21
18939.082377499981
 31
0.0
  0
LINE
  5
39A5
  8
2-0
  6
CONTINUOUS
 62
     3
 10
20717.815138000002
 20
13874.984536
 30
0.0
 11
20717.815138000002
 21
19710.984537000011
 31
0.0
  0
LINE
  5
39A6
  8
2-0
  6
CONTINUOUS
 62
     3
 10
23909.309885999988
 20
13874.984536
 30
0.0
 11
23909.309885999988
 21
19710.984537000011
 31
0.0
  0
CIRCLE
  5
39A7
  8
2-0
  6
CONTINUOUS
 62
     4
 10
19149.861235
 20
19668.486251999992
 30
0.0
 40
200.00001
  0
CIRCLE
  5
39A8
  8
2-0
  6
CONTINUOUS
 62
     4
 10
19149.861235
 20
16750.486251999992
 30
0.0
 40
200.00001
  0
CIRCLE
  5
39A9
  8
2-0
  6
CONTINUOUS
 62
     4
 10
19149.861235
 20
13832.486252000001
 30
0.0
 40
200.00001
  0
CIRCLE
  5
39AA
  8
2-0
  6
CONTINUOUS
 62
     4
 10
20679.313502000001
 20
21110.989156000011
 30
0.0
 40
200.00001
  0
TEXT
  5
39AB
  8
2-0
  6
CONTINUOUS
 62
     7
 10
22344.65880899999
 20
13272.487373999989
 30
0.0
 40
160.0
  1
前柱（右）
 50
0.000213
 72
     4
 11
22760.65851159301
 21
13352.48892050078
 31
0.0
  0
TEXT
  5
39AC
  8
2-0
  6
CONTINUOUS
 62
     7
 10
22361.358027999981
 20
17951.609418000011
 30
0.0
 40
160.0
  1
補強柱 後
 50
359.99984199999989
 72
     4
 11
22772.024915274709
 21
18031.608285537
 31
0.0
  0
TEXT
  5
39AD
  8
2-0
  6
CONTINUOUS
 62
     7
 10
22549.253931999989
 20
16200.97939000001
 30
0.0
 40
160.0
  1
壁パネル
 50
359.99982299999999
 72
     4
 11
22911.92084580355
 21
16280.978269637881
 31
0.0
  0
TEXT
  5
39AE
  8
2-0
  6
CONTINUOUS
 62
     7
 10
22269.251027999981
 20
17038.167286000022
 30
0.0
 40
160.0
  1
中柱（左右）
 50
0.000354
 72
     4
 11
22786.5838670462
 21
17118.170482324669
 31
0.0
  0
TEXT
  5
39AF
  8
2-0
  6
CONTINUOUS
 62
     7
 10
22949.25327199998
 20
14245.52863999999
 30
0.0
 40
160.0
  1
下枠
 50
0.001063
 72
     4
 11
23119.918454409279
 21
14325.531806339281
 31
0.0
  0
TEXT
  5
39B0
  8
2-0
  6
CONTINUOUS
 62
     7
 10
22361.358027999999
 20
15033.84992900002
 30
0.0
 40
160.0
  1
補強柱 前
 50
359.99937
 72
     4
 11
22772.025574287782
 21
15113.845413479339
 31
0.0
  0
TEXT
  5
39B1
  8
2-0
  6
CONTINUOUS
 62
     7
 10
22444.218696
 20
18641.436024499992
 30
0.0
 40
160.0
  1
間柱（側）
 72
     4
 11
22865.552029333328
 21
18721.436024499992
 31
0.0
  0
TEXT
  5
39B2
  8
2-0
  6
CONTINUOUS
 62
     7
 10
24762.809014999992
 20
20520.983745000009
 30
0.0
 40
160.0
  1
後柱（左右）
 50
0.000354
 72
     4
 11
25274.80852071297
 21
20600.986908372841
 31
0.0
  0
TEXT
  5
39B3
  8
2-0
  6
CONTINUOUS
 62
     7
 10
19101.861867999982
 20
19574.005810000021
 30
0.0
 40
160.0
  1
C
 72
     4
 11
19155.195201333321
 21
19654.005810000021
 31
0.0
  0
TEXT
  5
39B4
  8
2-0
  6
CONTINUOUS
 62
     7
 10
19102.082583999982
 20
16680.092170000022
 30
0.0
 40
160.0
  1
B
 72
     4
 11
19155.415917333321
 21
16760.092170000022
 31
0.0
  0
TEXT
  5
39B5
  8
2-0
  6
CONTINUOUS
 62
     7
 10
19102.125144000001
 20
13743.879041
 30
0.0
 40
160.0
  1
A
 72
     4
 11
19155.45847733333
 21
13823.879041
 31
0.0
  0
TEXT
  5
39B6
  8
2-0
  6
CONTINUOUS
 62
     7
 10
20635.106892999989
 20
21022.221604000009
 30
0.0
 40
160.0
  1
1
 72
     4
 11
20661.773559666661
 21
21102.221604000009
 31
0.0
  0
LINE
  5
39B7
  8
2-0
  6
CONTINUOUS
 62
     3
 10
23208.31408299999
 20
19710.984537000011
 30
0.0
 11
23171.312921000001
 21
19710.984537000011
 31
0.0
  0
LINE
  5
39B8
  8
2-0
  6
CONTINUOUS
 62
     3
 10
23208.31408299999
 20
19680.980973999998
 30
0.0
 11
23208.31408299999
 21
19710.984537000011
 31
0.0
  0
LINE
  5
39B9
  8
2-0
  6
CONTINUOUS
 62
     3
 10
23202.314161999981
 20
19680.980973999998
 30
0.0
 11
23208.31408299999
 21
19680.980973999998
 31
0.0
  0
LINE
  5
39BA
  8
2-0
  6
CONTINUOUS
 62
     3
 10
23218.411606999998
 20
19680.980973999998
 30
0.0
 11
23218.411606999998
 21
19710.984537000011
 31
0.0
  0
LINE
  5
39BB
  8
2-0
  6
CONTINUOUS
 62
     3
 10
23200.407886000001
 20
19680.980973999998
 30
0.0
 11
23218.411606999998
 21
19680.980973999998
 31
0.0
  0
LINE
  5
39BC
  8
2-0
  6
CONTINUOUS
 62
     3
 10
23200.407886000001
 20
19705.990211000011
 30
0.0
 11
23200.407886000001
 21
19680.980973999998
 31
0.0
  0
LINE
  5
39BD
  8
2-0
  6
CONTINUOUS
 62
     3
 10
23205.408149999999
 20
19705.990211000011
 30
0.0
 11
23200.407886000001
 21
19705.990211000011
 31
0.0
  0
LINE
  5
39BE
  8
2-0
  6
CONTINUOUS
 62
     3
 10
23205.408149999999
 20
19698.984695000021
 30
0.0
 11
23205.408149999999
 21
19705.990211000011
 31
0.0
  0
LINE
  5
39BF
  8
2-0
  6
CONTINUOUS
 62
     3
 10
23174.218854999981
 20
19698.984695000021
 30
0.0
 11
23174.218854999981
 21
19705.990211000011
 31
0.0
  0
LINE
  5
39C0
  8
2-0
  6
CONTINUOUS
 62
     3
 10
23174.218854999981
 20
19705.990211000011
 30
0.0
 11
23179.219119000001
 21
19705.990211000011
 31
0.0
  0
LINE
  5
39C1
  8
2-0
  6
CONTINUOUS
 62
     3
 10
23179.219119000001
 20
19705.990211000011
 30
0.0
 11
23179.219119000001
 21
19680.980973999998
 31
0.0
  0
LINE
  5
39C2
  8
2-0
  6
CONTINUOUS
 62
     3
 10
23179.219119000001
 20
19680.980973999998
 30
0.0
 11
23161.219356000001
 21
19680.980973999998
 31
0.0
  0
LINE
  5
39C3
  8
2-0
  6
CONTINUOUS
 62
     3
 10
23161.219356000001
 20
19680.980973999998
 30
0.0
 11
23161.219356000001
 21
19710.984537000011
 31
0.0
  0
LINE
  5
39C4
  8
2-0
  6
CONTINUOUS
 62
     3
 10
23177.312841999999
 20
19680.980973999998
 30
0.0
 11
23171.312921000001
 21
19680.980973999998
 31
0.0
  0
LINE
  5
39C5
  8
2-0
  6
CONTINUOUS
 62
     3
 10
23171.312921000001
 20
19680.980973999998
 30
0.0
 11
23171.312921000001
 21
19710.984537000011
 31
0.0
  0
LINE
  5
39C6
  8
2-0
  6
CONTINUOUS
 62
     3
 10
21803.403200500001
 20
19698.984695000021
 30
0.0
 11
21803.403200500001
 21
19705.990211000011
 31
0.0
  0
LINE
  5
39C7
  8
2-0
  6
CONTINUOUS
 62
     3
 10
21803.403200500001
 20
19705.990211000011
 30
0.0
 11
21798.402936499991
 21
19705.990211000011
 31
0.0
  0
LINE
  5
39C8
  8
2-0
  6
CONTINUOUS
 62
     3
 10
21798.402936499991
 20
19705.990211000011
 30
0.0
 11
21798.402936499991
 21
19680.980973999998
 31
0.0
  0
LINE
  5
39C9
  8
2-0
  6
CONTINUOUS
 62
     3
 10
21798.402936499991
 20
19680.980973999998
 30
0.0
 11
21816.408637500001
 21
19680.980973999998
 31
0.0
  0
LINE
  5
39CA
  8
2-0
  6
CONTINUOUS
 62
     3
 10
21816.408637500001
 20
19680.980973999998
 30
0.0
 11
21816.408637500001
 21
19710.984537000011
 31
0.0
  0
LINE
  5
39CB
  8
2-0
  6
CONTINUOUS
 62
     3
 10
21800.311192500001
 20
19680.980973999998
 30
0.0
 11
21806.3130925
 21
19680.980973999998
 31
0.0
  0
LINE
  5
39CC
  8
2-0
  6
CONTINUOUS
 62
     3
 10
21806.3130925
 20
19680.980973999998
 30
0.0
 11
21806.3130925
 21
19710.984537000011
 31
0.0
  0
LINE
  5
39CD
  8
2-0
  6
CONTINUOUS
 62
     3
 10
21769.31391149999
 20
19710.984537000011
 30
0.0
 11
21806.3130925
 21
19710.984537000011
 31
0.0
  0
LINE
  5
39CE
  8
2-0
  6
CONTINUOUS
 62
     3
 10
21769.31391149999
 20
19680.980973999998
 30
0.0
 11
21769.31391149999
 21
19710.984537000011
 31
0.0
  0
LINE
  5
39CF
  8
2-0
  6
CONTINUOUS
 62
     3
 10
21775.30789349999
 20
19680.980973999998
 30
0.0
 11
21769.31391149999
 21
19680.980973999998
 31
0.0
  0
LINE
  5
39D0
  8
2-0
  6
CONTINUOUS
 62
     3
 10
21759.218366500001
 20
19680.980973999998
 30
0.0
 11
21759.218366500001
 21
19710.984537000011
 31
0.0
  0
LINE
  5
39D1
  8
2-0
  6
CONTINUOUS
 62
     3
 10
21777.214169499988
 20
19680.980973999998
 30
0.0
 11
21759.218366500001
 21
19680.980973999998
 31
0.0
  0
LINE
  5
39D2
  8
2-0
  6
CONTINUOUS
 62
     3
 10
21777.214169499988
 20
19705.990211000011
 30
0.0
 11
21777.214169499988
 21
19680.980973999998
 31
0.0
  0
LINE
  5
39D3
  8
2-0
  6
CONTINUOUS
 62
     3
 10
21772.213905500001
 20
19705.990211000011
 30
0.0
 11
21777.214169499988
 21
19705.990211000011
 31
0.0
  0
LINE
  5
39D4
  8
2-0
  6
CONTINUOUS
 62
     3
 10
21772.213905500001
 20
19698.984695000021
 30
0.0
 11
21772.213905500001
 21
19705.990211000011
 31
0.0
  0
LINE
  5
39D5
  8
2-0
  6
CONTINUOUS
 62
     3
 10
22473.21291649999
 20
19698.984695000021
 30
0.0
 11
22473.21291649999
 21
19705.990211000011
 31
0.0
  0
LINE
  5
39D6
  8
2-0
  6
CONTINUOUS
 62
     3
 10
22473.21291649999
 20
19705.990211000011
 30
0.0
 11
22478.213179499999
 21
19705.990211000011
 31
0.0
  0
LINE
  5
39D7
  8
2-0
  6
CONTINUOUS
 62
     3
 10
22478.213179499999
 20
19705.990211000011
 30
0.0
 11
22478.213179499999
 21
19680.980973999998
 31
0.0
  0
LINE
  5
39D8
  8
2-0
  6
CONTINUOUS
 62
     3
 10
22478.213179499999
 20
19680.980973999998
 30
0.0
 11
22460.219356499991
 21
19680.980973999998
 31
0.0
  0
LINE
  5
39D9
  8
2-0
  6
CONTINUOUS
 62
     3
 10
22460.219356499991
 20
19680.980973999998
 30
0.0
 11
22460.219356499991
 21
19710.984537000011
 31
0.0
  0
LINE
  5
39DA
  8
2-0
  6
CONTINUOUS
 62
     3
 10
22476.31086249997
 20
19680.980973999998
 30
0.0
 11
22470.31292149999
 21
19680.980973999998
 31
0.0
  0
LINE
  5
39DB
  8
2-0
  6
CONTINUOUS
 62
     3
 10
22470.31292149999
 20
19680.980973999998
 30
0.0
 11
22470.31292149999
 21
19710.984537000011
 31
0.0
  0
LINE
  5
39DC
  8
2-0
  6
CONTINUOUS
 62
     3
 10
22507.314082500001
 20
19710.984537000011
 30
0.0
 11
22470.31292149999
 21
19710.984537000011
 31
0.0
  0
LINE
  5
39DD
  8
2-0
  6
CONTINUOUS
 62
     3
 10
22507.314082500001
 20
19680.980973999998
 30
0.0
 11
22507.314082500001
 21
19710.984537000011
 31
0.0
  0
LINE
  5
39DE
  8
2-0
  6
CONTINUOUS
 62
     3
 10
22501.3082235
 20
19680.980973999998
 30
0.0
 11
22507.314082500001
 21
19680.980973999998
 31
0.0
  0
LINE
  5
39DF
  8
2-0
  6
CONTINUOUS
 62
     3
 10
22517.4076475
 20
19680.980973999998
 30
0.0
 11
22517.4076475
 21
19710.984537000011
 31
0.0
  0
LINE
  5
39E0
  8
2-0
  6
CONTINUOUS
 62
     3
 10
22499.411844499991
 20
19680.980973999998
 30
0.0
 11
22517.4076475
 21
19680.980973999998
 31
0.0
  0
LINE
  5
39E1
  8
2-0
  6
CONTINUOUS
 62
     3
 10
22499.411844499991
 20
19705.990211000011
 30
0.0
 11
22499.411844499991
 21
19680.980973999998
 31
0.0
  0
LINE
  5
39E2
  8
2-0
  6
CONTINUOUS
 62
     3
 10
22504.4022105
 20
19705.990211000011
 30
0.0
 11
22499.411844499991
 21
19705.990211000011
 31
0.0
  0
LINE
  5
39E3
  8
2-0
  6
CONTINUOUS
 62
     3
 10
22504.4022105
 20
19698.984695000021
 30
0.0
 11
22504.4022105
 21
19705.990211000011
 31
0.0
  0
LINE
  5
39E4
  8
2-0
  6
CONTINUOUS
 62
     3
 10
21816.408637500001
 20
19710.984537000011
 30
0.0
 11
22460.219356499991
 21
19710.984537000011
 31
0.0
  0
LINE
  5
39E5
  8
2-0
  6
CONTINUOUS
 62
     3
 10
21115.612528000001
 20
19710.984537000011
 30
0.0
 11
21759.218366500001
 21
19710.984537000011
 31
0.0
  0
LINE
  5
39E6
  8
2-0
  6
CONTINUOUS
 62
     3
 10
23865.697132000001
 20
19710.984537000011
 30
0.0
 11
23218.411606999998
 21
19710.984537000011
 31
0.0
  0
LINE
  5
39E7
  8
2-0
  6
CONTINUOUS
 62
     3
 10
23161.219356000001
 20
19710.984537000011
 30
0.0
 11
22517.4076475
 21
19710.984537000011
 31
0.0
  0
LINE
  5
39E8
  8
2-0
  6
CONTINUOUS
 62
     3
 10
21102.405180000002
 20
19698.984695000021
 30
0.0
 11
21102.405180000002
 21
19705.990211000011
 31
0.0
  0
LINE
  5
39E9
  8
2-0
  6
CONTINUOUS
 62
     3
 10
21102.405180000002
 20
19705.990211000011
 30
0.0
 11
21097.404916
 21
19705.990211000011
 31
0.0
  0
LINE
  5
39EA
  8
2-0
  6
CONTINUOUS
 62
     3
 10
21097.404916
 20
19705.990211000011
 30
0.0
 11
21097.404916
 21
19680.980973999998
 31
0.0
  0
LINE
  5
39EB
  8
2-0
  6
CONTINUOUS
 62
     3
 10
21097.404916
 20
19680.980973999998
 30
0.0
 11
21115.406658
 21
19680.980973999998
 31
0.0
  0
LINE
  5
39EC
  8
2-0
  6
CONTINUOUS
 62
     3
 10
21115.406658
 20
19680.980973999998
 30
0.0
 11
21115.406658
 21
19710.984537000011
 31
0.0
  0
LINE
  5
39ED
  8
2-0
  6
CONTINUOUS
 62
     3
 10
21099.30723300001
 20
19680.980973999998
 30
0.0
 11
21105.311113
 21
19680.980973999998
 31
0.0
  0
LINE
  5
39EE
  8
2-0
  6
CONTINUOUS
 62
     3
 10
21105.311113
 20
19680.980973999998
 30
0.0
 11
21105.311113
 21
19710.984537000011
 31
0.0
  0
LINE
  5
39EF
  8
2-0
  6
CONTINUOUS
 62
     3
 10
21068.315890999991
 20
19710.984537000011
 30
0.0
 11
21105.311113
 21
19710.984537000011
 31
0.0
  0
LINE
  5
39F0
  8
2-0
  6
CONTINUOUS
 62
     3
 10
21068.315890999991
 20
19680.980973999998
 30
0.0
 11
21068.315890999991
 21
19710.984537000011
 31
0.0
  0
LINE
  5
39F1
  8
2-0
  6
CONTINUOUS
 62
     3
 10
21074.309872999991
 20
19680.980973999998
 30
0.0
 11
21068.315890999991
 21
19680.980973999998
 31
0.0
  0
LINE
  5
39F2
  8
2-0
  6
CONTINUOUS
 62
     3
 10
21058.220345999998
 20
19680.980973999998
 30
0.0
 11
21058.220345999998
 21
19710.984537000011
 31
0.0
  0
LINE
  5
39F3
  8
2-0
  6
CONTINUOUS
 62
     3
 10
21076.216149
 20
19680.980973999998
 30
0.0
 11
21058.220345999998
 21
19680.980973999998
 31
0.0
  0
LINE
  5
39F4
  8
2-0
  6
CONTINUOUS
 62
     3
 10
21076.216149
 20
19705.990211000011
 30
0.0
 11
21076.216149
 21
19680.980973999998
 31
0.0
  0
LINE
  5
39F5
  8
2-0
  6
CONTINUOUS
 62
     3
 10
21071.217864999999
 20
19705.990211000011
 30
0.0
 11
21076.216149
 21
19705.990211000011
 31
0.0
  0
LINE
  5
39F6
  8
2-0
  6
CONTINUOUS
 62
     3
 10
21071.217864999999
 20
19698.984695000021
 30
0.0
 11
21071.217864999999
 21
19705.990211000011
 31
0.0
  0
LINE
  5
39F7
  8
2-0
  6
CONTINUOUS
 62
     3
 10
20762.118743999981
 20
19710.984537000011
 30
0.0
 11
21058.220345999998
 21
19710.984537000011
 31
0.0
  0
LINE
  5
39F8
  8
2-0
  6
CONTINUOUS
 62
     3
 10
23990.311785999991
 20
15263.12568899999
 30
0.0
 11
23990.311785999991
 21
14619.086831000001
 31
0.0
  0
LINE
  5
39F9
  8
2-0
  6
CONTINUOUS
 62
     3
 10
23990.311785999991
 20
14561.890621
 30
0.0
 11
23990.311785999991
 21
13915.024258999991
 31
0.0
  0
CIRCLE
  5
39FA
  8
2-0
  6
CONTINUOUS
 62
     4
 10
23947.813502000001
 20
21110.989156000011
 30
0.0
 40
200.00001
  0
TEXT
  5
39FB
  8
2-0
  6
CONTINUOUS
 62
     7
 10
23896.181719000011
 20
21015.463527000022
 30
0.0
 40
160.0
  1
2
 72
     4
 11
23949.51505233334
 21
21095.463527000022
 31
0.0
  0
LINE
  5
39FC
  8
0-6
  6
CONTINUOUS
 62
     6
 10
22220.948993499991
 20
18999.666309
 30
0.0
 11
23245.9892435
 21
18999.666309
 31
0.0
  0
LINE
  5
39FD
  8
0-6
  6
CONTINUOUS
 62
     6
 10
21921.024215500001
 20
19557.019561000008
 30
0.0
 11
21816.408637500001
 21
19680.980973999998
 31
0.0
  0
LINE
  5
39FE
  8
0-6
  6
CONTINUOUS
 62
     6
 10
21816.408637500001
 20
19680.980973999998
 30
0.0
 11
21875.166687500001
 21
19529.78930400002
 31
0.0
  0
LINE
  5
39FF
  8
0-6
  6
CONTINUOUS
 62
     6
 10
21816.408637500001
 20
19680.980973999998
 30
0.0
 11
21921.024215500001
 21
19557.019561000008
 31
0.0
  0
LINE
  5
3A00
  8
0-6
  6
CONTINUOUS
 62
     6
 10
21921.024215500001
 20
19557.019561000008
 30
0.0
 11
21875.166687500001
 21
19529.78930400002
 31
0.0
  0
LINE
  5
3A01
  8
0-6
  6
CONTINUOUS
 62
     6
 10
21875.166687500001
 20
19529.78930400002
 30
0.0
 11
21816.408637500001
 21
19680.980973999998
 31
0.0
  0
LINE
  5
3A02
  8
0-6
  6
CONTINUOUS
 62
     6
 10
21875.166687500001
 20
19529.78930400002
 30
0.0
 11
21921.024215500001
 21
19557.019561000008
 31
0.0
  0
LINE
  5
3A03
  8
0-6
  6
CONTINUOUS
 62
     6
 10
21898.095451500001
 20
19543.406412000011
 30
0.0
 11
22220.948993499991
 21
18999.666309
 31
0.0
  0
TEXT
  5
3A04
  8
0-6
  6
CONTINUOUS
 62
     7
 10
22300.9492575
 20
19079.668553000021
 30
0.0
 40
160.0
  1
間柱（後）
 72
     4
 11
22722.282590833329
 21
19159.668553000021
 31
0.0
  0
LINE
  5
3A05
  8
0-5
  6
CONTINUOUS
 62
     4
 10
15532.066920999991
 20
4787.9233240000003
 30
0.0
 11
15532.066920999991
 21
4627.9237860000003
 31
0.0
  0
LINE
  5
3A06
  8
0-5
  6
CONTINUOUS
 62
     4
 10
12614.066920999991
 20
4787.9233240000003
 30
0.0
 11
12614.066920999991
 21
4627.9237860000003
 31
0.0
  0
LINE
  5
3A07
  8
0-5
  6
CONTINUOUS
 62
     4
 10
9696.0669209999924
 20
4787.9233240000003
 30
0.0
 11
9696.0669209999924
 21
4627.9237860000003
 31
0.0
  0
CIRCLE
  5
3A08
  8
0-5
  6
CONTINUOUS
 62
     4
 10
12614.066920999991
 20
4427.9226310000013
 30
0.0
 40
199.9999949999999
  0
CIRCLE
  5
3A09
  8
0-5
  6
CONTINUOUS
 62
     4
 10
15532.066920999991
 20
4427.9226310000013
 30
0.0
 40
199.9999949999999
  0
CIRCLE
  5
3A0A
  8
0-5
  6
CONTINUOUS
 62
     4
 10
9696.0669209999924
 20
4427.9226310000013
 30
0.0
 40
199.9999949999999
  0
TEXT
  5
3A0B
  8
0-5
  6
CONTINUOUS
 62
     7
 10
15485.11076099998
 20
4344.7118350000001
 30
0.0
 40
160.0
  1
A
 72
     4
 11
15538.444094333319
 21
4424.7118350000001
 31
0.0
  0
TEXT
  5
3A0C
  8
0-5
  6
CONTINUOUS
 62
     7
 10
12567.110760999991
 20
4344.7118350000001
 30
0.0
 40
160.0
  1
B
 72
     4
 11
12620.444094333319
 21
4424.7118350000001
 31
0.0
  0
TEXT
  5
3A0D
  8
0-5
  6
CONTINUOUS
 62
     7
 10
9649.1107609999963
 20
4344.7118350000001
 30
0.0
 40
160.0
  1
C
 72
     4
 11
9702.4440943333302
 21
4424.7118350000001
 31
0.0
  0
LINE
  5
3A0E
  8
0-5
  6
CONTINUOUS
 62
     4
 10
17292.150917999981
 20
6567.9232579999989
 30
0.0
 11
17412.151313999981
 21
6775.7702349999954
 31
0.0
  0
LINE
  5
3A0F
  8
0-5
  6
CONTINUOUS
 62
     4
 10
17172.152500999971
 20
6775.7702349999954
 30
0.0
 11
17292.150917999981
 21
6567.9232579999989
 31
0.0
  0
LINE
  5
3A10
  8
0-5
  6
CONTINUOUS
 62
     4
 10
17412.151313999981
 20
6775.7702349999954
 30
0.0
 11
17172.152500999971
 21
6775.7702349999954
 31
0.0
  0
LINE
  5
3A11
  8
0-5
  6
CONTINUOUS
 62
     4
 10
15667.064216000001
 20
6567.9232579999998
 30
0.0
 11
17384.529110999982
 21
6567.9232579999989
 31
0.0
  0
TEXT
  5
3A12
  8
0-5
  6
CONTINUOUS
 62
     7
 10
16833.058988999979
 20
6855.7695089999979
 30
0.0
 40
160.0
  1
布基礎天端
 72
     4
 11
17291.725655666651
 21
6935.7695089999979
 31
0.0
  0
LINE
  5
3A13
  8
0-1
  6
CONTINUOUS
 62
     3
 10
20721.80980700002
 20
8475.9238119999973
 30
0.0
 11
23905.313237999992
 21
8475.9238119999973
 31
0.0
  0
LINE
  5
3A1A
  8
0-1
  6
CONTINUOUS
 62
     3
 10
23997.812183000009
 20
6567.9237529999991
 30
0.0
 11
23897.81284200001
 21
6567.9237529999991
 31
0.0
  0
LINE
  5
3A1B
  8
0-1
  6
CONTINUOUS
 62
     3
 10
23897.81284200001
 20
6567.9237529999991
 30
0.0
 11
23897.81284200001
 21
6467.9239179999959
 31
0.0
  0
LINE
  5
3A1C
  8
0-1
  6
CONTINUOUS
 62
     3
 10
23997.812183000009
 20
6467.9239179999959
 30
0.0
 11
23997.812183000009
 21
6567.9237529999991
 31
0.0
  0
LINE
  5
3A1D
  8
0-1
  6
CONTINUOUS
 62
     3
 10
23905.313237999992
 20
8785.9238449999975
 30
0.0
 11
23905.313237999992
 21
6567.9237529999991
 31
0.0
  0
LINE
  5
3A1E
  8
0-1
  6
CONTINUOUS
 62
     3
 10
23860.314821999989
 20
8475.9238119999973
 30
0.0
 11
23860.314821999989
 21
6467.9239179999959
 31
0.0
  0
LINE
  5
3A1F
  8
0-1
  6
CONTINUOUS
 62
     3
 10
23970.314689999988
 20
8915.9237789999934
 30
0.0
 11
23970.314689999988
 21
6567.9237529999991
 31
0.0
  0
LINE
  5
3A20
  8
0-1
  6
CONTINUOUS
 62
     3
 10
23990.311786999999
 20
8785.9238449999975
 30
0.0
 11
23990.311786999999
 21
6567.9237529999991
 31
0.0
  0
LINE
  5
3A22
  8
0-1
  6
CONTINUOUS
 62
     3
 10
20629.310863000021
 20
6567.9237529999991
 30
0.0
 11
20729.310203000001
 21
6567.9237529999991
 31
0.0
  0
LINE
  5
3A23
  8
0-1
  6
CONTINUOUS
 62
     3
 10
20729.310203000001
 20
6567.9237529999991
 30
0.0
 11
20729.310203000001
 21
6467.9239179999959
 31
0.0
  0
LINE
  5
3A24
  8
0-1
  6
CONTINUOUS
 62
     3
 10
20629.310863000021
 20
6467.9239179999959
 30
0.0
 11
20629.310863000021
 21
6567.9237529999991
 31
0.0
  0
LINE
  5
3A25
  8
0-1
  6
CONTINUOUS
 62
     3
 10
20766.812182999998
 20
8475.9238119999973
 30
0.0
 11
20766.812182999998
 21
6467.9239179999959
 31
0.0
  0
LINE
  5
3A26
  8
0-1
  6
CONTINUOUS
 62
     3
 10
20721.80980700002
 20
8785.9238449999975
 30
0.0
 11
20721.80980700002
 21
6567.9237529999991
 31
0.0
  0
LINE
  5
3A27
  8
0-1
  6
CONTINUOUS
 62
     3
 10
20656.810334999998
 20
8915.9237789999934
 30
0.0
 11
20656.810334999998
 21
6567.9237529999991
 31
0.0
  0
LINE
  5
3A28
  8
0-1
  6
CONTINUOUS
 62
     3
 10
20636.811258999998
 20
8785.9238449999975
 30
0.0
 11
20636.811258999998
 21
6567.9237529999991
 31
0.0
  0
LINE
  5
3A29
  8
0-1
  6
CONTINUOUS
 62
     3
 10
20766.812182999998
 20
6987.9246439999988
 30
0.0
 11
23860.314821999989
 21
6987.9246439999988
 31
0.0
  0
LINE
  5
3A2A
  8
0-1
  6
CONTINUOUS
 62
     3
 10
20766.812182999998
 20
6922.9241819999988
 30
0.0
 11
23860.314821999989
 21
6922.9241819999988
 31
0.0
  0
LINE
  5
3A2B
  8
0-1
  6
CONTINUOUS
 62
     3
 10
20766.812182999998
 20
6857.9242150000009
 30
0.0
 11
23860.314821999989
 21
6857.9242150000009
 31
0.0
  0
LINE
  5
3A2C
  8
0-1
  6
CONTINUOUS
 62
     3
 10
20766.812182999998
 20
6792.923753
 30
0.0
 11
23860.314821999989
 21
6792.923753
 31
0.0
  0
LINE
  5
3A2D
  8
0-1
  6
CONTINUOUS
 62
     3
 10
20766.812182999998
 20
6727.9242810000032
 30
0.0
 11
23860.314821999989
 21
6727.9242810000032
 31
0.0
  0
LINE
  5
3A2E
  8
0-1
  6
CONTINUOUS
 62
     3
 10
20766.812182999998
 20
6662.9243139999999
 30
0.0
 11
23860.314821999989
 21
6662.9243139999999
 31
0.0
  0
LINE
  5
3A2F
  8
0-1
  6
CONTINUOUS
 62
     3
 10
20766.812182999998
 20
6597.9243470000001
 30
0.0
 11
23860.314821999989
 21
6597.9243470000001
 31
0.0
  0
LINE
  5
3A30
  8
0-1
  6
CONTINUOUS
 62
     3
 10
20766.812182999998
 20
6532.9238849999983
 30
0.0
 11
23860.314821999989
 21
6532.9238849999983
 31
0.0
  0
LINE
  5
3A31
  8
0-1
  6
CONTINUOUS
 62
     3
 10
20766.812182999998
 20
8352.9239510000007
 30
0.0
 11
23860.314821999989
 21
8352.9239510000007
 31
0.0
  0
LINE
  5
3A32
  8
0-1
  6
CONTINUOUS
 62
     3
 10
20766.812182999998
 20
8287.9239839999973
 30
0.0
 11
23860.314821999989
 21
8287.9239839999973
 31
0.0
  0
LINE
  5
3A33
  8
0-1
  6
CONTINUOUS
 62
     3
 10
20766.812182999998
 20
8222.9245120000032
 30
0.0
 11
23860.314821999989
 21
8222.9245120000032
 31
0.0
  0
LINE
  5
3A34
  8
0-1
  6
CONTINUOUS
 62
     3
 10
20766.812182999998
 20
8157.924544999998
 30
0.0
 11
23860.314821999989
 21
8157.924544999998
 31
0.0
  0
LINE
  5
3A35
  8
0-1
  6
CONTINUOUS
 62
     3
 10
20766.812182999998
 20
8092.924578000001
 30
0.0
 11
23860.314821999989
 21
8092.924578000001
 31
0.0
  0
LINE
  5
3A36
  8
0-1
  6
CONTINUOUS
 62
     3
 10
20766.812182999998
 20
8027.9241159999974
 30
0.0
 11
23860.314821999989
 21
8027.9241159999974
 31
0.0
  0
LINE
  5
3A37
  8
0-1
  6
CONTINUOUS
 62
     3
 10
20766.812182999998
 20
7962.9241489999986
 30
0.0
 11
23860.314821999989
 21
7962.9241489999986
 31
0.0
  0
LINE
  5
3A38
  8
0-1
  6
CONTINUOUS
 62
     3
 10
20766.812182999998
 20
7897.9246769999982
 30
0.0
 11
23860.314821999989
 21
7897.9246769999982
 31
0.0
  0
LINE
  5
3A39
  8
0-1
  6
CONTINUOUS
 62
     3
 10
20766.812182999998
 20
7832.9247099999948
 30
0.0
 11
23860.314821999989
 21
7832.9247099999948
 31
0.0
  0
LINE
  5
3A3A
  8
0-1
  6
CONTINUOUS
 62
     3
 10
20766.812182999998
 20
7767.924248000003
 30
0.0
 11
23860.314821999989
 21
7767.924248000003
 31
0.0
  0
LINE
  5
3A3B
  8
0-1
  6
CONTINUOUS
 62
     3
 10
20766.812182999998
 20
7702.9242809999978
 30
0.0
 11
23860.314821999989
 21
7702.9242809999978
 31
0.0
  0
LINE
  5
3A3C
  8
0-1
  6
CONTINUOUS
 62
     3
 10
20766.812182999998
 20
7637.9243139999999
 30
0.0
 11
23860.314821999989
 21
7637.9243139999999
 31
0.0
  0
LINE
  5
3A3D
  8
0-1
  6
CONTINUOUS
 62
     3
 10
20766.812182999998
 20
7572.923851999999
 30
0.0
 11
23860.314821999989
 21
7572.923851999999
 31
0.0
  0
LINE
  5
3A3E
  8
0-1
  6
CONTINUOUS
 62
     3
 10
20766.812182999998
 20
7507.9238849999938
 30
0.0
 11
23860.314821999989
 21
7507.9238849999938
 31
0.0
  0
LINE
  5
3A3F
  8
0-1
  6
CONTINUOUS
 62
     3
 10
20766.812182999998
 20
7442.9244129999997
 30
0.0
 11
23860.314821999989
 21
7442.9244129999997
 31
0.0
  0
LINE
  5
3A40
  8
0-1
  6
CONTINUOUS
 62
     3
 10
20766.812182999998
 20
7377.9244459999973
 30
0.0
 11
23860.314821999989
 21
7377.9244459999973
 31
0.0
  0
LINE
  5
3A41
  8
0-1
  6
CONTINUOUS
 62
     3
 10
20766.812182999998
 20
7312.9244789999966
 30
0.0
 11
23860.314821999989
 21
7312.9244789999966
 31
0.0
  0
LINE
  5
3A42
  8
0-1
  6
CONTINUOUS
 62
     3
 10
20766.812182999998
 20
7247.9240170000021
 30
0.0
 11
23860.314821999989
 21
7247.9240170000021
 31
0.0
  0
LINE
  5
3A43
  8
0-1
  6
CONTINUOUS
 62
     3
 10
20766.812182999998
 20
7182.9240499999978
 30
0.0
 11
23860.314821999989
 21
7182.9240499999978
 31
0.0
  0
LINE
  5
3A44
  8
0-1
  6
CONTINUOUS
 62
     3
 10
20766.812182999998
 20
7117.9245780000001
 30
0.0
 11
23860.314821999989
 21
7117.9245780000001
 31
0.0
  0
LINE
  5
3A45
  8
0-1
  6
CONTINUOUS
 62
     3
 10
20766.812182999998
 20
7052.9246109999985
 30
0.0
 11
23860.314821999989
 21
7052.9246109999985
 31
0.0
  0
LINE
  5
3A46
  8
0-1
  6
CONTINUOUS
 62
     3
 10
20766.812182999998
 20
8407.3839709999975
 30
0.0
 11
23860.314821999989
 21
8407.3839709999975
 31
0.0
  0
LINE
  5
3A47
  8
0-1
  6
CONTINUOUS
 62
     3
 10
20629.310863000021
 20
6467.9239179999959
 30
0.0
 11
23997.812183000009
 21
6467.9239179999959
 31
0.0
  0
LINE
  5
3A59
  8
0-2
  6
CONTINUOUS
 62
     4
 10
22677.25352200001
 20
7215.1506119999976
 30
0.0
 11
22577.254182000001
 21
7215.1506119999976
 31
0.0
  0
LINE
  5
3A5A
  8
0-2
  6
CONTINUOUS
 62
     4
 10
21949.869522000001
 20
7215.1506119999976
 30
0.0
 11
22049.868861999988
 21
7215.1506119999976
 31
0.0
  0
LINE
  5
3A5B
  8
0-5
  6
CONTINUOUS
 62
     4
 10
23947.813502000001
 20
4787.9243139999962
 30
0.0
 11
23947.813502000001
 21
4627.9247759999989
 31
0.0
  0
LINE
  5
3A5C
  8
0-5
  6
CONTINUOUS
 62
     4
 10
20679.313502000001
 20
4787.9243139999962
 30
0.0
 11
20679.313502000001
 21
4627.9247759999989
 31
0.0
  0
LINE
  5
3A5D
  8
2-0
  6
CENTER2
 62
     6
 10
23947.813502000001
 20
6205.2714950000009
 30
0.0
 11
23947.813502000001
 21
7242.414522
 31
0.0
  0
LINE
  5
3A5E
  8
2-0
  6
CENTER2
 62
     6
 10
20679.313502000001
 20
6205.2714950000009
 30
0.0
 11
20679.313502000001
 21
7242.414522
 31
0.0
  0
CIRCLE
  5
3A67
  8
0-5
  6
CONTINUOUS
 62
     4
 10
23947.813502000001
 20
4427.9236209999972
 30
0.0
 40
199.9999949999999
  0
CIRCLE
  5
3A68
  8
0-5
  6
CONTINUOUS
 62
     4
 10
20679.313502000001
 20
4427.9236209999972
 30
0.0
 40
199.9999949999999
  0
TEXT
  5
3A69
  8
0-5
  6
CONTINUOUS
 62
     7
 10
23895.900626999999
 20
4338.4486389999984
 30
0.0
 40
160.0
  1
2
 72
     4
 11
23949.233960333331
 21
4418.4486389999984
 31
0.0
  0
TEXT
  5
3A6A
  8
0-5
  6
CONTINUOUS
 62
     7
 10
20627.40062800001
 20
4338.4486389999984
 30
0.0
 40
160.0
  1
1
 72
     4
 11
20654.067294666678
 21
4418.4486389999984
 31
0.0
  0
CIRCLE
  5
3A6B
  8
0-4
  6
CONTINUOUS
 62
     4
 10
22313.563502000001
 20
6953.9803539999957
 30
0.0
 40
18.487504999999981
  0
LINE
  5
3A6C
  8
SUNPOU
  6
CONTINUOUS
 10
20396.81350199999
 20
5267.9239180000041
 30
0.0
 11
20038.858495278891
 21
5267.9239180000041
 31
0.0
  0
LINE
  5
3A6D
  8
SUNPOU
  6
CONTINUOUS
 10
24230.313502000001
 20
5267.9239180000041
 30
0.0
 11
24588.268508721081
 21
5267.9239180000041
 31
0.0
  0
TEXT
  5
3A6E
  8
0-5
  6
CONTINUOUS
 62
     7
 10
20061.13558300001
 20
7197.2841647419982
 30
0.0
 40
160.0
  1
(2131.5)
 50
90.0
 72
     4
 11
19981.13558300001
 21
7650.6174980753312
 31
0.0
  0
CIRCLE
  5
3A6F
  8
0-5
  6
CONTINUOUS
 62
     4
 10
14237.848355
 20
21110.98321699999
 30
0.0
 40
199.9999949999999
  0
CIRCLE
  5
3A70
  8
0-5
  6
CONTINUOUS
 62
     4
 10
10958.84792
 20
21110.98321699999
 30
0.0
 40
199.9999949999999
  0
TEXT
  5
3A71
  8
0-5
  6
CONTINUOUS
 62
     7
 10
14184.131149000001
 20
21021.768294000001
 30
0.0
 40
160.0
  1
2
 72
     4
 11
14237.46448233334
 21
21101.768294000001
 31
0.0
  0
TEXT
  5
3A72
  8
0-5
  6
CONTINUOUS
 62
     7
 10
10905.128735
 20
21021.768294000001
 30
0.0
 40
160.0
  1
1
 72
     4
 11
10931.79540166667
 21
21101.768294000001
 31
0.0
  0
LINE
  5
3A73
  8
SUNPOU
  6
CONTINUOUS
 10
10029.349629
 20
19890.982161000022
 30
0.0
 11
10029.349629
 21
20687.949428778458
 31
0.0
  0
LINE
  5
3A74
  8
SUNPOU
  6
CONTINUOUS
 10
10029.349629
 20
13639.990937
 30
0.0
 11
10029.349629
 21
12964.56482118961
 31
0.0
  0
TEXT
  5
3A75
  8
2-0
  6
CONTINUOUS
 62
     7
 10
20994.240102000022
 20
3506.7741969999988
 30
0.0
 40
160.0
  1
正 面 立 面 図
 72
     4
 11
21639.57343533335
 21
3586.7741969999988
 31
0.0
  0
TEXT
  5
3A76
  8
2-0
  6
CONTINUOUS
 62
     7
 10
22991.06562047097
 20
3533.9695660000002
 30
0.0
 40
160.0
  1
1
 72
     4
 11
23017.732287137638
 21
3613.9695660000002
 31
0.0
  0
TEXT
  5
3A77
  8
2-0
  6
CONTINUOUS
 62
     7
 10
23234.154337721651
 20
3453.9710340000001
 30
0.0
 40
160.0
  1
80
 72
     4
 11
23354.154337721651
 21
3533.9710340000001
 31
0.0
  0
TEXT
  5
3A78
  8
2-0
  6
CONTINUOUS
 62
     7
 10
22492.067586470948
 20
3506.7741969999988
 30
0.0
 40
160.0
  1
(S=  /   )
 72
     4
 11
23052.067586470948
 21
3586.7741969999988
 31
0.0
  0
LINE
  5
3A79
  8
SUNPOU
  6
CONTINUOUS
 10
9473.565666999988
 20
9715.9239439999983
 30
0.0
 11
8998.2765543597579
 21
9715.9239439999983
 31
0.0
  0
LINE
  5
3A7C
  8
WAKUSEN-01
 10
868.00000000000193
 20
22484.000000000011
 30
0.0
 11
32764.000000000011
 21
22484.000000000011
 31
0.0
  0
LINE
  5
3A7F
  8
WAKUSEN-01
 10
20560.0
 20
2484.0
 30
0.0
 11
32764.0
 21
2484.0
 31
0.0
  0
LINE
  5
3A80
  8
WAKUSEN-02
 10
20560.0
 20
1655.9999999999991
 30
0.0
 11
26868.0
 21
1655.9999999999991
 31
0.0
  0
TEXT
  5
3A81
  8
WAKUMOJI-01
 10
20670.260259962761
 20
2125.9030093393221
 30
0.0
 40
240.0
  1
名　称
  7
WAKUMOJI
  0
TEXT
  5
3A82
  8
WAKUMOJI-01
 10
20656.505485091919
 20
1319.12897497982
 30
0.0
 40
240.0
  1
機種名
  7
WAKUMOJI
  0
LINE
  5
3A85
  8
YODOROGO
 10
29977.604341291921
 20
1995.7494964292871
 30
0.0
 11
29829.604341291921
 21
1995.7494964292871
 31
0.0
1001
AUTOCAD_POSTSCRIPT_FIGURE
1002
{
1000
PSFILL
1000
Grayscale
1000
Grayscale
1070
    25
1002
}
  0
LINE
  5
3A86
  8
YODOROGO
 10
29829.604341291921
 20
1947.749496429288
 30
0.0
 11
29977.604341291921
 21
1947.749496429288
 31
0.0
1001
AUTOCAD_POSTSCRIPT_FIGURE
1002
{
1000
PSFILL
1000
Grayscale
1000
Grayscale
1070
    25
1002
}
  0
LINE
  5
3A87
  8
YODOROGO
 10
29977.604341291921
 20
1907.7494964292871
 30
0.0
 11
29829.604341291921
 21
1907.7494964292871
 31
0.0
1001
AUTOCAD_POSTSCRIPT_FIGURE
1002
{
1000
PSFILL
1000
Grayscale
1000
Grayscale
1070
    25
1002
}
  0
LINE
  5
3A88
  8
YODOROGO
 10
29829.604341291921
 20
1859.749496429288
 30
0.0
 11
29977.604341291921
 21
1859.749496429288
 31
0.0
1001
AUTOCAD_POSTSCRIPT_FIGURE
1002
{
1000
PSFILL
1000
Grayscale
1000
Grayscale
1070
    25
1002
}
  0
LINE
  5
3A89
  8
YODOROGO
 10
29977.604341291921
 20
1819.7494964292871
 30
0.0
 11
29829.604341291921
 21
1819.7494964292871
 31
0.0
1001
AUTOCAD_POSTSCRIPT_FIGURE
1002
{
1000
PSFILL
1000
Grayscale
1000
Grayscale
1070
    25
1002
}
  0
LINE
  5
3A8A
  8
YODOROGO
 10
29921.60434129191
 20
1707.749496429288
 30
0.0
 11
29977.604341291921
 21
1707.749496429288
 31
0.0
1001
AUTOCAD_POSTSCRIPT_FIGURE
1002
{
1000
PSFILL
1000
Grayscale
1000
Grayscale
1070
    25
1002
}
  0
LINE
  5
3A8B
  8
YODOROGO
 10
29737.604341291921
 20
1427.749496429288
 30
0.0
 11
29937.604341291932
 21
1481.3393349155101
 31
0.0
  0
LINE
  5
3A8C
  8
YODOROGO
 10
29949.60434129191
 20
1707.749496429288
 30
0.0
 11
29885.604341291921
 21
1707.749496429288
 31
0.0
  0
ARC
  5
3A8D
  8
YODOROGO
 10
30254.34774982791
 20
1807.864609233261
 30
0.0
 40
381.88686420564721
 50
213.96111677667841
 51
264.47872074317792
  0
ARC
  5
3A8E
  8
YODOROGO
 10
30254.347749827921
 20
1807.864609233302
 30
0.0
 40
381.8868642056816
 50
208.14114420486601
 51
212.9210361185994
  0
LINE
  5
3A8F
  8
YODOROGO
 10
29771.409872985321
 20
1556.807661346234
 30
0.0
 11
29933.78413250855
 21
1600.3157130570869
 31
0.0
  0
LINE
  5
3A90
  8
YODOROGO
 10
29737.604341291921
 20
1427.749496429288
 30
0.0
 11
29937.604341291932
 21
1481.3393349155101
 31
0.0
  0
LINE
  5
3A91
  8
YODOROGO
 10
29949.60434129191
 20
1707.749496429288
 30
0.0
 11
29885.604341291921
 21
1707.749496429288
 31
0.0
  0
ARC
  5
3A92
  8
YODOROGO
 10
30254.34774982791
 20
1807.864609233261
 30
0.0
 40
381.88686420564721
 50
213.96111677667841
 51
264.47872074317792
  0
LINE
  5
3A93
  8
YODOROGO
 10
28793.60434129191
 20
1819.7494964292871
 30
0.0
 11
28433.60434129191
 21
1819.7494964292871
 31
0.0
  0
LINE
  5
3A94
  8
YODOROGO
 10
28513.60434129191
 20
1427.749496429288
 30
0.0
 11
28793.60434129191
 21
1427.749496429288
 31
0.0
  0
LINE
  5
3A95
  8
YODOROGO
 10
28729.604341291921
 20
1923.7494964292871
 30
0.0
 11
28497.60434129191
 21
1923.7494964292871
 31
0.0
  0
LINE
  5
3A96
  8
YODOROGO
 10
28585.604341291921
 20
2027.749496429288
 30
0.0
 11
28657.604341291921
 21
2027.749496429288
 31
0.0
  0
LINE
  5
3A97
  8
YODOROGO
 10
28433.60434129191
 20
1707.749496429288
 30
0.0
 11
28433.60434129191
 21
1507.749496429288
 31
0.0
  0
LINE
  5
3A98
  8
YODOROGO
 10
28497.60434129191
 20
1563.7494964292871
 30
0.0
 11
28497.60434129191
 21
1707.749496429288
 31
0.0
  0
LINE
  5
3A99
  8
YODOROGO
 10
28585.604341291921
 20
1747.74949642929
 30
0.0
 11
28585.604341291921
 21
1547.749496429288
 31
0.0
  0
LINE
  5
3A9A
  8
YODOROGO
 10
27857.604341291921
 20
1683.749496429288
 30
0.0
 11
27777.604341291921
 21
1619.9724140445701
 31
0.0
  0
LINE
  5
3A9B
  8
YODOROGO
 10
27937.604341291921
 20
1619.9724140445701
 30
0.0
 11
27857.604341291921
 21
1683.749496429288
 31
0.0
  0
LINE
  5
3A9C
  8
YODOROGO
 10
27857.604341291921
 20
1707.749496429288
 30
0.0
 11
27937.604341291921
 21
1643.9724140445701
 31
0.0
  0
LINE
  5
3A9D
  8
YODOROGO
 10
27777.604341291921
 20
1643.9724140445701
 30
0.0
 11
27857.604341291921
 21
1707.749496429288
 31
0.0
  0
LINE
  5
3A9E
  8
YODOROGO
 10
28040.913204016892
 20
1659.749496429288
 30
0.0
 11
28040.913204016892
 21
1683.7494964292871
 31
0.0
  0
LINE
  5
3A9F
  8
YODOROGO
 10
27977.604341291921
 20
1683.7494964292871
 30
0.0
 11
27977.604341291921
 21
1667.749496429285
 31
0.0
  0
LINE
  5
3AA0
  8
YODOROGO
 10
28098.135520230931
 20
1707.749496429288
 30
0.0
 11
28098.135520230931
 21
1655.5036372746561
 31
0.0
1001
AUTOCAD_POSTSCRIPT_FIGURE
1002
{
1000
PSFILL
1000
Grayscale
1000
Grayscale
1070
   100
1002
}
  0
LINE
  5
3AA1
  8
YODOROGO
 10
28082.135520230921
 20
1655.5036372746561
 30
0.0
 11
28082.135520230921
 21
1707.749496429288
 31
0.0
1001
AUTOCAD_POSTSCRIPT_FIGURE
1002
{
1000
PSFILL
1000
Grayscale
1000
Grayscale
1070
   100
1002
}
  0
LINE
  5
3AA2
  8
YODOROGO
 10
27809.604341291921
 20
1608.771904043258
 30
0.0
 11
27809.604341291921
 21
1632.771904043258
 31
0.0
  0
LINE
  5
3AA3
  8
YODOROGO
 10
27905.604341291921
 20
1608.771904043258
 30
0.0
 11
27809.604341291921
 21
1608.771904043258
 31
0.0
  0
LINE
  5
3AA4
  8
YODOROGO
 10
27905.604341291921
 20
1632.771904043258
 30
0.0
 11
27905.604341291921
 21
1608.771904043258
 31
0.0
  0
LINE
  5
3AA5
  8
YODOROGO
 10
27809.604341291921
 20
1632.771904043258
 30
0.0
 11
27905.604341291921
 21
1632.771904043258
 31
0.0
  0
LINE
  5
3AA6
  8
YODOROGO
 10
27824.509588915738
 20
1568.5028573704751
 30
0.0
 11
27785.604341291921
 21
1475.7494964292871
 31
0.0
1001
AUTOCAD_POSTSCRIPT_FIGURE
1002
{
1000
PSFILL
1000
Grayscale
1000
Grayscale
1070
   100
1002
}
  0
LINE
  5
3AA7
  8
YODOROGO
 10
27777.604341291921
 20
1568.5028573704751
 30
0.0
 11
27824.509588915738
 21
1568.5028573704751
 31
0.0
1001
AUTOCAD_POSTSCRIPT_FIGURE
1002
{
1000
PSFILL
1000
Grayscale
1000
Grayscale
1070
   100
1002
}
  0
LINE
  5
3AA8
  8
YODOROGO
 10
27777.604341291921
 20
1588.5028573704751
 30
0.0
 11
27777.604341291921
 21
1568.5028573704751
 31
0.0
1001
AUTOCAD_POSTSCRIPT_FIGURE
1002
{
1000
PSFILL
1000
Grayscale
1000
Grayscale
1070
   100
1002
}
  0
LINE
  5
3AA9
  8
YODOROGO
 10
27937.604341291921
 20
1588.5028573704751
 30
0.0
 11
27777.604341291921
 21
1588.5028573704751
 31
0.0
1001
AUTOCAD_POSTSCRIPT_FIGURE
1002
{
1000
PSFILL
1000
Grayscale
1000
Grayscale
1070
   100
1002
}
  0
LINE
  5
3AAA
  8
YODOROGO
 10
27937.604341291921
 20
1568.5028573704751
 30
0.0
 11
27937.604341291921
 21
1588.5028573704751
 31
0.0
1001
AUTOCAD_POSTSCRIPT_FIGURE
1002
{
1000
PSFILL
1000
Grayscale
1000
Grayscale
1070
   100
1002
}
  0
LINE
  5
3AAB
  8
YODOROGO
 10
27844.509588915738
 20
1568.5028573704751
 30
0.0
 11
27937.604341291921
 21
1568.5028573704751
 31
0.0
1001
AUTOCAD_POSTSCRIPT_FIGURE
1002
{
1000
PSFILL
1000
Grayscale
1000
Grayscale
1070
   100
1002
}
  0
LINE
  5
3AAC
  8
YODOROGO
 10
27815.546718284771
 20
1495.7494964292871
 30
0.0
 11
27844.509588915738
 21
1568.5028573704751
 31
0.0
1001
AUTOCAD_POSTSCRIPT_FIGURE
1002
{
1000
PSFILL
1000
Grayscale
1000
Grayscale
1070
   100
1002
}
  0
LINE
  5
3AAD
  8
YODOROGO
 10
27902.054790808648
 20
1495.7494964292871
 30
0.0
 11
27815.546718284771
 21
1495.7494964292871
 31
0.0
1001
AUTOCAD_POSTSCRIPT_FIGURE
1002
{
1000
PSFILL
1000
Grayscale
1000
Grayscale
1070
   100
1002
}
  0
LINE
  5
3AAE
  8
YODOROGO
 10
27885.065004790951
 20
1536.2338106976929
 30
0.0
 11
27902.054790808648
 21
1495.7494964292871
 31
0.0
1001
AUTOCAD_POSTSCRIPT_FIGURE
1002
{
1000
PSFILL
1000
Grayscale
1000
Grayscale
1070
   100
1002
}
  0
LINE
  5
3AAF
  8
YODOROGO
 10
27901.065004790951
 20
1536.2338106976929
 30
0.0
 11
27885.065004790951
 21
1536.2338106976929
 31
0.0
1001
AUTOCAD_POSTSCRIPT_FIGURE
1002
{
1000
PSFILL
1000
Grayscale
1000
Grayscale
1070
   100
1002
}
  0
LINE
  5
3AB0
  8
YODOROGO
 10
27929.604341291921
 20
1475.7494964292871
 30
0.0
 11
27901.065004790951
 21
1536.2338106976929
 31
0.0
1001
AUTOCAD_POSTSCRIPT_FIGURE
1002
{
1000
PSFILL
1000
Grayscale
1000
Grayscale
1070
   100
1002
}
  0
LINE
  5
3AB1
  8
YODOROGO
 10
27785.604341291921
 20
1475.7494964292871
 30
0.0
 11
27929.604341291921
 21
1475.7494964292871
 31
0.0
1001
AUTOCAD_POSTSCRIPT_FIGURE
1002
{
1000
PSFILL
1000
Grayscale
1000
Grayscale
1070
   100
1002
}
  0
LINE
  5
3AB2
  8
YODOROGO
 10
27777.604341291921
 20
1619.9724140445701
 30
0.0
 11
27777.604341291921
 21
1643.9724140445701
 31
0.0
  0
LINE
  5
3AB3
  8
YODOROGO
 10
27937.604341291921
 20
1643.9724140445701
 30
0.0
 11
27937.604341291921
 21
1619.9724140445701
 31
0.0
  0
ARC
  5
3AB4
  8
YODOROGO
 10
28225.940442146959
 20
1600.877765325326
 30
0.0
 40
175.9999999999998
 50
280.3644312771313
 51
3.5414836592180561
  0
ARC
  5
3AB5
  8
YODOROGO
 10
28235.756030759301
 20
1633.5978069619041
 30
0.0
 40
111.9999999999982
 50
281.24905825041549
 51
348.75094174958321
  0
LINE
  5
3AB6
  8
YODOROGO
 10
28257.604341291921
 20
1523.7494964292871
 30
0.0
 11
28257.604341291921
 21
1427.749496429288
 31
0.0
  0
LINE
  5
3AB7
  8
YODOROGO
 10
28020.088903736909
 20
1610.650565061914
 30
0.0
 11
28040.913204016892
 21
1659.749496429288
 31
0.0
  0
LINE
  5
3AB8
  8
YODOROGO
 10
28041.604341291921
 20
1583.120489948401
 30
0.0
 11
28020.088903736909
 21
1610.650565061914
 31
0.0
  0
LINE
  5
3AB9
  8
YODOROGO
 10
28041.604341291921
 20
1563.120489948398
 30
0.0
 11
28041.604341291921
 21
1583.120489948401
 31
0.0
  0
LINE
  5
3ABA
  8
YODOROGO
 10
28017.604341291921
 20
1585.2370637495301
 30
0.0
 11
28041.604341291921
 21
1563.120489948398
 31
0.0
  0
LINE
  5
3ABB
  8
YODOROGO
 10
28017.604341291921
 20
1475.7494964292871
 30
0.0
 11
28017.604341291921
 21
1585.2370637495301
 31
0.0
  0
LINE
  5
3ABC
  8
YODOROGO
 10
28001.604341291921
 20
1475.7494964292871
 30
0.0
 11
28017.604341291921
 21
1475.7494964292871
 31
0.0
  0
LINE
  5
3ABD
  8
YODOROGO
 10
28001.604341291921
 20
1580.0053496897469
 30
0.0
 11
28001.604341291921
 21
1475.7494964292871
 31
0.0
  0
LINE
  5
3ABE
  8
YODOROGO
 10
27977.604341291921
 20
1532.7680790334291
 30
0.0
 11
28001.604341291921
 21
1580.0053496897469
 31
0.0
  0
LINE
  5
3ABF
  8
YODOROGO
 10
27977.604341291921
 20
1556.76807903343
 30
0.0
 11
27977.604341291921
 21
1532.7680790334291
 31
0.0
  0
LINE
  5
3AC0
  8
YODOROGO
 10
28025.828774291349
 20
1667.749496429285
 30
0.0
 11
27977.604341291921
 21
1556.76807903343
 31
0.0
  0
LINE
  5
3AC1
  8
YODOROGO
 10
27977.604341291921
 20
1667.749496429285
 30
0.0
 11
28025.828774291349
 21
1667.749496429285
 31
0.0
  0
LINE
  5
3AC2
  8
YODOROGO
 10
28050.135520230899
 20
1655.5036372746561
 30
0.0
 11
28082.135520230921
 21
1655.5036372746561
 31
0.0
1001
AUTOCAD_POSTSCRIPT_FIGURE
1002
{
1000
PSFILL
1000
Grayscale
1000
Grayscale
1070
   100
1002
}
  0
LINE
  5
3AC3
  8
YODOROGO
 10
28050.135520230899
 20
1631.5036372746561
 30
0.0
 11
28050.135520230899
 21
1655.5036372746561
 31
0.0
1001
AUTOCAD_POSTSCRIPT_FIGURE
1002
{
1000
PSFILL
1000
Grayscale
1000
Grayscale
1070
   100
1002
}
  0
LINE
  5
3AC4
  8
YODOROGO
 10
28082.135520230921
 20
1631.5036372746561
 30
0.0
 11
28050.135520230899
 21
1631.5036372746561
 31
0.0
1001
AUTOCAD_POSTSCRIPT_FIGURE
1002
{
1000
PSFILL
1000
Grayscale
1000
Grayscale
1070
   100
1002
}
  0
LINE
  5
3AC5
  8
YODOROGO
 10
28082.135520230921
 20
1499.749496429288
 30
0.0
 11
28082.135520230921
 21
1631.5036372746561
 31
0.0
1001
AUTOCAD_POSTSCRIPT_FIGURE
1002
{
1000
PSFILL
1000
Grayscale
1000
Grayscale
1070
   100
1002
}
  0
LINE
  5
3AC6
  8
YODOROGO
 10
28050.135520230921
 20
1499.749496429288
 30
0.0
 11
28082.135520230921
 21
1499.749496429288
 31
0.0
1001
AUTOCAD_POSTSCRIPT_FIGURE
1002
{
1000
PSFILL
1000
Grayscale
1000
Grayscale
1070
   100
1002
}
  0
LINE
  5
3AC7
  8
YODOROGO
 10
28050.135520230921
 20
1475.7494964292871
 30
0.0
 11
28050.135520230921
 21
1499.749496429288
 31
0.0
1001
AUTOCAD_POSTSCRIPT_FIGURE
1002
{
1000
PSFILL
1000
Grayscale
1000
Grayscale
1070
   100
1002
}
  0
LINE
  5
3AC8
  8
YODOROGO
 10
28137.604341291921
 20
1475.7494964292871
 30
0.0
 11
28050.135520230921
 21
1475.7494964292871
 31
0.0
1001
AUTOCAD_POSTSCRIPT_FIGURE
1002
{
1000
PSFILL
1000
Grayscale
1000
Grayscale
1070
   100
1002
}
  0
LINE
  5
3AC9
  8
YODOROGO
 10
28137.604341291921
 20
1499.749496429288
 30
0.0
 11
28137.604341291921
 21
1475.7494964292871
 31
0.0
1001
AUTOCAD_POSTSCRIPT_FIGURE
1002
{
1000
PSFILL
1000
Grayscale
1000
Grayscale
1070
   100
1002
}
  0
LINE
  5
3ACA
  8
YODOROGO
 10
28098.135520230931
 20
1499.749496429288
 30
0.0
 11
28137.604341291921
 21
1499.749496429288
 31
0.0
1001
AUTOCAD_POSTSCRIPT_FIGURE
1002
{
1000
PSFILL
1000
Grayscale
1000
Grayscale
1070
   100
1002
}
  0
LINE
  5
3ACB
  8
YODOROGO
 10
28098.135520230931
 20
1631.5036372746561
 30
0.0
 11
28098.135520230931
 21
1499.749496429288
 31
0.0
1001
AUTOCAD_POSTSCRIPT_FIGURE
1002
{
1000
PSFILL
1000
Grayscale
1000
Grayscale
1070
   100
1002
}
  0
LINE
  5
3ACC
  8
YODOROGO
 10
28137.604341291921
 20
1631.5036372746561
 30
0.0
 11
28098.135520230931
 21
1631.5036372746561
 31
0.0
1001
AUTOCAD_POSTSCRIPT_FIGURE
1002
{
1000
PSFILL
1000
Grayscale
1000
Grayscale
1070
   100
1002
}
  0
LINE
  5
3ACD
  8
YODOROGO
 10
28137.604341291921
 20
1655.5036372746561
 30
0.0
 11
28137.604341291921
 21
1631.5036372746561
 31
0.0
1001
AUTOCAD_POSTSCRIPT_FIGURE
1002
{
1000
PSFILL
1000
Grayscale
1000
Grayscale
1070
   100
1002
}
  0
LINE
  5
3ACE
  8
YODOROGO
 10
28098.135520230931
 20
1655.5036372746561
 30
0.0
 11
28137.604341291921
 21
1655.5036372746561
 31
0.0
1001
AUTOCAD_POSTSCRIPT_FIGURE
1002
{
1000
PSFILL
1000
Grayscale
1000
Grayscale
1070
   100
1002
}
  0
LINE
  5
3ACF
  8
YODOROGO
 10
28401.60434129191
 20
1667.749496429288
 30
0.0
 11
28345.604341291921
 21
1667.749496429288
 31
0.0
  0
LINE
  5
3AD0
  8
YODOROGO
 10
28401.60434129191
 20
1611.749496429288
 30
0.0
 11
28401.60434129191
 21
1667.749496429288
 31
0.0
  0
LINE
  5
3AD1
  8
YODOROGO
 10
28345.604341291921
 20
1667.749496429288
 30
0.0
 11
28345.604341291921
 21
1611.749496429288
 31
0.0
  0
ARC
  5
3AD2
  8
YODOROGO
 10
28513.60434129191
 20
1507.749496429288
 30
0.0
 40
80.0
 50
180.0
 51
270.0
  0
ARC
  5
3AD3
  8
YODOROGO
 10
28537.604341291921
 20
1563.7494964292871
 30
0.0
 40
40.0
 50
180.0
 51
270.0
  0
LINE
  5
3AD4
  8
YODOROGO
 10
28561.604341291932
 20
1523.7494964292871
 30
0.0
 11
28537.604341291921
 21
1523.7494964292871
 31
0.0
  0
ARC
  5
3AD5
  8
YODOROGO
 10
28561.604341291932
 20
1547.749496429285
 30
0.0
 40
23.999999999996358
 50
270.0
 51
0.0000000000054281
  0
LINE
  5
3AD6
  8
YODOROGO
 10
27801.604341291921
 20
1890.786580793706
 30
0.0
 11
27777.604341291921
 21
1843.776747951672
 31
0.0
1001
AUTOCAD_POSTSCRIPT_FIGURE
1002
{
1000
PSFILL
1000
Grayscale
1000
Grayscale
1070
   100
1002
}
  0
LINE
  5
3AD7
  8
YODOROGO
 10
27801.604341291921
 20
1747.749496429286
 30
0.0
 11
27801.604341291921
 21
1890.786580793706
 31
0.0
1001
AUTOCAD_POSTSCRIPT_FIGURE
1002
{
1000
PSFILL
1000
Grayscale
1000
Grayscale
1070
   100
1002
}
  0
LINE
  5
3AD8
  8
YODOROGO
 10
27817.604341291921
 20
1747.749496429286
 30
0.0
 11
27801.604341291921
 21
1747.749496429286
 31
0.0
1001
AUTOCAD_POSTSCRIPT_FIGURE
1002
{
1000
PSFILL
1000
Grayscale
1000
Grayscale
1070
   100
1002
}
  0
LINE
  5
3AD9
  8
YODOROGO
 10
27817.604341291921
 20
1893.7713320852661
 30
0.0
 11
27817.604341291921
 21
1747.749496429286
 31
0.0
1001
AUTOCAD_POSTSCRIPT_FIGURE
1002
{
1000
PSFILL
1000
Grayscale
1000
Grayscale
1070
   100
1002
}
  0
LINE
  5
3ADA
  8
YODOROGO
 10
27841.604341291921
 20
1867.6547582841361
 30
0.0
 11
27817.604341291921
 21
1893.7713320852661
 31
0.0
1001
AUTOCAD_POSTSCRIPT_FIGURE
1002
{
1000
PSFILL
1000
Grayscale
1000
Grayscale
1070
   100
1002
}
  0
LINE
  5
3ADB
  8
YODOROGO
 10
27841.604341291921
 20
1883.6547582841361
 30
0.0
 11
27841.604341291921
 21
1867.6547582841361
 31
0.0
1001
AUTOCAD_POSTSCRIPT_FIGURE
1002
{
1000
PSFILL
1000
Grayscale
1000
Grayscale
1070
   100
1002
}
  0
LINE
  5
3ADC
  8
YODOROGO
 10
27817.604341291921
 20
1917.7713320852649
 30
0.0
 11
27841.604341291921
 21
1883.6547582841361
 31
0.0
1001
AUTOCAD_POSTSCRIPT_FIGURE
1002
{
1000
PSFILL
1000
Grayscale
1000
Grayscale
1070
   100
1002
}
  0
LINE
  5
3ADD
  8
YODOROGO
 10
27817.604341291921
 20
1939.749496429288
 30
0.0
 11
27817.604341291921
 21
1917.7713320852649
 31
0.0
1001
AUTOCAD_POSTSCRIPT_FIGURE
1002
{
1000
PSFILL
1000
Grayscale
1000
Grayscale
1070
   100
1002
}
  0
LINE
  5
3ADE
  8
YODOROGO
 10
27889.604341291921
 20
1939.749496429288
 30
0.0
 11
27817.604341291921
 21
1939.749496429288
 31
0.0
1001
AUTOCAD_POSTSCRIPT_FIGURE
1002
{
1000
PSFILL
1000
Grayscale
1000
Grayscale
1070
   100
1002
}
  0
LINE
  5
3ADF
  8
YODOROGO
 10
27889.604341291921
 20
1900.5683489363
 30
0.0
 11
27889.604341291921
 21
1939.749496429288
 31
0.0
1001
AUTOCAD_POSTSCRIPT_FIGURE
1002
{
1000
PSFILL
1000
Grayscale
1000
Grayscale
1070
   100
1002
}
  0
LINE
  5
3AE0
  8
YODOROGO
 10
27857.604341291921
 20
1900.5683489363
 30
0.0
 11
27889.604341291921
 21
1900.5683489363
 31
0.0
1001
AUTOCAD_POSTSCRIPT_FIGURE
1002
{
1000
PSFILL
1000
Grayscale
1000
Grayscale
1070
   100
1002
}
  0
LINE
  5
3AE1
  8
YODOROGO
 10
27857.604341291921
 20
1884.568348936298
 30
0.0
 11
27857.604341291921
 21
1900.5683489363
 31
0.0
1001
AUTOCAD_POSTSCRIPT_FIGURE
1002
{
1000
PSFILL
1000
Grayscale
1000
Grayscale
1070
   100
1002
}
  0
LINE
  5
3AE2
  8
YODOROGO
 10
27889.604341291921
 20
1884.568348936298
 30
0.0
 11
27857.604341291921
 21
1884.568348936298
 31
0.0
1001
AUTOCAD_POSTSCRIPT_FIGURE
1002
{
1000
PSFILL
1000
Grayscale
1000
Grayscale
1070
   100
1002
}
  0
LINE
  5
3AE3
  8
YODOROGO
 10
27889.604341291921
 20
1879.6191779644371
 30
0.0
 11
27889.604341291921
 21
1884.568348936298
 31
0.0
1001
AUTOCAD_POSTSCRIPT_FIGURE
1002
{
1000
PSFILL
1000
Grayscale
1000
Grayscale
1070
   100
1002
}
  0
LINE
  5
3AE4
  8
YODOROGO
 10
27849.604341291921
 20
1812.974981161417
 30
0.0
 11
27889.604341291921
 21
1879.6191779644371
 31
0.0
1001
AUTOCAD_POSTSCRIPT_FIGURE
1002
{
1000
PSFILL
1000
Grayscale
1000
Grayscale
1070
   100
1002
}
  0
LINE
  5
3AE5
  8
YODOROGO
 10
27849.604341291921
 20
1796.9749811614161
 30
0.0
 11
27849.604341291921
 21
1812.974981161417
 31
0.0
1001
AUTOCAD_POSTSCRIPT_FIGURE
1002
{
1000
PSFILL
1000
Grayscale
1000
Grayscale
1070
   100
1002
}
  0
LINE
  5
3AE6
  8
YODOROGO
 10
27889.604341291921
 20
1847.6191779644359
 30
0.0
 11
27849.604341291921
 21
1796.9749811614161
 31
0.0
1001
AUTOCAD_POSTSCRIPT_FIGURE
1002
{
1000
PSFILL
1000
Grayscale
1000
Grayscale
1070
   100
1002
}
  0
LINE
  5
3AE7
  8
YODOROGO
 10
27889.604341291921
 20
1747.749496429286
 30
0.0
 11
27889.604341291921
 21
1847.6191779644359
 31
0.0
1001
AUTOCAD_POSTSCRIPT_FIGURE
1002
{
1000
PSFILL
1000
Grayscale
1000
Grayscale
1070
   100
1002
}
  0
LINE
  5
3AE8
  8
YODOROGO
 10
27905.604341291921
 20
1747.749496429286
 30
0.0
 11
27889.604341291921
 21
1747.749496429286
 31
0.0
1001
AUTOCAD_POSTSCRIPT_FIGURE
1002
{
1000
PSFILL
1000
Grayscale
1000
Grayscale
1070
   100
1002
}
  0
LINE
  5
3AE9
  8
YODOROGO
 10
27905.604341291921
 20
1849.409012158806
 30
0.0
 11
27905.604341291921
 21
1747.749496429286
 31
0.0
1001
AUTOCAD_POSTSCRIPT_FIGURE
1002
{
1000
PSFILL
1000
Grayscale
1000
Grayscale
1070
   100
1002
}
  0
LINE
  5
3AEA
  8
YODOROGO
 10
27937.604341291921
 20
1796.9749811614161
 30
0.0
 11
27905.604341291921
 21
1849.409012158806
 31
0.0
1001
AUTOCAD_POSTSCRIPT_FIGURE
1002
{
1000
PSFILL
1000
Grayscale
1000
Grayscale
1070
   100
1002
}
  0
LINE
  5
3AEB
  8
YODOROGO
 10
27937.604341291921
 20
1812.974981161417
 30
0.0
 11
27937.604341291921
 21
1796.9749811614161
 31
0.0
1001
AUTOCAD_POSTSCRIPT_FIGURE
1002
{
1000
PSFILL
1000
Grayscale
1000
Grayscale
1070
   100
1002
}
  0
LINE
  5
3AEC
  8
YODOROGO
 10
27905.604341291921
 20
1881.4090121588081
 30
0.0
 11
27937.604341291921
 21
1812.974981161417
 31
0.0
1001
AUTOCAD_POSTSCRIPT_FIGURE
1002
{
1000
PSFILL
1000
Grayscale
1000
Grayscale
1070
   100
1002
}
  0
LINE
  5
3AED
  8
YODOROGO
 10
27905.604341291921
 20
1884.5683489363
 30
0.0
 11
27905.604341291921
 21
1881.4090121588081
 31
0.0
1001
AUTOCAD_POSTSCRIPT_FIGURE
1002
{
1000
PSFILL
1000
Grayscale
1000
Grayscale
1070
   100
1002
}
  0
LINE
  5
3AEE
  8
YODOROGO
 10
27937.604341291921
 20
1884.568348936298
 30
0.0
 11
27905.604341291921
 21
1884.5683489363
 31
0.0
1001
AUTOCAD_POSTSCRIPT_FIGURE
1002
{
1000
PSFILL
1000
Grayscale
1000
Grayscale
1070
   100
1002
}
  0
LINE
  5
3AEF
  8
YODOROGO
 10
27937.604341291921
 20
1900.5683489363
 30
0.0
 11
27937.604341291921
 21
1884.568348936298
 31
0.0
1001
AUTOCAD_POSTSCRIPT_FIGURE
1002
{
1000
PSFILL
1000
Grayscale
1000
Grayscale
1070
   100
1002
}
  0
LINE
  5
3AF0
  8
YODOROGO
 10
27905.604341291921
 20
1900.5683489363
 30
0.0
 11
27937.604341291921
 21
1900.5683489363
 31
0.0
1001
AUTOCAD_POSTSCRIPT_FIGURE
1002
{
1000
PSFILL
1000
Grayscale
1000
Grayscale
1070
   100
1002
}
  0
LINE
  5
3AF1
  8
YODOROGO
 10
27905.604341291921
 20
1939.749496429288
 30
0.0
 11
27905.604341291921
 21
1900.5683489363
 31
0.0
1001
AUTOCAD_POSTSCRIPT_FIGURE
1002
{
1000
PSFILL
1000
Grayscale
1000
Grayscale
1070
   100
1002
}
  0
LINE
  5
3AF2
  8
YODOROGO
 10
27937.604341291921
 20
1939.749496429288
 30
0.0
 11
27905.604341291921
 21
1939.749496429288
 31
0.0
1001
AUTOCAD_POSTSCRIPT_FIGURE
1002
{
1000
PSFILL
1000
Grayscale
1000
Grayscale
1070
   100
1002
}
  0
LINE
  5
3AF3
  8
YODOROGO
 10
27937.604341291921
 20
1955.7494964292871
 30
0.0
 11
27937.604341291921
 21
1939.749496429288
 31
0.0
1001
AUTOCAD_POSTSCRIPT_FIGURE
1002
{
1000
PSFILL
1000
Grayscale
1000
Grayscale
1070
   100
1002
}
  0
LINE
  5
3AF4
  8
YODOROGO
 10
27905.604341291921
 20
1955.7494964292871
 30
0.0
 11
27937.604341291921
 21
1955.7494964292871
 31
0.0
1001
AUTOCAD_POSTSCRIPT_FIGURE
1002
{
1000
PSFILL
1000
Grayscale
1000
Grayscale
1070
   100
1002
}
  0
LINE
  5
3AF5
  8
YODOROGO
 10
27905.604341291921
 20
1979.749496429288
 30
0.0
 11
27905.604341291921
 21
1955.7494964292871
 31
0.0
1001
AUTOCAD_POSTSCRIPT_FIGURE
1002
{
1000
PSFILL
1000
Grayscale
1000
Grayscale
1070
   100
1002
}
  0
LINE
  5
3AF6
  8
YODOROGO
 10
27889.604341291921
 20
1979.749496429288
 30
0.0
 11
27905.604341291921
 21
1979.749496429288
 31
0.0
1001
AUTOCAD_POSTSCRIPT_FIGURE
1002
{
1000
PSFILL
1000
Grayscale
1000
Grayscale
1070
   100
1002
}
  0
LINE
  5
3AF7
  8
YODOROGO
 10
27889.604341291921
 20
1955.7494964292871
 30
0.0
 11
27889.604341291921
 21
1979.749496429288
 31
0.0
1001
AUTOCAD_POSTSCRIPT_FIGURE
1002
{
1000
PSFILL
1000
Grayscale
1000
Grayscale
1070
   100
1002
}
  0
LINE
  5
3AF8
  8
YODOROGO
 10
27865.604341291921
 20
1955.7494964292871
 30
0.0
 11
27889.604341291921
 21
1955.7494964292871
 31
0.0
1001
AUTOCAD_POSTSCRIPT_FIGURE
1002
{
1000
PSFILL
1000
Grayscale
1000
Grayscale
1070
   100
1002
}
  0
LINE
  5
3AF9
  8
YODOROGO
 10
27865.604341291921
 20
1979.749496429288
 30
0.0
 11
27865.604341291921
 21
1955.7494964292871
 31
0.0
1001
AUTOCAD_POSTSCRIPT_FIGURE
1002
{
1000
PSFILL
1000
Grayscale
1000
Grayscale
1070
   100
1002
}
  0
LINE
  5
3AFA
  8
YODOROGO
 10
27849.604341291921
 20
1979.749496429288
 30
0.0
 11
27865.604341291921
 21
1979.749496429288
 31
0.0
1001
AUTOCAD_POSTSCRIPT_FIGURE
1002
{
1000
PSFILL
1000
Grayscale
1000
Grayscale
1070
   100
1002
}
  0
LINE
  5
3AFB
  8
YODOROGO
 10
27849.604341291921
 20
1955.7494964292871
 30
0.0
 11
27849.604341291921
 21
1979.749496429288
 31
0.0
1001
AUTOCAD_POSTSCRIPT_FIGURE
1002
{
1000
PSFILL
1000
Grayscale
1000
Grayscale
1070
   100
1002
}
  0
LINE
  5
3AFC
  8
YODOROGO
 10
27817.604341291921
 20
1955.7494964292871
 30
0.0
 11
27849.604341291921
 21
1955.7494964292871
 31
0.0
1001
AUTOCAD_POSTSCRIPT_FIGURE
1002
{
1000
PSFILL
1000
Grayscale
1000
Grayscale
1070
   100
1002
}
  0
LINE
  5
3AFD
  8
YODOROGO
 10
27817.604341291921
 20
1979.749496429288
 30
0.0
 11
27817.604341291921
 21
1955.7494964292871
 31
0.0
1001
AUTOCAD_POSTSCRIPT_FIGURE
1002
{
1000
PSFILL
1000
Grayscale
1000
Grayscale
1070
   100
1002
}
  0
LINE
  5
3AFE
  8
YODOROGO
 10
27801.604341291921
 20
1979.749496429288
 30
0.0
 11
27817.604341291921
 21
1979.749496429288
 31
0.0
1001
AUTOCAD_POSTSCRIPT_FIGURE
1002
{
1000
PSFILL
1000
Grayscale
1000
Grayscale
1070
   100
1002
}
  0
LINE
  5
3AFF
  8
YODOROGO
 10
27801.604341291921
 20
1955.7494964292871
 30
0.0
 11
27801.604341291921
 21
1979.749496429288
 31
0.0
1001
AUTOCAD_POSTSCRIPT_FIGURE
1002
{
1000
PSFILL
1000
Grayscale
1000
Grayscale
1070
   100
1002
}
  0
LINE
  5
3B00
  8
YODOROGO
 10
27777.604341291921
 20
1955.7494964292871
 30
0.0
 11
27801.604341291921
 21
1955.7494964292871
 31
0.0
1001
AUTOCAD_POSTSCRIPT_FIGURE
1002
{
1000
PSFILL
1000
Grayscale
1000
Grayscale
1070
   100
1002
}
  0
LINE
  5
3B01
  8
YODOROGO
 10
27777.604341291921
 20
1939.749496429288
 30
0.0
 11
27777.604341291921
 21
1955.7494964292871
 31
0.0
1001
AUTOCAD_POSTSCRIPT_FIGURE
1002
{
1000
PSFILL
1000
Grayscale
1000
Grayscale
1070
   100
1002
}
  0
LINE
  5
3B02
  8
YODOROGO
 10
27801.604341291921
 20
1939.749496429288
 30
0.0
 11
27777.604341291921
 21
1939.749496429288
 31
0.0
1001
AUTOCAD_POSTSCRIPT_FIGURE
1002
{
1000
PSFILL
1000
Grayscale
1000
Grayscale
1070
   100
1002
}
  0
LINE
  5
3B03
  8
YODOROGO
 10
27801.604341291921
 20
1914.7865807937051
 30
0.0
 11
27801.604341291921
 21
1939.749496429288
 31
0.0
1001
AUTOCAD_POSTSCRIPT_FIGURE
1002
{
1000
PSFILL
1000
Grayscale
1000
Grayscale
1070
   100
1002
}
  0
LINE
  5
3B04
  8
YODOROGO
 10
27777.604341291921
 20
1859.776747951671
 30
0.0
 11
27801.604341291921
 21
1914.7865807937051
 31
0.0
1001
AUTOCAD_POSTSCRIPT_FIGURE
1002
{
1000
PSFILL
1000
Grayscale
1000
Grayscale
1070
   100
1002
}
  0
LINE
  5
3B05
  8
YODOROGO
 10
27777.604341291921
 20
1843.776747951672
 30
0.0
 11
27777.604341291921
 21
1859.776747951671
 31
0.0
1001
AUTOCAD_POSTSCRIPT_FIGURE
1002
{
1000
PSFILL
1000
Grayscale
1000
Grayscale
1070
   100
1002
}
  0
LINE
  5
3B06
  8
YODOROGO
 10
28257.604341291921
 20
1867.7494964292871
 30
0.0
 11
28401.60434129191
 21
1824.877625640306
 31
0.0
1001
AUTOCAD_POSTSCRIPT_FIGURE
1002
{
1000
PSFILL
1000
Grayscale
1000
Grayscale
1070
   100
1002
}
  0
LINE
  5
3B07
  8
YODOROGO
 10
28401.60434129191
 20
1752.877625640306
 30
0.0
 11
28257.604341291921
 21
1795.7494964292871
 31
0.0
1001
AUTOCAD_POSTSCRIPT_FIGURE
1002
{
1000
PSFILL
1000
Grayscale
1000
Grayscale
1070
   100
1002
}
  0
LINE
  5
3B08
  8
YODOROGO
 10
28401.60434129191
 20
1984.877625640306
 30
0.0
 11
28257.604341291921
 21
2027.749496429288
 31
0.0
1001
AUTOCAD_POSTSCRIPT_FIGURE
1002
{
1000
PSFILL
1000
Grayscale
1000
Grayscale
1070
   100
1002
}
  0
LINE
  5
3B09
  8
YODOROGO
 10
28257.604341291921
 20
1959.749496429288
 30
0.0
 11
28401.60434129191
 21
1916.8776256403071
 31
0.0
1001
AUTOCAD_POSTSCRIPT_FIGURE
1002
{
1000
PSFILL
1000
Grayscale
1000
Grayscale
1070
   100
1002
}
  0
LINE
  5
3B0A
  8
YODOROGO
 10
28257.604341291921
 20
1795.7494964292871
 30
0.0
 11
28257.604341291921
 21
1867.7494964292871
 31
0.0
1001
AUTOCAD_POSTSCRIPT_FIGURE
1002
{
1000
PSFILL
1000
Grayscale
1000
Grayscale
1070
   100
1002
}
  0
LINE
  5
3B0B
  8
YODOROGO
 10
28257.604341291921
 20
2027.749496429288
 30
0.0
 11
28257.604341291921
 21
1959.749496429288
 31
0.0
1001
AUTOCAD_POSTSCRIPT_FIGURE
1002
{
1000
PSFILL
1000
Grayscale
1000
Grayscale
1070
   100
1002
}
  0
LINE
  5
3B0C
  8
YODOROGO
 10
28080.236320206739
 20
1939.749496429288
 30
0.0
 11
28129.60434129191
 21
1747.749496429286
 31
0.0
1001
AUTOCAD_POSTSCRIPT_FIGURE
1002
{
1000
PSFILL
1000
Grayscale
1000
Grayscale
1070
   100
1002
}
  0
LINE
  5
3B0D
  8
YODOROGO
 10
27977.604341291921
 20
1939.749496429288
 30
0.0
 11
28080.236320206739
 21
1939.749496429288
 31
0.0
1001
AUTOCAD_POSTSCRIPT_FIGURE
1002
{
1000
PSFILL
1000
Grayscale
1000
Grayscale
1070
   100
1002
}
  0
LINE
  5
3B0E
  8
YODOROGO
 10
27977.604341291921
 20
1955.7494964292871
 30
0.0
 11
27977.604341291921
 21
1939.749496429288
 31
0.0
1001
AUTOCAD_POSTSCRIPT_FIGURE
1002
{
1000
PSFILL
1000
Grayscale
1000
Grayscale
1070
   100
1002
}
  0
LINE
  5
3B0F
  8
YODOROGO
 10
28076.60687851991
 20
1955.7494964292871
 30
0.0
 11
27977.604341291921
 21
1955.7494964292871
 31
0.0
1001
AUTOCAD_POSTSCRIPT_FIGURE
1002
{
1000
PSFILL
1000
Grayscale
1000
Grayscale
1070
   100
1002
}
  0
LINE
  5
3B10
  8
YODOROGO
 10
28071.162715989711
 20
1979.749496429288
 30
0.0
 11
28076.60687851991
 21
1955.7494964292871
 31
0.0
1001
AUTOCAD_POSTSCRIPT_FIGURE
1002
{
1000
PSFILL
1000
Grayscale
1000
Grayscale
1070
   100
1002
}
  0
LINE
  5
3B11
  8
YODOROGO
 10
28091.162715989711
 20
1979.749496429288
 30
0.0
 11
28071.162715989711
 21
1979.749496429288
 31
0.0
1001
AUTOCAD_POSTSCRIPT_FIGURE
1002
{
1000
PSFILL
1000
Grayscale
1000
Grayscale
1070
   100
1002
}
  0
LINE
  5
3B12
  8
YODOROGO
 10
28095.806878519939
 20
1955.7494964292871
 30
0.0
 11
28091.162715989711
 21
1979.749496429288
 31
0.0
1001
AUTOCAD_POSTSCRIPT_FIGURE
1002
{
1000
PSFILL
1000
Grayscale
1000
Grayscale
1070
   100
1002
}
  0
LINE
  5
3B13
  8
YODOROGO
 10
28121.604341291921
 20
1955.7494964292871
 30
0.0
 11
28095.806878519939
 21
1955.7494964292871
 31
0.0
1001
AUTOCAD_POSTSCRIPT_FIGURE
1002
{
1000
PSFILL
1000
Grayscale
1000
Grayscale
1070
   100
1002
}
  0
LINE
  5
3B14
  8
YODOROGO
 10
28121.604341291921
 20
1979.749496429288
 30
0.0
 11
28121.604341291921
 21
1955.7494964292871
 31
0.0
1001
AUTOCAD_POSTSCRIPT_FIGURE
1002
{
1000
PSFILL
1000
Grayscale
1000
Grayscale
1070
   100
1002
}
  0
LINE
  5
3B15
  8
YODOROGO
 10
28137.604341291921
 20
1979.749496429288
 30
0.0
 11
28121.604341291921
 21
1979.749496429288
 31
0.0
1001
AUTOCAD_POSTSCRIPT_FIGURE
1002
{
1000
PSFILL
1000
Grayscale
1000
Grayscale
1070
   100
1002
}
  0
LINE
  5
3B16
  8
YODOROGO
 10
28137.604341291921
 20
1955.7494964292871
 30
0.0
 11
28137.604341291921
 21
1979.749496429288
 31
0.0
1001
AUTOCAD_POSTSCRIPT_FIGURE
1002
{
1000
PSFILL
1000
Grayscale
1000
Grayscale
1070
   100
1002
}
  0
LINE
  5
3B17
  8
YODOROGO
 10
28137.604341291921
 20
1939.749496429288
 30
0.0
 11
28137.604341291921
 21
1955.7494964292871
 31
0.0
1001
AUTOCAD_POSTSCRIPT_FIGURE
1002
{
1000
PSFILL
1000
Grayscale
1000
Grayscale
1070
   100
1002
}
  0
LINE
  5
3B18
  8
YODOROGO
 10
28098.902986873411
 20
1939.749496429288
 30
0.0
 11
28137.604341291921
 21
1939.749496429288
 31
0.0
1001
AUTOCAD_POSTSCRIPT_FIGURE
1002
{
1000
PSFILL
1000
Grayscale
1000
Grayscale
1070
   100
1002
}
  0
LINE
  5
3B19
  8
YODOROGO
 10
28137.604341291921
 20
1747.749496429286
 30
0.0
 11
28098.902986873411
 21
1939.749496429288
 31
0.0
1001
AUTOCAD_POSTSCRIPT_FIGURE
1002
{
1000
PSFILL
1000
Grayscale
1000
Grayscale
1070
   100
1002
}
  0
LINE
  5
3B1A
  8
YODOROGO
 10
28129.60434129191
 20
1747.749496429286
 30
0.0
 11
28137.604341291921
 21
1747.749496429286
 31
0.0
1001
AUTOCAD_POSTSCRIPT_FIGURE
1002
{
1000
PSFILL
1000
Grayscale
1000
Grayscale
1070
   100
1002
}
  0
LINE
  5
3B1B
  8
YODOROGO
 10
28078.06921993379
 20
1775.7407762987939
 30
0.0
 11
27977.604341291921
 21
1747.749496429286
 31
0.0
  0
LINE
  5
3B1C
  8
YODOROGO
 10
28078.06921993379
 20
1798.6689795290731
 30
0.0
 11
28078.06921993379
 21
1775.7407762987939
 31
0.0
  0
LINE
  5
3B1D
  8
YODOROGO
 10
28033.83678061287
 20
1786.816933133767
 30
0.0
 11
28078.06921993379
 21
1798.6689795290731
 31
0.0
  0
LINE
  5
3B1E
  8
YODOROGO
 10
28033.83678061287
 20
1872.5683489362989
 30
0.0
 11
28033.83678061287
 21
1786.816933133767
 31
0.0
  0
LINE
  5
3B1F
  8
YODOROGO
 10
28078.06921993379
 20
1872.5683489362989
 30
0.0
 11
28033.83678061287
 21
1872.5683489362989
 31
0.0
  0
LINE
  5
3B20
  8
YODOROGO
 10
28078.06921993379
 20
1892.568348936298
 30
0.0
 11
28078.06921993379
 21
1872.5683489362989
 31
0.0
  0
LINE
  5
3B21
  8
YODOROGO
 10
27977.604341291921
 20
1892.568348936298
 30
0.0
 11
28078.06921993379
 21
1892.568348936298
 31
0.0
  0
LINE
  5
3B22
  8
YODOROGO
 10
27977.604341291921
 20
1872.5683489362989
 30
0.0
 11
27977.604341291921
 21
1892.568348936298
 31
0.0
  0
LINE
  5
3B23
  8
YODOROGO
 10
28021.836780612852
 20
1872.5683489362989
 30
0.0
 11
27977.604341291921
 21
1872.5683489362989
 31
0.0
  0
LINE
  5
3B24
  8
YODOROGO
 10
28021.836780612852
 20
1784.673339594317
 30
0.0
 11
28021.836780612852
 21
1872.5683489362989
 31
0.0
  0
LINE
  5
3B25
  8
YODOROGO
 10
27977.604341291921
 20
1771.749496429286
 30
0.0
 11
28021.836780612852
 21
1784.673339594317
 31
0.0
  0
LINE
  5
3B26
  8
YODOROGO
 10
27977.604341291921
 20
1747.749496429286
 30
0.0
 11
27977.604341291921
 21
1771.749496429286
 31
0.0
  0
LINE
  5
3B27
  8
YODOROGO
 10
28001.604341291921
 20
1707.749496429288
 30
0.0
 11
28001.604341291921
 21
1683.7494964292871
 31
0.0
  0
LINE
  5
3B28
  8
YODOROGO
 10
28017.604341291921
 20
1707.749496429288
 30
0.0
 11
28001.604341291921
 21
1707.749496429288
 31
0.0
  0
LINE
  5
3B29
  8
YODOROGO
 10
28017.604341291921
 20
1683.7494964292871
 30
0.0
 11
28017.604341291921
 21
1707.749496429288
 31
0.0
  0
LINE
  5
3B2A
  8
YODOROGO
 10
28040.913204016892
 20
1683.7494964292871
 30
0.0
 11
28017.604341291921
 21
1683.7494964292871
 31
0.0
  0
LINE
  5
3B2B
  8
YODOROGO
 10
28001.604341291921
 20
1683.7494964292871
 30
0.0
 11
27977.604341291921
 21
1683.7494964292871
 31
0.0
  0
LINE
  5
3B2C
  8
YODOROGO
 10
28082.135520230921
 20
1707.749496429288
 30
0.0
 11
28098.135520230931
 21
1707.749496429288
 31
0.0
1001
AUTOCAD_POSTSCRIPT_FIGURE
1002
{
1000
PSFILL
1000
Grayscale
1000
Grayscale
1070
   100
1002
}
  0
LINE
  5
3B2D
  8
YODOROGO
 10
28401.60434129191
 20
1824.877625640306
 30
0.0
 11
28401.60434129191
 21
1752.877625640306
 31
0.0
1001
AUTOCAD_POSTSCRIPT_FIGURE
1002
{
1000
PSFILL
1000
Grayscale
1000
Grayscale
1070
   100
1002
}
  0
LINE
  5
3B2E
  8
YODOROGO
 10
28401.60434129191
 20
1916.8776256403071
 30
0.0
 11
28401.60434129191
 21
1984.877625640306
 31
0.0
1001
AUTOCAD_POSTSCRIPT_FIGURE
1002
{
1000
PSFILL
1000
Grayscale
1000
Grayscale
1070
   100
1002
}
  0
LINE
  5
3B2F
  8
YODOROGO
 10
28433.60434129191
 20
1819.7494964292871
 30
0.0
 11
28433.60434129191
 21
1747.74949642929
 31
0.0
  0
LINE
  5
3B30
  8
YODOROGO
 10
28497.60434129191
 20
1707.749496429288
 30
0.0
 11
28433.60434129191
 21
1707.749496429288
 31
0.0
  0
LINE
  5
3B31
  8
YODOROGO
 10
28433.60434129191
 20
1747.74949642929
 30
0.0
 11
28585.604341291921
 21
1747.74949642929
 31
0.0
  0
LINE
  5
3B32
  8
YODOROGO
 10
28497.60434129191
 20
1867.7494964292871
 30
0.0
 11
28433.60434129191
 21
1867.7494964292871
 31
0.0
  0
LINE
  5
3B33
  8
YODOROGO
 10
28497.60434129191
 20
1923.7494964292871
 30
0.0
 11
28497.60434129191
 21
1867.7494964292871
 31
0.0
  0
LINE
  5
3B34
  8
YODOROGO
 10
28585.604341291921
 20
1987.7494964292871
 30
0.0
 11
28585.604341291921
 21
2027.749496429288
 31
0.0
  0
LINE
  5
3B35
  8
YODOROGO
 10
28433.60434129191
 20
1987.7494964292871
 30
0.0
 11
28585.604341291921
 21
1987.7494964292871
 31
0.0
  0
LINE
  5
3B36
  8
YODOROGO
 10
28433.60434129191
 20
1867.7494964292871
 30
0.0
 11
28433.60434129191
 21
1987.7494964292871
 31
0.0
  0
LINE
  5
3B37
  8
YODOROGO
 10
29001.60434129191
 20
2027.749496429288
 30
0.0
 11
29001.60434129191
 21
1619.749496429288
 31
0.0
  0
LINE
  5
3B38
  8
YODOROGO
 10
29073.604341291921
 20
1579.749496429288
 30
0.0
 11
29073.604341291921
 21
2027.749496429288
 31
0.0
  0
LINE
  5
3B39
  8
YODOROGO
 10
29261.604341291921
 20
1491.749496429286
 30
0.0
 11
29261.604341291921
 21
2007.749496429288
 31
0.0
  0
LINE
  5
3B3A
  8
YODOROGO
 10
29197.604341291921
 20
2007.749496429288
 30
0.0
 11
29197.604341291921
 21
1491.749496429286
 31
0.0
  0
LINE
  5
3B3B
  8
YODOROGO
 10
29385.604341291921
 20
2027.749496429288
 30
0.0
 11
29385.604341291921
 21
1427.749496429288
 31
0.0
  0
LINE
  5
3B3C
  8
YODOROGO
 10
29457.604341291921
 20
1427.749496429288
 30
0.0
 11
29457.604341291921
 21
2027.749496429288
 31
0.0
  0
LINE
  5
3B3D
  8
YODOROGO
 10
28657.604341291921
 20
1667.749496429288
 30
0.0
 11
28657.604341291921
 21
1747.74949642929
 31
0.0
  0
LINE
  5
3B3E
  8
YODOROGO
 10
29885.604341291921
 20
1707.749496429288
 30
0.0
 11
29885.604341291921
 21
1667.749496429288
 31
0.0
  0
LINE
  5
3B3F
  8
YODOROGO
 10
29885.604341291921
 20
1707.749496429288
 30
0.0
 11
29885.604341291921
 21
1667.749496429288
 31
0.0
  0
ARC
  5
3B40
  8
YODOROGO
 10
28906.911576186842
 20
1618.217864442272
 30
0.0
 40
94.705151178741644
 50
274.05244162907098
 51
0.9266642149310712
  0
ARC
  5
3B41
  8
YODOROGO
 10
28909.186170719819
 20
1592.61072861044
 30
0.0
 40
164.92042356085511
 50
271.5351210653775
 51
355.52727750585052
  0
LINE
  5
3B42
  8
YODOROGO
 10
28913.604341291921
 20
1523.7494964292871
 30
0.0
 11
28913.604341291921
 21
1427.749496429288
 31
0.0
  0
LINE
  5
3B43
  8
YODOROGO
 10
28793.60434129191
 20
1667.749496429288
 30
0.0
 11
28657.604341291921
 21
1667.749496429288
 31
0.0
  0
LINE
  5
3B44
  8
YODOROGO
 10
28793.60434129191
 20
1603.7494964292871
 30
0.0
 11
28793.60434129191
 21
1667.749496429288
 31
0.0
  0
LINE
  5
3B45
  8
YODOROGO
 10
28657.604341291921
 20
1603.7494964292871
 30
0.0
 11
28793.60434129191
 21
1603.7494964292871
 31
0.0
  0
LINE
  5
3B46
  8
YODOROGO
 10
28657.604341291921
 20
1523.7494964292871
 30
0.0
 11
28657.604341291921
 21
1603.7494964292871
 31
0.0
  0
LINE
  5
3B47
  8
YODOROGO
 10
28793.60434129191
 20
1523.7494964292871
 30
0.0
 11
28657.604341291921
 21
1523.7494964292871
 31
0.0
  0
LINE
  5
3B48
  8
YODOROGO
 10
28793.60434129191
 20
1427.749496429288
 30
0.0
 11
28793.60434129191
 21
1523.7494964292871
 31
0.0
  0
LINE
  5
3B49
  8
YODOROGO
 10
29197.604341291921
 20
1491.749496429286
 30
0.0
 11
29261.604341291921
 21
1491.749496429286
 31
0.0
  0
LINE
  5
3B4A
  8
YODOROGO
 10
29385.604341291921
 20
1427.749496429288
 30
0.0
 11
29457.604341291921
 21
1427.749496429288
 31
0.0
  0
LINE
  5
3B4B
  8
YODOROGO
 10
29737.604341291921
 20
1528.4414521705639
 30
0.0
 11
29737.604341291921
 21
1427.749496429288
 31
0.0
  0
LINE
  5
3B4C
  8
YODOROGO
 10
29617.604341291921
 20
1427.749496429288
 30
0.0
 11
29737.604341291921
 21
1528.4414521705639
 31
0.0
  0
LINE
  5
3B4D
  8
YODOROGO
 10
29617.604341291921
 20
1547.749496429288
 30
0.0
 11
29617.604341291921
 21
1427.749496429288
 31
0.0
  0
LINE
  5
3B4E
  8
YODOROGO
 10
29712.94462869945
 20
1627.749496429288
 30
0.0
 11
29617.604341291921
 21
1547.749496429288
 31
0.0
  0
LINE
  5
3B4F
  8
YODOROGO
 10
29617.604341291921
 20
1627.749496429288
 30
0.0
 11
29712.94462869945
 21
1627.749496429288
 31
0.0
  0
LINE
  5
3B50
  8
YODOROGO
 10
29617.604341291921
 20
1667.749496429288
 30
0.0
 11
29617.604341291921
 21
1627.749496429288
 31
0.0
  0
LINE
  5
3B51
  8
YODOROGO
 10
29885.604341291921
 20
1667.749496429288
 30
0.0
 11
29617.604341291921
 21
1667.749496429288
 31
0.0
  0
LINE
  5
3B52
  8
YODOROGO
 10
29917.604341291921
 20
1627.749496429288
 30
0.0
 11
29777.604341291921
 21
1627.749496429288
 31
0.0
  0
LINE
  5
3B53
  8
YODOROGO
 10
29777.604341291921
 20
1562.0054374176559
 30
0.0
 11
29771.409872985321
 21
1556.807661346234
 31
0.0
  0
LINE
  5
3B54
  8
YODOROGO
 10
29777.604341291921
 20
1627.749496429288
 30
0.0
 11
29777.604341291921
 21
1562.0054374176559
 31
0.0
  0
LINE
  5
3B55
  8
YODOROGO
 10
29737.604341291921
 20
1528.4414521705639
 30
0.0
 11
29737.604341291921
 21
1427.749496429288
 31
0.0
  0
LINE
  5
3B56
  8
YODOROGO
 10
29617.604341291921
 20
1427.749496429288
 30
0.0
 11
29737.604341291921
 21
1528.4414521705639
 31
0.0
  0
LINE
  5
3B57
  8
YODOROGO
 10
29617.604341291921
 20
1547.749496429288
 30
0.0
 11
29617.604341291921
 21
1427.749496429288
 31
0.0
  0
LINE
  5
3B58
  8
YODOROGO
 10
29712.94462869945
 20
1627.749496429288
 30
0.0
 11
29617.604341291921
 21
1547.749496429288
 31
0.0
  0
LINE
  5
3B59
  8
YODOROGO
 10
29617.604341291921
 20
1627.749496429288
 30
0.0
 11
29712.94462869945
 21
1627.749496429288
 31
0.0
  0
LINE
  5
3B5A
  8
YODOROGO
 10
29617.604341291921
 20
1667.749496429288
 30
0.0
 11
29617.604341291921
 21
1627.749496429288
 31
0.0
  0
LINE
  5
3B5B
  8
YODOROGO
 10
29885.604341291921
 20
1667.749496429288
 30
0.0
 11
29617.604341291921
 21
1667.749496429288
 31
0.0
  0
LINE
  5
3B5C
  8
YODOROGO
 10
28793.60434129191
 20
1747.74949642929
 30
0.0
 11
28793.60434129191
 21
1819.7494964292871
 31
0.0
  0
LINE
  5
3B5D
  8
YODOROGO
 10
28657.604341291921
 20
1747.74949642929
 30
0.0
 11
28793.60434129191
 21
1747.74949642929
 31
0.0
  0
LINE
  5
3B5E
  8
YODOROGO
 10
28729.604341291921
 20
1867.7494964292871
 30
0.0
 11
28729.604341291921
 21
1923.7494964292871
 31
0.0
  0
LINE
  5
3B5F
  8
YODOROGO
 10
28793.60434129191
 20
1867.7494964292871
 30
0.0
 11
28729.604341291921
 21
1867.7494964292871
 31
0.0
  0
LINE
  5
3B60
  8
YODOROGO
 10
28793.60434129191
 20
1947.749496429288
 30
0.0
 11
28793.60434129191
 21
1867.7494964292871
 31
0.0
  0
ARC
  5
3B61
  8
YODOROGO
 10
28753.60434129191
 20
1947.749496429288
 30
0.0
 40
40.0
 50
0.0
 51
90.0
  0
LINE
  5
3B62
  8
YODOROGO
 10
28657.604341291921
 20
1987.7494964292871
 30
0.0
 11
28753.60434129191
 21
1987.7494964292871
 31
0.0
  0
LINE
  5
3B63
  8
YODOROGO
 10
28657.604341291921
 20
2027.749496429288
 30
0.0
 11
28657.604341291921
 21
1987.7494964292871
 31
0.0
  0
LINE
  5
3B64
  8
YODOROGO
 10
29073.604341291921
 20
2027.749496429288
 30
0.0
 11
29001.60434129191
 21
2027.749496429288
 31
0.0
  0
LINE
  5
3B65
  8
YODOROGO
 10
29261.604341291921
 20
2007.749496429288
 30
0.0
 11
29197.604341291921
 21
2007.749496429288
 31
0.0
  0
LINE
  5
3B66
  8
YODOROGO
 10
29457.604341291921
 20
2027.749496429288
 30
0.0
 11
29385.604341291921
 21
2027.749496429288
 31
0.0
  0
LINE
  5
3B67
  8
YODOROGO
 10
29673.604341291921
 20
1707.749496429288
 30
0.0
 11
29673.604341291921
 21
1771.7494964292871
 31
0.0
1001
AUTOCAD_POSTSCRIPT_FIGURE
1002
{
1000
PSFILL
1000
Grayscale
1000
Grayscale
1070
    25
1002
}
  0
LINE
  5
3B68
  8
YODOROGO
 10
29617.604341291921
 20
1707.749496429288
 30
0.0
 11
29673.604341291921
 21
1707.749496429288
 31
0.0
1001
AUTOCAD_POSTSCRIPT_FIGURE
1002
{
1000
PSFILL
1000
Grayscale
1000
Grayscale
1070
    25
1002
}
  0
LINE
  5
3B69
  8
YODOROGO
 10
29617.604341291921
 20
1819.7494964292871
 30
0.0
 11
29617.604341291921
 21
1707.749496429288
 31
0.0
1001
AUTOCAD_POSTSCRIPT_FIGURE
1002
{
1000
PSFILL
1000
Grayscale
1000
Grayscale
1070
    25
1002
}
  0
LINE
  5
3B6A
  8
YODOROGO
 10
29765.604341291921
 20
1819.7494964292871
 30
0.0
 11
29617.604341291921
 21
1819.7494964292871
 31
0.0
1001
AUTOCAD_POSTSCRIPT_FIGURE
1002
{
1000
PSFILL
1000
Grayscale
1000
Grayscale
1070
    25
1002
}
  0
LINE
  5
3B6B
  8
YODOROGO
 10
29765.604341291921
 20
1859.749496429288
 30
0.0
 11
29765.604341291921
 21
1819.7494964292871
 31
0.0
1001
AUTOCAD_POSTSCRIPT_FIGURE
1002
{
1000
PSFILL
1000
Grayscale
1000
Grayscale
1070
    25
1002
}
  0
LINE
  5
3B6C
  8
YODOROGO
 10
29617.604341291921
 20
1859.749496429288
 30
0.0
 11
29765.604341291921
 21
1859.749496429288
 31
0.0
1001
AUTOCAD_POSTSCRIPT_FIGURE
1002
{
1000
PSFILL
1000
Grayscale
1000
Grayscale
1070
    25
1002
}
  0
LINE
  5
3B6D
  8
YODOROGO
 10
29617.604341291921
 20
1907.7494964292871
 30
0.0
 11
29617.604341291921
 21
1859.749496429288
 31
0.0
1001
AUTOCAD_POSTSCRIPT_FIGURE
1002
{
1000
PSFILL
1000
Grayscale
1000
Grayscale
1070
    25
1002
}
  0
LINE
  5
3B6E
  8
YODOROGO
 10
29765.604341291921
 20
1907.7494964292871
 30
0.0
 11
29617.604341291921
 21
1907.7494964292871
 31
0.0
1001
AUTOCAD_POSTSCRIPT_FIGURE
1002
{
1000
PSFILL
1000
Grayscale
1000
Grayscale
1070
    25
1002
}
  0
LINE
  5
3B6F
  8
YODOROGO
 10
29765.604341291921
 20
1947.749496429288
 30
0.0
 11
29765.604341291921
 21
1907.7494964292871
 31
0.0
1001
AUTOCAD_POSTSCRIPT_FIGURE
1002
{
1000
PSFILL
1000
Grayscale
1000
Grayscale
1070
    25
1002
}
  0
LINE
  5
3B70
  8
YODOROGO
 10
29617.604341291921
 20
1947.749496429288
 30
0.0
 11
29765.604341291921
 21
1947.749496429288
 31
0.0
1001
AUTOCAD_POSTSCRIPT_FIGURE
1002
{
1000
PSFILL
1000
Grayscale
1000
Grayscale
1070
    25
1002
}
  0
LINE
  5
3B71
  8
YODOROGO
 10
29617.604341291921
 20
2027.749496429288
 30
0.0
 11
29617.604341291921
 21
1947.749496429288
 31
0.0
1001
AUTOCAD_POSTSCRIPT_FIGURE
1002
{
1000
PSFILL
1000
Grayscale
1000
Grayscale
1070
    25
1002
}
  0
LINE
  5
3B72
  8
YODOROGO
 10
29665.604341291921
 20
2027.749496429288
 30
0.0
 11
29617.604341291921
 21
2027.749496429288
 31
0.0
1001
AUTOCAD_POSTSCRIPT_FIGURE
1002
{
1000
PSFILL
1000
Grayscale
1000
Grayscale
1070
    25
1002
}
  0
LINE
  5
3B73
  8
YODOROGO
 10
29665.604341291921
 20
1995.7494964292871
 30
0.0
 11
29665.604341291921
 21
2027.749496429288
 31
0.0
1001
AUTOCAD_POSTSCRIPT_FIGURE
1002
{
1000
PSFILL
1000
Grayscale
1000
Grayscale
1070
    25
1002
}
  0
LINE
  5
3B74
  8
YODOROGO
 10
29765.604341291921
 20
1995.7494964292871
 30
0.0
 11
29665.604341291921
 21
1995.7494964292871
 31
0.0
1001
AUTOCAD_POSTSCRIPT_FIGURE
1002
{
1000
PSFILL
1000
Grayscale
1000
Grayscale
1070
    25
1002
}
  0
LINE
  5
3B75
  8
YODOROGO
 10
29765.604341291921
 20
2027.749496429288
 30
0.0
 11
29765.604341291921
 21
1995.7494964292871
 31
0.0
1001
AUTOCAD_POSTSCRIPT_FIGURE
1002
{
1000
PSFILL
1000
Grayscale
1000
Grayscale
1070
    25
1002
}
  0
LINE
  5
3B76
  8
YODOROGO
 10
29829.604341291921
 20
2027.749496429288
 30
0.0
 11
29765.604341291921
 21
2027.749496429288
 31
0.0
1001
AUTOCAD_POSTSCRIPT_FIGURE
1002
{
1000
PSFILL
1000
Grayscale
1000
Grayscale
1070
    25
1002
}
  0
LINE
  5
3B77
  8
YODOROGO
 10
29829.604341291921
 20
1995.7494964292871
 30
0.0
 11
29829.604341291921
 21
2027.749496429288
 31
0.0
1001
AUTOCAD_POSTSCRIPT_FIGURE
1002
{
1000
PSFILL
1000
Grayscale
1000
Grayscale
1070
    25
1002
}
  0
LINE
  5
3B78
  8
YODOROGO
 10
29829.604341291921
 20
1907.7494964292871
 30
0.0
 11
29829.604341291921
 21
1947.749496429288
 31
0.0
1001
AUTOCAD_POSTSCRIPT_FIGURE
1002
{
1000
PSFILL
1000
Grayscale
1000
Grayscale
1070
    25
1002
}
  0
LINE
  5
3B79
  8
YODOROGO
 10
29829.604341291921
 20
1819.7494964292871
 30
0.0
 11
29829.604341291921
 21
1859.749496429288
 31
0.0
1001
AUTOCAD_POSTSCRIPT_FIGURE
1002
{
1000
PSFILL
1000
Grayscale
1000
Grayscale
1070
    25
1002
}
  0
LINE
  5
3B7A
  8
YODOROGO
 10
29921.60434129191
 20
1771.7494964292871
 30
0.0
 11
29921.60434129191
 21
1707.749496429288
 31
0.0
1001
AUTOCAD_POSTSCRIPT_FIGURE
1002
{
1000
PSFILL
1000
Grayscale
1000
Grayscale
1070
    25
1002
}
  0
LINE
  5
3B7B
  8
YODOROGO
 10
29829.604341291921
 20
1771.7494964292871
 30
0.0
 11
29921.60434129191
 21
1771.7494964292871
 31
0.0
1001
AUTOCAD_POSTSCRIPT_FIGURE
1002
{
1000
PSFILL
1000
Grayscale
1000
Grayscale
1070
    25
1002
}
  0
LINE
  5
3B7C
  8
YODOROGO
 10
29829.604341291921
 20
1707.749496429288
 30
0.0
 11
29829.604341291921
 21
1771.7494964292871
 31
0.0
1001
AUTOCAD_POSTSCRIPT_FIGURE
1002
{
1000
PSFILL
1000
Grayscale
1000
Grayscale
1070
    25
1002
}
  0
LINE
  5
3B7D
  8
YODOROGO
 10
29765.604341291921
 20
1707.749496429288
 30
0.0
 11
29829.604341291921
 21
1707.749496429288
 31
0.0
1001
AUTOCAD_POSTSCRIPT_FIGURE
1002
{
1000
PSFILL
1000
Grayscale
1000
Grayscale
1070
    25
1002
}
  0
LINE
  5
3B7E
  8
YODOROGO
 10
29765.604341291921
 20
1771.7494964292871
 30
0.0
 11
29765.604341291921
 21
1707.749496429288
 31
0.0
1001
AUTOCAD_POSTSCRIPT_FIGURE
1002
{
1000
PSFILL
1000
Grayscale
1000
Grayscale
1070
    25
1002
}
  0
LINE
  5
3B7F
  8
YODOROGO
 10
29673.604341291921
 20
1771.7494964292871
 30
0.0
 11
29765.604341291921
 21
1771.7494964292871
 31
0.0
1001
AUTOCAD_POSTSCRIPT_FIGURE
1002
{
1000
PSFILL
1000
Grayscale
1000
Grayscale
1070
    25
1002
}
  0
ARC
  5
3B80
  8
YODOROGO
 10
31059.517893357912
 20
1602.6807375155761
 30
0.0
 40
178.22128111072141
 50
281.02627495425338
 51
357.77113575573799
  0
LINE
  5
3B81
  8
YODOROGO
 10
31413.604341291921
 20
1907.7494964292871
 30
0.0
 11
31165.604341291921
 21
1907.7494964292871
 31
0.0
  0
LINE
  5
3B82
  8
YODOROGO
 10
31413.604341291921
 20
2027.749496429288
 30
0.0
 11
31165.604341291921
 21
2027.749496429288
 31
0.0
  0
LINE
  5
3B83
  8
YODOROGO
 10
31165.604341291921
 20
1963.749496429286
 30
0.0
 11
31413.604341291921
 21
1963.749496429286
 31
0.0
  0
LINE
  5
3B84
  8
YODOROGO
 10
30791.604341291921
 20
1563.7494964292871
 30
0.0
 11
30791.604341291921
 21
1755.7494964292871
 31
0.0
  0
LINE
  5
3B85
  8
YODOROGO
 10
30763.604341291921
 20
1691.749496429288
 30
0.0
 11
30763.604341291921
 21
1563.7494964292871
 31
0.0
  0
LINE
  5
3B86
  8
YODOROGO
 10
30723.604341291921
 20
1491.749496429288
 30
0.0
 11
30723.604341291921
 21
1691.749496429288
 31
0.0
  0
LINE
  5
3B87
  8
YODOROGO
 10
30899.604341291932
 20
1691.749496429288
 30
0.0
 11
30899.604341291932
 21
1491.749496429288
 31
0.0
  0
LINE
  5
3B88
  8
YODOROGO
 10
30859.604341291932
 20
1563.7494964292871
 30
0.0
 11
30859.604341291932
 21
1691.749496429288
 31
0.0
  0
LINE
  5
3B89
  8
YODOROGO
 10
30831.604341291921
 20
1755.7494964292871
 30
0.0
 11
30831.604341291921
 21
1563.7494964292871
 31
0.0
  0
LINE
  5
3B8A
  8
YODOROGO
 10
30973.604341291921
 20
2027.749496429288
 30
0.0
 11
30973.604341291921
 21
1467.749496429288
 31
0.0
  0
LINE
  5
3B8B
  8
YODOROGO
 10
30645.604341291921
 20
1427.749496429288
 30
0.0
 11
30645.604341291921
 21
2027.749496429288
 31
0.0
  0
LINE
  5
3B8C
  8
YODOROGO
 10
30697.604341291932
 20
1963.749496429286
 30
0.0
 11
30697.604341291932
 21
1427.749496429288
 31
0.0
  0
LINE
  5
3B8D
  8
YODOROGO
 10
30925.604341291921
 20
1547.749496429288
 30
0.0
 11
30925.604341291921
 21
1963.749496429286
 31
0.0
  0
LINE
  5
3B8E
  8
YODOROGO
 10
30381.604341291932
 20
1627.749496429288
 30
0.0
 11
30381.604341291932
 21
1679.749496429288
 31
0.0
  0
LINE
  5
3B8F
  8
YODOROGO
 10
30617.604341291921
 20
1679.749496429288
 30
0.0
 11
30617.604341291921
 21
1627.749496429288
 31
0.0
  0
LINE
  5
3B90
  8
YODOROGO
 10
31165.604341291921
 20
1907.7494964292871
 30
0.0
 11
31165.604341291921
 21
1635.7494964292871
 31
0.0
  0
LINE
  5
3B91
  8
YODOROGO
 10
29949.60434129191
 20
1667.749496429288
 30
0.0
 11
29949.60434129191
 21
1707.749496429288
 31
0.0
  0
LINE
  5
3B92
  8
YODOROGO
 10
29949.60434129191
 20
1667.749496429288
 30
0.0
 11
29949.60434129191
 21
1707.749496429288
 31
0.0
  0
ARC
  5
3B93
  8
YODOROGO
 10
30537.604341291921
 20
1507.749496429288
 30
0.0
 40
80.0
 50
270.0
 51
0.0
  0
LINE
  5
3B94
  8
YODOROGO
 10
30569.604341291921
 20
1599.7494964292871
 30
0.0
 11
30617.604341291921
 21
1599.7494964292871
 31
0.0
  0
LINE
  5
3B95
  8
YODOROGO
 10
30617.604341291921
 20
1627.749496429288
 30
0.0
 11
30529.604341291939
 21
1627.749496429288
 31
0.0
  0
LINE
  5
3B96
  8
YODOROGO
 10
30217.604341291921
 20
1667.749496429288
 30
0.0
 11
29949.60434129191
 21
1667.749496429288
 31
0.0
  0
LINE
  5
3B97
  8
YODOROGO
 10
30217.604341291921
 20
1627.749496429288
 30
0.0
 11
30217.604341291921
 21
1667.749496429288
 31
0.0
  0
LINE
  5
3B98
  8
YODOROGO
 10
30017.604341291921
 20
1627.749496429288
 30
0.0
 11
30217.604341291921
 21
1627.749496429288
 31
0.0
  0
ARC
  5
3B99
  8
YODOROGO
 10
30230.05882870136
 20
1868.885714952901
 30
0.0
 40
321.37763628522822
 50
228.6181454618993
 51
245.660289248906
  0
LINE
  5
3B9A
  8
YODOROGO
 10
30105.604341291921
 20
1603.7494964292871
 30
0.0
 11
30097.60434129195
 21
1576.0728158699001
 31
0.0
  0
LINE
  5
3B9B
  8
YODOROGO
 10
30189.604341291921
 20
1603.7494964292871
 30
0.0
 11
30105.604341291921
 21
1603.7494964292871
 31
0.0
  0
LINE
  5
3B9C
  8
YODOROGO
 10
30177.604341291921
 20
1551.817722473427
 30
0.0
 11
30189.604341291921
 21
1603.7494964292871
 31
0.0
  0
ARC
  5
3B9D
  8
YODOROGO
 10
30230.05882870045
 20
1868.885714953002
 30
0.0
 40
321.37763628529081
 50
260.60629297969911
 51
267.77903556555862
  0
LINE
  5
3B9E
  8
YODOROGO
 10
30217.604341291921
 20
1427.749496429285
 30
0.0
 11
30217.604341291921
 21
1547.749496429288
 31
0.0
  0
LINE
  5
3B9F
  8
YODOROGO
 10
29937.604341291932
 20
1481.3393349155101
 30
0.0
 11
29937.604341291921
 21
1594.531090531141
 31
0.0
  0
LINE
  5
3BA0
  8
YODOROGO
 10
30217.604341291921
 20
1667.749496429288
 30
0.0
 11
29949.60434129191
 21
1667.749496429288
 31
0.0
  0
LINE
  5
3BA1
  8
YODOROGO
 10
30217.604341291921
 20
1627.749496429288
 30
0.0
 11
30217.604341291921
 21
1667.749496429288
 31
0.0
  0
LINE
  5
3BA2
  8
YODOROGO
 10
30017.604341291921
 20
1627.749496429288
 30
0.0
 11
30217.604341291921
 21
1627.749496429288
 31
0.0
  0
ARC
  5
3BA3
  8
YODOROGO
 10
30230.05882870136
 20
1868.885714952901
 30
0.0
 40
321.37763628522822
 50
228.6181454618993
 51
245.660289248906
  0
LINE
  5
3BA4
  8
YODOROGO
 10
30105.604341291921
 20
1603.7494964292871
 30
0.0
 11
30097.60434129195
 21
1576.0728158699001
 31
0.0
  0
LINE
  5
3BA5
  8
YODOROGO
 10
30189.604341291921
 20
1603.7494964292871
 30
0.0
 11
30105.604341291921
 21
1603.7494964292871
 31
0.0
  0
LINE
  5
3BA6
  8
YODOROGO
 10
30177.604341291921
 20
1551.817722473427
 30
0.0
 11
30189.604341291921
 21
1603.7494964292871
 31
0.0
  0
ARC
  5
3BA7
  8
YODOROGO
 10
30230.05882870045
 20
1868.885714953002
 30
0.0
 40
321.37763628529081
 50
260.60629297969911
 51
267.77903556555862
  0
LINE
  5
3BA8
  8
YODOROGO
 10
30217.604341291921
 20
1427.749496429285
 30
0.0
 11
30217.604341291921
 21
1547.749496429288
 31
0.0
  0
LINE
  5
3BA9
  8
YODOROGO
 10
29937.604341291932
 20
1481.3393349155101
 30
0.0
 11
29937.604341291921
 21
1594.531090531141
 31
0.0
  0
LINE
  5
3BAA
  8
YODOROGO
 10
30433.604341291921
 20
1573.749496429288
 30
0.0
 11
30381.604341291932
 21
1573.749496429288
 31
0.0
  0
LINE
  5
3BAB
  8
YODOROGO
 10
30433.604341291921
 20
1601.749496429285
 30
0.0
 11
30433.604341291921
 21
1573.749496429288
 31
0.0
  0
LINE
  5
3BAC
  8
YODOROGO
 10
30381.604341291932
 20
1601.749496429285
 30
0.0
 11
30433.604341291921
 21
1601.749496429285
 31
0.0
  0
LINE
  5
3BAD
  8
YODOROGO
 10
30381.604341291932
 20
1573.749496429288
 30
0.0
 11
30381.604341291932
 21
1601.749496429285
 31
0.0
  0
LINE
  5
3BAE
  8
YODOROGO
 10
30429.604341291921
 20
1577.7494964292871
 30
0.0
 11
30385.604341291921
 21
1577.7494964292871
 31
0.0
  0
LINE
  5
3BAF
  8
YODOROGO
 10
30429.604341291921
 20
1597.749496429288
 30
0.0
 11
30429.604341291921
 21
1577.7494964292871
 31
0.0
  0
LINE
  5
3BB0
  8
YODOROGO
 10
30385.604341291921
 20
1597.749496429288
 30
0.0
 11
30429.604341291921
 21
1597.749496429288
 31
0.0
  0
LINE
  5
3BB1
  8
YODOROGO
 10
30385.604341291921
 20
1577.7494964292871
 30
0.0
 11
30385.604341291921
 21
1597.749496429288
 31
0.0
  0
LINE
  5
3BB2
  8
YODOROGO
 10
30425.604341291921
 20
1581.749496429286
 30
0.0
 11
30389.604341291921
 21
1581.749496429286
 31
0.0
  0
LINE
  5
3BB3
  8
YODOROGO
 10
30425.604341291921
 20
1593.749496429288
 30
0.0
 11
30425.604341291921
 21
1581.749496429286
 31
0.0
  0
LINE
  5
3BB4
  8
YODOROGO
 10
30389.604341291921
 20
1593.749496429288
 30
0.0
 11
30425.604341291921
 21
1593.749496429288
 31
0.0
  0
LINE
  5
3BB5
  8
YODOROGO
 10
30389.604341291921
 20
1581.749496429286
 30
0.0
 11
30389.604341291921
 21
1593.749496429288
 31
0.0
  0
LINE
  5
3BB6
  8
YODOROGO
 10
30421.604341291932
 20
1585.7494964292871
 30
0.0
 11
30393.604341291921
 21
1585.7494964292871
 31
0.0
  0
LINE
  5
3BB7
  8
YODOROGO
 10
30421.604341291932
 20
1589.749496429288
 30
0.0
 11
30421.604341291932
 21
1585.7494964292871
 31
0.0
  0
LINE
  5
3BB8
  8
YODOROGO
 10
30393.604341291921
 20
1589.749496429288
 30
0.0
 11
30421.604341291932
 21
1589.749496429288
 31
0.0
  0
LINE
  5
3BB9
  8
YODOROGO
 10
30393.604341291921
 20
1585.7494964292871
 30
0.0
 11
30393.604341291921
 21
1589.749496429288
 31
0.0
  0
LINE
  5
3BBA
  8
YODOROGO
 10
30465.604341291921
 20
1627.749496429288
 30
0.0
 11
30381.604341291932
 21
1627.749496429288
 31
0.0
  0
LINE
  5
3BBB
  8
YODOROGO
 10
30465.604341291921
 20
1547.749496429288
 30
0.0
 11
30465.604341291921
 21
1627.749496429288
 31
0.0
  0
LINE
  5
3BBC
  8
YODOROGO
 10
30381.604341291932
 20
1547.749496429288
 30
0.0
 11
30465.604341291921
 21
1547.749496429288
 31
0.0
  0
LINE
  5
3BBD
  8
YODOROGO
 10
30381.604341291932
 20
1427.749496429288
 30
0.0
 11
30381.604341291932
 21
1547.749496429288
 31
0.0
  0
LINE
  5
3BBE
  8
YODOROGO
 10
30537.604341291921
 20
1427.749496429288
 30
0.0
 11
30381.604341291932
 21
1427.749496429288
 31
0.0
  0
LINE
  5
3BBF
  8
YODOROGO
 10
30569.604341291921
 20
1571.749496429285
 30
0.0
 11
30569.604341291921
 21
1599.7494964292871
 31
0.0
  0
ARC
  5
3BC0
  8
YODOROGO
 10
30545.604341291921
 20
1571.749496429291
 30
0.0
 40
24.000000000003752
 50
270.0
 51
359.99999999998772
  0
LINE
  5
3BC1
  8
YODOROGO
 10
30529.604341291939
 20
1547.749496429288
 30
0.0
 11
30545.604341291921
 21
1547.749496429288
 31
0.0
  0
LINE
  5
3BC2
  8
YODOROGO
 10
30529.604341291939
 20
1627.749496429288
 30
0.0
 11
30529.604341291939
 21
1547.749496429288
 31
0.0
  0
LINE
  5
3BC3
  8
YODOROGO
 10
30899.604341291932
 20
1547.749496429288
 30
0.0
 11
30925.604341291921
 21
1547.749496429288
 31
0.0
  0
LINE
  5
3BC4
  8
YODOROGO
 10
30933.604341291921
 20
1427.749496429288
 30
0.0
 11
30899.604341291932
 21
1427.749496429288
 31
0.0
  0
LINE
  5
3BC5
  8
YODOROGO
 10
30763.604341291921
 20
1563.7494964292871
 30
0.0
 11
30791.604341291921
 21
1563.7494964292871
 31
0.0
  0
LINE
  5
3BC6
  8
YODOROGO
 10
30899.604341291932
 20
1491.749496429288
 30
0.0
 11
30723.604341291921
 21
1491.749496429288
 31
0.0
  0
LINE
  5
3BC7
  8
YODOROGO
 10
30831.604341291921
 20
1563.7494964292871
 30
0.0
 11
30859.604341291932
 21
1563.7494964292871
 31
0.0
  0
LINE
  5
3BC8
  8
YODOROGO
 10
30899.604341291932
 20
1427.749496429288
 30
0.0
 11
30899.604341291932
 21
1547.749496429288
 31
0.0
  0
LINE
  5
3BC9
  8
YODOROGO
 10
30697.604341291932
 20
1427.749496429288
 30
0.0
 11
30645.604341291921
 21
1427.749496429288
 31
0.0
  0
LINE
  5
3BCA
  8
YODOROGO
 10
30617.604341291921
 20
1599.7494964292871
 30
0.0
 11
30617.604341291921
 21
1507.749496429288
 31
0.0
  0
ARC
  5
3BCB
  8
YODOROGO
 10
30933.604341291921
 20
1467.749496429288
 30
0.0
 40
40.0
 50
270.0
 51
0.0
  0
LINE
  5
3BCC
  8
YODOROGO
 10
31093.604341291921
 20
1523.7494964292871
 30
0.0
 11
31093.604341291921
 21
1427.749496429288
 31
0.0
  0
ARC
  5
3BCD
  8
YODOROGO
 10
31039.721395566768
 20
1637.5313901097329
 30
0.0
 40
125.8955565916754
 50
295.34052442160112
 51
359.18902303418679
  0
LINE
  5
3BCE
  8
YODOROGO
 10
30617.604341291921
 20
1859.749496429288
 30
0.0
 11
30497.604341291921
 21
1939.749496429288
 31
0.0
  0
LINE
  5
3BCF
  8
YODOROGO
 10
30497.604341291921
 20
2027.749496429288
 30
0.0
 11
30617.604341291921
 21
1947.749496429288
 31
0.0
  0
LINE
  5
3BD0
  8
YODOROGO
 10
30529.604341291939
 20
1679.749496429288
 30
0.0
 11
30617.604341291921
 21
1679.749496429288
 31
0.0
  0
LINE
  5
3BD1
  8
YODOROGO
 10
30617.604341291921
 20
1735.7494964292871
 30
0.0
 11
30529.604341291939
 21
1735.7494964292871
 31
0.0
  0
LINE
  5
3BD2
  8
YODOROGO
 10
30381.604341291932
 20
1795.7494964292871
 30
0.0
 11
30617.604341291921
 21
1795.7494964292871
 31
0.0
  0
LINE
  5
3BD3
  8
YODOROGO
 10
30081.604341291921
 20
2027.749496429288
 30
0.0
 11
30021.604341291921
 21
2027.749496429288
 31
0.0
  0
LINE
  5
3BD4
  8
YODOROGO
 10
30081.604341291921
 20
1827.7494964292871
 30
0.0
 11
30081.604341291921
 21
2027.749496429288
 31
0.0
  0
LINE
  5
3BD5
  8
YODOROGO
 10
30021.604341291921
 20
1827.7494964292871
 30
0.0
 11
30081.604341291921
 21
1827.7494964292871
 31
0.0
  0
LINE
  5
3BD6
  8
YODOROGO
 10
30021.604341291921
 20
2027.749496429288
 30
0.0
 11
30021.604341291921
 21
1827.7494964292871
 31
0.0
  0
LINE
  5
3BD7
  8
YODOROGO
 10
30161.604341291921
 20
2027.749496429288
 30
0.0
 11
30217.604341291921
 21
2027.749496429288
 31
0.0
  0
LINE
  5
3BD8
  8
YODOROGO
 10
30161.604341291921
 20
1811.749496429288
 30
0.0
 11
30161.604341291921
 21
2027.749496429288
 31
0.0
  0
ARC
  5
3BD9
  8
YODOROGO
 10
30121.604341291921
 20
1811.749496429288
 30
0.0
 40
40.0
 50
270.0
 51
0.0
  0
LINE
  5
3BDA
  8
YODOROGO
 10
30021.604341291921
 20
1771.7494964292871
 30
0.0
 11
30121.604341291921
 21
1771.7494964292871
 31
0.0
  0
LINE
  5
3BDB
  8
YODOROGO
 10
30021.604341291921
 20
1707.749496429288
 30
0.0
 11
30021.604341291921
 21
1771.7494964292871
 31
0.0
  0
LINE
  5
3BDC
  8
YODOROGO
 10
30137.604341291921
 20
1707.749496429288
 30
0.0
 11
30021.604341291921
 21
1707.749496429288
 31
0.0
  0
ARC
  5
3BDD
  8
YODOROGO
 10
30137.604341291921
 20
1787.7494964292871
 30
0.0
 40
80.0
 50
270.0
 51
0.0
  0
LINE
  5
3BDE
  8
YODOROGO
 10
30217.604341291921
 20
2027.749496429288
 30
0.0
 11
30217.604341291921
 21
1787.7494964292871
 31
0.0
  0
LINE
  5
3BDF
  8
YODOROGO
 10
29977.604341291921
 20
1947.749496429288
 30
0.0
 11
29977.604341291921
 21
1995.7494964292871
 31
0.0
1001
AUTOCAD_POSTSCRIPT_FIGURE
1002
{
1000
PSFILL
1000
Grayscale
1000
Grayscale
1070
    25
1002
}
  0
LINE
  5
3BE0
  8
YODOROGO
 10
29977.604341291921
 20
1859.749496429288
 30
0.0
 11
29977.604341291921
 21
1907.7494964292871
 31
0.0
1001
AUTOCAD_POSTSCRIPT_FIGURE
1002
{
1000
PSFILL
1000
Grayscale
1000
Grayscale
1070
    25
1002
}
  0
LINE
  5
3BE1
  8
YODOROGO
 10
29977.604341291921
 20
1707.749496429288
 30
0.0
 11
29977.604341291921
 21
1819.7494964292871
 31
0.0
1001
AUTOCAD_POSTSCRIPT_FIGURE
1002
{
1000
PSFILL
1000
Grayscale
1000
Grayscale
1070
    25
1002
}
  0
LINE
  5
3BE2
  8
YODOROGO
 10
30381.604341291932
 20
1907.7494964292871
 30
0.0
 11
30497.604341291921
 21
2027.749496429288
 31
0.0
  0
LINE
  5
3BE3
  8
YODOROGO
 10
30381.604341291932
 20
1819.7494964292871
 30
0.0
 11
30381.604341291932
 21
1907.7494964292871
 31
0.0
  0
LINE
  5
3BE4
  8
YODOROGO
 10
30497.604341291921
 20
1939.749496429288
 30
0.0
 11
30381.604341291932
 21
1819.7494964292871
 31
0.0
  0
LINE
  5
3BE5
  8
YODOROGO
 10
30465.604341291921
 20
1679.749496429288
 30
0.0
 11
30465.604341291921
 21
1735.7494964292871
 31
0.0
  0
LINE
  5
3BE6
  8
YODOROGO
 10
30381.604341291932
 20
1679.749496429288
 30
0.0
 11
30465.604341291921
 21
1679.749496429288
 31
0.0
  0
LINE
  5
3BE7
  8
YODOROGO
 10
30529.604341291939
 20
1735.7494964292871
 30
0.0
 11
30529.604341291939
 21
1679.749496429288
 31
0.0
  0
LINE
  5
3BE8
  8
YODOROGO
 10
30381.604341291932
 20
1735.7494964292871
 30
0.0
 11
30381.604341291932
 21
1795.7494964292871
 31
0.0
  0
LINE
  5
3BE9
  8
YODOROGO
 10
30465.604341291921
 20
1735.7494964292871
 30
0.0
 11
30381.604341291932
 21
1735.7494964292871
 31
0.0
  0
LINE
  5
3BEA
  8
YODOROGO
 10
30645.604341291921
 20
2027.749496429288
 30
0.0
 11
30973.604341291921
 21
2027.749496429288
 31
0.0
  0
LINE
  5
3BEB
  8
YODOROGO
 10
30925.604341291921
 20
1963.749496429286
 30
0.0
 11
30697.604341291932
 21
1963.749496429286
 31
0.0
  0
LINE
  5
3BEC
  8
YODOROGO
 10
30873.604341291921
 20
1819.7494964292871
 30
0.0
 11
30899.604341291932
 21
1819.7494964292871
 31
0.0
  0
LINE
  5
3BED
  8
YODOROGO
 10
30899.604341291932
 20
1939.749496429288
 30
0.0
 11
30873.604341291921
 21
1819.7494964292871
 31
0.0
  0
LINE
  5
3BEE
  8
YODOROGO
 10
30851.604341291939
 20
1939.749496429288
 30
0.0
 11
30899.604341291932
 21
1939.749496429288
 31
0.0
  0
LINE
  5
3BEF
  8
YODOROGO
 10
30825.604341291921
 20
1819.7494964292871
 30
0.0
 11
30851.604341291939
 21
1939.749496429288
 31
0.0
  0
LINE
  5
3BF0
  8
YODOROGO
 10
30797.604341291921
 20
1819.7494964292871
 30
0.0
 11
30825.604341291921
 21
1819.7494964292871
 31
0.0
  0
LINE
  5
3BF1
  8
YODOROGO
 10
30771.604341291939
 20
1939.749496429288
 30
0.0
 11
30797.604341291921
 21
1819.7494964292871
 31
0.0
  0
LINE
  5
3BF2
  8
YODOROGO
 10
30723.604341291921
 20
1939.749496429288
 30
0.0
 11
30771.604341291939
 21
1939.749496429288
 31
0.0
  0
LINE
  5
3BF3
  8
YODOROGO
 10
30749.604341291921
 20
1819.7494964292871
 30
0.0
 11
30723.604341291921
 21
1939.749496429288
 31
0.0
  0
LINE
  5
3BF4
  8
YODOROGO
 10
30723.604341291921
 20
1819.7494964292871
 30
0.0
 11
30749.604341291921
 21
1819.7494964292871
 31
0.0
  0
LINE
  5
3BF5
  8
YODOROGO
 10
30723.604341291921
 20
1755.7494964292871
 30
0.0
 11
30723.604341291921
 21
1819.7494964292871
 31
0.0
  0
LINE
  5
3BF6
  8
YODOROGO
 10
30899.604341291932
 20
1755.7494964292871
 30
0.0
 11
30723.604341291921
 21
1755.7494964292871
 31
0.0
  0
LINE
  5
3BF7
  8
YODOROGO
 10
30899.604341291932
 20
1819.7494964292871
 30
0.0
 11
30899.604341291932
 21
1755.7494964292871
 31
0.0
  0
LINE
  5
3BF8
  8
YODOROGO
 10
30617.604341291921
 20
1947.749496429288
 30
0.0
 11
30617.604341291921
 21
1859.749496429288
 31
0.0
  0
LINE
  5
3BF9
  8
YODOROGO
 10
30791.604341291921
 20
1755.7494964292871
 30
0.0
 11
30831.604341291921
 21
1755.7494964292871
 31
0.0
  0
LINE
  5
3BFA
  8
YODOROGO
 10
30723.604341291921
 20
1691.749496429288
 30
0.0
 11
30763.604341291921
 21
1691.749496429288
 31
0.0
  0
LINE
  5
3BFB
  8
YODOROGO
 10
30859.604341291932
 20
1691.749496429288
 30
0.0
 11
30899.604341291932
 21
1691.749496429288
 31
0.0
  0
LINE
  5
3BFC
  8
YODOROGO
 10
30617.604341291921
 20
1795.7494964292871
 30
0.0
 11
30617.604341291921
 21
1735.7494964292871
 31
0.0
  0
LINE
  5
3BFD
  8
YODOROGO
 10
31165.604341291921
 20
2027.749496429288
 30
0.0
 11
31165.604341291921
 21
1963.749496429286
 31
0.0
  0
LINE
  5
3BFE
  8
YODOROGO
 10
31533.604341291921
 20
1595.7494964292871
 30
0.0
 11
31533.60434129191
 21
1811.749496429288
 31
0.0
  0
LINE
  5
3BFF
  8
YODOROGO
 10
31461.60434129191
 20
1987.7494964292871
 30
0.0
 11
31461.60434129191
 21
1635.7494964292871
 31
0.0
  0
LINE
  5
3C00
  8
YODOROGO
 10
31653.604341291921
 20
1427.749496429288
 30
0.0
 11
31653.60434129191
 21
1811.749496429288
 31
0.0
  0
LINE
  5
3C01
  8
YODOROGO
 10
31589.604341291921
 20
1811.749496429288
 30
0.0
 11
31589.604341291921
 21
1427.749496429288
 31
0.0
  0
LINE
  5
3C02
  8
YODOROGO
 10
31237.604341291921
 20
1595.7494964292871
 30
0.0
 11
31237.604341291921
 21
1707.749496429288
 31
0.0
  0
ARC
  5
3C03
  8
YODOROGO
 10
31353.914865116069
 20
1607.790351288558
 30
0.0
 40
180.0924485759885
 50
268.62849102169793
 51
356.16638457330322
  0
LINE
  5
3C04
  8
YODOROGO
 10
31349.604341291939
 20
1527.749496429288
 30
0.0
 11
31349.604341291939
 21
1427.749496429288
 31
0.0
  0
ARC
  5
3C05
  8
YODOROGO
 10
31351.518075724562
 20
1637.838957017655
 30
0.0
 40
110.1060929836122
 50
269.00410209305932
 51
358.91264455492478
  0
LINE
  5
3C06
  8
YODOROGO
 10
31589.604341291921
 20
1427.749496429288
 30
0.0
 11
31653.604341291921
 21
1427.749496429288
 31
0.0
  0
LINE
  5
3C07
  8
YODOROGO
 10
31533.60434129191
 20
1811.749496429288
 30
0.0
 11
31589.604341291921
 21
1811.749496429288
 31
0.0
  0
LINE
  5
3C08
  8
YODOROGO
 10
31621.604341291939
 20
1987.7494964292871
 30
0.0
 11
31461.60434129191
 21
1987.7494964292871
 31
0.0
  0
LINE
  5
3C09
  8
YODOROGO
 10
31533.60434129191
 20
1915.7494964292871
 30
0.0
 11
31661.604341291939
 21
1915.7494964292871
 31
0.0
  0
LINE
  5
3C0A
  8
YODOROGO
 10
31701.604341291939
 20
1875.7494964292871
 30
0.0
 11
31533.60434129191
 21
1875.7494964292871
 31
0.0
  0
LINE
  5
3C0B
  8
YODOROGO
 10
31237.604341291921
 20
1779.749496429288
 30
0.0
 11
31349.604341291939
 21
1779.749496429288
 31
0.0
  0
LINE
  5
3C0C
  8
YODOROGO
 10
31237.604341291921
 20
1835.7494964292871
 30
0.0
 11
31237.604341291921
 21
1779.749496429288
 31
0.0
  0
LINE
  5
3C0D
  8
YODOROGO
 10
31349.604341291939
 20
1835.7494964292871
 30
0.0
 11
31237.604341291921
 21
1835.7494964292871
 31
0.0
  0
LINE
  5
3C0E
  8
YODOROGO
 10
31349.604341291939
 20
1779.749496429288
 30
0.0
 11
31349.604341291939
 21
1835.7494964292871
 31
0.0
  0
LINE
  5
3C0F
  8
YODOROGO
 10
31533.60434129191
 20
1875.7494964292871
 30
0.0
 11
31533.60434129191
 21
1915.7494964292871
 31
0.0
  0
LINE
  5
3C10
  8
YODOROGO
 10
31413.604341291921
 20
1707.749496429288
 30
0.0
 11
31413.604341291921
 21
1907.7494964292871
 31
0.0
  0
LINE
  5
3C11
  8
YODOROGO
 10
31237.604341291921
 20
1707.749496429288
 30
0.0
 11
31413.604341291921
 21
1707.749496429288
 31
0.0
  0
LINE
  5
3C12
  8
YODOROGO
 10
31413.604341291921
 20
1963.749496429286
 30
0.0
 11
31413.604341291921
 21
2027.749496429288
 31
0.0
  0
ARC
  5
3C13
  8
YODOROGO
 10
31621.604341291939
 20
2003.749496429285
 30
0.0
 40
15.999999999994539
 50
270.0
 51
0.0000000000081422
  0
LINE
  5
3C14
  8
YODOROGO
 10
31637.604341291921
 20
2027.749496429288
 30
0.0
 11
31637.604341291921
 21
2003.7494964292871
 31
0.0
  0
LINE
  5
3C15
  8
YODOROGO
 10
31701.604341291939
 20
2027.749496429288
 30
0.0
 11
31637.604341291921
 21
2027.749496429288
 31
0.0
  0
LINE
  5
3C16
  8
YODOROGO
 10
31701.604341291939
 20
1955.7494964292871
 30
0.0
 11
31701.604341291939
 21
2027.749496429288
 31
0.0
  0
ARC
  5
3C17
  8
YODOROGO
 10
31661.604341291939
 20
1955.7494964292871
 30
0.0
 40
40.0
 50
270.0
 51
0.0
  0
LINE
  5
3C18
  8
YODOROGO
 10
31701.604341291939
 20
1811.749496429288
 30
0.0
 11
31701.604341291939
 21
1875.7494964292871
 31
0.0
  0
LINE
  5
3C19
  8
YODOROGO
 10
31653.60434129191
 20
1811.749496429288
 30
0.0
 11
31701.604341291939
 21
1811.749496429288
 31
0.0
  0
LINE
  5
3C1A
  8
SUNPOU
  6
CONTINUOUS
 62
     4
 10
10796.34505
 20
19870.982161000022
 30
0.0
 11
10349.349628999989
 21
19870.982161000022
 31
0.0
  0
LINE
  5
3C1B
  8
SUNPOU
  6
CONTINUOUS
 62
     4
 10
10796.349405000001
 20
19890.982161000022
 30
0.0
 11
10349.349628999989
 21
19890.982161000022
 31
0.0
  0
LINE
  5
3C1D
  8
SUNPOU
  6
CONTINUOUS
 62
     4
 10
10429.349628999989
 20
19890.982161000022
 30
0.0
 11
10429.349628999989
 21
20130.982161000022
 31
0.0
  0
LINE
  5
3C1E
  8
SUNPOU
  6
CONTINUOUS
 62
     4
 10
10429.349628999989
 20
19850.982161000022
 30
0.0
 11
10429.349628999989
 21
19890.982161000022
 31
0.0
  0
LINE
  5
3C1F
  8
SUNPOU
  6
CONTINUOUS
 62
     4
 10
10796.349405000001
 20
19890.982161000022
 30
0.0
 11
9949.3496290000021
 21
19890.982161000022
 31
0.0
  0
LINE
  5
3C20
  8
SUNPOU
  6
CONTINUOUS
 62
     4
 10
10029.349629
 20
19668.486251999992
 30
0.0
 11
10029.349629
 21
19428.486251999992
 31
0.0
  0
LINE
  5
3C21
  8
SUNPOU
  6
CONTINUOUS
 62
     4
 10
10029.349629
 20
19890.982161000022
 30
0.0
 11
10029.349629
 21
20130.982161000022
 31
0.0
  0
LINE
  5
3C22
  8
SUNPOU
  6
CONTINUOUS
 62
     4
 10
10029.349629
 20
19668.486251999992
 30
0.0
 11
10029.349629
 21
19890.982161000022
 31
0.0
  0
LINE
  5
3C23
  8
SUNPOU
  6
CONTINUOUS
 62
     4
 10
10660.048762
 20
18209.486251999992
 30
0.0
 11
9949.3496290000021
 21
18209.486251999992
 31
0.0
  0
LINE
  5
3C24
  8
SUNPOU
  6
CONTINUOUS
 62
     4
 10
10029.349629
 20
18209.486251999992
 30
0.0
 11
10029.349629
 21
19668.486251999992
 31
0.0
  0
LINE
  5
3C25
  8
SUNPOU
  6
CONTINUOUS
 62
     4
 10
10660.048762
 20
18209.486251999992
 30
0.0
 11
9949.3496290000021
 21
18209.486251999992
 31
0.0
  0
LINE
  5
3C26
  8
SUNPOU
  6
CONTINUOUS
 62
     4
 10
10029.349629
 20
16750.486251999992
 30
0.0
 11
10029.349629
 21
18209.486251999992
 31
0.0
  0
LINE
  5
3C27
  8
SUNPOU
  6
CONTINUOUS
 62
     4
 10
10660.048762
 20
15291.486252000001
 30
0.0
 11
9949.3496289999985
 21
15291.486252000001
 31
0.0
  0
LINE
  5
3C28
  8
SUNPOU
  6
CONTINUOUS
 62
     4
 10
10029.349629
 20
15291.486252000001
 30
0.0
 11
10029.349629
 21
16750.486251999992
 31
0.0
  0
LINE
  5
3C29
  8
SUNPOU
  6
CONTINUOUS
 62
     4
 10
10660.048762
 20
15291.486252000001
 30
0.0
 11
9949.3496289999985
 21
15291.486252000001
 31
0.0
  0
LINE
  5
3C2A
  8
SUNPOU
  6
CONTINUOUS
 62
     4
 10
10029.349629
 20
13832.486252000001
 30
0.0
 11
10029.349629
 21
15291.486252000001
 31
0.0
  0
LINE
  5
3C2B
  8
SUNPOU
  6
CONTINUOUS
 62
     4
 10
10796.34505
 20
13639.990937
 30
0.0
 11
9949.3496289999985
 21
13639.990937
 31
0.0
  0
LINE
  5
3C2C
  8
SUNPOU
  6
CONTINUOUS
 62
     4
 10
10029.349629
 20
13832.486252000001
 30
0.0
 11
10029.349629
 21
14072.486252000001
 31
0.0
  0
LINE
  5
3C2D
  8
SUNPOU
  6
CONTINUOUS
 62
     4
 10
10029.349629
 20
13639.990937
 30
0.0
 11
10029.349629
 21
13399.990937
 31
0.0
  0
LINE
  5
3C2E
  8
SUNPOU
  6
CONTINUOUS
 62
     4
 10
10029.349629
 20
13832.486252000001
 30
0.0
 11
10029.349629
 21
13639.990937
 31
0.0
  0
LINE
  5
3C2F
  8
SUNPOU
  6
CONTINUOUS
 62
     4
 10
14312.853858
 20
19970.982161000022
 30
0.0
 11
14312.853858
 21
20520.987440000012
 31
0.0
  0
LINE
  5
3C30
  8
SUNPOU
  6
CONTINUOUS
 62
     4
 10
14227.353858
 20
20440.987440000012
 30
0.0
 11
13987.353858
 21
20440.987440000012
 31
0.0
  0
LINE
  5
3C31
  8
SUNPOU
  6
CONTINUOUS
 62
     4
 10
14309.853858
 20
20440.987440000012
 30
0.0
 11
14549.853858
 21
20440.987440000012
 31
0.0
  0
LINE
  5
3C32
  8
SUNPOU
  6
CONTINUOUS
 62
     4
 10
14227.353858
 20
20440.987440000012
 30
0.0
 11
14309.853858
 21
20440.987440000012
 31
0.0
  0
LINE
  5
3C33
  8
SUNPOU
  6
CONTINUOUS
 62
     4
 10
10873.353858
 20
19970.982161000022
 30
0.0
 11
10873.353858
 21
20520.987440000012
 31
0.0
  0
LINE
  5
3C34
  8
SUNPOU
  6
CONTINUOUS
 62
     4
 10
10958.853858
 20
20440.987440000012
 30
0.0
 11
11198.853858
 21
20440.987440000012
 31
0.0
  0
LINE
  5
3C35
  8
SUNPOU
  6
CONTINUOUS
 62
     4
 10
10876.353858
 20
20440.987440000012
 30
0.0
 11
10636.353858
 21
20440.987440000012
 31
0.0
  0
LINE
  5
3C36
  8
SUNPOU
  6
CONTINUOUS
 62
     4
 10
10958.853858
 20
20440.987440000012
 30
0.0
 11
10876.353858
 21
20440.987440000012
 31
0.0
  0
LINE
  5
3C37
  8
SUNPOU
  6
CONTINUOUS
 62
     4
 10
14227.353858
 20
20440.987440000012
 30
0.0
 11
10958.853858
 21
20440.987440000012
 31
0.0
  0
LINE
  5
3C38
  8
SUNPOU
  6
CONTINUOUS
 62
     4
 10
20549.310863000021
 20
6567.9237529999991
 30
0.0
 11
19749.312182000001
 21
6567.9237529999991
 31
0.0
  0
LINE
  5
3C39
  8
SUNPOU
  6
CONTINUOUS
 62
     4
 10
20549.310863000021
 20
8459.4237529999973
 30
0.0
 11
19749.312182000001
 21
8459.4237530000028
 31
0.0
  0
LINE
  5
3C3A
  8
SUNPOU
  6
CONTINUOUS
 62
     4
 10
19829.312182000001
 20
6567.9237529999991
 30
0.0
 11
19829.312182000001
 21
8459.4237530000028
 31
0.0
  0
LINE
  5
3C3B
  8
SUNPOU
  6
CONTINUOUS
 62
     4
 10
20549.310863000021
 20
6567.9237529999991
 30
0.0
 11
19349.309872999991
 21
6567.9237529999991
 31
0.0
  0
LINE
  5
3C3C
  8
SUNPOU
  6
CONTINUOUS
 62
     4
 10
20516.813107000009
 20
8916.4237789999952
 30
0.0
 11
19349.309872999991
 21
8916.4237789999952
 31
0.0
  0
LINE
  5
3C3D
  8
SUNPOU
  6
CONTINUOUS
 62
     4
 10
19429.309872999998
 20
6567.9237529999991
 30
0.0
 11
19429.309872999998
 21
8916.4237789999952
 31
0.0
  0
LINE
  5
3C4E
  8
SUNPOU
  6
CONTINUOUS
 62
     4
 10
23947.813502000001
 20
6125.2714950000009
 30
0.0
 11
23947.813502000001
 21
5187.9239180000041
 31
0.0
  0
LINE
  5
3C4F
  8
SUNPOU
  6
CONTINUOUS
 62
     4
 10
23990.313502000001
 20
6387.9239180000041
 30
0.0
 11
23990.313502000001
 21
5187.9239180000041
 31
0.0
  0
LINE
  5
3C50
  8
SUNPOU
  6
CONTINUOUS
 62
     4
 10
23947.813502000001
 20
5267.9239180000041
 30
0.0
 11
23707.813502000001
 21
5267.9239180000041
 31
0.0
  0
LINE
  5
3C51
  8
SUNPOU
  6
CONTINUOUS
 62
     4
 10
23990.313502000001
 20
5267.9239180000041
 30
0.0
 11
24230.313502000001
 21
5267.9239180000041
 31
0.0
  0
LINE
  5
3C52
  8
SUNPOU
  6
CONTINUOUS
 62
     4
 10
23947.813502000001
 20
5267.9239180000041
 30
0.0
 11
23990.313502000001
 21
5267.9239180000041
 31
0.0
  0
LINE
  5
3C53
  8
SUNPOU
  6
CONTINUOUS
 62
     4
 10
20773.313502000001
 20
6387.9239180000041
 30
0.0
 11
20773.313502000001
 21
5587.9239180000041
 31
0.0
  0
LINE
  5
3C54
  8
SUNPOU
  6
CONTINUOUS
 62
     4
 10
23853.813502000001
 20
6387.9239180000041
 30
0.0
 11
23853.813502000001
 21
5587.9239180000041
 31
0.0
  0
LINE
  5
3C55
  8
SUNPOU
  6
CONTINUOUS
 62
     4
 10
20773.313502000001
 20
5667.9239180000041
 30
0.0
 11
23853.813502000001
 21
5667.9239180000041
 31
0.0
  0
LINE
  5
3C56
  8
SUNPOU
  6
CONTINUOUS
 62
     4
 10
20679.313502000001
 20
6125.2714950000009
 30
0.0
 11
20679.313502000001
 21
5187.9239180000041
 31
0.0
  0
LINE
  5
3C57
  8
SUNPOU
  6
CONTINUOUS
 62
     4
 10
23947.813502000001
 20
6125.2714950000009
 30
0.0
 11
23947.813502000001
 21
5187.9239180000041
 31
0.0
  0
LINE
  5
3C58
  8
SUNPOU
  6
CONTINUOUS
 62
     4
 10
20679.313502000001
 20
5267.9239180000041
 30
0.0
 11
23947.813502000001
 21
5267.9239180000041
 31
0.0
  0
LINE
  5
3C59
  8
SUNPOU
  6
CONTINUOUS
 62
     4
 10
20679.313502000001
 20
6125.2714950000009
 30
0.0
 11
20679.313502000001
 21
5187.9239180000041
 31
0.0
  0
LINE
  5
3C5A
  8
SUNPOU
  6
CONTINUOUS
 62
     4
 10
20636.81350199999
 20
6387.9239180000041
 30
0.0
 11
20636.81350199999
 21
5187.9239180000041
 31
0.0
  0
LINE
  5
3C5B
  8
SUNPOU
  6
CONTINUOUS
 62
     4
 10
20679.313502000001
 20
5267.9239180000041
 30
0.0
 11
20919.313502000001
 21
5267.9239180000041
 31
0.0
  0
LINE
  5
3C5C
  8
SUNPOU
  6
CONTINUOUS
 62
     4
 10
20636.81350199999
 20
5267.9239180000041
 30
0.0
 11
20396.81350199999
 21
5267.9239180000041
 31
0.0
  0
LINE
  5
3C5D
  8
SUNPOU
  6
CONTINUOUS
 62
     4
 10
20679.313502000001
 20
5267.9239180000041
 30
0.0
 11
20636.81350199999
 21
5267.9239180000041
 31
0.0
  0
LINE
  5
3C5E
  8
SUNPOU
  6
CONTINUOUS
 62
     4
 10
20636.81350199999
 20
6387.9239180000041
 30
0.0
 11
20636.81350199999
 21
4787.9240829999999
 31
0.0
  0
LINE
  5
3C5F
  8
SUNPOU
  6
CONTINUOUS
 62
     4
 10
23990.313502000001
 20
6387.9239180000041
 30
0.0
 11
23990.313502000001
 21
4787.9240829999999
 31
0.0
  0
LINE
  5
3C60
  8
SUNPOU
  6
CONTINUOUS
 62
     4
 10
20636.81350199999
 20
4867.9240830000008
 30
0.0
 11
23990.313502000001
 21
4867.9240830000008
 31
0.0
  0
LINE
  5
3C61
  8
SUNPOU
  6
CONTINUOUS
 62
     4
 10
9473.5669209999905
 20
8804.9222680000057
 30
0.0
 11
9473.5669209999905
 21
10195.922293999991
 31
0.0
  0
LINE
  5
3C62
  8
SUNPOU
  6
CONTINUOUS
 62
     4
 10
15724.566920999991
 20
8936.812091412432
 30
0.0
 11
15724.566920999991
 21
10195.922293999991
 31
0.0
  0
LINE
  5
3C63
  8
SUNPOU
  6
CONTINUOUS
 62
     4
 10
9473.5669209999905
 20
10115.922293999991
 30
0.0
 11
15724.566920999991
 21
10115.922293999991
 31
0.0
  0
LINE
  5
3C64
  8
SUNPOU
  6
CONTINUOUS
 62
     4
 10
15574.568173999991
 20
8863.1530139999977
 30
0.0
 11
15574.568173999991
 21
9795.9239440000001
 31
0.0
  0
LINE
  5
3C65
  8
SUNPOU
  6
CONTINUOUS
 62
     4
 10
15724.566920999991
 20
8936.812091412432
 30
0.0
 11
15724.566920999991
 21
9795.9239440000001
 31
0.0
  0
LINE
  5
3C66
  8
SUNPOU
  6
CONTINUOUS
 62
     4
 10
15574.568173999991
 20
9715.9239440000001
 30
0.0
 11
15334.568173999991
 21
9715.9239440000001
 31
0.0
  0
LINE
  5
3C67
  8
SUNPOU
  6
CONTINUOUS
 62
     4
 10
15724.566920999991
 20
9715.9239440000001
 30
0.0
 11
15964.566920999991
 21
9715.9239440000001
 31
0.0
  0
LINE
  5
3C68
  8
SUNPOU
  6
CONTINUOUS
 62
     4
 10
15574.568173999991
 20
9715.9239440000001
 30
0.0
 11
15724.566920999991
 21
9715.9239440000001
 31
0.0
  0
LINE
  5
3C69
  8
SUNPOU
  6
CONTINUOUS
 62
     4
 10
9653.565666999988
 20
8681.0046419999962
 30
0.0
 11
9653.565666999988
 21
9795.9239440000001
 31
0.0
  0
LINE
  5
3C6A
  8
SUNPOU
  6
CONTINUOUS
 62
     4
 10
15574.568173999991
 20
8863.1530139999977
 30
0.0
 11
15574.568173999991
 21
9795.9239440000001
 31
0.0
  0
LINE
  5
3C6B
  8
SUNPOU
  6
CONTINUOUS
 62
     4
 10
9653.565666999988
 20
9715.9239440000001
 30
0.0
 11
15574.568173999991
 21
9715.9239440000001
 31
0.0
  0
LINE
  5
3C6C
  8
SUNPOU
  6
CONTINUOUS
 62
     4
 10
9473.5669209999905
 20
8804.9222680000057
 30
0.0
 11
9473.5669209999905
 21
9795.9239440000001
 31
0.0
  0
LINE
  5
3C6D
  8
SUNPOU
  6
CONTINUOUS
 62
     4
 10
9653.565666999988
 20
8681.0046419999962
 30
0.0
 11
9653.565666999988
 21
9795.9239440000001
 31
0.0
  0
LINE
  5
3C6E
  8
SUNPOU
  6
CONTINUOUS
 62
     4
 10
9473.5669209999905
 20
9715.9239439999983
 30
0.0
 11
9233.5669209999905
 21
9715.9239439999983
 31
0.0
  0
LINE
  5
3C6F
  8
SUNPOU
  6
CONTINUOUS
 62
     4
 10
9653.565666999988
 20
9715.9239439999983
 30
0.0
 11
9893.5656669999898
 21
9715.9239439999983
 31
0.0
  0
LINE
  5
3C70
  8
SUNPOU
  6
CONTINUOUS
 62
     4
 10
9473.5669209999905
 20
9715.9239439999983
 30
0.0
 11
9653.565666999988
 21
9715.9239439999983
 31
0.0
  0
LINE
  5
3C71
  8
SUNPOU
  6
CONTINUOUS
 62
     4
 10
9566.0669209999924
 20
6567.9232579999998
 30
0.0
 11
8483.5685029999859
 21
6567.9232579999989
 31
0.0
  0
LINE
  5
3C72
  8
SUNPOU
  6
CONTINUOUS
 62
     4
 10
9393.5688989999835
 20
8724.4232579999989
 30
0.0
 11
8483.5685029999859
 21
8724.4232579999989
 31
0.0
  0
LINE
  5
3C73
  8
SUNPOU
  6
CONTINUOUS
 62
     4
 10
8563.5685029999859
 20
6567.9232579999989
 30
0.0
 11
8563.5685029999859
 21
8724.4232579999989
 31
0.0
  0
LINE
  5
3C74
  8
SUNPOU
  6
CONTINUOUS
 62
     4
 10
15667.066920999991
 20
6567.9232579999998
 30
0.0
 11
16744.56632599996
 21
6567.9232579999989
 31
0.0
  0
LINE
  5
3C75
  8
SUNPOU
  6
CONTINUOUS
 62
     4
 10
15759.373189599361
 20
8916.4232580000007
 30
0.0
 11
16744.56632599996
 21
8916.4232580000007
 31
0.0
  0
LINE
  5
3C76
  8
SUNPOU
  6
CONTINUOUS
 62
     4
 10
16664.56632599996
 20
6567.9232579999989
 30
0.0
 11
16664.56632599996
 21
8916.4232580000007
 31
0.0
  0
LINE
  5
3C77
  8
SUNPOU
  6
CONTINUOUS
 62
     4
 10
9653.5669209999924
 20
6487.9227630000032
 30
0.0
 11
9653.5669209999924
 21
4787.9230930000012
 31
0.0
  0
LINE
  5
3C78
  8
SUNPOU
  6
CONTINUOUS
 62
     4
 10
15574.566920999991
 20
6487.9227630000032
 30
0.0
 11
15574.566920999991
 21
4787.9230930000012
 31
0.0
  0
LINE
  5
3C79
  8
SUNPOU
  6
CONTINUOUS
 62
     4
 10
9653.5669209999924
 20
4867.9230930000012
 30
0.0
 11
15574.566920999991
 21
4867.9230930000012
 31
0.0
  0
LINE
  5
3C7A
  8
SUNPOU
  6
CONTINUOUS
 62
     4
 10
15532.066920999991
 20
6125.2705049999986
 30
0.0
 11
15532.066920999991
 21
5187.922928
 31
0.0
  0
LINE
  5
3C7B
  8
SUNPOU
  6
CONTINUOUS
 62
     4
 10
15574.566920999991
 20
6487.9227630000032
 30
0.0
 11
15574.566920999991
 21
5187.922928
 31
0.0
  0
LINE
  5
3C7C
  8
SUNPOU
  6
CONTINUOUS
 62
     4
 10
15532.066920999991
 20
5267.922928
 30
0.0
 11
15292.066920999991
 21
5267.922928
 31
0.0
  0
LINE
  5
3C7D
  8
SUNPOU
  6
CONTINUOUS
 62
     4
 10
15574.566920999991
 20
5267.922928
 30
0.0
 11
15814.566920999991
 21
5267.922928
 31
0.0
  0
LINE
  5
3C7E
  8
SUNPOU
  6
CONTINUOUS
 62
     4
 10
15532.066920999991
 20
5267.922928
 30
0.0
 11
15574.566920999991
 21
5267.922928
 31
0.0
  0
LINE
  5
3C7F
  8
SUNPOU
  6
CONTINUOUS
 62
     4
 10
9696.0669209999924
 20
6125.2705049999986
 30
0.0
 11
9696.0669209999924
 21
5187.922928
 31
0.0
  0
LINE
  5
3C80
  8
SUNPOU
  6
CONTINUOUS
 62
     4
 10
9653.5669209999924
 20
6487.9227630000032
 30
0.0
 11
9653.5669209999924
 21
5187.922928
 31
0.0
  0
LINE
  5
3C81
  8
SUNPOU
  6
CONTINUOUS
 62
     4
 10
9696.0669209999924
 20
5267.922928
 30
0.0
 11
9936.0669209999924
 21
5267.922928
 31
0.0
  0
LINE
  5
3C82
  8
SUNPOU
  6
CONTINUOUS
 62
     4
 10
9653.5669209999924
 20
5267.922928
 30
0.0
 11
9413.5669209999905
 21
5267.922928
 31
0.0
  0
LINE
  5
3C83
  8
SUNPOU
  6
CONTINUOUS
 62
     4
 10
9696.0669209999924
 20
5267.922928
 30
0.0
 11
9653.5669209999924
 21
5267.922928
 31
0.0
  0
LINE
  5
3C84
  8
SUNPOU
  6
CONTINUOUS
 62
     4
 10
12614.066920999991
 20
6125.2705049999986
 30
0.0
 11
12614.066920999991
 21
5187.922928
 31
0.0
  0
LINE
  5
3C85
  8
SUNPOU
  6
CONTINUOUS
 62
     4
 10
9696.0669209999924
 20
6125.2705049999986
 30
0.0
 11
9696.0669209999924
 21
5187.922928
 31
0.0
  0
LINE
  5
3C86
  8
SUNPOU
  6
CONTINUOUS
 62
     4
 10
12614.066920999991
 20
5267.922928
 30
0.0
 11
9696.0669209999924
 21
5267.922928
 31
0.0
  0
LINE
  5
3C87
  8
SUNPOU
  6
CONTINUOUS
 62
     4
 10
12614.066920999991
 20
6125.2705049999986
 30
0.0
 11
12614.066920999991
 21
5187.922928
 31
0.0
  0
LINE
  5
3C88
  8
SUNPOU
  6
CONTINUOUS
 62
     4
 10
15532.066920999991
 20
6125.2705049999986
 30
0.0
 11
15532.066920999991
 21
5187.922928
 31
0.0
  0
LINE
  5
3C89
  8
SUNPOU
  6
CONTINUOUS
 62
     4
 10
12614.066920999991
 20
5267.922928
 30
0.0
 11
15532.066920999991
 21
5267.922928
 31
0.0
  0
LINE
  5
3C8A
  8
SUNPOU
  6
CONTINUOUS
 62
     4
 10
20556.817196999989
 20
18209.486251999992
 30
0.0
 11
19669.858925
 21
18209.486251999992
 31
0.0
  0
LINE
  5
3C8B
  8
SUNPOU
  6
CONTINUOUS
 62
     4
 10
19749.858925
 20
18209.486251999992
 30
0.0
 11
19749.858925
 21
19668.486251999992
 31
0.0
  0
LINE
  5
3C8C
  8
SUNPOU
  6
CONTINUOUS
 62
     4
 10
20556.817196999989
 20
18209.486251999992
 30
0.0
 11
19669.858925
 21
18209.486251999992
 31
0.0
  0
LINE
  5
3C8D
  8
SUNPOU
  6
CONTINUOUS
 62
     4
 10
19749.858925
 20
16750.486251999992
 30
0.0
 11
19749.858925
 21
18209.486251999992
 31
0.0
  0
LINE
  5
3C8E
  8
SUNPOU
  6
CONTINUOUS
 62
     4
 10
20556.817196999989
 20
15291.72676350001
 30
0.0
 11
19669.858925
 21
15291.72676350001
 31
0.0
  0
LINE
  5
3C8F
  8
SUNPOU
  6
CONTINUOUS
 62
     4
 10
19749.858925
 20
15291.72676350001
 30
0.0
 11
19749.858925
 21
16750.486251999992
 31
0.0
  0
LINE
  5
3C90
  8
SUNPOU
  6
CONTINUOUS
 62
     4
 10
20556.817196999989
 20
15291.72676350001
 30
0.0
 11
19669.858925
 21
15291.72676350001
 31
0.0
  0
LINE
  5
3C91
  8
SUNPOU
  6
CONTINUOUS
 62
     4
 10
19749.858925
 20
13832.486252000001
 30
0.0
 11
19749.858925
 21
15291.72676350001
 31
0.0
  0
LINE
  5
3C92
  8
SUNPOU
  6
CONTINUOUS
 62
     4
 10
20679.313502000001
 20
13126.722818
 30
0.0
 11
20679.313502000001
 21
12781.038167999999
 31
0.0
  0
LINE
  5
3C93
  8
SUNPOU
  6
CONTINUOUS
 62
     4
 10
20636.811258999998
 20
13709.988957
 30
0.0
 11
20636.811258999998
 21
12781.038167999999
 31
0.0
  0
LINE
  5
3C94
  8
SUNPOU
  6
CONTINUOUS
 62
     4
 10
20679.313502000001
 20
12861.038167999999
 30
0.0
 11
20919.313502000001
 21
12861.038167999999
 31
0.0
  0
LINE
  5
3C95
  8
SUNPOU
  6
CONTINUOUS
 62
     4
 10
20636.811258999998
 20
12861.038167999999
 30
0.0
 11
20396.811258999998
 21
12861.038167999999
 31
0.0
  0
LINE
  5
3C96
  8
SUNPOU
  6
CONTINUOUS
 62
     4
 10
20679.313502000001
 20
12861.038167999999
 30
0.0
 11
20636.811258999998
 21
12861.038167999999
 31
0.0
  0
LINE
  5
3C97
  8
SUNPOU
  6
CONTINUOUS
 62
     4
 10
23947.813502000001
 20
13126.722818
 30
0.0
 11
23947.813502000001
 21
12781.038167999999
 31
0.0
  0
LINE
  5
3C98
  8
SUNPOU
  6
CONTINUOUS
 62
     4
 10
23990.315744999989
 20
13709.988957
 30
0.0
 11
23990.315744999989
 21
12781.038167999999
 31
0.0
  0
LINE
  5
3C99
  8
SUNPOU
  6
CONTINUOUS
 62
     4
 10
23947.813502000001
 20
12861.038167999999
 30
0.0
 11
23707.813502000001
 21
12861.038167999999
 31
0.0
  0
LINE
  5
3C9A
  8
SUNPOU
  6
CONTINUOUS
 62
     4
 10
23990.315744999989
 20
12861.038167999999
 30
0.0
 11
24230.315744999989
 21
12861.038167999999
 31
0.0
  0
LINE
  5
3C9B
  8
SUNPOU
  6
CONTINUOUS
 62
     4
 10
23947.813502000001
 20
12861.038167999999
 30
0.0
 11
23990.315744999989
 21
12861.038167999999
 31
0.0
  0
LINE
  5
3C9C
  8
SUNPOU
  6
CONTINUOUS
 62
     4
 10
23947.813502000001
 20
13126.722818
 30
0.0
 11
23947.813502000001
 21
12781.038167999999
 31
0.0
  0
LINE
  5
3C9D
  8
SUNPOU
  6
CONTINUOUS
 62
     4
 10
23905.311258999991
 20
13709.988957
 30
0.0
 11
23905.311258999991
 21
12781.038167999999
 31
0.0
  0
LINE
  5
3C9E
  8
SUNPOU
  6
CONTINUOUS
 62
     4
 10
23947.813502000001
 20
12861.038167999999
 30
0.0
 11
24187.813502000001
 21
12861.038167999999
 31
0.0
  0
LINE
  5
3C9F
  8
SUNPOU
  6
CONTINUOUS
 62
     4
 10
23905.311258999991
 20
12861.038167999999
 30
0.0
 11
23665.311258999991
 21
12861.038167999999
 31
0.0
  0
LINE
  5
3CA0
  8
SUNPOU
  6
CONTINUOUS
 62
     4
 10
23947.813502000001
 20
12861.038167999999
 30
0.0
 11
23905.311258999991
 21
12861.038167999999
 31
0.0
  0
LINE
  5
3CA1
  8
SUNPOU
  6
CONTINUOUS
 62
     4
 10
20679.313502000001
 20
13126.722818
 30
0.0
 11
20679.313502000001
 21
12781.038167999999
 31
0.0
  0
LINE
  5
3CA2
  8
SUNPOU
  6
CONTINUOUS
 62
     4
 10
20721.815745
 20
13709.988957
 30
0.0
 11
20721.815745
 21
12781.038167999999
 31
0.0
  0
LINE
  5
3CA3
  8
SUNPOU
  6
CONTINUOUS
 62
     4
 10
20679.313502000001
 20
12861.038167999999
 30
0.0
 11
20439.313502000001
 21
12861.038167999999
 31
0.0
  0
LINE
  5
3CA4
  8
SUNPOU
  6
CONTINUOUS
 62
     4
 10
20721.815745
 20
12861.038167999999
 30
0.0
 11
20961.815745
 21
12861.038167999999
 31
0.0
  0
LINE
  5
3CA5
  8
SUNPOU
  6
CONTINUOUS
 62
     4
 10
20679.313502000001
 20
12861.038167999999
 30
0.0
 11
20721.815745
 21
12861.038167999999
 31
0.0
  0
LINE
  5
3CA6
  8
SUNPOU
  6
CONTINUOUS
 62
     4
 10
20636.811258999998
 20
13709.988957
 30
0.0
 11
20636.811258999998
 21
12381.038167999999
 31
0.0
  0
LINE
  5
3CA7
  8
SUNPOU
  6
CONTINUOUS
 62
     4
 10
23990.315744999989
 20
13709.988957
 30
0.0
 11
23990.315744999989
 21
12381.038167999999
 31
0.0
  0
LINE
  5
3CA8
  8
SUNPOU
  6
CONTINUOUS
 62
     4
 10
20636.811258999998
 20
12461.038167999999
 30
0.0
 11
23990.315744999989
 21
12461.038167999999
 31
0.0
  0
LINE
  5
3CA9
  8
SUNPOU
  6
CONTINUOUS
 62
     4
 10
24070.311785999991
 20
14590.486252000001
 30
0.0
 11
25120.313106000001
 21
14590.486252000001
 31
0.0
  0
LINE
  5
3CAA
  8
SUNPOU
  6
CONTINUOUS
 62
     4
 10
24920.313106000001
 20
13832.486252000001
 30
0.0
 11
25120.313106000001
 21
13832.486252000001
 31
0.0
  0
LINE
  5
3CAB
  8
SUNPOU
  6
CONTINUOUS
 62
     4
 10
25040.313106000001
 20
14590.486252000001
 30
0.0
 11
25040.313106000001
 21
13832.486252000001
 31
0.0
  0
LINE
  5
3CAC
  8
SUNPOU
  6
CONTINUOUS
 62
     4
 10
24070.311785999991
 20
15291.72676350001
 30
0.0
 11
25120.313106000001
 21
15291.72676350001
 31
0.0
  0
LINE
  5
3CAD
  8
SUNPOU
  6
CONTINUOUS
 62
     4
 10
24070.311785999991
 20
14590.486252000001
 30
0.0
 11
25120.313106000001
 21
14590.486252000001
 31
0.0
  0
LINE
  5
3CAE
  8
SUNPOU
  6
CONTINUOUS
 62
     4
 10
25040.313106000001
 20
15291.72676350001
 30
0.0
 11
25040.313106000001
 21
14590.486252000001
 31
0.0
  0
LINE
  5
3CAF
  8
SUNPOU
  6
CONTINUOUS
 62
     4
 10
24070.311785999991
 20
15992.486252000001
 30
0.0
 11
25120.313106000001
 21
15992.486252000001
 31
0.0
  0
LINE
  5
3CB0
  8
SUNPOU
  6
CONTINUOUS
 62
     4
 10
24070.311785999991
 20
15291.72676350001
 30
0.0
 11
25120.313106000001
 21
15291.72676350001
 31
0.0
  0
LINE
  5
3CB1
  8
SUNPOU
  6
CONTINUOUS
 62
     4
 10
25040.313106000001
 20
15992.486252000001
 30
0.0
 11
25040.313106000001
 21
15291.72676350001
 31
0.0
  0
LINE
  5
3CB2
  8
SUNPOU
  6
CONTINUOUS
 62
     4
 10
24920.313106000001
 20
16750.486251999992
 30
0.0
 11
25120.313106000001
 21
16750.486251999992
 31
0.0
  0
LINE
  5
3CB3
  8
SUNPOU
  6
CONTINUOUS
 62
     4
 10
24070.311785999991
 20
15992.486252000001
 30
0.0
 11
25120.313106000001
 21
15992.486252000001
 31
0.0
  0
LINE
  5
3CB4
  8
SUNPOU
  6
CONTINUOUS
 62
     4
 10
25040.313106000001
 20
16750.486251999992
 30
0.0
 11
25040.313106000001
 21
15992.486252000001
 31
0.0
  0
LINE
  5
3CB5
  8
SUNPOU
  6
CONTINUOUS
 62
     4
 10
24070.311785999991
 20
17508.486251999992
 30
0.0
 11
25120.313106000001
 21
17508.486251999992
 31
0.0
  0
LINE
  5
3CB6
  8
SUNPOU
  6
CONTINUOUS
 62
     4
 10
24920.313106000001
 20
16750.486251999992
 30
0.0
 11
25120.313106000001
 21
16750.486251999992
 31
0.0
  0
LINE
  5
3CB7
  8
SUNPOU
  6
CONTINUOUS
 62
     4
 10
25040.313106000001
 20
17508.486251999992
 30
0.0
 11
25040.313106000001
 21
16750.486251999992
 31
0.0
  0
LINE
  5
3CB8
  8
SUNPOU
  6
CONTINUOUS
 62
     4
 10
24070.311785999991
 20
18209.486251999992
 30
0.0
 11
25120.313106000001
 21
18209.486251999992
 31
0.0
  0
LINE
  5
3CB9
  8
SUNPOU
  6
CONTINUOUS
 62
     4
 10
24070.311785999991
 20
17508.486251999992
 30
0.0
 11
25120.313106000001
 21
17508.486251999992
 31
0.0
  0
LINE
  5
3CBA
  8
SUNPOU
  6
CONTINUOUS
 62
     4
 10
25040.313106000001
 20
18209.486251999992
 30
0.0
 11
25040.313106000001
 21
17508.486251999992
 31
0.0
  0
LINE
  5
3CBB
  8
SUNPOU
  6
CONTINUOUS
 62
     4
 10
24070.311785999991
 20
18910.486251999999
 30
0.0
 11
25120.313106000001
 21
18910.486251999992
 31
0.0
  0
LINE
  5
3CBC
  8
SUNPOU
  6
CONTINUOUS
 62
     4
 10
24070.311785999991
 20
18209.486251999992
 30
0.0
 11
25120.313106000001
 21
18209.486251999992
 31
0.0
  0
LINE
  5
3CBD
  8
SUNPOU
  6
CONTINUOUS
 62
     4
 10
25040.313106000001
 20
18910.486251999992
 30
0.0
 11
25040.313106000001
 21
18209.486251999992
 31
0.0
  0
LINE
  5
3CBE
  8
SUNPOU
  6
CONTINUOUS
 62
     4
 10
24920.313106000001
 20
19668.486251999992
 30
0.0
 11
25120.313106000001
 21
19668.486251999992
 31
0.0
  0
LINE
  5
3CBF
  8
SUNPOU
  6
CONTINUOUS
 62
     4
 10
24070.311785999991
 20
18910.486251999999
 30
0.0
 11
25120.313106000001
 21
18910.486251999992
 31
0.0
  0
LINE
  5
3CC0
  8
SUNPOU
  6
CONTINUOUS
 62
     4
 10
25040.313106000001
 20
19668.486251999992
 30
0.0
 11
25040.313106000001
 21
18910.486251999992
 31
0.0
  0
LINE
  5
3CC1
  8
SUNPOU
  6
CONTINUOUS
 62
     4
 10
24920.313106000001
 20
16750.486251999992
 30
0.0
 11
25520.313106000001
 21
16750.486251999992
 31
0.0
  0
LINE
  5
3CC2
  8
SUNPOU
  6
CONTINUOUS
 62
     4
 10
24920.313106000001
 20
19668.486251999992
 30
0.0
 11
25520.313106000001
 21
19668.486251999992
 31
0.0
  0
LINE
  5
3CC3
  8
SUNPOU
  6
CONTINUOUS
 62
     4
 10
25440.313106000001
 20
16750.486251999992
 30
0.0
 11
25440.313106000001
 21
19668.486251999992
 31
0.0
  0
LINE
  5
3CC4
  8
SUNPOU
  6
CONTINUOUS
 62
     4
 10
24920.313106000001
 20
13832.486252000001
 30
0.0
 11
25520.313106000001
 21
13832.486252000001
 31
0.0
  0
LINE
  5
3CC5
  8
SUNPOU
  6
CONTINUOUS
 62
     4
 10
24920.313106000001
 20
16750.486251999992
 30
0.0
 11
25520.313106000001
 21
16750.486251999992
 31
0.0
  0
LINE
  5
3CC6
  8
SUNPOU
  6
CONTINUOUS
 62
     4
 10
25440.313106000001
 20
13832.486252000001
 30
0.0
 11
25440.313106000001
 21
16750.486251999992
 31
0.0
  0
LINE
  5
3CC7
  8
SUNPOU
  6
CONTINUOUS
 62
     4
 10
24070.311785999991
 20
19710.983547
 30
0.0
 11
25920.313106000001
 21
19710.983546999982
 31
0.0
  0
LINE
  5
3CC8
  8
SUNPOU
  6
CONTINUOUS
 62
     4
 10
24070.311785999991
 20
13789.988957
 30
0.0
 11
25920.313106000001
 21
13789.988957
 31
0.0
  0
LINE
  5
3CC9
  8
SUNPOU
  6
CONTINUOUS
 62
     4
 10
25840.313106000001
 20
19710.983546999982
 30
0.0
 11
25840.313106000001
 21
13789.988957
 31
0.0
  0
LINE
  5
3CCA
  8
SUNPOU
  6
CONTINUOUS
 62
     4
 10
24920.313106000001
 20
19668.486251999992
 30
0.0
 11
25520.313106000001
 21
19668.486251999992
 31
0.0
  0
LINE
  5
3CCB
  8
SUNPOU
  6
CONTINUOUS
 62
     4
 10
24070.311785999991
 20
19710.983547
 30
0.0
 11
25520.313106000001
 21
19710.983546999982
 31
0.0
  0
LINE
  5
3CCC
  8
SUNPOU
  6
CONTINUOUS
 62
     4
 10
25440.313106000001
 20
19668.486251999992
 30
0.0
 11
25440.313106000001
 21
19428.486251999992
 31
0.0
  0
LINE
  5
3CCD
  8
SUNPOU
  6
CONTINUOUS
 62
     4
 10
25440.313106000001
 20
19710.983546999982
 30
0.0
 11
25440.313106000001
 21
19950.983546999982
 31
0.0
  0
LINE
  5
3CCE
  8
SUNPOU
  6
CONTINUOUS
 62
     4
 10
25440.313106000001
 20
19668.486251999992
 30
0.0
 11
25440.313106000001
 21
19710.983546999982
 31
0.0
  0
LINE
  5
3CCF
  8
SUNPOU
  6
CONTINUOUS
 62
     4
 10
24920.313106000001
 20
13832.486252000001
 30
0.0
 11
25520.313106000001
 21
13832.486252000001
 31
0.0
  0
LINE
  5
3CD0
  8
SUNPOU
  6
CONTINUOUS
 62
     4
 10
24070.311785999991
 20
13789.988957
 30
0.0
 11
25520.313106000001
 21
13789.988957
 31
0.0
  0
LINE
  5
3CD1
  8
SUNPOU
  6
CONTINUOUS
 62
     4
 10
25440.313106000001
 20
13832.486252000001
 30
0.0
 11
25440.313106000001
 21
14072.486252000001
 31
0.0
  0
LINE
  5
3CD2
  8
SUNPOU
  6
CONTINUOUS
 62
     4
 10
25440.313106000001
 20
13789.988957
 30
0.0
 11
25440.313106000001
 21
13549.988957
 31
0.0
  0
LINE
  5
3CD3
  8
SUNPOU
  6
CONTINUOUS
 62
     4
 10
25440.313106000001
 20
13832.486252000001
 30
0.0
 11
25440.313106000001
 21
13789.988957
 31
0.0
  0
LINE
  5
3CD4
  8
SUNPOU
  6
CONTINUOUS
 62
     4
 10
20679.313502000001
 20
19790.984537000018
 30
0.0
 11
20679.313502000001
 21
20520.987440000012
 31
0.0
  0
LINE
  5
3CD5
  8
SUNPOU
  6
CONTINUOUS
 62
     4
 10
21086.813502000001
 20
19790.984537000018
 30
0.0
 11
21086.813502000001
 21
20520.987440000012
 31
0.0
  0
LINE
  5
3CD6
  8
SUNPOU
  6
CONTINUOUS
 62
     4
 10
20679.313502000001
 20
20440.987440000012
 30
0.0
 11
20439.313502000001
 21
20440.987440000012
 31
0.0
  0
LINE
  5
3CD7
  8
SUNPOU
  6
CONTINUOUS
 62
     4
 10
21086.813502000001
 20
20440.987440000012
 30
0.0
 11
21326.813502000001
 21
20440.987440000012
 31
0.0
  0
LINE
  5
3CD8
  8
SUNPOU
  6
CONTINUOUS
 62
     4
 10
20679.313502000001
 20
20440.987440000012
 30
0.0
 11
21086.813502000001
 21
20440.987440000012
 31
0.0
  0
LINE
  5
3CD9
  8
SUNPOU
  6
CONTINUOUS
 62
     4
 10
23189.813502000001
 20
19790.984537000018
 30
0.0
 11
23189.813502000001
 21
20520.987440000012
 31
0.0
  0
LINE
  5
3CDA
  8
SUNPOU
  6
CONTINUOUS
 62
     4
 10
23947.814491500001
 20
19790.984537000018
 30
0.0
 11
23947.814491500001
 21
20520.987440000012
 31
0.0
  0
LINE
  5
3CDB
  8
SUNPOU
  6
CONTINUOUS
 62
     4
 10
23189.813502000001
 20
20440.987440000012
 30
0.0
 11
23947.814491500001
 21
20440.987440000012
 31
0.0
  0
LINE
  5
3CDC
  8
SUNPOU
  6
CONTINUOUS
 62
     4
 10
22488.813502000001
 20
19790.984537000018
 30
0.0
 11
22488.813502000001
 21
20520.987440000012
 31
0.0
  0
LINE
  5
3CDD
  8
SUNPOU
  6
CONTINUOUS
 62
     4
 10
23189.813502000001
 20
19790.984537000018
 30
0.0
 11
23189.813502000001
 21
20520.987440000012
 31
0.0
  0
LINE
  5
3CDE
  8
SUNPOU
  6
CONTINUOUS
 62
     4
 10
22488.813502000001
 20
20440.987440000012
 30
0.0
 11
23189.813502000001
 21
20440.987440000012
 31
0.0
  0
LINE
  5
3CDF
  8
SUNPOU
  6
CONTINUOUS
 62
     4
 10
21787.813502000001
 20
19790.984537000018
 30
0.0
 11
21787.813502000001
 21
20520.987440000012
 31
0.0
  0
LINE
  5
3CE0
  8
SUNPOU
  6
CONTINUOUS
 62
     4
 10
22488.813502000001
 20
19790.984537000018
 30
0.0
 11
22488.813502000001
 21
20520.987440000012
 31
0.0
  0
LINE
  5
3CE1
  8
SUNPOU
  6
CONTINUOUS
 62
     4
 10
21787.813502000001
 20
20440.987440000012
 30
0.0
 11
22488.813502000001
 21
20440.987440000012
 31
0.0
  0
LINE
  5
3CE2
  8
SUNPOU
  6
CONTINUOUS
 62
     4
 10
21086.813502000001
 20
19790.984537000018
 30
0.0
 11
21086.813502000001
 21
20520.987440000012
 31
0.0
  0
LINE
  5
3CE3
  8
SUNPOU
  6
CONTINUOUS
 62
     4
 10
21787.813502000001
 20
19790.984537000018
 30
0.0
 11
21787.813502000001
 21
20520.987440000012
 31
0.0
  0
LINE
  5
3CE4
  8
SUNPOU
  6
CONTINUOUS
 62
     4
 10
21086.813502000001
 20
20440.987440000012
 30
0.0
 11
21787.813502000001
 21
20440.987440000012
 31
0.0
  0
LINE
  5
3CE5
  8
SUNPOU
  6
CONTINUOUS
 62
     4
 10
23947.813502000001
 20
19790.984537000018
 30
0.0
 11
23947.813502000001
 21
20520.987440000012
 31
0.0
  0
LINE
  5
3CE6
  8
SUNPOU
  6
CONTINUOUS
 62
     4
 10
23990.309807000001
 20
19790.984537000018
 30
0.0
 11
23990.309807000001
 21
20520.987440000012
 31
0.0
  0
LINE
  5
3CE7
  8
SUNPOU
  6
CONTINUOUS
 62
     4
 10
23947.813502000001
 20
20440.987440000012
 30
0.0
 11
23707.813502000001
 21
20440.987440000012
 31
0.0
  0
LINE
  5
3CE8
  8
SUNPOU
  6
CONTINUOUS
 62
     4
 10
23990.309807000001
 20
20440.987440000012
 30
0.0
 11
24230.309807000001
 21
20440.987440000012
 31
0.0
  0
LINE
  5
3CE9
  8
SUNPOU
  6
CONTINUOUS
 62
     4
 10
23947.813502000001
 20
20440.987440000012
 30
0.0
 11
23990.309807000001
 21
20440.987440000012
 31
0.0
  0
LINE
  5
3CEA
  8
SUNPOU
  6
CONTINUOUS
 62
     4
 10
20679.313502000001
 20
19790.984537000018
 30
0.0
 11
20679.313502000001
 21
20520.987440000012
 31
0.0
  0
LINE
  5
3CEB
  8
SUNPOU
  6
CONTINUOUS
 62
     4
 10
20636.817196999989
 20
19790.984537000018
 30
0.0
 11
20636.817196999989
 21
20520.987440000012
 31
0.0
  0
LINE
  5
3CEC
  8
SUNPOU
  6
CONTINUOUS
 62
     4
 10
20679.313502000001
 20
20440.987440000012
 30
0.0
 11
20919.313502000001
 21
20440.987440000012
 31
0.0
  0
LINE
  5
3CED
  8
SUNPOU
  6
CONTINUOUS
 62
     4
 10
20636.817196999989
 20
20440.987440000012
 30
0.0
 11
20396.817196999989
 21
20440.987440000012
 31
0.0
  0
LINE
  5
3CEE
  8
SUNPOU
  6
CONTINUOUS
 62
     4
 10
20679.313502000001
 20
20440.987440000012
 30
0.0
 11
20636.817196999989
 21
20440.987440000012
 31
0.0
  0
TEXT
  5
3CEF
  8
0
  6
CONTINUOUS
 62
     7
 10
20076.501522471179
 20
20520.987440000012
 30
0.0
 40
160.0
  1
42.5
  0
TEXT
  5
3CF0
  8
0
  6
CONTINUOUS
 62
     7
 10
24070.62548152879
 20
20520.987440000012
 30
0.0
 40
160.0
  1
42.5
  0
TEXT
  5
3CF1
  8
0
  6
CONTINUOUS
 62
     7
 10
21263.980168666669
 20
20200.987440000012
 30
0.0
 40
160.0
  1
701
  0
TEXT
  5
3CF2
  8
0
  6
CONTINUOUS
 62
     7
 10
21964.980168666661
 20
20520.987440000012
 30
0.0
 40
160.0
  1
701
  0
TEXT
  5
3CF3
  8
0
  6
CONTINUOUS
 62
     7
 10
22665.980168666661
 20
20520.987440000012
 30
0.0
 40
160.0
  1
701
  0
TEXT
  5
3CF4
  8
0
  6
CONTINUOUS
 62
     7
 10
23355.480663416671
 20
20520.987440000012
 30
0.0
 40
160.0
  1
758
  0
TEXT
  5
3CF5
  8
0
  6
CONTINUOUS
 62
     7
 10
20780.146835333329
 20
20520.987440000012
 30
0.0
 40
160.0
  1
407.5
  0
TEXT
  5
3CF6
  8
0
  6
CONTINUOUS
 62
     7
 10
25360.313106000001
 20
13216.43272060321
 30
0.0
 40
160.0
  1
42.5
 50
90.0
  0
TEXT
  5
3CF7
  8
0
  6
CONTINUOUS
 62
     7
 10
25360.313106000001
 20
19804.539783396791
 30
0.0
 40
160.0
  1
42.5
 50
90.0
  0
TEXT
  5
3CF8
  8
0
  6
CONTINUOUS
 62
     7
 10
25760.313105999991
 20
16483.819585333331
 30
0.0
 40
160.0
  1
5921
 50
90.0
  0
TEXT
  5
3CF9
  8
0
  6
CONTINUOUS
 62
     7
 10
25360.31310599998
 20
15024.819585333331
 30
0.0
 40
160.0
  1
2918
 50
90.0
  0
TEXT
  5
3CFA
  8
0
  6
CONTINUOUS
 62
     7
 10
25360.31310599998
 20
17942.819585333331
 30
0.0
 40
160.0
  1
2918
 50
90.0
  0
TEXT
  5
3CFB
  8
0
  6
CONTINUOUS
 62
     7
 10
24960.313105999991
 20
19076.15291866667
 30
0.0
 40
160.0
  1
758
 50
90.0
  0
TEXT
  5
3CFC
  8
0
  6
CONTINUOUS
 62
     7
 10
24960.313105999991
 20
18386.652918666659
 30
0.0
 40
160.0
  1
701
 50
90.0
  0
TEXT
  5
3CFD
  8
0
  6
CONTINUOUS
 62
     7
 10
24960.313105999991
 20
17685.65291866667
 30
0.0
 40
160.0
  1
701
 50
90.0
  0
TEXT
  5
3CFE
  8
0
  6
CONTINUOUS
 62
     7
 10
24960.313105999991
 20
16916.15291866667
 30
0.0
 40
160.0
  1
758
 50
90.0
  0
TEXT
  5
3CFF
  8
0
  6
CONTINUOUS
 62
     7
 10
24960.313105999991
 20
16158.15291866667
 30
0.0
 40
160.0
  1
758
 50
90.0
  0
TEXT
  5
3D00
  8
0
  6
CONTINUOUS
 62
     7
 10
24960.313105999991
 20
15468.773174416679
 30
0.0
 40
160.0
  1
701
 50
90.0
  0
TEXT
  5
3D01
  8
0
  6
CONTINUOUS
 62
     7
 10
24960.313105999991
 20
14767.773174416679
 30
0.0
 40
160.0
  1
701
 50
90.0
  0
TEXT
  5
3D02
  8
0
  6
CONTINUOUS
 62
     7
 10
24960.313105999991
 20
13998.15291866667
 30
0.0
 40
160.0
  1
758
 50
90.0
  0
TEXT
  5
3D03
  8
0
  6
CONTINUOUS
 62
     7
 10
21913.563502000001
 20
12541.038167999999
 30
0.0
 40
160.0
  1
3353.5
  0
TEXT
  5
3D04
  8
0
  6
CONTINUOUS
 62
     7
 10
20797.367174382081
 20
12941.038167999999
 30
0.0
 40
160.0
  1
42.5
  0
TEXT
  5
3D05
  8
0
  6
CONTINUOUS
 62
     7
 10
23349.759829617891
 20
12941.038167999999
 30
0.0
 40
160.0
  1
42.5
  0
TEXT
  5
3D06
  8
0
  6
CONTINUOUS
 62
     7
 10
24065.867174382089
 20
12941.038167999999
 30
0.0
 40
160.0
  1
42.5
  0
TEXT
  5
3D07
  8
0
  6
CONTINUOUS
 62
     7
 10
20081.259829617891
 20
12941.038167999999
 30
0.0
 40
160.0
  1
42.5
  0
TEXT
  5
3D08
  8
0
  6
CONTINUOUS
 62
     7
 10
19669.858925
 20
14295.43984108334
 30
0.0
 40
160.0
  1
1459
 50
90.0
  0
TEXT
  5
3D09
  8
0
  6
CONTINUOUS
 62
     7
 10
19669.858925
 20
15754.43984108334
 30
0.0
 40
160.0
  1
1459
 50
90.0
  0
TEXT
  5
3D0A
  8
0
  6
CONTINUOUS
 62
     7
 10
19669.858925
 20
17213.319585333331
 30
0.0
 40
160.0
  1
1459
 50
90.0
  0
TEXT
  5
3D0B
  8
0
  6
CONTINUOUS
 62
     7
 10
19669.858925
 20
18672.319585333309
 30
0.0
 40
160.0
  1
1459
 50
90.0
  0
TEXT
  5
3D0C
  8
0
  6
CONTINUOUS
 62
     7
 10
13806.400254333321
 20
5347.922928
 30
0.0
 40
160.0
  1
2918
  0
TEXT
  5
3D0D
  8
0
  6
CONTINUOUS
 62
     7
 10
10888.400254333321
 20
5347.922928
 30
0.0
 40
160.0
  1
2918
  0
TEXT
  5
3D0E
  8
0
  6
CONTINUOUS
 62
     7
 10
9056.3932119036836
 20
5347.922928
 30
0.0
 40
160.0
  1
42.5
  0
TEXT
  5
3D0F
  8
0
  6
CONTINUOUS
 62
     7
 10
15712.88555830981
 20
5347.922928
 30
0.0
 40
160.0
  1
42.5
  0
TEXT
  5
3D10
  8
0
  6
CONTINUOUS
 62
     7
 10
12347.400254333321
 20
4947.9230930000012
 30
0.0
 40
160.0
  1
5921
  0
TEXT
  5
3D11
  8
0
  6
CONTINUOUS
 62
     7
 10
16584.56632599996
 20
6723.5065913333337
 30
0.0
 40
160.0
  1
2348.5（2588.5）
 50
90.0
  0
TEXT
  5
3D12
  8
0
  6
CONTINUOUS
 62
     7
 10
8483.5685029999859
 20
6654.1732579999998
 30
0.0
 40
160.0
  1
2156.5（2396.5）
 50
90.0
  0
TEXT
  5
3D13
  8
0
  6
CONTINUOUS
 62
     7
 10
9060.2335876666566
 20
9795.9239440000001
 30
0.0
 40
160.0
  1
180
  0
TEXT
  5
3D14
  8
0
  6
CONTINUOUS
 62
     7
 10
12347.400253833321
 20
9795.9239440000001
 30
0.0
 40
160.0
  1
5921
  0
TEXT
  5
3D15
  8
0
  6
CONTINUOUS
 62
     7
 10
15791.23358766666
 20
9795.9239440000001
 30
0.0
 40
160.0
  1
150
  0
TEXT
  5
3D16
  8
0
  6
CONTINUOUS
 62
     7
 10
12332.400254333321
 20
10195.922293999991
 30
0.0
 40
160.0
  1
6251
  0
TEXT
  5
3D17
  8
0
  6
CONTINUOUS
 62
     7
 10
21913.563502000001
 20
4947.9240830000008
 30
0.0
 40
160.0
  1
3353.5
  0
TEXT
  5
3D18
  8
0
  6
CONTINUOUS
 62
     7
 10
20070.774511741161
 20
5347.9239180000041
 30
0.0
 40
160.0
  1
42.5
  0
TEXT
  5
3D19
  8
0
  6
CONTINUOUS
 62
     7
 10
21913.563502000001
 20
5347.9239180000041
 30
0.0
 40
160.0
  1
3268.5
  0
TEXT
  5
3D1A
  8
0
  6
CONTINUOUS
 62
     7
 10
21412.230168666661
 20
5747.923918000005
 30
0.0
 40
160.0
  1
有効開口巾 3080.5
  0
TEXT
  5
3D1B
  8
0
  6
CONTINUOUS
 62
     7
 10
24076.35249225884
 20
5347.9239180000041
 30
0.0
 40
160.0
  1
42.5
  0
TEXT
  5
3D20
  8
0
  6
CONTINUOUS
 62
     7
 10
19349.309872999991
 20
6723.5070993333338
 30
0.0
 40
160.0
  1
2348.5（2588.5）
 50
90.0
  0
TEXT
  5
3D21
  8
0
  6
CONTINUOUS
 62
     7
 10
19749.312182000001
 20
6631.9029912912747
 30
0.0
 40
160.0
  1
有効開口高サ 1891.5
 50
90.0
  0
TEXT
  5
3D22
  8
0
  6
CONTINUOUS
 62
     7
 10
12193.103858
 20
20520.987440000012
 30
0.0
 40
160.0
  1
3268.5
  0
TEXT
  5
3D23
  8
0
  6
CONTINUOUS
 62
     7
 10
10342.35715197675
 20
20520.987440000012
 30
0.0
 40
160.0
  1
85.5
  0
TEXT
  5
3D24
  8
0
  6
CONTINUOUS
 62
     7
 10
14363.85056402328
 20
20520.987440000012
 30
0.0
 40
160.0
  1
85.5
  0
TEXT
  5
3D25
  8
0
  6
CONTINUOUS
 62
     7
 10
9949.3496289999966
 20
13024.53324170262
 30
0.0
 40
160.0
  1
192.5
 50
90.0
  0
TEXT
  5
3D26
  8
0
  6
CONTINUOUS
 62
     7
 10
9949.3496289999966
 20
14295.319585333331
 30
0.0
 40
160.0
  1
1459
 50
90.0
  0
TEXT
  5
3D27
  8
0
  6
CONTINUOUS
 62
     7
 10
9949.3496289999966
 20
15754.319585333331
 30
0.0
 40
160.0
  1
1459
 50
90.0
  0
TEXT
  5
3D28
  8
0
  6
CONTINUOUS
 62
     7
 10
9949.3496289999985
 20
17213.319585333331
 30
0.0
 40
160.0
  1
1459
 50
90.0
  0
TEXT
  5
3D29
  8
0
  6
CONTINUOUS
 62
     7
 10
9949.3496289999985
 20
18672.319585333309
 30
0.0
 40
160.0
  1
1459
 50
90.0
  0
TEXT
  5
3D2A
  8
0
  6
CONTINUOUS
 62
     7
 10
9949.3496289999966
 20
19979.941436807669
 30
0.0
 40
160.0
  1
222.5
 50
90.0
  0
TEXT
  5
3D2B
  8
0
  6
CONTINUOUS
 62
     7
 10
10349.349628999989
 20
20010.982161000022
 30
0.0
 40
160.0
  1
20
 50
90.0
  0
ARC
  5
3D2C
  8
0
  6
BYBLOCK
 62
     0
 10
10429.349628999989
 20
19870.982161000022
 30
0.0
 40
15.0
 50
270.0
 51
90.0
  0
ARC
  5
3D2D
  8
0
  6
BYBLOCK
 62
     0
 10
10429.349628999989
 20
19870.982161000022
 30
0.0
 40
15.0
 50
90.0
 51
270.0
  0
ARC
  5
3D2E
  8
0
  6
BYBLOCK
 62
     0
 10
10429.349628999989
 20
19890.982161000022
 30
0.0
 40
15.0
 50
90.0
 51
270.0
  0
ARC
  5
3D2F
  8
0
  6
BYBLOCK
 62
     0
 10
10429.349628999989
 20
19890.982161000022
 30
0.0
 40
15.0
 50
270.0
 51
90.0
  0
ARC
  5
3D30
  8
0
  6
BYBLOCK
 62
     0
 10
10029.349629
 20
19668.486251999992
 30
0.0
 40
15.0
 50
270.0
 51
90.0
  0
ARC
  5
3D31
  8
0
  6
BYBLOCK
 62
     0
 10
10029.349629
 20
19668.486251999992
 30
0.0
 40
15.0
 50
90.0
 51
270.0
  0
ARC
  5
3D32
  8
0
  6
BYBLOCK
 62
     0
 10
10029.349629
 20
19890.982161000022
 30
0.0
 40
15.0
 50
90.0
 51
270.0
  0
ARC
  5
3D33
  8
0
  6
BYBLOCK
 62
     0
 10
10029.349629
 20
19890.982161000022
 30
0.0
 40
15.0
 50
270.0
 51
90.0
  0
ARC
  5
3D34
  8
0
  6
BYBLOCK
 62
     0
 10
10029.349629
 20
18209.486251999992
 30
0.0
 40
15.0
 50
90.0
 51
270.0
  0
ARC
  5
3D35
  8
0
  6
BYBLOCK
 62
     0
 10
10029.349629
 20
18209.486251999992
 30
0.0
 40
15.0
 50
270.0
 51
90.0
  0
ARC
  5
3D36
  8
0
  6
BYBLOCK
 62
     0
 10
10029.349629
 20
19668.486251999992
 30
0.0
 40
15.0
 50
270.0
 51
90.0
  0
ARC
  5
3D37
  8
0
  6
BYBLOCK
 62
     0
 10
10029.349629
 20
19668.486251999992
 30
0.0
 40
15.0
 50
90.0
 51
270.0
  0
ARC
  5
3D38
  8
0
  6
BYBLOCK
 62
     0
 10
10029.349629
 20
16750.486251999992
 30
0.0
 40
15.0
 50
90.0
 51
270.0
  0
ARC
  5
3D39
  8
0
  6
BYBLOCK
 62
     0
 10
10029.349629
 20
16750.486251999992
 30
0.0
 40
15.0
 50
270.0
 51
90.0
  0
ARC
  5
3D3A
  8
0
  6
BYBLOCK
 62
     0
 10
10029.349629
 20
18209.486251999992
 30
0.0
 40
15.0
 50
270.0
 51
90.0
  0
ARC
  5
3D3B
  8
0
  6
BYBLOCK
 62
     0
 10
10029.349629
 20
18209.486251999992
 30
0.0
 40
15.0
 50
90.0
 51
270.0
  0
ARC
  5
3D3C
  8
0
  6
BYBLOCK
 62
     0
 10
10029.349629
 20
15291.486252000001
 30
0.0
 40
15.0
 50
90.0
 51
270.0
  0
ARC
  5
3D3D
  8
0
  6
BYBLOCK
 62
     0
 10
10029.349629
 20
15291.486252000001
 30
0.0
 40
15.0
 50
270.0
 51
90.0
  0
ARC
  5
3D3E
  8
0
  6
BYBLOCK
 62
     0
 10
10029.349629
 20
16750.486251999992
 30
0.0
 40
15.0
 50
270.0
 51
90.0
  0
ARC
  5
3D3F
  8
0
  6
BYBLOCK
 62
     0
 10
10029.349629
 20
16750.486251999992
 30
0.0
 40
15.0
 50
90.0
 51
270.0
  0
ARC
  5
3D40
  8
0
  6
BYBLOCK
 62
     0
 10
10029.349629
 20
13832.486252000001
 30
0.0
 40
15.0
 50
90.0
 51
270.0
  0
ARC
  5
3D41
  8
0
  6
BYBLOCK
 62
     0
 10
10029.349629
 20
13832.486252000001
 30
0.0
 40
15.0
 50
270.0
 51
90.0
  0
ARC
  5
3D42
  8
0
  6
BYBLOCK
 62
     0
 10
10029.349629
 20
15291.486252000001
 30
0.0
 40
15.0
 50
270.0
 51
90.0
  0
ARC
  5
3D43
  8
0
  6
BYBLOCK
 62
     0
 10
10029.349629
 20
15291.486252000001
 30
0.0
 40
15.0
 50
90.0
 51
270.0
  0
ARC
  5
3D44
  8
0
  6
BYBLOCK
 62
     0
 10
10029.349629
 20
13832.486252000001
 30
0.0
 40
15.0
 50
90.0
 51
270.0
  0
ARC
  5
3D45
  8
0
  6
BYBLOCK
 62
     0
 10
10029.349629
 20
13832.486252000001
 30
0.0
 40
15.0
 50
270.0
 51
90.0
  0
ARC
  5
3D46
  8
0
  6
BYBLOCK
 62
     0
 10
10029.349629
 20
13639.990937
 30
0.0
 40
15.0
 50
270.0
 51
90.0
  0
ARC
  5
3D47
  8
0
  6
BYBLOCK
 62
     0
 10
10029.349629
 20
13639.990937
 30
0.0
 40
15.0
 50
90.0
 51
270.0
  0
ARC
  5
3D48
  8
0
  6
BYBLOCK
 62
     0
 10
14227.353858
 20
20440.987440000012
 30
0.0
 40
15.0
 50
180.0
 51
0.0
  0
ARC
  5
3D49
  8
0
  6
BYBLOCK
 62
     0
 10
14227.353858
 20
20440.987440000012
 30
0.0
 40
15.0
 50
0.0
 51
180.0
  0
ARC
  5
3D4A
  8
0
  6
BYBLOCK
 62
     0
 10
14312.853858
 20
20440.987440000012
 30
0.0
 40
15.0
 50
0.0
 51
180.0
  0
ARC
  5
3D4B
  8
0
  6
BYBLOCK
 62
     0
 10
14312.853858
 20
20440.987440000012
 30
0.0
 40
15.0
 50
180.0
 51
0.0
  0
ARC
  5
3D4C
  8
0
  6
BYBLOCK
 62
     0
 10
10958.853858
 20
20440.987440000012
 30
0.0
 40
15.0
 50
0.0
 51
180.0
  0
ARC
  5
3D4D
  8
0
  6
BYBLOCK
 62
     0
 10
10958.853858
 20
20440.987440000012
 30
0.0
 40
15.0
 50
180.0
 51
0.0
  0
ARC
  5
3D4E
  8
0
  6
BYBLOCK
 62
     0
 10
10873.353858
 20
20440.987440000012
 30
0.0
 40
15.0
 50
180.0
 51
0.0
  0
ARC
  5
3D4F
  8
0
  6
BYBLOCK
 62
     0
 10
10873.353858
 20
20440.987440000012
 30
0.0
 40
15.0
 50
0.0
 51
180.0
  0
ARC
  5
3D50
  8
0
  6
BYBLOCK
 62
     0
 10
14227.353858
 20
20440.987440000012
 30
0.0
 40
15.0
 50
180.0
 51
0.0
  0
ARC
  5
3D51
  8
0
  6
BYBLOCK
 62
     0
 10
14227.353858
 20
20440.987440000012
 30
0.0
 40
15.0
 50
0.0
 51
180.0
  0
ARC
  5
3D52
  8
0
  6
BYBLOCK
 62
     0
 10
10958.853858
 20
20440.987440000012
 30
0.0
 40
15.0
 50
0.0
 51
180.0
  0
ARC
  5
3D53
  8
0
  6
BYBLOCK
 62
     0
 10
10958.853858
 20
20440.987440000012
 30
0.0
 40
15.0
 50
180.0
 51
0.0
  0
ARC
  5
3D54
  8
0
  6
BYBLOCK
 62
     0
 10
19829.312182000001
 20
6567.9237529999991
 30
0.0
 40
15.0
 50
90.0
 51
270.0
  0
ARC
  5
3D55
  8
0
  6
BYBLOCK
 62
     0
 10
19829.312182000001
 20
6567.9237529999991
 30
0.0
 40
15.0
 50
270.0
 51
90.0
  0
ARC
  5
3D56
  8
0
  6
BYBLOCK
 62
     0
 10
19829.312182000001
 20
8459.4237530000028
 30
0.0
 40
15.0
 50
270.0
 51
90.0
  0
ARC
  5
3D57
  8
0
  6
BYBLOCK
 62
     0
 10
19829.312182000001
 20
8459.4237530000028
 30
0.0
 40
15.0
 50
90.0
 51
270.0
  0
ARC
  5
3D58
  8
0
  6
BYBLOCK
 62
     0
 10
19429.309872999998
 20
6567.9237529999991
 30
0.0
 40
15.0
 50
90.0
 51
270.0
  0
ARC
  5
3D59
  8
0
  6
BYBLOCK
 62
     0
 10
19429.309872999998
 20
6567.9237529999991
 30
0.0
 40
15.0
 50
270.0
 51
90.0
  0
ARC
  5
3D5A
  8
0
  6
BYBLOCK
 62
     0
 10
19429.309872999998
 20
8916.4237789999952
 30
0.0
 40
15.0
 50
270.0
 51
90.0
  0
ARC
  5
3D5B
  8
0
  6
BYBLOCK
 62
     0
 10
19429.309872999998
 20
8916.4237789999952
 30
0.0
 40
15.0
 50
90.0
 51
270.0
  0
ARC
  5
3D6C
  8
0
  6
BYBLOCK
 62
     0
 10
23947.813502000001
 20
5267.9239180000041
 30
0.0
 40
15.0
 50
180.0
 51
0.0
  0
ARC
  5
3D6D
  8
0
  6
BYBLOCK
 62
     0
 10
23947.813502000001
 20
5267.9239180000041
 30
0.0
 40
15.0
 50
0.0
 51
180.0
  0
ARC
  5
3D6E
  8
0
  6
BYBLOCK
 62
     0
 10
23990.313502000001
 20
5267.9239180000041
 30
0.0
 40
15.0
 50
0.0
 51
180.0
  0
ARC
  5
3D6F
  8
0
  6
BYBLOCK
 62
     0
 10
23990.313502000001
 20
5267.9239180000041
 30
0.0
 40
15.0
 50
180.0
 51
0.0
  0
ARC
  5
3D70
  8
0
  6
BYBLOCK
 62
     0
 10
20773.313502000001
 20
5667.9239180000041
 30
0.0
 40
15.0
 50
0.0
 51
180.0
  0
ARC
  5
3D71
  8
0
  6
BYBLOCK
 62
     0
 10
20773.313502000001
 20
5667.9239180000041
 30
0.0
 40
15.0
 50
180.0
 51
0.0
  0
ARC
  5
3D72
  8
0
  6
BYBLOCK
 62
     0
 10
23853.813502000001
 20
5667.9239180000041
 30
0.0
 40
15.0
 50
180.0
 51
0.0
  0
ARC
  5
3D73
  8
0
  6
BYBLOCK
 62
     0
 10
23853.813502000001
 20
5667.9239180000041
 30
0.0
 40
15.0
 50
0.0
 51
180.0
  0
ARC
  5
3D74
  8
0
  6
BYBLOCK
 62
     0
 10
20679.313502000001
 20
5267.9239180000041
 30
0.0
 40
15.0
 50
0.0
 51
180.0
  0
ARC
  5
3D75
  8
0
  6
BYBLOCK
 62
     0
 10
20679.313502000001
 20
5267.9239180000041
 30
0.0
 40
15.0
 50
180.0
 51
0.0
  0
ARC
  5
3D76
  8
0
  6
BYBLOCK
 62
     0
 10
23947.813502000001
 20
5267.9239180000041
 30
0.0
 40
15.0
 50
180.0
 51
0.0
  0
ARC
  5
3D77
  8
0
  6
BYBLOCK
 62
     0
 10
23947.813502000001
 20
5267.9239180000041
 30
0.0
 40
15.0
 50
0.0
 51
180.0
  0
ARC
  5
3D78
  8
0
  6
BYBLOCK
 62
     0
 10
20679.313502000001
 20
5267.9239180000041
 30
0.0
 40
15.0
 50
0.0
 51
180.0
  0
ARC
  5
3D79
  8
0
  6
BYBLOCK
 62
     0
 10
20679.313502000001
 20
5267.9239180000041
 30
0.0
 40
15.0
 50
180.0
 51
0.0
  0
ARC
  5
3D7A
  8
0
  6
BYBLOCK
 62
     0
 10
20636.81350199999
 20
5267.9239180000041
 30
0.0
 40
15.0
 50
180.0
 51
0.0
  0
ARC
  5
3D7B
  8
0
  6
BYBLOCK
 62
     0
 10
20636.81350199999
 20
5267.9239180000041
 30
0.0
 40
15.0
 50
0.0
 51
180.0
  0
ARC
  5
3D7C
  8
0
  6
BYBLOCK
 62
     0
 10
20636.81350199999
 20
4867.9240830000008
 30
0.0
 40
15.0
 50
0.0
 51
180.0
  0
ARC
  5
3D7D
  8
0
  6
BYBLOCK
 62
     0
 10
20636.81350199999
 20
4867.9240830000008
 30
0.0
 40
15.0
 50
180.0
 51
0.0
  0
ARC
  5
3D7E
  8
0
  6
BYBLOCK
 62
     0
 10
23990.313502000001
 20
4867.9240830000008
 30
0.0
 40
15.0
 50
180.0
 51
0.0
  0
ARC
  5
3D7F
  8
0
  6
BYBLOCK
 62
     0
 10
23990.313502000001
 20
4867.9240830000008
 30
0.0
 40
15.0
 50
0.0
 51
180.0
  0
ARC
  5
3D80
  8
0
  6
BYBLOCK
 62
     0
 10
9473.5669209999905
 20
10115.922293999991
 30
0.0
 40
15.0
 50
0.0
 51
180.0
  0
ARC
  5
3D81
  8
0
  6
BYBLOCK
 62
     0
 10
9473.5669209999905
 20
10115.922293999991
 30
0.0
 40
15.0
 50
180.0
 51
0.0
  0
ARC
  5
3D82
  8
0
  6
BYBLOCK
 62
     0
 10
15724.566920999991
 20
10115.922293999991
 30
0.0
 40
15.0
 50
180.0
 51
0.0
  0
ARC
  5
3D83
  8
0
  6
BYBLOCK
 62
     0
 10
15724.566920999991
 20
10115.922293999991
 30
0.0
 40
15.0
 50
0.0
 51
180.0
  0
ARC
  5
3D84
  8
0
  6
BYBLOCK
 62
     0
 10
15574.568173999991
 20
9715.9239440000001
 30
0.0
 40
15.0
 50
180.0
 51
0.0
  0
ARC
  5
3D85
  8
0
  6
BYBLOCK
 62
     0
 10
15574.568173999991
 20
9715.9239440000001
 30
0.0
 40
15.0
 50
0.0
 51
180.0
  0
ARC
  5
3D86
  8
0
  6
BYBLOCK
 62
     0
 10
15724.566920999991
 20
9715.9239440000001
 30
0.0
 40
15.0
 50
0.0
 51
180.0
  0
ARC
  5
3D87
  8
0
  6
BYBLOCK
 62
     0
 10
15724.566920999991
 20
9715.9239440000001
 30
0.0
 40
15.0
 50
180.0
 51
0.0
  0
ARC
  5
3D88
  8
0
  6
BYBLOCK
 62
     0
 10
9653.565666999988
 20
9715.9239440000001
 30
0.0
 40
15.0
 50
0.0
 51
180.0
  0
ARC
  5
3D89
  8
0
  6
BYBLOCK
 62
     0
 10
9653.565666999988
 20
9715.9239440000001
 30
0.0
 40
15.0
 50
180.0
 51
0.0
  0
ARC
  5
3D8A
  8
0
  6
BYBLOCK
 62
     0
 10
15574.568173999991
 20
9715.9239440000001
 30
0.0
 40
15.0
 50
180.0
 51
0.0
  0
ARC
  5
3D8B
  8
0
  6
BYBLOCK
 62
     0
 10
15574.568173999991
 20
9715.9239440000001
 30
0.0
 40
15.0
 50
0.0
 51
180.0
  0
ARC
  5
3D8C
  8
0
  6
BYBLOCK
 62
     0
 10
9473.5669209999905
 20
9715.9239439999983
 30
0.0
 40
15.0
 50
180.0
 51
0.0
  0
ARC
  5
3D8D
  8
0
  6
BYBLOCK
 62
     0
 10
9473.5669209999905
 20
9715.9239439999983
 30
0.0
 40
15.0
 50
0.0
 51
180.0
  0
ARC
  5
3D8E
  8
0
  6
BYBLOCK
 62
     0
 10
9653.565666999988
 20
9715.9239439999983
 30
0.0
 40
15.0
 50
0.0
 51
180.0
  0
ARC
  5
3D8F
  8
0
  6
BYBLOCK
 62
     0
 10
9653.565666999988
 20
9715.9239439999983
 30
0.0
 40
15.0
 50
180.0
 51
0.0
  0
ARC
  5
3D90
  8
0
  6
BYBLOCK
 62
     0
 10
8563.5685029999859
 20
6567.9232579999989
 30
0.0
 40
15.0
 50
90.0
 51
270.0
  0
ARC
  5
3D91
  8
0
  6
BYBLOCK
 62
     0
 10
8563.5685029999859
 20
6567.9232579999989
 30
0.0
 40
15.0
 50
270.0
 51
90.0
  0
ARC
  5
3D92
  8
0
  6
BYBLOCK
 62
     0
 10
8563.5685029999859
 20
8724.4232579999989
 30
0.0
 40
15.0
 50
270.0
 51
90.0
  0
ARC
  5
3D93
  8
0
  6
BYBLOCK
 62
     0
 10
8563.5685029999859
 20
8724.4232579999989
 30
0.0
 40
15.0
 50
90.0
 51
270.0
  0
ARC
  5
3D94
  8
0
  6
BYBLOCK
 62
     0
 10
16664.56632599996
 20
6567.9232579999989
 30
0.0
 40
15.0
 50
90.0
 51
270.0
  0
ARC
  5
3D95
  8
0
  6
BYBLOCK
 62
     0
 10
16664.56632599996
 20
6567.9232579999989
 30
0.0
 40
15.0
 50
270.0
 51
90.0
  0
ARC
  5
3D96
  8
0
  6
BYBLOCK
 62
     0
 10
16664.56632599996
 20
8916.4232580000007
 30
0.0
 40
15.0
 50
270.0
 51
90.0
  0
ARC
  5
3D97
  8
0
  6
BYBLOCK
 62
     0
 10
16664.56632599996
 20
8916.4232580000007
 30
0.0
 40
15.0
 50
90.0
 51
270.0
  0
ARC
  5
3D98
  8
0
  6
BYBLOCK
 62
     0
 10
9653.5669209999924
 20
4867.9230930000012
 30
0.0
 40
15.0
 50
0.0
 51
180.0
  0
ARC
  5
3D99
  8
0
  6
BYBLOCK
 62
     0
 10
9653.5669209999924
 20
4867.9230930000012
 30
0.0
 40
15.0
 50
180.0
 51
0.0
  0
ARC
  5
3D9A
  8
0
  6
BYBLOCK
 62
     0
 10
15574.566920999991
 20
4867.9230930000012
 30
0.0
 40
15.0
 50
180.0
 51
0.0
  0
ARC
  5
3D9B
  8
0
  6
BYBLOCK
 62
     0
 10
15574.566920999991
 20
4867.9230930000012
 30
0.0
 40
15.0
 50
0.0
 51
180.0
  0
ARC
  5
3D9C
  8
0
  6
BYBLOCK
 62
     0
 10
15532.066920999991
 20
5267.922928
 30
0.0
 40
15.0
 50
180.0
 51
0.0
  0
ARC
  5
3D9D
  8
0
  6
BYBLOCK
 62
     0
 10
15532.066920999991
 20
5267.922928
 30
0.0
 40
15.0
 50
0.0
 51
180.0
  0
ARC
  5
3D9E
  8
0
  6
BYBLOCK
 62
     0
 10
15574.566920999991
 20
5267.922928
 30
0.0
 40
15.0
 50
0.0
 51
180.0
  0
ARC
  5
3D9F
  8
0
  6
BYBLOCK
 62
     0
 10
15574.566920999991
 20
5267.922928
 30
0.0
 40
15.0
 50
180.0
 51
0.0
  0
ARC
  5
3DA0
  8
0
  6
BYBLOCK
 62
     0
 10
9696.0669209999924
 20
5267.922928
 30
0.0
 40
15.0
 50
0.0
 51
180.0
  0
ARC
  5
3DA1
  8
0
  6
BYBLOCK
 62
     0
 10
9696.0669209999924
 20
5267.922928
 30
0.0
 40
15.0
 50
180.0
 51
0.0
  0
ARC
  5
3DA2
  8
0
  6
BYBLOCK
 62
     0
 10
9653.5669209999924
 20
5267.922928
 30
0.0
 40
15.0
 50
180.0
 51
0.0
  0
ARC
  5
3DA3
  8
0
  6
BYBLOCK
 62
     0
 10
9653.5669209999924
 20
5267.922928
 30
0.0
 40
15.0
 50
0.0
 51
180.0
  0
ARC
  5
3DA4
  8
0
  6
BYBLOCK
 62
     0
 10
12614.066920999991
 20
5267.922928
 30
0.0
 40
15.0
 50
180.0
 51
0.0
  0
ARC
  5
3DA5
  8
0
  6
BYBLOCK
 62
     0
 10
12614.066920999991
 20
5267.922928
 30
0.0
 40
15.0
 50
0.0
 51
180.0
  0
ARC
  5
3DA6
  8
0
  6
BYBLOCK
 62
     0
 10
9696.0669209999924
 20
5267.922928
 30
0.0
 40
15.0
 50
0.0
 51
180.0
  0
ARC
  5
3DA7
  8
0
  6
BYBLOCK
 62
     0
 10
9696.0669209999924
 20
5267.922928
 30
0.0
 40
15.0
 50
180.0
 51
0.0
  0
ARC
  5
3DA8
  8
0
  6
BYBLOCK
 62
     0
 10
12614.066920999991
 20
5267.922928
 30
0.0
 40
15.0
 50
0.0
 51
180.0
  0
ARC
  5
3DA9
  8
0
  6
BYBLOCK
 62
     0
 10
12614.066920999991
 20
5267.922928
 30
0.0
 40
15.0
 50
180.0
 51
0.0
  0
ARC
  5
3DAA
  8
0
  6
BYBLOCK
 62
     0
 10
15532.066920999991
 20
5267.922928
 30
0.0
 40
15.0
 50
180.0
 51
0.0
  0
ARC
  5
3DAB
  8
0
  6
BYBLOCK
 62
     0
 10
15532.066920999991
 20
5267.922928
 30
0.0
 40
15.0
 50
0.0
 51
180.0
  0
ARC
  5
3DAC
  8
0
  6
BYBLOCK
 62
     0
 10
19749.858925
 20
18209.486251999992
 30
0.0
 40
15.0
 50
90.0
 51
270.0
  0
ARC
  5
3DAD
  8
0
  6
BYBLOCK
 62
     0
 10
19749.858925
 20
18209.486251999992
 30
0.0
 40
15.0
 50
270.0
 51
90.0
  0
ARC
  5
3DAE
  8
0
  6
BYBLOCK
 62
     0
 10
19749.858925
 20
19668.486251999992
 30
0.0
 40
15.0
 50
270.0
 51
90.0
  0
ARC
  5
3DAF
  8
0
  6
BYBLOCK
 62
     0
 10
19749.858925
 20
19668.486251999992
 30
0.0
 40
15.0
 50
90.0
 51
270.0
  0
ARC
  5
3DB0
  8
0
  6
BYBLOCK
 62
     0
 10
19749.858925
 20
16750.486251999992
 30
0.0
 40
15.0
 50
90.0
 51
270.0
  0
ARC
  5
3DB1
  8
0
  6
BYBLOCK
 62
     0
 10
19749.858925
 20
16750.486251999992
 30
0.0
 40
15.0
 50
270.0
 51
90.0
  0
ARC
  5
3DB2
  8
0
  6
BYBLOCK
 62
     0
 10
19749.858925
 20
18209.486251999992
 30
0.0
 40
15.0
 50
270.0
 51
90.0
  0
ARC
  5
3DB3
  8
0
  6
BYBLOCK
 62
     0
 10
19749.858925
 20
18209.486251999992
 30
0.0
 40
15.0
 50
90.0
 51
270.0
  0
ARC
  5
3DB4
  8
0
  6
BYBLOCK
 62
     0
 10
19749.858925
 20
15291.72676350001
 30
0.0
 40
15.0
 50
90.0
 51
270.0
  0
ARC
  5
3DB5
  8
0
  6
BYBLOCK
 62
     0
 10
19749.858925
 20
15291.72676350001
 30
0.0
 40
15.0
 50
270.0
 51
90.0
  0
ARC
  5
3DB6
  8
0
  6
BYBLOCK
 62
     0
 10
19749.858925
 20
16750.486251999992
 30
0.0
 40
15.0
 50
270.0
 51
90.0
  0
ARC
  5
3DB7
  8
0
  6
BYBLOCK
 62
     0
 10
19749.858925
 20
16750.486251999992
 30
0.0
 40
15.0
 50
90.0
 51
270.0
  0
ARC
  5
3DB8
  8
0
  6
BYBLOCK
 62
     0
 10
19749.858925
 20
13832.486252000001
 30
0.0
 40
15.0
 50
90.0
 51
270.0
  0
ARC
  5
3DB9
  8
0
  6
BYBLOCK
 62
     0
 10
19749.858925
 20
13832.486252000001
 30
0.0
 40
15.0
 50
270.0
 51
90.0
  0
ARC
  5
3DBA
  8
0
  6
BYBLOCK
 62
     0
 10
19749.858925
 20
15291.72676350001
 30
0.0
 40
15.0
 50
270.0
 51
90.0
  0
ARC
  5
3DBB
  8
0
  6
BYBLOCK
 62
     0
 10
19749.858925
 20
15291.72676350001
 30
0.0
 40
15.0
 50
90.0
 51
270.0
  0
ARC
  5
3DBC
  8
0
  6
BYBLOCK
 62
     0
 10
20679.313502000001
 20
12861.038167999999
 30
0.0
 40
15.0
 50
0.0
 51
180.0
  0
ARC
  5
3DBD
  8
0
  6
BYBLOCK
 62
     0
 10
20679.313502000001
 20
12861.038167999999
 30
0.0
 40
15.0
 50
180.0
 51
0.0
  0
ARC
  5
3DBE
  8
0
  6
BYBLOCK
 62
     0
 10
20636.811258999998
 20
12861.038167999999
 30
0.0
 40
15.0
 50
180.0
 51
0.0
  0
ARC
  5
3DBF
  8
0
  6
BYBLOCK
 62
     0
 10
20636.811258999998
 20
12861.038167999999
 30
0.0
 40
15.0
 50
0.0
 51
180.0
  0
ARC
  5
3DC0
  8
0
  6
BYBLOCK
 62
     0
 10
23947.813502000001
 20
12861.038167999999
 30
0.0
 40
15.0
 50
180.0
 51
0.0
  0
ARC
  5
3DC1
  8
0
  6
BYBLOCK
 62
     0
 10
23947.813502000001
 20
12861.038167999999
 30
0.0
 40
15.0
 50
0.0
 51
180.0
  0
ARC
  5
3DC2
  8
0
  6
BYBLOCK
 62
     0
 10
23990.315744999989
 20
12861.038167999999
 30
0.0
 40
15.0
 50
0.0
 51
180.0
  0
ARC
  5
3DC3
  8
0
  6
BYBLOCK
 62
     0
 10
23990.315744999989
 20
12861.038167999999
 30
0.0
 40
15.0
 50
180.0
 51
0.0
  0
ARC
  5
3DC4
  8
0
  6
BYBLOCK
 62
     0
 10
23947.813502000001
 20
12861.038167999999
 30
0.0
 40
15.0
 50
0.0
 51
180.0
  0
ARC
  5
3DC5
  8
0
  6
BYBLOCK
 62
     0
 10
23947.813502000001
 20
12861.038167999999
 30
0.0
 40
15.0
 50
180.0
 51
0.0
  0
ARC
  5
3DC6
  8
0
  6
BYBLOCK
 62
     0
 10
23905.311258999991
 20
12861.038167999999
 30
0.0
 40
15.0
 50
180.0
 51
0.0
  0
ARC
  5
3DC7
  8
0
  6
BYBLOCK
 62
     0
 10
23905.311258999991
 20
12861.038167999999
 30
0.0
 40
15.0
 50
0.0
 51
180.0
  0
ARC
  5
3DC8
  8
0
  6
BYBLOCK
 62
     0
 10
20679.313502000001
 20
12861.038167999999
 30
0.0
 40
15.0
 50
180.0
 51
0.0
  0
ARC
  5
3DC9
  8
0
  6
BYBLOCK
 62
     0
 10
20679.313502000001
 20
12861.038167999999
 30
0.0
 40
15.0
 50
0.0
 51
180.0
  0
ARC
  5
3DCA
  8
0
  6
BYBLOCK
 62
     0
 10
20721.815745
 20
12861.038167999999
 30
0.0
 40
15.0
 50
0.0
 51
180.0
  0
ARC
  5
3DCB
  8
0
  6
BYBLOCK
 62
     0
 10
20721.815745
 20
12861.038167999999
 30
0.0
 40
15.0
 50
180.0
 51
0.0
  0
ARC
  5
3DCC
  8
0
  6
BYBLOCK
 62
     0
 10
20636.811258999998
 20
12461.038167999999
 30
0.0
 40
15.0
 50
0.0
 51
180.0
  0
ARC
  5
3DCD
  8
0
  6
BYBLOCK
 62
     0
 10
20636.811258999998
 20
12461.038167999999
 30
0.0
 40
15.0
 50
180.0
 51
0.0
  0
ARC
  5
3DCE
  8
0
  6
BYBLOCK
 62
     0
 10
23990.315744999989
 20
12461.038167999999
 30
0.0
 40
15.0
 50
180.0
 51
0.0
  0
ARC
  5
3DCF
  8
0
  6
BYBLOCK
 62
     0
 10
23990.315744999989
 20
12461.038167999999
 30
0.0
 40
15.0
 50
0.0
 51
180.0
  0
ARC
  5
3DD0
  8
0
  6
BYBLOCK
 62
     0
 10
25040.313106000001
 20
14590.486252000001
 30
0.0
 40
15.0
 50
270.0
 51
90.0
  0
ARC
  5
3DD1
  8
0
  6
BYBLOCK
 62
     0
 10
25040.313106000001
 20
14590.486252000001
 30
0.0
 40
15.0
 50
90.0
 51
270.0
  0
ARC
  5
3DD2
  8
0
  6
BYBLOCK
 62
     0
 10
25040.313106000001
 20
13832.486252000001
 30
0.0
 40
15.0
 50
90.0
 51
270.0
  0
ARC
  5
3DD3
  8
0
  6
BYBLOCK
 62
     0
 10
25040.313106000001
 20
13832.486252000001
 30
0.0
 40
15.0
 50
270.0
 51
90.0
  0
ARC
  5
3DD4
  8
0
  6
BYBLOCK
 62
     0
 10
25040.313106000001
 20
15291.72676350001
 30
0.0
 40
15.0
 50
270.0
 51
90.0
  0
ARC
  5
3DD5
  8
0
  6
BYBLOCK
 62
     0
 10
25040.313106000001
 20
15291.72676350001
 30
0.0
 40
15.0
 50
90.0
 51
270.0
  0
ARC
  5
3DD6
  8
0
  6
BYBLOCK
 62
     0
 10
25040.313106000001
 20
14590.486252000001
 30
0.0
 40
15.0
 50
90.0
 51
270.0
  0
ARC
  5
3DD7
  8
0
  6
BYBLOCK
 62
     0
 10
25040.313106000001
 20
14590.486252000001
 30
0.0
 40
15.0
 50
270.0
 51
90.0
  0
ARC
  5
3DD8
  8
0
  6
BYBLOCK
 62
     0
 10
25040.313106000001
 20
15992.486252000001
 30
0.0
 40
15.0
 50
270.0
 51
90.0
  0
ARC
  5
3DD9
  8
0
  6
BYBLOCK
 62
     0
 10
25040.313106000001
 20
15992.486252000001
 30
0.0
 40
15.0
 50
90.0
 51
270.0
  0
ARC
  5
3DDA
  8
0
  6
BYBLOCK
 62
     0
 10
25040.313106000001
 20
15291.72676350001
 30
0.0
 40
15.0
 50
90.0
 51
270.0
  0
ARC
  5
3DDB
  8
0
  6
BYBLOCK
 62
     0
 10
25040.313106000001
 20
15291.72676350001
 30
0.0
 40
15.0
 50
270.0
 51
90.0
  0
ARC
  5
3DDC
  8
0
  6
BYBLOCK
 62
     0
 10
25040.313106000001
 20
16750.486251999992
 30
0.0
 40
15.0
 50
270.0
 51
90.0
  0
ARC
  5
3DDD
  8
0
  6
BYBLOCK
 62
     0
 10
25040.313106000001
 20
16750.486251999992
 30
0.0
 40
15.0
 50
90.0
 51
270.0
  0
ARC
  5
3DDE
  8
0
  6
BYBLOCK
 62
     0
 10
25040.313106000001
 20
15992.486252000001
 30
0.0
 40
15.0
 50
90.0
 51
270.0
  0
ARC
  5
3DDF
  8
0
  6
BYBLOCK
 62
     0
 10
25040.313106000001
 20
15992.486252000001
 30
0.0
 40
15.0
 50
270.0
 51
90.0
  0
ARC
  5
3DE0
  8
0
  6
BYBLOCK
 62
     0
 10
25040.313106000001
 20
17508.486251999992
 30
0.0
 40
15.0
 50
270.0
 51
90.0
  0
ARC
  5
3DE1
  8
0
  6
BYBLOCK
 62
     0
 10
25040.313106000001
 20
17508.486251999992
 30
0.0
 40
15.0
 50
90.0
 51
270.0
  0
ARC
  5
3DE2
  8
0
  6
BYBLOCK
 62
     0
 10
25040.313106000001
 20
16750.486251999992
 30
0.0
 40
15.0
 50
90.0
 51
270.0
  0
ARC
  5
3DE3
  8
0
  6
BYBLOCK
 62
     0
 10
25040.313106000001
 20
16750.486251999992
 30
0.0
 40
15.0
 50
270.0
 51
90.0
  0
ARC
  5
3DE4
  8
0
  6
BYBLOCK
 62
     0
 10
25040.313106000001
 20
18209.486251999992
 30
0.0
 40
15.0
 50
270.0
 51
90.0
  0
ARC
  5
3DE5
  8
0
  6
BYBLOCK
 62
     0
 10
25040.313106000001
 20
18209.486251999992
 30
0.0
 40
15.0
 50
90.0
 51
270.0
  0
ARC
  5
3DE6
  8
0
  6
BYBLOCK
 62
     0
 10
25040.313106000001
 20
17508.486251999992
 30
0.0
 40
15.0
 50
90.0
 51
270.0
  0
ARC
  5
3DE7
  8
0
  6
BYBLOCK
 62
     0
 10
25040.313106000001
 20
17508.486251999992
 30
0.0
 40
15.0
 50
270.0
 51
90.0
  0
ARC
  5
3DE8
  8
0
  6
BYBLOCK
 62
     0
 10
25040.313106000001
 20
18910.486251999992
 30
0.0
 40
15.0
 50
270.0
 51
90.0
  0
ARC
  5
3DE9
  8
0
  6
BYBLOCK
 62
     0
 10
25040.313106000001
 20
18910.486251999992
 30
0.0
 40
15.0
 50
90.0
 51
270.0
  0
ARC
  5
3DEA
  8
0
  6
BYBLOCK
 62
     0
 10
25040.313106000001
 20
18209.486251999992
 30
0.0
 40
15.0
 50
90.0
 51
270.0
  0
ARC
  5
3DEB
  8
0
  6
BYBLOCK
 62
     0
 10
25040.313106000001
 20
18209.486251999992
 30
0.0
 40
15.0
 50
270.0
 51
90.0
  0
ARC
  5
3DEC
  8
0
  6
BYBLOCK
 62
     0
 10
25040.313106000001
 20
19668.486251999992
 30
0.0
 40
15.0
 50
270.0
 51
90.0
  0
ARC
  5
3DED
  8
0
  6
BYBLOCK
 62
     0
 10
25040.313106000001
 20
19668.486251999992
 30
0.0
 40
15.0
 50
90.0
 51
270.0
  0
ARC
  5
3DEE
  8
0
  6
BYBLOCK
 62
     0
 10
25040.313106000001
 20
18910.486251999992
 30
0.0
 40
15.0
 50
90.0
 51
270.0
  0
ARC
  5
3DEF
  8
0
  6
BYBLOCK
 62
     0
 10
25040.313106000001
 20
18910.486251999992
 30
0.0
 40
15.0
 50
270.0
 51
90.0
  0
ARC
  5
3DF0
  8
0
  6
BYBLOCK
 62
     0
 10
25440.313106000001
 20
16750.486251999992
 30
0.0
 40
15.0
 50
90.0
 51
270.0
  0
ARC
  5
3DF1
  8
0
  6
BYBLOCK
 62
     0
 10
25440.313106000001
 20
16750.486251999992
 30
0.0
 40
15.0
 50
270.0
 51
90.0
  0
ARC
  5
3DF2
  8
0
  6
BYBLOCK
 62
     0
 10
25440.313106000001
 20
19668.486251999992
 30
0.0
 40
15.0
 50
270.0
 51
90.0
  0
ARC
  5
3DF3
  8
0
  6
BYBLOCK
 62
     0
 10
25440.313106000001
 20
19668.486251999992
 30
0.0
 40
15.0
 50
90.0
 51
270.0
  0
ARC
  5
3DF4
  8
0
  6
BYBLOCK
 62
     0
 10
25440.313106000001
 20
13832.486252000001
 30
0.0
 40
15.0
 50
90.0
 51
270.0
  0
ARC
  5
3DF5
  8
0
  6
BYBLOCK
 62
     0
 10
25440.313106000001
 20
13832.486252000001
 30
0.0
 40
15.0
 50
270.0
 51
90.0
  0
ARC
  5
3DF6
  8
0
  6
BYBLOCK
 62
     0
 10
25440.313106000001
 20
16750.486251999992
 30
0.0
 40
15.0
 50
270.0
 51
90.0
  0
ARC
  5
3DF7
  8
0
  6
BYBLOCK
 62
     0
 10
25440.313106000001
 20
16750.486251999992
 30
0.0
 40
15.0
 50
90.0
 51
270.0
  0
ARC
  5
3DF8
  8
0
  6
BYBLOCK
 62
     0
 10
25840.313106000001
 20
19710.983546999982
 30
0.0
 40
15.0
 50
270.0
 51
90.0
  0
ARC
  5
3DF9
  8
0
  6
BYBLOCK
 62
     0
 10
25840.313106000001
 20
19710.983546999982
 30
0.0
 40
15.0
 50
90.0
 51
270.0
  0
ARC
  5
3DFA
  8
0
  6
BYBLOCK
 62
     0
 10
25840.313106000001
 20
13789.988957
 30
0.0
 40
15.0
 50
90.0
 51
270.0
  0
ARC
  5
3DFB
  8
0
  6
BYBLOCK
 62
     0
 10
25840.313106000001
 20
13789.988957
 30
0.0
 40
15.0
 50
270.0
 51
90.0
  0
ARC
  5
3DFC
  8
0
  6
BYBLOCK
 62
     0
 10
25440.313106000001
 20
19668.486251999992
 30
0.0
 40
15.0
 50
270.0
 51
90.0
  0
ARC
  5
3DFD
  8
0
  6
BYBLOCK
 62
     0
 10
25440.313106000001
 20
19668.486251999992
 30
0.0
 40
15.0
 50
90.0
 51
270.0
  0
ARC
  5
3DFE
  8
0
  6
BYBLOCK
 62
     0
 10
25440.313106000001
 20
19710.983546999982
 30
0.0
 40
15.0
 50
90.0
 51
270.0
  0
ARC
  5
3DFF
  8
0
  6
BYBLOCK
 62
     0
 10
25440.313106000001
 20
19710.983546999982
 30
0.0
 40
15.0
 50
270.0
 51
90.0
  0
ARC
  5
3E00
  8
0
  6
BYBLOCK
 62
     0
 10
25440.313106000001
 20
13832.486252000001
 30
0.0
 40
15.0
 50
90.0
 51
270.0
  0
ARC
  5
3E01
  8
0
  6
BYBLOCK
 62
     0
 10
25440.313106000001
 20
13832.486252000001
 30
0.0
 40
15.0
 50
270.0
 51
90.0
  0
ARC
  5
3E02
  8
0
  6
BYBLOCK
 62
     0
 10
25440.313106000001
 20
13789.988957
 30
0.0
 40
15.0
 50
270.0
 51
90.0
  0
ARC
  5
3E03
  8
0
  6
BYBLOCK
 62
     0
 10
25440.313106000001
 20
13789.988957
 30
0.0
 40
15.0
 50
90.0
 51
270.0
  0
ARC
  5
3E04
  8
0
  6
BYBLOCK
 62
     0
 10
20679.313502000001
 20
20440.987440000012
 30
0.0
 40
15.0
 50
180.0
 51
0.0
  0
ARC
  5
3E05
  8
0
  6
BYBLOCK
 62
     0
 10
20679.313502000001
 20
20440.987440000012
 30
0.0
 40
15.0
 50
0.0
 51
180.0
  0
ARC
  5
3E06
  8
0
  6
BYBLOCK
 62
     0
 10
21086.813502000001
 20
20440.987440000012
 30
0.0
 40
15.0
 50
0.0
 51
180.0
  0
ARC
  5
3E07
  8
0
  6
BYBLOCK
 62
     0
 10
21086.813502000001
 20
20440.987440000012
 30
0.0
 40
15.0
 50
180.0
 51
0.0
  0
ARC
  5
3E08
  8
0
  6
BYBLOCK
 62
     0
 10
23189.813502000001
 20
20440.987440000012
 30
0.0
 40
15.0
 50
0.0
 51
180.0
  0
ARC
  5
3E09
  8
0
  6
BYBLOCK
 62
     0
 10
23189.813502000001
 20
20440.987440000012
 30
0.0
 40
15.0
 50
180.0
 51
0.0
  0
ARC
  5
3E0A
  8
0
  6
BYBLOCK
 62
     0
 10
23947.814491500001
 20
20440.987440000012
 30
0.0
 40
15.0
 50
180.0
 51
0.0
  0
ARC
  5
3E0B
  8
0
  6
BYBLOCK
 62
     0
 10
23947.814491500001
 20
20440.987440000012
 30
0.0
 40
15.0
 50
0.0
 51
180.0
  0
ARC
  5
3E0C
  8
0
  6
BYBLOCK
 62
     0
 10
22488.813502000001
 20
20440.987440000012
 30
0.0
 40
15.0
 50
0.0
 51
180.0
  0
ARC
  5
3E0D
  8
0
  6
BYBLOCK
 62
     0
 10
22488.813502000001
 20
20440.987440000012
 30
0.0
 40
15.0
 50
180.0
 51
0.0
  0
ARC
  5
3E0E
  8
0
  6
BYBLOCK
 62
     0
 10
23189.813502000001
 20
20440.987440000012
 30
0.0
 40
15.0
 50
180.0
 51
0.0
  0
ARC
  5
3E0F
  8
0
  6
BYBLOCK
 62
     0
 10
23189.813502000001
 20
20440.987440000012
 30
0.0
 40
15.0
 50
0.0
 51
180.0
  0
ARC
  5
3E10
  8
0
  6
BYBLOCK
 62
     0
 10
21787.813502000001
 20
20440.987440000012
 30
0.0
 40
15.0
 50
0.0
 51
180.0
  0
ARC
  5
3E11
  8
0
  6
BYBLOCK
 62
     0
 10
21787.813502000001
 20
20440.987440000012
 30
0.0
 40
15.0
 50
180.0
 51
0.0
  0
ARC
  5
3E12
  8
0
  6
BYBLOCK
 62
     0
 10
22488.813502000001
 20
20440.987440000012
 30
0.0
 40
15.0
 50
180.0
 51
0.0
  0
ARC
  5
3E13
  8
0
  6
BYBLOCK
 62
     0
 10
22488.813502000001
 20
20440.987440000012
 30
0.0
 40
15.0
 50
0.0
 51
180.0
  0
ARC
  5
3E14
  8
0
  6
BYBLOCK
 62
     0
 10
21086.813502000001
 20
20440.987440000012
 30
0.0
 40
15.0
 50
0.0
 51
180.0
  0
ARC
  5
3E15
  8
0
  6
BYBLOCK
 62
     0
 10
21086.813502000001
 20
20440.987440000012
 30
0.0
 40
15.0
 50
180.0
 51
0.0
  0
ARC
  5
3E16
  8
0
  6
BYBLOCK
 62
     0
 10
21787.813502000001
 20
20440.987440000012
 30
0.0
 40
15.0
 50
180.0
 51
0.0
  0
ARC
  5
3E17
  8
0
  6
BYBLOCK
 62
     0
 10
21787.813502000001
 20
20440.987440000012
 30
0.0
 40
15.0
 50
0.0
 51
180.0
  0
ARC
  5
3E18
  8
0
  6
BYBLOCK
 62
     0
 10
23947.813502000001
 20
20440.987440000012
 30
0.0
 40
15.0
 50
180.0
 51
0.0
  0
ARC
  5
3E19
  8
0
  6
BYBLOCK
 62
     0
 10
23947.813502000001
 20
20440.987440000012
 30
0.0
 40
15.0
 50
0.0
 51
180.0
  0
ARC
  5
3E1A
  8
0
  6
BYBLOCK
 62
     0
 10
23990.309807000001
 20
20440.987440000012
 30
0.0
 40
15.0
 50
0.0
 51
180.0
  0
ARC
  5
3E1B
  8
0
  6
BYBLOCK
 62
     0
 10
23990.309807000001
 20
20440.987440000012
 30
0.0
 40
15.0
 50
180.0
 51
0.0
  0
ARC
  5
3E1C
  8
0
  6
BYBLOCK
 62
     0
 10
20679.313502000001
 20
20440.987440000012
 30
0.0
 40
15.0
 50
0.0
 51
180.0
  0
ARC
  5
3E1D
  8
0
  6
BYBLOCK
 62
     0
 10
20679.313502000001
 20
20440.987440000012
 30
0.0
 40
15.0
 50
180.0
 51
0.0
  0
ARC
  5
3E1E
  8
0
  6
BYBLOCK
 62
     0
 10
20636.817196999989
 20
20440.987440000012
 30
0.0
 40
15.0
 50
180.0
 51
0.0
  0
ARC
  5
3E1F
  8
0
  6
BYBLOCK
 62
     0
 10
20636.817196999989
 20
20440.987440000012
 30
0.0
 40
15.0
 50
0.0
 51
180.0
  0
LINE
  5
3F2C
  8
0-1
  6
CONTINUOUS
 62
     3
 10
20721.809807000001
 20
8652.4241219999985
 30
0.0
 11
23905.313237999992
 21
8652.4241219999985
 31
0.0
  0
LINE
  5
3F2D
  8
0-1
  6
CONTINUOUS
 62
     3
 10
20593.813107000009
 20
8590.2380409999969
 30
0.0
 11
20593.813107000009
 21
8915.9237789999934
 31
0.0
  0
LINE
  5
3F2E
  8
0-1
  6
CONTINUOUS
 62
     3
 10
24033.311918999989
 20
8785.9238449999921
 30
0.0
 11
20593.813107000009
 21
8785.9238449999921
 31
0.0
  0
LINE
  5
3F2F
  8
0-1
  6
CONTINUOUS
 62
     3
 10
24033.311918999989
 20
8915.9237789999934
 30
0.0
 11
24033.311918999989
 21
8590.2380409999969
 31
0.0
  0
LINE
  5
3F30
  8
0-1
  6
CONTINUOUS
 62
     3
 10
20593.813107000009
 20
8915.9237789999934
 30
0.0
 11
24033.311918999989
 21
8915.9237789999934
 31
0.0
  0
LINE
  5
3F31
  8
0-1
  6
CONTINUOUS
 62
     3
 10
24033.311918999989
 20
8590.2380409999969
 30
0.0
 11
23990.311786999999
 21
8590.2380409999969
 31
0.0
  0
LINE
  5
3F32
  8
0-1
  6
CONTINUOUS
 62
     3
 10
20593.813107000009
 20
8590.2380409999969
 30
0.0
 11
20636.811259000009
 21
8590.2380409999969
 31
0.0
  0
LINE
  5
3F33
  8
0-1
  6
CONTINUOUS
 62
     3
 10
20747.812763000009
 20
8661.4244990000043
 30
0.0
 11
21025.242292999999
 21
8661.4244990000043
 31
0.0
  0
LINE
  5
3F34
  8
0-1
  6
CONTINUOUS
 62
     3
 10
20747.812763000009
 20
8703.4239439999983
 30
0.0
 11
21057.239231
 21
8703.4239439999983
 31
0.0
  0
LINE
  5
3F35
  8
0-1
  6
CONTINUOUS
 62
     3
 10
20742.812499999989
 20
8666.4242679999988
 30
0.0
 11
20742.812499999989
 21
8698.4246699999985
 31
0.0
  0
LINE
  5
3F36
  8
0-1
  6
CONTINUOUS
 62
     3
 10
20721.809807000001
 20
8712.4238259999984
 30
0.0
 11
23905.313237999992
 21
8712.4238259999984
 31
0.0
  0
LINE
  5
3F37
  8
0-1
  6
CONTINUOUS
 62
     3
 10
21028.775733000009
 20
8662.8883529999966
 30
0.0
 11
21060.77663099999
 21
8694.8887549999981
 31
0.0
  0
LINE
  5
3F38
  8
0-1
  6
CONTINUOUS
 62
     3
 10
20742.812499999989
 20
8695.0243519999985
 30
0.0
 11
21060.905298999998
 21
8695.0243519999985
 31
0.0
  0
LINE
  5
3F39
  8
0-1
  6
CONTINUOUS
 62
     3
 10
20742.812499999989
 20
8686.6242649999967
 30
0.0
 11
21052.512140999999
 21
8686.6242649999967
 31
0.0
  0
LINE
  5
3F3A
  8
0-1
  6
CONTINUOUS
 62
     3
 10
20742.812499999989
 20
8678.2246729999988
 30
0.0
 11
21044.113043000008
 21
8678.2246729999988
 31
0.0
  0
LINE
  5
3F3B
  8
0-1
  6
CONTINUOUS
 62
     3
 10
20742.812499999989
 20
8669.824585999997
 30
0.0
 11
21035.709987000009
 21
8669.824585999997
 31
0.0
  0
LINE
  5
3F3C
  8
0-1
  6
CONTINUOUS
 62
     3
 10
23884.31252599998
 20
8695.0243519999985
 30
0.0
 11
23566.219725999999
 21
8695.0243519999985
 31
0.0
  0
LINE
  5
3F3D
  8
0-1
  6
CONTINUOUS
 62
     3
 10
23884.31252599998
 20
8686.6242649999967
 30
0.0
 11
23574.614863999999
 21
8686.6242649999967
 31
0.0
  0
LINE
  5
3F3E
  8
0-1
  6
CONTINUOUS
 62
     3
 10
23884.31252599998
 20
8678.2246729999988
 30
0.0
 11
23583.01396099999
 21
8678.2246729999988
 31
0.0
  0
LINE
  5
3F3F
  8
0-1
  6
CONTINUOUS
 62
     3
 10
23884.31252599998
 20
8669.824585999997
 30
0.0
 11
23591.413058999991
 21
8669.824585999997
 31
0.0
  0
LINE
  5
3F40
  8
0-1
  6
CONTINUOUS
 62
     3
 10
23879.312261999999
 20
8703.4239439999983
 30
0.0
 11
23569.88579399998
 21
8703.4239439999983
 31
0.0
  0
LINE
  5
3F41
  8
0-1
  6
CONTINUOUS
 62
     3
 10
23879.312261999999
 20
8661.4244990000043
 30
0.0
 11
23601.882732999991
 21
8661.4244990000043
 31
0.0
  0
LINE
  5
3F42
  8
0-1
  6
CONTINUOUS
 62
     3
 10
23884.31252599998
 20
8666.4242679999988
 30
0.0
 11
23884.31252599998
 21
8698.4246699999985
 31
0.0
  0
LINE
  5
3F43
  8
0-1
  6
CONTINUOUS
 62
     3
 10
23598.347311999991
 20
8662.8883529999966
 30
0.0
 11
23566.350374000001
 21
8694.8887549999981
 31
0.0
  0
ARC
  5
3F44
  8
0-1
  6
CONTINUOUS
 62
     3
 10
20747.812763000009
 20
8698.4246699999985
 30
0.0
 40
5.0
 50
90.0
 51
180.0
  0
ARC
  5
3F45
  8
0-1
  6
CONTINUOUS
 62
     3
 10
20747.812763000009
 20
8666.4242679999988
 30
0.0
 40
5.0
 50
180.0
 51
269.9999850001808
  0
ARC
  5
3F46
  8
0-1
  6
CONTINUOUS
 62
     3
 10
21025.242292999999
 20
8666.4242679999988
 30
0.0
 40
5.0
 50
269.9999850001808
 51
314.99998500027471
  0
ARC
  5
3F47
  8
0-1
  6
CONTINUOUS
 62
     3
 10
21057.239231
 20
8698.4246699999985
 30
0.0
 40
5.0
 50
314.99998500027471
 51
90.0
  0
ARC
  5
3F48
  8
0-1
  6
CONTINUOUS
 62
     3
 10
23879.312261999999
 20
8666.4242679999988
 30
0.0
 40
5.0
 50
269.9999850001808
 51
0.0
  0
ARC
  5
3F49
  8
0-1
  6
CONTINUOUS
 62
     3
 10
23879.312261999999
 20
8698.4246699999985
 30
0.0
 40
5.0
 50
0.0
 51
90.0
  0
ARC
  5
3F4A
  8
0-1
  6
CONTINUOUS
 62
     3
 10
23569.88579399998
 20
8698.4246699999985
 30
0.0
 40
5.0
 50
90.0
 51
224.99998499997989
  0
ARC
  5
3F4B
  8
0-1
  6
CONTINUOUS
 62
     3
 10
23601.882732999991
 20
8666.4242679999988
 30
0.0
 40
5.0
 50
224.99998499997989
 51
269.9999850001808
  0
LINE
  5
3F4C
  8
SUNPOU
  6
CONTINUOUS
 62
     4
 10
23990.313765999981
 20
8995.9237789999916
 30
0.0
 11
23990.313765999981
 21
9795.4236209999963
 31
0.0
  0
LINE
  5
3F4D
  8
SUNPOU
  6
CONTINUOUS
 62
     4
 10
24033.315876999972
 20
8995.9237789999916
 30
0.0
 11
24033.315876999972
 21
9795.4236209999963
 31
0.0
  0
LINE
  5
3F4E
  8
SUNPOU
  6
CONTINUOUS
 62
     4
 10
23990.313765999981
 20
9715.4236209999926
 30
0.0
 11
23750.313765999981
 21
9715.4236209999926
 31
0.0
  0
LINE
  5
3F4F
  8
SUNPOU
  6
CONTINUOUS
 62
     4
 10
24030.315876999972
 20
9715.4236209999926
 30
0.0
 11
24270.315876999972
 21
9715.4236209999926
 31
0.0
  0
LINE
  5
3F50
  8
SUNPOU
  6
CONTINUOUS
 62
     4
 10
23990.313765999981
 20
9715.4236209999926
 30
0.0
 11
24030.315876999972
 21
9715.4236209999926
 31
0.0
  0
LINE
  5
3F51
  8
SUNPOU
  6
CONTINUOUS
 62
     4
 10
20593.811127000019
 20
8995.9237789999916
 30
0.0
 11
20593.811127000019
 21
10195.381391000001
 31
0.0
  0
LINE
  5
3F52
  8
SUNPOU
  6
CONTINUOUS
 62
     4
 10
24033.315876999972
 20
8995.9237789999916
 30
0.0
 11
24033.315876999972
 21
10195.381391000001
 31
0.0
  0
LINE
  5
3F53
  8
SUNPOU
  6
CONTINUOUS
 62
     4
 10
20596.811127000019
 20
10115.38139099999
 30
0.0
 11
24030.315876999972
 21
10115.38139099999
 31
0.0
  0
LINE
  5
3F54
  8
SUNPOU
  6
CONTINUOUS
 62
     4
 10
20636.81323800001
 20
8995.9237789999916
 30
0.0
 11
20636.81323800001
 21
9795.4236209999963
 31
0.0
  0
LINE
  5
3F55
  8
SUNPOU
  6
CONTINUOUS
 62
     4
 10
23990.313765999981
 20
8995.9237789999916
 30
0.0
 11
23990.313765999981
 21
9795.4236209999963
 31
0.0
  0
LINE
  5
3F56
  8
SUNPOU
  6
CONTINUOUS
 62
     4
 10
20636.81323800001
 20
9715.4236209999926
 30
0.0
 11
23990.313765999981
 21
9715.4236209999926
 31
0.0
  0
LINE
  5
3F57
  8
SUNPOU
  6
CONTINUOUS
 62
     4
 10
20636.81323800001
 20
8995.9237789999916
 30
0.0
 11
20636.81323800001
 21
9795.4236209999963
 31
0.0
  0
LINE
  5
3F58
  8
SUNPOU
  6
CONTINUOUS
 62
     4
 10
20593.811127000019
 20
8995.9237789999916
 30
0.0
 11
20593.811127000019
 21
9795.4236209999963
 31
0.0
  0
LINE
  5
3F59
  8
SUNPOU
  6
CONTINUOUS
 62
     4
 10
20636.81323800001
 20
9715.4236209999926
 30
0.0
 11
20876.813237999999
 21
9715.4236209999926
 31
0.0
  0
LINE
  5
3F5A
  8
SUNPOU
  6
CONTINUOUS
 62
     4
 10
20596.811127000019
 20
9715.4236209999926
 30
0.0
 11
20356.811127000019
 21
9715.4236209999926
 31
0.0
  0
LINE
  5
3F5B
  8
SUNPOU
  6
CONTINUOUS
 62
     4
 10
20636.81323800001
 20
9715.4236209999926
 30
0.0
 11
20596.811127000019
 21
9715.4236209999926
 31
0.0
  0
TEXT
  5
3F5C
  8
0
  6
CONTINUOUS
 62
     7
 10
20236.811127000019
 20
9795.4236209999963
 30
0.0
 40
160.0
  1
43
  0
TEXT
  5
3F5D
  8
0
  6
CONTINUOUS
 62
     7
 10
21913.56350199999
 20
9795.4236209999963
 30
0.0
 40
160.0
  1
3353.5
  0
TEXT
  5
3F5E
  8
0
  6
CONTINUOUS
 62
     7
 10
21913.56350199999
 20
10195.381391000001
 30
0.0
 40
160.0
  1
3439.5
  0
TEXT
  5
3F5F
  8
0
  6
CONTINUOUS
 62
     7
 10
24150.315876999972
 20
9795.4236209999963
 30
0.0
 40
160.0
  1
43
  0
ARC
  5
3F60
  8
0
  6
BYBLOCK
 62
     0
 10
23990.313765999981
 20
9715.4236209999926
 30
0.0
 40
15.0
 50
180.0
 51
0.0
  0
ARC
  5
3F61
  8
0
  6
BYBLOCK
 62
     0
 10
23990.313765999981
 20
9715.4236209999926
 30
0.0
 40
15.0
 50
0.0
 51
180.0
  0
ARC
  5
3F62
  8
0
  6
BYBLOCK
 62
     0
 10
24033.315876999972
 20
9715.4236209999926
 30
0.0
 40
15.0
 50
0.0
 51
180.0
  0
ARC
  5
3F63
  8
0
  6
BYBLOCK
 62
     0
 10
24033.315876999972
 20
9715.4236209999926
 30
0.0
 40
15.0
 50
180.0
 51
0.0
  0
ARC
  5
3F64
  8
0
  6
BYBLOCK
 62
     0
 10
20593.811127000019
 20
10115.38139099999
 30
0.0
 40
15.0
 50
0.0
 51
180.0
  0
ARC
  5
3F65
  8
0
  6
BYBLOCK
 62
     0
 10
20593.811127000019
 20
10115.38139099999
 30
0.0
 40
15.0
 50
180.0
 51
0.0
  0
ARC
  5
3F66
  8
0
  6
BYBLOCK
 62
     0
 10
24033.315876999972
 20
10115.38139099999
 30
0.0
 40
15.0
 50
180.0
 51
0.0
  0
ARC
  5
3F67
  8
0
  6
BYBLOCK
 62
     0
 10
24033.315876999972
 20
10115.38139099999
 30
0.0
 40
15.0
 50
0.0
 51
180.0
  0
ARC
  5
3F68
  8
0
  6
BYBLOCK
 62
     0
 10
20636.81323800001
 20
9715.4236209999926
 30
0.0
 40
15.0
 50
0.0
 51
180.0
  0
ARC
  5
3F69
  8
0
  6
BYBLOCK
 62
     0
 10
20636.81323800001
 20
9715.4236209999926
 30
0.0
 40
15.0
 50
180.0
 51
0.0
  0
ARC
  5
3F6A
  8
0
  6
BYBLOCK
 62
     0
 10
23990.313765999981
 20
9715.4236209999926
 30
0.0
 40
15.0
 50
180.0
 51
0.0
  0
ARC
  5
3F6B
  8
0
  6
BYBLOCK
 62
     0
 10
23990.313765999981
 20
9715.4236209999926
 30
0.0
 40
15.0
 50
0.0
 51
180.0
  0
ARC
  5
3F6C
  8
0
  6
BYBLOCK
 62
     0
 10
20636.81323800001
 20
9715.4236209999926
 30
0.0
 40
15.0
 50
0.0
 51
180.0
  0
ARC
  5
3F6D
  8
0
  6
BYBLOCK
 62
     0
 10
20636.81323800001
 20
9715.4236209999926
 30
0.0
 40
15.0
 50
180.0
 51
0.0
  0
ARC
  5
3F6E
  8
0
  6
BYBLOCK
 62
     0
 10
20593.811127000019
 20
9715.4236209999926
 30
0.0
 40
15.0
 50
180.0
 51
0.0
  0
ARC
  5
3F6F
  8
0
  6
BYBLOCK
 62
     0
 10
20593.811127000019
 20
9715.4236209999926
 30
0.0
 40
15.0
 50
0.0
 51
180.0
  0
LINE
  5
3F7D
  8
SUNPOU
  6
CONTINUOUS
 62
     4
 10
10873.347523999981
 20
13559.98697799999
 30
0.0
 11
10873.347523999981
 21
12381.03717799999
 31
0.0
  0
LINE
  5
3F7E
  8
SUNPOU
  6
CONTINUOUS
 62
     4
 10
14312.848316
 20
13559.98697799999
 30
0.0
 11
14312.848316
 21
12381.03717799999
 31
0.0
  0
LINE
  5
3F7F
  8
SUNPOU
  6
CONTINUOUS
 62
     4
 10
10873.347523999981
 20
12461.03717799999
 30
0.0
 11
14312.848316
 21
12461.03717799999
 31
0.0
  0
TEXT
  5
3F80
  8
0
  6
CONTINUOUS
 62
     7
 10
11670.43125333332
 20
12541.03717799999
 30
0.0
 40
160.0
  1
ケラバ外寸 3439.5
  0
ARC
  5
3F81
  8
0
  6
BYBLOCK
 62
     0
 10
10873.347523999981
 20
12461.03717799999
 30
0.0
 40
15.0
 50
0.0
 51
180.0
  0
ARC
  5
3F82
  8
0
  6
BYBLOCK
 62
     0
 10
10873.347523999981
 20
12461.03717799999
 30
0.0
 40
15.0
 50
180.0
 51
0.0
  0
ARC
  5
3F83
  8
0
  6
BYBLOCK
 62
     0
 10
14312.848316
 20
12461.03717799999
 30
0.0
 40
15.0
 50
180.0
 51
0.0
  0
ARC
  5
3F84
  8
0
  6
BYBLOCK
 62
     0
 10
14312.848316
 20
12461.03717799999
 30
0.0
 40
15.0
 50
0.0
 51
180.0
  0
TEXT
  5
3FD9
  8
NAME
 10
24189.823422030819
 20
1076.0
 30
0.0
 40
360.0
  1
H
 41
0.6700000000000002
  7
00
  0
TEXT
  5
3FDA
  8
NAME
 10
23813.991437450481
 20
1076.0
 30
0.0
 40
360.0
  1
（ ）
  7
01
  0
TEXT
  5
3FDB
  8
NAME
 10
24713.98442473352
 20
1076.0
 30
0.0
 40
360.0
  1
型（単棟）
  7
01
  0
TEXT
  5
3FDC
  8
NAME
 10
21686.348766391511
 20
1076.6369801169251
 30
0.0
 40
360.0
  1
VGCU-3359
 41
0.6700000000000002
  0
TEXT
  5
3FDE
  8
NAME
 10
21933.552716389018
 20
1876.0
 30
0.0
 40
360.0
  1
ヨドガレージ ラヴィージュ
 41
0.75
  7
01
  0
LINE
  5
3FDF
  8
NAME
  6
CONTINUOUS
 10
26067.886878884321
 20
2236.0
 30
0.0
 11
26067.886878884321
 21
1876.0
 31
0.0
  0
LINE
  5
3FE0
  8
NAME
  6
CONTINUOUS
 10
26167.886878884321
 20
2236.0
 30
0.0
 11
26167.886878884321
 21
1876.0
 31
0.0
  0
LINE
  5
3FE1
  8
NAME
  6
CONTINUOUS
 10
26267.886878884321
 20
2236.0
 30
0.0
 11
26267.886878884321
 21
1876.0
 31
0.0
  0
LINE
  5
3FE2
  8
NAME
  6
CONTINUOUS
 10
26007.886878884321
 20
2236.0
 30
0.0
 11
26327.886878884321
 21
2236.0
 31
0.0
  0
LINE
  5
3FE3
  8
NAME
  6
CONTINUOUS
 10
26327.886878884321
 20
1876.0
 30
0.0
 11
26007.886878884321
 21
1876.0
 31
0.0
  0
TEXT
  5
407D
  8
FILENAME
  6
CONTINUOUS
 10
28546.857142857141
 20
348.0
 30
0.0
 40
200.0
  1
＜VGCU-3359-1-A_0.DXF ＞
  7
FILENAME
 72
     2
 11
32764.0
 21
348.0
 31
0.0
  0
LINE
  5
4082
  8
WAKUSEN-01
 10
868.00000000000193
 20
827.99999999999955
 30
0.0
 11
32764.000000000011
 21
827.99999999999943
 31
0.0
  0
LINE
  5
4083
  8
WAKUSEN-01
 10
868.00000000000193
 20
827.99999999999955
 30
0.0
 11
868.00000000000193
 21
22484.000000000011
 31
0.0
  0
LINE
  5
4084
  8
WAKUSEN-01
 10
32764.000000000011
 20
827.99999999999943
 30
0.0
 11
32764.000000000011
 21
22484.000000000011
 31
0.0
  0
LINE
  5
4085
  8
WAKUSEN-01
 10
20560.0
 20
827.99999999999716
 30
0.0
 11
20560.0
 21
2484.0
 31
0.0
  0
LINE
  5
4086
  8
WAKUSEN-02
 10
26868.0
 20
827.99999999999261
 30
0.0
 11
26868.0
 21
2484.0
 31
0.0
  0
ENDSEC
  0
EOF
