  0
SECTION
  2
HEADER
  9
$ACADVER
  1
AC1009
  9
$INSBASE
 10
0.0
 20
0.0
 30
0.0
  9
$EXTMIN
 10
867.99324330406671
 20
327.38164749855792
 30
-0.0015258207003583
  9
$EXTMAX
 10
32765.33210850941
 20
22484.553276491992
 30
0.0000000349246037
  9
$LIMMIN
 10
0.0
 20
0.0
  9
$LIMMAX
 10
33600.0
 20
23760.0
  9
$ORTHOMODE
 70
     1
  9
$REGENMODE
 70
     1
  9
$FILLMODE
 70
     1
  9
$QTEXTMODE
 70
     0
  9
$MIRRTEXT
 70
     1
  9
$DRAGMODE
 70
     2
  9
$LTSCALE
 40
80.0
  9
$OSMODE
 70
  3071
  9
$ATTMODE
 70
     1
  9
$TEXTSIZE
 40
0.2
  9
$TRACEWID
 40
0.05
  9
$TEXTSTYLE
  7
00
  9
$CLAYER
  8
0
  9
$CELTYPE
  6
BYLAYER
  9
$CECOLOR
 62
   256
  9
$DIMSCALE
 40
80.0
  9
$DIMASZ
 40
3.0
  9
$DIMEXO
 40
1.0
  9
$DIMDLI
 40
0.38
  9
$DIMRND
 40
0.5
  9
$DIMDLE
 40
0.0
  9
$DIMEXE
 40
1.0
  9
$DIMTP
 40
0.0
  9
$DIMTM
 40
0.0
  9
$DIMTXT
 40
2.0
  9
$DIMCEN
 40
0.09
  9
$DIMTSZ
 40
0.0
  9
$DIMTOL
 70
     0
  9
$DIMLIM
 70
     0
  9
$DIMTIH
 70
     0
  9
$DIMTOH
 70
     0
  9
$DIMSE1
 70
     0
  9
$DIMSE2
 70
     0
  9
$DIMTAD
 70
     1
  9
$DIMZIN
 70
     8
  9
$DIMBLK
  1
DOTSMALL
  9
$DIMASO
 70
     1
  9
$DIMSHO
 70
     1
  9
$DIMPOST
  1

  9
$DIMAPOST
  1

  9
$DIMALT
 70
     0
  9
$DIMALTD
 70
     2
  9
$DIMALTF
 40
25.399999999999999
  9
$DIMLFAC
 40
1.0
  9
$DIMTOFL
 70
     1
  9
$DIMTVP
 40
0.0
  9
$DIMTIX
 70
     0
  9
$DIMSOXD
 70
     0
  9
$DIMSAH
 70
     0
  9
$DIMBLK1
  1

  9
$DIMBLK2
  1

  9
$DIMSTYLE
  2
SUNPOU
  9
$DIMCLRD
 70
     4
  9
$DIMCLRE
 70
     4
  9
$DIMCLRT
 70
     7
  9
$DIMTFAC
 40
1.0
  9
$DIMGAP
 40
1.0
  9
$LUNITS
 70
     2
  9
$LUPREC
 70
     4
  9
$SKETCHINC
 40
0.1
  9
$FILLETRAD
 40
0.0
  9
$AUNITS
 70
     0
  9
$AUPREC
 70
     0
  9
$MENU
  1
acad
  9
$ELEVATION
 40
0.0
  9
$PELEVATION
 40
0.0
  9
$THICKNESS
 40
0.0
  9
$LIMCHECK
 70
     0
  9
$BLIPMODE
 70
     1
  9
$CHAMFERA
 40
0.0
  9
$CHAMFERB
 40
0.0
  9
$SKPOLY
 70
     0
  9
$TDCREATE
 40
2440588.749988426
  9
$TDUPDATE
 40
2458942.4412738201
  9
$TDINDWG
 40
0.0488060532
  9
$TDUSRTIMER
 40
0.0488044329
  9
$USRTIMER
 70
     1
  9
$ANGBASE
 50
0.0
  9
$ANGDIR
 70
     0
  9
$PDMODE
 70
     0
  9
$PDSIZE
 40
0.0
  9
$PLINEWID
 40
0.0
  9
$COORDS
 70
     1
  9
$SPLFRAME
 70
     0
  9
$SPLINETYPE
 70
     6
  9
$SPLINESEGS
 70
     8
  9
$ATTDIA
 70
     1
  9
$ATTREQ
 70
     1
  9
$HANDLING
 70
     1
  9
$HANDSEED
  5
4DE5
  9
$SURFTAB1
 70
     6
  9
$SURFTAB2
 70
     6
  9
$SURFTYPE
 70
     6
  9
$SURFU
 70
     6
  9
$SURFV
 70
     6
  9
$UCSNAME
  2

  9
$UCSORG
 10
0.0
 20
0.0
 30
0.0
  9
$UCSXDIR
 10
1.0
 20
0.0
 30
0.0
  9
$UCSYDIR
 10
0.0
 20
1.0
 30
0.0
  9
$PUCSNAME
  2

  9
$PUCSORG
 10
0.0
 20
0.0
 30
0.0
  9
$PUCSXDIR
 10
1.0
 20
0.0
 30
0.0
  9
$PUCSYDIR
 10
0.0
 20
1.0
 30
0.0
  9
$USERI1
 70
     0
  9
$USERI2
 70
     0
  9
$USERI3
 70
     0
  9
$USERI4
 70
     0
  9
$USERI5
 70
     0
  9
$USERR1
 40
0.0
  9
$USERR2
 40
0.0
  9
$USERR3
 40
0.0
  9
$USERR4
 40
0.0
  9
$USERR5
 40
0.0
  9
$WORLDVIEW
 70
     1
  9
$SHADEDGE
 70
     3
  9
$SHADEDIF
 70
    70
  9
$TILEMODE
 70
     1
  9
$MAXACTVP
 70
    16
  9
$PLIMCHECK
 70
     0
  9
$PEXTMIN
 10
1.0000000000000000E+020
 20
1.0000000000000000E+020
 30
1.0000000000000000E+020
  9
$PEXTMAX
 10
-1.0000000000000000E+020
 20
-1.0000000000000000E+020
 30
-1.0000000000000000E+020
  9
$PLIMMIN
 10
0.0
 20
0.0
  9
$PLIMMAX
 10
12.0
 20
9.0
  9
$UNITMODE
 70
     0
  9
$VISRETAIN
 70
     0
  9
$PLINEGEN
 70
     1
  9
$PSLTSCALE
 70
     0
  0
ENDSEC
  0
SECTION
  2
TABLES
  0
TABLE
  2
VPORT
 70
     1
  0
VPORT
  2
*ACTIVE
 70
     0
 10
0.0
 20
0.0
 11
1.0
 21
1.0
 12
16800.0
 22
11880.0
 13
0.0
 23
0.0
 14
1.0
 24
1.0
 15
0.0
 25
0.0
 16
0.0
 26
0.0
 36
1.0
 17
0.0
 27
0.0
 37
0.0
 40
23981.023255813951
 41
2.195652173913043
 42
50.0
 43
0.0
 44
0.0
 50
0.0
 51
0.0
 71
     0
 72
 10000
 73
     1
 74
     1
 75
     0
 76
     0
 77
     0
 78
     0
  0
ENDTAB
  0
TABLE
  2
LTYPE
 70
     3
  0
LTYPE
  2
CONTINUOUS
 70
     0
  3
Solid line
 72
    65
 73
     0
 40
0.0
  0
LTYPE
  2
DASHED3
 70
     0
  3
------  ------  ------  ------  
 72
    65
 73
     2
 40
5.0
 49
3.75
 49
-1.25
  0
LTYPE
  2
CENTER2
 70
     0
  3
----------  --  ----------  --  
 72
    65
 73
     4
 40
20.0
 49
12.5
 49
-2.5
 49
2.5
 49
-2.5
  0
ENDTAB
  0
TABLE
  2
LAYER
 70
    18
  0
LAYER
  2
0
 70
     0
 62
     7
  6
CONTINUOUS
  0
LAYER
  2
SUNPOU
 70
     0
 62
     4
  6
CONTINUOUS
  0
LAYER
  2
0-1
 70
     0
 62
     7
  6
CONTINUOUS
  0
LAYER
  2
0-2
 70
     0
 62
     7
  6
CONTINUOUS
  0
LAYER
  2
0-4
 70
     0
 62
     7
  6
CONTINUOUS
  0
LAYER
  2
0-5
 70
     0
 62
     7
  6
CONTINUOUS
  0
LAYER
  2
2-0
 70
     0
 62
     7
  6
CONTINUOUS
  0
LAYER
  2
0-6
 70
     0
 62
     7
  6
CONTINUOUS
  0
LAYER
  2
0-7
 70
     0
 62
     7
  6
CONTINUOUS
  0
LAYER
  2
YODOROGO
 70
     0
 62
   130
  6
CONTINUOUS
  0
LAYER
  2
WAKUSEN-01
 70
     0
 62
    50
  6
CONTINUOUS
  0
LAYER
  2
WAKUSEN-02
 70
     0
 62
   130
  6
CONTINUOUS
  0
LAYER
  2
WAKUMOJI-01
 70
     0
 62
   130
  6
CONTINUOUS
  0
LAYER
  2
FILENAME
 70
     0
 62
     7
  6
CONTINUOUS
  0
LAYER
  2
NAME
 70
     0
 62
    20
  6
CONTINUOUS
  0
LAYER
  2
0-0
 70
     0
 62
     7
  6
CONTINUOUS
  0
ENDTAB
  0
TABLE
  2
STYLE
 70
     6
  0
STYLE
  2
STANDARD
 70
     0
 40
0.0
 41
1.0
 50
0.0
 71
     0
 42
0.0
  3
txt
  4
BIGFONT
  0
STYLE
  2
00
 70
     0
 40
0.0
 41
0.6666666666666666
 50
0.0
 71
     0
 42
0.2
  3
ROMANS
  4
BIGFONT
  0
STYLE
  2
01
 70
     0
 40
3.0
 41
1.0
 50
0.0
 71
     0
 42
0.2
  3
ROMANS
  4
BIGFONT
  0
STYLE
  2
WAKUMOJI
 70
     0
 40
3.0
 41
1.0
 50
0.0
 71
     0
 42
3.0
  3
SIMPLEX
  4
BIGFONT
  0
STYLE
  2
FILENAME
 70
     0
 40
200.0
 41
1.0
 50
0.0
 71
     0
 42
200.0
  3
romans
  4
bigfont
  0
ENDTAB
  0
TABLE
  2
VIEW
 70
     0
  0
ENDTAB
  0
TABLE
  2
UCS
 70
     0
  0
ENDTAB
  0
TABLE
  2
APPID
 70
    13
  0
APPID
  2
ACAD
 70
     0
  0
APPID
  2
ACADANNOTATIVE
 70
     0
  0
APPID
  2
ACAD_PSEXT
 70
     0
  0
APPID
  2
DCO15
 70
     0
  0
APPID
  2
ACAD_MLEADERVER
 70
     0
  0
APPID
  2
AUTOCAD_POSTSCRIPT_FIGURE
 70
     0
  0
APPID
  2
ACAD_EXEMPT_FROM_CAD_STANDARDS
 70
     0
  0
APPID
  2
ACAD_DSTYLE_DIMJAG
 70
     0
  0
APPID
  2
ACAD_DSTYLE_DIMTALN
 70
     0
  0
APPID
  2
ACAD_DSTYLE_DIM_LINETYPE
 70
     0
  0
APPID
  2
ACAD_DSTYLE_DIM_EXT1_LINETYPE
 70
     0
  0
APPID
  2
ACAD_DSTYLE_DIM_EXT2_LINETYPE
 70
     0
  0
APPID
  2
ACAD_NAV_VCDISPLAY
 70
     0
  0
ENDTAB
  0
TABLE
  2
DIMSTYLE
 70
     3
  0
DIMSTYLE
  2
SUNPOU
 70
     0
  3

  4

  5

  6

  7

 40
80.0
 41
3.0
 42
1.0
 43
0.38
 44
1.0
 45
0.5
 46
0.0
 47
0.0
 48
0.0
140
2.0
141
0.09
142
0.0
143
25.399999999999999
144
1.0
145
0.0
146
1.0
147
1.0
 71
     0
 72
     0
 73
     0
 74
     0
 75
     0
 76
     0
 77
     1
 78
     8
170
     0
171
     2
172
     1
173
     0
174
     0
175
     0
176
     4
177
     4
178
     7
  0
ENDTAB
  0
ENDSEC
  0
SECTION
  2
BLOCKS
  0
BLOCK
  8
0
  2
$MODEL_SPACE
 70
     0
 10
0.0
 20
0.0
 30
0.0
  3
$MODEL_SPACE
  1

  0
ENDBLK
  5
4D3B
  8
0
  0
BLOCK
 67
     1
  8
0
  2
$PAPER_SPACE
 70
     0
 10
0.0
 20
0.0
 30
0.0
  3
$PAPER_SPACE
  1

  0
ENDBLK
  5
4D37
 67
     1
  8
0
  0
BLOCK
  8
0
  2
_DOTSMALL
 70
     0
 10
0.0
 20
0.0
 30
0.0
  3
_DOTSMALL
  1

  0
POLYLINE
  5
40EF
  8
0
  6
BYBLOCK
 62
     0
 66
     1
 10
0.0
 20
0.0
 30
0.0
 70
     1
 40
0.5
 41
0.5
  0
VERTEX
  5
4DA2
  8
0
  6
BYBLOCK
 62
     0
 10
-0.0625
 20
0.0
 30
0.0
 42
1.0
  0
VERTEX
  5
4DA3
  8
0
  6
BYBLOCK
 62
     0
 10
0.0625
 20
0.0
 30
0.0
 42
1.0
  0
SEQEND
  5
4DA4
  8
0
  6
BYBLOCK
 62
     0
  0
ENDBLK
  5
40F3
  8
0
  0
ENDSEC
  0
SECTION
  2
ENTITIES
  0
LINE
  5
40F4
  8
0-4
  6
CONTINUOUS
 62
     4
 10
14264.29067299999
 20
6267.088643000001
 30
0.0
 11
18816.546927999989
 21
6267.088643000001
 31
0.0
  0
CIRCLE
  5
40F5
  8
0-4
  6
CONTINUOUS
 62
     4
 10
15128.715689000001
 20
1375.9998579999999
 30
0.0
 40
20.0
  0
ARC
  5
40F6
  8
0-4
  6
CONTINUOUS
 62
     4
 10
15128.715689000001
 20
1375.9998579999999
 30
0.0
 40
20.0
 50
180.0
 51
0.0
  0
ARC
  5
40F7
  8
0-4
  6
CONTINUOUS
 62
     4
 10
15128.715689000001
 20
1375.9998579999999
 30
0.0
 40
20.0
 50
0.0
 51
179.9999849999983
  0
CIRCLE
  5
40F8
  8
0-4
  6
CONTINUOUS
 62
     4
 10
15128.715689000001
 20
1776.000188
 30
0.0
 40
20.0
  0
ARC
  5
40F9
  8
0-4
  6
CONTINUOUS
 62
     4
 10
15128.715689000001
 20
1776.000188
 30
0.0
 40
20.0
 50
180.0
 51
0.0
  0
ARC
  5
40FA
  8
0-4
  6
CONTINUOUS
 62
     4
 10
15128.715689000001
 20
1776.000188
 30
0.0
 40
20.0
 50
0.0
 51
179.9999849999983
  0
TEXT
  5
40FB
  8
0-4
  6
CONTINUOUS
 62
     7
 10
16697.739522
 20
1656.000039
 30
0.0
 40
160.0
  1
H
  0
TEXT
  5
40FC
  8
0-4
  6
CONTINUOUS
 62
     7
 10
15176.145944
 20
1656.000039
 30
0.0
 40
160.0
  1
（ ）内寸法ハ、  タ イプヲ示ス。
  0
TEXT
  5
40FD
  8
0-4
  6
CONTINUOUS
 62
     7
 10
15288.71423699998
 20
1256.000203999999
 30
0.0
 40
160.0
  1
有効高サハ、基礎高サヲ含ミマセン。
  0
LINE
  5
4106
  8
0-1
  6
CONTINUOUS
 62
     3
 10
8971.7892219999976
 20
8278.1340270000055
 30
0.0
 11
14151.791596999999
 21
8278.1340270000055
 31
0.0
  0
LINE
  5
4107
  8
0-1
  6
CONTINUOUS
 62
     3
 10
8261.7893540000005
 20
6267.088643000001
 30
0.0
 11
14184.29040899999
 21
6267.088643000001
 31
0.0
  0
LINE
  5
4108
  8
0-1
  6
CONTINUOUS
 62
     3
 10
8944.2904090000011
 20
6367.0884780000006
 30
0.0
 11
14184.29040899999
 21
6367.0884780000006
 31
0.0
  0
LINE
  5
4109
  8
0-1
  6
CONTINUOUS
 62
     3
 10
8951.7911349999977
 20
8400.1159209999969
 30
0.0
 11
8951.7911349999977
 21
6367.0884780000006
 31
0.0
  0
LINE
  5
410A
  8
0-1
  6
CONTINUOUS
 62
     3
 10
8971.7892219999976
 20
8400.8166700000038
 30
0.0
 11
8971.7892219999976
 21
6367.0884780000006
 31
0.0
  0
LINE
  5
410B
  8
0-1
  6
CONTINUOUS
 62
     3
 10
8944.2904090000011
 20
6267.088643000001
 30
0.0
 11
8944.2904090000011
 21
6367.0884780000006
 31
0.0
  0
LINE
  5
410C
  8
0-1
  6
CONTINUOUS
 62
     3
 10
14247.070775
 20
8585.0128540000005
 30
0.0
 11
14242.518872000001
 21
8714.9336070000008
 31
0.0
  0
LINE
  5
410D
  8
0-1
  6
CONTINUOUS
 62
     3
 10
11634.290277
 20
6417.088643000001
 30
0.0
 11
14056.790541
 21
6417.088643000001
 31
0.0
  0
LINE
  5
410E
  8
0-1
  6
CONTINUOUS
 62
     3
 10
11147.789934
 20
6417.088643000001
 30
0.0
 11
11147.789934
 21
8278.1340270000055
 31
0.0
  0
LINE
  5
410F
  8
0-1
  6
CONTINUOUS
 62
     3
 10
11167.79098999999
 20
6417.088643000001
 30
0.0
 11
11167.79098999999
 21
8278.1340270000055
 31
0.0
  0
LINE
  5
4110
  8
0-1
  6
CONTINUOUS
 62
     3
 10
11097.791252999999
 20
6417.088643000001
 30
0.0
 11
11097.791252999999
 21
8278.1340270000055
 31
0.0
  0
LINE
  5
4111
  8
0-1
  6
CONTINUOUS
 62
     3
 10
11217.78967
 20
6417.088643000001
 30
0.0
 11
11217.78967
 21
8278.1340270000055
 31
0.0
  0
LINE
  5
4112
  8
0-1
  6
CONTINUOUS
 62
     3
 10
11350.788574
 20
6417.088643000001
 30
0.0
 11
11350.788574
 21
8278.1340270000055
 31
0.0
  0
LINE
  5
4113
  8
0-1
  6
CONTINUOUS
 62
     3
 10
11365.790356
 20
6417.088643000001
 30
0.0
 11
11365.790356
 21
8278.1340270000055
 31
0.0
  0
LINE
  5
4114
  8
0-1
  6
CONTINUOUS
 62
     3
 10
10964.789378999991
 20
6417.088643000001
 30
0.0
 11
10964.789378999991
 21
8278.1340270000055
 31
0.0
  0
LINE
  5
4115
  8
0-1
  6
CONTINUOUS
 62
     3
 10
10949.79056699998
 20
6417.088643000001
 30
0.0
 11
10949.79056699998
 21
8278.1340270000055
 31
0.0
  0
LINE
  5
4116
  8
0-1
  6
CONTINUOUS
 62
     3
 10
9066.7882980000031
 20
8278.1340270000055
 30
0.0
 11
9066.7882980000031
 21
6367.0884780000006
 31
0.0
  0
LINE
  5
4117
  8
0-1
  6
CONTINUOUS
 62
     3
 10
11634.290277
 20
8278.1340270000055
 30
0.0
 11
11634.290277
 21
6367.0884780000006
 31
0.0
  0
LINE
  5
4118
  8
0-1
  6
CONTINUOUS
 62
     3
 10
11489.290541
 20
8278.1340270000055
 30
0.0
 11
11489.290541
 21
6367.0884780000006
 31
0.0
  0
LINE
  5
4119
  8
0-1
  6
CONTINUOUS
 62
     3
 10
9747.7902640000011
 20
6417.088643000001
 30
0.0
 11
9747.7902640000011
 21
8278.1340270000055
 31
0.0
  0
LINE
  5
411A
  8
0-1
  6
CONTINUOUS
 62
     3
 10
9767.7903299999907
 20
6417.088643000001
 30
0.0
 11
9767.7903299999907
 21
8278.1340270000055
 31
0.0
  0
LINE
  5
411B
  8
0-1
  6
CONTINUOUS
 62
     3
 10
9697.7905939999964
 20
6417.088643000001
 30
0.0
 11
9697.7905939999964
 21
8278.1340270000055
 31
0.0
  0
LINE
  5
411C
  8
0-1
  6
CONTINUOUS
 62
     3
 10
9817.7900000000027
 20
6417.088643000001
 30
0.0
 11
9817.7900000000027
 21
8278.1340270000055
 31
0.0
  0
LINE
  5
411D
  8
0-1
  6
CONTINUOUS
 62
     3
 10
9950.7908840000055
 20
6417.088643000001
 30
0.0
 11
9950.7908840000055
 21
8278.1340270000055
 31
0.0
  0
LINE
  5
411E
  8
0-1
  6
CONTINUOUS
 62
     3
 10
9965.7896960000016
 20
6417.088643000001
 30
0.0
 11
9965.7896960000016
 21
8278.1340270000055
 31
0.0
  0
LINE
  5
411F
  8
0-1
  6
CONTINUOUS
 62
     3
 10
9564.7897090000024
 20
6417.088643000001
 30
0.0
 11
9564.7897090000024
 21
8278.1340270000055
 31
0.0
  0
LINE
  5
4120
  8
0-1
  6
CONTINUOUS
 62
     3
 10
9549.7889180000002
 20
6417.088643000001
 30
0.0
 11
9549.7889180000002
 21
8278.1340270000055
 31
0.0
  0
LINE
  5
4121
  8
0-1
  6
CONTINUOUS
 62
     3
 10
10249.790236999999
 20
6417.088643000001
 30
0.0
 11
10249.790236999999
 21
8278.1340270000055
 31
0.0
  0
LINE
  5
4122
  8
0-1
  6
CONTINUOUS
 62
     3
 10
10264.789049999999
 20
6417.088643000001
 30
0.0
 11
10264.789049999999
 21
8278.1340270000055
 31
0.0
  0
LINE
  5
4123
  8
0-1
  6
CONTINUOUS
 62
     3
 10
10665.79101599999
 20
6417.088643000001
 30
0.0
 11
10665.79101599999
 21
8278.1340270000055
 31
0.0
  0
LINE
  5
4124
  8
0-1
  6
CONTINUOUS
 62
     3
 10
10650.79022399998
 20
6417.088643000001
 30
0.0
 11
10650.79022399998
 21
8278.1340270000055
 31
0.0
  0
LINE
  5
4125
  8
0-1
  6
CONTINUOUS
 62
     3
 10
10517.789339999979
 20
6417.088643000001
 30
0.0
 11
10517.789339999979
 21
8278.1340270000055
 31
0.0
  0
LINE
  5
4126
  8
0-1
  6
CONTINUOUS
 62
     3
 10
10397.789934
 20
6417.088643000001
 30
0.0
 11
10397.789934
 21
8278.1340270000055
 31
0.0
  0
LINE
  5
4127
  8
0-1
  6
CONTINUOUS
 62
     3
 10
10467.78967
 20
6417.088643000001
 30
0.0
 11
10467.78967
 21
8278.1340270000055
 31
0.0
  0
LINE
  5
4128
  8
0-1
  6
CONTINUOUS
 62
     3
 10
10447.79059399998
 20
6417.088643000001
 30
0.0
 11
10447.79059399998
 21
8278.1340270000055
 31
0.0
  0
LINE
  5
4129
  8
0-1
  6
CONTINUOUS
 62
     3
 10
10789.29021099999
 20
8278.1340270000055
 30
0.0
 11
10789.29021099999
 21
6417.088643000001
 31
0.0
  0
LINE
  5
412A
  8
0-1
  6
CONTINUOUS
 62
     3
 10
10826.29038199999
 20
8278.1340270000055
 30
0.0
 11
10826.29038199999
 21
6417.088643000001
 31
0.0
  0
LINE
  5
412B
  8
0-1
  6
CONTINUOUS
 62
     3
 10
9389.2895510000017
 20
8278.1340270000055
 30
0.0
 11
9389.2895510000017
 21
6417.088643000001
 31
0.0
  0
LINE
  5
412C
  8
0-1
  6
CONTINUOUS
 62
     3
 10
9426.2907120000018
 20
8278.1340270000055
 30
0.0
 11
9426.2907120000018
 21
6417.088643000001
 31
0.0
  0
LINE
  5
412D
  8
0-1
  6
CONTINUOUS
 62
     3
 10
10089.288891
 20
8278.1340270000055
 30
0.0
 11
10089.288891
 21
6417.088643000001
 31
0.0
  0
LINE
  5
412E
  8
0-1
  6
CONTINUOUS
 62
     3
 10
10126.291042000001
 20
8278.1340270000055
 30
0.0
 11
10126.291042000001
 21
6417.088643000001
 31
0.0
  0
LINE
  5
412F
  8
0-1
  6
CONTINUOUS
 62
     3
 10
9066.7882980000031
 20
6417.088643000001
 30
0.0
 11
11489.290541
 21
6417.088643000001
 31
0.0
  0
LINE
  5
4130
  8
0-1
  6
CONTINUOUS
 62
     3
 10
11561.79040899999
 20
8491.2470170000033
 30
0.0
 11
11557.236525999981
 21
8621.1657910000013
 31
0.0
  0
LINE
  5
4131
  8
0-1
  6
CONTINUOUS
 62
     3
 10
11561.79040899999
 20
8491.2470170000033
 30
0.0
 11
11561.79040899999
 21
8278.1340270000055
 31
0.0
  0
LINE
  5
4132
  8
0-1
  6
CONTINUOUS
 62
     3
 10
14056.790541
 20
8278.1340270000055
 30
0.0
 11
14056.790541
 21
6367.0884780000006
 31
0.0
  0
LINE
  5
4133
  8
0-1
  6
CONTINUOUS
 62
     3
 10
14171.790673
 20
8582.3751450000018
 30
0.0
 11
14171.790673
 21
6367.0884780000006
 31
0.0
  0
LINE
  5
4134
  8
0-1
  6
CONTINUOUS
 62
     3
 10
14151.791596999999
 20
8581.6743959999967
 30
0.0
 11
14151.791596999999
 21
6367.0884780000006
 31
0.0
  0
LINE
  5
4135
  8
0-1
  6
CONTINUOUS
 62
     3
 10
12997.288785999999
 20
8278.1340270000055
 30
0.0
 11
12997.288785999999
 21
6417.088643000001
 31
0.0
  0
LINE
  5
4136
  8
0-1
  6
CONTINUOUS
 62
     3
 10
13034.28994699999
 20
8278.1340270000055
 30
0.0
 11
13034.28994699999
 21
6417.088643000001
 31
0.0
  0
LINE
  5
4137
  8
0-1
  6
CONTINUOUS
 62
     3
 10
13697.29109499999
 20
8278.1340270000055
 30
0.0
 11
13697.29109499999
 21
6417.088643000001
 31
0.0
  0
LINE
  5
4138
  8
0-1
  6
CONTINUOUS
 62
     3
 10
13734.289287
 20
8278.1340270000055
 30
0.0
 11
13734.289287
 21
6417.088643000001
 31
0.0
  0
LINE
  5
4139
  8
0-1
  6
CONTINUOUS
 62
     3
 10
12297.289445
 20
8278.1340270000055
 30
0.0
 11
12297.289445
 21
6417.088643000001
 31
0.0
  0
LINE
  5
413A
  8
0-1
  6
CONTINUOUS
 62
     3
 10
12334.289617
 20
8278.1340270000055
 30
0.0
 11
12334.289617
 21
6417.088643000001
 31
0.0
  0
LINE
  5
413B
  8
0-1
  6
CONTINUOUS
 62
     3
 10
12675.789234
 20
6417.088643000001
 30
0.0
 11
12675.789234
 21
8278.1340270000055
 31
0.0
  0
LINE
  5
413C
  8
0-1
  6
CONTINUOUS
 62
     3
 10
12655.790157999991
 20
6417.088643000001
 30
0.0
 11
12655.790157999991
 21
8278.1340270000055
 31
0.0
  0
LINE
  5
413D
  8
0-1
  6
CONTINUOUS
 62
     3
 10
12725.790884
 20
6417.088643000001
 30
0.0
 11
12725.790884
 21
8278.1340270000055
 31
0.0
  0
LINE
  5
413E
  8
0-1
  6
CONTINUOUS
 62
     3
 10
12605.78949799998
 20
6417.088643000001
 30
0.0
 11
12605.78949799998
 21
8278.1340270000055
 31
0.0
  0
LINE
  5
413F
  8
0-1
  6
CONTINUOUS
 62
     3
 10
12472.790594
 20
6417.088643000001
 30
0.0
 11
12472.790594
 21
8278.1340270000055
 31
0.0
  0
LINE
  5
4140
  8
0-1
  6
CONTINUOUS
 62
     3
 10
12457.789801999979
 20
6417.088643000001
 30
0.0
 11
12457.789801999979
 21
8278.1340270000055
 31
0.0
  0
LINE
  5
4141
  8
0-1
  6
CONTINUOUS
 62
     3
 10
12858.789789
 20
6417.088643000001
 30
0.0
 11
12858.789789
 21
8278.1340270000055
 31
0.0
  0
LINE
  5
4142
  8
0-1
  6
CONTINUOUS
 62
     3
 10
12873.788601
 20
6417.088643000001
 30
0.0
 11
12873.788601
 21
8278.1340270000055
 31
0.0
  0
LINE
  5
4143
  8
0-1
  6
CONTINUOUS
 62
     3
 10
13573.79091
 20
6417.088643000001
 30
0.0
 11
13573.79091
 21
8278.1340270000055
 31
0.0
  0
LINE
  5
4144
  8
0-1
  6
CONTINUOUS
 62
     3
 10
13558.789128999981
 20
6417.088643000001
 30
0.0
 11
13558.789128999981
 21
8278.1340270000055
 31
0.0
  0
LINE
  5
4145
  8
0-1
  6
CONTINUOUS
 62
     3
 10
13157.790132
 20
6417.088643000001
 30
0.0
 11
13157.790132
 21
8278.1340270000055
 31
0.0
  0
LINE
  5
4146
  8
0-1
  6
CONTINUOUS
 62
     3
 10
13172.788944
 20
6417.088643000001
 30
0.0
 11
13172.788944
 21
8278.1340270000055
 31
0.0
  0
LINE
  5
4147
  8
0-1
  6
CONTINUOUS
 62
     3
 10
13305.788838
 20
6417.088643000001
 30
0.0
 11
13305.788838
 21
8278.1340270000055
 31
0.0
  0
LINE
  5
4148
  8
0-1
  6
CONTINUOUS
 62
     3
 10
13425.789234
 20
6417.088643000001
 30
0.0
 11
13425.789234
 21
8278.1340270000055
 31
0.0
  0
LINE
  5
4149
  8
0-1
  6
CONTINUOUS
 62
     3
 10
13355.789498
 20
6417.088643000001
 30
0.0
 11
13355.789498
 21
8278.1340270000055
 31
0.0
  0
LINE
  5
414A
  8
0-1
  6
CONTINUOUS
 62
     3
 10
13375.788574
 20
6417.088643000001
 30
0.0
 11
13375.788574
 21
8278.1340270000055
 31
0.0
  0
LINE
  5
414B
  8
0-1
  6
CONTINUOUS
 62
     3
 10
12173.789261
 20
6417.088643000001
 30
0.0
 11
12173.789261
 21
8278.1340270000055
 31
0.0
  0
LINE
  5
414C
  8
0-1
  6
CONTINUOUS
 62
     3
 10
12158.789459
 20
6417.088643000001
 30
0.0
 11
12158.789459
 21
8278.1340270000055
 31
0.0
  0
LINE
  5
414D
  8
0-1
  6
CONTINUOUS
 62
     3
 10
11757.79046199999
 20
6417.088643000001
 30
0.0
 11
11757.79046199999
 21
8278.1340270000055
 31
0.0
  0
LINE
  5
414E
  8
0-1
  6
CONTINUOUS
 62
     3
 10
11772.79125299999
 20
6417.088643000001
 30
0.0
 11
11772.79125299999
 21
8278.1340270000055
 31
0.0
  0
LINE
  5
414F
  8
0-1
  6
CONTINUOUS
 62
     3
 10
11905.790158
 20
6417.088643000001
 30
0.0
 11
11905.790158
 21
8278.1340270000055
 31
0.0
  0
LINE
  5
4150
  8
0-1
  6
CONTINUOUS
 62
     3
 10
12025.789564000001
 20
6417.088643000001
 30
0.0
 11
12025.789564000001
 21
8278.1340270000055
 31
0.0
  0
LINE
  5
4151
  8
0-1
  6
CONTINUOUS
 62
     3
 10
11955.789828000001
 20
6417.088643000001
 30
0.0
 11
11955.789828000001
 21
8278.1340270000055
 31
0.0
  0
LINE
  5
4152
  8
0-1
  6
CONTINUOUS
 62
     3
 10
11975.78989399999
 20
6417.088643000001
 30
0.0
 11
11975.78989399999
 21
8278.1340270000055
 31
0.0
  0
LINE
  5
4153
  8
0-1
  6
CONTINUOUS
 62
     3
 10
14184.29040899999
 20
6367.0884780000006
 30
0.0
 11
14184.29040899999
 21
6267.088643000001
 31
0.0
  0
LINE
  5
4154
  8
0-1
  6
CONTINUOUS
 62
     3
 10
8774.6628230000024
 20
8441.9391889999988
 30
0.0
 11
8773.4701630000018
 21
8475.9166359999981
 31
0.0
  0
LINE
  5
4155
  8
0-1
  6
CONTINUOUS
 62
     3
 10
8776.364219000001
 20
8479.0205209999967
 30
0.0
 11
14256.08847199999
 21
8670.3805820000016
 31
0.0
  0
LINE
  5
4156
  8
0-1
  6
CONTINUOUS
 62
     3
 10
14257.487991999989
 20
8630.4071740000036
 30
0.0
 11
8777.7647290000023
 21
8439.0451330000033
 31
0.0
  0
LINE
  5
4157
  8
0-1
  6
CONTINUOUS
 62
     3
 10
8775.0478390000062
 20
8430.9449430000077
 30
0.0
 11
8775.0448700000015
 21
8431.0102670000033
 31
0.0
  0
LINE
  5
4158
  8
0-1
  6
CONTINUOUS
 62
     3
 10
8775.0448700000015
 20
8431.0102670000033
 30
0.0
 11
8776.1682470000032
 21
8398.9658199999994
 31
0.0
  0
LINE
  5
4159
  8
0-1
  6
CONTINUOUS
 62
     3
 10
8781.3397390000009
 20
8394.142722999999
 30
0.0
 11
14280.03173899998
 21
8586.1679030000032
 31
0.0
  0
LINE
  5
415A
  8
0-1
  6
CONTINUOUS
 62
     3
 10
14275.47983599999
 20
8716.0876660000031
 30
0.0
 11
8776.7878360000013
 21
8524.0634770000015
 31
0.0
  0
LINE
  5
415B
  8
0-1
  6
CONTINUOUS
 62
     3
 10
8771.9647390000027
 20
8518.890994000003
 30
0.0
 11
8773.0851470000016
 21
8486.9118720000006
 31
0.0
  0
LINE
  5
415C
  8
0-1
  6
CONTINUOUS
 62
     3
 10
8776.1900220000007
 20
8484.0178160000032
 30
0.0
 11
14255.91229499998
 21
8675.3778770000008
 31
0.0
  0
LINE
  5
415D
  8
0-1
  6
CONTINUOUS
 62
     3
 10
14257.66317899999
 20
8625.4098790000025
 30
0.0
 11
8777.9399160000012
 21
8434.0478379999968
 31
0.0
  0
LINE
  5
415E
  8
0-1
  6
CONTINUOUS
 62
     3
 10
8789.2795880000049
 20
8524.500949999996
 30
0.0
 11
8793.8324809999995
 21
8394.5801969999975
 31
0.0
  0
LINE
  5
415F
  8
0-5
  6
CONTINUOUS
 62
     4
 10
8994.2904090000029
 20
4587.0885440000002
 30
0.0
 11
8994.2904090000029
 21
4427.0885109999999
 31
0.0
  0
LINE
  5
4160
  8
0-5
  6
CONTINUOUS
 62
     4
 10
11561.79040899999
 20
4587.0885440000002
 30
0.0
 11
11561.79040899999
 21
4427.0885109999999
 31
0.0
  0
LINE
  5
4161
  8
0-5
  6
CONTINUOUS
 62
     4
 10
14129.29040899999
 20
4587.0885440000002
 30
0.0
 11
14129.29040899999
 21
4427.0885109999999
 31
0.0
  0
LINE
  5
4162
  8
2-0
  6
CENTER2
 62
     6
 10
8994.2904090000029
 20
6004.4352299999982
 30
0.0
 11
8994.2904090000029
 21
7061.5783230000015
 31
0.0
  0
LINE
  5
4163
  8
2-0
  6
CENTER2
 62
     6
 10
11561.79040899999
 20
6004.4352299999982
 30
0.0
 11
11561.79040899999
 21
7061.5783230000015
 31
0.0
  0
LINE
  5
4164
  8
2-0
  6
CENTER2
 62
     6
 10
14129.29040899999
 20
6004.4352299999982
 30
0.0
 11
14129.29040899999
 21
7061.5783230000015
 31
0.0
  0
ARC
  5
4165
  8
0-1
  6
CONTINUOUS
 62
     3
 10
8779.3513129999974
 20
8436.5994379999975
 30
0.0
 40
2.5
 50
272.00698899981802
 51
92.006988999817935
  0
ARC
  5
4166
  8
0-1
  6
CONTINUOUS
 62
     3
 10
8777.7766060000085
 20
8481.5731100000048
 30
0.0
 40
2.5
 50
272.00698899981802
 51
92.006988999817935
  0
ARC
  5
4167
  8
0-1
  6
CONTINUOUS
 62
     3
 10
8776.4691340000081
 20
8476.0215500000031
 30
0.0
 40
3.0
 50
92.006988999817935
 51
182.00698899997599
  0
ARC
  5
4168
  8
0-1
  6
CONTINUOUS
 62
     3
 10
14256.787241999989
 20
8650.3933829999987
 30
0.0
 40
20.0
 50
272.00698899981802
 51
92.006988999817935
  0
ARC
  5
4169
  8
0-1
  6
CONTINUOUS
 62
     3
 10
8777.6598139999987
 20
8442.0441040000005
 30
0.0
 40
3.0
 50
182.00698899997599
 51
272.00698899981802
  0
ARC
  5
416A
  8
0-1
  6
CONTINUOUS
 62
     3
 10
8778.0448300000044
 20
8431.0508469999986
 30
0.0
 40
3.0
 50
92.006988999817935
 51
182.00698899997599
  0
ARC
  5
416B
  8
0-1
  6
CONTINUOUS
 62
     3
 10
8781.1655409999985
 20
8399.1400180000037
 30
0.0
 40
5.0
 50
182.00698899997599
 51
272.00698899981802
  0
ARC
  5
416C
  8
0-1
  6
CONTINUOUS
 62
     3
 10
14251.790936999991
 20
8650.2191850000017
 30
0.0
 40
69.999999000000003
 50
293.79377700003812
 51
70.220199999977197
  0
ARC
  5
416D
  8
0-1
  6
CONTINUOUS
 62
     3
 10
8776.9620340000056
 20
8519.0661819999968
 30
0.0
 40
5.0
 50
92.006988999817935
 51
182.00698899997599
  0
ARC
  5
416E
  8
0-1
  6
CONTINUOUS
 62
     3
 10
8776.0831280000002
 20
8487.0157970000037
 30
0.0
 40
3.0
 50
182.00698899997599
 51
272.00698899981802
  0
ARC
  5
416F
  8
0-1
  6
CONTINUOUS
 62
     3
 10
14256.787241999989
 20
8650.3933829999987
 30
0.0
 40
24.999998999999999
 50
272.00698899981802
 51
92.006988999817935
  0
CIRCLE
  5
4170
  8
0-5
  6
CONTINUOUS
 62
     4
 10
8994.2904090000029
 20
4227.0878509999993
 30
0.0
 40
199.9999949999999
  0
CIRCLE
  5
4171
  8
0-5
  6
CONTINUOUS
 62
     4
 10
14129.29040899999
 20
4227.0878509999993
 30
0.0
 40
199.9999949999999
  0
CIRCLE
  5
4172
  8
0-5
  6
CONTINUOUS
 62
     4
 10
11561.79040899999
 20
4227.0878509999993
 30
0.0
 40
199.9999949999999
  0
TEXT
  5
4173
  8
0-5
  6
CONTINUOUS
 62
     7
 10
8940.0944328542064
 20
4139.8339066382023
 30
0.0
 40
160.0
  1
C
 72
     4
 11
8993.4277661875421
 21
4219.8339066382032
 31
0.0
  0
TEXT
  5
4174
  8
0-5
  6
CONTINUOUS
 62
     7
 10
11507.59344185418
 20
4139.8339066382023
 30
0.0
 40
160.0
  1
B
 72
     4
 11
11560.92677518752
 21
4219.8339066382032
 31
0.0
  0
TEXT
  5
4175
  8
0-5
  6
CONTINUOUS
 62
     7
 10
14075.092452854189
 20
4139.8339066382023
 30
0.0
 40
160.0
  1
A
 72
     4
 11
14128.42578618753
 21
4219.8339066382032
 31
0.0
  0
TEXT
  5
4176
  8
2-0
  6
CONTINUOUS
 62
     7
 10
10092.842126999991
 20
3479.9210370000019
 30
0.0
 40
160.0
  1
側 面 立 面 図
 72
     4
 11
10738.17546033333
 21
3559.9210370000019
 31
0.0
  0
TEXT
  5
4177
  8
2-0
  6
CONTINUOUS
 62
     7
 10
12089.66764547094
 20
3507.116406000001
 30
0.0
 40
160.0
  1
1
 72
     4
 11
12116.334312137609
 21
3587.1164060000019
 31
0.0
  0
TEXT
  5
4178
  8
2-0
  6
CONTINUOUS
 62
     7
 10
12332.75636272165
 20
3427.1178740000009
 30
0.0
 40
160.0
  1
80
 72
     4
 11
12452.75636272165
 21
3507.1178740000009
 31
0.0
  0
TEXT
  5
4179
  8
2-0
  6
CONTINUOUS
 62
     7
 10
11590.66961147095
 20
3479.9210370000019
 30
0.0
 40
160.0
  1
(S=  /   )
 72
     4
 11
12150.66961147095
 21
3559.9210370000019
 31
0.0
  0
LINE
  5
417A
  8
0-1
  6
CONTINUOUS
 62
     3
 10
9256.2886660000131
 20
6417.088643000001
 30
0.0
 11
9256.2886660000131
 21
8278.1340270000055
 31
0.0
  0
LINE
  5
417B
  8
0-1
  6
CONTINUOUS
 62
     3
 10
9241.2878750000127
 20
6417.088643000001
 30
0.0
 11
9241.2878750000127
 21
8278.1340270000055
 31
0.0
  0
LINE
  5
417C
  8
0-1
  6
CONTINUOUS
 62
     3
 10
13882.29096299999
 20
6417.088643000001
 30
0.0
 11
13882.29096299999
 21
8278.1340270000055
 31
0.0
  0
LINE
  5
417D
  8
0-1
  6
CONTINUOUS
 62
     3
 10
13867.28918199999
 20
6417.088643000001
 30
0.0
 11
13867.28918199999
 21
8278.1340270000055
 31
0.0
  0
LINE
  5
417E
  8
0-5
  6
CONTINUOUS
 62
     4
 10
14264.29067300001
 20
6367.0884780000006
 30
0.0
 11
15981.75062100001
 21
6367.0884780000006
 31
0.0
  0
LINE
  5
417F
  8
0-5
  6
CONTINUOUS
 62
     4
 10
16009.37678200001
 20
6574.9344650000003
 30
0.0
 11
15769.37500099998
 21
6574.9344650000003
 31
0.0
  0
LINE
  5
4180
  8
0-5
  6
CONTINUOUS
 62
     4
 10
15889.37440700001
 20
6367.0884780000006
 30
0.0
 11
16009.37678200001
 21
6574.9344650000003
 31
0.0
  0
LINE
  5
4181
  8
0-5
  6
CONTINUOUS
 62
     4
 10
15769.37500099998
 20
6574.9344650000003
 30
0.0
 11
15889.37440700001
 21
6367.0884780000006
 31
0.0
  0
TEXT
  5
4182
  8
0-0
  6
CONTINUOUS
 62
     7
 10
15430.283467999991
 20
6654.9347289999978
 30
0.0
 40
160.0
  1
布基礎天端
 72
     4
 11
15888.95013466666
 21
6734.9347289999987
 31
0.0
  0
LINE
  5
4183
  8
0-5
  6
CONTINUOUS
 62
     4
 10
16724.674830999971
 20
6474.9351249999991
 30
0.0
 11
16844.67324799997
 21
6267.088643000001
 31
0.0
  0
LINE
  5
4184
  8
0-5
  6
CONTINUOUS
 62
     4
 10
16844.67324799997
 20
6267.088643000001
 30
0.0
 11
16964.675622999981
 21
6474.9351249999991
 31
0.0
  0
LINE
  5
4185
  8
0-5
  6
CONTINUOUS
 62
     4
 10
16964.675622999981
 20
6474.9351249999991
 30
0.0
 11
16724.674830999971
 21
6474.9351249999991
 31
0.0
  0
TEXT
  5
4186
  8
0-0
  6
CONTINUOUS
 62
     7
 10
16724.674830999971
 20
6554.9348940000036
 30
0.0
 40
160.0
  1
G.L
 72
     4
 11
16884.674830999971
 21
6634.9348940000036
 31
0.0
  0
LINE
  5
4191
  8
0-1
  6
CONTINUOUS
 62
     3
 10
25533.546530999989
 20
6367.0884779999951
 30
0.0
 11
25433.547189999968
 21
6367.0884779999951
 31
0.0
  0
LINE
  5
4192
  8
0-1
  6
CONTINUOUS
 62
     3
 10
25433.547189999968
 20
6367.0884779999951
 30
0.0
 11
25433.547189999968
 21
6267.088643000001
 31
0.0
  0
LINE
  5
4193
  8
0-1
  6
CONTINUOUS
 62
     3
 10
25533.546530999989
 20
6267.088643000001
 30
0.0
 11
25533.546530999989
 21
6367.0884779999951
 31
0.0
  0
LINE
  5
4194
  8
0-1
  6
CONTINUOUS
 62
     3
 10
25506.04705799996
 20
8715.5888270000032
 30
0.0
 11
25506.04705799996
 21
6367.0884779999951
 31
0.0
  0
LINE
  5
4195
  8
0-1
  6
CONTINUOUS
 62
     3
 10
25526.046134999971
 20
8585.5879039999982
 30
0.0
 11
25526.046134999971
 21
6367.0884779999951
 31
0.0
  0
LINE
  5
4196
  8
0-1
  6
CONTINUOUS
 62
     3
 10
25396.047189999968
 20
8275.0885369999942
 30
0.0
 11
25396.047189999968
 21
6267.088643000001
 31
0.0
  0
LINE
  5
4197
  8
0-1
  6
CONTINUOUS
 62
     3
 10
25441.047585999971
 20
8585.5879039999982
 30
0.0
 11
25441.047585999971
 21
6367.0884779999951
 31
0.0
  0
LINE
  5
41A0
  8
0-1
  6
CONTINUOUS
 62
     3
 10
22257.544154999989
 20
8585.5879039999982
 30
0.0
 11
22257.544154999989
 21
6267.088643000001
 31
0.0
  0
LINE
  5
41A1
  8
0-1
  6
CONTINUOUS
 62
     3
 10
22302.54455100001
 20
8275.0885369999942
 30
0.0
 11
22302.54455100001
 21
6267.088643000001
 31
0.0
  0
LINE
  5
41A4
  8
0-1
  6
CONTINUOUS
 62
     3
 10
22302.54455100001
 20
8206.5482009999978
 30
0.0
 11
25396.047189999968
 21
8206.5482009999978
 31
0.0
  0
LINE
  5
41A5
  8
0-1
  6
CONTINUOUS
 62
     3
 10
22302.54455100001
 20
6852.0893359999973
 30
0.0
 11
25396.047189999968
 21
6852.0893359999973
 31
0.0
  0
LINE
  5
41A6
  8
0-1
  6
CONTINUOUS
 62
     3
 10
22302.54455100001
 20
6917.0883130000002
 30
0.0
 11
25396.047189999968
 21
6917.0883130000002
 31
0.0
  0
LINE
  5
41A7
  8
0-1
  6
CONTINUOUS
 62
     3
 10
22302.54455100001
 20
6982.0887749999983
 30
0.0
 11
25396.047189999968
 21
6982.0887749999983
 31
0.0
  0
LINE
  5
41A8
  8
0-1
  6
CONTINUOUS
 62
     3
 10
22302.54455100001
 20
7047.0887419999972
 30
0.0
 11
25396.047189999968
 21
7047.0887419999972
 31
0.0
  0
LINE
  5
41A9
  8
0-1
  6
CONTINUOUS
 62
     3
 10
22302.54455100001
 20
7112.0887089999969
 30
0.0
 11
25396.047189999968
 21
7112.0887089999969
 31
0.0
  0
LINE
  5
41AA
  8
0-1
  6
CONTINUOUS
 62
     3
 10
22302.54455100001
 20
7177.0886759999976
 30
0.0
 11
25396.047189999968
 21
7177.0886759999976
 31
0.0
  0
LINE
  5
41AB
  8
0-1
  6
CONTINUOUS
 62
     3
 10
22302.54455100001
 20
7242.089138000003
 30
0.0
 11
25396.047189999968
 21
7242.089138000003
 31
0.0
  0
LINE
  5
41AC
  8
0-1
  6
CONTINUOUS
 62
     3
 10
22302.54455100001
 20
7307.0881149999977
 30
0.0
 11
25396.047189999968
 21
7307.0881149999977
 31
0.0
  0
LINE
  5
41AD
  8
0-1
  6
CONTINUOUS
 62
     3
 10
22302.54455100001
 20
7372.0885769999977
 30
0.0
 11
25396.047189999968
 21
7372.0885769999977
 31
0.0
  0
LINE
  5
41AE
  8
0-1
  6
CONTINUOUS
 62
     3
 10
22302.54455100001
 20
7437.0885439999984
 30
0.0
 11
25396.047189999968
 21
7437.0885439999984
 31
0.0
  0
LINE
  5
41AF
  8
0-1
  6
CONTINUOUS
 62
     3
 10
22302.54455100001
 20
7502.0890059999974
 30
0.0
 11
25396.047189999968
 21
7502.0890059999974
 31
0.0
  0
LINE
  5
41B0
  8
0-1
  6
CONTINUOUS
 62
     3
 10
22302.54455100001
 20
7567.0879829999967
 30
0.0
 11
25396.047189999968
 21
7567.0879829999967
 31
0.0
  0
LINE
  5
41B1
  8
0-1
  6
CONTINUOUS
 62
     3
 10
22302.54455100001
 20
7632.0884449999976
 30
0.0
 11
25396.047189999968
 21
7632.0884449999976
 31
0.0
  0
LINE
  5
41B2
  8
0-1
  6
CONTINUOUS
 62
     3
 10
22302.54455100001
 20
7697.0884119999992
 30
0.0
 11
25396.047189999968
 21
7697.0884119999992
 31
0.0
  0
LINE
  5
41B3
  8
0-1
  6
CONTINUOUS
 62
     3
 10
22302.54455100001
 20
7762.0883789999989
 30
0.0
 11
25396.047189999968
 21
7762.0883789999989
 31
0.0
  0
LINE
  5
41B4
  8
0-1
  6
CONTINUOUS
 62
     3
 10
22302.54455100001
 20
7827.0888410000007
 30
0.0
 11
25396.047189999968
 21
7827.0888410000007
 31
0.0
  0
LINE
  5
41B5
  8
0-1
  6
CONTINUOUS
 62
     3
 10
22302.54455100001
 20
7892.0888079999977
 30
0.0
 11
25396.047189999968
 21
7892.0888079999977
 31
0.0
  0
LINE
  5
41B6
  8
0-1
  6
CONTINUOUS
 62
     3
 10
22302.54455100001
 20
7957.0892699999968
 30
0.0
 11
25396.047189999968
 21
7957.0892699999968
 31
0.0
  0
LINE
  5
41B7
  8
0-1
  6
CONTINUOUS
 62
     3
 10
22302.54455100001
 20
8022.0882469999933
 30
0.0
 11
25396.047189999968
 21
8022.0882469999933
 31
0.0
  0
LINE
  5
41B8
  8
0-1
  6
CONTINUOUS
 62
     3
 10
22302.54455100001
 20
8087.0887089999969
 30
0.0
 11
25396.047189999968
 21
8087.0887089999969
 31
0.0
  0
LINE
  5
41B9
  8
0-1
  6
CONTINUOUS
 62
     3
 10
22302.54455100001
 20
8152.0886759999976
 30
0.0
 11
25396.047189999968
 21
8152.0886759999976
 31
0.0
  0
LINE
  5
41BA
  8
0-1
  6
CONTINUOUS
 62
     3
 10
22302.54455100001
 20
6332.0881149999968
 30
0.0
 11
25396.047189999968
 21
6332.0881149999968
 31
0.0
  0
LINE
  5
41BB
  8
0-1
  6
CONTINUOUS
 62
     3
 10
22302.54455100001
 20
6397.0890719999979
 30
0.0
 11
25396.047189999968
 21
6397.0890719999979
 31
0.0
  0
LINE
  5
41BC
  8
0-1
  6
CONTINUOUS
 62
     3
 10
22302.54455100001
 20
6462.088048999999
 30
0.0
 11
25396.047189999968
 21
6462.088048999999
 31
0.0
  0
LINE
  5
41BD
  8
0-1
  6
CONTINUOUS
 62
     3
 10
22302.54455100001
 20
6527.0890059999974
 30
0.0
 11
25396.047189999968
 21
6527.0890059999974
 31
0.0
  0
LINE
  5
41BE
  8
0-1
  6
CONTINUOUS
 62
     3
 10
22302.54455100001
 20
6592.0884779999988
 30
0.0
 11
25396.047189999968
 21
6592.0884779999988
 31
0.0
  0
LINE
  5
41BF
  8
0-1
  6
CONTINUOUS
 62
     3
 10
22302.54455100001
 20
6657.0884450000012
 30
0.0
 11
25396.047189999968
 21
6657.0884450000012
 31
0.0
  0
LINE
  5
41C0
  8
0-1
  6
CONTINUOUS
 62
     3
 10
22302.54455100001
 20
6722.0884119999992
 30
0.0
 11
25396.047189999968
 21
6722.0884119999992
 31
0.0
  0
LINE
  5
41C1
  8
0-1
  6
CONTINUOUS
 62
     3
 10
22302.54455100001
 20
6787.0878839999987
 30
0.0
 11
25396.047189999968
 21
6787.0878839999987
 31
0.0
  0
LINE
  5
41C3
  8
0-1
  6
CONTINUOUS
 62
     3
 10
22257.544154999989
 20
8275.0885369999942
 30
0.0
 11
25441.047585999971
 21
8275.0885369999942
 31
0.0
  0
LINE
  5
41C4
  8
0-1
  6
CONTINUOUS
 62
     3
 10
18896.545211999979
 20
6267.088643000001
 30
0.0
 11
25533.546530999989
 21
6267.088643000001
 31
0.0
  0
LINE
  5
41CE
  8
0-1
  6
CONTINUOUS
 62
     3
 10
22172.545606999971
 20
8585.5879039999982
 30
0.0
 11
22172.545606999971
 21
6267.088643000001
 31
0.0
  0
LINE
  5
41CF
  8
0-1
  6
CONTINUOUS
 62
     3
 10
22127.547190999961
 20
8275.0885369999942
 30
0.0
 11
22127.547190999961
 21
6267.088643000001
 31
0.0
  0
LINE
  5
41DA
  8
0-1
  6
CONTINUOUS
 62
     3
 10
18996.546530999982
 20
6367.0884779999951
 30
0.0
 11
18996.546530999982
 21
6267.088643000001
 31
0.0
  0
LINE
  5
41DB
  8
0-1
  6
CONTINUOUS
 62
     3
 10
18896.545211999979
 20
6267.088643000001
 30
0.0
 11
18896.545211999979
 21
6367.0884779999951
 31
0.0
  0
LINE
  5
41DC
  8
0-1
  6
CONTINUOUS
 62
     3
 10
18896.545211999979
 20
6367.0884779999951
 30
0.0
 11
18996.546530999982
 21
6367.0884779999951
 31
0.0
  0
LINE
  5
41DD
  8
0-1
  6
CONTINUOUS
 62
     3
 10
19034.046530999982
 20
8275.0885369999942
 30
0.0
 11
19034.046530999982
 21
6267.088643000001
 31
0.0
  0
LINE
  5
41DE
  8
0-1
  6
CONTINUOUS
 62
     3
 10
18989.044155999982
 20
8585.5879039999982
 30
0.0
 11
18989.044155999982
 21
6367.0884779999951
 31
0.0
  0
LINE
  5
41DF
  8
0-1
  6
CONTINUOUS
 62
     3
 10
18924.046662999961
 20
8715.5888270000032
 30
0.0
 11
18924.046662999961
 21
6367.0884779999951
 31
0.0
  0
LINE
  5
41E0
  8
0-1
  6
CONTINUOUS
 62
     3
 10
18904.043627999981
 20
8585.5879039999982
 30
0.0
 11
18904.043627999981
 21
6367.0884779999951
 31
0.0
  0
LINE
  5
41E1
  8
0-1
  6
CONTINUOUS
 62
     3
 10
18989.044155999982
 20
8275.0885369999942
 30
0.0
 11
22172.545606999971
 21
8275.0885369999942
 31
0.0
  0
LINE
  5
41E3
  8
0-1
  6
CONTINUOUS
 62
     3
 10
19034.046530999982
 20
6787.0878839999987
 30
0.0
 11
22127.547190999961
 21
6787.0878839999987
 31
0.0
  0
LINE
  5
41E4
  8
0-1
  6
CONTINUOUS
 62
     3
 10
19034.046530999982
 20
6722.0884119999992
 30
0.0
 11
22127.547190999961
 21
6722.0884119999992
 31
0.0
  0
LINE
  5
41E5
  8
0-1
  6
CONTINUOUS
 62
     3
 10
19034.046530999982
 20
6657.0884450000012
 30
0.0
 11
22127.547190999961
 21
6657.0884450000012
 31
0.0
  0
LINE
  5
41E6
  8
0-1
  6
CONTINUOUS
 62
     3
 10
19034.046530999982
 20
6592.0884779999988
 30
0.0
 11
22127.547190999961
 21
6592.0884779999988
 31
0.0
  0
LINE
  5
41E7
  8
0-1
  6
CONTINUOUS
 62
     3
 10
19034.046530999982
 20
6527.0890059999974
 30
0.0
 11
22127.547190999961
 21
6527.0890059999974
 31
0.0
  0
LINE
  5
41E8
  8
0-1
  6
CONTINUOUS
 62
     3
 10
19034.046530999982
 20
6462.088048999999
 30
0.0
 11
22127.547190999961
 21
6462.088048999999
 31
0.0
  0
LINE
  5
41E9
  8
0-1
  6
CONTINUOUS
 62
     3
 10
19034.046530999982
 20
6397.0890719999979
 30
0.0
 11
22127.547190999961
 21
6397.0890719999979
 31
0.0
  0
LINE
  5
41EA
  8
0-1
  6
CONTINUOUS
 62
     3
 10
19034.046530999982
 20
6332.0881149999968
 30
0.0
 11
22127.547190999961
 21
6332.0881149999968
 31
0.0
  0
LINE
  5
41EB
  8
0-1
  6
CONTINUOUS
 62
     3
 10
19034.046530999982
 20
8152.0886759999976
 30
0.0
 11
22127.547190999961
 21
8152.0886759999976
 31
0.0
  0
LINE
  5
41EC
  8
0-1
  6
CONTINUOUS
 62
     3
 10
19034.046530999982
 20
8087.0887089999969
 30
0.0
 11
22127.547190999961
 21
8087.0887089999969
 31
0.0
  0
LINE
  5
41ED
  8
0-1
  6
CONTINUOUS
 62
     3
 10
19034.046530999982
 20
8022.0882469999933
 30
0.0
 11
22127.547190999961
 21
8022.0882469999933
 31
0.0
  0
LINE
  5
41EE
  8
0-1
  6
CONTINUOUS
 62
     3
 10
19034.046530999982
 20
7957.0892699999968
 30
0.0
 11
22127.547190999961
 21
7957.0892699999968
 31
0.0
  0
LINE
  5
41EF
  8
0-1
  6
CONTINUOUS
 62
     3
 10
19034.046530999982
 20
7892.0888079999977
 30
0.0
 11
22127.547190999961
 21
7892.0888079999977
 31
0.0
  0
LINE
  5
41F0
  8
0-1
  6
CONTINUOUS
 62
     3
 10
19034.046530999982
 20
7827.0888410000007
 30
0.0
 11
22127.547190999961
 21
7827.0888410000007
 31
0.0
  0
LINE
  5
41F1
  8
0-1
  6
CONTINUOUS
 62
     3
 10
19034.046530999982
 20
7762.0883789999989
 30
0.0
 11
22127.547190999961
 21
7762.0883789999989
 31
0.0
  0
LINE
  5
41F2
  8
0-1
  6
CONTINUOUS
 62
     3
 10
19034.046530999982
 20
7697.0884119999992
 30
0.0
 11
22127.547190999961
 21
7697.0884119999992
 31
0.0
  0
LINE
  5
41F3
  8
0-1
  6
CONTINUOUS
 62
     3
 10
19034.046530999982
 20
7632.0884449999976
 30
0.0
 11
22127.547190999961
 21
7632.0884449999976
 31
0.0
  0
LINE
  5
41F4
  8
0-1
  6
CONTINUOUS
 62
     3
 10
19034.046530999982
 20
7567.0879829999967
 30
0.0
 11
22127.547190999961
 21
7567.0879829999967
 31
0.0
  0
LINE
  5
41F5
  8
0-1
  6
CONTINUOUS
 62
     3
 10
19034.046530999982
 20
7502.0890059999974
 30
0.0
 11
22127.547190999961
 21
7502.0890059999974
 31
0.0
  0
LINE
  5
41F6
  8
0-1
  6
CONTINUOUS
 62
     3
 10
19034.046530999982
 20
7437.0885439999984
 30
0.0
 11
22127.547190999961
 21
7437.0885439999984
 31
0.0
  0
LINE
  5
41F7
  8
0-1
  6
CONTINUOUS
 62
     3
 10
19034.046530999982
 20
7372.0885769999977
 30
0.0
 11
22127.547190999961
 21
7372.0885769999977
 31
0.0
  0
LINE
  5
41F8
  8
0-1
  6
CONTINUOUS
 62
     3
 10
19034.046530999982
 20
7307.0881149999977
 30
0.0
 11
22127.547190999961
 21
7307.0881149999977
 31
0.0
  0
LINE
  5
41F9
  8
0-1
  6
CONTINUOUS
 62
     3
 10
19034.046530999982
 20
7242.089138000003
 30
0.0
 11
22127.547190999961
 21
7242.089138000003
 31
0.0
  0
LINE
  5
41FA
  8
0-1
  6
CONTINUOUS
 62
     3
 10
19034.046530999982
 20
7177.0886759999976
 30
0.0
 11
22127.547190999961
 21
7177.0886759999976
 31
0.0
  0
LINE
  5
41FB
  8
0-1
  6
CONTINUOUS
 62
     3
 10
19034.046530999982
 20
7112.0887089999969
 30
0.0
 11
22127.547190999961
 21
7112.0887089999969
 31
0.0
  0
LINE
  5
41FC
  8
0-1
  6
CONTINUOUS
 62
     3
 10
19034.046530999982
 20
7047.0887419999972
 30
0.0
 11
22127.547190999961
 21
7047.0887419999972
 31
0.0
  0
LINE
  5
41FD
  8
0-1
  6
CONTINUOUS
 62
     3
 10
19034.046530999982
 20
6982.0887749999983
 30
0.0
 11
22127.547190999961
 21
6982.0887749999983
 31
0.0
  0
LINE
  5
41FE
  8
0-1
  6
CONTINUOUS
 62
     3
 10
19034.046530999982
 20
6917.0883130000002
 30
0.0
 11
22127.547190999961
 21
6917.0883130000002
 31
0.0
  0
LINE
  5
41FF
  8
0-1
  6
CONTINUOUS
 62
     3
 10
19034.046530999982
 20
6852.0893359999973
 30
0.0
 11
22127.547190999961
 21
6852.0893359999973
 31
0.0
  0
LINE
  5
4200
  8
0-1
  6
CONTINUOUS
 62
     3
 10
19034.046530999982
 20
8206.5482009999978
 30
0.0
 11
22127.547190999961
 21
8206.5482009999978
 31
0.0
  0
LINE
  5
4206
  8
0-2
  6
CONTINUOUS
 62
     4
 10
24212.98787099999
 20
7014.3143469999986
 30
0.0
 11
24112.988530999992
 21
7014.3143469999986
 31
0.0
  0
LINE
  5
4207
  8
0-2
  6
CONTINUOUS
 62
     4
 10
23485.601890999991
 20
7014.3143469999986
 30
0.0
 11
23585.601231999961
 21
7014.3143469999986
 31
0.0
  0
LINE
  5
4208
  8
0-2
  6
CONTINUOUS
 62
     4
 10
20944.48688149999
 20
7014.3143469999986
 30
0.0
 11
20844.487541499981
 21
7014.3143469999986
 31
0.0
  0
LINE
  5
4209
  8
0-2
  6
CONTINUOUS
 62
     4
 10
20217.102880499991
 20
7014.3143469999986
 30
0.0
 11
20317.100241499989
 21
7014.3143469999986
 31
0.0
  0
LINE
  5
420A
  8
0-5
  6
CONTINUOUS
 62
     4
 10
22215.04587099998
 20
4587.0885439999929
 30
0.0
 11
22215.04587099998
 21
4427.0885109999999
 31
0.0
  0
LINE
  5
420B
  8
0-5
  6
CONTINUOUS
 62
     4
 10
18946.54587099998
 20
4587.0885439999929
 30
0.0
 11
18946.54587099998
 21
4427.0885109999999
 31
0.0
  0
LINE
  5
420C
  8
2-0
  6
CENTER2
 62
     6
 10
25483.54587099998
 20
6004.4362199999978
 30
0.0
 11
25483.54587099998
 21
7041.5782569999992
 31
0.0
  0
LINE
  5
420D
  8
2-0
  6
CENTER2
 62
     6
 10
22215.04587099998
 20
6004.4362199999978
 30
0.0
 11
22215.04587099998
 21
7041.5782569999992
 31
0.0
  0
LINE
  5
420E
  8
2-0
  6
CENTER2
 62
     6
 10
18946.54587099998
 20
6004.4362199999978
 30
0.0
 11
18946.54587099998
 21
7041.5782569999992
 31
0.0
  0
CIRCLE
  5
421F
  8
0-5
  6
CONTINUOUS
 62
     4
 10
22215.04587099998
 20
4227.0888409999989
 30
0.0
 40
199.9999949999999
  0
CIRCLE
  5
4220
  8
0-5
  6
CONTINUOUS
 62
     4
 10
18946.54587099998
 20
4227.0888409999989
 30
0.0
 40
199.9999949999999
  0
TEXT
  5
4221
  8
0-5
  6
CONTINUOUS
 62
     7
 10
18328.369931999991
 20
6996.4488897419951
 30
0.0
 40
160.0
  1
(2131.5)
 50
90.0
 72
     4
 11
18248.369931999991
 21
7449.7822230753281
 31
0.0
  0
TEXT
  5
4222
  8
0-5
  6
CONTINUOUS
 62
     7
 10
22168.11742399996
 20
4140.5588870000001
 30
0.0
 40
160.0
  1
2
 72
     4
 11
22221.450757333299
 21
4220.5588869999992
 31
0.0
  0
TEXT
  5
4223
  8
0-5
  6
CONTINUOUS
 62
     7
 10
18899.613464999969
 20
4140.5588870000001
 30
0.0
 40
160.0
  1
1
 72
     4
 11
18926.280131666641
 21
4220.5588869999992
 31
0.0
  0
CIRCLE
  5
4224
  8
0-4
  6
CONTINUOUS
 62
     4
 10
20580.795870999991
 20
6753.144583999996
 30
0.0
 40
18.487504999999981
  0
CIRCLE
  5
4225
  8
0-4
  6
CONTINUOUS
 62
     4
 10
23849.29587099998
 20
6753.144583999996
 30
0.0
 40
18.487504999999981
  0
LINE
  5
4226
  8
SUNPOU
  6
CONTINUOUS
 10
18664.04587099998
 20
5067.088643000001
 30
0.0
 11
18306.090864278871
 21
5067.088643000001
 31
0.0
  0
LINE
  5
4227
  8
SUNPOU
  6
CONTINUOUS
 10
25766.049829999982
 20
5067.088643000001
 30
0.0
 11
26124.004836721091
 21
5067.088643000001
 31
0.0
  0
LINE
  5
4228
  8
0-5
  6
CONTINUOUS
 62
     4
 10
25526.04587099998
 20
4587.0885439999929
 30
0.0
 11
25526.04587099998
 21
4427.0885109999999
 31
0.0
  0
CIRCLE
  5
4229
  8
0-5
  6
CONTINUOUS
 62
     4
 10
25526.04587099998
 20
4227.0888409999989
 30
0.0
 40
199.9999949999999
  0
TEXT
  5
422A
  8
0-5
  6
CONTINUOUS
 62
     7
 10
25479.117423999971
 20
4140.5588870000001
 30
0.0
 40
160.0
  1
3
 72
     4
 11
25532.45075733331
 21
4220.5588869999992
 31
0.0
  0
TEXT
  5
422B
  8
2-0
  6
CONTINUOUS
 62
     7
 10
20897.01212699998
 20
3389.967011000002
 30
0.0
 40
160.0
  1
正 面 立 面 図
 50
0.000139
 72
     4
 11
21542.345266250799
 21
3469.968576583376
 31
0.0
  0
TEXT
  5
422C
  8
2-0
  6
CONTINUOUS
 62
     7
 10
22893.83745138843
 20
3417.1639455833761
 30
0.0
 40
160.0
  1
1
 72
     4
 11
22920.504118055102
 21
3497.163945583377
 31
0.0
  0
TEXT
  5
422D
  8
2-0
  6
CONTINUOUS
 62
     7
 10
23136.926168639118
 20
3337.165413583376
 30
0.0
 40
160.0
  1
80
 72
     4
 11
23256.926168639118
 21
3417.165413583376
 31
0.0
  0
TEXT
  5
422E
  8
2-0
  6
CONTINUOUS
 62
     7
 10
22394.839417388412
 20
3389.968576583376
 30
0.0
 40
160.0
  1
(S=  /   )
 72
     4
 11
22954.839417388412
 21
3469.968576583376
 31
0.0
  0
LINE
  5
422F
  8
0-5
  6
CONTINUOUS
 62
     4
 10
16724.676810999961
 20
6474.9341350000013
 30
0.0
 11
16844.67324799997
 21
6267.088643000001
 31
0.0
  0
LINE
  5
4230
  8
0-5
  6
CONTINUOUS
 62
     4
 10
16844.67324799997
 20
6267.088643000001
 30
0.0
 11
16964.673643999969
 21
6474.9341350000013
 31
0.0
  0
LINE
  5
4231
  8
0-5
  6
CONTINUOUS
 62
     4
 10
16964.673643999969
 20
6474.9341350000013
 30
0.0
 11
16724.676810999961
 21
6474.9341350000013
 31
0.0
  0
TEXT
  5
4232
  8
0-5
  6
CONTINUOUS
 62
     7
 10
16724.676810999968
 20
6554.9348929999987
 30
0.0
 40
160.0
  1
G.L
 72
     4
 11
16884.676810999968
 21
6634.9348929999987
 31
0.0
  0
TEXT
  5
4233
  8
2-0
  6
CONTINUOUS
 62
     7
 10
21134.119773999999
 20
12256.04839299999
 30
0.0
 40
160.0
  1
平　面　図
 50
359.99978700000008
 72
     4
 11
21587.45338490736
 21
12330.713374376221
 31
0.0
  0
TEXT
  5
4234
  8
2-0
  6
CONTINUOUS
 62
     7
 10
22938.94557004498
 20
12277.908743376231
 30
0.0
 40
160.0
  1
1
 72
     4
 11
22965.612236711651
 21
12357.908743376231
 31
0.0
  0
TEXT
  5
4235
  8
2-0
  6
CONTINUOUS
 62
     7
 10
23182.034287295672
 20
12197.91021137622
 30
0.0
 40
160.0
  1
80
 72
     4
 11
23302.034287295672
 21
12277.91021137622
 31
0.0
  0
TEXT
  5
4236
  8
2-0
  6
CONTINUOUS
 62
     7
 10
22439.94753604498
 20
12250.713374376221
 30
0.0
 40
160.0
  1
(S=  /   )
 72
     4
 11
22999.94753604498
 21
12330.713374376221
 31
0.0
  0
LINE
  5
4237
  8
2-0
  6
CONTINUOUS
 62
     6
 10
23800.386954999969
 20
13868.038666
 30
0.0
 11
24800.380356999951
 21
13868.038666
 31
0.0
  0
LINE
  5
4238
  8
2-0
  6
CONTINUOUS
 62
     6
 10
25268.320733999972
 20
14338.45938
 30
0.0
 11
24800.380356999951
 21
13868.038666
 31
0.0
  0
LINE
  5
4239
  8
2-0
  6
CONTINUOUS
 62
     6
 10
23817.098050999961
 20
18196.658730999989
 30
0.0
 11
24835.073398999972
 21
18196.658730999989
 31
0.0
  0
LINE
  5
423A
  8
2-0
  6
CONTINUOUS
 62
     6
 10
25291.498916999961
 20
18421.373680000001
 30
0.0
 11
24835.073398999972
 21
18196.658730999989
 31
0.0
  0
LINE
  5
423B
  8
2-0
  6
CONTINUOUS
 62
     6
 10
25229.680530999969
 20
17179.567027000001
 30
0.0
 11
24924.985112999992
 21
17283.220558000019
 31
0.0
  0
LINE
  5
423C
  8
2-0
  6
CONTINUOUS
 62
     6
 10
25384.702569999961
 20
16689.944983000001
 30
0.0
 11
24924.985112999992
 21
16446.031672000001
 31
0.0
  0
LINE
  5
423D
  8
2-0
  6
CONTINUOUS
 62
     6
 10
24004.982077999972
 20
16446.031672000001
 30
0.0
 11
24924.985112999992
 21
16446.031672000001
 31
0.0
  0
LINE
  5
423E
  8
2-0
  6
CONTINUOUS
 62
     6
 10
23724.991050999961
 20
17283.220558000019
 30
0.0
 11
24924.985112999992
 21
17283.220558000019
 31
0.0
  0
LINE
  5
423F
  8
2-0
  6
CONTINUOUS
 62
     6
 10
25300.879854999981
 20
14660.14302599998
 30
0.0
 11
24924.985112999992
 21
14841.086861
 31
0.0
  0
LINE
  5
4240
  8
2-0
  6
CONTINUOUS
 62
     6
 10
23817.098050999961
 20
15278.89627300002
 30
0.0
 11
24835.073398999972
 21
15278.89627300002
 31
0.0
  0
LINE
  5
4241
  8
2-0
  6
CONTINUOUS
 62
     6
 10
24404.983396999989
 20
14841.086861
 30
0.0
 11
24924.985112999992
 21
14841.086861
 31
0.0
  0
LINE
  5
4242
  8
2-0
  6
CONTINUOUS
 62
     6
 10
25291.498916999961
 20
15503.60924300001
 30
0.0
 11
24835.073398999972
 21
15278.89627300002
 31
0.0
  0
LINE
  5
4243
  8
2-0
  6
CONTINUOUS
 62
     4
 10
22215.04587099998
 20
19765.540316000021
 30
0.0
 11
22215.04587099998
 21
20495.537281000012
 31
0.0
  0
LINE
  5
4244
  8
2-0
  6
CONTINUOUS
 62
     3
 10
25496.04653099996
 20
19576.537862000001
 30
0.0
 11
25496.04653099996
 21
19570.5419
 31
0.0
  0
LINE
  5
4245
  8
2-0
  6
CONTINUOUS
 62
     3
 10
25496.04653099996
 20
19570.5419
 30
0.0
 11
25526.044154999981
 21
19570.5419
 31
0.0
  0
LINE
  5
4246
  8
2-0
  6
CONTINUOUS
 62
     3
 10
25526.044154999981
 20
19600.541504000001
 30
0.0
 11
25445.04225499996
 21
19600.541504000001
 31
0.0
  0
LINE
  5
4247
  8
2-0
  6
CONTINUOUS
 62
     3
 10
25496.04653099996
 20
19560.244444
 30
0.0
 11
25526.044154999981
 21
19560.244444
 31
0.0
  0
LINE
  5
4248
  8
2-0
  6
CONTINUOUS
 62
     3
 10
25496.04653099996
 20
19578.246186000011
 30
0.0
 11
25496.04653099996
 21
19560.244444
 31
0.0
  0
LINE
  5
4249
  8
2-0
  6
CONTINUOUS
 62
     3
 10
25521.04389099999
 20
19578.246186000011
 30
0.0
 11
25496.04653099996
 21
19578.246186000011
 31
0.0
  0
LINE
  5
424A
  8
2-0
  6
CONTINUOUS
 62
     3
 10
25521.04389099999
 20
19573.238004000021
 30
0.0
 11
25521.04389099999
 21
19578.246186000011
 31
0.0
  0
LINE
  5
424B
  8
2-0
  6
CONTINUOUS
 62
     3
 10
25514.042333999991
 20
19573.238004000021
 30
0.0
 11
25521.04389099999
 21
19573.238004000021
 31
0.0
  0
LINE
  5
424C
  8
2-0
  6
CONTINUOUS
 62
     3
 10
25413.746065999982
 20
19673.538230999999
 30
0.0
 11
25413.746065999982
 21
19680.543747000011
 31
0.0
  0
LINE
  5
424D
  8
2-0
  6
CONTINUOUS
 62
     3
 10
25413.746065999982
 20
19680.543747000011
 30
0.0
 11
25418.746329999969
 21
19680.543747000011
 31
0.0
  0
LINE
  5
424E
  8
2-0
  6
CONTINUOUS
 62
     3
 10
25418.746329999969
 20
19680.543747000011
 30
0.0
 11
25418.746329999969
 21
19655.534510000001
 31
0.0
  0
LINE
  5
424F
  8
2-0
  6
CONTINUOUS
 62
     3
 10
25418.746329999969
 20
19655.534510000001
 30
0.0
 11
25400.744587999961
 21
19655.534510000001
 31
0.0
  0
LINE
  5
4250
  8
2-0
  6
CONTINUOUS
 62
     3
 10
25400.744587999961
 20
19655.534510000001
 30
0.0
 11
25400.744587999961
 21
19685.538073000022
 31
0.0
  0
LINE
  5
4251
  8
2-0
  6
CONTINUOUS
 62
     3
 10
25411.042043999969
 20
19685.538073000022
 30
0.0
 11
25526.044154999981
 21
19685.538073000022
 31
0.0
  0
LINE
  5
4252
  8
2-0
  6
CONTINUOUS
 62
     3
 10
25411.042043999969
 20
19655.534510000001
 30
0.0
 11
25411.042043999969
 21
19685.538073000022
 31
0.0
  0
LINE
  5
4253
  8
2-0
  6
CONTINUOUS
 62
     3
 10
25417.043943999972
 20
19655.534510000001
 30
0.0
 11
25411.042043999969
 21
19655.534510000001
 31
0.0
  0
LINE
  5
4254
  8
2-0
  6
CONTINUOUS
 62
     3
 10
25514.042333999991
 20
19219.941181499991
 30
0.0
 11
25521.04389099999
 21
19219.941181499991
 31
0.0
  0
LINE
  5
4255
  8
2-0
  6
CONTINUOUS
 62
     3
 10
25521.04389099999
 20
19219.941181499991
 30
0.0
 11
25521.04389099999
 21
19224.941445500001
 31
0.0
  0
LINE
  5
4256
  8
2-0
  6
CONTINUOUS
 62
     3
 10
25521.04389099999
 20
19224.941445500001
 30
0.0
 11
25496.04653099996
 21
19224.941445500001
 31
0.0
  0
LINE
  5
4257
  8
2-0
  6
CONTINUOUS
 62
     3
 10
25496.04653099996
 20
19224.941445500001
 30
0.0
 11
25496.04653099996
 21
19206.945641499991
 31
0.0
  0
LINE
  5
4258
  8
2-0
  6
CONTINUOUS
 62
     3
 10
25496.04653099996
 20
19206.945641499991
 30
0.0
 11
25526.044154999981
 21
19206.945641499991
 31
0.0
  0
LINE
  5
4259
  8
2-0
  6
CONTINUOUS
 62
     3
 10
25496.04653099996
 20
19223.037148499981
 30
0.0
 11
25496.04653099996
 21
19217.039207500002
 31
0.0
  0
LINE
  5
425A
  8
2-0
  6
CONTINUOUS
 62
     3
 10
25496.04653099996
 20
19217.039207500002
 30
0.0
 11
25526.044154999981
 21
19217.039207500002
 31
0.0
  0
LINE
  5
425B
  8
2-0
  6
CONTINUOUS
 62
     3
 10
25526.044154999981
 20
19217.039207500002
 30
0.0
 11
25526.044154999981
 21
19254.040368499991
 31
0.0
  0
LINE
  5
425C
  8
2-0
  6
CONTINUOUS
 62
     3
 10
25496.04653099996
 20
19254.040368499991
 30
0.0
 11
25526.044154999981
 21
19254.040368499991
 31
0.0
  0
LINE
  5
425D
  8
2-0
  6
CONTINUOUS
 62
     3
 10
25496.04653099996
 20
19248.036488499991
 30
0.0
 11
25496.04653099996
 21
19254.040368499991
 31
0.0
  0
LINE
  5
425E
  8
2-0
  6
CONTINUOUS
 62
     3
 10
25496.04653099996
 20
19264.135913499991
 30
0.0
 11
25526.044154999981
 21
19264.135913499991
 31
0.0
  0
LINE
  5
425F
  8
2-0
  6
CONTINUOUS
 62
     3
 10
25496.04653099996
 20
19246.134171500002
 30
0.0
 11
25496.04653099996
 21
19264.135913499991
 31
0.0
  0
LINE
  5
4260
  8
2-0
  6
CONTINUOUS
 62
     3
 10
25521.04389099999
 20
19246.134171500002
 30
0.0
 11
25496.04653099996
 21
19246.134171500002
 31
0.0
  0
LINE
  5
4261
  8
2-0
  6
CONTINUOUS
 62
     3
 10
25521.04389099999
 20
19251.1344355
 30
0.0
 11
25521.04389099999
 21
19246.134171500002
 31
0.0
  0
LINE
  5
4262
  8
2-0
  6
CONTINUOUS
 62
     3
 10
25514.042333999991
 20
19251.1344355
 30
0.0
 11
25521.04389099999
 21
19251.1344355
 31
0.0
  0
LINE
  5
4263
  8
2-0
  6
CONTINUOUS
 62
     3
 10
25514.042333999991
 20
18518.940191999998
 30
0.0
 11
25521.04389099999
 21
18518.940191999998
 31
0.0
  0
LINE
  5
4264
  8
2-0
  6
CONTINUOUS
 62
     3
 10
25521.04389099999
 20
18518.940191999998
 30
0.0
 11
25521.04389099999
 21
18523.946393999991
 31
0.0
  0
LINE
  5
4265
  8
2-0
  6
CONTINUOUS
 62
     3
 10
25521.04389099999
 20
18523.946393999991
 30
0.0
 11
25496.04653099996
 21
18523.946393999991
 31
0.0
  0
LINE
  5
4266
  8
2-0
  6
CONTINUOUS
 62
     3
 10
25496.04653099996
 20
18523.946393999991
 30
0.0
 11
25496.04653099996
 21
18505.944651999998
 31
0.0
  0
LINE
  5
4267
  8
2-0
  6
CONTINUOUS
 62
     3
 10
25496.04653099996
 20
18505.944651999998
 30
0.0
 11
25526.044154999981
 21
18505.944651999998
 31
0.0
  0
LINE
  5
4268
  8
2-0
  6
CONTINUOUS
 62
     3
 10
25496.04653099996
 20
18522.036158999981
 30
0.0
 11
25496.04653099996
 21
18516.040196999991
 31
0.0
  0
LINE
  5
4269
  8
2-0
  6
CONTINUOUS
 62
     3
 10
25496.04653099996
 20
18516.040196999991
 30
0.0
 11
25526.044154999981
 21
18516.040196999991
 31
0.0
  0
LINE
  5
426A
  8
2-0
  6
CONTINUOUS
 62
     3
 10
25526.044154999981
 20
18516.040196999991
 30
0.0
 11
25526.044154999981
 21
18553.039379000002
 31
0.0
  0
LINE
  5
426B
  8
2-0
  6
CONTINUOUS
 62
     3
 10
25496.04653099996
 20
18553.039379000002
 30
0.0
 11
25526.044154999981
 21
18553.039379000002
 31
0.0
  0
LINE
  5
426C
  8
2-0
  6
CONTINUOUS
 62
     3
 10
25496.04653099996
 20
18547.043416999979
 30
0.0
 11
25496.04653099996
 21
18553.039379000002
 31
0.0
  0
LINE
  5
426D
  8
2-0
  6
CONTINUOUS
 62
     3
 10
25496.04653099996
 20
18563.134924000002
 30
0.0
 11
25526.044154999981
 21
18563.134924000002
 31
0.0
  0
LINE
  5
426E
  8
2-0
  6
CONTINUOUS
 62
     3
 10
25496.04653099996
 20
18545.133182000001
 30
0.0
 11
25496.04653099996
 21
18563.134924000002
 31
0.0
  0
LINE
  5
426F
  8
2-0
  6
CONTINUOUS
 62
     3
 10
25521.04389099999
 20
18545.133182000001
 30
0.0
 11
25496.04653099996
 21
18545.133182000001
 31
0.0
  0
LINE
  5
4270
  8
2-0
  6
CONTINUOUS
 62
     3
 10
25521.04389099999
 20
18550.139383999991
 30
0.0
 11
25521.04389099999
 21
18545.133182000001
 31
0.0
  0
LINE
  5
4271
  8
2-0
  6
CONTINUOUS
 62
     3
 10
25514.042333999991
 20
18550.139383999991
 30
0.0
 11
25521.04389099999
 21
18550.139383999991
 31
0.0
  0
LINE
  5
4272
  8
2-0
  6
CONTINUOUS
 62
     3
 10
25514.042333999991
 20
17849.133446
 30
0.0
 11
25521.04389099999
 21
17849.133446
 31
0.0
  0
LINE
  5
4273
  8
2-0
  6
CONTINUOUS
 62
     3
 10
25521.04389099999
 20
17849.133446
 30
0.0
 11
25521.04389099999
 21
17844.145058999991
 31
0.0
  0
LINE
  5
4274
  8
2-0
  6
CONTINUOUS
 62
     3
 10
25521.04389099999
 20
17844.145058999991
 30
0.0
 11
25496.04653099996
 21
17844.145058999991
 31
0.0
  0
LINE
  5
4275
  8
2-0
  6
CONTINUOUS
 62
     3
 10
25496.04653099996
 20
17844.145058999991
 30
0.0
 11
25496.04653099996
 21
17862.140862000011
 31
0.0
  0
LINE
  5
4276
  8
2-0
  6
CONTINUOUS
 62
     3
 10
25496.04653099996
 20
17862.140862000011
 30
0.0
 11
25526.044154999981
 21
17862.140862000011
 31
0.0
  0
LINE
  5
4277
  8
2-0
  6
CONTINUOUS
 62
     3
 10
25496.04653099996
 20
17846.043417000012
 30
0.0
 11
25496.04653099996
 21
17852.039379000002
 31
0.0
  0
LINE
  5
4278
  8
2-0
  6
CONTINUOUS
 62
     3
 10
25496.04653099996
 20
17852.039379000002
 30
0.0
 11
25526.044154999981
 21
17852.039379000002
 31
0.0
  0
LINE
  5
4279
  8
2-0
  6
CONTINUOUS
 62
     3
 10
25526.044154999981
 20
17852.039379000002
 30
0.0
 11
25526.044154999981
 21
17815.040196999991
 31
0.0
  0
LINE
  5
427A
  8
2-0
  6
CONTINUOUS
 62
     3
 10
25496.04653099996
 20
17815.040196999991
 30
0.0
 11
25526.044154999981
 21
17815.040196999991
 31
0.0
  0
LINE
  5
427B
  8
2-0
  6
CONTINUOUS
 62
     3
 10
25496.04653099996
 20
17821.042098000002
 30
0.0
 11
25496.04653099996
 21
17815.040196999991
 31
0.0
  0
LINE
  5
427C
  8
2-0
  6
CONTINUOUS
 62
     3
 10
25496.04653099996
 20
17804.950591000012
 30
0.0
 11
25526.044154999981
 21
17804.950591000012
 31
0.0
  0
LINE
  5
427D
  8
2-0
  6
CONTINUOUS
 62
     3
 10
25496.04653099996
 20
17822.946393999991
 30
0.0
 11
25496.04653099996
 21
17804.950591000012
 31
0.0
  0
LINE
  5
427E
  8
2-0
  6
CONTINUOUS
 62
     3
 10
25521.04389099999
 20
17822.946393999991
 30
0.0
 11
25496.04653099996
 21
17822.946393999991
 31
0.0
  0
LINE
  5
427F
  8
2-0
  6
CONTINUOUS
 62
     3
 10
25521.04389099999
 20
17817.946131000012
 30
0.0
 11
25521.04389099999
 21
17822.946393999991
 31
0.0
  0
LINE
  5
4280
  8
2-0
  6
CONTINUOUS
 62
     3
 10
25514.042333999991
 20
17817.946131000012
 30
0.0
 11
25521.04389099999
 21
17817.946131000012
 31
0.0
  0
LINE
  5
4281
  8
2-0
  6
CONTINUOUS
 62
     3
 10
25523.15801699998
 20
17098.037016999999
 30
0.0
 11
25523.15801699998
 21
17118.038071999988
 31
0.0
  0
LINE
  5
4282
  8
2-0
  6
CONTINUOUS
 62
     3
 10
25523.15801699998
 20
17118.038071999988
 30
0.0
 11
25438.161447999981
 21
17118.038071999988
 31
0.0
  0
LINE
  5
4283
  8
2-0
  6
CONTINUOUS
 62
     3
 10
25514.042333999991
 20
17144.64478200001
 30
0.0
 11
25521.04389099999
 21
17144.64478200001
 31
0.0
  0
LINE
  5
4284
  8
2-0
  6
CONTINUOUS
 62
     3
 10
25521.04389099999
 20
17144.64478200001
 30
0.0
 11
25521.04389099999
 21
17139.65045600001
 31
0.0
  0
LINE
  5
4285
  8
2-0
  6
CONTINUOUS
 62
     3
 10
25521.04389099999
 20
17139.65045600001
 30
0.0
 11
25496.04653099996
 21
17139.65045600001
 31
0.0
  0
LINE
  5
4286
  8
2-0
  6
CONTINUOUS
 62
     3
 10
25496.04653099996
 20
17139.65045600001
 30
0.0
 11
25496.04653099996
 21
17157.646260000001
 31
0.0
  0
LINE
  5
4287
  8
2-0
  6
CONTINUOUS
 62
     3
 10
25496.04653099996
 20
17157.646260000001
 30
0.0
 11
25526.044154999981
 21
17157.646260000001
 31
0.0
  0
LINE
  5
4288
  8
2-0
  6
CONTINUOUS
 62
     3
 10
25496.04653099996
 20
17148.037676
 30
0.0
 11
25496.04653099996
 21
17142.035776000001
 31
0.0
  0
LINE
  5
4289
  8
2-0
  6
CONTINUOUS
 62
     3
 10
25526.044154999981
 20
17148.037676
 30
0.0
 11
25496.04653099996
 21
17148.037676
 31
0.0
  0
LINE
  5
428A
  8
2-0
  6
CONTINUOUS
 62
     3
 10
25526.044154999981
 20
17157.646260000001
 30
0.0
 11
25526.044154999981
 21
17804.950591000012
 31
0.0
  0
LINE
  5
428B
  8
2-0
  6
CONTINUOUS
 62
     3
 10
25526.044154999981
 20
17862.140862000011
 30
0.0
 11
25526.044154999981
 21
18505.944651999998
 31
0.0
  0
LINE
  5
428C
  8
2-0
  6
CONTINUOUS
 62
     3
 10
25526.044154999981
 20
17003.035961000009
 30
0.0
 11
25496.04653099996
 21
17003.035961000009
 31
0.0
  0
LINE
  5
428D
  8
2-0
  6
CONTINUOUS
 62
     3
 10
25496.04653099996
 20
17003.035961000009
 30
0.0
 11
25496.04653099996
 21
17009.037861000012
 31
0.0
  0
LINE
  5
428E
  8
2-0
  6
CONTINUOUS
 62
     3
 10
25438.161447999981
 20
17033.041504000012
 30
0.0
 11
25523.15801699998
 21
17033.041504000012
 31
0.0
  0
LINE
  5
428F
  8
2-0
  6
CONTINUOUS
 62
     3
 10
25523.15801699998
 20
17033.041504000012
 30
0.0
 11
25523.15801699998
 21
17053.03662100001
 31
0.0
  0
LINE
  5
4290
  8
2-0
  6
CONTINUOUS
 62
     3
 10
25496.04653099996
 20
16993.427378000011
 30
0.0
 11
25526.044154999981
 21
16993.427378000011
 31
0.0
  0
LINE
  5
4291
  8
2-0
  6
CONTINUOUS
 62
     3
 10
25496.04653099996
 20
17011.423180999991
 30
0.0
 11
25496.04653099996
 21
16993.427378000011
 31
0.0
  0
LINE
  5
4292
  8
2-0
  6
CONTINUOUS
 62
     3
 10
25521.04389099999
 20
17011.423180999991
 30
0.0
 11
25496.04653099996
 21
17011.423180999991
 31
0.0
  0
LINE
  5
4293
  8
2-0
  6
CONTINUOUS
 62
     3
 10
25521.04389099999
 20
17006.422917000011
 30
0.0
 11
25521.04389099999
 21
17011.423180999991
 31
0.0
  0
LINE
  5
4294
  8
2-0
  6
CONTINUOUS
 62
     3
 10
25514.042333999991
 20
17006.422917000011
 30
0.0
 11
25521.04389099999
 21
17006.422917000011
 31
0.0
  0
LINE
  5
4295
  8
2-0
  6
CONTINUOUS
 62
     3
 10
25514.042333999991
 20
16301.94068649998
 30
0.0
 11
25521.04389099999
 21
16301.94068649998
 31
0.0
  0
LINE
  5
4296
  8
2-0
  6
CONTINUOUS
 62
     3
 10
25521.04389099999
 20
16301.94068649998
 30
0.0
 11
25521.04389099999
 21
16306.94095049998
 31
0.0
  0
LINE
  5
4297
  8
2-0
  6
CONTINUOUS
 62
     3
 10
25521.04389099999
 20
16306.94095049998
 30
0.0
 11
25496.04653099996
 21
16306.94095049998
 31
0.0
  0
LINE
  5
4298
  8
2-0
  6
CONTINUOUS
 62
     3
 10
25496.04653099996
 20
16306.94095049998
 30
0.0
 11
25496.04653099996
 21
16288.9392085
 31
0.0
  0
LINE
  5
4299
  8
2-0
  6
CONTINUOUS
 62
     3
 10
25496.04653099996
 20
16288.9392085
 30
0.0
 11
25526.044154999981
 21
16288.9392085
 31
0.0
  0
LINE
  5
429A
  8
2-0
  6
CONTINUOUS
 62
     3
 10
25496.04653099996
 20
16305.036653499999
 30
0.0
 11
25496.04653099996
 21
16299.0397025
 31
0.0
  0
LINE
  5
429B
  8
2-0
  6
CONTINUOUS
 62
     3
 10
25496.04653099996
 20
16299.0397025
 30
0.0
 11
25526.044154999981
 21
16299.0397025
 31
0.0
  0
LINE
  5
429C
  8
2-0
  6
CONTINUOUS
 62
     3
 10
25526.044154999981
 20
16299.0397025
 30
0.0
 11
25526.044154999981
 21
16336.0398735
 31
0.0
  0
LINE
  5
429D
  8
2-0
  6
CONTINUOUS
 62
     3
 10
25496.04653099996
 20
16336.0398735
 30
0.0
 11
25526.044154999981
 21
16336.0398735
 31
0.0
  0
LINE
  5
429E
  8
2-0
  6
CONTINUOUS
 62
     3
 10
25496.04653099996
 20
16330.0369835
 30
0.0
 11
25496.04653099996
 21
16336.0398735
 31
0.0
  0
LINE
  5
429F
  8
2-0
  6
CONTINUOUS
 62
     3
 10
25496.04653099996
 20
16346.135418499989
 30
0.0
 11
25526.044154999981
 21
16346.135418499989
 31
0.0
  0
LINE
  5
42A0
  8
2-0
  6
CONTINUOUS
 62
     3
 10
25496.04653099996
 20
16328.127737500001
 30
0.0
 11
25496.04653099996
 21
16346.135418499989
 31
0.0
  0
LINE
  5
42A1
  8
2-0
  6
CONTINUOUS
 62
     3
 10
25521.04389099999
 20
16328.127737500001
 30
0.0
 11
25496.04653099996
 21
16328.127737500001
 31
0.0
  0
LINE
  5
42A2
  8
2-0
  6
CONTINUOUS
 62
     3
 10
25521.04389099999
 20
16333.133940499991
 30
0.0
 11
25521.04389099999
 21
16328.127737500001
 31
0.0
  0
LINE
  5
42A3
  8
2-0
  6
CONTINUOUS
 62
     3
 10
25514.042333999991
 20
16333.133940499991
 30
0.0
 11
25521.04389099999
 21
16333.133940499991
 31
0.0
  0
LINE
  5
42A4
  8
2-0
  6
CONTINUOUS
 62
     3
 10
25514.042333999991
 20
15632.373957
 30
0.0
 11
25521.04389099999
 21
15632.373957
 31
0.0
  0
LINE
  5
42A5
  8
2-0
  6
CONTINUOUS
 62
     3
 10
25521.04389099999
 20
15632.373957
 30
0.0
 11
25521.04389099999
 21
15627.379632
 31
0.0
  0
LINE
  5
42A6
  8
2-0
  6
CONTINUOUS
 62
     3
 10
25521.04389099999
 20
15627.379632
 30
0.0
 11
25496.04653099996
 21
15627.379632
 31
0.0
  0
LINE
  5
42A7
  8
2-0
  6
CONTINUOUS
 62
     3
 10
25496.04653099996
 20
15627.379632
 30
0.0
 11
25496.04653099996
 21
15645.375435000011
 31
0.0
  0
LINE
  5
42A8
  8
2-0
  6
CONTINUOUS
 62
     3
 10
25496.04653099996
 20
15645.375435000011
 30
0.0
 11
25526.044154999981
 21
15645.375435000011
 31
0.0
  0
LINE
  5
42A9
  8
2-0
  6
CONTINUOUS
 62
     3
 10
25496.04653099996
 20
15629.277990000001
 30
0.0
 11
25496.04653099996
 21
15635.27989000002
 31
0.0
  0
LINE
  5
42AA
  8
2-0
  6
CONTINUOUS
 62
     3
 10
25496.04653099996
 20
15635.27989000002
 30
0.0
 11
25526.044154999981
 21
15635.27989000002
 31
0.0
  0
LINE
  5
42AB
  8
2-0
  6
CONTINUOUS
 62
     3
 10
25526.044154999981
 20
15598.280709000001
 30
0.0
 11
25526.044154999981
 21
15635.27989000002
 31
0.0
  0
LINE
  5
42AC
  8
2-0
  6
CONTINUOUS
 62
     3
 10
25496.04653099996
 20
15598.280709000001
 30
0.0
 11
25526.044154999981
 21
15598.280709000001
 31
0.0
  0
LINE
  5
42AD
  8
2-0
  6
CONTINUOUS
 62
     3
 10
25496.04653099996
 20
15604.27766
 30
0.0
 11
25496.04653099996
 21
15598.280709000001
 31
0.0
  0
LINE
  5
42AE
  8
2-0
  6
CONTINUOUS
 62
     3
 10
25496.04653099996
 20
15588.179225
 30
0.0
 11
25526.044154999981
 21
15588.179225
 31
0.0
  0
LINE
  5
42AF
  8
2-0
  6
CONTINUOUS
 62
     3
 10
25496.04653099996
 20
15606.186906000001
 30
0.0
 11
25496.04653099996
 21
15588.179225
 31
0.0
  0
LINE
  5
42B0
  8
2-0
  6
CONTINUOUS
 62
     3
 10
25521.04389099999
 20
15606.186906000001
 30
0.0
 11
25496.04653099996
 21
15606.186906000001
 31
0.0
  0
LINE
  5
42B1
  8
2-0
  6
CONTINUOUS
 62
     3
 10
25521.04389099999
 20
15601.186642000001
 30
0.0
 11
25521.04389099999
 21
15606.186906000001
 31
0.0
  0
LINE
  5
42B2
  8
2-0
  6
CONTINUOUS
 62
     3
 10
25514.042333999991
 20
15601.186642000001
 30
0.0
 11
25521.04389099999
 21
15601.186642000001
 31
0.0
  0
LINE
  5
42B3
  8
2-0
  6
CONTINUOUS
 62
     3
 10
25526.044154999981
 20
16993.427378000011
 30
0.0
 11
25526.044154999981
 21
16346.135418499989
 31
0.0
  0
LINE
  5
42B4
  8
2-0
  6
CONTINUOUS
 62
     3
 10
25526.044154999981
 20
17148.037676
 30
0.0
 11
25526.044154999981
 21
17003.035961000009
 31
0.0
  0
LINE
  5
42B5
  8
2-0
  6
CONTINUOUS
 62
     3
 10
25438.161447999981
 20
17118.038071999988
 30
0.0
 11
25438.161447999981
 21
17033.041504000012
 31
0.0
  0
LINE
  5
42B6
  8
2-0
  6
CONTINUOUS
 62
     6
 10
23899.952780999971
 20
18886.485337499991
 30
0.0
 11
24924.985112999992
 21
18886.485337499991
 31
0.0
  0
LINE
  5
42B7
  8
2-0
  6
CONTINUOUS
 62
     3
 10
25496.04653099996
 20
14574.541714999999
 30
0.0
 11
25496.04653099996
 21
14580.546584
 31
0.0
  0
LINE
  5
42B8
  8
2-0
  6
CONTINUOUS
 62
     3
 10
25496.04653099996
 20
14580.546584
 30
0.0
 11
25526.044154999981
 21
14580.546584
 31
0.0
  0
LINE
  5
42B9
  8
2-0
  6
CONTINUOUS
 62
     3
 10
25526.044154999981
 20
14580.546584
 30
0.0
 11
25526.044154999981
 21
14465.542493000001
 31
0.0
  0
LINE
  5
42BA
  8
2-0
  6
CONTINUOUS
 62
     3
 10
25526.044154999981
 20
14465.542493000001
 30
0.0
 11
25441.045606999971
 21
14465.542493000001
 31
0.0
  0
LINE
  5
42BB
  8
2-0
  6
CONTINUOUS
 62
     3
 10
25441.045606999971
 20
14465.542493000001
 30
0.0
 11
25441.045606999971
 21
14550.538071999999
 31
0.0
  0
LINE
  5
42BC
  8
2-0
  6
CONTINUOUS
 62
     3
 10
25441.045606999971
 20
14550.538071999999
 30
0.0
 11
25473.044524999968
 21
14550.538071999999
 31
0.0
  0
LINE
  5
42BD
  8
2-0
  6
CONTINUOUS
 62
     3
 10
25514.042333999991
 20
14577.576316999999
 30
0.0
 11
25521.04389099999
 21
14577.576316999999
 31
0.0
  0
LINE
  5
42BE
  8
2-0
  6
CONTINUOUS
 62
     3
 10
25521.04389099999
 20
14577.576316999999
 30
0.0
 11
25521.04389099999
 21
14572.57902199998
 31
0.0
  0
LINE
  5
42BF
  8
2-0
  6
CONTINUOUS
 62
     3
 10
25521.04389099999
 20
14572.57902199998
 30
0.0
 11
25496.04653099996
 21
14572.57902199998
 31
0.0
  0
LINE
  5
42C0
  8
2-0
  6
CONTINUOUS
 62
     3
 10
25496.04653099996
 20
14572.57902199998
 30
0.0
 11
25496.04653099996
 21
14590.57779499999
 31
0.0
  0
LINE
  5
42C1
  8
2-0
  6
CONTINUOUS
 62
     3
 10
25496.04653099996
 20
14590.57779499999
 30
0.0
 11
25526.044154999981
 21
14590.57779499999
 31
0.0
  0
LINE
  5
42C2
  8
2-0
  6
CENTER2
 62
     6
 10
25483.54587099998
 20
14268.044934999991
 30
0.0
 11
25483.54587099998
 21
15073.41369300001
 31
0.0
  0
LINE
  5
42C3
  8
2-0
  6
CONTINUOUS
 62
     3
 10
25526.044154999981
 20
18563.134924000002
 30
0.0
 11
25526.044154999981
 21
19206.945641499991
 31
0.0
  0
LINE
  5
42C4
  8
2-0
  6
CONTINUOUS
 62
     6
 10
26218.549037999968
 20
20415.540976000011
 30
0.0
 11
27418.543099999959
 21
20415.540976000011
 31
0.0
  0
LINE
  5
42C5
  8
2-0
  6
CONTINUOUS
 62
     3
 10
22287.547718999991
 20
19685.538073000022
 30
0.0
 11
22287.547718999991
 21
19655.534510000001
 31
0.0
  0
LINE
  5
42C6
  8
2-0
  6
CONTINUOUS
 62
     3
 10
22287.547718999991
 20
19655.534510000001
 30
0.0
 11
22281.54977699996
 21
19655.534510000001
 31
0.0
  0
LINE
  5
42C7
  8
2-0
  6
CONTINUOUS
 62
     3
 10
22297.164219999999
 20
19655.534510000001
 30
0.0
 11
22297.164219999999
 21
19685.538073000022
 31
0.0
  0
LINE
  5
42C8
  8
2-0
  6
CONTINUOUS
 62
     3
 10
22279.16247799998
 20
19655.534510000001
 30
0.0
 11
22297.164219999999
 21
19655.534510000001
 31
0.0
  0
LINE
  5
42C9
  8
2-0
  6
CONTINUOUS
 62
     3
 10
22279.16247799998
 20
19680.543747000011
 30
0.0
 11
22279.16247799998
 21
19655.534510000001
 31
0.0
  0
LINE
  5
42CA
  8
2-0
  6
CONTINUOUS
 62
     3
 10
22284.162741999971
 20
19680.543747000011
 30
0.0
 11
22279.16247799998
 21
19680.543747000011
 31
0.0
  0
LINE
  5
42CB
  8
2-0
  6
CONTINUOUS
 62
     3
 10
22284.162741999971
 20
19673.538230999999
 30
0.0
 11
22284.162741999971
 21
19680.543747000011
 31
0.0
  0
LINE
  5
42CC
  8
2-0
  6
CONTINUOUS
 62
     3
 10
22257.54613499999
 20
19682.645996000021
 30
0.0
 11
22257.54613499999
 21
19597.647448000022
 31
0.0
  0
LINE
  5
42CD
  8
2-0
  6
CONTINUOUS
 62
     3
 10
22237.549038000001
 20
19682.645996000021
 30
0.0
 11
22257.54613499999
 21
19682.645996000021
 31
0.0
  0
LINE
  5
42CE
  8
2-0
  6
CONTINUOUS
 62
     3
 10
22145.934938999992
 20
19673.538230999999
 30
0.0
 11
22145.934938999992
 21
19680.543747000011
 31
0.0
  0
LINE
  5
42CF
  8
2-0
  6
CONTINUOUS
 62
     3
 10
22145.934938999992
 20
19680.543747000011
 30
0.0
 11
22150.935202999961
 21
19680.543747000011
 31
0.0
  0
LINE
  5
42D0
  8
2-0
  6
CONTINUOUS
 62
     3
 10
22150.935202999961
 20
19680.543747000011
 30
0.0
 11
22150.935202999961
 21
19655.534510000001
 31
0.0
  0
LINE
  5
42D1
  8
2-0
  6
CONTINUOUS
 62
     3
 10
22150.935202999961
 20
19655.534510000001
 30
0.0
 11
22132.933460999961
 21
19655.534510000001
 31
0.0
  0
LINE
  5
42D2
  8
2-0
  6
CONTINUOUS
 62
     3
 10
22132.933460999961
 20
19655.534510000001
 30
0.0
 11
22132.933460999961
 21
19685.538073000022
 31
0.0
  0
LINE
  5
42D3
  8
2-0
  6
CONTINUOUS
 62
     3
 10
22172.553524999988
 20
19682.645996000021
 30
0.0
 11
22192.54864199998
 21
19682.645996000021
 31
0.0
  0
LINE
  5
42D4
  8
2-0
  6
CONTINUOUS
 62
     3
 10
22172.553524999988
 20
19597.647448000022
 30
0.0
 11
22172.553524999988
 21
19682.645996000021
 31
0.0
  0
LINE
  5
42D5
  8
2-0
  6
CONTINUOUS
 62
     3
 10
22142.555900999989
 20
19655.534510000001
 30
0.0
 11
22148.551861999971
 21
19655.534510000001
 31
0.0
  0
LINE
  5
42D6
  8
2-0
  6
CONTINUOUS
 62
     3
 10
22142.555900999989
 20
19685.538073000022
 30
0.0
 11
22142.555900999989
 21
19655.534510000001
 31
0.0
  0
LINE
  5
42D7
  8
2-0
  6
CONTINUOUS
 62
     3
 10
22257.54613499999
 20
19597.647448000022
 30
0.0
 11
22172.553524999988
 21
19597.647448000022
 31
0.0
  0
LINE
  5
42D8
  8
2-0
  6
CONTINUOUS
 62
     3
 10
22287.547718999991
 20
19685.538073000022
 30
0.0
 11
22142.555900999989
 21
19685.538073000022
 31
0.0
  0
LINE
  5
42D9
  8
2-0
  6
CONTINUOUS
 62
     6
 10
25356.51620499996
 20
19128.639845500002
 30
0.0
 11
24924.985112999992
 21
18886.485337499991
 31
0.0
  0
LINE
  5
42DA
  8
2-0
  6
CONTINUOUS
 62
     6
 10
25678.08503899995
 20
19828.217813000021
 30
0.0
 11
26218.549037999968
 21
20415.540976000011
 31
0.0
  0
LINE
  5
42DB
  8
2-0
  6
CONTINUOUS
 62
     6
 10
22257.54613499999
 20
14550.538071999999
 30
0.0
 11
22534.136347999982
 21
15005.882772000001
 31
0.0
  0
LINE
  5
42DC
  8
2-0
  6
CONTINUOUS
 62
     6
 10
22534.136347999982
 20
15005.882772000001
 30
0.0
 11
23564.485666999961
 21
15005.882772000001
 31
0.0
  0
LINE
  5
42DD
  8
2-0
  6
CONTINUOUS
 62
     3
 10
25435.039747999988
 20
18492.038533999981
 30
0.0
 11
25482.04539599995
 21
18492.038533999981
 31
0.0
  0
LINE
  5
42DE
  8
2-0
  6
CONTINUOUS
 62
     3
 10
25482.04539599995
 20
18577.039062
 30
0.0
 11
25435.039747999988
 21
18577.039062
 31
0.0
  0
LINE
  5
42DF
  8
2-0
  6
CONTINUOUS
 62
     3
 10
25482.04539599995
 20
18492.038533999981
 30
0.0
 11
25482.04539599995
 21
18517.04183300001
 31
0.0
  0
LINE
  5
42E0
  8
2-0
  6
CONTINUOUS
 62
     3
 10
25482.04539599995
 20
18552.037742000011
 30
0.0
 11
25482.04539599995
 21
18577.039062
 31
0.0
  0
LINE
  5
42E1
  8
2-0
  6
CONTINUOUS
 62
     3
 10
25435.039747999988
 20
18577.039062
 30
0.0
 11
25435.039747999988
 21
18492.038533999981
 31
0.0
  0
LINE
  5
42E2
  8
2-0
  6
CONTINUOUS
 62
     3
 10
25526.044154999981
 20
16288.9392085
 30
0.0
 11
25526.044154999981
 21
15645.375435000011
 31
0.0
  0
LINE
  5
42E3
  8
2-0
  6
CONTINUOUS
 62
     3
 10
25435.039747999988
 20
15574.041504000001
 30
0.0
 11
25482.04539599995
 21
15574.041504000001
 31
0.0
  0
LINE
  5
42E4
  8
2-0
  6
CONTINUOUS
 62
     3
 10
25482.04539599995
 20
15659.03807199999
 30
0.0
 11
25435.039747999988
 21
15659.03807199999
 31
0.0
  0
LINE
  5
42E5
  8
2-0
  6
CONTINUOUS
 62
     3
 10
25482.04539599995
 20
15574.041504000001
 30
0.0
 11
25482.04539599995
 21
15599.03688500001
 31
0.0
  0
LINE
  5
42E6
  8
2-0
  6
CONTINUOUS
 62
     3
 10
25482.04539599995
 20
15634.036753
 30
0.0
 11
25482.04539599995
 21
15659.03807199999
 31
0.0
  0
LINE
  5
42E7
  8
2-0
  6
CONTINUOUS
 62
     3
 10
25435.039747999988
 20
15659.03807199999
 30
0.0
 11
25435.039747999988
 21
15574.041504000001
 31
0.0
  0
LINE
  5
42E8
  8
2-0
  6
CONTINUOUS
 62
     6
 10
22317.824454999991
 20
14701.13390699999
 30
0.0
 11
22257.54613499999
 21
14550.538071999999
 31
0.0
  0
LINE
  5
42E9
  8
2-0
  6
CONTINUOUS
 62
     6
 10
22257.54613499999
 20
14550.538071999999
 30
0.0
 11
22363.404849999952
 21
14673.446381
 31
0.0
  0
LINE
  5
42EA
  8
2-0
  6
CONTINUOUS
 62
     6
 10
22317.824454999991
 20
14701.13390699999
 30
0.0
 11
22363.404849999952
 21
14673.446381
 31
0.0
  0
LINE
  5
42EB
  8
2-0
  6
CONTINUOUS
 62
     6
 10
22363.404849999952
 20
14673.446381
 30
0.0
 11
22257.54613499999
 21
14550.538071999999
 31
0.0
  0
LINE
  5
42EC
  8
2-0
  6
CONTINUOUS
 62
     6
 10
22257.54613499999
 20
14550.538071999999
 30
0.0
 11
22317.824454999991
 21
14701.13390699999
 31
0.0
  0
LINE
  5
42ED
  8
2-0
  6
CONTINUOUS
 62
     6
 10
22317.824454999991
 20
14701.13390699999
 30
0.0
 11
22257.54613499999
 21
14550.538071999999
 31
0.0
  0
LINE
  5
42EE
  8
2-0
  6
CONTINUOUS
 62
     6
 10
22363.404849999952
 20
14673.446381
 30
0.0
 11
22257.54613499999
 21
14550.538071999999
 31
0.0
  0
LINE
  5
42EF
  8
2-0
  6
CONTINUOUS
 62
     6
 10
22363.404849999952
 20
14673.446381
 30
0.0
 11
22317.824454999991
 21
14701.13390699999
 31
0.0
  0
LINE
  5
42F0
  8
2-0
  6
CONTINUOUS
 62
     6
 10
25343.45929999997
 20
19151.8991895
 30
0.0
 11
25496.04653099996
 21
19206.945641499991
 31
0.0
  0
LINE
  5
42F1
  8
2-0
  6
CONTINUOUS
 62
     6
 10
25496.04653099996
 20
19206.945641499991
 30
0.0
 11
25369.565190999969
 21
19105.386441499992
 31
0.0
  0
LINE
  5
42F2
  8
2-0
  6
CONTINUOUS
 62
     6
 10
25343.45929999997
 20
19151.8991895
 30
0.0
 11
25369.565190999969
 21
19105.386441499992
 31
0.0
  0
LINE
  5
42F3
  8
2-0
  6
CONTINUOUS
 62
     6
 10
25369.565190999969
 20
19105.386441499992
 30
0.0
 11
25496.04653099996
 21
19206.945641499991
 31
0.0
  0
LINE
  5
42F4
  8
2-0
  6
CONTINUOUS
 62
     6
 10
25496.04653099996
 20
19206.945641499991
 30
0.0
 11
25343.45929999997
 21
19151.8991895
 31
0.0
  0
LINE
  5
42F5
  8
2-0
  6
CONTINUOUS
 62
     6
 10
25343.45929999997
 20
19151.8991895
 30
0.0
 11
25496.04653099996
 21
19206.945641499991
 31
0.0
  0
LINE
  5
42F6
  8
2-0
  6
CONTINUOUS
 62
     6
 10
25369.565190999969
 20
19105.386441499992
 30
0.0
 11
25496.04653099996
 21
19206.945641499991
 31
0.0
  0
LINE
  5
42F7
  8
2-0
  6
CONTINUOUS
 62
     6
 10
25369.565190999969
 20
19105.386441499992
 30
0.0
 11
25343.45929999997
 21
19151.8991895
 31
0.0
  0
LINE
  5
42F8
  8
2-0
  6
CONTINUOUS
 62
     6
 10
25697.70206799998
 20
19810.15668600002
 30
0.0
 11
25569.740047999981
 21
19710.47406800001
 31
0.0
  0
LINE
  5
42F9
  8
2-0
  6
CONTINUOUS
 62
     6
 10
25569.740047999981
 20
19710.47406800001
 30
0.0
 11
25658.454152999981
 21
19846.271023000001
 31
0.0
  0
LINE
  5
42FA
  8
2-0
  6
CONTINUOUS
 62
     6
 10
25697.70206799998
 20
19810.15668600002
 30
0.0
 11
25658.454152999981
 21
19846.271023000001
 31
0.0
  0
LINE
  5
42FB
  8
2-0
  6
CONTINUOUS
 62
     6
 10
25658.454152999981
 20
19846.271023000001
 30
0.0
 11
25569.740047999981
 21
19710.47406800001
 31
0.0
  0
LINE
  5
42FC
  8
2-0
  6
CONTINUOUS
 62
     6
 10
25569.740047999981
 20
19710.47406800001
 30
0.0
 11
25697.70206799998
 21
19810.15668600002
 31
0.0
  0
LINE
  5
42FD
  8
2-0
  6
CONTINUOUS
 62
     6
 10
25697.70206799998
 20
19810.15668600002
 30
0.0
 11
25569.740047999981
 21
19710.47406800001
 31
0.0
  0
LINE
  5
42FE
  8
2-0
  6
CONTINUOUS
 62
     6
 10
25658.454152999981
 20
19846.271023000001
 30
0.0
 11
25569.740047999981
 21
19710.47406800001
 31
0.0
  0
LINE
  5
42FF
  8
2-0
  6
CONTINUOUS
 62
     6
 10
25658.454152999981
 20
19846.271023000001
 30
0.0
 11
25697.70206799998
 21
19810.15668600002
 31
0.0
  0
LINE
  5
4300
  8
2-0
  6
CONTINUOUS
 62
     6
 10
20838.981549999971
 20
19437.765691000011
 30
0.0
 11
20970.914483
 21
18968.419856
 31
0.0
  0
LINE
  5
4301
  8
2-0
  6
CONTINUOUS
 62
     6
 10
20970.914483
 20
18968.419856
 30
0.0
 11
21995.952753999969
 21
18968.419856
 31
0.0
  0
LINE
  5
4302
  8
2-0
  6
CONTINUOUS
 62
     6
 10
20795.687498999989
 20
19591.794011000009
 30
0.0
 11
20813.30917299998
 21
19430.548366000021
 31
0.0
  0
LINE
  5
4303
  8
2-0
  6
CONTINUOUS
 62
     6
 10
20864.653925999999
 20
19444.986975000022
 30
0.0
 11
20813.30917299998
 21
19430.548366000021
 31
0.0
  0
LINE
  5
4304
  8
2-0
  6
CONTINUOUS
 62
     6
 10
20813.30917299998
 20
19430.548366000021
 30
0.0
 11
20795.687498999989
 21
19591.794011000009
 31
0.0
  0
LINE
  5
4305
  8
2-0
  6
CONTINUOUS
 62
     6
 10
20795.687498999989
 20
19591.794011000009
 30
0.0
 11
20864.653925999999
 21
19444.986975000022
 31
0.0
  0
LINE
  5
4306
  8
2-0
  6
CONTINUOUS
 62
     6
 10
20864.653925999999
 20
19444.986975000022
 30
0.0
 11
20795.687498999989
 21
19591.794011000009
 31
0.0
  0
LINE
  5
4307
  8
2-0
  6
CONTINUOUS
 62
     6
 10
20813.30917299998
 20
19430.548366000021
 30
0.0
 11
20795.687498999989
 21
19591.794011000009
 31
0.0
  0
LINE
  5
4308
  8
2-0
  6
CONTINUOUS
 62
     6
 10
20813.30917299998
 20
19430.548366000021
 30
0.0
 11
20864.653925999999
 21
19444.986975000022
 31
0.0
  0
LINE
  5
4309
  8
2-0
  6
CONTINUOUS
 62
     6
 10
22256.469276999971
 20
19566.786753000011
 30
0.0
 11
22405.338972000001
 21
19037.164577
 31
0.0
  0
LINE
  5
430A
  8
2-0
  6
CONTINUOUS
 62
     6
 10
22405.338972000001
 20
19037.164577
 30
0.0
 11
23430.383180999968
 21
19037.164577
 31
0.0
  0
LINE
  5
430B
  8
2-0
  6
CONTINUOUS
 62
     6
 10
22274.092930999959
 20
19405.541108000001
 30
0.0
 11
22325.443621999992
 21
19419.975758
 31
0.0
  0
LINE
  5
430C
  8
2-0
  6
CONTINUOUS
 62
     6
 10
22325.443621999992
 20
19419.975758
 30
0.0
 11
22274.092930999959
 21
19405.541108000001
 31
0.0
  0
LINE
  5
430D
  8
2-0
  6
CONTINUOUS
 62
     6
 10
22274.092930999959
 20
19405.541108000001
 30
0.0
 11
22256.469276999971
 21
19566.786753000011
 31
0.0
  0
LINE
  5
430E
  8
2-0
  6
CONTINUOUS
 62
     6
 10
22256.469276999971
 20
19566.786753000011
 30
0.0
 11
22325.443621999992
 21
19419.975758
 31
0.0
  0
LINE
  5
430F
  8
2-0
  6
CONTINUOUS
 62
     6
 10
22325.443621999992
 20
19419.975758
 30
0.0
 11
22256.469276999971
 21
19566.786753000011
 31
0.0
  0
LINE
  5
4310
  8
2-0
  6
CONTINUOUS
 62
     6
 10
22274.092930999959
 20
19405.541108000001
 30
0.0
 11
22256.469276999971
 21
19566.786753000011
 31
0.0
  0
LINE
  5
4311
  8
2-0
  6
CONTINUOUS
 62
     6
 10
22325.443621999992
 20
19419.975758
 30
0.0
 11
22256.469276999971
 21
19566.786753000011
 31
0.0
  0
LINE
  5
4312
  8
2-0
  6
CONTINUOUS
 62
     6
 10
22256.469276999971
 20
19566.786753000011
 30
0.0
 11
22274.092930999959
 21
19405.541108000001
 31
0.0
  0
LINE
  5
4313
  8
2-0
  6
CONTINUOUS
 62
     4
 10
22215.04587099998
 20
19765.540316000021
 30
0.0
 11
22215.04587099998
 21
20495.537281000012
 31
0.0
  0
LINE
  5
4314
  8
2-0
  6
CONTINUOUS
 62
     6
 10
25279.72078099996
 20
15527.53469400002
 30
0.0
 11
25435.039747999988
 21
15574.282015000001
 31
0.0
  0
LINE
  5
4315
  8
2-0
  6
CONTINUOUS
 62
     6
 10
25435.039747999988
 20
15574.282015000001
 30
0.0
 11
25303.279031999959
 21
15479.68973
 31
0.0
  0
LINE
  5
4316
  8
2-0
  6
CONTINUOUS
 62
     6
 10
25279.72078099996
 20
15527.53469400002
 30
0.0
 11
25303.279031999959
 21
15479.68973
 31
0.0
  0
LINE
  5
4317
  8
2-0
  6
CONTINUOUS
 62
     6
 10
25303.279031999959
 20
15479.68973
 30
0.0
 11
25435.039747999988
 21
15574.282015000001
 31
0.0
  0
LINE
  5
4318
  8
2-0
  6
CONTINUOUS
 62
     6
 10
25435.039747999988
 20
15574.282015000001
 30
0.0
 11
25279.72078099996
 21
15527.53469400002
 31
0.0
  0
LINE
  5
4319
  8
2-0
  6
CONTINUOUS
 62
     6
 10
25279.72078099996
 20
15527.53469400002
 30
0.0
 11
25435.039747999988
 21
15574.282015000001
 31
0.0
  0
LINE
  5
431A
  8
2-0
  6
CONTINUOUS
 62
     6
 10
25303.279031999959
 20
15479.68973
 30
0.0
 11
25435.039747999988
 21
15574.282015000001
 31
0.0
  0
LINE
  5
431B
  8
2-0
  6
CONTINUOUS
 62
     6
 10
25303.279031999959
 20
15479.68973
 30
0.0
 11
25279.72078099996
 21
15527.53469400002
 31
0.0
  0
LINE
  5
431C
  8
2-0
  6
CONTINUOUS
 62
     6
 10
25249.406433999971
 20
14357.26975499999
 30
0.0
 11
25381.153292999988
 21
14451.896682000001
 31
0.0
  0
LINE
  5
431D
  8
2-0
  6
CONTINUOUS
 62
     6
 10
25381.153292999988
 20
14451.896682000001
 30
0.0
 11
25287.22315699996
 21
14319.657911999981
 31
0.0
  0
LINE
  5
431E
  8
2-0
  6
CONTINUOUS
 62
     6
 10
25249.406433999971
 20
14357.26975499999
 30
0.0
 11
25287.22315699996
 21
14319.657911999981
 31
0.0
  0
LINE
  5
431F
  8
2-0
  6
CONTINUOUS
 62
     6
 10
25287.22315699996
 20
14319.657911999981
 30
0.0
 11
25381.153292999988
 21
14451.896682000001
 31
0.0
  0
LINE
  5
4320
  8
2-0
  6
CONTINUOUS
 62
     6
 10
25381.153292999988
 20
14451.896682000001
 30
0.0
 11
25249.406433999971
 21
14357.26975499999
 31
0.0
  0
LINE
  5
4321
  8
2-0
  6
CONTINUOUS
 62
     6
 10
25249.406433999971
 20
14357.26975499999
 30
0.0
 11
25381.153292999988
 21
14451.896682000001
 31
0.0
  0
LINE
  5
4322
  8
2-0
  6
CONTINUOUS
 62
     6
 10
25287.22315699996
 20
14319.657911999981
 30
0.0
 11
25381.153292999988
 21
14451.896682000001
 31
0.0
  0
LINE
  5
4323
  8
2-0
  6
CONTINUOUS
 62
     6
 10
25287.22315699996
 20
14319.657911999981
 30
0.0
 11
25249.406433999971
 21
14357.26975499999
 31
0.0
  0
LINE
  5
4324
  8
2-0
  6
CONTINUOUS
 62
     6
 10
25312.44222299998
 20
14684.17438199999
 30
0.0
 11
25445.04225499996
 21
14590.746053999979
 31
0.0
  0
LINE
  5
4325
  8
2-0
  6
CONTINUOUS
 62
     6
 10
25445.04225499996
 20
14590.746053999979
 30
0.0
 11
25289.309568999961
 21
14636.121568
 31
0.0
  0
LINE
  5
4326
  8
2-0
  6
CONTINUOUS
 62
     6
 10
25312.44222299998
 20
14684.17438199999
 30
0.0
 11
25289.309568999961
 21
14636.121568
 31
0.0
  0
LINE
  5
4327
  8
2-0
  6
CONTINUOUS
 62
     6
 10
25289.309568999961
 20
14636.121568
 30
0.0
 11
25445.04225499996
 21
14590.746053999979
 31
0.0
  0
LINE
  5
4328
  8
2-0
  6
CONTINUOUS
 62
     6
 10
25445.04225499996
 20
14590.746053999979
 30
0.0
 11
25312.44222299998
 21
14684.17438199999
 31
0.0
  0
LINE
  5
4329
  8
2-0
  6
CONTINUOUS
 62
     6
 10
25312.44222299998
 20
14684.17438199999
 30
0.0
 11
25445.04225499996
 21
14590.746053999979
 31
0.0
  0
LINE
  5
432A
  8
2-0
  6
CONTINUOUS
 62
     6
 10
25289.309568999961
 20
14636.121568
 30
0.0
 11
25445.04225499996
 21
14590.746053999979
 31
0.0
  0
LINE
  5
432B
  8
2-0
  6
CONTINUOUS
 62
     6
 10
25289.309568999961
 20
14636.121568
 30
0.0
 11
25312.44222299998
 21
14684.17438199999
 31
0.0
  0
LINE
  5
432C
  8
2-0
  6
CONTINUOUS
 62
     6
 10
25372.205868999969
 20
16713.495315000011
 30
0.0
 11
25526.044154999981
 21
16764.92914600002
 31
0.0
  0
LINE
  5
432D
  8
2-0
  6
CONTINUOUS
 62
     6
 10
25526.044154999981
 20
16764.92914600002
 30
0.0
 11
25397.209167999961
 21
16666.388711000011
 31
0.0
  0
LINE
  5
432E
  8
2-0
  6
CONTINUOUS
 62
     6
 10
25372.205868999969
 20
16713.495315000011
 30
0.0
 11
25397.209167999961
 21
16666.388711000011
 31
0.0
  0
LINE
  5
432F
  8
2-0
  6
CONTINUOUS
 62
     6
 10
25397.209167999961
 20
16666.388711000011
 30
0.0
 11
25526.044154999981
 21
16764.92914600002
 31
0.0
  0
LINE
  5
4330
  8
2-0
  6
CONTINUOUS
 62
     6
 10
25526.044154999981
 20
16764.92914600002
 30
0.0
 11
25372.205868999969
 21
16713.495315000011
 31
0.0
  0
LINE
  5
4331
  8
2-0
  6
CONTINUOUS
 62
     6
 10
25372.205868999969
 20
16713.495315000011
 30
0.0
 11
25526.044154999981
 21
16764.92914600002
 31
0.0
  0
LINE
  5
4332
  8
2-0
  6
CONTINUOUS
 62
     6
 10
25397.209167999961
 20
16666.388711000011
 30
0.0
 11
25526.044154999981
 21
16764.92914600002
 31
0.0
  0
LINE
  5
4333
  8
2-0
  6
CONTINUOUS
 62
     6
 10
25397.209167999961
 20
16666.388711000011
 30
0.0
 11
25372.205868999969
 21
16713.495315000011
 31
0.0
  0
LINE
  5
4334
  8
2-0
  6
CONTINUOUS
 62
     6
 10
25238.269661999981
 20
17204.81380700002
 30
0.0
 11
25381.153292999988
 21
17128.038177999999
 31
0.0
  0
LINE
  5
4335
  8
2-0
  6
CONTINUOUS
 62
     6
 10
25381.153292999988
 20
17128.038177999999
 30
0.0
 11
25221.091399999968
 21
17154.320247000011
 31
0.0
  0
LINE
  5
4336
  8
2-0
  6
CONTINUOUS
 62
     6
 10
25238.269661999981
 20
17204.81380700002
 30
0.0
 11
25221.091399999968
 21
17154.320247000011
 31
0.0
  0
LINE
  5
4337
  8
2-0
  6
CONTINUOUS
 62
     6
 10
25221.091399999968
 20
17154.320247000011
 30
0.0
 11
25381.153292999988
 21
17128.038177999999
 31
0.0
  0
LINE
  5
4338
  8
2-0
  6
CONTINUOUS
 62
     6
 10
25381.153292999988
 20
17128.038177999999
 30
0.0
 11
25238.269661999981
 21
17204.81380700002
 31
0.0
  0
LINE
  5
4339
  8
2-0
  6
CONTINUOUS
 62
     6
 10
25238.269661999981
 20
17204.81380700002
 30
0.0
 11
25381.153292999988
 21
17128.038177999999
 31
0.0
  0
LINE
  5
433A
  8
2-0
  6
CONTINUOUS
 62
     6
 10
25221.091399999968
 20
17154.320247000011
 30
0.0
 11
25381.153292999988
 21
17128.038177999999
 31
0.0
  0
LINE
  5
433B
  8
2-0
  6
CONTINUOUS
 62
     6
 10
25221.091399999968
 20
17154.320247000011
 30
0.0
 11
25238.269661999981
 21
17204.81380700002
 31
0.0
  0
LINE
  5
433C
  8
2-0
  6
CONTINUOUS
 62
     6
 10
25279.72078099996
 20
18445.294182000001
 30
0.0
 11
25435.039747999988
 21
18492.038533999981
 31
0.0
  0
LINE
  5
433D
  8
2-0
  6
CONTINUOUS
 62
     6
 10
25435.039747999988
 20
18492.038533999981
 30
0.0
 11
25303.279031999959
 21
18397.44328
 31
0.0
  0
LINE
  5
433E
  8
2-0
  6
CONTINUOUS
 62
     6
 10
25279.72078099996
 20
18445.294182000001
 30
0.0
 11
25303.279031999959
 21
18397.44328
 31
0.0
  0
LINE
  5
433F
  8
2-0
  6
CONTINUOUS
 62
     6
 10
25303.279031999959
 20
18397.44328
 30
0.0
 11
25435.039747999988
 21
18492.038533999981
 31
0.0
  0
LINE
  5
4340
  8
2-0
  6
CONTINUOUS
 62
     6
 10
25435.039747999988
 20
18492.038533999981
 30
0.0
 11
25279.72078099996
 21
18445.294182000001
 31
0.0
  0
LINE
  5
4341
  8
2-0
  6
CONTINUOUS
 62
     6
 10
25279.72078099996
 20
18445.294182000001
 30
0.0
 11
25435.039747999988
 21
18492.038533999981
 31
0.0
  0
LINE
  5
4342
  8
2-0
  6
CONTINUOUS
 62
     6
 10
25303.279031999959
 20
18397.44328
 30
0.0
 11
25435.039747999988
 21
18492.038533999981
 31
0.0
  0
LINE
  5
4343
  8
2-0
  6
CONTINUOUS
 62
     6
 10
25303.279031999959
 20
18397.44328
 30
0.0
 11
25279.72078099996
 21
18445.294182000001
 31
0.0
  0
LINE
  5
4344
  8
2-0
  6
CONTINUOUS
 62
     3
 10
21475.546451999959
 20
19685.538073000022
 30
0.0
 11
21438.54528999998
 21
19685.538073000022
 31
0.0
  0
LINE
  5
4345
  8
2-0
  6
CONTINUOUS
 62
     3
 10
21475.546451999959
 20
19655.534510000001
 30
0.0
 11
21475.546451999959
 21
19685.538073000022
 31
0.0
  0
LINE
  5
4346
  8
2-0
  6
CONTINUOUS
 62
     3
 10
21469.546530999949
 20
19655.534510000001
 30
0.0
 11
21475.546451999959
 21
19655.534510000001
 31
0.0
  0
LINE
  5
4347
  8
2-0
  6
CONTINUOUS
 62
     3
 10
21485.643975999981
 20
19655.534510000001
 30
0.0
 11
21485.643975999981
 21
19685.538073000022
 31
0.0
  0
LINE
  5
4348
  8
2-0
  6
CONTINUOUS
 62
     3
 10
21467.640254999991
 20
19655.534510000001
 30
0.0
 11
21485.643975999981
 21
19655.534510000001
 31
0.0
  0
LINE
  5
4349
  8
2-0
  6
CONTINUOUS
 62
     3
 10
21467.640254999991
 20
19680.543747000011
 30
0.0
 11
21467.640254999991
 21
19655.534510000001
 31
0.0
  0
LINE
  5
434A
  8
2-0
  6
CONTINUOUS
 62
     3
 10
21472.640518999971
 20
19680.543747000011
 30
0.0
 11
21467.640254999991
 21
19680.543747000011
 31
0.0
  0
LINE
  5
434B
  8
2-0
  6
CONTINUOUS
 62
     3
 10
21472.640518999971
 20
19673.538230999999
 30
0.0
 11
21472.640518999971
 21
19680.543747000011
 31
0.0
  0
LINE
  5
434C
  8
2-0
  6
CONTINUOUS
 62
     3
 10
21441.45122399996
 20
19673.538230999999
 30
0.0
 11
21441.45122399996
 21
19680.543747000011
 31
0.0
  0
LINE
  5
434D
  8
2-0
  6
CONTINUOUS
 62
     3
 10
21441.45122399996
 20
19680.543747000011
 30
0.0
 11
21446.451487999981
 21
19680.543747000011
 31
0.0
  0
LINE
  5
434E
  8
2-0
  6
CONTINUOUS
 62
     3
 10
21446.451487999981
 20
19680.543747000011
 30
0.0
 11
21446.451487999981
 21
19655.534510000001
 31
0.0
  0
LINE
  5
434F
  8
2-0
  6
CONTINUOUS
 62
     3
 10
21446.451487999981
 20
19655.534510000001
 30
0.0
 11
21428.451724999992
 21
19655.534510000001
 31
0.0
  0
LINE
  5
4350
  8
2-0
  6
CONTINUOUS
 62
     3
 10
21428.451724999992
 20
19655.534510000001
 30
0.0
 11
21428.451724999992
 21
19685.538073000022
 31
0.0
  0
LINE
  5
4351
  8
2-0
  6
CONTINUOUS
 62
     3
 10
21444.545210999971
 20
19655.534510000001
 30
0.0
 11
21438.54528999998
 21
19655.534510000001
 31
0.0
  0
LINE
  5
4352
  8
2-0
  6
CONTINUOUS
 62
     3
 10
21438.54528999998
 20
19655.534510000001
 30
0.0
 11
21438.54528999998
 21
19685.538073000022
 31
0.0
  0
LINE
  5
4353
  8
2-0
  6
CONTINUOUS
 62
     3
 10
18934.047190999961
 20
19576.537862000001
 30
0.0
 11
18934.047190999961
 21
19570.5419
 31
0.0
  0
LINE
  5
4354
  8
2-0
  6
CONTINUOUS
 62
     3
 10
18934.047190999961
 20
19570.5419
 30
0.0
 11
18904.049565999969
 21
19570.5419
 31
0.0
  0
LINE
  5
4355
  8
2-0
  6
CONTINUOUS
 62
     3
 10
18904.049565999969
 20
19570.5419
 30
0.0
 11
18904.049565999969
 21
19685.538073000022
 31
0.0
  0
LINE
  5
4356
  8
2-0
  6
CONTINUOUS
 62
     3
 10
18904.049565999969
 20
19600.541504000001
 30
0.0
 11
18985.047506999981
 21
19600.541504000001
 31
0.0
  0
LINE
  5
4357
  8
2-0
  6
CONTINUOUS
 62
     3
 10
18934.047190999961
 20
19560.244444
 30
0.0
 11
18904.049565999969
 21
19560.244444
 31
0.0
  0
LINE
  5
4358
  8
2-0
  6
CONTINUOUS
 62
     3
 10
18934.047190999961
 20
19578.246186000011
 30
0.0
 11
18934.047190999961
 21
19560.244444
 31
0.0
  0
LINE
  5
4359
  8
2-0
  6
CONTINUOUS
 62
     3
 10
18909.053788999969
 20
19578.246186000011
 30
0.0
 11
18934.047190999961
 21
19578.246186000011
 31
0.0
  0
LINE
  5
435A
  8
2-0
  6
CONTINUOUS
 62
     3
 10
18909.053788999969
 20
19573.238004000021
 30
0.0
 11
18909.053788999969
 21
19578.246186000011
 31
0.0
  0
LINE
  5
435B
  8
2-0
  6
CONTINUOUS
 62
     3
 10
18916.05138699996
 20
19573.238004000021
 30
0.0
 11
18909.053788999969
 21
19573.238004000021
 31
0.0
  0
LINE
  5
435C
  8
2-0
  6
CONTINUOUS
 62
     3
 10
19016.34567599995
 20
19673.538230999999
 30
0.0
 11
19016.34567599995
 21
19680.543747000011
 31
0.0
  0
LINE
  5
435D
  8
2-0
  6
CONTINUOUS
 62
     3
 10
19016.34567599995
 20
19680.543747000011
 30
0.0
 11
19011.343431999969
 21
19680.543747000011
 31
0.0
  0
LINE
  5
435E
  8
2-0
  6
CONTINUOUS
 62
     3
 10
19011.343431999969
 20
19680.543747000011
 30
0.0
 11
19011.343431999969
 21
19655.534510000001
 31
0.0
  0
LINE
  5
435F
  8
2-0
  6
CONTINUOUS
 62
     3
 10
19011.343431999969
 20
19655.534510000001
 30
0.0
 11
19029.351112999939
 21
19655.534510000001
 31
0.0
  0
LINE
  5
4360
  8
2-0
  6
CONTINUOUS
 62
     3
 10
19029.351112999939
 20
19655.534510000001
 30
0.0
 11
19029.351112999939
 21
19685.538073000022
 31
0.0
  0
LINE
  5
4361
  8
2-0
  6
CONTINUOUS
 62
     3
 10
19019.051676999981
 20
19685.538073000022
 30
0.0
 11
18904.049565999969
 21
19685.538073000022
 31
0.0
  0
LINE
  5
4362
  8
2-0
  6
CONTINUOUS
 62
     3
 10
19019.051676999981
 20
19655.534510000001
 30
0.0
 11
19019.051676999981
 21
19685.538073000022
 31
0.0
  0
LINE
  5
4363
  8
2-0
  6
CONTINUOUS
 62
     3
 10
19013.047797999981
 20
19655.534510000001
 30
0.0
 11
19019.051676999981
 21
19655.534510000001
 31
0.0
  0
LINE
  5
4364
  8
2-0
  6
CONTINUOUS
 62
     3
 10
20070.63556949998
 20
19673.538230999999
 30
0.0
 11
20070.63556949998
 21
19680.543747000011
 31
0.0
  0
LINE
  5
4365
  8
2-0
  6
CONTINUOUS
 62
     3
 10
20070.63556949998
 20
19680.543747000011
 30
0.0
 11
20065.635305499982
 21
19680.543747000011
 31
0.0
  0
LINE
  5
4366
  8
2-0
  6
CONTINUOUS
 62
     3
 10
20065.635305499982
 20
19680.543747000011
 30
0.0
 11
20065.635305499982
 21
19655.534510000001
 31
0.0
  0
LINE
  5
4367
  8
2-0
  6
CONTINUOUS
 62
     3
 10
20065.635305499982
 20
19655.534510000001
 30
0.0
 11
20083.641006499969
 21
19655.534510000001
 31
0.0
  0
LINE
  5
4368
  8
2-0
  6
CONTINUOUS
 62
     3
 10
20083.641006499969
 20
19655.534510000001
 30
0.0
 11
20083.641006499969
 21
19685.538073000022
 31
0.0
  0
LINE
  5
4369
  8
2-0
  6
CONTINUOUS
 62
     3
 10
20067.543561499959
 20
19655.534510000001
 30
0.0
 11
20073.545461499969
 21
19655.534510000001
 31
0.0
  0
LINE
  5
436A
  8
2-0
  6
CONTINUOUS
 62
     3
 10
20073.545461499969
 20
19655.534510000001
 30
0.0
 11
20073.545461499969
 21
19685.538073000022
 31
0.0
  0
LINE
  5
436B
  8
2-0
  6
CONTINUOUS
 62
     3
 10
20036.546280499959
 20
19685.538073000022
 30
0.0
 11
20073.545461499969
 21
19685.538073000022
 31
0.0
  0
LINE
  5
436C
  8
2-0
  6
CONTINUOUS
 62
     3
 10
20036.546280499959
 20
19655.534510000001
 30
0.0
 11
20036.546280499959
 21
19685.538073000022
 31
0.0
  0
LINE
  5
436D
  8
2-0
  6
CONTINUOUS
 62
     3
 10
20042.540262499981
 20
19655.534510000001
 30
0.0
 11
20036.546280499959
 21
19655.534510000001
 31
0.0
  0
LINE
  5
436E
  8
2-0
  6
CONTINUOUS
 62
     3
 10
20026.450735499981
 20
19655.534510000001
 30
0.0
 11
20026.450735499981
 21
19685.538073000022
 31
0.0
  0
LINE
  5
436F
  8
2-0
  6
CONTINUOUS
 62
     3
 10
20044.446538499971
 20
19655.534510000001
 30
0.0
 11
20026.450735499981
 21
19655.534510000001
 31
0.0
  0
LINE
  5
4370
  8
2-0
  6
CONTINUOUS
 62
     3
 10
20044.446538499971
 20
19680.543747000011
 30
0.0
 11
20044.446538499971
 21
19655.534510000001
 31
0.0
  0
LINE
  5
4371
  8
2-0
  6
CONTINUOUS
 62
     3
 10
20039.446274499969
 20
19680.543747000011
 30
0.0
 11
20044.446538499971
 21
19680.543747000011
 31
0.0
  0
LINE
  5
4372
  8
2-0
  6
CONTINUOUS
 62
     3
 10
20039.446274499969
 20
19673.538230999999
 30
0.0
 11
20039.446274499969
 21
19680.543747000011
 31
0.0
  0
LINE
  5
4373
  8
2-0
  6
CONTINUOUS
 62
     3
 10
20740.44528549998
 20
19673.538230999999
 30
0.0
 11
20740.44528549998
 21
19680.543747000011
 31
0.0
  0
LINE
  5
4374
  8
2-0
  6
CONTINUOUS
 62
     3
 10
20740.44528549998
 20
19680.543747000011
 30
0.0
 11
20745.445548499982
 21
19680.543747000011
 31
0.0
  0
LINE
  5
4375
  8
2-0
  6
CONTINUOUS
 62
     3
 10
20745.445548499982
 20
19680.543747000011
 30
0.0
 11
20745.445548499982
 21
19655.534510000001
 31
0.0
  0
LINE
  5
4376
  8
2-0
  6
CONTINUOUS
 62
     3
 10
20745.445548499982
 20
19655.534510000001
 30
0.0
 11
20727.45172549997
 21
19655.534510000001
 31
0.0
  0
LINE
  5
4377
  8
2-0
  6
CONTINUOUS
 62
     3
 10
20727.45172549997
 20
19655.534510000001
 30
0.0
 11
20727.45172549997
 21
19685.538073000022
 31
0.0
  0
LINE
  5
4378
  8
2-0
  6
CONTINUOUS
 62
     3
 10
20743.543231499971
 20
19655.534510000001
 30
0.0
 11
20737.54529049998
 21
19655.534510000001
 31
0.0
  0
LINE
  5
4379
  8
2-0
  6
CONTINUOUS
 62
     3
 10
20737.54529049998
 20
19655.534510000001
 30
0.0
 11
20737.54529049998
 21
19685.538073000022
 31
0.0
  0
LINE
  5
437A
  8
2-0
  6
CONTINUOUS
 62
     3
 10
20774.54645149998
 20
19685.538073000022
 30
0.0
 11
20737.54529049998
 21
19685.538073000022
 31
0.0
  0
LINE
  5
437B
  8
2-0
  6
CONTINUOUS
 62
     3
 10
20774.54645149998
 20
19655.534510000001
 30
0.0
 11
20774.54645149998
 21
19685.538073000022
 31
0.0
  0
LINE
  5
437C
  8
2-0
  6
CONTINUOUS
 62
     3
 10
20768.54059249998
 20
19655.534510000001
 30
0.0
 11
20774.54645149998
 21
19655.534510000001
 31
0.0
  0
LINE
  5
437D
  8
2-0
  6
CONTINUOUS
 62
     3
 10
20784.640016499969
 20
19655.534510000001
 30
0.0
 11
20784.640016499969
 21
19685.538073000022
 31
0.0
  0
LINE
  5
437E
  8
2-0
  6
CONTINUOUS
 62
     3
 10
20766.644213499982
 20
19655.534510000001
 30
0.0
 11
20784.640016499969
 21
19655.534510000001
 31
0.0
  0
LINE
  5
437F
  8
2-0
  6
CONTINUOUS
 62
     3
 10
20766.644213499982
 20
19680.543747000011
 30
0.0
 11
20766.644213499982
 21
19655.534510000001
 31
0.0
  0
LINE
  5
4380
  8
2-0
  6
CONTINUOUS
 62
     3
 10
20771.63457949998
 20
19680.543747000011
 30
0.0
 11
20766.644213499982
 21
19680.543747000011
 31
0.0
  0
LINE
  5
4381
  8
2-0
  6
CONTINUOUS
 62
     3
 10
20771.63457949998
 20
19673.538230999999
 30
0.0
 11
20771.63457949998
 21
19680.543747000011
 31
0.0
  0
LINE
  5
4382
  8
2-0
  6
CONTINUOUS
 62
     3
 10
20083.641006499969
 20
19685.538073000022
 30
0.0
 11
20727.45172549997
 21
19685.538073000022
 31
0.0
  0
LINE
  5
4383
  8
2-0
  6
CONTINUOUS
 62
     3
 10
19382.844896999992
 20
19685.538073000022
 30
0.0
 11
20026.450735499981
 21
19685.538073000022
 31
0.0
  0
LINE
  5
4384
  8
2-0
  6
CONTINUOUS
 62
     3
 10
21428.451724999992
 20
19685.538073000022
 30
0.0
 11
20784.640016499969
 21
19685.538073000022
 31
0.0
  0
LINE
  5
4385
  8
2-0
  6
CONTINUOUS
 62
     3
 10
18934.047190999961
 20
19576.537862000001
 30
0.0
 11
18934.047190999961
 21
19570.5419
 31
0.0
  0
LINE
  5
4386
  8
2-0
  6
CONTINUOUS
 62
     3
 10
18934.047190999961
 20
19570.5419
 30
0.0
 11
18904.049565999969
 21
19570.5419
 31
0.0
  0
LINE
  5
4387
  8
2-0
  6
CONTINUOUS
 62
     3
 10
18904.049565999969
 20
19570.5419
 30
0.0
 11
18904.049565999969
 21
19685.538073000022
 31
0.0
  0
LINE
  5
4388
  8
2-0
  6
CONTINUOUS
 62
     3
 10
18904.049565999969
 20
19600.541504000001
 30
0.0
 11
18985.047506999981
 21
19600.541504000001
 31
0.0
  0
LINE
  5
4389
  8
2-0
  6
CONTINUOUS
 62
     3
 10
18934.047190999961
 20
19560.244444
 30
0.0
 11
18904.049565999969
 21
19560.244444
 31
0.0
  0
LINE
  5
438A
  8
2-0
  6
CONTINUOUS
 62
     3
 10
18934.047190999961
 20
19578.246186000011
 30
0.0
 11
18934.047190999961
 21
19560.244444
 31
0.0
  0
LINE
  5
438B
  8
2-0
  6
CONTINUOUS
 62
     3
 10
18909.053788999969
 20
19578.246186000011
 30
0.0
 11
18934.047190999961
 21
19578.246186000011
 31
0.0
  0
LINE
  5
438C
  8
2-0
  6
CONTINUOUS
 62
     3
 10
18909.053788999969
 20
19573.238004000021
 30
0.0
 11
18909.053788999969
 21
19578.246186000011
 31
0.0
  0
LINE
  5
438D
  8
2-0
  6
CONTINUOUS
 62
     3
 10
18916.05138699996
 20
19573.238004000021
 30
0.0
 11
18909.053788999969
 21
19573.238004000021
 31
0.0
  0
LINE
  5
438E
  8
2-0
  6
CONTINUOUS
 62
     3
 10
18916.05138699996
 20
19219.941181499991
 30
0.0
 11
18909.053788999969
 21
19219.941181499991
 31
0.0
  0
LINE
  5
438F
  8
2-0
  6
CONTINUOUS
 62
     3
 10
18909.053788999969
 20
19219.941181499991
 30
0.0
 11
18909.053788999969
 21
19224.941445500001
 31
0.0
  0
LINE
  5
4390
  8
2-0
  6
CONTINUOUS
 62
     3
 10
18909.053788999969
 20
19224.941445500001
 30
0.0
 11
18934.047190999961
 21
19224.941445500001
 31
0.0
  0
LINE
  5
4391
  8
2-0
  6
CONTINUOUS
 62
     3
 10
18934.047190999961
 20
19224.941445500001
 30
0.0
 11
18934.047190999961
 21
19206.945641499991
 31
0.0
  0
LINE
  5
4392
  8
2-0
  6
CONTINUOUS
 62
     3
 10
18934.047190999961
 20
19206.945641499991
 30
0.0
 11
18904.049565999969
 21
19206.945641499991
 31
0.0
  0
LINE
  5
4393
  8
2-0
  6
CONTINUOUS
 62
     3
 10
18934.047190999961
 20
19223.037148499981
 30
0.0
 11
18934.047190999961
 21
19217.039207500002
 31
0.0
  0
LINE
  5
4394
  8
2-0
  6
CONTINUOUS
 62
     3
 10
18934.047190999961
 20
19217.039207500002
 30
0.0
 11
18904.049565999969
 21
19217.039207500002
 31
0.0
  0
LINE
  5
4395
  8
2-0
  6
CONTINUOUS
 62
     3
 10
18904.049565999969
 20
19217.039207500002
 30
0.0
 11
18904.049565999969
 21
19254.040368499991
 31
0.0
  0
LINE
  5
4396
  8
2-0
  6
CONTINUOUS
 62
     3
 10
18934.047190999961
 20
19254.040368499991
 30
0.0
 11
18904.049565999969
 21
19254.040368499991
 31
0.0
  0
LINE
  5
4397
  8
2-0
  6
CONTINUOUS
 62
     3
 10
18934.047190999961
 20
19248.036488499991
 30
0.0
 11
18934.047190999961
 21
19254.040368499991
 31
0.0
  0
LINE
  5
4398
  8
2-0
  6
CONTINUOUS
 62
     3
 10
18934.047190999961
 20
19264.135913499991
 30
0.0
 11
18904.049565999969
 21
19264.135913499991
 31
0.0
  0
LINE
  5
4399
  8
2-0
  6
CONTINUOUS
 62
     3
 10
18934.047190999961
 20
19246.134171500002
 30
0.0
 11
18934.047190999961
 21
19264.135913499991
 31
0.0
  0
LINE
  5
439A
  8
2-0
  6
CONTINUOUS
 62
     3
 10
18909.053788999969
 20
19246.134171500002
 30
0.0
 11
18934.047190999961
 21
19246.134171500002
 31
0.0
  0
LINE
  5
439B
  8
2-0
  6
CONTINUOUS
 62
     3
 10
18909.053788999969
 20
19251.134435499978
 30
0.0
 11
18909.053788999969
 21
19246.134171500002
 31
0.0
  0
LINE
  5
439C
  8
2-0
  6
CONTINUOUS
 62
     3
 10
18916.05138699996
 20
19251.134435499978
 30
0.0
 11
18909.053788999969
 21
19251.134435499978
 31
0.0
  0
LINE
  5
439D
  8
2-0
  6
CONTINUOUS
 62
     3
 10
18916.05138699996
 20
18518.940191999998
 30
0.0
 11
18909.053788999969
 21
18518.940191999998
 31
0.0
  0
LINE
  5
439E
  8
2-0
  6
CONTINUOUS
 62
     3
 10
18909.053788999969
 20
18518.940191999998
 30
0.0
 11
18909.053788999969
 21
18523.946393999991
 31
0.0
  0
LINE
  5
439F
  8
2-0
  6
CONTINUOUS
 62
     3
 10
18909.053788999969
 20
18523.946393999991
 30
0.0
 11
18934.047190999961
 21
18523.946393999991
 31
0.0
  0
LINE
  5
43A0
  8
2-0
  6
CONTINUOUS
 62
     3
 10
18934.047190999961
 20
18523.946393999991
 30
0.0
 11
18934.047190999961
 21
18505.944651999998
 31
0.0
  0
LINE
  5
43A1
  8
2-0
  6
CONTINUOUS
 62
     3
 10
18934.047190999961
 20
18505.944651999998
 30
0.0
 11
18904.049565999969
 21
18505.944651999998
 31
0.0
  0
LINE
  5
43A2
  8
2-0
  6
CONTINUOUS
 62
     3
 10
18934.047190999961
 20
18522.036158999981
 30
0.0
 11
18934.047190999961
 21
18516.040196999991
 31
0.0
  0
LINE
  5
43A3
  8
2-0
  6
CONTINUOUS
 62
     3
 10
18934.047190999961
 20
18516.040196999991
 30
0.0
 11
18904.049565999969
 21
18516.040196999991
 31
0.0
  0
LINE
  5
43A4
  8
2-0
  6
CONTINUOUS
 62
     3
 10
18904.049565999969
 20
18516.040196999991
 30
0.0
 11
18904.049565999969
 21
18553.039379000002
 31
0.0
  0
LINE
  5
43A5
  8
2-0
  6
CONTINUOUS
 62
     3
 10
18934.047190999961
 20
18553.039379000002
 30
0.0
 11
18904.049565999969
 21
18553.039379000002
 31
0.0
  0
LINE
  5
43A6
  8
2-0
  6
CONTINUOUS
 62
     3
 10
18934.047190999961
 20
18547.043416999979
 30
0.0
 11
18934.047190999961
 21
18553.039379000002
 31
0.0
  0
LINE
  5
43A7
  8
2-0
  6
CONTINUOUS
 62
     3
 10
18934.047190999961
 20
18563.134924000002
 30
0.0
 11
18904.049565999969
 21
18563.134924000002
 31
0.0
  0
LINE
  5
43A8
  8
2-0
  6
CONTINUOUS
 62
     3
 10
18934.047190999961
 20
18545.133182000001
 30
0.0
 11
18934.047190999961
 21
18563.134924000002
 31
0.0
  0
LINE
  5
43A9
  8
2-0
  6
CONTINUOUS
 62
     3
 10
18909.053788999969
 20
18545.133182000001
 30
0.0
 11
18934.047190999961
 21
18545.133182000001
 31
0.0
  0
LINE
  5
43AA
  8
2-0
  6
CONTINUOUS
 62
     3
 10
18909.053788999969
 20
18550.139383999991
 30
0.0
 11
18909.053788999969
 21
18545.133182000001
 31
0.0
  0
LINE
  5
43AB
  8
2-0
  6
CONTINUOUS
 62
     3
 10
18916.05138699996
 20
18550.139383999991
 30
0.0
 11
18909.053788999969
 21
18550.139383999991
 31
0.0
  0
LINE
  5
43AC
  8
2-0
  6
CONTINUOUS
 62
     3
 10
18916.05138699996
 20
17849.133446
 30
0.0
 11
18909.053788999969
 21
17849.133446
 31
0.0
  0
LINE
  5
43AD
  8
2-0
  6
CONTINUOUS
 62
     3
 10
18909.053788999969
 20
17849.133446
 30
0.0
 11
18909.053788999969
 21
17844.145058999991
 31
0.0
  0
LINE
  5
43AE
  8
2-0
  6
CONTINUOUS
 62
     3
 10
18909.053788999969
 20
17844.145058999991
 30
0.0
 11
18934.047190999961
 21
17844.145058999991
 31
0.0
  0
LINE
  5
43AF
  8
2-0
  6
CONTINUOUS
 62
     3
 10
18934.047190999961
 20
17844.145058999991
 30
0.0
 11
18934.047190999961
 21
17862.140862
 31
0.0
  0
LINE
  5
43B0
  8
2-0
  6
CONTINUOUS
 62
     3
 10
18934.047190999961
 20
17862.140862
 30
0.0
 11
18904.049565999969
 21
17862.140862
 31
0.0
  0
LINE
  5
43B1
  8
2-0
  6
CONTINUOUS
 62
     3
 10
18934.047190999961
 20
17846.04341699999
 30
0.0
 11
18934.047190999961
 21
17852.039378999991
 31
0.0
  0
LINE
  5
43B2
  8
2-0
  6
CONTINUOUS
 62
     3
 10
18934.047190999961
 20
17852.039378999991
 30
0.0
 11
18904.049565999969
 21
17852.039378999991
 31
0.0
  0
LINE
  5
43B3
  8
2-0
  6
CONTINUOUS
 62
     3
 10
18904.049565999969
 20
17852.039378999991
 30
0.0
 11
18904.049565999969
 21
17815.040196999991
 31
0.0
  0
LINE
  5
43B4
  8
2-0
  6
CONTINUOUS
 62
     3
 10
18934.047190999961
 20
17815.040196999991
 30
0.0
 11
18904.049565999969
 21
17815.040196999991
 31
0.0
  0
LINE
  5
43B5
  8
2-0
  6
CONTINUOUS
 62
     3
 10
18934.047190999961
 20
17821.042097999991
 30
0.0
 11
18934.047190999961
 21
17815.040196999991
 31
0.0
  0
LINE
  5
43B6
  8
2-0
  6
CONTINUOUS
 62
     3
 10
18934.047190999961
 20
17804.950591000001
 30
0.0
 11
18904.049565999969
 21
17804.950591000001
 31
0.0
  0
LINE
  5
43B7
  8
2-0
  6
CONTINUOUS
 62
     3
 10
18934.047190999961
 20
17822.946393999991
 30
0.0
 11
18934.047190999961
 21
17804.950591000001
 31
0.0
  0
LINE
  5
43B8
  8
2-0
  6
CONTINUOUS
 62
     3
 10
18909.053788999969
 20
17822.946393999991
 30
0.0
 11
18934.047190999961
 21
17822.946393999991
 31
0.0
  0
LINE
  5
43B9
  8
2-0
  6
CONTINUOUS
 62
     3
 10
18909.053788999969
 20
17817.946131000001
 30
0.0
 11
18909.053788999969
 21
17822.946393999991
 31
0.0
  0
LINE
  5
43BA
  8
2-0
  6
CONTINUOUS
 62
     3
 10
18916.05138699996
 20
17817.946131000001
 30
0.0
 11
18909.053788999969
 21
17817.946131000001
 31
0.0
  0
LINE
  5
43BB
  8
2-0
  6
CONTINUOUS
 62
     3
 10
18906.935703999981
 20
17098.037016999999
 30
0.0
 11
18906.935703999981
 21
17118.038071999988
 31
0.0
  0
LINE
  5
43BC
  8
2-0
  6
CONTINUOUS
 62
     3
 10
18906.935703999981
 20
17118.038071999988
 30
0.0
 11
18991.93623199996
 21
17118.038071999988
 31
0.0
  0
LINE
  5
43BD
  8
2-0
  6
CONTINUOUS
 62
     3
 10
18916.05138699996
 20
17144.64478200001
 30
0.0
 11
18909.053788999969
 21
17144.64478200001
 31
0.0
  0
LINE
  5
43BE
  8
2-0
  6
CONTINUOUS
 62
     3
 10
18909.053788999969
 20
17144.64478200001
 30
0.0
 11
18909.053788999969
 21
17139.65045600001
 31
0.0
  0
LINE
  5
43BF
  8
2-0
  6
CONTINUOUS
 62
     3
 10
18909.053788999969
 20
17139.65045600001
 30
0.0
 11
18934.047190999961
 21
17139.65045600001
 31
0.0
  0
LINE
  5
43C0
  8
2-0
  6
CONTINUOUS
 62
     3
 10
18934.047190999961
 20
17139.65045600001
 30
0.0
 11
18934.047190999961
 21
17157.646260000001
 31
0.0
  0
LINE
  5
43C1
  8
2-0
  6
CONTINUOUS
 62
     3
 10
18934.047190999961
 20
17157.646260000001
 30
0.0
 11
18904.049565999969
 21
17157.646260000001
 31
0.0
  0
LINE
  5
43C2
  8
2-0
  6
CONTINUOUS
 62
     3
 10
18934.047190999961
 20
17148.037676
 30
0.0
 11
18934.047190999961
 21
17142.035776000001
 31
0.0
  0
LINE
  5
43C3
  8
2-0
  6
CONTINUOUS
 62
     3
 10
18904.049565999969
 20
17148.037676
 30
0.0
 11
18934.047190999961
 21
17148.037676
 31
0.0
  0
LINE
  5
43C4
  8
2-0
  6
CONTINUOUS
 62
     3
 10
18904.049565999969
 20
17157.646260000001
 30
0.0
 11
18904.049565999969
 21
17804.950591000001
 31
0.0
  0
LINE
  5
43C5
  8
2-0
  6
CONTINUOUS
 62
     3
 10
18904.049565999969
 20
17862.140862
 30
0.0
 11
18904.049565999969
 21
18505.944651999998
 31
0.0
  0
LINE
  5
43C6
  8
2-0
  6
CONTINUOUS
 62
     3
 10
18904.049565999969
 20
17003.035961000009
 30
0.0
 11
18934.047190999961
 21
17003.035961000009
 31
0.0
  0
LINE
  5
43C7
  8
2-0
  6
CONTINUOUS
 62
     3
 10
18934.047190999961
 20
17003.035961000009
 30
0.0
 11
18934.047190999961
 21
17009.037861000012
 31
0.0
  0
LINE
  5
43C8
  8
2-0
  6
CONTINUOUS
 62
     3
 10
18991.93623199996
 20
17033.041504000012
 30
0.0
 11
18906.935703999981
 21
17033.041504000012
 31
0.0
  0
LINE
  5
43C9
  8
2-0
  6
CONTINUOUS
 62
     3
 10
18906.935703999981
 20
17033.041504000012
 30
0.0
 11
18906.935703999981
 21
17053.03662100001
 31
0.0
  0
LINE
  5
43CA
  8
2-0
  6
CONTINUOUS
 62
     3
 10
18934.047190999961
 20
16993.427378000011
 30
0.0
 11
18904.049565999969
 21
16993.427378000011
 31
0.0
  0
LINE
  5
43CB
  8
2-0
  6
CONTINUOUS
 62
     3
 10
18934.047190999961
 20
17011.423180999991
 30
0.0
 11
18934.047190999961
 21
16993.427378000011
 31
0.0
  0
LINE
  5
43CC
  8
2-0
  6
CONTINUOUS
 62
     3
 10
18909.053788999969
 20
17011.423180999991
 30
0.0
 11
18934.047190999961
 21
17011.423180999991
 31
0.0
  0
LINE
  5
43CD
  8
2-0
  6
CONTINUOUS
 62
     3
 10
18909.053788999969
 20
17006.422917000011
 30
0.0
 11
18909.053788999969
 21
17011.423180999991
 31
0.0
  0
LINE
  5
43CE
  8
2-0
  6
CONTINUOUS
 62
     3
 10
18916.05138699996
 20
17006.422917000011
 30
0.0
 11
18909.053788999969
 21
17006.422917000011
 31
0.0
  0
LINE
  5
43CF
  8
2-0
  6
CONTINUOUS
 62
     3
 10
18916.05138699996
 20
16301.94068649998
 30
0.0
 11
18909.053788999969
 21
16301.94068649998
 31
0.0
  0
LINE
  5
43D0
  8
2-0
  6
CONTINUOUS
 62
     3
 10
18909.053788999969
 20
16301.94068649998
 30
0.0
 11
18909.053788999969
 21
16306.94095049998
 31
0.0
  0
LINE
  5
43D1
  8
2-0
  6
CONTINUOUS
 62
     3
 10
18909.053788999969
 20
16306.94095049998
 30
0.0
 11
18934.047190999961
 21
16306.94095049998
 31
0.0
  0
LINE
  5
43D2
  8
2-0
  6
CONTINUOUS
 62
     3
 10
18934.047190999961
 20
16306.94095049998
 30
0.0
 11
18934.047190999961
 21
16288.9392085
 31
0.0
  0
LINE
  5
43D3
  8
2-0
  6
CONTINUOUS
 62
     3
 10
18934.047190999961
 20
16288.9392085
 30
0.0
 11
18904.049565999969
 21
16288.9392085
 31
0.0
  0
LINE
  5
43D4
  8
2-0
  6
CONTINUOUS
 62
     3
 10
18934.047190999961
 20
16305.036653499999
 30
0.0
 11
18934.047190999961
 21
16299.0397025
 31
0.0
  0
LINE
  5
43D5
  8
2-0
  6
CONTINUOUS
 62
     3
 10
18934.047190999961
 20
16299.0397025
 30
0.0
 11
18904.049565999969
 21
16299.0397025
 31
0.0
  0
LINE
  5
43D6
  8
2-0
  6
CONTINUOUS
 62
     3
 10
18904.049565999969
 20
16299.0397025
 30
0.0
 11
18904.049565999969
 21
16336.0398735
 31
0.0
  0
LINE
  5
43D7
  8
2-0
  6
CONTINUOUS
 62
     3
 10
18934.047190999961
 20
16336.0398735
 30
0.0
 11
18904.049565999969
 21
16336.0398735
 31
0.0
  0
LINE
  5
43D8
  8
2-0
  6
CONTINUOUS
 62
     3
 10
18934.047190999961
 20
16330.0369835
 30
0.0
 11
18934.047190999961
 21
16336.0398735
 31
0.0
  0
LINE
  5
43D9
  8
2-0
  6
CONTINUOUS
 62
     3
 10
18934.047190999961
 20
16346.135418499989
 30
0.0
 11
18904.049565999969
 21
16346.135418499989
 31
0.0
  0
LINE
  5
43DA
  8
2-0
  6
CONTINUOUS
 62
     3
 10
18934.047190999961
 20
16328.127737500001
 30
0.0
 11
18934.047190999961
 21
16346.135418499989
 31
0.0
  0
LINE
  5
43DB
  8
2-0
  6
CONTINUOUS
 62
     3
 10
18909.053788999969
 20
16328.127737500001
 30
0.0
 11
18934.047190999961
 21
16328.127737500001
 31
0.0
  0
LINE
  5
43DC
  8
2-0
  6
CONTINUOUS
 62
     3
 10
18909.053788999969
 20
16333.133940499991
 30
0.0
 11
18909.053788999969
 21
16328.127737500001
 31
0.0
  0
LINE
  5
43DD
  8
2-0
  6
CONTINUOUS
 62
     3
 10
18916.05138699996
 20
16333.133940499991
 30
0.0
 11
18909.053788999969
 21
16333.133940499991
 31
0.0
  0
LINE
  5
43DE
  8
2-0
  6
CONTINUOUS
 62
     3
 10
18916.05138699996
 20
15632.373957
 30
0.0
 11
18909.053788999969
 21
15632.373957
 31
0.0
  0
LINE
  5
43DF
  8
2-0
  6
CONTINUOUS
 62
     3
 10
18909.053788999969
 20
15632.373957
 30
0.0
 11
18909.053788999969
 21
15627.379632
 31
0.0
  0
LINE
  5
43E0
  8
2-0
  6
CONTINUOUS
 62
     3
 10
18909.053788999969
 20
15627.379632
 30
0.0
 11
18934.047190999961
 21
15627.379632
 31
0.0
  0
LINE
  5
43E1
  8
2-0
  6
CONTINUOUS
 62
     3
 10
18934.047190999961
 20
15627.379632
 30
0.0
 11
18934.047190999961
 21
15645.375435000011
 31
0.0
  0
LINE
  5
43E2
  8
2-0
  6
CONTINUOUS
 62
     3
 10
18934.047190999961
 20
15645.375435000011
 30
0.0
 11
18904.049565999969
 21
15645.375435000011
 31
0.0
  0
LINE
  5
43E3
  8
2-0
  6
CONTINUOUS
 62
     3
 10
18934.047190999961
 20
15629.277990000001
 30
0.0
 11
18934.047190999961
 21
15635.27989000002
 31
0.0
  0
LINE
  5
43E4
  8
2-0
  6
CONTINUOUS
 62
     3
 10
18934.047190999961
 20
15635.27989000002
 30
0.0
 11
18904.049565999969
 21
15635.27989000002
 31
0.0
  0
LINE
  5
43E5
  8
2-0
  6
CONTINUOUS
 62
     3
 10
18904.049565999969
 20
15598.280709000001
 30
0.0
 11
18904.049565999969
 21
15635.27989000002
 31
0.0
  0
LINE
  5
43E6
  8
2-0
  6
CONTINUOUS
 62
     3
 10
18934.047190999961
 20
15598.280709000001
 30
0.0
 11
18904.049565999969
 21
15598.280709000001
 31
0.0
  0
LINE
  5
43E7
  8
2-0
  6
CONTINUOUS
 62
     3
 10
18934.047190999961
 20
15604.27766
 30
0.0
 11
18934.047190999961
 21
15598.280709000001
 31
0.0
  0
LINE
  5
43E8
  8
2-0
  6
CONTINUOUS
 62
     3
 10
18934.047190999961
 20
15588.179225
 30
0.0
 11
18904.049565999969
 21
15588.179225
 31
0.0
  0
LINE
  5
43E9
  8
2-0
  6
CONTINUOUS
 62
     3
 10
18934.047190999961
 20
15606.186906000001
 30
0.0
 11
18934.047190999961
 21
15588.179225
 31
0.0
  0
LINE
  5
43EA
  8
2-0
  6
CONTINUOUS
 62
     3
 10
18909.053788999969
 20
15606.186906000001
 30
0.0
 11
18934.047190999961
 21
15606.186906000001
 31
0.0
  0
LINE
  5
43EB
  8
2-0
  6
CONTINUOUS
 62
     3
 10
18909.053788999969
 20
15601.186642000001
 30
0.0
 11
18909.053788999969
 21
15606.186906000001
 31
0.0
  0
LINE
  5
43EC
  8
2-0
  6
CONTINUOUS
 62
     3
 10
18916.05138699996
 20
15601.186642000001
 30
0.0
 11
18909.053788999969
 21
15601.186642000001
 31
0.0
  0
LINE
  5
43ED
  8
2-0
  6
CONTINUOUS
 62
     3
 10
18904.049565999969
 20
16993.427378000011
 30
0.0
 11
18904.049565999969
 21
16346.135418499989
 31
0.0
  0
LINE
  5
43EE
  8
2-0
  6
CONTINUOUS
 62
     3
 10
18904.049565999969
 20
17148.037676
 30
0.0
 11
18904.049565999969
 21
17003.035961000009
 31
0.0
  0
LINE
  5
43EF
  8
2-0
  6
CONTINUOUS
 62
     3
 10
18991.93623199996
 20
17118.038071999988
 30
0.0
 11
18991.93623199996
 21
17033.041504000012
 31
0.0
  0
LINE
  5
43F0
  8
2-0
  6
CONTINUOUS
 62
     3
 10
18934.047190999961
 20
14574.541714999999
 30
0.0
 11
18934.047190999961
 21
14580.546584
 31
0.0
  0
LINE
  5
43F1
  8
2-0
  6
CONTINUOUS
 62
     3
 10
18934.047190999961
 20
14580.546584
 30
0.0
 11
18904.049565999969
 21
14580.546584
 31
0.0
  0
LINE
  5
43F2
  8
2-0
  6
CONTINUOUS
 62
     3
 10
18904.049565999969
 20
14580.546584
 30
0.0
 11
18904.049565999969
 21
14465.542493000001
 31
0.0
  0
LINE
  5
43F3
  8
2-0
  6
CONTINUOUS
 62
     3
 10
18904.049565999969
 20
14465.542493000001
 30
0.0
 11
18989.048113999961
 21
14465.542493000001
 31
0.0
  0
LINE
  5
43F4
  8
2-0
  6
CONTINUOUS
 62
     3
 10
18989.048113999961
 20
14465.542493000001
 30
0.0
 11
18989.048113999961
 21
14550.538071999999
 31
0.0
  0
LINE
  5
43F5
  8
2-0
  6
CONTINUOUS
 62
     3
 10
18989.048113999961
 20
14550.538071999999
 30
0.0
 11
18957.05117599995
 21
14550.538071999999
 31
0.0
  0
LINE
  5
43F6
  8
2-0
  6
CONTINUOUS
 62
     3
 10
18916.05138699996
 20
14577.576316999999
 30
0.0
 11
18909.053788999969
 21
14577.576316999999
 31
0.0
  0
LINE
  5
43F7
  8
2-0
  6
CONTINUOUS
 62
     3
 10
18909.053788999969
 20
14577.576316999999
 30
0.0
 11
18909.053788999969
 21
14572.57902199998
 31
0.0
  0
LINE
  5
43F8
  8
2-0
  6
CONTINUOUS
 62
     3
 10
18909.053788999969
 20
14572.57902199998
 30
0.0
 11
18934.047190999961
 21
14572.57902199998
 31
0.0
  0
LINE
  5
43F9
  8
2-0
  6
CONTINUOUS
 62
     3
 10
18934.047190999961
 20
14572.57902199998
 30
0.0
 11
18934.047190999961
 21
14590.57779499999
 31
0.0
  0
LINE
  5
43FA
  8
2-0
  6
CONTINUOUS
 62
     3
 10
18934.047190999961
 20
14590.57779499999
 30
0.0
 11
18904.049565999969
 21
14590.57779499999
 31
0.0
  0
LINE
  5
43FB
  8
2-0
  6
CONTINUOUS
 62
     3
 10
18904.049565999969
 20
14590.57779499999
 30
0.0
 11
18904.049565999969
 21
14887.179225
 31
0.0
  0
LINE
  5
43FC
  8
2-0
  6
CONTINUOUS
 62
     3
 10
18904.049565999969
 20
18563.134924000002
 30
0.0
 11
18904.049565999969
 21
19206.945641499991
 31
0.0
  0
LINE
  5
43FD
  8
2-0
  6
CONTINUOUS
 62
     3
 10
18995.051993999961
 20
18492.038533999981
 30
0.0
 11
18948.048324999982
 21
18492.038533999981
 31
0.0
  0
LINE
  5
43FE
  8
2-0
  6
CONTINUOUS
 62
     3
 10
18948.048324999982
 20
18577.039062
 30
0.0
 11
18995.051993999961
 21
18577.039062
 31
0.0
  0
LINE
  5
43FF
  8
2-0
  6
CONTINUOUS
 62
     3
 10
18948.048324999982
 20
18492.038533999981
 30
0.0
 11
18948.048324999982
 21
18517.041832999999
 31
0.0
  0
LINE
  5
4400
  8
2-0
  6
CONTINUOUS
 62
     3
 10
18948.048324999982
 20
18552.037742000011
 30
0.0
 11
18948.048324999982
 21
18577.039062
 31
0.0
  0
LINE
  5
4401
  8
2-0
  6
CONTINUOUS
 62
     3
 10
18995.051993999961
 20
18577.039062
 30
0.0
 11
18995.051993999961
 21
18492.038533999981
 31
0.0
  0
LINE
  5
4402
  8
2-0
  6
CONTINUOUS
 62
     3
 10
18904.049565999969
 20
16288.9392085
 30
0.0
 11
18904.049565999969
 21
15645.375435000011
 31
0.0
  0
LINE
  5
4403
  8
2-0
  6
CONTINUOUS
 62
     3
 10
18995.051993999961
 20
15574.041504000001
 30
0.0
 11
18948.048324999982
 21
15574.041504000001
 31
0.0
  0
LINE
  5
4404
  8
2-0
  6
CONTINUOUS
 62
     3
 10
18948.048324999982
 20
15659.03807199999
 30
0.0
 11
18995.051993999961
 21
15659.03807199999
 31
0.0
  0
LINE
  5
4405
  8
2-0
  6
CONTINUOUS
 62
     3
 10
18948.048324999982
 20
15574.041504000001
 30
0.0
 11
18948.048324999982
 21
15599.03688500001
 31
0.0
  0
LINE
  5
4406
  8
2-0
  6
CONTINUOUS
 62
     3
 10
18948.048324999982
 20
15634.036753
 30
0.0
 11
18948.048324999982
 21
15659.03807199999
 31
0.0
  0
LINE
  5
4407
  8
2-0
  6
CONTINUOUS
 62
     3
 10
18995.051993999961
 20
15659.03807199999
 30
0.0
 11
18995.051993999961
 21
15574.041504000001
 31
0.0
  0
LINE
  5
4408
  8
2-0
  6
CONTINUOUS
 62
     3
 10
25526.044154999981
 20
19570.5419
 30
0.0
 11
25526.044154999981
 21
19685.538073000022
 31
0.0
  0
LINE
  5
4409
  8
2-0
  6
CENTER2
 62
     6
 10
17617.09129399998
 20
19643.039787999991
 30
0.0
 11
26376.045474999992
 21
19643.039787999991
 31
0.0
  0
LINE
  5
440A
  8
2-0
  6
CENTER2
 62
     6
 10
17617.09129399998
 20
17075.53978799998
 30
0.0
 11
26376.045474999992
 21
17075.53978799998
 31
0.0
  0
LINE
  5
440B
  8
2-0
  6
CENTER2
 62
     6
 10
17617.09129399998
 20
14508.039787999989
 30
0.0
 11
26376.045474999992
 21
14508.039787999989
 31
0.0
  0
LINE
  5
440C
  8
2-0
  6
CONTINUOUS
 62
     3
 10
19369.637548999981
 20
19673.538230999999
 30
0.0
 11
19369.637548999981
 21
19680.543747000011
 31
0.0
  0
LINE
  5
440D
  8
2-0
  6
CONTINUOUS
 62
     3
 10
19369.637548999981
 20
19680.543747000011
 30
0.0
 11
19364.63728499995
 21
19680.543747000011
 31
0.0
  0
LINE
  5
440E
  8
2-0
  6
CONTINUOUS
 62
     3
 10
19364.63728499995
 20
19680.543747000011
 30
0.0
 11
19364.63728499995
 21
19655.534510000001
 31
0.0
  0
LINE
  5
440F
  8
2-0
  6
CONTINUOUS
 62
     3
 10
19364.63728499995
 20
19655.534510000001
 30
0.0
 11
19382.63902699999
 21
19655.534510000001
 31
0.0
  0
LINE
  5
4410
  8
2-0
  6
CONTINUOUS
 62
     3
 10
19382.63902699999
 20
19655.534510000001
 30
0.0
 11
19382.63902699999
 21
19685.538073000022
 31
0.0
  0
LINE
  5
4411
  8
2-0
  6
CONTINUOUS
 62
     3
 10
19366.53960199999
 20
19655.534510000001
 30
0.0
 11
19372.543481999961
 21
19655.534510000001
 31
0.0
  0
LINE
  5
4412
  8
2-0
  6
CONTINUOUS
 62
     3
 10
19372.543481999961
 20
19655.534510000001
 30
0.0
 11
19372.543481999961
 21
19685.538073000022
 31
0.0
  0
LINE
  5
4413
  8
2-0
  6
CONTINUOUS
 62
     3
 10
19335.54825999996
 20
19685.538073000022
 30
0.0
 11
19372.543481999961
 21
19685.538073000022
 31
0.0
  0
LINE
  5
4414
  8
2-0
  6
CONTINUOUS
 62
     3
 10
19335.54825999996
 20
19655.534510000001
 30
0.0
 11
19335.54825999996
 21
19685.538073000022
 31
0.0
  0
LINE
  5
4415
  8
2-0
  6
CONTINUOUS
 62
     3
 10
19341.542241999981
 20
19655.534510000001
 30
0.0
 11
19335.54825999996
 21
19655.534510000001
 31
0.0
  0
LINE
  5
4416
  8
2-0
  6
CONTINUOUS
 62
     3
 10
19325.45271499997
 20
19655.534510000001
 30
0.0
 11
19325.45271499997
 21
19685.538073000022
 31
0.0
  0
LINE
  5
4417
  8
2-0
  6
CONTINUOUS
 62
     3
 10
19343.448517999979
 20
19655.534510000001
 30
0.0
 11
19325.45271499997
 21
19655.534510000001
 31
0.0
  0
LINE
  5
4418
  8
2-0
  6
CONTINUOUS
 62
     3
 10
19343.448517999979
 20
19680.543747000011
 30
0.0
 11
19343.448517999979
 21
19655.534510000001
 31
0.0
  0
LINE
  5
4419
  8
2-0
  6
CONTINUOUS
 62
     3
 10
19338.450233999982
 20
19680.543747000011
 30
0.0
 11
19343.448517999979
 21
19680.543747000011
 31
0.0
  0
LINE
  5
441A
  8
2-0
  6
CONTINUOUS
 62
     3
 10
19338.450233999982
 20
19673.538230999999
 30
0.0
 11
19338.450233999982
 21
19680.543747000011
 31
0.0
  0
LINE
  5
441B
  8
2-0
  6
CONTINUOUS
 62
     3
 10
19029.351112999939
 20
19685.538073000022
 30
0.0
 11
19325.45271499997
 21
19685.538073000022
 31
0.0
  0
LINE
  5
441C
  8
2-0
  6
CONTINUOUS
 62
     3
 10
18904.049565999969
 20
19600.541504000001
 30
0.0
 11
25445.04225499996
 21
19600.541504000001
 31
0.0
  0
LINE
  5
441D
  8
2-0
  6
CENTER2
 62
     6
 10
18946.54587099998
 20
20885.538073000022
 30
0.0
 11
18946.54587099998
 21
13882.276354
 31
0.0
  0
LINE
  5
441E
  8
2-0
  6
CENTER2
 62
     6
 10
25483.54587099998
 20
20885.538073000022
 30
0.0
 11
25483.54587099998
 21
13882.276354
 31
0.0
  0
LINE
  5
441F
  8
2-0
  6
CONTINUOUS
 62
     3
 10
25526.044154999981
 20
19560.244444
 30
0.0
 11
25526.044154999981
 21
19264.135913499991
 31
0.0
  0
LINE
  5
4420
  8
2-0
  6
CONTINUOUS
 62
     3
 10
18904.049565999969
 20
19560.244444
 30
0.0
 11
18904.049565999969
 21
19264.135913499991
 31
0.0
  0
LINE
  5
4421
  8
2-0
  6
CENTER2
 62
     6
 10
22215.04587099998
 20
20885.538073000022
 30
0.0
 11
22215.04587099998
 21
14316.635186999991
 31
0.0
  0
LINE
  5
4422
  8
2-0
  6
CONTINUOUS
 62
     3
 10
18985.047506999981
 20
14550.538071999999
 30
0.0
 11
18985.047506999981
 21
19685.538073000022
 31
0.0
  0
LINE
  5
4423
  8
2-0
  6
CONTINUOUS
 62
     3
 10
25445.04225499996
 20
14550.538071999999
 30
0.0
 11
25445.04225499996
 21
19685.538073000022
 31
0.0
  0
CIRCLE
  5
4424
  8
2-0
  6
CONTINUOUS
 62
     4
 10
17417.09360399998
 20
19643.039787999991
 30
0.0
 40
200.00001
  0
CIRCLE
  5
4425
  8
2-0
  6
CONTINUOUS
 62
     4
 10
17417.09360399998
 20
17075.53978799998
 30
0.0
 40
200.00001
  0
CIRCLE
  5
4426
  8
2-0
  6
CONTINUOUS
 62
     4
 10
17417.09360399998
 20
14508.039787999989
 30
0.0
 40
200.00001
  0
CIRCLE
  5
4427
  8
2-0
  6
CONTINUOUS
 62
     4
 10
22215.04587099998
 20
21085.542692000021
 30
0.0
 40
200.00001
  0
CIRCLE
  5
4428
  8
2-0
  6
CONTINUOUS
 62
     4
 10
18946.54587099998
 20
21085.542692000021
 30
0.0
 40
200.00001
  0
TEXT
  5
4429
  8
2-0
  6
CONTINUOUS
 62
     7
 10
23880.391177999962
 20
13948.04091
 30
0.0
 40
160.0
  1
前柱（右）
 50
0.000213
 72
     4
 11
24296.39088059299
 21
14028.042456500791
 31
0.0
  0
TEXT
  5
442A
  8
2-0
  6
CONTINUOUS
 62
     7
 10
23897.090396999971
 20
18276.662953999999
 30
0.0
 40
160.0
  1
補強柱 後
 50
359.99984199999989
 72
     4
 11
24307.757284274689
 21
18356.661821536989
 31
0.0
  0
TEXT
  5
442B
  8
2-0
  6
CONTINUOUS
 62
     7
 10
24084.986300999961
 20
16526.032926000022
 30
0.0
 40
160.0
  1
壁パネル
 50
359.99982299999999
 72
     4
 11
24447.653214803518
 21
16606.031805637889
 31
0.0
  0
TEXT
  5
442C
  8
2-0
  6
CONTINUOUS
 62
     7
 10
23804.983396999982
 20
17363.220822000021
 30
0.0
 40
160.0
  1
中柱（左右）
 50
0.000354
 72
     4
 11
24322.31623604619
 21
17443.224018324669
 31
0.0
  0
TEXT
  5
442D
  8
2-0
  6
CONTINUOUS
 62
     7
 10
24484.98564099997
 20
14921.082175999991
 30
0.0
 40
160.0
  1
下枠
 50
0.001063
 72
     4
 11
24655.650823409269
 21
15001.08534233928
 31
0.0
  0
TEXT
  5
442E
  8
2-0
  6
CONTINUOUS
 62
     7
 10
23897.09039699996
 20
15358.903465000019
 30
0.0
 40
160.0
  1
補強柱 前
 50
359.99937
 72
     4
 11
24307.75794328775
 21
15438.89894947934
 31
0.0
  0
TEXT
  5
442F
  8
2-0
  6
CONTINUOUS
 62
     7
 10
23979.951064999979
 20
18966.489560499991
 30
0.0
 40
160.0
  1
間柱（側）
 72
     4
 11
24401.284398333319
 21
19046.489560499991
 31
0.0
  0
TEXT
  5
4430
  8
2-0
  6
CONTINUOUS
 62
     7
 10
26298.541383999971
 20
20495.537281000012
 30
0.0
 40
160.0
  1
後柱（左右）
 50
0.000354
 72
     4
 11
26810.54088971296
 21
20575.540444372851
 31
0.0
  0
TEXT
  5
4431
  8
2-0
  6
CONTINUOUS
 62
     7
 10
22614.134632999991
 20
15085.878087999979
 30
0.0
 40
160.0
  1
前柱（中）
 72
     4
 11
23030.134632999991
 21
15165.878087999979
 31
0.0
  0
TEXT
  5
4432
  8
2-0
  6
CONTINUOUS
 62
     7
 10
21050.914746999981
 20
19048.420120000021
 30
0.0
 40
160.0
  1
間柱（後）
 72
     4
 11
21472.248080333309
 21
19128.420120000021
 31
0.0
  0
TEXT
  5
4433
  8
2-0
  6
CONTINUOUS
 62
     7
 10
22485.339236
 20
19117.164841000009
 30
0.0
 40
160.0
  1
後柱（中）
 72
     4
 11
22901.339236
 21
19197.164841000009
 31
0.0
  0
TEXT
  5
4434
  8
2-0
  6
CONTINUOUS
 62
     7
 10
17369.094236999968
 20
19548.55934600002
 30
0.0
 40
160.0
  1
C
 72
     4
 11
17422.427570333301
 21
19628.55934600002
 31
0.0
  0
TEXT
  5
4435
  8
2-0
  6
CONTINUOUS
 62
     7
 10
17369.314952999979
 20
17005.145706000021
 30
0.0
 40
160.0
  1
B
 72
     4
 11
17422.648286333311
 21
17085.145706000021
 31
0.0
  0
TEXT
  5
4436
  8
2-0
  6
CONTINUOUS
 62
     7
 10
17369.357512999981
 20
14419.432577
 30
0.0
 40
160.0
  1
A
 72
     4
 11
17422.690846333309
 21
14499.432577
 31
0.0
  0
TEXT
  5
4437
  8
2-0
  6
CONTINUOUS
 62
     7
 10
22163.41408799998
 20
20990.017063000021
 30
0.0
 40
160.0
  1
2
 72
     4
 11
22216.747421333312
 21
21070.017063000021
 31
0.0
  0
TEXT
  5
4438
  8
2-0
  6
CONTINUOUS
 62
     7
 10
18902.339261999969
 20
20996.775140000031
 30
0.0
 40
160.0
  1
1
 72
     4
 11
18929.00592866664
 21
21076.775140000031
 31
0.0
  0
LINE
  5
4439
  8
2-0
  6
CONTINUOUS
 62
     3
 10
24744.04645199997
 20
19685.538073000022
 30
0.0
 11
24707.04528999998
 21
19685.538073000022
 31
0.0
  0
LINE
  5
443A
  8
2-0
  6
CONTINUOUS
 62
     3
 10
24744.04645199997
 20
19655.534510000001
 30
0.0
 11
24744.04645199997
 21
19685.538073000022
 31
0.0
  0
LINE
  5
443B
  8
2-0
  6
CONTINUOUS
 62
     3
 10
24738.04653099996
 20
19655.534510000001
 30
0.0
 11
24744.04645199997
 21
19655.534510000001
 31
0.0
  0
LINE
  5
443C
  8
2-0
  6
CONTINUOUS
 62
     3
 10
24754.143975999981
 20
19655.534510000001
 30
0.0
 11
24754.143975999981
 21
19685.538073000022
 31
0.0
  0
LINE
  5
443D
  8
2-0
  6
CONTINUOUS
 62
     3
 10
24736.14025499998
 20
19655.534510000001
 30
0.0
 11
24754.143975999981
 21
19655.534510000001
 31
0.0
  0
LINE
  5
443E
  8
2-0
  6
CONTINUOUS
 62
     3
 10
24736.14025499998
 20
19680.543747000011
 30
0.0
 11
24736.14025499998
 21
19655.534510000001
 31
0.0
  0
LINE
  5
443F
  8
2-0
  6
CONTINUOUS
 62
     3
 10
24741.14051899996
 20
19680.543747000011
 30
0.0
 11
24736.14025499998
 21
19680.543747000011
 31
0.0
  0
LINE
  5
4440
  8
2-0
  6
CONTINUOUS
 62
     3
 10
24741.14051899996
 20
19673.538230999999
 30
0.0
 11
24741.14051899996
 21
19680.543747000011
 31
0.0
  0
LINE
  5
4441
  8
2-0
  6
CONTINUOUS
 62
     3
 10
24709.951223999971
 20
19673.538230999999
 30
0.0
 11
24709.951223999971
 21
19680.543747000011
 31
0.0
  0
LINE
  5
4442
  8
2-0
  6
CONTINUOUS
 62
     3
 10
24709.951223999971
 20
19680.543747000011
 30
0.0
 11
24714.951487999981
 21
19680.543747000011
 31
0.0
  0
LINE
  5
4443
  8
2-0
  6
CONTINUOUS
 62
     3
 10
24714.951487999981
 20
19680.543747000011
 30
0.0
 11
24714.951487999981
 21
19655.534510000001
 31
0.0
  0
LINE
  5
4444
  8
2-0
  6
CONTINUOUS
 62
     3
 10
24714.951487999981
 20
19655.534510000001
 30
0.0
 11
24696.951724999981
 21
19655.534510000001
 31
0.0
  0
LINE
  5
4445
  8
2-0
  6
CONTINUOUS
 62
     3
 10
24696.951724999981
 20
19655.534510000001
 30
0.0
 11
24696.951724999981
 21
19685.538073000022
 31
0.0
  0
LINE
  5
4446
  8
2-0
  6
CONTINUOUS
 62
     3
 10
24713.045210999971
 20
19655.534510000001
 30
0.0
 11
24707.04528999998
 21
19655.534510000001
 31
0.0
  0
LINE
  5
4447
  8
2-0
  6
CONTINUOUS
 62
     3
 10
24707.04528999998
 20
19655.534510000001
 30
0.0
 11
24707.04528999998
 21
19685.538073000022
 31
0.0
  0
LINE
  5
4448
  8
2-0
  6
CONTINUOUS
 62
     3
 10
23339.13556949998
 20
19673.538230999999
 30
0.0
 11
23339.13556949998
 21
19680.543747000011
 31
0.0
  0
LINE
  5
4449
  8
2-0
  6
CONTINUOUS
 62
     3
 10
23339.13556949998
 20
19680.543747000011
 30
0.0
 11
23334.135305499989
 21
19680.543747000011
 31
0.0
  0
LINE
  5
444A
  8
2-0
  6
CONTINUOUS
 62
     3
 10
23334.135305499989
 20
19680.543747000011
 30
0.0
 11
23334.135305499989
 21
19655.534510000001
 31
0.0
  0
LINE
  5
444B
  8
2-0
  6
CONTINUOUS
 62
     3
 10
23334.135305499989
 20
19655.534510000001
 30
0.0
 11
23352.141006499969
 21
19655.534510000001
 31
0.0
  0
LINE
  5
444C
  8
2-0
  6
CONTINUOUS
 62
     3
 10
23352.141006499969
 20
19655.534510000001
 30
0.0
 11
23352.141006499969
 21
19685.538073000022
 31
0.0
  0
LINE
  5
444D
  8
2-0
  6
CONTINUOUS
 62
     3
 10
23336.04356149997
 20
19655.534510000001
 30
0.0
 11
23342.04546149998
 21
19655.534510000001
 31
0.0
  0
LINE
  5
444E
  8
2-0
  6
CONTINUOUS
 62
     3
 10
23342.04546149998
 20
19655.534510000001
 30
0.0
 11
23342.04546149998
 21
19685.538073000022
 31
0.0
  0
LINE
  5
444F
  8
2-0
  6
CONTINUOUS
 62
     3
 10
23305.04628049997
 20
19685.538073000022
 30
0.0
 11
23342.04546149998
 21
19685.538073000022
 31
0.0
  0
LINE
  5
4450
  8
2-0
  6
CONTINUOUS
 62
     3
 10
23305.04628049997
 20
19655.534510000001
 30
0.0
 11
23305.04628049997
 21
19685.538073000022
 31
0.0
  0
LINE
  5
4451
  8
2-0
  6
CONTINUOUS
 62
     3
 10
23311.040262499981
 20
19655.534510000001
 30
0.0
 11
23305.04628049997
 21
19655.534510000001
 31
0.0
  0
LINE
  5
4452
  8
2-0
  6
CONTINUOUS
 62
     3
 10
23294.950735499981
 20
19655.534510000001
 30
0.0
 11
23294.950735499981
 21
19685.538073000022
 31
0.0
  0
LINE
  5
4453
  8
2-0
  6
CONTINUOUS
 62
     3
 10
23312.946538499971
 20
19655.534510000001
 30
0.0
 11
23294.950735499981
 21
19655.534510000001
 31
0.0
  0
LINE
  5
4454
  8
2-0
  6
CONTINUOUS
 62
     3
 10
23312.946538499971
 20
19680.543747000011
 30
0.0
 11
23312.946538499971
 21
19655.534510000001
 31
0.0
  0
LINE
  5
4455
  8
2-0
  6
CONTINUOUS
 62
     3
 10
23307.946274499991
 20
19680.543747000011
 30
0.0
 11
23312.946538499971
 21
19680.543747000011
 31
0.0
  0
LINE
  5
4456
  8
2-0
  6
CONTINUOUS
 62
     3
 10
23307.946274499991
 20
19673.538230999999
 30
0.0
 11
23307.946274499991
 21
19680.543747000011
 31
0.0
  0
LINE
  5
4457
  8
2-0
  6
CONTINUOUS
 62
     3
 10
24008.94528549998
 20
19673.538230999999
 30
0.0
 11
24008.94528549998
 21
19680.543747000011
 31
0.0
  0
LINE
  5
4458
  8
2-0
  6
CONTINUOUS
 62
     3
 10
24008.94528549998
 20
19680.543747000011
 30
0.0
 11
24013.945548499989
 21
19680.543747000011
 31
0.0
  0
LINE
  5
4459
  8
2-0
  6
CONTINUOUS
 62
     3
 10
24013.945548499989
 20
19680.543747000011
 30
0.0
 11
24013.945548499989
 21
19655.534510000001
 31
0.0
  0
LINE
  5
445A
  8
2-0
  6
CONTINUOUS
 62
     3
 10
24013.945548499989
 20
19655.534510000001
 30
0.0
 11
23995.95172549997
 21
19655.534510000001
 31
0.0
  0
LINE
  5
445B
  8
2-0
  6
CONTINUOUS
 62
     3
 10
23995.95172549997
 20
19655.534510000001
 30
0.0
 11
23995.95172549997
 21
19685.538073000022
 31
0.0
  0
LINE
  5
445C
  8
2-0
  6
CONTINUOUS
 62
     3
 10
24012.04323149996
 20
19655.534510000001
 30
0.0
 11
24006.045290499969
 21
19655.534510000001
 31
0.0
  0
LINE
  5
445D
  8
2-0
  6
CONTINUOUS
 62
     3
 10
24006.045290499969
 20
19655.534510000001
 30
0.0
 11
24006.045290499969
 21
19685.538073000022
 31
0.0
  0
LINE
  5
445E
  8
2-0
  6
CONTINUOUS
 62
     3
 10
24043.04645149998
 20
19685.538073000022
 30
0.0
 11
24006.045290499969
 21
19685.538073000022
 31
0.0
  0
LINE
  5
445F
  8
2-0
  6
CONTINUOUS
 62
     3
 10
24043.04645149998
 20
19655.534510000001
 30
0.0
 11
24043.04645149998
 21
19685.538073000022
 31
0.0
  0
LINE
  5
4460
  8
2-0
  6
CONTINUOUS
 62
     3
 10
24037.040592499969
 20
19655.534510000001
 30
0.0
 11
24043.04645149998
 21
19655.534510000001
 31
0.0
  0
LINE
  5
4461
  8
2-0
  6
CONTINUOUS
 62
     3
 10
24053.14001649998
 20
19655.534510000001
 30
0.0
 11
24053.14001649998
 21
19685.538073000022
 31
0.0
  0
LINE
  5
4462
  8
2-0
  6
CONTINUOUS
 62
     3
 10
24035.144213499971
 20
19655.534510000001
 30
0.0
 11
24053.14001649998
 21
19655.534510000001
 31
0.0
  0
LINE
  5
4463
  8
2-0
  6
CONTINUOUS
 62
     3
 10
24035.144213499971
 20
19680.543747000011
 30
0.0
 11
24035.144213499971
 21
19655.534510000001
 31
0.0
  0
LINE
  5
4464
  8
2-0
  6
CONTINUOUS
 62
     3
 10
24040.134579499969
 20
19680.543747000011
 30
0.0
 11
24035.144213499971
 21
19680.543747000011
 31
0.0
  0
LINE
  5
4465
  8
2-0
  6
CONTINUOUS
 62
     3
 10
24040.134579499969
 20
19673.538230999999
 30
0.0
 11
24040.134579499969
 21
19680.543747000011
 31
0.0
  0
LINE
  5
4466
  8
2-0
  6
CONTINUOUS
 62
     3
 10
23352.141006499969
 20
19685.538073000022
 30
0.0
 11
23995.95172549997
 21
19685.538073000022
 31
0.0
  0
LINE
  5
4467
  8
2-0
  6
CONTINUOUS
 62
     3
 10
22651.344896999999
 20
19685.538073000022
 30
0.0
 11
23294.950735499981
 21
19685.538073000022
 31
0.0
  0
LINE
  5
4468
  8
2-0
  6
CONTINUOUS
 62
     3
 10
25401.429500999991
 20
19685.538073000022
 30
0.0
 11
24754.143975999981
 21
19685.538073000022
 31
0.0
  0
LINE
  5
4469
  8
2-0
  6
CONTINUOUS
 62
     3
 10
24696.951724999981
 20
19685.538073000022
 30
0.0
 11
24053.14001649998
 21
19685.538073000022
 31
0.0
  0
LINE
  5
446A
  8
2-0
  6
CONTINUOUS
 62
     3
 10
22638.137548999981
 20
19673.538230999999
 30
0.0
 11
22638.137548999981
 21
19680.543747000011
 31
0.0
  0
LINE
  5
446B
  8
2-0
  6
CONTINUOUS
 62
     3
 10
22638.137548999981
 20
19680.543747000011
 30
0.0
 11
22633.137284999972
 21
19680.543747000011
 31
0.0
  0
LINE
  5
446C
  8
2-0
  6
CONTINUOUS
 62
     3
 10
22633.137284999972
 20
19680.543747000011
 30
0.0
 11
22633.137284999972
 21
19655.534510000001
 31
0.0
  0
LINE
  5
446D
  8
2-0
  6
CONTINUOUS
 62
     3
 10
22633.137284999972
 20
19655.534510000001
 30
0.0
 11
22651.139027000001
 21
19655.534510000001
 31
0.0
  0
LINE
  5
446E
  8
2-0
  6
CONTINUOUS
 62
     3
 10
22651.139027000001
 20
19655.534510000001
 30
0.0
 11
22651.139027000001
 21
19685.538073000022
 31
0.0
  0
LINE
  5
446F
  8
2-0
  6
CONTINUOUS
 62
     3
 10
22635.03960199999
 20
19655.534510000001
 30
0.0
 11
22641.043481999968
 21
19655.534510000001
 31
0.0
  0
LINE
  5
4470
  8
2-0
  6
CONTINUOUS
 62
     3
 10
22641.043481999968
 20
19655.534510000001
 30
0.0
 11
22641.043481999968
 21
19685.538073000022
 31
0.0
  0
LINE
  5
4471
  8
2-0
  6
CONTINUOUS
 62
     3
 10
22604.048259999981
 20
19685.538073000022
 30
0.0
 11
22641.043481999968
 21
19685.538073000022
 31
0.0
  0
LINE
  5
4472
  8
2-0
  6
CONTINUOUS
 62
     3
 10
22604.048259999981
 20
19655.534510000001
 30
0.0
 11
22604.048259999981
 21
19685.538073000022
 31
0.0
  0
LINE
  5
4473
  8
2-0
  6
CONTINUOUS
 62
     3
 10
22610.042241999981
 20
19655.534510000001
 30
0.0
 11
22604.048259999981
 21
19655.534510000001
 31
0.0
  0
LINE
  5
4474
  8
2-0
  6
CONTINUOUS
 62
     3
 10
22593.952714999981
 20
19655.534510000001
 30
0.0
 11
22593.952714999981
 21
19685.538073000022
 31
0.0
  0
LINE
  5
4475
  8
2-0
  6
CONTINUOUS
 62
     3
 10
22611.948518000001
 20
19655.534510000001
 30
0.0
 11
22593.952714999981
 21
19655.534510000001
 31
0.0
  0
LINE
  5
4476
  8
2-0
  6
CONTINUOUS
 62
     3
 10
22611.948518000001
 20
19680.543747000011
 30
0.0
 11
22611.948518000001
 21
19655.534510000001
 31
0.0
  0
LINE
  5
4477
  8
2-0
  6
CONTINUOUS
 62
     3
 10
22606.950233999982
 20
19680.543747000011
 30
0.0
 11
22611.948518000001
 21
19680.543747000011
 31
0.0
  0
LINE
  5
4478
  8
2-0
  6
CONTINUOUS
 62
     3
 10
22606.950233999982
 20
19673.538230999999
 30
0.0
 11
22606.950233999982
 21
19680.543747000011
 31
0.0
  0
LINE
  5
4479
  8
2-0
  6
CONTINUOUS
 62
     3
 10
22297.851112999972
 20
19685.538073000022
 30
0.0
 11
22593.952714999981
 21
19685.538073000022
 31
0.0
  0
LINE
  5
447A
  8
2-0
  6
CONTINUOUS
 62
     3
 10
22133.618373999991
 20
19685.538073000022
 30
0.0
 11
21485.643975999981
 21
19685.538073000022
 31
0.0
  0
LINE
  5
447B
  8
2-0
  6
CONTINUOUS
 62
     3
 10
25526.044154999981
 20
15588.179225
 30
0.0
 11
25526.044154999981
 21
14944.375435000011
 31
0.0
  0
CIRCLE
  5
447C
  8
2-0
  6
CONTINUOUS
 62
     4
 10
25483.54587099998
 20
21085.542692000021
 30
0.0
 40
200.00001
  0
TEXT
  5
447D
  8
2-0
  6
CONTINUOUS
 62
     7
 10
25431.91408799999
 20
20990.017063000021
 30
0.0
 40
160.0
  1
3
 72
     4
 11
25485.247421333319
 21
21070.017063000021
 31
0.0
  0
LINE
  5
447E
  8
0-1
  6
CONTINUOUS
 62
     3
 10
8498.5877559999808
 20
19489.853094370581
 30
0.0
 11
8498.5877559999808
 21
19845.535697000028
 31
0.0
  0
LINE
  5
447F
  8
0-1
  6
CONTINUOUS
 62
     3
 10
8461.5895639999799
 20
19508.602502057711
 30
0.0
 11
8461.5895639999799
 21
19845.535697000028
 31
0.0
  0
LINE
  5
4480
  8
0-1
  6
CONTINUOUS
 62
     3
 10
7940.5891019999726
 20
17109.538019999982
 30
0.0
 11
12665.83958999998
 21
17109.538019999982
 31
0.0
  0
LINE
  5
4481
  8
0-1
  6
CONTINUOUS
 62
     3
 10
7990.5897219999797
 20
14347.539432
 30
0.0
 11
7990.5897219999797
 21
19845.535697000021
 31
0.0
  0
LINE
  5
4482
  8
0-1
  6
CONTINUOUS
 62
     3
 10
7855.0896959999782
 20
14315.538535
 30
0.0
 11
7855.0896959999782
 21
19855.537148999989
 31
0.0
  0
LINE
  5
4483
  8
0-1
  6
CONTINUOUS
 62
     3
 10
8049.0884949999763
 20
19717.64381721359
 30
0.0
 11
8049.088494999979
 21
19845.535697000028
 31
0.0
  0
LINE
  5
4484
  8
0-1
  6
CONTINUOUS
 62
     3
 10
8086.0896559999792
 20
19698.892904939639
 30
0.0
 11
8086.0896559999792
 21
19845.535697000021
 31
0.0
  0
LINE
  5
4485
  8
0-1
  6
CONTINUOUS
 62
     3
 10
8249.0901439999761
 20
19616.289879291318
 30
0.0
 11
8249.0901439999761
 21
19845.535697000021
 31
0.0
  0
LINE
  5
4486
  8
0-1
  6
CONTINUOUS
 62
     3
 10
8286.0883359999734
 20
19597.47969
 30
0.0
 11
8286.0883359999734
 21
19845.535697000028
 31
0.0
  0
LINE
  5
4487
  8
0-1
  6
CONTINUOUS
 62
     3
 10
8661.5892339999846
 20
19412.471904000002
 30
0.0
 11
8661.5892339999846
 21
19845.535697000021
 31
0.0
  0
LINE
  5
4488
  8
0-1
  6
CONTINUOUS
 62
     3
 10
8698.5894059999846
 20
19393.717945
 30
0.0
 11
8698.5894059999846
 21
19845.535697000028
 31
0.0
  0
LINE
  5
4489
  8
0-1
  6
CONTINUOUS
 62
     3
 10
8861.5879139999888
 20
19311.09877800001
 30
0.0
 11
8861.5879139999852
 21
19845.535697000028
 31
0.0
  0
LINE
  5
448A
  8
0-1
  6
CONTINUOUS
 62
     3
 10
8898.5890759999875
 20
19292.346797999999
 30
0.0
 11
8898.5890759999875
 21
19845.535697000021
 31
0.0
  0
LINE
  5
448B
  8
0-1
  6
CONTINUOUS
 62
     3
 10
10826.88662399997
 20
18309.951527999991
 30
0.0
 11
10989.12400799999
 21
18500.15950899999
 31
0.0
  0
LINE
  5
448C
  8
0-1
  6
CONTINUOUS
 62
     3
 10
11425.480175999979
 20
17465.793958999991
 30
0.0
 11
11587.717559999979
 21
17656.001939999991
 31
0.0
  0
LINE
  5
448D
  8
0-1
  6
CONTINUOUS
 62
     3
 10
11425.480175999979
 20
17465.793958999991
 30
0.0
 11
10989.12400799999
 21
18500.15950899999
 31
0.0
  0
LINE
  5
448E
  8
0-1
  6
CONTINUOUS
 62
     3
 10
7940.5891019999726
 20
17030.537412999991
 30
0.0
 11
12821.696985999981
 21
17030.537412999991
 31
0.0
  0
LINE
  5
448F
  8
0-1
  6
CONTINUOUS
 62
     3
 10
7898.0888379999769
 20
14471.53944499998
 30
0.0
 11
14520.088375999971
 21
14471.53944499998
 31
0.0
  0
LINE
  5
4490
  8
0-1
  6
CONTINUOUS
 62
     3
 10
7940.5891019999726
 20
14550.540052
 30
0.0
 11
14477.589101999971
 21
14550.540052
 31
0.0
  0
LINE
  5
4491
  8
0-1
  6
CONTINUOUS
 62
     3
 10
7855.0896959999782
 20
14315.538535
 30
0.0
 11
14563.089497999959
 21
14315.538535
 31
0.0
  0
LINE
  5
4492
  8
0-1
  6
CONTINUOUS
 62
     3
 10
7855.0896959999782
 20
14347.539432
 30
0.0
 11
14563.089497999959
 21
14347.539432
 31
0.0
  0
LINE
  5
4493
  8
0-1
  6
CONTINUOUS
 62
     3
 10
14711.286116999971
 20
16078.087099
 30
0.0
 11
11587.717559999979
 21
17656.001939999991
 31
0.0
  0
LINE
  5
4494
  8
0-1
  6
CONTINUOUS
 62
     3
 10
7940.5891019999726
 20
14471.53944499998
 30
0.0
 11
7940.5891019999726
 21
19689.037861000001
 31
0.0
  0
LINE
  5
4495
  8
0-1
  6
CONTINUOUS
 62
     3
 10
7898.0888379999769
 20
14471.53944499998
 30
0.0
 11
7898.0888379999797
 21
19689.037861000001
 31
0.0
  0
LINE
  5
4496
  8
0-1
  6
CONTINUOUS
 62
     3
 10
9061.5895639999835
 20
19209.727631000002
 30
0.0
 11
9061.5895639999799
 21
19845.535697000028
 31
0.0
  0
LINE
  5
4497
  8
0-1
  6
CONTINUOUS
 62
     3
 10
9098.5877559999808
 20
19190.971691999999
 30
0.0
 11
9098.5877559999808
 21
19845.535697000028
 31
0.0
  0
LINE
  5
4498
  8
0-1
  6
CONTINUOUS
 62
     3
 10
9261.5892339999864
 20
19108.352524999991
 30
0.0
 11
9261.5892339999864
 21
19845.535697000021
 31
0.0
  0
LINE
  5
4499
  8
0-1
  6
CONTINUOUS
 62
     3
 10
9661.5885739999867
 20
18905.606273000001
 30
0.0
 11
9661.5885739999867
 21
19845.535697000021
 31
0.0
  0
LINE
  5
449A
  8
0-1
  6
CONTINUOUS
 62
     3
 10
9698.5887459999867
 20
18886.850334999999
 30
0.0
 11
9698.5887459999867
 21
19845.535697000021
 31
0.0
  0
LINE
  5
449B
  8
0-1
  6
CONTINUOUS
 62
     3
 10
9861.5892339999846
 20
18804.231167999998
 30
0.0
 11
9861.5892339999846
 21
19845.535697000028
 31
0.0
  0
LINE
  5
449C
  8
0-1
  6
CONTINUOUS
 62
     3
 10
9898.5884159999714
 20
18785.475229
 30
0.0
 11
9898.5884159999714
 21
19845.535697000021
 31
0.0
  0
LINE
  5
449D
  8
0-1
  6
CONTINUOUS
 62
     3
 10
10061.58890399996
 20
18702.856061999999
 30
0.0
 11
10061.58890399996
 21
19845.535697000028
 31
0.0
  0
LINE
  5
449E
  8
0-1
  6
CONTINUOUS
 62
     3
 10
10098.589075999969
 20
18679.102050000001
 30
0.0
 11
10098.589075999969
 21
19845.535697000021
 31
0.0
  0
LINE
  5
449F
  8
0-1
  6
CONTINUOUS
 62
     3
 10
10261.588573999979
 20
18596.482882999971
 30
0.0
 11
10261.588573999979
 21
19845.535697000021
 31
0.0
  0
LINE
  5
44A0
  8
0-1
  6
CONTINUOUS
 62
     3
 10
10298.588745999979
 20
18577.730904
 30
0.0
 11
10298.588745999979
 21
19845.535697000021
 31
0.0
  0
LINE
  5
44A1
  8
0-1
  6
CONTINUOUS
 62
     3
 10
10461.59022399997
 20
18495.111736999999
 30
0.0
 11
10461.59022399997
 21
19845.535697000021
 31
0.0
  0
LINE
  5
44A2
  8
0-1
  6
CONTINUOUS
 62
     3
 10
10498.58841599996
 20
18476.355798000001
 30
0.0
 11
10498.58841599996
 21
19845.535697000021
 31
0.0
  0
LINE
  5
44A3
  8
0-1
  6
CONTINUOUS
 62
     3
 10
10661.58890399996
 20
18393.736630999982
 30
0.0
 11
10661.58890399996
 21
19845.535697000021
 31
0.0
  0
LINE
  5
44A4
  8
0-1
  6
CONTINUOUS
 62
     3
 10
10698.590064999969
 20
18374.980692000001
 30
0.0
 11
10698.590064999969
 21
19845.535697000021
 31
0.0
  0
LINE
  5
44A5
  8
0-1
  6
CONTINUOUS
 62
     3
 10
10861.588573999979
 20
18350.636573
 30
0.0
 11
10861.588573999979
 21
19845.535697000021
 31
0.0
  0
LINE
  5
44A6
  8
0-1
  6
CONTINUOUS
 62
     3
 10
10898.588745999979
 20
18394.017723000001
 30
0.0
 11
10898.588745999979
 21
19845.535697000021
 31
0.0
  0
LINE
  5
44A7
  8
0-1
  6
CONTINUOUS
 62
     3
 10
11061.59022399997
 20
18329.214222999992
 30
0.0
 11
11061.59022399997
 21
19845.535697000021
 31
0.0
  0
LINE
  5
44A8
  8
0-1
  6
CONTINUOUS
 62
     3
 10
11098.58841599999
 20
18241.933289999972
 30
0.0
 11
11098.58841599999
 21
19845.535697000028
 31
0.0
  0
LINE
  5
44A9
  8
0-1
  6
CONTINUOUS
 62
     3
 10
9298.5894059999864
 20
19089.596587
 30
0.0
 11
9298.5894059999864
 21
19845.535697000021
 31
0.0
  0
LINE
  5
44AA
  8
0-1
  6
CONTINUOUS
 62
     3
 10
9461.5889039999784
 20
19006.977419999999
 30
0.0
 11
9461.5889039999784
 21
19845.535697000021
 31
0.0
  0
LINE
  5
44AB
  8
0-1
  6
CONTINUOUS
 62
     3
 10
9498.5890759999857
 20
18988.225439999998
 30
0.0
 11
9498.5890759999857
 21
19845.535697000021
 31
0.0
  0
LINE
  5
44AC
  8
0-1
  6
CONTINUOUS
 62
     3
 10
12298.58940599999
 20
17295.684029
 30
0.0
 11
12298.58940599999
 21
17422.539497999991
 31
0.0
  0
LINE
  5
44AD
  8
0-1
  6
CONTINUOUS
 62
     3
 10
12261.589233999979
 20
17314.439967999991
 30
0.0
 11
12261.589233999979
 21
17422.539497999991
 31
0.0
  0
LINE
  5
44AE
  8
0-1
  6
CONTINUOUS
 62
     3
 10
12098.587755999981
 20
17397.059135
 30
0.0
 11
12098.587755999981
 21
17422.539497999991
 31
0.0
  0
LINE
  5
44AF
  8
0-1
  6
CONTINUOUS
 62
     3
 10
12061.588573999979
 20
17415.815073999991
 30
0.0
 11
12061.588573999979
 21
17422.539497999991
 31
0.0
  0
LINE
  5
44B0
  8
0-1
  6
CONTINUOUS
 62
     3
 10
11898.59006499998
 20
17822.538838
 30
0.0
 11
11898.59006499998
 21
18886.539550000001
 31
0.0
  0
LINE
  5
44B1
  8
0-1
  6
CONTINUOUS
 62
     3
 10
11861.58890399998
 20
17822.538838
 30
0.0
 11
11861.58890399998
 21
18886.539550000001
 31
0.0
  0
LINE
  5
44B2
  8
0-1
  6
CONTINUOUS
 62
     3
 10
11698.58940599999
 20
17822.538838
 30
0.0
 11
11698.58940599999
 21
18886.539550000001
 31
0.0
  0
LINE
  5
44B3
  8
0-1
  6
CONTINUOUS
 62
     3
 10
11661.58923399999
 20
17822.538838
 30
0.0
 11
11661.58923399999
 21
18886.539550000001
 31
0.0
  0
LINE
  5
44B4
  8
0-1
  6
CONTINUOUS
 62
     3
 10
11498.587755999981
 20
17551.505133999992
 30
0.0
 11
11498.587755999981
 21
19845.535697000021
 31
0.0
  0
LINE
  5
44B5
  8
0-1
  6
CONTINUOUS
 62
     3
 10
11461.58956399998
 20
17508.127942999981
 30
0.0
 11
11461.58956399998
 21
19845.535697000021
 31
0.0
  0
LINE
  5
44B6
  8
0-1
  6
CONTINUOUS
 62
     3
 10
11298.59006499998
 20
17765.132798999999
 30
0.0
 11
11298.59006499998
 21
19845.535697000021
 31
0.0
  0
LINE
  5
44B7
  8
0-1
  6
CONTINUOUS
 62
     3
 10
11261.58890399998
 20
17852.417691999992
 30
0.0
 11
11261.58890399998
 21
19845.535697000021
 31
0.0
  0
LINE
  5
44B8
  8
0-1
  6
CONTINUOUS
 62
     3
 10
14520.088375999971
 20
14471.53944499998
 30
0.0
 11
14520.088375999971
 21
16174.998390000001
 31
0.0
  0
LINE
  5
44B9
  8
0-1
  6
CONTINUOUS
 62
     3
 10
14477.589101999971
 20
14471.53944499998
 30
0.0
 11
14477.589101999971
 21
16196.538522000001
 31
0.0
  0
LINE
  5
44BA
  8
0-1
  6
CONTINUOUS
 62
     3
 10
14563.089497999959
 20
14315.538535
 30
0.0
 11
14563.089497999959
 21
19855.537148999989
 31
0.0
  0
LINE
  5
44BB
  8
0-1
  6
CONTINUOUS
 62
     3
 10
14427.588480999961
 20
14347.539432
 30
0.0
 11
14427.588480999961
 21
19845.535697000021
 31
0.0
  0
LINE
  5
44BC
  8
0-1
  6
CONTINUOUS
 62
     3
 10
14332.08953699996
 20
16270.290435000001
 30
0.0
 11
14332.08953699996
 21
19845.535697000021
 31
0.0
  0
LINE
  5
44BD
  8
0-1
  6
CONTINUOUS
 62
     3
 10
14369.089708999971
 20
16251.53647599999
 30
0.0
 11
14369.089708999971
 21
19845.535697000021
 31
0.0
  0
LINE
  5
44BE
  8
0-1
  6
CONTINUOUS
 62
     3
 10
10826.88662399997
 20
18309.951527999991
 30
0.0
 11
7706.8940659999744
 21
19891.056152000001
 31
0.0
  0
LINE
  5
44BF
  8
0-1
  6
CONTINUOUS
 62
     3
 10
12498.59006499998
 20
17194.312882999991
 30
0.0
 11
12498.59006499998
 21
17422.539497999991
 31
0.0
  0
LINE
  5
44C0
  8
0-1
  6
CONTINUOUS
 62
     3
 10
12535.58825799998
 20
17175.556944
 30
0.0
 11
12535.58825799998
 21
17422.539497999991
 31
0.0
  0
LINE
  5
44C1
  8
0-1
  6
CONTINUOUS
 62
     3
 10
12698.588745999979
 20
17092.937776999988
 30
0.0
 11
12698.588745999979
 21
17422.539497999991
 31
0.0
  0
LINE
  5
44C2
  8
0-1
  6
CONTINUOUS
 62
     3
 10
12735.588916999979
 20
17074.181838999979
 30
0.0
 11
12735.588916999979
 21
17422.539497999991
 31
0.0
  0
LINE
  5
44C3
  8
0-1
  6
CONTINUOUS
 62
     3
 10
12898.58940599999
 20
16991.562672
 30
0.0
 11
12898.58940599999
 21
17422.539497999991
 31
0.0
  0
LINE
  5
44C4
  8
0-1
  6
CONTINUOUS
 62
     3
 10
12935.58858699998
 20
16972.808712999991
 30
0.0
 11
12935.58858699998
 21
17422.539497999991
 31
0.0
  0
LINE
  5
44C5
  8
0-1
  6
CONTINUOUS
 62
     3
 10
13572.58974899999
 20
16649.93537499999
 30
0.0
 11
13572.58974899999
 21
17422.539497999991
 31
0.0
  0
LINE
  5
44C6
  8
0-1
  6
CONTINUOUS
 62
     3
 10
13535.58759799998
 20
16668.691313999989
 30
0.0
 11
13535.58759799998
 21
17422.539497999991
 31
0.0
  0
LINE
  5
44C7
  8
0-1
  6
CONTINUOUS
 62
     3
 10
13372.589088999979
 20
16751.306521999992
 30
0.0
 11
13372.589088999979
 21
17422.539497999991
 31
0.0
  0
LINE
  5
44C8
  8
0-1
  6
CONTINUOUS
 62
     3
 10
13335.58990699997
 20
16770.06246099999
 30
0.0
 11
13335.58990699997
 21
17422.539497999991
 31
0.0
  0
LINE
  5
44C9
  8
0-1
  6
CONTINUOUS
 62
     3
 10
13172.58941899998
 20
16852.681627999991
 30
0.0
 11
13172.58941899998
 21
17422.539497999991
 31
0.0
  0
LINE
  5
44CA
  8
0-1
  6
CONTINUOUS
 62
     3
 10
13135.588257999971
 20
16871.437566000001
 30
0.0
 11
13135.588257999971
 21
17422.539497999991
 31
0.0
  0
LINE
  5
44CB
  8
0-1
  6
CONTINUOUS
 62
     3
 10
13772.58941899998
 20
16548.560270000002
 30
0.0
 11
13772.58941899998
 21
19845.535697000021
 31
0.0
  0
LINE
  5
44CC
  8
0-1
  6
CONTINUOUS
 62
     3
 10
13809.58958999997
 20
16529.806310999978
 30
0.0
 11
13809.58958999997
 21
19845.535697000021
 31
0.0
  0
LINE
  5
44CD
  8
0-1
  6
CONTINUOUS
 62
     3
 10
13972.589088999979
 20
16447.185163999991
 30
0.0
 11
13972.589088999979
 21
19845.535697000021
 31
0.0
  0
LINE
  5
44CE
  8
0-1
  6
CONTINUOUS
 62
     3
 10
14009.590249999979
 20
16428.431205000001
 30
0.0
 11
14009.590249999979
 21
19845.535697000021
 31
0.0
  0
LINE
  5
44CF
  8
0-1
  6
CONTINUOUS
 62
     3
 10
14172.58974899999
 20
16345.81500799999
 30
0.0
 11
14172.58974899999
 21
19845.535697000021
 31
0.0
  0
LINE
  5
44D0
  8
0-1
  6
CONTINUOUS
 62
     3
 10
14209.58794099998
 20
16327.059069000001
 30
0.0
 11
14209.58794099998
 21
19845.535697000021
 31
0.0
  0
LINE
  5
44D1
  8
0-1
  6
CONTINUOUS
 62
     3
 10
7873.0904479999772
 20
19825.537543999992
 30
0.0
 11
7923.5889569999736
 21
19825.537543999992
 31
0.0
  0
LINE
  5
44D2
  8
0-1
  6
CONTINUOUS
 62
     3
 10
7873.0904479999772
 20
19848.036753
 30
0.0
 11
7855.0896959999782
 21
19848.036753
 31
0.0
  0
LINE
  5
44D3
  8
0-1
  6
CONTINUOUS
 62
     3
 10
7923.5889569999736
 20
19865.539656000001
 30
0.0
 11
7860.0889699999798
 21
19865.539656000001
 31
0.0
  0
LINE
  5
44D4
  8
0-1
  6
CONTINUOUS
 62
     3
 10
7855.0896959999782
 20
19860.537412000001
 30
0.0
 11
7855.0896959999782
 21
19825.537543999992
 31
0.0
  0
LINE
  5
44D5
  8
0-1
  6
CONTINUOUS
 62
     3
 10
7928.588230999977
 20
19830.53780799999
 30
0.0
 11
7928.588230999977
 21
19860.537412000001
 31
0.0
  0
LINE
  5
44D6
  8
0-1
  6
CONTINUOUS
 62
     3
 10
7928.588230999977
 20
19845.535697000021
 30
0.0
 11
14486.58997299996
 21
19845.535697000021
 31
0.0
  0
LINE
  5
44D7
  8
0-1
  6
CONTINUOUS
 62
     3
 10
7873.0904479999772
 20
19805.3132609606
 30
0.0
 11
7873.0904479999772
 21
19848.036753
 31
0.0
  0
LINE
  5
44D8
  8
0-1
  6
CONTINUOUS
 62
     3
 10
14494.59023699996
 20
19865.539656000001
 30
0.0
 11
14558.089233999959
 21
19865.539656000001
 31
0.0
  0
LINE
  5
44D9
  8
0-1
  6
CONTINUOUS
 62
     3
 10
14545.08973499995
 20
19825.537543999992
 30
0.0
 11
14494.59023699996
 21
19825.537543999992
 31
0.0
  0
LINE
  5
44DA
  8
0-1
  6
CONTINUOUS
 62
     3
 10
14489.58997299996
 20
19830.53780799999
 30
0.0
 11
14489.58997299996
 21
19860.537412000001
 31
0.0
  0
LINE
  5
44DB
  8
0-1
  6
CONTINUOUS
 62
     3
 10
14563.089497999959
 20
19860.537412000001
 30
0.0
 11
14563.089497999959
 21
19825.537543999992
 31
0.0
  0
LINE
  5
44DC
  8
0-1
  6
CONTINUOUS
 62
     3
 10
14545.08973499995
 20
19848.036753
 30
0.0
 11
14563.089497999959
 21
19848.036753
 31
0.0
  0
LINE
  5
44DD
  8
0-1
  6
CONTINUOUS
 62
     3
 10
14545.08973499995
 20
16163.847761999999
 30
0.0
 11
14545.08973499995
 21
19848.036753
 31
0.0
  0
LINE
  5
44DE
  8
0-1
  6
CONTINUOUS
 62
     3
 10
7940.5891019999726
 20
15661.54018399999
 30
0.0
 11
14477.589101999971
 21
15661.54018399999
 31
0.0
  0
LINE
  5
44DF
  8
0-1
  6
CONTINUOUS
 62
     3
 10
7940.5891019999726
 20
15571.54038199999
 30
0.0
 11
14477.589101999971
 21
15571.54038199999
 31
0.0
  0
LINE
  5
44E0
  8
0-1
  6
CONTINUOUS
 62
     3
 10
7940.5891019999726
 20
18579.538204
 30
0.0
 11
10295.02066399998
 21
18579.538204
 31
0.0
  0
LINE
  5
44E1
  8
0-1
  6
CONTINUOUS
 62
     3
 10
7940.5891019999726
 20
18489.537412000001
 30
0.0
 11
10472.581500999981
 21
18489.537412000001
 31
0.0
  0
LINE
  5
44E2
  8
0-1
  6
CONTINUOUS
 62
     3
 10
11266.08933999996
 20
14550.540052
 30
0.0
 11
11266.08933999996
 21
15571.54038199999
 31
0.0
  0
LINE
  5
44E3
  8
0-1
  6
CONTINUOUS
 62
     3
 10
11152.08886499998
 20
14550.540052
 30
0.0
 11
11152.08886499998
 21
15571.54038199999
 31
0.0
  0
LINE
  5
44E4
  8
0-1
  6
CONTINUOUS
 62
     3
 10
11209.089101999971
 20
14550.540052
 30
0.0
 11
11209.089101999971
 21
15221.538732000001
 31
0.0
  0
LINE
  5
44E5
  8
0-1
  6
CONTINUOUS
 62
     3
 10
11209.089101999971
 20
14471.53944499998
 30
0.0
 11
11209.089101999971
 21
15571.54038199999
 31
0.0
  0
LINE
  5
44E6
  8
0-1
  6
CONTINUOUS
 62
     3
 10
11209.089101999971
 20
15661.54018399999
 30
0.0
 11
11209.089101999971
 21
17030.537412999991
 31
0.0
  0
LINE
  5
44E7
  8
0-1
  6
CONTINUOUS
 62
     3
 10
11209.089101999971
 20
17109.538019999982
 30
0.0
 11
11209.089101999971
 21
17626.265611999981
 31
0.0
  0
LINE
  5
44E8
  8
0-1
  6
CONTINUOUS
 62
     3
 10
11209.089101999971
 20
17109.538019999982
 30
0.0
 11
11209.089101999971
 21
17986.262417999991
 31
0.0
  0
LINE
  5
44E9
  8
0-1
  6
CONTINUOUS
 62
     3
 10
11152.08886499998
 20
17109.538019999982
 30
0.0
 11
11152.08886499998
 21
18120.727156000001
 31
0.0
  0
LINE
  5
44EA
  8
0-1
  6
CONTINUOUS
 62
     3
 10
11266.08933999996
 20
17109.538019999982
 30
0.0
 11
11266.08933999996
 21
17841.801533999991
 31
0.0
  0
LINE
  5
44EB
  8
0-1
  6
CONTINUOUS
 62
     3
 10
11152.08886499998
 20
15661.54018399999
 30
0.0
 11
11152.08886499998
 21
17030.537412999991
 31
0.0
  0
LINE
  5
44EC
  8
0-1
  6
CONTINUOUS
 62
     3
 10
11266.08933999996
 20
15661.54018399999
 30
0.0
 11
11266.08933999996
 21
17030.537412999991
 31
0.0
  0
LINE
  5
44ED
  8
0-1
  6
CONTINUOUS
 62
     3
 10
11209.089101999971
 20
15661.54018399999
 30
0.0
 11
11209.089101999971
 21
15571.54038199999
 31
0.0
  0
LINE
  5
44EE
  8
0-1
  6
CONTINUOUS
 62
     3
 10
11209.089101999971
 20
17109.538019999982
 30
0.0
 11
11209.089101999971
 21
17030.537412999991
 31
0.0
  0
LINE
  5
44EF
  8
0-1
  6
CONTINUOUS
 62
     3
 10
8010.5898279999774
 20
14508.039787999989
 30
0.0
 11
11139.08936599998
 21
15616.539788
 31
0.0
  0
LINE
  5
44F0
  8
0-1
  6
CONTINUOUS
 62
     3
 10
11139.08936599998
 20
14508.039787999989
 30
0.0
 11
8010.5898279999774
 21
15616.539788
 31
0.0
  0
LINE
  5
44F1
  8
0-1
  6
CONTINUOUS
 62
     3
 10
11139.08936599998
 20
15616.539788
 30
0.0
 11
8010.5898279999774
 21
17075.53978799998
 31
0.0
  0
LINE
  5
44F2
  8
0-1
  6
CONTINUOUS
 62
     3
 10
11139.08936599998
 20
17075.53978799998
 30
0.0
 11
8010.5898279999774
 21
15616.539788
 31
0.0
  0
LINE
  5
44F3
  8
0-1
  6
CONTINUOUS
 62
     3
 10
11139.08936599998
 20
17075.53978799998
 30
0.0
 11
8010.5898279999774
 21
18534.539787999998
 31
0.0
  0
LINE
  5
44F4
  8
0-1
  6
CONTINUOUS
 62
     3
 10
9407.2099387408343
 20
19029.394709328299
 30
0.0
 11
8010.5898279999774
 21
18534.539787999998
 31
0.0
  0
LINE
  5
44F5
  8
0-1
  6
CONTINUOUS
 62
     3
 10
10745.711515999979
 20
18351.095820999999
 30
0.0
 11
8010.5898279999774
 21
17075.53978799998
 31
0.0
  0
LINE
  5
44F6
  8
0-1
  6
CONTINUOUS
 62
     3
 10
11001.70681699998
 20
18470.472668999992
 30
0.0
 11
10938.770992999969
 21
18441.124326000001
 31
0.0
  0
LINE
  5
44F7
  8
0-1
  6
CONTINUOUS
 62
     3
 10
11279.088837999971
 20
14508.039787999989
 30
0.0
 11
14407.58936599996
 21
15616.539788
 31
0.0
  0
LINE
  5
44F8
  8
0-1
  6
CONTINUOUS
 62
     3
 10
14407.58936599996
 20
14508.039787999989
 30
0.0
 11
11279.088837999971
 21
15616.539788
 31
0.0
  0
LINE
  5
44F9
  8
0-1
  6
CONTINUOUS
 62
     3
 10
11279.088837999971
 20
17075.53978799998
 30
0.0
 11
14407.58936599996
 21
15616.539788
 31
0.0
  0
LINE
  5
44FA
  8
0-1
  6
CONTINUOUS
 62
     3
 10
11279.088837999971
 20
15616.539788
 30
0.0
 11
13530.33791399998
 21
16671.349806999991
 31
0.0
  0
LINE
  5
44FB
  8
0-1
  6
CONTINUOUS
 62
     3
 10
11279.088837999971
 20
17075.53978799998
 30
0.0
 11
12036.287356999979
 21
17428.638394999991
 31
0.0
  0
LINE
  5
44FC
  8
0-1
  6
CONTINUOUS
 62
     3
 10
13372.589088999979
 20
19286.538890999989
 30
0.0
 11
13372.589088999979
 21
19845.535697000021
 31
0.0
  0
LINE
  5
44FD
  8
0-1
  6
CONTINUOUS
 62
     3
 10
13135.588257999971
 20
19286.538890999989
 30
0.0
 11
13135.588257999971
 21
19845.535697000021
 31
0.0
  0
LINE
  5
44FE
  8
0-1
  6
CONTINUOUS
 62
     3
 10
13172.58941899998
 20
19286.538890999989
 30
0.0
 11
13172.58941899998
 21
19845.535697000021
 31
0.0
  0
LINE
  5
44FF
  8
0-1
  6
CONTINUOUS
 62
     3
 10
13335.58990699997
 20
19286.538890999989
 30
0.0
 11
13335.58990699997
 21
19845.535697000021
 31
0.0
  0
LINE
  5
4500
  8
0-1
  6
CONTINUOUS
 62
     3
 10
12935.58858699998
 20
19286.538890999989
 30
0.0
 11
12935.58858699998
 21
19845.535697000021
 31
0.0
  0
LINE
  5
4501
  8
0-1
  6
CONTINUOUS
 62
     3
 10
12898.58940599999
 20
19286.538890999989
 30
0.0
 11
12898.58940599999
 21
19845.535697000021
 31
0.0
  0
LINE
  5
4502
  8
0-1
  6
CONTINUOUS
 62
     3
 10
12735.588916999979
 20
19286.538890999989
 30
0.0
 11
12735.588916999979
 21
19845.535697000021
 31
0.0
  0
LINE
  5
4503
  8
0-1
  6
CONTINUOUS
 62
     3
 10
12698.588745999979
 20
19286.538890999989
 30
0.0
 11
12698.588745999979
 21
19845.535697000021
 31
0.0
  0
LINE
  5
4504
  8
0-1
  6
CONTINUOUS
 62
     3
 10
12535.58825799998
 20
19286.538890999989
 30
0.0
 11
12535.58825799998
 21
19845.535697000021
 31
0.0
  0
LINE
  5
4505
  8
0-1
  6
CONTINUOUS
 62
     3
 10
12498.59006499998
 20
19286.538890999989
 30
0.0
 11
12498.59006499998
 21
19845.535697000021
 31
0.0
  0
LINE
  5
4506
  8
0-1
  6
CONTINUOUS
 62
     3
 10
11661.58923399999
 20
19286.538890999989
 30
0.0
 11
11661.58923399999
 21
19845.535697000021
 31
0.0
  0
LINE
  5
4507
  8
0-1
  6
CONTINUOUS
 62
     3
 10
11698.58940599999
 20
19286.538890999989
 30
0.0
 11
11698.58940599999
 21
19845.535697000021
 31
0.0
  0
LINE
  5
4508
  8
0-1
  6
CONTINUOUS
 62
     3
 10
11861.58890399998
 20
19286.538890999989
 30
0.0
 11
11861.58890399998
 21
19845.535697000021
 31
0.0
  0
LINE
  5
4509
  8
0-1
  6
CONTINUOUS
 62
     3
 10
11898.59006499998
 20
19286.538890999989
 30
0.0
 11
11898.59006499998
 21
19845.535697000021
 31
0.0
  0
LINE
  5
450A
  8
0-1
  6
CONTINUOUS
 62
     3
 10
12061.588573999979
 20
19286.538890999989
 30
0.0
 11
12061.588573999979
 21
19845.535697000021
 31
0.0
  0
LINE
  5
450B
  8
0-1
  6
CONTINUOUS
 62
     3
 10
12098.587755999981
 20
19286.538890999989
 30
0.0
 11
12098.587755999981
 21
19845.535697000021
 31
0.0
  0
LINE
  5
450C
  8
0-1
  6
CONTINUOUS
 62
     3
 10
12261.589233999979
 20
19286.538890999989
 30
0.0
 11
12261.589233999979
 21
19845.535697000021
 31
0.0
  0
LINE
  5
450D
  8
0-1
  6
CONTINUOUS
 62
     3
 10
12298.58940599999
 20
19286.538890999989
 30
0.0
 11
12298.58940599999
 21
19845.535697000021
 31
0.0
  0
LINE
  5
450E
  8
0-1
  6
CONTINUOUS
 62
     3
 10
13535.58759799998
 20
19286.538890999989
 30
0.0
 11
13535.58759799998
 21
19845.535697000021
 31
0.0
  0
LINE
  5
450F
  8
0-1
  6
CONTINUOUS
 62
     3
 10
13572.58974899999
 20
19286.538890999989
 30
0.0
 11
13572.58974899999
 21
19845.535697000021
 31
0.0
  0
LINE
  5
4510
  8
0-1
  6
CONTINUOUS
 62
     3
 10
12935.58858699998
 20
17822.538838
 30
0.0
 11
12935.58858699998
 21
18886.539550000001
 31
0.0
  0
LINE
  5
4511
  8
0-1
  6
CONTINUOUS
 62
     3
 10
12898.58940599999
 20
17822.538838
 30
0.0
 11
12898.58940599999
 21
18886.539550000001
 31
0.0
  0
LINE
  5
4512
  8
0-1
  6
CONTINUOUS
 62
     3
 10
12735.588916999979
 20
17822.538838
 30
0.0
 11
12735.588916999979
 21
18886.539550000001
 31
0.0
  0
LINE
  5
4513
  8
0-1
  6
CONTINUOUS
 62
     3
 10
12698.588745999979
 20
17822.538838
 30
0.0
 11
12698.588745999979
 21
18886.539550000001
 31
0.0
  0
LINE
  5
4514
  8
0-1
  6
CONTINUOUS
 62
     3
 10
12535.58825799998
 20
17822.538838
 30
0.0
 11
12535.58825799998
 21
18886.539550000001
 31
0.0
  0
LINE
  5
4515
  8
0-1
  6
CONTINUOUS
 62
     3
 10
12498.59006499998
 20
17822.538838
 30
0.0
 11
12498.59006499998
 21
18886.539550000001
 31
0.0
  0
LINE
  5
4516
  8
0-1
  6
CONTINUOUS
 62
     3
 10
12261.589233999979
 20
17822.538838
 30
0.0
 11
12261.589233999979
 21
18886.539550000001
 31
0.0
  0
LINE
  5
4517
  8
0-1
  6
CONTINUOUS
 62
     3
 10
12298.58940599999
 20
17822.538838
 30
0.0
 11
12298.58940599999
 21
18886.539550000001
 31
0.0
  0
LINE
  5
4518
  8
0-1
  6
CONTINUOUS
 62
     3
 10
12061.588573999979
 20
17822.538838
 30
0.0
 11
12061.588573999979
 21
18886.539550000001
 31
0.0
  0
LINE
  5
4519
  8
0-1
  6
CONTINUOUS
 62
     3
 10
12098.587755999981
 20
17822.538838
 30
0.0
 11
12098.587755999981
 21
18886.539550000001
 31
0.0
  0
LINE
  5
451A
  8
0-1
  6
CONTINUOUS
 62
     3
 10
13135.588257999971
 20
17822.538838
 30
0.0
 11
13135.588257999971
 21
18886.539550000001
 31
0.0
  0
LINE
  5
451B
  8
0-1
  6
CONTINUOUS
 62
     3
 10
13172.58941899998
 20
17822.538838
 30
0.0
 11
13172.58941899998
 21
18886.539550000001
 31
0.0
  0
LINE
  5
451C
  8
0-1
  6
CONTINUOUS
 62
     3
 10
13335.58990699997
 20
17822.538838
 30
0.0
 11
13335.58990699997
 21
18886.539550000001
 31
0.0
  0
LINE
  5
451D
  8
0-1
  6
CONTINUOUS
 62
     3
 10
13372.589088999979
 20
17822.538838
 30
0.0
 11
13372.589088999979
 21
18886.539550000001
 31
0.0
  0
LINE
  5
451E
  8
0-1
  6
CONTINUOUS
 62
     3
 10
13535.58759799998
 20
17822.538838
 30
0.0
 11
13535.58759799998
 21
18886.539550000001
 31
0.0
  0
LINE
  5
451F
  8
0-1
  6
CONTINUOUS
 62
     3
 10
13572.58974899999
 20
17822.538838
 30
0.0
 11
13572.58974899999
 21
18886.539550000001
 31
0.0
  0
LINE
  5
4520
  8
0-1
  6
CONTINUOUS
 62
     3
 10
11209.089101999971
 20
14471.53944499998
 30
0.0
 11
11209.089101999971
 21
14315.538535
 31
0.0
  0
LINE
  5
4521
  8
0-5
  6
CONTINUOUS
 62
     6
 10
10027.055212999971
 20
19583.264265000002
 30
0.0
 11
10170.956315999971
 21
20095.539920000021
 31
0.0
  0
LINE
  5
4522
  8
0-5
  6
CONTINUOUS
 62
     6
 10
10170.956315999971
 20
20095.539920000021
 30
0.0
 11
10688.64595399998
 21
20095.539920000021
 31
0.0
  0
LINE
  5
4523
  8
0-5
  6
CONTINUOUS
 62
     6
 10
8105.1177779999771
 20
18873.237185000002
 30
0.0
 11
8635.6159709999865
 21
18873.237185000002
 31
0.0
  0
LINE
  5
4524
  8
0-5
  6
CONTINUOUS
 62
     6
 10
9101.4699349999846
 20
14702.42851299999
 30
0.0
 11
9184.3573269999833
 21
14879.367781000001
 31
0.0
  0
LINE
  5
4525
  8
0-5
  6
CONTINUOUS
 62
     6
 10
9184.3573269999833
 20
14879.367781000001
 30
0.0
 11
9984.3569969999862
 21
14879.367781000001
 31
0.0
  0
LINE
  5
4526
  8
0-5
  6
CONTINUOUS
 62
     6
 10
10091.883456999971
 20
13515.53886499998
 30
0.0
 11
10954.462636999981
 21
13515.53886499998
 31
0.0
  0
LINE
  5
4527
  8
0-5
  6
CONTINUOUS
 62
     6
 10
9685.7693829999862
 20
14179.070524000001
 30
0.0
 11
10091.883456999971
 21
13515.53886499998
 31
0.0
  0
LINE
  5
4528
  8
0-5
  6
CONTINUOUS
 62
     6
 10
6124.6920829999781
 20
13115.539525
 30
0.0
 11
7204.6906969999782
 21
13115.539525
 31
0.0
  0
LINE
  5
4529
  8
0-5
  6
CONTINUOUS
 62
     6
 10
7763.1955339999777
 20
14895.811641999981
 30
0.0
 11
7204.6906969999782
 21
13115.539525
 31
0.0
  0
LINE
  5
452A
  8
0-5
  6
CONTINUOUS
 62
     6
 10
8006.0745459999771
 20
19094.02674899999
 30
0.0
 11
8105.1177779999771
 21
18873.237185000002
 31
0.0
  0
LINE
  5
452B
  8
0-5
  6
CONTINUOUS
 62
     6
 10
9306.0729759999849
 20
16640.825631
 30
0.0
 11
9411.7060259999744
 21
16741.856299999999
 31
0.0
  0
LINE
  5
452C
  8
0-5
  6
CONTINUOUS
 62
     6
 10
8002.8103199999778
 20
20008.318372000002
 30
0.0
 11
8164.332107999976
 21
20344.076396
 31
0.0
  0
LINE
  5
452D
  8
0-5
  6
CONTINUOUS
 62
     6
 10
8225.9941109999818
 20
20472.262101
 30
0.0
 11
8402.3267369999867
 21
20816.98140500001
 31
0.0
  0
LINE
  5
452E
  8
0-5
  6
CONTINUOUS
 62
     6
 10
8402.3267369999867
 20
20816.98140500001
 30
0.0
 11
10055.172294999969
 21
20816.98140500001
 31
0.0
  0
LINE
  5
452F
  8
0-5
  6
CONTINUOUS
 62
     6
 10
10043.485216999979
 20
16205.566116
 30
0.0
 11
10991.430146999979
 21
16205.566116
 31
0.0
  0
LINE
  5
4530
  8
0-5
  6
CONTINUOUS
 62
     6
 10
11152.08886499998
 20
15780.54368199999
 30
0.0
 11
10991.430146999979
 21
16205.566116
 31
0.0
  0
LINE
  5
4531
  8
0-5
  6
CONTINUOUS
 62
     6
 10
11670.86723799997
 20
18966.539814
 30
0.0
 11
13665.31039899998
 21
18966.539814
 31
0.0
  0
LINE
  5
4532
  8
0-5
  6
CONTINUOUS
 62
     6
 10
11670.86723799997
 20
17502.539762
 30
0.0
 11
13665.31039899998
 21
17502.539762
 31
0.0
  0
LINE
  5
4533
  8
0-5
  6
CONTINUOUS
 62
     6
 10
9411.7060259999744
 20
16741.856299999999
 30
0.0
 11
10291.70793899998
 21
16741.856299999999
 31
0.0
  0
LINE
  5
4534
  8
0-5
  6
CONTINUOUS
 62
     6
 10
13805.857207999979
 20
18723.100599000001
 30
0.0
 11
13665.31039899998
 21
18966.539814
 31
0.0
  0
LINE
  5
4535
  8
0-5
  6
CONTINUOUS
 62
     6
 10
13805.857207999979
 20
17259.100546000001
 30
0.0
 11
13665.31039899998
 21
17502.539762
 31
0.0
  0
LINE
  5
4536
  8
0-5
  6
CONTINUOUS
 62
     6
 10
11670.86723799997
 20
15189.539813999991
 30
0.0
 11
13665.31039899998
 21
15189.539813999991
 31
0.0
  0
LINE
  5
4537
  8
0-5
  6
CONTINUOUS
 62
     6
 10
13805.857207999979
 20
15432.976060000001
 30
0.0
 11
13665.31039899998
 21
15189.539813999991
 31
0.0
  0
LINE
  5
4538
  8
0-5
  6
CONTINUOUS
 62
     6
 10
8030.4067879999748
 20
19104.943793999999
 30
0.0
 11
7940.5891019999726
 21
19240.012286000001
 31
0.0
  0
LINE
  5
4539
  8
0-5
  6
CONTINUOUS
 62
     6
 10
7940.5891019999726
 20
19240.012286000001
 30
0.0
 11
7981.7432929999813
 21
19083.111683999989
 31
0.0
  0
LINE
  5
453A
  8
0-5
  6
CONTINUOUS
 62
     6
 10
7940.5891019999726
 20
19240.012286000001
 30
0.0
 11
8030.4067879999748
 21
19104.943793999999
 31
0.0
  0
LINE
  5
453B
  8
0-5
  6
CONTINUOUS
 62
     6
 10
8030.4067879999748
 20
19104.943793999999
 30
0.0
 11
7981.7432929999813
 21
19083.111683999989
 31
0.0
  0
LINE
  5
453C
  8
0-5
  6
CONTINUOUS
 62
     6
 10
7981.7432929999813
 20
19083.111683999989
 30
0.0
 11
7940.5891019999726
 21
19240.012286000001
 31
0.0
  0
LINE
  5
453D
  8
0-5
  6
CONTINUOUS
 62
     6
 10
7981.7432929999813
 20
19083.111683999989
 30
0.0
 11
8030.4067879999748
 21
19104.943793999999
 31
0.0
  0
LINE
  5
453E
  8
0-5
  6
CONTINUOUS
 62
     6
 10
9708.5140519999895
 20
14192.991487999991
 30
0.0
 11
9602.2445869999847
 21
14315.538535
 31
0.0
  0
LINE
  5
453F
  8
0-5
  6
CONTINUOUS
 62
     6
 10
9602.2445869999847
 20
14315.538535
 30
0.0
 11
9663.0237249999864
 21
14165.150549
 31
0.0
  0
LINE
  5
4540
  8
0-5
  6
CONTINUOUS
 62
     6
 10
9602.2445869999847
 20
14315.538535
 30
0.0
 11
9708.5140519999895
 21
14192.991487999991
 31
0.0
  0
LINE
  5
4541
  8
0-5
  6
CONTINUOUS
 62
     6
 10
9708.5140519999895
 20
14192.991487999991
 30
0.0
 11
9663.0237249999864
 21
14165.150549
 31
0.0
  0
LINE
  5
4542
  8
0-5
  6
CONTINUOUS
 62
     6
 10
9663.0237249999864
 20
14165.150549
 30
0.0
 11
9602.2445869999847
 21
14315.538535
 31
0.0
  0
LINE
  5
4543
  8
0-5
  6
CONTINUOUS
 62
     6
 10
9663.0237249999864
 20
14165.150549
 30
0.0
 11
9708.5140519999895
 21
14192.991487999991
 31
0.0
  0
LINE
  5
4544
  8
0-5
  6
CONTINUOUS
 62
     6
 10
7788.6392759999753
 20
14887.829234000001
 30
0.0
 11
7811.0889959999804
 21
15048.475085
 31
0.0
  0
LINE
  5
4545
  8
0-5
  6
CONTINUOUS
 62
     6
 10
7811.0889959999804
 20
15048.475085
 30
0.0
 11
7737.7527819999768
 21
14903.79306099998
 31
0.0
  0
LINE
  5
4546
  8
0-5
  6
CONTINUOUS
 62
     6
 10
7811.0889959999804
 20
15048.475085
 30
0.0
 11
7788.6392759999753
 21
14887.829234000001
 31
0.0
  0
LINE
  5
4547
  8
0-5
  6
CONTINUOUS
 62
     6
 10
7788.6392759999753
 20
14887.829234000001
 30
0.0
 11
7737.7527819999768
 21
14903.79306099998
 31
0.0
  0
LINE
  5
4548
  8
0-5
  6
CONTINUOUS
 62
     6
 10
7737.7527819999768
 20
14903.79306099998
 30
0.0
 11
7811.0889959999804
 21
15048.475085
 31
0.0
  0
LINE
  5
4549
  8
0-5
  6
CONTINUOUS
 62
     6
 10
7737.7527819999768
 20
14903.79306099998
 30
0.0
 11
7788.6392759999753
 21
14887.829234000001
 31
0.0
  0
LINE
  5
454A
  8
0-5
  6
CONTINUOUS
 62
     6
 10
9077.3227779999834
 20
14713.741462
 30
0.0
 11
9033.5971919999938
 21
14557.53962999999
 31
0.0
  0
LINE
  5
454B
  8
0-5
  6
CONTINUOUS
 62
     6
 10
9033.5971919999938
 20
14557.53962999999
 30
0.0
 11
9125.6180819999809
 21
14691.11655399998
 31
0.0
  0
LINE
  5
454C
  8
0-5
  6
CONTINUOUS
 62
     6
 10
9033.5971919999938
 20
14557.53962999999
 30
0.0
 11
9077.3227779999834
 21
14713.741462
 31
0.0
  0
LINE
  5
454D
  8
0-5
  6
CONTINUOUS
 62
     6
 10
9077.3227779999834
 20
14713.741462
 30
0.0
 11
9125.6180819999809
 21
14691.11655399998
 31
0.0
  0
LINE
  5
454E
  8
0-5
  6
CONTINUOUS
 62
     6
 10
9125.6180819999809
 20
14691.11655399998
 30
0.0
 11
9033.5971919999938
 21
14557.53962999999
 31
0.0
  0
LINE
  5
454F
  8
0-5
  6
CONTINUOUS
 62
     6
 10
9125.6180819999809
 20
14691.11655399998
 30
0.0
 11
9077.3227779999834
 21
14713.741462
 31
0.0
  0
LINE
  5
4550
  8
0-5
  6
CONTINUOUS
 62
     6
 10
9287.6416779999799
 20
16660.098224000001
 30
0.0
 11
9190.4463259999866
 21
16530.239825000001
 31
0.0
  0
LINE
  5
4551
  8
0-5
  6
CONTINUOUS
 62
     6
 10
9190.4463259999866
 20
16530.239825000001
 30
0.0
 11
9324.5062529999814
 21
16621.556996999989
 31
0.0
  0
LINE
  5
4552
  8
0-5
  6
CONTINUOUS
 62
     6
 10
9190.4463259999866
 20
16530.239825000001
 30
0.0
 11
9287.6416779999799
 21
16660.098224000001
 31
0.0
  0
LINE
  5
4553
  8
0-5
  6
CONTINUOUS
 62
     6
 10
9287.6416779999799
 20
16660.098224000001
 30
0.0
 11
9324.5062529999814
 21
16621.556996999989
 31
0.0
  0
LINE
  5
4554
  8
0-5
  6
CONTINUOUS
 62
     6
 10
9324.5062529999814
 20
16621.556996999989
 30
0.0
 11
9190.4463259999866
 21
16530.239825000001
 31
0.0
  0
LINE
  5
4555
  8
0-5
  6
CONTINUOUS
 62
     6
 10
9324.5062529999814
 20
16621.556996999989
 30
0.0
 11
9287.6416779999799
 21
16660.098224000001
 31
0.0
  0
LINE
  5
4556
  8
0-5
  6
CONTINUOUS
 62
     6
 10
11119.74847999998
 20
15939.49407499999
 30
0.0
 11
11152.08886499998
 21
15780.54368199999
 31
0.0
  0
LINE
  5
4557
  8
0-5
  6
CONTINUOUS
 62
     6
 10
11152.08886499998
 20
15780.54368199999
 30
0.0
 11
11069.94577199999
 21
15920.412505
 31
0.0
  0
LINE
  5
4558
  8
0-5
  6
CONTINUOUS
 62
     6
 10
11152.08886499998
 20
15780.54368199999
 30
0.0
 11
11119.74847999998
 21
15939.49407499999
 31
0.0
  0
LINE
  5
4559
  8
0-5
  6
CONTINUOUS
 62
     6
 10
11119.74847999998
 20
15939.49407499999
 30
0.0
 11
11069.94577199999
 21
15920.412505
 31
0.0
  0
LINE
  5
455A
  8
0-5
  6
CONTINUOUS
 62
     6
 10
11069.94577199999
 20
15920.412505
 30
0.0
 11
11152.08886499998
 21
15780.54368199999
 31
0.0
  0
LINE
  5
455B
  8
0-5
  6
CONTINUOUS
 62
     6
 10
11069.94577199999
 20
15920.412505
 30
0.0
 11
11119.74847999998
 21
15939.49407499999
 31
0.0
  0
LINE
  5
455C
  8
0-5
  6
CONTINUOUS
 62
     6
 10
13782.765133999979
 20
15446.30910799999
 30
0.0
 11
13885.85846199998
 21
15571.54038199999
 31
0.0
  0
LINE
  5
455D
  8
0-5
  6
CONTINUOUS
 62
     6
 10
13885.85846199998
 20
15571.54038199999
 30
0.0
 11
13828.952250999961
 21
15419.643013000001
 31
0.0
  0
LINE
  5
455E
  8
0-5
  6
CONTINUOUS
 62
     6
 10
13885.85846199998
 20
15571.54038199999
 30
0.0
 11
13782.765133999979
 21
15446.30910799999
 31
0.0
  0
LINE
  5
455F
  8
0-5
  6
CONTINUOUS
 62
     6
 10
13782.765133999979
 20
15446.30910799999
 30
0.0
 11
13828.952250999961
 21
15419.643013000001
 31
0.0
  0
LINE
  5
4560
  8
0-5
  6
CONTINUOUS
 62
     6
 10
13828.952250999961
 20
15419.643013000001
 30
0.0
 11
13885.85846199998
 21
15571.54038199999
 31
0.0
  0
LINE
  5
4561
  8
0-5
  6
CONTINUOUS
 62
     6
 10
13828.952250999961
 20
15419.643013000001
 30
0.0
 11
13782.765133999979
 21
15446.30910799999
 31
0.0
  0
LINE
  5
4562
  8
0-5
  6
CONTINUOUS
 62
     6
 10
13782.765133999979
 20
17245.768488999991
 30
0.0
 11
13885.85846199998
 21
17120.536225
 31
0.0
  0
LINE
  5
4563
  8
0-5
  6
CONTINUOUS
 62
     6
 10
13885.85846199998
 20
17120.536225
 30
0.0
 11
13828.952250999961
 21
17272.434583999991
 31
0.0
  0
LINE
  5
4564
  8
0-5
  6
CONTINUOUS
 62
     6
 10
13885.85846199998
 20
17120.536225
 30
0.0
 11
13782.765133999979
 21
17245.768488999991
 31
0.0
  0
LINE
  5
4565
  8
0-5
  6
CONTINUOUS
 62
     6
 10
13782.765133999979
 20
17245.768488999991
 30
0.0
 11
13828.952250999961
 21
17272.434583999991
 31
0.0
  0
LINE
  5
4566
  8
0-5
  6
CONTINUOUS
 62
     6
 10
13828.952250999961
 20
17272.434583999991
 30
0.0
 11
13885.85846199998
 21
17120.536225
 31
0.0
  0
LINE
  5
4567
  8
0-5
  6
CONTINUOUS
 62
     6
 10
13828.952250999961
 20
17272.434583999991
 30
0.0
 11
13782.765133999979
 21
17245.768488999991
 31
0.0
  0
LINE
  5
4568
  8
0-5
  6
CONTINUOUS
 62
     6
 10
13782.765133999979
 20
18709.768541000001
 30
0.0
 11
13885.85846199998
 21
18579.538204
 31
0.0
  0
LINE
  5
4569
  8
0-5
  6
CONTINUOUS
 62
     6
 10
13885.85846199998
 20
18579.538204
 30
0.0
 11
13828.952250999961
 21
18736.434636000002
 31
0.0
  0
LINE
  5
456A
  8
0-5
  6
CONTINUOUS
 62
     6
 10
13885.85846199998
 20
18579.538204
 30
0.0
 11
13782.765133999979
 21
18709.768541000001
 31
0.0
  0
LINE
  5
456B
  8
0-5
  6
CONTINUOUS
 62
     6
 10
13782.765133999979
 20
18709.768541000001
 30
0.0
 11
13828.952250999961
 21
18736.434636000002
 31
0.0
  0
LINE
  5
456C
  8
0-5
  6
CONTINUOUS
 62
     6
 10
13828.952250999961
 20
18736.434636000002
 30
0.0
 11
13885.85846199998
 21
18579.538204
 31
0.0
  0
LINE
  5
456D
  8
0-5
  6
CONTINUOUS
 62
     6
 10
13828.952250999961
 20
18736.434636000002
 30
0.0
 11
13782.765133999979
 21
18709.768541000001
 31
0.0
  0
LINE
  5
456E
  8
0-5
  6
CONTINUOUS
 62
     6
 10
7978.4285889999755
 20
20019.11268699999
 30
0.0
 11
7938.0345329999809
 21
19862.014133000001
 31
0.0
  0
LINE
  5
456F
  8
0-5
  6
CONTINUOUS
 62
     6
 10
7938.0345329999809
 20
19862.014133000001
 30
0.0
 11
8027.1940299999796
 21
19997.520098000001
 31
0.0
  0
LINE
  5
4570
  8
0-5
  6
CONTINUOUS
 62
     6
 10
7938.0345329999809
 20
19862.014133000001
 30
0.0
 11
7978.4285889999755
 21
20019.11268699999
 31
0.0
  0
LINE
  5
4571
  8
0-5
  6
CONTINUOUS
 62
     6
 10
7978.4285889999755
 20
20019.11268699999
 30
0.0
 11
8027.1940299999796
 21
19997.520098000001
 31
0.0
  0
LINE
  5
4572
  8
0-5
  6
CONTINUOUS
 62
     6
 10
8027.1940299999796
 20
19997.520098000001
 30
0.0
 11
7938.0345329999809
 21
19862.014133000001
 31
0.0
  0
LINE
  5
4573
  8
0-5
  6
CONTINUOUS
 62
     6
 10
8027.1940299999796
 20
19997.520098000001
 30
0.0
 11
7978.4285889999755
 21
20019.11268699999
 31
0.0
  0
LINE
  5
4574
  8
0-5
  6
CONTINUOUS
 62
     6
 10
10001.167068999979
 20
19589.660090000001
 30
0.0
 11
9988.6683879999873
 21
19427.935400999999
 31
0.0
  0
LINE
  5
4575
  8
0-5
  6
CONTINUOUS
 62
     6
 10
9988.6683879999873
 20
19427.935400999999
 30
0.0
 11
10052.944346999981
 21
19576.864482000001
 31
0.0
  0
LINE
  5
4576
  8
0-5
  6
CONTINUOUS
 62
     6
 10
9988.6683879999873
 20
19427.935400999999
 30
0.0
 11
10001.167068999979
 21
19589.660090000001
 31
0.0
  0
LINE
  5
4577
  8
0-5
  6
CONTINUOUS
 62
     6
 10
10001.167068999979
 20
19589.660090000001
 30
0.0
 11
10052.944346999981
 21
19576.864482000001
 31
0.0
  0
LINE
  5
4578
  8
0-5
  6
CONTINUOUS
 62
     6
 10
10052.944346999981
 20
19576.864482000001
 30
0.0
 11
9988.6683879999873
 21
19427.935400999999
 31
0.0
  0
LINE
  5
4579
  8
0-5
  6
CONTINUOUS
 62
     6
 10
10052.944346999981
 20
19576.864482000001
 30
0.0
 11
10001.167068999979
 21
19589.660090000001
 31
0.0
  0
LINE
  5
457A
  8
0-1
  6
CONTINUOUS
 62
     3
 10
7940.5891019999726
 20
19604.037333
 30
0.0
 11
8273.2680843242269
 21
19604.037333
 31
0.0
  0
LINE
  5
457B
  8
2-0
  6
DASHED3
 62
     6
 10
8273.2680843242269
 20
19604.037333
 30
0.0
 11
14477.589101999971
 21
19604.037333
 31
0.0
  0
LINE
  5
457C
  8
0-1
  6
CONTINUOUS
 62
     3
 10
7898.0888379999769
 20
19689.037861000001
 30
0.0
 11
8105.5366067480318
 21
19689.037861000001
 31
0.0
  0
LINE
  5
457D
  8
2-0
  6
DASHED3
 62
     6
 10
8105.5366067480318
 20
19689.037861000001
 30
0.0
 11
14520.088375999971
 21
19689.037861000001
 31
0.0
  0
LINE
  5
457E
  8
2-0
  6
DASHED3
 62
     6
 10
12821.696985999981
 20
17030.537412999991
 30
0.0
 11
14477.589101999971
 21
17030.537412999991
 31
0.0
  0
LINE
  5
457F
  8
2-0
  6
DASHED3
 62
     6
 10
12665.83958999998
 20
17109.538019999982
 30
0.0
 11
14477.589101999971
 21
17109.538019999982
 31
0.0
  0
LINE
  5
4580
  8
2-0
  6
DASHED3
 62
     6
 10
14477.589101999971
 20
16196.538522000001
 30
0.0
 11
14477.589101999971
 21
19689.037861000001
 31
0.0
  0
LINE
  5
4581
  8
2-0
  6
DASHED3
 62
     6
 10
14520.088375999971
 20
16174.998390000001
 30
0.0
 11
14520.088375999971
 21
19689.037861000001
 31
0.0
  0
LINE
  5
4582
  8
2-0
  6
DASHED3
 62
     6
 10
10472.581500999981
 20
18489.537412000001
 30
0.0
 11
14477.589101999971
 21
18489.537412000001
 31
0.0
  0
LINE
  5
4583
  8
2-0
  6
DASHED3
 62
     6
 10
10295.02066399998
 20
18579.538204
 30
0.0
 11
14477.589101999971
 21
18579.538204
 31
0.0
  0
LINE
  5
4584
  8
2-0
  6
DASHED3
 62
     6
 10
11266.08933999996
 20
17841.801533999991
 30
0.0
 11
11266.08933999996
 21
18144.536805
 31
0.0
  0
LINE
  5
4585
  8
2-0
  6
DASHED3
 62
     6
 10
11152.08886499998
 20
18120.727156000001
 30
0.0
 11
11152.08886499998
 21
18144.536805
 31
0.0
  0
LINE
  5
4586
  8
2-0
  6
DASHED3
 62
     6
 10
11209.089101999971
 20
17986.262417999991
 30
0.0
 11
11209.089101999971
 21
18489.537412000001
 31
0.0
  0
LINE
  5
4587
  8
2-0
  6
DASHED3
 62
     6
 10
11209.089101999971
 20
18579.538204
 30
0.0
 11
11209.089101999971
 21
18489.537412000001
 31
0.0
  0
LINE
  5
4588
  8
0-6
  6
CONTINUOUS
 62
     6
 10
11139.08936599998
 20
18534.539787999998
 30
0.0
 11
11001.70681699998
 21
18470.472668999992
 31
0.0
  0
LINE
  5
4589
  8
2-0
  6
DASHED3
 62
     6
 10
11139.08936599998
 20
19643.039787999991
 30
0.0
 11
9407.2099387408343
 21
19029.394709328299
 31
0.0
  0
LINE
  5
458A
  8
2-0
  6
DASHED3
 62
     6
 10
11139.08936599998
 20
18534.539787999998
 30
0.0
 11
8627.9632558453814
 21
19424.290053037861
 31
0.0
  0
LINE
  5
458B
  8
0-1
  6
CONTINUOUS
 62
     3
 10
8627.9632558453704
 20
19424.290053037879
 30
0.0
 11
8010.5898279999774
 21
19643.039787999991
 31
0.0
  0
LINE
  5
458C
  8
0-6
  6
CONTINUOUS
 62
     6
 10
10938.770992999969
 20
18441.124326000001
 30
0.0
 11
10745.711515999979
 21
18351.095820999999
 31
0.0
  0
LINE
  5
458D
  8
2-0
  6
DASHED3
 62
     6
 10
11279.088837999971
 20
18534.539787999998
 30
0.0
 11
12795.20112999997
 21
17822.538838
 31
0.0
  0
LINE
  5
458E
  8
2-0
  6
DASHED3
 62
     6
 10
11279.088837999971
 20
19643.039787999991
 30
0.0
 11
12285.23520200014
 21
19286.538890999989
 31
0.0
  0
LINE
  5
458F
  8
2-0
  6
DASHED3
 62
     6
 10
11279.088837999971
 20
18534.539787999998
 30
0.0
 11
12272.531725929721
 21
18886.539550000001
 31
0.0
  0
LINE
  5
4590
  8
2-0
  6
DASHED3
 62
     6
 10
13530.33791399998
 20
16671.349806999991
 30
0.0
 11
14407.58936599996
 21
17075.53978799998
 31
0.0
  0
LINE
  5
4591
  8
2-0
  6
DASHED3
 62
     6
 10
13401.44300199198
 20
19286.538890999989
 30
0.0
 11
14407.58936599996
 21
19643.039787999991
 31
0.0
  0
LINE
  5
4592
  8
0-6
  6
CONTINUOUS
 62
     6
 10
13414.146478062419
 20
18886.539550000001
 30
0.0
 11
14407.58936599996
 21
18534.539787999998
 31
0.0
  0
LINE
  5
4593
  8
0-6
  6
CONTINUOUS
 62
     6
 10
13652.97205999998
 20
17422.539497999991
 30
0.0
 11
14407.58936599996
 21
17075.53978799998
 31
0.0
  0
LINE
  5
4594
  8
0-6
  6
CONTINUOUS
 62
     6
 10
12880.97663899998
 20
17822.538838
 30
0.0
 11
14407.58936599996
 21
18534.539787999998
 31
0.0
  0
LINE
  5
4595
  8
0-7
  6
CONTINUOUS
 62
     6
 10
14477.589101999971
 20
20885.538071999988
 30
0.0
 11
14477.589101999971
 21
19935.537412000001
 31
0.0
  0
LINE
  5
4596
  8
0-7
  6
CONTINUOUS
 62
     6
 10
11209.089101999971
 20
20815.538336000009
 30
0.0
 11
11209.089101999971
 21
19935.537412000001
 31
0.0
  0
LINE
  5
4597
  8
2-0
  6
CENTER2
 62
     6
 10
6611.0875119999728
 20
19643.039787999991
 30
0.0
 11
8257.588217999979
 21
19643.039787999991
 31
0.0
  0
LINE
  5
4598
  8
0-7
  6
CONTINUOUS
 62
     6
 10
7940.5891019999726
 20
20815.538336000009
 30
0.0
 11
7940.5891019999726
 21
19935.537412000001
 31
0.0
  0
LINE
  5
4599
  8
2-0
  6
CENTER2
 62
     6
 10
6611.0875119999728
 20
17075.53978799998
 30
0.0
 11
8257.588217999979
 21
17075.53978799998
 31
0.0
  0
LINE
  5
459A
  8
2-0
  6
CENTER2
 62
     6
 10
6611.0875119999728
 20
14508.039787999989
 30
0.0
 11
8257.588217999979
 21
14508.039787999989
 31
0.0
  0
LINE
  5
459B
  8
2-0
  6
CENTER2
 62
     6
 10
14150.089550999959
 20
17075.53978799998
 30
0.0
 11
14776.35388199995
 21
17075.53978799998
 31
0.0
  0
LINE
  5
459C
  8
2-0
  6
CENTER2
 62
     6
 10
14150.089550999959
 20
14508.039787999989
 30
0.0
 11
14776.35388199995
 21
14508.039787999989
 31
0.0
  0
LINE
  5
459D
  8
2-0
  6
CENTER2
 62
     6
 10
7721.790933999976
 20
15616.539788
 30
0.0
 11
14696.387269999959
 21
15616.539788
 31
0.0
  0
LINE
  5
459E
  8
2-0
  6
CENTER2
 62
     6
 10
7721.790933999976
 20
18534.539787999998
 30
0.0
 11
14696.387269999959
 21
18534.539787999998
 31
0.0
  0
LINE
  5
459F
  8
2-0
  6
DASHED3
 62
     6
 10
11152.08886499998
 20
18579.538204
 30
0.0
 11
11152.08886499998
 21
19604.037333
 31
0.0
  0
LINE
  5
45A0
  8
2-0
  6
DASHED3
 62
     6
 10
11209.089101999971
 20
18579.538204
 30
0.0
 11
11209.089101999971
 21
19604.037333
 31
0.0
  0
LINE
  5
45A1
  8
2-0
  6
DASHED3
 62
     6
 10
11266.08933999996
 20
18579.538204
 30
0.0
 11
11266.08933999996
 21
19604.037333
 31
0.0
  0
LINE
  5
45A2
  8
2-0
  6
DASHED3
 62
     6
 10
11152.08886499998
 20
18144.536805
 30
0.0
 11
11152.08886499998
 21
18489.537412000001
 31
0.0
  0
LINE
  5
45A3
  8
2-0
  6
DASHED3
 62
     6
 10
11266.08933999996
 20
18144.536805
 30
0.0
 11
11266.08933999996
 21
18489.537412000001
 31
0.0
  0
ARC
  5
45A4
  8
0-1
  6
CONTINUOUS
 62
     3
 10
7860.0889699999798
 20
19860.537412000001
 30
0.0
 40
5.0
 50
90.0
 51
180.0
  0
ARC
  5
45A5
  8
0-1
  6
CONTINUOUS
 62
     3
 10
7923.5889569999736
 20
19860.537412000001
 30
0.0
 40
5.0
 50
0.0
 51
90.0
  0
ARC
  5
45A6
  8
0-1
  6
CONTINUOUS
 62
     3
 10
7923.5889569999736
 20
19830.53780799999
 30
0.0
 40
5.0
 50
269.9999850001808
 51
0.0
  0
ARC
  5
45A7
  8
0-1
  6
CONTINUOUS
 62
     3
 10
14494.59023699996
 20
19830.53780799999
 30
0.0
 40
5.0
 50
180.0
 51
269.9999850001808
  0
ARC
  5
45A8
  8
0-1
  6
CONTINUOUS
 62
     3
 10
14494.59023699996
 20
19860.537412000001
 30
0.0
 40
5.0
 50
90.0
 51
180.0
  0
ARC
  5
45A9
  8
0-1
  6
CONTINUOUS
 62
     3
 10
14558.089233999959
 20
19860.537412000001
 30
0.0
 40
5.0
 50
0.0
 51
90.0
  0
CIRCLE
  5
45AA
  8
0-4
  6
CONTINUOUS
 62
     4
 10
11209.089101999971
 20
21015.538996000021
 30
0.0
 40
199.9999949999999
  0
CIRCLE
  5
45AB
  8
0-4
  6
CONTINUOUS
 62
     4
 10
7940.5891019999726
 20
21015.538996000021
 30
0.0
 40
199.9999949999999
  0
CIRCLE
  5
45AC
  8
0-4
  6
CONTINUOUS
 62
     4
 10
6411.0878419999754
 20
19643.039787999991
 30
0.0
 40
199.9999949999999
  0
CIRCLE
  5
45AD
  8
0-4
  6
CONTINUOUS
 62
     4
 10
6411.0878419999754
 20
17075.53978799998
 30
0.0
 40
199.9999949999999
  0
CIRCLE
  5
45AE
  8
0-4
  6
CONTINUOUS
 62
     4
 10
6411.0878419999754
 20
14508.039787999989
 30
0.0
 40
199.9999949999999
  0
CIRCLE
  5
45AF
  8
0-4
  6
CONTINUOUS
 62
     4
 10
14477.589101999971
 20
21085.536753
 30
0.0
 40
199.9999949999999
  0
TEXT
  5
45B0
  8
0-4
  6
CONTINUOUS
 62
     7
 10
14422.69309199995
 20
21000.799501000001
 30
0.0
 40
160.0
  1
3
 72
     4
 11
14476.026425333281
 21
21080.799501000001
 31
0.0
  0
TEXT
  5
45B1
  8
0-4
  6
CONTINUOUS
 62
     7
 10
11160.82645999998
 20
20923.051929000001
 30
0.0
 40
160.0
  1
2
 72
     4
 11
11214.159793333311
 21
21003.051929000001
 31
0.0
  0
TEXT
  5
45B2
  8
0-4
  6
CONTINUOUS
 62
     7
 10
7894.1703809999754
 20
20925.017591000011
 30
0.0
 40
160.0
  1
1
 72
     4
 11
7920.8370476666432
 21
21005.017591000011
 31
0.0
  0
TEXT
  5
45B3
  8
0-4
  6
CONTINUOUS
 62
     7
 10
6358.2163849999779
 20
19555.355033
 30
0.0
 40
160.0
  1
C
 72
     4
 11
6411.54971833331
 21
19635.355033
 31
0.0
  0
TEXT
  5
45B4
  8
0-4
  6
CONTINUOUS
 62
     7
 10
6358.2163849999779
 20
16987.855033
 30
0.0
 40
160.0
  1
B
 72
     4
 11
6411.54971833331
 21
17067.855033
 31
0.0
  0
TEXT
  5
45B5
  8
0-4
  6
CONTINUOUS
 62
     7
 10
6358.2163849999779
 20
14420.35602299998
 30
0.0
 40
160.0
  1
A
 72
     4
 11
6411.54971833331
 21
14500.35602299998
 31
0.0
  0
TEXT
  5
45B6
  8
0-5
  6
CONTINUOUS
 62
     7
 10
10250.95756999998
 20
20175.540184000001
 30
0.0
 40
160.0
  1
屋根
 72
     4
 11
10421.62423666665
 21
20255.540184000001
 31
0.0
  0
TEXT
  5
45B7
  8
0-5
  6
CONTINUOUS
 62
     7
 10
9264.3566009999868
 20
14959.36804499999
 30
0.0
 40
160.0
  1
桁（前）
 72
     4
 11
9584.3566009999868
 21
15039.36804499999
 31
0.0
  0
TEXT
  5
45B8
  8
0-5
  6
CONTINUOUS
 62
     7
 10
10171.882730999971
 20
13595.540118000001
 30
0.0
 40
160.0
  1
鼻隠し前
 72
     4
 11
10534.54939766664
 21
13675.540118000001
 31
0.0
  0
TEXT
  5
45B9
  8
0-5
  6
CONTINUOUS
 62
     7
 10
6204.6903669999801
 20
13195.539788
 30
0.0
 40
160.0
  1
ケラバ 左
 72
     4
 11
6620.6903669999792
 21
13275.539788
 31
0.0
  0
TEXT
  5
45BA
  8
0-5
  6
CONTINUOUS
 62
     7
 10
8185.1170529999754
 20
18953.237448999978
 30
0.0
 40
160.0
  1
上枠
 72
     4
 11
8355.7837196666424
 21
19033.237448999978
 31
0.0
  0
TEXT
  5
45BB
  8
0-5
  6
CONTINUOUS
 62
     7
 10
8482.3260109999846
 20
20896.97771000001
 30
0.0
 40
160.0
  1
鼻隠しコーナー後
 72
     4
 11
9228.9926776666507
 21
20976.97771000001
 31
0.0
  0
TEXT
  5
45BC
  8
0-5
  6
CONTINUOUS
 62
     7
 10
10059.724197999971
 20
16285.56638
 30
0.0
 40
160.0
  1
梁　梁補強
 72
     4
 11
10518.39086466664
 21
16365.56638
 31
0.0
  0
TEXT
  5
45BD
  8
0-5
  6
CONTINUOUS
 62
     7
 10
10279.57447999995
 20
16287.93982299999
 30
0.0
 40
160.0
  1
+
 72
     4
 11
10332.907813333281
 21
16367.93982299999
 31
0.0
  0
TEXT
  5
45BE
  8
0-5
  6
CONTINUOUS
 62
     7
 10
9491.7062899999873
 20
16821.856564000002
 30
0.0
 40
160.0
  1
ブレース
 72
     4
 11
9854.3729566666516
 21
16907.18989733333
 31
0.0
  0
TEXT
  5
45BF
  8
2-0
  6
CONTINUOUS
 62
     7
 10
11761.601338805291
 20
19030.116012999999
 30
0.0
 40
160.0
  1
桁中B +  桁中補強B
 72
     4
 11
12694.93467213863
 21
19110.116012999999
 31
0.0
  0
TEXT
  5
45C0
  8
2-0
  6
CONTINUOUS
 62
     7
 10
11761.601338805291
 20
17566.108041999989
 30
0.0
 40
160.0
  1
桁中A +  桁中補強A
 72
     4
 11
12694.93467213863
 21
17646.108041999989
 31
0.0
  0
TEXT
  5
45C1
  8
2-0
  6
CONTINUOUS
 62
     7
 10
11761.601338805291
 20
15253.379288
 30
0.0
 40
160.0
  1
桁中B +  桁中補強B
 50
0.000236
 72
     4
 11
12694.93434261254
 21
15333.38313237789
 31
0.0
  0
TEXT
  5
45C2
  8
2-0
  6
CONTINUOUS
 62
     7
 10
10029.979950999979
 20
12248.52919099998
 30
0.0
 40
160.0
  1
小 屋 伏 図
 50
0.000193
 72
     4
 11
10531.31301485163
 21
12328.530879733569
 31
0.0
  0
TEXT
  5
45C3
  8
2-0
  6
CONTINUOUS
 62
     7
 10
11882.80519998925
 20
12275.726248733579
 30
0.0
 40
160.0
  1
1
 72
     4
 11
11909.47186665592
 21
12355.726248733579
 31
0.0
  0
TEXT
  5
45C4
  8
2-0
  6
CONTINUOUS
 62
     7
 10
12125.893917239961
 20
12195.727716733571
 30
0.0
 40
160.0
  1
80
 72
     4
 11
12245.893917239961
 21
12275.727716733571
 31
0.0
  0
TEXT
  5
45C5
  8
2-0
  6
CONTINUOUS
 62
     7
 10
11383.80716598925
 20
12248.530879733569
 30
0.0
 40
160.0
  1
(S=  /   )
 72
     4
 11
11943.80716598925
 21
12328.530879733569
 31
0.0
  0
TEXT
  5
45C6
  8
0-6
  6
CONTINUOUS
 62
     7
 10
8454.8730081447957
 20
20175.536223999999
 30
0.0
 40
160.0
  1
桁後+桁後補強
 72
     4
 11
9089.5396748114617
 21
20255.536223999999
 31
0.0
  0
LINE
  5
45C7
  8
0-6
  6
CONTINUOUS
 62
     6
 10
9898.5884159999714
 20
19689.037861000001
 30
0.0
 11
9765.1944681187342
 21
20095.537939999998
 31
0.0
  0
LINE
  5
45C8
  8
0-6
  6
CONTINUOUS
 62
     6
 10
8415.4521145495146
 20
20095.537939999998
 30
0.0
 11
9765.1944681187342
 21
20095.537939999998
 31
0.0
  0
LINE
  5
45C9
  8
0-6
  6
CONTINUOUS
 62
     6
 10
9874.9809606326835
 20
19849.51929942493
 30
0.0
 11
9824.2073168597417
 21
19833.185783240158
 31
0.0
  0
LINE
  5
45CA
  8
0-6
  6
CONTINUOUS
 62
     6
 10
9874.9809606326835
 20
19849.51929942493
 30
0.0
 11
9898.5884159999714
 21
19689.037861000001
 31
0.0
  0
LINE
  5
45CB
  8
0-6
  6
CONTINUOUS
 62
     6
 10
9824.2073168597417
 20
19833.185783240158
 30
0.0
 11
9874.9809606326835
 21
19849.51929942493
 31
0.0
  0
LINE
  5
45CC
  8
0-6
  6
CONTINUOUS
 62
     6
 10
9898.5884159999714
 20
19689.037861000001
 30
0.0
 11
9824.2073168597417
 21
19833.185783240158
 31
0.0
  0
LINE
  5
45CD
  8
0-6
  6
CONTINUOUS
 62
     6
 10
9898.5884159999714
 20
19689.037861000001
 30
0.0
 11
9874.9809606326835
 21
19849.51929942493
 31
0.0
  0
LINE
  5
45CE
  8
0-6
  6
CONTINUOUS
 62
     6
 10
9824.2073168597417
 20
19833.185783240158
 30
0.0
 11
9898.5884159999714
 21
19689.037861000001
 31
0.0
  0
LINE
  5
45CF
  8
SUNPOU
  6
CONTINUOUS
 10
7011.0893259999748
 20
19865.53569700001
 30
0.0
 11
7011.0893259999748
 21
20662.50296477848
 31
0.0
  0
LINE
  5
45D0
  8
SUNPOU
  6
CONTINUOUS
 10
7011.0893259999748
 20
14315.544472999991
 30
0.0
 11
7011.0893259999748
 21
13640.11835718962
 31
0.0
  0
LINE
  5
45D1
  8
SUNPOU
  6
CONTINUOUS
 10
8771.7904090000011
 20
9515.0901529999974
 30
0.0
 11
8296.501296359771
 21
9515.0901529999974
 31
0.0
  0
LINE
  5
45D4
  8
WAKUSEN-01
 10
868.00000000000193
 20
22484.000000000011
 30
0.0
 11
32764.000000000011
 21
22484.000000000011
 31
0.0
  0
LINE
  5
45D7
  8
WAKUSEN-01
 10
20560.0
 20
2484.0
 30
0.0
 11
32764.0
 21
2484.0
 31
0.0
  0
LINE
  5
45D8
  8
WAKUSEN-02
 10
20560.0
 20
1655.999999999998
 30
0.0
 11
26868.0
 21
1655.999999999998
 31
0.0
  0
TEXT
  5
45D9
  8
WAKUMOJI-01
 10
20670.260259962761
 20
2125.9030093393221
 30
0.0
 40
240.0
  1
名　称
  7
WAKUMOJI
  0
TEXT
  5
45DA
  8
WAKUMOJI-01
 10
20656.505485091919
 20
1319.12897497982
 30
0.0
 40
240.0
  1
機種名
  7
WAKUMOJI
  0
LINE
  5
45DD
  8
YODOROGO
 10
29977.604341291921
 20
1995.7494964292871
 30
0.0
 11
29829.604341291921
 21
1995.7494964292871
 31
0.0
1001
AUTOCAD_POSTSCRIPT_FIGURE
1002
{
1000
PSFILL
1000
Grayscale
1000
Grayscale
1070
    25
1002
}
  0
LINE
  5
45DE
  8
YODOROGO
 10
29829.604341291921
 20
1947.749496429288
 30
0.0
 11
29977.604341291921
 21
1947.749496429288
 31
0.0
1001
AUTOCAD_POSTSCRIPT_FIGURE
1002
{
1000
PSFILL
1000
Grayscale
1000
Grayscale
1070
    25
1002
}
  0
LINE
  5
45DF
  8
YODOROGO
 10
29977.604341291921
 20
1907.7494964292871
 30
0.0
 11
29829.604341291921
 21
1907.7494964292871
 31
0.0
1001
AUTOCAD_POSTSCRIPT_FIGURE
1002
{
1000
PSFILL
1000
Grayscale
1000
Grayscale
1070
    25
1002
}
  0
LINE
  5
45E0
  8
YODOROGO
 10
29829.604341291921
 20
1859.7494964292871
 30
0.0
 11
29977.604341291921
 21
1859.7494964292871
 31
0.0
1001
AUTOCAD_POSTSCRIPT_FIGURE
1002
{
1000
PSFILL
1000
Grayscale
1000
Grayscale
1070
    25
1002
}
  0
LINE
  5
45E1
  8
YODOROGO
 10
29977.604341291921
 20
1819.7494964292871
 30
0.0
 11
29829.604341291921
 21
1819.7494964292871
 31
0.0
1001
AUTOCAD_POSTSCRIPT_FIGURE
1002
{
1000
PSFILL
1000
Grayscale
1000
Grayscale
1070
    25
1002
}
  0
LINE
  5
45E2
  8
YODOROGO
 10
29921.60434129191
 20
1707.749496429288
 30
0.0
 11
29977.604341291921
 21
1707.749496429288
 31
0.0
1001
AUTOCAD_POSTSCRIPT_FIGURE
1002
{
1000
PSFILL
1000
Grayscale
1000
Grayscale
1070
    25
1002
}
  0
LINE
  5
45E3
  8
YODOROGO
 10
29737.604341291921
 20
1427.749496429288
 30
0.0
 11
29937.604341291932
 21
1481.3393349155101
 31
0.0
  0
LINE
  5
45E4
  8
YODOROGO
 10
29949.60434129191
 20
1707.749496429288
 30
0.0
 11
29885.604341291921
 21
1707.749496429288
 31
0.0
  0
ARC
  5
45E5
  8
YODOROGO
 10
30254.34774982791
 20
1807.864609233261
 30
0.0
 40
381.88686420564721
 50
213.96111677667841
 51
264.47872074317792
  0
ARC
  5
45E6
  8
YODOROGO
 10
30254.347749827921
 20
1807.864609233302
 30
0.0
 40
381.8868642056816
 50
208.14114420486601
 51
212.9210361185994
  0
LINE
  5
45E7
  8
YODOROGO
 10
29771.409872985321
 20
1556.807661346234
 30
0.0
 11
29933.78413250855
 21
1600.315713057086
 31
0.0
  0
LINE
  5
45E8
  8
YODOROGO
 10
29737.604341291921
 20
1427.749496429288
 30
0.0
 11
29937.604341291932
 21
1481.3393349155101
 31
0.0
  0
LINE
  5
45E9
  8
YODOROGO
 10
29949.60434129191
 20
1707.749496429288
 30
0.0
 11
29885.604341291921
 21
1707.749496429288
 31
0.0
  0
ARC
  5
45EA
  8
YODOROGO
 10
30254.34774982791
 20
1807.864609233261
 30
0.0
 40
381.88686420564721
 50
213.96111677667841
 51
264.47872074317792
  0
LINE
  5
45EB
  8
YODOROGO
 10
28793.60434129191
 20
1819.7494964292871
 30
0.0
 11
28433.60434129191
 21
1819.7494964292871
 31
0.0
  0
LINE
  5
45EC
  8
YODOROGO
 10
28513.60434129191
 20
1427.749496429288
 30
0.0
 11
28793.60434129191
 21
1427.749496429288
 31
0.0
  0
LINE
  5
45ED
  8
YODOROGO
 10
28729.604341291921
 20
1923.7494964292871
 30
0.0
 11
28497.60434129191
 21
1923.7494964292871
 31
0.0
  0
LINE
  5
45EE
  8
YODOROGO
 10
28585.604341291921
 20
2027.749496429288
 30
0.0
 11
28657.604341291921
 21
2027.749496429288
 31
0.0
  0
LINE
  5
45EF
  8
YODOROGO
 10
28433.60434129191
 20
1707.749496429288
 30
0.0
 11
28433.60434129191
 21
1507.749496429288
 31
0.0
  0
LINE
  5
45F0
  8
YODOROGO
 10
28497.60434129191
 20
1563.7494964292871
 30
0.0
 11
28497.60434129191
 21
1707.749496429288
 31
0.0
  0
LINE
  5
45F1
  8
YODOROGO
 10
28585.604341291921
 20
1747.74949642929
 30
0.0
 11
28585.604341291921
 21
1547.749496429288
 31
0.0
  0
LINE
  5
45F2
  8
YODOROGO
 10
27857.604341291921
 20
1683.749496429288
 30
0.0
 11
27777.604341291921
 21
1619.9724140445701
 31
0.0
  0
LINE
  5
45F3
  8
YODOROGO
 10
27937.604341291921
 20
1619.9724140445701
 30
0.0
 11
27857.604341291921
 21
1683.749496429288
 31
0.0
  0
LINE
  5
45F4
  8
YODOROGO
 10
27857.604341291921
 20
1707.749496429288
 30
0.0
 11
27937.604341291921
 21
1643.9724140445701
 31
0.0
  0
LINE
  5
45F5
  8
YODOROGO
 10
27777.604341291921
 20
1643.9724140445701
 30
0.0
 11
27857.604341291921
 21
1707.749496429288
 31
0.0
  0
LINE
  5
45F6
  8
YODOROGO
 10
28040.913204016892
 20
1659.749496429288
 30
0.0
 11
28040.913204016892
 21
1683.7494964292871
 31
0.0
  0
LINE
  5
45F7
  8
YODOROGO
 10
27977.604341291921
 20
1683.7494964292871
 30
0.0
 11
27977.604341291921
 21
1667.749496429285
 31
0.0
  0
LINE
  5
45F8
  8
YODOROGO
 10
28098.135520230931
 20
1707.749496429288
 30
0.0
 11
28098.135520230931
 21
1655.5036372746561
 31
0.0
1001
AUTOCAD_POSTSCRIPT_FIGURE
1002
{
1000
PSFILL
1000
Grayscale
1000
Grayscale
1070
   100
1002
}
  0
LINE
  5
45F9
  8
YODOROGO
 10
28082.135520230921
 20
1655.5036372746561
 30
0.0
 11
28082.135520230921
 21
1707.749496429288
 31
0.0
1001
AUTOCAD_POSTSCRIPT_FIGURE
1002
{
1000
PSFILL
1000
Grayscale
1000
Grayscale
1070
   100
1002
}
  0
LINE
  5
45FA
  8
YODOROGO
 10
27809.604341291921
 20
1608.771904043258
 30
0.0
 11
27809.604341291921
 21
1632.771904043258
 31
0.0
  0
LINE
  5
45FB
  8
YODOROGO
 10
27905.604341291921
 20
1608.771904043258
 30
0.0
 11
27809.604341291921
 21
1608.771904043258
 31
0.0
  0
LINE
  5
45FC
  8
YODOROGO
 10
27905.604341291921
 20
1632.771904043258
 30
0.0
 11
27905.604341291921
 21
1608.771904043258
 31
0.0
  0
LINE
  5
45FD
  8
YODOROGO
 10
27809.604341291921
 20
1632.771904043258
 30
0.0
 11
27905.604341291921
 21
1632.771904043258
 31
0.0
  0
LINE
  5
45FE
  8
YODOROGO
 10
27824.509588915738
 20
1568.5028573704751
 30
0.0
 11
27785.604341291921
 21
1475.7494964292871
 31
0.0
1001
AUTOCAD_POSTSCRIPT_FIGURE
1002
{
1000
PSFILL
1000
Grayscale
1000
Grayscale
1070
   100
1002
}
  0
LINE
  5
45FF
  8
YODOROGO
 10
27777.604341291921
 20
1568.5028573704751
 30
0.0
 11
27824.509588915738
 21
1568.5028573704751
 31
0.0
1001
AUTOCAD_POSTSCRIPT_FIGURE
1002
{
1000
PSFILL
1000
Grayscale
1000
Grayscale
1070
   100
1002
}
  0
LINE
  5
4600
  8
YODOROGO
 10
27777.604341291921
 20
1588.5028573704751
 30
0.0
 11
27777.604341291921
 21
1568.5028573704751
 31
0.0
1001
AUTOCAD_POSTSCRIPT_FIGURE
1002
{
1000
PSFILL
1000
Grayscale
1000
Grayscale
1070
   100
1002
}
  0
LINE
  5
4601
  8
YODOROGO
 10
27937.604341291921
 20
1588.5028573704751
 30
0.0
 11
27777.604341291921
 21
1588.5028573704751
 31
0.0
1001
AUTOCAD_POSTSCRIPT_FIGURE
1002
{
1000
PSFILL
1000
Grayscale
1000
Grayscale
1070
   100
1002
}
  0
LINE
  5
4602
  8
YODOROGO
 10
27937.604341291921
 20
1568.5028573704751
 30
0.0
 11
27937.604341291921
 21
1588.5028573704751
 31
0.0
1001
AUTOCAD_POSTSCRIPT_FIGURE
1002
{
1000
PSFILL
1000
Grayscale
1000
Grayscale
1070
   100
1002
}
  0
LINE
  5
4603
  8
YODOROGO
 10
27844.509588915738
 20
1568.5028573704751
 30
0.0
 11
27937.604341291921
 21
1568.5028573704751
 31
0.0
1001
AUTOCAD_POSTSCRIPT_FIGURE
1002
{
1000
PSFILL
1000
Grayscale
1000
Grayscale
1070
   100
1002
}
  0
LINE
  5
4604
  8
YODOROGO
 10
27815.546718284771
 20
1495.7494964292871
 30
0.0
 11
27844.509588915738
 21
1568.5028573704751
 31
0.0
1001
AUTOCAD_POSTSCRIPT_FIGURE
1002
{
1000
PSFILL
1000
Grayscale
1000
Grayscale
1070
   100
1002
}
  0
LINE
  5
4605
  8
YODOROGO
 10
27902.054790808648
 20
1495.7494964292871
 30
0.0
 11
27815.546718284771
 21
1495.7494964292871
 31
0.0
1001
AUTOCAD_POSTSCRIPT_FIGURE
1002
{
1000
PSFILL
1000
Grayscale
1000
Grayscale
1070
   100
1002
}
  0
LINE
  5
4606
  8
YODOROGO
 10
27885.065004790951
 20
1536.233810697692
 30
0.0
 11
27902.054790808648
 21
1495.7494964292871
 31
0.0
1001
AUTOCAD_POSTSCRIPT_FIGURE
1002
{
1000
PSFILL
1000
Grayscale
1000
Grayscale
1070
   100
1002
}
  0
LINE
  5
4607
  8
YODOROGO
 10
27901.065004790951
 20
1536.233810697692
 30
0.0
 11
27885.065004790951
 21
1536.233810697692
 31
0.0
1001
AUTOCAD_POSTSCRIPT_FIGURE
1002
{
1000
PSFILL
1000
Grayscale
1000
Grayscale
1070
   100
1002
}
  0
LINE
  5
4608
  8
YODOROGO
 10
27929.604341291921
 20
1475.7494964292871
 30
0.0
 11
27901.065004790951
 21
1536.233810697692
 31
0.0
1001
AUTOCAD_POSTSCRIPT_FIGURE
1002
{
1000
PSFILL
1000
Grayscale
1000
Grayscale
1070
   100
1002
}
  0
LINE
  5
4609
  8
YODOROGO
 10
27785.604341291921
 20
1475.7494964292871
 30
0.0
 11
27929.604341291921
 21
1475.7494964292871
 31
0.0
1001
AUTOCAD_POSTSCRIPT_FIGURE
1002
{
1000
PSFILL
1000
Grayscale
1000
Grayscale
1070
   100
1002
}
  0
LINE
  5
460A
  8
YODOROGO
 10
27777.604341291921
 20
1619.9724140445701
 30
0.0
 11
27777.604341291921
 21
1643.9724140445701
 31
0.0
  0
LINE
  5
460B
  8
YODOROGO
 10
27937.604341291921
 20
1643.9724140445701
 30
0.0
 11
27937.604341291921
 21
1619.9724140445701
 31
0.0
  0
ARC
  5
460C
  8
YODOROGO
 10
28225.940442146959
 20
1600.877765325326
 30
0.0
 40
175.9999999999998
 50
280.3644312771313
 51
3.5414836592180561
  0
ARC
  5
460D
  8
YODOROGO
 10
28235.756030759301
 20
1633.5978069619041
 30
0.0
 40
111.9999999999982
 50
281.24905825041549
 51
348.75094174958332
  0
LINE
  5
460E
  8
YODOROGO
 10
28257.604341291921
 20
1523.7494964292871
 30
0.0
 11
28257.604341291921
 21
1427.749496429288
 31
0.0
  0
LINE
  5
460F
  8
YODOROGO
 10
28020.088903736909
 20
1610.650565061914
 30
0.0
 11
28040.913204016892
 21
1659.749496429288
 31
0.0
  0
LINE
  5
4610
  8
YODOROGO
 10
28041.604341291921
 20
1583.120489948401
 30
0.0
 11
28020.088903736909
 21
1610.650565061914
 31
0.0
  0
LINE
  5
4611
  8
YODOROGO
 10
28041.604341291921
 20
1563.120489948398
 30
0.0
 11
28041.604341291921
 21
1583.120489948401
 31
0.0
  0
LINE
  5
4612
  8
YODOROGO
 10
28017.604341291921
 20
1585.2370637495301
 30
0.0
 11
28041.604341291921
 21
1563.120489948398
 31
0.0
  0
LINE
  5
4613
  8
YODOROGO
 10
28017.604341291921
 20
1475.7494964292871
 30
0.0
 11
28017.604341291921
 21
1585.2370637495301
 31
0.0
  0
LINE
  5
4614
  8
YODOROGO
 10
28001.604341291921
 20
1475.7494964292871
 30
0.0
 11
28017.604341291921
 21
1475.7494964292871
 31
0.0
  0
LINE
  5
4615
  8
YODOROGO
 10
28001.604341291921
 20
1580.0053496897469
 30
0.0
 11
28001.604341291921
 21
1475.7494964292871
 31
0.0
  0
LINE
  5
4616
  8
YODOROGO
 10
27977.604341291921
 20
1532.7680790334291
 30
0.0
 11
28001.604341291921
 21
1580.0053496897469
 31
0.0
  0
LINE
  5
4617
  8
YODOROGO
 10
27977.604341291921
 20
1556.76807903343
 30
0.0
 11
27977.604341291921
 21
1532.7680790334291
 31
0.0
  0
LINE
  5
4618
  8
YODOROGO
 10
28025.828774291349
 20
1667.749496429285
 30
0.0
 11
27977.604341291921
 21
1556.76807903343
 31
0.0
  0
LINE
  5
4619
  8
YODOROGO
 10
27977.604341291921
 20
1667.749496429285
 30
0.0
 11
28025.828774291349
 21
1667.749496429285
 31
0.0
  0
LINE
  5
461A
  8
YODOROGO
 10
28050.135520230899
 20
1655.5036372746561
 30
0.0
 11
28082.135520230921
 21
1655.5036372746561
 31
0.0
1001
AUTOCAD_POSTSCRIPT_FIGURE
1002
{
1000
PSFILL
1000
Grayscale
1000
Grayscale
1070
   100
1002
}
  0
LINE
  5
461B
  8
YODOROGO
 10
28050.135520230899
 20
1631.5036372746561
 30
0.0
 11
28050.135520230899
 21
1655.5036372746561
 31
0.0
1001
AUTOCAD_POSTSCRIPT_FIGURE
1002
{
1000
PSFILL
1000
Grayscale
1000
Grayscale
1070
   100
1002
}
  0
LINE
  5
461C
  8
YODOROGO
 10
28082.135520230921
 20
1631.5036372746561
 30
0.0
 11
28050.135520230899
 21
1631.5036372746561
 31
0.0
1001
AUTOCAD_POSTSCRIPT_FIGURE
1002
{
1000
PSFILL
1000
Grayscale
1000
Grayscale
1070
   100
1002
}
  0
LINE
  5
461D
  8
YODOROGO
 10
28082.135520230921
 20
1499.749496429288
 30
0.0
 11
28082.135520230921
 21
1631.5036372746561
 31
0.0
1001
AUTOCAD_POSTSCRIPT_FIGURE
1002
{
1000
PSFILL
1000
Grayscale
1000
Grayscale
1070
   100
1002
}
  0
LINE
  5
461E
  8
YODOROGO
 10
28050.135520230921
 20
1499.749496429288
 30
0.0
 11
28082.135520230921
 21
1499.749496429288
 31
0.0
1001
AUTOCAD_POSTSCRIPT_FIGURE
1002
{
1000
PSFILL
1000
Grayscale
1000
Grayscale
1070
   100
1002
}
  0
LINE
  5
461F
  8
YODOROGO
 10
28050.135520230921
 20
1475.7494964292871
 30
0.0
 11
28050.135520230921
 21
1499.749496429288
 31
0.0
1001
AUTOCAD_POSTSCRIPT_FIGURE
1002
{
1000
PSFILL
1000
Grayscale
1000
Grayscale
1070
   100
1002
}
  0
LINE
  5
4620
  8
YODOROGO
 10
28137.604341291921
 20
1475.7494964292871
 30
0.0
 11
28050.135520230921
 21
1475.7494964292871
 31
0.0
1001
AUTOCAD_POSTSCRIPT_FIGURE
1002
{
1000
PSFILL
1000
Grayscale
1000
Grayscale
1070
   100
1002
}
  0
LINE
  5
4621
  8
YODOROGO
 10
28137.604341291921
 20
1499.749496429288
 30
0.0
 11
28137.604341291921
 21
1475.7494964292871
 31
0.0
1001
AUTOCAD_POSTSCRIPT_FIGURE
1002
{
1000
PSFILL
1000
Grayscale
1000
Grayscale
1070
   100
1002
}
  0
LINE
  5
4622
  8
YODOROGO
 10
28098.135520230931
 20
1499.749496429288
 30
0.0
 11
28137.604341291921
 21
1499.749496429288
 31
0.0
1001
AUTOCAD_POSTSCRIPT_FIGURE
1002
{
1000
PSFILL
1000
Grayscale
1000
Grayscale
1070
   100
1002
}
  0
LINE
  5
4623
  8
YODOROGO
 10
28098.135520230931
 20
1631.5036372746561
 30
0.0
 11
28098.135520230931
 21
1499.749496429288
 31
0.0
1001
AUTOCAD_POSTSCRIPT_FIGURE
1002
{
1000
PSFILL
1000
Grayscale
1000
Grayscale
1070
   100
1002
}
  0
LINE
  5
4624
  8
YODOROGO
 10
28137.604341291921
 20
1631.5036372746561
 30
0.0
 11
28098.135520230931
 21
1631.5036372746561
 31
0.0
1001
AUTOCAD_POSTSCRIPT_FIGURE
1002
{
1000
PSFILL
1000
Grayscale
1000
Grayscale
1070
   100
1002
}
  0
LINE
  5
4625
  8
YODOROGO
 10
28137.604341291921
 20
1655.5036372746561
 30
0.0
 11
28137.604341291921
 21
1631.5036372746561
 31
0.0
1001
AUTOCAD_POSTSCRIPT_FIGURE
1002
{
1000
PSFILL
1000
Grayscale
1000
Grayscale
1070
   100
1002
}
  0
LINE
  5
4626
  8
YODOROGO
 10
28098.135520230931
 20
1655.5036372746561
 30
0.0
 11
28137.604341291921
 21
1655.5036372746561
 31
0.0
1001
AUTOCAD_POSTSCRIPT_FIGURE
1002
{
1000
PSFILL
1000
Grayscale
1000
Grayscale
1070
   100
1002
}
  0
LINE
  5
4627
  8
YODOROGO
 10
28401.60434129191
 20
1667.749496429288
 30
0.0
 11
28345.604341291921
 21
1667.749496429288
 31
0.0
  0
LINE
  5
4628
  8
YODOROGO
 10
28401.60434129191
 20
1611.7494964292871
 30
0.0
 11
28401.60434129191
 21
1667.749496429288
 31
0.0
  0
LINE
  5
4629
  8
YODOROGO
 10
28345.604341291921
 20
1667.749496429288
 30
0.0
 11
28345.604341291921
 21
1611.7494964292871
 31
0.0
  0
ARC
  5
462A
  8
YODOROGO
 10
28513.60434129191
 20
1507.749496429288
 30
0.0
 40
80.0
 50
180.0
 51
270.0
  0
ARC
  5
462B
  8
YODOROGO
 10
28537.604341291921
 20
1563.7494964292871
 30
0.0
 40
40.0
 50
180.0
 51
270.0
  0
LINE
  5
462C
  8
YODOROGO
 10
28561.604341291932
 20
1523.7494964292871
 30
0.0
 11
28537.604341291921
 21
1523.7494964292871
 31
0.0
  0
ARC
  5
462D
  8
YODOROGO
 10
28561.604341291932
 20
1547.749496429285
 30
0.0
 40
23.999999999996358
 50
270.0
 51
0.0000000000054281
  0
LINE
  5
462E
  8
YODOROGO
 10
27801.604341291921
 20
1890.7865807937051
 30
0.0
 11
27777.604341291921
 21
1843.776747951672
 31
0.0
1001
AUTOCAD_POSTSCRIPT_FIGURE
1002
{
1000
PSFILL
1000
Grayscale
1000
Grayscale
1070
   100
1002
}
  0
LINE
  5
462F
  8
YODOROGO
 10
27801.604341291921
 20
1747.749496429286
 30
0.0
 11
27801.604341291921
 21
1890.7865807937051
 31
0.0
1001
AUTOCAD_POSTSCRIPT_FIGURE
1002
{
1000
PSFILL
1000
Grayscale
1000
Grayscale
1070
   100
1002
}
  0
LINE
  5
4630
  8
YODOROGO
 10
27817.604341291921
 20
1747.749496429286
 30
0.0
 11
27801.604341291921
 21
1747.749496429286
 31
0.0
1001
AUTOCAD_POSTSCRIPT_FIGURE
1002
{
1000
PSFILL
1000
Grayscale
1000
Grayscale
1070
   100
1002
}
  0
LINE
  5
4631
  8
YODOROGO
 10
27817.604341291921
 20
1893.7713320852661
 30
0.0
 11
27817.604341291921
 21
1747.749496429286
 31
0.0
1001
AUTOCAD_POSTSCRIPT_FIGURE
1002
{
1000
PSFILL
1000
Grayscale
1000
Grayscale
1070
   100
1002
}
  0
LINE
  5
4632
  8
YODOROGO
 10
27841.604341291921
 20
1867.6547582841361
 30
0.0
 11
27817.604341291921
 21
1893.7713320852661
 31
0.0
1001
AUTOCAD_POSTSCRIPT_FIGURE
1002
{
1000
PSFILL
1000
Grayscale
1000
Grayscale
1070
   100
1002
}
  0
LINE
  5
4633
  8
YODOROGO
 10
27841.604341291921
 20
1883.6547582841361
 30
0.0
 11
27841.604341291921
 21
1867.6547582841361
 31
0.0
1001
AUTOCAD_POSTSCRIPT_FIGURE
1002
{
1000
PSFILL
1000
Grayscale
1000
Grayscale
1070
   100
1002
}
  0
LINE
  5
4634
  8
YODOROGO
 10
27817.604341291921
 20
1917.7713320852649
 30
0.0
 11
27841.604341291921
 21
1883.6547582841361
 31
0.0
1001
AUTOCAD_POSTSCRIPT_FIGURE
1002
{
1000
PSFILL
1000
Grayscale
1000
Grayscale
1070
   100
1002
}
  0
LINE
  5
4635
  8
YODOROGO
 10
27817.604341291921
 20
1939.749496429288
 30
0.0
 11
27817.604341291921
 21
1917.7713320852649
 31
0.0
1001
AUTOCAD_POSTSCRIPT_FIGURE
1002
{
1000
PSFILL
1000
Grayscale
1000
Grayscale
1070
   100
1002
}
  0
LINE
  5
4636
  8
YODOROGO
 10
27889.604341291921
 20
1939.749496429288
 30
0.0
 11
27817.604341291921
 21
1939.749496429288
 31
0.0
1001
AUTOCAD_POSTSCRIPT_FIGURE
1002
{
1000
PSFILL
1000
Grayscale
1000
Grayscale
1070
   100
1002
}
  0
LINE
  5
4637
  8
YODOROGO
 10
27889.604341291921
 20
1900.5683489363
 30
0.0
 11
27889.604341291921
 21
1939.749496429288
 31
0.0
1001
AUTOCAD_POSTSCRIPT_FIGURE
1002
{
1000
PSFILL
1000
Grayscale
1000
Grayscale
1070
   100
1002
}
  0
LINE
  5
4638
  8
YODOROGO
 10
27857.604341291921
 20
1900.5683489363
 30
0.0
 11
27889.604341291921
 21
1900.5683489363
 31
0.0
1001
AUTOCAD_POSTSCRIPT_FIGURE
1002
{
1000
PSFILL
1000
Grayscale
1000
Grayscale
1070
   100
1002
}
  0
LINE
  5
4639
  8
YODOROGO
 10
27857.604341291921
 20
1884.568348936298
 30
0.0
 11
27857.604341291921
 21
1900.5683489363
 31
0.0
1001
AUTOCAD_POSTSCRIPT_FIGURE
1002
{
1000
PSFILL
1000
Grayscale
1000
Grayscale
1070
   100
1002
}
  0
LINE
  5
463A
  8
YODOROGO
 10
27889.604341291921
 20
1884.568348936298
 30
0.0
 11
27857.604341291921
 21
1884.568348936298
 31
0.0
1001
AUTOCAD_POSTSCRIPT_FIGURE
1002
{
1000
PSFILL
1000
Grayscale
1000
Grayscale
1070
   100
1002
}
  0
LINE
  5
463B
  8
YODOROGO
 10
27889.604341291921
 20
1879.6191779644371
 30
0.0
 11
27889.604341291921
 21
1884.568348936298
 31
0.0
1001
AUTOCAD_POSTSCRIPT_FIGURE
1002
{
1000
PSFILL
1000
Grayscale
1000
Grayscale
1070
   100
1002
}
  0
LINE
  5
463C
  8
YODOROGO
 10
27849.604341291921
 20
1812.974981161417
 30
0.0
 11
27889.604341291921
 21
1879.6191779644371
 31
0.0
1001
AUTOCAD_POSTSCRIPT_FIGURE
1002
{
1000
PSFILL
1000
Grayscale
1000
Grayscale
1070
   100
1002
}
  0
LINE
  5
463D
  8
YODOROGO
 10
27849.604341291921
 20
1796.9749811614149
 30
0.0
 11
27849.604341291921
 21
1812.974981161417
 31
0.0
1001
AUTOCAD_POSTSCRIPT_FIGURE
1002
{
1000
PSFILL
1000
Grayscale
1000
Grayscale
1070
   100
1002
}
  0
LINE
  5
463E
  8
YODOROGO
 10
27889.604341291921
 20
1847.6191779644359
 30
0.0
 11
27849.604341291921
 21
1796.9749811614149
 31
0.0
1001
AUTOCAD_POSTSCRIPT_FIGURE
1002
{
1000
PSFILL
1000
Grayscale
1000
Grayscale
1070
   100
1002
}
  0
LINE
  5
463F
  8
YODOROGO
 10
27889.604341291921
 20
1747.749496429286
 30
0.0
 11
27889.604341291921
 21
1847.6191779644359
 31
0.0
1001
AUTOCAD_POSTSCRIPT_FIGURE
1002
{
1000
PSFILL
1000
Grayscale
1000
Grayscale
1070
   100
1002
}
  0
LINE
  5
4640
  8
YODOROGO
 10
27905.604341291921
 20
1747.749496429286
 30
0.0
 11
27889.604341291921
 21
1747.749496429286
 31
0.0
1001
AUTOCAD_POSTSCRIPT_FIGURE
1002
{
1000
PSFILL
1000
Grayscale
1000
Grayscale
1070
   100
1002
}
  0
LINE
  5
4641
  8
YODOROGO
 10
27905.604341291921
 20
1849.409012158806
 30
0.0
 11
27905.604341291921
 21
1747.749496429286
 31
0.0
1001
AUTOCAD_POSTSCRIPT_FIGURE
1002
{
1000
PSFILL
1000
Grayscale
1000
Grayscale
1070
   100
1002
}
  0
LINE
  5
4642
  8
YODOROGO
 10
27937.604341291921
 20
1796.9749811614149
 30
0.0
 11
27905.604341291921
 21
1849.409012158806
 31
0.0
1001
AUTOCAD_POSTSCRIPT_FIGURE
1002
{
1000
PSFILL
1000
Grayscale
1000
Grayscale
1070
   100
1002
}
  0
LINE
  5
4643
  8
YODOROGO
 10
27937.604341291921
 20
1812.974981161417
 30
0.0
 11
27937.604341291921
 21
1796.9749811614149
 31
0.0
1001
AUTOCAD_POSTSCRIPT_FIGURE
1002
{
1000
PSFILL
1000
Grayscale
1000
Grayscale
1070
   100
1002
}
  0
LINE
  5
4644
  8
YODOROGO
 10
27905.604341291921
 20
1881.4090121588081
 30
0.0
 11
27937.604341291921
 21
1812.974981161417
 31
0.0
1001
AUTOCAD_POSTSCRIPT_FIGURE
1002
{
1000
PSFILL
1000
Grayscale
1000
Grayscale
1070
   100
1002
}
  0
LINE
  5
4645
  8
YODOROGO
 10
27905.604341291921
 20
1884.5683489363
 30
0.0
 11
27905.604341291921
 21
1881.4090121588081
 31
0.0
1001
AUTOCAD_POSTSCRIPT_FIGURE
1002
{
1000
PSFILL
1000
Grayscale
1000
Grayscale
1070
   100
1002
}
  0
LINE
  5
4646
  8
YODOROGO
 10
27937.604341291921
 20
1884.568348936298
 30
0.0
 11
27905.604341291921
 21
1884.5683489363
 31
0.0
1001
AUTOCAD_POSTSCRIPT_FIGURE
1002
{
1000
PSFILL
1000
Grayscale
1000
Grayscale
1070
   100
1002
}
  0
LINE
  5
4647
  8
YODOROGO
 10
27937.604341291921
 20
1900.5683489363
 30
0.0
 11
27937.604341291921
 21
1884.568348936298
 31
0.0
1001
AUTOCAD_POSTSCRIPT_FIGURE
1002
{
1000
PSFILL
1000
Grayscale
1000
Grayscale
1070
   100
1002
}
  0
LINE
  5
4648
  8
YODOROGO
 10
27905.604341291921
 20
1900.5683489363
 30
0.0
 11
27937.604341291921
 21
1900.5683489363
 31
0.0
1001
AUTOCAD_POSTSCRIPT_FIGURE
1002
{
1000
PSFILL
1000
Grayscale
1000
Grayscale
1070
   100
1002
}
  0
LINE
  5
4649
  8
YODOROGO
 10
27905.604341291921
 20
1939.749496429288
 30
0.0
 11
27905.604341291921
 21
1900.5683489363
 31
0.0
1001
AUTOCAD_POSTSCRIPT_FIGURE
1002
{
1000
PSFILL
1000
Grayscale
1000
Grayscale
1070
   100
1002
}
  0
LINE
  5
464A
  8
YODOROGO
 10
27937.604341291921
 20
1939.749496429288
 30
0.0
 11
27905.604341291921
 21
1939.749496429288
 31
0.0
1001
AUTOCAD_POSTSCRIPT_FIGURE
1002
{
1000
PSFILL
1000
Grayscale
1000
Grayscale
1070
   100
1002
}
  0
LINE
  5
464B
  8
YODOROGO
 10
27937.604341291921
 20
1955.7494964292871
 30
0.0
 11
27937.604341291921
 21
1939.749496429288
 31
0.0
1001
AUTOCAD_POSTSCRIPT_FIGURE
1002
{
1000
PSFILL
1000
Grayscale
1000
Grayscale
1070
   100
1002
}
  0
LINE
  5
464C
  8
YODOROGO
 10
27905.604341291921
 20
1955.7494964292871
 30
0.0
 11
27937.604341291921
 21
1955.7494964292871
 31
0.0
1001
AUTOCAD_POSTSCRIPT_FIGURE
1002
{
1000
PSFILL
1000
Grayscale
1000
Grayscale
1070
   100
1002
}
  0
LINE
  5
464D
  8
YODOROGO
 10
27905.604341291921
 20
1979.749496429288
 30
0.0
 11
27905.604341291921
 21
1955.7494964292871
 31
0.0
1001
AUTOCAD_POSTSCRIPT_FIGURE
1002
{
1000
PSFILL
1000
Grayscale
1000
Grayscale
1070
   100
1002
}
  0
LINE
  5
464E
  8
YODOROGO
 10
27889.604341291921
 20
1979.749496429288
 30
0.0
 11
27905.604341291921
 21
1979.749496429288
 31
0.0
1001
AUTOCAD_POSTSCRIPT_FIGURE
1002
{
1000
PSFILL
1000
Grayscale
1000
Grayscale
1070
   100
1002
}
  0
LINE
  5
464F
  8
YODOROGO
 10
27889.604341291921
 20
1955.7494964292871
 30
0.0
 11
27889.604341291921
 21
1979.749496429288
 31
0.0
1001
AUTOCAD_POSTSCRIPT_FIGURE
1002
{
1000
PSFILL
1000
Grayscale
1000
Grayscale
1070
   100
1002
}
  0
LINE
  5
4650
  8
YODOROGO
 10
27865.604341291921
 20
1955.7494964292871
 30
0.0
 11
27889.604341291921
 21
1955.7494964292871
 31
0.0
1001
AUTOCAD_POSTSCRIPT_FIGURE
1002
{
1000
PSFILL
1000
Grayscale
1000
Grayscale
1070
   100
1002
}
  0
LINE
  5
4651
  8
YODOROGO
 10
27865.604341291921
 20
1979.749496429288
 30
0.0
 11
27865.604341291921
 21
1955.7494964292871
 31
0.0
1001
AUTOCAD_POSTSCRIPT_FIGURE
1002
{
1000
PSFILL
1000
Grayscale
1000
Grayscale
1070
   100
1002
}
  0
LINE
  5
4652
  8
YODOROGO
 10
27849.604341291921
 20
1979.749496429288
 30
0.0
 11
27865.604341291921
 21
1979.749496429288
 31
0.0
1001
AUTOCAD_POSTSCRIPT_FIGURE
1002
{
1000
PSFILL
1000
Grayscale
1000
Grayscale
1070
   100
1002
}
  0
LINE
  5
4653
  8
YODOROGO
 10
27849.604341291921
 20
1955.7494964292871
 30
0.0
 11
27849.604341291921
 21
1979.749496429288
 31
0.0
1001
AUTOCAD_POSTSCRIPT_FIGURE
1002
{
1000
PSFILL
1000
Grayscale
1000
Grayscale
1070
   100
1002
}
  0
LINE
  5
4654
  8
YODOROGO
 10
27817.604341291921
 20
1955.7494964292871
 30
0.0
 11
27849.604341291921
 21
1955.7494964292871
 31
0.0
1001
AUTOCAD_POSTSCRIPT_FIGURE
1002
{
1000
PSFILL
1000
Grayscale
1000
Grayscale
1070
   100
1002
}
  0
LINE
  5
4655
  8
YODOROGO
 10
27817.604341291921
 20
1979.749496429288
 30
0.0
 11
27817.604341291921
 21
1955.7494964292871
 31
0.0
1001
AUTOCAD_POSTSCRIPT_FIGURE
1002
{
1000
PSFILL
1000
Grayscale
1000
Grayscale
1070
   100
1002
}
  0
LINE
  5
4656
  8
YODOROGO
 10
27801.604341291921
 20
1979.749496429288
 30
0.0
 11
27817.604341291921
 21
1979.749496429288
 31
0.0
1001
AUTOCAD_POSTSCRIPT_FIGURE
1002
{
1000
PSFILL
1000
Grayscale
1000
Grayscale
1070
   100
1002
}
  0
LINE
  5
4657
  8
YODOROGO
 10
27801.604341291921
 20
1955.7494964292871
 30
0.0
 11
27801.604341291921
 21
1979.749496429288
 31
0.0
1001
AUTOCAD_POSTSCRIPT_FIGURE
1002
{
1000
PSFILL
1000
Grayscale
1000
Grayscale
1070
   100
1002
}
  0
LINE
  5
4658
  8
YODOROGO
 10
27777.604341291921
 20
1955.7494964292871
 30
0.0
 11
27801.604341291921
 21
1955.7494964292871
 31
0.0
1001
AUTOCAD_POSTSCRIPT_FIGURE
1002
{
1000
PSFILL
1000
Grayscale
1000
Grayscale
1070
   100
1002
}
  0
LINE
  5
4659
  8
YODOROGO
 10
27777.604341291921
 20
1939.749496429288
 30
0.0
 11
27777.604341291921
 21
1955.7494964292871
 31
0.0
1001
AUTOCAD_POSTSCRIPT_FIGURE
1002
{
1000
PSFILL
1000
Grayscale
1000
Grayscale
1070
   100
1002
}
  0
LINE
  5
465A
  8
YODOROGO
 10
27801.604341291921
 20
1939.749496429288
 30
0.0
 11
27777.604341291921
 21
1939.749496429288
 31
0.0
1001
AUTOCAD_POSTSCRIPT_FIGURE
1002
{
1000
PSFILL
1000
Grayscale
1000
Grayscale
1070
   100
1002
}
  0
LINE
  5
465B
  8
YODOROGO
 10
27801.604341291921
 20
1914.7865807937051
 30
0.0
 11
27801.604341291921
 21
1939.749496429288
 31
0.0
1001
AUTOCAD_POSTSCRIPT_FIGURE
1002
{
1000
PSFILL
1000
Grayscale
1000
Grayscale
1070
   100
1002
}
  0
LINE
  5
465C
  8
YODOROGO
 10
27777.604341291921
 20
1859.776747951671
 30
0.0
 11
27801.604341291921
 21
1914.7865807937051
 31
0.0
1001
AUTOCAD_POSTSCRIPT_FIGURE
1002
{
1000
PSFILL
1000
Grayscale
1000
Grayscale
1070
   100
1002
}
  0
LINE
  5
465D
  8
YODOROGO
 10
27777.604341291921
 20
1843.776747951672
 30
0.0
 11
27777.604341291921
 21
1859.776747951671
 31
0.0
1001
AUTOCAD_POSTSCRIPT_FIGURE
1002
{
1000
PSFILL
1000
Grayscale
1000
Grayscale
1070
   100
1002
}
  0
LINE
  5
465E
  8
YODOROGO
 10
28257.604341291921
 20
1867.7494964292871
 30
0.0
 11
28401.60434129191
 21
1824.877625640306
 31
0.0
1001
AUTOCAD_POSTSCRIPT_FIGURE
1002
{
1000
PSFILL
1000
Grayscale
1000
Grayscale
1070
   100
1002
}
  0
LINE
  5
465F
  8
YODOROGO
 10
28401.60434129191
 20
1752.877625640306
 30
0.0
 11
28257.604341291921
 21
1795.7494964292871
 31
0.0
1001
AUTOCAD_POSTSCRIPT_FIGURE
1002
{
1000
PSFILL
1000
Grayscale
1000
Grayscale
1070
   100
1002
}
  0
LINE
  5
4660
  8
YODOROGO
 10
28401.60434129191
 20
1984.877625640305
 30
0.0
 11
28257.604341291921
 21
2027.749496429288
 31
0.0
1001
AUTOCAD_POSTSCRIPT_FIGURE
1002
{
1000
PSFILL
1000
Grayscale
1000
Grayscale
1070
   100
1002
}
  0
LINE
  5
4661
  8
YODOROGO
 10
28257.604341291921
 20
1959.749496429288
 30
0.0
 11
28401.60434129191
 21
1916.8776256403071
 31
0.0
1001
AUTOCAD_POSTSCRIPT_FIGURE
1002
{
1000
PSFILL
1000
Grayscale
1000
Grayscale
1070
   100
1002
}
  0
LINE
  5
4662
  8
YODOROGO
 10
28257.604341291921
 20
1795.7494964292871
 30
0.0
 11
28257.604341291921
 21
1867.7494964292871
 31
0.0
1001
AUTOCAD_POSTSCRIPT_FIGURE
1002
{
1000
PSFILL
1000
Grayscale
1000
Grayscale
1070
   100
1002
}
  0
LINE
  5
4663
  8
YODOROGO
 10
28257.604341291921
 20
2027.749496429288
 30
0.0
 11
28257.604341291921
 21
1959.749496429288
 31
0.0
1001
AUTOCAD_POSTSCRIPT_FIGURE
1002
{
1000
PSFILL
1000
Grayscale
1000
Grayscale
1070
   100
1002
}
  0
LINE
  5
4664
  8
YODOROGO
 10
28080.236320206739
 20
1939.749496429288
 30
0.0
 11
28129.60434129191
 21
1747.749496429286
 31
0.0
1001
AUTOCAD_POSTSCRIPT_FIGURE
1002
{
1000
PSFILL
1000
Grayscale
1000
Grayscale
1070
   100
1002
}
  0
LINE
  5
4665
  8
YODOROGO
 10
27977.604341291921
 20
1939.749496429288
 30
0.0
 11
28080.236320206739
 21
1939.749496429288
 31
0.0
1001
AUTOCAD_POSTSCRIPT_FIGURE
1002
{
1000
PSFILL
1000
Grayscale
1000
Grayscale
1070
   100
1002
}
  0
LINE
  5
4666
  8
YODOROGO
 10
27977.604341291921
 20
1955.7494964292871
 30
0.0
 11
27977.604341291921
 21
1939.749496429288
 31
0.0
1001
AUTOCAD_POSTSCRIPT_FIGURE
1002
{
1000
PSFILL
1000
Grayscale
1000
Grayscale
1070
   100
1002
}
  0
LINE
  5
4667
  8
YODOROGO
 10
28076.60687851991
 20
1955.7494964292871
 30
0.0
 11
27977.604341291921
 21
1955.7494964292871
 31
0.0
1001
AUTOCAD_POSTSCRIPT_FIGURE
1002
{
1000
PSFILL
1000
Grayscale
1000
Grayscale
1070
   100
1002
}
  0
LINE
  5
4668
  8
YODOROGO
 10
28071.162715989711
 20
1979.749496429288
 30
0.0
 11
28076.60687851991
 21
1955.7494964292871
 31
0.0
1001
AUTOCAD_POSTSCRIPT_FIGURE
1002
{
1000
PSFILL
1000
Grayscale
1000
Grayscale
1070
   100
1002
}
  0
LINE
  5
4669
  8
YODOROGO
 10
28091.162715989711
 20
1979.749496429288
 30
0.0
 11
28071.162715989711
 21
1979.749496429288
 31
0.0
1001
AUTOCAD_POSTSCRIPT_FIGURE
1002
{
1000
PSFILL
1000
Grayscale
1000
Grayscale
1070
   100
1002
}
  0
LINE
  5
466A
  8
YODOROGO
 10
28095.806878519939
 20
1955.7494964292871
 30
0.0
 11
28091.162715989711
 21
1979.749496429288
 31
0.0
1001
AUTOCAD_POSTSCRIPT_FIGURE
1002
{
1000
PSFILL
1000
Grayscale
1000
Grayscale
1070
   100
1002
}
  0
LINE
  5
466B
  8
YODOROGO
 10
28121.604341291921
 20
1955.7494964292871
 30
0.0
 11
28095.806878519939
 21
1955.7494964292871
 31
0.0
1001
AUTOCAD_POSTSCRIPT_FIGURE
1002
{
1000
PSFILL
1000
Grayscale
1000
Grayscale
1070
   100
1002
}
  0
LINE
  5
466C
  8
YODOROGO
 10
28121.604341291921
 20
1979.749496429288
 30
0.0
 11
28121.604341291921
 21
1955.7494964292871
 31
0.0
1001
AUTOCAD_POSTSCRIPT_FIGURE
1002
{
1000
PSFILL
1000
Grayscale
1000
Grayscale
1070
   100
1002
}
  0
LINE
  5
466D
  8
YODOROGO
 10
28137.604341291921
 20
1979.749496429288
 30
0.0
 11
28121.604341291921
 21
1979.749496429288
 31
0.0
1001
AUTOCAD_POSTSCRIPT_FIGURE
1002
{
1000
PSFILL
1000
Grayscale
1000
Grayscale
1070
   100
1002
}
  0
LINE
  5
466E
  8
YODOROGO
 10
28137.604341291921
 20
1955.7494964292871
 30
0.0
 11
28137.604341291921
 21
1979.749496429288
 31
0.0
1001
AUTOCAD_POSTSCRIPT_FIGURE
1002
{
1000
PSFILL
1000
Grayscale
1000
Grayscale
1070
   100
1002
}
  0
LINE
  5
466F
  8
YODOROGO
 10
28137.604341291921
 20
1939.749496429288
 30
0.0
 11
28137.604341291921
 21
1955.7494964292871
 31
0.0
1001
AUTOCAD_POSTSCRIPT_FIGURE
1002
{
1000
PSFILL
1000
Grayscale
1000
Grayscale
1070
   100
1002
}
  0
LINE
  5
4670
  8
YODOROGO
 10
28098.902986873411
 20
1939.749496429288
 30
0.0
 11
28137.604341291921
 21
1939.749496429288
 31
0.0
1001
AUTOCAD_POSTSCRIPT_FIGURE
1002
{
1000
PSFILL
1000
Grayscale
1000
Grayscale
1070
   100
1002
}
  0
LINE
  5
4671
  8
YODOROGO
 10
28137.604341291921
 20
1747.749496429286
 30
0.0
 11
28098.902986873411
 21
1939.749496429288
 31
0.0
1001
AUTOCAD_POSTSCRIPT_FIGURE
1002
{
1000
PSFILL
1000
Grayscale
1000
Grayscale
1070
   100
1002
}
  0
LINE
  5
4672
  8
YODOROGO
 10
28129.60434129191
 20
1747.749496429286
 30
0.0
 11
28137.604341291921
 21
1747.749496429286
 31
0.0
1001
AUTOCAD_POSTSCRIPT_FIGURE
1002
{
1000
PSFILL
1000
Grayscale
1000
Grayscale
1070
   100
1002
}
  0
LINE
  5
4673
  8
YODOROGO
 10
28078.069219933801
 20
1775.7407762987939
 30
0.0
 11
27977.604341291921
 21
1747.749496429286
 31
0.0
  0
LINE
  5
4674
  8
YODOROGO
 10
28078.069219933801
 20
1798.6689795290731
 30
0.0
 11
28078.069219933801
 21
1775.7407762987939
 31
0.0
  0
LINE
  5
4675
  8
YODOROGO
 10
28033.83678061287
 20
1786.816933133767
 30
0.0
 11
28078.069219933801
 21
1798.6689795290731
 31
0.0
  0
LINE
  5
4676
  8
YODOROGO
 10
28033.83678061287
 20
1872.5683489362989
 30
0.0
 11
28033.83678061287
 21
1786.816933133767
 31
0.0
  0
LINE
  5
4677
  8
YODOROGO
 10
28078.069219933801
 20
1872.5683489362989
 30
0.0
 11
28033.83678061287
 21
1872.5683489362989
 31
0.0
  0
LINE
  5
4678
  8
YODOROGO
 10
28078.069219933801
 20
1892.568348936298
 30
0.0
 11
28078.069219933801
 21
1872.5683489362989
 31
0.0
  0
LINE
  5
4679
  8
YODOROGO
 10
27977.604341291921
 20
1892.568348936298
 30
0.0
 11
28078.069219933801
 21
1892.568348936298
 31
0.0
  0
LINE
  5
467A
  8
YODOROGO
 10
27977.604341291921
 20
1872.5683489362989
 30
0.0
 11
27977.604341291921
 21
1892.568348936298
 31
0.0
  0
LINE
  5
467B
  8
YODOROGO
 10
28021.836780612852
 20
1872.5683489362989
 30
0.0
 11
27977.604341291921
 21
1872.5683489362989
 31
0.0
  0
LINE
  5
467C
  8
YODOROGO
 10
28021.836780612852
 20
1784.673339594317
 30
0.0
 11
28021.836780612852
 21
1872.5683489362989
 31
0.0
  0
LINE
  5
467D
  8
YODOROGO
 10
27977.604341291921
 20
1771.749496429286
 30
0.0
 11
28021.836780612852
 21
1784.673339594317
 31
0.0
  0
LINE
  5
467E
  8
YODOROGO
 10
27977.604341291921
 20
1747.749496429286
 30
0.0
 11
27977.604341291921
 21
1771.749496429286
 31
0.0
  0
LINE
  5
467F
  8
YODOROGO
 10
28001.604341291921
 20
1707.749496429288
 30
0.0
 11
28001.604341291921
 21
1683.7494964292871
 31
0.0
  0
LINE
  5
4680
  8
YODOROGO
 10
28017.604341291921
 20
1707.749496429288
 30
0.0
 11
28001.604341291921
 21
1707.749496429288
 31
0.0
  0
LINE
  5
4681
  8
YODOROGO
 10
28017.604341291921
 20
1683.7494964292871
 30
0.0
 11
28017.604341291921
 21
1707.749496429288
 31
0.0
  0
LINE
  5
4682
  8
YODOROGO
 10
28040.913204016892
 20
1683.7494964292871
 30
0.0
 11
28017.604341291921
 21
1683.7494964292871
 31
0.0
  0
LINE
  5
4683
  8
YODOROGO
 10
28001.604341291921
 20
1683.7494964292871
 30
0.0
 11
27977.604341291921
 21
1683.7494964292871
 31
0.0
  0
LINE
  5
4684
  8
YODOROGO
 10
28082.135520230921
 20
1707.749496429288
 30
0.0
 11
28098.135520230931
 21
1707.749496429288
 31
0.0
1001
AUTOCAD_POSTSCRIPT_FIGURE
1002
{
1000
PSFILL
1000
Grayscale
1000
Grayscale
1070
   100
1002
}
  0
LINE
  5
4685
  8
YODOROGO
 10
28401.60434129191
 20
1824.877625640306
 30
0.0
 11
28401.60434129191
 21
1752.877625640306
 31
0.0
1001
AUTOCAD_POSTSCRIPT_FIGURE
1002
{
1000
PSFILL
1000
Grayscale
1000
Grayscale
1070
   100
1002
}
  0
LINE
  5
4686
  8
YODOROGO
 10
28401.60434129191
 20
1916.8776256403071
 30
0.0
 11
28401.60434129191
 21
1984.877625640305
 31
0.0
1001
AUTOCAD_POSTSCRIPT_FIGURE
1002
{
1000
PSFILL
1000
Grayscale
1000
Grayscale
1070
   100
1002
}
  0
LINE
  5
4687
  8
YODOROGO
 10
28433.60434129191
 20
1819.7494964292871
 30
0.0
 11
28433.60434129191
 21
1747.74949642929
 31
0.0
  0
LINE
  5
4688
  8
YODOROGO
 10
28497.60434129191
 20
1707.749496429288
 30
0.0
 11
28433.60434129191
 21
1707.749496429288
 31
0.0
  0
LINE
  5
4689
  8
YODOROGO
 10
28433.60434129191
 20
1747.74949642929
 30
0.0
 11
28585.604341291921
 21
1747.74949642929
 31
0.0
  0
LINE
  5
468A
  8
YODOROGO
 10
28497.60434129191
 20
1867.7494964292871
 30
0.0
 11
28433.60434129191
 21
1867.7494964292871
 31
0.0
  0
LINE
  5
468B
  8
YODOROGO
 10
28497.60434129191
 20
1923.7494964292871
 30
0.0
 11
28497.60434129191
 21
1867.7494964292871
 31
0.0
  0
LINE
  5
468C
  8
YODOROGO
 10
28585.604341291921
 20
1987.7494964292871
 30
0.0
 11
28585.604341291921
 21
2027.749496429288
 31
0.0
  0
LINE
  5
468D
  8
YODOROGO
 10
28433.60434129191
 20
1987.7494964292871
 30
0.0
 11
28585.604341291921
 21
1987.7494964292871
 31
0.0
  0
LINE
  5
468E
  8
YODOROGO
 10
28433.60434129191
 20
1867.7494964292871
 30
0.0
 11
28433.60434129191
 21
1987.7494964292871
 31
0.0
  0
LINE
  5
468F
  8
YODOROGO
 10
29001.60434129191
 20
2027.749496429288
 30
0.0
 11
29001.60434129191
 21
1619.749496429288
 31
0.0
  0
LINE
  5
4690
  8
YODOROGO
 10
29073.604341291921
 20
1579.749496429288
 30
0.0
 11
29073.604341291921
 21
2027.749496429288
 31
0.0
  0
LINE
  5
4691
  8
YODOROGO
 10
29261.604341291921
 20
1491.749496429286
 30
0.0
 11
29261.604341291921
 21
2007.749496429288
 31
0.0
  0
LINE
  5
4692
  8
YODOROGO
 10
29197.604341291921
 20
2007.749496429288
 30
0.0
 11
29197.604341291921
 21
1491.749496429286
 31
0.0
  0
LINE
  5
4693
  8
YODOROGO
 10
29385.604341291921
 20
2027.749496429288
 30
0.0
 11
29385.604341291921
 21
1427.749496429288
 31
0.0
  0
LINE
  5
4694
  8
YODOROGO
 10
29457.604341291921
 20
1427.749496429288
 30
0.0
 11
29457.604341291921
 21
2027.749496429288
 31
0.0
  0
LINE
  5
4695
  8
YODOROGO
 10
28657.604341291921
 20
1667.749496429288
 30
0.0
 11
28657.604341291921
 21
1747.74949642929
 31
0.0
  0
LINE
  5
4696
  8
YODOROGO
 10
29885.604341291921
 20
1707.749496429288
 30
0.0
 11
29885.604341291921
 21
1667.749496429288
 31
0.0
  0
LINE
  5
4697
  8
YODOROGO
 10
29885.604341291921
 20
1707.749496429288
 30
0.0
 11
29885.604341291921
 21
1667.749496429288
 31
0.0
  0
ARC
  5
4698
  8
YODOROGO
 10
28906.911576186842
 20
1618.217864442272
 30
0.0
 40
94.705151178741616
 50
274.05244162907093
 51
0.9266642149310712
  0
ARC
  5
4699
  8
YODOROGO
 10
28909.186170719819
 20
1592.61072861044
 30
0.0
 40
164.92042356085511
 50
271.5351210653775
 51
355.52727750585052
  0
LINE
  5
469A
  8
YODOROGO
 10
28913.604341291921
 20
1523.7494964292871
 30
0.0
 11
28913.604341291921
 21
1427.749496429288
 31
0.0
  0
LINE
  5
469B
  8
YODOROGO
 10
28793.60434129191
 20
1667.749496429288
 30
0.0
 11
28657.604341291921
 21
1667.749496429288
 31
0.0
  0
LINE
  5
469C
  8
YODOROGO
 10
28793.60434129191
 20
1603.7494964292871
 30
0.0
 11
28793.60434129191
 21
1667.749496429288
 31
0.0
  0
LINE
  5
469D
  8
YODOROGO
 10
28657.604341291921
 20
1603.7494964292871
 30
0.0
 11
28793.60434129191
 21
1603.7494964292871
 31
0.0
  0
LINE
  5
469E
  8
YODOROGO
 10
28657.604341291921
 20
1523.7494964292871
 30
0.0
 11
28657.604341291921
 21
1603.7494964292871
 31
0.0
  0
LINE
  5
469F
  8
YODOROGO
 10
28793.60434129191
 20
1523.7494964292871
 30
0.0
 11
28657.604341291921
 21
1523.7494964292871
 31
0.0
  0
LINE
  5
46A0
  8
YODOROGO
 10
28793.60434129191
 20
1427.749496429288
 30
0.0
 11
28793.60434129191
 21
1523.7494964292871
 31
0.0
  0
LINE
  5
46A1
  8
YODOROGO
 10
29197.604341291921
 20
1491.749496429286
 30
0.0
 11
29261.604341291921
 21
1491.749496429286
 31
0.0
  0
LINE
  5
46A2
  8
YODOROGO
 10
29385.604341291921
 20
1427.749496429288
 30
0.0
 11
29457.604341291921
 21
1427.749496429288
 31
0.0
  0
LINE
  5
46A3
  8
YODOROGO
 10
29737.604341291921
 20
1528.4414521705639
 30
0.0
 11
29737.604341291921
 21
1427.749496429288
 31
0.0
  0
LINE
  5
46A4
  8
YODOROGO
 10
29617.604341291921
 20
1427.749496429288
 30
0.0
 11
29737.604341291921
 21
1528.4414521705639
 31
0.0
  0
LINE
  5
46A5
  8
YODOROGO
 10
29617.604341291921
 20
1547.749496429288
 30
0.0
 11
29617.604341291921
 21
1427.749496429288
 31
0.0
  0
LINE
  5
46A6
  8
YODOROGO
 10
29712.94462869945
 20
1627.749496429288
 30
0.0
 11
29617.604341291921
 21
1547.749496429288
 31
0.0
  0
LINE
  5
46A7
  8
YODOROGO
 10
29617.604341291921
 20
1627.749496429288
 30
0.0
 11
29712.94462869945
 21
1627.749496429288
 31
0.0
  0
LINE
  5
46A8
  8
YODOROGO
 10
29617.604341291921
 20
1667.749496429288
 30
0.0
 11
29617.604341291921
 21
1627.749496429288
 31
0.0
  0
LINE
  5
46A9
  8
YODOROGO
 10
29885.604341291921
 20
1667.749496429288
 30
0.0
 11
29617.604341291921
 21
1667.749496429288
 31
0.0
  0
LINE
  5
46AA
  8
YODOROGO
 10
29917.604341291921
 20
1627.749496429288
 30
0.0
 11
29777.604341291921
 21
1627.749496429288
 31
0.0
  0
LINE
  5
46AB
  8
YODOROGO
 10
29777.604341291921
 20
1562.0054374176559
 30
0.0
 11
29771.409872985321
 21
1556.807661346234
 31
0.0
  0
LINE
  5
46AC
  8
YODOROGO
 10
29777.604341291921
 20
1627.749496429288
 30
0.0
 11
29777.604341291921
 21
1562.0054374176559
 31
0.0
  0
LINE
  5
46AD
  8
YODOROGO
 10
29737.604341291921
 20
1528.4414521705639
 30
0.0
 11
29737.604341291921
 21
1427.749496429288
 31
0.0
  0
LINE
  5
46AE
  8
YODOROGO
 10
29617.604341291921
 20
1427.749496429288
 30
0.0
 11
29737.604341291921
 21
1528.4414521705639
 31
0.0
  0
LINE
  5
46AF
  8
YODOROGO
 10
29617.604341291921
 20
1547.749496429288
 30
0.0
 11
29617.604341291921
 21
1427.749496429288
 31
0.0
  0
LINE
  5
46B0
  8
YODOROGO
 10
29712.94462869945
 20
1627.749496429288
 30
0.0
 11
29617.604341291921
 21
1547.749496429288
 31
0.0
  0
LINE
  5
46B1
  8
YODOROGO
 10
29617.604341291921
 20
1627.749496429288
 30
0.0
 11
29712.94462869945
 21
1627.749496429288
 31
0.0
  0
LINE
  5
46B2
  8
YODOROGO
 10
29617.604341291921
 20
1667.749496429288
 30
0.0
 11
29617.604341291921
 21
1627.749496429288
 31
0.0
  0
LINE
  5
46B3
  8
YODOROGO
 10
29885.604341291921
 20
1667.749496429288
 30
0.0
 11
29617.604341291921
 21
1667.749496429288
 31
0.0
  0
LINE
  5
46B4
  8
YODOROGO
 10
28793.60434129191
 20
1747.74949642929
 30
0.0
 11
28793.60434129191
 21
1819.7494964292871
 31
0.0
  0
LINE
  5
46B5
  8
YODOROGO
 10
28657.604341291921
 20
1747.74949642929
 30
0.0
 11
28793.60434129191
 21
1747.74949642929
 31
0.0
  0
LINE
  5
46B6
  8
YODOROGO
 10
28729.604341291921
 20
1867.7494964292871
 30
0.0
 11
28729.604341291921
 21
1923.7494964292871
 31
0.0
  0
LINE
  5
46B7
  8
YODOROGO
 10
28793.60434129191
 20
1867.7494964292871
 30
0.0
 11
28729.604341291921
 21
1867.7494964292871
 31
0.0
  0
LINE
  5
46B8
  8
YODOROGO
 10
28793.60434129191
 20
1947.749496429288
 30
0.0
 11
28793.60434129191
 21
1867.7494964292871
 31
0.0
  0
ARC
  5
46B9
  8
YODOROGO
 10
28753.60434129191
 20
1947.749496429288
 30
0.0
 40
40.0
 50
0.0
 51
90.0
  0
LINE
  5
46BA
  8
YODOROGO
 10
28657.604341291921
 20
1987.7494964292871
 30
0.0
 11
28753.60434129191
 21
1987.7494964292871
 31
0.0
  0
LINE
  5
46BB
  8
YODOROGO
 10
28657.604341291921
 20
2027.749496429288
 30
0.0
 11
28657.604341291921
 21
1987.7494964292871
 31
0.0
  0
LINE
  5
46BC
  8
YODOROGO
 10
29073.604341291921
 20
2027.749496429288
 30
0.0
 11
29001.60434129191
 21
2027.749496429288
 31
0.0
  0
LINE
  5
46BD
  8
YODOROGO
 10
29261.604341291921
 20
2007.749496429288
 30
0.0
 11
29197.604341291921
 21
2007.749496429288
 31
0.0
  0
LINE
  5
46BE
  8
YODOROGO
 10
29457.604341291921
 20
2027.749496429288
 30
0.0
 11
29385.604341291921
 21
2027.749496429288
 31
0.0
  0
LINE
  5
46BF
  8
YODOROGO
 10
29673.604341291921
 20
1707.749496429288
 30
0.0
 11
29673.604341291921
 21
1771.7494964292871
 31
0.0
1001
AUTOCAD_POSTSCRIPT_FIGURE
1002
{
1000
PSFILL
1000
Grayscale
1000
Grayscale
1070
    25
1002
}
  0
LINE
  5
46C0
  8
YODOROGO
 10
29617.604341291921
 20
1707.749496429288
 30
0.0
 11
29673.604341291921
 21
1707.749496429288
 31
0.0
1001
AUTOCAD_POSTSCRIPT_FIGURE
1002
{
1000
PSFILL
1000
Grayscale
1000
Grayscale
1070
    25
1002
}
  0
LINE
  5
46C1
  8
YODOROGO
 10
29617.604341291921
 20
1819.7494964292871
 30
0.0
 11
29617.604341291921
 21
1707.749496429288
 31
0.0
1001
AUTOCAD_POSTSCRIPT_FIGURE
1002
{
1000
PSFILL
1000
Grayscale
1000
Grayscale
1070
    25
1002
}
  0
LINE
  5
46C2
  8
YODOROGO
 10
29765.604341291921
 20
1819.7494964292871
 30
0.0
 11
29617.604341291921
 21
1819.7494964292871
 31
0.0
1001
AUTOCAD_POSTSCRIPT_FIGURE
1002
{
1000
PSFILL
1000
Grayscale
1000
Grayscale
1070
    25
1002
}
  0
LINE
  5
46C3
  8
YODOROGO
 10
29765.604341291921
 20
1859.7494964292871
 30
0.0
 11
29765.604341291921
 21
1819.7494964292871
 31
0.0
1001
AUTOCAD_POSTSCRIPT_FIGURE
1002
{
1000
PSFILL
1000
Grayscale
1000
Grayscale
1070
    25
1002
}
  0
LINE
  5
46C4
  8
YODOROGO
 10
29617.604341291921
 20
1859.7494964292871
 30
0.0
 11
29765.604341291921
 21
1859.7494964292871
 31
0.0
1001
AUTOCAD_POSTSCRIPT_FIGURE
1002
{
1000
PSFILL
1000
Grayscale
1000
Grayscale
1070
    25
1002
}
  0
LINE
  5
46C5
  8
YODOROGO
 10
29617.604341291921
 20
1907.7494964292871
 30
0.0
 11
29617.604341291921
 21
1859.7494964292871
 31
0.0
1001
AUTOCAD_POSTSCRIPT_FIGURE
1002
{
1000
PSFILL
1000
Grayscale
1000
Grayscale
1070
    25
1002
}
  0
LINE
  5
46C6
  8
YODOROGO
 10
29765.604341291921
 20
1907.7494964292871
 30
0.0
 11
29617.604341291921
 21
1907.7494964292871
 31
0.0
1001
AUTOCAD_POSTSCRIPT_FIGURE
1002
{
1000
PSFILL
1000
Grayscale
1000
Grayscale
1070
    25
1002
}
  0
LINE
  5
46C7
  8
YODOROGO
 10
29765.604341291921
 20
1947.749496429288
 30
0.0
 11
29765.604341291921
 21
1907.7494964292871
 31
0.0
1001
AUTOCAD_POSTSCRIPT_FIGURE
1002
{
1000
PSFILL
1000
Grayscale
1000
Grayscale
1070
    25
1002
}
  0
LINE
  5
46C8
  8
YODOROGO
 10
29617.604341291921
 20
1947.749496429288
 30
0.0
 11
29765.604341291921
 21
1947.749496429288
 31
0.0
1001
AUTOCAD_POSTSCRIPT_FIGURE
1002
{
1000
PSFILL
1000
Grayscale
1000
Grayscale
1070
    25
1002
}
  0
LINE
  5
46C9
  8
YODOROGO
 10
29617.604341291921
 20
2027.749496429288
 30
0.0
 11
29617.604341291921
 21
1947.749496429288
 31
0.0
1001
AUTOCAD_POSTSCRIPT_FIGURE
1002
{
1000
PSFILL
1000
Grayscale
1000
Grayscale
1070
    25
1002
}
  0
LINE
  5
46CA
  8
YODOROGO
 10
29665.604341291921
 20
2027.749496429288
 30
0.0
 11
29617.604341291921
 21
2027.749496429288
 31
0.0
1001
AUTOCAD_POSTSCRIPT_FIGURE
1002
{
1000
PSFILL
1000
Grayscale
1000
Grayscale
1070
    25
1002
}
  0
LINE
  5
46CB
  8
YODOROGO
 10
29665.604341291921
 20
1995.7494964292871
 30
0.0
 11
29665.604341291921
 21
2027.749496429288
 31
0.0
1001
AUTOCAD_POSTSCRIPT_FIGURE
1002
{
1000
PSFILL
1000
Grayscale
1000
Grayscale
1070
    25
1002
}
  0
LINE
  5
46CC
  8
YODOROGO
 10
29765.604341291921
 20
1995.7494964292871
 30
0.0
 11
29665.604341291921
 21
1995.7494964292871
 31
0.0
1001
AUTOCAD_POSTSCRIPT_FIGURE
1002
{
1000
PSFILL
1000
Grayscale
1000
Grayscale
1070
    25
1002
}
  0
LINE
  5
46CD
  8
YODOROGO
 10
29765.604341291921
 20
2027.749496429288
 30
0.0
 11
29765.604341291921
 21
1995.7494964292871
 31
0.0
1001
AUTOCAD_POSTSCRIPT_FIGURE
1002
{
1000
PSFILL
1000
Grayscale
1000
Grayscale
1070
    25
1002
}
  0
LINE
  5
46CE
  8
YODOROGO
 10
29829.604341291921
 20
2027.749496429288
 30
0.0
 11
29765.604341291921
 21
2027.749496429288
 31
0.0
1001
AUTOCAD_POSTSCRIPT_FIGURE
1002
{
1000
PSFILL
1000
Grayscale
1000
Grayscale
1070
    25
1002
}
  0
LINE
  5
46CF
  8
YODOROGO
 10
29829.604341291921
 20
1995.7494964292871
 30
0.0
 11
29829.604341291921
 21
2027.749496429288
 31
0.0
1001
AUTOCAD_POSTSCRIPT_FIGURE
1002
{
1000
PSFILL
1000
Grayscale
1000
Grayscale
1070
    25
1002
}
  0
LINE
  5
46D0
  8
YODOROGO
 10
29829.604341291921
 20
1907.7494964292871
 30
0.0
 11
29829.604341291921
 21
1947.749496429288
 31
0.0
1001
AUTOCAD_POSTSCRIPT_FIGURE
1002
{
1000
PSFILL
1000
Grayscale
1000
Grayscale
1070
    25
1002
}
  0
LINE
  5
46D1
  8
YODOROGO
 10
29829.604341291921
 20
1819.7494964292871
 30
0.0
 11
29829.604341291921
 21
1859.7494964292871
 31
0.0
1001
AUTOCAD_POSTSCRIPT_FIGURE
1002
{
1000
PSFILL
1000
Grayscale
1000
Grayscale
1070
    25
1002
}
  0
LINE
  5
46D2
  8
YODOROGO
 10
29921.60434129191
 20
1771.7494964292871
 30
0.0
 11
29921.60434129191
 21
1707.749496429288
 31
0.0
1001
AUTOCAD_POSTSCRIPT_FIGURE
1002
{
1000
PSFILL
1000
Grayscale
1000
Grayscale
1070
    25
1002
}
  0
LINE
  5
46D3
  8
YODOROGO
 10
29829.604341291921
 20
1771.7494964292871
 30
0.0
 11
29921.60434129191
 21
1771.7494964292871
 31
0.0
1001
AUTOCAD_POSTSCRIPT_FIGURE
1002
{
1000
PSFILL
1000
Grayscale
1000
Grayscale
1070
    25
1002
}
  0
LINE
  5
46D4
  8
YODOROGO
 10
29829.604341291921
 20
1707.749496429288
 30
0.0
 11
29829.604341291921
 21
1771.7494964292871
 31
0.0
1001
AUTOCAD_POSTSCRIPT_FIGURE
1002
{
1000
PSFILL
1000
Grayscale
1000
Grayscale
1070
    25
1002
}
  0
LINE
  5
46D5
  8
YODOROGO
 10
29765.604341291921
 20
1707.749496429288
 30
0.0
 11
29829.604341291921
 21
1707.749496429288
 31
0.0
1001
AUTOCAD_POSTSCRIPT_FIGURE
1002
{
1000
PSFILL
1000
Grayscale
1000
Grayscale
1070
    25
1002
}
  0
LINE
  5
46D6
  8
YODOROGO
 10
29765.604341291921
 20
1771.7494964292871
 30
0.0
 11
29765.604341291921
 21
1707.749496429288
 31
0.0
1001
AUTOCAD_POSTSCRIPT_FIGURE
1002
{
1000
PSFILL
1000
Grayscale
1000
Grayscale
1070
    25
1002
}
  0
LINE
  5
46D7
  8
YODOROGO
 10
29673.604341291921
 20
1771.7494964292871
 30
0.0
 11
29765.604341291921
 21
1771.7494964292871
 31
0.0
1001
AUTOCAD_POSTSCRIPT_FIGURE
1002
{
1000
PSFILL
1000
Grayscale
1000
Grayscale
1070
    25
1002
}
  0
ARC
  5
46D8
  8
YODOROGO
 10
31059.517893357912
 20
1602.6807375155761
 30
0.0
 40
178.22128111072141
 50
281.02627495425338
 51
357.77113575573799
  0
LINE
  5
46D9
  8
YODOROGO
 10
31413.604341291921
 20
1907.7494964292871
 30
0.0
 11
31165.604341291921
 21
1907.7494964292871
 31
0.0
  0
LINE
  5
46DA
  8
YODOROGO
 10
31413.604341291921
 20
2027.749496429288
 30
0.0
 11
31165.604341291921
 21
2027.749496429288
 31
0.0
  0
LINE
  5
46DB
  8
YODOROGO
 10
31165.604341291921
 20
1963.749496429286
 30
0.0
 11
31413.604341291921
 21
1963.749496429286
 31
0.0
  0
LINE
  5
46DC
  8
YODOROGO
 10
30791.604341291921
 20
1563.7494964292871
 30
0.0
 11
30791.604341291921
 21
1755.7494964292871
 31
0.0
  0
LINE
  5
46DD
  8
YODOROGO
 10
30763.604341291921
 20
1691.749496429288
 30
0.0
 11
30763.604341291921
 21
1563.7494964292871
 31
0.0
  0
LINE
  5
46DE
  8
YODOROGO
 10
30723.604341291921
 20
1491.749496429288
 30
0.0
 11
30723.604341291921
 21
1691.749496429288
 31
0.0
  0
LINE
  5
46DF
  8
YODOROGO
 10
30899.604341291932
 20
1691.749496429288
 30
0.0
 11
30899.604341291932
 21
1491.749496429288
 31
0.0
  0
LINE
  5
46E0
  8
YODOROGO
 10
30859.604341291932
 20
1563.7494964292871
 30
0.0
 11
30859.604341291932
 21
1691.749496429288
 31
0.0
  0
LINE
  5
46E1
  8
YODOROGO
 10
30831.604341291921
 20
1755.7494964292871
 30
0.0
 11
30831.604341291921
 21
1563.7494964292871
 31
0.0
  0
LINE
  5
46E2
  8
YODOROGO
 10
30973.604341291921
 20
2027.749496429288
 30
0.0
 11
30973.604341291921
 21
1467.749496429288
 31
0.0
  0
LINE
  5
46E3
  8
YODOROGO
 10
30645.604341291921
 20
1427.749496429288
 30
0.0
 11
30645.604341291921
 21
2027.749496429288
 31
0.0
  0
LINE
  5
46E4
  8
YODOROGO
 10
30697.604341291932
 20
1963.749496429286
 30
0.0
 11
30697.604341291932
 21
1427.749496429288
 31
0.0
  0
LINE
  5
46E5
  8
YODOROGO
 10
30925.604341291921
 20
1547.749496429288
 30
0.0
 11
30925.604341291921
 21
1963.749496429286
 31
0.0
  0
LINE
  5
46E6
  8
YODOROGO
 10
30381.604341291932
 20
1627.749496429288
 30
0.0
 11
30381.604341291932
 21
1679.749496429288
 31
0.0
  0
LINE
  5
46E7
  8
YODOROGO
 10
30617.604341291921
 20
1679.749496429288
 30
0.0
 11
30617.604341291921
 21
1627.749496429288
 31
0.0
  0
LINE
  5
46E8
  8
YODOROGO
 10
31165.604341291921
 20
1907.7494964292871
 30
0.0
 11
31165.604341291921
 21
1635.7494964292871
 31
0.0
  0
LINE
  5
46E9
  8
YODOROGO
 10
29949.60434129191
 20
1667.749496429288
 30
0.0
 11
29949.60434129191
 21
1707.749496429288
 31
0.0
  0
LINE
  5
46EA
  8
YODOROGO
 10
29949.60434129191
 20
1667.749496429288
 30
0.0
 11
29949.60434129191
 21
1707.749496429288
 31
0.0
  0
ARC
  5
46EB
  8
YODOROGO
 10
30537.604341291921
 20
1507.749496429288
 30
0.0
 40
80.0
 50
270.0
 51
0.0
  0
LINE
  5
46EC
  8
YODOROGO
 10
30569.604341291921
 20
1599.7494964292871
 30
0.0
 11
30617.604341291921
 21
1599.7494964292871
 31
0.0
  0
LINE
  5
46ED
  8
YODOROGO
 10
30617.604341291921
 20
1627.749496429288
 30
0.0
 11
30529.604341291939
 21
1627.749496429288
 31
0.0
  0
LINE
  5
46EE
  8
YODOROGO
 10
30217.604341291921
 20
1667.749496429288
 30
0.0
 11
29949.60434129191
 21
1667.749496429288
 31
0.0
  0
LINE
  5
46EF
  8
YODOROGO
 10
30217.604341291921
 20
1627.749496429288
 30
0.0
 11
30217.604341291921
 21
1667.749496429288
 31
0.0
  0
LINE
  5
46F0
  8
YODOROGO
 10
30017.604341291921
 20
1627.749496429288
 30
0.0
 11
30217.604341291921
 21
1627.749496429288
 31
0.0
  0
ARC
  5
46F1
  8
YODOROGO
 10
30230.05882870136
 20
1868.885714952901
 30
0.0
 40
321.37763628522822
 50
228.61814546189939
 51
245.660289248906
  0
LINE
  5
46F2
  8
YODOROGO
 10
30105.604341291921
 20
1603.7494964292871
 30
0.0
 11
30097.60434129195
 21
1576.0728158699001
 31
0.0
  0
LINE
  5
46F3
  8
YODOROGO
 10
30189.604341291921
 20
1603.7494964292871
 30
0.0
 11
30105.604341291921
 21
1603.7494964292871
 31
0.0
  0
LINE
  5
46F4
  8
YODOROGO
 10
30177.604341291921
 20
1551.817722473427
 30
0.0
 11
30189.604341291921
 21
1603.7494964292871
 31
0.0
  0
ARC
  5
46F5
  8
YODOROGO
 10
30230.05882870045
 20
1868.8857149530011
 30
0.0
 40
321.37763628529081
 50
260.60629297969911
 51
267.77903556555862
  0
LINE
  5
46F6
  8
YODOROGO
 10
30217.604341291921
 20
1427.749496429285
 30
0.0
 11
30217.604341291921
 21
1547.749496429288
 31
0.0
  0
LINE
  5
46F7
  8
YODOROGO
 10
29937.604341291932
 20
1481.3393349155101
 30
0.0
 11
29937.604341291921
 21
1594.5310905311401
 31
0.0
  0
LINE
  5
46F8
  8
YODOROGO
 10
30217.604341291921
 20
1667.749496429288
 30
0.0
 11
29949.60434129191
 21
1667.749496429288
 31
0.0
  0
LINE
  5
46F9
  8
YODOROGO
 10
30217.604341291921
 20
1627.749496429288
 30
0.0
 11
30217.604341291921
 21
1667.749496429288
 31
0.0
  0
LINE
  5
46FA
  8
YODOROGO
 10
30017.604341291921
 20
1627.749496429288
 30
0.0
 11
30217.604341291921
 21
1627.749496429288
 31
0.0
  0
ARC
  5
46FB
  8
YODOROGO
 10
30230.05882870136
 20
1868.885714952901
 30
0.0
 40
321.37763628522822
 50
228.61814546189939
 51
245.660289248906
  0
LINE
  5
46FC
  8
YODOROGO
 10
30105.604341291921
 20
1603.7494964292871
 30
0.0
 11
30097.60434129195
 21
1576.0728158699001
 31
0.0
  0
LINE
  5
46FD
  8
YODOROGO
 10
30189.604341291921
 20
1603.7494964292871
 30
0.0
 11
30105.604341291921
 21
1603.7494964292871
 31
0.0
  0
LINE
  5
46FE
  8
YODOROGO
 10
30177.604341291921
 20
1551.817722473427
 30
0.0
 11
30189.604341291921
 21
1603.7494964292871
 31
0.0
  0
ARC
  5
46FF
  8
YODOROGO
 10
30230.05882870045
 20
1868.8857149530011
 30
0.0
 40
321.37763628529081
 50
260.60629297969911
 51
267.77903556555862
  0
LINE
  5
4700
  8
YODOROGO
 10
30217.604341291921
 20
1427.749496429285
 30
0.0
 11
30217.604341291921
 21
1547.749496429288
 31
0.0
  0
LINE
  5
4701
  8
YODOROGO
 10
29937.604341291932
 20
1481.3393349155101
 30
0.0
 11
29937.604341291921
 21
1594.5310905311401
 31
0.0
  0
LINE
  5
4702
  8
YODOROGO
 10
30433.604341291921
 20
1573.749496429288
 30
0.0
 11
30381.604341291932
 21
1573.749496429288
 31
0.0
  0
LINE
  5
4703
  8
YODOROGO
 10
30433.604341291921
 20
1601.749496429285
 30
0.0
 11
30433.604341291921
 21
1573.749496429288
 31
0.0
  0
LINE
  5
4704
  8
YODOROGO
 10
30381.604341291932
 20
1601.749496429285
 30
0.0
 11
30433.604341291921
 21
1601.749496429285
 31
0.0
  0
LINE
  5
4705
  8
YODOROGO
 10
30381.604341291932
 20
1573.749496429288
 30
0.0
 11
30381.604341291932
 21
1601.749496429285
 31
0.0
  0
LINE
  5
4706
  8
YODOROGO
 10
30429.604341291921
 20
1577.7494964292871
 30
0.0
 11
30385.604341291921
 21
1577.7494964292871
 31
0.0
  0
LINE
  5
4707
  8
YODOROGO
 10
30429.604341291921
 20
1597.749496429288
 30
0.0
 11
30429.604341291921
 21
1577.7494964292871
 31
0.0
  0
LINE
  5
4708
  8
YODOROGO
 10
30385.604341291921
 20
1597.749496429288
 30
0.0
 11
30429.604341291921
 21
1597.749496429288
 31
0.0
  0
LINE
  5
4709
  8
YODOROGO
 10
30385.604341291921
 20
1577.7494964292871
 30
0.0
 11
30385.604341291921
 21
1597.749496429288
 31
0.0
  0
LINE
  5
470A
  8
YODOROGO
 10
30425.604341291921
 20
1581.749496429286
 30
0.0
 11
30389.604341291921
 21
1581.749496429286
 31
0.0
  0
LINE
  5
470B
  8
YODOROGO
 10
30425.604341291921
 20
1593.7494964292871
 30
0.0
 11
30425.604341291921
 21
1581.749496429286
 31
0.0
  0
LINE
  5
470C
  8
YODOROGO
 10
30389.604341291921
 20
1593.7494964292871
 30
0.0
 11
30425.604341291921
 21
1593.7494964292871
 31
0.0
  0
LINE
  5
470D
  8
YODOROGO
 10
30389.604341291921
 20
1581.749496429286
 30
0.0
 11
30389.604341291921
 21
1593.7494964292871
 31
0.0
  0
LINE
  5
470E
  8
YODOROGO
 10
30421.604341291932
 20
1585.7494964292871
 30
0.0
 11
30393.604341291921
 21
1585.7494964292871
 31
0.0
  0
LINE
  5
470F
  8
YODOROGO
 10
30421.604341291932
 20
1589.749496429288
 30
0.0
 11
30421.604341291932
 21
1585.7494964292871
 31
0.0
  0
LINE
  5
4710
  8
YODOROGO
 10
30393.604341291921
 20
1589.749496429288
 30
0.0
 11
30421.604341291932
 21
1589.749496429288
 31
0.0
  0
LINE
  5
4711
  8
YODOROGO
 10
30393.604341291921
 20
1585.7494964292871
 30
0.0
 11
30393.604341291921
 21
1589.749496429288
 31
0.0
  0
LINE
  5
4712
  8
YODOROGO
 10
30465.604341291921
 20
1627.749496429288
 30
0.0
 11
30381.604341291932
 21
1627.749496429288
 31
0.0
  0
LINE
  5
4713
  8
YODOROGO
 10
30465.604341291921
 20
1547.749496429288
 30
0.0
 11
30465.604341291921
 21
1627.749496429288
 31
0.0
  0
LINE
  5
4714
  8
YODOROGO
 10
30381.604341291932
 20
1547.749496429288
 30
0.0
 11
30465.604341291921
 21
1547.749496429288
 31
0.0
  0
LINE
  5
4715
  8
YODOROGO
 10
30381.604341291932
 20
1427.749496429288
 30
0.0
 11
30381.604341291932
 21
1547.749496429288
 31
0.0
  0
LINE
  5
4716
  8
YODOROGO
 10
30537.604341291921
 20
1427.749496429288
 30
0.0
 11
30381.604341291932
 21
1427.749496429288
 31
0.0
  0
LINE
  5
4717
  8
YODOROGO
 10
30569.604341291921
 20
1571.749496429285
 30
0.0
 11
30569.604341291921
 21
1599.7494964292871
 31
0.0
  0
ARC
  5
4718
  8
YODOROGO
 10
30545.604341291921
 20
1571.749496429291
 30
0.0
 40
24.000000000003752
 50
270.0
 51
359.99999999998772
  0
LINE
  5
4719
  8
YODOROGO
 10
30529.604341291939
 20
1547.749496429288
 30
0.0
 11
30545.604341291921
 21
1547.749496429288
 31
0.0
  0
LINE
  5
471A
  8
YODOROGO
 10
30529.604341291939
 20
1627.749496429288
 30
0.0
 11
30529.604341291939
 21
1547.749496429288
 31
0.0
  0
LINE
  5
471B
  8
YODOROGO
 10
30899.604341291932
 20
1547.749496429288
 30
0.0
 11
30925.604341291921
 21
1547.749496429288
 31
0.0
  0
LINE
  5
471C
  8
YODOROGO
 10
30933.604341291921
 20
1427.749496429288
 30
0.0
 11
30899.604341291932
 21
1427.749496429288
 31
0.0
  0
LINE
  5
471D
  8
YODOROGO
 10
30763.604341291921
 20
1563.7494964292871
 30
0.0
 11
30791.604341291921
 21
1563.7494964292871
 31
0.0
  0
LINE
  5
471E
  8
YODOROGO
 10
30899.604341291932
 20
1491.749496429288
 30
0.0
 11
30723.604341291921
 21
1491.749496429288
 31
0.0
  0
LINE
  5
471F
  8
YODOROGO
 10
30831.604341291921
 20
1563.7494964292871
 30
0.0
 11
30859.604341291932
 21
1563.7494964292871
 31
0.0
  0
LINE
  5
4720
  8
YODOROGO
 10
30899.604341291932
 20
1427.749496429288
 30
0.0
 11
30899.604341291932
 21
1547.749496429288
 31
0.0
  0
LINE
  5
4721
  8
YODOROGO
 10
30697.604341291932
 20
1427.749496429288
 30
0.0
 11
30645.604341291921
 21
1427.749496429288
 31
0.0
  0
LINE
  5
4722
  8
YODOROGO
 10
30617.604341291921
 20
1599.7494964292871
 30
0.0
 11
30617.604341291921
 21
1507.749496429288
 31
0.0
  0
ARC
  5
4723
  8
YODOROGO
 10
30933.604341291921
 20
1467.749496429288
 30
0.0
 40
40.0
 50
270.0
 51
0.0
  0
LINE
  5
4724
  8
YODOROGO
 10
31093.604341291921
 20
1523.7494964292871
 30
0.0
 11
31093.604341291921
 21
1427.749496429288
 31
0.0
  0
ARC
  5
4725
  8
YODOROGO
 10
31039.721395566768
 20
1637.5313901097329
 30
0.0
 40
125.8955565916754
 50
295.34052442160117
 51
359.18902303418679
  0
LINE
  5
4726
  8
YODOROGO
 10
30617.604341291921
 20
1859.7494964292871
 30
0.0
 11
30497.604341291921
 21
1939.749496429288
 31
0.0
  0
LINE
  5
4727
  8
YODOROGO
 10
30497.604341291921
 20
2027.749496429288
 30
0.0
 11
30617.604341291921
 21
1947.749496429288
 31
0.0
  0
LINE
  5
4728
  8
YODOROGO
 10
30529.604341291939
 20
1679.749496429288
 30
0.0
 11
30617.604341291921
 21
1679.749496429288
 31
0.0
  0
LINE
  5
4729
  8
YODOROGO
 10
30617.604341291921
 20
1735.7494964292871
 30
0.0
 11
30529.604341291939
 21
1735.7494964292871
 31
0.0
  0
LINE
  5
472A
  8
YODOROGO
 10
30381.604341291932
 20
1795.7494964292871
 30
0.0
 11
30617.604341291921
 21
1795.7494964292871
 31
0.0
  0
LINE
  5
472B
  8
YODOROGO
 10
30081.604341291921
 20
2027.749496429288
 30
0.0
 11
30021.604341291921
 21
2027.749496429288
 31
0.0
  0
LINE
  5
472C
  8
YODOROGO
 10
30081.604341291921
 20
1827.7494964292871
 30
0.0
 11
30081.604341291921
 21
2027.749496429288
 31
0.0
  0
LINE
  5
472D
  8
YODOROGO
 10
30021.604341291921
 20
1827.7494964292871
 30
0.0
 11
30081.604341291921
 21
1827.7494964292871
 31
0.0
  0
LINE
  5
472E
  8
YODOROGO
 10
30021.604341291921
 20
2027.749496429288
 30
0.0
 11
30021.604341291921
 21
1827.7494964292871
 31
0.0
  0
LINE
  5
472F
  8
YODOROGO
 10
30161.604341291921
 20
2027.749496429288
 30
0.0
 11
30217.604341291921
 21
2027.749496429288
 31
0.0
  0
LINE
  5
4730
  8
YODOROGO
 10
30161.604341291921
 20
1811.7494964292871
 30
0.0
 11
30161.604341291921
 21
2027.749496429288
 31
0.0
  0
ARC
  5
4731
  8
YODOROGO
 10
30121.604341291921
 20
1811.7494964292871
 30
0.0
 40
40.0
 50
270.0
 51
0.0
  0
LINE
  5
4732
  8
YODOROGO
 10
30021.604341291921
 20
1771.7494964292871
 30
0.0
 11
30121.604341291921
 21
1771.7494964292871
 31
0.0
  0
LINE
  5
4733
  8
YODOROGO
 10
30021.604341291921
 20
1707.749496429288
 30
0.0
 11
30021.604341291921
 21
1771.7494964292871
 31
0.0
  0
LINE
  5
4734
  8
YODOROGO
 10
30137.604341291921
 20
1707.749496429288
 30
0.0
 11
30021.604341291921
 21
1707.749496429288
 31
0.0
  0
ARC
  5
4735
  8
YODOROGO
 10
30137.604341291921
 20
1787.7494964292871
 30
0.0
 40
80.0
 50
270.0
 51
0.0
  0
LINE
  5
4736
  8
YODOROGO
 10
30217.604341291921
 20
2027.749496429288
 30
0.0
 11
30217.604341291921
 21
1787.7494964292871
 31
0.0
  0
LINE
  5
4737
  8
YODOROGO
 10
29977.604341291921
 20
1947.749496429288
 30
0.0
 11
29977.604341291921
 21
1995.7494964292871
 31
0.0
1001
AUTOCAD_POSTSCRIPT_FIGURE
1002
{
1000
PSFILL
1000
Grayscale
1000
Grayscale
1070
    25
1002
}
  0
LINE
  5
4738
  8
YODOROGO
 10
29977.604341291921
 20
1859.7494964292871
 30
0.0
 11
29977.604341291921
 21
1907.7494964292871
 31
0.0
1001
AUTOCAD_POSTSCRIPT_FIGURE
1002
{
1000
PSFILL
1000
Grayscale
1000
Grayscale
1070
    25
1002
}
  0
LINE
  5
4739
  8
YODOROGO
 10
29977.604341291921
 20
1707.749496429288
 30
0.0
 11
29977.604341291921
 21
1819.7494964292871
 31
0.0
1001
AUTOCAD_POSTSCRIPT_FIGURE
1002
{
1000
PSFILL
1000
Grayscale
1000
Grayscale
1070
    25
1002
}
  0
LINE
  5
473A
  8
YODOROGO
 10
30381.604341291932
 20
1907.7494964292871
 30
0.0
 11
30497.604341291921
 21
2027.749496429288
 31
0.0
  0
LINE
  5
473B
  8
YODOROGO
 10
30381.604341291932
 20
1819.7494964292871
 30
0.0
 11
30381.604341291932
 21
1907.7494964292871
 31
0.0
  0
LINE
  5
473C
  8
YODOROGO
 10
30497.604341291921
 20
1939.749496429288
 30
0.0
 11
30381.604341291932
 21
1819.7494964292871
 31
0.0
  0
LINE
  5
473D
  8
YODOROGO
 10
30465.604341291921
 20
1679.749496429288
 30
0.0
 11
30465.604341291921
 21
1735.7494964292871
 31
0.0
  0
LINE
  5
473E
  8
YODOROGO
 10
30381.604341291932
 20
1679.749496429288
 30
0.0
 11
30465.604341291921
 21
1679.749496429288
 31
0.0
  0
LINE
  5
473F
  8
YODOROGO
 10
30529.604341291939
 20
1735.7494964292871
 30
0.0
 11
30529.604341291939
 21
1679.749496429288
 31
0.0
  0
LINE
  5
4740
  8
YODOROGO
 10
30381.604341291932
 20
1735.7494964292871
 30
0.0
 11
30381.604341291932
 21
1795.7494964292871
 31
0.0
  0
LINE
  5
4741
  8
YODOROGO
 10
30465.604341291921
 20
1735.7494964292871
 30
0.0
 11
30381.604341291932
 21
1735.7494964292871
 31
0.0
  0
LINE
  5
4742
  8
YODOROGO
 10
30645.604341291921
 20
2027.749496429288
 30
0.0
 11
30973.604341291921
 21
2027.749496429288
 31
0.0
  0
LINE
  5
4743
  8
YODOROGO
 10
30925.604341291921
 20
1963.749496429286
 30
0.0
 11
30697.604341291932
 21
1963.749496429286
 31
0.0
  0
LINE
  5
4744
  8
YODOROGO
 10
30873.604341291921
 20
1819.7494964292871
 30
0.0
 11
30899.604341291932
 21
1819.7494964292871
 31
0.0
  0
LINE
  5
4745
  8
YODOROGO
 10
30899.604341291932
 20
1939.749496429288
 30
0.0
 11
30873.604341291921
 21
1819.7494964292871
 31
0.0
  0
LINE
  5
4746
  8
YODOROGO
 10
30851.604341291939
 20
1939.749496429288
 30
0.0
 11
30899.604341291932
 21
1939.749496429288
 31
0.0
  0
LINE
  5
4747
  8
YODOROGO
 10
30825.604341291921
 20
1819.7494964292871
 30
0.0
 11
30851.604341291939
 21
1939.749496429288
 31
0.0
  0
LINE
  5
4748
  8
YODOROGO
 10
30797.604341291921
 20
1819.7494964292871
 30
0.0
 11
30825.604341291921
 21
1819.7494964292871
 31
0.0
  0
LINE
  5
4749
  8
YODOROGO
 10
30771.604341291939
 20
1939.749496429288
 30
0.0
 11
30797.604341291921
 21
1819.7494964292871
 31
0.0
  0
LINE
  5
474A
  8
YODOROGO
 10
30723.604341291921
 20
1939.749496429288
 30
0.0
 11
30771.604341291939
 21
1939.749496429288
 31
0.0
  0
LINE
  5
474B
  8
YODOROGO
 10
30749.604341291921
 20
1819.7494964292871
 30
0.0
 11
30723.604341291921
 21
1939.749496429288
 31
0.0
  0
LINE
  5
474C
  8
YODOROGO
 10
30723.604341291921
 20
1819.7494964292871
 30
0.0
 11
30749.604341291921
 21
1819.7494964292871
 31
0.0
  0
LINE
  5
474D
  8
YODOROGO
 10
30723.604341291921
 20
1755.7494964292871
 30
0.0
 11
30723.604341291921
 21
1819.7494964292871
 31
0.0
  0
LINE
  5
474E
  8
YODOROGO
 10
30899.604341291932
 20
1755.7494964292871
 30
0.0
 11
30723.604341291921
 21
1755.7494964292871
 31
0.0
  0
LINE
  5
474F
  8
YODOROGO
 10
30899.604341291932
 20
1819.7494964292871
 30
0.0
 11
30899.604341291932
 21
1755.7494964292871
 31
0.0
  0
LINE
  5
4750
  8
YODOROGO
 10
30617.604341291921
 20
1947.749496429288
 30
0.0
 11
30617.604341291921
 21
1859.7494964292871
 31
0.0
  0
LINE
  5
4751
  8
YODOROGO
 10
30791.604341291921
 20
1755.7494964292871
 30
0.0
 11
30831.604341291921
 21
1755.7494964292871
 31
0.0
  0
LINE
  5
4752
  8
YODOROGO
 10
30723.604341291921
 20
1691.749496429288
 30
0.0
 11
30763.604341291921
 21
1691.749496429288
 31
0.0
  0
LINE
  5
4753
  8
YODOROGO
 10
30859.604341291932
 20
1691.749496429288
 30
0.0
 11
30899.604341291932
 21
1691.749496429288
 31
0.0
  0
LINE
  5
4754
  8
YODOROGO
 10
30617.604341291921
 20
1795.7494964292871
 30
0.0
 11
30617.604341291921
 21
1735.7494964292871
 31
0.0
  0
LINE
  5
4755
  8
YODOROGO
 10
31165.604341291921
 20
2027.749496429288
 30
0.0
 11
31165.604341291921
 21
1963.749496429286
 31
0.0
  0
LINE
  5
4756
  8
YODOROGO
 10
31533.604341291921
 20
1595.7494964292871
 30
0.0
 11
31533.60434129191
 21
1811.7494964292871
 31
0.0
  0
LINE
  5
4757
  8
YODOROGO
 10
31461.60434129191
 20
1987.7494964292871
 30
0.0
 11
31461.60434129191
 21
1635.7494964292871
 31
0.0
  0
LINE
  5
4758
  8
YODOROGO
 10
31653.604341291921
 20
1427.749496429288
 30
0.0
 11
31653.60434129191
 21
1811.7494964292871
 31
0.0
  0
LINE
  5
4759
  8
YODOROGO
 10
31589.604341291921
 20
1811.7494964292871
 30
0.0
 11
31589.604341291921
 21
1427.749496429288
 31
0.0
  0
LINE
  5
475A
  8
YODOROGO
 10
31237.604341291921
 20
1595.7494964292871
 30
0.0
 11
31237.604341291921
 21
1707.749496429288
 31
0.0
  0
ARC
  5
475B
  8
YODOROGO
 10
31353.914865116069
 20
1607.790351288558
 30
0.0
 40
180.09244857598841
 50
268.62849102169793
 51
356.16638457330322
  0
LINE
  5
475C
  8
YODOROGO
 10
31349.604341291939
 20
1527.749496429288
 30
0.0
 11
31349.604341291939
 21
1427.749496429288
 31
0.0
  0
ARC
  5
475D
  8
YODOROGO
 10
31351.518075724562
 20
1637.838957017655
 30
0.0
 40
110.1060929836122
 50
269.00410209305932
 51
358.91264455492478
  0
LINE
  5
475E
  8
YODOROGO
 10
31589.604341291921
 20
1427.749496429288
 30
0.0
 11
31653.604341291921
 21
1427.749496429288
 31
0.0
  0
LINE
  5
475F
  8
YODOROGO
 10
31533.60434129191
 20
1811.7494964292871
 30
0.0
 11
31589.604341291921
 21
1811.7494964292871
 31
0.0
  0
LINE
  5
4760
  8
YODOROGO
 10
31621.604341291939
 20
1987.7494964292871
 30
0.0
 11
31461.60434129191
 21
1987.7494964292871
 31
0.0
  0
LINE
  5
4761
  8
YODOROGO
 10
31533.60434129191
 20
1915.7494964292871
 30
0.0
 11
31661.604341291939
 21
1915.7494964292871
 31
0.0
  0
LINE
  5
4762
  8
YODOROGO
 10
31701.604341291939
 20
1875.7494964292871
 30
0.0
 11
31533.60434129191
 21
1875.7494964292871
 31
0.0
  0
LINE
  5
4763
  8
YODOROGO
 10
31237.604341291921
 20
1779.7494964292871
 30
0.0
 11
31349.604341291939
 21
1779.7494964292871
 31
0.0
  0
LINE
  5
4764
  8
YODOROGO
 10
31237.604341291921
 20
1835.7494964292871
 30
0.0
 11
31237.604341291921
 21
1779.7494964292871
 31
0.0
  0
LINE
  5
4765
  8
YODOROGO
 10
31349.604341291939
 20
1835.7494964292871
 30
0.0
 11
31237.604341291921
 21
1835.7494964292871
 31
0.0
  0
LINE
  5
4766
  8
YODOROGO
 10
31349.604341291939
 20
1779.7494964292871
 30
0.0
 11
31349.604341291939
 21
1835.7494964292871
 31
0.0
  0
LINE
  5
4767
  8
YODOROGO
 10
31533.60434129191
 20
1875.7494964292871
 30
0.0
 11
31533.60434129191
 21
1915.7494964292871
 31
0.0
  0
LINE
  5
4768
  8
YODOROGO
 10
31413.604341291921
 20
1707.749496429288
 30
0.0
 11
31413.604341291921
 21
1907.7494964292871
 31
0.0
  0
LINE
  5
4769
  8
YODOROGO
 10
31237.604341291921
 20
1707.749496429288
 30
0.0
 11
31413.604341291921
 21
1707.749496429288
 31
0.0
  0
LINE
  5
476A
  8
YODOROGO
 10
31413.604341291921
 20
1963.749496429286
 30
0.0
 11
31413.604341291921
 21
2027.749496429288
 31
0.0
  0
ARC
  5
476B
  8
YODOROGO
 10
31621.604341291939
 20
2003.749496429285
 30
0.0
 40
15.999999999994539
 50
270.0
 51
0.0000000000081422
  0
LINE
  5
476C
  8
YODOROGO
 10
31637.604341291921
 20
2027.749496429288
 30
0.0
 11
31637.604341291921
 21
2003.7494964292871
 31
0.0
  0
LINE
  5
476D
  8
YODOROGO
 10
31701.604341291939
 20
2027.749496429288
 30
0.0
 11
31637.604341291921
 21
2027.749496429288
 31
0.0
  0
LINE
  5
476E
  8
YODOROGO
 10
31701.604341291939
 20
1955.7494964292871
 30
0.0
 11
31701.604341291939
 21
2027.749496429288
 31
0.0
  0
ARC
  5
476F
  8
YODOROGO
 10
31661.604341291939
 20
1955.7494964292871
 30
0.0
 40
40.0
 50
270.0
 51
0.0
  0
LINE
  5
4770
  8
YODOROGO
 10
31701.604341291939
 20
1811.7494964292871
 30
0.0
 11
31701.604341291939
 21
1875.7494964292871
 31
0.0
  0
LINE
  5
4771
  8
YODOROGO
 10
31653.60434129191
 20
1811.7494964292871
 30
0.0
 11
31701.604341291939
 21
1811.7494964292871
 31
0.0
  0
LINE
  5
4772
  8
SUNPOU
  6
CONTINUOUS
 62
     4
 10
25606.04415499997
 20
14915.66004375
 30
0.0
 11
26656.045474999992
 21
14915.66004375
 31
0.0
  0
LINE
  5
4773
  8
SUNPOU
  6
CONTINUOUS
 62
     4
 10
26456.045474999992
 20
14508.16004375
 30
0.0
 11
26656.045474999992
 21
14508.16004375
 31
0.0
  0
LINE
  5
4774
  8
SUNPOU
  6
CONTINUOUS
 62
     4
 10
26576.045474999992
 20
14915.66004375
 30
0.0
 11
26576.045474999992
 21
14508.16004375
 31
0.0
  0
LINE
  5
4778
  8
SUNPOU
  6
CONTINUOUS
 62
     4
 10
7855.0950399999892
 20
19945.539656000001
 30
0.0
 11
7855.0950399999892
 21
20495.544935000002
 31
0.0
  0
LINE
  5
4779
  8
SUNPOU
  6
CONTINUOUS
 62
     4
 10
7940.5950399999901
 20
20415.544935000002
 30
0.0
 11
8180.5950399999911
 21
20415.544935000002
 31
0.0
  0
LINE
  5
477A
  8
SUNPOU
  6
CONTINUOUS
 62
     4
 10
7858.0950399999874
 20
20415.544935000002
 30
0.0
 11
7618.0950399999901
 21
20415.544935000002
 31
0.0
  0
LINE
  5
477B
  8
SUNPOU
  6
CONTINUOUS
 62
     4
 10
7940.5950399999901
 20
20415.544935000002
 30
0.0
 11
7858.0950399999874
 21
20415.544935000002
 31
0.0
  0
LINE
  5
477C
  8
SUNPOU
  6
CONTINUOUS
 62
     4
 10
11209.09503999998
 20
20415.544935000002
 30
0.0
 11
7940.5950399999901
 21
20415.544935000002
 31
0.0
  0
LINE
  5
477D
  8
SUNPOU
  6
CONTINUOUS
 62
     4
 10
14563.083163999951
 20
19945.539656000001
 30
0.0
 11
14563.083163999951
 21
20495.544935000002
 31
0.0
  0
LINE
  5
477E
  8
SUNPOU
  6
CONTINUOUS
 62
     4
 10
14477.583163999951
 20
20415.544935000002
 30
0.0
 11
14237.583163999951
 21
20415.544935000002
 31
0.0
  0
LINE
  5
477F
  8
SUNPOU
  6
CONTINUOUS
 62
     4
 10
14560.083163999951
 20
20415.544935000002
 30
0.0
 11
14800.083163999951
 21
20415.544935000002
 31
0.0
  0
LINE
  5
4780
  8
SUNPOU
  6
CONTINUOUS
 62
     4
 10
14477.583163999951
 20
20415.544935000002
 30
0.0
 11
14560.083163999951
 21
20415.544935000002
 31
0.0
  0
LINE
  5
4781
  8
SUNPOU
  6
CONTINUOUS
 62
     4
 10
11209.083163999951
 20
20415.544935000002
 30
0.0
 11
14477.583163999951
 21
20415.544935000002
 31
0.0
  0
LINE
  5
4782
  8
SUNPOU
  6
CONTINUOUS
 62
     4
 10
7778.0847469999762
 20
19845.535697000021
 30
0.0
 11
7331.0893259999739
 21
19845.535697000021
 31
0.0
  0
LINE
  5
4783
  8
SUNPOU
  6
CONTINUOUS
 62
     4
 10
7778.0891019999726
 20
19865.53569700001
 30
0.0
 11
7331.0893259999739
 21
19865.53569700001
 31
0.0
  0
LINE
  5
4785
  8
SUNPOU
  6
CONTINUOUS
 62
     4
 10
7411.0893259999739
 20
19865.53569700001
 30
0.0
 11
7411.0893259999739
 21
20105.535697000021
 31
0.0
  0
LINE
  5
4786
  8
SUNPOU
  6
CONTINUOUS
 62
     4
 10
7411.0893259999739
 20
19825.535697000021
 30
0.0
 11
7411.0893259999739
 21
19865.53569700001
 31
0.0
  0
LINE
  5
4787
  8
SUNPOU
  6
CONTINUOUS
 62
     4
 10
7778.0891019999726
 20
19865.53569700001
 30
0.0
 11
6931.0893259999757
 21
19865.53569700001
 31
0.0
  0
LINE
  5
4788
  8
SUNPOU
  6
CONTINUOUS
 62
     4
 10
7011.0893259999748
 20
19643.039787999991
 30
0.0
 11
7011.0893259999748
 21
19403.039787999991
 31
0.0
  0
LINE
  5
4789
  8
SUNPOU
  6
CONTINUOUS
 62
     4
 10
7011.0893259999748
 20
19865.53569700001
 30
0.0
 11
7011.0893259999748
 21
20105.535697000021
 31
0.0
  0
LINE
  5
478A
  8
SUNPOU
  6
CONTINUOUS
 62
     4
 10
7011.0893259999748
 20
19643.039787999991
 30
0.0
 11
7011.0893259999748
 21
19865.53569700001
 31
0.0
  0
LINE
  5
478B
  8
SUNPOU
  6
CONTINUOUS
 62
     4
 10
7641.788458999973
 20
18534.539787999998
 30
0.0
 11
6931.0893259999757
 21
18534.539787999998
 31
0.0
  0
LINE
  5
478C
  8
SUNPOU
  6
CONTINUOUS
 62
     4
 10
7011.0893259999748
 20
18534.539787999998
 30
0.0
 11
7011.0893259999748
 21
19643.039787999991
 31
0.0
  0
LINE
  5
478D
  8
SUNPOU
  6
CONTINUOUS
 62
     4
 10
7641.788458999973
 20
18534.539787999998
 30
0.0
 11
6931.0893259999757
 21
18534.539787999998
 31
0.0
  0
LINE
  5
478E
  8
SUNPOU
  6
CONTINUOUS
 62
     4
 10
7011.0893259999748
 20
17075.53978799998
 30
0.0
 11
7011.0893259999748
 21
18534.539787999998
 31
0.0
  0
LINE
  5
478F
  8
SUNPOU
  6
CONTINUOUS
 62
     4
 10
7641.788458999973
 20
15616.539788
 30
0.0
 11
6931.0893259999757
 21
15616.539788
 31
0.0
  0
LINE
  5
4790
  8
SUNPOU
  6
CONTINUOUS
 62
     4
 10
7011.0893259999748
 20
15616.539788
 30
0.0
 11
7011.0893259999748
 21
17075.53978799998
 31
0.0
  0
LINE
  5
4791
  8
SUNPOU
  6
CONTINUOUS
 62
     4
 10
7641.788458999973
 20
15616.539788
 30
0.0
 11
6931.0893259999757
 21
15616.539788
 31
0.0
  0
LINE
  5
4792
  8
SUNPOU
  6
CONTINUOUS
 62
     4
 10
7011.0893259999748
 20
14508.039787999989
 30
0.0
 11
7011.0893259999748
 21
15616.539788
 31
0.0
  0
LINE
  5
4793
  8
SUNPOU
  6
CONTINUOUS
 62
     4
 10
7778.0847469999762
 20
14315.544472999991
 30
0.0
 11
6931.0893259999757
 21
14315.544472999991
 31
0.0
  0
LINE
  5
4794
  8
SUNPOU
  6
CONTINUOUS
 62
     4
 10
7011.0893259999766
 20
14508.039787999989
 30
0.0
 11
7011.0893259999766
 21
14748.03978799998
 31
0.0
  0
LINE
  5
4795
  8
SUNPOU
  6
CONTINUOUS
 62
     4
 10
7011.0893259999748
 20
14315.544472999991
 30
0.0
 11
7011.0893259999748
 21
14075.544472999991
 31
0.0
  0
LINE
  5
4796
  8
SUNPOU
  6
CONTINUOUS
 62
     4
 10
7011.0893259999766
 20
14508.039787999989
 30
0.0
 11
7011.0893259999748
 21
14315.544472999991
 31
0.0
  0
LINE
  5
4797
  8
SUNPOU
  6
CONTINUOUS
 62
     4
 10
25606.04415499997
 20
19235.539787999998
 30
0.0
 11
26656.045474999992
 21
19235.539787999998
 31
0.0
  0
LINE
  5
4798
  8
SUNPOU
  6
CONTINUOUS
 62
     4
 10
26456.045474999992
 20
19643.039787999991
 30
0.0
 11
26656.045474999992
 21
19643.039787999991
 31
0.0
  0
LINE
  5
4799
  8
SUNPOU
  6
CONTINUOUS
 62
     4
 10
26576.045474999992
 20
19235.539787999998
 30
0.0
 11
26576.045474999992
 21
19643.039787999991
 31
0.0
  0
LINE
  5
479A
  8
SUNPOU
  6
CONTINUOUS
 62
     4
 10
18824.049565999969
 20
18534.539787999998
 30
0.0
 11
17937.09129399998
 21
18534.539787999998
 31
0.0
  0
LINE
  5
479B
  8
SUNPOU
  6
CONTINUOUS
 62
     4
 10
18017.091293999969
 20
18534.539787999998
 30
0.0
 11
18017.091293999969
 21
19643.039787999991
 31
0.0
  0
LINE
  5
479C
  8
SUNPOU
  6
CONTINUOUS
 62
     4
 10
18824.049565999969
 20
18534.539787999998
 30
0.0
 11
17937.09129399998
 21
18534.539787999998
 31
0.0
  0
LINE
  5
479D
  8
SUNPOU
  6
CONTINUOUS
 62
     4
 10
18017.091293999969
 20
17075.53978799998
 30
0.0
 11
18017.091293999969
 21
18534.539787999998
 31
0.0
  0
LINE
  5
479E
  8
SUNPOU
  6
CONTINUOUS
 62
     4
 10
18824.049565999969
 20
15616.7802995
 30
0.0
 11
17937.09129399998
 21
15616.7802995
 31
0.0
  0
LINE
  5
479F
  8
SUNPOU
  6
CONTINUOUS
 62
     4
 10
18017.091293999969
 20
15616.7802995
 30
0.0
 11
18017.091293999969
 21
17075.53978799998
 31
0.0
  0
LINE
  5
47A0
  8
SUNPOU
  6
CONTINUOUS
 62
     4
 10
18824.049565999969
 20
15616.7802995
 30
0.0
 11
17937.09129399998
 21
15616.7802995
 31
0.0
  0
LINE
  5
47A1
  8
SUNPOU
  6
CONTINUOUS
 62
     4
 10
18017.091293999969
 20
14508.039787999989
 30
0.0
 11
18017.091293999969
 21
15616.7802995
 31
0.0
  0
LINE
  5
47A2
  8
SUNPOU
  6
CONTINUOUS
 62
     4
 10
18946.54587099998
 20
13802.276354
 30
0.0
 11
18946.54587099998
 21
13456.591703999989
 31
0.0
  0
LINE
  5
47A3
  8
SUNPOU
  6
CONTINUOUS
 62
     4
 10
18904.043627999981
 20
14385.542493000001
 30
0.0
 11
18904.043627999981
 21
13456.591703999989
 31
0.0
  0
LINE
  5
47A4
  8
SUNPOU
  6
CONTINUOUS
 62
     4
 10
18946.54587099998
 20
13536.59170399998
 30
0.0
 11
19186.54587099998
 21
13536.59170399998
 31
0.0
  0
LINE
  5
47A5
  8
SUNPOU
  6
CONTINUOUS
 62
     4
 10
18904.043627999981
 20
13536.59170399998
 30
0.0
 11
18664.043627999981
 21
13536.59170399998
 31
0.0
  0
LINE
  5
47A6
  8
SUNPOU
  6
CONTINUOUS
 62
     4
 10
18946.54587099998
 20
13536.59170399998
 30
0.0
 11
18904.043627999981
 21
13536.59170399998
 31
0.0
  0
LINE
  5
47A7
  8
SUNPOU
  6
CONTINUOUS
 62
     4
 10
25483.54587099998
 20
13802.276354
 30
0.0
 11
25483.54587099998
 21
13456.591703999989
 31
0.0
  0
LINE
  5
47A8
  8
SUNPOU
  6
CONTINUOUS
 62
     4
 10
25526.048113999968
 20
14385.542493000001
 30
0.0
 11
25526.048113999968
 21
13456.591703999989
 31
0.0
  0
LINE
  5
47A9
  8
SUNPOU
  6
CONTINUOUS
 62
     4
 10
25483.54587099998
 20
13536.59170399998
 30
0.0
 11
25243.54587099998
 21
13536.59170399998
 31
0.0
  0
LINE
  5
47AA
  8
SUNPOU
  6
CONTINUOUS
 62
     4
 10
25526.048113999968
 20
13536.59170399998
 30
0.0
 11
25766.048113999968
 21
13536.59170399998
 31
0.0
  0
LINE
  5
47AB
  8
SUNPOU
  6
CONTINUOUS
 62
     4
 10
25483.54587099998
 20
13536.59170399998
 30
0.0
 11
25526.048113999968
 21
13536.59170399998
 31
0.0
  0
LINE
  5
47AC
  8
2-0
  6
CONTINUOUS
 62
     3
 10
22172.54587099998
 20
14465.539788
 30
0.0
 11
22257.54587099998
 21
14465.539788
 31
0.0
  0
LINE
  5
47AD
  8
2-0
  6
CONTINUOUS
 62
     3
 10
22257.54587099998
 20
14465.539788
 30
0.0
 11
22257.54587099998
 21
14550.539788
 31
0.0
  0
LINE
  5
47AE
  8
2-0
  6
CONTINUOUS
 62
     3
 10
22257.54587099998
 20
14550.539788
 30
0.0
 11
22172.54587099998
 21
14550.539788
 31
0.0
  0
LINE
  5
47AF
  8
2-0
  6
CONTINUOUS
 62
     3
 10
22172.54587099998
 20
14550.539788
 30
0.0
 11
22172.54587099998
 21
14465.539788
 31
0.0
  0
LINE
  5
47B0
  8
SUNPOU
  6
CONTINUOUS
 62
     4
 10
25483.54587099998
 20
13802.276354
 30
0.0
 11
25483.54587099998
 21
13456.591703999989
 31
0.0
  0
LINE
  5
47B1
  8
SUNPOU
  6
CONTINUOUS
 62
     4
 10
25441.043627999981
 20
14385.542493000001
 30
0.0
 11
25441.043627999981
 21
13456.591703999989
 31
0.0
  0
LINE
  5
47B2
  8
SUNPOU
  6
CONTINUOUS
 62
     4
 10
25483.54587099998
 20
13536.59170399998
 30
0.0
 11
25723.54587099998
 21
13536.59170399998
 31
0.0
  0
LINE
  5
47B3
  8
SUNPOU
  6
CONTINUOUS
 62
     4
 10
25441.043627999981
 20
13536.59170399998
 30
0.0
 11
25201.043627999981
 21
13536.59170399998
 31
0.0
  0
LINE
  5
47B4
  8
SUNPOU
  6
CONTINUOUS
 62
     4
 10
25483.54587099998
 20
13536.59170399998
 30
0.0
 11
25441.043627999981
 21
13536.59170399998
 31
0.0
  0
LINE
  5
47B5
  8
SUNPOU
  6
CONTINUOUS
 62
     4
 10
18946.54587099998
 20
13802.276354
 30
0.0
 11
18946.54587099998
 21
13456.591703999989
 31
0.0
  0
LINE
  5
47B6
  8
SUNPOU
  6
CONTINUOUS
 62
     4
 10
18989.048113999961
 20
14385.542493000001
 30
0.0
 11
18989.048113999961
 21
13456.591703999989
 31
0.0
  0
LINE
  5
47B7
  8
SUNPOU
  6
CONTINUOUS
 62
     4
 10
18946.54587099998
 20
13536.59170399998
 30
0.0
 11
18706.54587099998
 21
13536.59170399998
 31
0.0
  0
LINE
  5
47B8
  8
SUNPOU
  6
CONTINUOUS
 62
     4
 10
18989.048113999961
 20
13536.59170399998
 30
0.0
 11
19229.048113999961
 21
13536.59170399998
 31
0.0
  0
LINE
  5
47B9
  8
SUNPOU
  6
CONTINUOUS
 62
     4
 10
18946.54587099998
 20
13536.59170399998
 30
0.0
 11
18989.048113999961
 21
13536.59170399998
 31
0.0
  0
LINE
  5
47BA
  8
SUNPOU
  6
CONTINUOUS
 62
     4
 10
18904.043627999981
 20
14385.542493000001
 30
0.0
 11
18904.043627999981
 21
13056.591704
 31
0.0
  0
LINE
  5
47BB
  8
SUNPOU
  6
CONTINUOUS
 62
     4
 10
25526.048113999968
 20
14385.542493000001
 30
0.0
 11
25526.048113999968
 21
13056.591704
 31
0.0
  0
LINE
  5
47BC
  8
SUNPOU
  6
CONTINUOUS
 62
     4
 10
18904.043627999981
 20
13136.591704
 30
0.0
 11
25526.048113999968
 21
13136.591704
 31
0.0
  0
LINE
  5
47BD
  8
SUNPOU
  6
CONTINUOUS
 62
     4
 10
25606.044154999981
 20
15616.7802995
 30
0.0
 11
26656.045474999992
 21
15616.7802995
 31
0.0
  0
LINE
  5
47BE
  8
SUNPOU
  6
CONTINUOUS
 62
     4
 10
25606.044154999981
 20
14915.539788
 30
0.0
 11
26656.045474999992
 21
14915.539788
 31
0.0
  0
LINE
  5
47BF
  8
SUNPOU
  6
CONTINUOUS
 62
     4
 10
26576.045474999992
 20
15616.7802995
 30
0.0
 11
26576.045474999992
 21
14915.539788
 31
0.0
  0
LINE
  5
47C0
  8
SUNPOU
  6
CONTINUOUS
 62
     4
 10
25606.044154999981
 20
16317.539788
 30
0.0
 11
26656.045474999992
 21
16317.539788
 31
0.0
  0
LINE
  5
47C1
  8
SUNPOU
  6
CONTINUOUS
 62
     4
 10
25606.044154999981
 20
15616.7802995
 30
0.0
 11
26656.045474999992
 21
15616.7802995
 31
0.0
  0
LINE
  5
47C2
  8
SUNPOU
  6
CONTINUOUS
 62
     4
 10
26576.045474999992
 20
16317.539788
 30
0.0
 11
26576.045474999992
 21
15616.7802995
 31
0.0
  0
LINE
  5
47C3
  8
SUNPOU
  6
CONTINUOUS
 62
     4
 10
26456.045474999992
 20
17075.53978799998
 30
0.0
 11
26656.045474999992
 21
17075.53978799998
 31
0.0
  0
LINE
  5
47C4
  8
SUNPOU
  6
CONTINUOUS
 62
     4
 10
25606.044154999981
 20
16317.539788
 30
0.0
 11
26656.045474999992
 21
16317.539788
 31
0.0
  0
LINE
  5
47C5
  8
SUNPOU
  6
CONTINUOUS
 62
     4
 10
26576.045474999992
 20
17075.53978799998
 30
0.0
 11
26576.045474999992
 21
16317.539788
 31
0.0
  0
LINE
  5
47C6
  8
SUNPOU
  6
CONTINUOUS
 62
     4
 10
25606.044154999981
 20
17833.539787999991
 30
0.0
 11
26656.045474999992
 21
17833.539787999991
 31
0.0
  0
LINE
  5
47C7
  8
SUNPOU
  6
CONTINUOUS
 62
     4
 10
26456.045474999992
 20
17075.53978799998
 30
0.0
 11
26656.045474999992
 21
17075.53978799998
 31
0.0
  0
LINE
  5
47C8
  8
SUNPOU
  6
CONTINUOUS
 62
     4
 10
26576.045474999992
 20
17833.539787999991
 30
0.0
 11
26576.045474999992
 21
17075.53978799998
 31
0.0
  0
LINE
  5
47C9
  8
SUNPOU
  6
CONTINUOUS
 62
     4
 10
25606.044154999981
 20
18534.539787999998
 30
0.0
 11
26656.045474999992
 21
18534.539787999998
 31
0.0
  0
LINE
  5
47CA
  8
SUNPOU
  6
CONTINUOUS
 62
     4
 10
25606.044154999981
 20
17833.539787999991
 30
0.0
 11
26656.045474999992
 21
17833.539787999991
 31
0.0
  0
LINE
  5
47CB
  8
SUNPOU
  6
CONTINUOUS
 62
     4
 10
26576.045474999992
 20
18534.539787999998
 30
0.0
 11
26576.045474999992
 21
17833.539787999991
 31
0.0
  0
LINE
  5
47CC
  8
SUNPOU
  6
CONTINUOUS
 62
     4
 10
25606.044154999981
 20
19235.539787999998
 30
0.0
 11
26656.045474999992
 21
19235.539787999998
 31
0.0
  0
LINE
  5
47CD
  8
SUNPOU
  6
CONTINUOUS
 62
     4
 10
25606.044154999981
 20
18534.539787999998
 30
0.0
 11
26656.045474999992
 21
18534.539787999998
 31
0.0
  0
LINE
  5
47CE
  8
SUNPOU
  6
CONTINUOUS
 62
     4
 10
26576.045474999992
 20
19235.539787999998
 30
0.0
 11
26576.045474999992
 21
18534.539787999998
 31
0.0
  0
LINE
  5
47CF
  8
SUNPOU
  6
CONTINUOUS
 62
     4
 10
26456.045474999992
 20
17075.53978799998
 30
0.0
 11
27056.045474999992
 21
17075.53978799998
 31
0.0
  0
LINE
  5
47D0
  8
SUNPOU
  6
CONTINUOUS
 62
     4
 10
26456.045474999992
 20
19643.039787999991
 30
0.0
 11
27056.045474999992
 21
19643.039787999991
 31
0.0
  0
LINE
  5
47D1
  8
SUNPOU
  6
CONTINUOUS
 62
     4
 10
26976.045474999992
 20
17075.53978799998
 30
0.0
 11
26976.045474999992
 21
19643.039787999991
 31
0.0
  0
LINE
  5
47D2
  8
SUNPOU
  6
CONTINUOUS
 62
     4
 10
26456.045474999992
 20
14508.039787999989
 30
0.0
 11
27056.045474999992
 21
14508.039787999989
 31
0.0
  0
LINE
  5
47D3
  8
SUNPOU
  6
CONTINUOUS
 62
     4
 10
26456.045474999992
 20
17075.53978799998
 30
0.0
 11
27056.045474999992
 21
17075.53978799998
 31
0.0
  0
LINE
  5
47D4
  8
SUNPOU
  6
CONTINUOUS
 62
     4
 10
26976.045474999992
 20
14508.039787999989
 30
0.0
 11
26976.045474999992
 21
17075.53978799998
 31
0.0
  0
LINE
  5
47D5
  8
SUNPOU
  6
CONTINUOUS
 62
     4
 10
25606.044154999981
 20
19685.537082999988
 30
0.0
 11
27456.045474999981
 21
19685.537082999988
 31
0.0
  0
LINE
  5
47D6
  8
SUNPOU
  6
CONTINUOUS
 62
     4
 10
25606.044154999981
 20
14465.542493000001
 30
0.0
 11
27456.045474999981
 21
14465.542493000001
 31
0.0
  0
LINE
  5
47D7
  8
SUNPOU
  6
CONTINUOUS
 62
     4
 10
27376.045474999981
 20
19685.537082999988
 30
0.0
 11
27376.045474999981
 21
14465.542493000001
 31
0.0
  0
LINE
  5
47D8
  8
SUNPOU
  6
CONTINUOUS
 62
     4
 10
26456.045474999992
 20
19643.039787999991
 30
0.0
 11
27056.045474999992
 21
19643.039787999991
 31
0.0
  0
LINE
  5
47D9
  8
SUNPOU
  6
CONTINUOUS
 62
     4
 10
25606.044154999981
 20
19685.537082999988
 30
0.0
 11
27056.045474999992
 21
19685.537082999988
 31
0.0
  0
LINE
  5
47DA
  8
SUNPOU
  6
CONTINUOUS
 62
     4
 10
26976.045474999992
 20
19643.039787999991
 30
0.0
 11
26976.045474999992
 21
19403.039787999991
 31
0.0
  0
LINE
  5
47DB
  8
SUNPOU
  6
CONTINUOUS
 62
     4
 10
26976.045474999992
 20
19685.537082999988
 30
0.0
 11
26976.045474999992
 21
19925.537082999999
 31
0.0
  0
LINE
  5
47DC
  8
SUNPOU
  6
CONTINUOUS
 62
     4
 10
26976.045474999992
 20
19643.039787999991
 30
0.0
 11
26976.045474999992
 21
19685.537082999988
 31
0.0
  0
LINE
  5
47DD
  8
SUNPOU
  6
CONTINUOUS
 62
     4
 10
26456.045474999992
 20
14508.039787999989
 30
0.0
 11
27056.045474999992
 21
14508.039787999989
 31
0.0
  0
LINE
  5
47DE
  8
SUNPOU
  6
CONTINUOUS
 62
     4
 10
25606.044154999981
 20
14465.542493000001
 30
0.0
 11
27056.045474999992
 21
14465.542493000001
 31
0.0
  0
LINE
  5
47DF
  8
SUNPOU
  6
CONTINUOUS
 62
     4
 10
26976.045474999992
 20
14508.039787999989
 30
0.0
 11
26976.045474999992
 21
14748.03978799998
 31
0.0
  0
LINE
  5
47E0
  8
SUNPOU
  6
CONTINUOUS
 62
     4
 10
26976.045474999992
 20
14465.542493000001
 30
0.0
 11
26976.045474999992
 21
14225.542493000001
 31
0.0
  0
LINE
  5
47E1
  8
SUNPOU
  6
CONTINUOUS
 62
     4
 10
26976.045474999992
 20
14508.039787999989
 30
0.0
 11
26976.045474999992
 21
14465.542493000001
 31
0.0
  0
LINE
  5
47E2
  8
SUNPOU
  6
CONTINUOUS
 62
     4
 10
22215.04587099998
 20
19765.538073000022
 30
0.0
 11
22215.04587099998
 21
20495.540976000011
 31
0.0
  0
LINE
  5
47E3
  8
SUNPOU
  6
CONTINUOUS
 62
     4
 10
22622.545870999969
 20
19765.538073000022
 30
0.0
 11
22622.545870999969
 21
20495.540976000011
 31
0.0
  0
LINE
  5
47E4
  8
SUNPOU
  6
CONTINUOUS
 62
     4
 10
22215.04587099998
 20
20415.540976000011
 30
0.0
 11
21975.04587099998
 21
20415.540976000011
 31
0.0
  0
LINE
  5
47E5
  8
SUNPOU
  6
CONTINUOUS
 62
     4
 10
22622.545870999969
 20
20415.540976000011
 30
0.0
 11
22862.545870999969
 21
20415.540976000011
 31
0.0
  0
LINE
  5
47E6
  8
SUNPOU
  6
CONTINUOUS
 62
     4
 10
22215.04587099998
 20
20415.540976000011
 30
0.0
 11
22622.545870999969
 21
20415.540976000011
 31
0.0
  0
LINE
  5
47E7
  8
SUNPOU
  6
CONTINUOUS
 62
     4
 10
24725.54587099998
 20
19765.538073000022
 30
0.0
 11
24725.54587099998
 21
20495.540976000011
 31
0.0
  0
LINE
  5
47E8
  8
SUNPOU
  6
CONTINUOUS
 62
     4
 10
25483.546860499991
 20
19765.538073000022
 30
0.0
 11
25483.546860499991
 21
20495.540976000011
 31
0.0
  0
LINE
  5
47E9
  8
SUNPOU
  6
CONTINUOUS
 62
     4
 10
24725.54587099998
 20
20415.540976000011
 30
0.0
 11
25483.546860499991
 21
20415.540976000011
 31
0.0
  0
LINE
  5
47EA
  8
SUNPOU
  6
CONTINUOUS
 62
     4
 10
24024.54587099998
 20
19765.538073000022
 30
0.0
 11
24024.54587099998
 21
20495.540976000011
 31
0.0
  0
LINE
  5
47EB
  8
SUNPOU
  6
CONTINUOUS
 62
     4
 10
24725.54587099998
 20
19765.538073000022
 30
0.0
 11
24725.54587099998
 21
20495.540976000011
 31
0.0
  0
LINE
  5
47EC
  8
SUNPOU
  6
CONTINUOUS
 62
     4
 10
24024.54587099998
 20
20415.540976000011
 30
0.0
 11
24725.54587099998
 21
20415.540976000011
 31
0.0
  0
LINE
  5
47ED
  8
SUNPOU
  6
CONTINUOUS
 62
     4
 10
23323.545870999969
 20
19765.538073000022
 30
0.0
 11
23323.545870999969
 21
20495.540976000011
 31
0.0
  0
LINE
  5
47EE
  8
SUNPOU
  6
CONTINUOUS
 62
     4
 10
24024.54587099998
 20
19765.538073000022
 30
0.0
 11
24024.54587099998
 21
20495.540976000011
 31
0.0
  0
LINE
  5
47EF
  8
SUNPOU
  6
CONTINUOUS
 62
     4
 10
23323.545870999969
 20
20415.540976000011
 30
0.0
 11
24024.54587099998
 21
20415.540976000011
 31
0.0
  0
LINE
  5
47F0
  8
SUNPOU
  6
CONTINUOUS
 62
     4
 10
22622.545870999969
 20
19765.538073000022
 30
0.0
 11
22622.545870999969
 21
20495.540976000011
 31
0.0
  0
LINE
  5
47F1
  8
SUNPOU
  6
CONTINUOUS
 62
     4
 10
23323.545870999969
 20
19765.538073000022
 30
0.0
 11
23323.545870999969
 21
20495.540976000011
 31
0.0
  0
LINE
  5
47F2
  8
SUNPOU
  6
CONTINUOUS
 62
     4
 10
22622.545870999969
 20
20415.540976000011
 30
0.0
 11
23323.545870999969
 21
20415.540976000011
 31
0.0
  0
LINE
  5
47F3
  8
SUNPOU
  6
CONTINUOUS
 62
     4
 10
25483.54587099998
 20
19765.538073000022
 30
0.0
 11
25483.54587099998
 21
20495.540976000011
 31
0.0
  0
LINE
  5
47F4
  8
SUNPOU
  6
CONTINUOUS
 62
     4
 10
25526.042175999981
 20
19765.538073000022
 30
0.0
 11
25526.042175999981
 21
20495.540976000011
 31
0.0
  0
LINE
  5
47F5
  8
SUNPOU
  6
CONTINUOUS
 62
     4
 10
25483.54587099998
 20
20415.540976000011
 30
0.0
 11
25243.54587099998
 21
20415.540976000011
 31
0.0
  0
LINE
  5
47F6
  8
SUNPOU
  6
CONTINUOUS
 62
     4
 10
25526.042175999981
 20
20415.540976000011
 30
0.0
 11
25766.042175999981
 21
20415.540976000011
 31
0.0
  0
LINE
  5
47F7
  8
SUNPOU
  6
CONTINUOUS
 62
     4
 10
25483.54587099998
 20
20415.540976000011
 30
0.0
 11
25526.042175999981
 21
20415.540976000011
 31
0.0
  0
LINE
  5
47F8
  8
SUNPOU
  6
CONTINUOUS
 62
     4
 10
18946.54587099998
 20
19765.538073000022
 30
0.0
 11
18946.54587099998
 21
20495.540976000011
 31
0.0
  0
LINE
  5
47F9
  8
SUNPOU
  6
CONTINUOUS
 62
     4
 10
19354.04587099998
 20
19765.538073000022
 30
0.0
 11
19354.04587099998
 21
20495.540976000011
 31
0.0
  0
LINE
  5
47FA
  8
SUNPOU
  6
CONTINUOUS
 62
     4
 10
18946.54587099998
 20
20415.540976000011
 30
0.0
 11
18706.54587099998
 21
20415.540976000011
 31
0.0
  0
LINE
  5
47FB
  8
SUNPOU
  6
CONTINUOUS
 62
     4
 10
19354.04587099998
 20
20415.540976000011
 30
0.0
 11
19594.04587099998
 21
20415.540976000011
 31
0.0
  0
LINE
  5
47FC
  8
SUNPOU
  6
CONTINUOUS
 62
     4
 10
18946.54587099998
 20
20415.540976000011
 30
0.0
 11
19354.04587099998
 21
20415.540976000011
 31
0.0
  0
LINE
  5
47FD
  8
SUNPOU
  6
CONTINUOUS
 62
     4
 10
18946.54587099998
 20
19765.538073000022
 30
0.0
 11
18946.54587099998
 21
20495.540976000011
 31
0.0
  0
LINE
  5
47FE
  8
SUNPOU
  6
CONTINUOUS
 62
     4
 10
18904.049565999969
 20
19765.538073000022
 30
0.0
 11
18904.049565999969
 21
20495.540976000011
 31
0.0
  0
LINE
  5
47FF
  8
SUNPOU
  6
CONTINUOUS
 62
     4
 10
18946.54587099998
 20
20415.540976000011
 30
0.0
 11
19186.54587099998
 21
20415.540976000011
 31
0.0
  0
LINE
  5
4800
  8
SUNPOU
  6
CONTINUOUS
 62
     4
 10
18904.049565999969
 20
20415.540976000011
 30
0.0
 11
18664.049565999969
 21
20415.540976000011
 31
0.0
  0
LINE
  5
4801
  8
SUNPOU
  6
CONTINUOUS
 62
     4
 10
18946.54587099998
 20
20415.540976000011
 30
0.0
 11
18904.049565999969
 21
20415.540976000011
 31
0.0
  0
LINE
  5
4802
  8
SUNPOU
  6
CONTINUOUS
 62
     4
 10
21457.04587099998
 20
19765.538073000022
 30
0.0
 11
21457.04587099998
 21
20495.540976000011
 31
0.0
  0
LINE
  5
4803
  8
SUNPOU
  6
CONTINUOUS
 62
     4
 10
22215.046860499991
 20
19765.538073000022
 30
0.0
 11
22215.046860499991
 21
20495.540976000011
 31
0.0
  0
LINE
  5
4804
  8
SUNPOU
  6
CONTINUOUS
 62
     4
 10
21457.04587099998
 20
20415.540976000011
 30
0.0
 11
22215.046860499991
 21
20415.540976000011
 31
0.0
  0
LINE
  5
4805
  8
SUNPOU
  6
CONTINUOUS
 62
     4
 10
20756.04587099998
 20
19765.538073000022
 30
0.0
 11
20756.04587099998
 21
20495.540976000011
 31
0.0
  0
LINE
  5
4806
  8
SUNPOU
  6
CONTINUOUS
 62
     4
 10
21457.04587099998
 20
19765.538073000022
 30
0.0
 11
21457.04587099998
 21
20495.540976000011
 31
0.0
  0
LINE
  5
4807
  8
SUNPOU
  6
CONTINUOUS
 62
     4
 10
20756.04587099998
 20
20415.540976000011
 30
0.0
 11
21457.04587099998
 21
20415.540976000011
 31
0.0
  0
LINE
  5
4808
  8
SUNPOU
  6
CONTINUOUS
 62
     4
 10
20055.04587099998
 20
19765.538073000022
 30
0.0
 11
20055.04587099998
 21
20495.540976000011
 31
0.0
  0
LINE
  5
4809
  8
SUNPOU
  6
CONTINUOUS
 62
     4
 10
20756.04587099998
 20
19765.538073000022
 30
0.0
 11
20756.04587099998
 21
20495.540976000011
 31
0.0
  0
LINE
  5
480A
  8
SUNPOU
  6
CONTINUOUS
 62
     4
 10
20055.04587099998
 20
20415.540976000011
 30
0.0
 11
20756.04587099998
 21
20415.540976000011
 31
0.0
  0
LINE
  5
480B
  8
SUNPOU
  6
CONTINUOUS
 62
     4
 10
19354.04587099998
 20
19765.538073000022
 30
0.0
 11
19354.04587099998
 21
20495.540976000011
 31
0.0
  0
LINE
  5
480C
  8
SUNPOU
  6
CONTINUOUS
 62
     4
 10
20055.04587099998
 20
19765.538073000022
 30
0.0
 11
20055.04587099998
 21
20495.540976000011
 31
0.0
  0
LINE
  5
480D
  8
SUNPOU
  6
CONTINUOUS
 62
     4
 10
19354.04587099998
 20
20415.540976000011
 30
0.0
 11
20055.04587099998
 21
20415.540976000011
 31
0.0
  0
LINE
  5
480E
  8
SUNPOU
  6
CONTINUOUS
 62
     4
 10
18816.545211999979
 20
6367.0884779999951
 30
0.0
 11
18016.54653099996
 21
6367.0884779999969
 31
0.0
  0
LINE
  5
480F
  8
SUNPOU
  6
CONTINUOUS
 62
     4
 10
18816.545211999979
 20
8258.588477999996
 30
0.0
 11
18016.546530999982
 21
8258.588477999996
 31
0.0
  0
LINE
  5
4810
  8
SUNPOU
  6
CONTINUOUS
 62
     4
 10
18096.54653099996
 20
6367.0884779999969
 30
0.0
 11
18096.546530999982
 21
8258.588477999996
 31
0.0
  0
LINE
  5
4811
  8
SUNPOU
  6
CONTINUOUS
 62
     4
 10
18816.545211999979
 20
6367.0884779999951
 30
0.0
 11
17616.54422199995
 21
6367.0884779999969
 31
0.0
  0
LINE
  5
4812
  8
SUNPOU
  6
CONTINUOUS
 62
     4
 10
18784.045475999959
 20
8715.5879829999976
 30
0.0
 11
17616.54422199995
 21
8715.5879829999976
 31
0.0
  0
LINE
  5
4813
  8
SUNPOU
  6
CONTINUOUS
 62
     4
 10
17696.54422199995
 20
6367.0884779999969
 30
0.0
 11
17696.54422199995
 21
8715.5879829999976
 31
0.0
  0
LINE
  5
4824
  8
SUNPOU
  6
CONTINUOUS
 62
     4
 10
19040.54587099998
 20
6187.088643000001
 30
0.0
 11
19040.54587099998
 21
5387.0886430000019
 31
0.0
  0
LINE
  5
4825
  8
SUNPOU
  6
CONTINUOUS
 62
     4
 10
22121.04587099998
 20
6187.088643000001
 30
0.0
 11
22121.04587099998
 21
5387.0886430000019
 31
0.0
  0
LINE
  5
4826
  8
SUNPOU
  6
CONTINUOUS
 62
     4
 10
19040.54587099998
 20
5467.088643000001
 30
0.0
 11
22121.04587099998
 21
5467.088643000001
 31
0.0
  0
LINE
  5
4827
  8
SUNPOU
  6
CONTINUOUS
 62
     4
 10
22309.04587099998
 20
6187.088643000001
 30
0.0
 11
22309.04587099998
 21
5387.0886430000019
 31
0.0
  0
LINE
  5
4828
  8
SUNPOU
  6
CONTINUOUS
 62
     4
 10
25389.54587099998
 20
6187.088643000001
 30
0.0
 11
25389.54587099998
 21
5387.0886430000019
 31
0.0
  0
LINE
  5
4829
  8
SUNPOU
  6
CONTINUOUS
 62
     4
 10
22309.04587099998
 20
5467.088643000001
 30
0.0
 11
25389.54587099998
 21
5467.088643000001
 31
0.0
  0
LINE
  5
482A
  8
SUNPOU
  6
CONTINUOUS
 62
     4
 10
22215.04587099998
 20
5924.4362199999969
 30
0.0
 11
22215.04587099998
 21
4987.088643000001
 31
0.0
  0
LINE
  5
482B
  8
SUNPOU
  6
CONTINUOUS
 62
     4
 10
25483.54587099998
 20
5924.4362199999969
 30
0.0
 11
25483.54587099998
 21
4987.088643000001
 31
0.0
  0
LINE
  5
482C
  8
SUNPOU
  6
CONTINUOUS
 62
     4
 10
22215.04587099998
 20
5067.088643000001
 30
0.0
 11
25483.54587099998
 21
5067.088643000001
 31
0.0
  0
LINE
  5
482D
  8
SUNPOU
  6
CONTINUOUS
 62
     4
 10
18946.54587099998
 20
5924.4362199999969
 30
0.0
 11
18946.54587099998
 21
4987.088643000001
 31
0.0
  0
LINE
  5
482E
  8
SUNPOU
  6
CONTINUOUS
 62
     4
 10
22215.04587099998
 20
5924.4362199999969
 30
0.0
 11
22215.04587099998
 21
4987.088643000001
 31
0.0
  0
LINE
  5
482F
  8
SUNPOU
  6
CONTINUOUS
 62
     4
 10
18946.54587099998
 20
5067.088643000001
 30
0.0
 11
22215.04587099998
 21
5067.088643000001
 31
0.0
  0
LINE
  5
4830
  8
SUNPOU
  6
CONTINUOUS
 62
     4
 10
25483.549829999982
 20
5924.4362199999969
 30
0.0
 11
25483.549829999982
 21
4987.088643000001
 31
0.0
  0
LINE
  5
4831
  8
SUNPOU
  6
CONTINUOUS
 62
     4
 10
25526.049829999982
 20
6187.088643000001
 30
0.0
 11
25526.049829999982
 21
4987.088643000001
 31
0.0
  0
LINE
  5
4832
  8
SUNPOU
  6
CONTINUOUS
 62
     4
 10
25483.549829999982
 20
5067.088643000001
 30
0.0
 11
25243.549829999982
 21
5067.088643000001
 31
0.0
  0
LINE
  5
4833
  8
SUNPOU
  6
CONTINUOUS
 62
     4
 10
25526.049829999982
 20
5067.088643000001
 30
0.0
 11
25766.049829999982
 21
5067.088643000001
 31
0.0
  0
LINE
  5
4834
  8
SUNPOU
  6
CONTINUOUS
 62
     4
 10
25483.549829999982
 20
5067.088643000001
 30
0.0
 11
25526.049829999982
 21
5067.088643000001
 31
0.0
  0
LINE
  5
4835
  8
SUNPOU
  6
CONTINUOUS
 62
     4
 10
18946.54587099998
 20
5924.4362199999969
 30
0.0
 11
18946.54587099998
 21
4987.088643000001
 31
0.0
  0
LINE
  5
4836
  8
SUNPOU
  6
CONTINUOUS
 62
     4
 10
18904.04587099998
 20
6187.088643000001
 30
0.0
 11
18904.04587099998
 21
4987.088643000001
 31
0.0
  0
LINE
  5
4837
  8
SUNPOU
  6
CONTINUOUS
 62
     4
 10
18946.54587099998
 20
5067.088643000001
 30
0.0
 11
19186.54587099998
 21
5067.088643000001
 31
0.0
  0
LINE
  5
4838
  8
SUNPOU
  6
CONTINUOUS
 62
     4
 10
18904.04587099998
 20
5067.088643000001
 30
0.0
 11
18664.04587099998
 21
5067.088643000001
 31
0.0
  0
LINE
  5
4839
  8
SUNPOU
  6
CONTINUOUS
 62
     4
 10
18946.54587099998
 20
5067.088643000001
 30
0.0
 11
18904.04587099998
 21
5067.088643000001
 31
0.0
  0
LINE
  5
483A
  8
SUNPOU
  6
CONTINUOUS
 62
     4
 10
18904.04587099998
 20
6187.088643000001
 30
0.0
 11
18904.04587099998
 21
4587.0888079999977
 31
0.0
  0
LINE
  5
483B
  8
SUNPOU
  6
CONTINUOUS
 62
     4
 10
25526.04587099998
 20
6187.088643000001
 30
0.0
 11
25526.04587099998
 21
4587.0888079999977
 31
0.0
  0
LINE
  5
483C
  8
SUNPOU
  6
CONTINUOUS
 62
     4
 10
18904.04587099998
 20
4667.0888079999986
 30
0.0
 11
25526.04587099998
 21
4667.0888079999986
 31
0.0
  0
LINE
  5
483D
  8
SUNPOU
  6
CONTINUOUS
 62
     4
 10
14264.290408999999
 20
6367.0884780000006
 30
0.0
 11
15341.788825
 21
6367.0884780000006
 31
0.0
  0
LINE
  5
483E
  8
SUNPOU
  6
CONTINUOUS
 62
     4
 10
14356.59568859938
 20
8716.0884780000033
 30
0.0
 11
15341.788825
 21
8716.0884780000033
 31
0.0
  0
LINE
  5
483F
  8
SUNPOU
  6
CONTINUOUS
 62
     4
 10
15261.788825
 20
6367.0884780000006
 30
0.0
 11
15261.788825
 21
8716.0884780000033
 31
0.0
  0
LINE
  5
4840
  8
SUNPOU
  6
CONTINUOUS
 62
     4
 10
8864.2904090000047
 20
6367.0884780000006
 30
0.0
 11
7781.7900129999998
 21
6367.0884780000006
 31
0.0
  0
LINE
  5
4841
  8
SUNPOU
  6
CONTINUOUS
 62
     4
 10
8691.7904089999975
 20
8522.5884780000015
 30
0.0
 11
7781.7900129999998
 21
8522.5884780000015
 31
0.0
  0
LINE
  5
4842
  8
SUNPOU
  6
CONTINUOUS
 62
     4
 10
7861.7900130000007
 20
6367.0884780000006
 30
0.0
 11
7861.7900130000007
 21
8522.5884780000015
 31
0.0
  0
LINE
  5
4843
  8
SUNPOU
  6
CONTINUOUS
 62
     4
 10
14171.79040899999
 20
8661.9985410000008
 30
0.0
 11
14171.79040899999
 21
9595.0901529999992
 31
0.0
  0
LINE
  5
4844
  8
SUNPOU
  6
CONTINUOUS
 62
     4
 10
14321.79040899999
 20
8735.9783004124274
 30
0.0
 11
14321.79040899999
 21
9595.0901529999992
 31
0.0
  0
LINE
  5
4845
  8
SUNPOU
  6
CONTINUOUS
 62
     4
 10
14171.79040899999
 20
9515.0901529999974
 30
0.0
 11
13931.79040899999
 21
9515.0901529999974
 31
0.0
  0
LINE
  5
4846
  8
SUNPOU
  6
CONTINUOUS
 62
     4
 10
14321.79040899999
 20
9515.0901529999974
 30
0.0
 11
14561.79040899999
 21
9515.0901529999974
 31
0.0
  0
LINE
  5
4847
  8
SUNPOU
  6
CONTINUOUS
 62
     4
 10
14171.79040899999
 20
9515.0901529999974
 30
0.0
 11
14321.79040899999
 21
9515.0901529999974
 31
0.0
  0
LINE
  5
4848
  8
SUNPOU
  6
CONTINUOUS
 62
     4
 10
8771.7904090000011
 20
8604.088477000003
 30
0.0
 11
8771.7904090000011
 21
9995.088502999999
 31
0.0
  0
LINE
  5
4849
  8
SUNPOU
  6
CONTINUOUS
 62
     4
 10
14321.79040899999
 20
8735.9783004124274
 30
0.0
 11
14321.79040899999
 21
9995.088502999999
 31
0.0
  0
LINE
  5
484A
  8
SUNPOU
  6
CONTINUOUS
 62
     4
 10
8771.7904090000011
 20
9915.088502999999
 30
0.0
 11
14321.79040899999
 21
9915.088502999999
 31
0.0
  0
LINE
  5
484B
  8
SUNPOU
  6
CONTINUOUS
 62
     4
 10
8951.7904090000011
 20
8474.2742526838028
 30
0.0
 11
8951.7904090000011
 21
9595.0901529999992
 31
0.0
  0
LINE
  5
484C
  8
SUNPOU
  6
CONTINUOUS
 62
     4
 10
14171.79040899999
 20
8661.9985410000008
 30
0.0
 11
14171.79040899999
 21
9595.0901529999992
 31
0.0
  0
LINE
  5
484D
  8
SUNPOU
  6
CONTINUOUS
 62
     4
 10
8951.7904090000011
 20
9515.0901529999974
 30
0.0
 11
14171.79040899999
 21
9515.0901529999974
 31
0.0
  0
LINE
  5
484E
  8
SUNPOU
  6
CONTINUOUS
 62
     4
 10
8771.7904090000011
 20
8604.088477000003
 30
0.0
 11
8771.7904090000011
 21
9595.0901529999992
 31
0.0
  0
LINE
  5
484F
  8
SUNPOU
  6
CONTINUOUS
 62
     4
 10
8951.7904090000011
 20
8474.2742526838028
 30
0.0
 11
8951.7904090000011
 21
9595.0901529999992
 31
0.0
  0
LINE
  5
4850
  8
SUNPOU
  6
CONTINUOUS
 62
     4
 10
8771.7904090000011
 20
9515.0901529999974
 30
0.0
 11
8531.7904089999975
 21
9515.0901529999974
 31
0.0
  0
LINE
  5
4851
  8
SUNPOU
  6
CONTINUOUS
 62
     4
 10
8951.7904090000011
 20
9515.0901529999974
 30
0.0
 11
9191.7904089999993
 21
9515.0901529999974
 31
0.0
  0
LINE
  5
4852
  8
SUNPOU
  6
CONTINUOUS
 62
     4
 10
8771.7904090000011
 20
9515.0901529999974
 30
0.0
 11
8951.7904090000011
 21
9515.0901529999974
 31
0.0
  0
LINE
  5
4853
  8
SUNPOU
  6
CONTINUOUS
 62
     4
 10
14129.28842999999
 20
5924.4362189999974
 30
0.0
 11
14129.28842999999
 21
4987.0886419999961
 31
0.0
  0
LINE
  5
4854
  8
SUNPOU
  6
CONTINUOUS
 62
     4
 10
14171.788430000001
 20
6287.0884770000011
 30
0.0
 11
14171.788430000001
 21
4987.0886419999961
 31
0.0
  0
LINE
  5
4855
  8
SUNPOU
  6
CONTINUOUS
 62
     4
 10
14129.28842999999
 20
5067.0886419999961
 30
0.0
 11
13889.28842999999
 21
5067.0886419999961
 31
0.0
  0
LINE
  5
4856
  8
SUNPOU
  6
CONTINUOUS
 62
     4
 10
14171.788430000001
 20
5067.0886419999961
 30
0.0
 11
14411.788429999981
 21
5067.0886419999961
 31
0.0
  0
LINE
  5
4857
  8
SUNPOU
  6
CONTINUOUS
 62
     4
 10
14129.28842999999
 20
5067.0886419999961
 30
0.0
 11
14171.788430000001
 21
5067.0886419999961
 31
0.0
  0
LINE
  5
4858
  8
SUNPOU
  6
CONTINUOUS
 62
     4
 10
11561.79040899999
 20
5924.43523
 30
0.0
 11
11561.79040899999
 21
4987.088643000001
 31
0.0
  0
LINE
  5
4859
  8
SUNPOU
  6
CONTINUOUS
 62
     4
 10
14129.29040899999
 20
5924.43523
 30
0.0
 11
14129.29040899999
 21
4987.088643000001
 31
0.0
  0
LINE
  5
485A
  8
SUNPOU
  6
CONTINUOUS
 62
     4
 10
11561.79040899999
 20
5067.088643000001
 30
0.0
 11
14129.29040899999
 21
5067.088643000001
 31
0.0
  0
LINE
  5
485B
  8
SUNPOU
  6
CONTINUOUS
 62
     4
 10
8951.7904090000011
 20
6287.0884770000011
 30
0.0
 11
8951.7904090000011
 21
4587.0888069999992
 31
0.0
  0
LINE
  5
485C
  8
SUNPOU
  6
CONTINUOUS
 62
     4
 10
14171.788430000001
 20
6287.0884770000011
 30
0.0
 11
14171.788430000001
 21
4587.0888069999992
 31
0.0
  0
LINE
  5
485D
  8
SUNPOU
  6
CONTINUOUS
 62
     4
 10
8951.7904090000011
 20
4667.0888069999983
 30
0.0
 11
14171.788430000001
 21
4667.0888069999983
 31
0.0
  0
LINE
  5
485E
  8
SUNPOU
  6
CONTINUOUS
 62
     4
 10
8994.2904090000029
 20
5924.4362189999974
 30
0.0
 11
8994.2904090000029
 21
4987.0886419999961
 31
0.0
  0
LINE
  5
485F
  8
SUNPOU
  6
CONTINUOUS
 62
     4
 10
8951.7904090000011
 20
6287.0884770000011
 30
0.0
 11
8951.7904090000011
 21
4987.0886419999961
 31
0.0
  0
LINE
  5
4860
  8
SUNPOU
  6
CONTINUOUS
 62
     4
 10
8994.2904090000029
 20
5067.0886419999961
 30
0.0
 11
9234.2904089999993
 21
5067.0886419999961
 31
0.0
  0
LINE
  5
4861
  8
SUNPOU
  6
CONTINUOUS
 62
     4
 10
8951.7904090000011
 20
5067.0886419999961
 30
0.0
 11
8711.7904089999975
 21
5067.0886419999961
 31
0.0
  0
LINE
  5
4862
  8
SUNPOU
  6
CONTINUOUS
 62
     4
 10
8994.2904090000029
 20
5067.0886419999961
 30
0.0
 11
8951.7904090000011
 21
5067.0886419999961
 31
0.0
  0
LINE
  5
4863
  8
SUNPOU
  6
CONTINUOUS
 62
     4
 10
11561.79040899999
 20
5924.4362189999974
 30
0.0
 11
11561.79040899999
 21
4987.0886419999961
 31
0.0
  0
LINE
  5
4864
  8
SUNPOU
  6
CONTINUOUS
 62
     4
 10
8994.2904090000029
 20
5924.4362189999974
 30
0.0
 11
8994.2904090000029
 21
4987.0886419999961
 31
0.0
  0
LINE
  5
4865
  8
SUNPOU
  6
CONTINUOUS
 62
     4
 10
11561.79040899999
 20
5067.0886419999961
 30
0.0
 11
8994.2904090000029
 21
5067.0886419999961
 31
0.0
  0
TEXT
  5
4866
  8
0
  6
CONTINUOUS
 62
     7
 10
9878.0404090000047
 20
5147.0886419999961
 30
0.0
 40
160.0
  1
2567.5
  0
TEXT
  5
4867
  8
0
  6
CONTINUOUS
 62
     7
 10
8354.6166999036941
 20
5147.0886419999961
 30
0.0
 40
160.0
  1
42.5
  0
TEXT
  5
4868
  8
0
  6
CONTINUOUS
 62
     7
 10
11281.78941949999
 20
4747.0888069999992
 30
0.0
 40
160.0
  1
5220
  0
TEXT
  5
4869
  8
0
  6
CONTINUOUS
 62
     7
 10
12445.54040899999
 20
5147.088643
 30
0.0
 40
160.0
  1
2567.5
  0
TEXT
  5
486A
  8
0
  6
CONTINUOUS
 62
     7
 10
14288.962139096289
 20
5147.0886419999961
 30
0.0
 40
160.0
  1
42.5
  0
TEXT
  5
486B
  8
0
  6
CONTINUOUS
 62
     7
 10
8358.4570756666672
 20
9595.0901529999992
 30
0.0
 40
160.0
  1
180
  0
TEXT
  5
486C
  8
0
  6
CONTINUOUS
 62
     7
 10
11281.79040899999
 20
9595.0901529999992
 30
0.0
 40
160.0
  1
5220
  0
TEXT
  5
486D
  8
0
  6
CONTINUOUS
 62
     7
 10
11266.790408999999
 20
9995.088502999999
 30
0.0
 40
160.0
  1
5550
  0
TEXT
  5
486E
  8
0
  6
CONTINUOUS
 62
     7
 10
14388.457075666671
 20
9595.0901529999992
 30
0.0
 40
160.0
  1
150
  0
TEXT
  5
486F
  8
0
  6
CONTINUOUS
 62
     7
 10
7781.7900129999998
 20
6452.8384780000006
 30
0.0
 40
160.0
  1
2155.5（2395.5）
 50
90.0
  0
TEXT
  5
4870
  8
0
  6
CONTINUOUS
 62
     7
 10
15181.788824999991
 20
6736.2551446666657
 30
0.0
 40
160.0
  1
2349（2589）
 50
90.0
  0
TEXT
  5
4871
  8
0
  6
CONTINUOUS
 62
     7
 10
21921.712537666652
 20
4747.0888079999986
 30
0.0
 40
160.0
  1
6622
  0
TEXT
  5
4872
  8
0
  6
CONTINUOUS
 62
     7
 10
18338.006880741141
 20
5147.088643
 30
0.0
 40
160.0
  1
42.5
  0
TEXT
  5
4873
  8
0
  6
CONTINUOUS
 62
     7
 10
25612.088820258828
 20
5147.088643
 30
0.0
 40
160.0
  1
42.5
  0
TEXT
  5
4874
  8
0
  6
CONTINUOUS
 62
     7
 10
20180.795870999991
 20
5147.088643
 30
0.0
 40
160.0
  1
3268.5
  0
TEXT
  5
4875
  8
0
  6
CONTINUOUS
 62
     7
 10
23449.295870999969
 20
5147.088643
 30
0.0
 40
160.0
  1
3268.5
  0
TEXT
  5
4876
  8
0
  6
CONTINUOUS
 62
     7
 10
22947.962537666652
 20
5547.088643000001
 30
0.0
 40
160.0
  1
有効開口巾 3080.5
  0
TEXT
  5
4877
  8
0
  6
CONTINUOUS
 62
     7
 10
19679.462537666641
 20
5547.088643000001
 30
0.0
 40
160.0
  1
有効開口巾 3080.5
  0
TEXT
  5
487C
  8
0
  6
CONTINUOUS
 62
     7
 10
17616.54422199995
 20
6522.6715638333326
 30
0.0
 40
160.0
  1
2348.5（2588.5）
 50
90.0
  0
TEXT
  5
487D
  8
0
  6
CONTINUOUS
 62
     7
 10
18016.546530999982
 20
6431.0677162912707
 30
0.0
 40
160.0
  1
有効開口高サ 1891.5
 50
90.0
  0
TEXT
  5
487E
  8
0
  6
CONTINUOUS
 62
     7
 10
19531.212537666641
 20
20175.540976000011
 30
0.0
 40
160.0
  1
701
  0
TEXT
  5
487F
  8
0
  6
CONTINUOUS
 62
     7
 10
20232.212537666641
 20
20495.540976000011
 30
0.0
 40
160.0
  1
701
  0
TEXT
  5
4880
  8
0
  6
CONTINUOUS
 62
     7
 10
20933.212537666652
 20
20495.540976000011
 30
0.0
 40
160.0
  1
701
  0
TEXT
  5
4881
  8
0
  6
CONTINUOUS
 62
     7
 10
21622.713032416661
 20
20495.540976000011
 30
0.0
 40
160.0
  1
758
  0
TEXT
  5
4882
  8
0
  6
CONTINUOUS
 62
     7
 10
18343.733891471169
 20
20495.540976000011
 30
0.0
 40
160.0
  1
42.5
  0
TEXT
  5
4883
  8
0
  6
CONTINUOUS
 62
     7
 10
19047.379204333309
 20
20495.540976000011
 30
0.0
 40
160.0
  1
407.5
  0
TEXT
  5
4884
  8
0
  6
CONTINUOUS
 62
     7
 10
25606.357850528781
 20
20495.540976000011
 30
0.0
 40
160.0
  1
42.5
  0
TEXT
  5
4885
  8
0
  6
CONTINUOUS
 62
     7
 10
22799.712537666652
 20
20175.540976000011
 30
0.0
 40
160.0
  1
701
  0
TEXT
  5
4886
  8
0
  6
CONTINUOUS
 62
     7
 10
23500.712537666652
 20
20495.540976000011
 30
0.0
 40
160.0
  1
701
  0
TEXT
  5
4887
  8
0
  6
CONTINUOUS
 62
     7
 10
24201.712537666652
 20
20495.540976000011
 30
0.0
 40
160.0
  1
701
  0
TEXT
  5
4888
  8
0
  6
CONTINUOUS
 62
     7
 10
24891.21303241665
 20
20495.540976000011
 30
0.0
 40
160.0
  1
758
  0
TEXT
  5
4889
  8
0
  6
CONTINUOUS
 62
     7
 10
22315.879204333291
 20
20495.540976000011
 30
0.0
 40
160.0
  1
407.5
  0
TEXT
  5
488A
  8
0
  6
CONTINUOUS
 62
     7
 10
26896.045474999992
 20
13891.98625660321
 30
0.0
 40
160.0
  1
42.5
 50
90.0
  0
TEXT
  5
488B
  8
0
  6
CONTINUOUS
 62
     7
 10
26896.045474999992
 20
19779.09331939679
 30
0.0
 40
160.0
  1
42.5
 50
90.0
  0
TEXT
  5
488C
  8
0
  6
CONTINUOUS
 62
     7
 10
27296.04547499997
 20
16795.539787999998
 30
0.0
 40
160.0
  1
5220
 50
90.0
  0
TEXT
  5
488D
  8
0
  6
CONTINUOUS
 62
     7
 10
26896.04547499997
 20
15391.789788
 30
0.0
 40
160.0
  1
2567.5
 50
90.0
  0
TEXT
  5
488E
  8
0
  6
CONTINUOUS
 62
     7
 10
26896.04547499997
 20
17959.289787999998
 30
0.0
 40
160.0
  1
2567.5
 50
90.0
  0
TEXT
  5
488F
  8
0
  6
CONTINUOUS
 62
     7
 10
26496.045474999959
 20
18711.706454666681
 30
0.0
 40
160.0
  1
701
 50
90.0
  0
TEXT
  5
4890
  8
0
  6
CONTINUOUS
 62
     7
 10
26496.045474999959
 20
18010.706454666681
 30
0.0
 40
160.0
  1
701
 50
90.0
  0
TEXT
  5
4891
  8
0
  6
CONTINUOUS
 62
     7
 10
26496.045474999959
 20
17241.20645466667
 30
0.0
 40
160.0
  1
758
 50
90.0
  0
TEXT
  5
4892
  8
0
  6
CONTINUOUS
 62
     7
 10
26496.045474999959
 20
16483.206454666659
 30
0.0
 40
160.0
  1
758
 50
90.0
  0
TEXT
  5
4893
  8
0
  6
CONTINUOUS
 62
     7
 10
26496.045474999959
 20
15793.826710416681
 30
0.0
 40
160.0
  1
701
 50
90.0
  0
TEXT
  5
4894
  8
0
  6
CONTINUOUS
 62
     7
 10
26496.045474999959
 20
15092.826710416681
 30
0.0
 40
160.0
  1
701
 50
90.0
  0
TEXT
  5
4895
  8
0
  6
CONTINUOUS
 62
     7
 10
21921.712537666652
 20
13216.591704
 30
0.0
 40
160.0
  1
6622
  0
TEXT
  5
4896
  8
0
  6
CONTINUOUS
 62
     7
 10
19064.599543382061
 20
13616.59170399998
 30
0.0
 40
160.0
  1
42.5
  0
TEXT
  5
4897
  8
0
  6
CONTINUOUS
 62
     7
 10
24885.492198617882
 20
13616.59170399998
 30
0.0
 40
160.0
  1
42.5
  0
TEXT
  5
4898
  8
0
  6
CONTINUOUS
 62
     7
 10
25601.599543382079
 20
13616.59170399998
 30
0.0
 40
160.0
  1
42.5
  0
TEXT
  5
4899
  8
0
  6
CONTINUOUS
 62
     7
 10
18348.492198617889
 20
13616.59170399998
 30
0.0
 40
160.0
  1
42.5
  0
TEXT
  5
489A
  8
0
  6
CONTINUOUS
 62
     7
 10
17937.09129399998
 20
14729.07671041667
 30
0.0
 40
160.0
  1
1108.5
 50
90.0
  0
TEXT
  5
489B
  8
0
  6
CONTINUOUS
 62
     7
 10
17937.09129399998
 20
16079.49337708333
 30
0.0
 40
160.0
  1
1459
 50
90.0
  0
TEXT
  5
489C
  8
0
  6
CONTINUOUS
 62
     7
 10
17937.09129399998
 20
17538.373121333341
 30
0.0
 40
160.0
  1
1459
 50
90.0
  0
TEXT
  5
489D
  8
0
  6
CONTINUOUS
 62
     7
 10
17937.09129399998
 20
18755.45645466667
 30
0.0
 40
160.0
  1
1108.5
 50
90.0
  0
TEXT
  5
489E
  8
0
  6
CONTINUOUS
 62
     7
 10
26856.045474999992
 20
18944.917755643201
 30
0.0
 40
160.0
  1
407.5
 50
90.0
  0
TEXT
  5
489F
  8
0
  6
CONTINUOUS
 62
     7
 10
6931.0893259999712
 20
13700.086777702631
 30
0.0
 40
160.0
  1
192.5
 50
90.0
  0
TEXT
  5
48A0
  8
0
  6
CONTINUOUS
 62
     7
 10
6931.089325999973
 20
14728.95645466667
 30
0.0
 40
160.0
  1
1108.5
 50
90.0
  0
TEXT
  5
48A1
  8
0
  6
CONTINUOUS
 62
     7
 10
6931.089325999973
 20
16079.37312133333
 30
0.0
 40
160.0
  1
1459
 50
90.0
  0
TEXT
  5
48A2
  8
0
  6
CONTINUOUS
 62
     7
 10
6931.0893259999712
 20
17538.37312133333
 30
0.0
 40
160.0
  1
1459
 50
90.0
  0
TEXT
  5
48A3
  8
0
  6
CONTINUOUS
 62
     7
 10
6931.0893259999712
 20
18755.45645466667
 30
0.0
 40
160.0
  1
1108.5
 50
90.0
  0
TEXT
  5
48A4
  8
0
  6
CONTINUOUS
 62
     7
 10
6931.0893259999712
 20
19954.494972807679
 30
0.0
 40
160.0
  1
222.5
 50
90.0
  0
TEXT
  5
48A5
  8
0
  6
CONTINUOUS
 62
     7
 10
7331.0893259999739
 20
19985.535697000021
 30
0.0
 40
160.0
  1
20
 50
90.0
  0
TEXT
  5
48A6
  8
0
  6
CONTINUOUS
 62
     7
 10
12443.333163999951
 20
20495.544935000002
 30
0.0
 40
160.0
  1
3268.5
  0
TEXT
  5
48A7
  8
0
  6
CONTINUOUS
 62
     7
 10
14614.079870023201
 20
20495.544935000002
 30
0.0
 40
160.0
  1
85.5
  0
TEXT
  5
48A8
  8
0
  6
CONTINUOUS
 62
     7
 10
9174.8450399999892
 20
20495.544935000002
 30
0.0
 40
160.0
  1
3268.5
  0
TEXT
  5
48A9
  8
0
  6
CONTINUOUS
 62
     7
 10
7324.0983339767308
 20
20495.544935000002
 30
0.0
 40
160.0
  1
85.5
  0
TEXT
  5
48AB
  8
0
  6
CONTINUOUS
 62
     7
 10
26856.045474999992
 20
14580.98045795355
 30
0.0
 40
160.0
  1
407.5
 50
90.0
  0
ARC
  5
48AC
  8
0
  6
BYBLOCK
 62
     0
 10
26576.045474999992
 20
14915.66004375
 30
0.0
 40
15.0
 50
270.0
 51
90.0
  0
ARC
  5
48AD
  8
0
  6
BYBLOCK
 62
     0
 10
26576.045474999992
 20
14915.66004375
 30
0.0
 40
15.0
 50
90.0
 51
270.0
  0
ARC
  5
48AE
  8
0
  6
BYBLOCK
 62
     0
 10
26576.045474999992
 20
14508.16004375
 30
0.0
 40
15.0
 50
90.0
 51
270.0
  0
ARC
  5
48AF
  8
0
  6
BYBLOCK
 62
     0
 10
26576.045474999992
 20
14508.16004375
 30
0.0
 40
15.0
 50
270.0
 51
90.0
  0
ARC
  5
48B4
  8
0
  6
BYBLOCK
 62
     0
 10
7940.5950399999901
 20
20415.544935000002
 30
0.0
 40
15.0
 50
0.0
 51
180.0
  0
ARC
  5
48B5
  8
0
  6
BYBLOCK
 62
     0
 10
7940.5950399999901
 20
20415.544935000002
 30
0.0
 40
15.0
 50
180.0
 51
0.0
  0
ARC
  5
48B6
  8
0
  6
BYBLOCK
 62
     0
 10
7855.0950399999892
 20
20415.544935000002
 30
0.0
 40
15.0
 50
180.0
 51
0.0
  0
ARC
  5
48B7
  8
0
  6
BYBLOCK
 62
     0
 10
7855.0950399999892
 20
20415.544935000002
 30
0.0
 40
15.0
 50
0.0
 51
180.0
  0
ARC
  5
48B8
  8
0
  6
BYBLOCK
 62
     0
 10
11209.09503999998
 20
20415.544935000002
 30
0.0
 40
15.0
 50
180.0
 51
0.0
  0
ARC
  5
48B9
  8
0
  6
BYBLOCK
 62
     0
 10
11209.09503999998
 20
20415.544935000002
 30
0.0
 40
15.0
 50
0.0
 51
180.0
  0
ARC
  5
48BA
  8
0
  6
BYBLOCK
 62
     0
 10
7940.5950399999901
 20
20415.544935000002
 30
0.0
 40
15.0
 50
0.0
 51
180.0
  0
ARC
  5
48BB
  8
0
  6
BYBLOCK
 62
     0
 10
7940.5950399999901
 20
20415.544935000002
 30
0.0
 40
15.0
 50
180.0
 51
0.0
  0
ARC
  5
48BC
  8
0
  6
BYBLOCK
 62
     0
 10
14477.583163999951
 20
20415.544935000002
 30
0.0
 40
15.0
 50
180.0
 51
0.0
  0
ARC
  5
48BD
  8
0
  6
BYBLOCK
 62
     0
 10
14477.583163999951
 20
20415.544935000002
 30
0.0
 40
15.0
 50
0.0
 51
180.0
  0
ARC
  5
48BE
  8
0
  6
BYBLOCK
 62
     0
 10
14563.083163999951
 20
20415.544935000002
 30
0.0
 40
15.0
 50
0.0
 51
180.0
  0
ARC
  5
48BF
  8
0
  6
BYBLOCK
 62
     0
 10
14563.083163999951
 20
20415.544935000002
 30
0.0
 40
15.0
 50
180.0
 51
0.0
  0
ARC
  5
48C0
  8
0
  6
BYBLOCK
 62
     0
 10
11209.083163999951
 20
20415.544935000002
 30
0.0
 40
15.0
 50
0.0
 51
180.0
  0
ARC
  5
48C1
  8
0
  6
BYBLOCK
 62
     0
 10
11209.083163999951
 20
20415.544935000002
 30
0.0
 40
15.0
 50
180.0
 51
0.0
  0
ARC
  5
48C2
  8
0
  6
BYBLOCK
 62
     0
 10
14477.583163999951
 20
20415.544935000002
 30
0.0
 40
15.0
 50
180.0
 51
0.0
  0
ARC
  5
48C3
  8
0
  6
BYBLOCK
 62
     0
 10
14477.583163999951
 20
20415.544935000002
 30
0.0
 40
15.0
 50
0.0
 51
180.0
  0
ARC
  5
48C4
  8
0
  6
BYBLOCK
 62
     0
 10
7411.0893259999739
 20
19845.535697000021
 30
0.0
 40
15.0
 50
270.0
 51
90.0
  0
ARC
  5
48C5
  8
0
  6
BYBLOCK
 62
     0
 10
7411.0893259999739
 20
19845.535697000021
 30
0.0
 40
15.0
 50
90.0
 51
270.0
  0
ARC
  5
48C6
  8
0
  6
BYBLOCK
 62
     0
 10
7411.0893259999739
 20
19865.53569700001
 30
0.0
 40
15.0
 50
90.0
 51
270.0
  0
ARC
  5
48C7
  8
0
  6
BYBLOCK
 62
     0
 10
7411.0893259999739
 20
19865.53569700001
 30
0.0
 40
15.0
 50
270.0
 51
90.0
  0
ARC
  5
48C8
  8
0
  6
BYBLOCK
 62
     0
 10
7011.0893259999748
 20
19643.039787999991
 30
0.0
 40
15.0
 50
270.0
 51
90.0
  0
ARC
  5
48C9
  8
0
  6
BYBLOCK
 62
     0
 10
7011.0893259999748
 20
19643.039787999991
 30
0.0
 40
15.0
 50
90.0
 51
270.0
  0
ARC
  5
48CA
  8
0
  6
BYBLOCK
 62
     0
 10
7011.0893259999748
 20
19865.53569700001
 30
0.0
 40
15.0
 50
90.0
 51
270.0
  0
ARC
  5
48CB
  8
0
  6
BYBLOCK
 62
     0
 10
7011.0893259999748
 20
19865.53569700001
 30
0.0
 40
15.0
 50
270.0
 51
90.0
  0
ARC
  5
48CC
  8
0
  6
BYBLOCK
 62
     0
 10
7011.0893259999748
 20
18534.539787999998
 30
0.0
 40
15.0
 50
90.0
 51
270.0
  0
ARC
  5
48CD
  8
0
  6
BYBLOCK
 62
     0
 10
7011.0893259999748
 20
18534.539787999998
 30
0.0
 40
15.0
 50
270.0
 51
90.0
  0
ARC
  5
48CE
  8
0
  6
BYBLOCK
 62
     0
 10
7011.0893259999748
 20
19643.039787999991
 30
0.0
 40
15.0
 50
270.0
 51
90.0
  0
ARC
  5
48CF
  8
0
  6
BYBLOCK
 62
     0
 10
7011.0893259999748
 20
19643.039787999991
 30
0.0
 40
15.0
 50
90.0
 51
270.0
  0
ARC
  5
48D0
  8
0
  6
BYBLOCK
 62
     0
 10
7011.0893259999748
 20
17075.53978799998
 30
0.0
 40
15.0
 50
90.0
 51
270.0
  0
ARC
  5
48D1
  8
0
  6
BYBLOCK
 62
     0
 10
7011.0893259999748
 20
17075.53978799998
 30
0.0
 40
15.0
 50
270.0
 51
90.0
  0
ARC
  5
48D2
  8
0
  6
BYBLOCK
 62
     0
 10
7011.0893259999748
 20
18534.539787999998
 30
0.0
 40
15.0
 50
270.0
 51
90.0
  0
ARC
  5
48D3
  8
0
  6
BYBLOCK
 62
     0
 10
7011.0893259999748
 20
18534.539787999998
 30
0.0
 40
15.0
 50
90.0
 51
270.0
  0
ARC
  5
48D4
  8
0
  6
BYBLOCK
 62
     0
 10
7011.0893259999748
 20
15616.539788
 30
0.0
 40
15.0
 50
90.0
 51
270.0
  0
ARC
  5
48D5
  8
0
  6
BYBLOCK
 62
     0
 10
7011.0893259999748
 20
15616.539788
 30
0.0
 40
15.0
 50
270.0
 51
90.0
  0
ARC
  5
48D6
  8
0
  6
BYBLOCK
 62
     0
 10
7011.0893259999748
 20
17075.53978799998
 30
0.0
 40
15.0
 50
270.0
 51
90.0
  0
ARC
  5
48D7
  8
0
  6
BYBLOCK
 62
     0
 10
7011.0893259999748
 20
17075.53978799998
 30
0.0
 40
15.0
 50
90.0
 51
270.0
  0
ARC
  5
48D8
  8
0
  6
BYBLOCK
 62
     0
 10
7011.0893259999748
 20
14508.039787999989
 30
0.0
 40
15.0
 50
90.0
 51
270.0
  0
ARC
  5
48D9
  8
0
  6
BYBLOCK
 62
     0
 10
7011.0893259999748
 20
14508.039787999989
 30
0.0
 40
15.0
 50
270.0
 51
90.0
  0
ARC
  5
48DA
  8
0
  6
BYBLOCK
 62
     0
 10
7011.0893259999748
 20
15616.539788
 30
0.0
 40
15.0
 50
270.0
 51
90.0
  0
ARC
  5
48DB
  8
0
  6
BYBLOCK
 62
     0
 10
7011.0893259999748
 20
15616.539788
 30
0.0
 40
15.0
 50
90.0
 51
270.0
  0
ARC
  5
48DC
  8
0
  6
BYBLOCK
 62
     0
 10
7011.0893259999766
 20
14508.039787999989
 30
0.0
 40
15.0
 50
90.0
 51
270.0
  0
ARC
  5
48DD
  8
0
  6
BYBLOCK
 62
     0
 10
7011.0893259999766
 20
14508.039787999989
 30
0.0
 40
15.0
 50
270.0
 51
90.0
  0
ARC
  5
48DE
  8
0
  6
BYBLOCK
 62
     0
 10
7011.0893259999748
 20
14315.544472999991
 30
0.0
 40
15.0
 50
270.0
 51
90.0
  0
ARC
  5
48DF
  8
0
  6
BYBLOCK
 62
     0
 10
7011.0893259999748
 20
14315.544472999991
 30
0.0
 40
15.0
 50
90.0
 51
270.0
  0
ARC
  5
48E0
  8
0
  6
BYBLOCK
 62
     0
 10
26576.045474999992
 20
19235.539787999998
 30
0.0
 40
15.0
 50
90.0
 51
270.0
  0
ARC
  5
48E1
  8
0
  6
BYBLOCK
 62
     0
 10
26576.045474999992
 20
19235.539787999998
 30
0.0
 40
15.0
 50
270.0
 51
90.0
  0
ARC
  5
48E2
  8
0
  6
BYBLOCK
 62
     0
 10
26576.045474999992
 20
19643.039787999991
 30
0.0
 40
15.0
 50
270.0
 51
90.0
  0
ARC
  5
48E3
  8
0
  6
BYBLOCK
 62
     0
 10
26576.045474999992
 20
19643.039787999991
 30
0.0
 40
15.0
 50
90.0
 51
270.0
  0
ARC
  5
48E4
  8
0
  6
BYBLOCK
 62
     0
 10
18017.091293999969
 20
18534.539787999998
 30
0.0
 40
15.0
 50
90.0
 51
270.0
  0
ARC
  5
48E5
  8
0
  6
BYBLOCK
 62
     0
 10
18017.091293999969
 20
18534.539787999998
 30
0.0
 40
15.0
 50
270.0
 51
90.0
  0
ARC
  5
48E6
  8
0
  6
BYBLOCK
 62
     0
 10
18017.091293999969
 20
19643.039787999991
 30
0.0
 40
15.0
 50
270.0
 51
90.0
  0
ARC
  5
48E7
  8
0
  6
BYBLOCK
 62
     0
 10
18017.091293999969
 20
19643.039787999991
 30
0.0
 40
15.0
 50
90.0
 51
270.0
  0
ARC
  5
48E8
  8
0
  6
BYBLOCK
 62
     0
 10
18017.091293999969
 20
17075.53978799998
 30
0.0
 40
15.0
 50
90.0
 51
270.0
  0
ARC
  5
48E9
  8
0
  6
BYBLOCK
 62
     0
 10
18017.091293999969
 20
17075.53978799998
 30
0.0
 40
15.0
 50
270.0
 51
90.0
  0
ARC
  5
48EA
  8
0
  6
BYBLOCK
 62
     0
 10
18017.091293999969
 20
18534.539787999998
 30
0.0
 40
15.0
 50
270.0
 51
90.0
  0
ARC
  5
48EB
  8
0
  6
BYBLOCK
 62
     0
 10
18017.091293999969
 20
18534.539787999998
 30
0.0
 40
15.0
 50
90.0
 51
270.0
  0
ARC
  5
48EC
  8
0
  6
BYBLOCK
 62
     0
 10
18017.091293999969
 20
15616.7802995
 30
0.0
 40
15.0
 50
90.0
 51
270.0
  0
ARC
  5
48ED
  8
0
  6
BYBLOCK
 62
     0
 10
18017.091293999969
 20
15616.7802995
 30
0.0
 40
15.0
 50
270.0
 51
90.0
  0
ARC
  5
48EE
  8
0
  6
BYBLOCK
 62
     0
 10
18017.091293999969
 20
17075.53978799998
 30
0.0
 40
15.0
 50
270.0
 51
90.0
  0
ARC
  5
48EF
  8
0
  6
BYBLOCK
 62
     0
 10
18017.091293999969
 20
17075.53978799998
 30
0.0
 40
15.0
 50
90.0
 51
270.0
  0
ARC
  5
48F0
  8
0
  6
BYBLOCK
 62
     0
 10
18017.091293999969
 20
14508.039787999989
 30
0.0
 40
15.0
 50
90.0
 51
270.0
  0
ARC
  5
48F1
  8
0
  6
BYBLOCK
 62
     0
 10
18017.091293999969
 20
14508.039787999989
 30
0.0
 40
15.0
 50
270.0
 51
90.0
  0
ARC
  5
48F2
  8
0
  6
BYBLOCK
 62
     0
 10
18017.091293999969
 20
15616.7802995
 30
0.0
 40
15.0
 50
270.0
 51
90.0
  0
ARC
  5
48F3
  8
0
  6
BYBLOCK
 62
     0
 10
18017.091293999969
 20
15616.7802995
 30
0.0
 40
15.0
 50
90.0
 51
270.0
  0
ARC
  5
48F4
  8
0
  6
BYBLOCK
 62
     0
 10
18946.54587099998
 20
13536.59170399998
 30
0.0
 40
15.0
 50
0.0
 51
180.0
  0
ARC
  5
48F5
  8
0
  6
BYBLOCK
 62
     0
 10
18946.54587099998
 20
13536.59170399998
 30
0.0
 40
15.0
 50
180.0
 51
0.0
  0
ARC
  5
48F6
  8
0
  6
BYBLOCK
 62
     0
 10
18904.043627999981
 20
13536.59170399998
 30
0.0
 40
15.0
 50
180.0
 51
0.0
  0
ARC
  5
48F7
  8
0
  6
BYBLOCK
 62
     0
 10
18904.043627999981
 20
13536.59170399998
 30
0.0
 40
15.0
 50
0.0
 51
180.0
  0
ARC
  5
48F8
  8
0
  6
BYBLOCK
 62
     0
 10
25483.54587099998
 20
13536.59170399998
 30
0.0
 40
15.0
 50
180.0
 51
0.0
  0
ARC
  5
48F9
  8
0
  6
BYBLOCK
 62
     0
 10
25483.54587099998
 20
13536.59170399998
 30
0.0
 40
15.0
 50
0.0
 51
180.0
  0
ARC
  5
48FA
  8
0
  6
BYBLOCK
 62
     0
 10
25526.048113999968
 20
13536.59170399998
 30
0.0
 40
15.0
 50
0.0
 51
180.0
  0
ARC
  5
48FB
  8
0
  6
BYBLOCK
 62
     0
 10
25526.048113999968
 20
13536.59170399998
 30
0.0
 40
15.0
 50
180.0
 51
0.0
  0
ARC
  5
48FC
  8
0
  6
BYBLOCK
 62
     0
 10
25483.54587099998
 20
13536.59170399998
 30
0.0
 40
15.0
 50
0.0
 51
180.0
  0
ARC
  5
48FD
  8
0
  6
BYBLOCK
 62
     0
 10
25483.54587099998
 20
13536.59170399998
 30
0.0
 40
15.0
 50
180.0
 51
0.0
  0
ARC
  5
48FE
  8
0
  6
BYBLOCK
 62
     0
 10
25441.043627999981
 20
13536.59170399998
 30
0.0
 40
15.0
 50
180.0
 51
0.0
  0
ARC
  5
48FF
  8
0
  6
BYBLOCK
 62
     0
 10
25441.043627999981
 20
13536.59170399998
 30
0.0
 40
15.0
 50
0.0
 51
180.0
  0
ARC
  5
4900
  8
0
  6
BYBLOCK
 62
     0
 10
18946.54587099998
 20
13536.59170399998
 30
0.0
 40
15.0
 50
180.0
 51
0.0
  0
ARC
  5
4901
  8
0
  6
BYBLOCK
 62
     0
 10
18946.54587099998
 20
13536.59170399998
 30
0.0
 40
15.0
 50
0.0
 51
180.0
  0
ARC
  5
4902
  8
0
  6
BYBLOCK
 62
     0
 10
18989.048113999961
 20
13536.59170399998
 30
0.0
 40
15.0
 50
0.0
 51
180.0
  0
ARC
  5
4903
  8
0
  6
BYBLOCK
 62
     0
 10
18989.048113999961
 20
13536.59170399998
 30
0.0
 40
15.0
 50
180.0
 51
0.0
  0
ARC
  5
4904
  8
0
  6
BYBLOCK
 62
     0
 10
18904.043627999981
 20
13136.591704
 30
0.0
 40
15.0
 50
0.0
 51
180.0
  0
ARC
  5
4905
  8
0
  6
BYBLOCK
 62
     0
 10
18904.043627999981
 20
13136.591704
 30
0.0
 40
15.0
 50
180.0
 51
0.0
  0
ARC
  5
4906
  8
0
  6
BYBLOCK
 62
     0
 10
25526.048113999968
 20
13136.591704
 30
0.0
 40
15.0
 50
180.0
 51
0.0
  0
ARC
  5
4907
  8
0
  6
BYBLOCK
 62
     0
 10
25526.048113999968
 20
13136.591704
 30
0.0
 40
15.0
 50
0.0
 51
180.0
  0
ARC
  5
4908
  8
0
  6
BYBLOCK
 62
     0
 10
26576.045474999992
 20
15616.7802995
 30
0.0
 40
15.0
 50
270.0
 51
90.0
  0
ARC
  5
4909
  8
0
  6
BYBLOCK
 62
     0
 10
26576.045474999992
 20
15616.7802995
 30
0.0
 40
15.0
 50
90.0
 51
270.0
  0
ARC
  5
490A
  8
0
  6
BYBLOCK
 62
     0
 10
26576.045474999992
 20
14915.539788
 30
0.0
 40
15.0
 50
90.0
 51
270.0
  0
ARC
  5
490B
  8
0
  6
BYBLOCK
 62
     0
 10
26576.045474999992
 20
14915.539788
 30
0.0
 40
15.0
 50
270.0
 51
90.0
  0
ARC
  5
490C
  8
0
  6
BYBLOCK
 62
     0
 10
26576.045474999992
 20
16317.539788
 30
0.0
 40
15.0
 50
270.0
 51
90.0
  0
ARC
  5
490D
  8
0
  6
BYBLOCK
 62
     0
 10
26576.045474999992
 20
16317.539788
 30
0.0
 40
15.0
 50
90.0
 51
270.0
  0
ARC
  5
490E
  8
0
  6
BYBLOCK
 62
     0
 10
26576.045474999992
 20
15616.7802995
 30
0.0
 40
15.0
 50
90.0
 51
270.0
  0
ARC
  5
490F
  8
0
  6
BYBLOCK
 62
     0
 10
26576.045474999992
 20
15616.7802995
 30
0.0
 40
15.0
 50
270.0
 51
90.0
  0
ARC
  5
4910
  8
0
  6
BYBLOCK
 62
     0
 10
26576.045474999992
 20
17075.53978799998
 30
0.0
 40
15.0
 50
270.0
 51
90.0
  0
ARC
  5
4911
  8
0
  6
BYBLOCK
 62
     0
 10
26576.045474999992
 20
17075.53978799998
 30
0.0
 40
15.0
 50
90.0
 51
270.0
  0
ARC
  5
4912
  8
0
  6
BYBLOCK
 62
     0
 10
26576.045474999992
 20
16317.539788
 30
0.0
 40
15.0
 50
90.0
 51
270.0
  0
ARC
  5
4913
  8
0
  6
BYBLOCK
 62
     0
 10
26576.045474999992
 20
16317.539788
 30
0.0
 40
15.0
 50
270.0
 51
90.0
  0
ARC
  5
4914
  8
0
  6
BYBLOCK
 62
     0
 10
26576.045474999992
 20
17833.539787999991
 30
0.0
 40
15.0
 50
270.0
 51
90.0
  0
ARC
  5
4915
  8
0
  6
BYBLOCK
 62
     0
 10
26576.045474999992
 20
17833.539787999991
 30
0.0
 40
15.0
 50
90.0
 51
270.0
  0
ARC
  5
4916
  8
0
  6
BYBLOCK
 62
     0
 10
26576.045474999992
 20
17075.53978799998
 30
0.0
 40
15.0
 50
90.0
 51
270.0
  0
ARC
  5
4917
  8
0
  6
BYBLOCK
 62
     0
 10
26576.045474999992
 20
17075.53978799998
 30
0.0
 40
15.0
 50
270.0
 51
90.0
  0
ARC
  5
4918
  8
0
  6
BYBLOCK
 62
     0
 10
26576.045474999992
 20
18534.539787999998
 30
0.0
 40
15.0
 50
270.0
 51
90.0
  0
ARC
  5
4919
  8
0
  6
BYBLOCK
 62
     0
 10
26576.045474999992
 20
18534.539787999998
 30
0.0
 40
15.0
 50
90.0
 51
270.0
  0
ARC
  5
491A
  8
0
  6
BYBLOCK
 62
     0
 10
26576.045474999992
 20
17833.539787999991
 30
0.0
 40
15.0
 50
90.0
 51
270.0
  0
ARC
  5
491B
  8
0
  6
BYBLOCK
 62
     0
 10
26576.045474999992
 20
17833.539787999991
 30
0.0
 40
15.0
 50
270.0
 51
90.0
  0
ARC
  5
491C
  8
0
  6
BYBLOCK
 62
     0
 10
26576.045474999992
 20
19235.539787999998
 30
0.0
 40
15.0
 50
270.0
 51
90.0
  0
ARC
  5
491D
  8
0
  6
BYBLOCK
 62
     0
 10
26576.045474999992
 20
19235.539787999998
 30
0.0
 40
15.0
 50
90.0
 51
270.0
  0
ARC
  5
491E
  8
0
  6
BYBLOCK
 62
     0
 10
26576.045474999992
 20
18534.539787999998
 30
0.0
 40
15.0
 50
90.0
 51
270.0
  0
ARC
  5
491F
  8
0
  6
BYBLOCK
 62
     0
 10
26576.045474999992
 20
18534.539787999998
 30
0.0
 40
15.0
 50
270.0
 51
90.0
  0
ARC
  5
4920
  8
0
  6
BYBLOCK
 62
     0
 10
26976.045474999992
 20
17075.53978799998
 30
0.0
 40
15.0
 50
90.0
 51
270.0
  0
ARC
  5
4921
  8
0
  6
BYBLOCK
 62
     0
 10
26976.045474999992
 20
17075.53978799998
 30
0.0
 40
15.0
 50
270.0
 51
90.0
  0
ARC
  5
4922
  8
0
  6
BYBLOCK
 62
     0
 10
26976.045474999992
 20
19643.039787999991
 30
0.0
 40
15.0
 50
270.0
 51
90.0
  0
ARC
  5
4923
  8
0
  6
BYBLOCK
 62
     0
 10
26976.045474999992
 20
19643.039787999991
 30
0.0
 40
15.0
 50
90.0
 51
270.0
  0
ARC
  5
4924
  8
0
  6
BYBLOCK
 62
     0
 10
26976.045474999992
 20
14508.039787999989
 30
0.0
 40
15.0
 50
90.0
 51
270.0
  0
ARC
  5
4925
  8
0
  6
BYBLOCK
 62
     0
 10
26976.045474999992
 20
14508.039787999989
 30
0.0
 40
15.0
 50
270.0
 51
90.0
  0
ARC
  5
4926
  8
0
  6
BYBLOCK
 62
     0
 10
26976.045474999992
 20
17075.53978799998
 30
0.0
 40
15.0
 50
270.0
 51
90.0
  0
ARC
  5
4927
  8
0
  6
BYBLOCK
 62
     0
 10
26976.045474999992
 20
17075.53978799998
 30
0.0
 40
15.0
 50
90.0
 51
270.0
  0
ARC
  5
4928
  8
0
  6
BYBLOCK
 62
     0
 10
27376.045474999981
 20
19685.537082999988
 30
0.0
 40
15.0
 50
270.0
 51
90.0
  0
ARC
  5
4929
  8
0
  6
BYBLOCK
 62
     0
 10
27376.045474999981
 20
19685.537082999988
 30
0.0
 40
15.0
 50
90.0
 51
270.0
  0
ARC
  5
492A
  8
0
  6
BYBLOCK
 62
     0
 10
27376.045474999981
 20
14465.542493000001
 30
0.0
 40
15.0
 50
90.0
 51
270.0
  0
ARC
  5
492B
  8
0
  6
BYBLOCK
 62
     0
 10
27376.045474999981
 20
14465.542493000001
 30
0.0
 40
15.0
 50
270.0
 51
90.0
  0
ARC
  5
492C
  8
0
  6
BYBLOCK
 62
     0
 10
26976.045474999992
 20
19643.039787999991
 30
0.0
 40
15.0
 50
270.0
 51
90.0
  0
ARC
  5
492D
  8
0
  6
BYBLOCK
 62
     0
 10
26976.045474999992
 20
19643.039787999991
 30
0.0
 40
15.0
 50
90.0
 51
270.0
  0
ARC
  5
492E
  8
0
  6
BYBLOCK
 62
     0
 10
26976.045474999992
 20
19685.537082999988
 30
0.0
 40
15.0
 50
90.0
 51
270.0
  0
ARC
  5
492F
  8
0
  6
BYBLOCK
 62
     0
 10
26976.045474999992
 20
19685.537082999988
 30
0.0
 40
15.0
 50
270.0
 51
90.0
  0
ARC
  5
4930
  8
0
  6
BYBLOCK
 62
     0
 10
26976.045474999992
 20
14508.039787999989
 30
0.0
 40
15.0
 50
90.0
 51
270.0
  0
ARC
  5
4931
  8
0
  6
BYBLOCK
 62
     0
 10
26976.045474999992
 20
14508.039787999989
 30
0.0
 40
15.0
 50
270.0
 51
90.0
  0
ARC
  5
4932
  8
0
  6
BYBLOCK
 62
     0
 10
26976.045474999992
 20
14465.542493000001
 30
0.0
 40
15.0
 50
270.0
 51
90.0
  0
ARC
  5
4933
  8
0
  6
BYBLOCK
 62
     0
 10
26976.045474999992
 20
14465.542493000001
 30
0.0
 40
15.0
 50
90.0
 51
270.0
  0
ARC
  5
4934
  8
0
  6
BYBLOCK
 62
     0
 10
22215.04587099998
 20
20415.540976000011
 30
0.0
 40
15.0
 50
180.0
 51
0.0
  0
ARC
  5
4935
  8
0
  6
BYBLOCK
 62
     0
 10
22215.04587099998
 20
20415.540976000011
 30
0.0
 40
15.0
 50
0.0
 51
180.0
  0
ARC
  5
4936
  8
0
  6
BYBLOCK
 62
     0
 10
22622.545870999969
 20
20415.540976000011
 30
0.0
 40
15.0
 50
0.0
 51
180.0
  0
ARC
  5
4937
  8
0
  6
BYBLOCK
 62
     0
 10
22622.545870999969
 20
20415.540976000011
 30
0.0
 40
15.0
 50
180.0
 51
0.0
  0
ARC
  5
4938
  8
0
  6
BYBLOCK
 62
     0
 10
24725.54587099998
 20
20415.540976000011
 30
0.0
 40
15.0
 50
0.0
 51
180.0
  0
ARC
  5
4939
  8
0
  6
BYBLOCK
 62
     0
 10
24725.54587099998
 20
20415.540976000011
 30
0.0
 40
15.0
 50
180.0
 51
0.0
  0
ARC
  5
493A
  8
0
  6
BYBLOCK
 62
     0
 10
25483.546860499991
 20
20415.540976000011
 30
0.0
 40
15.0
 50
180.0
 51
0.0
  0
ARC
  5
493B
  8
0
  6
BYBLOCK
 62
     0
 10
25483.546860499991
 20
20415.540976000011
 30
0.0
 40
15.0
 50
0.0
 51
180.0
  0
ARC
  5
493C
  8
0
  6
BYBLOCK
 62
     0
 10
24024.54587099998
 20
20415.540976000011
 30
0.0
 40
15.0
 50
0.0
 51
180.0
  0
ARC
  5
493D
  8
0
  6
BYBLOCK
 62
     0
 10
24024.54587099998
 20
20415.540976000011
 30
0.0
 40
15.0
 50
180.0
 51
0.0
  0
ARC
  5
493E
  8
0
  6
BYBLOCK
 62
     0
 10
24725.54587099998
 20
20415.540976000011
 30
0.0
 40
15.0
 50
180.0
 51
0.0
  0
ARC
  5
493F
  8
0
  6
BYBLOCK
 62
     0
 10
24725.54587099998
 20
20415.540976000011
 30
0.0
 40
15.0
 50
0.0
 51
180.0
  0
ARC
  5
4940
  8
0
  6
BYBLOCK
 62
     0
 10
23323.545870999969
 20
20415.540976000011
 30
0.0
 40
15.0
 50
0.0
 51
180.0
  0
ARC
  5
4941
  8
0
  6
BYBLOCK
 62
     0
 10
23323.545870999969
 20
20415.540976000011
 30
0.0
 40
15.0
 50
180.0
 51
0.0
  0
ARC
  5
4942
  8
0
  6
BYBLOCK
 62
     0
 10
24024.54587099998
 20
20415.540976000011
 30
0.0
 40
15.0
 50
180.0
 51
0.0
  0
ARC
  5
4943
  8
0
  6
BYBLOCK
 62
     0
 10
24024.54587099998
 20
20415.540976000011
 30
0.0
 40
15.0
 50
0.0
 51
180.0
  0
ARC
  5
4944
  8
0
  6
BYBLOCK
 62
     0
 10
22622.545870999969
 20
20415.540976000011
 30
0.0
 40
15.0
 50
0.0
 51
180.0
  0
ARC
  5
4945
  8
0
  6
BYBLOCK
 62
     0
 10
22622.545870999969
 20
20415.540976000011
 30
0.0
 40
15.0
 50
180.0
 51
0.0
  0
ARC
  5
4946
  8
0
  6
BYBLOCK
 62
     0
 10
23323.545870999969
 20
20415.540976000011
 30
0.0
 40
15.0
 50
180.0
 51
0.0
  0
ARC
  5
4947
  8
0
  6
BYBLOCK
 62
     0
 10
23323.545870999969
 20
20415.540976000011
 30
0.0
 40
15.0
 50
0.0
 51
180.0
  0
ARC
  5
4948
  8
0
  6
BYBLOCK
 62
     0
 10
25483.54587099998
 20
20415.540976000011
 30
0.0
 40
15.0
 50
180.0
 51
0.0
  0
ARC
  5
4949
  8
0
  6
BYBLOCK
 62
     0
 10
25483.54587099998
 20
20415.540976000011
 30
0.0
 40
15.0
 50
0.0
 51
180.0
  0
ARC
  5
494A
  8
0
  6
BYBLOCK
 62
     0
 10
25526.042175999981
 20
20415.540976000011
 30
0.0
 40
15.0
 50
0.0
 51
180.0
  0
ARC
  5
494B
  8
0
  6
BYBLOCK
 62
     0
 10
25526.042175999981
 20
20415.540976000011
 30
0.0
 40
15.0
 50
180.0
 51
0.0
  0
ARC
  5
494C
  8
0
  6
BYBLOCK
 62
     0
 10
18946.54587099998
 20
20415.540976000011
 30
0.0
 40
15.0
 50
180.0
 51
0.0
  0
ARC
  5
494D
  8
0
  6
BYBLOCK
 62
     0
 10
18946.54587099998
 20
20415.540976000011
 30
0.0
 40
15.0
 50
0.0
 51
180.0
  0
ARC
  5
494E
  8
0
  6
BYBLOCK
 62
     0
 10
19354.04587099998
 20
20415.540976000011
 30
0.0
 40
15.0
 50
0.0
 51
180.0
  0
ARC
  5
494F
  8
0
  6
BYBLOCK
 62
     0
 10
19354.04587099998
 20
20415.540976000011
 30
0.0
 40
15.0
 50
180.0
 51
0.0
  0
ARC
  5
4950
  8
0
  6
BYBLOCK
 62
     0
 10
18946.54587099998
 20
20415.540976000011
 30
0.0
 40
15.0
 50
0.0
 51
180.0
  0
ARC
  5
4951
  8
0
  6
BYBLOCK
 62
     0
 10
18946.54587099998
 20
20415.540976000011
 30
0.0
 40
15.0
 50
180.0
 51
0.0
  0
ARC
  5
4952
  8
0
  6
BYBLOCK
 62
     0
 10
18904.049565999969
 20
20415.540976000011
 30
0.0
 40
15.0
 50
180.0
 51
0.0
  0
ARC
  5
4953
  8
0
  6
BYBLOCK
 62
     0
 10
18904.049565999969
 20
20415.540976000011
 30
0.0
 40
15.0
 50
0.0
 51
180.0
  0
ARC
  5
4954
  8
0
  6
BYBLOCK
 62
     0
 10
21457.04587099998
 20
20415.540976000011
 30
0.0
 40
15.0
 50
0.0
 51
180.0
  0
ARC
  5
4955
  8
0
  6
BYBLOCK
 62
     0
 10
21457.04587099998
 20
20415.540976000011
 30
0.0
 40
15.0
 50
180.0
 51
0.0
  0
ARC
  5
4956
  8
0
  6
BYBLOCK
 62
     0
 10
22215.046860499991
 20
20415.540976000011
 30
0.0
 40
15.0
 50
180.0
 51
0.0
  0
ARC
  5
4957
  8
0
  6
BYBLOCK
 62
     0
 10
22215.046860499991
 20
20415.540976000011
 30
0.0
 40
15.0
 50
0.0
 51
180.0
  0
ARC
  5
4958
  8
0
  6
BYBLOCK
 62
     0
 10
20756.04587099998
 20
20415.540976000011
 30
0.0
 40
15.0
 50
0.0
 51
180.0
  0
ARC
  5
4959
  8
0
  6
BYBLOCK
 62
     0
 10
20756.04587099998
 20
20415.540976000011
 30
0.0
 40
15.0
 50
180.0
 51
0.0
  0
ARC
  5
495A
  8
0
  6
BYBLOCK
 62
     0
 10
21457.04587099998
 20
20415.540976000011
 30
0.0
 40
15.0
 50
180.0
 51
0.0
  0
ARC
  5
495B
  8
0
  6
BYBLOCK
 62
     0
 10
21457.04587099998
 20
20415.540976000011
 30
0.0
 40
15.0
 50
0.0
 51
180.0
  0
ARC
  5
495C
  8
0
  6
BYBLOCK
 62
     0
 10
20055.04587099998
 20
20415.540976000011
 30
0.0
 40
15.0
 50
0.0
 51
180.0
  0
ARC
  5
495D
  8
0
  6
BYBLOCK
 62
     0
 10
20055.04587099998
 20
20415.540976000011
 30
0.0
 40
15.0
 50
180.0
 51
0.0
  0
ARC
  5
495E
  8
0
  6
BYBLOCK
 62
     0
 10
20756.04587099998
 20
20415.540976000011
 30
0.0
 40
15.0
 50
180.0
 51
0.0
  0
ARC
  5
495F
  8
0
  6
BYBLOCK
 62
     0
 10
20756.04587099998
 20
20415.540976000011
 30
0.0
 40
15.0
 50
0.0
 51
180.0
  0
ARC
  5
4960
  8
0
  6
BYBLOCK
 62
     0
 10
19354.04587099998
 20
20415.540976000011
 30
0.0
 40
15.0
 50
0.0
 51
180.0
  0
ARC
  5
4961
  8
0
  6
BYBLOCK
 62
     0
 10
19354.04587099998
 20
20415.540976000011
 30
0.0
 40
15.0
 50
180.0
 51
0.0
  0
ARC
  5
4962
  8
0
  6
BYBLOCK
 62
     0
 10
20055.04587099998
 20
20415.540976000011
 30
0.0
 40
15.0
 50
180.0
 51
0.0
  0
ARC
  5
4963
  8
0
  6
BYBLOCK
 62
     0
 10
20055.04587099998
 20
20415.540976000011
 30
0.0
 40
15.0
 50
0.0
 51
180.0
  0
ARC
  5
4964
  8
0
  6
BYBLOCK
 62
     0
 10
18096.54653099996
 20
6367.0884779999969
 30
0.0
 40
15.0
 50
90.0
 51
270.0
  0
ARC
  5
4965
  8
0
  6
BYBLOCK
 62
     0
 10
18096.54653099996
 20
6367.0884779999969
 30
0.0
 40
15.0
 50
270.0
 51
90.0
  0
ARC
  5
4966
  8
0
  6
BYBLOCK
 62
     0
 10
18096.546530999982
 20
8258.588477999996
 30
0.0
 40
15.0
 50
270.0
 51
90.0
  0
ARC
  5
4967
  8
0
  6
BYBLOCK
 62
     0
 10
18096.546530999982
 20
8258.588477999996
 30
0.0
 40
15.0
 50
90.0
 51
270.0
  0
ARC
  5
4968
  8
0
  6
BYBLOCK
 62
     0
 10
17696.54422199995
 20
6367.0884779999969
 30
0.0
 40
15.0
 50
90.0
 51
270.0
  0
ARC
  5
4969
  8
0
  6
BYBLOCK
 62
     0
 10
17696.54422199995
 20
6367.0884779999969
 30
0.0
 40
15.0
 50
270.0
 51
90.0
  0
ARC
  5
496A
  8
0
  6
BYBLOCK
 62
     0
 10
17696.54422199995
 20
8715.5879829999976
 30
0.0
 40
15.0
 50
270.0
 51
90.0
  0
ARC
  5
496B
  8
0
  6
BYBLOCK
 62
     0
 10
17696.54422199995
 20
8715.5879829999976
 30
0.0
 40
15.0
 50
90.0
 51
270.0
  0
ARC
  5
497C
  8
0
  6
BYBLOCK
 62
     0
 10
19040.54587099998
 20
5467.088643000001
 30
0.0
 40
15.0
 50
0.0
 51
180.0
  0
ARC
  5
497D
  8
0
  6
BYBLOCK
 62
     0
 10
19040.54587099998
 20
5467.088643000001
 30
0.0
 40
15.0
 50
180.0
 51
0.0
  0
ARC
  5
497E
  8
0
  6
BYBLOCK
 62
     0
 10
22121.04587099998
 20
5467.088643000001
 30
0.0
 40
15.0
 50
180.0
 51
0.0
  0
ARC
  5
497F
  8
0
  6
BYBLOCK
 62
     0
 10
22121.04587099998
 20
5467.088643000001
 30
0.0
 40
15.0
 50
0.0
 51
180.0
  0
ARC
  5
4980
  8
0
  6
BYBLOCK
 62
     0
 10
22309.04587099998
 20
5467.088643000001
 30
0.0
 40
15.0
 50
0.0
 51
180.0
  0
ARC
  5
4981
  8
0
  6
BYBLOCK
 62
     0
 10
22309.04587099998
 20
5467.088643000001
 30
0.0
 40
15.0
 50
180.0
 51
0.0
  0
ARC
  5
4982
  8
0
  6
BYBLOCK
 62
     0
 10
25389.54587099998
 20
5467.088643000001
 30
0.0
 40
15.0
 50
180.0
 51
0.0
  0
ARC
  5
4983
  8
0
  6
BYBLOCK
 62
     0
 10
25389.54587099998
 20
5467.088643000001
 30
0.0
 40
15.0
 50
0.0
 51
180.0
  0
ARC
  5
4984
  8
0
  6
BYBLOCK
 62
     0
 10
22215.04587099998
 20
5067.088643000001
 30
0.0
 40
15.0
 50
0.0
 51
180.0
  0
ARC
  5
4985
  8
0
  6
BYBLOCK
 62
     0
 10
22215.04587099998
 20
5067.088643000001
 30
0.0
 40
15.0
 50
180.0
 51
0.0
  0
ARC
  5
4986
  8
0
  6
BYBLOCK
 62
     0
 10
25483.54587099998
 20
5067.088643000001
 30
0.0
 40
15.0
 50
180.0
 51
0.0
  0
ARC
  5
4987
  8
0
  6
BYBLOCK
 62
     0
 10
25483.54587099998
 20
5067.088643000001
 30
0.0
 40
15.0
 50
0.0
 51
180.0
  0
ARC
  5
4988
  8
0
  6
BYBLOCK
 62
     0
 10
18946.54587099998
 20
5067.088643000001
 30
0.0
 40
15.0
 50
0.0
 51
180.0
  0
ARC
  5
4989
  8
0
  6
BYBLOCK
 62
     0
 10
18946.54587099998
 20
5067.088643000001
 30
0.0
 40
15.0
 50
180.0
 51
0.0
  0
ARC
  5
498A
  8
0
  6
BYBLOCK
 62
     0
 10
22215.04587099998
 20
5067.088643000001
 30
0.0
 40
15.0
 50
180.0
 51
0.0
  0
ARC
  5
498B
  8
0
  6
BYBLOCK
 62
     0
 10
22215.04587099998
 20
5067.088643000001
 30
0.0
 40
15.0
 50
0.0
 51
180.0
  0
ARC
  5
498C
  8
0
  6
BYBLOCK
 62
     0
 10
25483.549829999982
 20
5067.088643000001
 30
0.0
 40
15.0
 50
180.0
 51
0.0
  0
ARC
  5
498D
  8
0
  6
BYBLOCK
 62
     0
 10
25483.549829999982
 20
5067.088643000001
 30
0.0
 40
15.0
 50
0.0
 51
180.0
  0
ARC
  5
498E
  8
0
  6
BYBLOCK
 62
     0
 10
25526.049829999982
 20
5067.088643000001
 30
0.0
 40
15.0
 50
0.0
 51
180.0
  0
ARC
  5
498F
  8
0
  6
BYBLOCK
 62
     0
 10
25526.049829999982
 20
5067.088643000001
 30
0.0
 40
15.0
 50
180.0
 51
0.0
  0
ARC
  5
4990
  8
0
  6
BYBLOCK
 62
     0
 10
18946.54587099998
 20
5067.088643000001
 30
0.0
 40
15.0
 50
0.0
 51
180.0
  0
ARC
  5
4991
  8
0
  6
BYBLOCK
 62
     0
 10
18946.54587099998
 20
5067.088643000001
 30
0.0
 40
15.0
 50
180.0
 51
0.0
  0
ARC
  5
4992
  8
0
  6
BYBLOCK
 62
     0
 10
18904.04587099998
 20
5067.088643000001
 30
0.0
 40
15.0
 50
180.0
 51
0.0
  0
ARC
  5
4993
  8
0
  6
BYBLOCK
 62
     0
 10
18904.04587099998
 20
5067.088643000001
 30
0.0
 40
15.0
 50
0.0
 51
180.0
  0
ARC
  5
4994
  8
0
  6
BYBLOCK
 62
     0
 10
18904.04587099998
 20
4667.0888079999986
 30
0.0
 40
15.0
 50
0.0
 51
180.0
  0
ARC
  5
4995
  8
0
  6
BYBLOCK
 62
     0
 10
18904.04587099998
 20
4667.0888079999986
 30
0.0
 40
15.0
 50
180.0
 51
0.0
  0
ARC
  5
4996
  8
0
  6
BYBLOCK
 62
     0
 10
25526.04587099998
 20
4667.0888079999986
 30
0.0
 40
15.0
 50
180.0
 51
0.0
  0
ARC
  5
4997
  8
0
  6
BYBLOCK
 62
     0
 10
25526.04587099998
 20
4667.0888079999986
 30
0.0
 40
15.0
 50
0.0
 51
180.0
  0
ARC
  5
4998
  8
0
  6
BYBLOCK
 62
     0
 10
15261.788825
 20
6367.0884780000006
 30
0.0
 40
15.0
 50
90.0
 51
270.0
  0
ARC
  5
4999
  8
0
  6
BYBLOCK
 62
     0
 10
15261.788825
 20
6367.0884780000006
 30
0.0
 40
15.0
 50
270.0
 51
90.0
  0
ARC
  5
499A
  8
0
  6
BYBLOCK
 62
     0
 10
15261.788825
 20
8716.0884780000033
 30
0.0
 40
15.0
 50
270.0
 51
90.0
  0
ARC
  5
499B
  8
0
  6
BYBLOCK
 62
     0
 10
15261.788825
 20
8716.0884780000033
 30
0.0
 40
15.0
 50
90.0
 51
270.0
  0
ARC
  5
499C
  8
0
  6
BYBLOCK
 62
     0
 10
7861.7900130000007
 20
6367.0884780000006
 30
0.0
 40
15.0
 50
90.0
 51
270.0
  0
ARC
  5
499D
  8
0
  6
BYBLOCK
 62
     0
 10
7861.7900130000007
 20
6367.0884780000006
 30
0.0
 40
15.0
 50
270.0
 51
90.0
  0
ARC
  5
499E
  8
0
  6
BYBLOCK
 62
     0
 10
7861.7900130000007
 20
8522.5884780000015
 30
0.0
 40
15.0
 50
270.0
 51
90.0
  0
ARC
  5
499F
  8
0
  6
BYBLOCK
 62
     0
 10
7861.7900130000007
 20
8522.5884780000015
 30
0.0
 40
15.0
 50
90.0
 51
270.0
  0
ARC
  5
49A0
  8
0
  6
BYBLOCK
 62
     0
 10
14171.79040899999
 20
9515.0901529999974
 30
0.0
 40
15.0
 50
180.0
 51
0.0
  0
ARC
  5
49A1
  8
0
  6
BYBLOCK
 62
     0
 10
14171.79040899999
 20
9515.0901529999974
 30
0.0
 40
15.0
 50
0.0
 51
180.0
  0
ARC
  5
49A2
  8
0
  6
BYBLOCK
 62
     0
 10
14321.79040899999
 20
9515.0901529999974
 30
0.0
 40
15.0
 50
0.0
 51
180.0
  0
ARC
  5
49A3
  8
0
  6
BYBLOCK
 62
     0
 10
14321.79040899999
 20
9515.0901529999974
 30
0.0
 40
15.0
 50
180.0
 51
0.0
  0
ARC
  5
49A4
  8
0
  6
BYBLOCK
 62
     0
 10
8771.7904090000011
 20
9915.088502999999
 30
0.0
 40
15.0
 50
0.0
 51
180.0
  0
ARC
  5
49A5
  8
0
  6
BYBLOCK
 62
     0
 10
8771.7904090000011
 20
9915.088502999999
 30
0.0
 40
15.0
 50
180.0
 51
0.0
  0
ARC
  5
49A6
  8
0
  6
BYBLOCK
 62
     0
 10
14321.79040899999
 20
9915.088502999999
 30
0.0
 40
15.0
 50
180.0
 51
0.0
  0
ARC
  5
49A7
  8
0
  6
BYBLOCK
 62
     0
 10
14321.79040899999
 20
9915.088502999999
 30
0.0
 40
15.0
 50
0.0
 51
180.0
  0
ARC
  5
49A8
  8
0
  6
BYBLOCK
 62
     0
 10
8951.7904090000011
 20
9515.0901529999974
 30
0.0
 40
15.0
 50
0.0
 51
180.0
  0
ARC
  5
49A9
  8
0
  6
BYBLOCK
 62
     0
 10
8951.7904090000011
 20
9515.0901529999974
 30
0.0
 40
15.0
 50
180.0
 51
0.0
  0
ARC
  5
49AA
  8
0
  6
BYBLOCK
 62
     0
 10
14171.79040899999
 20
9515.0901529999974
 30
0.0
 40
15.0
 50
180.0
 51
0.0
  0
ARC
  5
49AB
  8
0
  6
BYBLOCK
 62
     0
 10
14171.79040899999
 20
9515.0901529999974
 30
0.0
 40
15.0
 50
0.0
 51
180.0
  0
ARC
  5
49AC
  8
0
  6
BYBLOCK
 62
     0
 10
8771.7904090000011
 20
9515.0901529999974
 30
0.0
 40
15.0
 50
180.0
 51
0.0
  0
ARC
  5
49AD
  8
0
  6
BYBLOCK
 62
     0
 10
8771.7904090000011
 20
9515.0901529999974
 30
0.0
 40
15.0
 50
0.0
 51
180.0
  0
ARC
  5
49AE
  8
0
  6
BYBLOCK
 62
     0
 10
8951.7904090000011
 20
9515.0901529999974
 30
0.0
 40
15.0
 50
0.0
 51
180.0
  0
ARC
  5
49AF
  8
0
  6
BYBLOCK
 62
     0
 10
8951.7904090000011
 20
9515.0901529999974
 30
0.0
 40
15.0
 50
180.0
 51
0.0
  0
ARC
  5
49B0
  8
0
  6
BYBLOCK
 62
     0
 10
14129.28842999999
 20
5067.0886419999961
 30
0.0
 40
15.0
 50
180.0
 51
0.0
  0
ARC
  5
49B1
  8
0
  6
BYBLOCK
 62
     0
 10
14129.28842999999
 20
5067.0886419999961
 30
0.0
 40
15.0
 50
0.0
 51
180.0
  0
ARC
  5
49B2
  8
0
  6
BYBLOCK
 62
     0
 10
14171.788430000001
 20
5067.0886419999961
 30
0.0
 40
15.0
 50
0.0
 51
180.0
  0
ARC
  5
49B3
  8
0
  6
BYBLOCK
 62
     0
 10
14171.788430000001
 20
5067.0886419999961
 30
0.0
 40
15.0
 50
180.0
 51
0.0
  0
ARC
  5
49B4
  8
0
  6
BYBLOCK
 62
     0
 10
11561.79040899999
 20
5067.088643000001
 30
0.0
 40
15.0
 50
0.0
 51
180.0
  0
ARC
  5
49B5
  8
0
  6
BYBLOCK
 62
     0
 10
11561.79040899999
 20
5067.088643000001
 30
0.0
 40
15.0
 50
180.0
 51
0.0
  0
ARC
  5
49B6
  8
0
  6
BYBLOCK
 62
     0
 10
14129.29040899999
 20
5067.088643000001
 30
0.0
 40
15.0
 50
180.0
 51
0.0
  0
ARC
  5
49B7
  8
0
  6
BYBLOCK
 62
     0
 10
14129.29040899999
 20
5067.088643000001
 30
0.0
 40
15.0
 50
0.0
 51
180.0
  0
ARC
  5
49B8
  8
0
  6
BYBLOCK
 62
     0
 10
8951.7904090000011
 20
4667.0888069999983
 30
0.0
 40
15.0
 50
0.0
 51
180.0
  0
ARC
  5
49B9
  8
0
  6
BYBLOCK
 62
     0
 10
8951.7904090000011
 20
4667.0888069999983
 30
0.0
 40
15.0
 50
180.0
 51
0.0
  0
ARC
  5
49BA
  8
0
  6
BYBLOCK
 62
     0
 10
14171.788430000001
 20
4667.0888069999983
 30
0.0
 40
15.0
 50
180.0
 51
0.0
  0
ARC
  5
49BB
  8
0
  6
BYBLOCK
 62
     0
 10
14171.788430000001
 20
4667.0888069999983
 30
0.0
 40
15.0
 50
0.0
 51
180.0
  0
ARC
  5
49BC
  8
0
  6
BYBLOCK
 62
     0
 10
8994.2904090000029
 20
5067.0886419999961
 30
0.0
 40
15.0
 50
0.0
 51
180.0
  0
ARC
  5
49BD
  8
0
  6
BYBLOCK
 62
     0
 10
8994.2904090000029
 20
5067.0886419999961
 30
0.0
 40
15.0
 50
180.0
 51
0.0
  0
ARC
  5
49BE
  8
0
  6
BYBLOCK
 62
     0
 10
8951.7904090000011
 20
5067.0886419999961
 30
0.0
 40
15.0
 50
180.0
 51
0.0
  0
ARC
  5
49BF
  8
0
  6
BYBLOCK
 62
     0
 10
8951.7904090000011
 20
5067.0886419999961
 30
0.0
 40
15.0
 50
0.0
 51
180.0
  0
ARC
  5
49C0
  8
0
  6
BYBLOCK
 62
     0
 10
11561.79040899999
 20
5067.0886419999961
 30
0.0
 40
15.0
 50
180.0
 51
0.0
  0
ARC
  5
49C1
  8
0
  6
BYBLOCK
 62
     0
 10
11561.79040899999
 20
5067.0886419999961
 30
0.0
 40
15.0
 50
0.0
 51
180.0
  0
ARC
  5
49C2
  8
0
  6
BYBLOCK
 62
     0
 10
8994.2904090000029
 20
5067.0886419999961
 30
0.0
 40
15.0
 50
0.0
 51
180.0
  0
ARC
  5
49C3
  8
0
  6
BYBLOCK
 62
     0
 10
8994.2904090000029
 20
5067.0886419999961
 30
0.0
 40
15.0
 50
180.0
 51
0.0
  0
LINE
  5
4AEB
  8
0-1
  6
CONTINUOUS
 62
     3
 10
25420.048852999971
 20
8465.5884979999973
 30
0.0
 11
25420.048852999971
 21
8497.5884050000004
 31
0.0
  0
LINE
  5
4AEC
  8
0-1
  6
CONTINUOUS
 62
     3
 10
25569.04824599998
 20
8389.4017760000006
 30
0.0
 11
25526.046134999971
 21
8389.4017760000006
 31
0.0
  0
LINE
  5
4AED
  8
0-1
  6
CONTINUOUS
 62
     3
 10
25569.04824599998
 20
8715.5888270000032
 30
0.0
 11
25569.04824599998
 21
8389.4017760000006
 31
0.0
  0
LINE
  5
4AEE
  8
0-1
  6
CONTINUOUS
 62
     3
 10
25134.081659999989
 20
8462.0530769999987
 30
0.0
 11
25102.082742999981
 21
8494.0529849999984
 31
0.0
  0
LINE
  5
4AEF
  8
0-1
  6
CONTINUOUS
 62
     3
 10
25415.048588999962
 20
8502.5886689999988
 30
0.0
 11
25105.618162999988
 21
8502.5886689999988
 31
0.0
  0
LINE
  5
4AF0
  8
0-1
  6
CONTINUOUS
 62
     3
 10
25420.048852999971
 20
8494.189572000003
 30
0.0
 11
25101.952093999971
 21
8494.189572000003
 31
0.0
  0
LINE
  5
4AF1
  8
0-1
  6
CONTINUOUS
 62
     3
 10
25415.048588999962
 20
8460.5882340000007
 30
0.0
 11
25137.619059999972
 21
8460.5882340000007
 31
0.0
  0
LINE
  5
4AF2
  8
0-1
  6
CONTINUOUS
 62
     3
 10
25420.048852999971
 20
8468.9883209999989
 30
0.0
 11
25127.147406999989
 21
8468.9883209999989
 31
0.0
  0
LINE
  5
4AF3
  8
0-1
  6
CONTINUOUS
 62
     3
 10
25420.048852999971
 20
8477.3884079999971
 30
0.0
 11
25118.748308999981
 21
8477.3884079999971
 31
0.0
  0
LINE
  5
4AF4
  8
0-1
  6
CONTINUOUS
 62
     3
 10
25420.048852999971
 20
8485.7894849999975
 30
0.0
 11
25110.34723299996
 21
8485.7894849999975
 31
0.0
  0
LINE
  5
4AF5
  8
0-1
  6
CONTINUOUS
 62
     3
 10
22564.512061000001
 20
8462.0530769999987
 30
0.0
 11
22596.508999000001
 21
8494.0529849999984
 31
0.0
  0
LINE
  5
4AF6
  8
0-1
  6
CONTINUOUS
 62
     3
 10
22278.546847000001
 20
8465.5884979999973
 30
0.0
 11
22278.546847000001
 21
8497.5884050000004
 31
0.0
  0
LINE
  5
4AF7
  8
0-1
  6
CONTINUOUS
 62
     3
 10
22278.546847000001
 20
8468.9883209999989
 30
0.0
 11
22571.444334999971
 21
8468.9883209999989
 31
0.0
  0
LINE
  5
4AF8
  8
0-1
  6
CONTINUOUS
 62
     3
 10
22278.546847000001
 20
8477.3884079999971
 30
0.0
 11
22579.845411999991
 21
8477.3884079999971
 31
0.0
  0
LINE
  5
4AF9
  8
0-1
  6
CONTINUOUS
 62
     3
 10
22283.547110999989
 20
8460.5882340000007
 30
0.0
 11
22560.974660999989
 21
8460.5882340000007
 31
0.0
  0
LINE
  5
4AFA
  8
0-1
  6
CONTINUOUS
 62
     3
 10
22278.546847000001
 20
8485.7894849999975
 30
0.0
 11
22588.244509
 21
8485.7894849999975
 31
0.0
  0
LINE
  5
4AFB
  8
0-1
  6
CONTINUOUS
 62
     3
 10
22278.546847000001
 20
8494.189572000003
 30
0.0
 11
22596.641627000001
 21
8494.189572000003
 31
0.0
  0
LINE
  5
4AFC
  8
0-1
  6
CONTINUOUS
 62
     3
 10
22283.547110999989
 20
8502.5886689999988
 30
0.0
 11
22592.975558000009
 21
8502.5886689999988
 31
0.0
  0
LINE
  5
4AFD
  8
0-1
  6
CONTINUOUS
 62
     3
 10
25569.04824599998
 20
8585.5879039999982
 30
0.0
 11
22215.04587099998
 21
8585.5879039999982
 31
0.0
  0
LINE
  5
4AFE
  8
0-1
  6
CONTINUOUS
 62
     3
 10
22257.544154999989
 20
8511.5885500000004
 30
0.0
 11
25441.047585999971
 21
8511.5885500000004
 31
0.0
  0
LINE
  5
4AFF
  8
0-1
  6
CONTINUOUS
 62
     3
 10
22257.544154999989
 20
8451.5883519999988
 30
0.0
 11
25441.047585999971
 21
8451.5883519999988
 31
0.0
  0
LINE
  5
4B00
  8
0-1
  6
CONTINUOUS
 62
     3
 10
22215.04587099998
 20
8715.5888270000032
 30
0.0
 11
25569.04824599998
 21
8715.5888270000032
 31
0.0
  0
LINE
  5
4B01
  8
0-1
  6
CONTINUOUS
 62
     3
 10
22151.544894999981
 20
8465.5884979999973
 30
0.0
 11
22151.544894999981
 21
8497.5884050000004
 31
0.0
  0
LINE
  5
4B02
  8
0-1
  6
CONTINUOUS
 62
     3
 10
21865.583639999972
 20
8462.0530769999987
 30
0.0
 11
21833.582742999981
 21
8494.0529849999984
 31
0.0
  0
LINE
  5
4B03
  8
0-1
  6
CONTINUOUS
 62
     3
 10
22151.544894999981
 20
8494.189572000003
 30
0.0
 11
21833.452094999961
 21
8494.189572000003
 31
0.0
  0
LINE
  5
4B04
  8
0-1
  6
CONTINUOUS
 62
     3
 10
22151.544894999981
 20
8485.7894849999975
 30
0.0
 11
21841.84723299996
 21
8485.7894849999975
 31
0.0
  0
LINE
  5
4B05
  8
0-1
  6
CONTINUOUS
 62
     3
 10
22151.544894999981
 20
8477.3884079999971
 30
0.0
 11
21850.24632999998
 21
8477.3884079999971
 31
0.0
  0
LINE
  5
4B06
  8
0-1
  6
CONTINUOUS
 62
     3
 10
22151.544894999981
 20
8468.9883209999989
 30
0.0
 11
21858.64542799996
 21
8468.9883209999989
 31
0.0
  0
LINE
  5
4B07
  8
0-1
  6
CONTINUOUS
 62
     3
 10
22146.546609999968
 20
8502.5886689999988
 30
0.0
 11
21837.11618399998
 21
8502.5886689999988
 31
0.0
  0
LINE
  5
4B08
  8
0-1
  6
CONTINUOUS
 62
     3
 10
22146.546609999968
 20
8460.5882340000007
 30
0.0
 11
21869.119060999968
 21
8460.5882340000007
 31
0.0
  0
LINE
  5
4B09
  8
0-1
  6
CONTINUOUS
 62
     3
 10
19015.045131999981
 20
8460.5882340000007
 30
0.0
 11
19292.474661999961
 21
8460.5882340000007
 31
0.0
  0
LINE
  5
4B0A
  8
0-1
  6
CONTINUOUS
 62
     3
 10
19010.046847999969
 20
8465.5884979999973
 30
0.0
 11
19010.046847999969
 21
8497.5884050000004
 31
0.0
  0
LINE
  5
4B0B
  8
0-1
  6
CONTINUOUS
 62
     3
 10
18861.045475999959
 20
8389.4017760000006
 30
0.0
 11
18904.043627999981
 21
8389.4017760000006
 31
0.0
  0
LINE
  5
4B0C
  8
0-1
  6
CONTINUOUS
 62
     3
 10
18861.045475999959
 20
8389.4017760000006
 30
0.0
 11
18861.045475999959
 21
8715.5888270000032
 31
0.0
  0
LINE
  5
4B0D
  8
0-1
  6
CONTINUOUS
 62
     3
 10
19015.045131999981
 20
8502.5886689999988
 30
0.0
 11
19324.47555899998
 21
8502.5886689999988
 31
0.0
  0
LINE
  5
4B0E
  8
0-1
  6
CONTINUOUS
 62
     3
 10
19296.008101999982
 20
8462.0530769999987
 30
0.0
 11
19328.00899999998
 21
8494.0529849999984
 31
0.0
  0
LINE
  5
4B0F
  8
0-1
  6
CONTINUOUS
 62
     3
 10
19010.046847999969
 20
8494.189572000003
 30
0.0
 11
19328.14162699999
 21
8494.189572000003
 31
0.0
  0
LINE
  5
4B10
  8
0-1
  6
CONTINUOUS
 62
     3
 10
19010.046847999969
 20
8485.7894849999975
 30
0.0
 11
19319.744509999971
 21
8485.7894849999975
 31
0.0
  0
LINE
  5
4B11
  8
0-1
  6
CONTINUOUS
 62
     3
 10
19010.046847999969
 20
8477.3884079999971
 30
0.0
 11
19311.345411999991
 21
8477.3884079999971
 31
0.0
  0
LINE
  5
4B12
  8
0-1
  6
CONTINUOUS
 62
     3
 10
19010.046847999969
 20
8468.9883209999989
 30
0.0
 11
19302.946314999961
 21
8468.9883209999989
 31
0.0
  0
LINE
  5
4B13
  8
0-1
  6
CONTINUOUS
 62
     3
 10
18989.044155999982
 20
8451.5883519999988
 30
0.0
 11
22172.545606999971
 21
8451.5883519999988
 31
0.0
  0
LINE
  5
4B14
  8
0-1
  6
CONTINUOUS
 62
     3
 10
18989.044155999982
 20
8511.5885500000004
 30
0.0
 11
22172.545606999971
 21
8511.5885500000004
 31
0.0
  0
LINE
  5
4B15
  8
0-1
  6
CONTINUOUS
 62
     3
 10
18861.045475999959
 20
8715.5888270000032
 30
0.0
 11
22215.04587099998
 21
8715.5888270000032
 31
0.0
  0
LINE
  5
4B16
  8
0-1
  6
CONTINUOUS
 62
     3
 10
22215.04587099998
 20
8585.5879039999982
 30
0.0
 11
18861.045475999959
 21
8585.5879039999982
 31
0.0
  0
LINE
  5
4B17
  8
0-1
  6
CONTINUOUS
 62
     3
 10
22215.04587099998
 20
8585.5879039999982
 30
0.0
 11
22215.04587099998
 21
8715.5888270000032
 31
0.0
  0
LINE
  5
4B18
  8
0-1
  6
CONTINUOUS
 62
     3
 10
22215.04587099998
 20
8585.5879039999982
 30
0.0
 11
22215.04587099998
 21
8715.5888270000032
 31
0.0
  0
ARC
  5
4B19
  8
0-1
  6
CONTINUOUS
 62
     3
 10
25415.048588999962
 20
8497.5884050000004
 30
0.0
 40
5.0
 50
0.0
 51
90.0
  0
ARC
  5
4B1A
  8
0-1
  6
CONTINUOUS
 62
     3
 10
25415.048588999962
 20
8465.5884979999973
 30
0.0
 40
5.0
 50
269.9999850001808
 51
0.0
  0
ARC
  5
4B1B
  8
0-1
  6
CONTINUOUS
 62
     3
 10
25105.618162999988
 20
8497.5884050000004
 30
0.0
 40
5.0
 50
90.0
 51
224.99998499997989
  0
ARC
  5
4B1C
  8
0-1
  6
CONTINUOUS
 62
     3
 10
25137.619059999972
 20
8465.5884979999973
 30
0.0
 40
5.0
 50
224.99998499997989
 51
269.9999850001808
  0
ARC
  5
4B1D
  8
0-1
  6
CONTINUOUS
 62
     3
 10
22592.975558000009
 20
8497.5884050000004
 30
0.0
 40
5.0
 50
314.99998500027471
 51
90.0
  0
ARC
  5
4B1E
  8
0-1
  6
CONTINUOUS
 62
     3
 10
22560.974660999989
 20
8465.5884979999973
 30
0.0
 40
5.0
 50
269.9999850001808
 51
314.99998500027471
  0
ARC
  5
4B1F
  8
0-1
  6
CONTINUOUS
 62
     3
 10
22283.547110999989
 20
8465.5884979999973
 30
0.0
 40
5.0
 50
180.0
 51
269.9999850001808
  0
ARC
  5
4B20
  8
0-1
  6
CONTINUOUS
 62
     3
 10
22283.547110999989
 20
8497.5884050000004
 30
0.0
 40
5.0
 50
90.0
 51
180.0
  0
ARC
  5
4B21
  8
0-1
  6
CONTINUOUS
 62
     3
 10
22146.546609999968
 20
8465.5884979999973
 30
0.0
 40
5.0
 50
269.9999850001808
 51
0.0
  0
ARC
  5
4B22
  8
0-1
  6
CONTINUOUS
 62
     3
 10
22146.546609999968
 20
8497.5884050000004
 30
0.0
 40
5.0
 50
0.0
 51
90.0
  0
ARC
  5
4B23
  8
0-1
  6
CONTINUOUS
 62
     3
 10
21837.11618399998
 20
8497.5884050000004
 30
0.0
 40
5.0
 50
90.0
 51
224.99998499997989
  0
ARC
  5
4B24
  8
0-1
  6
CONTINUOUS
 62
     3
 10
21869.119060999968
 20
8465.5884979999973
 30
0.0
 40
5.0
 50
224.99998499997989
 51
269.9999850001808
  0
ARC
  5
4B25
  8
0-1
  6
CONTINUOUS
 62
     3
 10
19324.47555899998
 20
8497.5884050000004
 30
0.0
 40
5.0
 50
314.99998500027471
 51
90.0
  0
ARC
  5
4B26
  8
0-1
  6
CONTINUOUS
 62
     3
 10
19015.045131999981
 20
8497.5884050000004
 30
0.0
 40
5.0
 50
90.0
 51
180.0
  0
ARC
  5
4B27
  8
0-1
  6
CONTINUOUS
 62
     3
 10
19015.045131999981
 20
8465.5884979999973
 30
0.0
 40
5.0
 50
180.0
 51
269.9999850001808
  0
ARC
  5
4B28
  8
0-1
  6
CONTINUOUS
 62
     3
 10
19292.474661999961
 20
8465.5884979999973
 30
0.0
 40
5.0
 50
269.9999850001808
 51
314.99998500027471
  0
LINE
  5
4B29
  8
SUNPOU
  6
CONTINUOUS
 62
     4
 10
18861.043495999958
 20
8795.5888270000032
 30
0.0
 11
18861.043495999958
 21
9995.0464389999997
 31
0.0
  0
LINE
  5
4B2A
  8
SUNPOU
  6
CONTINUOUS
 62
     4
 10
25569.04824599998
 20
8795.5888270000032
 30
0.0
 11
25569.04824599998
 21
9995.0464389999997
 31
0.0
  0
LINE
  5
4B2B
  8
SUNPOU
  6
CONTINUOUS
 62
     4
 10
18864.043495999958
 20
9915.0464390000016
 30
0.0
 11
25566.04824599998
 21
9915.0464390000016
 31
0.0
  0
LINE
  5
4B2C
  8
SUNPOU
  6
CONTINUOUS
 62
     4
 10
18904.04560699996
 20
8795.5888270000032
 30
0.0
 11
18904.04560699996
 21
9595.0886689999988
 31
0.0
  0
LINE
  5
4B2D
  8
SUNPOU
  6
CONTINUOUS
 62
     4
 10
25526.046134999971
 20
8795.5888270000032
 30
0.0
 11
25526.046134999971
 21
9595.0886689999988
 31
0.0
  0
LINE
  5
4B2E
  8
SUNPOU
  6
CONTINUOUS
 62
     4
 10
18904.04560699996
 20
9515.0886689999988
 30
0.0
 11
25526.046134999971
 21
9515.0886689999988
 31
0.0
  0
LINE
  5
4B2F
  8
SUNPOU
  6
CONTINUOUS
 62
     4
 10
18904.04560699996
 20
8795.5888270000032
 30
0.0
 11
18904.04560699996
 21
9595.0886689999988
 31
0.0
  0
LINE
  5
4B30
  8
SUNPOU
  6
CONTINUOUS
 62
     4
 10
18861.043495999958
 20
8795.5888270000032
 30
0.0
 11
18861.043495999958
 21
9595.0886689999988
 31
0.0
  0
LINE
  5
4B31
  8
SUNPOU
  6
CONTINUOUS
 62
     4
 10
18904.04560699996
 20
9515.0886689999988
 30
0.0
 11
19144.04560699996
 21
9515.0886689999988
 31
0.0
  0
LINE
  5
4B32
  8
SUNPOU
  6
CONTINUOUS
 62
     4
 10
18864.043495999958
 20
9515.0886689999988
 30
0.0
 11
18624.04349599998
 21
9515.0886689999988
 31
0.0
  0
LINE
  5
4B33
  8
SUNPOU
  6
CONTINUOUS
 62
     4
 10
18904.04560699996
 20
9515.0886689999988
 30
0.0
 11
18864.043495999958
 21
9515.0886689999988
 31
0.0
  0
LINE
  5
4B34
  8
SUNPOU
  6
CONTINUOUS
 62
     4
 10
25526.046134999971
 20
8795.5888270000032
 30
0.0
 11
25526.046134999971
 21
9595.0886689999988
 31
0.0
  0
LINE
  5
4B35
  8
SUNPOU
  6
CONTINUOUS
 62
     4
 10
25569.04824599998
 20
8795.5888270000032
 30
0.0
 11
25569.04824599998
 21
9595.0886689999988
 31
0.0
  0
LINE
  5
4B36
  8
SUNPOU
  6
CONTINUOUS
 62
     4
 10
25526.046134999971
 20
9515.0886689999988
 30
0.0
 11
25286.04613499996
 21
9515.0886689999988
 31
0.0
  0
LINE
  5
4B37
  8
SUNPOU
  6
CONTINUOUS
 62
     4
 10
25566.04824599998
 20
9515.0886689999988
 30
0.0
 11
25806.04824599998
 21
9515.0886689999988
 31
0.0
  0
LINE
  5
4B38
  8
SUNPOU
  6
CONTINUOUS
 62
     4
 10
25526.046134999971
 20
9515.0886689999988
 30
0.0
 11
25566.04824599998
 21
9515.0886689999988
 31
0.0
  0
TEXT
  5
4B39
  8
0
  6
CONTINUOUS
 62
     7
 10
25686.04824599998
 20
9595.0886689999988
 30
0.0
 40
160.0
  1
43
  0
TEXT
  5
4B3A
  8
0
  6
CONTINUOUS
 62
     7
 10
18504.043495999969
 20
9595.0886689999988
 30
0.0
 40
160.0
  1
43
  0
TEXT
  5
4B3B
  8
0
  6
CONTINUOUS
 62
     7
 10
21921.712537666652
 20
9595.0886689999988
 30
0.0
 40
160.0
  1
6622
  0
TEXT
  5
4B3C
  8
0
  6
CONTINUOUS
 62
     7
 10
21935.04587099998
 20
9995.0464389999997
 30
0.0
 40
160.0
  1
6708
  0
ARC
  5
4B3D
  8
0
  6
BYBLOCK
 62
     0
 10
18861.043495999958
 20
9915.0464390000016
 30
0.0
 40
15.0
 50
0.0
 51
180.0
  0
ARC
  5
4B3E
  8
0
  6
BYBLOCK
 62
     0
 10
18861.043495999958
 20
9915.0464390000016
 30
0.0
 40
15.0
 50
180.0
 51
0.0
  0
ARC
  5
4B3F
  8
0
  6
BYBLOCK
 62
     0
 10
25569.04824599998
 20
9915.0464390000016
 30
0.0
 40
15.0
 50
180.0
 51
0.0
  0
ARC
  5
4B40
  8
0
  6
BYBLOCK
 62
     0
 10
25569.04824599998
 20
9915.0464390000016
 30
0.0
 40
15.0
 50
0.0
 51
180.0
  0
ARC
  5
4B41
  8
0
  6
BYBLOCK
 62
     0
 10
18904.04560699996
 20
9515.0886689999988
 30
0.0
 40
15.0
 50
0.0
 51
180.0
  0
ARC
  5
4B42
  8
0
  6
BYBLOCK
 62
     0
 10
18904.04560699996
 20
9515.0886689999988
 30
0.0
 40
15.0
 50
180.0
 51
0.0
  0
ARC
  5
4B43
  8
0
  6
BYBLOCK
 62
     0
 10
25526.046134999971
 20
9515.0886689999988
 30
0.0
 40
15.0
 50
180.0
 51
0.0
  0
ARC
  5
4B44
  8
0
  6
BYBLOCK
 62
     0
 10
25526.046134999971
 20
9515.0886689999988
 30
0.0
 40
15.0
 50
0.0
 51
180.0
  0
ARC
  5
4B45
  8
0
  6
BYBLOCK
 62
     0
 10
18904.04560699996
 20
9515.0886689999988
 30
0.0
 40
15.0
 50
0.0
 51
180.0
  0
ARC
  5
4B46
  8
0
  6
BYBLOCK
 62
     0
 10
18904.04560699996
 20
9515.0886689999988
 30
0.0
 40
15.0
 50
180.0
 51
0.0
  0
ARC
  5
4B47
  8
0
  6
BYBLOCK
 62
     0
 10
18861.043495999958
 20
9515.0886689999988
 30
0.0
 40
15.0
 50
180.0
 51
0.0
  0
ARC
  5
4B48
  8
0
  6
BYBLOCK
 62
     0
 10
18861.043495999958
 20
9515.0886689999988
 30
0.0
 40
15.0
 50
0.0
 51
180.0
  0
ARC
  5
4B49
  8
0
  6
BYBLOCK
 62
     0
 10
25526.046134999971
 20
9515.0886689999988
 30
0.0
 40
15.0
 50
180.0
 51
0.0
  0
ARC
  5
4B4A
  8
0
  6
BYBLOCK
 62
     0
 10
25526.046134999971
 20
9515.0886689999988
 30
0.0
 40
15.0
 50
0.0
 51
180.0
  0
ARC
  5
4B4B
  8
0
  6
BYBLOCK
 62
     0
 10
25569.04824599998
 20
9515.0886689999988
 30
0.0
 40
15.0
 50
0.0
 51
180.0
  0
ARC
  5
4B4C
  8
0
  6
BYBLOCK
 62
     0
 10
25569.04824599998
 20
9515.0886689999988
 30
0.0
 40
15.0
 50
180.0
 51
0.0
  0
LINE
  5
4B5A
  8
SUNPOU
  6
CONTINUOUS
 62
     4
 10
7855.0887059999759
 20
14235.538535
 30
0.0
 11
7855.0887059999759
 21
13035.53754599998
 31
0.0
  0
LINE
  5
4B5B
  8
SUNPOU
  6
CONTINUOUS
 62
     4
 10
14563.088508999959
 20
14235.538535
 30
0.0
 11
14563.088508999959
 21
13035.53754599998
 31
0.0
  0
LINE
  5
4B5C
  8
SUNPOU
  6
CONTINUOUS
 62
     4
 10
7855.0887059999759
 20
13115.53754599998
 30
0.0
 11
14563.088508999959
 21
13115.53754599998
 31
0.0
  0
TEXT
  5
4B5D
  8
0
  6
CONTINUOUS
 62
     7
 10
10406.42194083329
 20
13195.53754599998
 30
0.0
 40
160.0
  1
ケラバ外寸 6708
  0
ARC
  5
4B5E
  8
0
  6
BYBLOCK
 62
     0
 10
7855.0887059999759
 20
13115.53754599998
 30
0.0
 40
15.0
 50
0.0
 51
180.0
  0
ARC
  5
4B5F
  8
0
  6
BYBLOCK
 62
     0
 10
7855.0887059999759
 20
13115.53754599998
 30
0.0
 40
15.0
 50
180.0
 51
0.0
  0
ARC
  5
4B60
  8
0
  6
BYBLOCK
 62
     0
 10
14563.088508999959
 20
13115.53754599998
 30
0.0
 40
15.0
 50
180.0
 51
0.0
  0
ARC
  5
4B61
  8
0
  6
BYBLOCK
 62
     0
 10
14563.088508999959
 20
13115.53754599998
 30
0.0
 40
15.0
 50
0.0
 51
180.0
  0
TEXT
  5
4BB8
  8
NAME
 10
24033.053546554009
 20
1076.0
 30
0.0
 40
360.0
  1
H
 41
0.6700000000000002
  7
00
  0
TEXT
  5
4BB9
  8
NAME
 10
23657.221561973682
 20
1076.0
 30
0.0
 40
360.0
  1
（ ）
  7
01
  0
TEXT
  5
4BBA
  8
NAME
 10
21933.552716389011
 20
1876.0
 30
0.0
 40
360.0
  1
ヨドガレージ ラヴィージュ
 41
0.75
  7
01
  0
TEXT
  5
4BBB
  8
NAME
 10
21550.022791898398
 20
1076.6369801169251
 30
0.0
 40
360.0
  1
VGCU-3352
 41
0.6700000000000002
  0
LINE
  5
4BBC
  8
NAME
  6
CONTINUOUS
 10
26067.886878884299
 20
2236.0
 30
0.0
 11
26067.886878884299
 21
1876.0
 31
0.0
  0
LINE
  5
4BBD
  8
NAME
  6
CONTINUOUS
 10
26167.886878884299
 20
2236.0
 30
0.0
 11
26167.886878884299
 21
1876.0
 31
0.0
  0
LINE
  5
4BBE
  8
NAME
  6
CONTINUOUS
 10
26267.88687888431
 20
2236.0
 30
0.0
 11
26267.88687888431
 21
1876.0
 31
0.0
  0
LINE
  5
4BBF
  8
NAME
  6
CONTINUOUS
 10
26007.886878884299
 20
2236.0
 30
0.0
 11
26327.886878884299
 21
2236.0
 31
0.0
  0
LINE
  5
4BC0
  8
NAME
  6
CONTINUOUS
 10
26327.886878884299
 20
1876.0
 30
0.0
 11
26007.886878884299
 21
1876.0
 31
0.0
  0
TEXT
  5
4BC1
  8
NAME
 10
25346.041792426669
 20
1076.0
 30
0.0
 40
360.0
  1
2
 41
0.6700000000000002
  7
00
  0
TEXT
  5
4BC2
  8
NAME
 10
24557.214549256722
 20
1076.0
 30
0.0
 40
360.0
  1
型（ 連棟）
  7
01
  0
LINE
  5
4C1F
  8
2-0
  6
CONTINUOUS
 62
     3
 10
25514.042333999991
 20
14931.373957
 30
0.0
 11
25521.04389099999
 21
14931.373957
 31
0.0
  0
LINE
  5
4C20
  8
2-0
  6
CONTINUOUS
 62
     3
 10
25521.04389099999
 20
14931.373957
 30
0.0
 11
25521.04389099999
 21
14926.379632
 31
0.0
  0
LINE
  5
4C21
  8
2-0
  6
CONTINUOUS
 62
     3
 10
25521.04389099999
 20
14926.379632
 30
0.0
 11
25496.04653099996
 21
14926.379632
 31
0.0
  0
LINE
  5
4C22
  8
2-0
  6
CONTINUOUS
 62
     3
 10
25496.04653099996
 20
14926.379632
 30
0.0
 11
25496.04653099996
 21
14944.375435000011
 31
0.0
  0
LINE
  5
4C23
  8
2-0
  6
CONTINUOUS
 62
     3
 10
25496.04653099996
 20
14944.375435000011
 30
0.0
 11
25526.044154999981
 21
14944.375435000011
 31
0.0
  0
LINE
  5
4C24
  8
2-0
  6
CONTINUOUS
 62
     3
 10
25496.04653099996
 20
14928.277990000001
 30
0.0
 11
25496.04653099996
 21
14934.27989000002
 31
0.0
  0
LINE
  5
4C25
  8
2-0
  6
CONTINUOUS
 62
     3
 10
25496.04653099996
 20
14934.27989000002
 30
0.0
 11
25526.044154999981
 21
14934.27989000002
 31
0.0
  0
LINE
  5
4C26
  8
2-0
  6
CONTINUOUS
 62
     3
 10
25526.044154999981
 20
14897.28070900001
 30
0.0
 11
25526.044154999981
 21
14934.27989000002
 31
0.0
  0
LINE
  5
4C27
  8
2-0
  6
CONTINUOUS
 62
     3
 10
25496.04653099996
 20
14897.28070900001
 30
0.0
 11
25526.044154999981
 21
14897.28070900001
 31
0.0
  0
LINE
  5
4C28
  8
2-0
  6
CONTINUOUS
 62
     3
 10
25496.04653099996
 20
14903.27766
 30
0.0
 11
25496.04653099996
 21
14897.28070900001
 31
0.0
  0
LINE
  5
4C29
  8
2-0
  6
CONTINUOUS
 62
     3
 10
25496.04653099996
 20
14887.179225
 30
0.0
 11
25526.044154999981
 21
14887.179225
 31
0.0
  0
LINE
  5
4C2A
  8
2-0
  6
CONTINUOUS
 62
     3
 10
25496.04653099996
 20
14905.186906000001
 30
0.0
 11
25496.04653099996
 21
14887.179225
 31
0.0
  0
LINE
  5
4C2B
  8
2-0
  6
CONTINUOUS
 62
     3
 10
25521.04389099999
 20
14905.186906000001
 30
0.0
 11
25496.04653099996
 21
14905.186906000001
 31
0.0
  0
LINE
  5
4C2C
  8
2-0
  6
CONTINUOUS
 62
     3
 10
25521.04389099999
 20
14900.186642000001
 30
0.0
 11
25521.04389099999
 21
14905.186906000001
 31
0.0
  0
LINE
  5
4C2D
  8
2-0
  6
CONTINUOUS
 62
     3
 10
25514.042333999991
 20
14900.186642000001
 30
0.0
 11
25521.04389099999
 21
14900.186642000001
 31
0.0
  0
LINE
  5
4C2E
  8
2-0
  6
CONTINUOUS
 62
     3
 10
18916.05138699996
 20
14931.373957
 30
0.0
 11
18909.053788999969
 21
14931.373957
 31
0.0
  0
LINE
  5
4C2F
  8
2-0
  6
CONTINUOUS
 62
     3
 10
18909.053788999969
 20
14931.373957
 30
0.0
 11
18909.053788999969
 21
14926.379632
 31
0.0
  0
LINE
  5
4C30
  8
2-0
  6
CONTINUOUS
 62
     3
 10
18909.053788999969
 20
14926.379632
 30
0.0
 11
18934.047190999961
 21
14926.379632
 31
0.0
  0
LINE
  5
4C31
  8
2-0
  6
CONTINUOUS
 62
     3
 10
18934.047190999961
 20
14926.379632
 30
0.0
 11
18934.047190999961
 21
14944.375435000011
 31
0.0
  0
LINE
  5
4C32
  8
2-0
  6
CONTINUOUS
 62
     3
 10
18934.047190999961
 20
14944.375435000011
 30
0.0
 11
18904.049565999969
 21
14944.375435000011
 31
0.0
  0
LINE
  5
4C33
  8
2-0
  6
CONTINUOUS
 62
     3
 10
18934.047190999961
 20
14928.277990000001
 30
0.0
 11
18934.047190999961
 21
14934.27989000002
 31
0.0
  0
LINE
  5
4C34
  8
2-0
  6
CONTINUOUS
 62
     3
 10
18934.047190999961
 20
14934.27989000002
 30
0.0
 11
18904.049565999969
 21
14934.27989000002
 31
0.0
  0
LINE
  5
4C35
  8
2-0
  6
CONTINUOUS
 62
     3
 10
18904.049565999969
 20
14897.28070900001
 30
0.0
 11
18904.049565999969
 21
14934.27989000002
 31
0.0
  0
LINE
  5
4C36
  8
2-0
  6
CONTINUOUS
 62
     3
 10
18934.047190999961
 20
14897.28070900001
 30
0.0
 11
18904.049565999969
 21
14897.28070900001
 31
0.0
  0
LINE
  5
4C37
  8
2-0
  6
CONTINUOUS
 62
     3
 10
18934.047190999961
 20
14903.27766
 30
0.0
 11
18934.047190999961
 21
14897.28070900001
 31
0.0
  0
LINE
  5
4C38
  8
2-0
  6
CONTINUOUS
 62
     3
 10
18934.047190999961
 20
14887.179225
 30
0.0
 11
18904.049565999969
 21
14887.179225
 31
0.0
  0
LINE
  5
4C39
  8
2-0
  6
CONTINUOUS
 62
     3
 10
18934.047190999961
 20
14905.186906000001
 30
0.0
 11
18934.047190999961
 21
14887.179225
 31
0.0
  0
LINE
  5
4C3A
  8
2-0
  6
CONTINUOUS
 62
     3
 10
18909.053788999969
 20
14905.186906000001
 30
0.0
 11
18934.047190999961
 21
14905.186906000001
 31
0.0
  0
LINE
  5
4C3B
  8
2-0
  6
CONTINUOUS
 62
     3
 10
18909.053788999969
 20
14900.186642000001
 30
0.0
 11
18909.053788999969
 21
14905.186906000001
 31
0.0
  0
LINE
  5
4C3C
  8
2-0
  6
CONTINUOUS
 62
     3
 10
18916.05138699996
 20
14900.186642000001
 30
0.0
 11
18909.053788999969
 21
14900.186642000001
 31
0.0
  0
LINE
  5
4C3D
  8
2-0
  6
CONTINUOUS
 62
     3
 10
18904.049565999969
 20
14944.375435000011
 30
0.0
 11
18904.049565999969
 21
15588.179225
 31
0.0
  0
LINE
  5
4C40
  8
2-0
  6
CONTINUOUS
 62
     3
 10
18904.049565999969
 20
14897.28070900001
 30
0.0
 11
18904.049565999969
 21
14934.27989000002
 31
0.0
  0
LINE
  5
4C41
  8
2-0
  6
CONTINUOUS
 62
     3
 10
25526.044154999981
 20
14934.27989000002
 30
0.0
 11
25526.044154999981
 21
14897.28070900001
 31
0.0
  0
LINE
  5
4C42
  8
2-0
  6
CONTINUOUS
 62
     3
 10
25526.044154999981
 20
14887.179225
 30
0.0
 11
25526.044154999981
 21
14590.57779499999
 31
0.0
  0
TEXT
  5
4D6A
  8
FILENAME
  6
CONTINUOUS
 10
28546.857142857141
 20
348.0
 30
0.0
 40
200.0
  1
＜VGCU-3352-2-A_0.DXF ＞
  7
FILENAME
 72
     2
 11
32764.0
 21
348.0
 31
0.0
  0
LINE
  5
4D6F
  8
WAKUSEN-01
 10
868.00000000000193
 20
827.99999999999955
 30
0.0
 11
32764.000000000011
 21
827.99999999999943
 31
0.0
  0
LINE
  5
4D70
  8
WAKUSEN-01
 10
868.00000000000193
 20
827.99999999999955
 30
0.0
 11
868.00000000000193
 21
22484.000000000011
 31
0.0
  0
LINE
  5
4D71
  8
WAKUSEN-01
 10
32764.000000000011
 20
827.99999999999943
 30
0.0
 11
32764.000000000011
 21
22484.000000000011
 31
0.0
  0
LINE
  5
4D72
  8
WAKUSEN-01
 10
20560.0
 20
827.99999999999716
 30
0.0
 11
20560.0
 21
2484.0
 31
0.0
  0
LINE
  5
4D73
  8
WAKUSEN-02
 10
26868.0
 20
827.99999999999261
 30
0.0
 11
26868.0
 21
2484.0
 31
0.0
  0
ENDSEC
  0
EOF
