  0
SECTION
  2
HEADER
  9
$ACADVER
  1
AC1009
  9
$INSBASE
 10
0.0
 20
0.0
 30
0.0
  9
$EXTMIN
 10
867.99324330406671
 20
327.38164749855792
 30
-0.0000000000000053
  9
$EXTMAX
 10
32765.33210850941
 20
22484.553276491992
 30
0.0000000000000099
  9
$LIMMIN
 10
0.0
 20
0.0
  9
$LIMMAX
 10
33600.0
 20
23760.0
  9
$ORTHOMODE
 70
     1
  9
$REGENMODE
 70
     1
  9
$FILLMODE
 70
     1
  9
$QTEXTMODE
 70
     0
  9
$MIRRTEXT
 70
     1
  9
$DRAGMODE
 70
     2
  9
$LTSCALE
 40
80.0
  9
$OSMODE
 70
  3071
  9
$ATTMODE
 70
     1
  9
$TEXTSIZE
 40
0.2
  9
$TRACEWID
 40
0.05
  9
$TEXTSTYLE
  7
00
  9
$CLAYER
  8
0
  9
$CELTYPE
  6
BYLAYER
  9
$CECOLOR
 62
   256
  9
$DIMSCALE
 40
80.0
  9
$DIMASZ
 40
3.0
  9
$DIMEXO
 40
1.0
  9
$DIMDLI
 40
0.38
  9
$DIMRND
 40
0.5
  9
$DIMDLE
 40
0.0
  9
$DIMEXE
 40
1.0
  9
$DIMTP
 40
0.0
  9
$DIMTM
 40
0.0
  9
$DIMTXT
 40
2.0
  9
$DIMCEN
 40
0.09
  9
$DIMTSZ
 40
0.0
  9
$DIMTOL
 70
     0
  9
$DIMLIM
 70
     0
  9
$DIMTIH
 70
     0
  9
$DIMTOH
 70
     0
  9
$DIMSE1
 70
     0
  9
$DIMSE2
 70
     0
  9
$DIMTAD
 70
     1
  9
$DIMZIN
 70
     8
  9
$DIMBLK
  1
DOTSMALL
  9
$DIMASO
 70
     1
  9
$DIMSHO
 70
     1
  9
$DIMPOST
  1

  9
$DIMAPOST
  1

  9
$DIMALT
 70
     0
  9
$DIMALTD
 70
     2
  9
$DIMALTF
 40
25.399999999999999
  9
$DIMLFAC
 40
1.0
  9
$DIMTOFL
 70
     1
  9
$DIMTVP
 40
0.0
  9
$DIMTIX
 70
     0
  9
$DIMSOXD
 70
     0
  9
$DIMSAH
 70
     0
  9
$DIMBLK1
  1

  9
$DIMBLK2
  1

  9
$DIMSTYLE
  2
SUNPOU
  9
$DIMCLRD
 70
     4
  9
$DIMCLRE
 70
     4
  9
$DIMCLRT
 70
     7
  9
$DIMTFAC
 40
1.0
  9
$DIMGAP
 40
1.0
  9
$LUNITS
 70
     2
  9
$LUPREC
 70
     4
  9
$SKETCHINC
 40
0.1
  9
$FILLETRAD
 40
0.0
  9
$AUNITS
 70
     0
  9
$AUPREC
 70
     0
  9
$MENU
  1
acad
  9
$ELEVATION
 40
0.0
  9
$PELEVATION
 40
0.0
  9
$THICKNESS
 40
0.0
  9
$LIMCHECK
 70
     0
  9
$BLIPMODE
 70
     1
  9
$CHAMFERA
 40
0.0
  9
$CHAMFERB
 40
0.0
  9
$SKPOLY
 70
     0
  9
$TDCREATE
 40
2311940.0750525701
  9
$TDUPDATE
 40
2458942.4364530318
  9
$TDINDWG
 40
0.0707949421
  9
$TDUSRTIMER
 40
0.0707943866
  9
$USRTIMER
 70
     1
  9
$ANGBASE
 50
0.0
  9
$ANGDIR
 70
     0
  9
$PDMODE
 70
     0
  9
$PDSIZE
 40
0.0
  9
$PLINEWID
 40
0.0
  9
$COORDS
 70
     1
  9
$SPLFRAME
 70
     0
  9
$SPLINETYPE
 70
     6
  9
$SPLINESEGS
 70
     8
  9
$ATTDIA
 70
     1
  9
$ATTREQ
 70
     1
  9
$HANDLING
 70
     1
  9
$HANDSEED
  5
5023
  9
$SURFTAB1
 70
     6
  9
$SURFTAB2
 70
     6
  9
$SURFTYPE
 70
     6
  9
$SURFU
 70
     6
  9
$SURFV
 70
     6
  9
$UCSNAME
  2

  9
$UCSORG
 10
0.0
 20
0.0
 30
0.0
  9
$UCSXDIR
 10
1.0
 20
0.0
 30
0.0
  9
$UCSYDIR
 10
0.0
 20
1.0
 30
0.0
  9
$PUCSNAME
  2

  9
$PUCSORG
 10
0.0
 20
0.0
 30
0.0
  9
$PUCSXDIR
 10
1.0
 20
0.0
 30
0.0
  9
$PUCSYDIR
 10
0.0
 20
1.0
 30
0.0
  9
$USERI1
 70
     0
  9
$USERI2
 70
     0
  9
$USERI3
 70
     0
  9
$USERI4
 70
     0
  9
$USERI5
 70
     0
  9
$USERR1
 40
0.0
  9
$USERR2
 40
0.0
  9
$USERR3
 40
0.0
  9
$USERR4
 40
0.0
  9
$USERR5
 40
0.0
  9
$WORLDVIEW
 70
     1
  9
$SHADEDGE
 70
     3
  9
$SHADEDIF
 70
    70
  9
$TILEMODE
 70
     1
  9
$MAXACTVP
 70
    16
  9
$PLIMCHECK
 70
     0
  9
$PEXTMIN
 10
1.0000000000000000E+020
 20
1.0000000000000000E+020
 30
1.0000000000000000E+020
  9
$PEXTMAX
 10
-1.0000000000000000E+020
 20
-1.0000000000000000E+020
 30
-1.0000000000000000E+020
  9
$PLIMMIN
 10
0.0
 20
0.0
  9
$PLIMMAX
 10
12.0
 20
9.0
  9
$UNITMODE
 70
     0
  9
$VISRETAIN
 70
     0
  9
$PLINEGEN
 70
     1
  9
$PSLTSCALE
 70
     0
  0
ENDSEC
  0
SECTION
  2
TABLES
  0
TABLE
  2
VPORT
 70
     1
  0
VPORT
  2
*ACTIVE
 70
     0
 10
0.0
 20
0.0
 11
1.0
 21
1.0
 12
16800.0
 22
11880.0
 13
0.0
 23
0.0
 14
1.0
 24
1.0
 15
0.0
 25
0.0
 16
0.0
 26
0.0
 36
1.0
 17
0.0
 27
0.0
 37
0.0
 40
23981.023255813951
 41
2.195652173913043
 42
50.0
 43
0.0
 44
0.0
 50
0.0
 51
0.0
 71
     0
 72
 10000
 73
     1
 74
     1
 75
     0
 76
     0
 77
     0
 78
     0
  0
ENDTAB
  0
TABLE
  2
LTYPE
 70
     3
  0
LTYPE
  2
CONTINUOUS
 70
     0
  3
Solid line
 72
    65
 73
     0
 40
0.0
  0
LTYPE
  2
DASHED3
 70
     0
  3
------  ------  ------  ------  
 72
    65
 73
     2
 40
5.0
 49
3.75
 49
-1.25
  0
LTYPE
  2
CENTER2
 70
     0
  3
----------  --  ----------  --  
 72
    65
 73
     4
 40
20.0
 49
12.5
 49
-2.5
 49
2.5
 49
-2.5
  0
ENDTAB
  0
TABLE
  2
LAYER
 70
    17
  0
LAYER
  2
0
 70
     0
 62
     7
  6
CONTINUOUS
  0
LAYER
  2
SUNPOU
 70
     0
 62
     4
  6
CONTINUOUS
  0
LAYER
  2
0-1
 70
     0
 62
     7
  6
CONTINUOUS
  0
LAYER
  2
0-2
 70
     0
 62
     7
  6
CONTINUOUS
  0
LAYER
  2
0-5
 70
     0
 62
     7
  6
CONTINUOUS
  0
LAYER
  2
0-6
 70
     0
 62
     7
  6
CONTINUOUS
  0
LAYER
  2
2-0
 70
     0
 62
     7
  6
CONTINUOUS
  0
LAYER
  2
0-7
 70
     0
 62
     7
  6
CONTINUOUS
  0
LAYER
  2
YODOROGO
 70
     0
 62
   130
  6
CONTINUOUS
  0
LAYER
  2
WAKUSEN-01
 70
     0
 62
    50
  6
CONTINUOUS
  0
LAYER
  2
WAKUSEN-02
 70
     0
 62
   130
  6
CONTINUOUS
  0
LAYER
  2
WAKUMOJI-01
 70
     0
 62
   130
  6
CONTINUOUS
  0
LAYER
  2
FILENAME
 70
     0
 62
     7
  6
CONTINUOUS
  0
LAYER
  2
NAME
 70
     0
 62
    20
  6
CONTINUOUS
  0
LAYER
  2
0-4
 70
     0
 62
     7
  6
CONTINUOUS
  0
ENDTAB
  0
TABLE
  2
STYLE
 70
     5
  0
STYLE
  2
STANDARD
 70
     0
 40
0.0
 41
1.0
 50
0.0
 71
     0
 42
0.0
  3
txt
  4
BIGFONT
  0
STYLE
  2
00
 70
     0
 40
0.0
 41
0.6666666666666666
 50
0.0
 71
     0
 42
0.2
  3
ROMANS
  4
BIGFONT
  0
STYLE
  2
01
 70
     0
 40
3.0
 41
1.0
 50
0.0
 71
     0
 42
0.2
  3
ROMANS
  4
BIGFONT
  0
STYLE
  2
WAKUMOJI
 70
     0
 40
3.0
 41
1.0
 50
0.0
 71
     0
 42
3.0
  3
SIMPLEX
  4
BIGFONT
  0
STYLE
  2
FILENAME
 70
     0
 40
200.0
 41
1.0
 50
0.0
 71
     0
 42
200.0
  3
romans
  4
bigfont
  0
ENDTAB
  0
TABLE
  2
VIEW
 70
     0
  0
ENDTAB
  0
TABLE
  2
UCS
 70
     0
  0
ENDTAB
  0
TABLE
  2
APPID
 70
    13
  0
APPID
  2
ACAD
 70
     0
  0
APPID
  2
ACADANNOTATIVE
 70
     0
  0
APPID
  2
ACAD_PSEXT
 70
     0
  0
APPID
  2
DCO15
 70
     0
  0
APPID
  2
ACAD_MLEADERVER
 70
     0
  0
APPID
  2
AUTOCAD_POSTSCRIPT_FIGURE
 70
     0
  0
APPID
  2
ACAD_EXEMPT_FROM_CAD_STANDARDS
 70
     0
  0
APPID
  2
ACAD_DSTYLE_DIMJAG
 70
     0
  0
APPID
  2
ACAD_DSTYLE_DIMTALN
 70
     0
  0
APPID
  2
ACAD_DSTYLE_DIM_LINETYPE
 70
     0
  0
APPID
  2
ACAD_DSTYLE_DIM_EXT1_LINETYPE
 70
     0
  0
APPID
  2
ACAD_DSTYLE_DIM_EXT2_LINETYPE
 70
     0
  0
APPID
  2
ACAD_NAV_VCDISPLAY
 70
     0
  0
ENDTAB
  0
TABLE
  2
DIMSTYLE
 70
     2
  0
DIMSTYLE
  2
SUNPOU
 70
     0
  3

  4

  5

  6

  7

 40
80.0
 41
3.0
 42
1.0
 43
0.38
 44
1.0
 45
0.5
 46
0.0
 47
0.0
 48
0.0
140
2.0
141
0.09
142
0.0
143
25.399999999999999
144
1.0
145
0.0
146
1.0
147
1.0
 71
     0
 72
     0
 73
     0
 74
     0
 75
     0
 76
     0
 77
     1
 78
     8
170
     0
171
     2
172
     1
173
     0
174
     0
175
     0
176
     4
177
     4
178
     7
  0
ENDTAB
  0
ENDSEC
  0
SECTION
  2
BLOCKS
  0
BLOCK
  8
0
  2
$MODEL_SPACE
 70
     0
 10
0.0
 20
0.0
 30
0.0
  3
$MODEL_SPACE
  1

  0
ENDBLK
  5
443D
  8
0
  0
BLOCK
 67
     1
  8
0
  2
$PAPER_SPACE
 70
     0
 10
0.0
 20
0.0
 30
0.0
  3
$PAPER_SPACE
  1

  0
ENDBLK
  5
4439
 67
     1
  8
0
  0
BLOCK
  8
0
  2
_DOTSMALL
 70
     0
 10
0.0
 20
0.0
 30
0.0
  3
_DOTSMALL
  1

  0
POLYLINE
  5
446C
  8
0
  6
BYBLOCK
 62
     0
 66
     1
 10
0.0
 20
0.0
 30
0.0
 70
     1
 40
0.5
 41
0.5
  0
VERTEX
  5
4FEB
  8
0
  6
BYBLOCK
 62
     0
 10
-0.0625
 20
0.0
 30
0.0
 42
1.0
  0
VERTEX
  5
4FEC
  8
0
  6
BYBLOCK
 62
     0
 10
0.0625
 20
0.0
 30
0.0
 42
1.0
  0
SEQEND
  5
4FED
  8
0
  6
BYBLOCK
 62
     0
  0
ENDBLK
  5
4470
  8
0
  0
ENDSEC
  0
SECTION
  2
ENTITIES
  0
LINE
  5
4471
  8
0-1
  6
CONTINUOUS
 62
     3
 10
8120.356234000009
 20
20094.22682299999
 30
0.0
 11
13980.355007
 21
20094.22682299999
 31
0.0
  0
LINE
  5
4472
  8
0-1
  6
CONTINUOUS
 62
     3
 10
8132.3541360000099
 20
18387.730518
 30
0.0
 11
10431.107276999999
 21
18387.730518
 31
0.0
  0
LINE
  5
4473
  8
0-1
  6
CONTINUOUS
 62
     3
 10
8132.3541360000099
 20
18477.731309999981
 30
0.0
 11
10262.52058700001
 21
18477.731309999981
 31
0.0
  0
LINE
  5
4474
  8
0-1
  6
CONTINUOUS
 62
     3
 10
10850.840437999999
 20
18364.696840000001
 30
0.0
 11
8202.3558510000057
 21
16973.730914
 31
0.0
  0
LINE
  5
4475
  8
0-1
  6
CONTINUOUS
 62
     3
 10
8202.3558510000057
 20
18432.730914
 30
0.0
 11
10980.355390000001
 21
16973.730914
 31
0.0
  0
LINE
  5
4476
  8
0-1
  6
CONTINUOUS
 62
     3
 10
10980.355390000001
 20
16973.730914
 30
0.0
 11
8202.3558510000057
 21
15514.730913999991
 31
0.0
  0
LINE
  5
4477
  8
0-1
  6
CONTINUOUS
 62
     3
 10
8202.3558510000057
 20
16973.730914
 30
0.0
 11
10980.355390000001
 21
15514.730913999991
 31
0.0
  0
LINE
  5
4478
  8
0-1
  6
CONTINUOUS
 62
     3
 10
8132.3541360000099
 20
15469.73150699999
 30
0.0
 11
13915.35351600001
 21
15469.73150699999
 31
0.0
  0
LINE
  5
4479
  8
0-1
  6
CONTINUOUS
 62
     3
 10
8132.3541360000099
 20
15559.731309000001
 30
0.0
 11
13915.35351600001
 21
15559.731309000001
 31
0.0
  0
LINE
  5
447A
  8
0-1
  6
CONTINUOUS
 62
     3
 10
8202.3558510000057
 20
15514.730913999991
 30
0.0
 11
10980.355390000001
 21
13705.230913999991
 31
0.0
  0
LINE
  5
447B
  8
0-1
  6
CONTINUOUS
 62
     3
 10
10980.355390000001
 20
15514.730913999991
 30
0.0
 11
8202.3558510000057
 21
13705.230913999991
 31
0.0
  0
LINE
  5
447C
  8
0-1
  6
CONTINUOUS
 62
     3
 10
8046.8552240000081
 20
13544.73055799999
 30
0.0
 11
14053.854531999999
 21
13544.73055799999
 31
0.0
  0
LINE
  5
447D
  8
0-1
  6
CONTINUOUS
 62
     3
 10
8046.8552240000081
 20
13512.73064999999
 30
0.0
 11
14053.854531999999
 21
13512.73064999999
 31
0.0
  0
LINE
  5
447E
  8
0-1
  6
CONTINUOUS
 62
     3
 10
8132.3541360000099
 20
13747.731177999991
 30
0.0
 11
13968.354136000011
 21
13747.731177999991
 31
0.0
  0
LINE
  5
447F
  8
0-1
  6
CONTINUOUS
 62
     3
 10
8089.8528820000074
 20
13668.73057099998
 30
0.0
 11
14010.853410000011
 21
13668.73057099998
 31
0.0
  0
LINE
  5
4480
  8
0-1
  6
CONTINUOUS
 62
     3
 10
8089.8528820000074
 20
13668.73057099998
 30
0.0
 11
8089.8528820000074
 21
19637.25588199999
 31
0.0
  0
LINE
  5
4481
  8
0-1
  6
CONTINUOUS
 62
     3
 10
8132.3541360000099
 20
13668.73057099998
 30
0.0
 11
8132.3541360000099
 21
19614.568619999998
 31
0.0
  0
LINE
  5
4482
  8
0-1
  6
CONTINUOUS
 62
     3
 10
8046.8552240000081
 20
13512.73064999999
 30
0.0
 11
8046.8552240000081
 21
20104.230253999991
 31
0.0
  0
LINE
  5
4483
  8
0-1
  6
CONTINUOUS
 62
     3
 10
8182.3537660000102
 20
13544.73055799999
 30
0.0
 11
8182.3537660000102
 21
20094.22682299999
 31
0.0
  0
LINE
  5
4484
  8
0-1
  6
CONTINUOUS
 62
     3
 10
8064.8544920000068
 20
19649.000365999989
 30
0.0
 11
8064.8544920000068
 21
20096.729857999992
 31
0.0
  0
LINE
  5
4485
  8
0-1
  6
CONTINUOUS
 62
     3
 10
8221.8550990000022
 20
19566.788980000001
 30
0.0
 11
8221.8550990000022
 21
20094.226823000001
 31
0.0
  0
LINE
  5
4486
  8
0-1
  6
CONTINUOUS
 62
     3
 10
8120.356234000009
 20
20079.230913999989
 30
0.0
 11
8120.356234000009
 21
20109.230518
 31
0.0
  0
LINE
  5
4487
  8
0-1
  6
CONTINUOUS
 62
     3
 10
8046.8552240000081
 20
20109.230518
 30
0.0
 11
8046.8552240000081
 21
20074.23064999999
 31
0.0
  0
LINE
  5
4488
  8
0-1
  6
CONTINUOUS
 62
     3
 10
8115.3530010000059
 20
20114.230781999991
 30
0.0
 11
8051.8554880000056
 21
20114.230781999991
 31
0.0
  0
LINE
  5
4489
  8
0-1
  6
CONTINUOUS
 62
     3
 10
8064.8544920000068
 20
20096.729857999992
 30
0.0
 11
8046.8552240000081
 21
20096.729857999992
 31
0.0
  0
LINE
  5
448A
  8
0-1
  6
CONTINUOUS
 62
     3
 10
8064.8544920000068
 20
20074.23064999999
 30
0.0
 11
8115.3530010000059
 21
20074.23064999999
 31
0.0
  0
LINE
  5
448B
  8
0-1
  6
CONTINUOUS
 62
     3
 10
14035.85378000001
 20
16475.295631000001
 30
0.0
 11
14035.85378000001
 21
20096.729857999992
 31
0.0
  0
LINE
  5
448C
  8
0-1
  6
CONTINUOUS
 62
     3
 10
9031.8528950000127
 20
19139.713785
 30
0.0
 11
9031.8528950000127
 21
20094.22682299999
 31
0.0
  0
LINE
  5
448D
  8
0-1
  6
CONTINUOUS
 62
     3
 10
8858.8542810000017
 20
19226.729461999981
 30
0.0
 11
8858.8542810000017
 21
20094.226823000001
 31
0.0
  0
LINE
  5
448E
  8
0-1
  6
CONTINUOUS
 62
     3
 10
8821.8550990000022
 20
19246.48307799999
 30
0.0
 11
8821.8550990000022
 21
20094.22682299999
 31
0.0
  0
LINE
  5
448F
  8
0-1
  6
CONTINUOUS
 62
     3
 10
8621.8564190000052
 20
19353.250391999991
 30
0.0
 11
8621.8564190000016
 21
20094.22682299999
 31
0.0
  0
LINE
  5
4490
  8
0-1
  6
CONTINUOUS
 62
     3
 10
8658.8565900000049
 20
19333.498756000001
 30
0.0
 11
8658.8565900000049
 21
20094.226823000001
 31
0.0
  0
LINE
  5
4491
  8
0-1
  6
CONTINUOUS
 62
     3
 10
9068.8550470000118
 20
19119.960169000002
 30
0.0
 11
9068.8550470000118
 21
20094.22682299999
 31
0.0
  0
LINE
  5
4492
  8
0-1
  6
CONTINUOUS
 62
     3
 10
9668.8560360000138
 20
18799.654267000002
 30
0.0
 11
9668.8560360000156
 21
20094.22682299999
 31
0.0
  0
LINE
  5
4493
  8
0-1
  6
CONTINUOUS
 62
     3
 10
9631.8558650000123
 20
18819.405902999992
 30
0.0
 11
9631.8558650000123
 21
20094.22682299999
 31
0.0
  0
LINE
  5
4494
  8
0-1
  6
CONTINUOUS
 62
     3
 10
9468.8543870000121
 20
18906.423561
 30
0.0
 11
9468.854387000014
 21
20094.226823000001
 31
0.0
  0
LINE
  5
4495
  8
0-1
  6
CONTINUOUS
 62
     3
 10
9431.8552050000108
 20
18926.175197
 30
0.0
 11
9431.8552050000108
 21
20094.22682299999
 31
0.0
  0
LINE
  5
4496
  8
0-1
  6
CONTINUOUS
 62
     3
 10
9231.8545450000092
 20
19032.944490999991
 30
0.0
 11
9231.8545450000092
 21
20094.22682299999
 31
0.0
  0
LINE
  5
4497
  8
0-1
  6
CONTINUOUS
 62
     3
 10
9268.8566960000117
 20
19013.19285399999
 30
0.0
 11
9268.8566960000117
 21
20094.22682299999
 31
0.0
  0
LINE
  5
4498
  8
0-1
  6
CONTINUOUS
 62
     3
 10
9831.8545449999983
 20
18712.638588999991
 30
0.0
 11
9831.8545449999983
 21
20094.22682299999
 31
0.0
  0
LINE
  5
4499
  8
0-1
  6
CONTINUOUS
 62
     3
 10
9868.8566960000098
 20
18692.884972999989
 30
0.0
 11
9868.8566960000098
 21
20094.22682299999
 31
0.0
  0
LINE
  5
449A
  8
0-1
  6
CONTINUOUS
 62
     3
 10
10031.855205000011
 20
18600.86924199999
 30
0.0
 11
10031.855205000011
 21
20094.226823000001
 31
0.0
  0
LINE
  5
449B
  8
0-1
  6
CONTINUOUS
 62
     3
 10
10068.85438700001
 20
18581.115626999988
 30
0.0
 11
10068.85438700001
 21
20094.22682299999
 31
0.0
  0
LINE
  5
449C
  8
0-1
  6
CONTINUOUS
 62
     3
 10
10231.85586500001
 20
18494.099948999999
 30
0.0
 11
10231.85586500001
 21
20094.22682299999
 31
0.0
  0
LINE
  5
449D
  8
0-1
  6
CONTINUOUS
 62
     3
 10
10268.85603600001
 20
18474.348311999991
 30
0.0
 11
10268.85603600001
 21
20094.22682299999
 31
0.0
  0
LINE
  5
449E
  8
0-1
  6
CONTINUOUS
 62
     3
 10
10431.85454499998
 20
18387.330654999991
 30
0.0
 11
10431.85454499998
 21
20094.22682299999
 31
0.0
  0
LINE
  5
449F
  8
0-1
  6
CONTINUOUS
 62
     3
 10
10468.856696000001
 20
18367.579019000001
 30
0.0
 11
10468.856696000001
 21
20094.22682299999
 31
0.0
  0
LINE
  5
44A0
  8
0-1
  6
CONTINUOUS
 62
     3
 10
10631.855205
 20
18339.929102999991
 30
0.0
 11
10631.855205
 21
20094.22682299999
 31
0.0
  0
LINE
  5
44A1
  8
0-1
  6
CONTINUOUS
 62
     3
 10
10668.85537600001
 20
18402.836223999991
 30
0.0
 11
10668.85537600001
 21
20094.22682299999
 31
0.0
  0
LINE
  5
44A2
  8
0-1
  6
CONTINUOUS
 62
     3
 10
10868.856035999999
 20
18336.926173
 30
0.0
 11
10868.856035999999
 21
20094.22682299999
 31
0.0
  0
LINE
  5
44A3
  8
0-1
  6
CONTINUOUS
 62
     3
 10
10831.85586500001
 20
18393.962041999981
 30
0.0
 11
10831.85586500001
 21
20094.22682299999
 31
0.0
  0
LINE
  5
44A4
  8
0-1
  6
CONTINUOUS
 62
     3
 10
11031.85454499998
 20
18090.665933
 30
0.0
 11
11031.85454499998
 21
20094.22682299999
 31
0.0
  0
LINE
  5
44A5
  8
0-1
  6
CONTINUOUS
 62
     3
 10
11068.855706
 20
18033.630064000001
 30
0.0
 11
11068.855706
 21
20094.22682299999
 31
0.0
  0
LINE
  5
44A6
  8
0-1
  6
CONTINUOUS
 62
     3
 10
11231.855205000011
 20
17782.369771000001
 30
0.0
 11
11231.855205000011
 21
20094.22682299999
 31
0.0
  0
LINE
  5
44A7
  8
0-1
  6
CONTINUOUS
 62
     3
 10
11431.856855
 20
17732.606652999992
 30
0.0
 11
11431.856855
 21
20094.22682299999
 31
0.0
  0
LINE
  5
44A8
  8
0-1
  6
CONTINUOUS
 62
     3
 10
11468.85603600001
 20
17795.515753
 30
0.0
 11
11468.85603600001
 21
20094.22682299999
 31
0.0
  0
LINE
  5
44A9
  8
0-1
  6
CONTINUOUS
 62
     3
 10
11668.855706
 20
17731.965288999989
 30
0.0
 11
11668.855706
 21
20094.22682299999
 31
0.0
  0
LINE
  5
44AA
  8
0-1
  6
CONTINUOUS
 62
     3
 10
11631.854544999989
 20
17751.716925000001
 30
0.0
 11
11631.854544999989
 21
20094.22682299999
 31
0.0
  0
LINE
  5
44AB
  8
0-1
  6
CONTINUOUS
 62
     3
 10
11831.855205000011
 20
17644.949611
 30
0.0
 11
11831.855205000011
 21
20094.22682299999
 31
0.0
  0
LINE
  5
44AC
  8
0-1
  6
CONTINUOUS
 62
     3
 10
11868.855376
 20
17625.195994999991
 30
0.0
 11
11868.855376
 21
20094.22682299999
 31
0.0
  0
LINE
  5
44AD
  8
0-1
  6
CONTINUOUS
 62
     3
 10
12068.85603600001
 20
17518.426702000001
 30
0.0
 11
12068.85603600001
 21
20094.22682299999
 31
0.0
  0
LINE
  5
44AE
  8
0-1
  6
CONTINUOUS
 62
     3
 10
12031.856855
 20
17538.180316999991
 30
0.0
 11
12031.856855
 21
20094.22682299999
 31
0.0
  0
LINE
  5
44AF
  8
0-1
  6
CONTINUOUS
 62
     3
 10
12268.855706
 20
17411.659387
 30
0.0
 11
12268.855706
 21
20094.22682299999
 31
0.0
  0
LINE
  5
44B0
  8
0-1
  6
CONTINUOUS
 62
     3
 10
12231.854545
 20
17431.411024000001
 30
0.0
 11
12231.854545
 21
20094.22682299999
 31
0.0
  0
LINE
  5
44B1
  8
0-1
  6
CONTINUOUS
 62
     3
 10
12468.85537600001
 20
17304.890093999991
 30
0.0
 11
12468.85537600001
 21
20094.22682299999
 31
0.0
  0
LINE
  5
44B2
  8
0-1
  6
CONTINUOUS
 62
     3
 10
12431.856195
 20
17324.641729999999
 30
0.0
 11
12431.856195
 21
20094.22682299999
 31
0.0
  0
LINE
  5
44B3
  8
0-1
  6
CONTINUOUS
 62
     3
 10
12668.85504700001
 20
17188.120694000001
 30
0.0
 11
12668.85504700001
 21
20094.22682299999
 31
0.0
  0
LINE
  5
44B4
  8
0-1
  6
CONTINUOUS
 62
     3
 10
12631.85487500001
 20
17207.872329999991
 30
0.0
 11
12631.85487500001
 21
20094.22682299999
 31
0.0
  0
LINE
  5
44B5
  8
0-1
  6
CONTINUOUS
 62
     3
 10
12868.855706
 20
17081.351399999989
 30
0.0
 11
12868.855706
 21
20094.22682299999
 31
0.0
  0
LINE
  5
44B6
  8
0-1
  6
CONTINUOUS
 62
     3
 10
12831.854545
 20
17101.105016000001
 30
0.0
 11
12831.854545
 21
20094.22682299999
 31
0.0
  0
LINE
  5
44B7
  8
0-1
  6
CONTINUOUS
 62
     3
 10
13031.856195
 20
16994.335722
 30
0.0
 11
13031.856195
 21
20094.22682299999
 31
0.0
  0
LINE
  5
44B8
  8
0-1
  6
CONTINUOUS
 62
     3
 10
13068.85438700001
 20
16974.584085999992
 30
0.0
 11
13068.85438700001
 21
20094.22682299999
 31
0.0
  0
LINE
  5
44B9
  8
0-1
  6
CONTINUOUS
 62
     3
 10
13268.855046999999
 20
16867.81479199999
 30
0.0
 11
13268.855046999999
 21
20094.22682299999
 31
0.0
  0
LINE
  5
44BA
  8
0-1
  6
CONTINUOUS
 62
     3
 10
13231.85586500001
 20
16887.566428999991
 30
0.0
 11
13231.85586500001
 21
20094.22682299999
 31
0.0
  0
LINE
  5
44BB
  8
0-1
  6
CONTINUOUS
 62
     3
 10
13431.85553500001
 20
16780.797135000001
 30
0.0
 11
13431.85553500001
 21
20094.22682299999
 31
0.0
  0
LINE
  5
44BC
  8
0-1
  6
CONTINUOUS
 62
     3
 10
13468.855706
 20
16761.045498999989
 30
0.0
 11
13468.855706
 21
20094.22682299999
 31
0.0
  0
LINE
  5
44BD
  8
0-1
  6
CONTINUOUS
 62
     3
 10
13631.856194999989
 20
16674.029821
 30
0.0
 11
13631.85619499998
 21
20094.22682299999
 31
0.0
  0
LINE
  5
44BE
  8
0-1
  6
CONTINUOUS
 62
     3
 10
13668.85438700001
 20
16654.276204999991
 30
0.0
 11
13668.85438700001
 21
20094.22682299999
 31
0.0
  0
LINE
  5
44BF
  8
0-1
  6
CONTINUOUS
 62
     3
 10
11268.855376
 20
17725.333901999991
 30
0.0
 11
11268.855376
 21
20094.22682299999
 31
0.0
  0
LINE
  5
44C0
  8
0-1
  6
CONTINUOUS
 62
     3
 10
13841.853991000011
 20
16577.25865399999
 30
0.0
 11
13841.853991000011
 21
20094.22682299999
 31
0.0
  0
LINE
  5
44C1
  8
0-1
  6
CONTINUOUS
 62
     3
 10
13878.85317300001
 20
16557.508997000001
 30
0.0
 11
13878.85317300001
 21
20094.22682299999
 31
0.0
  0
LINE
  5
44C2
  8
0-1
  6
CONTINUOUS
 62
     3
 10
13918.35351600001
 20
13544.73055799999
 30
0.0
 11
13918.35351600001
 21
20094.22682299999
 31
0.0
  0
LINE
  5
44C3
  8
0-1
  6
CONTINUOUS
 62
     3
 10
14053.854531999999
 20
13512.73064999999
 30
0.0
 11
14053.854531999999
 21
20104.230253999991
 31
0.0
  0
LINE
  5
44C4
  8
0-1
  6
CONTINUOUS
 62
     3
 10
11120.35585200001
 20
15514.730913999991
 30
0.0
 11
13898.3544
 21
13705.230913999991
 31
0.0
  0
LINE
  5
44C5
  8
0-1
  6
CONTINUOUS
 62
     3
 10
13898.3544
 20
15514.730913999991
 30
0.0
 11
11120.35585200001
 21
13705.230913999991
 31
0.0
  0
LINE
  5
44C6
  8
0-1
  6
CONTINUOUS
 62
     3
 10
11120.35585200001
 20
16973.730914
 30
0.0
 11
13898.3544
 21
15514.730913999991
 31
0.0
  0
LINE
  5
44C7
  8
0-1
  6
CONTINUOUS
 62
     3
 10
11107.35536300001
 20
13747.731177999991
 30
0.0
 11
11107.35536300001
 21
15469.73150699999
 31
0.0
  0
LINE
  5
44C8
  8
0-1
  6
CONTINUOUS
 62
     3
 10
10993.353897999999
 20
13747.731177999991
 30
0.0
 11
10993.353897999999
 21
15469.73150699999
 31
0.0
  0
LINE
  5
44C9
  8
0-1
  6
CONTINUOUS
 62
     3
 10
11050.354136000011
 20
13747.731177999991
 30
0.0
 11
11050.354136000011
 21
15469.73150699999
 31
0.0
  0
LINE
  5
44CA
  8
0-1
  6
CONTINUOUS
 62
     3
 10
11050.354136000011
 20
13668.73057099998
 30
0.0
 11
11050.354136000011
 21
15469.73150699999
 31
0.0
  0
LINE
  5
44CB
  8
0-1
  6
CONTINUOUS
 62
     3
 10
11352.10403
 20
17597.01160999999
 30
0.0
 11
10743.626742
 21
18529.964865999998
 31
0.0
  0
LINE
  5
44CC
  8
0-1
  6
CONTINUOUS
 62
     3
 10
10605.281158000011
 20
18294.748571
 30
0.0
 11
10743.626742
 21
18529.964865999998
 31
0.0
  0
LINE
  5
44CD
  8
0-1
  6
CONTINUOUS
 62
     3
 10
11050.354136000011
 20
17018.729329999991
 30
0.0
 11
11050.354136000011
 21
18062.148987999979
 31
0.0
  0
LINE
  5
44CE
  8
0-1
  6
CONTINUOUS
 62
     3
 10
11050.354136000011
 20
17018.729329999991
 30
0.0
 11
11050.354136000011
 21
17884.45552299999
 31
0.0
  0
LINE
  5
44CF
  8
0-1
  6
CONTINUOUS
 62
     3
 10
10993.353897999999
 20
17018.729329999991
 30
0.0
 11
10993.353897999999
 21
18145.011846999991
 31
0.0
  0
LINE
  5
44D0
  8
0-1
  6
CONTINUOUS
 62
     3
 10
11107.35536300001
 20
17018.729329999991
 30
0.0
 11
11107.35536300001
 21
17974.284096999989
 31
0.0
  0
LINE
  5
44D1
  8
0-1
  6
CONTINUOUS
 62
     3
 10
12103.27986399998
 20
17500.050831
 30
0.0
 11
11120.35585200001
 21
16973.730914
 31
0.0
  0
LINE
  5
44D2
  8
0-1
  6
CONTINUOUS
 62
     3
 10
11050.354136000011
 20
15559.731309000001
 30
0.0
 11
11050.354136000011
 21
16928.730518
 31
0.0
  0
LINE
  5
44D3
  8
0-1
  6
CONTINUOUS
 62
     3
 10
11050.354136000011
 20
15559.731309000001
 30
0.0
 11
11050.354136000011
 21
16928.730518
 31
0.0
  0
LINE
  5
44D4
  8
0-1
  6
CONTINUOUS
 62
     3
 10
11107.35536300001
 20
15559.731309000001
 30
0.0
 11
11107.35536300001
 21
16928.730518
 31
0.0
  0
LINE
  5
44D5
  8
0-1
  6
CONTINUOUS
 62
     3
 10
10993.353897999999
 20
15559.731309000001
 30
0.0
 11
10993.353897999999
 21
16928.730518
 31
0.0
  0
LINE
  5
44D6
  8
0-1
  6
CONTINUOUS
 62
     3
 10
11352.10403
 20
17597.01160999999
 30
0.0
 11
11488.20088200001
 21
17828.407434000001
 31
0.0
  0
LINE
  5
44D7
  8
0-1
  6
CONTINUOUS
 62
     3
 10
13968.354136000011
 20
13668.73057099998
 30
0.0
 11
13968.354136000011
 21
16509.729357
 31
0.0
  0
LINE
  5
44D8
  8
0-1
  6
CONTINUOUS
 62
     3
 10
14010.853410000011
 20
13668.73057099998
 30
0.0
 11
14010.853410000011
 21
16487.040115
 31
0.0
  0
LINE
  5
44D9
  8
0-1
  6
CONTINUOUS
 62
     3
 10
8421.8557590000019
 20
19460.019686
 30
0.0
 11
8421.8557590000019
 21
20094.22682299999
 31
0.0
  0
LINE
  5
44DA
  8
0-1
  6
CONTINUOUS
 62
     3
 10
8458.8549410000032
 20
19440.268049999999
 30
0.0
 11
8458.8549410000032
 21
20094.226823000001
 31
0.0
  0
LINE
  5
44DB
  8
0-1
  6
CONTINUOUS
 62
     3
 10
8258.8542810000035
 20
19547.037342999989
 30
0.0
 11
8258.8542810000035
 21
20094.22682299999
 31
0.0
  0
LINE
  5
44DC
  8
0-1
  6
CONTINUOUS
 62
     3
 10
14035.85378000001
 20
20096.729857999992
 30
0.0
 11
14053.854531999999
 21
20096.729857999992
 31
0.0
  0
LINE
  5
44DD
  8
0-1
  6
CONTINUOUS
 62
     3
 10
13980.355007
 20
20079.230913999989
 30
0.0
 11
13980.355007
 21
20109.230518
 31
0.0
  0
LINE
  5
44DE
  8
0-1
  6
CONTINUOUS
 62
     3
 10
14035.85378000001
 20
20074.23064999999
 30
0.0
 11
13985.354281
 21
20074.23064999999
 31
0.0
  0
LINE
  5
44DF
  8
0-1
  6
CONTINUOUS
 62
     3
 10
14053.854531999999
 20
20109.230518
 30
0.0
 11
14053.854531999999
 21
20074.23064999999
 31
0.0
  0
LINE
  5
44E0
  8
0-1
  6
CONTINUOUS
 62
     3
 10
13985.354281
 20
20114.230781999991
 30
0.0
 11
14048.85426799999
 21
20114.230781999991
 31
0.0
  0
LINE
  5
44E1
  8
0-1
  6
CONTINUOUS
 62
     3
 10
7898.657121000002
 20
19739.325798999991
 30
0.0
 11
10605.281158000011
 21
18294.748571
 31
0.0
  0
LINE
  5
44E2
  8
0-1
  6
CONTINUOUS
 62
     3
 10
11488.20088200001
 20
17828.407434000001
 30
0.0
 11
14202.049171000001
 21
16384.970197999992
 31
0.0
  0
LINE
  5
44E3
  8
0-1
  6
CONTINUOUS
 62
     3
 10
9288.2045110000072
 20
19002.861746999992
 30
0.0
 11
8202.3558510000057
 21
18432.730914
 31
0.0
  0
LINE
  5
44E4
  8
0-1
  6
CONTINUOUS
 62
     3
 10
13476.101734000011
 20
16757.177519000001
 30
0.0
 11
11120.35585200001
 21
15514.730913999991
 31
0.0
  0
LINE
  5
44E5
  8
0-1
  6
CONTINUOUS
 62
     3
 10
11050.354136000011
 20
13668.73057099998
 30
0.0
 11
11050.354136000011
 21
13512.73064999999
 31
0.0
  0
LINE
  5
44E6
  8
0-6
  6
CONTINUOUS
 62
     6
 10
8197.8395800000017
 20
17832.208109999981
 30
0.0
 11
8296.8808330000029
 21
17611.418546000001
 31
0.0
  0
LINE
  5
44E7
  8
0-6
  6
CONTINUOUS
 62
     6
 10
7954.9625470000019
 20
14093.002767999989
 30
0.0
 11
7396.4557310000027
 21
12312.73065
 31
0.0
  0
LINE
  5
44E8
  8
0-6
  6
CONTINUOUS
 62
     6
 10
13345.581187000011
 20
18529.091898999999
 30
0.0
 11
14252.619932000011
 21
18838.144026000002
 31
0.0
  0
LINE
  5
44E9
  8
0-6
  6
CONTINUOUS
 62
     6
 10
13345.581187000011
 20
17070.091898999988
 30
0.0
 11
14252.619932000011
 21
17384.144078999991
 31
0.0
  0
LINE
  5
44EA
  8
0-6
  6
CONTINUOUS
 62
     6
 10
13343.14439900001
 20
15411.67420699998
 30
0.0
 11
14252.619932000011
 21
15076.417358000001
 31
0.0
  0
LINE
  5
44EB
  8
0-6
  6
CONTINUOUS
 62
     6
 10
9243.0774260000089
 20
14076.558907000001
 30
0.0
 11
10043.07610600001
 21
14076.558907000001
 31
0.0
  0
LINE
  5
44EC
  8
0-6
  6
CONTINUOUS
 62
     6
 10
9527.0363970000071
 20
13376.262639
 30
0.0
 11
9884.6444089428514
 21
12712.730979999989
 31
0.0
  0
LINE
  5
44ED
  8
0-6
  6
CONTINUOUS
 62
     6
 10
9160.1930030000149
 20
13899.620628999999
 30
0.0
 11
9243.0774260000089
 21
14076.558907000001
 31
0.0
  0
LINE
  5
44EE
  8
0-6
  6
CONTINUOUS
 62
     6
 10
10993.353897999999
 20
15733.56704899999
 30
0.0
 11
10832.696169999999
 21
16158.590474000001
 31
0.0
  0
LINE
  5
44EF
  8
0-6
  6
CONTINUOUS
 62
     6
 10
9884.7532200000005
 20
16158.590474000001
 30
0.0
 11
10832.696169999999
 21
16158.590474000001
 31
0.0
  0
LINE
  5
44F0
  8
0-6
  6
CONTINUOUS
 62
     6
 10
8296.8808330000029
 20
17611.418546000001
 30
0.0
 11
8816.8825480000032
 21
17611.418546000001
 31
0.0
  0
LINE
  5
44F1
  8
0-6
  6
CONTINUOUS
 62
     6
 10
14252.619932000011
 20
15878.278765999999
 30
0.0
 11
15132.618877000001
 21
15878.278765999999
 31
0.0
  0
LINE
  5
44F2
  8
0-6
  6
CONTINUOUS
 62
     6
 10
13609.831081
 20
15676.035311
 30
0.0
 11
14252.619932000011
 21
15878.278765999999
 31
0.0
  0
LINE
  5
44F3
  8
0-6
  6
CONTINUOUS
 62
     6
 10
13608.923472
 20
20734.64951599999
 30
0.0
 11
13418.63828899999
 21
21064.229461999988
 31
0.0
  0
LINE
  5
44F4
  8
0-6
  6
CONTINUOUS
 62
     6
 10
10247.98499601452
 20
20342.405226983741
 30
0.0
 11
10765.67166401455
 21
20342.405226983741
 31
0.0
  0
LINE
  5
44F5
  8
0-6
  6
CONTINUOUS
 62
     6
 10
10104.08290201453
 20
19830.12957198374
 30
0.0
 11
10247.98499601452
 21
20342.405226983741
 31
0.0
  0
LINE
  5
44F6
  8
0-6
  6
CONTINUOUS
 62
     6
 10
11743.63993900001
 20
21064.229461999988
 30
0.0
 11
13418.63828899999
 21
21064.229461999988
 31
0.0
  0
LINE
  5
44F7
  8
0-6
  6
CONTINUOUS
 62
     6
 10
13902.11845400001
 20
20244.134709000002
 30
0.0
 11
13682.929754000001
 21
20606.465789999991
 31
0.0
  0
LINE
  5
44F8
  8
0-6
  6
CONTINUOUS
 62
     6
 10
14252.619932000011
 20
15076.417358000001
 30
0.0
 11
16247.06309400001
 21
15076.417358000001
 31
0.0
  0
LINE
  5
44F9
  8
0-6
  6
CONTINUOUS
 62
     6
 10
14252.619932000011
 20
18838.144026000002
 30
0.0
 11
16247.06309400001
 21
18838.144026000002
 31
0.0
  0
LINE
  5
44FA
  8
0-6
  6
CONTINUOUS
 62
     6
 10
14252.619932000011
 20
17384.144078999991
 30
0.0
 11
16247.06309400001
 21
17384.144078999991
 31
0.0
  0
LINE
  5
44FB
  8
0-6
  6
CONTINUOUS
 62
     6
 10
6316.454642000007
 20
12312.73065
 30
0.0
 11
7396.4557310000027
 21
12312.73065
 31
0.0
  0
LINE
  5
44FC
  8
0-6
  6
CONTINUOUS
 62
     6
 10
7980.4057940000093
 20
14085.020358999989
 30
0.0
 11
8002.855515000002
 21
14245.6672
 31
0.0
  0
LINE
  5
44FD
  8
0-6
  6
CONTINUOUS
 62
     6
 10
8002.855515000002
 20
14245.6672
 30
0.0
 11
7929.5173200000054
 21
14100.985177
 31
0.0
  0
LINE
  5
44FE
  8
0-6
  6
CONTINUOUS
 62
     6
 10
8002.855515000002
 20
14245.6672
 30
0.0
 11
7980.4057940000093
 21
14085.020358999989
 31
0.0
  0
LINE
  5
44FF
  8
0-6
  6
CONTINUOUS
 62
     6
 10
7980.4057940000093
 20
14085.020358999989
 30
0.0
 11
7929.5173200000054
 21
14100.985177
 31
0.0
  0
LINE
  5
4500
  8
0-6
  6
CONTINUOUS
 62
     6
 10
7929.5173200000054
 20
14100.985177
 30
0.0
 11
8002.855515000002
 21
14245.6672
 31
0.0
  0
LINE
  5
4501
  8
0-6
  6
CONTINUOUS
 62
     6
 10
7929.5173200000054
 20
14100.985177
 30
0.0
 11
7980.4057940000093
 21
14085.020358999989
 31
0.0
  0
LINE
  5
4502
  8
0-6
  6
CONTINUOUS
 62
     6
 10
8222.1708320000052
 20
17843.123175000001
 30
0.0
 11
8132.3541360000099
 21
17978.193646
 31
0.0
  0
LINE
  5
4503
  8
0-6
  6
CONTINUOUS
 62
     6
 10
8132.3541360000099
 20
17978.193646
 30
0.0
 11
8173.5083270000086
 21
17821.295023999988
 31
0.0
  0
LINE
  5
4504
  8
0-6
  6
CONTINUOUS
 62
     6
 10
8132.3541360000099
 20
17978.193646
 30
0.0
 11
8222.1708320000052
 21
17843.123175000001
 31
0.0
  0
LINE
  5
4505
  8
0-6
  6
CONTINUOUS
 62
     6
 10
8222.1708320000052
 20
17843.123175000001
 30
0.0
 11
8173.5083270000086
 21
17821.295023999988
 31
0.0
  0
LINE
  5
4506
  8
0-6
  6
CONTINUOUS
 62
     6
 10
8173.5083270000086
 20
17821.295023999988
 30
0.0
 11
8132.3541360000099
 21
17978.193646
 31
0.0
  0
LINE
  5
4507
  8
0-6
  6
CONTINUOUS
 62
     6
 10
8173.5083270000086
 20
17821.295023999988
 30
0.0
 11
8222.1708320000052
 21
17843.123175000001
 31
0.0
  0
LINE
  5
4508
  8
0-6
  6
CONTINUOUS
 62
     6
 10
13754.11918
 20
15750.14650699999
 30
0.0
 11
13609.831081
 21
15676.035311
 31
0.0
  0
LINE
  5
4509
  8
0-6
  6
CONTINUOUS
 62
     6
 10
13609.831081
 20
15676.035311
 30
0.0
 11
13770.354202
 21
15699.344141999971
 31
0.0
  0
LINE
  5
450A
  8
0-6
  6
CONTINUOUS
 62
     6
 10
13609.831081
 20
15676.035311
 30
0.0
 11
13754.11918
 21
15750.14650699999
 31
0.0
  0
LINE
  5
450B
  8
0-6
  6
CONTINUOUS
 62
     6
 10
13754.11918
 20
15750.14650699999
 30
0.0
 11
13770.354202
 21
15699.344141999971
 31
0.0
  0
LINE
  5
450C
  8
0-6
  6
CONTINUOUS
 62
     6
 10
13770.354202
 20
15699.344141999971
 30
0.0
 11
13609.831081
 21
15676.035311
 31
0.0
  0
LINE
  5
450D
  8
0-6
  6
CONTINUOUS
 62
     6
 10
13770.354202
 20
15699.344141999971
 30
0.0
 11
13754.11918
 21
15750.14650699999
 31
0.0
  0
LINE
  5
450E
  8
0-6
  6
CONTINUOUS
 62
     6
 10
13352.821276000001
 20
15436.523104
 30
0.0
 11
13194.050029000011
 21
15469.73150699999
 31
0.0
  0
LINE
  5
450F
  8
0-6
  6
CONTINUOUS
 62
     6
 10
13194.050029000011
 20
15469.73150699999
 30
0.0
 11
13333.46752299999
 21
15386.823330999991
 31
0.0
  0
LINE
  5
4510
  8
0-6
  6
CONTINUOUS
 62
     6
 10
13194.050029000011
 20
15469.73150699999
 30
0.0
 11
13352.821276000001
 21
15436.523104
 31
0.0
  0
LINE
  5
4511
  8
0-6
  6
CONTINUOUS
 62
     6
 10
13352.821276000001
 20
15436.523104
 30
0.0
 11
13333.46752299999
 21
15386.823330999991
 31
0.0
  0
LINE
  5
4512
  8
0-6
  6
CONTINUOUS
 62
     6
 10
13333.46752299999
 20
15386.823330999991
 30
0.0
 11
13194.050029000011
 21
15469.73150699999
 31
0.0
  0
LINE
  5
4513
  8
0-6
  6
CONTINUOUS
 62
     6
 10
13333.46752299999
 20
15386.823330999991
 30
0.0
 11
13352.821276000001
 21
15436.523104
 31
0.0
  0
LINE
  5
4514
  8
0-6
  6
CONTINUOUS
 62
     6
 10
9549.7800760000082
 20
13390.183604
 30
0.0
 11
9443.509621000012
 21
13512.73064999999
 31
0.0
  0
LINE
  5
4515
  8
0-6
  6
CONTINUOUS
 62
     6
 10
9443.509621000012
 20
13512.73064999999
 30
0.0
 11
9504.2917280000092
 21
13362.341674999991
 31
0.0
  0
LINE
  5
4516
  8
0-6
  6
CONTINUOUS
 62
     6
 10
9443.509621000012
 20
13512.73064999999
 30
0.0
 11
9549.7800760000082
 21
13390.183604
 31
0.0
  0
LINE
  5
4517
  8
0-6
  6
CONTINUOUS
 62
     6
 10
9549.7800760000082
 20
13390.183604
 30
0.0
 11
9504.2917280000092
 21
13362.341674999991
 31
0.0
  0
LINE
  5
4518
  8
0-6
  6
CONTINUOUS
 62
     6
 10
9504.2917280000092
 20
13362.341674999991
 30
0.0
 11
9443.509621000012
 21
13512.73064999999
 31
0.0
  0
LINE
  5
4519
  8
0-6
  6
CONTINUOUS
 62
     6
 10
9504.2917280000092
 20
13362.341674999991
 30
0.0
 11
9549.7800760000082
 21
13390.183604
 31
0.0
  0
LINE
  5
451A
  8
0-6
  6
CONTINUOUS
 62
     6
 10
9136.0428760000104
 20
13910.932588
 30
0.0
 11
9092.3192700000127
 21
13754.72976599998
 31
0.0
  0
LINE
  5
451B
  8
0-6
  6
CONTINUOUS
 62
     6
 10
9092.3192700000127
 20
13754.72976599998
 30
0.0
 11
9184.3391710000105
 21
13888.307679999991
 31
0.0
  0
LINE
  5
451C
  8
0-6
  6
CONTINUOUS
 62
     6
 10
9092.3192700000127
 20
13754.72976599998
 30
0.0
 11
9136.0428760000104
 21
13910.932588
 31
0.0
  0
LINE
  5
451D
  8
0-6
  6
CONTINUOUS
 62
     6
 10
9136.0428760000104
 20
13910.932588
 30
0.0
 11
9184.3391710000105
 21
13888.307679999991
 31
0.0
  0
LINE
  5
451E
  8
0-6
  6
CONTINUOUS
 62
     6
 10
9184.3391710000105
 20
13888.307679999991
 30
0.0
 11
9092.3192700000127
 21
13754.72976599998
 31
0.0
  0
LINE
  5
451F
  8
0-6
  6
CONTINUOUS
 62
     6
 10
9184.3391710000105
 20
13888.307679999991
 30
0.0
 11
9136.0428760000104
 21
13910.932588
 31
0.0
  0
LINE
  5
4520
  8
0-6
  6
CONTINUOUS
 62
     6
 10
10961.013514000009
 20
15892.517443000001
 30
0.0
 11
10993.353897999999
 21
15733.56704899999
 31
0.0
  0
LINE
  5
4521
  8
0-6
  6
CONTINUOUS
 62
     6
 10
10993.353897999999
 20
15733.56704899999
 30
0.0
 11
10911.21080600001
 21
15873.436863000001
 31
0.0
  0
LINE
  5
4522
  8
0-6
  6
CONTINUOUS
 62
     6
 10
10993.353897999999
 20
15733.56704899999
 30
0.0
 11
10961.013514000009
 21
15892.517443000001
 31
0.0
  0
LINE
  5
4523
  8
0-6
  6
CONTINUOUS
 62
     6
 10
10961.013514000009
 20
15892.517443000001
 30
0.0
 11
10911.21080600001
 21
15873.436863000001
 31
0.0
  0
LINE
  5
4524
  8
0-6
  6
CONTINUOUS
 62
     6
 10
10911.21080600001
 20
15873.436863000001
 30
0.0
 11
10993.353897999999
 21
15733.56704899999
 31
0.0
  0
LINE
  5
4525
  8
0-6
  6
CONTINUOUS
 62
     6
 10
10911.21080600001
 20
15873.436863000001
 30
0.0
 11
10961.013514000009
 21
15892.517443000001
 31
0.0
  0
LINE
  5
4526
  8
0-6
  6
CONTINUOUS
 62
     6
 10
13337.019769
 20
17095.346597
 30
0.0
 11
13194.050029000011
 21
17018.729329999991
 31
0.0
  0
LINE
  5
4527
  8
0-6
  6
CONTINUOUS
 62
     6
 10
13194.050029000011
 20
17018.729329999991
 30
0.0
 11
13354.140625
 21
17044.837199999991
 31
0.0
  0
LINE
  5
4528
  8
0-6
  6
CONTINUOUS
 62
     6
 10
13194.050029000011
 20
17018.729329999991
 30
0.0
 11
13337.019769
 21
17095.346597
 31
0.0
  0
LINE
  5
4529
  8
0-6
  6
CONTINUOUS
 62
     6
 10
13337.019769
 20
17095.346597
 30
0.0
 11
13354.140625
 21
17044.837199999991
 31
0.0
  0
LINE
  5
452A
  8
0-6
  6
CONTINUOUS
 62
     6
 10
13354.140625
 20
17044.837199999991
 30
0.0
 11
13194.050029000011
 21
17018.729329999991
 31
0.0
  0
LINE
  5
452B
  8
0-6
  6
CONTINUOUS
 62
     6
 10
13354.140625
 20
17044.837199999991
 30
0.0
 11
13337.019769
 21
17095.346597
 31
0.0
  0
LINE
  5
452C
  8
0-6
  6
CONTINUOUS
 62
     6
 10
13337.019769
 20
18554.346597
 30
0.0
 11
13194.050029000011
 21
18477.731309999981
 31
0.0
  0
LINE
  5
452D
  8
0-6
  6
CONTINUOUS
 62
     6
 10
13194.050029000011
 20
18477.731309999981
 30
0.0
 11
13354.140625
 21
18503.837200999991
 31
0.0
  0
LINE
  5
452E
  8
0-6
  6
CONTINUOUS
 62
     6
 10
13194.050029000011
 20
18477.731309999981
 30
0.0
 11
13337.019769
 21
18554.346597
 31
0.0
  0
LINE
  5
452F
  8
0-6
  6
CONTINUOUS
 62
     6
 10
13337.019769
 20
18554.346597
 30
0.0
 11
13354.140625
 21
18503.837200999991
 31
0.0
  0
LINE
  5
4530
  8
0-6
  6
CONTINUOUS
 62
     6
 10
13354.140625
 20
18503.837200999991
 30
0.0
 11
13194.050029000011
 21
18477.731309999981
 31
0.0
  0
LINE
  5
4531
  8
0-6
  6
CONTINUOUS
 62
     6
 10
13354.140625
 20
18503.837200999991
 30
0.0
 11
13337.019769
 21
18554.346597
 31
0.0
  0
LINE
  5
4532
  8
0-6
  6
CONTINUOUS
 62
     6
 10
10078.194758014541
 20
19836.527375983718
 30
0.0
 11
10065.69508801455
 21
19674.802687983742
 31
0.0
  0
LINE
  5
4533
  8
0-6
  6
CONTINUOUS
 62
     6
 10
10065.69508801455
 20
19674.802687983742
 30
0.0
 11
10129.971046014551
 21
19823.731767983729
 31
0.0
  0
LINE
  5
4534
  8
0-6
  6
CONTINUOUS
 62
     6
 10
10065.69508801455
 20
19674.802687983742
 30
0.0
 11
10078.194758014541
 21
19836.527375983718
 31
0.0
  0
LINE
  5
4535
  8
0-6
  6
CONTINUOUS
 62
     6
 10
10078.194758014541
 20
19836.527375983718
 30
0.0
 11
10129.971046014551
 21
19823.731767983729
 31
0.0
  0
LINE
  5
4536
  8
0-6
  6
CONTINUOUS
 62
     6
 10
10129.971046014551
 20
19823.731767983729
 30
0.0
 11
10065.69508801455
 21
19674.802687983742
 31
0.0
  0
LINE
  5
4537
  8
0-6
  6
CONTINUOUS
 62
     6
 10
10129.971046014551
 20
19823.731767983729
 30
0.0
 11
10078.194758014541
 21
19836.527375983718
 31
0.0
  0
LINE
  5
4538
  8
0-6
  6
CONTINUOUS
 62
     6
 10
13880.46846
 20
20231.634049
 30
0.0
 11
13977.11845400001
 21
20114.230781999991
 31
0.0
  0
LINE
  5
4539
  8
0-6
  6
CONTINUOUS
 62
     6
 10
13977.11845400001
 20
20114.230781999991
 30
0.0
 11
13923.770428999989
 21
20256.633389999992
 31
0.0
  0
LINE
  5
453A
  8
0-6
  6
CONTINUOUS
 62
     6
 10
13977.11845400001
 20
20114.230781999991
 30
0.0
 11
13880.46846
 21
20231.634049
 31
0.0
  0
LINE
  5
453B
  8
0-6
  6
CONTINUOUS
 62
     6
 10
13880.46846
 20
20231.634049
 30
0.0
 11
13923.770428999989
 21
20256.633389999992
 31
0.0
  0
LINE
  5
453C
  8
0-6
  6
CONTINUOUS
 62
     6
 10
13923.770428999989
 20
20256.633389999992
 30
0.0
 11
13977.11845400001
 21
20114.230781999991
 31
0.0
  0
LINE
  5
453D
  8
0-6
  6
CONTINUOUS
 62
     6
 10
13923.770428999989
 20
20256.633389999992
 30
0.0
 11
13880.46846
 21
20231.634049
 31
0.0
  0
LINE
  5
453E
  8
2-0
  6
DASHED3
 62
     6
 10
8202.3558510000057
 20
19891.730914
 30
0.0
 11
10980.355390000001
 21
18432.730914
 31
0.0
  0
LINE
  5
453F
  8
2-0
  6
DASHED3
 62
     6
 10
8089.8528820000074
 20
19937.730967
 30
0.0
 11
14010.853410000011
 21
19937.730967
 31
0.0
  0
LINE
  5
4540
  8
2-0
  6
DASHED3
 62
     6
 10
8132.3541360000099
 20
19852.730438999992
 30
0.0
 11
13968.354136000011
 21
19852.730438999992
 31
0.0
  0
LINE
  5
4541
  8
2-0
  6
DASHED3
 62
     6
 10
8132.3541360000099
 20
19614.568619999998
 30
0.0
 11
8132.3541360000099
 21
19937.730967
 31
0.0
  0
LINE
  5
4542
  8
2-0
  6
DASHED3
 62
     6
 10
8089.8528820000074
 20
19637.25588199999
 30
0.0
 11
8089.8528820000074
 21
19937.730967
 31
0.0
  0
LINE
  5
4543
  8
2-0
  6
DASHED3
 62
     6
 10
13898.3544
 20
19891.730914
 30
0.0
 11
11120.35585200001
 21
18432.730914
 31
0.0
  0
LINE
  5
4544
  8
2-0
  6
DASHED3
 62
     6
 10
11120.35585200001
 20
19891.730914
 30
0.0
 11
13898.3544
 21
18432.730914
 31
0.0
  0
LINE
  5
4545
  8
2-0
  6
DASHED3
 62
     6
 10
14010.853410000011
 20
16487.040115
 30
0.0
 11
14010.853410000011
 21
19937.730967
 31
0.0
  0
LINE
  5
4546
  8
2-0
  6
DASHED3
 62
     6
 10
13968.354136000011
 20
16509.729357
 30
0.0
 11
13968.354136000011
 21
19937.730967
 31
0.0
  0
LINE
  5
4547
  8
0-7
  6
CONTINUOUS
 62
     6
 10
13898.3544
 20
16973.730914
 30
0.0
 11
13476.101734000011
 21
16757.177519000001
 31
0.0
  0
LINE
  5
4548
  8
0-7
  6
CONTINUOUS
 62
     6
 10
13898.3544
 20
18432.730914
 30
0.0
 11
12103.27986399998
 21
17500.050831
 31
0.0
  0
LINE
  5
4549
  8
2-0
  6
DASHED3
 62
     6
 10
11120.35585200001
 20
18432.730914
 30
0.0
 11
13898.3544
 21
16973.730914
 31
0.0
  0
LINE
  5
454A
  8
2-0
  6
DASHED3
 62
     6
 10
10431.107276999999
 20
18387.730518
 30
0.0
 11
13968.354136000011
 21
18387.730518
 31
0.0
  0
LINE
  5
454B
  8
2-0
  6
DASHED3
 62
     6
 10
10262.52058700001
 20
18477.731309999981
 30
0.0
 11
13968.354136000011
 21
18477.731309999981
 31
0.0
  0
LINE
  5
454C
  8
2-0
  6
DASHED3
 62
     6
 10
10980.355390000001
 20
18432.730914
 30
0.0
 11
10850.840437999999
 21
18364.696840000001
 31
0.0
  0
LINE
  5
454D
  8
2-0
  6
DASHED3
 62
     6
 10
11107.35536300001
 20
17974.284096999989
 30
0.0
 11
11107.35536300001
 21
18387.730518
 31
0.0
  0
LINE
  5
454E
  8
2-0
  6
DASHED3
 62
     6
 10
10993.353897999999
 20
18145.011846999991
 30
0.0
 11
10993.353897999999
 21
18387.730518
 31
0.0
  0
LINE
  5
454F
  8
2-0
  6
DASHED3
 62
     6
 10
11050.354136000011
 20
18062.148987999979
 30
0.0
 11
11050.354136000011
 21
18387.730518
 31
0.0
  0
LINE
  5
4550
  8
2-0
  6
DASHED3
 62
     6
 10
10980.355390000001
 20
19891.730914
 30
0.0
 11
9288.2045110000072
 21
19002.861746999992
 31
0.0
  0
LINE
  5
4551
  8
2-0
  6
CENTER2
 62
     6
 10
7899.4157710000018
 20
18432.730914
 30
0.0
 11
14201.29101600001
 21
18432.730914
 31
0.0
  0
LINE
  5
4552
  8
2-0
  6
CENTER2
 62
     6
 10
7913.5564620000023
 20
15514.730913999991
 30
0.0
 11
14201.29101600001
 21
15514.730913999991
 31
0.0
  0
LINE
  5
4553
  8
2-0
  6
CENTER2
 62
     6
 10
6802.855360000005
 20
13705.230913999991
 30
0.0
 11
8449.3532510000059
 21
13705.230913999991
 31
0.0
  0
LINE
  5
4554
  8
2-0
  6
CENTER2
 62
     6
 10
6802.855360000005
 20
16973.730914
 30
0.0
 11
8449.3532510000059
 21
16973.730914
 31
0.0
  0
LINE
  5
4555
  8
2-0
  6
CENTER2
 62
     6
 10
6802.855360000005
 20
19891.730914
 30
0.0
 11
8449.3532510000059
 21
19891.730914
 31
0.0
  0
LINE
  5
4556
  8
2-0
  6
CENTER2
 62
     6
 10
8132.3541360000099
 20
21064.229461999988
 30
0.0
 11
8132.3541360000099
 21
20184.230518
 31
0.0
  0
LINE
  5
4557
  8
2-0
  6
CENTER2
 62
     6
 10
13641.356894
 20
13705.230913999991
 30
0.0
 11
14267.11792699999
 21
13705.230913999991
 31
0.0
  0
LINE
  5
4558
  8
2-0
  6
CENTER2
 62
     6
 10
13641.356894
 20
16973.730914
 30
0.0
 11
14201.29101600001
 21
16973.730914
 31
0.0
  0
LINE
  5
4559
  8
2-0
  6
CENTER2
 62
     6
 10
11050.354136000011
 20
21064.229461999988
 30
0.0
 11
11050.354136000011
 21
19674.732128
 31
0.0
  0
LINE
  5
455A
  8
2-0
  6
CENTER2
 62
     6
 10
13968.354136000011
 20
21134.231178000002
 30
0.0
 11
13968.354136000011
 21
20184.230518
 31
0.0
  0
LINE
  5
455B
  8
2-0
  6
DASHED3
 62
     6
 10
10993.353897999999
 20
18477.731309999981
 30
0.0
 11
10993.353897999999
 21
19852.730438999992
 31
0.0
  0
LINE
  5
455C
  8
2-0
  6
DASHED3
 62
     6
 10
11050.354136000011
 20
18477.731309999981
 30
0.0
 11
11050.354136000011
 21
19852.730438999992
 31
0.0
  0
LINE
  5
455D
  8
2-0
  6
DASHED3
 62
     6
 10
11107.35536300001
 20
18477.731309999981
 30
0.0
 11
11107.35536300001
 21
19852.730438999992
 31
0.0
  0
LINE
  5
455E
  8
2-0
  6
DASHED3
 62
     6
 10
12986.160988000011
 20
17018.729329999991
 30
0.0
 11
13968.354136000011
 21
17018.729329999991
 31
0.0
  0
LINE
  5
455F
  8
2-0
  6
DASHED3
 62
     6
 10
13154.747676999999
 20
16928.730518
 30
0.0
 11
13968.354136000011
 21
16928.730518
 31
0.0
  0
LINE
  5
4560
  8
0-1
  6
CONTINUOUS
 62
     3
 10
8132.3541360000099
 20
16928.730518
 30
0.0
 11
13154.747676999999
 21
16928.730518
 31
0.0
  0
LINE
  5
4561
  8
0-1
  6
CONTINUOUS
 62
     3
 10
8132.3541360000099
 20
17018.729329999991
 30
0.0
 11
12986.160988000011
 21
17018.729329999991
 31
0.0
  0
ARC
  5
4562
  8
0-1
  6
CONTINUOUS
 62
     3
 10
8115.3530010000059
 20
20079.230913999989
 30
0.0
 40
5.0
 50
269.9999850001808
 51
0.0
  0
ARC
  5
4563
  8
0-1
  6
CONTINUOUS
 62
     3
 10
8115.3530010000059
 20
20109.230518
 30
0.0
 40
5.0
 50
0.0
 51
90.0
  0
ARC
  5
4564
  8
0-1
  6
CONTINUOUS
 62
     3
 10
8051.8554880000056
 20
20109.230518
 30
0.0
 40
5.0
 50
90.0
 51
180.0
  0
ARC
  5
4565
  8
0-1
  6
CONTINUOUS
 62
     3
 10
14048.85426799999
 20
20109.230518
 30
0.0
 40
5.0
 50
0.0
 51
90.0
  0
ARC
  5
4566
  8
0-1
  6
CONTINUOUS
 62
     3
 10
13985.354281
 20
20109.230518
 30
0.0
 40
5.0
 50
90.0
 51
180.0
  0
ARC
  5
4567
  8
0-1
  6
CONTINUOUS
 62
     3
 10
13985.354281
 20
20079.230913999989
 30
0.0
 40
5.0
 50
180.0
 51
269.9999850001808
  0
CIRCLE
  5
4568
  8
0-5
  6
CONTINUOUS
 62
     4
 10
8132.3541360000099
 20
21264.230122000001
 30
0.0
 40
199.9999949999999
  0
CIRCLE
  5
4569
  8
0-5
  6
CONTINUOUS
 62
     4
 10
6602.854206
 20
13705.230913999991
 30
0.0
 40
199.9999949999999
  0
CIRCLE
  5
456A
  8
0-5
  6
CONTINUOUS
 62
     4
 10
6602.854206
 20
16973.730914
 30
0.0
 40
199.9999949999999
  0
CIRCLE
  5
456B
  8
0-5
  6
CONTINUOUS
 62
     4
 10
6602.854206
 20
19891.730914
 30
0.0
 40
199.9999949999999
  0
CIRCLE
  5
456C
  8
0-5
  6
CONTINUOUS
 62
     4
 10
11050.354136000011
 20
21264.230122000001
 30
0.0
 40
199.9999949999999
  0
CIRCLE
  5
456D
  8
0-5
  6
CONTINUOUS
 62
     4
 10
13968.354136000011
 20
21334.229857999992
 30
0.0
 40
199.9999949999999
  0
CIRCLE
  5
456E
  8
0-5
  6
CONTINUOUS
 62
     4
 10
15128.71667800001
 20
1375.999858000001
 30
0.0
 40
20.0
  0
ARC
  5
456F
  8
0-5
  6
CONTINUOUS
 62
     4
 10
15128.71667800001
 20
1375.999858000001
 30
0.0
 40
20.0
 50
180.0
 51
0.0
  0
ARC
  5
4570
  8
0-5
  6
CONTINUOUS
 62
     4
 10
15128.71667800001
 20
1375.999858000001
 30
0.0
 40
20.0
 50
0.0
 51
179.99998499999839
  0
CIRCLE
  5
4571
  8
0-5
  6
CONTINUOUS
 62
     4
 10
15128.71667800001
 20
1776.000188
 30
0.0
 40
20.0
  0
ARC
  5
4572
  8
0-5
  6
CONTINUOUS
 62
     4
 10
15128.71667800001
 20
1776.000188
 30
0.0
 40
20.0
 50
180.0
 51
0.0
  0
ARC
  5
4573
  8
0-5
  6
CONTINUOUS
 62
     4
 10
15128.71667800001
 20
1776.000188
 30
0.0
 40
20.0
 50
0.0
 51
179.99998499999839
  0
TEXT
  5
4574
  8
0-5
  6
CONTINUOUS
 62
     7
 10
16696.359797000001
 20
1655.999916
 30
0.0
 40
160.0
  1
H
  0
TEXT
  5
4575
  8
0-5
  6
CONTINUOUS
 62
     7
 10
15176.14792299999
 20
1655.999916
 30
0.0
 40
160.0
  1
（ ）内寸法ハ、  タ イプヲ示ス。
  0
TEXT
  5
4576
  8
0-5
  6
CONTINUOUS
 62
     7
 10
15288.71522700001
 20
1256.000081000001
 30
0.0
 40
160.0
  1
有効高サハ、基礎高サヲ含ミマセン。
  0
TEXT
  5
4577
  8
0-5
  6
CONTINUOUS
 62
     7
 10
6549.7956840000024
 20
13620.37984
 30
0.0
 40
160.0
  1
A
 72
     4
 11
6603.1290173333364
 21
13700.37984
 31
0.0
  0
TEXT
  5
4578
  8
0-5
  6
CONTINUOUS
 62
     7
 10
6549.7956840000024
 20
16888.880828999991
 30
0.0
 40
160.0
  1
B
 72
     4
 11
6603.1290173333364
 21
16968.880828999991
 31
0.0
  0
TEXT
  5
4579
  8
0-5
  6
CONTINUOUS
 62
     7
 10
8077.1552599999986
 20
21175.031034999982
 30
0.0
 40
160.0
  1
1
 72
     4
 11
8103.8219266666656
 21
21255.031034999982
 31
0.0
  0
TEXT
  5
457A
  8
0-5
  6
CONTINUOUS
 62
     7
 10
6549.7956840000024
 20
19806.880829000002
 30
0.0
 40
160.0
  1
C
 72
     4
 11
6603.1290173333364
 21
19886.880829000002
 31
0.0
  0
TEXT
  5
457B
  8
0-5
  6
CONTINUOUS
 62
     7
 10
10995.15625
 20
21175.031034999982
 30
0.0
 40
160.0
  1
2
 72
     4
 11
11048.489583333339
 21
21255.031034999982
 31
0.0
  0
TEXT
  5
457C
  8
0-5
  6
CONTINUOUS
 62
     7
 10
13913.15427099999
 20
21245.030771000002
 30
0.0
 40
160.0
  1
3
 72
     4
 11
13966.48760433333
 21
21325.030771000002
 31
0.0
  0
TEXT
  5
457D
  8
0-6
  6
CONTINUOUS
 62
     7
 10
9323.0796690000116
 20
14156.559171000001
 30
0.0
 40
160.0
  1
桁（前）
 72
     4
 11
9643.0796690000116
 21
14236.559171000001
 31
0.0
  0
TEXT
  5
457E
  8
0-6
  6
CONTINUOUS
 62
     7
 10
9921.9799852761862
 20
12792.731244000001
 30
0.0
 40
160.0
  1
鼻隠し前
 72
     4
 11
10284.64665194285
 21
12872.731244000001
 31
0.0
  0
TEXT
  5
457F
  8
0-6
  6
CONTINUOUS
 62
     7
 10
10120.840504000011
 20
16240.96417999999
 30
0.0
 40
160.0
  1
+
 72
     4
 11
10174.173837333339
 21
16320.96417999999
 31
0.0
  0
TEXT
  5
4580
  8
0-6
  6
CONTINUOUS
 62
     7
 10
9900.9902210000037
 20
16238.590738000001
 30
0.0
 40
160.0
  1
梁　梁補強
 72
     4
 11
10359.65688766667
 21
16318.590738000001
 31
0.0
  0
TEXT
  5
4581
  8
0-6
  6
CONTINUOUS
 62
     7
 10
8376.8830760000073
 20
17691.416829999991
 30
0.0
 40
160.0
  1
上枠
 72
     4
 11
8547.5497426666734
 21
17771.416829999991
 31
0.0
  0
TEXT
  5
4582
  8
0-6
  6
CONTINUOUS
 62
     7
 10
14332.619207000011
 20
15958.278039999979
 30
0.0
 40
160.0
  1
ブレース
 72
     4
 11
14695.28587366668
 21
16043.61137333332
 31
0.0
  0
TEXT
  5
4583
  8
0-6
  6
CONTINUOUS
 62
     7
 10
10327.98723901453
 20
20422.405490983729
 30
0.0
 40
160.0
  1
屋根
 72
     4
 11
10498.6539056812
 21
20502.405490983729
 31
0.0
  0
TEXT
  5
4584
  8
0-6
  6
CONTINUOUS
 62
     7
 10
11823.640203000001
 20
21144.229726000001
 30
0.0
 40
160.0
  1
鼻隠しコーナー後
 72
     4
 11
12570.306869666671
 21
21224.229726000001
 31
0.0
  0
TEXT
  5
4585
  8
0-6
  6
CONTINUOUS
 62
     7
 10
6396.4563910000079
 20
12392.730914
 30
0.0
 40
160.0
  1
ケラバ 左
 72
     4
 11
6812.4563910000088
 21
12472.730914
 31
0.0
  0
TEXT
  5
4586
  8
2-0
  6
CONTINUOUS
 62
     7
 10
9884.7274859999998
 20
11564.231125
 30
0.0
 40
160.0
  1
小 屋 伏 図
 50
0.000193
 72
     4
 11
10386.060549851651
 21
11644.23281373359
 31
0.0
  0
TEXT
  5
4587
  8
2-0
  6
CONTINUOUS
 62
     7
 10
14333.19425700001
 20
18918.14626999999
 30
0.0
 40
160.0
  1
桁中B +  桁中補強B
 72
     4
 11
15266.52759033335
 21
18998.14626999999
 31
0.0
  0
TEXT
  5
4588
  8
2-0
  6
CONTINUOUS
 62
     7
 10
14333.19425700001
 20
17464.140383999991
 30
0.0
 40
160.0
  1
桁中A +  桁中補強A
 72
     4
 11
15266.52759033335
 21
17544.140383999991
 31
0.0
  0
TEXT
  5
4589
  8
2-0
  6
CONTINUOUS
 62
     7
 10
14333.19425700001
 20
15156.411683999961
 30
0.0
 40
160.0
  1
桁中B +  桁中補強B
 50
0.000236
 72
     4
 11
15266.527260807259
 21
15236.415528377849
 31
0.0
  0
TEXT
  5
4592
  8
2-0
  6
CONTINUOUS
 62
     7
 10
11737.55273498928
 20
11591.428182733591
 30
0.0
 40
160.0
  1
1
 72
     4
 11
11764.21940165595
 21
11671.428182733591
 31
0.0
  0
TEXT
  5
4593
  8
2-0
  6
CONTINUOUS
 62
     7
 10
11980.64145223997
 20
11511.42965073358
 30
0.0
 40
160.0
  1
80
 72
     4
 11
12100.64145223997
 21
11591.42965073358
 31
0.0
  0
TEXT
  5
4594
  8
2-0
  6
CONTINUOUS
 62
     7
 10
11238.55470098928
 20
11564.23281373359
 30
0.0
 40
160.0
  1
(S=  /   )
 72
     4
 11
11798.55470098928
 21
11644.23281373359
 31
0.0
  0
TEXT
  5
4595
  8
0-6
  6
CONTINUOUS
 62
     7
 10
8258.5749055625274
 20
20424.229329999998
 30
0.0
 40
160.0
  1
桁後+桁後補強
 72
     4
 11
8893.2415722291935
 21
20504.229329999998
 31
0.0
  0
LINE
  5
4596
  8
0-6
  6
CONTINUOUS
 62
     6
 10
9712.2904194177099
 20
19937.730966999981
 30
0.0
 11
9578.8964715364727
 21
20344.231046000001
 31
0.0
  0
LINE
  5
4597
  8
0-6
  6
CONTINUOUS
 62
     6
 10
8219.1540119672463
 20
20344.231046000001
 30
0.0
 11
9578.8964715364727
 21
20344.231046000001
 31
0.0
  0
LINE
  5
4598
  8
0-6
  6
CONTINUOUS
 62
     6
 10
9688.6829640504202
 20
20098.21240542494
 30
0.0
 11
9637.9093202774766
 21
20081.878889240161
 31
0.0
  0
LINE
  5
4599
  8
0-6
  6
CONTINUOUS
 62
     6
 10
9688.6829640504202
 20
20098.21240542494
 30
0.0
 11
9712.2904194177099
 21
19937.730966999981
 31
0.0
  0
LINE
  5
459A
  8
0-6
  6
CONTINUOUS
 62
     6
 10
9637.9093202774766
 20
20081.878889240161
 30
0.0
 11
9688.6829640504202
 21
20098.21240542494
 31
0.0
  0
LINE
  5
459B
  8
0-6
  6
CONTINUOUS
 62
     6
 10
9712.2904194177099
 20
19937.730966999981
 30
0.0
 11
9637.9093202774766
 21
20081.878889240161
 31
0.0
  0
LINE
  5
459C
  8
0-6
  6
CONTINUOUS
 62
     6
 10
9712.2904194177099
 20
19937.730966999981
 30
0.0
 11
9688.6829640504202
 21
20098.21240542494
 31
0.0
  0
LINE
  5
459D
  8
0-6
  6
CONTINUOUS
 62
     6
 10
9637.9093202774766
 20
20081.878889240161
 30
0.0
 11
9712.2904194177099
 21
19937.730966999981
 31
0.0
  0
LINE
  5
459E
  8
0-4
  6
CONTINUOUS
 62
     4
 10
17962.43860899999
 20
6384.4362370000017
 30
0.0
 11
18082.44098399999
 21
6176.5902500000011
 31
0.0
  0
LINE
  5
459F
  8
0-4
  6
CONTINUOUS
 62
     4
 10
15426.53135600001
 20
6176.5902500000002
 30
0.0
 11
19714.320470999999
 21
6176.5902500000011
 31
0.0
  0
LINE
  5
45A0
  8
0-4
  6
CONTINUOUS
 62
     4
 10
18082.44098399999
 20
6176.5902500000011
 30
0.0
 11
18202.439400999989
 21
6384.4362370000017
 31
0.0
  0
LINE
  5
45A1
  8
0-4
  6
CONTINUOUS
 62
     4
 10
18202.439400999989
 20
6384.4362370000017
 30
0.0
 11
17962.43860899999
 21
6384.4362370000017
 31
0.0
  0
TEXT
  5
45A2
  8
0-4
  6
CONTINUOUS
 62
     7
 10
17962.43860899999
 20
6464.4365009999983
 30
0.0
 40
160.0
  1
G.L
 72
     4
 11
18122.43860899999
 21
6544.4365009999992
 31
0.0
  0
TEXT
  5
45A3
  8
2-0
  6
CONTINUOUS
 62
     7
 10
21681.395296999988
 20
11453.23951899999
 30
0.0
 40
160.0
  1
平　面　図
 50
359.99978700000008
 72
     4
 11
22134.72890790736
 21
11527.90450037622
 31
0.0
  0
TEXT
  5
45A4
  8
2-0
  6
CONTINUOUS
 62
     7
 10
23486.22109304498
 20
11475.09986937623
 30
0.0
 40
160.0
  1
1
 72
     4
 11
23512.887759711652
 21
11555.09986937623
 31
0.0
  0
TEXT
  5
45A5
  8
2-0
  6
CONTINUOUS
 62
     7
 10
23729.309810295679
 20
11395.101337376231
 30
0.0
 40
160.0
  1
80
 72
     4
 11
23849.309810295679
 21
11475.101337376231
 31
0.0
  0
TEXT
  5
45A6
  8
2-0
  6
CONTINUOUS
 62
     7
 10
22987.223059044991
 20
11447.90450037622
 30
0.0
 40
160.0
  1
(S=  /   )
 72
     4
 11
23547.223059044991
 21
11527.90450037622
 31
0.0
  0
LINE
  5
45A7
  8
0-1
  6
CONTINUOUS
 62
     3
 10
9509.0335860000068
 20
6326.5902500000011
 30
0.0
 11
9509.0335860000068
 21
8187.6361290000032
 31
0.0
  0
LINE
  5
45A8
  8
0-1
  6
CONTINUOUS
 62
     3
 10
9529.0346419999969
 20
6326.5902500000011
 30
0.0
 11
9529.0346419999969
 21
8187.6361290000032
 31
0.0
  0
LINE
  5
45A9
  8
0-1
  6
CONTINUOUS
 62
     3
 10
9459.0339160000131
 20
6326.5902500000011
 30
0.0
 11
9459.0339160000131
 21
8187.6361290000032
 31
0.0
  0
LINE
  5
45AA
  8
0-1
  6
CONTINUOUS
 62
     3
 10
9579.0333220000066
 20
6326.5902500000011
 30
0.0
 11
9579.0333220000066
 21
8187.6361290000032
 31
0.0
  0
LINE
  5
45AB
  8
0-1
  6
CONTINUOUS
 62
     3
 10
9712.0342059999984
 20
6326.5902500000011
 30
0.0
 11
9712.0342059999984
 21
8187.6361290000032
 31
0.0
  0
LINE
  5
45AC
  8
0-1
  6
CONTINUOUS
 62
     3
 10
9727.0340080000115
 20
6326.5902500000011
 30
0.0
 11
9727.0340080000115
 21
8187.6361290000032
 31
0.0
  0
LINE
  5
45AD
  8
0-1
  6
CONTINUOUS
 62
     3
 10
9326.0340210000086
 20
6326.5902500000011
 30
0.0
 11
9326.0340210000086
 21
8187.6361290000032
 31
0.0
  0
LINE
  5
45AE
  8
0-1
  6
CONTINUOUS
 62
     3
 10
9311.0342190000083
 20
6326.5902500000011
 30
0.0
 11
9311.0342190000083
 21
8187.6361290000032
 31
0.0
  0
LINE
  5
45AF
  8
0-1
  6
CONTINUOUS
 62
     3
 10
10587.533705000011
 20
8187.6361290000032
 30
0.0
 11
10587.533705000011
 21
6326.5902500000011
 31
0.0
  0
LINE
  5
45B0
  8
0-1
  6
CONTINUOUS
 62
     3
 10
10550.535513000001
 20
8187.6361290000032
 30
0.0
 11
10550.535513000001
 21
6326.5902500000011
 31
0.0
  0
LINE
  5
45B1
  8
0-1
  6
CONTINUOUS
 62
     3
 10
9887.5343640000083
 20
8187.6361290000032
 30
0.0
 11
9887.5343640000083
 21
6326.5902500000011
 31
0.0
  0
LINE
  5
45B2
  8
0-1
  6
CONTINUOUS
 62
     3
 10
9850.534192999994
 20
8187.6361290000032
 30
0.0
 11
9850.534192999994
 21
6326.5902500000011
 31
0.0
  0
LINE
  5
45B3
  8
0-1
  6
CONTINUOUS
 62
     3
 10
11287.53304499998
 20
8187.6361290000032
 30
0.0
 11
11287.53304499998
 21
6326.5902500000011
 31
0.0
  0
LINE
  5
45B4
  8
0-1
  6
CONTINUOUS
 62
     3
 10
11250.534852999999
 20
8187.6361290000032
 30
0.0
 11
11250.534852999999
 21
6326.5902500000011
 31
0.0
  0
LINE
  5
45B5
  8
0-1
  6
CONTINUOUS
 62
     3
 10
10909.033255999981
 20
6326.5902500000011
 30
0.0
 11
10909.033255999981
 21
8187.6361290000032
 31
0.0
  0
LINE
  5
45B6
  8
0-1
  6
CONTINUOUS
 62
     3
 10
10929.034312
 20
6326.5902500000011
 30
0.0
 11
10929.034312
 21
8187.6361290000032
 31
0.0
  0
LINE
  5
45B7
  8
0-1
  6
CONTINUOUS
 62
     3
 10
10859.034575999989
 20
6326.5902500000011
 30
0.0
 11
10859.034575999989
 21
8187.6361290000032
 31
0.0
  0
LINE
  5
45B8
  8
0-1
  6
CONTINUOUS
 62
     3
 10
10979.03398200001
 20
6326.5902500000011
 30
0.0
 11
10979.03398200001
 21
8187.6361290000032
 31
0.0
  0
LINE
  5
45B9
  8
0-1
  6
CONTINUOUS
 62
     3
 10
11112.03387599999
 20
6326.5902500000011
 30
0.0
 11
11112.03387599999
 21
8187.6361290000032
 31
0.0
  0
LINE
  5
45BA
  8
0-1
  6
CONTINUOUS
 62
     3
 10
11127.033678
 20
6326.5902500000011
 30
0.0
 11
11127.033678
 21
8187.6361290000032
 31
0.0
  0
LINE
  5
45BB
  8
0-1
  6
CONTINUOUS
 62
     3
 10
10726.033691000001
 20
6326.5902500000011
 30
0.0
 11
10726.033691000001
 21
8187.6361290000032
 31
0.0
  0
LINE
  5
45BC
  8
0-1
  6
CONTINUOUS
 62
     3
 10
10711.034879000001
 20
6326.5902500000011
 30
0.0
 11
10711.034879000001
 21
8187.6361290000032
 31
0.0
  0
LINE
  5
45BD
  8
0-1
  6
CONTINUOUS
 62
     3
 10
10011.03355899999
 20
6326.5902500000011
 30
0.0
 11
10011.03355899999
 21
8187.6361290000032
 31
0.0
  0
LINE
  5
45BE
  8
0-1
  6
CONTINUOUS
 62
     3
 10
10026.03435099998
 20
6326.5902500000011
 30
0.0
 11
10026.03435099998
 21
8187.6361290000032
 31
0.0
  0
LINE
  5
45BF
  8
0-1
  6
CONTINUOUS
 62
     3
 10
10427.034337999999
 20
6326.5902500000011
 30
0.0
 11
10427.034337999999
 21
8187.6361290000032
 31
0.0
  0
LINE
  5
45C0
  8
0-1
  6
CONTINUOUS
 62
     3
 10
10412.033546000001
 20
6326.5902500000011
 30
0.0
 11
10412.033546000001
 21
8187.6361290000032
 31
0.0
  0
LINE
  5
45C1
  8
0-1
  6
CONTINUOUS
 62
     3
 10
10279.034642000001
 20
6326.5902500000011
 30
0.0
 11
10279.034642000001
 21
8187.6361290000032
 31
0.0
  0
LINE
  5
45C2
  8
0-1
  6
CONTINUOUS
 62
     3
 10
10159.033256000001
 20
6326.5902500000011
 30
0.0
 11
10159.033256000001
 21
8187.6361290000032
 31
0.0
  0
LINE
  5
45C3
  8
0-1
  6
CONTINUOUS
 62
     3
 10
10229.035961000011
 20
6326.5902500000011
 30
0.0
 11
10229.035961000011
 21
8187.6361290000032
 31
0.0
  0
LINE
  5
45C4
  8
0-1
  6
CONTINUOUS
 62
     3
 10
10209.034906000001
 20
6326.5902500000011
 30
0.0
 11
10209.034906000001
 21
8187.6361290000032
 31
0.0
  0
LINE
  5
45C5
  8
0-1
  6
CONTINUOUS
 62
     3
 10
11411.033229999999
 20
6326.5902500000011
 30
0.0
 11
11411.033229999999
 21
8187.6361290000032
 31
0.0
  0
LINE
  5
45C6
  8
0-1
  6
CONTINUOUS
 62
     3
 10
11426.03402099999
 20
6326.5902500000011
 30
0.0
 11
11426.03402099999
 21
8187.6361290000032
 31
0.0
  0
LINE
  5
45C7
  8
0-1
  6
CONTINUOUS
 62
     3
 10
11559.034906000001
 20
6326.5902500000011
 30
0.0
 11
11559.034906000001
 21
8187.6361290000032
 31
0.0
  0
LINE
  5
45C8
  8
0-1
  6
CONTINUOUS
 62
     3
 10
11827.034008000001
 20
6326.5902500000011
 30
0.0
 11
11827.034008000001
 21
8187.6361290000032
 31
0.0
  0
LINE
  5
45C9
  8
0-1
  6
CONTINUOUS
 62
     3
 10
11812.035196000001
 20
6326.5902500000011
 30
0.0
 11
11812.035196000001
 21
8187.6361290000032
 31
0.0
  0
LINE
  5
45CA
  8
0-1
  6
CONTINUOUS
 62
     3
 10
11679.034311999991
 20
6326.5902500000011
 30
0.0
 11
11679.034311999991
 21
8187.6361290000032
 31
0.0
  0
LINE
  5
45CB
  8
0-1
  6
CONTINUOUS
 62
     3
 10
11629.034642000001
 20
6326.5902500000011
 30
0.0
 11
11629.034642000001
 21
8187.6361290000032
 31
0.0
  0
LINE
  5
45CC
  8
0-1
  6
CONTINUOUS
 62
     3
 10
11609.035565
 20
6326.5902500000011
 30
0.0
 11
11609.035565
 21
8187.6361290000032
 31
0.0
  0
LINE
  5
45CD
  8
0-1
  6
CONTINUOUS
 62
     3
 10
12437.034535999999
 20
6326.5902500000011
 30
0.0
 11
12437.034535999999
 21
8187.6361290000032
 31
0.0
  0
LINE
  5
45CE
  8
0-1
  6
CONTINUOUS
 62
     3
 10
12417.03545999999
 20
6326.5902500000011
 30
0.0
 11
12417.03545999999
 21
8187.6361290000032
 31
0.0
  0
LINE
  5
45CF
  8
0-1
  6
CONTINUOUS
 62
     3
 10
12487.035196000001
 20
6326.5902500000011
 30
0.0
 11
12487.035196000001
 21
8187.6361290000032
 31
0.0
  0
LINE
  5
45D0
  8
0-1
  6
CONTINUOUS
 62
     3
 10
12367.03480000001
 20
6326.5902500000011
 30
0.0
 11
12367.03480000001
 21
8187.6361290000032
 31
0.0
  0
LINE
  5
45D1
  8
0-1
  6
CONTINUOUS
 62
     3
 10
12234.03490599999
 20
6326.5902500000011
 30
0.0
 11
12234.03490599999
 21
8187.6361290000032
 31
0.0
  0
LINE
  5
45D2
  8
0-1
  6
CONTINUOUS
 62
     3
 10
12219.03312399999
 20
6326.5902500000011
 30
0.0
 11
12219.03312399999
 21
8187.6361290000032
 31
0.0
  0
LINE
  5
45D3
  8
0-1
  6
CONTINUOUS
 62
     3
 10
12620.03508999999
 20
6326.5902500000011
 30
0.0
 11
12620.03508999999
 21
8187.6361290000032
 31
0.0
  0
LINE
  5
45D4
  8
0-1
  6
CONTINUOUS
 62
     3
 10
12635.03390300001
 20
6326.5902500000011
 30
0.0
 11
12635.03390300001
 21
8187.6361290000032
 31
0.0
  0
LINE
  5
45D5
  8
0-1
  6
CONTINUOUS
 62
     3
 10
14735.03390300001
 20
6326.5902500000011
 30
0.0
 11
14735.03390300001
 21
8187.6361290000032
 31
0.0
  0
LINE
  5
45D6
  8
0-1
  6
CONTINUOUS
 62
     3
 10
14720.03509000001
 20
6326.5902500000011
 30
0.0
 11
14720.03509000001
 21
8187.6361290000032
 31
0.0
  0
LINE
  5
45D7
  8
0-1
  6
CONTINUOUS
 62
     3
 10
14319.03411399998
 20
6326.5902500000011
 30
0.0
 11
14319.03411399998
 21
8187.6361290000032
 31
0.0
  0
LINE
  5
45D8
  8
0-1
  6
CONTINUOUS
 62
     3
 10
14334.033916
 20
6326.5902500000011
 30
0.0
 11
14334.033916
 21
8187.6361290000032
 31
0.0
  0
LINE
  5
45D9
  8
0-1
  6
CONTINUOUS
 62
     3
 10
14467.03480000001
 20
6326.5902500000011
 30
0.0
 11
14467.03480000001
 21
8187.6361290000032
 31
0.0
  0
LINE
  5
45DA
  8
0-1
  6
CONTINUOUS
 62
     3
 10
14587.034206
 20
6326.5902500000011
 30
0.0
 11
14587.034206
 21
8187.6361290000032
 31
0.0
  0
LINE
  5
45DB
  8
0-1
  6
CONTINUOUS
 62
     3
 10
14517.035459999999
 20
6326.5902500000011
 30
0.0
 11
14517.035459999999
 21
8187.6361290000032
 31
0.0
  0
LINE
  5
45DC
  8
0-1
  6
CONTINUOUS
 62
     3
 10
14537.034535999999
 20
6326.5902500000011
 30
0.0
 11
14537.034535999999
 21
8187.6361290000032
 31
0.0
  0
LINE
  5
45DD
  8
0-1
  6
CONTINUOUS
 62
     3
 10
13837.035196000001
 20
6326.5902500000011
 30
0.0
 11
13837.035196000001
 21
8187.6361290000032
 31
0.0
  0
LINE
  5
45DE
  8
0-1
  6
CONTINUOUS
 62
     3
 10
13817.034140000011
 20
6326.5902500000011
 30
0.0
 11
13817.034140000011
 21
8187.6361290000032
 31
0.0
  0
LINE
  5
45DF
  8
0-1
  6
CONTINUOUS
 62
     3
 10
13887.03387600001
 20
6326.5902500000011
 30
0.0
 11
13887.03387600001
 21
8187.6361290000032
 31
0.0
  0
LINE
  5
45E0
  8
0-1
  6
CONTINUOUS
 62
     3
 10
13767.03545999999
 20
6326.5902500000011
 30
0.0
 11
13767.03545999999
 21
8187.6361290000032
 31
0.0
  0
LINE
  5
45E1
  8
0-1
  6
CONTINUOUS
 62
     3
 10
13634.034575999989
 20
6326.5902500000011
 30
0.0
 11
13634.034575999989
 21
8187.6361290000032
 31
0.0
  0
LINE
  5
45E2
  8
0-1
  6
CONTINUOUS
 62
     3
 10
13619.034773999991
 20
6326.5902500000011
 30
0.0
 11
13619.034773999991
 21
8187.6361290000032
 31
0.0
  0
LINE
  5
45E3
  8
0-1
  6
CONTINUOUS
 62
     3
 10
14020.032781000011
 20
6326.5902500000011
 30
0.0
 11
14020.032781000011
 21
8187.6361290000032
 31
0.0
  0
LINE
  5
45E4
  8
0-1
  6
CONTINUOUS
 62
     3
 10
14035.03456200001
 20
6326.5902500000011
 30
0.0
 11
14035.03456200001
 21
8187.6361290000032
 31
0.0
  0
LINE
  5
45E5
  8
0-1
  6
CONTINUOUS
 62
     3
 10
13335.035222
 20
6326.5902500000011
 30
0.0
 11
13335.035222
 21
8187.6361290000032
 31
0.0
  0
LINE
  5
45E6
  8
0-1
  6
CONTINUOUS
 62
     3
 10
13320.033441
 20
6326.5902500000011
 30
0.0
 11
13320.033441
 21
8187.6361290000032
 31
0.0
  0
LINE
  5
45E7
  8
0-1
  6
CONTINUOUS
 62
     3
 10
12919.03543299999
 20
6326.5902500000011
 30
0.0
 11
12919.03543299999
 21
8187.6361290000032
 31
0.0
  0
LINE
  5
45E8
  8
0-1
  6
CONTINUOUS
 62
     3
 10
12934.03424599999
 20
6326.5902500000011
 30
0.0
 11
12934.03424599999
 21
8187.6361290000032
 31
0.0
  0
LINE
  5
45E9
  8
0-1
  6
CONTINUOUS
 62
     3
 10
13067.03315000001
 20
6326.5902500000011
 30
0.0
 11
13067.03315000001
 21
8187.6361290000032
 31
0.0
  0
LINE
  5
45EA
  8
0-1
  6
CONTINUOUS
 62
     3
 10
13187.03453599999
 20
6326.5902500000011
 30
0.0
 11
13187.03453599999
 21
8187.6361290000032
 31
0.0
  0
LINE
  5
45EB
  8
0-1
  6
CONTINUOUS
 62
     3
 10
13117.03479999999
 20
6326.5902500000011
 30
0.0
 11
13117.03479999999
 21
8187.6361290000032
 31
0.0
  0
LINE
  5
45EC
  8
0-1
  6
CONTINUOUS
 62
     3
 10
13137.03387600001
 20
6326.5902500000011
 30
0.0
 11
13137.03387600001
 21
8187.6361290000032
 31
0.0
  0
LINE
  5
45ED
  8
0-1
  6
CONTINUOUS
 62
     3
 10
12795.53524899999
 20
8187.6361290000032
 30
0.0
 11
12795.53524899999
 21
6326.5902500000011
 31
0.0
  0
LINE
  5
45EE
  8
0-1
  6
CONTINUOUS
 62
     3
 10
12758.534087
 20
8187.6361290000032
 30
0.0
 11
12758.534087
 21
6326.5902500000011
 31
0.0
  0
LINE
  5
45EF
  8
0-1
  6
CONTINUOUS
 62
     3
 10
14195.532939000001
 20
8187.6361290000032
 30
0.0
 11
14195.532939000001
 21
6326.5902500000011
 31
0.0
  0
LINE
  5
45F0
  8
0-1
  6
CONTINUOUS
 62
     3
 10
14158.533756999999
 20
8187.6361290000032
 30
0.0
 11
14158.533756999999
 21
6326.5902500000011
 31
0.0
  0
LINE
  5
45F1
  8
0-1
  6
CONTINUOUS
 62
     3
 10
13495.53458899999
 20
8187.6361290000032
 30
0.0
 11
13495.53458899999
 21
6326.5902500000011
 31
0.0
  0
LINE
  5
45F2
  8
0-1
  6
CONTINUOUS
 62
     3
 10
13458.534417000001
 20
8187.6361290000032
 30
0.0
 11
13458.534417000001
 21
6326.5902500000011
 31
0.0
  0
LINE
  5
45F3
  8
0-1
  6
CONTINUOUS
 62
     3
 10
14895.53524899998
 20
8187.6361290000032
 30
0.0
 11
14895.53524899998
 21
6326.5902500000011
 31
0.0
  0
LINE
  5
45F4
  8
0-1
  6
CONTINUOUS
 62
     3
 10
14858.534087
 20
8187.6361290000032
 30
0.0
 11
14858.534087
 21
6326.5902500000011
 31
0.0
  0
LINE
  5
45F5
  8
0-1
  6
CONTINUOUS
 62
     3
 10
15346.534061
 20
6276.5900850000025
 30
0.0
 11
15346.534061
 21
6176.5902500000002
 31
0.0
  0
LINE
  5
45F6
  8
0-1
  6
CONTINUOUS
 62
     3
 10
15314.033269999991
 20
8490.9191600000013
 30
0.0
 11
15314.033269999991
 21
6276.5900850000025
 31
0.0
  0
LINE
  5
45F7
  8
0-1
  6
CONTINUOUS
 62
     3
 10
15334.034061
 20
8491.5001490000031
 30
0.0
 11
15334.034061
 21
6276.5900850000025
 31
0.0
  0
LINE
  5
45F8
  8
0-1
  6
CONTINUOUS
 62
     3
 10
15219.03419299999
 20
8187.6361290000032
 30
0.0
 11
15219.03419299999
 21
6276.5900850000025
 31
0.0
  0
LINE
  5
45F9
  8
0-1
  6
CONTINUOUS
 62
     3
 10
12023.034061
 20
8392.3915919999999
 30
0.0
 11
12023.034061
 21
8187.6361290000032
 31
0.0
  0
LINE
  5
45FA
  8
0-1
  6
CONTINUOUS
 62
     3
 10
11950.534193
 20
8187.6361290000032
 30
0.0
 11
11950.534193
 21
6276.5900850000025
 31
0.0
  0
LINE
  5
45FB
  8
0-1
  6
CONTINUOUS
 62
     3
 10
12095.53293899999
 20
8187.6361290000032
 30
0.0
 11
12095.53293899999
 21
6276.5900850000025
 31
0.0
  0
LINE
  5
45FC
  8
0-1
  6
CONTINUOUS
 62
     3
 10
12095.53293899999
 20
6326.5902500000011
 30
0.0
 11
15219.03419299999
 21
6326.5902500000011
 31
0.0
  0
LINE
  5
45FD
  8
0-1
  6
CONTINUOUS
 62
     3
 10
9055.0340609999967
 20
6176.5902500000002
 30
0.0
 11
9055.0340609999967
 21
6276.5900850000025
 31
0.0
  0
LINE
  5
45FE
  8
0-1
  6
CONTINUOUS
 62
     3
 10
9082.5338630000006
 20
8304.3925880000043
 30
0.0
 11
9082.5338630000006
 21
6276.5900850000025
 31
0.0
  0
LINE
  5
45FF
  8
0-1
  6
CONTINUOUS
 62
     3
 10
9062.5340609999967
 20
8303.7758606838124
 30
0.0
 11
9062.5340609999967
 21
6276.5900850000025
 31
0.0
  0
LINE
  5
4600
  8
0-1
  6
CONTINUOUS
 62
     3
 10
9177.5329400000046
 20
8187.6361290000032
 30
0.0
 11
9177.5329400000046
 21
6276.5900850000025
 31
0.0
  0
LINE
  5
4601
  8
0-1
  6
CONTINUOUS
 62
     3
 10
9055.0340609999967
 20
6276.5900850000025
 30
0.0
 11
15346.534061
 21
6276.5900850000025
 31
0.0
  0
LINE
  5
4602
  8
0-1
  6
CONTINUOUS
 62
     3
 10
9177.5329400000046
 20
6326.5902500000011
 30
0.0
 11
11950.534193
 21
6326.5902500000011
 31
0.0
  0
LINE
  5
4603
  8
0-1
  6
CONTINUOUS
 62
     3
 10
8372.5330059999978
 20
6176.5902500000011
 30
0.0
 11
15346.534061
 21
6176.5902500000002
 31
0.0
  0
LINE
  5
4604
  8
0-1
  6
CONTINUOUS
 62
     3
 10
9082.5338630000006
 20
8187.6361290000032
 30
0.0
 11
15314.033269999991
 21
8187.6361290000032
 31
0.0
  0
LINE
  5
4605
  8
0-1
  6
CONTINUOUS
 62
     3
 10
8888.2322370000002
 20
8338.5754100000013
 30
0.0
 11
15419.723725999989
 21
8534.0914710000015
 31
0.0
  0
LINE
  5
4606
  8
0-1
  6
CONTINUOUS
 62
     3
 10
15418.223250999999
 20
8584.0703560000038
 30
0.0
 11
8886.7327519999981
 21
8388.553305999998
 31
0.0
  0
LINE
  5
4607
  8
0-1
  6
CONTINUOUS
 62
     3
 10
8883.642724000003
 20
8391.4622080000008
 30
0.0
 11
8882.6826569999976
 21
8423.4477640000005
 31
0.0
  0
LINE
  5
4608
  8
0-1
  6
CONTINUOUS
 62
     3
 10
8887.5314879999987
 20
8428.5950069999999
 30
0.0
 11
15437.992703
 21
8624.682159
 31
0.0
  0
LINE
  5
4609
  8
0-1
  6
CONTINUOUS
 62
     3
 10
15441.897303
 20
8494.7406210000008
 30
0.0
 11
8891.4321290000007
 21
8298.6539639999974
 31
0.0
  0
LINE
  5
460A
  8
0-1
  6
CONTINUOUS
 62
     3
 10
8886.2843910000029
 20
8303.5013100000033
 30
0.0
 11
8885.3253140000033
 21
8335.4873609999977
 31
0.0
  0
LINE
  5
460B
  8
0-1
  6
CONTINUOUS
 62
     3
 10
8884.9937449999998
 20
8346.4821019999981
 30
0.0
 11
8883.9733030000007
 21
8380.4664770000054
 31
0.0
  0
LINE
  5
460C
  8
0-1
  6
CONTINUOUS
 62
     3
 10
8886.882206000002
 20
8383.5555159999967
 30
0.0
 11
15418.374683999989
 21
8579.0730610000028
 31
0.0
  0
LINE
  5
460D
  8
0-1
  6
CONTINUOUS
 62
     3
 10
15419.574272
 20
8539.0897550000045
 30
0.0
 11
8888.0837740000006
 21
8343.5736950000028
 31
0.0
  0
LINE
  5
460E
  8
0-1
  6
CONTINUOUS
 62
     3
 10
12023.034061
 20
8392.3915919999999
 30
0.0
 11
12019.13143999999
 21
8522.3331300000027
 31
0.0
  0
LINE
  5
460F
  8
0-1
  6
CONTINUOUS
 62
     3
 10
15408.930401
 20
8493.7498720000003
 30
0.0
 11
15405.02876999999
 21
8623.6914100000049
 31
0.0
  0
LINE
  5
4610
  8
0-1
  6
CONTINUOUS
 62
     3
 10
8900.0242299999973
 20
8428.9701260000002
 30
0.0
 11
8903.9268509999984
 21
8299.0290830000049
 31
0.0
  0
LINE
  5
4611
  8
0-5
  6
CONTINUOUS
 62
     4
 10
17051.61904899999
 20
6276.5900850000025
 30
0.0
 11
17171.619444999989
 21
6484.4370620000009
 31
0.0
  0
LINE
  5
4612
  8
0-5
  6
CONTINUOUS
 62
     4
 10
16931.620631999991
 20
6484.4370620000009
 30
0.0
 11
17051.61904899999
 21
6276.5900850000025
 31
0.0
  0
LINE
  5
4613
  8
0-5
  6
CONTINUOUS
 62
     4
 10
17171.619444999989
 20
6484.4370620000009
 30
0.0
 11
16931.620631999991
 21
6484.4370620000009
 31
0.0
  0
LINE
  5
4614
  8
0-5
  6
CONTINUOUS
 62
     4
 10
15426.53135600001
 20
6276.5900850000025
 30
0.0
 11
17143.99724199999
 21
6276.5900850000025
 31
0.0
  0
LINE
  5
4615
  8
0-5
  6
CONTINUOUS
 62
     4
 10
15291.534061
 20
4496.5906459999997
 30
0.0
 11
15291.534061
 21
4336.5911079999987
 31
0.0
  0
LINE
  5
4616
  8
0-5
  6
CONTINUOUS
 62
     4
 10
12023.034061
 20
4496.5906459999997
 30
0.0
 11
12023.034061
 21
4336.5911079999987
 31
0.0
  0
LINE
  5
4617
  8
0-5
  6
CONTINUOUS
 62
     4
 10
9105.0340609999967
 20
4496.5906459999997
 30
0.0
 11
9105.0340609999967
 21
4336.5911079999987
 31
0.0
  0
LINE
  5
4618
  8
2-0
  6
CENTER2
 62
     6
 10
15291.534061
 20
5913.9378270000043
 30
0.0
 11
15291.534061
 21
6971.0804250000019
 31
0.0
  0
LINE
  5
4619
  8
2-0
  6
CENTER2
 62
     6
 10
12023.034061
 20
5913.9378270000043
 30
0.0
 11
12023.034061
 21
6971.0804250000019
 31
0.0
  0
LINE
  5
461A
  8
2-0
  6
CENTER2
 62
     6
 10
9105.0340609999967
 20
5913.9378270000043
 30
0.0
 11
9105.0340609999967
 21
6971.0804250000019
 31
0.0
  0
ARC
  5
461B
  8
0-1
  6
CONTINUOUS
 62
     3
 10
15418.973487999991
 20
8559.0819030000021
 30
0.0
 40
24.999998999999999
 50
271.71998600002598
 51
91.719986000025997
  0
ARC
  5
461C
  8
0-1
  6
CONTINUOUS
 62
     3
 10
8886.6426839999986
 20
8391.552276000004
 30
0.0
 40
3.0
 50
181.7199859999738
 51
271.71998600002598
  0
ARC
  5
461D
  8
0-1
  6
CONTINUOUS
 62
     3
 10
8887.6799519999968
 20
8423.5972180000026
 30
0.0
 40
5.0
 50
91.719986000025997
 51
181.7199859999738
  0
ARC
  5
461E
  8
0-1
  6
CONTINUOUS
 62
     3
 10
15413.976193999981
 20
8558.9314600000016
 30
0.0
 40
69.999999000000003
 50
293.50677499977832
 51
69.933196999913747
  0
ARC
  5
461F
  8
0-1
  6
CONTINUOUS
 62
     3
 10
8891.2836650000027
 20
8303.6517540000023
 30
0.0
 40
5.0
 50
181.7199859999738
 51
271.71998600002598
  0
ARC
  5
4620
  8
0-1
  6
CONTINUOUS
 62
     3
 10
8888.3223060000018
 20
8335.5769340000006
 30
0.0
 40
3.0
 50
91.719986000025997
 51
181.7199859999738
  0
ARC
  5
4621
  8
0-1
  6
CONTINUOUS
 62
     3
 10
8888.3064689999974
 20
8386.0996919999998
 30
0.0
 40
2.5
 50
271.71998600002598
 51
91.719986000025997
  0
ARC
  5
4622
  8
0-1
  6
CONTINUOUS
 62
     3
 10
8889.6565009999977
 20
8341.1195860000007
 30
0.0
 40
2.5
 50
271.71998600002598
 51
91.719986000025997
  0
ARC
  5
4623
  8
0-1
  6
CONTINUOUS
 62
     3
 10
8886.9722739999997
 20
8380.5570399999979
 30
0.0
 40
3.0
 50
91.719986000025997
 51
181.7199859999738
  0
ARC
  5
4624
  8
0-1
  6
CONTINUOUS
 62
     3
 10
15418.973487999991
 20
8559.0819030000021
 30
0.0
 40
20.0
 50
271.71998600002598
 51
91.719986000025997
  0
ARC
  5
4625
  8
0-1
  6
CONTINUOUS
 62
     3
 10
8887.992715999997
 20
8346.5716750000029
 30
0.0
 40
3.0
 50
181.7199859999738
 51
271.71998600002598
  0
CIRCLE
  5
4626
  8
0-5
  6
CONTINUOUS
 62
     4
 10
12023.034061
 20
4136.5899530000006
 30
0.0
 40
199.9999949999999
  0
CIRCLE
  5
4627
  8
0-5
  6
CONTINUOUS
 62
     4
 10
15291.534061
 20
4136.5899530000006
 30
0.0
 40
199.9999949999999
  0
CIRCLE
  5
4628
  8
0-5
  6
CONTINUOUS
 62
     4
 10
9105.0340609999967
 20
4136.5899530000006
 30
0.0
 40
199.9999949999999
  0
TEXT
  5
4629
  8
0-5
  6
CONTINUOUS
 62
     7
 10
16592.527119999992
 20
6564.4363360000034
 30
0.0
 40
160.0
  1
布基礎天端
 72
     4
 11
17051.193786666659
 21
6644.4363360000016
 31
0.0
  0
TEXT
  5
462A
  8
0-5
  6
CONTINUOUS
 62
     7
 10
15244.577901000001
 20
4053.3791570000012
 30
0.0
 40
160.0
  1
A
 72
     4
 11
15297.911234333331
 21
4133.3791570000012
 31
0.0
  0
TEXT
  5
462B
  8
0-5
  6
CONTINUOUS
 62
     7
 10
11976.07790099999
 20
4053.3791570000012
 30
0.0
 40
160.0
  1
B
 72
     4
 11
12029.411234333331
 21
4133.3791570000012
 31
0.0
  0
TEXT
  5
462C
  8
0-5
  6
CONTINUOUS
 62
     7
 10
9058.0779010000024
 20
4053.3791570000012
 30
0.0
 40
160.0
  1
C
 72
     4
 11
9111.4112343333363
 21
4133.3791570000012
 31
0.0
  0
TEXT
  5
462D
  8
2-0
  6
CONTINUOUS
 62
     7
 10
10705.000317
 20
3299.4686180000022
 30
0.0
 40
160.0
  1
側 面 立 面 図
 50
0.000139
 72
     4
 11
11350.333456250821
 21
3379.4701835833762
 31
0.0
  0
TEXT
  5
462E
  8
2-0
  6
CONTINUOUS
 62
     7
 10
12701.825641388439
 20
3326.6655525833762
 30
0.0
 40
160.0
  1
1
 72
     4
 11
12728.492308055111
 21
3406.6655525833762
 31
0.0
  0
TEXT
  5
462F
  8
2-0
  6
CONTINUOUS
 62
     7
 10
12944.91435863914
 20
3246.6670205833748
 30
0.0
 40
160.0
  1
80
 72
     4
 11
13064.91435863914
 21
3326.6670205833748
 31
0.0
  0
TEXT
  5
4630
  8
2-0
  6
CONTINUOUS
 62
     7
 10
12202.827607388441
 20
3299.4701835833762
 30
0.0
 40
160.0
  1
(S=  /   )
 72
     4
 11
12762.827607388441
 21
3379.4701835833762
 31
0.0
  0
LINE
  5
4631
  8
0-1
  6
CONTINUOUS
 62
     3
 10
15019.03642399998
 20
6326.5902500000011
 30
0.0
 11
15019.03642399998
 21
8187.6361290000032
 31
0.0
  0
LINE
  5
4632
  8
0-1
  6
CONTINUOUS
 62
     3
 10
15034.036225999989
 20
6326.5902500000011
 30
0.0
 11
15034.036225999989
 21
8187.6361290000032
 31
0.0
  0
LINE
  5
463D
  8
0-1
  6
CONTINUOUS
 62
     3
 10
25730.322053999989
 20
6276.5900849999962
 30
0.0
 11
25630.32271299999
 21
6276.5900849999962
 31
0.0
  0
LINE
  5
463E
  8
0-1
  6
CONTINUOUS
 62
     3
 10
25630.32271299999
 20
6276.5900849999962
 30
0.0
 11
25630.32271299999
 21
6176.5902500000002
 31
0.0
  0
LINE
  5
463F
  8
0-1
  6
CONTINUOUS
 62
     3
 10
25730.322053999989
 20
6176.5902500000002
 30
0.0
 11
25730.322053999989
 21
6276.5900849999962
 31
0.0
  0
LINE
  5
4640
  8
0-1
  6
CONTINUOUS
 62
     3
 10
25702.822580999979
 20
8625.0904339999979
 30
0.0
 11
25702.822580999979
 21
6276.5900849999962
 31
0.0
  0
LINE
  5
4641
  8
0-1
  6
CONTINUOUS
 62
     3
 10
25722.82165799999
 20
8495.0895109999983
 30
0.0
 11
25722.82165799999
 21
6276.5900849999962
 31
0.0
  0
LINE
  5
4642
  8
0-1
  6
CONTINUOUS
 62
     3
 10
25592.822712999961
 20
8184.5901439999952
 30
0.0
 11
25592.822712999961
 21
6176.5902500000002
 31
0.0
  0
LINE
  5
4643
  8
0-1
  6
CONTINUOUS
 62
     3
 10
25637.82310899999
 20
8495.0895109999983
 30
0.0
 11
25637.82310899999
 21
6276.5900849999962
 31
0.0
  0
LINE
  5
464C
  8
0-1
  6
CONTINUOUS
 62
     3
 10
22804.819678000011
 20
8495.0895109999983
 30
0.0
 11
22804.819678000011
 21
6176.5902500000002
 31
0.0
  0
LINE
  5
464D
  8
0-1
  6
CONTINUOUS
 62
     3
 10
22849.820074000021
 20
8184.5901439999952
 30
0.0
 11
22849.820074000021
 21
6176.5902500000002
 31
0.0
  0
LINE
  5
4650
  8
0-1
  6
CONTINUOUS
 62
     3
 10
22849.820074000021
 20
8116.049807999997
 30
0.0
 11
25592.822712999961
 21
8116.049807999997
 31
0.0
  0
LINE
  5
4651
  8
0-1
  6
CONTINUOUS
 62
     3
 10
22849.820074000021
 20
6761.5909429999983
 30
0.0
 11
25592.822712999961
 21
6761.5909429999983
 31
0.0
  0
LINE
  5
4652
  8
0-1
  6
CONTINUOUS
 62
     3
 10
22849.820074000021
 20
6826.5899200000003
 30
0.0
 11
25592.822712999961
 21
6826.5899200000003
 31
0.0
  0
LINE
  5
4653
  8
0-1
  6
CONTINUOUS
 62
     3
 10
22849.820074000021
 20
6891.5903819999958
 30
0.0
 11
25592.822712999961
 21
6891.5903819999958
 31
0.0
  0
LINE
  5
4654
  8
0-1
  6
CONTINUOUS
 62
     3
 10
22849.820074000021
 20
6956.5903489999973
 30
0.0
 11
25592.822712999961
 21
6956.5903489999973
 31
0.0
  0
LINE
  5
4655
  8
0-1
  6
CONTINUOUS
 62
     3
 10
22849.820074000021
 20
7021.590315999998
 30
0.0
 11
25592.822712999961
 21
7021.590315999998
 31
0.0
  0
LINE
  5
4656
  8
0-1
  6
CONTINUOUS
 62
     3
 10
22849.820074000021
 20
7086.5902829999959
 30
0.0
 11
25592.822712999961
 21
7086.5902829999959
 31
0.0
  0
LINE
  5
4657
  8
0-1
  6
CONTINUOUS
 62
     3
 10
22849.820074000021
 20
7151.5907450000004
 30
0.0
 11
25592.822712999961
 21
7151.5907450000004
 31
0.0
  0
LINE
  5
4658
  8
0-1
  6
CONTINUOUS
 62
     3
 10
22849.820074000021
 20
7216.5897219999979
 30
0.0
 11
25592.822712999961
 21
7216.5897219999979
 31
0.0
  0
LINE
  5
4659
  8
0-1
  6
CONTINUOUS
 62
     3
 10
22849.820074000021
 20
7281.5901839999979
 30
0.0
 11
25592.822712999961
 21
7281.5901839999979
 31
0.0
  0
LINE
  5
465A
  8
0-1
  6
CONTINUOUS
 62
     3
 10
22849.820074000021
 20
7346.5901509999949
 30
0.0
 11
25592.822712999961
 21
7346.5901509999949
 31
0.0
  0
LINE
  5
465B
  8
0-1
  6
CONTINUOUS
 62
     3
 10
22849.820074000021
 20
7411.5906129999948
 30
0.0
 11
25592.822712999961
 21
7411.5906129999948
 31
0.0
  0
LINE
  5
465C
  8
0-1
  6
CONTINUOUS
 62
     3
 10
22849.820074000021
 20
7476.5895899999969
 30
0.0
 11
25592.822712999961
 21
7476.5895899999969
 31
0.0
  0
LINE
  5
465D
  8
0-1
  6
CONTINUOUS
 62
     3
 10
22849.820074000021
 20
7541.5900519999977
 30
0.0
 11
25592.822712999961
 21
7541.5900519999977
 31
0.0
  0
LINE
  5
465E
  8
0-1
  6
CONTINUOUS
 62
     3
 10
22849.820074000021
 20
7606.5900189999984
 30
0.0
 11
25592.822712999961
 21
7606.5900189999984
 31
0.0
  0
LINE
  5
465F
  8
0-1
  6
CONTINUOUS
 62
     3
 10
22849.820074000021
 20
7671.589985999999
 30
0.0
 11
25592.822712999961
 21
7671.589985999999
 31
0.0
  0
LINE
  5
4660
  8
0-1
  6
CONTINUOUS
 62
     3
 10
22849.820074000021
 20
7736.5904480000008
 30
0.0
 11
25592.822712999961
 21
7736.5904480000008
 31
0.0
  0
LINE
  5
4661
  8
0-1
  6
CONTINUOUS
 62
     3
 10
22849.820074000021
 20
7801.5904149999978
 30
0.0
 11
25592.822712999961
 21
7801.5904149999978
 31
0.0
  0
LINE
  5
4662
  8
0-1
  6
CONTINUOUS
 62
     3
 10
22849.820074000021
 20
7866.5908769999969
 30
0.0
 11
25592.822712999961
 21
7866.5908769999969
 31
0.0
  0
LINE
  5
4663
  8
0-1
  6
CONTINUOUS
 62
     3
 10
22849.820074000021
 20
7931.5898539999944
 30
0.0
 11
25592.822712999961
 21
7931.5898539999944
 31
0.0
  0
LINE
  5
4664
  8
0-1
  6
CONTINUOUS
 62
     3
 10
22849.820074000021
 20
7996.5903159999989
 30
0.0
 11
25592.822712999961
 21
7996.5903159999989
 31
0.0
  0
LINE
  5
4665
  8
0-1
  6
CONTINUOUS
 62
     3
 10
22849.820074000021
 20
8061.5902829999986
 30
0.0
 11
25592.822712999961
 21
8061.5902829999986
 31
0.0
  0
LINE
  5
4666
  8
0-1
  6
CONTINUOUS
 62
     3
 10
22849.820074000021
 20
6241.5897219999961
 30
0.0
 11
25592.822712999961
 21
6241.5897219999961
 31
0.0
  0
LINE
  5
4667
  8
0-1
  6
CONTINUOUS
 62
     3
 10
22849.820074000021
 20
6306.5906789999972
 30
0.0
 11
25592.822712999961
 21
6306.5906789999972
 31
0.0
  0
LINE
  5
4668
  8
0-1
  6
CONTINUOUS
 62
     3
 10
22849.820074000021
 20
6371.5896559999974
 30
0.0
 11
25592.822712999961
 21
6371.5896559999974
 31
0.0
  0
LINE
  5
4669
  8
0-1
  6
CONTINUOUS
 62
     3
 10
22849.820074000021
 20
6436.5906129999967
 30
0.0
 11
25592.822712999961
 21
6436.5906129999967
 31
0.0
  0
LINE
  5
466A
  8
0-1
  6
CONTINUOUS
 62
     3
 10
22849.820074000021
 20
6501.590084999998
 30
0.0
 11
25592.822712999961
 21
6501.590084999998
 31
0.0
  0
LINE
  5
466B
  8
0-1
  6
CONTINUOUS
 62
     3
 10
22849.820074000021
 20
6566.5900519999977
 30
0.0
 11
25592.822712999961
 21
6566.5900519999977
 31
0.0
  0
LINE
  5
466C
  8
0-1
  6
CONTINUOUS
 62
     3
 10
22849.820074000021
 20
6631.5900189999984
 30
0.0
 11
25592.822712999961
 21
6631.5900189999984
 31
0.0
  0
LINE
  5
466D
  8
0-1
  6
CONTINUOUS
 62
     3
 10
22849.820074000021
 20
6696.589490999997
 30
0.0
 11
25592.822712999961
 21
6696.589490999997
 31
0.0
  0
LINE
  5
466F
  8
0-1
  6
CONTINUOUS
 62
     3
 10
22804.819678000011
 20
8184.5901439999952
 30
0.0
 11
25637.82310899999
 21
8184.5901439999952
 31
0.0
  0
LINE
  5
4670
  8
0-1
  6
CONTINUOUS
 62
     3
 10
19794.320735000001
 20
6176.5902500000002
 30
0.0
 11
25730.322053999989
 21
6176.5902500000002
 31
0.0
  0
LINE
  5
467A
  8
0-1
  6
CONTINUOUS
 62
     3
 10
22719.821129999989
 20
8495.0895109999983
 30
0.0
 11
22719.821129999989
 21
6176.5902500000002
 31
0.0
  0
LINE
  5
467B
  8
0-1
  6
CONTINUOUS
 62
     3
 10
22674.822713999962
 20
8184.5901439999952
 30
0.0
 11
22674.822713999962
 21
6176.5902500000002
 31
0.0
  0
LINE
  5
4686
  8
0-1
  6
CONTINUOUS
 62
     3
 10
19894.322053999989
 20
6276.5900849999962
 30
0.0
 11
19894.322053999989
 21
6176.5902500000002
 31
0.0
  0
LINE
  5
4687
  8
0-1
  6
CONTINUOUS
 62
     3
 10
19794.320735000001
 20
6176.5902500000002
 30
0.0
 11
19794.320735000001
 21
6276.5900849999962
 31
0.0
  0
LINE
  5
4688
  8
0-1
  6
CONTINUOUS
 62
     3
 10
19794.320735000001
 20
6276.5900849999962
 30
0.0
 11
19894.322053999989
 21
6276.5900849999962
 31
0.0
  0
LINE
  5
4689
  8
0-1
  6
CONTINUOUS
 62
     3
 10
19931.822053999989
 20
8184.5901439999952
 30
0.0
 11
19931.822053999989
 21
6176.5902500000002
 31
0.0
  0
LINE
  5
468A
  8
0-1
  6
CONTINUOUS
 62
     3
 10
19886.819679
 20
8495.0895109999983
 30
0.0
 11
19886.819679
 21
6276.5900849999962
 31
0.0
  0
LINE
  5
468B
  8
0-1
  6
CONTINUOUS
 62
     3
 10
19821.82218599999
 20
8625.0904339999979
 30
0.0
 11
19821.82218599999
 21
6276.5900849999962
 31
0.0
  0
LINE
  5
468C
  8
0-1
  6
CONTINUOUS
 62
     3
 10
19801.819151
 20
8495.0895109999983
 30
0.0
 11
19801.819151
 21
6276.5900849999962
 31
0.0
  0
LINE
  5
468D
  8
0-1
  6
CONTINUOUS
 62
     3
 10
19886.819679
 20
8184.5901439999952
 30
0.0
 11
22719.821129999989
 21
8184.5901439999952
 31
0.0
  0
LINE
  5
468F
  8
0-1
  6
CONTINUOUS
 62
     3
 10
19931.822053999989
 20
6696.589490999997
 30
0.0
 11
22674.822713999962
 21
6696.589490999997
 31
0.0
  0
LINE
  5
4690
  8
0-1
  6
CONTINUOUS
 62
     3
 10
19931.822053999989
 20
6631.5900189999984
 30
0.0
 11
22674.822713999962
 21
6631.5900189999984
 31
0.0
  0
LINE
  5
4691
  8
0-1
  6
CONTINUOUS
 62
     3
 10
19931.822053999989
 20
6566.5900519999977
 30
0.0
 11
22674.822713999962
 21
6566.5900519999977
 31
0.0
  0
LINE
  5
4692
  8
0-1
  6
CONTINUOUS
 62
     3
 10
19931.822053999989
 20
6501.590084999998
 30
0.0
 11
22674.822713999962
 21
6501.590084999998
 31
0.0
  0
LINE
  5
4693
  8
0-1
  6
CONTINUOUS
 62
     3
 10
19931.822053999989
 20
6436.5906129999967
 30
0.0
 11
22674.822713999962
 21
6436.5906129999967
 31
0.0
  0
LINE
  5
4694
  8
0-1
  6
CONTINUOUS
 62
     3
 10
19931.822053999989
 20
6371.5896559999974
 30
0.0
 11
22674.822713999962
 21
6371.5896559999974
 31
0.0
  0
LINE
  5
4695
  8
0-1
  6
CONTINUOUS
 62
     3
 10
19931.822053999989
 20
6306.5906789999972
 30
0.0
 11
22674.822713999962
 21
6306.5906789999972
 31
0.0
  0
LINE
  5
4696
  8
0-1
  6
CONTINUOUS
 62
     3
 10
19931.822053999989
 20
6241.5897219999961
 30
0.0
 11
22674.822713999962
 21
6241.5897219999961
 31
0.0
  0
LINE
  5
4697
  8
0-1
  6
CONTINUOUS
 62
     3
 10
19931.822053999989
 20
8061.5902829999986
 30
0.0
 11
22674.822713999962
 21
8061.5902829999986
 31
0.0
  0
LINE
  5
4698
  8
0-1
  6
CONTINUOUS
 62
     3
 10
19931.822053999989
 20
7996.5903159999989
 30
0.0
 11
22674.822713999962
 21
7996.5903159999989
 31
0.0
  0
LINE
  5
4699
  8
0-1
  6
CONTINUOUS
 62
     3
 10
19931.822053999989
 20
7931.5898539999944
 30
0.0
 11
22674.822713999962
 21
7931.5898539999944
 31
0.0
  0
LINE
  5
469A
  8
0-1
  6
CONTINUOUS
 62
     3
 10
19931.822053999989
 20
7866.5908769999969
 30
0.0
 11
22674.822713999962
 21
7866.5908769999969
 31
0.0
  0
LINE
  5
469B
  8
0-1
  6
CONTINUOUS
 62
     3
 10
19931.822053999989
 20
7801.5904149999978
 30
0.0
 11
22674.822713999962
 21
7801.5904149999978
 31
0.0
  0
LINE
  5
469C
  8
0-1
  6
CONTINUOUS
 62
     3
 10
19931.822053999989
 20
7736.5904480000008
 30
0.0
 11
22674.822713999962
 21
7736.5904480000008
 31
0.0
  0
LINE
  5
469D
  8
0-1
  6
CONTINUOUS
 62
     3
 10
19931.822053999989
 20
7671.589985999999
 30
0.0
 11
22674.822713999962
 21
7671.589985999999
 31
0.0
  0
LINE
  5
469E
  8
0-1
  6
CONTINUOUS
 62
     3
 10
19931.822053999989
 20
7606.5900189999984
 30
0.0
 11
22674.822713999962
 21
7606.5900189999984
 31
0.0
  0
LINE
  5
469F
  8
0-1
  6
CONTINUOUS
 62
     3
 10
19931.822053999989
 20
7541.5900519999977
 30
0.0
 11
22674.822713999962
 21
7541.5900519999977
 31
0.0
  0
LINE
  5
46A0
  8
0-1
  6
CONTINUOUS
 62
     3
 10
19931.822053999989
 20
7476.5895899999969
 30
0.0
 11
22674.822713999962
 21
7476.5895899999969
 31
0.0
  0
LINE
  5
46A1
  8
0-1
  6
CONTINUOUS
 62
     3
 10
19931.822053999989
 20
7411.5906129999948
 30
0.0
 11
22674.822713999962
 21
7411.5906129999948
 31
0.0
  0
LINE
  5
46A2
  8
0-1
  6
CONTINUOUS
 62
     3
 10
19931.822053999989
 20
7346.5901509999949
 30
0.0
 11
22674.822713999962
 21
7346.5901509999949
 31
0.0
  0
LINE
  5
46A3
  8
0-1
  6
CONTINUOUS
 62
     3
 10
19931.822053999989
 20
7281.5901839999979
 30
0.0
 11
22674.822713999962
 21
7281.5901839999979
 31
0.0
  0
LINE
  5
46A4
  8
0-1
  6
CONTINUOUS
 62
     3
 10
19931.822053999989
 20
7216.5897219999979
 30
0.0
 11
22674.822713999962
 21
7216.5897219999979
 31
0.0
  0
LINE
  5
46A5
  8
0-1
  6
CONTINUOUS
 62
     3
 10
19931.822053999989
 20
7151.5907450000004
 30
0.0
 11
22674.822713999962
 21
7151.5907450000004
 31
0.0
  0
LINE
  5
46A6
  8
0-1
  6
CONTINUOUS
 62
     3
 10
19931.822053999989
 20
7086.5902829999959
 30
0.0
 11
22674.822713999962
 21
7086.5902829999959
 31
0.0
  0
LINE
  5
46A7
  8
0-1
  6
CONTINUOUS
 62
     3
 10
19931.822053999989
 20
7021.590315999998
 30
0.0
 11
22674.822713999962
 21
7021.590315999998
 31
0.0
  0
LINE
  5
46A8
  8
0-1
  6
CONTINUOUS
 62
     3
 10
19931.822053999989
 20
6956.5903489999973
 30
0.0
 11
22674.822713999962
 21
6956.5903489999973
 31
0.0
  0
LINE
  5
46A9
  8
0-1
  6
CONTINUOUS
 62
     3
 10
19931.822053999989
 20
6891.5903819999958
 30
0.0
 11
22674.822713999962
 21
6891.5903819999958
 31
0.0
  0
LINE
  5
46AA
  8
0-1
  6
CONTINUOUS
 62
     3
 10
19931.822053999989
 20
6826.5899200000003
 30
0.0
 11
22674.822713999962
 21
6826.5899200000003
 31
0.0
  0
LINE
  5
46AB
  8
0-1
  6
CONTINUOUS
 62
     3
 10
19931.822053999989
 20
6761.5909429999983
 30
0.0
 11
22674.822713999962
 21
6761.5909429999983
 31
0.0
  0
LINE
  5
46AC
  8
0-1
  6
CONTINUOUS
 62
     3
 10
19931.822053999989
 20
8116.049807999997
 30
0.0
 11
22674.822713999962
 21
8116.049807999997
 31
0.0
  0
LINE
  5
46B2
  8
0-2
  6
CONTINUOUS
 62
     4
 10
24585.013394000001
 20
6923.8159539999951
 30
0.0
 11
24485.014053999999
 21
6923.8159539999951
 31
0.0
  0
LINE
  5
46B3
  8
0-2
  6
CONTINUOUS
 62
     4
 10
23857.627413999991
 20
6923.8159539999951
 30
0.0
 11
23957.626754999979
 21
6923.8159539999951
 31
0.0
  0
LINE
  5
46B4
  8
0-2
  6
CONTINUOUS
 62
     4
 10
21667.012404500008
 20
6923.8159539999951
 30
0.0
 11
21567.013064499999
 21
6923.8159539999951
 31
0.0
  0
LINE
  5
46B5
  8
0-2
  6
CONTINUOUS
 62
     4
 10
20939.628403499999
 20
6923.8159539999951
 30
0.0
 11
21039.625764500001
 21
6923.8159539999951
 31
0.0
  0
LINE
  5
46B6
  8
0-5
  6
CONTINUOUS
 62
     4
 10
22762.321393999991
 20
4496.5901509999949
 30
0.0
 11
22762.321393999991
 21
4336.5901179999992
 31
0.0
  0
LINE
  5
46B7
  8
0-5
  6
CONTINUOUS
 62
     4
 10
19844.321393999991
 20
4496.5901509999949
 30
0.0
 11
19844.321393999991
 21
4336.5901179999992
 31
0.0
  0
LINE
  5
46B8
  8
2-0
  6
CENTER2
 62
     6
 10
25680.321393999991
 20
5913.9378269999979
 30
0.0
 11
25680.321393999991
 21
6951.0798639999966
 31
0.0
  0
LINE
  5
46B9
  8
2-0
  6
CENTER2
 62
     6
 10
22762.321393999991
 20
5913.9378269999979
 30
0.0
 11
22762.321393999991
 21
6951.0798639999966
 31
0.0
  0
LINE
  5
46BA
  8
2-0
  6
CENTER2
 62
     6
 10
19844.321393999991
 20
5913.9378269999979
 30
0.0
 11
19844.321393999991
 21
6951.0798639999966
 31
0.0
  0
CIRCLE
  5
46CB
  8
0-5
  6
CONTINUOUS
 62
     4
 10
22762.321393999991
 20
4136.5904479999972
 30
0.0
 40
199.9999949999999
  0
CIRCLE
  5
46CC
  8
0-5
  6
CONTINUOUS
 62
     4
 10
19844.321393999991
 20
4136.5904479999972
 30
0.0
 40
199.9999949999999
  0
TEXT
  5
46CD
  8
0-5
  6
CONTINUOUS
 62
     7
 10
19226.145455000002
 20
6905.9504967419953
 30
0.0
 40
160.0
  1
(2131.5)
 50
90.0
 72
     4
 11
19146.145455000002
 21
7359.2838300753283
 31
0.0
  0
TEXT
  5
46CE
  8
0-5
  6
CONTINUOUS
 62
     7
 10
22715.392946999989
 20
4050.0604939999939
 30
0.0
 40
160.0
  1
2
 72
     4
 11
22768.726280333321
 21
4130.0604939999939
 31
0.0
  0
TEXT
  5
46CF
  8
0-5
  6
CONTINUOUS
 62
     7
 10
19797.388987999981
 20
4050.0604939999939
 30
0.0
 40
160.0
  1
1
 72
     4
 11
19824.055654666648
 21
4130.0604939999939
 31
0.0
  0
CIRCLE
  5
46D0
  8
0-4
  6
CONTINUOUS
 62
     4
 10
21303.321393999991
 20
6662.6461909999962
 30
0.0
 40
18.487504999999981
  0
CIRCLE
  5
46D1
  8
0-4
  6
CONTINUOUS
 62
     4
 10
24221.321393999991
 20
6662.6461909999962
 30
0.0
 40
18.487504999999981
  0
LINE
  5
46D2
  8
SUNPOU
  6
CONTINUOUS
 10
19561.821393999991
 20
4976.5902500000002
 30
0.0
 11
19203.866387278878
 21
4976.5902500000002
 31
0.0
  0
LINE
  5
46D3
  8
SUNPOU
  6
CONTINUOUS
 10
25962.825353
 20
4976.5902500000002
 30
0.0
 11
26320.780359721091
 21
4976.5902500000002
 31
0.0
  0
LINE
  5
46D4
  8
0-5
  6
CONTINUOUS
 62
     4
 10
25722.821393999991
 20
4496.5901509999949
 30
0.0
 11
25722.821393999991
 21
4336.5901179999992
 31
0.0
  0
CIRCLE
  5
46D5
  8
0-5
  6
CONTINUOUS
 62
     4
 10
25722.821393999991
 20
4136.5904479999972
 30
0.0
 40
199.9999949999999
  0
TEXT
  5
46D6
  8
0-5
  6
CONTINUOUS
 62
     7
 10
25675.892946999989
 20
4050.0604939999939
 30
0.0
 40
160.0
  1
3
 72
     4
 11
25729.226280333321
 21
4130.0604939999939
 31
0.0
  0
TEXT
  5
46D7
  8
2-0
  6
CONTINUOUS
 62
     7
 10
21444.287649999998
 20
3299.4686180000022
 30
0.0
 40
160.0
  1
正 面 立 面 図
 50
0.000139
 72
     4
 11
22089.620789250821
 21
3379.4701835833762
 31
0.0
  0
TEXT
  5
46D8
  8
2-0
  6
CONTINUOUS
 62
     7
 10
23441.11297438843
 20
3326.6655525833762
 30
0.0
 40
160.0
  1
1
 72
     4
 11
23467.779641055098
 21
3406.6655525833762
 31
0.0
  0
TEXT
  5
46D9
  8
2-0
  6
CONTINUOUS
 62
     7
 10
23684.201691639129
 20
3246.6670205833748
 30
0.0
 40
160.0
  1
80
 72
     4
 11
23804.201691639129
 21
3326.6670205833748
 31
0.0
  0
TEXT
  5
46DA
  8
2-0
  6
CONTINUOUS
 62
     7
 10
22942.114940388441
 20
3299.4701835833762
 30
0.0
 40
160.0
  1
(S=  /   )
 72
     4
 11
23502.114940388441
 21
3379.4701835833762
 31
0.0
  0
LINE
  5
46DB
  8
2-0
  6
CONTINUOUS
 62
     6
 10
23997.162477999991
 20
13065.229792
 30
0.0
 11
24997.155879999958
 21
13065.229792
 31
0.0
  0
LINE
  5
46DC
  8
2-0
  6
CONTINUOUS
 62
     6
 10
25465.09625699999
 20
13535.650506
 30
0.0
 11
24997.155879999958
 21
13065.229792
 31
0.0
  0
LINE
  5
46DD
  8
2-0
  6
CONTINUOUS
 62
     6
 10
24013.873573999968
 20
18094.849857000001
 30
0.0
 11
25031.84892199999
 21
18094.849857000001
 31
0.0
  0
LINE
  5
46DE
  8
2-0
  6
CONTINUOUS
 62
     6
 10
25488.274439999968
 20
18319.564805999991
 30
0.0
 11
25031.84892199999
 21
18094.849857000001
 31
0.0
  0
LINE
  5
46DF
  8
2-0
  6
CONTINUOUS
 62
     6
 10
25426.456053999991
 20
17077.75815300001
 30
0.0
 11
25121.760635999992
 21
17181.411684000021
 31
0.0
  0
LINE
  5
46E0
  8
2-0
  6
CONTINUOUS
 62
     6
 10
25581.478092999962
 20
16588.136109000021
 30
0.0
 11
25121.760635999992
 21
16344.222798000001
 31
0.0
  0
LINE
  5
46E1
  8
2-0
  6
CONTINUOUS
 62
     6
 10
24201.75760099999
 20
16344.222798000001
 30
0.0
 11
25121.760635999992
 21
16344.222798000001
 31
0.0
  0
LINE
  5
46E2
  8
2-0
  6
CONTINUOUS
 62
     6
 10
23921.766573999979
 20
17181.411684000021
 30
0.0
 11
25121.760635999992
 21
17181.411684000021
 31
0.0
  0
LINE
  5
46E3
  8
2-0
  6
CONTINUOUS
 62
     6
 10
25497.655377999989
 20
13857.334151999979
 30
0.0
 11
25121.760635999992
 21
14038.277986999999
 31
0.0
  0
LINE
  5
46E4
  8
2-0
  6
CONTINUOUS
 62
     6
 10
24013.873573999968
 20
15177.087399
 30
0.0
 11
25031.84892199999
 21
15177.087399
 31
0.0
  0
LINE
  5
46E5
  8
2-0
  6
CONTINUOUS
 62
     6
 10
24601.758919999989
 20
14038.277986999999
 30
0.0
 11
25121.760635999992
 21
14038.277986999999
 31
0.0
  0
LINE
  5
46E6
  8
2-0
  6
CONTINUOUS
 62
     6
 10
25488.274439999968
 20
15401.800369000021
 30
0.0
 11
25031.84892199999
 21
15177.087399
 31
0.0
  0
LINE
  5
46E7
  8
2-0
  6
CONTINUOUS
 62
     4
 10
22762.321393999991
 20
20014.231442000018
 30
0.0
 11
22762.321393999991
 21
20744.228406999999
 31
0.0
  0
LINE
  5
46E8
  8
2-0
  6
CONTINUOUS
 62
     3
 10
25692.822053999971
 20
19825.228987999999
 30
0.0
 11
25692.822053999971
 21
19819.23302600002
 31
0.0
  0
LINE
  5
46E9
  8
2-0
  6
CONTINUOUS
 62
     3
 10
25692.822053999971
 20
19819.23302600002
 30
0.0
 11
25722.819677999989
 21
19819.23302600002
 31
0.0
  0
LINE
  5
46EA
  8
2-0
  6
CONTINUOUS
 62
     3
 10
25722.819677999989
 20
19849.23263000001
 30
0.0
 11
25641.817777999971
 21
19849.23263000001
 31
0.0
  0
LINE
  5
46EB
  8
2-0
  6
CONTINUOUS
 62
     3
 10
25692.822053999971
 20
19808.935570000001
 30
0.0
 11
25722.819677999989
 21
19808.935570000001
 31
0.0
  0
LINE
  5
46EC
  8
2-0
  6
CONTINUOUS
 62
     3
 10
25692.822053999971
 20
19826.93731200002
 30
0.0
 11
25692.822053999971
 21
19808.935570000001
 31
0.0
  0
LINE
  5
46ED
  8
2-0
  6
CONTINUOUS
 62
     3
 10
25717.819414000001
 20
19826.93731200002
 30
0.0
 11
25692.822053999971
 21
19826.93731200002
 31
0.0
  0
LINE
  5
46EE
  8
2-0
  6
CONTINUOUS
 62
     3
 10
25717.819414000001
 20
19821.929130000019
 30
0.0
 11
25717.819414000001
 21
19826.93731200002
 31
0.0
  0
LINE
  5
46EF
  8
2-0
  6
CONTINUOUS
 62
     3
 10
25710.817856999998
 20
19821.929130000019
 30
0.0
 11
25717.819414000001
 21
19821.929130000019
 31
0.0
  0
LINE
  5
46F0
  8
2-0
  6
CONTINUOUS
 62
     3
 10
25610.521588999989
 20
19922.229357000011
 30
0.0
 11
25610.521588999989
 21
19929.234873000001
 31
0.0
  0
LINE
  5
46F1
  8
2-0
  6
CONTINUOUS
 62
     3
 10
25610.521588999989
 20
19929.234873000001
 30
0.0
 11
25615.52185299998
 21
19929.234873000001
 31
0.0
  0
LINE
  5
46F2
  8
2-0
  6
CONTINUOUS
 62
     3
 10
25615.52185299998
 20
19929.234873000001
 30
0.0
 11
25615.52185299998
 21
19904.22563600001
 31
0.0
  0
LINE
  5
46F3
  8
2-0
  6
CONTINUOUS
 62
     3
 10
25615.52185299998
 20
19904.22563600001
 30
0.0
 11
25597.52011099998
 21
19904.22563600001
 31
0.0
  0
LINE
  5
46F4
  8
2-0
  6
CONTINUOUS
 62
     3
 10
25597.52011099998
 20
19904.22563600001
 30
0.0
 11
25597.52011099998
 21
19934.229199000009
 31
0.0
  0
LINE
  5
46F5
  8
2-0
  6
CONTINUOUS
 62
     3
 10
25607.817566999991
 20
19934.229199000009
 30
0.0
 11
25722.819677999989
 21
19934.229199000009
 31
0.0
  0
LINE
  5
46F6
  8
2-0
  6
CONTINUOUS
 62
     3
 10
25607.817566999991
 20
19904.22563600001
 30
0.0
 11
25607.817566999991
 21
19934.229199000009
 31
0.0
  0
LINE
  5
46F7
  8
2-0
  6
CONTINUOUS
 62
     3
 10
25613.81946699999
 20
19904.22563600001
 30
0.0
 11
25607.817566999991
 21
19904.22563600001
 31
0.0
  0
LINE
  5
46F8
  8
2-0
  6
CONTINUOUS
 62
     3
 10
25710.817856999998
 20
19118.132307499989
 30
0.0
 11
25717.819414000001
 21
19118.132307499989
 31
0.0
  0
LINE
  5
46F9
  8
2-0
  6
CONTINUOUS
 62
     3
 10
25717.819414000001
 20
19118.132307499989
 30
0.0
 11
25717.819414000001
 21
19123.132571499991
 31
0.0
  0
LINE
  5
46FA
  8
2-0
  6
CONTINUOUS
 62
     3
 10
25717.819414000001
 20
19123.132571499991
 30
0.0
 11
25692.822053999971
 21
19123.132571499991
 31
0.0
  0
LINE
  5
46FB
  8
2-0
  6
CONTINUOUS
 62
     3
 10
25692.822053999971
 20
19123.132571499991
 30
0.0
 11
25692.822053999971
 21
19105.1367675
 31
0.0
  0
LINE
  5
46FC
  8
2-0
  6
CONTINUOUS
 62
     3
 10
25692.822053999971
 20
19105.1367675
 30
0.0
 11
25722.819677999989
 21
19105.1367675
 31
0.0
  0
LINE
  5
46FD
  8
2-0
  6
CONTINUOUS
 62
     3
 10
25692.822053999971
 20
19121.22827449995
 30
0.0
 11
25692.822053999971
 21
19115.230333499989
 31
0.0
  0
LINE
  5
46FE
  8
2-0
  6
CONTINUOUS
 62
     3
 10
25692.822053999971
 20
19115.230333499989
 30
0.0
 11
25722.819677999989
 21
19115.230333499989
 31
0.0
  0
LINE
  5
46FF
  8
2-0
  6
CONTINUOUS
 62
     3
 10
25722.819677999989
 20
19115.230333499989
 30
0.0
 11
25722.819677999989
 21
19152.2314945
 31
0.0
  0
LINE
  5
4700
  8
2-0
  6
CONTINUOUS
 62
     3
 10
25692.822053999971
 20
19152.2314945
 30
0.0
 11
25722.819677999989
 21
19152.2314945
 31
0.0
  0
LINE
  5
4701
  8
2-0
  6
CONTINUOUS
 62
     3
 10
25692.822053999971
 20
19146.227614499981
 30
0.0
 11
25692.822053999971
 21
19152.2314945
 31
0.0
  0
LINE
  5
4702
  8
2-0
  6
CONTINUOUS
 62
     3
 10
25692.822053999971
 20
19162.327039499982
 30
0.0
 11
25722.819677999989
 21
19162.327039499982
 31
0.0
  0
LINE
  5
4703
  8
2-0
  6
CONTINUOUS
 62
     3
 10
25692.822053999971
 20
19144.3252975
 30
0.0
 11
25692.822053999971
 21
19162.327039499982
 31
0.0
  0
LINE
  5
4704
  8
2-0
  6
CONTINUOUS
 62
     3
 10
25717.819414000001
 20
19144.3252975
 30
0.0
 11
25692.822053999971
 21
19144.3252975
 31
0.0
  0
LINE
  5
4705
  8
2-0
  6
CONTINUOUS
 62
     3
 10
25717.819414000001
 20
19149.325561500002
 30
0.0
 11
25717.819414000001
 21
19144.3252975
 31
0.0
  0
LINE
  5
4706
  8
2-0
  6
CONTINUOUS
 62
     3
 10
25710.817856999998
 20
19149.325561500002
 30
0.0
 11
25717.819414000001
 21
19149.325561500002
 31
0.0
  0
LINE
  5
4707
  8
2-0
  6
CONTINUOUS
 62
     3
 10
25710.817856999998
 20
18417.131317999989
 30
0.0
 11
25717.819414000001
 21
18417.131317999989
 31
0.0
  0
LINE
  5
4708
  8
2-0
  6
CONTINUOUS
 62
     3
 10
25717.819414000001
 20
18417.131317999989
 30
0.0
 11
25717.819414000001
 21
18422.13752
 31
0.0
  0
LINE
  5
4709
  8
2-0
  6
CONTINUOUS
 62
     3
 10
25717.819414000001
 20
18422.13752
 30
0.0
 11
25692.822053999971
 21
18422.13752
 31
0.0
  0
LINE
  5
470A
  8
2-0
  6
CONTINUOUS
 62
     3
 10
25692.822053999971
 20
18422.13752
 30
0.0
 11
25692.822053999971
 21
18404.135778
 31
0.0
  0
LINE
  5
470B
  8
2-0
  6
CONTINUOUS
 62
     3
 10
25692.822053999971
 20
18404.135778
 30
0.0
 11
25722.819677999989
 21
18404.135778
 31
0.0
  0
LINE
  5
470C
  8
2-0
  6
CONTINUOUS
 62
     3
 10
25692.822053999971
 20
18420.22728499999
 30
0.0
 11
25692.822053999971
 21
18414.231323
 31
0.0
  0
LINE
  5
470D
  8
2-0
  6
CONTINUOUS
 62
     3
 10
25692.822053999971
 20
18414.231323
 30
0.0
 11
25722.819677999989
 21
18414.231323
 31
0.0
  0
LINE
  5
470E
  8
2-0
  6
CONTINUOUS
 62
     3
 10
25722.819677999989
 20
18414.231323
 30
0.0
 11
25722.819677999989
 21
18451.230504999989
 31
0.0
  0
LINE
  5
470F
  8
2-0
  6
CONTINUOUS
 62
     3
 10
25692.822053999971
 20
18451.230504999989
 30
0.0
 11
25722.819677999989
 21
18451.230504999989
 31
0.0
  0
LINE
  5
4710
  8
2-0
  6
CONTINUOUS
 62
     3
 10
25692.822053999971
 20
18445.23454300001
 30
0.0
 11
25692.822053999971
 21
18451.230504999989
 31
0.0
  0
LINE
  5
4711
  8
2-0
  6
CONTINUOUS
 62
     3
 10
25692.822053999971
 20
18461.32605
 30
0.0
 11
25722.819677999989
 21
18461.32605
 31
0.0
  0
LINE
  5
4712
  8
2-0
  6
CONTINUOUS
 62
     3
 10
25692.822053999971
 20
18443.324307999988
 30
0.0
 11
25692.822053999971
 21
18461.32605
 31
0.0
  0
LINE
  5
4713
  8
2-0
  6
CONTINUOUS
 62
     3
 10
25717.819414000001
 20
18443.324307999988
 30
0.0
 11
25692.822053999971
 21
18443.324307999988
 31
0.0
  0
LINE
  5
4714
  8
2-0
  6
CONTINUOUS
 62
     3
 10
25717.819414000001
 20
18448.33051
 30
0.0
 11
25717.819414000001
 21
18443.324307999988
 31
0.0
  0
LINE
  5
4715
  8
2-0
  6
CONTINUOUS
 62
     3
 10
25710.817856999998
 20
18448.33051
 30
0.0
 11
25717.819414000001
 21
18448.33051
 31
0.0
  0
LINE
  5
4716
  8
2-0
  6
CONTINUOUS
 62
     3
 10
25710.817856999998
 20
17747.324572000001
 30
0.0
 11
25717.819414000001
 21
17747.324572000001
 31
0.0
  0
LINE
  5
4717
  8
2-0
  6
CONTINUOUS
 62
     3
 10
25717.819414000001
 20
17747.324572000001
 30
0.0
 11
25717.819414000001
 21
17742.336185
 31
0.0
  0
LINE
  5
4718
  8
2-0
  6
CONTINUOUS
 62
     3
 10
25717.819414000001
 20
17742.336185
 30
0.0
 11
25692.822053999971
 21
17742.336185
 31
0.0
  0
LINE
  5
4719
  8
2-0
  6
CONTINUOUS
 62
     3
 10
25692.822053999971
 20
17742.336185
 30
0.0
 11
25692.822053999971
 21
17760.331988000002
 31
0.0
  0
LINE
  5
471A
  8
2-0
  6
CONTINUOUS
 62
     3
 10
25692.822053999971
 20
17760.331988000002
 30
0.0
 11
25722.819677999989
 21
17760.331988000002
 31
0.0
  0
LINE
  5
471B
  8
2-0
  6
CONTINUOUS
 62
     3
 10
25692.822053999971
 20
17744.234542999991
 30
0.0
 11
25692.822053999971
 21
17750.230504999989
 31
0.0
  0
LINE
  5
471C
  8
2-0
  6
CONTINUOUS
 62
     3
 10
25692.822053999971
 20
17750.230504999989
 30
0.0
 11
25722.819677999989
 21
17750.230504999989
 31
0.0
  0
LINE
  5
471D
  8
2-0
  6
CONTINUOUS
 62
     3
 10
25722.819677999989
 20
17750.230504999989
 30
0.0
 11
25722.819677999989
 21
17713.231323
 31
0.0
  0
LINE
  5
471E
  8
2-0
  6
CONTINUOUS
 62
     3
 10
25692.822053999971
 20
17713.231323
 30
0.0
 11
25722.819677999989
 21
17713.231323
 31
0.0
  0
LINE
  5
471F
  8
2-0
  6
CONTINUOUS
 62
     3
 10
25692.822053999971
 20
17719.233223999989
 30
0.0
 11
25692.822053999971
 21
17713.231323
 31
0.0
  0
LINE
  5
4720
  8
2-0
  6
CONTINUOUS
 62
     3
 10
25692.822053999971
 20
17703.141716999991
 30
0.0
 11
25722.819677999989
 21
17703.141716999991
 31
0.0
  0
LINE
  5
4721
  8
2-0
  6
CONTINUOUS
 62
     3
 10
25692.822053999971
 20
17721.13752
 30
0.0
 11
25692.822053999971
 21
17703.141716999991
 31
0.0
  0
LINE
  5
4722
  8
2-0
  6
CONTINUOUS
 62
     3
 10
25717.819414000001
 20
17721.13752
 30
0.0
 11
25692.822053999971
 21
17721.13752
 31
0.0
  0
LINE
  5
4723
  8
2-0
  6
CONTINUOUS
 62
     3
 10
25717.819414000001
 20
17716.137256999991
 30
0.0
 11
25717.819414000001
 21
17721.13752
 31
0.0
  0
LINE
  5
4724
  8
2-0
  6
CONTINUOUS
 62
     3
 10
25710.817856999998
 20
17716.137256999991
 30
0.0
 11
25717.819414000001
 21
17716.137256999991
 31
0.0
  0
LINE
  5
4725
  8
2-0
  6
CONTINUOUS
 62
     3
 10
25719.933539999991
 20
16996.228143
 30
0.0
 11
25719.933539999991
 21
17016.229198000001
 31
0.0
  0
LINE
  5
4726
  8
2-0
  6
CONTINUOUS
 62
     3
 10
25719.933539999991
 20
17016.229198000001
 30
0.0
 11
25634.936970999988
 21
17016.229198000001
 31
0.0
  0
LINE
  5
4727
  8
2-0
  6
CONTINUOUS
 62
     3
 10
25710.817856999998
 20
17042.835908000001
 30
0.0
 11
25717.819414000001
 21
17042.835908000001
 31
0.0
  0
LINE
  5
4728
  8
2-0
  6
CONTINUOUS
 62
     3
 10
25717.819414000001
 20
17042.835908000001
 30
0.0
 11
25717.819414000001
 21
17037.841582000001
 31
0.0
  0
LINE
  5
4729
  8
2-0
  6
CONTINUOUS
 62
     3
 10
25717.819414000001
 20
17037.841582000001
 30
0.0
 11
25692.822053999971
 21
17037.841582000001
 31
0.0
  0
LINE
  5
472A
  8
2-0
  6
CONTINUOUS
 62
     3
 10
25692.822053999971
 20
17037.841582000001
 30
0.0
 11
25692.822053999971
 21
17055.83738600001
 31
0.0
  0
LINE
  5
472B
  8
2-0
  6
CONTINUOUS
 62
     3
 10
25692.822053999971
 20
17055.83738600001
 30
0.0
 11
25722.819677999989
 21
17055.83738600001
 31
0.0
  0
LINE
  5
472C
  8
2-0
  6
CONTINUOUS
 62
     3
 10
25692.822053999971
 20
17046.228802000001
 30
0.0
 11
25692.822053999971
 21
17040.226901999991
 31
0.0
  0
LINE
  5
472D
  8
2-0
  6
CONTINUOUS
 62
     3
 10
25722.819677999989
 20
17046.228802000001
 30
0.0
 11
25692.822053999971
 21
17046.228802000001
 31
0.0
  0
LINE
  5
472E
  8
2-0
  6
CONTINUOUS
 62
     3
 10
25722.819677999989
 20
17055.83738600001
 30
0.0
 11
25722.819677999989
 21
17703.141716999991
 31
0.0
  0
LINE
  5
472F
  8
2-0
  6
CONTINUOUS
 62
     3
 10
25722.819677999989
 20
17760.331988000002
 30
0.0
 11
25722.819677999989
 21
18404.135778
 31
0.0
  0
LINE
  5
4730
  8
2-0
  6
CONTINUOUS
 62
     3
 10
25722.819677999989
 20
16901.22708700001
 30
0.0
 11
25692.822053999971
 21
16901.22708700001
 31
0.0
  0
LINE
  5
4731
  8
2-0
  6
CONTINUOUS
 62
     3
 10
25692.822053999971
 20
16901.22708700001
 30
0.0
 11
25692.822053999971
 21
16907.22898700001
 31
0.0
  0
LINE
  5
4732
  8
2-0
  6
CONTINUOUS
 62
     3
 10
25634.936970999988
 20
16931.232629999991
 30
0.0
 11
25719.933539999991
 21
16931.232629999991
 31
0.0
  0
LINE
  5
4733
  8
2-0
  6
CONTINUOUS
 62
     3
 10
25719.933539999991
 20
16931.232629999991
 30
0.0
 11
25719.933539999991
 21
16951.227747000012
 31
0.0
  0
LINE
  5
4734
  8
2-0
  6
CONTINUOUS
 62
     3
 10
25692.822053999971
 20
16891.618503999998
 30
0.0
 11
25722.819677999989
 21
16891.618503999998
 31
0.0
  0
LINE
  5
4735
  8
2-0
  6
CONTINUOUS
 62
     3
 10
25692.822053999971
 20
16909.614306999982
 30
0.0
 11
25692.822053999971
 21
16891.618503999998
 31
0.0
  0
LINE
  5
4736
  8
2-0
  6
CONTINUOUS
 62
     3
 10
25717.819414000001
 20
16909.614306999982
 30
0.0
 11
25692.822053999971
 21
16909.614306999982
 31
0.0
  0
LINE
  5
4737
  8
2-0
  6
CONTINUOUS
 62
     3
 10
25717.819414000001
 20
16904.614043000009
 30
0.0
 11
25717.819414000001
 21
16909.614306999982
 31
0.0
  0
LINE
  5
4738
  8
2-0
  6
CONTINUOUS
 62
     3
 10
25710.817856999998
 20
16904.614043000009
 30
0.0
 11
25717.819414000001
 21
16904.614043000009
 31
0.0
  0
LINE
  5
4739
  8
2-0
  6
CONTINUOUS
 62
     3
 10
25710.817856999998
 20
16200.131812499991
 30
0.0
 11
25717.819414000001
 21
16200.131812499991
 31
0.0
  0
LINE
  5
473A
  8
2-0
  6
CONTINUOUS
 62
     3
 10
25717.819414000001
 20
16200.131812499991
 30
0.0
 11
25717.819414000001
 21
16205.13207649998
 31
0.0
  0
LINE
  5
473B
  8
2-0
  6
CONTINUOUS
 62
     3
 10
25717.819414000001
 20
16205.13207649998
 30
0.0
 11
25692.822053999971
 21
16205.13207649998
 31
0.0
  0
LINE
  5
473C
  8
2-0
  6
CONTINUOUS
 62
     3
 10
25692.822053999971
 20
16205.13207649998
 30
0.0
 11
25692.822053999971
 21
16187.130334499991
 31
0.0
  0
LINE
  5
473D
  8
2-0
  6
CONTINUOUS
 62
     3
 10
25692.822053999971
 20
16187.130334499991
 30
0.0
 11
25722.819677999989
 21
16187.130334499991
 31
0.0
  0
LINE
  5
473E
  8
2-0
  6
CONTINUOUS
 62
     3
 10
25692.822053999971
 20
16203.227779500001
 30
0.0
 11
25692.822053999971
 21
16197.2308285
 31
0.0
  0
LINE
  5
473F
  8
2-0
  6
CONTINUOUS
 62
     3
 10
25692.822053999971
 20
16197.2308285
 30
0.0
 11
25722.819677999989
 21
16197.2308285
 31
0.0
  0
LINE
  5
4740
  8
2-0
  6
CONTINUOUS
 62
     3
 10
25722.819677999989
 20
16197.2308285
 30
0.0
 11
25722.819677999989
 21
16234.2309995
 31
0.0
  0
LINE
  5
4741
  8
2-0
  6
CONTINUOUS
 62
     3
 10
25692.822053999971
 20
16234.2309995
 30
0.0
 11
25722.819677999989
 21
16234.2309995
 31
0.0
  0
LINE
  5
4742
  8
2-0
  6
CONTINUOUS
 62
     3
 10
25692.822053999971
 20
16228.228109499991
 30
0.0
 11
25692.822053999971
 21
16234.2309995
 31
0.0
  0
LINE
  5
4743
  8
2-0
  6
CONTINUOUS
 62
     3
 10
25692.822053999971
 20
16244.3265445
 30
0.0
 11
25722.819677999989
 21
16244.3265445
 31
0.0
  0
LINE
  5
4744
  8
2-0
  6
CONTINUOUS
 62
     3
 10
25692.822053999971
 20
16226.318863500001
 30
0.0
 11
25692.822053999971
 21
16244.3265445
 31
0.0
  0
LINE
  5
4745
  8
2-0
  6
CONTINUOUS
 62
     3
 10
25717.819414000001
 20
16226.318863500001
 30
0.0
 11
25692.822053999971
 21
16226.318863500001
 31
0.0
  0
LINE
  5
4746
  8
2-0
  6
CONTINUOUS
 62
     3
 10
25717.819414000001
 20
16231.3250665
 30
0.0
 11
25717.819414000001
 21
16226.318863500001
 31
0.0
  0
LINE
  5
4747
  8
2-0
  6
CONTINUOUS
 62
     3
 10
25710.817856999998
 20
16231.3250665
 30
0.0
 11
25717.819414000001
 21
16231.3250665
 31
0.0
  0
LINE
  5
4748
  8
2-0
  6
CONTINUOUS
 62
     3
 10
25710.817856999998
 20
15530.565083
 30
0.0
 11
25717.819414000001
 21
15530.565083
 31
0.0
  0
LINE
  5
4749
  8
2-0
  6
CONTINUOUS
 62
     3
 10
25717.819414000001
 20
15530.565083
 30
0.0
 11
25717.819414000001
 21
15525.570758000011
 31
0.0
  0
LINE
  5
474A
  8
2-0
  6
CONTINUOUS
 62
     3
 10
25717.819414000001
 20
15525.570758000011
 30
0.0
 11
25692.822053999971
 21
15525.570758000011
 31
0.0
  0
LINE
  5
474B
  8
2-0
  6
CONTINUOUS
 62
     3
 10
25692.822053999971
 20
15525.570758000011
 30
0.0
 11
25692.822053999971
 21
15543.566561000011
 31
0.0
  0
LINE
  5
474C
  8
2-0
  6
CONTINUOUS
 62
     3
 10
25692.822053999971
 20
15543.566561000011
 30
0.0
 11
25722.819677999989
 21
15543.566561000011
 31
0.0
  0
LINE
  5
474D
  8
2-0
  6
CONTINUOUS
 62
     3
 10
25692.822053999971
 20
15527.469116
 30
0.0
 11
25692.822053999971
 21
15533.47101600001
 31
0.0
  0
LINE
  5
474E
  8
2-0
  6
CONTINUOUS
 62
     3
 10
25692.822053999971
 20
15533.47101600001
 30
0.0
 11
25722.819677999989
 21
15533.47101600001
 31
0.0
  0
LINE
  5
474F
  8
2-0
  6
CONTINUOUS
 62
     3
 10
25722.819677999989
 20
15496.471835
 30
0.0
 11
25722.819677999989
 21
15533.47101600001
 31
0.0
  0
LINE
  5
4750
  8
2-0
  6
CONTINUOUS
 62
     3
 10
25692.822053999971
 20
15496.471835
 30
0.0
 11
25722.819677999989
 21
15496.471835
 31
0.0
  0
LINE
  5
4751
  8
2-0
  6
CONTINUOUS
 62
     3
 10
25692.822053999971
 20
15502.46878600001
 30
0.0
 11
25692.822053999971
 21
15496.471835
 31
0.0
  0
LINE
  5
4752
  8
2-0
  6
CONTINUOUS
 62
     3
 10
25692.822053999971
 20
15486.370351
 30
0.0
 11
25722.819677999989
 21
15486.370351
 31
0.0
  0
LINE
  5
4753
  8
2-0
  6
CONTINUOUS
 62
     3
 10
25692.822053999971
 20
15504.378032000001
 30
0.0
 11
25692.822053999971
 21
15486.370351
 31
0.0
  0
LINE
  5
4754
  8
2-0
  6
CONTINUOUS
 62
     3
 10
25717.819414000001
 20
15504.378032000001
 30
0.0
 11
25692.822053999971
 21
15504.378032000001
 31
0.0
  0
LINE
  5
4755
  8
2-0
  6
CONTINUOUS
 62
     3
 10
25717.819414000001
 20
15499.377768000009
 30
0.0
 11
25717.819414000001
 21
15504.378032000001
 31
0.0
  0
LINE
  5
4756
  8
2-0
  6
CONTINUOUS
 62
     3
 10
25710.817856999998
 20
15499.377768000009
 30
0.0
 11
25717.819414000001
 21
15499.377768000009
 31
0.0
  0
LINE
  5
4757
  8
2-0
  6
CONTINUOUS
 62
     3
 10
25722.819677999989
 20
16891.618503999998
 30
0.0
 11
25722.819677999989
 21
16244.3265445
 31
0.0
  0
LINE
  5
4758
  8
2-0
  6
CONTINUOUS
 62
     3
 10
25722.819677999989
 20
17046.228802000001
 30
0.0
 11
25722.819677999989
 21
16901.22708700001
 31
0.0
  0
LINE
  5
4759
  8
2-0
  6
CONTINUOUS
 62
     3
 10
25634.936970999988
 20
17016.229198000001
 30
0.0
 11
25634.936970999988
 21
16931.232629999991
 31
0.0
  0
LINE
  5
475A
  8
2-0
  6
CONTINUOUS
 62
     6
 10
24096.728303999971
 20
18784.676463499982
 30
0.0
 11
25121.760635999992
 21
18784.676463499982
 31
0.0
  0
LINE
  5
475B
  8
2-0
  6
CONTINUOUS
 62
     3
 10
25710.817856999998
 20
14798.136761
 30
0.0
 11
25717.819414000001
 21
14798.136761
 31
0.0
  0
LINE
  5
475C
  8
2-0
  6
CONTINUOUS
 62
     3
 10
25717.819414000001
 20
14798.136761
 30
0.0
 11
25717.819414000001
 21
14803.131087
 31
0.0
  0
LINE
  5
475D
  8
2-0
  6
CONTINUOUS
 62
     3
 10
25717.819414000001
 20
14803.131087
 30
0.0
 11
25692.822053999971
 21
14803.131087
 31
0.0
  0
LINE
  5
475E
  8
2-0
  6
CONTINUOUS
 62
     3
 10
25692.822053999971
 20
14803.131087
 30
0.0
 11
25692.822053999971
 21
14785.135283
 31
0.0
  0
LINE
  5
475F
  8
2-0
  6
CONTINUOUS
 62
     3
 10
25692.822053999971
 20
14785.135283
 30
0.0
 11
25722.819677999989
 21
14785.135283
 31
0.0
  0
LINE
  5
4760
  8
2-0
  6
CONTINUOUS
 62
     3
 10
25692.822053999971
 20
14801.23371800001
 30
0.0
 11
25692.822053999971
 21
14795.230828000011
 31
0.0
  0
LINE
  5
4761
  8
2-0
  6
CONTINUOUS
 62
     3
 10
25692.822053999971
 20
14795.230828000011
 30
0.0
 11
25722.819677999989
 21
14795.230828000011
 31
0.0
  0
LINE
  5
4762
  8
2-0
  6
CONTINUOUS
 62
     3
 10
25722.819677999989
 20
14795.230828000011
 30
0.0
 11
25722.819677999989
 21
14832.230999999991
 31
0.0
  0
LINE
  5
4763
  8
2-0
  6
CONTINUOUS
 62
     3
 10
25692.822053999971
 20
14832.230999999991
 30
0.0
 11
25722.819677999989
 21
14832.230999999991
 31
0.0
  0
LINE
  5
4764
  8
2-0
  6
CONTINUOUS
 62
     3
 10
25692.822053999971
 20
14826.23404799998
 30
0.0
 11
25692.822053999971
 21
14832.230999999991
 31
0.0
  0
LINE
  5
4765
  8
2-0
  6
CONTINUOUS
 62
     3
 10
25692.822053999971
 20
14842.331493000011
 30
0.0
 11
25722.819677999989
 21
14842.331493000011
 31
0.0
  0
LINE
  5
4766
  8
2-0
  6
CONTINUOUS
 62
     3
 10
25692.822053999971
 20
14824.32480200001
 30
0.0
 11
25692.822053999971
 21
14842.331493000011
 31
0.0
  0
LINE
  5
4767
  8
2-0
  6
CONTINUOUS
 62
     3
 10
25717.819414000001
 20
14824.32480200001
 30
0.0
 11
25692.822053999971
 21
14824.32480200001
 31
0.0
  0
LINE
  5
4768
  8
2-0
  6
CONTINUOUS
 62
     3
 10
25717.819414000001
 20
14829.33001500001
 30
0.0
 11
25717.819414000001
 21
14824.32480200001
 31
0.0
  0
LINE
  5
4769
  8
2-0
  6
CONTINUOUS
 62
     3
 10
25710.817856999998
 20
14829.33001500001
 30
0.0
 11
25717.819414000001
 21
14829.33001500001
 31
0.0
  0
LINE
  5
476A
  8
2-0
  6
CONTINUOUS
 62
     3
 10
25692.822053999971
 20
13771.73284099999
 30
0.0
 11
25692.822053999971
 21
13777.73770999999
 31
0.0
  0
LINE
  5
476B
  8
2-0
  6
CONTINUOUS
 62
     3
 10
25692.822053999971
 20
13777.73770999999
 30
0.0
 11
25722.819677999989
 21
13777.73770999999
 31
0.0
  0
LINE
  5
476C
  8
2-0
  6
CONTINUOUS
 62
     3
 10
25722.819677999989
 20
13777.73770999999
 30
0.0
 11
25722.819677999989
 21
13662.733619000001
 31
0.0
  0
LINE
  5
476D
  8
2-0
  6
CONTINUOUS
 62
     3
 10
25722.819677999989
 20
13662.733619000001
 30
0.0
 11
25637.821129999978
 21
13662.733619000001
 31
0.0
  0
LINE
  5
476E
  8
2-0
  6
CONTINUOUS
 62
     3
 10
25637.821129999978
 20
13662.733619000001
 30
0.0
 11
25637.821129999978
 21
13747.729198000001
 31
0.0
  0
LINE
  5
476F
  8
2-0
  6
CONTINUOUS
 62
     3
 10
25637.821129999978
 20
13747.729198000001
 30
0.0
 11
25669.82004799999
 21
13747.729198000001
 31
0.0
  0
LINE
  5
4770
  8
2-0
  6
CONTINUOUS
 62
     3
 10
25710.817856999998
 20
13774.767443000001
 30
0.0
 11
25717.819414000001
 21
13774.767443000001
 31
0.0
  0
LINE
  5
4771
  8
2-0
  6
CONTINUOUS
 62
     3
 10
25717.819414000001
 20
13774.767443000001
 30
0.0
 11
25717.819414000001
 21
13769.77014799998
 31
0.0
  0
LINE
  5
4772
  8
2-0
  6
CONTINUOUS
 62
     3
 10
25717.819414000001
 20
13769.77014799998
 30
0.0
 11
25692.822053999971
 21
13769.77014799998
 31
0.0
  0
LINE
  5
4773
  8
2-0
  6
CONTINUOUS
 62
     3
 10
25692.822053999971
 20
13769.77014799998
 30
0.0
 11
25692.822053999971
 21
13787.768921000001
 31
0.0
  0
LINE
  5
4774
  8
2-0
  6
CONTINUOUS
 62
     3
 10
25692.822053999971
 20
13787.768921000001
 30
0.0
 11
25722.819677999989
 21
13787.768921000001
 31
0.0
  0
LINE
  5
4775
  8
2-0
  6
CENTER2
 62
     6
 10
25680.321393999991
 20
13465.236060999991
 30
0.0
 11
25680.321393999991
 21
14971.60481900002
 31
0.0
  0
LINE
  5
4776
  8
2-0
  6
CONTINUOUS
 62
     3
 10
25722.819677999989
 20
18461.32605
 30
0.0
 11
25722.819677999989
 21
19105.1367675
 31
0.0
  0
LINE
  5
4777
  8
2-0
  6
CONTINUOUS
 62
     6
 10
26415.32456099999
 20
20664.232102000031
 30
0.0
 11
27615.31862299997
 21
20664.232102000031
 31
0.0
  0
LINE
  5
4778
  8
2-0
  6
CONTINUOUS
 62
     3
 10
22834.823241999991
 20
19934.229199000009
 30
0.0
 11
22834.823241999991
 21
19904.22563600001
 31
0.0
  0
LINE
  5
4779
  8
2-0
  6
CONTINUOUS
 62
     3
 10
22834.823241999991
 20
19904.22563600001
 30
0.0
 11
22828.82529999996
 21
19904.22563600001
 31
0.0
  0
LINE
  5
477A
  8
2-0
  6
CONTINUOUS
 62
     3
 10
22844.439742999992
 20
19904.22563600001
 30
0.0
 11
22844.439742999992
 21
19934.229199000009
 31
0.0
  0
LINE
  5
477B
  8
2-0
  6
CONTINUOUS
 62
     3
 10
22826.438000999991
 20
19904.22563600001
 30
0.0
 11
22844.439742999992
 21
19904.22563600001
 31
0.0
  0
LINE
  5
477C
  8
2-0
  6
CONTINUOUS
 62
     3
 10
22826.438000999991
 20
19929.234873000001
 30
0.0
 11
22826.438000999991
 21
19904.22563600001
 31
0.0
  0
LINE
  5
477D
  8
2-0
  6
CONTINUOUS
 62
     3
 10
22831.438265000001
 20
19929.234873000001
 30
0.0
 11
22826.438000999991
 21
19929.234873000001
 31
0.0
  0
LINE
  5
477E
  8
2-0
  6
CONTINUOUS
 62
     3
 10
22831.438265000001
 20
19922.229357000011
 30
0.0
 11
22831.438265000001
 21
19929.234873000001
 31
0.0
  0
LINE
  5
477F
  8
2-0
  6
CONTINUOUS
 62
     3
 10
22804.821658000001
 20
19931.337122000001
 30
0.0
 11
22804.821658000001
 21
19846.338574000009
 31
0.0
  0
LINE
  5
4780
  8
2-0
  6
CONTINUOUS
 62
     3
 10
22784.824561000001
 20
19931.337122000001
 30
0.0
 11
22804.821658000001
 21
19931.337122000001
 31
0.0
  0
LINE
  5
4781
  8
2-0
  6
CONTINUOUS
 62
     3
 10
22693.210461999988
 20
19922.229357000011
 30
0.0
 11
22693.210461999988
 21
19929.234873000001
 31
0.0
  0
LINE
  5
4782
  8
2-0
  6
CONTINUOUS
 62
     3
 10
22693.210461999988
 20
19929.234873000001
 30
0.0
 11
22698.21072599999
 21
19929.234873000001
 31
0.0
  0
LINE
  5
4783
  8
2-0
  6
CONTINUOUS
 62
     3
 10
22698.21072599999
 20
19929.234873000001
 30
0.0
 11
22698.21072599999
 21
19904.22563600001
 31
0.0
  0
LINE
  5
4784
  8
2-0
  6
CONTINUOUS
 62
     3
 10
22698.21072599999
 20
19904.22563600001
 30
0.0
 11
22680.20898399999
 21
19904.22563600001
 31
0.0
  0
LINE
  5
4785
  8
2-0
  6
CONTINUOUS
 62
     3
 10
22680.20898399999
 20
19904.22563600001
 30
0.0
 11
22680.20898399999
 21
19934.229199000009
 31
0.0
  0
LINE
  5
4786
  8
2-0
  6
CONTINUOUS
 62
     3
 10
22719.829047999981
 20
19931.337122000001
 30
0.0
 11
22739.824165000002
 21
19931.337122000001
 31
0.0
  0
LINE
  5
4787
  8
2-0
  6
CONTINUOUS
 62
     3
 10
22719.829047999981
 20
19846.338574000009
 30
0.0
 11
22719.829047999981
 21
19931.337122000001
 31
0.0
  0
LINE
  5
4788
  8
2-0
  6
CONTINUOUS
 62
     3
 10
22689.831424000011
 20
19904.22563600001
 30
0.0
 11
22695.82738499999
 21
19904.22563600001
 31
0.0
  0
LINE
  5
4789
  8
2-0
  6
CONTINUOUS
 62
     3
 10
22689.831424000011
 20
19934.229199000009
 30
0.0
 11
22689.831424000011
 21
19904.22563600001
 31
0.0
  0
LINE
  5
478A
  8
2-0
  6
CONTINUOUS
 62
     3
 10
22804.821658000001
 20
19846.338574000009
 30
0.0
 11
22719.829047999981
 21
19846.338574000009
 31
0.0
  0
LINE
  5
478B
  8
2-0
  6
CONTINUOUS
 62
     3
 10
22834.823241999991
 20
19934.229199000009
 30
0.0
 11
22689.831424000011
 21
19934.229199000009
 31
0.0
  0
LINE
  5
478C
  8
2-0
  6
CONTINUOUS
 62
     6
 10
25553.29172799996
 20
19026.830971499989
 30
0.0
 11
25121.760635999992
 21
18784.676463499982
 31
0.0
  0
LINE
  5
478D
  8
2-0
  6
CONTINUOUS
 62
     6
 10
25874.860561999962
 20
20076.908939000012
 30
0.0
 11
26415.32456099999
 21
20664.232102000031
 31
0.0
  0
LINE
  5
478E
  8
2-0
  6
CONTINUOUS
 62
     6
 10
22804.821658000001
 20
13747.729198000001
 30
0.0
 11
23081.411870999989
 21
14203.073898000001
 31
0.0
  0
LINE
  5
478F
  8
2-0
  6
CONTINUOUS
 62
     6
 10
23081.411870999989
 20
14203.073898000001
 30
0.0
 11
24111.761189999979
 21
14203.073898000001
 31
0.0
  0
LINE
  5
4790
  8
2-0
  6
CONTINUOUS
 62
     3
 10
25631.815270999981
 20
18390.22965999999
 30
0.0
 11
25678.82091899998
 21
18390.22965999999
 31
0.0
  0
LINE
  5
4791
  8
2-0
  6
CONTINUOUS
 62
     3
 10
25678.82091899998
 20
18475.230188000001
 30
0.0
 11
25631.815270999981
 21
18475.230188000001
 31
0.0
  0
LINE
  5
4792
  8
2-0
  6
CONTINUOUS
 62
     3
 10
25678.82091899998
 20
18390.22965999999
 30
0.0
 11
25678.82091899998
 21
18415.232959000001
 31
0.0
  0
LINE
  5
4793
  8
2-0
  6
CONTINUOUS
 62
     3
 10
25678.82091899998
 20
18450.228867999991
 30
0.0
 11
25678.82091899998
 21
18475.230188000001
 31
0.0
  0
LINE
  5
4794
  8
2-0
  6
CONTINUOUS
 62
     3
 10
25631.815270999981
 20
18475.230188000001
 30
0.0
 11
25631.815270999981
 21
18390.22965999999
 31
0.0
  0
LINE
  5
4795
  8
2-0
  6
CONTINUOUS
 62
     3
 10
25722.819677999989
 20
16187.130334499991
 30
0.0
 11
25722.819677999989
 21
15543.566561000011
 31
0.0
  0
LINE
  5
4796
  8
2-0
  6
CONTINUOUS
 62
     3
 10
25631.815270999981
 20
15472.23263000001
 30
0.0
 11
25678.82091899998
 21
15472.23263000001
 31
0.0
  0
LINE
  5
4797
  8
2-0
  6
CONTINUOUS
 62
     3
 10
25678.82091899998
 20
15557.22919799999
 30
0.0
 11
25631.815270999981
 21
15557.22919799999
 31
0.0
  0
LINE
  5
4798
  8
2-0
  6
CONTINUOUS
 62
     3
 10
25678.82091899998
 20
15472.23263000001
 30
0.0
 11
25678.82091899998
 21
15497.22801100001
 31
0.0
  0
LINE
  5
4799
  8
2-0
  6
CONTINUOUS
 62
     3
 10
25678.82091899998
 20
15532.227879
 30
0.0
 11
25678.82091899998
 21
15557.22919799999
 31
0.0
  0
LINE
  5
479A
  8
2-0
  6
CONTINUOUS
 62
     3
 10
25631.815270999981
 20
15557.22919799999
 30
0.0
 11
25631.815270999981
 21
15472.23263000001
 31
0.0
  0
LINE
  5
479B
  8
2-0
  6
CONTINUOUS
 62
     6
 10
22865.099977999998
 20
13898.325032999979
 30
0.0
 11
22804.821658000001
 21
13747.729198000001
 31
0.0
  0
LINE
  5
479C
  8
2-0
  6
CONTINUOUS
 62
     6
 10
22804.821658000001
 20
13747.729198000001
 30
0.0
 11
22910.680372999959
 21
13870.637506999999
 31
0.0
  0
LINE
  5
479D
  8
2-0
  6
CONTINUOUS
 62
     6
 10
22865.099977999998
 20
13898.325032999979
 30
0.0
 11
22910.680372999959
 21
13870.637506999999
 31
0.0
  0
LINE
  5
479E
  8
2-0
  6
CONTINUOUS
 62
     6
 10
22910.680372999959
 20
13870.637506999999
 30
0.0
 11
22804.821658000001
 21
13747.729198000001
 31
0.0
  0
LINE
  5
479F
  8
2-0
  6
CONTINUOUS
 62
     6
 10
22804.821658000001
 20
13747.729198000001
 30
0.0
 11
22865.099977999998
 21
13898.325032999979
 31
0.0
  0
LINE
  5
47A0
  8
2-0
  6
CONTINUOUS
 62
     6
 10
22865.099977999998
 20
13898.325032999979
 30
0.0
 11
22804.821658000001
 21
13747.729198000001
 31
0.0
  0
LINE
  5
47A1
  8
2-0
  6
CONTINUOUS
 62
     6
 10
22910.680372999959
 20
13870.637506999999
 30
0.0
 11
22804.821658000001
 21
13747.729198000001
 31
0.0
  0
LINE
  5
47A2
  8
2-0
  6
CONTINUOUS
 62
     6
 10
22910.680372999959
 20
13870.637506999999
 30
0.0
 11
22865.099977999998
 21
13898.325032999979
 31
0.0
  0
LINE
  5
47A3
  8
2-0
  6
CONTINUOUS
 62
     6
 10
25540.234822999992
 20
19050.090315500001
 30
0.0
 11
25692.822053999971
 21
19105.1367675
 31
0.0
  0
LINE
  5
47A4
  8
2-0
  6
CONTINUOUS
 62
     6
 10
25692.822053999971
 20
19105.1367675
 30
0.0
 11
25566.340713999991
 21
19003.57756749999
 31
0.0
  0
LINE
  5
47A5
  8
2-0
  6
CONTINUOUS
 62
     6
 10
25540.234822999992
 20
19050.090315500001
 30
0.0
 11
25566.340713999991
 21
19003.57756749999
 31
0.0
  0
LINE
  5
47A6
  8
2-0
  6
CONTINUOUS
 62
     6
 10
25566.340713999991
 20
19003.57756749999
 30
0.0
 11
25692.822053999971
 21
19105.1367675
 31
0.0
  0
LINE
  5
47A7
  8
2-0
  6
CONTINUOUS
 62
     6
 10
25692.822053999971
 20
19105.1367675
 30
0.0
 11
25540.234822999992
 21
19050.090315500001
 31
0.0
  0
LINE
  5
47A8
  8
2-0
  6
CONTINUOUS
 62
     6
 10
25540.234822999992
 20
19050.090315500001
 30
0.0
 11
25692.822053999971
 21
19105.1367675
 31
0.0
  0
LINE
  5
47A9
  8
2-0
  6
CONTINUOUS
 62
     6
 10
25566.340713999991
 20
19003.57756749999
 30
0.0
 11
25692.822053999971
 21
19105.1367675
 31
0.0
  0
LINE
  5
47AA
  8
2-0
  6
CONTINUOUS
 62
     6
 10
25566.340713999991
 20
19003.57756749999
 30
0.0
 11
25540.234822999992
 21
19050.090315500001
 31
0.0
  0
LINE
  5
47AB
  8
2-0
  6
CONTINUOUS
 62
     6
 10
25894.477590999992
 20
20058.847812000022
 30
0.0
 11
25766.515570999989
 21
19959.165194000008
 31
0.0
  0
LINE
  5
47AC
  8
2-0
  6
CONTINUOUS
 62
     6
 10
25766.515570999989
 20
19959.165194000008
 30
0.0
 11
25855.229675999992
 21
20094.962149000021
 31
0.0
  0
LINE
  5
47AD
  8
2-0
  6
CONTINUOUS
 62
     6
 10
25894.477590999992
 20
20058.847812000022
 30
0.0
 11
25855.229675999992
 21
20094.962149000021
 31
0.0
  0
LINE
  5
47AE
  8
2-0
  6
CONTINUOUS
 62
     6
 10
25855.229675999992
 20
20094.962149000021
 30
0.0
 11
25766.515570999989
 21
19959.165194000008
 31
0.0
  0
LINE
  5
47AF
  8
2-0
  6
CONTINUOUS
 62
     6
 10
25766.515570999989
 20
19959.165194000008
 30
0.0
 11
25894.477590999992
 21
20058.847812000022
 31
0.0
  0
LINE
  5
47B0
  8
2-0
  6
CONTINUOUS
 62
     6
 10
25894.477590999992
 20
20058.847812000022
 30
0.0
 11
25766.515570999989
 21
19959.165194000008
 31
0.0
  0
LINE
  5
47B1
  8
2-0
  6
CONTINUOUS
 62
     6
 10
25855.229675999992
 20
20094.962149000021
 30
0.0
 11
25766.515570999989
 21
19959.165194000008
 31
0.0
  0
LINE
  5
47B2
  8
2-0
  6
CONTINUOUS
 62
     6
 10
25855.229675999992
 20
20094.962149000021
 30
0.0
 11
25894.477590999992
 21
20058.847812000022
 31
0.0
  0
LINE
  5
47B3
  8
2-0
  6
CONTINUOUS
 62
     6
 10
21386.25707299999
 20
19686.45681700002
 30
0.0
 11
21518.190006000012
 21
19217.110981999998
 31
0.0
  0
LINE
  5
47B4
  8
2-0
  6
CONTINUOUS
 62
     6
 10
21518.190006000012
 20
19217.110981999998
 30
0.0
 11
22543.228276999991
 21
19217.110981999998
 31
0.0
  0
LINE
  5
47B5
  8
2-0
  6
CONTINUOUS
 62
     6
 10
21342.963022
 20
19840.485137000011
 30
0.0
 11
21360.584696000002
 21
19679.239492000019
 31
0.0
  0
LINE
  5
47B6
  8
2-0
  6
CONTINUOUS
 62
     6
 10
21411.929448999999
 20
19693.67810100002
 30
0.0
 11
21360.584696000002
 21
19679.239492000019
 31
0.0
  0
LINE
  5
47B7
  8
2-0
  6
CONTINUOUS
 62
     6
 10
21360.584696000002
 20
19679.239492000019
 30
0.0
 11
21342.963022
 21
19840.485137000011
 31
0.0
  0
LINE
  5
47B8
  8
2-0
  6
CONTINUOUS
 62
     6
 10
21342.963022
 20
19840.485137000011
 30
0.0
 11
21411.929448999999
 21
19693.67810100002
 31
0.0
  0
LINE
  5
47B9
  8
2-0
  6
CONTINUOUS
 62
     6
 10
21411.929448999999
 20
19693.67810100002
 30
0.0
 11
21342.963022
 21
19840.485137000011
 31
0.0
  0
LINE
  5
47BA
  8
2-0
  6
CONTINUOUS
 62
     6
 10
21360.584696000002
 20
19679.239492000019
 30
0.0
 11
21342.963022
 21
19840.485137000011
 31
0.0
  0
LINE
  5
47BB
  8
2-0
  6
CONTINUOUS
 62
     6
 10
21360.584696000002
 20
19679.239492000019
 30
0.0
 11
21411.929448999999
 21
19693.67810100002
 31
0.0
  0
LINE
  5
47BC
  8
2-0
  6
CONTINUOUS
 62
     6
 10
22803.7448
 20
19815.47787900002
 30
0.0
 11
22952.614495000002
 21
19285.855703000001
 31
0.0
  0
LINE
  5
47BD
  8
2-0
  6
CONTINUOUS
 62
     6
 10
22952.614495000002
 20
19285.855703000001
 30
0.0
 11
23977.65870399999
 21
19285.855703000001
 31
0.0
  0
LINE
  5
47BE
  8
2-0
  6
CONTINUOUS
 62
     6
 10
22821.36845399997
 20
19654.23223400001
 30
0.0
 11
22872.719144999999
 21
19668.66688400002
 31
0.0
  0
LINE
  5
47BF
  8
2-0
  6
CONTINUOUS
 62
     6
 10
22872.719144999999
 20
19668.66688400002
 30
0.0
 11
22821.36845399997
 21
19654.23223400001
 31
0.0
  0
LINE
  5
47C0
  8
2-0
  6
CONTINUOUS
 62
     6
 10
22821.36845399997
 20
19654.23223400001
 30
0.0
 11
22803.7448
 21
19815.47787900002
 31
0.0
  0
LINE
  5
47C1
  8
2-0
  6
CONTINUOUS
 62
     6
 10
22803.7448
 20
19815.47787900002
 30
0.0
 11
22872.719144999999
 21
19668.66688400002
 31
0.0
  0
LINE
  5
47C2
  8
2-0
  6
CONTINUOUS
 62
     6
 10
22872.719144999999
 20
19668.66688400002
 30
0.0
 11
22803.7448
 21
19815.47787900002
 31
0.0
  0
LINE
  5
47C3
  8
2-0
  6
CONTINUOUS
 62
     6
 10
22821.36845399997
 20
19654.23223400001
 30
0.0
 11
22803.7448
 21
19815.47787900002
 31
0.0
  0
LINE
  5
47C4
  8
2-0
  6
CONTINUOUS
 62
     6
 10
22872.719144999999
 20
19668.66688400002
 30
0.0
 11
22803.7448
 21
19815.47787900002
 31
0.0
  0
LINE
  5
47C5
  8
2-0
  6
CONTINUOUS
 62
     6
 10
22803.7448
 20
19815.47787900002
 30
0.0
 11
22821.36845399997
 21
19654.23223400001
 31
0.0
  0
LINE
  5
47C6
  8
2-0
  6
CONTINUOUS
 62
     4
 10
22762.321393999991
 20
20014.231442000018
 30
0.0
 11
22762.321393999991
 21
20744.228406999999
 31
0.0
  0
LINE
  5
47C7
  8
2-0
  6
CONTINUOUS
 62
     6
 10
25476.496303999971
 20
15425.725820000011
 30
0.0
 11
25631.815270999981
 21
15472.473141
 31
0.0
  0
LINE
  5
47C8
  8
2-0
  6
CONTINUOUS
 62
     6
 10
25631.815270999981
 20
15472.473141
 30
0.0
 11
25500.054554999981
 21
15377.880856000011
 31
0.0
  0
LINE
  5
47C9
  8
2-0
  6
CONTINUOUS
 62
     6
 10
25476.496303999971
 20
15425.725820000011
 30
0.0
 11
25500.054554999981
 21
15377.880856000011
 31
0.0
  0
LINE
  5
47CA
  8
2-0
  6
CONTINUOUS
 62
     6
 10
25500.054554999981
 20
15377.880856000011
 30
0.0
 11
25631.815270999981
 21
15472.473141
 31
0.0
  0
LINE
  5
47CB
  8
2-0
  6
CONTINUOUS
 62
     6
 10
25631.815270999981
 20
15472.473141
 30
0.0
 11
25476.496303999971
 21
15425.725820000011
 31
0.0
  0
LINE
  5
47CC
  8
2-0
  6
CONTINUOUS
 62
     6
 10
25476.496303999971
 20
15425.725820000011
 30
0.0
 11
25631.815270999981
 21
15472.473141
 31
0.0
  0
LINE
  5
47CD
  8
2-0
  6
CONTINUOUS
 62
     6
 10
25500.054554999981
 20
15377.880856000011
 30
0.0
 11
25631.815270999981
 21
15472.473141
 31
0.0
  0
LINE
  5
47CE
  8
2-0
  6
CONTINUOUS
 62
     6
 10
25500.054554999981
 20
15377.880856000011
 30
0.0
 11
25476.496303999971
 21
15425.725820000011
 31
0.0
  0
LINE
  5
47CF
  8
2-0
  6
CONTINUOUS
 62
     6
 10
25446.18195699999
 20
13554.46088099999
 30
0.0
 11
25577.928815999981
 21
13649.087808
 31
0.0
  0
LINE
  5
47D0
  8
2-0
  6
CONTINUOUS
 62
     6
 10
25577.928815999981
 20
13649.087808
 30
0.0
 11
25483.99867999999
 21
13516.84903799998
 31
0.0
  0
LINE
  5
47D1
  8
2-0
  6
CONTINUOUS
 62
     6
 10
25446.18195699999
 20
13554.46088099999
 30
0.0
 11
25483.99867999999
 21
13516.84903799998
 31
0.0
  0
LINE
  5
47D2
  8
2-0
  6
CONTINUOUS
 62
     6
 10
25483.99867999999
 20
13516.84903799998
 30
0.0
 11
25577.928815999981
 21
13649.087808
 31
0.0
  0
LINE
  5
47D3
  8
2-0
  6
CONTINUOUS
 62
     6
 10
25577.928815999981
 20
13649.087808
 30
0.0
 11
25446.18195699999
 21
13554.46088099999
 31
0.0
  0
LINE
  5
47D4
  8
2-0
  6
CONTINUOUS
 62
     6
 10
25446.18195699999
 20
13554.46088099999
 30
0.0
 11
25577.928815999981
 21
13649.087808
 31
0.0
  0
LINE
  5
47D5
  8
2-0
  6
CONTINUOUS
 62
     6
 10
25483.99867999999
 20
13516.84903799998
 30
0.0
 11
25577.928815999981
 21
13649.087808
 31
0.0
  0
LINE
  5
47D6
  8
2-0
  6
CONTINUOUS
 62
     6
 10
25483.99867999999
 20
13516.84903799998
 30
0.0
 11
25446.18195699999
 21
13554.46088099999
 31
0.0
  0
LINE
  5
47D7
  8
2-0
  6
CONTINUOUS
 62
     6
 10
25509.217745999991
 20
13881.365507999981
 30
0.0
 11
25641.817777999971
 21
13787.937179999981
 31
0.0
  0
LINE
  5
47D8
  8
2-0
  6
CONTINUOUS
 62
     6
 10
25641.817777999971
 20
13787.937179999981
 30
0.0
 11
25486.08509199999
 21
13833.312694
 31
0.0
  0
LINE
  5
47D9
  8
2-0
  6
CONTINUOUS
 62
     6
 10
25509.217745999991
 20
13881.365507999981
 30
0.0
 11
25486.08509199999
 21
13833.312694
 31
0.0
  0
LINE
  5
47DA
  8
2-0
  6
CONTINUOUS
 62
     6
 10
25486.08509199999
 20
13833.312694
 30
0.0
 11
25641.817777999971
 21
13787.937179999981
 31
0.0
  0
LINE
  5
47DB
  8
2-0
  6
CONTINUOUS
 62
     6
 10
25641.817777999971
 20
13787.937179999981
 30
0.0
 11
25509.217745999991
 21
13881.365507999981
 31
0.0
  0
LINE
  5
47DC
  8
2-0
  6
CONTINUOUS
 62
     6
 10
25509.217745999991
 20
13881.365507999981
 30
0.0
 11
25641.817777999971
 21
13787.937179999981
 31
0.0
  0
LINE
  5
47DD
  8
2-0
  6
CONTINUOUS
 62
     6
 10
25486.08509199999
 20
13833.312694
 30
0.0
 11
25641.817777999971
 21
13787.937179999981
 31
0.0
  0
LINE
  5
47DE
  8
2-0
  6
CONTINUOUS
 62
     6
 10
25486.08509199999
 20
13833.312694
 30
0.0
 11
25509.217745999991
 21
13881.365507999981
 31
0.0
  0
LINE
  5
47DF
  8
2-0
  6
CONTINUOUS
 62
     6
 10
25568.98139199998
 20
16611.686441000009
 30
0.0
 11
25722.819677999989
 21
16663.120272000011
 31
0.0
  0
LINE
  5
47E0
  8
2-0
  6
CONTINUOUS
 62
     6
 10
25722.819677999989
 20
16663.120272000011
 30
0.0
 11
25593.98469099998
 21
16564.579837000008
 31
0.0
  0
LINE
  5
47E1
  8
2-0
  6
CONTINUOUS
 62
     6
 10
25568.98139199998
 20
16611.686441000009
 30
0.0
 11
25593.98469099998
 21
16564.579837000008
 31
0.0
  0
LINE
  5
47E2
  8
2-0
  6
CONTINUOUS
 62
     6
 10
25593.98469099998
 20
16564.579837000008
 30
0.0
 11
25722.819677999989
 21
16663.120272000011
 31
0.0
  0
LINE
  5
47E3
  8
2-0
  6
CONTINUOUS
 62
     6
 10
25722.819677999989
 20
16663.120272000011
 30
0.0
 11
25568.98139199998
 21
16611.686441000009
 31
0.0
  0
LINE
  5
47E4
  8
2-0
  6
CONTINUOUS
 62
     6
 10
25568.98139199998
 20
16611.686441000009
 30
0.0
 11
25722.819677999989
 21
16663.120272000011
 31
0.0
  0
LINE
  5
47E5
  8
2-0
  6
CONTINUOUS
 62
     6
 10
25593.98469099998
 20
16564.579837000008
 30
0.0
 11
25722.819677999989
 21
16663.120272000011
 31
0.0
  0
LINE
  5
47E6
  8
2-0
  6
CONTINUOUS
 62
     6
 10
25593.98469099998
 20
16564.579837000008
 30
0.0
 11
25568.98139199998
 21
16611.686441000009
 31
0.0
  0
LINE
  5
47E7
  8
2-0
  6
CONTINUOUS
 62
     6
 10
25435.045184999992
 20
17103.004933000011
 30
0.0
 11
25577.928815999981
 21
17026.229304000011
 31
0.0
  0
LINE
  5
47E8
  8
2-0
  6
CONTINUOUS
 62
     6
 10
25577.928815999981
 20
17026.229304000011
 30
0.0
 11
25417.86692299999
 21
17052.511373000019
 31
0.0
  0
LINE
  5
47E9
  8
2-0
  6
CONTINUOUS
 62
     6
 10
25435.045184999992
 20
17103.004933000011
 30
0.0
 11
25417.86692299999
 21
17052.511373000019
 31
0.0
  0
LINE
  5
47EA
  8
2-0
  6
CONTINUOUS
 62
     6
 10
25417.86692299999
 20
17052.511373000019
 30
0.0
 11
25577.928815999981
 21
17026.229304000011
 31
0.0
  0
LINE
  5
47EB
  8
2-0
  6
CONTINUOUS
 62
     6
 10
25577.928815999981
 20
17026.229304000011
 30
0.0
 11
25435.045184999992
 21
17103.004933000011
 31
0.0
  0
LINE
  5
47EC
  8
2-0
  6
CONTINUOUS
 62
     6
 10
25435.045184999992
 20
17103.004933000011
 30
0.0
 11
25577.928815999981
 21
17026.229304000011
 31
0.0
  0
LINE
  5
47ED
  8
2-0
  6
CONTINUOUS
 62
     6
 10
25417.86692299999
 20
17052.511373000019
 30
0.0
 11
25577.928815999981
 21
17026.229304000011
 31
0.0
  0
LINE
  5
47EE
  8
2-0
  6
CONTINUOUS
 62
     6
 10
25417.86692299999
 20
17052.511373000019
 30
0.0
 11
25435.045184999992
 21
17103.004933000011
 31
0.0
  0
LINE
  5
47EF
  8
2-0
  6
CONTINUOUS
 62
     6
 10
25476.496303999971
 20
18343.485307999988
 30
0.0
 11
25631.815270999981
 21
18390.22965999999
 31
0.0
  0
LINE
  5
47F0
  8
2-0
  6
CONTINUOUS
 62
     6
 10
25631.815270999981
 20
18390.22965999999
 30
0.0
 11
25500.054554999981
 21
18295.634406000008
 31
0.0
  0
LINE
  5
47F1
  8
2-0
  6
CONTINUOUS
 62
     6
 10
25476.496303999971
 20
18343.485307999988
 30
0.0
 11
25500.054554999981
 21
18295.634406000008
 31
0.0
  0
LINE
  5
47F2
  8
2-0
  6
CONTINUOUS
 62
     6
 10
25500.054554999981
 20
18295.634406000008
 30
0.0
 11
25631.815270999981
 21
18390.22965999999
 31
0.0
  0
LINE
  5
47F3
  8
2-0
  6
CONTINUOUS
 62
     6
 10
25631.815270999981
 20
18390.22965999999
 30
0.0
 11
25476.496303999971
 21
18343.485307999988
 31
0.0
  0
LINE
  5
47F4
  8
2-0
  6
CONTINUOUS
 62
     6
 10
25476.496303999971
 20
18343.485307999988
 30
0.0
 11
25631.815270999981
 21
18390.22965999999
 31
0.0
  0
LINE
  5
47F5
  8
2-0
  6
CONTINUOUS
 62
     6
 10
25500.054554999981
 20
18295.634406000008
 30
0.0
 11
25631.815270999981
 21
18390.22965999999
 31
0.0
  0
LINE
  5
47F6
  8
2-0
  6
CONTINUOUS
 62
     6
 10
25500.054554999981
 20
18295.634406000008
 30
0.0
 11
25476.496303999971
 21
18343.485307999988
 31
0.0
  0
LINE
  5
47F7
  8
2-0
  6
CONTINUOUS
 62
     3
 10
22022.82197499997
 20
19934.229199000009
 30
0.0
 11
21985.820812999991
 21
19934.229199000009
 31
0.0
  0
LINE
  5
47F8
  8
2-0
  6
CONTINUOUS
 62
     3
 10
22022.82197499997
 20
19904.22563600001
 30
0.0
 11
22022.82197499997
 21
19934.229199000009
 31
0.0
  0
LINE
  5
47F9
  8
2-0
  6
CONTINUOUS
 62
     3
 10
22016.82205399996
 20
19904.22563600001
 30
0.0
 11
22022.82197499997
 21
19904.22563600001
 31
0.0
  0
LINE
  5
47FA
  8
2-0
  6
CONTINUOUS
 62
     3
 10
22032.919498999981
 20
19904.22563600001
 30
0.0
 11
22032.919498999981
 21
19934.229199000009
 31
0.0
  0
LINE
  5
47FB
  8
2-0
  6
CONTINUOUS
 62
     3
 10
22014.915777999991
 20
19904.22563600001
 30
0.0
 11
22032.919498999981
 21
19904.22563600001
 31
0.0
  0
LINE
  5
47FC
  8
2-0
  6
CONTINUOUS
 62
     3
 10
22014.915777999991
 20
19929.234873000001
 30
0.0
 11
22014.915777999991
 21
19904.22563600001
 31
0.0
  0
LINE
  5
47FD
  8
2-0
  6
CONTINUOUS
 62
     3
 10
22019.916041999979
 20
19929.234873000001
 30
0.0
 11
22014.915777999991
 21
19929.234873000001
 31
0.0
  0
LINE
  5
47FE
  8
2-0
  6
CONTINUOUS
 62
     3
 10
22019.916041999979
 20
19922.229357000011
 30
0.0
 11
22019.916041999979
 21
19929.234873000001
 31
0.0
  0
LINE
  5
47FF
  8
2-0
  6
CONTINUOUS
 62
     3
 10
21988.726746999972
 20
19922.229357000011
 30
0.0
 11
21988.726746999972
 21
19929.234873000001
 31
0.0
  0
LINE
  5
4800
  8
2-0
  6
CONTINUOUS
 62
     3
 10
21988.726746999972
 20
19929.234873000001
 30
0.0
 11
21993.727010999992
 21
19929.234873000001
 31
0.0
  0
LINE
  5
4801
  8
2-0
  6
CONTINUOUS
 62
     3
 10
21993.727010999992
 20
19929.234873000001
 30
0.0
 11
21993.727010999992
 21
19904.22563600001
 31
0.0
  0
LINE
  5
4802
  8
2-0
  6
CONTINUOUS
 62
     3
 10
21993.727010999992
 20
19904.22563600001
 30
0.0
 11
21975.727247999981
 21
19904.22563600001
 31
0.0
  0
LINE
  5
4803
  8
2-0
  6
CONTINUOUS
 62
     3
 10
21975.727247999981
 20
19904.22563600001
 30
0.0
 11
21975.727247999981
 21
19934.229199000009
 31
0.0
  0
LINE
  5
4804
  8
2-0
  6
CONTINUOUS
 62
     3
 10
21991.820733999979
 20
19904.22563600001
 30
0.0
 11
21985.820812999991
 21
19904.22563600001
 31
0.0
  0
LINE
  5
4805
  8
2-0
  6
CONTINUOUS
 62
     3
 10
21985.820812999991
 20
19904.22563600001
 30
0.0
 11
21985.820812999991
 21
19934.229199000009
 31
0.0
  0
LINE
  5
4806
  8
2-0
  6
CONTINUOUS
 62
     3
 10
19831.822713999991
 20
19825.228987999999
 30
0.0
 11
19831.822713999991
 21
19819.23302600002
 31
0.0
  0
LINE
  5
4807
  8
2-0
  6
CONTINUOUS
 62
     3
 10
19831.822713999991
 20
19819.23302600002
 30
0.0
 11
19801.825088999991
 21
19819.23302600002
 31
0.0
  0
LINE
  5
4808
  8
2-0
  6
CONTINUOUS
 62
     3
 10
19801.825088999991
 20
19819.23302600002
 30
0.0
 11
19801.825088999991
 21
19934.229199000009
 31
0.0
  0
LINE
  5
4809
  8
2-0
  6
CONTINUOUS
 62
     3
 10
19801.825088999991
 20
19849.23263000001
 30
0.0
 11
19882.823029999989
 21
19849.23263000001
 31
0.0
  0
LINE
  5
480A
  8
2-0
  6
CONTINUOUS
 62
     3
 10
19831.822713999991
 20
19808.935570000001
 30
0.0
 11
19801.825088999991
 21
19808.935570000001
 31
0.0
  0
LINE
  5
480B
  8
2-0
  6
CONTINUOUS
 62
     3
 10
19831.822713999991
 20
19826.93731200002
 30
0.0
 11
19831.822713999991
 21
19808.935570000001
 31
0.0
  0
LINE
  5
480C
  8
2-0
  6
CONTINUOUS
 62
     3
 10
19806.829311999991
 20
19826.93731200002
 30
0.0
 11
19831.822713999991
 21
19826.93731200002
 31
0.0
  0
LINE
  5
480D
  8
2-0
  6
CONTINUOUS
 62
     3
 10
19806.829311999991
 20
19821.929130000019
 30
0.0
 11
19806.829311999991
 21
19826.93731200002
 31
0.0
  0
LINE
  5
480E
  8
2-0
  6
CONTINUOUS
 62
     3
 10
19813.82690999996
 20
19821.929130000019
 30
0.0
 11
19806.829311999991
 21
19821.929130000019
 31
0.0
  0
LINE
  5
480F
  8
2-0
  6
CONTINUOUS
 62
     3
 10
19914.121198999968
 20
19922.229357000011
 30
0.0
 11
19914.121198999968
 21
19929.234873000001
 31
0.0
  0
LINE
  5
4810
  8
2-0
  6
CONTINUOUS
 62
     3
 10
19914.121198999968
 20
19929.234873000001
 30
0.0
 11
19909.118954999991
 21
19929.234873000001
 31
0.0
  0
LINE
  5
4811
  8
2-0
  6
CONTINUOUS
 62
     3
 10
19909.118954999991
 20
19929.234873000001
 30
0.0
 11
19909.118954999991
 21
19904.22563600001
 31
0.0
  0
LINE
  5
4812
  8
2-0
  6
CONTINUOUS
 62
     3
 10
19909.118954999991
 20
19904.22563600001
 30
0.0
 11
19927.126635999972
 21
19904.22563600001
 31
0.0
  0
LINE
  5
4813
  8
2-0
  6
CONTINUOUS
 62
     3
 10
19927.126635999972
 20
19904.22563600001
 30
0.0
 11
19927.126635999972
 21
19934.229199000009
 31
0.0
  0
LINE
  5
4814
  8
2-0
  6
CONTINUOUS
 62
     3
 10
19916.827199999982
 20
19934.229199000009
 30
0.0
 11
19801.825088999991
 21
19934.229199000009
 31
0.0
  0
LINE
  5
4815
  8
2-0
  6
CONTINUOUS
 62
     3
 10
19916.827199999982
 20
19904.22563600001
 30
0.0
 11
19916.827199999982
 21
19934.229199000009
 31
0.0
  0
LINE
  5
4816
  8
2-0
  6
CONTINUOUS
 62
     3
 10
19910.823320999989
 20
19904.22563600001
 30
0.0
 11
19916.827199999982
 21
19904.22563600001
 31
0.0
  0
LINE
  5
4817
  8
2-0
  6
CONTINUOUS
 62
     3
 10
20617.911092499991
 20
19922.229357000011
 30
0.0
 11
20617.911092499991
 21
19929.234873000001
 31
0.0
  0
LINE
  5
4818
  8
2-0
  6
CONTINUOUS
 62
     3
 10
20617.911092499991
 20
19929.234873000001
 30
0.0
 11
20612.910828499989
 21
19929.234873000001
 31
0.0
  0
LINE
  5
4819
  8
2-0
  6
CONTINUOUS
 62
     3
 10
20612.910828499989
 20
19929.234873000001
 30
0.0
 11
20612.910828499989
 21
19904.22563600001
 31
0.0
  0
LINE
  5
481A
  8
2-0
  6
CONTINUOUS
 62
     3
 10
20612.910828499989
 20
19904.22563600001
 30
0.0
 11
20630.916529499991
 21
19904.22563600001
 31
0.0
  0
LINE
  5
481B
  8
2-0
  6
CONTINUOUS
 62
     3
 10
20630.916529499991
 20
19904.22563600001
 30
0.0
 11
20630.916529499991
 21
19934.229199000009
 31
0.0
  0
LINE
  5
481C
  8
2-0
  6
CONTINUOUS
 62
     3
 10
20614.819084499981
 20
19904.22563600001
 30
0.0
 11
20620.820984499991
 21
19904.22563600001
 31
0.0
  0
LINE
  5
481D
  8
2-0
  6
CONTINUOUS
 62
     3
 10
20620.820984499991
 20
19904.22563600001
 30
0.0
 11
20620.820984499991
 21
19934.229199000009
 31
0.0
  0
LINE
  5
481E
  8
2-0
  6
CONTINUOUS
 62
     3
 10
20583.82180349997
 20
19934.229199000009
 30
0.0
 11
20620.820984499991
 21
19934.229199000009
 31
0.0
  0
LINE
  5
481F
  8
2-0
  6
CONTINUOUS
 62
     3
 10
20583.82180349997
 20
19904.22563600001
 30
0.0
 11
20583.82180349997
 21
19934.229199000009
 31
0.0
  0
LINE
  5
4820
  8
2-0
  6
CONTINUOUS
 62
     3
 10
20589.815785499992
 20
19904.22563600001
 30
0.0
 11
20583.82180349997
 21
19904.22563600001
 31
0.0
  0
LINE
  5
4821
  8
2-0
  6
CONTINUOUS
 62
     3
 10
20573.726258499992
 20
19904.22563600001
 30
0.0
 11
20573.726258499992
 21
19934.229199000009
 31
0.0
  0
LINE
  5
4822
  8
2-0
  6
CONTINUOUS
 62
     3
 10
20591.72206149999
 20
19904.22563600001
 30
0.0
 11
20573.726258499992
 21
19904.22563600001
 31
0.0
  0
LINE
  5
4823
  8
2-0
  6
CONTINUOUS
 62
     3
 10
20591.72206149999
 20
19929.234873000001
 30
0.0
 11
20591.72206149999
 21
19904.22563600001
 31
0.0
  0
LINE
  5
4824
  8
2-0
  6
CONTINUOUS
 62
     3
 10
20586.721797499991
 20
19929.234873000001
 30
0.0
 11
20591.72206149999
 21
19929.234873000001
 31
0.0
  0
LINE
  5
4825
  8
2-0
  6
CONTINUOUS
 62
     3
 10
20586.721797499991
 20
19922.229357000011
 30
0.0
 11
20586.721797499991
 21
19929.234873000001
 31
0.0
  0
LINE
  5
4826
  8
2-0
  6
CONTINUOUS
 62
     3
 10
21287.720808499991
 20
19922.229357000011
 30
0.0
 11
21287.720808499991
 21
19929.234873000001
 31
0.0
  0
LINE
  5
4827
  8
2-0
  6
CONTINUOUS
 62
     3
 10
21287.720808499991
 20
19929.234873000001
 30
0.0
 11
21292.721071499978
 21
19929.234873000001
 31
0.0
  0
LINE
  5
4828
  8
2-0
  6
CONTINUOUS
 62
     3
 10
21292.721071499978
 20
19929.234873000001
 30
0.0
 11
21292.721071499978
 21
19904.22563600001
 31
0.0
  0
LINE
  5
4829
  8
2-0
  6
CONTINUOUS
 62
     3
 10
21292.721071499978
 20
19904.22563600001
 30
0.0
 11
21274.727248499981
 21
19904.22563600001
 31
0.0
  0
LINE
  5
482A
  8
2-0
  6
CONTINUOUS
 62
     3
 10
21274.727248499981
 20
19904.22563600001
 30
0.0
 11
21274.727248499981
 21
19934.229199000009
 31
0.0
  0
LINE
  5
482B
  8
2-0
  6
CONTINUOUS
 62
     3
 10
21290.818754499971
 20
19904.22563600001
 30
0.0
 11
21284.820813499991
 21
19904.22563600001
 31
0.0
  0
LINE
  5
482C
  8
2-0
  6
CONTINUOUS
 62
     3
 10
21284.820813499991
 20
19904.22563600001
 30
0.0
 11
21284.820813499991
 21
19934.229199000009
 31
0.0
  0
LINE
  5
482D
  8
2-0
  6
CONTINUOUS
 62
     3
 10
21321.821974499991
 20
19934.229199000009
 30
0.0
 11
21284.820813499991
 21
19934.229199000009
 31
0.0
  0
LINE
  5
482E
  8
2-0
  6
CONTINUOUS
 62
     3
 10
21321.821974499991
 20
19904.22563600001
 30
0.0
 11
21321.821974499991
 21
19934.229199000009
 31
0.0
  0
LINE
  5
482F
  8
2-0
  6
CONTINUOUS
 62
     3
 10
21315.816115500002
 20
19904.22563600001
 30
0.0
 11
21321.821974499991
 21
19904.22563600001
 31
0.0
  0
LINE
  5
4830
  8
2-0
  6
CONTINUOUS
 62
     3
 10
21331.915539500002
 20
19904.22563600001
 30
0.0
 11
21331.915539500002
 21
19934.229199000009
 31
0.0
  0
LINE
  5
4831
  8
2-0
  6
CONTINUOUS
 62
     3
 10
21313.919736499989
 20
19904.22563600001
 30
0.0
 11
21331.915539500002
 21
19904.22563600001
 31
0.0
  0
LINE
  5
4832
  8
2-0
  6
CONTINUOUS
 62
     3
 10
21313.919736499989
 20
19929.234873000001
 30
0.0
 11
21313.919736499989
 21
19904.22563600001
 31
0.0
  0
LINE
  5
4833
  8
2-0
  6
CONTINUOUS
 62
     3
 10
21318.910102499991
 20
19929.234873000001
 30
0.0
 11
21313.919736499989
 21
19929.234873000001
 31
0.0
  0
LINE
  5
4834
  8
2-0
  6
CONTINUOUS
 62
     3
 10
21318.910102499991
 20
19922.229357000011
 30
0.0
 11
21318.910102499991
 21
19929.234873000001
 31
0.0
  0
LINE
  5
4835
  8
2-0
  6
CONTINUOUS
 62
     3
 10
20630.916529499991
 20
19934.229199000009
 30
0.0
 11
21274.727248499981
 21
19934.229199000009
 31
0.0
  0
LINE
  5
4836
  8
2-0
  6
CONTINUOUS
 62
     3
 10
19927.126635999979
 20
19934.229199000009
 30
0.0
 11
20573.726258499992
 21
19934.229199000009
 31
0.0
  0
LINE
  5
4837
  8
2-0
  6
CONTINUOUS
 62
     3
 10
21975.727247999981
 20
19934.229199000009
 30
0.0
 11
21331.915539500002
 21
19934.229199000009
 31
0.0
  0
LINE
  5
4838
  8
2-0
  6
CONTINUOUS
 62
     3
 10
19831.822713999991
 20
19825.228987999999
 30
0.0
 11
19831.822713999991
 21
19819.23302600002
 31
0.0
  0
LINE
  5
4839
  8
2-0
  6
CONTINUOUS
 62
     3
 10
19831.822713999991
 20
19819.23302600002
 30
0.0
 11
19801.825088999991
 21
19819.23302600002
 31
0.0
  0
LINE
  5
483A
  8
2-0
  6
CONTINUOUS
 62
     3
 10
19801.825088999991
 20
19819.23302600002
 30
0.0
 11
19801.825088999991
 21
19934.229199000009
 31
0.0
  0
LINE
  5
483B
  8
2-0
  6
CONTINUOUS
 62
     3
 10
19801.825088999991
 20
19849.23263000001
 30
0.0
 11
19882.823029999989
 21
19849.23263000001
 31
0.0
  0
LINE
  5
483C
  8
2-0
  6
CONTINUOUS
 62
     3
 10
19831.822713999991
 20
19808.935570000001
 30
0.0
 11
19801.825088999991
 21
19808.935570000001
 31
0.0
  0
LINE
  5
483D
  8
2-0
  6
CONTINUOUS
 62
     3
 10
19831.822713999991
 20
19826.93731200002
 30
0.0
 11
19831.822713999991
 21
19808.935570000001
 31
0.0
  0
LINE
  5
483E
  8
2-0
  6
CONTINUOUS
 62
     3
 10
19806.829311999991
 20
19826.93731200002
 30
0.0
 11
19831.822713999991
 21
19826.93731200002
 31
0.0
  0
LINE
  5
483F
  8
2-0
  6
CONTINUOUS
 62
     3
 10
19806.829311999991
 20
19821.929130000019
 30
0.0
 11
19806.829311999991
 21
19826.93731200002
 31
0.0
  0
LINE
  5
4840
  8
2-0
  6
CONTINUOUS
 62
     3
 10
19813.82690999996
 20
19821.929130000019
 30
0.0
 11
19806.829311999991
 21
19821.929130000019
 31
0.0
  0
LINE
  5
4841
  8
2-0
  6
CONTINUOUS
 62
     3
 10
19813.82690999996
 20
19118.132307499989
 30
0.0
 11
19806.829311999991
 21
19118.132307499989
 31
0.0
  0
LINE
  5
4842
  8
2-0
  6
CONTINUOUS
 62
     3
 10
19806.829311999991
 20
19118.132307499989
 30
0.0
 11
19806.829311999991
 21
19123.132571499991
 31
0.0
  0
LINE
  5
4843
  8
2-0
  6
CONTINUOUS
 62
     3
 10
19806.829311999991
 20
19123.132571499991
 30
0.0
 11
19831.822713999991
 21
19123.132571499991
 31
0.0
  0
LINE
  5
4844
  8
2-0
  6
CONTINUOUS
 62
     3
 10
19831.822713999991
 20
19123.132571499991
 30
0.0
 11
19831.822713999991
 21
19105.136767499989
 31
0.0
  0
LINE
  5
4845
  8
2-0
  6
CONTINUOUS
 62
     3
 10
19831.822713999991
 20
19105.136767499989
 30
0.0
 11
19801.825088999991
 21
19105.136767499989
 31
0.0
  0
LINE
  5
4846
  8
2-0
  6
CONTINUOUS
 62
     3
 10
19831.822713999991
 20
19121.22827449995
 30
0.0
 11
19831.822713999991
 21
19115.230333499989
 31
0.0
  0
LINE
  5
4847
  8
2-0
  6
CONTINUOUS
 62
     3
 10
19831.822713999991
 20
19115.230333499989
 30
0.0
 11
19801.825088999991
 21
19115.230333499989
 31
0.0
  0
LINE
  5
4848
  8
2-0
  6
CONTINUOUS
 62
     3
 10
19801.825088999991
 20
19115.230333499989
 30
0.0
 11
19801.825088999991
 21
19152.2314945
 31
0.0
  0
LINE
  5
4849
  8
2-0
  6
CONTINUOUS
 62
     3
 10
19831.822713999991
 20
19152.2314945
 30
0.0
 11
19801.825088999991
 21
19152.2314945
 31
0.0
  0
LINE
  5
484A
  8
2-0
  6
CONTINUOUS
 62
     3
 10
19831.822713999991
 20
19146.227614499981
 30
0.0
 11
19831.822713999991
 21
19152.2314945
 31
0.0
  0
LINE
  5
484B
  8
2-0
  6
CONTINUOUS
 62
     3
 10
19831.822713999991
 20
19162.327039499982
 30
0.0
 11
19801.825088999991
 21
19162.327039499982
 31
0.0
  0
LINE
  5
484C
  8
2-0
  6
CONTINUOUS
 62
     3
 10
19831.822713999991
 20
19144.3252975
 30
0.0
 11
19831.822713999991
 21
19162.327039499982
 31
0.0
  0
LINE
  5
484D
  8
2-0
  6
CONTINUOUS
 62
     3
 10
19806.829311999991
 20
19144.3252975
 30
0.0
 11
19831.822713999991
 21
19144.3252975
 31
0.0
  0
LINE
  5
484E
  8
2-0
  6
CONTINUOUS
 62
     3
 10
19806.829311999991
 20
19149.325561500002
 30
0.0
 11
19806.829311999991
 21
19144.3252975
 31
0.0
  0
LINE
  5
484F
  8
2-0
  6
CONTINUOUS
 62
     3
 10
19813.82690999996
 20
19149.325561500002
 30
0.0
 11
19806.829311999991
 21
19149.325561500002
 31
0.0
  0
LINE
  5
4850
  8
2-0
  6
CONTINUOUS
 62
     3
 10
19813.82690999996
 20
18417.131317999989
 30
0.0
 11
19806.829311999991
 21
18417.131317999989
 31
0.0
  0
LINE
  5
4851
  8
2-0
  6
CONTINUOUS
 62
     3
 10
19806.829311999991
 20
18417.131317999989
 30
0.0
 11
19806.829311999991
 21
18422.13752
 31
0.0
  0
LINE
  5
4852
  8
2-0
  6
CONTINUOUS
 62
     3
 10
19806.829311999991
 20
18422.13752
 30
0.0
 11
19831.822713999991
 21
18422.13752
 31
0.0
  0
LINE
  5
4853
  8
2-0
  6
CONTINUOUS
 62
     3
 10
19831.822713999991
 20
18422.13752
 30
0.0
 11
19831.822713999991
 21
18404.135778
 31
0.0
  0
LINE
  5
4854
  8
2-0
  6
CONTINUOUS
 62
     3
 10
19831.822713999991
 20
18404.135778
 30
0.0
 11
19801.825088999991
 21
18404.135778
 31
0.0
  0
LINE
  5
4855
  8
2-0
  6
CONTINUOUS
 62
     3
 10
19831.822713999991
 20
18420.22728499999
 30
0.0
 11
19831.822713999991
 21
18414.231322999989
 31
0.0
  0
LINE
  5
4856
  8
2-0
  6
CONTINUOUS
 62
     3
 10
19831.822713999991
 20
18414.231322999989
 30
0.0
 11
19801.825088999991
 21
18414.231322999989
 31
0.0
  0
LINE
  5
4857
  8
2-0
  6
CONTINUOUS
 62
     3
 10
19801.825088999991
 20
18414.231322999989
 30
0.0
 11
19801.825088999991
 21
18451.230504999989
 31
0.0
  0
LINE
  5
4858
  8
2-0
  6
CONTINUOUS
 62
     3
 10
19831.822713999991
 20
18451.230504999989
 30
0.0
 11
19801.825088999991
 21
18451.230504999989
 31
0.0
  0
LINE
  5
4859
  8
2-0
  6
CONTINUOUS
 62
     3
 10
19831.822713999991
 20
18445.23454300001
 30
0.0
 11
19831.822713999991
 21
18451.230504999989
 31
0.0
  0
LINE
  5
485A
  8
2-0
  6
CONTINUOUS
 62
     3
 10
19831.822713999991
 20
18461.32605
 30
0.0
 11
19801.825088999991
 21
18461.32605
 31
0.0
  0
LINE
  5
485B
  8
2-0
  6
CONTINUOUS
 62
     3
 10
19831.822713999991
 20
18443.324307999988
 30
0.0
 11
19831.822713999991
 21
18461.32605
 31
0.0
  0
LINE
  5
485C
  8
2-0
  6
CONTINUOUS
 62
     3
 10
19806.829311999991
 20
18443.324307999988
 30
0.0
 11
19831.822713999991
 21
18443.324307999988
 31
0.0
  0
LINE
  5
485D
  8
2-0
  6
CONTINUOUS
 62
     3
 10
19806.829311999991
 20
18448.330509999989
 30
0.0
 11
19806.829311999991
 21
18443.324307999988
 31
0.0
  0
LINE
  5
485E
  8
2-0
  6
CONTINUOUS
 62
     3
 10
19813.82690999996
 20
18448.330509999989
 30
0.0
 11
19806.829311999991
 21
18448.330509999989
 31
0.0
  0
LINE
  5
485F
  8
2-0
  6
CONTINUOUS
 62
     3
 10
19813.82690999996
 20
17747.324572000001
 30
0.0
 11
19806.829311999991
 21
17747.324572000001
 31
0.0
  0
LINE
  5
4860
  8
2-0
  6
CONTINUOUS
 62
     3
 10
19806.829311999991
 20
17747.324572000001
 30
0.0
 11
19806.829311999991
 21
17742.336185
 31
0.0
  0
LINE
  5
4861
  8
2-0
  6
CONTINUOUS
 62
     3
 10
19806.829311999991
 20
17742.336185
 30
0.0
 11
19831.822713999991
 21
17742.336185
 31
0.0
  0
LINE
  5
4862
  8
2-0
  6
CONTINUOUS
 62
     3
 10
19831.822713999991
 20
17742.336185
 30
0.0
 11
19831.822713999991
 21
17760.331988000002
 31
0.0
  0
LINE
  5
4863
  8
2-0
  6
CONTINUOUS
 62
     3
 10
19831.822713999991
 20
17760.331988000002
 30
0.0
 11
19801.825088999991
 21
17760.331988000002
 31
0.0
  0
LINE
  5
4864
  8
2-0
  6
CONTINUOUS
 62
     3
 10
19831.822713999991
 20
17744.234542999991
 30
0.0
 11
19831.822713999991
 21
17750.230504999981
 31
0.0
  0
LINE
  5
4865
  8
2-0
  6
CONTINUOUS
 62
     3
 10
19831.822713999991
 20
17750.230504999981
 30
0.0
 11
19801.825088999991
 21
17750.230504999981
 31
0.0
  0
LINE
  5
4866
  8
2-0
  6
CONTINUOUS
 62
     3
 10
19801.825088999991
 20
17750.230504999981
 30
0.0
 11
19801.825088999991
 21
17713.231323
 31
0.0
  0
LINE
  5
4867
  8
2-0
  6
CONTINUOUS
 62
     3
 10
19831.822713999991
 20
17713.231323
 30
0.0
 11
19801.825088999991
 21
17713.231323
 31
0.0
  0
LINE
  5
4868
  8
2-0
  6
CONTINUOUS
 62
     3
 10
19831.822713999991
 20
17719.233223999989
 30
0.0
 11
19831.822713999991
 21
17713.231323
 31
0.0
  0
LINE
  5
4869
  8
2-0
  6
CONTINUOUS
 62
     3
 10
19831.822713999991
 20
17703.141716999991
 30
0.0
 11
19801.825088999991
 21
17703.141716999991
 31
0.0
  0
LINE
  5
486A
  8
2-0
  6
CONTINUOUS
 62
     3
 10
19831.822713999991
 20
17721.13752
 30
0.0
 11
19831.822713999991
 21
17703.141716999991
 31
0.0
  0
LINE
  5
486B
  8
2-0
  6
CONTINUOUS
 62
     3
 10
19806.829311999991
 20
17721.13752
 30
0.0
 11
19831.822713999991
 21
17721.13752
 31
0.0
  0
LINE
  5
486C
  8
2-0
  6
CONTINUOUS
 62
     3
 10
19806.829311999991
 20
17716.137256999991
 30
0.0
 11
19806.829311999991
 21
17721.13752
 31
0.0
  0
LINE
  5
486D
  8
2-0
  6
CONTINUOUS
 62
     3
 10
19813.82690999996
 20
17716.137256999991
 30
0.0
 11
19806.829311999991
 21
17716.137256999991
 31
0.0
  0
LINE
  5
486E
  8
2-0
  6
CONTINUOUS
 62
     3
 10
19804.711226999982
 20
16996.228143
 30
0.0
 11
19804.711226999982
 21
17016.229198000001
 31
0.0
  0
LINE
  5
486F
  8
2-0
  6
CONTINUOUS
 62
     3
 10
19804.711226999982
 20
17016.229198000001
 30
0.0
 11
19889.711754999978
 21
17016.229198000001
 31
0.0
  0
LINE
  5
4870
  8
2-0
  6
CONTINUOUS
 62
     3
 10
19813.82690999996
 20
17042.835908000001
 30
0.0
 11
19806.829311999991
 21
17042.835908000001
 31
0.0
  0
LINE
  5
4871
  8
2-0
  6
CONTINUOUS
 62
     3
 10
19806.829311999991
 20
17042.835908000001
 30
0.0
 11
19806.829311999991
 21
17037.841582000001
 31
0.0
  0
LINE
  5
4872
  8
2-0
  6
CONTINUOUS
 62
     3
 10
19806.829311999991
 20
17037.841582000001
 30
0.0
 11
19831.822713999991
 21
17037.841582000001
 31
0.0
  0
LINE
  5
4873
  8
2-0
  6
CONTINUOUS
 62
     3
 10
19831.822713999991
 20
17037.841582000001
 30
0.0
 11
19831.822713999991
 21
17055.83738600001
 31
0.0
  0
LINE
  5
4874
  8
2-0
  6
CONTINUOUS
 62
     3
 10
19831.822713999991
 20
17055.83738600001
 30
0.0
 11
19801.825088999991
 21
17055.83738600001
 31
0.0
  0
LINE
  5
4875
  8
2-0
  6
CONTINUOUS
 62
     3
 10
19831.822713999991
 20
17046.228802000001
 30
0.0
 11
19831.822713999991
 21
17040.226901999991
 31
0.0
  0
LINE
  5
4876
  8
2-0
  6
CONTINUOUS
 62
     3
 10
19801.825088999991
 20
17046.228802000001
 30
0.0
 11
19831.822713999991
 21
17046.228802000001
 31
0.0
  0
LINE
  5
4877
  8
2-0
  6
CONTINUOUS
 62
     3
 10
19801.825088999991
 20
17055.83738600001
 30
0.0
 11
19801.825088999991
 21
17703.141716999991
 31
0.0
  0
LINE
  5
4878
  8
2-0
  6
CONTINUOUS
 62
     3
 10
19801.825088999991
 20
17760.331988000002
 30
0.0
 11
19801.825088999991
 21
18404.135778
 31
0.0
  0
LINE
  5
4879
  8
2-0
  6
CONTINUOUS
 62
     3
 10
19801.825088999991
 20
16901.22708700001
 30
0.0
 11
19831.822713999991
 21
16901.22708700001
 31
0.0
  0
LINE
  5
487A
  8
2-0
  6
CONTINUOUS
 62
     3
 10
19831.822713999991
 20
16901.22708700001
 30
0.0
 11
19831.822713999991
 21
16907.22898700001
 31
0.0
  0
LINE
  5
487B
  8
2-0
  6
CONTINUOUS
 62
     3
 10
19889.711754999978
 20
16931.232629999991
 30
0.0
 11
19804.711226999982
 21
16931.232629999991
 31
0.0
  0
LINE
  5
487C
  8
2-0
  6
CONTINUOUS
 62
     3
 10
19804.711226999982
 20
16931.232629999991
 30
0.0
 11
19804.711226999982
 21
16951.227747000012
 31
0.0
  0
LINE
  5
487D
  8
2-0
  6
CONTINUOUS
 62
     3
 10
19831.822713999991
 20
16891.618503999998
 30
0.0
 11
19801.825088999991
 21
16891.618503999998
 31
0.0
  0
LINE
  5
487E
  8
2-0
  6
CONTINUOUS
 62
     3
 10
19831.822713999991
 20
16909.614306999982
 30
0.0
 11
19831.822713999991
 21
16891.618503999998
 31
0.0
  0
LINE
  5
487F
  8
2-0
  6
CONTINUOUS
 62
     3
 10
19806.829311999991
 20
16909.614306999982
 30
0.0
 11
19831.822713999991
 21
16909.614306999982
 31
0.0
  0
LINE
  5
4880
  8
2-0
  6
CONTINUOUS
 62
     3
 10
19806.829311999991
 20
16904.614043000009
 30
0.0
 11
19806.829311999991
 21
16909.614306999982
 31
0.0
  0
LINE
  5
4881
  8
2-0
  6
CONTINUOUS
 62
     3
 10
19813.82690999996
 20
16904.614043000009
 30
0.0
 11
19806.829311999991
 21
16904.614043000009
 31
0.0
  0
LINE
  5
4882
  8
2-0
  6
CONTINUOUS
 62
     3
 10
19813.82690999996
 20
16200.131812499991
 30
0.0
 11
19806.829311999991
 21
16200.131812499991
 31
0.0
  0
LINE
  5
4883
  8
2-0
  6
CONTINUOUS
 62
     3
 10
19806.829311999991
 20
16200.131812499991
 30
0.0
 11
19806.829311999991
 21
16205.13207649998
 31
0.0
  0
LINE
  5
4884
  8
2-0
  6
CONTINUOUS
 62
     3
 10
19806.829311999991
 20
16205.13207649998
 30
0.0
 11
19831.822713999991
 21
16205.13207649998
 31
0.0
  0
LINE
  5
4885
  8
2-0
  6
CONTINUOUS
 62
     3
 10
19831.822713999991
 20
16205.13207649998
 30
0.0
 11
19831.822713999991
 21
16187.130334499991
 31
0.0
  0
LINE
  5
4886
  8
2-0
  6
CONTINUOUS
 62
     3
 10
19831.822713999991
 20
16187.130334499991
 30
0.0
 11
19801.825088999991
 21
16187.130334499991
 31
0.0
  0
LINE
  5
4887
  8
2-0
  6
CONTINUOUS
 62
     3
 10
19831.822713999991
 20
16203.227779500001
 30
0.0
 11
19831.822713999991
 21
16197.2308285
 31
0.0
  0
LINE
  5
4888
  8
2-0
  6
CONTINUOUS
 62
     3
 10
19831.822713999991
 20
16197.2308285
 30
0.0
 11
19801.825088999991
 21
16197.2308285
 31
0.0
  0
LINE
  5
4889
  8
2-0
  6
CONTINUOUS
 62
     3
 10
19801.825088999991
 20
16197.2308285
 30
0.0
 11
19801.825088999991
 21
16234.2309995
 31
0.0
  0
LINE
  5
488A
  8
2-0
  6
CONTINUOUS
 62
     3
 10
19831.822713999991
 20
16234.2309995
 30
0.0
 11
19801.825088999991
 21
16234.2309995
 31
0.0
  0
LINE
  5
488B
  8
2-0
  6
CONTINUOUS
 62
     3
 10
19831.822713999991
 20
16228.228109499991
 30
0.0
 11
19831.822713999991
 21
16234.2309995
 31
0.0
  0
LINE
  5
488C
  8
2-0
  6
CONTINUOUS
 62
     3
 10
19831.822713999991
 20
16244.3265445
 30
0.0
 11
19801.825088999991
 21
16244.3265445
 31
0.0
  0
LINE
  5
488D
  8
2-0
  6
CONTINUOUS
 62
     3
 10
19831.822713999991
 20
16226.318863500001
 30
0.0
 11
19831.822713999991
 21
16244.3265445
 31
0.0
  0
LINE
  5
488E
  8
2-0
  6
CONTINUOUS
 62
     3
 10
19806.829311999991
 20
16226.318863500001
 30
0.0
 11
19831.822713999991
 21
16226.318863500001
 31
0.0
  0
LINE
  5
488F
  8
2-0
  6
CONTINUOUS
 62
     3
 10
19806.829311999991
 20
16231.3250665
 30
0.0
 11
19806.829311999991
 21
16226.318863500001
 31
0.0
  0
LINE
  5
4890
  8
2-0
  6
CONTINUOUS
 62
     3
 10
19813.82690999996
 20
16231.3250665
 30
0.0
 11
19806.829311999991
 21
16231.3250665
 31
0.0
  0
LINE
  5
4891
  8
2-0
  6
CONTINUOUS
 62
     3
 10
19813.82690999996
 20
15530.565083
 30
0.0
 11
19806.829311999991
 21
15530.565083
 31
0.0
  0
LINE
  5
4892
  8
2-0
  6
CONTINUOUS
 62
     3
 10
19806.829311999991
 20
15530.565083
 30
0.0
 11
19806.829311999991
 21
15525.570758000011
 31
0.0
  0
LINE
  5
4893
  8
2-0
  6
CONTINUOUS
 62
     3
 10
19806.829311999991
 20
15525.570758000011
 30
0.0
 11
19831.822713999991
 21
15525.570758000011
 31
0.0
  0
LINE
  5
4894
  8
2-0
  6
CONTINUOUS
 62
     3
 10
19831.822713999991
 20
15525.570758000011
 30
0.0
 11
19831.822713999991
 21
15543.566561000011
 31
0.0
  0
LINE
  5
4895
  8
2-0
  6
CONTINUOUS
 62
     3
 10
19831.822713999991
 20
15543.566561000011
 30
0.0
 11
19801.825088999991
 21
15543.566561000011
 31
0.0
  0
LINE
  5
4896
  8
2-0
  6
CONTINUOUS
 62
     3
 10
19831.822713999991
 20
15527.469116
 30
0.0
 11
19831.822713999991
 21
15533.47101600001
 31
0.0
  0
LINE
  5
4897
  8
2-0
  6
CONTINUOUS
 62
     3
 10
19831.822713999991
 20
15533.47101600001
 30
0.0
 11
19801.825088999991
 21
15533.47101600001
 31
0.0
  0
LINE
  5
4898
  8
2-0
  6
CONTINUOUS
 62
     3
 10
19801.825088999991
 20
15496.471835
 30
0.0
 11
19801.825088999991
 21
15533.47101600001
 31
0.0
  0
LINE
  5
4899
  8
2-0
  6
CONTINUOUS
 62
     3
 10
19831.822713999991
 20
15496.471835
 30
0.0
 11
19801.825088999991
 21
15496.471835
 31
0.0
  0
LINE
  5
489A
  8
2-0
  6
CONTINUOUS
 62
     3
 10
19831.822713999991
 20
15502.468785999999
 30
0.0
 11
19831.822713999991
 21
15496.471835
 31
0.0
  0
LINE
  5
489B
  8
2-0
  6
CONTINUOUS
 62
     3
 10
19831.822713999991
 20
15486.370351
 30
0.0
 11
19801.825088999991
 21
15486.370351
 31
0.0
  0
LINE
  5
489C
  8
2-0
  6
CONTINUOUS
 62
     3
 10
19831.822713999991
 20
15504.378032000001
 30
0.0
 11
19831.822713999991
 21
15486.370351
 31
0.0
  0
LINE
  5
489D
  8
2-0
  6
CONTINUOUS
 62
     3
 10
19806.829311999991
 20
15504.378032000001
 30
0.0
 11
19831.822713999991
 21
15504.378032000001
 31
0.0
  0
LINE
  5
489E
  8
2-0
  6
CONTINUOUS
 62
     3
 10
19806.829311999991
 20
15499.377768000009
 30
0.0
 11
19806.829311999991
 21
15504.378032000001
 31
0.0
  0
LINE
  5
489F
  8
2-0
  6
CONTINUOUS
 62
     3
 10
19813.82690999996
 20
15499.377768000009
 30
0.0
 11
19806.829311999991
 21
15499.377768000009
 31
0.0
  0
LINE
  5
48A0
  8
2-0
  6
CONTINUOUS
 62
     3
 10
19801.825088999991
 20
16891.618503999998
 30
0.0
 11
19801.825088999991
 21
16244.3265445
 31
0.0
  0
LINE
  5
48A1
  8
2-0
  6
CONTINUOUS
 62
     3
 10
19801.825088999991
 20
17046.228802000001
 30
0.0
 11
19801.825088999991
 21
16901.22708700001
 31
0.0
  0
LINE
  5
48A2
  8
2-0
  6
CONTINUOUS
 62
     3
 10
19889.711754999978
 20
17016.229198000001
 30
0.0
 11
19889.711754999978
 21
16931.232629999991
 31
0.0
  0
LINE
  5
48A3
  8
2-0
  6
CONTINUOUS
 62
     3
 10
19813.82690999996
 20
14798.136761
 30
0.0
 11
19806.829311999991
 21
14798.136761
 31
0.0
  0
LINE
  5
48A4
  8
2-0
  6
CONTINUOUS
 62
     3
 10
19806.829311999991
 20
14798.136761
 30
0.0
 11
19806.829311999991
 21
14803.131087000011
 31
0.0
  0
LINE
  5
48A5
  8
2-0
  6
CONTINUOUS
 62
     3
 10
19806.829311999991
 20
14803.131087000011
 30
0.0
 11
19831.822713999991
 21
14803.131087000011
 31
0.0
  0
LINE
  5
48A6
  8
2-0
  6
CONTINUOUS
 62
     3
 10
19831.822713999991
 20
14803.131087000011
 30
0.0
 11
19831.822713999991
 21
14785.135283000011
 31
0.0
  0
LINE
  5
48A7
  8
2-0
  6
CONTINUOUS
 62
     3
 10
19831.822713999991
 20
14785.135283000011
 30
0.0
 11
19801.825088999991
 21
14785.135283000011
 31
0.0
  0
LINE
  5
48A8
  8
2-0
  6
CONTINUOUS
 62
     3
 10
19831.822713999991
 20
14801.23371800001
 30
0.0
 11
19831.822713999991
 21
14795.230828000011
 31
0.0
  0
LINE
  5
48A9
  8
2-0
  6
CONTINUOUS
 62
     3
 10
19831.822713999991
 20
14795.230828000011
 30
0.0
 11
19801.825088999991
 21
14795.230828000011
 31
0.0
  0
LINE
  5
48AA
  8
2-0
  6
CONTINUOUS
 62
     3
 10
19801.825088999991
 20
14795.230828000011
 30
0.0
 11
19801.825088999991
 21
14832.231
 31
0.0
  0
LINE
  5
48AB
  8
2-0
  6
CONTINUOUS
 62
     3
 10
19831.822713999991
 20
14832.231
 30
0.0
 11
19801.825088999991
 21
14832.231
 31
0.0
  0
LINE
  5
48AC
  8
2-0
  6
CONTINUOUS
 62
     3
 10
19831.822713999991
 20
14826.234047999989
 30
0.0
 11
19831.822713999991
 21
14832.231
 31
0.0
  0
LINE
  5
48AD
  8
2-0
  6
CONTINUOUS
 62
     3
 10
19831.822713999991
 20
14842.331493000011
 30
0.0
 11
19801.825088999991
 21
14842.331493000011
 31
0.0
  0
LINE
  5
48AE
  8
2-0
  6
CONTINUOUS
 62
     3
 10
19831.822713999991
 20
14824.32480200001
 30
0.0
 11
19831.822713999991
 21
14842.331493000011
 31
0.0
  0
LINE
  5
48AF
  8
2-0
  6
CONTINUOUS
 62
     3
 10
19806.829311999991
 20
14824.32480200001
 30
0.0
 11
19831.822713999991
 21
14824.32480200001
 31
0.0
  0
LINE
  5
48B0
  8
2-0
  6
CONTINUOUS
 62
     3
 10
19806.829311999991
 20
14829.33001500001
 30
0.0
 11
19806.829311999991
 21
14824.32480200001
 31
0.0
  0
LINE
  5
48B1
  8
2-0
  6
CONTINUOUS
 62
     3
 10
19813.82690999996
 20
14829.33001500001
 30
0.0
 11
19806.829311999991
 21
14829.33001500001
 31
0.0
  0
LINE
  5
48B2
  8
2-0
  6
CONTINUOUS
 62
     3
 10
19831.822713999991
 20
13771.73284099999
 30
0.0
 11
19831.822713999991
 21
13777.73770999999
 31
0.0
  0
LINE
  5
48B3
  8
2-0
  6
CONTINUOUS
 62
     3
 10
19831.822713999991
 20
13777.73770999999
 30
0.0
 11
19801.825088999991
 21
13777.73770999999
 31
0.0
  0
LINE
  5
48B4
  8
2-0
  6
CONTINUOUS
 62
     3
 10
19801.825088999991
 20
13777.73770999999
 30
0.0
 11
19801.825088999991
 21
13662.733619000001
 31
0.0
  0
LINE
  5
48B5
  8
2-0
  6
CONTINUOUS
 62
     3
 10
19801.825088999991
 20
13662.733619000001
 30
0.0
 11
19886.82363699999
 21
13662.733619000001
 31
0.0
  0
LINE
  5
48B6
  8
2-0
  6
CONTINUOUS
 62
     3
 10
19886.82363699999
 20
13662.733619000001
 30
0.0
 11
19886.82363699999
 21
13747.729198000001
 31
0.0
  0
LINE
  5
48B7
  8
2-0
  6
CONTINUOUS
 62
     3
 10
19886.82363699999
 20
13747.729198000001
 30
0.0
 11
19854.826698999961
 21
13747.729198000001
 31
0.0
  0
LINE
  5
48B8
  8
2-0
  6
CONTINUOUS
 62
     3
 10
19813.82690999996
 20
13774.767443000001
 30
0.0
 11
19806.829311999991
 21
13774.767443000001
 31
0.0
  0
LINE
  5
48B9
  8
2-0
  6
CONTINUOUS
 62
     3
 10
19806.829311999991
 20
13774.767443000001
 30
0.0
 11
19806.829311999991
 21
13769.77014799998
 31
0.0
  0
LINE
  5
48BA
  8
2-0
  6
CONTINUOUS
 62
     3
 10
19806.829311999991
 20
13769.77014799998
 30
0.0
 11
19831.822713999991
 21
13769.77014799998
 31
0.0
  0
LINE
  5
48BB
  8
2-0
  6
CONTINUOUS
 62
     3
 10
19831.822713999991
 20
13769.77014799998
 30
0.0
 11
19831.822713999991
 21
13787.768921000001
 31
0.0
  0
LINE
  5
48BC
  8
2-0
  6
CONTINUOUS
 62
     3
 10
19831.822713999991
 20
13787.768921000001
 30
0.0
 11
19801.825088999991
 21
13787.768921000001
 31
0.0
  0
LINE
  5
48BD
  8
2-0
  6
CONTINUOUS
 62
     3
 10
19801.825088999991
 20
14842.331493000011
 30
0.0
 11
19801.825088999991
 21
15486.370351
 31
0.0
  0
LINE
  5
48BE
  8
2-0
  6
CONTINUOUS
 62
     3
 10
19801.825088999991
 20
18461.32605
 30
0.0
 11
19801.825088999991
 21
19105.136767499989
 31
0.0
  0
LINE
  5
48BF
  8
2-0
  6
CONTINUOUS
 62
     3
 10
19892.827516999991
 20
18390.22965999999
 30
0.0
 11
19845.823847999989
 21
18390.22965999999
 31
0.0
  0
LINE
  5
48C0
  8
2-0
  6
CONTINUOUS
 62
     3
 10
19845.823847999989
 20
18475.230188000001
 30
0.0
 11
19892.827516999991
 21
18475.230188000001
 31
0.0
  0
LINE
  5
48C1
  8
2-0
  6
CONTINUOUS
 62
     3
 10
19845.823847999989
 20
18390.22965999999
 30
0.0
 11
19845.823847999989
 21
18415.232959000001
 31
0.0
  0
LINE
  5
48C2
  8
2-0
  6
CONTINUOUS
 62
     3
 10
19845.823847999989
 20
18450.228867999991
 30
0.0
 11
19845.823847999989
 21
18475.230188000001
 31
0.0
  0
LINE
  5
48C3
  8
2-0
  6
CONTINUOUS
 62
     3
 10
19892.827516999991
 20
18475.230188000001
 30
0.0
 11
19892.827516999991
 21
18390.22965999999
 31
0.0
  0
LINE
  5
48C4
  8
2-0
  6
CONTINUOUS
 62
     3
 10
19801.825088999991
 20
16187.130334499991
 30
0.0
 11
19801.825088999991
 21
15543.566561000011
 31
0.0
  0
LINE
  5
48C5
  8
2-0
  6
CONTINUOUS
 62
     3
 10
19892.827516999991
 20
15472.23263
 30
0.0
 11
19845.823847999989
 21
15472.23263
 31
0.0
  0
LINE
  5
48C6
  8
2-0
  6
CONTINUOUS
 62
     3
 10
19845.823847999989
 20
15557.22919799999
 30
0.0
 11
19892.827516999991
 21
15557.22919799999
 31
0.0
  0
LINE
  5
48C7
  8
2-0
  6
CONTINUOUS
 62
     3
 10
19845.823847999989
 20
15472.23263
 30
0.0
 11
19845.823847999989
 21
15497.22801100001
 31
0.0
  0
LINE
  5
48C8
  8
2-0
  6
CONTINUOUS
 62
     3
 10
19845.823847999989
 20
15532.227879
 30
0.0
 11
19845.823847999989
 21
15557.22919799999
 31
0.0
  0
LINE
  5
48C9
  8
2-0
  6
CONTINUOUS
 62
     3
 10
19892.827516999991
 20
15557.22919799999
 30
0.0
 11
19892.827516999991
 21
15472.23263
 31
0.0
  0
LINE
  5
48CA
  8
2-0
  6
CONTINUOUS
 62
     3
 10
25722.819677999989
 20
19819.23302600002
 30
0.0
 11
25722.819677999989
 21
19934.229199000009
 31
0.0
  0
LINE
  5
48CB
  8
2-0
  6
CENTER2
 62
     6
 10
18514.866816999991
 20
19891.730914
 30
0.0
 11
26572.820997999988
 21
19891.730914
 31
0.0
  0
LINE
  5
48CC
  8
2-0
  6
CENTER2
 62
     6
 10
18514.866816999991
 20
16973.730914
 30
0.0
 11
26572.820997999988
 21
16973.730914
 31
0.0
  0
LINE
  5
48CD
  8
2-0
  6
CENTER2
 62
     6
 10
18514.866816999991
 20
13705.230913999991
 30
0.0
 11
26572.820997999988
 21
13705.230913999991
 31
0.0
  0
LINE
  5
48CE
  8
2-0
  6
CONTINUOUS
 62
     3
 10
19801.825088999991
 20
19849.23263000001
 30
0.0
 11
25641.817777999971
 21
19849.23263000001
 31
0.0
  0
LINE
  5
48CF
  8
2-0
  6
CONTINUOUS
 62
     3
 10
19801.825088999991
 20
14141.268644000011
 30
0.0
 11
19801.825088999991
 21
14785.135283000011
 31
0.0
  0
LINE
  5
48D0
  8
2-0
  6
CENTER2
 62
     6
 10
19844.321393999991
 20
21134.229199000009
 30
0.0
 11
19844.321393999991
 21
13079.46747999999
 31
0.0
  0
LINE
  5
48D1
  8
2-0
  6
CENTER2
 62
     6
 10
25680.321393999991
 20
21134.229199000009
 30
0.0
 11
25680.321393999991
 21
13079.46747999999
 31
0.0
  0
LINE
  5
48D2
  8
2-0
  6
CONTINUOUS
 62
     3
 10
25722.819677999989
 20
19808.935570000001
 30
0.0
 11
25722.819677999989
 21
19162.327039499982
 31
0.0
  0
LINE
  5
48D3
  8
2-0
  6
CONTINUOUS
 62
     3
 10
19801.825088999991
 20
19808.935570000001
 30
0.0
 11
19801.825088999991
 21
19162.327039499982
 31
0.0
  0
LINE
  5
48D4
  8
2-0
  6
CENTER2
 62
     6
 10
22762.321393999991
 20
21134.229199000009
 30
0.0
 11
22762.321393999991
 21
13513.82631299999
 31
0.0
  0
LINE
  5
48D5
  8
2-0
  6
CONTINUOUS
 62
     3
 10
19813.82690999996
 20
14097.13725600002
 30
0.0
 11
19806.829311999991
 21
14097.13725600002
 31
0.0
  0
LINE
  5
48D6
  8
2-0
  6
CONTINUOUS
 62
     3
 10
19806.829311999991
 20
14097.13725600002
 30
0.0
 11
19806.829311999991
 21
14102.131582000011
 31
0.0
  0
LINE
  5
48D7
  8
2-0
  6
CONTINUOUS
 62
     3
 10
19806.829311999991
 20
14102.131582000011
 30
0.0
 11
19831.822713999991
 21
14102.131582000011
 31
0.0
  0
LINE
  5
48D8
  8
2-0
  6
CONTINUOUS
 62
     3
 10
19831.822713999991
 20
14102.131582000011
 30
0.0
 11
19831.822713999991
 21
14084.135778000011
 31
0.0
  0
LINE
  5
48D9
  8
2-0
  6
CONTINUOUS
 62
     3
 10
19831.822713999991
 20
14084.135778000011
 30
0.0
 11
19801.825088999991
 21
14084.135778000011
 31
0.0
  0
LINE
  5
48DA
  8
2-0
  6
CONTINUOUS
 62
     3
 10
19831.822713999991
 20
14100.23322400002
 30
0.0
 11
19831.822713999991
 21
14094.231323000011
 31
0.0
  0
LINE
  5
48DB
  8
2-0
  6
CONTINUOUS
 62
     3
 10
19831.822713999991
 20
14094.231323000011
 30
0.0
 11
19801.825088999991
 21
14094.231323000011
 31
0.0
  0
LINE
  5
48DC
  8
2-0
  6
CONTINUOUS
 62
     3
 10
19801.825088999991
 20
14094.231323000011
 30
0.0
 11
19801.825088999991
 21
14131.230505
 31
0.0
  0
LINE
  5
48DD
  8
2-0
  6
CONTINUOUS
 62
     3
 10
19831.822713999991
 20
14131.230505
 30
0.0
 11
19801.825088999991
 21
14131.230505
 31
0.0
  0
LINE
  5
48DE
  8
2-0
  6
CONTINUOUS
 62
     3
 10
19831.822713999991
 20
14125.23454300002
 30
0.0
 11
19831.822713999991
 21
14131.230505
 31
0.0
  0
LINE
  5
48DF
  8
2-0
  6
CONTINUOUS
 62
     3
 10
19831.822713999991
 20
14141.331988
 30
0.0
 11
19801.825088999991
 21
14141.331988
 31
0.0
  0
LINE
  5
48E0
  8
2-0
  6
CONTINUOUS
 62
     3
 10
19831.822713999991
 20
14123.324307999999
 30
0.0
 11
19831.822713999991
 21
14141.331988
 31
0.0
  0
LINE
  5
48E1
  8
2-0
  6
CONTINUOUS
 62
     3
 10
19806.829311999991
 20
14123.324307999999
 30
0.0
 11
19831.822713999991
 21
14123.324307999999
 31
0.0
  0
LINE
  5
48E2
  8
2-0
  6
CONTINUOUS
 62
     3
 10
19806.829311999991
 20
14128.330510000011
 30
0.0
 11
19806.829311999991
 21
14123.324307999999
 31
0.0
  0
LINE
  5
48E3
  8
2-0
  6
CONTINUOUS
 62
     3
 10
19813.82690999996
 20
14128.330510000011
 30
0.0
 11
19806.829311999991
 21
14128.330510000011
 31
0.0
  0
LINE
  5
48E4
  8
2-0
  6
CONTINUOUS
 62
     3
 10
19801.825088999991
 20
13787.768921000001
 30
0.0
 11
19801.825088999991
 21
14084.135778000011
 31
0.0
  0
LINE
  5
48E5
  8
2-0
  6
CONTINUOUS
 62
     3
 10
19882.823029999989
 20
13747.729198000001
 30
0.0
 11
19882.823029999989
 21
19934.229199000009
 31
0.0
  0
LINE
  5
48E6
  8
2-0
  6
CONTINUOUS
 62
     3
 10
25710.817856999998
 20
14097.137256000011
 30
0.0
 11
25717.819414000001
 21
14097.137256000011
 31
0.0
  0
LINE
  5
48E7
  8
2-0
  6
CONTINUOUS
 62
     3
 10
25717.819414000001
 20
14097.137256000011
 30
0.0
 11
25717.819414000001
 21
14102.131582000011
 31
0.0
  0
LINE
  5
48E8
  8
2-0
  6
CONTINUOUS
 62
     3
 10
25717.819414000001
 20
14102.131582000011
 30
0.0
 11
25692.822053999971
 21
14102.131582000011
 31
0.0
  0
LINE
  5
48E9
  8
2-0
  6
CONTINUOUS
 62
     3
 10
25692.822053999971
 20
14102.131582000011
 30
0.0
 11
25692.822053999971
 21
14084.135778000011
 31
0.0
  0
LINE
  5
48EA
  8
2-0
  6
CONTINUOUS
 62
     3
 10
25692.822053999971
 20
14084.135778000011
 30
0.0
 11
25722.819677999989
 21
14084.135778000011
 31
0.0
  0
LINE
  5
48EB
  8
2-0
  6
CONTINUOUS
 62
     3
 10
25692.822053999971
 20
14100.233224000011
 30
0.0
 11
25692.822053999971
 21
14094.231322999991
 31
0.0
  0
LINE
  5
48EC
  8
2-0
  6
CONTINUOUS
 62
     3
 10
25692.822053999971
 20
14094.231322999991
 30
0.0
 11
25722.819677999989
 21
14094.231322999991
 31
0.0
  0
LINE
  5
48ED
  8
2-0
  6
CONTINUOUS
 62
     3
 10
25722.819677999989
 20
14094.231322999991
 30
0.0
 11
25722.819677999989
 21
14131.230505
 31
0.0
  0
LINE
  5
48EE
  8
2-0
  6
CONTINUOUS
 62
     3
 10
25692.822053999971
 20
14131.230505
 30
0.0
 11
25722.819677999989
 21
14131.230505
 31
0.0
  0
LINE
  5
48EF
  8
2-0
  6
CONTINUOUS
 62
     3
 10
25692.822053999971
 20
14125.23454300002
 30
0.0
 11
25692.822053999971
 21
14131.230505
 31
0.0
  0
LINE
  5
48F0
  8
2-0
  6
CONTINUOUS
 62
     3
 10
25692.822053999971
 20
14141.331988
 30
0.0
 11
25722.819677999989
 21
14141.331988
 31
0.0
  0
LINE
  5
48F1
  8
2-0
  6
CONTINUOUS
 62
     3
 10
25692.822053999971
 20
14123.32430799999
 30
0.0
 11
25692.822053999971
 21
14141.331988
 31
0.0
  0
LINE
  5
48F2
  8
2-0
  6
CONTINUOUS
 62
     3
 10
25717.819414000001
 20
14123.32430799999
 30
0.0
 11
25692.822053999971
 21
14123.32430799999
 31
0.0
  0
LINE
  5
48F3
  8
2-0
  6
CONTINUOUS
 62
     3
 10
25717.819414000001
 20
14128.330509999991
 30
0.0
 11
25717.819414000001
 21
14123.32430799999
 31
0.0
  0
LINE
  5
48F4
  8
2-0
  6
CONTINUOUS
 62
     3
 10
25710.817856999998
 20
14128.330509999991
 30
0.0
 11
25717.819414000001
 21
14128.330509999991
 31
0.0
  0
LINE
  5
48F5
  8
2-0
  6
CONTINUOUS
 62
     3
 10
25722.819677999989
 20
13787.768921000001
 30
0.0
 11
25722.819677999989
 21
14084.135778000011
 31
0.0
  0
LINE
  5
48F6
  8
2-0
  6
CONTINUOUS
 62
     3
 10
25641.817777999971
 20
13747.729198000001
 30
0.0
 11
25641.817777999971
 21
19934.229199000009
 31
0.0
  0
LINE
  5
48F7
  8
2-0
  6
CONTINUOUS
 62
     3
 10
22719.829047999981
 20
19091.233619499999
 30
0.0
 11
22804.821658000001
 21
19091.233619499999
 31
0.0
  0
LINE
  5
48F8
  8
2-0
  6
CONTINUOUS
 62
     3
 10
22804.821658000001
 20
19176.228208500001
 30
0.0
 11
22719.829047999981
 21
19176.228208500001
 31
0.0
  0
LINE
  5
48F9
  8
2-0
  6
CONTINUOUS
 62
     3
 10
22719.829047999981
 20
19176.228208500001
 30
0.0
 11
22719.829047999981
 21
19091.233619499999
 31
0.0
  0
LINE
  5
48FA
  8
2-0
  6
CONTINUOUS
 62
     3
 10
22804.821658000001
 20
19091.233619499999
 30
0.0
 11
22804.821658000001
 21
19176.228208500001
 31
0.0
  0
LINE
  5
48FB
  8
2-0
  6
CONTINUOUS
 62
     6
 10
22801.256544999989
 20
19082.092981000009
 30
0.0
 11
23077.846758
 21
18626.748281
 31
0.0
  0
LINE
  5
48FC
  8
2-0
  6
CONTINUOUS
 62
     6
 10
23077.846758
 20
18626.748281
 30
0.0
 11
24108.196077000001
 21
18626.748281
 31
0.0
  0
LINE
  5
48FD
  8
2-0
  6
CONTINUOUS
 62
     6
 10
22861.534865000001
 20
18931.497146000009
 30
0.0
 11
22801.256544999989
 21
19082.092981000009
 31
0.0
  0
LINE
  5
48FE
  8
2-0
  6
CONTINUOUS
 62
     6
 10
22801.256544999989
 20
19082.092981000009
 30
0.0
 11
22907.115259999991
 21
18959.184672999989
 31
0.0
  0
LINE
  5
48FF
  8
2-0
  6
CONTINUOUS
 62
     6
 10
22861.534865000001
 20
18931.497146000009
 30
0.0
 11
22907.115259999991
 21
18959.184672999989
 31
0.0
  0
LINE
  5
4900
  8
2-0
  6
CONTINUOUS
 62
     6
 10
22907.115259999991
 20
18959.184672999989
 30
0.0
 11
22801.256544999989
 21
19082.092981000009
 31
0.0
  0
LINE
  5
4901
  8
2-0
  6
CONTINUOUS
 62
     6
 10
22801.256544999989
 20
19082.092981000009
 30
0.0
 11
22861.534865000001
 21
18931.497146000009
 31
0.0
  0
LINE
  5
4902
  8
2-0
  6
CONTINUOUS
 62
     6
 10
22861.534865000001
 20
18931.497146000009
 30
0.0
 11
22801.256544999989
 21
19082.092981000009
 31
0.0
  0
LINE
  5
4903
  8
2-0
  6
CONTINUOUS
 62
     6
 10
22907.115259999991
 20
18959.184672999989
 30
0.0
 11
22801.256544999989
 21
19082.092981000009
 31
0.0
  0
LINE
  5
4904
  8
2-0
  6
CONTINUOUS
 62
     6
 10
22907.115259999991
 20
18959.184672999989
 30
0.0
 11
22861.534865000001
 21
18931.497146000009
 31
0.0
  0
CIRCLE
  5
4905
  8
2-0
  6
CONTINUOUS
 62
     4
 10
18314.869126999991
 20
19891.730914
 30
0.0
 40
200.00001
  0
CIRCLE
  5
4906
  8
2-0
  6
CONTINUOUS
 62
     4
 10
18314.869126999991
 20
16973.730914
 30
0.0
 40
200.00001
  0
CIRCLE
  5
4907
  8
2-0
  6
CONTINUOUS
 62
     4
 10
18314.869126999991
 20
13705.230913999991
 30
0.0
 40
200.00001
  0
CIRCLE
  5
4908
  8
2-0
  6
CONTINUOUS
 62
     4
 10
22762.321393999991
 20
21334.233818000012
 30
0.0
 40
200.00001
  0
CIRCLE
  5
4909
  8
2-0
  6
CONTINUOUS
 62
     4
 10
19844.321393999991
 20
21334.233818000012
 30
0.0
 40
200.00001
  0
TEXT
  5
490A
  8
2-0
  6
CONTINUOUS
 62
     7
 10
24077.16670099998
 20
13145.232035999999
 30
0.0
 40
160.0
  1
前柱（右）
 50
0.000213
 72
     4
 11
24493.166403593001
 21
13225.23358250079
 31
0.0
  0
TEXT
  5
490B
  8
2-0
  6
CONTINUOUS
 62
     7
 10
24093.865919999989
 20
18174.854080000001
 30
0.0
 40
160.0
  1
補強柱 後
 50
359.99984199999989
 72
     4
 11
24504.532807274711
 21
18254.852947536991
 31
0.0
  0
TEXT
  5
490C
  8
2-0
  6
CONTINUOUS
 62
     7
 10
24281.761824000001
 20
16424.22405200002
 30
0.0
 40
160.0
  1
壁パネル
 50
359.99982299999999
 72
     4
 11
24644.428737803551
 21
16504.222931637891
 31
0.0
  0
TEXT
  5
490D
  8
2-0
  6
CONTINUOUS
 62
     7
 10
24001.758919999989
 20
17261.411948000012
 30
0.0
 40
160.0
  1
中柱（左右）
 50
0.000354
 72
     4
 11
24519.091759046201
 21
17341.415144324659
 31
0.0
  0
TEXT
  5
490E
  8
2-0
  6
CONTINUOUS
 62
     7
 10
24681.761164
 20
14118.273302
 30
0.0
 40
160.0
  1
下枠
 50
0.001063
 72
     4
 11
24852.426346409291
 21
14198.276468339291
 31
0.0
  0
TEXT
  5
490F
  8
2-0
  6
CONTINUOUS
 62
     7
 10
24093.865919999971
 20
15257.09459100001
 30
0.0
 40
160.0
  1
補強柱 前
 50
359.99937
 72
     4
 11
24504.533466287761
 21
15337.09007547934
 31
0.0
  0
TEXT
  5
4910
  8
2-0
  6
CONTINUOUS
 62
     7
 10
24176.726588000001
 20
18864.680686499989
 30
0.0
 40
160.0
  1
間柱（側）
 72
     4
 11
24598.05992133333
 21
18944.680686499989
 31
0.0
  0
TEXT
  5
4911
  8
2-0
  6
CONTINUOUS
 62
     7
 10
26495.316906999979
 20
20744.228406999999
 30
0.0
 40
160.0
  1
後柱（左右）
 50
0.000354
 72
     4
 11
27007.31641271296
 21
20824.231570372842
 31
0.0
  0
TEXT
  5
4912
  8
2-0
  6
CONTINUOUS
 62
     7
 10
23161.410156000002
 20
14283.069213999979
 30
0.0
 40
160.0
  1
前柱（中）
 72
     4
 11
23577.410156000002
 21
14363.069213999979
 31
0.0
  0
TEXT
  5
4913
  8
2-0
  6
CONTINUOUS
 62
     7
 10
21598.190269999999
 20
19297.111246000011
 30
0.0
 40
160.0
  1
間柱（後）
 72
     4
 11
22019.523603333331
 21
19377.111246000011
 31
0.0
  0
TEXT
  5
4914
  8
2-0
  6
CONTINUOUS
 62
     7
 10
23032.614759000011
 20
19365.855967000021
 30
0.0
 40
160.0
  1
後柱（中）
 72
     4
 11
23448.614759000011
 21
19445.855967000021
 31
0.0
  0
TEXT
  5
4915
  8
2-0
  6
CONTINUOUS
 62
     7
 10
18266.86975999998
 20
19797.250472000022
 30
0.0
 40
160.0
  1
C
 72
     4
 11
18320.203093333312
 21
19877.250472000022
 31
0.0
  0
TEXT
  5
4916
  8
2-0
  6
CONTINUOUS
 62
     7
 10
18267.090475999979
 20
16903.336832000019
 30
0.0
 40
160.0
  1
B
 72
     4
 11
18320.423809333319
 21
16983.336832000019
 31
0.0
  0
TEXT
  5
4917
  8
2-0
  6
CONTINUOUS
 62
     7
 10
18267.133035999981
 20
13616.62370299999
 30
0.0
 40
160.0
  1
A
 72
     4
 11
18320.46636933331
 21
13696.62370299999
 31
0.0
  0
TEXT
  5
4918
  8
2-0
  6
CONTINUOUS
 62
     7
 10
22710.689611000002
 20
21238.708189000012
 30
0.0
 40
160.0
  1
2
 72
     4
 11
22764.02294433333
 21
21318.708189000012
 31
0.0
  0
TEXT
  5
4919
  8
2-0
  6
CONTINUOUS
 62
     7
 10
19800.114784999969
 20
21245.466266000029
 30
0.0
 40
160.0
  1
1
 72
     4
 11
19826.78145166664
 21
21325.466266000029
 31
0.0
  0
TEXT
  5
491A
  8
2-0
  6
CONTINUOUS
 62
     7
 10
23199.828652
 20
18699.748967999989
 30
0.0
 40
160.0
  1
梁補助柱
 72
     4
 11
23562.495318666672
 21
18779.748967999989
 31
0.0
  0
LINE
  5
491B
  8
2-0
  6
CONTINUOUS
 62
     3
 10
24940.821974999992
 20
19934.229199000009
 30
0.0
 11
24903.820812999991
 21
19934.229199000009
 31
0.0
  0
LINE
  5
491C
  8
2-0
  6
CONTINUOUS
 62
     3
 10
24940.821974999992
 20
19904.22563600001
 30
0.0
 11
24940.821974999992
 21
19934.229199000009
 31
0.0
  0
LINE
  5
491D
  8
2-0
  6
CONTINUOUS
 62
     3
 10
24934.822053999971
 20
19904.22563600001
 30
0.0
 11
24940.821974999992
 21
19904.22563600001
 31
0.0
  0
LINE
  5
491E
  8
2-0
  6
CONTINUOUS
 62
     3
 10
24950.919498999989
 20
19904.22563600001
 30
0.0
 11
24950.919498999989
 21
19934.229199000009
 31
0.0
  0
LINE
  5
491F
  8
2-0
  6
CONTINUOUS
 62
     3
 10
24932.915777999991
 20
19904.22563600001
 30
0.0
 11
24950.919498999989
 21
19904.22563600001
 31
0.0
  0
LINE
  5
4920
  8
2-0
  6
CONTINUOUS
 62
     3
 10
24932.915777999991
 20
19929.234873000001
 30
0.0
 11
24932.915777999991
 21
19904.22563600001
 31
0.0
  0
LINE
  5
4921
  8
2-0
  6
CONTINUOUS
 62
     3
 10
24937.91604199999
 20
19929.234873000001
 30
0.0
 11
24932.915777999991
 21
19929.234873000001
 31
0.0
  0
LINE
  5
4922
  8
2-0
  6
CONTINUOUS
 62
     3
 10
24937.91604199999
 20
19922.229357000011
 30
0.0
 11
24937.91604199999
 21
19929.234873000001
 31
0.0
  0
LINE
  5
4923
  8
2-0
  6
CONTINUOUS
 62
     3
 10
24906.726746999972
 20
19922.229357000011
 30
0.0
 11
24906.726746999972
 21
19929.234873000001
 31
0.0
  0
LINE
  5
4924
  8
2-0
  6
CONTINUOUS
 62
     3
 10
24906.726746999972
 20
19929.234873000001
 30
0.0
 11
24911.727010999992
 21
19929.234873000001
 31
0.0
  0
LINE
  5
4925
  8
2-0
  6
CONTINUOUS
 62
     3
 10
24911.727010999992
 20
19929.234873000001
 30
0.0
 11
24911.727010999992
 21
19904.22563600001
 31
0.0
  0
LINE
  5
4926
  8
2-0
  6
CONTINUOUS
 62
     3
 10
24911.727010999992
 20
19904.22563600001
 30
0.0
 11
24893.727247999988
 21
19904.22563600001
 31
0.0
  0
LINE
  5
4927
  8
2-0
  6
CONTINUOUS
 62
     3
 10
24893.727247999988
 20
19904.22563600001
 30
0.0
 11
24893.727247999988
 21
19934.229199000009
 31
0.0
  0
LINE
  5
4928
  8
2-0
  6
CONTINUOUS
 62
     3
 10
24909.82073399999
 20
19904.22563600001
 30
0.0
 11
24903.820812999991
 21
19904.22563600001
 31
0.0
  0
LINE
  5
4929
  8
2-0
  6
CONTINUOUS
 62
     3
 10
24903.820812999991
 20
19904.22563600001
 30
0.0
 11
24903.820812999991
 21
19934.229199000009
 31
0.0
  0
LINE
  5
492A
  8
2-0
  6
CONTINUOUS
 62
     3
 10
23535.911092499991
 20
19922.229357000011
 30
0.0
 11
23535.911092499991
 21
19929.234873000001
 31
0.0
  0
LINE
  5
492B
  8
2-0
  6
CONTINUOUS
 62
     3
 10
23535.911092499991
 20
19929.234873000001
 30
0.0
 11
23530.910828499978
 21
19929.234873000001
 31
0.0
  0
LINE
  5
492C
  8
2-0
  6
CONTINUOUS
 62
     3
 10
23530.910828499978
 20
19929.234873000001
 30
0.0
 11
23530.910828499978
 21
19904.22563600001
 31
0.0
  0
LINE
  5
492D
  8
2-0
  6
CONTINUOUS
 62
     3
 10
23530.910828499978
 20
19904.22563600001
 30
0.0
 11
23548.916529499991
 21
19904.22563600001
 31
0.0
  0
LINE
  5
492E
  8
2-0
  6
CONTINUOUS
 62
     3
 10
23548.916529499991
 20
19904.22563600001
 30
0.0
 11
23548.916529499991
 21
19934.229199000009
 31
0.0
  0
LINE
  5
492F
  8
2-0
  6
CONTINUOUS
 62
     3
 10
23532.819084499992
 20
19904.22563600001
 30
0.0
 11
23538.820984499991
 21
19904.22563600001
 31
0.0
  0
LINE
  5
4930
  8
2-0
  6
CONTINUOUS
 62
     3
 10
23538.820984499991
 20
19904.22563600001
 30
0.0
 11
23538.820984499991
 21
19934.229199000009
 31
0.0
  0
LINE
  5
4931
  8
2-0
  6
CONTINUOUS
 62
     3
 10
23501.821803499981
 20
19934.229199000009
 30
0.0
 11
23538.820984499991
 21
19934.229199000009
 31
0.0
  0
LINE
  5
4932
  8
2-0
  6
CONTINUOUS
 62
     3
 10
23501.821803499981
 20
19904.22563600001
 30
0.0
 11
23501.821803499981
 21
19934.229199000009
 31
0.0
  0
LINE
  5
4933
  8
2-0
  6
CONTINUOUS
 62
     3
 10
23507.815785499992
 20
19904.22563600001
 30
0.0
 11
23501.821803499981
 21
19904.22563600001
 31
0.0
  0
LINE
  5
4934
  8
2-0
  6
CONTINUOUS
 62
     3
 10
23491.726258499992
 20
19904.22563600001
 30
0.0
 11
23491.726258499992
 21
19934.229199000009
 31
0.0
  0
LINE
  5
4935
  8
2-0
  6
CONTINUOUS
 62
     3
 10
23509.722061499979
 20
19904.22563600001
 30
0.0
 11
23491.726258499992
 21
19904.22563600001
 31
0.0
  0
LINE
  5
4936
  8
2-0
  6
CONTINUOUS
 62
     3
 10
23509.722061499979
 20
19929.234873000001
 30
0.0
 11
23509.722061499979
 21
19904.22563600001
 31
0.0
  0
LINE
  5
4937
  8
2-0
  6
CONTINUOUS
 62
     3
 10
23504.721797499991
 20
19929.234873000001
 30
0.0
 11
23509.722061499979
 21
19929.234873000001
 31
0.0
  0
LINE
  5
4938
  8
2-0
  6
CONTINUOUS
 62
     3
 10
23504.721797499991
 20
19922.229357000011
 30
0.0
 11
23504.721797499991
 21
19929.234873000001
 31
0.0
  0
LINE
  5
4939
  8
2-0
  6
CONTINUOUS
 62
     3
 10
24205.720808499991
 20
19922.229357000011
 30
0.0
 11
24205.720808499991
 21
19929.234873000001
 31
0.0
  0
LINE
  5
493A
  8
2-0
  6
CONTINUOUS
 62
     3
 10
24205.720808499991
 20
19929.234873000001
 30
0.0
 11
24210.721071499989
 21
19929.234873000001
 31
0.0
  0
LINE
  5
493B
  8
2-0
  6
CONTINUOUS
 62
     3
 10
24210.721071499989
 20
19929.234873000001
 30
0.0
 11
24210.721071499989
 21
19904.22563600001
 31
0.0
  0
LINE
  5
493C
  8
2-0
  6
CONTINUOUS
 62
     3
 10
24210.721071499989
 20
19904.22563600001
 30
0.0
 11
24192.727248499981
 21
19904.22563600001
 31
0.0
  0
LINE
  5
493D
  8
2-0
  6
CONTINUOUS
 62
     3
 10
24192.727248499981
 20
19904.22563600001
 30
0.0
 11
24192.727248499981
 21
19934.229199000009
 31
0.0
  0
LINE
  5
493E
  8
2-0
  6
CONTINUOUS
 62
     3
 10
24208.818754499971
 20
19904.22563600001
 30
0.0
 11
24202.820813499991
 21
19904.22563600001
 31
0.0
  0
LINE
  5
493F
  8
2-0
  6
CONTINUOUS
 62
     3
 10
24202.820813499991
 20
19904.22563600001
 30
0.0
 11
24202.820813499991
 21
19934.229199000009
 31
0.0
  0
LINE
  5
4940
  8
2-0
  6
CONTINUOUS
 62
     3
 10
24239.821974499991
 20
19934.229199000009
 30
0.0
 11
24202.820813499991
 21
19934.229199000009
 31
0.0
  0
LINE
  5
4941
  8
2-0
  6
CONTINUOUS
 62
     3
 10
24239.821974499991
 20
19904.22563600001
 30
0.0
 11
24239.821974499991
 21
19934.229199000009
 31
0.0
  0
LINE
  5
4942
  8
2-0
  6
CONTINUOUS
 62
     3
 10
24233.816115499991
 20
19904.22563600001
 30
0.0
 11
24239.821974499991
 21
19904.22563600001
 31
0.0
  0
LINE
  5
4943
  8
2-0
  6
CONTINUOUS
 62
     3
 10
24249.915539499991
 20
19904.22563600001
 30
0.0
 11
24249.915539499991
 21
19934.229199000009
 31
0.0
  0
LINE
  5
4944
  8
2-0
  6
CONTINUOUS
 62
     3
 10
24231.919736499982
 20
19904.22563600001
 30
0.0
 11
24249.915539499991
 21
19904.22563600001
 31
0.0
  0
LINE
  5
4945
  8
2-0
  6
CONTINUOUS
 62
     3
 10
24231.919736499982
 20
19929.234873000001
 30
0.0
 11
24231.919736499982
 21
19904.22563600001
 31
0.0
  0
LINE
  5
4946
  8
2-0
  6
CONTINUOUS
 62
     3
 10
24236.910102499991
 20
19929.234873000001
 30
0.0
 11
24231.919736499982
 21
19929.234873000001
 31
0.0
  0
LINE
  5
4947
  8
2-0
  6
CONTINUOUS
 62
     3
 10
24236.910102499991
 20
19922.229357000011
 30
0.0
 11
24236.910102499991
 21
19929.234873000001
 31
0.0
  0
LINE
  5
4948
  8
2-0
  6
CONTINUOUS
 62
     3
 10
23548.916529499991
 20
19934.229199000009
 30
0.0
 11
24192.727248499981
 21
19934.229199000009
 31
0.0
  0
LINE
  5
4949
  8
2-0
  6
CONTINUOUS
 62
     3
 10
22844.43974300001
 20
19934.229199000009
 30
0.0
 11
23491.726258499992
 21
19934.229199000009
 31
0.0
  0
LINE
  5
494A
  8
2-0
  6
CONTINUOUS
 62
     3
 10
25598.205023999992
 20
19934.229199000009
 30
0.0
 11
24950.919498999989
 21
19934.229199000009
 31
0.0
  0
LINE
  5
494B
  8
2-0
  6
CONTINUOUS
 62
     3
 10
24893.727247999988
 20
19934.229199000009
 30
0.0
 11
24249.915539499991
 21
19934.229199000009
 31
0.0
  0
LINE
  5
494C
  8
2-0
  6
CONTINUOUS
 62
     3
 10
22680.893897000002
 20
19934.229199000009
 30
0.0
 11
22032.919498999981
 21
19934.229199000009
 31
0.0
  0
LINE
  5
494D
  8
2-0
  6
CONTINUOUS
 62
     3
 10
25722.819677999989
 20
15486.370351
 30
0.0
 11
25722.819677999989
 21
14842.331493000011
 31
0.0
  0
LINE
  5
494E
  8
2-0
  6
CONTINUOUS
 62
     3
 10
25722.819677999989
 20
14785.135283
 30
0.0
 11
25722.819677999989
 21
14141.331988
 31
0.0
  0
CIRCLE
  5
494F
  8
2-0
  6
CONTINUOUS
 62
     4
 10
25680.321393999991
 20
21334.233818000012
 30
0.0
 40
200.00001
  0
TEXT
  5
4950
  8
2-0
  6
CONTINUOUS
 62
     7
 10
25628.689611000002
 20
21238.708189000012
 30
0.0
 40
160.0
  1
3
 72
     4
 11
25682.02294433333
 21
21318.708189000012
 31
0.0
  0
LINE
  5
4951
  8
SUNPOU
  6
CONTINUOUS
 10
7202.8589990000009
 20
20114.226823000001
 30
0.0
 11
7202.8589990000009
 21
20911.19409077847
 31
0.0
  0
LINE
  5
4952
  8
SUNPOU
  6
CONTINUOUS
 10
7202.8589989999991
 20
13512.735599
 30
0.0
 11
7202.8589989999991
 21
12837.309483189631
 31
0.0
  0
LINE
  5
4953
  8
0-6
  6
CONTINUOUS
 62
     6
 10
9884.6444089428514
 20
12712.730979999989
 30
0.0
 11
10684.64308894285
 21
12712.730979999989
 31
0.0
  0
LINE
  5
4954
  8
0-5
  6
CONTINUOUS
 62
     4
 10
8872.5335339999947
 20
9424.5907709999938
 30
0.0
 11
8423.0105969999931
 21
9424.5907709999938
 31
0.0
  0
LINE
  5
4957
  8
WAKUSEN-01
 10
868.00000000000193
 20
22484.000000000011
 30
0.0
 11
32764.000000000011
 21
22484.000000000011
 31
0.0
  0
LINE
  5
495A
  8
WAKUSEN-01
 10
20560.0
 20
2484.0
 30
0.0
 11
32764.0
 21
2484.0
 31
0.0
  0
LINE
  5
495B
  8
WAKUSEN-02
 10
20560.0
 20
1655.9999999999991
 30
0.0
 11
26868.0
 21
1655.9999999999991
 31
0.0
  0
TEXT
  5
495C
  8
WAKUMOJI-01
 10
20670.260259962761
 20
2125.9030093393221
 30
0.0
 40
240.0
  1
名　称
  7
WAKUMOJI
  0
TEXT
  5
495D
  8
WAKUMOJI-01
 10
20656.505485091919
 20
1319.12897497982
 30
0.0
 40
240.0
  1
機種名
  7
WAKUMOJI
  0
LINE
  5
4960
  8
YODOROGO
 10
29977.604341291921
 20
1995.7494964292871
 30
0.0
 11
29829.604341291921
 21
1995.7494964292871
 31
0.0
1001
AUTOCAD_POSTSCRIPT_FIGURE
1002
{
1000
PSFILL
1000
Grayscale
1000
Grayscale
1070
    25
1002
}
  0
LINE
  5
4961
  8
YODOROGO
 10
29829.604341291921
 20
1947.749496429288
 30
0.0
 11
29977.604341291921
 21
1947.749496429288
 31
0.0
1001
AUTOCAD_POSTSCRIPT_FIGURE
1002
{
1000
PSFILL
1000
Grayscale
1000
Grayscale
1070
    25
1002
}
  0
LINE
  5
4962
  8
YODOROGO
 10
29977.604341291921
 20
1907.7494964292871
 30
0.0
 11
29829.604341291921
 21
1907.7494964292871
 31
0.0
1001
AUTOCAD_POSTSCRIPT_FIGURE
1002
{
1000
PSFILL
1000
Grayscale
1000
Grayscale
1070
    25
1002
}
  0
LINE
  5
4963
  8
YODOROGO
 10
29829.604341291921
 20
1859.749496429288
 30
0.0
 11
29977.604341291921
 21
1859.749496429288
 31
0.0
1001
AUTOCAD_POSTSCRIPT_FIGURE
1002
{
1000
PSFILL
1000
Grayscale
1000
Grayscale
1070
    25
1002
}
  0
LINE
  5
4964
  8
YODOROGO
 10
29977.604341291921
 20
1819.7494964292871
 30
0.0
 11
29829.604341291921
 21
1819.7494964292871
 31
0.0
1001
AUTOCAD_POSTSCRIPT_FIGURE
1002
{
1000
PSFILL
1000
Grayscale
1000
Grayscale
1070
    25
1002
}
  0
LINE
  5
4965
  8
YODOROGO
 10
29921.60434129191
 20
1707.749496429288
 30
0.0
 11
29977.604341291921
 21
1707.749496429288
 31
0.0
1001
AUTOCAD_POSTSCRIPT_FIGURE
1002
{
1000
PSFILL
1000
Grayscale
1000
Grayscale
1070
    25
1002
}
  0
LINE
  5
4966
  8
YODOROGO
 10
29737.604341291921
 20
1427.749496429288
 30
0.0
 11
29937.604341291932
 21
1481.3393349155101
 31
0.0
  0
LINE
  5
4967
  8
YODOROGO
 10
29949.60434129191
 20
1707.749496429288
 30
0.0
 11
29885.604341291921
 21
1707.749496429288
 31
0.0
  0
ARC
  5
4968
  8
YODOROGO
 10
30254.34774982791
 20
1807.864609233261
 30
0.0
 40
381.88686420564721
 50
213.96111677667841
 51
264.47872074317792
  0
ARC
  5
4969
  8
YODOROGO
 10
30254.347749827921
 20
1807.864609233302
 30
0.0
 40
381.8868642056816
 50
208.14114420486601
 51
212.9210361185994
  0
LINE
  5
496A
  8
YODOROGO
 10
29771.409872985321
 20
1556.807661346234
 30
0.0
 11
29933.78413250855
 21
1600.3157130570869
 31
0.0
  0
LINE
  5
496B
  8
YODOROGO
 10
29737.604341291921
 20
1427.749496429288
 30
0.0
 11
29937.604341291932
 21
1481.3393349155101
 31
0.0
  0
LINE
  5
496C
  8
YODOROGO
 10
29949.60434129191
 20
1707.749496429288
 30
0.0
 11
29885.604341291921
 21
1707.749496429288
 31
0.0
  0
ARC
  5
496D
  8
YODOROGO
 10
30254.34774982791
 20
1807.864609233261
 30
0.0
 40
381.88686420564721
 50
213.96111677667841
 51
264.47872074317792
  0
LINE
  5
496E
  8
YODOROGO
 10
28793.60434129191
 20
1819.7494964292871
 30
0.0
 11
28433.60434129191
 21
1819.7494964292871
 31
0.0
  0
LINE
  5
496F
  8
YODOROGO
 10
28513.60434129191
 20
1427.749496429288
 30
0.0
 11
28793.60434129191
 21
1427.749496429288
 31
0.0
  0
LINE
  5
4970
  8
YODOROGO
 10
28729.604341291921
 20
1923.7494964292871
 30
0.0
 11
28497.60434129191
 21
1923.7494964292871
 31
0.0
  0
LINE
  5
4971
  8
YODOROGO
 10
28585.604341291921
 20
2027.749496429288
 30
0.0
 11
28657.604341291921
 21
2027.749496429288
 31
0.0
  0
LINE
  5
4972
  8
YODOROGO
 10
28433.60434129191
 20
1707.749496429288
 30
0.0
 11
28433.60434129191
 21
1507.749496429288
 31
0.0
  0
LINE
  5
4973
  8
YODOROGO
 10
28497.60434129191
 20
1563.7494964292871
 30
0.0
 11
28497.60434129191
 21
1707.749496429288
 31
0.0
  0
LINE
  5
4974
  8
YODOROGO
 10
28585.604341291921
 20
1747.74949642929
 30
0.0
 11
28585.604341291921
 21
1547.749496429288
 31
0.0
  0
LINE
  5
4975
  8
YODOROGO
 10
27857.604341291921
 20
1683.749496429288
 30
0.0
 11
27777.604341291921
 21
1619.9724140445701
 31
0.0
  0
LINE
  5
4976
  8
YODOROGO
 10
27937.604341291921
 20
1619.9724140445701
 30
0.0
 11
27857.604341291921
 21
1683.749496429288
 31
0.0
  0
LINE
  5
4977
  8
YODOROGO
 10
27857.604341291921
 20
1707.749496429288
 30
0.0
 11
27937.604341291921
 21
1643.9724140445701
 31
0.0
  0
LINE
  5
4978
  8
YODOROGO
 10
27777.604341291921
 20
1643.9724140445701
 30
0.0
 11
27857.604341291921
 21
1707.749496429288
 31
0.0
  0
LINE
  5
4979
  8
YODOROGO
 10
28040.913204016892
 20
1659.749496429288
 30
0.0
 11
28040.913204016892
 21
1683.7494964292871
 31
0.0
  0
LINE
  5
497A
  8
YODOROGO
 10
27977.604341291921
 20
1683.7494964292871
 30
0.0
 11
27977.604341291921
 21
1667.749496429285
 31
0.0
  0
LINE
  5
497B
  8
YODOROGO
 10
28098.135520230931
 20
1707.749496429288
 30
0.0
 11
28098.135520230931
 21
1655.5036372746561
 31
0.0
1001
AUTOCAD_POSTSCRIPT_FIGURE
1002
{
1000
PSFILL
1000
Grayscale
1000
Grayscale
1070
   100
1002
}
  0
LINE
  5
497C
  8
YODOROGO
 10
28082.135520230921
 20
1655.5036372746561
 30
0.0
 11
28082.135520230921
 21
1707.749496429288
 31
0.0
1001
AUTOCAD_POSTSCRIPT_FIGURE
1002
{
1000
PSFILL
1000
Grayscale
1000
Grayscale
1070
   100
1002
}
  0
LINE
  5
497D
  8
YODOROGO
 10
27809.604341291921
 20
1608.771904043258
 30
0.0
 11
27809.604341291921
 21
1632.771904043258
 31
0.0
  0
LINE
  5
497E
  8
YODOROGO
 10
27905.604341291921
 20
1608.771904043258
 30
0.0
 11
27809.604341291921
 21
1608.771904043258
 31
0.0
  0
LINE
  5
497F
  8
YODOROGO
 10
27905.604341291921
 20
1632.771904043258
 30
0.0
 11
27905.604341291921
 21
1608.771904043258
 31
0.0
  0
LINE
  5
4980
  8
YODOROGO
 10
27809.604341291921
 20
1632.771904043258
 30
0.0
 11
27905.604341291921
 21
1632.771904043258
 31
0.0
  0
LINE
  5
4981
  8
YODOROGO
 10
27824.509588915738
 20
1568.5028573704751
 30
0.0
 11
27785.604341291921
 21
1475.7494964292871
 31
0.0
1001
AUTOCAD_POSTSCRIPT_FIGURE
1002
{
1000
PSFILL
1000
Grayscale
1000
Grayscale
1070
   100
1002
}
  0
LINE
  5
4982
  8
YODOROGO
 10
27777.604341291921
 20
1568.5028573704751
 30
0.0
 11
27824.509588915738
 21
1568.5028573704751
 31
0.0
1001
AUTOCAD_POSTSCRIPT_FIGURE
1002
{
1000
PSFILL
1000
Grayscale
1000
Grayscale
1070
   100
1002
}
  0
LINE
  5
4983
  8
YODOROGO
 10
27777.604341291921
 20
1588.5028573704751
 30
0.0
 11
27777.604341291921
 21
1568.5028573704751
 31
0.0
1001
AUTOCAD_POSTSCRIPT_FIGURE
1002
{
1000
PSFILL
1000
Grayscale
1000
Grayscale
1070
   100
1002
}
  0
LINE
  5
4984
  8
YODOROGO
 10
27937.604341291921
 20
1588.5028573704751
 30
0.0
 11
27777.604341291921
 21
1588.5028573704751
 31
0.0
1001
AUTOCAD_POSTSCRIPT_FIGURE
1002
{
1000
PSFILL
1000
Grayscale
1000
Grayscale
1070
   100
1002
}
  0
LINE
  5
4985
  8
YODOROGO
 10
27937.604341291921
 20
1568.5028573704751
 30
0.0
 11
27937.604341291921
 21
1588.5028573704751
 31
0.0
1001
AUTOCAD_POSTSCRIPT_FIGURE
1002
{
1000
PSFILL
1000
Grayscale
1000
Grayscale
1070
   100
1002
}
  0
LINE
  5
4986
  8
YODOROGO
 10
27844.509588915738
 20
1568.5028573704751
 30
0.0
 11
27937.604341291921
 21
1568.5028573704751
 31
0.0
1001
AUTOCAD_POSTSCRIPT_FIGURE
1002
{
1000
PSFILL
1000
Grayscale
1000
Grayscale
1070
   100
1002
}
  0
LINE
  5
4987
  8
YODOROGO
 10
27815.546718284771
 20
1495.7494964292871
 30
0.0
 11
27844.509588915738
 21
1568.5028573704751
 31
0.0
1001
AUTOCAD_POSTSCRIPT_FIGURE
1002
{
1000
PSFILL
1000
Grayscale
1000
Grayscale
1070
   100
1002
}
  0
LINE
  5
4988
  8
YODOROGO
 10
27902.054790808648
 20
1495.7494964292871
 30
0.0
 11
27815.546718284771
 21
1495.7494964292871
 31
0.0
1001
AUTOCAD_POSTSCRIPT_FIGURE
1002
{
1000
PSFILL
1000
Grayscale
1000
Grayscale
1070
   100
1002
}
  0
LINE
  5
4989
  8
YODOROGO
 10
27885.065004790951
 20
1536.2338106976929
 30
0.0
 11
27902.054790808648
 21
1495.7494964292871
 31
0.0
1001
AUTOCAD_POSTSCRIPT_FIGURE
1002
{
1000
PSFILL
1000
Grayscale
1000
Grayscale
1070
   100
1002
}
  0
LINE
  5
498A
  8
YODOROGO
 10
27901.065004790951
 20
1536.2338106976929
 30
0.0
 11
27885.065004790951
 21
1536.2338106976929
 31
0.0
1001
AUTOCAD_POSTSCRIPT_FIGURE
1002
{
1000
PSFILL
1000
Grayscale
1000
Grayscale
1070
   100
1002
}
  0
LINE
  5
498B
  8
YODOROGO
 10
27929.604341291921
 20
1475.7494964292871
 30
0.0
 11
27901.065004790951
 21
1536.2338106976929
 31
0.0
1001
AUTOCAD_POSTSCRIPT_FIGURE
1002
{
1000
PSFILL
1000
Grayscale
1000
Grayscale
1070
   100
1002
}
  0
LINE
  5
498C
  8
YODOROGO
 10
27785.604341291921
 20
1475.7494964292871
 30
0.0
 11
27929.604341291921
 21
1475.7494964292871
 31
0.0
1001
AUTOCAD_POSTSCRIPT_FIGURE
1002
{
1000
PSFILL
1000
Grayscale
1000
Grayscale
1070
   100
1002
}
  0
LINE
  5
498D
  8
YODOROGO
 10
27777.604341291921
 20
1619.9724140445701
 30
0.0
 11
27777.604341291921
 21
1643.9724140445701
 31
0.0
  0
LINE
  5
498E
  8
YODOROGO
 10
27937.604341291921
 20
1643.9724140445701
 30
0.0
 11
27937.604341291921
 21
1619.9724140445701
 31
0.0
  0
ARC
  5
498F
  8
YODOROGO
 10
28225.940442146959
 20
1600.877765325326
 30
0.0
 40
175.9999999999998
 50
280.3644312771313
 51
3.5414836592180561
  0
ARC
  5
4990
  8
YODOROGO
 10
28235.756030759301
 20
1633.5978069619041
 30
0.0
 40
111.9999999999982
 50
281.24905825041549
 51
348.75094174958321
  0
LINE
  5
4991
  8
YODOROGO
 10
28257.604341291921
 20
1523.7494964292871
 30
0.0
 11
28257.604341291921
 21
1427.749496429288
 31
0.0
  0
LINE
  5
4992
  8
YODOROGO
 10
28020.088903736909
 20
1610.650565061914
 30
0.0
 11
28040.913204016892
 21
1659.749496429288
 31
0.0
  0
LINE
  5
4993
  8
YODOROGO
 10
28041.604341291921
 20
1583.120489948401
 30
0.0
 11
28020.088903736909
 21
1610.650565061914
 31
0.0
  0
LINE
  5
4994
  8
YODOROGO
 10
28041.604341291921
 20
1563.120489948398
 30
0.0
 11
28041.604341291921
 21
1583.120489948401
 31
0.0
  0
LINE
  5
4995
  8
YODOROGO
 10
28017.604341291921
 20
1585.2370637495301
 30
0.0
 11
28041.604341291921
 21
1563.120489948398
 31
0.0
  0
LINE
  5
4996
  8
YODOROGO
 10
28017.604341291921
 20
1475.7494964292871
 30
0.0
 11
28017.604341291921
 21
1585.2370637495301
 31
0.0
  0
LINE
  5
4997
  8
YODOROGO
 10
28001.604341291921
 20
1475.7494964292871
 30
0.0
 11
28017.604341291921
 21
1475.7494964292871
 31
0.0
  0
LINE
  5
4998
  8
YODOROGO
 10
28001.604341291921
 20
1580.0053496897469
 30
0.0
 11
28001.604341291921
 21
1475.7494964292871
 31
0.0
  0
LINE
  5
4999
  8
YODOROGO
 10
27977.604341291921
 20
1532.7680790334291
 30
0.0
 11
28001.604341291921
 21
1580.0053496897469
 31
0.0
  0
LINE
  5
499A
  8
YODOROGO
 10
27977.604341291921
 20
1556.76807903343
 30
0.0
 11
27977.604341291921
 21
1532.7680790334291
 31
0.0
  0
LINE
  5
499B
  8
YODOROGO
 10
28025.828774291349
 20
1667.749496429285
 30
0.0
 11
27977.604341291921
 21
1556.76807903343
 31
0.0
  0
LINE
  5
499C
  8
YODOROGO
 10
27977.604341291921
 20
1667.749496429285
 30
0.0
 11
28025.828774291349
 21
1667.749496429285
 31
0.0
  0
LINE
  5
499D
  8
YODOROGO
 10
28050.135520230899
 20
1655.5036372746561
 30
0.0
 11
28082.135520230921
 21
1655.5036372746561
 31
0.0
1001
AUTOCAD_POSTSCRIPT_FIGURE
1002
{
1000
PSFILL
1000
Grayscale
1000
Grayscale
1070
   100
1002
}
  0
LINE
  5
499E
  8
YODOROGO
 10
28050.135520230899
 20
1631.5036372746561
 30
0.0
 11
28050.135520230899
 21
1655.5036372746561
 31
0.0
1001
AUTOCAD_POSTSCRIPT_FIGURE
1002
{
1000
PSFILL
1000
Grayscale
1000
Grayscale
1070
   100
1002
}
  0
LINE
  5
499F
  8
YODOROGO
 10
28082.135520230921
 20
1631.5036372746561
 30
0.0
 11
28050.135520230899
 21
1631.5036372746561
 31
0.0
1001
AUTOCAD_POSTSCRIPT_FIGURE
1002
{
1000
PSFILL
1000
Grayscale
1000
Grayscale
1070
   100
1002
}
  0
LINE
  5
49A0
  8
YODOROGO
 10
28082.135520230921
 20
1499.749496429288
 30
0.0
 11
28082.135520230921
 21
1631.5036372746561
 31
0.0
1001
AUTOCAD_POSTSCRIPT_FIGURE
1002
{
1000
PSFILL
1000
Grayscale
1000
Grayscale
1070
   100
1002
}
  0
LINE
  5
49A1
  8
YODOROGO
 10
28050.135520230921
 20
1499.749496429288
 30
0.0
 11
28082.135520230921
 21
1499.749496429288
 31
0.0
1001
AUTOCAD_POSTSCRIPT_FIGURE
1002
{
1000
PSFILL
1000
Grayscale
1000
Grayscale
1070
   100
1002
}
  0
LINE
  5
49A2
  8
YODOROGO
 10
28050.135520230921
 20
1475.7494964292871
 30
0.0
 11
28050.135520230921
 21
1499.749496429288
 31
0.0
1001
AUTOCAD_POSTSCRIPT_FIGURE
1002
{
1000
PSFILL
1000
Grayscale
1000
Grayscale
1070
   100
1002
}
  0
LINE
  5
49A3
  8
YODOROGO
 10
28137.604341291921
 20
1475.7494964292871
 30
0.0
 11
28050.135520230921
 21
1475.7494964292871
 31
0.0
1001
AUTOCAD_POSTSCRIPT_FIGURE
1002
{
1000
PSFILL
1000
Grayscale
1000
Grayscale
1070
   100
1002
}
  0
LINE
  5
49A4
  8
YODOROGO
 10
28137.604341291921
 20
1499.749496429288
 30
0.0
 11
28137.604341291921
 21
1475.7494964292871
 31
0.0
1001
AUTOCAD_POSTSCRIPT_FIGURE
1002
{
1000
PSFILL
1000
Grayscale
1000
Grayscale
1070
   100
1002
}
  0
LINE
  5
49A5
  8
YODOROGO
 10
28098.135520230931
 20
1499.749496429288
 30
0.0
 11
28137.604341291921
 21
1499.749496429288
 31
0.0
1001
AUTOCAD_POSTSCRIPT_FIGURE
1002
{
1000
PSFILL
1000
Grayscale
1000
Grayscale
1070
   100
1002
}
  0
LINE
  5
49A6
  8
YODOROGO
 10
28098.135520230931
 20
1631.5036372746561
 30
0.0
 11
28098.135520230931
 21
1499.749496429288
 31
0.0
1001
AUTOCAD_POSTSCRIPT_FIGURE
1002
{
1000
PSFILL
1000
Grayscale
1000
Grayscale
1070
   100
1002
}
  0
LINE
  5
49A7
  8
YODOROGO
 10
28137.604341291921
 20
1631.5036372746561
 30
0.0
 11
28098.135520230931
 21
1631.5036372746561
 31
0.0
1001
AUTOCAD_POSTSCRIPT_FIGURE
1002
{
1000
PSFILL
1000
Grayscale
1000
Grayscale
1070
   100
1002
}
  0
LINE
  5
49A8
  8
YODOROGO
 10
28137.604341291921
 20
1655.5036372746561
 30
0.0
 11
28137.604341291921
 21
1631.5036372746561
 31
0.0
1001
AUTOCAD_POSTSCRIPT_FIGURE
1002
{
1000
PSFILL
1000
Grayscale
1000
Grayscale
1070
   100
1002
}
  0
LINE
  5
49A9
  8
YODOROGO
 10
28098.135520230931
 20
1655.5036372746561
 30
0.0
 11
28137.604341291921
 21
1655.5036372746561
 31
0.0
1001
AUTOCAD_POSTSCRIPT_FIGURE
1002
{
1000
PSFILL
1000
Grayscale
1000
Grayscale
1070
   100
1002
}
  0
LINE
  5
49AA
  8
YODOROGO
 10
28401.60434129191
 20
1667.749496429288
 30
0.0
 11
28345.604341291921
 21
1667.749496429288
 31
0.0
  0
LINE
  5
49AB
  8
YODOROGO
 10
28401.60434129191
 20
1611.749496429288
 30
0.0
 11
28401.60434129191
 21
1667.749496429288
 31
0.0
  0
LINE
  5
49AC
  8
YODOROGO
 10
28345.604341291921
 20
1667.749496429288
 30
0.0
 11
28345.604341291921
 21
1611.749496429288
 31
0.0
  0
ARC
  5
49AD
  8
YODOROGO
 10
28513.60434129191
 20
1507.749496429288
 30
0.0
 40
80.0
 50
180.0
 51
270.0
  0
ARC
  5
49AE
  8
YODOROGO
 10
28537.604341291921
 20
1563.7494964292871
 30
0.0
 40
40.0
 50
180.0
 51
270.0
  0
LINE
  5
49AF
  8
YODOROGO
 10
28561.604341291932
 20
1523.7494964292871
 30
0.0
 11
28537.604341291921
 21
1523.7494964292871
 31
0.0
  0
ARC
  5
49B0
  8
YODOROGO
 10
28561.604341291932
 20
1547.749496429285
 30
0.0
 40
23.999999999996358
 50
270.0
 51
0.0000000000054281
  0
LINE
  5
49B1
  8
YODOROGO
 10
27801.604341291921
 20
1890.786580793706
 30
0.0
 11
27777.604341291921
 21
1843.776747951672
 31
0.0
1001
AUTOCAD_POSTSCRIPT_FIGURE
1002
{
1000
PSFILL
1000
Grayscale
1000
Grayscale
1070
   100
1002
}
  0
LINE
  5
49B2
  8
YODOROGO
 10
27801.604341291921
 20
1747.749496429286
 30
0.0
 11
27801.604341291921
 21
1890.786580793706
 31
0.0
1001
AUTOCAD_POSTSCRIPT_FIGURE
1002
{
1000
PSFILL
1000
Grayscale
1000
Grayscale
1070
   100
1002
}
  0
LINE
  5
49B3
  8
YODOROGO
 10
27817.604341291921
 20
1747.749496429286
 30
0.0
 11
27801.604341291921
 21
1747.749496429286
 31
0.0
1001
AUTOCAD_POSTSCRIPT_FIGURE
1002
{
1000
PSFILL
1000
Grayscale
1000
Grayscale
1070
   100
1002
}
  0
LINE
  5
49B4
  8
YODOROGO
 10
27817.604341291921
 20
1893.7713320852661
 30
0.0
 11
27817.604341291921
 21
1747.749496429286
 31
0.0
1001
AUTOCAD_POSTSCRIPT_FIGURE
1002
{
1000
PSFILL
1000
Grayscale
1000
Grayscale
1070
   100
1002
}
  0
LINE
  5
49B5
  8
YODOROGO
 10
27841.604341291921
 20
1867.6547582841361
 30
0.0
 11
27817.604341291921
 21
1893.7713320852661
 31
0.0
1001
AUTOCAD_POSTSCRIPT_FIGURE
1002
{
1000
PSFILL
1000
Grayscale
1000
Grayscale
1070
   100
1002
}
  0
LINE
  5
49B6
  8
YODOROGO
 10
27841.604341291921
 20
1883.6547582841361
 30
0.0
 11
27841.604341291921
 21
1867.6547582841361
 31
0.0
1001
AUTOCAD_POSTSCRIPT_FIGURE
1002
{
1000
PSFILL
1000
Grayscale
1000
Grayscale
1070
   100
1002
}
  0
LINE
  5
49B7
  8
YODOROGO
 10
27817.604341291921
 20
1917.7713320852649
 30
0.0
 11
27841.604341291921
 21
1883.6547582841361
 31
0.0
1001
AUTOCAD_POSTSCRIPT_FIGURE
1002
{
1000
PSFILL
1000
Grayscale
1000
Grayscale
1070
   100
1002
}
  0
LINE
  5
49B8
  8
YODOROGO
 10
27817.604341291921
 20
1939.749496429288
 30
0.0
 11
27817.604341291921
 21
1917.7713320852649
 31
0.0
1001
AUTOCAD_POSTSCRIPT_FIGURE
1002
{
1000
PSFILL
1000
Grayscale
1000
Grayscale
1070
   100
1002
}
  0
LINE
  5
49B9
  8
YODOROGO
 10
27889.604341291921
 20
1939.749496429288
 30
0.0
 11
27817.604341291921
 21
1939.749496429288
 31
0.0
1001
AUTOCAD_POSTSCRIPT_FIGURE
1002
{
1000
PSFILL
1000
Grayscale
1000
Grayscale
1070
   100
1002
}
  0
LINE
  5
49BA
  8
YODOROGO
 10
27889.604341291921
 20
1900.5683489363
 30
0.0
 11
27889.604341291921
 21
1939.749496429288
 31
0.0
1001
AUTOCAD_POSTSCRIPT_FIGURE
1002
{
1000
PSFILL
1000
Grayscale
1000
Grayscale
1070
   100
1002
}
  0
LINE
  5
49BB
  8
YODOROGO
 10
27857.604341291921
 20
1900.5683489363
 30
0.0
 11
27889.604341291921
 21
1900.5683489363
 31
0.0
1001
AUTOCAD_POSTSCRIPT_FIGURE
1002
{
1000
PSFILL
1000
Grayscale
1000
Grayscale
1070
   100
1002
}
  0
LINE
  5
49BC
  8
YODOROGO
 10
27857.604341291921
 20
1884.568348936298
 30
0.0
 11
27857.604341291921
 21
1900.5683489363
 31
0.0
1001
AUTOCAD_POSTSCRIPT_FIGURE
1002
{
1000
PSFILL
1000
Grayscale
1000
Grayscale
1070
   100
1002
}
  0
LINE
  5
49BD
  8
YODOROGO
 10
27889.604341291921
 20
1884.568348936298
 30
0.0
 11
27857.604341291921
 21
1884.568348936298
 31
0.0
1001
AUTOCAD_POSTSCRIPT_FIGURE
1002
{
1000
PSFILL
1000
Grayscale
1000
Grayscale
1070
   100
1002
}
  0
LINE
  5
49BE
  8
YODOROGO
 10
27889.604341291921
 20
1879.6191779644371
 30
0.0
 11
27889.604341291921
 21
1884.568348936298
 31
0.0
1001
AUTOCAD_POSTSCRIPT_FIGURE
1002
{
1000
PSFILL
1000
Grayscale
1000
Grayscale
1070
   100
1002
}
  0
LINE
  5
49BF
  8
YODOROGO
 10
27849.604341291921
 20
1812.974981161417
 30
0.0
 11
27889.604341291921
 21
1879.6191779644371
 31
0.0
1001
AUTOCAD_POSTSCRIPT_FIGURE
1002
{
1000
PSFILL
1000
Grayscale
1000
Grayscale
1070
   100
1002
}
  0
LINE
  5
49C0
  8
YODOROGO
 10
27849.604341291921
 20
1796.9749811614161
 30
0.0
 11
27849.604341291921
 21
1812.974981161417
 31
0.0
1001
AUTOCAD_POSTSCRIPT_FIGURE
1002
{
1000
PSFILL
1000
Grayscale
1000
Grayscale
1070
   100
1002
}
  0
LINE
  5
49C1
  8
YODOROGO
 10
27889.604341291921
 20
1847.6191779644359
 30
0.0
 11
27849.604341291921
 21
1796.9749811614161
 31
0.0
1001
AUTOCAD_POSTSCRIPT_FIGURE
1002
{
1000
PSFILL
1000
Grayscale
1000
Grayscale
1070
   100
1002
}
  0
LINE
  5
49C2
  8
YODOROGO
 10
27889.604341291921
 20
1747.749496429286
 30
0.0
 11
27889.604341291921
 21
1847.6191779644359
 31
0.0
1001
AUTOCAD_POSTSCRIPT_FIGURE
1002
{
1000
PSFILL
1000
Grayscale
1000
Grayscale
1070
   100
1002
}
  0
LINE
  5
49C3
  8
YODOROGO
 10
27905.604341291921
 20
1747.749496429286
 30
0.0
 11
27889.604341291921
 21
1747.749496429286
 31
0.0
1001
AUTOCAD_POSTSCRIPT_FIGURE
1002
{
1000
PSFILL
1000
Grayscale
1000
Grayscale
1070
   100
1002
}
  0
LINE
  5
49C4
  8
YODOROGO
 10
27905.604341291921
 20
1849.409012158806
 30
0.0
 11
27905.604341291921
 21
1747.749496429286
 31
0.0
1001
AUTOCAD_POSTSCRIPT_FIGURE
1002
{
1000
PSFILL
1000
Grayscale
1000
Grayscale
1070
   100
1002
}
  0
LINE
  5
49C5
  8
YODOROGO
 10
27937.604341291921
 20
1796.9749811614161
 30
0.0
 11
27905.604341291921
 21
1849.409012158806
 31
0.0
1001
AUTOCAD_POSTSCRIPT_FIGURE
1002
{
1000
PSFILL
1000
Grayscale
1000
Grayscale
1070
   100
1002
}
  0
LINE
  5
49C6
  8
YODOROGO
 10
27937.604341291921
 20
1812.974981161417
 30
0.0
 11
27937.604341291921
 21
1796.9749811614161
 31
0.0
1001
AUTOCAD_POSTSCRIPT_FIGURE
1002
{
1000
PSFILL
1000
Grayscale
1000
Grayscale
1070
   100
1002
}
  0
LINE
  5
49C7
  8
YODOROGO
 10
27905.604341291921
 20
1881.4090121588081
 30
0.0
 11
27937.604341291921
 21
1812.974981161417
 31
0.0
1001
AUTOCAD_POSTSCRIPT_FIGURE
1002
{
1000
PSFILL
1000
Grayscale
1000
Grayscale
1070
   100
1002
}
  0
LINE
  5
49C8
  8
YODOROGO
 10
27905.604341291921
 20
1884.5683489363
 30
0.0
 11
27905.604341291921
 21
1881.4090121588081
 31
0.0
1001
AUTOCAD_POSTSCRIPT_FIGURE
1002
{
1000
PSFILL
1000
Grayscale
1000
Grayscale
1070
   100
1002
}
  0
LINE
  5
49C9
  8
YODOROGO
 10
27937.604341291921
 20
1884.568348936298
 30
0.0
 11
27905.604341291921
 21
1884.5683489363
 31
0.0
1001
AUTOCAD_POSTSCRIPT_FIGURE
1002
{
1000
PSFILL
1000
Grayscale
1000
Grayscale
1070
   100
1002
}
  0
LINE
  5
49CA
  8
YODOROGO
 10
27937.604341291921
 20
1900.5683489363
 30
0.0
 11
27937.604341291921
 21
1884.568348936298
 31
0.0
1001
AUTOCAD_POSTSCRIPT_FIGURE
1002
{
1000
PSFILL
1000
Grayscale
1000
Grayscale
1070
   100
1002
}
  0
LINE
  5
49CB
  8
YODOROGO
 10
27905.604341291921
 20
1900.5683489363
 30
0.0
 11
27937.604341291921
 21
1900.5683489363
 31
0.0
1001
AUTOCAD_POSTSCRIPT_FIGURE
1002
{
1000
PSFILL
1000
Grayscale
1000
Grayscale
1070
   100
1002
}
  0
LINE
  5
49CC
  8
YODOROGO
 10
27905.604341291921
 20
1939.749496429288
 30
0.0
 11
27905.604341291921
 21
1900.5683489363
 31
0.0
1001
AUTOCAD_POSTSCRIPT_FIGURE
1002
{
1000
PSFILL
1000
Grayscale
1000
Grayscale
1070
   100
1002
}
  0
LINE
  5
49CD
  8
YODOROGO
 10
27937.604341291921
 20
1939.749496429288
 30
0.0
 11
27905.604341291921
 21
1939.749496429288
 31
0.0
1001
AUTOCAD_POSTSCRIPT_FIGURE
1002
{
1000
PSFILL
1000
Grayscale
1000
Grayscale
1070
   100
1002
}
  0
LINE
  5
49CE
  8
YODOROGO
 10
27937.604341291921
 20
1955.7494964292871
 30
0.0
 11
27937.604341291921
 21
1939.749496429288
 31
0.0
1001
AUTOCAD_POSTSCRIPT_FIGURE
1002
{
1000
PSFILL
1000
Grayscale
1000
Grayscale
1070
   100
1002
}
  0
LINE
  5
49CF
  8
YODOROGO
 10
27905.604341291921
 20
1955.7494964292871
 30
0.0
 11
27937.604341291921
 21
1955.7494964292871
 31
0.0
1001
AUTOCAD_POSTSCRIPT_FIGURE
1002
{
1000
PSFILL
1000
Grayscale
1000
Grayscale
1070
   100
1002
}
  0
LINE
  5
49D0
  8
YODOROGO
 10
27905.604341291921
 20
1979.749496429288
 30
0.0
 11
27905.604341291921
 21
1955.7494964292871
 31
0.0
1001
AUTOCAD_POSTSCRIPT_FIGURE
1002
{
1000
PSFILL
1000
Grayscale
1000
Grayscale
1070
   100
1002
}
  0
LINE
  5
49D1
  8
YODOROGO
 10
27889.604341291921
 20
1979.749496429288
 30
0.0
 11
27905.604341291921
 21
1979.749496429288
 31
0.0
1001
AUTOCAD_POSTSCRIPT_FIGURE
1002
{
1000
PSFILL
1000
Grayscale
1000
Grayscale
1070
   100
1002
}
  0
LINE
  5
49D2
  8
YODOROGO
 10
27889.604341291921
 20
1955.7494964292871
 30
0.0
 11
27889.604341291921
 21
1979.749496429288
 31
0.0
1001
AUTOCAD_POSTSCRIPT_FIGURE
1002
{
1000
PSFILL
1000
Grayscale
1000
Grayscale
1070
   100
1002
}
  0
LINE
  5
49D3
  8
YODOROGO
 10
27865.604341291921
 20
1955.7494964292871
 30
0.0
 11
27889.604341291921
 21
1955.7494964292871
 31
0.0
1001
AUTOCAD_POSTSCRIPT_FIGURE
1002
{
1000
PSFILL
1000
Grayscale
1000
Grayscale
1070
   100
1002
}
  0
LINE
  5
49D4
  8
YODOROGO
 10
27865.604341291921
 20
1979.749496429288
 30
0.0
 11
27865.604341291921
 21
1955.7494964292871
 31
0.0
1001
AUTOCAD_POSTSCRIPT_FIGURE
1002
{
1000
PSFILL
1000
Grayscale
1000
Grayscale
1070
   100
1002
}
  0
LINE
  5
49D5
  8
YODOROGO
 10
27849.604341291921
 20
1979.749496429288
 30
0.0
 11
27865.604341291921
 21
1979.749496429288
 31
0.0
1001
AUTOCAD_POSTSCRIPT_FIGURE
1002
{
1000
PSFILL
1000
Grayscale
1000
Grayscale
1070
   100
1002
}
  0
LINE
  5
49D6
  8
YODOROGO
 10
27849.604341291921
 20
1955.7494964292871
 30
0.0
 11
27849.604341291921
 21
1979.749496429288
 31
0.0
1001
AUTOCAD_POSTSCRIPT_FIGURE
1002
{
1000
PSFILL
1000
Grayscale
1000
Grayscale
1070
   100
1002
}
  0
LINE
  5
49D7
  8
YODOROGO
 10
27817.604341291921
 20
1955.7494964292871
 30
0.0
 11
27849.604341291921
 21
1955.7494964292871
 31
0.0
1001
AUTOCAD_POSTSCRIPT_FIGURE
1002
{
1000
PSFILL
1000
Grayscale
1000
Grayscale
1070
   100
1002
}
  0
LINE
  5
49D8
  8
YODOROGO
 10
27817.604341291921
 20
1979.749496429288
 30
0.0
 11
27817.604341291921
 21
1955.7494964292871
 31
0.0
1001
AUTOCAD_POSTSCRIPT_FIGURE
1002
{
1000
PSFILL
1000
Grayscale
1000
Grayscale
1070
   100
1002
}
  0
LINE
  5
49D9
  8
YODOROGO
 10
27801.604341291921
 20
1979.749496429288
 30
0.0
 11
27817.604341291921
 21
1979.749496429288
 31
0.0
1001
AUTOCAD_POSTSCRIPT_FIGURE
1002
{
1000
PSFILL
1000
Grayscale
1000
Grayscale
1070
   100
1002
}
  0
LINE
  5
49DA
  8
YODOROGO
 10
27801.604341291921
 20
1955.7494964292871
 30
0.0
 11
27801.604341291921
 21
1979.749496429288
 31
0.0
1001
AUTOCAD_POSTSCRIPT_FIGURE
1002
{
1000
PSFILL
1000
Grayscale
1000
Grayscale
1070
   100
1002
}
  0
LINE
  5
49DB
  8
YODOROGO
 10
27777.604341291921
 20
1955.7494964292871
 30
0.0
 11
27801.604341291921
 21
1955.7494964292871
 31
0.0
1001
AUTOCAD_POSTSCRIPT_FIGURE
1002
{
1000
PSFILL
1000
Grayscale
1000
Grayscale
1070
   100
1002
}
  0
LINE
  5
49DC
  8
YODOROGO
 10
27777.604341291921
 20
1939.749496429288
 30
0.0
 11
27777.604341291921
 21
1955.7494964292871
 31
0.0
1001
AUTOCAD_POSTSCRIPT_FIGURE
1002
{
1000
PSFILL
1000
Grayscale
1000
Grayscale
1070
   100
1002
}
  0
LINE
  5
49DD
  8
YODOROGO
 10
27801.604341291921
 20
1939.749496429288
 30
0.0
 11
27777.604341291921
 21
1939.749496429288
 31
0.0
1001
AUTOCAD_POSTSCRIPT_FIGURE
1002
{
1000
PSFILL
1000
Grayscale
1000
Grayscale
1070
   100
1002
}
  0
LINE
  5
49DE
  8
YODOROGO
 10
27801.604341291921
 20
1914.7865807937051
 30
0.0
 11
27801.604341291921
 21
1939.749496429288
 31
0.0
1001
AUTOCAD_POSTSCRIPT_FIGURE
1002
{
1000
PSFILL
1000
Grayscale
1000
Grayscale
1070
   100
1002
}
  0
LINE
  5
49DF
  8
YODOROGO
 10
27777.604341291921
 20
1859.776747951671
 30
0.0
 11
27801.604341291921
 21
1914.7865807937051
 31
0.0
1001
AUTOCAD_POSTSCRIPT_FIGURE
1002
{
1000
PSFILL
1000
Grayscale
1000
Grayscale
1070
   100
1002
}
  0
LINE
  5
49E0
  8
YODOROGO
 10
27777.604341291921
 20
1843.776747951672
 30
0.0
 11
27777.604341291921
 21
1859.776747951671
 31
0.0
1001
AUTOCAD_POSTSCRIPT_FIGURE
1002
{
1000
PSFILL
1000
Grayscale
1000
Grayscale
1070
   100
1002
}
  0
LINE
  5
49E1
  8
YODOROGO
 10
28257.604341291921
 20
1867.7494964292871
 30
0.0
 11
28401.60434129191
 21
1824.877625640306
 31
0.0
1001
AUTOCAD_POSTSCRIPT_FIGURE
1002
{
1000
PSFILL
1000
Grayscale
1000
Grayscale
1070
   100
1002
}
  0
LINE
  5
49E2
  8
YODOROGO
 10
28401.60434129191
 20
1752.877625640306
 30
0.0
 11
28257.604341291921
 21
1795.7494964292871
 31
0.0
1001
AUTOCAD_POSTSCRIPT_FIGURE
1002
{
1000
PSFILL
1000
Grayscale
1000
Grayscale
1070
   100
1002
}
  0
LINE
  5
49E3
  8
YODOROGO
 10
28401.60434129191
 20
1984.877625640306
 30
0.0
 11
28257.604341291921
 21
2027.749496429288
 31
0.0
1001
AUTOCAD_POSTSCRIPT_FIGURE
1002
{
1000
PSFILL
1000
Grayscale
1000
Grayscale
1070
   100
1002
}
  0
LINE
  5
49E4
  8
YODOROGO
 10
28257.604341291921
 20
1959.749496429288
 30
0.0
 11
28401.60434129191
 21
1916.8776256403071
 31
0.0
1001
AUTOCAD_POSTSCRIPT_FIGURE
1002
{
1000
PSFILL
1000
Grayscale
1000
Grayscale
1070
   100
1002
}
  0
LINE
  5
49E5
  8
YODOROGO
 10
28257.604341291921
 20
1795.7494964292871
 30
0.0
 11
28257.604341291921
 21
1867.7494964292871
 31
0.0
1001
AUTOCAD_POSTSCRIPT_FIGURE
1002
{
1000
PSFILL
1000
Grayscale
1000
Grayscale
1070
   100
1002
}
  0
LINE
  5
49E6
  8
YODOROGO
 10
28257.604341291921
 20
2027.749496429288
 30
0.0
 11
28257.604341291921
 21
1959.749496429288
 31
0.0
1001
AUTOCAD_POSTSCRIPT_FIGURE
1002
{
1000
PSFILL
1000
Grayscale
1000
Grayscale
1070
   100
1002
}
  0
LINE
  5
49E7
  8
YODOROGO
 10
28080.236320206739
 20
1939.749496429288
 30
0.0
 11
28129.60434129191
 21
1747.749496429286
 31
0.0
1001
AUTOCAD_POSTSCRIPT_FIGURE
1002
{
1000
PSFILL
1000
Grayscale
1000
Grayscale
1070
   100
1002
}
  0
LINE
  5
49E8
  8
YODOROGO
 10
27977.604341291921
 20
1939.749496429288
 30
0.0
 11
28080.236320206739
 21
1939.749496429288
 31
0.0
1001
AUTOCAD_POSTSCRIPT_FIGURE
1002
{
1000
PSFILL
1000
Grayscale
1000
Grayscale
1070
   100
1002
}
  0
LINE
  5
49E9
  8
YODOROGO
 10
27977.604341291921
 20
1955.7494964292871
 30
0.0
 11
27977.604341291921
 21
1939.749496429288
 31
0.0
1001
AUTOCAD_POSTSCRIPT_FIGURE
1002
{
1000
PSFILL
1000
Grayscale
1000
Grayscale
1070
   100
1002
}
  0
LINE
  5
49EA
  8
YODOROGO
 10
28076.60687851991
 20
1955.7494964292871
 30
0.0
 11
27977.604341291921
 21
1955.7494964292871
 31
0.0
1001
AUTOCAD_POSTSCRIPT_FIGURE
1002
{
1000
PSFILL
1000
Grayscale
1000
Grayscale
1070
   100
1002
}
  0
LINE
  5
49EB
  8
YODOROGO
 10
28071.162715989711
 20
1979.749496429288
 30
0.0
 11
28076.60687851991
 21
1955.7494964292871
 31
0.0
1001
AUTOCAD_POSTSCRIPT_FIGURE
1002
{
1000
PSFILL
1000
Grayscale
1000
Grayscale
1070
   100
1002
}
  0
LINE
  5
49EC
  8
YODOROGO
 10
28091.162715989711
 20
1979.749496429288
 30
0.0
 11
28071.162715989711
 21
1979.749496429288
 31
0.0
1001
AUTOCAD_POSTSCRIPT_FIGURE
1002
{
1000
PSFILL
1000
Grayscale
1000
Grayscale
1070
   100
1002
}
  0
LINE
  5
49ED
  8
YODOROGO
 10
28095.806878519939
 20
1955.7494964292871
 30
0.0
 11
28091.162715989711
 21
1979.749496429288
 31
0.0
1001
AUTOCAD_POSTSCRIPT_FIGURE
1002
{
1000
PSFILL
1000
Grayscale
1000
Grayscale
1070
   100
1002
}
  0
LINE
  5
49EE
  8
YODOROGO
 10
28121.604341291921
 20
1955.7494964292871
 30
0.0
 11
28095.806878519939
 21
1955.7494964292871
 31
0.0
1001
AUTOCAD_POSTSCRIPT_FIGURE
1002
{
1000
PSFILL
1000
Grayscale
1000
Grayscale
1070
   100
1002
}
  0
LINE
  5
49EF
  8
YODOROGO
 10
28121.604341291921
 20
1979.749496429288
 30
0.0
 11
28121.604341291921
 21
1955.7494964292871
 31
0.0
1001
AUTOCAD_POSTSCRIPT_FIGURE
1002
{
1000
PSFILL
1000
Grayscale
1000
Grayscale
1070
   100
1002
}
  0
LINE
  5
49F0
  8
YODOROGO
 10
28137.604341291921
 20
1979.749496429288
 30
0.0
 11
28121.604341291921
 21
1979.749496429288
 31
0.0
1001
AUTOCAD_POSTSCRIPT_FIGURE
1002
{
1000
PSFILL
1000
Grayscale
1000
Grayscale
1070
   100
1002
}
  0
LINE
  5
49F1
  8
YODOROGO
 10
28137.604341291921
 20
1955.7494964292871
 30
0.0
 11
28137.604341291921
 21
1979.749496429288
 31
0.0
1001
AUTOCAD_POSTSCRIPT_FIGURE
1002
{
1000
PSFILL
1000
Grayscale
1000
Grayscale
1070
   100
1002
}
  0
LINE
  5
49F2
  8
YODOROGO
 10
28137.604341291921
 20
1939.749496429288
 30
0.0
 11
28137.604341291921
 21
1955.7494964292871
 31
0.0
1001
AUTOCAD_POSTSCRIPT_FIGURE
1002
{
1000
PSFILL
1000
Grayscale
1000
Grayscale
1070
   100
1002
}
  0
LINE
  5
49F3
  8
YODOROGO
 10
28098.902986873411
 20
1939.749496429288
 30
0.0
 11
28137.604341291921
 21
1939.749496429288
 31
0.0
1001
AUTOCAD_POSTSCRIPT_FIGURE
1002
{
1000
PSFILL
1000
Grayscale
1000
Grayscale
1070
   100
1002
}
  0
LINE
  5
49F4
  8
YODOROGO
 10
28137.604341291921
 20
1747.749496429286
 30
0.0
 11
28098.902986873411
 21
1939.749496429288
 31
0.0
1001
AUTOCAD_POSTSCRIPT_FIGURE
1002
{
1000
PSFILL
1000
Grayscale
1000
Grayscale
1070
   100
1002
}
  0
LINE
  5
49F5
  8
YODOROGO
 10
28129.60434129191
 20
1747.749496429286
 30
0.0
 11
28137.604341291921
 21
1747.749496429286
 31
0.0
1001
AUTOCAD_POSTSCRIPT_FIGURE
1002
{
1000
PSFILL
1000
Grayscale
1000
Grayscale
1070
   100
1002
}
  0
LINE
  5
49F6
  8
YODOROGO
 10
28078.06921993379
 20
1775.7407762987939
 30
0.0
 11
27977.604341291921
 21
1747.749496429286
 31
0.0
  0
LINE
  5
49F7
  8
YODOROGO
 10
28078.06921993379
 20
1798.6689795290731
 30
0.0
 11
28078.06921993379
 21
1775.7407762987939
 31
0.0
  0
LINE
  5
49F8
  8
YODOROGO
 10
28033.83678061287
 20
1786.816933133767
 30
0.0
 11
28078.06921993379
 21
1798.6689795290731
 31
0.0
  0
LINE
  5
49F9
  8
YODOROGO
 10
28033.83678061287
 20
1872.5683489362989
 30
0.0
 11
28033.83678061287
 21
1786.816933133767
 31
0.0
  0
LINE
  5
49FA
  8
YODOROGO
 10
28078.06921993379
 20
1872.5683489362989
 30
0.0
 11
28033.83678061287
 21
1872.5683489362989
 31
0.0
  0
LINE
  5
49FB
  8
YODOROGO
 10
28078.06921993379
 20
1892.568348936298
 30
0.0
 11
28078.06921993379
 21
1872.5683489362989
 31
0.0
  0
LINE
  5
49FC
  8
YODOROGO
 10
27977.604341291921
 20
1892.568348936298
 30
0.0
 11
28078.06921993379
 21
1892.568348936298
 31
0.0
  0
LINE
  5
49FD
  8
YODOROGO
 10
27977.604341291921
 20
1872.5683489362989
 30
0.0
 11
27977.604341291921
 21
1892.568348936298
 31
0.0
  0
LINE
  5
49FE
  8
YODOROGO
 10
28021.836780612852
 20
1872.5683489362989
 30
0.0
 11
27977.604341291921
 21
1872.5683489362989
 31
0.0
  0
LINE
  5
49FF
  8
YODOROGO
 10
28021.836780612852
 20
1784.673339594317
 30
0.0
 11
28021.836780612852
 21
1872.5683489362989
 31
0.0
  0
LINE
  5
4A00
  8
YODOROGO
 10
27977.604341291921
 20
1771.749496429286
 30
0.0
 11
28021.836780612852
 21
1784.673339594317
 31
0.0
  0
LINE
  5
4A01
  8
YODOROGO
 10
27977.604341291921
 20
1747.749496429286
 30
0.0
 11
27977.604341291921
 21
1771.749496429286
 31
0.0
  0
LINE
  5
4A02
  8
YODOROGO
 10
28001.604341291921
 20
1707.749496429288
 30
0.0
 11
28001.604341291921
 21
1683.7494964292871
 31
0.0
  0
LINE
  5
4A03
  8
YODOROGO
 10
28017.604341291921
 20
1707.749496429288
 30
0.0
 11
28001.604341291921
 21
1707.749496429288
 31
0.0
  0
LINE
  5
4A04
  8
YODOROGO
 10
28017.604341291921
 20
1683.7494964292871
 30
0.0
 11
28017.604341291921
 21
1707.749496429288
 31
0.0
  0
LINE
  5
4A05
  8
YODOROGO
 10
28040.913204016892
 20
1683.7494964292871
 30
0.0
 11
28017.604341291921
 21
1683.7494964292871
 31
0.0
  0
LINE
  5
4A06
  8
YODOROGO
 10
28001.604341291921
 20
1683.7494964292871
 30
0.0
 11
27977.604341291921
 21
1683.7494964292871
 31
0.0
  0
LINE
  5
4A07
  8
YODOROGO
 10
28082.135520230921
 20
1707.749496429288
 30
0.0
 11
28098.135520230931
 21
1707.749496429288
 31
0.0
1001
AUTOCAD_POSTSCRIPT_FIGURE
1002
{
1000
PSFILL
1000
Grayscale
1000
Grayscale
1070
   100
1002
}
  0
LINE
  5
4A08
  8
YODOROGO
 10
28401.60434129191
 20
1824.877625640306
 30
0.0
 11
28401.60434129191
 21
1752.877625640306
 31
0.0
1001
AUTOCAD_POSTSCRIPT_FIGURE
1002
{
1000
PSFILL
1000
Grayscale
1000
Grayscale
1070
   100
1002
}
  0
LINE
  5
4A09
  8
YODOROGO
 10
28401.60434129191
 20
1916.8776256403071
 30
0.0
 11
28401.60434129191
 21
1984.877625640306
 31
0.0
1001
AUTOCAD_POSTSCRIPT_FIGURE
1002
{
1000
PSFILL
1000
Grayscale
1000
Grayscale
1070
   100
1002
}
  0
LINE
  5
4A0A
  8
YODOROGO
 10
28433.60434129191
 20
1819.7494964292871
 30
0.0
 11
28433.60434129191
 21
1747.74949642929
 31
0.0
  0
LINE
  5
4A0B
  8
YODOROGO
 10
28497.60434129191
 20
1707.749496429288
 30
0.0
 11
28433.60434129191
 21
1707.749496429288
 31
0.0
  0
LINE
  5
4A0C
  8
YODOROGO
 10
28433.60434129191
 20
1747.74949642929
 30
0.0
 11
28585.604341291921
 21
1747.74949642929
 31
0.0
  0
LINE
  5
4A0D
  8
YODOROGO
 10
28497.60434129191
 20
1867.7494964292871
 30
0.0
 11
28433.60434129191
 21
1867.7494964292871
 31
0.0
  0
LINE
  5
4A0E
  8
YODOROGO
 10
28497.60434129191
 20
1923.7494964292871
 30
0.0
 11
28497.60434129191
 21
1867.7494964292871
 31
0.0
  0
LINE
  5
4A0F
  8
YODOROGO
 10
28585.604341291921
 20
1987.7494964292871
 30
0.0
 11
28585.604341291921
 21
2027.749496429288
 31
0.0
  0
LINE
  5
4A10
  8
YODOROGO
 10
28433.60434129191
 20
1987.7494964292871
 30
0.0
 11
28585.604341291921
 21
1987.7494964292871
 31
0.0
  0
LINE
  5
4A11
  8
YODOROGO
 10
28433.60434129191
 20
1867.7494964292871
 30
0.0
 11
28433.60434129191
 21
1987.7494964292871
 31
0.0
  0
LINE
  5
4A12
  8
YODOROGO
 10
29001.60434129191
 20
2027.749496429288
 30
0.0
 11
29001.60434129191
 21
1619.749496429288
 31
0.0
  0
LINE
  5
4A13
  8
YODOROGO
 10
29073.604341291921
 20
1579.749496429288
 30
0.0
 11
29073.604341291921
 21
2027.749496429288
 31
0.0
  0
LINE
  5
4A14
  8
YODOROGO
 10
29261.604341291921
 20
1491.749496429286
 30
0.0
 11
29261.604341291921
 21
2007.749496429288
 31
0.0
  0
LINE
  5
4A15
  8
YODOROGO
 10
29197.604341291921
 20
2007.749496429288
 30
0.0
 11
29197.604341291921
 21
1491.749496429286
 31
0.0
  0
LINE
  5
4A16
  8
YODOROGO
 10
29385.604341291921
 20
2027.749496429288
 30
0.0
 11
29385.604341291921
 21
1427.749496429288
 31
0.0
  0
LINE
  5
4A17
  8
YODOROGO
 10
29457.604341291921
 20
1427.749496429288
 30
0.0
 11
29457.604341291921
 21
2027.749496429288
 31
0.0
  0
LINE
  5
4A18
  8
YODOROGO
 10
28657.604341291921
 20
1667.749496429288
 30
0.0
 11
28657.604341291921
 21
1747.74949642929
 31
0.0
  0
LINE
  5
4A19
  8
YODOROGO
 10
29885.604341291921
 20
1707.749496429288
 30
0.0
 11
29885.604341291921
 21
1667.749496429288
 31
0.0
  0
LINE
  5
4A1A
  8
YODOROGO
 10
29885.604341291921
 20
1707.749496429288
 30
0.0
 11
29885.604341291921
 21
1667.749496429288
 31
0.0
  0
ARC
  5
4A1B
  8
YODOROGO
 10
28906.911576186842
 20
1618.217864442272
 30
0.0
 40
94.705151178741644
 50
274.05244162907098
 51
0.9266642149310712
  0
ARC
  5
4A1C
  8
YODOROGO
 10
28909.186170719819
 20
1592.61072861044
 30
0.0
 40
164.92042356085511
 50
271.5351210653775
 51
355.52727750585052
  0
LINE
  5
4A1D
  8
YODOROGO
 10
28913.604341291921
 20
1523.7494964292871
 30
0.0
 11
28913.604341291921
 21
1427.749496429288
 31
0.0
  0
LINE
  5
4A1E
  8
YODOROGO
 10
28793.60434129191
 20
1667.749496429288
 30
0.0
 11
28657.604341291921
 21
1667.749496429288
 31
0.0
  0
LINE
  5
4A1F
  8
YODOROGO
 10
28793.60434129191
 20
1603.7494964292871
 30
0.0
 11
28793.60434129191
 21
1667.749496429288
 31
0.0
  0
LINE
  5
4A20
  8
YODOROGO
 10
28657.604341291921
 20
1603.7494964292871
 30
0.0
 11
28793.60434129191
 21
1603.7494964292871
 31
0.0
  0
LINE
  5
4A21
  8
YODOROGO
 10
28657.604341291921
 20
1523.7494964292871
 30
0.0
 11
28657.604341291921
 21
1603.7494964292871
 31
0.0
  0
LINE
  5
4A22
  8
YODOROGO
 10
28793.60434129191
 20
1523.7494964292871
 30
0.0
 11
28657.604341291921
 21
1523.7494964292871
 31
0.0
  0
LINE
  5
4A23
  8
YODOROGO
 10
28793.60434129191
 20
1427.749496429288
 30
0.0
 11
28793.60434129191
 21
1523.7494964292871
 31
0.0
  0
LINE
  5
4A24
  8
YODOROGO
 10
29197.604341291921
 20
1491.749496429286
 30
0.0
 11
29261.604341291921
 21
1491.749496429286
 31
0.0
  0
LINE
  5
4A25
  8
YODOROGO
 10
29385.604341291921
 20
1427.749496429288
 30
0.0
 11
29457.604341291921
 21
1427.749496429288
 31
0.0
  0
LINE
  5
4A26
  8
YODOROGO
 10
29737.604341291921
 20
1528.4414521705639
 30
0.0
 11
29737.604341291921
 21
1427.749496429288
 31
0.0
  0
LINE
  5
4A27
  8
YODOROGO
 10
29617.604341291921
 20
1427.749496429288
 30
0.0
 11
29737.604341291921
 21
1528.4414521705639
 31
0.0
  0
LINE
  5
4A28
  8
YODOROGO
 10
29617.604341291921
 20
1547.749496429288
 30
0.0
 11
29617.604341291921
 21
1427.749496429288
 31
0.0
  0
LINE
  5
4A29
  8
YODOROGO
 10
29712.94462869945
 20
1627.749496429288
 30
0.0
 11
29617.604341291921
 21
1547.749496429288
 31
0.0
  0
LINE
  5
4A2A
  8
YODOROGO
 10
29617.604341291921
 20
1627.749496429288
 30
0.0
 11
29712.94462869945
 21
1627.749496429288
 31
0.0
  0
LINE
  5
4A2B
  8
YODOROGO
 10
29617.604341291921
 20
1667.749496429288
 30
0.0
 11
29617.604341291921
 21
1627.749496429288
 31
0.0
  0
LINE
  5
4A2C
  8
YODOROGO
 10
29885.604341291921
 20
1667.749496429288
 30
0.0
 11
29617.604341291921
 21
1667.749496429288
 31
0.0
  0
LINE
  5
4A2D
  8
YODOROGO
 10
29917.604341291921
 20
1627.749496429288
 30
0.0
 11
29777.604341291921
 21
1627.749496429288
 31
0.0
  0
LINE
  5
4A2E
  8
YODOROGO
 10
29777.604341291921
 20
1562.0054374176559
 30
0.0
 11
29771.409872985321
 21
1556.807661346234
 31
0.0
  0
LINE
  5
4A2F
  8
YODOROGO
 10
29777.604341291921
 20
1627.749496429288
 30
0.0
 11
29777.604341291921
 21
1562.0054374176559
 31
0.0
  0
LINE
  5
4A30
  8
YODOROGO
 10
29737.604341291921
 20
1528.4414521705639
 30
0.0
 11
29737.604341291921
 21
1427.749496429288
 31
0.0
  0
LINE
  5
4A31
  8
YODOROGO
 10
29617.604341291921
 20
1427.749496429288
 30
0.0
 11
29737.604341291921
 21
1528.4414521705639
 31
0.0
  0
LINE
  5
4A32
  8
YODOROGO
 10
29617.604341291921
 20
1547.749496429288
 30
0.0
 11
29617.604341291921
 21
1427.749496429288
 31
0.0
  0
LINE
  5
4A33
  8
YODOROGO
 10
29712.94462869945
 20
1627.749496429288
 30
0.0
 11
29617.604341291921
 21
1547.749496429288
 31
0.0
  0
LINE
  5
4A34
  8
YODOROGO
 10
29617.604341291921
 20
1627.749496429288
 30
0.0
 11
29712.94462869945
 21
1627.749496429288
 31
0.0
  0
LINE
  5
4A35
  8
YODOROGO
 10
29617.604341291921
 20
1667.749496429288
 30
0.0
 11
29617.604341291921
 21
1627.749496429288
 31
0.0
  0
LINE
  5
4A36
  8
YODOROGO
 10
29885.604341291921
 20
1667.749496429288
 30
0.0
 11
29617.604341291921
 21
1667.749496429288
 31
0.0
  0
LINE
  5
4A37
  8
YODOROGO
 10
28793.60434129191
 20
1747.74949642929
 30
0.0
 11
28793.60434129191
 21
1819.7494964292871
 31
0.0
  0
LINE
  5
4A38
  8
YODOROGO
 10
28657.604341291921
 20
1747.74949642929
 30
0.0
 11
28793.60434129191
 21
1747.74949642929
 31
0.0
  0
LINE
  5
4A39
  8
YODOROGO
 10
28729.604341291921
 20
1867.7494964292871
 30
0.0
 11
28729.604341291921
 21
1923.7494964292871
 31
0.0
  0
LINE
  5
4A3A
  8
YODOROGO
 10
28793.60434129191
 20
1867.7494964292871
 30
0.0
 11
28729.604341291921
 21
1867.7494964292871
 31
0.0
  0
LINE
  5
4A3B
  8
YODOROGO
 10
28793.60434129191
 20
1947.749496429288
 30
0.0
 11
28793.60434129191
 21
1867.7494964292871
 31
0.0
  0
ARC
  5
4A3C
  8
YODOROGO
 10
28753.60434129191
 20
1947.749496429288
 30
0.0
 40
40.0
 50
0.0
 51
90.0
  0
LINE
  5
4A3D
  8
YODOROGO
 10
28657.604341291921
 20
1987.7494964292871
 30
0.0
 11
28753.60434129191
 21
1987.7494964292871
 31
0.0
  0
LINE
  5
4A3E
  8
YODOROGO
 10
28657.604341291921
 20
2027.749496429288
 30
0.0
 11
28657.604341291921
 21
1987.7494964292871
 31
0.0
  0
LINE
  5
4A3F
  8
YODOROGO
 10
29073.604341291921
 20
2027.749496429288
 30
0.0
 11
29001.60434129191
 21
2027.749496429288
 31
0.0
  0
LINE
  5
4A40
  8
YODOROGO
 10
29261.604341291921
 20
2007.749496429288
 30
0.0
 11
29197.604341291921
 21
2007.749496429288
 31
0.0
  0
LINE
  5
4A41
  8
YODOROGO
 10
29457.604341291921
 20
2027.749496429288
 30
0.0
 11
29385.604341291921
 21
2027.749496429288
 31
0.0
  0
LINE
  5
4A42
  8
YODOROGO
 10
29673.604341291921
 20
1707.749496429288
 30
0.0
 11
29673.604341291921
 21
1771.7494964292871
 31
0.0
1001
AUTOCAD_POSTSCRIPT_FIGURE
1002
{
1000
PSFILL
1000
Grayscale
1000
Grayscale
1070
    25
1002
}
  0
LINE
  5
4A43
  8
YODOROGO
 10
29617.604341291921
 20
1707.749496429288
 30
0.0
 11
29673.604341291921
 21
1707.749496429288
 31
0.0
1001
AUTOCAD_POSTSCRIPT_FIGURE
1002
{
1000
PSFILL
1000
Grayscale
1000
Grayscale
1070
    25
1002
}
  0
LINE
  5
4A44
  8
YODOROGO
 10
29617.604341291921
 20
1819.7494964292871
 30
0.0
 11
29617.604341291921
 21
1707.749496429288
 31
0.0
1001
AUTOCAD_POSTSCRIPT_FIGURE
1002
{
1000
PSFILL
1000
Grayscale
1000
Grayscale
1070
    25
1002
}
  0
LINE
  5
4A45
  8
YODOROGO
 10
29765.604341291921
 20
1819.7494964292871
 30
0.0
 11
29617.604341291921
 21
1819.7494964292871
 31
0.0
1001
AUTOCAD_POSTSCRIPT_FIGURE
1002
{
1000
PSFILL
1000
Grayscale
1000
Grayscale
1070
    25
1002
}
  0
LINE
  5
4A46
  8
YODOROGO
 10
29765.604341291921
 20
1859.749496429288
 30
0.0
 11
29765.604341291921
 21
1819.7494964292871
 31
0.0
1001
AUTOCAD_POSTSCRIPT_FIGURE
1002
{
1000
PSFILL
1000
Grayscale
1000
Grayscale
1070
    25
1002
}
  0
LINE
  5
4A47
  8
YODOROGO
 10
29617.604341291921
 20
1859.749496429288
 30
0.0
 11
29765.604341291921
 21
1859.749496429288
 31
0.0
1001
AUTOCAD_POSTSCRIPT_FIGURE
1002
{
1000
PSFILL
1000
Grayscale
1000
Grayscale
1070
    25
1002
}
  0
LINE
  5
4A48
  8
YODOROGO
 10
29617.604341291921
 20
1907.7494964292871
 30
0.0
 11
29617.604341291921
 21
1859.749496429288
 31
0.0
1001
AUTOCAD_POSTSCRIPT_FIGURE
1002
{
1000
PSFILL
1000
Grayscale
1000
Grayscale
1070
    25
1002
}
  0
LINE
  5
4A49
  8
YODOROGO
 10
29765.604341291921
 20
1907.7494964292871
 30
0.0
 11
29617.604341291921
 21
1907.7494964292871
 31
0.0
1001
AUTOCAD_POSTSCRIPT_FIGURE
1002
{
1000
PSFILL
1000
Grayscale
1000
Grayscale
1070
    25
1002
}
  0
LINE
  5
4A4A
  8
YODOROGO
 10
29765.604341291921
 20
1947.749496429288
 30
0.0
 11
29765.604341291921
 21
1907.7494964292871
 31
0.0
1001
AUTOCAD_POSTSCRIPT_FIGURE
1002
{
1000
PSFILL
1000
Grayscale
1000
Grayscale
1070
    25
1002
}
  0
LINE
  5
4A4B
  8
YODOROGO
 10
29617.604341291921
 20
1947.749496429288
 30
0.0
 11
29765.604341291921
 21
1947.749496429288
 31
0.0
1001
AUTOCAD_POSTSCRIPT_FIGURE
1002
{
1000
PSFILL
1000
Grayscale
1000
Grayscale
1070
    25
1002
}
  0
LINE
  5
4A4C
  8
YODOROGO
 10
29617.604341291921
 20
2027.749496429288
 30
0.0
 11
29617.604341291921
 21
1947.749496429288
 31
0.0
1001
AUTOCAD_POSTSCRIPT_FIGURE
1002
{
1000
PSFILL
1000
Grayscale
1000
Grayscale
1070
    25
1002
}
  0
LINE
  5
4A4D
  8
YODOROGO
 10
29665.604341291921
 20
2027.749496429288
 30
0.0
 11
29617.604341291921
 21
2027.749496429288
 31
0.0
1001
AUTOCAD_POSTSCRIPT_FIGURE
1002
{
1000
PSFILL
1000
Grayscale
1000
Grayscale
1070
    25
1002
}
  0
LINE
  5
4A4E
  8
YODOROGO
 10
29665.604341291921
 20
1995.7494964292871
 30
0.0
 11
29665.604341291921
 21
2027.749496429288
 31
0.0
1001
AUTOCAD_POSTSCRIPT_FIGURE
1002
{
1000
PSFILL
1000
Grayscale
1000
Grayscale
1070
    25
1002
}
  0
LINE
  5
4A4F
  8
YODOROGO
 10
29765.604341291921
 20
1995.7494964292871
 30
0.0
 11
29665.604341291921
 21
1995.7494964292871
 31
0.0
1001
AUTOCAD_POSTSCRIPT_FIGURE
1002
{
1000
PSFILL
1000
Grayscale
1000
Grayscale
1070
    25
1002
}
  0
LINE
  5
4A50
  8
YODOROGO
 10
29765.604341291921
 20
2027.749496429288
 30
0.0
 11
29765.604341291921
 21
1995.7494964292871
 31
0.0
1001
AUTOCAD_POSTSCRIPT_FIGURE
1002
{
1000
PSFILL
1000
Grayscale
1000
Grayscale
1070
    25
1002
}
  0
LINE
  5
4A51
  8
YODOROGO
 10
29829.604341291921
 20
2027.749496429288
 30
0.0
 11
29765.604341291921
 21
2027.749496429288
 31
0.0
1001
AUTOCAD_POSTSCRIPT_FIGURE
1002
{
1000
PSFILL
1000
Grayscale
1000
Grayscale
1070
    25
1002
}
  0
LINE
  5
4A52
  8
YODOROGO
 10
29829.604341291921
 20
1995.7494964292871
 30
0.0
 11
29829.604341291921
 21
2027.749496429288
 31
0.0
1001
AUTOCAD_POSTSCRIPT_FIGURE
1002
{
1000
PSFILL
1000
Grayscale
1000
Grayscale
1070
    25
1002
}
  0
LINE
  5
4A53
  8
YODOROGO
 10
29829.604341291921
 20
1907.7494964292871
 30
0.0
 11
29829.604341291921
 21
1947.749496429288
 31
0.0
1001
AUTOCAD_POSTSCRIPT_FIGURE
1002
{
1000
PSFILL
1000
Grayscale
1000
Grayscale
1070
    25
1002
}
  0
LINE
  5
4A54
  8
YODOROGO
 10
29829.604341291921
 20
1819.7494964292871
 30
0.0
 11
29829.604341291921
 21
1859.749496429288
 31
0.0
1001
AUTOCAD_POSTSCRIPT_FIGURE
1002
{
1000
PSFILL
1000
Grayscale
1000
Grayscale
1070
    25
1002
}
  0
LINE
  5
4A55
  8
YODOROGO
 10
29921.60434129191
 20
1771.7494964292871
 30
0.0
 11
29921.60434129191
 21
1707.749496429288
 31
0.0
1001
AUTOCAD_POSTSCRIPT_FIGURE
1002
{
1000
PSFILL
1000
Grayscale
1000
Grayscale
1070
    25
1002
}
  0
LINE
  5
4A56
  8
YODOROGO
 10
29829.604341291921
 20
1771.7494964292871
 30
0.0
 11
29921.60434129191
 21
1771.7494964292871
 31
0.0
1001
AUTOCAD_POSTSCRIPT_FIGURE
1002
{
1000
PSFILL
1000
Grayscale
1000
Grayscale
1070
    25
1002
}
  0
LINE
  5
4A57
  8
YODOROGO
 10
29829.604341291921
 20
1707.749496429288
 30
0.0
 11
29829.604341291921
 21
1771.7494964292871
 31
0.0
1001
AUTOCAD_POSTSCRIPT_FIGURE
1002
{
1000
PSFILL
1000
Grayscale
1000
Grayscale
1070
    25
1002
}
  0
LINE
  5
4A58
  8
YODOROGO
 10
29765.604341291921
 20
1707.749496429288
 30
0.0
 11
29829.604341291921
 21
1707.749496429288
 31
0.0
1001
AUTOCAD_POSTSCRIPT_FIGURE
1002
{
1000
PSFILL
1000
Grayscale
1000
Grayscale
1070
    25
1002
}
  0
LINE
  5
4A59
  8
YODOROGO
 10
29765.604341291921
 20
1771.7494964292871
 30
0.0
 11
29765.604341291921
 21
1707.749496429288
 31
0.0
1001
AUTOCAD_POSTSCRIPT_FIGURE
1002
{
1000
PSFILL
1000
Grayscale
1000
Grayscale
1070
    25
1002
}
  0
LINE
  5
4A5A
  8
YODOROGO
 10
29673.604341291921
 20
1771.7494964292871
 30
0.0
 11
29765.604341291921
 21
1771.7494964292871
 31
0.0
1001
AUTOCAD_POSTSCRIPT_FIGURE
1002
{
1000
PSFILL
1000
Grayscale
1000
Grayscale
1070
    25
1002
}
  0
ARC
  5
4A5B
  8
YODOROGO
 10
31059.517893357912
 20
1602.6807375155761
 30
0.0
 40
178.22128111072141
 50
281.02627495425338
 51
357.77113575573799
  0
LINE
  5
4A5C
  8
YODOROGO
 10
31413.604341291921
 20
1907.7494964292871
 30
0.0
 11
31165.604341291921
 21
1907.7494964292871
 31
0.0
  0
LINE
  5
4A5D
  8
YODOROGO
 10
31413.604341291921
 20
2027.749496429288
 30
0.0
 11
31165.604341291921
 21
2027.749496429288
 31
0.0
  0
LINE
  5
4A5E
  8
YODOROGO
 10
31165.604341291921
 20
1963.749496429286
 30
0.0
 11
31413.604341291921
 21
1963.749496429286
 31
0.0
  0
LINE
  5
4A5F
  8
YODOROGO
 10
30791.604341291921
 20
1563.7494964292871
 30
0.0
 11
30791.604341291921
 21
1755.7494964292871
 31
0.0
  0
LINE
  5
4A60
  8
YODOROGO
 10
30763.604341291921
 20
1691.749496429288
 30
0.0
 11
30763.604341291921
 21
1563.7494964292871
 31
0.0
  0
LINE
  5
4A61
  8
YODOROGO
 10
30723.604341291921
 20
1491.749496429288
 30
0.0
 11
30723.604341291921
 21
1691.749496429288
 31
0.0
  0
LINE
  5
4A62
  8
YODOROGO
 10
30899.604341291932
 20
1691.749496429288
 30
0.0
 11
30899.604341291932
 21
1491.749496429288
 31
0.0
  0
LINE
  5
4A63
  8
YODOROGO
 10
30859.604341291932
 20
1563.7494964292871
 30
0.0
 11
30859.604341291932
 21
1691.749496429288
 31
0.0
  0
LINE
  5
4A64
  8
YODOROGO
 10
30831.604341291921
 20
1755.7494964292871
 30
0.0
 11
30831.604341291921
 21
1563.7494964292871
 31
0.0
  0
LINE
  5
4A65
  8
YODOROGO
 10
30973.604341291921
 20
2027.749496429288
 30
0.0
 11
30973.604341291921
 21
1467.749496429288
 31
0.0
  0
LINE
  5
4A66
  8
YODOROGO
 10
30645.604341291921
 20
1427.749496429288
 30
0.0
 11
30645.604341291921
 21
2027.749496429288
 31
0.0
  0
LINE
  5
4A67
  8
YODOROGO
 10
30697.604341291932
 20
1963.749496429286
 30
0.0
 11
30697.604341291932
 21
1427.749496429288
 31
0.0
  0
LINE
  5
4A68
  8
YODOROGO
 10
30925.604341291921
 20
1547.749496429288
 30
0.0
 11
30925.604341291921
 21
1963.749496429286
 31
0.0
  0
LINE
  5
4A69
  8
YODOROGO
 10
30381.604341291932
 20
1627.749496429288
 30
0.0
 11
30381.604341291932
 21
1679.749496429288
 31
0.0
  0
LINE
  5
4A6A
  8
YODOROGO
 10
30617.604341291921
 20
1679.749496429288
 30
0.0
 11
30617.604341291921
 21
1627.749496429288
 31
0.0
  0
LINE
  5
4A6B
  8
YODOROGO
 10
31165.604341291921
 20
1907.7494964292871
 30
0.0
 11
31165.604341291921
 21
1635.7494964292871
 31
0.0
  0
LINE
  5
4A6C
  8
YODOROGO
 10
29949.60434129191
 20
1667.749496429288
 30
0.0
 11
29949.60434129191
 21
1707.749496429288
 31
0.0
  0
LINE
  5
4A6D
  8
YODOROGO
 10
29949.60434129191
 20
1667.749496429288
 30
0.0
 11
29949.60434129191
 21
1707.749496429288
 31
0.0
  0
ARC
  5
4A6E
  8
YODOROGO
 10
30537.604341291921
 20
1507.749496429288
 30
0.0
 40
80.0
 50
270.0
 51
0.0
  0
LINE
  5
4A6F
  8
YODOROGO
 10
30569.604341291921
 20
1599.7494964292871
 30
0.0
 11
30617.604341291921
 21
1599.7494964292871
 31
0.0
  0
LINE
  5
4A70
  8
YODOROGO
 10
30617.604341291921
 20
1627.749496429288
 30
0.0
 11
30529.604341291939
 21
1627.749496429288
 31
0.0
  0
LINE
  5
4A71
  8
YODOROGO
 10
30217.604341291921
 20
1667.749496429288
 30
0.0
 11
29949.60434129191
 21
1667.749496429288
 31
0.0
  0
LINE
  5
4A72
  8
YODOROGO
 10
30217.604341291921
 20
1627.749496429288
 30
0.0
 11
30217.604341291921
 21
1667.749496429288
 31
0.0
  0
LINE
  5
4A73
  8
YODOROGO
 10
30017.604341291921
 20
1627.749496429288
 30
0.0
 11
30217.604341291921
 21
1627.749496429288
 31
0.0
  0
ARC
  5
4A74
  8
YODOROGO
 10
30230.05882870136
 20
1868.885714952901
 30
0.0
 40
321.37763628522822
 50
228.6181454618993
 51
245.660289248906
  0
LINE
  5
4A75
  8
YODOROGO
 10
30105.604341291921
 20
1603.7494964292871
 30
0.0
 11
30097.60434129195
 21
1576.0728158699001
 31
0.0
  0
LINE
  5
4A76
  8
YODOROGO
 10
30189.604341291921
 20
1603.7494964292871
 30
0.0
 11
30105.604341291921
 21
1603.7494964292871
 31
0.0
  0
LINE
  5
4A77
  8
YODOROGO
 10
30177.604341291921
 20
1551.817722473427
 30
0.0
 11
30189.604341291921
 21
1603.7494964292871
 31
0.0
  0
ARC
  5
4A78
  8
YODOROGO
 10
30230.05882870045
 20
1868.885714953002
 30
0.0
 40
321.37763628529081
 50
260.60629297969911
 51
267.77903556555862
  0
LINE
  5
4A79
  8
YODOROGO
 10
30217.604341291921
 20
1427.749496429285
 30
0.0
 11
30217.604341291921
 21
1547.749496429288
 31
0.0
  0
LINE
  5
4A7A
  8
YODOROGO
 10
29937.604341291932
 20
1481.3393349155101
 30
0.0
 11
29937.604341291921
 21
1594.531090531141
 31
0.0
  0
LINE
  5
4A7B
  8
YODOROGO
 10
30217.604341291921
 20
1667.749496429288
 30
0.0
 11
29949.60434129191
 21
1667.749496429288
 31
0.0
  0
LINE
  5
4A7C
  8
YODOROGO
 10
30217.604341291921
 20
1627.749496429288
 30
0.0
 11
30217.604341291921
 21
1667.749496429288
 31
0.0
  0
LINE
  5
4A7D
  8
YODOROGO
 10
30017.604341291921
 20
1627.749496429288
 30
0.0
 11
30217.604341291921
 21
1627.749496429288
 31
0.0
  0
ARC
  5
4A7E
  8
YODOROGO
 10
30230.05882870136
 20
1868.885714952901
 30
0.0
 40
321.37763628522822
 50
228.6181454618993
 51
245.660289248906
  0
LINE
  5
4A7F
  8
YODOROGO
 10
30105.604341291921
 20
1603.7494964292871
 30
0.0
 11
30097.60434129195
 21
1576.0728158699001
 31
0.0
  0
LINE
  5
4A80
  8
YODOROGO
 10
30189.604341291921
 20
1603.7494964292871
 30
0.0
 11
30105.604341291921
 21
1603.7494964292871
 31
0.0
  0
LINE
  5
4A81
  8
YODOROGO
 10
30177.604341291921
 20
1551.817722473427
 30
0.0
 11
30189.604341291921
 21
1603.7494964292871
 31
0.0
  0
ARC
  5
4A82
  8
YODOROGO
 10
30230.05882870045
 20
1868.885714953002
 30
0.0
 40
321.37763628529081
 50
260.60629297969911
 51
267.77903556555862
  0
LINE
  5
4A83
  8
YODOROGO
 10
30217.604341291921
 20
1427.749496429285
 30
0.0
 11
30217.604341291921
 21
1547.749496429288
 31
0.0
  0
LINE
  5
4A84
  8
YODOROGO
 10
29937.604341291932
 20
1481.3393349155101
 30
0.0
 11
29937.604341291921
 21
1594.531090531141
 31
0.0
  0
LINE
  5
4A85
  8
YODOROGO
 10
30433.604341291921
 20
1573.749496429288
 30
0.0
 11
30381.604341291932
 21
1573.749496429288
 31
0.0
  0
LINE
  5
4A86
  8
YODOROGO
 10
30433.604341291921
 20
1601.749496429285
 30
0.0
 11
30433.604341291921
 21
1573.749496429288
 31
0.0
  0
LINE
  5
4A87
  8
YODOROGO
 10
30381.604341291932
 20
1601.749496429285
 30
0.0
 11
30433.604341291921
 21
1601.749496429285
 31
0.0
  0
LINE
  5
4A88
  8
YODOROGO
 10
30381.604341291932
 20
1573.749496429288
 30
0.0
 11
30381.604341291932
 21
1601.749496429285
 31
0.0
  0
LINE
  5
4A89
  8
YODOROGO
 10
30429.604341291921
 20
1577.7494964292871
 30
0.0
 11
30385.604341291921
 21
1577.7494964292871
 31
0.0
  0
LINE
  5
4A8A
  8
YODOROGO
 10
30429.604341291921
 20
1597.749496429288
 30
0.0
 11
30429.604341291921
 21
1577.7494964292871
 31
0.0
  0
LINE
  5
4A8B
  8
YODOROGO
 10
30385.604341291921
 20
1597.749496429288
 30
0.0
 11
30429.604341291921
 21
1597.749496429288
 31
0.0
  0
LINE
  5
4A8C
  8
YODOROGO
 10
30385.604341291921
 20
1577.7494964292871
 30
0.0
 11
30385.604341291921
 21
1597.749496429288
 31
0.0
  0
LINE
  5
4A8D
  8
YODOROGO
 10
30425.604341291921
 20
1581.749496429286
 30
0.0
 11
30389.604341291921
 21
1581.749496429286
 31
0.0
  0
LINE
  5
4A8E
  8
YODOROGO
 10
30425.604341291921
 20
1593.749496429288
 30
0.0
 11
30425.604341291921
 21
1581.749496429286
 31
0.0
  0
LINE
  5
4A8F
  8
YODOROGO
 10
30389.604341291921
 20
1593.749496429288
 30
0.0
 11
30425.604341291921
 21
1593.749496429288
 31
0.0
  0
LINE
  5
4A90
  8
YODOROGO
 10
30389.604341291921
 20
1581.749496429286
 30
0.0
 11
30389.604341291921
 21
1593.749496429288
 31
0.0
  0
LINE
  5
4A91
  8
YODOROGO
 10
30421.604341291932
 20
1585.7494964292871
 30
0.0
 11
30393.604341291921
 21
1585.7494964292871
 31
0.0
  0
LINE
  5
4A92
  8
YODOROGO
 10
30421.604341291932
 20
1589.749496429288
 30
0.0
 11
30421.604341291932
 21
1585.7494964292871
 31
0.0
  0
LINE
  5
4A93
  8
YODOROGO
 10
30393.604341291921
 20
1589.749496429288
 30
0.0
 11
30421.604341291932
 21
1589.749496429288
 31
0.0
  0
LINE
  5
4A94
  8
YODOROGO
 10
30393.604341291921
 20
1585.7494964292871
 30
0.0
 11
30393.604341291921
 21
1589.749496429288
 31
0.0
  0
LINE
  5
4A95
  8
YODOROGO
 10
30465.604341291921
 20
1627.749496429288
 30
0.0
 11
30381.604341291932
 21
1627.749496429288
 31
0.0
  0
LINE
  5
4A96
  8
YODOROGO
 10
30465.604341291921
 20
1547.749496429288
 30
0.0
 11
30465.604341291921
 21
1627.749496429288
 31
0.0
  0
LINE
  5
4A97
  8
YODOROGO
 10
30381.604341291932
 20
1547.749496429288
 30
0.0
 11
30465.604341291921
 21
1547.749496429288
 31
0.0
  0
LINE
  5
4A98
  8
YODOROGO
 10
30381.604341291932
 20
1427.749496429288
 30
0.0
 11
30381.604341291932
 21
1547.749496429288
 31
0.0
  0
LINE
  5
4A99
  8
YODOROGO
 10
30537.604341291921
 20
1427.749496429288
 30
0.0
 11
30381.604341291932
 21
1427.749496429288
 31
0.0
  0
LINE
  5
4A9A
  8
YODOROGO
 10
30569.604341291921
 20
1571.749496429285
 30
0.0
 11
30569.604341291921
 21
1599.7494964292871
 31
0.0
  0
ARC
  5
4A9B
  8
YODOROGO
 10
30545.604341291921
 20
1571.749496429291
 30
0.0
 40
24.000000000003752
 50
270.0
 51
359.99999999998772
  0
LINE
  5
4A9C
  8
YODOROGO
 10
30529.604341291939
 20
1547.749496429288
 30
0.0
 11
30545.604341291921
 21
1547.749496429288
 31
0.0
  0
LINE
  5
4A9D
  8
YODOROGO
 10
30529.604341291939
 20
1627.749496429288
 30
0.0
 11
30529.604341291939
 21
1547.749496429288
 31
0.0
  0
LINE
  5
4A9E
  8
YODOROGO
 10
30899.604341291932
 20
1547.749496429288
 30
0.0
 11
30925.604341291921
 21
1547.749496429288
 31
0.0
  0
LINE
  5
4A9F
  8
YODOROGO
 10
30933.604341291921
 20
1427.749496429288
 30
0.0
 11
30899.604341291932
 21
1427.749496429288
 31
0.0
  0
LINE
  5
4AA0
  8
YODOROGO
 10
30763.604341291921
 20
1563.7494964292871
 30
0.0
 11
30791.604341291921
 21
1563.7494964292871
 31
0.0
  0
LINE
  5
4AA1
  8
YODOROGO
 10
30899.604341291932
 20
1491.749496429288
 30
0.0
 11
30723.604341291921
 21
1491.749496429288
 31
0.0
  0
LINE
  5
4AA2
  8
YODOROGO
 10
30831.604341291921
 20
1563.7494964292871
 30
0.0
 11
30859.604341291932
 21
1563.7494964292871
 31
0.0
  0
LINE
  5
4AA3
  8
YODOROGO
 10
30899.604341291932
 20
1427.749496429288
 30
0.0
 11
30899.604341291932
 21
1547.749496429288
 31
0.0
  0
LINE
  5
4AA4
  8
YODOROGO
 10
30697.604341291932
 20
1427.749496429288
 30
0.0
 11
30645.604341291921
 21
1427.749496429288
 31
0.0
  0
LINE
  5
4AA5
  8
YODOROGO
 10
30617.604341291921
 20
1599.7494964292871
 30
0.0
 11
30617.604341291921
 21
1507.749496429288
 31
0.0
  0
ARC
  5
4AA6
  8
YODOROGO
 10
30933.604341291921
 20
1467.749496429288
 30
0.0
 40
40.0
 50
270.0
 51
0.0
  0
LINE
  5
4AA7
  8
YODOROGO
 10
31093.604341291921
 20
1523.7494964292871
 30
0.0
 11
31093.604341291921
 21
1427.749496429288
 31
0.0
  0
ARC
  5
4AA8
  8
YODOROGO
 10
31039.721395566768
 20
1637.5313901097329
 30
0.0
 40
125.8955565916754
 50
295.34052442160112
 51
359.18902303418679
  0
LINE
  5
4AA9
  8
YODOROGO
 10
30617.604341291921
 20
1859.749496429288
 30
0.0
 11
30497.604341291921
 21
1939.749496429288
 31
0.0
  0
LINE
  5
4AAA
  8
YODOROGO
 10
30497.604341291921
 20
2027.749496429288
 30
0.0
 11
30617.604341291921
 21
1947.749496429288
 31
0.0
  0
LINE
  5
4AAB
  8
YODOROGO
 10
30529.604341291939
 20
1679.749496429288
 30
0.0
 11
30617.604341291921
 21
1679.749496429288
 31
0.0
  0
LINE
  5
4AAC
  8
YODOROGO
 10
30617.604341291921
 20
1735.7494964292871
 30
0.0
 11
30529.604341291939
 21
1735.7494964292871
 31
0.0
  0
LINE
  5
4AAD
  8
YODOROGO
 10
30381.604341291932
 20
1795.7494964292871
 30
0.0
 11
30617.604341291921
 21
1795.7494964292871
 31
0.0
  0
LINE
  5
4AAE
  8
YODOROGO
 10
30081.604341291921
 20
2027.749496429288
 30
0.0
 11
30021.604341291921
 21
2027.749496429288
 31
0.0
  0
LINE
  5
4AAF
  8
YODOROGO
 10
30081.604341291921
 20
1827.7494964292871
 30
0.0
 11
30081.604341291921
 21
2027.749496429288
 31
0.0
  0
LINE
  5
4AB0
  8
YODOROGO
 10
30021.604341291921
 20
1827.7494964292871
 30
0.0
 11
30081.604341291921
 21
1827.7494964292871
 31
0.0
  0
LINE
  5
4AB1
  8
YODOROGO
 10
30021.604341291921
 20
2027.749496429288
 30
0.0
 11
30021.604341291921
 21
1827.7494964292871
 31
0.0
  0
LINE
  5
4AB2
  8
YODOROGO
 10
30161.604341291921
 20
2027.749496429288
 30
0.0
 11
30217.604341291921
 21
2027.749496429288
 31
0.0
  0
LINE
  5
4AB3
  8
YODOROGO
 10
30161.604341291921
 20
1811.749496429288
 30
0.0
 11
30161.604341291921
 21
2027.749496429288
 31
0.0
  0
ARC
  5
4AB4
  8
YODOROGO
 10
30121.604341291921
 20
1811.749496429288
 30
0.0
 40
40.0
 50
270.0
 51
0.0
  0
LINE
  5
4AB5
  8
YODOROGO
 10
30021.604341291921
 20
1771.7494964292871
 30
0.0
 11
30121.604341291921
 21
1771.7494964292871
 31
0.0
  0
LINE
  5
4AB6
  8
YODOROGO
 10
30021.604341291921
 20
1707.749496429288
 30
0.0
 11
30021.604341291921
 21
1771.7494964292871
 31
0.0
  0
LINE
  5
4AB7
  8
YODOROGO
 10
30137.604341291921
 20
1707.749496429288
 30
0.0
 11
30021.604341291921
 21
1707.749496429288
 31
0.0
  0
ARC
  5
4AB8
  8
YODOROGO
 10
30137.604341291921
 20
1787.7494964292871
 30
0.0
 40
80.0
 50
270.0
 51
0.0
  0
LINE
  5
4AB9
  8
YODOROGO
 10
30217.604341291921
 20
2027.749496429288
 30
0.0
 11
30217.604341291921
 21
1787.7494964292871
 31
0.0
  0
LINE
  5
4ABA
  8
YODOROGO
 10
29977.604341291921
 20
1947.749496429288
 30
0.0
 11
29977.604341291921
 21
1995.7494964292871
 31
0.0
1001
AUTOCAD_POSTSCRIPT_FIGURE
1002
{
1000
PSFILL
1000
Grayscale
1000
Grayscale
1070
    25
1002
}
  0
LINE
  5
4ABB
  8
YODOROGO
 10
29977.604341291921
 20
1859.749496429288
 30
0.0
 11
29977.604341291921
 21
1907.7494964292871
 31
0.0
1001
AUTOCAD_POSTSCRIPT_FIGURE
1002
{
1000
PSFILL
1000
Grayscale
1000
Grayscale
1070
    25
1002
}
  0
LINE
  5
4ABC
  8
YODOROGO
 10
29977.604341291921
 20
1707.749496429288
 30
0.0
 11
29977.604341291921
 21
1819.7494964292871
 31
0.0
1001
AUTOCAD_POSTSCRIPT_FIGURE
1002
{
1000
PSFILL
1000
Grayscale
1000
Grayscale
1070
    25
1002
}
  0
LINE
  5
4ABD
  8
YODOROGO
 10
30381.604341291932
 20
1907.7494964292871
 30
0.0
 11
30497.604341291921
 21
2027.749496429288
 31
0.0
  0
LINE
  5
4ABE
  8
YODOROGO
 10
30381.604341291932
 20
1819.7494964292871
 30
0.0
 11
30381.604341291932
 21
1907.7494964292871
 31
0.0
  0
LINE
  5
4ABF
  8
YODOROGO
 10
30497.604341291921
 20
1939.749496429288
 30
0.0
 11
30381.604341291932
 21
1819.7494964292871
 31
0.0
  0
LINE
  5
4AC0
  8
YODOROGO
 10
30465.604341291921
 20
1679.749496429288
 30
0.0
 11
30465.604341291921
 21
1735.7494964292871
 31
0.0
  0
LINE
  5
4AC1
  8
YODOROGO
 10
30381.604341291932
 20
1679.749496429288
 30
0.0
 11
30465.604341291921
 21
1679.749496429288
 31
0.0
  0
LINE
  5
4AC2
  8
YODOROGO
 10
30529.604341291939
 20
1735.7494964292871
 30
0.0
 11
30529.604341291939
 21
1679.749496429288
 31
0.0
  0
LINE
  5
4AC3
  8
YODOROGO
 10
30381.604341291932
 20
1735.7494964292871
 30
0.0
 11
30381.604341291932
 21
1795.7494964292871
 31
0.0
  0
LINE
  5
4AC4
  8
YODOROGO
 10
30465.604341291921
 20
1735.7494964292871
 30
0.0
 11
30381.604341291932
 21
1735.7494964292871
 31
0.0
  0
LINE
  5
4AC5
  8
YODOROGO
 10
30645.604341291921
 20
2027.749496429288
 30
0.0
 11
30973.604341291921
 21
2027.749496429288
 31
0.0
  0
LINE
  5
4AC6
  8
YODOROGO
 10
30925.604341291921
 20
1963.749496429286
 30
0.0
 11
30697.604341291932
 21
1963.749496429286
 31
0.0
  0
LINE
  5
4AC7
  8
YODOROGO
 10
30873.604341291921
 20
1819.7494964292871
 30
0.0
 11
30899.604341291932
 21
1819.7494964292871
 31
0.0
  0
LINE
  5
4AC8
  8
YODOROGO
 10
30899.604341291932
 20
1939.749496429288
 30
0.0
 11
30873.604341291921
 21
1819.7494964292871
 31
0.0
  0
LINE
  5
4AC9
  8
YODOROGO
 10
30851.604341291939
 20
1939.749496429288
 30
0.0
 11
30899.604341291932
 21
1939.749496429288
 31
0.0
  0
LINE
  5
4ACA
  8
YODOROGO
 10
30825.604341291921
 20
1819.7494964292871
 30
0.0
 11
30851.604341291939
 21
1939.749496429288
 31
0.0
  0
LINE
  5
4ACB
  8
YODOROGO
 10
30797.604341291921
 20
1819.7494964292871
 30
0.0
 11
30825.604341291921
 21
1819.7494964292871
 31
0.0
  0
LINE
  5
4ACC
  8
YODOROGO
 10
30771.604341291939
 20
1939.749496429288
 30
0.0
 11
30797.604341291921
 21
1819.7494964292871
 31
0.0
  0
LINE
  5
4ACD
  8
YODOROGO
 10
30723.604341291921
 20
1939.749496429288
 30
0.0
 11
30771.604341291939
 21
1939.749496429288
 31
0.0
  0
LINE
  5
4ACE
  8
YODOROGO
 10
30749.604341291921
 20
1819.7494964292871
 30
0.0
 11
30723.604341291921
 21
1939.749496429288
 31
0.0
  0
LINE
  5
4ACF
  8
YODOROGO
 10
30723.604341291921
 20
1819.7494964292871
 30
0.0
 11
30749.604341291921
 21
1819.7494964292871
 31
0.0
  0
LINE
  5
4AD0
  8
YODOROGO
 10
30723.604341291921
 20
1755.7494964292871
 30
0.0
 11
30723.604341291921
 21
1819.7494964292871
 31
0.0
  0
LINE
  5
4AD1
  8
YODOROGO
 10
30899.604341291932
 20
1755.7494964292871
 30
0.0
 11
30723.604341291921
 21
1755.7494964292871
 31
0.0
  0
LINE
  5
4AD2
  8
YODOROGO
 10
30899.604341291932
 20
1819.7494964292871
 30
0.0
 11
30899.604341291932
 21
1755.7494964292871
 31
0.0
  0
LINE
  5
4AD3
  8
YODOROGO
 10
30617.604341291921
 20
1947.749496429288
 30
0.0
 11
30617.604341291921
 21
1859.749496429288
 31
0.0
  0
LINE
  5
4AD4
  8
YODOROGO
 10
30791.604341291921
 20
1755.7494964292871
 30
0.0
 11
30831.604341291921
 21
1755.7494964292871
 31
0.0
  0
LINE
  5
4AD5
  8
YODOROGO
 10
30723.604341291921
 20
1691.749496429288
 30
0.0
 11
30763.604341291921
 21
1691.749496429288
 31
0.0
  0
LINE
  5
4AD6
  8
YODOROGO
 10
30859.604341291932
 20
1691.749496429288
 30
0.0
 11
30899.604341291932
 21
1691.749496429288
 31
0.0
  0
LINE
  5
4AD7
  8
YODOROGO
 10
30617.604341291921
 20
1795.7494964292871
 30
0.0
 11
30617.604341291921
 21
1735.7494964292871
 31
0.0
  0
LINE
  5
4AD8
  8
YODOROGO
 10
31165.604341291921
 20
2027.749496429288
 30
0.0
 11
31165.604341291921
 21
1963.749496429286
 31
0.0
  0
LINE
  5
4AD9
  8
YODOROGO
 10
31533.604341291921
 20
1595.7494964292871
 30
0.0
 11
31533.60434129191
 21
1811.749496429288
 31
0.0
  0
LINE
  5
4ADA
  8
YODOROGO
 10
31461.60434129191
 20
1987.7494964292871
 30
0.0
 11
31461.60434129191
 21
1635.7494964292871
 31
0.0
  0
LINE
  5
4ADB
  8
YODOROGO
 10
31653.604341291921
 20
1427.749496429288
 30
0.0
 11
31653.60434129191
 21
1811.749496429288
 31
0.0
  0
LINE
  5
4ADC
  8
YODOROGO
 10
31589.604341291921
 20
1811.749496429288
 30
0.0
 11
31589.604341291921
 21
1427.749496429288
 31
0.0
  0
LINE
  5
4ADD
  8
YODOROGO
 10
31237.604341291921
 20
1595.7494964292871
 30
0.0
 11
31237.604341291921
 21
1707.749496429288
 31
0.0
  0
ARC
  5
4ADE
  8
YODOROGO
 10
31353.914865116069
 20
1607.790351288558
 30
0.0
 40
180.0924485759885
 50
268.62849102169793
 51
356.16638457330322
  0
LINE
  5
4ADF
  8
YODOROGO
 10
31349.604341291939
 20
1527.749496429288
 30
0.0
 11
31349.604341291939
 21
1427.749496429288
 31
0.0
  0
ARC
  5
4AE0
  8
YODOROGO
 10
31351.518075724562
 20
1637.838957017655
 30
0.0
 40
110.1060929836122
 50
269.00410209305932
 51
358.91264455492478
  0
LINE
  5
4AE1
  8
YODOROGO
 10
31589.604341291921
 20
1427.749496429288
 30
0.0
 11
31653.604341291921
 21
1427.749496429288
 31
0.0
  0
LINE
  5
4AE2
  8
YODOROGO
 10
31533.60434129191
 20
1811.749496429288
 30
0.0
 11
31589.604341291921
 21
1811.749496429288
 31
0.0
  0
LINE
  5
4AE3
  8
YODOROGO
 10
31621.604341291939
 20
1987.7494964292871
 30
0.0
 11
31461.60434129191
 21
1987.7494964292871
 31
0.0
  0
LINE
  5
4AE4
  8
YODOROGO
 10
31533.60434129191
 20
1915.7494964292871
 30
0.0
 11
31661.604341291939
 21
1915.7494964292871
 31
0.0
  0
LINE
  5
4AE5
  8
YODOROGO
 10
31701.604341291939
 20
1875.7494964292871
 30
0.0
 11
31533.60434129191
 21
1875.7494964292871
 31
0.0
  0
LINE
  5
4AE6
  8
YODOROGO
 10
31237.604341291921
 20
1779.749496429288
 30
0.0
 11
31349.604341291939
 21
1779.749496429288
 31
0.0
  0
LINE
  5
4AE7
  8
YODOROGO
 10
31237.604341291921
 20
1835.7494964292871
 30
0.0
 11
31237.604341291921
 21
1779.749496429288
 31
0.0
  0
LINE
  5
4AE8
  8
YODOROGO
 10
31349.604341291939
 20
1835.7494964292871
 30
0.0
 11
31237.604341291921
 21
1835.7494964292871
 31
0.0
  0
LINE
  5
4AE9
  8
YODOROGO
 10
31349.604341291939
 20
1779.749496429288
 30
0.0
 11
31349.604341291939
 21
1835.7494964292871
 31
0.0
  0
LINE
  5
4AEA
  8
YODOROGO
 10
31533.60434129191
 20
1875.7494964292871
 30
0.0
 11
31533.60434129191
 21
1915.7494964292871
 31
0.0
  0
LINE
  5
4AEB
  8
YODOROGO
 10
31413.604341291921
 20
1707.749496429288
 30
0.0
 11
31413.604341291921
 21
1907.7494964292871
 31
0.0
  0
LINE
  5
4AEC
  8
YODOROGO
 10
31237.604341291921
 20
1707.749496429288
 30
0.0
 11
31413.604341291921
 21
1707.749496429288
 31
0.0
  0
LINE
  5
4AED
  8
YODOROGO
 10
31413.604341291921
 20
1963.749496429286
 30
0.0
 11
31413.604341291921
 21
2027.749496429288
 31
0.0
  0
ARC
  5
4AEE
  8
YODOROGO
 10
31621.604341291939
 20
2003.749496429285
 30
0.0
 40
15.999999999994539
 50
270.0
 51
0.0000000000081422
  0
LINE
  5
4AEF
  8
YODOROGO
 10
31637.604341291921
 20
2027.749496429288
 30
0.0
 11
31637.604341291921
 21
2003.7494964292871
 31
0.0
  0
LINE
  5
4AF0
  8
YODOROGO
 10
31701.604341291939
 20
2027.749496429288
 30
0.0
 11
31637.604341291921
 21
2027.749496429288
 31
0.0
  0
LINE
  5
4AF1
  8
YODOROGO
 10
31701.604341291939
 20
1955.7494964292871
 30
0.0
 11
31701.604341291939
 21
2027.749496429288
 31
0.0
  0
ARC
  5
4AF2
  8
YODOROGO
 10
31661.604341291939
 20
1955.7494964292871
 30
0.0
 40
40.0
 50
270.0
 51
0.0
  0
LINE
  5
4AF3
  8
YODOROGO
 10
31701.604341291939
 20
1811.749496429288
 30
0.0
 11
31701.604341291939
 21
1875.7494964292871
 31
0.0
  0
LINE
  5
4AF4
  8
YODOROGO
 10
31653.60434129191
 20
1811.749496429288
 30
0.0
 11
31701.604341291939
 21
1811.749496429288
 31
0.0
  0
LINE
  5
4AF8
  8
SUNPOU
  6
CONTINUOUS
 62
     4
 10
8046.8585895000342
 20
20194.224844
 30
0.0
 11
8046.8585895000342
 21
20744.230123000001
 31
0.0
  0
LINE
  5
4AF9
  8
SUNPOU
  6
CONTINUOUS
 62
     4
 10
8132.3585895000342
 20
20664.230123000001
 30
0.0
 11
8372.3585895000342
 21
20664.230123000001
 31
0.0
  0
LINE
  5
4AFA
  8
SUNPOU
  6
CONTINUOUS
 62
     4
 10
8049.8585895000342
 20
20664.230123000001
 30
0.0
 11
7809.8585895000342
 21
20664.230123000001
 31
0.0
  0
LINE
  5
4AFB
  8
SUNPOU
  6
CONTINUOUS
 62
     4
 10
8132.3585895000342
 20
20664.230123000001
 30
0.0
 11
8049.8585895000342
 21
20664.230123000001
 31
0.0
  0
LINE
  5
4AFC
  8
SUNPOU
  6
CONTINUOUS
 62
     4
 10
11050.354136000011
 20
20664.230123000001
 30
0.0
 11
8132.3585895000342
 21
20664.230123000001
 31
0.0
  0
LINE
  5
4AFD
  8
SUNPOU
  6
CONTINUOUS
 62
     4
 10
14053.84968249998
 20
20194.224844
 30
0.0
 11
14053.84968249998
 21
20744.230123000001
 31
0.0
  0
LINE
  5
4AFE
  8
SUNPOU
  6
CONTINUOUS
 62
     4
 10
13968.34968249998
 20
20664.230123000001
 30
0.0
 11
13728.34968249998
 21
20664.230123000001
 31
0.0
  0
LINE
  5
4AFF
  8
SUNPOU
  6
CONTINUOUS
 62
     4
 10
14050.84968249998
 20
20664.230123000001
 30
0.0
 11
14290.849682499969
 21
20664.230123000001
 31
0.0
  0
LINE
  5
4B00
  8
SUNPOU
  6
CONTINUOUS
 62
     4
 10
13968.34968249998
 20
20664.230123000001
 30
0.0
 11
14050.84968249998
 21
20664.230123000001
 31
0.0
  0
LINE
  5
4B01
  8
SUNPOU
  6
CONTINUOUS
 62
     4
 10
11050.354136000011
 20
20664.230123000001
 30
0.0
 11
13968.34968249998
 21
20664.230123000001
 31
0.0
  0
LINE
  5
4B02
  8
SUNPOU
  6
CONTINUOUS
 62
     4
 10
7833.5564620000032
 20
15514.730913999991
 30
0.0
 11
7122.8589990000009
 21
15514.730913999991
 31
0.0
  0
LINE
  5
4B03
  8
SUNPOU
  6
CONTINUOUS
 62
     4
 10
7202.8589990000009
 20
15514.730913999991
 30
0.0
 11
7202.8589989999991
 21
13705.230913999991
 31
0.0
  0
LINE
  5
4B04
  8
SUNPOU
  6
CONTINUOUS
 62
     4
 10
7969.8544199999978
 20
13512.735599
 30
0.0
 11
7122.8589989999991
 21
13512.735599
 31
0.0
  0
LINE
  5
4B05
  8
SUNPOU
  6
CONTINUOUS
 62
     4
 10
7202.8589989999991
 20
13705.230913999991
 30
0.0
 11
7202.8589989999991
 21
13512.735599
 31
0.0
  0
LINE
  5
4B06
  8
SUNPOU
  6
CONTINUOUS
 62
     4
 10
7969.8544199999978
 20
20094.226823000001
 30
0.0
 11
7522.8589989999973
 21
20094.226823000001
 31
0.0
  0
LINE
  5
4B07
  8
SUNPOU
  6
CONTINUOUS
 62
     4
 10
7969.8587749999979
 20
20114.226823000001
 30
0.0
 11
7522.8589989999973
 21
20114.226823000001
 31
0.0
  0
LINE
  5
4B09
  8
SUNPOU
  6
CONTINUOUS
 62
     4
 10
7602.8589989999973
 20
20114.226823000001
 30
0.0
 11
7602.8589989999973
 21
20354.226823000012
 31
0.0
  0
LINE
  5
4B0A
  8
SUNPOU
  6
CONTINUOUS
 62
     4
 10
7602.8589989999973
 20
20074.226823000001
 30
0.0
 11
7602.8589989999973
 21
20114.226823000001
 31
0.0
  0
LINE
  5
4B0B
  8
SUNPOU
  6
CONTINUOUS
 62
     4
 10
7969.8587749999979
 20
20114.226823000001
 30
0.0
 11
7122.8589990000009
 21
20114.226823000001
 31
0.0
  0
LINE
  5
4B0C
  8
SUNPOU
  6
CONTINUOUS
 62
     4
 10
7202.8589990000009
 20
19891.730914
 30
0.0
 11
7202.8589990000009
 21
20114.226823000001
 31
0.0
  0
LINE
  5
4B0D
  8
SUNPOU
  6
CONTINUOUS
 62
     4
 10
7833.5581320000028
 20
18432.730914
 30
0.0
 11
7122.8589990000009
 21
18432.730914
 31
0.0
  0
LINE
  5
4B0E
  8
SUNPOU
  6
CONTINUOUS
 62
     4
 10
7202.8589990000009
 20
18432.730914
 30
0.0
 11
7202.8589990000009
 21
19891.730914
 31
0.0
  0
LINE
  5
4B0F
  8
SUNPOU
  6
CONTINUOUS
 62
     4
 10
7833.5581320000028
 20
18432.730914
 30
0.0
 11
7122.8589989999991
 21
18432.730914
 31
0.0
  0
LINE
  5
4B10
  8
SUNPOU
  6
CONTINUOUS
 62
     4
 10
7202.8589989999991
 20
16973.730914
 30
0.0
 11
7202.8589989999991
 21
18432.730914
 31
0.0
  0
LINE
  5
4B11
  8
SUNPOU
  6
CONTINUOUS
 62
     4
 10
7833.5581320000028
 20
15514.730913999991
 30
0.0
 11
7122.8589989999991
 21
15514.730913999991
 31
0.0
  0
LINE
  5
4B12
  8
SUNPOU
  6
CONTINUOUS
 62
     4
 10
7202.8589989999991
 20
15514.730913999991
 30
0.0
 11
7202.8589989999991
 21
16973.730914
 31
0.0
  0
LINE
  5
4B13
  8
SUNPOU
  6
CONTINUOUS
 62
     4
 10
22762.322383499992
 20
20014.229199000009
 30
0.0
 11
22762.322383499992
 21
20744.232102000031
 31
0.0
  0
LINE
  5
4B14
  8
SUNPOU
  6
CONTINUOUS
 62
     4
 10
23520.321393999991
 20
20014.229199000009
 30
0.0
 11
23520.321393999991
 21
20744.232102000031
 31
0.0
  0
LINE
  5
4B15
  8
SUNPOU
  6
CONTINUOUS
 62
     4
 10
22762.322383499992
 20
20664.232102000031
 30
0.0
 11
23520.321393999991
 21
20664.232102000031
 31
0.0
  0
LINE
  5
4B16
  8
SUNPOU
  6
CONTINUOUS
 62
     4
 10
19844.321393999991
 20
20014.229199000009
 30
0.0
 11
19844.321393999991
 21
20744.232102000031
 31
0.0
  0
LINE
  5
4B17
  8
SUNPOU
  6
CONTINUOUS
 62
     4
 10
20602.321393999991
 20
20014.229199000009
 30
0.0
 11
20602.321393999991
 21
20744.232102000031
 31
0.0
  0
LINE
  5
4B18
  8
SUNPOU
  6
CONTINUOUS
 62
     4
 10
19844.321393999991
 20
20664.232102000031
 30
0.0
 11
20602.321393999991
 21
20664.232102000031
 31
0.0
  0
LINE
  5
4B19
  8
SUNPOU
  6
CONTINUOUS
 62
     4
 10
19721.825088999991
 20
18432.730914
 30
0.0
 11
18834.866816999991
 21
18432.730914
 31
0.0
  0
LINE
  5
4B1A
  8
SUNPOU
  6
CONTINUOUS
 62
     4
 10
18914.866816999991
 20
18432.730914
 30
0.0
 11
18914.866816999991
 21
19891.730914
 31
0.0
  0
LINE
  5
4B1B
  8
SUNPOU
  6
CONTINUOUS
 62
     4
 10
19721.825088999991
 20
18432.730914
 30
0.0
 11
18834.866816999991
 21
18432.730914
 31
0.0
  0
LINE
  5
4B1C
  8
SUNPOU
  6
CONTINUOUS
 62
     4
 10
18914.866816999991
 20
16973.730914
 30
0.0
 11
18914.866816999991
 21
18432.730914
 31
0.0
  0
LINE
  5
4B1D
  8
SUNPOU
  6
CONTINUOUS
 62
     4
 10
19721.825088999991
 20
15514.971425500011
 30
0.0
 11
18834.866816999991
 21
15514.971425500011
 31
0.0
  0
LINE
  5
4B1E
  8
SUNPOU
  6
CONTINUOUS
 62
     4
 10
18914.866816999991
 20
15514.971425500011
 30
0.0
 11
18914.866816999991
 21
16973.730914
 31
0.0
  0
LINE
  5
4B1F
  8
SUNPOU
  6
CONTINUOUS
 62
     4
 10
19721.825088999991
 20
15514.971425500011
 30
0.0
 11
18834.866816999991
 21
15514.971425500011
 31
0.0
  0
LINE
  5
4B20
  8
SUNPOU
  6
CONTINUOUS
 62
     4
 10
18914.866816999991
 20
13705.230913999991
 30
0.0
 11
18914.866816999991
 21
15514.971425500011
 31
0.0
  0
LINE
  5
4B21
  8
SUNPOU
  6
CONTINUOUS
 62
     4
 10
19844.321393999991
 20
12999.46747999999
 30
0.0
 11
19844.321393999991
 21
12653.782829999989
 31
0.0
  0
LINE
  5
4B22
  8
SUNPOU
  6
CONTINUOUS
 62
     4
 10
19801.819151
 20
13582.733619000001
 30
0.0
 11
19801.819151
 21
12653.782829999989
 31
0.0
  0
LINE
  5
4B23
  8
SUNPOU
  6
CONTINUOUS
 62
     4
 10
19844.321393999991
 20
12733.782829999989
 30
0.0
 11
20084.321393999991
 21
12733.782829999989
 31
0.0
  0
LINE
  5
4B24
  8
SUNPOU
  6
CONTINUOUS
 62
     4
 10
19801.819151
 20
12733.782829999989
 30
0.0
 11
19561.819150999989
 21
12733.782829999989
 31
0.0
  0
LINE
  5
4B25
  8
SUNPOU
  6
CONTINUOUS
 62
     4
 10
19844.321393999991
 20
12733.782829999989
 30
0.0
 11
19801.819151
 21
12733.782829999989
 31
0.0
  0
LINE
  5
4B26
  8
SUNPOU
  6
CONTINUOUS
 62
     4
 10
25680.321393999991
 20
12999.46747999999
 30
0.0
 11
25680.321393999991
 21
12653.782829999989
 31
0.0
  0
LINE
  5
4B27
  8
SUNPOU
  6
CONTINUOUS
 62
     4
 10
25722.823636999979
 20
13582.733619000001
 30
0.0
 11
25722.823636999979
 21
12653.782829999989
 31
0.0
  0
LINE
  5
4B28
  8
SUNPOU
  6
CONTINUOUS
 62
     4
 10
25680.321393999991
 20
12733.782829999989
 30
0.0
 11
25440.321393999991
 21
12733.782829999989
 31
0.0
  0
LINE
  5
4B29
  8
SUNPOU
  6
CONTINUOUS
 62
     4
 10
25722.823636999979
 20
12733.782829999989
 30
0.0
 11
25962.823636999979
 21
12733.782829999989
 31
0.0
  0
LINE
  5
4B2A
  8
SUNPOU
  6
CONTINUOUS
 62
     4
 10
25680.321393999991
 20
12733.782829999989
 30
0.0
 11
25722.823636999979
 21
12733.782829999989
 31
0.0
  0
LINE
  5
4B2B
  8
2-0
  6
CONTINUOUS
 62
     3
 10
22719.821393999991
 20
13662.730913999991
 30
0.0
 11
22804.821393999991
 21
13662.730913999991
 31
0.0
  0
LINE
  5
4B2C
  8
2-0
  6
CONTINUOUS
 62
     3
 10
22804.821393999991
 20
13662.730913999991
 30
0.0
 11
22804.821393999991
 21
13747.730913999991
 31
0.0
  0
LINE
  5
4B2D
  8
2-0
  6
CONTINUOUS
 62
     3
 10
22804.821393999991
 20
13747.730913999991
 30
0.0
 11
22719.821393999991
 21
13747.730913999991
 31
0.0
  0
LINE
  5
4B2E
  8
2-0
  6
CONTINUOUS
 62
     3
 10
22719.821393999991
 20
13747.730913999991
 30
0.0
 11
22719.821393999991
 21
13662.730913999991
 31
0.0
  0
LINE
  5
4B2F
  8
SUNPOU
  6
CONTINUOUS
 62
     4
 10
25680.321393999991
 20
12999.46747999999
 30
0.0
 11
25680.321393999991
 21
12653.782829999989
 31
0.0
  0
LINE
  5
4B30
  8
SUNPOU
  6
CONTINUOUS
 62
     4
 10
25637.819150999982
 20
13582.733619000001
 30
0.0
 11
25637.819150999982
 21
12653.782829999989
 31
0.0
  0
LINE
  5
4B31
  8
SUNPOU
  6
CONTINUOUS
 62
     4
 10
25680.321393999991
 20
12733.782829999989
 30
0.0
 11
25920.321393999991
 21
12733.782829999989
 31
0.0
  0
LINE
  5
4B32
  8
SUNPOU
  6
CONTINUOUS
 62
     4
 10
25637.819150999982
 20
12733.782829999989
 30
0.0
 11
25397.819150999982
 21
12733.782829999989
 31
0.0
  0
LINE
  5
4B33
  8
SUNPOU
  6
CONTINUOUS
 62
     4
 10
25680.321393999991
 20
12733.782829999989
 30
0.0
 11
25637.819150999982
 21
12733.782829999989
 31
0.0
  0
LINE
  5
4B34
  8
SUNPOU
  6
CONTINUOUS
 62
     4
 10
19844.321393999991
 20
12999.46747999999
 30
0.0
 11
19844.321393999991
 21
12653.782829999989
 31
0.0
  0
LINE
  5
4B35
  8
SUNPOU
  6
CONTINUOUS
 62
     4
 10
19886.82363699999
 20
13582.733619000001
 30
0.0
 11
19886.82363699999
 21
12653.782829999989
 31
0.0
  0
LINE
  5
4B36
  8
SUNPOU
  6
CONTINUOUS
 62
     4
 10
19844.321393999991
 20
12733.782829999989
 30
0.0
 11
19604.321393999991
 21
12733.782829999989
 31
0.0
  0
LINE
  5
4B37
  8
SUNPOU
  6
CONTINUOUS
 62
     4
 10
19886.82363699999
 20
12733.782829999989
 30
0.0
 11
20126.82363699999
 21
12733.782829999989
 31
0.0
  0
LINE
  5
4B38
  8
SUNPOU
  6
CONTINUOUS
 62
     4
 10
19844.321393999991
 20
12733.782829999989
 30
0.0
 11
19886.82363699999
 21
12733.782829999989
 31
0.0
  0
LINE
  5
4B39
  8
SUNPOU
  6
CONTINUOUS
 62
     4
 10
19801.819151
 20
13582.733619000001
 30
0.0
 11
19801.819151
 21
12253.78283
 31
0.0
  0
LINE
  5
4B3A
  8
SUNPOU
  6
CONTINUOUS
 62
     4
 10
25722.823636999979
 20
13582.733619000001
 30
0.0
 11
25722.823636999979
 21
12253.78283
 31
0.0
  0
LINE
  5
4B3B
  8
SUNPOU
  6
CONTINUOUS
 62
     4
 10
19801.819151
 20
12333.782829999989
 30
0.0
 11
25722.823636999979
 21
12333.782829999989
 31
0.0
  0
LINE
  5
4B3C
  8
SUNPOU
  6
CONTINUOUS
 62
     4
 10
25802.819677999989
 20
14112.730913999991
 30
0.0
 11
26852.820997999988
 21
14112.730913999991
 31
0.0
  0
LINE
  5
4B3D
  8
SUNPOU
  6
CONTINUOUS
 62
     4
 10
26652.820997999988
 20
13705.230913999991
 30
0.0
 11
26852.820997999988
 21
13705.230913999991
 31
0.0
  0
LINE
  5
4B3E
  8
SUNPOU
  6
CONTINUOUS
 62
     4
 10
26772.820997999988
 20
14112.730913999991
 30
0.0
 11
26772.820997999988
 21
13705.230913999991
 31
0.0
  0
LINE
  5
4B3F
  8
SUNPOU
  6
CONTINUOUS
 62
     4
 10
25802.819677999989
 20
14813.730913999991
 30
0.0
 11
26852.820997999988
 21
14813.730913999991
 31
0.0
  0
LINE
  5
4B40
  8
SUNPOU
  6
CONTINUOUS
 62
     4
 10
25802.819677999989
 20
14112.730913999991
 30
0.0
 11
26852.820997999988
 21
14112.730913999991
 31
0.0
  0
LINE
  5
4B41
  8
SUNPOU
  6
CONTINUOUS
 62
     4
 10
26772.820997999988
 20
14813.730913999991
 30
0.0
 11
26772.820997999988
 21
14112.730913999991
 31
0.0
  0
LINE
  5
4B42
  8
SUNPOU
  6
CONTINUOUS
 62
     4
 10
25802.819677999989
 20
15514.971425500011
 30
0.0
 11
26852.820997999988
 21
15514.971425500011
 31
0.0
  0
LINE
  5
4B43
  8
SUNPOU
  6
CONTINUOUS
 62
     4
 10
25802.819677999989
 20
14813.730913999991
 30
0.0
 11
26852.820997999988
 21
14813.730913999991
 31
0.0
  0
LINE
  5
4B44
  8
SUNPOU
  6
CONTINUOUS
 62
     4
 10
26772.820997999988
 20
15514.971425500011
 30
0.0
 11
26772.820997999988
 21
14813.730913999991
 31
0.0
  0
LINE
  5
4B45
  8
SUNPOU
  6
CONTINUOUS
 62
     4
 10
25802.819677999989
 20
16215.730913999991
 30
0.0
 11
26852.820997999988
 21
16215.730913999991
 31
0.0
  0
LINE
  5
4B46
  8
SUNPOU
  6
CONTINUOUS
 62
     4
 10
25802.819677999989
 20
15514.971425500011
 30
0.0
 11
26852.820997999988
 21
15514.971425500011
 31
0.0
  0
LINE
  5
4B47
  8
SUNPOU
  6
CONTINUOUS
 62
     4
 10
26772.820997999988
 20
16215.730913999991
 30
0.0
 11
26772.820997999988
 21
15514.971425500011
 31
0.0
  0
LINE
  5
4B48
  8
SUNPOU
  6
CONTINUOUS
 62
     4
 10
26652.820997999988
 20
16973.730914
 30
0.0
 11
26852.820997999988
 21
16973.730914
 31
0.0
  0
LINE
  5
4B49
  8
SUNPOU
  6
CONTINUOUS
 62
     4
 10
25802.819677999989
 20
16215.730913999991
 30
0.0
 11
26852.820997999988
 21
16215.730913999991
 31
0.0
  0
LINE
  5
4B4A
  8
SUNPOU
  6
CONTINUOUS
 62
     4
 10
26772.820997999988
 20
16973.730914
 30
0.0
 11
26772.820997999988
 21
16215.730913999991
 31
0.0
  0
LINE
  5
4B4B
  8
SUNPOU
  6
CONTINUOUS
 62
     4
 10
25802.819677999989
 20
17731.730914
 30
0.0
 11
26852.820997999988
 21
17731.730914
 31
0.0
  0
LINE
  5
4B4C
  8
SUNPOU
  6
CONTINUOUS
 62
     4
 10
26652.820997999988
 20
16973.730914
 30
0.0
 11
26852.820997999988
 21
16973.730914
 31
0.0
  0
LINE
  5
4B4D
  8
SUNPOU
  6
CONTINUOUS
 62
     4
 10
26772.820997999988
 20
17731.730914
 30
0.0
 11
26772.820997999988
 21
16973.730914
 31
0.0
  0
LINE
  5
4B4E
  8
SUNPOU
  6
CONTINUOUS
 62
     4
 10
25802.819677999989
 20
18432.730914
 30
0.0
 11
26852.820997999988
 21
18432.730914
 31
0.0
  0
LINE
  5
4B4F
  8
SUNPOU
  6
CONTINUOUS
 62
     4
 10
25802.819677999989
 20
17731.730914
 30
0.0
 11
26852.820997999988
 21
17731.730914
 31
0.0
  0
LINE
  5
4B50
  8
SUNPOU
  6
CONTINUOUS
 62
     4
 10
26772.820997999988
 20
18432.730914
 30
0.0
 11
26772.820997999988
 21
17731.730914
 31
0.0
  0
LINE
  5
4B51
  8
SUNPOU
  6
CONTINUOUS
 62
     4
 10
25802.819677999989
 20
19133.730914
 30
0.0
 11
26852.820997999988
 21
19133.730914
 31
0.0
  0
LINE
  5
4B52
  8
SUNPOU
  6
CONTINUOUS
 62
     4
 10
25802.819677999989
 20
18432.730914
 30
0.0
 11
26852.820997999988
 21
18432.730914
 31
0.0
  0
LINE
  5
4B53
  8
SUNPOU
  6
CONTINUOUS
 62
     4
 10
26772.820997999988
 20
19133.730914
 30
0.0
 11
26772.820997999988
 21
18432.730914
 31
0.0
  0
LINE
  5
4B54
  8
SUNPOU
  6
CONTINUOUS
 62
     4
 10
26652.820997999988
 20
19891.730914
 30
0.0
 11
26852.820997999988
 21
19891.730914
 31
0.0
  0
LINE
  5
4B55
  8
SUNPOU
  6
CONTINUOUS
 62
     4
 10
25802.819677999989
 20
19133.730914
 30
0.0
 11
26852.820997999988
 21
19133.730914
 31
0.0
  0
LINE
  5
4B56
  8
SUNPOU
  6
CONTINUOUS
 62
     4
 10
26772.820997999988
 20
19891.730914
 30
0.0
 11
26772.820997999988
 21
19133.730914
 31
0.0
  0
LINE
  5
4B57
  8
SUNPOU
  6
CONTINUOUS
 62
     4
 10
26652.820997999988
 20
16973.730914
 30
0.0
 11
27252.820997999988
 21
16973.730914
 31
0.0
  0
LINE
  5
4B58
  8
SUNPOU
  6
CONTINUOUS
 62
     4
 10
26652.820997999988
 20
19891.730914
 30
0.0
 11
27252.820997999988
 21
19891.730914
 31
0.0
  0
LINE
  5
4B59
  8
SUNPOU
  6
CONTINUOUS
 62
     4
 10
27172.820997999988
 20
16973.730914
 30
0.0
 11
27172.820997999988
 21
19891.730914
 31
0.0
  0
LINE
  5
4B5A
  8
SUNPOU
  6
CONTINUOUS
 62
     4
 10
26652.820997999988
 20
13705.230913999991
 30
0.0
 11
27252.820997999988
 21
13705.230913999991
 31
0.0
  0
LINE
  5
4B5B
  8
SUNPOU
  6
CONTINUOUS
 62
     4
 10
26652.820997999988
 20
16973.730914
 30
0.0
 11
27252.820997999988
 21
16973.730914
 31
0.0
  0
LINE
  5
4B5C
  8
SUNPOU
  6
CONTINUOUS
 62
     4
 10
27172.820997999988
 20
13705.230913999991
 30
0.0
 11
27172.820997999988
 21
16973.730914
 31
0.0
  0
LINE
  5
4B5D
  8
SUNPOU
  6
CONTINUOUS
 62
     4
 10
25802.819677999989
 20
19934.228209000001
 30
0.0
 11
27652.820997999988
 21
19934.228209000001
 31
0.0
  0
LINE
  5
4B5E
  8
SUNPOU
  6
CONTINUOUS
 62
     4
 10
25802.819677999989
 20
13662.733619000001
 30
0.0
 11
27652.820997999988
 21
13662.733619000001
 31
0.0
  0
LINE
  5
4B5F
  8
SUNPOU
  6
CONTINUOUS
 62
     4
 10
27572.820997999988
 20
19934.228209000001
 30
0.0
 11
27572.820997999988
 21
13662.733619000001
 31
0.0
  0
LINE
  5
4B60
  8
SUNPOU
  6
CONTINUOUS
 62
     4
 10
26652.820997999988
 20
19891.730914
 30
0.0
 11
27252.820997999988
 21
19891.730914
 31
0.0
  0
LINE
  5
4B61
  8
SUNPOU
  6
CONTINUOUS
 62
     4
 10
25802.819677999989
 20
19934.228209000001
 30
0.0
 11
27252.820997999988
 21
19934.228209000001
 31
0.0
  0
LINE
  5
4B62
  8
SUNPOU
  6
CONTINUOUS
 62
     4
 10
27172.820997999988
 20
19891.730914
 30
0.0
 11
27172.820997999988
 21
19651.730914
 31
0.0
  0
LINE
  5
4B63
  8
SUNPOU
  6
CONTINUOUS
 62
     4
 10
27172.820997999988
 20
19934.228209000001
 30
0.0
 11
27172.820997999988
 21
20174.228209000001
 31
0.0
  0
LINE
  5
4B64
  8
SUNPOU
  6
CONTINUOUS
 62
     4
 10
27172.820997999988
 20
19891.730914
 30
0.0
 11
27172.820997999988
 21
19934.228209000001
 31
0.0
  0
LINE
  5
4B65
  8
SUNPOU
  6
CONTINUOUS
 62
     4
 10
26652.820997999988
 20
13705.230913999991
 30
0.0
 11
27252.820997999988
 21
13705.230913999991
 31
0.0
  0
LINE
  5
4B66
  8
SUNPOU
  6
CONTINUOUS
 62
     4
 10
25802.819677999989
 20
13662.733619000001
 30
0.0
 11
27252.820997999988
 21
13662.733619000001
 31
0.0
  0
LINE
  5
4B67
  8
SUNPOU
  6
CONTINUOUS
 62
     4
 10
27172.820997999988
 20
13705.230913999991
 30
0.0
 11
27172.820997999988
 21
13945.230913999991
 31
0.0
  0
LINE
  5
4B68
  8
SUNPOU
  6
CONTINUOUS
 62
     4
 10
27172.820997999988
 20
13662.733619000001
 30
0.0
 11
27172.820997999988
 21
13422.733619000001
 31
0.0
  0
LINE
  5
4B69
  8
SUNPOU
  6
CONTINUOUS
 62
     4
 10
27172.820997999988
 20
13705.230913999991
 30
0.0
 11
27172.820997999988
 21
13662.733619000001
 31
0.0
  0
LINE
  5
4B6A
  8
SUNPOU
  6
CONTINUOUS
 62
     4
 10
24922.321393999991
 20
20014.229199000009
 30
0.0
 11
24922.321393999991
 21
20744.232102000031
 31
0.0
  0
LINE
  5
4B6B
  8
SUNPOU
  6
CONTINUOUS
 62
     4
 10
25680.322383499992
 20
20014.229199000009
 30
0.0
 11
25680.322383499992
 21
20744.232102000031
 31
0.0
  0
LINE
  5
4B6C
  8
SUNPOU
  6
CONTINUOUS
 62
     4
 10
24922.321393999991
 20
20664.232102000031
 30
0.0
 11
25680.322383499992
 21
20664.232102000031
 31
0.0
  0
LINE
  5
4B6D
  8
SUNPOU
  6
CONTINUOUS
 62
     4
 10
24221.321393999991
 20
20014.229199000009
 30
0.0
 11
24221.321393999991
 21
20744.232102000031
 31
0.0
  0
LINE
  5
4B6E
  8
SUNPOU
  6
CONTINUOUS
 62
     4
 10
24922.321393999991
 20
20014.229199000009
 30
0.0
 11
24922.321393999991
 21
20744.232102000031
 31
0.0
  0
LINE
  5
4B6F
  8
SUNPOU
  6
CONTINUOUS
 62
     4
 10
24221.321393999991
 20
20664.232102000031
 30
0.0
 11
24922.321393999991
 21
20664.232102000031
 31
0.0
  0
LINE
  5
4B70
  8
SUNPOU
  6
CONTINUOUS
 62
     4
 10
23520.321393999991
 20
20014.229199000009
 30
0.0
 11
23520.321393999991
 21
20744.232102000031
 31
0.0
  0
LINE
  5
4B71
  8
SUNPOU
  6
CONTINUOUS
 62
     4
 10
24221.321393999991
 20
20014.229199000009
 30
0.0
 11
24221.321393999991
 21
20744.232102000031
 31
0.0
  0
LINE
  5
4B72
  8
SUNPOU
  6
CONTINUOUS
 62
     4
 10
23520.321393999991
 20
20664.232102000031
 30
0.0
 11
24221.321393999991
 21
20664.232102000031
 31
0.0
  0
LINE
  5
4B73
  8
SUNPOU
  6
CONTINUOUS
 62
     4
 10
25680.321393999991
 20
20014.229199000009
 30
0.0
 11
25680.321393999991
 21
20744.232102000031
 31
0.0
  0
LINE
  5
4B74
  8
SUNPOU
  6
CONTINUOUS
 62
     4
 10
25722.817698999988
 20
20014.229199000009
 30
0.0
 11
25722.817698999988
 21
20744.232102000031
 31
0.0
  0
LINE
  5
4B75
  8
SUNPOU
  6
CONTINUOUS
 62
     4
 10
25680.321393999991
 20
20664.232102000031
 30
0.0
 11
25440.321393999991
 21
20664.232102000031
 31
0.0
  0
LINE
  5
4B76
  8
SUNPOU
  6
CONTINUOUS
 62
     4
 10
25722.817698999988
 20
20664.232102000031
 30
0.0
 11
25962.817698999988
 21
20664.232102000031
 31
0.0
  0
LINE
  5
4B77
  8
SUNPOU
  6
CONTINUOUS
 62
     4
 10
25680.321393999991
 20
20664.232102000031
 30
0.0
 11
25722.817698999988
 21
20664.232102000031
 31
0.0
  0
LINE
  5
4B78
  8
SUNPOU
  6
CONTINUOUS
 62
     4
 10
19844.321393999991
 20
20014.229199000009
 30
0.0
 11
19844.321393999991
 21
20744.232102000031
 31
0.0
  0
LINE
  5
4B79
  8
SUNPOU
  6
CONTINUOUS
 62
     4
 10
19801.825088999991
 20
20014.229199000009
 30
0.0
 11
19801.825088999991
 21
20744.232102000031
 31
0.0
  0
LINE
  5
4B7A
  8
SUNPOU
  6
CONTINUOUS
 62
     4
 10
19844.321393999991
 20
20664.232102000031
 30
0.0
 11
20084.321393999991
 21
20664.232102000031
 31
0.0
  0
LINE
  5
4B7B
  8
SUNPOU
  6
CONTINUOUS
 62
     4
 10
19801.825088999991
 20
20664.232102000031
 30
0.0
 11
19561.825088999991
 21
20664.232102000031
 31
0.0
  0
LINE
  5
4B7C
  8
SUNPOU
  6
CONTINUOUS
 62
     4
 10
19844.321393999991
 20
20664.232102000031
 30
0.0
 11
19801.825088999991
 21
20664.232102000031
 31
0.0
  0
LINE
  5
4B7D
  8
SUNPOU
  6
CONTINUOUS
 62
     4
 10
22004.321393999991
 20
20014.229199000009
 30
0.0
 11
22004.321393999991
 21
20744.232102000031
 31
0.0
  0
LINE
  5
4B7E
  8
SUNPOU
  6
CONTINUOUS
 62
     4
 10
22762.322383499992
 20
20014.229199000009
 30
0.0
 11
22762.322383499992
 21
20744.232102000031
 31
0.0
  0
LINE
  5
4B7F
  8
SUNPOU
  6
CONTINUOUS
 62
     4
 10
22004.321393999991
 20
20664.232102000031
 30
0.0
 11
22762.322383499992
 21
20664.232102000031
 31
0.0
  0
LINE
  5
4B80
  8
SUNPOU
  6
CONTINUOUS
 62
     4
 10
21303.321393999991
 20
20014.229199000009
 30
0.0
 11
21303.321393999991
 21
20744.232102000031
 31
0.0
  0
LINE
  5
4B81
  8
SUNPOU
  6
CONTINUOUS
 62
     4
 10
22004.321393999991
 20
20014.229199000009
 30
0.0
 11
22004.321393999991
 21
20744.232102000031
 31
0.0
  0
LINE
  5
4B82
  8
SUNPOU
  6
CONTINUOUS
 62
     4
 10
21303.321393999991
 20
20664.232102000031
 30
0.0
 11
22004.321393999991
 21
20664.232102000031
 31
0.0
  0
LINE
  5
4B83
  8
SUNPOU
  6
CONTINUOUS
 62
     4
 10
20602.321393999991
 20
20014.229199000009
 30
0.0
 11
20602.321393999991
 21
20744.232102000031
 31
0.0
  0
LINE
  5
4B84
  8
SUNPOU
  6
CONTINUOUS
 62
     4
 10
21303.321393999991
 20
20014.229199000009
 30
0.0
 11
21303.321393999991
 21
20744.232102000031
 31
0.0
  0
LINE
  5
4B85
  8
SUNPOU
  6
CONTINUOUS
 62
     4
 10
20602.321393999991
 20
20664.232102000031
 30
0.0
 11
21303.321393999991
 21
20664.232102000031
 31
0.0
  0
LINE
  5
4B86
  8
SUNPOU
  6
CONTINUOUS
 62
     4
 10
19714.320735000001
 20
6276.5900849999962
 30
0.0
 11
18914.322053999989
 21
6276.5900849999962
 31
0.0
  0
LINE
  5
4B87
  8
SUNPOU
  6
CONTINUOUS
 62
     4
 10
19714.320735000001
 20
8168.0900849999953
 30
0.0
 11
18914.322053999989
 21
8168.0900849999953
 31
0.0
  0
LINE
  5
4B88
  8
SUNPOU
  6
CONTINUOUS
 62
     4
 10
18994.322053999989
 20
6276.5900849999962
 30
0.0
 11
18994.322053999989
 21
8168.0900849999953
 31
0.0
  0
LINE
  5
4B89
  8
SUNPOU
  6
CONTINUOUS
 62
     4
 10
19714.320735000001
 20
6276.5900849999962
 30
0.0
 11
18514.319744999979
 21
6276.5900849999962
 31
0.0
  0
LINE
  5
4B8A
  8
SUNPOU
  6
CONTINUOUS
 62
     4
 10
19681.820998999981
 20
8624.5900850000016
 30
0.0
 11
18514.319744999979
 21
8624.5900850000016
 31
0.0
  0
LINE
  5
4B8B
  8
SUNPOU
  6
CONTINUOUS
 62
     4
 10
18594.319744999979
 20
6276.5900849999962
 30
0.0
 11
18594.319744999979
 21
8624.5900850000016
 31
0.0
  0
LINE
  5
4B9C
  8
SUNPOU
  6
CONTINUOUS
 62
     4
 10
19938.321393999991
 20
6096.5902499999984
 30
0.0
 11
19938.321393999991
 21
5296.5902499999984
 31
0.0
  0
LINE
  5
4B9D
  8
SUNPOU
  6
CONTINUOUS
 62
     4
 10
22668.321393999991
 20
6096.5902499999984
 30
0.0
 11
22668.321393999991
 21
5296.5902499999984
 31
0.0
  0
LINE
  5
4B9E
  8
SUNPOU
  6
CONTINUOUS
 62
     4
 10
19938.321393999991
 20
5376.5902499999984
 30
0.0
 11
22668.321393999991
 21
5376.5902499999984
 31
0.0
  0
LINE
  5
4B9F
  8
SUNPOU
  6
CONTINUOUS
 62
     4
 10
22856.321393999991
 20
6096.5902499999984
 30
0.0
 11
22856.321393999991
 21
5296.5902499999984
 31
0.0
  0
LINE
  5
4BA0
  8
SUNPOU
  6
CONTINUOUS
 62
     4
 10
25586.321393999991
 20
6096.5902499999984
 30
0.0
 11
25586.321393999991
 21
5296.5902499999984
 31
0.0
  0
LINE
  5
4BA1
  8
SUNPOU
  6
CONTINUOUS
 62
     4
 10
22856.321393999991
 20
5376.5902499999984
 30
0.0
 11
25586.321393999991
 21
5376.5902499999984
 31
0.0
  0
LINE
  5
4BA2
  8
SUNPOU
  6
CONTINUOUS
 62
     4
 10
22762.321393999991
 20
5833.9378269999979
 30
0.0
 11
22762.321393999991
 21
4896.5902499999993
 31
0.0
  0
LINE
  5
4BA3
  8
SUNPOU
  6
CONTINUOUS
 62
     4
 10
25680.321393999991
 20
5833.9378269999979
 30
0.0
 11
25680.321393999991
 21
4896.5902499999993
 31
0.0
  0
LINE
  5
4BA4
  8
SUNPOU
  6
CONTINUOUS
 62
     4
 10
22762.321393999991
 20
4976.5902500000002
 30
0.0
 11
25680.321393999991
 21
4976.5902500000002
 31
0.0
  0
LINE
  5
4BA5
  8
SUNPOU
  6
CONTINUOUS
 62
     4
 10
19844.321393999991
 20
5833.9378269999979
 30
0.0
 11
19844.321393999991
 21
4896.5902499999993
 31
0.0
  0
LINE
  5
4BA6
  8
SUNPOU
  6
CONTINUOUS
 62
     4
 10
22762.321393999991
 20
5833.9378269999979
 30
0.0
 11
22762.321393999991
 21
4896.5902499999993
 31
0.0
  0
LINE
  5
4BA7
  8
SUNPOU
  6
CONTINUOUS
 62
     4
 10
19844.321393999991
 20
4976.5902500000002
 30
0.0
 11
22762.321393999991
 21
4976.5902500000002
 31
0.0
  0
LINE
  5
4BA8
  8
SUNPOU
  6
CONTINUOUS
 62
     4
 10
25680.325352999989
 20
5833.9378269999979
 30
0.0
 11
25680.325352999989
 21
4896.5902499999993
 31
0.0
  0
LINE
  5
4BA9
  8
SUNPOU
  6
CONTINUOUS
 62
     4
 10
25722.825353
 20
6096.5902499999984
 30
0.0
 11
25722.825353
 21
4896.5902499999993
 31
0.0
  0
LINE
  5
4BAA
  8
SUNPOU
  6
CONTINUOUS
 62
     4
 10
25680.325352999989
 20
4976.5902500000002
 30
0.0
 11
25440.325352999989
 21
4976.5902500000002
 31
0.0
  0
LINE
  5
4BAB
  8
SUNPOU
  6
CONTINUOUS
 62
     4
 10
25722.825353
 20
4976.5902500000002
 30
0.0
 11
25962.825353
 21
4976.5902500000002
 31
0.0
  0
LINE
  5
4BAC
  8
SUNPOU
  6
CONTINUOUS
 62
     4
 10
25680.325352999989
 20
4976.5902500000002
 30
0.0
 11
25722.825353
 21
4976.5902500000002
 31
0.0
  0
LINE
  5
4BAD
  8
SUNPOU
  6
CONTINUOUS
 62
     4
 10
19844.321393999991
 20
5833.9378269999979
 30
0.0
 11
19844.321393999991
 21
4896.5902499999993
 31
0.0
  0
LINE
  5
4BAE
  8
SUNPOU
  6
CONTINUOUS
 62
     4
 10
19801.821393999991
 20
6096.5902499999984
 30
0.0
 11
19801.821393999991
 21
4896.5902499999993
 31
0.0
  0
LINE
  5
4BAF
  8
SUNPOU
  6
CONTINUOUS
 62
     4
 10
19844.321393999991
 20
4976.5902500000002
 30
0.0
 11
20084.321393999991
 21
4976.5902500000002
 31
0.0
  0
LINE
  5
4BB0
  8
SUNPOU
  6
CONTINUOUS
 62
     4
 10
19801.821393999991
 20
4976.5902500000002
 30
0.0
 11
19561.821393999991
 21
4976.5902500000002
 31
0.0
  0
LINE
  5
4BB1
  8
SUNPOU
  6
CONTINUOUS
 62
     4
 10
19844.321393999991
 20
4976.5902500000002
 30
0.0
 11
19801.821393999991
 21
4976.5902500000002
 31
0.0
  0
LINE
  5
4BB2
  8
SUNPOU
  6
CONTINUOUS
 62
     4
 10
19801.821393999991
 20
6096.5902499999984
 30
0.0
 11
19801.821393999991
 21
4496.5904149999969
 31
0.0
  0
LINE
  5
4BB3
  8
SUNPOU
  6
CONTINUOUS
 62
     4
 10
25722.821393999991
 20
6096.5902499999984
 30
0.0
 11
25722.821393999991
 21
4496.5904149999969
 31
0.0
  0
LINE
  5
4BB4
  8
SUNPOU
  6
CONTINUOUS
 62
     4
 10
19801.821393999991
 20
4576.5904149999969
 30
0.0
 11
25722.821393999991
 21
4576.5904149999969
 31
0.0
  0
LINE
  5
4BB5
  8
SUNPOU
  6
CONTINUOUS
 62
     4
 10
8882.5340609999967
 20
8513.5900850000016
 30
0.0
 11
8882.5340609999967
 21
9904.5901109999977
 31
0.0
  0
LINE
  5
4BB6
  8
SUNPOU
  6
CONTINUOUS
 62
     4
 10
15484.034061
 20
8645.4799084124334
 30
0.0
 11
15484.034061
 21
9904.5901109999977
 31
0.0
  0
LINE
  5
4BB7
  8
SUNPOU
  6
CONTINUOUS
 62
     4
 10
8882.5340609999967
 20
9824.5901109999995
 30
0.0
 11
15484.034061
 21
9824.5901109999995
 31
0.0
  0
LINE
  5
4BB8
  8
SUNPOU
  6
CONTINUOUS
 62
     4
 10
15334.034061
 20
8571.5001490000031
 30
0.0
 11
15334.034061
 21
9504.5917609999997
 31
0.0
  0
LINE
  5
4BB9
  8
SUNPOU
  6
CONTINUOUS
 62
     4
 10
15484.034061
 20
8645.4799084124334
 30
0.0
 11
15484.034061
 21
9504.5917609999997
 31
0.0
  0
LINE
  5
4BBA
  8
SUNPOU
  6
CONTINUOUS
 62
     4
 10
15334.034061
 20
9424.5917609999997
 30
0.0
 11
15094.034061
 21
9424.5917609999997
 31
0.0
  0
LINE
  5
4BBB
  8
SUNPOU
  6
CONTINUOUS
 62
     4
 10
15484.034061
 20
9424.5917609999997
 30
0.0
 11
15724.034061
 21
9424.5917609999997
 31
0.0
  0
LINE
  5
4BBC
  8
SUNPOU
  6
CONTINUOUS
 62
     4
 10
15334.034061
 20
9424.5917609999997
 30
0.0
 11
15484.034061
 21
9424.5917609999997
 31
0.0
  0
LINE
  5
4BBD
  8
SUNPOU
  6
CONTINUOUS
 62
     4
 10
9062.5340609999967
 20
8383.7758606838106
 30
0.0
 11
9062.5340609999967
 21
9504.5917609999997
 31
0.0
  0
LINE
  5
4BBE
  8
SUNPOU
  6
CONTINUOUS
 62
     4
 10
15334.034061
 20
8571.5001490000031
 30
0.0
 11
15334.034061
 21
9504.5917609999997
 31
0.0
  0
LINE
  5
4BBF
  8
SUNPOU
  6
CONTINUOUS
 62
     4
 10
9062.5340609999967
 20
9424.5917609999997
 30
0.0
 11
15334.034061
 21
9424.5917609999997
 31
0.0
  0
LINE
  5
4BC0
  8
SUNPOU
  6
CONTINUOUS
 62
     4
 10
8882.5340609999967
 20
8513.5900850000016
 30
0.0
 11
8882.5340609999967
 21
9504.5917609999997
 31
0.0
  0
LINE
  5
4BC1
  8
SUNPOU
  6
CONTINUOUS
 62
     4
 10
9062.5340609999967
 20
8383.7758606838106
 30
0.0
 11
9062.5340609999967
 21
9504.5917609999997
 31
0.0
  0
LINE
  5
4BC2
  8
SUNPOU
  6
CONTINUOUS
 62
     4
 10
8882.5340609999967
 20
9424.5917609999997
 30
0.0
 11
9062.5340609999967
 21
9424.5917609999997
 31
0.0
  0
LINE
  5
4BC3
  8
SUNPOU
  6
CONTINUOUS
 62
     4
 10
15426.534061
 20
6276.5900850000025
 30
0.0
 11
16504.034456999991
 21
6276.5900850000025
 31
0.0
  0
LINE
  5
4BC4
  8
SUNPOU
  6
CONTINUOUS
 62
     4
 10
15518.84132059936
 20
8624.5900850000016
 30
0.0
 11
16504.034457000002
 21
8624.5900850000016
 31
0.0
  0
LINE
  5
4BC5
  8
SUNPOU
  6
CONTINUOUS
 62
     4
 10
16424.034456999991
 20
6276.5900850000025
 30
0.0
 11
16424.034457000002
 21
8624.5900850000016
 31
0.0
  0
LINE
  5
4BC6
  8
SUNPOU
  6
CONTINUOUS
 62
     4
 10
8975.0340609999967
 20
6276.5900850000025
 30
0.0
 11
7892.5336650000027
 21
6276.5900850000025
 31
0.0
  0
LINE
  5
4BC7
  8
SUNPOU
  6
CONTINUOUS
 62
     4
 10
8802.5340609999967
 20
8433.5900850000016
 30
0.0
 11
7892.5336650000027
 21
8433.5900850000016
 31
0.0
  0
LINE
  5
4BC8
  8
SUNPOU
  6
CONTINUOUS
 62
     4
 10
7972.5336650000027
 20
6276.5900850000025
 30
0.0
 11
7972.5336650000027
 21
8433.5900850000016
 31
0.0
  0
LINE
  5
4BC9
  8
SUNPOU
  6
CONTINUOUS
 62
     4
 10
9062.5340609999967
 20
6196.5900850000025
 30
0.0
 11
9062.5340609999967
 21
4496.5904150000006
 31
0.0
  0
LINE
  5
4BCA
  8
SUNPOU
  6
CONTINUOUS
 62
     4
 10
15334.034061
 20
6196.5900850000025
 30
0.0
 11
15334.034061
 21
4496.5904150000006
 31
0.0
  0
LINE
  5
4BCB
  8
SUNPOU
  6
CONTINUOUS
 62
     4
 10
9062.5340609999967
 20
4576.5904150000006
 30
0.0
 11
15334.034061
 21
4576.5904150000006
 31
0.0
  0
LINE
  5
4BCC
  8
SUNPOU
  6
CONTINUOUS
 62
     4
 10
15291.534061
 20
5833.9378270000034
 30
0.0
 11
15291.534061
 21
4896.5902500000011
 31
0.0
  0
LINE
  5
4BCD
  8
SUNPOU
  6
CONTINUOUS
 62
     4
 10
15334.034061
 20
6196.5900850000025
 30
0.0
 11
15334.034061
 21
4896.5902500000011
 31
0.0
  0
LINE
  5
4BCE
  8
SUNPOU
  6
CONTINUOUS
 62
     4
 10
15291.534061
 20
4976.5902500000002
 30
0.0
 11
15051.53406099998
 21
4976.5902500000002
 31
0.0
  0
LINE
  5
4BCF
  8
SUNPOU
  6
CONTINUOUS
 62
     4
 10
15334.034061
 20
4976.5902500000002
 30
0.0
 11
15574.034061
 21
4976.5902500000002
 31
0.0
  0
LINE
  5
4BD0
  8
SUNPOU
  6
CONTINUOUS
 62
     4
 10
15291.534061
 20
4976.5902500000002
 30
0.0
 11
15334.034061
 21
4976.5902500000002
 31
0.0
  0
LINE
  5
4BD1
  8
SUNPOU
  6
CONTINUOUS
 62
     4
 10
9105.0340609999967
 20
5833.9378270000034
 30
0.0
 11
9105.0340609999967
 21
4896.5902500000011
 31
0.0
  0
LINE
  5
4BD2
  8
SUNPOU
  6
CONTINUOUS
 62
     4
 10
9062.5340609999967
 20
6196.5900850000025
 30
0.0
 11
9062.5340609999967
 21
4896.5902500000011
 31
0.0
  0
LINE
  5
4BD3
  8
SUNPOU
  6
CONTINUOUS
 62
     4
 10
9105.0340609999967
 20
4976.5902500000002
 30
0.0
 11
9345.0340609999985
 21
4976.5902500000002
 31
0.0
  0
LINE
  5
4BD4
  8
SUNPOU
  6
CONTINUOUS
 62
     4
 10
9062.5340609999967
 20
4976.5902500000002
 30
0.0
 11
8822.5340609999967
 21
4976.5902500000002
 31
0.0
  0
LINE
  5
4BD5
  8
SUNPOU
  6
CONTINUOUS
 62
     4
 10
9105.0340609999967
 20
4976.5902500000002
 30
0.0
 11
9062.5340609999967
 21
4976.5902500000002
 31
0.0
  0
LINE
  5
4BD6
  8
SUNPOU
  6
CONTINUOUS
 62
     4
 10
12023.034061
 20
5833.9378270000034
 30
0.0
 11
12023.034061
 21
4896.5902500000011
 31
0.0
  0
LINE
  5
4BD7
  8
SUNPOU
  6
CONTINUOUS
 62
     4
 10
9105.0340609999967
 20
5833.9378270000034
 30
0.0
 11
9105.0340609999967
 21
4896.5902500000011
 31
0.0
  0
LINE
  5
4BD8
  8
SUNPOU
  6
CONTINUOUS
 62
     4
 10
12023.034061
 20
4976.5902500000002
 30
0.0
 11
9105.0340609999967
 21
4976.5902500000002
 31
0.0
  0
LINE
  5
4BD9
  8
SUNPOU
  6
CONTINUOUS
 62
     4
 10
12023.034061
 20
5833.9378270000034
 30
0.0
 11
12023.034061
 21
4896.590250000002
 31
0.0
  0
LINE
  5
4BDA
  8
SUNPOU
  6
CONTINUOUS
 62
     4
 10
15291.534061
 20
5833.9378270000034
 30
0.0
 11
15291.534061
 21
4896.590250000002
 31
0.0
  0
LINE
  5
4BDB
  8
SUNPOU
  6
CONTINUOUS
 62
     4
 10
12023.034061
 20
4976.590250000002
 30
0.0
 11
15291.534061
 21
4976.590250000002
 31
0.0
  0
TEXT
  5
4BDC
  8
0
  6
CONTINUOUS
 62
     7
 10
13257.284061
 20
5056.590250000002
 30
0.0
 40
160.0
  1
3268.5
  0
TEXT
  5
4BDD
  8
0
  6
CONTINUOUS
 62
     7
 10
10297.367394333331
 20
5056.5902500000011
 30
0.0
 40
160.0
  1
2918
  0
TEXT
  5
4BDE
  8
0
  6
CONTINUOUS
 62
     7
 10
8465.3603519036915
 20
5056.5902500000011
 30
0.0
 40
160.0
  1
42.5
  0
TEXT
  5
4BDF
  8
0
  6
CONTINUOUS
 62
     7
 10
15472.35269830982
 20
5056.5902500000011
 30
0.0
 40
160.0
  1
42.5
  0
TEXT
  5
4BE0
  8
0
  6
CONTINUOUS
 62
     7
 10
11824.950727666661
 20
4656.5904150000006
 30
0.0
 40
160.0
  1
6271.5
  0
TEXT
  5
4BE1
  8
0
  6
CONTINUOUS
 62
     7
 10
7892.5336650000008
 20
6576.4234183333374
 30
0.0
 40
160.0
  1
2157（2397）
 50
90.0
  0
TEXT
  5
4BE2
  8
0
  6
CONTINUOUS
 62
     7
 10
16344.034456999991
 20
6645.2567516666686
 30
0.0
 40
160.0
  1
2348（2588）
 50
90.0
  0
TEXT
  5
4BE3
  8
0
  6
CONTINUOUS
 62
     7
 10
8469.2007276666645
 20
9504.5917609999997
 30
0.0
 40
160.0
  1
180
  0
TEXT
  5
4BE4
  8
0
  6
CONTINUOUS
 62
     7
 10
11824.950727666661
 20
9504.5917609999997
 30
0.0
 40
160.0
  1
6271.5
  0
TEXT
  5
4BE5
  8
0
  6
CONTINUOUS
 62
     7
 10
15550.700727666661
 20
9504.5917609999997
 30
0.0
 40
160.0
  1
150
  0
TEXT
  5
4BE6
  8
0
  6
CONTINUOUS
 62
     7
 10
11823.284061
 20
9904.5901109999977
 30
0.0
 40
160.0
  1
6601.5
  0
TEXT
  5
4BE7
  8
0
  6
CONTINUOUS
 62
     7
 10
22495.65472733332
 20
4656.5904149999969
 30
0.0
 40
160.0
  1
5921
  0
TEXT
  5
4BE8
  8
0
  6
CONTINUOUS
 62
     7
 10
19235.782403741141
 20
5056.5902499999993
 30
0.0
 40
160.0
  1
42.5
  0
TEXT
  5
4BE9
  8
0
  6
CONTINUOUS
 62
     7
 10
25808.864343258851
 20
5056.5902499999993
 30
0.0
 40
160.0
  1
42.5
  0
TEXT
  5
4BEA
  8
0
  6
CONTINUOUS
 62
     7
 10
21036.654727333309
 20
5056.5902499999993
 30
0.0
 40
160.0
  1
2918
  0
TEXT
  5
4BEB
  8
0
  6
CONTINUOUS
 62
     7
 10
23954.654727333331
 20
5056.5902499999993
 30
0.0
 40
160.0
  1
2918
  0
TEXT
  5
4BEC
  8
0
  6
CONTINUOUS
 62
     7
 10
23413.321393999991
 20
5456.5902499999984
 30
0.0
 40
160.0
  1
有効開口巾 2730
  0
TEXT
  5
4BED
  8
0
  6
CONTINUOUS
 62
     7
 10
20495.321393999991
 20
5456.5902499999984
 30
0.0
 40
160.0
  1
有効開口巾 2730
  0
TEXT
  5
4BF2
  8
0
  6
CONTINUOUS
 62
     7
 10
18514.319744999979
 20
6645.2567516666686
 30
0.0
 40
160.0
  1
2348（2588）
 50
90.0
  0
TEXT
  5
4BF3
  8
0
  6
CONTINUOUS
 62
     7
 10
18914.322053999989
 20
6340.5693232912718
 30
0.0
 40
160.0
  1
有効開口高サ 1891.5
 50
90.0
  0
TEXT
  5
4BF4
  8
0
  6
CONTINUOUS
 62
     7
 10
20779.488060666648
 20
20744.232102000031
 30
0.0
 40
160.0
  1
701
  0
TEXT
  5
4BF5
  8
0
  6
CONTINUOUS
 62
     7
 10
21480.488060666648
 20
20744.232102000031
 30
0.0
 40
160.0
  1
701
  0
TEXT
  5
4BF6
  8
0
  6
CONTINUOUS
 62
     7
 10
22169.988555416669
 20
20744.232102000031
 30
0.0
 40
160.0
  1
758
  0
TEXT
  5
4BF7
  8
0
  6
CONTINUOUS
 62
     7
 10
19241.509414471191
 20
20744.232102000031
 30
0.0
 40
160.0
  1
42.5
  0
TEXT
  5
4BF8
  8
0
  6
CONTINUOUS
 62
     7
 10
25803.133373528799
 20
20744.232102000031
 30
0.0
 40
160.0
  1
42.5
  0
TEXT
  5
4BF9
  8
0
  6
CONTINUOUS
 62
     7
 10
23697.488060666648
 20
20744.232102000031
 30
0.0
 40
160.0
  1
701
  0
TEXT
  5
4BFA
  8
0
  6
CONTINUOUS
 62
     7
 10
24398.488060666648
 20
20744.232102000031
 30
0.0
 40
160.0
  1
701
  0
TEXT
  5
4BFB
  8
0
  6
CONTINUOUS
 62
     7
 10
25087.988555416661
 20
20744.232102000031
 30
0.0
 40
160.0
  1
758
  0
TEXT
  5
4BFC
  8
0
  6
CONTINUOUS
 62
     7
 10
27092.820997999988
 20
13089.1773826032
 30
0.0
 40
160.0
  1
42.5
 50
90.0
  0
TEXT
  5
4BFD
  8
0
  6
CONTINUOUS
 62
     7
 10
27092.820997999988
 20
20027.784445396788
 30
0.0
 40
160.0
  1
42.5
 50
90.0
  0
TEXT
  5
4BFE
  8
0
  6
CONTINUOUS
 62
     7
 10
27492.820997999981
 20
16425.147580666671
 30
0.0
 40
160.0
  1
6271.5
 50
90.0
  0
TEXT
  5
4BFF
  8
0
  6
CONTINUOUS
 62
     7
 10
27092.820997999981
 20
14939.480913999991
 30
0.0
 40
160.0
  1
3268.5
 50
90.0
  0
TEXT
  5
4C00
  8
0
  6
CONTINUOUS
 62
     7
 10
27092.820997999981
 20
18166.064247333321
 30
0.0
 40
160.0
  1
2918
 50
90.0
  0
TEXT
  5
4C01
  8
0
  6
CONTINUOUS
 62
     7
 10
26692.820997999981
 20
19299.397580666671
 30
0.0
 40
160.0
  1
758
 50
90.0
  0
TEXT
  5
4C02
  8
0
  6
CONTINUOUS
 62
     7
 10
26692.820997999981
 20
18609.897580666671
 30
0.0
 40
160.0
  1
701
 50
90.0
  0
TEXT
  5
4C03
  8
0
  6
CONTINUOUS
 62
     7
 10
26692.820997999981
 20
17908.897580666671
 30
0.0
 40
160.0
  1
701
 50
90.0
  0
TEXT
  5
4C04
  8
0
  6
CONTINUOUS
 62
     7
 10
26692.820997999981
 20
17139.397580666671
 30
0.0
 40
160.0
  1
758
 50
90.0
  0
TEXT
  5
4C05
  8
0
  6
CONTINUOUS
 62
     7
 10
26692.820997999981
 20
16381.39758066666
 30
0.0
 40
160.0
  1
758
 50
90.0
  0
TEXT
  5
4C06
  8
0
  6
CONTINUOUS
 62
     7
 10
26692.820997999981
 20
15692.01783641668
 30
0.0
 40
160.0
  1
701
 50
90.0
  0
TEXT
  5
4C07
  8
0
  6
CONTINUOUS
 62
     7
 10
26692.820997999981
 20
14991.01783641668
 30
0.0
 40
160.0
  1
701
 50
90.0
  0
TEXT
  5
4C08
  8
0
  6
CONTINUOUS
 62
     7
 10
26692.820997999981
 20
14289.89758066666
 30
0.0
 40
160.0
  1
701
 50
90.0
  0
TEXT
  5
4C09
  8
0
  6
CONTINUOUS
 62
     7
 10
27052.820997999999
 20
13778.051328203541
 30
0.0
 40
160.0
  1
407.5
 50
90.0
  0
TEXT
  5
4C0A
  8
0
  6
CONTINUOUS
 62
     7
 10
22495.654727333331
 20
12413.782829999989
 30
0.0
 40
160.0
  1
5921
  0
TEXT
  5
4C0B
  8
0
  6
CONTINUOUS
 62
     7
 10
19962.375066382079
 20
12813.78283
 30
0.0
 40
160.0
  1
42.5
  0
TEXT
  5
4C0C
  8
0
  6
CONTINUOUS
 62
     7
 10
25082.2677216179
 20
12813.78283
 30
0.0
 40
160.0
  1
42.5
  0
TEXT
  5
4C0D
  8
0
  6
CONTINUOUS
 62
     7
 10
25798.375066382079
 20
12813.78283
 30
0.0
 40
160.0
  1
42.5
  0
TEXT
  5
4C0E
  8
0
  6
CONTINUOUS
 62
     7
 10
19246.2677216179
 20
12813.78283
 30
0.0
 40
160.0
  1
42.5
  0
TEXT
  5
4C0F
  8
0
  6
CONTINUOUS
 62
     7
 10
18834.866816999991
 20
14250.101169750011
 30
0.0
 40
160.0
  1
1809.5
 50
90.0
  0
TEXT
  5
4C10
  8
0
  6
CONTINUOUS
 62
     7
 10
18834.866816999991
 20
15977.684503083339
 30
0.0
 40
160.0
  1
1459
 50
90.0
  0
TEXT
  5
4C11
  8
0
  6
CONTINUOUS
 62
     7
 10
18834.866816999991
 20
17436.56424733331
 30
0.0
 40
160.0
  1
1459
 50
90.0
  0
TEXT
  5
4C12
  8
0
  6
CONTINUOUS
 62
     7
 10
18834.866816999991
 20
18895.564247333321
 30
0.0
 40
160.0
  1
1459
 50
90.0
  0
TEXT
  5
4C13
  8
0
  6
CONTINUOUS
 62
     7
 10
20009.988060666648
 20
20744.232102000031
 30
0.0
 40
160.0
  1
758
  0
TEXT
  5
4C14
  8
0
  6
CONTINUOUS
 62
     7
 10
22927.988555416669
 20
20744.232102000031
 30
0.0
 40
160.0
  1
758
  0
TEXT
  5
4C15
  8
0
  6
CONTINUOUS
 62
     7
 10
7122.8589989999982
 20
15977.56424733333
 30
0.0
 40
160.0
  1
1459
 50
90.0
  0
TEXT
  5
4C16
  8
0
  6
CONTINUOUS
 62
     7
 10
7122.8589989999982
 20
17436.56424733331
 30
0.0
 40
160.0
  1
1459
 50
90.0
  0
TEXT
  5
4C17
  8
0
  6
CONTINUOUS
 62
     7
 10
7122.8589989999991
 20
18895.564247333321
 30
0.0
 40
160.0
  1
1459
 50
90.0
  0
TEXT
  5
4C18
  8
0
  6
CONTINUOUS
 62
     7
 10
7122.8589989999991
 20
20203.186098807681
 30
0.0
 40
160.0
  1
222.5
 50
90.0
  0
TEXT
  5
4C19
  8
0
  6
CONTINUOUS
 62
     7
 10
7522.8589989999973
 20
20234.226823000001
 30
0.0
 40
160.0
  1
20
 50
90.0
  0
TEXT
  5
4C1A
  8
0
  6
CONTINUOUS
 62
     7
 10
7122.8589989999982
 20
12897.27790370263
 30
0.0
 40
160.0
  1
192.5
 50
90.0
  0
TEXT
  5
4C1B
  8
0
  6
CONTINUOUS
 62
     7
 10
7122.8589989999991
 20
14249.980913999991
 30
0.0
 40
160.0
  1
1809.5
 50
90.0
  0
TEXT
  5
4C1C
  8
0
  6
CONTINUOUS
 62
     7
 10
12242.68524258332
 20
20744.230123000001
 30
0.0
 40
160.0
  1
2918
  0
TEXT
  5
4C1D
  8
0
  6
CONTINUOUS
 62
     7
 10
14104.84638852324
 20
20744.230123000001
 30
0.0
 40
160.0
  1
85.5
  0
TEXT
  5
4C1E
  8
0
  6
CONTINUOUS
 62
     7
 10
9324.6896960833565
 20
20744.230123000001
 30
0.0
 40
160.0
  1
2918
  0
TEXT
  5
4C1F
  8
0
  6
CONTINUOUS
 62
     7
 10
7515.8618834767703
 20
20744.230123000001
 30
0.0
 40
160.0
  1
85.5
  0
ARC
  5
4C25
  8
0
  6
BYBLOCK
 62
     0
 10
8132.3585895000342
 20
20664.230123000001
 30
0.0
 40
15.0
 50
0.0
 51
180.0
  0
ARC
  5
4C26
  8
0
  6
BYBLOCK
 62
     0
 10
8132.3585895000342
 20
20664.230123000001
 30
0.0
 40
15.0
 50
180.0
 51
0.0
  0
ARC
  5
4C27
  8
0
  6
BYBLOCK
 62
     0
 10
8046.8585895000342
 20
20664.230123000001
 30
0.0
 40
15.0
 50
180.0
 51
0.0
  0
ARC
  5
4C28
  8
0
  6
BYBLOCK
 62
     0
 10
8046.8585895000342
 20
20664.230123000001
 30
0.0
 40
15.0
 50
0.0
 51
180.0
  0
ARC
  5
4C29
  8
0
  6
BYBLOCK
 62
     0
 10
11050.354136000011
 20
20664.230123000001
 30
0.0
 40
15.0
 50
180.0
 51
0.0
  0
ARC
  5
4C2A
  8
0
  6
BYBLOCK
 62
     0
 10
11050.354136000011
 20
20664.230123000001
 30
0.0
 40
15.0
 50
0.0
 51
180.0
  0
ARC
  5
4C2B
  8
0
  6
BYBLOCK
 62
     0
 10
8132.3585895000342
 20
20664.230123000001
 30
0.0
 40
15.0
 50
0.0
 51
180.0
  0
ARC
  5
4C2C
  8
0
  6
BYBLOCK
 62
     0
 10
8132.3585895000342
 20
20664.230123000001
 30
0.0
 40
15.0
 50
180.0
 51
0.0
  0
ARC
  5
4C2D
  8
0
  6
BYBLOCK
 62
     0
 10
13968.34968249998
 20
20664.230123000001
 30
0.0
 40
15.0
 50
180.0
 51
0.0
  0
ARC
  5
4C2E
  8
0
  6
BYBLOCK
 62
     0
 10
13968.34968249998
 20
20664.230123000001
 30
0.0
 40
15.0
 50
0.0
 51
180.0
  0
ARC
  5
4C2F
  8
0
  6
BYBLOCK
 62
     0
 10
14053.84968249998
 20
20664.230123000001
 30
0.0
 40
15.0
 50
0.0
 51
180.0
  0
ARC
  5
4C30
  8
0
  6
BYBLOCK
 62
     0
 10
14053.84968249998
 20
20664.230123000001
 30
0.0
 40
15.0
 50
180.0
 51
0.0
  0
ARC
  5
4C31
  8
0
  6
BYBLOCK
 62
     0
 10
11050.354136000011
 20
20664.230123000001
 30
0.0
 40
15.0
 50
0.0
 51
180.0
  0
ARC
  5
4C32
  8
0
  6
BYBLOCK
 62
     0
 10
11050.354136000011
 20
20664.230123000001
 30
0.0
 40
15.0
 50
180.0
 51
0.0
  0
ARC
  5
4C33
  8
0
  6
BYBLOCK
 62
     0
 10
13968.34968249998
 20
20664.230123000001
 30
0.0
 40
15.0
 50
180.0
 51
0.0
  0
ARC
  5
4C34
  8
0
  6
BYBLOCK
 62
     0
 10
13968.34968249998
 20
20664.230123000001
 30
0.0
 40
15.0
 50
0.0
 51
180.0
  0
ARC
  5
4C35
  8
0
  6
BYBLOCK
 62
     0
 10
7202.8589990000009
 20
15514.730913999991
 30
0.0
 40
15.0
 50
270.0
 51
90.0
  0
ARC
  5
4C36
  8
0
  6
BYBLOCK
 62
     0
 10
7202.8589990000009
 20
15514.730913999991
 30
0.0
 40
15.0
 50
90.0
 51
270.0
  0
ARC
  5
4C37
  8
0
  6
BYBLOCK
 62
     0
 10
7202.8589989999991
 20
13705.230913999991
 30
0.0
 40
15.0
 50
90.0
 51
270.0
  0
ARC
  5
4C38
  8
0
  6
BYBLOCK
 62
     0
 10
7202.8589989999991
 20
13705.230913999991
 30
0.0
 40
15.0
 50
270.0
 51
90.0
  0
ARC
  5
4C39
  8
0
  6
BYBLOCK
 62
     0
 10
7202.8589989999991
 20
13705.230913999991
 30
0.0
 40
15.0
 50
270.0
 51
90.0
  0
ARC
  5
4C3A
  8
0
  6
BYBLOCK
 62
     0
 10
7202.8589989999991
 20
13705.230913999991
 30
0.0
 40
15.0
 50
90.0
 51
270.0
  0
ARC
  5
4C3B
  8
0
  6
BYBLOCK
 62
     0
 10
7202.8589989999991
 20
13512.735599
 30
0.0
 40
15.0
 50
90.0
 51
270.0
  0
ARC
  5
4C3C
  8
0
  6
BYBLOCK
 62
     0
 10
7202.8589989999991
 20
13512.735599
 30
0.0
 40
15.0
 50
270.0
 51
90.0
  0
ARC
  5
4C3D
  8
0
  6
BYBLOCK
 62
     0
 10
7602.8589989999973
 20
20094.226823000001
 30
0.0
 40
15.0
 50
270.0
 51
90.0
  0
ARC
  5
4C3E
  8
0
  6
BYBLOCK
 62
     0
 10
7602.8589989999973
 20
20094.226823000001
 30
0.0
 40
15.0
 50
90.0
 51
270.0
  0
ARC
  5
4C3F
  8
0
  6
BYBLOCK
 62
     0
 10
7602.8589989999973
 20
20114.226823000001
 30
0.0
 40
15.0
 50
90.0
 51
270.0
  0
ARC
  5
4C40
  8
0
  6
BYBLOCK
 62
     0
 10
7602.8589989999973
 20
20114.226823000001
 30
0.0
 40
15.0
 50
270.0
 51
90.0
  0
ARC
  5
4C41
  8
0
  6
BYBLOCK
 62
     0
 10
7202.8589990000009
 20
19891.730914
 30
0.0
 40
15.0
 50
90.0
 51
270.0
  0
ARC
  5
4C42
  8
0
  6
BYBLOCK
 62
     0
 10
7202.8589990000009
 20
19891.730914
 30
0.0
 40
15.0
 50
270.0
 51
90.0
  0
ARC
  5
4C43
  8
0
  6
BYBLOCK
 62
     0
 10
7202.8589990000009
 20
20114.226823000001
 30
0.0
 40
15.0
 50
270.0
 51
90.0
  0
ARC
  5
4C44
  8
0
  6
BYBLOCK
 62
     0
 10
7202.8589990000009
 20
20114.226823000001
 30
0.0
 40
15.0
 50
90.0
 51
270.0
  0
ARC
  5
4C45
  8
0
  6
BYBLOCK
 62
     0
 10
7202.8589990000009
 20
18432.730914
 30
0.0
 40
15.0
 50
90.0
 51
270.0
  0
ARC
  5
4C46
  8
0
  6
BYBLOCK
 62
     0
 10
7202.8589990000009
 20
18432.730914
 30
0.0
 40
15.0
 50
270.0
 51
90.0
  0
ARC
  5
4C47
  8
0
  6
BYBLOCK
 62
     0
 10
7202.8589990000009
 20
19891.730914
 30
0.0
 40
15.0
 50
270.0
 51
90.0
  0
ARC
  5
4C48
  8
0
  6
BYBLOCK
 62
     0
 10
7202.8589990000009
 20
19891.730914
 30
0.0
 40
15.0
 50
90.0
 51
270.0
  0
ARC
  5
4C49
  8
0
  6
BYBLOCK
 62
     0
 10
7202.8589989999991
 20
16973.730914
 30
0.0
 40
15.0
 50
90.0
 51
270.0
  0
ARC
  5
4C4A
  8
0
  6
BYBLOCK
 62
     0
 10
7202.8589989999991
 20
16973.730914
 30
0.0
 40
15.0
 50
270.0
 51
90.0
  0
ARC
  5
4C4B
  8
0
  6
BYBLOCK
 62
     0
 10
7202.8589989999991
 20
18432.730914
 30
0.0
 40
15.0
 50
270.0
 51
90.0
  0
ARC
  5
4C4C
  8
0
  6
BYBLOCK
 62
     0
 10
7202.8589989999991
 20
18432.730914
 30
0.0
 40
15.0
 50
90.0
 51
270.0
  0
ARC
  5
4C4D
  8
0
  6
BYBLOCK
 62
     0
 10
7202.8589989999991
 20
15514.730913999991
 30
0.0
 40
15.0
 50
90.0
 51
270.0
  0
ARC
  5
4C4E
  8
0
  6
BYBLOCK
 62
     0
 10
7202.8589989999991
 20
15514.730913999991
 30
0.0
 40
15.0
 50
270.0
 51
90.0
  0
ARC
  5
4C4F
  8
0
  6
BYBLOCK
 62
     0
 10
7202.8589989999991
 20
16973.730914
 30
0.0
 40
15.0
 50
270.0
 51
90.0
  0
ARC
  5
4C50
  8
0
  6
BYBLOCK
 62
     0
 10
7202.8589989999991
 20
16973.730914
 30
0.0
 40
15.0
 50
90.0
 51
270.0
  0
ARC
  5
4C51
  8
0
  6
BYBLOCK
 62
     0
 10
22762.322383499992
 20
20664.232102000031
 30
0.0
 40
15.0
 50
0.0
 51
180.0
  0
ARC
  5
4C52
  8
0
  6
BYBLOCK
 62
     0
 10
22762.322383499992
 20
20664.232102000031
 30
0.0
 40
15.0
 50
180.0
 51
0.0
  0
ARC
  5
4C53
  8
0
  6
BYBLOCK
 62
     0
 10
23520.321393999991
 20
20664.232102000031
 30
0.0
 40
15.0
 50
180.0
 51
0.0
  0
ARC
  5
4C54
  8
0
  6
BYBLOCK
 62
     0
 10
23520.321393999991
 20
20664.232102000031
 30
0.0
 40
15.0
 50
0.0
 51
180.0
  0
ARC
  5
4C55
  8
0
  6
BYBLOCK
 62
     0
 10
19844.321393999991
 20
20664.232102000031
 30
0.0
 40
15.0
 50
0.0
 51
180.0
  0
ARC
  5
4C56
  8
0
  6
BYBLOCK
 62
     0
 10
19844.321393999991
 20
20664.232102000031
 30
0.0
 40
15.0
 50
180.0
 51
0.0
  0
ARC
  5
4C57
  8
0
  6
BYBLOCK
 62
     0
 10
20602.321393999991
 20
20664.232102000031
 30
0.0
 40
15.0
 50
180.0
 51
0.0
  0
ARC
  5
4C58
  8
0
  6
BYBLOCK
 62
     0
 10
20602.321393999991
 20
20664.232102000031
 30
0.0
 40
15.0
 50
0.0
 51
180.0
  0
ARC
  5
4C59
  8
0
  6
BYBLOCK
 62
     0
 10
18914.866816999991
 20
18432.730914
 30
0.0
 40
15.0
 50
90.0
 51
270.0
  0
ARC
  5
4C5A
  8
0
  6
BYBLOCK
 62
     0
 10
18914.866816999991
 20
18432.730914
 30
0.0
 40
15.0
 50
270.0
 51
90.0
  0
ARC
  5
4C5B
  8
0
  6
BYBLOCK
 62
     0
 10
18914.866816999991
 20
19891.730914
 30
0.0
 40
15.0
 50
270.0
 51
90.0
  0
ARC
  5
4C5C
  8
0
  6
BYBLOCK
 62
     0
 10
18914.866816999991
 20
19891.730914
 30
0.0
 40
15.0
 50
90.0
 51
270.0
  0
ARC
  5
4C5D
  8
0
  6
BYBLOCK
 62
     0
 10
18914.866816999991
 20
16973.730914
 30
0.0
 40
15.0
 50
90.0
 51
270.0
  0
ARC
  5
4C5E
  8
0
  6
BYBLOCK
 62
     0
 10
18914.866816999991
 20
16973.730914
 30
0.0
 40
15.0
 50
270.0
 51
90.0
  0
ARC
  5
4C5F
  8
0
  6
BYBLOCK
 62
     0
 10
18914.866816999991
 20
18432.730914
 30
0.0
 40
15.0
 50
270.0
 51
90.0
  0
ARC
  5
4C60
  8
0
  6
BYBLOCK
 62
     0
 10
18914.866816999991
 20
18432.730914
 30
0.0
 40
15.0
 50
90.0
 51
270.0
  0
ARC
  5
4C61
  8
0
  6
BYBLOCK
 62
     0
 10
18914.866816999991
 20
15514.971425500011
 30
0.0
 40
15.0
 50
90.0
 51
270.0
  0
ARC
  5
4C62
  8
0
  6
BYBLOCK
 62
     0
 10
18914.866816999991
 20
15514.971425500011
 30
0.0
 40
15.0
 50
270.0
 51
90.0
  0
ARC
  5
4C63
  8
0
  6
BYBLOCK
 62
     0
 10
18914.866816999991
 20
16973.730914
 30
0.0
 40
15.0
 50
270.0
 51
90.0
  0
ARC
  5
4C64
  8
0
  6
BYBLOCK
 62
     0
 10
18914.866816999991
 20
16973.730914
 30
0.0
 40
15.0
 50
90.0
 51
270.0
  0
ARC
  5
4C65
  8
0
  6
BYBLOCK
 62
     0
 10
18914.866816999991
 20
13705.230913999991
 30
0.0
 40
15.0
 50
90.0
 51
270.0
  0
ARC
  5
4C66
  8
0
  6
BYBLOCK
 62
     0
 10
18914.866816999991
 20
13705.230913999991
 30
0.0
 40
15.0
 50
270.0
 51
90.0
  0
ARC
  5
4C67
  8
0
  6
BYBLOCK
 62
     0
 10
18914.866816999991
 20
15514.971425500011
 30
0.0
 40
15.0
 50
270.0
 51
90.0
  0
ARC
  5
4C68
  8
0
  6
BYBLOCK
 62
     0
 10
18914.866816999991
 20
15514.971425500011
 30
0.0
 40
15.0
 50
90.0
 51
270.0
  0
ARC
  5
4C69
  8
0
  6
BYBLOCK
 62
     0
 10
19844.321393999991
 20
12733.782829999989
 30
0.0
 40
15.0
 50
0.0
 51
180.0
  0
ARC
  5
4C6A
  8
0
  6
BYBLOCK
 62
     0
 10
19844.321393999991
 20
12733.782829999989
 30
0.0
 40
15.0
 50
180.0
 51
0.0
  0
ARC
  5
4C6B
  8
0
  6
BYBLOCK
 62
     0
 10
19801.819151
 20
12733.782829999989
 30
0.0
 40
15.0
 50
180.0
 51
0.0
  0
ARC
  5
4C6C
  8
0
  6
BYBLOCK
 62
     0
 10
19801.819151
 20
12733.782829999989
 30
0.0
 40
15.0
 50
0.0
 51
180.0
  0
ARC
  5
4C6D
  8
0
  6
BYBLOCK
 62
     0
 10
25680.321393999991
 20
12733.782829999989
 30
0.0
 40
15.0
 50
180.0
 51
0.0
  0
ARC
  5
4C6E
  8
0
  6
BYBLOCK
 62
     0
 10
25680.321393999991
 20
12733.782829999989
 30
0.0
 40
15.0
 50
0.0
 51
180.0
  0
ARC
  5
4C6F
  8
0
  6
BYBLOCK
 62
     0
 10
25722.823636999979
 20
12733.782829999989
 30
0.0
 40
15.0
 50
0.0
 51
180.0
  0
ARC
  5
4C70
  8
0
  6
BYBLOCK
 62
     0
 10
25722.823636999979
 20
12733.782829999989
 30
0.0
 40
15.0
 50
180.0
 51
0.0
  0
ARC
  5
4C71
  8
0
  6
BYBLOCK
 62
     0
 10
25680.321393999991
 20
12733.782829999989
 30
0.0
 40
15.0
 50
0.0
 51
180.0
  0
ARC
  5
4C72
  8
0
  6
BYBLOCK
 62
     0
 10
25680.321393999991
 20
12733.782829999989
 30
0.0
 40
15.0
 50
180.0
 51
0.0
  0
ARC
  5
4C73
  8
0
  6
BYBLOCK
 62
     0
 10
25637.819150999982
 20
12733.782829999989
 30
0.0
 40
15.0
 50
180.0
 51
0.0
  0
ARC
  5
4C74
  8
0
  6
BYBLOCK
 62
     0
 10
25637.819150999982
 20
12733.782829999989
 30
0.0
 40
15.0
 50
0.0
 51
180.0
  0
ARC
  5
4C75
  8
0
  6
BYBLOCK
 62
     0
 10
19844.321393999991
 20
12733.782829999989
 30
0.0
 40
15.0
 50
180.0
 51
0.0
  0
ARC
  5
4C76
  8
0
  6
BYBLOCK
 62
     0
 10
19844.321393999991
 20
12733.782829999989
 30
0.0
 40
15.0
 50
0.0
 51
180.0
  0
ARC
  5
4C77
  8
0
  6
BYBLOCK
 62
     0
 10
19886.82363699999
 20
12733.782829999989
 30
0.0
 40
15.0
 50
0.0
 51
180.0
  0
ARC
  5
4C78
  8
0
  6
BYBLOCK
 62
     0
 10
19886.82363699999
 20
12733.782829999989
 30
0.0
 40
15.0
 50
180.0
 51
0.0
  0
ARC
  5
4C79
  8
0
  6
BYBLOCK
 62
     0
 10
19801.819151
 20
12333.782829999989
 30
0.0
 40
15.0
 50
0.0
 51
180.0
  0
ARC
  5
4C7A
  8
0
  6
BYBLOCK
 62
     0
 10
19801.819151
 20
12333.782829999989
 30
0.0
 40
15.0
 50
180.0
 51
0.0
  0
ARC
  5
4C7B
  8
0
  6
BYBLOCK
 62
     0
 10
25722.823636999979
 20
12333.782829999989
 30
0.0
 40
15.0
 50
180.0
 51
0.0
  0
ARC
  5
4C7C
  8
0
  6
BYBLOCK
 62
     0
 10
25722.823636999979
 20
12333.782829999989
 30
0.0
 40
15.0
 50
0.0
 51
180.0
  0
ARC
  5
4C7D
  8
0
  6
BYBLOCK
 62
     0
 10
26772.820997999988
 20
14112.730913999991
 30
0.0
 40
15.0
 50
270.0
 51
90.0
  0
ARC
  5
4C7E
  8
0
  6
BYBLOCK
 62
     0
 10
26772.820997999988
 20
14112.730913999991
 30
0.0
 40
15.0
 50
90.0
 51
270.0
  0
ARC
  5
4C7F
  8
0
  6
BYBLOCK
 62
     0
 10
26772.820997999988
 20
13705.230913999991
 30
0.0
 40
15.0
 50
90.0
 51
270.0
  0
ARC
  5
4C80
  8
0
  6
BYBLOCK
 62
     0
 10
26772.820997999988
 20
13705.230913999991
 30
0.0
 40
15.0
 50
270.0
 51
90.0
  0
ARC
  5
4C81
  8
0
  6
BYBLOCK
 62
     0
 10
26772.820997999988
 20
14813.730913999991
 30
0.0
 40
15.0
 50
270.0
 51
90.0
  0
ARC
  5
4C82
  8
0
  6
BYBLOCK
 62
     0
 10
26772.820997999988
 20
14813.730913999991
 30
0.0
 40
15.0
 50
90.0
 51
270.0
  0
ARC
  5
4C83
  8
0
  6
BYBLOCK
 62
     0
 10
26772.820997999988
 20
14112.730913999991
 30
0.0
 40
15.0
 50
90.0
 51
270.0
  0
ARC
  5
4C84
  8
0
  6
BYBLOCK
 62
     0
 10
26772.820997999988
 20
14112.730913999991
 30
0.0
 40
15.0
 50
270.0
 51
90.0
  0
ARC
  5
4C85
  8
0
  6
BYBLOCK
 62
     0
 10
26772.820997999988
 20
15514.971425500011
 30
0.0
 40
15.0
 50
270.0
 51
90.0
  0
ARC
  5
4C86
  8
0
  6
BYBLOCK
 62
     0
 10
26772.820997999988
 20
15514.971425500011
 30
0.0
 40
15.0
 50
90.0
 51
270.0
  0
ARC
  5
4C87
  8
0
  6
BYBLOCK
 62
     0
 10
26772.820997999988
 20
14813.730913999991
 30
0.0
 40
15.0
 50
90.0
 51
270.0
  0
ARC
  5
4C88
  8
0
  6
BYBLOCK
 62
     0
 10
26772.820997999988
 20
14813.730913999991
 30
0.0
 40
15.0
 50
270.0
 51
90.0
  0
ARC
  5
4C89
  8
0
  6
BYBLOCK
 62
     0
 10
26772.820997999988
 20
16215.730913999991
 30
0.0
 40
15.0
 50
270.0
 51
90.0
  0
ARC
  5
4C8A
  8
0
  6
BYBLOCK
 62
     0
 10
26772.820997999988
 20
16215.730913999991
 30
0.0
 40
15.0
 50
90.0
 51
270.0
  0
ARC
  5
4C8B
  8
0
  6
BYBLOCK
 62
     0
 10
26772.820997999988
 20
15514.971425500011
 30
0.0
 40
15.0
 50
90.0
 51
270.0
  0
ARC
  5
4C8C
  8
0
  6
BYBLOCK
 62
     0
 10
26772.820997999988
 20
15514.971425500011
 30
0.0
 40
15.0
 50
270.0
 51
90.0
  0
ARC
  5
4C8D
  8
0
  6
BYBLOCK
 62
     0
 10
26772.820997999988
 20
16973.730914
 30
0.0
 40
15.0
 50
270.0
 51
90.0
  0
ARC
  5
4C8E
  8
0
  6
BYBLOCK
 62
     0
 10
26772.820997999988
 20
16973.730914
 30
0.0
 40
15.0
 50
90.0
 51
270.0
  0
ARC
  5
4C8F
  8
0
  6
BYBLOCK
 62
     0
 10
26772.820997999988
 20
16215.730913999991
 30
0.0
 40
15.0
 50
90.0
 51
270.0
  0
ARC
  5
4C90
  8
0
  6
BYBLOCK
 62
     0
 10
26772.820997999988
 20
16215.730913999991
 30
0.0
 40
15.0
 50
270.0
 51
90.0
  0
ARC
  5
4C91
  8
0
  6
BYBLOCK
 62
     0
 10
26772.820997999988
 20
17731.730914
 30
0.0
 40
15.0
 50
270.0
 51
90.0
  0
ARC
  5
4C92
  8
0
  6
BYBLOCK
 62
     0
 10
26772.820997999988
 20
17731.730914
 30
0.0
 40
15.0
 50
90.0
 51
270.0
  0
ARC
  5
4C93
  8
0
  6
BYBLOCK
 62
     0
 10
26772.820997999988
 20
16973.730914
 30
0.0
 40
15.0
 50
90.0
 51
270.0
  0
ARC
  5
4C94
  8
0
  6
BYBLOCK
 62
     0
 10
26772.820997999988
 20
16973.730914
 30
0.0
 40
15.0
 50
270.0
 51
90.0
  0
ARC
  5
4C95
  8
0
  6
BYBLOCK
 62
     0
 10
26772.820997999988
 20
18432.730914
 30
0.0
 40
15.0
 50
270.0
 51
90.0
  0
ARC
  5
4C96
  8
0
  6
BYBLOCK
 62
     0
 10
26772.820997999988
 20
18432.730914
 30
0.0
 40
15.0
 50
90.0
 51
270.0
  0
ARC
  5
4C97
  8
0
  6
BYBLOCK
 62
     0
 10
26772.820997999988
 20
17731.730914
 30
0.0
 40
15.0
 50
90.0
 51
270.0
  0
ARC
  5
4C98
  8
0
  6
BYBLOCK
 62
     0
 10
26772.820997999988
 20
17731.730914
 30
0.0
 40
15.0
 50
270.0
 51
90.0
  0
ARC
  5
4C99
  8
0
  6
BYBLOCK
 62
     0
 10
26772.820997999988
 20
19133.730914
 30
0.0
 40
15.0
 50
270.0
 51
90.0
  0
ARC
  5
4C9A
  8
0
  6
BYBLOCK
 62
     0
 10
26772.820997999988
 20
19133.730914
 30
0.0
 40
15.0
 50
90.0
 51
270.0
  0
ARC
  5
4C9B
  8
0
  6
BYBLOCK
 62
     0
 10
26772.820997999988
 20
18432.730914
 30
0.0
 40
15.0
 50
90.0
 51
270.0
  0
ARC
  5
4C9C
  8
0
  6
BYBLOCK
 62
     0
 10
26772.820997999988
 20
18432.730914
 30
0.0
 40
15.0
 50
270.0
 51
90.0
  0
ARC
  5
4C9D
  8
0
  6
BYBLOCK
 62
     0
 10
26772.820997999988
 20
19891.730914
 30
0.0
 40
15.0
 50
270.0
 51
90.0
  0
ARC
  5
4C9E
  8
0
  6
BYBLOCK
 62
     0
 10
26772.820997999988
 20
19891.730914
 30
0.0
 40
15.0
 50
90.0
 51
270.0
  0
ARC
  5
4C9F
  8
0
  6
BYBLOCK
 62
     0
 10
26772.820997999988
 20
19133.730914
 30
0.0
 40
15.0
 50
90.0
 51
270.0
  0
ARC
  5
4CA0
  8
0
  6
BYBLOCK
 62
     0
 10
26772.820997999988
 20
19133.730914
 30
0.0
 40
15.0
 50
270.0
 51
90.0
  0
ARC
  5
4CA1
  8
0
  6
BYBLOCK
 62
     0
 10
27172.820997999988
 20
16973.730914
 30
0.0
 40
15.0
 50
90.0
 51
270.0
  0
ARC
  5
4CA2
  8
0
  6
BYBLOCK
 62
     0
 10
27172.820997999988
 20
16973.730914
 30
0.0
 40
15.0
 50
270.0
 51
90.0
  0
ARC
  5
4CA3
  8
0
  6
BYBLOCK
 62
     0
 10
27172.820997999988
 20
19891.730914
 30
0.0
 40
15.0
 50
270.0
 51
90.0
  0
ARC
  5
4CA4
  8
0
  6
BYBLOCK
 62
     0
 10
27172.820997999988
 20
19891.730914
 30
0.0
 40
15.0
 50
90.0
 51
270.0
  0
ARC
  5
4CA5
  8
0
  6
BYBLOCK
 62
     0
 10
27172.820997999988
 20
13705.230913999991
 30
0.0
 40
15.0
 50
90.0
 51
270.0
  0
ARC
  5
4CA6
  8
0
  6
BYBLOCK
 62
     0
 10
27172.820997999988
 20
13705.230913999991
 30
0.0
 40
15.0
 50
270.0
 51
90.0
  0
ARC
  5
4CA7
  8
0
  6
BYBLOCK
 62
     0
 10
27172.820997999988
 20
16973.730914
 30
0.0
 40
15.0
 50
270.0
 51
90.0
  0
ARC
  5
4CA8
  8
0
  6
BYBLOCK
 62
     0
 10
27172.820997999988
 20
16973.730914
 30
0.0
 40
15.0
 50
90.0
 51
270.0
  0
ARC
  5
4CA9
  8
0
  6
BYBLOCK
 62
     0
 10
27572.820997999988
 20
19934.228209000001
 30
0.0
 40
15.0
 50
270.0
 51
90.0
  0
ARC
  5
4CAA
  8
0
  6
BYBLOCK
 62
     0
 10
27572.820997999988
 20
19934.228209000001
 30
0.0
 40
15.0
 50
90.0
 51
270.0
  0
ARC
  5
4CAB
  8
0
  6
BYBLOCK
 62
     0
 10
27572.820997999988
 20
13662.733619000001
 30
0.0
 40
15.0
 50
90.0
 51
270.0
  0
ARC
  5
4CAC
  8
0
  6
BYBLOCK
 62
     0
 10
27572.820997999988
 20
13662.733619000001
 30
0.0
 40
15.0
 50
270.0
 51
90.0
  0
ARC
  5
4CAD
  8
0
  6
BYBLOCK
 62
     0
 10
27172.820997999988
 20
19891.730914
 30
0.0
 40
15.0
 50
270.0
 51
90.0
  0
ARC
  5
4CAE
  8
0
  6
BYBLOCK
 62
     0
 10
27172.820997999988
 20
19891.730914
 30
0.0
 40
15.0
 50
90.0
 51
270.0
  0
ARC
  5
4CAF
  8
0
  6
BYBLOCK
 62
     0
 10
27172.820997999988
 20
19934.228209000001
 30
0.0
 40
15.0
 50
90.0
 51
270.0
  0
ARC
  5
4CB0
  8
0
  6
BYBLOCK
 62
     0
 10
27172.820997999988
 20
19934.228209000001
 30
0.0
 40
15.0
 50
270.0
 51
90.0
  0
ARC
  5
4CB1
  8
0
  6
BYBLOCK
 62
     0
 10
27172.820997999988
 20
13705.230913999991
 30
0.0
 40
15.0
 50
90.0
 51
270.0
  0
ARC
  5
4CB2
  8
0
  6
BYBLOCK
 62
     0
 10
27172.820997999988
 20
13705.230913999991
 30
0.0
 40
15.0
 50
270.0
 51
90.0
  0
ARC
  5
4CB3
  8
0
  6
BYBLOCK
 62
     0
 10
27172.820997999988
 20
13662.733619000001
 30
0.0
 40
15.0
 50
270.0
 51
90.0
  0
ARC
  5
4CB4
  8
0
  6
BYBLOCK
 62
     0
 10
27172.820997999988
 20
13662.733619000001
 30
0.0
 40
15.0
 50
90.0
 51
270.0
  0
ARC
  5
4CB5
  8
0
  6
BYBLOCK
 62
     0
 10
24922.321393999991
 20
20664.232102000031
 30
0.0
 40
15.0
 50
0.0
 51
180.0
  0
ARC
  5
4CB6
  8
0
  6
BYBLOCK
 62
     0
 10
24922.321393999991
 20
20664.232102000031
 30
0.0
 40
15.0
 50
180.0
 51
0.0
  0
ARC
  5
4CB7
  8
0
  6
BYBLOCK
 62
     0
 10
25680.322383499992
 20
20664.232102000031
 30
0.0
 40
15.0
 50
180.0
 51
0.0
  0
ARC
  5
4CB8
  8
0
  6
BYBLOCK
 62
     0
 10
25680.322383499992
 20
20664.232102000031
 30
0.0
 40
15.0
 50
0.0
 51
180.0
  0
ARC
  5
4CB9
  8
0
  6
BYBLOCK
 62
     0
 10
24221.321393999991
 20
20664.232102000031
 30
0.0
 40
15.0
 50
0.0
 51
180.0
  0
ARC
  5
4CBA
  8
0
  6
BYBLOCK
 62
     0
 10
24221.321393999991
 20
20664.232102000031
 30
0.0
 40
15.0
 50
180.0
 51
0.0
  0
ARC
  5
4CBB
  8
0
  6
BYBLOCK
 62
     0
 10
24922.321393999991
 20
20664.232102000031
 30
0.0
 40
15.0
 50
180.0
 51
0.0
  0
ARC
  5
4CBC
  8
0
  6
BYBLOCK
 62
     0
 10
24922.321393999991
 20
20664.232102000031
 30
0.0
 40
15.0
 50
0.0
 51
180.0
  0
ARC
  5
4CBD
  8
0
  6
BYBLOCK
 62
     0
 10
23520.321393999991
 20
20664.232102000031
 30
0.0
 40
15.0
 50
0.0
 51
180.0
  0
ARC
  5
4CBE
  8
0
  6
BYBLOCK
 62
     0
 10
23520.321393999991
 20
20664.232102000031
 30
0.0
 40
15.0
 50
180.0
 51
0.0
  0
ARC
  5
4CBF
  8
0
  6
BYBLOCK
 62
     0
 10
24221.321393999991
 20
20664.232102000031
 30
0.0
 40
15.0
 50
180.0
 51
0.0
  0
ARC
  5
4CC0
  8
0
  6
BYBLOCK
 62
     0
 10
24221.321393999991
 20
20664.232102000031
 30
0.0
 40
15.0
 50
0.0
 51
180.0
  0
ARC
  5
4CC1
  8
0
  6
BYBLOCK
 62
     0
 10
25680.321393999991
 20
20664.232102000031
 30
0.0
 40
15.0
 50
180.0
 51
0.0
  0
ARC
  5
4CC2
  8
0
  6
BYBLOCK
 62
     0
 10
25680.321393999991
 20
20664.232102000031
 30
0.0
 40
15.0
 50
0.0
 51
180.0
  0
ARC
  5
4CC3
  8
0
  6
BYBLOCK
 62
     0
 10
25722.817698999988
 20
20664.232102000031
 30
0.0
 40
15.0
 50
0.0
 51
180.0
  0
ARC
  5
4CC4
  8
0
  6
BYBLOCK
 62
     0
 10
25722.817698999988
 20
20664.232102000031
 30
0.0
 40
15.0
 50
180.0
 51
0.0
  0
ARC
  5
4CC5
  8
0
  6
BYBLOCK
 62
     0
 10
19844.321393999991
 20
20664.232102000031
 30
0.0
 40
15.0
 50
0.0
 51
180.0
  0
ARC
  5
4CC6
  8
0
  6
BYBLOCK
 62
     0
 10
19844.321393999991
 20
20664.232102000031
 30
0.0
 40
15.0
 50
180.0
 51
0.0
  0
ARC
  5
4CC7
  8
0
  6
BYBLOCK
 62
     0
 10
19801.825088999991
 20
20664.232102000031
 30
0.0
 40
15.0
 50
180.0
 51
0.0
  0
ARC
  5
4CC8
  8
0
  6
BYBLOCK
 62
     0
 10
19801.825088999991
 20
20664.232102000031
 30
0.0
 40
15.0
 50
0.0
 51
180.0
  0
ARC
  5
4CC9
  8
0
  6
BYBLOCK
 62
     0
 10
22004.321393999991
 20
20664.232102000031
 30
0.0
 40
15.0
 50
0.0
 51
180.0
  0
ARC
  5
4CCA
  8
0
  6
BYBLOCK
 62
     0
 10
22004.321393999991
 20
20664.232102000031
 30
0.0
 40
15.0
 50
180.0
 51
0.0
  0
ARC
  5
4CCB
  8
0
  6
BYBLOCK
 62
     0
 10
22762.322383499992
 20
20664.232102000031
 30
0.0
 40
15.0
 50
180.0
 51
0.0
  0
ARC
  5
4CCC
  8
0
  6
BYBLOCK
 62
     0
 10
22762.322383499992
 20
20664.232102000031
 30
0.0
 40
15.0
 50
0.0
 51
180.0
  0
ARC
  5
4CCD
  8
0
  6
BYBLOCK
 62
     0
 10
21303.321393999991
 20
20664.232102000031
 30
0.0
 40
15.0
 50
0.0
 51
180.0
  0
ARC
  5
4CCE
  8
0
  6
BYBLOCK
 62
     0
 10
21303.321393999991
 20
20664.232102000031
 30
0.0
 40
15.0
 50
180.0
 51
0.0
  0
ARC
  5
4CCF
  8
0
  6
BYBLOCK
 62
     0
 10
22004.321393999991
 20
20664.232102000031
 30
0.0
 40
15.0
 50
180.0
 51
0.0
  0
ARC
  5
4CD0
  8
0
  6
BYBLOCK
 62
     0
 10
22004.321393999991
 20
20664.232102000031
 30
0.0
 40
15.0
 50
0.0
 51
180.0
  0
ARC
  5
4CD1
  8
0
  6
BYBLOCK
 62
     0
 10
20602.321393999991
 20
20664.232102000031
 30
0.0
 40
15.0
 50
0.0
 51
180.0
  0
ARC
  5
4CD2
  8
0
  6
BYBLOCK
 62
     0
 10
20602.321393999991
 20
20664.232102000031
 30
0.0
 40
15.0
 50
180.0
 51
0.0
  0
ARC
  5
4CD3
  8
0
  6
BYBLOCK
 62
     0
 10
21303.321393999991
 20
20664.232102000031
 30
0.0
 40
15.0
 50
180.0
 51
0.0
  0
ARC
  5
4CD4
  8
0
  6
BYBLOCK
 62
     0
 10
21303.321393999991
 20
20664.232102000031
 30
0.0
 40
15.0
 50
0.0
 51
180.0
  0
ARC
  5
4CD5
  8
0
  6
BYBLOCK
 62
     0
 10
18994.322053999989
 20
6276.5900849999962
 30
0.0
 40
15.0
 50
90.0
 51
270.0
  0
ARC
  5
4CD6
  8
0
  6
BYBLOCK
 62
     0
 10
18994.322053999989
 20
6276.5900849999962
 30
0.0
 40
15.0
 50
270.0
 51
90.0
  0
ARC
  5
4CD7
  8
0
  6
BYBLOCK
 62
     0
 10
18994.322053999989
 20
8168.0900849999953
 30
0.0
 40
15.0
 50
270.0
 51
90.0
  0
ARC
  5
4CD8
  8
0
  6
BYBLOCK
 62
     0
 10
18994.322053999989
 20
8168.0900849999953
 30
0.0
 40
15.0
 50
90.0
 51
270.0
  0
ARC
  5
4CD9
  8
0
  6
BYBLOCK
 62
     0
 10
18594.319744999979
 20
6276.5900849999962
 30
0.0
 40
15.0
 50
90.0
 51
270.0
  0
ARC
  5
4CDA
  8
0
  6
BYBLOCK
 62
     0
 10
18594.319744999979
 20
6276.5900849999962
 30
0.0
 40
15.0
 50
270.0
 51
90.0
  0
ARC
  5
4CDB
  8
0
  6
BYBLOCK
 62
     0
 10
18594.319744999979
 20
8624.5900850000016
 30
0.0
 40
15.0
 50
270.0
 51
90.0
  0
ARC
  5
4CDC
  8
0
  6
BYBLOCK
 62
     0
 10
18594.319744999979
 20
8624.5900850000016
 30
0.0
 40
15.0
 50
90.0
 51
270.0
  0
ARC
  5
4CED
  8
0
  6
BYBLOCK
 62
     0
 10
19938.321393999991
 20
5376.5902499999984
 30
0.0
 40
15.0
 50
0.0
 51
180.0
  0
ARC
  5
4CEE
  8
0
  6
BYBLOCK
 62
     0
 10
19938.321393999991
 20
5376.5902499999984
 30
0.0
 40
15.0
 50
180.0
 51
0.0
  0
ARC
  5
4CEF
  8
0
  6
BYBLOCK
 62
     0
 10
22668.321393999991
 20
5376.5902499999984
 30
0.0
 40
15.0
 50
180.0
 51
0.0
  0
ARC
  5
4CF0
  8
0
  6
BYBLOCK
 62
     0
 10
22668.321393999991
 20
5376.5902499999984
 30
0.0
 40
15.0
 50
0.0
 51
180.0
  0
ARC
  5
4CF1
  8
0
  6
BYBLOCK
 62
     0
 10
22856.321393999991
 20
5376.5902499999984
 30
0.0
 40
15.0
 50
0.0
 51
180.0
  0
ARC
  5
4CF2
  8
0
  6
BYBLOCK
 62
     0
 10
22856.321393999991
 20
5376.5902499999984
 30
0.0
 40
15.0
 50
180.0
 51
0.0
  0
ARC
  5
4CF3
  8
0
  6
BYBLOCK
 62
     0
 10
25586.321393999991
 20
5376.5902499999984
 30
0.0
 40
15.0
 50
180.0
 51
0.0
  0
ARC
  5
4CF4
  8
0
  6
BYBLOCK
 62
     0
 10
25586.321393999991
 20
5376.5902499999984
 30
0.0
 40
15.0
 50
0.0
 51
180.0
  0
ARC
  5
4CF5
  8
0
  6
BYBLOCK
 62
     0
 10
22762.321393999991
 20
4976.5902500000002
 30
0.0
 40
15.0
 50
0.0
 51
180.0
  0
ARC
  5
4CF6
  8
0
  6
BYBLOCK
 62
     0
 10
22762.321393999991
 20
4976.5902500000002
 30
0.0
 40
15.0
 50
180.0
 51
0.0
  0
ARC
  5
4CF7
  8
0
  6
BYBLOCK
 62
     0
 10
25680.321393999991
 20
4976.5902500000002
 30
0.0
 40
15.0
 50
180.0
 51
0.0
  0
ARC
  5
4CF8
  8
0
  6
BYBLOCK
 62
     0
 10
25680.321393999991
 20
4976.5902500000002
 30
0.0
 40
15.0
 50
0.0
 51
180.0
  0
ARC
  5
4CF9
  8
0
  6
BYBLOCK
 62
     0
 10
19844.321393999991
 20
4976.5902500000002
 30
0.0
 40
15.0
 50
0.0
 51
180.0
  0
ARC
  5
4CFA
  8
0
  6
BYBLOCK
 62
     0
 10
19844.321393999991
 20
4976.5902500000002
 30
0.0
 40
15.0
 50
180.0
 51
0.0
  0
ARC
  5
4CFB
  8
0
  6
BYBLOCK
 62
     0
 10
22762.321393999991
 20
4976.5902500000002
 30
0.0
 40
15.0
 50
180.0
 51
0.0
  0
ARC
  5
4CFC
  8
0
  6
BYBLOCK
 62
     0
 10
22762.321393999991
 20
4976.5902500000002
 30
0.0
 40
15.0
 50
0.0
 51
180.0
  0
ARC
  5
4CFD
  8
0
  6
BYBLOCK
 62
     0
 10
25680.325352999989
 20
4976.5902500000002
 30
0.0
 40
15.0
 50
180.0
 51
0.0
  0
ARC
  5
4CFE
  8
0
  6
BYBLOCK
 62
     0
 10
25680.325352999989
 20
4976.5902500000002
 30
0.0
 40
15.0
 50
0.0
 51
180.0
  0
ARC
  5
4CFF
  8
0
  6
BYBLOCK
 62
     0
 10
25722.825353
 20
4976.5902500000002
 30
0.0
 40
15.0
 50
0.0
 51
180.0
  0
ARC
  5
4D00
  8
0
  6
BYBLOCK
 62
     0
 10
25722.825353
 20
4976.5902500000002
 30
0.0
 40
15.0
 50
180.0
 51
0.0
  0
ARC
  5
4D01
  8
0
  6
BYBLOCK
 62
     0
 10
19844.321393999991
 20
4976.5902500000002
 30
0.0
 40
15.0
 50
0.0
 51
180.0
  0
ARC
  5
4D02
  8
0
  6
BYBLOCK
 62
     0
 10
19844.321393999991
 20
4976.5902500000002
 30
0.0
 40
15.0
 50
180.0
 51
0.0
  0
ARC
  5
4D03
  8
0
  6
BYBLOCK
 62
     0
 10
19801.821393999991
 20
4976.5902500000002
 30
0.0
 40
15.0
 50
180.0
 51
0.0
  0
ARC
  5
4D04
  8
0
  6
BYBLOCK
 62
     0
 10
19801.821393999991
 20
4976.5902500000002
 30
0.0
 40
15.0
 50
0.0
 51
180.0
  0
ARC
  5
4D05
  8
0
  6
BYBLOCK
 62
     0
 10
19801.821393999991
 20
4576.5904149999969
 30
0.0
 40
15.0
 50
0.0
 51
180.0
  0
ARC
  5
4D06
  8
0
  6
BYBLOCK
 62
     0
 10
19801.821393999991
 20
4576.5904149999969
 30
0.0
 40
15.0
 50
180.0
 51
0.0
  0
ARC
  5
4D07
  8
0
  6
BYBLOCK
 62
     0
 10
25722.821393999991
 20
4576.5904149999969
 30
0.0
 40
15.0
 50
180.0
 51
0.0
  0
ARC
  5
4D08
  8
0
  6
BYBLOCK
 62
     0
 10
25722.821393999991
 20
4576.5904149999969
 30
0.0
 40
15.0
 50
0.0
 51
180.0
  0
ARC
  5
4D09
  8
0
  6
BYBLOCK
 62
     0
 10
8882.5340609999967
 20
9824.5901109999995
 30
0.0
 40
15.0
 50
0.0
 51
180.0
  0
ARC
  5
4D0A
  8
0
  6
BYBLOCK
 62
     0
 10
8882.5340609999967
 20
9824.5901109999995
 30
0.0
 40
15.0
 50
180.0
 51
0.0
  0
ARC
  5
4D0B
  8
0
  6
BYBLOCK
 62
     0
 10
15484.034061
 20
9824.5901109999995
 30
0.0
 40
15.0
 50
180.0
 51
0.0
  0
ARC
  5
4D0C
  8
0
  6
BYBLOCK
 62
     0
 10
15484.034061
 20
9824.5901109999995
 30
0.0
 40
15.0
 50
0.0
 51
180.0
  0
ARC
  5
4D0D
  8
0
  6
BYBLOCK
 62
     0
 10
15334.034061
 20
9424.5917609999997
 30
0.0
 40
15.0
 50
180.0
 51
0.0
  0
ARC
  5
4D0E
  8
0
  6
BYBLOCK
 62
     0
 10
15334.034061
 20
9424.5917609999997
 30
0.0
 40
15.0
 50
0.0
 51
180.0
  0
ARC
  5
4D0F
  8
0
  6
BYBLOCK
 62
     0
 10
15484.034061
 20
9424.5917609999997
 30
0.0
 40
15.0
 50
0.0
 51
180.0
  0
ARC
  5
4D10
  8
0
  6
BYBLOCK
 62
     0
 10
15484.034061
 20
9424.5917609999997
 30
0.0
 40
15.0
 50
180.0
 51
0.0
  0
ARC
  5
4D11
  8
0
  6
BYBLOCK
 62
     0
 10
9062.5340609999967
 20
9424.5917609999997
 30
0.0
 40
15.0
 50
0.0
 51
180.0
  0
ARC
  5
4D12
  8
0
  6
BYBLOCK
 62
     0
 10
9062.5340609999967
 20
9424.5917609999997
 30
0.0
 40
15.0
 50
180.0
 51
0.0
  0
ARC
  5
4D13
  8
0
  6
BYBLOCK
 62
     0
 10
15334.034061
 20
9424.5917609999997
 30
0.0
 40
15.0
 50
180.0
 51
0.0
  0
ARC
  5
4D14
  8
0
  6
BYBLOCK
 62
     0
 10
15334.034061
 20
9424.5917609999997
 30
0.0
 40
15.0
 50
0.0
 51
180.0
  0
ARC
  5
4D15
  8
0
  6
BYBLOCK
 62
     0
 10
8882.5340609999967
 20
9424.5917609999997
 30
0.0
 40
15.0
 50
0.0
 51
180.0
  0
ARC
  5
4D16
  8
0
  6
BYBLOCK
 62
     0
 10
8882.5340609999967
 20
9424.5917609999997
 30
0.0
 40
15.0
 50
180.0
 51
0.0
  0
ARC
  5
4D17
  8
0
  6
BYBLOCK
 62
     0
 10
9062.5340609999967
 20
9424.5917609999997
 30
0.0
 40
15.0
 50
180.0
 51
0.0
  0
ARC
  5
4D18
  8
0
  6
BYBLOCK
 62
     0
 10
9062.5340609999967
 20
9424.5917609999997
 30
0.0
 40
15.0
 50
0.0
 51
180.0
  0
ARC
  5
4D19
  8
0
  6
BYBLOCK
 62
     0
 10
16424.034456999991
 20
6276.5900850000025
 30
0.0
 40
15.0
 50
90.0
 51
270.0
  0
ARC
  5
4D1A
  8
0
  6
BYBLOCK
 62
     0
 10
16424.034456999991
 20
6276.5900850000025
 30
0.0
 40
15.0
 50
270.0
 51
90.0
  0
ARC
  5
4D1B
  8
0
  6
BYBLOCK
 62
     0
 10
16424.034457000002
 20
8624.5900850000016
 30
0.0
 40
15.0
 50
270.0
 51
90.0
  0
ARC
  5
4D1C
  8
0
  6
BYBLOCK
 62
     0
 10
16424.034457000002
 20
8624.5900850000016
 30
0.0
 40
15.0
 50
90.0
 51
270.0
  0
ARC
  5
4D1D
  8
0
  6
BYBLOCK
 62
     0
 10
7972.5336650000027
 20
6276.5900850000025
 30
0.0
 40
15.0
 50
90.0
 51
270.0
  0
ARC
  5
4D1E
  8
0
  6
BYBLOCK
 62
     0
 10
7972.5336650000027
 20
6276.5900850000025
 30
0.0
 40
15.0
 50
270.0
 51
90.0
  0
ARC
  5
4D1F
  8
0
  6
BYBLOCK
 62
     0
 10
7972.5336650000027
 20
8433.5900850000016
 30
0.0
 40
15.0
 50
270.0
 51
90.0
  0
ARC
  5
4D20
  8
0
  6
BYBLOCK
 62
     0
 10
7972.5336650000027
 20
8433.5900850000016
 30
0.0
 40
15.0
 50
90.0
 51
270.0
  0
ARC
  5
4D21
  8
0
  6
BYBLOCK
 62
     0
 10
9062.5340609999967
 20
4576.5904150000006
 30
0.0
 40
15.0
 50
0.0
 51
180.0
  0
ARC
  5
4D22
  8
0
  6
BYBLOCK
 62
     0
 10
9062.5340609999967
 20
4576.5904150000006
 30
0.0
 40
15.0
 50
180.0
 51
0.0
  0
ARC
  5
4D23
  8
0
  6
BYBLOCK
 62
     0
 10
15334.034061
 20
4576.5904150000006
 30
0.0
 40
15.0
 50
180.0
 51
0.0
  0
ARC
  5
4D24
  8
0
  6
BYBLOCK
 62
     0
 10
15334.034061
 20
4576.5904150000006
 30
0.0
 40
15.0
 50
0.0
 51
180.0
  0
ARC
  5
4D25
  8
0
  6
BYBLOCK
 62
     0
 10
15291.534061
 20
4976.5902500000002
 30
0.0
 40
15.0
 50
180.0
 51
0.0
  0
ARC
  5
4D26
  8
0
  6
BYBLOCK
 62
     0
 10
15291.534061
 20
4976.5902500000002
 30
0.0
 40
15.0
 50
0.0
 51
180.0
  0
ARC
  5
4D27
  8
0
  6
BYBLOCK
 62
     0
 10
15334.034061
 20
4976.5902500000002
 30
0.0
 40
15.0
 50
0.0
 51
180.0
  0
ARC
  5
4D28
  8
0
  6
BYBLOCK
 62
     0
 10
15334.034061
 20
4976.5902500000002
 30
0.0
 40
15.0
 50
180.0
 51
0.0
  0
ARC
  5
4D29
  8
0
  6
BYBLOCK
 62
     0
 10
9105.0340609999967
 20
4976.5902500000002
 30
0.0
 40
15.0
 50
0.0
 51
180.0
  0
ARC
  5
4D2A
  8
0
  6
BYBLOCK
 62
     0
 10
9105.0340609999967
 20
4976.5902500000002
 30
0.0
 40
15.0
 50
180.0
 51
0.0
  0
ARC
  5
4D2B
  8
0
  6
BYBLOCK
 62
     0
 10
9062.5340609999967
 20
4976.5902500000002
 30
0.0
 40
15.0
 50
180.0
 51
0.0
  0
ARC
  5
4D2C
  8
0
  6
BYBLOCK
 62
     0
 10
9062.5340609999967
 20
4976.5902500000002
 30
0.0
 40
15.0
 50
0.0
 51
180.0
  0
ARC
  5
4D2D
  8
0
  6
BYBLOCK
 62
     0
 10
12023.034061
 20
4976.5902500000002
 30
0.0
 40
15.0
 50
180.0
 51
0.0
  0
ARC
  5
4D2E
  8
0
  6
BYBLOCK
 62
     0
 10
12023.034061
 20
4976.5902500000002
 30
0.0
 40
15.0
 50
0.0
 51
180.0
  0
ARC
  5
4D2F
  8
0
  6
BYBLOCK
 62
     0
 10
9105.0340609999967
 20
4976.5902500000002
 30
0.0
 40
15.0
 50
0.0
 51
180.0
  0
ARC
  5
4D30
  8
0
  6
BYBLOCK
 62
     0
 10
9105.0340609999967
 20
4976.5902500000002
 30
0.0
 40
15.0
 50
180.0
 51
0.0
  0
ARC
  5
4D31
  8
0
  6
BYBLOCK
 62
     0
 10
12023.034061
 20
4976.590250000002
 30
0.0
 40
15.0
 50
0.0
 51
180.0
  0
ARC
  5
4D32
  8
0
  6
BYBLOCK
 62
     0
 10
12023.034061
 20
4976.590250000002
 30
0.0
 40
15.0
 50
180.0
 51
0.0
  0
ARC
  5
4D33
  8
0
  6
BYBLOCK
 62
     0
 10
15291.534061
 20
4976.590250000002
 30
0.0
 40
15.0
 50
180.0
 51
0.0
  0
ARC
  5
4D34
  8
0
  6
BYBLOCK
 62
     0
 10
15291.534061
 20
4976.590250000002
 30
0.0
 40
15.0
 50
0.0
 51
180.0
  0
LINE
  5
4E5A
  8
0-1
  6
CONTINUOUS
 62
     3
 10
25616.824376
 20
8375.0901049999975
 30
0.0
 11
25616.824376
 21
8407.0900120000006
 31
0.0
  0
LINE
  5
4E5B
  8
0-1
  6
CONTINUOUS
 62
     3
 10
25765.823768999999
 20
8298.9033830000008
 30
0.0
 11
25722.82165799999
 21
8298.9033830000008
 31
0.0
  0
LINE
  5
4E5C
  8
0-1
  6
CONTINUOUS
 62
     3
 10
25765.823768999999
 20
8625.0904340000034
 30
0.0
 11
25765.823768999999
 21
8298.9033830000008
 31
0.0
  0
LINE
  5
4E5D
  8
0-1
  6
CONTINUOUS
 62
     3
 10
25330.857183000011
 20
8371.554683999997
 30
0.0
 11
25298.85826600001
 21
8403.5545919999968
 31
0.0
  0
LINE
  5
4E5E
  8
0-1
  6
CONTINUOUS
 62
     3
 10
25611.824111999991
 20
8412.0902760000008
 30
0.0
 11
25302.39368600001
 21
8412.0902760000008
 31
0.0
  0
LINE
  5
4E5F
  8
0-1
  6
CONTINUOUS
 62
     3
 10
25616.824376
 20
8403.6911790000031
 30
0.0
 11
25298.727617
 21
8403.6911790000031
 31
0.0
  0
LINE
  5
4E60
  8
0-1
  6
CONTINUOUS
 62
     3
 10
25611.824111999991
 20
8370.0898410000009
 30
0.0
 11
25334.394583000001
 21
8370.0898410000009
 31
0.0
  0
LINE
  5
4E61
  8
0-1
  6
CONTINUOUS
 62
     3
 10
25616.824376
 20
8378.4899280000009
 30
0.0
 11
25323.922930000001
 21
8378.4899280000009
 31
0.0
  0
LINE
  5
4E62
  8
0-1
  6
CONTINUOUS
 62
     3
 10
25616.824376
 20
8386.8900149999954
 30
0.0
 11
25315.523831999999
 21
8386.8900149999954
 31
0.0
  0
LINE
  5
4E63
  8
0-1
  6
CONTINUOUS
 62
     3
 10
25616.824376
 20
8395.2910919999995
 30
0.0
 11
25307.122756000001
 21
8395.2910919999995
 31
0.0
  0
LINE
  5
4E64
  8
0-1
  6
CONTINUOUS
 62
     3
 10
23111.78758400002
 20
8371.554683999997
 30
0.0
 11
23143.78452200002
 21
8403.5545919999968
 31
0.0
  0
LINE
  5
4E65
  8
0-1
  6
CONTINUOUS
 62
     3
 10
22825.82237000002
 20
8375.0901049999975
 30
0.0
 11
22825.82237000002
 21
8407.0900120000006
 31
0.0
  0
LINE
  5
4E66
  8
0-1
  6
CONTINUOUS
 62
     3
 10
22825.82237000002
 20
8378.4899280000009
 30
0.0
 11
23118.719858
 21
8378.4899280000009
 31
0.0
  0
LINE
  5
4E67
  8
0-1
  6
CONTINUOUS
 62
     3
 10
22825.82237000002
 20
8386.8900149999954
 30
0.0
 11
23127.12093500001
 21
8386.8900149999954
 31
0.0
  0
LINE
  5
4E68
  8
0-1
  6
CONTINUOUS
 62
     3
 10
22830.822634
 20
8370.0898410000009
 30
0.0
 11
23108.250184000011
 21
8370.0898410000009
 31
0.0
  0
LINE
  5
4E69
  8
0-1
  6
CONTINUOUS
 62
     3
 10
22825.82237000002
 20
8395.2910919999995
 30
0.0
 11
23135.520032000019
 21
8395.2910919999995
 31
0.0
  0
LINE
  5
4E6A
  8
0-1
  6
CONTINUOUS
 62
     3
 10
22825.82237000002
 20
8403.6911790000031
 30
0.0
 11
23143.917150000019
 21
8403.6911790000031
 31
0.0
  0
LINE
  5
4E6B
  8
0-1
  6
CONTINUOUS
 62
     3
 10
22830.822634
 20
8412.0902760000008
 30
0.0
 11
23140.251081000031
 21
8412.0902760000008
 31
0.0
  0
LINE
  5
4E6C
  8
0-1
  6
CONTINUOUS
 62
     3
 10
25765.823768999999
 20
8495.0895109999983
 30
0.0
 11
22762.321393999999
 21
8495.0895109999983
 31
0.0
  0
LINE
  5
4E6D
  8
0-1
  6
CONTINUOUS
 62
     3
 10
22804.819678000011
 20
8421.0901570000005
 30
0.0
 11
25637.82310899999
 21
8421.0901570000005
 31
0.0
  0
LINE
  5
4E6E
  8
0-1
  6
CONTINUOUS
 62
     3
 10
22804.819678000011
 20
8361.089958999999
 30
0.0
 11
25637.82310899999
 21
8361.089958999999
 31
0.0
  0
LINE
  5
4E6F
  8
0-1
  6
CONTINUOUS
 62
     3
 10
22762.321393999999
 20
8625.0904340000034
 30
0.0
 11
25765.823768999999
 21
8625.0904340000034
 31
0.0
  0
LINE
  5
4E70
  8
0-1
  6
CONTINUOUS
 62
     3
 10
22698.820417999999
 20
8375.0901049999975
 30
0.0
 11
22698.820417999999
 21
8407.0900120000006
 31
0.0
  0
LINE
  5
4E71
  8
0-1
  6
CONTINUOUS
 62
     3
 10
22412.85916299999
 20
8371.554683999997
 30
0.0
 11
22380.858265999999
 21
8403.5545919999968
 31
0.0
  0
LINE
  5
4E72
  8
0-1
  6
CONTINUOUS
 62
     3
 10
22698.820417999999
 20
8403.6911790000031
 30
0.0
 11
22380.727617999979
 21
8403.6911790000031
 31
0.0
  0
LINE
  5
4E73
  8
0-1
  6
CONTINUOUS
 62
     3
 10
22698.820417999999
 20
8395.2910919999995
 30
0.0
 11
22389.12275599999
 21
8395.2910919999995
 31
0.0
  0
LINE
  5
4E74
  8
0-1
  6
CONTINUOUS
 62
     3
 10
22698.820417999999
 20
8386.8900149999954
 30
0.0
 11
22397.521852999998
 21
8386.8900149999954
 31
0.0
  0
LINE
  5
4E75
  8
0-1
  6
CONTINUOUS
 62
     3
 10
22698.820417999999
 20
8378.4899280000009
 30
0.0
 11
22405.920950999978
 21
8378.4899280000009
 31
0.0
  0
LINE
  5
4E76
  8
0-1
  6
CONTINUOUS
 62
     3
 10
22693.822133000001
 20
8412.0902760000008
 30
0.0
 11
22384.391706999999
 21
8412.0902760000008
 31
0.0
  0
LINE
  5
4E77
  8
0-1
  6
CONTINUOUS
 62
     3
 10
22693.822133000001
 20
8370.0898410000009
 30
0.0
 11
22416.394583999991
 21
8370.0898410000009
 31
0.0
  0
LINE
  5
4E78
  8
0-1
  6
CONTINUOUS
 62
     3
 10
19912.820655
 20
8370.0898410000009
 30
0.0
 11
20190.250184999972
 21
8370.0898410000009
 31
0.0
  0
LINE
  5
4E79
  8
0-1
  6
CONTINUOUS
 62
     3
 10
19907.822370999998
 20
8375.0901049999975
 30
0.0
 11
19907.822370999998
 21
8407.0900120000006
 31
0.0
  0
LINE
  5
4E7A
  8
0-1
  6
CONTINUOUS
 62
     3
 10
19758.820998999981
 20
8298.9033830000008
 30
0.0
 11
19801.819151
 21
8298.9033830000008
 31
0.0
  0
LINE
  5
4E7B
  8
0-1
  6
CONTINUOUS
 62
     3
 10
19758.820998999981
 20
8298.9033830000008
 30
0.0
 11
19758.820998999981
 21
8625.0904340000034
 31
0.0
  0
LINE
  5
4E7C
  8
0-1
  6
CONTINUOUS
 62
     3
 10
19912.820655
 20
8412.0902760000008
 30
0.0
 11
20222.251081999999
 21
8412.0902760000008
 31
0.0
  0
LINE
  5
4E7D
  8
0-1
  6
CONTINUOUS
 62
     3
 10
20193.783625
 20
8371.554683999997
 30
0.0
 11
20225.784522999998
 21
8403.5545919999968
 31
0.0
  0
LINE
  5
4E7E
  8
0-1
  6
CONTINUOUS
 62
     3
 10
19907.822370999998
 20
8403.6911790000031
 30
0.0
 11
20225.917150000008
 21
8403.6911790000031
 31
0.0
  0
LINE
  5
4E7F
  8
0-1
  6
CONTINUOUS
 62
     3
 10
19907.822370999998
 20
8395.2910919999995
 30
0.0
 11
20217.520033000001
 21
8395.2910919999995
 31
0.0
  0
LINE
  5
4E80
  8
0-1
  6
CONTINUOUS
 62
     3
 10
19907.822370999998
 20
8386.8900149999954
 30
0.0
 11
20209.120935000021
 21
8386.8900149999954
 31
0.0
  0
LINE
  5
4E81
  8
0-1
  6
CONTINUOUS
 62
     3
 10
19907.822370999998
 20
8378.4899280000009
 30
0.0
 11
20200.721837999979
 21
8378.4899280000009
 31
0.0
  0
LINE
  5
4E82
  8
0-1
  6
CONTINUOUS
 62
     3
 10
19886.819679
 20
8361.089958999999
 30
0.0
 11
22719.821129999989
 21
8361.089958999999
 31
0.0
  0
LINE
  5
4E83
  8
0-1
  6
CONTINUOUS
 62
     3
 10
19886.819679
 20
8421.0901570000005
 30
0.0
 11
22719.821129999989
 21
8421.0901570000005
 31
0.0
  0
LINE
  5
4E84
  8
0-1
  6
CONTINUOUS
 62
     3
 10
19758.820998999981
 20
8625.0904340000034
 30
0.0
 11
22762.321393999999
 21
8625.0904340000034
 31
0.0
  0
LINE
  5
4E85
  8
0-1
  6
CONTINUOUS
 62
     3
 10
22762.321393999999
 20
8495.0895109999983
 30
0.0
 11
19758.820998999981
 21
8495.0895109999983
 31
0.0
  0
LINE
  5
4E86
  8
0-1
  6
CONTINUOUS
 62
     3
 10
22762.321393999999
 20
8495.0895109999983
 30
0.0
 11
22762.321393999999
 21
8625.0904340000034
 31
0.0
  0
LINE
  5
4E87
  8
0-1
  6
CONTINUOUS
 62
     3
 10
22762.321393999999
 20
8495.0895109999983
 30
0.0
 11
22762.321393999999
 21
8625.0904340000034
 31
0.0
  0
ARC
  5
4E88
  8
0-1
  6
CONTINUOUS
 62
     3
 10
25611.824111999991
 20
8407.0900120000006
 30
0.0
 40
5.0
 50
0.0
 51
90.0
  0
ARC
  5
4E89
  8
0-1
  6
CONTINUOUS
 62
     3
 10
25611.824111999991
 20
8375.0901049999975
 30
0.0
 40
5.0
 50
269.9999850001808
 51
0.0
  0
ARC
  5
4E8A
  8
0-1
  6
CONTINUOUS
 62
     3
 10
25302.39368600001
 20
8407.0900120000006
 30
0.0
 40
5.0
 50
90.0
 51
224.99998499997989
  0
ARC
  5
4E8B
  8
0-1
  6
CONTINUOUS
 62
     3
 10
25334.394583000001
 20
8375.0901049999975
 30
0.0
 40
5.0
 50
224.99998499997989
 51
269.9999850001808
  0
ARC
  5
4E8C
  8
0-1
  6
CONTINUOUS
 62
     3
 10
23140.251081000031
 20
8407.0900120000006
 30
0.0
 40
5.0
 50
314.99998500027471
 51
90.0
  0
ARC
  5
4E8D
  8
0-1
  6
CONTINUOUS
 62
     3
 10
23108.250184000011
 20
8375.0901049999975
 30
0.0
 40
5.0
 50
269.9999850001808
 51
314.99998500027471
  0
ARC
  5
4E8E
  8
0-1
  6
CONTINUOUS
 62
     3
 10
22830.822634
 20
8375.0901049999975
 30
0.0
 40
5.0
 50
180.0
 51
269.9999850001808
  0
ARC
  5
4E8F
  8
0-1
  6
CONTINUOUS
 62
     3
 10
22830.822634
 20
8407.0900120000006
 30
0.0
 40
5.0
 50
90.0
 51
180.0
  0
ARC
  5
4E90
  8
0-1
  6
CONTINUOUS
 62
     3
 10
22693.822133000001
 20
8375.0901049999975
 30
0.0
 40
5.0
 50
269.9999850001808
 51
0.0
  0
ARC
  5
4E91
  8
0-1
  6
CONTINUOUS
 62
     3
 10
22693.822133000001
 20
8407.0900120000006
 30
0.0
 40
5.0
 50
0.0
 51
90.0
  0
ARC
  5
4E92
  8
0-1
  6
CONTINUOUS
 62
     3
 10
22384.391706999999
 20
8407.0900120000006
 30
0.0
 40
5.0
 50
90.0
 51
224.99998499997989
  0
ARC
  5
4E93
  8
0-1
  6
CONTINUOUS
 62
     3
 10
22416.394583999991
 20
8375.0901049999975
 30
0.0
 40
5.0
 50
224.99998499997989
 51
269.9999850001808
  0
ARC
  5
4E94
  8
0-1
  6
CONTINUOUS
 62
     3
 10
20222.251081999999
 20
8407.0900120000006
 30
0.0
 40
5.0
 50
314.99998500027471
 51
90.0
  0
ARC
  5
4E95
  8
0-1
  6
CONTINUOUS
 62
     3
 10
19912.820655
 20
8407.0900120000006
 30
0.0
 40
5.0
 50
90.0
 51
180.0
  0
ARC
  5
4E96
  8
0-1
  6
CONTINUOUS
 62
     3
 10
19912.820655
 20
8375.0901049999975
 30
0.0
 40
5.0
 50
180.0
 51
269.9999850001808
  0
ARC
  5
4E97
  8
0-1
  6
CONTINUOUS
 62
     3
 10
20190.250184999972
 20
8375.0901049999975
 30
0.0
 40
5.0
 50
269.9999850001808
 51
314.99998500027471
  0
LINE
  5
4E98
  8
SUNPOU
  6
CONTINUOUS
 62
     4
 10
19758.81901899998
 20
8705.0904340000034
 30
0.0
 11
19758.81901899998
 21
9904.5480460000017
 31
0.0
  0
LINE
  5
4E99
  8
SUNPOU
  6
CONTINUOUS
 62
     4
 10
25765.823768999999
 20
8705.0904340000034
 30
0.0
 11
25765.823768999999
 21
9904.5480460000017
 31
0.0
  0
LINE
  5
4E9A
  8
SUNPOU
  6
CONTINUOUS
 62
     4
 10
19761.81901899998
 20
9824.5480459999999
 30
0.0
 11
25762.823768999999
 21
9824.5480459999999
 31
0.0
  0
LINE
  5
4E9B
  8
SUNPOU
  6
CONTINUOUS
 62
     4
 10
19801.821129999978
 20
8705.0904340000034
 30
0.0
 11
19801.821129999978
 21
9504.5902760000008
 31
0.0
  0
LINE
  5
4E9C
  8
SUNPOU
  6
CONTINUOUS
 62
     4
 10
25722.82165799999
 20
8705.0904340000034
 30
0.0
 11
25722.82165799999
 21
9504.5902760000008
 31
0.0
  0
LINE
  5
4E9D
  8
SUNPOU
  6
CONTINUOUS
 62
     4
 10
19801.821129999978
 20
9424.5902760000008
 30
0.0
 11
25722.82165799999
 21
9424.5902760000008
 31
0.0
  0
LINE
  5
4E9E
  8
SUNPOU
  6
CONTINUOUS
 62
     4
 10
19801.821129999978
 20
8705.0904340000034
 30
0.0
 11
19801.821129999978
 21
9504.5902760000008
 31
0.0
  0
LINE
  5
4E9F
  8
SUNPOU
  6
CONTINUOUS
 62
     4
 10
19758.81901899998
 20
8705.0904340000034
 30
0.0
 11
19758.81901899998
 21
9504.5902760000008
 31
0.0
  0
LINE
  5
4EA0
  8
SUNPOU
  6
CONTINUOUS
 62
     4
 10
19801.821129999978
 20
9424.5902760000008
 30
0.0
 11
20041.821129999978
 21
9424.5902760000008
 31
0.0
  0
LINE
  5
4EA1
  8
SUNPOU
  6
CONTINUOUS
 62
     4
 10
19761.81901899998
 20
9424.5902760000008
 30
0.0
 11
19521.819018999999
 21
9424.5902760000008
 31
0.0
  0
LINE
  5
4EA2
  8
SUNPOU
  6
CONTINUOUS
 62
     4
 10
19801.821129999978
 20
9424.5902760000008
 30
0.0
 11
19761.81901899998
 21
9424.5902760000008
 31
0.0
  0
LINE
  5
4EA3
  8
SUNPOU
  6
CONTINUOUS
 62
     4
 10
25722.82165799999
 20
8705.0904340000034
 30
0.0
 11
25722.82165799999
 21
9504.5902760000008
 31
0.0
  0
LINE
  5
4EA4
  8
SUNPOU
  6
CONTINUOUS
 62
     4
 10
25765.823768999999
 20
8705.0904340000034
 30
0.0
 11
25765.823768999999
 21
9504.5902760000008
 31
0.0
  0
LINE
  5
4EA5
  8
SUNPOU
  6
CONTINUOUS
 62
     4
 10
25722.82165799999
 20
9424.5902760000008
 30
0.0
 11
25482.821657999979
 21
9424.5902760000008
 31
0.0
  0
LINE
  5
4EA6
  8
SUNPOU
  6
CONTINUOUS
 62
     4
 10
25762.823768999999
 20
9424.5902760000008
 30
0.0
 11
26002.823768999999
 21
9424.5902760000008
 31
0.0
  0
LINE
  5
4EA7
  8
SUNPOU
  6
CONTINUOUS
 62
     4
 10
25722.82165799999
 20
9424.5902760000008
 30
0.0
 11
25762.823768999999
 21
9424.5902760000008
 31
0.0
  0
TEXT
  5
4EA8
  8
0
  6
CONTINUOUS
 62
     7
 10
25882.823768999999
 20
9504.5902760000008
 30
0.0
 40
160.0
  1
43
  0
TEXT
  5
4EA9
  8
0
  6
CONTINUOUS
 62
     7
 10
19401.819018999999
 20
9504.5902760000008
 30
0.0
 40
160.0
  1
43
  0
TEXT
  5
4EAA
  8
0
  6
CONTINUOUS
 62
     7
 10
22495.654727333331
 20
9504.5902760000008
 30
0.0
 40
160.0
  1
5921
  0
TEXT
  5
4EAB
  8
0
  6
CONTINUOUS
 62
     7
 10
22522.321393999999
 20
9904.5480460000017
 30
0.0
 40
160.0
  1
6007
  0
ARC
  5
4EAC
  8
0
  6
BYBLOCK
 62
     0
 10
19758.81901899998
 20
9824.5480459999999
 30
0.0
 40
15.0
 50
0.0
 51
180.0
  0
ARC
  5
4EAD
  8
0
  6
BYBLOCK
 62
     0
 10
19758.81901899998
 20
9824.5480459999999
 30
0.0
 40
15.0
 50
180.0
 51
0.0
  0
ARC
  5
4EAE
  8
0
  6
BYBLOCK
 62
     0
 10
25765.823768999999
 20
9824.5480459999999
 30
0.0
 40
15.0
 50
180.0
 51
0.0
  0
ARC
  5
4EAF
  8
0
  6
BYBLOCK
 62
     0
 10
25765.823768999999
 20
9824.5480459999999
 30
0.0
 40
15.0
 50
0.0
 51
180.0
  0
ARC
  5
4EB0
  8
0
  6
BYBLOCK
 62
     0
 10
19801.821129999978
 20
9424.5902760000008
 30
0.0
 40
15.0
 50
0.0
 51
180.0
  0
ARC
  5
4EB1
  8
0
  6
BYBLOCK
 62
     0
 10
19801.821129999978
 20
9424.5902760000008
 30
0.0
 40
15.0
 50
180.0
 51
0.0
  0
ARC
  5
4EB2
  8
0
  6
BYBLOCK
 62
     0
 10
25722.82165799999
 20
9424.5902760000008
 30
0.0
 40
15.0
 50
180.0
 51
0.0
  0
ARC
  5
4EB3
  8
0
  6
BYBLOCK
 62
     0
 10
25722.82165799999
 20
9424.5902760000008
 30
0.0
 40
15.0
 50
0.0
 51
180.0
  0
ARC
  5
4EB4
  8
0
  6
BYBLOCK
 62
     0
 10
19801.821129999978
 20
9424.5902760000008
 30
0.0
 40
15.0
 50
0.0
 51
180.0
  0
ARC
  5
4EB5
  8
0
  6
BYBLOCK
 62
     0
 10
19801.821129999978
 20
9424.5902760000008
 30
0.0
 40
15.0
 50
180.0
 51
0.0
  0
ARC
  5
4EB6
  8
0
  6
BYBLOCK
 62
     0
 10
19758.81901899998
 20
9424.5902760000008
 30
0.0
 40
15.0
 50
180.0
 51
0.0
  0
ARC
  5
4EB7
  8
0
  6
BYBLOCK
 62
     0
 10
19758.81901899998
 20
9424.5902760000008
 30
0.0
 40
15.0
 50
0.0
 51
180.0
  0
ARC
  5
4EB8
  8
0
  6
BYBLOCK
 62
     0
 10
25722.82165799999
 20
9424.5902760000008
 30
0.0
 40
15.0
 50
180.0
 51
0.0
  0
ARC
  5
4EB9
  8
0
  6
BYBLOCK
 62
     0
 10
25722.82165799999
 20
9424.5902760000008
 30
0.0
 40
15.0
 50
0.0
 51
180.0
  0
ARC
  5
4EBA
  8
0
  6
BYBLOCK
 62
     0
 10
25765.823768999999
 20
9424.5902760000008
 30
0.0
 40
15.0
 50
0.0
 51
180.0
  0
ARC
  5
4EBB
  8
0
  6
BYBLOCK
 62
     0
 10
25765.823768999999
 20
9424.5902760000008
 30
0.0
 40
15.0
 50
180.0
 51
0.0
  0
LINE
  5
4ED2
  8
SUNPOU
  6
CONTINUOUS
 62
     4
 10
8046.8537400000168
 20
13432.73064999999
 30
0.0
 11
8046.8537400000168
 21
12253.782829999989
 31
0.0
  0
LINE
  5
4ED3
  8
SUNPOU
  6
CONTINUOUS
 62
     4
 10
14053.85453199999
 20
13432.73064999999
 30
0.0
 11
14053.85453199999
 21
12253.782829999989
 31
0.0
  0
LINE
  5
4ED4
  8
SUNPOU
  6
CONTINUOUS
 62
     4
 10
8046.8537400000168
 20
12333.782829999989
 30
0.0
 11
14053.85453199999
 21
12333.782829999989
 31
0.0
  0
TEXT
  5
4ED5
  8
0
  6
CONTINUOUS
 62
     7
 10
10287.687469333339
 20
12413.782829999989
 30
0.0
 40
160.0
  1
ケラバ外寸 6007
  0
ARC
  5
4ED6
  8
0
  6
BYBLOCK
 62
     0
 10
8046.8537400000168
 20
12333.782829999989
 30
0.0
 40
15.0
 50
0.0
 51
180.0
  0
ARC
  5
4ED7
  8
0
  6
BYBLOCK
 62
     0
 10
8046.8537400000168
 20
12333.782829999989
 30
0.0
 40
15.0
 50
180.0
 51
0.0
  0
ARC
  5
4ED8
  8
0
  6
BYBLOCK
 62
     0
 10
14053.85453199999
 20
12333.782829999989
 30
0.0
 40
15.0
 50
180.0
 51
0.0
  0
ARC
  5
4ED9
  8
0
  6
BYBLOCK
 62
     0
 10
14053.85453199999
 20
12333.782829999989
 30
0.0
 40
15.0
 50
0.0
 51
180.0
  0
TEXT
  5
4F30
  8
NAME
 10
24033.05354655402
 20
1076.0
 30
0.0
 40
360.0
  1
H
 41
0.6700000000000002
  7
00
  0
TEXT
  5
4F31
  8
NAME
 10
23657.2215619737
 20
1076.0
 30
0.0
 40
360.0
  1
（ ）
  7
01
  0
TEXT
  5
4F32
  8
NAME
 10
21933.552716389018
 20
1876.0
 30
0.0
 40
360.0
  1
ヨドガレージ ラヴィージュ
 41
0.75
  7
01
  0
TEXT
  5
4F33
  8
NAME
 10
21550.022791898398
 20
1076.6369801169251
 30
0.0
 40
360.0
  1
VGCU-3062
 41
0.6700000000000002
  0
LINE
  5
4F34
  8
NAME
  6
CONTINUOUS
 10
26067.886878884321
 20
2236.0
 30
0.0
 11
26067.886878884321
 21
1876.0
 31
0.0
  0
LINE
  5
4F35
  8
NAME
  6
CONTINUOUS
 10
26167.886878884321
 20
2236.0
 30
0.0
 11
26167.886878884321
 21
1876.0
 31
0.0
  0
LINE
  5
4F36
  8
NAME
  6
CONTINUOUS
 10
26267.886878884328
 20
2236.0
 30
0.0
 11
26267.886878884328
 21
1876.0
 31
0.0
  0
LINE
  5
4F37
  8
NAME
  6
CONTINUOUS
 10
26007.886878884321
 20
2236.0
 30
0.0
 11
26327.886878884321
 21
2236.0
 31
0.0
  0
LINE
  5
4F38
  8
NAME
  6
CONTINUOUS
 10
26327.886878884321
 20
1876.0
 30
0.0
 11
26007.886878884321
 21
1876.0
 31
0.0
  0
TEXT
  5
4F39
  8
NAME
 10
25346.041792426691
 20
1076.0
 30
0.0
 40
360.0
  1
2
 41
0.6700000000000002
  7
00
  0
TEXT
  5
4F3A
  8
NAME
 10
24557.214549256729
 20
1076.0
 30
0.0
 40
360.0
  1
型（ 連棟）
  7
01
  0
TEXT
  5
4FD4
  8
FILENAME
  6
CONTINUOUS
 10
28546.857142857141
 20
348.0
 30
0.0
 40
200.0
  1
＜VGCU-3062-2-A_0.DXF ＞
  7
FILENAME
 72
     2
 11
32764.0
 21
348.0
 31
0.0
  0
LINE
  5
4FDA
  8
WAKUSEN-01
 10
868.00000000000193
 20
827.99999999999955
 30
0.0
 11
32764.000000000011
 21
827.99999999999943
 31
0.0
  0
LINE
  5
4FDB
  8
WAKUSEN-01
 10
868.00000000000193
 20
827.99999999999955
 30
0.0
 11
868.00000000000193
 21
22484.000000000011
 31
0.0
  0
LINE
  5
4FDC
  8
WAKUSEN-01
 10
32764.000000000011
 20
827.99999999999943
 30
0.0
 11
32764.000000000011
 21
22484.000000000011
 31
0.0
  0
LINE
  5
4FDD
  8
WAKUSEN-01
 10
20560.0
 20
827.99999999999716
 30
0.0
 11
20560.0
 21
2484.0
 31
0.0
  0
LINE
  5
4FDE
  8
WAKUSEN-02
 10
26868.0
 20
827.99999999999261
 30
0.0
 11
26868.0
 21
2484.0
 31
0.0
  0
ENDSEC
  0
EOF
