  0
SECTION
  2
HEADER
  9
$ACADVER
  1
AC1009
  9
$INSBASE
 10
0.0
 20
0.0
 30
0.0
  9
$EXTMIN
 10
867.99324330406671
 20
327.38164749855792
 30
-0.000000000000013
  9
$EXTMAX
 10
32765.33210850941
 20
22484.553276491992
 30
0.0000000000000023
  9
$LIMMIN
 10
0.0
 20
0.0
  9
$LIMMAX
 10
33600.0
 20
23760.0
  9
$ORTHOMODE
 70
     1
  9
$REGENMODE
 70
     1
  9
$FILLMODE
 70
     1
  9
$QTEXTMODE
 70
     0
  9
$MIRRTEXT
 70
     1
  9
$DRAGMODE
 70
     2
  9
$LTSCALE
 40
80.0
  9
$OSMODE
 70
  3071
  9
$ATTMODE
 70
     1
  9
$TEXTSIZE
 40
0.2
  9
$TRACEWID
 40
0.05
  9
$TEXTSTYLE
  7
00
  9
$CLAYER
  8
0
  9
$CELTYPE
  6
BYLAYER
  9
$CECOLOR
 62
   256
  9
$DIMSCALE
 40
80.0
  9
$DIMASZ
 40
3.0
  9
$DIMEXO
 40
1.0
  9
$DIMDLI
 40
0.38
  9
$DIMRND
 40
0.5
  9
$DIMDLE
 40
0.0
  9
$DIMEXE
 40
1.0
  9
$DIMTP
 40
0.0
  9
$DIMTM
 40
0.0
  9
$DIMTXT
 40
2.0
  9
$DIMCEN
 40
0.09
  9
$DIMTSZ
 40
0.0
  9
$DIMTOL
 70
     0
  9
$DIMLIM
 70
     0
  9
$DIMTIH
 70
     0
  9
$DIMTOH
 70
     0
  9
$DIMSE1
 70
     0
  9
$DIMSE2
 70
     0
  9
$DIMTAD
 70
     1
  9
$DIMZIN
 70
     8
  9
$DIMBLK
  1
DOTSMALL
  9
$DIMASO
 70
     1
  9
$DIMSHO
 70
     1
  9
$DIMPOST
  1

  9
$DIMAPOST
  1

  9
$DIMALT
 70
     0
  9
$DIMALTD
 70
     2
  9
$DIMALTF
 40
25.399999999999999
  9
$DIMLFAC
 40
1.0
  9
$DIMTOFL
 70
     1
  9
$DIMTVP
 40
0.0
  9
$DIMTIX
 70
     0
  9
$DIMSOXD
 70
     0
  9
$DIMSAH
 70
     0
  9
$DIMBLK1
  1

  9
$DIMBLK2
  1

  9
$DIMSTYLE
  2
SUNPOU
  9
$DIMCLRD
 70
     4
  9
$DIMCLRE
 70
     4
  9
$DIMCLRT
 70
     7
  9
$DIMTFAC
 40
1.0
  9
$DIMGAP
 40
1.0
  9
$LUNITS
 70
     2
  9
$LUPREC
 70
     4
  9
$SKETCHINC
 40
0.1
  9
$FILLETRAD
 40
0.0
  9
$AUNITS
 70
     0
  9
$AUPREC
 70
     0
  9
$MENU
  1
acad
  9
$ELEVATION
 40
0.0
  9
$PELEVATION
 40
0.0
  9
$THICKNESS
 40
0.0
  9
$LIMCHECK
 70
     0
  9
$BLIPMODE
 70
     1
  9
$CHAMFERA
 40
0.0
  9
$CHAMFERB
 40
0.0
  9
$SKPOLY
 70
     0
  9
$TDCREATE
 40
2311940.074926829
  9
$TDUPDATE
 40
2458942.437169225
  9
$TDINDWG
 40
0.0567274074
  9
$TDUSRTIMER
 40
0.0567263079
  9
$USRTIMER
 70
     1
  9
$ANGBASE
 50
0.0
  9
$ANGDIR
 70
     0
  9
$PDMODE
 70
     0
  9
$PDSIZE
 40
0.0
  9
$PLINEWID
 40
0.0
  9
$COORDS
 70
     1
  9
$SPLFRAME
 70
     0
  9
$SPLINETYPE
 70
     6
  9
$SPLINESEGS
 70
     8
  9
$ATTDIA
 70
     1
  9
$ATTREQ
 70
     1
  9
$HANDLING
 70
     1
  9
$HANDSEED
  5
4A44
  9
$SURFTAB1
 70
     6
  9
$SURFTAB2
 70
     6
  9
$SURFTYPE
 70
     6
  9
$SURFU
 70
     6
  9
$SURFV
 70
     6
  9
$UCSNAME
  2

  9
$UCSORG
 10
0.0
 20
0.0
 30
0.0
  9
$UCSXDIR
 10
1.0
 20
0.0
 30
0.0
  9
$UCSYDIR
 10
0.0
 20
1.0
 30
0.0
  9
$PUCSNAME
  2

  9
$PUCSORG
 10
0.0
 20
0.0
 30
0.0
  9
$PUCSXDIR
 10
1.0
 20
0.0
 30
0.0
  9
$PUCSYDIR
 10
0.0
 20
1.0
 30
0.0
  9
$USERI1
 70
     0
  9
$USERI2
 70
     0
  9
$USERI3
 70
     0
  9
$USERI4
 70
     0
  9
$USERI5
 70
     0
  9
$USERR1
 40
0.0
  9
$USERR2
 40
0.0
  9
$USERR3
 40
0.0
  9
$USERR4
 40
0.0
  9
$USERR5
 40
0.0
  9
$WORLDVIEW
 70
     1
  9
$SHADEDGE
 70
     3
  9
$SHADEDIF
 70
    70
  9
$TILEMODE
 70
     1
  9
$MAXACTVP
 70
    16
  9
$PLIMCHECK
 70
     0
  9
$PEXTMIN
 10
1.0000000000000000E+020
 20
1.0000000000000000E+020
 30
1.0000000000000000E+020
  9
$PEXTMAX
 10
-1.0000000000000000E+020
 20
-1.0000000000000000E+020
 30
-1.0000000000000000E+020
  9
$PLIMMIN
 10
0.0
 20
0.0
  9
$PLIMMAX
 10
12.0
 20
9.0
  9
$UNITMODE
 70
     0
  9
$VISRETAIN
 70
     0
  9
$PLINEGEN
 70
     1
  9
$PSLTSCALE
 70
     0
  0
ENDSEC
  0
SECTION
  2
TABLES
  0
TABLE
  2
VPORT
 70
     1
  0
VPORT
  2
*ACTIVE
 70
     0
 10
0.0
 20
0.0
 11
1.0
 21
1.0
 12
16800.0
 22
11880.0
 13
0.0
 23
0.0
 14
1.0
 24
1.0
 15
0.0
 25
0.0
 16
0.0
 26
0.0
 36
1.0
 17
0.0
 27
0.0
 37
0.0
 40
23981.023255813951
 41
2.195652173913043
 42
50.0
 43
0.0
 44
0.0
 50
0.0
 51
0.0
 71
     0
 72
 10000
 73
     1
 74
     1
 75
     0
 76
     0
 77
     0
 78
     0
  0
ENDTAB
  0
TABLE
  2
LTYPE
 70
     3
  0
LTYPE
  2
CONTINUOUS
 70
     0
  3
Solid line
 72
    65
 73
     0
 40
0.0
  0
LTYPE
  2
DASHED3
 70
     0
  3
------  ------  ------  ------  
 72
    65
 73
     2
 40
5.0
 49
3.75
 49
-1.25
  0
LTYPE
  2
CENTER2
 70
     0
  3
----------  --  ----------  --  
 72
    65
 73
     4
 40
20.0
 49
12.5
 49
-2.5
 49
2.5
 49
-2.5
  0
ENDTAB
  0
TABLE
  2
LAYER
 70
    18
  0
LAYER
  2
0
 70
     0
 62
     7
  6
CONTINUOUS
  0
LAYER
  2
SUNPOU
 70
     0
 62
     4
  6
CONTINUOUS
  0
LAYER
  2
0-1
 70
     0
 62
     7
  6
CONTINUOUS
  0
LAYER
  2
0-2
 70
     0
 62
     7
  6
CONTINUOUS
  0
LAYER
  2
0-5
 70
     0
 62
     7
  6
CONTINUOUS
  0
LAYER
  2
2-0
 70
     0
 62
     7
  6
CONTINUOUS
  0
LAYER
  2
0-3
 70
     0
 62
     7
  6
CONTINUOUS
  0
LAYER
  2
YODOROGO
 70
     0
 62
   130
  6
CONTINUOUS
  0
LAYER
  2
WAKUSEN-01
 70
     0
 62
    50
  6
CONTINUOUS
  0
LAYER
  2
WAKUSEN-02
 70
     0
 62
   130
  6
CONTINUOUS
  0
LAYER
  2
WAKUMOJI-01
 70
     0
 62
   130
  6
CONTINUOUS
  0
LAYER
  2
FILENAME
 70
     0
 62
     7
  6
CONTINUOUS
  0
LAYER
  2
NAME
 70
     0
 62
    20
  6
CONTINUOUS
  0
LAYER
  2
0-4
 70
     0
 62
     7
  6
CONTINUOUS
  0
LAYER
  2
0-6
 70
     0
 62
     7
  6
CONTINUOUS
  0
LAYER
  2
0-0
 70
     0
 62
     7
  6
CONTINUOUS
  0
ENDTAB
  0
TABLE
  2
STYLE
 70
     5
  0
STYLE
  2
STANDARD
 70
     0
 40
0.0
 41
1.0
 50
0.0
 71
     0
 42
0.0
  3
txt
  4
BIGFONT
  0
STYLE
  2
00
 70
     0
 40
0.0
 41
0.6666666666666666
 50
0.0
 71
     0
 42
0.2
  3
ROMANS
  4
BIGFONT
  0
STYLE
  2
01
 70
     0
 40
3.0
 41
1.0
 50
0.0
 71
     0
 42
0.2
  3
ROMANS
  4
BIGFONT
  0
STYLE
  2
WAKUMOJI
 70
     0
 40
3.0
 41
1.0
 50
0.0
 71
     0
 42
3.0
  3
SIMPLEX
  4
BIGFONT
  0
STYLE
  2
FILENAME
 70
     0
 40
200.0
 41
1.0
 50
0.0
 71
     0
 42
200.0
  3
romans
  4
bigfont
  0
ENDTAB
  0
TABLE
  2
VIEW
 70
     0
  0
ENDTAB
  0
TABLE
  2
UCS
 70
     0
  0
ENDTAB
  0
TABLE
  2
APPID
 70
    13
  0
APPID
  2
ACAD
 70
     0
  0
APPID
  2
ACADANNOTATIVE
 70
     0
  0
APPID
  2
ACAD_PSEXT
 70
     0
  0
APPID
  2
DCO15
 70
     0
  0
APPID
  2
ACAD_MLEADERVER
 70
     0
  0
APPID
  2
AUTOCAD_POSTSCRIPT_FIGURE
 70
     0
  0
APPID
  2
ACAD_EXEMPT_FROM_CAD_STANDARDS
 70
     0
  0
APPID
  2
ACAD_DSTYLE_DIMJAG
 70
     0
  0
APPID
  2
ACAD_DSTYLE_DIMTALN
 70
     0
  0
APPID
  2
ACAD_DSTYLE_DIM_LINETYPE
 70
     0
  0
APPID
  2
ACAD_DSTYLE_DIM_EXT1_LINETYPE
 70
     0
  0
APPID
  2
ACAD_DSTYLE_DIM_EXT2_LINETYPE
 70
     0
  0
APPID
  2
ACAD_NAV_VCDISPLAY
 70
     0
  0
ENDTAB
  0
TABLE
  2
DIMSTYLE
 70
     2
  0
DIMSTYLE
  2
SUNPOU
 70
     0
  3

  4

  5

  6

  7

 40
80.0
 41
3.0
 42
1.0
 43
0.38
 44
1.0
 45
0.5
 46
0.0
 47
0.0
 48
0.0
140
2.0
141
0.09
142
0.0
143
25.399999999999999
144
1.0
145
0.0
146
1.0
147
1.0
 71
     0
 72
     0
 73
     0
 74
     0
 75
     0
 76
     0
 77
     1
 78
     8
170
     0
171
     2
172
     1
173
     0
174
     0
175
     0
176
     4
177
     4
178
     7
  0
ENDTAB
  0
ENDSEC
  0
SECTION
  2
BLOCKS
  0
BLOCK
  8
0
  2
$MODEL_SPACE
 70
     0
 10
0.0
 20
0.0
 30
0.0
  3
$MODEL_SPACE
  1

  0
ENDBLK
  5
3CF9
  8
0
  0
BLOCK
 67
     1
  8
0
  2
$PAPER_SPACE
 70
     0
 10
0.0
 20
0.0
 30
0.0
  3
$PAPER_SPACE
  1

  0
ENDBLK
  5
3CF5
 67
     1
  8
0
  0
BLOCK
  8
0
  2
_DOTSMALL
 70
     0
 10
0.0
 20
0.0
 30
0.0
  3
_DOTSMALL
  1

  0
POLYLINE
  5
3D29
  8
0
  6
BYBLOCK
 62
     0
 66
     1
 10
0.0
 20
0.0
 30
0.0
 70
     1
 40
0.5
 41
0.5
  0
VERTEX
  5
4A0C
  8
0
  6
BYBLOCK
 62
     0
 10
-0.0625
 20
0.0
 30
0.0
 42
1.0
  0
VERTEX
  5
4A0D
  8
0
  6
BYBLOCK
 62
     0
 10
0.0625
 20
0.0
 30
0.0
 42
1.0
  0
SEQEND
  5
4A0E
  8
0
  6
BYBLOCK
 62
     0
  0
ENDBLK
  5
3D2D
  8
0
  0
ENDSEC
  0
SECTION
  2
ENTITIES
  0
LINE
  5
3D2E
  8
2-0
  6
CONTINUOUS
 62
     3
 10
8597.0694550000117
 20
17359.103227999982
 30
0.0
 11
8759.3058490000112
 21
17549.307250999991
 31
0.0
  0
LINE
  5
3D2F
  8
2-0
  6
CONTINUOUS
 62
     3
 10
7998.4744180000107
 20
18198.262724999979
 30
0.0
 11
8160.7088330000088
 21
18388.466746999991
 31
0.0
  0
LINE
  5
3D30
  8
2-0
  6
CONTINUOUS
 62
     3
 10
8597.0694550000117
 20
17359.103227999982
 30
0.0
 11
8160.7088330000088
 21
18388.466746999991
 31
0.0
  0
LINE
  5
3D31
  8
2-0
  6
CONTINUOUS
 62
     3
 10
7998.4744180000107
 20
18198.262724999979
 30
0.0
 11
5215.9447510000118
 21
19785.46772399998
 31
0.0
  0
LINE
  5
3D32
  8
2-0
  6
DASHED3
 62
     6
 10
8457.4441110000134
 20
18327.933068999999
 30
0.0
 11
8457.4441110000134
 21
18417.93188099999
 31
0.0
  0
LINE
  5
3D33
  8
2-0
  6
CONTINUOUS
 62
     3
 10
8457.4441110000134
 20
15410.1755595
 30
0.0
 11
8457.4441110000134
 21
15500.17437149999
 31
0.0
  0
LINE
  5
3D34
  8
2-0
  6
CONTINUOUS
 62
     3
 10
8457.4441110000134
 20
16868.94098699998
 30
0.0
 11
8457.4441110000134
 21
16958.936829999991
 31
0.0
  0
LINE
  5
3D35
  8
2-0
  6
CONTINUOUS
 62
     6
 10
6848.7101460000122
 20
15667.515733999981
 30
0.0
 11
7728.7100800000098
 21
15667.515733999981
 31
0.0
  0
LINE
  5
3D36
  8
2-0
  6
CONTINUOUS
 62
     6
 10
6231.6942040000076
 20
17793.51649899999
 30
0.0
 11
8226.1383550000101
 21
17793.51649899999
 31
0.0
  0
LINE
  5
3D37
  8
2-0
  6
CONTINUOUS
 62
     6
 10
8400.4468430000088
 20
15689.49234899998
 30
0.0
 11
8239.7836720000123
 21
16114.516762999991
 31
0.0
  0
LINE
  5
3D38
  8
2-0
  6
CONTINUOUS
 62
     6
 10
7291.8372570000147
 20
16114.516762999991
 30
0.0
 11
8239.7836720000123
 21
16114.516762999991
 31
0.0
  0
LINE
  5
3D39
  8
2-0
  6
CONTINUOUS
 62
     6
 10
6924.1258440000129
 20
13666.96419999998
 30
0.0
 11
7249.1375570000146
 21
13135.935575999991
 31
0.0
  0
LINE
  5
3D3A
  8
2-0
  6
CONTINUOUS
 62
     6
 10
7249.1375570000146
 20
13135.935575999991
 30
0.0
 11
8111.7211910000133
 21
13135.935575999991
 31
0.0
  0
LINE
  5
3D3B
  8
2-0
  6
CONTINUOUS
 62
     6
 10
3802.1161640000169
 20
12735.93326699998
 30
0.0
 11
4882.1088400000153
 21
12735.93326699998
 31
0.0
  0
LINE
  5
3D3C
  8
2-0
  6
CONTINUOUS
 62
     6
 10
5399.0502200000174
 20
14388.95083149998
 30
0.0
 11
4882.1088400000153
 21
12735.93326699998
 31
0.0
  0
LINE
  5
3D3D
  8
2-0
  6
CONTINUOUS
 62
     6
 10
6661.8421070000159
 20
14166.0629775
 30
0.0
 11
6787.6954440000118
 21
14315.522569500001
 31
0.0
  0
LINE
  5
3D3E
  8
2-0
  6
CONTINUOUS
 62
     6
 10
6787.6954440000118
 20
14315.522569500001
 30
0.0
 11
7587.6941250000136
 21
14315.522569500001
 31
0.0
  0
LINE
  5
3D3F
  8
2-0
  6
CONTINUOUS
 62
     6
 10
7615.4098590000094
 20
19421.65794199998
 30
0.0
 11
7759.3094780000101
 21
19933.935575999942
 31
0.0
  0
LINE
  5
3D40
  8
2-0
  6
CONTINUOUS
 62
     6
 10
7759.3094780000101
 20
19933.935575999942
 30
0.0
 11
8276.993177000013
 21
19933.935575999942
 31
0.0
  0
LINE
  5
3D41
  8
2-0
  6
CONTINUOUS
 62
     6
 10
5591.6657910000204
 20
19846.708089999978
 30
0.0
 11
5753.1860940000142
 21
20182.470072999971
 31
0.0
  0
LINE
  5
3D42
  8
2-0
  6
CONTINUOUS
 62
     6
 10
5990.6818780000094
 20
20655.371122999961
 30
0.0
 11
7643.5264460000144
 21
20655.371122999961
 31
0.0
  0
LINE
  5
3D43
  8
2-0
  6
CONTINUOUS
 62
     6
 10
5824.8496880000102
 20
20310.655777999978
 30
0.0
 11
5990.6818780000094
 21
20655.371122999961
 31
0.0
  0
LINE
  5
3D44
  8
2-0
  6
CONTINUOUS
 62
     6
 10
5594.930017000017
 20
18931.91712699999
 30
0.0
 11
5693.9717650000184
 21
18711.131521999989
 31
0.0
  0
LINE
  5
3D45
  8
2-0
  6
CONTINUOUS
 62
     6
 10
5693.9717650000184
 20
18711.131521999989
 30
0.0
 11
6223.9671530000123
 21
18711.131521999989
 31
0.0
  0
LINE
  5
3D46
  8
2-0
  6
CENTER2
 62
     6
 10
8447.4445730000134
 20
20723.933729000011
 30
0.0
 11
8447.4445730000134
 21
18914.432039999981
 31
0.0
  0
LINE
  5
3D47
  8
2-0
  6
CENTER2
 62
     6
 10
4199.9429830000126
 20
19481.435443999981
 30
0.0
 11
5856.4408250000142
 21
19481.435443999981
 31
0.0
  0
LINE
  5
3D48
  8
2-0
  6
CENTER2
 62
     6
 10
5529.444573000017
 20
20723.935057999999
 30
0.0
 11
5529.444573000017
 21
19773.933068999992
 31
0.0
  0
LINE
  5
3D49
  8
2-0
  6
CENTER2
 62
     6
 10
4199.9429830000126
 20
16913.935443999992
 30
0.0
 11
5856.4408250000142
 21
16913.935443999992
 31
0.0
  0
LINE
  5
3D4A
  8
2-0
  6
CENTER2
 62
     6
 10
4199.9429830000126
 20
13995.935443999981
 30
0.0
 11
5856.4408250000142
 21
13995.935443999981
 31
0.0
  0
LINE
  5
3D4B
  8
2-0
  6
DASHED3
 62
     6
 10
8400.4468430000088
 20
17822.936104
 30
0.0
 11
8400.4468430000088
 21
18327.933068999999
 31
0.0
  0
LINE
  5
3D4C
  8
2-0
  6
DASHED3
 62
     6
 10
8514.4443490000122
 20
17554.01058699999
 30
0.0
 11
8514.4443490000122
 21
18327.933068999999
 31
0.0
  0
LINE
  5
3D4D
  8
2-0
  6
CONTINUOUS
 62
     3
 10
5461.9389910000136
 20
19663.933200999989
 30
0.0
 11
5512.4439330000178
 21
19663.933200999989
 31
0.0
  0
LINE
  5
3D4E
  8
2-0
  6
CONTINUOUS
 62
     3
 10
5461.9389910000136
 20
19686.430429999989
 30
0.0
 11
5443.9431870000162
 21
19686.430429999989
 31
0.0
  0
LINE
  5
3D4F
  8
2-0
  6
CONTINUOUS
 62
     3
 10
5512.4439330000178
 20
19703.931352999989
 30
0.0
 11
5448.9429560000171
 21
19703.931352999989
 31
0.0
  0
LINE
  5
3D50
  8
2-0
  6
CONTINUOUS
 62
     3
 10
5443.9431870000162
 20
19698.93108899998
 30
0.0
 11
5443.9431870000162
 21
19663.933200999989
 31
0.0
  0
LINE
  5
3D51
  8
2-0
  6
CONTINUOUS
 62
     3
 10
5517.443702000015
 20
19668.929505999989
 30
0.0
 11
5517.443702000015
 21
19698.93108899998
 31
0.0
  0
LINE
  5
3D52
  8
2-0
  6
CONTINUOUS
 62
     3
 10
5443.9431870000162
 20
19698.93108899998
 30
0.0
 11
5443.9431870000162
 21
19663.933200999989
 31
0.0
  0
LINE
  5
3D53
  8
2-0
  6
DASHED3
 62
     6
 10
8189.7379780000101
 20
18285.399152999998
 30
0.0
 11
8377.4458270000105
 21
18372.935443999992
 31
0.0
  0
LINE
  5
3D54
  8
2-0
  6
CONTINUOUS
 62
     3
 10
5529.444573000017
 20
18417.93188099999
 30
0.0
 11
7613.6545210000113
 21
18417.93188099999
 31
0.0
  0
LINE
  5
3D55
  8
2-0
  6
CONTINUOUS
 62
     3
 10
5529.444573000017
 20
18327.933068999999
 30
0.0
 11
7771.3142680000128
 21
18327.933068999999
 31
0.0
  0
LINE
  5
3D56
  8
2-0
  6
DASHED3
 62
     6
 10
8457.4441110000134
 20
17688.471365999991
 30
0.0
 11
8457.4441110000134
 21
18327.933068999999
 31
0.0
  0
LINE
  5
3D57
  8
2-0
  6
CONTINUOUS
 62
     3
 10
8400.4468430000088
 20
15500.17437149999
 30
0.0
 11
8400.4468430000088
 21
16868.94098699998
 31
0.0
  0
LINE
  5
3D58
  8
2-0
  6
CONTINUOUS
 62
     3
 10
8514.4443490000122
 20
15500.17437149999
 30
0.0
 11
8514.4443490000122
 21
16868.94098699998
 31
0.0
  0
LINE
  5
3D59
  8
2-0
  6
CONTINUOUS
 62
     3
 10
8514.4443490000122
 20
16958.936829999991
 30
0.0
 11
8514.4443490000122
 21
17554.01058699999
 31
0.0
  0
LINE
  5
3D5A
  8
2-0
  6
CONTINUOUS
 62
     3
 10
8400.4468430000088
 20
16958.936829999991
 30
0.0
 11
8400.4468430000088
 21
17822.936104
 31
0.0
  0
LINE
  5
3D5B
  8
2-0
  6
CONTINUOUS
 62
     3
 10
8457.4441110000134
 20
16958.936829999991
 30
0.0
 11
8457.4441110000134
 21
17688.471365999991
 31
0.0
  0
LINE
  5
3D5C
  8
2-0
  6
CONTINUOUS
 62
     3
 10
8457.4441110000134
 20
15500.17437149999
 30
0.0
 11
8457.4441110000134
 21
16868.94098699998
 31
0.0
  0
LINE
  5
3D5D
  8
2-0
  6
CONTINUOUS
 62
     3
 10
8457.4441110000134
 20
13959.43411099999
 30
0.0
 11
8457.4441110000134
 21
13803.43419099998
 31
0.0
  0
LINE
  5
3D5E
  8
2-0
  6
CONTINUOUS
 62
     3
 10
8457.4441110000134
 20
14038.432738999991
 30
0.0
 11
8457.4441110000134
 21
13959.43411099999
 31
0.0
  0
LINE
  5
3D5F
  8
2-0
  6
CONTINUOUS
 62
     6
 10
5619.2587950000161
 20
18942.836151999982
 30
0.0
 11
5529.444573000017
 21
19077.91058199999
 31
0.0
  0
LINE
  5
3D60
  8
2-0
  6
CONTINUOUS
 62
     6
 10
5529.444573000017
 20
19077.91058199999
 30
0.0
 11
5570.5987640000167
 21
18921.00799999998
 31
0.0
  0
LINE
  5
3D61
  8
2-0
  6
CONTINUOUS
 62
     6
 10
5619.2587950000161
 20
18942.836151999982
 30
0.0
 11
5570.5987640000167
 21
18921.00799999998
 31
0.0
  0
LINE
  5
3D62
  8
2-0
  6
CONTINUOUS
 62
     6
 10
5570.5987640000167
 20
18921.00799999998
 30
0.0
 11
5529.444573000017
 21
19077.91058199999
 31
0.0
  0
LINE
  5
3D63
  8
2-0
  6
CONTINUOUS
 62
     6
 10
5529.444573000017
 20
19077.91058199999
 30
0.0
 11
5619.2587950000161
 21
18942.836151999982
 31
0.0
  0
LINE
  5
3D64
  8
2-0
  6
CONTINUOUS
 62
     6
 10
5619.2587950000161
 20
18942.836151999982
 30
0.0
 11
5529.444573000017
 21
19077.91058199999
 31
0.0
  0
LINE
  5
3D65
  8
2-0
  6
CONTINUOUS
 62
     6
 10
5570.5987640000167
 20
18921.00799999998
 30
0.0
 11
5529.444573000017
 21
19077.91058199999
 31
0.0
  0
LINE
  5
3D66
  8
2-0
  6
CONTINUOUS
 62
     6
 10
5570.5987640000167
 20
18921.00799999998
 30
0.0
 11
5619.2587950000161
 21
18942.836151999982
 31
0.0
  0
LINE
  5
3D67
  8
2-0
  6
CONTINUOUS
 62
     6
 10
5424.4959420000159
 20
14380.9664435
 30
0.0
 11
5446.9431870000162
 21
14541.613283500001
 31
0.0
  0
LINE
  5
3D68
  8
2-0
  6
CONTINUOUS
 62
     6
 10
5446.9431870000162
 20
14541.613283500001
 30
0.0
 11
5373.6099420000137
 21
14396.929281500001
 31
0.0
  0
LINE
  5
3D69
  8
2-0
  6
CONTINUOUS
 62
     6
 10
5424.4959420000159
 20
14380.9664435
 30
0.0
 11
5373.6099420000137
 21
14396.929281500001
 31
0.0
  0
LINE
  5
3D6A
  8
2-0
  6
CONTINUOUS
 62
     6
 10
5373.6099420000137
 20
14396.929281500001
 30
0.0
 11
5446.9431870000162
 21
14541.613283500001
 31
0.0
  0
LINE
  5
3D6B
  8
2-0
  6
CONTINUOUS
 62
     6
 10
5446.9431870000162
 20
14541.613283500001
 30
0.0
 11
5424.4959420000159
 21
14380.9664435
 31
0.0
  0
LINE
  5
3D6C
  8
2-0
  6
CONTINUOUS
 62
     6
 10
5424.4959420000159
 20
14380.9664435
 30
0.0
 11
5446.9431870000162
 21
14541.613283500001
 31
0.0
  0
LINE
  5
3D6D
  8
2-0
  6
CONTINUOUS
 62
     6
 10
5373.6099420000137
 20
14396.929281500001
 30
0.0
 11
5446.9431870000162
 21
14541.613283500001
 31
0.0
  0
LINE
  5
3D6E
  8
2-0
  6
CONTINUOUS
 62
     6
 10
5373.6099420000137
 20
14396.929281500001
 30
0.0
 11
5424.4959420000159
 21
14380.9664435
 31
0.0
  0
LINE
  5
3D6F
  8
2-0
  6
CONTINUOUS
 62
     6
 10
6946.8670490000122
 20
13680.88714399998
 30
0.0
 11
6840.5970890000099
 21
13803.43419099998
 31
0.0
  0
LINE
  5
3D70
  8
2-0
  6
CONTINUOUS
 62
     6
 10
6840.5970890000099
 20
13803.43419099998
 30
0.0
 11
6901.3762270000097
 21
13653.04521499998
 31
0.0
  0
LINE
  5
3D71
  8
2-0
  6
CONTINUOUS
 62
     6
 10
6946.8670490000122
 20
13680.88714399998
 30
0.0
 11
6901.3762270000097
 21
13653.04521499998
 31
0.0
  0
LINE
  5
3D72
  8
2-0
  6
CONTINUOUS
 62
     6
 10
6901.3762270000097
 20
13653.04521499998
 30
0.0
 11
6840.5970890000099
 21
13803.43419099998
 31
0.0
  0
LINE
  5
3D73
  8
2-0
  6
CONTINUOUS
 62
     6
 10
6840.5970890000099
 20
13803.43419099998
 30
0.0
 11
6946.8670490000122
 21
13680.88714399998
 31
0.0
  0
LINE
  5
3D74
  8
2-0
  6
CONTINUOUS
 62
     6
 10
6946.8670490000122
 20
13680.88714399998
 30
0.0
 11
6840.5970890000099
 21
13803.43419099998
 31
0.0
  0
LINE
  5
3D75
  8
2-0
  6
CONTINUOUS
 62
     6
 10
6901.3762270000097
 20
13653.04521499998
 30
0.0
 11
6840.5970890000099
 21
13803.43419099998
 31
0.0
  0
LINE
  5
3D76
  8
2-0
  6
CONTINUOUS
 62
     6
 10
6901.3762270000097
 20
13653.04521499998
 30
0.0
 11
6946.8670490000122
 21
13680.88714399998
 31
0.0
  0
LINE
  5
3D77
  8
2-0
  6
CONTINUOUS
 62
     6
 10
6641.4416830000118
 20
14183.24124049999
 30
0.0
 11
6558.7745130000112
 21
14038.432738999991
 31
0.0
  0
LINE
  5
3D78
  8
2-0
  6
CONTINUOUS
 62
     6
 10
6558.7745130000112
 20
14038.432738999991
 30
0.0
 11
6682.2346120000102
 21
14148.8876845
 31
0.0
  0
LINE
  5
3D79
  8
2-0
  6
CONTINUOUS
 62
     6
 10
6641.4416830000118
 20
14183.24124049999
 30
0.0
 11
6682.2346120000102
 21
14148.8876845
 31
0.0
  0
LINE
  5
3D7A
  8
2-0
  6
CONTINUOUS
 62
     6
 10
6682.2346120000102
 20
14148.8876845
 30
0.0
 11
6558.7745130000112
 21
14038.432738999991
 31
0.0
  0
LINE
  5
3D7B
  8
2-0
  6
CONTINUOUS
 62
     6
 10
6558.7745130000112
 20
14038.432738999991
 30
0.0
 11
6641.4416830000118
 21
14183.24124049999
 31
0.0
  0
LINE
  5
3D7C
  8
2-0
  6
CONTINUOUS
 62
     6
 10
6641.4416830000118
 20
14183.24124049999
 30
0.0
 11
6558.7745130000112
 21
14038.432738999991
 31
0.0
  0
LINE
  5
3D7D
  8
2-0
  6
CONTINUOUS
 62
     6
 10
6682.2346120000102
 20
14148.8876845
 30
0.0
 11
6558.7745130000112
 21
14038.432738999991
 31
0.0
  0
LINE
  5
3D7E
  8
2-0
  6
CONTINUOUS
 62
     6
 10
6682.2346120000102
 20
14148.8876845
 30
0.0
 11
6641.4416830000118
 21
14183.24124049999
 31
0.0
  0
LINE
  5
3D7F
  8
2-0
  6
CONTINUOUS
 62
     6
 10
8368.1034890000083
 20
15848.44571099998
 30
0.0
 11
8400.4468430000088
 21
15689.49234899998
 31
0.0
  0
LINE
  5
3D80
  8
2-0
  6
CONTINUOUS
 62
     6
 10
8400.4468430000088
 20
15689.49234899998
 30
0.0
 11
8318.3007810000108
 21
15829.363151999971
 31
0.0
  0
LINE
  5
3D81
  8
2-0
  6
CONTINUOUS
 62
     6
 10
8368.1034890000083
 20
15848.44571099998
 30
0.0
 11
8318.3007810000108
 21
15829.363151999971
 31
0.0
  0
LINE
  5
3D82
  8
2-0
  6
CONTINUOUS
 62
     6
 10
8318.3007810000108
 20
15829.363151999971
 30
0.0
 11
8400.4468430000088
 21
15689.49234899998
 31
0.0
  0
LINE
  5
3D83
  8
2-0
  6
CONTINUOUS
 62
     6
 10
8400.4468430000088
 20
15689.49234899998
 30
0.0
 11
8368.1034890000083
 21
15848.44571099998
 31
0.0
  0
LINE
  5
3D84
  8
2-0
  6
CONTINUOUS
 62
     6
 10
8368.1034890000083
 20
15848.44571099998
 30
0.0
 11
8400.4468430000088
 21
15689.49234899998
 31
0.0
  0
LINE
  5
3D85
  8
2-0
  6
CONTINUOUS
 62
     6
 10
8318.3007810000108
 20
15829.363151999971
 30
0.0
 11
8400.4468430000088
 21
15689.49234899998
 31
0.0
  0
LINE
  5
3D86
  8
2-0
  6
CONTINUOUS
 62
     6
 10
8318.3007810000108
 20
15829.363151999971
 30
0.0
 11
8368.1034890000083
 21
15848.44571099998
 31
0.0
  0
LINE
  5
3D87
  8
2-0
  6
CONTINUOUS
 62
     6
 10
6490.7414290000143
 20
15813.81700299998
 30
0.0
 11
6330.4444680000133
 21
15838.67183799998
 31
0.0
  0
LINE
  5
3D88
  8
2-0
  6
CONTINUOUS
 62
     6
 10
6330.4444680000133
 20
15838.67183799998
 30
0.0
 11
6474.0110320000103
 21
15763.17200999998
 31
0.0
  0
LINE
  5
3D89
  8
2-0
  6
CONTINUOUS
 62
     6
 10
6490.7414290000143
 20
15813.81700299998
 30
0.0
 11
6474.0110320000103
 21
15763.17200999998
 31
0.0
  0
LINE
  5
3D8A
  8
2-0
  6
CONTINUOUS
 62
     6
 10
6474.0110320000103
 20
15763.17200999998
 30
0.0
 11
6330.4444680000133
 21
15838.67183799998
 31
0.0
  0
LINE
  5
3D8B
  8
2-0
  6
CONTINUOUS
 62
     6
 10
6330.4444680000133
 20
15838.67183799998
 30
0.0
 11
6490.7414290000143
 21
15813.81700299998
 31
0.0
  0
LINE
  5
3D8C
  8
2-0
  6
CONTINUOUS
 62
     6
 10
6490.7414290000143
 20
15813.81700299998
 30
0.0
 11
6330.4444680000133
 21
15838.67183799998
 31
0.0
  0
LINE
  5
3D8D
  8
2-0
  6
CONTINUOUS
 62
     6
 10
6474.0110320000103
 20
15763.17200999998
 30
0.0
 11
6330.4444680000133
 21
15838.67183799998
 31
0.0
  0
LINE
  5
3D8E
  8
2-0
  6
CONTINUOUS
 62
     6
 10
6474.0110320000103
 20
15763.17200999998
 30
0.0
 11
6490.7414290000143
 21
15813.81700299998
 31
0.0
  0
LINE
  5
3D8F
  8
2-0
  6
CONTINUOUS
 62
     6
 10
6056.7973040000097
 20
18169.161821999991
 30
0.0
 11
6023.5938490000099
 21
18327.933068999999
 31
0.0
  0
LINE
  5
3D90
  8
2-0
  6
CONTINUOUS
 62
     6
 10
6023.5938490000099
 20
18327.933068999999
 30
0.0
 11
6106.4955920000139
 21
18188.515574999979
 31
0.0
  0
LINE
  5
3D91
  8
2-0
  6
CONTINUOUS
 62
     6
 10
6056.7973040000097
 20
18169.161821999991
 30
0.0
 11
6106.4955920000139
 21
18188.515574999979
 31
0.0
  0
LINE
  5
3D92
  8
2-0
  6
CONTINUOUS
 62
     6
 10
6106.4955920000139
 20
18188.515574999979
 30
0.0
 11
6023.5938490000099
 21
18327.933068999999
 31
0.0
  0
LINE
  5
3D93
  8
2-0
  6
CONTINUOUS
 62
     6
 10
6023.5938490000099
 20
18327.933068999999
 30
0.0
 11
6056.7973040000097
 21
18169.161821999991
 31
0.0
  0
LINE
  5
3D94
  8
2-0
  6
CONTINUOUS
 62
     6
 10
6056.7973040000097
 20
18169.161821999991
 30
0.0
 11
6023.5938490000099
 21
18327.933068999999
 31
0.0
  0
LINE
  5
3D95
  8
2-0
  6
CONTINUOUS
 62
     6
 10
6106.4955920000139
 20
18188.515574999979
 30
0.0
 11
6023.5938490000099
 21
18327.933068999999
 31
0.0
  0
LINE
  5
3D96
  8
2-0
  6
CONTINUOUS
 62
     6
 10
6106.4955920000139
 20
18188.515574999979
 30
0.0
 11
6056.7973040000097
 21
18169.161821999991
 31
0.0
  0
LINE
  5
3D97
  8
2-0
  6
CONTINUOUS
 62
     6
 10
5567.2810910000153
 20
19857.50636399995
 30
0.0
 11
5526.888520000015
 21
19700.41176899998
 31
0.0
  0
LINE
  5
3D98
  8
2-0
  6
CONTINUOUS
 62
     6
 10
5526.888520000015
 20
19700.41176899998
 30
0.0
 11
5616.044552000013
 21
19835.917733999981
 31
0.0
  0
LINE
  5
3D99
  8
2-0
  6
CONTINUOUS
 62
     6
 10
5567.2810910000153
 20
19857.50636399995
 30
0.0
 11
5616.044552000013
 21
19835.917733999981
 31
0.0
  0
LINE
  5
3D9A
  8
2-0
  6
CONTINUOUS
 62
     6
 10
5616.044552000013
 20
19835.917733999981
 30
0.0
 11
5526.888520000015
 21
19700.41176899998
 31
0.0
  0
LINE
  5
3D9B
  8
2-0
  6
CONTINUOUS
 62
     6
 10
5526.888520000015
 20
19700.41176899998
 30
0.0
 11
5567.2810910000153
 21
19857.50636399995
 31
0.0
  0
LINE
  5
3D9C
  8
2-0
  6
CONTINUOUS
 62
     6
 10
5567.2810910000153
 20
19857.50636399995
 30
0.0
 11
5526.888520000015
 21
19700.41176899998
 31
0.0
  0
LINE
  5
3D9D
  8
2-0
  6
CONTINUOUS
 62
     6
 10
5616.044552000013
 20
19835.917733999981
 30
0.0
 11
5526.888520000015
 21
19700.41176899998
 31
0.0
  0
LINE
  5
3D9E
  8
2-0
  6
CONTINUOUS
 62
     6
 10
5616.044552000013
 20
19835.917733999981
 30
0.0
 11
5567.2810910000153
 21
19857.50636399995
 31
0.0
  0
LINE
  5
3D9F
  8
2-0
  6
CONTINUOUS
 62
     6
 10
7589.5222100000137
 20
19428.057725999992
 30
0.0
 11
7577.0190760000132
 21
19266.333036999989
 31
0.0
  0
LINE
  5
3DA0
  8
2-0
  6
CONTINUOUS
 62
     6
 10
7577.0190760000132
 20
19266.333036999989
 30
0.0
 11
7641.2950340000089
 21
19415.258158999979
 31
0.0
  0
LINE
  5
3DA1
  8
2-0
  6
CONTINUOUS
 62
     6
 10
7589.5222100000137
 20
19428.057725999992
 30
0.0
 11
7641.2950340000089
 21
19415.258158999979
 31
0.0
  0
LINE
  5
3DA2
  8
2-0
  6
CONTINUOUS
 62
     6
 10
7641.2950340000089
 20
19415.258158999979
 30
0.0
 11
7577.0190760000132
 21
19266.333036999989
 31
0.0
  0
LINE
  5
3DA3
  8
2-0
  6
CONTINUOUS
 62
     6
 10
7577.0190760000132
 20
19266.333036999989
 30
0.0
 11
7589.5222100000137
 21
19428.057725999992
 31
0.0
  0
LINE
  5
3DA4
  8
2-0
  6
CONTINUOUS
 62
     6
 10
7589.5222100000137
 20
19428.057725999992
 30
0.0
 11
7577.0190760000132
 21
19266.333036999989
 31
0.0
  0
LINE
  5
3DA5
  8
2-0
  6
CONTINUOUS
 62
     6
 10
7641.2950340000089
 20
19415.258158999979
 30
0.0
 11
7577.0190760000132
 21
19266.333036999989
 31
0.0
  0
LINE
  5
3DA6
  8
2-0
  6
CONTINUOUS
 62
     6
 10
7641.2950340000089
 20
19415.258158999979
 30
0.0
 11
7589.5222100000137
 21
19428.057725999992
 31
0.0
  0
LINE
  5
3DA7
  8
2-0
  6
DASHED3
 62
     6
 10
11345.44394000001
 20
18327.933068999999
 30
0.0
 11
11345.44394000001
 21
18417.93188099999
 31
0.0
  0
LINE
  5
3DA8
  8
2-0
  6
CONTINUOUS
 62
     3
 10
11355.444468000011
 20
15410.1755595
 30
0.0
 11
11355.444468000011
 21
15500.17437149999
 31
0.0
  0
LINE
  5
3DA9
  8
2-0
  6
DASHED3
 62
     6
 10
11345.44394000001
 20
16868.94098699998
 30
0.0
 11
11345.44394000001
 21
16958.936829999991
 31
0.0
  0
LINE
  5
3DAA
  8
2-0
  6
CONTINUOUS
 62
     3
 10
14340.947081
 20
19663.933200999989
 30
0.0
 11
14290.445603
 21
19663.933200999989
 31
0.0
  0
LINE
  5
3DAB
  8
2-0
  6
CONTINUOUS
 62
     3
 10
14340.947081
 20
19686.430429999989
 30
0.0
 11
14358.945854000011
 21
19686.430429999989
 31
0.0
  0
LINE
  5
3DAC
  8
2-0
  6
CONTINUOUS
 62
     3
 10
14290.445603
 20
19703.931352999989
 30
0.0
 11
14353.94559000001
 21
19703.931352999989
 31
0.0
  0
LINE
  5
3DAD
  8
2-0
  6
CONTINUOUS
 62
     3
 10
14285.446329
 20
19668.929505999989
 30
0.0
 11
14285.446329
 21
19698.93108899998
 31
0.0
  0
LINE
  5
3DAE
  8
2-0
  6
DASHED3
 62
     6
 10
11425.441235
 20
16913.935443999992
 30
0.0
 11
14203.444732000011
 21
15455.175955500001
 31
0.0
  0
LINE
  5
3DAF
  8
2-0
  6
CENTER2
 62
     6
 10
14492.243625999999
 20
15455.175955500001
 30
0.0
 11
9976.1505620000007
 21
15455.175955500001
 31
0.0
  0
LINE
  5
3DB0
  8
2-0
  6
DASHED3
 62
     6
 10
14203.444732000011
 20
18372.935443999992
 30
0.0
 11
11425.441235
 21
16913.935443999992
 31
0.0
  0
LINE
  5
3DB1
  8
2-0
  6
DASHED3
 62
     6
 10
14203.444732000011
 20
16913.935443999992
 30
0.0
 11
11613.151063999991
 21
18285.399152999998
 31
0.0
  0
LINE
  5
3DB2
  8
2-0
  6
DASHED3
 62
     6
 10
11613.151063999991
 20
18285.399152999998
 30
0.0
 11
11425.441235
 21
18372.935443999992
 31
0.0
  0
LINE
  5
3DB3
  8
2-0
  6
DASHED3
 62
     6
 10
14273.444468000011
 20
18417.93188099999
 30
0.0
 11
12189.23551
 21
18417.93188099999
 31
0.0
  0
LINE
  5
3DB4
  8
2-0
  6
DASHED3
 62
     6
 10
14273.444468000011
 20
18327.933068999999
 30
0.0
 11
12031.57675200001
 21
18327.933068999999
 31
0.0
  0
LINE
  5
3DB5
  8
2-0
  6
DASHED3
 62
     6
 10
11345.44394000001
 20
16958.936829999991
 30
0.0
 11
11345.44394000001
 21
17688.471365999991
 31
0.0
  0
LINE
  5
3DB6
  8
2-0
  6
CONTINUOUS
 62
     3
 10
11355.444468000011
 20
13959.43411099999
 30
0.0
 11
11355.444468000011
 21
13803.43419099998
 31
0.0
  0
LINE
  5
3DB7
  8
2-0
  6
CONTINUOUS
 62
     3
 10
11355.444468000011
 20
14038.432738999991
 30
0.0
 11
11355.444468000011
 21
13959.43411099999
 31
0.0
  0
LINE
  5
3DB8
  8
2-0
  6
CENTER2
 62
     6
 10
5310.6469000000179
 20
18372.935443999992
 30
0.0
 11
9901.4445210000122
 21
18372.935443999992
 31
0.0
  0
LINE
  5
3DB9
  8
2-0
  6
CENTER2
 62
     6
 10
14492.243625999999
 20
18372.935443999992
 30
0.0
 11
9901.4445210000122
 21
18372.935443999992
 31
0.0
  0
LINE
  5
3DBA
  8
2-0
  6
CONTINUOUS
 62
     6
 10
6482.3764780000129
 20
15788.495000999979
 30
0.0
 11
6848.7101460000122
 21
15667.515733999981
 31
0.0
  0
LINE
  5
3DBB
  8
2-0
  6
CENTER2
 62
     6
 10
5582.4412340000163
 20
13995.935443999981
 30
0.0
 11
14119.95655600001
 21
13995.935443999981
 31
0.0
  0
LINE
  5
3DBC
  8
2-0
  6
CENTER2
 62
     6
 10
5582.4412340000163
 20
16913.935443999992
 30
0.0
 11
14119.95655600001
 21
16913.935443999992
 31
0.0
  0
LINE
  5
3DBD
  8
2-0
  6
CONTINUOUS
 62
     6
 10
6081.6491700000097
 20
18178.841668000001
 30
0.0
 11
6231.6942040000076
 21
17793.51649899999
 31
0.0
  0
LINE
  5
3DBE
  8
2-0
  6
CONTINUOUS
 62
     3
 10
6778.0591480000112
 20
17759.07089599999
 30
0.0
 11
8377.4458270000105
 21
16913.935443999992
 31
0.0
  0
LINE
  5
3DBF
  8
2-0
  6
CONTINUOUS
 62
     3
 10
7764.0885310000122
 20
18059.989393
 30
0.0
 11
8189.7379780000101
 21
18285.399152999998
 31
0.0
  0
LINE
  5
3DC0
  8
2-0
  6
CONTINUOUS
 62
     3
 10
5599.4428250000183
 20
16913.935443999992
 30
0.0
 11
7260.8008800000089
 21
17793.455133999982
 31
0.0
  0
LINE
  5
3DC1
  8
2-0
  6
CONTINUOUS
 62
     3
 10
5599.4428250000183
 20
18372.935443999992
 30
0.0
 11
6058.81542300001
 21
18136.883792000001
 31
0.0
  0
LINE
  5
3DC2
  8
2-0
  6
CONTINUOUS
 62
     6
 10
6108.1138490000121
 20
16710.166770999971
 30
0.0
 11
6074.9103940000132
 21
16868.94098699998
 31
0.0
  0
LINE
  5
3DC3
  8
2-0
  6
CONTINUOUS
 62
     6
 10
6074.9103940000132
 20
16868.94098699998
 30
0.0
 11
6157.8151060000137
 21
16729.52052399996
 31
0.0
  0
LINE
  5
3DC4
  8
2-0
  6
CONTINUOUS
 62
     6
 10
6108.1138490000121
 20
16710.166770999971
 30
0.0
 11
6157.8151060000137
 21
16729.52052399996
 31
0.0
  0
LINE
  5
3DC5
  8
2-0
  6
CONTINUOUS
 62
     6
 10
6157.8151060000137
 20
16729.52052399996
 30
0.0
 11
6074.9103940000132
 21
16868.94098699998
 31
0.0
  0
LINE
  5
3DC6
  8
2-0
  6
CONTINUOUS
 62
     6
 10
6074.9103940000132
 20
16868.94098699998
 30
0.0
 11
6108.1138490000121
 21
16710.166770999971
 31
0.0
  0
LINE
  5
3DC7
  8
2-0
  6
CONTINUOUS
 62
     6
 10
6108.1138490000121
 20
16710.166770999971
 30
0.0
 11
6074.9103940000132
 21
16868.94098699998
 31
0.0
  0
LINE
  5
3DC8
  8
2-0
  6
CONTINUOUS
 62
     6
 10
6157.8151060000137
 20
16729.52052399996
 30
0.0
 11
6074.9103940000132
 21
16868.94098699998
 31
0.0
  0
LINE
  5
3DC9
  8
2-0
  6
CONTINUOUS
 62
     6
 10
6157.8151060000137
 20
16729.52052399996
 30
0.0
 11
6108.1138490000121
 21
16710.166770999971
 31
0.0
  0
LINE
  5
3DCA
  8
2-0
  6
CONTINUOUS
 62
     6
 10
6132.9662100000132
 20
16719.84463699998
 30
0.0
 11
6231.6942040000076
 21
16466.309876999981
 31
0.0
  0
LINE
  5
3DCB
  8
2-0
  6
CONTINUOUS
 62
     3
 10
5599.4428250000183
 20
16913.935443999992
 30
0.0
 11
6272.8424570000134
 21
16565.45802399996
 31
0.0
  0
LINE
  5
3DCC
  8
2-0
  6
CONTINUOUS
 62
     3
 10
6532.7522570000137
 20
16428.932606999981
 30
0.0
 11
8377.4458270000105
 21
15455.175955500001
 31
0.0
  0
LINE
  5
3DCD
  8
2-0
  6
CONTINUOUS
 62
     3
 10
8377.4458270000105
 20
16913.935443999992
 30
0.0
 11
7883.7548830000133
 21
16654.608612999979
 31
0.0
  0
LINE
  5
3DCE
  8
2-0
  6
CONTINUOUS
 62
     6
 10
6231.6942040000076
 20
16466.309876999981
 30
0.0
 11
8226.1383550000101
 21
16466.309876999981
 31
0.0
  0
LINE
  5
3DCF
  8
2-0
  6
CONTINUOUS
 62
     3
 10
7473.1507670000101
 20
16438.92125799998
 30
0.0
 11
5599.4428250000183
 21
15455.175955500001
 31
0.0
  0
LINE
  5
3DD0
  8
2-0
  6
CONTINUOUS
 62
     6
 10
6056.7973040000097
 20
15278.862215499999
 30
0.0
 11
6023.5938490000099
 21
15437.631482500001
 31
0.0
  0
LINE
  5
3DD1
  8
2-0
  6
CONTINUOUS
 62
     6
 10
6023.5938490000099
 20
15437.631482500001
 30
0.0
 11
6106.4955920000139
 21
15298.215968500001
 31
0.0
  0
LINE
  5
3DD2
  8
2-0
  6
CONTINUOUS
 62
     6
 10
6056.7973040000097
 20
15278.862215499999
 30
0.0
 11
6106.4955920000139
 21
15298.215968500001
 31
0.0
  0
LINE
  5
3DD3
  8
2-0
  6
CONTINUOUS
 62
     6
 10
6106.4955920000139
 20
15298.215968500001
 30
0.0
 11
6023.5938490000099
 21
15437.631482500001
 31
0.0
  0
LINE
  5
3DD4
  8
2-0
  6
CONTINUOUS
 62
     6
 10
6023.5938490000099
 20
15437.631482500001
 30
0.0
 11
6056.7973040000097
 21
15278.862215499999
 31
0.0
  0
LINE
  5
3DD5
  8
2-0
  6
CONTINUOUS
 62
     6
 10
6056.7973040000097
 20
15278.862215499999
 30
0.0
 11
6023.5938490000099
 21
15437.631482500001
 31
0.0
  0
LINE
  5
3DD6
  8
2-0
  6
CONTINUOUS
 62
     6
 10
6106.4955920000139
 20
15298.215968500001
 30
0.0
 11
6023.5938490000099
 21
15437.631482500001
 31
0.0
  0
LINE
  5
3DD7
  8
2-0
  6
CONTINUOUS
 62
     6
 10
6106.4955920000139
 20
15298.215968500001
 30
0.0
 11
6056.7973040000097
 21
15278.862215499999
 31
0.0
  0
LINE
  5
3DD8
  8
2-0
  6
CONTINUOUS
 62
     3
 10
5529.444573000017
 20
16958.936829999991
 30
0.0
 11
9792.6254350000108
 21
16958.936829999991
 31
0.0
  0
LINE
  5
3DD9
  8
2-0
  6
CONTINUOUS
 62
     3
 10
11951.180585
 20
15736.10011399999
 30
0.0
 11
11425.441235
 21
15455.175955500001
 31
0.0
  0
LINE
  5
3DDA
  8
2-0
  6
DASHED3
 62
     6
 10
14203.444732000011
 20
16913.935443999992
 30
0.0
 11
11951.180585
 21
15736.10011399999
 31
0.0
  0
LINE
  5
3DDB
  8
2-0
  6
DASHED3
 62
     6
 10
14273.444468000011
 20
15500.17437149999
 30
0.0
 11
12359.237555000011
 21
15500.17437149999
 31
0.0
  0
LINE
  5
3DDC
  8
2-0
  6
DASHED3
 62
     6
 10
14273.444468000011
 20
15410.1755595
 30
0.0
 11
12518.10184000001
 21
15410.1755595
 31
0.0
  0
LINE
  5
3DDD
  8
2-0
  6
DASHED3
 62
     6
 10
11285.44671100001
 20
16913.935443999992
 30
0.0
 11
10552.070707999999
 21
16528.704301999991
 31
0.0
  0
LINE
  5
3DDE
  8
2-0
  6
CENTER2
 62
     6
 10
5310.6469000000179
 20
15455.175955500001
 30
0.0
 11
9976.1505620000007
 21
15455.175955500001
 31
0.0
  0
LINE
  5
3DDF
  8
2-0
  6
DASHED3
 62
     6
 10
11285.44671100001
 20
18372.935443999992
 30
0.0
 11
11048.301374999999
 21
18248.364339999978
 31
0.0
  0
LINE
  5
3DE0
  8
2-0
  6
CONTINUOUS
 62
     3
 10
9220.3189000000166
 20
17288.143425999991
 30
0.0
 11
8517.4452990000063
 21
16913.935443999992
 31
0.0
  0
LINE
  5
3DE1
  8
2-0
  6
CONTINUOUS
 62
     3
 10
11298.44621
 20
15500.17437149999
 30
0.0
 11
11298.44621
 21
16105.880122999961
 31
0.0
  0
LINE
  5
3DE2
  8
2-0
  6
CONTINUOUS
 62
     3
 10
11412.44668500001
 20
15500.17437149999
 30
0.0
 11
11412.44668500001
 21
16041.299318999971
 31
0.0
  0
LINE
  5
3DE3
  8
2-0
  6
DASHED3
 62
     6
 10
11298.44621
 20
16105.880122999961
 30
0.0
 11
11298.44621
 21
18327.933068999999
 31
0.0
  0
LINE
  5
3DE4
  8
2-0
  6
DASHED3
 62
     6
 10
11412.44668500001
 20
16041.299318999971
 30
0.0
 11
11412.44668500001
 21
18327.933068999999
 31
0.0
  0
LINE
  5
3DE5
  8
2-0
  6
CONTINUOUS
 62
     3
 10
11355.444468000011
 20
15484.8796215
 30
0.0
 11
11355.444468000011
 21
16073.58922599998
 31
0.0
  0
LINE
  5
3DE6
  8
2-0
  6
DASHED3
 62
     6
 10
11355.444468000011
 20
16073.58922599998
 30
0.0
 11
11355.444468000011
 21
18327.933068999999
 31
0.0
  0
LINE
  5
3DE7
  8
2-0
  6
CONTINUOUS
 62
     3
 10
5461.9389910000136
 20
19643.328391999989
 30
0.0
 11
5461.9389910000136
 21
19686.430429999989
 31
0.0
  0
LINE
  5
3DE8
  8
2-0
  6
CONTINUOUS
 62
     3
 10
5699.943478000012
 20
19509.178396999981
 30
0.0
 11
5699.943478000012
 21
19683.931352999989
 31
0.0
  0
LINE
  5
3DE9
  8
2-0
  6
CONTINUOUS
 62
     3
 10
5736.9401850000186
 20
19488.052974999991
 30
0.0
 11
5736.9401850000186
 21
19683.931352999989
 31
0.0
  0
LINE
  5
3DEA
  8
2-0
  6
CONTINUOUS
 62
     3
 10
5909.9412740000098
 20
19395.005703999988
 30
0.0
 11
5909.9412740000098
 21
19683.931352999989
 31
0.0
  0
LINE
  5
3DEB
  8
2-0
  6
CONTINUOUS
 62
     3
 10
5946.9404560000148
 20
19373.882260999992
 30
0.0
 11
5946.940456000013
 21
19683.931352999989
 31
0.0
  0
LINE
  5
3DEC
  8
2-0
  6
CONTINUOUS
 62
     3
 10
6146.9416110000084
 20
19259.715506999961
 30
0.0
 11
6146.9416110000084
 21
19683.931352999989
 31
0.0
  0
LINE
  5
3DED
  8
2-0
  6
CONTINUOUS
 62
     3
 10
6309.9401190000144
 20
19166.662296999992
 30
0.0
 11
6309.9401190000144
 21
19683.931352999989
 31
0.0
  0
LINE
  5
3DEE
  8
2-0
  6
CONTINUOUS
 62
     3
 10
6346.9427650000098
 20
19145.54479299999
 30
0.0
 11
6346.9427650000098
 21
19683.931352999989
 31
0.0
  0
LINE
  5
3DEF
  8
2-0
  6
CONTINUOUS
 62
     3
 10
6509.9412740000134
 20
19052.493562999982
 30
0.0
 11
6509.9412740000134
 21
19683.931352999989
 31
0.0
  0
LINE
  5
3DF0
  8
2-0
  6
CONTINUOUS
 62
     3
 10
6909.9401190000144
 20
18824.150155999989
 30
0.0
 11
6909.9401190000144
 21
19683.931352999989
 31
0.0
  0
LINE
  5
3DF1
  8
2-0
  6
CONTINUOUS
 62
     3
 10
6946.9427650000143
 20
18803.02473399997
 30
0.0
 11
6946.9427650000143
 21
19683.931352999989
 31
0.0
  0
LINE
  5
3DF2
  8
2-0
  6
CONTINUOUS
 62
     3
 10
6546.9409510000123
 20
19031.366160999969
 30
0.0
 11
6546.9409510000141
 21
19683.931353
 31
0.0
  0
LINE
  5
3DF3
  8
2-0
  6
CONTINUOUS
 62
     3
 10
6709.9419340000131
 20
18938.320869999981
 30
0.0
 11
6709.9419340000131
 21
19683.931353
 31
0.0
  0
LINE
  5
3DF4
  8
2-0
  6
CONTINUOUS
 62
     3
 10
6746.9445800000149
 20
18917.20336599998
 30
0.0
 11
6746.9445800000158
 21
19683.931352999989
 31
0.0
  0
LINE
  5
3DF5
  8
2-0
  6
CONTINUOUS
 62
     3
 10
7109.9467180000102
 20
18709.975482999991
 30
0.0
 11
7109.9467180000102
 21
19683.931352999989
 31
0.0
  0
LINE
  5
3DF6
  8
2-0
  6
CONTINUOUS
 62
     3
 10
7146.9463950000127
 20
18688.855999999982
 30
0.0
 11
7146.9463950000127
 21
19683.931352999989
 31
0.0
  0
LINE
  5
3DF7
  8
2-0
  6
CONTINUOUS
 62
     3
 10
7309.9424290000097
 20
18595.808728999978
 30
0.0
 11
7309.9424290000097
 21
19683.931352999989
 31
0.0
  0
LINE
  5
3DF8
  8
2-0
  6
CONTINUOUS
 62
     3
 10
7346.9421060000104
 20
18574.685285999982
 30
0.0
 11
7346.9421060000104
 21
19683.931352999989
 31
0.0
  0
LINE
  5
3DF9
  8
2-0
  6
CONTINUOUS
 62
     3
 10
7509.9430890000094
 20
18477.135322999991
 30
0.0
 11
7509.9430890000094
 21
19683.931353
 31
0.0
  0
LINE
  5
3DFA
  8
2-0
  6
CONTINUOUS
 62
     3
 10
7546.9427650000143
 20
18456.015838999989
 30
0.0
 11
7546.9427650000143
 21
19683.931353
 31
0.0
  0
LINE
  5
3DFB
  8
2-0
  6
CONTINUOUS
 62
     3
 10
7709.9442430000136
 20
18362.964608999991
 30
0.0
 11
7709.9442430000136
 21
19683.931352999989
 31
0.0
  0
LINE
  5
3DFC
  8
2-0
  6
CONTINUOUS
 62
     3
 10
7746.9409510000132
 20
18341.843145999999
 30
0.0
 11
7746.9409510000123
 21
19683.931352999989
 31
0.0
  0
LINE
  5
3DFD
  8
2-0
  6
CONTINUOUS
 62
     3
 10
7909.9424290000097
 20
18248.79191599998
 30
0.0
 11
7909.9424290000097
 21
19683.931352999989
 31
0.0
  0
LINE
  5
3DFE
  8
2-0
  6
CONTINUOUS
 62
     3
 10
7946.9450750000087
 20
18227.672431999988
 30
0.0
 11
7946.9450750000087
 21
19683.931352999989
 31
0.0
  0
LINE
  5
3DFF
  8
2-0
  6
CONTINUOUS
 62
     3
 10
8109.9435840000142
 20
18328.946582999979
 30
0.0
 11
8109.9435840000124
 21
19683.931352999989
 31
0.0
  0
LINE
  5
3E00
  8
2-0
  6
CONTINUOUS
 62
     3
 10
8146.9432600000036
 20
18372.327731999991
 30
0.0
 11
8146.9432600000036
 21
19683.931352999989
 31
0.0
  0
LINE
  5
3E01
  8
2-0
  6
CONTINUOUS
 62
     3
 10
8309.9472130000122
 20
18036.425203999999
 30
0.0
 11
8309.9472130000122
 21
19683.931352999989
 31
0.0
  0
LINE
  5
3E02
  8
2-0
  6
CONTINUOUS
 62
     3
 10
8346.9463950000136
 20
17949.148229999999
 30
0.0
 11
8346.9463950000136
 21
19683.931352999989
 31
0.0
  0
LINE
  5
3E03
  8
2-0
  6
CONTINUOUS
 62
     3
 10
6109.9449030000133
 20
19280.83301099997
 30
0.0
 11
6109.9449030000133
 21
19683.931352999989
 31
0.0
  0
LINE
  5
3E04
  8
2-0
  6
DASHED3
 62
     6
 10
8400.4468430000088
 20
18417.93188099999
 30
0.0
 11
8400.4468430000088
 21
19442.431009999978
 31
0.0
  0
LINE
  5
3E05
  8
2-0
  6
DASHED3
 62
     6
 10
8457.4441110000134
 20
18417.93188099999
 30
0.0
 11
8457.4441110000134
 21
19442.431009999978
 31
0.0
  0
LINE
  5
3E06
  8
2-0
  6
DASHED3
 62
     6
 10
8514.4443490000122
 20
18417.93188099999
 30
0.0
 11
8514.4443490000122
 21
19442.431009999978
 31
0.0
  0
LINE
  5
3E07
  8
2-0
  6
CONTINUOUS
 62
     3
 10
9546.9414460000116
 20
17098.11579199999
 30
0.0
 11
9546.9414460000135
 21
19683.931352999989
 31
0.0
  0
LINE
  5
3E08
  8
2-0
  6
CONTINUOUS
 62
     3
 10
9509.9422640000157
 20
17119.074933999971
 30
0.0
 11
9509.9422640000157
 21
19683.931352999989
 31
0.0
  0
LINE
  5
3E09
  8
2-0
  6
CONTINUOUS
 62
     3
 10
9346.9437550000093
 20
17216.409631999992
 30
0.0
 11
9346.9437550000093
 21
19683.931352999989
 31
0.0
  0
LINE
  5
3E0A
  8
2-0
  6
CONTINUOUS
 62
     3
 10
9309.9435840000115
 20
17237.376692000002
 30
0.0
 11
9309.9435840000115
 21
19683.931352999989
 31
0.0
  0
LINE
  5
3E0B
  8
2-0
  6
CONTINUOUS
 62
     3
 10
9146.9421060000077
 20
17329.713316000001
 30
0.0
 11
9146.9421060000077
 21
19683.931352999989
 31
0.0
  0
LINE
  5
3E0C
  8
2-0
  6
CONTINUOUS
 62
     3
 10
9109.9439140000122
 20
17350.672459000001
 30
0.0
 11
9109.943914000014
 21
19683.931352999989
 31
0.0
  0
LINE
  5
3E0D
  8
2-0
  6
CONTINUOUS
 62
     3
 10
8946.9473840000137
 20
17443.013041999991
 30
0.0
 11
8946.9473840000137
 21
19683.931352999989
 31
0.0
  0
LINE
  5
3E0E
  8
2-0
  6
CONTINUOUS
 62
     3
 10
8909.9412740000116
 20
17463.970205000001
 30
0.0
 11
8909.9412740000134
 21
19683.931352999989
 31
0.0
  0
LINE
  5
3E0F
  8
2-0
  6
CONTINUOUS
 62
     3
 10
8746.9457350000139
 20
17534.817174999978
 30
0.0
 11
8746.9457350000139
 21
19683.931352999989
 31
0.0
  0
LINE
  5
3E10
  8
2-0
  6
CONTINUOUS
 62
     3
 10
8709.9465530000089
 20
17491.43998399999
 30
0.0
 11
8709.9465530000089
 21
19683.931352999989
 31
0.0
  0
LINE
  5
3E11
  8
2-0
  6
CONTINUOUS
 62
     3
 10
8546.9450750000105
 20
17477.341853000002
 30
0.0
 11
8546.9450750000105
 21
19683.931352999989
 31
0.0
  0
LINE
  5
3E12
  8
2-0
  6
CONTINUOUS
 62
     3
 10
8509.9399550000162
 20
17564.624766000001
 30
0.0
 11
8509.9399550000126
 21
19683.931352999989
 31
0.0
  0
LINE
  5
3E13
  8
2-0
  6
CONTINUOUS
 62
     3
 10
9746.9450750000087
 20
16984.813096999991
 30
0.0
 11
9746.9450750000087
 21
19683.931352999989
 31
0.0
  0
LINE
  5
3E14
  8
2-0
  6
CONTINUOUS
 62
     3
 10
9709.9439140000104
 20
17005.774218999992
 30
0.0
 11
9709.9439140000104
 21
19683.931352999989
 31
0.0
  0
LINE
  5
3E15
  8
2-0
  6
CONTINUOUS
 62
     3
 10
10346.945075
 20
16644.90798199999
 30
0.0
 11
10346.945075
 21
19683.931352999989
 31
0.0
  0
LINE
  5
3E16
  8
2-0
  6
CONTINUOUS
 62
     3
 10
10309.94292400001
 20
16665.868113999972
 30
0.0
 11
10309.94292400001
 21
19683.931352999989
 31
0.0
  0
LINE
  5
3E17
  8
2-0
  6
CONTINUOUS
 62
     3
 10
10509.943584000001
 20
18298.86185899999
 30
0.0
 11
10509.943584000001
 21
19683.931352999989
 31
0.0
  0
LINE
  5
3E18
  8
2-0
  6
CONTINUOUS
 62
     3
 10
10546.947714
 20
18293.230128999989
 30
0.0
 11
10546.947714
 21
19683.931352999989
 31
0.0
  0
LINE
  5
3E19
  8
2-0
  6
CONTINUOUS
 62
     3
 10
10709.948203000011
 20
18287.59246
 30
0.0
 11
10709.948203000011
 21
19683.931352999989
 31
0.0
  0
LINE
  5
3E1A
  8
2-0
  6
CONTINUOUS
 62
     3
 10
10746.947383999999
 20
18281.960729999992
 30
0.0
 11
10746.947383999999
 21
19683.931352999989
 31
0.0
  0
LINE
  5
3E1B
  8
2-0
  6
CONTINUOUS
 62
     3
 10
10909.945893000009
 20
18287.59246
 30
0.0
 11
10909.945893000009
 21
19683.931352999989
 31
0.0
  0
LINE
  5
3E1C
  8
2-0
  6
CONTINUOUS
 62
     3
 10
10946.950024000011
 20
18287.59246
 30
0.0
 11
10946.950024000011
 21
19683.931352999989
 31
0.0
  0
LINE
  5
3E1D
  8
2-0
  6
CONTINUOUS
 62
     3
 10
11109.951502000011
 20
18281.960729999992
 30
0.0
 11
11109.951502000011
 21
19683.931352999989
 31
0.0
  0
LINE
  5
3E1E
  8
2-0
  6
CONTINUOUS
 62
     3
 10
11146.947714000011
 20
18281.960729999992
 30
0.0
 11
11146.947714000011
 21
19683.931352999989
 31
0.0
  0
LINE
  5
3E1F
  8
2-0
  6
DASHED3
 62
     6
 10
11298.44621
 20
19442.431009999978
 30
0.0
 11
11298.44621
 21
18417.93188099999
 31
0.0
  0
LINE
  5
3E20
  8
2-0
  6
DASHED3
 62
     6
 10
11412.44668500001
 20
19442.431009999978
 30
0.0
 11
11412.44668500001
 21
18417.93188099999
 31
0.0
  0
LINE
  5
3E21
  8
2-0
  6
CONTINUOUS
 62
     3
 10
11309.948203000011
 20
16099.36255799999
 30
0.0
 11
11309.948203000011
 21
19683.931352999989
 31
0.0
  0
LINE
  5
3E22
  8
2-0
  6
CONTINUOUS
 62
     3
 10
11346.95134300001
 20
16078.402425999961
 30
0.0
 11
11346.95134300001
 21
19683.931352999989
 31
0.0
  0
LINE
  5
3E23
  8
2-0
  6
CONTINUOUS
 62
     3
 10
11509.951832000001
 20
15986.059863999981
 30
0.0
 11
11509.951832000001
 21
19683.931352999989
 31
0.0
  0
LINE
  5
3E24
  8
2-0
  6
CONTINUOUS
 62
     3
 10
11546.951013000011
 20
15965.09973099998
 30
0.0
 11
11546.951013000011
 21
19683.931352999989
 31
0.0
  0
LINE
  5
3E25
  8
2-0
  6
CONTINUOUS
 62
     3
 10
11709.951502000011
 20
15872.760137999971
 30
0.0
 11
11709.951502000011
 21
19683.931352999989
 31
0.0
  0
LINE
  5
3E26
  8
2-0
  6
CONTINUOUS
 62
     3
 10
11746.947714000011
 20
15851.79901599999
 30
0.0
 11
11746.947714000011
 21
19683.931352999989
 31
0.0
  0
LINE
  5
3E27
  8
2-0
  6
CONTINUOUS
 62
     3
 10
11909.949192
 20
15759.457442999979
 30
0.0
 11
11909.949192
 21
19683.931352999989
 31
0.0
  0
LINE
  5
3E28
  8
2-0
  6
CONTINUOUS
 62
     3
 10
11946.951343000001
 20
15738.496320999981
 30
0.0
 11
11946.951343000001
 21
19683.931352999989
 31
0.0
  0
LINE
  5
3E29
  8
2-0
  6
CONTINUOUS
 62
     3
 10
12109.951832000001
 20
15646.156727999971
 30
0.0
 11
12109.951832000001
 21
19683.931352999989
 31
0.0
  0
LINE
  5
3E2A
  8
2-0
  6
CONTINUOUS
 62
     3
 10
12146.951013000011
 20
15625.196595999971
 30
0.0
 11
12146.951013000011
 21
19683.931352999989
 31
0.0
  0
LINE
  5
3E2B
  8
2-0
  6
CONTINUOUS
 62
     3
 10
12309.951502000011
 20
15528.094491499991
 30
0.0
 11
12309.951502
 21
19683.931352999989
 31
0.0
  0
LINE
  5
3E2C
  8
2-0
  6
CONTINUOUS
 62
     3
 10
12346.95068300001
 20
15507.1343595
 30
0.0
 11
12346.95068300001
 21
19683.931352999989
 31
0.0
  0
LINE
  5
3E2D
  8
2-0
  6
CONTINUOUS
 62
     3
 10
12509.954141
 20
15414.794766499999
 30
0.0
 11
12509.954141
 21
19683.931352999989
 31
0.0
  0
LINE
  5
3E2E
  8
2-0
  6
CONTINUOUS
 62
     3
 10
12546.95629200001
 20
15393.8336435
 30
0.0
 11
12546.95629200001
 21
19683.931352999989
 31
0.0
  0
LINE
  5
3E2F
  8
2-0
  6
CONTINUOUS
 62
     3
 10
12709.95183200001
 20
15301.492071500001
 30
0.0
 11
12709.95183200001
 21
19683.931352999989
 31
0.0
  0
LINE
  5
3E30
  8
2-0
  6
CONTINUOUS
 62
     3
 10
12746.952003
 20
15280.527979499981
 30
0.0
 11
12746.952003
 21
19683.931352999989
 31
0.0
  0
LINE
  5
3E31
  8
2-0
  6
CONTINUOUS
 62
     3
 10
12909.952491
 20
15188.192345499991
 30
0.0
 11
12909.952491
 21
19683.931352999989
 31
0.0
  0
LINE
  5
3E32
  8
2-0
  6
CONTINUOUS
 62
     3
 10
12946.95068300001
 20
15167.23122349999
 30
0.0
 11
12946.95068300001
 21
19683.931352999989
 31
0.0
  0
LINE
  5
3E33
  8
2-0
  6
CONTINUOUS
 62
     3
 10
13109.954141
 20
15074.88866149999
 30
0.0
 11
13109.954141
 21
19683.931352999989
 31
0.0
  0
LINE
  5
3E34
  8
2-0
  6
CONTINUOUS
 62
     3
 10
13146.955302
 20
15053.9314985
 30
0.0
 11
13146.955302
 21
19683.931352999989
 31
0.0
  0
LINE
  5
3E35
  8
2-0
  6
CONTINUOUS
 62
     3
 10
13309.954801
 20
14961.588935499991
 30
0.0
 11
13309.954801
 21
19683.931352999989
 31
0.0
  0
LINE
  5
3E36
  8
2-0
  6
CONTINUOUS
 62
     3
 10
13346.952993000001
 20
14940.6288035
 30
0.0
 11
13346.952993000001
 21
19683.931352999989
 31
0.0
  0
LINE
  5
3E37
  8
2-0
  6
CONTINUOUS
 62
     3
 10
13509.955461
 20
14848.28921049999
 30
0.0
 11
13509.955461
 21
19683.931352999989
 31
0.0
  0
LINE
  5
3E38
  8
2-0
  6
CONTINUOUS
 62
     3
 10
13546.95365300001
 20
14827.325118500001
 30
0.0
 11
13546.95365300001
 21
19683.931352999989
 31
0.0
  0
LINE
  5
3E39
  8
2-0
  6
CONTINUOUS
 62
     3
 10
13709.95513100001
 20
14734.986515500001
 30
0.0
 11
13709.95513100001
 21
19683.931352999989
 31
0.0
  0
LINE
  5
3E3A
  8
2-0
  6
CONTINUOUS
 62
     3
 10
13746.955302
 20
14714.0253935
 30
0.0
 11
13746.955302
 21
19683.931352999989
 31
0.0
  0
LINE
  5
3E3B
  8
2-0
  6
CONTINUOUS
 62
     3
 10
13946.956952
 20
14600.72566749999
 30
0.0
 11
13946.956952
 21
19683.931352999989
 31
0.0
  0
LINE
  5
3E3C
  8
2-0
  6
CONTINUOUS
 62
     3
 10
13909.954801000011
 20
14621.6838205
 30
0.0
 11
13909.954801000011
 21
19683.931352999989
 31
0.0
  0
LINE
  5
3E3D
  8
2-0
  6
CONTINUOUS
 62
     3
 10
14119.95655600001
 20
14508.383105499999
 30
0.0
 11
14119.95655600001
 21
19683.931352999989
 31
0.0
  0
LINE
  5
3E3E
  8
2-0
  6
CONTINUOUS
 62
     3
 10
14156.955738000001
 20
14487.42297349999
 30
0.0
 11
14156.955738000001
 21
19683.931352999989
 31
0.0
  0
LINE
  5
3E3F
  8
2-0
  6
CONTINUOUS
 62
     3
 10
14358.945854000011
 20
19686.430429999989
 30
0.0
 11
14358.945854000011
 21
19663.933200999989
 31
0.0
  0
LINE
  5
3E40
  8
2-0
  6
CONTINUOUS
 62
     3
 10
14358.945854000011
 20
19686.430429999989
 30
0.0
 11
14358.945854000011
 21
19663.933200999989
 31
0.0
  0
LINE
  5
3E41
  8
2-0
  6
DASHED3
 62
     6
 10
14273.444468000011
 20
19260.501375999978
 30
0.0
 11
14273.444468000011
 21
19527.435496999969
 31
0.0
  0
LINE
  5
3E42
  8
2-0
  6
CENTER2
 62
     6
 10
14273.444468000011
 20
20723.935057999999
 30
0.0
 11
14273.444468000011
 21
18914.432039999981
 31
0.0
  0
LINE
  5
3E43
  8
2-0
  6
CONTINUOUS
 62
     3
 10
10509.943584000001
 20
16552.568388999971
 30
0.0
 11
10509.943584000001
 21
18327.933068999999
 31
0.0
  0
LINE
  5
3E44
  8
2-0
  6
CONTINUOUS
 62
     3
 10
10546.947714
 20
16531.607265999992
 30
0.0
 11
10546.947714
 21
18327.933068999999
 31
0.0
  0
LINE
  5
3E45
  8
2-0
  6
CONTINUOUS
 62
     3
 10
10746.947383999999
 20
16418.30457199999
 30
0.0
 11
10746.947383999999
 21
18327.933068999999
 31
0.0
  0
LINE
  5
3E46
  8
2-0
  6
CONTINUOUS
 62
     3
 10
10709.948203000011
 20
16439.265693999969
 30
0.0
 11
10709.948203000011
 21
18327.933068999999
 31
0.0
  0
LINE
  5
3E47
  8
2-0
  6
CONTINUOUS
 62
     3
 10
10909.945893000009
 20
16325.96596799998
 30
0.0
 11
10909.945893000009
 21
18327.933068999999
 31
0.0
  0
LINE
  5
3E48
  8
2-0
  6
CONTINUOUS
 62
     3
 10
10946.950024000011
 20
16305.004845999971
 30
0.0
 11
10946.950024000011
 21
18327.933068999999
 31
0.0
  0
LINE
  5
3E49
  8
2-0
  6
CONTINUOUS
 62
     3
 10
11109.951502000011
 20
16212.66228399998
 30
0.0
 11
11109.951502000011
 21
18327.933068999999
 31
0.0
  0
LINE
  5
3E4A
  8
2-0
  6
CONTINUOUS
 62
     3
 10
11146.947714000011
 20
16191.70215099999
 30
0.0
 11
11146.947714000011
 21
18327.933068999999
 31
0.0
  0
LINE
  5
3E4B
  8
2-0
  6
CONTINUOUS
 62
     3
 10
6769.9545040000112
 20
14464.0418895
 30
0.0
 11
5599.4373810000134
 21
13995.935443999981
 31
0.0
  0
LINE
  5
3E4C
  8
2-0
  6
CONTINUOUS
 62
     3
 10
7474.912043000013
 20
14361.142554499989
 30
0.0
 11
8377.4398890000139
 21
13995.935443999981
 31
0.0
  0
LINE
  5
3E4D
  8
2-0
  6
DASHED3
 62
     6
 10
6856.0229820000104
 20
18854.931669999991
 30
0.0
 11
8377.4428580000094
 21
19481.429505999989
 31
0.0
  0
LINE
  5
3E4E
  8
2-0
  6
CONTINUOUS
 62
     3
 10
5599.4428250000183
 20
18372.935443999992
 30
0.0
 11
6862.8567750000111
 21
18851.028058999989
 31
0.0
  0
LINE
  5
3E4F
  8
2-0
  6
DASHED3
 62
     6
 10
6104.2785310000099
 20
19284.06952399997
 30
0.0
 11
8377.4428580000094
 21
18372.935443999992
 31
0.0
  0
LINE
  5
3E50
  8
2-0
  6
CONTINUOUS
 62
     3
 10
5599.4428250000183
 20
19481.429505999989
 30
0.0
 11
6104.2785310000099
 21
19284.06952399997
 31
0.0
  0
LINE
  5
3E51
  8
2-0
  6
CONTINUOUS
 62
     3
 10
5486.9408450000192
 20
19527.435496999969
 30
0.0
 11
5667.9579220000169
 21
19527.435496999969
 31
0.0
  0
LINE
  5
3E52
  8
2-0
  6
CONTINUOUS
 62
     3
 10
5529.444573000017
 20
19442.431009999978
 30
0.0
 11
5826.8653330000134
 21
19442.431009999978
 31
0.0
  0
LINE
  5
3E53
  8
2-0
  6
DASHED3
 62
     6
 10
11452.335964000011
 20
19470.702494999969
 30
0.0
 11
14203.444732000011
 21
18372.935443999992
 31
0.0
  0
LINE
  5
3E54
  8
2-0
  6
DASHED3
 62
     6
 10
14203.444732000011
 20
19481.429505999989
 30
0.0
 11
11425.441235
 21
18372.935443999992
 31
0.0
  0
LINE
  5
3E55
  8
2-0
  6
CONTINUOUS
 62
     3
 10
10013.400153000001
 20
17167.646381999992
 30
0.0
 11
9855.5177100000165
 21
17291.730314
 31
0.0
  0
LINE
  5
3E56
  8
2-0
  6
CONTINUOUS
 62
     3
 10
10401.364020000001
 20
17255.774337999999
 30
0.0
 11
10155.518700000001
 21
17441.21563899998
 31
0.0
  0
LINE
  5
3E57
  8
2-0
  6
CONTINUOUS
 62
     3
 10
10155.518700000001
 20
16366.336269999971
 30
0.0
 11
9795.4165570000114
 21
16637.96481999999
 31
0.0
  0
LINE
  5
3E58
  8
2-0
  6
CONTINUOUS
 62
     3
 10
9795.4165570000114
 20
16637.96481999999
 30
0.0
 11
10401.364020000001
 21
17255.774337999999
 31
0.0
  0
LINE
  5
3E59
  8
2-0
  6
CONTINUOUS
 62
     3
 10
9855.5177100000165
 20
16216.85094499998
 30
0.0
 11
9407.4467510000104
 21
16554.832957999992
 31
0.0
  0
LINE
  5
3E5A
  8
2-0
  6
CONTINUOUS
 62
     3
 10
10013.400153000001
 20
17167.646381999992
 30
0.0
 11
9407.4467510000104
 21
16554.832957999992
 31
0.0
  0
LINE
  5
3E5B
  8
2-0
  6
CONTINUOUS
 62
     3
 10
9855.5177100000165
 20
17291.730314
 30
0.0
 11
9855.5177100000165
 21
19825.143214999978
 31
0.0
  0
LINE
  5
3E5C
  8
2-0
  6
CONTINUOUS
 62
     3
 10
5517.4437020000159
 20
19683.931353
 30
0.0
 11
9855.5177100000165
 21
19683.931352999989
 31
0.0
  0
LINE
  5
3E5D
  8
2-0
  6
CONTINUOUS
 62
     3
 10
10155.518700000001
 20
17441.21563899998
 30
0.0
 11
10155.518700000001
 21
19630.65353499995
 31
0.0
  0
LINE
  5
3E5E
  8
2-0
  6
CONTINUOUS
 62
     3
 10
10155.518700000001
 20
19630.65353499995
 30
0.0
 11
10155.518700000001
 21
19825.143214999978
 31
0.0
  0
LINE
  5
3E5F
  8
2-0
  6
CONTINUOUS
 62
     3
 10
14285.446328999989
 20
19683.931352999989
 30
0.0
 11
10155.518700000001
 21
19683.931352999989
 31
0.0
  0
LINE
  5
3E60
  8
2-0
  6
DASHED3
 62
     6
 10
5826.8653330000134
 20
19442.431009999978
 30
0.0
 11
9855.5177100000165
 21
19442.431009999978
 31
0.0
  0
LINE
  5
3E61
  8
2-0
  6
DASHED3
 62
     6
 10
5667.9579220000169
 20
19527.435496999969
 30
0.0
 11
9855.5177100000165
 21
19527.435496999969
 31
0.0
  0
LINE
  5
3E62
  8
2-0
  6
DASHED3
 62
     6
 10
14273.444468000011
 20
19442.431009999978
 30
0.0
 11
10155.518700000001
 21
19442.431009999978
 31
0.0
  0
LINE
  5
3E63
  8
2-0
  6
DASHED3
 62
     6
 10
14315.945722
 20
19527.435496999969
 30
0.0
 11
10155.518700000001
 21
19527.435496999969
 31
0.0
  0
LINE
  5
3E64
  8
2-0
  6
DASHED3
 62
     6
 10
12189.23551
 20
18417.93188099999
 30
0.0
 11
10155.518700000001
 21
18417.93188099999
 31
0.0
  0
LINE
  5
3E65
  8
2-0
  6
DASHED3
 62
     6
 10
12031.57675200001
 20
18327.933068999999
 30
0.0
 11
10155.518700000001
 21
18327.933068999999
 31
0.0
  0
LINE
  5
3E66
  8
2-0
  6
DASHED3
 62
     6
 10
7613.6545210000113
 20
18417.93188099999
 30
0.0
 11
9855.5177100000165
 21
18417.93188099999
 31
0.0
  0
LINE
  5
3E67
  8
2-0
  6
DASHED3
 62
     6
 10
7771.3142680000128
 20
18327.933068999999
 30
0.0
 11
9855.5177100000165
 21
18327.933068999999
 31
0.0
  0
LINE
  5
3E68
  8
2-0
  6
CONTINUOUS
 62
     3
 10
9801.8539510000119
 20
16953.70694199999
 30
0.0
 11
8759.3058490000112
 21
17549.307250999991
 31
0.0
  0
LINE
  5
3E69
  8
2-0
  6
CONTINUOUS
 62
     3
 10
14651.205897000011
 20
14207.4289775
 30
0.0
 11
9997.839157000004
 21
16842.68069299998
 31
0.0
  0
LINE
  5
3E6A
  8
2-0
  6
DASHED3
 62
     6
 10
14273.444468000011
 20
16868.94098699998
 30
0.0
 11
10023.800544000011
 21
16868.94098699998
 31
0.0
  0
LINE
  5
3E6B
  8
2-0
  6
DASHED3
 62
     6
 10
14273.444468000011
 20
16958.936829999991
 30
0.0
 11
10112.791781
 21
16958.936829999991
 31
0.0
  0
LINE
  5
3E6C
  8
2-0
  6
CONTINUOUS
 62
     3
 10
5529.444573000017
 20
16868.94098699998
 30
0.0
 11
9718.0351960000135
 21
16868.94098699998
 31
0.0
  0
LINE
  5
3E6D
  8
2-0
  6
CONTINUOUS
 62
     3
 10
10552.070707999999
 20
16528.704301999991
 30
0.0
 11
10155.518700000001
 21
16320.399561999981
 31
0.0
  0
LINE
  5
3E6E
  8
2-0
  6
CONTINUOUS
 62
     3
 10
10155.518700000001
 20
16053.471378999981
 30
0.0
 11
11285.44671100001
 21
15455.175955500001
 31
0.0
  0
LINE
  5
3E6F
  8
2-0
  6
CONTINUOUS
 62
     3
 10
9855.5177100000165
 20
16162.813056999979
 30
0.0
 11
8517.4452990000063
 21
15455.175955500001
 31
0.0
  0
LINE
  5
3E70
  8
2-0
  6
CONTINUOUS
 62
     3
 10
8517.4452990000063
 20
16913.935443999992
 30
0.0
 11
9855.5177100000165
 21
16211.05887399998
 31
0.0
  0
LINE
  5
3E71
  8
2-0
  6
CONTINUOUS
 62
     3
 10
14358.945854000011
 20
13803.43419099998
 30
0.0
 11
10155.518700000001
 21
13803.43419099998
 31
0.0
  0
LINE
  5
3E72
  8
2-0
  6
CONTINUOUS
 62
     3
 10
14315.945722
 20
13959.43411099999
 30
0.0
 11
10155.518700000001
 21
13959.43411099999
 31
0.0
  0
LINE
  5
3E73
  8
2-0
  6
CONTINUOUS
 62
     3
 10
14273.444468000011
 20
14038.432738999991
 30
0.0
 11
10155.518700000001
 21
14038.432738999991
 31
0.0
  0
LINE
  5
3E74
  8
2-0
  6
CONTINUOUS
 62
     3
 10
12518.10184000001
 20
15410.1755595
 30
0.0
 11
10155.518700000001
 21
15410.1755595
 31
0.0
  0
LINE
  5
3E75
  8
2-0
  6
CONTINUOUS
 62
     3
 10
12359.237555000011
 20
15500.17437149999
 30
0.0
 11
10155.518700000001
 21
15500.17437149999
 31
0.0
  0
LINE
  5
3E76
  8
2-0
  6
CONTINUOUS
 62
     3
 10
5529.444573000017
 20
15410.1755595
 30
0.0
 11
9855.5177100000165
 21
15410.1755595
 31
0.0
  0
LINE
  5
3E77
  8
2-0
  6
CONTINUOUS
 62
     3
 10
5529.444573000017
 20
15500.17437149999
 30
0.0
 11
9855.5177100000165
 21
15500.17437149999
 31
0.0
  0
LINE
  5
3E78
  8
2-0
  6
CONTINUOUS
 62
     3
 10
5529.444573000017
 20
14038.432738999991
 30
0.0
 11
9855.5177100000165
 21
14038.432738999991
 31
0.0
  0
LINE
  5
3E79
  8
2-0
  6
CONTINUOUS
 62
     3
 10
5486.9408450000192
 20
13959.43411099999
 30
0.0
 11
9855.5177100000165
 21
13959.43411099999
 31
0.0
  0
LINE
  5
3E7A
  8
2-0
  6
CONTINUOUS
 62
     3
 10
5443.9431870000162
 20
13835.43409799998
 30
0.0
 11
9855.5177100000165
 21
13835.43409799998
 31
0.0
  0
LINE
  5
3E7B
  8
2-0
  6
CONTINUOUS
 62
     3
 10
5443.9431870000162
 20
13803.43419099998
 30
0.0
 11
9855.5177100000165
 21
13803.43419099998
 31
0.0
  0
LINE
  5
3E7C
  8
2-0
  6
DASHED3
 62
     6
 10
11048.301374999999
 20
18248.36631999999
 30
0.0
 11
10155.518700000001
 21
17779.39659299999
 31
0.0
  0
LINE
  5
3E7D
  8
2-0
  6
DASHED3
 62
     6
 10
11285.44671100001
 20
16913.935443999992
 30
0.0
 11
10155.518700000001
 21
17517.314272
 31
0.0
  0
LINE
  5
3E7E
  8
2-0
  6
DASHED3
 62
     6
 10
9855.5177100000165
 20
17621.809098000002
 30
0.0
 11
9220.3189000000166
 21
17288.143425999991
 31
0.0
  0
LINE
  5
3E7F
  8
2-0
  6
CONTINUOUS
 62
     3
 10
11295.43734199999
 20
15455.175955500001
 30
0.0
 11
10155.518700000001
 21
15000.526066500001
 31
0.0
  0
LINE
  5
3E80
  8
2-0
  6
CONTINUOUS
 62
     3
 10
10155.518700000001
 20
14455.82787649999
 30
0.0
 11
11295.440311
 21
13995.935443999981
 31
0.0
  0
LINE
  5
3E81
  8
2-0
  6
CONTINUOUS
 62
     3
 10
8527.439889000012
 20
15455.1789245
 30
0.0
 11
9855.5177100000165
 21
14925.482516499989
 31
0.0
  0
LINE
  5
3E82
  8
2-0
  6
CONTINUOUS
 62
     3
 10
9855.5177100000165
 20
14530.87439549999
 30
0.0
 11
8527.439889000012
 21
13995.935443999981
 31
0.0
  0
LINE
  5
3E83
  8
2-0
  6
DASHED3
 62
     6
 10
11295.43734199999
 20
19484.62048999999
 30
0.0
 11
10155.518700000001
 21
19029.976538999981
 31
0.0
  0
LINE
  5
3E84
  8
2-0
  6
DASHED3
 62
     6
 10
10155.518700000001
 20
18835.27505099999
 30
0.0
 11
11295.440311
 21
18376.126427999981
 31
0.0
  0
LINE
  5
3E85
  8
2-0
  6
DASHED3
 62
     6
 10
8527.439889000012
 20
19484.626427999981
 30
0.0
 11
9855.5177100000165
 21
18954.927050999981
 31
0.0
  0
LINE
  5
3E86
  8
2-0
  6
DASHED3
 62
     6
 10
9855.5177100000165
 20
18910.320579999981
 30
0.0
 11
8527.439889000012
 21
18376.126427999981
 31
0.0
  0
LINE
  5
3E87
  8
2-0
  6
DASHED3
 62
     6
 10
9855.5177100000165
 20
17676.188452999992
 30
0.0
 11
8539.8643370000154
 21
18372.935443999992
 31
0.0
  0
LINE
  5
3E88
  8
2-0
  6
CENTER2
 62
     6
 10
11355.444468000011
 20
20723.935057999999
 30
0.0
 11
11355.444468000011
 21
18417.93188099999
 31
0.0
  0
LINE
  5
3E89
  8
2-0
  6
CONTINUOUS
 62
     3
 10
5443.9431870000162
 20
13803.43419099998
 30
0.0
 11
5443.9431870000162
 21
19686.430429999989
 31
0.0
  0
LINE
  5
3E8A
  8
2-0
  6
CONTINUOUS
 62
     3
 10
5486.9408450000192
 20
13959.43411099999
 30
0.0
 11
5486.9408450000192
 21
19527.435496999969
 31
0.0
  0
LINE
  5
3E8B
  8
2-0
  6
CONTINUOUS
 62
     3
 10
5529.444573000017
 20
13959.43411099999
 30
0.0
 11
5529.444573000017
 21
19527.435496999969
 31
0.0
  0
LINE
  5
3E8C
  8
2-0
  6
CONTINUOUS
 62
     3
 10
5579.4412340000163
 20
13835.43409799998
 30
0.0
 11
5579.4412340000172
 21
19683.931353
 31
0.0
  0
LINE
  5
3E8D
  8
2-0
  6
CONTINUOUS
 62
     3
 10
5599.4373810000134
 20
15455.1729865
 30
0.0
 11
6579.3293390000099
 21
15068.3394245
 31
0.0
  0
LINE
  5
3E8E
  8
2-0
  6
CONTINUOUS
 62
     3
 10
8377.4398890000139
 20
15455.1729865
 30
0.0
 11
7293.984540000014
 21
15023.049028499991
 31
0.0
  0
LINE
  5
3E8F
  8
2-0
  6
CONTINUOUS
 62
     3
 10
8400.4468430000088
 20
14038.432738999991
 30
0.0
 11
8400.4468430000088
 21
15410.1755595
 31
0.0
  0
LINE
  5
3E90
  8
2-0
  6
CONTINUOUS
 62
     3
 10
8457.4441110000134
 20
14038.432738999991
 30
0.0
 11
8457.4441110000134
 21
15410.1755595
 31
0.0
  0
LINE
  5
3E91
  8
2-0
  6
CONTINUOUS
 62
     3
 10
8514.4443490000122
 20
14038.432738999991
 30
0.0
 11
8514.4443490000122
 21
15410.1755595
 31
0.0
  0
LINE
  5
3E92
  8
2-0
  6
CONTINUOUS
 62
     3
 10
11298.44621
 20
14038.432738999991
 30
0.0
 11
11298.44621
 21
15410.1755595
 31
0.0
  0
LINE
  5
3E93
  8
2-0
  6
CONTINUOUS
 62
     3
 10
11355.444468000011
 20
14038.432738999991
 30
0.0
 11
11355.444468000011
 21
15410.1755595
 31
0.0
  0
LINE
  5
3E94
  8
2-0
  6
CONTINUOUS
 62
     3
 10
11412.44668500001
 20
14038.432738999991
 30
0.0
 11
11412.44668500001
 21
15410.1755595
 31
0.0
  0
LINE
  5
3E95
  8
2-0
  6
CONTINUOUS
 62
     3
 10
9855.5177100000165
 20
16216.85094499998
 30
0.0
 11
9855.5177100000165
 21
13672.51377999999
 31
0.0
  0
LINE
  5
3E96
  8
2-0
  6
CONTINUOUS
 62
     3
 10
10155.518700000001
 20
16366.336269999971
 30
0.0
 11
10155.518700000001
 21
13672.51377999999
 31
0.0
  0
LINE
  5
3E97
  8
2-0
  6
CONTINUOUS
 62
     3
 10
14358.945854000011
 20
13803.43419099998
 30
0.0
 11
14358.945854000011
 21
19698.93108899998
 31
0.0
  0
LINE
  5
3E98
  8
2-0
  6
CONTINUOUS
 62
     3
 10
14358.945854000011
 20
13835.43409799998
 30
0.0
 11
10155.518700000001
 21
13835.43409799998
 31
0.0
  0
LINE
  5
3E99
  8
2-0
  6
CONTINUOUS
 62
     3
 10
14340.947081
 20
13835.43409799998
 30
0.0
 11
14340.947081
 21
19686.430429999989
 31
0.0
  0
LINE
  5
3E9A
  8
2-0
  6
DASHED3
 62
     6
 10
14273.444468000011
 20
13959.43411099999
 30
0.0
 11
14273.444468000011
 21
19610.50005599999
 31
0.0
  0
LINE
  5
3E9B
  8
2-0
  6
DASHED3
 62
     6
 10
14315.945722
 20
13959.43411099999
 30
0.0
 11
14315.945722
 21
19527.435496999969
 31
0.0
  0
LINE
  5
3E9C
  8
2-0
  6
CONTINUOUS
 62
     3
 10
14223.443848000001
 20
13835.43409799998
 30
0.0
 11
14223.44384799999
 21
19683.931352999989
 31
0.0
  0
LINE
  5
3E9D
  8
0-1
  6
CONTINUOUS
 62
     3
 10
11425.445194000011
 20
15455.175955500001
 30
0.0
 11
14203.445722
 21
13995.93346499998
 31
0.0
  0
LINE
  5
3E9E
  8
0-1
  6
CONTINUOUS
 62
     3
 10
13282.936351999981
 20
14976.895563499989
 30
0.0
 11
11425.445194000011
 21
13995.93346499998
 31
0.0
  0
LINE
  5
3E9F
  8
2-0
  6
DASHED3
 62
     6
 10
14203.445722
 20
15455.175955500001
 30
0.0
 11
13282.936351999981
 21
14976.895563499989
 31
0.0
  0
LINE
  5
3EA0
  8
2-0
  6
CONTINUOUS
 62
     6
 10
6081.6491700000097
 20
15288.5410715
 30
0.0
 11
6283.3076760000113
 21
14770.675256500001
 31
0.0
  0
LINE
  5
3EA1
  8
2-0
  6
CONTINUOUS
 62
     6
 10
6283.3076760000113
 20
14770.675256500001
 30
0.0
 11
8254.1792260000166
 21
14770.675256500001
 31
0.0
  0
CIRCLE
  5
3EA2
  8
0-5
  6
CONTINUOUS
 62
     4
 10
15128.715688
 20
1375.999982
 30
0.0
 40
20.0
  0
ARC
  5
3EA3
  8
0-5
  6
CONTINUOUS
 62
     4
 10
15128.715688
 20
1375.999982
 30
0.0
 40
20.0
 50
180.0
 51
0.0
  0
ARC
  5
3EA4
  8
0-5
  6
CONTINUOUS
 62
     4
 10
15128.715688
 20
1375.999982
 30
0.0
 40
20.0
 50
0.0
 51
179.99998499999839
  0
CIRCLE
  5
3EA5
  8
0-5
  6
CONTINUOUS
 62
     4
 10
15128.715688
 20
1776.000188
 30
0.0
 40
20.0
  0
ARC
  5
3EA6
  8
0-5
  6
CONTINUOUS
 62
     4
 10
15128.715688
 20
1776.000188
 30
0.0
 40
20.0
 50
180.0
 51
0.0
  0
ARC
  5
3EA7
  8
0-5
  6
CONTINUOUS
 62
     4
 10
15128.715688
 20
1776.000188
 30
0.0
 40
20.0
 50
0.0
 51
179.99998499999839
  0
CIRCLE
  5
3EA8
  8
2-0
  6
CONTINUOUS
 62
     4
 10
8447.4445730000134
 20
20923.932410000009
 30
0.0
 40
200.00001
  0
CIRCLE
  5
3EA9
  8
2-0
  6
CONTINUOUS
 62
     4
 10
5529.444573000017
 20
20923.933739
 30
0.0
 40
200.00001
  0
CIRCLE
  5
3EAA
  8
2-0
  6
CONTINUOUS
 62
     4
 10
3999.9447970000151
 20
19481.435443999981
 30
0.0
 40
200.00001
  0
CIRCLE
  5
3EAB
  8
2-0
  6
CONTINUOUS
 62
     4
 10
3999.9447970000151
 20
16913.935443999992
 30
0.0
 40
200.00001
  0
CIRCLE
  5
3EAC
  8
2-0
  6
CONTINUOUS
 62
     4
 10
3999.9447970000151
 20
13995.935443999981
 30
0.0
 40
200.00001
  0
ARC
  5
3EAD
  8
2-0
  6
CONTINUOUS
 62
     3
 10
5448.9429560000171
 20
19698.93108899998
 30
0.0
 40
5.0000019999999941
 50
90.0
 51
180.0
  0
ARC
  5
3EAE
  8
2-0
  6
CONTINUOUS
 62
     3
 10
5512.4439330000178
 20
19698.93108899998
 30
0.0
 40
5.0000019999999941
 50
0.0
 51
90.0
  0
ARC
  5
3EAF
  8
2-0
  6
CONTINUOUS
 62
     3
 10
5512.4439330000178
 20
19668.929505999989
 30
0.0
 40
5.0000019999999941
 50
270.0
 51
0.0
  0
ARC
  5
3EB0
  8
2-0
  6
CONTINUOUS
 62
     3
 10
14353.94559000001
 20
19698.93108899998
 30
0.0
 40
5.0000019999999941
 50
0.0
 51
90.0
  0
ARC
  5
3EB1
  8
2-0
  6
CONTINUOUS
 62
     3
 10
14290.445603
 20
19698.93108899998
 30
0.0
 40
5.0000019999999941
 50
90.0
 51
180.0
  0
ARC
  5
3EB2
  8
2-0
  6
CONTINUOUS
 62
     3
 10
14290.445603
 20
19668.929505999989
 30
0.0
 40
5.0000019999999941
 50
180.0
 51
270.0
  0
CIRCLE
  5
3EB3
  8
2-0
  6
CONTINUOUS
 62
     4
 10
11355.444468000011
 20
20923.933739
 30
0.0
 40
200.00001
  0
CIRCLE
  5
3EB4
  8
2-0
  6
CONTINUOUS
 62
     4
 10
14273.444468000011
 20
20923.933739
 30
0.0
 40
200.00001
  0
TEXT
  5
3EB5
  8
0-5
  6
CONTINUOUS
 62
     7
 10
15288.714237
 20
1256.0002050000001
 30
0.0
 40
160.0
  1
有効高サハ、基礎高サヲ含ミマセン。
  0
TEXT
  5
3EB6
  8
0-5
  6
CONTINUOUS
 62
     7
 10
15176.145943
 20
1656.0000399999999
 30
0.0
 40
160.0
  1
（ ）内寸法ハ、  タ イプヲ示ス。
  0
TEXT
  5
3EB7
  8
0-5
  6
CONTINUOUS
 62
     7
 10
16697.343617999992
 20
1656.0000399999999
 30
0.0
 40
160.0
  1
H
  0
TEXT
  5
3EB8
  8
2-0
  6
CONTINUOUS
 62
     7
 10
6863.2739590000128
 20
15707.51289599998
 30
0.0
 40
160.0
  1
ブレース
 50
0.000266
 72
     4
 11
7225.9402294963011
 21
15792.84791303989
 31
0.0
  0
TEXT
  5
3EB9
  8
2-0
  6
CONTINUOUS
 62
     7
 10
7329.1393050000124
 20
13215.93682999999
 30
0.0
 40
160.0
  1
鼻隠し前
 50
359.99973399999988
 72
     4
 11
7691.8063430688353
 21
13295.935146291629
 31
0.0
  0
TEXT
  5
3EBA
  8
2-0
  6
CONTINUOUS
 62
     7
 10
3882.112222000012
 20
12815.93550999997
 30
0.0
 40
160.0
  1
ケラバ 左
 50
359.99976400000008
 72
     4
 11
4298.1125515146459
 21
12895.933796504851
 31
0.0
  0
TEXT
  5
3EBB
  8
2-0
  6
CONTINUOUS
 62
     7
 10
6867.6942240000126
 20
14395.51887449999
 30
0.0
 40
160.0
  1
桁（前）
 72
     4
 11
7187.6942240000126
 21
14475.51887449999
 31
0.0
  0
TEXT
  5
3EBC
  8
2-0
  6
CONTINUOUS
 62
     7
 10
7839.311226000008
 20
20013.931880999979
 30
0.0
 40
160.0
  1
屋根
 72
     4
 11
8009.977892666675
 21
20093.931880999979
 31
0.0
  0
TEXT
  5
3EBD
  8
2-0
  6
CONTINUOUS
 62
     7
 10
6070.6801620000106
 20
20735.375345999979
 30
0.0
 40
160.0
  1
鼻隠しコーナー後
 72
     4
 11
6817.3468286666784
 21
20815.375345999979
 31
0.0
  0
TEXT
  5
3EBE
  8
2-0
  6
CONTINUOUS
 62
     7
 10
5783.9701550000118
 20
18791.13178599998
 30
0.0
 40
160.0
  1
上枠
 72
     4
 11
5954.6368216666788
 21
18871.13178599998
 31
0.0
  0
TEXT
  5
3EBF
  8
2-0
  6
CONTINUOUS
 62
     7
 10
8395.8167490000124
 20
20828.41469899999
 30
0.0
 40
160.0
  1
2
 50
359.998582
 72
     4
 11
8449.1520622185144
 21
20908.413379041162
 31
0.0
  0
TEXT
  5
3EC0
  8
2-0
  6
CONTINUOUS
 62
     7
 10
5485.2359850000148
 20
20835.174104999998
 30
0.0
 40
160.0
  1
1
 72
     4
 11
5511.9026516666818
 21
20915.174104999998
 31
0.0
  0
TEXT
  5
3EC1
  8
2-0
  6
CONTINUOUS
 62
     7
 10
3951.9427090000149
 20
19386.955001999981
 30
0.0
 40
160.0
  1
C
 50
359.998582
 72
     4
 11
4005.2780222185179
 21
19466.953682041149
 31
0.0
  0
TEXT
  5
3EC2
  8
2-0
  6
CONTINUOUS
 62
     7
 10
3952.1693640000171
 20
16833.542245999979
 30
0.0
 40
160.0
  1
B
 50
0.004253
 72
     4
 11
4005.496758878176
 21
16913.546204651739
 31
0.0
  0
TEXT
  5
3EC3
  8
2-0
  6
CONTINUOUS
 62
     7
 10
3952.2087070000161
 20
13907.327243999969
 30
0.0
 40
160.0
  1
A
 50
359.99787299999991
 72
     4
 11
4005.5450101488532
 21
13987.325264043349
 31
0.0
  0
TEXT
  5
3EC4
  8
2-0
  6
CONTINUOUS
 62
     7
 10
6356.0495410000094
 20
16512.262420999959
 30
0.0
 40
160.0
  1
桁中A + 桁中補強A
 72
     4
 11
7241.3828743333443
 21
16592.262420999959
 31
0.0
  0
TEXT
  5
3EC5
  8
2-0
  6
CONTINUOUS
 62
     7
 10
6423.4056300000093
 20
17855.420003999981
 30
0.0
 40
160.0
  1
桁中B + 桁中補強B
 50
359.99991699999993
 72
     4
 11
7308.739079222275
 21
17935.418721485421
 31
0.0
  0
TEXT
  5
3EC6
  8
2-0
  6
CONTINUOUS
 62
     7
 10
6355.4591490000121
 20
14805.715704499989
 30
0.0
 40
160.0
  1
桁中B + 桁中補強B
 72
     4
 11
7240.792482333346
 21
14885.715704499989
 31
0.0
  0
TEXT
  5
3EC7
  8
2-0
  6
CONTINUOUS
 62
     7
 10
7308.0777220000109
 20
16194.52098599998
 30
0.0
 40
160.0
  1
梁＋梁補強
 50
359.99957499999999
 72
     4
 11
7766.7449820660049
 21
16274.51758376929
 31
0.0
  0
TEXT
  5
3EC8
  8
2-0
  6
CONTINUOUS
 62
     7
 10
14222.03934000001
 20
20843.551427999981
 30
0.0
 40
160.0
  1
n
 72
     4
 11
14275.372673333341
 21
20896.88476133332
 31
0.0
  0
TEXT
  5
3EC9
  8
2-0
  6
CONTINUOUS
 62
     7
 10
11195.49045900001
 20
20856.042189999989
 30
0.0
 40
140.0
  1
n-1
 50
0.000473
 72
     4
 11
11358.823214449259
 21
20926.0435383808
 31
0.0
  0
TEXT
  5
3ECA
  8
2-0
  6
CONTINUOUS
 62
     7
 10
8716.9906700000101
 20
11832.578972999971
 30
0.0
 40
160.0
  1
小 屋 伏 図
 50
359.99961300000001
 72
     4
 11
9218.3245436758443
 21
11912.575586780151
 31
0.0
  0
TEXT
  5
3ED3
  8
0-3
  6
CONTINUOUS
 62
     7
 10
27544.4346805186
 20
3658.1200421350532
 30
0.0
 40
160.0
  1
連結する場合は強度上、下記間口寸法に一ヶ所
  0
TEXT
  5
3ED4
  8
0-3
  6
CONTINUOUS
 62
     7
 10
27544.4346805186
 20
3451.291530856121
 30
0.0
 40
160.0
  1
中間ブレース、もしくは間仕切りが必要になります。
  0
TEXT
  5
3ED5
  8
0-3
  6
CONTINUOUS
 62
     7
 10
27544.4346805186
 20
3124.142197938243
 30
0.0
 40
160.0
  1
標準タイプ：間口寸法 7.00ｍ以内に一箇所
  0
TEXT
  5
3ED6
  8
0-3
  6
CONTINUOUS
 62
     7
 10
27571.745290429761
 20
2873.074148021421
 30
0.0
 40
160.0
  1
Hタイプ　：間口寸法 6.65ｍ以内に一箇所
  0
TEXT
  5
3ED7
  8
2-0
  6
CONTINUOUS
 62
     7
 10
10569.816728813459
 20
11859.770955780141
 30
0.0
 40
160.0
  1
1
 72
     4
 11
10596.483395480131
 21
11939.770955780141
 31
0.0
  0
TEXT
  5
3ED8
  8
2-0
  6
CONTINUOUS
 62
     7
 10
10812.905446064149
 20
11779.772423780139
 30
0.0
 40
160.0
  1
80
 72
     4
 11
10932.905446064149
 21
11859.772423780139
 31
0.0
  0
TEXT
  5
3ED9
  8
2-0
  6
CONTINUOUS
 62
     7
 10
10070.81869481347
 20
11832.575586780151
 30
0.0
 40
160.0
  1
(S=  /   )
 72
     4
 11
10630.81869481347
 21
11912.575586780151
 31
0.0
  0
TEXT
  5
3EDA
  8
0-6
  6
CONTINUOUS
 62
     7
 10
6103.227357144835
 20
20020.51260283959
 30
0.0
 40
160.0
  1
桁後+桁後補強
 72
     4
 11
6737.8940238115028
 21
20100.51260283959
 31
0.0
  0
LINE
  5
3EDB
  8
0-6
  6
CONTINUOUS
 62
     6
 10
7546.9427650000143
 20
19534.014239839591
 30
0.0
 11
7413.5488171187762
 21
19940.514318839581
 31
0.0
  0
LINE
  5
3EDC
  8
0-6
  6
CONTINUOUS
 62
     6
 10
6063.806463549553
 20
19940.514318839581
 30
0.0
 11
7413.5488171187762
 21
19940.514318839581
 31
0.0
  0
LINE
  5
3EDD
  8
0-6
  6
CONTINUOUS
 62
     6
 10
7523.3353096327264
 20
19694.495678264509
 30
0.0
 11
7472.5616658597783
 21
19678.162162079741
 31
0.0
  0
LINE
  5
3EDE
  8
0-6
  6
CONTINUOUS
 62
     6
 10
7523.3353096327264
 20
19694.495678264509
 30
0.0
 11
7546.9427650000143
 21
19534.014239839591
 31
0.0
  0
LINE
  5
3EDF
  8
0-6
  6
CONTINUOUS
 62
     6
 10
7472.5616658597783
 20
19678.162162079741
 30
0.0
 11
7523.3353096327264
 21
19694.495678264509
 31
0.0
  0
LINE
  5
3EE0
  8
0-6
  6
CONTINUOUS
 62
     6
 10
7546.9427650000143
 20
19534.014239839591
 30
0.0
 11
7472.5616658597783
 21
19678.162162079741
 31
0.0
  0
LINE
  5
3EE1
  8
0-6
  6
CONTINUOUS
 62
     6
 10
7546.9427650000143
 20
19534.014239839591
 30
0.0
 11
7523.3353096327264
 21
19694.495678264509
 31
0.0
  0
LINE
  5
3EE2
  8
0-6
  6
CONTINUOUS
 62
     6
 10
7472.5616658597783
 20
19678.162162079741
 30
0.0
 11
7546.9427650000143
 21
19534.014239839591
 31
0.0
  0
LINE
  5
3EE3
  8
0-1
  6
CONTINUOUS
 62
     3
 10
6676.1499280000071
 20
7795.5489240000006
 30
0.0
 11
12206.648344999991
 21
7795.5489240000006
 31
0.0
  0
LINE
  5
3EE4
  8
0-1
  6
CONTINUOUS
 62
     3
 10
5966.1490700000022
 20
5784.5030450000013
 30
0.0
 11
12239.148147
 21
5784.5030450000013
 31
0.0
  0
LINE
  5
3EE5
  8
0-1
  6
CONTINUOUS
 62
     3
 10
6771.1490040000053
 20
5934.5030449999986
 30
0.0
 11
9193.6482790000045
 21
5934.5030449999986
 31
0.0
  0
LINE
  5
3EE6
  8
0-1
  6
CONTINUOUS
 62
     3
 10
6648.6481469999999
 20
5884.5028800000018
 30
0.0
 11
12239.148147
 21
5884.5028800000018
 31
0.0
  0
LINE
  5
3EE7
  8
0-1
  6
CONTINUOUS
 62
     3
 10
6771.1490040000053
 20
7795.5489240000006
 30
0.0
 11
6771.1490040000053
 21
5884.5028800000018
 31
0.0
  0
LINE
  5
3EE8
  8
0-1
  6
CONTINUOUS
 62
     3
 10
6656.1488720000061
 20
7917.5169609999957
 30
0.0
 11
6656.1488720000061
 21
5884.5028800000018
 31
0.0
  0
LINE
  5
3EE9
  8
0-1
  6
CONTINUOUS
 62
     3
 10
6676.1499280000071
 20
7918.1721820000021
 30
0.0
 11
6676.1499280000071
 21
5884.5028800000018
 31
0.0
  0
LINE
  5
3EEA
  8
0-1
  6
CONTINUOUS
 62
     3
 10
6648.6481469999999
 20
5784.5030450000013
 30
0.0
 11
6648.6481469999999
 21
5884.5028800000018
 31
0.0
  0
LINE
  5
3EEB
  8
0-1
  6
CONTINUOUS
 62
     3
 10
12301.782029
 20
8101.992256999999
 30
0.0
 11
12297.522105
 21
8231.9219180000018
 31
0.0
  0
LINE
  5
3EEC
  8
0-1
  6
CONTINUOUS
 62
     3
 10
9338.6480150000025
 20
5934.5030449999986
 30
0.0
 11
12111.648278999999
 21
5934.5030449999986
 31
0.0
  0
LINE
  5
3EED
  8
0-1
  6
CONTINUOUS
 62
     3
 10
8802.1480009999905
 20
5934.5030449999986
 30
0.0
 11
8802.1480009999905
 21
7795.5489240000006
 31
0.0
  0
LINE
  5
3EEE
  8
0-1
  6
CONTINUOUS
 62
     3
 10
8669.1490970000032
 20
5934.5030449999986
 30
0.0
 11
8669.1490970000032
 21
7795.5489240000006
 31
0.0
  0
LINE
  5
3EEF
  8
0-1
  6
CONTINUOUS
 62
     3
 10
8654.1473150000002
 20
5934.5030449999986
 30
0.0
 11
8654.1473150000002
 21
7795.5489240000006
 31
0.0
  0
LINE
  5
3EF0
  8
0-1
  6
CONTINUOUS
 62
     3
 10
8852.1496509999888
 20
5934.5030449999986
 30
0.0
 11
8852.1496509999888
 21
7795.5489240000006
 31
0.0
  0
LINE
  5
3EF1
  8
0-1
  6
CONTINUOUS
 62
     3
 10
8872.1487269999998
 20
5934.5030449999986
 30
0.0
 11
8872.1487269999998
 21
7795.5489240000006
 31
0.0
  0
LINE
  5
3EF2
  8
0-1
  6
CONTINUOUS
 62
     3
 10
8922.1493870000013
 20
5934.5030449999986
 30
0.0
 11
8922.1493870000013
 21
7795.5489240000006
 31
0.0
  0
LINE
  5
3EF3
  8
0-1
  6
CONTINUOUS
 62
     3
 10
9055.1482919999999
 20
5934.5030449999986
 30
0.0
 11
9055.1482919999999
 21
7795.5489240000006
 31
0.0
  0
LINE
  5
3EF4
  8
0-1
  6
CONTINUOUS
 62
     3
 10
9070.1471040000033
 20
5934.5030449999986
 30
0.0
 11
9070.1471040000033
 21
7795.5489240000006
 31
0.0
  0
LINE
  5
3EF5
  8
0-1
  6
CONTINUOUS
 62
     3
 10
9338.6480150000025
 20
7795.5489240000006
 30
0.0
 11
9338.6480150000025
 21
5884.5028800000018
 31
0.0
  0
LINE
  5
3EF6
  8
0-1
  6
CONTINUOUS
 62
     3
 10
9193.6482790000045
 20
7795.5489240000006
 30
0.0
 11
9193.6482790000045
 21
5884.5028800000018
 31
0.0
  0
LINE
  5
3EF7
  8
0-1
  6
CONTINUOUS
 62
     3
 10
9462.1472099999955
 20
5934.5030449999986
 30
0.0
 11
9462.1472099999955
 21
7795.5489240000006
 31
0.0
  0
LINE
  5
3EF8
  8
0-1
  6
CONTINUOUS
 62
     3
 10
9477.1489909999982
 20
5934.5030449999986
 30
0.0
 11
9477.1489909999982
 21
7795.5489240000006
 31
0.0
  0
LINE
  5
3EF9
  8
0-1
  6
CONTINUOUS
 62
     3
 10
9610.1478960000022
 20
5934.5030449999986
 30
0.0
 11
9610.1478960000022
 21
7795.5489240000006
 31
0.0
  0
LINE
  5
3EFA
  8
0-1
  6
CONTINUOUS
 62
     3
 10
9660.1485559999965
 20
5934.5030449999986
 30
0.0
 11
9660.1485559999965
 21
7795.5489240000006
 31
0.0
  0
LINE
  5
3EFB
  8
0-1
  6
CONTINUOUS
 62
     3
 10
9680.1476320000002
 20
5934.5030449999986
 30
0.0
 11
9680.1476320000002
 21
7795.5489240000006
 31
0.0
  0
LINE
  5
3EFC
  8
0-1
  6
CONTINUOUS
 62
     3
 10
7452.1480009999868
 20
5934.5030449999986
 30
0.0
 11
7452.1480009999868
 21
7795.5489240000006
 31
0.0
  0
LINE
  5
3EFD
  8
0-1
  6
CONTINUOUS
 62
     3
 10
7472.1500470000028
 20
5934.5030449999986
 30
0.0
 11
7472.1500470000028
 21
7795.5489240000006
 31
0.0
  0
LINE
  5
3EFE
  8
0-1
  6
CONTINUOUS
 62
     3
 10
7402.1473419999893
 20
5934.5030449999986
 30
0.0
 11
7402.1473419999893
 21
7795.5489240000006
 31
0.0
  0
LINE
  5
3EFF
  8
0-1
  6
CONTINUOUS
 62
     3
 10
7522.1477379999978
 20
5934.5030449999986
 30
0.0
 11
7522.1477379999978
 21
7795.5489240000006
 31
0.0
  0
LINE
  5
3F00
  8
0-1
  6
CONTINUOUS
 62
     3
 10
7655.1476320000029
 20
5934.5030449999986
 30
0.0
 11
7655.1476320000029
 21
7795.5489240000006
 31
0.0
  0
LINE
  5
3F01
  8
0-1
  6
CONTINUOUS
 62
     3
 10
7670.1494139999977
 20
5934.5030449999986
 30
0.0
 11
7670.1494139999977
 21
7795.5489240000006
 31
0.0
  0
LINE
  5
3F02
  8
0-1
  6
CONTINUOUS
 62
     3
 10
7259.6486610000075
 20
5934.5030449999986
 30
0.0
 11
7259.6486610000075
 21
7795.5489240000006
 31
0.0
  0
LINE
  5
3F03
  8
0-1
  6
CONTINUOUS
 62
     3
 10
7244.6498490000049
 20
5934.5030449999986
 30
0.0
 11
7244.6498490000049
 21
7795.5489240000006
 31
0.0
  0
LINE
  5
3F04
  8
0-1
  6
CONTINUOUS
 62
     3
 10
7954.1479749999889
 20
5934.5030449999986
 30
0.0
 11
7954.1479749999889
 21
7795.5489240000006
 31
0.0
  0
LINE
  5
3F05
  8
0-1
  6
CONTINUOUS
 62
     3
 10
7969.1467869999906
 20
5934.5030449999986
 30
0.0
 11
7969.1467869999906
 21
7795.5489240000006
 31
0.0
  0
LINE
  5
3F06
  8
0-1
  6
CONTINUOUS
 62
     3
 10
8370.1487540000016
 20
5934.5030449999986
 30
0.0
 11
8370.1487540000016
 21
7795.5489240000006
 31
0.0
  0
LINE
  5
3F07
  8
0-1
  6
CONTINUOUS
 62
     3
 10
8355.1469720000023
 20
5934.5030449999986
 30
0.0
 11
8355.1469720000023
 21
7795.5489240000006
 31
0.0
  0
LINE
  5
3F08
  8
0-1
  6
CONTINUOUS
 62
     3
 10
8222.1470779999909
 20
5934.5030449999986
 30
0.0
 11
8222.1470779999909
 21
7795.5489240000006
 31
0.0
  0
LINE
  5
3F09
  8
0-1
  6
CONTINUOUS
 62
     3
 10
8102.148661000002
 20
5934.5030449999986
 30
0.0
 11
8102.148661000002
 21
7795.5489240000006
 31
0.0
  0
LINE
  5
3F0A
  8
0-1
  6
CONTINUOUS
 62
     3
 10
8172.1493869999904
 20
5934.5030449999986
 30
0.0
 11
8172.1493869999904
 21
7795.5489240000006
 31
0.0
  0
LINE
  5
3F0B
  8
0-1
  6
CONTINUOUS
 62
     3
 10
8152.1473419999902
 20
5934.5030449999986
 30
0.0
 11
8152.1473419999902
 21
7795.5489240000006
 31
0.0
  0
LINE
  5
3F0C
  8
0-1
  6
CONTINUOUS
 62
     3
 10
8493.6489380000057
 20
7795.5489240000006
 30
0.0
 11
8493.6489380000057
 21
5934.5030449999986
 31
0.0
  0
LINE
  5
3F0D
  8
0-1
  6
CONTINUOUS
 62
     3
 10
8530.6471310000015
 20
7795.5489240000006
 30
0.0
 11
8530.6471310000015
 21
5934.5030449999986
 31
0.0
  0
LINE
  5
3F0E
  8
0-1
  6
CONTINUOUS
 62
     3
 10
7084.1485030000067
 20
7795.5489240000006
 30
0.0
 11
7084.1485030000067
 21
5934.5030449999986
 31
0.0
  0
LINE
  5
3F0F
  8
0-1
  6
CONTINUOUS
 62
     3
 10
7121.1486740000073
 20
7795.5489240000006
 30
0.0
 11
7121.1486740000073
 21
5934.5030449999986
 31
0.0
  0
LINE
  5
3F10
  8
0-1
  6
CONTINUOUS
 62
     3
 10
7793.6495980000027
 20
7795.5489240000006
 30
0.0
 11
7793.6495980000027
 21
5934.5030449999986
 31
0.0
  0
LINE
  5
3F11
  8
0-1
  6
CONTINUOUS
 62
     3
 10
7830.64778999999
 20
7795.5489240000006
 30
0.0
 11
7830.64778999999
 21
5934.5030449999986
 31
0.0
  0
LINE
  5
3F12
  8
0-1
  6
CONTINUOUS
 62
     3
 10
9266.1481469999999
 20
8002.7847239999974
 30
0.0
 11
9261.8872330000013
 21
8132.7143850000029
 31
0.0
  0
LINE
  5
3F13
  8
0-1
  6
CONTINUOUS
 62
     3
 10
9266.1481469999999
 20
8002.7847239999974
 30
0.0
 11
9266.1481469999999
 21
7795.5489240000006
 31
0.0
  0
LINE
  5
3F14
  8
0-1
  6
CONTINUOUS
 62
     3
 10
12111.648278999999
 20
7795.5489240000006
 30
0.0
 11
12111.648278999999
 21
5884.5028800000018
 31
0.0
  0
LINE
  5
3F15
  8
0-1
  6
CONTINUOUS
 62
     3
 10
12226.647421
 20
8099.5287460000018
 30
0.0
 11
12226.647421
 21
5884.5028800000018
 31
0.0
  0
LINE
  5
3F16
  8
0-1
  6
CONTINUOUS
 62
     3
 10
12206.648344999991
 20
8098.8725359999999
 30
0.0
 11
12206.648344999991
 21
5884.5028800000018
 31
0.0
  0
LINE
  5
3F17
  8
0-1
  6
CONTINUOUS
 62
     3
 10
10701.648502999969
 20
7795.5489240000006
 30
0.0
 11
10701.648502999969
 21
5934.5030449999986
 31
0.0
  0
LINE
  5
3F18
  8
0-1
  6
CONTINUOUS
 62
     3
 10
10738.647684999991
 20
7795.5489240000006
 30
0.0
 11
10738.647684999991
 21
5934.5030449999986
 31
0.0
  0
LINE
  5
3F19
  8
0-1
  6
CONTINUOUS
 62
     3
 10
11411.648939000001
 20
7795.5489240000006
 30
0.0
 11
11411.648939000001
 21
5934.5030449999986
 31
0.0
  0
LINE
  5
3F1A
  8
0-1
  6
CONTINUOUS
 62
     3
 10
11448.647131
 20
7795.5489240000006
 30
0.0
 11
11448.647131
 21
5934.5030449999986
 31
0.0
  0
LINE
  5
3F1B
  8
0-1
  6
CONTINUOUS
 62
     3
 10
10001.64718299999
 20
7795.5489240000006
 30
0.0
 11
10001.64718299999
 21
5934.5030449999986
 31
0.0
  0
LINE
  5
3F1C
  8
0-1
  6
CONTINUOUS
 62
     3
 10
10038.64834499998
 20
7795.5489240000006
 30
0.0
 11
10038.64834499998
 21
5934.5030449999986
 31
0.0
  0
LINE
  5
3F1D
  8
0-1
  6
CONTINUOUS
 62
     3
 10
10380.146972
 20
5934.5030449999986
 30
0.0
 11
10380.146972
 21
7795.5489240000006
 31
0.0
  0
LINE
  5
3F1E
  8
0-1
  6
CONTINUOUS
 62
     3
 10
10360.147895999989
 20
5934.5030449999986
 30
0.0
 11
10360.147895999989
 21
7795.5489240000006
 31
0.0
  0
LINE
  5
3F1F
  8
0-1
  6
CONTINUOUS
 62
     3
 10
10430.147631999989
 20
5934.5030449999986
 30
0.0
 11
10430.147631999989
 21
7795.5489240000006
 31
0.0
  0
LINE
  5
3F20
  8
0-1
  6
CONTINUOUS
 62
     3
 10
10310.147236000001
 20
5934.5030449999986
 30
0.0
 11
10310.147236000001
 21
7795.5489240000006
 31
0.0
  0
LINE
  5
3F21
  8
0-1
  6
CONTINUOUS
 62
     3
 10
10177.147342
 20
5934.5030449999986
 30
0.0
 11
10177.147342
 21
7795.5489240000006
 31
0.0
  0
LINE
  5
3F22
  8
0-1
  6
CONTINUOUS
 62
     3
 10
10162.148529
 20
5934.5030449999986
 30
0.0
 11
10162.148529
 21
7795.5489240000006
 31
0.0
  0
LINE
  5
3F23
  8
0-1
  6
CONTINUOUS
 62
     3
 10
10563.147525999981
 20
5934.5030449999986
 30
0.0
 11
10563.147525999981
 21
7795.5489240000006
 31
0.0
  0
LINE
  5
3F24
  8
0-1
  6
CONTINUOUS
 62
     3
 10
10578.149307999989
 20
5934.5030449999986
 30
0.0
 11
10578.149307999989
 21
7795.5489240000006
 31
0.0
  0
LINE
  5
3F25
  8
0-1
  6
CONTINUOUS
 62
     3
 10
11278.14864799998
 20
5934.5030449999986
 30
0.0
 11
11278.14864799998
 21
7795.5489240000006
 31
0.0
  0
LINE
  5
3F26
  8
0-1
  6
CONTINUOUS
 62
     3
 10
11263.146866999999
 20
5934.5030449999986
 30
0.0
 11
11263.146866999999
 21
7795.5489240000006
 31
0.0
  0
LINE
  5
3F27
  8
0-1
  6
CONTINUOUS
 62
     3
 10
10862.147870000001
 20
5934.5030449999986
 30
0.0
 11
10862.147870000001
 21
7795.5489240000006
 31
0.0
  0
LINE
  5
3F28
  8
0-1
  6
CONTINUOUS
 62
     3
 10
10877.148660999999
 20
5934.5030449999986
 30
0.0
 11
10877.148660999999
 21
7795.5489240000006
 31
0.0
  0
LINE
  5
3F29
  8
0-1
  6
CONTINUOUS
 62
     3
 10
11010.149546000001
 20
5934.5030449999986
 30
0.0
 11
11010.149546000001
 21
7795.5489240000006
 31
0.0
  0
LINE
  5
3F2A
  8
0-1
  6
CONTINUOUS
 62
     3
 10
11130.146972
 20
5934.5030449999986
 30
0.0
 11
11130.146972
 21
7795.5489240000006
 31
0.0
  0
LINE
  5
3F2B
  8
0-1
  6
CONTINUOUS
 62
     3
 10
11060.147236000001
 20
5934.5030449999986
 30
0.0
 11
11060.147236000001
 21
7795.5489240000006
 31
0.0
  0
LINE
  5
3F2C
  8
0-1
  6
CONTINUOUS
 62
     3
 10
11080.14928199998
 20
5934.5030449999986
 30
0.0
 11
11080.14928199998
 21
7795.5489240000006
 31
0.0
  0
LINE
  5
3F2D
  8
0-1
  6
CONTINUOUS
 62
     3
 10
11790.148728
 20
5934.5030449999986
 30
0.0
 11
11790.148728
 21
7795.5489240000006
 31
0.0
  0
LINE
  5
3F2E
  8
0-1
  6
CONTINUOUS
 62
     3
 10
11770.149652
 20
5934.5030449999986
 30
0.0
 11
11770.149652
 21
7795.5489240000006
 31
0.0
  0
LINE
  5
3F2F
  8
0-1
  6
CONTINUOUS
 62
     3
 10
11840.149387999991
 20
5934.5030449999986
 30
0.0
 11
11840.149387999991
 21
7795.5489240000006
 31
0.0
  0
LINE
  5
3F30
  8
0-1
  6
CONTINUOUS
 62
     3
 10
11720.148992
 20
5934.5030449999986
 30
0.0
 11
11720.148992
 21
7795.5489240000006
 31
0.0
  0
LINE
  5
3F31
  8
0-1
  6
CONTINUOUS
 62
     3
 10
11587.149097
 20
5934.5030449999986
 30
0.0
 11
11587.149097
 21
7795.5489240000006
 31
0.0
  0
LINE
  5
3F32
  8
0-1
  6
CONTINUOUS
 62
     3
 10
11572.14731599998
 20
5934.5030449999986
 30
0.0
 11
11572.14731599998
 21
7795.5489240000006
 31
0.0
  0
LINE
  5
3F33
  8
0-1
  6
CONTINUOUS
 62
     3
 10
11973.149281999989
 20
5934.5030449999986
 30
0.0
 11
11973.149281999989
 21
7795.5489240000006
 31
0.0
  0
LINE
  5
3F34
  8
0-1
  6
CONTINUOUS
 62
     3
 10
11988.14809399998
 20
5934.5030449999986
 30
0.0
 11
11988.14809399998
 21
7795.5489240000006
 31
0.0
  0
LINE
  5
3F35
  8
0-1
  6
CONTINUOUS
 62
     3
 10
9878.1469990000005
 20
5934.5030449999986
 30
0.0
 11
9878.1469990000005
 21
7795.5489240000006
 31
0.0
  0
LINE
  5
3F36
  8
0-1
  6
CONTINUOUS
 62
     3
 10
9863.1481860000022
 20
5934.5030449999986
 30
0.0
 11
9863.1481860000022
 21
7795.5489240000006
 31
0.0
  0
LINE
  5
3F37
  8
0-1
  6
CONTINUOUS
 62
     3
 10
9730.1492820000021
 20
5934.5030449999986
 30
0.0
 11
9730.1492820000021
 21
7795.5489240000006
 31
0.0
  0
LINE
  5
3F38
  8
0-1
  6
CONTINUOUS
 62
     3
 10
12239.148147
 20
5884.5028800000018
 30
0.0
 11
12239.148147
 21
5784.5030450000013
 31
0.0
  0
LINE
  5
3F39
  8
0-1
  6
CONTINUOUS
 62
     3
 10
6478.8364650000067
 20
7959.728215000001
 30
0.0
 11
6477.7219960000084
 21
7993.7106109999968
 31
0.0
  0
LINE
  5
3F3A
  8
0-1
  6
CONTINUOUS
 62
     3
 10
6480.6219910000063
 20
7996.8065780000006
 30
0.0
 11
12310.989759
 21
8187.3392000000022
 31
0.0
  0
LINE
  5
3F3B
  8
0-1
  6
CONTINUOUS
 62
     3
 10
12312.30118999998
 20
8147.3608429999986
 30
0.0
 11
6481.9344110000056
 21
7956.8282210000016
 31
0.0
  0
LINE
  5
3F3C
  8
0-1
  6
CONTINUOUS
 62
     3
 10
6479.1977269999979
 20
7948.7339690000017
 30
0.0
 11
6479.1947580000051
 21
7948.7992930000028
 31
0.0
  0
LINE
  5
3F3D
  8
0-1
  6
CONTINUOUS
 62
     3
 10
6479.1947580000051
 20
7948.7992930000028
 30
0.0
 11
6480.245882000002
 21
7916.7518770000024
 31
0.0
  0
LINE
  5
3F3E
  8
0-1
  6
CONTINUOUS
 62
     3
 10
6485.4064869999966
 20
7911.9188830000021
 30
0.0
 11
12334.74596199999
 21
8103.0730740000017
 31
0.0
  0
LINE
  5
3F3F
  8
0-1
  6
CONTINUOUS
 62
     3
 10
12330.485048
 20
8233.0027350000037
 30
0.0
 11
6481.1475530000034
 21
8041.8485440000022
 31
0.0
  0
LINE
  5
3F40
  8
0-1
  6
CONTINUOUS
 62
     3
 10
6476.3125790000049
 20
8036.6869489999981
 30
0.0
 11
6477.3627130000023
 21
8004.7048569999979
 31
0.0
  0
LINE
  5
3F41
  8
0-1
  6
CONTINUOUS
 62
     3
 10
6480.4586800000043
 20
8001.8048619999981
 30
0.0
 11
12310.827439000001
 21
8192.3374850000018
 31
0.0
  0
LINE
  5
3F42
  8
0-1
  6
CONTINUOUS
 62
     3
 10
12312.463511
 20
8142.3645380000016
 30
0.0
 11
6482.0967320000054
 21
7951.8309260000033
 31
0.0
  0
LINE
  5
3F43
  8
0-1
  6
CONTINUOUS
 62
     3
 10
6493.6393050000052
 20
8042.258304
 30
0.0
 11
6497.9002180000016
 21
7912.3276530000021
 31
0.0
  0
LINE
  5
3F44
  8
0-5
  6
CONTINUOUS
 62
     4
 10
12319.148411
 20
5884.5028800000018
 30
0.0
 11
14036.608359
 21
5884.5028800000018
 31
0.0
  0
LINE
  5
3F45
  8
0-5
  6
CONTINUOUS
 62
     4
 10
14064.234519999991
 20
6092.3488670000024
 30
0.0
 11
13824.23273899999
 21
6092.3488670000024
 31
0.0
  0
LINE
  5
3F46
  8
0-5
  6
CONTINUOUS
 62
     4
 10
13944.232144999991
 20
5884.5028800000018
 30
0.0
 11
14064.234519999991
 21
6092.3488670000024
 31
0.0
  0
LINE
  5
3F47
  8
0-5
  6
CONTINUOUS
 62
     4
 10
13824.23273899999
 20
6092.3488670000024
 30
0.0
 11
13944.232144999991
 21
5884.5028800000018
 31
0.0
  0
LINE
  5
3F48
  8
2-0
  6
CENTER2
 62
     6
 10
6698.6481469999999
 20
5521.8496330000035
 30
0.0
 11
6698.6481469999999
 21
6578.9927249999982
 31
0.0
  0
LINE
  5
3F49
  8
2-0
  6
CENTER2
 62
     6
 10
9266.1481469999999
 20
5521.8496330000035
 30
0.0
 11
9266.1481469999999
 21
6578.9927249999982
 31
0.0
  0
LINE
  5
3F4A
  8
2-0
  6
CENTER2
 62
     6
 10
12184.148147
 20
5521.8496330000035
 30
0.0
 11
12184.148147
 21
6578.9927249999982
 31
0.0
  0
ARC
  5
3F4B
  8
0-1
  6
CONTINUOUS
 62
     3
 10
6482.0393260000046
 20
7999.3542180000022
 30
0.0
 40
2.5
 50
271.87799100002047
 51
91.877991000020657
  0
ARC
  5
3F4C
  8
0-1
  6
CONTINUOUS
 62
     3
 10
6483.5140670000046
 20
7954.3795560000017
 30
0.0
 40
2.5
 50
271.87799100002047
 51
91.877991000020657
  0
ARC
  5
3F4D
  8
0-1
  6
CONTINUOUS
 62
     3
 10
6480.7199770000043
 20
7993.8085970000011
 30
0.0
 40
3.0
 50
91.877991000020657
 51
181.87799100002039
  0
ARC
  5
3F4E
  8
0-1
  6
CONTINUOUS
 62
     3
 10
12311.64597
 20
8167.3500219999987
 30
0.0
 40
20.0
 50
271.87799100002047
 51
91.877991000020657
  0
ARC
  5
3F4F
  8
0-1
  6
CONTINUOUS
 62
     3
 10
6481.8344460000053
 20
7959.8271909999976
 30
0.0
 40
3.0
 50
181.87799100002039
 51
271.87799100002047
  0
ARC
  5
3F50
  8
0-1
  6
CONTINUOUS
 62
     3
 10
6482.1947180000061
 20
7948.8329450000028
 30
0.0
 40
3.0
 50
91.877991000020657
 51
181.87799100002039
  0
ARC
  5
3F51
  8
0-1
  6
CONTINUOUS
 62
     3
 10
6485.2431770000039
 20
7916.9151880000027
 30
0.0
 40
5.0
 50
181.87799100002039
 51
271.87799100002047
  0
ARC
  5
3F52
  8
0-1
  6
CONTINUOUS
 62
     3
 10
12306.647685
 20
8167.1867120000006
 30
0.0
 40
69.999999000000003
 50
293.66478000014621
 51
70.09120200017675
  0
ARC
  5
3F53
  8
0-1
  6
CONTINUOUS
 62
     3
 10
6481.3098730000056
 20
8036.851249000003
 30
0.0
 40
5.0
 50
91.877991000020657
 51
181.87799100002039
  0
ARC
  5
3F54
  8
0-1
  6
CONTINUOUS
 62
     3
 10
6480.3597040000031
 20
8004.8028430000031
 30
0.0
 40
3.0
 50
181.87799100002039
 51
271.87799100002047
  0
ARC
  5
3F55
  8
0-1
  6
CONTINUOUS
 62
     3
 10
12311.64597
 20
8167.3500219999987
 30
0.0
 40
24.999998999999999
 50
271.87799100002047
 51
91.877991000020657
  0
TEXT
  5
3F56
  8
0-0
  6
CONTINUOUS
 62
     7
 10
13485.141205999989
 20
6172.3491309999972
 30
0.0
 40
160.0
  1
布基礎天端
 72
     4
 11
13943.807872666661
 21
6252.3491309999981
 31
0.0
  0
TEXT
  5
3F57
  8
2-0
  6
CONTINUOUS
 62
     7
 10
7785.557326000001
 20
2907.3829785833759
 30
0.0
 40
160.0
  1
側 面 立 面 図
 72
     4
 11
8430.890659333334
 21
2987.3829785833759
 31
0.0
  0
TEXT
  5
3F58
  8
2-0
  6
CONTINUOUS
 62
     7
 10
9782.3828444709598
 20
2934.5783475833759
 30
0.0
 40
160.0
  1
1
 72
     4
 11
9809.0495111376258
 21
3014.5783475833759
 31
0.0
  0
TEXT
  5
3F59
  8
2-0
  6
CONTINUOUS
 62
     7
 10
10025.47156172165
 20
2854.5798155833741
 30
0.0
 40
160.0
  1
80
 72
     4
 11
10145.47156172165
 21
2934.5798155833741
 31
0.0
  0
TEXT
  5
3F5A
  8
2-0
  6
CONTINUOUS
 62
     7
 10
9283.3848104709577
 20
2907.3829785833759
 30
0.0
 40
160.0
  1
(S=  /   )
 72
     4
 11
9843.3848104709577
 21
2987.3829785833759
 31
0.0
  0
LINE
  5
3F5B
  8
0-1
  6
CONTINUOUS
 62
     3
 10
6951.1486080000213
 20
5934.5030449999986
 30
0.0
 11
6951.1486080000213
 21
7795.5489240000006
 31
0.0
  0
LINE
  5
3F5C
  8
0-1
  6
CONTINUOUS
 62
     3
 10
6936.1497960000197
 20
5934.5030449999986
 30
0.0
 11
6936.1497960000197
 21
7795.5489240000006
 31
0.0
  0
LINE
  5
3F5D
  8
0-5
  6
CONTINUOUS
 62
     4
 10
12184.148147
 20
4104.5034410000017
 30
0.0
 11
12184.148147
 21
3944.503903000003
 31
0.0
  0
LINE
  5
3F5E
  8
0-5
  6
CONTINUOUS
 62
     4
 10
9266.1481469999999
 20
4104.5034410000017
 30
0.0
 11
9266.1481469999999
 21
3944.503903000003
 31
0.0
  0
LINE
  5
3F5F
  8
0-5
  6
CONTINUOUS
 62
     4
 10
6698.6481469999999
 20
4104.5034410000017
 30
0.0
 11
6698.6481469999999
 21
3944.503903000003
 31
0.0
  0
CIRCLE
  5
3F60
  8
0-5
  6
CONTINUOUS
 62
     4
 10
9266.1481469999999
 20
3744.502748000004
 30
0.0
 40
199.9999949999999
  0
CIRCLE
  5
3F61
  8
0-5
  6
CONTINUOUS
 62
     4
 10
12184.148147
 20
3744.502748000004
 30
0.0
 40
199.9999949999999
  0
CIRCLE
  5
3F62
  8
0-5
  6
CONTINUOUS
 62
     4
 10
6698.6481469999999
 20
3744.502748000004
 30
0.0
 40
199.9999949999999
  0
TEXT
  5
3F63
  8
0-5
  6
CONTINUOUS
 62
     7
 10
12137.191987
 20
3661.291952000005
 30
0.0
 40
160.0
  1
A
 72
     4
 11
12190.52532033333
 21
3741.291952000005
 31
0.0
  0
TEXT
  5
3F64
  8
0-5
  6
CONTINUOUS
 62
     7
 10
9219.1919869999983
 20
3661.291952000005
 30
0.0
 40
160.0
  1
B
 72
     4
 11
9272.5253203333323
 21
3741.291952000005
 31
0.0
  0
TEXT
  5
3F65
  8
0-5
  6
CONTINUOUS
 62
     7
 10
6651.6919870000047
 20
3661.291952000005
 30
0.0
 40
160.0
  1
C
 72
     4
 11
6705.0253203333377
 21
3741.291952000005
 31
0.0
  0
LINE
  5
3F66
  8
SUNPOU
  6
CONTINUOUS
 10
6476.1481469999999
 20
9032.5045560000017
 30
0.0
 11
5940.0225054121402
 21
9032.5045560000017
 31
0.0
  0
LINE
  5
3F67
  8
0-5
  6
CONTINUOUS
 62
     4
 10
12319.14890700001
 20
5784.5025500000047
 30
0.0
 11
17584.543068999999
 21
5784.5025500000047
 31
0.0
  0
LINE
  5
3F72
  8
0-1
  6
CONTINUOUS
 62
     3
 10
26100.549930999961
 20
5884.5023850000016
 30
0.0
 11
26000.55058999997
 21
5884.5023850000016
 31
0.0
  0
LINE
  5
3F73
  8
0-1
  6
CONTINUOUS
 62
     3
 10
26000.55058999997
 20
5884.5023850000016
 30
0.0
 11
26000.55058999997
 21
5784.5025500000047
 31
0.0
  0
LINE
  5
3F74
  8
0-1
  6
CONTINUOUS
 62
     3
 10
26100.549930999961
 20
5784.5025500000047
 30
0.0
 11
26100.549930999961
 21
5884.5023850000016
 31
0.0
  0
LINE
  5
3F75
  8
0-1
  6
CONTINUOUS
 62
     3
 10
26073.050457999962
 20
8233.0027340000088
 30
0.0
 11
26073.050457999962
 21
5884.5023850000016
 31
0.0
  0
LINE
  5
3F76
  8
0-1
  6
CONTINUOUS
 62
     3
 10
26093.049534999958
 20
8103.0018110000028
 30
0.0
 11
26093.049534999958
 21
5884.5023850000016
 31
0.0
  0
LINE
  5
3F77
  8
0-1
  6
CONTINUOUS
 62
     3
 10
25963.050589999952
 20
7792.5024439999988
 30
0.0
 11
25963.050589999952
 21
5784.5025500000047
 31
0.0
  0
LINE
  5
3F78
  8
0-1
  6
CONTINUOUS
 62
     3
 10
26008.050985999958
 20
8103.0018110000028
 30
0.0
 11
26008.050985999958
 21
5884.5023850000016
 31
0.0
  0
LINE
  5
3F83
  8
0-1
  6
CONTINUOUS
 62
     3
 10
22287.500706999988
 20
7218.2188650000007
 30
0.0
 11
22041.656375999992
 21
7403.6596710000031
 31
0.0
  0
LINE
  5
3F84
  8
0-1
  6
CONTINUOUS
 62
     3
 10
21899.532880999988
 20
7135.086508000004
 30
0.0
 11
21741.656375999992
 21
7254.175830000002
 31
0.0
  0
LINE
  5
3F85
  8
0-1
  6
CONTINUOUS
 62
     3
 10
21681.55027399999
 20
6605.406431000004
 30
0.0
 11
22287.500706999988
 21
7218.2188650000007
 31
0.0
  0
LINE
  5
3F8C
  8
0-1
  6
CONTINUOUS
 62
     3
 10
21735.777205999992
 20
6564.5026490000037
 30
0.0
 11
23045.050590999988
 21
6564.5026490000037
 31
0.0
  0
LINE
  5
3F8D
  8
0-1
  6
CONTINUOUS
 62
     3
 10
21705.375759999999
 20
6629.5026160000052
 30
0.0
 11
23045.050590999988
 21
6629.5026160000052
 31
0.0
  0
LINE
  5
3F8E
  8
0-1
  6
CONTINUOUS
 62
     3
 10
21769.648747999989
 20
6694.5025830000022
 30
0.0
 11
23045.050590999988
 21
6694.5025830000022
 31
0.0
  0
LINE
  5
3F8F
  8
0-1
  6
CONTINUOUS
 62
     3
 10
21833.921736999971
 20
6759.5030450000049
 30
0.0
 11
23045.050590999988
 21
6759.5030450000049
 31
0.0
  0
LINE
  5
3F90
  8
0-1
  6
CONTINUOUS
 62
     3
 10
21898.19274599999
 20
6824.5020220000033
 30
0.0
 11
23045.050590999988
 21
6824.5020220000033
 31
0.0
  0
LINE
  5
3F91
  8
0-1
  6
CONTINUOUS
 62
     3
 10
21962.465734999991
 20
6889.5024840000024
 30
0.0
 11
23045.050590999988
 21
6889.5024840000024
 31
0.0
  0
LINE
  5
3F92
  8
0-1
  6
CONTINUOUS
 62
     3
 10
22026.736744999969
 20
6954.5024510000021
 30
0.0
 11
23045.050590999988
 21
6954.5024510000021
 31
0.0
  0
LINE
  5
3F93
  8
0-1
  6
CONTINUOUS
 62
     3
 10
22091.009732999992
 20
7019.5029130000021
 30
0.0
 11
23045.050590999988
 21
7019.5029130000021
 31
0.0
  0
LINE
  5
3F94
  8
0-1
  6
CONTINUOUS
 62
     3
 10
22155.280742999988
 20
7084.5018900000023
 30
0.0
 11
23045.050590999988
 21
7084.5018900000023
 31
0.0
  0
LINE
  5
3F95
  8
0-1
  6
CONTINUOUS
 62
     3
 10
22219.553730999982
 20
7149.5023520000068
 30
0.0
 11
23045.050590999988
 21
7149.5023520000068
 31
0.0
  0
LINE
  5
3F96
  8
0-1
  6
CONTINUOUS
 62
     3
 10
22283.824741
 20
7214.5023190000011
 30
0.0
 11
23045.050590999988
 21
7214.5023190000011
 31
0.0
  0
LINE
  5
3F97
  8
0-1
  6
CONTINUOUS
 62
     3
 10
22206.25532599997
 20
7279.5022860000063
 30
0.0
 11
23045.050590999988
 21
7279.5022860000063
 31
0.0
  0
LINE
  5
3F98
  8
0-1
  6
CONTINUOUS
 62
     3
 10
22120.080942999979
 20
7344.502748000009
 30
0.0
 11
23045.050590999988
 21
7344.502748000009
 31
0.0
  0
LINE
  5
3F99
  8
0-1
  6
CONTINUOUS
 62
     3
 10
22041.656375999992
 20
7409.5027150000051
 30
0.0
 11
23045.050590999988
 21
7409.5027150000051
 31
0.0
  0
LINE
  5
3F9A
  8
0-1
  6
CONTINUOUS
 62
     3
 10
22041.656375999992
 20
7474.5031770000023
 30
0.0
 11
23045.050590999988
 21
7474.5031770000023
 31
0.0
  0
LINE
  5
3F9B
  8
0-1
  6
CONTINUOUS
 62
     3
 10
22041.656375999992
 20
7539.5021539999998
 30
0.0
 11
23045.050590999988
 21
7539.5021539999998
 31
0.0
  0
LINE
  5
3F9C
  8
0-1
  6
CONTINUOUS
 62
     3
 10
22041.656375999992
 20
7604.5026160000107
 30
0.0
 11
23045.050590999988
 21
7604.5026160000107
 31
0.0
  0
LINE
  5
3F9D
  8
0-1
  6
CONTINUOUS
 62
     3
 10
22041.656375999992
 20
7669.5025830000022
 30
0.0
 11
23045.050590999988
 21
7669.5025830000022
 31
0.0
  0
LINE
  5
3F9E
  8
0-1
  6
CONTINUOUS
 62
     3
 10
22041.656375999992
 20
7723.9621080000024
 30
0.0
 11
23045.050590999988
 21
7723.9621080000024
 31
0.0
  0
LINE
  5
3F9F
  8
0-1
  6
CONTINUOUS
 62
     3
 10
22041.656375999992
 20
7792.5024439999988
 30
0.0
 11
23848.044282999988
 21
7792.5024439999988
 31
0.0
  0
LINE
  5
3FA2
  8
0-1
  6
CONTINUOUS
 62
     3
 10
22041.656375999992
 20
6333.7768910000023
 30
0.0
 11
22041.656375999992
 21
5367.1433260000031
 31
0.0
  0
LINE
  5
3FA3
  8
0-1
  6
CONTINUOUS
 62
     3
 10
21741.656375999992
 20
6184.2910710000042
 30
0.0
 11
21741.656375999992
 21
5367.1433260000031
 31
0.0
  0
LINE
  5
3FA4
  8
0-1
  6
CONTINUOUS
 62
     3
 10
22041.656375999992
 20
5849.5020220000024
 30
0.0
 11
23045.050590999988
 21
5849.5020220000024
 31
0.0
  0
LINE
  5
3FA5
  8
0-1
  6
CONTINUOUS
 62
     3
 10
22041.656375999992
 20
5914.5029790000053
 30
0.0
 11
23045.050590999988
 21
5914.5029790000053
 31
0.0
  0
LINE
  5
3FA6
  8
0-1
  6
CONTINUOUS
 62
     3
 10
22041.656375999992
 20
5979.5019560000028
 30
0.0
 11
23045.050590999988
 21
5979.5019560000028
 31
0.0
  0
LINE
  5
3FA7
  8
0-1
  6
CONTINUOUS
 62
     3
 10
22041.656375999992
 20
6109.5023850000061
 30
0.0
 11
23045.050590999988
 21
6109.5023850000061
 31
0.0
  0
LINE
  5
3FA8
  8
0-1
  6
CONTINUOUS
 62
     3
 10
22041.656375999992
 20
6044.5029130000039
 30
0.0
 11
23045.050590999988
 21
6044.5029130000039
 31
0.0
  0
LINE
  5
3FA9
  8
0-1
  6
CONTINUOUS
 62
     3
 10
22041.656375999992
 20
6174.5023520000022
 30
0.0
 11
23045.050590999988
 21
6174.5023520000022
 31
0.0
  0
LINE
  5
3FAA
  8
0-1
  6
CONTINUOUS
 62
     3
 10
22041.656375999992
 20
6239.5023190000038
 30
0.0
 11
23045.050590999988
 21
6239.5023190000038
 31
0.0
  0
LINE
  5
3FAB
  8
0-1
  6
CONTINUOUS
 62
     3
 10
22041.656375999992
 20
6304.5017910000033
 30
0.0
 11
23045.050590999988
 21
6304.5017910000033
 31
0.0
  0
LINE
  5
3FAC
  8
0-1
  6
CONTINUOUS
 62
     3
 10
21994.294414999989
 20
6369.5032430000037
 30
0.0
 11
23045.050590999988
 21
6369.5032430000037
 31
0.0
  0
LINE
  5
3FAD
  8
0-1
  6
CONTINUOUS
 62
     3
 10
21908.120031999992
 20
6434.5022200000049
 30
0.0
 11
23045.050590999988
 21
6434.5022200000049
 31
0.0
  0
LINE
  5
3FAE
  8
0-1
  6
CONTINUOUS
 62
     3
 10
21821.947628999998
 20
6499.5026820000021
 30
0.0
 11
23045.050590999988
 21
6499.5026820000021
 31
0.0
  0
LINE
  5
3FAF
  8
0-1
  6
CONTINUOUS
 62
     3
 10
23090.050986999981
 20
8103.0018110000028
 30
0.0
 11
23090.050986999981
 21
5784.5025500000047
 31
0.0
  0
LINE
  5
3FB0
  8
0-1
  6
CONTINUOUS
 62
     3
 10
23175.04755499999
 20
8103.0018110000028
 30
0.0
 11
23175.04755499999
 21
5784.5025500000047
 31
0.0
  0
LINE
  5
3FB1
  8
0-1
  6
CONTINUOUS
 62
     3
 10
23220.047950999979
 20
7792.5024439999988
 30
0.0
 11
23220.047950999979
 21
5784.5025500000047
 31
0.0
  0
LINE
  5
3FB2
  8
0-1
  6
CONTINUOUS
 62
     3
 10
23045.050590999988
 20
7792.5024439999988
 30
0.0
 11
23045.050590999988
 21
5784.5025500000047
 31
0.0
  0
LINE
  5
3FB3
  8
0-1
  6
CONTINUOUS
 62
     3
 10
22041.656375999992
 20
6333.7768910000023
 30
0.0
 11
21681.55027399999
 21
6605.406431000004
 31
0.0
  0
LINE
  5
3FB6
  8
0-1
  6
CONTINUOUS
 62
     3
 10
23220.047950999979
 20
7723.9621080000024
 30
0.0
 11
25963.050589999952
 21
7723.9621080000024
 31
0.0
  0
LINE
  5
3FB7
  8
0-1
  6
CONTINUOUS
 62
     3
 10
23220.047950999979
 20
6369.5032430000037
 30
0.0
 11
25963.050589999952
 21
6369.5032430000037
 31
0.0
  0
LINE
  5
3FB8
  8
0-1
  6
CONTINUOUS
 62
     3
 10
23220.047950999979
 20
6434.5022200000049
 30
0.0
 11
25963.050589999952
 21
6434.5022200000049
 31
0.0
  0
LINE
  5
3FB9
  8
0-1
  6
CONTINUOUS
 62
     3
 10
23220.047950999979
 20
6499.5026820000021
 30
0.0
 11
25963.050589999952
 21
6499.5026820000021
 31
0.0
  0
LINE
  5
3FBA
  8
0-1
  6
CONTINUOUS
 62
     3
 10
23220.047950999979
 20
6564.5026490000037
 30
0.0
 11
25963.050589999952
 21
6564.5026490000037
 31
0.0
  0
LINE
  5
3FBB
  8
0-1
  6
CONTINUOUS
 62
     3
 10
23220.047950999979
 20
6629.5026160000052
 30
0.0
 11
25963.050589999952
 21
6629.5026160000052
 31
0.0
  0
LINE
  5
3FBC
  8
0-1
  6
CONTINUOUS
 62
     3
 10
23220.047950999979
 20
6694.5025830000022
 30
0.0
 11
25963.050589999952
 21
6694.5025830000022
 31
0.0
  0
LINE
  5
3FBD
  8
0-1
  6
CONTINUOUS
 62
     3
 10
23220.047950999979
 20
6759.5030450000049
 30
0.0
 11
25963.050589999952
 21
6759.5030450000049
 31
0.0
  0
LINE
  5
3FBE
  8
0-1
  6
CONTINUOUS
 62
     3
 10
23220.047950999979
 20
6824.5020220000033
 30
0.0
 11
25963.050589999952
 21
6824.5020220000033
 31
0.0
  0
LINE
  5
3FBF
  8
0-1
  6
CONTINUOUS
 62
     3
 10
23220.047950999979
 20
6889.5024840000024
 30
0.0
 11
25963.050589999952
 21
6889.5024840000024
 31
0.0
  0
LINE
  5
3FC0
  8
0-1
  6
CONTINUOUS
 62
     3
 10
23220.047950999979
 20
6954.5024510000021
 30
0.0
 11
25963.050589999952
 21
6954.5024510000021
 31
0.0
  0
LINE
  5
3FC1
  8
0-1
  6
CONTINUOUS
 62
     3
 10
23220.047950999979
 20
7019.5029130000021
 30
0.0
 11
25963.050589999952
 21
7019.5029130000021
 31
0.0
  0
LINE
  5
3FC2
  8
0-1
  6
CONTINUOUS
 62
     3
 10
23220.047950999979
 20
7084.5018900000023
 30
0.0
 11
25963.050589999952
 21
7084.5018900000023
 31
0.0
  0
LINE
  5
3FC3
  8
0-1
  6
CONTINUOUS
 62
     3
 10
23220.047950999979
 20
7149.5023520000068
 30
0.0
 11
25963.050589999952
 21
7149.5023520000068
 31
0.0
  0
LINE
  5
3FC4
  8
0-1
  6
CONTINUOUS
 62
     3
 10
23220.047950999979
 20
7214.5023190000011
 30
0.0
 11
25963.050589999952
 21
7214.5023190000011
 31
0.0
  0
LINE
  5
3FC5
  8
0-1
  6
CONTINUOUS
 62
     3
 10
23220.047950999979
 20
7279.5022860000063
 30
0.0
 11
25963.050589999952
 21
7279.5022860000063
 31
0.0
  0
LINE
  5
3FC6
  8
0-1
  6
CONTINUOUS
 62
     3
 10
23220.047950999979
 20
7344.502748000009
 30
0.0
 11
25963.050589999952
 21
7344.502748000009
 31
0.0
  0
LINE
  5
3FC7
  8
0-1
  6
CONTINUOUS
 62
     3
 10
23220.047950999979
 20
7409.5027150000051
 30
0.0
 11
25963.050589999952
 21
7409.5027150000051
 31
0.0
  0
LINE
  5
3FC8
  8
0-1
  6
CONTINUOUS
 62
     3
 10
23220.047950999979
 20
7474.5031770000023
 30
0.0
 11
25963.050589999952
 21
7474.5031770000023
 31
0.0
  0
LINE
  5
3FC9
  8
0-1
  6
CONTINUOUS
 62
     3
 10
23220.047950999979
 20
7539.5021539999998
 30
0.0
 11
25963.050589999952
 21
7539.5021539999998
 31
0.0
  0
LINE
  5
3FCA
  8
0-1
  6
CONTINUOUS
 62
     3
 10
23220.047950999979
 20
7604.5026160000107
 30
0.0
 11
25963.050589999952
 21
7604.5026160000107
 31
0.0
  0
LINE
  5
3FCB
  8
0-1
  6
CONTINUOUS
 62
     3
 10
23220.047950999979
 20
7669.5025830000022
 30
0.0
 11
25963.050589999952
 21
7669.5025830000022
 31
0.0
  0
LINE
  5
3FCC
  8
0-1
  6
CONTINUOUS
 62
     3
 10
23220.047950999979
 20
5849.5020220000024
 30
0.0
 11
25963.050589999952
 21
5849.5020220000024
 31
0.0
  0
LINE
  5
3FCD
  8
0-1
  6
CONTINUOUS
 62
     3
 10
23220.047950999979
 20
5914.5029790000053
 30
0.0
 11
25963.050589999952
 21
5914.5029790000053
 31
0.0
  0
LINE
  5
3FCE
  8
0-1
  6
CONTINUOUS
 62
     3
 10
23220.047950999979
 20
5979.5019560000028
 30
0.0
 11
25963.050589999952
 21
5979.5019560000028
 31
0.0
  0
LINE
  5
3FCF
  8
0-1
  6
CONTINUOUS
 62
     3
 10
23220.047950999979
 20
6044.5029130000039
 30
0.0
 11
25963.050589999952
 21
6044.5029130000039
 31
0.0
  0
LINE
  5
3FD0
  8
0-1
  6
CONTINUOUS
 62
     3
 10
23220.047950999979
 20
6109.5023850000061
 30
0.0
 11
25963.050589999952
 21
6109.5023850000061
 31
0.0
  0
LINE
  5
3FD1
  8
0-1
  6
CONTINUOUS
 62
     3
 10
23220.047950999979
 20
6174.5023520000022
 30
0.0
 11
25963.050589999952
 21
6174.5023520000022
 31
0.0
  0
LINE
  5
3FD2
  8
0-1
  6
CONTINUOUS
 62
     3
 10
23220.047950999979
 20
6239.5023190000038
 30
0.0
 11
25963.050589999952
 21
6239.5023190000038
 31
0.0
  0
LINE
  5
3FD3
  8
0-1
  6
CONTINUOUS
 62
     3
 10
23220.047950999979
 20
6304.5017910000033
 30
0.0
 11
25963.050589999952
 21
6304.5017910000033
 31
0.0
  0
LINE
  5
3FD5
  8
0-1
  6
CONTINUOUS
 62
     3
 10
23175.04755499999
 20
7792.5024439999988
 30
0.0
 11
26008.050985999958
 21
7792.5024439999988
 31
0.0
  0
LINE
  5
3FD6
  8
0-1
  6
CONTINUOUS
 62
     3
 10
22041.656375999992
 20
5784.5025500000047
 30
0.0
 11
26100.549930999961
 21
5784.5025500000047
 31
0.0
  0
LINE
  5
3FD8
  8
0-1
  6
CONTINUOUS
 62
     3
 10
22041.656375999992
 20
7403.6596710000031
 30
0.0
 11
22041.656375999992
 21
8607.6820520000038
 31
0.0
  0
LINE
  5
3FD9
  8
0-1
  6
CONTINUOUS
 62
     3
 10
21741.656375999992
 20
7254.175830000002
 30
0.0
 11
21741.656375999992
 21
8607.6820520000038
 31
0.0
  0
LINE
  5
3FE3
  8
0-1
  6
CONTINUOUS
 62
     3
 10
20720.042673
 20
6564.5026490000037
 30
0.0
 11
21335.340391999969
 21
6564.5026490000037
 31
0.0
  0
LINE
  5
3FE4
  8
0-1
  6
CONTINUOUS
 62
     3
 10
20720.042673
 20
6629.5026160000052
 30
0.0
 11
21399.611400999958
 21
6629.5026160000052
 31
0.0
  0
LINE
  5
3FE5
  8
0-1
  6
CONTINUOUS
 62
     3
 10
20720.042673
 20
6694.5025830000022
 30
0.0
 11
21463.884389999981
 21
6694.5025830000022
 31
0.0
  0
LINE
  5
3FE6
  8
0-1
  6
CONTINUOUS
 62
     3
 10
20720.042673
 20
6759.5030450000049
 30
0.0
 11
21528.155399999981
 21
6759.5030450000049
 31
0.0
  0
LINE
  5
3FE7
  8
0-1
  6
CONTINUOUS
 62
     3
 10
20720.042673
 20
6824.5020220000033
 30
0.0
 11
21592.428388
 21
6824.5020220000033
 31
0.0
  0
LINE
  5
3FE8
  8
0-1
  6
CONTINUOUS
 62
     3
 10
20720.042673
 20
6889.5024840000024
 30
0.0
 11
21656.699397999979
 21
6889.5024840000024
 31
0.0
  0
LINE
  5
3FF0
  8
0-1
  6
CONTINUOUS
 62
     3
 10
20720.042673
 20
6369.5032430000037
 30
0.0
 11
21496.118870999991
 21
6369.5032430000037
 31
0.0
  0
LINE
  5
3FF1
  8
0-1
  6
CONTINUOUS
 62
     3
 10
20720.042673
 20
6434.5022200000049
 30
0.0
 11
21409.946467999991
 21
6434.5022200000049
 31
0.0
  0
LINE
  5
3FF2
  8
0-1
  6
CONTINUOUS
 62
     3
 10
20720.042673
 20
6499.5026820000021
 30
0.0
 11
21323.77208599999
 21
6499.5026820000021
 31
0.0
  0
LINE
  5
3FF3
  8
0-1
  6
CONTINUOUS
 62
     3
 10
20720.042673
 20
6304.5017910000033
 30
0.0
 11
21582.28731499999
 21
6304.5017910000033
 31
0.0
  0
LINE
  5
3FF4
  8
0-1
  6
CONTINUOUS
 62
     3
 10
20590.04372799999
 20
8103.0018110000028
 30
0.0
 11
20590.04372799999
 21
5784.5025500000047
 31
0.0
  0
LINE
  5
3FF5
  8
0-1
  6
CONTINUOUS
 62
     3
 10
20545.045311999958
 20
7792.5024439999988
 30
0.0
 11
20545.045311999958
 21
5784.5025500000047
 31
0.0
  0
LINE
  5
3FF6
  8
0-1
  6
CONTINUOUS
 62
     3
 10
20675.046235999958
 20
8103.0018110000028
 30
0.0
 11
20675.046235999958
 21
5784.5025500000047
 31
0.0
  0
LINE
  5
3FF7
  8
0-1
  6
CONTINUOUS
 62
     3
 10
20720.042673
 20
7792.5024439999988
 30
0.0
 11
20720.042673
 21
5784.5025500000047
 31
0.0
  0
LINE
  5
3FF8
  8
0-1
  6
CONTINUOUS
 62
     3
 10
20720.042673
 20
7792.5024439999988
 30
0.0
 11
20720.042673
 21
5784.5025500000047
 31
0.0
  0
LINE
  5
4003
  8
0-1
  6
CONTINUOUS
 62
     3
 10
17764.544652
 20
5884.5023850000016
 30
0.0
 11
17764.544652
 21
5784.5025500000047
 31
0.0
  0
LINE
  5
4004
  8
0-1
  6
CONTINUOUS
 62
     3
 10
17664.543333000001
 20
5784.5025500000047
 30
0.0
 11
17664.543333000001
 21
5884.5023850000016
 31
0.0
  0
LINE
  5
4005
  8
0-1
  6
CONTINUOUS
 62
     3
 10
17664.543333000001
 20
5884.5023850000016
 30
0.0
 11
17764.544652
 21
5884.5023850000016
 31
0.0
  0
LINE
  5
4006
  8
0-1
  6
CONTINUOUS
 62
     3
 10
17802.044652
 20
7792.5024439999988
 30
0.0
 11
17802.044652
 21
5784.5025500000047
 31
0.0
  0
LINE
  5
4007
  8
0-1
  6
CONTINUOUS
 62
     3
 10
17757.042277
 20
8103.0018110000028
 30
0.0
 11
17757.042277
 21
5884.5023850000016
 31
0.0
  0
LINE
  5
4008
  8
0-1
  6
CONTINUOUS
 62
     3
 10
17692.044783999991
 20
8233.0027340000088
 30
0.0
 11
17692.044783999991
 21
5884.5023850000016
 31
0.0
  0
LINE
  5
4009
  8
0-1
  6
CONTINUOUS
 62
     3
 10
17672.041748999989
 20
8103.0018110000028
 30
0.0
 11
17672.041748999989
 21
5884.5023850000016
 31
0.0
  0
LINE
  5
400A
  8
0-1
  6
CONTINUOUS
 62
     3
 10
17757.042277
 20
7792.5024439999988
 30
0.0
 11
20590.04372799999
 21
7792.5024439999988
 31
0.0
  0
LINE
  5
400C
  8
0-1
  6
CONTINUOUS
 62
     3
 10
17802.044652
 20
6304.5017910000033
 30
0.0
 11
20545.045311999958
 21
6304.5017910000033
 31
0.0
  0
LINE
  5
400D
  8
0-1
  6
CONTINUOUS
 62
     3
 10
17802.044652
 20
6239.5023190000038
 30
0.0
 11
20545.045311999958
 21
6239.5023190000038
 31
0.0
  0
LINE
  5
400E
  8
0-1
  6
CONTINUOUS
 62
     3
 10
17802.044652
 20
6174.5023520000022
 30
0.0
 11
20545.045311999958
 21
6174.5023520000022
 31
0.0
  0
LINE
  5
400F
  8
0-1
  6
CONTINUOUS
 62
     3
 10
17802.044652
 20
6109.5023850000061
 30
0.0
 11
20545.045311999958
 21
6109.5023850000061
 31
0.0
  0
LINE
  5
4010
  8
0-1
  6
CONTINUOUS
 62
     3
 10
17802.044652
 20
6044.5029130000039
 30
0.0
 11
20545.045311999958
 21
6044.5029130000039
 31
0.0
  0
LINE
  5
4011
  8
0-1
  6
CONTINUOUS
 62
     3
 10
17802.044652
 20
5979.5019560000028
 30
0.0
 11
20545.045311999958
 21
5979.5019560000028
 31
0.0
  0
LINE
  5
4012
  8
0-1
  6
CONTINUOUS
 62
     3
 10
17802.044652
 20
5914.5029790000053
 30
0.0
 11
20545.045311999958
 21
5914.5029790000053
 31
0.0
  0
LINE
  5
4013
  8
0-1
  6
CONTINUOUS
 62
     3
 10
17802.044652
 20
5849.5020220000024
 30
0.0
 11
20545.045311999958
 21
5849.5020220000024
 31
0.0
  0
LINE
  5
4014
  8
0-1
  6
CONTINUOUS
 62
     3
 10
17802.044652
 20
7669.5025830000022
 30
0.0
 11
20545.045311999958
 21
7669.5025830000022
 31
0.0
  0
LINE
  5
4015
  8
0-1
  6
CONTINUOUS
 62
     3
 10
17802.044652
 20
7604.5026160000107
 30
0.0
 11
20545.045311999958
 21
7604.5026160000107
 31
0.0
  0
LINE
  5
4016
  8
0-1
  6
CONTINUOUS
 62
     3
 10
17802.044652
 20
7539.5021539999998
 30
0.0
 11
20545.045311999958
 21
7539.5021539999998
 31
0.0
  0
LINE
  5
4017
  8
0-1
  6
CONTINUOUS
 62
     3
 10
17802.044652
 20
7474.5031770000023
 30
0.0
 11
20545.045311999958
 21
7474.5031770000023
 31
0.0
  0
LINE
  5
4018
  8
0-1
  6
CONTINUOUS
 62
     3
 10
17802.044652
 20
7409.5027150000051
 30
0.0
 11
20545.045311999958
 21
7409.5027150000051
 31
0.0
  0
LINE
  5
4019
  8
0-1
  6
CONTINUOUS
 62
     3
 10
17802.044652
 20
7344.502748000009
 30
0.0
 11
20545.045311999958
 21
7344.502748000009
 31
0.0
  0
LINE
  5
401A
  8
0-1
  6
CONTINUOUS
 62
     3
 10
17802.044652
 20
7279.5022860000063
 30
0.0
 11
20545.045311999958
 21
7279.5022860000063
 31
0.0
  0
LINE
  5
401B
  8
0-1
  6
CONTINUOUS
 62
     3
 10
17802.044652
 20
7214.5023190000011
 30
0.0
 11
20545.045311999958
 21
7214.5023190000011
 31
0.0
  0
LINE
  5
401C
  8
0-1
  6
CONTINUOUS
 62
     3
 10
17802.044652
 20
7149.5023520000068
 30
0.0
 11
20545.045311999958
 21
7149.5023520000068
 31
0.0
  0
LINE
  5
401D
  8
0-1
  6
CONTINUOUS
 62
     3
 10
17802.044652
 20
7084.5018900000023
 30
0.0
 11
20545.045311999958
 21
7084.5018900000023
 31
0.0
  0
LINE
  5
401E
  8
0-1
  6
CONTINUOUS
 62
     3
 10
17802.044652
 20
7019.5029130000021
 30
0.0
 11
20545.045311999958
 21
7019.5029130000021
 31
0.0
  0
LINE
  5
401F
  8
0-1
  6
CONTINUOUS
 62
     3
 10
17802.044652
 20
6954.5024510000021
 30
0.0
 11
20545.045311999958
 21
6954.5024510000021
 31
0.0
  0
LINE
  5
4020
  8
0-1
  6
CONTINUOUS
 62
     3
 10
17802.044652
 20
6889.5024840000024
 30
0.0
 11
20545.045311999958
 21
6889.5024840000024
 31
0.0
  0
LINE
  5
4021
  8
0-1
  6
CONTINUOUS
 62
     3
 10
17802.044652
 20
6824.5020220000033
 30
0.0
 11
20545.045311999958
 21
6824.5020220000033
 31
0.0
  0
LINE
  5
4022
  8
0-1
  6
CONTINUOUS
 62
     3
 10
17802.044652
 20
6759.5030450000049
 30
0.0
 11
20545.045311999958
 21
6759.5030450000049
 31
0.0
  0
LINE
  5
4023
  8
0-1
  6
CONTINUOUS
 62
     3
 10
17802.044652
 20
6694.5025830000022
 30
0.0
 11
20545.045311999958
 21
6694.5025830000022
 31
0.0
  0
LINE
  5
4024
  8
0-1
  6
CONTINUOUS
 62
     3
 10
17802.044652
 20
6629.5026160000052
 30
0.0
 11
20545.045311999958
 21
6629.5026160000052
 31
0.0
  0
LINE
  5
4025
  8
0-1
  6
CONTINUOUS
 62
     3
 10
17802.044652
 20
6564.5026490000037
 30
0.0
 11
20545.045311999958
 21
6564.5026490000037
 31
0.0
  0
LINE
  5
4026
  8
0-1
  6
CONTINUOUS
 62
     3
 10
17802.044652
 20
6499.5026820000021
 30
0.0
 11
20545.045311999958
 21
6499.5026820000021
 31
0.0
  0
LINE
  5
4027
  8
0-1
  6
CONTINUOUS
 62
     3
 10
17802.044652
 20
6434.5022200000049
 30
0.0
 11
20545.045311999958
 21
6434.5022200000049
 31
0.0
  0
LINE
  5
4028
  8
0-1
  6
CONTINUOUS
 62
     3
 10
17802.044652
 20
6369.5032430000037
 30
0.0
 11
20545.045311999958
 21
6369.5032430000037
 31
0.0
  0
LINE
  5
4029
  8
0-1
  6
CONTINUOUS
 62
     3
 10
17802.044652
 20
7723.9621080000024
 30
0.0
 11
20545.045311999958
 21
7723.9621080000024
 31
0.0
  0
LINE
  5
402C
  8
0-1
  6
CONTINUOUS
 62
     3
 10
17664.543333000001
 20
5784.5025500000047
 30
0.0
 11
21741.656375999992
 21
5784.5025500000047
 31
0.0
  0
LINE
  5
402F
  8
0-1
  6
CONTINUOUS
 62
     3
 10
20720.042673
 20
7723.9621080000024
 30
0.0
 11
21741.656375999992
 21
7723.9621080000024
 31
0.0
  0
LINE
  5
4030
  8
0-1
  6
CONTINUOUS
 62
     3
 10
20720.042673
 20
6954.5024510000021
 30
0.0
 11
21720.97238599999
 21
6954.5024510000021
 31
0.0
  0
LINE
  5
4031
  8
0-1
  6
CONTINUOUS
 62
     3
 10
20720.042673
 20
7019.5029130000021
 30
0.0
 11
21785.24339599998
 21
7019.5029130000021
 31
0.0
  0
LINE
  5
4032
  8
0-1
  6
CONTINUOUS
 62
     3
 10
20720.042673
 20
7084.5018900000023
 30
0.0
 11
21849.516384999992
 21
7084.5018900000023
 31
0.0
  0
LINE
  5
4033
  8
0-1
  6
CONTINUOUS
 62
     3
 10
20720.042673
 20
7149.5023520000068
 30
0.0
 11
21880.420628999989
 21
7149.5023520000068
 31
0.0
  0
LINE
  5
4034
  8
0-1
  6
CONTINUOUS
 62
     3
 10
20720.042673
 20
7214.5023190000011
 30
0.0
 11
21794.252184999968
 21
7214.5023190000011
 31
0.0
  0
LINE
  5
4035
  8
0-1
  6
CONTINUOUS
 62
     3
 10
20720.042673
 20
7279.5022860000063
 30
0.0
 11
21741.656375999992
 21
7279.5022860000063
 31
0.0
  0
LINE
  5
4036
  8
0-1
  6
CONTINUOUS
 62
     3
 10
20720.042673
 20
7344.502748000009
 30
0.0
 11
21741.656375999992
 21
7344.502748000009
 31
0.0
  0
LINE
  5
4037
  8
0-1
  6
CONTINUOUS
 62
     3
 10
20720.042673
 20
7409.5027150000051
 30
0.0
 11
21741.656375999992
 21
7409.5027150000051
 31
0.0
  0
LINE
  5
4038
  8
0-1
  6
CONTINUOUS
 62
     3
 10
20720.042673
 20
7474.5031770000023
 30
0.0
 11
21741.656375999992
 21
7474.5031770000023
 31
0.0
  0
LINE
  5
4039
  8
0-1
  6
CONTINUOUS
 62
     3
 10
20720.042673
 20
7539.5021539999998
 30
0.0
 11
21741.656375999992
 21
7539.5021539999998
 31
0.0
  0
LINE
  5
403A
  8
0-1
  6
CONTINUOUS
 62
     3
 10
20720.042673
 20
7604.5026160000107
 30
0.0
 11
21741.656375999992
 21
7604.5026160000107
 31
0.0
  0
LINE
  5
403B
  8
0-1
  6
CONTINUOUS
 62
     3
 10
20720.042673
 20
7669.5025830000022
 30
0.0
 11
21741.656375999992
 21
7669.5025830000022
 31
0.0
  0
LINE
  5
403C
  8
0-1
  6
CONTINUOUS
 62
     3
 10
20720.042673
 20
5849.5020220000024
 30
0.0
 11
21741.656375999992
 21
5849.5020220000024
 31
0.0
  0
LINE
  5
403D
  8
0-1
  6
CONTINUOUS
 62
     3
 10
20720.042673
 20
5914.5029790000053
 30
0.0
 11
21741.656375999992
 21
5914.5029790000053
 31
0.0
  0
LINE
  5
403E
  8
0-1
  6
CONTINUOUS
 62
     3
 10
20720.042673
 20
5979.5019560000028
 30
0.0
 11
21741.656375999992
 21
5979.5019560000028
 31
0.0
  0
LINE
  5
403F
  8
0-1
  6
CONTINUOUS
 62
     3
 10
20720.042673
 20
6044.5029130000039
 30
0.0
 11
21741.656375999992
 21
6044.5029130000039
 31
0.0
  0
LINE
  5
4040
  8
0-1
  6
CONTINUOUS
 62
     3
 10
20720.042673
 20
6109.5023850000061
 30
0.0
 11
21741.656375999992
 21
6109.5023850000061
 31
0.0
  0
LINE
  5
4041
  8
0-1
  6
CONTINUOUS
 62
     3
 10
20720.042673
 20
6174.5023520000022
 30
0.0
 11
21741.656375999992
 21
6174.5023520000022
 31
0.0
  0
LINE
  5
4042
  8
0-1
  6
CONTINUOUS
 62
     3
 10
20720.042673
 20
6239.5023190000038
 30
0.0
 11
21668.459717999991
 21
6239.5023190000038
 31
0.0
  0
LINE
  5
4043
  8
0-1
  6
CONTINUOUS
 62
     3
 10
20675.046235999958
 20
7792.5024439999988
 30
0.0
 11
21741.656375999992
 21
7792.5024439999988
 31
0.0
  0
LINE
  5
4044
  8
0-1
  6
CONTINUOUS
 62
     3
 10
21741.656375999992
 20
6184.2910710000042
 30
0.0
 11
21293.58442699998
 21
6522.2740740000008
 31
0.0
  0
LINE
  5
4045
  8
0-1
  6
CONTINUOUS
 62
     3
 10
21899.532880999988
 20
7135.086508000004
 30
0.0
 11
21293.58442699998
 21
6522.2740740000008
 31
0.0
  0
LINE
  5
4049
  8
0-2
  6
CONTINUOUS
 62
     4
 10
24955.241270999981
 20
6531.7282540000042
 30
0.0
 11
24855.241930999971
 21
6531.7282540000042
 31
0.0
  0
LINE
  5
404A
  8
0-2
  6
CONTINUOUS
 62
     4
 10
24227.855290999989
 20
6531.7282540000042
 30
0.0
 11
24327.85463199997
 21
6531.7282540000042
 31
0.0
  0
LINE
  5
404B
  8
0-2
  6
CONTINUOUS
 62
     4
 10
19537.235002500001
 20
6531.7282540000042
 30
0.0
 11
19437.235662499988
 21
6531.7282540000042
 31
0.0
  0
LINE
  5
404C
  8
0-2
  6
CONTINUOUS
 62
     4
 10
18809.851001499999
 20
6531.7282540000042
 30
0.0
 11
18909.848362500001
 21
6531.7282540000042
 31
0.0
  0
LINE
  5
404D
  8
0-5
  6
CONTINUOUS
 62
     4
 10
26050.54927099996
 20
4104.5024510000003
 30
0.0
 11
26050.54927099996
 21
3944.5024180000041
 31
0.0
  0
LINE
  5
404E
  8
0-5
  6
CONTINUOUS
 62
     4
 10
23132.54927099996
 20
4104.5024510000003
 30
0.0
 11
23132.54927099996
 21
3944.5024180000041
 31
0.0
  0
LINE
  5
404F
  8
0-5
  6
CONTINUOUS
 62
     4
 10
20632.543991999992
 20
4104.5024510000003
 30
0.0
 11
20632.543991999992
 21
3944.5024180000041
 31
0.0
  0
LINE
  5
4050
  8
0-5
  6
CONTINUOUS
 62
     4
 10
17714.543991999992
 20
4104.5024510000003
 30
0.0
 11
17714.543991999992
 21
3944.5024180000041
 31
0.0
  0
LINE
  5
4051
  8
2-0
  6
CENTER2
 62
     6
 10
26050.54927099996
 20
5521.8501270000033
 30
0.0
 11
26050.54927099996
 21
6558.992164000002
 31
0.0
  0
LINE
  5
4052
  8
2-0
  6
CENTER2
 62
     6
 10
23132.54927099996
 20
5521.8501270000033
 30
0.0
 11
23132.54927099996
 21
6558.992164000002
 31
0.0
  0
LINE
  5
4053
  8
2-0
  6
CENTER2
 62
     6
 10
20632.543991999992
 20
5521.8501270000033
 30
0.0
 11
20632.543991999992
 21
6558.992164000002
 31
0.0
  0
LINE
  5
4054
  8
2-0
  6
CENTER2
 62
     6
 10
17714.543991999992
 20
5521.8501270000033
 30
0.0
 11
17714.543991999992
 21
6558.992164000002
 31
0.0
  0
CIRCLE
  5
406D
  8
0-5
  6
CONTINUOUS
 62
     4
 10
26050.54927099996
 20
3744.502748000004
 30
0.0
 40
199.9999949999999
  0
CIRCLE
  5
406E
  8
0-5
  6
CONTINUOUS
 62
     4
 10
23132.54927099996
 20
3744.502748000004
 30
0.0
 40
199.9999949999999
  0
CIRCLE
  5
406F
  8
0-5
  6
CONTINUOUS
 62
     4
 10
20632.543991999992
 20
3744.502748000004
 30
0.0
 40
199.9999949999999
  0
CIRCLE
  5
4070
  8
0-5
  6
CONTINUOUS
 62
     4
 10
17714.543991999992
 20
3744.502748000004
 30
0.0
 40
199.9999949999999
  0
TEXT
  5
4071
  8
0-5
  6
CONTINUOUS
 62
     7
 10
25998.614620999972
 20
3660.001801000004
 30
0.0
 40
160.0
  1
n
 72
     4
 11
26051.9479543333
 21
3713.3351343333379
 31
0.0
  0
TEXT
  5
4072
  8
0-5
  6
CONTINUOUS
 62
     7
 10
22966.424157175232
 20
3674.5189094394018
 30
0.0
 40
140.0
  1
n-1
 72
     4
 11
23129.75749050856
 21
3744.5189094394018
 31
0.0
  0
TEXT
  5
4073
  8
0-5
  6
CONTINUOUS
 62
     7
 10
17096.368052999991
 20
6513.8627967420016
 30
0.0
 40
160.0
  1
(2131.5)
 50
90.0
 72
     4
 11
17016.368052999991
 21
6967.1961300753346
 31
0.0
  0
TEXT
  5
4074
  8
0-5
  6
CONTINUOUS
 62
     7
 10
20585.61554499999
 20
3657.9727940000048
 30
0.0
 40
160.0
  1
2
 72
     4
 11
20638.948878333322
 21
3737.9727940000039
 31
0.0
  0
TEXT
  5
4075
  8
0-5
  6
CONTINUOUS
 62
     7
 10
17667.611585999981
 20
3657.9727940000048
 30
0.0
 40
160.0
  1
1
 72
     4
 11
17694.278252666649
 21
3737.9727940000039
 31
0.0
  0
TEXT
  5
4076
  8
2-0
  6
CONTINUOUS
 62
     7
 10
20257.241046999989
 20
2926.063367000002
 30
0.0
 40
160.0
  1
正 面 立 面 図
 72
     4
 11
20902.574380333321
 21
3006.063367000002
 31
0.0
  0
CIRCLE
  5
4077
  8
0-4
  6
CONTINUOUS
 62
     4
 10
19173.543991999992
 20
6270.5584910000016
 30
0.0
 40
18.487504999999981
  0
CIRCLE
  5
4078
  8
0-4
  6
CONTINUOUS
 62
     4
 10
24591.54927099996
 20
6270.5584910000016
 30
0.0
 40
18.487504999999981
  0
TEXT
  5
4079
  8
2-0
  6
CONTINUOUS
 62
     7
 10
22254.066565470959
 20
2953.258736000002
 30
0.0
 40
160.0
  1
1
 72
     4
 11
22280.733232137631
 21
3033.258736000002
 31
0.0
  0
TEXT
  5
407A
  8
2-0
  6
CONTINUOUS
 62
     7
 10
22497.155282721651
 20
2873.260204000002
 30
0.0
 40
160.0
  1
80
 72
     4
 11
22617.155282721651
 21
2953.260204000002
 31
0.0
  0
TEXT
  5
407B
  8
2-0
  6
CONTINUOUS
 62
     7
 10
21755.068531470959
 20
2926.063367000002
 30
0.0
 40
160.0
  1
(S=  /   )
 72
     4
 11
22315.068531470959
 21
3006.063367000002
 31
0.0
  0
LINE
  5
407C
  8
SUNPOU
  6
CONTINUOUS
 10
17432.043991999992
 20
4584.5025500000056
 30
0.0
 11
17074.08898527889
 21
4584.5025500000056
 31
0.0
  0
LINE
  5
407D
  8
SUNPOU
  6
CONTINUOUS
 10
26333.053229999969
 20
4584.5025500000056
 30
0.0
 11
26691.008236721082
 21
4584.5025500000056
 31
0.0
  0
LINE
  5
407E
  8
0-5
  6
CONTINUOUS
 62
     4
 10
15492.67493199998
 20
5992.3480420000051
 30
0.0
 11
15612.671368999991
 21
5784.5025500000083
 31
0.0
  0
LINE
  5
407F
  8
0-5
  6
CONTINUOUS
 62
     4
 10
15612.671368999991
 20
5784.5025500000083
 30
0.0
 11
15732.67176499999
 21
5992.3480420000051
 31
0.0
  0
LINE
  5
4080
  8
0-5
  6
CONTINUOUS
 62
     4
 10
15732.67176499999
 20
5992.3480420000051
 30
0.0
 11
15492.67493199998
 21
5992.3480420000051
 31
0.0
  0
TEXT
  5
4081
  8
0-5
  6
CONTINUOUS
 62
     7
 10
15492.67493199998
 20
6072.3488000000016
 30
0.0
 40
160.0
  1
G.L
 72
     4
 11
15652.67493199998
 21
6152.3488000000034
 31
0.0
  0
LINE
  5
4082
  8
2-0
  6
CONTINUOUS
 62
     6
 10
24367.39035499997
 20
13355.934321999979
 30
0.0
 11
25367.383756999941
 21
13355.934321999979
 31
0.0
  0
LINE
  5
4083
  8
2-0
  6
CONTINUOUS
 62
     6
 10
25835.324133999959
 20
13826.355035999981
 30
0.0
 11
25367.383756999941
 21
13355.934321999979
 31
0.0
  0
LINE
  5
4084
  8
2-0
  6
CONTINUOUS
 62
     6
 10
24384.101450999951
 20
18035.05438699996
 30
0.0
 11
25402.076798999959
 21
18035.05438699996
 31
0.0
  0
LINE
  5
4085
  8
2-0
  6
CONTINUOUS
 62
     6
 10
25858.502316999959
 20
18259.76933599999
 30
0.0
 11
25402.076798999959
 21
18035.05438699996
 31
0.0
  0
LINE
  5
4086
  8
2-0
  6
CONTINUOUS
 62
     6
 10
25796.683930999949
 20
17017.962683000002
 30
0.0
 11
25491.98851299996
 21
17121.616214000001
 31
0.0
  0
LINE
  5
4087
  8
2-0
  6
CONTINUOUS
 62
     6
 10
25951.705969999941
 20
16528.340638999991
 30
0.0
 11
25491.98851299996
 21
16284.427327999991
 31
0.0
  0
LINE
  5
4088
  8
2-0
  6
CONTINUOUS
 62
     6
 10
24571.985477999959
 20
16284.427327999991
 30
0.0
 11
25491.98851299996
 21
16284.427327999991
 31
0.0
  0
LINE
  5
4089
  8
2-0
  6
CONTINUOUS
 62
     6
 10
24291.994450999959
 20
17121.616214000001
 30
0.0
 11
25491.98851299996
 21
17121.616214000001
 31
0.0
  0
LINE
  5
408A
  8
2-0
  6
CONTINUOUS
 62
     6
 10
25867.883254999961
 20
14148.03868199996
 30
0.0
 11
25491.98851299996
 21
14328.98251699998
 31
0.0
  0
LINE
  5
408B
  8
2-0
  6
CONTINUOUS
 62
     6
 10
24384.101450999951
 20
15117.291929000001
 30
0.0
 11
25402.076798999959
 21
15117.291929000001
 31
0.0
  0
LINE
  5
408C
  8
2-0
  6
CONTINUOUS
 62
     6
 10
24971.986796999961
 20
14328.98251699998
 30
0.0
 11
25491.98851299996
 21
14328.98251699998
 31
0.0
  0
LINE
  5
408D
  8
2-0
  6
CONTINUOUS
 62
     6
 10
25858.502316999959
 20
15342.004899
 30
0.0
 11
25402.076798999959
 21
15117.291929000001
 31
0.0
  0
LINE
  5
408E
  8
2-0
  6
CONTINUOUS
 62
     4
 10
23132.54927099996
 20
19603.93597200001
 30
0.0
 11
23132.54927099996
 21
20333.932937000001
 31
0.0
  0
LINE
  5
408F
  8
2-0
  6
CONTINUOUS
 62
     3
 10
26063.049930999961
 20
19414.933518000002
 30
0.0
 11
26063.049930999961
 21
19408.937556000012
 31
0.0
  0
LINE
  5
4090
  8
2-0
  6
CONTINUOUS
 62
     3
 10
26063.049930999961
 20
19408.937556000012
 30
0.0
 11
26093.047554999961
 21
19408.937556000012
 31
0.0
  0
LINE
  5
4091
  8
2-0
  6
CONTINUOUS
 62
     3
 10
26093.047554999961
 20
19438.937160000001
 30
0.0
 11
26012.045654999962
 21
19438.937160000001
 31
0.0
  0
LINE
  5
4092
  8
2-0
  6
CONTINUOUS
 62
     3
 10
26063.049930999961
 20
19398.64009999999
 30
0.0
 11
26093.047554999961
 21
19398.64009999999
 31
0.0
  0
LINE
  5
4093
  8
2-0
  6
CONTINUOUS
 62
     3
 10
26063.049930999961
 20
19416.641842000001
 30
0.0
 11
26063.049930999961
 21
19398.64009999999
 31
0.0
  0
LINE
  5
4094
  8
2-0
  6
CONTINUOUS
 62
     3
 10
26088.047290999959
 20
19416.641842000001
 30
0.0
 11
26063.049930999961
 21
19416.641842000001
 31
0.0
  0
LINE
  5
4095
  8
2-0
  6
CONTINUOUS
 62
     3
 10
26088.047290999959
 20
19411.63366000001
 30
0.0
 11
26088.047290999959
 21
19416.641842000001
 31
0.0
  0
LINE
  5
4096
  8
2-0
  6
CONTINUOUS
 62
     3
 10
26081.04573399997
 20
19411.63366000001
 30
0.0
 11
26088.047290999959
 21
19411.63366000001
 31
0.0
  0
LINE
  5
4097
  8
2-0
  6
CONTINUOUS
 62
     3
 10
25980.749465999961
 20
19511.93388700001
 30
0.0
 11
25980.749465999961
 21
19518.939403
 31
0.0
  0
LINE
  5
4098
  8
2-0
  6
CONTINUOUS
 62
     3
 10
25980.749465999961
 20
19518.939403
 30
0.0
 11
25985.749729999941
 21
19518.939403
 31
0.0
  0
LINE
  5
4099
  8
2-0
  6
CONTINUOUS
 62
     3
 10
25985.749729999941
 20
19518.939403
 30
0.0
 11
25985.749729999941
 21
19493.930165999998
 31
0.0
  0
LINE
  5
409A
  8
2-0
  6
CONTINUOUS
 62
     3
 10
25985.749729999941
 20
19493.930165999998
 30
0.0
 11
25967.747987999941
 21
19493.930165999998
 31
0.0
  0
LINE
  5
409B
  8
2-0
  6
CONTINUOUS
 62
     3
 10
25967.747987999941
 20
19493.930165999998
 30
0.0
 11
25967.747987999941
 21
19523.933729000011
 31
0.0
  0
LINE
  5
409C
  8
2-0
  6
CONTINUOUS
 62
     3
 10
25978.04544399997
 20
19523.933729000011
 30
0.0
 11
26093.047554999961
 21
19523.933729000011
 31
0.0
  0
LINE
  5
409D
  8
2-0
  6
CONTINUOUS
 62
     3
 10
25978.04544399997
 20
19493.930165999998
 30
0.0
 11
25978.04544399997
 21
19523.933729000011
 31
0.0
  0
LINE
  5
409E
  8
2-0
  6
CONTINUOUS
 62
     3
 10
25984.047343999959
 20
19493.930165999998
 30
0.0
 11
25978.04544399997
 21
19493.930165999998
 31
0.0
  0
LINE
  5
409F
  8
2-0
  6
CONTINUOUS
 62
     3
 10
26081.04573399997
 20
19058.336837499981
 30
0.0
 11
26088.047290999959
 21
19058.336837499981
 31
0.0
  0
LINE
  5
40A0
  8
2-0
  6
CONTINUOUS
 62
     3
 10
26088.047290999959
 20
19058.336837499981
 30
0.0
 11
26088.047290999959
 21
19063.33710149999
 31
0.0
  0
LINE
  5
40A1
  8
2-0
  6
CONTINUOUS
 62
     3
 10
26088.047290999959
 20
19063.33710149999
 30
0.0
 11
26063.049930999961
 21
19063.33710149999
 31
0.0
  0
LINE
  5
40A2
  8
2-0
  6
CONTINUOUS
 62
     3
 10
26063.049930999961
 20
19063.33710149999
 30
0.0
 11
26063.049930999961
 21
19045.341297499981
 31
0.0
  0
LINE
  5
40A3
  8
2-0
  6
CONTINUOUS
 62
     3
 10
26063.049930999961
 20
19045.341297499981
 30
0.0
 11
26093.047554999961
 21
19045.341297499981
 31
0.0
  0
LINE
  5
40A4
  8
2-0
  6
CONTINUOUS
 62
     3
 10
26063.049930999961
 20
19061.43280449996
 30
0.0
 11
26063.049930999961
 21
19055.434863499991
 31
0.0
  0
LINE
  5
40A5
  8
2-0
  6
CONTINUOUS
 62
     3
 10
26063.049930999961
 20
19055.434863499991
 30
0.0
 11
26093.047554999961
 21
19055.434863499991
 31
0.0
  0
LINE
  5
40A6
  8
2-0
  6
CONTINUOUS
 62
     3
 10
26093.047554999961
 20
19055.434863499991
 30
0.0
 11
26093.047554999961
 21
19092.436024499992
 31
0.0
  0
LINE
  5
40A7
  8
2-0
  6
CONTINUOUS
 62
     3
 10
26063.049930999961
 20
19092.436024499992
 30
0.0
 11
26093.047554999961
 21
19092.436024499992
 31
0.0
  0
LINE
  5
40A8
  8
2-0
  6
CONTINUOUS
 62
     3
 10
26063.049930999961
 20
19086.43214449998
 30
0.0
 11
26063.049930999961
 21
19092.436024499992
 31
0.0
  0
LINE
  5
40A9
  8
2-0
  6
CONTINUOUS
 62
     3
 10
26063.049930999961
 20
19102.531569499981
 30
0.0
 11
26093.047554999961
 21
19102.531569499981
 31
0.0
  0
LINE
  5
40AA
  8
2-0
  6
CONTINUOUS
 62
     3
 10
26063.049930999961
 20
19084.529827499991
 30
0.0
 11
26063.049930999961
 21
19102.531569499981
 31
0.0
  0
LINE
  5
40AB
  8
2-0
  6
CONTINUOUS
 62
     3
 10
26088.047290999959
 20
19084.529827499991
 30
0.0
 11
26063.049930999961
 21
19084.529827499991
 31
0.0
  0
LINE
  5
40AC
  8
2-0
  6
CONTINUOUS
 62
     3
 10
26088.047290999959
 20
19089.53009149995
 30
0.0
 11
26088.047290999959
 21
19084.529827499991
 31
0.0
  0
LINE
  5
40AD
  8
2-0
  6
CONTINUOUS
 62
     3
 10
26081.04573399997
 20
19089.53009149995
 30
0.0
 11
26088.047290999959
 21
19089.53009149995
 31
0.0
  0
LINE
  5
40AE
  8
2-0
  6
CONTINUOUS
 62
     3
 10
26081.04573399997
 20
18357.335847999992
 30
0.0
 11
26088.047290999959
 21
18357.335847999992
 31
0.0
  0
LINE
  5
40AF
  8
2-0
  6
CONTINUOUS
 62
     3
 10
26088.047290999959
 20
18357.335847999992
 30
0.0
 11
26088.047290999959
 21
18362.342049999981
 31
0.0
  0
LINE
  5
40B0
  8
2-0
  6
CONTINUOUS
 62
     3
 10
26088.047290999959
 20
18362.342049999981
 30
0.0
 11
26063.049930999961
 21
18362.342049999981
 31
0.0
  0
LINE
  5
40B1
  8
2-0
  6
CONTINUOUS
 62
     3
 10
26063.049930999961
 20
18362.342049999981
 30
0.0
 11
26063.049930999961
 21
18344.340307999992
 31
0.0
  0
LINE
  5
40B2
  8
2-0
  6
CONTINUOUS
 62
     3
 10
26063.049930999961
 20
18344.340307999992
 30
0.0
 11
26093.047554999961
 21
18344.340307999992
 31
0.0
  0
LINE
  5
40B3
  8
2-0
  6
CONTINUOUS
 62
     3
 10
26063.049930999961
 20
18360.431814999982
 30
0.0
 11
26063.049930999961
 21
18354.435852999992
 31
0.0
  0
LINE
  5
40B4
  8
2-0
  6
CONTINUOUS
 62
     3
 10
26063.049930999961
 20
18354.435852999992
 30
0.0
 11
26093.047554999961
 21
18354.435852999992
 31
0.0
  0
LINE
  5
40B5
  8
2-0
  6
CONTINUOUS
 62
     3
 10
26093.047554999961
 20
18354.435852999992
 30
0.0
 11
26093.047554999961
 21
18391.435034999991
 31
0.0
  0
LINE
  5
40B6
  8
2-0
  6
CONTINUOUS
 62
     3
 10
26063.049930999961
 20
18391.435034999991
 30
0.0
 11
26093.047554999961
 21
18391.435034999991
 31
0.0
  0
LINE
  5
40B7
  8
2-0
  6
CONTINUOUS
 62
     3
 10
26063.049930999961
 20
18385.439073000001
 30
0.0
 11
26063.049930999961
 21
18391.435034999991
 31
0.0
  0
LINE
  5
40B8
  8
2-0
  6
CONTINUOUS
 62
     3
 10
26063.049930999961
 20
18401.530579999991
 30
0.0
 11
26093.047554999961
 21
18401.530579999991
 31
0.0
  0
LINE
  5
40B9
  8
2-0
  6
CONTINUOUS
 62
     3
 10
26063.049930999961
 20
18383.528837999991
 30
0.0
 11
26063.049930999961
 21
18401.530579999991
 31
0.0
  0
LINE
  5
40BA
  8
2-0
  6
CONTINUOUS
 62
     3
 10
26088.047290999959
 20
18383.528837999991
 30
0.0
 11
26063.049930999961
 21
18383.528837999991
 31
0.0
  0
LINE
  5
40BB
  8
2-0
  6
CONTINUOUS
 62
     3
 10
26088.047290999959
 20
18388.535039999992
 30
0.0
 11
26088.047290999959
 21
18383.528837999991
 31
0.0
  0
LINE
  5
40BC
  8
2-0
  6
CONTINUOUS
 62
     3
 10
26081.04573399997
 20
18388.535039999992
 30
0.0
 11
26088.047290999959
 21
18388.535039999992
 31
0.0
  0
LINE
  5
40BD
  8
2-0
  6
CONTINUOUS
 62
     3
 10
26081.04573399997
 20
17687.52910199999
 30
0.0
 11
26088.047290999959
 21
17687.52910199999
 31
0.0
  0
LINE
  5
40BE
  8
2-0
  6
CONTINUOUS
 62
     3
 10
26088.047290999959
 20
17687.52910199999
 30
0.0
 11
26088.047290999959
 21
17682.540714999981
 31
0.0
  0
LINE
  5
40BF
  8
2-0
  6
CONTINUOUS
 62
     3
 10
26088.047290999959
 20
17682.540714999981
 30
0.0
 11
26063.049930999961
 21
17682.540714999981
 31
0.0
  0
LINE
  5
40C0
  8
2-0
  6
CONTINUOUS
 62
     3
 10
26063.049930999961
 20
17682.540714999981
 30
0.0
 11
26063.049930999961
 21
17700.53651799999
 31
0.0
  0
LINE
  5
40C1
  8
2-0
  6
CONTINUOUS
 62
     3
 10
26063.049930999961
 20
17700.53651799999
 30
0.0
 11
26093.047554999961
 21
17700.53651799999
 31
0.0
  0
LINE
  5
40C2
  8
2-0
  6
CONTINUOUS
 62
     3
 10
26063.049930999961
 20
17684.43907299999
 30
0.0
 11
26063.049930999961
 21
17690.43503499998
 31
0.0
  0
LINE
  5
40C3
  8
2-0
  6
CONTINUOUS
 62
     3
 10
26063.049930999961
 20
17690.43503499998
 30
0.0
 11
26093.047554999961
 21
17690.43503499998
 31
0.0
  0
LINE
  5
40C4
  8
2-0
  6
CONTINUOUS
 62
     3
 10
26093.047554999961
 20
17690.43503499998
 30
0.0
 11
26093.047554999961
 21
17653.435852999992
 31
0.0
  0
LINE
  5
40C5
  8
2-0
  6
CONTINUOUS
 62
     3
 10
26063.049930999961
 20
17653.435852999992
 30
0.0
 11
26093.047554999961
 21
17653.435852999992
 31
0.0
  0
LINE
  5
40C6
  8
2-0
  6
CONTINUOUS
 62
     3
 10
26063.049930999961
 20
17659.43775399998
 30
0.0
 11
26063.049930999961
 21
17653.435852999992
 31
0.0
  0
LINE
  5
40C7
  8
2-0
  6
CONTINUOUS
 62
     3
 10
26063.049930999961
 20
17643.34624699999
 30
0.0
 11
26093.047554999961
 21
17643.34624699999
 31
0.0
  0
LINE
  5
40C8
  8
2-0
  6
CONTINUOUS
 62
     3
 10
26063.049930999961
 20
17661.342049999981
 30
0.0
 11
26063.049930999961
 21
17643.34624699999
 31
0.0
  0
LINE
  5
40C9
  8
2-0
  6
CONTINUOUS
 62
     3
 10
26088.047290999959
 20
17661.342049999981
 30
0.0
 11
26063.049930999961
 21
17661.342049999981
 31
0.0
  0
LINE
  5
40CA
  8
2-0
  6
CONTINUOUS
 62
     3
 10
26088.047290999959
 20
17656.34178699999
 30
0.0
 11
26088.047290999959
 21
17661.342049999981
 31
0.0
  0
LINE
  5
40CB
  8
2-0
  6
CONTINUOUS
 62
     3
 10
26081.04573399997
 20
17656.34178699999
 30
0.0
 11
26088.047290999959
 21
17656.34178699999
 31
0.0
  0
LINE
  5
40CC
  8
2-0
  6
CONTINUOUS
 62
     3
 10
26090.16141699997
 20
16936.432672999981
 30
0.0
 11
26090.16141699997
 21
16956.433727999982
 31
0.0
  0
LINE
  5
40CD
  8
2-0
  6
CONTINUOUS
 62
     3
 10
26090.16141699997
 20
16956.433727999982
 30
0.0
 11
26005.164847999949
 21
16956.433727999982
 31
0.0
  0
LINE
  5
40CE
  8
2-0
  6
CONTINUOUS
 62
     3
 10
26081.04573399997
 20
16983.040437999982
 30
0.0
 11
26088.047290999959
 21
16983.040437999982
 31
0.0
  0
LINE
  5
40CF
  8
2-0
  6
CONTINUOUS
 62
     3
 10
26088.047290999959
 20
16983.040437999982
 30
0.0
 11
26088.047290999959
 21
16978.046112
 31
0.0
  0
LINE
  5
40D0
  8
2-0
  6
CONTINUOUS
 62
     3
 10
26088.047290999959
 20
16978.046112
 30
0.0
 11
26063.049930999961
 21
16978.046112
 31
0.0
  0
LINE
  5
40D1
  8
2-0
  6
CONTINUOUS
 62
     3
 10
26063.049930999961
 20
16978.046112
 30
0.0
 11
26063.049930999961
 21
16996.041915999991
 31
0.0
  0
LINE
  5
40D2
  8
2-0
  6
CONTINUOUS
 62
     3
 10
26063.049930999961
 20
16996.041915999991
 30
0.0
 11
26093.047554999961
 21
16996.041915999991
 31
0.0
  0
LINE
  5
40D3
  8
2-0
  6
CONTINUOUS
 62
     3
 10
26063.049930999961
 20
16986.433331999971
 30
0.0
 11
26063.049930999961
 21
16980.43143199999
 31
0.0
  0
LINE
  5
40D4
  8
2-0
  6
CONTINUOUS
 62
     3
 10
26093.047554999961
 20
16986.433331999971
 30
0.0
 11
26063.049930999961
 21
16986.433331999971
 31
0.0
  0
LINE
  5
40D5
  8
2-0
  6
CONTINUOUS
 62
     3
 10
26093.047554999961
 20
16996.041915999991
 30
0.0
 11
26093.047554999961
 21
17643.34624699999
 31
0.0
  0
LINE
  5
40D6
  8
2-0
  6
CONTINUOUS
 62
     3
 10
26093.047554999961
 20
17700.53651799999
 30
0.0
 11
26093.047554999961
 21
18344.340307999992
 31
0.0
  0
LINE
  5
40D7
  8
2-0
  6
CONTINUOUS
 62
     3
 10
26093.047554999961
 20
16841.431616999991
 30
0.0
 11
26063.049930999961
 21
16841.431616999991
 31
0.0
  0
LINE
  5
40D8
  8
2-0
  6
CONTINUOUS
 62
     3
 10
26063.049930999961
 20
16841.431616999991
 30
0.0
 11
26063.049930999961
 21
16847.433517000001
 31
0.0
  0
LINE
  5
40D9
  8
2-0
  6
CONTINUOUS
 62
     3
 10
26005.164847999949
 20
16871.43715999999
 30
0.0
 11
26090.16141699997
 21
16871.43715999999
 31
0.0
  0
LINE
  5
40DA
  8
2-0
  6
CONTINUOUS
 62
     3
 10
26090.16141699997
 20
16871.43715999999
 30
0.0
 11
26090.16141699997
 21
16891.432276999982
 31
0.0
  0
LINE
  5
40DB
  8
2-0
  6
CONTINUOUS
 62
     3
 10
26063.049930999961
 20
16831.82303399999
 30
0.0
 11
26093.047554999961
 21
16831.82303399999
 31
0.0
  0
LINE
  5
40DC
  8
2-0
  6
CONTINUOUS
 62
     3
 10
26063.049930999961
 20
16849.818836999981
 30
0.0
 11
26063.049930999961
 21
16831.82303399999
 31
0.0
  0
LINE
  5
40DD
  8
2-0
  6
CONTINUOUS
 62
     3
 10
26088.047290999959
 20
16849.818836999981
 30
0.0
 11
26063.049930999961
 21
16849.818836999981
 31
0.0
  0
LINE
  5
40DE
  8
2-0
  6
CONTINUOUS
 62
     3
 10
26088.047290999959
 20
16844.81857299999
 30
0.0
 11
26088.047290999959
 21
16849.818836999981
 31
0.0
  0
LINE
  5
40DF
  8
2-0
  6
CONTINUOUS
 62
     3
 10
26081.04573399997
 20
16844.81857299999
 30
0.0
 11
26088.047290999959
 21
16844.81857299999
 31
0.0
  0
LINE
  5
40E0
  8
2-0
  6
CONTINUOUS
 62
     3
 10
26081.04573399997
 20
16140.336342499961
 30
0.0
 11
26088.047290999959
 21
16140.336342499961
 31
0.0
  0
LINE
  5
40E1
  8
2-0
  6
CONTINUOUS
 62
     3
 10
26088.047290999959
 20
16140.336342499961
 30
0.0
 11
26088.047290999959
 21
16145.336606499979
 31
0.0
  0
LINE
  5
40E2
  8
2-0
  6
CONTINUOUS
 62
     3
 10
26088.047290999959
 20
16145.336606499979
 30
0.0
 11
26063.049930999961
 21
16145.336606499979
 31
0.0
  0
LINE
  5
40E3
  8
2-0
  6
CONTINUOUS
 62
     3
 10
26063.049930999961
 20
16145.336606499979
 30
0.0
 11
26063.049930999961
 21
16127.334864499981
 31
0.0
  0
LINE
  5
40E4
  8
2-0
  6
CONTINUOUS
 62
     3
 10
26063.049930999961
 20
16127.334864499981
 30
0.0
 11
26093.047554999961
 21
16127.334864499981
 31
0.0
  0
LINE
  5
40E5
  8
2-0
  6
CONTINUOUS
 62
     3
 10
26063.049930999961
 20
16143.432309499991
 30
0.0
 11
26063.049930999961
 21
16137.435358499981
 31
0.0
  0
LINE
  5
40E6
  8
2-0
  6
CONTINUOUS
 62
     3
 10
26063.049930999961
 20
16137.435358499981
 30
0.0
 11
26093.047554999961
 21
16137.435358499981
 31
0.0
  0
LINE
  5
40E7
  8
2-0
  6
CONTINUOUS
 62
     3
 10
26093.047554999961
 20
16137.435358499981
 30
0.0
 11
26093.047554999961
 21
16174.43552949999
 31
0.0
  0
LINE
  5
40E8
  8
2-0
  6
CONTINUOUS
 62
     3
 10
26063.049930999961
 20
16174.43552949999
 30
0.0
 11
26093.047554999961
 21
16174.43552949999
 31
0.0
  0
LINE
  5
40E9
  8
2-0
  6
CONTINUOUS
 62
     3
 10
26063.049930999961
 20
16168.432639499981
 30
0.0
 11
26063.049930999961
 21
16174.43552949999
 31
0.0
  0
LINE
  5
40EA
  8
2-0
  6
CONTINUOUS
 62
     3
 10
26063.049930999961
 20
16184.531074499981
 30
0.0
 11
26093.047554999961
 21
16184.531074499981
 31
0.0
  0
LINE
  5
40EB
  8
2-0
  6
CONTINUOUS
 62
     3
 10
26063.049930999961
 20
16166.523393499991
 30
0.0
 11
26063.049930999961
 21
16184.531074499981
 31
0.0
  0
LINE
  5
40EC
  8
2-0
  6
CONTINUOUS
 62
     3
 10
26088.047290999959
 20
16166.523393499991
 30
0.0
 11
26063.049930999961
 21
16166.523393499991
 31
0.0
  0
LINE
  5
40ED
  8
2-0
  6
CONTINUOUS
 62
     3
 10
26088.047290999959
 20
16171.52959649998
 30
0.0
 11
26088.047290999959
 21
16166.523393499991
 31
0.0
  0
LINE
  5
40EE
  8
2-0
  6
CONTINUOUS
 62
     3
 10
26081.04573399997
 20
16171.52959649998
 30
0.0
 11
26088.047290999959
 21
16171.52959649998
 31
0.0
  0
LINE
  5
40EF
  8
2-0
  6
CONTINUOUS
 62
     3
 10
26081.04573399997
 20
15470.76961299998
 30
0.0
 11
26088.047290999959
 21
15470.76961299998
 31
0.0
  0
LINE
  5
40F0
  8
2-0
  6
CONTINUOUS
 62
     3
 10
26088.047290999959
 20
15470.76961299998
 30
0.0
 11
26088.047290999959
 21
15465.775288000001
 31
0.0
  0
LINE
  5
40F1
  8
2-0
  6
CONTINUOUS
 62
     3
 10
26088.047290999959
 20
15465.775288000001
 30
0.0
 11
26063.049930999961
 21
15465.775288000001
 31
0.0
  0
LINE
  5
40F2
  8
2-0
  6
CONTINUOUS
 62
     3
 10
26063.049930999961
 20
15465.775288000001
 30
0.0
 11
26063.049930999961
 21
15483.771091000001
 31
0.0
  0
LINE
  5
40F3
  8
2-0
  6
CONTINUOUS
 62
     3
 10
26063.049930999961
 20
15483.771091000001
 30
0.0
 11
26093.047554999961
 21
15483.771091000001
 31
0.0
  0
LINE
  5
40F4
  8
2-0
  6
CONTINUOUS
 62
     3
 10
26063.049930999961
 20
15467.67364599999
 30
0.0
 11
26063.049930999961
 21
15473.675546
 31
0.0
  0
LINE
  5
40F5
  8
2-0
  6
CONTINUOUS
 62
     3
 10
26063.049930999961
 20
15473.675546
 30
0.0
 11
26093.047554999961
 21
15473.675546
 31
0.0
  0
LINE
  5
40F6
  8
2-0
  6
CONTINUOUS
 62
     3
 10
26093.047554999961
 20
15436.67636499999
 30
0.0
 11
26093.047554999961
 21
15473.675546
 31
0.0
  0
LINE
  5
40F7
  8
2-0
  6
CONTINUOUS
 62
     3
 10
26063.049930999961
 20
15436.67636499999
 30
0.0
 11
26093.047554999961
 21
15436.67636499999
 31
0.0
  0
LINE
  5
40F8
  8
2-0
  6
CONTINUOUS
 62
     3
 10
26063.049930999961
 20
15442.67331599998
 30
0.0
 11
26063.049930999961
 21
15436.67636499999
 31
0.0
  0
LINE
  5
40F9
  8
2-0
  6
CONTINUOUS
 62
     3
 10
26063.049930999961
 20
15426.57488099998
 30
0.0
 11
26093.047554999961
 21
15426.57488099998
 31
0.0
  0
LINE
  5
40FA
  8
2-0
  6
CONTINUOUS
 62
     3
 10
26063.049930999961
 20
15444.582561999991
 30
0.0
 11
26063.049930999961
 21
15426.57488099998
 31
0.0
  0
LINE
  5
40FB
  8
2-0
  6
CONTINUOUS
 62
     3
 10
26088.047290999959
 20
15444.582561999991
 30
0.0
 11
26063.049930999961
 21
15444.582561999991
 31
0.0
  0
LINE
  5
40FC
  8
2-0
  6
CONTINUOUS
 62
     3
 10
26088.047290999959
 20
15439.582297999999
 30
0.0
 11
26088.047290999959
 21
15444.582561999991
 31
0.0
  0
LINE
  5
40FD
  8
2-0
  6
CONTINUOUS
 62
     3
 10
26081.04573399997
 20
15439.582297999999
 30
0.0
 11
26088.047290999959
 21
15439.582297999999
 31
0.0
  0
LINE
  5
40FE
  8
2-0
  6
CONTINUOUS
 62
     3
 10
26093.047554999961
 20
16831.82303399999
 30
0.0
 11
26093.047554999961
 21
16184.531074499981
 31
0.0
  0
LINE
  5
40FF
  8
2-0
  6
CONTINUOUS
 62
     3
 10
26093.047554999961
 20
16986.433331999971
 30
0.0
 11
26093.047554999961
 21
16841.431616999991
 31
0.0
  0
LINE
  5
4100
  8
2-0
  6
CONTINUOUS
 62
     3
 10
26005.164847999949
 20
16956.433727999982
 30
0.0
 11
26005.164847999949
 21
16871.43715999999
 31
0.0
  0
LINE
  5
4101
  8
2-0
  6
CONTINUOUS
 62
     6
 10
24466.956180999961
 20
18724.88099349997
 30
0.0
 11
25491.98851299996
 21
18724.88099349997
 31
0.0
  0
LINE
  5
4102
  8
2-0
  6
CONTINUOUS
 62
     3
 10
26081.04573399997
 20
14738.34129099999
 30
0.0
 11
26088.047290999959
 21
14738.34129099999
 31
0.0
  0
LINE
  5
4103
  8
2-0
  6
CONTINUOUS
 62
     3
 10
26088.047290999959
 20
14738.34129099999
 30
0.0
 11
26088.047290999959
 21
14743.33561699999
 31
0.0
  0
LINE
  5
4104
  8
2-0
  6
CONTINUOUS
 62
     3
 10
26088.047290999959
 20
14743.33561699999
 30
0.0
 11
26063.049930999961
 21
14743.33561699999
 31
0.0
  0
LINE
  5
4105
  8
2-0
  6
CONTINUOUS
 62
     3
 10
26063.049930999961
 20
14743.33561699999
 30
0.0
 11
26063.049930999961
 21
14725.33981299999
 31
0.0
  0
LINE
  5
4106
  8
2-0
  6
CONTINUOUS
 62
     3
 10
26063.049930999961
 20
14725.33981299999
 30
0.0
 11
26093.047554999961
 21
14725.33981299999
 31
0.0
  0
LINE
  5
4107
  8
2-0
  6
CONTINUOUS
 62
     3
 10
26063.049930999961
 20
14741.43824799998
 30
0.0
 11
26063.049930999961
 21
14735.43535799999
 31
0.0
  0
LINE
  5
4108
  8
2-0
  6
CONTINUOUS
 62
     3
 10
26063.049930999961
 20
14735.43535799999
 30
0.0
 11
26093.047554999961
 21
14735.43535799999
 31
0.0
  0
LINE
  5
4109
  8
2-0
  6
CONTINUOUS
 62
     3
 10
26093.047554999961
 20
14735.43535799999
 30
0.0
 11
26093.047554999961
 21
14772.435529999981
 31
0.0
  0
LINE
  5
410A
  8
2-0
  6
CONTINUOUS
 62
     3
 10
26063.049930999961
 20
14772.435529999981
 30
0.0
 11
26093.047554999961
 21
14772.435529999981
 31
0.0
  0
LINE
  5
410B
  8
2-0
  6
CONTINUOUS
 62
     3
 10
26063.049930999961
 20
14766.438577999979
 30
0.0
 11
26063.049930999961
 21
14772.435529999981
 31
0.0
  0
LINE
  5
410C
  8
2-0
  6
CONTINUOUS
 62
     3
 10
26063.049930999961
 20
14782.536022999981
 30
0.0
 11
26093.047554999961
 21
14782.536022999981
 31
0.0
  0
LINE
  5
410D
  8
2-0
  6
CONTINUOUS
 62
     3
 10
26063.049930999961
 20
14764.52933199998
 30
0.0
 11
26063.049930999961
 21
14782.536022999981
 31
0.0
  0
LINE
  5
410E
  8
2-0
  6
CONTINUOUS
 62
     3
 10
26088.047290999959
 20
14764.52933199998
 30
0.0
 11
26063.049930999961
 21
14764.52933199998
 31
0.0
  0
LINE
  5
410F
  8
2-0
  6
CONTINUOUS
 62
     3
 10
26088.047290999959
 20
14769.53454499998
 30
0.0
 11
26088.047290999959
 21
14764.52933199998
 31
0.0
  0
LINE
  5
4110
  8
2-0
  6
CONTINUOUS
 62
     3
 10
26081.04573399997
 20
14769.53454499998
 30
0.0
 11
26088.047290999959
 21
14769.53454499998
 31
0.0
  0
LINE
  5
4111
  8
2-0
  6
CONTINUOUS
 62
     3
 10
26063.049930999961
 20
14062.43737099998
 30
0.0
 11
26063.049930999961
 21
14068.44223999998
 31
0.0
  0
LINE
  5
4112
  8
2-0
  6
CONTINUOUS
 62
     3
 10
26063.049930999961
 20
14068.44223999998
 30
0.0
 11
26093.047554999961
 21
14068.44223999998
 31
0.0
  0
LINE
  5
4113
  8
2-0
  6
CONTINUOUS
 62
     3
 10
26093.047554999961
 20
14068.44223999998
 30
0.0
 11
26093.047554999961
 21
13953.438148999991
 31
0.0
  0
LINE
  5
4114
  8
2-0
  6
CONTINUOUS
 62
     3
 10
26093.047554999961
 20
13953.438148999991
 30
0.0
 11
26008.049006999961
 21
13953.438148999991
 31
0.0
  0
LINE
  5
4115
  8
2-0
  6
CONTINUOUS
 62
     3
 10
26008.049006999961
 20
13953.438148999991
 30
0.0
 11
26008.049006999961
 21
14038.43372799998
 31
0.0
  0
LINE
  5
4116
  8
2-0
  6
CONTINUOUS
 62
     3
 10
26008.049006999961
 20
14038.43372799998
 30
0.0
 11
26040.047924999959
 21
14038.43372799998
 31
0.0
  0
LINE
  5
4117
  8
2-0
  6
CONTINUOUS
 62
     3
 10
26081.04573399997
 20
14065.471972999991
 30
0.0
 11
26088.047290999959
 21
14065.471972999991
 31
0.0
  0
LINE
  5
4118
  8
2-0
  6
CONTINUOUS
 62
     3
 10
26088.047290999959
 20
14065.471972999991
 30
0.0
 11
26088.047290999959
 21
14060.47467799995
 31
0.0
  0
LINE
  5
4119
  8
2-0
  6
CONTINUOUS
 62
     3
 10
26088.047290999959
 20
14060.47467799995
 30
0.0
 11
26063.049930999961
 21
14060.47467799995
 31
0.0
  0
LINE
  5
411A
  8
2-0
  6
CONTINUOUS
 62
     3
 10
26063.049930999961
 20
14060.47467799995
 30
0.0
 11
26063.049930999961
 21
14078.473450999991
 31
0.0
  0
LINE
  5
411B
  8
2-0
  6
CONTINUOUS
 62
     3
 10
26063.049930999961
 20
14078.473450999991
 30
0.0
 11
26093.047554999961
 21
14078.473450999991
 31
0.0
  0
LINE
  5
411C
  8
2-0
  6
CENTER2
 62
     6
 10
26050.54927099996
 20
13755.94059099997
 30
0.0
 11
26050.54927099996
 21
14911.809348999999
 31
0.0
  0
LINE
  5
411D
  8
2-0
  6
CONTINUOUS
 62
     3
 10
26093.047554999961
 20
18401.530579999991
 30
0.0
 11
26093.047554999961
 21
19045.341297499981
 31
0.0
  0
LINE
  5
411E
  8
2-0
  6
CONTINUOUS
 62
     6
 10
26785.552437999959
 20
20253.936632000001
 30
0.0
 11
27985.546499999939
 21
20253.936632000001
 31
0.0
  0
LINE
  5
411F
  8
2-0
  6
CONTINUOUS
 62
     3
 10
23205.05111899996
 20
19523.933729000011
 30
0.0
 11
23205.05111899996
 21
19493.930165999998
 31
0.0
  0
LINE
  5
4120
  8
2-0
  6
CONTINUOUS
 62
     3
 10
23205.05111899996
 20
19493.930165999998
 30
0.0
 11
23199.053176999962
 21
19493.930165999998
 31
0.0
  0
LINE
  5
4121
  8
2-0
  6
CONTINUOUS
 62
     3
 10
23214.667619999971
 20
19493.930165999998
 30
0.0
 11
23214.667619999971
 21
19523.933729000011
 31
0.0
  0
LINE
  5
4122
  8
2-0
  6
CONTINUOUS
 62
     3
 10
23196.66587799996
 20
19493.930165999998
 30
0.0
 11
23214.667619999971
 21
19493.930165999998
 31
0.0
  0
LINE
  5
4123
  8
2-0
  6
CONTINUOUS
 62
     3
 10
23196.66587799996
 20
19518.939403
 30
0.0
 11
23196.66587799996
 21
19493.930165999998
 31
0.0
  0
LINE
  5
4124
  8
2-0
  6
CONTINUOUS
 62
     3
 10
23201.666141999958
 20
19518.939403
 30
0.0
 11
23196.66587799996
 21
19518.939403
 31
0.0
  0
LINE
  5
4125
  8
2-0
  6
CONTINUOUS
 62
     3
 10
23201.666141999958
 20
19511.93388700001
 30
0.0
 11
23201.666141999958
 21
19518.939403
 31
0.0
  0
LINE
  5
4126
  8
2-0
  6
CONTINUOUS
 62
     3
 10
23175.04953499998
 20
19521.041652
 30
0.0
 11
23175.04953499998
 21
19436.043104000011
 31
0.0
  0
LINE
  5
4127
  8
2-0
  6
CONTINUOUS
 62
     3
 10
23155.052437999981
 20
19521.041652
 30
0.0
 11
23175.04953499998
 21
19521.041652
 31
0.0
  0
LINE
  5
4128
  8
2-0
  6
CONTINUOUS
 62
     3
 10
23063.43833899996
 20
19511.93388700001
 30
0.0
 11
23063.43833899996
 21
19518.939403
 31
0.0
  0
LINE
  5
4129
  8
2-0
  6
CONTINUOUS
 62
     3
 10
23063.43833899996
 20
19518.939403
 30
0.0
 11
23068.43860299997
 21
19518.939403
 31
0.0
  0
LINE
  5
412A
  8
2-0
  6
CONTINUOUS
 62
     3
 10
23068.43860299997
 20
19518.939403
 30
0.0
 11
23068.43860299997
 21
19493.930165999998
 31
0.0
  0
LINE
  5
412B
  8
2-0
  6
CONTINUOUS
 62
     3
 10
23068.43860299997
 20
19493.930165999998
 30
0.0
 11
23050.436860999958
 21
19493.930165999998
 31
0.0
  0
LINE
  5
412C
  8
2-0
  6
CONTINUOUS
 62
     3
 10
23050.436860999958
 20
19493.930165999998
 30
0.0
 11
23050.436860999958
 21
19523.933729000011
 31
0.0
  0
LINE
  5
412D
  8
2-0
  6
CONTINUOUS
 62
     3
 10
23090.05692499995
 20
19521.041652
 30
0.0
 11
23110.05204199997
 21
19521.041652
 31
0.0
  0
LINE
  5
412E
  8
2-0
  6
CONTINUOUS
 62
     3
 10
23090.05692499995
 20
19436.043104000011
 30
0.0
 11
23090.05692499995
 21
19521.041652
 31
0.0
  0
LINE
  5
412F
  8
2-0
  6
CONTINUOUS
 62
     3
 10
23060.059300999968
 20
19493.930165999998
 30
0.0
 11
23066.055261999962
 21
19493.930165999998
 31
0.0
  0
LINE
  5
4130
  8
2-0
  6
CONTINUOUS
 62
     3
 10
23060.059300999968
 20
19523.933729000011
 30
0.0
 11
23060.059300999968
 21
19493.930165999998
 31
0.0
  0
LINE
  5
4131
  8
2-0
  6
CONTINUOUS
 62
     3
 10
23175.04953499998
 20
19436.043104000011
 30
0.0
 11
23090.05692499995
 21
19436.043104000011
 31
0.0
  0
LINE
  5
4132
  8
2-0
  6
CONTINUOUS
 62
     3
 10
23205.05111899996
 20
19523.933729000011
 30
0.0
 11
23060.059300999968
 21
19523.933729000011
 31
0.0
  0
LINE
  5
4133
  8
2-0
  6
CONTINUOUS
 62
     6
 10
25923.519604999961
 20
18967.035501499991
 30
0.0
 11
25491.98851299996
 21
18724.88099349997
 31
0.0
  0
LINE
  5
4134
  8
2-0
  6
CONTINUOUS
 62
     6
 10
26245.088438999941
 20
19666.613469
 30
0.0
 11
26785.552437999959
 21
20253.936632000001
 31
0.0
  0
LINE
  5
4135
  8
2-0
  6
CONTINUOUS
 62
     6
 10
23175.04953499998
 20
14038.43372799998
 30
0.0
 11
23451.639747999969
 21
14493.778427999971
 31
0.0
  0
LINE
  5
4136
  8
2-0
  6
CONTINUOUS
 62
     6
 10
23451.639747999969
 20
14493.778427999971
 30
0.0
 11
24481.989066999959
 21
14493.778427999971
 31
0.0
  0
LINE
  5
4137
  8
2-0
  6
CONTINUOUS
 62
     3
 10
26002.043147999961
 20
18330.434189999982
 30
0.0
 11
26049.048795999941
 21
18330.434189999982
 31
0.0
  0
LINE
  5
4138
  8
2-0
  6
CONTINUOUS
 62
     3
 10
26049.048795999941
 20
18415.434717999979
 30
0.0
 11
26002.043147999961
 21
18415.434717999979
 31
0.0
  0
LINE
  5
4139
  8
2-0
  6
CONTINUOUS
 62
     3
 10
26049.048795999941
 20
18330.434189999982
 30
0.0
 11
26049.048795999941
 21
18355.437488999989
 31
0.0
  0
LINE
  5
413A
  8
2-0
  6
CONTINUOUS
 62
     3
 10
26049.048795999941
 20
18390.433398000001
 30
0.0
 11
26049.048795999941
 21
18415.434717999979
 31
0.0
  0
LINE
  5
413B
  8
2-0
  6
CONTINUOUS
 62
     3
 10
26002.043147999961
 20
18415.434717999979
 30
0.0
 11
26002.043147999961
 21
18330.434189999982
 31
0.0
  0
LINE
  5
413C
  8
2-0
  6
CONTINUOUS
 62
     3
 10
26093.047554999961
 20
16127.334864499981
 30
0.0
 11
26093.047554999961
 21
15483.771091000001
 31
0.0
  0
LINE
  5
413D
  8
2-0
  6
CONTINUOUS
 62
     3
 10
26002.043147999961
 20
15412.43715999999
 30
0.0
 11
26049.048795999941
 21
15412.43715999999
 31
0.0
  0
LINE
  5
413E
  8
2-0
  6
CONTINUOUS
 62
     3
 10
26049.048795999941
 20
15497.43372799998
 30
0.0
 11
26002.043147999961
 21
15497.43372799998
 31
0.0
  0
LINE
  5
413F
  8
2-0
  6
CONTINUOUS
 62
     3
 10
26049.048795999941
 20
15412.43715999999
 30
0.0
 11
26049.048795999941
 21
15437.432540999989
 31
0.0
  0
LINE
  5
4140
  8
2-0
  6
CONTINUOUS
 62
     3
 10
26049.048795999941
 20
15472.432408999999
 30
0.0
 11
26049.048795999941
 21
15497.43372799998
 31
0.0
  0
LINE
  5
4141
  8
2-0
  6
CONTINUOUS
 62
     3
 10
26002.043147999961
 20
15497.43372799998
 30
0.0
 11
26002.043147999961
 21
15412.43715999999
 31
0.0
  0
LINE
  5
4142
  8
2-0
  6
CONTINUOUS
 62
     6
 10
23235.327854999981
 20
14189.029562999969
 30
0.0
 11
23175.04953499998
 21
14038.43372799998
 31
0.0
  0
LINE
  5
4143
  8
2-0
  6
CONTINUOUS
 62
     6
 10
23175.04953499998
 20
14038.43372799998
 30
0.0
 11
23280.908249999931
 21
14161.34203699998
 31
0.0
  0
LINE
  5
4144
  8
2-0
  6
CONTINUOUS
 62
     6
 10
23235.327854999981
 20
14189.029562999969
 30
0.0
 11
23280.908249999931
 21
14161.34203699998
 31
0.0
  0
LINE
  5
4145
  8
2-0
  6
CONTINUOUS
 62
     6
 10
23280.908249999931
 20
14161.34203699998
 30
0.0
 11
23175.04953499998
 21
14038.43372799998
 31
0.0
  0
LINE
  5
4146
  8
2-0
  6
CONTINUOUS
 62
     6
 10
23175.04953499998
 20
14038.43372799998
 30
0.0
 11
23235.327854999981
 21
14189.029562999969
 31
0.0
  0
LINE
  5
4147
  8
2-0
  6
CONTINUOUS
 62
     6
 10
23235.327854999981
 20
14189.029562999969
 30
0.0
 11
23175.04953499998
 21
14038.43372799998
 31
0.0
  0
LINE
  5
4148
  8
2-0
  6
CONTINUOUS
 62
     6
 10
23280.908249999931
 20
14161.34203699998
 30
0.0
 11
23175.04953499998
 21
14038.43372799998
 31
0.0
  0
LINE
  5
4149
  8
2-0
  6
CONTINUOUS
 62
     6
 10
23280.908249999931
 20
14161.34203699998
 30
0.0
 11
23235.327854999981
 21
14189.029562999969
 31
0.0
  0
LINE
  5
414A
  8
2-0
  6
CONTINUOUS
 62
     6
 10
25910.46269999996
 20
18990.294845499961
 30
0.0
 11
26063.049930999961
 21
19045.341297499981
 31
0.0
  0
LINE
  5
414B
  8
2-0
  6
CONTINUOUS
 62
     6
 10
26063.049930999961
 20
19045.341297499981
 30
0.0
 11
25936.56859099997
 21
18943.782097499981
 31
0.0
  0
LINE
  5
414C
  8
2-0
  6
CONTINUOUS
 62
     6
 10
25910.46269999996
 20
18990.294845499961
 30
0.0
 11
25936.56859099997
 21
18943.782097499981
 31
0.0
  0
LINE
  5
414D
  8
2-0
  6
CONTINUOUS
 62
     6
 10
25936.56859099997
 20
18943.782097499981
 30
0.0
 11
26063.049930999961
 21
19045.341297499981
 31
0.0
  0
LINE
  5
414E
  8
2-0
  6
CONTINUOUS
 62
     6
 10
26063.049930999961
 20
19045.341297499981
 30
0.0
 11
25910.46269999996
 21
18990.294845499961
 31
0.0
  0
LINE
  5
414F
  8
2-0
  6
CONTINUOUS
 62
     6
 10
25910.46269999996
 20
18990.294845499961
 30
0.0
 11
26063.049930999961
 21
19045.341297499981
 31
0.0
  0
LINE
  5
4150
  8
2-0
  6
CONTINUOUS
 62
     6
 10
25936.56859099997
 20
18943.782097499981
 30
0.0
 11
26063.049930999961
 21
19045.341297499981
 31
0.0
  0
LINE
  5
4151
  8
2-0
  6
CONTINUOUS
 62
     6
 10
25936.56859099997
 20
18943.782097499981
 30
0.0
 11
25910.46269999996
 21
18990.294845499961
 31
0.0
  0
LINE
  5
4152
  8
2-0
  6
CONTINUOUS
 62
     6
 10
26264.70546799996
 20
19648.552341999999
 30
0.0
 11
26136.743447999961
 21
19548.869724
 31
0.0
  0
LINE
  5
4153
  8
2-0
  6
CONTINUOUS
 62
     6
 10
26136.743447999961
 20
19548.869724
 30
0.0
 11
26225.45755299996
 21
19684.666678999991
 31
0.0
  0
LINE
  5
4154
  8
2-0
  6
CONTINUOUS
 62
     6
 10
26264.70546799996
 20
19648.552341999999
 30
0.0
 11
26225.45755299996
 21
19684.666678999991
 31
0.0
  0
LINE
  5
4155
  8
2-0
  6
CONTINUOUS
 62
     6
 10
26225.45755299996
 20
19684.666678999991
 30
0.0
 11
26136.743447999961
 21
19548.869724
 31
0.0
  0
LINE
  5
4156
  8
2-0
  6
CONTINUOUS
 62
     6
 10
26136.743447999961
 20
19548.869724
 30
0.0
 11
26264.70546799996
 21
19648.552341999999
 31
0.0
  0
LINE
  5
4157
  8
2-0
  6
CONTINUOUS
 62
     6
 10
26264.70546799996
 20
19648.552341999999
 30
0.0
 11
26136.743447999961
 21
19548.869724
 31
0.0
  0
LINE
  5
4158
  8
2-0
  6
CONTINUOUS
 62
     6
 10
26225.45755299996
 20
19684.666678999991
 30
0.0
 11
26136.743447999961
 21
19548.869724
 31
0.0
  0
LINE
  5
4159
  8
2-0
  6
CONTINUOUS
 62
     6
 10
26225.45755299996
 20
19684.666678999991
 30
0.0
 11
26264.70546799996
 21
19648.552341999999
 31
0.0
  0
LINE
  5
415A
  8
2-0
  6
CONTINUOUS
 62
     6
 10
19256.47967099999
 20
19276.161347000001
 30
0.0
 11
19388.412604000001
 21
18806.815512000001
 31
0.0
  0
LINE
  5
415B
  8
2-0
  6
CONTINUOUS
 62
     6
 10
19388.412604000001
 20
18806.815512000001
 30
0.0
 11
20413.450874999991
 21
18806.815512000001
 31
0.0
  0
LINE
  5
415C
  8
2-0
  6
CONTINUOUS
 62
     6
 10
19213.18562
 20
19430.189666999999
 30
0.0
 11
19230.807293999991
 21
19268.944022
 31
0.0
  0
LINE
  5
415D
  8
2-0
  6
CONTINUOUS
 62
     6
 10
19282.152047
 20
19283.382631
 30
0.0
 11
19230.807293999991
 21
19268.944022
 31
0.0
  0
LINE
  5
415E
  8
2-0
  6
CONTINUOUS
 62
     6
 10
19230.807293999991
 20
19268.944022
 30
0.0
 11
19213.18562
 21
19430.189666999999
 31
0.0
  0
LINE
  5
415F
  8
2-0
  6
CONTINUOUS
 62
     6
 10
19213.18562
 20
19430.189666999999
 30
0.0
 11
19282.152047
 21
19283.382631
 31
0.0
  0
LINE
  5
4160
  8
2-0
  6
CONTINUOUS
 62
     6
 10
19282.152047
 20
19283.382631
 30
0.0
 11
19213.18562
 21
19430.189666999999
 31
0.0
  0
LINE
  5
4161
  8
2-0
  6
CONTINUOUS
 62
     6
 10
19230.807293999991
 20
19268.944022
 30
0.0
 11
19213.18562
 21
19430.189666999999
 31
0.0
  0
LINE
  5
4162
  8
2-0
  6
CONTINUOUS
 62
     6
 10
19230.807293999991
 20
19268.944022
 30
0.0
 11
19282.152047
 21
19283.382631
 31
0.0
  0
LINE
  5
4163
  8
2-0
  6
CONTINUOUS
 62
     6
 10
23173.972676999969
 20
19405.182409000001
 30
0.0
 11
23322.842371999981
 21
18875.560233
 31
0.0
  0
LINE
  5
4164
  8
2-0
  6
CONTINUOUS
 62
     6
 10
23322.842371999981
 20
18875.560233
 30
0.0
 11
24347.886580999959
 21
18875.560233
 31
0.0
  0
LINE
  5
4165
  8
2-0
  6
CONTINUOUS
 62
     6
 10
23191.59633099995
 20
19243.936763999991
 30
0.0
 11
23242.947021999971
 21
19258.37141399999
 31
0.0
  0
LINE
  5
4166
  8
2-0
  6
CONTINUOUS
 62
     6
 10
23242.947021999971
 20
19258.37141399999
 30
0.0
 11
23191.59633099995
 21
19243.936763999991
 31
0.0
  0
LINE
  5
4167
  8
2-0
  6
CONTINUOUS
 62
     6
 10
23191.59633099995
 20
19243.936763999991
 30
0.0
 11
23173.972676999969
 21
19405.182409000001
 31
0.0
  0
LINE
  5
4168
  8
2-0
  6
CONTINUOUS
 62
     6
 10
23173.972676999969
 20
19405.182409000001
 30
0.0
 11
23242.947021999971
 21
19258.37141399999
 31
0.0
  0
LINE
  5
4169
  8
2-0
  6
CONTINUOUS
 62
     6
 10
23242.947021999971
 20
19258.37141399999
 30
0.0
 11
23173.972676999969
 21
19405.182409000001
 31
0.0
  0
LINE
  5
416A
  8
2-0
  6
CONTINUOUS
 62
     6
 10
23191.59633099995
 20
19243.936763999991
 30
0.0
 11
23173.972676999969
 21
19405.182409000001
 31
0.0
  0
LINE
  5
416B
  8
2-0
  6
CONTINUOUS
 62
     6
 10
23242.947021999971
 20
19258.37141399999
 30
0.0
 11
23173.972676999969
 21
19405.182409000001
 31
0.0
  0
LINE
  5
416C
  8
2-0
  6
CONTINUOUS
 62
     6
 10
23173.972676999969
 20
19405.182409000001
 30
0.0
 11
23191.59633099995
 21
19243.936763999991
 31
0.0
  0
LINE
  5
416D
  8
2-0
  6
CONTINUOUS
 62
     4
 10
23132.54927099996
 20
19603.93597200001
 30
0.0
 11
23132.54927099996
 21
20333.932937000001
 31
0.0
  0
LINE
  5
416E
  8
2-0
  6
CONTINUOUS
 62
     6
 10
25846.72418099995
 20
15365.930350000001
 30
0.0
 11
26002.043147999961
 21
15412.677670999999
 31
0.0
  0
LINE
  5
416F
  8
2-0
  6
CONTINUOUS
 62
     6
 10
26002.043147999961
 20
15412.677670999999
 30
0.0
 11
25870.28243199996
 21
15318.085386000001
 31
0.0
  0
LINE
  5
4170
  8
2-0
  6
CONTINUOUS
 62
     6
 10
25846.72418099995
 20
15365.930350000001
 30
0.0
 11
25870.28243199996
 21
15318.085386000001
 31
0.0
  0
LINE
  5
4171
  8
2-0
  6
CONTINUOUS
 62
     6
 10
25870.28243199996
 20
15318.085386000001
 30
0.0
 11
26002.043147999961
 21
15412.677670999999
 31
0.0
  0
LINE
  5
4172
  8
2-0
  6
CONTINUOUS
 62
     6
 10
26002.043147999961
 20
15412.677670999999
 30
0.0
 11
25846.72418099995
 21
15365.930350000001
 31
0.0
  0
LINE
  5
4173
  8
2-0
  6
CONTINUOUS
 62
     6
 10
25846.72418099995
 20
15365.930350000001
 30
0.0
 11
26002.043147999961
 21
15412.677670999999
 31
0.0
  0
LINE
  5
4174
  8
2-0
  6
CONTINUOUS
 62
     6
 10
25870.28243199996
 20
15318.085386000001
 30
0.0
 11
26002.043147999961
 21
15412.677670999999
 31
0.0
  0
LINE
  5
4175
  8
2-0
  6
CONTINUOUS
 62
     6
 10
25870.28243199996
 20
15318.085386000001
 30
0.0
 11
25846.72418099995
 21
15365.930350000001
 31
0.0
  0
LINE
  5
4176
  8
2-0
  6
CONTINUOUS
 62
     6
 10
25816.409833999958
 20
13845.16541099998
 30
0.0
 11
25948.156692999961
 21
13939.792337999979
 31
0.0
  0
LINE
  5
4177
  8
2-0
  6
CONTINUOUS
 62
     6
 10
25948.156692999961
 20
13939.792337999979
 30
0.0
 11
25854.226556999962
 21
13807.55356799997
 31
0.0
  0
LINE
  5
4178
  8
2-0
  6
CONTINUOUS
 62
     6
 10
25816.409833999958
 20
13845.16541099998
 30
0.0
 11
25854.226556999962
 21
13807.55356799997
 31
0.0
  0
LINE
  5
4179
  8
2-0
  6
CONTINUOUS
 62
     6
 10
25854.226556999962
 20
13807.55356799997
 30
0.0
 11
25948.156692999961
 21
13939.792337999979
 31
0.0
  0
LINE
  5
417A
  8
2-0
  6
CONTINUOUS
 62
     6
 10
25948.156692999961
 20
13939.792337999979
 30
0.0
 11
25816.409833999958
 21
13845.16541099998
 31
0.0
  0
LINE
  5
417B
  8
2-0
  6
CONTINUOUS
 62
     6
 10
25816.409833999958
 20
13845.16541099998
 30
0.0
 11
25948.156692999961
 21
13939.792337999979
 31
0.0
  0
LINE
  5
417C
  8
2-0
  6
CONTINUOUS
 62
     6
 10
25854.226556999962
 20
13807.55356799997
 30
0.0
 11
25948.156692999961
 21
13939.792337999979
 31
0.0
  0
LINE
  5
417D
  8
2-0
  6
CONTINUOUS
 62
     6
 10
25854.226556999962
 20
13807.55356799997
 30
0.0
 11
25816.409833999958
 21
13845.16541099998
 31
0.0
  0
LINE
  5
417E
  8
2-0
  6
CONTINUOUS
 62
     6
 10
25879.445622999971
 20
14172.070037999971
 30
0.0
 11
26012.045654999962
 21
14078.641709999971
 31
0.0
  0
LINE
  5
417F
  8
2-0
  6
CONTINUOUS
 62
     6
 10
26012.045654999962
 20
14078.641709999971
 30
0.0
 11
25856.312968999959
 21
14124.017223999979
 31
0.0
  0
LINE
  5
4180
  8
2-0
  6
CONTINUOUS
 62
     6
 10
25879.445622999971
 20
14172.070037999971
 30
0.0
 11
25856.312968999959
 21
14124.017223999979
 31
0.0
  0
LINE
  5
4181
  8
2-0
  6
CONTINUOUS
 62
     6
 10
25856.312968999959
 20
14124.017223999979
 30
0.0
 11
26012.045654999962
 21
14078.641709999971
 31
0.0
  0
LINE
  5
4182
  8
2-0
  6
CONTINUOUS
 62
     6
 10
26012.045654999962
 20
14078.641709999971
 30
0.0
 11
25879.445622999971
 21
14172.070037999971
 31
0.0
  0
LINE
  5
4183
  8
2-0
  6
CONTINUOUS
 62
     6
 10
25879.445622999971
 20
14172.070037999971
 30
0.0
 11
26012.045654999962
 21
14078.641709999971
 31
0.0
  0
LINE
  5
4184
  8
2-0
  6
CONTINUOUS
 62
     6
 10
25856.312968999959
 20
14124.017223999979
 30
0.0
 11
26012.045654999962
 21
14078.641709999971
 31
0.0
  0
LINE
  5
4185
  8
2-0
  6
CONTINUOUS
 62
     6
 10
25856.312968999959
 20
14124.017223999979
 30
0.0
 11
25879.445622999971
 21
14172.070037999971
 31
0.0
  0
LINE
  5
4186
  8
2-0
  6
CONTINUOUS
 62
     6
 10
25939.209268999959
 20
16551.890971000012
 30
0.0
 11
26093.047554999961
 21
16603.32480200001
 31
0.0
  0
LINE
  5
4187
  8
2-0
  6
CONTINUOUS
 62
     6
 10
26093.047554999961
 20
16603.32480200001
 30
0.0
 11
25964.212567999952
 21
16504.784367
 31
0.0
  0
LINE
  5
4188
  8
2-0
  6
CONTINUOUS
 62
     6
 10
25939.209268999959
 20
16551.890971000012
 30
0.0
 11
25964.212567999952
 21
16504.784367
 31
0.0
  0
LINE
  5
4189
  8
2-0
  6
CONTINUOUS
 62
     6
 10
25964.212567999952
 20
16504.784367
 30
0.0
 11
26093.047554999961
 21
16603.32480200001
 31
0.0
  0
LINE
  5
418A
  8
2-0
  6
CONTINUOUS
 62
     6
 10
26093.047554999961
 20
16603.32480200001
 30
0.0
 11
25939.209268999959
 21
16551.890971000012
 31
0.0
  0
LINE
  5
418B
  8
2-0
  6
CONTINUOUS
 62
     6
 10
25939.209268999959
 20
16551.890971000012
 30
0.0
 11
26093.047554999961
 21
16603.32480200001
 31
0.0
  0
LINE
  5
418C
  8
2-0
  6
CONTINUOUS
 62
     6
 10
25964.212567999952
 20
16504.784367
 30
0.0
 11
26093.047554999961
 21
16603.32480200001
 31
0.0
  0
LINE
  5
418D
  8
2-0
  6
CONTINUOUS
 62
     6
 10
25964.212567999952
 20
16504.784367
 30
0.0
 11
25939.209268999959
 21
16551.890971000012
 31
0.0
  0
LINE
  5
418E
  8
2-0
  6
CONTINUOUS
 62
     6
 10
25805.27306199996
 20
17043.209462999999
 30
0.0
 11
25948.156692999961
 21
16966.433833999981
 31
0.0
  0
LINE
  5
418F
  8
2-0
  6
CONTINUOUS
 62
     6
 10
25948.156692999961
 20
16966.433833999981
 30
0.0
 11
25788.094799999959
 21
16992.715903000011
 31
0.0
  0
LINE
  5
4190
  8
2-0
  6
CONTINUOUS
 62
     6
 10
25805.27306199996
 20
17043.209462999999
 30
0.0
 11
25788.094799999959
 21
16992.715903000011
 31
0.0
  0
LINE
  5
4191
  8
2-0
  6
CONTINUOUS
 62
     6
 10
25788.094799999959
 20
16992.715903000011
 30
0.0
 11
25948.156692999961
 21
16966.433833999981
 31
0.0
  0
LINE
  5
4192
  8
2-0
  6
CONTINUOUS
 62
     6
 10
25948.156692999961
 20
16966.433833999981
 30
0.0
 11
25805.27306199996
 21
17043.209462999999
 31
0.0
  0
LINE
  5
4193
  8
2-0
  6
CONTINUOUS
 62
     6
 10
25805.27306199996
 20
17043.209462999999
 30
0.0
 11
25948.156692999961
 21
16966.433833999981
 31
0.0
  0
LINE
  5
4194
  8
2-0
  6
CONTINUOUS
 62
     6
 10
25788.094799999959
 20
16992.715903000011
 30
0.0
 11
25948.156692999961
 21
16966.433833999981
 31
0.0
  0
LINE
  5
4195
  8
2-0
  6
CONTINUOUS
 62
     6
 10
25788.094799999959
 20
16992.715903000011
 30
0.0
 11
25805.27306199996
 21
17043.209462999999
 31
0.0
  0
LINE
  5
4196
  8
2-0
  6
CONTINUOUS
 62
     6
 10
25846.72418099995
 20
18283.689837999991
 30
0.0
 11
26002.043147999961
 21
18330.434189999982
 31
0.0
  0
LINE
  5
4197
  8
2-0
  6
CONTINUOUS
 62
     6
 10
26002.043147999961
 20
18330.434189999982
 30
0.0
 11
25870.28243199996
 21
18235.838936
 31
0.0
  0
LINE
  5
4198
  8
2-0
  6
CONTINUOUS
 62
     6
 10
25846.72418099995
 20
18283.689837999991
 30
0.0
 11
25870.28243199996
 21
18235.838936
 31
0.0
  0
LINE
  5
4199
  8
2-0
  6
CONTINUOUS
 62
     6
 10
25870.28243199996
 20
18235.838936
 30
0.0
 11
26002.043147999961
 21
18330.434189999982
 31
0.0
  0
LINE
  5
419A
  8
2-0
  6
CONTINUOUS
 62
     6
 10
26002.043147999961
 20
18330.434189999982
 30
0.0
 11
25846.72418099995
 21
18283.689837999991
 31
0.0
  0
LINE
  5
419B
  8
2-0
  6
CONTINUOUS
 62
     6
 10
25846.72418099995
 20
18283.689837999991
 30
0.0
 11
26002.043147999961
 21
18330.434189999982
 31
0.0
  0
LINE
  5
419C
  8
2-0
  6
CONTINUOUS
 62
     6
 10
25870.28243199996
 20
18235.838936
 30
0.0
 11
26002.043147999961
 21
18330.434189999982
 31
0.0
  0
LINE
  5
419D
  8
2-0
  6
CONTINUOUS
 62
     6
 10
25870.28243199996
 20
18235.838936
 30
0.0
 11
25846.72418099995
 21
18283.689837999991
 31
0.0
  0
LINE
  5
419E
  8
2-0
  6
CONTINUOUS
 62
     3
 10
19893.044572999981
 20
19523.933729000011
 30
0.0
 11
19856.043410999991
 21
19523.933729000011
 31
0.0
  0
LINE
  5
419F
  8
2-0
  6
CONTINUOUS
 62
     3
 10
19893.044572999981
 20
19493.930165999998
 30
0.0
 11
19893.044572999981
 21
19523.933729000011
 31
0.0
  0
LINE
  5
41A0
  8
2-0
  6
CONTINUOUS
 62
     3
 10
19887.04465199995
 20
19493.930165999998
 30
0.0
 11
19893.044572999981
 21
19493.930165999998
 31
0.0
  0
LINE
  5
41A1
  8
2-0
  6
CONTINUOUS
 62
     3
 10
19903.142096999989
 20
19493.930165999998
 30
0.0
 11
19903.142096999989
 21
19523.933729000011
 31
0.0
  0
LINE
  5
41A2
  8
2-0
  6
CONTINUOUS
 62
     3
 10
19885.138375999992
 20
19493.930165999998
 30
0.0
 11
19903.142096999989
 21
19493.930165999998
 31
0.0
  0
LINE
  5
41A3
  8
2-0
  6
CONTINUOUS
 62
     3
 10
19885.138375999992
 20
19518.939403
 30
0.0
 11
19885.138375999992
 21
19493.930165999998
 31
0.0
  0
LINE
  5
41A4
  8
2-0
  6
CONTINUOUS
 62
     3
 10
19890.138639999979
 20
19518.939403
 30
0.0
 11
19885.138375999992
 21
19518.939403
 31
0.0
  0
LINE
  5
41A5
  8
2-0
  6
CONTINUOUS
 62
     3
 10
19890.138639999979
 20
19511.93388700001
 30
0.0
 11
19890.138639999979
 21
19518.939403
 31
0.0
  0
LINE
  5
41A6
  8
2-0
  6
CONTINUOUS
 62
     3
 10
19858.949344999972
 20
19511.93388700001
 30
0.0
 11
19858.949344999972
 21
19518.939403
 31
0.0
  0
LINE
  5
41A7
  8
2-0
  6
CONTINUOUS
 62
     3
 10
19858.949344999972
 20
19518.939403
 30
0.0
 11
19863.949608999981
 21
19518.939403
 31
0.0
  0
LINE
  5
41A8
  8
2-0
  6
CONTINUOUS
 62
     3
 10
19863.949608999981
 20
19518.939403
 30
0.0
 11
19863.949608999981
 21
19493.930165999998
 31
0.0
  0
LINE
  5
41A9
  8
2-0
  6
CONTINUOUS
 62
     3
 10
19863.949608999981
 20
19493.930165999998
 30
0.0
 11
19845.949845999989
 21
19493.930165999998
 31
0.0
  0
LINE
  5
41AA
  8
2-0
  6
CONTINUOUS
 62
     3
 10
19845.949845999989
 20
19493.930165999998
 30
0.0
 11
19845.949845999989
 21
19523.933729000011
 31
0.0
  0
LINE
  5
41AB
  8
2-0
  6
CONTINUOUS
 62
     3
 10
19862.04333199999
 20
19493.930165999998
 30
0.0
 11
19856.043410999991
 21
19493.930165999998
 31
0.0
  0
LINE
  5
41AC
  8
2-0
  6
CONTINUOUS
 62
     3
 10
19856.043410999991
 20
19493.930165999998
 30
0.0
 11
19856.043410999991
 21
19523.933729000011
 31
0.0
  0
LINE
  5
41AD
  8
2-0
  6
CONTINUOUS
 62
     3
 10
17702.045311999991
 20
19414.933518000002
 30
0.0
 11
17702.045311999991
 21
19408.937556000012
 31
0.0
  0
LINE
  5
41AE
  8
2-0
  6
CONTINUOUS
 62
     3
 10
17702.045311999991
 20
19408.937556000012
 30
0.0
 11
17672.047686999991
 21
19408.937556000012
 31
0.0
  0
LINE
  5
41AF
  8
2-0
  6
CONTINUOUS
 62
     3
 10
17672.047686999991
 20
19408.937556000012
 30
0.0
 11
17672.047686999991
 21
19523.933729000011
 31
0.0
  0
LINE
  5
41B0
  8
2-0
  6
CONTINUOUS
 62
     3
 10
17672.047686999991
 20
19438.937160000001
 30
0.0
 11
17753.045627999982
 21
19438.937160000001
 31
0.0
  0
LINE
  5
41B1
  8
2-0
  6
CONTINUOUS
 62
     3
 10
17702.045311999991
 20
19398.64009999999
 30
0.0
 11
17672.047686999991
 21
19398.64009999999
 31
0.0
  0
LINE
  5
41B2
  8
2-0
  6
CONTINUOUS
 62
     3
 10
17702.045311999991
 20
19416.641842000001
 30
0.0
 11
17702.045311999991
 21
19398.64009999999
 31
0.0
  0
LINE
  5
41B3
  8
2-0
  6
CONTINUOUS
 62
     3
 10
17677.051909999991
 20
19416.641842000001
 30
0.0
 11
17702.045311999991
 21
19416.641842000001
 31
0.0
  0
LINE
  5
41B4
  8
2-0
  6
CONTINUOUS
 62
     3
 10
17677.051909999991
 20
19411.63366000001
 30
0.0
 11
17677.051909999991
 21
19416.641842000001
 31
0.0
  0
LINE
  5
41B5
  8
2-0
  6
CONTINUOUS
 62
     3
 10
17684.049507999971
 20
19411.63366000001
 30
0.0
 11
17677.051909999991
 21
19411.63366000001
 31
0.0
  0
LINE
  5
41B6
  8
2-0
  6
CONTINUOUS
 62
     3
 10
17784.343796999969
 20
19511.93388700001
 30
0.0
 11
17784.343796999969
 21
19518.939403
 31
0.0
  0
LINE
  5
41B7
  8
2-0
  6
CONTINUOUS
 62
     3
 10
17784.343796999969
 20
19518.939403
 30
0.0
 11
17779.341552999991
 21
19518.939403
 31
0.0
  0
LINE
  5
41B8
  8
2-0
  6
CONTINUOUS
 62
     3
 10
17779.341552999991
 20
19518.939403
 30
0.0
 11
17779.341552999991
 21
19493.930165999998
 31
0.0
  0
LINE
  5
41B9
  8
2-0
  6
CONTINUOUS
 62
     3
 10
17779.341552999991
 20
19493.930165999998
 30
0.0
 11
17797.34923399999
 21
19493.930165999998
 31
0.0
  0
LINE
  5
41BA
  8
2-0
  6
CONTINUOUS
 62
     3
 10
17797.34923399999
 20
19493.930165999998
 30
0.0
 11
17797.34923399999
 21
19523.933729000011
 31
0.0
  0
LINE
  5
41BB
  8
2-0
  6
CONTINUOUS
 62
     3
 10
17787.049797999978
 20
19523.933729000011
 30
0.0
 11
17672.047686999991
 21
19523.933729000011
 31
0.0
  0
LINE
  5
41BC
  8
2-0
  6
CONTINUOUS
 62
     3
 10
17787.049797999978
 20
19493.930165999998
 30
0.0
 11
17787.049797999978
 21
19523.933729000011
 31
0.0
  0
LINE
  5
41BD
  8
2-0
  6
CONTINUOUS
 62
     3
 10
17781.045918999978
 20
19493.930165999998
 30
0.0
 11
17787.049797999978
 21
19493.930165999998
 31
0.0
  0
LINE
  5
41BE
  8
2-0
  6
CONTINUOUS
 62
     3
 10
18488.133690499992
 20
19511.93388700001
 30
0.0
 11
18488.133690499992
 21
19518.939403
 31
0.0
  0
LINE
  5
41BF
  8
2-0
  6
CONTINUOUS
 62
     3
 10
18488.133690499992
 20
19518.939403
 30
0.0
 11
18483.13342649999
 21
19518.939403
 31
0.0
  0
LINE
  5
41C0
  8
2-0
  6
CONTINUOUS
 62
     3
 10
18483.13342649999
 20
19518.939403
 30
0.0
 11
18483.13342649999
 21
19493.930165999998
 31
0.0
  0
LINE
  5
41C1
  8
2-0
  6
CONTINUOUS
 62
     3
 10
18483.13342649999
 20
19493.930165999998
 30
0.0
 11
18501.139127499991
 21
19493.930165999998
 31
0.0
  0
LINE
  5
41C2
  8
2-0
  6
CONTINUOUS
 62
     3
 10
18501.139127499991
 20
19493.930165999998
 30
0.0
 11
18501.139127499991
 21
19523.933729000011
 31
0.0
  0
LINE
  5
41C3
  8
2-0
  6
CONTINUOUS
 62
     3
 10
18485.041682499981
 20
19493.930165999998
 30
0.0
 11
18491.043582499991
 21
19493.930165999998
 31
0.0
  0
LINE
  5
41C4
  8
2-0
  6
CONTINUOUS
 62
     3
 10
18491.043582499991
 20
19493.930165999998
 30
0.0
 11
18491.043582499991
 21
19523.933729000011
 31
0.0
  0
LINE
  5
41C5
  8
2-0
  6
CONTINUOUS
 62
     3
 10
18454.044401499981
 20
19523.933729000011
 30
0.0
 11
18491.043582499991
 21
19523.933729000011
 31
0.0
  0
LINE
  5
41C6
  8
2-0
  6
CONTINUOUS
 62
     3
 10
18454.044401499981
 20
19493.930165999998
 30
0.0
 11
18454.044401499981
 21
19523.933729000011
 31
0.0
  0
LINE
  5
41C7
  8
2-0
  6
CONTINUOUS
 62
     3
 10
18460.038383499981
 20
19493.930165999998
 30
0.0
 11
18454.044401499981
 21
19493.930165999998
 31
0.0
  0
LINE
  5
41C8
  8
2-0
  6
CONTINUOUS
 62
     3
 10
18443.948856499981
 20
19493.930165999998
 30
0.0
 11
18443.948856499981
 21
19523.933729000011
 31
0.0
  0
LINE
  5
41C9
  8
2-0
  6
CONTINUOUS
 62
     3
 10
18461.94465949999
 20
19493.930165999998
 30
0.0
 11
18443.948856499981
 21
19493.930165999998
 31
0.0
  0
LINE
  5
41CA
  8
2-0
  6
CONTINUOUS
 62
     3
 10
18461.94465949999
 20
19518.939403
 30
0.0
 11
18461.94465949999
 21
19493.930165999998
 31
0.0
  0
LINE
  5
41CB
  8
2-0
  6
CONTINUOUS
 62
     3
 10
18456.944395499992
 20
19518.939403
 30
0.0
 11
18461.94465949999
 21
19518.939403
 31
0.0
  0
LINE
  5
41CC
  8
2-0
  6
CONTINUOUS
 62
     3
 10
18456.944395499992
 20
19511.93388700001
 30
0.0
 11
18456.944395499992
 21
19518.939403
 31
0.0
  0
LINE
  5
41CD
  8
2-0
  6
CONTINUOUS
 62
     3
 10
19157.943406499991
 20
19511.93388700001
 30
0.0
 11
19157.943406499991
 21
19518.939403
 31
0.0
  0
LINE
  5
41CE
  8
2-0
  6
CONTINUOUS
 62
     3
 10
19157.943406499991
 20
19518.939403
 30
0.0
 11
19162.943669499979
 21
19518.939403
 31
0.0
  0
LINE
  5
41CF
  8
2-0
  6
CONTINUOUS
 62
     3
 10
19162.943669499979
 20
19518.939403
 30
0.0
 11
19162.943669499979
 21
19493.930165999998
 31
0.0
  0
LINE
  5
41D0
  8
2-0
  6
CONTINUOUS
 62
     3
 10
19162.943669499979
 20
19493.930165999998
 30
0.0
 11
19144.949846499982
 21
19493.930165999998
 31
0.0
  0
LINE
  5
41D1
  8
2-0
  6
CONTINUOUS
 62
     3
 10
19144.949846499982
 20
19493.930165999998
 30
0.0
 11
19144.949846499982
 21
19523.933729000011
 31
0.0
  0
LINE
  5
41D2
  8
2-0
  6
CONTINUOUS
 62
     3
 10
19161.041352499949
 20
19493.930165999998
 30
0.0
 11
19155.043411499992
 21
19493.930165999998
 31
0.0
  0
LINE
  5
41D3
  8
2-0
  6
CONTINUOUS
 62
     3
 10
19155.043411499992
 20
19493.930165999998
 30
0.0
 11
19155.043411499992
 21
19523.933729000011
 31
0.0
  0
LINE
  5
41D4
  8
2-0
  6
CONTINUOUS
 62
     3
 10
19192.044572499992
 20
19523.933729000011
 30
0.0
 11
19155.043411499992
 21
19523.933729000011
 31
0.0
  0
LINE
  5
41D5
  8
2-0
  6
CONTINUOUS
 62
     3
 10
19192.044572499992
 20
19493.930165999998
 30
0.0
 11
19192.044572499992
 21
19523.933729000011
 31
0.0
  0
LINE
  5
41D6
  8
2-0
  6
CONTINUOUS
 62
     3
 10
19186.038713499991
 20
19493.930165999998
 30
0.0
 11
19192.044572499992
 21
19493.930165999998
 31
0.0
  0
LINE
  5
41D7
  8
2-0
  6
CONTINUOUS
 62
     3
 10
19202.138137499991
 20
19493.930165999998
 30
0.0
 11
19202.138137499991
 21
19523.933729000011
 31
0.0
  0
LINE
  5
41D8
  8
2-0
  6
CONTINUOUS
 62
     3
 10
19184.142334499971
 20
19493.930165999998
 30
0.0
 11
19202.138137499991
 21
19493.930165999998
 31
0.0
  0
LINE
  5
41D9
  8
2-0
  6
CONTINUOUS
 62
     3
 10
19184.142334499971
 20
19518.939403
 30
0.0
 11
19184.142334499971
 21
19493.930165999998
 31
0.0
  0
LINE
  5
41DA
  8
2-0
  6
CONTINUOUS
 62
     3
 10
19189.132700499991
 20
19518.939403
 30
0.0
 11
19184.142334499971
 21
19518.939403
 31
0.0
  0
LINE
  5
41DB
  8
2-0
  6
CONTINUOUS
 62
     3
 10
19189.132700499991
 20
19511.93388700001
 30
0.0
 11
19189.132700499991
 21
19518.939403
 31
0.0
  0
LINE
  5
41DC
  8
2-0
  6
CONTINUOUS
 62
     3
 10
18501.139127499991
 20
19523.933729000011
 30
0.0
 11
19144.949846499982
 21
19523.933729000011
 31
0.0
  0
LINE
  5
41DD
  8
2-0
  6
CONTINUOUS
 62
     3
 10
17797.34923399999
 20
19523.933729000011
 30
0.0
 11
18443.948856499981
 21
19523.933729000011
 31
0.0
  0
LINE
  5
41DE
  8
2-0
  6
CONTINUOUS
 62
     3
 10
20560.044124
 20
19523.933729000011
 30
0.0
 11
20560.044124
 21
19493.930165999998
 31
0.0
  0
LINE
  5
41DF
  8
2-0
  6
CONTINUOUS
 62
     3
 10
20560.044124
 20
19493.930165999998
 30
0.0
 11
20566.048003000011
 21
19493.930165999998
 31
0.0
  0
LINE
  5
41E0
  8
2-0
  6
CONTINUOUS
 62
     3
 10
20550.427621999981
 20
19493.930165999998
 30
0.0
 11
20550.427621999981
 21
19523.933729000011
 31
0.0
  0
LINE
  5
41E1
  8
2-0
  6
CONTINUOUS
 62
     3
 10
20568.435302999998
 20
19493.930165999998
 30
0.0
 11
20550.427621999981
 21
19493.930165999998
 31
0.0
  0
LINE
  5
41E2
  8
2-0
  6
CONTINUOUS
 62
     3
 10
20568.435302999998
 20
19518.939403
 30
0.0
 11
20568.435302999998
 21
19493.930165999998
 31
0.0
  0
LINE
  5
41E3
  8
2-0
  6
CONTINUOUS
 62
     3
 10
20563.429100000001
 20
19518.939403
 30
0.0
 11
20568.435302999998
 21
19518.939403
 31
0.0
  0
LINE
  5
41E4
  8
2-0
  6
CONTINUOUS
 62
     3
 10
20563.429100000001
 20
19511.93388700001
 30
0.0
 11
20563.429100000001
 21
19518.939403
 31
0.0
  0
LINE
  5
41E5
  8
2-0
  6
CONTINUOUS
 62
     3
 10
20590.047686999991
 20
19521.041652
 30
0.0
 11
20590.047686999991
 21
19436.043104000011
 31
0.0
  0
LINE
  5
41E6
  8
2-0
  6
CONTINUOUS
 62
     3
 10
20610.046762999998
 20
19521.041652
 30
0.0
 11
20590.047686999991
 21
19521.041652
 31
0.0
  0
LINE
  5
41E7
  8
2-0
  6
CONTINUOUS
 62
     3
 10
20701.66086199999
 20
19511.93388700001
 30
0.0
 11
20701.66086199999
 21
19518.939403
 31
0.0
  0
LINE
  5
41E8
  8
2-0
  6
CONTINUOUS
 62
     3
 10
20701.66086199999
 20
19518.939403
 30
0.0
 11
20696.658619000002
 21
19518.939403
 31
0.0
  0
LINE
  5
41E9
  8
2-0
  6
CONTINUOUS
 62
     3
 10
20696.658619000002
 20
19518.939403
 30
0.0
 11
20696.658619000002
 21
19493.930165999998
 31
0.0
  0
LINE
  5
41EA
  8
2-0
  6
CONTINUOUS
 62
     3
 10
20696.658619000002
 20
19493.930165999998
 30
0.0
 11
20714.662339999992
 21
19493.930165999998
 31
0.0
  0
LINE
  5
41EB
  8
2-0
  6
CONTINUOUS
 62
     3
 10
20714.662339999992
 20
19493.930165999998
 30
0.0
 11
20714.662339999992
 21
19523.933729000011
 31
0.0
  0
LINE
  5
41EC
  8
2-0
  6
CONTINUOUS
 62
     3
 10
20675.046235000002
 20
19521.041652
 30
0.0
 11
20655.0432
 21
19521.041652
 31
0.0
  0
LINE
  5
41ED
  8
2-0
  6
CONTINUOUS
 62
     3
 10
20675.046235000002
 20
19436.043104000011
 30
0.0
 11
20675.046235000002
 21
19521.041652
 31
0.0
  0
LINE
  5
41EE
  8
2-0
  6
CONTINUOUS
 62
     3
 10
20705.045838999999
 20
19493.930165999998
 30
0.0
 11
20699.045917999982
 21
19493.930165999998
 31
0.0
  0
LINE
  5
41EF
  8
2-0
  6
CONTINUOUS
 62
     3
 10
20705.045838999999
 20
19523.933729000011
 30
0.0
 11
20705.045838999999
 21
19493.930165999998
 31
0.0
  0
LINE
  5
41F0
  8
2-0
  6
CONTINUOUS
 62
     3
 10
20590.047686999991
 20
19436.043104000011
 30
0.0
 11
20675.046235000002
 21
19436.043104000011
 31
0.0
  0
LINE
  5
41F1
  8
2-0
  6
CONTINUOUS
 62
     3
 10
20560.044124
 20
19523.933729000011
 30
0.0
 11
20705.045838999999
 21
19523.933729000011
 31
0.0
  0
LINE
  5
41F2
  8
2-0
  6
CONTINUOUS
 62
     3
 10
20550.427621999981
 20
19523.933729000011
 30
0.0
 11
19903.142096999989
 21
19523.933729000011
 31
0.0
  0
LINE
  5
41F3
  8
2-0
  6
CONTINUOUS
 62
     3
 10
19845.949845999989
 20
19523.933729000011
 30
0.0
 11
19202.138137499991
 21
19523.933729000011
 31
0.0
  0
LINE
  5
41F4
  8
2-0
  6
CONTINUOUS
 62
     3
 10
17702.045311999991
 20
19414.933518000002
 30
0.0
 11
17702.045311999991
 21
19408.937556000012
 31
0.0
  0
LINE
  5
41F5
  8
2-0
  6
CONTINUOUS
 62
     3
 10
17702.045311999991
 20
19408.937556000012
 30
0.0
 11
17672.047686999991
 21
19408.937556000012
 31
0.0
  0
LINE
  5
41F6
  8
2-0
  6
CONTINUOUS
 62
     3
 10
17672.047686999991
 20
19408.937556000012
 30
0.0
 11
17672.047686999991
 21
19523.933729000011
 31
0.0
  0
LINE
  5
41F7
  8
2-0
  6
CONTINUOUS
 62
     3
 10
17672.047686999991
 20
19438.937160000001
 30
0.0
 11
17753.045627999982
 21
19438.937160000001
 31
0.0
  0
LINE
  5
41F8
  8
2-0
  6
CONTINUOUS
 62
     3
 10
17702.045311999991
 20
19398.64009999999
 30
0.0
 11
17672.047686999991
 21
19398.64009999999
 31
0.0
  0
LINE
  5
41F9
  8
2-0
  6
CONTINUOUS
 62
     3
 10
17702.045311999991
 20
19416.641842000001
 30
0.0
 11
17702.045311999991
 21
19398.64009999999
 31
0.0
  0
LINE
  5
41FA
  8
2-0
  6
CONTINUOUS
 62
     3
 10
17677.051909999991
 20
19416.641842000001
 30
0.0
 11
17702.045311999991
 21
19416.641842000001
 31
0.0
  0
LINE
  5
41FB
  8
2-0
  6
CONTINUOUS
 62
     3
 10
17677.051909999991
 20
19411.63366000001
 30
0.0
 11
17677.051909999991
 21
19416.641842000001
 31
0.0
  0
LINE
  5
41FC
  8
2-0
  6
CONTINUOUS
 62
     3
 10
17684.049507999971
 20
19411.63366000001
 30
0.0
 11
17677.051909999991
 21
19411.63366000001
 31
0.0
  0
LINE
  5
41FD
  8
2-0
  6
CONTINUOUS
 62
     3
 10
17684.049507999971
 20
19058.336837499981
 30
0.0
 11
17677.051909999991
 21
19058.336837499981
 31
0.0
  0
LINE
  5
41FE
  8
2-0
  6
CONTINUOUS
 62
     3
 10
17677.051909999991
 20
19058.336837499981
 30
0.0
 11
17677.051909999991
 21
19063.33710149999
 31
0.0
  0
LINE
  5
41FF
  8
2-0
  6
CONTINUOUS
 62
     3
 10
17677.051909999991
 20
19063.33710149999
 30
0.0
 11
17702.045311999991
 21
19063.33710149999
 31
0.0
  0
LINE
  5
4200
  8
2-0
  6
CONTINUOUS
 62
     3
 10
17702.045311999991
 20
19063.33710149999
 30
0.0
 11
17702.045311999991
 21
19045.341297499981
 31
0.0
  0
LINE
  5
4201
  8
2-0
  6
CONTINUOUS
 62
     3
 10
17702.045311999991
 20
19045.341297499981
 30
0.0
 11
17672.047686999991
 21
19045.341297499981
 31
0.0
  0
LINE
  5
4202
  8
2-0
  6
CONTINUOUS
 62
     3
 10
17702.045311999991
 20
19061.43280449996
 30
0.0
 11
17702.045311999991
 21
19055.434863499991
 31
0.0
  0
LINE
  5
4203
  8
2-0
  6
CONTINUOUS
 62
     3
 10
17702.045311999991
 20
19055.434863499991
 30
0.0
 11
17672.047686999991
 21
19055.434863499991
 31
0.0
  0
LINE
  5
4204
  8
2-0
  6
CONTINUOUS
 62
     3
 10
17672.047686999991
 20
19055.434863499991
 30
0.0
 11
17672.047686999991
 21
19092.436024499992
 31
0.0
  0
LINE
  5
4205
  8
2-0
  6
CONTINUOUS
 62
     3
 10
17702.045311999991
 20
19092.436024499992
 30
0.0
 11
17672.047686999991
 21
19092.436024499992
 31
0.0
  0
LINE
  5
4206
  8
2-0
  6
CONTINUOUS
 62
     3
 10
17702.045311999991
 20
19086.43214449998
 30
0.0
 11
17702.045311999991
 21
19092.436024499992
 31
0.0
  0
LINE
  5
4207
  8
2-0
  6
CONTINUOUS
 62
     3
 10
17702.045311999991
 20
19102.531569499981
 30
0.0
 11
17672.047686999991
 21
19102.531569499981
 31
0.0
  0
LINE
  5
4208
  8
2-0
  6
CONTINUOUS
 62
     3
 10
17702.045311999991
 20
19084.529827499991
 30
0.0
 11
17702.045311999991
 21
19102.531569499981
 31
0.0
  0
LINE
  5
4209
  8
2-0
  6
CONTINUOUS
 62
     3
 10
17677.051909999991
 20
19084.529827499991
 30
0.0
 11
17702.045311999991
 21
19084.529827499991
 31
0.0
  0
LINE
  5
420A
  8
2-0
  6
CONTINUOUS
 62
     3
 10
17677.051909999991
 20
19089.53009149995
 30
0.0
 11
17677.051909999991
 21
19084.529827499991
 31
0.0
  0
LINE
  5
420B
  8
2-0
  6
CONTINUOUS
 62
     3
 10
17684.049507999971
 20
19089.53009149995
 30
0.0
 11
17677.051909999991
 21
19089.53009149995
 31
0.0
  0
LINE
  5
420C
  8
2-0
  6
CONTINUOUS
 62
     3
 10
17684.049507999971
 20
18357.336837999981
 30
0.0
 11
17677.051909999991
 21
18357.336837999981
 31
0.0
  0
LINE
  5
420D
  8
2-0
  6
CONTINUOUS
 62
     3
 10
17677.051909999991
 20
18357.336837999981
 30
0.0
 11
17677.051909999991
 21
18362.343039999982
 31
0.0
  0
LINE
  5
420E
  8
2-0
  6
CONTINUOUS
 62
     3
 10
17677.051909999991
 20
18362.343039999982
 30
0.0
 11
17702.045311999991
 21
18362.343039999982
 31
0.0
  0
LINE
  5
420F
  8
2-0
  6
CONTINUOUS
 62
     3
 10
17702.045311999991
 20
18362.343039999982
 30
0.0
 11
17702.045311999991
 21
18344.341297999981
 31
0.0
  0
LINE
  5
4210
  8
2-0
  6
CONTINUOUS
 62
     3
 10
17702.045311999991
 20
18344.341297999981
 30
0.0
 11
17672.047686999991
 21
18344.341297999981
 31
0.0
  0
LINE
  5
4211
  8
2-0
  6
CONTINUOUS
 62
     3
 10
17702.045311999991
 20
18360.432804999949
 30
0.0
 11
17702.045311999991
 21
18354.436842999989
 31
0.0
  0
LINE
  5
4212
  8
2-0
  6
CONTINUOUS
 62
     3
 10
17702.045311999991
 20
18354.436842999989
 30
0.0
 11
17672.047686999991
 21
18354.436842999989
 31
0.0
  0
LINE
  5
4213
  8
2-0
  6
CONTINUOUS
 62
     3
 10
17672.047686999991
 20
18354.436842999989
 30
0.0
 11
17672.047686999991
 21
18391.436024999992
 31
0.0
  0
LINE
  5
4214
  8
2-0
  6
CONTINUOUS
 62
     3
 10
17702.045311999991
 20
18391.436024999992
 30
0.0
 11
17672.047686999991
 21
18391.436024999992
 31
0.0
  0
LINE
  5
4215
  8
2-0
  6
CONTINUOUS
 62
     3
 10
17702.045311999991
 20
18385.440062999991
 30
0.0
 11
17702.045311999991
 21
18391.436024999992
 31
0.0
  0
LINE
  5
4216
  8
2-0
  6
CONTINUOUS
 62
     3
 10
17702.045311999991
 20
18401.531569999981
 30
0.0
 11
17672.047686999991
 21
18401.531569999981
 31
0.0
  0
LINE
  5
4217
  8
2-0
  6
CONTINUOUS
 62
     3
 10
17702.045311999991
 20
18383.529827999992
 30
0.0
 11
17702.045311999991
 21
18401.531569999981
 31
0.0
  0
LINE
  5
4218
  8
2-0
  6
CONTINUOUS
 62
     3
 10
17677.051909999991
 20
18383.529827999992
 30
0.0
 11
17702.045311999991
 21
18383.529827999992
 31
0.0
  0
LINE
  5
4219
  8
2-0
  6
CONTINUOUS
 62
     3
 10
17677.051909999991
 20
18388.536029999981
 30
0.0
 11
17677.051909999991
 21
18383.529827999992
 31
0.0
  0
LINE
  5
421A
  8
2-0
  6
CONTINUOUS
 62
     3
 10
17684.049507999971
 20
18388.536029999981
 30
0.0
 11
17677.051909999991
 21
18388.536029999981
 31
0.0
  0
LINE
  5
421B
  8
2-0
  6
CONTINUOUS
 62
     3
 10
17684.049507999971
 20
17687.52910199999
 30
0.0
 11
17677.051909999991
 21
17687.52910199999
 31
0.0
  0
LINE
  5
421C
  8
2-0
  6
CONTINUOUS
 62
     3
 10
17677.051909999991
 20
17687.52910199999
 30
0.0
 11
17677.051909999991
 21
17682.540714999981
 31
0.0
  0
LINE
  5
421D
  8
2-0
  6
CONTINUOUS
 62
     3
 10
17677.051909999991
 20
17682.540714999981
 30
0.0
 11
17702.045311999991
 21
17682.540714999981
 31
0.0
  0
LINE
  5
421E
  8
2-0
  6
CONTINUOUS
 62
     3
 10
17702.045311999991
 20
17682.540714999981
 30
0.0
 11
17702.045311999991
 21
17700.53651799999
 31
0.0
  0
LINE
  5
421F
  8
2-0
  6
CONTINUOUS
 62
     3
 10
17702.045311999991
 20
17700.53651799999
 30
0.0
 11
17672.047686999991
 21
17700.53651799999
 31
0.0
  0
LINE
  5
4220
  8
2-0
  6
CONTINUOUS
 62
     3
 10
17702.045311999991
 20
17684.43907299999
 30
0.0
 11
17702.045311999991
 21
17690.43503499998
 31
0.0
  0
LINE
  5
4221
  8
2-0
  6
CONTINUOUS
 62
     3
 10
17702.045311999991
 20
17690.43503499998
 30
0.0
 11
17672.047686999991
 21
17690.43503499998
 31
0.0
  0
LINE
  5
4222
  8
2-0
  6
CONTINUOUS
 62
     3
 10
17672.047686999991
 20
17690.43503499998
 30
0.0
 11
17672.047686999991
 21
17653.435852999992
 31
0.0
  0
LINE
  5
4223
  8
2-0
  6
CONTINUOUS
 62
     3
 10
17702.045311999991
 20
17653.435852999992
 30
0.0
 11
17672.047686999991
 21
17653.435852999992
 31
0.0
  0
LINE
  5
4224
  8
2-0
  6
CONTINUOUS
 62
     3
 10
17702.045311999991
 20
17659.43775399998
 30
0.0
 11
17702.045311999991
 21
17653.435852999992
 31
0.0
  0
LINE
  5
4225
  8
2-0
  6
CONTINUOUS
 62
     3
 10
17702.045311999991
 20
17643.34624699999
 30
0.0
 11
17672.047686999991
 21
17643.34624699999
 31
0.0
  0
LINE
  5
4226
  8
2-0
  6
CONTINUOUS
 62
     3
 10
17702.045311999991
 20
17661.342049999981
 30
0.0
 11
17702.045311999991
 21
17643.34624699999
 31
0.0
  0
LINE
  5
4227
  8
2-0
  6
CONTINUOUS
 62
     3
 10
17677.051909999991
 20
17661.342049999981
 30
0.0
 11
17702.045311999991
 21
17661.342049999981
 31
0.0
  0
LINE
  5
4228
  8
2-0
  6
CONTINUOUS
 62
     3
 10
17677.051909999991
 20
17656.34178699999
 30
0.0
 11
17677.051909999991
 21
17661.342049999981
 31
0.0
  0
LINE
  5
4229
  8
2-0
  6
CONTINUOUS
 62
     3
 10
17684.049507999971
 20
17656.34178699999
 30
0.0
 11
17677.051909999991
 21
17656.34178699999
 31
0.0
  0
LINE
  5
422A
  8
2-0
  6
CONTINUOUS
 62
     3
 10
17674.933824999978
 20
16936.432672999981
 30
0.0
 11
17674.933824999978
 21
16956.433727999982
 31
0.0
  0
LINE
  5
422B
  8
2-0
  6
CONTINUOUS
 62
     3
 10
17674.933824999978
 20
16956.433727999982
 30
0.0
 11
17759.93435299999
 21
16956.433727999982
 31
0.0
  0
LINE
  5
422C
  8
2-0
  6
CONTINUOUS
 62
     3
 10
17684.049507999971
 20
16983.040437999982
 30
0.0
 11
17677.051909999991
 21
16983.040437999982
 31
0.0
  0
LINE
  5
422D
  8
2-0
  6
CONTINUOUS
 62
     3
 10
17677.051909999991
 20
16983.040437999982
 30
0.0
 11
17677.051909999991
 21
16978.046112
 31
0.0
  0
LINE
  5
422E
  8
2-0
  6
CONTINUOUS
 62
     3
 10
17677.051909999991
 20
16978.046112
 30
0.0
 11
17702.045311999991
 21
16978.046112
 31
0.0
  0
LINE
  5
422F
  8
2-0
  6
CONTINUOUS
 62
     3
 10
17702.045311999991
 20
16978.046112
 30
0.0
 11
17702.045311999991
 21
16996.041915999991
 31
0.0
  0
LINE
  5
4230
  8
2-0
  6
CONTINUOUS
 62
     3
 10
17702.045311999991
 20
16996.041915999991
 30
0.0
 11
17672.047686999991
 21
16996.041915999991
 31
0.0
  0
LINE
  5
4231
  8
2-0
  6
CONTINUOUS
 62
     3
 10
17702.045311999991
 20
16986.433331999971
 30
0.0
 11
17702.045311999991
 21
16980.43143199999
 31
0.0
  0
LINE
  5
4232
  8
2-0
  6
CONTINUOUS
 62
     3
 10
17672.047686999991
 20
16986.433331999971
 30
0.0
 11
17702.045311999991
 21
16986.433331999971
 31
0.0
  0
LINE
  5
4233
  8
2-0
  6
CONTINUOUS
 62
     3
 10
17672.047686999991
 20
16996.041915999991
 30
0.0
 11
17672.047686999991
 21
17643.34624699999
 31
0.0
  0
LINE
  5
4234
  8
2-0
  6
CONTINUOUS
 62
     3
 10
17672.047686999991
 20
17700.53651799999
 30
0.0
 11
17672.047686999991
 21
18344.341297999981
 31
0.0
  0
LINE
  5
4235
  8
2-0
  6
CONTINUOUS
 62
     3
 10
17672.047686999991
 20
16841.431616999991
 30
0.0
 11
17702.045311999991
 21
16841.431616999991
 31
0.0
  0
LINE
  5
4236
  8
2-0
  6
CONTINUOUS
 62
     3
 10
17702.045311999991
 20
16841.431616999991
 30
0.0
 11
17702.045311999991
 21
16847.433517000001
 31
0.0
  0
LINE
  5
4237
  8
2-0
  6
CONTINUOUS
 62
     3
 10
17759.93435299999
 20
16871.43715999999
 30
0.0
 11
17674.933824999978
 21
16871.43715999999
 31
0.0
  0
LINE
  5
4238
  8
2-0
  6
CONTINUOUS
 62
     3
 10
17674.933824999978
 20
16871.43715999999
 30
0.0
 11
17674.933824999978
 21
16891.432276999982
 31
0.0
  0
LINE
  5
4239
  8
2-0
  6
CONTINUOUS
 62
     3
 10
17702.045311999991
 20
16831.82303399999
 30
0.0
 11
17672.047686999991
 21
16831.82303399999
 31
0.0
  0
LINE
  5
423A
  8
2-0
  6
CONTINUOUS
 62
     3
 10
17702.045311999991
 20
16849.818836999981
 30
0.0
 11
17702.045311999991
 21
16831.82303399999
 31
0.0
  0
LINE
  5
423B
  8
2-0
  6
CONTINUOUS
 62
     3
 10
17677.051909999991
 20
16849.818836999981
 30
0.0
 11
17702.045311999991
 21
16849.818836999981
 31
0.0
  0
LINE
  5
423C
  8
2-0
  6
CONTINUOUS
 62
     3
 10
17677.051909999991
 20
16844.81857299999
 30
0.0
 11
17677.051909999991
 21
16849.818836999981
 31
0.0
  0
LINE
  5
423D
  8
2-0
  6
CONTINUOUS
 62
     3
 10
17684.049507999971
 20
16844.81857299999
 30
0.0
 11
17677.051909999991
 21
16844.81857299999
 31
0.0
  0
LINE
  5
423E
  8
2-0
  6
CONTINUOUS
 62
     3
 10
17684.049507999971
 20
16140.336342499961
 30
0.0
 11
17677.051909999991
 21
16140.336342499961
 31
0.0
  0
LINE
  5
423F
  8
2-0
  6
CONTINUOUS
 62
     3
 10
17677.051909999991
 20
16140.336342499961
 30
0.0
 11
17677.051909999991
 21
16145.336606499979
 31
0.0
  0
LINE
  5
4240
  8
2-0
  6
CONTINUOUS
 62
     3
 10
17677.051909999991
 20
16145.336606499979
 30
0.0
 11
17702.045311999991
 21
16145.336606499979
 31
0.0
  0
LINE
  5
4241
  8
2-0
  6
CONTINUOUS
 62
     3
 10
17702.045311999991
 20
16145.336606499979
 30
0.0
 11
17702.045311999991
 21
16127.334864499981
 31
0.0
  0
LINE
  5
4242
  8
2-0
  6
CONTINUOUS
 62
     3
 10
17702.045311999991
 20
16127.334864499981
 30
0.0
 11
17672.047686999991
 21
16127.334864499981
 31
0.0
  0
LINE
  5
4243
  8
2-0
  6
CONTINUOUS
 62
     3
 10
17702.045311999991
 20
16143.432309499991
 30
0.0
 11
17702.045311999991
 21
16137.435358499981
 31
0.0
  0
LINE
  5
4244
  8
2-0
  6
CONTINUOUS
 62
     3
 10
17702.045311999991
 20
16137.435358499981
 30
0.0
 11
17672.047686999991
 21
16137.435358499981
 31
0.0
  0
LINE
  5
4245
  8
2-0
  6
CONTINUOUS
 62
     3
 10
17672.047686999991
 20
16137.435358499981
 30
0.0
 11
17672.047686999991
 21
16174.43552949999
 31
0.0
  0
LINE
  5
4246
  8
2-0
  6
CONTINUOUS
 62
     3
 10
17702.045311999991
 20
16174.43552949999
 30
0.0
 11
17672.047686999991
 21
16174.43552949999
 31
0.0
  0
LINE
  5
4247
  8
2-0
  6
CONTINUOUS
 62
     3
 10
17702.045311999991
 20
16168.432639499981
 30
0.0
 11
17702.045311999991
 21
16174.43552949999
 31
0.0
  0
LINE
  5
4248
  8
2-0
  6
CONTINUOUS
 62
     3
 10
17702.045311999991
 20
16184.531074499981
 30
0.0
 11
17672.047686999991
 21
16184.531074499981
 31
0.0
  0
LINE
  5
4249
  8
2-0
  6
CONTINUOUS
 62
     3
 10
17702.045311999991
 20
16166.523393499991
 30
0.0
 11
17702.045311999991
 21
16184.531074499981
 31
0.0
  0
LINE
  5
424A
  8
2-0
  6
CONTINUOUS
 62
     3
 10
17677.051909999991
 20
16166.523393499991
 30
0.0
 11
17702.045311999991
 21
16166.523393499991
 31
0.0
  0
LINE
  5
424B
  8
2-0
  6
CONTINUOUS
 62
     3
 10
17677.051909999991
 20
16171.52959649998
 30
0.0
 11
17677.051909999991
 21
16166.523393499991
 31
0.0
  0
LINE
  5
424C
  8
2-0
  6
CONTINUOUS
 62
     3
 10
17684.049507999971
 20
16171.52959649998
 30
0.0
 11
17677.051909999991
 21
16171.52959649998
 31
0.0
  0
LINE
  5
424D
  8
2-0
  6
CONTINUOUS
 62
     3
 10
17684.049507999971
 20
15470.76961299998
 30
0.0
 11
17677.051909999991
 21
15470.76961299998
 31
0.0
  0
LINE
  5
424E
  8
2-0
  6
CONTINUOUS
 62
     3
 10
17677.051909999991
 20
15470.76961299998
 30
0.0
 11
17677.051909999991
 21
15465.775288000001
 31
0.0
  0
LINE
  5
424F
  8
2-0
  6
CONTINUOUS
 62
     3
 10
17677.051909999991
 20
15465.775288000001
 30
0.0
 11
17702.045311999991
 21
15465.775288000001
 31
0.0
  0
LINE
  5
4250
  8
2-0
  6
CONTINUOUS
 62
     3
 10
17702.045311999991
 20
15465.775288000001
 30
0.0
 11
17702.045311999991
 21
15483.771091000001
 31
0.0
  0
LINE
  5
4251
  8
2-0
  6
CONTINUOUS
 62
     3
 10
17702.045311999991
 20
15483.771091000001
 30
0.0
 11
17672.047686999991
 21
15483.771091000001
 31
0.0
  0
LINE
  5
4252
  8
2-0
  6
CONTINUOUS
 62
     3
 10
17702.045311999991
 20
15467.67364599999
 30
0.0
 11
17702.045311999991
 21
15473.675546
 31
0.0
  0
LINE
  5
4253
  8
2-0
  6
CONTINUOUS
 62
     3
 10
17702.045311999991
 20
15473.675546
 30
0.0
 11
17672.047686999991
 21
15473.675546
 31
0.0
  0
LINE
  5
4254
  8
2-0
  6
CONTINUOUS
 62
     3
 10
17672.047686999991
 20
15436.67636499999
 30
0.0
 11
17672.047686999991
 21
15473.675546
 31
0.0
  0
LINE
  5
4255
  8
2-0
  6
CONTINUOUS
 62
     3
 10
17702.045311999991
 20
15436.67636499999
 30
0.0
 11
17672.047686999991
 21
15436.67636499999
 31
0.0
  0
LINE
  5
4256
  8
2-0
  6
CONTINUOUS
 62
     3
 10
17702.045311999991
 20
15442.67331599998
 30
0.0
 11
17702.045311999991
 21
15436.67636499999
 31
0.0
  0
LINE
  5
4257
  8
2-0
  6
CONTINUOUS
 62
     3
 10
17702.045311999991
 20
15426.57488099998
 30
0.0
 11
17672.047686999991
 21
15426.57488099998
 31
0.0
  0
LINE
  5
4258
  8
2-0
  6
CONTINUOUS
 62
     3
 10
17702.045311999991
 20
15444.582561999991
 30
0.0
 11
17702.045311999991
 21
15426.57488099998
 31
0.0
  0
LINE
  5
4259
  8
2-0
  6
CONTINUOUS
 62
     3
 10
17677.051909999991
 20
15444.582561999991
 30
0.0
 11
17702.045311999991
 21
15444.582561999991
 31
0.0
  0
LINE
  5
425A
  8
2-0
  6
CONTINUOUS
 62
     3
 10
17677.051909999991
 20
15439.58229800001
 30
0.0
 11
17677.051909999991
 21
15444.582561999991
 31
0.0
  0
LINE
  5
425B
  8
2-0
  6
CONTINUOUS
 62
     3
 10
17684.049507999971
 20
15439.58229800001
 30
0.0
 11
17677.051909999991
 21
15439.58229800001
 31
0.0
  0
LINE
  5
425C
  8
2-0
  6
CONTINUOUS
 62
     3
 10
17672.047686999991
 20
16831.82303399999
 30
0.0
 11
17672.047686999991
 21
16184.531074499981
 31
0.0
  0
LINE
  5
425D
  8
2-0
  6
CONTINUOUS
 62
     3
 10
17672.047686999991
 20
16986.433331999971
 30
0.0
 11
17672.047686999991
 21
16841.431616999991
 31
0.0
  0
LINE
  5
425E
  8
2-0
  6
CONTINUOUS
 62
     3
 10
17759.93435299999
 20
16956.433727999982
 30
0.0
 11
17759.93435299999
 21
16871.43715999999
 31
0.0
  0
LINE
  5
425F
  8
2-0
  6
CONTINUOUS
 62
     3
 10
17684.049507999971
 20
14738.34129099999
 30
0.0
 11
17677.051909999991
 21
14738.34129099999
 31
0.0
  0
LINE
  5
4260
  8
2-0
  6
CONTINUOUS
 62
     3
 10
17677.051909999991
 20
14738.34129099999
 30
0.0
 11
17677.051909999991
 21
14743.33561699999
 31
0.0
  0
LINE
  5
4261
  8
2-0
  6
CONTINUOUS
 62
     3
 10
17677.051909999991
 20
14743.33561699999
 30
0.0
 11
17702.045311999991
 21
14743.33561699999
 31
0.0
  0
LINE
  5
4262
  8
2-0
  6
CONTINUOUS
 62
     3
 10
17702.045311999991
 20
14743.33561699999
 30
0.0
 11
17702.045311999991
 21
14725.33981299999
 31
0.0
  0
LINE
  5
4263
  8
2-0
  6
CONTINUOUS
 62
     3
 10
17702.045311999991
 20
14725.33981299999
 30
0.0
 11
17672.047686999991
 21
14725.33981299999
 31
0.0
  0
LINE
  5
4264
  8
2-0
  6
CONTINUOUS
 62
     3
 10
17702.045311999991
 20
14741.43824799998
 30
0.0
 11
17702.045311999991
 21
14735.43535799999
 31
0.0
  0
LINE
  5
4265
  8
2-0
  6
CONTINUOUS
 62
     3
 10
17702.045311999991
 20
14735.43535799999
 30
0.0
 11
17672.047686999991
 21
14735.43535799999
 31
0.0
  0
LINE
  5
4266
  8
2-0
  6
CONTINUOUS
 62
     3
 10
17672.047686999991
 20
14735.43535799999
 30
0.0
 11
17672.047686999991
 21
14772.435529999981
 31
0.0
  0
LINE
  5
4267
  8
2-0
  6
CONTINUOUS
 62
     3
 10
17702.045311999991
 20
14772.435529999981
 30
0.0
 11
17672.047686999991
 21
14772.435529999981
 31
0.0
  0
LINE
  5
4268
  8
2-0
  6
CONTINUOUS
 62
     3
 10
17702.045311999991
 20
14766.438577999979
 30
0.0
 11
17702.045311999991
 21
14772.435529999981
 31
0.0
  0
LINE
  5
4269
  8
2-0
  6
CONTINUOUS
 62
     3
 10
17702.045311999991
 20
14782.536022999981
 30
0.0
 11
17672.047686999991
 21
14782.536022999981
 31
0.0
  0
LINE
  5
426A
  8
2-0
  6
CONTINUOUS
 62
     3
 10
17702.045311999991
 20
14764.52933199998
 30
0.0
 11
17702.045311999991
 21
14782.536022999981
 31
0.0
  0
LINE
  5
426B
  8
2-0
  6
CONTINUOUS
 62
     3
 10
17677.051909999991
 20
14764.52933199998
 30
0.0
 11
17702.045311999991
 21
14764.52933199998
 31
0.0
  0
LINE
  5
426C
  8
2-0
  6
CONTINUOUS
 62
     3
 10
17677.051909999991
 20
14769.53454499998
 30
0.0
 11
17677.051909999991
 21
14764.52933199998
 31
0.0
  0
LINE
  5
426D
  8
2-0
  6
CONTINUOUS
 62
     3
 10
17684.049507999971
 20
14769.53454499998
 30
0.0
 11
17677.051909999991
 21
14769.53454499998
 31
0.0
  0
LINE
  5
426E
  8
2-0
  6
CONTINUOUS
 62
     3
 10
17702.045311999991
 20
14062.43737099998
 30
0.0
 11
17702.045311999991
 21
14068.44223999998
 31
0.0
  0
LINE
  5
426F
  8
2-0
  6
CONTINUOUS
 62
     3
 10
17702.045311999991
 20
14068.44223999998
 30
0.0
 11
17672.047686999991
 21
14068.44223999998
 31
0.0
  0
LINE
  5
4270
  8
2-0
  6
CONTINUOUS
 62
     3
 10
17672.047686999991
 20
14068.44223999998
 30
0.0
 11
17672.047686999991
 21
13953.438148999991
 31
0.0
  0
LINE
  5
4271
  8
2-0
  6
CONTINUOUS
 62
     3
 10
17672.047686999991
 20
13953.438148999991
 30
0.0
 11
17757.04623499998
 21
13953.438148999991
 31
0.0
  0
LINE
  5
4272
  8
2-0
  6
CONTINUOUS
 62
     3
 10
17757.04623499998
 20
13953.438148999991
 30
0.0
 11
17757.04623499998
 21
14038.43372799998
 31
0.0
  0
LINE
  5
4273
  8
2-0
  6
CONTINUOUS
 62
     3
 10
17757.04623499998
 20
14038.43372799998
 30
0.0
 11
17725.049296999969
 21
14038.43372799998
 31
0.0
  0
LINE
  5
4274
  8
2-0
  6
CONTINUOUS
 62
     3
 10
17684.049507999971
 20
14065.471972999991
 30
0.0
 11
17677.051909999991
 21
14065.471972999991
 31
0.0
  0
LINE
  5
4275
  8
2-0
  6
CONTINUOUS
 62
     3
 10
17677.051909999991
 20
14065.471972999991
 30
0.0
 11
17677.051909999991
 21
14060.47467799995
 31
0.0
  0
LINE
  5
4276
  8
2-0
  6
CONTINUOUS
 62
     3
 10
17677.051909999991
 20
14060.47467799995
 30
0.0
 11
17702.045311999991
 21
14060.47467799995
 31
0.0
  0
LINE
  5
4277
  8
2-0
  6
CONTINUOUS
 62
     3
 10
17702.045311999991
 20
14060.47467799995
 30
0.0
 11
17702.045311999991
 21
14078.473450999991
 31
0.0
  0
LINE
  5
4278
  8
2-0
  6
CONTINUOUS
 62
     3
 10
17702.045311999991
 20
14078.473450999991
 30
0.0
 11
17672.047686999991
 21
14078.473450999991
 31
0.0
  0
LINE
  5
4279
  8
2-0
  6
CONTINUOUS
 62
     3
 10
17672.047686999991
 20
14782.536022999981
 30
0.0
 11
17672.047686999991
 21
15426.57488099998
 31
0.0
  0
LINE
  5
427A
  8
2-0
  6
CONTINUOUS
 62
     3
 10
17672.047686999991
 20
18401.531569999981
 30
0.0
 11
17672.047686999991
 21
19045.341297499981
 31
0.0
  0
LINE
  5
427B
  8
2-0
  6
CONTINUOUS
 62
     3
 10
17763.050114999991
 20
18330.435179999949
 30
0.0
 11
17716.046445999989
 21
18330.435179999949
 31
0.0
  0
LINE
  5
427C
  8
2-0
  6
CONTINUOUS
 62
     3
 10
17716.046445999989
 20
18415.435708000001
 30
0.0
 11
17763.050114999991
 21
18415.435708000001
 31
0.0
  0
LINE
  5
427D
  8
2-0
  6
CONTINUOUS
 62
     3
 10
17716.046445999989
 20
18330.435179999949
 30
0.0
 11
17716.046445999989
 21
18355.438479
 31
0.0
  0
LINE
  5
427E
  8
2-0
  6
CONTINUOUS
 62
     3
 10
17716.046445999989
 20
18390.434388000001
 30
0.0
 11
17716.046445999989
 21
18415.435708000001
 31
0.0
  0
LINE
  5
427F
  8
2-0
  6
CONTINUOUS
 62
     3
 10
17763.050114999991
 20
18415.435708000001
 30
0.0
 11
17763.050114999991
 21
18330.435179999949
 31
0.0
  0
LINE
  5
4280
  8
2-0
  6
CONTINUOUS
 62
     3
 10
17672.047686999991
 20
16127.334864499981
 30
0.0
 11
17672.047686999991
 21
15483.771091000001
 31
0.0
  0
LINE
  5
4281
  8
2-0
  6
CONTINUOUS
 62
     3
 10
17763.050114999991
 20
15412.677671500011
 30
0.0
 11
17716.046445999989
 21
15412.677671500011
 31
0.0
  0
LINE
  5
4282
  8
2-0
  6
CONTINUOUS
 62
     3
 10
17716.046445999989
 20
15497.6742395
 30
0.0
 11
17763.050114999991
 21
15497.6742395
 31
0.0
  0
LINE
  5
4283
  8
2-0
  6
CONTINUOUS
 62
     3
 10
17716.046445999989
 20
15412.677671500011
 30
0.0
 11
17716.046445999989
 21
15437.67305250002
 31
0.0
  0
LINE
  5
4284
  8
2-0
  6
CONTINUOUS
 62
     3
 10
17716.046445999989
 20
15472.67292050001
 30
0.0
 11
17716.046445999989
 21
15497.6742395
 31
0.0
  0
LINE
  5
4285
  8
2-0
  6
CONTINUOUS
 62
     3
 10
17763.050114999991
 20
15497.6742395
 30
0.0
 11
17763.050114999991
 21
15412.677671500011
 31
0.0
  0
LINE
  5
4286
  8
2-0
  6
CONTINUOUS
 62
     3
 10
26093.047554999961
 20
19408.937556000012
 30
0.0
 11
26093.047554999961
 21
19523.933729000011
 31
0.0
  0
LINE
  5
4287
  8
2-0
  6
CONTINUOUS
 62
     3
 10
22112.509284
 20
17177.646487000002
 30
0.0
 11
21954.628820999991
 21
17296.730366000011
 31
0.0
  0
LINE
  5
4288
  8
2-0
  6
CONTINUOUS
 62
     3
 10
22500.471172000001
 20
17260.77834999999
 30
0.0
 11
22254.628820999991
 21
17446.213712000012
 31
0.0
  0
LINE
  5
4289
  8
2-0
  6
CONTINUOUS
 62
     3
 10
22254.628820999991
 20
16376.333407
 30
0.0
 11
21894.520739
 21
16647.960966999992
 31
0.0
  0
LINE
  5
428A
  8
2-0
  6
CONTINUOUS
 62
     3
 10
21894.520739
 20
16647.960966999992
 30
0.0
 11
22500.471172000001
 21
17260.77834999999
 31
0.0
  0
LINE
  5
428B
  8
2-0
  6
CONTINUOUS
 62
     3
 10
21954.628820999991
 20
16226.851050999991
 30
0.0
 11
21506.55687199999
 21
16564.83108399999
 31
0.0
  0
LINE
  5
428C
  8
2-0
  6
CONTINUOUS
 62
     3
 10
22112.509284
 20
17177.646487000002
 30
0.0
 11
21506.55687199999
 21
16564.83108399999
 31
0.0
  0
LINE
  5
428D
  8
2-0
  6
CONTINUOUS
 62
     3
 10
22254.628820999991
 20
19630.655513999991
 30
0.0
 11
22254.628820999991
 21
19825.14123500001
 31
0.0
  0
LINE
  5
428E
  8
2-0
  6
CENTER2
 62
     6
 10
16385.089414999991
 20
19481.435443999981
 30
0.0
 11
26943.048874999949
 21
19481.435443999981
 31
0.0
  0
LINE
  5
428F
  8
2-0
  6
CENTER2
 62
     6
 10
16385.089414999991
 20
16913.935443999992
 30
0.0
 11
26943.048874999949
 21
16913.935443999992
 31
0.0
  0
LINE
  5
4290
  8
2-0
  6
CENTER2
 62
     6
 10
16385.089414999991
 20
13995.935443999981
 30
0.0
 11
26943.048874999949
 21
13995.935443999981
 31
0.0
  0
LINE
  5
4291
  8
2-0
  6
CONTINUOUS
 62
     3
 10
21954.628820999991
 20
19438.937160000001
 30
0.0
 11
17672.047686999991
 21
19438.937160000001
 31
0.0
  0
LINE
  5
4292
  8
2-0
  6
CONTINUOUS
 62
     3
 10
22254.628820999991
 20
19438.937160000001
 30
0.0
 11
26012.045654999962
 21
19438.937160000001
 31
0.0
  0
LINE
  5
4293
  8
2-0
  6
CONTINUOUS
 62
     3
 10
17672.047686999991
 20
14078.473450999991
 30
0.0
 11
17672.047686999991
 21
14725.33981299999
 31
0.0
  0
LINE
  5
4294
  8
2-0
  6
CENTER2
 62
     6
 10
17714.543991999992
 20
20723.933729000011
 30
0.0
 11
17714.543991999992
 21
13370.17200999998
 31
0.0
  0
LINE
  5
4295
  8
2-0
  6
CENTER2
 62
     6
 10
26050.54927099996
 20
20723.933729000011
 30
0.0
 11
26050.54927099996
 21
13370.17200999998
 31
0.0
  0
LINE
  5
4296
  8
2-0
  6
CONTINUOUS
 62
     3
 10
26093.047554999961
 20
19398.64009999999
 30
0.0
 11
26093.047554999961
 21
19102.531569499981
 31
0.0
  0
LINE
  5
4297
  8
2-0
  6
CONTINUOUS
 62
     3
 10
21954.628820999991
 20
17296.730366000011
 30
0.0
 11
21954.628820999991
 21
19825.14123500001
 31
0.0
  0
LINE
  5
4298
  8
2-0
  6
CONTINUOUS
 62
     3
 10
22254.628820999991
 20
17446.213712000012
 30
0.0
 11
22254.628820999991
 21
19630.655513999991
 31
0.0
  0
LINE
  5
4299
  8
2-0
  6
CONTINUOUS
 62
     3
 10
17672.047686999991
 20
19398.64009999999
 30
0.0
 11
17672.047686999991
 21
19102.531569499981
 31
0.0
  0
LINE
  5
429A
  8
2-0
  6
CONTINUOUS
 62
     3
 10
21954.628820999991
 20
16226.851050999991
 30
0.0
 11
21954.628820999991
 21
13804.53084299998
 31
0.0
  0
LINE
  5
429B
  8
2-0
  6
CONTINUOUS
 62
     3
 10
22254.628820999991
 20
16376.333407
 30
0.0
 11
22254.628820999991
 21
13804.53084299998
 31
0.0
  0
LINE
  5
429C
  8
2-0
  6
CENTER2
 62
     6
 10
23132.54927099996
 20
20723.933729000011
 30
0.0
 11
23132.54927099996
 21
13804.53084299998
 31
0.0
  0
LINE
  5
429D
  8
2-0
  6
CENTER2
 62
     6
 10
20632.543991999992
 20
20723.933729000011
 30
0.0
 11
20632.543991999992
 21
13804.53084299998
 31
0.0
  0
LINE
  5
429E
  8
2-0
  6
CONTINUOUS
 62
     3
 10
17753.045627999982
 20
14038.43372799998
 30
0.0
 11
17753.045627999982
 21
19523.933729000011
 31
0.0
  0
LINE
  5
429F
  8
2-0
  6
CONTINUOUS
 62
     3
 10
26012.045654999962
 20
14038.43372799998
 30
0.0
 11
26012.045654999962
 21
19523.933729000011
 31
0.0
  0
CIRCLE
  5
42A0
  8
2-0
  6
CONTINUOUS
 62
     4
 10
16185.09172499998
 20
19481.435443999981
 30
0.0
 40
200.00001
  0
CIRCLE
  5
42A1
  8
2-0
  6
CONTINUOUS
 62
     4
 10
16185.09172499998
 20
16913.935443999992
 30
0.0
 40
200.00001
  0
CIRCLE
  5
42A2
  8
2-0
  6
CONTINUOUS
 62
     4
 10
16185.09172499998
 20
13995.935443999981
 30
0.0
 40
200.00001
  0
CIRCLE
  5
42A3
  8
2-0
  6
CONTINUOUS
 62
     4
 10
20632.543991999992
 20
20923.938348
 30
0.0
 40
200.00001
  0
CIRCLE
  5
42A4
  8
2-0
  6
CONTINUOUS
 62
     4
 10
17714.543991999992
 20
20923.938348
 30
0.0
 40
200.00001
  0
CIRCLE
  5
42A5
  8
2-0
  6
CONTINUOUS
 62
     4
 10
23132.54927099996
 20
20923.938348
 30
0.0
 40
200.00001
  0
CIRCLE
  5
42A6
  8
2-0
  6
CONTINUOUS
 62
     4
 10
26050.54927099996
 20
20923.938348
 30
0.0
 40
200.00001
  0
TEXT
  5
42A7
  8
2-0
  6
CONTINUOUS
 62
     7
 10
24447.394577999959
 20
13435.93656599998
 30
0.0
 40
160.0
  1
前柱（右）
 50
0.000213
 72
     4
 11
24863.39428059298
 21
13515.938112500769
 31
0.0
  0
TEXT
  5
42A8
  8
2-0
  6
CONTINUOUS
 62
     7
 10
24464.093796999969
 20
18115.05861
 30
0.0
 40
160.0
  1
補強柱 後
 50
359.99984199999989
 72
     4
 11
24874.76068427469
 21
18195.05747753699
 31
0.0
  0
TEXT
  5
42A9
  8
2-0
  6
CONTINUOUS
 62
     7
 10
24651.989700999959
 20
16364.428582
 30
0.0
 40
160.0
  1
壁パネル
 50
359.99982299999999
 72
     4
 11
25014.65661480352
 21
16444.427461637872
 31
0.0
  0
TEXT
  5
42AA
  8
2-0
  6
CONTINUOUS
 62
     7
 10
24371.98679699994
 20
17201.616478
 30
0.0
 40
160.0
  1
中柱（左右）
 50
0.000354
 72
     4
 11
24889.319636046159
 21
17281.619674324651
 31
0.0
  0
TEXT
  5
42AB
  8
2-0
  6
CONTINUOUS
 62
     7
 10
25051.989040999961
 20
14408.97783199997
 30
0.0
 40
160.0
  1
下枠
 50
0.001063
 72
     4
 11
25222.654223409259
 21
14488.980998339261
 31
0.0
  0
TEXT
  5
42AC
  8
2-0
  6
CONTINUOUS
 62
     7
 10
24464.093796999969
 20
15197.299121000009
 30
0.0
 40
160.0
  1
補強柱 前
 50
359.99937
 72
     4
 11
24874.761343287759
 21
15277.29460547933
 31
0.0
  0
TEXT
  5
42AD
  8
2-0
  6
CONTINUOUS
 62
     7
 10
24546.954464999959
 20
18804.885216499981
 30
0.0
 40
160.0
  1
間柱（側）
 72
     4
 11
24968.287798333291
 21
18884.885216499981
 31
0.0
  0
TEXT
  5
42AE
  8
2-0
  6
CONTINUOUS
 62
     7
 10
26865.544783999969
 20
20333.932937000001
 30
0.0
 40
160.0
  1
後柱（左右）
 50
0.000354
 72
     4
 11
27377.544289712961
 21
20413.936100372841
 31
0.0
  0
TEXT
  5
42AF
  8
2-0
  6
CONTINUOUS
 62
     7
 10
23531.638032999959
 20
14573.77374399996
 30
0.0
 40
160.0
  1
前柱（中）
 72
     4
 11
23947.638032999959
 21
14653.77374399996
 31
0.0
  0
TEXT
  5
42B0
  8
2-0
  6
CONTINUOUS
 62
     7
 10
19468.412867999981
 20
18886.815775999999
 30
0.0
 40
160.0
  1
間柱（後）
 72
     4
 11
19889.746201333321
 21
18966.815775999999
 31
0.0
  0
TEXT
  5
42B1
  8
2-0
  6
CONTINUOUS
 62
     7
 10
23402.842635999968
 20
18955.560496999991
 30
0.0
 40
160.0
  1
後柱（中）
 72
     4
 11
23818.842635999968
 21
19035.560496999991
 31
0.0
  0
TEXT
  5
42B2
  8
2-0
  6
CONTINUOUS
 62
     7
 10
16137.09235799996
 20
19386.955001999992
 30
0.0
 40
160.0
  1
C
 72
     4
 11
16190.425691333299
 21
19466.955001999992
 31
0.0
  0
TEXT
  5
42B3
  8
2-0
  6
CONTINUOUS
 62
     7
 10
16137.31307399998
 20
16843.541362
 30
0.0
 40
160.0
  1
B
 72
     4
 11
16190.646407333321
 21
16923.541362
 31
0.0
  0
TEXT
  5
42B4
  8
2-0
  6
CONTINUOUS
 62
     7
 10
16137.35563399999
 20
13907.32823299998
 30
0.0
 40
160.0
  1
A
 72
     4
 11
16190.68896733333
 21
13987.32823299998
 31
0.0
  0
TEXT
  5
42B5
  8
2-0
  6
CONTINUOUS
 62
     7
 10
20580.912208999991
 20
20828.412719
 30
0.0
 40
160.0
  1
2
 72
     4
 11
20634.245542333319
 21
20908.412719
 31
0.0
  0
TEXT
  5
42B6
  8
2-0
  6
CONTINUOUS
 62
     7
 10
17670.33738299998
 20
20835.170795999999
 30
0.0
 40
160.0
  1
1
 72
     4
 11
17697.004049666652
 21
20915.170795999999
 31
0.0
  0
TEXT
  5
42B7
  8
2-0
  6
CONTINUOUS
 62
     7
 10
25999.143152999972
 20
20843.550098
 30
0.0
 40
160.0
  1
n
 72
     4
 11
26052.4764863333
 21
20896.883431333328
 31
0.0
  0
TEXT
  5
42B8
  8
2-0
  6
CONTINUOUS
 62
     7
 10
22972.594271999969
 20
20856.046799
 30
0.0
 40
140.0
  1
n-1
 72
     4
 11
23135.927605333301
 21
20926.046799
 31
0.0
  0
TEXT
  5
42B9
  8
2-0
  6
CONTINUOUS
 62
     7
 10
21060.80286
 20
11889.06122300001
 30
0.0
 40
160.0
  1
平 面 図
 50
0.000266
 72
     4
 11
21418.135846683821
 21
11963.729548612961
 31
0.0
  0
TEXT
  5
42BA
  8
2-0
  6
CONTINUOUS
 62
     7
 10
22769.628031821441
 20
11910.924917612951
 30
0.0
 40
160.0
  1
1
 72
     4
 11
22796.294698488098
 21
11990.924917612951
 31
0.0
  0
TEXT
  5
42BB
  8
2-0
  6
CONTINUOUS
 62
     7
 10
23012.716749072129
 20
11830.92638561294
 30
0.0
 40
160.0
  1
80
 72
     4
 11
23132.716749072129
 21
11910.92638561294
 31
0.0
  0
TEXT
  5
42BC
  8
2-0
  6
CONTINUOUS
 62
     7
 10
22270.629997821441
 20
11883.729548612961
 30
0.0
 40
160.0
  1
(S=  /   )
 72
     4
 11
22830.629997821441
 21
11963.729548612961
 31
0.0
  0
LINE
  5
42BD
  8
2-0
  6
CONTINUOUS
 62
     3
 10
25311.04985199996
 20
19523.933729000011
 30
0.0
 11
25274.04868999996
 21
19523.933729000011
 31
0.0
  0
LINE
  5
42BE
  8
2-0
  6
CONTINUOUS
 62
     3
 10
25311.04985199996
 20
19493.930165999998
 30
0.0
 11
25311.04985199996
 21
19523.933729000011
 31
0.0
  0
LINE
  5
42BF
  8
2-0
  6
CONTINUOUS
 62
     3
 10
25305.04993099995
 20
19493.930165999998
 30
0.0
 11
25311.04985199996
 21
19493.930165999998
 31
0.0
  0
LINE
  5
42C0
  8
2-0
  6
CONTINUOUS
 62
     3
 10
25321.147375999961
 20
19493.930165999998
 30
0.0
 11
25321.147375999961
 21
19523.933729000011
 31
0.0
  0
LINE
  5
42C1
  8
2-0
  6
CONTINUOUS
 62
     3
 10
25303.14365499996
 20
19493.930165999998
 30
0.0
 11
25321.147375999961
 21
19493.930165999998
 31
0.0
  0
LINE
  5
42C2
  8
2-0
  6
CONTINUOUS
 62
     3
 10
25303.14365499996
 20
19518.939403
 30
0.0
 11
25303.14365499996
 21
19493.930165999998
 31
0.0
  0
LINE
  5
42C3
  8
2-0
  6
CONTINUOUS
 62
     3
 10
25308.143918999958
 20
19518.939403
 30
0.0
 11
25303.14365499996
 21
19518.939403
 31
0.0
  0
LINE
  5
42C4
  8
2-0
  6
CONTINUOUS
 62
     3
 10
25308.143918999958
 20
19511.93388700001
 30
0.0
 11
25308.143918999958
 21
19518.939403
 31
0.0
  0
LINE
  5
42C5
  8
2-0
  6
CONTINUOUS
 62
     3
 10
25276.954623999962
 20
19511.93388700001
 30
0.0
 11
25276.954623999962
 21
19518.939403
 31
0.0
  0
LINE
  5
42C6
  8
2-0
  6
CONTINUOUS
 62
     3
 10
25276.954623999962
 20
19518.939403
 30
0.0
 11
25281.95488799996
 21
19518.939403
 31
0.0
  0
LINE
  5
42C7
  8
2-0
  6
CONTINUOUS
 62
     3
 10
25281.95488799996
 20
19518.939403
 30
0.0
 11
25281.95488799996
 21
19493.930165999998
 31
0.0
  0
LINE
  5
42C8
  8
2-0
  6
CONTINUOUS
 62
     3
 10
25281.95488799996
 20
19493.930165999998
 30
0.0
 11
25263.95512499996
 21
19493.930165999998
 31
0.0
  0
LINE
  5
42C9
  8
2-0
  6
CONTINUOUS
 62
     3
 10
25263.95512499996
 20
19493.930165999998
 30
0.0
 11
25263.95512499996
 21
19523.933729000011
 31
0.0
  0
LINE
  5
42CA
  8
2-0
  6
CONTINUOUS
 62
     3
 10
25280.048610999958
 20
19493.930165999998
 30
0.0
 11
25274.04868999996
 21
19493.930165999998
 31
0.0
  0
LINE
  5
42CB
  8
2-0
  6
CONTINUOUS
 62
     3
 10
25274.04868999996
 20
19493.930165999998
 30
0.0
 11
25274.04868999996
 21
19523.933729000011
 31
0.0
  0
LINE
  5
42CC
  8
2-0
  6
CONTINUOUS
 62
     3
 10
23906.138969499971
 20
19511.93388700001
 30
0.0
 11
23906.138969499971
 21
19518.939403
 31
0.0
  0
LINE
  5
42CD
  8
2-0
  6
CONTINUOUS
 62
     3
 10
23906.138969499971
 20
19518.939403
 30
0.0
 11
23901.138705499961
 21
19518.939403
 31
0.0
  0
LINE
  5
42CE
  8
2-0
  6
CONTINUOUS
 62
     3
 10
23901.138705499961
 20
19518.939403
 30
0.0
 11
23901.138705499961
 21
19493.930165999998
 31
0.0
  0
LINE
  5
42CF
  8
2-0
  6
CONTINUOUS
 62
     3
 10
23901.138705499961
 20
19493.930165999998
 30
0.0
 11
23919.14440649996
 21
19493.930165999998
 31
0.0
  0
LINE
  5
42D0
  8
2-0
  6
CONTINUOUS
 62
     3
 10
23919.14440649996
 20
19493.930165999998
 30
0.0
 11
23919.14440649996
 21
19523.933729000011
 31
0.0
  0
LINE
  5
42D1
  8
2-0
  6
CONTINUOUS
 62
     3
 10
23903.04696149996
 20
19493.930165999998
 30
0.0
 11
23909.04886149997
 21
19493.930165999998
 31
0.0
  0
LINE
  5
42D2
  8
2-0
  6
CONTINUOUS
 62
     3
 10
23909.04886149997
 20
19493.930165999998
 30
0.0
 11
23909.04886149997
 21
19523.933729000011
 31
0.0
  0
LINE
  5
42D3
  8
2-0
  6
CONTINUOUS
 62
     3
 10
23872.04968049996
 20
19523.933729000011
 30
0.0
 11
23909.04886149997
 21
19523.933729000011
 31
0.0
  0
LINE
  5
42D4
  8
2-0
  6
CONTINUOUS
 62
     3
 10
23872.04968049996
 20
19493.930165999998
 30
0.0
 11
23872.04968049996
 21
19523.933729000011
 31
0.0
  0
LINE
  5
42D5
  8
2-0
  6
CONTINUOUS
 62
     3
 10
23878.043662499971
 20
19493.930165999998
 30
0.0
 11
23872.04968049996
 21
19493.930165999998
 31
0.0
  0
LINE
  5
42D6
  8
2-0
  6
CONTINUOUS
 62
     3
 10
23861.95413549996
 20
19493.930165999998
 30
0.0
 11
23861.95413549996
 21
19523.933729000011
 31
0.0
  0
LINE
  5
42D7
  8
2-0
  6
CONTINUOUS
 62
     3
 10
23879.949938499962
 20
19493.930165999998
 30
0.0
 11
23861.95413549996
 21
19493.930165999998
 31
0.0
  0
LINE
  5
42D8
  8
2-0
  6
CONTINUOUS
 62
     3
 10
23879.949938499962
 20
19518.939403
 30
0.0
 11
23879.949938499962
 21
19493.930165999998
 31
0.0
  0
LINE
  5
42D9
  8
2-0
  6
CONTINUOUS
 62
     3
 10
23874.949674499949
 20
19518.939403
 30
0.0
 11
23879.949938499962
 21
19518.939403
 31
0.0
  0
LINE
  5
42DA
  8
2-0
  6
CONTINUOUS
 62
     3
 10
23874.949674499949
 20
19511.93388700001
 30
0.0
 11
23874.949674499949
 21
19518.939403
 31
0.0
  0
LINE
  5
42DB
  8
2-0
  6
CONTINUOUS
 62
     3
 10
24575.94868549997
 20
19511.93388700001
 30
0.0
 11
24575.94868549997
 21
19518.939403
 31
0.0
  0
LINE
  5
42DC
  8
2-0
  6
CONTINUOUS
 62
     3
 10
24575.94868549997
 20
19518.939403
 30
0.0
 11
24580.948948499961
 21
19518.939403
 31
0.0
  0
LINE
  5
42DD
  8
2-0
  6
CONTINUOUS
 62
     3
 10
24580.948948499961
 20
19518.939403
 30
0.0
 11
24580.948948499961
 21
19493.930165999998
 31
0.0
  0
LINE
  5
42DE
  8
2-0
  6
CONTINUOUS
 62
     3
 10
24580.948948499961
 20
19493.930165999998
 30
0.0
 11
24562.95512549995
 21
19493.930165999998
 31
0.0
  0
LINE
  5
42DF
  8
2-0
  6
CONTINUOUS
 62
     3
 10
24562.95512549995
 20
19493.930165999998
 30
0.0
 11
24562.95512549995
 21
19523.933729000011
 31
0.0
  0
LINE
  5
42E0
  8
2-0
  6
CONTINUOUS
 62
     3
 10
24579.046631499961
 20
19493.930165999998
 30
0.0
 11
24573.048690499971
 21
19493.930165999998
 31
0.0
  0
LINE
  5
42E1
  8
2-0
  6
CONTINUOUS
 62
     3
 10
24573.048690499971
 20
19493.930165999998
 30
0.0
 11
24573.048690499971
 21
19523.933729000011
 31
0.0
  0
LINE
  5
42E2
  8
2-0
  6
CONTINUOUS
 62
     3
 10
24610.04985149996
 20
19523.933729000011
 30
0.0
 11
24573.048690499971
 21
19523.933729000011
 31
0.0
  0
LINE
  5
42E3
  8
2-0
  6
CONTINUOUS
 62
     3
 10
24610.04985149996
 20
19493.930165999998
 30
0.0
 11
24610.04985149996
 21
19523.933729000011
 31
0.0
  0
LINE
  5
42E4
  8
2-0
  6
CONTINUOUS
 62
     3
 10
24604.04399249997
 20
19493.930165999998
 30
0.0
 11
24610.04985149996
 21
19493.930165999998
 31
0.0
  0
LINE
  5
42E5
  8
2-0
  6
CONTINUOUS
 62
     3
 10
24620.14341649997
 20
19493.930165999998
 30
0.0
 11
24620.14341649997
 21
19523.933729000011
 31
0.0
  0
LINE
  5
42E6
  8
2-0
  6
CONTINUOUS
 62
     3
 10
24602.147613499961
 20
19493.930165999998
 30
0.0
 11
24620.14341649997
 21
19493.930165999998
 31
0.0
  0
LINE
  5
42E7
  8
2-0
  6
CONTINUOUS
 62
     3
 10
24602.147613499961
 20
19518.939403
 30
0.0
 11
24602.147613499961
 21
19493.930165999998
 31
0.0
  0
LINE
  5
42E8
  8
2-0
  6
CONTINUOUS
 62
     3
 10
24607.13797949997
 20
19518.939403
 30
0.0
 11
24602.147613499961
 21
19518.939403
 31
0.0
  0
LINE
  5
42E9
  8
2-0
  6
CONTINUOUS
 62
     3
 10
24607.13797949997
 20
19511.93388700001
 30
0.0
 11
24607.13797949997
 21
19518.939403
 31
0.0
  0
LINE
  5
42EA
  8
2-0
  6
CONTINUOUS
 62
     3
 10
23919.14440649996
 20
19523.933729000011
 30
0.0
 11
24562.95512549995
 21
19523.933729000011
 31
0.0
  0
LINE
  5
42EB
  8
2-0
  6
CONTINUOUS
 62
     3
 10
23214.667619999971
 20
19523.933729000011
 30
0.0
 11
23861.95413549996
 21
19523.933729000011
 31
0.0
  0
LINE
  5
42EC
  8
2-0
  6
CONTINUOUS
 62
     3
 10
25968.43290099996
 20
19523.933729000011
 30
0.0
 11
25321.147375999961
 21
19523.933729000011
 31
0.0
  0
LINE
  5
42ED
  8
2-0
  6
CONTINUOUS
 62
     3
 10
25263.95512499996
 20
19523.933729000011
 30
0.0
 11
24620.14341649997
 21
19523.933729000011
 31
0.0
  0
LINE
  5
42EE
  8
2-0
  6
CONTINUOUS
 62
     3
 10
22393.738724999981
 20
19523.933729000011
 30
0.0
 11
22356.73756299997
 21
19523.933729000011
 31
0.0
  0
LINE
  5
42EF
  8
2-0
  6
CONTINUOUS
 62
     3
 10
22393.738724999981
 20
19493.930165999998
 30
0.0
 11
22393.738724999981
 21
19523.933729000011
 31
0.0
  0
LINE
  5
42F0
  8
2-0
  6
CONTINUOUS
 62
     3
 10
22387.738803999961
 20
19493.930165999998
 30
0.0
 11
22393.738724999981
 21
19493.930165999998
 31
0.0
  0
LINE
  5
42F1
  8
2-0
  6
CONTINUOUS
 62
     3
 10
22403.836248999982
 20
19493.930165999998
 30
0.0
 11
22403.836248999982
 21
19523.933729000011
 31
0.0
  0
LINE
  5
42F2
  8
2-0
  6
CONTINUOUS
 62
     3
 10
22385.832527999981
 20
19493.930165999998
 30
0.0
 11
22403.836248999982
 21
19493.930165999998
 31
0.0
  0
LINE
  5
42F3
  8
2-0
  6
CONTINUOUS
 62
     3
 10
22385.832527999981
 20
19518.939403
 30
0.0
 11
22385.832527999981
 21
19493.930165999998
 31
0.0
  0
LINE
  5
42F4
  8
2-0
  6
CONTINUOUS
 62
     3
 10
22390.832791999968
 20
19518.939403
 30
0.0
 11
22385.832527999981
 21
19518.939403
 31
0.0
  0
LINE
  5
42F5
  8
2-0
  6
CONTINUOUS
 62
     3
 10
22390.832791999968
 20
19511.93388700001
 30
0.0
 11
22390.832791999968
 21
19518.939403
 31
0.0
  0
LINE
  5
42F6
  8
2-0
  6
CONTINUOUS
 62
     3
 10
22359.643496999961
 20
19511.93388700001
 30
0.0
 11
22359.643496999961
 21
19518.939403
 31
0.0
  0
LINE
  5
42F7
  8
2-0
  6
CONTINUOUS
 62
     3
 10
22359.643496999961
 20
19518.939403
 30
0.0
 11
22364.643760999981
 21
19518.939403
 31
0.0
  0
LINE
  5
42F8
  8
2-0
  6
CONTINUOUS
 62
     3
 10
22364.643760999981
 20
19518.939403
 30
0.0
 11
22364.643760999981
 21
19493.930165999998
 31
0.0
  0
LINE
  5
42F9
  8
2-0
  6
CONTINUOUS
 62
     3
 10
22364.643760999981
 20
19493.930165999998
 30
0.0
 11
22346.643997999981
 21
19493.930165999998
 31
0.0
  0
LINE
  5
42FA
  8
2-0
  6
CONTINUOUS
 62
     3
 10
22346.643997999981
 20
19493.930165999998
 30
0.0
 11
22346.643997999981
 21
19523.933729000011
 31
0.0
  0
LINE
  5
42FB
  8
2-0
  6
CONTINUOUS
 62
     3
 10
22362.737483999968
 20
19493.930165999998
 30
0.0
 11
22356.73756299997
 21
19493.930165999998
 31
0.0
  0
LINE
  5
42FC
  8
2-0
  6
CONTINUOUS
 62
     3
 10
22356.73756299997
 20
19493.930165999998
 30
0.0
 11
22356.73756299997
 21
19523.933729000011
 31
0.0
  0
LINE
  5
42FD
  8
2-0
  6
CONTINUOUS
 62
     3
 10
23051.121773999981
 20
19523.933729000011
 30
0.0
 11
22403.836248999982
 21
19523.933729000011
 31
0.0
  0
LINE
  5
42FE
  8
2-0
  6
CONTINUOUS
 62
     3
 10
22346.643997999981
 20
19523.933729000011
 30
0.0
 11
22254.628820999991
 21
19523.933729000011
 31
0.0
  0
LINE
  5
42FF
  8
2-0
  6
CONTINUOUS
 62
     3
 10
21755.946796499989
 20
19511.93388700001
 30
0.0
 11
21755.946796499989
 21
19518.939403
 31
0.0
  0
LINE
  5
4300
  8
2-0
  6
CONTINUOUS
 62
     3
 10
21755.946796499989
 20
19518.939403
 30
0.0
 11
21750.946532499991
 21
19518.939403
 31
0.0
  0
LINE
  5
4301
  8
2-0
  6
CONTINUOUS
 62
     3
 10
21750.946532499991
 20
19518.939403
 30
0.0
 11
21750.946532499991
 21
19493.930165999998
 31
0.0
  0
LINE
  5
4302
  8
2-0
  6
CONTINUOUS
 62
     3
 10
21750.946532499991
 20
19493.930165999998
 30
0.0
 11
21768.952233499978
 21
19493.930165999998
 31
0.0
  0
LINE
  5
4303
  8
2-0
  6
CONTINUOUS
 62
     3
 10
21768.952233499978
 20
19493.930165999998
 30
0.0
 11
21768.952233499978
 21
19523.933729000011
 31
0.0
  0
LINE
  5
4304
  8
2-0
  6
CONTINUOUS
 62
     3
 10
21752.854788499979
 20
19493.930165999998
 30
0.0
 11
21758.856688499989
 21
19493.930165999998
 31
0.0
  0
LINE
  5
4305
  8
2-0
  6
CONTINUOUS
 62
     3
 10
21758.856688499989
 20
19493.930165999998
 30
0.0
 11
21758.856688499989
 21
19523.933729000011
 31
0.0
  0
LINE
  5
4306
  8
2-0
  6
CONTINUOUS
 62
     3
 10
21721.857507499972
 20
19523.933729000011
 30
0.0
 11
21758.856688499989
 21
19523.933729000011
 31
0.0
  0
LINE
  5
4307
  8
2-0
  6
CONTINUOUS
 62
     3
 10
21721.857507499972
 20
19493.930165999998
 30
0.0
 11
21721.857507499972
 21
19523.933729000011
 31
0.0
  0
LINE
  5
4308
  8
2-0
  6
CONTINUOUS
 62
     3
 10
21727.85148949999
 20
19493.930165999998
 30
0.0
 11
21721.857507499972
 21
19493.930165999998
 31
0.0
  0
LINE
  5
4309
  8
2-0
  6
CONTINUOUS
 62
     3
 10
21711.761962499979
 20
19493.930165999998
 30
0.0
 11
21711.761962499979
 21
19523.933729000011
 31
0.0
  0
LINE
  5
430A
  8
2-0
  6
CONTINUOUS
 62
     3
 10
21729.757765499991
 20
19493.930165999998
 30
0.0
 11
21711.761962499979
 21
19493.930165999998
 31
0.0
  0
LINE
  5
430B
  8
2-0
  6
CONTINUOUS
 62
     3
 10
21729.757765499991
 20
19518.939403
 30
0.0
 11
21729.757765499991
 21
19493.930165999998
 31
0.0
  0
LINE
  5
430C
  8
2-0
  6
CONTINUOUS
 62
     3
 10
21724.757501499978
 20
19518.939403
 30
0.0
 11
21729.757765499991
 21
19518.939403
 31
0.0
  0
LINE
  5
430D
  8
2-0
  6
CONTINUOUS
 62
     3
 10
21724.757501499978
 20
19511.93388700001
 30
0.0
 11
21724.757501499978
 21
19518.939403
 31
0.0
  0
LINE
  5
430E
  8
2-0
  6
CONTINUOUS
 62
     3
 10
20714.662339999992
 20
19523.933729000011
 30
0.0
 11
21711.761962499979
 21
19523.933729000011
 31
0.0
  0
LINE
  5
430F
  8
2-0
  6
CONTINUOUS
 62
     3
 10
21954.628820999991
 20
19523.933729000011
 30
0.0
 11
21768.952233499978
 21
19523.933729000011
 31
0.0
  0
LINE
  5
4310
  8
2-0
  6
CONTINUOUS
 62
     3
 10
26093.047554999961
 20
15426.57488099998
 30
0.0
 11
26093.047554999961
 21
14782.536022999981
 31
0.0
  0
LINE
  5
4311
  8
2-0
  6
CONTINUOUS
 62
     3
 10
26093.047554999961
 20
14725.33981299999
 30
0.0
 11
26093.047554999961
 21
14078.473450999991
 31
0.0
  0
LINE
  5
4312
  8
SUNPOU
  6
CONTINUOUS
 10
4599.9447970000119
 20
19703.931353
 30
0.0
 11
4599.9447970000119
 21
20500.898620778451
 31
0.0
  0
LINE
  5
4313
  8
SUNPOU
  6
CONTINUOUS
 10
4599.944797000011
 20
13803.44012899999
 30
0.0
 11
4599.944797000011
 21
13128.01401318961
 31
0.0
  0
LINE
  5
4316
  8
WAKUSEN-01
 10
868.00000000000193
 20
22484.000000000011
 30
0.0
 11
32764.000000000011
 21
22484.000000000011
 31
0.0
  0
LINE
  5
4319
  8
WAKUSEN-01
 10
20560.0
 20
2484.0
 30
0.0
 11
32764.0
 21
2484.0
 31
0.0
  0
LINE
  5
431A
  8
WAKUSEN-02
 10
20560.0
 20
1655.9999999999991
 30
0.0
 11
26868.0
 21
1655.9999999999991
 31
0.0
  0
TEXT
  5
431B
  8
WAKUMOJI-01
 10
20670.260259962761
 20
2125.9030093393221
 30
0.0
 40
240.0
  1
名　称
  7
WAKUMOJI
  0
TEXT
  5
431C
  8
WAKUMOJI-01
 10
20656.505485091919
 20
1319.12897497982
 30
0.0
 40
240.0
  1
機種名
  7
WAKUMOJI
  0
LINE
  5
431F
  8
YODOROGO
 10
29977.604341291921
 20
1995.7494964292871
 30
0.0
 11
29829.604341291921
 21
1995.7494964292871
 31
0.0
1001
AUTOCAD_POSTSCRIPT_FIGURE
1002
{
1000
PSFILL
1000
Grayscale
1000
Grayscale
1070
    25
1002
}
  0
LINE
  5
4320
  8
YODOROGO
 10
29829.604341291921
 20
1947.749496429288
 30
0.0
 11
29977.604341291921
 21
1947.749496429288
 31
0.0
1001
AUTOCAD_POSTSCRIPT_FIGURE
1002
{
1000
PSFILL
1000
Grayscale
1000
Grayscale
1070
    25
1002
}
  0
LINE
  5
4321
  8
YODOROGO
 10
29977.604341291921
 20
1907.7494964292871
 30
0.0
 11
29829.604341291921
 21
1907.7494964292871
 31
0.0
1001
AUTOCAD_POSTSCRIPT_FIGURE
1002
{
1000
PSFILL
1000
Grayscale
1000
Grayscale
1070
    25
1002
}
  0
LINE
  5
4322
  8
YODOROGO
 10
29829.604341291921
 20
1859.749496429288
 30
0.0
 11
29977.604341291921
 21
1859.749496429288
 31
0.0
1001
AUTOCAD_POSTSCRIPT_FIGURE
1002
{
1000
PSFILL
1000
Grayscale
1000
Grayscale
1070
    25
1002
}
  0
LINE
  5
4323
  8
YODOROGO
 10
29977.604341291921
 20
1819.7494964292871
 30
0.0
 11
29829.604341291921
 21
1819.7494964292871
 31
0.0
1001
AUTOCAD_POSTSCRIPT_FIGURE
1002
{
1000
PSFILL
1000
Grayscale
1000
Grayscale
1070
    25
1002
}
  0
LINE
  5
4324
  8
YODOROGO
 10
29921.60434129191
 20
1707.749496429288
 30
0.0
 11
29977.604341291921
 21
1707.749496429288
 31
0.0
1001
AUTOCAD_POSTSCRIPT_FIGURE
1002
{
1000
PSFILL
1000
Grayscale
1000
Grayscale
1070
    25
1002
}
  0
LINE
  5
4325
  8
YODOROGO
 10
29737.604341291921
 20
1427.749496429288
 30
0.0
 11
29937.604341291932
 21
1481.3393349155101
 31
0.0
  0
LINE
  5
4326
  8
YODOROGO
 10
29949.60434129191
 20
1707.749496429288
 30
0.0
 11
29885.604341291921
 21
1707.749496429288
 31
0.0
  0
ARC
  5
4327
  8
YODOROGO
 10
30254.34774982791
 20
1807.864609233261
 30
0.0
 40
381.88686420564721
 50
213.96111677667841
 51
264.47872074317792
  0
ARC
  5
4328
  8
YODOROGO
 10
30254.347749827921
 20
1807.864609233302
 30
0.0
 40
381.8868642056816
 50
208.14114420486601
 51
212.9210361185994
  0
LINE
  5
4329
  8
YODOROGO
 10
29771.409872985321
 20
1556.807661346234
 30
0.0
 11
29933.78413250855
 21
1600.3157130570869
 31
0.0
  0
LINE
  5
432A
  8
YODOROGO
 10
29737.604341291921
 20
1427.749496429288
 30
0.0
 11
29937.604341291932
 21
1481.3393349155101
 31
0.0
  0
LINE
  5
432B
  8
YODOROGO
 10
29949.60434129191
 20
1707.749496429288
 30
0.0
 11
29885.604341291921
 21
1707.749496429288
 31
0.0
  0
ARC
  5
432C
  8
YODOROGO
 10
30254.34774982791
 20
1807.864609233261
 30
0.0
 40
381.88686420564721
 50
213.96111677667841
 51
264.47872074317792
  0
LINE
  5
432D
  8
YODOROGO
 10
28793.60434129191
 20
1819.7494964292871
 30
0.0
 11
28433.60434129191
 21
1819.7494964292871
 31
0.0
  0
LINE
  5
432E
  8
YODOROGO
 10
28513.60434129191
 20
1427.749496429288
 30
0.0
 11
28793.60434129191
 21
1427.749496429288
 31
0.0
  0
LINE
  5
432F
  8
YODOROGO
 10
28729.604341291921
 20
1923.7494964292871
 30
0.0
 11
28497.60434129191
 21
1923.7494964292871
 31
0.0
  0
LINE
  5
4330
  8
YODOROGO
 10
28585.604341291921
 20
2027.749496429288
 30
0.0
 11
28657.604341291921
 21
2027.749496429288
 31
0.0
  0
LINE
  5
4331
  8
YODOROGO
 10
28433.60434129191
 20
1707.749496429288
 30
0.0
 11
28433.60434129191
 21
1507.749496429288
 31
0.0
  0
LINE
  5
4332
  8
YODOROGO
 10
28497.60434129191
 20
1563.7494964292871
 30
0.0
 11
28497.60434129191
 21
1707.749496429288
 31
0.0
  0
LINE
  5
4333
  8
YODOROGO
 10
28585.604341291921
 20
1747.74949642929
 30
0.0
 11
28585.604341291921
 21
1547.749496429288
 31
0.0
  0
LINE
  5
4334
  8
YODOROGO
 10
27857.604341291921
 20
1683.749496429288
 30
0.0
 11
27777.604341291921
 21
1619.9724140445701
 31
0.0
  0
LINE
  5
4335
  8
YODOROGO
 10
27937.604341291921
 20
1619.9724140445701
 30
0.0
 11
27857.604341291921
 21
1683.749496429288
 31
0.0
  0
LINE
  5
4336
  8
YODOROGO
 10
27857.604341291921
 20
1707.749496429288
 30
0.0
 11
27937.604341291921
 21
1643.9724140445701
 31
0.0
  0
LINE
  5
4337
  8
YODOROGO
 10
27777.604341291921
 20
1643.9724140445701
 30
0.0
 11
27857.604341291921
 21
1707.749496429288
 31
0.0
  0
LINE
  5
4338
  8
YODOROGO
 10
28040.913204016892
 20
1659.749496429288
 30
0.0
 11
28040.913204016892
 21
1683.7494964292871
 31
0.0
  0
LINE
  5
4339
  8
YODOROGO
 10
27977.604341291921
 20
1683.7494964292871
 30
0.0
 11
27977.604341291921
 21
1667.749496429285
 31
0.0
  0
LINE
  5
433A
  8
YODOROGO
 10
28098.135520230931
 20
1707.749496429288
 30
0.0
 11
28098.135520230931
 21
1655.5036372746561
 31
0.0
1001
AUTOCAD_POSTSCRIPT_FIGURE
1002
{
1000
PSFILL
1000
Grayscale
1000
Grayscale
1070
   100
1002
}
  0
LINE
  5
433B
  8
YODOROGO
 10
28082.135520230921
 20
1655.5036372746561
 30
0.0
 11
28082.135520230921
 21
1707.749496429288
 31
0.0
1001
AUTOCAD_POSTSCRIPT_FIGURE
1002
{
1000
PSFILL
1000
Grayscale
1000
Grayscale
1070
   100
1002
}
  0
LINE
  5
433C
  8
YODOROGO
 10
27809.604341291921
 20
1608.771904043258
 30
0.0
 11
27809.604341291921
 21
1632.771904043258
 31
0.0
  0
LINE
  5
433D
  8
YODOROGO
 10
27905.604341291921
 20
1608.771904043258
 30
0.0
 11
27809.604341291921
 21
1608.771904043258
 31
0.0
  0
LINE
  5
433E
  8
YODOROGO
 10
27905.604341291921
 20
1632.771904043258
 30
0.0
 11
27905.604341291921
 21
1608.771904043258
 31
0.0
  0
LINE
  5
433F
  8
YODOROGO
 10
27809.604341291921
 20
1632.771904043258
 30
0.0
 11
27905.604341291921
 21
1632.771904043258
 31
0.0
  0
LINE
  5
4340
  8
YODOROGO
 10
27824.509588915738
 20
1568.5028573704751
 30
0.0
 11
27785.604341291921
 21
1475.7494964292871
 31
0.0
1001
AUTOCAD_POSTSCRIPT_FIGURE
1002
{
1000
PSFILL
1000
Grayscale
1000
Grayscale
1070
   100
1002
}
  0
LINE
  5
4341
  8
YODOROGO
 10
27777.604341291921
 20
1568.5028573704751
 30
0.0
 11
27824.509588915738
 21
1568.5028573704751
 31
0.0
1001
AUTOCAD_POSTSCRIPT_FIGURE
1002
{
1000
PSFILL
1000
Grayscale
1000
Grayscale
1070
   100
1002
}
  0
LINE
  5
4342
  8
YODOROGO
 10
27777.604341291921
 20
1588.5028573704751
 30
0.0
 11
27777.604341291921
 21
1568.5028573704751
 31
0.0
1001
AUTOCAD_POSTSCRIPT_FIGURE
1002
{
1000
PSFILL
1000
Grayscale
1000
Grayscale
1070
   100
1002
}
  0
LINE
  5
4343
  8
YODOROGO
 10
27937.604341291921
 20
1588.5028573704751
 30
0.0
 11
27777.604341291921
 21
1588.5028573704751
 31
0.0
1001
AUTOCAD_POSTSCRIPT_FIGURE
1002
{
1000
PSFILL
1000
Grayscale
1000
Grayscale
1070
   100
1002
}
  0
LINE
  5
4344
  8
YODOROGO
 10
27937.604341291921
 20
1568.5028573704751
 30
0.0
 11
27937.604341291921
 21
1588.5028573704751
 31
0.0
1001
AUTOCAD_POSTSCRIPT_FIGURE
1002
{
1000
PSFILL
1000
Grayscale
1000
Grayscale
1070
   100
1002
}
  0
LINE
  5
4345
  8
YODOROGO
 10
27844.509588915738
 20
1568.5028573704751
 30
0.0
 11
27937.604341291921
 21
1568.5028573704751
 31
0.0
1001
AUTOCAD_POSTSCRIPT_FIGURE
1002
{
1000
PSFILL
1000
Grayscale
1000
Grayscale
1070
   100
1002
}
  0
LINE
  5
4346
  8
YODOROGO
 10
27815.546718284771
 20
1495.7494964292871
 30
0.0
 11
27844.509588915738
 21
1568.5028573704751
 31
0.0
1001
AUTOCAD_POSTSCRIPT_FIGURE
1002
{
1000
PSFILL
1000
Grayscale
1000
Grayscale
1070
   100
1002
}
  0
LINE
  5
4347
  8
YODOROGO
 10
27902.054790808648
 20
1495.7494964292871
 30
0.0
 11
27815.546718284771
 21
1495.7494964292871
 31
0.0
1001
AUTOCAD_POSTSCRIPT_FIGURE
1002
{
1000
PSFILL
1000
Grayscale
1000
Grayscale
1070
   100
1002
}
  0
LINE
  5
4348
  8
YODOROGO
 10
27885.065004790951
 20
1536.2338106976929
 30
0.0
 11
27902.054790808648
 21
1495.7494964292871
 31
0.0
1001
AUTOCAD_POSTSCRIPT_FIGURE
1002
{
1000
PSFILL
1000
Grayscale
1000
Grayscale
1070
   100
1002
}
  0
LINE
  5
4349
  8
YODOROGO
 10
27901.065004790951
 20
1536.2338106976929
 30
0.0
 11
27885.065004790951
 21
1536.2338106976929
 31
0.0
1001
AUTOCAD_POSTSCRIPT_FIGURE
1002
{
1000
PSFILL
1000
Grayscale
1000
Grayscale
1070
   100
1002
}
  0
LINE
  5
434A
  8
YODOROGO
 10
27929.604341291921
 20
1475.7494964292871
 30
0.0
 11
27901.065004790951
 21
1536.2338106976929
 31
0.0
1001
AUTOCAD_POSTSCRIPT_FIGURE
1002
{
1000
PSFILL
1000
Grayscale
1000
Grayscale
1070
   100
1002
}
  0
LINE
  5
434B
  8
YODOROGO
 10
27785.604341291921
 20
1475.7494964292871
 30
0.0
 11
27929.604341291921
 21
1475.7494964292871
 31
0.0
1001
AUTOCAD_POSTSCRIPT_FIGURE
1002
{
1000
PSFILL
1000
Grayscale
1000
Grayscale
1070
   100
1002
}
  0
LINE
  5
434C
  8
YODOROGO
 10
27777.604341291921
 20
1619.9724140445701
 30
0.0
 11
27777.604341291921
 21
1643.9724140445701
 31
0.0
  0
LINE
  5
434D
  8
YODOROGO
 10
27937.604341291921
 20
1643.9724140445701
 30
0.0
 11
27937.604341291921
 21
1619.9724140445701
 31
0.0
  0
ARC
  5
434E
  8
YODOROGO
 10
28225.940442146959
 20
1600.877765325326
 30
0.0
 40
175.9999999999998
 50
280.3644312771313
 51
3.5414836592180561
  0
ARC
  5
434F
  8
YODOROGO
 10
28235.756030759301
 20
1633.5978069619041
 30
0.0
 40
111.9999999999982
 50
281.24905825041549
 51
348.75094174958321
  0
LINE
  5
4350
  8
YODOROGO
 10
28257.604341291921
 20
1523.7494964292871
 30
0.0
 11
28257.604341291921
 21
1427.749496429288
 31
0.0
  0
LINE
  5
4351
  8
YODOROGO
 10
28020.088903736909
 20
1610.650565061914
 30
0.0
 11
28040.913204016892
 21
1659.749496429288
 31
0.0
  0
LINE
  5
4352
  8
YODOROGO
 10
28041.604341291921
 20
1583.120489948401
 30
0.0
 11
28020.088903736909
 21
1610.650565061914
 31
0.0
  0
LINE
  5
4353
  8
YODOROGO
 10
28041.604341291921
 20
1563.120489948398
 30
0.0
 11
28041.604341291921
 21
1583.120489948401
 31
0.0
  0
LINE
  5
4354
  8
YODOROGO
 10
28017.604341291921
 20
1585.2370637495301
 30
0.0
 11
28041.604341291921
 21
1563.120489948398
 31
0.0
  0
LINE
  5
4355
  8
YODOROGO
 10
28017.604341291921
 20
1475.7494964292871
 30
0.0
 11
28017.604341291921
 21
1585.2370637495301
 31
0.0
  0
LINE
  5
4356
  8
YODOROGO
 10
28001.604341291921
 20
1475.7494964292871
 30
0.0
 11
28017.604341291921
 21
1475.7494964292871
 31
0.0
  0
LINE
  5
4357
  8
YODOROGO
 10
28001.604341291921
 20
1580.0053496897469
 30
0.0
 11
28001.604341291921
 21
1475.7494964292871
 31
0.0
  0
LINE
  5
4358
  8
YODOROGO
 10
27977.604341291921
 20
1532.7680790334291
 30
0.0
 11
28001.604341291921
 21
1580.0053496897469
 31
0.0
  0
LINE
  5
4359
  8
YODOROGO
 10
27977.604341291921
 20
1556.76807903343
 30
0.0
 11
27977.604341291921
 21
1532.7680790334291
 31
0.0
  0
LINE
  5
435A
  8
YODOROGO
 10
28025.828774291349
 20
1667.749496429285
 30
0.0
 11
27977.604341291921
 21
1556.76807903343
 31
0.0
  0
LINE
  5
435B
  8
YODOROGO
 10
27977.604341291921
 20
1667.749496429285
 30
0.0
 11
28025.828774291349
 21
1667.749496429285
 31
0.0
  0
LINE
  5
435C
  8
YODOROGO
 10
28050.135520230899
 20
1655.5036372746561
 30
0.0
 11
28082.135520230921
 21
1655.5036372746561
 31
0.0
1001
AUTOCAD_POSTSCRIPT_FIGURE
1002
{
1000
PSFILL
1000
Grayscale
1000
Grayscale
1070
   100
1002
}
  0
LINE
  5
435D
  8
YODOROGO
 10
28050.135520230899
 20
1631.5036372746561
 30
0.0
 11
28050.135520230899
 21
1655.5036372746561
 31
0.0
1001
AUTOCAD_POSTSCRIPT_FIGURE
1002
{
1000
PSFILL
1000
Grayscale
1000
Grayscale
1070
   100
1002
}
  0
LINE
  5
435E
  8
YODOROGO
 10
28082.135520230921
 20
1631.5036372746561
 30
0.0
 11
28050.135520230899
 21
1631.5036372746561
 31
0.0
1001
AUTOCAD_POSTSCRIPT_FIGURE
1002
{
1000
PSFILL
1000
Grayscale
1000
Grayscale
1070
   100
1002
}
  0
LINE
  5
435F
  8
YODOROGO
 10
28082.135520230921
 20
1499.749496429288
 30
0.0
 11
28082.135520230921
 21
1631.5036372746561
 31
0.0
1001
AUTOCAD_POSTSCRIPT_FIGURE
1002
{
1000
PSFILL
1000
Grayscale
1000
Grayscale
1070
   100
1002
}
  0
LINE
  5
4360
  8
YODOROGO
 10
28050.135520230921
 20
1499.749496429288
 30
0.0
 11
28082.135520230921
 21
1499.749496429288
 31
0.0
1001
AUTOCAD_POSTSCRIPT_FIGURE
1002
{
1000
PSFILL
1000
Grayscale
1000
Grayscale
1070
   100
1002
}
  0
LINE
  5
4361
  8
YODOROGO
 10
28050.135520230921
 20
1475.7494964292871
 30
0.0
 11
28050.135520230921
 21
1499.749496429288
 31
0.0
1001
AUTOCAD_POSTSCRIPT_FIGURE
1002
{
1000
PSFILL
1000
Grayscale
1000
Grayscale
1070
   100
1002
}
  0
LINE
  5
4362
  8
YODOROGO
 10
28137.604341291921
 20
1475.7494964292871
 30
0.0
 11
28050.135520230921
 21
1475.7494964292871
 31
0.0
1001
AUTOCAD_POSTSCRIPT_FIGURE
1002
{
1000
PSFILL
1000
Grayscale
1000
Grayscale
1070
   100
1002
}
  0
LINE
  5
4363
  8
YODOROGO
 10
28137.604341291921
 20
1499.749496429288
 30
0.0
 11
28137.604341291921
 21
1475.7494964292871
 31
0.0
1001
AUTOCAD_POSTSCRIPT_FIGURE
1002
{
1000
PSFILL
1000
Grayscale
1000
Grayscale
1070
   100
1002
}
  0
LINE
  5
4364
  8
YODOROGO
 10
28098.135520230931
 20
1499.749496429288
 30
0.0
 11
28137.604341291921
 21
1499.749496429288
 31
0.0
1001
AUTOCAD_POSTSCRIPT_FIGURE
1002
{
1000
PSFILL
1000
Grayscale
1000
Grayscale
1070
   100
1002
}
  0
LINE
  5
4365
  8
YODOROGO
 10
28098.135520230931
 20
1631.5036372746561
 30
0.0
 11
28098.135520230931
 21
1499.749496429288
 31
0.0
1001
AUTOCAD_POSTSCRIPT_FIGURE
1002
{
1000
PSFILL
1000
Grayscale
1000
Grayscale
1070
   100
1002
}
  0
LINE
  5
4366
  8
YODOROGO
 10
28137.604341291921
 20
1631.5036372746561
 30
0.0
 11
28098.135520230931
 21
1631.5036372746561
 31
0.0
1001
AUTOCAD_POSTSCRIPT_FIGURE
1002
{
1000
PSFILL
1000
Grayscale
1000
Grayscale
1070
   100
1002
}
  0
LINE
  5
4367
  8
YODOROGO
 10
28137.604341291921
 20
1655.5036372746561
 30
0.0
 11
28137.604341291921
 21
1631.5036372746561
 31
0.0
1001
AUTOCAD_POSTSCRIPT_FIGURE
1002
{
1000
PSFILL
1000
Grayscale
1000
Grayscale
1070
   100
1002
}
  0
LINE
  5
4368
  8
YODOROGO
 10
28098.135520230931
 20
1655.5036372746561
 30
0.0
 11
28137.604341291921
 21
1655.5036372746561
 31
0.0
1001
AUTOCAD_POSTSCRIPT_FIGURE
1002
{
1000
PSFILL
1000
Grayscale
1000
Grayscale
1070
   100
1002
}
  0
LINE
  5
4369
  8
YODOROGO
 10
28401.60434129191
 20
1667.749496429288
 30
0.0
 11
28345.604341291921
 21
1667.749496429288
 31
0.0
  0
LINE
  5
436A
  8
YODOROGO
 10
28401.60434129191
 20
1611.749496429288
 30
0.0
 11
28401.60434129191
 21
1667.749496429288
 31
0.0
  0
LINE
  5
436B
  8
YODOROGO
 10
28345.604341291921
 20
1667.749496429288
 30
0.0
 11
28345.604341291921
 21
1611.749496429288
 31
0.0
  0
ARC
  5
436C
  8
YODOROGO
 10
28513.60434129191
 20
1507.749496429288
 30
0.0
 40
80.0
 50
180.0
 51
270.0
  0
ARC
  5
436D
  8
YODOROGO
 10
28537.604341291921
 20
1563.7494964292871
 30
0.0
 40
40.0
 50
180.0
 51
270.0
  0
LINE
  5
436E
  8
YODOROGO
 10
28561.604341291932
 20
1523.7494964292871
 30
0.0
 11
28537.604341291921
 21
1523.7494964292871
 31
0.0
  0
ARC
  5
436F
  8
YODOROGO
 10
28561.604341291932
 20
1547.749496429285
 30
0.0
 40
23.999999999996358
 50
270.0
 51
0.0000000000054281
  0
LINE
  5
4370
  8
YODOROGO
 10
27801.604341291921
 20
1890.786580793706
 30
0.0
 11
27777.604341291921
 21
1843.776747951672
 31
0.0
1001
AUTOCAD_POSTSCRIPT_FIGURE
1002
{
1000
PSFILL
1000
Grayscale
1000
Grayscale
1070
   100
1002
}
  0
LINE
  5
4371
  8
YODOROGO
 10
27801.604341291921
 20
1747.749496429286
 30
0.0
 11
27801.604341291921
 21
1890.786580793706
 31
0.0
1001
AUTOCAD_POSTSCRIPT_FIGURE
1002
{
1000
PSFILL
1000
Grayscale
1000
Grayscale
1070
   100
1002
}
  0
LINE
  5
4372
  8
YODOROGO
 10
27817.604341291921
 20
1747.749496429286
 30
0.0
 11
27801.604341291921
 21
1747.749496429286
 31
0.0
1001
AUTOCAD_POSTSCRIPT_FIGURE
1002
{
1000
PSFILL
1000
Grayscale
1000
Grayscale
1070
   100
1002
}
  0
LINE
  5
4373
  8
YODOROGO
 10
27817.604341291921
 20
1893.7713320852661
 30
0.0
 11
27817.604341291921
 21
1747.749496429286
 31
0.0
1001
AUTOCAD_POSTSCRIPT_FIGURE
1002
{
1000
PSFILL
1000
Grayscale
1000
Grayscale
1070
   100
1002
}
  0
LINE
  5
4374
  8
YODOROGO
 10
27841.604341291921
 20
1867.6547582841361
 30
0.0
 11
27817.604341291921
 21
1893.7713320852661
 31
0.0
1001
AUTOCAD_POSTSCRIPT_FIGURE
1002
{
1000
PSFILL
1000
Grayscale
1000
Grayscale
1070
   100
1002
}
  0
LINE
  5
4375
  8
YODOROGO
 10
27841.604341291921
 20
1883.6547582841361
 30
0.0
 11
27841.604341291921
 21
1867.6547582841361
 31
0.0
1001
AUTOCAD_POSTSCRIPT_FIGURE
1002
{
1000
PSFILL
1000
Grayscale
1000
Grayscale
1070
   100
1002
}
  0
LINE
  5
4376
  8
YODOROGO
 10
27817.604341291921
 20
1917.7713320852649
 30
0.0
 11
27841.604341291921
 21
1883.6547582841361
 31
0.0
1001
AUTOCAD_POSTSCRIPT_FIGURE
1002
{
1000
PSFILL
1000
Grayscale
1000
Grayscale
1070
   100
1002
}
  0
LINE
  5
4377
  8
YODOROGO
 10
27817.604341291921
 20
1939.749496429288
 30
0.0
 11
27817.604341291921
 21
1917.7713320852649
 31
0.0
1001
AUTOCAD_POSTSCRIPT_FIGURE
1002
{
1000
PSFILL
1000
Grayscale
1000
Grayscale
1070
   100
1002
}
  0
LINE
  5
4378
  8
YODOROGO
 10
27889.604341291921
 20
1939.749496429288
 30
0.0
 11
27817.604341291921
 21
1939.749496429288
 31
0.0
1001
AUTOCAD_POSTSCRIPT_FIGURE
1002
{
1000
PSFILL
1000
Grayscale
1000
Grayscale
1070
   100
1002
}
  0
LINE
  5
4379
  8
YODOROGO
 10
27889.604341291921
 20
1900.5683489363
 30
0.0
 11
27889.604341291921
 21
1939.749496429288
 31
0.0
1001
AUTOCAD_POSTSCRIPT_FIGURE
1002
{
1000
PSFILL
1000
Grayscale
1000
Grayscale
1070
   100
1002
}
  0
LINE
  5
437A
  8
YODOROGO
 10
27857.604341291921
 20
1900.5683489363
 30
0.0
 11
27889.604341291921
 21
1900.5683489363
 31
0.0
1001
AUTOCAD_POSTSCRIPT_FIGURE
1002
{
1000
PSFILL
1000
Grayscale
1000
Grayscale
1070
   100
1002
}
  0
LINE
  5
437B
  8
YODOROGO
 10
27857.604341291921
 20
1884.568348936298
 30
0.0
 11
27857.604341291921
 21
1900.5683489363
 31
0.0
1001
AUTOCAD_POSTSCRIPT_FIGURE
1002
{
1000
PSFILL
1000
Grayscale
1000
Grayscale
1070
   100
1002
}
  0
LINE
  5
437C
  8
YODOROGO
 10
27889.604341291921
 20
1884.568348936298
 30
0.0
 11
27857.604341291921
 21
1884.568348936298
 31
0.0
1001
AUTOCAD_POSTSCRIPT_FIGURE
1002
{
1000
PSFILL
1000
Grayscale
1000
Grayscale
1070
   100
1002
}
  0
LINE
  5
437D
  8
YODOROGO
 10
27889.604341291921
 20
1879.6191779644371
 30
0.0
 11
27889.604341291921
 21
1884.568348936298
 31
0.0
1001
AUTOCAD_POSTSCRIPT_FIGURE
1002
{
1000
PSFILL
1000
Grayscale
1000
Grayscale
1070
   100
1002
}
  0
LINE
  5
437E
  8
YODOROGO
 10
27849.604341291921
 20
1812.974981161417
 30
0.0
 11
27889.604341291921
 21
1879.6191779644371
 31
0.0
1001
AUTOCAD_POSTSCRIPT_FIGURE
1002
{
1000
PSFILL
1000
Grayscale
1000
Grayscale
1070
   100
1002
}
  0
LINE
  5
437F
  8
YODOROGO
 10
27849.604341291921
 20
1796.9749811614161
 30
0.0
 11
27849.604341291921
 21
1812.974981161417
 31
0.0
1001
AUTOCAD_POSTSCRIPT_FIGURE
1002
{
1000
PSFILL
1000
Grayscale
1000
Grayscale
1070
   100
1002
}
  0
LINE
  5
4380
  8
YODOROGO
 10
27889.604341291921
 20
1847.6191779644359
 30
0.0
 11
27849.604341291921
 21
1796.9749811614161
 31
0.0
1001
AUTOCAD_POSTSCRIPT_FIGURE
1002
{
1000
PSFILL
1000
Grayscale
1000
Grayscale
1070
   100
1002
}
  0
LINE
  5
4381
  8
YODOROGO
 10
27889.604341291921
 20
1747.749496429286
 30
0.0
 11
27889.604341291921
 21
1847.6191779644359
 31
0.0
1001
AUTOCAD_POSTSCRIPT_FIGURE
1002
{
1000
PSFILL
1000
Grayscale
1000
Grayscale
1070
   100
1002
}
  0
LINE
  5
4382
  8
YODOROGO
 10
27905.604341291921
 20
1747.749496429286
 30
0.0
 11
27889.604341291921
 21
1747.749496429286
 31
0.0
1001
AUTOCAD_POSTSCRIPT_FIGURE
1002
{
1000
PSFILL
1000
Grayscale
1000
Grayscale
1070
   100
1002
}
  0
LINE
  5
4383
  8
YODOROGO
 10
27905.604341291921
 20
1849.409012158806
 30
0.0
 11
27905.604341291921
 21
1747.749496429286
 31
0.0
1001
AUTOCAD_POSTSCRIPT_FIGURE
1002
{
1000
PSFILL
1000
Grayscale
1000
Grayscale
1070
   100
1002
}
  0
LINE
  5
4384
  8
YODOROGO
 10
27937.604341291921
 20
1796.9749811614161
 30
0.0
 11
27905.604341291921
 21
1849.409012158806
 31
0.0
1001
AUTOCAD_POSTSCRIPT_FIGURE
1002
{
1000
PSFILL
1000
Grayscale
1000
Grayscale
1070
   100
1002
}
  0
LINE
  5
4385
  8
YODOROGO
 10
27937.604341291921
 20
1812.974981161417
 30
0.0
 11
27937.604341291921
 21
1796.9749811614161
 31
0.0
1001
AUTOCAD_POSTSCRIPT_FIGURE
1002
{
1000
PSFILL
1000
Grayscale
1000
Grayscale
1070
   100
1002
}
  0
LINE
  5
4386
  8
YODOROGO
 10
27905.604341291921
 20
1881.4090121588081
 30
0.0
 11
27937.604341291921
 21
1812.974981161417
 31
0.0
1001
AUTOCAD_POSTSCRIPT_FIGURE
1002
{
1000
PSFILL
1000
Grayscale
1000
Grayscale
1070
   100
1002
}
  0
LINE
  5
4387
  8
YODOROGO
 10
27905.604341291921
 20
1884.5683489363
 30
0.0
 11
27905.604341291921
 21
1881.4090121588081
 31
0.0
1001
AUTOCAD_POSTSCRIPT_FIGURE
1002
{
1000
PSFILL
1000
Grayscale
1000
Grayscale
1070
   100
1002
}
  0
LINE
  5
4388
  8
YODOROGO
 10
27937.604341291921
 20
1884.568348936298
 30
0.0
 11
27905.604341291921
 21
1884.5683489363
 31
0.0
1001
AUTOCAD_POSTSCRIPT_FIGURE
1002
{
1000
PSFILL
1000
Grayscale
1000
Grayscale
1070
   100
1002
}
  0
LINE
  5
4389
  8
YODOROGO
 10
27937.604341291921
 20
1900.5683489363
 30
0.0
 11
27937.604341291921
 21
1884.568348936298
 31
0.0
1001
AUTOCAD_POSTSCRIPT_FIGURE
1002
{
1000
PSFILL
1000
Grayscale
1000
Grayscale
1070
   100
1002
}
  0
LINE
  5
438A
  8
YODOROGO
 10
27905.604341291921
 20
1900.5683489363
 30
0.0
 11
27937.604341291921
 21
1900.5683489363
 31
0.0
1001
AUTOCAD_POSTSCRIPT_FIGURE
1002
{
1000
PSFILL
1000
Grayscale
1000
Grayscale
1070
   100
1002
}
  0
LINE
  5
438B
  8
YODOROGO
 10
27905.604341291921
 20
1939.749496429288
 30
0.0
 11
27905.604341291921
 21
1900.5683489363
 31
0.0
1001
AUTOCAD_POSTSCRIPT_FIGURE
1002
{
1000
PSFILL
1000
Grayscale
1000
Grayscale
1070
   100
1002
}
  0
LINE
  5
438C
  8
YODOROGO
 10
27937.604341291921
 20
1939.749496429288
 30
0.0
 11
27905.604341291921
 21
1939.749496429288
 31
0.0
1001
AUTOCAD_POSTSCRIPT_FIGURE
1002
{
1000
PSFILL
1000
Grayscale
1000
Grayscale
1070
   100
1002
}
  0
LINE
  5
438D
  8
YODOROGO
 10
27937.604341291921
 20
1955.7494964292871
 30
0.0
 11
27937.604341291921
 21
1939.749496429288
 31
0.0
1001
AUTOCAD_POSTSCRIPT_FIGURE
1002
{
1000
PSFILL
1000
Grayscale
1000
Grayscale
1070
   100
1002
}
  0
LINE
  5
438E
  8
YODOROGO
 10
27905.604341291921
 20
1955.7494964292871
 30
0.0
 11
27937.604341291921
 21
1955.7494964292871
 31
0.0
1001
AUTOCAD_POSTSCRIPT_FIGURE
1002
{
1000
PSFILL
1000
Grayscale
1000
Grayscale
1070
   100
1002
}
  0
LINE
  5
438F
  8
YODOROGO
 10
27905.604341291921
 20
1979.749496429288
 30
0.0
 11
27905.604341291921
 21
1955.7494964292871
 31
0.0
1001
AUTOCAD_POSTSCRIPT_FIGURE
1002
{
1000
PSFILL
1000
Grayscale
1000
Grayscale
1070
   100
1002
}
  0
LINE
  5
4390
  8
YODOROGO
 10
27889.604341291921
 20
1979.749496429288
 30
0.0
 11
27905.604341291921
 21
1979.749496429288
 31
0.0
1001
AUTOCAD_POSTSCRIPT_FIGURE
1002
{
1000
PSFILL
1000
Grayscale
1000
Grayscale
1070
   100
1002
}
  0
LINE
  5
4391
  8
YODOROGO
 10
27889.604341291921
 20
1955.7494964292871
 30
0.0
 11
27889.604341291921
 21
1979.749496429288
 31
0.0
1001
AUTOCAD_POSTSCRIPT_FIGURE
1002
{
1000
PSFILL
1000
Grayscale
1000
Grayscale
1070
   100
1002
}
  0
LINE
  5
4392
  8
YODOROGO
 10
27865.604341291921
 20
1955.7494964292871
 30
0.0
 11
27889.604341291921
 21
1955.7494964292871
 31
0.0
1001
AUTOCAD_POSTSCRIPT_FIGURE
1002
{
1000
PSFILL
1000
Grayscale
1000
Grayscale
1070
   100
1002
}
  0
LINE
  5
4393
  8
YODOROGO
 10
27865.604341291921
 20
1979.749496429288
 30
0.0
 11
27865.604341291921
 21
1955.7494964292871
 31
0.0
1001
AUTOCAD_POSTSCRIPT_FIGURE
1002
{
1000
PSFILL
1000
Grayscale
1000
Grayscale
1070
   100
1002
}
  0
LINE
  5
4394
  8
YODOROGO
 10
27849.604341291921
 20
1979.749496429288
 30
0.0
 11
27865.604341291921
 21
1979.749496429288
 31
0.0
1001
AUTOCAD_POSTSCRIPT_FIGURE
1002
{
1000
PSFILL
1000
Grayscale
1000
Grayscale
1070
   100
1002
}
  0
LINE
  5
4395
  8
YODOROGO
 10
27849.604341291921
 20
1955.7494964292871
 30
0.0
 11
27849.604341291921
 21
1979.749496429288
 31
0.0
1001
AUTOCAD_POSTSCRIPT_FIGURE
1002
{
1000
PSFILL
1000
Grayscale
1000
Grayscale
1070
   100
1002
}
  0
LINE
  5
4396
  8
YODOROGO
 10
27817.604341291921
 20
1955.7494964292871
 30
0.0
 11
27849.604341291921
 21
1955.7494964292871
 31
0.0
1001
AUTOCAD_POSTSCRIPT_FIGURE
1002
{
1000
PSFILL
1000
Grayscale
1000
Grayscale
1070
   100
1002
}
  0
LINE
  5
4397
  8
YODOROGO
 10
27817.604341291921
 20
1979.749496429288
 30
0.0
 11
27817.604341291921
 21
1955.7494964292871
 31
0.0
1001
AUTOCAD_POSTSCRIPT_FIGURE
1002
{
1000
PSFILL
1000
Grayscale
1000
Grayscale
1070
   100
1002
}
  0
LINE
  5
4398
  8
YODOROGO
 10
27801.604341291921
 20
1979.749496429288
 30
0.0
 11
27817.604341291921
 21
1979.749496429288
 31
0.0
1001
AUTOCAD_POSTSCRIPT_FIGURE
1002
{
1000
PSFILL
1000
Grayscale
1000
Grayscale
1070
   100
1002
}
  0
LINE
  5
4399
  8
YODOROGO
 10
27801.604341291921
 20
1955.7494964292871
 30
0.0
 11
27801.604341291921
 21
1979.749496429288
 31
0.0
1001
AUTOCAD_POSTSCRIPT_FIGURE
1002
{
1000
PSFILL
1000
Grayscale
1000
Grayscale
1070
   100
1002
}
  0
LINE
  5
439A
  8
YODOROGO
 10
27777.604341291921
 20
1955.7494964292871
 30
0.0
 11
27801.604341291921
 21
1955.7494964292871
 31
0.0
1001
AUTOCAD_POSTSCRIPT_FIGURE
1002
{
1000
PSFILL
1000
Grayscale
1000
Grayscale
1070
   100
1002
}
  0
LINE
  5
439B
  8
YODOROGO
 10
27777.604341291921
 20
1939.749496429288
 30
0.0
 11
27777.604341291921
 21
1955.7494964292871
 31
0.0
1001
AUTOCAD_POSTSCRIPT_FIGURE
1002
{
1000
PSFILL
1000
Grayscale
1000
Grayscale
1070
   100
1002
}
  0
LINE
  5
439C
  8
YODOROGO
 10
27801.604341291921
 20
1939.749496429288
 30
0.0
 11
27777.604341291921
 21
1939.749496429288
 31
0.0
1001
AUTOCAD_POSTSCRIPT_FIGURE
1002
{
1000
PSFILL
1000
Grayscale
1000
Grayscale
1070
   100
1002
}
  0
LINE
  5
439D
  8
YODOROGO
 10
27801.604341291921
 20
1914.7865807937051
 30
0.0
 11
27801.604341291921
 21
1939.749496429288
 31
0.0
1001
AUTOCAD_POSTSCRIPT_FIGURE
1002
{
1000
PSFILL
1000
Grayscale
1000
Grayscale
1070
   100
1002
}
  0
LINE
  5
439E
  8
YODOROGO
 10
27777.604341291921
 20
1859.776747951671
 30
0.0
 11
27801.604341291921
 21
1914.7865807937051
 31
0.0
1001
AUTOCAD_POSTSCRIPT_FIGURE
1002
{
1000
PSFILL
1000
Grayscale
1000
Grayscale
1070
   100
1002
}
  0
LINE
  5
439F
  8
YODOROGO
 10
27777.604341291921
 20
1843.776747951672
 30
0.0
 11
27777.604341291921
 21
1859.776747951671
 31
0.0
1001
AUTOCAD_POSTSCRIPT_FIGURE
1002
{
1000
PSFILL
1000
Grayscale
1000
Grayscale
1070
   100
1002
}
  0
LINE
  5
43A0
  8
YODOROGO
 10
28257.604341291921
 20
1867.7494964292871
 30
0.0
 11
28401.60434129191
 21
1824.877625640306
 31
0.0
1001
AUTOCAD_POSTSCRIPT_FIGURE
1002
{
1000
PSFILL
1000
Grayscale
1000
Grayscale
1070
   100
1002
}
  0
LINE
  5
43A1
  8
YODOROGO
 10
28401.60434129191
 20
1752.877625640306
 30
0.0
 11
28257.604341291921
 21
1795.7494964292871
 31
0.0
1001
AUTOCAD_POSTSCRIPT_FIGURE
1002
{
1000
PSFILL
1000
Grayscale
1000
Grayscale
1070
   100
1002
}
  0
LINE
  5
43A2
  8
YODOROGO
 10
28401.60434129191
 20
1984.877625640306
 30
0.0
 11
28257.604341291921
 21
2027.749496429288
 31
0.0
1001
AUTOCAD_POSTSCRIPT_FIGURE
1002
{
1000
PSFILL
1000
Grayscale
1000
Grayscale
1070
   100
1002
}
  0
LINE
  5
43A3
  8
YODOROGO
 10
28257.604341291921
 20
1959.749496429288
 30
0.0
 11
28401.60434129191
 21
1916.8776256403071
 31
0.0
1001
AUTOCAD_POSTSCRIPT_FIGURE
1002
{
1000
PSFILL
1000
Grayscale
1000
Grayscale
1070
   100
1002
}
  0
LINE
  5
43A4
  8
YODOROGO
 10
28257.604341291921
 20
1795.7494964292871
 30
0.0
 11
28257.604341291921
 21
1867.7494964292871
 31
0.0
1001
AUTOCAD_POSTSCRIPT_FIGURE
1002
{
1000
PSFILL
1000
Grayscale
1000
Grayscale
1070
   100
1002
}
  0
LINE
  5
43A5
  8
YODOROGO
 10
28257.604341291921
 20
2027.749496429288
 30
0.0
 11
28257.604341291921
 21
1959.749496429288
 31
0.0
1001
AUTOCAD_POSTSCRIPT_FIGURE
1002
{
1000
PSFILL
1000
Grayscale
1000
Grayscale
1070
   100
1002
}
  0
LINE
  5
43A6
  8
YODOROGO
 10
28080.236320206739
 20
1939.749496429288
 30
0.0
 11
28129.60434129191
 21
1747.749496429286
 31
0.0
1001
AUTOCAD_POSTSCRIPT_FIGURE
1002
{
1000
PSFILL
1000
Grayscale
1000
Grayscale
1070
   100
1002
}
  0
LINE
  5
43A7
  8
YODOROGO
 10
27977.604341291921
 20
1939.749496429288
 30
0.0
 11
28080.236320206739
 21
1939.749496429288
 31
0.0
1001
AUTOCAD_POSTSCRIPT_FIGURE
1002
{
1000
PSFILL
1000
Grayscale
1000
Grayscale
1070
   100
1002
}
  0
LINE
  5
43A8
  8
YODOROGO
 10
27977.604341291921
 20
1955.7494964292871
 30
0.0
 11
27977.604341291921
 21
1939.749496429288
 31
0.0
1001
AUTOCAD_POSTSCRIPT_FIGURE
1002
{
1000
PSFILL
1000
Grayscale
1000
Grayscale
1070
   100
1002
}
  0
LINE
  5
43A9
  8
YODOROGO
 10
28076.60687851991
 20
1955.7494964292871
 30
0.0
 11
27977.604341291921
 21
1955.7494964292871
 31
0.0
1001
AUTOCAD_POSTSCRIPT_FIGURE
1002
{
1000
PSFILL
1000
Grayscale
1000
Grayscale
1070
   100
1002
}
  0
LINE
  5
43AA
  8
YODOROGO
 10
28071.162715989711
 20
1979.749496429288
 30
0.0
 11
28076.60687851991
 21
1955.7494964292871
 31
0.0
1001
AUTOCAD_POSTSCRIPT_FIGURE
1002
{
1000
PSFILL
1000
Grayscale
1000
Grayscale
1070
   100
1002
}
  0
LINE
  5
43AB
  8
YODOROGO
 10
28091.162715989711
 20
1979.749496429288
 30
0.0
 11
28071.162715989711
 21
1979.749496429288
 31
0.0
1001
AUTOCAD_POSTSCRIPT_FIGURE
1002
{
1000
PSFILL
1000
Grayscale
1000
Grayscale
1070
   100
1002
}
  0
LINE
  5
43AC
  8
YODOROGO
 10
28095.806878519939
 20
1955.7494964292871
 30
0.0
 11
28091.162715989711
 21
1979.749496429288
 31
0.0
1001
AUTOCAD_POSTSCRIPT_FIGURE
1002
{
1000
PSFILL
1000
Grayscale
1000
Grayscale
1070
   100
1002
}
  0
LINE
  5
43AD
  8
YODOROGO
 10
28121.604341291921
 20
1955.7494964292871
 30
0.0
 11
28095.806878519939
 21
1955.7494964292871
 31
0.0
1001
AUTOCAD_POSTSCRIPT_FIGURE
1002
{
1000
PSFILL
1000
Grayscale
1000
Grayscale
1070
   100
1002
}
  0
LINE
  5
43AE
  8
YODOROGO
 10
28121.604341291921
 20
1979.749496429288
 30
0.0
 11
28121.604341291921
 21
1955.7494964292871
 31
0.0
1001
AUTOCAD_POSTSCRIPT_FIGURE
1002
{
1000
PSFILL
1000
Grayscale
1000
Grayscale
1070
   100
1002
}
  0
LINE
  5
43AF
  8
YODOROGO
 10
28137.604341291921
 20
1979.749496429288
 30
0.0
 11
28121.604341291921
 21
1979.749496429288
 31
0.0
1001
AUTOCAD_POSTSCRIPT_FIGURE
1002
{
1000
PSFILL
1000
Grayscale
1000
Grayscale
1070
   100
1002
}
  0
LINE
  5
43B0
  8
YODOROGO
 10
28137.604341291921
 20
1955.7494964292871
 30
0.0
 11
28137.604341291921
 21
1979.749496429288
 31
0.0
1001
AUTOCAD_POSTSCRIPT_FIGURE
1002
{
1000
PSFILL
1000
Grayscale
1000
Grayscale
1070
   100
1002
}
  0
LINE
  5
43B1
  8
YODOROGO
 10
28137.604341291921
 20
1939.749496429288
 30
0.0
 11
28137.604341291921
 21
1955.7494964292871
 31
0.0
1001
AUTOCAD_POSTSCRIPT_FIGURE
1002
{
1000
PSFILL
1000
Grayscale
1000
Grayscale
1070
   100
1002
}
  0
LINE
  5
43B2
  8
YODOROGO
 10
28098.902986873411
 20
1939.749496429288
 30
0.0
 11
28137.604341291921
 21
1939.749496429288
 31
0.0
1001
AUTOCAD_POSTSCRIPT_FIGURE
1002
{
1000
PSFILL
1000
Grayscale
1000
Grayscale
1070
   100
1002
}
  0
LINE
  5
43B3
  8
YODOROGO
 10
28137.604341291921
 20
1747.749496429286
 30
0.0
 11
28098.902986873411
 21
1939.749496429288
 31
0.0
1001
AUTOCAD_POSTSCRIPT_FIGURE
1002
{
1000
PSFILL
1000
Grayscale
1000
Grayscale
1070
   100
1002
}
  0
LINE
  5
43B4
  8
YODOROGO
 10
28129.60434129191
 20
1747.749496429286
 30
0.0
 11
28137.604341291921
 21
1747.749496429286
 31
0.0
1001
AUTOCAD_POSTSCRIPT_FIGURE
1002
{
1000
PSFILL
1000
Grayscale
1000
Grayscale
1070
   100
1002
}
  0
LINE
  5
43B5
  8
YODOROGO
 10
28078.06921993379
 20
1775.7407762987939
 30
0.0
 11
27977.604341291921
 21
1747.749496429286
 31
0.0
  0
LINE
  5
43B6
  8
YODOROGO
 10
28078.06921993379
 20
1798.6689795290731
 30
0.0
 11
28078.06921993379
 21
1775.7407762987939
 31
0.0
  0
LINE
  5
43B7
  8
YODOROGO
 10
28033.83678061287
 20
1786.816933133767
 30
0.0
 11
28078.06921993379
 21
1798.6689795290731
 31
0.0
  0
LINE
  5
43B8
  8
YODOROGO
 10
28033.83678061287
 20
1872.5683489362989
 30
0.0
 11
28033.83678061287
 21
1786.816933133767
 31
0.0
  0
LINE
  5
43B9
  8
YODOROGO
 10
28078.06921993379
 20
1872.5683489362989
 30
0.0
 11
28033.83678061287
 21
1872.5683489362989
 31
0.0
  0
LINE
  5
43BA
  8
YODOROGO
 10
28078.06921993379
 20
1892.568348936298
 30
0.0
 11
28078.06921993379
 21
1872.5683489362989
 31
0.0
  0
LINE
  5
43BB
  8
YODOROGO
 10
27977.604341291921
 20
1892.568348936298
 30
0.0
 11
28078.06921993379
 21
1892.568348936298
 31
0.0
  0
LINE
  5
43BC
  8
YODOROGO
 10
27977.604341291921
 20
1872.5683489362989
 30
0.0
 11
27977.604341291921
 21
1892.568348936298
 31
0.0
  0
LINE
  5
43BD
  8
YODOROGO
 10
28021.836780612852
 20
1872.5683489362989
 30
0.0
 11
27977.604341291921
 21
1872.5683489362989
 31
0.0
  0
LINE
  5
43BE
  8
YODOROGO
 10
28021.836780612852
 20
1784.673339594317
 30
0.0
 11
28021.836780612852
 21
1872.5683489362989
 31
0.0
  0
LINE
  5
43BF
  8
YODOROGO
 10
27977.604341291921
 20
1771.749496429286
 30
0.0
 11
28021.836780612852
 21
1784.673339594317
 31
0.0
  0
LINE
  5
43C0
  8
YODOROGO
 10
27977.604341291921
 20
1747.749496429286
 30
0.0
 11
27977.604341291921
 21
1771.749496429286
 31
0.0
  0
LINE
  5
43C1
  8
YODOROGO
 10
28001.604341291921
 20
1707.749496429288
 30
0.0
 11
28001.604341291921
 21
1683.7494964292871
 31
0.0
  0
LINE
  5
43C2
  8
YODOROGO
 10
28017.604341291921
 20
1707.749496429288
 30
0.0
 11
28001.604341291921
 21
1707.749496429288
 31
0.0
  0
LINE
  5
43C3
  8
YODOROGO
 10
28017.604341291921
 20
1683.7494964292871
 30
0.0
 11
28017.604341291921
 21
1707.749496429288
 31
0.0
  0
LINE
  5
43C4
  8
YODOROGO
 10
28040.913204016892
 20
1683.7494964292871
 30
0.0
 11
28017.604341291921
 21
1683.7494964292871
 31
0.0
  0
LINE
  5
43C5
  8
YODOROGO
 10
28001.604341291921
 20
1683.7494964292871
 30
0.0
 11
27977.604341291921
 21
1683.7494964292871
 31
0.0
  0
LINE
  5
43C6
  8
YODOROGO
 10
28082.135520230921
 20
1707.749496429288
 30
0.0
 11
28098.135520230931
 21
1707.749496429288
 31
0.0
1001
AUTOCAD_POSTSCRIPT_FIGURE
1002
{
1000
PSFILL
1000
Grayscale
1000
Grayscale
1070
   100
1002
}
  0
LINE
  5
43C7
  8
YODOROGO
 10
28401.60434129191
 20
1824.877625640306
 30
0.0
 11
28401.60434129191
 21
1752.877625640306
 31
0.0
1001
AUTOCAD_POSTSCRIPT_FIGURE
1002
{
1000
PSFILL
1000
Grayscale
1000
Grayscale
1070
   100
1002
}
  0
LINE
  5
43C8
  8
YODOROGO
 10
28401.60434129191
 20
1916.8776256403071
 30
0.0
 11
28401.60434129191
 21
1984.877625640306
 31
0.0
1001
AUTOCAD_POSTSCRIPT_FIGURE
1002
{
1000
PSFILL
1000
Grayscale
1000
Grayscale
1070
   100
1002
}
  0
LINE
  5
43C9
  8
YODOROGO
 10
28433.60434129191
 20
1819.7494964292871
 30
0.0
 11
28433.60434129191
 21
1747.74949642929
 31
0.0
  0
LINE
  5
43CA
  8
YODOROGO
 10
28497.60434129191
 20
1707.749496429288
 30
0.0
 11
28433.60434129191
 21
1707.749496429288
 31
0.0
  0
LINE
  5
43CB
  8
YODOROGO
 10
28433.60434129191
 20
1747.74949642929
 30
0.0
 11
28585.604341291921
 21
1747.74949642929
 31
0.0
  0
LINE
  5
43CC
  8
YODOROGO
 10
28497.60434129191
 20
1867.7494964292871
 30
0.0
 11
28433.60434129191
 21
1867.7494964292871
 31
0.0
  0
LINE
  5
43CD
  8
YODOROGO
 10
28497.60434129191
 20
1923.7494964292871
 30
0.0
 11
28497.60434129191
 21
1867.7494964292871
 31
0.0
  0
LINE
  5
43CE
  8
YODOROGO
 10
28585.604341291921
 20
1987.7494964292871
 30
0.0
 11
28585.604341291921
 21
2027.749496429288
 31
0.0
  0
LINE
  5
43CF
  8
YODOROGO
 10
28433.60434129191
 20
1987.7494964292871
 30
0.0
 11
28585.604341291921
 21
1987.7494964292871
 31
0.0
  0
LINE
  5
43D0
  8
YODOROGO
 10
28433.60434129191
 20
1867.7494964292871
 30
0.0
 11
28433.60434129191
 21
1987.7494964292871
 31
0.0
  0
LINE
  5
43D1
  8
YODOROGO
 10
29001.60434129191
 20
2027.749496429288
 30
0.0
 11
29001.60434129191
 21
1619.749496429288
 31
0.0
  0
LINE
  5
43D2
  8
YODOROGO
 10
29073.604341291921
 20
1579.749496429288
 30
0.0
 11
29073.604341291921
 21
2027.749496429288
 31
0.0
  0
LINE
  5
43D3
  8
YODOROGO
 10
29261.604341291921
 20
1491.749496429286
 30
0.0
 11
29261.604341291921
 21
2007.749496429288
 31
0.0
  0
LINE
  5
43D4
  8
YODOROGO
 10
29197.604341291921
 20
2007.749496429288
 30
0.0
 11
29197.604341291921
 21
1491.749496429286
 31
0.0
  0
LINE
  5
43D5
  8
YODOROGO
 10
29385.604341291921
 20
2027.749496429288
 30
0.0
 11
29385.604341291921
 21
1427.749496429288
 31
0.0
  0
LINE
  5
43D6
  8
YODOROGO
 10
29457.604341291921
 20
1427.749496429288
 30
0.0
 11
29457.604341291921
 21
2027.749496429288
 31
0.0
  0
LINE
  5
43D7
  8
YODOROGO
 10
28657.604341291921
 20
1667.749496429288
 30
0.0
 11
28657.604341291921
 21
1747.74949642929
 31
0.0
  0
LINE
  5
43D8
  8
YODOROGO
 10
29885.604341291921
 20
1707.749496429288
 30
0.0
 11
29885.604341291921
 21
1667.749496429288
 31
0.0
  0
LINE
  5
43D9
  8
YODOROGO
 10
29885.604341291921
 20
1707.749496429288
 30
0.0
 11
29885.604341291921
 21
1667.749496429288
 31
0.0
  0
ARC
  5
43DA
  8
YODOROGO
 10
28906.911576186842
 20
1618.217864442272
 30
0.0
 40
94.705151178741644
 50
274.05244162907098
 51
0.9266642149310712
  0
ARC
  5
43DB
  8
YODOROGO
 10
28909.186170719819
 20
1592.61072861044
 30
0.0
 40
164.92042356085511
 50
271.5351210653775
 51
355.52727750585052
  0
LINE
  5
43DC
  8
YODOROGO
 10
28913.604341291921
 20
1523.7494964292871
 30
0.0
 11
28913.604341291921
 21
1427.749496429288
 31
0.0
  0
LINE
  5
43DD
  8
YODOROGO
 10
28793.60434129191
 20
1667.749496429288
 30
0.0
 11
28657.604341291921
 21
1667.749496429288
 31
0.0
  0
LINE
  5
43DE
  8
YODOROGO
 10
28793.60434129191
 20
1603.7494964292871
 30
0.0
 11
28793.60434129191
 21
1667.749496429288
 31
0.0
  0
LINE
  5
43DF
  8
YODOROGO
 10
28657.604341291921
 20
1603.7494964292871
 30
0.0
 11
28793.60434129191
 21
1603.7494964292871
 31
0.0
  0
LINE
  5
43E0
  8
YODOROGO
 10
28657.604341291921
 20
1523.7494964292871
 30
0.0
 11
28657.604341291921
 21
1603.7494964292871
 31
0.0
  0
LINE
  5
43E1
  8
YODOROGO
 10
28793.60434129191
 20
1523.7494964292871
 30
0.0
 11
28657.604341291921
 21
1523.7494964292871
 31
0.0
  0
LINE
  5
43E2
  8
YODOROGO
 10
28793.60434129191
 20
1427.749496429288
 30
0.0
 11
28793.60434129191
 21
1523.7494964292871
 31
0.0
  0
LINE
  5
43E3
  8
YODOROGO
 10
29197.604341291921
 20
1491.749496429286
 30
0.0
 11
29261.604341291921
 21
1491.749496429286
 31
0.0
  0
LINE
  5
43E4
  8
YODOROGO
 10
29385.604341291921
 20
1427.749496429288
 30
0.0
 11
29457.604341291921
 21
1427.749496429288
 31
0.0
  0
LINE
  5
43E5
  8
YODOROGO
 10
29737.604341291921
 20
1528.4414521705639
 30
0.0
 11
29737.604341291921
 21
1427.749496429288
 31
0.0
  0
LINE
  5
43E6
  8
YODOROGO
 10
29617.604341291921
 20
1427.749496429288
 30
0.0
 11
29737.604341291921
 21
1528.4414521705639
 31
0.0
  0
LINE
  5
43E7
  8
YODOROGO
 10
29617.604341291921
 20
1547.749496429288
 30
0.0
 11
29617.604341291921
 21
1427.749496429288
 31
0.0
  0
LINE
  5
43E8
  8
YODOROGO
 10
29712.94462869945
 20
1627.749496429288
 30
0.0
 11
29617.604341291921
 21
1547.749496429288
 31
0.0
  0
LINE
  5
43E9
  8
YODOROGO
 10
29617.604341291921
 20
1627.749496429288
 30
0.0
 11
29712.94462869945
 21
1627.749496429288
 31
0.0
  0
LINE
  5
43EA
  8
YODOROGO
 10
29617.604341291921
 20
1667.749496429288
 30
0.0
 11
29617.604341291921
 21
1627.749496429288
 31
0.0
  0
LINE
  5
43EB
  8
YODOROGO
 10
29885.604341291921
 20
1667.749496429288
 30
0.0
 11
29617.604341291921
 21
1667.749496429288
 31
0.0
  0
LINE
  5
43EC
  8
YODOROGO
 10
29917.604341291921
 20
1627.749496429288
 30
0.0
 11
29777.604341291921
 21
1627.749496429288
 31
0.0
  0
LINE
  5
43ED
  8
YODOROGO
 10
29777.604341291921
 20
1562.0054374176559
 30
0.0
 11
29771.409872985321
 21
1556.807661346234
 31
0.0
  0
LINE
  5
43EE
  8
YODOROGO
 10
29777.604341291921
 20
1627.749496429288
 30
0.0
 11
29777.604341291921
 21
1562.0054374176559
 31
0.0
  0
LINE
  5
43EF
  8
YODOROGO
 10
29737.604341291921
 20
1528.4414521705639
 30
0.0
 11
29737.604341291921
 21
1427.749496429288
 31
0.0
  0
LINE
  5
43F0
  8
YODOROGO
 10
29617.604341291921
 20
1427.749496429288
 30
0.0
 11
29737.604341291921
 21
1528.4414521705639
 31
0.0
  0
LINE
  5
43F1
  8
YODOROGO
 10
29617.604341291921
 20
1547.749496429288
 30
0.0
 11
29617.604341291921
 21
1427.749496429288
 31
0.0
  0
LINE
  5
43F2
  8
YODOROGO
 10
29712.94462869945
 20
1627.749496429288
 30
0.0
 11
29617.604341291921
 21
1547.749496429288
 31
0.0
  0
LINE
  5
43F3
  8
YODOROGO
 10
29617.604341291921
 20
1627.749496429288
 30
0.0
 11
29712.94462869945
 21
1627.749496429288
 31
0.0
  0
LINE
  5
43F4
  8
YODOROGO
 10
29617.604341291921
 20
1667.749496429288
 30
0.0
 11
29617.604341291921
 21
1627.749496429288
 31
0.0
  0
LINE
  5
43F5
  8
YODOROGO
 10
29885.604341291921
 20
1667.749496429288
 30
0.0
 11
29617.604341291921
 21
1667.749496429288
 31
0.0
  0
LINE
  5
43F6
  8
YODOROGO
 10
28793.60434129191
 20
1747.74949642929
 30
0.0
 11
28793.60434129191
 21
1819.7494964292871
 31
0.0
  0
LINE
  5
43F7
  8
YODOROGO
 10
28657.604341291921
 20
1747.74949642929
 30
0.0
 11
28793.60434129191
 21
1747.74949642929
 31
0.0
  0
LINE
  5
43F8
  8
YODOROGO
 10
28729.604341291921
 20
1867.7494964292871
 30
0.0
 11
28729.604341291921
 21
1923.7494964292871
 31
0.0
  0
LINE
  5
43F9
  8
YODOROGO
 10
28793.60434129191
 20
1867.7494964292871
 30
0.0
 11
28729.604341291921
 21
1867.7494964292871
 31
0.0
  0
LINE
  5
43FA
  8
YODOROGO
 10
28793.60434129191
 20
1947.749496429288
 30
0.0
 11
28793.60434129191
 21
1867.7494964292871
 31
0.0
  0
ARC
  5
43FB
  8
YODOROGO
 10
28753.60434129191
 20
1947.749496429288
 30
0.0
 40
40.0
 50
0.0
 51
90.0
  0
LINE
  5
43FC
  8
YODOROGO
 10
28657.604341291921
 20
1987.7494964292871
 30
0.0
 11
28753.60434129191
 21
1987.7494964292871
 31
0.0
  0
LINE
  5
43FD
  8
YODOROGO
 10
28657.604341291921
 20
2027.749496429288
 30
0.0
 11
28657.604341291921
 21
1987.7494964292871
 31
0.0
  0
LINE
  5
43FE
  8
YODOROGO
 10
29073.604341291921
 20
2027.749496429288
 30
0.0
 11
29001.60434129191
 21
2027.749496429288
 31
0.0
  0
LINE
  5
43FF
  8
YODOROGO
 10
29261.604341291921
 20
2007.749496429288
 30
0.0
 11
29197.604341291921
 21
2007.749496429288
 31
0.0
  0
LINE
  5
4400
  8
YODOROGO
 10
29457.604341291921
 20
2027.749496429288
 30
0.0
 11
29385.604341291921
 21
2027.749496429288
 31
0.0
  0
LINE
  5
4401
  8
YODOROGO
 10
29673.604341291921
 20
1707.749496429288
 30
0.0
 11
29673.604341291921
 21
1771.7494964292871
 31
0.0
1001
AUTOCAD_POSTSCRIPT_FIGURE
1002
{
1000
PSFILL
1000
Grayscale
1000
Grayscale
1070
    25
1002
}
  0
LINE
  5
4402
  8
YODOROGO
 10
29617.604341291921
 20
1707.749496429288
 30
0.0
 11
29673.604341291921
 21
1707.749496429288
 31
0.0
1001
AUTOCAD_POSTSCRIPT_FIGURE
1002
{
1000
PSFILL
1000
Grayscale
1000
Grayscale
1070
    25
1002
}
  0
LINE
  5
4403
  8
YODOROGO
 10
29617.604341291921
 20
1819.7494964292871
 30
0.0
 11
29617.604341291921
 21
1707.749496429288
 31
0.0
1001
AUTOCAD_POSTSCRIPT_FIGURE
1002
{
1000
PSFILL
1000
Grayscale
1000
Grayscale
1070
    25
1002
}
  0
LINE
  5
4404
  8
YODOROGO
 10
29765.604341291921
 20
1819.7494964292871
 30
0.0
 11
29617.604341291921
 21
1819.7494964292871
 31
0.0
1001
AUTOCAD_POSTSCRIPT_FIGURE
1002
{
1000
PSFILL
1000
Grayscale
1000
Grayscale
1070
    25
1002
}
  0
LINE
  5
4405
  8
YODOROGO
 10
29765.604341291921
 20
1859.749496429288
 30
0.0
 11
29765.604341291921
 21
1819.7494964292871
 31
0.0
1001
AUTOCAD_POSTSCRIPT_FIGURE
1002
{
1000
PSFILL
1000
Grayscale
1000
Grayscale
1070
    25
1002
}
  0
LINE
  5
4406
  8
YODOROGO
 10
29617.604341291921
 20
1859.749496429288
 30
0.0
 11
29765.604341291921
 21
1859.749496429288
 31
0.0
1001
AUTOCAD_POSTSCRIPT_FIGURE
1002
{
1000
PSFILL
1000
Grayscale
1000
Grayscale
1070
    25
1002
}
  0
LINE
  5
4407
  8
YODOROGO
 10
29617.604341291921
 20
1907.7494964292871
 30
0.0
 11
29617.604341291921
 21
1859.749496429288
 31
0.0
1001
AUTOCAD_POSTSCRIPT_FIGURE
1002
{
1000
PSFILL
1000
Grayscale
1000
Grayscale
1070
    25
1002
}
  0
LINE
  5
4408
  8
YODOROGO
 10
29765.604341291921
 20
1907.7494964292871
 30
0.0
 11
29617.604341291921
 21
1907.7494964292871
 31
0.0
1001
AUTOCAD_POSTSCRIPT_FIGURE
1002
{
1000
PSFILL
1000
Grayscale
1000
Grayscale
1070
    25
1002
}
  0
LINE
  5
4409
  8
YODOROGO
 10
29765.604341291921
 20
1947.749496429288
 30
0.0
 11
29765.604341291921
 21
1907.7494964292871
 31
0.0
1001
AUTOCAD_POSTSCRIPT_FIGURE
1002
{
1000
PSFILL
1000
Grayscale
1000
Grayscale
1070
    25
1002
}
  0
LINE
  5
440A
  8
YODOROGO
 10
29617.604341291921
 20
1947.749496429288
 30
0.0
 11
29765.604341291921
 21
1947.749496429288
 31
0.0
1001
AUTOCAD_POSTSCRIPT_FIGURE
1002
{
1000
PSFILL
1000
Grayscale
1000
Grayscale
1070
    25
1002
}
  0
LINE
  5
440B
  8
YODOROGO
 10
29617.604341291921
 20
2027.749496429288
 30
0.0
 11
29617.604341291921
 21
1947.749496429288
 31
0.0
1001
AUTOCAD_POSTSCRIPT_FIGURE
1002
{
1000
PSFILL
1000
Grayscale
1000
Grayscale
1070
    25
1002
}
  0
LINE
  5
440C
  8
YODOROGO
 10
29665.604341291921
 20
2027.749496429288
 30
0.0
 11
29617.604341291921
 21
2027.749496429288
 31
0.0
1001
AUTOCAD_POSTSCRIPT_FIGURE
1002
{
1000
PSFILL
1000
Grayscale
1000
Grayscale
1070
    25
1002
}
  0
LINE
  5
440D
  8
YODOROGO
 10
29665.604341291921
 20
1995.7494964292871
 30
0.0
 11
29665.604341291921
 21
2027.749496429288
 31
0.0
1001
AUTOCAD_POSTSCRIPT_FIGURE
1002
{
1000
PSFILL
1000
Grayscale
1000
Grayscale
1070
    25
1002
}
  0
LINE
  5
440E
  8
YODOROGO
 10
29765.604341291921
 20
1995.7494964292871
 30
0.0
 11
29665.604341291921
 21
1995.7494964292871
 31
0.0
1001
AUTOCAD_POSTSCRIPT_FIGURE
1002
{
1000
PSFILL
1000
Grayscale
1000
Grayscale
1070
    25
1002
}
  0
LINE
  5
440F
  8
YODOROGO
 10
29765.604341291921
 20
2027.749496429288
 30
0.0
 11
29765.604341291921
 21
1995.7494964292871
 31
0.0
1001
AUTOCAD_POSTSCRIPT_FIGURE
1002
{
1000
PSFILL
1000
Grayscale
1000
Grayscale
1070
    25
1002
}
  0
LINE
  5
4410
  8
YODOROGO
 10
29829.604341291921
 20
2027.749496429288
 30
0.0
 11
29765.604341291921
 21
2027.749496429288
 31
0.0
1001
AUTOCAD_POSTSCRIPT_FIGURE
1002
{
1000
PSFILL
1000
Grayscale
1000
Grayscale
1070
    25
1002
}
  0
LINE
  5
4411
  8
YODOROGO
 10
29829.604341291921
 20
1995.7494964292871
 30
0.0
 11
29829.604341291921
 21
2027.749496429288
 31
0.0
1001
AUTOCAD_POSTSCRIPT_FIGURE
1002
{
1000
PSFILL
1000
Grayscale
1000
Grayscale
1070
    25
1002
}
  0
LINE
  5
4412
  8
YODOROGO
 10
29829.604341291921
 20
1907.7494964292871
 30
0.0
 11
29829.604341291921
 21
1947.749496429288
 31
0.0
1001
AUTOCAD_POSTSCRIPT_FIGURE
1002
{
1000
PSFILL
1000
Grayscale
1000
Grayscale
1070
    25
1002
}
  0
LINE
  5
4413
  8
YODOROGO
 10
29829.604341291921
 20
1819.7494964292871
 30
0.0
 11
29829.604341291921
 21
1859.749496429288
 31
0.0
1001
AUTOCAD_POSTSCRIPT_FIGURE
1002
{
1000
PSFILL
1000
Grayscale
1000
Grayscale
1070
    25
1002
}
  0
LINE
  5
4414
  8
YODOROGO
 10
29921.60434129191
 20
1771.7494964292871
 30
0.0
 11
29921.60434129191
 21
1707.749496429288
 31
0.0
1001
AUTOCAD_POSTSCRIPT_FIGURE
1002
{
1000
PSFILL
1000
Grayscale
1000
Grayscale
1070
    25
1002
}
  0
LINE
  5
4415
  8
YODOROGO
 10
29829.604341291921
 20
1771.7494964292871
 30
0.0
 11
29921.60434129191
 21
1771.7494964292871
 31
0.0
1001
AUTOCAD_POSTSCRIPT_FIGURE
1002
{
1000
PSFILL
1000
Grayscale
1000
Grayscale
1070
    25
1002
}
  0
LINE
  5
4416
  8
YODOROGO
 10
29829.604341291921
 20
1707.749496429288
 30
0.0
 11
29829.604341291921
 21
1771.7494964292871
 31
0.0
1001
AUTOCAD_POSTSCRIPT_FIGURE
1002
{
1000
PSFILL
1000
Grayscale
1000
Grayscale
1070
    25
1002
}
  0
LINE
  5
4417
  8
YODOROGO
 10
29765.604341291921
 20
1707.749496429288
 30
0.0
 11
29829.604341291921
 21
1707.749496429288
 31
0.0
1001
AUTOCAD_POSTSCRIPT_FIGURE
1002
{
1000
PSFILL
1000
Grayscale
1000
Grayscale
1070
    25
1002
}
  0
LINE
  5
4418
  8
YODOROGO
 10
29765.604341291921
 20
1771.7494964292871
 30
0.0
 11
29765.604341291921
 21
1707.749496429288
 31
0.0
1001
AUTOCAD_POSTSCRIPT_FIGURE
1002
{
1000
PSFILL
1000
Grayscale
1000
Grayscale
1070
    25
1002
}
  0
LINE
  5
4419
  8
YODOROGO
 10
29673.604341291921
 20
1771.7494964292871
 30
0.0
 11
29765.604341291921
 21
1771.7494964292871
 31
0.0
1001
AUTOCAD_POSTSCRIPT_FIGURE
1002
{
1000
PSFILL
1000
Grayscale
1000
Grayscale
1070
    25
1002
}
  0
ARC
  5
441A
  8
YODOROGO
 10
31059.517893357912
 20
1602.6807375155761
 30
0.0
 40
178.22128111072141
 50
281.02627495425338
 51
357.77113575573799
  0
LINE
  5
441B
  8
YODOROGO
 10
31413.604341291921
 20
1907.7494964292871
 30
0.0
 11
31165.604341291921
 21
1907.7494964292871
 31
0.0
  0
LINE
  5
441C
  8
YODOROGO
 10
31413.604341291921
 20
2027.749496429288
 30
0.0
 11
31165.604341291921
 21
2027.749496429288
 31
0.0
  0
LINE
  5
441D
  8
YODOROGO
 10
31165.604341291921
 20
1963.749496429286
 30
0.0
 11
31413.604341291921
 21
1963.749496429286
 31
0.0
  0
LINE
  5
441E
  8
YODOROGO
 10
30791.604341291921
 20
1563.7494964292871
 30
0.0
 11
30791.604341291921
 21
1755.7494964292871
 31
0.0
  0
LINE
  5
441F
  8
YODOROGO
 10
30763.604341291921
 20
1691.749496429288
 30
0.0
 11
30763.604341291921
 21
1563.7494964292871
 31
0.0
  0
LINE
  5
4420
  8
YODOROGO
 10
30723.604341291921
 20
1491.749496429288
 30
0.0
 11
30723.604341291921
 21
1691.749496429288
 31
0.0
  0
LINE
  5
4421
  8
YODOROGO
 10
30899.604341291932
 20
1691.749496429288
 30
0.0
 11
30899.604341291932
 21
1491.749496429288
 31
0.0
  0
LINE
  5
4422
  8
YODOROGO
 10
30859.604341291932
 20
1563.7494964292871
 30
0.0
 11
30859.604341291932
 21
1691.749496429288
 31
0.0
  0
LINE
  5
4423
  8
YODOROGO
 10
30831.604341291921
 20
1755.7494964292871
 30
0.0
 11
30831.604341291921
 21
1563.7494964292871
 31
0.0
  0
LINE
  5
4424
  8
YODOROGO
 10
30973.604341291921
 20
2027.749496429288
 30
0.0
 11
30973.604341291921
 21
1467.749496429288
 31
0.0
  0
LINE
  5
4425
  8
YODOROGO
 10
30645.604341291921
 20
1427.749496429288
 30
0.0
 11
30645.604341291921
 21
2027.749496429288
 31
0.0
  0
LINE
  5
4426
  8
YODOROGO
 10
30697.604341291932
 20
1963.749496429286
 30
0.0
 11
30697.604341291932
 21
1427.749496429288
 31
0.0
  0
LINE
  5
4427
  8
YODOROGO
 10
30925.604341291921
 20
1547.749496429288
 30
0.0
 11
30925.604341291921
 21
1963.749496429286
 31
0.0
  0
LINE
  5
4428
  8
YODOROGO
 10
30381.604341291932
 20
1627.749496429288
 30
0.0
 11
30381.604341291932
 21
1679.749496429288
 31
0.0
  0
LINE
  5
4429
  8
YODOROGO
 10
30617.604341291921
 20
1679.749496429288
 30
0.0
 11
30617.604341291921
 21
1627.749496429288
 31
0.0
  0
LINE
  5
442A
  8
YODOROGO
 10
31165.604341291921
 20
1907.7494964292871
 30
0.0
 11
31165.604341291921
 21
1635.7494964292871
 31
0.0
  0
LINE
  5
442B
  8
YODOROGO
 10
29949.60434129191
 20
1667.749496429288
 30
0.0
 11
29949.60434129191
 21
1707.749496429288
 31
0.0
  0
LINE
  5
442C
  8
YODOROGO
 10
29949.60434129191
 20
1667.749496429288
 30
0.0
 11
29949.60434129191
 21
1707.749496429288
 31
0.0
  0
ARC
  5
442D
  8
YODOROGO
 10
30537.604341291921
 20
1507.749496429288
 30
0.0
 40
80.0
 50
270.0
 51
0.0
  0
LINE
  5
442E
  8
YODOROGO
 10
30569.604341291921
 20
1599.7494964292871
 30
0.0
 11
30617.604341291921
 21
1599.7494964292871
 31
0.0
  0
LINE
  5
442F
  8
YODOROGO
 10
30617.604341291921
 20
1627.749496429288
 30
0.0
 11
30529.604341291939
 21
1627.749496429288
 31
0.0
  0
LINE
  5
4430
  8
YODOROGO
 10
30217.604341291921
 20
1667.749496429288
 30
0.0
 11
29949.60434129191
 21
1667.749496429288
 31
0.0
  0
LINE
  5
4431
  8
YODOROGO
 10
30217.604341291921
 20
1627.749496429288
 30
0.0
 11
30217.604341291921
 21
1667.749496429288
 31
0.0
  0
LINE
  5
4432
  8
YODOROGO
 10
30017.604341291921
 20
1627.749496429288
 30
0.0
 11
30217.604341291921
 21
1627.749496429288
 31
0.0
  0
ARC
  5
4433
  8
YODOROGO
 10
30230.05882870136
 20
1868.885714952901
 30
0.0
 40
321.37763628522822
 50
228.6181454618993
 51
245.660289248906
  0
LINE
  5
4434
  8
YODOROGO
 10
30105.604341291921
 20
1603.7494964292871
 30
0.0
 11
30097.60434129195
 21
1576.0728158699001
 31
0.0
  0
LINE
  5
4435
  8
YODOROGO
 10
30189.604341291921
 20
1603.7494964292871
 30
0.0
 11
30105.604341291921
 21
1603.7494964292871
 31
0.0
  0
LINE
  5
4436
  8
YODOROGO
 10
30177.604341291921
 20
1551.817722473427
 30
0.0
 11
30189.604341291921
 21
1603.7494964292871
 31
0.0
  0
ARC
  5
4437
  8
YODOROGO
 10
30230.05882870045
 20
1868.885714953002
 30
0.0
 40
321.37763628529081
 50
260.60629297969911
 51
267.77903556555862
  0
LINE
  5
4438
  8
YODOROGO
 10
30217.604341291921
 20
1427.749496429285
 30
0.0
 11
30217.604341291921
 21
1547.749496429288
 31
0.0
  0
LINE
  5
4439
  8
YODOROGO
 10
29937.604341291932
 20
1481.3393349155101
 30
0.0
 11
29937.604341291921
 21
1594.531090531141
 31
0.0
  0
LINE
  5
443A
  8
YODOROGO
 10
30217.604341291921
 20
1667.749496429288
 30
0.0
 11
29949.60434129191
 21
1667.749496429288
 31
0.0
  0
LINE
  5
443B
  8
YODOROGO
 10
30217.604341291921
 20
1627.749496429288
 30
0.0
 11
30217.604341291921
 21
1667.749496429288
 31
0.0
  0
LINE
  5
443C
  8
YODOROGO
 10
30017.604341291921
 20
1627.749496429288
 30
0.0
 11
30217.604341291921
 21
1627.749496429288
 31
0.0
  0
ARC
  5
443D
  8
YODOROGO
 10
30230.05882870136
 20
1868.885714952901
 30
0.0
 40
321.37763628522822
 50
228.6181454618993
 51
245.660289248906
  0
LINE
  5
443E
  8
YODOROGO
 10
30105.604341291921
 20
1603.7494964292871
 30
0.0
 11
30097.60434129195
 21
1576.0728158699001
 31
0.0
  0
LINE
  5
443F
  8
YODOROGO
 10
30189.604341291921
 20
1603.7494964292871
 30
0.0
 11
30105.604341291921
 21
1603.7494964292871
 31
0.0
  0
LINE
  5
4440
  8
YODOROGO
 10
30177.604341291921
 20
1551.817722473427
 30
0.0
 11
30189.604341291921
 21
1603.7494964292871
 31
0.0
  0
ARC
  5
4441
  8
YODOROGO
 10
30230.05882870045
 20
1868.885714953002
 30
0.0
 40
321.37763628529081
 50
260.60629297969911
 51
267.77903556555862
  0
LINE
  5
4442
  8
YODOROGO
 10
30217.604341291921
 20
1427.749496429285
 30
0.0
 11
30217.604341291921
 21
1547.749496429288
 31
0.0
  0
LINE
  5
4443
  8
YODOROGO
 10
29937.604341291932
 20
1481.3393349155101
 30
0.0
 11
29937.604341291921
 21
1594.531090531141
 31
0.0
  0
LINE
  5
4444
  8
YODOROGO
 10
30433.604341291921
 20
1573.749496429288
 30
0.0
 11
30381.604341291932
 21
1573.749496429288
 31
0.0
  0
LINE
  5
4445
  8
YODOROGO
 10
30433.604341291921
 20
1601.749496429285
 30
0.0
 11
30433.604341291921
 21
1573.749496429288
 31
0.0
  0
LINE
  5
4446
  8
YODOROGO
 10
30381.604341291932
 20
1601.749496429285
 30
0.0
 11
30433.604341291921
 21
1601.749496429285
 31
0.0
  0
LINE
  5
4447
  8
YODOROGO
 10
30381.604341291932
 20
1573.749496429288
 30
0.0
 11
30381.604341291932
 21
1601.749496429285
 31
0.0
  0
LINE
  5
4448
  8
YODOROGO
 10
30429.604341291921
 20
1577.7494964292871
 30
0.0
 11
30385.604341291921
 21
1577.7494964292871
 31
0.0
  0
LINE
  5
4449
  8
YODOROGO
 10
30429.604341291921
 20
1597.749496429288
 30
0.0
 11
30429.604341291921
 21
1577.7494964292871
 31
0.0
  0
LINE
  5
444A
  8
YODOROGO
 10
30385.604341291921
 20
1597.749496429288
 30
0.0
 11
30429.604341291921
 21
1597.749496429288
 31
0.0
  0
LINE
  5
444B
  8
YODOROGO
 10
30385.604341291921
 20
1577.7494964292871
 30
0.0
 11
30385.604341291921
 21
1597.749496429288
 31
0.0
  0
LINE
  5
444C
  8
YODOROGO
 10
30425.604341291921
 20
1581.749496429286
 30
0.0
 11
30389.604341291921
 21
1581.749496429286
 31
0.0
  0
LINE
  5
444D
  8
YODOROGO
 10
30425.604341291921
 20
1593.749496429288
 30
0.0
 11
30425.604341291921
 21
1581.749496429286
 31
0.0
  0
LINE
  5
444E
  8
YODOROGO
 10
30389.604341291921
 20
1593.749496429288
 30
0.0
 11
30425.604341291921
 21
1593.749496429288
 31
0.0
  0
LINE
  5
444F
  8
YODOROGO
 10
30389.604341291921
 20
1581.749496429286
 30
0.0
 11
30389.604341291921
 21
1593.749496429288
 31
0.0
  0
LINE
  5
4450
  8
YODOROGO
 10
30421.604341291932
 20
1585.7494964292871
 30
0.0
 11
30393.604341291921
 21
1585.7494964292871
 31
0.0
  0
LINE
  5
4451
  8
YODOROGO
 10
30421.604341291932
 20
1589.749496429288
 30
0.0
 11
30421.604341291932
 21
1585.7494964292871
 31
0.0
  0
LINE
  5
4452
  8
YODOROGO
 10
30393.604341291921
 20
1589.749496429288
 30
0.0
 11
30421.604341291932
 21
1589.749496429288
 31
0.0
  0
LINE
  5
4453
  8
YODOROGO
 10
30393.604341291921
 20
1585.7494964292871
 30
0.0
 11
30393.604341291921
 21
1589.749496429288
 31
0.0
  0
LINE
  5
4454
  8
YODOROGO
 10
30465.604341291921
 20
1627.749496429288
 30
0.0
 11
30381.604341291932
 21
1627.749496429288
 31
0.0
  0
LINE
  5
4455
  8
YODOROGO
 10
30465.604341291921
 20
1547.749496429288
 30
0.0
 11
30465.604341291921
 21
1627.749496429288
 31
0.0
  0
LINE
  5
4456
  8
YODOROGO
 10
30381.604341291932
 20
1547.749496429288
 30
0.0
 11
30465.604341291921
 21
1547.749496429288
 31
0.0
  0
LINE
  5
4457
  8
YODOROGO
 10
30381.604341291932
 20
1427.749496429288
 30
0.0
 11
30381.604341291932
 21
1547.749496429288
 31
0.0
  0
LINE
  5
4458
  8
YODOROGO
 10
30537.604341291921
 20
1427.749496429288
 30
0.0
 11
30381.604341291932
 21
1427.749496429288
 31
0.0
  0
LINE
  5
4459
  8
YODOROGO
 10
30569.604341291921
 20
1571.749496429285
 30
0.0
 11
30569.604341291921
 21
1599.7494964292871
 31
0.0
  0
ARC
  5
445A
  8
YODOROGO
 10
30545.604341291921
 20
1571.749496429291
 30
0.0
 40
24.000000000003752
 50
270.0
 51
359.99999999998772
  0
LINE
  5
445B
  8
YODOROGO
 10
30529.604341291939
 20
1547.749496429288
 30
0.0
 11
30545.604341291921
 21
1547.749496429288
 31
0.0
  0
LINE
  5
445C
  8
YODOROGO
 10
30529.604341291939
 20
1627.749496429288
 30
0.0
 11
30529.604341291939
 21
1547.749496429288
 31
0.0
  0
LINE
  5
445D
  8
YODOROGO
 10
30899.604341291932
 20
1547.749496429288
 30
0.0
 11
30925.604341291921
 21
1547.749496429288
 31
0.0
  0
LINE
  5
445E
  8
YODOROGO
 10
30933.604341291921
 20
1427.749496429288
 30
0.0
 11
30899.604341291932
 21
1427.749496429288
 31
0.0
  0
LINE
  5
445F
  8
YODOROGO
 10
30763.604341291921
 20
1563.7494964292871
 30
0.0
 11
30791.604341291921
 21
1563.7494964292871
 31
0.0
  0
LINE
  5
4460
  8
YODOROGO
 10
30899.604341291932
 20
1491.749496429288
 30
0.0
 11
30723.604341291921
 21
1491.749496429288
 31
0.0
  0
LINE
  5
4461
  8
YODOROGO
 10
30831.604341291921
 20
1563.7494964292871
 30
0.0
 11
30859.604341291932
 21
1563.7494964292871
 31
0.0
  0
LINE
  5
4462
  8
YODOROGO
 10
30899.604341291932
 20
1427.749496429288
 30
0.0
 11
30899.604341291932
 21
1547.749496429288
 31
0.0
  0
LINE
  5
4463
  8
YODOROGO
 10
30697.604341291932
 20
1427.749496429288
 30
0.0
 11
30645.604341291921
 21
1427.749496429288
 31
0.0
  0
LINE
  5
4464
  8
YODOROGO
 10
30617.604341291921
 20
1599.7494964292871
 30
0.0
 11
30617.604341291921
 21
1507.749496429288
 31
0.0
  0
ARC
  5
4465
  8
YODOROGO
 10
30933.604341291921
 20
1467.749496429288
 30
0.0
 40
40.0
 50
270.0
 51
0.0
  0
LINE
  5
4466
  8
YODOROGO
 10
31093.604341291921
 20
1523.7494964292871
 30
0.0
 11
31093.604341291921
 21
1427.749496429288
 31
0.0
  0
ARC
  5
4467
  8
YODOROGO
 10
31039.721395566768
 20
1637.5313901097329
 30
0.0
 40
125.8955565916754
 50
295.34052442160112
 51
359.18902303418679
  0
LINE
  5
4468
  8
YODOROGO
 10
30617.604341291921
 20
1859.749496429288
 30
0.0
 11
30497.604341291921
 21
1939.749496429288
 31
0.0
  0
LINE
  5
4469
  8
YODOROGO
 10
30497.604341291921
 20
2027.749496429288
 30
0.0
 11
30617.604341291921
 21
1947.749496429288
 31
0.0
  0
LINE
  5
446A
  8
YODOROGO
 10
30529.604341291939
 20
1679.749496429288
 30
0.0
 11
30617.604341291921
 21
1679.749496429288
 31
0.0
  0
LINE
  5
446B
  8
YODOROGO
 10
30617.604341291921
 20
1735.7494964292871
 30
0.0
 11
30529.604341291939
 21
1735.7494964292871
 31
0.0
  0
LINE
  5
446C
  8
YODOROGO
 10
30381.604341291932
 20
1795.7494964292871
 30
0.0
 11
30617.604341291921
 21
1795.7494964292871
 31
0.0
  0
LINE
  5
446D
  8
YODOROGO
 10
30081.604341291921
 20
2027.749496429288
 30
0.0
 11
30021.604341291921
 21
2027.749496429288
 31
0.0
  0
LINE
  5
446E
  8
YODOROGO
 10
30081.604341291921
 20
1827.7494964292871
 30
0.0
 11
30081.604341291921
 21
2027.749496429288
 31
0.0
  0
LINE
  5
446F
  8
YODOROGO
 10
30021.604341291921
 20
1827.7494964292871
 30
0.0
 11
30081.604341291921
 21
1827.7494964292871
 31
0.0
  0
LINE
  5
4470
  8
YODOROGO
 10
30021.604341291921
 20
2027.749496429288
 30
0.0
 11
30021.604341291921
 21
1827.7494964292871
 31
0.0
  0
LINE
  5
4471
  8
YODOROGO
 10
30161.604341291921
 20
2027.749496429288
 30
0.0
 11
30217.604341291921
 21
2027.749496429288
 31
0.0
  0
LINE
  5
4472
  8
YODOROGO
 10
30161.604341291921
 20
1811.749496429288
 30
0.0
 11
30161.604341291921
 21
2027.749496429288
 31
0.0
  0
ARC
  5
4473
  8
YODOROGO
 10
30121.604341291921
 20
1811.749496429288
 30
0.0
 40
40.0
 50
270.0
 51
0.0
  0
LINE
  5
4474
  8
YODOROGO
 10
30021.604341291921
 20
1771.7494964292871
 30
0.0
 11
30121.604341291921
 21
1771.7494964292871
 31
0.0
  0
LINE
  5
4475
  8
YODOROGO
 10
30021.604341291921
 20
1707.749496429288
 30
0.0
 11
30021.604341291921
 21
1771.7494964292871
 31
0.0
  0
LINE
  5
4476
  8
YODOROGO
 10
30137.604341291921
 20
1707.749496429288
 30
0.0
 11
30021.604341291921
 21
1707.749496429288
 31
0.0
  0
ARC
  5
4477
  8
YODOROGO
 10
30137.604341291921
 20
1787.7494964292871
 30
0.0
 40
80.0
 50
270.0
 51
0.0
  0
LINE
  5
4478
  8
YODOROGO
 10
30217.604341291921
 20
2027.749496429288
 30
0.0
 11
30217.604341291921
 21
1787.7494964292871
 31
0.0
  0
LINE
  5
4479
  8
YODOROGO
 10
29977.604341291921
 20
1947.749496429288
 30
0.0
 11
29977.604341291921
 21
1995.7494964292871
 31
0.0
1001
AUTOCAD_POSTSCRIPT_FIGURE
1002
{
1000
PSFILL
1000
Grayscale
1000
Grayscale
1070
    25
1002
}
  0
LINE
  5
447A
  8
YODOROGO
 10
29977.604341291921
 20
1859.749496429288
 30
0.0
 11
29977.604341291921
 21
1907.7494964292871
 31
0.0
1001
AUTOCAD_POSTSCRIPT_FIGURE
1002
{
1000
PSFILL
1000
Grayscale
1000
Grayscale
1070
    25
1002
}
  0
LINE
  5
447B
  8
YODOROGO
 10
29977.604341291921
 20
1707.749496429288
 30
0.0
 11
29977.604341291921
 21
1819.7494964292871
 31
0.0
1001
AUTOCAD_POSTSCRIPT_FIGURE
1002
{
1000
PSFILL
1000
Grayscale
1000
Grayscale
1070
    25
1002
}
  0
LINE
  5
447C
  8
YODOROGO
 10
30381.604341291932
 20
1907.7494964292871
 30
0.0
 11
30497.604341291921
 21
2027.749496429288
 31
0.0
  0
LINE
  5
447D
  8
YODOROGO
 10
30381.604341291932
 20
1819.7494964292871
 30
0.0
 11
30381.604341291932
 21
1907.7494964292871
 31
0.0
  0
LINE
  5
447E
  8
YODOROGO
 10
30497.604341291921
 20
1939.749496429288
 30
0.0
 11
30381.604341291932
 21
1819.7494964292871
 31
0.0
  0
LINE
  5
447F
  8
YODOROGO
 10
30465.604341291921
 20
1679.749496429288
 30
0.0
 11
30465.604341291921
 21
1735.7494964292871
 31
0.0
  0
LINE
  5
4480
  8
YODOROGO
 10
30381.604341291932
 20
1679.749496429288
 30
0.0
 11
30465.604341291921
 21
1679.749496429288
 31
0.0
  0
LINE
  5
4481
  8
YODOROGO
 10
30529.604341291939
 20
1735.7494964292871
 30
0.0
 11
30529.604341291939
 21
1679.749496429288
 31
0.0
  0
LINE
  5
4482
  8
YODOROGO
 10
30381.604341291932
 20
1735.7494964292871
 30
0.0
 11
30381.604341291932
 21
1795.7494964292871
 31
0.0
  0
LINE
  5
4483
  8
YODOROGO
 10
30465.604341291921
 20
1735.7494964292871
 30
0.0
 11
30381.604341291932
 21
1735.7494964292871
 31
0.0
  0
LINE
  5
4484
  8
YODOROGO
 10
30645.604341291921
 20
2027.749496429288
 30
0.0
 11
30973.604341291921
 21
2027.749496429288
 31
0.0
  0
LINE
  5
4485
  8
YODOROGO
 10
30925.604341291921
 20
1963.749496429286
 30
0.0
 11
30697.604341291932
 21
1963.749496429286
 31
0.0
  0
LINE
  5
4486
  8
YODOROGO
 10
30873.604341291921
 20
1819.7494964292871
 30
0.0
 11
30899.604341291932
 21
1819.7494964292871
 31
0.0
  0
LINE
  5
4487
  8
YODOROGO
 10
30899.604341291932
 20
1939.749496429288
 30
0.0
 11
30873.604341291921
 21
1819.7494964292871
 31
0.0
  0
LINE
  5
4488
  8
YODOROGO
 10
30851.604341291939
 20
1939.749496429288
 30
0.0
 11
30899.604341291932
 21
1939.749496429288
 31
0.0
  0
LINE
  5
4489
  8
YODOROGO
 10
30825.604341291921
 20
1819.7494964292871
 30
0.0
 11
30851.604341291939
 21
1939.749496429288
 31
0.0
  0
LINE
  5
448A
  8
YODOROGO
 10
30797.604341291921
 20
1819.7494964292871
 30
0.0
 11
30825.604341291921
 21
1819.7494964292871
 31
0.0
  0
LINE
  5
448B
  8
YODOROGO
 10
30771.604341291939
 20
1939.749496429288
 30
0.0
 11
30797.604341291921
 21
1819.7494964292871
 31
0.0
  0
LINE
  5
448C
  8
YODOROGO
 10
30723.604341291921
 20
1939.749496429288
 30
0.0
 11
30771.604341291939
 21
1939.749496429288
 31
0.0
  0
LINE
  5
448D
  8
YODOROGO
 10
30749.604341291921
 20
1819.7494964292871
 30
0.0
 11
30723.604341291921
 21
1939.749496429288
 31
0.0
  0
LINE
  5
448E
  8
YODOROGO
 10
30723.604341291921
 20
1819.7494964292871
 30
0.0
 11
30749.604341291921
 21
1819.7494964292871
 31
0.0
  0
LINE
  5
448F
  8
YODOROGO
 10
30723.604341291921
 20
1755.7494964292871
 30
0.0
 11
30723.604341291921
 21
1819.7494964292871
 31
0.0
  0
LINE
  5
4490
  8
YODOROGO
 10
30899.604341291932
 20
1755.7494964292871
 30
0.0
 11
30723.604341291921
 21
1755.7494964292871
 31
0.0
  0
LINE
  5
4491
  8
YODOROGO
 10
30899.604341291932
 20
1819.7494964292871
 30
0.0
 11
30899.604341291932
 21
1755.7494964292871
 31
0.0
  0
LINE
  5
4492
  8
YODOROGO
 10
30617.604341291921
 20
1947.749496429288
 30
0.0
 11
30617.604341291921
 21
1859.749496429288
 31
0.0
  0
LINE
  5
4493
  8
YODOROGO
 10
30791.604341291921
 20
1755.7494964292871
 30
0.0
 11
30831.604341291921
 21
1755.7494964292871
 31
0.0
  0
LINE
  5
4494
  8
YODOROGO
 10
30723.604341291921
 20
1691.749496429288
 30
0.0
 11
30763.604341291921
 21
1691.749496429288
 31
0.0
  0
LINE
  5
4495
  8
YODOROGO
 10
30859.604341291932
 20
1691.749496429288
 30
0.0
 11
30899.604341291932
 21
1691.749496429288
 31
0.0
  0
LINE
  5
4496
  8
YODOROGO
 10
30617.604341291921
 20
1795.7494964292871
 30
0.0
 11
30617.604341291921
 21
1735.7494964292871
 31
0.0
  0
LINE
  5
4497
  8
YODOROGO
 10
31165.604341291921
 20
2027.749496429288
 30
0.0
 11
31165.604341291921
 21
1963.749496429286
 31
0.0
  0
LINE
  5
4498
  8
YODOROGO
 10
31533.604341291921
 20
1595.7494964292871
 30
0.0
 11
31533.60434129191
 21
1811.749496429288
 31
0.0
  0
LINE
  5
4499
  8
YODOROGO
 10
31461.60434129191
 20
1987.7494964292871
 30
0.0
 11
31461.60434129191
 21
1635.7494964292871
 31
0.0
  0
LINE
  5
449A
  8
YODOROGO
 10
31653.604341291921
 20
1427.749496429288
 30
0.0
 11
31653.60434129191
 21
1811.749496429288
 31
0.0
  0
LINE
  5
449B
  8
YODOROGO
 10
31589.604341291921
 20
1811.749496429288
 30
0.0
 11
31589.604341291921
 21
1427.749496429288
 31
0.0
  0
LINE
  5
449C
  8
YODOROGO
 10
31237.604341291921
 20
1595.7494964292871
 30
0.0
 11
31237.604341291921
 21
1707.749496429288
 31
0.0
  0
ARC
  5
449D
  8
YODOROGO
 10
31353.914865116069
 20
1607.790351288558
 30
0.0
 40
180.0924485759885
 50
268.62849102169793
 51
356.16638457330322
  0
LINE
  5
449E
  8
YODOROGO
 10
31349.604341291939
 20
1527.749496429288
 30
0.0
 11
31349.604341291939
 21
1427.749496429288
 31
0.0
  0
ARC
  5
449F
  8
YODOROGO
 10
31351.518075724562
 20
1637.838957017655
 30
0.0
 40
110.1060929836122
 50
269.00410209305932
 51
358.91264455492478
  0
LINE
  5
44A0
  8
YODOROGO
 10
31589.604341291921
 20
1427.749496429288
 30
0.0
 11
31653.604341291921
 21
1427.749496429288
 31
0.0
  0
LINE
  5
44A1
  8
YODOROGO
 10
31533.60434129191
 20
1811.749496429288
 30
0.0
 11
31589.604341291921
 21
1811.749496429288
 31
0.0
  0
LINE
  5
44A2
  8
YODOROGO
 10
31621.604341291939
 20
1987.7494964292871
 30
0.0
 11
31461.60434129191
 21
1987.7494964292871
 31
0.0
  0
LINE
  5
44A3
  8
YODOROGO
 10
31533.60434129191
 20
1915.7494964292871
 30
0.0
 11
31661.604341291939
 21
1915.7494964292871
 31
0.0
  0
LINE
  5
44A4
  8
YODOROGO
 10
31701.604341291939
 20
1875.7494964292871
 30
0.0
 11
31533.60434129191
 21
1875.7494964292871
 31
0.0
  0
LINE
  5
44A5
  8
YODOROGO
 10
31237.604341291921
 20
1779.749496429288
 30
0.0
 11
31349.604341291939
 21
1779.749496429288
 31
0.0
  0
LINE
  5
44A6
  8
YODOROGO
 10
31237.604341291921
 20
1835.7494964292871
 30
0.0
 11
31237.604341291921
 21
1779.749496429288
 31
0.0
  0
LINE
  5
44A7
  8
YODOROGO
 10
31349.604341291939
 20
1835.7494964292871
 30
0.0
 11
31237.604341291921
 21
1835.7494964292871
 31
0.0
  0
LINE
  5
44A8
  8
YODOROGO
 10
31349.604341291939
 20
1779.749496429288
 30
0.0
 11
31349.604341291939
 21
1835.7494964292871
 31
0.0
  0
LINE
  5
44A9
  8
YODOROGO
 10
31533.60434129191
 20
1875.7494964292871
 30
0.0
 11
31533.60434129191
 21
1915.7494964292871
 31
0.0
  0
LINE
  5
44AA
  8
YODOROGO
 10
31413.604341291921
 20
1707.749496429288
 30
0.0
 11
31413.604341291921
 21
1907.7494964292871
 31
0.0
  0
LINE
  5
44AB
  8
YODOROGO
 10
31237.604341291921
 20
1707.749496429288
 30
0.0
 11
31413.604341291921
 21
1707.749496429288
 31
0.0
  0
LINE
  5
44AC
  8
YODOROGO
 10
31413.604341291921
 20
1963.749496429286
 30
0.0
 11
31413.604341291921
 21
2027.749496429288
 31
0.0
  0
ARC
  5
44AD
  8
YODOROGO
 10
31621.604341291939
 20
2003.749496429285
 30
0.0
 40
15.999999999994539
 50
270.0
 51
0.0000000000081422
  0
LINE
  5
44AE
  8
YODOROGO
 10
31637.604341291921
 20
2027.749496429288
 30
0.0
 11
31637.604341291921
 21
2003.7494964292871
 31
0.0
  0
LINE
  5
44AF
  8
YODOROGO
 10
31701.604341291939
 20
2027.749496429288
 30
0.0
 11
31637.604341291921
 21
2027.749496429288
 31
0.0
  0
LINE
  5
44B0
  8
YODOROGO
 10
31701.604341291939
 20
1955.7494964292871
 30
0.0
 11
31701.604341291939
 21
2027.749496429288
 31
0.0
  0
ARC
  5
44B1
  8
YODOROGO
 10
31661.604341291939
 20
1955.7494964292871
 30
0.0
 40
40.0
 50
270.0
 51
0.0
  0
LINE
  5
44B2
  8
YODOROGO
 10
31701.604341291939
 20
1811.749496429288
 30
0.0
 11
31701.604341291939
 21
1875.7494964292871
 31
0.0
  0
LINE
  5
44B3
  8
YODOROGO
 10
31653.60434129191
 20
1811.749496429288
 30
0.0
 11
31701.604341291939
 21
1811.749496429288
 31
0.0
  0
LINE
  5
44B4
  8
SUNPOU
  6
CONTINUOUS
 62
     4
 10
5529.444573000017
 20
13723.43419099998
 30
0.0
 11
5529.444573000017
 21
12544.487359999979
 31
0.0
  0
LINE
  5
44B5
  8
SUNPOU
  6
CONTINUOUS
 62
     4
 10
14273.444468000011
 20
13723.43419099998
 30
0.0
 11
14273.444468000011
 21
12544.487359999979
 31
0.0
  0
LINE
  5
44B6
  8
SUNPOU
  6
CONTINUOUS
 62
     4
 10
5529.444573000017
 20
12624.487359999979
 30
0.0
 11
14273.444468000011
 21
12624.487359999979
 31
0.0
  0
LINE
  5
44B7
  8
SUNPOU
  6
CONTINUOUS
 62
     4
 10
5366.9402180000097
 20
13803.44012899999
 30
0.0
 11
4519.9447970000101
 21
13803.44012899999
 31
0.0
  0
LINE
  5
44B8
  8
SUNPOU
  6
CONTINUOUS
 62
     4
 10
4599.944797000011
 20
13995.935443999981
 30
0.0
 11
4599.944797000011
 21
13803.44012899999
 31
0.0
  0
LINE
  5
44B9
  8
SUNPOU
  6
CONTINUOUS
 62
     4
 10
5230.646900000017
 20
15455.175955500001
 30
0.0
 11
4519.9447970000119
 21
15455.175955500001
 31
0.0
  0
LINE
  5
44BA
  8
SUNPOU
  6
CONTINUOUS
 62
     4
 10
4599.9447970000119
 20
15455.175955500001
 30
0.0
 11
4599.944797000011
 21
13995.935443999981
 31
0.0
  0
LINE
  5
44BB
  8
SUNPOU
  6
CONTINUOUS
 62
     4
 10
5230.646900000017
 20
15455.175955500001
 30
0.0
 11
4519.9447970000101
 21
15455.175955500001
 31
0.0
  0
LINE
  5
44BC
  8
SUNPOU
  6
CONTINUOUS
 62
     4
 10
4599.944797000011
 20
16913.935443999992
 30
0.0
 11
4599.944797000011
 21
15455.175955500001
 31
0.0
  0
LINE
  5
44BD
  8
SUNPOU
  6
CONTINUOUS
 62
     4
 10
5366.9402180000097
 20
19683.931353
 30
0.0
 11
4919.9447970000101
 21
19683.931353
 31
0.0
  0
LINE
  5
44BE
  8
SUNPOU
  6
CONTINUOUS
 62
     4
 10
5366.9445730000116
 20
19703.931353
 30
0.0
 11
4919.9447970000101
 21
19703.931353
 31
0.0
  0
LINE
  5
44C0
  8
SUNPOU
  6
CONTINUOUS
 62
     4
 10
4999.944797000011
 20
19703.931353
 30
0.0
 11
4999.944797000011
 21
19943.931353
 31
0.0
  0
LINE
  5
44C1
  8
SUNPOU
  6
CONTINUOUS
 62
     4
 10
4999.944797000011
 20
19663.931353
 30
0.0
 11
4999.944797000011
 21
19703.931353
 31
0.0
  0
LINE
  5
44C2
  8
SUNPOU
  6
CONTINUOUS
 62
     4
 10
5366.9445730000116
 20
19703.931353
 30
0.0
 11
4519.9447970000128
 21
19703.931353
 31
0.0
  0
LINE
  5
44C3
  8
SUNPOU
  6
CONTINUOUS
 62
     4
 10
4599.9447970000119
 20
19481.435443999981
 30
0.0
 11
4599.9447970000119
 21
19703.931353
 31
0.0
  0
LINE
  5
44C4
  8
SUNPOU
  6
CONTINUOUS
 62
     4
 10
5230.6439300000129
 20
18372.935443999992
 30
0.0
 11
4519.9447970000119
 21
18372.935443999992
 31
0.0
  0
LINE
  5
44C5
  8
SUNPOU
  6
CONTINUOUS
 62
     4
 10
4599.9447970000119
 20
18372.935443999992
 30
0.0
 11
4599.9447970000119
 21
19481.435443999981
 31
0.0
  0
LINE
  5
44C6
  8
SUNPOU
  6
CONTINUOUS
 62
     4
 10
5230.6439300000129
 20
18372.935443999992
 30
0.0
 11
4519.9447970000101
 21
18372.935443999992
 31
0.0
  0
LINE
  5
44C7
  8
SUNPOU
  6
CONTINUOUS
 62
     4
 10
4599.944797000011
 20
16913.935443999992
 30
0.0
 11
4599.944797000011
 21
18372.935443999992
 31
0.0
  0
LINE
  5
44C8
  8
SUNPOU
  6
CONTINUOUS
 62
     4
 10
5443.9445730000152
 20
19783.931353
 30
0.0
 11
5443.9445730000152
 21
20333.936632000001
 31
0.0
  0
LINE
  5
44C9
  8
SUNPOU
  6
CONTINUOUS
 62
     4
 10
5529.444573000017
 20
20253.936632000001
 30
0.0
 11
5769.4445730000152
 21
20253.936632000001
 31
0.0
  0
LINE
  5
44CA
  8
SUNPOU
  6
CONTINUOUS
 62
     4
 10
5446.9445730000152
 20
20253.936632000001
 30
0.0
 11
5206.9445730000152
 21
20253.936632000001
 31
0.0
  0
LINE
  5
44CB
  8
SUNPOU
  6
CONTINUOUS
 62
     4
 10
5529.444573000017
 20
20253.936632000001
 30
0.0
 11
5446.9445730000152
 21
20253.936632000001
 31
0.0
  0
LINE
  5
44CC
  8
SUNPOU
  6
CONTINUOUS
 62
     4
 10
8447.4445730000134
 20
20253.936632000001
 30
0.0
 11
5529.444573000017
 21
20253.936632000001
 31
0.0
  0
LINE
  5
44CD
  8
SUNPOU
  6
CONTINUOUS
 62
     4
 10
11355.444468000011
 20
20253.936632000001
 30
0.0
 11
8447.4445730000134
 21
20253.936632000001
 31
0.0
  0
LINE
  5
44CE
  8
SUNPOU
  6
CONTINUOUS
 62
     4
 10
14358.944468000011
 20
19783.931353
 30
0.0
 11
14358.944468000011
 21
20333.936632000001
 31
0.0
  0
LINE
  5
44CF
  8
SUNPOU
  6
CONTINUOUS
 62
     4
 10
14273.444468000011
 20
20253.936632000001
 30
0.0
 11
14033.444468000011
 21
20253.936632000001
 31
0.0
  0
LINE
  5
44D0
  8
SUNPOU
  6
CONTINUOUS
 62
     4
 10
14355.944468000011
 20
20253.936632000001
 30
0.0
 11
14595.944468000011
 21
20253.936632000001
 31
0.0
  0
LINE
  5
44D1
  8
SUNPOU
  6
CONTINUOUS
 62
     4
 10
14273.444468000011
 20
20253.936632000001
 30
0.0
 11
14355.944468000011
 21
20253.936632000001
 31
0.0
  0
LINE
  5
44D2
  8
SUNPOU
  6
CONTINUOUS
 62
     4
 10
11355.444468000011
 20
20253.936632000001
 30
0.0
 11
14273.444468000011
 21
20253.936632000001
 31
0.0
  0
LINE
  5
44D3
  8
SUNPOU
  6
CONTINUOUS
 62
     4
 10
18472.543991999992
 20
19603.933729
 30
0.0
 11
18472.543991999992
 21
20333.936632000001
 31
0.0
  0
LINE
  5
44D4
  8
SUNPOU
  6
CONTINUOUS
 62
     4
 10
17714.543991999992
 20
19603.933729
 30
0.0
 11
17714.543991999992
 21
20333.936632000001
 31
0.0
  0
LINE
  5
44D5
  8
SUNPOU
  6
CONTINUOUS
 62
     4
 10
18472.543991999992
 20
20253.936632000001
 30
0.0
 11
17714.543991999992
 21
20253.936632000001
 31
0.0
  0
LINE
  5
44D6
  8
SUNPOU
  6
CONTINUOUS
 62
     4
 10
23890.549270999971
 20
19603.933729
 30
0.0
 11
23890.549270999971
 21
20333.936632000001
 31
0.0
  0
LINE
  5
44D7
  8
SUNPOU
  6
CONTINUOUS
 62
     4
 10
23132.54927099996
 20
19603.933729
 30
0.0
 11
23132.54927099996
 21
20333.936632000001
 31
0.0
  0
LINE
  5
44D8
  8
SUNPOU
  6
CONTINUOUS
 62
     4
 10
23890.549270999971
 20
20253.936632000001
 30
0.0
 11
23132.54927099996
 21
20253.936632000001
 31
0.0
  0
LINE
  5
44D9
  8
SUNPOU
  6
CONTINUOUS
 62
     4
 10
26173.04755499995
 20
19073.935443999992
 30
0.0
 11
27223.048874999949
 21
19073.935443999992
 31
0.0
  0
LINE
  5
44DA
  8
SUNPOU
  6
CONTINUOUS
 62
     4
 10
27023.048874999949
 20
19481.435443999992
 30
0.0
 11
27223.048874999949
 21
19481.435443999992
 31
0.0
  0
LINE
  5
44DB
  8
SUNPOU
  6
CONTINUOUS
 62
     4
 10
27143.048874999949
 20
19073.935443999992
 30
0.0
 11
27143.048874999949
 21
19481.435443999992
 31
0.0
  0
LINE
  5
44DC
  8
SUNPOU
  6
CONTINUOUS
 62
     4
 10
17592.047686999991
 20
18372.935443999992
 30
0.0
 11
16705.089414999991
 21
18372.935443999992
 31
0.0
  0
LINE
  5
44DD
  8
SUNPOU
  6
CONTINUOUS
 62
     4
 10
16785.089414999991
 20
18372.935443999992
 30
0.0
 11
16785.089414999991
 21
19481.435443999981
 31
0.0
  0
LINE
  5
44DE
  8
SUNPOU
  6
CONTINUOUS
 62
     4
 10
17592.047686999991
 20
18372.935443999992
 30
0.0
 11
16705.089414999991
 21
18372.935443999992
 31
0.0
  0
LINE
  5
44DF
  8
SUNPOU
  6
CONTINUOUS
 62
     4
 10
16785.089414999991
 20
16913.935443999992
 30
0.0
 11
16785.089414999991
 21
18372.935443999992
 31
0.0
  0
LINE
  5
44E0
  8
SUNPOU
  6
CONTINUOUS
 62
     4
 10
17592.047686999991
 20
15455.175955500001
 30
0.0
 11
16705.089414999991
 21
15455.175955500001
 31
0.0
  0
LINE
  5
44E1
  8
SUNPOU
  6
CONTINUOUS
 62
     4
 10
16785.089414999991
 20
15455.175955500001
 30
0.0
 11
16785.089414999991
 21
16913.935443999992
 31
0.0
  0
LINE
  5
44E2
  8
SUNPOU
  6
CONTINUOUS
 62
     4
 10
17592.047686999991
 20
15455.175955500001
 30
0.0
 11
16705.089414999991
 21
15455.175955500001
 31
0.0
  0
LINE
  5
44E3
  8
SUNPOU
  6
CONTINUOUS
 62
     4
 10
16785.089414999991
 20
13995.935443999981
 30
0.0
 11
16785.089414999991
 21
15455.175955500001
 31
0.0
  0
LINE
  5
44E4
  8
2-0
  6
CONTINUOUS
 62
     3
 10
23090.04927099996
 20
13953.43544399999
 30
0.0
 11
23175.04927099996
 21
13953.43544399999
 31
0.0
  0
LINE
  5
44E5
  8
2-0
  6
CONTINUOUS
 62
     3
 10
23175.04927099996
 20
13953.43544399999
 30
0.0
 11
23175.04927099996
 21
14038.43544399999
 31
0.0
  0
LINE
  5
44E6
  8
2-0
  6
CONTINUOUS
 62
     3
 10
23175.04927099996
 20
14038.43544399999
 30
0.0
 11
23090.04927099996
 21
14038.43544399999
 31
0.0
  0
LINE
  5
44E7
  8
2-0
  6
CONTINUOUS
 62
     3
 10
23090.04927099996
 20
14038.43544399999
 30
0.0
 11
23090.04927099996
 21
13953.43544399999
 31
0.0
  0
LINE
  5
44E8
  8
2-0
  6
CONTINUOUS
 62
     3
 10
20590.043991999992
 20
13953.43544399999
 30
0.0
 11
20675.043991999992
 21
13953.43544399999
 31
0.0
  0
LINE
  5
44E9
  8
2-0
  6
CONTINUOUS
 62
     3
 10
20675.043991999992
 20
13953.43544399999
 30
0.0
 11
20675.043991999992
 21
14038.43544399999
 31
0.0
  0
LINE
  5
44EA
  8
2-0
  6
CONTINUOUS
 62
     3
 10
20675.043991999992
 20
14038.43544399999
 30
0.0
 11
20590.043991999992
 21
14038.43544399999
 31
0.0
  0
LINE
  5
44EB
  8
2-0
  6
CONTINUOUS
 62
     3
 10
20590.043991999992
 20
14038.43544399999
 30
0.0
 11
20590.043991999992
 21
13953.43544399999
 31
0.0
  0
LINE
  5
44EC
  8
SUNPOU
  6
CONTINUOUS
 62
     4
 10
26050.54927099996
 20
13290.17200999998
 30
0.0
 11
26050.54927099996
 21
12944.487359999979
 31
0.0
  0
LINE
  5
44ED
  8
SUNPOU
  6
CONTINUOUS
 62
     4
 10
26008.047027999961
 20
13873.438148999991
 30
0.0
 11
26008.047027999961
 21
12944.487359999979
 31
0.0
  0
LINE
  5
44EE
  8
SUNPOU
  6
CONTINUOUS
 62
     4
 10
26050.54927099996
 20
13024.487359999979
 30
0.0
 11
26290.54927099996
 21
13024.487359999979
 31
0.0
  0
LINE
  5
44EF
  8
SUNPOU
  6
CONTINUOUS
 62
     4
 10
26008.047027999961
 20
13024.487359999979
 30
0.0
 11
25768.047027999961
 21
13024.487359999979
 31
0.0
  0
LINE
  5
44F0
  8
SUNPOU
  6
CONTINUOUS
 62
     4
 10
26050.54927099996
 20
13024.487359999979
 30
0.0
 11
26008.047027999961
 21
13024.487359999979
 31
0.0
  0
LINE
  5
44F1
  8
SUNPOU
  6
CONTINUOUS
 62
     4
 10
17714.543991999992
 20
13290.17200999998
 30
0.0
 11
17714.543991999992
 21
12944.487359999979
 31
0.0
  0
LINE
  5
44F2
  8
SUNPOU
  6
CONTINUOUS
 62
     4
 10
17757.04623499998
 20
13873.438148999991
 30
0.0
 11
17757.04623499998
 21
12944.487359999979
 31
0.0
  0
LINE
  5
44F3
  8
SUNPOU
  6
CONTINUOUS
 62
     4
 10
17714.543991999992
 20
13024.487359999979
 30
0.0
 11
17474.543991999992
 21
13024.487359999979
 31
0.0
  0
LINE
  5
44F4
  8
SUNPOU
  6
CONTINUOUS
 62
     4
 10
17757.04623499998
 20
13024.487359999979
 30
0.0
 11
17997.04623499998
 21
13024.487359999979
 31
0.0
  0
LINE
  5
44F5
  8
SUNPOU
  6
CONTINUOUS
 62
     4
 10
17714.543991999992
 20
13024.487359999979
 30
0.0
 11
17757.04623499998
 21
13024.487359999979
 31
0.0
  0
LINE
  5
44F6
  8
SUNPOU
  6
CONTINUOUS
 62
     4
 10
17714.543991999992
 20
13290.17200999998
 30
0.0
 11
17714.543991999992
 21
12544.487359999979
 31
0.0
  0
LINE
  5
44F7
  8
SUNPOU
  6
CONTINUOUS
 62
     4
 10
26050.54927099996
 20
13290.17200999998
 30
0.0
 11
26050.54927099996
 21
12544.487359999979
 31
0.0
  0
LINE
  5
44F8
  8
SUNPOU
  6
CONTINUOUS
 62
     4
 10
17714.543991999992
 20
12624.487359999979
 30
0.0
 11
26050.54927099996
 21
12624.487359999979
 31
0.0
  0
LINE
  5
44F9
  8
SUNPOU
  6
CONTINUOUS
 62
     4
 10
26173.047554999961
 20
14753.93544399999
 30
0.0
 11
27223.048874999949
 21
14753.93544399999
 31
0.0
  0
LINE
  5
44FA
  8
SUNPOU
  6
CONTINUOUS
 62
     4
 10
27023.048874999949
 20
13995.935443999981
 30
0.0
 11
27223.048874999949
 21
13995.935443999981
 31
0.0
  0
LINE
  5
44FB
  8
SUNPOU
  6
CONTINUOUS
 62
     4
 10
27143.048874999949
 20
14753.93544399999
 30
0.0
 11
27143.048874999949
 21
13995.935443999981
 31
0.0
  0
LINE
  5
44FC
  8
SUNPOU
  6
CONTINUOUS
 62
     4
 10
26173.047554999961
 20
15455.175955500001
 30
0.0
 11
27223.048874999949
 21
15455.175955500001
 31
0.0
  0
LINE
  5
44FD
  8
SUNPOU
  6
CONTINUOUS
 62
     4
 10
26173.047554999961
 20
14753.93544399999
 30
0.0
 11
27223.048874999949
 21
14753.93544399999
 31
0.0
  0
LINE
  5
44FE
  8
SUNPOU
  6
CONTINUOUS
 62
     4
 10
27143.048874999949
 20
15455.175955500001
 30
0.0
 11
27143.048874999949
 21
14753.93544399999
 31
0.0
  0
LINE
  5
44FF
  8
SUNPOU
  6
CONTINUOUS
 62
     4
 10
26173.047554999961
 20
16155.93544399999
 30
0.0
 11
27223.048874999949
 21
16155.93544399999
 31
0.0
  0
LINE
  5
4500
  8
SUNPOU
  6
CONTINUOUS
 62
     4
 10
26173.047554999961
 20
15455.175955500001
 30
0.0
 11
27223.048874999949
 21
15455.175955500001
 31
0.0
  0
LINE
  5
4501
  8
SUNPOU
  6
CONTINUOUS
 62
     4
 10
27143.048874999949
 20
16155.93544399999
 30
0.0
 11
27143.048874999949
 21
15455.175955500001
 31
0.0
  0
LINE
  5
4502
  8
SUNPOU
  6
CONTINUOUS
 62
     4
 10
27023.048874999949
 20
16913.935443999992
 30
0.0
 11
27223.048874999949
 21
16913.935443999992
 31
0.0
  0
LINE
  5
4503
  8
SUNPOU
  6
CONTINUOUS
 62
     4
 10
26173.047554999961
 20
16155.93544399999
 30
0.0
 11
27223.048874999949
 21
16155.93544399999
 31
0.0
  0
LINE
  5
4504
  8
SUNPOU
  6
CONTINUOUS
 62
     4
 10
27143.048874999949
 20
16913.935443999992
 30
0.0
 11
27143.048874999949
 21
16155.93544399999
 31
0.0
  0
LINE
  5
4505
  8
SUNPOU
  6
CONTINUOUS
 62
     4
 10
26173.047554999961
 20
17671.935443999992
 30
0.0
 11
27223.048874999949
 21
17671.935443999992
 31
0.0
  0
LINE
  5
4506
  8
SUNPOU
  6
CONTINUOUS
 62
     4
 10
27023.048874999949
 20
16913.935443999992
 30
0.0
 11
27223.048874999949
 21
16913.935443999992
 31
0.0
  0
LINE
  5
4507
  8
SUNPOU
  6
CONTINUOUS
 62
     4
 10
27143.048874999949
 20
17671.935443999992
 30
0.0
 11
27143.048874999949
 21
16913.935443999992
 31
0.0
  0
LINE
  5
4508
  8
SUNPOU
  6
CONTINUOUS
 62
     4
 10
26173.047554999961
 20
18372.935443999992
 30
0.0
 11
27223.048874999949
 21
18372.935443999992
 31
0.0
  0
LINE
  5
4509
  8
SUNPOU
  6
CONTINUOUS
 62
     4
 10
26173.047554999961
 20
17671.935443999992
 30
0.0
 11
27223.048874999949
 21
17671.935443999992
 31
0.0
  0
LINE
  5
450A
  8
SUNPOU
  6
CONTINUOUS
 62
     4
 10
27143.048874999949
 20
18372.935443999992
 30
0.0
 11
27143.048874999949
 21
17671.935443999992
 31
0.0
  0
LINE
  5
450B
  8
SUNPOU
  6
CONTINUOUS
 62
     4
 10
26173.047554999961
 20
19073.935443999992
 30
0.0
 11
27223.048874999949
 21
19073.935443999992
 31
0.0
  0
LINE
  5
450C
  8
SUNPOU
  6
CONTINUOUS
 62
     4
 10
26173.047554999961
 20
18372.935443999992
 30
0.0
 11
27223.048874999949
 21
18372.935443999992
 31
0.0
  0
LINE
  5
450D
  8
SUNPOU
  6
CONTINUOUS
 62
     4
 10
27143.048874999949
 20
19073.935443999992
 30
0.0
 11
27143.048874999949
 21
18372.935443999992
 31
0.0
  0
LINE
  5
450E
  8
SUNPOU
  6
CONTINUOUS
 62
     4
 10
27023.048874999949
 20
16913.935443999992
 30
0.0
 11
27623.04887499996
 21
16913.935443999992
 31
0.0
  0
LINE
  5
450F
  8
SUNPOU
  6
CONTINUOUS
 62
     4
 10
27023.048874999949
 20
19481.435443999981
 30
0.0
 11
27623.04887499996
 21
19481.435443999981
 31
0.0
  0
LINE
  5
4510
  8
SUNPOU
  6
CONTINUOUS
 62
     4
 10
27543.04887499996
 20
16913.935443999992
 30
0.0
 11
27543.04887499996
 21
19481.435443999981
 31
0.0
  0
LINE
  5
4511
  8
SUNPOU
  6
CONTINUOUS
 62
     4
 10
27023.048874999949
 20
13995.935443999981
 30
0.0
 11
27623.04887499996
 21
13995.935443999981
 31
0.0
  0
LINE
  5
4512
  8
SUNPOU
  6
CONTINUOUS
 62
     4
 10
27023.048874999949
 20
16913.935443999992
 30
0.0
 11
27623.04887499996
 21
16913.935443999992
 31
0.0
  0
LINE
  5
4513
  8
SUNPOU
  6
CONTINUOUS
 62
     4
 10
27543.04887499996
 20
13995.935443999981
 30
0.0
 11
27543.04887499996
 21
16913.935443999992
 31
0.0
  0
LINE
  5
4514
  8
SUNPOU
  6
CONTINUOUS
 62
     4
 10
26173.047554999961
 20
19523.932738999982
 30
0.0
 11
28023.04887499996
 21
19523.932738999982
 31
0.0
  0
LINE
  5
4515
  8
SUNPOU
  6
CONTINUOUS
 62
     4
 10
26173.047554999961
 20
13953.438148999991
 30
0.0
 11
28023.04887499996
 21
13953.438148999991
 31
0.0
  0
LINE
  5
4516
  8
SUNPOU
  6
CONTINUOUS
 62
     4
 10
27943.04887499996
 20
19523.932738999982
 30
0.0
 11
27943.04887499996
 21
13953.438148999991
 31
0.0
  0
LINE
  5
4517
  8
SUNPOU
  6
CONTINUOUS
 62
     4
 10
27023.048874999949
 20
19481.435443999981
 30
0.0
 11
27623.04887499996
 21
19481.435443999981
 31
0.0
  0
LINE
  5
4518
  8
SUNPOU
  6
CONTINUOUS
 62
     4
 10
26173.047554999961
 20
19523.932738999982
 30
0.0
 11
27623.04887499996
 21
19523.932738999982
 31
0.0
  0
LINE
  5
4519
  8
SUNPOU
  6
CONTINUOUS
 62
     4
 10
27543.04887499996
 20
19481.435443999981
 30
0.0
 11
27543.04887499996
 21
19241.435443999981
 31
0.0
  0
LINE
  5
451A
  8
SUNPOU
  6
CONTINUOUS
 62
     4
 10
27543.04887499996
 20
19523.932738999982
 30
0.0
 11
27543.04887499996
 21
19763.932738999989
 31
0.0
  0
LINE
  5
451B
  8
SUNPOU
  6
CONTINUOUS
 62
     4
 10
27543.04887499996
 20
19481.435443999981
 30
0.0
 11
27543.04887499996
 21
19523.932738999982
 31
0.0
  0
LINE
  5
451C
  8
SUNPOU
  6
CONTINUOUS
 62
     4
 10
27023.048874999949
 20
13995.935443999981
 30
0.0
 11
27623.04887499996
 21
13995.935443999981
 31
0.0
  0
LINE
  5
451D
  8
SUNPOU
  6
CONTINUOUS
 62
     4
 10
26173.047554999961
 20
13953.438148999991
 30
0.0
 11
27623.04887499996
 21
13953.438148999991
 31
0.0
  0
LINE
  5
451E
  8
SUNPOU
  6
CONTINUOUS
 62
     4
 10
27543.04887499996
 20
13995.935443999981
 30
0.0
 11
27543.04887499996
 21
14235.93544399999
 31
0.0
  0
LINE
  5
451F
  8
SUNPOU
  6
CONTINUOUS
 62
     4
 10
27543.04887499996
 20
13953.438148999991
 30
0.0
 11
27543.04887499996
 21
13713.438148999991
 31
0.0
  0
LINE
  5
4520
  8
SUNPOU
  6
CONTINUOUS
 62
     4
 10
27543.04887499996
 20
13995.935443999981
 30
0.0
 11
27543.04887499996
 21
13953.438148999991
 31
0.0
  0
LINE
  5
4521
  8
SUNPOU
  6
CONTINUOUS
 62
     4
 10
20632.544981499999
 20
19603.933729
 30
0.0
 11
20632.544981499999
 21
20333.936632000001
 31
0.0
  0
LINE
  5
4522
  8
SUNPOU
  6
CONTINUOUS
 62
     4
 10
23132.54927099996
 20
19603.933729
 30
0.0
 11
23132.54927099996
 21
20333.936632000001
 31
0.0
  0
LINE
  5
4523
  8
SUNPOU
  6
CONTINUOUS
 62
     4
 10
20632.544981499999
 20
20253.936632000001
 30
0.0
 11
23132.54927099996
 21
20253.936632000001
 31
0.0
  0
LINE
  5
4524
  8
SUNPOU
  6
CONTINUOUS
 62
     4
 10
25292.54927099996
 20
19603.933729
 30
0.0
 11
25292.54927099996
 21
20333.936632000001
 31
0.0
  0
LINE
  5
4525
  8
SUNPOU
  6
CONTINUOUS
 62
     4
 10
26050.55026049996
 20
19603.933729
 30
0.0
 11
26050.55026049996
 21
20333.936632000001
 31
0.0
  0
LINE
  5
4526
  8
SUNPOU
  6
CONTINUOUS
 62
     4
 10
25292.54927099996
 20
20253.936632000001
 30
0.0
 11
26050.55026049996
 21
20253.936632000001
 31
0.0
  0
LINE
  5
4527
  8
SUNPOU
  6
CONTINUOUS
 62
     4
 10
24591.54927099996
 20
19603.933729
 30
0.0
 11
24591.54927099996
 21
20333.936632000001
 31
0.0
  0
LINE
  5
4528
  8
SUNPOU
  6
CONTINUOUS
 62
     4
 10
25292.54927099996
 20
19603.933729
 30
0.0
 11
25292.54927099996
 21
20333.936632000001
 31
0.0
  0
LINE
  5
4529
  8
SUNPOU
  6
CONTINUOUS
 62
     4
 10
24591.54927099996
 20
20253.936632000001
 30
0.0
 11
25292.54927099996
 21
20253.936632000001
 31
0.0
  0
LINE
  5
452A
  8
SUNPOU
  6
CONTINUOUS
 62
     4
 10
23890.549270999971
 20
19603.933729
 30
0.0
 11
23890.549270999971
 21
20333.936632000001
 31
0.0
  0
LINE
  5
452B
  8
SUNPOU
  6
CONTINUOUS
 62
     4
 10
24591.54927099996
 20
19603.933729
 30
0.0
 11
24591.54927099996
 21
20333.936632000001
 31
0.0
  0
LINE
  5
452C
  8
SUNPOU
  6
CONTINUOUS
 62
     4
 10
23890.549270999971
 20
20253.936632000001
 30
0.0
 11
24591.54927099996
 21
20253.936632000001
 31
0.0
  0
LINE
  5
452D
  8
SUNPOU
  6
CONTINUOUS
 62
     4
 10
26050.54927099996
 20
19603.933729
 30
0.0
 11
26050.54927099996
 21
20333.936632000001
 31
0.0
  0
LINE
  5
452E
  8
SUNPOU
  6
CONTINUOUS
 62
     4
 10
26093.04557599996
 20
19603.933729
 30
0.0
 11
26093.04557599996
 21
20333.936632000001
 31
0.0
  0
LINE
  5
452F
  8
SUNPOU
  6
CONTINUOUS
 62
     4
 10
26050.54927099996
 20
20253.936632000001
 30
0.0
 11
25810.54927099996
 21
20253.936632000001
 31
0.0
  0
LINE
  5
4530
  8
SUNPOU
  6
CONTINUOUS
 62
     4
 10
26093.04557599996
 20
20253.936632000001
 30
0.0
 11
26333.04557599996
 21
20253.936632000001
 31
0.0
  0
LINE
  5
4531
  8
SUNPOU
  6
CONTINUOUS
 62
     4
 10
26050.54927099996
 20
20253.936632000001
 30
0.0
 11
26093.04557599996
 21
20253.936632000001
 31
0.0
  0
LINE
  5
4532
  8
SUNPOU
  6
CONTINUOUS
 62
     4
 10
17714.543991999992
 20
19603.933729
 30
0.0
 11
17714.543991999992
 21
20333.936632000001
 31
0.0
  0
LINE
  5
4533
  8
SUNPOU
  6
CONTINUOUS
 62
     4
 10
17672.047686999991
 20
19603.933729
 30
0.0
 11
17672.047686999991
 21
20333.936632000001
 31
0.0
  0
LINE
  5
4534
  8
SUNPOU
  6
CONTINUOUS
 62
     4
 10
17714.543991999992
 20
20253.936632000001
 30
0.0
 11
17954.543991999992
 21
20253.936632000001
 31
0.0
  0
LINE
  5
4535
  8
SUNPOU
  6
CONTINUOUS
 62
     4
 10
17672.047686999991
 20
20253.936632000001
 30
0.0
 11
17432.047686999991
 21
20253.936632000001
 31
0.0
  0
LINE
  5
4536
  8
SUNPOU
  6
CONTINUOUS
 62
     4
 10
17714.543991999992
 20
20253.936632000001
 30
0.0
 11
17672.047686999991
 21
20253.936632000001
 31
0.0
  0
LINE
  5
4537
  8
SUNPOU
  6
CONTINUOUS
 62
     4
 10
19874.543991999992
 20
19603.933729
 30
0.0
 11
19874.543991999992
 21
20333.936632000001
 31
0.0
  0
LINE
  5
4538
  8
SUNPOU
  6
CONTINUOUS
 62
     4
 10
20632.544981499999
 20
19603.933729
 30
0.0
 11
20632.544981499999
 21
20333.936632000001
 31
0.0
  0
LINE
  5
4539
  8
SUNPOU
  6
CONTINUOUS
 62
     4
 10
19874.543991999992
 20
20253.936632000001
 30
0.0
 11
20632.544981499999
 21
20253.936632000001
 31
0.0
  0
LINE
  5
453A
  8
SUNPOU
  6
CONTINUOUS
 62
     4
 10
19173.543991999992
 20
19603.933729
 30
0.0
 11
19173.543991999992
 21
20333.936632000001
 31
0.0
  0
LINE
  5
453B
  8
SUNPOU
  6
CONTINUOUS
 62
     4
 10
19874.543991999992
 20
19603.933729
 30
0.0
 11
19874.543991999992
 21
20333.936632000001
 31
0.0
  0
LINE
  5
453C
  8
SUNPOU
  6
CONTINUOUS
 62
     4
 10
19173.543991999992
 20
20253.936632000001
 30
0.0
 11
19874.543991999992
 21
20253.936632000001
 31
0.0
  0
LINE
  5
453D
  8
SUNPOU
  6
CONTINUOUS
 62
     4
 10
18472.543991999992
 20
19603.933729
 30
0.0
 11
18472.543991999992
 21
20333.936632000001
 31
0.0
  0
LINE
  5
453E
  8
SUNPOU
  6
CONTINUOUS
 62
     4
 10
19173.543991999992
 20
19603.933729
 30
0.0
 11
19173.543991999992
 21
20333.936632000001
 31
0.0
  0
LINE
  5
453F
  8
SUNPOU
  6
CONTINUOUS
 62
     4
 10
18472.543991999992
 20
20253.936632000001
 30
0.0
 11
19173.543991999992
 21
20253.936632000001
 31
0.0
  0
LINE
  5
4540
  8
SUNPOU
  6
CONTINUOUS
 62
     4
 10
17584.543333000001
 20
5884.5023850000016
 30
0.0
 11
16784.54465199999
 21
5884.5023850000016
 31
0.0
  0
LINE
  5
4541
  8
SUNPOU
  6
CONTINUOUS
 62
     4
 10
17584.543333000001
 20
7776.0023850000016
 30
0.0
 11
16784.54465199999
 21
7776.0023850000016
 31
0.0
  0
LINE
  5
4542
  8
SUNPOU
  6
CONTINUOUS
 62
     4
 10
16864.54465199999
 20
5884.5023850000016
 30
0.0
 11
16864.54465199999
 21
7776.0023850000016
 31
0.0
  0
LINE
  5
4543
  8
SUNPOU
  6
CONTINUOUS
 62
     4
 10
17584.543333000001
 20
5884.5023850000016
 30
0.0
 11
16384.54234299999
 21
5884.5023850000016
 31
0.0
  0
LINE
  5
4544
  8
SUNPOU
  6
CONTINUOUS
 62
     4
 10
17552.043596999982
 20
8233.0018899999941
 30
0.0
 11
16384.54234299999
 21
8233.0018899999941
 31
0.0
  0
LINE
  5
4545
  8
SUNPOU
  6
CONTINUOUS
 62
     4
 10
16464.54234299999
 20
5884.5023850000016
 30
0.0
 11
16464.54234299999
 21
8233.0018899999941
 31
0.0
  0
LINE
  5
4556
  8
SUNPOU
  6
CONTINUOUS
 62
     4
 10
17808.543991999992
 20
5704.5025500000083
 30
0.0
 11
17808.543991999992
 21
4904.5025500000093
 31
0.0
  0
LINE
  5
4557
  8
SUNPOU
  6
CONTINUOUS
 62
     4
 10
20538.543991999992
 20
5704.5025500000083
 30
0.0
 11
20538.543991999992
 21
4904.5025500000093
 31
0.0
  0
LINE
  5
4558
  8
SUNPOU
  6
CONTINUOUS
 62
     4
 10
17808.543991999992
 20
4984.5025500000093
 30
0.0
 11
20538.543991999992
 21
4984.5025500000093
 31
0.0
  0
LINE
  5
4559
  8
SUNPOU
  6
CONTINUOUS
 62
     4
 10
23226.54927099996
 20
5704.5025500000083
 30
0.0
 11
23226.54927099996
 21
4904.5025500000093
 31
0.0
  0
LINE
  5
455A
  8
SUNPOU
  6
CONTINUOUS
 62
     4
 10
25956.54927099996
 20
5704.5025500000083
 30
0.0
 11
25956.54927099996
 21
4904.5025500000093
 31
0.0
  0
LINE
  5
455B
  8
SUNPOU
  6
CONTINUOUS
 62
     4
 10
23226.54927099996
 20
4984.5025500000093
 30
0.0
 11
25956.54927099996
 21
4984.5025500000093
 31
0.0
  0
LINE
  5
455C
  8
SUNPOU
  6
CONTINUOUS
 62
     4
 10
23132.54927099996
 20
5441.8501270000033
 30
0.0
 11
23132.54927099996
 21
4504.5025500000047
 31
0.0
  0
LINE
  5
455D
  8
SUNPOU
  6
CONTINUOUS
 62
     4
 10
26050.54927099996
 20
5441.8501270000033
 30
0.0
 11
26050.54927099996
 21
4504.5025500000047
 31
0.0
  0
LINE
  5
455E
  8
SUNPOU
  6
CONTINUOUS
 62
     4
 10
23132.54927099996
 20
4584.5025500000056
 30
0.0
 11
26050.54927099996
 21
4584.5025500000056
 31
0.0
  0
LINE
  5
455F
  8
SUNPOU
  6
CONTINUOUS
 62
     4
 10
20632.543991999992
 20
5441.8501270000033
 30
0.0
 11
20632.543991999992
 21
4504.5025500000047
 31
0.0
  0
LINE
  5
4560
  8
SUNPOU
  6
CONTINUOUS
 62
     4
 10
23132.54927099996
 20
5441.8501270000033
 30
0.0
 11
23132.54927099996
 21
4504.5025500000047
 31
0.0
  0
LINE
  5
4561
  8
SUNPOU
  6
CONTINUOUS
 62
     4
 10
20632.543991999992
 20
4584.5025500000056
 30
0.0
 11
23132.54927099996
 21
4584.5025500000056
 31
0.0
  0
LINE
  5
4562
  8
SUNPOU
  6
CONTINUOUS
 62
     4
 10
17714.543991999992
 20
5441.8501270000033
 30
0.0
 11
17714.543991999992
 21
4504.5025500000047
 31
0.0
  0
LINE
  5
4563
  8
SUNPOU
  6
CONTINUOUS
 62
     4
 10
20632.543991999992
 20
5441.8501270000033
 30
0.0
 11
20632.543991999992
 21
4504.5025500000047
 31
0.0
  0
LINE
  5
4564
  8
SUNPOU
  6
CONTINUOUS
 62
     4
 10
17714.543991999992
 20
4584.5025500000056
 30
0.0
 11
20632.543991999992
 21
4584.5025500000056
 31
0.0
  0
LINE
  5
4565
  8
SUNPOU
  6
CONTINUOUS
 62
     4
 10
26050.553229999961
 20
5441.8501270000033
 30
0.0
 11
26050.553229999961
 21
4504.5025500000047
 31
0.0
  0
LINE
  5
4566
  8
SUNPOU
  6
CONTINUOUS
 62
     4
 10
26093.05322999998
 20
5704.5025500000083
 30
0.0
 11
26093.05322999998
 21
4504.5025500000047
 31
0.0
  0
LINE
  5
4567
  8
SUNPOU
  6
CONTINUOUS
 62
     4
 10
26050.553229999961
 20
4584.5025500000056
 30
0.0
 11
25810.553229999961
 21
4584.5025500000056
 31
0.0
  0
LINE
  5
4568
  8
SUNPOU
  6
CONTINUOUS
 62
     4
 10
26093.05322999998
 20
4584.5025500000056
 30
0.0
 11
26333.053229999969
 21
4584.5025500000056
 31
0.0
  0
LINE
  5
4569
  8
SUNPOU
  6
CONTINUOUS
 62
     4
 10
26050.553229999961
 20
4584.5025500000056
 30
0.0
 11
26093.05322999998
 21
4584.5025500000056
 31
0.0
  0
LINE
  5
456A
  8
SUNPOU
  6
CONTINUOUS
 62
     4
 10
17714.543991999992
 20
5441.8501270000033
 30
0.0
 11
17714.543991999992
 21
4504.5025500000047
 31
0.0
  0
LINE
  5
456B
  8
SUNPOU
  6
CONTINUOUS
 62
     4
 10
17672.043991999992
 20
5704.5025500000083
 30
0.0
 11
17672.043991999992
 21
4504.5025500000047
 31
0.0
  0
LINE
  5
456C
  8
SUNPOU
  6
CONTINUOUS
 62
     4
 10
17714.543991999992
 20
4584.5025500000056
 30
0.0
 11
17954.543991999992
 21
4584.5025500000056
 31
0.0
  0
LINE
  5
456D
  8
SUNPOU
  6
CONTINUOUS
 62
     4
 10
17672.043991999992
 20
4584.5025500000056
 30
0.0
 11
17432.043991999992
 21
4584.5025500000056
 31
0.0
  0
LINE
  5
456E
  8
SUNPOU
  6
CONTINUOUS
 62
     4
 10
17714.543991999992
 20
4584.5025500000056
 30
0.0
 11
17672.043991999992
 21
4584.5025500000056
 31
0.0
  0
LINE
  5
456F
  8
SUNPOU
  6
CONTINUOUS
 62
     4
 10
17672.043991999992
 20
5704.5025500000083
 30
0.0
 11
17672.043991999992
 21
4104.5027150000033
 31
0.0
  0
LINE
  5
4570
  8
SUNPOU
  6
CONTINUOUS
 62
     4
 10
26093.04927099996
 20
5704.5025500000083
 30
0.0
 11
26093.04927099996
 21
4104.5027150000033
 31
0.0
  0
LINE
  5
4571
  8
SUNPOU
  6
CONTINUOUS
 62
     4
 10
17672.043991999992
 20
4184.5027150000033
 30
0.0
 11
26093.04927099996
 21
4184.5027150000033
 31
0.0
  0
LINE
  5
4572
  8
SUNPOU
  6
CONTINUOUS
 62
     4
 10
6656.1481469999999
 20
7991.688655683809
 30
0.0
 11
6656.1481469999999
 21
9112.5045560000017
 31
0.0
  0
LINE
  5
4573
  8
SUNPOU
  6
CONTINUOUS
 62
     4
 10
6476.1481469999999
 20
8121.5028800000064
 30
0.0
 11
6476.1481469999999
 21
9112.5045560000017
 31
0.0
  0
LINE
  5
4574
  8
SUNPOU
  6
CONTINUOUS
 62
     4
 10
6656.1481469999999
 20
9032.5045560000017
 30
0.0
 11
6476.1481469999999
 21
9032.5045560000017
 31
0.0
  0
LINE
  5
4575
  8
SUNPOU
  6
CONTINUOUS
 62
     4
 10
12319.148147
 20
5884.5028800000018
 30
0.0
 11
13396.64656299998
 21
5884.5028800000018
 31
0.0
  0
LINE
  5
4576
  8
SUNPOU
  6
CONTINUOUS
 62
     4
 10
12411.45342659937
 20
8233.0028800000018
 30
0.0
 11
13396.64656299998
 21
8233.0028800000018
 31
0.0
  0
LINE
  5
4577
  8
SUNPOU
  6
CONTINUOUS
 62
     4
 10
13316.64656299998
 20
5884.5028800000018
 30
0.0
 11
13316.64656299998
 21
8233.0028800000018
 31
0.0
  0
LINE
  5
4578
  8
SUNPOU
  6
CONTINUOUS
 62
     4
 10
6568.6481470000008
 20
5884.5028800000018
 30
0.0
 11
5486.1497290000079
 21
5884.5028800000018
 31
0.0
  0
LINE
  5
4579
  8
SUNPOU
  6
CONTINUOUS
 62
     4
 10
6396.1501250000038
 20
8040.5028800000027
 30
0.0
 11
5486.1497290000079
 21
8040.5028800000073
 31
0.0
  0
LINE
  5
457A
  8
SUNPOU
  6
CONTINUOUS
 62
     4
 10
5566.149729000007
 20
5884.5028800000018
 30
0.0
 11
5566.1497290000088
 21
8040.5028800000073
 31
0.0
  0
LINE
  5
457B
  8
SUNPOU
  6
CONTINUOUS
 62
     4
 10
6476.1481469999999
 20
8121.5028800000064
 30
0.0
 11
6476.1481469999999
 21
9512.5029059999997
 31
0.0
  0
LINE
  5
457C
  8
SUNPOU
  6
CONTINUOUS
 62
     4
 10
12376.648147
 20
8253.3927034124335
 30
0.0
 11
12376.648147
 21
9512.5029059999997
 31
0.0
  0
LINE
  5
457D
  8
SUNPOU
  6
CONTINUOUS
 62
     4
 10
6476.1481469999999
 20
9432.5029060000015
 30
0.0
 11
12376.648147
 21
9432.5029060000015
 31
0.0
  0
LINE
  5
457E
  8
SUNPOU
  6
CONTINUOUS
 62
     4
 10
12226.648147
 20
8179.4129440000024
 30
0.0
 11
12226.648147
 21
9112.5045560000017
 31
0.0
  0
LINE
  5
457F
  8
SUNPOU
  6
CONTINUOUS
 62
     4
 10
12376.648147
 20
8253.3927034124335
 30
0.0
 11
12376.648147
 21
9112.5045560000017
 31
0.0
  0
LINE
  5
4580
  8
SUNPOU
  6
CONTINUOUS
 62
     4
 10
12226.648147
 20
9032.5045560000017
 30
0.0
 11
11986.648147
 21
9032.5045560000017
 31
0.0
  0
LINE
  5
4581
  8
SUNPOU
  6
CONTINUOUS
 62
     4
 10
12376.648147
 20
9032.5045560000017
 30
0.0
 11
12616.648147
 21
9032.5045560000017
 31
0.0
  0
LINE
  5
4582
  8
SUNPOU
  6
CONTINUOUS
 62
     4
 10
12226.648147
 20
9032.5045560000017
 30
0.0
 11
12376.648147
 21
9032.5045560000017
 31
0.0
  0
LINE
  5
4583
  8
SUNPOU
  6
CONTINUOUS
 62
     4
 10
6656.1481469999999
 20
7991.688655683809
 30
0.0
 11
6656.1481469999999
 21
9112.5045560000017
 31
0.0
  0
LINE
  5
4584
  8
SUNPOU
  6
CONTINUOUS
 62
     4
 10
12226.648147
 20
8179.4129440000024
 30
0.0
 11
12226.648147
 21
9112.5045560000017
 31
0.0
  0
LINE
  5
4585
  8
SUNPOU
  6
CONTINUOUS
 62
     4
 10
6656.1481469999999
 20
9032.5045560000017
 30
0.0
 11
12226.648147
 21
9032.5045560000017
 31
0.0
  0
LINE
  5
4586
  8
SUNPOU
  6
CONTINUOUS
 62
     4
 10
6656.1481469999999
 20
5804.5028800000036
 30
0.0
 11
6656.1481469999999
 21
4104.5032100000062
 31
0.0
  0
LINE
  5
4587
  8
SUNPOU
  6
CONTINUOUS
 62
     4
 10
12226.648147
 20
5804.5028800000036
 30
0.0
 11
12226.648147
 21
4104.5032100000062
 31
0.0
  0
LINE
  5
4588
  8
SUNPOU
  6
CONTINUOUS
 62
     4
 10
6656.1481469999999
 20
4184.5032100000053
 30
0.0
 11
12226.648147
 21
4184.5032100000053
 31
0.0
  0
LINE
  5
4589
  8
SUNPOU
  6
CONTINUOUS
 62
     4
 10
12184.148147
 20
5441.8506220000036
 30
0.0
 11
12184.148147
 21
4504.5030450000031
 31
0.0
  0
LINE
  5
458A
  8
SUNPOU
  6
CONTINUOUS
 62
     4
 10
12226.648147
 20
5804.5028800000036
 30
0.0
 11
12226.648147
 21
4504.5030450000031
 31
0.0
  0
LINE
  5
458B
  8
SUNPOU
  6
CONTINUOUS
 62
     4
 10
12184.148147
 20
4584.5030450000031
 30
0.0
 11
11944.148146999991
 21
4584.5030450000031
 31
0.0
  0
LINE
  5
458C
  8
SUNPOU
  6
CONTINUOUS
 62
     4
 10
12226.648147
 20
4584.5030450000031
 30
0.0
 11
12466.648147
 21
4584.5030450000031
 31
0.0
  0
LINE
  5
458D
  8
SUNPOU
  6
CONTINUOUS
 62
     4
 10
12184.148147
 20
4584.5030450000031
 30
0.0
 11
12226.648147
 21
4584.5030450000031
 31
0.0
  0
LINE
  5
458E
  8
SUNPOU
  6
CONTINUOUS
 62
     4
 10
6698.6481469999999
 20
5441.8506220000036
 30
0.0
 11
6698.6481469999999
 21
4504.5030450000031
 31
0.0
  0
LINE
  5
458F
  8
SUNPOU
  6
CONTINUOUS
 62
     4
 10
6656.1481469999999
 20
5804.5028800000036
 30
0.0
 11
6656.1481469999999
 21
4504.5030450000031
 31
0.0
  0
LINE
  5
4590
  8
SUNPOU
  6
CONTINUOUS
 62
     4
 10
6698.6481469999999
 20
4584.5030450000031
 30
0.0
 11
6938.6481470000008
 21
4584.5030450000031
 31
0.0
  0
LINE
  5
4591
  8
SUNPOU
  6
CONTINUOUS
 62
     4
 10
6656.1481469999999
 20
4584.5030450000031
 30
0.0
 11
6416.1481469999999
 21
4584.5030450000031
 31
0.0
  0
LINE
  5
4592
  8
SUNPOU
  6
CONTINUOUS
 62
     4
 10
6698.6481469999999
 20
4584.5030450000031
 30
0.0
 11
6656.1481469999999
 21
4584.5030450000031
 31
0.0
  0
LINE
  5
4593
  8
SUNPOU
  6
CONTINUOUS
 62
     4
 10
9266.1481469999999
 20
5441.8506220000036
 30
0.0
 11
9266.1481469999999
 21
4504.5030450000031
 31
0.0
  0
LINE
  5
4594
  8
SUNPOU
  6
CONTINUOUS
 62
     4
 10
6698.6481469999999
 20
5441.8506220000036
 30
0.0
 11
6698.6481469999999
 21
4504.5030450000031
 31
0.0
  0
LINE
  5
4595
  8
SUNPOU
  6
CONTINUOUS
 62
     4
 10
9266.1481469999999
 20
4584.5030450000031
 30
0.0
 11
6698.6481469999999
 21
4584.5030450000031
 31
0.0
  0
LINE
  5
4596
  8
SUNPOU
  6
CONTINUOUS
 62
     4
 10
9266.1481469999999
 20
5441.8506220000036
 30
0.0
 11
9266.1481469999999
 21
4504.5030450000031
 31
0.0
  0
LINE
  5
4597
  8
SUNPOU
  6
CONTINUOUS
 62
     4
 10
12184.148147
 20
5441.8506220000036
 30
0.0
 11
12184.148147
 21
4504.5030450000031
 31
0.0
  0
LINE
  5
4598
  8
SUNPOU
  6
CONTINUOUS
 62
     4
 10
9266.1481469999999
 20
4584.5030450000031
 30
0.0
 11
12184.148147
 21
4584.5030450000031
 31
0.0
  0
LINE
  5
4599
  8
0
  6
CONTINUOUS
 10
27320.61169951249
 20
4013.2342825977748
 30
0.0
 11
32662.906701964599
 21
4013.2342825977748
 31
0.0
  0
LINE
  5
459A
  8
0
  6
CONTINUOUS
 10
32662.906701964599
 20
4013.2342825977748
 30
0.0
 11
32662.906701964599
 21
2658.9883116968108
 31
0.0
  0
LINE
  5
459B
  8
0
  6
CONTINUOUS
 10
32662.906701964599
 20
2658.9883116968108
 30
0.0
 11
27320.61169951249
 21
2658.9883116968108
 31
0.0
  0
LINE
  5
459C
  8
0
  6
CONTINUOUS
 10
27320.61169951249
 20
2658.9883116968108
 30
0.0
 11
27320.61169951249
 21
4013.2342825977748
 31
0.0
  0
TEXT
  5
459D
  8
0
  6
CONTINUOUS
 62
     7
 10
10458.48148033333
 20
4664.5030450000022
 30
0.0
 40
160.0
  1
2918
  0
TEXT
  5
459E
  8
0
  6
CONTINUOUS
 62
     7
 10
7582.3981470000008
 20
4664.5030450000022
 30
0.0
 40
160.0
  1
2567.5
  0
TEXT
  5
459F
  8
0
  6
CONTINUOUS
 62
     7
 10
6058.974437903692
 20
4664.5030450000022
 30
0.0
 40
160.0
  1
42.5
  0
TEXT
  5
45A0
  8
0
  6
CONTINUOUS
 62
     7
 10
12364.96678430982
 20
4664.5030450000022
 30
0.0
 40
160.0
  1
42.5
  0
TEXT
  5
45A1
  8
0
  6
CONTINUOUS
 62
     7
 10
9054.731480333332
 20
4264.5032100000053
 30
0.0
 40
160.0
  1
5570.5
  0
TEXT
  5
45A2
  8
0
  6
CONTINUOUS
 62
     7
 10
9054.731480333332
 20
9112.5045560000017
 30
0.0
 40
160.0
  1
5570.5
  0
TEXT
  5
45A3
  8
0
  6
CONTINUOUS
 62
     7
 10
12443.31481366666
 20
9112.5045560000017
 30
0.0
 40
160.0
  1
150
  0
TEXT
  5
45A4
  8
0
  6
CONTINUOUS
 62
     7
 10
9053.0648136666623
 20
9512.5029059999997
 30
0.0
 40
160.0
  1
5900.5
  0
TEXT
  5
45A5
  8
0
  6
CONTINUOUS
 62
     7
 10
5486.1497290000061
 20
6183.8362133333367
 30
0.0
 40
160.0
  1
2156（2396）
 50
90.0
  0
TEXT
  5
45A6
  8
0
  6
CONTINUOUS
 62
     7
 10
13236.64656299998
 20
6040.0862133333376
 30
0.0
 40
160.0
  1
2348.5（2588.5）
 50
90.0
  0
TEXT
  5
45A7
  8
0
  6
CONTINUOUS
 62
     7
 10
6015.1947763486342
 20
9112.5045560000017
 30
0.0
 40
160.0
  1
180
  0
TEXT
  5
45A8
  8
0
  6
CONTINUOUS
 62
     7
 10
20975.879964833312
 20
4264.5027150000033
 30
0.0
 40
160.0
  1
2918 \U+00D7 ｎ ＋ 85
  0
TEXT
  5
45A9
  8
0
  6
CONTINUOUS
 62
     7
 10
17106.005001741141
 20
4664.5025500000074
 30
0.0
 40
160.0
  1
42.5
  0
TEXT
  5
45AA
  8
0
  6
CONTINUOUS
 62
     7
 10
26179.092220258819
 20
4664.5025500000074
 30
0.0
 40
160.0
  1
42.5
  0
TEXT
  5
45AB
  8
0
  6
CONTINUOUS
 62
     7
 10
18906.877325333309
 20
4664.5025500000074
 30
0.0
 40
160.0
  1
2918
  0
TEXT
  5
45AC
  8
0
  6
CONTINUOUS
 62
     7
 10
20911.879964833312
 20
4664.5025500000074
 30
0.0
 40
160.0
  1
2918 \U+00D7（ｎ － 2）
  0
TEXT
  5
45AD
  8
0
  6
CONTINUOUS
 62
     7
 10
24324.882604333288
 20
4664.5025500000074
 30
0.0
 40
160.0
  1
2918
  0
TEXT
  5
45AE
  8
0
  6
CONTINUOUS
 62
     7
 10
23783.54927099996
 20
5064.5025500000102
 30
0.0
 40
160.0
  1
有効開口巾 2730
  0
TEXT
  5
45AF
  8
0
  6
CONTINUOUS
 62
     7
 10
18365.543991999992
 20
5064.5025500000102
 30
0.0
 40
160.0
  1
有効開口巾 2730
  0
TEXT
  5
45B4
  8
0
  6
CONTINUOUS
 62
     7
 10
16384.54234299999
 20
6040.0854708333363
 30
0.0
 40
160.0
  1
2348.5（2588.5）
 50
90.0
  0
TEXT
  5
45B5
  8
0
  6
CONTINUOUS
 62
     7
 10
16784.54465199999
 20
5948.4816232912772
 30
0.0
 40
160.0
  1
有効開口高サ 1891.5
 50
90.0
  0
TEXT
  5
45B6
  8
0
  6
CONTINUOUS
 62
     7
 10
18649.710658666649
 20
20333.936632000001
 30
0.0
 40
160.0
  1
701
  0
TEXT
  5
45B7
  8
0
  6
CONTINUOUS
 62
     7
 10
19350.71065866666
 20
20333.936632000001
 30
0.0
 40
160.0
  1
701
  0
TEXT
  5
45B8
  8
0
  6
CONTINUOUS
 62
     7
 10
20040.211153416669
 20
20333.936632000001
 30
0.0
 40
160.0
  1
758
  0
TEXT
  5
45B9
  8
0
  6
CONTINUOUS
 62
     7
 10
17111.732012471191
 20
20333.936632000001
 30
0.0
 40
160.0
  1
42.5
  0
TEXT
  5
45BA
  8
0
  6
CONTINUOUS
 62
     7
 10
26173.361250528771
 20
20333.936632000001
 30
0.0
 40
160.0
  1
42.5
  0
TEXT
  5
45BB
  8
0
  6
CONTINUOUS
 62
     7
 10
24067.715937666639
 20
20333.936632000001
 30
0.0
 40
160.0
  1
701
  0
TEXT
  5
45BC
  8
0
  6
CONTINUOUS
 62
     7
 10
24768.715937666631
 20
20333.936632000001
 30
0.0
 40
160.0
  1
701
  0
TEXT
  5
45BD
  8
0
  6
CONTINUOUS
 62
     7
 10
25458.216432416641
 20
20333.936632000001
 30
0.0
 40
160.0
  1
758
  0
TEXT
  5
45BE
  8
0
  6
CONTINUOUS
 62
     7
 10
20911.880459583321
 20
20333.936632000001
 30
0.0
 40
160.0
  1
2918 \U+00D7（ｎ － 2）
  0
TEXT
  5
45BF
  8
0
  6
CONTINUOUS
 62
     7
 10
27463.04887499996
 20
13379.88191260319
 30
0.0
 40
160.0
  1
42.5
 50
90.0
  0
TEXT
  5
45C0
  8
0
  6
CONTINUOUS
 62
     7
 10
27463.04887499996
 20
19617.48897539678
 30
0.0
 40
160.0
  1
42.5
 50
90.0
  0
TEXT
  5
45C1
  8
0
  6
CONTINUOUS
 62
     7
 10
27863.04887499996
 20
16352.01877733332
 30
0.0
 40
160.0
  1
5570.5
 50
90.0
  0
TEXT
  5
45C2
  8
0
  6
CONTINUOUS
 62
     7
 10
27463.04887499996
 20
15188.26877733332
 30
0.0
 40
160.0
  1
2918
 50
90.0
  0
TEXT
  5
45C3
  8
0
  6
CONTINUOUS
 62
     7
 10
27463.04887499996
 20
17797.685443999992
 30
0.0
 40
160.0
  1
2567.5
 50
90.0
  0
TEXT
  5
45C4
  8
0
  6
CONTINUOUS
 62
     7
 10
27063.048874999949
 20
18550.102110666649
 30
0.0
 40
160.0
  1
701
 50
90.0
  0
TEXT
  5
45C5
  8
0
  6
CONTINUOUS
 62
     7
 10
27063.048874999949
 20
17849.102110666649
 30
0.0
 40
160.0
  1
701
 50
90.0
  0
TEXT
  5
45C6
  8
0
  6
CONTINUOUS
 62
     7
 10
27063.048874999949
 20
17079.602110666659
 30
0.0
 40
160.0
  1
758
 50
90.0
  0
TEXT
  5
45C7
  8
0
  6
CONTINUOUS
 62
     7
 10
27063.048874999949
 20
16321.602110666659
 30
0.0
 40
160.0
  1
758
 50
90.0
  0
TEXT
  5
45C8
  8
0
  6
CONTINUOUS
 62
     7
 10
27063.048874999949
 20
15632.22236641665
 30
0.0
 40
160.0
  1
701
 50
90.0
  0
TEXT
  5
45C9
  8
0
  6
CONTINUOUS
 62
     7
 10
27063.048874999949
 20
14931.222366416659
 30
0.0
 40
160.0
  1
701
 50
90.0
  0
TEXT
  5
45CA
  8
0
  6
CONTINUOUS
 62
     7
 10
27063.048874999949
 20
14161.602110666659
 30
0.0
 40
160.0
  1
758
 50
90.0
  0
TEXT
  5
45CB
  8
0
  6
CONTINUOUS
 62
     7
 10
21359.879964833312
 20
12704.487359999979
 30
0.0
 40
160.0
  1
2918 x n
  0
TEXT
  5
45CC
  8
0
  6
CONTINUOUS
 62
     7
 10
17832.597664382069
 20
13104.487359999979
 30
0.0
 40
160.0
  1
42.5
  0
TEXT
  5
45CD
  8
0
  6
CONTINUOUS
 62
     7
 10
25452.495598617879
 20
13104.487359999979
 30
0.0
 40
160.0
  1
42.5
  0
TEXT
  5
45CE
  8
0
  6
CONTINUOUS
 62
     7
 10
16705.089414999991
 20
14458.88903308332
 30
0.0
 40
160.0
  1
1459
 50
90.0
  0
TEXT
  5
45CF
  8
0
  6
CONTINUOUS
 62
     7
 10
16705.089414999991
 20
15917.88903308332
 30
0.0
 40
160.0
  1
1459
 50
90.0
  0
TEXT
  5
45D0
  8
0
  6
CONTINUOUS
 62
     7
 10
16705.089414999991
 20
17376.768777333298
 30
0.0
 40
160.0
  1
1459
 50
90.0
  0
TEXT
  5
45D1
  8
0
  6
CONTINUOUS
 62
     7
 10
16705.089414999991
 20
18593.852110666641
 30
0.0
 40
160.0
  1
1108.5
 50
90.0
  0
TEXT
  5
45D2
  8
0
  6
CONTINUOUS
 62
     7
 10
27423.04887499996
 20
18783.313411643201
 30
0.0
 40
160.0
  1
407.5
 50
90.0
  0
TEXT
  5
45D3
  8
0
  6
CONTINUOUS
 62
     7
 10
23298.215937666639
 20
20333.936632000001
 30
0.0
 40
160.0
  1
758
  0
TEXT
  5
45D4
  8
0
  6
CONTINUOUS
 62
     7
 10
17880.210658666649
 20
20333.936632000001
 30
0.0
 40
160.0
  1
758
  0
TEXT
  5
45D5
  8
0
  6
CONTINUOUS
 62
     7
 10
12547.77780133333
 20
20333.936632000001
 30
0.0
 40
160.0
  1
2918
  0
TEXT
  5
45D6
  8
0
  6
CONTINUOUS
 62
     7
 10
14409.94117402327
 20
20333.936632000001
 30
0.0
 40
160.0
  1
85.5
  0
TEXT
  5
45D7
  8
0
  6
CONTINUOUS
 62
     7
 10
8930.7778538333478
 20
20333.936632000001
 30
0.0
 40
160.0
  1
2918 \U+00D7（ｎ － 2）
  0
TEXT
  5
45D8
  8
0
  6
CONTINUOUS
 62
     7
 10
6721.7779063333483
 20
20333.936632000001
 30
0.0
 40
160.0
  1
2918
  0
TEXT
  5
45D9
  8
0
  6
CONTINUOUS
 62
     7
 10
4912.9478669767514
 20
20333.936632000001
 30
0.0
 40
160.0
  1
85.5
  0
TEXT
  5
45DA
  8
0
  6
CONTINUOUS
 62
     7
 10
4519.9447970000083
 20
17376.768777333298
 30
0.0
 40
160.0
  1
1459
 50
90.0
  0
TEXT
  5
45DB
  8
0
  6
CONTINUOUS
 62
     7
 10
4519.9447970000092
 20
18593.852110666641
 30
0.0
 40
160.0
  1
1108.5
 50
90.0
  0
TEXT
  5
45DC
  8
0
  6
CONTINUOUS
 62
     7
 10
4519.9447970000092
 20
19792.890628807661
 30
0.0
 40
160.0
  1
222.5
 50
90.0
  0
TEXT
  5
45DD
  8
0
  6
CONTINUOUS
 62
     7
 10
4919.9447970000101
 20
19823.931353
 30
0.0
 40
160.0
  1
20
 50
90.0
  0
TEXT
  5
45DE
  8
0
  6
CONTINUOUS
 62
     7
 10
4519.9447970000083
 20
15917.88903308332
 30
0.0
 40
160.0
  1
1459
 50
90.0
  0
TEXT
  5
45DF
  8
0
  6
CONTINUOUS
 62
     7
 10
4519.9447970000092
 20
14458.88903308332
 30
0.0
 40
160.0
  1
1459
 50
90.0
  0
TEXT
  5
45E0
  8
0
  6
CONTINUOUS
 62
     7
 10
4519.9447970000083
 20
13187.9824337026
 30
0.0
 40
160.0
  1
192.5
 50
90.0
  0
TEXT
  5
45E1
  8
0
  6
CONTINUOUS
 62
     7
 10
9378.7778538333459
 20
12704.487359999979
 30
0.0
 40
160.0
  1
2918 x n
  0
ARC
  5
45E2
  8
0
  6
BYBLOCK
 62
     0
 10
5529.444573000017
 20
12624.487359999979
 30
0.0
 40
15.0
 50
0.0
 51
180.0
  0
ARC
  5
45E3
  8
0
  6
BYBLOCK
 62
     0
 10
5529.444573000017
 20
12624.487359999979
 30
0.0
 40
15.0
 50
180.0
 51
0.0
  0
ARC
  5
45E4
  8
0
  6
BYBLOCK
 62
     0
 10
14273.444468000011
 20
12624.487359999979
 30
0.0
 40
15.0
 50
180.0
 51
0.0
  0
ARC
  5
45E5
  8
0
  6
BYBLOCK
 62
     0
 10
14273.444468000011
 20
12624.487359999979
 30
0.0
 40
15.0
 50
0.0
 51
180.0
  0
ARC
  5
45E6
  8
0
  6
BYBLOCK
 62
     0
 10
4599.944797000011
 20
13995.935443999981
 30
0.0
 40
15.0
 50
270.0
 51
90.0
  0
ARC
  5
45E7
  8
0
  6
BYBLOCK
 62
     0
 10
4599.944797000011
 20
13995.935443999981
 30
0.0
 40
15.0
 50
90.0
 51
270.0
  0
ARC
  5
45E8
  8
0
  6
BYBLOCK
 62
     0
 10
4599.944797000011
 20
13803.44012899999
 30
0.0
 40
15.0
 50
90.0
 51
270.0
  0
ARC
  5
45E9
  8
0
  6
BYBLOCK
 62
     0
 10
4599.944797000011
 20
13803.44012899999
 30
0.0
 40
15.0
 50
270.0
 51
90.0
  0
ARC
  5
45EA
  8
0
  6
BYBLOCK
 62
     0
 10
4599.9447970000119
 20
15455.175955500001
 30
0.0
 40
15.0
 50
270.0
 51
90.0
  0
ARC
  5
45EB
  8
0
  6
BYBLOCK
 62
     0
 10
4599.9447970000119
 20
15455.175955500001
 30
0.0
 40
15.0
 50
90.0
 51
270.0
  0
ARC
  5
45EC
  8
0
  6
BYBLOCK
 62
     0
 10
4599.944797000011
 20
13995.935443999981
 30
0.0
 40
15.0
 50
90.0
 51
270.0
  0
ARC
  5
45ED
  8
0
  6
BYBLOCK
 62
     0
 10
4599.944797000011
 20
13995.935443999981
 30
0.0
 40
15.0
 50
270.0
 51
90.0
  0
ARC
  5
45EE
  8
0
  6
BYBLOCK
 62
     0
 10
4599.944797000011
 20
16913.935443999992
 30
0.0
 40
15.0
 50
270.0
 51
90.0
  0
ARC
  5
45EF
  8
0
  6
BYBLOCK
 62
     0
 10
4599.944797000011
 20
16913.935443999992
 30
0.0
 40
15.0
 50
90.0
 51
270.0
  0
ARC
  5
45F0
  8
0
  6
BYBLOCK
 62
     0
 10
4599.944797000011
 20
15455.175955500001
 30
0.0
 40
15.0
 50
90.0
 51
270.0
  0
ARC
  5
45F1
  8
0
  6
BYBLOCK
 62
     0
 10
4599.944797000011
 20
15455.175955500001
 30
0.0
 40
15.0
 50
270.0
 51
90.0
  0
ARC
  5
45F2
  8
0
  6
BYBLOCK
 62
     0
 10
4999.944797000011
 20
19683.931353
 30
0.0
 40
15.0
 50
270.0
 51
90.0
  0
ARC
  5
45F3
  8
0
  6
BYBLOCK
 62
     0
 10
4999.944797000011
 20
19683.931353
 30
0.0
 40
15.0
 50
90.0
 51
270.0
  0
ARC
  5
45F4
  8
0
  6
BYBLOCK
 62
     0
 10
4999.944797000011
 20
19703.931353
 30
0.0
 40
15.0
 50
90.0
 51
270.0
  0
ARC
  5
45F5
  8
0
  6
BYBLOCK
 62
     0
 10
4999.944797000011
 20
19703.931353
 30
0.0
 40
15.0
 50
270.0
 51
90.0
  0
ARC
  5
45F6
  8
0
  6
BYBLOCK
 62
     0
 10
4599.9447970000119
 20
19481.435443999981
 30
0.0
 40
15.0
 50
90.0
 51
270.0
  0
ARC
  5
45F7
  8
0
  6
BYBLOCK
 62
     0
 10
4599.9447970000119
 20
19481.435443999981
 30
0.0
 40
15.0
 50
270.0
 51
90.0
  0
ARC
  5
45F8
  8
0
  6
BYBLOCK
 62
     0
 10
4599.9447970000119
 20
19703.931353
 30
0.0
 40
15.0
 50
270.0
 51
90.0
  0
ARC
  5
45F9
  8
0
  6
BYBLOCK
 62
     0
 10
4599.9447970000119
 20
19703.931353
 30
0.0
 40
15.0
 50
90.0
 51
270.0
  0
ARC
  5
45FA
  8
0
  6
BYBLOCK
 62
     0
 10
4599.9447970000119
 20
18372.935443999992
 30
0.0
 40
15.0
 50
90.0
 51
270.0
  0
ARC
  5
45FB
  8
0
  6
BYBLOCK
 62
     0
 10
4599.9447970000119
 20
18372.935443999992
 30
0.0
 40
15.0
 50
270.0
 51
90.0
  0
ARC
  5
45FC
  8
0
  6
BYBLOCK
 62
     0
 10
4599.9447970000119
 20
19481.435443999981
 30
0.0
 40
15.0
 50
270.0
 51
90.0
  0
ARC
  5
45FD
  8
0
  6
BYBLOCK
 62
     0
 10
4599.9447970000119
 20
19481.435443999981
 30
0.0
 40
15.0
 50
90.0
 51
270.0
  0
ARC
  5
45FE
  8
0
  6
BYBLOCK
 62
     0
 10
4599.944797000011
 20
16913.935443999992
 30
0.0
 40
15.0
 50
90.0
 51
270.0
  0
ARC
  5
45FF
  8
0
  6
BYBLOCK
 62
     0
 10
4599.944797000011
 20
16913.935443999992
 30
0.0
 40
15.0
 50
270.0
 51
90.0
  0
ARC
  5
4600
  8
0
  6
BYBLOCK
 62
     0
 10
4599.944797000011
 20
18372.935443999992
 30
0.0
 40
15.0
 50
270.0
 51
90.0
  0
ARC
  5
4601
  8
0
  6
BYBLOCK
 62
     0
 10
4599.944797000011
 20
18372.935443999992
 30
0.0
 40
15.0
 50
90.0
 51
270.0
  0
ARC
  5
4602
  8
0
  6
BYBLOCK
 62
     0
 10
5529.444573000017
 20
20253.936632000001
 30
0.0
 40
15.0
 50
0.0
 51
180.0
  0
ARC
  5
4603
  8
0
  6
BYBLOCK
 62
     0
 10
5529.444573000017
 20
20253.936632000001
 30
0.0
 40
15.0
 50
180.0
 51
0.0
  0
ARC
  5
4604
  8
0
  6
BYBLOCK
 62
     0
 10
5443.9445730000152
 20
20253.936632000001
 30
0.0
 40
15.0
 50
180.0
 51
0.0
  0
ARC
  5
4605
  8
0
  6
BYBLOCK
 62
     0
 10
5443.9445730000152
 20
20253.936632000001
 30
0.0
 40
15.0
 50
0.0
 51
180.0
  0
ARC
  5
4606
  8
0
  6
BYBLOCK
 62
     0
 10
8447.4445730000134
 20
20253.936632000001
 30
0.0
 40
15.0
 50
180.0
 51
0.0
  0
ARC
  5
4607
  8
0
  6
BYBLOCK
 62
     0
 10
8447.4445730000134
 20
20253.936632000001
 30
0.0
 40
15.0
 50
0.0
 51
180.0
  0
ARC
  5
4608
  8
0
  6
BYBLOCK
 62
     0
 10
5529.444573000017
 20
20253.936632000001
 30
0.0
 40
15.0
 50
0.0
 51
180.0
  0
ARC
  5
4609
  8
0
  6
BYBLOCK
 62
     0
 10
5529.444573000017
 20
20253.936632000001
 30
0.0
 40
15.0
 50
180.0
 51
0.0
  0
ARC
  5
460A
  8
0
  6
BYBLOCK
 62
     0
 10
11355.444468000011
 20
20253.936632000001
 30
0.0
 40
15.0
 50
180.0
 51
0.0
  0
ARC
  5
460B
  8
0
  6
BYBLOCK
 62
     0
 10
11355.444468000011
 20
20253.936632000001
 30
0.0
 40
15.0
 50
0.0
 51
180.0
  0
ARC
  5
460C
  8
0
  6
BYBLOCK
 62
     0
 10
8447.4445730000134
 20
20253.936632000001
 30
0.0
 40
15.0
 50
0.0
 51
180.0
  0
ARC
  5
460D
  8
0
  6
BYBLOCK
 62
     0
 10
8447.4445730000134
 20
20253.936632000001
 30
0.0
 40
15.0
 50
180.0
 51
0.0
  0
ARC
  5
460E
  8
0
  6
BYBLOCK
 62
     0
 10
14273.444468000011
 20
20253.936632000001
 30
0.0
 40
15.0
 50
180.0
 51
0.0
  0
ARC
  5
460F
  8
0
  6
BYBLOCK
 62
     0
 10
14273.444468000011
 20
20253.936632000001
 30
0.0
 40
15.0
 50
0.0
 51
180.0
  0
ARC
  5
4610
  8
0
  6
BYBLOCK
 62
     0
 10
14358.944468000011
 20
20253.936632000001
 30
0.0
 40
15.0
 50
0.0
 51
180.0
  0
ARC
  5
4611
  8
0
  6
BYBLOCK
 62
     0
 10
14358.944468000011
 20
20253.936632000001
 30
0.0
 40
15.0
 50
180.0
 51
0.0
  0
ARC
  5
4612
  8
0
  6
BYBLOCK
 62
     0
 10
11355.444468000011
 20
20253.936632000001
 30
0.0
 40
15.0
 50
0.0
 51
180.0
  0
ARC
  5
4613
  8
0
  6
BYBLOCK
 62
     0
 10
11355.444468000011
 20
20253.936632000001
 30
0.0
 40
15.0
 50
180.0
 51
0.0
  0
ARC
  5
4614
  8
0
  6
BYBLOCK
 62
     0
 10
14273.444468000011
 20
20253.936632000001
 30
0.0
 40
15.0
 50
180.0
 51
0.0
  0
ARC
  5
4615
  8
0
  6
BYBLOCK
 62
     0
 10
14273.444468000011
 20
20253.936632000001
 30
0.0
 40
15.0
 50
0.0
 51
180.0
  0
ARC
  5
4616
  8
0
  6
BYBLOCK
 62
     0
 10
18472.543991999992
 20
20253.936632000001
 30
0.0
 40
15.0
 50
180.0
 51
0.0
  0
ARC
  5
4617
  8
0
  6
BYBLOCK
 62
     0
 10
18472.543991999992
 20
20253.936632000001
 30
0.0
 40
15.0
 50
0.0
 51
180.0
  0
ARC
  5
4618
  8
0
  6
BYBLOCK
 62
     0
 10
17714.543991999992
 20
20253.936632000001
 30
0.0
 40
15.0
 50
0.0
 51
180.0
  0
ARC
  5
4619
  8
0
  6
BYBLOCK
 62
     0
 10
17714.543991999992
 20
20253.936632000001
 30
0.0
 40
15.0
 50
180.0
 51
0.0
  0
ARC
  5
461A
  8
0
  6
BYBLOCK
 62
     0
 10
23890.549270999971
 20
20253.936632000001
 30
0.0
 40
15.0
 50
180.0
 51
0.0
  0
ARC
  5
461B
  8
0
  6
BYBLOCK
 62
     0
 10
23890.549270999971
 20
20253.936632000001
 30
0.0
 40
15.0
 50
0.0
 51
180.0
  0
ARC
  5
461C
  8
0
  6
BYBLOCK
 62
     0
 10
23132.54927099996
 20
20253.936632000001
 30
0.0
 40
15.0
 50
0.0
 51
180.0
  0
ARC
  5
461D
  8
0
  6
BYBLOCK
 62
     0
 10
23132.54927099996
 20
20253.936632000001
 30
0.0
 40
15.0
 50
180.0
 51
0.0
  0
ARC
  5
461E
  8
0
  6
BYBLOCK
 62
     0
 10
27143.048874999949
 20
19073.935443999992
 30
0.0
 40
15.0
 50
90.0
 51
270.0
  0
ARC
  5
461F
  8
0
  6
BYBLOCK
 62
     0
 10
27143.048874999949
 20
19073.935443999992
 30
0.0
 40
15.0
 50
270.0
 51
90.0
  0
ARC
  5
4620
  8
0
  6
BYBLOCK
 62
     0
 10
27143.048874999949
 20
19481.435443999992
 30
0.0
 40
15.0
 50
270.0
 51
90.0
  0
ARC
  5
4621
  8
0
  6
BYBLOCK
 62
     0
 10
27143.048874999949
 20
19481.435443999992
 30
0.0
 40
15.0
 50
90.0
 51
270.0
  0
ARC
  5
4622
  8
0
  6
BYBLOCK
 62
     0
 10
16785.089414999991
 20
18372.935443999992
 30
0.0
 40
15.0
 50
90.0
 51
270.0
  0
ARC
  5
4623
  8
0
  6
BYBLOCK
 62
     0
 10
16785.089414999991
 20
18372.935443999992
 30
0.0
 40
15.0
 50
270.0
 51
90.0
  0
ARC
  5
4624
  8
0
  6
BYBLOCK
 62
     0
 10
16785.089414999991
 20
19481.435443999981
 30
0.0
 40
15.0
 50
270.0
 51
90.0
  0
ARC
  5
4625
  8
0
  6
BYBLOCK
 62
     0
 10
16785.089414999991
 20
19481.435443999981
 30
0.0
 40
15.0
 50
90.0
 51
270.0
  0
ARC
  5
4626
  8
0
  6
BYBLOCK
 62
     0
 10
16785.089414999991
 20
16913.935443999992
 30
0.0
 40
15.0
 50
90.0
 51
270.0
  0
ARC
  5
4627
  8
0
  6
BYBLOCK
 62
     0
 10
16785.089414999991
 20
16913.935443999992
 30
0.0
 40
15.0
 50
270.0
 51
90.0
  0
ARC
  5
4628
  8
0
  6
BYBLOCK
 62
     0
 10
16785.089414999991
 20
18372.935443999992
 30
0.0
 40
15.0
 50
270.0
 51
90.0
  0
ARC
  5
4629
  8
0
  6
BYBLOCK
 62
     0
 10
16785.089414999991
 20
18372.935443999992
 30
0.0
 40
15.0
 50
90.0
 51
270.0
  0
ARC
  5
462A
  8
0
  6
BYBLOCK
 62
     0
 10
16785.089414999991
 20
15455.175955500001
 30
0.0
 40
15.0
 50
90.0
 51
270.0
  0
ARC
  5
462B
  8
0
  6
BYBLOCK
 62
     0
 10
16785.089414999991
 20
15455.175955500001
 30
0.0
 40
15.0
 50
270.0
 51
90.0
  0
ARC
  5
462C
  8
0
  6
BYBLOCK
 62
     0
 10
16785.089414999991
 20
16913.935443999992
 30
0.0
 40
15.0
 50
270.0
 51
90.0
  0
ARC
  5
462D
  8
0
  6
BYBLOCK
 62
     0
 10
16785.089414999991
 20
16913.935443999992
 30
0.0
 40
15.0
 50
90.0
 51
270.0
  0
ARC
  5
462E
  8
0
  6
BYBLOCK
 62
     0
 10
16785.089414999991
 20
13995.935443999981
 30
0.0
 40
15.0
 50
90.0
 51
270.0
  0
ARC
  5
462F
  8
0
  6
BYBLOCK
 62
     0
 10
16785.089414999991
 20
13995.935443999981
 30
0.0
 40
15.0
 50
270.0
 51
90.0
  0
ARC
  5
4630
  8
0
  6
BYBLOCK
 62
     0
 10
16785.089414999991
 20
15455.175955500001
 30
0.0
 40
15.0
 50
270.0
 51
90.0
  0
ARC
  5
4631
  8
0
  6
BYBLOCK
 62
     0
 10
16785.089414999991
 20
15455.175955500001
 30
0.0
 40
15.0
 50
90.0
 51
270.0
  0
ARC
  5
4632
  8
0
  6
BYBLOCK
 62
     0
 10
26050.54927099996
 20
13024.487359999979
 30
0.0
 40
15.0
 50
0.0
 51
180.0
  0
ARC
  5
4633
  8
0
  6
BYBLOCK
 62
     0
 10
26050.54927099996
 20
13024.487359999979
 30
0.0
 40
15.0
 50
180.0
 51
0.0
  0
ARC
  5
4634
  8
0
  6
BYBLOCK
 62
     0
 10
26008.047027999961
 20
13024.487359999979
 30
0.0
 40
15.0
 50
180.0
 51
0.0
  0
ARC
  5
4635
  8
0
  6
BYBLOCK
 62
     0
 10
26008.047027999961
 20
13024.487359999979
 30
0.0
 40
15.0
 50
0.0
 51
180.0
  0
ARC
  5
4636
  8
0
  6
BYBLOCK
 62
     0
 10
17714.543991999992
 20
13024.487359999979
 30
0.0
 40
15.0
 50
180.0
 51
0.0
  0
ARC
  5
4637
  8
0
  6
BYBLOCK
 62
     0
 10
17714.543991999992
 20
13024.487359999979
 30
0.0
 40
15.0
 50
0.0
 51
180.0
  0
ARC
  5
4638
  8
0
  6
BYBLOCK
 62
     0
 10
17757.04623499998
 20
13024.487359999979
 30
0.0
 40
15.0
 50
0.0
 51
180.0
  0
ARC
  5
4639
  8
0
  6
BYBLOCK
 62
     0
 10
17757.04623499998
 20
13024.487359999979
 30
0.0
 40
15.0
 50
180.0
 51
0.0
  0
ARC
  5
463A
  8
0
  6
BYBLOCK
 62
     0
 10
17714.543991999992
 20
12624.487359999979
 30
0.0
 40
15.0
 50
0.0
 51
180.0
  0
ARC
  5
463B
  8
0
  6
BYBLOCK
 62
     0
 10
17714.543991999992
 20
12624.487359999979
 30
0.0
 40
15.0
 50
180.0
 51
0.0
  0
ARC
  5
463C
  8
0
  6
BYBLOCK
 62
     0
 10
26050.54927099996
 20
12624.487359999979
 30
0.0
 40
15.0
 50
180.0
 51
0.0
  0
ARC
  5
463D
  8
0
  6
BYBLOCK
 62
     0
 10
26050.54927099996
 20
12624.487359999979
 30
0.0
 40
15.0
 50
0.0
 51
180.0
  0
ARC
  5
463E
  8
0
  6
BYBLOCK
 62
     0
 10
27143.048874999949
 20
14753.93544399999
 30
0.0
 40
15.0
 50
270.0
 51
90.0
  0
ARC
  5
463F
  8
0
  6
BYBLOCK
 62
     0
 10
27143.048874999949
 20
14753.93544399999
 30
0.0
 40
15.0
 50
90.0
 51
270.0
  0
ARC
  5
4640
  8
0
  6
BYBLOCK
 62
     0
 10
27143.048874999949
 20
13995.935443999981
 30
0.0
 40
15.0
 50
90.0
 51
270.0
  0
ARC
  5
4641
  8
0
  6
BYBLOCK
 62
     0
 10
27143.048874999949
 20
13995.935443999981
 30
0.0
 40
15.0
 50
270.0
 51
90.0
  0
ARC
  5
4642
  8
0
  6
BYBLOCK
 62
     0
 10
27143.048874999949
 20
15455.175955500001
 30
0.0
 40
15.0
 50
270.0
 51
90.0
  0
ARC
  5
4643
  8
0
  6
BYBLOCK
 62
     0
 10
27143.048874999949
 20
15455.175955500001
 30
0.0
 40
15.0
 50
90.0
 51
270.0
  0
ARC
  5
4644
  8
0
  6
BYBLOCK
 62
     0
 10
27143.048874999949
 20
14753.93544399999
 30
0.0
 40
15.0
 50
90.0
 51
270.0
  0
ARC
  5
4645
  8
0
  6
BYBLOCK
 62
     0
 10
27143.048874999949
 20
14753.93544399999
 30
0.0
 40
15.0
 50
270.0
 51
90.0
  0
ARC
  5
4646
  8
0
  6
BYBLOCK
 62
     0
 10
27143.048874999949
 20
16155.93544399999
 30
0.0
 40
15.0
 50
270.0
 51
90.0
  0
ARC
  5
4647
  8
0
  6
BYBLOCK
 62
     0
 10
27143.048874999949
 20
16155.93544399999
 30
0.0
 40
15.0
 50
90.0
 51
270.0
  0
ARC
  5
4648
  8
0
  6
BYBLOCK
 62
     0
 10
27143.048874999949
 20
15455.175955500001
 30
0.0
 40
15.0
 50
90.0
 51
270.0
  0
ARC
  5
4649
  8
0
  6
BYBLOCK
 62
     0
 10
27143.048874999949
 20
15455.175955500001
 30
0.0
 40
15.0
 50
270.0
 51
90.0
  0
ARC
  5
464A
  8
0
  6
BYBLOCK
 62
     0
 10
27143.048874999949
 20
16913.935443999992
 30
0.0
 40
15.0
 50
270.0
 51
90.0
  0
ARC
  5
464B
  8
0
  6
BYBLOCK
 62
     0
 10
27143.048874999949
 20
16913.935443999992
 30
0.0
 40
15.0
 50
90.0
 51
270.0
  0
ARC
  5
464C
  8
0
  6
BYBLOCK
 62
     0
 10
27143.048874999949
 20
16155.93544399999
 30
0.0
 40
15.0
 50
90.0
 51
270.0
  0
ARC
  5
464D
  8
0
  6
BYBLOCK
 62
     0
 10
27143.048874999949
 20
16155.93544399999
 30
0.0
 40
15.0
 50
270.0
 51
90.0
  0
ARC
  5
464E
  8
0
  6
BYBLOCK
 62
     0
 10
27143.048874999949
 20
17671.935443999992
 30
0.0
 40
15.0
 50
270.0
 51
90.0
  0
ARC
  5
464F
  8
0
  6
BYBLOCK
 62
     0
 10
27143.048874999949
 20
17671.935443999992
 30
0.0
 40
15.0
 50
90.0
 51
270.0
  0
ARC
  5
4650
  8
0
  6
BYBLOCK
 62
     0
 10
27143.048874999949
 20
16913.935443999992
 30
0.0
 40
15.0
 50
90.0
 51
270.0
  0
ARC
  5
4651
  8
0
  6
BYBLOCK
 62
     0
 10
27143.048874999949
 20
16913.935443999992
 30
0.0
 40
15.0
 50
270.0
 51
90.0
  0
ARC
  5
4652
  8
0
  6
BYBLOCK
 62
     0
 10
27143.048874999949
 20
18372.935443999992
 30
0.0
 40
15.0
 50
270.0
 51
90.0
  0
ARC
  5
4653
  8
0
  6
BYBLOCK
 62
     0
 10
27143.048874999949
 20
18372.935443999992
 30
0.0
 40
15.0
 50
90.0
 51
270.0
  0
ARC
  5
4654
  8
0
  6
BYBLOCK
 62
     0
 10
27143.048874999949
 20
17671.935443999992
 30
0.0
 40
15.0
 50
90.0
 51
270.0
  0
ARC
  5
4655
  8
0
  6
BYBLOCK
 62
     0
 10
27143.048874999949
 20
17671.935443999992
 30
0.0
 40
15.0
 50
270.0
 51
90.0
  0
ARC
  5
4656
  8
0
  6
BYBLOCK
 62
     0
 10
27143.048874999949
 20
19073.935443999992
 30
0.0
 40
15.0
 50
270.0
 51
90.0
  0
ARC
  5
4657
  8
0
  6
BYBLOCK
 62
     0
 10
27143.048874999949
 20
19073.935443999992
 30
0.0
 40
15.0
 50
90.0
 51
270.0
  0
ARC
  5
4658
  8
0
  6
BYBLOCK
 62
     0
 10
27143.048874999949
 20
18372.935443999992
 30
0.0
 40
15.0
 50
90.0
 51
270.0
  0
ARC
  5
4659
  8
0
  6
BYBLOCK
 62
     0
 10
27143.048874999949
 20
18372.935443999992
 30
0.0
 40
15.0
 50
270.0
 51
90.0
  0
ARC
  5
465A
  8
0
  6
BYBLOCK
 62
     0
 10
27543.04887499996
 20
16913.935443999992
 30
0.0
 40
15.0
 50
90.0
 51
270.0
  0
ARC
  5
465B
  8
0
  6
BYBLOCK
 62
     0
 10
27543.04887499996
 20
16913.935443999992
 30
0.0
 40
15.0
 50
270.0
 51
90.0
  0
ARC
  5
465C
  8
0
  6
BYBLOCK
 62
     0
 10
27543.04887499996
 20
19481.435443999981
 30
0.0
 40
15.0
 50
270.0
 51
90.0
  0
ARC
  5
465D
  8
0
  6
BYBLOCK
 62
     0
 10
27543.04887499996
 20
19481.435443999981
 30
0.0
 40
15.0
 50
90.0
 51
270.0
  0
ARC
  5
465E
  8
0
  6
BYBLOCK
 62
     0
 10
27543.04887499996
 20
13995.935443999981
 30
0.0
 40
15.0
 50
90.0
 51
270.0
  0
ARC
  5
465F
  8
0
  6
BYBLOCK
 62
     0
 10
27543.04887499996
 20
13995.935443999981
 30
0.0
 40
15.0
 50
270.0
 51
90.0
  0
ARC
  5
4660
  8
0
  6
BYBLOCK
 62
     0
 10
27543.04887499996
 20
16913.935443999992
 30
0.0
 40
15.0
 50
270.0
 51
90.0
  0
ARC
  5
4661
  8
0
  6
BYBLOCK
 62
     0
 10
27543.04887499996
 20
16913.935443999992
 30
0.0
 40
15.0
 50
90.0
 51
270.0
  0
ARC
  5
4662
  8
0
  6
BYBLOCK
 62
     0
 10
27943.04887499996
 20
19523.932738999982
 30
0.0
 40
15.0
 50
270.0
 51
90.0
  0
ARC
  5
4663
  8
0
  6
BYBLOCK
 62
     0
 10
27943.04887499996
 20
19523.932738999982
 30
0.0
 40
15.0
 50
90.0
 51
270.0
  0
ARC
  5
4664
  8
0
  6
BYBLOCK
 62
     0
 10
27943.04887499996
 20
13953.438148999991
 30
0.0
 40
15.0
 50
90.0
 51
270.0
  0
ARC
  5
4665
  8
0
  6
BYBLOCK
 62
     0
 10
27943.04887499996
 20
13953.438148999991
 30
0.0
 40
15.0
 50
270.0
 51
90.0
  0
ARC
  5
4666
  8
0
  6
BYBLOCK
 62
     0
 10
27543.04887499996
 20
19481.435443999981
 30
0.0
 40
15.0
 50
270.0
 51
90.0
  0
ARC
  5
4667
  8
0
  6
BYBLOCK
 62
     0
 10
27543.04887499996
 20
19481.435443999981
 30
0.0
 40
15.0
 50
90.0
 51
270.0
  0
ARC
  5
4668
  8
0
  6
BYBLOCK
 62
     0
 10
27543.04887499996
 20
19523.932738999982
 30
0.0
 40
15.0
 50
90.0
 51
270.0
  0
ARC
  5
4669
  8
0
  6
BYBLOCK
 62
     0
 10
27543.04887499996
 20
19523.932738999982
 30
0.0
 40
15.0
 50
270.0
 51
90.0
  0
ARC
  5
466A
  8
0
  6
BYBLOCK
 62
     0
 10
27543.04887499996
 20
13995.935443999981
 30
0.0
 40
15.0
 50
90.0
 51
270.0
  0
ARC
  5
466B
  8
0
  6
BYBLOCK
 62
     0
 10
27543.04887499996
 20
13995.935443999981
 30
0.0
 40
15.0
 50
270.0
 51
90.0
  0
ARC
  5
466C
  8
0
  6
BYBLOCK
 62
     0
 10
27543.04887499996
 20
13953.438148999991
 30
0.0
 40
15.0
 50
270.0
 51
90.0
  0
ARC
  5
466D
  8
0
  6
BYBLOCK
 62
     0
 10
27543.04887499996
 20
13953.438148999991
 30
0.0
 40
15.0
 50
90.0
 51
270.0
  0
ARC
  5
466E
  8
0
  6
BYBLOCK
 62
     0
 10
20632.544981499999
 20
20253.936632000001
 30
0.0
 40
15.0
 50
0.0
 51
180.0
  0
ARC
  5
466F
  8
0
  6
BYBLOCK
 62
     0
 10
20632.544981499999
 20
20253.936632000001
 30
0.0
 40
15.0
 50
180.0
 51
0.0
  0
ARC
  5
4670
  8
0
  6
BYBLOCK
 62
     0
 10
23132.54927099996
 20
20253.936632000001
 30
0.0
 40
15.0
 50
180.0
 51
0.0
  0
ARC
  5
4671
  8
0
  6
BYBLOCK
 62
     0
 10
23132.54927099996
 20
20253.936632000001
 30
0.0
 40
15.0
 50
0.0
 51
180.0
  0
ARC
  5
4672
  8
0
  6
BYBLOCK
 62
     0
 10
25292.54927099996
 20
20253.936632000001
 30
0.0
 40
15.0
 50
0.0
 51
180.0
  0
ARC
  5
4673
  8
0
  6
BYBLOCK
 62
     0
 10
25292.54927099996
 20
20253.936632000001
 30
0.0
 40
15.0
 50
180.0
 51
0.0
  0
ARC
  5
4674
  8
0
  6
BYBLOCK
 62
     0
 10
26050.55026049996
 20
20253.936632000001
 30
0.0
 40
15.0
 50
180.0
 51
0.0
  0
ARC
  5
4675
  8
0
  6
BYBLOCK
 62
     0
 10
26050.55026049996
 20
20253.936632000001
 30
0.0
 40
15.0
 50
0.0
 51
180.0
  0
ARC
  5
4676
  8
0
  6
BYBLOCK
 62
     0
 10
24591.54927099996
 20
20253.936632000001
 30
0.0
 40
15.0
 50
0.0
 51
180.0
  0
ARC
  5
4677
  8
0
  6
BYBLOCK
 62
     0
 10
24591.54927099996
 20
20253.936632000001
 30
0.0
 40
15.0
 50
180.0
 51
0.0
  0
ARC
  5
4678
  8
0
  6
BYBLOCK
 62
     0
 10
25292.54927099996
 20
20253.936632000001
 30
0.0
 40
15.0
 50
180.0
 51
0.0
  0
ARC
  5
4679
  8
0
  6
BYBLOCK
 62
     0
 10
25292.54927099996
 20
20253.936632000001
 30
0.0
 40
15.0
 50
0.0
 51
180.0
  0
ARC
  5
467A
  8
0
  6
BYBLOCK
 62
     0
 10
23890.549270999971
 20
20253.936632000001
 30
0.0
 40
15.0
 50
0.0
 51
180.0
  0
ARC
  5
467B
  8
0
  6
BYBLOCK
 62
     0
 10
23890.549270999971
 20
20253.936632000001
 30
0.0
 40
15.0
 50
180.0
 51
0.0
  0
ARC
  5
467C
  8
0
  6
BYBLOCK
 62
     0
 10
24591.54927099996
 20
20253.936632000001
 30
0.0
 40
15.0
 50
180.0
 51
0.0
  0
ARC
  5
467D
  8
0
  6
BYBLOCK
 62
     0
 10
24591.54927099996
 20
20253.936632000001
 30
0.0
 40
15.0
 50
0.0
 51
180.0
  0
ARC
  5
467E
  8
0
  6
BYBLOCK
 62
     0
 10
26050.54927099996
 20
20253.936632000001
 30
0.0
 40
15.0
 50
180.0
 51
0.0
  0
ARC
  5
467F
  8
0
  6
BYBLOCK
 62
     0
 10
26050.54927099996
 20
20253.936632000001
 30
0.0
 40
15.0
 50
0.0
 51
180.0
  0
ARC
  5
4680
  8
0
  6
BYBLOCK
 62
     0
 10
26093.04557599996
 20
20253.936632000001
 30
0.0
 40
15.0
 50
0.0
 51
180.0
  0
ARC
  5
4681
  8
0
  6
BYBLOCK
 62
     0
 10
26093.04557599996
 20
20253.936632000001
 30
0.0
 40
15.0
 50
180.0
 51
0.0
  0
ARC
  5
4682
  8
0
  6
BYBLOCK
 62
     0
 10
17714.543991999992
 20
20253.936632000001
 30
0.0
 40
15.0
 50
0.0
 51
180.0
  0
ARC
  5
4683
  8
0
  6
BYBLOCK
 62
     0
 10
17714.543991999992
 20
20253.936632000001
 30
0.0
 40
15.0
 50
180.0
 51
0.0
  0
ARC
  5
4684
  8
0
  6
BYBLOCK
 62
     0
 10
17672.047686999991
 20
20253.936632000001
 30
0.0
 40
15.0
 50
180.0
 51
0.0
  0
ARC
  5
4685
  8
0
  6
BYBLOCK
 62
     0
 10
17672.047686999991
 20
20253.936632000001
 30
0.0
 40
15.0
 50
0.0
 51
180.0
  0
ARC
  5
4686
  8
0
  6
BYBLOCK
 62
     0
 10
19874.543991999992
 20
20253.936632000001
 30
0.0
 40
15.0
 50
0.0
 51
180.0
  0
ARC
  5
4687
  8
0
  6
BYBLOCK
 62
     0
 10
19874.543991999992
 20
20253.936632000001
 30
0.0
 40
15.0
 50
180.0
 51
0.0
  0
ARC
  5
4688
  8
0
  6
BYBLOCK
 62
     0
 10
20632.544981499999
 20
20253.936632000001
 30
0.0
 40
15.0
 50
180.0
 51
0.0
  0
ARC
  5
4689
  8
0
  6
BYBLOCK
 62
     0
 10
20632.544981499999
 20
20253.936632000001
 30
0.0
 40
15.0
 50
0.0
 51
180.0
  0
ARC
  5
468A
  8
0
  6
BYBLOCK
 62
     0
 10
19173.543991999992
 20
20253.936632000001
 30
0.0
 40
15.0
 50
0.0
 51
180.0
  0
ARC
  5
468B
  8
0
  6
BYBLOCK
 62
     0
 10
19173.543991999992
 20
20253.936632000001
 30
0.0
 40
15.0
 50
180.0
 51
0.0
  0
ARC
  5
468C
  8
0
  6
BYBLOCK
 62
     0
 10
19874.543991999992
 20
20253.936632000001
 30
0.0
 40
15.0
 50
180.0
 51
0.0
  0
ARC
  5
468D
  8
0
  6
BYBLOCK
 62
     0
 10
19874.543991999992
 20
20253.936632000001
 30
0.0
 40
15.0
 50
0.0
 51
180.0
  0
ARC
  5
468E
  8
0
  6
BYBLOCK
 62
     0
 10
18472.543991999992
 20
20253.936632000001
 30
0.0
 40
15.0
 50
0.0
 51
180.0
  0
ARC
  5
468F
  8
0
  6
BYBLOCK
 62
     0
 10
18472.543991999992
 20
20253.936632000001
 30
0.0
 40
15.0
 50
180.0
 51
0.0
  0
ARC
  5
4690
  8
0
  6
BYBLOCK
 62
     0
 10
19173.543991999992
 20
20253.936632000001
 30
0.0
 40
15.0
 50
180.0
 51
0.0
  0
ARC
  5
4691
  8
0
  6
BYBLOCK
 62
     0
 10
19173.543991999992
 20
20253.936632000001
 30
0.0
 40
15.0
 50
0.0
 51
180.0
  0
ARC
  5
4692
  8
0
  6
BYBLOCK
 62
     0
 10
16864.54465199999
 20
5884.5023850000016
 30
0.0
 40
15.0
 50
90.0
 51
270.0
  0
ARC
  5
4693
  8
0
  6
BYBLOCK
 62
     0
 10
16864.54465199999
 20
5884.5023850000016
 30
0.0
 40
15.0
 50
270.0
 51
90.0
  0
ARC
  5
4694
  8
0
  6
BYBLOCK
 62
     0
 10
16864.54465199999
 20
7776.0023850000016
 30
0.0
 40
15.0
 50
270.0
 51
90.0
  0
ARC
  5
4695
  8
0
  6
BYBLOCK
 62
     0
 10
16864.54465199999
 20
7776.0023850000016
 30
0.0
 40
15.0
 50
90.0
 51
270.0
  0
ARC
  5
4696
  8
0
  6
BYBLOCK
 62
     0
 10
16464.54234299999
 20
5884.5023850000016
 30
0.0
 40
15.0
 50
90.0
 51
270.0
  0
ARC
  5
4697
  8
0
  6
BYBLOCK
 62
     0
 10
16464.54234299999
 20
5884.5023850000016
 30
0.0
 40
15.0
 50
270.0
 51
90.0
  0
ARC
  5
4698
  8
0
  6
BYBLOCK
 62
     0
 10
16464.54234299999
 20
8233.0018899999941
 30
0.0
 40
15.0
 50
270.0
 51
90.0
  0
ARC
  5
4699
  8
0
  6
BYBLOCK
 62
     0
 10
16464.54234299999
 20
8233.0018899999941
 30
0.0
 40
15.0
 50
90.0
 51
270.0
  0
ARC
  5
46AA
  8
0
  6
BYBLOCK
 62
     0
 10
17808.543991999992
 20
4984.5025500000093
 30
0.0
 40
15.0
 50
0.0
 51
180.0
  0
ARC
  5
46AB
  8
0
  6
BYBLOCK
 62
     0
 10
17808.543991999992
 20
4984.5025500000093
 30
0.0
 40
15.0
 50
180.0
 51
0.0
  0
ARC
  5
46AC
  8
0
  6
BYBLOCK
 62
     0
 10
20538.543991999992
 20
4984.5025500000093
 30
0.0
 40
15.0
 50
180.0
 51
0.0
  0
ARC
  5
46AD
  8
0
  6
BYBLOCK
 62
     0
 10
20538.543991999992
 20
4984.5025500000093
 30
0.0
 40
15.0
 50
0.0
 51
180.0
  0
ARC
  5
46AE
  8
0
  6
BYBLOCK
 62
     0
 10
23226.54927099996
 20
4984.5025500000093
 30
0.0
 40
15.0
 50
0.0
 51
180.0
  0
ARC
  5
46AF
  8
0
  6
BYBLOCK
 62
     0
 10
23226.54927099996
 20
4984.5025500000093
 30
0.0
 40
15.0
 50
180.0
 51
0.0
  0
ARC
  5
46B0
  8
0
  6
BYBLOCK
 62
     0
 10
25956.54927099996
 20
4984.5025500000093
 30
0.0
 40
15.0
 50
180.0
 51
0.0
  0
ARC
  5
46B1
  8
0
  6
BYBLOCK
 62
     0
 10
25956.54927099996
 20
4984.5025500000093
 30
0.0
 40
15.0
 50
0.0
 51
180.0
  0
ARC
  5
46B2
  8
0
  6
BYBLOCK
 62
     0
 10
23132.54927099996
 20
4584.5025500000056
 30
0.0
 40
15.0
 50
0.0
 51
180.0
  0
ARC
  5
46B3
  8
0
  6
BYBLOCK
 62
     0
 10
23132.54927099996
 20
4584.5025500000056
 30
0.0
 40
15.0
 50
180.0
 51
0.0
  0
ARC
  5
46B4
  8
0
  6
BYBLOCK
 62
     0
 10
26050.54927099996
 20
4584.5025500000056
 30
0.0
 40
15.0
 50
180.0
 51
0.0
  0
ARC
  5
46B5
  8
0
  6
BYBLOCK
 62
     0
 10
26050.54927099996
 20
4584.5025500000056
 30
0.0
 40
15.0
 50
0.0
 51
180.0
  0
ARC
  5
46B6
  8
0
  6
BYBLOCK
 62
     0
 10
20632.543991999992
 20
4584.5025500000056
 30
0.0
 40
15.0
 50
0.0
 51
180.0
  0
ARC
  5
46B7
  8
0
  6
BYBLOCK
 62
     0
 10
20632.543991999992
 20
4584.5025500000056
 30
0.0
 40
15.0
 50
180.0
 51
0.0
  0
ARC
  5
46B8
  8
0
  6
BYBLOCK
 62
     0
 10
23132.54927099996
 20
4584.5025500000056
 30
0.0
 40
15.0
 50
180.0
 51
0.0
  0
ARC
  5
46B9
  8
0
  6
BYBLOCK
 62
     0
 10
23132.54927099996
 20
4584.5025500000056
 30
0.0
 40
15.0
 50
0.0
 51
180.0
  0
ARC
  5
46BA
  8
0
  6
BYBLOCK
 62
     0
 10
17714.543991999992
 20
4584.5025500000056
 30
0.0
 40
15.0
 50
0.0
 51
180.0
  0
ARC
  5
46BB
  8
0
  6
BYBLOCK
 62
     0
 10
17714.543991999992
 20
4584.5025500000056
 30
0.0
 40
15.0
 50
180.0
 51
0.0
  0
ARC
  5
46BC
  8
0
  6
BYBLOCK
 62
     0
 10
20632.543991999992
 20
4584.5025500000056
 30
0.0
 40
15.0
 50
180.0
 51
0.0
  0
ARC
  5
46BD
  8
0
  6
BYBLOCK
 62
     0
 10
20632.543991999992
 20
4584.5025500000056
 30
0.0
 40
15.0
 50
0.0
 51
180.0
  0
ARC
  5
46BE
  8
0
  6
BYBLOCK
 62
     0
 10
26050.553229999961
 20
4584.5025500000056
 30
0.0
 40
15.0
 50
180.0
 51
0.0
  0
ARC
  5
46BF
  8
0
  6
BYBLOCK
 62
     0
 10
26050.553229999961
 20
4584.5025500000056
 30
0.0
 40
15.0
 50
0.0
 51
180.0
  0
ARC
  5
46C0
  8
0
  6
BYBLOCK
 62
     0
 10
26093.05322999998
 20
4584.5025500000056
 30
0.0
 40
15.0
 50
0.0
 51
180.0
  0
ARC
  5
46C1
  8
0
  6
BYBLOCK
 62
     0
 10
26093.05322999998
 20
4584.5025500000056
 30
0.0
 40
15.0
 50
180.0
 51
0.0
  0
ARC
  5
46C2
  8
0
  6
BYBLOCK
 62
     0
 10
17714.543991999992
 20
4584.5025500000056
 30
0.0
 40
15.0
 50
0.0
 51
180.0
  0
ARC
  5
46C3
  8
0
  6
BYBLOCK
 62
     0
 10
17714.543991999992
 20
4584.5025500000056
 30
0.0
 40
15.0
 50
180.0
 51
0.0
  0
ARC
  5
46C4
  8
0
  6
BYBLOCK
 62
     0
 10
17672.043991999992
 20
4584.5025500000056
 30
0.0
 40
15.0
 50
180.0
 51
0.0
  0
ARC
  5
46C5
  8
0
  6
BYBLOCK
 62
     0
 10
17672.043991999992
 20
4584.5025500000056
 30
0.0
 40
15.0
 50
0.0
 51
180.0
  0
ARC
  5
46C6
  8
0
  6
BYBLOCK
 62
     0
 10
17672.043991999992
 20
4184.5027150000033
 30
0.0
 40
15.0
 50
0.0
 51
180.0
  0
ARC
  5
46C7
  8
0
  6
BYBLOCK
 62
     0
 10
17672.043991999992
 20
4184.5027150000033
 30
0.0
 40
15.0
 50
180.0
 51
0.0
  0
ARC
  5
46C8
  8
0
  6
BYBLOCK
 62
     0
 10
26093.04927099996
 20
4184.5027150000033
 30
0.0
 40
15.0
 50
180.0
 51
0.0
  0
ARC
  5
46C9
  8
0
  6
BYBLOCK
 62
     0
 10
26093.04927099996
 20
4184.5027150000033
 30
0.0
 40
15.0
 50
0.0
 51
180.0
  0
ARC
  5
46CA
  8
0
  6
BYBLOCK
 62
     0
 10
6656.1481469999999
 20
9032.5045560000017
 30
0.0
 40
15.0
 50
180.0
 51
0.0
  0
ARC
  5
46CB
  8
0
  6
BYBLOCK
 62
     0
 10
6656.1481469999999
 20
9032.5045560000017
 30
0.0
 40
15.0
 50
0.0
 51
180.0
  0
ARC
  5
46CC
  8
0
  6
BYBLOCK
 62
     0
 10
6476.1481469999999
 20
9032.5045560000017
 30
0.0
 40
15.0
 50
0.0
 51
180.0
  0
ARC
  5
46CD
  8
0
  6
BYBLOCK
 62
     0
 10
6476.1481469999999
 20
9032.5045560000017
 30
0.0
 40
15.0
 50
180.0
 51
0.0
  0
ARC
  5
46CE
  8
0
  6
BYBLOCK
 62
     0
 10
13316.64656299998
 20
5884.5028800000018
 30
0.0
 40
15.0
 50
90.0
 51
270.0
  0
ARC
  5
46CF
  8
0
  6
BYBLOCK
 62
     0
 10
13316.64656299998
 20
5884.5028800000018
 30
0.0
 40
15.0
 50
270.0
 51
90.0
  0
ARC
  5
46D0
  8
0
  6
BYBLOCK
 62
     0
 10
13316.64656299998
 20
8233.0028800000018
 30
0.0
 40
15.0
 50
270.0
 51
90.0
  0
ARC
  5
46D1
  8
0
  6
BYBLOCK
 62
     0
 10
13316.64656299998
 20
8233.0028800000018
 30
0.0
 40
15.0
 50
90.0
 51
270.0
  0
ARC
  5
46D2
  8
0
  6
BYBLOCK
 62
     0
 10
5566.149729000007
 20
5884.5028800000018
 30
0.0
 40
15.0
 50
90.0
 51
270.0
  0
ARC
  5
46D3
  8
0
  6
BYBLOCK
 62
     0
 10
5566.149729000007
 20
5884.5028800000018
 30
0.0
 40
15.0
 50
270.0
 51
90.0
  0
ARC
  5
46D4
  8
0
  6
BYBLOCK
 62
     0
 10
5566.1497290000088
 20
8040.5028800000073
 30
0.0
 40
15.0
 50
270.0
 51
90.0
  0
ARC
  5
46D5
  8
0
  6
BYBLOCK
 62
     0
 10
5566.1497290000088
 20
8040.5028800000073
 30
0.0
 40
15.0
 50
90.0
 51
270.0
  0
ARC
  5
46D6
  8
0
  6
BYBLOCK
 62
     0
 10
6476.1481469999999
 20
9432.5029060000015
 30
0.0
 40
15.0
 50
0.0
 51
180.0
  0
ARC
  5
46D7
  8
0
  6
BYBLOCK
 62
     0
 10
6476.1481469999999
 20
9432.5029060000015
 30
0.0
 40
15.0
 50
180.0
 51
0.0
  0
ARC
  5
46D8
  8
0
  6
BYBLOCK
 62
     0
 10
12376.648147
 20
9432.5029060000015
 30
0.0
 40
15.0
 50
180.0
 51
0.0
  0
ARC
  5
46D9
  8
0
  6
BYBLOCK
 62
     0
 10
12376.648147
 20
9432.5029060000015
 30
0.0
 40
15.0
 50
0.0
 51
180.0
  0
ARC
  5
46DA
  8
0
  6
BYBLOCK
 62
     0
 10
12226.648147
 20
9032.5045560000017
 30
0.0
 40
15.0
 50
180.0
 51
0.0
  0
ARC
  5
46DB
  8
0
  6
BYBLOCK
 62
     0
 10
12226.648147
 20
9032.5045560000017
 30
0.0
 40
15.0
 50
0.0
 51
180.0
  0
ARC
  5
46DC
  8
0
  6
BYBLOCK
 62
     0
 10
12376.648147
 20
9032.5045560000017
 30
0.0
 40
15.0
 50
0.0
 51
180.0
  0
ARC
  5
46DD
  8
0
  6
BYBLOCK
 62
     0
 10
12376.648147
 20
9032.5045560000017
 30
0.0
 40
15.0
 50
180.0
 51
0.0
  0
ARC
  5
46DE
  8
0
  6
BYBLOCK
 62
     0
 10
6656.1481469999999
 20
9032.5045560000017
 30
0.0
 40
15.0
 50
0.0
 51
180.0
  0
ARC
  5
46DF
  8
0
  6
BYBLOCK
 62
     0
 10
6656.1481469999999
 20
9032.5045560000017
 30
0.0
 40
15.0
 50
180.0
 51
0.0
  0
ARC
  5
46E0
  8
0
  6
BYBLOCK
 62
     0
 10
12226.648147
 20
9032.5045560000017
 30
0.0
 40
15.0
 50
180.0
 51
0.0
  0
ARC
  5
46E1
  8
0
  6
BYBLOCK
 62
     0
 10
12226.648147
 20
9032.5045560000017
 30
0.0
 40
15.0
 50
0.0
 51
180.0
  0
ARC
  5
46E2
  8
0
  6
BYBLOCK
 62
     0
 10
6656.1481469999999
 20
4184.5032100000053
 30
0.0
 40
15.0
 50
0.0
 51
180.0
  0
ARC
  5
46E3
  8
0
  6
BYBLOCK
 62
     0
 10
6656.1481469999999
 20
4184.5032100000053
 30
0.0
 40
15.0
 50
180.0
 51
0.0
  0
ARC
  5
46E4
  8
0
  6
BYBLOCK
 62
     0
 10
12226.648147
 20
4184.5032100000053
 30
0.0
 40
15.0
 50
180.0
 51
0.0
  0
ARC
  5
46E5
  8
0
  6
BYBLOCK
 62
     0
 10
12226.648147
 20
4184.5032100000053
 30
0.0
 40
15.0
 50
0.0
 51
180.0
  0
ARC
  5
46E6
  8
0
  6
BYBLOCK
 62
     0
 10
12184.148147
 20
4584.5030450000031
 30
0.0
 40
15.0
 50
180.0
 51
0.0
  0
ARC
  5
46E7
  8
0
  6
BYBLOCK
 62
     0
 10
12184.148147
 20
4584.5030450000031
 30
0.0
 40
15.0
 50
0.0
 51
180.0
  0
ARC
  5
46E8
  8
0
  6
BYBLOCK
 62
     0
 10
12226.648147
 20
4584.5030450000031
 30
0.0
 40
15.0
 50
0.0
 51
180.0
  0
ARC
  5
46E9
  8
0
  6
BYBLOCK
 62
     0
 10
12226.648147
 20
4584.5030450000031
 30
0.0
 40
15.0
 50
180.0
 51
0.0
  0
ARC
  5
46EA
  8
0
  6
BYBLOCK
 62
     0
 10
6698.6481469999999
 20
4584.5030450000031
 30
0.0
 40
15.0
 50
0.0
 51
180.0
  0
ARC
  5
46EB
  8
0
  6
BYBLOCK
 62
     0
 10
6698.6481469999999
 20
4584.5030450000031
 30
0.0
 40
15.0
 50
180.0
 51
0.0
  0
ARC
  5
46EC
  8
0
  6
BYBLOCK
 62
     0
 10
6656.1481469999999
 20
4584.5030450000031
 30
0.0
 40
15.0
 50
180.0
 51
0.0
  0
ARC
  5
46ED
  8
0
  6
BYBLOCK
 62
     0
 10
6656.1481469999999
 20
4584.5030450000031
 30
0.0
 40
15.0
 50
0.0
 51
180.0
  0
ARC
  5
46EE
  8
0
  6
BYBLOCK
 62
     0
 10
9266.1481469999999
 20
4584.5030450000031
 30
0.0
 40
15.0
 50
180.0
 51
0.0
  0
ARC
  5
46EF
  8
0
  6
BYBLOCK
 62
     0
 10
9266.1481469999999
 20
4584.5030450000031
 30
0.0
 40
15.0
 50
0.0
 51
180.0
  0
ARC
  5
46F0
  8
0
  6
BYBLOCK
 62
     0
 10
6698.6481469999999
 20
4584.5030450000031
 30
0.0
 40
15.0
 50
0.0
 51
180.0
  0
ARC
  5
46F1
  8
0
  6
BYBLOCK
 62
     0
 10
6698.6481469999999
 20
4584.5030450000031
 30
0.0
 40
15.0
 50
180.0
 51
0.0
  0
ARC
  5
46F2
  8
0
  6
BYBLOCK
 62
     0
 10
9266.1481469999999
 20
4584.5030450000031
 30
0.0
 40
15.0
 50
0.0
 51
180.0
  0
ARC
  5
46F3
  8
0
  6
BYBLOCK
 62
     0
 10
9266.1481469999999
 20
4584.5030450000031
 30
0.0
 40
15.0
 50
180.0
 51
0.0
  0
ARC
  5
46F4
  8
0
  6
BYBLOCK
 62
     0
 10
12184.148147
 20
4584.5030450000031
 30
0.0
 40
15.0
 50
180.0
 51
0.0
  0
ARC
  5
46F5
  8
0
  6
BYBLOCK
 62
     0
 10
12184.148147
 20
4584.5030450000031
 30
0.0
 40
15.0
 50
0.0
 51
180.0
  0
LINE
  5
4839
  8
0-1
  6
CONTINUOUS
 62
     3
 10
25987.052252999962
 20
7983.0024050000065
 30
0.0
 11
25987.052252999962
 21
8015.0023120000051
 31
0.0
  0
LINE
  5
483A
  8
0-1
  6
CONTINUOUS
 62
     3
 10
26136.05164599996
 20
7906.8156830000089
 30
0.0
 11
26093.049534999958
 21
7906.8156830000089
 31
0.0
  0
LINE
  5
483B
  8
0-1
  6
CONTINUOUS
 62
     3
 10
26136.05164599996
 20
8233.0027340000088
 30
0.0
 11
26136.05164599996
 21
7906.8156830000089
 31
0.0
  0
LINE
  5
483C
  8
0-1
  6
CONTINUOUS
 62
     3
 10
25701.085059999969
 20
7979.4669840000051
 30
0.0
 11
25669.08614299996
 21
8011.4668920000013
 31
0.0
  0
LINE
  5
483D
  8
0-1
  6
CONTINUOUS
 62
     3
 10
25982.05198899996
 20
8020.002576000008
 30
0.0
 11
25672.621562999961
 21
8020.002576000008
 31
0.0
  0
LINE
  5
483E
  8
0-1
  6
CONTINUOUS
 62
     3
 10
25987.052252999962
 20
8011.6034790000058
 30
0.0
 11
25668.955493999969
 21
8011.6034790000058
 31
0.0
  0
LINE
  5
483F
  8
0-1
  6
CONTINUOUS
 62
     3
 10
25982.05198899996
 20
7978.002141000009
 30
0.0
 11
25704.622459999959
 21
7978.002141000009
 31
0.0
  0
LINE
  5
4840
  8
0-1
  6
CONTINUOUS
 62
     3
 10
25987.052252999962
 20
7986.4022280000008
 30
0.0
 11
25694.150806999962
 21
7986.4022280000008
 31
0.0
  0
LINE
  5
4841
  8
0-1
  6
CONTINUOUS
 62
     3
 10
25987.052252999962
 20
7994.8023150000035
 30
0.0
 11
25685.75170899996
 21
7994.8023150000035
 31
0.0
  0
LINE
  5
4842
  8
0-1
  6
CONTINUOUS
 62
     3
 10
25987.052252999962
 20
8003.2033920000076
 30
0.0
 11
25677.350632999962
 21
8003.2033920000076
 31
0.0
  0
LINE
  5
4843
  8
0-1
  6
CONTINUOUS
 62
     3
 10
23482.015460999992
 20
7979.4669840000051
 30
0.0
 11
23514.012398999988
 21
8011.4668920000013
 31
0.0
  0
LINE
  5
4844
  8
0-1
  6
CONTINUOUS
 62
     3
 10
23196.050246999981
 20
7983.0024050000065
 30
0.0
 11
23196.050246999981
 21
8015.0023120000051
 31
0.0
  0
LINE
  5
4845
  8
0-1
  6
CONTINUOUS
 62
     3
 10
23069.048293999989
 20
7983.0024050000065
 30
0.0
 11
23069.048293999989
 21
8015.0023120000051
 31
0.0
  0
LINE
  5
4846
  8
0-1
  6
CONTINUOUS
 62
     3
 10
23196.050246999981
 20
7986.4022280000008
 30
0.0
 11
23488.94773499998
 21
7986.4022280000008
 31
0.0
  0
LINE
  5
4847
  8
0-1
  6
CONTINUOUS
 62
     3
 10
23196.050246999981
 20
7994.8023150000035
 30
0.0
 11
23497.348811999989
 21
7994.8023150000035
 31
0.0
  0
LINE
  5
4848
  8
0-1
  6
CONTINUOUS
 62
     3
 10
23201.050510999979
 20
7978.002141000009
 30
0.0
 11
23478.47806099998
 21
7978.002141000009
 31
0.0
  0
LINE
  5
4849
  8
0-1
  6
CONTINUOUS
 62
     3
 10
23196.050246999981
 20
8003.2033920000076
 30
0.0
 11
23505.747908999991
 21
8003.2033920000076
 31
0.0
  0
LINE
  5
484A
  8
0-1
  6
CONTINUOUS
 62
     3
 10
23196.050246999981
 20
8011.6034790000058
 30
0.0
 11
23514.14502699998
 21
8011.6034790000058
 31
0.0
  0
LINE
  5
484B
  8
0-1
  6
CONTINUOUS
 62
     3
 10
23201.050510999979
 20
8020.002576000008
 30
0.0
 11
23510.478958
 21
8020.002576000008
 31
0.0
  0
LINE
  5
484C
  8
0-1
  6
CONTINUOUS
 62
     3
 10
22783.08308099999
 20
7979.4669840000051
 30
0.0
 11
22751.086142999979
 21
8011.4668920000013
 31
0.0
  0
LINE
  5
484D
  8
0-1
  6
CONTINUOUS
 62
     3
 10
23064.050009999992
 20
7978.002141000009
 30
0.0
 11
22786.61850099999
 21
7978.002141000009
 31
0.0
  0
LINE
  5
484E
  8
0-1
  6
CONTINUOUS
 62
     3
 10
23064.050009999992
 20
8020.002576000008
 30
0.0
 11
22754.619582999971
 21
8020.002576000008
 31
0.0
  0
LINE
  5
484F
  8
0-1
  6
CONTINUOUS
 62
     3
 10
23069.048293999989
 20
7986.4022280000008
 30
0.0
 11
22776.15080699998
 21
7986.4022280000008
 31
0.0
  0
LINE
  5
4850
  8
0-1
  6
CONTINUOUS
 62
     3
 10
23069.048293999989
 20
7994.8023150000035
 30
0.0
 11
22767.74972999997
 21
7994.8023150000035
 31
0.0
  0
LINE
  5
4851
  8
0-1
  6
CONTINUOUS
 62
     3
 10
23069.048293999989
 20
8003.2033920000076
 30
0.0
 11
22759.35063299998
 21
8003.2033920000076
 31
0.0
  0
LINE
  5
4852
  8
0-1
  6
CONTINUOUS
 62
     3
 10
23069.048293999989
 20
8011.6034790000058
 30
0.0
 11
22750.95549499998
 21
8011.6034790000058
 31
0.0
  0
LINE
  5
4853
  8
0-1
  6
CONTINUOUS
 62
     3
 10
22041.656375999992
 20
7969.0022590000062
 30
0.0
 11
23090.05098699997
 21
7969.0022590000062
 31
0.0
  0
LINE
  5
4854
  8
0-1
  6
CONTINUOUS
 62
     3
 10
22041.656375999992
 20
8029.0024570000069
 30
0.0
 11
23090.05098699997
 21
8029.0024570000069
 31
0.0
  0
LINE
  5
4855
  8
0-1
  6
CONTINUOUS
 62
     3
 10
26136.05164599996
 20
8103.0018110000028
 30
0.0
 11
22041.656375999992
 21
8103.0018110000028
 31
0.0
  0
LINE
  5
4856
  8
0-1
  6
CONTINUOUS
 62
     3
 10
23175.04755499999
 20
8029.0024570000069
 30
0.0
 11
26008.050985999958
 21
8029.0024570000069
 31
0.0
  0
LINE
  5
4857
  8
0-1
  6
CONTINUOUS
 62
     3
 10
23175.04755499999
 20
7969.0022590000062
 30
0.0
 11
26008.050985999958
 21
7969.0022590000062
 31
0.0
  0
LINE
  5
4858
  8
0-1
  6
CONTINUOUS
 62
     3
 10
22041.656375999992
 20
8233.0027340000088
 30
0.0
 11
26136.05164599996
 21
8233.0027340000088
 31
0.0
  0
LINE
  5
4859
  8
0-1
  6
CONTINUOUS
 62
     3
 10
20696.044968999991
 20
7986.4022280000008
 30
0.0
 11
20988.946414999991
 21
7986.4022280000008
 31
0.0
  0
LINE
  5
485A
  8
0-1
  6
CONTINUOUS
 62
     3
 10
20696.044968999991
 20
7994.8023150000035
 30
0.0
 11
20997.343532999988
 21
7994.8023150000035
 31
0.0
  0
LINE
  5
485B
  8
0-1
  6
CONTINUOUS
 62
     3
 10
20701.045232999972
 20
7978.002141000009
 30
0.0
 11
20978.47476199998
 21
7978.002141000009
 31
0.0
  0
LINE
  5
485C
  8
0-1
  6
CONTINUOUS
 62
     3
 10
20696.044968999991
 20
8003.2033920000076
 30
0.0
 11
21005.746588999991
 21
8003.2033920000076
 31
0.0
  0
LINE
  5
485D
  8
0-1
  6
CONTINUOUS
 62
     3
 10
20701.045232999972
 20
8020.002576000008
 30
0.0
 11
21010.47367999997
 21
8020.002576000008
 31
0.0
  0
LINE
  5
485E
  8
0-1
  6
CONTINUOUS
 62
     3
 10
20696.044968999991
 20
7983.0024050000065
 30
0.0
 11
20696.044968999991
 21
8015.0023120000051
 31
0.0
  0
LINE
  5
485F
  8
0-1
  6
CONTINUOUS
 62
     3
 10
20569.043015999989
 20
7983.0024050000065
 30
0.0
 11
20569.043015999989
 21
8015.0023120000051
 31
0.0
  0
LINE
  5
4860
  8
0-1
  6
CONTINUOUS
 62
     3
 10
20696.044968999991
 20
8011.6034790000058
 30
0.0
 11
21014.13974799998
 21
8011.6034790000058
 31
0.0
  0
LINE
  5
4861
  8
0-1
  6
CONTINUOUS
 62
     3
 10
20982.01018199998
 20
7979.4669840000051
 30
0.0
 11
21014.007119999991
 21
8011.4668920000013
 31
0.0
  0
LINE
  5
4862
  8
0-1
  6
CONTINUOUS
 62
     3
 10
20283.081760999979
 20
7979.4669840000051
 30
0.0
 11
20251.080863999989
 21
8011.4668920000013
 31
0.0
  0
LINE
  5
4863
  8
0-1
  6
CONTINUOUS
 62
     3
 10
20569.043015999989
 20
8011.6034790000058
 30
0.0
 11
20250.95021599999
 21
8011.6034790000058
 31
0.0
  0
LINE
  5
4864
  8
0-1
  6
CONTINUOUS
 62
     3
 10
20569.043015999989
 20
8003.2033920000076
 30
0.0
 11
20259.34535399999
 21
8003.2033920000076
 31
0.0
  0
LINE
  5
4865
  8
0-1
  6
CONTINUOUS
 62
     3
 10
20569.043015999989
 20
7994.8023150000035
 30
0.0
 11
20267.74445099998
 21
7994.8023150000035
 31
0.0
  0
LINE
  5
4866
  8
0-1
  6
CONTINUOUS
 62
     3
 10
20569.043015999989
 20
7986.4022280000008
 30
0.0
 11
20276.143548999989
 21
7986.4022280000008
 31
0.0
  0
LINE
  5
4867
  8
0-1
  6
CONTINUOUS
 62
     3
 10
20564.044730999991
 20
8020.002576000008
 30
0.0
 11
20254.614304999981
 21
8020.002576000008
 31
0.0
  0
LINE
  5
4868
  8
0-1
  6
CONTINUOUS
 62
     3
 10
20564.044730999991
 20
7978.002141000009
 30
0.0
 11
20286.61718199998
 21
7978.002141000009
 31
0.0
  0
LINE
  5
4869
  8
0-1
  6
CONTINUOUS
 62
     3
 10
17783.043252999989
 20
7978.002141000009
 30
0.0
 11
18060.47278299999
 21
7978.002141000009
 31
0.0
  0
LINE
  5
486A
  8
0-1
  6
CONTINUOUS
 62
     3
 10
17778.04496899998
 20
7983.0024050000065
 30
0.0
 11
17778.04496899998
 21
8015.0023120000051
 31
0.0
  0
LINE
  5
486B
  8
0-1
  6
CONTINUOUS
 62
     3
 10
17629.043596999982
 20
7906.8156830000089
 30
0.0
 11
17672.041749
 21
7906.8156830000089
 31
0.0
  0
LINE
  5
486C
  8
0-1
  6
CONTINUOUS
 62
     3
 10
17629.043596999982
 20
7906.8156830000089
 30
0.0
 11
17629.043596999982
 21
8233.0027340000088
 31
0.0
  0
LINE
  5
486D
  8
0-1
  6
CONTINUOUS
 62
     3
 10
17783.043252999989
 20
8020.002576000008
 30
0.0
 11
18092.473679999988
 21
8020.002576000008
 31
0.0
  0
LINE
  5
486E
  8
0-1
  6
CONTINUOUS
 62
     3
 10
18064.006222999989
 20
7979.4669840000051
 30
0.0
 11
18096.007120999991
 21
8011.4668920000013
 31
0.0
  0
LINE
  5
486F
  8
0-1
  6
CONTINUOUS
 62
     3
 10
17778.04496899998
 20
8011.6034790000058
 30
0.0
 11
18096.139748000001
 21
8011.6034790000058
 31
0.0
  0
LINE
  5
4870
  8
0-1
  6
CONTINUOUS
 62
     3
 10
17778.04496899998
 20
8003.2033920000076
 30
0.0
 11
18087.74263099999
 21
8003.2033920000076
 31
0.0
  0
LINE
  5
4871
  8
0-1
  6
CONTINUOUS
 62
     3
 10
17778.04496899998
 20
7994.8023150000035
 30
0.0
 11
18079.343532999999
 21
7994.8023150000035
 31
0.0
  0
LINE
  5
4872
  8
0-1
  6
CONTINUOUS
 62
     3
 10
17778.04496899998
 20
7986.4022280000008
 30
0.0
 11
18070.944436000002
 21
7986.4022280000008
 31
0.0
  0
LINE
  5
4873
  8
0-1
  6
CONTINUOUS
 62
     3
 10
17757.042277
 20
7969.0022590000062
 30
0.0
 11
20590.04372799999
 21
7969.0022590000062
 31
0.0
  0
LINE
  5
4874
  8
0-1
  6
CONTINUOUS
 62
     3
 10
17757.042277
 20
8029.0024570000069
 30
0.0
 11
20590.04372799999
 21
8029.0024570000069
 31
0.0
  0
LINE
  5
4875
  8
0-1
  6
CONTINUOUS
 62
     3
 10
17629.043596999982
 20
8233.0027340000088
 30
0.0
 11
21741.656375999999
 21
8233.0027340000088
 31
0.0
  0
LINE
  5
4876
  8
0-1
  6
CONTINUOUS
 62
     3
 10
20675.04623599998
 20
8029.0024570000069
 30
0.0
 11
21741.656375999999
 21
8029.0024570000069
 31
0.0
  0
LINE
  5
4877
  8
0-1
  6
CONTINUOUS
 62
     3
 10
20675.04623599998
 20
7969.0022590000062
 30
0.0
 11
21741.656375999999
 21
7969.0022590000062
 31
0.0
  0
LINE
  5
4878
  8
0-1
  6
CONTINUOUS
 62
     3
 10
21741.656375999999
 20
8103.0018110000028
 30
0.0
 11
17629.043596999982
 21
8103.0018110000028
 31
0.0
  0
LINE
  5
4879
  8
0-1
  6
CONTINUOUS
 62
     3
 10
20632.543991999992
 20
8103.0018110000028
 30
0.0
 11
20632.543991999992
 21
8233.0027340000088
 31
0.0
  0
LINE
  5
487A
  8
0-1
  6
CONTINUOUS
 62
     3
 10
23132.54927099996
 20
8103.0018110000028
 30
0.0
 11
23132.54927099996
 21
8233.0027340000088
 31
0.0
  0
ARC
  5
487B
  8
0-1
  6
CONTINUOUS
 62
     3
 10
25982.05198899996
 20
8015.0023120000051
 30
0.0
 40
5.0
 50
0.0
 51
90.0
  0
ARC
  5
487C
  8
0-1
  6
CONTINUOUS
 62
     3
 10
25982.05198899996
 20
7983.0024050000065
 30
0.0
 40
5.0
 50
269.9999850001808
 51
0.0
  0
ARC
  5
487D
  8
0-1
  6
CONTINUOUS
 62
     3
 10
25672.621562999961
 20
8015.0023120000051
 30
0.0
 40
5.0
 50
90.0
 51
224.99998499997989
  0
ARC
  5
487E
  8
0-1
  6
CONTINUOUS
 62
     3
 10
25704.622459999959
 20
7983.0024050000065
 30
0.0
 40
5.0
 50
224.99998499997989
 51
269.9999850001808
  0
ARC
  5
487F
  8
0-1
  6
CONTINUOUS
 62
     3
 10
23510.478958
 20
8015.0023120000051
 30
0.0
 40
5.0
 50
314.99998500027471
 51
90.0
  0
ARC
  5
4880
  8
0-1
  6
CONTINUOUS
 62
     3
 10
23478.47806099998
 20
7983.0024050000065
 30
0.0
 40
5.0
 50
269.9999850001808
 51
314.99998500027471
  0
ARC
  5
4881
  8
0-1
  6
CONTINUOUS
 62
     3
 10
23201.050510999979
 20
7983.0024050000065
 30
0.0
 40
5.0
 50
180.0
 51
269.9999850001808
  0
ARC
  5
4882
  8
0-1
  6
CONTINUOUS
 62
     3
 10
23201.050510999979
 20
8015.0023120000051
 30
0.0
 40
5.0
 50
90.0
 51
180.0
  0
ARC
  5
4883
  8
0-1
  6
CONTINUOUS
 62
     3
 10
23064.050009999992
 20
8015.0023120000051
 30
0.0
 40
5.0
 50
0.0
 51
90.0
  0
ARC
  5
4884
  8
0-1
  6
CONTINUOUS
 62
     3
 10
23064.050009999992
 20
7983.0024050000065
 30
0.0
 40
5.0
 50
269.9999850001808
 51
0.0
  0
ARC
  5
4885
  8
0-1
  6
CONTINUOUS
 62
     3
 10
22786.61850099999
 20
7983.0024050000065
 30
0.0
 40
5.0
 50
224.99998499997989
 51
269.9999850001808
  0
ARC
  5
4886
  8
0-1
  6
CONTINUOUS
 62
     3
 10
22754.619582999971
 20
8015.0023120000051
 30
0.0
 40
5.0
 50
90.0
 51
224.99998499997989
  0
ARC
  5
4887
  8
0-1
  6
CONTINUOUS
 62
     3
 10
20701.045232999972
 20
7983.0024050000065
 30
0.0
 40
5.0
 50
180.0
 51
269.9999850001808
  0
ARC
  5
4888
  8
0-1
  6
CONTINUOUS
 62
     3
 10
20701.045232999972
 20
8015.0023120000051
 30
0.0
 40
5.0
 50
90.0
 51
180.0
  0
ARC
  5
4889
  8
0-1
  6
CONTINUOUS
 62
     3
 10
20978.47476199998
 20
7983.0024050000065
 30
0.0
 40
5.0
 50
269.9999850001808
 51
314.99998500027471
  0
ARC
  5
488A
  8
0-1
  6
CONTINUOUS
 62
     3
 10
20564.044730999991
 20
7983.0024050000065
 30
0.0
 40
5.0
 50
269.9999850001808
 51
0.0
  0
ARC
  5
488B
  8
0-1
  6
CONTINUOUS
 62
     3
 10
20564.044730999991
 20
8015.0023120000051
 30
0.0
 40
5.0
 50
0.0
 51
90.0
  0
ARC
  5
488C
  8
0-1
  6
CONTINUOUS
 62
     3
 10
21010.47367999997
 20
8015.0023120000051
 30
0.0
 40
5.0
 50
314.99998500027471
 51
90.0
  0
ARC
  5
488D
  8
0-1
  6
CONTINUOUS
 62
     3
 10
20254.614304999981
 20
8015.0023120000051
 30
0.0
 40
5.0
 50
90.0
 51
224.99998499997989
  0
ARC
  5
488E
  8
0-1
  6
CONTINUOUS
 62
     3
 10
20286.61718199998
 20
7983.0024050000065
 30
0.0
 40
5.0
 50
224.99998499997989
 51
269.9999850001808
  0
ARC
  5
488F
  8
0-1
  6
CONTINUOUS
 62
     3
 10
18092.473679999988
 20
8015.0023120000051
 30
0.0
 40
5.0
 50
314.99998500027471
 51
90.0
  0
ARC
  5
4890
  8
0-1
  6
CONTINUOUS
 62
     3
 10
17783.043252999989
 20
8015.0023120000051
 30
0.0
 40
5.0
 50
90.0
 51
180.0
  0
ARC
  5
4891
  8
0-1
  6
CONTINUOUS
 62
     3
 10
17783.043252999989
 20
7983.0024050000065
 30
0.0
 40
5.0
 50
180.0
 51
269.9999850001808
  0
ARC
  5
4892
  8
0-1
  6
CONTINUOUS
 62
     3
 10
18060.47278299999
 20
7983.0024050000065
 30
0.0
 40
5.0
 50
269.9999850001808
 51
314.99998500027471
  0
LINE
  5
4893
  8
SUNPOU
  6
CONTINUOUS
 62
     4
 10
17629.041616999981
 20
8313.0027340000051
 30
0.0
 11
17629.041616999981
 21
9512.4603460000017
 31
0.0
  0
LINE
  5
4894
  8
SUNPOU
  6
CONTINUOUS
 62
     4
 10
26136.05164599996
 20
8313.0027340000051
 30
0.0
 11
26136.05164599996
 21
9512.4603460000017
 31
0.0
  0
LINE
  5
4895
  8
SUNPOU
  6
CONTINUOUS
 62
     4
 10
17632.041616999981
 20
9432.4603460000035
 30
0.0
 11
26133.05164599996
 21
9432.4603460000035
 31
0.0
  0
LINE
  5
4896
  8
SUNPOU
  6
CONTINUOUS
 62
     4
 10
17672.04372799999
 20
8313.0027340000051
 30
0.0
 11
17672.04372799999
 21
9112.5025760000099
 31
0.0
  0
LINE
  5
4897
  8
SUNPOU
  6
CONTINUOUS
 62
     4
 10
26093.049534999958
 20
8313.0027340000051
 30
0.0
 11
26093.049534999958
 21
9112.5025760000099
 31
0.0
  0
LINE
  5
4898
  8
SUNPOU
  6
CONTINUOUS
 62
     4
 10
17672.04372799999
 20
9032.5025759999971
 30
0.0
 11
26093.049534999958
 21
9032.5025759999971
 31
0.0
  0
LINE
  5
4899
  8
SUNPOU
  6
CONTINUOUS
 62
     4
 10
17672.04372799999
 20
8313.0027340000051
 30
0.0
 11
17672.04372799999
 21
9112.5025760000099
 31
0.0
  0
LINE
  5
489A
  8
SUNPOU
  6
CONTINUOUS
 62
     4
 10
17629.041616999981
 20
8313.0027340000051
 30
0.0
 11
17629.041616999981
 21
9112.5025760000099
 31
0.0
  0
LINE
  5
489B
  8
SUNPOU
  6
CONTINUOUS
 62
     4
 10
17672.04372799999
 20
9032.5025759999971
 30
0.0
 11
17912.04372799999
 21
9032.5025759999971
 31
0.0
  0
LINE
  5
489C
  8
SUNPOU
  6
CONTINUOUS
 62
     4
 10
17632.041616999981
 20
9032.5025759999971
 30
0.0
 11
17392.041616999981
 21
9032.5025759999971
 31
0.0
  0
LINE
  5
489D
  8
SUNPOU
  6
CONTINUOUS
 62
     4
 10
17672.04372799999
 20
9032.5025759999971
 30
0.0
 11
17632.041616999981
 21
9032.5025759999971
 31
0.0
  0
LINE
  5
489E
  8
SUNPOU
  6
CONTINUOUS
 62
     4
 10
26093.049534999958
 20
8313.0027340000051
 30
0.0
 11
26093.049534999958
 21
9112.5025760000099
 31
0.0
  0
LINE
  5
489F
  8
SUNPOU
  6
CONTINUOUS
 62
     4
 10
26136.05164599996
 20
8313.0027340000051
 30
0.0
 11
26136.05164599996
 21
9112.5025760000099
 31
0.0
  0
LINE
  5
48A0
  8
SUNPOU
  6
CONTINUOUS
 62
     4
 10
26093.049534999958
 20
9032.5025759999971
 30
0.0
 11
25853.049534999958
 21
9032.5025759999971
 31
0.0
  0
LINE
  5
48A1
  8
SUNPOU
  6
CONTINUOUS
 62
     4
 10
26133.05164599996
 20
9032.5025759999971
 30
0.0
 11
26373.05164599996
 21
9032.5025759999971
 31
0.0
  0
LINE
  5
48A2
  8
SUNPOU
  6
CONTINUOUS
 62
     4
 10
26093.049534999958
 20
9032.5025759999971
 30
0.0
 11
26133.05164599996
 21
9032.5025759999971
 31
0.0
  0
TEXT
  5
48A3
  8
0
  6
CONTINUOUS
 62
     7
 10
26253.05164599996
 20
9112.5025760000099
 30
0.0
 40
160.0
  1
43
  0
TEXT
  5
48A4
  8
0
  6
CONTINUOUS
 62
     7
 10
17272.04161699997
 20
9112.5025760000099
 30
0.0
 40
160.0
  1
43
  0
TEXT
  5
48A5
  8
0
  6
CONTINUOUS
 62
     7
 10
20975.879964833312
 20
9112.5025760000099
 30
0.0
 40
160.0
  1
2918 \U+00D7 ｎ ＋ 85
  0
TEXT
  5
48A6
  8
0
  6
CONTINUOUS
 62
     7
 10
20922.546631499979
 20
9512.4603460000017
 30
0.0
 40
160.0
  1
2918 \U+00D7 ｎ ＋ 171
  0
ARC
  5
48A7
  8
0
  6
BYBLOCK
 62
     0
 10
17629.041616999981
 20
9432.4603460000035
 30
0.0
 40
15.0
 50
0.0
 51
180.0
  0
ARC
  5
48A8
  8
0
  6
BYBLOCK
 62
     0
 10
17629.041616999981
 20
9432.4603460000035
 30
0.0
 40
15.0
 50
180.0
 51
0.0
  0
ARC
  5
48A9
  8
0
  6
BYBLOCK
 62
     0
 10
26136.05164599996
 20
9432.4603460000035
 30
0.0
 40
15.0
 50
180.0
 51
0.0
  0
ARC
  5
48AA
  8
0
  6
BYBLOCK
 62
     0
 10
26136.05164599996
 20
9432.4603460000035
 30
0.0
 40
15.0
 50
0.0
 51
180.0
  0
ARC
  5
48AB
  8
0
  6
BYBLOCK
 62
     0
 10
17672.04372799999
 20
9032.5025759999971
 30
0.0
 40
15.0
 50
0.0
 51
180.0
  0
ARC
  5
48AC
  8
0
  6
BYBLOCK
 62
     0
 10
17672.04372799999
 20
9032.5025759999971
 30
0.0
 40
15.0
 50
180.0
 51
0.0
  0
ARC
  5
48AD
  8
0
  6
BYBLOCK
 62
     0
 10
26093.049534999958
 20
9032.5025759999971
 30
0.0
 40
15.0
 50
180.0
 51
0.0
  0
ARC
  5
48AE
  8
0
  6
BYBLOCK
 62
     0
 10
26093.049534999958
 20
9032.5025759999971
 30
0.0
 40
15.0
 50
0.0
 51
180.0
  0
ARC
  5
48AF
  8
0
  6
BYBLOCK
 62
     0
 10
17672.04372799999
 20
9032.5025759999971
 30
0.0
 40
15.0
 50
0.0
 51
180.0
  0
ARC
  5
48B0
  8
0
  6
BYBLOCK
 62
     0
 10
17672.04372799999
 20
9032.5025759999971
 30
0.0
 40
15.0
 50
180.0
 51
0.0
  0
ARC
  5
48B1
  8
0
  6
BYBLOCK
 62
     0
 10
17629.041616999981
 20
9032.5025759999971
 30
0.0
 40
15.0
 50
180.0
 51
0.0
  0
ARC
  5
48B2
  8
0
  6
BYBLOCK
 62
     0
 10
17629.041616999981
 20
9032.5025759999971
 30
0.0
 40
15.0
 50
0.0
 51
180.0
  0
ARC
  5
48B3
  8
0
  6
BYBLOCK
 62
     0
 10
26093.049534999958
 20
9032.5025759999971
 30
0.0
 40
15.0
 50
180.0
 51
0.0
  0
ARC
  5
48B4
  8
0
  6
BYBLOCK
 62
     0
 10
26093.049534999958
 20
9032.5025759999971
 30
0.0
 40
15.0
 50
0.0
 51
180.0
  0
ARC
  5
48B5
  8
0
  6
BYBLOCK
 62
     0
 10
26136.05164599996
 20
9032.5025759999971
 30
0.0
 40
15.0
 50
0.0
 51
180.0
  0
ARC
  5
48B6
  8
0
  6
BYBLOCK
 62
     0
 10
26136.05164599996
 20
9032.5025759999971
 30
0.0
 40
15.0
 50
180.0
 51
0.0
  0
TEXT
  5
492A
  8
NAME
 10
24033.053546554002
 20
1076.0
 30
0.0
 40
360.0
  1
H
 41
0.6700000000000002
  7
00
  0
TEXT
  5
492B
  8
NAME
 10
23657.221561973671
 20
1076.0
 30
0.0
 40
360.0
  1
（ ）
  7
01
  0
TEXT
  5
492C
  8
NAME
 10
21933.552716388989
 20
1876.0
 30
0.0
 40
360.0
  1
ヨドガレージ ラヴィージュ
 41
0.75
  7
01
  0
TEXT
  5
492D
  8
NAME
 10
21550.022791898369
 20
1076.6369801169251
 30
0.0
 40
360.0
  1
VGCU-3055
 41
0.6700000000000002
  0
LINE
  5
492E
  8
NAME
  6
CONTINUOUS
 10
26067.886878884288
 20
2236.0
 30
0.0
 11
26067.886878884288
 21
1876.0
 31
0.0
  0
LINE
  5
492F
  8
NAME
  6
CONTINUOUS
 10
26167.886878884288
 20
2236.0
 30
0.0
 11
26167.886878884288
 21
1876.0
 31
0.0
  0
LINE
  5
4930
  8
NAME
  6
CONTINUOUS
 10
26267.88687888431
 20
2236.0
 30
0.0
 11
26267.88687888431
 21
1876.0
 31
0.0
  0
LINE
  5
4931
  8
NAME
  6
CONTINUOUS
 10
26007.886878884288
 20
2236.0
 30
0.0
 11
26327.886878884288
 21
2236.0
 31
0.0
  0
LINE
  5
4932
  8
NAME
  6
CONTINUOUS
 10
26327.886878884288
 20
1876.0
 30
0.0
 11
26007.886878884288
 21
1876.0
 31
0.0
  0
TEXT
  5
4933
  8
NAME
 10
25346.041792426651
 20
1076.0
 30
0.0
 40
360.0
  1
n
 41
0.6700000000000002
  7
00
  0
TEXT
  5
4934
  8
NAME
 10
24557.2145492567
 20
1076.0
 30
0.0
 40
360.0
  1
型（ 連棟）
  7
01
  0
LINE
  5
498E
  8
2-0
  6
CONTINUOUS
 62
     3
 10
23090.049006999969
 20
16871.438149500002
 30
0.0
 11
23175.049534999958
 21
16871.438149500002
 31
0.0
  0
LINE
  5
498F
  8
2-0
  6
CONTINUOUS
 62
     3
 10
23175.049534999958
 20
16956.432738499981
 30
0.0
 11
23090.049006999969
 21
16956.432738499981
 31
0.0
  0
LINE
  5
4990
  8
2-0
  6
CONTINUOUS
 62
     3
 10
23090.049006999969
 20
16956.432738499981
 30
0.0
 11
23090.049006999969
 21
16871.438149500002
 31
0.0
  0
LINE
  5
4991
  8
2-0
  6
CONTINUOUS
 62
     3
 10
23175.049534999958
 20
16871.438149500002
 30
0.0
 11
23175.049534999958
 21
16956.432738499981
 31
0.0
  0
LINE
  5
4992
  8
2-0
  6
CONTINUOUS
 62
     6
 10
24813.27289513516
 20
15855.69472209199
 30
0.0
 11
23782.923576135181
 21
15855.69472209199
 31
0.0
  0
LINE
  5
4993
  8
2-0
  6
CONTINUOUS
 62
     6
 10
23171.482442
 20
16862.297511000012
 30
0.0
 11
23782.923576135181
 21
15855.69472209199
 31
0.0
  0
LINE
  5
4994
  8
2-0
  6
CONTINUOUS
 62
     6
 10
23231.76076199998
 20
16711.701676000019
 30
0.0
 11
23171.482442
 21
16862.297511000012
 31
0.0
  0
LINE
  5
4995
  8
2-0
  6
CONTINUOUS
 62
     6
 10
23171.482442
 20
16862.297511000012
 30
0.0
 11
23277.341156999999
 21
16739.389202999981
 31
0.0
  0
LINE
  5
4996
  8
2-0
  6
CONTINUOUS
 62
     6
 10
23231.76076199998
 20
16711.701676000019
 30
0.0
 11
23277.341156999999
 21
16739.389202999981
 31
0.0
  0
LINE
  5
4997
  8
2-0
  6
CONTINUOUS
 62
     6
 10
23277.341156999999
 20
16739.389202999981
 30
0.0
 11
23171.482442
 21
16862.297511000012
 31
0.0
  0
LINE
  5
4998
  8
2-0
  6
CONTINUOUS
 62
     6
 10
23171.482442
 20
16862.297511000012
 30
0.0
 11
23231.76076199998
 21
16711.701676000019
 31
0.0
  0
LINE
  5
4999
  8
2-0
  6
CONTINUOUS
 62
     6
 10
23231.76076199998
 20
16711.701676000019
 30
0.0
 11
23171.482442
 21
16862.297511000012
 31
0.0
  0
LINE
  5
499A
  8
2-0
  6
CONTINUOUS
 62
     6
 10
23277.341156999999
 20
16739.389202999981
 30
0.0
 11
23171.482442
 21
16862.297511000012
 31
0.0
  0
LINE
  5
499B
  8
2-0
  6
CONTINUOUS
 62
     6
 10
23277.341156999999
 20
16739.389202999981
 30
0.0
 11
23231.76076199998
 21
16711.701676000019
 31
0.0
  0
TEXT
  5
499C
  8
2-0
  6
CONTINUOUS
 62
     7
 10
23846.238803468521
 20
15928.695409091981
 30
0.0
 40
160.0
  1
中柱（中）
 72
     4
 11
24267.572136801849
 21
16008.695409091981
 31
0.0
  0
TEXT
  5
49F5
  8
FILENAME
  6
CONTINUOUS
 10
28527.809523809519
 20
348.0
 30
0.0
 40
200.0
  1
＜VGCU-3055-N-A_0.DXF ＞
  7
FILENAME
 72
     2
 11
32764.0
 21
348.0
 31
0.0
  0
LINE
  5
49FB
  8
WAKUSEN-01
 10
868.00000000000193
 20
827.99999999999955
 30
0.0
 11
32764.000000000011
 21
827.99999999999943
 31
0.0
  0
LINE
  5
49FC
  8
WAKUSEN-01
 10
868.00000000000193
 20
827.99999999999955
 30
0.0
 11
868.00000000000193
 21
22484.000000000011
 31
0.0
  0
LINE
  5
49FD
  8
WAKUSEN-01
 10
32764.000000000011
 20
827.99999999999943
 30
0.0
 11
32764.000000000011
 21
22484.000000000011
 31
0.0
  0
LINE
  5
49FE
  8
WAKUSEN-01
 10
20560.0
 20
827.99999999999716
 30
0.0
 11
20560.0
 21
2484.0
 31
0.0
  0
LINE
  5
49FF
  8
WAKUSEN-02
 10
26868.0
 20
827.99999999999261
 30
0.0
 11
26868.0
 21
2484.0
 31
0.0
  0
ENDSEC
  0
EOF
