  0
SECTION
  2
HEADER
  9
$ACADVER
  1
AC1009
  9
$INSBASE
 10
0.0
 20
0.0
 30
0.0
  9
$EXTMIN
 10
867.99324330406671
 20
327.38164749855792
 30
-0.0000000000000053
  9
$EXTMAX
 10
32765.33210850941
 20
22484.553276491992
 30
0.0000000000000099
  9
$LIMMIN
 10
0.0
 20
0.0
  9
$LIMMAX
 10
33600.0
 20
23760.0
  9
$ORTHOMODE
 70
     1
  9
$REGENMODE
 70
     1
  9
$FILLMODE
 70
     1
  9
$QTEXTMODE
 70
     0
  9
$MIRRTEXT
 70
     1
  9
$DRAGMODE
 70
     2
  9
$LTSCALE
 40
80.0
  9
$OSMODE
 70
  3071
  9
$ATTMODE
 70
     1
  9
$TEXTSIZE
 40
0.2
  9
$TRACEWID
 40
0.05
  9
$TEXTSTYLE
  7
00
  9
$CLAYER
  8
0
  9
$CELTYPE
  6
BYLAYER
  9
$CECOLOR
 62
   256
  9
$DIMSCALE
 40
80.0
  9
$DIMASZ
 40
3.0
  9
$DIMEXO
 40
1.0
  9
$DIMDLI
 40
0.38
  9
$DIMRND
 40
0.5
  9
$DIMDLE
 40
0.0
  9
$DIMEXE
 40
1.0
  9
$DIMTP
 40
0.0
  9
$DIMTM
 40
0.0
  9
$DIMTXT
 40
2.0
  9
$DIMCEN
 40
0.09
  9
$DIMTSZ
 40
0.0
  9
$DIMTOL
 70
     0
  9
$DIMLIM
 70
     0
  9
$DIMTIH
 70
     0
  9
$DIMTOH
 70
     0
  9
$DIMSE1
 70
     0
  9
$DIMSE2
 70
     0
  9
$DIMTAD
 70
     1
  9
$DIMZIN
 70
     8
  9
$DIMBLK
  1
DOTSMALL
  9
$DIMASO
 70
     1
  9
$DIMSHO
 70
     1
  9
$DIMPOST
  1

  9
$DIMAPOST
  1

  9
$DIMALT
 70
     0
  9
$DIMALTD
 70
     2
  9
$DIMALTF
 40
25.399999999999999
  9
$DIMLFAC
 40
1.0
  9
$DIMTOFL
 70
     1
  9
$DIMTVP
 40
0.0
  9
$DIMTIX
 70
     0
  9
$DIMSOXD
 70
     0
  9
$DIMSAH
 70
     0
  9
$DIMBLK1
  1

  9
$DIMBLK2
  1

  9
$DIMSTYLE
  2
SUNPOU
  9
$DIMCLRD
 70
     4
  9
$DIMCLRE
 70
     4
  9
$DIMCLRT
 70
     7
  9
$DIMTFAC
 40
1.0
  9
$DIMGAP
 40
1.0
  9
$LUNITS
 70
     2
  9
$LUPREC
 70
     4
  9
$SKETCHINC
 40
0.1
  9
$FILLETRAD
 40
0.0
  9
$AUNITS
 70
     0
  9
$AUPREC
 70
     0
  9
$MENU
  1
acad
  9
$ELEVATION
 40
0.0
  9
$PELEVATION
 40
0.0
  9
$THICKNESS
 40
0.0
  9
$LIMCHECK
 70
     0
  9
$BLIPMODE
 70
     1
  9
$CHAMFERA
 40
0.0
  9
$CHAMFERB
 40
0.0
  9
$SKPOLY
 70
     0
  9
$TDCREATE
 40
2311940.0750537962
  9
$TDUPDATE
 40
2458942.4373501618
  9
$TDINDWG
 40
0.0735939815
  9
$TDUSRTIMER
 40
0.0735898032
  9
$USRTIMER
 70
     1
  9
$ANGBASE
 50
0.0
  9
$ANGDIR
 70
     0
  9
$PDMODE
 70
     0
  9
$PDSIZE
 40
0.0
  9
$PLINEWID
 40
0.0
  9
$COORDS
 70
     1
  9
$SPLFRAME
 70
     0
  9
$SPLINETYPE
 70
     6
  9
$SPLINESEGS
 70
     8
  9
$ATTDIA
 70
     1
  9
$ATTREQ
 70
     1
  9
$HANDLING
 70
     1
  9
$HANDSEED
  5
4030
  9
$SURFTAB1
 70
     6
  9
$SURFTAB2
 70
     6
  9
$SURFTYPE
 70
     6
  9
$SURFU
 70
     6
  9
$SURFV
 70
     6
  9
$UCSNAME
  2

  9
$UCSORG
 10
0.0
 20
0.0
 30
0.0
  9
$UCSXDIR
 10
1.0
 20
0.0
 30
0.0
  9
$UCSYDIR
 10
0.0
 20
1.0
 30
0.0
  9
$PUCSNAME
  2

  9
$PUCSORG
 10
0.0
 20
0.0
 30
0.0
  9
$PUCSXDIR
 10
1.0
 20
0.0
 30
0.0
  9
$PUCSYDIR
 10
0.0
 20
1.0
 30
0.0
  9
$USERI1
 70
     0
  9
$USERI2
 70
     0
  9
$USERI3
 70
     0
  9
$USERI4
 70
     0
  9
$USERI5
 70
     0
  9
$USERR1
 40
0.0
  9
$USERR2
 40
0.0
  9
$USERR3
 40
0.0
  9
$USERR4
 40
0.0
  9
$USERR5
 40
0.0
  9
$WORLDVIEW
 70
     1
  9
$SHADEDGE
 70
     3
  9
$SHADEDIF
 70
    70
  9
$TILEMODE
 70
     1
  9
$MAXACTVP
 70
    16
  9
$PLIMCHECK
 70
     0
  9
$PEXTMIN
 10
1.0000000000000000E+020
 20
1.0000000000000000E+020
 30
1.0000000000000000E+020
  9
$PEXTMAX
 10
-1.0000000000000000E+020
 20
-1.0000000000000000E+020
 30
-1.0000000000000000E+020
  9
$PLIMMIN
 10
0.0
 20
0.0
  9
$PLIMMAX
 10
12.0
 20
9.0
  9
$UNITMODE
 70
     0
  9
$VISRETAIN
 70
     0
  9
$PLINEGEN
 70
     1
  9
$PSLTSCALE
 70
     0
  0
ENDSEC
  0
SECTION
  2
TABLES
  0
TABLE
  2
VPORT
 70
     1
  0
VPORT
  2
*ACTIVE
 70
     0
 10
0.0
 20
0.0
 11
1.0
 21
1.0
 12
16800.0
 22
11880.0
 13
0.0
 23
0.0
 14
1.0
 24
1.0
 15
0.0
 25
0.0
 16
0.0
 26
0.0
 36
1.0
 17
0.0
 27
0.0
 37
0.0
 40
23981.023255813951
 41
2.195652173913043
 42
50.0
 43
0.0
 44
0.0
 50
0.0
 51
0.0
 71
     0
 72
 10000
 73
     1
 74
     1
 75
     0
 76
     0
 77
     0
 78
     0
  0
ENDTAB
  0
TABLE
  2
LTYPE
 70
     3
  0
LTYPE
  2
CONTINUOUS
 70
     0
  3
Solid line
 72
    65
 73
     0
 40
0.0
  0
LTYPE
  2
DASHED3
 70
     0
  3
------  ------  ------  ------  
 72
    65
 73
     2
 40
5.0
 49
3.75
 49
-1.25
  0
LTYPE
  2
CENTER2
 70
     0
  3
----------  --  ----------  --  
 72
    65
 73
     4
 40
20.0
 49
12.5
 49
-2.5
 49
2.5
 49
-2.5
  0
ENDTAB
  0
TABLE
  2
LAYER
 70
    19
  0
LAYER
  2
0
 70
     0
 62
     7
  6
CONTINUOUS
  0
LAYER
  2
SUNPOU
 70
     0
 62
     4
  6
CONTINUOUS
  0
LAYER
  2
0-1
 70
     0
 62
     7
  6
CONTINUOUS
  0
LAYER
  2
2-0
 70
     0
 62
     7
  6
CONTINUOUS
  0
LAYER
  2
0-2
 70
     0
 62
     7
  6
CONTINUOUS
  0
LAYER
  2
0-6
 70
     0
 62
     7
  6
CONTINUOUS
  0
LAYER
  2
0-7
 70
     0
 62
     7
  6
CONTINUOUS
  0
LAYER
  2
0-8
 70
     0
 62
     7
  6
CONTINUOUS
  0
LAYER
  2
0-5
 70
     0
 62
     7
  6
CONTINUOUS
  0
LAYER
  2
YODOROGO
 70
     0
 62
   130
  6
CONTINUOUS
  0
LAYER
  2
WAKUSEN-01
 70
     0
 62
    50
  6
CONTINUOUS
  0
LAYER
  2
WAKUSEN-02
 70
     0
 62
   130
  6
CONTINUOUS
  0
LAYER
  2
WAKUMOJI-01
 70
     0
 62
   130
  6
CONTINUOUS
  0
LAYER
  2
FILENAME
 70
     0
 62
     7
  6
CONTINUOUS
  0
LAYER
  2
NAME
 70
     0
 62
    20
  6
CONTINUOUS
  0
LAYER
  2
0-4
 70
     0
 62
     7
  6
CONTINUOUS
  0
LAYER
  2
0-0
 70
     0
 62
     7
  6
CONTINUOUS
  0
ENDTAB
  0
TABLE
  2
STYLE
 70
     6
  0
STYLE
  2
STANDARD
 70
     0
 40
0.0
 41
1.0
 50
0.0
 71
     0
 42
0.0
  3
txt
  4
BIGFONT
  0
STYLE
  2
00
 70
     0
 40
0.0
 41
0.6666666666666666
 50
0.0
 71
     0
 42
0.2
  3
ROMANS
  4
BIGFONT
  0
STYLE
  2
01
 70
     0
 40
3.0
 41
1.0
 50
0.0
 71
     0
 42
0.2
  3
ROMANS
  4
BIGFONT
  0
STYLE
  2
WAKUMOJI
 70
     0
 40
3.0
 41
1.0
 50
0.0
 71
     0
 42
3.0
  3
SIMPLEX
  4
BIGFONT
  0
STYLE
  2
FILENAME
 70
     0
 40
200.0
 41
1.0
 50
0.0
 71
     0
 42
200.0
  3
romans
  4
bigfont
  0
ENDTAB
  0
TABLE
  2
VIEW
 70
     0
  0
ENDTAB
  0
TABLE
  2
UCS
 70
     0
  0
ENDTAB
  0
TABLE
  2
APPID
 70
    13
  0
APPID
  2
ACAD
 70
     0
  0
APPID
  2
ACADANNOTATIVE
 70
     0
  0
APPID
  2
ACAD_PSEXT
 70
     0
  0
APPID
  2
DCO15
 70
     0
  0
APPID
  2
ACAD_MLEADERVER
 70
     0
  0
APPID
  2
AUTOCAD_POSTSCRIPT_FIGURE
 70
     0
  0
APPID
  2
ACAD_EXEMPT_FROM_CAD_STANDARDS
 70
     0
  0
APPID
  2
ACAD_DSTYLE_DIMJAG
 70
     0
  0
APPID
  2
ACAD_DSTYLE_DIMTALN
 70
     0
  0
APPID
  2
ACAD_DSTYLE_DIM_LINETYPE
 70
     0
  0
APPID
  2
ACAD_DSTYLE_DIM_EXT1_LINETYPE
 70
     0
  0
APPID
  2
ACAD_DSTYLE_DIM_EXT2_LINETYPE
 70
     0
  0
APPID
  2
ACAD_NAV_VCDISPLAY
 70
     0
  0
ENDTAB
  0
TABLE
  2
DIMSTYLE
 70
     3
  0
DIMSTYLE
  2
SUNPOU
 70
     0
  3

  4

  5

  6

  7

 40
80.0
 41
3.0
 42
1.0
 43
0.38
 44
1.0
 45
0.5
 46
0.0
 47
0.0
 48
0.0
140
2.0
141
0.09
142
0.0
143
25.399999999999999
144
1.0
145
0.0
146
1.0
147
1.0
 71
     0
 72
     0
 73
     0
 74
     0
 75
     0
 76
     0
 77
     1
 78
     8
170
     0
171
     2
172
     1
173
     0
174
     0
175
     0
176
     4
177
     4
178
     7
  0
ENDTAB
  0
ENDSEC
  0
SECTION
  2
BLOCKS
  0
BLOCK
  8
0
  2
$MODEL_SPACE
 70
     0
 10
0.0
 20
0.0
 30
0.0
  3
$MODEL_SPACE
  1

  0
ENDBLK
  5
3D1E
  8
0
  0
BLOCK
 67
     1
  8
0
  2
$PAPER_SPACE
 70
     0
 10
0.0
 20
0.0
 30
0.0
  3
$PAPER_SPACE
  1

  0
ENDBLK
  5
3D1A
 67
     1
  8
0
  0
BLOCK
  8
0
  2
_DOTSMALL
 70
     0
 10
0.0
 20
0.0
 30
0.0
  3
_DOTSMALL
  1

  0
POLYLINE
  5
114F
  8
0
  6
BYBLOCK
 62
     0
 66
     1
 10
0.0
 20
0.0
 30
0.0
 70
     1
 40
0.5
 41
0.5
  0
VERTEX
  5
3FF0
  8
0
  6
BYBLOCK
 62
     0
 10
-0.0625
 20
0.0
 30
0.0
 42
1.0
  0
VERTEX
  5
3FF1
  8
0
  6
BYBLOCK
 62
     0
 10
0.0625
 20
0.0
 30
0.0
 42
1.0
  0
SEQEND
  5
3FF2
  8
0
  6
BYBLOCK
 62
     0
  0
ENDBLK
  5
1150
  8
0
  0
ENDSEC
  0
SECTION
  2
ENTITIES
  0
LINE
  5
187
  8
0-2
  6
CONTINUOUS
 62
     3
 10
9199.6601154999862
 20
14245.732536999991
 30
0.0
 11
9199.6601154999862
 21
20094.226823000001
 31
0.0
  0
LINE
  5
188
  8
0-2
  6
CONTINUOUS
 62
     3
 10
9064.1620694999874
 20
14213.731638999991
 30
0.0
 11
9064.1620694999874
 21
20104.226295
 31
0.0
  0
LINE
  5
189
  8
0-2
  6
CONTINUOUS
 62
     3
 10
11634.18946549998
 20
18487.282988999999
 30
0.0
 11
11760.931112499989
 21
18702.771401999998
 31
0.0
  0
LINE
  5
18A
  8
0-2
  6
CONTINUOUS
 62
     3
 10
12369.40840049999
 20
17764.820071999999
 30
0.0
 11
12496.150047499979
 21
17980.312443999988
 31
0.0
  0
LINE
  5
18B
  8
0-2
  6
CONTINUOUS
 62
     3
 10
12369.40840049999
 20
17764.820071999999
 30
0.0
 11
11760.931112499989
 21
18702.771401999998
 31
0.0
  0
LINE
  5
18C
  8
0-2
  6
CONTINUOUS
 62
     3
 10
9107.1597264999873
 20
14369.732549999981
 30
0.0
 11
15028.161739499979
 21
14369.732549999981
 31
0.0
  0
LINE
  5
18D
  8
0-2
  6
CONTINUOUS
 62
     3
 10
9149.6604854999914
 20
14448.732166999989
 30
0.0
 11
14985.66048549998
 21
14448.732166999989
 31
0.0
  0
LINE
  5
18E
  8
0-2
  6
CONTINUOUS
 62
     3
 10
9064.1620694999874
 20
14213.731638999991
 30
0.0
 11
15071.160881499991
 21
14213.731638999991
 31
0.0
  0
LINE
  5
18F
  8
0-2
  6
CONTINUOUS
 62
     3
 10
9064.1620694999874
 20
14245.732536999991
 30
0.0
 11
15071.160881499991
 21
14245.732536999991
 31
0.0
  0
LINE
  5
190
  8
0-2
  6
CONTINUOUS
 62
     3
 10
9149.6604854999914
 20
14369.732549999981
 30
0.0
 11
9149.6604854999914
 21
19631.67166
 31
0.0
  0
LINE
  5
191
  8
0-2
  6
CONTINUOUS
 62
     3
 10
9107.1597264999873
 20
14369.732549999981
 30
0.0
 11
9107.1597264999873
 21
19651.249099000001
 31
0.0
  0
LINE
  5
207
  8
0-2
  6
CONTINUOUS
 62
     3
 10
12067.66048549998
 20
14369.732549999981
 30
0.0
 11
12067.66048549998
 21
14448.732166999989
 31
0.0
  0
LINE
  5
2E2
  8
0-2
  6
CONTINUOUS
 62
     3
 10
15028.161739499979
 20
14369.732549999981
 30
0.0
 11
15028.161739499979
 21
16813.54679199999
 31
0.0
  0
LINE
  5
2E3
  8
0-2
  6
CONTINUOUS
 62
     3
 10
14985.66048549998
 20
14369.732549999981
 30
0.0
 11
14985.66048549998
 21
16833.12423099998
 31
0.0
  0
LINE
  5
2E4
  8
0-2
  6
CONTINUOUS
 62
     3
 10
15071.160881499991
 20
14213.731638999991
 30
0.0
 11
15071.160881499991
 21
20104.226295
 31
0.0
  0
LINE
  5
2E5
  8
0-2
  6
CONTINUOUS
 62
     3
 10
14935.661844499989
 20
14245.732536999991
 30
0.0
 11
14935.661844499989
 21
20094.226823000001
 31
0.0
  0
LINE
  5
2E6
  8
0-2
  6
CONTINUOUS
 62
     3
 10
11634.18946549998
 20
18487.282988999999
 30
0.0
 11
8915.9644604999867
 21
19739.321839
 31
0.0
  0
LINE
  5
3AF
  8
0-2
  6
CONTINUOUS
 62
     3
 10
14896.16150149999
 20
16874.353643999992
 30
0.0
 11
14896.16150149999
 21
20094.226823000001
 31
0.0
  0
LINE
  5
3B0
  8
0-2
  6
CONTINUOUS
 62
     3
 10
14859.162319499979
 20
16891.39927899999
 30
0.0
 11
14859.162319499979
 21
20094.22682299999
 31
0.0
  0
LINE
  5
3B1
  8
0-2
  6
CONTINUOUS
 62
     3
 10
12286.16073649998
 20
17893.144342999982
 30
0.0
 11
12286.16073649998
 21
20094.226823000001
 31
0.0
  0
LINE
  5
3B2
  8
0-2
  6
CONTINUOUS
 62
     3
 10
14686.16073649998
 20
16966.484397999979
 30
0.0
 11
14686.16073649998
 21
20094.226823000001
 31
0.0
  0
LINE
  5
3B3
  8
0-2
  6
CONTINUOUS
 62
     3
 10
14649.15957549998
 20
16983.52607299999
 30
0.0
 11
14649.15957549998
 21
20094.226823000001
 31
0.0
  0
LINE
  5
3B4
  8
0-2
  6
CONTINUOUS
 62
     3
 10
14486.161066499961
 20
17058.61119299999
 30
0.0
 11
14486.161066499961
 21
20094.226823000001
 31
0.0
  0
LINE
  5
3B5
  8
0-2
  6
CONTINUOUS
 62
     3
 10
14449.161884499979
 20
17075.656826999999
 30
0.0
 11
14449.161884499979
 21
20094.226823000001
 31
0.0
  0
LINE
  5
3B6
  8
0-2
  6
CONTINUOUS
 62
     3
 10
14249.16122449998
 20
17167.78758099999
 30
0.0
 11
14249.16122449998
 21
20094.226823000001
 31
0.0
  0
LINE
  5
3B7
  8
0-2
  6
CONTINUOUS
 62
     3
 10
14286.160406499979
 20
17150.74194599998
 30
0.0
 11
14286.160406499979
 21
20094.226823000001
 31
0.0
  0
LINE
  5
3B8
  8
0-2
  6
CONTINUOUS
 62
     3
 10
14086.160736499991
 20
17242.872699999982
 30
0.0
 11
14086.160736499991
 21
20094.226823000001
 31
0.0
  0
LINE
  5
3B9
  8
0-2
  6
CONTINUOUS
 62
     3
 10
14049.15957549998
 20
17259.918334999998
 30
0.0
 11
14049.15957549998
 21
20094.226823000001
 31
0.0
  0
LINE
  5
3BA
  8
0-2
  6
CONTINUOUS
 62
     3
 10
13849.16188449997
 20
17352.049089
 30
0.0
 11
13849.16188449997
 21
20094.226823000001
 31
0.0
  0
LINE
  5
3BB
  8
0-2
  6
CONTINUOUS
 62
     3
 10
13886.16106649997
 20
17335.003453999991
 30
0.0
 11
13886.16106649997
 21
20094.226823000001
 31
0.0
  0
LINE
  5
3BC
  8
0-2
  6
CONTINUOUS
 62
     3
 10
13649.16023549998
 20
17444.17984199998
 30
0.0
 11
13649.16023549998
 21
20094.226823000001
 31
0.0
  0
LINE
  5
3BD
  8
0-2
  6
CONTINUOUS
 62
     3
 10
13686.160406499979
 20
17427.130249000002
 30
0.0
 11
13686.160406499979
 21
20094.226823000001
 31
0.0
  0
LINE
  5
3BE
  8
0-2
  6
CONTINUOUS
 62
     3
 10
13449.15957549998
 20
17536.306636999991
 30
0.0
 11
13449.15957549998
 21
20094.226823000001
 31
0.0
  0
LINE
  5
3BF
  8
0-2
  6
CONTINUOUS
 62
     3
 10
13486.160736499991
 20
17519.261002999981
 30
0.0
 11
13486.160736499991
 21
20094.226823000001
 31
0.0
  0
LINE
  5
3C0
  8
0-2
  6
CONTINUOUS
 62
     3
 10
13249.16188449997
 20
17633.437443999999
 30
0.0
 11
13249.16188449997
 21
20094.226823000001
 31
0.0
  0
LINE
  5
3C1
  8
0-2
  6
CONTINUOUS
 62
     3
 10
13286.16106649997
 20
17616.39180899999
 30
0.0
 11
13286.16106649997
 21
20094.226823000001
 31
0.0
  0
LINE
  5
3C2
  8
0-2
  6
CONTINUOUS
 62
     3
 10
13049.16023549998
 20
17725.56819799999
 30
0.0
 11
13049.16023549998
 21
20094.226823000001
 31
0.0
  0
LINE
  5
3C3
  8
0-2
  6
CONTINUOUS
 62
     3
 10
13086.16040649999
 20
17708.522562999991
 30
0.0
 11
13086.16040649999
 21
20094.226823000001
 31
0.0
  0
LINE
  5
3C4
  8
0-2
  6
CONTINUOUS
 62
     3
 10
12886.16172649998
 20
17800.653316999989
 30
0.0
 11
12886.16172649998
 21
20094.226823000001
 31
0.0
  0
LINE
  5
3C5
  8
0-2
  6
CONTINUOUS
 62
     3
 10
12849.160564499991
 20
17817.698951999999
 30
0.0
 11
12849.160564499991
 21
20094.226823000001
 31
0.0
  0
LINE
  5
3C6
  8
0-2
  6
CONTINUOUS
 62
     3
 10
12649.16089449997
 20
17909.829704999989
 30
0.0
 11
12649.16089449997
 21
20094.226823000001
 31
0.0
  0
LINE
  5
3C7
  8
0-2
  6
CONTINUOUS
 62
     3
 10
12686.161066499981
 20
17892.78407099998
 30
0.0
 11
12686.161066499981
 21
20094.226823000001
 31
0.0
  0
LINE
  5
3C8
  8
0-2
  6
CONTINUOUS
 62
     3
 10
12486.16040649999
 20
17963.326194999991
 30
0.0
 11
12486.16040649999
 21
20094.226823000001
 31
0.0
  0
LINE
  5
3C9
  8
0-2
  6
CONTINUOUS
 62
     3
 10
12449.16122449998
 20
17908.060015999999
 30
0.0
 11
12449.16122449998
 21
20094.226823000001
 31
0.0
  0
LINE
  5
3CA
  8
0-2
  6
CONTINUOUS
 62
     3
 10
12249.16056449998
 20
17950.180211999988
 30
0.0
 11
12249.16056449998
 21
20094.226823000001
 31
0.0
  0
LINE
  5
3CB
  8
0-2
  6
CONTINUOUS
 62
     3
 10
12086.161066499961
 20
18201.440505999992
 30
0.0
 11
12086.161066499961
 21
20094.226823000001
 31
0.0
  0
LINE
  5
3CC
  8
0-2
  6
CONTINUOUS
 62
     3
 10
12049.16089449997
 20
18258.478353999999
 30
0.0
 11
12049.16089449997
 21
20094.226823000001
 31
0.0
  0
LINE
  5
3CD
  8
0-2
  6
CONTINUOUS
 62
     3
 10
11849.161224499971
 20
18566.77253699999
 30
0.0
 11
11849.161224499971
 21
20094.226823000001
 31
0.0
  0
LINE
  5
3CE
  8
0-2
  6
CONTINUOUS
 62
     3
 10
11886.15941649995
 20
18509.738646999998
 30
0.0
 11
11886.15941649995
 21
20094.226823000001
 31
0.0
  0
LINE
  5
3CF
  8
0-2
  6
CONTINUOUS
 62
     3
 10
11686.160736499991
 20
18575.64869799999
 30
0.0
 11
11686.160736499991
 21
20094.226823000001
 31
0.0
  0
LINE
  5
3D0
  8
0-2
  6
CONTINUOUS
 62
     3
 10
11649.15957549998
 20
18512.737617999988
 30
0.0
 11
11649.15957549998
 21
20094.226823000001
 31
0.0
  0
LINE
  5
3D1
  8
0-2
  6
CONTINUOUS
 62
     3
 10
11486.16106649997
 20
18555.471464999999
 30
0.0
 11
11486.16106649997
 21
20094.226823000001
 31
0.0
  0
LINE
  5
3D2
  8
0-2
  6
CONTINUOUS
 62
     3
 10
11449.16089449997
 20
18572.517100000001
 30
0.0
 11
11449.16089449997
 21
20094.226823000001
 31
0.0
  0
LINE
  5
3D3
  8
0-2
  6
CONTINUOUS
 62
     3
 10
11286.15941649999
 20
18647.604198999961
 30
0.0
 11
11286.15941649999
 21
20094.226823000001
 31
0.0
  0
LINE
  5
3D4
  8
0-2
  6
CONTINUOUS
 62
     3
 10
11249.161224499971
 20
18664.647853999999
 30
0.0
 11
11249.161224499971
 21
20094.226823000001
 31
0.0
  0
LINE
  5
3D5
  8
0-2
  6
CONTINUOUS
 62
     3
 10
11086.16172649999
 20
18739.734951999999
 30
0.0
 11
11086.16172649999
 21
20094.226823000001
 31
0.0
  0
LINE
  5
3D6
  8
0-2
  6
CONTINUOUS
 62
     3
 10
11049.15957549998
 20
18756.778606999989
 30
0.0
 11
11049.15957549998
 21
20094.226823000001
 31
0.0
  0
LINE
  5
3D7
  8
0-2
  6
CONTINUOUS
 62
     3
 10
10886.16007649998
 20
18831.86570599999
 30
0.0
 11
10886.160076499969
 21
20094.226823000001
 31
0.0
  0
LINE
  5
3D8
  8
0-2
  6
CONTINUOUS
 62
     3
 10
10849.161884499979
 20
18848.909361000002
 30
0.0
 11
10849.161884499979
 21
20094.226823000001
 31
0.0
  0
LINE
  5
3D9
  8
0-2
  6
CONTINUOUS
 62
     3
 10
10286.160076499989
 20
19112.750762
 30
0.0
 11
10286.160076499989
 21
20094.226823000001
 31
0.0
  0
LINE
  5
3DA
  8
0-2
  6
CONTINUOUS
 62
     3
 10
10249.16188449997
 20
19129.79441699999
 30
0.0
 11
10249.16188449997
 21
20094.226823000001
 31
0.0
  0
LINE
  5
3DB
  8
0-2
  6
CONTINUOUS
 62
     3
 10
10449.159575499971
 20
19033.16691
 30
0.0
 11
10449.159575499971
 21
20094.226823000001
 31
0.0
  0
LINE
  5
3DC
  8
0-2
  6
CONTINUOUS
 62
     3
 10
10486.16172649997
 20
19016.121275000001
 30
0.0
 11
10486.16172649997
 21
20094.226823000001
 31
0.0
  0
LINE
  5
3DD
  8
0-2
  6
CONTINUOUS
 62
     3
 10
10649.16023549997
 20
18941.036155999998
 30
0.0
 11
10649.16023549997
 21
20094.226823000001
 31
0.0
  0
LINE
  5
3DE
  8
0-2
  6
CONTINUOUS
 62
     3
 10
10686.15941649997
 20
18923.990520999982
 30
0.0
 11
10686.15941649997
 21
20094.226823000001
 31
0.0
  0
LINE
  5
3DF
  8
0-2
  6
CONTINUOUS
 62
     3
 10
10086.16040649999
 20
19204.881515000001
 30
0.0
 11
10086.16040649999
 21
20094.226823000001
 31
0.0
  0
LINE
  5
3E0
  8
0-2
  6
CONTINUOUS
 62
     3
 10
9276.1606304999877
 20
19573.398592000001
 30
0.0
 11
9276.1606304999877
 21
20094.226823000001
 31
0.0
  0
LINE
  5
3E1
  8
0-2
  6
CONTINUOUS
 62
     3
 10
9239.1624384999886
 20
19590.444227
 30
0.0
 11
9239.1624384999886
 21
20094.226823000012
 31
0.0
  0
LINE
  5
3E2
  8
0-2
  6
CONTINUOUS
 62
     3
 10
9486.1618914999835
 20
19481.267838
 30
0.0
 11
9486.1618914999835
 21
20094.226823000001
 31
0.0
  0
LINE
  5
3E3
  8
0-2
  6
CONTINUOUS
 62
     3
 10
9449.1602354999886
 20
19498.313472999991
 30
0.0
 11
9449.1602354999886
 21
20094.226823000012
 31
0.0
  0
LINE
  5
3E4
  8
0-2
  6
CONTINUOUS
 62
     3
 10
9686.1600764999876
 20
19389.137084000009
 30
0.0
 11
9686.1600764999876
 21
20094.226823000001
 31
0.0
  0
LINE
  5
3E5
  8
0-2
  6
CONTINUOUS
 62
     3
 10
9649.1594104999876
 20
19406.182719000011
 30
0.0
 11
9649.1594104999876
 21
20094.226823000001
 31
0.0
  0
LINE
  5
3E6
  8
0-2
  6
CONTINUOUS
 62
     3
 10
9849.1615544999877
 20
19314.055924000011
 30
0.0
 11
9849.1615544999877
 21
20094.226823000001
 31
0.0
  0
LINE
  5
3E7
  8
0-2
  6
CONTINUOUS
 62
     3
 10
9886.1587564999863
 20
19297.01226900001
 30
0.0
 11
9886.1587564999863
 21
20094.226823000001
 31
0.0
  0
LINE
  5
3E8
  8
0-2
  6
CONTINUOUS
 62
     3
 10
10049.16023549998
 20
19221.92517000001
 30
0.0
 11
10049.16023549998
 21
20094.226823000001
 31
0.0
  0
LINE
  5
3E9
  8
0-2
  6
CONTINUOUS
 62
     3
 10
15219.359479499981
 20
16725.47306199999
 30
0.0
 11
12496.150047499979
 21
17980.312443999988
 31
0.0
  0
LINE
  5
3EA
  8
0-2
  6
CONTINUOUS
 62
     3
 10
15002.66162049999
 20
20114.22682299999
 30
0.0
 11
15066.160617499991
 21
20114.22682299999
 31
0.0
  0
LINE
  5
3EB
  8
0-2
  6
CONTINUOUS
 62
     3
 10
15071.160881499991
 20
20109.226558999992
 30
0.0
 11
15071.160881499991
 21
20074.22867
 31
0.0
  0
LINE
  5
3EC
  8
0-2
  6
CONTINUOUS
 62
     3
 10
15053.162108499981
 20
20074.22867
 30
0.0
 11
15002.66162049999
 21
20074.22867
 31
0.0
  0
LINE
  5
3ED
  8
0-2
  6
CONTINUOUS
 62
     3
 10
14997.661356499981
 20
20079.228933999992
 30
0.0
 11
14997.661356499981
 21
20109.226558999992
 31
0.0
  0
LINE
  5
3EE
  8
0-2
  6
CONTINUOUS
 62
     3
 10
15053.162108499981
 20
20096.727878000002
 30
0.0
 11
15071.160881499991
 21
20096.727878000002
 31
0.0
  0
LINE
  5
3EF
  8
0-2
  6
CONTINUOUS
 62
     3
 10
15053.162108499981
 20
16803.41165699999
 30
0.0
 11
15053.162108499981
 21
20096.727878000002
 31
0.0
  0
LINE
  5
3F0
  8
0-2
  6
CONTINUOUS
 62
     3
 10
11997.660749499981
 20
15865.47142550002
 30
0.0
 11
9219.6597264999891
 21
14406.230913999991
 31
0.0
  0
LINE
  5
3F1
  8
0-2
  6
CONTINUOUS
 62
     3
 10
9219.6597264999891
 20
15865.47142550002
 30
0.0
 11
11997.660749499981
 21
14406.230913999991
 31
0.0
  0
LINE
  5
3F2
  8
2-0
  6
BYBLOCK
 62
     3
 10
9149.6604854999914
 20
17279.23249799999
 30
0.0
 11
14007.23209227509
 21
17279.23249799999
 31
0.0
  0
LINE
  5
3F3
  8
0-2
  6
CONTINUOUS
 62
     3
 10
9149.6604854999914
 20
15910.472810500019
 30
0.0
 11
14932.661844499989
 21
15910.472810500019
 31
0.0
  0
LINE
  5
3F4
  8
0-2
  6
CONTINUOUS
 62
     3
 10
9149.6604854999914
 20
15820.47201950001
 30
0.0
 11
14932.661844499989
 21
15820.47201950001
 31
0.0
  0
LINE
  5
3F5
  8
2-0
  6
BYBLOCK
 62
     3
 10
9149.6604854999914
 20
17369.231309999988
 30
0.0
 11
13811.85855795538
 21
17369.231309999988
 31
0.0
  0
LINE
  5
3F6
  8
0-2
  6
CONTINUOUS
 62
     3
 10
9219.6597264999891
 20
17324.230914
 30
0.0
 11
11997.660749499981
 21
15865.47142550002
 31
0.0
  0
LINE
  5
3F7
  8
0-2
  6
CONTINUOUS
 62
     3
 10
11997.660749499981
 20
17324.230914
 30
0.0
 11
9219.6597264999891
 21
15865.47142550002
 31
0.0
  0
LINE
  5
3F8
  8
0-2
  6
CONTINUOUS
 62
     3
 10
9219.6597264999891
 20
18783.230914
 30
0.0
 11
11997.660749499981
 21
17324.230914
 31
0.0
  0
LINE
  5
3F9
  8
0-2
  6
CONTINUOUS
 62
     3
 10
11527.67157149999
 20
18536.349316
 30
0.0
 11
9219.6597264999891
 21
17324.230914
 31
0.0
  0
LINE
  5
3FA
  8
0-2
  6
CONTINUOUS
 62
     3
 10
9149.6604854999914
 20
18828.233289999978
 30
0.0
 11
10894.042519499981
 21
18828.233289999978
 31
0.0
  0
LINE
  5
3FB
  8
0-2
  6
CONTINUOUS
 62
     3
 10
9149.6604854999914
 20
18738.232497999968
 30
0.0
 11
11089.41704449998
 21
18738.232497999968
 31
0.0
  0
LINE
  5
3FC
  8
0-2
  6
CONTINUOUS
 62
     3
 10
10174.050041499981
 20
19164.390463
 30
0.0
 11
9219.6597264999891
 21
18783.230914
 31
0.0
  0
LINE
  5
3FD
  8
0-2
  6
CONTINUOUS
 62
     3
 10
9082.1598514999878
 20
20074.22867
 30
0.0
 11
9132.6613304999846
 21
20074.22867
 31
0.0
  0
LINE
  5
3FE
  8
0-2
  6
CONTINUOUS
 62
     3
 10
9082.1598514999878
 20
20096.727878000002
 30
0.0
 11
9064.1620694999874
 21
20096.727878000002
 31
0.0
  0
LINE
  5
3FF
  8
0-2
  6
CONTINUOUS
 62
     3
 10
9132.6613304999846
 20
20114.22682299999
 30
0.0
 11
9069.1618384999874
 21
20114.22682299999
 31
0.0
  0
LINE
  5
400
  8
0-2
  6
CONTINUOUS
 62
     3
 10
9064.1620694999874
 20
20109.226558999992
 30
0.0
 11
9064.1620694999874
 21
20074.22867
 31
0.0
  0
LINE
  5
401
  8
0-2
  6
CONTINUOUS
 62
     3
 10
9137.6610994999919
 20
20079.228933999992
 30
0.0
 11
9137.6610994999919
 21
20109.226558999992
 31
0.0
  0
LINE
  5
402
  8
0-2
  6
CONTINUOUS
 62
     3
 10
9137.6610994999919
 20
20094.226823000001
 30
0.0
 11
14997.661356499981
 21
20094.226823000001
 31
0.0
  0
LINE
  5
403
  8
0-2
  6
CONTINUOUS
 62
     3
 10
9082.1598514999878
 20
19661.386213000002
 30
0.0
 11
9082.1598514999878
 21
20096.727878000002
 31
0.0
  0
LINE
  5
404
  8
0-2
  6
CONTINUOUS
 62
     3
 10
12137.659232499989
 20
17324.230914
 30
0.0
 11
14915.660749499961
 21
15865.47142550002
 31
0.0
  0
LINE
  5
405
  8
0-2
  6
CONTINUOUS
 62
     3
 10
14915.660749499961
 20
17324.230914
 30
0.0
 11
12137.659232499989
 21
15865.47142550002
 31
0.0
  0
LINE
  5
406
  8
0-2
  6
CONTINUOUS
 62
     3
 10
14915.660749499961
 20
15865.47142550002
 30
0.0
 11
12137.659232499989
 21
14406.230913999991
 31
0.0
  0
LINE
  5
407
  8
0-2
  6
CONTINUOUS
 62
     3
 10
12137.659232499989
 20
15865.47142550002
 30
0.0
 11
14915.660749499961
 21
14406.230913999991
 31
0.0
  0
LINE
  5
408
  8
0-2
  6
CONTINUOUS
 62
     3
 10
12965.51765649998
 20
17764.09754699999
 30
0.0
 11
12137.659232499989
 21
17324.230914
 31
0.0
  0
LINE
  5
41D
  8
0-2
  6
CONTINUOUS
 62
     3
 10
12067.66048549998
 20
14448.732166999989
 30
0.0
 11
12067.66048549998
 21
15820.47201950001
 31
0.0
  0
LINE
  5
41E
  8
0-2
  6
CONTINUOUS
 62
     3
 10
12010.65925849998
 20
14448.732166999989
 30
0.0
 11
12010.65925849998
 21
15820.47201950001
 31
0.0
  0
LINE
  5
41F
  8
0-2
  6
CONTINUOUS
 62
     3
 10
12124.66072349999
 20
14448.732166999989
 30
0.0
 11
12124.66072349999
 21
15820.47201950001
 31
0.0
  0
LINE
  5
420
  8
0-2
  6
CONTINUOUS
 62
     3
 10
12124.66072349999
 20
17369.231309999988
 30
0.0
 11
12124.66072349999
 21
18142.094538999991
 31
0.0
  0
LINE
  5
421
  8
0-2
  6
CONTINUOUS
 62
     3
 10
12010.65925849998
 20
17369.231309999988
 30
0.0
 11
12010.65925849998
 21
18317.824320999978
 31
0.0
  0
LINE
  5
422
  8
0-2
  6
CONTINUOUS
 62
     3
 10
12010.65925849998
 20
15910.472810500019
 30
0.0
 11
12010.65925849998
 21
17279.23249799999
 31
0.0
  0
LINE
  5
423
  8
0-2
  6
CONTINUOUS
 62
     3
 10
12124.66072349999
 20
15910.472810500019
 30
0.0
 11
12124.66072349999
 21
17279.23249799999
 31
0.0
  0
LINE
  5
424
  8
0-2
  6
CONTINUOUS
 62
     3
 10
12067.66048549998
 20
17369.231309999988
 30
0.0
 11
12067.66048549998
 21
18229.957450000002
 31
0.0
  0
LINE
  5
425
  8
0-2
  6
CONTINUOUS
 62
     3
 10
12067.66048549998
 20
17369.231309999988
 30
0.0
 11
12067.66048549998
 21
18229.957450000002
 31
0.0
  0
LINE
  5
426
  8
0-2
  6
CONTINUOUS
 62
     3
 10
12067.66048549998
 20
15910.472810500019
 30
0.0
 11
12067.66048549998
 21
17279.23249799999
 31
0.0
  0
LINE
  5
427
  8
0-2
  6
CONTINUOUS
 62
     3
 10
12067.66048549998
 20
15910.472810500019
 30
0.0
 11
12067.66048549998
 21
17279.23249799999
 31
0.0
  0
LINE
  5
428
  8
0-2
  6
CONTINUOUS
 62
     3
 10
12067.66048549998
 20
14448.732166999989
 30
0.0
 11
12067.66048549998
 21
15820.47201950001
 31
0.0
  0
LINE
  5
429
  8
0-2
  6
CONTINUOUS
 62
     3
 10
12067.66048549998
 20
15910.472810500019
 30
0.0
 11
12067.66048549998
 21
15820.47201950001
 31
0.0
  0
LINE
  5
42A
  8
0-2
  6
CONTINUOUS
 62
     3
 10
12067.66048549998
 20
17369.231309999988
 30
0.0
 11
12067.66048549998
 21
17279.23249799999
 31
0.0
  0
LINE
  5
4AE
  8
0-2
  6
CONTINUOUS
 62
     3
 10
12067.66048549998
 20
14369.732549999981
 30
0.0
 11
12067.66048549998
 21
14213.731638999991
 31
0.0
  0
LINE
  5
4B6
  8
0-6
  6
CONTINUOUS
 62
     6
 10
10777.90218449999
 20
19831.953410999999
 30
0.0
 11
10921.806257499969
 21
20344.227086999999
 31
0.0
  0
LINE
  5
4B8
  8
0-6
  6
CONTINUOUS
 62
     6
 10
10921.806257499969
 20
20344.227086999999
 30
0.0
 11
11439.49589549998
 21
20344.227086999999
 31
0.0
  0
LINE
  5
4BA
  8
0-6
  6
CONTINUOUS
 62
     6
 10
9314.1876774999946
 20
17956.920472999998
 30
0.0
 11
9844.1870244999882
 21
17956.920472999998
 31
0.0
  0
LINE
  5
4BB
  8
0-6
  6
CONTINUOUS
 62
     6
 10
11155.598289499991
 20
14600.62161799999
 30
0.0
 11
11238.485681499989
 21
14782.801450500019
 31
0.0
  0
LINE
  5
4BC
  8
0-6
  6
CONTINUOUS
 62
     6
 10
11238.485681499989
 20
14782.801450500019
 30
0.0
 11
12038.48535149998
 21
14782.801450500019
 31
0.0
  0
LINE
  5
4BE
  8
0-6
  6
CONTINUOUS
 62
     6
 10
10544.341756499991
 20
14077.263628000001
 30
0.0
 11
10901.948364010699
 21
13413.732959000001
 31
0.0
  0
LINE
  5
4BF
  8
0-6
  6
CONTINUOUS
 62
     6
 10
7333.7604974999858
 20
13013.732629
 30
0.0
 11
8413.7620804999897
 21
13013.732629
 31
0.0
  0
LINE
  5
4C0
  8
0-6
  6
CONTINUOUS
 62
     6
 10
8972.2679074999905
 20
14799.245311500001
 30
0.0
 11
8413.7620804999897
 21
13013.732629
 31
0.0
  0
LINE
  5
4C1
  8
0-6
  6
CONTINUOUS
 62
     6
 10
9215.1469194999863
 20
18177.710037000001
 30
0.0
 11
9314.1876774999946
 21
17956.920472999998
 31
0.0
  0
LINE
  5
4D2
  8
0-6
  6
CONTINUOUS
 62
     6
 10
12760.94430949999
 20
21064.229461999988
 30
0.0
 11
14435.94463949995
 21
21064.229461999988
 31
0.0
  0
LINE
  5
4D3
  8
0-6
  6
CONTINUOUS
 62
     6
 10
14626.226852499991
 20
20734.649516000001
 30
0.0
 11
14435.94463949995
 21
21064.229461999988
 31
0.0
  0
LINE
  5
4D4
  8
0-6
  6
CONTINUOUS
 62
     6
 10
14919.42777349998
 20
20244.132729000001
 30
0.0
 11
14700.233134499989
 21
20606.461831000001
 31
0.0
  0
LINE
  5
4D5
  8
0-6
  6
CONTINUOUS
 62
     6
 10
15269.928261499979
 20
16218.780638999981
 30
0.0
 11
16149.927205499949
 21
16218.780638999981
 31
0.0
  0
LINE
  5
4D6
  8
0-6
  6
CONTINUOUS
 62
     6
 10
15269.928261499979
 20
17729.644026999998
 30
0.0
 11
17264.372412499972
 21
17729.644026999998
 31
0.0
  0
LINE
  5
4D7
  8
0-6
  6
CONTINUOUS
 62
     6
 10
15269.928261499979
 20
19188.142705999999
 30
0.0
 11
17264.372412499972
 21
19188.142705999999
 31
0.0
  0
LINE
  5
4D8
  8
0-6
  6
CONTINUOUS
 62
     6
 10
15269.928261499979
 20
15412.159690500021
 30
0.0
 11
17264.372412499972
 21
15412.159690500021
 31
0.0
  0
LINE
  5
4D9
  8
0-6
  6
CONTINUOUS
 62
     6
 10
14360.44975949999
 20
15762.41570850001
 30
0.0
 11
15269.928261499979
 21
15412.159690500021
 31
0.0
  0
LINE
  5
4DA
  8
0-6
  6
CONTINUOUS
 62
     6
 10
14627.135451499989
 20
16011.777643500011
 30
0.0
 11
15269.928261499979
 21
16218.780638999981
 31
0.0
  0
LINE
  5
4DB
  8
0-6
  6
CONTINUOUS
 62
     6
 10
14362.886546499991
 20
17420.595857999979
 30
0.0
 11
15269.928261499979
 21
17729.644026999998
 31
0.0
  0
LINE
  5
4DC
  8
0-6
  6
CONTINUOUS
 62
     6
 10
14362.886546499991
 20
18879.59585799999
 30
0.0
 11
15269.928261499979
 21
19188.142705999999
 31
0.0
  0
LINE
  5
4E3
  8
0-6
  6
CONTINUOUS
 62
     6
 10
12010.65925849998
 20
16074.068923000001
 30
0.0
 11
11850.00252049998
 21
16499.092347999991
 31
0.0
  0
LINE
  5
4E4
  8
0-6
  6
CONTINUOUS
 62
     6
 10
10902.05561049998
 20
16499.092347999991
 30
0.0
 11
11850.00252049998
 21
16499.092347999991
 31
0.0
  0
LINE
  5
4E5
  8
0-6
  6
CONTINUOUS
 62
     6
 10
8997.7126394999868
 20
14791.261912500009
 30
0.0
 11
9020.1598844999917
 21
14951.9087535
 31
0.0
  0
LINE
  5
4E6
  8
0-6
  6
CONTINUOUS
 62
     6
 10
9020.1598844999917
 20
14951.9087535
 30
0.0
 11
8946.8231754999888
 21
14807.227720499999
 31
0.0
  0
LINE
  5
4E7
  8
0-6
  6
CONTINUOUS
 62
     6
 10
9020.1598844999917
 20
14951.9087535
 30
0.0
 11
8997.7126394999868
 21
14791.261912500009
 31
0.0
  0
LINE
  5
4E8
  8
0-6
  6
CONTINUOUS
 62
     6
 10
8997.7126394999868
 20
14791.261912500009
 30
0.0
 11
8946.8231754999888
 21
14807.227720499999
 31
0.0
  0
LINE
  5
4E9
  8
0-6
  6
CONTINUOUS
 62
     6
 10
8946.8231754999888
 20
14807.227720499999
 30
0.0
 11
9020.1598844999917
 21
14951.9087535
 31
0.0
  0
LINE
  5
4EA
  8
0-6
  6
CONTINUOUS
 62
     6
 10
8946.8231754999888
 20
14807.227720499999
 30
0.0
 11
8997.7126394999868
 21
14791.261912500009
 31
0.0
  0
LINE
  5
4EB
  8
0-6
  6
CONTINUOUS
 62
     6
 10
9239.4766874999914
 20
18188.62312299999
 30
0.0
 11
9149.6604854999914
 21
18323.693593999989
 31
0.0
  0
LINE
  5
4EC
  8
0-6
  6
CONTINUOUS
 62
     6
 10
9149.6604854999914
 20
18323.693593999989
 30
0.0
 11
9190.8146764999874
 21
18166.796950999989
 31
0.0
  0
LINE
  5
4ED
  8
0-6
  6
CONTINUOUS
 62
     6
 10
9149.6604854999914
 20
18323.693593999989
 30
0.0
 11
9239.4766874999914
 21
18188.62312299999
 31
0.0
  0
LINE
  5
4EE
  8
0-6
  6
CONTINUOUS
 62
     6
 10
9239.4766874999914
 20
18188.62312299999
 30
0.0
 11
9190.8146764999874
 21
18166.796950999989
 31
0.0
  0
LINE
  5
4EF
  8
0-6
  6
CONTINUOUS
 62
     6
 10
9190.8146764999874
 20
18166.796950999989
 30
0.0
 11
9149.6604854999914
 21
18323.693593999989
 31
0.0
  0
LINE
  5
4F0
  8
0-6
  6
CONTINUOUS
 62
     6
 10
9190.8146764999874
 20
18166.796950999989
 30
0.0
 11
9239.4766874999914
 21
18188.62312299999
 31
0.0
  0
LINE
  5
4F1
  8
0-6
  6
CONTINUOUS
 62
     6
 10
14370.12465649998
 20
15787.26460550002
 30
0.0
 11
14211.35340949998
 21
15820.47201950001
 31
0.0
  0
LINE
  5
4F2
  8
0-6
  6
CONTINUOUS
 62
     6
 10
14211.35340949998
 20
15820.47201950001
 30
0.0
 11
14350.773872499991
 21
15737.56582150002
 31
0.0
  0
LINE
  5
4F3
  8
0-6
  6
CONTINUOUS
 62
     6
 10
14211.35340949998
 20
15820.47201950001
 30
0.0
 11
14370.12465649998
 21
15787.26460550002
 31
0.0
  0
LINE
  5
4F4
  8
0-6
  6
CONTINUOUS
 62
     6
 10
14370.12465649998
 20
15787.26460550002
 30
0.0
 11
14350.773872499991
 21
15737.56582150002
 31
0.0
  0
LINE
  5
4F5
  8
0-6
  6
CONTINUOUS
 62
     6
 10
14350.773872499991
 20
15737.56582150002
 30
0.0
 11
14211.35340949998
 21
15820.47201950001
 31
0.0
  0
LINE
  5
4F6
  8
0-6
  6
CONTINUOUS
 62
     6
 10
14350.773872499991
 20
15737.56582150002
 30
0.0
 11
14370.12465649998
 21
15787.26460550002
 31
0.0
  0
LINE
  5
4F7
  8
0-6
  6
CONTINUOUS
 62
     6
 10
10567.08642549998
 20
14091.184593
 30
0.0
 11
10460.81498049997
 21
14213.731638999991
 31
0.0
  0
LINE
  5
4F8
  8
0-6
  6
CONTINUOUS
 62
     6
 10
10460.81498049997
 20
14213.731638999991
 30
0.0
 11
10521.59708849997
 21
14063.342663999991
 31
0.0
  0
LINE
  5
4F9
  8
0-6
  6
CONTINUOUS
 62
     6
 10
10460.81498049997
 20
14213.731638999991
 30
0.0
 11
10567.08642549998
 21
14091.184593
 31
0.0
  0
LINE
  5
4FA
  8
0-6
  6
CONTINUOUS
 62
     6
 10
10567.08642549998
 20
14091.184593
 30
0.0
 11
10521.59708849997
 21
14063.342663999991
 31
0.0
  0
LINE
  5
4FB
  8
0-6
  6
CONTINUOUS
 62
     6
 10
10521.59708849997
 20
14063.342663999991
 30
0.0
 11
10460.81498049997
 21
14213.731638999991
 31
0.0
  0
LINE
  5
4FC
  8
0-6
  6
CONTINUOUS
 62
     6
 10
10521.59708849997
 20
14063.342663999991
 30
0.0
 11
10567.08642549998
 21
14091.184593
 31
0.0
  0
LINE
  5
4FD
  8
0-6
  6
CONTINUOUS
 62
     6
 10
11131.45113149998
 20
14611.933577
 30
0.0
 11
11087.725545499979
 21
14455.730755
 31
0.0
  0
LINE
  5
4FE
  8
0-6
  6
CONTINUOUS
 62
     6
 10
11087.725545499979
 20
14455.730755
 30
0.0
 11
11179.746436499971
 21
14589.309659
 31
0.0
  0
LINE
  5
4FF
  8
0-6
  6
CONTINUOUS
 62
     6
 10
11087.725545499979
 20
14455.730755
 30
0.0
 11
11131.45113149998
 21
14611.933577
 31
0.0
  0
LINE
  5
500
  8
0-6
  6
CONTINUOUS
 62
     6
 10
11131.45113149998
 20
14611.933577
 30
0.0
 11
11179.746436499971
 21
14589.309659
 31
0.0
  0
LINE
  5
501
  8
0-6
  6
CONTINUOUS
 62
     6
 10
11179.746436499971
 20
14589.309659
 30
0.0
 11
11087.725545499979
 21
14455.730755
 31
0.0
  0
LINE
  5
502
  8
0-6
  6
CONTINUOUS
 62
     6
 10
11179.746436499971
 20
14589.309659
 30
0.0
 11
11131.45113149998
 21
14611.933577
 31
0.0
  0
LINE
  5
503
  8
0-6
  6
CONTINUOUS
 62
     6
 10
11978.319863499981
 20
16233.019316999989
 30
0.0
 11
12010.65925849998
 21
16074.068923000001
 31
0.0
  0
LINE
  5
504
  8
0-6
  6
CONTINUOUS
 62
     6
 10
12010.65925849998
 20
16074.068923000001
 30
0.0
 11
11928.51616549999
 21
16213.93873699998
 31
0.0
  0
LINE
  5
505
  8
0-6
  6
CONTINUOUS
 62
     6
 10
12010.65925849998
 20
16074.068923000001
 30
0.0
 11
11978.319863499981
 21
16233.019316999989
 31
0.0
  0
LINE
  5
506
  8
0-6
  6
CONTINUOUS
 62
     6
 10
11978.319863499981
 20
16233.019316999989
 30
0.0
 11
11928.51616549999
 21
16213.93873699998
 31
0.0
  0
LINE
  5
507
  8
0-6
  6
CONTINUOUS
 62
     6
 10
11928.51616549999
 20
16213.93873699998
 30
0.0
 11
12010.65925849998
 21
16074.068923000001
 31
0.0
  0
LINE
  5
508
  8
0-6
  6
CONTINUOUS
 62
     6
 10
11928.51616549999
 20
16213.93873699998
 30
0.0
 11
11978.319863499981
 21
16233.019316999989
 31
0.0
  0
LINE
  5
509
  8
0-6
  6
CONTINUOUS
 62
     6
 10
14354.326118499979
 20
17445.84857699999
 30
0.0
 11
14211.35340949998
 21
17369.231309999988
 31
0.0
  0
LINE
  5
50A
  8
0-6
  6
CONTINUOUS
 62
     6
 10
14211.35340949998
 20
17369.231309999988
 30
0.0
 11
14371.44598549999
 21
17395.339179999999
 31
0.0
  0
LINE
  5
50B
  8
0-6
  6
CONTINUOUS
 62
     6
 10
14211.35340949998
 20
17369.231309999988
 30
0.0
 11
14354.326118499979
 21
17445.84857699999
 31
0.0
  0
LINE
  5
50C
  8
0-6
  6
CONTINUOUS
 62
     6
 10
14354.326118499979
 20
17445.84857699999
 30
0.0
 11
14371.44598549999
 21
17395.339179999999
 31
0.0
  0
LINE
  5
50D
  8
0-6
  6
CONTINUOUS
 62
     6
 10
14371.44598549999
 20
17395.339179999999
 30
0.0
 11
14211.35340949998
 21
17369.231309999988
 31
0.0
  0
LINE
  5
50E
  8
0-6
  6
CONTINUOUS
 62
     6
 10
14371.44598549999
 20
17395.339179999999
 30
0.0
 11
14354.326118499979
 21
17445.84857699999
 31
0.0
  0
LINE
  5
50F
  8
0-6
  6
CONTINUOUS
 62
     6
 10
14354.326118499979
 20
18904.84857699999
 30
0.0
 11
14211.35340949998
 21
18828.233289999978
 31
0.0
  0
LINE
  5
510
  8
0-6
  6
CONTINUOUS
 62
     6
 10
14211.35340949998
 20
18828.233289999978
 30
0.0
 11
14371.44598549999
 21
18854.339180999981
 31
0.0
  0
LINE
  5
511
  8
0-6
  6
CONTINUOUS
 62
     6
 10
14211.35340949998
 20
18828.233289999978
 30
0.0
 11
14354.326118499979
 21
18904.84857699999
 31
0.0
  0
LINE
  5
512
  8
0-6
  6
CONTINUOUS
 62
     6
 10
14354.326118499979
 20
18904.84857699999
 30
0.0
 11
14371.44598549999
 21
18854.339180999981
 31
0.0
  0
LINE
  5
513
  8
0-6
  6
CONTINUOUS
 62
     6
 10
14371.44598549999
 20
18854.339180999981
 30
0.0
 11
14211.35340949998
 21
18828.233289999978
 31
0.0
  0
LINE
  5
514
  8
0-6
  6
CONTINUOUS
 62
     6
 10
14371.44598549999
 20
18854.339180999981
 30
0.0
 11
14354.326118499979
 21
18904.84857699999
 31
0.0
  0
LINE
  5
515
  8
0-6
  6
CONTINUOUS
 62
     6
 10
14781.42365549999
 20
16090.64838099999
 30
0.0
 11
14627.135451499989
 21
16011.777643500011
 31
0.0
  0
LINE
  5
516
  8
0-6
  6
CONTINUOUS
 62
     6
 10
14627.135451499989
 20
16011.777643500011
 30
0.0
 11
14797.66164649999
 21
16039.84502699999
 31
0.0
  0
LINE
  5
517
  8
0-6
  6
CONTINUOUS
 62
     6
 10
14627.135451499989
 20
16011.777643500011
 30
0.0
 11
14781.42365549999
 21
16090.64838099999
 31
0.0
  0
LINE
  5
518
  8
0-6
  6
CONTINUOUS
 62
     6
 10
14781.42365549999
 20
16090.64838099999
 30
0.0
 11
14797.66164649999
 21
16039.84502699999
 31
0.0
  0
LINE
  5
519
  8
0-6
  6
CONTINUOUS
 62
     6
 10
14797.66164649999
 20
16039.84502699999
 30
0.0
 11
14627.135451499989
 21
16011.777643500011
 31
0.0
  0
LINE
  5
51A
  8
0-6
  6
CONTINUOUS
 62
     6
 10
14797.66164649999
 20
16039.84502699999
 30
0.0
 11
14781.42365549999
 21
16090.64838099999
 31
0.0
  0
LINE
  5
527
  8
0-6
  6
CONTINUOUS
 62
     6
 10
10752.017010499991
 20
19838.349235999998
 30
0.0
 11
10739.51536049998
 21
19676.628506000001
 31
0.0
  0
LINE
  5
528
  8
0-6
  6
CONTINUOUS
 62
     6
 10
10739.51536049998
 20
19676.628506000001
 30
0.0
 11
10803.79032849999
 21
19825.553628000009
 31
0.0
  0
LINE
  5
529
  8
0-6
  6
CONTINUOUS
 62
     6
 10
10739.51536049998
 20
19676.628506000001
 30
0.0
 11
10752.017010499991
 21
19838.349235999998
 31
0.0
  0
LINE
  5
52A
  8
0-6
  6
CONTINUOUS
 62
     6
 10
10752.017010499991
 20
19838.349235999998
 30
0.0
 11
10803.79032849999
 21
19825.553628000009
 31
0.0
  0
LINE
  5
52B
  8
0-6
  6
CONTINUOUS
 62
     6
 10
10803.79032849999
 20
19825.553628000009
 30
0.0
 11
10739.51536049998
 21
19676.628506000001
 31
0.0
  0
LINE
  5
52C
  8
0-6
  6
CONTINUOUS
 62
     6
 10
10803.79032849999
 20
19825.553628000009
 30
0.0
 11
10752.017010499991
 21
19838.349235999998
 31
0.0
  0
LINE
  5
52D
  8
0-6
  6
CONTINUOUS
 62
     6
 10
14897.776788499979
 20
20231.63207
 30
0.0
 11
14994.42777349998
 21
20114.22682299999
 31
0.0
  0
LINE
  5
52E
  8
0-6
  6
CONTINUOUS
 62
     6
 10
14994.42777349998
 20
20114.22682299999
 30
0.0
 11
14941.078757499979
 21
20256.635369000011
 31
0.0
  0
LINE
  5
52F
  8
0-6
  6
CONTINUOUS
 62
     6
 10
14994.42777349998
 20
20114.22682299999
 30
0.0
 11
14897.776788499979
 21
20231.63207
 31
0.0
  0
LINE
  5
530
  8
0-6
  6
CONTINUOUS
 62
     6
 10
14897.776788499979
 20
20231.63207
 30
0.0
 11
14941.078757499979
 21
20256.635369000011
 31
0.0
  0
LINE
  5
531
  8
0-6
  6
CONTINUOUS
 62
     6
 10
14941.078757499979
 20
20256.635369000011
 30
0.0
 11
14994.42777349998
 21
20114.22682299999
 31
0.0
  0
LINE
  5
532
  8
0-6
  6
CONTINUOUS
 62
     6
 10
14941.078757499979
 20
20256.635369000011
 30
0.0
 11
14897.776788499979
 21
20231.63207
 31
0.0
  0
LINE
  5
56F
  8
2-0
  6
DASHED3
 62
     6
 10
9149.6604854999914
 20
19852.728459000009
 30
0.0
 11
14985.66048549998
 21
19852.728459000009
 31
0.0
  0
LINE
  5
570
  8
2-0
  6
DASHED3
 62
     6
 10
9107.1597264999873
 20
19651.249099000001
 30
0.0
 11
9107.1597264999873
 21
19937.73096600001
 31
0.0
  0
LINE
  5
571
  8
2-0
  6
DASHED3
 62
     6
 10
9149.6604854999914
 20
19631.67166
 30
0.0
 11
9149.6604854999914
 21
19937.73096600001
 31
0.0
  0
LINE
  5
572
  8
2-0
  6
DASHED3
 62
     6
 10
9107.1597264999873
 20
19937.73096600001
 30
0.0
 11
15028.161739499979
 21
19937.73096600001
 31
0.0
  0
LINE
  5
573
  8
2-0
  6
DASHED3
 62
     6
 10
14985.66048549998
 20
16833.12423099998
 30
0.0
 11
14985.66048549998
 21
19937.73096600001
 31
0.0
  0
LINE
  5
574
  8
2-0
  6
DASHED3
 62
     6
 10
15028.161739499979
 20
16813.54679199999
 30
0.0
 11
15028.161739499979
 21
19937.73096600001
 31
0.0
  0
LINE
  5
575
  8
2-0
  6
DASHED3
 62
     6
 10
9219.6597264999891
 20
19891.730914
 30
0.0
 11
11997.660749499981
 21
18783.230914
 31
0.0
  0
LINE
  5
576
  8
2-0
  6
DASHED3
 62
     6
 10
11997.660749499981
 20
19891.730914
 30
0.0
 11
10174.050041499981
 21
19164.390463
 31
0.0
  0
LINE
  5
577
  8
2-0
  6
DASHED3
 62
     6
 10
11997.660749499981
 20
18783.230914
 30
0.0
 11
11527.67157149999
 21
18536.349316
 31
0.0
  0
LINE
  5
578
  8
2-0
  6
DASHED3
 62
     6
 10
10894.042519499981
 20
18828.233289999978
 30
0.0
 11
14985.66048549998
 21
18828.233289999978
 31
0.0
  0
LINE
  5
579
  8
2-0
  6
DASHED3
 62
     6
 10
11089.41704449998
 20
18738.232497999968
 30
0.0
 11
14985.66048549998
 21
18738.232497999968
 31
0.0
  0
LINE
  5
57B
  8
0-7
  6
CONTINUOUS
 62
     6
 10
14007.23040249999
 20
17279.23249799999
 30
0.0
 11
14985.66048549998
 21
17279.23249799999
 31
0.0
  0
LINE
  5
57C
  8
0-7
  6
CONTINUOUS
 62
     6
 10
13811.85587749998
 20
17369.231309999988
 30
0.0
 11
14985.66048549998
 21
17369.231309999988
 31
0.0
  0
LINE
  5
57D
  8
2-0
  6
DASHED3
 62
     6
 10
12137.659232499989
 20
18783.230914
 30
0.0
 11
14915.660749499961
 21
17324.230914
 31
0.0
  0
LINE
  5
57E
  8
2-0
  6
DASHED3
 62
     6
 10
14915.660749499961
 20
18783.230914
 30
0.0
 11
12965.51765649998
 21
17764.09754699999
 31
0.0
  0
LINE
  5
57F
  8
2-0
  6
DASHED3
 62
     6
 10
12137.659232499989
 20
19891.730914
 30
0.0
 11
14915.660749499961
 21
18783.230914
 31
0.0
  0
LINE
  5
580
  8
2-0
  6
DASHED3
 62
     6
 10
14915.660749499961
 20
19891.730914
 30
0.0
 11
12137.659232499989
 21
18783.230914
 31
0.0
  0
LINE
  5
581
  8
2-0
  6
DASHED3
 62
     6
 10
12010.65925849998
 20
18317.824320999978
 30
0.0
 11
12010.65925849998
 21
18738.232497999968
 31
0.0
  0
LINE
  5
582
  8
2-0
  6
DASHED3
 62
     6
 10
12067.66048549998
 20
18414.181346999969
 30
0.0
 11
12067.66048549998
 21
18738.232497999968
 31
0.0
  0
LINE
  5
583
  8
2-0
  6
DASHED3
 62
     6
 10
12124.66072349999
 20
18142.094538999991
 30
0.0
 11
12124.66072349999
 21
18738.232497999968
 31
0.0
  0
LINE
  5
584
  8
2-0
  6
DASHED3
 62
     6
 10
12067.66048549998
 20
18828.233289999978
 30
0.0
 11
12067.66048549998
 21
18738.232497999968
 31
0.0
  0
LINE
  5
586
  8
0-8
  6
CONTINUOUS
 62
     6
 10
14985.66048549998
 20
21134.229198000001
 30
0.0
 11
14985.66048549998
 21
20184.226558999992
 31
0.0
  0
LINE
  5
587
  8
2-0
  6
CENTER2
 62
     6
 10
12067.66048549998
 20
21134.229199000009
 30
0.0
 11
12067.66048549998
 21
20184.226558999992
 31
0.0
  0
LINE
  5
588
  8
2-0
  6
CENTER2
 62
     6
 10
7820.1588954999879
 20
19891.730914
 30
0.0
 11
9476.6602024999884
 21
19891.730914
 31
0.0
  0
LINE
  5
589
  8
2-0
  6
CENTER2
 62
     6
 10
9149.6604854999914
 20
21134.229199000009
 30
0.0
 11
9149.6604854999914
 21
20184.226558999992
 31
0.0
  0
LINE
  5
58A
  8
2-0
  6
CENTER2
 62
     6
 10
7820.1588954999879
 20
17324.230914
 30
0.0
 11
9476.6602024999884
 21
17324.230914
 31
0.0
  0
LINE
  5
58B
  8
2-0
  6
CENTER2
 62
     6
 10
7820.1588954999879
 20
14406.230913999991
 30
0.0
 11
9476.6602024999884
 21
14406.230913999991
 31
0.0
  0
LINE
  5
58C
  8
2-0
  6
CENTER2
 62
     6
 10
14658.66225449999
 20
17324.230914
 30
0.0
 11
15218.600334499981
 21
17324.230914
 31
0.0
  0
LINE
  5
58D
  8
0-8
  6
CONTINUOUS
 62
     6
 10
14658.66225449999
 20
14406.230913999991
 30
0.0
 11
15284.42625549995
 21
14406.230913999991
 31
0.0
  0
LINE
  5
59D
  8
2-0
  6
CENTER2
 62
     6
 10
8930.8642964999872
 20
15865.47142550002
 30
0.0
 11
15218.600334499981
 21
15865.47142550002
 31
0.0
  0
LINE
  5
59E
  8
2-0
  6
CENTER2
 62
     6
 10
8916.7221214999863
 20
18783.230914
 30
0.0
 11
15218.600334499981
 21
18783.230914
 31
0.0
  0
LINE
  5
729
  8
2-0
  6
DASHED3
 62
     6
 10
12010.65925849998
 20
18828.233289999978
 30
0.0
 11
12010.65925849998
 21
19852.728459000009
 31
0.0
  0
LINE
  5
72A
  8
2-0
  6
DASHED3
 62
     6
 10
12067.66048549998
 20
18828.233289999978
 30
0.0
 11
12067.66048549998
 21
19852.728459000009
 31
0.0
  0
LINE
  5
72B
  8
2-0
  6
DASHED3
 62
     6
 10
12124.66072349999
 20
18828.233289999978
 30
0.0
 11
12124.66072349999
 21
19852.728459000009
 31
0.0
  0
CIRCLE
  5
72C
  8
0-1
  6
CONTINUOUS
 62
     4
 10
12067.66048549998
 20
21334.229859000028
 30
0.0
 40
199.9999949999999
  0
CIRCLE
  5
72D
  8
0-1
  6
CONTINUOUS
 62
     4
 10
9149.6604854999914
 20
21334.229859000028
 30
0.0
 40
199.9999949999999
  0
CIRCLE
  5
72E
  8
0-1
  6
CONTINUOUS
 62
     4
 10
7620.1567504999903
 20
19891.730914
 30
0.0
 40
199.9999949999999
  0
CIRCLE
  5
72F
  8
0-1
  6
CONTINUOUS
 62
     4
 10
7620.1567504999903
 20
17324.230914
 30
0.0
 40
199.9999949999999
  0
CIRCLE
  5
730
  8
0-1
  6
CONTINUOUS
 62
     4
 10
7620.1567504999903
 20
14406.230913999991
 30
0.0
 40
199.9999949999999
  0
CIRCLE
  5
731
  8
0-1
  6
CONTINUOUS
 62
     4
 10
14985.66048549998
 20
21334.22985800001
 30
0.0
 40
199.9999949999999
  0
CIRCLE
  5
73E
  8
0-1
  6
CONTINUOUS
 62
     4
 10
15128.714698
 20
1375.999857999999
 30
0.0
 40
20.0
  0
ARC
  5
73F
  8
0-1
  6
CONTINUOUS
 62
     4
 10
15128.714698
 20
1375.999857999999
 30
0.0
 40
20.0
 50
180.0
 51
0.0
  0
ARC
  5
740
  8
0-1
  6
CONTINUOUS
 62
     4
 10
15128.714698
 20
1375.999857999999
 30
0.0
 40
20.0
 50
0.0
 51
179.99998499999839
  0
CIRCLE
  5
741
  8
0-1
  6
CONTINUOUS
 62
     4
 10
15128.714698
 20
1775.999941
 30
0.0
 40
20.0
  0
ARC
  5
742
  8
0-1
  6
CONTINUOUS
 62
     4
 10
15128.714698
 20
1775.999941
 30
0.0
 40
20.0
 50
180.0
 51
0.0
  0
ARC
  5
743
  8
0-1
  6
CONTINUOUS
 62
     4
 10
15128.714698
 20
1775.999941
 30
0.0
 40
20.0
 50
0.0
 51
179.99998499999839
  0
ARC
  5
860
  8
0-2
  6
CONTINUOUS
 62
     3
 10
15002.66162049999
 20
20079.228933999992
 30
0.0
 40
5.0
 50
180.0
 51
269.9999850001808
  0
ARC
  5
861
  8
0-2
  6
CONTINUOUS
 62
     3
 10
15002.66162049999
 20
20109.226558999992
 30
0.0
 40
5.0
 50
90.0
 51
180.0
  0
ARC
  5
862
  8
0-2
  6
CONTINUOUS
 62
     3
 10
15066.160617499991
 20
20109.226558999992
 30
0.0
 40
5.0
 50
0.0
 51
90.0
  0
ARC
  5
863
  8
0-2
  6
CONTINUOUS
 62
     3
 10
9069.1618384999874
 20
20109.226558999992
 30
0.0
 40
5.0
 50
90.0
 51
180.0
  0
ARC
  5
864
  8
0-2
  6
CONTINUOUS
 62
     3
 10
9132.6613304999846
 20
20109.226558999992
 30
0.0
 40
5.0
 50
0.0
 51
90.0
  0
ARC
  5
865
  8
0-2
  6
CONTINUOUS
 62
     3
 10
9132.6613304999846
 20
20079.228933999992
 30
0.0
 40
5.0
 50
269.9999850001808
 51
0.0
  0
TEXT
  5
88F
  8
0-1
  6
CONTINUOUS
 62
     7
 10
14938.94780549996
 20
21257.923375999999
 30
0.0
 40
160.0
  1
3
 72
     4
 11
14992.281138833299
 21
21337.923375999999
 31
0.0
  0
TEXT
  5
890
  8
0-1
  6
CONTINUOUS
 62
     7
 10
12014.64699849998
 20
21249.672743000028
 30
0.0
 40
160.0
  1
2
 72
     4
 11
12067.98033183332
 21
21329.672743000028
 31
0.0
  0
TEXT
  5
892
  8
0-1
  6
CONTINUOUS
 62
     7
 10
9096.6474934999897
 20
21249.672743000028
 30
0.0
 40
160.0
  1
1
 72
     4
 11
9123.3141601666557
 21
21329.672743000028
 31
0.0
  0
TEXT
  5
894
  8
0-1
  6
CONTINUOUS
 62
     7
 10
7567.6114194999936
 20
19802.67633200001
 30
0.0
 40
160.0
  1
C
 72
     4
 11
7620.9447528333267
 21
19882.67633200001
 31
0.0
  0
TEXT
  5
898
  8
0-1
  6
CONTINUOUS
 62
     7
 10
7567.6114194999936
 20
17235.182271000001
 30
0.0
 40
160.0
  1
B
 72
     4
 11
7620.9447528333267
 21
17315.182271000001
 31
0.0
  0
TEXT
  5
899
  8
0-1
  6
CONTINUOUS
 62
     7
 10
7567.6114194999936
 20
14317.18029099999
 30
0.0
 40
160.0
  1
A
 72
     4
 11
7620.9447528333267
 21
14397.18029099999
 31
0.0
  0
TEXT
  5
8A4
  8
0-1
  6
CONTINUOUS
 62
     7
 10
16679.21697657583
 20
1655.999916
 30
0.0
 40
160.0
  1
H
  0
TEXT
  5
8A5
  8
0-1
  6
CONTINUOUS
 62
     7
 10
15176.14495299999
 20
1655.999916
 30
0.0
 40
160.0
  1
（ ）内寸法ハ、  タ イプヲ示ス。
  0
TEXT
  5
8A6
  8
0-1
  6
CONTINUOUS
 62
     7
 10
15288.713245999999
 20
1255.999957
 30
0.0
 40
160.0
  1
有効高サハ、基礎高サヲ含ミマセン。
  0
TEXT
  5
8E6
  8
0-6
  6
CONTINUOUS
 62
     7
 10
11001.805531499989
 20
20424.229330000009
 30
0.0
 40
160.0
  1
屋根
 72
     4
 11
11172.472198166661
 21
20504.229330000009
 31
0.0
  0
TEXT
  5
8E8
  8
0-6
  6
CONTINUOUS
 62
     7
 10
11318.484955499989
 20
14862.800724500021
 30
0.0
 40
160.0
  1
桁（前）
 72
     4
 11
11638.484955499989
 21
14942.800724500021
 31
0.0
  0
TEXT
  5
8E9
  8
0-6
  6
CONTINUOUS
 62
     7
 10
10939.280971344029
 20
13493.732233000001
 30
0.0
 40
160.0
  1
鼻隠し前
 72
     4
 11
11301.947638010701
 21
13573.732233000001
 31
0.0
  0
TEXT
  5
8EA
  8
0-6
  6
CONTINUOUS
 62
     7
 10
7413.7612564999872
 20
13093.731903
 30
0.0
 40
160.0
  1
ケラバ 左
 72
     4
 11
7829.7612564999863
 21
13173.731903
 31
0.0
  0
TEXT
  5
8EB
  8
0-6
  6
CONTINUOUS
 62
     7
 10
9404.1870574999903
 20
18036.916777999992
 30
0.0
 40
160.0
  1
上枠
 72
     4
 11
9574.8537241666563
 21
18116.916777999992
 31
0.0
  0
TEXT
  5
8F5
  8
0-6
  6
CONTINUOUS
 62
     7
 10
12840.944573499981
 20
21144.231705000009
 30
0.0
 40
160.0
  1
鼻隠しコーナー後
 72
     4
 11
13587.611240166651
 21
21224.231705000009
 31
0.0
  0
TEXT
  5
8F6
  8
0-6
  6
CONTINUOUS
 62
     7
 10
15349.92852549997
 20
16298.77991399999
 30
0.0
 40
160.0
  1
ブレース
 72
     4
 11
15712.59519216664
 21
16384.113247333331
 31
0.0
  0
TEXT
  5
8F9
  8
0-6
  6
CONTINUOUS
 62
     7
 10
10918.29558149998
 20
16579.092611999989
 30
0.0
 40
160.0
  1
梁　梁補強
 72
     4
 11
11376.96224816665
 21
16659.092611999989
 31
0.0
  0
TEXT
  5
8FA
  8
0-6
  6
CONTINUOUS
 62
     7
 10
11138.144873499979
 20
16581.465064999978
 30
0.0
 40
160.0
  1
+
 72
     4
 11
11191.478206833321
 21
16661.465064999978
 31
0.0
  0
TEXT
  5
918
  8
2-0
  6
CONTINUOUS
 62
     7
 10
10635.952620102051
 20
12148.902811642631
 30
0.0
 40
160.0
  1
小 屋 伏 図
 50
0.000193
 72
     4
 11
11137.285683953711
 21
12228.90450037622
 31
0.0
  0
TEXT
  5
919
  8
2-0
  6
CONTINUOUS
 62
     7
 10
15350.501596499969
 20
19268.140991000011
 30
0.0
 40
160.0
  1
桁中B +  桁中補強B
 72
     4
 11
16283.834929833311
 21
19348.140991000011
 31
0.0
  0
TEXT
  5
91A
  8
2-0
  6
CONTINUOUS
 62
     7
 10
15350.501596499969
 20
17809.63835199998
 30
0.0
 40
160.0
  1
桁中A +  桁中補強A
 50
0.000079
 72
     4
 11
16283.83481952761
 21
17889.639638889341
 31
0.0
  0
TEXT
  5
91B
  8
2-0
  6
CONTINUOUS
 62
     7
 10
15350.50159649998
 20
15492.153026499989
 30
0.0
 40
160.0
  1
桁中B +  桁中補強B
 50
0.000118
 72
     4
 11
16283.83476507225
 21
15572.154948689111
 31
0.0
  0
LINE
  5
92A
  8
2-0
  6
DASHED3
 62
     6
 10
13967.295567266519
 20
17369.231309999988
 30
0.0
 11
14932.661844499989
 21
17369.231309999988
 31
0.0
  0
LINE
  5
92B
  8
2-0
  6
DASHED3
 62
     6
 10
14122.280215676499
 20
17279.23249799999
 30
0.0
 11
14932.661844499989
 21
17279.23249799999
 31
0.0
  0
TEXT
  5
10ED
  8
2-0
  6
CONTINUOUS
 62
     7
 10
12488.777869091329
 20
12176.09986937623
 30
0.0
 40
160.0
  1
1
 72
     4
 11
12515.444535758001
 21
12256.09986937623
 31
0.0
  0
TEXT
  5
10EE
  8
2-0
  6
CONTINUOUS
 62
     7
 10
12731.866586342019
 20
12096.101337376231
 30
0.0
 40
160.0
  1
80
 72
     4
 11
12851.866586342019
 21
12176.101337376231
 31
0.0
  0
TEXT
  5
10EF
  8
2-0
  6
CONTINUOUS
 62
     7
 10
11989.779835091331
 20
12148.90450037622
 30
0.0
 40
160.0
  1
(S=  /   )
 72
     4
 11
12549.779835091331
 21
12228.90450037622
 31
0.0
  0
TEXT
  5
1138
  8
0-6
  6
CONTINUOUS
 62
     7
 10
9242.4440086448103
 20
20416.122350245008
 30
0.0
 40
160.0
  1
桁後+桁後補強
 72
     4
 11
9877.1106753114764
 21
20496.122350245008
 31
0.0
  0
LINE
  5
1139
  8
0-6
  6
CONTINUOUS
 62
     6
 10
10686.15941649997
 20
19929.62398724501
 30
0.0
 11
10552.76546861874
 21
20336.124066245011
 31
0.0
  0
LINE
  5
113A
  8
0-6
  6
CONTINUOUS
 62
     6
 10
9193.0235040495245
 20
20336.124066245011
 30
0.0
 11
10552.76546861874
 21
20336.124066245011
 31
0.0
  0
LINE
  5
113B
  8
0-6
  6
CONTINUOUS
 62
     6
 10
10662.551961132691
 20
20090.10542566995
 30
0.0
 11
10611.778317359751
 21
20073.77190948516
 31
0.0
  0
LINE
  5
113C
  8
0-6
  6
CONTINUOUS
 62
     6
 10
10662.551961132691
 20
20090.10542566995
 30
0.0
 11
10686.15941649997
 21
19929.62398724501
 31
0.0
  0
LINE
  5
113D
  8
0-6
  6
CONTINUOUS
 62
     6
 10
10611.778317359751
 20
20073.77190948516
 30
0.0
 11
10662.551961132691
 21
20090.10542566995
 31
0.0
  0
LINE
  5
113E
  8
0-6
  6
CONTINUOUS
 62
     6
 10
10686.15941649997
 20
19929.62398724501
 30
0.0
 11
10611.778317359751
 21
20073.77190948516
 31
0.0
  0
LINE
  5
113F
  8
0-6
  6
CONTINUOUS
 62
     6
 10
10686.15941649997
 20
19929.62398724501
 30
0.0
 11
10662.551961132691
 21
20090.10542566995
 31
0.0
  0
LINE
  5
1140
  8
0-6
  6
CONTINUOUS
 62
     6
 10
10611.778317359751
 20
20073.77190948516
 30
0.0
 11
10686.15941649997
 21
19929.62398724501
 31
0.0
  0
LINE
  5
1AFD
  8
0-1
  6
CONTINUOUS
 62
     3
 10
8789.3756595000086
 20
8526.8256480000018
 30
0.0
 11
14319.874076499989
 21
8526.8256480000018
 31
0.0
  0
LINE
  5
1AFE
  8
0-1
  6
CONTINUOUS
 62
     3
 10
8079.3748015000074
 20
6515.7797690000016
 30
0.0
 11
14352.373878500001
 21
6515.7797690000016
 31
0.0
  0
LINE
  5
1AFF
  8
0-1
  6
CONTINUOUS
 62
     3
 10
8884.3747355000087
 20
6665.7797690000016
 30
0.0
 11
11306.8740105
 21
6665.7797690000016
 31
0.0
  0
LINE
  5
1B00
  8
0-1
  6
CONTINUOUS
 62
     3
 10
8761.8738785000005
 20
6615.7796040000021
 30
0.0
 11
14352.373878500001
 21
6615.7796040000021
 31
0.0
  0
LINE
  5
1B01
  8
0-1
  6
CONTINUOUS
 62
     3
 10
8884.3747355000087
 20
8526.8256480000018
 30
0.0
 11
8884.3747355000087
 21
6615.7796040000021
 31
0.0
  0
LINE
  5
1B02
  8
0-1
  6
CONTINUOUS
 62
     3
 10
8769.3746035000058
 20
8648.7936849999969
 30
0.0
 11
8769.3746035000058
 21
6615.7796040000021
 31
0.0
  0
LINE
  5
1B03
  8
0-1
  6
CONTINUOUS
 62
     3
 10
8789.3756595000086
 20
8649.4489060000051
 30
0.0
 11
8789.3756595000086
 21
6615.7796040000021
 31
0.0
  0
LINE
  5
1B04
  8
0-1
  6
CONTINUOUS
 62
     3
 10
8761.8738785000005
 20
6515.7797690000016
 30
0.0
 11
8761.8738785000005
 21
6615.7796040000021
 31
0.0
  0
LINE
  5
1B05
  8
0-1
  6
CONTINUOUS
 62
     3
 10
14415.00776049999
 20
8833.2689810000029
 30
0.0
 11
14410.747836500001
 21
8963.198642000003
 31
0.0
  0
LINE
  5
1B06
  8
0-1
  6
CONTINUOUS
 62
     3
 10
11451.873746499999
 20
6665.7797690000016
 30
0.0
 11
14224.874010499991
 21
6665.7797690000016
 31
0.0
  0
LINE
  5
1B07
  8
0-1
  6
CONTINUOUS
 62
     3
 10
10915.373732499989
 20
6665.7797690000016
 30
0.0
 11
10915.373732499989
 21
8526.8256480000018
 31
0.0
  0
LINE
  5
1B08
  8
0-1
  6
CONTINUOUS
 62
     3
 10
10782.3748285
 20
6665.7797690000016
 30
0.0
 11
10782.3748285
 21
8526.8256480000018
 31
0.0
  0
LINE
  5
1B09
  8
0-1
  6
CONTINUOUS
 62
     3
 10
10767.373046500001
 20
6665.7797690000016
 30
0.0
 11
10767.373046500001
 21
8526.8256480000018
 31
0.0
  0
LINE
  5
1B0A
  8
0-1
  6
CONTINUOUS
 62
     3
 10
10965.37538249998
 20
6665.7797690000016
 30
0.0
 11
10965.37538249998
 21
8526.8256480000018
 31
0.0
  0
LINE
  5
1B0B
  8
0-1
  6
CONTINUOUS
 62
     3
 10
10985.374458499989
 20
6665.7797690000016
 30
0.0
 11
10985.374458499989
 21
8526.8256480000018
 31
0.0
  0
LINE
  5
1B0C
  8
0-1
  6
CONTINUOUS
 62
     3
 10
11035.3751185
 20
6665.7797690000016
 30
0.0
 11
11035.3751185
 21
8526.8256480000018
 31
0.0
  0
LINE
  5
1B0D
  8
0-1
  6
CONTINUOUS
 62
     3
 10
11168.3740235
 20
6665.7797690000016
 30
0.0
 11
11168.3740235
 21
8526.8256480000018
 31
0.0
  0
LINE
  5
1B0E
  8
0-1
  6
CONTINUOUS
 62
     3
 10
11183.3728355
 20
6665.7797690000016
 30
0.0
 11
11183.3728355
 21
8526.8256480000018
 31
0.0
  0
LINE
  5
1B0F
  8
0-1
  6
CONTINUOUS
 62
     3
 10
11451.873746499999
 20
8526.8256480000018
 30
0.0
 11
11451.873746499999
 21
6615.7796040000021
 31
0.0
  0
LINE
  5
1B10
  8
0-1
  6
CONTINUOUS
 62
     3
 10
11306.8740105
 20
8526.8256480000018
 30
0.0
 11
11306.8740105
 21
6615.7796040000021
 31
0.0
  0
LINE
  5
1B11
  8
0-1
  6
CONTINUOUS
 62
     3
 10
11575.372941499991
 20
6665.7797690000016
 30
0.0
 11
11575.372941499991
 21
8526.8256480000018
 31
0.0
  0
LINE
  5
1B12
  8
0-1
  6
CONTINUOUS
 62
     3
 10
11590.37472249999
 20
6665.7797690000016
 30
0.0
 11
11590.37472249999
 21
8526.8256480000018
 31
0.0
  0
LINE
  5
1B13
  8
0-1
  6
CONTINUOUS
 62
     3
 10
11723.373627499999
 20
6665.7797690000016
 30
0.0
 11
11723.373627499999
 21
8526.8256480000018
 31
0.0
  0
LINE
  5
1B14
  8
0-1
  6
CONTINUOUS
 62
     3
 10
11773.37428749999
 20
6665.7797690000016
 30
0.0
 11
11773.37428749999
 21
8526.8256480000018
 31
0.0
  0
LINE
  5
1B15
  8
0-1
  6
CONTINUOUS
 62
     3
 10
11793.373363500001
 20
6665.7797690000016
 30
0.0
 11
11793.373363500001
 21
8526.8256480000018
 31
0.0
  0
LINE
  5
1B16
  8
0-1
  6
CONTINUOUS
 62
     3
 10
9565.3737324999875
 20
6665.7797690000016
 30
0.0
 11
9565.3737324999875
 21
8526.8256480000018
 31
0.0
  0
LINE
  5
1B17
  8
0-1
  6
CONTINUOUS
 62
     3
 10
9585.3757785000034
 20
6665.7797690000016
 30
0.0
 11
9585.3757785000034
 21
8526.8256480000018
 31
0.0
  0
LINE
  5
1B18
  8
0-1
  6
CONTINUOUS
 62
     3
 10
9515.3730734999917
 20
6665.7797690000016
 30
0.0
 11
9515.3730734999917
 21
8526.8256480000018
 31
0.0
  0
LINE
  5
1B19
  8
0-1
  6
CONTINUOUS
 62
     3
 10
9635.3734695000021
 20
6665.7797690000016
 30
0.0
 11
9635.3734695000021
 21
8526.8256480000018
 31
0.0
  0
LINE
  5
1B1A
  8
0-1
  6
CONTINUOUS
 62
     3
 10
9768.3733635000044
 20
6665.7797690000016
 30
0.0
 11
9768.3733635000044
 21
8526.8256480000018
 31
0.0
  0
LINE
  5
1B1B
  8
0-1
  6
CONTINUOUS
 62
     3
 10
9783.375145500002
 20
6665.7797690000016
 30
0.0
 11
9783.375145500002
 21
8526.8256480000018
 31
0.0
  0
LINE
  5
1B1C
  8
0-1
  6
CONTINUOUS
 62
     3
 10
9372.8743925000072
 20
6665.7797690000016
 30
0.0
 11
9372.8743925000072
 21
8526.8256480000018
 31
0.0
  0
LINE
  5
1B1D
  8
0-1
  6
CONTINUOUS
 62
     3
 10
9357.8755805000092
 20
6665.7797690000016
 30
0.0
 11
9357.8755805000092
 21
8526.8256480000018
 31
0.0
  0
LINE
  5
1B1E
  8
0-1
  6
CONTINUOUS
 62
     3
 10
10067.37370649998
 20
6665.7797690000016
 30
0.0
 11
10067.37370649998
 21
8526.8256480000018
 31
0.0
  0
LINE
  5
1B1F
  8
0-1
  6
CONTINUOUS
 62
     3
 10
10082.37251849998
 20
6665.7797690000016
 30
0.0
 11
10082.37251849998
 21
8526.8256480000018
 31
0.0
  0
LINE
  5
1B20
  8
0-1
  6
CONTINUOUS
 62
     3
 10
10483.3744855
 20
6665.7797690000016
 30
0.0
 11
10483.3744855
 21
8526.8256480000018
 31
0.0
  0
LINE
  5
1B21
  8
0-1
  6
CONTINUOUS
 62
     3
 10
10468.37270349999
 20
6665.7797690000016
 30
0.0
 11
10468.37270349999
 21
8526.8256480000018
 31
0.0
  0
LINE
  5
1B22
  8
0-1
  6
CONTINUOUS
 62
     3
 10
10335.372809499981
 20
6665.7797690000016
 30
0.0
 11
10335.372809499981
 21
8526.8256480000018
 31
0.0
  0
LINE
  5
1B23
  8
0-1
  6
CONTINUOUS
 62
     3
 10
10215.3743925
 20
6665.7797690000016
 30
0.0
 11
10215.3743925
 21
8526.8256480000018
 31
0.0
  0
LINE
  5
1B24
  8
0-1
  6
CONTINUOUS
 62
     3
 10
10285.375118499989
 20
6665.7797690000016
 30
0.0
 11
10285.375118499989
 21
8526.8256480000018
 31
0.0
  0
LINE
  5
1B25
  8
0-1
  6
CONTINUOUS
 62
     3
 10
10265.37307349999
 20
6665.7797690000016
 30
0.0
 11
10265.37307349999
 21
8526.8256480000018
 31
0.0
  0
LINE
  5
1B26
  8
0-1
  6
CONTINUOUS
 62
     3
 10
10606.87466949999
 20
8526.8256480000018
 30
0.0
 11
10606.87466949999
 21
6665.7797690000016
 31
0.0
  0
LINE
  5
1B27
  8
0-1
  6
CONTINUOUS
 62
     3
 10
10643.8728625
 20
8526.8256480000018
 30
0.0
 11
10643.8728625
 21
6665.7797690000016
 31
0.0
  0
LINE
  5
1B28
  8
0-1
  6
CONTINUOUS
 62
     3
 10
9197.3742345000101
 20
8526.8256480000018
 30
0.0
 11
9197.3742345000101
 21
6665.7797690000016
 31
0.0
  0
LINE
  5
1B29
  8
0-1
  6
CONTINUOUS
 62
     3
 10
9234.3744055000116
 20
8526.8256480000018
 30
0.0
 11
9234.3744055000116
 21
6665.7797690000016
 31
0.0
  0
LINE
  5
1B2A
  8
0-1
  6
CONTINUOUS
 62
     3
 10
9906.8753295000079
 20
8526.8256480000018
 30
0.0
 11
9906.8753295000079
 21
6665.7797690000016
 31
0.0
  0
LINE
  5
1B2B
  8
0-1
  6
CONTINUOUS
 62
     3
 10
9943.8735214999961
 20
8526.8256480000018
 30
0.0
 11
9943.8735214999961
 21
6665.7797690000016
 31
0.0
  0
LINE
  5
1B2C
  8
0-1
  6
CONTINUOUS
 62
     3
 10
11379.373878500001
 20
8734.0614480000004
 30
0.0
 11
11375.1129645
 21
8863.9911090000023
 31
0.0
  0
LINE
  5
1B2D
  8
0-1
  6
CONTINUOUS
 62
     3
 10
11379.373878500001
 20
8734.0614480000004
 30
0.0
 11
11379.373878500001
 21
8526.8256480000018
 31
0.0
  0
LINE
  5
1B2E
  8
0-1
  6
CONTINUOUS
 62
     3
 10
14224.874010499991
 20
8526.8256480000018
 30
0.0
 11
14224.874010499991
 21
6615.7796040000021
 31
0.0
  0
LINE
  5
1B2F
  8
0-1
  6
CONTINUOUS
 62
     3
 10
14339.8731525
 20
8830.805470000003
 30
0.0
 11
14339.8731525
 21
6615.7796040000021
 31
0.0
  0
LINE
  5
1B30
  8
0-1
  6
CONTINUOUS
 62
     3
 10
14319.874076499989
 20
8830.149260000002
 30
0.0
 11
14319.874076499989
 21
6615.7796040000021
 31
0.0
  0
LINE
  5
1B31
  8
0-1
  6
CONTINUOUS
 62
     3
 10
12814.87423449999
 20
8526.8256480000018
 30
0.0
 11
12814.87423449999
 21
6665.7797690000016
 31
0.0
  0
LINE
  5
1B32
  8
0-1
  6
CONTINUOUS
 62
     3
 10
12851.87341649999
 20
8526.8256480000018
 30
0.0
 11
12851.87341649999
 21
6665.7797690000016
 31
0.0
  0
LINE
  5
1B33
  8
0-1
  6
CONTINUOUS
 62
     3
 10
13524.874670499999
 20
8526.8256480000018
 30
0.0
 11
13524.874670499999
 21
6665.7797690000016
 31
0.0
  0
LINE
  5
1B34
  8
0-1
  6
CONTINUOUS
 62
     3
 10
13561.8728625
 20
8526.8256480000018
 30
0.0
 11
13561.8728625
 21
6665.7797690000016
 31
0.0
  0
LINE
  5
1B35
  8
0-1
  6
CONTINUOUS
 62
     3
 10
12114.8729145
 20
8526.8256480000018
 30
0.0
 11
12114.8729145
 21
6665.7797690000016
 31
0.0
  0
LINE
  5
1B36
  8
0-1
  6
CONTINUOUS
 62
     3
 10
12151.874076499989
 20
8526.8256480000018
 30
0.0
 11
12151.874076499989
 21
6665.7797690000016
 31
0.0
  0
LINE
  5
1B37
  8
0-1
  6
CONTINUOUS
 62
     3
 10
12493.372703499999
 20
6665.7797690000016
 30
0.0
 11
12493.372703499999
 21
8526.8256480000018
 31
0.0
  0
LINE
  5
1B38
  8
0-1
  6
CONTINUOUS
 62
     3
 10
12473.373627499999
 20
6665.7797690000016
 30
0.0
 11
12473.373627499999
 21
8526.8256480000018
 31
0.0
  0
LINE
  5
1B39
  8
0-1
  6
CONTINUOUS
 62
     3
 10
12543.373363500001
 20
6665.7797690000016
 30
0.0
 11
12543.373363500001
 21
8526.8256480000018
 31
0.0
  0
LINE
  5
1B3A
  8
0-1
  6
CONTINUOUS
 62
     3
 10
12423.37296749999
 20
6665.7797690000016
 30
0.0
 11
12423.37296749999
 21
8526.8256480000018
 31
0.0
  0
LINE
  5
1B3B
  8
0-1
  6
CONTINUOUS
 62
     3
 10
12290.373073500001
 20
6665.7797690000016
 30
0.0
 11
12290.373073500001
 21
8526.8256480000018
 31
0.0
  0
LINE
  5
1B3C
  8
0-1
  6
CONTINUOUS
 62
     3
 10
12275.374260500001
 20
6665.7797690000016
 30
0.0
 11
12275.374260500001
 21
8526.8256480000018
 31
0.0
  0
LINE
  5
1B3D
  8
0-1
  6
CONTINUOUS
 62
     3
 10
12676.37325749999
 20
6665.7797690000016
 30
0.0
 11
12676.37325749999
 21
8526.8256480000018
 31
0.0
  0
LINE
  5
1B3E
  8
0-1
  6
CONTINUOUS
 62
     3
 10
12691.37503949999
 20
6665.7797690000016
 30
0.0
 11
12691.37503949999
 21
8526.8256480000018
 31
0.0
  0
LINE
  5
1B3F
  8
0-1
  6
CONTINUOUS
 62
     3
 10
13391.37437949999
 20
6665.7797690000016
 30
0.0
 11
13391.37437949999
 21
8526.8256480000018
 31
0.0
  0
LINE
  5
1B40
  8
0-1
  6
CONTINUOUS
 62
     3
 10
13376.3725985
 20
6665.7797690000016
 30
0.0
 11
13376.3725985
 21
8526.8256480000018
 31
0.0
  0
LINE
  5
1B41
  8
0-1
  6
CONTINUOUS
 62
     3
 10
12975.37360149999
 20
6665.7797690000016
 30
0.0
 11
12975.37360149999
 21
8526.8256480000018
 31
0.0
  0
LINE
  5
1B42
  8
0-1
  6
CONTINUOUS
 62
     3
 10
12990.3743925
 20
6665.7797690000016
 30
0.0
 11
12990.3743925
 21
8526.8256480000018
 31
0.0
  0
LINE
  5
1B43
  8
0-1
  6
CONTINUOUS
 62
     3
 10
13123.375277499999
 20
6665.7797690000016
 30
0.0
 11
13123.375277499999
 21
8526.8256480000018
 31
0.0
  0
LINE
  5
1B44
  8
0-1
  6
CONTINUOUS
 62
     3
 10
13243.372703499999
 20
6665.7797690000016
 30
0.0
 11
13243.372703499999
 21
8526.8256480000018
 31
0.0
  0
LINE
  5
1B45
  8
0-1
  6
CONTINUOUS
 62
     3
 10
13173.3729675
 20
6665.7797690000016
 30
0.0
 11
13173.3729675
 21
8526.8256480000018
 31
0.0
  0
LINE
  5
1B46
  8
0-1
  6
CONTINUOUS
 62
     3
 10
13193.37501349999
 20
6665.7797690000016
 30
0.0
 11
13193.37501349999
 21
8526.8256480000018
 31
0.0
  0
LINE
  5
1B47
  8
0-1
  6
CONTINUOUS
 62
     3
 10
13903.374459500001
 20
6665.7797690000016
 30
0.0
 11
13903.374459500001
 21
8526.8256480000018
 31
0.0
  0
LINE
  5
1B48
  8
0-1
  6
CONTINUOUS
 62
     3
 10
13883.375383500001
 20
6665.7797690000016
 30
0.0
 11
13883.375383500001
 21
8526.8256480000018
 31
0.0
  0
LINE
  5
1B49
  8
0-1
  6
CONTINUOUS
 62
     3
 10
13953.37511949999
 20
6665.7797690000016
 30
0.0
 11
13953.37511949999
 21
8526.8256480000018
 31
0.0
  0
LINE
  5
1B4A
  8
0-1
  6
CONTINUOUS
 62
     3
 10
13833.374723499999
 20
6665.7797690000016
 30
0.0
 11
13833.374723499999
 21
8526.8256480000018
 31
0.0
  0
LINE
  5
1B4B
  8
0-1
  6
CONTINUOUS
 62
     3
 10
13700.3748285
 20
6665.7797690000016
 30
0.0
 11
13700.3748285
 21
8526.8256480000018
 31
0.0
  0
LINE
  5
1B4C
  8
0-1
  6
CONTINUOUS
 62
     3
 10
13685.373047499999
 20
6665.7797690000016
 30
0.0
 11
13685.373047499999
 21
8526.8256480000018
 31
0.0
  0
LINE
  5
1B4D
  8
0-1
  6
CONTINUOUS
 62
     3
 10
14086.37501349999
 20
6665.7797690000016
 30
0.0
 11
14086.37501349999
 21
8526.8256480000018
 31
0.0
  0
LINE
  5
1B4E
  8
0-1
  6
CONTINUOUS
 62
     3
 10
14101.373825499981
 20
6665.7797690000016
 30
0.0
 11
14101.373825499981
 21
8526.8256480000018
 31
0.0
  0
LINE
  5
1B4F
  8
0-1
  6
CONTINUOUS
 62
     3
 10
11991.372730499999
 20
6665.7797690000016
 30
0.0
 11
11991.372730499999
 21
8526.8256480000018
 31
0.0
  0
LINE
  5
1B50
  8
0-1
  6
CONTINUOUS
 62
     3
 10
11976.373917499999
 20
6665.7797690000016
 30
0.0
 11
11976.373917499999
 21
8526.8256480000018
 31
0.0
  0
LINE
  5
1B51
  8
0-1
  6
CONTINUOUS
 62
     3
 10
11843.375013499999
 20
6665.7797690000016
 30
0.0
 11
11843.375013499999
 21
8526.8256480000018
 31
0.0
  0
LINE
  5
1B52
  8
0-1
  6
CONTINUOUS
 62
     3
 10
14352.373878500001
 20
6615.7796040000021
 30
0.0
 11
14352.373878500001
 21
6515.7797690000016
 31
0.0
  0
LINE
  5
1B53
  8
0-1
  6
CONTINUOUS
 62
     3
 10
8592.0621965000137
 20
8691.0049390000022
 30
0.0
 11
8590.9477275000136
 21
8724.9873349999998
 31
0.0
  0
LINE
  5
1B54
  8
0-1
  6
CONTINUOUS
 62
     3
 10
8593.8477225000097
 20
8728.0833020000027
 30
0.0
 11
14424.215490500001
 21
8918.6159240000015
 31
0.0
  0
LINE
  5
1B55
  8
0-1
  6
CONTINUOUS
 62
     3
 10
14425.52692149999
 20
8878.6375670000016
 30
0.0
 11
8595.1601425000081
 21
8688.1049450000046
 31
0.0
  0
LINE
  5
1B56
  8
0-1
  6
CONTINUOUS
 62
     3
 10
8592.4234584999995
 20
8680.0106930000056
 30
0.0
 11
8592.4204895000057
 21
8680.0760170000012
 31
0.0
  0
LINE
  5
1B57
  8
0-1
  6
CONTINUOUS
 62
     3
 10
8592.4204895000057
 20
8680.0760170000012
 30
0.0
 11
8593.4716135000053
 21
8648.0286010000054
 31
0.0
  0
LINE
  5
1B58
  8
0-1
  6
CONTINUOUS
 62
     3
 10
8598.6322185000045
 20
8643.1956070000069
 30
0.0
 11
14447.971693499991
 21
8834.3497980000029
 31
0.0
  0
LINE
  5
1B59
  8
0-1
  6
CONTINUOUS
 62
     3
 10
14443.710779499999
 20
8964.2794590000049
 30
0.0
 11
8594.3732845000068
 21
8773.1252680000016
 31
0.0
  0
LINE
  5
1B5A
  8
0-1
  6
CONTINUOUS
 62
     3
 10
8589.5383105000055
 20
8767.963673000002
 30
0.0
 11
8590.5884445000029
 21
8735.981581
 31
0.0
  0
LINE
  5
1B5B
  8
0-1
  6
CONTINUOUS
 62
     3
 10
8593.6844115000058
 20
8733.0815860000002
 30
0.0
 11
14424.053170499999
 21
8923.614209000003
 31
0.0
  0
LINE
  5
1B5C
  8
0-1
  6
CONTINUOUS
 62
     3
 10
14425.689242500001
 20
8873.6412620000028
 30
0.0
 11
8595.3224635000097
 21
8683.1076500000017
 31
0.0
  0
LINE
  5
1B5D
  8
0-1
  6
CONTINUOUS
 62
     3
 10
8606.8650365000067
 20
8773.5350280000057
 30
0.0
 11
8611.1259495000049
 21
8643.6043770000033
 31
0.0
  0
LINE
  5
1B5E
  8
0-5
  6
CONTINUOUS
 62
     4
 10
17222.747439499992
 20
6723.6262510000033
 30
0.0
 11
17342.745856499991
 21
6515.7797690000016
 31
0.0
  0
LINE
  5
1B5F
  8
0-5
  6
CONTINUOUS
 62
     4
 10
14432.374142500001
 20
6515.7797690000016
 30
0.0
 11
19665.119536499999
 21
6515.7797690000016
 31
0.0
  0
LINE
  5
1B60
  8
0-5
  6
CONTINUOUS
 62
     4
 10
17342.745856499991
 20
6515.7797690000016
 30
0.0
 11
17462.748231499991
 21
6723.6262510000033
 31
0.0
  0
LINE
  5
1B61
  8
0-5
  6
CONTINUOUS
 62
     4
 10
17462.748231499991
 20
6723.6262510000033
 30
0.0
 11
17222.747439499992
 21
6723.6262510000033
 31
0.0
  0
LINE
  5
1B62
  8
0-5
  6
CONTINUOUS
 62
     4
 10
14432.374142500001
 20
6615.7796040000021
 30
0.0
 11
16149.8340905
 21
6615.7796040000021
 31
0.0
  0
LINE
  5
1B63
  8
0-5
  6
CONTINUOUS
 62
     4
 10
16177.46025149999
 20
6823.6255910000036
 30
0.0
 11
15937.4584705
 21
6823.6255910000036
 31
0.0
  0
LINE
  5
1B64
  8
0-5
  6
CONTINUOUS
 62
     4
 10
16057.45787649999
 20
6615.7796040000021
 30
0.0
 11
16177.46025149999
 21
6823.6255910000036
 31
0.0
  0
LINE
  5
1B65
  8
0-5
  6
CONTINUOUS
 62
     4
 10
15937.4584705
 20
6823.6255910000036
 30
0.0
 11
16057.45787649999
 21
6615.7796040000021
 31
0.0
  0
LINE
  5
1B66
  8
2-0
  6
CENTER2
 62
     6
 10
8811.8738785000005
 20
6253.1263570000046
 30
0.0
 11
8811.8738785000005
 21
7310.2694489999967
 31
0.0
  0
LINE
  5
1B67
  8
2-0
  6
CENTER2
 62
     6
 10
11379.373878500001
 20
6253.1263570000046
 30
0.0
 11
11379.373878500001
 21
7310.2694489999967
 31
0.0
  0
LINE
  5
1B68
  8
2-0
  6
CENTER2
 62
     6
 10
14297.373878500001
 20
6253.1263570000046
 30
0.0
 11
14297.373878500001
 21
7310.2694489999967
 31
0.0
  0
ARC
  5
1B69
  8
0-1
  6
CONTINUOUS
 62
     3
 10
8595.2650575000062
 20
8730.6309420000034
 30
0.0
 40
2.5
 50
271.87799100002047
 51
91.877991000020657
  0
ARC
  5
1B6A
  8
0-1
  6
CONTINUOUS
 62
     3
 10
8596.7397985000061
 20
8685.6562800000029
 30
0.0
 40
2.5
 50
271.87799100002047
 51
91.877991000020657
  0
ARC
  5
1B6B
  8
0-1
  6
CONTINUOUS
 62
     3
 10
8593.9457085000067
 20
8725.0853210000023
 30
0.0
 40
3.0
 50
91.877991000020657
 51
181.87799100002039
  0
ARC
  5
1B6C
  8
0-1
  6
CONTINUOUS
 62
     3
 10
14424.871701499989
 20
8898.6267460000035
 30
0.0
 40
20.0
 50
271.87799100002047
 51
91.877991000020657
  0
ARC
  5
1B6D
  8
0-1
  6
CONTINUOUS
 62
     3
 10
8595.0601775000068
 20
8691.1039149999979
 30
0.0
 40
3.0
 50
181.87799100002039
 51
271.87799100002047
  0
ARC
  5
1B6E
  8
0-1
  6
CONTINUOUS
 62
     3
 10
8595.4204495000085
 20
8680.1096690000049
 30
0.0
 40
3.0
 50
91.877991000020657
 51
181.87799100002039
  0
ARC
  5
1B6F
  8
0-1
  6
CONTINUOUS
 62
     3
 10
8598.4689085000082
 20
8648.1919120000057
 30
0.0
 40
5.0
 50
181.87799100002039
 51
271.87799100002047
  0
ARC
  5
1B70
  8
0-1
  6
CONTINUOUS
 62
     3
 10
14419.87341649999
 20
8898.4634360000018
 30
0.0
 40
69.999999000000003
 50
293.66478000018742
 51
70.091202000197327
  0
ARC
  5
1B71
  8
0-1
  6
CONTINUOUS
 62
     3
 10
8594.5356045000062
 20
8768.1279730000024
 30
0.0
 40
5.0
 50
91.877991000020657
 51
181.87799100002039
  0
ARC
  5
1B72
  8
0-1
  6
CONTINUOUS
 62
     3
 10
8593.5854355000029
 20
8736.0795670000025
 30
0.0
 40
3.0
 50
181.87799100002039
 51
271.87799100002047
  0
ARC
  5
1B73
  8
0-1
  6
CONTINUOUS
 62
     3
 10
14424.871701499989
 20
8898.6267460000035
 30
0.0
 40
24.999998999999999
 50
271.87799100002047
 51
91.877991000020657
  0
TEXT
  5
1B74
  8
0-0
  6
CONTINUOUS
 62
     7
 10
17222.747439499992
 20
6803.6260200000024
 30
0.0
 40
160.0
  1
G.L
 72
     4
 11
17382.747439499992
 21
6883.6260200000042
 31
0.0
  0
TEXT
  5
1B75
  8
0-0
  6
CONTINUOUS
 62
     7
 10
15598.366937499981
 20
6903.6258549999966
 30
0.0
 40
160.0
  1
布基礎天端
 72
     4
 11
16057.033604166651
 21
6983.6258549999984
 31
0.0
  0
TEXT
  5
1B76
  8
2-0
  6
CONTINUOUS
 62
     7
 10
9898.7830575000098
 20
3638.6597025833762
 30
0.0
 40
160.0
  1
側 面 立 面 図
 72
     4
 11
10544.11639083334
 21
3718.6597025833762
 31
0.0
  0
TEXT
  5
1B77
  8
2-0
  6
CONTINUOUS
 62
     7
 10
11895.60857597094
 20
3665.855071583379
 30
0.0
 40
160.0
  1
1
 72
     4
 11
11922.27524263761
 21
3745.855071583379
 31
0.0
  0
TEXT
  5
1B78
  8
2-0
  6
CONTINUOUS
 62
     7
 10
12138.69729322165
 20
3585.8565395833748
 30
0.0
 40
160.0
  1
80
 72
     4
 11
12258.69729322165
 21
3665.8565395833748
 31
0.0
  0
TEXT
  5
1B79
  8
2-0
  6
CONTINUOUS
 62
     7
 10
11396.61054197096
 20
3638.6597025833762
 30
0.0
 40
160.0
  1
(S=  /   )
 72
     4
 11
11956.61054197096
 21
3718.6597025833762
 31
0.0
  0
LINE
  5
1B7A
  8
0-1
  6
CONTINUOUS
 62
     3
 10
9064.3743395000256
 20
6665.7797690000016
 30
0.0
 11
9064.3743395000256
 21
8526.8256480000018
 31
0.0
  0
LINE
  5
1B7B
  8
0-1
  6
CONTINUOUS
 62
     3
 10
9049.3755275000221
 20
6665.7797690000016
 30
0.0
 11
9049.3755275000221
 21
8526.8256480000018
 31
0.0
  0
LINE
  5
1B7C
  8
0-5
  6
CONTINUOUS
 62
     4
 10
14297.373878500001
 20
4835.7801650000047
 30
0.0
 11
14297.373878500001
 21
4675.7806270000037
 31
0.0
  0
LINE
  5
1B7D
  8
0-5
  6
CONTINUOUS
 62
     4
 10
11379.373878500001
 20
4835.7801650000047
 30
0.0
 11
11379.373878500001
 21
4675.7806270000037
 31
0.0
  0
LINE
  5
1B7E
  8
0-5
  6
CONTINUOUS
 62
     4
 10
8811.8738785000005
 20
4835.7801650000047
 30
0.0
 11
8811.8738785000005
 21
4675.7806270000037
 31
0.0
  0
CIRCLE
  5
1B7F
  8
0-5
  6
CONTINUOUS
 62
     4
 10
11379.373878500001
 20
4475.7794720000047
 30
0.0
 40
199.9999949999999
  0
CIRCLE
  5
1B80
  8
0-5
  6
CONTINUOUS
 62
     4
 10
14297.373878500001
 20
4475.7794720000047
 30
0.0
 40
199.9999949999999
  0
CIRCLE
  5
1B81
  8
0-5
  6
CONTINUOUS
 62
     4
 10
8811.8738785000005
 20
4475.7794720000047
 30
0.0
 40
199.9999949999999
  0
TEXT
  5
1B82
  8
0-5
  6
CONTINUOUS
 62
     7
 10
14250.417718499981
 20
4392.5686760000062
 30
0.0
 40
160.0
  1
A
 72
     4
 11
14303.75105183332
 21
4472.5686760000071
 31
0.0
  0
TEXT
  5
1B83
  8
0-5
  6
CONTINUOUS
 62
     7
 10
11332.41771849999
 20
4392.5686760000062
 30
0.0
 40
160.0
  1
B
 72
     4
 11
11385.751051833329
 21
4472.5686760000071
 31
0.0
  0
TEXT
  5
1B84
  8
0-5
  6
CONTINUOUS
 62
     7
 10
8764.9177185000062
 20
4392.5686760000062
 30
0.0
 40
160.0
  1
C
 72
     4
 11
8818.2510518333402
 21
4472.5686760000071
 31
0.0
  0
LINE
  5
1B99
  8
0-1
  6
CONTINUOUS
 62
     3
 10
25681.119139499991
 20
6615.7796039999957
 30
0.0
 11
25581.1197985
 21
6615.7796039999957
 31
0.0
  0
LINE
  5
1B9A
  8
0-1
  6
CONTINUOUS
 62
     3
 10
25581.1197985
 20
6615.7796039999957
 30
0.0
 11
25581.1197985
 21
6515.7797690000016
 31
0.0
  0
LINE
  5
1B9B
  8
0-1
  6
CONTINUOUS
 62
     3
 10
25681.119139499991
 20
6515.7797690000016
 30
0.0
 11
25681.119139499991
 21
6615.7796039999957
 31
0.0
  0
LINE
  5
1B9C
  8
0-1
  6
CONTINUOUS
 62
     3
 10
25653.619666499992
 20
8964.2799530000029
 30
0.0
 11
25653.619666499992
 21
6615.7796039999957
 31
0.0
  0
LINE
  5
1B9D
  8
0-1
  6
CONTINUOUS
 62
     3
 10
25673.618743499988
 20
8834.2790299999979
 30
0.0
 11
25673.618743499988
 21
6615.7796039999957
 31
0.0
  0
LINE
  5
1B9E
  8
0-1
  6
CONTINUOUS
 62
     3
 10
25543.619798499989
 20
8523.7796629999975
 30
0.0
 11
25543.619798499989
 21
6515.7797690000016
 31
0.0
  0
LINE
  5
1B9F
  8
0-1
  6
CONTINUOUS
 62
     3
 10
25588.620194499981
 20
8834.2790299999979
 30
0.0
 11
25588.620194499981
 21
6615.7796039999957
 31
0.0
  0
LINE
  5
1BA8
  8
0-1
  6
CONTINUOUS
 62
     3
 10
22755.616763500009
 20
8834.2790299999979
 30
0.0
 11
22755.616763500009
 21
6515.7797690000016
 31
0.0
  0
LINE
  5
1BA9
  8
0-1
  6
CONTINUOUS
 62
     3
 10
22800.61715950002
 20
8523.7796629999975
 30
0.0
 11
22800.61715950002
 21
6515.7797690000016
 31
0.0
  0
LINE
  5
1BAC
  8
0-1
  6
CONTINUOUS
 62
     3
 10
22800.61715950002
 20
8455.2393269999993
 30
0.0
 11
25543.619798499989
 21
8455.2393269999993
 31
0.0
  0
LINE
  5
1BAD
  8
0-1
  6
CONTINUOUS
 62
     3
 10
22800.61715950002
 20
7100.7804619999988
 30
0.0
 11
25543.619798499989
 21
7100.7804619999988
 31
0.0
  0
LINE
  5
1BAE
  8
0-1
  6
CONTINUOUS
 62
     3
 10
22800.61715950002
 20
7165.7794390000035
 30
0.0
 11
25543.619798499989
 21
7165.7794390000035
 31
0.0
  0
LINE
  5
1BAF
  8
0-1
  6
CONTINUOUS
 62
     3
 10
22800.61715950002
 20
7230.7799009999972
 30
0.0
 11
25543.619798499989
 21
7230.7799009999972
 31
0.0
  0
LINE
  5
1BB0
  8
0-1
  6
CONTINUOUS
 62
     3
 10
22800.61715950002
 20
7295.7798679999978
 30
0.0
 11
25543.619798499989
 21
7295.7798679999978
 31
0.0
  0
LINE
  5
1BB1
  8
0-1
  6
CONTINUOUS
 62
     3
 10
22800.61715950002
 20
7360.7798349999975
 30
0.0
 11
25543.619798499989
 21
7360.7798349999975
 31
0.0
  0
LINE
  5
1BB2
  8
0-1
  6
CONTINUOUS
 62
     3
 10
22800.61715950002
 20
7425.7798019999982
 30
0.0
 11
25543.619798499989
 21
7425.7798019999982
 31
0.0
  0
LINE
  5
1BB3
  8
0-1
  6
CONTINUOUS
 62
     3
 10
22800.61715950002
 20
7490.7802640000027
 30
0.0
 11
25543.619798499989
 21
7490.7802640000027
 31
0.0
  0
LINE
  5
1BB4
  8
0-1
  6
CONTINUOUS
 62
     3
 10
22800.61715950002
 20
7555.7792409999929
 30
0.0
 11
25543.619798499989
 21
7555.7792409999929
 31
0.0
  0
LINE
  5
1BB5
  8
0-1
  6
CONTINUOUS
 62
     3
 10
22800.61715950002
 20
7620.7797029999929
 30
0.0
 11
25543.619798499989
 21
7620.7797029999929
 31
0.0
  0
LINE
  5
1BB6
  8
0-1
  6
CONTINUOUS
 62
     3
 10
22800.61715950002
 20
7685.7796699999981
 30
0.0
 11
25543.619798499989
 21
7685.7796699999981
 31
0.0
  0
LINE
  5
1BB7
  8
0-1
  6
CONTINUOUS
 62
     3
 10
22800.61715950002
 20
7750.7801319999971
 30
0.0
 11
25543.619798499989
 21
7750.7801319999971
 31
0.0
  0
LINE
  5
1BB8
  8
0-1
  6
CONTINUOUS
 62
     3
 10
22800.61715950002
 20
7815.7791089999973
 30
0.0
 11
25543.619798499989
 21
7815.7791089999973
 31
0.0
  0
LINE
  5
1BB9
  8
0-1
  6
CONTINUOUS
 62
     3
 10
22800.61715950002
 20
7880.7795709999973
 30
0.0
 11
25543.619798499989
 21
7880.7795709999973
 31
0.0
  0
LINE
  5
1BBA
  8
0-1
  6
CONTINUOUS
 62
     3
 10
22800.61715950002
 20
7945.7795379999998
 30
0.0
 11
25543.619798499989
 21
7945.7795379999998
 31
0.0
  0
LINE
  5
1BBB
  8
0-1
  6
CONTINUOUS
 62
     3
 10
22800.61715950002
 20
8010.7795050000004
 30
0.0
 11
25543.619798499989
 21
8010.7795050000004
 31
0.0
  0
LINE
  5
1BBC
  8
0-1
  6
CONTINUOUS
 62
     3
 10
22800.61715950002
 20
8075.7799670000022
 30
0.0
 11
25543.619798499989
 21
8075.7799670000022
 31
0.0
  0
LINE
  5
1BBD
  8
0-1
  6
CONTINUOUS
 62
     3
 10
22800.61715950002
 20
8140.7799339999992
 30
0.0
 11
25543.619798499989
 21
8140.7799339999992
 31
0.0
  0
LINE
  5
1BBE
  8
0-1
  6
CONTINUOUS
 62
     3
 10
22800.61715950002
 20
8205.7803959999983
 30
0.0
 11
25543.619798499989
 21
8205.7803959999983
 31
0.0
  0
LINE
  5
1BBF
  8
0-1
  6
CONTINUOUS
 62
     3
 10
22800.61715950002
 20
8270.7793729999976
 30
0.0
 11
25543.619798499989
 21
8270.7793729999976
 31
0.0
  0
LINE
  5
1BC0
  8
0-1
  6
CONTINUOUS
 62
     3
 10
22800.61715950002
 20
8335.779835000003
 30
0.0
 11
25543.619798499989
 21
8335.779835000003
 31
0.0
  0
LINE
  5
1BC1
  8
0-1
  6
CONTINUOUS
 62
     3
 10
22800.61715950002
 20
8400.7798019999973
 30
0.0
 11
25543.619798499989
 21
8400.7798019999973
 31
0.0
  0
LINE
  5
1BC2
  8
0-1
  6
CONTINUOUS
 62
     3
 10
22800.61715950002
 20
6580.7792409999956
 30
0.0
 11
25543.619798499989
 21
6580.7792409999956
 31
0.0
  0
LINE
  5
1BC3
  8
0-1
  6
CONTINUOUS
 62
     3
 10
22800.61715950002
 20
6645.7801979999967
 30
0.0
 11
25543.619798499989
 21
6645.7801979999967
 31
0.0
  0
LINE
  5
1BC4
  8
0-1
  6
CONTINUOUS
 62
     3
 10
22800.61715950002
 20
6710.7791749999997
 30
0.0
 11
25543.619798499989
 21
6710.7791749999997
 31
0.0
  0
LINE
  5
1BC5
  8
0-1
  6
CONTINUOUS
 62
     3
 10
22800.61715950002
 20
6775.7801319999971
 30
0.0
 11
25543.619798499989
 21
6775.7801319999971
 31
0.0
  0
LINE
  5
1BC6
  8
0-1
  6
CONTINUOUS
 62
     3
 10
22800.61715950002
 20
6840.7796040000012
 30
0.0
 11
25543.619798499989
 21
6840.7796040000012
 31
0.0
  0
LINE
  5
1BC7
  8
0-1
  6
CONTINUOUS
 62
     3
 10
22800.61715950002
 20
6905.779571
 30
0.0
 11
25543.619798499989
 21
6905.779571
 31
0.0
  0
LINE
  5
1BC8
  8
0-1
  6
CONTINUOUS
 62
     3
 10
22800.61715950002
 20
6970.7795379999989
 30
0.0
 11
25543.619798499989
 21
6970.7795379999989
 31
0.0
  0
LINE
  5
1BC9
  8
0-1
  6
CONTINUOUS
 62
     3
 10
22800.61715950002
 20
7035.7790099999966
 30
0.0
 11
25543.619798499989
 21
7035.7790099999966
 31
0.0
  0
LINE
  5
1BCB
  8
0-1
  6
CONTINUOUS
 62
     3
 10
22755.616763500009
 20
8523.7796629999975
 30
0.0
 11
25588.620194499981
 21
8523.7796629999975
 31
0.0
  0
LINE
  5
1BCC
  8
0-1
  6
CONTINUOUS
 62
     3
 10
19745.117820499989
 20
6515.7797690000016
 30
0.0
 11
25681.119139499991
 21
6515.7797690000016
 31
0.0
  0
LINE
  5
1BD6
  8
0-1
  6
CONTINUOUS
 62
     3
 10
22670.618215499991
 20
8834.2790299999979
 30
0.0
 11
22670.618215499991
 21
6515.7797690000016
 31
0.0
  0
LINE
  5
1BD7
  8
0-1
  6
CONTINUOUS
 62
     3
 10
22625.619799499971
 20
8523.7796629999975
 30
0.0
 11
22625.619799499971
 21
6515.7797690000016
 31
0.0
  0
LINE
  5
1BE2
  8
0-1
  6
CONTINUOUS
 62
     3
 10
19845.119139499999
 20
6615.7796039999957
 30
0.0
 11
19845.119139499999
 21
6515.7797690000016
 31
0.0
  0
LINE
  5
1BE3
  8
0-1
  6
CONTINUOUS
 62
     3
 10
19745.117820499989
 20
6515.7797690000016
 30
0.0
 11
19745.117820499989
 21
6615.7796039999957
 31
0.0
  0
LINE
  5
1BE4
  8
0-1
  6
CONTINUOUS
 62
     3
 10
19745.117820499989
 20
6615.7796039999957
 30
0.0
 11
19845.119139499999
 21
6615.7796039999957
 31
0.0
  0
LINE
  5
1BE5
  8
0-1
  6
CONTINUOUS
 62
     3
 10
19882.619139499999
 20
8523.7796629999975
 30
0.0
 11
19882.619139499999
 21
6515.7797690000016
 31
0.0
  0
LINE
  5
1BE6
  8
0-1
  6
CONTINUOUS
 62
     3
 10
19837.616764499999
 20
8834.2790299999979
 30
0.0
 11
19837.616764499999
 21
6615.7796039999957
 31
0.0
  0
LINE
  5
1BE7
  8
0-1
  6
CONTINUOUS
 62
     3
 10
19772.619271499982
 20
8964.2799530000029
 30
0.0
 11
19772.619271499982
 21
6615.7796039999957
 31
0.0
  0
LINE
  5
1BE8
  8
0-1
  6
CONTINUOUS
 62
     3
 10
19752.616236499998
 20
8834.2790299999979
 30
0.0
 11
19752.616236499998
 21
6615.7796039999957
 31
0.0
  0
LINE
  5
1BE9
  8
0-1
  6
CONTINUOUS
 62
     3
 10
19837.616764499999
 20
8523.7796629999975
 30
0.0
 11
22670.618215499991
 21
8523.7796629999975
 31
0.0
  0
LINE
  5
1BEB
  8
0-1
  6
CONTINUOUS
 62
     3
 10
19882.619139499999
 20
7035.7790099999966
 30
0.0
 11
22625.619799499971
 21
7035.7790099999966
 31
0.0
  0
LINE
  5
1BEC
  8
0-1
  6
CONTINUOUS
 62
     3
 10
19882.619139499999
 20
6970.7795379999989
 30
0.0
 11
22625.619799499971
 21
6970.7795379999989
 31
0.0
  0
LINE
  5
1BED
  8
0-1
  6
CONTINUOUS
 62
     3
 10
19882.619139499999
 20
6905.779571
 30
0.0
 11
22625.619799499971
 21
6905.779571
 31
0.0
  0
LINE
  5
1BEE
  8
0-1
  6
CONTINUOUS
 62
     3
 10
19882.619139499999
 20
6840.7796040000012
 30
0.0
 11
22625.619799499971
 21
6840.7796040000012
 31
0.0
  0
LINE
  5
1BEF
  8
0-1
  6
CONTINUOUS
 62
     3
 10
19882.619139499999
 20
6775.7801319999971
 30
0.0
 11
22625.619799499971
 21
6775.7801319999971
 31
0.0
  0
LINE
  5
1BF0
  8
0-1
  6
CONTINUOUS
 62
     3
 10
19882.619139499999
 20
6710.7791749999997
 30
0.0
 11
22625.619799499971
 21
6710.7791749999997
 31
0.0
  0
LINE
  5
1BF1
  8
0-1
  6
CONTINUOUS
 62
     3
 10
19882.619139499999
 20
6645.7801979999967
 30
0.0
 11
22625.619799499971
 21
6645.7801979999967
 31
0.0
  0
LINE
  5
1BF2
  8
0-1
  6
CONTINUOUS
 62
     3
 10
19882.619139499999
 20
6580.7792409999956
 30
0.0
 11
22625.619799499971
 21
6580.7792409999956
 31
0.0
  0
LINE
  5
1BF3
  8
0-1
  6
CONTINUOUS
 62
     3
 10
19882.619139499999
 20
8400.7798019999973
 30
0.0
 11
22625.619799499971
 21
8400.7798019999973
 31
0.0
  0
LINE
  5
1BF4
  8
0-1
  6
CONTINUOUS
 62
     3
 10
19882.619139499999
 20
8335.779835000003
 30
0.0
 11
22625.619799499971
 21
8335.779835000003
 31
0.0
  0
LINE
  5
1BF5
  8
0-1
  6
CONTINUOUS
 62
     3
 10
19882.619139499999
 20
8270.7793729999976
 30
0.0
 11
22625.619799499971
 21
8270.7793729999976
 31
0.0
  0
LINE
  5
1BF6
  8
0-1
  6
CONTINUOUS
 62
     3
 10
19882.619139499999
 20
8205.7803959999983
 30
0.0
 11
22625.619799499971
 21
8205.7803959999983
 31
0.0
  0
LINE
  5
1BF7
  8
0-1
  6
CONTINUOUS
 62
     3
 10
19882.619139499999
 20
8140.7799339999992
 30
0.0
 11
22625.619799499971
 21
8140.7799339999992
 31
0.0
  0
LINE
  5
1BF8
  8
0-1
  6
CONTINUOUS
 62
     3
 10
19882.619139499999
 20
8075.7799670000022
 30
0.0
 11
22625.619799499971
 21
8075.7799670000022
 31
0.0
  0
LINE
  5
1BF9
  8
0-1
  6
CONTINUOUS
 62
     3
 10
19882.619139499999
 20
8010.7795050000004
 30
0.0
 11
22625.619799499971
 21
8010.7795050000004
 31
0.0
  0
LINE
  5
1BFA
  8
0-1
  6
CONTINUOUS
 62
     3
 10
19882.619139499999
 20
7945.7795379999998
 30
0.0
 11
22625.619799499971
 21
7945.7795379999998
 31
0.0
  0
LINE
  5
1BFB
  8
0-1
  6
CONTINUOUS
 62
     3
 10
19882.619139499999
 20
7880.7795709999973
 30
0.0
 11
22625.619799499971
 21
7880.7795709999973
 31
0.0
  0
LINE
  5
1BFC
  8
0-1
  6
CONTINUOUS
 62
     3
 10
19882.619139499999
 20
7815.7791089999973
 30
0.0
 11
22625.619799499971
 21
7815.7791089999973
 31
0.0
  0
LINE
  5
1BFD
  8
0-1
  6
CONTINUOUS
 62
     3
 10
19882.619139499999
 20
7750.7801319999971
 30
0.0
 11
22625.619799499971
 21
7750.7801319999971
 31
0.0
  0
LINE
  5
1BFE
  8
0-1
  6
CONTINUOUS
 62
     3
 10
19882.619139499999
 20
7685.7796699999981
 30
0.0
 11
22625.619799499971
 21
7685.7796699999981
 31
0.0
  0
LINE
  5
1BFF
  8
0-1
  6
CONTINUOUS
 62
     3
 10
19882.619139499999
 20
7620.7797029999929
 30
0.0
 11
22625.619799499971
 21
7620.7797029999929
 31
0.0
  0
LINE
  5
1C00
  8
0-1
  6
CONTINUOUS
 62
     3
 10
19882.619139499999
 20
7555.7792409999929
 30
0.0
 11
22625.619799499971
 21
7555.7792409999929
 31
0.0
  0
LINE
  5
1C01
  8
0-1
  6
CONTINUOUS
 62
     3
 10
19882.619139499999
 20
7490.7802640000027
 30
0.0
 11
22625.619799499971
 21
7490.7802640000027
 31
0.0
  0
LINE
  5
1C02
  8
0-1
  6
CONTINUOUS
 62
     3
 10
19882.619139499999
 20
7425.7798019999982
 30
0.0
 11
22625.619799499971
 21
7425.7798019999982
 31
0.0
  0
LINE
  5
1C03
  8
0-1
  6
CONTINUOUS
 62
     3
 10
19882.619139499999
 20
7360.7798349999975
 30
0.0
 11
22625.619799499971
 21
7360.7798349999975
 31
0.0
  0
LINE
  5
1C04
  8
0-1
  6
CONTINUOUS
 62
     3
 10
19882.619139499999
 20
7295.7798679999978
 30
0.0
 11
22625.619799499971
 21
7295.7798679999978
 31
0.0
  0
LINE
  5
1C05
  8
0-1
  6
CONTINUOUS
 62
     3
 10
19882.619139499999
 20
7230.7799009999972
 30
0.0
 11
22625.619799499971
 21
7230.7799009999972
 31
0.0
  0
LINE
  5
1C06
  8
0-1
  6
CONTINUOUS
 62
     3
 10
19882.619139499999
 20
7165.7794390000035
 30
0.0
 11
22625.619799499971
 21
7165.7794390000035
 31
0.0
  0
LINE
  5
1C07
  8
0-1
  6
CONTINUOUS
 62
     3
 10
19882.619139499999
 20
7100.7804619999988
 30
0.0
 11
22625.619799499971
 21
7100.7804619999988
 31
0.0
  0
LINE
  5
1C08
  8
0-1
  6
CONTINUOUS
 62
     3
 10
19882.619139499999
 20
8455.2393269999993
 30
0.0
 11
22625.619799499971
 21
8455.2393269999993
 31
0.0
  0
LINE
  5
1C0E
  8
0-2
  6
CONTINUOUS
 62
     4
 10
24535.810479500011
 20
7263.0054729999974
 30
0.0
 11
24435.811139500001
 21
7263.0054729999974
 31
0.0
  0
LINE
  5
1C0F
  8
0-2
  6
CONTINUOUS
 62
     4
 10
23808.424499500001
 20
7263.0054729999974
 30
0.0
 11
23908.423840499989
 21
7263.0054729999974
 31
0.0
  0
LINE
  5
1C10
  8
0-2
  6
CONTINUOUS
 62
     4
 10
21617.809490000011
 20
7263.0054729999974
 30
0.0
 11
21517.810150000001
 21
7263.0054729999974
 31
0.0
  0
LINE
  5
1C11
  8
0-2
  6
CONTINUOUS
 62
     4
 10
20890.42548899999
 20
7263.0054729999974
 30
0.0
 11
20990.422849999992
 21
7263.0054729999974
 31
0.0
  0
LINE
  5
1C12
  8
0-5
  6
CONTINUOUS
 62
     4
 10
22713.118479499979
 20
4835.7796699999972
 30
0.0
 11
22713.118479499979
 21
4675.7796369999969
 31
0.0
  0
LINE
  5
1C13
  8
0-5
  6
CONTINUOUS
 62
     4
 10
19795.11847949999
 20
4835.7796699999972
 30
0.0
 11
19795.11847949999
 21
4675.7796369999969
 31
0.0
  0
LINE
  5
1C14
  8
2-0
  6
CENTER2
 62
     6
 10
25631.11847949999
 20
6253.1273459999966
 30
0.0
 11
25631.11847949999
 21
7290.2693829999998
 31
0.0
  0
LINE
  5
1C15
  8
2-0
  6
CENTER2
 62
     6
 10
22713.118479499979
 20
6253.1273459999966
 30
0.0
 11
22713.118479499979
 21
7290.2693829999998
 31
0.0
  0
LINE
  5
1C16
  8
2-0
  6
CENTER2
 62
     6
 10
19795.11847949999
 20
6253.1273459999966
 30
0.0
 11
19795.11847949999
 21
7290.2693829999998
 31
0.0
  0
CIRCLE
  5
1C27
  8
0-5
  6
CONTINUOUS
 62
     4
 10
22713.118479499979
 20
4475.7799669999986
 30
0.0
 40
199.9999949999999
  0
CIRCLE
  5
1C28
  8
0-5
  6
CONTINUOUS
 62
     4
 10
19795.11847949999
 20
4475.7799669999986
 30
0.0
 40
199.9999949999999
  0
TEXT
  5
1C29
  8
0-5
  6
CONTINUOUS
 62
     7
 10
19176.9425405
 20
7245.1400157419948
 30
0.0
 40
160.0
  1
(2131.5)
 50
90.0
 72
     4
 11
19096.9425405
 21
7698.4733490753279
 31
0.0
  0
TEXT
  5
1C2A
  8
0-5
  6
CONTINUOUS
 62
     7
 10
22666.190032499992
 20
4389.2500129999971
 30
0.0
 40
160.0
  1
2
 72
     4
 11
22719.52336583332
 21
4469.2500129999971
 31
0.0
  0
TEXT
  5
1C2B
  8
0-5
  6
CONTINUOUS
 62
     7
 10
19748.18607349999
 20
4389.2500129999971
 30
0.0
 40
160.0
  1
1
 72
     4
 11
19774.852740166662
 21
4469.2500129999971
 31
0.0
  0
CIRCLE
  5
1C2C
  8
0-4
  6
CONTINUOUS
 62
     4
 10
21254.11847949999
 20
7001.8357099999976
 30
0.0
 40
18.487504999999981
  0
CIRCLE
  5
1C2D
  8
0-4
  6
CONTINUOUS
 62
     4
 10
24172.11847949999
 20
7001.8357099999976
 30
0.0
 40
18.487504999999981
  0
LINE
  5
1C30
  8
SUNPOU
  6
CONTINUOUS
 10
19512.618479499979
 20
5315.7797690000016
 30
0.0
 11
19154.663472778881
 21
5315.7797690000016
 31
0.0
  0
LINE
  5
1C32
  8
SUNPOU
  6
CONTINUOUS
 10
25913.622438499991
 20
5315.7797690000016
 30
0.0
 11
26271.577445221112
 21
5315.7797690000016
 31
0.0
  0
LINE
  5
1C3D
  8
0-5
  6
CONTINUOUS
 62
     4
 10
25673.61847949999
 20
4835.7796699999972
 30
0.0
 11
25673.61847949999
 21
4675.7796369999969
 31
0.0
  0
CIRCLE
  5
1C3E
  8
0-5
  6
CONTINUOUS
 62
     4
 10
25673.61847949999
 20
4475.7799669999986
 30
0.0
 40
199.9999949999999
  0
TEXT
  5
1C3F
  8
0-5
  6
CONTINUOUS
 62
     7
 10
25626.690032499999
 20
4389.2500129999971
 30
0.0
 40
160.0
  1
3
 72
     4
 11
25680.023365833331
 21
4469.2500129999971
 31
0.0
  0
TEXT
  5
1C40
  8
2-0
  6
CONTINUOUS
 62
     7
 10
21395.084735499979
 20
3638.6581370000022
 30
0.0
 40
160.0
  1
正 面 立 面 図
 50
0.000139
 72
     4
 11
22040.417874750801
 21
3718.6597025833762
 31
0.0
  0
TEXT
  5
1C41
  8
2-0
  6
CONTINUOUS
 62
     7
 10
23391.910059888429
 20
3665.855071583379
 30
0.0
 40
160.0
  1
1
 72
     4
 11
23418.5767265551
 21
3745.855071583379
 31
0.0
  0
TEXT
  5
1C42
  8
2-0
  6
CONTINUOUS
 62
     7
 10
23634.998777139132
 20
3585.8565395833748
 30
0.0
 40
160.0
  1
80
 72
     4
 11
23754.998777139132
 21
3665.8565395833748
 31
0.0
  0
TEXT
  5
1C43
  8
2-0
  6
CONTINUOUS
 62
     7
 10
22892.912025888429
 20
3638.6597025833762
 30
0.0
 40
160.0
  1
(S=  /   )
 72
     4
 11
23452.912025888429
 21
3718.6597025833762
 31
0.0
  0
LINE
  5
1C44
  8
0-5
  6
CONTINUOUS
 62
     4
 10
17222.749419499982
 20
6723.625261000001
 30
0.0
 11
17342.745856499991
 21
6515.7797690000016
 31
0.0
  0
LINE
  5
1C45
  8
0-5
  6
CONTINUOUS
 62
     4
 10
17342.745856499991
 20
6515.7797690000016
 30
0.0
 11
17462.746252499979
 21
6723.625261000001
 31
0.0
  0
LINE
  5
1C46
  8
0-5
  6
CONTINUOUS
 62
     4
 10
17462.746252499979
 20
6723.625261000001
 30
0.0
 11
17222.749419499982
 21
6723.625261000001
 31
0.0
  0
TEXT
  5
1C47
  8
0-5
  6
CONTINUOUS
 62
     7
 10
17222.749419499982
 20
6803.6260190000021
 30
0.0
 40
160.0
  1
G.L
 72
     4
 11
17382.749419499982
 21
6883.6260190000021
 31
0.0
  0
LINE
  5
1C49
  8
SUNPOU
  6
CONTINUOUS
 10
8589.3738785000023
 20
9763.7812800000029
 30
0.0
 11
8053.2482369121444
 21
9763.7812800000029
 31
0.0
  0
TEXT
  5
1C4A
  8
2-0
  6
CONTINUOUS
 62
     7
 10
21632.192382500001
 20
12154.23951899999
 30
0.0
 40
160.0
  1
平　面　図
 50
359.99978700000008
 72
     4
 11
22085.525993407369
 21
12228.90450037622
 31
0.0
  0
TEXT
  5
1C4B
  8
2-0
  6
CONTINUOUS
 62
     7
 10
23437.018178544989
 20
12176.09986937623
 30
0.0
 40
160.0
  1
1
 72
     4
 11
23463.684845211661
 21
12256.09986937623
 31
0.0
  0
TEXT
  5
1C4C
  8
2-0
  6
CONTINUOUS
 62
     7
 10
23680.106895795681
 20
12096.101337376231
 30
0.0
 40
160.0
  1
80
 72
     4
 11
23800.106895795681
 21
12176.101337376231
 31
0.0
  0
TEXT
  5
1C4D
  8
2-0
  6
CONTINUOUS
 62
     7
 10
22938.020144544978
 20
12148.90450037622
 30
0.0
 40
160.0
  1
(S=  /   )
 72
     4
 11
23498.020144544978
 21
12228.90450037622
 31
0.0
  0
LINE
  5
1C4E
  8
2-0
  6
CONTINUOUS
 62
     6
 10
23947.959563499979
 20
13766.229791999989
 30
0.0
 11
24947.95296549995
 21
13766.229791999989
 31
0.0
  0
LINE
  5
1C4F
  8
2-0
  6
CONTINUOUS
 62
     6
 10
25415.893342499981
 20
14236.650506
 30
0.0
 11
24947.95296549995
 21
13766.229791999989
 31
0.0
  0
LINE
  5
1C50
  8
2-0
  6
CONTINUOUS
 62
     6
 10
23964.670659499981
 20
18445.349857000001
 30
0.0
 11
24982.646007499981
 21
18445.349857000001
 31
0.0
  0
LINE
  5
1C51
  8
2-0
  6
CONTINUOUS
 62
     6
 10
25439.071525499981
 20
18670.064805999991
 30
0.0
 11
24982.646007499981
 21
18445.349857000001
 31
0.0
  0
LINE
  5
1C52
  8
2-0
  6
CONTINUOUS
 62
     6
 10
25377.253139499979
 20
17428.25815300001
 30
0.0
 11
25072.557721500001
 21
17531.911684000021
 31
0.0
  0
LINE
  5
1C53
  8
2-0
  6
CONTINUOUS
 62
     6
 10
25532.275178499949
 20
16938.636109000021
 30
0.0
 11
25072.557721500001
 21
16694.722797999999
 31
0.0
  0
LINE
  5
1C54
  8
2-0
  6
CONTINUOUS
 62
     6
 10
24152.554686499981
 20
16694.722797999999
 30
0.0
 11
25072.557721500001
 21
16694.722797999999
 31
0.0
  0
LINE
  5
1C55
  8
2-0
  6
CONTINUOUS
 62
     6
 10
23872.563659499989
 20
17531.911684000021
 30
0.0
 11
25072.557721500001
 21
17531.911684000021
 31
0.0
  0
LINE
  5
1C56
  8
2-0
  6
CONTINUOUS
 62
     6
 10
25448.452463499991
 20
14558.334151999979
 30
0.0
 11
25072.557721500001
 21
14739.277986999999
 31
0.0
  0
LINE
  5
1C57
  8
2-0
  6
CONTINUOUS
 62
     6
 10
23964.670659499981
 20
15527.58739900002
 30
0.0
 11
24982.646007499981
 21
15527.58739900002
 31
0.0
  0
LINE
  5
1C58
  8
2-0
  6
CONTINUOUS
 62
     6
 10
24552.556005499991
 20
14739.277986999999
 30
0.0
 11
25072.557721500001
 21
14739.277986999999
 31
0.0
  0
LINE
  5
1C59
  8
2-0
  6
CONTINUOUS
 62
     6
 10
25439.071525499981
 20
15752.30036900001
 30
0.0
 11
24982.646007499981
 21
15527.58739900002
 31
0.0
  0
LINE
  5
1C5A
  8
2-0
  6
CONTINUOUS
 62
     4
 10
22713.118479499979
 20
20014.231442000018
 30
0.0
 11
22713.118479499979
 21
20744.228406999999
 31
0.0
  0
LINE
  5
1C5B
  8
2-0
  6
CONTINUOUS
 62
     3
 10
25643.619139499991
 20
19825.228987999999
 30
0.0
 11
25643.619139499991
 21
19819.23302600002
 31
0.0
  0
LINE
  5
1C5C
  8
2-0
  6
CONTINUOUS
 62
     3
 10
25643.619139499991
 20
19819.23302600002
 30
0.0
 11
25673.616763499991
 21
19819.23302600002
 31
0.0
  0
LINE
  5
1C5D
  8
2-0
  6
CONTINUOUS
 62
     3
 10
25673.616763499991
 20
19849.23263000001
 30
0.0
 11
25592.614863499992
 21
19849.23263000001
 31
0.0
  0
LINE
  5
1C5E
  8
2-0
  6
CONTINUOUS
 62
     3
 10
25643.619139499991
 20
19808.935570000001
 30
0.0
 11
25673.616763499991
 21
19808.935570000001
 31
0.0
  0
LINE
  5
1C5F
  8
2-0
  6
CONTINUOUS
 62
     3
 10
25643.619139499991
 20
19826.93731200002
 30
0.0
 11
25643.619139499991
 21
19808.935570000001
 31
0.0
  0
LINE
  5
1C60
  8
2-0
  6
CONTINUOUS
 62
     3
 10
25668.6164995
 20
19826.93731200002
 30
0.0
 11
25643.619139499991
 21
19826.93731200002
 31
0.0
  0
LINE
  5
1C61
  8
2-0
  6
CONTINUOUS
 62
     3
 10
25668.6164995
 20
19821.929130000019
 30
0.0
 11
25668.6164995
 21
19826.93731200002
 31
0.0
  0
LINE
  5
1C62
  8
2-0
  6
CONTINUOUS
 62
     3
 10
25661.6149425
 20
19821.929130000019
 30
0.0
 11
25668.6164995
 21
19821.929130000019
 31
0.0
  0
LINE
  5
1C63
  8
2-0
  6
CONTINUOUS
 62
     3
 10
25561.318674499991
 20
19922.229357000011
 30
0.0
 11
25561.318674499991
 21
19929.234873000001
 31
0.0
  0
LINE
  5
1C64
  8
2-0
  6
CONTINUOUS
 62
     3
 10
25561.318674499991
 20
19929.234873000001
 30
0.0
 11
25566.318938499971
 21
19929.234873000001
 31
0.0
  0
LINE
  5
1C65
  8
2-0
  6
CONTINUOUS
 62
     3
 10
25566.318938499971
 20
19929.234873000001
 30
0.0
 11
25566.318938499971
 21
19904.22563600001
 31
0.0
  0
LINE
  5
1C66
  8
2-0
  6
CONTINUOUS
 62
     3
 10
25566.318938499971
 20
19904.22563600001
 30
0.0
 11
25548.317196499971
 21
19904.22563600001
 31
0.0
  0
LINE
  5
1C67
  8
2-0
  6
CONTINUOUS
 62
     3
 10
25548.317196499971
 20
19904.22563600001
 30
0.0
 11
25548.317196499971
 21
19934.229199000019
 31
0.0
  0
LINE
  5
1C68
  8
2-0
  6
CONTINUOUS
 62
     3
 10
25558.6146525
 20
19934.229199000019
 30
0.0
 11
25673.616763499991
 21
19934.229199000019
 31
0.0
  0
LINE
  5
1C69
  8
2-0
  6
CONTINUOUS
 62
     3
 10
25558.6146525
 20
19904.22563600001
 30
0.0
 11
25558.6146525
 21
19934.229199000019
 31
0.0
  0
LINE
  5
1C6A
  8
2-0
  6
CONTINUOUS
 62
     3
 10
25564.616552499981
 20
19904.22563600001
 30
0.0
 11
25558.6146525
 21
19904.22563600001
 31
0.0
  0
LINE
  5
1C6B
  8
2-0
  6
CONTINUOUS
 62
     3
 10
25661.6149425
 20
19468.632307499978
 30
0.0
 11
25668.6164995
 21
19468.632307499978
 31
0.0
  0
LINE
  5
1C6C
  8
2-0
  6
CONTINUOUS
 62
     3
 10
25668.6164995
 20
19468.632307499978
 30
0.0
 11
25668.6164995
 21
19473.632571499998
 31
0.0
  0
LINE
  5
1C6D
  8
2-0
  6
CONTINUOUS
 62
     3
 10
25668.6164995
 20
19473.632571499998
 30
0.0
 11
25643.619139499991
 21
19473.632571499998
 31
0.0
  0
LINE
  5
1C6E
  8
2-0
  6
CONTINUOUS
 62
     3
 10
25643.619139499991
 20
19473.632571499998
 30
0.0
 11
25643.619139499991
 21
19455.6367675
 31
0.0
  0
LINE
  5
1C6F
  8
2-0
  6
CONTINUOUS
 62
     3
 10
25643.619139499991
 20
19455.6367675
 30
0.0
 11
25673.616763499991
 21
19455.6367675
 31
0.0
  0
LINE
  5
1C70
  8
2-0
  6
CONTINUOUS
 62
     3
 10
25643.619139499991
 20
19471.728274499979
 30
0.0
 11
25643.619139499991
 21
19465.730333499989
 31
0.0
  0
LINE
  5
1C71
  8
2-0
  6
CONTINUOUS
 62
     3
 10
25643.619139499991
 20
19465.730333499989
 30
0.0
 11
25673.616763499991
 21
19465.730333499989
 31
0.0
  0
LINE
  5
1C72
  8
2-0
  6
CONTINUOUS
 62
     3
 10
25673.616763499991
 20
19465.730333499989
 30
0.0
 11
25673.616763499991
 21
19502.7314945
 31
0.0
  0
LINE
  5
1C73
  8
2-0
  6
CONTINUOUS
 62
     3
 10
25643.619139499991
 20
19502.7314945
 30
0.0
 11
25673.616763499991
 21
19502.7314945
 31
0.0
  0
LINE
  5
1C74
  8
2-0
  6
CONTINUOUS
 62
     3
 10
25643.619139499991
 20
19496.727614499981
 30
0.0
 11
25643.619139499991
 21
19502.7314945
 31
0.0
  0
LINE
  5
1C75
  8
2-0
  6
CONTINUOUS
 62
     3
 10
25643.619139499991
 20
19512.827039499982
 30
0.0
 11
25673.616763499991
 21
19512.827039499982
 31
0.0
  0
LINE
  5
1C76
  8
2-0
  6
CONTINUOUS
 62
     3
 10
25643.619139499991
 20
19494.8252975
 30
0.0
 11
25643.619139499991
 21
19512.827039499982
 31
0.0
  0
LINE
  5
1C77
  8
2-0
  6
CONTINUOUS
 62
     3
 10
25668.6164995
 20
19494.8252975
 30
0.0
 11
25643.619139499991
 21
19494.8252975
 31
0.0
  0
LINE
  5
1C78
  8
2-0
  6
CONTINUOUS
 62
     3
 10
25668.6164995
 20
19499.825561500002
 30
0.0
 11
25668.6164995
 21
19494.8252975
 31
0.0
  0
LINE
  5
1C79
  8
2-0
  6
CONTINUOUS
 62
     3
 10
25661.6149425
 20
19499.825561500002
 30
0.0
 11
25668.6164995
 21
19499.825561500002
 31
0.0
  0
LINE
  5
1C7A
  8
2-0
  6
CONTINUOUS
 62
     3
 10
25661.6149425
 20
18767.631318000011
 30
0.0
 11
25668.6164995
 21
18767.631318000011
 31
0.0
  0
LINE
  5
1C7B
  8
2-0
  6
CONTINUOUS
 62
     3
 10
25668.6164995
 20
18767.631318000011
 30
0.0
 11
25668.6164995
 21
18772.63752
 31
0.0
  0
LINE
  5
1C7C
  8
2-0
  6
CONTINUOUS
 62
     3
 10
25668.6164995
 20
18772.63752
 30
0.0
 11
25643.619139499991
 21
18772.63752
 31
0.0
  0
LINE
  5
1C7D
  8
2-0
  6
CONTINUOUS
 62
     3
 10
25643.619139499991
 20
18772.63752
 30
0.0
 11
25643.619139499991
 21
18754.635778000011
 31
0.0
  0
LINE
  5
1C7E
  8
2-0
  6
CONTINUOUS
 62
     3
 10
25643.619139499991
 20
18754.635778000011
 30
0.0
 11
25673.616763499991
 21
18754.635778000011
 31
0.0
  0
LINE
  5
1C7F
  8
2-0
  6
CONTINUOUS
 62
     3
 10
25643.619139499991
 20
18770.72728499999
 30
0.0
 11
25643.619139499991
 21
18764.731323
 31
0.0
  0
LINE
  5
1C80
  8
2-0
  6
CONTINUOUS
 62
     3
 10
25643.619139499991
 20
18764.731323
 30
0.0
 11
25673.616763499991
 21
18764.731323
 31
0.0
  0
LINE
  5
1C81
  8
2-0
  6
CONTINUOUS
 62
     3
 10
25673.616763499991
 20
18764.731323
 30
0.0
 11
25673.616763499991
 21
18801.730505
 31
0.0
  0
LINE
  5
1C82
  8
2-0
  6
CONTINUOUS
 62
     3
 10
25643.619139499991
 20
18801.730505
 30
0.0
 11
25673.616763499991
 21
18801.730505
 31
0.0
  0
LINE
  5
1C83
  8
2-0
  6
CONTINUOUS
 62
     3
 10
25643.619139499991
 20
18795.73454300001
 30
0.0
 11
25643.619139499991
 21
18801.730505
 31
0.0
  0
LINE
  5
1C84
  8
2-0
  6
CONTINUOUS
 62
     3
 10
25643.619139499991
 20
18811.82605
 30
0.0
 11
25673.616763499991
 21
18811.82605
 31
0.0
  0
LINE
  5
1C85
  8
2-0
  6
CONTINUOUS
 62
     3
 10
25643.619139499991
 20
18793.824307999999
 30
0.0
 11
25643.619139499991
 21
18811.82605
 31
0.0
  0
LINE
  5
1C86
  8
2-0
  6
CONTINUOUS
 62
     3
 10
25668.6164995
 20
18793.824307999999
 30
0.0
 11
25643.619139499991
 21
18793.824307999999
 31
0.0
  0
LINE
  5
1C87
  8
2-0
  6
CONTINUOUS
 62
     3
 10
25668.6164995
 20
18798.83051
 30
0.0
 11
25668.6164995
 21
18793.824307999999
 31
0.0
  0
LINE
  5
1C88
  8
2-0
  6
CONTINUOUS
 62
     3
 10
25661.6149425
 20
18798.83051
 30
0.0
 11
25668.6164995
 21
18798.83051
 31
0.0
  0
LINE
  5
1C89
  8
2-0
  6
CONTINUOUS
 62
     3
 10
25661.6149425
 20
18097.824572000001
 30
0.0
 11
25668.6164995
 21
18097.824572000001
 31
0.0
  0
LINE
  5
1C8A
  8
2-0
  6
CONTINUOUS
 62
     3
 10
25668.6164995
 20
18097.824572000001
 30
0.0
 11
25668.6164995
 21
18092.836185000011
 31
0.0
  0
LINE
  5
1C8B
  8
2-0
  6
CONTINUOUS
 62
     3
 10
25668.6164995
 20
18092.836185000011
 30
0.0
 11
25643.619139499991
 21
18092.836185000011
 31
0.0
  0
LINE
  5
1C8C
  8
2-0
  6
CONTINUOUS
 62
     3
 10
25643.619139499991
 20
18092.836185000011
 30
0.0
 11
25643.619139499991
 21
18110.831987999991
 31
0.0
  0
LINE
  5
1C8D
  8
2-0
  6
CONTINUOUS
 62
     3
 10
25643.619139499991
 20
18110.831987999991
 30
0.0
 11
25673.616763499991
 21
18110.831987999991
 31
0.0
  0
LINE
  5
1C8E
  8
2-0
  6
CONTINUOUS
 62
     3
 10
25643.619139499991
 20
18094.734542999999
 30
0.0
 11
25643.619139499991
 21
18100.730504999989
 31
0.0
  0
LINE
  5
1C8F
  8
2-0
  6
CONTINUOUS
 62
     3
 10
25643.619139499991
 20
18100.730504999989
 30
0.0
 11
25673.616763499991
 21
18100.730504999989
 31
0.0
  0
LINE
  5
1C90
  8
2-0
  6
CONTINUOUS
 62
     3
 10
25673.616763499991
 20
18100.730504999989
 30
0.0
 11
25673.616763499991
 21
18063.731323
 31
0.0
  0
LINE
  5
1C91
  8
2-0
  6
CONTINUOUS
 62
     3
 10
25643.619139499991
 20
18063.731323
 30
0.0
 11
25673.616763499991
 21
18063.731323
 31
0.0
  0
LINE
  5
1C92
  8
2-0
  6
CONTINUOUS
 62
     3
 10
25643.619139499991
 20
18069.733224
 30
0.0
 11
25643.619139499991
 21
18063.731323
 31
0.0
  0
LINE
  5
1C93
  8
2-0
  6
CONTINUOUS
 62
     3
 10
25643.619139499991
 20
18053.641716999991
 30
0.0
 11
25673.616763499991
 21
18053.641716999991
 31
0.0
  0
LINE
  5
1C94
  8
2-0
  6
CONTINUOUS
 62
     3
 10
25643.619139499991
 20
18071.63752
 30
0.0
 11
25643.619139499991
 21
18053.641716999991
 31
0.0
  0
LINE
  5
1C95
  8
2-0
  6
CONTINUOUS
 62
     3
 10
25668.6164995
 20
18071.63752
 30
0.0
 11
25643.619139499991
 21
18071.63752
 31
0.0
  0
LINE
  5
1C96
  8
2-0
  6
CONTINUOUS
 62
     3
 10
25668.6164995
 20
18066.637256999998
 30
0.0
 11
25668.6164995
 21
18071.63752
 31
0.0
  0
LINE
  5
1C97
  8
2-0
  6
CONTINUOUS
 62
     3
 10
25661.6149425
 20
18066.637256999998
 30
0.0
 11
25668.6164995
 21
18066.637256999998
 31
0.0
  0
LINE
  5
1C98
  8
2-0
  6
CONTINUOUS
 62
     3
 10
25670.7306255
 20
17346.728143
 30
0.0
 11
25670.7306255
 21
17366.72919799999
 31
0.0
  0
LINE
  5
1C99
  8
2-0
  6
CONTINUOUS
 62
     3
 10
25670.7306255
 20
17366.72919799999
 30
0.0
 11
25585.73405649999
 21
17366.72919799999
 31
0.0
  0
LINE
  5
1C9A
  8
2-0
  6
CONTINUOUS
 62
     3
 10
25661.6149425
 20
17393.335908000001
 30
0.0
 11
25668.6164995
 21
17393.335908000001
 31
0.0
  0
LINE
  5
1C9B
  8
2-0
  6
CONTINUOUS
 62
     3
 10
25668.6164995
 20
17393.335908000001
 30
0.0
 11
25668.6164995
 21
17388.341582000001
 31
0.0
  0
LINE
  5
1C9C
  8
2-0
  6
CONTINUOUS
 62
     3
 10
25668.6164995
 20
17388.341582000001
 30
0.0
 11
25643.619139499991
 21
17388.341582000001
 31
0.0
  0
LINE
  5
1C9D
  8
2-0
  6
CONTINUOUS
 62
     3
 10
25643.619139499991
 20
17388.341582000001
 30
0.0
 11
25643.619139499991
 21
17406.33738600001
 31
0.0
  0
LINE
  5
1C9E
  8
2-0
  6
CONTINUOUS
 62
     3
 10
25643.619139499991
 20
17406.33738600001
 30
0.0
 11
25673.616763499991
 21
17406.33738600001
 31
0.0
  0
LINE
  5
1C9F
  8
2-0
  6
CONTINUOUS
 62
     3
 10
25643.619139499991
 20
17396.728802000001
 30
0.0
 11
25643.619139499991
 21
17390.726901999999
 31
0.0
  0
LINE
  5
1CA0
  8
2-0
  6
CONTINUOUS
 62
     3
 10
25673.616763499991
 20
17396.728802000001
 30
0.0
 11
25643.619139499991
 21
17396.728802000001
 31
0.0
  0
LINE
  5
1CA1
  8
2-0
  6
CONTINUOUS
 62
     3
 10
25673.616763499991
 20
17406.33738600001
 30
0.0
 11
25673.616763499991
 21
18053.641716999991
 31
0.0
  0
LINE
  5
1CA2
  8
2-0
  6
CONTINUOUS
 62
     3
 10
25673.616763499991
 20
18110.831987999991
 30
0.0
 11
25673.616763499991
 21
18754.635778000011
 31
0.0
  0
LINE
  5
1CA3
  8
2-0
  6
CONTINUOUS
 62
     3
 10
25673.616763499991
 20
17251.72708700001
 30
0.0
 11
25643.619139499991
 21
17251.72708700001
 31
0.0
  0
LINE
  5
1CA4
  8
2-0
  6
CONTINUOUS
 62
     3
 10
25643.619139499991
 20
17251.72708700001
 30
0.0
 11
25643.619139499991
 21
17257.728986999999
 31
0.0
  0
LINE
  5
1CA5
  8
2-0
  6
CONTINUOUS
 62
     3
 10
25585.73405649999
 20
17281.732629999999
 30
0.0
 11
25670.7306255
 21
17281.732629999999
 31
0.0
  0
LINE
  5
1CA6
  8
2-0
  6
CONTINUOUS
 62
     3
 10
25670.7306255
 20
17281.732629999999
 30
0.0
 11
25670.7306255
 21
17301.727747000001
 31
0.0
  0
LINE
  5
1CA7
  8
2-0
  6
CONTINUOUS
 62
     3
 10
25643.619139499991
 20
17242.118504000009
 30
0.0
 11
25673.616763499991
 21
17242.118504000009
 31
0.0
  0
LINE
  5
1CA8
  8
2-0
  6
CONTINUOUS
 62
     3
 10
25643.619139499991
 20
17260.114306999982
 30
0.0
 11
25643.619139499991
 21
17242.118504000009
 31
0.0
  0
LINE
  5
1CA9
  8
2-0
  6
CONTINUOUS
 62
     3
 10
25668.6164995
 20
17260.114306999982
 30
0.0
 11
25643.619139499991
 21
17260.114306999982
 31
0.0
  0
LINE
  5
1CAA
  8
2-0
  6
CONTINUOUS
 62
     3
 10
25668.6164995
 20
17255.114043000009
 30
0.0
 11
25668.6164995
 21
17260.114306999982
 31
0.0
  0
LINE
  5
1CAB
  8
2-0
  6
CONTINUOUS
 62
     3
 10
25661.6149425
 20
17255.114043000009
 30
0.0
 11
25668.6164995
 21
17255.114043000009
 31
0.0
  0
LINE
  5
1CAC
  8
2-0
  6
CONTINUOUS
 62
     3
 10
25661.6149425
 20
16550.631812499989
 30
0.0
 11
25668.6164995
 21
16550.631812499989
 31
0.0
  0
LINE
  5
1CAD
  8
2-0
  6
CONTINUOUS
 62
     3
 10
25668.6164995
 20
16550.631812499989
 30
0.0
 11
25668.6164995
 21
16555.632076499991
 31
0.0
  0
LINE
  5
1CAE
  8
2-0
  6
CONTINUOUS
 62
     3
 10
25668.6164995
 20
16555.632076499991
 30
0.0
 11
25643.619139499991
 21
16555.632076499991
 31
0.0
  0
LINE
  5
1CAF
  8
2-0
  6
CONTINUOUS
 62
     3
 10
25643.619139499991
 20
16555.632076499991
 30
0.0
 11
25643.619139499991
 21
16537.630334499991
 31
0.0
  0
LINE
  5
1CB0
  8
2-0
  6
CONTINUOUS
 62
     3
 10
25643.619139499991
 20
16537.630334499991
 30
0.0
 11
25673.616763499991
 21
16537.630334499991
 31
0.0
  0
LINE
  5
1CB1
  8
2-0
  6
CONTINUOUS
 62
     3
 10
25643.619139499991
 20
16553.72777949999
 30
0.0
 11
25643.619139499991
 21
16547.7308285
 31
0.0
  0
LINE
  5
1CB2
  8
2-0
  6
CONTINUOUS
 62
     3
 10
25643.619139499991
 20
16547.7308285
 30
0.0
 11
25673.616763499991
 21
16547.7308285
 31
0.0
  0
LINE
  5
1CB3
  8
2-0
  6
CONTINUOUS
 62
     3
 10
25673.616763499991
 20
16547.7308285
 30
0.0
 11
25673.616763499991
 21
16584.7309995
 31
0.0
  0
LINE
  5
1CB4
  8
2-0
  6
CONTINUOUS
 62
     3
 10
25643.619139499991
 20
16584.7309995
 30
0.0
 11
25673.616763499991
 21
16584.7309995
 31
0.0
  0
LINE
  5
1CB5
  8
2-0
  6
CONTINUOUS
 62
     3
 10
25643.619139499991
 20
16578.7281095
 30
0.0
 11
25643.619139499991
 21
16584.7309995
 31
0.0
  0
LINE
  5
1CB6
  8
2-0
  6
CONTINUOUS
 62
     3
 10
25643.619139499991
 20
16594.8265445
 30
0.0
 11
25673.616763499991
 21
16594.8265445
 31
0.0
  0
LINE
  5
1CB7
  8
2-0
  6
CONTINUOUS
 62
     3
 10
25643.619139499991
 20
16576.818863500001
 30
0.0
 11
25643.619139499991
 21
16594.8265445
 31
0.0
  0
LINE
  5
1CB8
  8
2-0
  6
CONTINUOUS
 62
     3
 10
25668.6164995
 20
16576.818863500001
 30
0.0
 11
25643.619139499991
 21
16576.818863500001
 31
0.0
  0
LINE
  5
1CB9
  8
2-0
  6
CONTINUOUS
 62
     3
 10
25668.6164995
 20
16581.82506649999
 30
0.0
 11
25668.6164995
 21
16576.818863500001
 31
0.0
  0
LINE
  5
1CBA
  8
2-0
  6
CONTINUOUS
 62
     3
 10
25661.6149425
 20
16581.82506649999
 30
0.0
 11
25668.6164995
 21
16581.82506649999
 31
0.0
  0
LINE
  5
1CBB
  8
2-0
  6
CONTINUOUS
 62
     3
 10
25661.6149425
 20
15881.065083
 30
0.0
 11
25668.6164995
 21
15881.065083
 31
0.0
  0
LINE
  5
1CBC
  8
2-0
  6
CONTINUOUS
 62
     3
 10
25668.6164995
 20
15881.065083
 30
0.0
 11
25668.6164995
 21
15876.070758
 31
0.0
  0
LINE
  5
1CBD
  8
2-0
  6
CONTINUOUS
 62
     3
 10
25668.6164995
 20
15876.070758
 30
0.0
 11
25643.619139499991
 21
15876.070758
 31
0.0
  0
LINE
  5
1CBE
  8
2-0
  6
CONTINUOUS
 62
     3
 10
25643.619139499991
 20
15876.070758
 30
0.0
 11
25643.619139499991
 21
15894.06656100002
 31
0.0
  0
LINE
  5
1CBF
  8
2-0
  6
CONTINUOUS
 62
     3
 10
25643.619139499991
 20
15894.06656100002
 30
0.0
 11
25673.616763499991
 21
15894.06656100002
 31
0.0
  0
LINE
  5
1CC0
  8
2-0
  6
CONTINUOUS
 62
     3
 10
25643.619139499991
 20
15877.969116
 30
0.0
 11
25643.619139499991
 21
15883.97101600001
 31
0.0
  0
LINE
  5
1CC1
  8
2-0
  6
CONTINUOUS
 62
     3
 10
25643.619139499991
 20
15883.97101600001
 30
0.0
 11
25673.616763499991
 21
15883.97101600001
 31
0.0
  0
LINE
  5
1CC2
  8
2-0
  6
CONTINUOUS
 62
     3
 10
25673.616763499991
 20
15846.971835000009
 30
0.0
 11
25673.616763499991
 21
15883.97101600001
 31
0.0
  0
LINE
  5
1CC3
  8
2-0
  6
CONTINUOUS
 62
     3
 10
25643.619139499991
 20
15846.971835000009
 30
0.0
 11
25673.616763499991
 21
15846.971835000009
 31
0.0
  0
LINE
  5
1CC4
  8
2-0
  6
CONTINUOUS
 62
     3
 10
25643.619139499991
 20
15852.96878600001
 30
0.0
 11
25643.619139499991
 21
15846.971835000009
 31
0.0
  0
LINE
  5
1CC5
  8
2-0
  6
CONTINUOUS
 62
     3
 10
25643.619139499991
 20
15836.870351
 30
0.0
 11
25673.616763499991
 21
15836.870351
 31
0.0
  0
LINE
  5
1CC6
  8
2-0
  6
CONTINUOUS
 62
     3
 10
25643.619139499991
 20
15854.87803199999
 30
0.0
 11
25643.619139499991
 21
15836.870351
 31
0.0
  0
LINE
  5
1CC7
  8
2-0
  6
CONTINUOUS
 62
     3
 10
25668.6164995
 20
15854.87803199999
 30
0.0
 11
25643.619139499991
 21
15854.87803199999
 31
0.0
  0
LINE
  5
1CC8
  8
2-0
  6
CONTINUOUS
 62
     3
 10
25668.6164995
 20
15849.87776800002
 30
0.0
 11
25668.6164995
 21
15854.87803199999
 31
0.0
  0
LINE
  5
1CC9
  8
2-0
  6
CONTINUOUS
 62
     3
 10
25661.6149425
 20
15849.87776800002
 30
0.0
 11
25668.6164995
 21
15849.87776800002
 31
0.0
  0
LINE
  5
1CCA
  8
2-0
  6
CONTINUOUS
 62
     3
 10
25673.616763499991
 20
17242.118504000009
 30
0.0
 11
25673.616763499991
 21
16594.8265445
 31
0.0
  0
LINE
  5
1CCB
  8
2-0
  6
CONTINUOUS
 62
     3
 10
25673.616763499991
 20
17396.728802000001
 30
0.0
 11
25673.616763499991
 21
17251.72708700001
 31
0.0
  0
LINE
  5
1CCC
  8
2-0
  6
CONTINUOUS
 62
     3
 10
25585.73405649999
 20
17366.72919799999
 30
0.0
 11
25585.73405649999
 21
17281.732629999999
 31
0.0
  0
LINE
  5
1CCD
  8
2-0
  6
CONTINUOUS
 62
     6
 10
24047.525389499991
 20
19135.176463499982
 30
0.0
 11
25072.557721500001
 21
19135.176463499982
 31
0.0
  0
LINE
  5
1CCE
  8
2-0
  6
CONTINUOUS
 62
     3
 10
25661.6149425
 20
15148.636761
 30
0.0
 11
25668.6164995
 21
15148.636761
 31
0.0
  0
LINE
  5
1CCF
  8
2-0
  6
CONTINUOUS
 62
     3
 10
25668.6164995
 20
15148.636761
 30
0.0
 11
25668.6164995
 21
15153.631087
 31
0.0
  0
LINE
  5
1CD0
  8
2-0
  6
CONTINUOUS
 62
     3
 10
25668.6164995
 20
15153.631087
 30
0.0
 11
25643.619139499991
 21
15153.631087
 31
0.0
  0
LINE
  5
1CD1
  8
2-0
  6
CONTINUOUS
 62
     3
 10
25643.619139499991
 20
15153.631087
 30
0.0
 11
25643.619139499991
 21
15135.635283
 31
0.0
  0
LINE
  5
1CD2
  8
2-0
  6
CONTINUOUS
 62
     3
 10
25643.619139499991
 20
15135.635283
 30
0.0
 11
25673.616763499991
 21
15135.635283
 31
0.0
  0
LINE
  5
1CD3
  8
2-0
  6
CONTINUOUS
 62
     3
 10
25643.619139499991
 20
15151.73371800001
 30
0.0
 11
25643.619139499991
 21
15145.730828000011
 31
0.0
  0
LINE
  5
1CD4
  8
2-0
  6
CONTINUOUS
 62
     3
 10
25643.619139499991
 20
15145.730828000011
 30
0.0
 11
25673.616763499991
 21
15145.730828000011
 31
0.0
  0
LINE
  5
1CD5
  8
2-0
  6
CONTINUOUS
 62
     3
 10
25673.616763499991
 20
15145.730828000011
 30
0.0
 11
25673.616763499991
 21
15182.730999999991
 31
0.0
  0
LINE
  5
1CD6
  8
2-0
  6
CONTINUOUS
 62
     3
 10
25643.619139499991
 20
15182.730999999991
 30
0.0
 11
25673.616763499991
 21
15182.730999999991
 31
0.0
  0
LINE
  5
1CD7
  8
2-0
  6
CONTINUOUS
 62
     3
 10
25643.619139499991
 20
15176.734048
 30
0.0
 11
25643.619139499991
 21
15182.730999999991
 31
0.0
  0
LINE
  5
1CD8
  8
2-0
  6
CONTINUOUS
 62
     3
 10
25643.619139499991
 20
15192.831493000011
 30
0.0
 11
25673.616763499991
 21
15192.831493000011
 31
0.0
  0
LINE
  5
1CD9
  8
2-0
  6
CONTINUOUS
 62
     3
 10
25643.619139499991
 20
15174.82480200001
 30
0.0
 11
25643.619139499991
 21
15192.831493000011
 31
0.0
  0
LINE
  5
1CDA
  8
2-0
  6
CONTINUOUS
 62
     3
 10
25668.6164995
 20
15174.82480200001
 30
0.0
 11
25643.619139499991
 21
15174.82480200001
 31
0.0
  0
LINE
  5
1CDB
  8
2-0
  6
CONTINUOUS
 62
     3
 10
25668.6164995
 20
15179.83001500001
 30
0.0
 11
25668.6164995
 21
15174.82480200001
 31
0.0
  0
LINE
  5
1CDC
  8
2-0
  6
CONTINUOUS
 62
     3
 10
25661.6149425
 20
15179.83001500001
 30
0.0
 11
25668.6164995
 21
15179.83001500001
 31
0.0
  0
LINE
  5
1CDD
  8
2-0
  6
CONTINUOUS
 62
     3
 10
25643.619139499991
 20
14472.732840999999
 30
0.0
 11
25643.619139499991
 21
14478.737709999999
 31
0.0
  0
LINE
  5
1CDE
  8
2-0
  6
CONTINUOUS
 62
     3
 10
25643.619139499991
 20
14478.737709999999
 30
0.0
 11
25673.616763499991
 21
14478.737709999999
 31
0.0
  0
LINE
  5
1CDF
  8
2-0
  6
CONTINUOUS
 62
     3
 10
25673.616763499991
 20
14478.737709999999
 30
0.0
 11
25673.616763499991
 21
14363.733619000001
 31
0.0
  0
LINE
  5
1CE0
  8
2-0
  6
CONTINUOUS
 62
     3
 10
25673.616763499991
 20
14363.733619000001
 30
0.0
 11
25588.618215499991
 21
14363.733619000001
 31
0.0
  0
LINE
  5
1CE1
  8
2-0
  6
CONTINUOUS
 62
     3
 10
25588.618215499991
 20
14363.733619000001
 30
0.0
 11
25588.618215499991
 21
14448.72919799999
 31
0.0
  0
LINE
  5
1CE2
  8
2-0
  6
CONTINUOUS
 62
     3
 10
25588.618215499991
 20
14448.72919799999
 30
0.0
 11
25620.617133499982
 21
14448.72919799999
 31
0.0
  0
LINE
  5
1CE3
  8
2-0
  6
CONTINUOUS
 62
     3
 10
25661.6149425
 20
14475.767443000001
 30
0.0
 11
25668.6164995
 21
14475.767443000001
 31
0.0
  0
LINE
  5
1CE4
  8
2-0
  6
CONTINUOUS
 62
     3
 10
25668.6164995
 20
14475.767443000001
 30
0.0
 11
25668.6164995
 21
14470.77014799998
 31
0.0
  0
LINE
  5
1CE5
  8
2-0
  6
CONTINUOUS
 62
     3
 10
25668.6164995
 20
14470.77014799998
 30
0.0
 11
25643.619139499991
 21
14470.77014799998
 31
0.0
  0
LINE
  5
1CE6
  8
2-0
  6
CONTINUOUS
 62
     3
 10
25643.619139499991
 20
14470.77014799998
 30
0.0
 11
25643.619139499991
 21
14488.768921000001
 31
0.0
  0
LINE
  5
1CE7
  8
2-0
  6
CONTINUOUS
 62
     3
 10
25643.619139499991
 20
14488.768921000001
 30
0.0
 11
25673.616763499991
 21
14488.768921000001
 31
0.0
  0
LINE
  5
1CE8
  8
2-0
  6
CENTER2
 62
     6
 10
25631.11847949999
 20
14166.236060999991
 30
0.0
 11
25631.11847949999
 21
15322.10481900002
 31
0.0
  0
LINE
  5
1CE9
  8
2-0
  6
CONTINUOUS
 62
     3
 10
25673.616763499991
 20
18811.82605
 30
0.0
 11
25673.616763499991
 21
19455.6367675
 31
0.0
  0
LINE
  5
1CEA
  8
2-0
  6
CONTINUOUS
 62
     6
 10
26366.121646499982
 20
20664.232102000031
 30
0.0
 11
27566.115708499961
 21
20664.232102000031
 31
0.0
  0
LINE
  5
1CEB
  8
2-0
  6
CONTINUOUS
 62
     3
 10
22785.620327500001
 20
19934.229199000019
 30
0.0
 11
22785.620327500001
 21
19904.22563600001
 31
0.0
  0
LINE
  5
1CEC
  8
2-0
  6
CONTINUOUS
 62
     3
 10
22785.620327500001
 20
19904.22563600001
 30
0.0
 11
22779.622385499981
 21
19904.22563600001
 31
0.0
  0
LINE
  5
1CED
  8
2-0
  6
CONTINUOUS
 62
     3
 10
22795.236828500001
 20
19904.22563600001
 30
0.0
 11
22795.236828500001
 21
19934.229199000019
 31
0.0
  0
LINE
  5
1CEE
  8
2-0
  6
CONTINUOUS
 62
     3
 10
22777.235086499979
 20
19904.22563600001
 30
0.0
 11
22795.236828500001
 21
19904.22563600001
 31
0.0
  0
LINE
  5
1CEF
  8
2-0
  6
CONTINUOUS
 62
     3
 10
22777.235086499979
 20
19929.234873000001
 30
0.0
 11
22777.235086499979
 21
19904.22563600001
 31
0.0
  0
LINE
  5
1CF0
  8
2-0
  6
CONTINUOUS
 62
     3
 10
22782.235350499988
 20
19929.234873000001
 30
0.0
 11
22777.235086499979
 21
19929.234873000001
 31
0.0
  0
LINE
  5
1CF1
  8
2-0
  6
CONTINUOUS
 62
     3
 10
22782.235350499988
 20
19922.229357000011
 30
0.0
 11
22782.235350499988
 21
19929.234873000001
 31
0.0
  0
LINE
  5
1CF2
  8
2-0
  6
CONTINUOUS
 62
     3
 10
22755.61874350001
 20
19931.337122000001
 30
0.0
 11
22755.61874350001
 21
19846.338574000019
 31
0.0
  0
LINE
  5
1CF3
  8
2-0
  6
CONTINUOUS
 62
     3
 10
22735.621646499989
 20
19931.337122000001
 30
0.0
 11
22755.61874350001
 21
19931.337122000001
 31
0.0
  0
LINE
  5
1CF4
  8
2-0
  6
CONTINUOUS
 62
     3
 10
22644.007547500001
 20
19922.229357000011
 30
0.0
 11
22644.007547500001
 21
19929.234873000001
 31
0.0
  0
LINE
  5
1CF5
  8
2-0
  6
CONTINUOUS
 62
     3
 10
22644.007547500001
 20
19929.234873000001
 30
0.0
 11
22649.007811499981
 21
19929.234873000001
 31
0.0
  0
LINE
  5
1CF6
  8
2-0
  6
CONTINUOUS
 62
     3
 10
22649.007811499981
 20
19929.234873000001
 30
0.0
 11
22649.007811499981
 21
19904.22563600001
 31
0.0
  0
LINE
  5
1CF7
  8
2-0
  6
CONTINUOUS
 62
     3
 10
22649.007811499981
 20
19904.22563600001
 30
0.0
 11
22631.006069499988
 21
19904.22563600001
 31
0.0
  0
LINE
  5
1CF8
  8
2-0
  6
CONTINUOUS
 62
     3
 10
22631.006069499988
 20
19904.22563600001
 30
0.0
 11
22631.006069499988
 21
19934.229199000019
 31
0.0
  0
LINE
  5
1CF9
  8
2-0
  6
CONTINUOUS
 62
     3
 10
22670.626133499991
 20
19931.337122000001
 30
0.0
 11
22690.6212505
 21
19931.337122000001
 31
0.0
  0
LINE
  5
1CFA
  8
2-0
  6
CONTINUOUS
 62
     3
 10
22670.626133499991
 20
19846.338574000019
 30
0.0
 11
22670.626133499991
 21
19931.337122000001
 31
0.0
  0
LINE
  5
1CFB
  8
2-0
  6
CONTINUOUS
 62
     3
 10
22640.628509500009
 20
19904.22563600001
 30
0.0
 11
22646.624470499992
 21
19904.22563600001
 31
0.0
  0
LINE
  5
1CFC
  8
2-0
  6
CONTINUOUS
 62
     3
 10
22640.628509500009
 20
19934.229199000019
 30
0.0
 11
22640.628509500009
 21
19904.22563600001
 31
0.0
  0
LINE
  5
1CFD
  8
2-0
  6
CONTINUOUS
 62
     3
 10
22755.61874350001
 20
19846.338574000019
 30
0.0
 11
22670.626133499991
 21
19846.338574000019
 31
0.0
  0
LINE
  5
1CFE
  8
2-0
  6
CONTINUOUS
 62
     3
 10
22785.620327500001
 20
19934.229199000019
 30
0.0
 11
22640.628509500009
 21
19934.229199000019
 31
0.0
  0
LINE
  5
1CFF
  8
2-0
  6
CONTINUOUS
 62
     6
 10
25504.08881349998
 20
19377.330971499989
 30
0.0
 11
25072.557721500001
 21
19135.176463499982
 31
0.0
  0
LINE
  5
1D00
  8
2-0
  6
CONTINUOUS
 62
     6
 10
25825.657647499971
 20
20076.908939000019
 30
0.0
 11
26366.121646499982
 21
20664.232102000031
 31
0.0
  0
LINE
  5
1D01
  8
2-0
  6
CONTINUOUS
 62
     6
 10
22755.61874350001
 20
14448.72919799999
 30
0.0
 11
23032.208956499999
 21
14904.07389799999
 31
0.0
  0
LINE
  5
1D02
  8
2-0
  6
CONTINUOUS
 62
     6
 10
23032.208956499999
 20
14904.07389799999
 30
0.0
 11
24062.558275499989
 21
14904.07389799999
 31
0.0
  0
LINE
  5
1D03
  8
2-0
  6
CONTINUOUS
 62
     3
 10
25582.612356499991
 20
18740.72965999999
 30
0.0
 11
25629.618004499971
 21
18740.72965999999
 31
0.0
  0
LINE
  5
1D04
  8
2-0
  6
CONTINUOUS
 62
     3
 10
25629.618004499971
 20
18825.730188000001
 30
0.0
 11
25582.612356499991
 21
18825.730188000001
 31
0.0
  0
LINE
  5
1D05
  8
2-0
  6
CONTINUOUS
 62
     3
 10
25629.618004499971
 20
18740.72965999999
 30
0.0
 11
25629.618004499971
 21
18765.732959000001
 31
0.0
  0
LINE
  5
1D06
  8
2-0
  6
CONTINUOUS
 62
     3
 10
25629.618004499971
 20
18800.728867999998
 30
0.0
 11
25629.618004499971
 21
18825.730188000001
 31
0.0
  0
LINE
  5
1D07
  8
2-0
  6
CONTINUOUS
 62
     3
 10
25582.612356499991
 20
18825.730188000001
 30
0.0
 11
25582.612356499991
 21
18740.72965999999
 31
0.0
  0
LINE
  5
1D08
  8
2-0
  6
CONTINUOUS
 62
     3
 10
25673.616763499991
 20
16537.630334499991
 30
0.0
 11
25673.616763499991
 21
15894.06656100002
 31
0.0
  0
LINE
  5
1D09
  8
2-0
  6
CONTINUOUS
 62
     3
 10
25582.612356499991
 20
15822.73263
 30
0.0
 11
25629.618004499971
 21
15822.73263
 31
0.0
  0
LINE
  5
1D0A
  8
2-0
  6
CONTINUOUS
 62
     3
 10
25629.618004499971
 20
15907.72919799999
 30
0.0
 11
25582.612356499991
 21
15907.72919799999
 31
0.0
  0
LINE
  5
1D0B
  8
2-0
  6
CONTINUOUS
 62
     3
 10
25629.618004499971
 20
15822.73263
 30
0.0
 11
25629.618004499971
 21
15847.72801100001
 31
0.0
  0
LINE
  5
1D0C
  8
2-0
  6
CONTINUOUS
 62
     3
 10
25629.618004499971
 20
15882.727879
 30
0.0
 11
25629.618004499971
 21
15907.72919799999
 31
0.0
  0
LINE
  5
1D0D
  8
2-0
  6
CONTINUOUS
 62
     3
 10
25582.612356499991
 20
15907.72919799999
 30
0.0
 11
25582.612356499991
 21
15822.73263
 31
0.0
  0
LINE
  5
1D0E
  8
2-0
  6
CONTINUOUS
 62
     6
 10
22815.897063500001
 20
14599.32503299999
 30
0.0
 11
22755.61874350001
 21
14448.72919799999
 31
0.0
  0
LINE
  5
1D0F
  8
2-0
  6
CONTINUOUS
 62
     6
 10
22755.61874350001
 20
14448.72919799999
 30
0.0
 11
22861.477458499969
 21
14571.63750699999
 31
0.0
  0
LINE
  5
1D10
  8
2-0
  6
CONTINUOUS
 62
     6
 10
22815.897063500001
 20
14599.32503299999
 30
0.0
 11
22861.477458499969
 21
14571.63750699999
 31
0.0
  0
LINE
  5
1D11
  8
2-0
  6
CONTINUOUS
 62
     6
 10
22861.477458499969
 20
14571.63750699999
 30
0.0
 11
22755.61874350001
 21
14448.72919799999
 31
0.0
  0
LINE
  5
1D12
  8
2-0
  6
CONTINUOUS
 62
     6
 10
22755.61874350001
 20
14448.72919799999
 30
0.0
 11
22815.897063500001
 21
14599.32503299999
 31
0.0
  0
LINE
  5
1D13
  8
2-0
  6
CONTINUOUS
 62
     6
 10
22815.897063500001
 20
14599.32503299999
 30
0.0
 11
22755.61874350001
 21
14448.72919799999
 31
0.0
  0
LINE
  5
1D14
  8
2-0
  6
CONTINUOUS
 62
     6
 10
22861.477458499969
 20
14571.63750699999
 30
0.0
 11
22755.61874350001
 21
14448.72919799999
 31
0.0
  0
LINE
  5
1D15
  8
2-0
  6
CONTINUOUS
 62
     6
 10
22861.477458499969
 20
14571.63750699999
 30
0.0
 11
22815.897063500001
 21
14599.32503299999
 31
0.0
  0
LINE
  5
1D16
  8
2-0
  6
CONTINUOUS
 62
     6
 10
25491.03190849999
 20
19400.590315500001
 30
0.0
 11
25643.619139499991
 21
19455.6367675
 31
0.0
  0
LINE
  5
1D17
  8
2-0
  6
CONTINUOUS
 62
     6
 10
25643.619139499991
 20
19455.6367675
 30
0.0
 11
25517.1377995
 21
19354.07756749999
 31
0.0
  0
LINE
  5
1D18
  8
2-0
  6
CONTINUOUS
 62
     6
 10
25491.03190849999
 20
19400.590315500001
 30
0.0
 11
25517.1377995
 21
19354.07756749999
 31
0.0
  0
LINE
  5
1D19
  8
2-0
  6
CONTINUOUS
 62
     6
 10
25517.1377995
 20
19354.07756749999
 30
0.0
 11
25643.619139499991
 21
19455.6367675
 31
0.0
  0
LINE
  5
1D1A
  8
2-0
  6
CONTINUOUS
 62
     6
 10
25643.619139499991
 20
19455.6367675
 30
0.0
 11
25491.03190849999
 21
19400.590315500001
 31
0.0
  0
LINE
  5
1D1B
  8
2-0
  6
CONTINUOUS
 62
     6
 10
25491.03190849999
 20
19400.590315500001
 30
0.0
 11
25643.619139499991
 21
19455.6367675
 31
0.0
  0
LINE
  5
1D1C
  8
2-0
  6
CONTINUOUS
 62
     6
 10
25517.1377995
 20
19354.07756749999
 30
0.0
 11
25643.619139499991
 21
19455.6367675
 31
0.0
  0
LINE
  5
1D1D
  8
2-0
  6
CONTINUOUS
 62
     6
 10
25517.1377995
 20
19354.07756749999
 30
0.0
 11
25491.03190849999
 21
19400.590315500001
 31
0.0
  0
LINE
  5
1D1E
  8
2-0
  6
CONTINUOUS
 62
     6
 10
25845.27467649999
 20
20058.847812000022
 30
0.0
 11
25717.312656499991
 21
19959.165194000008
 31
0.0
  0
LINE
  5
1D1F
  8
2-0
  6
CONTINUOUS
 62
     6
 10
25717.312656499991
 20
19959.165194000008
 30
0.0
 11
25806.026761499979
 21
20094.962149000021
 31
0.0
  0
LINE
  5
1D20
  8
2-0
  6
CONTINUOUS
 62
     6
 10
25845.27467649999
 20
20058.847812000022
 30
0.0
 11
25806.026761499979
 21
20094.962149000021
 31
0.0
  0
LINE
  5
1D21
  8
2-0
  6
CONTINUOUS
 62
     6
 10
25806.026761499979
 20
20094.962149000021
 30
0.0
 11
25717.312656499991
 21
19959.165194000008
 31
0.0
  0
LINE
  5
1D22
  8
2-0
  6
CONTINUOUS
 62
     6
 10
25717.312656499991
 20
19959.165194000008
 30
0.0
 11
25845.27467649999
 21
20058.847812000022
 31
0.0
  0
LINE
  5
1D23
  8
2-0
  6
CONTINUOUS
 62
     6
 10
25845.27467649999
 20
20058.847812000022
 30
0.0
 11
25717.312656499991
 21
19959.165194000008
 31
0.0
  0
LINE
  5
1D24
  8
2-0
  6
CONTINUOUS
 62
     6
 10
25806.026761499979
 20
20094.962149000021
 30
0.0
 11
25717.312656499991
 21
19959.165194000008
 31
0.0
  0
LINE
  5
1D25
  8
2-0
  6
CONTINUOUS
 62
     6
 10
25806.026761499979
 20
20094.962149000021
 30
0.0
 11
25845.27467649999
 21
20058.847812000022
 31
0.0
  0
LINE
  5
1D26
  8
2-0
  6
CONTINUOUS
 62
     6
 10
21337.054158499999
 20
19686.45681700002
 30
0.0
 11
21468.98709150001
 21
19217.110982000009
 31
0.0
  0
LINE
  5
1D27
  8
2-0
  6
CONTINUOUS
 62
     6
 10
21468.98709150001
 20
19217.110982000009
 30
0.0
 11
22494.025362499979
 21
19217.110982000009
 31
0.0
  0
LINE
  5
1D28
  8
2-0
  6
CONTINUOUS
 62
     6
 10
21293.760107500009
 20
19840.485137000011
 30
0.0
 11
21311.3817815
 21
19679.239492000019
 31
0.0
  0
LINE
  5
1D29
  8
2-0
  6
CONTINUOUS
 62
     6
 10
21362.726534500009
 20
19693.67810100002
 30
0.0
 11
21311.3817815
 21
19679.239492000019
 31
0.0
  0
LINE
  5
1D2A
  8
2-0
  6
CONTINUOUS
 62
     6
 10
21311.3817815
 20
19679.239492000019
 30
0.0
 11
21293.760107500009
 21
19840.485137000011
 31
0.0
  0
LINE
  5
1D2B
  8
2-0
  6
CONTINUOUS
 62
     6
 10
21293.760107500009
 20
19840.485137000011
 30
0.0
 11
21362.726534500009
 21
19693.67810100002
 31
0.0
  0
LINE
  5
1D2C
  8
2-0
  6
CONTINUOUS
 62
     6
 10
21362.726534500009
 20
19693.67810100002
 30
0.0
 11
21293.760107500009
 21
19840.485137000011
 31
0.0
  0
LINE
  5
1D2D
  8
2-0
  6
CONTINUOUS
 62
     6
 10
21311.3817815
 20
19679.239492000019
 30
0.0
 11
21293.760107500009
 21
19840.485137000011
 31
0.0
  0
LINE
  5
1D2E
  8
2-0
  6
CONTINUOUS
 62
     6
 10
21311.3817815
 20
19679.239492000019
 30
0.0
 11
21362.726534500009
 21
19693.67810100002
 31
0.0
  0
LINE
  5
1D2F
  8
2-0
  6
CONTINUOUS
 62
     6
 10
22754.541885499992
 20
19815.47787900002
 30
0.0
 11
22903.411580499989
 21
19285.855703000001
 31
0.0
  0
LINE
  5
1D30
  8
2-0
  6
CONTINUOUS
 62
     6
 10
22903.411580499989
 20
19285.855703000001
 30
0.0
 11
23928.4557895
 21
19285.855703000001
 31
0.0
  0
LINE
  5
1D31
  8
2-0
  6
CONTINUOUS
 62
     6
 10
22772.16553949998
 20
19654.23223400001
 30
0.0
 11
22823.516230500009
 21
19668.66688400002
 31
0.0
  0
LINE
  5
1D32
  8
2-0
  6
CONTINUOUS
 62
     6
 10
22823.516230500009
 20
19668.66688400002
 30
0.0
 11
22772.16553949998
 21
19654.23223400001
 31
0.0
  0
LINE
  5
1D33
  8
2-0
  6
CONTINUOUS
 62
     6
 10
22772.16553949998
 20
19654.23223400001
 30
0.0
 11
22754.541885499992
 21
19815.47787900002
 31
0.0
  0
LINE
  5
1D34
  8
2-0
  6
CONTINUOUS
 62
     6
 10
22754.541885499992
 20
19815.47787900002
 30
0.0
 11
22823.516230500009
 21
19668.66688400002
 31
0.0
  0
LINE
  5
1D35
  8
2-0
  6
CONTINUOUS
 62
     6
 10
22823.516230500009
 20
19668.66688400002
 30
0.0
 11
22754.541885499992
 21
19815.47787900002
 31
0.0
  0
LINE
  5
1D36
  8
2-0
  6
CONTINUOUS
 62
     6
 10
22772.16553949998
 20
19654.23223400001
 30
0.0
 11
22754.541885499992
 21
19815.47787900002
 31
0.0
  0
LINE
  5
1D37
  8
2-0
  6
CONTINUOUS
 62
     6
 10
22823.516230500009
 20
19668.66688400002
 30
0.0
 11
22754.541885499992
 21
19815.47787900002
 31
0.0
  0
LINE
  5
1D38
  8
2-0
  6
CONTINUOUS
 62
     6
 10
22754.541885499992
 20
19815.47787900002
 30
0.0
 11
22772.16553949998
 21
19654.23223400001
 31
0.0
  0
LINE
  5
1D39
  8
2-0
  6
CONTINUOUS
 62
     4
 10
22713.118479499979
 20
20014.231442000018
 30
0.0
 11
22713.118479499979
 21
20744.228406999999
 31
0.0
  0
LINE
  5
1D3A
  8
2-0
  6
CONTINUOUS
 62
     6
 10
25427.293389499981
 20
15776.225820000011
 30
0.0
 11
25582.612356499991
 21
15822.973141
 31
0.0
  0
LINE
  5
1D3B
  8
2-0
  6
CONTINUOUS
 62
     6
 10
25582.612356499991
 20
15822.973141
 30
0.0
 11
25450.851640499968
 21
15728.380856000011
 31
0.0
  0
LINE
  5
1D3C
  8
2-0
  6
CONTINUOUS
 62
     6
 10
25427.293389499981
 20
15776.225820000011
 30
0.0
 11
25450.851640499968
 21
15728.380856000011
 31
0.0
  0
LINE
  5
1D3D
  8
2-0
  6
CONTINUOUS
 62
     6
 10
25450.851640499968
 20
15728.380856000011
 30
0.0
 11
25582.612356499991
 21
15822.973141
 31
0.0
  0
LINE
  5
1D3E
  8
2-0
  6
CONTINUOUS
 62
     6
 10
25582.612356499991
 20
15822.973141
 30
0.0
 11
25427.293389499981
 21
15776.225820000011
 31
0.0
  0
LINE
  5
1D3F
  8
2-0
  6
CONTINUOUS
 62
     6
 10
25427.293389499981
 20
15776.225820000011
 30
0.0
 11
25582.612356499991
 21
15822.973141
 31
0.0
  0
LINE
  5
1D40
  8
2-0
  6
CONTINUOUS
 62
     6
 10
25450.851640499968
 20
15728.380856000011
 30
0.0
 11
25582.612356499991
 21
15822.973141
 31
0.0
  0
LINE
  5
1D41
  8
2-0
  6
CONTINUOUS
 62
     6
 10
25450.851640499968
 20
15728.380856000011
 30
0.0
 11
25427.293389499981
 21
15776.225820000011
 31
0.0
  0
LINE
  5
1D42
  8
2-0
  6
CONTINUOUS
 62
     6
 10
25396.979042499988
 20
14255.46088099999
 30
0.0
 11
25528.725901499991
 21
14350.087808
 31
0.0
  0
LINE
  5
1D43
  8
2-0
  6
CONTINUOUS
 62
     6
 10
25528.725901499991
 20
14350.087808
 30
0.0
 11
25434.795765499988
 21
14217.849037999989
 31
0.0
  0
LINE
  5
1D44
  8
2-0
  6
CONTINUOUS
 62
     6
 10
25396.979042499988
 20
14255.46088099999
 30
0.0
 11
25434.795765499988
 21
14217.849037999989
 31
0.0
  0
LINE
  5
1D45
  8
2-0
  6
CONTINUOUS
 62
     6
 10
25434.795765499988
 20
14217.849037999989
 30
0.0
 11
25528.725901499991
 21
14350.087808
 31
0.0
  0
LINE
  5
1D46
  8
2-0
  6
CONTINUOUS
 62
     6
 10
25528.725901499991
 20
14350.087808
 30
0.0
 11
25396.979042499988
 21
14255.46088099999
 31
0.0
  0
LINE
  5
1D47
  8
2-0
  6
CONTINUOUS
 62
     6
 10
25396.979042499988
 20
14255.46088099999
 30
0.0
 11
25528.725901499991
 21
14350.087808
 31
0.0
  0
LINE
  5
1D48
  8
2-0
  6
CONTINUOUS
 62
     6
 10
25434.795765499988
 20
14217.849037999989
 30
0.0
 11
25528.725901499991
 21
14350.087808
 31
0.0
  0
LINE
  5
1D49
  8
2-0
  6
CONTINUOUS
 62
     6
 10
25434.795765499988
 20
14217.849037999989
 30
0.0
 11
25396.979042499988
 21
14255.46088099999
 31
0.0
  0
LINE
  5
1D4A
  8
2-0
  6
CONTINUOUS
 62
     6
 10
25460.01483149999
 20
14582.365507999981
 30
0.0
 11
25592.614863499992
 21
14488.937179999981
 31
0.0
  0
LINE
  5
1D4B
  8
2-0
  6
CONTINUOUS
 62
     6
 10
25592.614863499992
 20
14488.937179999981
 30
0.0
 11
25436.882177499981
 21
14534.312694
 31
0.0
  0
LINE
  5
1D4C
  8
2-0
  6
CONTINUOUS
 62
     6
 10
25460.01483149999
 20
14582.365507999981
 30
0.0
 11
25436.882177499981
 21
14534.312694
 31
0.0
  0
LINE
  5
1D4D
  8
2-0
  6
CONTINUOUS
 62
     6
 10
25436.882177499981
 20
14534.312694
 30
0.0
 11
25592.614863499992
 21
14488.937179999981
 31
0.0
  0
LINE
  5
1D4E
  8
2-0
  6
CONTINUOUS
 62
     6
 10
25592.614863499992
 20
14488.937179999981
 30
0.0
 11
25460.01483149999
 21
14582.365507999981
 31
0.0
  0
LINE
  5
1D4F
  8
2-0
  6
CONTINUOUS
 62
     6
 10
25460.01483149999
 20
14582.365507999981
 30
0.0
 11
25592.614863499992
 21
14488.937179999981
 31
0.0
  0
LINE
  5
1D50
  8
2-0
  6
CONTINUOUS
 62
     6
 10
25436.882177499981
 20
14534.312694
 30
0.0
 11
25592.614863499992
 21
14488.937179999981
 31
0.0
  0
LINE
  5
1D51
  8
2-0
  6
CONTINUOUS
 62
     6
 10
25436.882177499981
 20
14534.312694
 30
0.0
 11
25460.01483149999
 21
14582.365507999981
 31
0.0
  0
LINE
  5
1D52
  8
2-0
  6
CONTINUOUS
 62
     6
 10
25519.778477499989
 20
16962.186441000009
 30
0.0
 11
25673.616763499991
 21
17013.620272000011
 31
0.0
  0
LINE
  5
1D53
  8
2-0
  6
CONTINUOUS
 62
     6
 10
25673.616763499991
 20
17013.620272000011
 30
0.0
 11
25544.781776499989
 21
16915.079837000008
 31
0.0
  0
LINE
  5
1D54
  8
2-0
  6
CONTINUOUS
 62
     6
 10
25519.778477499989
 20
16962.186441000009
 30
0.0
 11
25544.781776499989
 21
16915.079837000008
 31
0.0
  0
LINE
  5
1D55
  8
2-0
  6
CONTINUOUS
 62
     6
 10
25544.781776499989
 20
16915.079837000008
 30
0.0
 11
25673.616763499991
 21
17013.620272000011
 31
0.0
  0
LINE
  5
1D56
  8
2-0
  6
CONTINUOUS
 62
     6
 10
25673.616763499991
 20
17013.620272000011
 30
0.0
 11
25519.778477499989
 21
16962.186441000009
 31
0.0
  0
LINE
  5
1D57
  8
2-0
  6
CONTINUOUS
 62
     6
 10
25519.778477499989
 20
16962.186441000009
 30
0.0
 11
25673.616763499991
 21
17013.620272000011
 31
0.0
  0
LINE
  5
1D58
  8
2-0
  6
CONTINUOUS
 62
     6
 10
25544.781776499989
 20
16915.079837000008
 30
0.0
 11
25673.616763499991
 21
17013.620272000011
 31
0.0
  0
LINE
  5
1D59
  8
2-0
  6
CONTINUOUS
 62
     6
 10
25544.781776499989
 20
16915.079837000008
 30
0.0
 11
25519.778477499989
 21
16962.186441000009
 31
0.0
  0
LINE
  5
1D5A
  8
2-0
  6
CONTINUOUS
 62
     6
 10
25385.842270499979
 20
17453.504933000011
 30
0.0
 11
25528.725901499991
 21
17376.729304000011
 31
0.0
  0
LINE
  5
1D5B
  8
2-0
  6
CONTINUOUS
 62
     6
 10
25528.725901499991
 20
17376.729304000011
 30
0.0
 11
25368.664008499982
 21
17403.011373000008
 31
0.0
  0
LINE
  5
1D5C
  8
2-0
  6
CONTINUOUS
 62
     6
 10
25385.842270499979
 20
17453.504933000011
 30
0.0
 11
25368.664008499982
 21
17403.011373000008
 31
0.0
  0
LINE
  5
1D5D
  8
2-0
  6
CONTINUOUS
 62
     6
 10
25368.664008499982
 20
17403.011373000008
 30
0.0
 11
25528.725901499991
 21
17376.729304000011
 31
0.0
  0
LINE
  5
1D5E
  8
2-0
  6
CONTINUOUS
 62
     6
 10
25528.725901499991
 20
17376.729304000011
 30
0.0
 11
25385.842270499979
 21
17453.504933000011
 31
0.0
  0
LINE
  5
1D5F
  8
2-0
  6
CONTINUOUS
 62
     6
 10
25385.842270499979
 20
17453.504933000011
 30
0.0
 11
25528.725901499991
 21
17376.729304000011
 31
0.0
  0
LINE
  5
1D60
  8
2-0
  6
CONTINUOUS
 62
     6
 10
25368.664008499982
 20
17403.011373000008
 30
0.0
 11
25528.725901499991
 21
17376.729304000011
 31
0.0
  0
LINE
  5
1D61
  8
2-0
  6
CONTINUOUS
 62
     6
 10
25368.664008499982
 20
17403.011373000008
 30
0.0
 11
25385.842270499979
 21
17453.504933000011
 31
0.0
  0
LINE
  5
1D62
  8
2-0
  6
CONTINUOUS
 62
     6
 10
25427.293389499981
 20
18693.985307999999
 30
0.0
 11
25582.612356499991
 21
18740.72965999999
 31
0.0
  0
LINE
  5
1D63
  8
2-0
  6
CONTINUOUS
 62
     6
 10
25582.612356499991
 20
18740.72965999999
 30
0.0
 11
25450.851640499968
 21
18646.134406000008
 31
0.0
  0
LINE
  5
1D64
  8
2-0
  6
CONTINUOUS
 62
     6
 10
25427.293389499981
 20
18693.985307999999
 30
0.0
 11
25450.851640499968
 21
18646.134406000008
 31
0.0
  0
LINE
  5
1D65
  8
2-0
  6
CONTINUOUS
 62
     6
 10
25450.851640499968
 20
18646.134406000008
 30
0.0
 11
25582.612356499991
 21
18740.72965999999
 31
0.0
  0
LINE
  5
1D66
  8
2-0
  6
CONTINUOUS
 62
     6
 10
25582.612356499991
 20
18740.72965999999
 30
0.0
 11
25427.293389499981
 21
18693.985307999999
 31
0.0
  0
LINE
  5
1D67
  8
2-0
  6
CONTINUOUS
 62
     6
 10
25427.293389499981
 20
18693.985307999999
 30
0.0
 11
25582.612356499991
 21
18740.72965999999
 31
0.0
  0
LINE
  5
1D68
  8
2-0
  6
CONTINUOUS
 62
     6
 10
25450.851640499968
 20
18646.134406000008
 30
0.0
 11
25582.612356499991
 21
18740.72965999999
 31
0.0
  0
LINE
  5
1D69
  8
2-0
  6
CONTINUOUS
 62
     6
 10
25450.851640499968
 20
18646.134406000008
 30
0.0
 11
25427.293389499981
 21
18693.985307999999
 31
0.0
  0
LINE
  5
1D6A
  8
2-0
  6
CONTINUOUS
 62
     3
 10
21973.619060499979
 20
19934.229199000019
 30
0.0
 11
21936.61789849999
 21
19934.229199000019
 31
0.0
  0
LINE
  5
1D6B
  8
2-0
  6
CONTINUOUS
 62
     3
 10
21973.619060499979
 20
19904.22563600001
 30
0.0
 11
21973.619060499979
 21
19934.229199000019
 31
0.0
  0
LINE
  5
1D6C
  8
2-0
  6
CONTINUOUS
 62
     3
 10
21967.619139499981
 20
19904.22563600001
 30
0.0
 11
21973.619060499979
 21
19904.22563600001
 31
0.0
  0
LINE
  5
1D6D
  8
2-0
  6
CONTINUOUS
 62
     3
 10
21983.716584499991
 20
19904.22563600001
 30
0.0
 11
21983.716584499991
 21
19934.229199000019
 31
0.0
  0
LINE
  5
1D6E
  8
2-0
  6
CONTINUOUS
 62
     3
 10
21965.712863499979
 20
19904.22563600001
 30
0.0
 11
21983.716584499991
 21
19904.22563600001
 31
0.0
  0
LINE
  5
1D6F
  8
2-0
  6
CONTINUOUS
 62
     3
 10
21965.712863499979
 20
19929.234873000001
 30
0.0
 11
21965.712863499979
 21
19904.22563600001
 31
0.0
  0
LINE
  5
1D70
  8
2-0
  6
CONTINUOUS
 62
     3
 10
21970.713127499988
 20
19929.234873000001
 30
0.0
 11
21965.712863499979
 21
19929.234873000001
 31
0.0
  0
LINE
  5
1D71
  8
2-0
  6
CONTINUOUS
 62
     3
 10
21970.713127499988
 20
19922.229357000011
 30
0.0
 11
21970.713127499988
 21
19929.234873000001
 31
0.0
  0
LINE
  5
1D72
  8
2-0
  6
CONTINUOUS
 62
     3
 10
21939.523832499981
 20
19922.229357000011
 30
0.0
 11
21939.523832499981
 21
19929.234873000001
 31
0.0
  0
LINE
  5
1D73
  8
2-0
  6
CONTINUOUS
 62
     3
 10
21939.523832499981
 20
19929.234873000001
 30
0.0
 11
21944.52409649999
 21
19929.234873000001
 31
0.0
  0
LINE
  5
1D74
  8
2-0
  6
CONTINUOUS
 62
     3
 10
21944.52409649999
 20
19929.234873000001
 30
0.0
 11
21944.52409649999
 21
19904.22563600001
 31
0.0
  0
LINE
  5
1D75
  8
2-0
  6
CONTINUOUS
 62
     3
 10
21944.52409649999
 20
19904.22563600001
 30
0.0
 11
21926.52433349999
 21
19904.22563600001
 31
0.0
  0
LINE
  5
1D76
  8
2-0
  6
CONTINUOUS
 62
     3
 10
21926.52433349999
 20
19904.22563600001
 30
0.0
 11
21926.52433349999
 21
19934.229199000019
 31
0.0
  0
LINE
  5
1D77
  8
2-0
  6
CONTINUOUS
 62
     3
 10
21942.617819499988
 20
19904.22563600001
 30
0.0
 11
21936.61789849999
 21
19904.22563600001
 31
0.0
  0
LINE
  5
1D78
  8
2-0
  6
CONTINUOUS
 62
     3
 10
21936.61789849999
 20
19904.22563600001
 30
0.0
 11
21936.61789849999
 21
19934.229199000019
 31
0.0
  0
LINE
  5
1D79
  8
2-0
  6
CONTINUOUS
 62
     3
 10
19782.6197995
 20
19825.228987999999
 30
0.0
 11
19782.6197995
 21
19819.23302600002
 31
0.0
  0
LINE
  5
1D7A
  8
2-0
  6
CONTINUOUS
 62
     3
 10
19782.6197995
 20
19819.23302600002
 30
0.0
 11
19752.622174499989
 21
19819.23302600002
 31
0.0
  0
LINE
  5
1D7B
  8
2-0
  6
CONTINUOUS
 62
     3
 10
19752.622174499989
 20
19819.23302600002
 30
0.0
 11
19752.622174499989
 21
19934.229199000019
 31
0.0
  0
LINE
  5
1D7C
  8
2-0
  6
CONTINUOUS
 62
     3
 10
19752.622174499989
 20
19849.23263000001
 30
0.0
 11
19833.620115499991
 21
19849.23263000001
 31
0.0
  0
LINE
  5
1D7D
  8
2-0
  6
CONTINUOUS
 62
     3
 10
19782.6197995
 20
19808.935570000001
 30
0.0
 11
19752.622174499989
 21
19808.935570000001
 31
0.0
  0
LINE
  5
1D7E
  8
2-0
  6
CONTINUOUS
 62
     3
 10
19782.6197995
 20
19826.93731200002
 30
0.0
 11
19782.6197995
 21
19808.935570000001
 31
0.0
  0
LINE
  5
1D7F
  8
2-0
  6
CONTINUOUS
 62
     3
 10
19757.626397499989
 20
19826.93731200002
 30
0.0
 11
19782.6197995
 21
19826.93731200002
 31
0.0
  0
LINE
  5
1D80
  8
2-0
  6
CONTINUOUS
 62
     3
 10
19757.626397499989
 20
19821.929130000019
 30
0.0
 11
19757.626397499989
 21
19826.93731200002
 31
0.0
  0
LINE
  5
1D81
  8
2-0
  6
CONTINUOUS
 62
     3
 10
19764.623995499969
 20
19821.929130000019
 30
0.0
 11
19757.626397499989
 21
19821.929130000019
 31
0.0
  0
LINE
  5
1D82
  8
2-0
  6
CONTINUOUS
 62
     3
 10
19864.918284499981
 20
19922.229357000011
 30
0.0
 11
19864.918284499981
 21
19929.234873000001
 31
0.0
  0
LINE
  5
1D83
  8
2-0
  6
CONTINUOUS
 62
     3
 10
19864.918284499981
 20
19929.234873000001
 30
0.0
 11
19859.916040499978
 21
19929.234873000001
 31
0.0
  0
LINE
  5
1D84
  8
2-0
  6
CONTINUOUS
 62
     3
 10
19859.916040499978
 20
19929.234873000001
 30
0.0
 11
19859.916040499978
 21
19904.22563600001
 31
0.0
  0
LINE
  5
1D85
  8
2-0
  6
CONTINUOUS
 62
     3
 10
19859.916040499978
 20
19904.22563600001
 30
0.0
 11
19877.923721499981
 21
19904.22563600001
 31
0.0
  0
LINE
  5
1D86
  8
2-0
  6
CONTINUOUS
 62
     3
 10
19877.923721499981
 20
19904.22563600001
 30
0.0
 11
19877.923721499981
 21
19934.229199000019
 31
0.0
  0
LINE
  5
1D87
  8
2-0
  6
CONTINUOUS
 62
     3
 10
19867.624285499991
 20
19934.229199000019
 30
0.0
 11
19752.622174499989
 21
19934.229199000019
 31
0.0
  0
LINE
  5
1D88
  8
2-0
  6
CONTINUOUS
 62
     3
 10
19867.624285499991
 20
19904.22563600001
 30
0.0
 11
19867.624285499991
 21
19934.229199000019
 31
0.0
  0
LINE
  5
1D89
  8
2-0
  6
CONTINUOUS
 62
     3
 10
19861.620406499991
 20
19904.22563600001
 30
0.0
 11
19867.624285499991
 21
19904.22563600001
 31
0.0
  0
LINE
  5
1D8A
  8
2-0
  6
CONTINUOUS
 62
     3
 10
20568.70817799999
 20
19922.229357000011
 30
0.0
 11
20568.70817799999
 21
19929.234873000001
 31
0.0
  0
LINE
  5
1D8B
  8
2-0
  6
CONTINUOUS
 62
     3
 10
20568.70817799999
 20
19929.234873000001
 30
0.0
 11
20563.707913999991
 21
19929.234873000001
 31
0.0
  0
LINE
  5
1D8C
  8
2-0
  6
CONTINUOUS
 62
     3
 10
20563.707913999991
 20
19929.234873000001
 30
0.0
 11
20563.707913999991
 21
19904.22563600001
 31
0.0
  0
LINE
  5
1D8D
  8
2-0
  6
CONTINUOUS
 62
     3
 10
20563.707913999991
 20
19904.22563600001
 30
0.0
 11
20581.71361499999
 21
19904.22563600001
 31
0.0
  0
LINE
  5
1D8E
  8
2-0
  6
CONTINUOUS
 62
     3
 10
20581.71361499999
 20
19904.22563600001
 30
0.0
 11
20581.71361499999
 21
19934.229199000019
 31
0.0
  0
LINE
  5
1D8F
  8
2-0
  6
CONTINUOUS
 62
     3
 10
20565.616169999979
 20
19904.22563600001
 30
0.0
 11
20571.61806999999
 21
19904.22563600001
 31
0.0
  0
LINE
  5
1D90
  8
2-0
  6
CONTINUOUS
 62
     3
 10
20571.61806999999
 20
19904.22563600001
 30
0.0
 11
20571.61806999999
 21
19934.229199000019
 31
0.0
  0
LINE
  5
1D91
  8
2-0
  6
CONTINUOUS
 62
     3
 10
20534.618888999979
 20
19934.229199000019
 30
0.0
 11
20571.61806999999
 21
19934.229199000019
 31
0.0
  0
LINE
  5
1D92
  8
2-0
  6
CONTINUOUS
 62
     3
 10
20534.618888999979
 20
19904.22563600001
 30
0.0
 11
20534.618888999979
 21
19934.229199000019
 31
0.0
  0
LINE
  5
1D93
  8
2-0
  6
CONTINUOUS
 62
     3
 10
20540.61287099999
 20
19904.22563600001
 30
0.0
 11
20534.618888999979
 21
19904.22563600001
 31
0.0
  0
LINE
  5
1D94
  8
2-0
  6
CONTINUOUS
 62
     3
 10
20524.523343999979
 20
19904.22563600001
 30
0.0
 11
20524.523343999979
 21
19934.229199000019
 31
0.0
  0
LINE
  5
1D95
  8
2-0
  6
CONTINUOUS
 62
     3
 10
20542.519146999992
 20
19904.22563600001
 30
0.0
 11
20524.523343999979
 21
19904.22563600001
 31
0.0
  0
LINE
  5
1D96
  8
2-0
  6
CONTINUOUS
 62
     3
 10
20542.519146999992
 20
19929.234873000001
 30
0.0
 11
20542.519146999992
 21
19904.22563600001
 31
0.0
  0
LINE
  5
1D97
  8
2-0
  6
CONTINUOUS
 62
     3
 10
20537.518882999979
 20
19929.234873000001
 30
0.0
 11
20542.519146999992
 21
19929.234873000001
 31
0.0
  0
LINE
  5
1D98
  8
2-0
  6
CONTINUOUS
 62
     3
 10
20537.518882999979
 20
19922.229357000011
 30
0.0
 11
20537.518882999979
 21
19929.234873000001
 31
0.0
  0
LINE
  5
1D99
  8
2-0
  6
CONTINUOUS
 62
     3
 10
21238.517893999979
 20
19922.229357000011
 30
0.0
 11
21238.517893999979
 21
19929.234873000001
 31
0.0
  0
LINE
  5
1D9A
  8
2-0
  6
CONTINUOUS
 62
     3
 10
21238.517893999979
 20
19929.234873000001
 30
0.0
 11
21243.518156999991
 21
19929.234873000001
 31
0.0
  0
LINE
  5
1D9B
  8
2-0
  6
CONTINUOUS
 62
     3
 10
21243.518156999991
 20
19929.234873000001
 30
0.0
 11
21243.518156999991
 21
19904.22563600001
 31
0.0
  0
LINE
  5
1D9C
  8
2-0
  6
CONTINUOUS
 62
     3
 10
21243.518156999991
 20
19904.22563600001
 30
0.0
 11
21225.524333999969
 21
19904.22563600001
 31
0.0
  0
LINE
  5
1D9D
  8
2-0
  6
CONTINUOUS
 62
     3
 10
21225.524333999969
 20
19904.22563600001
 30
0.0
 11
21225.524333999969
 21
19934.229199000019
 31
0.0
  0
LINE
  5
1D9E
  8
2-0
  6
CONTINUOUS
 62
     3
 10
21241.61583999998
 20
19904.22563600001
 30
0.0
 11
21235.61789899999
 21
19904.22563600001
 31
0.0
  0
LINE
  5
1D9F
  8
2-0
  6
CONTINUOUS
 62
     3
 10
21235.61789899999
 20
19904.22563600001
 30
0.0
 11
21235.61789899999
 21
19934.229199000019
 31
0.0
  0
LINE
  5
1DA0
  8
2-0
  6
CONTINUOUS
 62
     3
 10
21272.61905999999
 20
19934.229199000019
 30
0.0
 11
21235.61789899999
 21
19934.229199000019
 31
0.0
  0
LINE
  5
1DA1
  8
2-0
  6
CONTINUOUS
 62
     3
 10
21272.61905999999
 20
19904.22563600001
 30
0.0
 11
21272.61905999999
 21
19934.229199000019
 31
0.0
  0
LINE
  5
1DA2
  8
2-0
  6
CONTINUOUS
 62
     3
 10
21266.613200999978
 20
19904.22563600001
 30
0.0
 11
21272.61905999999
 21
19904.22563600001
 31
0.0
  0
LINE
  5
1DA3
  8
2-0
  6
CONTINUOUS
 62
     3
 10
21282.712624999978
 20
19904.22563600001
 30
0.0
 11
21282.712624999978
 21
19934.229199000019
 31
0.0
  0
LINE
  5
1DA4
  8
2-0
  6
CONTINUOUS
 62
     3
 10
21264.716821999991
 20
19904.22563600001
 30
0.0
 11
21282.712624999978
 21
19904.22563600001
 31
0.0
  0
LINE
  5
1DA5
  8
2-0
  6
CONTINUOUS
 62
     3
 10
21264.716821999991
 20
19929.234873000001
 30
0.0
 11
21264.716821999991
 21
19904.22563600001
 31
0.0
  0
LINE
  5
1DA6
  8
2-0
  6
CONTINUOUS
 62
     3
 10
21269.707187999989
 20
19929.234873000001
 30
0.0
 11
21264.716821999991
 21
19929.234873000001
 31
0.0
  0
LINE
  5
1DA7
  8
2-0
  6
CONTINUOUS
 62
     3
 10
21269.707187999989
 20
19922.229357000011
 30
0.0
 11
21269.707187999989
 21
19929.234873000001
 31
0.0
  0
LINE
  5
1DA8
  8
2-0
  6
CONTINUOUS
 62
     3
 10
20581.71361499999
 20
19934.229199000019
 30
0.0
 11
21225.524333999969
 21
19934.229199000019
 31
0.0
  0
LINE
  5
1DA9
  8
2-0
  6
CONTINUOUS
 62
     3
 10
19877.923721499981
 20
19934.229199000019
 30
0.0
 11
20524.523343999979
 21
19934.229199000019
 31
0.0
  0
LINE
  5
1DAA
  8
2-0
  6
CONTINUOUS
 62
     3
 10
21926.52433349999
 20
19934.229199000019
 30
0.0
 11
21282.712624999978
 21
19934.229199000019
 31
0.0
  0
LINE
  5
1DAB
  8
2-0
  6
CONTINUOUS
 62
     3
 10
19782.6197995
 20
19825.228987999999
 30
0.0
 11
19782.6197995
 21
19819.23302600002
 31
0.0
  0
LINE
  5
1DAC
  8
2-0
  6
CONTINUOUS
 62
     3
 10
19782.6197995
 20
19819.23302600002
 30
0.0
 11
19752.622174499989
 21
19819.23302600002
 31
0.0
  0
LINE
  5
1DAD
  8
2-0
  6
CONTINUOUS
 62
     3
 10
19752.622174499989
 20
19819.23302600002
 30
0.0
 11
19752.622174499989
 21
19934.229199000019
 31
0.0
  0
LINE
  5
1DAE
  8
2-0
  6
CONTINUOUS
 62
     3
 10
19752.622174499989
 20
19849.23263000001
 30
0.0
 11
19833.620115499991
 21
19849.23263000001
 31
0.0
  0
LINE
  5
1DAF
  8
2-0
  6
CONTINUOUS
 62
     3
 10
19782.6197995
 20
19808.935570000001
 30
0.0
 11
19752.622174499989
 21
19808.935570000001
 31
0.0
  0
LINE
  5
1DB0
  8
2-0
  6
CONTINUOUS
 62
     3
 10
19782.6197995
 20
19826.93731200002
 30
0.0
 11
19782.6197995
 21
19808.935570000001
 31
0.0
  0
LINE
  5
1DB1
  8
2-0
  6
CONTINUOUS
 62
     3
 10
19757.626397499989
 20
19826.93731200002
 30
0.0
 11
19782.6197995
 21
19826.93731200002
 31
0.0
  0
LINE
  5
1DB2
  8
2-0
  6
CONTINUOUS
 62
     3
 10
19757.626397499989
 20
19821.929130000019
 30
0.0
 11
19757.626397499989
 21
19826.93731200002
 31
0.0
  0
LINE
  5
1DB3
  8
2-0
  6
CONTINUOUS
 62
     3
 10
19764.623995499969
 20
19821.929130000019
 30
0.0
 11
19757.626397499989
 21
19821.929130000019
 31
0.0
  0
LINE
  5
1DB4
  8
2-0
  6
CONTINUOUS
 62
     3
 10
19764.623995499969
 20
19468.632307499978
 30
0.0
 11
19757.626397499989
 21
19468.632307499978
 31
0.0
  0
LINE
  5
1DB5
  8
2-0
  6
CONTINUOUS
 62
     3
 10
19757.626397499989
 20
19468.632307499978
 30
0.0
 11
19757.626397499989
 21
19473.632571499998
 31
0.0
  0
LINE
  5
1DB6
  8
2-0
  6
CONTINUOUS
 62
     3
 10
19757.626397499989
 20
19473.632571499998
 30
0.0
 11
19782.6197995
 21
19473.632571499998
 31
0.0
  0
LINE
  5
1DB7
  8
2-0
  6
CONTINUOUS
 62
     3
 10
19782.6197995
 20
19473.632571499998
 30
0.0
 11
19782.6197995
 21
19455.636767499989
 31
0.0
  0
LINE
  5
1DB8
  8
2-0
  6
CONTINUOUS
 62
     3
 10
19782.6197995
 20
19455.636767499989
 30
0.0
 11
19752.622174499989
 21
19455.636767499989
 31
0.0
  0
LINE
  5
1DB9
  8
2-0
  6
CONTINUOUS
 62
     3
 10
19782.6197995
 20
19471.728274499979
 30
0.0
 11
19782.6197995
 21
19465.730333499989
 31
0.0
  0
LINE
  5
1DBA
  8
2-0
  6
CONTINUOUS
 62
     3
 10
19782.6197995
 20
19465.730333499989
 30
0.0
 11
19752.622174499989
 21
19465.730333499989
 31
0.0
  0
LINE
  5
1DBB
  8
2-0
  6
CONTINUOUS
 62
     3
 10
19752.622174499989
 20
19465.730333499989
 30
0.0
 11
19752.622174499989
 21
19502.7314945
 31
0.0
  0
LINE
  5
1DBC
  8
2-0
  6
CONTINUOUS
 62
     3
 10
19782.6197995
 20
19502.7314945
 30
0.0
 11
19752.622174499989
 21
19502.7314945
 31
0.0
  0
LINE
  5
1DBD
  8
2-0
  6
CONTINUOUS
 62
     3
 10
19782.6197995
 20
19496.727614499981
 30
0.0
 11
19782.6197995
 21
19502.7314945
 31
0.0
  0
LINE
  5
1DBE
  8
2-0
  6
CONTINUOUS
 62
     3
 10
19782.6197995
 20
19512.827039499982
 30
0.0
 11
19752.622174499989
 21
19512.827039499982
 31
0.0
  0
LINE
  5
1DBF
  8
2-0
  6
CONTINUOUS
 62
     3
 10
19782.6197995
 20
19494.8252975
 30
0.0
 11
19782.6197995
 21
19512.827039499982
 31
0.0
  0
LINE
  5
1DC0
  8
2-0
  6
CONTINUOUS
 62
     3
 10
19757.626397499989
 20
19494.8252975
 30
0.0
 11
19782.6197995
 21
19494.8252975
 31
0.0
  0
LINE
  5
1DC1
  8
2-0
  6
CONTINUOUS
 62
     3
 10
19757.626397499989
 20
19499.825561500002
 30
0.0
 11
19757.626397499989
 21
19494.8252975
 31
0.0
  0
LINE
  5
1DC2
  8
2-0
  6
CONTINUOUS
 62
     3
 10
19764.623995499969
 20
19499.825561500002
 30
0.0
 11
19757.626397499989
 21
19499.825561500002
 31
0.0
  0
LINE
  5
1DC3
  8
2-0
  6
CONTINUOUS
 62
     3
 10
19764.623995499969
 20
18767.631317999989
 30
0.0
 11
19757.626397499989
 21
18767.631317999989
 31
0.0
  0
LINE
  5
1DC4
  8
2-0
  6
CONTINUOUS
 62
     3
 10
19757.626397499989
 20
18767.631317999989
 30
0.0
 11
19757.626397499989
 21
18772.63752
 31
0.0
  0
LINE
  5
1DC5
  8
2-0
  6
CONTINUOUS
 62
     3
 10
19757.626397499989
 20
18772.63752
 30
0.0
 11
19782.6197995
 21
18772.63752
 31
0.0
  0
LINE
  5
1DC6
  8
2-0
  6
CONTINUOUS
 62
     3
 10
19782.6197995
 20
18772.63752
 30
0.0
 11
19782.6197995
 21
18754.635778000011
 31
0.0
  0
LINE
  5
1DC7
  8
2-0
  6
CONTINUOUS
 62
     3
 10
19782.6197995
 20
18754.635778000011
 30
0.0
 11
19752.622174499989
 21
18754.635778000011
 31
0.0
  0
LINE
  5
1DC8
  8
2-0
  6
CONTINUOUS
 62
     3
 10
19782.6197995
 20
18770.72728499999
 30
0.0
 11
19782.6197995
 21
18764.731322999989
 31
0.0
  0
LINE
  5
1DC9
  8
2-0
  6
CONTINUOUS
 62
     3
 10
19782.6197995
 20
18764.731322999989
 30
0.0
 11
19752.622174499989
 21
18764.731322999989
 31
0.0
  0
LINE
  5
1DCA
  8
2-0
  6
CONTINUOUS
 62
     3
 10
19752.622174499989
 20
18764.731322999989
 30
0.0
 11
19752.622174499989
 21
18801.730505
 31
0.0
  0
LINE
  5
1DCB
  8
2-0
  6
CONTINUOUS
 62
     3
 10
19782.6197995
 20
18801.730505
 30
0.0
 11
19752.622174499989
 21
18801.730505
 31
0.0
  0
LINE
  5
1DCC
  8
2-0
  6
CONTINUOUS
 62
     3
 10
19782.6197995
 20
18795.73454300001
 30
0.0
 11
19782.6197995
 21
18801.730505
 31
0.0
  0
LINE
  5
1DCD
  8
2-0
  6
CONTINUOUS
 62
     3
 10
19782.6197995
 20
18811.82605
 30
0.0
 11
19752.622174499989
 21
18811.82605
 31
0.0
  0
LINE
  5
1DCE
  8
2-0
  6
CONTINUOUS
 62
     3
 10
19782.6197995
 20
18793.824307999999
 30
0.0
 11
19782.6197995
 21
18811.82605
 31
0.0
  0
LINE
  5
1DCF
  8
2-0
  6
CONTINUOUS
 62
     3
 10
19757.626397499989
 20
18793.824307999999
 30
0.0
 11
19782.6197995
 21
18793.824307999999
 31
0.0
  0
LINE
  5
1DD0
  8
2-0
  6
CONTINUOUS
 62
     3
 10
19757.626397499989
 20
18798.83051
 30
0.0
 11
19757.626397499989
 21
18793.824307999999
 31
0.0
  0
LINE
  5
1DD1
  8
2-0
  6
CONTINUOUS
 62
     3
 10
19764.623995499969
 20
18798.83051
 30
0.0
 11
19757.626397499989
 21
18798.83051
 31
0.0
  0
LINE
  5
1DD2
  8
2-0
  6
CONTINUOUS
 62
     3
 10
19764.623995499969
 20
18097.824572000001
 30
0.0
 11
19757.626397499989
 21
18097.824572000001
 31
0.0
  0
LINE
  5
1DD3
  8
2-0
  6
CONTINUOUS
 62
     3
 10
19757.626397499989
 20
18097.824572000001
 30
0.0
 11
19757.626397499989
 21
18092.836185
 31
0.0
  0
LINE
  5
1DD4
  8
2-0
  6
CONTINUOUS
 62
     3
 10
19757.626397499989
 20
18092.836185
 30
0.0
 11
19782.6197995
 21
18092.836185
 31
0.0
  0
LINE
  5
1DD5
  8
2-0
  6
CONTINUOUS
 62
     3
 10
19782.6197995
 20
18092.836185
 30
0.0
 11
19782.6197995
 21
18110.831987999991
 31
0.0
  0
LINE
  5
1DD6
  8
2-0
  6
CONTINUOUS
 62
     3
 10
19782.6197995
 20
18110.831987999991
 30
0.0
 11
19752.622174499989
 21
18110.831987999991
 31
0.0
  0
LINE
  5
1DD7
  8
2-0
  6
CONTINUOUS
 62
     3
 10
19782.6197995
 20
18094.734542999999
 30
0.0
 11
19782.6197995
 21
18100.730504999981
 31
0.0
  0
LINE
  5
1DD8
  8
2-0
  6
CONTINUOUS
 62
     3
 10
19782.6197995
 20
18100.730504999981
 30
0.0
 11
19752.622174499989
 21
18100.730504999981
 31
0.0
  0
LINE
  5
1DD9
  8
2-0
  6
CONTINUOUS
 62
     3
 10
19752.622174499989
 20
18100.730504999981
 30
0.0
 11
19752.622174499989
 21
18063.731323
 31
0.0
  0
LINE
  5
1DDA
  8
2-0
  6
CONTINUOUS
 62
     3
 10
19782.6197995
 20
18063.731323
 30
0.0
 11
19752.622174499989
 21
18063.731323
 31
0.0
  0
LINE
  5
1DDB
  8
2-0
  6
CONTINUOUS
 62
     3
 10
19782.6197995
 20
18069.733223999981
 30
0.0
 11
19782.6197995
 21
18063.731323
 31
0.0
  0
LINE
  5
1DDC
  8
2-0
  6
CONTINUOUS
 62
     3
 10
19782.6197995
 20
18053.641716999991
 30
0.0
 11
19752.622174499989
 21
18053.641716999991
 31
0.0
  0
LINE
  5
1DDD
  8
2-0
  6
CONTINUOUS
 62
     3
 10
19782.6197995
 20
18071.63752
 30
0.0
 11
19782.6197995
 21
18053.641716999991
 31
0.0
  0
LINE
  5
1DDE
  8
2-0
  6
CONTINUOUS
 62
     3
 10
19757.626397499989
 20
18071.63752
 30
0.0
 11
19782.6197995
 21
18071.63752
 31
0.0
  0
LINE
  5
1DDF
  8
2-0
  6
CONTINUOUS
 62
     3
 10
19757.626397499989
 20
18066.637256999998
 30
0.0
 11
19757.626397499989
 21
18071.63752
 31
0.0
  0
LINE
  5
1DE0
  8
2-0
  6
CONTINUOUS
 62
     3
 10
19764.623995499969
 20
18066.637256999998
 30
0.0
 11
19757.626397499989
 21
18066.637256999998
 31
0.0
  0
LINE
  5
1DE1
  8
2-0
  6
CONTINUOUS
 62
     3
 10
19755.508312499991
 20
17346.728143
 30
0.0
 11
19755.508312499991
 21
17366.72919799999
 31
0.0
  0
LINE
  5
1DE2
  8
2-0
  6
CONTINUOUS
 62
     3
 10
19755.508312499991
 20
17366.72919799999
 30
0.0
 11
19840.508840499991
 21
17366.72919799999
 31
0.0
  0
LINE
  5
1DE3
  8
2-0
  6
CONTINUOUS
 62
     3
 10
19764.623995499969
 20
17393.335908000001
 30
0.0
 11
19757.626397499989
 21
17393.335908000001
 31
0.0
  0
LINE
  5
1DE4
  8
2-0
  6
CONTINUOUS
 62
     3
 10
19757.626397499989
 20
17393.335908000001
 30
0.0
 11
19757.626397499989
 21
17388.341582000001
 31
0.0
  0
LINE
  5
1DE5
  8
2-0
  6
CONTINUOUS
 62
     3
 10
19757.626397499989
 20
17388.341582000001
 30
0.0
 11
19782.6197995
 21
17388.341582000001
 31
0.0
  0
LINE
  5
1DE6
  8
2-0
  6
CONTINUOUS
 62
     3
 10
19782.6197995
 20
17388.341582000001
 30
0.0
 11
19782.6197995
 21
17406.33738600001
 31
0.0
  0
LINE
  5
1DE7
  8
2-0
  6
CONTINUOUS
 62
     3
 10
19782.6197995
 20
17406.33738600001
 30
0.0
 11
19752.622174499989
 21
17406.33738600001
 31
0.0
  0
LINE
  5
1DE8
  8
2-0
  6
CONTINUOUS
 62
     3
 10
19782.6197995
 20
17396.728802000001
 30
0.0
 11
19782.6197995
 21
17390.726901999999
 31
0.0
  0
LINE
  5
1DE9
  8
2-0
  6
CONTINUOUS
 62
     3
 10
19752.622174499989
 20
17396.728802000001
 30
0.0
 11
19782.6197995
 21
17396.728802000001
 31
0.0
  0
LINE
  5
1DEA
  8
2-0
  6
CONTINUOUS
 62
     3
 10
19752.622174499989
 20
17406.33738600001
 30
0.0
 11
19752.622174499989
 21
18053.641716999991
 31
0.0
  0
LINE
  5
1DEB
  8
2-0
  6
CONTINUOUS
 62
     3
 10
19752.622174499989
 20
18110.831987999991
 30
0.0
 11
19752.622174499989
 21
18754.635778000011
 31
0.0
  0
LINE
  5
1DEC
  8
2-0
  6
CONTINUOUS
 62
     3
 10
19752.622174499989
 20
17251.72708700001
 30
0.0
 11
19782.6197995
 21
17251.72708700001
 31
0.0
  0
LINE
  5
1DED
  8
2-0
  6
CONTINUOUS
 62
     3
 10
19782.6197995
 20
17251.72708700001
 30
0.0
 11
19782.6197995
 21
17257.728986999999
 31
0.0
  0
LINE
  5
1DEE
  8
2-0
  6
CONTINUOUS
 62
     3
 10
19840.508840499991
 20
17281.732629999999
 30
0.0
 11
19755.508312499991
 21
17281.732629999999
 31
0.0
  0
LINE
  5
1DEF
  8
2-0
  6
CONTINUOUS
 62
     3
 10
19755.508312499991
 20
17281.732629999999
 30
0.0
 11
19755.508312499991
 21
17301.727747000001
 31
0.0
  0
LINE
  5
1DF0
  8
2-0
  6
CONTINUOUS
 62
     3
 10
19782.6197995
 20
17242.118504000009
 30
0.0
 11
19752.622174499989
 21
17242.118504000009
 31
0.0
  0
LINE
  5
1DF1
  8
2-0
  6
CONTINUOUS
 62
     3
 10
19782.6197995
 20
17260.114306999982
 30
0.0
 11
19782.6197995
 21
17242.118504000009
 31
0.0
  0
LINE
  5
1DF2
  8
2-0
  6
CONTINUOUS
 62
     3
 10
19757.626397499989
 20
17260.114306999982
 30
0.0
 11
19782.6197995
 21
17260.114306999982
 31
0.0
  0
LINE
  5
1DF3
  8
2-0
  6
CONTINUOUS
 62
     3
 10
19757.626397499989
 20
17255.114043000009
 30
0.0
 11
19757.626397499989
 21
17260.114306999982
 31
0.0
  0
LINE
  5
1DF4
  8
2-0
  6
CONTINUOUS
 62
     3
 10
19764.623995499969
 20
17255.114043000009
 30
0.0
 11
19757.626397499989
 21
17255.114043000009
 31
0.0
  0
LINE
  5
1DF5
  8
2-0
  6
CONTINUOUS
 62
     3
 10
19764.623995499969
 20
16550.631812499989
 30
0.0
 11
19757.626397499989
 21
16550.631812499989
 31
0.0
  0
LINE
  5
1DF6
  8
2-0
  6
CONTINUOUS
 62
     3
 10
19757.626397499989
 20
16550.631812499989
 30
0.0
 11
19757.626397499989
 21
16555.632076499991
 31
0.0
  0
LINE
  5
1DF7
  8
2-0
  6
CONTINUOUS
 62
     3
 10
19757.626397499989
 20
16555.632076499991
 30
0.0
 11
19782.6197995
 21
16555.632076499991
 31
0.0
  0
LINE
  5
1DF8
  8
2-0
  6
CONTINUOUS
 62
     3
 10
19782.6197995
 20
16555.632076499991
 30
0.0
 11
19782.6197995
 21
16537.630334499991
 31
0.0
  0
LINE
  5
1DF9
  8
2-0
  6
CONTINUOUS
 62
     3
 10
19782.6197995
 20
16537.630334499991
 30
0.0
 11
19752.622174499989
 21
16537.630334499991
 31
0.0
  0
LINE
  5
1DFA
  8
2-0
  6
CONTINUOUS
 62
     3
 10
19782.6197995
 20
16553.72777949999
 30
0.0
 11
19782.6197995
 21
16547.7308285
 31
0.0
  0
LINE
  5
1DFB
  8
2-0
  6
CONTINUOUS
 62
     3
 10
19782.6197995
 20
16547.7308285
 30
0.0
 11
19752.622174499989
 21
16547.7308285
 31
0.0
  0
LINE
  5
1DFC
  8
2-0
  6
CONTINUOUS
 62
     3
 10
19752.622174499989
 20
16547.7308285
 30
0.0
 11
19752.622174499989
 21
16584.7309995
 31
0.0
  0
LINE
  5
1DFD
  8
2-0
  6
CONTINUOUS
 62
     3
 10
19782.6197995
 20
16584.7309995
 30
0.0
 11
19752.622174499989
 21
16584.7309995
 31
0.0
  0
LINE
  5
1DFE
  8
2-0
  6
CONTINUOUS
 62
     3
 10
19782.6197995
 20
16578.7281095
 30
0.0
 11
19782.6197995
 21
16584.7309995
 31
0.0
  0
LINE
  5
1DFF
  8
2-0
  6
CONTINUOUS
 62
     3
 10
19782.6197995
 20
16594.8265445
 30
0.0
 11
19752.622174499989
 21
16594.8265445
 31
0.0
  0
LINE
  5
1E00
  8
2-0
  6
CONTINUOUS
 62
     3
 10
19782.6197995
 20
16576.818863500001
 30
0.0
 11
19782.6197995
 21
16594.8265445
 31
0.0
  0
LINE
  5
1E01
  8
2-0
  6
CONTINUOUS
 62
     3
 10
19757.626397499989
 20
16576.818863500001
 30
0.0
 11
19782.6197995
 21
16576.818863500001
 31
0.0
  0
LINE
  5
1E02
  8
2-0
  6
CONTINUOUS
 62
     3
 10
19757.626397499989
 20
16581.82506649999
 30
0.0
 11
19757.626397499989
 21
16576.818863500001
 31
0.0
  0
LINE
  5
1E03
  8
2-0
  6
CONTINUOUS
 62
     3
 10
19764.623995499969
 20
16581.82506649999
 30
0.0
 11
19757.626397499989
 21
16581.82506649999
 31
0.0
  0
LINE
  5
1E04
  8
2-0
  6
CONTINUOUS
 62
     3
 10
19764.623995499969
 20
15881.065083
 30
0.0
 11
19757.626397499989
 21
15881.065083
 31
0.0
  0
LINE
  5
1E05
  8
2-0
  6
CONTINUOUS
 62
     3
 10
19757.626397499989
 20
15881.065083
 30
0.0
 11
19757.626397499989
 21
15876.070758
 31
0.0
  0
LINE
  5
1E06
  8
2-0
  6
CONTINUOUS
 62
     3
 10
19757.626397499989
 20
15876.070758
 30
0.0
 11
19782.6197995
 21
15876.070758
 31
0.0
  0
LINE
  5
1E07
  8
2-0
  6
CONTINUOUS
 62
     3
 10
19782.6197995
 20
15876.070758
 30
0.0
 11
19782.6197995
 21
15894.066561000011
 31
0.0
  0
LINE
  5
1E08
  8
2-0
  6
CONTINUOUS
 62
     3
 10
19782.6197995
 20
15894.066561000011
 30
0.0
 11
19752.622174499989
 21
15894.066561000011
 31
0.0
  0
LINE
  5
1E09
  8
2-0
  6
CONTINUOUS
 62
     3
 10
19782.6197995
 20
15877.969116
 30
0.0
 11
19782.6197995
 21
15883.97101600001
 31
0.0
  0
LINE
  5
1E0A
  8
2-0
  6
CONTINUOUS
 62
     3
 10
19782.6197995
 20
15883.97101600001
 30
0.0
 11
19752.622174499989
 21
15883.97101600001
 31
0.0
  0
LINE
  5
1E0B
  8
2-0
  6
CONTINUOUS
 62
     3
 10
19752.622174499989
 20
15846.971835000009
 30
0.0
 11
19752.622174499989
 21
15883.97101600001
 31
0.0
  0
LINE
  5
1E0C
  8
2-0
  6
CONTINUOUS
 62
     3
 10
19782.6197995
 20
15846.971835000009
 30
0.0
 11
19752.622174499989
 21
15846.971835000009
 31
0.0
  0
LINE
  5
1E0D
  8
2-0
  6
CONTINUOUS
 62
     3
 10
19782.6197995
 20
15852.968785999999
 30
0.0
 11
19782.6197995
 21
15846.971835000009
 31
0.0
  0
LINE
  5
1E0E
  8
2-0
  6
CONTINUOUS
 62
     3
 10
19782.6197995
 20
15836.870351
 30
0.0
 11
19752.622174499989
 21
15836.870351
 31
0.0
  0
LINE
  5
1E0F
  8
2-0
  6
CONTINUOUS
 62
     3
 10
19782.6197995
 20
15854.87803199999
 30
0.0
 11
19782.6197995
 21
15836.870351
 31
0.0
  0
LINE
  5
1E10
  8
2-0
  6
CONTINUOUS
 62
     3
 10
19757.626397499989
 20
15854.87803199999
 30
0.0
 11
19782.6197995
 21
15854.87803199999
 31
0.0
  0
LINE
  5
1E11
  8
2-0
  6
CONTINUOUS
 62
     3
 10
19757.626397499989
 20
15849.87776800002
 30
0.0
 11
19757.626397499989
 21
15854.87803199999
 31
0.0
  0
LINE
  5
1E12
  8
2-0
  6
CONTINUOUS
 62
     3
 10
19764.623995499969
 20
15849.87776800002
 30
0.0
 11
19757.626397499989
 21
15849.87776800002
 31
0.0
  0
LINE
  5
1E13
  8
2-0
  6
CONTINUOUS
 62
     3
 10
19752.622174499989
 20
17242.118504000009
 30
0.0
 11
19752.622174499989
 21
16594.8265445
 31
0.0
  0
LINE
  5
1E14
  8
2-0
  6
CONTINUOUS
 62
     3
 10
19752.622174499989
 20
17396.728802000001
 30
0.0
 11
19752.622174499989
 21
17251.72708700001
 31
0.0
  0
LINE
  5
1E15
  8
2-0
  6
CONTINUOUS
 62
     3
 10
19840.508840499991
 20
17366.72919799999
 30
0.0
 11
19840.508840499991
 21
17281.732629999999
 31
0.0
  0
LINE
  5
1E16
  8
2-0
  6
CONTINUOUS
 62
     3
 10
19764.623995499969
 20
15148.636761
 30
0.0
 11
19757.626397499989
 21
15148.636761
 31
0.0
  0
LINE
  5
1E17
  8
2-0
  6
CONTINUOUS
 62
     3
 10
19757.626397499989
 20
15148.636761
 30
0.0
 11
19757.626397499989
 21
15153.631087000011
 31
0.0
  0
LINE
  5
1E18
  8
2-0
  6
CONTINUOUS
 62
     3
 10
19757.626397499989
 20
15153.631087000011
 30
0.0
 11
19782.6197995
 21
15153.631087000011
 31
0.0
  0
LINE
  5
1E19
  8
2-0
  6
CONTINUOUS
 62
     3
 10
19782.6197995
 20
15153.631087000011
 30
0.0
 11
19782.6197995
 21
15135.635283000011
 31
0.0
  0
LINE
  5
1E1A
  8
2-0
  6
CONTINUOUS
 62
     3
 10
19782.6197995
 20
15135.635283000011
 30
0.0
 11
19752.622174499989
 21
15135.635283000011
 31
0.0
  0
LINE
  5
1E1B
  8
2-0
  6
CONTINUOUS
 62
     3
 10
19782.6197995
 20
15151.73371800001
 30
0.0
 11
19782.6197995
 21
15145.730828000011
 31
0.0
  0
LINE
  5
1E1C
  8
2-0
  6
CONTINUOUS
 62
     3
 10
19782.6197995
 20
15145.730828000011
 30
0.0
 11
19752.622174499989
 21
15145.730828000011
 31
0.0
  0
LINE
  5
1E1D
  8
2-0
  6
CONTINUOUS
 62
     3
 10
19752.622174499989
 20
15145.730828000011
 30
0.0
 11
19752.622174499989
 21
15182.730999999991
 31
0.0
  0
LINE
  5
1E1E
  8
2-0
  6
CONTINUOUS
 62
     3
 10
19782.6197995
 20
15182.730999999991
 30
0.0
 11
19752.622174499989
 21
15182.730999999991
 31
0.0
  0
LINE
  5
1E1F
  8
2-0
  6
CONTINUOUS
 62
     3
 10
19782.6197995
 20
15176.734048
 30
0.0
 11
19782.6197995
 21
15182.730999999991
 31
0.0
  0
LINE
  5
1E20
  8
2-0
  6
CONTINUOUS
 62
     3
 10
19782.6197995
 20
15192.831493000011
 30
0.0
 11
19752.622174499989
 21
15192.831493000011
 31
0.0
  0
LINE
  5
1E21
  8
2-0
  6
CONTINUOUS
 62
     3
 10
19782.6197995
 20
15174.82480200001
 30
0.0
 11
19782.6197995
 21
15192.831493000011
 31
0.0
  0
LINE
  5
1E22
  8
2-0
  6
CONTINUOUS
 62
     3
 10
19757.626397499989
 20
15174.82480200001
 30
0.0
 11
19782.6197995
 21
15174.82480200001
 31
0.0
  0
LINE
  5
1E23
  8
2-0
  6
CONTINUOUS
 62
     3
 10
19757.626397499989
 20
15179.83001500001
 30
0.0
 11
19757.626397499989
 21
15174.82480200001
 31
0.0
  0
LINE
  5
1E24
  8
2-0
  6
CONTINUOUS
 62
     3
 10
19764.623995499969
 20
15179.83001500001
 30
0.0
 11
19757.626397499989
 21
15179.83001500001
 31
0.0
  0
LINE
  5
1E25
  8
2-0
  6
CONTINUOUS
 62
     3
 10
19782.6197995
 20
14472.732840999999
 30
0.0
 11
19782.6197995
 21
14478.737709999999
 31
0.0
  0
LINE
  5
1E26
  8
2-0
  6
CONTINUOUS
 62
     3
 10
19782.6197995
 20
14478.737709999999
 30
0.0
 11
19752.622174499989
 21
14478.737709999999
 31
0.0
  0
LINE
  5
1E27
  8
2-0
  6
CONTINUOUS
 62
     3
 10
19752.622174499989
 20
14478.737709999999
 30
0.0
 11
19752.622174499989
 21
14363.733619000001
 31
0.0
  0
LINE
  5
1E28
  8
2-0
  6
CONTINUOUS
 62
     3
 10
19752.622174499989
 20
14363.733619000001
 30
0.0
 11
19837.620722499982
 21
14363.733619000001
 31
0.0
  0
LINE
  5
1E29
  8
2-0
  6
CONTINUOUS
 62
     3
 10
19837.620722499982
 20
14363.733619000001
 30
0.0
 11
19837.620722499982
 21
14448.72919799999
 31
0.0
  0
LINE
  5
1E2A
  8
2-0
  6
CONTINUOUS
 62
     3
 10
19837.620722499982
 20
14448.72919799999
 30
0.0
 11
19805.623784499981
 21
14448.72919799999
 31
0.0
  0
LINE
  5
1E2B
  8
2-0
  6
CONTINUOUS
 62
     3
 10
19764.623995499969
 20
14475.767443000001
 30
0.0
 11
19757.626397499989
 21
14475.767443000001
 31
0.0
  0
LINE
  5
1E2C
  8
2-0
  6
CONTINUOUS
 62
     3
 10
19757.626397499989
 20
14475.767443000001
 30
0.0
 11
19757.626397499989
 21
14470.77014799998
 31
0.0
  0
LINE
  5
1E2D
  8
2-0
  6
CONTINUOUS
 62
     3
 10
19757.626397499989
 20
14470.77014799998
 30
0.0
 11
19782.6197995
 21
14470.77014799998
 31
0.0
  0
LINE
  5
1E2E
  8
2-0
  6
CONTINUOUS
 62
     3
 10
19782.6197995
 20
14470.77014799998
 30
0.0
 11
19782.6197995
 21
14488.768921000001
 31
0.0
  0
LINE
  5
1E2F
  8
2-0
  6
CONTINUOUS
 62
     3
 10
19782.6197995
 20
14488.768921000001
 30
0.0
 11
19752.622174499989
 21
14488.768921000001
 31
0.0
  0
LINE
  5
1E30
  8
2-0
  6
CONTINUOUS
 62
     3
 10
19752.622174499989
 20
15192.831493000011
 30
0.0
 11
19752.622174499989
 21
15836.870351
 31
0.0
  0
LINE
  5
1E31
  8
2-0
  6
CONTINUOUS
 62
     3
 10
19752.622174499989
 20
18811.82605
 30
0.0
 11
19752.622174499989
 21
19455.636767499989
 31
0.0
  0
LINE
  5
1E32
  8
2-0
  6
CONTINUOUS
 62
     3
 10
19843.624602499978
 20
18740.729659999961
 30
0.0
 11
19796.620933499991
 21
18740.729659999961
 31
0.0
  0
LINE
  5
1E33
  8
2-0
  6
CONTINUOUS
 62
     3
 10
19796.620933499991
 20
18825.73018799999
 30
0.0
 11
19843.624602499978
 21
18825.73018799999
 31
0.0
  0
LINE
  5
1E34
  8
2-0
  6
CONTINUOUS
 62
     3
 10
19796.620933499991
 20
18740.729659999961
 30
0.0
 11
19796.620933499991
 21
18765.732959000001
 31
0.0
  0
LINE
  5
1E35
  8
2-0
  6
CONTINUOUS
 62
     3
 10
19796.620933499991
 20
18800.728867999998
 30
0.0
 11
19796.620933499991
 21
18825.73018799999
 31
0.0
  0
LINE
  5
1E36
  8
2-0
  6
CONTINUOUS
 62
     3
 10
19843.624602499978
 20
18825.73018799999
 30
0.0
 11
19843.624602499978
 21
18740.729659999961
 31
0.0
  0
LINE
  5
1E37
  8
2-0
  6
CONTINUOUS
 62
     3
 10
19752.622174499989
 20
16537.630334499991
 30
0.0
 11
19752.622174499989
 21
15894.066561000011
 31
0.0
  0
LINE
  5
1E38
  8
2-0
  6
CONTINUOUS
 62
     3
 10
19843.624602499978
 20
15822.73263
 30
0.0
 11
19796.620933499991
 21
15822.73263
 31
0.0
  0
LINE
  5
1E39
  8
2-0
  6
CONTINUOUS
 62
     3
 10
19796.620933499991
 20
15907.72919799999
 30
0.0
 11
19843.624602499978
 21
15907.72919799999
 31
0.0
  0
LINE
  5
1E3A
  8
2-0
  6
CONTINUOUS
 62
     3
 10
19796.620933499991
 20
15822.73263
 30
0.0
 11
19796.620933499991
 21
15847.72801100001
 31
0.0
  0
LINE
  5
1E3B
  8
2-0
  6
CONTINUOUS
 62
     3
 10
19796.620933499991
 20
15882.727879
 30
0.0
 11
19796.620933499991
 21
15907.72919799999
 31
0.0
  0
LINE
  5
1E3C
  8
2-0
  6
CONTINUOUS
 62
     3
 10
19843.624602499978
 20
15907.72919799999
 30
0.0
 11
19843.624602499978
 21
15822.73263
 31
0.0
  0
LINE
  5
1E3D
  8
2-0
  6
CONTINUOUS
 62
     3
 10
25673.616763499991
 20
19819.23302600002
 30
0.0
 11
25673.616763499991
 21
19934.229199000019
 31
0.0
  0
LINE
  5
1E3E
  8
2-0
  6
CENTER2
 62
     6
 10
18465.6639025
 20
19891.730914
 30
0.0
 11
26523.61808349999
 21
19891.730914
 31
0.0
  0
LINE
  5
1E3F
  8
2-0
  6
CENTER2
 62
     6
 10
18465.6639025
 20
17324.230914
 30
0.0
 11
26523.61808349999
 21
17324.230914
 31
0.0
  0
LINE
  5
1E40
  8
2-0
  6
CENTER2
 62
     6
 10
18465.6639025
 20
14406.230913999991
 30
0.0
 11
26523.61808349999
 21
14406.230913999991
 31
0.0
  0
LINE
  5
1E51
  8
2-0
  6
CONTINUOUS
 62
     3
 10
19752.622174499989
 20
19849.23263000001
 30
0.0
 11
25592.614863499992
 21
19849.23263000001
 31
0.0
  0
LINE
  5
1E52
  8
2-0
  6
CONTINUOUS
 62
     3
 10
19752.622174499989
 20
14488.768921000001
 30
0.0
 11
19752.622174499989
 21
15135.635283000011
 31
0.0
  0
LINE
  5
1E53
  8
2-0
  6
CENTER2
 62
     6
 10
19795.11847949999
 20
21134.229199000009
 30
0.0
 11
19795.11847949999
 21
13780.467479999999
 31
0.0
  0
LINE
  5
1E54
  8
2-0
  6
CENTER2
 62
     6
 10
25631.11847949999
 20
21134.229199000009
 30
0.0
 11
25631.11847949999
 21
13780.467479999999
 31
0.0
  0
LINE
  5
1E55
  8
2-0
  6
CONTINUOUS
 62
     3
 10
25673.616763499991
 20
19808.935570000001
 30
0.0
 11
25673.616763499991
 21
19512.827039499982
 31
0.0
  0
LINE
  5
1E56
  8
2-0
  6
CONTINUOUS
 62
     3
 10
19752.622174499989
 20
19808.935570000001
 30
0.0
 11
19752.622174499989
 21
19512.827039499982
 31
0.0
  0
LINE
  5
1E57
  8
2-0
  6
CENTER2
 62
     6
 10
22713.118479499979
 20
21134.229199000009
 30
0.0
 11
22713.118479499979
 21
14214.82631299999
 31
0.0
  0
LINE
  5
1E58
  8
2-0
  6
CONTINUOUS
 62
     3
 10
19833.620115499991
 20
14448.72919799999
 30
0.0
 11
19833.620115499991
 21
19934.229199000019
 31
0.0
  0
LINE
  5
1E59
  8
2-0
  6
CONTINUOUS
 62
     3
 10
25592.614863499992
 20
14448.72919799999
 30
0.0
 11
25592.614863499992
 21
19934.229199000019
 31
0.0
  0
CIRCLE
  5
1E68
  8
2-0
  6
CONTINUOUS
 62
     4
 10
18265.666212499978
 20
19891.730914
 30
0.0
 40
200.00001
  0
CIRCLE
  5
1E69
  8
2-0
  6
CONTINUOUS
 62
     4
 10
18265.666212499978
 20
17324.230914
 30
0.0
 40
200.00001
  0
CIRCLE
  5
1E6A
  8
2-0
  6
CONTINUOUS
 62
     4
 10
18265.666212499978
 20
14406.230913999991
 30
0.0
 40
200.00001
  0
CIRCLE
  5
1E6B
  8
2-0
  6
CONTINUOUS
 62
     4
 10
22713.118479499979
 20
21334.233818000012
 30
0.0
 40
200.00001
  0
CIRCLE
  5
1E6C
  8
2-0
  6
CONTINUOUS
 62
     4
 10
19795.11847949999
 20
21334.233818000012
 30
0.0
 40
200.00001
  0
TEXT
  5
1E6D
  8
2-0
  6
CONTINUOUS
 62
     7
 10
24027.963786499979
 20
13846.232035999999
 30
0.0
 40
160.0
  1
前柱（右）
 50
0.000213
 72
     4
 11
24443.963489092999
 21
13926.23358250079
 31
0.0
  0
TEXT
  5
1E6E
  8
2-0
  6
CONTINUOUS
 62
     7
 10
24044.66300549998
 20
18525.354080000001
 30
0.0
 40
160.0
  1
補強柱 後
 50
359.99984199999989
 72
     4
 11
24455.329892774709
 21
18605.352947536991
 31
0.0
  0
TEXT
  5
1E6F
  8
2-0
  6
CONTINUOUS
 62
     7
 10
24232.558909499989
 20
16774.72405200003
 30
0.0
 40
160.0
  1
壁パネル
 50
359.99982299999999
 72
     4
 11
24595.22582330355
 21
16854.722931637891
 31
0.0
  0
TEXT
  5
1E70
  8
2-0
  6
CONTINUOUS
 62
     7
 10
23952.556005499981
 20
17611.911948000012
 30
0.0
 40
160.0
  1
中柱（左右）
 50
0.000354
 72
     4
 11
24469.888844546189
 21
17691.915144324659
 31
0.0
  0
TEXT
  5
1E71
  8
2-0
  6
CONTINUOUS
 62
     7
 10
24632.55824949998
 20
14819.273301999991
 30
0.0
 40
160.0
  1
下枠
 50
0.001063
 72
     4
 11
24803.223431909279
 21
14899.27646833928
 31
0.0
  0
TEXT
  5
1E72
  8
2-0
  6
CONTINUOUS
 62
     7
 10
24044.663005499999
 20
15607.594591000019
 30
0.0
 40
160.0
  1
補強柱 前
 50
359.99937
 72
     4
 11
24455.330551787782
 21
15687.59007547934
 31
0.0
  0
TEXT
  5
1E73
  8
2-0
  6
CONTINUOUS
 62
     7
 10
24127.523673499989
 20
19215.1806865
 30
0.0
 40
160.0
  1
間柱（側）
 72
     4
 11
24548.857006833328
 21
19295.1806865
 31
0.0
  0
TEXT
  5
1E74
  8
2-0
  6
CONTINUOUS
 62
     7
 10
26446.113992499999
 20
20744.228406999999
 30
0.0
 40
160.0
  1
後柱（左右）
 50
0.000354
 72
     4
 11
26958.113498212981
 21
20824.231570372842
 31
0.0
  0
TEXT
  5
1E75
  8
2-0
  6
CONTINUOUS
 62
     7
 10
23112.2072415
 20
14984.069213999979
 30
0.0
 40
160.0
  1
前柱（中）
 72
     4
 11
23528.2072415
 21
15064.069213999979
 31
0.0
  0
TEXT
  5
1E76
  8
2-0
  6
CONTINUOUS
 62
     7
 10
21548.987355500009
 20
19297.111246000011
 30
0.0
 40
160.0
  1
間柱（後）
 72
     4
 11
21970.320688833341
 21
19377.111246000011
 31
0.0
  0
TEXT
  5
1E77
  8
2-0
  6
CONTINUOUS
 62
     7
 10
22983.411844500009
 20
19365.855967000021
 30
0.0
 40
160.0
  1
後柱（中）
 72
     4
 11
23399.411844500009
 21
19445.855967000021
 31
0.0
  0
TEXT
  5
1E78
  8
2-0
  6
CONTINUOUS
 62
     7
 10
18217.666845499982
 20
19797.250472000011
 30
0.0
 40
160.0
  1
C
 72
     4
 11
18271.00017883331
 21
19877.250472000011
 31
0.0
  0
TEXT
  5
1E79
  8
2-0
  6
CONTINUOUS
 62
     7
 10
18217.887561499982
 20
17253.836832000019
 30
0.0
 40
160.0
  1
B
 72
     4
 11
18271.22089483331
 21
17333.836832000019
 31
0.0
  0
TEXT
  5
1E7A
  8
2-0
  6
CONTINUOUS
 62
     7
 10
18217.930121500001
 20
14317.62370299999
 30
0.0
 40
160.0
  1
A
 72
     4
 11
18271.26345483333
 21
14397.62370299999
 31
0.0
  0
TEXT
  5
1E7B
  8
2-0
  6
CONTINUOUS
 62
     7
 10
22661.486696499989
 20
21238.708189000019
 30
0.0
 40
160.0
  1
2
 72
     4
 11
22714.820029833321
 21
21318.708189000019
 31
0.0
  0
TEXT
  5
1E7C
  8
2-0
  6
CONTINUOUS
 62
     7
 10
19750.911870499978
 20
21245.466266000029
 30
0.0
 40
160.0
  1
1
 72
     4
 11
19777.57853716665
 21
21325.466266000029
 31
0.0
  0
LINE
  5
1E8A
  8
2-0
  6
CONTINUOUS
 62
     3
 10
24891.61906049999
 20
19934.229199000019
 30
0.0
 11
24854.61789849999
 21
19934.229199000019
 31
0.0
  0
LINE
  5
1E8B
  8
2-0
  6
CONTINUOUS
 62
     3
 10
24891.61906049999
 20
19904.22563600001
 30
0.0
 11
24891.61906049999
 21
19934.229199000019
 31
0.0
  0
LINE
  5
1E8C
  8
2-0
  6
CONTINUOUS
 62
     3
 10
24885.619139499981
 20
19904.22563600001
 30
0.0
 11
24891.61906049999
 21
19904.22563600001
 31
0.0
  0
LINE
  5
1E8D
  8
2-0
  6
CONTINUOUS
 62
     3
 10
24901.716584499991
 20
19904.22563600001
 30
0.0
 11
24901.716584499991
 21
19934.229199000019
 31
0.0
  0
LINE
  5
1E8E
  8
2-0
  6
CONTINUOUS
 62
     3
 10
24883.71286349999
 20
19904.22563600001
 30
0.0
 11
24901.716584499991
 21
19904.22563600001
 31
0.0
  0
LINE
  5
1E8F
  8
2-0
  6
CONTINUOUS
 62
     3
 10
24883.71286349999
 20
19929.234873000001
 30
0.0
 11
24883.71286349999
 21
19904.22563600001
 31
0.0
  0
LINE
  5
1E90
  8
2-0
  6
CONTINUOUS
 62
     3
 10
24888.713127499988
 20
19929.234873000001
 30
0.0
 11
24883.71286349999
 21
19929.234873000001
 31
0.0
  0
LINE
  5
1E91
  8
2-0
  6
CONTINUOUS
 62
     3
 10
24888.713127499988
 20
19922.229357000011
 30
0.0
 11
24888.713127499988
 21
19929.234873000001
 31
0.0
  0
LINE
  5
1E92
  8
2-0
  6
CONTINUOUS
 62
     3
 10
24857.523832499981
 20
19922.229357000011
 30
0.0
 11
24857.523832499981
 21
19929.234873000001
 31
0.0
  0
LINE
  5
1E93
  8
2-0
  6
CONTINUOUS
 62
     3
 10
24857.523832499981
 20
19929.234873000001
 30
0.0
 11
24862.52409649999
 21
19929.234873000001
 31
0.0
  0
LINE
  5
1E94
  8
2-0
  6
CONTINUOUS
 62
     3
 10
24862.52409649999
 20
19929.234873000001
 30
0.0
 11
24862.52409649999
 21
19904.22563600001
 31
0.0
  0
LINE
  5
1E95
  8
2-0
  6
CONTINUOUS
 62
     3
 10
24862.52409649999
 20
19904.22563600001
 30
0.0
 11
24844.52433349999
 21
19904.22563600001
 31
0.0
  0
LINE
  5
1E96
  8
2-0
  6
CONTINUOUS
 62
     3
 10
24844.52433349999
 20
19904.22563600001
 30
0.0
 11
24844.52433349999
 21
19934.229199000019
 31
0.0
  0
LINE
  5
1E97
  8
2-0
  6
CONTINUOUS
 62
     3
 10
24860.617819499988
 20
19904.22563600001
 30
0.0
 11
24854.61789849999
 21
19904.22563600001
 31
0.0
  0
LINE
  5
1E98
  8
2-0
  6
CONTINUOUS
 62
     3
 10
24854.61789849999
 20
19904.22563600001
 30
0.0
 11
24854.61789849999
 21
19934.229199000019
 31
0.0
  0
LINE
  5
1E99
  8
2-0
  6
CONTINUOUS
 62
     3
 10
23486.70817799999
 20
19922.229357000011
 30
0.0
 11
23486.70817799999
 21
19929.234873000001
 31
0.0
  0
LINE
  5
1E9A
  8
2-0
  6
CONTINUOUS
 62
     3
 10
23486.70817799999
 20
19929.234873000001
 30
0.0
 11
23481.707913999991
 21
19929.234873000001
 31
0.0
  0
LINE
  5
1E9B
  8
2-0
  6
CONTINUOUS
 62
     3
 10
23481.707913999991
 20
19929.234873000001
 30
0.0
 11
23481.707913999991
 21
19904.22563600001
 31
0.0
  0
LINE
  5
1E9C
  8
2-0
  6
CONTINUOUS
 62
     3
 10
23481.707913999991
 20
19904.22563600001
 30
0.0
 11
23499.713614999979
 21
19904.22563600001
 31
0.0
  0
LINE
  5
1E9D
  8
2-0
  6
CONTINUOUS
 62
     3
 10
23499.713614999979
 20
19904.22563600001
 30
0.0
 11
23499.713614999979
 21
19934.229199000019
 31
0.0
  0
LINE
  5
1E9E
  8
2-0
  6
CONTINUOUS
 62
     3
 10
23483.61616999999
 20
19904.22563600001
 30
0.0
 11
23489.61807
 21
19904.22563600001
 31
0.0
  0
LINE
  5
1E9F
  8
2-0
  6
CONTINUOUS
 62
     3
 10
23489.61807
 20
19904.22563600001
 30
0.0
 11
23489.61807
 21
19934.229199000019
 31
0.0
  0
LINE
  5
1EA0
  8
2-0
  6
CONTINUOUS
 62
     3
 10
23452.618888999968
 20
19934.229199000019
 30
0.0
 11
23489.61807
 21
19934.229199000019
 31
0.0
  0
LINE
  5
1EA1
  8
2-0
  6
CONTINUOUS
 62
     3
 10
23452.618888999968
 20
19904.22563600001
 30
0.0
 11
23452.618888999968
 21
19934.229199000019
 31
0.0
  0
LINE
  5
1EA2
  8
2-0
  6
CONTINUOUS
 62
     3
 10
23458.61287099999
 20
19904.22563600001
 30
0.0
 11
23452.618888999968
 21
19904.22563600001
 31
0.0
  0
LINE
  5
1EA3
  8
2-0
  6
CONTINUOUS
 62
     3
 10
23442.523344000001
 20
19904.22563600001
 30
0.0
 11
23442.523344000001
 21
19934.229199000019
 31
0.0
  0
LINE
  5
1EA4
  8
2-0
  6
CONTINUOUS
 62
     3
 10
23460.519146999992
 20
19904.22563600001
 30
0.0
 11
23442.523344000001
 21
19904.22563600001
 31
0.0
  0
LINE
  5
1EA5
  8
2-0
  6
CONTINUOUS
 62
     3
 10
23460.519146999992
 20
19929.234873000001
 30
0.0
 11
23460.519146999992
 21
19904.22563600001
 31
0.0
  0
LINE
  5
1EA6
  8
2-0
  6
CONTINUOUS
 62
     3
 10
23455.51888299999
 20
19929.234873000001
 30
0.0
 11
23460.519146999992
 21
19929.234873000001
 31
0.0
  0
LINE
  5
1EA7
  8
2-0
  6
CONTINUOUS
 62
     3
 10
23455.51888299999
 20
19922.229357000011
 30
0.0
 11
23455.51888299999
 21
19929.234873000001
 31
0.0
  0
LINE
  5
1EA8
  8
2-0
  6
CONTINUOUS
 62
     3
 10
24156.51789399999
 20
19922.229357000011
 30
0.0
 11
24156.51789399999
 21
19929.234873000001
 31
0.0
  0
LINE
  5
1EA9
  8
2-0
  6
CONTINUOUS
 62
     3
 10
24156.51789399999
 20
19929.234873000001
 30
0.0
 11
24161.518156999991
 21
19929.234873000001
 31
0.0
  0
LINE
  5
1EAA
  8
2-0
  6
CONTINUOUS
 62
     3
 10
24161.518156999991
 20
19929.234873000001
 30
0.0
 11
24161.518156999991
 21
19904.22563600001
 31
0.0
  0
LINE
  5
1EAB
  8
2-0
  6
CONTINUOUS
 62
     3
 10
24161.518156999991
 20
19904.22563600001
 30
0.0
 11
24143.52433399998
 21
19904.22563600001
 31
0.0
  0
LINE
  5
1EAC
  8
2-0
  6
CONTINUOUS
 62
     3
 10
24143.52433399998
 20
19904.22563600001
 30
0.0
 11
24143.52433399998
 21
19934.229199000019
 31
0.0
  0
LINE
  5
1EAD
  8
2-0
  6
CONTINUOUS
 62
     3
 10
24159.615839999969
 20
19904.22563600001
 30
0.0
 11
24153.61789899999
 21
19904.22563600001
 31
0.0
  0
LINE
  5
1EAE
  8
2-0
  6
CONTINUOUS
 62
     3
 10
24153.61789899999
 20
19904.22563600001
 30
0.0
 11
24153.61789899999
 21
19934.229199000019
 31
0.0
  0
LINE
  5
1EAF
  8
2-0
  6
CONTINUOUS
 62
     3
 10
24190.61905999999
 20
19934.229199000019
 30
0.0
 11
24153.61789899999
 21
19934.229199000019
 31
0.0
  0
LINE
  5
1EB0
  8
2-0
  6
CONTINUOUS
 62
     3
 10
24190.61905999999
 20
19904.22563600001
 30
0.0
 11
24190.61905999999
 21
19934.229199000019
 31
0.0
  0
LINE
  5
1EB1
  8
2-0
  6
CONTINUOUS
 62
     3
 10
24184.613201
 20
19904.22563600001
 30
0.0
 11
24190.61905999999
 21
19904.22563600001
 31
0.0
  0
LINE
  5
1EB2
  8
2-0
  6
CONTINUOUS
 62
     3
 10
24200.712625
 20
19904.22563600001
 30
0.0
 11
24200.712625
 21
19934.229199000019
 31
0.0
  0
LINE
  5
1EB3
  8
2-0
  6
CONTINUOUS
 62
     3
 10
24182.716821999991
 20
19904.22563600001
 30
0.0
 11
24200.712625
 21
19904.22563600001
 31
0.0
  0
LINE
  5
1EB4
  8
2-0
  6
CONTINUOUS
 62
     3
 10
24182.716821999991
 20
19929.234873000001
 30
0.0
 11
24182.716821999991
 21
19904.22563600001
 31
0.0
  0
LINE
  5
1EB5
  8
2-0
  6
CONTINUOUS
 62
     3
 10
24187.707187999978
 20
19929.234873000001
 30
0.0
 11
24182.716821999991
 21
19929.234873000001
 31
0.0
  0
LINE
  5
1EB6
  8
2-0
  6
CONTINUOUS
 62
     3
 10
24187.707187999978
 20
19922.229357000011
 30
0.0
 11
24187.707187999978
 21
19929.234873000001
 31
0.0
  0
LINE
  5
1EB7
  8
2-0
  6
CONTINUOUS
 62
     3
 10
23499.713614999979
 20
19934.229199000019
 30
0.0
 11
24143.52433399998
 21
19934.229199000019
 31
0.0
  0
LINE
  5
1EB8
  8
2-0
  6
CONTINUOUS
 62
     3
 10
22795.236828500001
 20
19934.229199000019
 30
0.0
 11
23442.523344000001
 21
19934.229199000019
 31
0.0
  0
LINE
  5
1EB9
  8
2-0
  6
CONTINUOUS
 62
     3
 10
25549.00210949999
 20
19934.229199000019
 30
0.0
 11
24901.716584499991
 21
19934.229199000019
 31
0.0
  0
LINE
  5
1EBA
  8
2-0
  6
CONTINUOUS
 62
     3
 10
24844.52433349999
 20
19934.229199000019
 30
0.0
 11
24200.712625
 21
19934.229199000019
 31
0.0
  0
LINE
  5
1ECB
  8
2-0
  6
CONTINUOUS
 62
     3
 10
22631.690982500011
 20
19934.229199000019
 30
0.0
 11
21983.716584499991
 21
19934.229199000019
 31
0.0
  0
LINE
  5
1ECC
  8
2-0
  6
CONTINUOUS
 62
     3
 10
25673.616763499991
 20
15836.870351
 30
0.0
 11
25673.616763499991
 21
15192.831493000011
 31
0.0
  0
LINE
  5
1ECD
  8
2-0
  6
CONTINUOUS
 62
     3
 10
25673.616763499991
 20
15135.635283
 30
0.0
 11
25673.616763499991
 21
14488.768921000001
 31
0.0
  0
CIRCLE
  5
1EDE
  8
2-0
  6
CONTINUOUS
 62
     4
 10
25631.11847949999
 20
21334.233818000012
 30
0.0
 40
200.00001
  0
TEXT
  5
1EDF
  8
2-0
  6
CONTINUOUS
 62
     7
 10
25579.4866965
 20
21238.708189000019
 30
0.0
 40
160.0
  1
3
 72
     4
 11
25632.820029833329
 21
21318.708189000019
 31
0.0
  0
LINE
  5
2E1D
  8
SUNPOU
  6
CONTINUOUS
 10
8220.1607094999908
 20
20114.226823000001
 30
0.0
 11
8220.1607094999908
 21
20911.19409077847
 31
0.0
  0
LINE
  5
2EA3
  8
SUNPOU
  6
CONTINUOUS
 10
8220.1607094999908
 20
14213.735599000011
 30
0.0
 11
8220.1607094999908
 21
13538.309483189631
 31
0.0
  0
LINE
  5
2ECF
  8
0-6
  6
CONTINUOUS
 62
     6
 10
10901.948364010699
 20
13413.732959000001
 30
0.0
 11
11701.9480340107
 21
13413.732959000001
 31
0.0
  0
LINE
  5
32AC
  8
WAKUSEN-01
 10
868.00000000000193
 20
22484.000000000011
 30
0.0
 11
32764.000000000011
 21
22484.000000000011
 31
0.0
  0
LINE
  5
32AF
  8
WAKUSEN-01
 10
20560.0
 20
2484.0
 30
0.0
 11
32764.0
 21
2484.0
 31
0.0
  0
LINE
  5
32B0
  8
WAKUSEN-02
 10
20560.0
 20
1655.9999999999991
 30
0.0
 11
26868.0
 21
1655.9999999999991
 31
0.0
  0
TEXT
  5
32B1
  8
WAKUMOJI-01
 10
20670.260259962761
 20
2125.9030093393221
 30
0.0
 40
240.0
  1
名　称
  7
WAKUMOJI
  0
TEXT
  5
32B2
  8
WAKUMOJI-01
 10
20656.505485091919
 20
1319.12897497982
 30
0.0
 40
240.0
  1
機種名
  7
WAKUMOJI
  0
LINE
  5
32B5
  8
YODOROGO
 10
29977.604341291921
 20
1995.7494964292871
 30
0.0
 11
29829.604341291921
 21
1995.7494964292871
 31
0.0
1001
AUTOCAD_POSTSCRIPT_FIGURE
1002
{
1000
PSFILL
1000
Grayscale
1000
Grayscale
1070
    25
1002
}
  0
LINE
  5
32B6
  8
YODOROGO
 10
29829.604341291921
 20
1947.749496429288
 30
0.0
 11
29977.604341291921
 21
1947.749496429288
 31
0.0
1001
AUTOCAD_POSTSCRIPT_FIGURE
1002
{
1000
PSFILL
1000
Grayscale
1000
Grayscale
1070
    25
1002
}
  0
LINE
  5
32B7
  8
YODOROGO
 10
29977.604341291921
 20
1907.7494964292871
 30
0.0
 11
29829.604341291921
 21
1907.7494964292871
 31
0.0
1001
AUTOCAD_POSTSCRIPT_FIGURE
1002
{
1000
PSFILL
1000
Grayscale
1000
Grayscale
1070
    25
1002
}
  0
LINE
  5
32B8
  8
YODOROGO
 10
29829.604341291921
 20
1859.749496429288
 30
0.0
 11
29977.604341291921
 21
1859.749496429288
 31
0.0
1001
AUTOCAD_POSTSCRIPT_FIGURE
1002
{
1000
PSFILL
1000
Grayscale
1000
Grayscale
1070
    25
1002
}
  0
LINE
  5
32B9
  8
YODOROGO
 10
29977.604341291921
 20
1819.7494964292871
 30
0.0
 11
29829.604341291921
 21
1819.7494964292871
 31
0.0
1001
AUTOCAD_POSTSCRIPT_FIGURE
1002
{
1000
PSFILL
1000
Grayscale
1000
Grayscale
1070
    25
1002
}
  0
LINE
  5
32BA
  8
YODOROGO
 10
29921.60434129191
 20
1707.749496429288
 30
0.0
 11
29977.604341291921
 21
1707.749496429288
 31
0.0
1001
AUTOCAD_POSTSCRIPT_FIGURE
1002
{
1000
PSFILL
1000
Grayscale
1000
Grayscale
1070
    25
1002
}
  0
LINE
  5
32BB
  8
YODOROGO
 10
29737.604341291921
 20
1427.749496429288
 30
0.0
 11
29937.604341291932
 21
1481.3393349155101
 31
0.0
  0
LINE
  5
32BC
  8
YODOROGO
 10
29949.60434129191
 20
1707.749496429288
 30
0.0
 11
29885.604341291921
 21
1707.749496429288
 31
0.0
  0
ARC
  5
32BD
  8
YODOROGO
 10
30254.34774982791
 20
1807.864609233261
 30
0.0
 40
381.88686420564721
 50
213.96111677667841
 51
264.47872074317792
  0
ARC
  5
32BE
  8
YODOROGO
 10
30254.347749827921
 20
1807.864609233302
 30
0.0
 40
381.8868642056816
 50
208.14114420486601
 51
212.92103611859949
  0
LINE
  5
32BF
  8
YODOROGO
 10
29771.409872985321
 20
1556.807661346234
 30
0.0
 11
29933.78413250855
 21
1600.3157130570869
 31
0.0
  0
LINE
  5
32C0
  8
YODOROGO
 10
29737.604341291921
 20
1427.749496429288
 30
0.0
 11
29937.604341291932
 21
1481.3393349155101
 31
0.0
  0
LINE
  5
32C1
  8
YODOROGO
 10
29949.60434129191
 20
1707.749496429288
 30
0.0
 11
29885.604341291921
 21
1707.749496429288
 31
0.0
  0
ARC
  5
32C2
  8
YODOROGO
 10
30254.34774982791
 20
1807.864609233261
 30
0.0
 40
381.88686420564721
 50
213.96111677667841
 51
264.47872074317792
  0
LINE
  5
32C3
  8
YODOROGO
 10
28793.60434129191
 20
1819.7494964292871
 30
0.0
 11
28433.60434129191
 21
1819.7494964292871
 31
0.0
  0
LINE
  5
32C4
  8
YODOROGO
 10
28513.60434129191
 20
1427.749496429288
 30
0.0
 11
28793.60434129191
 21
1427.749496429288
 31
0.0
  0
LINE
  5
32C5
  8
YODOROGO
 10
28729.604341291921
 20
1923.7494964292871
 30
0.0
 11
28497.60434129191
 21
1923.7494964292871
 31
0.0
  0
LINE
  5
32C6
  8
YODOROGO
 10
28585.604341291921
 20
2027.749496429288
 30
0.0
 11
28657.604341291921
 21
2027.749496429288
 31
0.0
  0
LINE
  5
32C7
  8
YODOROGO
 10
28433.60434129191
 20
1707.749496429288
 30
0.0
 11
28433.60434129191
 21
1507.749496429288
 31
0.0
  0
LINE
  5
32C8
  8
YODOROGO
 10
28497.60434129191
 20
1563.7494964292871
 30
0.0
 11
28497.60434129191
 21
1707.749496429288
 31
0.0
  0
LINE
  5
32C9
  8
YODOROGO
 10
28585.604341291921
 20
1747.74949642929
 30
0.0
 11
28585.604341291921
 21
1547.749496429288
 31
0.0
  0
LINE
  5
32CA
  8
YODOROGO
 10
27857.604341291921
 20
1683.749496429288
 30
0.0
 11
27777.604341291921
 21
1619.9724140445701
 31
0.0
  0
LINE
  5
32CB
  8
YODOROGO
 10
27937.604341291921
 20
1619.9724140445701
 30
0.0
 11
27857.604341291921
 21
1683.749496429288
 31
0.0
  0
LINE
  5
32CC
  8
YODOROGO
 10
27857.604341291921
 20
1707.749496429288
 30
0.0
 11
27937.604341291921
 21
1643.9724140445701
 31
0.0
  0
LINE
  5
32CD
  8
YODOROGO
 10
27777.604341291921
 20
1643.9724140445701
 30
0.0
 11
27857.604341291921
 21
1707.749496429288
 31
0.0
  0
LINE
  5
32CE
  8
YODOROGO
 10
28040.913204016899
 20
1659.749496429288
 30
0.0
 11
28040.913204016899
 21
1683.7494964292871
 31
0.0
  0
LINE
  5
32CF
  8
YODOROGO
 10
27977.604341291921
 20
1683.7494964292871
 30
0.0
 11
27977.604341291921
 21
1667.749496429285
 31
0.0
  0
LINE
  5
32D0
  8
YODOROGO
 10
28098.135520230931
 20
1707.749496429288
 30
0.0
 11
28098.135520230931
 21
1655.5036372746561
 31
0.0
1001
AUTOCAD_POSTSCRIPT_FIGURE
1002
{
1000
PSFILL
1000
Grayscale
1000
Grayscale
1070
   100
1002
}
  0
LINE
  5
32D1
  8
YODOROGO
 10
28082.135520230921
 20
1655.5036372746561
 30
0.0
 11
28082.135520230921
 21
1707.749496429288
 31
0.0
1001
AUTOCAD_POSTSCRIPT_FIGURE
1002
{
1000
PSFILL
1000
Grayscale
1000
Grayscale
1070
   100
1002
}
  0
LINE
  5
32D2
  8
YODOROGO
 10
27809.604341291921
 20
1608.771904043258
 30
0.0
 11
27809.604341291921
 21
1632.7719040432589
 31
0.0
  0
LINE
  5
32D3
  8
YODOROGO
 10
27905.604341291921
 20
1608.771904043258
 30
0.0
 11
27809.604341291921
 21
1608.771904043258
 31
0.0
  0
LINE
  5
32D4
  8
YODOROGO
 10
27905.604341291921
 20
1632.7719040432589
 30
0.0
 11
27905.604341291921
 21
1608.771904043258
 31
0.0
  0
LINE
  5
32D5
  8
YODOROGO
 10
27809.604341291921
 20
1632.7719040432589
 30
0.0
 11
27905.604341291921
 21
1632.7719040432589
 31
0.0
  0
LINE
  5
32D6
  8
YODOROGO
 10
27824.509588915749
 20
1568.502857370474
 30
0.0
 11
27785.604341291921
 21
1475.7494964292871
 31
0.0
1001
AUTOCAD_POSTSCRIPT_FIGURE
1002
{
1000
PSFILL
1000
Grayscale
1000
Grayscale
1070
   100
1002
}
  0
LINE
  5
32D7
  8
YODOROGO
 10
27777.604341291921
 20
1568.502857370474
 30
0.0
 11
27824.509588915749
 21
1568.502857370474
 31
0.0
1001
AUTOCAD_POSTSCRIPT_FIGURE
1002
{
1000
PSFILL
1000
Grayscale
1000
Grayscale
1070
   100
1002
}
  0
LINE
  5
32D8
  8
YODOROGO
 10
27777.604341291921
 20
1588.5028573704751
 30
0.0
 11
27777.604341291921
 21
1568.502857370474
 31
0.0
1001
AUTOCAD_POSTSCRIPT_FIGURE
1002
{
1000
PSFILL
1000
Grayscale
1000
Grayscale
1070
   100
1002
}
  0
LINE
  5
32D9
  8
YODOROGO
 10
27937.604341291921
 20
1588.5028573704751
 30
0.0
 11
27777.604341291921
 21
1588.5028573704751
 31
0.0
1001
AUTOCAD_POSTSCRIPT_FIGURE
1002
{
1000
PSFILL
1000
Grayscale
1000
Grayscale
1070
   100
1002
}
  0
LINE
  5
32DA
  8
YODOROGO
 10
27937.604341291921
 20
1568.502857370474
 30
0.0
 11
27937.604341291921
 21
1588.5028573704751
 31
0.0
1001
AUTOCAD_POSTSCRIPT_FIGURE
1002
{
1000
PSFILL
1000
Grayscale
1000
Grayscale
1070
   100
1002
}
  0
LINE
  5
32DB
  8
YODOROGO
 10
27844.50958891576
 20
1568.502857370474
 30
0.0
 11
27937.604341291921
 21
1568.502857370474
 31
0.0
1001
AUTOCAD_POSTSCRIPT_FIGURE
1002
{
1000
PSFILL
1000
Grayscale
1000
Grayscale
1070
   100
1002
}
  0
LINE
  5
32DC
  8
YODOROGO
 10
27815.546718284779
 20
1495.7494964292871
 30
0.0
 11
27844.50958891576
 21
1568.502857370474
 31
0.0
1001
AUTOCAD_POSTSCRIPT_FIGURE
1002
{
1000
PSFILL
1000
Grayscale
1000
Grayscale
1070
   100
1002
}
  0
LINE
  5
32DD
  8
YODOROGO
 10
27902.054790808648
 20
1495.7494964292871
 30
0.0
 11
27815.546718284779
 21
1495.7494964292871
 31
0.0
1001
AUTOCAD_POSTSCRIPT_FIGURE
1002
{
1000
PSFILL
1000
Grayscale
1000
Grayscale
1070
   100
1002
}
  0
LINE
  5
32DE
  8
YODOROGO
 10
27885.065004790951
 20
1536.2338106976929
 30
0.0
 11
27902.054790808648
 21
1495.7494964292871
 31
0.0
1001
AUTOCAD_POSTSCRIPT_FIGURE
1002
{
1000
PSFILL
1000
Grayscale
1000
Grayscale
1070
   100
1002
}
  0
LINE
  5
32DF
  8
YODOROGO
 10
27901.065004790951
 20
1536.2338106976929
 30
0.0
 11
27885.065004790951
 21
1536.2338106976929
 31
0.0
1001
AUTOCAD_POSTSCRIPT_FIGURE
1002
{
1000
PSFILL
1000
Grayscale
1000
Grayscale
1070
   100
1002
}
  0
LINE
  5
32E0
  8
YODOROGO
 10
27929.604341291921
 20
1475.7494964292871
 30
0.0
 11
27901.065004790951
 21
1536.2338106976929
 31
0.0
1001
AUTOCAD_POSTSCRIPT_FIGURE
1002
{
1000
PSFILL
1000
Grayscale
1000
Grayscale
1070
   100
1002
}
  0
LINE
  5
32E1
  8
YODOROGO
 10
27785.604341291921
 20
1475.7494964292871
 30
0.0
 11
27929.604341291921
 21
1475.7494964292871
 31
0.0
1001
AUTOCAD_POSTSCRIPT_FIGURE
1002
{
1000
PSFILL
1000
Grayscale
1000
Grayscale
1070
   100
1002
}
  0
LINE
  5
32E2
  8
YODOROGO
 10
27777.604341291921
 20
1619.9724140445701
 30
0.0
 11
27777.604341291921
 21
1643.9724140445701
 31
0.0
  0
LINE
  5
32E3
  8
YODOROGO
 10
27937.604341291921
 20
1643.9724140445701
 30
0.0
 11
27937.604341291921
 21
1619.9724140445701
 31
0.0
  0
ARC
  5
32E4
  8
YODOROGO
 10
28225.940442146959
 20
1600.877765325326
 30
0.0
 40
175.99999999999989
 50
280.3644312771313
 51
3.5414836592180561
  0
ARC
  5
32E5
  8
YODOROGO
 10
28235.756030759301
 20
1633.5978069619041
 30
0.0
 40
111.99999999999829
 50
281.24905825041549
 51
348.75094174958321
  0
LINE
  5
32E6
  8
YODOROGO
 10
28257.604341291921
 20
1523.7494964292871
 30
0.0
 11
28257.604341291921
 21
1427.749496429288
 31
0.0
  0
LINE
  5
32E7
  8
YODOROGO
 10
28020.088903736909
 20
1610.650565061914
 30
0.0
 11
28040.913204016899
 21
1659.749496429288
 31
0.0
  0
LINE
  5
32E8
  8
YODOROGO
 10
28041.604341291921
 20
1583.120489948401
 30
0.0
 11
28020.088903736909
 21
1610.650565061914
 31
0.0
  0
LINE
  5
32E9
  8
YODOROGO
 10
28041.604341291921
 20
1563.120489948398
 30
0.0
 11
28041.604341291921
 21
1583.120489948401
 31
0.0
  0
LINE
  5
32EA
  8
YODOROGO
 10
28017.604341291921
 20
1585.2370637495301
 30
0.0
 11
28041.604341291921
 21
1563.120489948398
 31
0.0
  0
LINE
  5
32EB
  8
YODOROGO
 10
28017.604341291921
 20
1475.7494964292871
 30
0.0
 11
28017.604341291921
 21
1585.2370637495301
 31
0.0
  0
LINE
  5
32EC
  8
YODOROGO
 10
28001.604341291921
 20
1475.7494964292871
 30
0.0
 11
28017.604341291921
 21
1475.7494964292871
 31
0.0
  0
LINE
  5
32ED
  8
YODOROGO
 10
28001.604341291921
 20
1580.0053496897469
 30
0.0
 11
28001.604341291921
 21
1475.7494964292871
 31
0.0
  0
LINE
  5
32EE
  8
YODOROGO
 10
27977.604341291921
 20
1532.7680790334291
 30
0.0
 11
28001.604341291921
 21
1580.0053496897469
 31
0.0
  0
LINE
  5
32EF
  8
YODOROGO
 10
27977.604341291921
 20
1556.76807903343
 30
0.0
 11
27977.604341291921
 21
1532.7680790334291
 31
0.0
  0
LINE
  5
32F0
  8
YODOROGO
 10
28025.828774291349
 20
1667.749496429285
 30
0.0
 11
27977.604341291921
 21
1556.76807903343
 31
0.0
  0
LINE
  5
32F1
  8
YODOROGO
 10
27977.604341291921
 20
1667.749496429285
 30
0.0
 11
28025.828774291349
 21
1667.749496429285
 31
0.0
  0
LINE
  5
32F2
  8
YODOROGO
 10
28050.135520230899
 20
1655.5036372746561
 30
0.0
 11
28082.135520230921
 21
1655.5036372746561
 31
0.0
1001
AUTOCAD_POSTSCRIPT_FIGURE
1002
{
1000
PSFILL
1000
Grayscale
1000
Grayscale
1070
   100
1002
}
  0
LINE
  5
32F3
  8
YODOROGO
 10
28050.135520230899
 20
1631.5036372746561
 30
0.0
 11
28050.135520230899
 21
1655.5036372746561
 31
0.0
1001
AUTOCAD_POSTSCRIPT_FIGURE
1002
{
1000
PSFILL
1000
Grayscale
1000
Grayscale
1070
   100
1002
}
  0
LINE
  5
32F4
  8
YODOROGO
 10
28082.135520230921
 20
1631.5036372746561
 30
0.0
 11
28050.135520230899
 21
1631.5036372746561
 31
0.0
1001
AUTOCAD_POSTSCRIPT_FIGURE
1002
{
1000
PSFILL
1000
Grayscale
1000
Grayscale
1070
   100
1002
}
  0
LINE
  5
32F5
  8
YODOROGO
 10
28082.135520230921
 20
1499.749496429288
 30
0.0
 11
28082.135520230921
 21
1631.5036372746561
 31
0.0
1001
AUTOCAD_POSTSCRIPT_FIGURE
1002
{
1000
PSFILL
1000
Grayscale
1000
Grayscale
1070
   100
1002
}
  0
LINE
  5
32F6
  8
YODOROGO
 10
28050.135520230931
 20
1499.749496429288
 30
0.0
 11
28082.135520230921
 21
1499.749496429288
 31
0.0
1001
AUTOCAD_POSTSCRIPT_FIGURE
1002
{
1000
PSFILL
1000
Grayscale
1000
Grayscale
1070
   100
1002
}
  0
LINE
  5
32F7
  8
YODOROGO
 10
28050.135520230931
 20
1475.7494964292871
 30
0.0
 11
28050.135520230931
 21
1499.749496429288
 31
0.0
1001
AUTOCAD_POSTSCRIPT_FIGURE
1002
{
1000
PSFILL
1000
Grayscale
1000
Grayscale
1070
   100
1002
}
  0
LINE
  5
32F8
  8
YODOROGO
 10
28137.604341291921
 20
1475.7494964292871
 30
0.0
 11
28050.135520230931
 21
1475.7494964292871
 31
0.0
1001
AUTOCAD_POSTSCRIPT_FIGURE
1002
{
1000
PSFILL
1000
Grayscale
1000
Grayscale
1070
   100
1002
}
  0
LINE
  5
32F9
  8
YODOROGO
 10
28137.604341291921
 20
1499.749496429288
 30
0.0
 11
28137.604341291921
 21
1475.7494964292871
 31
0.0
1001
AUTOCAD_POSTSCRIPT_FIGURE
1002
{
1000
PSFILL
1000
Grayscale
1000
Grayscale
1070
   100
1002
}
  0
LINE
  5
32FA
  8
YODOROGO
 10
28098.135520230931
 20
1499.749496429288
 30
0.0
 11
28137.604341291921
 21
1499.749496429288
 31
0.0
1001
AUTOCAD_POSTSCRIPT_FIGURE
1002
{
1000
PSFILL
1000
Grayscale
1000
Grayscale
1070
   100
1002
}
  0
LINE
  5
32FB
  8
YODOROGO
 10
28098.135520230931
 20
1631.5036372746561
 30
0.0
 11
28098.135520230931
 21
1499.749496429288
 31
0.0
1001
AUTOCAD_POSTSCRIPT_FIGURE
1002
{
1000
PSFILL
1000
Grayscale
1000
Grayscale
1070
   100
1002
}
  0
LINE
  5
32FC
  8
YODOROGO
 10
28137.604341291921
 20
1631.5036372746561
 30
0.0
 11
28098.135520230931
 21
1631.5036372746561
 31
0.0
1001
AUTOCAD_POSTSCRIPT_FIGURE
1002
{
1000
PSFILL
1000
Grayscale
1000
Grayscale
1070
   100
1002
}
  0
LINE
  5
32FD
  8
YODOROGO
 10
28137.604341291921
 20
1655.5036372746561
 30
0.0
 11
28137.604341291921
 21
1631.5036372746561
 31
0.0
1001
AUTOCAD_POSTSCRIPT_FIGURE
1002
{
1000
PSFILL
1000
Grayscale
1000
Grayscale
1070
   100
1002
}
  0
LINE
  5
32FE
  8
YODOROGO
 10
28098.135520230931
 20
1655.5036372746561
 30
0.0
 11
28137.604341291921
 21
1655.5036372746561
 31
0.0
1001
AUTOCAD_POSTSCRIPT_FIGURE
1002
{
1000
PSFILL
1000
Grayscale
1000
Grayscale
1070
   100
1002
}
  0
LINE
  5
32FF
  8
YODOROGO
 10
28401.60434129191
 20
1667.749496429288
 30
0.0
 11
28345.604341291921
 21
1667.749496429288
 31
0.0
  0
LINE
  5
3300
  8
YODOROGO
 10
28401.60434129191
 20
1611.749496429288
 30
0.0
 11
28401.60434129191
 21
1667.749496429288
 31
0.0
  0
LINE
  5
3301
  8
YODOROGO
 10
28345.604341291921
 20
1667.749496429288
 30
0.0
 11
28345.604341291921
 21
1611.749496429288
 31
0.0
  0
ARC
  5
3302
  8
YODOROGO
 10
28513.60434129191
 20
1507.749496429288
 30
0.0
 40
80.0
 50
180.0
 51
270.0
  0
ARC
  5
3303
  8
YODOROGO
 10
28537.604341291921
 20
1563.7494964292871
 30
0.0
 40
40.0
 50
180.0
 51
270.0
  0
LINE
  5
3304
  8
YODOROGO
 10
28561.604341291932
 20
1523.7494964292871
 30
0.0
 11
28537.604341291921
 21
1523.7494964292871
 31
0.0
  0
ARC
  5
3305
  8
YODOROGO
 10
28561.604341291932
 20
1547.749496429285
 30
0.0
 40
23.999999999996358
 50
270.0
 51
0.0000000000054281
  0
LINE
  5
3306
  8
YODOROGO
 10
27801.604341291921
 20
1890.786580793706
 30
0.0
 11
27777.604341291921
 21
1843.776747951672
 31
0.0
1001
AUTOCAD_POSTSCRIPT_FIGURE
1002
{
1000
PSFILL
1000
Grayscale
1000
Grayscale
1070
   100
1002
}
  0
LINE
  5
3307
  8
YODOROGO
 10
27801.604341291921
 20
1747.749496429286
 30
0.0
 11
27801.604341291921
 21
1890.786580793706
 31
0.0
1001
AUTOCAD_POSTSCRIPT_FIGURE
1002
{
1000
PSFILL
1000
Grayscale
1000
Grayscale
1070
   100
1002
}
  0
LINE
  5
3308
  8
YODOROGO
 10
27817.604341291921
 20
1747.749496429286
 30
0.0
 11
27801.604341291921
 21
1747.749496429286
 31
0.0
1001
AUTOCAD_POSTSCRIPT_FIGURE
1002
{
1000
PSFILL
1000
Grayscale
1000
Grayscale
1070
   100
1002
}
  0
LINE
  5
3309
  8
YODOROGO
 10
27817.604341291921
 20
1893.7713320852661
 30
0.0
 11
27817.604341291921
 21
1747.749496429286
 31
0.0
1001
AUTOCAD_POSTSCRIPT_FIGURE
1002
{
1000
PSFILL
1000
Grayscale
1000
Grayscale
1070
   100
1002
}
  0
LINE
  5
330A
  8
YODOROGO
 10
27841.604341291921
 20
1867.6547582841361
 30
0.0
 11
27817.604341291921
 21
1893.7713320852661
 31
0.0
1001
AUTOCAD_POSTSCRIPT_FIGURE
1002
{
1000
PSFILL
1000
Grayscale
1000
Grayscale
1070
   100
1002
}
  0
LINE
  5
330B
  8
YODOROGO
 10
27841.604341291921
 20
1883.6547582841361
 30
0.0
 11
27841.604341291921
 21
1867.6547582841361
 31
0.0
1001
AUTOCAD_POSTSCRIPT_FIGURE
1002
{
1000
PSFILL
1000
Grayscale
1000
Grayscale
1070
   100
1002
}
  0
LINE
  5
330C
  8
YODOROGO
 10
27817.604341291921
 20
1917.7713320852649
 30
0.0
 11
27841.604341291921
 21
1883.6547582841361
 31
0.0
1001
AUTOCAD_POSTSCRIPT_FIGURE
1002
{
1000
PSFILL
1000
Grayscale
1000
Grayscale
1070
   100
1002
}
  0
LINE
  5
330D
  8
YODOROGO
 10
27817.604341291921
 20
1939.749496429288
 30
0.0
 11
27817.604341291921
 21
1917.7713320852649
 31
0.0
1001
AUTOCAD_POSTSCRIPT_FIGURE
1002
{
1000
PSFILL
1000
Grayscale
1000
Grayscale
1070
   100
1002
}
  0
LINE
  5
330E
  8
YODOROGO
 10
27889.604341291921
 20
1939.749496429288
 30
0.0
 11
27817.604341291921
 21
1939.749496429288
 31
0.0
1001
AUTOCAD_POSTSCRIPT_FIGURE
1002
{
1000
PSFILL
1000
Grayscale
1000
Grayscale
1070
   100
1002
}
  0
LINE
  5
330F
  8
YODOROGO
 10
27889.604341291921
 20
1900.5683489363
 30
0.0
 11
27889.604341291921
 21
1939.749496429288
 31
0.0
1001
AUTOCAD_POSTSCRIPT_FIGURE
1002
{
1000
PSFILL
1000
Grayscale
1000
Grayscale
1070
   100
1002
}
  0
LINE
  5
3310
  8
YODOROGO
 10
27857.604341291921
 20
1900.5683489363
 30
0.0
 11
27889.604341291921
 21
1900.5683489363
 31
0.0
1001
AUTOCAD_POSTSCRIPT_FIGURE
1002
{
1000
PSFILL
1000
Grayscale
1000
Grayscale
1070
   100
1002
}
  0
LINE
  5
3311
  8
YODOROGO
 10
27857.604341291921
 20
1884.568348936298
 30
0.0
 11
27857.604341291921
 21
1900.5683489363
 31
0.0
1001
AUTOCAD_POSTSCRIPT_FIGURE
1002
{
1000
PSFILL
1000
Grayscale
1000
Grayscale
1070
   100
1002
}
  0
LINE
  5
3312
  8
YODOROGO
 10
27889.604341291921
 20
1884.568348936298
 30
0.0
 11
27857.604341291921
 21
1884.568348936298
 31
0.0
1001
AUTOCAD_POSTSCRIPT_FIGURE
1002
{
1000
PSFILL
1000
Grayscale
1000
Grayscale
1070
   100
1002
}
  0
LINE
  5
3313
  8
YODOROGO
 10
27889.604341291921
 20
1879.6191779644389
 30
0.0
 11
27889.604341291921
 21
1884.568348936298
 31
0.0
1001
AUTOCAD_POSTSCRIPT_FIGURE
1002
{
1000
PSFILL
1000
Grayscale
1000
Grayscale
1070
   100
1002
}
  0
LINE
  5
3314
  8
YODOROGO
 10
27849.604341291921
 20
1812.974981161417
 30
0.0
 11
27889.604341291921
 21
1879.6191779644389
 31
0.0
1001
AUTOCAD_POSTSCRIPT_FIGURE
1002
{
1000
PSFILL
1000
Grayscale
1000
Grayscale
1070
   100
1002
}
  0
LINE
  5
3315
  8
YODOROGO
 10
27849.604341291921
 20
1796.9749811614161
 30
0.0
 11
27849.604341291921
 21
1812.974981161417
 31
0.0
1001
AUTOCAD_POSTSCRIPT_FIGURE
1002
{
1000
PSFILL
1000
Grayscale
1000
Grayscale
1070
   100
1002
}
  0
LINE
  5
3316
  8
YODOROGO
 10
27889.604341291921
 20
1847.6191779644371
 30
0.0
 11
27849.604341291921
 21
1796.9749811614161
 31
0.0
1001
AUTOCAD_POSTSCRIPT_FIGURE
1002
{
1000
PSFILL
1000
Grayscale
1000
Grayscale
1070
   100
1002
}
  0
LINE
  5
3317
  8
YODOROGO
 10
27889.604341291921
 20
1747.749496429286
 30
0.0
 11
27889.604341291921
 21
1847.6191779644371
 31
0.0
1001
AUTOCAD_POSTSCRIPT_FIGURE
1002
{
1000
PSFILL
1000
Grayscale
1000
Grayscale
1070
   100
1002
}
  0
LINE
  5
3318
  8
YODOROGO
 10
27905.604341291921
 20
1747.749496429286
 30
0.0
 11
27889.604341291921
 21
1747.749496429286
 31
0.0
1001
AUTOCAD_POSTSCRIPT_FIGURE
1002
{
1000
PSFILL
1000
Grayscale
1000
Grayscale
1070
   100
1002
}
  0
LINE
  5
3319
  8
YODOROGO
 10
27905.604341291921
 20
1849.409012158806
 30
0.0
 11
27905.604341291921
 21
1747.749496429286
 31
0.0
1001
AUTOCAD_POSTSCRIPT_FIGURE
1002
{
1000
PSFILL
1000
Grayscale
1000
Grayscale
1070
   100
1002
}
  0
LINE
  5
331A
  8
YODOROGO
 10
27937.604341291921
 20
1796.9749811614161
 30
0.0
 11
27905.604341291921
 21
1849.409012158806
 31
0.0
1001
AUTOCAD_POSTSCRIPT_FIGURE
1002
{
1000
PSFILL
1000
Grayscale
1000
Grayscale
1070
   100
1002
}
  0
LINE
  5
331B
  8
YODOROGO
 10
27937.604341291921
 20
1812.974981161417
 30
0.0
 11
27937.604341291921
 21
1796.9749811614161
 31
0.0
1001
AUTOCAD_POSTSCRIPT_FIGURE
1002
{
1000
PSFILL
1000
Grayscale
1000
Grayscale
1070
   100
1002
}
  0
LINE
  5
331C
  8
YODOROGO
 10
27905.604341291921
 20
1881.4090121588081
 30
0.0
 11
27937.604341291921
 21
1812.974981161417
 31
0.0
1001
AUTOCAD_POSTSCRIPT_FIGURE
1002
{
1000
PSFILL
1000
Grayscale
1000
Grayscale
1070
   100
1002
}
  0
LINE
  5
331D
  8
YODOROGO
 10
27905.604341291939
 20
1884.5683489363
 30
0.0
 11
27905.604341291921
 21
1881.4090121588081
 31
0.0
1001
AUTOCAD_POSTSCRIPT_FIGURE
1002
{
1000
PSFILL
1000
Grayscale
1000
Grayscale
1070
   100
1002
}
  0
LINE
  5
331E
  8
YODOROGO
 10
27937.604341291921
 20
1884.568348936298
 30
0.0
 11
27905.604341291939
 21
1884.5683489363
 31
0.0
1001
AUTOCAD_POSTSCRIPT_FIGURE
1002
{
1000
PSFILL
1000
Grayscale
1000
Grayscale
1070
   100
1002
}
  0
LINE
  5
331F
  8
YODOROGO
 10
27937.604341291921
 20
1900.5683489363
 30
0.0
 11
27937.604341291921
 21
1884.568348936298
 31
0.0
1001
AUTOCAD_POSTSCRIPT_FIGURE
1002
{
1000
PSFILL
1000
Grayscale
1000
Grayscale
1070
   100
1002
}
  0
LINE
  5
3320
  8
YODOROGO
 10
27905.604341291921
 20
1900.5683489363
 30
0.0
 11
27937.604341291921
 21
1900.5683489363
 31
0.0
1001
AUTOCAD_POSTSCRIPT_FIGURE
1002
{
1000
PSFILL
1000
Grayscale
1000
Grayscale
1070
   100
1002
}
  0
LINE
  5
3321
  8
YODOROGO
 10
27905.604341291921
 20
1939.749496429288
 30
0.0
 11
27905.604341291921
 21
1900.5683489363
 31
0.0
1001
AUTOCAD_POSTSCRIPT_FIGURE
1002
{
1000
PSFILL
1000
Grayscale
1000
Grayscale
1070
   100
1002
}
  0
LINE
  5
3322
  8
YODOROGO
 10
27937.604341291921
 20
1939.749496429288
 30
0.0
 11
27905.604341291921
 21
1939.749496429288
 31
0.0
1001
AUTOCAD_POSTSCRIPT_FIGURE
1002
{
1000
PSFILL
1000
Grayscale
1000
Grayscale
1070
   100
1002
}
  0
LINE
  5
3323
  8
YODOROGO
 10
27937.604341291921
 20
1955.7494964292871
 30
0.0
 11
27937.604341291921
 21
1939.749496429288
 31
0.0
1001
AUTOCAD_POSTSCRIPT_FIGURE
1002
{
1000
PSFILL
1000
Grayscale
1000
Grayscale
1070
   100
1002
}
  0
LINE
  5
3324
  8
YODOROGO
 10
27905.604341291921
 20
1955.7494964292871
 30
0.0
 11
27937.604341291921
 21
1955.7494964292871
 31
0.0
1001
AUTOCAD_POSTSCRIPT_FIGURE
1002
{
1000
PSFILL
1000
Grayscale
1000
Grayscale
1070
   100
1002
}
  0
LINE
  5
3325
  8
YODOROGO
 10
27905.604341291921
 20
1979.749496429288
 30
0.0
 11
27905.604341291921
 21
1955.7494964292871
 31
0.0
1001
AUTOCAD_POSTSCRIPT_FIGURE
1002
{
1000
PSFILL
1000
Grayscale
1000
Grayscale
1070
   100
1002
}
  0
LINE
  5
3326
  8
YODOROGO
 10
27889.604341291921
 20
1979.749496429288
 30
0.0
 11
27905.604341291921
 21
1979.749496429288
 31
0.0
1001
AUTOCAD_POSTSCRIPT_FIGURE
1002
{
1000
PSFILL
1000
Grayscale
1000
Grayscale
1070
   100
1002
}
  0
LINE
  5
3327
  8
YODOROGO
 10
27889.604341291921
 20
1955.7494964292871
 30
0.0
 11
27889.604341291921
 21
1979.749496429288
 31
0.0
1001
AUTOCAD_POSTSCRIPT_FIGURE
1002
{
1000
PSFILL
1000
Grayscale
1000
Grayscale
1070
   100
1002
}
  0
LINE
  5
3328
  8
YODOROGO
 10
27865.604341291921
 20
1955.7494964292871
 30
0.0
 11
27889.604341291921
 21
1955.7494964292871
 31
0.0
1001
AUTOCAD_POSTSCRIPT_FIGURE
1002
{
1000
PSFILL
1000
Grayscale
1000
Grayscale
1070
   100
1002
}
  0
LINE
  5
3329
  8
YODOROGO
 10
27865.604341291921
 20
1979.749496429288
 30
0.0
 11
27865.604341291921
 21
1955.7494964292871
 31
0.0
1001
AUTOCAD_POSTSCRIPT_FIGURE
1002
{
1000
PSFILL
1000
Grayscale
1000
Grayscale
1070
   100
1002
}
  0
LINE
  5
332A
  8
YODOROGO
 10
27849.604341291921
 20
1979.749496429288
 30
0.0
 11
27865.604341291921
 21
1979.749496429288
 31
0.0
1001
AUTOCAD_POSTSCRIPT_FIGURE
1002
{
1000
PSFILL
1000
Grayscale
1000
Grayscale
1070
   100
1002
}
  0
LINE
  5
332B
  8
YODOROGO
 10
27849.604341291921
 20
1955.7494964292871
 30
0.0
 11
27849.604341291921
 21
1979.749496429288
 31
0.0
1001
AUTOCAD_POSTSCRIPT_FIGURE
1002
{
1000
PSFILL
1000
Grayscale
1000
Grayscale
1070
   100
1002
}
  0
LINE
  5
332C
  8
YODOROGO
 10
27817.604341291921
 20
1955.7494964292871
 30
0.0
 11
27849.604341291921
 21
1955.7494964292871
 31
0.0
1001
AUTOCAD_POSTSCRIPT_FIGURE
1002
{
1000
PSFILL
1000
Grayscale
1000
Grayscale
1070
   100
1002
}
  0
LINE
  5
332D
  8
YODOROGO
 10
27817.604341291921
 20
1979.749496429288
 30
0.0
 11
27817.604341291921
 21
1955.7494964292871
 31
0.0
1001
AUTOCAD_POSTSCRIPT_FIGURE
1002
{
1000
PSFILL
1000
Grayscale
1000
Grayscale
1070
   100
1002
}
  0
LINE
  5
332E
  8
YODOROGO
 10
27801.604341291921
 20
1979.749496429288
 30
0.0
 11
27817.604341291921
 21
1979.749496429288
 31
0.0
1001
AUTOCAD_POSTSCRIPT_FIGURE
1002
{
1000
PSFILL
1000
Grayscale
1000
Grayscale
1070
   100
1002
}
  0
LINE
  5
332F
  8
YODOROGO
 10
27801.604341291921
 20
1955.7494964292871
 30
0.0
 11
27801.604341291921
 21
1979.749496429288
 31
0.0
1001
AUTOCAD_POSTSCRIPT_FIGURE
1002
{
1000
PSFILL
1000
Grayscale
1000
Grayscale
1070
   100
1002
}
  0
LINE
  5
3330
  8
YODOROGO
 10
27777.604341291921
 20
1955.7494964292871
 30
0.0
 11
27801.604341291921
 21
1955.7494964292871
 31
0.0
1001
AUTOCAD_POSTSCRIPT_FIGURE
1002
{
1000
PSFILL
1000
Grayscale
1000
Grayscale
1070
   100
1002
}
  0
LINE
  5
3331
  8
YODOROGO
 10
27777.604341291921
 20
1939.749496429288
 30
0.0
 11
27777.604341291921
 21
1955.7494964292871
 31
0.0
1001
AUTOCAD_POSTSCRIPT_FIGURE
1002
{
1000
PSFILL
1000
Grayscale
1000
Grayscale
1070
   100
1002
}
  0
LINE
  5
3332
  8
YODOROGO
 10
27801.604341291921
 20
1939.749496429288
 30
0.0
 11
27777.604341291921
 21
1939.749496429288
 31
0.0
1001
AUTOCAD_POSTSCRIPT_FIGURE
1002
{
1000
PSFILL
1000
Grayscale
1000
Grayscale
1070
   100
1002
}
  0
LINE
  5
3333
  8
YODOROGO
 10
27801.604341291921
 20
1914.7865807937051
 30
0.0
 11
27801.604341291921
 21
1939.749496429288
 31
0.0
1001
AUTOCAD_POSTSCRIPT_FIGURE
1002
{
1000
PSFILL
1000
Grayscale
1000
Grayscale
1070
   100
1002
}
  0
LINE
  5
3334
  8
YODOROGO
 10
27777.604341291921
 20
1859.776747951671
 30
0.0
 11
27801.604341291921
 21
1914.7865807937051
 31
0.0
1001
AUTOCAD_POSTSCRIPT_FIGURE
1002
{
1000
PSFILL
1000
Grayscale
1000
Grayscale
1070
   100
1002
}
  0
LINE
  5
3335
  8
YODOROGO
 10
27777.604341291921
 20
1843.776747951672
 30
0.0
 11
27777.604341291921
 21
1859.776747951671
 31
0.0
1001
AUTOCAD_POSTSCRIPT_FIGURE
1002
{
1000
PSFILL
1000
Grayscale
1000
Grayscale
1070
   100
1002
}
  0
LINE
  5
3336
  8
YODOROGO
 10
28257.604341291921
 20
1867.7494964292871
 30
0.0
 11
28401.60434129191
 21
1824.877625640306
 31
0.0
1001
AUTOCAD_POSTSCRIPT_FIGURE
1002
{
1000
PSFILL
1000
Grayscale
1000
Grayscale
1070
   100
1002
}
  0
LINE
  5
3337
  8
YODOROGO
 10
28401.60434129191
 20
1752.877625640306
 30
0.0
 11
28257.604341291921
 21
1795.7494964292871
 31
0.0
1001
AUTOCAD_POSTSCRIPT_FIGURE
1002
{
1000
PSFILL
1000
Grayscale
1000
Grayscale
1070
   100
1002
}
  0
LINE
  5
3338
  8
YODOROGO
 10
28401.60434129191
 20
1984.877625640306
 30
0.0
 11
28257.604341291921
 21
2027.749496429288
 31
0.0
1001
AUTOCAD_POSTSCRIPT_FIGURE
1002
{
1000
PSFILL
1000
Grayscale
1000
Grayscale
1070
   100
1002
}
  0
LINE
  5
3339
  8
YODOROGO
 10
28257.604341291921
 20
1959.749496429288
 30
0.0
 11
28401.60434129191
 21
1916.8776256403071
 31
0.0
1001
AUTOCAD_POSTSCRIPT_FIGURE
1002
{
1000
PSFILL
1000
Grayscale
1000
Grayscale
1070
   100
1002
}
  0
LINE
  5
333A
  8
YODOROGO
 10
28257.604341291921
 20
1795.7494964292871
 30
0.0
 11
28257.604341291921
 21
1867.7494964292871
 31
0.0
1001
AUTOCAD_POSTSCRIPT_FIGURE
1002
{
1000
PSFILL
1000
Grayscale
1000
Grayscale
1070
   100
1002
}
  0
LINE
  5
333B
  8
YODOROGO
 10
28257.604341291921
 20
2027.749496429288
 30
0.0
 11
28257.604341291921
 21
1959.749496429288
 31
0.0
1001
AUTOCAD_POSTSCRIPT_FIGURE
1002
{
1000
PSFILL
1000
Grayscale
1000
Grayscale
1070
   100
1002
}
  0
LINE
  5
333C
  8
YODOROGO
 10
28080.236320206739
 20
1939.749496429288
 30
0.0
 11
28129.60434129191
 21
1747.749496429286
 31
0.0
1001
AUTOCAD_POSTSCRIPT_FIGURE
1002
{
1000
PSFILL
1000
Grayscale
1000
Grayscale
1070
   100
1002
}
  0
LINE
  5
333D
  8
YODOROGO
 10
27977.604341291921
 20
1939.749496429288
 30
0.0
 11
28080.236320206739
 21
1939.749496429288
 31
0.0
1001
AUTOCAD_POSTSCRIPT_FIGURE
1002
{
1000
PSFILL
1000
Grayscale
1000
Grayscale
1070
   100
1002
}
  0
LINE
  5
333E
  8
YODOROGO
 10
27977.604341291921
 20
1955.7494964292871
 30
0.0
 11
27977.604341291921
 21
1939.749496429288
 31
0.0
1001
AUTOCAD_POSTSCRIPT_FIGURE
1002
{
1000
PSFILL
1000
Grayscale
1000
Grayscale
1070
   100
1002
}
  0
LINE
  5
333F
  8
YODOROGO
 10
28076.60687851991
 20
1955.7494964292871
 30
0.0
 11
27977.604341291921
 21
1955.7494964292871
 31
0.0
1001
AUTOCAD_POSTSCRIPT_FIGURE
1002
{
1000
PSFILL
1000
Grayscale
1000
Grayscale
1070
   100
1002
}
  0
LINE
  5
3340
  8
YODOROGO
 10
28071.162715989711
 20
1979.749496429288
 30
0.0
 11
28076.60687851991
 21
1955.7494964292871
 31
0.0
1001
AUTOCAD_POSTSCRIPT_FIGURE
1002
{
1000
PSFILL
1000
Grayscale
1000
Grayscale
1070
   100
1002
}
  0
LINE
  5
3341
  8
YODOROGO
 10
28091.1627159897
 20
1979.749496429288
 30
0.0
 11
28071.162715989711
 21
1979.749496429288
 31
0.0
1001
AUTOCAD_POSTSCRIPT_FIGURE
1002
{
1000
PSFILL
1000
Grayscale
1000
Grayscale
1070
   100
1002
}
  0
LINE
  5
3342
  8
YODOROGO
 10
28095.806878519939
 20
1955.7494964292871
 30
0.0
 11
28091.1627159897
 21
1979.749496429288
 31
0.0
1001
AUTOCAD_POSTSCRIPT_FIGURE
1002
{
1000
PSFILL
1000
Grayscale
1000
Grayscale
1070
   100
1002
}
  0
LINE
  5
3343
  8
YODOROGO
 10
28121.604341291921
 20
1955.7494964292871
 30
0.0
 11
28095.806878519939
 21
1955.7494964292871
 31
0.0
1001
AUTOCAD_POSTSCRIPT_FIGURE
1002
{
1000
PSFILL
1000
Grayscale
1000
Grayscale
1070
   100
1002
}
  0
LINE
  5
3344
  8
YODOROGO
 10
28121.604341291921
 20
1979.749496429288
 30
0.0
 11
28121.604341291921
 21
1955.7494964292871
 31
0.0
1001
AUTOCAD_POSTSCRIPT_FIGURE
1002
{
1000
PSFILL
1000
Grayscale
1000
Grayscale
1070
   100
1002
}
  0
LINE
  5
3345
  8
YODOROGO
 10
28137.604341291921
 20
1979.749496429288
 30
0.0
 11
28121.604341291921
 21
1979.749496429288
 31
0.0
1001
AUTOCAD_POSTSCRIPT_FIGURE
1002
{
1000
PSFILL
1000
Grayscale
1000
Grayscale
1070
   100
1002
}
  0
LINE
  5
3346
  8
YODOROGO
 10
28137.604341291921
 20
1955.7494964292871
 30
0.0
 11
28137.604341291921
 21
1979.749496429288
 31
0.0
1001
AUTOCAD_POSTSCRIPT_FIGURE
1002
{
1000
PSFILL
1000
Grayscale
1000
Grayscale
1070
   100
1002
}
  0
LINE
  5
3347
  8
YODOROGO
 10
28137.604341291921
 20
1939.749496429288
 30
0.0
 11
28137.604341291921
 21
1955.7494964292871
 31
0.0
1001
AUTOCAD_POSTSCRIPT_FIGURE
1002
{
1000
PSFILL
1000
Grayscale
1000
Grayscale
1070
   100
1002
}
  0
LINE
  5
3348
  8
YODOROGO
 10
28098.902986873411
 20
1939.749496429288
 30
0.0
 11
28137.604341291921
 21
1939.749496429288
 31
0.0
1001
AUTOCAD_POSTSCRIPT_FIGURE
1002
{
1000
PSFILL
1000
Grayscale
1000
Grayscale
1070
   100
1002
}
  0
LINE
  5
3349
  8
YODOROGO
 10
28137.604341291921
 20
1747.749496429286
 30
0.0
 11
28098.902986873411
 21
1939.749496429288
 31
0.0
1001
AUTOCAD_POSTSCRIPT_FIGURE
1002
{
1000
PSFILL
1000
Grayscale
1000
Grayscale
1070
   100
1002
}
  0
LINE
  5
334A
  8
YODOROGO
 10
28129.60434129191
 20
1747.749496429286
 30
0.0
 11
28137.604341291921
 21
1747.749496429286
 31
0.0
1001
AUTOCAD_POSTSCRIPT_FIGURE
1002
{
1000
PSFILL
1000
Grayscale
1000
Grayscale
1070
   100
1002
}
  0
LINE
  5
334B
  8
YODOROGO
 10
28078.06921993379
 20
1775.7407762987939
 30
0.0
 11
27977.604341291921
 21
1747.749496429286
 31
0.0
  0
LINE
  5
334C
  8
YODOROGO
 10
28078.06921993379
 20
1798.6689795290731
 30
0.0
 11
28078.06921993379
 21
1775.7407762987939
 31
0.0
  0
LINE
  5
334D
  8
YODOROGO
 10
28033.83678061287
 20
1786.816933133767
 30
0.0
 11
28078.06921993379
 21
1798.6689795290731
 31
0.0
  0
LINE
  5
334E
  8
YODOROGO
 10
28033.83678061287
 20
1872.5683489362989
 30
0.0
 11
28033.83678061287
 21
1786.816933133767
 31
0.0
  0
LINE
  5
334F
  8
YODOROGO
 10
28078.06921993379
 20
1872.5683489362989
 30
0.0
 11
28033.83678061287
 21
1872.5683489362989
 31
0.0
  0
LINE
  5
3350
  8
YODOROGO
 10
28078.06921993379
 20
1892.568348936298
 30
0.0
 11
28078.06921993379
 21
1872.5683489362989
 31
0.0
  0
LINE
  5
3351
  8
YODOROGO
 10
27977.604341291921
 20
1892.568348936298
 30
0.0
 11
28078.06921993379
 21
1892.568348936298
 31
0.0
  0
LINE
  5
3352
  8
YODOROGO
 10
27977.604341291921
 20
1872.5683489362989
 30
0.0
 11
27977.604341291921
 21
1892.568348936298
 31
0.0
  0
LINE
  5
3353
  8
YODOROGO
 10
28021.836780612859
 20
1872.5683489362989
 30
0.0
 11
27977.604341291921
 21
1872.5683489362989
 31
0.0
  0
LINE
  5
3354
  8
YODOROGO
 10
28021.836780612859
 20
1784.673339594317
 30
0.0
 11
28021.836780612859
 21
1872.5683489362989
 31
0.0
  0
LINE
  5
3355
  8
YODOROGO
 10
27977.604341291921
 20
1771.749496429286
 30
0.0
 11
28021.836780612859
 21
1784.673339594317
 31
0.0
  0
LINE
  5
3356
  8
YODOROGO
 10
27977.604341291921
 20
1747.749496429286
 30
0.0
 11
27977.604341291921
 21
1771.749496429286
 31
0.0
  0
LINE
  5
3357
  8
YODOROGO
 10
28001.604341291921
 20
1707.749496429288
 30
0.0
 11
28001.604341291921
 21
1683.7494964292871
 31
0.0
  0
LINE
  5
3359
  8
YODOROGO
 10
28017.604341291921
 20
1707.749496429288
 30
0.0
 11
28001.604341291921
 21
1707.749496429288
 31
0.0
  0
LINE
  5
335A
  8
YODOROGO
 10
28017.604341291921
 20
1683.7494964292871
 30
0.0
 11
28017.604341291921
 21
1707.749496429288
 31
0.0
  0
LINE
  5
335B
  8
YODOROGO
 10
28040.913204016899
 20
1683.7494964292871
 30
0.0
 11
28017.604341291921
 21
1683.7494964292871
 31
0.0
  0
LINE
  5
335C
  8
YODOROGO
 10
28001.604341291921
 20
1683.7494964292871
 30
0.0
 11
27977.604341291921
 21
1683.7494964292871
 31
0.0
  0
LINE
  5
335D
  8
YODOROGO
 10
28082.135520230921
 20
1707.749496429288
 30
0.0
 11
28098.135520230931
 21
1707.749496429288
 31
0.0
1001
AUTOCAD_POSTSCRIPT_FIGURE
1002
{
1000
PSFILL
1000
Grayscale
1000
Grayscale
1070
   100
1002
}
  0
LINE
  5
335E
  8
YODOROGO
 10
28401.60434129191
 20
1824.877625640306
 30
0.0
 11
28401.60434129191
 21
1752.877625640306
 31
0.0
1001
AUTOCAD_POSTSCRIPT_FIGURE
1002
{
1000
PSFILL
1000
Grayscale
1000
Grayscale
1070
   100
1002
}
  0
LINE
  5
335F
  8
YODOROGO
 10
28401.60434129191
 20
1916.8776256403071
 30
0.0
 11
28401.60434129191
 21
1984.877625640306
 31
0.0
1001
AUTOCAD_POSTSCRIPT_FIGURE
1002
{
1000
PSFILL
1000
Grayscale
1000
Grayscale
1070
   100
1002
}
  0
LINE
  5
3360
  8
YODOROGO
 10
28433.60434129191
 20
1819.7494964292871
 30
0.0
 11
28433.60434129191
 21
1747.74949642929
 31
0.0
  0
LINE
  5
3361
  8
YODOROGO
 10
28497.60434129191
 20
1707.749496429288
 30
0.0
 11
28433.60434129191
 21
1707.749496429288
 31
0.0
  0
LINE
  5
3362
  8
YODOROGO
 10
28433.60434129191
 20
1747.74949642929
 30
0.0
 11
28585.604341291921
 21
1747.74949642929
 31
0.0
  0
LINE
  5
3363
  8
YODOROGO
 10
28497.60434129191
 20
1867.7494964292871
 30
0.0
 11
28433.60434129191
 21
1867.7494964292871
 31
0.0
  0
LINE
  5
3364
  8
YODOROGO
 10
28497.60434129191
 20
1923.7494964292871
 30
0.0
 11
28497.60434129191
 21
1867.7494964292871
 31
0.0
  0
LINE
  5
3365
  8
YODOROGO
 10
28585.604341291921
 20
1987.7494964292871
 30
0.0
 11
28585.604341291921
 21
2027.749496429288
 31
0.0
  0
LINE
  5
3366
  8
YODOROGO
 10
28433.60434129191
 20
1987.7494964292871
 30
0.0
 11
28585.604341291921
 21
1987.7494964292871
 31
0.0
  0
LINE
  5
3367
  8
YODOROGO
 10
28433.60434129191
 20
1867.7494964292871
 30
0.0
 11
28433.60434129191
 21
1987.7494964292871
 31
0.0
  0
LINE
  5
3368
  8
YODOROGO
 10
29001.60434129191
 20
2027.749496429288
 30
0.0
 11
29001.60434129191
 21
1619.749496429288
 31
0.0
  0
LINE
  5
3369
  8
YODOROGO
 10
29073.604341291921
 20
1579.749496429288
 30
0.0
 11
29073.604341291921
 21
2027.749496429288
 31
0.0
  0
LINE
  5
336A
  8
YODOROGO
 10
29261.604341291921
 20
1491.749496429286
 30
0.0
 11
29261.604341291921
 21
2007.749496429288
 31
0.0
  0
LINE
  5
336B
  8
YODOROGO
 10
29197.604341291921
 20
2007.749496429288
 30
0.0
 11
29197.604341291921
 21
1491.749496429286
 31
0.0
  0
LINE
  5
336C
  8
YODOROGO
 10
29385.604341291921
 20
2027.749496429288
 30
0.0
 11
29385.604341291921
 21
1427.749496429288
 31
0.0
  0
LINE
  5
336D
  8
YODOROGO
 10
29457.604341291921
 20
1427.749496429288
 30
0.0
 11
29457.604341291921
 21
2027.749496429288
 31
0.0
  0
LINE
  5
336E
  8
YODOROGO
 10
28657.604341291921
 20
1667.749496429288
 30
0.0
 11
28657.604341291921
 21
1747.74949642929
 31
0.0
  0
LINE
  5
336F
  8
YODOROGO
 10
29885.604341291921
 20
1707.749496429288
 30
0.0
 11
29885.604341291921
 21
1667.749496429288
 31
0.0
  0
LINE
  5
3370
  8
YODOROGO
 10
29885.604341291921
 20
1707.749496429288
 30
0.0
 11
29885.604341291921
 21
1667.749496429288
 31
0.0
  0
ARC
  5
3371
  8
YODOROGO
 10
28906.911576186831
 20
1618.2178644422729
 30
0.0
 40
94.705151178741644
 50
274.05244162907098
 51
0.9266642149310712
  0
ARC
  5
3372
  8
YODOROGO
 10
28909.186170719819
 20
1592.61072861044
 30
0.0
 40
164.92042356085511
 50
271.5351210653775
 51
355.52727750585052
  0
LINE
  5
3373
  8
YODOROGO
 10
28913.604341291921
 20
1523.7494964292871
 30
0.0
 11
28913.604341291921
 21
1427.749496429288
 31
0.0
  0
LINE
  5
3374
  8
YODOROGO
 10
28793.60434129191
 20
1667.749496429288
 30
0.0
 11
28657.604341291921
 21
1667.749496429288
 31
0.0
  0
LINE
  5
3375
  8
YODOROGO
 10
28793.60434129191
 20
1603.7494964292871
 30
0.0
 11
28793.60434129191
 21
1667.749496429288
 31
0.0
  0
LINE
  5
3376
  8
YODOROGO
 10
28657.604341291921
 20
1603.7494964292871
 30
0.0
 11
28793.60434129191
 21
1603.7494964292871
 31
0.0
  0
LINE
  5
3377
  8
YODOROGO
 10
28657.604341291921
 20
1523.7494964292871
 30
0.0
 11
28657.604341291921
 21
1603.7494964292871
 31
0.0
  0
LINE
  5
3378
  8
YODOROGO
 10
28793.60434129191
 20
1523.7494964292871
 30
0.0
 11
28657.604341291921
 21
1523.7494964292871
 31
0.0
  0
LINE
  5
3379
  8
YODOROGO
 10
28793.60434129191
 20
1427.749496429288
 30
0.0
 11
28793.60434129191
 21
1523.7494964292871
 31
0.0
  0
LINE
  5
337A
  8
YODOROGO
 10
29197.604341291921
 20
1491.749496429286
 30
0.0
 11
29261.604341291921
 21
1491.749496429286
 31
0.0
  0
LINE
  5
337B
  8
YODOROGO
 10
29385.604341291921
 20
1427.749496429288
 30
0.0
 11
29457.604341291921
 21
1427.749496429288
 31
0.0
  0
LINE
  5
337C
  8
YODOROGO
 10
29737.604341291921
 20
1528.4414521705639
 30
0.0
 11
29737.604341291921
 21
1427.749496429288
 31
0.0
  0
LINE
  5
337D
  8
YODOROGO
 10
29617.604341291921
 20
1427.749496429288
 30
0.0
 11
29737.604341291921
 21
1528.4414521705639
 31
0.0
  0
LINE
  5
337E
  8
YODOROGO
 10
29617.604341291921
 20
1547.749496429288
 30
0.0
 11
29617.604341291921
 21
1427.749496429288
 31
0.0
  0
LINE
  5
337F
  8
YODOROGO
 10
29712.944628699472
 20
1627.749496429288
 30
0.0
 11
29617.604341291921
 21
1547.749496429288
 31
0.0
  0
LINE
  5
3380
  8
YODOROGO
 10
29617.604341291921
 20
1627.749496429288
 30
0.0
 11
29712.944628699472
 21
1627.749496429288
 31
0.0
  0
LINE
  5
3381
  8
YODOROGO
 10
29617.604341291921
 20
1667.749496429288
 30
0.0
 11
29617.604341291921
 21
1627.749496429288
 31
0.0
  0
LINE
  5
3382
  8
YODOROGO
 10
29885.604341291921
 20
1667.749496429288
 30
0.0
 11
29617.604341291921
 21
1667.749496429288
 31
0.0
  0
LINE
  5
3383
  8
YODOROGO
 10
29917.604341291921
 20
1627.749496429288
 30
0.0
 11
29777.604341291921
 21
1627.749496429288
 31
0.0
  0
LINE
  5
3384
  8
YODOROGO
 10
29777.604341291921
 20
1562.0054374176559
 30
0.0
 11
29771.409872985321
 21
1556.807661346234
 31
0.0
  0
LINE
  5
3385
  8
YODOROGO
 10
29777.604341291921
 20
1627.749496429288
 30
0.0
 11
29777.604341291921
 21
1562.0054374176559
 31
0.0
  0
LINE
  5
3386
  8
YODOROGO
 10
29737.604341291921
 20
1528.4414521705639
 30
0.0
 11
29737.604341291921
 21
1427.749496429288
 31
0.0
  0
LINE
  5
3387
  8
YODOROGO
 10
29617.604341291921
 20
1427.749496429288
 30
0.0
 11
29737.604341291921
 21
1528.4414521705639
 31
0.0
  0
LINE
  5
3388
  8
YODOROGO
 10
29617.604341291921
 20
1547.749496429288
 30
0.0
 11
29617.604341291921
 21
1427.749496429288
 31
0.0
  0
LINE
  5
3389
  8
YODOROGO
 10
29712.944628699472
 20
1627.749496429288
 30
0.0
 11
29617.604341291921
 21
1547.749496429288
 31
0.0
  0
LINE
  5
338A
  8
YODOROGO
 10
29617.604341291921
 20
1627.749496429288
 30
0.0
 11
29712.944628699472
 21
1627.749496429288
 31
0.0
  0
LINE
  5
338B
  8
YODOROGO
 10
29617.604341291921
 20
1667.749496429288
 30
0.0
 11
29617.604341291921
 21
1627.749496429288
 31
0.0
  0
LINE
  5
338C
  8
YODOROGO
 10
29885.604341291921
 20
1667.749496429288
 30
0.0
 11
29617.604341291921
 21
1667.749496429288
 31
0.0
  0
LINE
  5
338D
  8
YODOROGO
 10
28793.60434129191
 20
1747.74949642929
 30
0.0
 11
28793.60434129191
 21
1819.7494964292871
 31
0.0
  0
LINE
  5
338E
  8
YODOROGO
 10
28657.604341291921
 20
1747.74949642929
 30
0.0
 11
28793.60434129191
 21
1747.74949642929
 31
0.0
  0
LINE
  5
338F
  8
YODOROGO
 10
28729.604341291921
 20
1867.7494964292871
 30
0.0
 11
28729.604341291921
 21
1923.7494964292871
 31
0.0
  0
LINE
  5
3390
  8
YODOROGO
 10
28793.60434129191
 20
1867.7494964292871
 30
0.0
 11
28729.604341291921
 21
1867.7494964292871
 31
0.0
  0
LINE
  5
3391
  8
YODOROGO
 10
28793.60434129191
 20
1947.749496429288
 30
0.0
 11
28793.60434129191
 21
1867.7494964292871
 31
0.0
  0
ARC
  5
3392
  8
YODOROGO
 10
28753.60434129191
 20
1947.749496429288
 30
0.0
 40
40.0
 50
0.0
 51
90.0
  0
LINE
  5
3393
  8
YODOROGO
 10
28657.604341291921
 20
1987.7494964292871
 30
0.0
 11
28753.60434129191
 21
1987.7494964292871
 31
0.0
  0
LINE
  5
3394
  8
YODOROGO
 10
28657.604341291921
 20
2027.749496429288
 30
0.0
 11
28657.604341291921
 21
1987.7494964292871
 31
0.0
  0
LINE
  5
3395
  8
YODOROGO
 10
29073.604341291921
 20
2027.749496429288
 30
0.0
 11
29001.60434129191
 21
2027.749496429288
 31
0.0
  0
LINE
  5
3396
  8
YODOROGO
 10
29261.604341291921
 20
2007.749496429288
 30
0.0
 11
29197.604341291921
 21
2007.749496429288
 31
0.0
  0
LINE
  5
3397
  8
YODOROGO
 10
29457.604341291921
 20
2027.749496429288
 30
0.0
 11
29385.604341291921
 21
2027.749496429288
 31
0.0
  0
LINE
  5
3398
  8
YODOROGO
 10
29673.604341291921
 20
1707.749496429288
 30
0.0
 11
29673.604341291921
 21
1771.7494964292871
 31
0.0
1001
AUTOCAD_POSTSCRIPT_FIGURE
1002
{
1000
PSFILL
1000
Grayscale
1000
Grayscale
1070
    25
1002
}
  0
LINE
  5
3399
  8
YODOROGO
 10
29617.604341291921
 20
1707.749496429288
 30
0.0
 11
29673.604341291921
 21
1707.749496429288
 31
0.0
1001
AUTOCAD_POSTSCRIPT_FIGURE
1002
{
1000
PSFILL
1000
Grayscale
1000
Grayscale
1070
    25
1002
}
  0
LINE
  5
339A
  8
YODOROGO
 10
29617.604341291921
 20
1819.7494964292871
 30
0.0
 11
29617.604341291921
 21
1707.749496429288
 31
0.0
1001
AUTOCAD_POSTSCRIPT_FIGURE
1002
{
1000
PSFILL
1000
Grayscale
1000
Grayscale
1070
    25
1002
}
  0
LINE
  5
339B
  8
YODOROGO
 10
29765.604341291921
 20
1819.7494964292871
 30
0.0
 11
29617.604341291921
 21
1819.7494964292871
 31
0.0
1001
AUTOCAD_POSTSCRIPT_FIGURE
1002
{
1000
PSFILL
1000
Grayscale
1000
Grayscale
1070
    25
1002
}
  0
LINE
  5
339C
  8
YODOROGO
 10
29765.604341291921
 20
1859.749496429288
 30
0.0
 11
29765.604341291921
 21
1819.7494964292871
 31
0.0
1001
AUTOCAD_POSTSCRIPT_FIGURE
1002
{
1000
PSFILL
1000
Grayscale
1000
Grayscale
1070
    25
1002
}
  0
LINE
  5
339D
  8
YODOROGO
 10
29617.604341291921
 20
1859.749496429288
 30
0.0
 11
29765.604341291921
 21
1859.749496429288
 31
0.0
1001
AUTOCAD_POSTSCRIPT_FIGURE
1002
{
1000
PSFILL
1000
Grayscale
1000
Grayscale
1070
    25
1002
}
  0
LINE
  5
339E
  8
YODOROGO
 10
29617.604341291921
 20
1907.7494964292871
 30
0.0
 11
29617.604341291921
 21
1859.749496429288
 31
0.0
1001
AUTOCAD_POSTSCRIPT_FIGURE
1002
{
1000
PSFILL
1000
Grayscale
1000
Grayscale
1070
    25
1002
}
  0
LINE
  5
339F
  8
YODOROGO
 10
29765.604341291921
 20
1907.7494964292871
 30
0.0
 11
29617.604341291921
 21
1907.7494964292871
 31
0.0
1001
AUTOCAD_POSTSCRIPT_FIGURE
1002
{
1000
PSFILL
1000
Grayscale
1000
Grayscale
1070
    25
1002
}
  0
LINE
  5
33A0
  8
YODOROGO
 10
29765.604341291921
 20
1947.749496429288
 30
0.0
 11
29765.604341291921
 21
1907.7494964292871
 31
0.0
1001
AUTOCAD_POSTSCRIPT_FIGURE
1002
{
1000
PSFILL
1000
Grayscale
1000
Grayscale
1070
    25
1002
}
  0
LINE
  5
33A1
  8
YODOROGO
 10
29617.604341291921
 20
1947.749496429288
 30
0.0
 11
29765.604341291921
 21
1947.749496429288
 31
0.0
1001
AUTOCAD_POSTSCRIPT_FIGURE
1002
{
1000
PSFILL
1000
Grayscale
1000
Grayscale
1070
    25
1002
}
  0
LINE
  5
33A2
  8
YODOROGO
 10
29617.604341291921
 20
2027.749496429288
 30
0.0
 11
29617.604341291921
 21
1947.749496429288
 31
0.0
1001
AUTOCAD_POSTSCRIPT_FIGURE
1002
{
1000
PSFILL
1000
Grayscale
1000
Grayscale
1070
    25
1002
}
  0
LINE
  5
33A3
  8
YODOROGO
 10
29665.604341291921
 20
2027.749496429288
 30
0.0
 11
29617.604341291921
 21
2027.749496429288
 31
0.0
1001
AUTOCAD_POSTSCRIPT_FIGURE
1002
{
1000
PSFILL
1000
Grayscale
1000
Grayscale
1070
    25
1002
}
  0
LINE
  5
33A4
  8
YODOROGO
 10
29665.604341291921
 20
1995.7494964292871
 30
0.0
 11
29665.604341291921
 21
2027.749496429288
 31
0.0
1001
AUTOCAD_POSTSCRIPT_FIGURE
1002
{
1000
PSFILL
1000
Grayscale
1000
Grayscale
1070
    25
1002
}
  0
LINE
  5
33A5
  8
YODOROGO
 10
29765.604341291921
 20
1995.7494964292871
 30
0.0
 11
29665.604341291921
 21
1995.7494964292871
 31
0.0
1001
AUTOCAD_POSTSCRIPT_FIGURE
1002
{
1000
PSFILL
1000
Grayscale
1000
Grayscale
1070
    25
1002
}
  0
LINE
  5
33A6
  8
YODOROGO
 10
29765.604341291921
 20
2027.749496429288
 30
0.0
 11
29765.604341291921
 21
1995.7494964292871
 31
0.0
1001
AUTOCAD_POSTSCRIPT_FIGURE
1002
{
1000
PSFILL
1000
Grayscale
1000
Grayscale
1070
    25
1002
}
  0
LINE
  5
33A7
  8
YODOROGO
 10
29829.604341291921
 20
2027.749496429288
 30
0.0
 11
29765.604341291921
 21
2027.749496429288
 31
0.0
1001
AUTOCAD_POSTSCRIPT_FIGURE
1002
{
1000
PSFILL
1000
Grayscale
1000
Grayscale
1070
    25
1002
}
  0
LINE
  5
33A8
  8
YODOROGO
 10
29829.604341291921
 20
1995.7494964292871
 30
0.0
 11
29829.604341291921
 21
2027.749496429288
 31
0.0
1001
AUTOCAD_POSTSCRIPT_FIGURE
1002
{
1000
PSFILL
1000
Grayscale
1000
Grayscale
1070
    25
1002
}
  0
LINE
  5
33A9
  8
YODOROGO
 10
29829.604341291921
 20
1907.7494964292871
 30
0.0
 11
29829.604341291921
 21
1947.749496429288
 31
0.0
1001
AUTOCAD_POSTSCRIPT_FIGURE
1002
{
1000
PSFILL
1000
Grayscale
1000
Grayscale
1070
    25
1002
}
  0
LINE
  5
33AA
  8
YODOROGO
 10
29829.604341291921
 20
1819.7494964292871
 30
0.0
 11
29829.604341291921
 21
1859.749496429288
 31
0.0
1001
AUTOCAD_POSTSCRIPT_FIGURE
1002
{
1000
PSFILL
1000
Grayscale
1000
Grayscale
1070
    25
1002
}
  0
LINE
  5
33AB
  8
YODOROGO
 10
29921.60434129191
 20
1771.7494964292871
 30
0.0
 11
29921.60434129191
 21
1707.749496429288
 31
0.0
1001
AUTOCAD_POSTSCRIPT_FIGURE
1002
{
1000
PSFILL
1000
Grayscale
1000
Grayscale
1070
    25
1002
}
  0
LINE
  5
33AC
  8
YODOROGO
 10
29829.604341291921
 20
1771.7494964292871
 30
0.0
 11
29921.60434129191
 21
1771.7494964292871
 31
0.0
1001
AUTOCAD_POSTSCRIPT_FIGURE
1002
{
1000
PSFILL
1000
Grayscale
1000
Grayscale
1070
    25
1002
}
  0
LINE
  5
33AD
  8
YODOROGO
 10
29829.604341291921
 20
1707.749496429288
 30
0.0
 11
29829.604341291921
 21
1771.7494964292871
 31
0.0
1001
AUTOCAD_POSTSCRIPT_FIGURE
1002
{
1000
PSFILL
1000
Grayscale
1000
Grayscale
1070
    25
1002
}
  0
LINE
  5
33AE
  8
YODOROGO
 10
29765.604341291921
 20
1707.749496429288
 30
0.0
 11
29829.604341291921
 21
1707.749496429288
 31
0.0
1001
AUTOCAD_POSTSCRIPT_FIGURE
1002
{
1000
PSFILL
1000
Grayscale
1000
Grayscale
1070
    25
1002
}
  0
LINE
  5
33AF
  8
YODOROGO
 10
29765.604341291921
 20
1771.7494964292871
 30
0.0
 11
29765.604341291921
 21
1707.749496429288
 31
0.0
1001
AUTOCAD_POSTSCRIPT_FIGURE
1002
{
1000
PSFILL
1000
Grayscale
1000
Grayscale
1070
    25
1002
}
  0
LINE
  5
33B0
  8
YODOROGO
 10
29673.604341291921
 20
1771.7494964292871
 30
0.0
 11
29765.604341291921
 21
1771.7494964292871
 31
0.0
1001
AUTOCAD_POSTSCRIPT_FIGURE
1002
{
1000
PSFILL
1000
Grayscale
1000
Grayscale
1070
    25
1002
}
  0
ARC
  5
33B1
  8
YODOROGO
 10
31059.517893357912
 20
1602.6807375155761
 30
0.0
 40
178.22128111072141
 50
281.02627495425338
 51
357.77113575573799
  0
LINE
  5
33B2
  8
YODOROGO
 10
31413.604341291921
 20
1907.7494964292871
 30
0.0
 11
31165.604341291921
 21
1907.7494964292871
 31
0.0
  0
LINE
  5
33B3
  8
YODOROGO
 10
31413.604341291921
 20
2027.749496429288
 30
0.0
 11
31165.604341291921
 21
2027.749496429288
 31
0.0
  0
LINE
  5
33B4
  8
YODOROGO
 10
31165.604341291921
 20
1963.749496429286
 30
0.0
 11
31413.604341291921
 21
1963.749496429286
 31
0.0
  0
LINE
  5
33B5
  8
YODOROGO
 10
30791.604341291921
 20
1563.7494964292871
 30
0.0
 11
30791.604341291921
 21
1755.7494964292871
 31
0.0
  0
LINE
  5
33B6
  8
YODOROGO
 10
30763.604341291921
 20
1691.749496429288
 30
0.0
 11
30763.604341291921
 21
1563.7494964292871
 31
0.0
  0
LINE
  5
33B7
  8
YODOROGO
 10
30723.604341291921
 20
1491.7494964292889
 30
0.0
 11
30723.604341291921
 21
1691.749496429288
 31
0.0
  0
LINE
  5
33B8
  8
YODOROGO
 10
30899.604341291932
 20
1691.749496429288
 30
0.0
 11
30899.604341291932
 21
1491.7494964292889
 31
0.0
  0
LINE
  5
33B9
  8
YODOROGO
 10
30859.604341291932
 20
1563.7494964292871
 30
0.0
 11
30859.604341291932
 21
1691.749496429288
 31
0.0
  0
LINE
  5
33BA
  8
YODOROGO
 10
30831.604341291921
 20
1755.7494964292871
 30
0.0
 11
30831.604341291921
 21
1563.7494964292871
 31
0.0
  0
LINE
  5
33BB
  8
YODOROGO
 10
30973.604341291921
 20
2027.749496429288
 30
0.0
 11
30973.604341291921
 21
1467.749496429288
 31
0.0
  0
LINE
  5
33BC
  8
YODOROGO
 10
30645.604341291921
 20
1427.749496429288
 30
0.0
 11
30645.604341291921
 21
2027.749496429288
 31
0.0
  0
LINE
  5
33BD
  8
YODOROGO
 10
30697.604341291932
 20
1963.749496429286
 30
0.0
 11
30697.604341291932
 21
1427.749496429288
 31
0.0
  0
LINE
  5
33BE
  8
YODOROGO
 10
30925.604341291921
 20
1547.749496429288
 30
0.0
 11
30925.604341291921
 21
1963.749496429286
 31
0.0
  0
LINE
  5
33BF
  8
YODOROGO
 10
30381.604341291932
 20
1627.749496429288
 30
0.0
 11
30381.604341291932
 21
1679.749496429288
 31
0.0
  0
LINE
  5
33C0
  8
YODOROGO
 10
30617.604341291921
 20
1679.749496429288
 30
0.0
 11
30617.604341291921
 21
1627.749496429288
 31
0.0
  0
LINE
  5
33C1
  8
YODOROGO
 10
31165.604341291921
 20
1907.7494964292871
 30
0.0
 11
31165.604341291921
 21
1635.7494964292871
 31
0.0
  0
LINE
  5
33C2
  8
YODOROGO
 10
29949.60434129191
 20
1667.749496429288
 30
0.0
 11
29949.60434129191
 21
1707.749496429288
 31
0.0
  0
LINE
  5
33C3
  8
YODOROGO
 10
29949.60434129191
 20
1667.749496429288
 30
0.0
 11
29949.60434129191
 21
1707.749496429288
 31
0.0
  0
ARC
  5
33C4
  8
YODOROGO
 10
30537.604341291921
 20
1507.749496429288
 30
0.0
 40
80.0
 50
270.0
 51
0.0
  0
LINE
  5
33C5
  8
YODOROGO
 10
30569.604341291921
 20
1599.7494964292871
 30
0.0
 11
30617.604341291921
 21
1599.7494964292871
 31
0.0
  0
LINE
  5
33C6
  8
YODOROGO
 10
30617.604341291921
 20
1627.749496429288
 30
0.0
 11
30529.604341291939
 21
1627.749496429288
 31
0.0
  0
LINE
  5
33C7
  8
YODOROGO
 10
30217.604341291921
 20
1667.749496429288
 30
0.0
 11
29949.60434129191
 21
1667.749496429288
 31
0.0
  0
LINE
  5
33C8
  8
YODOROGO
 10
30217.604341291921
 20
1627.749496429288
 30
0.0
 11
30217.604341291921
 21
1667.749496429288
 31
0.0
  0
LINE
  5
33C9
  8
YODOROGO
 10
30017.604341291921
 20
1627.749496429288
 30
0.0
 11
30217.604341291921
 21
1627.749496429288
 31
0.0
  0
ARC
  5
33CA
  8
YODOROGO
 10
30230.05882870136
 20
1868.8857149529019
 30
0.0
 40
321.37763628522822
 50
228.61814546189939
 51
245.660289248906
  0
LINE
  5
33CB
  8
YODOROGO
 10
30105.604341291921
 20
1603.7494964292871
 30
0.0
 11
30097.604341291972
 21
1576.0728158699001
 31
0.0
  0
LINE
  5
33CC
  8
YODOROGO
 10
30189.604341291921
 20
1603.7494964292871
 30
0.0
 11
30105.604341291921
 21
1603.7494964292871
 31
0.0
  0
LINE
  5
33CD
  8
YODOROGO
 10
30177.604341291921
 20
1551.817722473427
 30
0.0
 11
30189.604341291921
 21
1603.7494964292871
 31
0.0
  0
ARC
  5
33CE
  8
YODOROGO
 10
30230.058828700468
 20
1868.885714953002
 30
0.0
 40
321.37763628529081
 50
260.60629297969928
 51
267.7790355655585
  0
LINE
  5
33CF
  8
YODOROGO
 10
30217.604341291921
 20
1427.749496429285
 30
0.0
 11
30217.604341291921
 21
1547.749496429288
 31
0.0
  0
LINE
  5
33D0
  8
YODOROGO
 10
29937.604341291932
 20
1481.3393349155101
 30
0.0
 11
29937.604341291921
 21
1594.531090531141
 31
0.0
  0
LINE
  5
33D1
  8
YODOROGO
 10
30217.604341291921
 20
1667.749496429288
 30
0.0
 11
29949.60434129191
 21
1667.749496429288
 31
0.0
  0
LINE
  5
33D2
  8
YODOROGO
 10
30217.604341291921
 20
1627.749496429288
 30
0.0
 11
30217.604341291921
 21
1667.749496429288
 31
0.0
  0
LINE
  5
33D3
  8
YODOROGO
 10
30017.604341291921
 20
1627.749496429288
 30
0.0
 11
30217.604341291921
 21
1627.749496429288
 31
0.0
  0
ARC
  5
33D4
  8
YODOROGO
 10
30230.05882870136
 20
1868.8857149529019
 30
0.0
 40
321.37763628522822
 50
228.61814546189939
 51
245.660289248906
  0
LINE
  5
33D5
  8
YODOROGO
 10
30105.604341291921
 20
1603.7494964292871
 30
0.0
 11
30097.604341291972
 21
1576.0728158699001
 31
0.0
  0
LINE
  5
33D6
  8
YODOROGO
 10
30189.604341291921
 20
1603.7494964292871
 30
0.0
 11
30105.604341291921
 21
1603.7494964292871
 31
0.0
  0
LINE
  5
33D7
  8
YODOROGO
 10
30177.604341291921
 20
1551.817722473427
 30
0.0
 11
30189.604341291921
 21
1603.7494964292871
 31
0.0
  0
ARC
  5
33D8
  8
YODOROGO
 10
30230.058828700468
 20
1868.885714953002
 30
0.0
 40
321.37763628529081
 50
260.60629297969928
 51
267.7790355655585
  0
LINE
  5
33D9
  8
YODOROGO
 10
30217.604341291921
 20
1427.749496429285
 30
0.0
 11
30217.604341291921
 21
1547.749496429288
 31
0.0
  0
LINE
  5
33DA
  8
YODOROGO
 10
29937.604341291932
 20
1481.3393349155101
 30
0.0
 11
29937.604341291921
 21
1594.531090531141
 31
0.0
  0
LINE
  5
33DB
  8
YODOROGO
 10
30433.604341291939
 20
1573.7494964292889
 30
0.0
 11
30381.604341291932
 21
1573.7494964292889
 31
0.0
  0
LINE
  5
33DC
  8
YODOROGO
 10
30433.604341291939
 20
1601.749496429285
 30
0.0
 11
30433.604341291939
 21
1573.7494964292889
 31
0.0
  0
LINE
  5
33DD
  8
YODOROGO
 10
30381.604341291932
 20
1601.749496429285
 30
0.0
 11
30433.604341291939
 21
1601.749496429285
 31
0.0
  0
LINE
  5
33DE
  8
YODOROGO
 10
30381.604341291932
 20
1573.7494964292889
 30
0.0
 11
30381.604341291932
 21
1601.749496429285
 31
0.0
  0
LINE
  5
33DF
  8
YODOROGO
 10
30429.604341291921
 20
1577.7494964292871
 30
0.0
 11
30385.604341291939
 21
1577.7494964292871
 31
0.0
  0
LINE
  5
33E0
  8
YODOROGO
 10
30429.604341291921
 20
1597.749496429288
 30
0.0
 11
30429.604341291921
 21
1577.7494964292871
 31
0.0
  0
LINE
  5
33E1
  8
YODOROGO
 10
30385.604341291939
 20
1597.749496429288
 30
0.0
 11
30429.604341291921
 21
1597.749496429288
 31
0.0
  0
LINE
  5
33E2
  8
YODOROGO
 10
30385.604341291939
 20
1577.7494964292871
 30
0.0
 11
30385.604341291939
 21
1597.749496429288
 31
0.0
  0
LINE
  5
33E3
  8
YODOROGO
 10
30425.604341291921
 20
1581.749496429286
 30
0.0
 11
30389.604341291939
 21
1581.749496429286
 31
0.0
  0
LINE
  5
33E4
  8
YODOROGO
 10
30425.604341291939
 20
1593.749496429288
 30
0.0
 11
30425.604341291921
 21
1581.749496429286
 31
0.0
  0
LINE
  5
33E5
  8
YODOROGO
 10
30389.604341291939
 20
1593.749496429288
 30
0.0
 11
30425.604341291939
 21
1593.749496429288
 31
0.0
  0
LINE
  5
33E6
  8
YODOROGO
 10
30389.604341291939
 20
1581.749496429286
 30
0.0
 11
30389.604341291939
 21
1593.749496429288
 31
0.0
  0
LINE
  5
33E7
  8
YODOROGO
 10
30421.604341291932
 20
1585.7494964292871
 30
0.0
 11
30393.604341291939
 21
1585.7494964292871
 31
0.0
  0
LINE
  5
33E8
  8
YODOROGO
 10
30421.604341291932
 20
1589.749496429288
 30
0.0
 11
30421.604341291932
 21
1585.7494964292871
 31
0.0
  0
LINE
  5
33E9
  8
YODOROGO
 10
30393.604341291939
 20
1589.749496429288
 30
0.0
 11
30421.604341291932
 21
1589.749496429288
 31
0.0
  0
LINE
  5
33EA
  8
YODOROGO
 10
30393.604341291939
 20
1585.7494964292871
 30
0.0
 11
30393.604341291939
 21
1589.749496429288
 31
0.0
  0
LINE
  5
33EB
  8
YODOROGO
 10
30465.604341291921
 20
1627.749496429288
 30
0.0
 11
30381.604341291932
 21
1627.749496429288
 31
0.0
  0
LINE
  5
33EC
  8
YODOROGO
 10
30465.604341291921
 20
1547.749496429288
 30
0.0
 11
30465.604341291921
 21
1627.749496429288
 31
0.0
  0
LINE
  5
33ED
  8
YODOROGO
 10
30381.604341291932
 20
1547.749496429288
 30
0.0
 11
30465.604341291921
 21
1547.749496429288
 31
0.0
  0
LINE
  5
33EE
  8
YODOROGO
 10
30381.604341291932
 20
1427.749496429288
 30
0.0
 11
30381.604341291932
 21
1547.749496429288
 31
0.0
  0
LINE
  5
33EF
  8
YODOROGO
 10
30537.604341291921
 20
1427.749496429288
 30
0.0
 11
30381.604341291932
 21
1427.749496429288
 31
0.0
  0
LINE
  5
33F0
  8
YODOROGO
 10
30569.604341291921
 20
1571.749496429285
 30
0.0
 11
30569.604341291921
 21
1599.7494964292871
 31
0.0
  0
ARC
  5
33F1
  8
YODOROGO
 10
30545.604341291921
 20
1571.749496429291
 30
0.0
 40
24.000000000003752
 50
270.0
 51
359.99999999998772
  0
LINE
  5
33F2
  8
YODOROGO
 10
30529.604341291939
 20
1547.749496429288
 30
0.0
 11
30545.604341291921
 21
1547.749496429288
 31
0.0
  0
LINE
  5
33F3
  8
YODOROGO
 10
30529.604341291939
 20
1627.749496429288
 30
0.0
 11
30529.604341291939
 21
1547.749496429288
 31
0.0
  0
LINE
  5
33F4
  8
YODOROGO
 10
30899.604341291932
 20
1547.749496429288
 30
0.0
 11
30925.604341291921
 21
1547.749496429288
 31
0.0
  0
LINE
  5
33F5
  8
YODOROGO
 10
30933.604341291921
 20
1427.749496429288
 30
0.0
 11
30899.604341291932
 21
1427.749496429288
 31
0.0
  0
LINE
  5
33F6
  8
YODOROGO
 10
30763.604341291921
 20
1563.7494964292871
 30
0.0
 11
30791.604341291921
 21
1563.7494964292871
 31
0.0
  0
LINE
  5
33F7
  8
YODOROGO
 10
30899.604341291932
 20
1491.7494964292889
 30
0.0
 11
30723.604341291921
 21
1491.7494964292889
 31
0.0
  0
LINE
  5
33F8
  8
YODOROGO
 10
30831.604341291921
 20
1563.7494964292871
 30
0.0
 11
30859.604341291932
 21
1563.7494964292871
 31
0.0
  0
LINE
  5
33F9
  8
YODOROGO
 10
30899.604341291932
 20
1427.749496429288
 30
0.0
 11
30899.604341291932
 21
1547.749496429288
 31
0.0
  0
LINE
  5
33FA
  8
YODOROGO
 10
30697.604341291932
 20
1427.749496429288
 30
0.0
 11
30645.604341291921
 21
1427.749496429288
 31
0.0
  0
LINE
  5
33FB
  8
YODOROGO
 10
30617.604341291921
 20
1599.7494964292871
 30
0.0
 11
30617.604341291921
 21
1507.749496429288
 31
0.0
  0
ARC
  5
33FC
  8
YODOROGO
 10
30933.604341291921
 20
1467.749496429288
 30
0.0
 40
40.0
 50
270.0
 51
0.0
  0
LINE
  5
33FD
  8
YODOROGO
 10
31093.604341291921
 20
1523.7494964292871
 30
0.0
 11
31093.604341291921
 21
1427.749496429288
 31
0.0
  0
ARC
  5
33FE
  8
YODOROGO
 10
31039.721395566779
 20
1637.5313901097329
 30
0.0
 40
125.8955565916754
 50
295.34052442160112
 51
359.18902303418679
  0
LINE
  5
33FF
  8
YODOROGO
 10
30617.604341291921
 20
1859.749496429288
 30
0.0
 11
30497.604341291921
 21
1939.749496429288
 31
0.0
  0
LINE
  5
3400
  8
YODOROGO
 10
30497.604341291921
 20
2027.749496429288
 30
0.0
 11
30617.604341291921
 21
1947.749496429288
 31
0.0
  0
LINE
  5
3401
  8
YODOROGO
 10
30529.604341291939
 20
1679.749496429288
 30
0.0
 11
30617.604341291921
 21
1679.749496429288
 31
0.0
  0
LINE
  5
3402
  8
YODOROGO
 10
30617.604341291921
 20
1735.7494964292871
 30
0.0
 11
30529.604341291939
 21
1735.7494964292871
 31
0.0
  0
LINE
  5
3403
  8
YODOROGO
 10
30381.604341291932
 20
1795.7494964292871
 30
0.0
 11
30617.604341291921
 21
1795.7494964292871
 31
0.0
  0
LINE
  5
3404
  8
YODOROGO
 10
30081.604341291939
 20
2027.749496429288
 30
0.0
 11
30021.604341291921
 21
2027.749496429288
 31
0.0
  0
LINE
  5
3405
  8
YODOROGO
 10
30081.604341291939
 20
1827.7494964292871
 30
0.0
 11
30081.604341291939
 21
2027.749496429288
 31
0.0
  0
LINE
  5
3406
  8
YODOROGO
 10
30021.604341291921
 20
1827.7494964292871
 30
0.0
 11
30081.604341291939
 21
1827.7494964292871
 31
0.0
  0
LINE
  5
3407
  8
YODOROGO
 10
30021.604341291921
 20
2027.749496429288
 30
0.0
 11
30021.604341291921
 21
1827.7494964292871
 31
0.0
  0
LINE
  5
3408
  8
YODOROGO
 10
30161.604341291939
 20
2027.749496429288
 30
0.0
 11
30217.604341291921
 21
2027.749496429288
 31
0.0
  0
LINE
  5
3409
  8
YODOROGO
 10
30161.604341291939
 20
1811.749496429288
 30
0.0
 11
30161.604341291939
 21
2027.749496429288
 31
0.0
  0
ARC
  5
340A
  8
YODOROGO
 10
30121.604341291939
 20
1811.749496429288
 30
0.0
 40
40.0
 50
270.0
 51
0.0
  0
LINE
  5
340B
  8
YODOROGO
 10
30021.604341291921
 20
1771.7494964292871
 30
0.0
 11
30121.604341291939
 21
1771.7494964292871
 31
0.0
  0
LINE
  5
340C
  8
YODOROGO
 10
30021.604341291921
 20
1707.749496429288
 30
0.0
 11
30021.604341291921
 21
1771.7494964292871
 31
0.0
  0
LINE
  5
340D
  8
YODOROGO
 10
30137.604341291921
 20
1707.749496429288
 30
0.0
 11
30021.604341291921
 21
1707.749496429288
 31
0.0
  0
ARC
  5
340E
  8
YODOROGO
 10
30137.604341291921
 20
1787.7494964292871
 30
0.0
 40
80.0
 50
270.0
 51
0.0
  0
LINE
  5
340F
  8
YODOROGO
 10
30217.604341291921
 20
2027.749496429288
 30
0.0
 11
30217.604341291921
 21
1787.7494964292871
 31
0.0
  0
LINE
  5
3410
  8
YODOROGO
 10
29977.604341291921
 20
1947.749496429288
 30
0.0
 11
29977.604341291921
 21
1995.7494964292871
 31
0.0
1001
AUTOCAD_POSTSCRIPT_FIGURE
1002
{
1000
PSFILL
1000
Grayscale
1000
Grayscale
1070
    25
1002
}
  0
LINE
  5
3411
  8
YODOROGO
 10
29977.604341291921
 20
1859.749496429288
 30
0.0
 11
29977.604341291921
 21
1907.7494964292871
 31
0.0
1001
AUTOCAD_POSTSCRIPT_FIGURE
1002
{
1000
PSFILL
1000
Grayscale
1000
Grayscale
1070
    25
1002
}
  0
LINE
  5
3412
  8
YODOROGO
 10
29977.604341291921
 20
1707.749496429288
 30
0.0
 11
29977.604341291921
 21
1819.7494964292871
 31
0.0
1001
AUTOCAD_POSTSCRIPT_FIGURE
1002
{
1000
PSFILL
1000
Grayscale
1000
Grayscale
1070
    25
1002
}
  0
LINE
  5
3413
  8
YODOROGO
 10
30381.604341291932
 20
1907.7494964292871
 30
0.0
 11
30497.604341291921
 21
2027.749496429288
 31
0.0
  0
LINE
  5
3414
  8
YODOROGO
 10
30381.604341291932
 20
1819.7494964292871
 30
0.0
 11
30381.604341291932
 21
1907.7494964292871
 31
0.0
  0
LINE
  5
3415
  8
YODOROGO
 10
30497.604341291921
 20
1939.749496429288
 30
0.0
 11
30381.604341291932
 21
1819.7494964292871
 31
0.0
  0
LINE
  5
3416
  8
YODOROGO
 10
30465.604341291921
 20
1679.749496429288
 30
0.0
 11
30465.604341291921
 21
1735.7494964292871
 31
0.0
  0
LINE
  5
3417
  8
YODOROGO
 10
30381.604341291932
 20
1679.749496429288
 30
0.0
 11
30465.604341291921
 21
1679.749496429288
 31
0.0
  0
LINE
  5
3418
  8
YODOROGO
 10
30529.604341291939
 20
1735.7494964292871
 30
0.0
 11
30529.604341291939
 21
1679.749496429288
 31
0.0
  0
LINE
  5
3419
  8
YODOROGO
 10
30381.604341291932
 20
1735.7494964292871
 30
0.0
 11
30381.604341291932
 21
1795.7494964292871
 31
0.0
  0
LINE
  5
341A
  8
YODOROGO
 10
30465.604341291921
 20
1735.7494964292871
 30
0.0
 11
30381.604341291932
 21
1735.7494964292871
 31
0.0
  0
LINE
  5
341B
  8
YODOROGO
 10
30645.604341291921
 20
2027.749496429288
 30
0.0
 11
30973.604341291921
 21
2027.749496429288
 31
0.0
  0
LINE
  5
341C
  8
YODOROGO
 10
30925.604341291921
 20
1963.749496429286
 30
0.0
 11
30697.604341291932
 21
1963.749496429286
 31
0.0
  0
LINE
  5
341D
  8
YODOROGO
 10
30873.604341291921
 20
1819.7494964292871
 30
0.0
 11
30899.604341291932
 21
1819.7494964292871
 31
0.0
  0
LINE
  5
341E
  8
YODOROGO
 10
30899.604341291932
 20
1939.749496429288
 30
0.0
 11
30873.604341291921
 21
1819.7494964292871
 31
0.0
  0
LINE
  5
341F
  8
YODOROGO
 10
30851.604341291939
 20
1939.749496429288
 30
0.0
 11
30899.604341291932
 21
1939.749496429288
 31
0.0
  0
LINE
  5
3420
  8
YODOROGO
 10
30825.604341291921
 20
1819.7494964292871
 30
0.0
 11
30851.604341291939
 21
1939.749496429288
 31
0.0
  0
LINE
  5
3421
  8
YODOROGO
 10
30797.604341291921
 20
1819.7494964292871
 30
0.0
 11
30825.604341291921
 21
1819.7494964292871
 31
0.0
  0
LINE
  5
3422
  8
YODOROGO
 10
30771.604341291939
 20
1939.749496429288
 30
0.0
 11
30797.604341291921
 21
1819.7494964292871
 31
0.0
  0
LINE
  5
3423
  8
YODOROGO
 10
30723.604341291921
 20
1939.749496429288
 30
0.0
 11
30771.604341291939
 21
1939.749496429288
 31
0.0
  0
LINE
  5
3424
  8
YODOROGO
 10
30749.604341291921
 20
1819.7494964292871
 30
0.0
 11
30723.604341291921
 21
1939.749496429288
 31
0.0
  0
LINE
  5
3425
  8
YODOROGO
 10
30723.604341291921
 20
1819.7494964292871
 30
0.0
 11
30749.604341291921
 21
1819.7494964292871
 31
0.0
  0
LINE
  5
3426
  8
YODOROGO
 10
30723.604341291921
 20
1755.7494964292871
 30
0.0
 11
30723.604341291921
 21
1819.7494964292871
 31
0.0
  0
LINE
  5
3427
  8
YODOROGO
 10
30899.604341291932
 20
1755.7494964292871
 30
0.0
 11
30723.604341291921
 21
1755.7494964292871
 31
0.0
  0
LINE
  5
3428
  8
YODOROGO
 10
30899.604341291932
 20
1819.7494964292871
 30
0.0
 11
30899.604341291932
 21
1755.7494964292871
 31
0.0
  0
LINE
  5
3429
  8
YODOROGO
 10
30617.604341291921
 20
1947.749496429288
 30
0.0
 11
30617.604341291921
 21
1859.749496429288
 31
0.0
  0
LINE
  5
342A
  8
YODOROGO
 10
30791.604341291921
 20
1755.7494964292871
 30
0.0
 11
30831.604341291921
 21
1755.7494964292871
 31
0.0
  0
LINE
  5
342B
  8
YODOROGO
 10
30723.604341291921
 20
1691.749496429288
 30
0.0
 11
30763.604341291921
 21
1691.749496429288
 31
0.0
  0
LINE
  5
342C
  8
YODOROGO
 10
30859.604341291932
 20
1691.749496429288
 30
0.0
 11
30899.604341291932
 21
1691.749496429288
 31
0.0
  0
LINE
  5
342D
  8
YODOROGO
 10
30617.604341291921
 20
1795.7494964292871
 30
0.0
 11
30617.604341291921
 21
1735.7494964292871
 31
0.0
  0
LINE
  5
342E
  8
YODOROGO
 10
31165.604341291921
 20
2027.749496429288
 30
0.0
 11
31165.604341291921
 21
1963.749496429286
 31
0.0
  0
LINE
  5
342F
  8
YODOROGO
 10
31533.604341291921
 20
1595.7494964292871
 30
0.0
 11
31533.60434129191
 21
1811.749496429288
 31
0.0
  0
LINE
  5
3430
  8
YODOROGO
 10
31461.60434129191
 20
1987.7494964292871
 30
0.0
 11
31461.60434129191
 21
1635.7494964292871
 31
0.0
  0
LINE
  5
3431
  8
YODOROGO
 10
31653.604341291921
 20
1427.749496429288
 30
0.0
 11
31653.60434129191
 21
1811.749496429288
 31
0.0
  0
LINE
  5
3432
  8
YODOROGO
 10
31589.604341291921
 20
1811.749496429288
 30
0.0
 11
31589.604341291921
 21
1427.749496429288
 31
0.0
  0
LINE
  5
3433
  8
YODOROGO
 10
31237.604341291921
 20
1595.7494964292871
 30
0.0
 11
31237.604341291921
 21
1707.749496429288
 31
0.0
  0
ARC
  5
3434
  8
YODOROGO
 10
31353.914865116069
 20
1607.790351288558
 30
0.0
 40
180.0924485759885
 50
268.62849102169793
 51
356.16638457330322
  0
LINE
  5
3435
  8
YODOROGO
 10
31349.604341291939
 20
1527.749496429288
 30
0.0
 11
31349.604341291939
 21
1427.749496429288
 31
0.0
  0
ARC
  5
3436
  8
YODOROGO
 10
31351.518075724562
 20
1637.838957017655
 30
0.0
 40
110.1060929836122
 50
269.00410209305932
 51
358.91264455492478
  0
LINE
  5
3437
  8
YODOROGO
 10
31589.604341291921
 20
1427.749496429288
 30
0.0
 11
31653.604341291921
 21
1427.749496429288
 31
0.0
  0
LINE
  5
3438
  8
YODOROGO
 10
31533.60434129191
 20
1811.749496429288
 30
0.0
 11
31589.604341291921
 21
1811.749496429288
 31
0.0
  0
LINE
  5
3439
  8
YODOROGO
 10
31621.604341291939
 20
1987.7494964292871
 30
0.0
 11
31461.60434129191
 21
1987.7494964292871
 31
0.0
  0
LINE
  5
343A
  8
YODOROGO
 10
31533.60434129191
 20
1915.7494964292871
 30
0.0
 11
31661.604341291939
 21
1915.7494964292871
 31
0.0
  0
LINE
  5
343B
  8
YODOROGO
 10
31701.604341291939
 20
1875.7494964292871
 30
0.0
 11
31533.60434129191
 21
1875.7494964292871
 31
0.0
  0
LINE
  5
343C
  8
YODOROGO
 10
31237.604341291921
 20
1779.749496429288
 30
0.0
 11
31349.604341291939
 21
1779.749496429288
 31
0.0
  0
LINE
  5
343D
  8
YODOROGO
 10
31237.604341291921
 20
1835.7494964292871
 30
0.0
 11
31237.604341291921
 21
1779.749496429288
 31
0.0
  0
LINE
  5
343E
  8
YODOROGO
 10
31349.604341291939
 20
1835.7494964292871
 30
0.0
 11
31237.604341291921
 21
1835.7494964292871
 31
0.0
  0
LINE
  5
343F
  8
YODOROGO
 10
31349.604341291939
 20
1779.749496429288
 30
0.0
 11
31349.604341291939
 21
1835.7494964292871
 31
0.0
  0
LINE
  5
3440
  8
YODOROGO
 10
31533.60434129191
 20
1875.7494964292871
 30
0.0
 11
31533.60434129191
 21
1915.7494964292871
 31
0.0
  0
LINE
  5
3441
  8
YODOROGO
 10
31413.604341291921
 20
1707.749496429288
 30
0.0
 11
31413.604341291921
 21
1907.7494964292871
 31
0.0
  0
LINE
  5
3442
  8
YODOROGO
 10
31237.604341291921
 20
1707.749496429288
 30
0.0
 11
31413.604341291921
 21
1707.749496429288
 31
0.0
  0
LINE
  5
3443
  8
YODOROGO
 10
31413.604341291921
 20
1963.749496429286
 30
0.0
 11
31413.604341291921
 21
2027.749496429288
 31
0.0
  0
ARC
  5
3444
  8
YODOROGO
 10
31621.604341291939
 20
2003.749496429285
 30
0.0
 40
15.999999999994539
 50
270.0
 51
0.0000000000081422
  0
LINE
  5
3445
  8
YODOROGO
 10
31637.604341291921
 20
2027.749496429288
 30
0.0
 11
31637.604341291921
 21
2003.7494964292871
 31
0.0
  0
LINE
  5
3446
  8
YODOROGO
 10
31701.604341291939
 20
2027.749496429288
 30
0.0
 11
31637.604341291921
 21
2027.749496429288
 31
0.0
  0
LINE
  5
3447
  8
YODOROGO
 10
31701.604341291939
 20
1955.7494964292871
 30
0.0
 11
31701.604341291939
 21
2027.749496429288
 31
0.0
  0
ARC
  5
3448
  8
YODOROGO
 10
31661.604341291939
 20
1955.7494964292871
 30
0.0
 40
40.0
 50
270.0
 51
0.0
  0
LINE
  5
3449
  8
YODOROGO
 10
31701.604341291939
 20
1811.749496429288
 30
0.0
 11
31701.604341291939
 21
1875.7494964292871
 31
0.0
  0
LINE
  5
344A
  8
YODOROGO
 10
31653.60434129191
 20
1811.749496429288
 30
0.0
 11
31701.604341291939
 21
1811.749496429288
 31
0.0
  0
LINE
  5
3451
  8
SUNPOU
  6
CONTINUOUS
 62
     4
 10
8987.1561304999905
 20
14213.735599
 30
0.0
 11
8140.1607094999918
 21
14213.735599
 31
0.0
  0
LINE
  5
3452
  8
SUNPOU
  6
CONTINUOUS
 62
     4
 10
8220.1607094999908
 20
14406.230913999991
 30
0.0
 11
8220.1607094999908
 21
14213.735599
 31
0.0
  0
LINE
  5
3456
  8
SUNPOU
  6
CONTINUOUS
 62
     4
 10
8850.8642964999908
 20
15865.47142550002
 30
0.0
 11
8140.1607094999918
 21
15865.47142550002
 31
0.0
  0
LINE
  5
3457
  8
SUNPOU
  6
CONTINUOUS
 62
     4
 10
8220.1607094999908
 20
15865.47142550002
 30
0.0
 11
8220.1607094999908
 21
14406.230913999991
 31
0.0
  0
LINE
  5
345B
  8
SUNPOU
  6
CONTINUOUS
 62
     4
 10
8850.8642964999908
 20
15865.47142550002
 30
0.0
 11
8140.1607094999918
 21
15865.47142550002
 31
0.0
  0
LINE
  5
345C
  8
SUNPOU
  6
CONTINUOUS
 62
     4
 10
8220.1607094999908
 20
17324.230914
 30
0.0
 11
8220.1607094999908
 21
15865.47142550002
 31
0.0
  0
LINE
  5
3460
  8
SUNPOU
  6
CONTINUOUS
 62
     4
 10
8836.7221214999863
 20
18783.230914
 30
0.0
 11
8140.1607094999918
 21
18783.230914
 31
0.0
  0
LINE
  5
3461
  8
SUNPOU
  6
CONTINUOUS
 62
     4
 10
8220.1607094999908
 20
18783.230914
 30
0.0
 11
8220.1607094999908
 21
17324.230914
 31
0.0
  0
LINE
  5
3465
  8
SUNPOU
  6
CONTINUOUS
 62
     4
 10
8987.1561304999923
 20
20094.226823000001
 30
0.0
 11
8540.1607094999908
 21
20094.226823000001
 31
0.0
  0
LINE
  5
3466
  8
SUNPOU
  6
CONTINUOUS
 62
     4
 10
8987.1604854999896
 20
20114.226823000001
 30
0.0
 11
8540.1607094999908
 21
20114.226823000001
 31
0.0
  0
LINE
  5
3468
  8
SUNPOU
  6
CONTINUOUS
 62
     4
 10
8620.1607094999908
 20
20114.226823000001
 30
0.0
 11
8620.1607094999908
 21
20354.226823000012
 31
0.0
  0
LINE
  5
346A
  8
SUNPOU
  6
CONTINUOUS
 62
     4
 10
8620.1607094999908
 20
20074.226823000001
 30
0.0
 11
8620.1607094999908
 21
20114.226823000001
 31
0.0
  0
LINE
  5
346D
  8
SUNPOU
  6
CONTINUOUS
 62
     4
 10
8987.1604854999896
 20
20114.226823000001
 30
0.0
 11
8140.1607094999918
 21
20114.226823000001
 31
0.0
  0
LINE
  5
346E
  8
SUNPOU
  6
CONTINUOUS
 62
     4
 10
8220.1607094999908
 20
19891.730914
 30
0.0
 11
8220.1607094999908
 21
20114.226823000001
 31
0.0
  0
LINE
  5
3472
  8
SUNPOU
  6
CONTINUOUS
 62
     4
 10
8836.7221214999863
 20
18783.230914
 30
0.0
 11
8140.1607094999918
 21
18783.230914
 31
0.0
  0
LINE
  5
3473
  8
SUNPOU
  6
CONTINUOUS
 62
     4
 10
8220.1607094999908
 20
18783.230914
 30
0.0
 11
8220.1607094999908
 21
19891.730914
 31
0.0
  0
LINE
  5
3477
  8
SUNPOU
  6
CONTINUOUS
 62
     4
 10
9064.1619694999881
 20
20194.226823000001
 30
0.0
 11
9064.1619694999881
 21
20744.232102000031
 31
0.0
  0
LINE
  5
3478
  8
SUNPOU
  6
CONTINUOUS
 62
     4
 10
9149.6619694999936
 20
20664.232102000031
 30
0.0
 11
9389.6619694999881
 21
20664.232102000031
 31
0.0
  0
LINE
  5
3479
  8
SUNPOU
  6
CONTINUOUS
 62
     4
 10
9067.1619694999881
 20
20664.232102000031
 30
0.0
 11
8827.1619694999881
 21
20664.232102000031
 31
0.0
  0
LINE
  5
347B
  8
SUNPOU
  6
CONTINUOUS
 62
     4
 10
9149.6619694999936
 20
20664.232102000031
 30
0.0
 11
9067.1619694999881
 21
20664.232102000031
 31
0.0
  0
LINE
  5
347E
  8
SUNPOU
  6
CONTINUOUS
 62
     4
 10
12067.66048549998
 20
20664.232102000031
 30
0.0
 11
9149.6619694999936
 21
20664.232102000031
 31
0.0
  0
LINE
  5
3482
  8
SUNPOU
  6
CONTINUOUS
 62
     4
 10
15071.16048549999
 20
20194.226823000001
 30
0.0
 11
15071.16048549999
 21
20744.232102000031
 31
0.0
  0
LINE
  5
3483
  8
SUNPOU
  6
CONTINUOUS
 62
     4
 10
14985.66048549998
 20
20664.232102000031
 30
0.0
 11
14745.66048549998
 21
20664.232102000031
 31
0.0
  0
LINE
  5
3484
  8
SUNPOU
  6
CONTINUOUS
 62
     4
 10
15068.16048549999
 20
20664.232102000031
 30
0.0
 11
15308.16048549999
 21
20664.232102000031
 31
0.0
  0
LINE
  5
3486
  8
SUNPOU
  6
CONTINUOUS
 62
     4
 10
14985.66048549998
 20
20664.232102000031
 30
0.0
 11
15068.16048549999
 21
20664.232102000031
 31
0.0
  0
LINE
  5
3489
  8
SUNPOU
  6
CONTINUOUS
 62
     4
 10
12067.66048549998
 20
20664.232102000031
 30
0.0
 11
14985.66048549998
 21
20664.232102000031
 31
0.0
  0
LINE
  5
348D
  8
SUNPOU
  6
CONTINUOUS
 62
     4
 10
23471.11847949999
 20
20014.229199000019
 30
0.0
 11
23471.11847949999
 21
20744.232102000031
 31
0.0
  0
LINE
  5
348E
  8
SUNPOU
  6
CONTINUOUS
 62
     4
 10
22713.119469000001
 20
20014.229199000019
 30
0.0
 11
22713.119469000001
 21
20744.232102000031
 31
0.0
  0
LINE
  5
348F
  8
SUNPOU
  6
CONTINUOUS
 62
     4
 10
23471.11847949999
 20
20664.232102000031
 30
0.0
 11
22713.119469000001
 21
20664.232102000031
 31
0.0
  0
LINE
  5
3493
  8
SUNPOU
  6
CONTINUOUS
 62
     4
 10
20553.11847949999
 20
20014.229199000019
 30
0.0
 11
20553.11847949999
 21
20744.232102000031
 31
0.0
  0
LINE
  5
3494
  8
SUNPOU
  6
CONTINUOUS
 62
     4
 10
19795.11847949999
 20
20014.229199000019
 30
0.0
 11
19795.11847949999
 21
20744.232102000031
 31
0.0
  0
LINE
  5
3495
  8
SUNPOU
  6
CONTINUOUS
 62
     4
 10
20553.11847949999
 20
20664.232102000031
 30
0.0
 11
19795.11847949999
 21
20664.232102000031
 31
0.0
  0
LINE
  5
3499
  8
SUNPOU
  6
CONTINUOUS
 62
     4
 10
25753.61676349998
 20
19484.230914
 30
0.0
 11
26803.61808349999
 21
19484.230914
 31
0.0
  0
LINE
  5
349A
  8
SUNPOU
  6
CONTINUOUS
 62
     4
 10
26603.61808349999
 20
19891.730914
 30
0.0
 11
26803.61808349999
 21
19891.730914
 31
0.0
  0
LINE
  5
349B
  8
SUNPOU
  6
CONTINUOUS
 62
     4
 10
26723.61808349999
 20
19484.230914
 30
0.0
 11
26723.61808349999
 21
19891.730914
 31
0.0
  0
LINE
  5
349F
  8
SUNPOU
  6
CONTINUOUS
 62
     4
 10
19672.622174499989
 20
18783.230914
 30
0.0
 11
18785.6639025
 21
18783.230914
 31
0.0
  0
LINE
  5
34A0
  8
SUNPOU
  6
CONTINUOUS
 62
     4
 10
18865.663902499979
 20
18783.230914
 30
0.0
 11
18865.663902499979
 21
19891.730914
 31
0.0
  0
LINE
  5
34A4
  8
SUNPOU
  6
CONTINUOUS
 62
     4
 10
19672.622174499989
 20
18783.230914
 30
0.0
 11
18785.6639025
 21
18783.230914
 31
0.0
  0
LINE
  5
34A5
  8
SUNPOU
  6
CONTINUOUS
 62
     4
 10
18865.663902499979
 20
17324.230914
 30
0.0
 11
18865.663902499979
 21
18783.230914
 31
0.0
  0
LINE
  5
34A9
  8
SUNPOU
  6
CONTINUOUS
 62
     4
 10
19672.622174499989
 20
15865.471425500011
 30
0.0
 11
18785.6639025
 21
15865.471425500011
 31
0.0
  0
LINE
  5
34AA
  8
SUNPOU
  6
CONTINUOUS
 62
     4
 10
18865.663902499979
 20
15865.471425500011
 30
0.0
 11
18865.663902499979
 21
17324.230914
 31
0.0
  0
LINE
  5
34AE
  8
SUNPOU
  6
CONTINUOUS
 62
     4
 10
19672.622174499989
 20
15865.471425500011
 30
0.0
 11
18785.6639025
 21
15865.471425500011
 31
0.0
  0
LINE
  5
34AF
  8
SUNPOU
  6
CONTINUOUS
 62
     4
 10
18865.663902499979
 20
14406.230913999991
 30
0.0
 11
18865.663902499979
 21
15865.471425500011
 31
0.0
  0
LINE
  5
34B3
  8
SUNPOU
  6
CONTINUOUS
 62
     4
 10
19795.11847949999
 20
13700.467479999999
 30
0.0
 11
19795.11847949999
 21
13354.78283
 31
0.0
  0
LINE
  5
34B4
  8
SUNPOU
  6
CONTINUOUS
 62
     4
 10
19752.616236499998
 20
14283.733619000001
 30
0.0
 11
19752.616236499998
 21
13354.78283
 31
0.0
  0
LINE
  5
34B5
  8
SUNPOU
  6
CONTINUOUS
 62
     4
 10
19795.11847949999
 20
13434.78283
 30
0.0
 11
20035.118479500001
 21
13434.78283
 31
0.0
  0
LINE
  5
34B6
  8
SUNPOU
  6
CONTINUOUS
 62
     4
 10
19752.616236499998
 20
13434.78283
 30
0.0
 11
19512.616236499998
 21
13434.78283
 31
0.0
  0
LINE
  5
34B8
  8
SUNPOU
  6
CONTINUOUS
 62
     4
 10
19795.11847949999
 20
13434.78283
 30
0.0
 11
19752.616236499998
 21
13434.78283
 31
0.0
  0
LINE
  5
34BB
  8
SUNPOU
  6
CONTINUOUS
 62
     4
 10
25631.11847949999
 20
13700.467479999999
 30
0.0
 11
25631.11847949999
 21
13354.78283
 31
0.0
  0
LINE
  5
34BC
  8
SUNPOU
  6
CONTINUOUS
 62
     4
 10
25673.620722499989
 20
14283.733619000001
 30
0.0
 11
25673.620722499989
 21
13354.78283
 31
0.0
  0
LINE
  5
34BD
  8
SUNPOU
  6
CONTINUOUS
 62
     4
 10
25631.11847949999
 20
13434.78283
 30
0.0
 11
25391.11847949999
 21
13434.78283
 31
0.0
  0
LINE
  5
34BE
  8
SUNPOU
  6
CONTINUOUS
 62
     4
 10
25673.620722499989
 20
13434.78283
 30
0.0
 11
25913.620722499989
 21
13434.78283
 31
0.0
  0
LINE
  5
34C0
  8
SUNPOU
  6
CONTINUOUS
 62
     4
 10
25631.11847949999
 20
13434.78283
 30
0.0
 11
25673.620722499989
 21
13434.78283
 31
0.0
  0
LINE
  5
34C3
  8
2-0
  6
CONTINUOUS
 62
     3
 10
22670.61847949999
 20
14363.730913999991
 30
0.0
 11
22755.61847949999
 21
14363.730913999991
 31
0.0
  0
LINE
  5
34C4
  8
2-0
  6
CONTINUOUS
 62
     3
 10
22755.61847949999
 20
14363.730913999991
 30
0.0
 11
22755.61847949999
 21
14448.730913999991
 31
0.0
  0
LINE
  5
34C5
  8
2-0
  6
CONTINUOUS
 62
     3
 10
22755.61847949999
 20
14448.730913999991
 30
0.0
 11
22670.61847949999
 21
14448.730913999991
 31
0.0
  0
LINE
  5
34C6
  8
2-0
  6
CONTINUOUS
 62
     3
 10
22670.61847949999
 20
14448.730913999991
 30
0.0
 11
22670.61847949999
 21
14363.730913999991
 31
0.0
  0
LINE
  5
34C7
  8
SUNPOU
  6
CONTINUOUS
 62
     4
 10
25631.11847949999
 20
13700.467479999999
 30
0.0
 11
25631.11847949999
 21
13354.78283
 31
0.0
  0
LINE
  5
34C8
  8
SUNPOU
  6
CONTINUOUS
 62
     4
 10
25588.616236499991
 20
14283.733619000001
 30
0.0
 11
25588.616236499991
 21
13354.78283
 31
0.0
  0
LINE
  5
34C9
  8
SUNPOU
  6
CONTINUOUS
 62
     4
 10
25631.11847949999
 20
13434.78283
 30
0.0
 11
25871.11847949999
 21
13434.78283
 31
0.0
  0
LINE
  5
34CA
  8
SUNPOU
  6
CONTINUOUS
 62
     4
 10
25588.616236499991
 20
13434.78283
 30
0.0
 11
25348.616236499991
 21
13434.78283
 31
0.0
  0
LINE
  5
34CC
  8
SUNPOU
  6
CONTINUOUS
 62
     4
 10
25631.11847949999
 20
13434.78283
 30
0.0
 11
25588.616236499991
 21
13434.78283
 31
0.0
  0
LINE
  5
34CF
  8
SUNPOU
  6
CONTINUOUS
 62
     4
 10
19795.11847949999
 20
13700.467479999999
 30
0.0
 11
19795.11847949999
 21
13354.78283
 31
0.0
  0
LINE
  5
34D0
  8
SUNPOU
  6
CONTINUOUS
 62
     4
 10
19837.620722499982
 20
14283.733619000001
 30
0.0
 11
19837.620722499982
 21
13354.78283
 31
0.0
  0
LINE
  5
34D1
  8
SUNPOU
  6
CONTINUOUS
 62
     4
 10
19795.11847949999
 20
13434.78283
 30
0.0
 11
19555.11847949999
 21
13434.78283
 31
0.0
  0
LINE
  5
34D2
  8
SUNPOU
  6
CONTINUOUS
 62
     4
 10
19837.620722499982
 20
13434.78283
 30
0.0
 11
20077.620722499982
 21
13434.78283
 31
0.0
  0
LINE
  5
34D4
  8
SUNPOU
  6
CONTINUOUS
 62
     4
 10
19795.11847949999
 20
13434.78283
 30
0.0
 11
19837.620722499982
 21
13434.78283
 31
0.0
  0
LINE
  5
34D7
  8
SUNPOU
  6
CONTINUOUS
 62
     4
 10
19752.616236499998
 20
14283.733619000001
 30
0.0
 11
19752.616236499998
 21
12954.78283
 31
0.0
  0
LINE
  5
34D8
  8
SUNPOU
  6
CONTINUOUS
 62
     4
 10
25673.620722499989
 20
14283.733619000001
 30
0.0
 11
25673.620722499989
 21
12954.78283
 31
0.0
  0
LINE
  5
34D9
  8
SUNPOU
  6
CONTINUOUS
 62
     4
 10
19752.616236499998
 20
13034.78283
 30
0.0
 11
25673.620722499989
 21
13034.78283
 31
0.0
  0
LINE
  5
34DD
  8
SUNPOU
  6
CONTINUOUS
 62
     4
 10
25753.616763499991
 20
15164.230913999991
 30
0.0
 11
26803.61808349999
 21
15164.230913999991
 31
0.0
  0
LINE
  5
34DE
  8
SUNPOU
  6
CONTINUOUS
 62
     4
 10
26603.61808349999
 20
14406.230913999991
 30
0.0
 11
26803.61808349999
 21
14406.230913999991
 31
0.0
  0
LINE
  5
34DF
  8
SUNPOU
  6
CONTINUOUS
 62
     4
 10
26723.61808349999
 20
15164.230913999991
 30
0.0
 11
26723.61808349999
 21
14406.230913999991
 31
0.0
  0
LINE
  5
34E3
  8
SUNPOU
  6
CONTINUOUS
 62
     4
 10
25753.616763499991
 20
15865.471425500011
 30
0.0
 11
26803.61808349999
 21
15865.471425500011
 31
0.0
  0
LINE
  5
34E4
  8
SUNPOU
  6
CONTINUOUS
 62
     4
 10
25753.616763499991
 20
15164.230913999991
 30
0.0
 11
26803.61808349999
 21
15164.230913999991
 31
0.0
  0
LINE
  5
34E5
  8
SUNPOU
  6
CONTINUOUS
 62
     4
 10
26723.61808349999
 20
15865.471425500011
 30
0.0
 11
26723.61808349999
 21
15164.230913999991
 31
0.0
  0
LINE
  5
34E9
  8
SUNPOU
  6
CONTINUOUS
 62
     4
 10
25753.616763499991
 20
16566.230914
 30
0.0
 11
26803.61808349999
 21
16566.230914
 31
0.0
  0
LINE
  5
34EA
  8
SUNPOU
  6
CONTINUOUS
 62
     4
 10
25753.616763499991
 20
15865.471425500011
 30
0.0
 11
26803.61808349999
 21
15865.471425500011
 31
0.0
  0
LINE
  5
34EB
  8
SUNPOU
  6
CONTINUOUS
 62
     4
 10
26723.61808349999
 20
16566.230914
 30
0.0
 11
26723.61808349999
 21
15865.471425500011
 31
0.0
  0
LINE
  5
34EF
  8
SUNPOU
  6
CONTINUOUS
 62
     4
 10
26603.61808349999
 20
17324.230914
 30
0.0
 11
26803.61808349999
 21
17324.230914
 31
0.0
  0
LINE
  5
34F0
  8
SUNPOU
  6
CONTINUOUS
 62
     4
 10
25753.616763499991
 20
16566.230914
 30
0.0
 11
26803.61808349999
 21
16566.230914
 31
0.0
  0
LINE
  5
34F1
  8
SUNPOU
  6
CONTINUOUS
 62
     4
 10
26723.61808349999
 20
17324.230914
 30
0.0
 11
26723.61808349999
 21
16566.230914
 31
0.0
  0
LINE
  5
34F5
  8
SUNPOU
  6
CONTINUOUS
 62
     4
 10
25753.616763499991
 20
18082.230914
 30
0.0
 11
26803.61808349999
 21
18082.230914
 31
0.0
  0
LINE
  5
34F6
  8
SUNPOU
  6
CONTINUOUS
 62
     4
 10
26603.61808349999
 20
17324.230914
 30
0.0
 11
26803.61808349999
 21
17324.230914
 31
0.0
  0
LINE
  5
34F7
  8
SUNPOU
  6
CONTINUOUS
 62
     4
 10
26723.61808349999
 20
18082.230914
 30
0.0
 11
26723.61808349999
 21
17324.230914
 31
0.0
  0
LINE
  5
34FB
  8
SUNPOU
  6
CONTINUOUS
 62
     4
 10
25753.616763499991
 20
18783.230914
 30
0.0
 11
26803.61808349999
 21
18783.230914
 31
0.0
  0
LINE
  5
34FC
  8
SUNPOU
  6
CONTINUOUS
 62
     4
 10
25753.616763499991
 20
18082.230914
 30
0.0
 11
26803.61808349999
 21
18082.230914
 31
0.0
  0
LINE
  5
34FD
  8
SUNPOU
  6
CONTINUOUS
 62
     4
 10
26723.61808349999
 20
18783.230914
 30
0.0
 11
26723.61808349999
 21
18082.230914
 31
0.0
  0
LINE
  5
3501
  8
SUNPOU
  6
CONTINUOUS
 62
     4
 10
25753.616763499991
 20
19484.230914
 30
0.0
 11
26803.61808349999
 21
19484.230914
 31
0.0
  0
LINE
  5
3502
  8
SUNPOU
  6
CONTINUOUS
 62
     4
 10
25753.616763499991
 20
18783.230914
 30
0.0
 11
26803.61808349999
 21
18783.230914
 31
0.0
  0
LINE
  5
3503
  8
SUNPOU
  6
CONTINUOUS
 62
     4
 10
26723.61808349999
 20
19484.230914
 30
0.0
 11
26723.61808349999
 21
18783.230914
 31
0.0
  0
LINE
  5
3507
  8
SUNPOU
  6
CONTINUOUS
 62
     4
 10
26603.61808349999
 20
17324.230914
 30
0.0
 11
27203.61808349998
 21
17324.230914
 31
0.0
  0
LINE
  5
3508
  8
SUNPOU
  6
CONTINUOUS
 62
     4
 10
26603.61808349999
 20
19891.730914
 30
0.0
 11
27203.61808349998
 21
19891.730914
 31
0.0
  0
LINE
  5
3509
  8
SUNPOU
  6
CONTINUOUS
 62
     4
 10
27123.61808349998
 20
17324.230914
 30
0.0
 11
27123.61808349998
 21
19891.730914
 31
0.0
  0
LINE
  5
350D
  8
SUNPOU
  6
CONTINUOUS
 62
     4
 10
26603.61808349999
 20
14406.230913999991
 30
0.0
 11
27203.61808349998
 21
14406.230913999991
 31
0.0
  0
LINE
  5
350E
  8
SUNPOU
  6
CONTINUOUS
 62
     4
 10
26603.61808349999
 20
17324.230914
 30
0.0
 11
27203.61808349998
 21
17324.230914
 31
0.0
  0
LINE
  5
350F
  8
SUNPOU
  6
CONTINUOUS
 62
     4
 10
27123.61808349998
 20
14406.230913999991
 30
0.0
 11
27123.61808349998
 21
17324.230914
 31
0.0
  0
LINE
  5
3513
  8
SUNPOU
  6
CONTINUOUS
 62
     4
 10
25753.616763499991
 20
19934.228209000001
 30
0.0
 11
27603.61808349999
 21
19934.228209000001
 31
0.0
  0
LINE
  5
3514
  8
SUNPOU
  6
CONTINUOUS
 62
     4
 10
25753.616763499991
 20
14363.733619000001
 30
0.0
 11
27603.61808349999
 21
14363.733619000001
 31
0.0
  0
LINE
  5
3515
  8
SUNPOU
  6
CONTINUOUS
 62
     4
 10
27523.61808349998
 20
19934.228209000001
 30
0.0
 11
27523.61808349998
 21
14363.733619000001
 31
0.0
  0
LINE
  5
3519
  8
SUNPOU
  6
CONTINUOUS
 62
     4
 10
26603.61808349999
 20
19891.730914
 30
0.0
 11
27203.61808349998
 21
19891.730914
 31
0.0
  0
LINE
  5
351A
  8
SUNPOU
  6
CONTINUOUS
 62
     4
 10
25753.616763499991
 20
19934.228209000001
 30
0.0
 11
27203.61808349998
 21
19934.228209000001
 31
0.0
  0
LINE
  5
351B
  8
SUNPOU
  6
CONTINUOUS
 62
     4
 10
27123.61808349998
 20
19891.730914
 30
0.0
 11
27123.61808349998
 21
19651.730914
 31
0.0
  0
LINE
  5
351C
  8
SUNPOU
  6
CONTINUOUS
 62
     4
 10
27123.61808349998
 20
19934.228209000001
 30
0.0
 11
27123.61808349998
 21
20174.228209000001
 31
0.0
  0
LINE
  5
351E
  8
SUNPOU
  6
CONTINUOUS
 62
     4
 10
27123.61808349998
 20
19891.730914
 30
0.0
 11
27123.61808349998
 21
19934.228209000001
 31
0.0
  0
LINE
  5
3521
  8
SUNPOU
  6
CONTINUOUS
 62
     4
 10
26603.61808349999
 20
14406.230913999991
 30
0.0
 11
27203.61808349998
 21
14406.230913999991
 31
0.0
  0
LINE
  5
3522
  8
SUNPOU
  6
CONTINUOUS
 62
     4
 10
25753.616763499991
 20
14363.733619000001
 30
0.0
 11
27203.61808349998
 21
14363.733619000001
 31
0.0
  0
LINE
  5
3523
  8
SUNPOU
  6
CONTINUOUS
 62
     4
 10
27123.61808349998
 20
14406.230913999991
 30
0.0
 11
27123.61808349998
 21
14646.230913999991
 31
0.0
  0
LINE
  5
3524
  8
SUNPOU
  6
CONTINUOUS
 62
     4
 10
27123.61808349998
 20
14363.733619000001
 30
0.0
 11
27123.61808349998
 21
14123.733619000001
 31
0.0
  0
LINE
  5
3526
  8
SUNPOU
  6
CONTINUOUS
 62
     4
 10
27123.61808349998
 20
14406.230913999991
 30
0.0
 11
27123.61808349998
 21
14363.733619000001
 31
0.0
  0
LINE
  5
3529
  8
SUNPOU
  6
CONTINUOUS
 62
     4
 10
24873.118479500001
 20
20014.229199000019
 30
0.0
 11
24873.118479500001
 21
20744.232102000031
 31
0.0
  0
LINE
  5
352A
  8
SUNPOU
  6
CONTINUOUS
 62
     4
 10
25631.119469000001
 20
20014.229199000019
 30
0.0
 11
25631.119469000001
 21
20744.232102000031
 31
0.0
  0
LINE
  5
352B
  8
SUNPOU
  6
CONTINUOUS
 62
     4
 10
24873.118479500001
 20
20664.232102000031
 30
0.0
 11
25631.119469000001
 21
20664.232102000031
 31
0.0
  0
LINE
  5
352F
  8
SUNPOU
  6
CONTINUOUS
 62
     4
 10
24172.11847949999
 20
20014.229199000019
 30
0.0
 11
24172.11847949999
 21
20744.232102000031
 31
0.0
  0
LINE
  5
3530
  8
SUNPOU
  6
CONTINUOUS
 62
     4
 10
24873.118479500001
 20
20014.229199000019
 30
0.0
 11
24873.118479500001
 21
20744.232102000031
 31
0.0
  0
LINE
  5
3531
  8
SUNPOU
  6
CONTINUOUS
 62
     4
 10
24172.11847949999
 20
20664.232102000031
 30
0.0
 11
24873.118479500001
 21
20664.232102000031
 31
0.0
  0
LINE
  5
3535
  8
SUNPOU
  6
CONTINUOUS
 62
     4
 10
23471.11847949999
 20
20014.229199000019
 30
0.0
 11
23471.11847949999
 21
20744.232102000031
 31
0.0
  0
LINE
  5
3536
  8
SUNPOU
  6
CONTINUOUS
 62
     4
 10
24172.11847949999
 20
20014.229199000019
 30
0.0
 11
24172.11847949999
 21
20744.232102000031
 31
0.0
  0
LINE
  5
3537
  8
SUNPOU
  6
CONTINUOUS
 62
     4
 10
23471.11847949999
 20
20664.232102000031
 30
0.0
 11
24172.11847949999
 21
20664.232102000031
 31
0.0
  0
LINE
  5
353B
  8
SUNPOU
  6
CONTINUOUS
 62
     4
 10
25631.11847949999
 20
20014.229199000019
 30
0.0
 11
25631.11847949999
 21
20744.232102000031
 31
0.0
  0
LINE
  5
353C
  8
SUNPOU
  6
CONTINUOUS
 62
     4
 10
25673.614784500001
 20
20014.229199000019
 30
0.0
 11
25673.614784500001
 21
20744.232102000031
 31
0.0
  0
LINE
  5
353D
  8
SUNPOU
  6
CONTINUOUS
 62
     4
 10
25631.11847949999
 20
20664.232102000031
 30
0.0
 11
25391.11847949999
 21
20664.232102000031
 31
0.0
  0
LINE
  5
353E
  8
SUNPOU
  6
CONTINUOUS
 62
     4
 10
25673.614784500001
 20
20664.232102000031
 30
0.0
 11
25913.614784500001
 21
20664.232102000031
 31
0.0
  0
LINE
  5
3540
  8
SUNPOU
  6
CONTINUOUS
 62
     4
 10
25631.11847949999
 20
20664.232102000031
 30
0.0
 11
25673.614784500001
 21
20664.232102000031
 31
0.0
  0
LINE
  5
3543
  8
SUNPOU
  6
CONTINUOUS
 62
     4
 10
19795.11847949999
 20
20014.229199000019
 30
0.0
 11
19795.11847949999
 21
20744.232102000031
 31
0.0
  0
LINE
  5
3544
  8
SUNPOU
  6
CONTINUOUS
 62
     4
 10
19752.622174499989
 20
20014.229199000019
 30
0.0
 11
19752.622174499989
 21
20744.232102000031
 31
0.0
  0
LINE
  5
3545
  8
SUNPOU
  6
CONTINUOUS
 62
     4
 10
19795.11847949999
 20
20664.232102000031
 30
0.0
 11
20035.118479500001
 21
20664.232102000031
 31
0.0
  0
LINE
  5
3546
  8
SUNPOU
  6
CONTINUOUS
 62
     4
 10
19752.622174499989
 20
20664.232102000031
 30
0.0
 11
19512.622174499978
 21
20664.232102000031
 31
0.0
  0
LINE
  5
3548
  8
SUNPOU
  6
CONTINUOUS
 62
     4
 10
19795.11847949999
 20
20664.232102000031
 30
0.0
 11
19752.622174499989
 21
20664.232102000031
 31
0.0
  0
LINE
  5
354B
  8
SUNPOU
  6
CONTINUOUS
 62
     4
 10
21955.11847949999
 20
20014.229199000019
 30
0.0
 11
21955.11847949999
 21
20744.232102000031
 31
0.0
  0
LINE
  5
354C
  8
SUNPOU
  6
CONTINUOUS
 62
     4
 10
22713.119469000001
 20
20014.229199000019
 30
0.0
 11
22713.119469000001
 21
20744.232102000031
 31
0.0
  0
LINE
  5
354D
  8
SUNPOU
  6
CONTINUOUS
 62
     4
 10
21955.11847949999
 20
20664.232102000031
 30
0.0
 11
22713.119469000001
 21
20664.232102000031
 31
0.0
  0
LINE
  5
3551
  8
SUNPOU
  6
CONTINUOUS
 62
     4
 10
21254.11847949999
 20
20014.229199000019
 30
0.0
 11
21254.11847949999
 21
20744.232102000031
 31
0.0
  0
LINE
  5
3552
  8
SUNPOU
  6
CONTINUOUS
 62
     4
 10
21955.11847949999
 20
20014.229199000019
 30
0.0
 11
21955.11847949999
 21
20744.232102000031
 31
0.0
  0
LINE
  5
3553
  8
SUNPOU
  6
CONTINUOUS
 62
     4
 10
21254.11847949999
 20
20664.232102000031
 30
0.0
 11
21955.11847949999
 21
20664.232102000031
 31
0.0
  0
LINE
  5
3557
  8
SUNPOU
  6
CONTINUOUS
 62
     4
 10
20553.11847949999
 20
20014.229199000019
 30
0.0
 11
20553.11847949999
 21
20744.232102000031
 31
0.0
  0
LINE
  5
3558
  8
SUNPOU
  6
CONTINUOUS
 62
     4
 10
21254.11847949999
 20
20014.229199000019
 30
0.0
 11
21254.11847949999
 21
20744.232102000031
 31
0.0
  0
LINE
  5
3559
  8
SUNPOU
  6
CONTINUOUS
 62
     4
 10
20553.11847949999
 20
20664.232102000031
 30
0.0
 11
21254.11847949999
 21
20664.232102000031
 31
0.0
  0
LINE
  5
355D
  8
SUNPOU
  6
CONTINUOUS
 62
     4
 10
8769.3738785000023
 20
8722.9653796838102
 30
0.0
 11
8769.3738785000023
 21
9843.7812800000029
 31
0.0
  0
LINE
  5
355E
  8
SUNPOU
  6
CONTINUOUS
 62
     4
 10
8589.3738785000023
 20
8852.7796040000067
 30
0.0
 11
8589.3738785000023
 21
9843.7812800000029
 31
0.0
  0
LINE
  5
355F
  8
SUNPOU
  6
CONTINUOUS
 62
     4
 10
8769.3738785000023
 20
9763.7812800000029
 30
0.0
 11
8589.3738785000023
 21
9763.7812800000029
 31
0.0
  0
LINE
  5
3563
  8
SUNPOU
  6
CONTINUOUS
 62
     4
 10
19665.1178205
 20
6615.7796039999957
 30
0.0
 11
18865.119139499991
 21
6615.7796039999957
 31
0.0
  0
LINE
  5
3564
  8
SUNPOU
  6
CONTINUOUS
 62
     4
 10
19665.1178205
 20
8507.2796039999957
 30
0.0
 11
18865.119139499991
 21
8507.2796039999957
 31
0.0
  0
LINE
  5
3565
  8
SUNPOU
  6
CONTINUOUS
 62
     4
 10
18945.119139499991
 20
6615.7796039999957
 30
0.0
 11
18945.119139499991
 21
8507.2796039999957
 31
0.0
  0
LINE
  5
3569
  8
SUNPOU
  6
CONTINUOUS
 62
     4
 10
19665.1178205
 20
6615.7796039999957
 30
0.0
 11
18465.116830499981
 21
6615.7796039999957
 31
0.0
  0
LINE
  5
356A
  8
SUNPOU
  6
CONTINUOUS
 62
     4
 10
19632.618084499969
 20
8964.2791089999973
 30
0.0
 11
18465.116830499988
 21
8964.2791089999973
 31
0.0
  0
LINE
  5
356B
  8
SUNPOU
  6
CONTINUOUS
 62
     4
 10
18545.116830499981
 20
6615.7796039999957
 30
0.0
 11
18545.116830499988
 21
8964.2791089999973
 31
0.0
  0
LINE
  5
358B
  8
SUNPOU
  6
CONTINUOUS
 62
     4
 10
19889.118479499979
 20
6435.7797690000007
 30
0.0
 11
19889.118479499979
 21
5635.7797689999989
 31
0.0
  0
LINE
  5
358C
  8
SUNPOU
  6
CONTINUOUS
 62
     4
 10
22619.11847949999
 20
6435.7797690000007
 30
0.0
 11
22619.11847949999
 21
5635.7797689999989
 31
0.0
  0
LINE
  5
358D
  8
SUNPOU
  6
CONTINUOUS
 62
     4
 10
19889.118479499979
 20
5715.7797689999998
 30
0.0
 11
22619.11847949999
 21
5715.7797689999998
 31
0.0
  0
LINE
  5
3591
  8
SUNPOU
  6
CONTINUOUS
 62
     4
 10
22807.11847949999
 20
6435.7797690000007
 30
0.0
 11
22807.11847949999
 21
5635.7797689999989
 31
0.0
  0
LINE
  5
3592
  8
SUNPOU
  6
CONTINUOUS
 62
     4
 10
25537.118479499979
 20
6435.7797690000007
 30
0.0
 11
25537.118479499979
 21
5635.7797689999989
 31
0.0
  0
LINE
  5
3593
  8
SUNPOU
  6
CONTINUOUS
 62
     4
 10
22807.11847949999
 20
5715.7797689999998
 30
0.0
 11
25537.118479499979
 21
5715.7797689999998
 31
0.0
  0
LINE
  5
3597
  8
SUNPOU
  6
CONTINUOUS
 62
     4
 10
22713.118479499979
 20
6173.1273459999966
 30
0.0
 11
22713.118479499979
 21
5235.7797689999998
 31
0.0
  0
LINE
  5
3598
  8
SUNPOU
  6
CONTINUOUS
 62
     4
 10
25631.11847949999
 20
6173.1273459999966
 30
0.0
 11
25631.11847949999
 21
5235.7797689999998
 31
0.0
  0
LINE
  5
3599
  8
SUNPOU
  6
CONTINUOUS
 62
     4
 10
22713.118479499979
 20
5315.7797690000016
 30
0.0
 11
25631.11847949999
 21
5315.7797690000016
 31
0.0
  0
LINE
  5
359D
  8
SUNPOU
  6
CONTINUOUS
 62
     4
 10
19795.11847949999
 20
6173.1273459999966
 30
0.0
 11
19795.11847949999
 21
5235.7797689999998
 31
0.0
  0
LINE
  5
359E
  8
SUNPOU
  6
CONTINUOUS
 62
     4
 10
22713.118479499979
 20
6173.1273459999966
 30
0.0
 11
22713.118479499979
 21
5235.7797689999998
 31
0.0
  0
LINE
  5
359F
  8
SUNPOU
  6
CONTINUOUS
 62
     4
 10
19795.11847949999
 20
5315.7797690000016
 30
0.0
 11
22713.118479499979
 21
5315.7797690000016
 31
0.0
  0
LINE
  5
35A3
  8
SUNPOU
  6
CONTINUOUS
 62
     4
 10
25631.122438499999
 20
6173.1273459999966
 30
0.0
 11
25631.122438499999
 21
5235.7797689999998
 31
0.0
  0
LINE
  5
35A4
  8
SUNPOU
  6
CONTINUOUS
 62
     4
 10
25673.622438499991
 20
6435.7797690000007
 30
0.0
 11
25673.622438499991
 21
5235.7797689999998
 31
0.0
  0
LINE
  5
35A5
  8
SUNPOU
  6
CONTINUOUS
 62
     4
 10
25631.122438499999
 20
5315.7797690000016
 30
0.0
 11
25391.122438499999
 21
5315.7797690000016
 31
0.0
  0
LINE
  5
35A6
  8
SUNPOU
  6
CONTINUOUS
 62
     4
 10
25673.622438499991
 20
5315.7797690000016
 30
0.0
 11
25913.622438499991
 21
5315.7797690000016
 31
0.0
  0
LINE
  5
35A8
  8
SUNPOU
  6
CONTINUOUS
 62
     4
 10
25631.122438499999
 20
5315.7797690000016
 30
0.0
 11
25673.622438499991
 21
5315.7797690000016
 31
0.0
  0
LINE
  5
35AB
  8
SUNPOU
  6
CONTINUOUS
 62
     4
 10
19795.11847949999
 20
6173.1273459999966
 30
0.0
 11
19795.11847949999
 21
5235.7797689999998
 31
0.0
  0
LINE
  5
35AC
  8
SUNPOU
  6
CONTINUOUS
 62
     4
 10
19752.618479499979
 20
6435.7797690000007
 30
0.0
 11
19752.618479499979
 21
5235.7797689999998
 31
0.0
  0
LINE
  5
35AD
  8
SUNPOU
  6
CONTINUOUS
 62
     4
 10
19795.11847949999
 20
5315.7797690000016
 30
0.0
 11
20035.118479500001
 21
5315.7797690000016
 31
0.0
  0
LINE
  5
35AE
  8
SUNPOU
  6
CONTINUOUS
 62
     4
 10
19752.618479499979
 20
5315.7797690000016
 30
0.0
 11
19512.618479499979
 21
5315.7797690000016
 31
0.0
  0
LINE
  5
35B0
  8
SUNPOU
  6
CONTINUOUS
 62
     4
 10
19795.11847949999
 20
5315.7797690000016
 30
0.0
 11
19752.618479499979
 21
5315.7797690000016
 31
0.0
  0
LINE
  5
35B3
  8
SUNPOU
  6
CONTINUOUS
 62
     4
 10
19752.618479499979
 20
6435.7797690000007
 30
0.0
 11
19752.618479499979
 21
4835.7799339999983
 31
0.0
  0
LINE
  5
35B4
  8
SUNPOU
  6
CONTINUOUS
 62
     4
 10
25673.61847949999
 20
6435.7797690000007
 30
0.0
 11
25673.61847949999
 21
4835.7799339999983
 31
0.0
  0
LINE
  5
35B5
  8
SUNPOU
  6
CONTINUOUS
 62
     4
 10
19752.618479499979
 20
4915.7799339999983
 30
0.0
 11
25673.61847949999
 21
4915.7799339999983
 31
0.0
  0
LINE
  5
35B9
  8
SUNPOU
  6
CONTINUOUS
 62
     4
 10
14432.373878500001
 20
6615.7796040000021
 30
0.0
 11
15509.87229449999
 21
6615.7796040000021
 31
0.0
  0
LINE
  5
35BA
  8
SUNPOU
  6
CONTINUOUS
 62
     4
 10
14524.679158099359
 20
8964.279604000003
 30
0.0
 11
15509.87229449999
 21
8964.279604000003
 31
0.0
  0
LINE
  5
35BB
  8
SUNPOU
  6
CONTINUOUS
 62
     4
 10
15429.87229449999
 20
6615.7796040000021
 30
0.0
 11
15429.87229449999
 21
8964.279604000003
 31
0.0
  0
LINE
  5
35BF
  8
SUNPOU
  6
CONTINUOUS
 62
     4
 10
8681.8738785000005
 20
6615.7796040000021
 30
0.0
 11
7599.3754605000086
 21
6615.7796040000021
 31
0.0
  0
LINE
  5
35C0
  8
SUNPOU
  6
CONTINUOUS
 62
     4
 10
8509.3758565000026
 20
8771.7796040000067
 30
0.0
 11
7599.3754605000086
 21
8771.7796040000067
 31
0.0
  0
LINE
  5
35C1
  8
SUNPOU
  6
CONTINUOUS
 62
     4
 10
7679.3754605000104
 20
6615.7796040000021
 30
0.0
 11
7679.3754605000104
 21
8771.7796040000067
 31
0.0
  0
LINE
  5
35C5
  8
SUNPOU
  6
CONTINUOUS
 62
     4
 10
8589.3738785000023
 20
8852.7796040000067
 30
0.0
 11
8589.3738785000023
 21
10243.779630000001
 31
0.0
  0
LINE
  5
35C6
  8
SUNPOU
  6
CONTINUOUS
 62
     4
 10
14489.873878500001
 20
8984.6694274124347
 30
0.0
 11
14489.873878500001
 21
10243.779630000001
 31
0.0
  0
LINE
  5
35C7
  8
SUNPOU
  6
CONTINUOUS
 62
     4
 10
8589.3738785000023
 20
10163.779630000001
 30
0.0
 11
14489.873878500001
 21
10163.779630000001
 31
0.0
  0
LINE
  5
35CB
  8
SUNPOU
  6
CONTINUOUS
 62
     4
 10
14339.873878500001
 20
8910.6896680000063
 30
0.0
 11
14339.873878500001
 21
9843.7812800000029
 31
0.0
  0
LINE
  5
35CC
  8
SUNPOU
  6
CONTINUOUS
 62
     4
 10
14489.873878500001
 20
8984.6694274124347
 30
0.0
 11
14489.873878500001
 21
9843.7812800000029
 31
0.0
  0
LINE
  5
35CD
  8
SUNPOU
  6
CONTINUOUS
 62
     4
 10
14339.873878500001
 20
9763.7812800000029
 30
0.0
 11
14099.873878500001
 21
9763.7812800000029
 31
0.0
  0
LINE
  5
35CE
  8
SUNPOU
  6
CONTINUOUS
 62
     4
 10
14489.873878500001
 20
9763.7812800000029
 30
0.0
 11
14729.873878500001
 21
9763.7812800000029
 31
0.0
  0
LINE
  5
35D0
  8
SUNPOU
  6
CONTINUOUS
 62
     4
 10
14339.873878500001
 20
9763.7812800000029
 30
0.0
 11
14489.873878500001
 21
9763.7812800000029
 31
0.0
  0
LINE
  5
35D3
  8
SUNPOU
  6
CONTINUOUS
 62
     4
 10
8769.3738785000023
 20
8722.9653796838102
 30
0.0
 11
8769.3738785000023
 21
9843.7812800000029
 31
0.0
  0
LINE
  5
35D4
  8
SUNPOU
  6
CONTINUOUS
 62
     4
 10
14339.873878500001
 20
8910.6896680000063
 30
0.0
 11
14339.873878500001
 21
9843.7812800000029
 31
0.0
  0
LINE
  5
35D5
  8
SUNPOU
  6
CONTINUOUS
 62
     4
 10
8769.3738785000023
 20
9763.7812800000029
 30
0.0
 11
14339.873878500001
 21
9763.7812800000029
 31
0.0
  0
LINE
  5
35D9
  8
SUNPOU
  6
CONTINUOUS
 62
     4
 10
8769.3738785000023
 20
6535.7796040000076
 30
0.0
 11
8769.3738785000023
 21
4835.7799340000038
 31
0.0
  0
LINE
  5
35DA
  8
SUNPOU
  6
CONTINUOUS
 62
     4
 10
14339.873878500001
 20
6535.7796040000076
 30
0.0
 11
14339.873878500001
 21
4835.7799340000038
 31
0.0
  0
LINE
  5
35DB
  8
SUNPOU
  6
CONTINUOUS
 62
     4
 10
8769.3738785000023
 20
4915.7799340000047
 30
0.0
 11
14339.873878500001
 21
4915.7799340000047
 31
0.0
  0
LINE
  5
35DF
  8
SUNPOU
  6
CONTINUOUS
 62
     4
 10
14297.373878500001
 20
6173.1273460000039
 30
0.0
 11
14297.373878500001
 21
5235.7797690000043
 31
0.0
  0
LINE
  5
35E0
  8
SUNPOU
  6
CONTINUOUS
 62
     4
 10
14339.873878500001
 20
6535.7796040000076
 30
0.0
 11
14339.873878500001
 21
5235.7797690000043
 31
0.0
  0
LINE
  5
35E1
  8
SUNPOU
  6
CONTINUOUS
 62
     4
 10
14297.373878500001
 20
5315.7797690000052
 30
0.0
 11
14057.373878500001
 21
5315.7797690000052
 31
0.0
  0
LINE
  5
35E2
  8
SUNPOU
  6
CONTINUOUS
 62
     4
 10
14339.873878500001
 20
5315.7797690000052
 30
0.0
 11
14579.873878500001
 21
5315.7797690000052
 31
0.0
  0
LINE
  5
35E4
  8
SUNPOU
  6
CONTINUOUS
 62
     4
 10
14297.373878500001
 20
5315.7797690000052
 30
0.0
 11
14339.873878500001
 21
5315.7797690000052
 31
0.0
  0
LINE
  5
35E7
  8
SUNPOU
  6
CONTINUOUS
 62
     4
 10
8811.8738785000005
 20
6173.1273460000039
 30
0.0
 11
8811.8738785000005
 21
5235.7797690000043
 31
0.0
  0
LINE
  5
35E8
  8
SUNPOU
  6
CONTINUOUS
 62
     4
 10
8769.3738785000023
 20
6535.7796040000076
 30
0.0
 11
8769.3738785000023
 21
5235.7797690000043
 31
0.0
  0
LINE
  5
35E9
  8
SUNPOU
  6
CONTINUOUS
 62
     4
 10
8811.8738785000005
 20
5315.7797690000052
 30
0.0
 11
9051.8738785000023
 21
5315.7797690000052
 31
0.0
  0
LINE
  5
35EA
  8
SUNPOU
  6
CONTINUOUS
 62
     4
 10
8769.3738785000023
 20
5315.7797690000052
 30
0.0
 11
8529.3738785000023
 21
5315.7797690000052
 31
0.0
  0
LINE
  5
35EC
  8
SUNPOU
  6
CONTINUOUS
 62
     4
 10
8811.8738785000005
 20
5315.7797690000052
 30
0.0
 11
8769.3738785000023
 21
5315.7797690000052
 31
0.0
  0
LINE
  5
35EF
  8
SUNPOU
  6
CONTINUOUS
 62
     4
 10
11379.373878500001
 20
6173.1273460000039
 30
0.0
 11
11379.373878500001
 21
5235.7797690000043
 31
0.0
  0
LINE
  5
35F0
  8
SUNPOU
  6
CONTINUOUS
 62
     4
 10
8811.8738785000005
 20
6173.1273460000039
 30
0.0
 11
8811.8738785000005
 21
5235.7797690000043
 31
0.0
  0
LINE
  5
35F1
  8
SUNPOU
  6
CONTINUOUS
 62
     4
 10
11379.373878500001
 20
5315.7797690000052
 30
0.0
 11
8811.8738785000005
 21
5315.7797690000052
 31
0.0
  0
LINE
  5
35F5
  8
SUNPOU
  6
CONTINUOUS
 62
     4
 10
11379.373878500001
 20
6173.1273460000039
 30
0.0
 11
11379.373878500001
 21
5235.7797690000043
 31
0.0
  0
LINE
  5
35F6
  8
SUNPOU
  6
CONTINUOUS
 62
     4
 10
14297.373878500001
 20
6173.1273460000039
 30
0.0
 11
14297.373878500001
 21
5235.7797690000043
 31
0.0
  0
LINE
  5
35F7
  8
SUNPOU
  6
CONTINUOUS
 62
     4
 10
11379.373878500001
 20
5315.7797690000052
 30
0.0
 11
14297.373878500001
 21
5315.7797690000052
 31
0.0
  0
TEXT
  5
35FB
  8
0
  6
CONTINUOUS
 62
     7
 10
12571.707211833331
 20
5395.7797690000043
 30
0.0
 40
160.0
  1
2918
  0
TEXT
  5
35FE
  8
0
  6
CONTINUOUS
 62
     7
 10
9695.6238785000023
 20
5395.7797690000043
 30
0.0
 40
160.0
  1
2567.5
  0
TEXT
  5
3603
  8
0
  6
CONTINUOUS
 62
     7
 10
8172.2001694036962
 20
5395.7797690000043
 30
0.0
 40
160.0
  1
42.5
  0
TEXT
  5
3606
  8
0
  6
CONTINUOUS
 62
     7
 10
14478.192515809809
 20
5395.7797690000043
 30
0.0
 40
160.0
  1
42.5
  0
TEXT
  5
3607
  8
0
  6
CONTINUOUS
 62
     7
 10
11167.957211833331
 20
4995.7799340000047
 30
0.0
 40
160.0
  1
5570.5
  0
TEXT
  5
360A
  8
0
  6
CONTINUOUS
 62
     7
 10
11167.957211833331
 20
9843.7812800000029
 30
0.0
 40
160.0
  1
5570.5
  0
TEXT
  5
360F
  8
0
  6
CONTINUOUS
 62
     7
 10
14556.54054516667
 20
9843.7812800000029
 30
0.0
 40
160.0
  1
150
  0
TEXT
  5
3610
  8
0
  6
CONTINUOUS
 62
     7
 10
11166.29054516667
 20
10243.779630000001
 30
0.0
 40
160.0
  1
5900.5
  0
TEXT
  5
3613
  8
0
  6
CONTINUOUS
 62
     7
 10
7599.3754605000086
 20
6915.112937333337
 30
0.0
 40
160.0
  1
2156（2396）
 50
90.0
  0
TEXT
  5
3616
  8
0
  6
CONTINUOUS
 62
     7
 10
15349.87229449999
 20
6771.362937333337
 30
0.0
 40
160.0
  1
2348.5（2588.5）
 50
90.0
  0
TEXT
  5
3619
  8
0
  6
CONTINUOUS
 62
     7
 10
22446.451812833329
 20
4995.7799339999983
 30
0.0
 40
160.0
  1
5921
  0
TEXT
  5
361E
  8
0
  6
CONTINUOUS
 62
     7
 10
19186.57948924115
 20
5395.7797689999998
 30
0.0
 40
160.0
  1
42.5
  0
TEXT
  5
3621
  8
0
  6
CONTINUOUS
 62
     7
 10
25759.661428758849
 20
5395.7797689999998
 30
0.0
 40
160.0
  1
42.5
  0
TEXT
  5
3622
  8
0
  6
CONTINUOUS
 62
     7
 10
20987.451812833318
 20
5395.7797689999998
 30
0.0
 40
160.0
  1
2918
  0
TEXT
  5
3625
  8
0
  6
CONTINUOUS
 62
     7
 10
23905.451812833329
 20
5395.7797689999998
 30
0.0
 40
160.0
  1
2918
  0
TEXT
  5
3628
  8
0
  6
CONTINUOUS
 62
     7
 10
23364.118479500001
 20
5795.7797690000007
 30
0.0
 40
160.0
  1
有効開口巾 2730
  0
TEXT
  5
362B
  8
0
  6
CONTINUOUS
 62
     7
 10
20446.11847949999
 20
5795.7797690000007
 30
0.0
 40
160.0
  1
有効開口巾 2730
  0
TEXT
  5
363A
  8
0
  6
CONTINUOUS
 62
     7
 10
18465.116830499981
 20
6771.3626898333332
 30
0.0
 40
160.0
  1
2348.5（2588.5）
 50
90.0
  0
TEXT
  5
363F
  8
0
  6
CONTINUOUS
 62
     7
 10
18865.119139499991
 20
6679.7588422912713
 30
0.0
 40
160.0
  1
有効開口高サ 1891.5
 50
90.0
  0
TEXT
  5
3642
  8
0
  6
CONTINUOUS
 62
     7
 10
8128.4205078486357
 20
9843.7812800000029
 30
0.0
 40
160.0
  1
180
  0
TEXT
  5
3643
  8
0
  6
CONTINUOUS
 62
     7
 10
20730.285146166661
 20
20744.232102000031
 30
0.0
 40
160.0
  1
701
  0
TEXT
  5
3646
  8
0
  6
CONTINUOUS
 62
     7
 10
21431.285146166661
 20
20744.232102000031
 30
0.0
 40
160.0
  1
701
  0
TEXT
  5
3649
  8
0
  6
CONTINUOUS
 62
     7
 10
22120.785640916671
 20
20744.232102000031
 30
0.0
 40
160.0
  1
758
  0
TEXT
  5
364E
  8
0
  6
CONTINUOUS
 62
     7
 10
19192.30649997119
 20
20744.232102000031
 30
0.0
 40
160.0
  1
42.5
  0
TEXT
  5
3651
  8
0
  6
CONTINUOUS
 62
     7
 10
25753.93045902879
 20
20744.232102000031
 30
0.0
 40
160.0
  1
42.5
  0
TEXT
  5
3652
  8
0
  6
CONTINUOUS
 62
     7
 10
23648.285146166661
 20
20744.232102000031
 30
0.0
 40
160.0
  1
701
  0
TEXT
  5
3655
  8
0
  6
CONTINUOUS
 62
     7
 10
24349.285146166661
 20
20744.232102000031
 30
0.0
 40
160.0
  1
701
  0
TEXT
  5
3658
  8
0
  6
CONTINUOUS
 62
     7
 10
25038.78564091666
 20
20744.232102000031
 30
0.0
 40
160.0
  1
758
  0
TEXT
  5
365D
  8
0
  6
CONTINUOUS
 62
     7
 10
27043.61808349999
 20
13790.177382603209
 30
0.0
 40
160.0
  1
42.5
 50
90.0
  0
TEXT
  5
3660
  8
0
  6
CONTINUOUS
 62
     7
 10
27043.61808349999
 20
20027.784445396788
 30
0.0
 40
160.0
  1
42.5
 50
90.0
  0
TEXT
  5
3661
  8
0
  6
CONTINUOUS
 62
     7
 10
27443.61808349998
 20
16762.314247333339
 30
0.0
 40
160.0
  1
5570.5
 50
90.0
  0
TEXT
  5
3664
  8
0
  6
CONTINUOUS
 62
     7
 10
27043.61808349999
 20
15598.56424733333
 30
0.0
 40
160.0
  1
2918
 50
90.0
  0
TEXT
  5
3667
  8
0
  6
CONTINUOUS
 62
     7
 10
27043.61808349999
 20
18207.980914000011
 30
0.0
 40
160.0
  1
2567.5
 50
90.0
  0
TEXT
  5
366A
  8
0
  6
CONTINUOUS
 62
     7
 10
26643.61808349999
 20
18960.397580666671
 30
0.0
 40
160.0
  1
701
 50
90.0
  0
TEXT
  5
366D
  8
0
  6
CONTINUOUS
 62
     7
 10
26643.61808349999
 20
18259.397580666671
 30
0.0
 40
160.0
  1
701
 50
90.0
  0
TEXT
  5
3670
  8
0
  6
CONTINUOUS
 62
     7
 10
26643.61808349999
 20
17489.897580666671
 30
0.0
 40
160.0
  1
758
 50
90.0
  0
TEXT
  5
3673
  8
0
  6
CONTINUOUS
 62
     7
 10
26643.61808349999
 20
16731.897580666671
 30
0.0
 40
160.0
  1
758
 50
90.0
  0
TEXT
  5
3676
  8
0
  6
CONTINUOUS
 62
     7
 10
26643.61808349999
 20
16042.51783641668
 30
0.0
 40
160.0
  1
701
 50
90.0
  0
TEXT
  5
3679
  8
0
  6
CONTINUOUS
 62
     7
 10
26643.61808349999
 20
15341.51783641668
 30
0.0
 40
160.0
  1
701
 50
90.0
  0
TEXT
  5
367C
  8
0
  6
CONTINUOUS
 62
     7
 10
26643.61808349999
 20
14571.897580666669
 30
0.0
 40
160.0
  1
758
 50
90.0
  0
TEXT
  5
367F
  8
0
  6
CONTINUOUS
 62
     7
 10
22446.451812833329
 20
13114.78283
 30
0.0
 40
160.0
  1
5921
  0
TEXT
  5
3684
  8
0
  6
CONTINUOUS
 62
     7
 10
19913.172151882081
 20
13514.78283
 30
0.0
 40
160.0
  1
42.5
  0
TEXT
  5
3687
  8
0
  6
CONTINUOUS
 62
     7
 10
25033.064807117898
 20
13514.78283
 30
0.0
 40
160.0
  1
42.5
  0
TEXT
  5
368A
  8
0
  6
CONTINUOUS
 62
     7
 10
25749.172151882089
 20
13514.78283
 30
0.0
 40
160.0
  1
42.5
  0
TEXT
  5
368D
  8
0
  6
CONTINUOUS
 62
     7
 10
19197.064807117891
 20
13514.78283
 30
0.0
 40
160.0
  1
42.5
  0
TEXT
  5
368E
  8
0
  6
CONTINUOUS
 62
     7
 10
18785.663902499979
 20
14869.18450308333
 30
0.0
 40
160.0
  1
1459
 50
90.0
  0
TEXT
  5
3691
  8
0
  6
CONTINUOUS
 62
     7
 10
18785.663902499979
 20
16328.184503083339
 30
0.0
 40
160.0
  1
1459
 50
90.0
  0
TEXT
  5
3694
  8
0
  6
CONTINUOUS
 62
     7
 10
18785.663902499979
 20
17787.064247333328
 30
0.0
 40
160.0
  1
1459
 50
90.0
  0
TEXT
  5
3697
  8
0
  6
CONTINUOUS
 62
     7
 10
18785.663902499979
 20
19004.147580666671
 30
0.0
 40
160.0
  1
1108.5
 50
90.0
  0
TEXT
  5
369C
  8
0
  6
CONTINUOUS
 62
     7
 10
27003.61808349999
 20
19193.608881643198
 30
0.0
 40
160.0
  1
407.5
 50
90.0
  0
TEXT
  5
369D
  8
0
  6
CONTINUOUS
 62
     7
 10
19960.785146166661
 20
20744.232102000031
 30
0.0
 40
160.0
  1
758
  0
TEXT
  5
36A0
  8
0
  6
CONTINUOUS
 62
     7
 10
22878.785640916671
 20
20744.232102000031
 30
0.0
 40
160.0
  1
758
  0
TEXT
  5
36A3
  8
0
  6
CONTINUOUS
 62
     7
 10
13259.993818833311
 20
20744.232102000031
 30
0.0
 40
160.0
  1
2918
  0
TEXT
  5
36A8
  8
0
  6
CONTINUOUS
 62
     7
 10
15122.15719152324
 20
20744.232102000031
 30
0.0
 40
160.0
  1
85.5
  0
TEXT
  5
36A9
  8
0
  6
CONTINUOUS
 62
     7
 10
10341.99456083332
 20
20744.232102000031
 30
0.0
 40
160.0
  1
2918
  0
TEXT
  5
36AE
  8
0
  6
CONTINUOUS
 62
     7
 10
8533.1652634767233
 20
20744.232102000031
 30
0.0
 40
160.0
  1
85.5
  0
TEXT
  5
36AF
  8
0
  6
CONTINUOUS
 62
     7
 10
8140.1607094999918
 20
19004.147580666671
 30
0.0
 40
160.0
  1
1108.5
 50
90.0
  0
TEXT
  5
36B4
  8
0
  6
CONTINUOUS
 62
     7
 10
8140.1607094999854
 20
20203.186098807681
 30
0.0
 40
160.0
  1
222.5
 50
90.0
  0
TEXT
  5
36B7
  8
0
  6
CONTINUOUS
 62
     7
 10
8540.1607094999908
 20
20234.226823000001
 30
0.0
 40
160.0
  1
20
 50
90.0
  0
TEXT
  5
36B8
  8
0
  6
CONTINUOUS
 62
     7
 10
8140.160709499989
 20
17787.064247333328
 30
0.0
 40
160.0
  1
1459
 50
90.0
  0
TEXT
  5
36BB
  8
0
  6
CONTINUOUS
 62
     7
 10
8140.160709499989
 20
16328.184503083339
 30
0.0
 40
160.0
  1
1459
 50
90.0
  0
TEXT
  5
36BE
  8
0
  6
CONTINUOUS
 62
     7
 10
8140.160709499989
 20
14869.18450308333
 30
0.0
 40
160.0
  1
1459
 50
90.0
  0
TEXT
  5
36C3
  8
0
  6
CONTINUOUS
 62
     7
 10
8140.1607094999781
 20
13598.27790370263
 30
0.0
 40
160.0
  1
192.5
 50
90.0
  0
ARC
  5
36CB
  8
0
  6
BYBLOCK
 62
     0
 10
8220.1607094999908
 20
14406.230913999991
 30
0.0
 40
15.0
 50
270.0
 51
90.0
  0
ARC
  5
36CC
  8
0
  6
BYBLOCK
 62
     0
 10
8220.1607094999908
 20
14406.230913999991
 30
0.0
 40
15.0
 50
90.0
 51
270.0
  0
ARC
  5
36CD
  8
0
  6
BYBLOCK
 62
     0
 10
8220.1607094999908
 20
14213.735599
 30
0.0
 40
15.0
 50
90.0
 51
270.0
  0
ARC
  5
36CE
  8
0
  6
BYBLOCK
 62
     0
 10
8220.1607094999908
 20
14213.735599
 30
0.0
 40
15.0
 50
270.0
 51
90.0
  0
ARC
  5
36CF
  8
0
  6
BYBLOCK
 62
     0
 10
8220.1607094999908
 20
15865.47142550002
 30
0.0
 40
15.0
 50
270.0
 51
90.0
  0
ARC
  5
36D0
  8
0
  6
BYBLOCK
 62
     0
 10
8220.1607094999908
 20
15865.47142550002
 30
0.0
 40
15.0
 50
90.0
 51
270.0
  0
ARC
  5
36D1
  8
0
  6
BYBLOCK
 62
     0
 10
8220.1607094999908
 20
14406.230913999991
 30
0.0
 40
15.0
 50
90.0
 51
270.0
  0
ARC
  5
36D2
  8
0
  6
BYBLOCK
 62
     0
 10
8220.1607094999908
 20
14406.230913999991
 30
0.0
 40
15.0
 50
270.0
 51
90.0
  0
ARC
  5
36D3
  8
0
  6
BYBLOCK
 62
     0
 10
8220.1607094999908
 20
17324.230914
 30
0.0
 40
15.0
 50
270.0
 51
90.0
  0
ARC
  5
36D4
  8
0
  6
BYBLOCK
 62
     0
 10
8220.1607094999908
 20
17324.230914
 30
0.0
 40
15.0
 50
90.0
 51
270.0
  0
ARC
  5
36D5
  8
0
  6
BYBLOCK
 62
     0
 10
8220.1607094999908
 20
15865.47142550002
 30
0.0
 40
15.0
 50
90.0
 51
270.0
  0
ARC
  5
36D6
  8
0
  6
BYBLOCK
 62
     0
 10
8220.1607094999908
 20
15865.47142550002
 30
0.0
 40
15.0
 50
270.0
 51
90.0
  0
ARC
  5
36D7
  8
0
  6
BYBLOCK
 62
     0
 10
8220.1607094999908
 20
18783.230914
 30
0.0
 40
15.0
 50
270.0
 51
90.0
  0
ARC
  5
36D8
  8
0
  6
BYBLOCK
 62
     0
 10
8220.1607094999908
 20
18783.230914
 30
0.0
 40
15.0
 50
90.0
 51
270.0
  0
ARC
  5
36D9
  8
0
  6
BYBLOCK
 62
     0
 10
8220.1607094999908
 20
17324.230914
 30
0.0
 40
15.0
 50
90.0
 51
270.0
  0
ARC
  5
36DA
  8
0
  6
BYBLOCK
 62
     0
 10
8220.1607094999908
 20
17324.230914
 30
0.0
 40
15.0
 50
270.0
 51
90.0
  0
ARC
  5
36DB
  8
0
  6
BYBLOCK
 62
     0
 10
8620.1607094999908
 20
20094.226823000001
 30
0.0
 40
15.0
 50
270.0
 51
90.0
  0
ARC
  5
36DC
  8
0
  6
BYBLOCK
 62
     0
 10
8620.1607094999908
 20
20094.226823000001
 30
0.0
 40
15.0
 50
90.0
 51
270.0
  0
ARC
  5
36DD
  8
0
  6
BYBLOCK
 62
     0
 10
8620.1607094999908
 20
20114.226823000001
 30
0.0
 40
15.0
 50
90.0
 51
270.0
  0
ARC
  5
36DE
  8
0
  6
BYBLOCK
 62
     0
 10
8620.1607094999908
 20
20114.226823000001
 30
0.0
 40
15.0
 50
270.0
 51
90.0
  0
ARC
  5
36DF
  8
0
  6
BYBLOCK
 62
     0
 10
8220.1607094999908
 20
19891.730914
 30
0.0
 40
15.0
 50
90.0
 51
270.0
  0
ARC
  5
36E0
  8
0
  6
BYBLOCK
 62
     0
 10
8220.1607094999908
 20
19891.730914
 30
0.0
 40
15.0
 50
270.0
 51
90.0
  0
ARC
  5
36E1
  8
0
  6
BYBLOCK
 62
     0
 10
8220.1607094999908
 20
20114.226823000001
 30
0.0
 40
15.0
 50
270.0
 51
90.0
  0
ARC
  5
36E2
  8
0
  6
BYBLOCK
 62
     0
 10
8220.1607094999908
 20
20114.226823000001
 30
0.0
 40
15.0
 50
90.0
 51
270.0
  0
ARC
  5
36E3
  8
0
  6
BYBLOCK
 62
     0
 10
8220.1607094999908
 20
18783.230914
 30
0.0
 40
15.0
 50
90.0
 51
270.0
  0
ARC
  5
36E4
  8
0
  6
BYBLOCK
 62
     0
 10
8220.1607094999908
 20
18783.230914
 30
0.0
 40
15.0
 50
270.0
 51
90.0
  0
ARC
  5
36E5
  8
0
  6
BYBLOCK
 62
     0
 10
8220.1607094999908
 20
19891.730914
 30
0.0
 40
15.0
 50
270.0
 51
90.0
  0
ARC
  5
36E6
  8
0
  6
BYBLOCK
 62
     0
 10
8220.1607094999908
 20
19891.730914
 30
0.0
 40
15.0
 50
90.0
 51
270.0
  0
ARC
  5
36E7
  8
0
  6
BYBLOCK
 62
     0
 10
9149.6619694999936
 20
20664.232102000031
 30
0.0
 40
15.0
 50
0.0
 51
180.0
  0
ARC
  5
36E8
  8
0
  6
BYBLOCK
 62
     0
 10
9149.6619694999936
 20
20664.232102000031
 30
0.0
 40
15.0
 50
180.0
 51
0.0
  0
ARC
  5
36E9
  8
0
  6
BYBLOCK
 62
     0
 10
9064.1619694999881
 20
20664.232102000031
 30
0.0
 40
15.0
 50
180.0
 51
0.0
  0
ARC
  5
36EA
  8
0
  6
BYBLOCK
 62
     0
 10
9064.1619694999881
 20
20664.232102000031
 30
0.0
 40
15.0
 50
0.0
 51
180.0
  0
ARC
  5
36EB
  8
0
  6
BYBLOCK
 62
     0
 10
12067.66048549998
 20
20664.232102000031
 30
0.0
 40
15.0
 50
180.0
 51
0.0
  0
ARC
  5
36EC
  8
0
  6
BYBLOCK
 62
     0
 10
12067.66048549998
 20
20664.232102000031
 30
0.0
 40
15.0
 50
0.0
 51
180.0
  0
ARC
  5
36ED
  8
0
  6
BYBLOCK
 62
     0
 10
9149.6619694999936
 20
20664.232102000031
 30
0.0
 40
15.0
 50
0.0
 51
180.0
  0
ARC
  5
36EE
  8
0
  6
BYBLOCK
 62
     0
 10
9149.6619694999936
 20
20664.232102000031
 30
0.0
 40
15.0
 50
180.0
 51
0.0
  0
ARC
  5
36EF
  8
0
  6
BYBLOCK
 62
     0
 10
14985.66048549998
 20
20664.232102000031
 30
0.0
 40
15.0
 50
180.0
 51
0.0
  0
ARC
  5
36F0
  8
0
  6
BYBLOCK
 62
     0
 10
14985.66048549998
 20
20664.232102000031
 30
0.0
 40
15.0
 50
0.0
 51
180.0
  0
ARC
  5
36F1
  8
0
  6
BYBLOCK
 62
     0
 10
15071.16048549999
 20
20664.232102000031
 30
0.0
 40
15.0
 50
0.0
 51
180.0
  0
ARC
  5
36F2
  8
0
  6
BYBLOCK
 62
     0
 10
15071.16048549999
 20
20664.232102000031
 30
0.0
 40
15.0
 50
180.0
 51
0.0
  0
ARC
  5
36F3
  8
0
  6
BYBLOCK
 62
     0
 10
12067.66048549998
 20
20664.232102000031
 30
0.0
 40
15.0
 50
0.0
 51
180.0
  0
ARC
  5
36F4
  8
0
  6
BYBLOCK
 62
     0
 10
12067.66048549998
 20
20664.232102000031
 30
0.0
 40
15.0
 50
180.0
 51
0.0
  0
ARC
  5
36F5
  8
0
  6
BYBLOCK
 62
     0
 10
14985.66048549998
 20
20664.232102000031
 30
0.0
 40
15.0
 50
180.0
 51
0.0
  0
ARC
  5
36F6
  8
0
  6
BYBLOCK
 62
     0
 10
14985.66048549998
 20
20664.232102000031
 30
0.0
 40
15.0
 50
0.0
 51
180.0
  0
ARC
  5
36F7
  8
0
  6
BYBLOCK
 62
     0
 10
23471.11847949999
 20
20664.232102000031
 30
0.0
 40
15.0
 50
180.0
 51
0.0
  0
ARC
  5
36F8
  8
0
  6
BYBLOCK
 62
     0
 10
23471.11847949999
 20
20664.232102000031
 30
0.0
 40
15.0
 50
0.0
 51
180.0
  0
ARC
  5
36F9
  8
0
  6
BYBLOCK
 62
     0
 10
22713.119469000001
 20
20664.232102000031
 30
0.0
 40
15.0
 50
0.0
 51
180.0
  0
ARC
  5
36FA
  8
0
  6
BYBLOCK
 62
     0
 10
22713.119469000001
 20
20664.232102000031
 30
0.0
 40
15.0
 50
180.0
 51
0.0
  0
ARC
  5
36FB
  8
0
  6
BYBLOCK
 62
     0
 10
20553.11847949999
 20
20664.232102000031
 30
0.0
 40
15.0
 50
180.0
 51
0.0
  0
ARC
  5
36FC
  8
0
  6
BYBLOCK
 62
     0
 10
20553.11847949999
 20
20664.232102000031
 30
0.0
 40
15.0
 50
0.0
 51
180.0
  0
ARC
  5
36FD
  8
0
  6
BYBLOCK
 62
     0
 10
19795.11847949999
 20
20664.232102000031
 30
0.0
 40
15.0
 50
0.0
 51
180.0
  0
ARC
  5
36FE
  8
0
  6
BYBLOCK
 62
     0
 10
19795.11847949999
 20
20664.232102000031
 30
0.0
 40
15.0
 50
180.0
 51
0.0
  0
ARC
  5
36FF
  8
0
  6
BYBLOCK
 62
     0
 10
26723.61808349999
 20
19484.230914
 30
0.0
 40
15.0
 50
90.0
 51
270.0
  0
ARC
  5
3700
  8
0
  6
BYBLOCK
 62
     0
 10
26723.61808349999
 20
19484.230914
 30
0.0
 40
15.0
 50
270.0
 51
90.0
  0
ARC
  5
3701
  8
0
  6
BYBLOCK
 62
     0
 10
26723.61808349999
 20
19891.730914
 30
0.0
 40
15.0
 50
270.0
 51
90.0
  0
ARC
  5
3702
  8
0
  6
BYBLOCK
 62
     0
 10
26723.61808349999
 20
19891.730914
 30
0.0
 40
15.0
 50
90.0
 51
270.0
  0
ARC
  5
3703
  8
0
  6
BYBLOCK
 62
     0
 10
18865.663902499979
 20
18783.230914
 30
0.0
 40
15.0
 50
90.0
 51
270.0
  0
ARC
  5
3704
  8
0
  6
BYBLOCK
 62
     0
 10
18865.663902499979
 20
18783.230914
 30
0.0
 40
15.0
 50
270.0
 51
90.0
  0
ARC
  5
3705
  8
0
  6
BYBLOCK
 62
     0
 10
18865.663902499979
 20
19891.730914
 30
0.0
 40
15.0
 50
270.0
 51
90.0
  0
ARC
  5
3706
  8
0
  6
BYBLOCK
 62
     0
 10
18865.663902499979
 20
19891.730914
 30
0.0
 40
15.0
 50
90.0
 51
270.0
  0
ARC
  5
3707
  8
0
  6
BYBLOCK
 62
     0
 10
18865.663902499979
 20
17324.230914
 30
0.0
 40
15.0
 50
90.0
 51
270.0
  0
ARC
  5
3708
  8
0
  6
BYBLOCK
 62
     0
 10
18865.663902499979
 20
17324.230914
 30
0.0
 40
15.0
 50
270.0
 51
90.0
  0
ARC
  5
3709
  8
0
  6
BYBLOCK
 62
     0
 10
18865.663902499979
 20
18783.230914
 30
0.0
 40
15.0
 50
270.0
 51
90.0
  0
ARC
  5
370A
  8
0
  6
BYBLOCK
 62
     0
 10
18865.663902499979
 20
18783.230914
 30
0.0
 40
15.0
 50
90.0
 51
270.0
  0
ARC
  5
370B
  8
0
  6
BYBLOCK
 62
     0
 10
18865.663902499979
 20
15865.471425500011
 30
0.0
 40
15.0
 50
90.0
 51
270.0
  0
ARC
  5
370C
  8
0
  6
BYBLOCK
 62
     0
 10
18865.663902499979
 20
15865.471425500011
 30
0.0
 40
15.0
 50
270.0
 51
90.0
  0
ARC
  5
370D
  8
0
  6
BYBLOCK
 62
     0
 10
18865.663902499979
 20
17324.230914
 30
0.0
 40
15.0
 50
270.0
 51
90.0
  0
ARC
  5
370E
  8
0
  6
BYBLOCK
 62
     0
 10
18865.663902499979
 20
17324.230914
 30
0.0
 40
15.0
 50
90.0
 51
270.0
  0
ARC
  5
370F
  8
0
  6
BYBLOCK
 62
     0
 10
18865.663902499979
 20
14406.230913999991
 30
0.0
 40
15.0
 50
90.0
 51
270.0
  0
ARC
  5
3710
  8
0
  6
BYBLOCK
 62
     0
 10
18865.663902499979
 20
14406.230913999991
 30
0.0
 40
15.0
 50
270.0
 51
90.0
  0
ARC
  5
3711
  8
0
  6
BYBLOCK
 62
     0
 10
18865.663902499979
 20
15865.471425500011
 30
0.0
 40
15.0
 50
270.0
 51
90.0
  0
ARC
  5
3712
  8
0
  6
BYBLOCK
 62
     0
 10
18865.663902499979
 20
15865.471425500011
 30
0.0
 40
15.0
 50
90.0
 51
270.0
  0
ARC
  5
3713
  8
0
  6
BYBLOCK
 62
     0
 10
19795.11847949999
 20
13434.78283
 30
0.0
 40
15.0
 50
0.0
 51
180.0
  0
ARC
  5
3714
  8
0
  6
BYBLOCK
 62
     0
 10
19795.11847949999
 20
13434.78283
 30
0.0
 40
15.0
 50
180.0
 51
0.0
  0
ARC
  5
3715
  8
0
  6
BYBLOCK
 62
     0
 10
19752.616236499998
 20
13434.78283
 30
0.0
 40
15.0
 50
180.0
 51
0.0
  0
ARC
  5
3716
  8
0
  6
BYBLOCK
 62
     0
 10
19752.616236499998
 20
13434.78283
 30
0.0
 40
15.0
 50
0.0
 51
180.0
  0
ARC
  5
3717
  8
0
  6
BYBLOCK
 62
     0
 10
25631.11847949999
 20
13434.78283
 30
0.0
 40
15.0
 50
180.0
 51
0.0
  0
ARC
  5
3718
  8
0
  6
BYBLOCK
 62
     0
 10
25631.11847949999
 20
13434.78283
 30
0.0
 40
15.0
 50
0.0
 51
180.0
  0
ARC
  5
3719
  8
0
  6
BYBLOCK
 62
     0
 10
25673.620722499989
 20
13434.78283
 30
0.0
 40
15.0
 50
0.0
 51
180.0
  0
ARC
  5
371A
  8
0
  6
BYBLOCK
 62
     0
 10
25673.620722499989
 20
13434.78283
 30
0.0
 40
15.0
 50
180.0
 51
0.0
  0
ARC
  5
371B
  8
0
  6
BYBLOCK
 62
     0
 10
25631.11847949999
 20
13434.78283
 30
0.0
 40
15.0
 50
0.0
 51
180.0
  0
ARC
  5
371C
  8
0
  6
BYBLOCK
 62
     0
 10
25631.11847949999
 20
13434.78283
 30
0.0
 40
15.0
 50
180.0
 51
0.0
  0
ARC
  5
371D
  8
0
  6
BYBLOCK
 62
     0
 10
25588.616236499991
 20
13434.78283
 30
0.0
 40
15.0
 50
180.0
 51
0.0
  0
ARC
  5
371E
  8
0
  6
BYBLOCK
 62
     0
 10
25588.616236499991
 20
13434.78283
 30
0.0
 40
15.0
 50
0.0
 51
180.0
  0
ARC
  5
371F
  8
0
  6
BYBLOCK
 62
     0
 10
19795.11847949999
 20
13434.78283
 30
0.0
 40
15.0
 50
180.0
 51
0.0
  0
ARC
  5
3720
  8
0
  6
BYBLOCK
 62
     0
 10
19795.11847949999
 20
13434.78283
 30
0.0
 40
15.0
 50
0.0
 51
180.0
  0
ARC
  5
3721
  8
0
  6
BYBLOCK
 62
     0
 10
19837.620722499982
 20
13434.78283
 30
0.0
 40
15.0
 50
0.0
 51
180.0
  0
ARC
  5
3722
  8
0
  6
BYBLOCK
 62
     0
 10
19837.620722499982
 20
13434.78283
 30
0.0
 40
15.0
 50
180.0
 51
0.0
  0
ARC
  5
3723
  8
0
  6
BYBLOCK
 62
     0
 10
19752.616236499998
 20
13034.78283
 30
0.0
 40
15.0
 50
0.0
 51
180.0
  0
ARC
  5
3724
  8
0
  6
BYBLOCK
 62
     0
 10
19752.616236499998
 20
13034.78283
 30
0.0
 40
15.0
 50
180.0
 51
0.0
  0
ARC
  5
3725
  8
0
  6
BYBLOCK
 62
     0
 10
25673.620722499989
 20
13034.78283
 30
0.0
 40
15.0
 50
180.0
 51
0.0
  0
ARC
  5
3726
  8
0
  6
BYBLOCK
 62
     0
 10
25673.620722499989
 20
13034.78283
 30
0.0
 40
15.0
 50
0.0
 51
180.0
  0
ARC
  5
3727
  8
0
  6
BYBLOCK
 62
     0
 10
26723.61808349999
 20
15164.230913999991
 30
0.0
 40
15.0
 50
270.0
 51
90.0
  0
ARC
  5
3728
  8
0
  6
BYBLOCK
 62
     0
 10
26723.61808349999
 20
15164.230913999991
 30
0.0
 40
15.0
 50
90.0
 51
270.0
  0
ARC
  5
3729
  8
0
  6
BYBLOCK
 62
     0
 10
26723.61808349999
 20
14406.230913999991
 30
0.0
 40
15.0
 50
90.0
 51
270.0
  0
ARC
  5
372A
  8
0
  6
BYBLOCK
 62
     0
 10
26723.61808349999
 20
14406.230913999991
 30
0.0
 40
15.0
 50
270.0
 51
90.0
  0
ARC
  5
372B
  8
0
  6
BYBLOCK
 62
     0
 10
26723.61808349999
 20
15865.471425500011
 30
0.0
 40
15.0
 50
270.0
 51
90.0
  0
ARC
  5
372C
  8
0
  6
BYBLOCK
 62
     0
 10
26723.61808349999
 20
15865.471425500011
 30
0.0
 40
15.0
 50
90.0
 51
270.0
  0
ARC
  5
372D
  8
0
  6
BYBLOCK
 62
     0
 10
26723.61808349999
 20
15164.230913999991
 30
0.0
 40
15.0
 50
90.0
 51
270.0
  0
ARC
  5
372E
  8
0
  6
BYBLOCK
 62
     0
 10
26723.61808349999
 20
15164.230913999991
 30
0.0
 40
15.0
 50
270.0
 51
90.0
  0
ARC
  5
372F
  8
0
  6
BYBLOCK
 62
     0
 10
26723.61808349999
 20
16566.230914
 30
0.0
 40
15.0
 50
270.0
 51
90.0
  0
ARC
  5
3730
  8
0
  6
BYBLOCK
 62
     0
 10
26723.61808349999
 20
16566.230914
 30
0.0
 40
15.0
 50
90.0
 51
270.0
  0
ARC
  5
3731
  8
0
  6
BYBLOCK
 62
     0
 10
26723.61808349999
 20
15865.471425500011
 30
0.0
 40
15.0
 50
90.0
 51
270.0
  0
ARC
  5
3732
  8
0
  6
BYBLOCK
 62
     0
 10
26723.61808349999
 20
15865.471425500011
 30
0.0
 40
15.0
 50
270.0
 51
90.0
  0
ARC
  5
3733
  8
0
  6
BYBLOCK
 62
     0
 10
26723.61808349999
 20
17324.230914
 30
0.0
 40
15.0
 50
270.0
 51
90.0
  0
ARC
  5
3734
  8
0
  6
BYBLOCK
 62
     0
 10
26723.61808349999
 20
17324.230914
 30
0.0
 40
15.0
 50
90.0
 51
270.0
  0
ARC
  5
3735
  8
0
  6
BYBLOCK
 62
     0
 10
26723.61808349999
 20
16566.230914
 30
0.0
 40
15.0
 50
90.0
 51
270.0
  0
ARC
  5
3736
  8
0
  6
BYBLOCK
 62
     0
 10
26723.61808349999
 20
16566.230914
 30
0.0
 40
15.0
 50
270.0
 51
90.0
  0
ARC
  5
3737
  8
0
  6
BYBLOCK
 62
     0
 10
26723.61808349999
 20
18082.230914
 30
0.0
 40
15.0
 50
270.0
 51
90.0
  0
ARC
  5
3738
  8
0
  6
BYBLOCK
 62
     0
 10
26723.61808349999
 20
18082.230914
 30
0.0
 40
15.0
 50
90.0
 51
270.0
  0
ARC
  5
3739
  8
0
  6
BYBLOCK
 62
     0
 10
26723.61808349999
 20
17324.230914
 30
0.0
 40
15.0
 50
90.0
 51
270.0
  0
ARC
  5
373A
  8
0
  6
BYBLOCK
 62
     0
 10
26723.61808349999
 20
17324.230914
 30
0.0
 40
15.0
 50
270.0
 51
90.0
  0
ARC
  5
373B
  8
0
  6
BYBLOCK
 62
     0
 10
26723.61808349999
 20
18783.230914
 30
0.0
 40
15.0
 50
270.0
 51
90.0
  0
ARC
  5
373C
  8
0
  6
BYBLOCK
 62
     0
 10
26723.61808349999
 20
18783.230914
 30
0.0
 40
15.0
 50
90.0
 51
270.0
  0
ARC
  5
373D
  8
0
  6
BYBLOCK
 62
     0
 10
26723.61808349999
 20
18082.230914
 30
0.0
 40
15.0
 50
90.0
 51
270.0
  0
ARC
  5
373E
  8
0
  6
BYBLOCK
 62
     0
 10
26723.61808349999
 20
18082.230914
 30
0.0
 40
15.0
 50
270.0
 51
90.0
  0
ARC
  5
373F
  8
0
  6
BYBLOCK
 62
     0
 10
26723.61808349999
 20
19484.230914
 30
0.0
 40
15.0
 50
270.0
 51
90.0
  0
ARC
  5
3740
  8
0
  6
BYBLOCK
 62
     0
 10
26723.61808349999
 20
19484.230914
 30
0.0
 40
15.0
 50
90.0
 51
270.0
  0
ARC
  5
3741
  8
0
  6
BYBLOCK
 62
     0
 10
26723.61808349999
 20
18783.230914
 30
0.0
 40
15.0
 50
90.0
 51
270.0
  0
ARC
  5
3742
  8
0
  6
BYBLOCK
 62
     0
 10
26723.61808349999
 20
18783.230914
 30
0.0
 40
15.0
 50
270.0
 51
90.0
  0
ARC
  5
3743
  8
0
  6
BYBLOCK
 62
     0
 10
27123.61808349998
 20
17324.230914
 30
0.0
 40
15.0
 50
90.0
 51
270.0
  0
ARC
  5
3744
  8
0
  6
BYBLOCK
 62
     0
 10
27123.61808349998
 20
17324.230914
 30
0.0
 40
15.0
 50
270.0
 51
90.0
  0
ARC
  5
3745
  8
0
  6
BYBLOCK
 62
     0
 10
27123.61808349998
 20
19891.730914
 30
0.0
 40
15.0
 50
270.0
 51
90.0
  0
ARC
  5
3746
  8
0
  6
BYBLOCK
 62
     0
 10
27123.61808349998
 20
19891.730914
 30
0.0
 40
15.0
 50
90.0
 51
270.0
  0
ARC
  5
3747
  8
0
  6
BYBLOCK
 62
     0
 10
27123.61808349998
 20
14406.230913999991
 30
0.0
 40
15.0
 50
90.0
 51
270.0
  0
ARC
  5
3748
  8
0
  6
BYBLOCK
 62
     0
 10
27123.61808349998
 20
14406.230913999991
 30
0.0
 40
15.0
 50
270.0
 51
90.0
  0
ARC
  5
3749
  8
0
  6
BYBLOCK
 62
     0
 10
27123.61808349998
 20
17324.230914
 30
0.0
 40
15.0
 50
270.0
 51
90.0
  0
ARC
  5
374A
  8
0
  6
BYBLOCK
 62
     0
 10
27123.61808349998
 20
17324.230914
 30
0.0
 40
15.0
 50
90.0
 51
270.0
  0
ARC
  5
374B
  8
0
  6
BYBLOCK
 62
     0
 10
27523.61808349998
 20
19934.228209000001
 30
0.0
 40
15.0
 50
270.0
 51
90.0
  0
ARC
  5
374C
  8
0
  6
BYBLOCK
 62
     0
 10
27523.61808349998
 20
19934.228209000001
 30
0.0
 40
15.0
 50
90.0
 51
270.0
  0
ARC
  5
374D
  8
0
  6
BYBLOCK
 62
     0
 10
27523.61808349998
 20
14363.733619000001
 30
0.0
 40
15.0
 50
90.0
 51
270.0
  0
ARC
  5
374E
  8
0
  6
BYBLOCK
 62
     0
 10
27523.61808349998
 20
14363.733619000001
 30
0.0
 40
15.0
 50
270.0
 51
90.0
  0
ARC
  5
374F
  8
0
  6
BYBLOCK
 62
     0
 10
27123.61808349998
 20
19891.730914
 30
0.0
 40
15.0
 50
270.0
 51
90.0
  0
ARC
  5
3750
  8
0
  6
BYBLOCK
 62
     0
 10
27123.61808349998
 20
19891.730914
 30
0.0
 40
15.0
 50
90.0
 51
270.0
  0
ARC
  5
3751
  8
0
  6
BYBLOCK
 62
     0
 10
27123.61808349998
 20
19934.228209000001
 30
0.0
 40
15.0
 50
90.0
 51
270.0
  0
ARC
  5
3752
  8
0
  6
BYBLOCK
 62
     0
 10
27123.61808349998
 20
19934.228209000001
 30
0.0
 40
15.0
 50
270.0
 51
90.0
  0
ARC
  5
3753
  8
0
  6
BYBLOCK
 62
     0
 10
27123.61808349998
 20
14406.230913999991
 30
0.0
 40
15.0
 50
90.0
 51
270.0
  0
ARC
  5
3754
  8
0
  6
BYBLOCK
 62
     0
 10
27123.61808349998
 20
14406.230913999991
 30
0.0
 40
15.0
 50
270.0
 51
90.0
  0
ARC
  5
3755
  8
0
  6
BYBLOCK
 62
     0
 10
27123.61808349998
 20
14363.733619000001
 30
0.0
 40
15.0
 50
270.0
 51
90.0
  0
ARC
  5
3756
  8
0
  6
BYBLOCK
 62
     0
 10
27123.61808349998
 20
14363.733619000001
 30
0.0
 40
15.0
 50
90.0
 51
270.0
  0
ARC
  5
3757
  8
0
  6
BYBLOCK
 62
     0
 10
24873.118479500001
 20
20664.232102000031
 30
0.0
 40
15.0
 50
0.0
 51
180.0
  0
ARC
  5
3758
  8
0
  6
BYBLOCK
 62
     0
 10
24873.118479500001
 20
20664.232102000031
 30
0.0
 40
15.0
 50
180.0
 51
0.0
  0
ARC
  5
3759
  8
0
  6
BYBLOCK
 62
     0
 10
25631.119469000001
 20
20664.232102000031
 30
0.0
 40
15.0
 50
180.0
 51
0.0
  0
ARC
  5
375A
  8
0
  6
BYBLOCK
 62
     0
 10
25631.119469000001
 20
20664.232102000031
 30
0.0
 40
15.0
 50
0.0
 51
180.0
  0
ARC
  5
375B
  8
0
  6
BYBLOCK
 62
     0
 10
24172.11847949999
 20
20664.232102000031
 30
0.0
 40
15.0
 50
0.0
 51
180.0
  0
ARC
  5
375C
  8
0
  6
BYBLOCK
 62
     0
 10
24172.11847949999
 20
20664.232102000031
 30
0.0
 40
15.0
 50
180.0
 51
0.0
  0
ARC
  5
375D
  8
0
  6
BYBLOCK
 62
     0
 10
24873.118479500001
 20
20664.232102000031
 30
0.0
 40
15.0
 50
180.0
 51
0.0
  0
ARC
  5
375E
  8
0
  6
BYBLOCK
 62
     0
 10
24873.118479500001
 20
20664.232102000031
 30
0.0
 40
15.0
 50
0.0
 51
180.0
  0
ARC
  5
375F
  8
0
  6
BYBLOCK
 62
     0
 10
23471.11847949999
 20
20664.232102000031
 30
0.0
 40
15.0
 50
0.0
 51
180.0
  0
ARC
  5
3760
  8
0
  6
BYBLOCK
 62
     0
 10
23471.11847949999
 20
20664.232102000031
 30
0.0
 40
15.0
 50
180.0
 51
0.0
  0
ARC
  5
3761
  8
0
  6
BYBLOCK
 62
     0
 10
24172.11847949999
 20
20664.232102000031
 30
0.0
 40
15.0
 50
180.0
 51
0.0
  0
ARC
  5
3762
  8
0
  6
BYBLOCK
 62
     0
 10
24172.11847949999
 20
20664.232102000031
 30
0.0
 40
15.0
 50
0.0
 51
180.0
  0
ARC
  5
3763
  8
0
  6
BYBLOCK
 62
     0
 10
25631.11847949999
 20
20664.232102000031
 30
0.0
 40
15.0
 50
180.0
 51
0.0
  0
ARC
  5
3764
  8
0
  6
BYBLOCK
 62
     0
 10
25631.11847949999
 20
20664.232102000031
 30
0.0
 40
15.0
 50
0.0
 51
180.0
  0
ARC
  5
3765
  8
0
  6
BYBLOCK
 62
     0
 10
25673.614784500001
 20
20664.232102000031
 30
0.0
 40
15.0
 50
0.0
 51
180.0
  0
ARC
  5
3766
  8
0
  6
BYBLOCK
 62
     0
 10
25673.614784500001
 20
20664.232102000031
 30
0.0
 40
15.0
 50
180.0
 51
0.0
  0
ARC
  5
3767
  8
0
  6
BYBLOCK
 62
     0
 10
19795.11847949999
 20
20664.232102000031
 30
0.0
 40
15.0
 50
0.0
 51
180.0
  0
ARC
  5
3768
  8
0
  6
BYBLOCK
 62
     0
 10
19795.11847949999
 20
20664.232102000031
 30
0.0
 40
15.0
 50
180.0
 51
0.0
  0
ARC
  5
3769
  8
0
  6
BYBLOCK
 62
     0
 10
19752.622174499989
 20
20664.232102000031
 30
0.0
 40
15.0
 50
180.0
 51
0.0
  0
ARC
  5
376A
  8
0
  6
BYBLOCK
 62
     0
 10
19752.622174499989
 20
20664.232102000031
 30
0.0
 40
15.0
 50
0.0
 51
180.0
  0
ARC
  5
376B
  8
0
  6
BYBLOCK
 62
     0
 10
21955.11847949999
 20
20664.232102000031
 30
0.0
 40
15.0
 50
0.0
 51
180.0
  0
ARC
  5
376C
  8
0
  6
BYBLOCK
 62
     0
 10
21955.11847949999
 20
20664.232102000031
 30
0.0
 40
15.0
 50
180.0
 51
0.0
  0
ARC
  5
376D
  8
0
  6
BYBLOCK
 62
     0
 10
22713.119469000001
 20
20664.232102000031
 30
0.0
 40
15.0
 50
180.0
 51
0.0
  0
ARC
  5
376E
  8
0
  6
BYBLOCK
 62
     0
 10
22713.119469000001
 20
20664.232102000031
 30
0.0
 40
15.0
 50
0.0
 51
180.0
  0
ARC
  5
376F
  8
0
  6
BYBLOCK
 62
     0
 10
21254.11847949999
 20
20664.232102000031
 30
0.0
 40
15.0
 50
0.0
 51
180.0
  0
ARC
  5
3770
  8
0
  6
BYBLOCK
 62
     0
 10
21254.11847949999
 20
20664.232102000031
 30
0.0
 40
15.0
 50
180.0
 51
0.0
  0
ARC
  5
3771
  8
0
  6
BYBLOCK
 62
     0
 10
21955.11847949999
 20
20664.232102000031
 30
0.0
 40
15.0
 50
180.0
 51
0.0
  0
ARC
  5
3772
  8
0
  6
BYBLOCK
 62
     0
 10
21955.11847949999
 20
20664.232102000031
 30
0.0
 40
15.0
 50
0.0
 51
180.0
  0
ARC
  5
3773
  8
0
  6
BYBLOCK
 62
     0
 10
20553.11847949999
 20
20664.232102000031
 30
0.0
 40
15.0
 50
0.0
 51
180.0
  0
ARC
  5
3774
  8
0
  6
BYBLOCK
 62
     0
 10
20553.11847949999
 20
20664.232102000031
 30
0.0
 40
15.0
 50
180.0
 51
0.0
  0
ARC
  5
3775
  8
0
  6
BYBLOCK
 62
     0
 10
21254.11847949999
 20
20664.232102000031
 30
0.0
 40
15.0
 50
180.0
 51
0.0
  0
ARC
  5
3776
  8
0
  6
BYBLOCK
 62
     0
 10
21254.11847949999
 20
20664.232102000031
 30
0.0
 40
15.0
 50
0.0
 51
180.0
  0
ARC
  5
3777
  8
0
  6
BYBLOCK
 62
     0
 10
8769.3738785000023
 20
9763.7812800000029
 30
0.0
 40
15.0
 50
180.0
 51
0.0
  0
ARC
  5
3778
  8
0
  6
BYBLOCK
 62
     0
 10
8769.3738785000023
 20
9763.7812800000029
 30
0.0
 40
15.0
 50
0.0
 51
180.0
  0
ARC
  5
3779
  8
0
  6
BYBLOCK
 62
     0
 10
8589.3738785000023
 20
9763.7812800000029
 30
0.0
 40
15.0
 50
0.0
 51
180.0
  0
ARC
  5
377A
  8
0
  6
BYBLOCK
 62
     0
 10
8589.3738785000023
 20
9763.7812800000029
 30
0.0
 40
15.0
 50
180.0
 51
0.0
  0
ARC
  5
377B
  8
0
  6
BYBLOCK
 62
     0
 10
18945.119139499991
 20
6615.7796039999957
 30
0.0
 40
15.0
 50
90.0
 51
270.0
  0
ARC
  5
377C
  8
0
  6
BYBLOCK
 62
     0
 10
18945.119139499991
 20
6615.7796039999957
 30
0.0
 40
15.0
 50
270.0
 51
90.0
  0
ARC
  5
377D
  8
0
  6
BYBLOCK
 62
     0
 10
18945.119139499991
 20
8507.2796039999957
 30
0.0
 40
15.0
 50
270.0
 51
90.0
  0
ARC
  5
377E
  8
0
  6
BYBLOCK
 62
     0
 10
18945.119139499991
 20
8507.2796039999957
 30
0.0
 40
15.0
 50
90.0
 51
270.0
  0
ARC
  5
377F
  8
0
  6
BYBLOCK
 62
     0
 10
18545.116830499981
 20
6615.7796039999957
 30
0.0
 40
15.0
 50
90.0
 51
270.0
  0
ARC
  5
3780
  8
0
  6
BYBLOCK
 62
     0
 10
18545.116830499981
 20
6615.7796039999957
 30
0.0
 40
15.0
 50
270.0
 51
90.0
  0
ARC
  5
3781
  8
0
  6
BYBLOCK
 62
     0
 10
18545.116830499988
 20
8964.2791089999973
 30
0.0
 40
15.0
 50
270.0
 51
90.0
  0
ARC
  5
3782
  8
0
  6
BYBLOCK
 62
     0
 10
18545.116830499988
 20
8964.2791089999973
 30
0.0
 40
15.0
 50
90.0
 51
270.0
  0
ARC
  5
3793
  8
0
  6
BYBLOCK
 62
     0
 10
19889.118479499979
 20
5715.7797689999998
 30
0.0
 40
15.0
 50
0.0
 51
180.0
  0
ARC
  5
3794
  8
0
  6
BYBLOCK
 62
     0
 10
19889.118479499979
 20
5715.7797689999998
 30
0.0
 40
15.0
 50
180.0
 51
0.0
  0
ARC
  5
3795
  8
0
  6
BYBLOCK
 62
     0
 10
22619.11847949999
 20
5715.7797689999998
 30
0.0
 40
15.0
 50
180.0
 51
0.0
  0
ARC
  5
3796
  8
0
  6
BYBLOCK
 62
     0
 10
22619.11847949999
 20
5715.7797689999998
 30
0.0
 40
15.0
 50
0.0
 51
180.0
  0
ARC
  5
3797
  8
0
  6
BYBLOCK
 62
     0
 10
22807.11847949999
 20
5715.7797689999998
 30
0.0
 40
15.0
 50
0.0
 51
180.0
  0
ARC
  5
3798
  8
0
  6
BYBLOCK
 62
     0
 10
22807.11847949999
 20
5715.7797689999998
 30
0.0
 40
15.0
 50
180.0
 51
0.0
  0
ARC
  5
3799
  8
0
  6
BYBLOCK
 62
     0
 10
25537.118479499979
 20
5715.7797689999998
 30
0.0
 40
15.0
 50
180.0
 51
0.0
  0
ARC
  5
379A
  8
0
  6
BYBLOCK
 62
     0
 10
25537.118479499979
 20
5715.7797689999998
 30
0.0
 40
15.0
 50
0.0
 51
180.0
  0
ARC
  5
379B
  8
0
  6
BYBLOCK
 62
     0
 10
22713.118479499979
 20
5315.7797690000016
 30
0.0
 40
15.0
 50
0.0
 51
180.0
  0
ARC
  5
379C
  8
0
  6
BYBLOCK
 62
     0
 10
22713.118479499979
 20
5315.7797690000016
 30
0.0
 40
15.0
 50
180.0
 51
0.0
  0
ARC
  5
379D
  8
0
  6
BYBLOCK
 62
     0
 10
25631.11847949999
 20
5315.7797690000016
 30
0.0
 40
15.0
 50
180.0
 51
0.0
  0
ARC
  5
379E
  8
0
  6
BYBLOCK
 62
     0
 10
25631.11847949999
 20
5315.7797690000016
 30
0.0
 40
15.0
 50
0.0
 51
180.0
  0
ARC
  5
379F
  8
0
  6
BYBLOCK
 62
     0
 10
19795.11847949999
 20
5315.7797690000016
 30
0.0
 40
15.0
 50
0.0
 51
180.0
  0
ARC
  5
37A0
  8
0
  6
BYBLOCK
 62
     0
 10
19795.11847949999
 20
5315.7797690000016
 30
0.0
 40
15.0
 50
180.0
 51
0.0
  0
ARC
  5
37A1
  8
0
  6
BYBLOCK
 62
     0
 10
22713.118479499979
 20
5315.7797690000016
 30
0.0
 40
15.0
 50
180.0
 51
0.0
  0
ARC
  5
37A2
  8
0
  6
BYBLOCK
 62
     0
 10
22713.118479499979
 20
5315.7797690000016
 30
0.0
 40
15.0
 50
0.0
 51
180.0
  0
ARC
  5
37A3
  8
0
  6
BYBLOCK
 62
     0
 10
25631.122438499999
 20
5315.7797690000016
 30
0.0
 40
15.0
 50
180.0
 51
0.0
  0
ARC
  5
37A4
  8
0
  6
BYBLOCK
 62
     0
 10
25631.122438499999
 20
5315.7797690000016
 30
0.0
 40
15.0
 50
0.0
 51
180.0
  0
ARC
  5
37A5
  8
0
  6
BYBLOCK
 62
     0
 10
25673.622438499991
 20
5315.7797690000016
 30
0.0
 40
15.0
 50
0.0
 51
180.0
  0
ARC
  5
37A6
  8
0
  6
BYBLOCK
 62
     0
 10
25673.622438499991
 20
5315.7797690000016
 30
0.0
 40
15.0
 50
180.0
 51
0.0
  0
ARC
  5
37A7
  8
0
  6
BYBLOCK
 62
     0
 10
19795.11847949999
 20
5315.7797690000016
 30
0.0
 40
15.0
 50
0.0
 51
180.0
  0
ARC
  5
37A8
  8
0
  6
BYBLOCK
 62
     0
 10
19795.11847949999
 20
5315.7797690000016
 30
0.0
 40
15.0
 50
180.0
 51
0.0
  0
ARC
  5
37A9
  8
0
  6
BYBLOCK
 62
     0
 10
19752.618479499979
 20
5315.7797690000016
 30
0.0
 40
15.0
 50
180.0
 51
0.0
  0
ARC
  5
37AA
  8
0
  6
BYBLOCK
 62
     0
 10
19752.618479499979
 20
5315.7797690000016
 30
0.0
 40
15.0
 50
0.0
 51
180.0
  0
ARC
  5
37AB
  8
0
  6
BYBLOCK
 62
     0
 10
19752.618479499979
 20
4915.7799339999983
 30
0.0
 40
15.0
 50
0.0
 51
180.0
  0
ARC
  5
37AC
  8
0
  6
BYBLOCK
 62
     0
 10
19752.618479499979
 20
4915.7799339999983
 30
0.0
 40
15.0
 50
180.0
 51
0.0
  0
ARC
  5
37AD
  8
0
  6
BYBLOCK
 62
     0
 10
25673.61847949999
 20
4915.7799339999983
 30
0.0
 40
15.0
 50
180.0
 51
0.0
  0
ARC
  5
37AE
  8
0
  6
BYBLOCK
 62
     0
 10
25673.61847949999
 20
4915.7799339999983
 30
0.0
 40
15.0
 50
0.0
 51
180.0
  0
ARC
  5
37AF
  8
0
  6
BYBLOCK
 62
     0
 10
15429.87229449999
 20
6615.7796040000021
 30
0.0
 40
15.0
 50
90.0
 51
270.0
  0
ARC
  5
37B0
  8
0
  6
BYBLOCK
 62
     0
 10
15429.87229449999
 20
6615.7796040000021
 30
0.0
 40
15.0
 50
270.0
 51
90.0
  0
ARC
  5
37B1
  8
0
  6
BYBLOCK
 62
     0
 10
15429.87229449999
 20
8964.279604000003
 30
0.0
 40
15.0
 50
270.0
 51
90.0
  0
ARC
  5
37B2
  8
0
  6
BYBLOCK
 62
     0
 10
15429.87229449999
 20
8964.279604000003
 30
0.0
 40
15.0
 50
90.0
 51
270.0
  0
ARC
  5
37B3
  8
0
  6
BYBLOCK
 62
     0
 10
7679.3754605000104
 20
6615.7796040000021
 30
0.0
 40
15.0
 50
90.0
 51
270.0
  0
ARC
  5
37B4
  8
0
  6
BYBLOCK
 62
     0
 10
7679.3754605000104
 20
6615.7796040000021
 30
0.0
 40
15.0
 50
270.0
 51
90.0
  0
ARC
  5
37B5
  8
0
  6
BYBLOCK
 62
     0
 10
7679.3754605000104
 20
8771.7796040000067
 30
0.0
 40
15.0
 50
270.0
 51
90.0
  0
ARC
  5
37B6
  8
0
  6
BYBLOCK
 62
     0
 10
7679.3754605000104
 20
8771.7796040000067
 30
0.0
 40
15.0
 50
90.0
 51
270.0
  0
ARC
  5
37B7
  8
0
  6
BYBLOCK
 62
     0
 10
8589.3738785000023
 20
10163.779630000001
 30
0.0
 40
15.0
 50
0.0
 51
180.0
  0
ARC
  5
37B8
  8
0
  6
BYBLOCK
 62
     0
 10
8589.3738785000023
 20
10163.779630000001
 30
0.0
 40
15.0
 50
180.0
 51
0.0
  0
ARC
  5
37B9
  8
0
  6
BYBLOCK
 62
     0
 10
14489.873878500001
 20
10163.779630000001
 30
0.0
 40
15.0
 50
180.0
 51
0.0
  0
ARC
  5
37BA
  8
0
  6
BYBLOCK
 62
     0
 10
14489.873878500001
 20
10163.779630000001
 30
0.0
 40
15.0
 50
0.0
 51
180.0
  0
ARC
  5
37BB
  8
0
  6
BYBLOCK
 62
     0
 10
14339.873878500001
 20
9763.7812800000029
 30
0.0
 40
15.0
 50
180.0
 51
0.0
  0
ARC
  5
37BC
  8
0
  6
BYBLOCK
 62
     0
 10
14339.873878500001
 20
9763.7812800000029
 30
0.0
 40
15.0
 50
0.0
 51
180.0
  0
ARC
  5
37BD
  8
0
  6
BYBLOCK
 62
     0
 10
14489.873878500001
 20
9763.7812800000029
 30
0.0
 40
15.0
 50
0.0
 51
180.0
  0
ARC
  5
37BE
  8
0
  6
BYBLOCK
 62
     0
 10
14489.873878500001
 20
9763.7812800000029
 30
0.0
 40
15.0
 50
180.0
 51
0.0
  0
ARC
  5
37BF
  8
0
  6
BYBLOCK
 62
     0
 10
8769.3738785000023
 20
9763.7812800000029
 30
0.0
 40
15.0
 50
0.0
 51
180.0
  0
ARC
  5
37C0
  8
0
  6
BYBLOCK
 62
     0
 10
8769.3738785000023
 20
9763.7812800000029
 30
0.0
 40
15.0
 50
180.0
 51
0.0
  0
ARC
  5
37C1
  8
0
  6
BYBLOCK
 62
     0
 10
14339.873878500001
 20
9763.7812800000029
 30
0.0
 40
15.0
 50
180.0
 51
0.0
  0
ARC
  5
37C2
  8
0
  6
BYBLOCK
 62
     0
 10
14339.873878500001
 20
9763.7812800000029
 30
0.0
 40
15.0
 50
0.0
 51
180.0
  0
ARC
  5
37C3
  8
0
  6
BYBLOCK
 62
     0
 10
8769.3738785000023
 20
4915.7799340000047
 30
0.0
 40
15.0
 50
0.0
 51
180.0
  0
ARC
  5
37C4
  8
0
  6
BYBLOCK
 62
     0
 10
8769.3738785000023
 20
4915.7799340000047
 30
0.0
 40
15.0
 50
180.0
 51
0.0
  0
ARC
  5
37C5
  8
0
  6
BYBLOCK
 62
     0
 10
14339.873878500001
 20
4915.7799340000047
 30
0.0
 40
15.0
 50
180.0
 51
0.0
  0
ARC
  5
37C6
  8
0
  6
BYBLOCK
 62
     0
 10
14339.873878500001
 20
4915.7799340000047
 30
0.0
 40
15.0
 50
0.0
 51
180.0
  0
ARC
  5
37C7
  8
0
  6
BYBLOCK
 62
     0
 10
14297.373878500001
 20
5315.7797690000052
 30
0.0
 40
15.0
 50
180.0
 51
0.0
  0
ARC
  5
37C8
  8
0
  6
BYBLOCK
 62
     0
 10
14297.373878500001
 20
5315.7797690000052
 30
0.0
 40
15.0
 50
0.0
 51
180.0
  0
ARC
  5
37C9
  8
0
  6
BYBLOCK
 62
     0
 10
14339.873878500001
 20
5315.7797690000052
 30
0.0
 40
15.0
 50
0.0
 51
180.0
  0
ARC
  5
37CA
  8
0
  6
BYBLOCK
 62
     0
 10
14339.873878500001
 20
5315.7797690000052
 30
0.0
 40
15.0
 50
180.0
 51
0.0
  0
ARC
  5
37CB
  8
0
  6
BYBLOCK
 62
     0
 10
8811.8738785000005
 20
5315.7797690000052
 30
0.0
 40
15.0
 50
0.0
 51
180.0
  0
ARC
  5
37CC
  8
0
  6
BYBLOCK
 62
     0
 10
8811.8738785000005
 20
5315.7797690000052
 30
0.0
 40
15.0
 50
180.0
 51
0.0
  0
ARC
  5
37CD
  8
0
  6
BYBLOCK
 62
     0
 10
8769.3738785000023
 20
5315.7797690000052
 30
0.0
 40
15.0
 50
180.0
 51
0.0
  0
ARC
  5
37CE
  8
0
  6
BYBLOCK
 62
     0
 10
8769.3738785000023
 20
5315.7797690000052
 30
0.0
 40
15.0
 50
0.0
 51
180.0
  0
ARC
  5
37CF
  8
0
  6
BYBLOCK
 62
     0
 10
11379.373878500001
 20
5315.7797690000052
 30
0.0
 40
15.0
 50
180.0
 51
0.0
  0
ARC
  5
37D0
  8
0
  6
BYBLOCK
 62
     0
 10
11379.373878500001
 20
5315.7797690000052
 30
0.0
 40
15.0
 50
0.0
 51
180.0
  0
ARC
  5
37D1
  8
0
  6
BYBLOCK
 62
     0
 10
8811.8738785000005
 20
5315.7797690000052
 30
0.0
 40
15.0
 50
0.0
 51
180.0
  0
ARC
  5
37D2
  8
0
  6
BYBLOCK
 62
     0
 10
8811.8738785000005
 20
5315.7797690000052
 30
0.0
 40
15.0
 50
180.0
 51
0.0
  0
ARC
  5
37D3
  8
0
  6
BYBLOCK
 62
     0
 10
11379.373878500001
 20
5315.7797690000052
 30
0.0
 40
15.0
 50
0.0
 51
180.0
  0
ARC
  5
37D4
  8
0
  6
BYBLOCK
 62
     0
 10
11379.373878500001
 20
5315.7797690000052
 30
0.0
 40
15.0
 50
180.0
 51
0.0
  0
ARC
  5
37D5
  8
0
  6
BYBLOCK
 62
     0
 10
14297.373878500001
 20
5315.7797690000052
 30
0.0
 40
15.0
 50
180.0
 51
0.0
  0
ARC
  5
37D6
  8
0
  6
BYBLOCK
 62
     0
 10
14297.373878500001
 20
5315.7797690000052
 30
0.0
 40
15.0
 50
0.0
 51
180.0
  0
LINE
  5
3E6D
  8
0-1
  6
CONTINUOUS
 62
     3
 10
25567.621461499992
 20
8714.2796239999971
 30
0.0
 11
25567.621461499992
 21
8746.2795310000001
 31
0.0
  0
LINE
  5
3E6E
  8
0-1
  6
CONTINUOUS
 62
     3
 10
25716.620854500001
 20
8638.0929020000021
 30
0.0
 11
25673.618743499981
 21
8638.0929020000021
 31
0.0
  0
LINE
  5
3E6F
  8
0-1
  6
CONTINUOUS
 62
     3
 10
25716.620854500001
 20
8964.2799530000029
 30
0.0
 11
25716.620854500001
 21
8638.0929020000021
 31
0.0
  0
LINE
  5
3E70
  8
0-1
  6
CONTINUOUS
 62
     3
 10
25281.654268500009
 20
8710.7442029999984
 30
0.0
 11
25249.655351500001
 21
8742.7441109999982
 31
0.0
  0
LINE
  5
3E71
  8
0-1
  6
CONTINUOUS
 62
     3
 10
25562.621197499979
 20
8751.2797950000004
 30
0.0
 11
25253.190771500002
 21
8751.2797950000004
 31
0.0
  0
LINE
  5
3E72
  8
0-1
  6
CONTINUOUS
 62
     3
 10
25567.621461499992
 20
8742.8806980000045
 30
0.0
 11
25249.524702499992
 21
8742.8806980000045
 31
0.0
  0
LINE
  5
3E73
  8
0-1
  6
CONTINUOUS
 62
     3
 10
25562.621197499979
 20
8709.2793600000005
 30
0.0
 11
25285.191668499989
 21
8709.2793600000005
 31
0.0
  0
LINE
  5
3E74
  8
0-1
  6
CONTINUOUS
 62
     3
 10
25567.621461499992
 20
8717.6794470000004
 30
0.0
 11
25274.720015499988
 21
8717.6794470000004
 31
0.0
  0
LINE
  5
3E75
  8
0-1
  6
CONTINUOUS
 62
     3
 10
25567.621461499992
 20
8726.0795339999986
 30
0.0
 11
25266.320917500001
 21
8726.0795339999986
 31
0.0
  0
LINE
  5
3E76
  8
0-1
  6
CONTINUOUS
 62
     3
 10
25567.621461499992
 20
8734.4806109999972
 30
0.0
 11
25257.919841499988
 21
8734.4806109999972
 31
0.0
  0
LINE
  5
3E77
  8
0-1
  6
CONTINUOUS
 62
     3
 10
23062.584669500018
 20
8710.7442029999984
 30
0.0
 11
23094.581607500018
 21
8742.7441109999982
 31
0.0
  0
LINE
  5
3E78
  8
0-1
  6
CONTINUOUS
 62
     3
 10
22776.619455500018
 20
8714.2796239999971
 30
0.0
 11
22776.619455500018
 21
8746.2795310000001
 31
0.0
  0
LINE
  5
3E79
  8
0-1
  6
CONTINUOUS
 62
     3
 10
22776.619455500018
 20
8717.6794470000004
 30
0.0
 11
23069.516943499999
 21
8717.6794470000004
 31
0.0
  0
LINE
  5
3E7A
  8
0-1
  6
CONTINUOUS
 62
     3
 10
22776.619455500018
 20
8726.0795339999986
 30
0.0
 11
23077.918020500008
 21
8726.0795339999986
 31
0.0
  0
LINE
  5
3E7B
  8
0-1
  6
CONTINUOUS
 62
     3
 10
22781.619719499999
 20
8709.2793600000005
 30
0.0
 11
23059.04726950001
 21
8709.2793600000005
 31
0.0
  0
LINE
  5
3E7C
  8
0-1
  6
CONTINUOUS
 62
     3
 10
22776.619455500018
 20
8734.4806109999972
 30
0.0
 11
23086.317117500021
 21
8734.4806109999972
 31
0.0
  0
LINE
  5
3E7D
  8
0-1
  6
CONTINUOUS
 62
     3
 10
22776.619455500018
 20
8742.8806980000045
 30
0.0
 11
23094.714235500021
 21
8742.8806980000045
 31
0.0
  0
LINE
  5
3E7E
  8
0-1
  6
CONTINUOUS
 62
     3
 10
22781.619719499999
 20
8751.2797950000004
 30
0.0
 11
23091.04816650003
 21
8751.2797950000004
 31
0.0
  0
LINE
  5
3E7F
  8
0-1
  6
CONTINUOUS
 62
     3
 10
25716.620854500001
 20
8834.2790299999979
 30
0.0
 11
22713.118479500001
 21
8834.2790299999979
 31
0.0
  0
LINE
  5
3E80
  8
0-1
  6
CONTINUOUS
 62
     3
 10
22755.616763500009
 20
8760.2796760000001
 30
0.0
 11
25588.620194499988
 21
8760.2796760000001
 31
0.0
  0
LINE
  5
3E81
  8
0-1
  6
CONTINUOUS
 62
     3
 10
22755.616763500009
 20
8700.2794779999967
 30
0.0
 11
25588.620194499988
 21
8700.2794779999967
 31
0.0
  0
LINE
  5
3E82
  8
0-1
  6
CONTINUOUS
 62
     3
 10
22713.118479500001
 20
8964.2799530000029
 30
0.0
 11
25716.620854500001
 21
8964.2799530000029
 31
0.0
  0
LINE
  5
3E83
  8
0-1
  6
CONTINUOUS
 62
     3
 10
22649.617503500001
 20
8714.2796239999971
 30
0.0
 11
22649.617503500001
 21
8746.2795310000001
 31
0.0
  0
LINE
  5
3E84
  8
0-1
  6
CONTINUOUS
 62
     3
 10
22363.656248499989
 20
8710.7442029999984
 30
0.0
 11
22331.655351500001
 21
8742.7441109999982
 31
0.0
  0
LINE
  5
3E85
  8
0-1
  6
CONTINUOUS
 62
     3
 10
22649.617503500001
 20
8742.8806980000045
 30
0.0
 11
22331.524703499981
 21
8742.8806980000045
 31
0.0
  0
LINE
  5
3E86
  8
0-1
  6
CONTINUOUS
 62
     3
 10
22649.617503500001
 20
8734.4806109999972
 30
0.0
 11
22339.919841499988
 21
8734.4806109999972
 31
0.0
  0
LINE
  5
3E87
  8
0-1
  6
CONTINUOUS
 62
     3
 10
22649.617503500001
 20
8726.0795339999986
 30
0.0
 11
22348.318938500001
 21
8726.0795339999986
 31
0.0
  0
LINE
  5
3E88
  8
0-1
  6
CONTINUOUS
 62
     3
 10
22649.617503500001
 20
8717.6794470000004
 30
0.0
 11
22356.71803649998
 21
8717.6794470000004
 31
0.0
  0
LINE
  5
3E89
  8
0-1
  6
CONTINUOUS
 62
     3
 10
22644.619218499989
 20
8751.2797950000004
 30
0.0
 11
22335.188792500001
 21
8751.2797950000004
 31
0.0
  0
LINE
  5
3E8A
  8
0-1
  6
CONTINUOUS
 62
     3
 10
22644.619218499989
 20
8709.2793600000005
 30
0.0
 11
22367.191669499989
 21
8709.2793600000005
 31
0.0
  0
LINE
  5
3E8B
  8
0-1
  6
CONTINUOUS
 62
     3
 10
19863.617740500002
 20
8709.2793600000005
 30
0.0
 11
20141.04727049997
 21
8709.2793600000005
 31
0.0
  0
LINE
  5
3E8C
  8
0-1
  6
CONTINUOUS
 62
     3
 10
19858.619456500001
 20
8714.2796239999971
 30
0.0
 11
19858.619456500001
 21
8746.2795310000001
 31
0.0
  0
LINE
  5
3E8D
  8
0-1
  6
CONTINUOUS
 62
     3
 10
19709.61808449998
 20
8638.0929020000021
 30
0.0
 11
19752.616236499998
 21
8638.0929020000021
 31
0.0
  0
LINE
  5
3E8E
  8
0-1
  6
CONTINUOUS
 62
     3
 10
19709.61808449998
 20
8638.0929020000021
 30
0.0
 11
19709.61808449998
 21
8964.2799530000029
 31
0.0
  0
LINE
  5
3E8F
  8
0-1
  6
CONTINUOUS
 62
     3
 10
19863.617740500002
 20
8751.2797950000004
 30
0.0
 11
20173.048167500001
 21
8751.2797950000004
 31
0.0
  0
LINE
  5
3E90
  8
0-1
  6
CONTINUOUS
 62
     3
 10
20144.580710499999
 20
8710.7442029999984
 30
0.0
 11
20176.581608500001
 21
8742.7441109999982
 31
0.0
  0
LINE
  5
3E91
  8
0-1
  6
CONTINUOUS
 62
     3
 10
19858.619456500001
 20
8742.8806980000045
 30
0.0
 11
20176.714235500011
 21
8742.8806980000045
 31
0.0
  0
LINE
  5
3E92
  8
0-1
  6
CONTINUOUS
 62
     3
 10
19858.619456500001
 20
8734.4806109999972
 30
0.0
 11
20168.317118499999
 21
8734.4806109999972
 31
0.0
  0
LINE
  5
3E93
  8
0-1
  6
CONTINUOUS
 62
     3
 10
19858.619456500001
 20
8726.0795339999986
 30
0.0
 11
20159.918020500008
 21
8726.0795339999986
 31
0.0
  0
LINE
  5
3E94
  8
0-1
  6
CONTINUOUS
 62
     3
 10
19858.619456500001
 20
8717.6794470000004
 30
0.0
 11
20151.518923499982
 21
8717.6794470000004
 31
0.0
  0
LINE
  5
3E95
  8
0-1
  6
CONTINUOUS
 62
     3
 10
19837.616764499999
 20
8700.2794779999967
 30
0.0
 11
22670.618215499991
 21
8700.2794779999967
 31
0.0
  0
LINE
  5
3E96
  8
0-1
  6
CONTINUOUS
 62
     3
 10
19837.616764499999
 20
8760.2796760000001
 30
0.0
 11
22670.618215499991
 21
8760.2796760000001
 31
0.0
  0
LINE
  5
3E97
  8
0-1
  6
CONTINUOUS
 62
     3
 10
19709.61808449998
 20
8964.2799530000029
 30
0.0
 11
22713.118479500001
 21
8964.2799530000029
 31
0.0
  0
LINE
  5
3E98
  8
0-1
  6
CONTINUOUS
 62
     3
 10
22713.118479500001
 20
8834.2790299999979
 30
0.0
 11
19709.61808449998
 21
8834.2790299999979
 31
0.0
  0
LINE
  5
3E99
  8
0-1
  6
CONTINUOUS
 62
     3
 10
22713.118479500001
 20
8834.2790299999979
 30
0.0
 11
22713.118479500001
 21
8964.2799530000029
 31
0.0
  0
LINE
  5
3E9A
  8
0-1
  6
CONTINUOUS
 62
     3
 10
22713.118479500001
 20
8834.2790299999979
 30
0.0
 11
22713.118479500001
 21
8964.2799530000029
 31
0.0
  0
ARC
  5
3E9B
  8
0-1
  6
CONTINUOUS
 62
     3
 10
25562.621197499979
 20
8746.2795310000001
 30
0.0
 40
5.0
 50
0.0
 51
90.0
  0
ARC
  5
3E9C
  8
0-1
  6
CONTINUOUS
 62
     3
 10
25562.621197499979
 20
8714.2796239999971
 30
0.0
 40
5.0
 50
269.9999850001808
 51
0.0
  0
ARC
  5
3E9D
  8
0-1
  6
CONTINUOUS
 62
     3
 10
25253.190771500002
 20
8746.2795310000001
 30
0.0
 40
5.0
 50
90.0
 51
224.99998499997989
  0
ARC
  5
3E9E
  8
0-1
  6
CONTINUOUS
 62
     3
 10
25285.191668499989
 20
8714.2796239999971
 30
0.0
 40
5.0
 50
224.99998499997989
 51
269.9999850001808
  0
ARC
  5
3E9F
  8
0-1
  6
CONTINUOUS
 62
     3
 10
23091.04816650003
 20
8746.2795310000001
 30
0.0
 40
5.0
 50
314.99998500027471
 51
90.0
  0
ARC
  5
3EA0
  8
0-1
  6
CONTINUOUS
 62
     3
 10
23059.04726950001
 20
8714.2796239999971
 30
0.0
 40
5.0
 50
269.9999850001808
 51
314.99998500027471
  0
ARC
  5
3EA1
  8
0-1
  6
CONTINUOUS
 62
     3
 10
22781.619719499999
 20
8714.2796239999971
 30
0.0
 40
5.0
 50
180.0
 51
269.9999850001808
  0
ARC
  5
3EA2
  8
0-1
  6
CONTINUOUS
 62
     3
 10
22781.619719499999
 20
8746.2795310000001
 30
0.0
 40
5.0
 50
90.0
 51
180.0
  0
ARC
  5
3EA3
  8
0-1
  6
CONTINUOUS
 62
     3
 10
22644.619218499989
 20
8714.2796239999971
 30
0.0
 40
5.0
 50
269.9999850001808
 51
0.0
  0
ARC
  5
3EA4
  8
0-1
  6
CONTINUOUS
 62
     3
 10
22644.619218499989
 20
8746.2795310000001
 30
0.0
 40
5.0
 50
0.0
 51
90.0
  0
ARC
  5
3EA5
  8
0-1
  6
CONTINUOUS
 62
     3
 10
22335.188792500001
 20
8746.2795310000001
 30
0.0
 40
5.0
 50
90.0
 51
224.99998499997989
  0
ARC
  5
3EA6
  8
0-1
  6
CONTINUOUS
 62
     3
 10
22367.191669499989
 20
8714.2796239999971
 30
0.0
 40
5.0
 50
224.99998499997989
 51
269.9999850001808
  0
ARC
  5
3EA7
  8
0-1
  6
CONTINUOUS
 62
     3
 10
20173.048167500001
 20
8746.2795310000001
 30
0.0
 40
5.0
 50
314.99998500027471
 51
90.0
  0
ARC
  5
3EA8
  8
0-1
  6
CONTINUOUS
 62
     3
 10
19863.617740500002
 20
8746.2795310000001
 30
0.0
 40
5.0
 50
90.0
 51
180.0
  0
ARC
  5
3EA9
  8
0-1
  6
CONTINUOUS
 62
     3
 10
19863.617740500002
 20
8714.2796239999971
 30
0.0
 40
5.0
 50
180.0
 51
269.9999850001808
  0
ARC
  5
3EAA
  8
0-1
  6
CONTINUOUS
 62
     3
 10
20141.04727049997
 20
8714.2796239999971
 30
0.0
 40
5.0
 50
269.9999850001808
 51
314.99998500027471
  0
LINE
  5
3EAB
  8
SUNPOU
  6
CONTINUOUS
 62
     4
 10
19709.616104499979
 20
9044.2799530000029
 30
0.0
 11
19709.616104499979
 21
10243.737564999999
 31
0.0
  0
LINE
  5
3EAC
  8
SUNPOU
  6
CONTINUOUS
 62
     4
 10
25716.620854500001
 20
9044.2799530000029
 30
0.0
 11
25716.620854500001
 21
10243.737564999999
 31
0.0
  0
LINE
  5
3EAD
  8
SUNPOU
  6
CONTINUOUS
 62
     4
 10
19712.616104499979
 20
10163.737564999999
 30
0.0
 11
25713.620854500001
 21
10163.737564999999
 31
0.0
  0
LINE
  5
3EAE
  8
SUNPOU
  6
CONTINUOUS
 62
     4
 10
19752.618215499981
 20
9044.2799530000029
 30
0.0
 11
19752.618215499981
 21
9843.7797950000004
 31
0.0
  0
LINE
  5
3EAF
  8
SUNPOU
  6
CONTINUOUS
 62
     4
 10
25673.618743499981
 20
9044.2799530000029
 30
0.0
 11
25673.618743499981
 21
9843.7797950000004
 31
0.0
  0
LINE
  5
3EB0
  8
SUNPOU
  6
CONTINUOUS
 62
     4
 10
19752.618215499981
 20
9763.7797950000004
 30
0.0
 11
25673.618743499981
 21
9763.7797950000004
 31
0.0
  0
LINE
  5
3EB1
  8
SUNPOU
  6
CONTINUOUS
 62
     4
 10
19752.618215499981
 20
9044.2799530000029
 30
0.0
 11
19752.618215499981
 21
9843.7797950000004
 31
0.0
  0
LINE
  5
3EB2
  8
SUNPOU
  6
CONTINUOUS
 62
     4
 10
19709.616104499979
 20
9044.2799530000029
 30
0.0
 11
19709.616104499979
 21
9843.7797950000004
 31
0.0
  0
LINE
  5
3EB3
  8
SUNPOU
  6
CONTINUOUS
 62
     4
 10
19752.618215499981
 20
9763.7797950000004
 30
0.0
 11
19992.618215499981
 21
9763.7797950000004
 31
0.0
  0
LINE
  5
3EB4
  8
SUNPOU
  6
CONTINUOUS
 62
     4
 10
19712.616104499979
 20
9763.7797950000004
 30
0.0
 11
19472.616104500001
 21
9763.7797950000004
 31
0.0
  0
LINE
  5
3EB5
  8
SUNPOU
  6
CONTINUOUS
 62
     4
 10
19752.618215499981
 20
9763.7797950000004
 30
0.0
 11
19712.616104499979
 21
9763.7797950000004
 31
0.0
  0
LINE
  5
3EB6
  8
SUNPOU
  6
CONTINUOUS
 62
     4
 10
25673.618743499981
 20
9044.2799530000029
 30
0.0
 11
25673.618743499981
 21
9843.7797950000004
 31
0.0
  0
LINE
  5
3EB7
  8
SUNPOU
  6
CONTINUOUS
 62
     4
 10
25716.620854500001
 20
9044.2799530000029
 30
0.0
 11
25716.620854500001
 21
9843.7797950000004
 31
0.0
  0
LINE
  5
3EB8
  8
SUNPOU
  6
CONTINUOUS
 62
     4
 10
25673.618743499981
 20
9763.7797950000004
 30
0.0
 11
25433.618743499981
 21
9763.7797950000004
 31
0.0
  0
LINE
  5
3EB9
  8
SUNPOU
  6
CONTINUOUS
 62
     4
 10
25713.620854500001
 20
9763.7797950000004
 30
0.0
 11
25953.620854500001
 21
9763.7797950000004
 31
0.0
  0
LINE
  5
3EBA
  8
SUNPOU
  6
CONTINUOUS
 62
     4
 10
25673.618743499981
 20
9763.7797950000004
 30
0.0
 11
25713.620854500001
 21
9763.7797950000004
 31
0.0
  0
TEXT
  5
3EBB
  8
0
  6
CONTINUOUS
 62
     7
 10
25833.620854500001
 20
9843.7797950000004
 30
0.0
 40
160.0
  1
43
  0
TEXT
  5
3EBC
  8
0
  6
CONTINUOUS
 62
     7
 10
19352.616104500001
 20
9843.7797950000004
 30
0.0
 40
160.0
  1
43
  0
TEXT
  5
3EBD
  8
0
  6
CONTINUOUS
 62
     7
 10
22446.451812833329
 20
9843.7797950000004
 30
0.0
 40
160.0
  1
5921
  0
TEXT
  5
3EBE
  8
0
  6
CONTINUOUS
 62
     7
 10
22473.118479500001
 20
10243.737564999999
 30
0.0
 40
160.0
  1
6007
  0
ARC
  5
3EBF
  8
0
  6
BYBLOCK
 62
     0
 10
19709.616104499979
 20
10163.737564999999
 30
0.0
 40
15.0
 50
0.0
 51
180.0
  0
ARC
  5
3EC0
  8
0
  6
BYBLOCK
 62
     0
 10
19709.616104499979
 20
10163.737564999999
 30
0.0
 40
15.0
 50
180.0
 51
0.0
  0
ARC
  5
3EC1
  8
0
  6
BYBLOCK
 62
     0
 10
25716.620854500001
 20
10163.737564999999
 30
0.0
 40
15.0
 50
180.0
 51
0.0
  0
ARC
  5
3EC2
  8
0
  6
BYBLOCK
 62
     0
 10
25716.620854500001
 20
10163.737564999999
 30
0.0
 40
15.0
 50
0.0
 51
180.0
  0
ARC
  5
3EC3
  8
0
  6
BYBLOCK
 62
     0
 10
19752.618215499981
 20
9763.7797950000004
 30
0.0
 40
15.0
 50
0.0
 51
180.0
  0
ARC
  5
3EC4
  8
0
  6
BYBLOCK
 62
     0
 10
19752.618215499981
 20
9763.7797950000004
 30
0.0
 40
15.0
 50
180.0
 51
0.0
  0
ARC
  5
3EC5
  8
0
  6
BYBLOCK
 62
     0
 10
25673.618743499981
 20
9763.7797950000004
 30
0.0
 40
15.0
 50
180.0
 51
0.0
  0
ARC
  5
3EC6
  8
0
  6
BYBLOCK
 62
     0
 10
25673.618743499981
 20
9763.7797950000004
 30
0.0
 40
15.0
 50
0.0
 51
180.0
  0
ARC
  5
3EC7
  8
0
  6
BYBLOCK
 62
     0
 10
19752.618215499981
 20
9763.7797950000004
 30
0.0
 40
15.0
 50
0.0
 51
180.0
  0
ARC
  5
3EC8
  8
0
  6
BYBLOCK
 62
     0
 10
19752.618215499981
 20
9763.7797950000004
 30
0.0
 40
15.0
 50
180.0
 51
0.0
  0
ARC
  5
3EC9
  8
0
  6
BYBLOCK
 62
     0
 10
19709.616104499979
 20
9763.7797950000004
 30
0.0
 40
15.0
 50
180.0
 51
0.0
  0
ARC
  5
3ECA
  8
0
  6
BYBLOCK
 62
     0
 10
19709.616104499979
 20
9763.7797950000004
 30
0.0
 40
15.0
 50
0.0
 51
180.0
  0
ARC
  5
3ECB
  8
0
  6
BYBLOCK
 62
     0
 10
25673.618743499981
 20
9763.7797950000004
 30
0.0
 40
15.0
 50
180.0
 51
0.0
  0
ARC
  5
3ECC
  8
0
  6
BYBLOCK
 62
     0
 10
25673.618743499981
 20
9763.7797950000004
 30
0.0
 40
15.0
 50
0.0
 51
180.0
  0
ARC
  5
3ECD
  8
0
  6
BYBLOCK
 62
     0
 10
25716.620854500001
 20
9763.7797950000004
 30
0.0
 40
15.0
 50
0.0
 51
180.0
  0
ARC
  5
3ECE
  8
0
  6
BYBLOCK
 62
     0
 10
25716.620854500001
 20
9763.7797950000004
 30
0.0
 40
15.0
 50
180.0
 51
0.0
  0
LINE
  5
3EDC
  8
SUNPOU
  6
CONTINUOUS
 62
     4
 10
9064.1600894999883
 20
14133.731638999991
 30
0.0
 11
9064.1600894999883
 21
12954.783818999989
 31
0.0
  0
LINE
  5
3EDD
  8
SUNPOU
  6
CONTINUOUS
 62
     4
 10
15071.16088149996
 20
14133.731638999991
 30
0.0
 11
15071.16088149996
 21
12954.783818999989
 31
0.0
  0
LINE
  5
3EDE
  8
SUNPOU
  6
CONTINUOUS
 62
     4
 10
9064.1600894999883
 20
13034.783818999989
 30
0.0
 11
15071.16088149996
 21
13034.783818999989
 31
0.0
  0
TEXT
  5
3EDF
  8
0
  6
CONTINUOUS
 62
     7
 10
11304.993818833311
 20
13114.783818999989
 30
0.0
 40
160.0
  1
ケラバ外寸 6007
  0
ARC
  5
3EE0
  8
0
  6
BYBLOCK
 62
     0
 10
9064.1600894999883
 20
13034.783818999989
 30
0.0
 40
15.0
 50
0.0
 51
180.0
  0
ARC
  5
3EE1
  8
0
  6
BYBLOCK
 62
     0
 10
9064.1600894999883
 20
13034.783818999989
 30
0.0
 40
15.0
 50
180.0
 51
0.0
  0
ARC
  5
3EE2
  8
0
  6
BYBLOCK
 62
     0
 10
15071.16088149996
 20
13034.783818999989
 30
0.0
 40
15.0
 50
180.0
 51
0.0
  0
ARC
  5
3EE3
  8
0
  6
BYBLOCK
 62
     0
 10
15071.16088149996
 20
13034.783818999989
 30
0.0
 40
15.0
 50
0.0
 51
180.0
  0
TEXT
  5
3F3E
  8
NAME
 10
24033.05354655402
 20
1076.0
 30
0.0
 40
360.0
  1
H
 41
0.6700000000000002
  7
00
  0
TEXT
  5
3F3F
  8
NAME
 10
23657.2215619737
 20
1076.0
 30
0.0
 40
360.0
  1
（ ）
  7
01
  0
TEXT
  5
3F40
  8
NAME
 10
21933.552716389018
 20
1876.0
 30
0.0
 40
360.0
  1
ヨドガレージ ラヴィージュ
 41
0.75
  7
01
  0
TEXT
  5
3F41
  8
NAME
 10
21550.022791898398
 20
1076.6369801169251
 30
0.0
 40
360.0
  1
VGCU-3055
 41
0.6700000000000002
  0
LINE
  5
3F42
  8
NAME
  6
CONTINUOUS
 10
26067.886878884321
 20
2236.0
 30
0.0
 11
26067.886878884321
 21
1876.0
 31
0.0
  0
LINE
  5
3F43
  8
NAME
  6
CONTINUOUS
 10
26167.886878884321
 20
2236.0
 30
0.0
 11
26167.886878884321
 21
1876.0
 31
0.0
  0
LINE
  5
3F44
  8
NAME
  6
CONTINUOUS
 10
26267.886878884328
 20
2236.0
 30
0.0
 11
26267.886878884328
 21
1876.0
 31
0.0
  0
LINE
  5
3F45
  8
NAME
  6
CONTINUOUS
 10
26007.886878884321
 20
2236.0
 30
0.0
 11
26327.886878884321
 21
2236.0
 31
0.0
  0
LINE
  5
3F46
  8
NAME
  6
CONTINUOUS
 10
26327.886878884321
 20
1876.0
 30
0.0
 11
26007.886878884321
 21
1876.0
 31
0.0
  0
TEXT
  5
3F47
  8
NAME
 10
25346.041792426691
 20
1076.0
 30
0.0
 40
360.0
  1
2
 41
0.6700000000000002
  7
00
  0
TEXT
  5
3F48
  8
NAME
 10
24557.214549256729
 20
1076.0
 30
0.0
 40
360.0
  1
型（ 連棟）
  7
01
  0
TEXT
  5
3FE2
  8
FILENAME
  6
CONTINUOUS
 10
28546.857142857141
 20
348.0
 30
0.0
 40
200.0
  1
＜VGCU-3055-2-A_0.DXF ＞
  7
FILENAME
 72
     2
 11
32764.0
 21
348.0
 31
0.0
  0
LINE
  5
3FE7
  8
WAKUSEN-01
 10
868.00000000000193
 20
827.99999999999955
 30
0.0
 11
32764.000000000011
 21
827.99999999999943
 31
0.0
  0
LINE
  5
3FE8
  8
WAKUSEN-01
 10
868.00000000000193
 20
827.99999999999955
 30
0.0
 11
868.00000000000193
 21
22484.000000000011
 31
0.0
  0
LINE
  5
3FE9
  8
WAKUSEN-01
 10
32764.000000000011
 20
827.99999999999943
 30
0.0
 11
32764.000000000011
 21
22484.000000000011
 31
0.0
  0
LINE
  5
3FEA
  8
WAKUSEN-01
 10
20560.0
 20
827.99999999999716
 30
0.0
 11
20560.0
 21
2484.0
 31
0.0
  0
LINE
  5
3FEB
  8
WAKUSEN-02
 10
26868.0
 20
827.99999999999261
 30
0.0
 11
26868.0
 21
2484.0
 31
0.0
  0
ENDSEC
  0
EOF
