  0
SECTION
  2
HEADER
  9
$ACADVER
  1
AC1009
  9
$INSBASE
 10
0.0
 20
0.0
 30
0.0
  9
$EXTMIN
 10
867.99324330406671
 20
327.38164749855792
 30
-0.0015258207003583
  9
$EXTMAX
 10
32765.33210850941
 20
22484.553276491992
 30
0.0000000349246037
  9
$LIMMIN
 10
0.0
 20
0.0
  9
$LIMMAX
 10
33600.0
 20
23760.0
  9
$ORTHOMODE
 70
     1
  9
$REGENMODE
 70
     1
  9
$FILLMODE
 70
     1
  9
$QTEXTMODE
 70
     0
  9
$MIRRTEXT
 70
     1
  9
$DRAGMODE
 70
     2
  9
$LTSCALE
 40
80.0
  9
$OSMODE
 70
  3071
  9
$ATTMODE
 70
     1
  9
$TEXTSIZE
 40
0.2
  9
$TRACEWID
 40
0.05
  9
$TEXTSTYLE
  7
00
  9
$CLAYER
  8
0
  9
$CELTYPE
  6
BYLAYER
  9
$CECOLOR
 62
   256
  9
$DIMSCALE
 40
80.0
  9
$DIMASZ
 40
3.0
  9
$DIMEXO
 40
1.0
  9
$DIMDLI
 40
0.38
  9
$DIMRND
 40
0.5
  9
$DIMDLE
 40
0.0
  9
$DIMEXE
 40
1.0
  9
$DIMTP
 40
0.0
  9
$DIMTM
 40
0.0
  9
$DIMTXT
 40
2.0
  9
$DIMCEN
 40
0.09
  9
$DIMTSZ
 40
0.0
  9
$DIMTOL
 70
     0
  9
$DIMLIM
 70
     0
  9
$DIMTIH
 70
     0
  9
$DIMTOH
 70
     0
  9
$DIMSE1
 70
     0
  9
$DIMSE2
 70
     0
  9
$DIMTAD
 70
     1
  9
$DIMZIN
 70
     8
  9
$DIMBLK
  1
DOTSMALL
  9
$DIMASO
 70
     1
  9
$DIMSHO
 70
     1
  9
$DIMPOST
  1

  9
$DIMAPOST
  1

  9
$DIMALT
 70
     0
  9
$DIMALTD
 70
     2
  9
$DIMALTF
 40
25.399999999999999
  9
$DIMLFAC
 40
1.0
  9
$DIMTOFL
 70
     1
  9
$DIMTVP
 40
0.0
  9
$DIMTIX
 70
     0
  9
$DIMSOXD
 70
     0
  9
$DIMSAH
 70
     0
  9
$DIMBLK1
  1

  9
$DIMBLK2
  1

  9
$DIMSTYLE
  2
SUNPOU
  9
$DIMCLRD
 70
     4
  9
$DIMCLRE
 70
     4
  9
$DIMCLRT
 70
     7
  9
$DIMTFAC
 40
1.0
  9
$DIMGAP
 40
1.0
  9
$LUNITS
 70
     2
  9
$LUPREC
 70
     4
  9
$SKETCHINC
 40
0.1
  9
$FILLETRAD
 40
0.0
  9
$AUNITS
 70
     0
  9
$AUPREC
 70
     0
  9
$MENU
  1
acad
  9
$ELEVATION
 40
0.0
  9
$PELEVATION
 40
0.0
  9
$THICKNESS
 40
0.0
  9
$LIMCHECK
 70
     0
  9
$BLIPMODE
 70
     1
  9
$CHAMFERA
 40
0.0
  9
$CHAMFERB
 40
0.0
  9
$SKPOLY
 70
     0
  9
$TDCREATE
 40
2440588.749988426
  9
$TDUPDATE
 40
2458942.4378539468
  9
$TDINDWG
 40
0.0556742593
  9
$TDUSRTIMER
 40
0.0556733333
  9
$USRTIMER
 70
     1
  9
$ANGBASE
 50
0.0
  9
$ANGDIR
 70
     0
  9
$PDMODE
 70
     0
  9
$PDSIZE
 40
0.0
  9
$PLINEWID
 40
0.0
  9
$COORDS
 70
     1
  9
$SPLFRAME
 70
     0
  9
$SPLINETYPE
 70
     6
  9
$SPLINESEGS
 70
     8
  9
$ATTDIA
 70
     1
  9
$ATTREQ
 70
     1
  9
$HANDLING
 70
     1
  9
$HANDSEED
  5
48C4
  9
$SURFTAB1
 70
     6
  9
$SURFTAB2
 70
     6
  9
$SURFTYPE
 70
     6
  9
$SURFU
 70
     6
  9
$SURFV
 70
     6
  9
$UCSNAME
  2

  9
$UCSORG
 10
0.0
 20
0.0
 30
0.0
  9
$UCSXDIR
 10
1.0
 20
0.0
 30
0.0
  9
$UCSYDIR
 10
0.0
 20
1.0
 30
0.0
  9
$PUCSNAME
  2

  9
$PUCSORG
 10
0.0
 20
0.0
 30
0.0
  9
$PUCSXDIR
 10
1.0
 20
0.0
 30
0.0
  9
$PUCSYDIR
 10
0.0
 20
1.0
 30
0.0
  9
$USERI1
 70
     0
  9
$USERI2
 70
     0
  9
$USERI3
 70
     0
  9
$USERI4
 70
     0
  9
$USERI5
 70
     0
  9
$USERR1
 40
0.0
  9
$USERR2
 40
0.0
  9
$USERR3
 40
0.0
  9
$USERR4
 40
0.0
  9
$USERR5
 40
0.0
  9
$WORLDVIEW
 70
     1
  9
$SHADEDGE
 70
     3
  9
$SHADEDIF
 70
    70
  9
$TILEMODE
 70
     1
  9
$MAXACTVP
 70
    16
  9
$PLIMCHECK
 70
     0
  9
$PEXTMIN
 10
1.0000000000000000E+020
 20
1.0000000000000000E+020
 30
1.0000000000000000E+020
  9
$PEXTMAX
 10
-1.0000000000000000E+020
 20
-1.0000000000000000E+020
 30
-1.0000000000000000E+020
  9
$PLIMMIN
 10
0.0
 20
0.0
  9
$PLIMMAX
 10
12.0
 20
9.0
  9
$UNITMODE
 70
     0
  9
$VISRETAIN
 70
     0
  9
$PLINEGEN
 70
     1
  9
$PSLTSCALE
 70
     0
  0
ENDSEC
  0
SECTION
  2
TABLES
  0
TABLE
  2
VPORT
 70
     1
  0
VPORT
  2
*ACTIVE
 70
     0
 10
0.0
 20
0.0
 11
1.0
 21
1.0
 12
16800.0
 22
11880.0
 13
0.0
 23
0.0
 14
1.0
 24
1.0
 15
0.0
 25
0.0
 16
0.0
 26
0.0
 36
1.0
 17
0.0
 27
0.0
 37
0.0
 40
23981.023255813951
 41
2.195652173913043
 42
50.0
 43
0.0
 44
0.0
 50
0.0
 51
0.0
 71
     0
 72
 10000
 73
     1
 74
     1
 75
     0
 76
     0
 77
     0
 78
     0
  0
ENDTAB
  0
TABLE
  2
LTYPE
 70
     3
  0
LTYPE
  2
CONTINUOUS
 70
     0
  3
Solid line
 72
    65
 73
     0
 40
0.0
  0
LTYPE
  2
DASHED3
 70
     0
  3
------  ------  ------  ------  
 72
    65
 73
     2
 40
5.0
 49
3.75
 49
-1.25
  0
LTYPE
  2
CENTER2
 70
     0
  3
----------  --  ----------  --  
 72
    65
 73
     4
 40
20.0
 49
12.5
 49
-2.5
 49
2.5
 49
-2.5
  0
ENDTAB
  0
TABLE
  2
LAYER
 70
    18
  0
LAYER
  2
0
 70
     0
 62
     7
  6
CONTINUOUS
  0
LAYER
  2
SUNPOU
 70
     0
 62
     4
  6
CONTINUOUS
  0
LAYER
  2
0-1
 70
     0
 62
     7
  6
CONTINUOUS
  0
LAYER
  2
0-0
 70
     0
 62
     7
  6
CONTINUOUS
  0
LAYER
  2
0-2
 70
     0
 62
     7
  6
CONTINUOUS
  0
LAYER
  2
0-6
 70
     0
 62
     7
  6
CONTINUOUS
  0
LAYER
  2
0-7
 70
     0
 62
     7
  6
CONTINUOUS
  0
LAYER
  2
0-4
 70
     0
 62
     7
  6
CONTINUOUS
  0
LAYER
  2
0-5
 70
     0
 62
     7
  6
CONTINUOUS
  0
LAYER
  2
2-0
 70
     0
 62
     7
  6
CONTINUOUS
  0
LAYER
  2
YODOROGO
 70
     0
 62
   130
  6
CONTINUOUS
  0
LAYER
  2
WAKUSEN-01
 70
     0
 62
    50
  6
CONTINUOUS
  0
LAYER
  2
WAKUSEN-02
 70
     0
 62
   130
  6
CONTINUOUS
  0
LAYER
  2
WAKUMOJI-01
 70
     0
 62
   130
  6
CONTINUOUS
  0
LAYER
  2
FILENAME
 70
     0
 62
     7
  6
CONTINUOUS
  0
LAYER
  2
NAME
 70
     0
 62
    20
  6
CONTINUOUS
  0
ENDTAB
  0
TABLE
  2
STYLE
 70
     6
  0
STYLE
  2
STANDARD
 70
     0
 40
0.0
 41
1.0
 50
0.0
 71
     0
 42
0.0
  3
txt
  4
BIGFONT
  0
STYLE
  2
00
 70
     0
 40
0.0
 41
0.6666666666666666
 50
0.0
 71
     0
 42
0.2
  3
ROMANS
  4
BIGFONT
  0
STYLE
  2
01
 70
     0
 40
3.0
 41
1.0
 50
0.0
 71
     0
 42
0.2
  3
ROMANS
  4
BIGFONT
  0
STYLE
  2
WAKUMOJI
 70
     0
 40
3.0
 41
1.0
 50
0.0
 71
     0
 42
3.0
  3
SIMPLEX
  4
BIGFONT
  0
STYLE
  2
FILENAME
 70
     0
 40
200.0
 41
1.0
 50
0.0
 71
     0
 42
200.0
  3
romans
  4
bigfont
  0
ENDTAB
  0
TABLE
  2
VIEW
 70
     0
  0
ENDTAB
  0
TABLE
  2
UCS
 70
     0
  0
ENDTAB
  0
TABLE
  2
APPID
 70
    13
  0
APPID
  2
ACAD
 70
     0
  0
APPID
  2
ACADANNOTATIVE
 70
     0
  0
APPID
  2
ACAD_PSEXT
 70
     0
  0
APPID
  2
DCO15
 70
     0
  0
APPID
  2
ACAD_MLEADERVER
 70
     0
  0
APPID
  2
AUTOCAD_POSTSCRIPT_FIGURE
 70
     0
  0
APPID
  2
ACAD_EXEMPT_FROM_CAD_STANDARDS
 70
     0
  0
APPID
  2
ACAD_DSTYLE_DIMJAG
 70
     0
  0
APPID
  2
ACAD_DSTYLE_DIMTALN
 70
     0
  0
APPID
  2
ACAD_DSTYLE_DIM_LINETYPE
 70
     0
  0
APPID
  2
ACAD_DSTYLE_DIM_EXT1_LINETYPE
 70
     0
  0
APPID
  2
ACAD_DSTYLE_DIM_EXT2_LINETYPE
 70
     0
  0
APPID
  2
ACAD_NAV_VCDISPLAY
 70
     0
  0
ENDTAB
  0
TABLE
  2
DIMSTYLE
 70
     3
  0
DIMSTYLE
  2
SUNPOU
 70
     0
  3

  4

  5

  6

  7

 40
80.0
 41
3.0
 42
1.0
 43
0.38
 44
1.0
 45
0.5
 46
0.0
 47
0.0
 48
0.0
140
2.0
141
0.09
142
0.0
143
25.399999999999999
144
1.0
145
0.0
146
1.0
147
1.0
 71
     0
 72
     0
 73
     0
 74
     0
 75
     0
 76
     0
 77
     1
 78
     8
170
     0
171
     2
172
     1
173
     0
174
     0
175
     0
176
     4
177
     4
178
     7
  0
ENDTAB
  0
ENDSEC
  0
SECTION
  2
BLOCKS
  0
BLOCK
  8
0
  2
$MODEL_SPACE
 70
     0
 10
0.0
 20
0.0
 30
0.0
  3
$MODEL_SPACE
  1

  0
ENDBLK
  5
4818
  8
0
  0
BLOCK
 67
     1
  8
0
  2
$PAPER_SPACE
 70
     0
 10
0.0
 20
0.0
 30
0.0
  3
$PAPER_SPACE
  1

  0
ENDBLK
  5
4814
 67
     1
  8
0
  0
BLOCK
  8
0
  2
_DOTSMALL
 70
     0
 10
0.0
 20
0.0
 30
0.0
  3
_DOTSMALL
  1

  0
POLYLINE
  5
3C3E
  8
0
  6
BYBLOCK
 62
     0
 66
     1
 10
0.0
 20
0.0
 30
0.0
 70
     1
 40
0.5
 41
0.5
  0
VERTEX
  5
4881
  8
0
  6
BYBLOCK
 62
     0
 10
-0.0625
 20
0.0
 30
0.0
 42
1.0
  0
VERTEX
  5
4882
  8
0
  6
BYBLOCK
 62
     0
 10
0.0625
 20
0.0
 30
0.0
 42
1.0
  0
SEQEND
  5
4883
  8
0
  6
BYBLOCK
 62
     0
  0
ENDBLK
  5
3C42
  8
0
  0
BLOCK
  8
0
  2
A$C25373617
 70
     0
 10
0.0
 20
0.0
 30
0.0
  3
A$C25373617
  1

  0
LINE
  5
4634
  8
SUNPOU
  6
CONTINUOUS
 62
     4
 10
-3003.5003959999931
 20
-80.0
 30
0.0
 11
-3003.5003959999931
 21
-1258.947820000001
 31
0.0
  0
LINE
  5
4635
  8
SUNPOU
  6
CONTINUOUS
 62
     4
 10
3003.5003959999808
 20
-80.0
 30
0.0
 11
3003.5003959999808
 21
-1258.947820000001
 31
0.0
  0
LINE
  5
4636
  8
SUNPOU
  6
CONTINUOUS
 62
     4
 10
-3003.5003959999931
 20
-1178.947820000001
 30
0.0
 11
3003.5003959999808
 21
-1178.947820000001
 31
0.0
  0
TEXT
  5
4637
  8
0
  6
CONTINUOUS
 62
     7
 10
-762.66666666666981
 20
-1098.947820000001
 30
0.0
 40
160.0
  1
ケラバ外寸 6007
  0
ARC
  5
4638
  8
0
  6
BYBLOCK
 62
     0
 10
-3003.5003959999931
 20
-1178.947820000001
 30
0.0
 40
15.0
 50
0.0
 51
180.0
  0
ARC
  5
4639
  8
0
  6
BYBLOCK
 62
     0
 10
-3003.5003959999931
 20
-1178.947820000001
 30
0.0
 40
15.0
 50
180.0
 51
0.0
  0
ARC
  5
463A
  8
0
  6
BYBLOCK
 62
     0
 10
3003.5003959999808
 20
-1178.947820000001
 30
0.0
 40
15.0
 50
180.0
 51
0.0
  0
ARC
  5
463B
  8
0
  6
BYBLOCK
 62
     0
 10
3003.5003959999808
 20
-1178.947820000001
 30
0.0
 40
15.0
 50
0.0
 51
180.0
  0
ENDBLK
  5
463D
  8
0
  0
ENDSEC
  0
SECTION
  2
ENTITIES
  0
LINE
  5
3C43
  8
0-2
  6
CONTINUOUS
 62
     3
 10
8701.5868589999736
 20
14347.541411
 30
0.0
 11
8701.5868589999736
 21
19845.535564999991
 31
0.0
  0
LINE
  5
3C44
  8
0-2
  6
CONTINUOUS
 62
     3
 10
8566.0873269999756
 20
14315.54051399998
 30
0.0
 11
8566.0873269999756
 21
19855.53714800001
 31
0.0
  0
LINE
  5
3C45
  8
0-2
  6
CONTINUOUS
 62
     3
 10
11136.117197999971
 20
18238.587903
 30
0.0
 11
11262.86082399997
 21
18454.080275999961
 31
0.0
  0
LINE
  5
3C46
  8
0-2
  6
CONTINUOUS
 62
     3
 10
11871.33613299995
 20
17516.124985999992
 30
0.0
 11
11998.07975899996
 21
17731.615378999999
 31
0.0
  0
LINE
  5
3C47
  8
0-2
  6
CONTINUOUS
 62
     3
 10
11871.33613299995
 20
17516.124985999992
 30
0.0
 11
11262.86082399997
 21
18454.080275999961
 31
0.0
  0
LINE
  5
3C48
  8
0-2
  6
CONTINUOUS
 62
     3
 10
8609.0874589999712
 20
14471.540435000001
 30
0.0
 11
14530.088481999959
 21
14471.540435000001
 31
0.0
  0
LINE
  5
3C49
  8
0-2
  6
CONTINUOUS
 62
     3
 10
8651.5882179999735
 20
14550.541042000001
 30
0.0
 11
14487.588217999961
 21
14550.541042000001
 31
0.0
  0
LINE
  5
3C4A
  8
0-2
  6
CONTINUOUS
 62
     3
 10
8566.0873269999756
 20
14315.54051399998
 30
0.0
 11
14573.087623999971
 21
14315.54051399998
 31
0.0
  0
LINE
  5
3C4B
  8
0-2
  6
CONTINUOUS
 62
     3
 10
8566.0873269999756
 20
14347.541411
 30
0.0
 11
14573.087623999971
 21
14347.541411
 31
0.0
  0
LINE
  5
3C4C
  8
0-2
  6
CONTINUOUS
 62
     3
 10
8651.5882179999735
 20
14471.540435000001
 30
0.0
 11
8651.5882179999735
 21
19382.980533999991
 31
0.0
  0
LINE
  5
3C4D
  8
0-2
  6
CONTINUOUS
 62
     3
 10
8609.0874589999712
 20
14471.540435000001
 30
0.0
 11
8609.0874589999712
 21
19402.55797300001
 31
0.0
  0
LINE
  5
3C4E
  8
0-2
  6
CONTINUOUS
 62
     3
 10
11569.58821799997
 20
14471.540435000001
 30
0.0
 11
11569.58821799997
 21
14550.541042000001
 31
0.0
  0
LINE
  5
3C4F
  8
0-2
  6
CONTINUOUS
 62
     3
 10
14530.088481999959
 20
14471.540435000001
 30
0.0
 11
14530.088481999959
 21
16564.85368700001
 31
0.0
  0
LINE
  5
3C50
  8
0-2
  6
CONTINUOUS
 62
     3
 10
14487.588217999961
 20
14471.540435000001
 30
0.0
 11
14487.588217999961
 21
16584.430135999999
 31
0.0
  0
LINE
  5
3C51
  8
0-2
  6
CONTINUOUS
 62
     3
 10
14573.087623999971
 20
14315.54051399998
 30
0.0
 11
14573.087623999971
 21
19855.53714800001
 31
0.0
  0
LINE
  5
3C52
  8
0-2
  6
CONTINUOUS
 62
     3
 10
14437.58858699996
 20
14347.541411
 30
0.0
 11
14437.58858699996
 21
19845.535564999991
 31
0.0
  0
LINE
  5
3C53
  8
0-2
  6
CONTINUOUS
 62
     3
 10
11136.117197999971
 20
18238.587903
 30
0.0
 11
8417.8912029999738
 21
19490.63071400001
 31
0.0
  0
LINE
  5
3C54
  8
0-2
  6
CONTINUOUS
 62
     3
 10
14398.08725399996
 20
16625.659549000011
 30
0.0
 11
14398.08725399996
 21
19845.535564999991
 31
0.0
  0
LINE
  5
3C55
  8
0-2
  6
CONTINUOUS
 62
     3
 10
14361.089061999961
 20
16642.704194000002
 30
0.0
 11
14361.089061999961
 21
19845.53556499998
 31
0.0
  0
LINE
  5
3C56
  8
0-2
  6
CONTINUOUS
 62
     3
 10
11788.090447999961
 20
17644.451237000001
 30
0.0
 11
11788.090447999961
 21
19845.535564999991
 31
0.0
  0
LINE
  5
3C57
  8
0-2
  6
CONTINUOUS
 62
     3
 10
14198.089563999951
 20
16717.789313000001
 30
0.0
 11
14198.089563999951
 21
19845.535564999991
 31
0.0
  0
LINE
  5
3C58
  8
0-2
  6
CONTINUOUS
 62
     3
 10
14161.088402999971
 20
16734.832967999999
 30
0.0
 11
14161.088402999971
 21
19845.535564999991
 31
0.0
  0
LINE
  5
3C59
  8
0-2
  6
CONTINUOUS
 62
     3
 10
13988.08879799997
 20
16809.920066999988
 30
0.0
 11
13988.08879799997
 21
19845.535564999991
 31
0.0
  0
LINE
  5
3C5A
  8
0-2
  6
CONTINUOUS
 62
     3
 10
13951.09060599996
 20
16826.963722000011
 30
0.0
 11
13951.09060599996
 21
19845.535564999991
 31
0.0
  0
LINE
  5
3C5B
  8
0-2
  6
CONTINUOUS
 62
     3
 10
13751.089945999949
 20
16919.093486000002
 30
0.0
 11
13751.089945999949
 21
19845.535564999991
 31
0.0
  0
LINE
  5
3C5C
  8
0-2
  6
CONTINUOUS
 62
     3
 10
13788.088137999959
 20
16902.05082
 30
0.0
 11
13788.088137999959
 21
19845.53556499998
 31
0.0
  0
LINE
  5
3C5D
  8
0-2
  6
CONTINUOUS
 62
     3
 10
13588.089457999949
 20
16994.178605000001
 30
0.0
 11
13588.089457999949
 21
19845.535564999991
 31
0.0
  0
LINE
  5
3C5E
  8
0-2
  6
CONTINUOUS
 62
     3
 10
13551.089286999961
 20
17011.22325000001
 30
0.0
 11
13551.089286999961
 21
19845.53556499998
 31
0.0
  0
LINE
  5
3C5F
  8
0-2
  6
CONTINUOUS
 62
     3
 10
13351.09060599996
 20
17103.354004000001
 30
0.0
 11
13351.09060599996
 21
19845.535564999991
 31
0.0
  0
LINE
  5
3C60
  8
0-2
  6
CONTINUOUS
 62
     3
 10
13388.08879799997
 20
17086.309359000021
 30
0.0
 11
13388.08879799997
 21
19845.535564999991
 31
0.0
  0
LINE
  5
3C61
  8
0-2
  6
CONTINUOUS
 62
     3
 10
13151.089945999949
 20
17195.483767999991
 30
0.0
 11
13151.089945999949
 21
19845.535564999991
 31
0.0
  0
LINE
  5
3C62
  8
0-2
  6
CONTINUOUS
 62
     3
 10
13188.089127999971
 20
17178.439123000011
 30
0.0
 11
13188.089127999971
 21
19845.535564999991
 31
0.0
  0
LINE
  5
3C63
  8
0-2
  6
CONTINUOUS
 62
     3
 10
12951.08829699996
 20
17292.613583999999
 30
0.0
 11
12951.08829699996
 21
19845.535564999991
 31
0.0
  0
LINE
  5
3C64
  8
0-2
  6
CONTINUOUS
 62
     3
 10
12988.089457999949
 20
17275.569929000001
 30
0.0
 11
12988.089457999949
 21
19845.535564999991
 31
0.0
  0
LINE
  5
3C65
  8
0-2
  6
CONTINUOUS
 62
     3
 10
12751.090605999971
 20
17384.742358999982
 30
0.0
 11
12751.090605999971
 21
19845.535564999991
 31
0.0
  0
LINE
  5
3C66
  8
0-2
  6
CONTINUOUS
 62
     3
 10
12788.08879799997
 20
17367.700682999981
 30
0.0
 11
12788.08879799997
 21
19845.535564999991
 31
0.0
  0
LINE
  5
3C67
  8
0-2
  6
CONTINUOUS
 62
     3
 10
12551.089945999949
 20
17476.873112000001
 30
0.0
 11
12551.089945999949
 21
19845.535564999991
 31
0.0
  0
LINE
  5
3C68
  8
0-2
  6
CONTINUOUS
 62
     3
 10
12588.089127999971
 20
17459.827477999999
 30
0.0
 11
12588.089127999971
 21
19845.535564999991
 31
0.0
  0
LINE
  5
3C69
  8
0-2
  6
CONTINUOUS
 62
     3
 10
12388.08945799996
 20
17551.958231999979
 30
0.0
 11
12388.08945799996
 21
19845.535564999991
 31
0.0
  0
LINE
  5
3C6A
  8
0-2
  6
CONTINUOUS
 62
     3
 10
12351.088296999949
 20
17569.001886999991
 30
0.0
 11
12351.088296999949
 21
19845.53556499998
 31
0.0
  0
LINE
  5
3C6B
  8
0-2
  6
CONTINUOUS
 62
     3
 10
12151.090605999971
 20
17661.132640999989
 30
0.0
 11
12151.090605999971
 21
19845.535564999991
 31
0.0
  0
LINE
  5
3C6C
  8
0-2
  6
CONTINUOUS
 62
     3
 10
12188.08978799997
 20
17644.088985999992
 30
0.0
 11
12188.08978799997
 21
19845.535564999991
 31
0.0
  0
LINE
  5
3C6D
  8
0-2
  6
CONTINUOUS
 62
     3
 10
11988.08813799995
 20
17714.633088999992
 30
0.0
 11
11988.08813799995
 21
19845.535564999991
 31
0.0
  0
LINE
  5
3C6E
  8
0-2
  6
CONTINUOUS
 62
     3
 10
11951.08994599996
 20
17659.364929999982
 30
0.0
 11
11951.08994599996
 21
19845.535564999991
 31
0.0
  0
LINE
  5
3C6F
  8
0-2
  6
CONTINUOUS
 62
     3
 10
11751.08829699994
 20
17701.485127
 30
0.0
 11
11751.08829699994
 21
19845.535564999991
 31
0.0
  0
LINE
  5
3C70
  8
0-2
  6
CONTINUOUS
 62
     3
 10
11588.08879799997
 20
17952.74541999997
 30
0.0
 11
11588.08879799997
 21
19845.535564999991
 31
0.0
  0
LINE
  5
3C71
  8
0-2
  6
CONTINUOUS
 62
     3
 10
11551.09060599996
 20
18009.781288999991
 30
0.0
 11
11551.09060599996
 21
19845.535564999991
 31
0.0
  0
LINE
  5
3C72
  8
0-2
  6
CONTINUOUS
 62
     3
 10
11351.088956999971
 20
18318.079430999991
 30
0.0
 11
11351.088956999971
 21
19845.53556499998
 31
0.0
  0
LINE
  5
3C73
  8
0-2
  6
CONTINUOUS
 62
     3
 10
11388.089127999971
 20
18261.043561999992
 30
0.0
 11
11388.089127999971
 21
19845.53556499998
 31
0.0
  0
LINE
  5
3C74
  8
0-2
  6
CONTINUOUS
 62
     3
 10
11188.090447999961
 20
18326.951633000001
 30
0.0
 11
11188.090447999961
 21
19845.535564999991
 31
0.0
  0
LINE
  5
3C75
  8
0-2
  6
CONTINUOUS
 62
     3
 10
11151.08928699997
 20
18264.044512
 30
0.0
 11
11151.08928699997
 21
19845.535564999991
 31
0.0
  0
LINE
  5
3C76
  8
0-2
  6
CONTINUOUS
 62
     3
 10
10988.08879799997
 20
18306.780338999979
 30
0.0
 11
10988.08879799997
 21
19845.535564999991
 31
0.0
  0
LINE
  5
3C77
  8
0-2
  6
CONTINUOUS
 62
     3
 10
10951.09060599996
 20
18323.822015000002
 30
0.0
 11
10951.09060599996
 21
19845.535564999991
 31
0.0
  0
LINE
  5
3C78
  8
0-2
  6
CONTINUOUS
 62
     3
 10
10788.089127999971
 20
18398.90713399995
 30
0.0
 11
10788.089127999971
 21
19845.535564999991
 31
0.0
  0
LINE
  5
3C79
  8
0-2
  6
CONTINUOUS
 62
     3
 10
10751.08895699996
 20
18415.952767999981
 30
0.0
 11
10751.08895699996
 21
19845.535564999991
 31
0.0
  0
LINE
  5
3C7A
  8
0-2
  6
CONTINUOUS
 62
     3
 10
10588.08945799996
 20
18491.037887999992
 30
0.0
 11
10588.08945799996
 21
19845.535564999991
 31
0.0
  0
LINE
  5
3C7B
  8
0-2
  6
CONTINUOUS
 62
     3
 10
10551.08928699997
 20
18508.08352199999
 30
0.0
 11
10551.08928699997
 21
19845.535564999991
 31
0.0
  0
LINE
  5
3C7C
  8
0-2
  6
CONTINUOUS
 62
     3
 10
10388.088797999981
 20
18583.168641
 30
0.0
 11
10388.088797999981
 21
19845.53556499998
 31
0.0
  0
LINE
  5
3C7D
  8
0-2
  6
CONTINUOUS
 62
     3
 10
10351.089616999971
 20
18600.214275999992
 30
0.0
 11
10351.089616999971
 21
19845.53556499998
 31
0.0
  0
LINE
  5
3C7E
  8
0-2
  6
CONTINUOUS
 62
     3
 10
9788.089787999972
 20
18864.055676999989
 30
0.0
 11
9788.089787999972
 21
19845.535564999991
 31
0.0
  0
LINE
  5
3C7F
  8
0-2
  6
CONTINUOUS
 62
     3
 10
9751.0896169999723
 20
18881.101310999991
 30
0.0
 11
9751.0896169999723
 21
19845.535564999991
 31
0.0
  0
LINE
  5
3C80
  8
0-2
  6
CONTINUOUS
 62
     3
 10
9951.088296999973
 20
18788.97055699999
 30
0.0
 11
9951.088296999973
 21
19845.535564999991
 31
0.0
  0
LINE
  5
3C81
  8
0-2
  6
CONTINUOUS
 62
     3
 10
9988.0894579999713
 20
18771.928882
 30
0.0
 11
9988.0894579999713
 21
19845.535564999991
 31
0.0
  0
LINE
  5
3C82
  8
0-2
  6
CONTINUOUS
 62
     3
 10
10151.08994599996
 20
18692.341070999992
 30
0.0
 11
10151.08994599996
 21
19845.535564999991
 31
0.0
  0
LINE
  5
3C83
  8
0-2
  6
CONTINUOUS
 62
     3
 10
10188.089127999971
 20
18675.299394999991
 30
0.0
 11
10188.089127999971
 21
19845.53556499998
 31
0.0
  0
LINE
  5
3C84
  8
0-2
  6
CONTINUOUS
 62
     3
 10
9588.0881379999737
 20
18956.186430999991
 30
0.0
 11
9588.0881379999737
 21
19845.535564999991
 31
0.0
  0
LINE
  5
3C85
  8
0-2
  6
CONTINUOUS
 62
     3
 10
8778.0863839999693
 20
19324.709446000001
 30
0.0
 11
8778.0863839999693
 21
19845.535564999991
 31
0.0
  0
LINE
  5
3C86
  8
0-2
  6
CONTINUOUS
 62
     3
 10
8741.0891809999757
 20
19341.751121000001
 30
0.0
 11
8741.0891809999757
 21
19845.535564999991
 31
0.0
  0
LINE
  5
3C87
  8
0-2
  6
CONTINUOUS
 62
     3
 10
8978.0885279999693
 20
19232.578691999999
 30
0.0
 11
8978.0885279999693
 21
19845.535564999991
 31
0.0
  0
LINE
  5
3C88
  8
0-2
  6
CONTINUOUS
 62
     3
 10
8941.0883559999711
 20
19249.62036700001
 30
0.0
 11
8941.0883559999711
 21
19845.535564999991
 31
0.0
  0
LINE
  5
3C89
  8
0-2
  6
CONTINUOUS
 62
     3
 10
9188.0897879999757
 20
19140.447938000001
 30
0.0
 11
9188.0897879999757
 21
19845.535564999991
 31
0.0
  0
LINE
  5
3C8A
  8
0-2
  6
CONTINUOUS
 62
     3
 10
9151.0886269999719
 20
19157.489613999998
 30
0.0
 11
9151.0886269999719
 21
19845.535564999991
 31
0.0
  0
LINE
  5
3C8B
  8
0-2
  6
CONTINUOUS
 62
     3
 10
9351.0902759999717
 20
19065.362819000002
 30
0.0
 11
9351.0902759999717
 21
19845.535564999991
 31
0.0
  0
LINE
  5
3C8C
  8
0-2
  6
CONTINUOUS
 62
     3
 10
9388.0884679999726
 20
19048.317184
 30
0.0
 11
9388.0884679999726
 21
19845.535564999991
 31
0.0
  0
LINE
  5
3C8D
  8
0-2
  6
CONTINUOUS
 62
     3
 10
9551.0899459999673
 20
18973.232065
 30
0.0
 11
9551.0899459999673
 21
19845.535564999991
 31
0.0
  0
LINE
  5
3C8E
  8
0-2
  6
CONTINUOUS
 62
     3
 10
14721.286221999961
 20
16476.777977000009
 30
0.0
 11
11998.07975899996
 21
17731.615378999999
 31
0.0
  0
LINE
  5
3C8F
  8
0-2
  6
CONTINUOUS
 62
     3
 10
14504.588362999961
 20
19865.535696999999
 30
0.0
 11
14568.088349999971
 21
19865.535696999999
 31
0.0
  0
LINE
  5
3C90
  8
0-2
  6
CONTINUOUS
 62
     3
 10
14573.087623999971
 20
19860.537412000001
 30
0.0
 11
14573.087623999971
 21
19825.535564999991
 31
0.0
  0
LINE
  5
3C91
  8
0-2
  6
CONTINUOUS
 62
     3
 10
14555.087861999949
 20
19825.535564999991
 30
0.0
 11
14504.588362999961
 21
19825.535564999991
 31
0.0
  0
LINE
  5
3C92
  8
0-2
  6
CONTINUOUS
 62
     3
 10
14499.589088999959
 20
19830.53780799999
 30
0.0
 11
14499.589088999959
 21
19860.537412000001
 31
0.0
  0
LINE
  5
3C93
  8
0-2
  6
CONTINUOUS
 62
     3
 10
14555.087861999949
 20
19848.036753
 30
0.0
 11
14573.087623999971
 21
19848.036753
 31
0.0
  0
LINE
  5
3C94
  8
0-2
  6
CONTINUOUS
 62
     3
 10
14555.087861999949
 20
16554.720530999999
 30
0.0
 11
14555.087861999949
 21
19848.036753
 31
0.0
  0
LINE
  5
3C95
  8
0-2
  6
CONTINUOUS
 62
     3
 10
11499.58848199997
 20
15616.7802995
 30
0.0
 11
8721.586963999971
 21
14508.039787999989
 31
0.0
  0
LINE
  5
3C96
  8
0-2
  6
CONTINUOUS
 62
     3
 10
8721.586963999971
 20
15616.7802995
 30
0.0
 11
11499.58848199997
 21
14508.039787999989
 31
0.0
  0
LINE
  5
3C97
  8
0-2
  6
CONTINUOUS
 62
     3
 10
8651.5882179999735
 20
15661.77970550001
 30
0.0
 11
14434.58858699996
 21
15661.77970550001
 31
0.0
  0
LINE
  5
3C98
  8
0-2
  6
CONTINUOUS
 62
     3
 10
8651.5882179999735
 20
15571.78089350001
 30
0.0
 11
14434.58858699996
 21
15571.78089350001
 31
0.0
  0
LINE
  5
3C99
  8
0-2
  6
CONTINUOUS
 62
     3
 10
8721.586963999971
 20
17075.53978799998
 30
0.0
 11
11499.58848199997
 21
15616.7802995
 31
0.0
  0
LINE
  5
3C9A
  8
0-2
  6
CONTINUOUS
 62
     3
 10
11499.58848199997
 20
17075.53978799998
 30
0.0
 11
8721.586963999971
 21
15616.7802995
 31
0.0
  0
LINE
  5
3C9B
  8
0-2
  6
CONTINUOUS
 62
     3
 10
8721.586963999971
 20
18534.539787999998
 30
0.0
 11
11499.58848199997
 21
17075.53978799998
 31
0.0
  0
LINE
  5
3C9C
  8
0-2
  6
CONTINUOUS
 62
     3
 10
11029.599302999961
 20
18287.656210000001
 30
0.0
 11
8721.586963999971
 21
17075.53978799998
 31
0.0
  0
LINE
  5
3C9D
  8
0-2
  6
CONTINUOUS
 62
     3
 10
8651.5882179999735
 20
18579.540184000001
 30
0.0
 11
10395.972230999971
 21
18579.540184000001
 31
0.0
  0
LINE
  5
3C9E
  8
0-2
  6
CONTINUOUS
 62
     3
 10
8651.5882179999735
 20
18489.537412999991
 30
0.0
 11
10591.34675599997
 21
18489.537412999991
 31
0.0
  0
LINE
  5
3C9F
  8
0-2
  6
CONTINUOUS
 62
     3
 10
9675.9797529999778
 20
18915.701316999988
 30
0.0
 11
8721.586963999971
 21
18534.539787999998
 31
0.0
  0
LINE
  5
3CA0
  8
0-2
  6
CONTINUOUS
 62
     3
 10
8584.0875839999735
 20
19825.535564999991
 30
0.0
 11
8634.5880729999735
 21
19825.535564999991
 31
0.0
  0
LINE
  5
3CA1
  8
0-2
  6
CONTINUOUS
 62
     3
 10
8584.0875839999735
 20
19848.036753
 30
0.0
 11
8566.0873269999756
 21
19848.036753
 31
0.0
  0
LINE
  5
3CA2
  8
0-2
  6
CONTINUOUS
 62
     3
 10
8634.5880729999735
 20
19865.535696999999
 30
0.0
 11
8571.0875909999741
 21
19865.535696999999
 31
0.0
  0
LINE
  5
3CA3
  8
0-2
  6
CONTINUOUS
 62
     3
 10
8566.0873269999756
 20
19860.537412000001
 30
0.0
 11
8566.0873269999756
 21
19825.535564999991
 31
0.0
  0
LINE
  5
3CA4
  8
0-2
  6
CONTINUOUS
 62
     3
 10
8639.5868519999749
 20
19830.53780799999
 30
0.0
 11
8639.5868519999749
 21
19860.537412000001
 31
0.0
  0
LINE
  5
3CA5
  8
0-2
  6
CONTINUOUS
 62
     3
 10
8639.5868519999749
 20
19845.535564999991
 30
0.0
 11
14499.58908899995
 21
19845.535564999991
 31
0.0
  0
LINE
  5
3CA6
  8
0-2
  6
CONTINUOUS
 62
     3
 10
8584.0875839999735
 20
19412.691128999992
 30
0.0
 11
8584.0875839999735
 21
19848.036753
 31
0.0
  0
LINE
  5
3CA7
  8
0-2
  6
CONTINUOUS
 62
     3
 10
11639.588942999961
 20
17075.53978799998
 30
0.0
 11
14417.587491999961
 21
15616.7802995
 31
0.0
  0
LINE
  5
3CA8
  8
0-2
  6
CONTINUOUS
 62
     3
 10
14417.587491999961
 20
15616.7802995
 30
0.0
 11
11639.588942999961
 21
14508.039787999989
 31
0.0
  0
LINE
  5
3CA9
  8
0-2
  6
CONTINUOUS
 62
     3
 10
11639.588942999961
 20
15616.7802995
 30
0.0
 11
14417.587491999961
 21
14508.039787999989
 31
0.0
  0
LINE
  5
3CAA
  8
0-2
  6
CONTINUOUS
 62
     3
 10
12467.44736799997
 20
17515.40246199998
 30
0.0
 11
11639.588942999961
 21
17075.53978799998
 31
0.0
  0
LINE
  5
3CAB
  8
0-2
  6
CONTINUOUS
 62
     3
 10
11569.58821799997
 20
14550.541042000001
 30
0.0
 11
11569.58821799997
 21
15571.78089350001
 31
0.0
  0
LINE
  5
3CAC
  8
0-2
  6
CONTINUOUS
 62
     3
 10
11512.588969999961
 20
14550.541042000001
 30
0.0
 11
11512.588969999961
 21
15571.78089350001
 31
0.0
  0
LINE
  5
3CAD
  8
0-2
  6
CONTINUOUS
 62
     3
 10
11626.58845499997
 20
14550.541042000001
 30
0.0
 11
11626.58845499997
 21
15571.78089350001
 31
0.0
  0
LINE
  5
3CAE
  8
0-2
  6
CONTINUOUS
 62
     3
 10
11626.58845499997
 20
17120.538204000011
 30
0.0
 11
11626.58845499997
 21
17893.399453000002
 31
0.0
  0
LINE
  5
3CAF
  8
0-2
  6
CONTINUOUS
 62
     3
 10
11512.588969999961
 20
17120.538204000011
 30
0.0
 11
11512.588969999961
 21
18069.129236000001
 31
0.0
  0
LINE
  5
3CB0
  8
0-2
  6
CONTINUOUS
 62
     3
 10
11512.588969999961
 20
15661.77970550001
 30
0.0
 11
11512.588969999961
 21
17030.538401999991
 31
0.0
  0
LINE
  5
3CB1
  8
0-2
  6
CONTINUOUS
 62
     3
 10
11626.58845499997
 20
15661.77970550001
 30
0.0
 11
11626.58845499997
 21
17030.538401999991
 31
0.0
  0
LINE
  5
3CB2
  8
0-2
  6
CONTINUOUS
 62
     3
 10
11569.58821799997
 20
17120.538204000011
 30
0.0
 11
11569.58821799997
 21
17981.262364999991
 31
0.0
  0
LINE
  5
3CB3
  8
0-2
  6
CONTINUOUS
 62
     3
 10
11569.58821799997
 20
17120.538204000011
 30
0.0
 11
11569.58821799997
 21
17981.262364999991
 31
0.0
  0
LINE
  5
3CB4
  8
0-2
  6
CONTINUOUS
 62
     3
 10
11569.58821799997
 20
15661.77970550001
 30
0.0
 11
11569.58821799997
 21
17030.538401999991
 31
0.0
  0
LINE
  5
3CB5
  8
0-2
  6
CONTINUOUS
 62
     3
 10
11569.58821799997
 20
15661.77970550001
 30
0.0
 11
11569.58821799997
 21
17030.538401999991
 31
0.0
  0
LINE
  5
3CB6
  8
0-2
  6
CONTINUOUS
 62
     3
 10
11569.58821799997
 20
14550.541042000001
 30
0.0
 11
11569.58821799997
 21
15571.78089350001
 31
0.0
  0
LINE
  5
3CB7
  8
0-2
  6
CONTINUOUS
 62
     3
 10
11569.58821799997
 20
15661.77970550001
 30
0.0
 11
11569.58821799997
 21
15571.78089350001
 31
0.0
  0
LINE
  5
3CB8
  8
0-2
  6
CONTINUOUS
 62
     3
 10
11569.58821799997
 20
17120.538204000011
 30
0.0
 11
11569.58821799997
 21
17030.538401999991
 31
0.0
  0
LINE
  5
3CB9
  8
0-2
  6
CONTINUOUS
 62
     3
 10
11569.58821799997
 20
14471.540435000001
 30
0.0
 11
11569.58821799997
 21
14315.54051399998
 31
0.0
  0
LINE
  5
3CBA
  8
0-6
  6
CONTINUOUS
 62
     6
 10
10279.83189599998
 20
19583.260305999971
 30
0.0
 11
10423.73398899996
 21
20095.535961000001
 31
0.0
  0
LINE
  5
3CBB
  8
0-6
  6
CONTINUOUS
 62
     6
 10
10423.73398899996
 20
20095.535961000001
 30
0.0
 11
10941.42362699996
 21
20095.535961000001
 31
0.0
  0
LINE
  5
3CBC
  8
0-6
  6
CONTINUOUS
 62
     6
 10
8816.1149149999728
 20
17708.225387999999
 30
0.0
 11
9346.1157459999722
 21
17708.225387999999
 31
0.0
  0
LINE
  5
3CBD
  8
0-6
  6
CONTINUOUS
 62
     6
 10
10657.528000999961
 20
14702.43049199999
 30
0.0
 11
10740.41341299996
 21
14884.1090055
 31
0.0
  0
LINE
  5
3CBE
  8
0-6
  6
CONTINUOUS
 62
     6
 10
10740.41341299996
 20
14884.1090055
 30
0.0
 11
11540.41506299996
 21
14884.1090055
 31
0.0
  0
LINE
  5
3CBF
  8
0-6
  6
CONTINUOUS
 62
     6
 10
10046.26948899996
 20
14179.072502999999
 30
0.0
 11
10403.87769629711
 21
13515.53886399998
 31
0.0
  0
LINE
  5
3CC0
  8
0-6
  6
CONTINUOUS
 62
     6
 10
6835.6897139999746
 20
13115.540514
 30
0.0
 11
7915.6893179999761
 21
13115.540514
 31
0.0
  0
LINE
  5
3CC1
  8
0-6
  6
CONTINUOUS
 62
     6
 10
8474.1941549999738
 20
14900.551876500011
 30
0.0
 11
7915.6893179999761
 21
13115.540514
 31
0.0
  0
LINE
  5
3CC2
  8
0-6
  6
CONTINUOUS
 62
     6
 10
8717.0731669999732
 20
17929.016930999991
 30
0.0
 11
8816.1149149999728
 21
17708.225387999999
 31
0.0
  0
LINE
  5
3CC3
  8
0-6
  6
CONTINUOUS
 62
     6
 10
12262.874020999971
 20
20815.538336000009
 30
0.0
 11
13937.87237099997
 21
20815.538336000009
 31
0.0
  0
LINE
  5
3CC4
  8
0-6
  6
CONTINUOUS
 62
     6
 10
14138.155679999971
 20
20485.95641100001
 30
0.0
 11
13937.87237099997
 21
20815.538336000009
 31
0.0
  0
LINE
  5
3CC5
  8
0-6
  6
CONTINUOUS
 62
     6
 10
14421.354515999959
 20
19995.441603999989
 30
0.0
 11
14212.160971999971
 21
20357.770704999999
 31
0.0
  0
LINE
  5
3CC6
  8
0-6
  6
CONTINUOUS
 62
     6
 10
14771.85401399996
 20
15970.087534
 30
0.0
 11
15651.853947999971
 21
15970.087534
 31
0.0
  0
LINE
  5
3CC7
  8
0-6
  6
CONTINUOUS
 62
     6
 10
14771.85401399996
 20
17480.952899999978
 30
0.0
 11
16766.298165999939
 21
17480.952899999978
 31
0.0
  0
LINE
  5
3CC8
  8
0-6
  6
CONTINUOUS
 62
     6
 10
14771.85401399996
 20
18939.451579999979
 30
0.0
 11
16766.298165999939
 21
18939.451579999979
 31
0.0
  0
LINE
  5
3CC9
  8
0-6
  6
CONTINUOUS
 62
     6
 10
14771.85401399996
 20
15163.468565500019
 30
0.0
 11
16766.298165999939
 21
15163.468565500019
 31
0.0
  0
LINE
  5
3CCA
  8
0-6
  6
CONTINUOUS
 62
     6
 10
13862.378480999971
 20
15513.72458250001
 30
0.0
 11
14771.85401399996
 21
15163.468565500019
 31
0.0
  0
LINE
  5
3CCB
  8
0-6
  6
CONTINUOUS
 62
     6
 10
14139.063288999971
 20
15767.844080000001
 30
0.0
 11
14771.85401399996
 21
15970.087534
 31
0.0
  0
LINE
  5
3CCC
  8
0-6
  6
CONTINUOUS
 62
     6
 10
13864.815267999949
 20
17171.90077299999
 30
0.0
 11
14771.85401399996
 21
17480.952899999978
 31
0.0
  0
LINE
  5
3CCD
  8
0-6
  6
CONTINUOUS
 62
     6
 10
13864.815267999949
 20
18630.900773000001
 30
0.0
 11
14771.85401399996
 21
18939.451579999979
 31
0.0
  0
LINE
  5
3CCE
  8
0-6
  6
CONTINUOUS
 62
     6
 10
11512.588969999961
 20
15825.375818
 30
0.0
 11
11351.93025199996
 21
16250.399242
 31
0.0
  0
LINE
  5
3CCF
  8
0-6
  6
CONTINUOUS
 62
     6
 10
10403.98532199997
 20
16250.399242
 30
0.0
 11
11351.93025199996
 21
16250.399242
 31
0.0
  0
LINE
  5
3CD0
  8
0-6
  6
CONTINUOUS
 62
     6
 10
8499.6383919999716
 20
14892.570457500011
 30
0.0
 11
8522.0876169999738
 21
15053.217298500011
 31
0.0
  0
LINE
  5
3CD1
  8
0-6
  6
CONTINUOUS
 62
     6
 10
8522.0876169999738
 20
15053.217298500011
 30
0.0
 11
8448.7499179999741
 21
14908.5362645
 31
0.0
  0
LINE
  5
3CD2
  8
0-6
  6
CONTINUOUS
 62
     6
 10
8522.0876169999738
 20
15053.217298500011
 30
0.0
 11
8499.6383919999716
 21
14892.570457500011
 31
0.0
  0
LINE
  5
3CD3
  8
0-6
  6
CONTINUOUS
 62
     6
 10
8499.6383919999716
 20
14892.570457500011
 30
0.0
 11
8448.7499179999741
 21
14908.5362645
 31
0.0
  0
LINE
  5
3CD4
  8
0-6
  6
CONTINUOUS
 62
     6
 10
8448.7499179999741
 20
14908.5362645
 30
0.0
 11
8522.0876169999738
 21
15053.217298500011
 31
0.0
  0
LINE
  5
3CD5
  8
0-6
  6
CONTINUOUS
 62
     6
 10
8448.7499179999741
 20
14908.5362645
 30
0.0
 11
8499.6383919999716
 21
14892.570457500011
 31
0.0
  0
LINE
  5
3CD6
  8
0-6
  6
CONTINUOUS
 62
     6
 10
8741.4039249999732
 20
17939.930016999991
 30
0.0
 11
8651.5882179999735
 21
18075.002466999991
 31
0.0
  0
LINE
  5
3CD7
  8
0-6
  6
CONTINUOUS
 62
     6
 10
8651.5882179999735
 20
18075.002466999991
 30
0.0
 11
8692.7424089999731
 21
17918.101865999979
 31
0.0
  0
LINE
  5
3CD8
  8
0-6
  6
CONTINUOUS
 62
     6
 10
8651.5882179999735
 20
18075.002466999991
 30
0.0
 11
8741.4039249999732
 21
17939.930016999991
 31
0.0
  0
LINE
  5
3CD9
  8
0-6
  6
CONTINUOUS
 62
     6
 10
8741.4039249999732
 20
17939.930016999991
 30
0.0
 11
8692.7424089999731
 21
17918.101865999979
 31
0.0
  0
LINE
  5
3CDA
  8
0-6
  6
CONTINUOUS
 62
     6
 10
8692.7424089999731
 20
17918.101865999979
 30
0.0
 11
8651.5882179999735
 21
18075.002466999991
 31
0.0
  0
LINE
  5
3CDB
  8
0-6
  6
CONTINUOUS
 62
     6
 10
8692.7424089999731
 20
17918.101865999979
 30
0.0
 11
8741.4039249999732
 21
17939.930016999991
 31
0.0
  0
LINE
  5
3CDC
  8
0-6
  6
CONTINUOUS
 62
     6
 10
13872.05337799997
 20
15538.573479500001
 30
0.0
 11
13713.283120999949
 21
15571.78089350001
 31
0.0
  0
LINE
  5
3CDD
  8
0-6
  6
CONTINUOUS
 62
     6
 10
13713.283120999949
 20
15571.78089350001
 30
0.0
 11
13852.701603999971
 21
15488.8737065
 31
0.0
  0
LINE
  5
3CDE
  8
0-6
  6
CONTINUOUS
 62
     6
 10
13713.283120999949
 20
15571.78089350001
 30
0.0
 11
13872.05337799997
 21
15538.573479500001
 31
0.0
  0
LINE
  5
3CDF
  8
0-6
  6
CONTINUOUS
 62
     6
 10
13872.05337799997
 20
15538.573479500001
 30
0.0
 11
13852.701603999971
 21
15488.8737065
 31
0.0
  0
LINE
  5
3CE0
  8
0-6
  6
CONTINUOUS
 62
     6
 10
13852.701603999971
 20
15488.8737065
 30
0.0
 11
13713.283120999949
 21
15571.78089350001
 31
0.0
  0
LINE
  5
3CE1
  8
0-6
  6
CONTINUOUS
 62
     6
 10
13852.701603999971
 20
15488.8737065
 30
0.0
 11
13872.05337799997
 21
15538.573479500001
 31
0.0
  0
LINE
  5
3CE2
  8
0-6
  6
CONTINUOUS
 62
     6
 10
10069.014156999971
 20
14192.993466999989
 30
0.0
 11
9962.7446919999766
 21
14315.54051399998
 31
0.0
  0
LINE
  5
3CE3
  8
0-6
  6
CONTINUOUS
 62
     6
 10
9962.7446919999766
 20
14315.54051399998
 30
0.0
 11
10023.524819999981
 21
14165.152528000001
 31
0.0
  0
LINE
  5
3CE4
  8
0-6
  6
CONTINUOUS
 62
     6
 10
9962.7446919999766
 20
14315.54051399998
 30
0.0
 11
10069.014156999971
 21
14192.993466999989
 31
0.0
  0
LINE
  5
3CE5
  8
0-6
  6
CONTINUOUS
 62
     6
 10
10069.014156999971
 20
14192.993466999989
 30
0.0
 11
10023.524819999981
 21
14165.152528000001
 31
0.0
  0
LINE
  5
3CE6
  8
0-6
  6
CONTINUOUS
 62
     6
 10
10023.524819999981
 20
14165.152528000001
 30
0.0
 11
9962.7446919999766
 21
14315.54051399998
 31
0.0
  0
LINE
  5
3CE7
  8
0-6
  6
CONTINUOUS
 62
     6
 10
10023.524819999981
 20
14165.152528000001
 30
0.0
 11
10069.014156999971
 21
14192.993466999989
 31
0.0
  0
LINE
  5
3CE8
  8
0-6
  6
CONTINUOUS
 62
     6
 10
10633.37886399996
 20
14713.74245099998
 30
0.0
 11
10589.653277999971
 21
14557.53962999999
 31
0.0
  0
LINE
  5
3CE9
  8
0-6
  6
CONTINUOUS
 62
     6
 10
10589.653277999971
 20
14557.53962999999
 30
0.0
 11
10681.67614799997
 21
14691.118533000001
 31
0.0
  0
LINE
  5
3CEA
  8
0-6
  6
CONTINUOUS
 62
     6
 10
10589.653277999971
 20
14557.53962999999
 30
0.0
 11
10633.37886399996
 21
14713.74245099998
 31
0.0
  0
LINE
  5
3CEB
  8
0-6
  6
CONTINUOUS
 62
     6
 10
10633.37886399996
 20
14713.74245099998
 30
0.0
 11
10681.67614799997
 21
14691.118533000001
 31
0.0
  0
LINE
  5
3CEC
  8
0-6
  6
CONTINUOUS
 62
     6
 10
10681.67614799997
 20
14691.118533000001
 30
0.0
 11
10589.653277999971
 21
14557.53962999999
 31
0.0
  0
LINE
  5
3CED
  8
0-6
  6
CONTINUOUS
 62
     6
 10
10681.67614799997
 20
14691.118533000001
 30
0.0
 11
10633.37886399996
 21
14713.74245099998
 31
0.0
  0
LINE
  5
3CEE
  8
0-6
  6
CONTINUOUS
 62
     6
 10
11480.249574999971
 20
15984.326211000011
 30
0.0
 11
11512.588969999961
 21
15825.375818
 31
0.0
  0
LINE
  5
3CEF
  8
0-6
  6
CONTINUOUS
 62
     6
 10
11512.588969999961
 20
15825.375818
 30
0.0
 11
11430.44389799997
 21
15965.245632
 31
0.0
  0
LINE
  5
3CF0
  8
0-6
  6
CONTINUOUS
 62
     6
 10
11512.588969999961
 20
15825.375818
 30
0.0
 11
11480.249574999971
 21
15984.326211000011
 31
0.0
  0
LINE
  5
3CF1
  8
0-6
  6
CONTINUOUS
 62
     6
 10
11480.249574999971
 20
15984.326211000011
 30
0.0
 11
11430.44389799997
 21
15965.245632
 31
0.0
  0
LINE
  5
3CF2
  8
0-6
  6
CONTINUOUS
 62
     6
 10
11430.44389799997
 20
15965.245632
 30
0.0
 11
11512.588969999961
 21
15825.375818
 31
0.0
  0
LINE
  5
3CF3
  8
0-6
  6
CONTINUOUS
 62
     6
 10
11430.44389799997
 20
15965.245632
 30
0.0
 11
11480.249574999971
 21
15984.326211000011
 31
0.0
  0
LINE
  5
3CF4
  8
0-6
  6
CONTINUOUS
 62
     6
 10
13856.255829999949
 20
17197.15646100002
 30
0.0
 11
13713.283120999949
 21
17120.538204000011
 31
0.0
  0
LINE
  5
3CF5
  8
0-6
  6
CONTINUOUS
 62
     6
 10
13713.283120999949
 20
17120.538204000011
 30
0.0
 11
13873.37371699996
 21
17146.645085000011
 31
0.0
  0
LINE
  5
3CF6
  8
0-6
  6
CONTINUOUS
 62
     6
 10
13713.283120999949
 20
17120.538204000011
 30
0.0
 11
13856.255829999949
 21
17197.15646100002
 31
0.0
  0
LINE
  5
3CF7
  8
0-6
  6
CONTINUOUS
 62
     6
 10
13856.255829999949
 20
17197.15646100002
 30
0.0
 11
13873.37371699996
 21
17146.645085000011
 31
0.0
  0
LINE
  5
3CF8
  8
0-6
  6
CONTINUOUS
 62
     6
 10
13873.37371699996
 20
17146.645085000011
 30
0.0
 11
13713.283120999949
 21
17120.538204000011
 31
0.0
  0
LINE
  5
3CF9
  8
0-6
  6
CONTINUOUS
 62
     6
 10
13873.37371699996
 20
17146.645085000011
 30
0.0
 11
13856.255829999949
 21
17197.15646100002
 31
0.0
  0
LINE
  5
3CFA
  8
0-6
  6
CONTINUOUS
 62
     6
 10
13856.255829999949
 20
18656.153492000001
 30
0.0
 11
13713.283120999949
 21
18579.540184000001
 31
0.0
  0
LINE
  5
3CFB
  8
0-6
  6
CONTINUOUS
 62
     6
 10
13713.283120999949
 20
18579.540184000001
 30
0.0
 11
13873.37371699996
 21
18605.644094999981
 31
0.0
  0
LINE
  5
3CFC
  8
0-6
  6
CONTINUOUS
 62
     6
 10
13713.283120999949
 20
18579.540184000001
 30
0.0
 11
13856.255829999949
 21
18656.153492000001
 31
0.0
  0
LINE
  5
3CFD
  8
0-6
  6
CONTINUOUS
 62
     6
 10
13856.255829999949
 20
18656.153492000001
 30
0.0
 11
13873.37371699996
 21
18605.644094999981
 31
0.0
  0
LINE
  5
3CFE
  8
0-6
  6
CONTINUOUS
 62
     6
 10
13873.37371699996
 20
18605.644094999981
 30
0.0
 11
13713.283120999949
 21
18579.540184000001
 31
0.0
  0
LINE
  5
3CFF
  8
0-6
  6
CONTINUOUS
 62
     6
 10
13873.37371699996
 20
18605.644094999981
 30
0.0
 11
13856.255829999949
 21
18656.153492000001
 31
0.0
  0
LINE
  5
3D00
  8
0-6
  6
CONTINUOUS
 62
     6
 10
14283.351387999959
 20
15841.955276000001
 30
0.0
 11
14139.063288999971
 21
15767.844080000001
 31
0.0
  0
LINE
  5
3D01
  8
0-6
  6
CONTINUOUS
 62
     6
 10
14139.063288999971
 20
15767.844080000001
 30
0.0
 11
14299.58838899995
 21
15791.15192100001
 31
0.0
  0
LINE
  5
3D02
  8
0-6
  6
CONTINUOUS
 62
     6
 10
14139.063288999971
 20
15767.844080000001
 30
0.0
 11
14283.351387999959
 21
15841.955276000001
 31
0.0
  0
LINE
  5
3D03
  8
0-6
  6
CONTINUOUS
 62
     6
 10
14283.351387999959
 20
15841.955276000001
 30
0.0
 11
14299.58838899995
 21
15791.15192100001
 31
0.0
  0
LINE
  5
3D04
  8
0-6
  6
CONTINUOUS
 62
     6
 10
14299.58838899995
 20
15791.15192100001
 30
0.0
 11
14139.063288999971
 21
15767.844080000001
 31
0.0
  0
LINE
  5
3D05
  8
0-6
  6
CONTINUOUS
 62
     6
 10
14299.58838899995
 20
15791.15192100001
 30
0.0
 11
14283.351387999959
 21
15841.955276000001
 31
0.0
  0
LINE
  5
3D06
  8
0-6
  6
CONTINUOUS
 62
     6
 10
10253.944741999971
 20
19589.660090000001
 30
0.0
 11
10241.444081999971
 21
19427.935400999992
 31
0.0
  0
LINE
  5
3D07
  8
0-6
  6
CONTINUOUS
 62
     6
 10
10241.444081999971
 20
19427.935400999992
 30
0.0
 11
10305.72003999996
 21
19576.864482000001
 31
0.0
  0
LINE
  5
3D08
  8
0-6
  6
CONTINUOUS
 62
     6
 10
10241.444081999971
 20
19427.935400999992
 30
0.0
 11
10253.944741999971
 21
19589.660090000001
 31
0.0
  0
LINE
  5
3D09
  8
0-6
  6
CONTINUOUS
 62
     6
 10
10253.944741999971
 20
19589.660090000001
 30
0.0
 11
10305.72003999996
 21
19576.864482000001
 31
0.0
  0
LINE
  5
3D0A
  8
0-6
  6
CONTINUOUS
 62
     6
 10
10305.72003999996
 20
19576.864482000001
 30
0.0
 11
10241.444081999971
 21
19427.935400999992
 31
0.0
  0
LINE
  5
3D0B
  8
0-6
  6
CONTINUOUS
 62
     6
 10
10305.72003999996
 20
19576.864482000001
 30
0.0
 11
10253.944741999971
 21
19589.660090000001
 31
0.0
  0
LINE
  5
3D0C
  8
0-6
  6
CONTINUOUS
 62
     6
 10
14399.702541999961
 20
19982.938964000001
 30
0.0
 11
14496.354515999959
 21
19865.535696999999
 31
0.0
  0
LINE
  5
3D0D
  8
0-6
  6
CONTINUOUS
 62
     6
 10
14496.354515999959
 20
19865.535696999999
 30
0.0
 11
14443.005499999959
 21
20007.942264000001
 31
0.0
  0
LINE
  5
3D0E
  8
0-6
  6
CONTINUOUS
 62
     6
 10
14496.354515999959
 20
19865.535696999999
 30
0.0
 11
14399.702541999961
 21
19982.938964000001
 31
0.0
  0
LINE
  5
3D0F
  8
0-6
  6
CONTINUOUS
 62
     6
 10
14399.702541999961
 20
19982.938964000001
 30
0.0
 11
14443.005499999959
 21
20007.942264000001
 31
0.0
  0
LINE
  5
3D10
  8
0-6
  6
CONTINUOUS
 62
     6
 10
14443.005499999959
 20
20007.942264000001
 30
0.0
 11
14496.354515999959
 21
19865.535696999999
 31
0.0
  0
LINE
  5
3D11
  8
0-6
  6
CONTINUOUS
 62
     6
 10
14443.005499999959
 20
20007.942264000001
 30
0.0
 11
14399.702541999961
 21
19982.938964000001
 31
0.0
  0
LINE
  5
3D12
  8
0-0
  6
DASHED3
 62
     6
 10
8651.5882179999735
 20
19604.037333
 30
0.0
 11
14487.588217999961
 21
19604.037333
 31
0.0
  0
LINE
  5
3D13
  8
0-7
  6
CONTINUOUS
 62
     6
 10
8609.0874589999712
 20
19402.55797300001
 30
0.0
 11
8609.0874589999712
 21
19689.037861000001
 31
0.0
  0
LINE
  5
3D14
  8
0-7
  6
CONTINUOUS
 62
     6
 10
8651.5882179999735
 20
19382.980533999991
 30
0.0
 11
8651.5882179999735
 21
19689.037861000001
 31
0.0
  0
LINE
  5
3D15
  8
0-0
  6
DASHED3
 62
     6
 10
8609.0874589999712
 20
19689.037861000001
 30
0.0
 11
14530.088481999959
 21
19689.037861000001
 31
0.0
  0
LINE
  5
3D16
  8
0-0
  6
DASHED3
 62
     6
 10
14487.588217999961
 20
16584.430135999999
 30
0.0
 11
14487.588217999961
 21
19689.037861000001
 31
0.0
  0
LINE
  5
3D17
  8
0-0
  6
DASHED3
 62
     6
 10
14530.088481999959
 20
16564.85368700001
 30
0.0
 11
14530.088481999959
 21
19689.037861000001
 31
0.0
  0
LINE
  5
3D18
  8
0-0
  6
DASHED3
 62
     6
 10
8721.586963999971
 20
19643.035829
 30
0.0
 11
11499.58848199997
 21
18534.539787999998
 31
0.0
  0
LINE
  5
3D19
  8
0-0
  6
DASHED3
 62
     6
 10
11499.58848199997
 20
19643.035829
 30
0.0
 11
9675.9797529999778
 21
18915.701316999988
 31
0.0
  0
LINE
  5
3D1A
  8
0-0
  6
DASHED3
 62
     6
 10
11499.58848199997
 20
18534.539787999998
 30
0.0
 11
11029.599302999961
 21
18287.656210000001
 31
0.0
  0
LINE
  5
3D1B
  8
0-0
  6
DASHED3
 62
     6
 10
10395.972230999971
 20
18579.540184000001
 30
0.0
 11
14487.588217999961
 21
18579.540184000001
 31
0.0
  0
LINE
  5
3D1C
  8
0-0
  6
DASHED3
 62
     6
 10
10591.34675599997
 20
18489.537412999991
 30
0.0
 11
14487.588217999961
 21
18489.537412999991
 31
0.0
  0
LINE
  5
3D1D
  8
0-0
  6
DASHED3
 62
     6
 10
13509.159123999971
 20
17030.538401999991
 30
0.0
 11
14487.588217999961
 21
17030.538401999991
 31
0.0
  0
LINE
  5
3D1E
  8
0-0
  6
DASHED3
 62
     6
 10
13313.784598999961
 20
17120.538204000011
 30
0.0
 11
14487.588217999961
 21
17120.538204000011
 31
0.0
  0
LINE
  5
3D1F
  8
0-0
  6
DASHED3
 62
     6
 10
11639.588942999961
 20
18534.539787999998
 30
0.0
 11
14417.587491999961
 21
17075.53978799998
 31
0.0
  0
LINE
  5
3D20
  8
0-7
  6
CONTINUOUS
 62
     6
 10
14417.587491999961
 20
18534.539787999998
 30
0.0
 11
12467.44736799997
 21
17515.40246199998
 31
0.0
  0
LINE
  5
3D21
  8
0-0
  6
DASHED3
 62
     6
 10
11639.588942999961
 20
19643.035829
 30
0.0
 11
14417.587491999961
 21
18534.539787999998
 31
0.0
  0
LINE
  5
3D22
  8
0-0
  6
DASHED3
 62
     6
 10
14417.587491999961
 20
19643.035829
 30
0.0
 11
11639.588942999961
 21
18534.539787999998
 31
0.0
  0
LINE
  5
3D23
  8
0-0
  6
DASHED3
 62
     6
 10
11512.588969999961
 20
18069.129236000001
 30
0.0
 11
11512.588969999961
 21
18489.537412999991
 31
0.0
  0
LINE
  5
3D24
  8
0-0
  6
DASHED3
 62
     6
 10
11626.58845499997
 20
17893.399453000002
 30
0.0
 11
11626.58845499997
 21
18489.537412999991
 31
0.0
  0
LINE
  5
3D25
  8
0-0
  6
DASHED3
 62
     6
 10
11569.58821799997
 20
18579.540184000001
 30
0.0
 11
11569.58821799997
 21
18489.537412999991
 31
0.0
  0
LINE
  5
3D26
  8
0-0
  6
CENTER2
 62
     6
 10
14487.588217999961
 20
20885.538071999988
 30
0.0
 11
14487.588217999961
 21
19935.537412000001
 31
0.0
  0
LINE
  5
3D27
  8
0-0
  6
CENTER2
 62
     6
 10
11569.58821799997
 20
20885.538073000022
 30
0.0
 11
11569.58821799997
 21
19935.537412000001
 31
0.0
  0
LINE
  5
3D28
  8
0-0
  6
CENTER2
 62
     6
 10
7322.0869529999709
 20
19643.035829
 30
0.0
 11
8968.5868389999778
 21
19643.035829
 31
0.0
  0
LINE
  5
3D29
  8
0-0
  6
CENTER2
 62
     6
 10
8651.5882179999735
 20
20885.541367000042
 30
0.0
 11
8651.5882179999735
 21
19935.537412000001
 31
0.0
  0
LINE
  5
3D2A
  8
0-0
  6
CENTER2
 62
     6
 10
7322.0869529999709
 20
17075.53978799998
 30
0.0
 11
8968.5868389999778
 21
17075.53978799998
 31
0.0
  0
LINE
  5
3D2B
  8
0-0
  6
CENTER2
 62
     6
 10
7322.0869529999709
 20
14508.039787999989
 30
0.0
 11
8968.5868389999778
 21
14508.039787999989
 31
0.0
  0
LINE
  5
3D2C
  8
0-0
  6
CENTER2
 62
     6
 10
14170.59009199996
 20
17075.53978799998
 30
0.0
 11
14720.528066999959
 21
17075.53978799998
 31
0.0
  0
LINE
  5
3D2D
  8
0-0
  6
CENTER2
 62
     6
 10
14170.59009199996
 20
14508.039787999989
 30
0.0
 11
14786.352997999949
 21
14508.039787999989
 31
0.0
  0
LINE
  5
3D2E
  8
0-0
  6
CENTER2
 62
     6
 10
8432.7910389999743
 20
15616.7802995
 30
0.0
 11
14720.528066999959
 21
15616.7802995
 31
0.0
  0
LINE
  5
3D2F
  8
0-0
  6
CENTER2
 62
     6
 10
8418.6493589999736
 20
18534.539787999998
 30
0.0
 11
14720.528066999959
 21
18534.539787999998
 31
0.0
  0
LINE
  5
3D30
  8
0-0
  6
DASHED3
 62
     6
 10
11512.588969999961
 20
18579.540184000001
 30
0.0
 11
11512.588969999961
 21
19604.037333
 31
0.0
  0
LINE
  5
3D31
  8
0-0
  6
DASHED3
 62
     6
 10
11569.58821799997
 20
18579.540184000001
 30
0.0
 11
11569.58821799997
 21
19604.037333
 31
0.0
  0
LINE
  5
3D32
  8
0-0
  6
DASHED3
 62
     6
 10
11626.58845499997
 20
18579.540184000001
 30
0.0
 11
11626.58845499997
 21
19604.037333
 31
0.0
  0
LINE
  5
3D33
  8
0-0
  6
DASHED3
 62
     6
 10
11569.58821799997
 20
17981.262364999991
 30
0.0
 11
11569.58821799997
 21
18489.537412999991
 31
0.0
  0
LINE
  5
3D34
  8
0-2
  6
CONTINUOUS
 62
     3
 10
13942.18277299996
 20
16831.065284000011
 30
0.0
 11
11639.588942999961
 21
15616.7802995
 31
0.0
  0
LINE
  5
3D35
  8
0-0
  6
DASHED3
 62
     6
 10
14417.589471999971
 20
17075.53978799998
 30
0.0
 11
13942.18277299996
 21
16831.065284000011
 31
0.0
  0
LINE
  5
3D36
  8
0-0
  6
CONTINUOUS
 62
     3
 10
8651.5882179999735
 20
17120.538204000011
 30
0.0
 11
13313.784598999961
 21
17120.538204000011
 31
0.0
  0
LINE
  5
3D37
  8
0-0
  6
CONTINUOUS
 62
     3
 10
8651.5882179999735
 20
17030.538401999991
 30
0.0
 11
13509.15813399997
 21
17030.538401999991
 31
0.0
  0
CIRCLE
  5
3D38
  8
0-1
  6
CONTINUOUS
 62
     4
 10
11569.58821799997
 20
21085.534774
 30
0.0
 40
199.9999949999999
  0
CIRCLE
  5
3D39
  8
0-1
  6
CONTINUOUS
 62
     4
 10
8651.5882179999735
 20
21085.538068000009
 30
0.0
 40
199.9999949999999
  0
CIRCLE
  5
3D3A
  8
0-1
  6
CONTINUOUS
 62
     4
 10
7122.0877779999764
 20
19643.035829
 30
0.0
 40
199.9999949999999
  0
CIRCLE
  5
3D3B
  8
0-1
  6
CONTINUOUS
 62
     4
 10
7122.0877779999764
 20
17075.53978799998
 30
0.0
 40
199.9999949999999
  0
CIRCLE
  5
3D3C
  8
0-1
  6
CONTINUOUS
 62
     4
 10
7122.0877779999764
 20
14508.039787999989
 30
0.0
 40
199.9999949999999
  0
CIRCLE
  5
3D3D
  8
0-1
  6
CONTINUOUS
 62
     4
 10
14487.588217999961
 20
21085.536753
 30
0.0
 40
199.9999949999999
  0
CIRCLE
  5
3D3E
  8
0-1
  6
CONTINUOUS
 62
     4
 10
15128.71667799999
 20
1375.999858000001
 30
0.0
 40
20.0
  0
ARC
  5
3D3F
  8
0-1
  6
CONTINUOUS
 62
     4
 10
15128.71667799999
 20
1375.999858000001
 30
0.0
 40
20.0
 50
180.0
 51
0.0
  0
ARC
  5
3D40
  8
0-1
  6
CONTINUOUS
 62
     4
 10
15128.71667799999
 20
1375.999858000001
 30
0.0
 40
20.0
 50
0.0
 51
179.99998500000001
  0
CIRCLE
  5
3D41
  8
0-1
  6
CONTINUOUS
 62
     4
 10
15128.71667799999
 20
1776.0000640000001
 30
0.0
 40
20.0
  0
ARC
  5
3D42
  8
0-1
  6
CONTINUOUS
 62
     4
 10
15128.71667799999
 20
1776.0000640000001
 30
0.0
 40
20.0
 50
180.0
 51
0.0
  0
ARC
  5
3D43
  8
0-1
  6
CONTINUOUS
 62
     4
 10
15128.71667799999
 20
1776.0000640000001
 30
0.0
 40
20.0
 50
0.0
 51
179.99998500000001
  0
ARC
  5
3D44
  8
0-2
  6
CONTINUOUS
 62
     3
 10
14504.588362999961
 20
19830.53780799999
 30
0.0
 40
5.0
 50
180.0
 51
269.9999850001808
  0
ARC
  5
3D45
  8
0-2
  6
CONTINUOUS
 62
     3
 10
14504.588362999961
 20
19860.537412000001
 30
0.0
 40
5.0
 50
90.0
 51
180.0
  0
ARC
  5
3D46
  8
0-2
  6
CONTINUOUS
 62
     3
 10
14568.088349999971
 20
19860.537412000001
 30
0.0
 40
5.0
 50
0.0
 51
90.0
  0
ARC
  5
3D47
  8
0-2
  6
CONTINUOUS
 62
     3
 10
8571.0875909999741
 20
19860.537412000001
 30
0.0
 40
5.0
 50
90.0
 51
180.0
  0
ARC
  5
3D48
  8
0-2
  6
CONTINUOUS
 62
     3
 10
8634.5880729999735
 20
19860.537412000001
 30
0.0
 40
5.0
 50
0.0
 51
90.0
  0
ARC
  5
3D49
  8
0-2
  6
CONTINUOUS
 62
     3
 10
8634.5880729999735
 20
19830.53780799999
 30
0.0
 40
5.0
 50
269.9999850001808
 51
0.0
  0
TEXT
  5
3D4A
  8
0-1
  6
CONTINUOUS
 62
     7
 10
14432.620945999961
 20
20996.622716000009
 30
0.0
 40
160.0
  1
3
 72
     4
 11
14485.9542793333
 21
21076.622716000009
 31
0.0
  0
TEXT
  5
3D4B
  8
0-1
  6
CONTINUOUS
 62
     7
 10
11514.620945999961
 20
20996.620738000031
 30
0.0
 40
160.0
  1
2
 72
     4
 11
11567.9542793333
 21
21076.620738000031
 31
0.0
  0
TEXT
  5
3D4C
  8
0-1
  6
CONTINUOUS
 62
     7
 10
8596.6209459999773
 20
20996.624032000022
 30
0.0
 40
160.0
  1
1
 72
     4
 11
8623.2876126666433
 21
21076.624032000022
 31
0.0
  0
TEXT
  5
3D4D
  8
0-1
  6
CONTINUOUS
 62
     7
 10
7063.9280369999742
 20
19554.171280999999
 30
0.0
 40
160.0
  1
C
 72
     4
 11
7117.2613703333072
 21
19634.17128100001
 31
0.0
  0
TEXT
  5
3D4E
  8
0-1
  6
CONTINUOUS
 62
     7
 10
7063.9280369999742
 20
16986.676230000001
 30
0.0
 40
160.0
  1
B
 72
     4
 11
7117.2613703333072
 21
17066.676230000001
 31
0.0
  0
TEXT
  5
3D4F
  8
0-1
  6
CONTINUOUS
 62
     7
 10
7063.9280369999742
 20
14419.17622999999
 30
0.0
 40
160.0
  1
A
 72
     4
 11
7117.2613703333072
 21
14499.17622999999
 31
0.0
  0
TEXT
  5
3D50
  8
0-1
  6
CONTINUOUS
 62
     7
 10
16692.228542000001
 20
1655.999916
 30
0.0
 40
160.0
  1
H
  0
TEXT
  5
3D51
  8
0-1
  6
CONTINUOUS
 62
     7
 10
15176.14792299998
 20
1655.999916
 30
0.0
 40
160.0
  1
（ ）内寸法ハ、  タ イプヲ示ス。
  0
TEXT
  5
3D52
  8
0-1
  6
CONTINUOUS
 62
     7
 10
15288.71720599999
 20
1255.999957
 30
0.0
 40
160.0
  1
有効高サハ、基礎高サヲ含ミマセン。
  0
TEXT
  5
3D53
  8
0-6
  6
CONTINUOUS
 62
     7
 10
10503.735242999959
 20
20175.536224999989
 30
0.0
 40
160.0
  1
屋根
 72
     4
 11
10674.401909666631
 21
20255.536224999989
 31
0.0
  0
TEXT
  5
3D54
  8
0-6
  6
CONTINUOUS
 62
     7
 10
10820.41466699997
 20
14964.10926950001
 30
0.0
 40
160.0
  1
桁（前）
 72
     4
 11
11140.41466699997
 21
15044.10926950001
 31
0.0
  0
TEXT
  5
3D55
  8
0-6
  6
CONTINUOUS
 62
     7
 10
10441.21228363045
 20
13595.53912799998
 30
0.0
 40
160.0
  1
鼻隠し前
 72
     4
 11
10803.878950297119
 21
13675.53912799998
 31
0.0
  0
TEXT
  5
3D56
  8
0-6
  6
CONTINUOUS
 62
     7
 10
6915.689977999974
 20
13195.540778000001
 30
0.0
 40
160.0
  1
ケラバ 左
 72
     4
 11
7331.6899779999749
 21
13275.540778000001
 31
0.0
  0
TEXT
  5
3D57
  8
0-6
  6
CONTINUOUS
 62
     7
 10
8906.1142949999776
 20
17788.223672
 30
0.0
 40
160.0
  1
上枠
 72
     4
 11
9076.7809616666436
 21
17868.223672
 31
0.0
  0
TEXT
  5
3D58
  8
0-6
  6
CONTINUOUS
 62
     7
 10
12342.87428399997
 20
20895.5386
 30
0.0
 40
160.0
  1
鼻隠しコーナー後
 72
     4
 11
13089.54095066664
 21
20975.5386
 31
0.0
  0
TEXT
  5
3D59
  8
0-6
  6
CONTINUOUS
 62
     7
 10
14851.854277999961
 20
16050.08482899999
 30
0.0
 40
160.0
  1
ブレース
 72
     4
 11
15214.520944666619
 21
16135.418162333321
 31
0.0
  0
TEXT
  5
3D5A
  8
0-6
  6
CONTINUOUS
 62
     7
 10
10420.22529299997
 20
16330.399506
 30
0.0
 40
160.0
  1
梁　梁補強
 72
     4
 11
10878.89195966664
 21
16410.399506000002
 31
0.0
  0
TEXT
  5
3D5B
  8
0-6
  6
CONTINUOUS
 62
     7
 10
10640.074584999949
 20
16332.771959
 30
0.0
 40
160.0
  1
+
 72
     4
 11
10693.407918333291
 21
16412.771959000002
 31
0.0
  0
TEXT
  5
3D5C
  8
0-4
  6
CONTINUOUS
 62
     7
 10
10380.051952999969
 20
12250.711685642629
 30
0.0
 40
160.0
  1
小 屋 伏 図
 50
0.000193
 72
     4
 11
10881.385016851629
 21
12330.713374376221
 31
0.0
  0
TEXT
  5
3D5D
  8
0-4
  6
CONTINUOUS
 62
     7
 10
14852.426358999959
 20
19019.44986500001
 30
0.0
 40
160.0
  1
桁中B +  桁中補強B
 72
     4
 11
15785.7596923333
 21
19099.44986500001
 31
0.0
  0
TEXT
  5
3D5E
  8
0-4
  6
CONTINUOUS
 62
     7
 10
14852.426358999959
 20
17560.947225999971
 30
0.0
 40
160.0
  1
桁中A +  桁中補強A
 72
     4
 11
15785.7596923333
 21
17640.947225999971
 31
0.0
  0
TEXT
  5
3D5F
  8
0-4
  6
CONTINUOUS
 62
     7
 10
14852.426358999959
 20
15243.46289050001
 30
0.0
 40
160.0
  1
桁中B +  桁中補強B
 50
0.000118
 72
     4
 11
15785.75952757224
 21
15323.464812689121
 31
0.0
  0
TEXT
  5
3D68
  8
2-0
  6
CONTINUOUS
 62
     7
 10
12232.877201989249
 20
12277.90874337622
 30
0.0
 40
160.0
  1
1
 72
     4
 11
12259.543868655919
 21
12357.90874337622
 31
0.0
  0
TEXT
  5
3D69
  8
2-0
  6
CONTINUOUS
 62
     7
 10
12475.96591923995
 20
12197.91021137622
 30
0.0
 40
160.0
  1
80
 72
     4
 11
12595.96591923995
 21
12277.91021137622
 31
0.0
  0
TEXT
  5
3D6A
  8
2-0
  6
CONTINUOUS
 62
     7
 10
11733.87916798924
 20
12250.713374376221
 30
0.0
 40
160.0
  1
(S=  /   )
 72
     4
 11
12293.87916798924
 21
12330.713374376221
 31
0.0
  0
TEXT
  5
3D6B
  8
0-6
  6
CONTINUOUS
 62
     7
 10
8744.3737201447948
 20
20182.721299990641
 30
0.0
 40
160.0
  1
桁後+桁後補強
 72
     4
 11
9379.0403868114608
 21
20262.721299990641
 31
0.0
  0
LINE
  5
3D6C
  8
0-6
  6
CONTINUOUS
 62
     6
 10
10188.089127999971
 20
19696.222936990602
 30
0.0
 11
10054.69518011873
 21
20102.723015990628
 31
0.0
  0
LINE
  5
3D6D
  8
0-6
  6
CONTINUOUS
 62
     6
 10
8694.9512365495193
 20
20102.723015990628
 30
0.0
 11
10054.69518011873
 21
20102.723015990628
 31
0.0
  0
LINE
  5
3D6E
  8
0-6
  6
CONTINUOUS
 62
     6
 10
10164.48167263267
 20
19856.70437541552
 30
0.0
 11
10113.708028859741
 21
19840.370859230781
 31
0.0
  0
LINE
  5
3D6F
  8
0-6
  6
CONTINUOUS
 62
     6
 10
10164.48167263267
 20
19856.70437541552
 30
0.0
 11
10188.089127999971
 21
19696.222936990602
 31
0.0
  0
LINE
  5
3D70
  8
0-6
  6
CONTINUOUS
 62
     6
 10
10113.708028859741
 20
19840.370859230781
 30
0.0
 11
10164.48167263267
 21
19856.70437541552
 31
0.0
  0
LINE
  5
3D71
  8
0-6
  6
CONTINUOUS
 62
     6
 10
10188.089127999971
 20
19696.222936990602
 30
0.0
 11
10113.708028859741
 21
19840.370859230781
 31
0.0
  0
LINE
  5
3D72
  8
0-6
  6
CONTINUOUS
 62
     6
 10
10188.089127999971
 20
19696.222936990602
 30
0.0
 11
10164.48167263267
 21
19856.70437541552
 31
0.0
  0
LINE
  5
3D73
  8
0-6
  6
CONTINUOUS
 62
     6
 10
10113.708028859741
 20
19840.370859230781
 30
0.0
 11
10188.089127999971
 21
19696.222936990602
 31
0.0
  0
LINE
  5
3D74
  8
0-4
  6
CONTINUOUS
 62
     4
 10
14264.29067299999
 20
6267.088643000001
 30
0.0
 11
19167.046927999971
 21
6267.088643000001
 31
0.0
  0
LINE
  5
3D75
  8
0-1
  6
CONTINUOUS
 62
     3
 10
8971.7892219999976
 20
8278.1340270000055
 30
0.0
 11
14151.791596999999
 21
8278.1340270000055
 31
0.0
  0
LINE
  5
3D76
  8
0-1
  6
CONTINUOUS
 62
     3
 10
8261.7893540000005
 20
6267.088643000001
 30
0.0
 11
14184.29040899999
 21
6267.088643000001
 31
0.0
  0
LINE
  5
3D77
  8
0-1
  6
CONTINUOUS
 62
     3
 10
8944.2904090000011
 20
6367.0884780000006
 30
0.0
 11
14184.29040899999
 21
6367.0884780000006
 31
0.0
  0
LINE
  5
3D78
  8
0-1
  6
CONTINUOUS
 62
     3
 10
8951.7911349999977
 20
8400.1159209999969
 30
0.0
 11
8951.7911349999977
 21
6367.0884780000006
 31
0.0
  0
LINE
  5
3D79
  8
0-1
  6
CONTINUOUS
 62
     3
 10
8971.7892219999976
 20
8400.8166700000038
 30
0.0
 11
8971.7892219999976
 21
6367.0884780000006
 31
0.0
  0
LINE
  5
3D7A
  8
0-1
  6
CONTINUOUS
 62
     3
 10
8944.2904090000011
 20
6267.088643000001
 30
0.0
 11
8944.2904090000011
 21
6367.0884780000006
 31
0.0
  0
LINE
  5
3D7B
  8
0-1
  6
CONTINUOUS
 62
     3
 10
14247.070775
 20
8585.0128540000005
 30
0.0
 11
14242.518872000001
 21
8714.9336070000008
 31
0.0
  0
LINE
  5
3D7C
  8
0-1
  6
CONTINUOUS
 62
     3
 10
11634.290277
 20
6417.088643000001
 30
0.0
 11
14056.790541
 21
6417.088643000001
 31
0.0
  0
LINE
  5
3D7D
  8
0-1
  6
CONTINUOUS
 62
     3
 10
11147.789934
 20
6417.088643000001
 30
0.0
 11
11147.789934
 21
8278.1340270000055
 31
0.0
  0
LINE
  5
3D7E
  8
0-1
  6
CONTINUOUS
 62
     3
 10
11167.79098999999
 20
6417.088643000001
 30
0.0
 11
11167.79098999999
 21
8278.1340270000055
 31
0.0
  0
LINE
  5
3D7F
  8
0-1
  6
CONTINUOUS
 62
     3
 10
11097.791252999999
 20
6417.088643000001
 30
0.0
 11
11097.791252999999
 21
8278.1340270000055
 31
0.0
  0
LINE
  5
3D80
  8
0-1
  6
CONTINUOUS
 62
     3
 10
11217.78967
 20
6417.088643000001
 30
0.0
 11
11217.78967
 21
8278.1340270000055
 31
0.0
  0
LINE
  5
3D81
  8
0-1
  6
CONTINUOUS
 62
     3
 10
11350.788574
 20
6417.088643000001
 30
0.0
 11
11350.788574
 21
8278.1340270000055
 31
0.0
  0
LINE
  5
3D82
  8
0-1
  6
CONTINUOUS
 62
     3
 10
11365.790356
 20
6417.088643000001
 30
0.0
 11
11365.790356
 21
8278.1340270000055
 31
0.0
  0
LINE
  5
3D83
  8
0-1
  6
CONTINUOUS
 62
     3
 10
10964.789378999991
 20
6417.088643000001
 30
0.0
 11
10964.789378999991
 21
8278.1340270000055
 31
0.0
  0
LINE
  5
3D84
  8
0-1
  6
CONTINUOUS
 62
     3
 10
10949.79056699998
 20
6417.088643000001
 30
0.0
 11
10949.79056699998
 21
8278.1340270000055
 31
0.0
  0
LINE
  5
3D85
  8
0-1
  6
CONTINUOUS
 62
     3
 10
9066.7882980000031
 20
8278.1340270000055
 30
0.0
 11
9066.7882980000031
 21
6367.0884780000006
 31
0.0
  0
LINE
  5
3D86
  8
0-1
  6
CONTINUOUS
 62
     3
 10
11634.290277
 20
8278.1340270000055
 30
0.0
 11
11634.290277
 21
6367.0884780000006
 31
0.0
  0
LINE
  5
3D87
  8
0-1
  6
CONTINUOUS
 62
     3
 10
11489.290541
 20
8278.1340270000055
 30
0.0
 11
11489.290541
 21
6367.0884780000006
 31
0.0
  0
LINE
  5
3D88
  8
0-1
  6
CONTINUOUS
 62
     3
 10
9747.7902640000011
 20
6417.088643000001
 30
0.0
 11
9747.7902640000011
 21
8278.1340270000055
 31
0.0
  0
LINE
  5
3D89
  8
0-1
  6
CONTINUOUS
 62
     3
 10
9767.7903299999907
 20
6417.088643000001
 30
0.0
 11
9767.7903299999907
 21
8278.1340270000055
 31
0.0
  0
LINE
  5
3D8A
  8
0-1
  6
CONTINUOUS
 62
     3
 10
9697.7905939999964
 20
6417.088643000001
 30
0.0
 11
9697.7905939999964
 21
8278.1340270000055
 31
0.0
  0
LINE
  5
3D8B
  8
0-1
  6
CONTINUOUS
 62
     3
 10
9817.7900000000027
 20
6417.088643000001
 30
0.0
 11
9817.7900000000027
 21
8278.1340270000055
 31
0.0
  0
LINE
  5
3D8C
  8
0-1
  6
CONTINUOUS
 62
     3
 10
9950.7908840000055
 20
6417.088643000001
 30
0.0
 11
9950.7908840000055
 21
8278.1340270000055
 31
0.0
  0
LINE
  5
3D8D
  8
0-1
  6
CONTINUOUS
 62
     3
 10
9965.7896960000016
 20
6417.088643000001
 30
0.0
 11
9965.7896960000016
 21
8278.1340270000055
 31
0.0
  0
LINE
  5
3D8E
  8
0-1
  6
CONTINUOUS
 62
     3
 10
9564.7897090000024
 20
6417.088643000001
 30
0.0
 11
9564.7897090000024
 21
8278.1340270000055
 31
0.0
  0
LINE
  5
3D8F
  8
0-1
  6
CONTINUOUS
 62
     3
 10
9549.7889180000002
 20
6417.088643000001
 30
0.0
 11
9549.7889180000002
 21
8278.1340270000055
 31
0.0
  0
LINE
  5
3D90
  8
0-1
  6
CONTINUOUS
 62
     3
 10
10249.790236999999
 20
6417.088643000001
 30
0.0
 11
10249.790236999999
 21
8278.1340270000055
 31
0.0
  0
LINE
  5
3D91
  8
0-1
  6
CONTINUOUS
 62
     3
 10
10264.789049999999
 20
6417.088643000001
 30
0.0
 11
10264.789049999999
 21
8278.1340270000055
 31
0.0
  0
LINE
  5
3D92
  8
0-1
  6
CONTINUOUS
 62
     3
 10
10665.79101599999
 20
6417.088643000001
 30
0.0
 11
10665.79101599999
 21
8278.1340270000055
 31
0.0
  0
LINE
  5
3D93
  8
0-1
  6
CONTINUOUS
 62
     3
 10
10650.79022399998
 20
6417.088643000001
 30
0.0
 11
10650.79022399998
 21
8278.1340270000055
 31
0.0
  0
LINE
  5
3D94
  8
0-1
  6
CONTINUOUS
 62
     3
 10
10517.789339999979
 20
6417.088643000001
 30
0.0
 11
10517.789339999979
 21
8278.1340270000055
 31
0.0
  0
LINE
  5
3D95
  8
0-1
  6
CONTINUOUS
 62
     3
 10
10397.789934
 20
6417.088643000001
 30
0.0
 11
10397.789934
 21
8278.1340270000055
 31
0.0
  0
LINE
  5
3D96
  8
0-1
  6
CONTINUOUS
 62
     3
 10
10467.78967
 20
6417.088643000001
 30
0.0
 11
10467.78967
 21
8278.1340270000055
 31
0.0
  0
LINE
  5
3D97
  8
0-1
  6
CONTINUOUS
 62
     3
 10
10447.79059399998
 20
6417.088643000001
 30
0.0
 11
10447.79059399998
 21
8278.1340270000055
 31
0.0
  0
LINE
  5
3D98
  8
0-1
  6
CONTINUOUS
 62
     3
 10
10789.29021099999
 20
8278.1340270000055
 30
0.0
 11
10789.29021099999
 21
6417.088643000001
 31
0.0
  0
LINE
  5
3D99
  8
0-1
  6
CONTINUOUS
 62
     3
 10
10826.29038199999
 20
8278.1340270000055
 30
0.0
 11
10826.29038199999
 21
6417.088643000001
 31
0.0
  0
LINE
  5
3D9A
  8
0-1
  6
CONTINUOUS
 62
     3
 10
9389.2895510000017
 20
8278.1340270000055
 30
0.0
 11
9389.2895510000017
 21
6417.088643000001
 31
0.0
  0
LINE
  5
3D9B
  8
0-1
  6
CONTINUOUS
 62
     3
 10
9426.2907120000018
 20
8278.1340270000055
 30
0.0
 11
9426.2907120000018
 21
6417.088643000001
 31
0.0
  0
LINE
  5
3D9C
  8
0-1
  6
CONTINUOUS
 62
     3
 10
10089.288891
 20
8278.1340270000055
 30
0.0
 11
10089.288891
 21
6417.088643000001
 31
0.0
  0
LINE
  5
3D9D
  8
0-1
  6
CONTINUOUS
 62
     3
 10
10126.291042000001
 20
8278.1340270000055
 30
0.0
 11
10126.291042000001
 21
6417.088643000001
 31
0.0
  0
LINE
  5
3D9E
  8
0-1
  6
CONTINUOUS
 62
     3
 10
9066.7882980000031
 20
6417.088643000001
 30
0.0
 11
11489.290541
 21
6417.088643000001
 31
0.0
  0
LINE
  5
3D9F
  8
0-1
  6
CONTINUOUS
 62
     3
 10
11561.79040899999
 20
8491.2470170000033
 30
0.0
 11
11557.236525999981
 21
8621.1657910000013
 31
0.0
  0
LINE
  5
3DA0
  8
0-1
  6
CONTINUOUS
 62
     3
 10
11561.79040899999
 20
8491.2470170000033
 30
0.0
 11
11561.79040899999
 21
8278.1340270000055
 31
0.0
  0
LINE
  5
3DA1
  8
0-1
  6
CONTINUOUS
 62
     3
 10
14056.790541
 20
8278.1340270000055
 30
0.0
 11
14056.790541
 21
6367.0884780000006
 31
0.0
  0
LINE
  5
3DA2
  8
0-1
  6
CONTINUOUS
 62
     3
 10
14171.790673
 20
8582.3751450000018
 30
0.0
 11
14171.790673
 21
6367.0884780000006
 31
0.0
  0
LINE
  5
3DA3
  8
0-1
  6
CONTINUOUS
 62
     3
 10
14151.791596999999
 20
8581.6743959999967
 30
0.0
 11
14151.791596999999
 21
6367.0884780000006
 31
0.0
  0
LINE
  5
3DA4
  8
0-1
  6
CONTINUOUS
 62
     3
 10
12997.288785999999
 20
8278.1340270000055
 30
0.0
 11
12997.288785999999
 21
6417.088643000001
 31
0.0
  0
LINE
  5
3DA5
  8
0-1
  6
CONTINUOUS
 62
     3
 10
13034.28994699999
 20
8278.1340270000055
 30
0.0
 11
13034.28994699999
 21
6417.088643000001
 31
0.0
  0
LINE
  5
3DA6
  8
0-1
  6
CONTINUOUS
 62
     3
 10
13697.29109499999
 20
8278.1340270000055
 30
0.0
 11
13697.29109499999
 21
6417.088643000001
 31
0.0
  0
LINE
  5
3DA7
  8
0-1
  6
CONTINUOUS
 62
     3
 10
13734.289287
 20
8278.1340270000055
 30
0.0
 11
13734.289287
 21
6417.088643000001
 31
0.0
  0
LINE
  5
3DA8
  8
0-1
  6
CONTINUOUS
 62
     3
 10
12297.289445
 20
8278.1340270000055
 30
0.0
 11
12297.289445
 21
6417.088643000001
 31
0.0
  0
LINE
  5
3DA9
  8
0-1
  6
CONTINUOUS
 62
     3
 10
12334.289617
 20
8278.1340270000055
 30
0.0
 11
12334.289617
 21
6417.088643000001
 31
0.0
  0
LINE
  5
3DAA
  8
0-1
  6
CONTINUOUS
 62
     3
 10
12675.789234
 20
6417.088643000001
 30
0.0
 11
12675.789234
 21
8278.1340270000055
 31
0.0
  0
LINE
  5
3DAB
  8
0-1
  6
CONTINUOUS
 62
     3
 10
12655.790157999991
 20
6417.088643000001
 30
0.0
 11
12655.790157999991
 21
8278.1340270000055
 31
0.0
  0
LINE
  5
3DAC
  8
0-1
  6
CONTINUOUS
 62
     3
 10
12725.790884
 20
6417.088643000001
 30
0.0
 11
12725.790884
 21
8278.1340270000055
 31
0.0
  0
LINE
  5
3DAD
  8
0-1
  6
CONTINUOUS
 62
     3
 10
12605.78949799998
 20
6417.088643000001
 30
0.0
 11
12605.78949799998
 21
8278.1340270000055
 31
0.0
  0
LINE
  5
3DAE
  8
0-1
  6
CONTINUOUS
 62
     3
 10
12472.790594
 20
6417.088643000001
 30
0.0
 11
12472.790594
 21
8278.1340270000055
 31
0.0
  0
LINE
  5
3DAF
  8
0-1
  6
CONTINUOUS
 62
     3
 10
12457.789801999979
 20
6417.088643000001
 30
0.0
 11
12457.789801999979
 21
8278.1340270000055
 31
0.0
  0
LINE
  5
3DB0
  8
0-1
  6
CONTINUOUS
 62
     3
 10
12858.789789
 20
6417.088643000001
 30
0.0
 11
12858.789789
 21
8278.1340270000055
 31
0.0
  0
LINE
  5
3DB1
  8
0-1
  6
CONTINUOUS
 62
     3
 10
12873.788601
 20
6417.088643000001
 30
0.0
 11
12873.788601
 21
8278.1340270000055
 31
0.0
  0
LINE
  5
3DB2
  8
0-1
  6
CONTINUOUS
 62
     3
 10
13573.79091
 20
6417.088643000001
 30
0.0
 11
13573.79091
 21
8278.1340270000055
 31
0.0
  0
LINE
  5
3DB3
  8
0-1
  6
CONTINUOUS
 62
     3
 10
13558.789128999981
 20
6417.088643000001
 30
0.0
 11
13558.789128999981
 21
8278.1340270000055
 31
0.0
  0
LINE
  5
3DB4
  8
0-1
  6
CONTINUOUS
 62
     3
 10
13157.790132
 20
6417.088643000001
 30
0.0
 11
13157.790132
 21
8278.1340270000055
 31
0.0
  0
LINE
  5
3DB5
  8
0-1
  6
CONTINUOUS
 62
     3
 10
13172.788944
 20
6417.088643000001
 30
0.0
 11
13172.788944
 21
8278.1340270000055
 31
0.0
  0
LINE
  5
3DB6
  8
0-1
  6
CONTINUOUS
 62
     3
 10
13305.788838
 20
6417.088643000001
 30
0.0
 11
13305.788838
 21
8278.1340270000055
 31
0.0
  0
LINE
  5
3DB7
  8
0-1
  6
CONTINUOUS
 62
     3
 10
13425.789234
 20
6417.088643000001
 30
0.0
 11
13425.789234
 21
8278.1340270000055
 31
0.0
  0
LINE
  5
3DB8
  8
0-1
  6
CONTINUOUS
 62
     3
 10
13355.789498
 20
6417.088643000001
 30
0.0
 11
13355.789498
 21
8278.1340270000055
 31
0.0
  0
LINE
  5
3DB9
  8
0-1
  6
CONTINUOUS
 62
     3
 10
13375.788574
 20
6417.088643000001
 30
0.0
 11
13375.788574
 21
8278.1340270000055
 31
0.0
  0
LINE
  5
3DBA
  8
0-1
  6
CONTINUOUS
 62
     3
 10
12173.789261
 20
6417.088643000001
 30
0.0
 11
12173.789261
 21
8278.1340270000055
 31
0.0
  0
LINE
  5
3DBB
  8
0-1
  6
CONTINUOUS
 62
     3
 10
12158.789459
 20
6417.088643000001
 30
0.0
 11
12158.789459
 21
8278.1340270000055
 31
0.0
  0
LINE
  5
3DBC
  8
0-1
  6
CONTINUOUS
 62
     3
 10
11757.79046199999
 20
6417.088643000001
 30
0.0
 11
11757.79046199999
 21
8278.1340270000055
 31
0.0
  0
LINE
  5
3DBD
  8
0-1
  6
CONTINUOUS
 62
     3
 10
11772.79125299999
 20
6417.088643000001
 30
0.0
 11
11772.79125299999
 21
8278.1340270000055
 31
0.0
  0
LINE
  5
3DBE
  8
0-1
  6
CONTINUOUS
 62
     3
 10
11905.790158
 20
6417.088643000001
 30
0.0
 11
11905.790158
 21
8278.1340270000055
 31
0.0
  0
LINE
  5
3DBF
  8
0-1
  6
CONTINUOUS
 62
     3
 10
12025.789564000001
 20
6417.088643000001
 30
0.0
 11
12025.789564000001
 21
8278.1340270000055
 31
0.0
  0
LINE
  5
3DC0
  8
0-1
  6
CONTINUOUS
 62
     3
 10
11955.789828000001
 20
6417.088643000001
 30
0.0
 11
11955.789828000001
 21
8278.1340270000055
 31
0.0
  0
LINE
  5
3DC1
  8
0-1
  6
CONTINUOUS
 62
     3
 10
11975.78989399999
 20
6417.088643000001
 30
0.0
 11
11975.78989399999
 21
8278.1340270000055
 31
0.0
  0
LINE
  5
3DC2
  8
0-1
  6
CONTINUOUS
 62
     3
 10
14184.29040899999
 20
6367.0884780000006
 30
0.0
 11
14184.29040899999
 21
6267.088643000001
 31
0.0
  0
LINE
  5
3DC3
  8
0-1
  6
CONTINUOUS
 62
     3
 10
8774.6628230000024
 20
8441.9391889999988
 30
0.0
 11
8773.4701630000018
 21
8475.9166359999981
 31
0.0
  0
LINE
  5
3DC4
  8
0-1
  6
CONTINUOUS
 62
     3
 10
8776.364219000001
 20
8479.0205209999967
 30
0.0
 11
14256.08847199999
 21
8670.3805820000016
 31
0.0
  0
LINE
  5
3DC5
  8
0-1
  6
CONTINUOUS
 62
     3
 10
14257.487991999989
 20
8630.4071740000036
 30
0.0
 11
8777.7647290000023
 21
8439.0451330000033
 31
0.0
  0
LINE
  5
3DC6
  8
0-1
  6
CONTINUOUS
 62
     3
 10
8775.0478390000062
 20
8430.9449430000077
 30
0.0
 11
8775.0448700000015
 21
8431.0102670000033
 31
0.0
  0
LINE
  5
3DC7
  8
0-1
  6
CONTINUOUS
 62
     3
 10
8775.0448700000015
 20
8431.0102670000033
 30
0.0
 11
8776.1682470000032
 21
8398.9658199999994
 31
0.0
  0
LINE
  5
3DC8
  8
0-1
  6
CONTINUOUS
 62
     3
 10
8781.3397390000009
 20
8394.142722999999
 30
0.0
 11
14280.03173899998
 21
8586.1679030000032
 31
0.0
  0
LINE
  5
3DC9
  8
0-1
  6
CONTINUOUS
 62
     3
 10
14275.47983599999
 20
8716.0876660000031
 30
0.0
 11
8776.7878360000013
 21
8524.0634770000015
 31
0.0
  0
LINE
  5
3DCA
  8
0-1
  6
CONTINUOUS
 62
     3
 10
8771.9647390000027
 20
8518.890994000003
 30
0.0
 11
8773.0851470000016
 21
8486.9118720000006
 31
0.0
  0
LINE
  5
3DCB
  8
0-1
  6
CONTINUOUS
 62
     3
 10
8776.1900220000007
 20
8484.0178160000032
 30
0.0
 11
14255.91229499998
 21
8675.3778770000008
 31
0.0
  0
LINE
  5
3DCC
  8
0-1
  6
CONTINUOUS
 62
     3
 10
14257.66317899999
 20
8625.4098790000025
 30
0.0
 11
8777.9399160000012
 21
8434.0478379999968
 31
0.0
  0
LINE
  5
3DCD
  8
0-1
  6
CONTINUOUS
 62
     3
 10
8789.2795880000049
 20
8524.500949999996
 30
0.0
 11
8793.8324809999995
 21
8394.5801969999975
 31
0.0
  0
LINE
  5
3DCE
  8
0-5
  6
CONTINUOUS
 62
     4
 10
8994.2904090000029
 20
4587.0885440000002
 30
0.0
 11
8994.2904090000029
 21
4427.0885109999999
 31
0.0
  0
LINE
  5
3DCF
  8
0-5
  6
CONTINUOUS
 62
     4
 10
11561.79040899999
 20
4587.0885440000002
 30
0.0
 11
11561.79040899999
 21
4427.0885109999999
 31
0.0
  0
LINE
  5
3DD0
  8
0-5
  6
CONTINUOUS
 62
     4
 10
14129.29040899999
 20
4587.0885440000002
 30
0.0
 11
14129.29040899999
 21
4427.0885109999999
 31
0.0
  0
LINE
  5
3DD1
  8
2-0
  6
CENTER2
 62
     6
 10
8994.2904090000029
 20
6004.4352299999982
 30
0.0
 11
8994.2904090000029
 21
7061.5783230000015
 31
0.0
  0
LINE
  5
3DD2
  8
2-0
  6
CENTER2
 62
     6
 10
11561.79040899999
 20
6004.4352299999982
 30
0.0
 11
11561.79040899999
 21
7061.5783230000015
 31
0.0
  0
LINE
  5
3DD3
  8
2-0
  6
CENTER2
 62
     6
 10
14129.29040899999
 20
6004.4352299999982
 30
0.0
 11
14129.29040899999
 21
7061.5783230000015
 31
0.0
  0
ARC
  5
3DD4
  8
0-1
  6
CONTINUOUS
 62
     3
 10
8779.3513129999974
 20
8436.5994379999975
 30
0.0
 40
2.5
 50
272.00698899981808
 51
92.006988999818205
  0
ARC
  5
3DD5
  8
0-1
  6
CONTINUOUS
 62
     3
 10
8777.7766060000085
 20
8481.5731100000048
 30
0.0
 40
2.5
 50
272.00698899981808
 51
92.006988999818205
  0
ARC
  5
3DD6
  8
0-1
  6
CONTINUOUS
 62
     3
 10
8776.4691340000081
 20
8476.0215500000031
 30
0.0
 40
3.0
 50
92.006988999818205
 51
182.00698899997451
  0
ARC
  5
3DD7
  8
0-1
  6
CONTINUOUS
 62
     3
 10
14256.787241999989
 20
8650.3933829999987
 30
0.0
 40
20.0
 50
272.00698899981808
 51
92.006988999818205
  0
ARC
  5
3DD8
  8
0-1
  6
CONTINUOUS
 62
     3
 10
8777.6598139999987
 20
8442.0441040000005
 30
0.0
 40
3.0
 50
182.00698899997451
 51
272.00698899981808
  0
ARC
  5
3DD9
  8
0-1
  6
CONTINUOUS
 62
     3
 10
8778.0448300000044
 20
8431.0508469999986
 30
0.0
 40
3.0
 50
92.006988999818205
 51
182.00698899997451
  0
ARC
  5
3DDA
  8
0-1
  6
CONTINUOUS
 62
     3
 10
8781.1655409999985
 20
8399.1400180000037
 30
0.0
 40
5.0
 50
182.00698899997451
 51
272.00698899981808
  0
ARC
  5
3DDB
  8
0-1
  6
CONTINUOUS
 62
     3
 10
14251.790936999991
 20
8650.2191850000017
 30
0.0
 40
69.999999000000003
 50
293.7937770000417
 51
70.22019999997768
  0
ARC
  5
3DDC
  8
0-1
  6
CONTINUOUS
 62
     3
 10
8776.9620340000056
 20
8519.0661819999968
 30
0.0
 40
5.0
 50
92.006988999818205
 51
182.00698899997451
  0
ARC
  5
3DDD
  8
0-1
  6
CONTINUOUS
 62
     3
 10
8776.0831280000002
 20
8487.0157970000037
 30
0.0
 40
3.0
 50
182.00698899997451
 51
272.00698899981808
  0
ARC
  5
3DDE
  8
0-1
  6
CONTINUOUS
 62
     3
 10
14256.787241999989
 20
8650.3933829999987
 30
0.0
 40
24.999998999999999
 50
272.00698899981808
 51
92.006988999818205
  0
CIRCLE
  5
3DDF
  8
0-5
  6
CONTINUOUS
 62
     4
 10
8994.2904090000029
 20
4227.0878509999993
 30
0.0
 40
199.9999949999999
  0
CIRCLE
  5
3DE0
  8
0-5
  6
CONTINUOUS
 62
     4
 10
14129.29040899999
 20
4227.0878509999993
 30
0.0
 40
199.9999949999999
  0
CIRCLE
  5
3DE1
  8
0-5
  6
CONTINUOUS
 62
     4
 10
11561.79040899999
 20
4227.0878509999993
 30
0.0
 40
199.9999949999999
  0
TEXT
  5
3DE2
  8
0-5
  6
CONTINUOUS
 62
     7
 10
8940.0944328542064
 20
4139.8339066382023
 30
0.0
 40
160.0
  1
C
 72
     4
 11
8993.4277661875421
 21
4219.8339066382032
 31
0.0
  0
TEXT
  5
3DE3
  8
0-5
  6
CONTINUOUS
 62
     7
 10
11507.59344185418
 20
4139.8339066382023
 30
0.0
 40
160.0
  1
B
 72
     4
 11
11560.92677518752
 21
4219.8339066382032
 31
0.0
  0
TEXT
  5
3DE4
  8
0-5
  6
CONTINUOUS
 62
     7
 10
14075.092452854189
 20
4139.8339066382023
 30
0.0
 40
160.0
  1
A
 72
     4
 11
14128.42578618753
 21
4219.8339066382032
 31
0.0
  0
TEXT
  5
3DE5
  8
2-0
  6
CONTINUOUS
 62
     7
 10
10092.842126999991
 20
3479.9210370000019
 30
0.0
 40
160.0
  1
側 面 立 面 図
 72
     4
 11
10738.17546033333
 21
3559.9210370000019
 31
0.0
  0
TEXT
  5
3DE6
  8
2-0
  6
CONTINUOUS
 62
     7
 10
12089.66764547094
 20
3507.116406000001
 30
0.0
 40
160.0
  1
1
 72
     4
 11
12116.334312137609
 21
3587.1164060000019
 31
0.0
  0
TEXT
  5
3DE7
  8
2-0
  6
CONTINUOUS
 62
     7
 10
12332.75636272165
 20
3427.1178740000009
 30
0.0
 40
160.0
  1
80
 72
     4
 11
12452.75636272165
 21
3507.1178740000009
 31
0.0
  0
TEXT
  5
3DE8
  8
2-0
  6
CONTINUOUS
 62
     7
 10
11590.66961147095
 20
3479.9210370000019
 30
0.0
 40
160.0
  1
(S=  /   )
 72
     4
 11
12150.66961147095
 21
3559.9210370000019
 31
0.0
  0
LINE
  5
3DE9
  8
0-1
  6
CONTINUOUS
 62
     3
 10
9256.2886660000131
 20
6417.088643000001
 30
0.0
 11
9256.2886660000131
 21
8278.1340270000055
 31
0.0
  0
LINE
  5
3DEA
  8
0-1
  6
CONTINUOUS
 62
     3
 10
9241.2878750000127
 20
6417.088643000001
 30
0.0
 11
9241.2878750000127
 21
8278.1340270000055
 31
0.0
  0
LINE
  5
3DEB
  8
0-1
  6
CONTINUOUS
 62
     3
 10
13882.29096299999
 20
6417.088643000001
 30
0.0
 11
13882.29096299999
 21
8278.1340270000055
 31
0.0
  0
LINE
  5
3DEC
  8
0-1
  6
CONTINUOUS
 62
     3
 10
13867.28918199999
 20
6417.088643000001
 30
0.0
 11
13867.28918199999
 21
8278.1340270000055
 31
0.0
  0
LINE
  5
3DED
  8
0-5
  6
CONTINUOUS
 62
     4
 10
14264.29067300001
 20
6367.0884780000006
 30
0.0
 11
15981.75062100001
 21
6367.0884780000006
 31
0.0
  0
LINE
  5
3DEE
  8
0-5
  6
CONTINUOUS
 62
     4
 10
16009.37678200001
 20
6574.9344650000003
 30
0.0
 11
15769.37500099998
 21
6574.9344650000003
 31
0.0
  0
LINE
  5
3DEF
  8
0-5
  6
CONTINUOUS
 62
     4
 10
15889.37440700001
 20
6367.0884780000006
 30
0.0
 11
16009.37678200001
 21
6574.9344650000003
 31
0.0
  0
LINE
  5
3DF0
  8
0-5
  6
CONTINUOUS
 62
     4
 10
15769.37500099998
 20
6574.9344650000003
 30
0.0
 11
15889.37440700001
 21
6367.0884780000006
 31
0.0
  0
TEXT
  5
3DF1
  8
0-0
  6
CONTINUOUS
 62
     7
 10
15430.283467999991
 20
6654.9347289999978
 30
0.0
 40
160.0
  1
布基礎天端
 72
     4
 11
15888.95013466666
 21
6734.9347289999987
 31
0.0
  0
LINE
  5
3DF2
  8
0-5
  6
CONTINUOUS
 62
     4
 10
16724.674830999971
 20
6474.9351249999991
 30
0.0
 11
16844.67324799997
 21
6267.088643000001
 31
0.0
  0
LINE
  5
3DF3
  8
0-5
  6
CONTINUOUS
 62
     4
 10
16844.67324799997
 20
6267.088643000001
 30
0.0
 11
16964.675622999981
 21
6474.9351249999991
 31
0.0
  0
LINE
  5
3DF4
  8
0-5
  6
CONTINUOUS
 62
     4
 10
16964.675622999981
 20
6474.9351249999991
 30
0.0
 11
16724.674830999971
 21
6474.9351249999991
 31
0.0
  0
TEXT
  5
3DF5
  8
0-0
  6
CONTINUOUS
 62
     7
 10
16724.674830999971
 20
6554.9348940000036
 30
0.0
 40
160.0
  1
G.L
 72
     4
 11
16884.674830999971
 21
6634.9348940000036
 31
0.0
  0
LINE
  5
3E00
  8
0-1
  6
CONTINUOUS
 62
     3
 10
25183.046530999989
 20
6367.0884779999951
 30
0.0
 11
25083.047189999968
 21
6367.0884779999951
 31
0.0
  0
LINE
  5
3E01
  8
0-1
  6
CONTINUOUS
 62
     3
 10
25083.047189999968
 20
6367.0884779999951
 30
0.0
 11
25083.047189999968
 21
6267.088643000001
 31
0.0
  0
LINE
  5
3E02
  8
0-1
  6
CONTINUOUS
 62
     3
 10
25183.046530999989
 20
6267.088643000001
 30
0.0
 11
25183.046530999989
 21
6367.0884779999951
 31
0.0
  0
LINE
  5
3E03
  8
0-1
  6
CONTINUOUS
 62
     3
 10
25155.54705799996
 20
8715.5888270000032
 30
0.0
 11
25155.54705799996
 21
6367.0884779999951
 31
0.0
  0
LINE
  5
3E04
  8
0-1
  6
CONTINUOUS
 62
     3
 10
25175.54613499996
 20
8585.5879039999982
 30
0.0
 11
25175.54613499996
 21
6367.0884779999951
 31
0.0
  0
LINE
  5
3E05
  8
0-1
  6
CONTINUOUS
 62
     3
 10
25045.547189999968
 20
8275.0885369999942
 30
0.0
 11
25045.547189999968
 21
6267.088643000001
 31
0.0
  0
LINE
  5
3E06
  8
0-1
  6
CONTINUOUS
 62
     3
 10
25090.547585999971
 20
8585.5879039999982
 30
0.0
 11
25090.547585999971
 21
6367.0884779999951
 31
0.0
  0
LINE
  5
3E0F
  8
0-1
  6
CONTINUOUS
 62
     3
 10
22257.544154999989
 20
8585.5879039999982
 30
0.0
 11
22257.544154999989
 21
6267.088643000001
 31
0.0
  0
LINE
  5
3E10
  8
0-1
  6
CONTINUOUS
 62
     3
 10
22302.54455100001
 20
8275.0885369999942
 30
0.0
 11
22302.54455100001
 21
6267.088643000001
 31
0.0
  0
LINE
  5
3E13
  8
0-1
  6
CONTINUOUS
 62
     3
 10
22302.54455100001
 20
8206.5482009999978
 30
0.0
 11
25045.547189999968
 21
8206.5482009999978
 31
0.0
  0
LINE
  5
3E14
  8
0-1
  6
CONTINUOUS
 62
     3
 10
22302.54455100001
 20
6852.0893359999973
 30
0.0
 11
25045.547189999968
 21
6852.0893359999973
 31
0.0
  0
LINE
  5
3E15
  8
0-1
  6
CONTINUOUS
 62
     3
 10
22302.54455100001
 20
6917.0883130000002
 30
0.0
 11
25045.547189999968
 21
6917.0883130000002
 31
0.0
  0
LINE
  5
3E16
  8
0-1
  6
CONTINUOUS
 62
     3
 10
22302.54455100001
 20
6982.0887749999983
 30
0.0
 11
25045.547189999968
 21
6982.0887749999983
 31
0.0
  0
LINE
  5
3E17
  8
0-1
  6
CONTINUOUS
 62
     3
 10
22302.54455100001
 20
7047.0887419999972
 30
0.0
 11
25045.547189999968
 21
7047.0887419999972
 31
0.0
  0
LINE
  5
3E18
  8
0-1
  6
CONTINUOUS
 62
     3
 10
22302.54455100001
 20
7112.0887089999969
 30
0.0
 11
25045.547189999968
 21
7112.0887089999969
 31
0.0
  0
LINE
  5
3E19
  8
0-1
  6
CONTINUOUS
 62
     3
 10
22302.54455100001
 20
7177.0886759999976
 30
0.0
 11
25045.547189999968
 21
7177.0886759999976
 31
0.0
  0
LINE
  5
3E1A
  8
0-1
  6
CONTINUOUS
 62
     3
 10
22302.54455100001
 20
7242.089138000003
 30
0.0
 11
25045.547189999968
 21
7242.089138000003
 31
0.0
  0
LINE
  5
3E1B
  8
0-1
  6
CONTINUOUS
 62
     3
 10
22302.54455100001
 20
7307.0881149999977
 30
0.0
 11
25045.547189999968
 21
7307.0881149999977
 31
0.0
  0
LINE
  5
3E1C
  8
0-1
  6
CONTINUOUS
 62
     3
 10
22302.54455100001
 20
7372.0885769999977
 30
0.0
 11
25045.547189999968
 21
7372.0885769999977
 31
0.0
  0
LINE
  5
3E1D
  8
0-1
  6
CONTINUOUS
 62
     3
 10
22302.54455100001
 20
7437.0885439999984
 30
0.0
 11
25045.547189999968
 21
7437.0885439999984
 31
0.0
  0
LINE
  5
3E1E
  8
0-1
  6
CONTINUOUS
 62
     3
 10
22302.54455100001
 20
7502.0890059999974
 30
0.0
 11
25045.547189999968
 21
7502.0890059999974
 31
0.0
  0
LINE
  5
3E1F
  8
0-1
  6
CONTINUOUS
 62
     3
 10
22302.54455100001
 20
7567.0879829999967
 30
0.0
 11
25045.547189999968
 21
7567.0879829999967
 31
0.0
  0
LINE
  5
3E20
  8
0-1
  6
CONTINUOUS
 62
     3
 10
22302.54455100001
 20
7632.0884449999976
 30
0.0
 11
25045.547189999968
 21
7632.0884449999976
 31
0.0
  0
LINE
  5
3E21
  8
0-1
  6
CONTINUOUS
 62
     3
 10
22302.54455100001
 20
7697.0884119999992
 30
0.0
 11
25045.547189999968
 21
7697.0884119999992
 31
0.0
  0
LINE
  5
3E22
  8
0-1
  6
CONTINUOUS
 62
     3
 10
22302.54455100001
 20
7762.0883789999989
 30
0.0
 11
25045.547189999968
 21
7762.0883789999989
 31
0.0
  0
LINE
  5
3E23
  8
0-1
  6
CONTINUOUS
 62
     3
 10
22302.54455100001
 20
7827.0888410000007
 30
0.0
 11
25045.547189999968
 21
7827.0888410000007
 31
0.0
  0
LINE
  5
3E24
  8
0-1
  6
CONTINUOUS
 62
     3
 10
22302.54455100001
 20
7892.0888079999977
 30
0.0
 11
25045.547189999968
 21
7892.0888079999977
 31
0.0
  0
LINE
  5
3E25
  8
0-1
  6
CONTINUOUS
 62
     3
 10
22302.54455100001
 20
7957.0892699999968
 30
0.0
 11
25045.547189999968
 21
7957.0892699999968
 31
0.0
  0
LINE
  5
3E26
  8
0-1
  6
CONTINUOUS
 62
     3
 10
22302.54455100001
 20
8022.0882469999933
 30
0.0
 11
25045.547189999968
 21
8022.0882469999933
 31
0.0
  0
LINE
  5
3E27
  8
0-1
  6
CONTINUOUS
 62
     3
 10
22302.54455100001
 20
8087.0887089999969
 30
0.0
 11
25045.547189999968
 21
8087.0887089999969
 31
0.0
  0
LINE
  5
3E28
  8
0-1
  6
CONTINUOUS
 62
     3
 10
22302.54455100001
 20
8152.0886759999976
 30
0.0
 11
25045.547189999968
 21
8152.0886759999976
 31
0.0
  0
LINE
  5
3E29
  8
0-1
  6
CONTINUOUS
 62
     3
 10
22302.54455100001
 20
6332.0881149999968
 30
0.0
 11
25045.547189999968
 21
6332.0881149999968
 31
0.0
  0
LINE
  5
3E2A
  8
0-1
  6
CONTINUOUS
 62
     3
 10
22302.54455100001
 20
6397.0890719999979
 30
0.0
 11
25045.547189999968
 21
6397.0890719999979
 31
0.0
  0
LINE
  5
3E2B
  8
0-1
  6
CONTINUOUS
 62
     3
 10
22302.54455100001
 20
6462.088048999999
 30
0.0
 11
25045.547189999968
 21
6462.088048999999
 31
0.0
  0
LINE
  5
3E2C
  8
0-1
  6
CONTINUOUS
 62
     3
 10
22302.54455100001
 20
6527.0890059999974
 30
0.0
 11
25045.547189999968
 21
6527.0890059999974
 31
0.0
  0
LINE
  5
3E2D
  8
0-1
  6
CONTINUOUS
 62
     3
 10
22302.54455100001
 20
6592.0884779999988
 30
0.0
 11
25045.547189999968
 21
6592.0884779999988
 31
0.0
  0
LINE
  5
3E2E
  8
0-1
  6
CONTINUOUS
 62
     3
 10
22302.54455100001
 20
6657.0884450000012
 30
0.0
 11
25045.547189999968
 21
6657.0884450000012
 31
0.0
  0
LINE
  5
3E2F
  8
0-1
  6
CONTINUOUS
 62
     3
 10
22302.54455100001
 20
6722.0884119999992
 30
0.0
 11
25045.547189999968
 21
6722.0884119999992
 31
0.0
  0
LINE
  5
3E30
  8
0-1
  6
CONTINUOUS
 62
     3
 10
22302.54455100001
 20
6787.0878839999987
 30
0.0
 11
25045.547189999968
 21
6787.0878839999987
 31
0.0
  0
LINE
  5
3E32
  8
0-1
  6
CONTINUOUS
 62
     3
 10
22257.544154999989
 20
8275.0885369999942
 30
0.0
 11
25090.547585999971
 21
8275.0885369999942
 31
0.0
  0
LINE
  5
3E33
  8
0-1
  6
CONTINUOUS
 62
     3
 10
19247.045211999979
 20
6267.088643000001
 30
0.0
 11
25183.046530999989
 21
6267.088643000001
 31
0.0
  0
LINE
  5
3E3D
  8
0-1
  6
CONTINUOUS
 62
     3
 10
22172.545606999971
 20
8585.5879039999982
 30
0.0
 11
22172.545606999971
 21
6267.088643000001
 31
0.0
  0
LINE
  5
3E3E
  8
0-1
  6
CONTINUOUS
 62
     3
 10
22127.547190999961
 20
8275.0885369999942
 30
0.0
 11
22127.547190999961
 21
6267.088643000001
 31
0.0
  0
LINE
  5
3E49
  8
0-1
  6
CONTINUOUS
 62
     3
 10
19347.046530999982
 20
6367.0884779999951
 30
0.0
 11
19347.046530999982
 21
6267.088643000001
 31
0.0
  0
LINE
  5
3E4A
  8
0-1
  6
CONTINUOUS
 62
     3
 10
19247.045211999979
 20
6267.088643000001
 30
0.0
 11
19247.045211999979
 21
6367.0884779999951
 31
0.0
  0
LINE
  5
3E4B
  8
0-1
  6
CONTINUOUS
 62
     3
 10
19247.045211999979
 20
6367.0884779999951
 30
0.0
 11
19347.046530999982
 21
6367.0884779999951
 31
0.0
  0
LINE
  5
3E4C
  8
0-1
  6
CONTINUOUS
 62
     3
 10
19384.546530999982
 20
8275.0885369999942
 30
0.0
 11
19384.546530999982
 21
6267.088643000001
 31
0.0
  0
LINE
  5
3E4D
  8
0-1
  6
CONTINUOUS
 62
     3
 10
19339.544155999982
 20
8585.5879039999982
 30
0.0
 11
19339.544155999982
 21
6367.0884779999951
 31
0.0
  0
LINE
  5
3E4E
  8
0-1
  6
CONTINUOUS
 62
     3
 10
19274.546662999961
 20
8715.5888270000032
 30
0.0
 11
19274.546662999961
 21
6367.0884779999951
 31
0.0
  0
LINE
  5
3E4F
  8
0-1
  6
CONTINUOUS
 62
     3
 10
19254.543627999981
 20
8585.5879039999982
 30
0.0
 11
19254.543627999981
 21
6367.0884779999951
 31
0.0
  0
LINE
  5
3E50
  8
0-1
  6
CONTINUOUS
 62
     3
 10
19339.544155999982
 20
8275.0885369999942
 30
0.0
 11
22172.545606999971
 21
8275.0885369999942
 31
0.0
  0
LINE
  5
3E52
  8
0-1
  6
CONTINUOUS
 62
     3
 10
19384.546530999982
 20
6787.0878839999987
 30
0.0
 11
22127.547190999961
 21
6787.0878839999987
 31
0.0
  0
LINE
  5
3E53
  8
0-1
  6
CONTINUOUS
 62
     3
 10
19384.546530999982
 20
6722.0884119999992
 30
0.0
 11
22127.547190999961
 21
6722.0884119999992
 31
0.0
  0
LINE
  5
3E54
  8
0-1
  6
CONTINUOUS
 62
     3
 10
19384.546530999982
 20
6657.0884450000012
 30
0.0
 11
22127.547190999961
 21
6657.0884450000012
 31
0.0
  0
LINE
  5
3E55
  8
0-1
  6
CONTINUOUS
 62
     3
 10
19384.546530999982
 20
6592.0884779999988
 30
0.0
 11
22127.547190999961
 21
6592.0884779999988
 31
0.0
  0
LINE
  5
3E56
  8
0-1
  6
CONTINUOUS
 62
     3
 10
19384.546530999982
 20
6527.0890059999974
 30
0.0
 11
22127.547190999961
 21
6527.0890059999974
 31
0.0
  0
LINE
  5
3E57
  8
0-1
  6
CONTINUOUS
 62
     3
 10
19384.546530999982
 20
6462.088048999999
 30
0.0
 11
22127.547190999961
 21
6462.088048999999
 31
0.0
  0
LINE
  5
3E58
  8
0-1
  6
CONTINUOUS
 62
     3
 10
19384.546530999982
 20
6397.0890719999979
 30
0.0
 11
22127.547190999961
 21
6397.0890719999979
 31
0.0
  0
LINE
  5
3E59
  8
0-1
  6
CONTINUOUS
 62
     3
 10
19384.546530999982
 20
6332.0881149999968
 30
0.0
 11
22127.547190999961
 21
6332.0881149999968
 31
0.0
  0
LINE
  5
3E5A
  8
0-1
  6
CONTINUOUS
 62
     3
 10
19384.546530999982
 20
8152.0886759999976
 30
0.0
 11
22127.547190999961
 21
8152.0886759999976
 31
0.0
  0
LINE
  5
3E5B
  8
0-1
  6
CONTINUOUS
 62
     3
 10
19384.546530999982
 20
8087.0887089999969
 30
0.0
 11
22127.547190999961
 21
8087.0887089999969
 31
0.0
  0
LINE
  5
3E5C
  8
0-1
  6
CONTINUOUS
 62
     3
 10
19384.546530999982
 20
8022.0882469999933
 30
0.0
 11
22127.547190999961
 21
8022.0882469999933
 31
0.0
  0
LINE
  5
3E5D
  8
0-1
  6
CONTINUOUS
 62
     3
 10
19384.546530999982
 20
7957.0892699999968
 30
0.0
 11
22127.547190999961
 21
7957.0892699999968
 31
0.0
  0
LINE
  5
3E5E
  8
0-1
  6
CONTINUOUS
 62
     3
 10
19384.546530999982
 20
7892.0888079999977
 30
0.0
 11
22127.547190999961
 21
7892.0888079999977
 31
0.0
  0
LINE
  5
3E5F
  8
0-1
  6
CONTINUOUS
 62
     3
 10
19384.546530999982
 20
7827.0888410000007
 30
0.0
 11
22127.547190999961
 21
7827.0888410000007
 31
0.0
  0
LINE
  5
3E60
  8
0-1
  6
CONTINUOUS
 62
     3
 10
19384.546530999982
 20
7762.0883789999989
 30
0.0
 11
22127.547190999961
 21
7762.0883789999989
 31
0.0
  0
LINE
  5
3E61
  8
0-1
  6
CONTINUOUS
 62
     3
 10
19384.546530999982
 20
7697.0884119999992
 30
0.0
 11
22127.547190999961
 21
7697.0884119999992
 31
0.0
  0
LINE
  5
3E62
  8
0-1
  6
CONTINUOUS
 62
     3
 10
19384.546530999982
 20
7632.0884449999976
 30
0.0
 11
22127.547190999961
 21
7632.0884449999976
 31
0.0
  0
LINE
  5
3E63
  8
0-1
  6
CONTINUOUS
 62
     3
 10
19384.546530999982
 20
7567.0879829999967
 30
0.0
 11
22127.547190999961
 21
7567.0879829999967
 31
0.0
  0
LINE
  5
3E64
  8
0-1
  6
CONTINUOUS
 62
     3
 10
19384.546530999982
 20
7502.0890059999974
 30
0.0
 11
22127.547190999961
 21
7502.0890059999974
 31
0.0
  0
LINE
  5
3E65
  8
0-1
  6
CONTINUOUS
 62
     3
 10
19384.546530999982
 20
7437.0885439999984
 30
0.0
 11
22127.547190999961
 21
7437.0885439999984
 31
0.0
  0
LINE
  5
3E66
  8
0-1
  6
CONTINUOUS
 62
     3
 10
19384.546530999982
 20
7372.0885769999977
 30
0.0
 11
22127.547190999961
 21
7372.0885769999977
 31
0.0
  0
LINE
  5
3E67
  8
0-1
  6
CONTINUOUS
 62
     3
 10
19384.546530999982
 20
7307.0881149999977
 30
0.0
 11
22127.547190999961
 21
7307.0881149999977
 31
0.0
  0
LINE
  5
3E68
  8
0-1
  6
CONTINUOUS
 62
     3
 10
19384.546530999982
 20
7242.089138000003
 30
0.0
 11
22127.547190999961
 21
7242.089138000003
 31
0.0
  0
LINE
  5
3E69
  8
0-1
  6
CONTINUOUS
 62
     3
 10
19384.546530999982
 20
7177.0886759999976
 30
0.0
 11
22127.547190999961
 21
7177.0886759999976
 31
0.0
  0
LINE
  5
3E6A
  8
0-1
  6
CONTINUOUS
 62
     3
 10
19384.546530999982
 20
7112.0887089999969
 30
0.0
 11
22127.547190999961
 21
7112.0887089999969
 31
0.0
  0
LINE
  5
3E6B
  8
0-1
  6
CONTINUOUS
 62
     3
 10
19384.546530999982
 20
7047.0887419999972
 30
0.0
 11
22127.547190999961
 21
7047.0887419999972
 31
0.0
  0
LINE
  5
3E6C
  8
0-1
  6
CONTINUOUS
 62
     3
 10
19384.546530999982
 20
6982.0887749999983
 30
0.0
 11
22127.547190999961
 21
6982.0887749999983
 31
0.0
  0
LINE
  5
3E6D
  8
0-1
  6
CONTINUOUS
 62
     3
 10
19384.546530999982
 20
6917.0883130000002
 30
0.0
 11
22127.547190999961
 21
6917.0883130000002
 31
0.0
  0
LINE
  5
3E6E
  8
0-1
  6
CONTINUOUS
 62
     3
 10
19384.546530999982
 20
6852.0893359999973
 30
0.0
 11
22127.547190999961
 21
6852.0893359999973
 31
0.0
  0
LINE
  5
3E6F
  8
0-1
  6
CONTINUOUS
 62
     3
 10
19384.546530999982
 20
8206.5482009999978
 30
0.0
 11
22127.547190999961
 21
8206.5482009999978
 31
0.0
  0
LINE
  5
3E75
  8
0-2
  6
CONTINUOUS
 62
     4
 10
24037.73787099999
 20
7014.3143469999986
 30
0.0
 11
23937.738530999992
 21
7014.3143469999986
 31
0.0
  0
LINE
  5
3E76
  8
0-2
  6
CONTINUOUS
 62
     4
 10
23310.351890999998
 20
7014.3143469999986
 30
0.0
 11
23410.351231999961
 21
7014.3143469999986
 31
0.0
  0
LINE
  5
3E77
  8
0-2
  6
CONTINUOUS
 62
     4
 10
21119.73688149999
 20
7014.3143469999986
 30
0.0
 11
21019.737541499981
 21
7014.3143469999986
 31
0.0
  0
LINE
  5
3E78
  8
0-2
  6
CONTINUOUS
 62
     4
 10
20392.352880499991
 20
7014.3143469999986
 30
0.0
 11
20492.350241499989
 21
7014.3143469999986
 31
0.0
  0
LINE
  5
3E79
  8
0-5
  6
CONTINUOUS
 62
     4
 10
22215.04587099998
 20
4587.0885439999929
 30
0.0
 11
22215.04587099998
 21
4427.0885109999999
 31
0.0
  0
LINE
  5
3E7A
  8
0-5
  6
CONTINUOUS
 62
     4
 10
19297.04587099998
 20
4587.0885439999929
 30
0.0
 11
19297.04587099998
 21
4427.0885109999999
 31
0.0
  0
LINE
  5
3E7B
  8
2-0
  6
CENTER2
 62
     6
 10
25133.04587099998
 20
6004.4362199999978
 30
0.0
 11
25133.04587099998
 21
7041.5782569999992
 31
0.0
  0
LINE
  5
3E7C
  8
2-0
  6
CENTER2
 62
     6
 10
22215.04587099998
 20
6004.4362199999978
 30
0.0
 11
22215.04587099998
 21
7041.5782569999992
 31
0.0
  0
LINE
  5
3E7D
  8
2-0
  6
CENTER2
 62
     6
 10
19297.04587099998
 20
6004.4362199999978
 30
0.0
 11
19297.04587099998
 21
7041.5782569999992
 31
0.0
  0
CIRCLE
  5
3E8E
  8
0-5
  6
CONTINUOUS
 62
     4
 10
22215.04587099998
 20
4227.0888409999989
 30
0.0
 40
199.9999949999999
  0
CIRCLE
  5
3E8F
  8
0-5
  6
CONTINUOUS
 62
     4
 10
19297.04587099998
 20
4227.0888409999989
 30
0.0
 40
199.9999949999999
  0
TEXT
  5
3E90
  8
0-5
  6
CONTINUOUS
 62
     7
 10
18678.869931999991
 20
6996.4488897419951
 30
0.0
 40
160.0
  1
(2131.5)
 50
90.0
 72
     4
 11
18598.869931999991
 21
7449.7822230753281
 31
0.0
  0
TEXT
  5
3E91
  8
0-5
  6
CONTINUOUS
 62
     7
 10
22168.11742399996
 20
4140.5588870000001
 30
0.0
 40
160.0
  1
2
 72
     4
 11
22221.450757333299
 21
4220.5588869999992
 31
0.0
  0
TEXT
  5
3E92
  8
0-5
  6
CONTINUOUS
 62
     7
 10
19250.113464999969
 20
4140.5588870000001
 30
0.0
 40
160.0
  1
1
 72
     4
 11
19276.780131666641
 21
4220.5588869999992
 31
0.0
  0
CIRCLE
  5
3E93
  8
0-4
  6
CONTINUOUS
 62
     4
 10
20756.04587099998
 20
6753.144583999996
 30
0.0
 40
18.487504999999981
  0
CIRCLE
  5
3E94
  8
0-4
  6
CONTINUOUS
 62
     4
 10
23674.04587099998
 20
6753.144583999996
 30
0.0
 40
18.487504999999981
  0
LINE
  5
3E95
  8
SUNPOU
  6
CONTINUOUS
 10
19014.54587099998
 20
5067.088643000001
 30
0.0
 11
18656.590864278871
 21
5067.088643000001
 31
0.0
  0
LINE
  5
3E96
  8
SUNPOU
  6
CONTINUOUS
 10
25415.549829999982
 20
5067.088643000001
 30
0.0
 11
25773.504836721091
 21
5067.088643000001
 31
0.0
  0
LINE
  5
3E97
  8
0-5
  6
CONTINUOUS
 62
     4
 10
25175.54587099998
 20
4587.0885439999929
 30
0.0
 11
25175.54587099998
 21
4427.0885109999999
 31
0.0
  0
CIRCLE
  5
3E98
  8
0-5
  6
CONTINUOUS
 62
     4
 10
25175.54587099998
 20
4227.0888409999989
 30
0.0
 40
199.9999949999999
  0
TEXT
  5
3E99
  8
0-5
  6
CONTINUOUS
 62
     7
 10
25128.617423999971
 20
4140.5588870000001
 30
0.0
 40
160.0
  1
3
 72
     4
 11
25181.95075733331
 21
4220.5588869999992
 31
0.0
  0
TEXT
  5
3E9A
  8
2-0
  6
CONTINUOUS
 62
     7
 10
20897.01212699998
 20
3389.967011000002
 30
0.0
 40
160.0
  1
正 面 立 面 図
 50
0.000139
 72
     4
 11
21542.345266250799
 21
3469.968576583376
 31
0.0
  0
TEXT
  5
3E9B
  8
2-0
  6
CONTINUOUS
 62
     7
 10
22893.83745138843
 20
3417.1639455833761
 30
0.0
 40
160.0
  1
1
 72
     4
 11
22920.504118055102
 21
3497.163945583377
 31
0.0
  0
TEXT
  5
3E9C
  8
2-0
  6
CONTINUOUS
 62
     7
 10
23136.926168639118
 20
3337.165413583376
 30
0.0
 40
160.0
  1
80
 72
     4
 11
23256.926168639118
 21
3417.165413583376
 31
0.0
  0
TEXT
  5
3E9D
  8
2-0
  6
CONTINUOUS
 62
     7
 10
22394.839417388412
 20
3389.968576583376
 30
0.0
 40
160.0
  1
(S=  /   )
 72
     4
 11
22954.839417388412
 21
3469.968576583376
 31
0.0
  0
LINE
  5
3E9E
  8
0-5
  6
CONTINUOUS
 62
     4
 10
16724.676810999961
 20
6474.9341350000013
 30
0.0
 11
16844.67324799997
 21
6267.088643000001
 31
0.0
  0
LINE
  5
3E9F
  8
0-5
  6
CONTINUOUS
 62
     4
 10
16844.67324799997
 20
6267.088643000001
 30
0.0
 11
16964.673643999969
 21
6474.9341350000013
 31
0.0
  0
LINE
  5
3EA0
  8
0-5
  6
CONTINUOUS
 62
     4
 10
16964.673643999969
 20
6474.9341350000013
 30
0.0
 11
16724.676810999961
 21
6474.9341350000013
 31
0.0
  0
TEXT
  5
3EA1
  8
0-5
  6
CONTINUOUS
 62
     7
 10
16724.676810999968
 20
6554.9348929999987
 30
0.0
 40
160.0
  1
G.L
 72
     4
 11
16884.676810999968
 21
6634.9348929999987
 31
0.0
  0
TEXT
  5
3EA2
  8
2-0
  6
CONTINUOUS
 62
     7
 10
21134.119773999999
 20
12256.04839299999
 30
0.0
 40
160.0
  1
平　面　図
 50
359.99978700000008
 72
     4
 11
21587.45338490736
 21
12330.713374376221
 31
0.0
  0
TEXT
  5
3EA3
  8
2-0
  6
CONTINUOUS
 62
     7
 10
22938.94557004498
 20
12277.908743376231
 30
0.0
 40
160.0
  1
1
 72
     4
 11
22965.612236711651
 21
12357.908743376231
 31
0.0
  0
TEXT
  5
3EA4
  8
2-0
  6
CONTINUOUS
 62
     7
 10
23182.034287295672
 20
12197.91021137622
 30
0.0
 40
160.0
  1
80
 72
     4
 11
23302.034287295672
 21
12277.91021137622
 31
0.0
  0
TEXT
  5
3EA5
  8
2-0
  6
CONTINUOUS
 62
     7
 10
22439.94753604498
 20
12250.713374376221
 30
0.0
 40
160.0
  1
(S=  /   )
 72
     4
 11
22999.94753604498
 21
12330.713374376221
 31
0.0
  0
LINE
  5
3EA6
  8
2-0
  6
CONTINUOUS
 62
     6
 10
23449.886954999969
 20
13868.038666
 30
0.0
 11
24449.880356999951
 21
13868.038666
 31
0.0
  0
LINE
  5
3EA7
  8
2-0
  6
CONTINUOUS
 62
     6
 10
24917.820733999972
 20
14338.45938
 30
0.0
 11
24449.880356999951
 21
13868.038666
 31
0.0
  0
LINE
  5
3EA8
  8
2-0
  6
CONTINUOUS
 62
     6
 10
23466.598050999961
 20
18196.658730999989
 30
0.0
 11
24484.573398999961
 21
18196.658730999989
 31
0.0
  0
LINE
  5
3EA9
  8
2-0
  6
CONTINUOUS
 62
     6
 10
24940.998916999961
 20
18421.373680000001
 30
0.0
 11
24484.573398999961
 21
18196.658730999989
 31
0.0
  0
LINE
  5
3EAA
  8
2-0
  6
CONTINUOUS
 62
     6
 10
24879.180530999969
 20
17179.567027000001
 30
0.0
 11
24574.485112999992
 21
17283.220558000019
 31
0.0
  0
LINE
  5
3EAB
  8
2-0
  6
CONTINUOUS
 62
     6
 10
25034.202569999961
 20
16689.944983000001
 30
0.0
 11
24574.485112999992
 21
16446.031672000001
 31
0.0
  0
LINE
  5
3EAC
  8
2-0
  6
CONTINUOUS
 62
     6
 10
23654.482077999961
 20
16446.031672000001
 30
0.0
 11
24574.485112999992
 21
16446.031672000001
 31
0.0
  0
LINE
  5
3EAD
  8
2-0
  6
CONTINUOUS
 62
     6
 10
23374.491050999972
 20
17283.220558000019
 30
0.0
 11
24574.485112999992
 21
17283.220558000019
 31
0.0
  0
LINE
  5
3EAE
  8
2-0
  6
CONTINUOUS
 62
     6
 10
24950.379854999981
 20
14660.14302599998
 30
0.0
 11
24574.485112999992
 21
14841.086861
 31
0.0
  0
LINE
  5
3EAF
  8
2-0
  6
CONTINUOUS
 62
     6
 10
23466.598050999961
 20
15278.89627300002
 30
0.0
 11
24484.573398999961
 21
15278.89627300002
 31
0.0
  0
LINE
  5
3EB0
  8
2-0
  6
CONTINUOUS
 62
     6
 10
24054.483396999989
 20
14841.086861
 30
0.0
 11
24574.485112999992
 21
14841.086861
 31
0.0
  0
LINE
  5
3EB1
  8
2-0
  6
CONTINUOUS
 62
     6
 10
24940.998916999961
 20
15503.60924300001
 30
0.0
 11
24484.573398999961
 21
15278.89627300002
 31
0.0
  0
LINE
  5
3EB2
  8
2-0
  6
CONTINUOUS
 62
     4
 10
22215.04587099998
 20
19765.540316000021
 30
0.0
 11
22215.04587099998
 21
20495.537281000012
 31
0.0
  0
LINE
  5
3EB3
  8
2-0
  6
CONTINUOUS
 62
     3
 10
25145.54653099996
 20
19576.537862000001
 30
0.0
 11
25145.54653099996
 21
19570.5419
 31
0.0
  0
LINE
  5
3EB4
  8
2-0
  6
CONTINUOUS
 62
     3
 10
25145.54653099996
 20
19570.5419
 30
0.0
 11
25175.544154999981
 21
19570.5419
 31
0.0
  0
LINE
  5
3EB5
  8
2-0
  6
CONTINUOUS
 62
     3
 10
25175.544154999981
 20
19600.541504000001
 30
0.0
 11
25094.54225499996
 21
19600.541504000001
 31
0.0
  0
LINE
  5
3EB6
  8
2-0
  6
CONTINUOUS
 62
     3
 10
25145.54653099996
 20
19560.244444
 30
0.0
 11
25175.544154999981
 21
19560.244444
 31
0.0
  0
LINE
  5
3EB7
  8
2-0
  6
CONTINUOUS
 62
     3
 10
25145.54653099996
 20
19578.246186000011
 30
0.0
 11
25145.54653099996
 21
19560.244444
 31
0.0
  0
LINE
  5
3EB8
  8
2-0
  6
CONTINUOUS
 62
     3
 10
25170.543891000001
 20
19578.246186000011
 30
0.0
 11
25145.54653099996
 21
19578.246186000011
 31
0.0
  0
LINE
  5
3EB9
  8
2-0
  6
CONTINUOUS
 62
     3
 10
25170.543891000001
 20
19573.238004000021
 30
0.0
 11
25170.543891000001
 21
19578.246186000011
 31
0.0
  0
LINE
  5
3EBA
  8
2-0
  6
CONTINUOUS
 62
     3
 10
25163.542334000002
 20
19573.238004000021
 30
0.0
 11
25170.543891000001
 21
19573.238004000021
 31
0.0
  0
LINE
  5
3EBB
  8
2-0
  6
CONTINUOUS
 62
     3
 10
25063.246065999982
 20
19673.538230999999
 30
0.0
 11
25063.246065999982
 21
19680.543747000011
 31
0.0
  0
LINE
  5
3EBC
  8
2-0
  6
CONTINUOUS
 62
     3
 10
25063.246065999982
 20
19680.543747000011
 30
0.0
 11
25068.246329999969
 21
19680.543747000011
 31
0.0
  0
LINE
  5
3EBD
  8
2-0
  6
CONTINUOUS
 62
     3
 10
25068.246329999969
 20
19680.543747000011
 30
0.0
 11
25068.246329999969
 21
19655.534510000001
 31
0.0
  0
LINE
  5
3EBE
  8
2-0
  6
CONTINUOUS
 62
     3
 10
25068.246329999969
 20
19655.534510000001
 30
0.0
 11
25050.244587999961
 21
19655.534510000001
 31
0.0
  0
LINE
  5
3EBF
  8
2-0
  6
CONTINUOUS
 62
     3
 10
25050.244587999961
 20
19655.534510000001
 30
0.0
 11
25050.244587999961
 21
19685.538073000022
 31
0.0
  0
LINE
  5
3EC0
  8
2-0
  6
CONTINUOUS
 62
     3
 10
25060.542043999969
 20
19685.538073000022
 30
0.0
 11
25175.544154999981
 21
19685.538073000022
 31
0.0
  0
LINE
  5
3EC1
  8
2-0
  6
CONTINUOUS
 62
     3
 10
25060.542043999969
 20
19655.534510000001
 30
0.0
 11
25060.542043999969
 21
19685.538073000022
 31
0.0
  0
LINE
  5
3EC2
  8
2-0
  6
CONTINUOUS
 62
     3
 10
25066.543943999972
 20
19655.534510000001
 30
0.0
 11
25060.542043999969
 21
19655.534510000001
 31
0.0
  0
LINE
  5
3EC3
  8
2-0
  6
CONTINUOUS
 62
     3
 10
25163.542334000002
 20
19219.941181499991
 30
0.0
 11
25170.543891000001
 21
19219.941181499991
 31
0.0
  0
LINE
  5
3EC4
  8
2-0
  6
CONTINUOUS
 62
     3
 10
25170.543891000001
 20
19219.941181499991
 30
0.0
 11
25170.543891000001
 21
19224.941445500001
 31
0.0
  0
LINE
  5
3EC5
  8
2-0
  6
CONTINUOUS
 62
     3
 10
25170.543891000001
 20
19224.941445500001
 30
0.0
 11
25145.54653099996
 21
19224.941445500001
 31
0.0
  0
LINE
  5
3EC6
  8
2-0
  6
CONTINUOUS
 62
     3
 10
25145.54653099996
 20
19224.941445500001
 30
0.0
 11
25145.54653099996
 21
19206.945641499991
 31
0.0
  0
LINE
  5
3EC7
  8
2-0
  6
CONTINUOUS
 62
     3
 10
25145.54653099996
 20
19206.945641499991
 30
0.0
 11
25175.544154999981
 21
19206.945641499991
 31
0.0
  0
LINE
  5
3EC8
  8
2-0
  6
CONTINUOUS
 62
     3
 10
25145.54653099996
 20
19223.037148499981
 30
0.0
 11
25145.54653099996
 21
19217.039207500002
 31
0.0
  0
LINE
  5
3EC9
  8
2-0
  6
CONTINUOUS
 62
     3
 10
25145.54653099996
 20
19217.039207500002
 30
0.0
 11
25175.544154999981
 21
19217.039207500002
 31
0.0
  0
LINE
  5
3ECA
  8
2-0
  6
CONTINUOUS
 62
     3
 10
25175.544154999981
 20
19217.039207500002
 30
0.0
 11
25175.544154999981
 21
19254.040368499991
 31
0.0
  0
LINE
  5
3ECB
  8
2-0
  6
CONTINUOUS
 62
     3
 10
25145.54653099996
 20
19254.040368499991
 30
0.0
 11
25175.544154999981
 21
19254.040368499991
 31
0.0
  0
LINE
  5
3ECC
  8
2-0
  6
CONTINUOUS
 62
     3
 10
25145.54653099996
 20
19248.036488499991
 30
0.0
 11
25145.54653099996
 21
19254.040368499991
 31
0.0
  0
LINE
  5
3ECD
  8
2-0
  6
CONTINUOUS
 62
     3
 10
25145.54653099996
 20
19264.135913499991
 30
0.0
 11
25175.544154999981
 21
19264.135913499991
 31
0.0
  0
LINE
  5
3ECE
  8
2-0
  6
CONTINUOUS
 62
     3
 10
25145.54653099996
 20
19246.134171500002
 30
0.0
 11
25145.54653099996
 21
19264.135913499991
 31
0.0
  0
LINE
  5
3ECF
  8
2-0
  6
CONTINUOUS
 62
     3
 10
25170.543891000001
 20
19246.134171500002
 30
0.0
 11
25145.54653099996
 21
19246.134171500002
 31
0.0
  0
LINE
  5
3ED0
  8
2-0
  6
CONTINUOUS
 62
     3
 10
25170.543891000001
 20
19251.1344355
 30
0.0
 11
25170.543891000001
 21
19246.134171500002
 31
0.0
  0
LINE
  5
3ED1
  8
2-0
  6
CONTINUOUS
 62
     3
 10
25163.542334000002
 20
19251.1344355
 30
0.0
 11
25170.543891000001
 21
19251.1344355
 31
0.0
  0
LINE
  5
3ED2
  8
2-0
  6
CONTINUOUS
 62
     3
 10
25163.542334000002
 20
18518.940191999998
 30
0.0
 11
25170.543891000001
 21
18518.940191999998
 31
0.0
  0
LINE
  5
3ED3
  8
2-0
  6
CONTINUOUS
 62
     3
 10
25170.543891000001
 20
18518.940191999998
 30
0.0
 11
25170.543891000001
 21
18523.946393999991
 31
0.0
  0
LINE
  5
3ED4
  8
2-0
  6
CONTINUOUS
 62
     3
 10
25170.543891000001
 20
18523.946393999991
 30
0.0
 11
25145.54653099996
 21
18523.946393999991
 31
0.0
  0
LINE
  5
3ED5
  8
2-0
  6
CONTINUOUS
 62
     3
 10
25145.54653099996
 20
18523.946393999991
 30
0.0
 11
25145.54653099996
 21
18505.944651999998
 31
0.0
  0
LINE
  5
3ED6
  8
2-0
  6
CONTINUOUS
 62
     3
 10
25145.54653099996
 20
18505.944651999998
 30
0.0
 11
25175.544154999981
 21
18505.944651999998
 31
0.0
  0
LINE
  5
3ED7
  8
2-0
  6
CONTINUOUS
 62
     3
 10
25145.54653099996
 20
18522.036158999981
 30
0.0
 11
25145.54653099996
 21
18516.040196999991
 31
0.0
  0
LINE
  5
3ED8
  8
2-0
  6
CONTINUOUS
 62
     3
 10
25145.54653099996
 20
18516.040196999991
 30
0.0
 11
25175.544154999981
 21
18516.040196999991
 31
0.0
  0
LINE
  5
3ED9
  8
2-0
  6
CONTINUOUS
 62
     3
 10
25175.544154999981
 20
18516.040196999991
 30
0.0
 11
25175.544154999981
 21
18553.039379000002
 31
0.0
  0
LINE
  5
3EDA
  8
2-0
  6
CONTINUOUS
 62
     3
 10
25145.54653099996
 20
18553.039379000002
 30
0.0
 11
25175.544154999981
 21
18553.039379000002
 31
0.0
  0
LINE
  5
3EDB
  8
2-0
  6
CONTINUOUS
 62
     3
 10
25145.54653099996
 20
18547.043416999979
 30
0.0
 11
25145.54653099996
 21
18553.039379000002
 31
0.0
  0
LINE
  5
3EDC
  8
2-0
  6
CONTINUOUS
 62
     3
 10
25145.54653099996
 20
18563.134924000002
 30
0.0
 11
25175.544154999981
 21
18563.134924000002
 31
0.0
  0
LINE
  5
3EDD
  8
2-0
  6
CONTINUOUS
 62
     3
 10
25145.54653099996
 20
18545.133182000001
 30
0.0
 11
25145.54653099996
 21
18563.134924000002
 31
0.0
  0
LINE
  5
3EDE
  8
2-0
  6
CONTINUOUS
 62
     3
 10
25170.543891000001
 20
18545.133182000001
 30
0.0
 11
25145.54653099996
 21
18545.133182000001
 31
0.0
  0
LINE
  5
3EDF
  8
2-0
  6
CONTINUOUS
 62
     3
 10
25170.543891000001
 20
18550.139383999991
 30
0.0
 11
25170.543891000001
 21
18545.133182000001
 31
0.0
  0
LINE
  5
3EE0
  8
2-0
  6
CONTINUOUS
 62
     3
 10
25163.542334000002
 20
18550.139383999991
 30
0.0
 11
25170.543891000001
 21
18550.139383999991
 31
0.0
  0
LINE
  5
3EE1
  8
2-0
  6
CONTINUOUS
 62
     3
 10
25163.542334000002
 20
17849.133446
 30
0.0
 11
25170.543891000001
 21
17849.133446
 31
0.0
  0
LINE
  5
3EE2
  8
2-0
  6
CONTINUOUS
 62
     3
 10
25170.543891000001
 20
17849.133446
 30
0.0
 11
25170.543891000001
 21
17844.145058999991
 31
0.0
  0
LINE
  5
3EE3
  8
2-0
  6
CONTINUOUS
 62
     3
 10
25170.543891000001
 20
17844.145058999991
 30
0.0
 11
25145.54653099996
 21
17844.145058999991
 31
0.0
  0
LINE
  5
3EE4
  8
2-0
  6
CONTINUOUS
 62
     3
 10
25145.54653099996
 20
17844.145058999991
 30
0.0
 11
25145.54653099996
 21
17862.140862000011
 31
0.0
  0
LINE
  5
3EE5
  8
2-0
  6
CONTINUOUS
 62
     3
 10
25145.54653099996
 20
17862.140862000011
 30
0.0
 11
25175.544154999981
 21
17862.140862000011
 31
0.0
  0
LINE
  5
3EE6
  8
2-0
  6
CONTINUOUS
 62
     3
 10
25145.54653099996
 20
17846.043417000012
 30
0.0
 11
25145.54653099996
 21
17852.039379000002
 31
0.0
  0
LINE
  5
3EE7
  8
2-0
  6
CONTINUOUS
 62
     3
 10
25145.54653099996
 20
17852.039379000002
 30
0.0
 11
25175.544154999981
 21
17852.039379000002
 31
0.0
  0
LINE
  5
3EE8
  8
2-0
  6
CONTINUOUS
 62
     3
 10
25175.544154999981
 20
17852.039379000002
 30
0.0
 11
25175.544154999981
 21
17815.040196999991
 31
0.0
  0
LINE
  5
3EE9
  8
2-0
  6
CONTINUOUS
 62
     3
 10
25145.54653099996
 20
17815.040196999991
 30
0.0
 11
25175.544154999981
 21
17815.040196999991
 31
0.0
  0
LINE
  5
3EEA
  8
2-0
  6
CONTINUOUS
 62
     3
 10
25145.54653099996
 20
17821.042098000002
 30
0.0
 11
25145.54653099996
 21
17815.040196999991
 31
0.0
  0
LINE
  5
3EEB
  8
2-0
  6
CONTINUOUS
 62
     3
 10
25145.54653099996
 20
17804.950591000012
 30
0.0
 11
25175.544154999981
 21
17804.950591000012
 31
0.0
  0
LINE
  5
3EEC
  8
2-0
  6
CONTINUOUS
 62
     3
 10
25145.54653099996
 20
17822.946393999991
 30
0.0
 11
25145.54653099996
 21
17804.950591000012
 31
0.0
  0
LINE
  5
3EED
  8
2-0
  6
CONTINUOUS
 62
     3
 10
25170.543891000001
 20
17822.946393999991
 30
0.0
 11
25145.54653099996
 21
17822.946393999991
 31
0.0
  0
LINE
  5
3EEE
  8
2-0
  6
CONTINUOUS
 62
     3
 10
25170.543891000001
 20
17817.946131000012
 30
0.0
 11
25170.543891000001
 21
17822.946393999991
 31
0.0
  0
LINE
  5
3EEF
  8
2-0
  6
CONTINUOUS
 62
     3
 10
25163.542334000002
 20
17817.946131000012
 30
0.0
 11
25170.543891000001
 21
17817.946131000012
 31
0.0
  0
LINE
  5
3EF0
  8
2-0
  6
CONTINUOUS
 62
     3
 10
25172.65801699998
 20
17098.037016999999
 30
0.0
 11
25172.65801699998
 21
17118.038071999988
 31
0.0
  0
LINE
  5
3EF1
  8
2-0
  6
CONTINUOUS
 62
     3
 10
25172.65801699998
 20
17118.038071999988
 30
0.0
 11
25087.661447999981
 21
17118.038071999988
 31
0.0
  0
LINE
  5
3EF2
  8
2-0
  6
CONTINUOUS
 62
     3
 10
25163.542334000002
 20
17144.64478200001
 30
0.0
 11
25170.543891000001
 21
17144.64478200001
 31
0.0
  0
LINE
  5
3EF3
  8
2-0
  6
CONTINUOUS
 62
     3
 10
25170.543891000001
 20
17144.64478200001
 30
0.0
 11
25170.543891000001
 21
17139.65045600001
 31
0.0
  0
LINE
  5
3EF4
  8
2-0
  6
CONTINUOUS
 62
     3
 10
25170.543891000001
 20
17139.65045600001
 30
0.0
 11
25145.54653099996
 21
17139.65045600001
 31
0.0
  0
LINE
  5
3EF5
  8
2-0
  6
CONTINUOUS
 62
     3
 10
25145.54653099996
 20
17139.65045600001
 30
0.0
 11
25145.54653099996
 21
17157.646260000001
 31
0.0
  0
LINE
  5
3EF6
  8
2-0
  6
CONTINUOUS
 62
     3
 10
25145.54653099996
 20
17157.646260000001
 30
0.0
 11
25175.544154999981
 21
17157.646260000001
 31
0.0
  0
LINE
  5
3EF7
  8
2-0
  6
CONTINUOUS
 62
     3
 10
25145.54653099996
 20
17148.037676
 30
0.0
 11
25145.54653099996
 21
17142.035776000001
 31
0.0
  0
LINE
  5
3EF8
  8
2-0
  6
CONTINUOUS
 62
     3
 10
25175.544154999981
 20
17148.037676
 30
0.0
 11
25145.54653099996
 21
17148.037676
 31
0.0
  0
LINE
  5
3EF9
  8
2-0
  6
CONTINUOUS
 62
     3
 10
25175.544154999981
 20
17157.646260000001
 30
0.0
 11
25175.544154999981
 21
17804.950591000012
 31
0.0
  0
LINE
  5
3EFA
  8
2-0
  6
CONTINUOUS
 62
     3
 10
25175.544154999981
 20
17862.140862000011
 30
0.0
 11
25175.544154999981
 21
18505.944651999998
 31
0.0
  0
LINE
  5
3EFB
  8
2-0
  6
CONTINUOUS
 62
     3
 10
25175.544154999981
 20
17003.035961000009
 30
0.0
 11
25145.54653099996
 21
17003.035961000009
 31
0.0
  0
LINE
  5
3EFC
  8
2-0
  6
CONTINUOUS
 62
     3
 10
25145.54653099996
 20
17003.035961000009
 30
0.0
 11
25145.54653099996
 21
17009.037861000012
 31
0.0
  0
LINE
  5
3EFD
  8
2-0
  6
CONTINUOUS
 62
     3
 10
25087.661447999981
 20
17033.041504000012
 30
0.0
 11
25172.65801699998
 21
17033.041504000012
 31
0.0
  0
LINE
  5
3EFE
  8
2-0
  6
CONTINUOUS
 62
     3
 10
25172.65801699998
 20
17033.041504000012
 30
0.0
 11
25172.65801699998
 21
17053.03662100001
 31
0.0
  0
LINE
  5
3EFF
  8
2-0
  6
CONTINUOUS
 62
     3
 10
25145.54653099996
 20
16993.427378000011
 30
0.0
 11
25175.544154999981
 21
16993.427378000011
 31
0.0
  0
LINE
  5
3F00
  8
2-0
  6
CONTINUOUS
 62
     3
 10
25145.54653099996
 20
17011.423180999991
 30
0.0
 11
25145.54653099996
 21
16993.427378000011
 31
0.0
  0
LINE
  5
3F01
  8
2-0
  6
CONTINUOUS
 62
     3
 10
25170.543891000001
 20
17011.423180999991
 30
0.0
 11
25145.54653099996
 21
17011.423180999991
 31
0.0
  0
LINE
  5
3F02
  8
2-0
  6
CONTINUOUS
 62
     3
 10
25170.543891000001
 20
17006.422917000011
 30
0.0
 11
25170.543891000001
 21
17011.423180999991
 31
0.0
  0
LINE
  5
3F03
  8
2-0
  6
CONTINUOUS
 62
     3
 10
25163.542334000002
 20
17006.422917000011
 30
0.0
 11
25170.543891000001
 21
17006.422917000011
 31
0.0
  0
LINE
  5
3F04
  8
2-0
  6
CONTINUOUS
 62
     3
 10
25163.542334000002
 20
16301.94068649998
 30
0.0
 11
25170.543891000001
 21
16301.94068649998
 31
0.0
  0
LINE
  5
3F05
  8
2-0
  6
CONTINUOUS
 62
     3
 10
25170.543891000001
 20
16301.94068649998
 30
0.0
 11
25170.543891000001
 21
16306.94095049998
 31
0.0
  0
LINE
  5
3F06
  8
2-0
  6
CONTINUOUS
 62
     3
 10
25170.543891000001
 20
16306.94095049998
 30
0.0
 11
25145.54653099996
 21
16306.94095049998
 31
0.0
  0
LINE
  5
3F07
  8
2-0
  6
CONTINUOUS
 62
     3
 10
25145.54653099996
 20
16306.94095049998
 30
0.0
 11
25145.54653099996
 21
16288.9392085
 31
0.0
  0
LINE
  5
3F08
  8
2-0
  6
CONTINUOUS
 62
     3
 10
25145.54653099996
 20
16288.9392085
 30
0.0
 11
25175.544154999981
 21
16288.9392085
 31
0.0
  0
LINE
  5
3F09
  8
2-0
  6
CONTINUOUS
 62
     3
 10
25145.54653099996
 20
16305.036653499999
 30
0.0
 11
25145.54653099996
 21
16299.0397025
 31
0.0
  0
LINE
  5
3F0A
  8
2-0
  6
CONTINUOUS
 62
     3
 10
25145.54653099996
 20
16299.0397025
 30
0.0
 11
25175.544154999981
 21
16299.0397025
 31
0.0
  0
LINE
  5
3F0B
  8
2-0
  6
CONTINUOUS
 62
     3
 10
25175.544154999981
 20
16299.0397025
 30
0.0
 11
25175.544154999981
 21
16336.0398735
 31
0.0
  0
LINE
  5
3F0C
  8
2-0
  6
CONTINUOUS
 62
     3
 10
25145.54653099996
 20
16336.0398735
 30
0.0
 11
25175.544154999981
 21
16336.0398735
 31
0.0
  0
LINE
  5
3F0D
  8
2-0
  6
CONTINUOUS
 62
     3
 10
25145.54653099996
 20
16330.0369835
 30
0.0
 11
25145.54653099996
 21
16336.0398735
 31
0.0
  0
LINE
  5
3F0E
  8
2-0
  6
CONTINUOUS
 62
     3
 10
25145.54653099996
 20
16346.135418499989
 30
0.0
 11
25175.544154999981
 21
16346.135418499989
 31
0.0
  0
LINE
  5
3F0F
  8
2-0
  6
CONTINUOUS
 62
     3
 10
25145.54653099996
 20
16328.127737500001
 30
0.0
 11
25145.54653099996
 21
16346.135418499989
 31
0.0
  0
LINE
  5
3F10
  8
2-0
  6
CONTINUOUS
 62
     3
 10
25170.543891000001
 20
16328.127737500001
 30
0.0
 11
25145.54653099996
 21
16328.127737500001
 31
0.0
  0
LINE
  5
3F11
  8
2-0
  6
CONTINUOUS
 62
     3
 10
25170.543891000001
 20
16333.133940499991
 30
0.0
 11
25170.543891000001
 21
16328.127737500001
 31
0.0
  0
LINE
  5
3F12
  8
2-0
  6
CONTINUOUS
 62
     3
 10
25163.542334000002
 20
16333.133940499991
 30
0.0
 11
25170.543891000001
 21
16333.133940499991
 31
0.0
  0
LINE
  5
3F13
  8
2-0
  6
CONTINUOUS
 62
     3
 10
25163.542334000002
 20
15632.373957
 30
0.0
 11
25170.543891000001
 21
15632.373957
 31
0.0
  0
LINE
  5
3F14
  8
2-0
  6
CONTINUOUS
 62
     3
 10
25170.543891000001
 20
15632.373957
 30
0.0
 11
25170.543891000001
 21
15627.379632
 31
0.0
  0
LINE
  5
3F15
  8
2-0
  6
CONTINUOUS
 62
     3
 10
25170.543891000001
 20
15627.379632
 30
0.0
 11
25145.54653099996
 21
15627.379632
 31
0.0
  0
LINE
  5
3F16
  8
2-0
  6
CONTINUOUS
 62
     3
 10
25145.54653099996
 20
15627.379632
 30
0.0
 11
25145.54653099996
 21
15645.375435000011
 31
0.0
  0
LINE
  5
3F17
  8
2-0
  6
CONTINUOUS
 62
     3
 10
25145.54653099996
 20
15645.375435000011
 30
0.0
 11
25175.544154999981
 21
15645.375435000011
 31
0.0
  0
LINE
  5
3F18
  8
2-0
  6
CONTINUOUS
 62
     3
 10
25145.54653099996
 20
15629.277990000001
 30
0.0
 11
25145.54653099996
 21
15635.27989000002
 31
0.0
  0
LINE
  5
3F19
  8
2-0
  6
CONTINUOUS
 62
     3
 10
25145.54653099996
 20
15635.27989000002
 30
0.0
 11
25175.544154999981
 21
15635.27989000002
 31
0.0
  0
LINE
  5
3F1A
  8
2-0
  6
CONTINUOUS
 62
     3
 10
25175.544154999981
 20
15598.280709000001
 30
0.0
 11
25175.544154999981
 21
15635.27989000002
 31
0.0
  0
LINE
  5
3F1B
  8
2-0
  6
CONTINUOUS
 62
     3
 10
25145.54653099996
 20
15598.280709000001
 30
0.0
 11
25175.544154999981
 21
15598.280709000001
 31
0.0
  0
LINE
  5
3F1C
  8
2-0
  6
CONTINUOUS
 62
     3
 10
25145.54653099996
 20
15604.27766
 30
0.0
 11
25145.54653099996
 21
15598.280709000001
 31
0.0
  0
LINE
  5
3F1D
  8
2-0
  6
CONTINUOUS
 62
     3
 10
25145.54653099996
 20
15588.179225
 30
0.0
 11
25175.544154999981
 21
15588.179225
 31
0.0
  0
LINE
  5
3F1E
  8
2-0
  6
CONTINUOUS
 62
     3
 10
25145.54653099996
 20
15606.186906000001
 30
0.0
 11
25145.54653099996
 21
15588.179225
 31
0.0
  0
LINE
  5
3F1F
  8
2-0
  6
CONTINUOUS
 62
     3
 10
25170.543891000001
 20
15606.186906000001
 30
0.0
 11
25145.54653099996
 21
15606.186906000001
 31
0.0
  0
LINE
  5
3F20
  8
2-0
  6
CONTINUOUS
 62
     3
 10
25170.543891000001
 20
15601.186642000001
 30
0.0
 11
25170.543891000001
 21
15606.186906000001
 31
0.0
  0
LINE
  5
3F21
  8
2-0
  6
CONTINUOUS
 62
     3
 10
25163.542334000002
 20
15601.186642000001
 30
0.0
 11
25170.543891000001
 21
15601.186642000001
 31
0.0
  0
LINE
  5
3F22
  8
2-0
  6
CONTINUOUS
 62
     3
 10
25175.544154999981
 20
16993.427378000011
 30
0.0
 11
25175.544154999981
 21
16346.135418499989
 31
0.0
  0
LINE
  5
3F23
  8
2-0
  6
CONTINUOUS
 62
     3
 10
25175.544154999981
 20
17148.037676
 30
0.0
 11
25175.544154999981
 21
17003.035961000009
 31
0.0
  0
LINE
  5
3F24
  8
2-0
  6
CONTINUOUS
 62
     3
 10
25087.661447999981
 20
17118.038071999988
 30
0.0
 11
25087.661447999981
 21
17033.041504000012
 31
0.0
  0
LINE
  5
3F25
  8
2-0
  6
CONTINUOUS
 62
     6
 10
23549.452780999971
 20
18886.485337499991
 30
0.0
 11
24574.485112999992
 21
18886.485337499991
 31
0.0
  0
LINE
  5
3F26
  8
2-0
  6
CONTINUOUS
 62
     3
 10
25145.54653099996
 20
14574.541714999999
 30
0.0
 11
25145.54653099996
 21
14580.546584
 31
0.0
  0
LINE
  5
3F27
  8
2-0
  6
CONTINUOUS
 62
     3
 10
25145.54653099996
 20
14580.546584
 30
0.0
 11
25175.544154999981
 21
14580.546584
 31
0.0
  0
LINE
  5
3F28
  8
2-0
  6
CONTINUOUS
 62
     3
 10
25175.544154999981
 20
14580.546584
 30
0.0
 11
25175.544154999981
 21
14465.542493000001
 31
0.0
  0
LINE
  5
3F29
  8
2-0
  6
CONTINUOUS
 62
     3
 10
25175.544154999981
 20
14465.542493000001
 30
0.0
 11
25090.54560699996
 21
14465.542493000001
 31
0.0
  0
LINE
  5
3F2A
  8
2-0
  6
CONTINUOUS
 62
     3
 10
25090.54560699996
 20
14465.542493000001
 30
0.0
 11
25090.54560699996
 21
14550.538071999999
 31
0.0
  0
LINE
  5
3F2B
  8
2-0
  6
CONTINUOUS
 62
     3
 10
25090.54560699996
 20
14550.538071999999
 30
0.0
 11
25122.544524999968
 21
14550.538071999999
 31
0.0
  0
LINE
  5
3F2C
  8
2-0
  6
CONTINUOUS
 62
     3
 10
25163.542334000002
 20
14577.576316999999
 30
0.0
 11
25170.543891000001
 21
14577.576316999999
 31
0.0
  0
LINE
  5
3F2D
  8
2-0
  6
CONTINUOUS
 62
     3
 10
25170.543891000001
 20
14577.576316999999
 30
0.0
 11
25170.543891000001
 21
14572.57902199998
 31
0.0
  0
LINE
  5
3F2E
  8
2-0
  6
CONTINUOUS
 62
     3
 10
25170.543891000001
 20
14572.57902199998
 30
0.0
 11
25145.54653099996
 21
14572.57902199998
 31
0.0
  0
LINE
  5
3F2F
  8
2-0
  6
CONTINUOUS
 62
     3
 10
25145.54653099996
 20
14572.57902199998
 30
0.0
 11
25145.54653099996
 21
14590.57779499999
 31
0.0
  0
LINE
  5
3F30
  8
2-0
  6
CONTINUOUS
 62
     3
 10
25145.54653099996
 20
14590.57779499999
 30
0.0
 11
25175.544154999981
 21
14590.57779499999
 31
0.0
  0
LINE
  5
3F31
  8
2-0
  6
CENTER2
 62
     6
 10
25133.04587099998
 20
14268.044934999991
 30
0.0
 11
25133.04587099998
 21
15073.41369300001
 31
0.0
  0
LINE
  5
3F32
  8
2-0
  6
CONTINUOUS
 62
     3
 10
25175.544154999981
 20
18563.134924000002
 30
0.0
 11
25175.544154999981
 21
19206.945641499991
 31
0.0
  0
LINE
  5
3F33
  8
2-0
  6
CONTINUOUS
 62
     6
 10
25868.049037999968
 20
20415.540976000011
 30
0.0
 11
27068.043099999959
 21
20415.540976000011
 31
0.0
  0
LINE
  5
3F34
  8
2-0
  6
CONTINUOUS
 62
     3
 10
22287.547718999991
 20
19685.538073000022
 30
0.0
 11
22287.547718999991
 21
19655.534510000001
 31
0.0
  0
LINE
  5
3F35
  8
2-0
  6
CONTINUOUS
 62
     3
 10
22287.547718999991
 20
19655.534510000001
 30
0.0
 11
22281.54977699996
 21
19655.534510000001
 31
0.0
  0
LINE
  5
3F36
  8
2-0
  6
CONTINUOUS
 62
     3
 10
22297.164219999999
 20
19655.534510000001
 30
0.0
 11
22297.164219999999
 21
19685.538073000022
 31
0.0
  0
LINE
  5
3F37
  8
2-0
  6
CONTINUOUS
 62
     3
 10
22279.16247799998
 20
19655.534510000001
 30
0.0
 11
22297.164219999999
 21
19655.534510000001
 31
0.0
  0
LINE
  5
3F38
  8
2-0
  6
CONTINUOUS
 62
     3
 10
22279.16247799998
 20
19680.543747000011
 30
0.0
 11
22279.16247799998
 21
19655.534510000001
 31
0.0
  0
LINE
  5
3F39
  8
2-0
  6
CONTINUOUS
 62
     3
 10
22284.162741999971
 20
19680.543747000011
 30
0.0
 11
22279.16247799998
 21
19680.543747000011
 31
0.0
  0
LINE
  5
3F3A
  8
2-0
  6
CONTINUOUS
 62
     3
 10
22284.162741999971
 20
19673.538230999999
 30
0.0
 11
22284.162741999971
 21
19680.543747000011
 31
0.0
  0
LINE
  5
3F3B
  8
2-0
  6
CONTINUOUS
 62
     3
 10
22257.54613499999
 20
19682.645996000021
 30
0.0
 11
22257.54613499999
 21
19597.647448000022
 31
0.0
  0
LINE
  5
3F3C
  8
2-0
  6
CONTINUOUS
 62
     3
 10
22237.549038000001
 20
19682.645996000021
 30
0.0
 11
22257.54613499999
 21
19682.645996000021
 31
0.0
  0
LINE
  5
3F3D
  8
2-0
  6
CONTINUOUS
 62
     3
 10
22145.934938999992
 20
19673.538230999999
 30
0.0
 11
22145.934938999992
 21
19680.543747000011
 31
0.0
  0
LINE
  5
3F3E
  8
2-0
  6
CONTINUOUS
 62
     3
 10
22145.934938999992
 20
19680.543747000011
 30
0.0
 11
22150.935202999961
 21
19680.543747000011
 31
0.0
  0
LINE
  5
3F3F
  8
2-0
  6
CONTINUOUS
 62
     3
 10
22150.935202999961
 20
19680.543747000011
 30
0.0
 11
22150.935202999961
 21
19655.534510000001
 31
0.0
  0
LINE
  5
3F40
  8
2-0
  6
CONTINUOUS
 62
     3
 10
22150.935202999961
 20
19655.534510000001
 30
0.0
 11
22132.933460999961
 21
19655.534510000001
 31
0.0
  0
LINE
  5
3F41
  8
2-0
  6
CONTINUOUS
 62
     3
 10
22132.933460999961
 20
19655.534510000001
 30
0.0
 11
22132.933460999961
 21
19685.538073000022
 31
0.0
  0
LINE
  5
3F42
  8
2-0
  6
CONTINUOUS
 62
     3
 10
22172.553524999988
 20
19682.645996000021
 30
0.0
 11
22192.54864199998
 21
19682.645996000021
 31
0.0
  0
LINE
  5
3F43
  8
2-0
  6
CONTINUOUS
 62
     3
 10
22172.553524999988
 20
19597.647448000022
 30
0.0
 11
22172.553524999988
 21
19682.645996000021
 31
0.0
  0
LINE
  5
3F44
  8
2-0
  6
CONTINUOUS
 62
     3
 10
22142.555900999989
 20
19655.534510000001
 30
0.0
 11
22148.551861999971
 21
19655.534510000001
 31
0.0
  0
LINE
  5
3F45
  8
2-0
  6
CONTINUOUS
 62
     3
 10
22142.555900999989
 20
19685.538073000022
 30
0.0
 11
22142.555900999989
 21
19655.534510000001
 31
0.0
  0
LINE
  5
3F46
  8
2-0
  6
CONTINUOUS
 62
     3
 10
22257.54613499999
 20
19597.647448000022
 30
0.0
 11
22172.553524999988
 21
19597.647448000022
 31
0.0
  0
LINE
  5
3F47
  8
2-0
  6
CONTINUOUS
 62
     3
 10
22287.547718999991
 20
19685.538073000022
 30
0.0
 11
22142.555900999989
 21
19685.538073000022
 31
0.0
  0
LINE
  5
3F48
  8
2-0
  6
CONTINUOUS
 62
     6
 10
25006.01620499996
 20
19128.639845500002
 30
0.0
 11
24574.485112999992
 21
18886.485337499991
 31
0.0
  0
LINE
  5
3F49
  8
2-0
  6
CONTINUOUS
 62
     6
 10
25327.58503899995
 20
19828.217813000021
 30
0.0
 11
25868.049037999968
 21
20415.540976000011
 31
0.0
  0
LINE
  5
3F4A
  8
2-0
  6
CONTINUOUS
 62
     6
 10
22257.54613499999
 20
14550.538071999999
 30
0.0
 11
22534.136347999982
 21
15005.882772000001
 31
0.0
  0
LINE
  5
3F4B
  8
2-0
  6
CONTINUOUS
 62
     6
 10
22534.136347999982
 20
15005.882772000001
 30
0.0
 11
23564.485666999961
 21
15005.882772000001
 31
0.0
  0
LINE
  5
3F4C
  8
2-0
  6
CONTINUOUS
 62
     3
 10
25084.539747999981
 20
18492.038533999981
 30
0.0
 11
25131.545395999961
 21
18492.038533999981
 31
0.0
  0
LINE
  5
3F4D
  8
2-0
  6
CONTINUOUS
 62
     3
 10
25131.545395999961
 20
18577.039062
 30
0.0
 11
25084.539747999981
 21
18577.039062
 31
0.0
  0
LINE
  5
3F4E
  8
2-0
  6
CONTINUOUS
 62
     3
 10
25131.545395999961
 20
18492.038533999981
 30
0.0
 11
25131.545395999961
 21
18517.04183300001
 31
0.0
  0
LINE
  5
3F4F
  8
2-0
  6
CONTINUOUS
 62
     3
 10
25131.545395999961
 20
18552.037742000011
 30
0.0
 11
25131.545395999961
 21
18577.039062
 31
0.0
  0
LINE
  5
3F50
  8
2-0
  6
CONTINUOUS
 62
     3
 10
25084.539747999981
 20
18577.039062
 30
0.0
 11
25084.539747999981
 21
18492.038533999981
 31
0.0
  0
LINE
  5
3F51
  8
2-0
  6
CONTINUOUS
 62
     3
 10
25175.544154999981
 20
16288.9392085
 30
0.0
 11
25175.544154999981
 21
15645.375435000011
 31
0.0
  0
LINE
  5
3F52
  8
2-0
  6
CONTINUOUS
 62
     3
 10
25084.539747999981
 20
15574.041504000001
 30
0.0
 11
25131.545395999961
 21
15574.041504000001
 31
0.0
  0
LINE
  5
3F53
  8
2-0
  6
CONTINUOUS
 62
     3
 10
25131.545395999961
 20
15659.03807199999
 30
0.0
 11
25084.539747999981
 21
15659.03807199999
 31
0.0
  0
LINE
  5
3F54
  8
2-0
  6
CONTINUOUS
 62
     3
 10
25131.545395999961
 20
15574.041504000001
 30
0.0
 11
25131.545395999961
 21
15599.03688500001
 31
0.0
  0
LINE
  5
3F55
  8
2-0
  6
CONTINUOUS
 62
     3
 10
25131.545395999961
 20
15634.036753
 30
0.0
 11
25131.545395999961
 21
15659.03807199999
 31
0.0
  0
LINE
  5
3F56
  8
2-0
  6
CONTINUOUS
 62
     3
 10
25084.539747999981
 20
15659.03807199999
 30
0.0
 11
25084.539747999981
 21
15574.041504000001
 31
0.0
  0
LINE
  5
3F57
  8
2-0
  6
CONTINUOUS
 62
     6
 10
22317.824454999991
 20
14701.13390699999
 30
0.0
 11
22257.54613499999
 21
14550.538071999999
 31
0.0
  0
LINE
  5
3F58
  8
2-0
  6
CONTINUOUS
 62
     6
 10
22257.54613499999
 20
14550.538071999999
 30
0.0
 11
22363.404849999952
 21
14673.446381
 31
0.0
  0
LINE
  5
3F59
  8
2-0
  6
CONTINUOUS
 62
     6
 10
22317.824454999991
 20
14701.13390699999
 30
0.0
 11
22363.404849999952
 21
14673.446381
 31
0.0
  0
LINE
  5
3F5A
  8
2-0
  6
CONTINUOUS
 62
     6
 10
22363.404849999952
 20
14673.446381
 30
0.0
 11
22257.54613499999
 21
14550.538071999999
 31
0.0
  0
LINE
  5
3F5B
  8
2-0
  6
CONTINUOUS
 62
     6
 10
22257.54613499999
 20
14550.538071999999
 30
0.0
 11
22317.824454999991
 21
14701.13390699999
 31
0.0
  0
LINE
  5
3F5C
  8
2-0
  6
CONTINUOUS
 62
     6
 10
22317.824454999991
 20
14701.13390699999
 30
0.0
 11
22257.54613499999
 21
14550.538071999999
 31
0.0
  0
LINE
  5
3F5D
  8
2-0
  6
CONTINUOUS
 62
     6
 10
22363.404849999952
 20
14673.446381
 30
0.0
 11
22257.54613499999
 21
14550.538071999999
 31
0.0
  0
LINE
  5
3F5E
  8
2-0
  6
CONTINUOUS
 62
     6
 10
22363.404849999952
 20
14673.446381
 30
0.0
 11
22317.824454999991
 21
14701.13390699999
 31
0.0
  0
LINE
  5
3F5F
  8
2-0
  6
CONTINUOUS
 62
     6
 10
24992.95929999997
 20
19151.8991895
 30
0.0
 11
25145.54653099996
 21
19206.945641499991
 31
0.0
  0
LINE
  5
3F60
  8
2-0
  6
CONTINUOUS
 62
     6
 10
25145.54653099996
 20
19206.945641499991
 30
0.0
 11
25019.06519099998
 21
19105.386441499992
 31
0.0
  0
LINE
  5
3F61
  8
2-0
  6
CONTINUOUS
 62
     6
 10
24992.95929999997
 20
19151.8991895
 30
0.0
 11
25019.06519099998
 21
19105.386441499992
 31
0.0
  0
LINE
  5
3F62
  8
2-0
  6
CONTINUOUS
 62
     6
 10
25019.06519099998
 20
19105.386441499992
 30
0.0
 11
25145.54653099996
 21
19206.945641499991
 31
0.0
  0
LINE
  5
3F63
  8
2-0
  6
CONTINUOUS
 62
     6
 10
25145.54653099996
 20
19206.945641499991
 30
0.0
 11
24992.95929999997
 21
19151.8991895
 31
0.0
  0
LINE
  5
3F64
  8
2-0
  6
CONTINUOUS
 62
     6
 10
24992.95929999997
 20
19151.8991895
 30
0.0
 11
25145.54653099996
 21
19206.945641499991
 31
0.0
  0
LINE
  5
3F65
  8
2-0
  6
CONTINUOUS
 62
     6
 10
25019.06519099998
 20
19105.386441499992
 30
0.0
 11
25145.54653099996
 21
19206.945641499991
 31
0.0
  0
LINE
  5
3F66
  8
2-0
  6
CONTINUOUS
 62
     6
 10
25019.06519099998
 20
19105.386441499992
 30
0.0
 11
24992.95929999997
 21
19151.8991895
 31
0.0
  0
LINE
  5
3F67
  8
2-0
  6
CONTINUOUS
 62
     6
 10
25347.20206799998
 20
19810.15668600002
 30
0.0
 11
25219.240047999981
 21
19710.47406800001
 31
0.0
  0
LINE
  5
3F68
  8
2-0
  6
CONTINUOUS
 62
     6
 10
25219.240047999981
 20
19710.47406800001
 30
0.0
 11
25307.954152999981
 21
19846.271023000001
 31
0.0
  0
LINE
  5
3F69
  8
2-0
  6
CONTINUOUS
 62
     6
 10
25347.20206799998
 20
19810.15668600002
 30
0.0
 11
25307.954152999981
 21
19846.271023000001
 31
0.0
  0
LINE
  5
3F6A
  8
2-0
  6
CONTINUOUS
 62
     6
 10
25307.954152999981
 20
19846.271023000001
 30
0.0
 11
25219.240047999981
 21
19710.47406800001
 31
0.0
  0
LINE
  5
3F6B
  8
2-0
  6
CONTINUOUS
 62
     6
 10
25219.240047999981
 20
19710.47406800001
 30
0.0
 11
25347.20206799998
 21
19810.15668600002
 31
0.0
  0
LINE
  5
3F6C
  8
2-0
  6
CONTINUOUS
 62
     6
 10
25347.20206799998
 20
19810.15668600002
 30
0.0
 11
25219.240047999981
 21
19710.47406800001
 31
0.0
  0
LINE
  5
3F6D
  8
2-0
  6
CONTINUOUS
 62
     6
 10
25307.954152999981
 20
19846.271023000001
 30
0.0
 11
25219.240047999981
 21
19710.47406800001
 31
0.0
  0
LINE
  5
3F6E
  8
2-0
  6
CONTINUOUS
 62
     6
 10
25307.954152999981
 20
19846.271023000001
 30
0.0
 11
25347.20206799998
 21
19810.15668600002
 31
0.0
  0
LINE
  5
3F6F
  8
2-0
  6
CONTINUOUS
 62
     6
 10
20838.981549999971
 20
19437.765691000011
 30
0.0
 11
20970.914483
 21
18968.419856
 31
0.0
  0
LINE
  5
3F70
  8
2-0
  6
CONTINUOUS
 62
     6
 10
20970.914483
 20
18968.419856
 30
0.0
 11
21995.952753999969
 21
18968.419856
 31
0.0
  0
LINE
  5
3F71
  8
2-0
  6
CONTINUOUS
 62
     6
 10
20795.687498999989
 20
19591.794011000009
 30
0.0
 11
20813.30917299998
 21
19430.548366000021
 31
0.0
  0
LINE
  5
3F72
  8
2-0
  6
CONTINUOUS
 62
     6
 10
20864.653925999999
 20
19444.986975000022
 30
0.0
 11
20813.30917299998
 21
19430.548366000021
 31
0.0
  0
LINE
  5
3F73
  8
2-0
  6
CONTINUOUS
 62
     6
 10
20813.30917299998
 20
19430.548366000021
 30
0.0
 11
20795.687498999989
 21
19591.794011000009
 31
0.0
  0
LINE
  5
3F74
  8
2-0
  6
CONTINUOUS
 62
     6
 10
20795.687498999989
 20
19591.794011000009
 30
0.0
 11
20864.653925999999
 21
19444.986975000022
 31
0.0
  0
LINE
  5
3F75
  8
2-0
  6
CONTINUOUS
 62
     6
 10
20864.653925999999
 20
19444.986975000022
 30
0.0
 11
20795.687498999989
 21
19591.794011000009
 31
0.0
  0
LINE
  5
3F76
  8
2-0
  6
CONTINUOUS
 62
     6
 10
20813.30917299998
 20
19430.548366000021
 30
0.0
 11
20795.687498999989
 21
19591.794011000009
 31
0.0
  0
LINE
  5
3F77
  8
2-0
  6
CONTINUOUS
 62
     6
 10
20813.30917299998
 20
19430.548366000021
 30
0.0
 11
20864.653925999999
 21
19444.986975000022
 31
0.0
  0
LINE
  5
3F78
  8
2-0
  6
CONTINUOUS
 62
     6
 10
22256.469276999971
 20
19566.786753000011
 30
0.0
 11
22405.338972000001
 21
19037.164577
 31
0.0
  0
LINE
  5
3F79
  8
2-0
  6
CONTINUOUS
 62
     6
 10
22405.338972000001
 20
19037.164577
 30
0.0
 11
23430.383180999968
 21
19037.164577
 31
0.0
  0
LINE
  5
3F7A
  8
2-0
  6
CONTINUOUS
 62
     6
 10
22274.092930999959
 20
19405.541108000001
 30
0.0
 11
22325.443621999992
 21
19419.975758
 31
0.0
  0
LINE
  5
3F7B
  8
2-0
  6
CONTINUOUS
 62
     6
 10
22325.443621999992
 20
19419.975758
 30
0.0
 11
22274.092930999959
 21
19405.541108000001
 31
0.0
  0
LINE
  5
3F7C
  8
2-0
  6
CONTINUOUS
 62
     6
 10
22274.092930999959
 20
19405.541108000001
 30
0.0
 11
22256.469276999971
 21
19566.786753000011
 31
0.0
  0
LINE
  5
3F7D
  8
2-0
  6
CONTINUOUS
 62
     6
 10
22256.469276999971
 20
19566.786753000011
 30
0.0
 11
22325.443621999992
 21
19419.975758
 31
0.0
  0
LINE
  5
3F7E
  8
2-0
  6
CONTINUOUS
 62
     6
 10
22325.443621999992
 20
19419.975758
 30
0.0
 11
22256.469276999971
 21
19566.786753000011
 31
0.0
  0
LINE
  5
3F7F
  8
2-0
  6
CONTINUOUS
 62
     6
 10
22274.092930999959
 20
19405.541108000001
 30
0.0
 11
22256.469276999971
 21
19566.786753000011
 31
0.0
  0
LINE
  5
3F80
  8
2-0
  6
CONTINUOUS
 62
     6
 10
22325.443621999992
 20
19419.975758
 30
0.0
 11
22256.469276999971
 21
19566.786753000011
 31
0.0
  0
LINE
  5
3F81
  8
2-0
  6
CONTINUOUS
 62
     6
 10
22256.469276999971
 20
19566.786753000011
 30
0.0
 11
22274.092930999959
 21
19405.541108000001
 31
0.0
  0
LINE
  5
3F82
  8
2-0
  6
CONTINUOUS
 62
     4
 10
22215.04587099998
 20
19765.540316000021
 30
0.0
 11
22215.04587099998
 21
20495.537281000012
 31
0.0
  0
LINE
  5
3F83
  8
2-0
  6
CONTINUOUS
 62
     6
 10
24929.22078099996
 20
15527.53469400002
 30
0.0
 11
25084.539747999981
 21
15574.282015000001
 31
0.0
  0
LINE
  5
3F84
  8
2-0
  6
CONTINUOUS
 62
     6
 10
25084.539747999981
 20
15574.282015000001
 30
0.0
 11
24952.779031999959
 21
15479.68973
 31
0.0
  0
LINE
  5
3F85
  8
2-0
  6
CONTINUOUS
 62
     6
 10
24929.22078099996
 20
15527.53469400002
 30
0.0
 11
24952.779031999959
 21
15479.68973
 31
0.0
  0
LINE
  5
3F86
  8
2-0
  6
CONTINUOUS
 62
     6
 10
24952.779031999959
 20
15479.68973
 30
0.0
 11
25084.539747999981
 21
15574.282015000001
 31
0.0
  0
LINE
  5
3F87
  8
2-0
  6
CONTINUOUS
 62
     6
 10
25084.539747999981
 20
15574.282015000001
 30
0.0
 11
24929.22078099996
 21
15527.53469400002
 31
0.0
  0
LINE
  5
3F88
  8
2-0
  6
CONTINUOUS
 62
     6
 10
24929.22078099996
 20
15527.53469400002
 30
0.0
 11
25084.539747999981
 21
15574.282015000001
 31
0.0
  0
LINE
  5
3F89
  8
2-0
  6
CONTINUOUS
 62
     6
 10
24952.779031999959
 20
15479.68973
 30
0.0
 11
25084.539747999981
 21
15574.282015000001
 31
0.0
  0
LINE
  5
3F8A
  8
2-0
  6
CONTINUOUS
 62
     6
 10
24952.779031999959
 20
15479.68973
 30
0.0
 11
24929.22078099996
 21
15527.53469400002
 31
0.0
  0
LINE
  5
3F8B
  8
2-0
  6
CONTINUOUS
 62
     6
 10
24898.906433999971
 20
14357.26975499999
 30
0.0
 11
25030.653292999988
 21
14451.896682000001
 31
0.0
  0
LINE
  5
3F8C
  8
2-0
  6
CONTINUOUS
 62
     6
 10
25030.653292999988
 20
14451.896682000001
 30
0.0
 11
24936.723156999971
 21
14319.657911999981
 31
0.0
  0
LINE
  5
3F8D
  8
2-0
  6
CONTINUOUS
 62
     6
 10
24898.906433999971
 20
14357.26975499999
 30
0.0
 11
24936.723156999971
 21
14319.657911999981
 31
0.0
  0
LINE
  5
3F8E
  8
2-0
  6
CONTINUOUS
 62
     6
 10
24936.723156999971
 20
14319.657911999981
 30
0.0
 11
25030.653292999988
 21
14451.896682000001
 31
0.0
  0
LINE
  5
3F8F
  8
2-0
  6
CONTINUOUS
 62
     6
 10
25030.653292999988
 20
14451.896682000001
 30
0.0
 11
24898.906433999971
 21
14357.26975499999
 31
0.0
  0
LINE
  5
3F90
  8
2-0
  6
CONTINUOUS
 62
     6
 10
24898.906433999971
 20
14357.26975499999
 30
0.0
 11
25030.653292999988
 21
14451.896682000001
 31
0.0
  0
LINE
  5
3F91
  8
2-0
  6
CONTINUOUS
 62
     6
 10
24936.723156999971
 20
14319.657911999981
 30
0.0
 11
25030.653292999988
 21
14451.896682000001
 31
0.0
  0
LINE
  5
3F92
  8
2-0
  6
CONTINUOUS
 62
     6
 10
24936.723156999971
 20
14319.657911999981
 30
0.0
 11
24898.906433999971
 21
14357.26975499999
 31
0.0
  0
LINE
  5
3F93
  8
2-0
  6
CONTINUOUS
 62
     6
 10
24961.942222999962
 20
14684.17438199999
 30
0.0
 11
25094.54225499996
 21
14590.746053999979
 31
0.0
  0
LINE
  5
3F94
  8
2-0
  6
CONTINUOUS
 62
     6
 10
25094.54225499996
 20
14590.746053999979
 30
0.0
 11
24938.809568999961
 21
14636.121568
 31
0.0
  0
LINE
  5
3F95
  8
2-0
  6
CONTINUOUS
 62
     6
 10
24961.942222999962
 20
14684.17438199999
 30
0.0
 11
24938.809568999961
 21
14636.121568
 31
0.0
  0
LINE
  5
3F96
  8
2-0
  6
CONTINUOUS
 62
     6
 10
24938.809568999961
 20
14636.121568
 30
0.0
 11
25094.54225499996
 21
14590.746053999979
 31
0.0
  0
LINE
  5
3F97
  8
2-0
  6
CONTINUOUS
 62
     6
 10
25094.54225499996
 20
14590.746053999979
 30
0.0
 11
24961.942222999962
 21
14684.17438199999
 31
0.0
  0
LINE
  5
3F98
  8
2-0
  6
CONTINUOUS
 62
     6
 10
24961.942222999962
 20
14684.17438199999
 30
0.0
 11
25094.54225499996
 21
14590.746053999979
 31
0.0
  0
LINE
  5
3F99
  8
2-0
  6
CONTINUOUS
 62
     6
 10
24938.809568999961
 20
14636.121568
 30
0.0
 11
25094.54225499996
 21
14590.746053999979
 31
0.0
  0
LINE
  5
3F9A
  8
2-0
  6
CONTINUOUS
 62
     6
 10
24938.809568999961
 20
14636.121568
 30
0.0
 11
24961.942222999962
 21
14684.17438199999
 31
0.0
  0
LINE
  5
3F9B
  8
2-0
  6
CONTINUOUS
 62
     6
 10
25021.705868999969
 20
16713.495315000011
 30
0.0
 11
25175.544154999981
 21
16764.92914600002
 31
0.0
  0
LINE
  5
3F9C
  8
2-0
  6
CONTINUOUS
 62
     6
 10
25175.544154999981
 20
16764.92914600002
 30
0.0
 11
25046.709167999961
 21
16666.388711000011
 31
0.0
  0
LINE
  5
3F9D
  8
2-0
  6
CONTINUOUS
 62
     6
 10
25021.705868999969
 20
16713.495315000011
 30
0.0
 11
25046.709167999961
 21
16666.388711000011
 31
0.0
  0
LINE
  5
3F9E
  8
2-0
  6
CONTINUOUS
 62
     6
 10
25046.709167999961
 20
16666.388711000011
 30
0.0
 11
25175.544154999981
 21
16764.92914600002
 31
0.0
  0
LINE
  5
3F9F
  8
2-0
  6
CONTINUOUS
 62
     6
 10
25175.544154999981
 20
16764.92914600002
 30
0.0
 11
25021.705868999969
 21
16713.495315000011
 31
0.0
  0
LINE
  5
3FA0
  8
2-0
  6
CONTINUOUS
 62
     6
 10
25021.705868999969
 20
16713.495315000011
 30
0.0
 11
25175.544154999981
 21
16764.92914600002
 31
0.0
  0
LINE
  5
3FA1
  8
2-0
  6
CONTINUOUS
 62
     6
 10
25046.709167999961
 20
16666.388711000011
 30
0.0
 11
25175.544154999981
 21
16764.92914600002
 31
0.0
  0
LINE
  5
3FA2
  8
2-0
  6
CONTINUOUS
 62
     6
 10
25046.709167999961
 20
16666.388711000011
 30
0.0
 11
25021.705868999969
 21
16713.495315000011
 31
0.0
  0
LINE
  5
3FA3
  8
2-0
  6
CONTINUOUS
 62
     6
 10
24887.769661999981
 20
17204.81380700002
 30
0.0
 11
25030.653292999988
 21
17128.038177999999
 31
0.0
  0
LINE
  5
3FA4
  8
2-0
  6
CONTINUOUS
 62
     6
 10
25030.653292999988
 20
17128.038177999999
 30
0.0
 11
24870.591399999968
 21
17154.320247000011
 31
0.0
  0
LINE
  5
3FA5
  8
2-0
  6
CONTINUOUS
 62
     6
 10
24887.769661999981
 20
17204.81380700002
 30
0.0
 11
24870.591399999968
 21
17154.320247000011
 31
0.0
  0
LINE
  5
3FA6
  8
2-0
  6
CONTINUOUS
 62
     6
 10
24870.591399999968
 20
17154.320247000011
 30
0.0
 11
25030.653292999988
 21
17128.038177999999
 31
0.0
  0
LINE
  5
3FA7
  8
2-0
  6
CONTINUOUS
 62
     6
 10
25030.653292999988
 20
17128.038177999999
 30
0.0
 11
24887.769661999981
 21
17204.81380700002
 31
0.0
  0
LINE
  5
3FA8
  8
2-0
  6
CONTINUOUS
 62
     6
 10
24887.769661999981
 20
17204.81380700002
 30
0.0
 11
25030.653292999988
 21
17128.038177999999
 31
0.0
  0
LINE
  5
3FA9
  8
2-0
  6
CONTINUOUS
 62
     6
 10
24870.591399999968
 20
17154.320247000011
 30
0.0
 11
25030.653292999988
 21
17128.038177999999
 31
0.0
  0
LINE
  5
3FAA
  8
2-0
  6
CONTINUOUS
 62
     6
 10
24870.591399999968
 20
17154.320247000011
 30
0.0
 11
24887.769661999981
 21
17204.81380700002
 31
0.0
  0
LINE
  5
3FAB
  8
2-0
  6
CONTINUOUS
 62
     6
 10
24929.22078099996
 20
18445.294182000001
 30
0.0
 11
25084.539747999981
 21
18492.038533999981
 31
0.0
  0
LINE
  5
3FAC
  8
2-0
  6
CONTINUOUS
 62
     6
 10
25084.539747999981
 20
18492.038533999981
 30
0.0
 11
24952.779031999959
 21
18397.44328
 31
0.0
  0
LINE
  5
3FAD
  8
2-0
  6
CONTINUOUS
 62
     6
 10
24929.22078099996
 20
18445.294182000001
 30
0.0
 11
24952.779031999959
 21
18397.44328
 31
0.0
  0
LINE
  5
3FAE
  8
2-0
  6
CONTINUOUS
 62
     6
 10
24952.779031999959
 20
18397.44328
 30
0.0
 11
25084.539747999981
 21
18492.038533999981
 31
0.0
  0
LINE
  5
3FAF
  8
2-0
  6
CONTINUOUS
 62
     6
 10
25084.539747999981
 20
18492.038533999981
 30
0.0
 11
24929.22078099996
 21
18445.294182000001
 31
0.0
  0
LINE
  5
3FB0
  8
2-0
  6
CONTINUOUS
 62
     6
 10
24929.22078099996
 20
18445.294182000001
 30
0.0
 11
25084.539747999981
 21
18492.038533999981
 31
0.0
  0
LINE
  5
3FB1
  8
2-0
  6
CONTINUOUS
 62
     6
 10
24952.779031999959
 20
18397.44328
 30
0.0
 11
25084.539747999981
 21
18492.038533999981
 31
0.0
  0
LINE
  5
3FB2
  8
2-0
  6
CONTINUOUS
 62
     6
 10
24952.779031999959
 20
18397.44328
 30
0.0
 11
24929.22078099996
 21
18445.294182000001
 31
0.0
  0
LINE
  5
3FB3
  8
2-0
  6
CONTINUOUS
 62
     3
 10
21475.546451999959
 20
19685.538073000022
 30
0.0
 11
21438.54528999998
 21
19685.538073000022
 31
0.0
  0
LINE
  5
3FB4
  8
2-0
  6
CONTINUOUS
 62
     3
 10
21475.546451999959
 20
19655.534510000001
 30
0.0
 11
21475.546451999959
 21
19685.538073000022
 31
0.0
  0
LINE
  5
3FB5
  8
2-0
  6
CONTINUOUS
 62
     3
 10
21469.546530999949
 20
19655.534510000001
 30
0.0
 11
21475.546451999959
 21
19655.534510000001
 31
0.0
  0
LINE
  5
3FB6
  8
2-0
  6
CONTINUOUS
 62
     3
 10
21485.643975999981
 20
19655.534510000001
 30
0.0
 11
21485.643975999981
 21
19685.538073000022
 31
0.0
  0
LINE
  5
3FB7
  8
2-0
  6
CONTINUOUS
 62
     3
 10
21467.640254999991
 20
19655.534510000001
 30
0.0
 11
21485.643975999981
 21
19655.534510000001
 31
0.0
  0
LINE
  5
3FB8
  8
2-0
  6
CONTINUOUS
 62
     3
 10
21467.640254999991
 20
19680.543747000011
 30
0.0
 11
21467.640254999991
 21
19655.534510000001
 31
0.0
  0
LINE
  5
3FB9
  8
2-0
  6
CONTINUOUS
 62
     3
 10
21472.640518999971
 20
19680.543747000011
 30
0.0
 11
21467.640254999991
 21
19680.543747000011
 31
0.0
  0
LINE
  5
3FBA
  8
2-0
  6
CONTINUOUS
 62
     3
 10
21472.640518999971
 20
19673.538230999999
 30
0.0
 11
21472.640518999971
 21
19680.543747000011
 31
0.0
  0
LINE
  5
3FBB
  8
2-0
  6
CONTINUOUS
 62
     3
 10
21441.45122399996
 20
19673.538230999999
 30
0.0
 11
21441.45122399996
 21
19680.543747000011
 31
0.0
  0
LINE
  5
3FBC
  8
2-0
  6
CONTINUOUS
 62
     3
 10
21441.45122399996
 20
19680.543747000011
 30
0.0
 11
21446.451487999981
 21
19680.543747000011
 31
0.0
  0
LINE
  5
3FBD
  8
2-0
  6
CONTINUOUS
 62
     3
 10
21446.451487999981
 20
19680.543747000011
 30
0.0
 11
21446.451487999981
 21
19655.534510000001
 31
0.0
  0
LINE
  5
3FBE
  8
2-0
  6
CONTINUOUS
 62
     3
 10
21446.451487999981
 20
19655.534510000001
 30
0.0
 11
21428.451724999992
 21
19655.534510000001
 31
0.0
  0
LINE
  5
3FBF
  8
2-0
  6
CONTINUOUS
 62
     3
 10
21428.451724999992
 20
19655.534510000001
 30
0.0
 11
21428.451724999992
 21
19685.538073000022
 31
0.0
  0
LINE
  5
3FC0
  8
2-0
  6
CONTINUOUS
 62
     3
 10
21444.545210999971
 20
19655.534510000001
 30
0.0
 11
21438.54528999998
 21
19655.534510000001
 31
0.0
  0
LINE
  5
3FC1
  8
2-0
  6
CONTINUOUS
 62
     3
 10
21438.54528999998
 20
19655.534510000001
 30
0.0
 11
21438.54528999998
 21
19685.538073000022
 31
0.0
  0
LINE
  5
3FC2
  8
2-0
  6
CONTINUOUS
 62
     3
 10
19284.547190999969
 20
19576.537862000001
 30
0.0
 11
19284.547190999969
 21
19570.5419
 31
0.0
  0
LINE
  5
3FC3
  8
2-0
  6
CONTINUOUS
 62
     3
 10
19284.547190999969
 20
19570.5419
 30
0.0
 11
19254.549565999969
 21
19570.5419
 31
0.0
  0
LINE
  5
3FC4
  8
2-0
  6
CONTINUOUS
 62
     3
 10
19254.549565999969
 20
19570.5419
 30
0.0
 11
19254.549565999969
 21
19685.538073000022
 31
0.0
  0
LINE
  5
3FC5
  8
2-0
  6
CONTINUOUS
 62
     3
 10
19254.549565999969
 20
19600.541504000001
 30
0.0
 11
19335.547506999981
 21
19600.541504000001
 31
0.0
  0
LINE
  5
3FC6
  8
2-0
  6
CONTINUOUS
 62
     3
 10
19284.547190999969
 20
19560.244444
 30
0.0
 11
19254.549565999969
 21
19560.244444
 31
0.0
  0
LINE
  5
3FC7
  8
2-0
  6
CONTINUOUS
 62
     3
 10
19284.547190999969
 20
19578.246186000011
 30
0.0
 11
19284.547190999969
 21
19560.244444
 31
0.0
  0
LINE
  5
3FC8
  8
2-0
  6
CONTINUOUS
 62
     3
 10
19259.553788999969
 20
19578.246186000011
 30
0.0
 11
19284.547190999969
 21
19578.246186000011
 31
0.0
  0
LINE
  5
3FC9
  8
2-0
  6
CONTINUOUS
 62
     3
 10
19259.553788999969
 20
19573.238004000021
 30
0.0
 11
19259.553788999969
 21
19578.246186000011
 31
0.0
  0
LINE
  5
3FCA
  8
2-0
  6
CONTINUOUS
 62
     3
 10
19266.551386999949
 20
19573.238004000021
 30
0.0
 11
19259.553788999969
 21
19573.238004000021
 31
0.0
  0
LINE
  5
3FCB
  8
2-0
  6
CONTINUOUS
 62
     3
 10
19366.84567599995
 20
19673.538230999999
 30
0.0
 11
19366.84567599995
 21
19680.543747000011
 31
0.0
  0
LINE
  5
3FCC
  8
2-0
  6
CONTINUOUS
 62
     3
 10
19366.84567599995
 20
19680.543747000011
 30
0.0
 11
19361.843431999969
 21
19680.543747000011
 31
0.0
  0
LINE
  5
3FCD
  8
2-0
  6
CONTINUOUS
 62
     3
 10
19361.843431999969
 20
19680.543747000011
 30
0.0
 11
19361.843431999969
 21
19655.534510000001
 31
0.0
  0
LINE
  5
3FCE
  8
2-0
  6
CONTINUOUS
 62
     3
 10
19361.843431999969
 20
19655.534510000001
 30
0.0
 11
19379.851112999939
 21
19655.534510000001
 31
0.0
  0
LINE
  5
3FCF
  8
2-0
  6
CONTINUOUS
 62
     3
 10
19379.851112999939
 20
19655.534510000001
 30
0.0
 11
19379.851112999939
 21
19685.538073000022
 31
0.0
  0
LINE
  5
3FD0
  8
2-0
  6
CONTINUOUS
 62
     3
 10
19369.551676999981
 20
19685.538073000022
 30
0.0
 11
19254.549565999969
 21
19685.538073000022
 31
0.0
  0
LINE
  5
3FD1
  8
2-0
  6
CONTINUOUS
 62
     3
 10
19369.551676999981
 20
19655.534510000001
 30
0.0
 11
19369.551676999981
 21
19685.538073000022
 31
0.0
  0
LINE
  5
3FD2
  8
2-0
  6
CONTINUOUS
 62
     3
 10
19363.547797999981
 20
19655.534510000001
 30
0.0
 11
19369.551676999981
 21
19655.534510000001
 31
0.0
  0
LINE
  5
3FD3
  8
2-0
  6
CONTINUOUS
 62
     3
 10
20070.63556949998
 20
19673.538230999999
 30
0.0
 11
20070.63556949998
 21
19680.543747000011
 31
0.0
  0
LINE
  5
3FD4
  8
2-0
  6
CONTINUOUS
 62
     3
 10
20070.63556949998
 20
19680.543747000011
 30
0.0
 11
20065.635305499982
 21
19680.543747000011
 31
0.0
  0
LINE
  5
3FD5
  8
2-0
  6
CONTINUOUS
 62
     3
 10
20065.635305499982
 20
19680.543747000011
 30
0.0
 11
20065.635305499982
 21
19655.534510000001
 31
0.0
  0
LINE
  5
3FD6
  8
2-0
  6
CONTINUOUS
 62
     3
 10
20065.635305499982
 20
19655.534510000001
 30
0.0
 11
20083.641006499969
 21
19655.534510000001
 31
0.0
  0
LINE
  5
3FD7
  8
2-0
  6
CONTINUOUS
 62
     3
 10
20083.641006499969
 20
19655.534510000001
 30
0.0
 11
20083.641006499969
 21
19685.538073000022
 31
0.0
  0
LINE
  5
3FD8
  8
2-0
  6
CONTINUOUS
 62
     3
 10
20067.543561499959
 20
19655.534510000001
 30
0.0
 11
20073.545461499969
 21
19655.534510000001
 31
0.0
  0
LINE
  5
3FD9
  8
2-0
  6
CONTINUOUS
 62
     3
 10
20073.545461499969
 20
19655.534510000001
 30
0.0
 11
20073.545461499969
 21
19685.538073000022
 31
0.0
  0
LINE
  5
3FDA
  8
2-0
  6
CONTINUOUS
 62
     3
 10
20036.546280499959
 20
19685.538073000022
 30
0.0
 11
20073.545461499969
 21
19685.538073000022
 31
0.0
  0
LINE
  5
3FDB
  8
2-0
  6
CONTINUOUS
 62
     3
 10
20036.546280499959
 20
19655.534510000001
 30
0.0
 11
20036.546280499959
 21
19685.538073000022
 31
0.0
  0
LINE
  5
3FDC
  8
2-0
  6
CONTINUOUS
 62
     3
 10
20042.540262499981
 20
19655.534510000001
 30
0.0
 11
20036.546280499959
 21
19655.534510000001
 31
0.0
  0
LINE
  5
3FDD
  8
2-0
  6
CONTINUOUS
 62
     3
 10
20026.450735499981
 20
19655.534510000001
 30
0.0
 11
20026.450735499981
 21
19685.538073000022
 31
0.0
  0
LINE
  5
3FDE
  8
2-0
  6
CONTINUOUS
 62
     3
 10
20044.446538499971
 20
19655.534510000001
 30
0.0
 11
20026.450735499981
 21
19655.534510000001
 31
0.0
  0
LINE
  5
3FDF
  8
2-0
  6
CONTINUOUS
 62
     3
 10
20044.446538499971
 20
19680.543747000011
 30
0.0
 11
20044.446538499971
 21
19655.534510000001
 31
0.0
  0
LINE
  5
3FE0
  8
2-0
  6
CONTINUOUS
 62
     3
 10
20039.446274499969
 20
19680.543747000011
 30
0.0
 11
20044.446538499971
 21
19680.543747000011
 31
0.0
  0
LINE
  5
3FE1
  8
2-0
  6
CONTINUOUS
 62
     3
 10
20039.446274499969
 20
19673.538230999999
 30
0.0
 11
20039.446274499969
 21
19680.543747000011
 31
0.0
  0
LINE
  5
3FE2
  8
2-0
  6
CONTINUOUS
 62
     3
 10
20740.44528549998
 20
19673.538230999999
 30
0.0
 11
20740.44528549998
 21
19680.543747000011
 31
0.0
  0
LINE
  5
3FE3
  8
2-0
  6
CONTINUOUS
 62
     3
 10
20740.44528549998
 20
19680.543747000011
 30
0.0
 11
20745.445548499982
 21
19680.543747000011
 31
0.0
  0
LINE
  5
3FE4
  8
2-0
  6
CONTINUOUS
 62
     3
 10
20745.445548499982
 20
19680.543747000011
 30
0.0
 11
20745.445548499982
 21
19655.534510000001
 31
0.0
  0
LINE
  5
3FE5
  8
2-0
  6
CONTINUOUS
 62
     3
 10
20745.445548499982
 20
19655.534510000001
 30
0.0
 11
20727.45172549997
 21
19655.534510000001
 31
0.0
  0
LINE
  5
3FE6
  8
2-0
  6
CONTINUOUS
 62
     3
 10
20727.45172549997
 20
19655.534510000001
 30
0.0
 11
20727.45172549997
 21
19685.538073000022
 31
0.0
  0
LINE
  5
3FE7
  8
2-0
  6
CONTINUOUS
 62
     3
 10
20743.543231499971
 20
19655.534510000001
 30
0.0
 11
20737.54529049998
 21
19655.534510000001
 31
0.0
  0
LINE
  5
3FE8
  8
2-0
  6
CONTINUOUS
 62
     3
 10
20737.54529049998
 20
19655.534510000001
 30
0.0
 11
20737.54529049998
 21
19685.538073000022
 31
0.0
  0
LINE
  5
3FE9
  8
2-0
  6
CONTINUOUS
 62
     3
 10
20774.54645149998
 20
19685.538073000022
 30
0.0
 11
20737.54529049998
 21
19685.538073000022
 31
0.0
  0
LINE
  5
3FEA
  8
2-0
  6
CONTINUOUS
 62
     3
 10
20774.54645149998
 20
19655.534510000001
 30
0.0
 11
20774.54645149998
 21
19685.538073000022
 31
0.0
  0
LINE
  5
3FEB
  8
2-0
  6
CONTINUOUS
 62
     3
 10
20768.54059249998
 20
19655.534510000001
 30
0.0
 11
20774.54645149998
 21
19655.534510000001
 31
0.0
  0
LINE
  5
3FEC
  8
2-0
  6
CONTINUOUS
 62
     3
 10
20784.640016499969
 20
19655.534510000001
 30
0.0
 11
20784.640016499969
 21
19685.538073000022
 31
0.0
  0
LINE
  5
3FED
  8
2-0
  6
CONTINUOUS
 62
     3
 10
20766.644213499982
 20
19655.534510000001
 30
0.0
 11
20784.640016499969
 21
19655.534510000001
 31
0.0
  0
LINE
  5
3FEE
  8
2-0
  6
CONTINUOUS
 62
     3
 10
20766.644213499982
 20
19680.543747000011
 30
0.0
 11
20766.644213499982
 21
19655.534510000001
 31
0.0
  0
LINE
  5
3FEF
  8
2-0
  6
CONTINUOUS
 62
     3
 10
20771.63457949998
 20
19680.543747000011
 30
0.0
 11
20766.644213499982
 21
19680.543747000011
 31
0.0
  0
LINE
  5
3FF0
  8
2-0
  6
CONTINUOUS
 62
     3
 10
20771.63457949998
 20
19673.538230999999
 30
0.0
 11
20771.63457949998
 21
19680.543747000011
 31
0.0
  0
LINE
  5
3FF1
  8
2-0
  6
CONTINUOUS
 62
     3
 10
20083.641006499969
 20
19685.538073000022
 30
0.0
 11
20727.45172549997
 21
19685.538073000022
 31
0.0
  0
LINE
  5
3FF2
  8
2-0
  6
CONTINUOUS
 62
     3
 10
19379.851112999939
 20
19685.538073000022
 30
0.0
 11
20026.450735499981
 21
19685.538073000022
 31
0.0
  0
LINE
  5
3FF3
  8
2-0
  6
CONTINUOUS
 62
     3
 10
21428.451724999992
 20
19685.538073000022
 30
0.0
 11
20784.640016499969
 21
19685.538073000022
 31
0.0
  0
LINE
  5
3FF4
  8
2-0
  6
CONTINUOUS
 62
     3
 10
19284.547190999969
 20
19576.537862000001
 30
0.0
 11
19284.547190999969
 21
19570.5419
 31
0.0
  0
LINE
  5
3FF5
  8
2-0
  6
CONTINUOUS
 62
     3
 10
19284.547190999969
 20
19570.5419
 30
0.0
 11
19254.549565999969
 21
19570.5419
 31
0.0
  0
LINE
  5
3FF6
  8
2-0
  6
CONTINUOUS
 62
     3
 10
19254.549565999969
 20
19570.5419
 30
0.0
 11
19254.549565999969
 21
19685.538073000022
 31
0.0
  0
LINE
  5
3FF7
  8
2-0
  6
CONTINUOUS
 62
     3
 10
19254.549565999969
 20
19600.541504000001
 30
0.0
 11
19335.547506999981
 21
19600.541504000001
 31
0.0
  0
LINE
  5
3FF8
  8
2-0
  6
CONTINUOUS
 62
     3
 10
19284.547190999969
 20
19560.244444
 30
0.0
 11
19254.549565999969
 21
19560.244444
 31
0.0
  0
LINE
  5
3FF9
  8
2-0
  6
CONTINUOUS
 62
     3
 10
19284.547190999969
 20
19578.246186000011
 30
0.0
 11
19284.547190999969
 21
19560.244444
 31
0.0
  0
LINE
  5
3FFA
  8
2-0
  6
CONTINUOUS
 62
     3
 10
19259.553788999969
 20
19578.246186000011
 30
0.0
 11
19284.547190999969
 21
19578.246186000011
 31
0.0
  0
LINE
  5
3FFB
  8
2-0
  6
CONTINUOUS
 62
     3
 10
19259.553788999969
 20
19573.238004000021
 30
0.0
 11
19259.553788999969
 21
19578.246186000011
 31
0.0
  0
LINE
  5
3FFC
  8
2-0
  6
CONTINUOUS
 62
     3
 10
19266.551386999949
 20
19573.238004000021
 30
0.0
 11
19259.553788999969
 21
19573.238004000021
 31
0.0
  0
LINE
  5
3FFD
  8
2-0
  6
CONTINUOUS
 62
     3
 10
19266.551386999949
 20
19219.941181499991
 30
0.0
 11
19259.553788999969
 21
19219.941181499991
 31
0.0
  0
LINE
  5
3FFE
  8
2-0
  6
CONTINUOUS
 62
     3
 10
19259.553788999969
 20
19219.941181499991
 30
0.0
 11
19259.553788999969
 21
19224.941445500001
 31
0.0
  0
LINE
  5
3FFF
  8
2-0
  6
CONTINUOUS
 62
     3
 10
19259.553788999969
 20
19224.941445500001
 30
0.0
 11
19284.547190999969
 21
19224.941445500001
 31
0.0
  0
LINE
  5
4000
  8
2-0
  6
CONTINUOUS
 62
     3
 10
19284.547190999969
 20
19224.941445500001
 30
0.0
 11
19284.547190999969
 21
19206.945641499991
 31
0.0
  0
LINE
  5
4001
  8
2-0
  6
CONTINUOUS
 62
     3
 10
19284.547190999969
 20
19206.945641499991
 30
0.0
 11
19254.549565999969
 21
19206.945641499991
 31
0.0
  0
LINE
  5
4002
  8
2-0
  6
CONTINUOUS
 62
     3
 10
19284.547190999969
 20
19223.037148499981
 30
0.0
 11
19284.547190999969
 21
19217.039207500002
 31
0.0
  0
LINE
  5
4003
  8
2-0
  6
CONTINUOUS
 62
     3
 10
19284.547190999969
 20
19217.039207500002
 30
0.0
 11
19254.549565999969
 21
19217.039207500002
 31
0.0
  0
LINE
  5
4004
  8
2-0
  6
CONTINUOUS
 62
     3
 10
19254.549565999969
 20
19217.039207500002
 30
0.0
 11
19254.549565999969
 21
19254.040368499991
 31
0.0
  0
LINE
  5
4005
  8
2-0
  6
CONTINUOUS
 62
     3
 10
19284.547190999969
 20
19254.040368499991
 30
0.0
 11
19254.549565999969
 21
19254.040368499991
 31
0.0
  0
LINE
  5
4006
  8
2-0
  6
CONTINUOUS
 62
     3
 10
19284.547190999969
 20
19248.036488499991
 30
0.0
 11
19284.547190999969
 21
19254.040368499991
 31
0.0
  0
LINE
  5
4007
  8
2-0
  6
CONTINUOUS
 62
     3
 10
19284.547190999969
 20
19264.135913499991
 30
0.0
 11
19254.549565999969
 21
19264.135913499991
 31
0.0
  0
LINE
  5
4008
  8
2-0
  6
CONTINUOUS
 62
     3
 10
19284.547190999969
 20
19246.134171500002
 30
0.0
 11
19284.547190999969
 21
19264.135913499991
 31
0.0
  0
LINE
  5
4009
  8
2-0
  6
CONTINUOUS
 62
     3
 10
19259.553788999969
 20
19246.134171500002
 30
0.0
 11
19284.547190999969
 21
19246.134171500002
 31
0.0
  0
LINE
  5
400A
  8
2-0
  6
CONTINUOUS
 62
     3
 10
19259.553788999969
 20
19251.134435499978
 30
0.0
 11
19259.553788999969
 21
19246.134171500002
 31
0.0
  0
LINE
  5
400B
  8
2-0
  6
CONTINUOUS
 62
     3
 10
19266.551386999949
 20
19251.134435499978
 30
0.0
 11
19259.553788999969
 21
19251.134435499978
 31
0.0
  0
LINE
  5
400C
  8
2-0
  6
CONTINUOUS
 62
     3
 10
19266.551386999949
 20
18518.940191999998
 30
0.0
 11
19259.553788999969
 21
18518.940191999998
 31
0.0
  0
LINE
  5
400D
  8
2-0
  6
CONTINUOUS
 62
     3
 10
19259.553788999969
 20
18518.940191999998
 30
0.0
 11
19259.553788999969
 21
18523.946393999991
 31
0.0
  0
LINE
  5
400E
  8
2-0
  6
CONTINUOUS
 62
     3
 10
19259.553788999969
 20
18523.946393999991
 30
0.0
 11
19284.547190999969
 21
18523.946393999991
 31
0.0
  0
LINE
  5
400F
  8
2-0
  6
CONTINUOUS
 62
     3
 10
19284.547190999969
 20
18523.946393999991
 30
0.0
 11
19284.547190999969
 21
18505.944651999998
 31
0.0
  0
LINE
  5
4010
  8
2-0
  6
CONTINUOUS
 62
     3
 10
19284.547190999969
 20
18505.944651999998
 30
0.0
 11
19254.549565999969
 21
18505.944651999998
 31
0.0
  0
LINE
  5
4011
  8
2-0
  6
CONTINUOUS
 62
     3
 10
19284.547190999969
 20
18522.036158999981
 30
0.0
 11
19284.547190999969
 21
18516.040196999991
 31
0.0
  0
LINE
  5
4012
  8
2-0
  6
CONTINUOUS
 62
     3
 10
19284.547190999969
 20
18516.040196999991
 30
0.0
 11
19254.549565999969
 21
18516.040196999991
 31
0.0
  0
LINE
  5
4013
  8
2-0
  6
CONTINUOUS
 62
     3
 10
19254.549565999969
 20
18516.040196999991
 30
0.0
 11
19254.549565999969
 21
18553.039379000002
 31
0.0
  0
LINE
  5
4014
  8
2-0
  6
CONTINUOUS
 62
     3
 10
19284.547190999969
 20
18553.039379000002
 30
0.0
 11
19254.549565999969
 21
18553.039379000002
 31
0.0
  0
LINE
  5
4015
  8
2-0
  6
CONTINUOUS
 62
     3
 10
19284.547190999969
 20
18547.043416999979
 30
0.0
 11
19284.547190999969
 21
18553.039379000002
 31
0.0
  0
LINE
  5
4016
  8
2-0
  6
CONTINUOUS
 62
     3
 10
19284.547190999969
 20
18563.134924000002
 30
0.0
 11
19254.549565999969
 21
18563.134924000002
 31
0.0
  0
LINE
  5
4017
  8
2-0
  6
CONTINUOUS
 62
     3
 10
19284.547190999969
 20
18545.133182000001
 30
0.0
 11
19284.547190999969
 21
18563.134924000002
 31
0.0
  0
LINE
  5
4018
  8
2-0
  6
CONTINUOUS
 62
     3
 10
19259.553788999969
 20
18545.133182000001
 30
0.0
 11
19284.547190999969
 21
18545.133182000001
 31
0.0
  0
LINE
  5
4019
  8
2-0
  6
CONTINUOUS
 62
     3
 10
19259.553788999969
 20
18550.139383999991
 30
0.0
 11
19259.553788999969
 21
18545.133182000001
 31
0.0
  0
LINE
  5
401A
  8
2-0
  6
CONTINUOUS
 62
     3
 10
19266.551386999949
 20
18550.139383999991
 30
0.0
 11
19259.553788999969
 21
18550.139383999991
 31
0.0
  0
LINE
  5
401B
  8
2-0
  6
CONTINUOUS
 62
     3
 10
19266.551386999949
 20
17849.133446
 30
0.0
 11
19259.553788999969
 21
17849.133446
 31
0.0
  0
LINE
  5
401C
  8
2-0
  6
CONTINUOUS
 62
     3
 10
19259.553788999969
 20
17849.133446
 30
0.0
 11
19259.553788999969
 21
17844.145058999991
 31
0.0
  0
LINE
  5
401D
  8
2-0
  6
CONTINUOUS
 62
     3
 10
19259.553788999969
 20
17844.145058999991
 30
0.0
 11
19284.547190999969
 21
17844.145058999991
 31
0.0
  0
LINE
  5
401E
  8
2-0
  6
CONTINUOUS
 62
     3
 10
19284.547190999969
 20
17844.145058999991
 30
0.0
 11
19284.547190999969
 21
17862.140862
 31
0.0
  0
LINE
  5
401F
  8
2-0
  6
CONTINUOUS
 62
     3
 10
19284.547190999969
 20
17862.140862
 30
0.0
 11
19254.549565999969
 21
17862.140862
 31
0.0
  0
LINE
  5
4020
  8
2-0
  6
CONTINUOUS
 62
     3
 10
19284.547190999969
 20
17846.04341699999
 30
0.0
 11
19284.547190999969
 21
17852.039378999991
 31
0.0
  0
LINE
  5
4021
  8
2-0
  6
CONTINUOUS
 62
     3
 10
19284.547190999969
 20
17852.039378999991
 30
0.0
 11
19254.549565999969
 21
17852.039378999991
 31
0.0
  0
LINE
  5
4022
  8
2-0
  6
CONTINUOUS
 62
     3
 10
19254.549565999969
 20
17852.039378999991
 30
0.0
 11
19254.549565999969
 21
17815.040196999991
 31
0.0
  0
LINE
  5
4023
  8
2-0
  6
CONTINUOUS
 62
     3
 10
19284.547190999969
 20
17815.040196999991
 30
0.0
 11
19254.549565999969
 21
17815.040196999991
 31
0.0
  0
LINE
  5
4024
  8
2-0
  6
CONTINUOUS
 62
     3
 10
19284.547190999969
 20
17821.042097999991
 30
0.0
 11
19284.547190999969
 21
17815.040196999991
 31
0.0
  0
LINE
  5
4025
  8
2-0
  6
CONTINUOUS
 62
     3
 10
19284.547190999969
 20
17804.950591000001
 30
0.0
 11
19254.549565999969
 21
17804.950591000001
 31
0.0
  0
LINE
  5
4026
  8
2-0
  6
CONTINUOUS
 62
     3
 10
19284.547190999969
 20
17822.946393999991
 30
0.0
 11
19284.547190999969
 21
17804.950591000001
 31
0.0
  0
LINE
  5
4027
  8
2-0
  6
CONTINUOUS
 62
     3
 10
19259.553788999969
 20
17822.946393999991
 30
0.0
 11
19284.547190999969
 21
17822.946393999991
 31
0.0
  0
LINE
  5
4028
  8
2-0
  6
CONTINUOUS
 62
     3
 10
19259.553788999969
 20
17817.946131000001
 30
0.0
 11
19259.553788999969
 21
17822.946393999991
 31
0.0
  0
LINE
  5
4029
  8
2-0
  6
CONTINUOUS
 62
     3
 10
19266.551386999949
 20
17817.946131000001
 30
0.0
 11
19259.553788999969
 21
17817.946131000001
 31
0.0
  0
LINE
  5
402A
  8
2-0
  6
CONTINUOUS
 62
     3
 10
19257.435703999981
 20
17098.037016999999
 30
0.0
 11
19257.435703999981
 21
17118.038071999988
 31
0.0
  0
LINE
  5
402B
  8
2-0
  6
CONTINUOUS
 62
     3
 10
19257.435703999981
 20
17118.038071999988
 30
0.0
 11
19342.43623199996
 21
17118.038071999988
 31
0.0
  0
LINE
  5
402C
  8
2-0
  6
CONTINUOUS
 62
     3
 10
19266.551386999949
 20
17144.64478200001
 30
0.0
 11
19259.553788999969
 21
17144.64478200001
 31
0.0
  0
LINE
  5
402D
  8
2-0
  6
CONTINUOUS
 62
     3
 10
19259.553788999969
 20
17144.64478200001
 30
0.0
 11
19259.553788999969
 21
17139.65045600001
 31
0.0
  0
LINE
  5
402E
  8
2-0
  6
CONTINUOUS
 62
     3
 10
19259.553788999969
 20
17139.65045600001
 30
0.0
 11
19284.547190999969
 21
17139.65045600001
 31
0.0
  0
LINE
  5
402F
  8
2-0
  6
CONTINUOUS
 62
     3
 10
19284.547190999969
 20
17139.65045600001
 30
0.0
 11
19284.547190999969
 21
17157.646260000001
 31
0.0
  0
LINE
  5
4030
  8
2-0
  6
CONTINUOUS
 62
     3
 10
19284.547190999969
 20
17157.646260000001
 30
0.0
 11
19254.549565999969
 21
17157.646260000001
 31
0.0
  0
LINE
  5
4031
  8
2-0
  6
CONTINUOUS
 62
     3
 10
19284.547190999969
 20
17148.037676
 30
0.0
 11
19284.547190999969
 21
17142.035776000001
 31
0.0
  0
LINE
  5
4032
  8
2-0
  6
CONTINUOUS
 62
     3
 10
19254.549565999969
 20
17148.037676
 30
0.0
 11
19284.547190999969
 21
17148.037676
 31
0.0
  0
LINE
  5
4033
  8
2-0
  6
CONTINUOUS
 62
     3
 10
19254.549565999969
 20
17157.646260000001
 30
0.0
 11
19254.549565999969
 21
17804.950591000001
 31
0.0
  0
LINE
  5
4034
  8
2-0
  6
CONTINUOUS
 62
     3
 10
19254.549565999969
 20
17862.140862
 30
0.0
 11
19254.549565999969
 21
18505.944651999998
 31
0.0
  0
LINE
  5
4035
  8
2-0
  6
CONTINUOUS
 62
     3
 10
19254.549565999969
 20
17003.035961000009
 30
0.0
 11
19284.547190999969
 21
17003.035961000009
 31
0.0
  0
LINE
  5
4036
  8
2-0
  6
CONTINUOUS
 62
     3
 10
19284.547190999969
 20
17003.035961000009
 30
0.0
 11
19284.547190999969
 21
17009.037861000012
 31
0.0
  0
LINE
  5
4037
  8
2-0
  6
CONTINUOUS
 62
     3
 10
19342.43623199996
 20
17033.041504000012
 30
0.0
 11
19257.435703999981
 21
17033.041504000012
 31
0.0
  0
LINE
  5
4038
  8
2-0
  6
CONTINUOUS
 62
     3
 10
19257.435703999981
 20
17033.041504000012
 30
0.0
 11
19257.435703999981
 21
17053.03662100001
 31
0.0
  0
LINE
  5
4039
  8
2-0
  6
CONTINUOUS
 62
     3
 10
19284.547190999969
 20
16993.427378000011
 30
0.0
 11
19254.549565999969
 21
16993.427378000011
 31
0.0
  0
LINE
  5
403A
  8
2-0
  6
CONTINUOUS
 62
     3
 10
19284.547190999969
 20
17011.423180999991
 30
0.0
 11
19284.547190999969
 21
16993.427378000011
 31
0.0
  0
LINE
  5
403B
  8
2-0
  6
CONTINUOUS
 62
     3
 10
19259.553788999969
 20
17011.423180999991
 30
0.0
 11
19284.547190999969
 21
17011.423180999991
 31
0.0
  0
LINE
  5
403C
  8
2-0
  6
CONTINUOUS
 62
     3
 10
19259.553788999969
 20
17006.422917000011
 30
0.0
 11
19259.553788999969
 21
17011.423180999991
 31
0.0
  0
LINE
  5
403D
  8
2-0
  6
CONTINUOUS
 62
     3
 10
19266.551386999949
 20
17006.422917000011
 30
0.0
 11
19259.553788999969
 21
17006.422917000011
 31
0.0
  0
LINE
  5
403E
  8
2-0
  6
CONTINUOUS
 62
     3
 10
19266.551386999949
 20
16301.94068649998
 30
0.0
 11
19259.553788999969
 21
16301.94068649998
 31
0.0
  0
LINE
  5
403F
  8
2-0
  6
CONTINUOUS
 62
     3
 10
19259.553788999969
 20
16301.94068649998
 30
0.0
 11
19259.553788999969
 21
16306.94095049998
 31
0.0
  0
LINE
  5
4040
  8
2-0
  6
CONTINUOUS
 62
     3
 10
19259.553788999969
 20
16306.94095049998
 30
0.0
 11
19284.547190999969
 21
16306.94095049998
 31
0.0
  0
LINE
  5
4041
  8
2-0
  6
CONTINUOUS
 62
     3
 10
19284.547190999969
 20
16306.94095049998
 30
0.0
 11
19284.547190999969
 21
16288.9392085
 31
0.0
  0
LINE
  5
4042
  8
2-0
  6
CONTINUOUS
 62
     3
 10
19284.547190999969
 20
16288.9392085
 30
0.0
 11
19254.549565999969
 21
16288.9392085
 31
0.0
  0
LINE
  5
4043
  8
2-0
  6
CONTINUOUS
 62
     3
 10
19284.547190999969
 20
16305.036653499999
 30
0.0
 11
19284.547190999969
 21
16299.0397025
 31
0.0
  0
LINE
  5
4044
  8
2-0
  6
CONTINUOUS
 62
     3
 10
19284.547190999969
 20
16299.0397025
 30
0.0
 11
19254.549565999969
 21
16299.0397025
 31
0.0
  0
LINE
  5
4045
  8
2-0
  6
CONTINUOUS
 62
     3
 10
19254.549565999969
 20
16299.0397025
 30
0.0
 11
19254.549565999969
 21
16336.0398735
 31
0.0
  0
LINE
  5
4046
  8
2-0
  6
CONTINUOUS
 62
     3
 10
19284.547190999969
 20
16336.0398735
 30
0.0
 11
19254.549565999969
 21
16336.0398735
 31
0.0
  0
LINE
  5
4047
  8
2-0
  6
CONTINUOUS
 62
     3
 10
19284.547190999969
 20
16330.0369835
 30
0.0
 11
19284.547190999969
 21
16336.0398735
 31
0.0
  0
LINE
  5
4048
  8
2-0
  6
CONTINUOUS
 62
     3
 10
19284.547190999969
 20
16346.135418499989
 30
0.0
 11
19254.549565999969
 21
16346.135418499989
 31
0.0
  0
LINE
  5
4049
  8
2-0
  6
CONTINUOUS
 62
     3
 10
19284.547190999969
 20
16328.127737500001
 30
0.0
 11
19284.547190999969
 21
16346.135418499989
 31
0.0
  0
LINE
  5
404A
  8
2-0
  6
CONTINUOUS
 62
     3
 10
19259.553788999969
 20
16328.127737500001
 30
0.0
 11
19284.547190999969
 21
16328.127737500001
 31
0.0
  0
LINE
  5
404B
  8
2-0
  6
CONTINUOUS
 62
     3
 10
19259.553788999969
 20
16333.133940499991
 30
0.0
 11
19259.553788999969
 21
16328.127737500001
 31
0.0
  0
LINE
  5
404C
  8
2-0
  6
CONTINUOUS
 62
     3
 10
19266.551386999949
 20
16333.133940499991
 30
0.0
 11
19259.553788999969
 21
16333.133940499991
 31
0.0
  0
LINE
  5
404D
  8
2-0
  6
CONTINUOUS
 62
     3
 10
19266.551386999949
 20
15632.373957
 30
0.0
 11
19259.553788999969
 21
15632.373957
 31
0.0
  0
LINE
  5
404E
  8
2-0
  6
CONTINUOUS
 62
     3
 10
19259.553788999969
 20
15632.373957
 30
0.0
 11
19259.553788999969
 21
15627.379632
 31
0.0
  0
LINE
  5
404F
  8
2-0
  6
CONTINUOUS
 62
     3
 10
19259.553788999969
 20
15627.379632
 30
0.0
 11
19284.547190999969
 21
15627.379632
 31
0.0
  0
LINE
  5
4050
  8
2-0
  6
CONTINUOUS
 62
     3
 10
19284.547190999969
 20
15627.379632
 30
0.0
 11
19284.547190999969
 21
15645.375435000011
 31
0.0
  0
LINE
  5
4051
  8
2-0
  6
CONTINUOUS
 62
     3
 10
19284.547190999969
 20
15645.375435000011
 30
0.0
 11
19254.549565999969
 21
15645.375435000011
 31
0.0
  0
LINE
  5
4052
  8
2-0
  6
CONTINUOUS
 62
     3
 10
19284.547190999969
 20
15629.277990000001
 30
0.0
 11
19284.547190999969
 21
15635.27989000002
 31
0.0
  0
LINE
  5
4053
  8
2-0
  6
CONTINUOUS
 62
     3
 10
19284.547190999969
 20
15635.27989000002
 30
0.0
 11
19254.549565999969
 21
15635.27989000002
 31
0.0
  0
LINE
  5
4054
  8
2-0
  6
CONTINUOUS
 62
     3
 10
19254.549565999969
 20
15598.280709000001
 30
0.0
 11
19254.549565999969
 21
15635.27989000002
 31
0.0
  0
LINE
  5
4055
  8
2-0
  6
CONTINUOUS
 62
     3
 10
19284.547190999969
 20
15598.280709000001
 30
0.0
 11
19254.549565999969
 21
15598.280709000001
 31
0.0
  0
LINE
  5
4056
  8
2-0
  6
CONTINUOUS
 62
     3
 10
19284.547190999969
 20
15604.27766
 30
0.0
 11
19284.547190999969
 21
15598.280709000001
 31
0.0
  0
LINE
  5
4057
  8
2-0
  6
CONTINUOUS
 62
     3
 10
19284.547190999969
 20
15588.179225
 30
0.0
 11
19254.549565999969
 21
15588.179225
 31
0.0
  0
LINE
  5
4058
  8
2-0
  6
CONTINUOUS
 62
     3
 10
19284.547190999969
 20
15606.186906000001
 30
0.0
 11
19284.547190999969
 21
15588.179225
 31
0.0
  0
LINE
  5
4059
  8
2-0
  6
CONTINUOUS
 62
     3
 10
19259.553788999969
 20
15606.186906000001
 30
0.0
 11
19284.547190999969
 21
15606.186906000001
 31
0.0
  0
LINE
  5
405A
  8
2-0
  6
CONTINUOUS
 62
     3
 10
19259.553788999969
 20
15601.186642000001
 30
0.0
 11
19259.553788999969
 21
15606.186906000001
 31
0.0
  0
LINE
  5
405B
  8
2-0
  6
CONTINUOUS
 62
     3
 10
19266.551386999949
 20
15601.186642000001
 30
0.0
 11
19259.553788999969
 21
15601.186642000001
 31
0.0
  0
LINE
  5
405C
  8
2-0
  6
CONTINUOUS
 62
     3
 10
19254.549565999969
 20
16993.427378000011
 30
0.0
 11
19254.549565999969
 21
16346.135418499989
 31
0.0
  0
LINE
  5
405D
  8
2-0
  6
CONTINUOUS
 62
     3
 10
19254.549565999969
 20
17148.037676
 30
0.0
 11
19254.549565999969
 21
17003.035961000009
 31
0.0
  0
LINE
  5
405E
  8
2-0
  6
CONTINUOUS
 62
     3
 10
19342.43623199996
 20
17118.038071999988
 30
0.0
 11
19342.43623199996
 21
17033.041504000012
 31
0.0
  0
LINE
  5
405F
  8
2-0
  6
CONTINUOUS
 62
     3
 10
19284.547190999969
 20
14574.541714999999
 30
0.0
 11
19284.547190999969
 21
14580.546584
 31
0.0
  0
LINE
  5
4060
  8
2-0
  6
CONTINUOUS
 62
     3
 10
19284.547190999969
 20
14580.546584
 30
0.0
 11
19254.549565999969
 21
14580.546584
 31
0.0
  0
LINE
  5
4061
  8
2-0
  6
CONTINUOUS
 62
     3
 10
19254.549565999969
 20
14580.546584
 30
0.0
 11
19254.549565999969
 21
14465.542493000001
 31
0.0
  0
LINE
  5
4062
  8
2-0
  6
CONTINUOUS
 62
     3
 10
19254.549565999969
 20
14465.542493000001
 30
0.0
 11
19339.548113999961
 21
14465.542493000001
 31
0.0
  0
LINE
  5
4063
  8
2-0
  6
CONTINUOUS
 62
     3
 10
19339.548113999961
 20
14465.542493000001
 30
0.0
 11
19339.548113999961
 21
14550.538071999999
 31
0.0
  0
LINE
  5
4064
  8
2-0
  6
CONTINUOUS
 62
     3
 10
19339.548113999961
 20
14550.538071999999
 30
0.0
 11
19307.551175999939
 21
14550.538071999999
 31
0.0
  0
LINE
  5
4065
  8
2-0
  6
CONTINUOUS
 62
     3
 10
19266.551386999949
 20
14577.576316999999
 30
0.0
 11
19259.553788999969
 21
14577.576316999999
 31
0.0
  0
LINE
  5
4066
  8
2-0
  6
CONTINUOUS
 62
     3
 10
19259.553788999969
 20
14577.576316999999
 30
0.0
 11
19259.553788999969
 21
14572.57902199998
 31
0.0
  0
LINE
  5
4067
  8
2-0
  6
CONTINUOUS
 62
     3
 10
19259.553788999969
 20
14572.57902199998
 30
0.0
 11
19284.547190999969
 21
14572.57902199998
 31
0.0
  0
LINE
  5
4068
  8
2-0
  6
CONTINUOUS
 62
     3
 10
19284.547190999969
 20
14572.57902199998
 30
0.0
 11
19284.547190999969
 21
14590.57779499999
 31
0.0
  0
LINE
  5
4069
  8
2-0
  6
CONTINUOUS
 62
     3
 10
19284.547190999969
 20
14590.57779499999
 30
0.0
 11
19254.549565999969
 21
14590.57779499999
 31
0.0
  0
LINE
  5
406A
  8
2-0
  6
CONTINUOUS
 62
     3
 10
19254.549565999969
 20
14590.57779499999
 30
0.0
 11
19254.549565999969
 21
14887.179225
 31
0.0
  0
LINE
  5
406B
  8
2-0
  6
CONTINUOUS
 62
     3
 10
19254.549565999969
 20
18563.134924000002
 30
0.0
 11
19254.549565999969
 21
19206.945641499991
 31
0.0
  0
LINE
  5
406C
  8
2-0
  6
CONTINUOUS
 62
     3
 10
19345.551993999961
 20
18492.038533999981
 30
0.0
 11
19298.548324999982
 21
18492.038533999981
 31
0.0
  0
LINE
  5
406D
  8
2-0
  6
CONTINUOUS
 62
     3
 10
19298.548324999982
 20
18577.039062
 30
0.0
 11
19345.551993999961
 21
18577.039062
 31
0.0
  0
LINE
  5
406E
  8
2-0
  6
CONTINUOUS
 62
     3
 10
19298.548324999982
 20
18492.038533999981
 30
0.0
 11
19298.548324999982
 21
18517.041832999999
 31
0.0
  0
LINE
  5
406F
  8
2-0
  6
CONTINUOUS
 62
     3
 10
19298.548324999982
 20
18552.037742000011
 30
0.0
 11
19298.548324999982
 21
18577.039062
 31
0.0
  0
LINE
  5
4070
  8
2-0
  6
CONTINUOUS
 62
     3
 10
19345.551993999961
 20
18577.039062
 30
0.0
 11
19345.551993999961
 21
18492.038533999981
 31
0.0
  0
LINE
  5
4071
  8
2-0
  6
CONTINUOUS
 62
     3
 10
19254.549565999969
 20
16288.9392085
 30
0.0
 11
19254.549565999969
 21
15645.375435000011
 31
0.0
  0
LINE
  5
4072
  8
2-0
  6
CONTINUOUS
 62
     3
 10
19345.551993999961
 20
15574.041504000001
 30
0.0
 11
19298.548324999982
 21
15574.041504000001
 31
0.0
  0
LINE
  5
4073
  8
2-0
  6
CONTINUOUS
 62
     3
 10
19298.548324999982
 20
15659.03807199999
 30
0.0
 11
19345.551993999961
 21
15659.03807199999
 31
0.0
  0
LINE
  5
4074
  8
2-0
  6
CONTINUOUS
 62
     3
 10
19298.548324999982
 20
15574.041504000001
 30
0.0
 11
19298.548324999982
 21
15599.03688500001
 31
0.0
  0
LINE
  5
4075
  8
2-0
  6
CONTINUOUS
 62
     3
 10
19298.548324999982
 20
15634.036753
 30
0.0
 11
19298.548324999982
 21
15659.03807199999
 31
0.0
  0
LINE
  5
4076
  8
2-0
  6
CONTINUOUS
 62
     3
 10
19345.551993999961
 20
15659.03807199999
 30
0.0
 11
19345.551993999961
 21
15574.041504000001
 31
0.0
  0
LINE
  5
4077
  8
2-0
  6
CONTINUOUS
 62
     3
 10
25175.544154999981
 20
19570.5419
 30
0.0
 11
25175.544154999981
 21
19685.538073000022
 31
0.0
  0
LINE
  5
4078
  8
2-0
  6
CENTER2
 62
     6
 10
17967.59129399998
 20
19643.039787999991
 30
0.0
 11
26025.545474999981
 21
19643.039787999991
 31
0.0
  0
LINE
  5
4079
  8
2-0
  6
CENTER2
 62
     6
 10
17967.59129399998
 20
17075.53978799998
 30
0.0
 11
26025.545474999981
 21
17075.53978799998
 31
0.0
  0
LINE
  5
407A
  8
2-0
  6
CENTER2
 62
     6
 10
17967.59129399998
 20
14508.039787999989
 30
0.0
 11
26025.545474999981
 21
14508.039787999989
 31
0.0
  0
LINE
  5
407B
  8
2-0
  6
CONTINUOUS
 62
     3
 10
19254.549565999969
 20
19600.541504000001
 30
0.0
 11
25094.54225499996
 21
19600.541504000001
 31
0.0
  0
LINE
  5
407C
  8
2-0
  6
CENTER2
 62
     6
 10
19297.04587099998
 20
20885.538073000022
 30
0.0
 11
19297.04587099998
 21
13882.276354
 31
0.0
  0
LINE
  5
407D
  8
2-0
  6
CENTER2
 62
     6
 10
25133.04587099998
 20
20885.538073000022
 30
0.0
 11
25133.04587099998
 21
13882.276354
 31
0.0
  0
LINE
  5
407E
  8
2-0
  6
CONTINUOUS
 62
     3
 10
25175.544154999981
 20
19560.244444
 30
0.0
 11
25175.544154999981
 21
19264.135913499991
 31
0.0
  0
LINE
  5
407F
  8
2-0
  6
CONTINUOUS
 62
     3
 10
19254.549565999969
 20
19560.244444
 30
0.0
 11
19254.549565999969
 21
19264.135913499991
 31
0.0
  0
LINE
  5
4080
  8
2-0
  6
CENTER2
 62
     6
 10
22215.04587099998
 20
20885.538073000022
 30
0.0
 11
22215.04587099998
 21
14316.635186999991
 31
0.0
  0
LINE
  5
4081
  8
2-0
  6
CONTINUOUS
 62
     3
 10
19335.547506999981
 20
14550.538071999999
 30
0.0
 11
19335.547506999981
 21
19685.538073000022
 31
0.0
  0
LINE
  5
4082
  8
2-0
  6
CONTINUOUS
 62
     3
 10
25094.54225499996
 20
14550.538071999999
 30
0.0
 11
25094.54225499996
 21
19685.538073000022
 31
0.0
  0
CIRCLE
  5
4083
  8
2-0
  6
CONTINUOUS
 62
     4
 10
17767.59360399998
 20
19643.039787999991
 30
0.0
 40
200.00001
  0
CIRCLE
  5
4084
  8
2-0
  6
CONTINUOUS
 62
     4
 10
17767.59360399998
 20
17075.53978799998
 30
0.0
 40
200.00001
  0
CIRCLE
  5
4085
  8
2-0
  6
CONTINUOUS
 62
     4
 10
17767.59360399998
 20
14508.039787999989
 30
0.0
 40
200.00001
  0
CIRCLE
  5
4086
  8
2-0
  6
CONTINUOUS
 62
     4
 10
22215.04587099998
 20
21085.542692000021
 30
0.0
 40
200.00001
  0
CIRCLE
  5
4087
  8
2-0
  6
CONTINUOUS
 62
     4
 10
19297.04587099998
 20
21085.542692000021
 30
0.0
 40
200.00001
  0
TEXT
  5
4088
  8
2-0
  6
CONTINUOUS
 62
     7
 10
23529.891177999962
 20
13948.04091
 30
0.0
 40
160.0
  1
前柱（右）
 50
0.000213
 72
     4
 11
23945.89088059299
 21
14028.042456500791
 31
0.0
  0
TEXT
  5
4089
  8
2-0
  6
CONTINUOUS
 62
     7
 10
23546.590396999971
 20
18276.662953999999
 30
0.0
 40
160.0
  1
補強柱 後
 50
359.99984199999989
 72
     4
 11
23957.257284274689
 21
18356.661821536989
 31
0.0
  0
TEXT
  5
408A
  8
2-0
  6
CONTINUOUS
 62
     7
 10
23734.486300999972
 20
16526.032926000022
 30
0.0
 40
160.0
  1
壁パネル
 50
359.99982299999999
 72
     4
 11
24097.153214803529
 21
16606.031805637889
 31
0.0
  0
TEXT
  5
408B
  8
2-0
  6
CONTINUOUS
 62
     7
 10
23454.483396999982
 20
17363.220822000021
 30
0.0
 40
160.0
  1
中柱（左右）
 50
0.000354
 72
     4
 11
23971.81623604619
 21
17443.224018324669
 31
0.0
  0
TEXT
  5
408C
  8
2-0
  6
CONTINUOUS
 62
     7
 10
24134.485640999959
 20
14921.082175999991
 30
0.0
 40
160.0
  1
下枠
 50
0.001063
 72
     4
 11
24305.150823409262
 21
15001.08534233928
 31
0.0
  0
TEXT
  5
408D
  8
2-0
  6
CONTINUOUS
 62
     7
 10
23546.590396999971
 20
15358.903465000019
 30
0.0
 40
160.0
  1
補強柱 前
 50
359.99937
 72
     4
 11
23957.25794328775
 21
15438.89894947934
 31
0.0
  0
TEXT
  5
408E
  8
2-0
  6
CONTINUOUS
 62
     7
 10
23629.451064999979
 20
18966.489560499991
 30
0.0
 40
160.0
  1
間柱（側）
 72
     4
 11
24050.784398333319
 21
19046.489560499991
 31
0.0
  0
TEXT
  5
408F
  8
2-0
  6
CONTINUOUS
 62
     7
 10
25948.041383999978
 20
20495.537281000012
 30
0.0
 40
160.0
  1
後柱（左右）
 50
0.000354
 72
     4
 11
26460.04088971296
 21
20575.540444372851
 31
0.0
  0
TEXT
  5
4090
  8
2-0
  6
CONTINUOUS
 62
     7
 10
22614.134632999991
 20
15085.878087999979
 30
0.0
 40
160.0
  1
前柱（中）
 72
     4
 11
23030.134632999991
 21
15165.878087999979
 31
0.0
  0
TEXT
  5
4091
  8
2-0
  6
CONTINUOUS
 62
     7
 10
21050.914746999981
 20
19048.420120000021
 30
0.0
 40
160.0
  1
間柱（後）
 72
     4
 11
21472.248080333309
 21
19128.420120000021
 31
0.0
  0
TEXT
  5
4092
  8
2-0
  6
CONTINUOUS
 62
     7
 10
22485.339236
 20
19117.164841000009
 30
0.0
 40
160.0
  1
後柱（中）
 72
     4
 11
22901.339236
 21
19197.164841000009
 31
0.0
  0
TEXT
  5
4093
  8
2-0
  6
CONTINUOUS
 62
     7
 10
17719.594236999968
 20
19548.55934600002
 30
0.0
 40
160.0
  1
C
 72
     4
 11
17772.927570333301
 21
19628.55934600002
 31
0.0
  0
TEXT
  5
4094
  8
2-0
  6
CONTINUOUS
 62
     7
 10
17719.814952999979
 20
17005.145706000021
 30
0.0
 40
160.0
  1
B
 72
     4
 11
17773.148286333311
 21
17085.145706000021
 31
0.0
  0
TEXT
  5
4095
  8
2-0
  6
CONTINUOUS
 62
     7
 10
17719.857512999981
 20
14419.432577
 30
0.0
 40
160.0
  1
A
 72
     4
 11
17773.190846333309
 21
14499.432577
 31
0.0
  0
TEXT
  5
4096
  8
2-0
  6
CONTINUOUS
 62
     7
 10
22163.41408799998
 20
20990.017063000021
 30
0.0
 40
160.0
  1
2
 72
     4
 11
22216.747421333312
 21
21070.017063000021
 31
0.0
  0
TEXT
  5
4097
  8
2-0
  6
CONTINUOUS
 62
     7
 10
19252.839261999969
 20
20996.775140000031
 30
0.0
 40
160.0
  1
1
 72
     4
 11
19279.50592866664
 21
21076.775140000031
 31
0.0
  0
LINE
  5
4098
  8
2-0
  6
CONTINUOUS
 62
     3
 10
24393.54645199997
 20
19685.538073000022
 30
0.0
 11
24356.54528999998
 21
19685.538073000022
 31
0.0
  0
LINE
  5
4099
  8
2-0
  6
CONTINUOUS
 62
     3
 10
24393.54645199997
 20
19655.534510000001
 30
0.0
 11
24393.54645199997
 21
19685.538073000022
 31
0.0
  0
LINE
  5
409A
  8
2-0
  6
CONTINUOUS
 62
     3
 10
24387.54653099996
 20
19655.534510000001
 30
0.0
 11
24393.54645199997
 21
19655.534510000001
 31
0.0
  0
LINE
  5
409B
  8
2-0
  6
CONTINUOUS
 62
     3
 10
24403.643975999981
 20
19655.534510000001
 30
0.0
 11
24403.643975999981
 21
19685.538073000022
 31
0.0
  0
LINE
  5
409C
  8
2-0
  6
CONTINUOUS
 62
     3
 10
24385.64025499998
 20
19655.534510000001
 30
0.0
 11
24403.643975999981
 21
19655.534510000001
 31
0.0
  0
LINE
  5
409D
  8
2-0
  6
CONTINUOUS
 62
     3
 10
24385.64025499998
 20
19680.543747000011
 30
0.0
 11
24385.64025499998
 21
19655.534510000001
 31
0.0
  0
LINE
  5
409E
  8
2-0
  6
CONTINUOUS
 62
     3
 10
24390.64051899996
 20
19680.543747000011
 30
0.0
 11
24385.64025499998
 21
19680.543747000011
 31
0.0
  0
LINE
  5
409F
  8
2-0
  6
CONTINUOUS
 62
     3
 10
24390.64051899996
 20
19673.538230999999
 30
0.0
 11
24390.64051899996
 21
19680.543747000011
 31
0.0
  0
LINE
  5
40A0
  8
2-0
  6
CONTINUOUS
 62
     3
 10
24359.451223999971
 20
19673.538230999999
 30
0.0
 11
24359.451223999971
 21
19680.543747000011
 31
0.0
  0
LINE
  5
40A1
  8
2-0
  6
CONTINUOUS
 62
     3
 10
24359.451223999971
 20
19680.543747000011
 30
0.0
 11
24364.451487999981
 21
19680.543747000011
 31
0.0
  0
LINE
  5
40A2
  8
2-0
  6
CONTINUOUS
 62
     3
 10
24364.451487999981
 20
19680.543747000011
 30
0.0
 11
24364.451487999981
 21
19655.534510000001
 31
0.0
  0
LINE
  5
40A3
  8
2-0
  6
CONTINUOUS
 62
     3
 10
24364.451487999981
 20
19655.534510000001
 30
0.0
 11
24346.451724999981
 21
19655.534510000001
 31
0.0
  0
LINE
  5
40A4
  8
2-0
  6
CONTINUOUS
 62
     3
 10
24346.451724999981
 20
19655.534510000001
 30
0.0
 11
24346.451724999981
 21
19685.538073000022
 31
0.0
  0
LINE
  5
40A5
  8
2-0
  6
CONTINUOUS
 62
     3
 10
24362.545210999971
 20
19655.534510000001
 30
0.0
 11
24356.54528999998
 21
19655.534510000001
 31
0.0
  0
LINE
  5
40A6
  8
2-0
  6
CONTINUOUS
 62
     3
 10
24356.54528999998
 20
19655.534510000001
 30
0.0
 11
24356.54528999998
 21
19685.538073000022
 31
0.0
  0
LINE
  5
40A7
  8
2-0
  6
CONTINUOUS
 62
     3
 10
22988.635569499969
 20
19673.538230999999
 30
0.0
 11
22988.635569499969
 21
19680.543747000011
 31
0.0
  0
LINE
  5
40A8
  8
2-0
  6
CONTINUOUS
 62
     3
 10
22988.635569499969
 20
19680.543747000011
 30
0.0
 11
22983.635305499989
 21
19680.543747000011
 31
0.0
  0
LINE
  5
40A9
  8
2-0
  6
CONTINUOUS
 62
     3
 10
22983.635305499989
 20
19680.543747000011
 30
0.0
 11
22983.635305499989
 21
19655.534510000001
 31
0.0
  0
LINE
  5
40AA
  8
2-0
  6
CONTINUOUS
 62
     3
 10
22983.635305499989
 20
19655.534510000001
 30
0.0
 11
23001.641006499969
 21
19655.534510000001
 31
0.0
  0
LINE
  5
40AB
  8
2-0
  6
CONTINUOUS
 62
     3
 10
23001.641006499969
 20
19655.534510000001
 30
0.0
 11
23001.641006499969
 21
19685.538073000022
 31
0.0
  0
LINE
  5
40AC
  8
2-0
  6
CONTINUOUS
 62
     3
 10
22985.54356149997
 20
19655.534510000001
 30
0.0
 11
22991.54546149998
 21
19655.534510000001
 31
0.0
  0
LINE
  5
40AD
  8
2-0
  6
CONTINUOUS
 62
     3
 10
22991.54546149998
 20
19655.534510000001
 30
0.0
 11
22991.54546149998
 21
19685.538073000022
 31
0.0
  0
LINE
  5
40AE
  8
2-0
  6
CONTINUOUS
 62
     3
 10
22954.54628049997
 20
19685.538073000022
 30
0.0
 11
22991.54546149998
 21
19685.538073000022
 31
0.0
  0
LINE
  5
40AF
  8
2-0
  6
CONTINUOUS
 62
     3
 10
22954.54628049997
 20
19655.534510000001
 30
0.0
 11
22954.54628049997
 21
19685.538073000022
 31
0.0
  0
LINE
  5
40B0
  8
2-0
  6
CONTINUOUS
 62
     3
 10
22960.54026249997
 20
19655.534510000001
 30
0.0
 11
22954.54628049997
 21
19655.534510000001
 31
0.0
  0
LINE
  5
40B1
  8
2-0
  6
CONTINUOUS
 62
     3
 10
22944.450735499981
 20
19655.534510000001
 30
0.0
 11
22944.450735499981
 21
19685.538073000022
 31
0.0
  0
LINE
  5
40B2
  8
2-0
  6
CONTINUOUS
 62
     3
 10
22962.44653849996
 20
19655.534510000001
 30
0.0
 11
22944.450735499981
 21
19655.534510000001
 31
0.0
  0
LINE
  5
40B3
  8
2-0
  6
CONTINUOUS
 62
     3
 10
22962.44653849996
 20
19680.543747000011
 30
0.0
 11
22962.44653849996
 21
19655.534510000001
 31
0.0
  0
LINE
  5
40B4
  8
2-0
  6
CONTINUOUS
 62
     3
 10
22957.446274499991
 20
19680.543747000011
 30
0.0
 11
22962.44653849996
 21
19680.543747000011
 31
0.0
  0
LINE
  5
40B5
  8
2-0
  6
CONTINUOUS
 62
     3
 10
22957.446274499991
 20
19673.538230999999
 30
0.0
 11
22957.446274499991
 21
19680.543747000011
 31
0.0
  0
LINE
  5
40B6
  8
2-0
  6
CONTINUOUS
 62
     3
 10
23658.44528549998
 20
19673.538230999999
 30
0.0
 11
23658.44528549998
 21
19680.543747000011
 31
0.0
  0
LINE
  5
40B7
  8
2-0
  6
CONTINUOUS
 62
     3
 10
23658.44528549998
 20
19680.543747000011
 30
0.0
 11
23663.445548499989
 21
19680.543747000011
 31
0.0
  0
LINE
  5
40B8
  8
2-0
  6
CONTINUOUS
 62
     3
 10
23663.445548499989
 20
19680.543747000011
 30
0.0
 11
23663.445548499989
 21
19655.534510000001
 31
0.0
  0
LINE
  5
40B9
  8
2-0
  6
CONTINUOUS
 62
     3
 10
23663.445548499989
 20
19655.534510000001
 30
0.0
 11
23645.451725499959
 21
19655.534510000001
 31
0.0
  0
LINE
  5
40BA
  8
2-0
  6
CONTINUOUS
 62
     3
 10
23645.451725499959
 20
19655.534510000001
 30
0.0
 11
23645.451725499959
 21
19685.538073000022
 31
0.0
  0
LINE
  5
40BB
  8
2-0
  6
CONTINUOUS
 62
     3
 10
23661.54323149996
 20
19655.534510000001
 30
0.0
 11
23655.545290499969
 21
19655.534510000001
 31
0.0
  0
LINE
  5
40BC
  8
2-0
  6
CONTINUOUS
 62
     3
 10
23655.545290499969
 20
19655.534510000001
 30
0.0
 11
23655.545290499969
 21
19685.538073000022
 31
0.0
  0
LINE
  5
40BD
  8
2-0
  6
CONTINUOUS
 62
     3
 10
23692.54645149998
 20
19685.538073000022
 30
0.0
 11
23655.545290499969
 21
19685.538073000022
 31
0.0
  0
LINE
  5
40BE
  8
2-0
  6
CONTINUOUS
 62
     3
 10
23692.54645149998
 20
19655.534510000001
 30
0.0
 11
23692.54645149998
 21
19685.538073000022
 31
0.0
  0
LINE
  5
40BF
  8
2-0
  6
CONTINUOUS
 62
     3
 10
23686.54059249998
 20
19655.534510000001
 30
0.0
 11
23692.54645149998
 21
19655.534510000001
 31
0.0
  0
LINE
  5
40C0
  8
2-0
  6
CONTINUOUS
 62
     3
 10
23702.640016499969
 20
19655.534510000001
 30
0.0
 11
23702.640016499969
 21
19685.538073000022
 31
0.0
  0
LINE
  5
40C1
  8
2-0
  6
CONTINUOUS
 62
     3
 10
23684.644213499971
 20
19655.534510000001
 30
0.0
 11
23702.640016499969
 21
19655.534510000001
 31
0.0
  0
LINE
  5
40C2
  8
2-0
  6
CONTINUOUS
 62
     3
 10
23684.644213499971
 20
19680.543747000011
 30
0.0
 11
23684.644213499971
 21
19655.534510000001
 31
0.0
  0
LINE
  5
40C3
  8
2-0
  6
CONTINUOUS
 62
     3
 10
23689.63457949998
 20
19680.543747000011
 30
0.0
 11
23684.644213499971
 21
19680.543747000011
 31
0.0
  0
LINE
  5
40C4
  8
2-0
  6
CONTINUOUS
 62
     3
 10
23689.63457949998
 20
19673.538230999999
 30
0.0
 11
23689.63457949998
 21
19680.543747000011
 31
0.0
  0
LINE
  5
40C5
  8
2-0
  6
CONTINUOUS
 62
     3
 10
23001.641006499969
 20
19685.538073000022
 30
0.0
 11
23645.451725499959
 21
19685.538073000022
 31
0.0
  0
LINE
  5
40C6
  8
2-0
  6
CONTINUOUS
 62
     3
 10
22297.164219999999
 20
19685.538073000022
 30
0.0
 11
22944.450735499981
 21
19685.538073000022
 31
0.0
  0
LINE
  5
40C7
  8
2-0
  6
CONTINUOUS
 62
     3
 10
25050.929500999981
 20
19685.538073000022
 30
0.0
 11
24403.643975999981
 21
19685.538073000022
 31
0.0
  0
LINE
  5
40C8
  8
2-0
  6
CONTINUOUS
 62
     3
 10
24346.451724999981
 20
19685.538073000022
 30
0.0
 11
23702.640016499969
 21
19685.538073000022
 31
0.0
  0
LINE
  5
40C9
  8
2-0
  6
CONTINUOUS
 62
     3
 10
22133.618373999991
 20
19685.538073000022
 30
0.0
 11
21485.643975999981
 21
19685.538073000022
 31
0.0
  0
LINE
  5
40CA
  8
2-0
  6
CONTINUOUS
 62
     3
 10
25175.544154999981
 20
15588.179225
 30
0.0
 11
25175.544154999981
 21
14944.375435000011
 31
0.0
  0
CIRCLE
  5
40CB
  8
2-0
  6
CONTINUOUS
 62
     4
 10
25133.04587099998
 20
21085.542692000021
 30
0.0
 40
200.00001
  0
TEXT
  5
40CC
  8
2-0
  6
CONTINUOUS
 62
     7
 10
25081.41408799999
 20
20990.017063000021
 30
0.0
 40
160.0
  1
3
 72
     4
 11
25134.747421333319
 21
21070.017063000021
 31
0.0
  0
LINE
  5
40CD
  8
SUNPOU
  6
CONTINUOUS
 10
7722.0887669999775
 20
19865.531738000001
 30
0.0
 11
7722.0887669999775
 21
20662.49900577846
 31
0.0
  0
LINE
  5
40CE
  8
SUNPOU
  6
CONTINUOUS
 10
7722.0887669999775
 20
14315.544472999991
 30
0.0
 11
7722.0887669999775
 21
13640.11835718962
 31
0.0
  0
LINE
  5
40CF
  8
0-6
  6
CONTINUOUS
 62
     6
 10
10403.87769629711
 20
13515.53886399998
 30
0.0
 11
11203.879346297101
 21
13515.53886399998
 31
0.0
  0
LINE
  5
40D0
  8
SUNPOU
  6
CONTINUOUS
 10
8771.7904090000011
 20
9515.0901529999974
 30
0.0
 11
8296.501296359771
 21
9515.0901529999974
 31
0.0
  0
LINE
  5
40D3
  8
WAKUSEN-01
 10
868.00000000000193
 20
22484.000000000011
 30
0.0
 11
32764.000000000011
 21
22484.000000000011
 31
0.0
  0
LINE
  5
40D6
  8
WAKUSEN-01
 10
20560.0
 20
2484.0
 30
0.0
 11
32764.0
 21
2484.0
 31
0.0
  0
LINE
  5
40D7
  8
WAKUSEN-02
 10
20560.0
 20
1655.999999999998
 30
0.0
 11
26868.0
 21
1655.999999999998
 31
0.0
  0
TEXT
  5
40D8
  8
WAKUMOJI-01
 10
20670.260259962761
 20
2125.9030093393221
 30
0.0
 40
240.0
  1
名　称
  7
WAKUMOJI
  0
TEXT
  5
40D9
  8
WAKUMOJI-01
 10
20656.505485091919
 20
1319.12897497982
 30
0.0
 40
240.0
  1
機種名
  7
WAKUMOJI
  0
LINE
  5
40DC
  8
YODOROGO
 10
29977.604341291921
 20
1995.7494964292871
 30
0.0
 11
29829.604341291921
 21
1995.7494964292871
 31
0.0
1001
AUTOCAD_POSTSCRIPT_FIGURE
1002
{
1000
PSFILL
1000
Grayscale
1000
Grayscale
1070
    25
1002
}
  0
LINE
  5
40DD
  8
YODOROGO
 10
29829.604341291921
 20
1947.749496429288
 30
0.0
 11
29977.604341291921
 21
1947.749496429288
 31
0.0
1001
AUTOCAD_POSTSCRIPT_FIGURE
1002
{
1000
PSFILL
1000
Grayscale
1000
Grayscale
1070
    25
1002
}
  0
LINE
  5
40DE
  8
YODOROGO
 10
29977.604341291921
 20
1907.7494964292871
 30
0.0
 11
29829.604341291921
 21
1907.7494964292871
 31
0.0
1001
AUTOCAD_POSTSCRIPT_FIGURE
1002
{
1000
PSFILL
1000
Grayscale
1000
Grayscale
1070
    25
1002
}
  0
LINE
  5
40DF
  8
YODOROGO
 10
29829.604341291921
 20
1859.7494964292871
 30
0.0
 11
29977.604341291921
 21
1859.7494964292871
 31
0.0
1001
AUTOCAD_POSTSCRIPT_FIGURE
1002
{
1000
PSFILL
1000
Grayscale
1000
Grayscale
1070
    25
1002
}
  0
LINE
  5
40E0
  8
YODOROGO
 10
29977.604341291921
 20
1819.7494964292871
 30
0.0
 11
29829.604341291921
 21
1819.7494964292871
 31
0.0
1001
AUTOCAD_POSTSCRIPT_FIGURE
1002
{
1000
PSFILL
1000
Grayscale
1000
Grayscale
1070
    25
1002
}
  0
LINE
  5
40E1
  8
YODOROGO
 10
29921.60434129191
 20
1707.749496429288
 30
0.0
 11
29977.604341291921
 21
1707.749496429288
 31
0.0
1001
AUTOCAD_POSTSCRIPT_FIGURE
1002
{
1000
PSFILL
1000
Grayscale
1000
Grayscale
1070
    25
1002
}
  0
LINE
  5
40E2
  8
YODOROGO
 10
29737.604341291921
 20
1427.749496429288
 30
0.0
 11
29937.604341291932
 21
1481.3393349155101
 31
0.0
  0
LINE
  5
40E3
  8
YODOROGO
 10
29949.60434129191
 20
1707.749496429288
 30
0.0
 11
29885.604341291921
 21
1707.749496429288
 31
0.0
  0
ARC
  5
40E4
  8
YODOROGO
 10
30254.34774982791
 20
1807.864609233261
 30
0.0
 40
381.88686420564721
 50
213.96111677667841
 51
264.47872074317792
  0
ARC
  5
40E5
  8
YODOROGO
 10
30254.347749827921
 20
1807.864609233302
 30
0.0
 40
381.8868642056816
 50
208.14114420486601
 51
212.9210361185994
  0
LINE
  5
40E6
  8
YODOROGO
 10
29771.409872985321
 20
1556.807661346234
 30
0.0
 11
29933.78413250855
 21
1600.315713057086
 31
0.0
  0
LINE
  5
40E7
  8
YODOROGO
 10
29737.604341291921
 20
1427.749496429288
 30
0.0
 11
29937.604341291932
 21
1481.3393349155101
 31
0.0
  0
LINE
  5
40E8
  8
YODOROGO
 10
29949.60434129191
 20
1707.749496429288
 30
0.0
 11
29885.604341291921
 21
1707.749496429288
 31
0.0
  0
ARC
  5
40E9
  8
YODOROGO
 10
30254.34774982791
 20
1807.864609233261
 30
0.0
 40
381.88686420564721
 50
213.96111677667841
 51
264.47872074317792
  0
LINE
  5
40EA
  8
YODOROGO
 10
28793.60434129191
 20
1819.7494964292871
 30
0.0
 11
28433.60434129191
 21
1819.7494964292871
 31
0.0
  0
LINE
  5
40EB
  8
YODOROGO
 10
28513.60434129191
 20
1427.749496429288
 30
0.0
 11
28793.60434129191
 21
1427.749496429288
 31
0.0
  0
LINE
  5
40EC
  8
YODOROGO
 10
28729.604341291921
 20
1923.7494964292871
 30
0.0
 11
28497.60434129191
 21
1923.7494964292871
 31
0.0
  0
LINE
  5
40ED
  8
YODOROGO
 10
28585.604341291921
 20
2027.749496429288
 30
0.0
 11
28657.604341291921
 21
2027.749496429288
 31
0.0
  0
LINE
  5
40EE
  8
YODOROGO
 10
28433.60434129191
 20
1707.749496429288
 30
0.0
 11
28433.60434129191
 21
1507.749496429288
 31
0.0
  0
LINE
  5
40EF
  8
YODOROGO
 10
28497.60434129191
 20
1563.7494964292871
 30
0.0
 11
28497.60434129191
 21
1707.749496429288
 31
0.0
  0
LINE
  5
40F0
  8
YODOROGO
 10
28585.604341291921
 20
1747.74949642929
 30
0.0
 11
28585.604341291921
 21
1547.749496429288
 31
0.0
  0
LINE
  5
40F1
  8
YODOROGO
 10
27857.604341291921
 20
1683.749496429288
 30
0.0
 11
27777.604341291921
 21
1619.9724140445701
 31
0.0
  0
LINE
  5
40F2
  8
YODOROGO
 10
27937.604341291921
 20
1619.9724140445701
 30
0.0
 11
27857.604341291921
 21
1683.749496429288
 31
0.0
  0
LINE
  5
40F3
  8
YODOROGO
 10
27857.604341291921
 20
1707.749496429288
 30
0.0
 11
27937.604341291921
 21
1643.9724140445701
 31
0.0
  0
LINE
  5
40F4
  8
YODOROGO
 10
27777.604341291921
 20
1643.9724140445701
 30
0.0
 11
27857.604341291921
 21
1707.749496429288
 31
0.0
  0
LINE
  5
40F5
  8
YODOROGO
 10
28040.913204016892
 20
1659.749496429288
 30
0.0
 11
28040.913204016892
 21
1683.7494964292871
 31
0.0
  0
LINE
  5
40F6
  8
YODOROGO
 10
27977.604341291921
 20
1683.7494964292871
 30
0.0
 11
27977.604341291921
 21
1667.749496429285
 31
0.0
  0
LINE
  5
40F7
  8
YODOROGO
 10
28098.135520230931
 20
1707.749496429288
 30
0.0
 11
28098.135520230931
 21
1655.5036372746561
 31
0.0
1001
AUTOCAD_POSTSCRIPT_FIGURE
1002
{
1000
PSFILL
1000
Grayscale
1000
Grayscale
1070
   100
1002
}
  0
LINE
  5
40F8
  8
YODOROGO
 10
28082.135520230921
 20
1655.5036372746561
 30
0.0
 11
28082.135520230921
 21
1707.749496429288
 31
0.0
1001
AUTOCAD_POSTSCRIPT_FIGURE
1002
{
1000
PSFILL
1000
Grayscale
1000
Grayscale
1070
   100
1002
}
  0
LINE
  5
40F9
  8
YODOROGO
 10
27809.604341291921
 20
1608.771904043258
 30
0.0
 11
27809.604341291921
 21
1632.771904043258
 31
0.0
  0
LINE
  5
40FA
  8
YODOROGO
 10
27905.604341291921
 20
1608.771904043258
 30
0.0
 11
27809.604341291921
 21
1608.771904043258
 31
0.0
  0
LINE
  5
40FB
  8
YODOROGO
 10
27905.604341291921
 20
1632.771904043258
 30
0.0
 11
27905.604341291921
 21
1608.771904043258
 31
0.0
  0
LINE
  5
40FC
  8
YODOROGO
 10
27809.604341291921
 20
1632.771904043258
 30
0.0
 11
27905.604341291921
 21
1632.771904043258
 31
0.0
  0
LINE
  5
40FD
  8
YODOROGO
 10
27824.509588915738
 20
1568.5028573704751
 30
0.0
 11
27785.604341291921
 21
1475.7494964292871
 31
0.0
1001
AUTOCAD_POSTSCRIPT_FIGURE
1002
{
1000
PSFILL
1000
Grayscale
1000
Grayscale
1070
   100
1002
}
  0
LINE
  5
40FE
  8
YODOROGO
 10
27777.604341291921
 20
1568.5028573704751
 30
0.0
 11
27824.509588915738
 21
1568.5028573704751
 31
0.0
1001
AUTOCAD_POSTSCRIPT_FIGURE
1002
{
1000
PSFILL
1000
Grayscale
1000
Grayscale
1070
   100
1002
}
  0
LINE
  5
40FF
  8
YODOROGO
 10
27777.604341291921
 20
1588.5028573704751
 30
0.0
 11
27777.604341291921
 21
1568.5028573704751
 31
0.0
1001
AUTOCAD_POSTSCRIPT_FIGURE
1002
{
1000
PSFILL
1000
Grayscale
1000
Grayscale
1070
   100
1002
}
  0
LINE
  5
4100
  8
YODOROGO
 10
27937.604341291921
 20
1588.5028573704751
 30
0.0
 11
27777.604341291921
 21
1588.5028573704751
 31
0.0
1001
AUTOCAD_POSTSCRIPT_FIGURE
1002
{
1000
PSFILL
1000
Grayscale
1000
Grayscale
1070
   100
1002
}
  0
LINE
  5
4101
  8
YODOROGO
 10
27937.604341291921
 20
1568.5028573704751
 30
0.0
 11
27937.604341291921
 21
1588.5028573704751
 31
0.0
1001
AUTOCAD_POSTSCRIPT_FIGURE
1002
{
1000
PSFILL
1000
Grayscale
1000
Grayscale
1070
   100
1002
}
  0
LINE
  5
4102
  8
YODOROGO
 10
27844.509588915738
 20
1568.5028573704751
 30
0.0
 11
27937.604341291921
 21
1568.5028573704751
 31
0.0
1001
AUTOCAD_POSTSCRIPT_FIGURE
1002
{
1000
PSFILL
1000
Grayscale
1000
Grayscale
1070
   100
1002
}
  0
LINE
  5
4103
  8
YODOROGO
 10
27815.546718284771
 20
1495.7494964292871
 30
0.0
 11
27844.509588915738
 21
1568.5028573704751
 31
0.0
1001
AUTOCAD_POSTSCRIPT_FIGURE
1002
{
1000
PSFILL
1000
Grayscale
1000
Grayscale
1070
   100
1002
}
  0
LINE
  5
4104
  8
YODOROGO
 10
27902.054790808648
 20
1495.7494964292871
 30
0.0
 11
27815.546718284771
 21
1495.7494964292871
 31
0.0
1001
AUTOCAD_POSTSCRIPT_FIGURE
1002
{
1000
PSFILL
1000
Grayscale
1000
Grayscale
1070
   100
1002
}
  0
LINE
  5
4105
  8
YODOROGO
 10
27885.065004790951
 20
1536.233810697692
 30
0.0
 11
27902.054790808648
 21
1495.7494964292871
 31
0.0
1001
AUTOCAD_POSTSCRIPT_FIGURE
1002
{
1000
PSFILL
1000
Grayscale
1000
Grayscale
1070
   100
1002
}
  0
LINE
  5
4106
  8
YODOROGO
 10
27901.065004790951
 20
1536.233810697692
 30
0.0
 11
27885.065004790951
 21
1536.233810697692
 31
0.0
1001
AUTOCAD_POSTSCRIPT_FIGURE
1002
{
1000
PSFILL
1000
Grayscale
1000
Grayscale
1070
   100
1002
}
  0
LINE
  5
4107
  8
YODOROGO
 10
27929.604341291921
 20
1475.7494964292871
 30
0.0
 11
27901.065004790951
 21
1536.233810697692
 31
0.0
1001
AUTOCAD_POSTSCRIPT_FIGURE
1002
{
1000
PSFILL
1000
Grayscale
1000
Grayscale
1070
   100
1002
}
  0
LINE
  5
4108
  8
YODOROGO
 10
27785.604341291921
 20
1475.7494964292871
 30
0.0
 11
27929.604341291921
 21
1475.7494964292871
 31
0.0
1001
AUTOCAD_POSTSCRIPT_FIGURE
1002
{
1000
PSFILL
1000
Grayscale
1000
Grayscale
1070
   100
1002
}
  0
LINE
  5
4109
  8
YODOROGO
 10
27777.604341291921
 20
1619.9724140445701
 30
0.0
 11
27777.604341291921
 21
1643.9724140445701
 31
0.0
  0
LINE
  5
410A
  8
YODOROGO
 10
27937.604341291921
 20
1643.9724140445701
 30
0.0
 11
27937.604341291921
 21
1619.9724140445701
 31
0.0
  0
ARC
  5
410B
  8
YODOROGO
 10
28225.940442146959
 20
1600.877765325326
 30
0.0
 40
175.9999999999998
 50
280.3644312771313
 51
3.5414836592180561
  0
ARC
  5
410C
  8
YODOROGO
 10
28235.756030759301
 20
1633.5978069619041
 30
0.0
 40
111.9999999999982
 50
281.24905825041549
 51
348.75094174958332
  0
LINE
  5
410D
  8
YODOROGO
 10
28257.604341291921
 20
1523.7494964292871
 30
0.0
 11
28257.604341291921
 21
1427.749496429288
 31
0.0
  0
LINE
  5
410E
  8
YODOROGO
 10
28020.088903736909
 20
1610.650565061914
 30
0.0
 11
28040.913204016892
 21
1659.749496429288
 31
0.0
  0
LINE
  5
410F
  8
YODOROGO
 10
28041.604341291921
 20
1583.120489948401
 30
0.0
 11
28020.088903736909
 21
1610.650565061914
 31
0.0
  0
LINE
  5
4110
  8
YODOROGO
 10
28041.604341291921
 20
1563.120489948398
 30
0.0
 11
28041.604341291921
 21
1583.120489948401
 31
0.0
  0
LINE
  5
4111
  8
YODOROGO
 10
28017.604341291921
 20
1585.2370637495301
 30
0.0
 11
28041.604341291921
 21
1563.120489948398
 31
0.0
  0
LINE
  5
4112
  8
YODOROGO
 10
28017.604341291921
 20
1475.7494964292871
 30
0.0
 11
28017.604341291921
 21
1585.2370637495301
 31
0.0
  0
LINE
  5
4113
  8
YODOROGO
 10
28001.604341291921
 20
1475.7494964292871
 30
0.0
 11
28017.604341291921
 21
1475.7494964292871
 31
0.0
  0
LINE
  5
4114
  8
YODOROGO
 10
28001.604341291921
 20
1580.0053496897469
 30
0.0
 11
28001.604341291921
 21
1475.7494964292871
 31
0.0
  0
LINE
  5
4115
  8
YODOROGO
 10
27977.604341291921
 20
1532.7680790334291
 30
0.0
 11
28001.604341291921
 21
1580.0053496897469
 31
0.0
  0
LINE
  5
4116
  8
YODOROGO
 10
27977.604341291921
 20
1556.76807903343
 30
0.0
 11
27977.604341291921
 21
1532.7680790334291
 31
0.0
  0
LINE
  5
4117
  8
YODOROGO
 10
28025.828774291349
 20
1667.749496429285
 30
0.0
 11
27977.604341291921
 21
1556.76807903343
 31
0.0
  0
LINE
  5
4118
  8
YODOROGO
 10
27977.604341291921
 20
1667.749496429285
 30
0.0
 11
28025.828774291349
 21
1667.749496429285
 31
0.0
  0
LINE
  5
4119
  8
YODOROGO
 10
28050.135520230899
 20
1655.5036372746561
 30
0.0
 11
28082.135520230921
 21
1655.5036372746561
 31
0.0
1001
AUTOCAD_POSTSCRIPT_FIGURE
1002
{
1000
PSFILL
1000
Grayscale
1000
Grayscale
1070
   100
1002
}
  0
LINE
  5
411A
  8
YODOROGO
 10
28050.135520230899
 20
1631.5036372746561
 30
0.0
 11
28050.135520230899
 21
1655.5036372746561
 31
0.0
1001
AUTOCAD_POSTSCRIPT_FIGURE
1002
{
1000
PSFILL
1000
Grayscale
1000
Grayscale
1070
   100
1002
}
  0
LINE
  5
411B
  8
YODOROGO
 10
28082.135520230921
 20
1631.5036372746561
 30
0.0
 11
28050.135520230899
 21
1631.5036372746561
 31
0.0
1001
AUTOCAD_POSTSCRIPT_FIGURE
1002
{
1000
PSFILL
1000
Grayscale
1000
Grayscale
1070
   100
1002
}
  0
LINE
  5
411C
  8
YODOROGO
 10
28082.135520230921
 20
1499.749496429288
 30
0.0
 11
28082.135520230921
 21
1631.5036372746561
 31
0.0
1001
AUTOCAD_POSTSCRIPT_FIGURE
1002
{
1000
PSFILL
1000
Grayscale
1000
Grayscale
1070
   100
1002
}
  0
LINE
  5
411D
  8
YODOROGO
 10
28050.135520230921
 20
1499.749496429288
 30
0.0
 11
28082.135520230921
 21
1499.749496429288
 31
0.0
1001
AUTOCAD_POSTSCRIPT_FIGURE
1002
{
1000
PSFILL
1000
Grayscale
1000
Grayscale
1070
   100
1002
}
  0
LINE
  5
411E
  8
YODOROGO
 10
28050.135520230921
 20
1475.7494964292871
 30
0.0
 11
28050.135520230921
 21
1499.749496429288
 31
0.0
1001
AUTOCAD_POSTSCRIPT_FIGURE
1002
{
1000
PSFILL
1000
Grayscale
1000
Grayscale
1070
   100
1002
}
  0
LINE
  5
411F
  8
YODOROGO
 10
28137.604341291921
 20
1475.7494964292871
 30
0.0
 11
28050.135520230921
 21
1475.7494964292871
 31
0.0
1001
AUTOCAD_POSTSCRIPT_FIGURE
1002
{
1000
PSFILL
1000
Grayscale
1000
Grayscale
1070
   100
1002
}
  0
LINE
  5
4120
  8
YODOROGO
 10
28137.604341291921
 20
1499.749496429288
 30
0.0
 11
28137.604341291921
 21
1475.7494964292871
 31
0.0
1001
AUTOCAD_POSTSCRIPT_FIGURE
1002
{
1000
PSFILL
1000
Grayscale
1000
Grayscale
1070
   100
1002
}
  0
LINE
  5
4121
  8
YODOROGO
 10
28098.135520230931
 20
1499.749496429288
 30
0.0
 11
28137.604341291921
 21
1499.749496429288
 31
0.0
1001
AUTOCAD_POSTSCRIPT_FIGURE
1002
{
1000
PSFILL
1000
Grayscale
1000
Grayscale
1070
   100
1002
}
  0
LINE
  5
4122
  8
YODOROGO
 10
28098.135520230931
 20
1631.5036372746561
 30
0.0
 11
28098.135520230931
 21
1499.749496429288
 31
0.0
1001
AUTOCAD_POSTSCRIPT_FIGURE
1002
{
1000
PSFILL
1000
Grayscale
1000
Grayscale
1070
   100
1002
}
  0
LINE
  5
4123
  8
YODOROGO
 10
28137.604341291921
 20
1631.5036372746561
 30
0.0
 11
28098.135520230931
 21
1631.5036372746561
 31
0.0
1001
AUTOCAD_POSTSCRIPT_FIGURE
1002
{
1000
PSFILL
1000
Grayscale
1000
Grayscale
1070
   100
1002
}
  0
LINE
  5
4124
  8
YODOROGO
 10
28137.604341291921
 20
1655.5036372746561
 30
0.0
 11
28137.604341291921
 21
1631.5036372746561
 31
0.0
1001
AUTOCAD_POSTSCRIPT_FIGURE
1002
{
1000
PSFILL
1000
Grayscale
1000
Grayscale
1070
   100
1002
}
  0
LINE
  5
4125
  8
YODOROGO
 10
28098.135520230931
 20
1655.5036372746561
 30
0.0
 11
28137.604341291921
 21
1655.5036372746561
 31
0.0
1001
AUTOCAD_POSTSCRIPT_FIGURE
1002
{
1000
PSFILL
1000
Grayscale
1000
Grayscale
1070
   100
1002
}
  0
LINE
  5
4126
  8
YODOROGO
 10
28401.60434129191
 20
1667.749496429288
 30
0.0
 11
28345.604341291921
 21
1667.749496429288
 31
0.0
  0
LINE
  5
4127
  8
YODOROGO
 10
28401.60434129191
 20
1611.7494964292871
 30
0.0
 11
28401.60434129191
 21
1667.749496429288
 31
0.0
  0
LINE
  5
4128
  8
YODOROGO
 10
28345.604341291921
 20
1667.749496429288
 30
0.0
 11
28345.604341291921
 21
1611.7494964292871
 31
0.0
  0
ARC
  5
4129
  8
YODOROGO
 10
28513.60434129191
 20
1507.749496429288
 30
0.0
 40
80.0
 50
180.0
 51
270.0
  0
ARC
  5
412A
  8
YODOROGO
 10
28537.604341291921
 20
1563.7494964292871
 30
0.0
 40
40.0
 50
180.0
 51
270.0
  0
LINE
  5
412B
  8
YODOROGO
 10
28561.604341291932
 20
1523.7494964292871
 30
0.0
 11
28537.604341291921
 21
1523.7494964292871
 31
0.0
  0
ARC
  5
412C
  8
YODOROGO
 10
28561.604341291932
 20
1547.749496429285
 30
0.0
 40
23.999999999996358
 50
270.0
 51
0.0000000000054281
  0
LINE
  5
412D
  8
YODOROGO
 10
27801.604341291921
 20
1890.7865807937051
 30
0.0
 11
27777.604341291921
 21
1843.776747951672
 31
0.0
1001
AUTOCAD_POSTSCRIPT_FIGURE
1002
{
1000
PSFILL
1000
Grayscale
1000
Grayscale
1070
   100
1002
}
  0
LINE
  5
412E
  8
YODOROGO
 10
27801.604341291921
 20
1747.749496429286
 30
0.0
 11
27801.604341291921
 21
1890.7865807937051
 31
0.0
1001
AUTOCAD_POSTSCRIPT_FIGURE
1002
{
1000
PSFILL
1000
Grayscale
1000
Grayscale
1070
   100
1002
}
  0
LINE
  5
412F
  8
YODOROGO
 10
27817.604341291921
 20
1747.749496429286
 30
0.0
 11
27801.604341291921
 21
1747.749496429286
 31
0.0
1001
AUTOCAD_POSTSCRIPT_FIGURE
1002
{
1000
PSFILL
1000
Grayscale
1000
Grayscale
1070
   100
1002
}
  0
LINE
  5
4130
  8
YODOROGO
 10
27817.604341291921
 20
1893.7713320852661
 30
0.0
 11
27817.604341291921
 21
1747.749496429286
 31
0.0
1001
AUTOCAD_POSTSCRIPT_FIGURE
1002
{
1000
PSFILL
1000
Grayscale
1000
Grayscale
1070
   100
1002
}
  0
LINE
  5
4131
  8
YODOROGO
 10
27841.604341291921
 20
1867.6547582841361
 30
0.0
 11
27817.604341291921
 21
1893.7713320852661
 31
0.0
1001
AUTOCAD_POSTSCRIPT_FIGURE
1002
{
1000
PSFILL
1000
Grayscale
1000
Grayscale
1070
   100
1002
}
  0
LINE
  5
4132
  8
YODOROGO
 10
27841.604341291921
 20
1883.6547582841361
 30
0.0
 11
27841.604341291921
 21
1867.6547582841361
 31
0.0
1001
AUTOCAD_POSTSCRIPT_FIGURE
1002
{
1000
PSFILL
1000
Grayscale
1000
Grayscale
1070
   100
1002
}
  0
LINE
  5
4133
  8
YODOROGO
 10
27817.604341291921
 20
1917.7713320852649
 30
0.0
 11
27841.604341291921
 21
1883.6547582841361
 31
0.0
1001
AUTOCAD_POSTSCRIPT_FIGURE
1002
{
1000
PSFILL
1000
Grayscale
1000
Grayscale
1070
   100
1002
}
  0
LINE
  5
4134
  8
YODOROGO
 10
27817.604341291921
 20
1939.749496429288
 30
0.0
 11
27817.604341291921
 21
1917.7713320852649
 31
0.0
1001
AUTOCAD_POSTSCRIPT_FIGURE
1002
{
1000
PSFILL
1000
Grayscale
1000
Grayscale
1070
   100
1002
}
  0
LINE
  5
4135
  8
YODOROGO
 10
27889.604341291921
 20
1939.749496429288
 30
0.0
 11
27817.604341291921
 21
1939.749496429288
 31
0.0
1001
AUTOCAD_POSTSCRIPT_FIGURE
1002
{
1000
PSFILL
1000
Grayscale
1000
Grayscale
1070
   100
1002
}
  0
LINE
  5
4136
  8
YODOROGO
 10
27889.604341291921
 20
1900.5683489363
 30
0.0
 11
27889.604341291921
 21
1939.749496429288
 31
0.0
1001
AUTOCAD_POSTSCRIPT_FIGURE
1002
{
1000
PSFILL
1000
Grayscale
1000
Grayscale
1070
   100
1002
}
  0
LINE
  5
4137
  8
YODOROGO
 10
27857.604341291921
 20
1900.5683489363
 30
0.0
 11
27889.604341291921
 21
1900.5683489363
 31
0.0
1001
AUTOCAD_POSTSCRIPT_FIGURE
1002
{
1000
PSFILL
1000
Grayscale
1000
Grayscale
1070
   100
1002
}
  0
LINE
  5
4138
  8
YODOROGO
 10
27857.604341291921
 20
1884.568348936298
 30
0.0
 11
27857.604341291921
 21
1900.5683489363
 31
0.0
1001
AUTOCAD_POSTSCRIPT_FIGURE
1002
{
1000
PSFILL
1000
Grayscale
1000
Grayscale
1070
   100
1002
}
  0
LINE
  5
4139
  8
YODOROGO
 10
27889.604341291921
 20
1884.568348936298
 30
0.0
 11
27857.604341291921
 21
1884.568348936298
 31
0.0
1001
AUTOCAD_POSTSCRIPT_FIGURE
1002
{
1000
PSFILL
1000
Grayscale
1000
Grayscale
1070
   100
1002
}
  0
LINE
  5
413A
  8
YODOROGO
 10
27889.604341291921
 20
1879.6191779644371
 30
0.0
 11
27889.604341291921
 21
1884.568348936298
 31
0.0
1001
AUTOCAD_POSTSCRIPT_FIGURE
1002
{
1000
PSFILL
1000
Grayscale
1000
Grayscale
1070
   100
1002
}
  0
LINE
  5
413B
  8
YODOROGO
 10
27849.604341291921
 20
1812.974981161417
 30
0.0
 11
27889.604341291921
 21
1879.6191779644371
 31
0.0
1001
AUTOCAD_POSTSCRIPT_FIGURE
1002
{
1000
PSFILL
1000
Grayscale
1000
Grayscale
1070
   100
1002
}
  0
LINE
  5
413C
  8
YODOROGO
 10
27849.604341291921
 20
1796.9749811614149
 30
0.0
 11
27849.604341291921
 21
1812.974981161417
 31
0.0
1001
AUTOCAD_POSTSCRIPT_FIGURE
1002
{
1000
PSFILL
1000
Grayscale
1000
Grayscale
1070
   100
1002
}
  0
LINE
  5
413D
  8
YODOROGO
 10
27889.604341291921
 20
1847.6191779644359
 30
0.0
 11
27849.604341291921
 21
1796.9749811614149
 31
0.0
1001
AUTOCAD_POSTSCRIPT_FIGURE
1002
{
1000
PSFILL
1000
Grayscale
1000
Grayscale
1070
   100
1002
}
  0
LINE
  5
413E
  8
YODOROGO
 10
27889.604341291921
 20
1747.749496429286
 30
0.0
 11
27889.604341291921
 21
1847.6191779644359
 31
0.0
1001
AUTOCAD_POSTSCRIPT_FIGURE
1002
{
1000
PSFILL
1000
Grayscale
1000
Grayscale
1070
   100
1002
}
  0
LINE
  5
413F
  8
YODOROGO
 10
27905.604341291921
 20
1747.749496429286
 30
0.0
 11
27889.604341291921
 21
1747.749496429286
 31
0.0
1001
AUTOCAD_POSTSCRIPT_FIGURE
1002
{
1000
PSFILL
1000
Grayscale
1000
Grayscale
1070
   100
1002
}
  0
LINE
  5
4140
  8
YODOROGO
 10
27905.604341291921
 20
1849.409012158806
 30
0.0
 11
27905.604341291921
 21
1747.749496429286
 31
0.0
1001
AUTOCAD_POSTSCRIPT_FIGURE
1002
{
1000
PSFILL
1000
Grayscale
1000
Grayscale
1070
   100
1002
}
  0
LINE
  5
4141
  8
YODOROGO
 10
27937.604341291921
 20
1796.9749811614149
 30
0.0
 11
27905.604341291921
 21
1849.409012158806
 31
0.0
1001
AUTOCAD_POSTSCRIPT_FIGURE
1002
{
1000
PSFILL
1000
Grayscale
1000
Grayscale
1070
   100
1002
}
  0
LINE
  5
4142
  8
YODOROGO
 10
27937.604341291921
 20
1812.974981161417
 30
0.0
 11
27937.604341291921
 21
1796.9749811614149
 31
0.0
1001
AUTOCAD_POSTSCRIPT_FIGURE
1002
{
1000
PSFILL
1000
Grayscale
1000
Grayscale
1070
   100
1002
}
  0
LINE
  5
4143
  8
YODOROGO
 10
27905.604341291921
 20
1881.4090121588081
 30
0.0
 11
27937.604341291921
 21
1812.974981161417
 31
0.0
1001
AUTOCAD_POSTSCRIPT_FIGURE
1002
{
1000
PSFILL
1000
Grayscale
1000
Grayscale
1070
   100
1002
}
  0
LINE
  5
4144
  8
YODOROGO
 10
27905.604341291921
 20
1884.5683489363
 30
0.0
 11
27905.604341291921
 21
1881.4090121588081
 31
0.0
1001
AUTOCAD_POSTSCRIPT_FIGURE
1002
{
1000
PSFILL
1000
Grayscale
1000
Grayscale
1070
   100
1002
}
  0
LINE
  5
4145
  8
YODOROGO
 10
27937.604341291921
 20
1884.568348936298
 30
0.0
 11
27905.604341291921
 21
1884.5683489363
 31
0.0
1001
AUTOCAD_POSTSCRIPT_FIGURE
1002
{
1000
PSFILL
1000
Grayscale
1000
Grayscale
1070
   100
1002
}
  0
LINE
  5
4146
  8
YODOROGO
 10
27937.604341291921
 20
1900.5683489363
 30
0.0
 11
27937.604341291921
 21
1884.568348936298
 31
0.0
1001
AUTOCAD_POSTSCRIPT_FIGURE
1002
{
1000
PSFILL
1000
Grayscale
1000
Grayscale
1070
   100
1002
}
  0
LINE
  5
4147
  8
YODOROGO
 10
27905.604341291921
 20
1900.5683489363
 30
0.0
 11
27937.604341291921
 21
1900.5683489363
 31
0.0
1001
AUTOCAD_POSTSCRIPT_FIGURE
1002
{
1000
PSFILL
1000
Grayscale
1000
Grayscale
1070
   100
1002
}
  0
LINE
  5
4148
  8
YODOROGO
 10
27905.604341291921
 20
1939.749496429288
 30
0.0
 11
27905.604341291921
 21
1900.5683489363
 31
0.0
1001
AUTOCAD_POSTSCRIPT_FIGURE
1002
{
1000
PSFILL
1000
Grayscale
1000
Grayscale
1070
   100
1002
}
  0
LINE
  5
4149
  8
YODOROGO
 10
27937.604341291921
 20
1939.749496429288
 30
0.0
 11
27905.604341291921
 21
1939.749496429288
 31
0.0
1001
AUTOCAD_POSTSCRIPT_FIGURE
1002
{
1000
PSFILL
1000
Grayscale
1000
Grayscale
1070
   100
1002
}
  0
LINE
  5
414A
  8
YODOROGO
 10
27937.604341291921
 20
1955.7494964292871
 30
0.0
 11
27937.604341291921
 21
1939.749496429288
 31
0.0
1001
AUTOCAD_POSTSCRIPT_FIGURE
1002
{
1000
PSFILL
1000
Grayscale
1000
Grayscale
1070
   100
1002
}
  0
LINE
  5
414B
  8
YODOROGO
 10
27905.604341291921
 20
1955.7494964292871
 30
0.0
 11
27937.604341291921
 21
1955.7494964292871
 31
0.0
1001
AUTOCAD_POSTSCRIPT_FIGURE
1002
{
1000
PSFILL
1000
Grayscale
1000
Grayscale
1070
   100
1002
}
  0
LINE
  5
414C
  8
YODOROGO
 10
27905.604341291921
 20
1979.749496429288
 30
0.0
 11
27905.604341291921
 21
1955.7494964292871
 31
0.0
1001
AUTOCAD_POSTSCRIPT_FIGURE
1002
{
1000
PSFILL
1000
Grayscale
1000
Grayscale
1070
   100
1002
}
  0
LINE
  5
414D
  8
YODOROGO
 10
27889.604341291921
 20
1979.749496429288
 30
0.0
 11
27905.604341291921
 21
1979.749496429288
 31
0.0
1001
AUTOCAD_POSTSCRIPT_FIGURE
1002
{
1000
PSFILL
1000
Grayscale
1000
Grayscale
1070
   100
1002
}
  0
LINE
  5
414E
  8
YODOROGO
 10
27889.604341291921
 20
1955.7494964292871
 30
0.0
 11
27889.604341291921
 21
1979.749496429288
 31
0.0
1001
AUTOCAD_POSTSCRIPT_FIGURE
1002
{
1000
PSFILL
1000
Grayscale
1000
Grayscale
1070
   100
1002
}
  0
LINE
  5
414F
  8
YODOROGO
 10
27865.604341291921
 20
1955.7494964292871
 30
0.0
 11
27889.604341291921
 21
1955.7494964292871
 31
0.0
1001
AUTOCAD_POSTSCRIPT_FIGURE
1002
{
1000
PSFILL
1000
Grayscale
1000
Grayscale
1070
   100
1002
}
  0
LINE
  5
4150
  8
YODOROGO
 10
27865.604341291921
 20
1979.749496429288
 30
0.0
 11
27865.604341291921
 21
1955.7494964292871
 31
0.0
1001
AUTOCAD_POSTSCRIPT_FIGURE
1002
{
1000
PSFILL
1000
Grayscale
1000
Grayscale
1070
   100
1002
}
  0
LINE
  5
4151
  8
YODOROGO
 10
27849.604341291921
 20
1979.749496429288
 30
0.0
 11
27865.604341291921
 21
1979.749496429288
 31
0.0
1001
AUTOCAD_POSTSCRIPT_FIGURE
1002
{
1000
PSFILL
1000
Grayscale
1000
Grayscale
1070
   100
1002
}
  0
LINE
  5
4152
  8
YODOROGO
 10
27849.604341291921
 20
1955.7494964292871
 30
0.0
 11
27849.604341291921
 21
1979.749496429288
 31
0.0
1001
AUTOCAD_POSTSCRIPT_FIGURE
1002
{
1000
PSFILL
1000
Grayscale
1000
Grayscale
1070
   100
1002
}
  0
LINE
  5
4153
  8
YODOROGO
 10
27817.604341291921
 20
1955.7494964292871
 30
0.0
 11
27849.604341291921
 21
1955.7494964292871
 31
0.0
1001
AUTOCAD_POSTSCRIPT_FIGURE
1002
{
1000
PSFILL
1000
Grayscale
1000
Grayscale
1070
   100
1002
}
  0
LINE
  5
4154
  8
YODOROGO
 10
27817.604341291921
 20
1979.749496429288
 30
0.0
 11
27817.604341291921
 21
1955.7494964292871
 31
0.0
1001
AUTOCAD_POSTSCRIPT_FIGURE
1002
{
1000
PSFILL
1000
Grayscale
1000
Grayscale
1070
   100
1002
}
  0
LINE
  5
4155
  8
YODOROGO
 10
27801.604341291921
 20
1979.749496429288
 30
0.0
 11
27817.604341291921
 21
1979.749496429288
 31
0.0
1001
AUTOCAD_POSTSCRIPT_FIGURE
1002
{
1000
PSFILL
1000
Grayscale
1000
Grayscale
1070
   100
1002
}
  0
LINE
  5
4156
  8
YODOROGO
 10
27801.604341291921
 20
1955.7494964292871
 30
0.0
 11
27801.604341291921
 21
1979.749496429288
 31
0.0
1001
AUTOCAD_POSTSCRIPT_FIGURE
1002
{
1000
PSFILL
1000
Grayscale
1000
Grayscale
1070
   100
1002
}
  0
LINE
  5
4157
  8
YODOROGO
 10
27777.604341291921
 20
1955.7494964292871
 30
0.0
 11
27801.604341291921
 21
1955.7494964292871
 31
0.0
1001
AUTOCAD_POSTSCRIPT_FIGURE
1002
{
1000
PSFILL
1000
Grayscale
1000
Grayscale
1070
   100
1002
}
  0
LINE
  5
4158
  8
YODOROGO
 10
27777.604341291921
 20
1939.749496429288
 30
0.0
 11
27777.604341291921
 21
1955.7494964292871
 31
0.0
1001
AUTOCAD_POSTSCRIPT_FIGURE
1002
{
1000
PSFILL
1000
Grayscale
1000
Grayscale
1070
   100
1002
}
  0
LINE
  5
4159
  8
YODOROGO
 10
27801.604341291921
 20
1939.749496429288
 30
0.0
 11
27777.604341291921
 21
1939.749496429288
 31
0.0
1001
AUTOCAD_POSTSCRIPT_FIGURE
1002
{
1000
PSFILL
1000
Grayscale
1000
Grayscale
1070
   100
1002
}
  0
LINE
  5
415A
  8
YODOROGO
 10
27801.604341291921
 20
1914.7865807937051
 30
0.0
 11
27801.604341291921
 21
1939.749496429288
 31
0.0
1001
AUTOCAD_POSTSCRIPT_FIGURE
1002
{
1000
PSFILL
1000
Grayscale
1000
Grayscale
1070
   100
1002
}
  0
LINE
  5
415B
  8
YODOROGO
 10
27777.604341291921
 20
1859.776747951671
 30
0.0
 11
27801.604341291921
 21
1914.7865807937051
 31
0.0
1001
AUTOCAD_POSTSCRIPT_FIGURE
1002
{
1000
PSFILL
1000
Grayscale
1000
Grayscale
1070
   100
1002
}
  0
LINE
  5
415C
  8
YODOROGO
 10
27777.604341291921
 20
1843.776747951672
 30
0.0
 11
27777.604341291921
 21
1859.776747951671
 31
0.0
1001
AUTOCAD_POSTSCRIPT_FIGURE
1002
{
1000
PSFILL
1000
Grayscale
1000
Grayscale
1070
   100
1002
}
  0
LINE
  5
415D
  8
YODOROGO
 10
28257.604341291921
 20
1867.7494964292871
 30
0.0
 11
28401.60434129191
 21
1824.877625640306
 31
0.0
1001
AUTOCAD_POSTSCRIPT_FIGURE
1002
{
1000
PSFILL
1000
Grayscale
1000
Grayscale
1070
   100
1002
}
  0
LINE
  5
415E
  8
YODOROGO
 10
28401.60434129191
 20
1752.877625640306
 30
0.0
 11
28257.604341291921
 21
1795.7494964292871
 31
0.0
1001
AUTOCAD_POSTSCRIPT_FIGURE
1002
{
1000
PSFILL
1000
Grayscale
1000
Grayscale
1070
   100
1002
}
  0
LINE
  5
415F
  8
YODOROGO
 10
28401.60434129191
 20
1984.877625640305
 30
0.0
 11
28257.604341291921
 21
2027.749496429288
 31
0.0
1001
AUTOCAD_POSTSCRIPT_FIGURE
1002
{
1000
PSFILL
1000
Grayscale
1000
Grayscale
1070
   100
1002
}
  0
LINE
  5
4160
  8
YODOROGO
 10
28257.604341291921
 20
1959.749496429288
 30
0.0
 11
28401.60434129191
 21
1916.8776256403071
 31
0.0
1001
AUTOCAD_POSTSCRIPT_FIGURE
1002
{
1000
PSFILL
1000
Grayscale
1000
Grayscale
1070
   100
1002
}
  0
LINE
  5
4161
  8
YODOROGO
 10
28257.604341291921
 20
1795.7494964292871
 30
0.0
 11
28257.604341291921
 21
1867.7494964292871
 31
0.0
1001
AUTOCAD_POSTSCRIPT_FIGURE
1002
{
1000
PSFILL
1000
Grayscale
1000
Grayscale
1070
   100
1002
}
  0
LINE
  5
4162
  8
YODOROGO
 10
28257.604341291921
 20
2027.749496429288
 30
0.0
 11
28257.604341291921
 21
1959.749496429288
 31
0.0
1001
AUTOCAD_POSTSCRIPT_FIGURE
1002
{
1000
PSFILL
1000
Grayscale
1000
Grayscale
1070
   100
1002
}
  0
LINE
  5
4163
  8
YODOROGO
 10
28080.236320206739
 20
1939.749496429288
 30
0.0
 11
28129.60434129191
 21
1747.749496429286
 31
0.0
1001
AUTOCAD_POSTSCRIPT_FIGURE
1002
{
1000
PSFILL
1000
Grayscale
1000
Grayscale
1070
   100
1002
}
  0
LINE
  5
4164
  8
YODOROGO
 10
27977.604341291921
 20
1939.749496429288
 30
0.0
 11
28080.236320206739
 21
1939.749496429288
 31
0.0
1001
AUTOCAD_POSTSCRIPT_FIGURE
1002
{
1000
PSFILL
1000
Grayscale
1000
Grayscale
1070
   100
1002
}
  0
LINE
  5
4165
  8
YODOROGO
 10
27977.604341291921
 20
1955.7494964292871
 30
0.0
 11
27977.604341291921
 21
1939.749496429288
 31
0.0
1001
AUTOCAD_POSTSCRIPT_FIGURE
1002
{
1000
PSFILL
1000
Grayscale
1000
Grayscale
1070
   100
1002
}
  0
LINE
  5
4166
  8
YODOROGO
 10
28076.60687851991
 20
1955.7494964292871
 30
0.0
 11
27977.604341291921
 21
1955.7494964292871
 31
0.0
1001
AUTOCAD_POSTSCRIPT_FIGURE
1002
{
1000
PSFILL
1000
Grayscale
1000
Grayscale
1070
   100
1002
}
  0
LINE
  5
4167
  8
YODOROGO
 10
28071.162715989711
 20
1979.749496429288
 30
0.0
 11
28076.60687851991
 21
1955.7494964292871
 31
0.0
1001
AUTOCAD_POSTSCRIPT_FIGURE
1002
{
1000
PSFILL
1000
Grayscale
1000
Grayscale
1070
   100
1002
}
  0
LINE
  5
4168
  8
YODOROGO
 10
28091.162715989711
 20
1979.749496429288
 30
0.0
 11
28071.162715989711
 21
1979.749496429288
 31
0.0
1001
AUTOCAD_POSTSCRIPT_FIGURE
1002
{
1000
PSFILL
1000
Grayscale
1000
Grayscale
1070
   100
1002
}
  0
LINE
  5
4169
  8
YODOROGO
 10
28095.806878519939
 20
1955.7494964292871
 30
0.0
 11
28091.162715989711
 21
1979.749496429288
 31
0.0
1001
AUTOCAD_POSTSCRIPT_FIGURE
1002
{
1000
PSFILL
1000
Grayscale
1000
Grayscale
1070
   100
1002
}
  0
LINE
  5
416A
  8
YODOROGO
 10
28121.604341291921
 20
1955.7494964292871
 30
0.0
 11
28095.806878519939
 21
1955.7494964292871
 31
0.0
1001
AUTOCAD_POSTSCRIPT_FIGURE
1002
{
1000
PSFILL
1000
Grayscale
1000
Grayscale
1070
   100
1002
}
  0
LINE
  5
416B
  8
YODOROGO
 10
28121.604341291921
 20
1979.749496429288
 30
0.0
 11
28121.604341291921
 21
1955.7494964292871
 31
0.0
1001
AUTOCAD_POSTSCRIPT_FIGURE
1002
{
1000
PSFILL
1000
Grayscale
1000
Grayscale
1070
   100
1002
}
  0
LINE
  5
416C
  8
YODOROGO
 10
28137.604341291921
 20
1979.749496429288
 30
0.0
 11
28121.604341291921
 21
1979.749496429288
 31
0.0
1001
AUTOCAD_POSTSCRIPT_FIGURE
1002
{
1000
PSFILL
1000
Grayscale
1000
Grayscale
1070
   100
1002
}
  0
LINE
  5
416D
  8
YODOROGO
 10
28137.604341291921
 20
1955.7494964292871
 30
0.0
 11
28137.604341291921
 21
1979.749496429288
 31
0.0
1001
AUTOCAD_POSTSCRIPT_FIGURE
1002
{
1000
PSFILL
1000
Grayscale
1000
Grayscale
1070
   100
1002
}
  0
LINE
  5
416E
  8
YODOROGO
 10
28137.604341291921
 20
1939.749496429288
 30
0.0
 11
28137.604341291921
 21
1955.7494964292871
 31
0.0
1001
AUTOCAD_POSTSCRIPT_FIGURE
1002
{
1000
PSFILL
1000
Grayscale
1000
Grayscale
1070
   100
1002
}
  0
LINE
  5
416F
  8
YODOROGO
 10
28098.902986873411
 20
1939.749496429288
 30
0.0
 11
28137.604341291921
 21
1939.749496429288
 31
0.0
1001
AUTOCAD_POSTSCRIPT_FIGURE
1002
{
1000
PSFILL
1000
Grayscale
1000
Grayscale
1070
   100
1002
}
  0
LINE
  5
4170
  8
YODOROGO
 10
28137.604341291921
 20
1747.749496429286
 30
0.0
 11
28098.902986873411
 21
1939.749496429288
 31
0.0
1001
AUTOCAD_POSTSCRIPT_FIGURE
1002
{
1000
PSFILL
1000
Grayscale
1000
Grayscale
1070
   100
1002
}
  0
LINE
  5
4171
  8
YODOROGO
 10
28129.60434129191
 20
1747.749496429286
 30
0.0
 11
28137.604341291921
 21
1747.749496429286
 31
0.0
1001
AUTOCAD_POSTSCRIPT_FIGURE
1002
{
1000
PSFILL
1000
Grayscale
1000
Grayscale
1070
   100
1002
}
  0
LINE
  5
4172
  8
YODOROGO
 10
28078.069219933801
 20
1775.7407762987939
 30
0.0
 11
27977.604341291921
 21
1747.749496429286
 31
0.0
  0
LINE
  5
4173
  8
YODOROGO
 10
28078.069219933801
 20
1798.6689795290731
 30
0.0
 11
28078.069219933801
 21
1775.7407762987939
 31
0.0
  0
LINE
  5
4174
  8
YODOROGO
 10
28033.83678061287
 20
1786.816933133767
 30
0.0
 11
28078.069219933801
 21
1798.6689795290731
 31
0.0
  0
LINE
  5
4175
  8
YODOROGO
 10
28033.83678061287
 20
1872.5683489362989
 30
0.0
 11
28033.83678061287
 21
1786.816933133767
 31
0.0
  0
LINE
  5
4176
  8
YODOROGO
 10
28078.069219933801
 20
1872.5683489362989
 30
0.0
 11
28033.83678061287
 21
1872.5683489362989
 31
0.0
  0
LINE
  5
4177
  8
YODOROGO
 10
28078.069219933801
 20
1892.568348936298
 30
0.0
 11
28078.069219933801
 21
1872.5683489362989
 31
0.0
  0
LINE
  5
4178
  8
YODOROGO
 10
27977.604341291921
 20
1892.568348936298
 30
0.0
 11
28078.069219933801
 21
1892.568348936298
 31
0.0
  0
LINE
  5
4179
  8
YODOROGO
 10
27977.604341291921
 20
1872.5683489362989
 30
0.0
 11
27977.604341291921
 21
1892.568348936298
 31
0.0
  0
LINE
  5
417A
  8
YODOROGO
 10
28021.836780612852
 20
1872.5683489362989
 30
0.0
 11
27977.604341291921
 21
1872.5683489362989
 31
0.0
  0
LINE
  5
417B
  8
YODOROGO
 10
28021.836780612852
 20
1784.673339594317
 30
0.0
 11
28021.836780612852
 21
1872.5683489362989
 31
0.0
  0
LINE
  5
417C
  8
YODOROGO
 10
27977.604341291921
 20
1771.749496429286
 30
0.0
 11
28021.836780612852
 21
1784.673339594317
 31
0.0
  0
LINE
  5
417D
  8
YODOROGO
 10
27977.604341291921
 20
1747.749496429286
 30
0.0
 11
27977.604341291921
 21
1771.749496429286
 31
0.0
  0
LINE
  5
417E
  8
YODOROGO
 10
28001.604341291921
 20
1707.749496429288
 30
0.0
 11
28001.604341291921
 21
1683.7494964292871
 31
0.0
  0
LINE
  5
417F
  8
YODOROGO
 10
28017.604341291921
 20
1707.749496429288
 30
0.0
 11
28001.604341291921
 21
1707.749496429288
 31
0.0
  0
LINE
  5
4180
  8
YODOROGO
 10
28017.604341291921
 20
1683.7494964292871
 30
0.0
 11
28017.604341291921
 21
1707.749496429288
 31
0.0
  0
LINE
  5
4181
  8
YODOROGO
 10
28040.913204016892
 20
1683.7494964292871
 30
0.0
 11
28017.604341291921
 21
1683.7494964292871
 31
0.0
  0
LINE
  5
4182
  8
YODOROGO
 10
28001.604341291921
 20
1683.7494964292871
 30
0.0
 11
27977.604341291921
 21
1683.7494964292871
 31
0.0
  0
LINE
  5
4183
  8
YODOROGO
 10
28082.135520230921
 20
1707.749496429288
 30
0.0
 11
28098.135520230931
 21
1707.749496429288
 31
0.0
1001
AUTOCAD_POSTSCRIPT_FIGURE
1002
{
1000
PSFILL
1000
Grayscale
1000
Grayscale
1070
   100
1002
}
  0
LINE
  5
4184
  8
YODOROGO
 10
28401.60434129191
 20
1824.877625640306
 30
0.0
 11
28401.60434129191
 21
1752.877625640306
 31
0.0
1001
AUTOCAD_POSTSCRIPT_FIGURE
1002
{
1000
PSFILL
1000
Grayscale
1000
Grayscale
1070
   100
1002
}
  0
LINE
  5
4185
  8
YODOROGO
 10
28401.60434129191
 20
1916.8776256403071
 30
0.0
 11
28401.60434129191
 21
1984.877625640305
 31
0.0
1001
AUTOCAD_POSTSCRIPT_FIGURE
1002
{
1000
PSFILL
1000
Grayscale
1000
Grayscale
1070
   100
1002
}
  0
LINE
  5
4186
  8
YODOROGO
 10
28433.60434129191
 20
1819.7494964292871
 30
0.0
 11
28433.60434129191
 21
1747.74949642929
 31
0.0
  0
LINE
  5
4187
  8
YODOROGO
 10
28497.60434129191
 20
1707.749496429288
 30
0.0
 11
28433.60434129191
 21
1707.749496429288
 31
0.0
  0
LINE
  5
4188
  8
YODOROGO
 10
28433.60434129191
 20
1747.74949642929
 30
0.0
 11
28585.604341291921
 21
1747.74949642929
 31
0.0
  0
LINE
  5
4189
  8
YODOROGO
 10
28497.60434129191
 20
1867.7494964292871
 30
0.0
 11
28433.60434129191
 21
1867.7494964292871
 31
0.0
  0
LINE
  5
418A
  8
YODOROGO
 10
28497.60434129191
 20
1923.7494964292871
 30
0.0
 11
28497.60434129191
 21
1867.7494964292871
 31
0.0
  0
LINE
  5
418B
  8
YODOROGO
 10
28585.604341291921
 20
1987.7494964292871
 30
0.0
 11
28585.604341291921
 21
2027.749496429288
 31
0.0
  0
LINE
  5
418C
  8
YODOROGO
 10
28433.60434129191
 20
1987.7494964292871
 30
0.0
 11
28585.604341291921
 21
1987.7494964292871
 31
0.0
  0
LINE
  5
418D
  8
YODOROGO
 10
28433.60434129191
 20
1867.7494964292871
 30
0.0
 11
28433.60434129191
 21
1987.7494964292871
 31
0.0
  0
LINE
  5
418E
  8
YODOROGO
 10
29001.60434129191
 20
2027.749496429288
 30
0.0
 11
29001.60434129191
 21
1619.749496429288
 31
0.0
  0
LINE
  5
418F
  8
YODOROGO
 10
29073.604341291921
 20
1579.749496429288
 30
0.0
 11
29073.604341291921
 21
2027.749496429288
 31
0.0
  0
LINE
  5
4190
  8
YODOROGO
 10
29261.604341291921
 20
1491.749496429286
 30
0.0
 11
29261.604341291921
 21
2007.749496429288
 31
0.0
  0
LINE
  5
4191
  8
YODOROGO
 10
29197.604341291921
 20
2007.749496429288
 30
0.0
 11
29197.604341291921
 21
1491.749496429286
 31
0.0
  0
LINE
  5
4192
  8
YODOROGO
 10
29385.604341291921
 20
2027.749496429288
 30
0.0
 11
29385.604341291921
 21
1427.749496429288
 31
0.0
  0
LINE
  5
4193
  8
YODOROGO
 10
29457.604341291921
 20
1427.749496429288
 30
0.0
 11
29457.604341291921
 21
2027.749496429288
 31
0.0
  0
LINE
  5
4194
  8
YODOROGO
 10
28657.604341291921
 20
1667.749496429288
 30
0.0
 11
28657.604341291921
 21
1747.74949642929
 31
0.0
  0
LINE
  5
4195
  8
YODOROGO
 10
29885.604341291921
 20
1707.749496429288
 30
0.0
 11
29885.604341291921
 21
1667.749496429288
 31
0.0
  0
LINE
  5
4196
  8
YODOROGO
 10
29885.604341291921
 20
1707.749496429288
 30
0.0
 11
29885.604341291921
 21
1667.749496429288
 31
0.0
  0
ARC
  5
4197
  8
YODOROGO
 10
28906.911576186842
 20
1618.217864442272
 30
0.0
 40
94.705151178741616
 50
274.05244162907093
 51
0.9266642149310712
  0
ARC
  5
4198
  8
YODOROGO
 10
28909.186170719819
 20
1592.61072861044
 30
0.0
 40
164.92042356085511
 50
271.5351210653775
 51
355.52727750585052
  0
LINE
  5
4199
  8
YODOROGO
 10
28913.604341291921
 20
1523.7494964292871
 30
0.0
 11
28913.604341291921
 21
1427.749496429288
 31
0.0
  0
LINE
  5
419A
  8
YODOROGO
 10
28793.60434129191
 20
1667.749496429288
 30
0.0
 11
28657.604341291921
 21
1667.749496429288
 31
0.0
  0
LINE
  5
419B
  8
YODOROGO
 10
28793.60434129191
 20
1603.7494964292871
 30
0.0
 11
28793.60434129191
 21
1667.749496429288
 31
0.0
  0
LINE
  5
419C
  8
YODOROGO
 10
28657.604341291921
 20
1603.7494964292871
 30
0.0
 11
28793.60434129191
 21
1603.7494964292871
 31
0.0
  0
LINE
  5
419D
  8
YODOROGO
 10
28657.604341291921
 20
1523.7494964292871
 30
0.0
 11
28657.604341291921
 21
1603.7494964292871
 31
0.0
  0
LINE
  5
419E
  8
YODOROGO
 10
28793.60434129191
 20
1523.7494964292871
 30
0.0
 11
28657.604341291921
 21
1523.7494964292871
 31
0.0
  0
LINE
  5
419F
  8
YODOROGO
 10
28793.60434129191
 20
1427.749496429288
 30
0.0
 11
28793.60434129191
 21
1523.7494964292871
 31
0.0
  0
LINE
  5
41A0
  8
YODOROGO
 10
29197.604341291921
 20
1491.749496429286
 30
0.0
 11
29261.604341291921
 21
1491.749496429286
 31
0.0
  0
LINE
  5
41A1
  8
YODOROGO
 10
29385.604341291921
 20
1427.749496429288
 30
0.0
 11
29457.604341291921
 21
1427.749496429288
 31
0.0
  0
LINE
  5
41A2
  8
YODOROGO
 10
29737.604341291921
 20
1528.4414521705639
 30
0.0
 11
29737.604341291921
 21
1427.749496429288
 31
0.0
  0
LINE
  5
41A3
  8
YODOROGO
 10
29617.604341291921
 20
1427.749496429288
 30
0.0
 11
29737.604341291921
 21
1528.4414521705639
 31
0.0
  0
LINE
  5
41A4
  8
YODOROGO
 10
29617.604341291921
 20
1547.749496429288
 30
0.0
 11
29617.604341291921
 21
1427.749496429288
 31
0.0
  0
LINE
  5
41A5
  8
YODOROGO
 10
29712.94462869945
 20
1627.749496429288
 30
0.0
 11
29617.604341291921
 21
1547.749496429288
 31
0.0
  0
LINE
  5
41A6
  8
YODOROGO
 10
29617.604341291921
 20
1627.749496429288
 30
0.0
 11
29712.94462869945
 21
1627.749496429288
 31
0.0
  0
LINE
  5
41A7
  8
YODOROGO
 10
29617.604341291921
 20
1667.749496429288
 30
0.0
 11
29617.604341291921
 21
1627.749496429288
 31
0.0
  0
LINE
  5
41A8
  8
YODOROGO
 10
29885.604341291921
 20
1667.749496429288
 30
0.0
 11
29617.604341291921
 21
1667.749496429288
 31
0.0
  0
LINE
  5
41A9
  8
YODOROGO
 10
29917.604341291921
 20
1627.749496429288
 30
0.0
 11
29777.604341291921
 21
1627.749496429288
 31
0.0
  0
LINE
  5
41AA
  8
YODOROGO
 10
29777.604341291921
 20
1562.0054374176559
 30
0.0
 11
29771.409872985321
 21
1556.807661346234
 31
0.0
  0
LINE
  5
41AB
  8
YODOROGO
 10
29777.604341291921
 20
1627.749496429288
 30
0.0
 11
29777.604341291921
 21
1562.0054374176559
 31
0.0
  0
LINE
  5
41AC
  8
YODOROGO
 10
29737.604341291921
 20
1528.4414521705639
 30
0.0
 11
29737.604341291921
 21
1427.749496429288
 31
0.0
  0
LINE
  5
41AD
  8
YODOROGO
 10
29617.604341291921
 20
1427.749496429288
 30
0.0
 11
29737.604341291921
 21
1528.4414521705639
 31
0.0
  0
LINE
  5
41AE
  8
YODOROGO
 10
29617.604341291921
 20
1547.749496429288
 30
0.0
 11
29617.604341291921
 21
1427.749496429288
 31
0.0
  0
LINE
  5
41AF
  8
YODOROGO
 10
29712.94462869945
 20
1627.749496429288
 30
0.0
 11
29617.604341291921
 21
1547.749496429288
 31
0.0
  0
LINE
  5
41B0
  8
YODOROGO
 10
29617.604341291921
 20
1627.749496429288
 30
0.0
 11
29712.94462869945
 21
1627.749496429288
 31
0.0
  0
LINE
  5
41B1
  8
YODOROGO
 10
29617.604341291921
 20
1667.749496429288
 30
0.0
 11
29617.604341291921
 21
1627.749496429288
 31
0.0
  0
LINE
  5
41B2
  8
YODOROGO
 10
29885.604341291921
 20
1667.749496429288
 30
0.0
 11
29617.604341291921
 21
1667.749496429288
 31
0.0
  0
LINE
  5
41B3
  8
YODOROGO
 10
28793.60434129191
 20
1747.74949642929
 30
0.0
 11
28793.60434129191
 21
1819.7494964292871
 31
0.0
  0
LINE
  5
41B4
  8
YODOROGO
 10
28657.604341291921
 20
1747.74949642929
 30
0.0
 11
28793.60434129191
 21
1747.74949642929
 31
0.0
  0
LINE
  5
41B5
  8
YODOROGO
 10
28729.604341291921
 20
1867.7494964292871
 30
0.0
 11
28729.604341291921
 21
1923.7494964292871
 31
0.0
  0
LINE
  5
41B6
  8
YODOROGO
 10
28793.60434129191
 20
1867.7494964292871
 30
0.0
 11
28729.604341291921
 21
1867.7494964292871
 31
0.0
  0
LINE
  5
41B7
  8
YODOROGO
 10
28793.60434129191
 20
1947.749496429288
 30
0.0
 11
28793.60434129191
 21
1867.7494964292871
 31
0.0
  0
ARC
  5
41B8
  8
YODOROGO
 10
28753.60434129191
 20
1947.749496429288
 30
0.0
 40
40.0
 50
0.0
 51
90.0
  0
LINE
  5
41B9
  8
YODOROGO
 10
28657.604341291921
 20
1987.7494964292871
 30
0.0
 11
28753.60434129191
 21
1987.7494964292871
 31
0.0
  0
LINE
  5
41BA
  8
YODOROGO
 10
28657.604341291921
 20
2027.749496429288
 30
0.0
 11
28657.604341291921
 21
1987.7494964292871
 31
0.0
  0
LINE
  5
41BB
  8
YODOROGO
 10
29073.604341291921
 20
2027.749496429288
 30
0.0
 11
29001.60434129191
 21
2027.749496429288
 31
0.0
  0
LINE
  5
41BC
  8
YODOROGO
 10
29261.604341291921
 20
2007.749496429288
 30
0.0
 11
29197.604341291921
 21
2007.749496429288
 31
0.0
  0
LINE
  5
41BD
  8
YODOROGO
 10
29457.604341291921
 20
2027.749496429288
 30
0.0
 11
29385.604341291921
 21
2027.749496429288
 31
0.0
  0
LINE
  5
41BE
  8
YODOROGO
 10
29673.604341291921
 20
1707.749496429288
 30
0.0
 11
29673.604341291921
 21
1771.7494964292871
 31
0.0
1001
AUTOCAD_POSTSCRIPT_FIGURE
1002
{
1000
PSFILL
1000
Grayscale
1000
Grayscale
1070
    25
1002
}
  0
LINE
  5
41BF
  8
YODOROGO
 10
29617.604341291921
 20
1707.749496429288
 30
0.0
 11
29673.604341291921
 21
1707.749496429288
 31
0.0
1001
AUTOCAD_POSTSCRIPT_FIGURE
1002
{
1000
PSFILL
1000
Grayscale
1000
Grayscale
1070
    25
1002
}
  0
LINE
  5
41C0
  8
YODOROGO
 10
29617.604341291921
 20
1819.7494964292871
 30
0.0
 11
29617.604341291921
 21
1707.749496429288
 31
0.0
1001
AUTOCAD_POSTSCRIPT_FIGURE
1002
{
1000
PSFILL
1000
Grayscale
1000
Grayscale
1070
    25
1002
}
  0
LINE
  5
41C1
  8
YODOROGO
 10
29765.604341291921
 20
1819.7494964292871
 30
0.0
 11
29617.604341291921
 21
1819.7494964292871
 31
0.0
1001
AUTOCAD_POSTSCRIPT_FIGURE
1002
{
1000
PSFILL
1000
Grayscale
1000
Grayscale
1070
    25
1002
}
  0
LINE
  5
41C2
  8
YODOROGO
 10
29765.604341291921
 20
1859.7494964292871
 30
0.0
 11
29765.604341291921
 21
1819.7494964292871
 31
0.0
1001
AUTOCAD_POSTSCRIPT_FIGURE
1002
{
1000
PSFILL
1000
Grayscale
1000
Grayscale
1070
    25
1002
}
  0
LINE
  5
41C3
  8
YODOROGO
 10
29617.604341291921
 20
1859.7494964292871
 30
0.0
 11
29765.604341291921
 21
1859.7494964292871
 31
0.0
1001
AUTOCAD_POSTSCRIPT_FIGURE
1002
{
1000
PSFILL
1000
Grayscale
1000
Grayscale
1070
    25
1002
}
  0
LINE
  5
41C4
  8
YODOROGO
 10
29617.604341291921
 20
1907.7494964292871
 30
0.0
 11
29617.604341291921
 21
1859.7494964292871
 31
0.0
1001
AUTOCAD_POSTSCRIPT_FIGURE
1002
{
1000
PSFILL
1000
Grayscale
1000
Grayscale
1070
    25
1002
}
  0
LINE
  5
41C5
  8
YODOROGO
 10
29765.604341291921
 20
1907.7494964292871
 30
0.0
 11
29617.604341291921
 21
1907.7494964292871
 31
0.0
1001
AUTOCAD_POSTSCRIPT_FIGURE
1002
{
1000
PSFILL
1000
Grayscale
1000
Grayscale
1070
    25
1002
}
  0
LINE
  5
41C6
  8
YODOROGO
 10
29765.604341291921
 20
1947.749496429288
 30
0.0
 11
29765.604341291921
 21
1907.7494964292871
 31
0.0
1001
AUTOCAD_POSTSCRIPT_FIGURE
1002
{
1000
PSFILL
1000
Grayscale
1000
Grayscale
1070
    25
1002
}
  0
LINE
  5
41C7
  8
YODOROGO
 10
29617.604341291921
 20
1947.749496429288
 30
0.0
 11
29765.604341291921
 21
1947.749496429288
 31
0.0
1001
AUTOCAD_POSTSCRIPT_FIGURE
1002
{
1000
PSFILL
1000
Grayscale
1000
Grayscale
1070
    25
1002
}
  0
LINE
  5
41C8
  8
YODOROGO
 10
29617.604341291921
 20
2027.749496429288
 30
0.0
 11
29617.604341291921
 21
1947.749496429288
 31
0.0
1001
AUTOCAD_POSTSCRIPT_FIGURE
1002
{
1000
PSFILL
1000
Grayscale
1000
Grayscale
1070
    25
1002
}
  0
LINE
  5
41C9
  8
YODOROGO
 10
29665.604341291921
 20
2027.749496429288
 30
0.0
 11
29617.604341291921
 21
2027.749496429288
 31
0.0
1001
AUTOCAD_POSTSCRIPT_FIGURE
1002
{
1000
PSFILL
1000
Grayscale
1000
Grayscale
1070
    25
1002
}
  0
LINE
  5
41CA
  8
YODOROGO
 10
29665.604341291921
 20
1995.7494964292871
 30
0.0
 11
29665.604341291921
 21
2027.749496429288
 31
0.0
1001
AUTOCAD_POSTSCRIPT_FIGURE
1002
{
1000
PSFILL
1000
Grayscale
1000
Grayscale
1070
    25
1002
}
  0
LINE
  5
41CB
  8
YODOROGO
 10
29765.604341291921
 20
1995.7494964292871
 30
0.0
 11
29665.604341291921
 21
1995.7494964292871
 31
0.0
1001
AUTOCAD_POSTSCRIPT_FIGURE
1002
{
1000
PSFILL
1000
Grayscale
1000
Grayscale
1070
    25
1002
}
  0
LINE
  5
41CC
  8
YODOROGO
 10
29765.604341291921
 20
2027.749496429288
 30
0.0
 11
29765.604341291921
 21
1995.7494964292871
 31
0.0
1001
AUTOCAD_POSTSCRIPT_FIGURE
1002
{
1000
PSFILL
1000
Grayscale
1000
Grayscale
1070
    25
1002
}
  0
LINE
  5
41CD
  8
YODOROGO
 10
29829.604341291921
 20
2027.749496429288
 30
0.0
 11
29765.604341291921
 21
2027.749496429288
 31
0.0
1001
AUTOCAD_POSTSCRIPT_FIGURE
1002
{
1000
PSFILL
1000
Grayscale
1000
Grayscale
1070
    25
1002
}
  0
LINE
  5
41CE
  8
YODOROGO
 10
29829.604341291921
 20
1995.7494964292871
 30
0.0
 11
29829.604341291921
 21
2027.749496429288
 31
0.0
1001
AUTOCAD_POSTSCRIPT_FIGURE
1002
{
1000
PSFILL
1000
Grayscale
1000
Grayscale
1070
    25
1002
}
  0
LINE
  5
41CF
  8
YODOROGO
 10
29829.604341291921
 20
1907.7494964292871
 30
0.0
 11
29829.604341291921
 21
1947.749496429288
 31
0.0
1001
AUTOCAD_POSTSCRIPT_FIGURE
1002
{
1000
PSFILL
1000
Grayscale
1000
Grayscale
1070
    25
1002
}
  0
LINE
  5
41D0
  8
YODOROGO
 10
29829.604341291921
 20
1819.7494964292871
 30
0.0
 11
29829.604341291921
 21
1859.7494964292871
 31
0.0
1001
AUTOCAD_POSTSCRIPT_FIGURE
1002
{
1000
PSFILL
1000
Grayscale
1000
Grayscale
1070
    25
1002
}
  0
LINE
  5
41D1
  8
YODOROGO
 10
29921.60434129191
 20
1771.7494964292871
 30
0.0
 11
29921.60434129191
 21
1707.749496429288
 31
0.0
1001
AUTOCAD_POSTSCRIPT_FIGURE
1002
{
1000
PSFILL
1000
Grayscale
1000
Grayscale
1070
    25
1002
}
  0
LINE
  5
41D2
  8
YODOROGO
 10
29829.604341291921
 20
1771.7494964292871
 30
0.0
 11
29921.60434129191
 21
1771.7494964292871
 31
0.0
1001
AUTOCAD_POSTSCRIPT_FIGURE
1002
{
1000
PSFILL
1000
Grayscale
1000
Grayscale
1070
    25
1002
}
  0
LINE
  5
41D3
  8
YODOROGO
 10
29829.604341291921
 20
1707.749496429288
 30
0.0
 11
29829.604341291921
 21
1771.7494964292871
 31
0.0
1001
AUTOCAD_POSTSCRIPT_FIGURE
1002
{
1000
PSFILL
1000
Grayscale
1000
Grayscale
1070
    25
1002
}
  0
LINE
  5
41D4
  8
YODOROGO
 10
29765.604341291921
 20
1707.749496429288
 30
0.0
 11
29829.604341291921
 21
1707.749496429288
 31
0.0
1001
AUTOCAD_POSTSCRIPT_FIGURE
1002
{
1000
PSFILL
1000
Grayscale
1000
Grayscale
1070
    25
1002
}
  0
LINE
  5
41D5
  8
YODOROGO
 10
29765.604341291921
 20
1771.7494964292871
 30
0.0
 11
29765.604341291921
 21
1707.749496429288
 31
0.0
1001
AUTOCAD_POSTSCRIPT_FIGURE
1002
{
1000
PSFILL
1000
Grayscale
1000
Grayscale
1070
    25
1002
}
  0
LINE
  5
41D6
  8
YODOROGO
 10
29673.604341291921
 20
1771.7494964292871
 30
0.0
 11
29765.604341291921
 21
1771.7494964292871
 31
0.0
1001
AUTOCAD_POSTSCRIPT_FIGURE
1002
{
1000
PSFILL
1000
Grayscale
1000
Grayscale
1070
    25
1002
}
  0
ARC
  5
41D7
  8
YODOROGO
 10
31059.517893357912
 20
1602.6807375155761
 30
0.0
 40
178.22128111072141
 50
281.02627495425338
 51
357.77113575573799
  0
LINE
  5
41D8
  8
YODOROGO
 10
31413.604341291921
 20
1907.7494964292871
 30
0.0
 11
31165.604341291921
 21
1907.7494964292871
 31
0.0
  0
LINE
  5
41D9
  8
YODOROGO
 10
31413.604341291921
 20
2027.749496429288
 30
0.0
 11
31165.604341291921
 21
2027.749496429288
 31
0.0
  0
LINE
  5
41DA
  8
YODOROGO
 10
31165.604341291921
 20
1963.749496429286
 30
0.0
 11
31413.604341291921
 21
1963.749496429286
 31
0.0
  0
LINE
  5
41DB
  8
YODOROGO
 10
30791.604341291921
 20
1563.7494964292871
 30
0.0
 11
30791.604341291921
 21
1755.7494964292871
 31
0.0
  0
LINE
  5
41DC
  8
YODOROGO
 10
30763.604341291921
 20
1691.749496429288
 30
0.0
 11
30763.604341291921
 21
1563.7494964292871
 31
0.0
  0
LINE
  5
41DD
  8
YODOROGO
 10
30723.604341291921
 20
1491.749496429288
 30
0.0
 11
30723.604341291921
 21
1691.749496429288
 31
0.0
  0
LINE
  5
41DE
  8
YODOROGO
 10
30899.604341291932
 20
1691.749496429288
 30
0.0
 11
30899.604341291932
 21
1491.749496429288
 31
0.0
  0
LINE
  5
41DF
  8
YODOROGO
 10
30859.604341291932
 20
1563.7494964292871
 30
0.0
 11
30859.604341291932
 21
1691.749496429288
 31
0.0
  0
LINE
  5
41E0
  8
YODOROGO
 10
30831.604341291921
 20
1755.7494964292871
 30
0.0
 11
30831.604341291921
 21
1563.7494964292871
 31
0.0
  0
LINE
  5
41E1
  8
YODOROGO
 10
30973.604341291921
 20
2027.749496429288
 30
0.0
 11
30973.604341291921
 21
1467.749496429288
 31
0.0
  0
LINE
  5
41E2
  8
YODOROGO
 10
30645.604341291921
 20
1427.749496429288
 30
0.0
 11
30645.604341291921
 21
2027.749496429288
 31
0.0
  0
LINE
  5
41E3
  8
YODOROGO
 10
30697.604341291932
 20
1963.749496429286
 30
0.0
 11
30697.604341291932
 21
1427.749496429288
 31
0.0
  0
LINE
  5
41E4
  8
YODOROGO
 10
30925.604341291921
 20
1547.749496429288
 30
0.0
 11
30925.604341291921
 21
1963.749496429286
 31
0.0
  0
LINE
  5
41E5
  8
YODOROGO
 10
30381.604341291932
 20
1627.749496429288
 30
0.0
 11
30381.604341291932
 21
1679.749496429288
 31
0.0
  0
LINE
  5
41E6
  8
YODOROGO
 10
30617.604341291921
 20
1679.749496429288
 30
0.0
 11
30617.604341291921
 21
1627.749496429288
 31
0.0
  0
LINE
  5
41E7
  8
YODOROGO
 10
31165.604341291921
 20
1907.7494964292871
 30
0.0
 11
31165.604341291921
 21
1635.7494964292871
 31
0.0
  0
LINE
  5
41E8
  8
YODOROGO
 10
29949.60434129191
 20
1667.749496429288
 30
0.0
 11
29949.60434129191
 21
1707.749496429288
 31
0.0
  0
LINE
  5
41E9
  8
YODOROGO
 10
29949.60434129191
 20
1667.749496429288
 30
0.0
 11
29949.60434129191
 21
1707.749496429288
 31
0.0
  0
ARC
  5
41EA
  8
YODOROGO
 10
30537.604341291921
 20
1507.749496429288
 30
0.0
 40
80.0
 50
270.0
 51
0.0
  0
LINE
  5
41EB
  8
YODOROGO
 10
30569.604341291921
 20
1599.7494964292871
 30
0.0
 11
30617.604341291921
 21
1599.7494964292871
 31
0.0
  0
LINE
  5
41EC
  8
YODOROGO
 10
30617.604341291921
 20
1627.749496429288
 30
0.0
 11
30529.604341291939
 21
1627.749496429288
 31
0.0
  0
LINE
  5
41ED
  8
YODOROGO
 10
30217.604341291921
 20
1667.749496429288
 30
0.0
 11
29949.60434129191
 21
1667.749496429288
 31
0.0
  0
LINE
  5
41EE
  8
YODOROGO
 10
30217.604341291921
 20
1627.749496429288
 30
0.0
 11
30217.604341291921
 21
1667.749496429288
 31
0.0
  0
LINE
  5
41EF
  8
YODOROGO
 10
30017.604341291921
 20
1627.749496429288
 30
0.0
 11
30217.604341291921
 21
1627.749496429288
 31
0.0
  0
ARC
  5
41F0
  8
YODOROGO
 10
30230.05882870136
 20
1868.885714952901
 30
0.0
 40
321.37763628522822
 50
228.61814546189939
 51
245.660289248906
  0
LINE
  5
41F1
  8
YODOROGO
 10
30105.604341291921
 20
1603.7494964292871
 30
0.0
 11
30097.60434129195
 21
1576.0728158699001
 31
0.0
  0
LINE
  5
41F2
  8
YODOROGO
 10
30189.604341291921
 20
1603.7494964292871
 30
0.0
 11
30105.604341291921
 21
1603.7494964292871
 31
0.0
  0
LINE
  5
41F3
  8
YODOROGO
 10
30177.604341291921
 20
1551.817722473427
 30
0.0
 11
30189.604341291921
 21
1603.7494964292871
 31
0.0
  0
ARC
  5
41F4
  8
YODOROGO
 10
30230.05882870045
 20
1868.8857149530011
 30
0.0
 40
321.37763628529081
 50
260.60629297969911
 51
267.77903556555862
  0
LINE
  5
41F5
  8
YODOROGO
 10
30217.604341291921
 20
1427.749496429285
 30
0.0
 11
30217.604341291921
 21
1547.749496429288
 31
0.0
  0
LINE
  5
41F6
  8
YODOROGO
 10
29937.604341291932
 20
1481.3393349155101
 30
0.0
 11
29937.604341291921
 21
1594.5310905311401
 31
0.0
  0
LINE
  5
41F7
  8
YODOROGO
 10
30217.604341291921
 20
1667.749496429288
 30
0.0
 11
29949.60434129191
 21
1667.749496429288
 31
0.0
  0
LINE
  5
41F8
  8
YODOROGO
 10
30217.604341291921
 20
1627.749496429288
 30
0.0
 11
30217.604341291921
 21
1667.749496429288
 31
0.0
  0
LINE
  5
41F9
  8
YODOROGO
 10
30017.604341291921
 20
1627.749496429288
 30
0.0
 11
30217.604341291921
 21
1627.749496429288
 31
0.0
  0
ARC
  5
41FA
  8
YODOROGO
 10
30230.05882870136
 20
1868.885714952901
 30
0.0
 40
321.37763628522822
 50
228.61814546189939
 51
245.660289248906
  0
LINE
  5
41FB
  8
YODOROGO
 10
30105.604341291921
 20
1603.7494964292871
 30
0.0
 11
30097.60434129195
 21
1576.0728158699001
 31
0.0
  0
LINE
  5
41FC
  8
YODOROGO
 10
30189.604341291921
 20
1603.7494964292871
 30
0.0
 11
30105.604341291921
 21
1603.7494964292871
 31
0.0
  0
LINE
  5
41FD
  8
YODOROGO
 10
30177.604341291921
 20
1551.817722473427
 30
0.0
 11
30189.604341291921
 21
1603.7494964292871
 31
0.0
  0
ARC
  5
41FE
  8
YODOROGO
 10
30230.05882870045
 20
1868.8857149530011
 30
0.0
 40
321.37763628529081
 50
260.60629297969911
 51
267.77903556555862
  0
LINE
  5
41FF
  8
YODOROGO
 10
30217.604341291921
 20
1427.749496429285
 30
0.0
 11
30217.604341291921
 21
1547.749496429288
 31
0.0
  0
LINE
  5
4200
  8
YODOROGO
 10
29937.604341291932
 20
1481.3393349155101
 30
0.0
 11
29937.604341291921
 21
1594.5310905311401
 31
0.0
  0
LINE
  5
4201
  8
YODOROGO
 10
30433.604341291921
 20
1573.749496429288
 30
0.0
 11
30381.604341291932
 21
1573.749496429288
 31
0.0
  0
LINE
  5
4202
  8
YODOROGO
 10
30433.604341291921
 20
1601.749496429285
 30
0.0
 11
30433.604341291921
 21
1573.749496429288
 31
0.0
  0
LINE
  5
4203
  8
YODOROGO
 10
30381.604341291932
 20
1601.749496429285
 30
0.0
 11
30433.604341291921
 21
1601.749496429285
 31
0.0
  0
LINE
  5
4204
  8
YODOROGO
 10
30381.604341291932
 20
1573.749496429288
 30
0.0
 11
30381.604341291932
 21
1601.749496429285
 31
0.0
  0
LINE
  5
4205
  8
YODOROGO
 10
30429.604341291921
 20
1577.7494964292871
 30
0.0
 11
30385.604341291921
 21
1577.7494964292871
 31
0.0
  0
LINE
  5
4206
  8
YODOROGO
 10
30429.604341291921
 20
1597.749496429288
 30
0.0
 11
30429.604341291921
 21
1577.7494964292871
 31
0.0
  0
LINE
  5
4207
  8
YODOROGO
 10
30385.604341291921
 20
1597.749496429288
 30
0.0
 11
30429.604341291921
 21
1597.749496429288
 31
0.0
  0
LINE
  5
4208
  8
YODOROGO
 10
30385.604341291921
 20
1577.7494964292871
 30
0.0
 11
30385.604341291921
 21
1597.749496429288
 31
0.0
  0
LINE
  5
4209
  8
YODOROGO
 10
30425.604341291921
 20
1581.749496429286
 30
0.0
 11
30389.604341291921
 21
1581.749496429286
 31
0.0
  0
LINE
  5
420A
  8
YODOROGO
 10
30425.604341291921
 20
1593.7494964292871
 30
0.0
 11
30425.604341291921
 21
1581.749496429286
 31
0.0
  0
LINE
  5
420B
  8
YODOROGO
 10
30389.604341291921
 20
1593.7494964292871
 30
0.0
 11
30425.604341291921
 21
1593.7494964292871
 31
0.0
  0
LINE
  5
420C
  8
YODOROGO
 10
30389.604341291921
 20
1581.749496429286
 30
0.0
 11
30389.604341291921
 21
1593.7494964292871
 31
0.0
  0
LINE
  5
420D
  8
YODOROGO
 10
30421.604341291932
 20
1585.7494964292871
 30
0.0
 11
30393.604341291921
 21
1585.7494964292871
 31
0.0
  0
LINE
  5
420E
  8
YODOROGO
 10
30421.604341291932
 20
1589.749496429288
 30
0.0
 11
30421.604341291932
 21
1585.7494964292871
 31
0.0
  0
LINE
  5
420F
  8
YODOROGO
 10
30393.604341291921
 20
1589.749496429288
 30
0.0
 11
30421.604341291932
 21
1589.749496429288
 31
0.0
  0
LINE
  5
4210
  8
YODOROGO
 10
30393.604341291921
 20
1585.7494964292871
 30
0.0
 11
30393.604341291921
 21
1589.749496429288
 31
0.0
  0
LINE
  5
4211
  8
YODOROGO
 10
30465.604341291921
 20
1627.749496429288
 30
0.0
 11
30381.604341291932
 21
1627.749496429288
 31
0.0
  0
LINE
  5
4212
  8
YODOROGO
 10
30465.604341291921
 20
1547.749496429288
 30
0.0
 11
30465.604341291921
 21
1627.749496429288
 31
0.0
  0
LINE
  5
4213
  8
YODOROGO
 10
30381.604341291932
 20
1547.749496429288
 30
0.0
 11
30465.604341291921
 21
1547.749496429288
 31
0.0
  0
LINE
  5
4214
  8
YODOROGO
 10
30381.604341291932
 20
1427.749496429288
 30
0.0
 11
30381.604341291932
 21
1547.749496429288
 31
0.0
  0
LINE
  5
4215
  8
YODOROGO
 10
30537.604341291921
 20
1427.749496429288
 30
0.0
 11
30381.604341291932
 21
1427.749496429288
 31
0.0
  0
LINE
  5
4216
  8
YODOROGO
 10
30569.604341291921
 20
1571.749496429285
 30
0.0
 11
30569.604341291921
 21
1599.7494964292871
 31
0.0
  0
ARC
  5
4217
  8
YODOROGO
 10
30545.604341291921
 20
1571.749496429291
 30
0.0
 40
24.000000000003752
 50
270.0
 51
359.99999999998772
  0
LINE
  5
4218
  8
YODOROGO
 10
30529.604341291939
 20
1547.749496429288
 30
0.0
 11
30545.604341291921
 21
1547.749496429288
 31
0.0
  0
LINE
  5
4219
  8
YODOROGO
 10
30529.604341291939
 20
1627.749496429288
 30
0.0
 11
30529.604341291939
 21
1547.749496429288
 31
0.0
  0
LINE
  5
421A
  8
YODOROGO
 10
30899.604341291932
 20
1547.749496429288
 30
0.0
 11
30925.604341291921
 21
1547.749496429288
 31
0.0
  0
LINE
  5
421B
  8
YODOROGO
 10
30933.604341291921
 20
1427.749496429288
 30
0.0
 11
30899.604341291932
 21
1427.749496429288
 31
0.0
  0
LINE
  5
421C
  8
YODOROGO
 10
30763.604341291921
 20
1563.7494964292871
 30
0.0
 11
30791.604341291921
 21
1563.7494964292871
 31
0.0
  0
LINE
  5
421D
  8
YODOROGO
 10
30899.604341291932
 20
1491.749496429288
 30
0.0
 11
30723.604341291921
 21
1491.749496429288
 31
0.0
  0
LINE
  5
421E
  8
YODOROGO
 10
30831.604341291921
 20
1563.7494964292871
 30
0.0
 11
30859.604341291932
 21
1563.7494964292871
 31
0.0
  0
LINE
  5
421F
  8
YODOROGO
 10
30899.604341291932
 20
1427.749496429288
 30
0.0
 11
30899.604341291932
 21
1547.749496429288
 31
0.0
  0
LINE
  5
4220
  8
YODOROGO
 10
30697.604341291932
 20
1427.749496429288
 30
0.0
 11
30645.604341291921
 21
1427.749496429288
 31
0.0
  0
LINE
  5
4221
  8
YODOROGO
 10
30617.604341291921
 20
1599.7494964292871
 30
0.0
 11
30617.604341291921
 21
1507.749496429288
 31
0.0
  0
ARC
  5
4222
  8
YODOROGO
 10
30933.604341291921
 20
1467.749496429288
 30
0.0
 40
40.0
 50
270.0
 51
0.0
  0
LINE
  5
4223
  8
YODOROGO
 10
31093.604341291921
 20
1523.7494964292871
 30
0.0
 11
31093.604341291921
 21
1427.749496429288
 31
0.0
  0
ARC
  5
4224
  8
YODOROGO
 10
31039.721395566768
 20
1637.5313901097329
 30
0.0
 40
125.8955565916754
 50
295.34052442160117
 51
359.18902303418679
  0
LINE
  5
4225
  8
YODOROGO
 10
30617.604341291921
 20
1859.7494964292871
 30
0.0
 11
30497.604341291921
 21
1939.749496429288
 31
0.0
  0
LINE
  5
4226
  8
YODOROGO
 10
30497.604341291921
 20
2027.749496429288
 30
0.0
 11
30617.604341291921
 21
1947.749496429288
 31
0.0
  0
LINE
  5
4227
  8
YODOROGO
 10
30529.604341291939
 20
1679.749496429288
 30
0.0
 11
30617.604341291921
 21
1679.749496429288
 31
0.0
  0
LINE
  5
4228
  8
YODOROGO
 10
30617.604341291921
 20
1735.7494964292871
 30
0.0
 11
30529.604341291939
 21
1735.7494964292871
 31
0.0
  0
LINE
  5
4229
  8
YODOROGO
 10
30381.604341291932
 20
1795.7494964292871
 30
0.0
 11
30617.604341291921
 21
1795.7494964292871
 31
0.0
  0
LINE
  5
422A
  8
YODOROGO
 10
30081.604341291921
 20
2027.749496429288
 30
0.0
 11
30021.604341291921
 21
2027.749496429288
 31
0.0
  0
LINE
  5
422B
  8
YODOROGO
 10
30081.604341291921
 20
1827.7494964292871
 30
0.0
 11
30081.604341291921
 21
2027.749496429288
 31
0.0
  0
LINE
  5
422C
  8
YODOROGO
 10
30021.604341291921
 20
1827.7494964292871
 30
0.0
 11
30081.604341291921
 21
1827.7494964292871
 31
0.0
  0
LINE
  5
422D
  8
YODOROGO
 10
30021.604341291921
 20
2027.749496429288
 30
0.0
 11
30021.604341291921
 21
1827.7494964292871
 31
0.0
  0
LINE
  5
422E
  8
YODOROGO
 10
30161.604341291921
 20
2027.749496429288
 30
0.0
 11
30217.604341291921
 21
2027.749496429288
 31
0.0
  0
LINE
  5
422F
  8
YODOROGO
 10
30161.604341291921
 20
1811.7494964292871
 30
0.0
 11
30161.604341291921
 21
2027.749496429288
 31
0.0
  0
ARC
  5
4230
  8
YODOROGO
 10
30121.604341291921
 20
1811.7494964292871
 30
0.0
 40
40.0
 50
270.0
 51
0.0
  0
LINE
  5
4231
  8
YODOROGO
 10
30021.604341291921
 20
1771.7494964292871
 30
0.0
 11
30121.604341291921
 21
1771.7494964292871
 31
0.0
  0
LINE
  5
4232
  8
YODOROGO
 10
30021.604341291921
 20
1707.749496429288
 30
0.0
 11
30021.604341291921
 21
1771.7494964292871
 31
0.0
  0
LINE
  5
4233
  8
YODOROGO
 10
30137.604341291921
 20
1707.749496429288
 30
0.0
 11
30021.604341291921
 21
1707.749496429288
 31
0.0
  0
ARC
  5
4234
  8
YODOROGO
 10
30137.604341291921
 20
1787.7494964292871
 30
0.0
 40
80.0
 50
270.0
 51
0.0
  0
LINE
  5
4235
  8
YODOROGO
 10
30217.604341291921
 20
2027.749496429288
 30
0.0
 11
30217.604341291921
 21
1787.7494964292871
 31
0.0
  0
LINE
  5
4236
  8
YODOROGO
 10
29977.604341291921
 20
1947.749496429288
 30
0.0
 11
29977.604341291921
 21
1995.7494964292871
 31
0.0
1001
AUTOCAD_POSTSCRIPT_FIGURE
1002
{
1000
PSFILL
1000
Grayscale
1000
Grayscale
1070
    25
1002
}
  0
LINE
  5
4237
  8
YODOROGO
 10
29977.604341291921
 20
1859.7494964292871
 30
0.0
 11
29977.604341291921
 21
1907.7494964292871
 31
0.0
1001
AUTOCAD_POSTSCRIPT_FIGURE
1002
{
1000
PSFILL
1000
Grayscale
1000
Grayscale
1070
    25
1002
}
  0
LINE
  5
4238
  8
YODOROGO
 10
29977.604341291921
 20
1707.749496429288
 30
0.0
 11
29977.604341291921
 21
1819.7494964292871
 31
0.0
1001
AUTOCAD_POSTSCRIPT_FIGURE
1002
{
1000
PSFILL
1000
Grayscale
1000
Grayscale
1070
    25
1002
}
  0
LINE
  5
4239
  8
YODOROGO
 10
30381.604341291932
 20
1907.7494964292871
 30
0.0
 11
30497.604341291921
 21
2027.749496429288
 31
0.0
  0
LINE
  5
423A
  8
YODOROGO
 10
30381.604341291932
 20
1819.7494964292871
 30
0.0
 11
30381.604341291932
 21
1907.7494964292871
 31
0.0
  0
LINE
  5
423B
  8
YODOROGO
 10
30497.604341291921
 20
1939.749496429288
 30
0.0
 11
30381.604341291932
 21
1819.7494964292871
 31
0.0
  0
LINE
  5
423C
  8
YODOROGO
 10
30465.604341291921
 20
1679.749496429288
 30
0.0
 11
30465.604341291921
 21
1735.7494964292871
 31
0.0
  0
LINE
  5
423D
  8
YODOROGO
 10
30381.604341291932
 20
1679.749496429288
 30
0.0
 11
30465.604341291921
 21
1679.749496429288
 31
0.0
  0
LINE
  5
423E
  8
YODOROGO
 10
30529.604341291939
 20
1735.7494964292871
 30
0.0
 11
30529.604341291939
 21
1679.749496429288
 31
0.0
  0
LINE
  5
423F
  8
YODOROGO
 10
30381.604341291932
 20
1735.7494964292871
 30
0.0
 11
30381.604341291932
 21
1795.7494964292871
 31
0.0
  0
LINE
  5
4240
  8
YODOROGO
 10
30465.604341291921
 20
1735.7494964292871
 30
0.0
 11
30381.604341291932
 21
1735.7494964292871
 31
0.0
  0
LINE
  5
4241
  8
YODOROGO
 10
30645.604341291921
 20
2027.749496429288
 30
0.0
 11
30973.604341291921
 21
2027.749496429288
 31
0.0
  0
LINE
  5
4242
  8
YODOROGO
 10
30925.604341291921
 20
1963.749496429286
 30
0.0
 11
30697.604341291932
 21
1963.749496429286
 31
0.0
  0
LINE
  5
4243
  8
YODOROGO
 10
30873.604341291921
 20
1819.7494964292871
 30
0.0
 11
30899.604341291932
 21
1819.7494964292871
 31
0.0
  0
LINE
  5
4244
  8
YODOROGO
 10
30899.604341291932
 20
1939.749496429288
 30
0.0
 11
30873.604341291921
 21
1819.7494964292871
 31
0.0
  0
LINE
  5
4245
  8
YODOROGO
 10
30851.604341291939
 20
1939.749496429288
 30
0.0
 11
30899.604341291932
 21
1939.749496429288
 31
0.0
  0
LINE
  5
4246
  8
YODOROGO
 10
30825.604341291921
 20
1819.7494964292871
 30
0.0
 11
30851.604341291939
 21
1939.749496429288
 31
0.0
  0
LINE
  5
4247
  8
YODOROGO
 10
30797.604341291921
 20
1819.7494964292871
 30
0.0
 11
30825.604341291921
 21
1819.7494964292871
 31
0.0
  0
LINE
  5
4248
  8
YODOROGO
 10
30771.604341291939
 20
1939.749496429288
 30
0.0
 11
30797.604341291921
 21
1819.7494964292871
 31
0.0
  0
LINE
  5
4249
  8
YODOROGO
 10
30723.604341291921
 20
1939.749496429288
 30
0.0
 11
30771.604341291939
 21
1939.749496429288
 31
0.0
  0
LINE
  5
424A
  8
YODOROGO
 10
30749.604341291921
 20
1819.7494964292871
 30
0.0
 11
30723.604341291921
 21
1939.749496429288
 31
0.0
  0
LINE
  5
424B
  8
YODOROGO
 10
30723.604341291921
 20
1819.7494964292871
 30
0.0
 11
30749.604341291921
 21
1819.7494964292871
 31
0.0
  0
LINE
  5
424C
  8
YODOROGO
 10
30723.604341291921
 20
1755.7494964292871
 30
0.0
 11
30723.604341291921
 21
1819.7494964292871
 31
0.0
  0
LINE
  5
424D
  8
YODOROGO
 10
30899.604341291932
 20
1755.7494964292871
 30
0.0
 11
30723.604341291921
 21
1755.7494964292871
 31
0.0
  0
LINE
  5
424E
  8
YODOROGO
 10
30899.604341291932
 20
1819.7494964292871
 30
0.0
 11
30899.604341291932
 21
1755.7494964292871
 31
0.0
  0
LINE
  5
424F
  8
YODOROGO
 10
30617.604341291921
 20
1947.749496429288
 30
0.0
 11
30617.604341291921
 21
1859.7494964292871
 31
0.0
  0
LINE
  5
4250
  8
YODOROGO
 10
30791.604341291921
 20
1755.7494964292871
 30
0.0
 11
30831.604341291921
 21
1755.7494964292871
 31
0.0
  0
LINE
  5
4251
  8
YODOROGO
 10
30723.604341291921
 20
1691.749496429288
 30
0.0
 11
30763.604341291921
 21
1691.749496429288
 31
0.0
  0
LINE
  5
4252
  8
YODOROGO
 10
30859.604341291932
 20
1691.749496429288
 30
0.0
 11
30899.604341291932
 21
1691.749496429288
 31
0.0
  0
LINE
  5
4253
  8
YODOROGO
 10
30617.604341291921
 20
1795.7494964292871
 30
0.0
 11
30617.604341291921
 21
1735.7494964292871
 31
0.0
  0
LINE
  5
4254
  8
YODOROGO
 10
31165.604341291921
 20
2027.749496429288
 30
0.0
 11
31165.604341291921
 21
1963.749496429286
 31
0.0
  0
LINE
  5
4255
  8
YODOROGO
 10
31533.604341291921
 20
1595.7494964292871
 30
0.0
 11
31533.60434129191
 21
1811.7494964292871
 31
0.0
  0
LINE
  5
4256
  8
YODOROGO
 10
31461.60434129191
 20
1987.7494964292871
 30
0.0
 11
31461.60434129191
 21
1635.7494964292871
 31
0.0
  0
LINE
  5
4257
  8
YODOROGO
 10
31653.604341291921
 20
1427.749496429288
 30
0.0
 11
31653.60434129191
 21
1811.7494964292871
 31
0.0
  0
LINE
  5
4258
  8
YODOROGO
 10
31589.604341291921
 20
1811.7494964292871
 30
0.0
 11
31589.604341291921
 21
1427.749496429288
 31
0.0
  0
LINE
  5
4259
  8
YODOROGO
 10
31237.604341291921
 20
1595.7494964292871
 30
0.0
 11
31237.604341291921
 21
1707.749496429288
 31
0.0
  0
ARC
  5
425A
  8
YODOROGO
 10
31353.914865116069
 20
1607.790351288558
 30
0.0
 40
180.09244857598841
 50
268.62849102169793
 51
356.16638457330322
  0
LINE
  5
425B
  8
YODOROGO
 10
31349.604341291939
 20
1527.749496429288
 30
0.0
 11
31349.604341291939
 21
1427.749496429288
 31
0.0
  0
ARC
  5
425C
  8
YODOROGO
 10
31351.518075724562
 20
1637.838957017655
 30
0.0
 40
110.1060929836122
 50
269.00410209305932
 51
358.91264455492478
  0
LINE
  5
425D
  8
YODOROGO
 10
31589.604341291921
 20
1427.749496429288
 30
0.0
 11
31653.604341291921
 21
1427.749496429288
 31
0.0
  0
LINE
  5
425E
  8
YODOROGO
 10
31533.60434129191
 20
1811.7494964292871
 30
0.0
 11
31589.604341291921
 21
1811.7494964292871
 31
0.0
  0
LINE
  5
425F
  8
YODOROGO
 10
31621.604341291939
 20
1987.7494964292871
 30
0.0
 11
31461.60434129191
 21
1987.7494964292871
 31
0.0
  0
LINE
  5
4260
  8
YODOROGO
 10
31533.60434129191
 20
1915.7494964292871
 30
0.0
 11
31661.604341291939
 21
1915.7494964292871
 31
0.0
  0
LINE
  5
4261
  8
YODOROGO
 10
31701.604341291939
 20
1875.7494964292871
 30
0.0
 11
31533.60434129191
 21
1875.7494964292871
 31
0.0
  0
LINE
  5
4262
  8
YODOROGO
 10
31237.604341291921
 20
1779.7494964292871
 30
0.0
 11
31349.604341291939
 21
1779.7494964292871
 31
0.0
  0
LINE
  5
4263
  8
YODOROGO
 10
31237.604341291921
 20
1835.7494964292871
 30
0.0
 11
31237.604341291921
 21
1779.7494964292871
 31
0.0
  0
LINE
  5
4264
  8
YODOROGO
 10
31349.604341291939
 20
1835.7494964292871
 30
0.0
 11
31237.604341291921
 21
1835.7494964292871
 31
0.0
  0
LINE
  5
4265
  8
YODOROGO
 10
31349.604341291939
 20
1779.7494964292871
 30
0.0
 11
31349.604341291939
 21
1835.7494964292871
 31
0.0
  0
LINE
  5
4266
  8
YODOROGO
 10
31533.60434129191
 20
1875.7494964292871
 30
0.0
 11
31533.60434129191
 21
1915.7494964292871
 31
0.0
  0
LINE
  5
4267
  8
YODOROGO
 10
31413.604341291921
 20
1707.749496429288
 30
0.0
 11
31413.604341291921
 21
1907.7494964292871
 31
0.0
  0
LINE
  5
4268
  8
YODOROGO
 10
31237.604341291921
 20
1707.749496429288
 30
0.0
 11
31413.604341291921
 21
1707.749496429288
 31
0.0
  0
LINE
  5
4269
  8
YODOROGO
 10
31413.604341291921
 20
1963.749496429286
 30
0.0
 11
31413.604341291921
 21
2027.749496429288
 31
0.0
  0
ARC
  5
426A
  8
YODOROGO
 10
31621.604341291939
 20
2003.749496429285
 30
0.0
 40
15.999999999994539
 50
270.0
 51
0.0000000000081422
  0
LINE
  5
426B
  8
YODOROGO
 10
31637.604341291921
 20
2027.749496429288
 30
0.0
 11
31637.604341291921
 21
2003.7494964292871
 31
0.0
  0
LINE
  5
426C
  8
YODOROGO
 10
31701.604341291939
 20
2027.749496429288
 30
0.0
 11
31637.604341291921
 21
2027.749496429288
 31
0.0
  0
LINE
  5
426D
  8
YODOROGO
 10
31701.604341291939
 20
1955.7494964292871
 30
0.0
 11
31701.604341291939
 21
2027.749496429288
 31
0.0
  0
ARC
  5
426E
  8
YODOROGO
 10
31661.604341291939
 20
1955.7494964292871
 30
0.0
 40
40.0
 50
270.0
 51
0.0
  0
LINE
  5
426F
  8
YODOROGO
 10
31701.604341291939
 20
1811.7494964292871
 30
0.0
 11
31701.604341291939
 21
1875.7494964292871
 31
0.0
  0
LINE
  5
4270
  8
YODOROGO
 10
31653.60434129191
 20
1811.7494964292871
 30
0.0
 11
31701.604341291939
 21
1811.7494964292871
 31
0.0
  0
LINE
  5
4274
  8
SUNPOU
  6
CONTINUOUS
 62
     4
 10
8489.0841879999734
 20
14315.544472999991
 30
0.0
 11
7642.0887669999811
 21
14315.544472999991
 31
0.0
  0
LINE
  5
4275
  8
SUNPOU
  6
CONTINUOUS
 62
     4
 10
7722.0887669999775
 20
14508.039787999989
 30
0.0
 11
7722.0887669999775
 21
14315.544472999991
 31
0.0
  0
LINE
  5
4276
  8
SUNPOU
  6
CONTINUOUS
 62
     4
 10
8352.7910389999743
 20
15616.7802995
 30
0.0
 11
7642.0887669999811
 21
15616.7802995
 31
0.0
  0
LINE
  5
4277
  8
SUNPOU
  6
CONTINUOUS
 62
     4
 10
7722.0887669999775
 20
15616.7802995
 30
0.0
 11
7722.0887669999775
 21
14508.039787999989
 31
0.0
  0
LINE
  5
4278
  8
SUNPOU
  6
CONTINUOUS
 62
     4
 10
8352.7910389999743
 20
15616.7802995
 30
0.0
 11
7642.0887669999811
 21
15616.7802995
 31
0.0
  0
LINE
  5
4279
  8
SUNPOU
  6
CONTINUOUS
 62
     4
 10
7722.0887669999775
 20
17075.535829
 30
0.0
 11
7722.0887669999775
 21
15616.7802995
 31
0.0
  0
LINE
  5
427A
  8
SUNPOU
  6
CONTINUOUS
 62
     4
 10
8507.0875839999735
 20
19845.535564999991
 30
0.0
 11
8042.0887669999793
 21
19845.535564999991
 31
0.0
  0
LINE
  5
427B
  8
SUNPOU
  6
CONTINUOUS
 62
     4
 10
8489.0885429999726
 20
19865.531738000001
 30
0.0
 11
8042.0887669999793
 21
19865.531738000001
 31
0.0
  0
LINE
  5
427D
  8
SUNPOU
  6
CONTINUOUS
 62
     4
 10
8122.0887669999775
 20
19865.531738000001
 30
0.0
 11
8122.0887669999775
 21
20105.531738000031
 31
0.0
  0
LINE
  5
427E
  8
SUNPOU
  6
CONTINUOUS
 62
     4
 10
8122.0887669999775
 20
19825.535564999991
 30
0.0
 11
8122.0887669999775
 21
19865.531738000001
 31
0.0
  0
LINE
  5
427F
  8
SUNPOU
  6
CONTINUOUS
 62
     4
 10
8489.0885429999726
 20
19865.531738000001
 30
0.0
 11
7642.0887669999811
 21
19865.531738000001
 31
0.0
  0
LINE
  5
4280
  8
SUNPOU
  6
CONTINUOUS
 62
     4
 10
7722.0887669999775
 20
19643.035829
 30
0.0
 11
7722.0887669999775
 21
19865.531738000001
 31
0.0
  0
LINE
  5
4281
  8
SUNPOU
  6
CONTINUOUS
 62
     4
 10
8352.7878999999812
 20
18534.535829
 30
0.0
 11
7642.0887669999811
 21
18534.535829
 31
0.0
  0
LINE
  5
4282
  8
SUNPOU
  6
CONTINUOUS
 62
     4
 10
7722.0887669999775
 20
18534.535829
 30
0.0
 11
7722.0887669999775
 21
19643.035829
 31
0.0
  0
LINE
  5
4283
  8
SUNPOU
  6
CONTINUOUS
 62
     4
 10
8352.7878999999812
 20
18534.535829
 30
0.0
 11
7642.0887669999811
 21
18534.535829
 31
0.0
  0
LINE
  5
4284
  8
SUNPOU
  6
CONTINUOUS
 62
     4
 10
7722.0887669999775
 20
17075.535829
 30
0.0
 11
7722.0887669999775
 21
18534.535829
 31
0.0
  0
LINE
  5
4285
  8
SUNPOU
  6
CONTINUOUS
 62
     4
 10
8566.0882179999735
 20
19945.535697000021
 30
0.0
 11
8566.0882179999735
 21
20495.540976000011
 31
0.0
  0
LINE
  5
4286
  8
SUNPOU
  6
CONTINUOUS
 62
     4
 10
8651.5882179999735
 20
20415.540976000011
 30
0.0
 11
8891.5882179999735
 21
20415.540976000011
 31
0.0
  0
LINE
  5
4287
  8
SUNPOU
  6
CONTINUOUS
 62
     4
 10
8569.0882179999735
 20
20415.540976000011
 30
0.0
 11
8329.0882179999735
 21
20415.540976000011
 31
0.0
  0
LINE
  5
4288
  8
SUNPOU
  6
CONTINUOUS
 62
     4
 10
8651.5882179999735
 20
20415.540976000011
 30
0.0
 11
8569.0882179999735
 21
20415.540976000011
 31
0.0
  0
LINE
  5
4289
  8
SUNPOU
  6
CONTINUOUS
 62
     4
 10
11569.58821799997
 20
20415.540976000011
 30
0.0
 11
8651.5882179999735
 21
20415.540976000011
 31
0.0
  0
LINE
  5
428A
  8
SUNPOU
  6
CONTINUOUS
 62
     4
 10
14573.088217999961
 20
19945.535697000021
 30
0.0
 11
14573.088217999961
 21
20495.540976000011
 31
0.0
  0
LINE
  5
428B
  8
SUNPOU
  6
CONTINUOUS
 62
     4
 10
14487.588217999961
 20
20415.540976000011
 30
0.0
 11
14247.58821799995
 21
20415.540976000011
 31
0.0
  0
LINE
  5
428C
  8
SUNPOU
  6
CONTINUOUS
 62
     4
 10
14570.088217999961
 20
20415.540976000011
 30
0.0
 11
14810.088217999961
 21
20415.540976000011
 31
0.0
  0
LINE
  5
428D
  8
SUNPOU
  6
CONTINUOUS
 62
     4
 10
14487.588217999961
 20
20415.540976000011
 30
0.0
 11
14570.088217999961
 21
20415.540976000011
 31
0.0
  0
LINE
  5
428E
  8
SUNPOU
  6
CONTINUOUS
 62
     4
 10
11569.58821799997
 20
20415.540976000011
 30
0.0
 11
14487.588217999961
 21
20415.540976000011
 31
0.0
  0
LINE
  5
428F
  8
SUNPOU
  6
CONTINUOUS
 62
     4
 10
22215.046860499991
 20
19765.538073000022
 30
0.0
 11
22215.046860499991
 21
20495.540976000011
 31
0.0
  0
LINE
  5
4290
  8
SUNPOU
  6
CONTINUOUS
 62
     4
 10
22973.045870999969
 20
19765.538073000022
 30
0.0
 11
22973.045870999969
 21
20495.540976000011
 31
0.0
  0
LINE
  5
4291
  8
SUNPOU
  6
CONTINUOUS
 62
     4
 10
22215.046860499991
 20
20415.540976000011
 30
0.0
 11
22973.045870999969
 21
20415.540976000011
 31
0.0
  0
LINE
  5
4292
  8
SUNPOU
  6
CONTINUOUS
 62
     4
 10
20055.04587099998
 20
19765.538073000022
 30
0.0
 11
20055.04587099998
 21
20495.540976000011
 31
0.0
  0
LINE
  5
4293
  8
SUNPOU
  6
CONTINUOUS
 62
     4
 10
19297.04587099998
 20
19765.538073000022
 30
0.0
 11
19297.04587099998
 21
20495.540976000011
 31
0.0
  0
LINE
  5
4294
  8
SUNPOU
  6
CONTINUOUS
 62
     4
 10
20055.04587099998
 20
20415.540976000011
 30
0.0
 11
19297.04587099998
 21
20415.540976000011
 31
0.0
  0
LINE
  5
4295
  8
SUNPOU
  6
CONTINUOUS
 62
     4
 10
25255.54415499997
 20
14915.66004375
 30
0.0
 11
26305.545474999981
 21
14915.66004375
 31
0.0
  0
LINE
  5
4296
  8
SUNPOU
  6
CONTINUOUS
 62
     4
 10
26105.545474999981
 20
14508.16004375
 30
0.0
 11
26305.545474999981
 21
14508.16004375
 31
0.0
  0
LINE
  5
4297
  8
SUNPOU
  6
CONTINUOUS
 62
     4
 10
26225.545474999981
 20
14915.66004375
 30
0.0
 11
26225.545474999981
 21
14508.16004375
 31
0.0
  0
LINE
  5
4298
  8
SUNPOU
  6
CONTINUOUS
 62
     4
 10
25255.54415499997
 20
19235.539787999998
 30
0.0
 11
26305.545474999981
 21
19235.539787999998
 31
0.0
  0
LINE
  5
4299
  8
SUNPOU
  6
CONTINUOUS
 62
     4
 10
26105.545474999981
 20
19643.039787999991
 30
0.0
 11
26305.545474999981
 21
19643.039787999991
 31
0.0
  0
LINE
  5
429A
  8
SUNPOU
  6
CONTINUOUS
 62
     4
 10
26225.545474999981
 20
19235.539787999998
 30
0.0
 11
26225.545474999981
 21
19643.039787999991
 31
0.0
  0
LINE
  5
429B
  8
SUNPOU
  6
CONTINUOUS
 62
     4
 10
19174.549565999969
 20
18534.539787999998
 30
0.0
 11
18287.591293999969
 21
18534.539787999998
 31
0.0
  0
LINE
  5
429C
  8
SUNPOU
  6
CONTINUOUS
 62
     4
 10
18367.591293999969
 20
18534.539787999998
 30
0.0
 11
18367.591293999969
 21
19643.039787999991
 31
0.0
  0
LINE
  5
429D
  8
SUNPOU
  6
CONTINUOUS
 62
     4
 10
19174.549565999969
 20
18534.539787999998
 30
0.0
 11
18287.591293999969
 21
18534.539787999998
 31
0.0
  0
LINE
  5
429E
  8
SUNPOU
  6
CONTINUOUS
 62
     4
 10
18367.591293999969
 20
17075.53978799998
 30
0.0
 11
18367.591293999969
 21
18534.539787999998
 31
0.0
  0
LINE
  5
429F
  8
SUNPOU
  6
CONTINUOUS
 62
     4
 10
19174.549565999969
 20
15616.7802995
 30
0.0
 11
18287.591293999969
 21
15616.7802995
 31
0.0
  0
LINE
  5
42A0
  8
SUNPOU
  6
CONTINUOUS
 62
     4
 10
18367.591293999969
 20
15616.7802995
 30
0.0
 11
18367.591293999969
 21
17075.53978799998
 31
0.0
  0
LINE
  5
42A1
  8
SUNPOU
  6
CONTINUOUS
 62
     4
 10
19174.549565999969
 20
15616.7802995
 30
0.0
 11
18287.591293999969
 21
15616.7802995
 31
0.0
  0
LINE
  5
42A2
  8
SUNPOU
  6
CONTINUOUS
 62
     4
 10
18367.591293999969
 20
14508.039787999989
 30
0.0
 11
18367.591293999969
 21
15616.7802995
 31
0.0
  0
LINE
  5
42A3
  8
SUNPOU
  6
CONTINUOUS
 62
     4
 10
19297.04587099998
 20
13802.276354
 30
0.0
 11
19297.04587099998
 21
13456.591703999989
 31
0.0
  0
LINE
  5
42A4
  8
SUNPOU
  6
CONTINUOUS
 62
     4
 10
19254.543627999981
 20
14385.542493000001
 30
0.0
 11
19254.543627999981
 21
13456.591703999989
 31
0.0
  0
LINE
  5
42A5
  8
SUNPOU
  6
CONTINUOUS
 62
     4
 10
19297.04587099998
 20
13536.59170399998
 30
0.0
 11
19537.04587099998
 21
13536.59170399998
 31
0.0
  0
LINE
  5
42A6
  8
SUNPOU
  6
CONTINUOUS
 62
     4
 10
19254.543627999981
 20
13536.59170399998
 30
0.0
 11
19014.543627999981
 21
13536.59170399998
 31
0.0
  0
LINE
  5
42A7
  8
SUNPOU
  6
CONTINUOUS
 62
     4
 10
19297.04587099998
 20
13536.59170399998
 30
0.0
 11
19254.543627999981
 21
13536.59170399998
 31
0.0
  0
LINE
  5
42A8
  8
SUNPOU
  6
CONTINUOUS
 62
     4
 10
25133.04587099998
 20
13802.276354
 30
0.0
 11
25133.04587099998
 21
13456.591703999989
 31
0.0
  0
LINE
  5
42A9
  8
SUNPOU
  6
CONTINUOUS
 62
     4
 10
25175.548113999961
 20
14385.542493000001
 30
0.0
 11
25175.548113999961
 21
13456.591703999989
 31
0.0
  0
LINE
  5
42AA
  8
SUNPOU
  6
CONTINUOUS
 62
     4
 10
25133.04587099998
 20
13536.59170399998
 30
0.0
 11
24893.04587099998
 21
13536.59170399998
 31
0.0
  0
LINE
  5
42AB
  8
SUNPOU
  6
CONTINUOUS
 62
     4
 10
25175.548113999961
 20
13536.59170399998
 30
0.0
 11
25415.548113999961
 21
13536.59170399998
 31
0.0
  0
LINE
  5
42AC
  8
SUNPOU
  6
CONTINUOUS
 62
     4
 10
25133.04587099998
 20
13536.59170399998
 30
0.0
 11
25175.548113999961
 21
13536.59170399998
 31
0.0
  0
LINE
  5
42AD
  8
2-0
  6
CONTINUOUS
 62
     3
 10
22172.54587099998
 20
14465.539788
 30
0.0
 11
22257.54587099998
 21
14465.539788
 31
0.0
  0
LINE
  5
42AE
  8
2-0
  6
CONTINUOUS
 62
     3
 10
22257.54587099998
 20
14465.539788
 30
0.0
 11
22257.54587099998
 21
14550.539788
 31
0.0
  0
LINE
  5
42AF
  8
2-0
  6
CONTINUOUS
 62
     3
 10
22257.54587099998
 20
14550.539788
 30
0.0
 11
22172.54587099998
 21
14550.539788
 31
0.0
  0
LINE
  5
42B0
  8
2-0
  6
CONTINUOUS
 62
     3
 10
22172.54587099998
 20
14550.539788
 30
0.0
 11
22172.54587099998
 21
14465.539788
 31
0.0
  0
LINE
  5
42B1
  8
SUNPOU
  6
CONTINUOUS
 62
     4
 10
25133.04587099998
 20
13802.276354
 30
0.0
 11
25133.04587099998
 21
13456.591703999989
 31
0.0
  0
LINE
  5
42B2
  8
SUNPOU
  6
CONTINUOUS
 62
     4
 10
25090.543627999981
 20
14385.542493000001
 30
0.0
 11
25090.543627999981
 21
13456.591703999989
 31
0.0
  0
LINE
  5
42B3
  8
SUNPOU
  6
CONTINUOUS
 62
     4
 10
25133.04587099998
 20
13536.59170399998
 30
0.0
 11
25373.04587099998
 21
13536.59170399998
 31
0.0
  0
LINE
  5
42B4
  8
SUNPOU
  6
CONTINUOUS
 62
     4
 10
25090.543627999981
 20
13536.59170399998
 30
0.0
 11
24850.543627999981
 21
13536.59170399998
 31
0.0
  0
LINE
  5
42B5
  8
SUNPOU
  6
CONTINUOUS
 62
     4
 10
25133.04587099998
 20
13536.59170399998
 30
0.0
 11
25090.543627999981
 21
13536.59170399998
 31
0.0
  0
LINE
  5
42B6
  8
SUNPOU
  6
CONTINUOUS
 62
     4
 10
19297.04587099998
 20
13802.276354
 30
0.0
 11
19297.04587099998
 21
13456.591703999989
 31
0.0
  0
LINE
  5
42B7
  8
SUNPOU
  6
CONTINUOUS
 62
     4
 10
19339.548113999961
 20
14385.542493000001
 30
0.0
 11
19339.548113999961
 21
13456.591703999989
 31
0.0
  0
LINE
  5
42B8
  8
SUNPOU
  6
CONTINUOUS
 62
     4
 10
19297.04587099998
 20
13536.59170399998
 30
0.0
 11
19057.04587099998
 21
13536.59170399998
 31
0.0
  0
LINE
  5
42B9
  8
SUNPOU
  6
CONTINUOUS
 62
     4
 10
19339.548113999961
 20
13536.59170399998
 30
0.0
 11
19579.548113999961
 21
13536.59170399998
 31
0.0
  0
LINE
  5
42BA
  8
SUNPOU
  6
CONTINUOUS
 62
     4
 10
19297.04587099998
 20
13536.59170399998
 30
0.0
 11
19339.548113999961
 21
13536.59170399998
 31
0.0
  0
LINE
  5
42BB
  8
SUNPOU
  6
CONTINUOUS
 62
     4
 10
19254.543627999981
 20
14385.542493000001
 30
0.0
 11
19254.543627999981
 21
13056.591704
 31
0.0
  0
LINE
  5
42BC
  8
SUNPOU
  6
CONTINUOUS
 62
     4
 10
25175.548113999961
 20
14385.542493000001
 30
0.0
 11
25175.548113999961
 21
13056.591704
 31
0.0
  0
LINE
  5
42BD
  8
SUNPOU
  6
CONTINUOUS
 62
     4
 10
19254.543627999981
 20
13136.591704
 30
0.0
 11
25175.548113999961
 21
13136.591704
 31
0.0
  0
LINE
  5
42BE
  8
SUNPOU
  6
CONTINUOUS
 62
     4
 10
25255.544154999981
 20
15616.7802995
 30
0.0
 11
26305.545474999981
 21
15616.7802995
 31
0.0
  0
LINE
  5
42BF
  8
SUNPOU
  6
CONTINUOUS
 62
     4
 10
25255.544154999981
 20
14915.539788
 30
0.0
 11
26305.545474999981
 21
14915.539788
 31
0.0
  0
LINE
  5
42C0
  8
SUNPOU
  6
CONTINUOUS
 62
     4
 10
26225.545474999981
 20
15616.7802995
 30
0.0
 11
26225.545474999981
 21
14915.539788
 31
0.0
  0
LINE
  5
42C1
  8
SUNPOU
  6
CONTINUOUS
 62
     4
 10
25255.544154999981
 20
16317.539788
 30
0.0
 11
26305.545474999981
 21
16317.539788
 31
0.0
  0
LINE
  5
42C2
  8
SUNPOU
  6
CONTINUOUS
 62
     4
 10
25255.544154999981
 20
15616.7802995
 30
0.0
 11
26305.545474999981
 21
15616.7802995
 31
0.0
  0
LINE
  5
42C3
  8
SUNPOU
  6
CONTINUOUS
 62
     4
 10
26225.545474999981
 20
16317.539788
 30
0.0
 11
26225.545474999981
 21
15616.7802995
 31
0.0
  0
LINE
  5
42C4
  8
SUNPOU
  6
CONTINUOUS
 62
     4
 10
26105.545474999981
 20
17075.53978799998
 30
0.0
 11
26305.545474999981
 21
17075.53978799998
 31
0.0
  0
LINE
  5
42C5
  8
SUNPOU
  6
CONTINUOUS
 62
     4
 10
25255.544154999981
 20
16317.539788
 30
0.0
 11
26305.545474999981
 21
16317.539788
 31
0.0
  0
LINE
  5
42C6
  8
SUNPOU
  6
CONTINUOUS
 62
     4
 10
26225.545474999981
 20
17075.53978799998
 30
0.0
 11
26225.545474999981
 21
16317.539788
 31
0.0
  0
LINE
  5
42C7
  8
SUNPOU
  6
CONTINUOUS
 62
     4
 10
25255.544154999981
 20
17833.539787999991
 30
0.0
 11
26305.545474999981
 21
17833.539787999991
 31
0.0
  0
LINE
  5
42C8
  8
SUNPOU
  6
CONTINUOUS
 62
     4
 10
26105.545474999981
 20
17075.53978799998
 30
0.0
 11
26305.545474999981
 21
17075.53978799998
 31
0.0
  0
LINE
  5
42C9
  8
SUNPOU
  6
CONTINUOUS
 62
     4
 10
26225.545474999981
 20
17833.539787999991
 30
0.0
 11
26225.545474999981
 21
17075.53978799998
 31
0.0
  0
LINE
  5
42CA
  8
SUNPOU
  6
CONTINUOUS
 62
     4
 10
25255.544154999981
 20
18534.539787999998
 30
0.0
 11
26305.545474999981
 21
18534.539787999998
 31
0.0
  0
LINE
  5
42CB
  8
SUNPOU
  6
CONTINUOUS
 62
     4
 10
25255.544154999981
 20
17833.539787999991
 30
0.0
 11
26305.545474999981
 21
17833.539787999991
 31
0.0
  0
LINE
  5
42CC
  8
SUNPOU
  6
CONTINUOUS
 62
     4
 10
26225.545474999981
 20
18534.539787999998
 30
0.0
 11
26225.545474999981
 21
17833.539787999991
 31
0.0
  0
LINE
  5
42CD
  8
SUNPOU
  6
CONTINUOUS
 62
     4
 10
25255.544154999981
 20
19235.539787999998
 30
0.0
 11
26305.545474999981
 21
19235.539787999998
 31
0.0
  0
LINE
  5
42CE
  8
SUNPOU
  6
CONTINUOUS
 62
     4
 10
25255.544154999981
 20
18534.539787999998
 30
0.0
 11
26305.545474999981
 21
18534.539787999998
 31
0.0
  0
LINE
  5
42CF
  8
SUNPOU
  6
CONTINUOUS
 62
     4
 10
26225.545474999981
 20
19235.539787999998
 30
0.0
 11
26225.545474999981
 21
18534.539787999998
 31
0.0
  0
LINE
  5
42D0
  8
SUNPOU
  6
CONTINUOUS
 62
     4
 10
26105.545474999981
 20
17075.53978799998
 30
0.0
 11
26705.545474999981
 21
17075.53978799998
 31
0.0
  0
LINE
  5
42D1
  8
SUNPOU
  6
CONTINUOUS
 62
     4
 10
26105.545474999981
 20
19643.039787999991
 30
0.0
 11
26705.545474999981
 21
19643.039787999991
 31
0.0
  0
LINE
  5
42D2
  8
SUNPOU
  6
CONTINUOUS
 62
     4
 10
26625.545474999981
 20
17075.53978799998
 30
0.0
 11
26625.545474999981
 21
19643.039787999991
 31
0.0
  0
LINE
  5
42D3
  8
SUNPOU
  6
CONTINUOUS
 62
     4
 10
26105.545474999981
 20
14508.039787999989
 30
0.0
 11
26705.545474999981
 21
14508.039787999989
 31
0.0
  0
LINE
  5
42D4
  8
SUNPOU
  6
CONTINUOUS
 62
     4
 10
26105.545474999981
 20
17075.53978799998
 30
0.0
 11
26705.545474999981
 21
17075.53978799998
 31
0.0
  0
LINE
  5
42D5
  8
SUNPOU
  6
CONTINUOUS
 62
     4
 10
26625.545474999981
 20
14508.039787999989
 30
0.0
 11
26625.545474999981
 21
17075.53978799998
 31
0.0
  0
LINE
  5
42D6
  8
SUNPOU
  6
CONTINUOUS
 62
     4
 10
25255.544154999981
 20
19685.537082999988
 30
0.0
 11
27105.545474999981
 21
19685.537082999988
 31
0.0
  0
LINE
  5
42D7
  8
SUNPOU
  6
CONTINUOUS
 62
     4
 10
25255.544154999981
 20
14465.542493000001
 30
0.0
 11
27105.545474999981
 21
14465.542493000001
 31
0.0
  0
LINE
  5
42D8
  8
SUNPOU
  6
CONTINUOUS
 62
     4
 10
27025.545474999981
 20
19685.537082999988
 30
0.0
 11
27025.545474999981
 21
14465.542493000001
 31
0.0
  0
LINE
  5
42D9
  8
SUNPOU
  6
CONTINUOUS
 62
     4
 10
26105.545474999981
 20
19643.039787999991
 30
0.0
 11
26705.545474999981
 21
19643.039787999991
 31
0.0
  0
LINE
  5
42DA
  8
SUNPOU
  6
CONTINUOUS
 62
     4
 10
25255.544154999981
 20
19685.537082999988
 30
0.0
 11
26705.545474999981
 21
19685.537082999988
 31
0.0
  0
LINE
  5
42DB
  8
SUNPOU
  6
CONTINUOUS
 62
     4
 10
26625.545474999981
 20
19643.039787999991
 30
0.0
 11
26625.545474999981
 21
19403.039787999991
 31
0.0
  0
LINE
  5
42DC
  8
SUNPOU
  6
CONTINUOUS
 62
     4
 10
26625.545474999981
 20
19685.537082999988
 30
0.0
 11
26625.545474999981
 21
19925.537082999999
 31
0.0
  0
LINE
  5
42DD
  8
SUNPOU
  6
CONTINUOUS
 62
     4
 10
26625.545474999981
 20
19643.039787999991
 30
0.0
 11
26625.545474999981
 21
19685.537082999988
 31
0.0
  0
LINE
  5
42DE
  8
SUNPOU
  6
CONTINUOUS
 62
     4
 10
26105.545474999981
 20
14508.039787999989
 30
0.0
 11
26705.545474999981
 21
14508.039787999989
 31
0.0
  0
LINE
  5
42DF
  8
SUNPOU
  6
CONTINUOUS
 62
     4
 10
25255.544154999981
 20
14465.542493000001
 30
0.0
 11
26705.545474999981
 21
14465.542493000001
 31
0.0
  0
LINE
  5
42E0
  8
SUNPOU
  6
CONTINUOUS
 62
     4
 10
26625.545474999981
 20
14508.039787999989
 30
0.0
 11
26625.545474999981
 21
14748.03978799998
 31
0.0
  0
LINE
  5
42E1
  8
SUNPOU
  6
CONTINUOUS
 62
     4
 10
26625.545474999981
 20
14465.542493000001
 30
0.0
 11
26625.545474999981
 21
14225.542493000001
 31
0.0
  0
LINE
  5
42E2
  8
SUNPOU
  6
CONTINUOUS
 62
     4
 10
26625.545474999981
 20
14508.039787999989
 30
0.0
 11
26625.545474999981
 21
14465.542493000001
 31
0.0
  0
LINE
  5
42E3
  8
SUNPOU
  6
CONTINUOUS
 62
     4
 10
24375.04587099998
 20
19765.538073000022
 30
0.0
 11
24375.04587099998
 21
20495.540976000011
 31
0.0
  0
LINE
  5
42E4
  8
SUNPOU
  6
CONTINUOUS
 62
     4
 10
25133.046860499991
 20
19765.538073000022
 30
0.0
 11
25133.046860499991
 21
20495.540976000011
 31
0.0
  0
LINE
  5
42E5
  8
SUNPOU
  6
CONTINUOUS
 62
     4
 10
24375.04587099998
 20
20415.540976000011
 30
0.0
 11
25133.046860499991
 21
20415.540976000011
 31
0.0
  0
LINE
  5
42E6
  8
SUNPOU
  6
CONTINUOUS
 62
     4
 10
23674.04587099998
 20
19765.538073000022
 30
0.0
 11
23674.04587099998
 21
20495.540976000011
 31
0.0
  0
LINE
  5
42E7
  8
SUNPOU
  6
CONTINUOUS
 62
     4
 10
24375.04587099998
 20
19765.538073000022
 30
0.0
 11
24375.04587099998
 21
20495.540976000011
 31
0.0
  0
LINE
  5
42E8
  8
SUNPOU
  6
CONTINUOUS
 62
     4
 10
23674.04587099998
 20
20415.540976000011
 30
0.0
 11
24375.04587099998
 21
20415.540976000011
 31
0.0
  0
LINE
  5
42E9
  8
SUNPOU
  6
CONTINUOUS
 62
     4
 10
22973.045870999969
 20
19765.538073000022
 30
0.0
 11
22973.045870999969
 21
20495.540976000011
 31
0.0
  0
LINE
  5
42EA
  8
SUNPOU
  6
CONTINUOUS
 62
     4
 10
23674.04587099998
 20
19765.538073000022
 30
0.0
 11
23674.04587099998
 21
20495.540976000011
 31
0.0
  0
LINE
  5
42EB
  8
SUNPOU
  6
CONTINUOUS
 62
     4
 10
22973.045870999969
 20
20415.540976000011
 30
0.0
 11
23674.04587099998
 21
20415.540976000011
 31
0.0
  0
LINE
  5
42EC
  8
SUNPOU
  6
CONTINUOUS
 62
     4
 10
25133.04587099998
 20
19765.538073000022
 30
0.0
 11
25133.04587099998
 21
20495.540976000011
 31
0.0
  0
LINE
  5
42ED
  8
SUNPOU
  6
CONTINUOUS
 62
     4
 10
25175.542175999981
 20
19765.538073000022
 30
0.0
 11
25175.542175999981
 21
20495.540976000011
 31
0.0
  0
LINE
  5
42EE
  8
SUNPOU
  6
CONTINUOUS
 62
     4
 10
25133.04587099998
 20
20415.540976000011
 30
0.0
 11
24893.04587099998
 21
20415.540976000011
 31
0.0
  0
LINE
  5
42EF
  8
SUNPOU
  6
CONTINUOUS
 62
     4
 10
25175.542175999981
 20
20415.540976000011
 30
0.0
 11
25415.542175999981
 21
20415.540976000011
 31
0.0
  0
LINE
  5
42F0
  8
SUNPOU
  6
CONTINUOUS
 62
     4
 10
25133.04587099998
 20
20415.540976000011
 30
0.0
 11
25175.542175999981
 21
20415.540976000011
 31
0.0
  0
LINE
  5
42F1
  8
SUNPOU
  6
CONTINUOUS
 62
     4
 10
19297.04587099998
 20
19765.538073000022
 30
0.0
 11
19297.04587099998
 21
20495.540976000011
 31
0.0
  0
LINE
  5
42F2
  8
SUNPOU
  6
CONTINUOUS
 62
     4
 10
19254.549565999969
 20
19765.538073000022
 30
0.0
 11
19254.549565999969
 21
20495.540976000011
 31
0.0
  0
LINE
  5
42F3
  8
SUNPOU
  6
CONTINUOUS
 62
     4
 10
19297.04587099998
 20
20415.540976000011
 30
0.0
 11
19537.04587099998
 21
20415.540976000011
 31
0.0
  0
LINE
  5
42F4
  8
SUNPOU
  6
CONTINUOUS
 62
     4
 10
19254.549565999969
 20
20415.540976000011
 30
0.0
 11
19014.549565999969
 21
20415.540976000011
 31
0.0
  0
LINE
  5
42F5
  8
SUNPOU
  6
CONTINUOUS
 62
     4
 10
19297.04587099998
 20
20415.540976000011
 30
0.0
 11
19254.549565999969
 21
20415.540976000011
 31
0.0
  0
LINE
  5
42F6
  8
SUNPOU
  6
CONTINUOUS
 62
     4
 10
21457.04587099998
 20
19765.538073000022
 30
0.0
 11
21457.04587099998
 21
20495.540976000011
 31
0.0
  0
LINE
  5
42F7
  8
SUNPOU
  6
CONTINUOUS
 62
     4
 10
22215.046860499991
 20
19765.538073000022
 30
0.0
 11
22215.046860499991
 21
20495.540976000011
 31
0.0
  0
LINE
  5
42F8
  8
SUNPOU
  6
CONTINUOUS
 62
     4
 10
21457.04587099998
 20
20415.540976000011
 30
0.0
 11
22215.046860499991
 21
20415.540976000011
 31
0.0
  0
LINE
  5
42F9
  8
SUNPOU
  6
CONTINUOUS
 62
     4
 10
20756.04587099998
 20
19765.538073000022
 30
0.0
 11
20756.04587099998
 21
20495.540976000011
 31
0.0
  0
LINE
  5
42FA
  8
SUNPOU
  6
CONTINUOUS
 62
     4
 10
21457.04587099998
 20
19765.538073000022
 30
0.0
 11
21457.04587099998
 21
20495.540976000011
 31
0.0
  0
LINE
  5
42FB
  8
SUNPOU
  6
CONTINUOUS
 62
     4
 10
20756.04587099998
 20
20415.540976000011
 30
0.0
 11
21457.04587099998
 21
20415.540976000011
 31
0.0
  0
LINE
  5
42FC
  8
SUNPOU
  6
CONTINUOUS
 62
     4
 10
20055.04587099998
 20
19765.538073000022
 30
0.0
 11
20055.04587099998
 21
20495.540976000011
 31
0.0
  0
LINE
  5
42FD
  8
SUNPOU
  6
CONTINUOUS
 62
     4
 10
20756.04587099998
 20
19765.538073000022
 30
0.0
 11
20756.04587099998
 21
20495.540976000011
 31
0.0
  0
LINE
  5
42FE
  8
SUNPOU
  6
CONTINUOUS
 62
     4
 10
20055.04587099998
 20
20415.540976000011
 30
0.0
 11
20756.04587099998
 21
20415.540976000011
 31
0.0
  0
LINE
  5
42FF
  8
SUNPOU
  6
CONTINUOUS
 62
     4
 10
19167.045211999979
 20
6367.0884779999951
 30
0.0
 11
18367.04653099996
 21
6367.0884779999969
 31
0.0
  0
LINE
  5
4300
  8
SUNPOU
  6
CONTINUOUS
 62
     4
 10
19167.045211999979
 20
8258.588477999996
 30
0.0
 11
18367.046530999982
 21
8258.588477999996
 31
0.0
  0
LINE
  5
4301
  8
SUNPOU
  6
CONTINUOUS
 62
     4
 10
18447.04653099996
 20
6367.0884779999951
 30
0.0
 11
18447.046530999982
 21
8258.588477999996
 31
0.0
  0
LINE
  5
4302
  8
SUNPOU
  6
CONTINUOUS
 62
     4
 10
19167.045211999979
 20
6367.0884779999951
 30
0.0
 11
17967.044221999939
 21
6367.0884779999969
 31
0.0
  0
LINE
  5
4303
  8
SUNPOU
  6
CONTINUOUS
 62
     4
 10
19134.545475999959
 20
8716.0879829999994
 30
0.0
 11
17967.044221999939
 21
8716.0879829999994
 31
0.0
  0
LINE
  5
4304
  8
SUNPOU
  6
CONTINUOUS
 62
     4
 10
18047.044221999939
 20
6367.0884779999969
 30
0.0
 11
18047.044221999939
 21
8716.0879829999994
 31
0.0
  0
LINE
  5
4315
  8
SUNPOU
  6
CONTINUOUS
 62
     4
 10
19391.04587099998
 20
6187.088643000001
 30
0.0
 11
19391.04587099998
 21
5387.0886430000019
 31
0.0
  0
LINE
  5
4316
  8
SUNPOU
  6
CONTINUOUS
 62
     4
 10
22121.04587099998
 20
6187.088643000001
 30
0.0
 11
22121.04587099998
 21
5387.0886430000019
 31
0.0
  0
LINE
  5
4317
  8
SUNPOU
  6
CONTINUOUS
 62
     4
 10
19391.04587099998
 20
5467.088643000001
 30
0.0
 11
22121.04587099998
 21
5467.088643000001
 31
0.0
  0
LINE
  5
4318
  8
SUNPOU
  6
CONTINUOUS
 62
     4
 10
22309.04587099998
 20
6187.088643000001
 30
0.0
 11
22309.04587099998
 21
5387.0886430000019
 31
0.0
  0
LINE
  5
4319
  8
SUNPOU
  6
CONTINUOUS
 62
     4
 10
25039.04587099998
 20
6187.088643000001
 30
0.0
 11
25039.04587099998
 21
5387.0886430000019
 31
0.0
  0
LINE
  5
431A
  8
SUNPOU
  6
CONTINUOUS
 62
     4
 10
22309.04587099998
 20
5467.088643000001
 30
0.0
 11
25039.04587099998
 21
5467.088643000001
 31
0.0
  0
LINE
  5
431B
  8
SUNPOU
  6
CONTINUOUS
 62
     4
 10
22215.04587099998
 20
5924.4362199999969
 30
0.0
 11
22215.04587099998
 21
4987.088643000001
 31
0.0
  0
LINE
  5
431C
  8
SUNPOU
  6
CONTINUOUS
 62
     4
 10
25133.04587099998
 20
5924.4362199999969
 30
0.0
 11
25133.04587099998
 21
4987.088643000001
 31
0.0
  0
LINE
  5
431D
  8
SUNPOU
  6
CONTINUOUS
 62
     4
 10
22215.04587099998
 20
5067.088643000001
 30
0.0
 11
25133.04587099998
 21
5067.088643000001
 31
0.0
  0
LINE
  5
431E
  8
SUNPOU
  6
CONTINUOUS
 62
     4
 10
19297.04587099998
 20
5924.4362199999969
 30
0.0
 11
19297.04587099998
 21
4987.088643000001
 31
0.0
  0
LINE
  5
431F
  8
SUNPOU
  6
CONTINUOUS
 62
     4
 10
22215.04587099998
 20
5924.4362199999969
 30
0.0
 11
22215.04587099998
 21
4987.088643000001
 31
0.0
  0
LINE
  5
4320
  8
SUNPOU
  6
CONTINUOUS
 62
     4
 10
19297.04587099998
 20
5067.088643000001
 30
0.0
 11
22215.04587099998
 21
5067.088643000001
 31
0.0
  0
LINE
  5
4321
  8
SUNPOU
  6
CONTINUOUS
 62
     4
 10
25133.049829999982
 20
5924.4362199999969
 30
0.0
 11
25133.049829999982
 21
4987.088643000001
 31
0.0
  0
LINE
  5
4322
  8
SUNPOU
  6
CONTINUOUS
 62
     4
 10
25175.549829999982
 20
6187.088643000001
 30
0.0
 11
25175.549829999982
 21
4987.088643000001
 31
0.0
  0
LINE
  5
4323
  8
SUNPOU
  6
CONTINUOUS
 62
     4
 10
25133.049829999982
 20
5067.088643000001
 30
0.0
 11
24893.049829999982
 21
5067.088643000001
 31
0.0
  0
LINE
  5
4324
  8
SUNPOU
  6
CONTINUOUS
 62
     4
 10
25175.549829999982
 20
5067.088643000001
 30
0.0
 11
25415.549829999982
 21
5067.088643000001
 31
0.0
  0
LINE
  5
4325
  8
SUNPOU
  6
CONTINUOUS
 62
     4
 10
25133.049829999982
 20
5067.088643000001
 30
0.0
 11
25175.549829999982
 21
5067.088643000001
 31
0.0
  0
LINE
  5
4326
  8
SUNPOU
  6
CONTINUOUS
 62
     4
 10
19297.04587099998
 20
5924.4362199999969
 30
0.0
 11
19297.04587099998
 21
4987.088643000001
 31
0.0
  0
LINE
  5
4327
  8
SUNPOU
  6
CONTINUOUS
 62
     4
 10
19254.54587099998
 20
6187.088643000001
 30
0.0
 11
19254.54587099998
 21
4987.088643000001
 31
0.0
  0
LINE
  5
4328
  8
SUNPOU
  6
CONTINUOUS
 62
     4
 10
19297.04587099998
 20
5067.088643000001
 30
0.0
 11
19537.04587099998
 21
5067.088643000001
 31
0.0
  0
LINE
  5
4329
  8
SUNPOU
  6
CONTINUOUS
 62
     4
 10
19254.54587099998
 20
5067.088643000001
 30
0.0
 11
19014.54587099998
 21
5067.088643000001
 31
0.0
  0
LINE
  5
432A
  8
SUNPOU
  6
CONTINUOUS
 62
     4
 10
19297.04587099998
 20
5067.088643000001
 30
0.0
 11
19254.54587099998
 21
5067.088643000001
 31
0.0
  0
LINE
  5
432B
  8
SUNPOU
  6
CONTINUOUS
 62
     4
 10
19254.54587099998
 20
6187.088643000001
 30
0.0
 11
19254.54587099998
 21
4587.0888079999977
 31
0.0
  0
LINE
  5
432C
  8
SUNPOU
  6
CONTINUOUS
 62
     4
 10
25175.54587099998
 20
6187.088643000001
 30
0.0
 11
25175.54587099998
 21
4587.0888079999977
 31
0.0
  0
LINE
  5
432D
  8
SUNPOU
  6
CONTINUOUS
 62
     4
 10
19254.54587099998
 20
4667.0888079999986
 30
0.0
 11
25175.54587099998
 21
4667.0888079999986
 31
0.0
  0
LINE
  5
432E
  8
SUNPOU
  6
CONTINUOUS
 62
     4
 10
14264.290408999999
 20
6367.0884780000006
 30
0.0
 11
15341.788825
 21
6367.0884780000006
 31
0.0
  0
LINE
  5
432F
  8
SUNPOU
  6
CONTINUOUS
 62
     4
 10
14356.59568859938
 20
8716.0884780000033
 30
0.0
 11
15341.788825
 21
8716.0884780000033
 31
0.0
  0
LINE
  5
4330
  8
SUNPOU
  6
CONTINUOUS
 62
     4
 10
15261.788825
 20
6367.0884780000006
 30
0.0
 11
15261.788825
 21
8716.0884780000033
 31
0.0
  0
LINE
  5
4331
  8
SUNPOU
  6
CONTINUOUS
 62
     4
 10
8864.2904090000047
 20
6367.0884780000006
 30
0.0
 11
7781.7900129999998
 21
6367.0884780000006
 31
0.0
  0
LINE
  5
4332
  8
SUNPOU
  6
CONTINUOUS
 62
     4
 10
8691.7904089999975
 20
8522.5884780000015
 30
0.0
 11
7781.7900129999998
 21
8522.5884780000015
 31
0.0
  0
LINE
  5
4333
  8
SUNPOU
  6
CONTINUOUS
 62
     4
 10
7861.7900130000007
 20
6367.0884780000006
 30
0.0
 11
7861.7900130000007
 21
8522.5884780000015
 31
0.0
  0
LINE
  5
4334
  8
SUNPOU
  6
CONTINUOUS
 62
     4
 10
14171.79040899999
 20
8661.9985410000008
 30
0.0
 11
14171.79040899999
 21
9595.0901529999992
 31
0.0
  0
LINE
  5
4335
  8
SUNPOU
  6
CONTINUOUS
 62
     4
 10
14321.79040899999
 20
8735.9783004124274
 30
0.0
 11
14321.79040899999
 21
9595.0901529999992
 31
0.0
  0
LINE
  5
4336
  8
SUNPOU
  6
CONTINUOUS
 62
     4
 10
14171.79040899999
 20
9515.0901529999974
 30
0.0
 11
13931.79040899999
 21
9515.0901529999974
 31
0.0
  0
LINE
  5
4337
  8
SUNPOU
  6
CONTINUOUS
 62
     4
 10
14321.79040899999
 20
9515.0901529999974
 30
0.0
 11
14561.79040899999
 21
9515.0901529999974
 31
0.0
  0
LINE
  5
4338
  8
SUNPOU
  6
CONTINUOUS
 62
     4
 10
14171.79040899999
 20
9515.0901529999974
 30
0.0
 11
14321.79040899999
 21
9515.0901529999974
 31
0.0
  0
LINE
  5
4339
  8
SUNPOU
  6
CONTINUOUS
 62
     4
 10
8771.7904090000011
 20
8604.088477000003
 30
0.0
 11
8771.7904090000011
 21
9995.088502999999
 31
0.0
  0
LINE
  5
433A
  8
SUNPOU
  6
CONTINUOUS
 62
     4
 10
14321.79040899999
 20
8735.9783004124274
 30
0.0
 11
14321.79040899999
 21
9995.088502999999
 31
0.0
  0
LINE
  5
433B
  8
SUNPOU
  6
CONTINUOUS
 62
     4
 10
8771.7904090000011
 20
9915.088502999999
 30
0.0
 11
14321.79040899999
 21
9915.088502999999
 31
0.0
  0
LINE
  5
433C
  8
SUNPOU
  6
CONTINUOUS
 62
     4
 10
8951.7904090000011
 20
8474.2742526838028
 30
0.0
 11
8951.7904090000011
 21
9595.0901529999992
 31
0.0
  0
LINE
  5
433D
  8
SUNPOU
  6
CONTINUOUS
 62
     4
 10
14171.79040899999
 20
8661.9985410000008
 30
0.0
 11
14171.79040899999
 21
9595.0901529999992
 31
0.0
  0
LINE
  5
433E
  8
SUNPOU
  6
CONTINUOUS
 62
     4
 10
8951.7904090000011
 20
9515.0901529999974
 30
0.0
 11
14171.79040899999
 21
9515.0901529999974
 31
0.0
  0
LINE
  5
433F
  8
SUNPOU
  6
CONTINUOUS
 62
     4
 10
8771.7904090000011
 20
8604.088477000003
 30
0.0
 11
8771.7904090000011
 21
9595.0901529999992
 31
0.0
  0
LINE
  5
4340
  8
SUNPOU
  6
CONTINUOUS
 62
     4
 10
8951.7904090000011
 20
8474.2742526838028
 30
0.0
 11
8951.7904090000011
 21
9595.0901529999992
 31
0.0
  0
LINE
  5
4341
  8
SUNPOU
  6
CONTINUOUS
 62
     4
 10
8771.7904090000011
 20
9515.0901529999974
 30
0.0
 11
8951.7904090000011
 21
9515.0901529999974
 31
0.0
  0
LINE
  5
4342
  8
SUNPOU
  6
CONTINUOUS
 62
     4
 10
14129.28842999999
 20
5924.4362189999974
 30
0.0
 11
14129.28842999999
 21
4987.0886419999961
 31
0.0
  0
LINE
  5
4343
  8
SUNPOU
  6
CONTINUOUS
 62
     4
 10
14171.788430000001
 20
6287.0884770000011
 30
0.0
 11
14171.788430000001
 21
4987.0886419999961
 31
0.0
  0
LINE
  5
4344
  8
SUNPOU
  6
CONTINUOUS
 62
     4
 10
14129.28842999999
 20
5067.0886419999961
 30
0.0
 11
13889.28842999999
 21
5067.0886419999961
 31
0.0
  0
LINE
  5
4345
  8
SUNPOU
  6
CONTINUOUS
 62
     4
 10
14171.788430000001
 20
5067.0886419999961
 30
0.0
 11
14411.788429999981
 21
5067.0886419999961
 31
0.0
  0
LINE
  5
4346
  8
SUNPOU
  6
CONTINUOUS
 62
     4
 10
14129.28842999999
 20
5067.0886419999961
 30
0.0
 11
14171.788430000001
 21
5067.0886419999961
 31
0.0
  0
LINE
  5
4347
  8
SUNPOU
  6
CONTINUOUS
 62
     4
 10
11561.79040899999
 20
5924.43523
 30
0.0
 11
11561.79040899999
 21
4987.088643000001
 31
0.0
  0
LINE
  5
4348
  8
SUNPOU
  6
CONTINUOUS
 62
     4
 10
14129.29040899999
 20
5924.43523
 30
0.0
 11
14129.29040899999
 21
4987.088643000001
 31
0.0
  0
LINE
  5
4349
  8
SUNPOU
  6
CONTINUOUS
 62
     4
 10
11561.79040899999
 20
5067.088643000001
 30
0.0
 11
14129.29040899999
 21
5067.088643000001
 31
0.0
  0
LINE
  5
434A
  8
SUNPOU
  6
CONTINUOUS
 62
     4
 10
8951.7904090000011
 20
6287.0884770000011
 30
0.0
 11
8951.7904090000011
 21
4587.0888069999992
 31
0.0
  0
LINE
  5
434B
  8
SUNPOU
  6
CONTINUOUS
 62
     4
 10
14171.788430000001
 20
6287.0884770000011
 30
0.0
 11
14171.788430000001
 21
4587.0888069999992
 31
0.0
  0
LINE
  5
434C
  8
SUNPOU
  6
CONTINUOUS
 62
     4
 10
8951.7904090000011
 20
4667.0888069999983
 30
0.0
 11
14171.788430000001
 21
4667.0888069999983
 31
0.0
  0
LINE
  5
434D
  8
SUNPOU
  6
CONTINUOUS
 62
     4
 10
8994.2904090000029
 20
5924.4362189999974
 30
0.0
 11
8994.2904090000029
 21
4987.0886419999961
 31
0.0
  0
LINE
  5
434E
  8
SUNPOU
  6
CONTINUOUS
 62
     4
 10
8951.7904090000011
 20
6287.0884770000011
 30
0.0
 11
8951.7904090000011
 21
4987.0886419999961
 31
0.0
  0
LINE
  5
434F
  8
SUNPOU
  6
CONTINUOUS
 62
     4
 10
8994.2904090000029
 20
5067.0886419999961
 30
0.0
 11
9234.2904089999993
 21
5067.0886419999961
 31
0.0
  0
LINE
  5
4350
  8
SUNPOU
  6
CONTINUOUS
 62
     4
 10
8951.7904090000011
 20
5067.0886419999961
 30
0.0
 11
8711.7904089999975
 21
5067.0886419999961
 31
0.0
  0
LINE
  5
4351
  8
SUNPOU
  6
CONTINUOUS
 62
     4
 10
8994.2904090000029
 20
5067.0886419999961
 30
0.0
 11
8951.7904090000011
 21
5067.0886419999961
 31
0.0
  0
LINE
  5
4352
  8
SUNPOU
  6
CONTINUOUS
 62
     4
 10
11561.79040899999
 20
5924.4362189999974
 30
0.0
 11
11561.79040899999
 21
4987.0886419999961
 31
0.0
  0
LINE
  5
4353
  8
SUNPOU
  6
CONTINUOUS
 62
     4
 10
8994.2904090000029
 20
5924.4362189999974
 30
0.0
 11
8994.2904090000029
 21
4987.0886419999961
 31
0.0
  0
LINE
  5
4354
  8
SUNPOU
  6
CONTINUOUS
 62
     4
 10
11561.79040899999
 20
5067.0886419999961
 30
0.0
 11
8994.2904090000029
 21
5067.0886419999961
 31
0.0
  0
TEXT
  5
4355
  8
0
  6
CONTINUOUS
 62
     7
 10
9878.0404090000047
 20
5147.0886419999961
 30
0.0
 40
160.0
  1
2567.5
  0
TEXT
  5
4356
  8
0
  6
CONTINUOUS
 62
     7
 10
8354.6166999036941
 20
5147.0886419999961
 30
0.0
 40
160.0
  1
42.5
  0
TEXT
  5
4357
  8
0
  6
CONTINUOUS
 62
     7
 10
11281.78941949999
 20
4747.0888069999992
 30
0.0
 40
160.0
  1
5220
  0
TEXT
  5
4358
  8
0
  6
CONTINUOUS
 62
     7
 10
12445.54040899999
 20
5147.088643
 30
0.0
 40
160.0
  1
2567.5
  0
TEXT
  5
4359
  8
0
  6
CONTINUOUS
 62
     7
 10
14288.962139096289
 20
5147.0886419999961
 30
0.0
 40
160.0
  1
42.5
  0
TEXT
  5
435A
  8
0
  6
CONTINUOUS
 62
     7
 10
8358.4570756666672
 20
9595.0901529999992
 30
0.0
 40
160.0
  1
180
  0
TEXT
  5
435B
  8
0
  6
CONTINUOUS
 62
     7
 10
11281.79040899999
 20
9595.0901529999992
 30
0.0
 40
160.0
  1
5220
  0
TEXT
  5
435C
  8
0
  6
CONTINUOUS
 62
     7
 10
11266.790408999999
 20
9995.088502999999
 30
0.0
 40
160.0
  1
5550
  0
TEXT
  5
435D
  8
0
  6
CONTINUOUS
 62
     7
 10
14388.457075666671
 20
9595.0901529999992
 30
0.0
 40
160.0
  1
150
  0
TEXT
  5
435E
  8
0
  6
CONTINUOUS
 62
     7
 10
7781.7900129999998
 20
6452.8384780000006
 30
0.0
 40
160.0
  1
2155.5（2395.5）
 50
90.0
  0
TEXT
  5
435F
  8
0
  6
CONTINUOUS
 62
     7
 10
15181.788824999991
 20
6736.2551446666657
 30
0.0
 40
160.0
  1
2349（2589）
 50
90.0
  0
TEXT
  5
4360
  8
0
  6
CONTINUOUS
 62
     7
 10
21948.379204333309
 20
4747.0888079999986
 30
0.0
 40
160.0
  1
5921
  0
TEXT
  5
4361
  8
0
  6
CONTINUOUS
 62
     7
 10
18688.506880741141
 20
5147.088643
 30
0.0
 40
160.0
  1
42.5
  0
TEXT
  5
4362
  8
0
  6
CONTINUOUS
 62
     7
 10
25261.588820258821
 20
5147.088643
 30
0.0
 40
160.0
  1
42.5
  0
TEXT
  5
4363
  8
0
  6
CONTINUOUS
 62
     7
 10
20489.379204333301
 20
5147.088643
 30
0.0
 40
160.0
  1
2918
  0
TEXT
  5
4364
  8
0
  6
CONTINUOUS
 62
     7
 10
23407.379204333301
 20
5147.088643
 30
0.0
 40
160.0
  1
2918
  0
TEXT
  5
4365
  8
0
  6
CONTINUOUS
 62
     7
 10
22866.04587099998
 20
5547.088643000001
 30
0.0
 40
160.0
  1
有効開口巾 2730
  0
TEXT
  5
4366
  8
0
  6
CONTINUOUS
 62
     7
 10
19948.04587099998
 20
5547.088643000001
 30
0.0
 40
160.0
  1
有効開口巾 2730
  0
TEXT
  5
436B
  8
0
  6
CONTINUOUS
 62
     7
 10
17967.044221999939
 20
6736.2548971666656
 30
0.0
 40
160.0
  1
2349（2589）
 50
90.0
  0
TEXT
  5
436C
  8
0
  6
CONTINUOUS
 62
     7
 10
18367.046530999982
 20
6431.0677162912707
 30
0.0
 40
160.0
  1
有効開口高サ 1891.5
 50
90.0
  0
TEXT
  5
436D
  8
0
  6
CONTINUOUS
 62
     7
 10
20232.212537666641
 20
20495.540976000011
 30
0.0
 40
160.0
  1
701
  0
TEXT
  5
436E
  8
0
  6
CONTINUOUS
 62
     7
 10
20933.212537666652
 20
20495.540976000011
 30
0.0
 40
160.0
  1
701
  0
TEXT
  5
436F
  8
0
  6
CONTINUOUS
 62
     7
 10
21622.713032416661
 20
20495.540976000011
 30
0.0
 40
160.0
  1
758
  0
TEXT
  5
4370
  8
0
  6
CONTINUOUS
 62
     7
 10
18694.233891471169
 20
20495.540976000011
 30
0.0
 40
160.0
  1
42.5
  0
TEXT
  5
4371
  8
0
  6
CONTINUOUS
 62
     7
 10
25255.857850528781
 20
20495.540976000011
 30
0.0
 40
160.0
  1
42.5
  0
TEXT
  5
4372
  8
0
  6
CONTINUOUS
 62
     7
 10
23150.212537666652
 20
20495.540976000011
 30
0.0
 40
160.0
  1
701
  0
TEXT
  5
4373
  8
0
  6
CONTINUOUS
 62
     7
 10
23851.212537666652
 20
20495.540976000011
 30
0.0
 40
160.0
  1
701
  0
TEXT
  5
4374
  8
0
  6
CONTINUOUS
 62
     7
 10
24540.71303241665
 20
20495.540976000011
 30
0.0
 40
160.0
  1
758
  0
TEXT
  5
4375
  8
0
  6
CONTINUOUS
 62
     7
 10
26545.545474999981
 20
13891.98625660321
 30
0.0
 40
160.0
  1
42.5
 50
90.0
  0
TEXT
  5
4376
  8
0
  6
CONTINUOUS
 62
     7
 10
26545.545474999981
 20
19779.09331939679
 30
0.0
 40
160.0
  1
42.5
 50
90.0
  0
TEXT
  5
4377
  8
0
  6
CONTINUOUS
 62
     7
 10
26945.54547499997
 20
16795.539787999998
 30
0.0
 40
160.0
  1
5220
 50
90.0
  0
TEXT
  5
4378
  8
0
  6
CONTINUOUS
 62
     7
 10
26545.545474999959
 20
15391.789788
 30
0.0
 40
160.0
  1
2567.5
 50
90.0
  0
TEXT
  5
4379
  8
0
  6
CONTINUOUS
 62
     7
 10
26545.545474999959
 20
17959.289787999998
 30
0.0
 40
160.0
  1
2567.5
 50
90.0
  0
TEXT
  5
437A
  8
0
  6
CONTINUOUS
 62
     7
 10
26145.545474999959
 20
18711.706454666681
 30
0.0
 40
160.0
  1
701
 50
90.0
  0
TEXT
  5
437B
  8
0
  6
CONTINUOUS
 62
     7
 10
26145.545474999959
 20
18010.706454666681
 30
0.0
 40
160.0
  1
701
 50
90.0
  0
TEXT
  5
437C
  8
0
  6
CONTINUOUS
 62
     7
 10
26145.545474999959
 20
17241.20645466667
 30
0.0
 40
160.0
  1
758
 50
90.0
  0
TEXT
  5
437D
  8
0
  6
CONTINUOUS
 62
     7
 10
26145.545474999959
 20
16483.206454666659
 30
0.0
 40
160.0
  1
758
 50
90.0
  0
TEXT
  5
437E
  8
0
  6
CONTINUOUS
 62
     7
 10
26145.545474999959
 20
15793.826710416681
 30
0.0
 40
160.0
  1
701
 50
90.0
  0
TEXT
  5
437F
  8
0
  6
CONTINUOUS
 62
     7
 10
26145.545474999959
 20
15092.826710416681
 30
0.0
 40
160.0
  1
701
 50
90.0
  0
TEXT
  5
4380
  8
0
  6
CONTINUOUS
 62
     7
 10
21948.379204333309
 20
13216.591704
 30
0.0
 40
160.0
  1
5921
  0
TEXT
  5
4381
  8
0
  6
CONTINUOUS
 62
     7
 10
19415.099543382061
 20
13616.59170399998
 30
0.0
 40
160.0
  1
42.5
  0
TEXT
  5
4382
  8
0
  6
CONTINUOUS
 62
     7
 10
24534.992198617889
 20
13616.59170399998
 30
0.0
 40
160.0
  1
42.5
  0
TEXT
  5
4383
  8
0
  6
CONTINUOUS
 62
     7
 10
25251.099543382072
 20
13616.59170399998
 30
0.0
 40
160.0
  1
42.5
  0
TEXT
  5
4384
  8
0
  6
CONTINUOUS
 62
     7
 10
18698.992198617889
 20
13616.59170399998
 30
0.0
 40
160.0
  1
42.5
  0
TEXT
  5
4385
  8
0
  6
CONTINUOUS
 62
     7
 10
18287.591293999969
 20
14729.07671041667
 30
0.0
 40
160.0
  1
1108.5
 50
90.0
  0
TEXT
  5
4386
  8
0
  6
CONTINUOUS
 62
     7
 10
18287.591293999969
 20
16079.49337708333
 30
0.0
 40
160.0
  1
1459
 50
90.0
  0
TEXT
  5
4387
  8
0
  6
CONTINUOUS
 62
     7
 10
18287.591293999969
 20
17538.373121333341
 30
0.0
 40
160.0
  1
1459
 50
90.0
  0
TEXT
  5
4388
  8
0
  6
CONTINUOUS
 62
     7
 10
18287.591293999969
 20
18755.45645466667
 30
0.0
 40
160.0
  1
1108.5
 50
90.0
  0
TEXT
  5
4389
  8
0
  6
CONTINUOUS
 62
     7
 10
26505.545474999981
 20
18944.917755643201
 30
0.0
 40
160.0
  1
407.5
 50
90.0
  0
TEXT
  5
438A
  8
0
  6
CONTINUOUS
 62
     7
 10
26505.545474999981
 20
14580.98045795355
 30
0.0
 40
160.0
  1
407.5
 50
90.0
  0
TEXT
  5
438B
  8
0
  6
CONTINUOUS
 62
     7
 10
19462.71253766663
 20
20495.540976000011
 30
0.0
 40
160.0
  1
758
  0
TEXT
  5
438C
  8
0
  6
CONTINUOUS
 62
     7
 10
22380.713032416661
 20
20495.540976000011
 30
0.0
 40
160.0
  1
758
  0
TEXT
  5
438D
  8
0
  6
CONTINUOUS
 62
     7
 10
12761.921551333289
 20
20495.540976000011
 30
0.0
 40
160.0
  1
2918
  0
TEXT
  5
438E
  8
0
  6
CONTINUOUS
 62
     7
 10
14624.08492402324
 20
20495.540976000011
 30
0.0
 40
160.0
  1
85.5
  0
TEXT
  5
438F
  8
0
  6
CONTINUOUS
 62
     7
 10
9843.9215513333038
 20
20495.540976000011
 30
0.0
 40
160.0
  1
2918
  0
TEXT
  5
4390
  8
0
  6
CONTINUOUS
 62
     7
 10
8035.0915119767069
 20
20495.540976000011
 30
0.0
 40
160.0
  1
85.5
  0
TEXT
  5
4391
  8
0
  6
CONTINUOUS
 62
     7
 10
7642.0887669999729
 20
17538.369162333322
 30
0.0
 40
160.0
  1
1459
 50
90.0
  0
TEXT
  5
4392
  8
0
  6
CONTINUOUS
 62
     7
 10
7642.0887669999729
 20
18755.452495666661
 30
0.0
 40
160.0
  1
1108.5
 50
90.0
  0
TEXT
  5
4393
  8
0
  6
CONTINUOUS
 62
     7
 10
7642.0887669999729
 20
19954.491013807681
 30
0.0
 40
160.0
  1
222.5
 50
90.0
  0
TEXT
  5
4394
  8
0
  6
CONTINUOUS
 62
     7
 10
8042.0887669999793
 20
19985.53173800002
 30
0.0
 40
160.0
  1
20
 50
90.0
  0
TEXT
  5
4395
  8
0
  6
CONTINUOUS
 62
     7
 10
7642.0887669999729
 20
16079.491397583341
 30
0.0
 40
160.0
  1
1459
 50
90.0
  0
TEXT
  5
4396
  8
0
  6
CONTINUOUS
 62
     7
 10
7642.0887669999729
 20
14729.07671041667
 30
0.0
 40
160.0
  1
1108.5
 50
90.0
  0
TEXT
  5
4397
  8
0
  6
CONTINUOUS
 62
     7
 10
7642.0887669999729
 20
13700.086777702631
 30
0.0
 40
160.0
  1
192.5
 50
90.0
  0
ARC
  5
439D
  8
0
  6
BYBLOCK
 62
     0
 10
7722.0887669999775
 20
14508.039787999989
 30
0.0
 40
15.0
 50
270.0
 51
90.0
  0
ARC
  5
439E
  8
0
  6
BYBLOCK
 62
     0
 10
7722.0887669999775
 20
14508.039787999989
 30
0.0
 40
15.0
 50
90.0
 51
270.0
  0
ARC
  5
439F
  8
0
  6
BYBLOCK
 62
     0
 10
7722.0887669999775
 20
14315.544472999991
 30
0.0
 40
15.0
 50
90.0
 51
270.0
  0
ARC
  5
43A0
  8
0
  6
BYBLOCK
 62
     0
 10
7722.0887669999775
 20
14315.544472999991
 30
0.0
 40
15.0
 50
270.0
 51
90.0
  0
ARC
  5
43A1
  8
0
  6
BYBLOCK
 62
     0
 10
7722.0887669999775
 20
15616.7802995
 30
0.0
 40
15.0
 50
270.0
 51
90.0
  0
ARC
  5
43A2
  8
0
  6
BYBLOCK
 62
     0
 10
7722.0887669999775
 20
15616.7802995
 30
0.0
 40
15.0
 50
90.0
 51
270.0
  0
ARC
  5
43A3
  8
0
  6
BYBLOCK
 62
     0
 10
7722.0887669999775
 20
14508.039787999989
 30
0.0
 40
15.0
 50
90.0
 51
270.0
  0
ARC
  5
43A4
  8
0
  6
BYBLOCK
 62
     0
 10
7722.0887669999775
 20
14508.039787999989
 30
0.0
 40
15.0
 50
270.0
 51
90.0
  0
ARC
  5
43A5
  8
0
  6
BYBLOCK
 62
     0
 10
7722.0887669999775
 20
17075.535829
 30
0.0
 40
15.0
 50
270.0
 51
90.0
  0
ARC
  5
43A6
  8
0
  6
BYBLOCK
 62
     0
 10
7722.0887669999775
 20
17075.535829
 30
0.0
 40
15.0
 50
90.0
 51
270.0
  0
ARC
  5
43A7
  8
0
  6
BYBLOCK
 62
     0
 10
7722.0887669999775
 20
15616.7802995
 30
0.0
 40
15.0
 50
90.0
 51
270.0
  0
ARC
  5
43A8
  8
0
  6
BYBLOCK
 62
     0
 10
7722.0887669999775
 20
15616.7802995
 30
0.0
 40
15.0
 50
270.0
 51
90.0
  0
ARC
  5
43A9
  8
0
  6
BYBLOCK
 62
     0
 10
8122.0887669999775
 20
19845.535564999991
 30
0.0
 40
15.0
 50
270.0
 51
90.0
  0
ARC
  5
43AA
  8
0
  6
BYBLOCK
 62
     0
 10
8122.0887669999775
 20
19845.535564999991
 30
0.0
 40
15.0
 50
90.0
 51
270.0
  0
ARC
  5
43AB
  8
0
  6
BYBLOCK
 62
     0
 10
8122.0887669999775
 20
19865.531738000001
 30
0.0
 40
15.0
 50
90.0
 51
270.0
  0
ARC
  5
43AC
  8
0
  6
BYBLOCK
 62
     0
 10
8122.0887669999775
 20
19865.531738000001
 30
0.0
 40
15.0
 50
270.0
 51
90.0
  0
ARC
  5
43AD
  8
0
  6
BYBLOCK
 62
     0
 10
7722.0887669999775
 20
19643.035829
 30
0.0
 40
15.0
 50
90.0
 51
270.0
  0
ARC
  5
43AE
  8
0
  6
BYBLOCK
 62
     0
 10
7722.0887669999775
 20
19643.035829
 30
0.0
 40
15.0
 50
270.0
 51
90.0
  0
ARC
  5
43AF
  8
0
  6
BYBLOCK
 62
     0
 10
7722.0887669999775
 20
19865.531738000001
 30
0.0
 40
15.0
 50
270.0
 51
90.0
  0
ARC
  5
43B0
  8
0
  6
BYBLOCK
 62
     0
 10
7722.0887669999775
 20
19865.531738000001
 30
0.0
 40
15.0
 50
90.0
 51
270.0
  0
ARC
  5
43B1
  8
0
  6
BYBLOCK
 62
     0
 10
7722.0887669999775
 20
18534.535829
 30
0.0
 40
15.0
 50
90.0
 51
270.0
  0
ARC
  5
43B2
  8
0
  6
BYBLOCK
 62
     0
 10
7722.0887669999775
 20
18534.535829
 30
0.0
 40
15.0
 50
270.0
 51
90.0
  0
ARC
  5
43B3
  8
0
  6
BYBLOCK
 62
     0
 10
7722.0887669999775
 20
19643.035829
 30
0.0
 40
15.0
 50
270.0
 51
90.0
  0
ARC
  5
43B4
  8
0
  6
BYBLOCK
 62
     0
 10
7722.0887669999775
 20
19643.035829
 30
0.0
 40
15.0
 50
90.0
 51
270.0
  0
ARC
  5
43B5
  8
0
  6
BYBLOCK
 62
     0
 10
7722.0887669999775
 20
17075.535829
 30
0.0
 40
15.0
 50
90.0
 51
270.0
  0
ARC
  5
43B6
  8
0
  6
BYBLOCK
 62
     0
 10
7722.0887669999775
 20
17075.535829
 30
0.0
 40
15.0
 50
270.0
 51
90.0
  0
ARC
  5
43B7
  8
0
  6
BYBLOCK
 62
     0
 10
7722.0887669999775
 20
18534.535829
 30
0.0
 40
15.0
 50
270.0
 51
90.0
  0
ARC
  5
43B8
  8
0
  6
BYBLOCK
 62
     0
 10
7722.0887669999775
 20
18534.535829
 30
0.0
 40
15.0
 50
90.0
 51
270.0
  0
ARC
  5
43B9
  8
0
  6
BYBLOCK
 62
     0
 10
8651.5882179999735
 20
20415.540976000011
 30
0.0
 40
15.0
 50
0.0
 51
180.0
  0
ARC
  5
43BA
  8
0
  6
BYBLOCK
 62
     0
 10
8651.5882179999735
 20
20415.540976000011
 30
0.0
 40
15.0
 50
180.0
 51
0.0
  0
ARC
  5
43BB
  8
0
  6
BYBLOCK
 62
     0
 10
8566.0882179999735
 20
20415.540976000011
 30
0.0
 40
15.0
 50
180.0
 51
0.0
  0
ARC
  5
43BC
  8
0
  6
BYBLOCK
 62
     0
 10
8566.0882179999735
 20
20415.540976000011
 30
0.0
 40
15.0
 50
0.0
 51
180.0
  0
ARC
  5
43BD
  8
0
  6
BYBLOCK
 62
     0
 10
11569.58821799997
 20
20415.540976000011
 30
0.0
 40
15.0
 50
180.0
 51
0.0
  0
ARC
  5
43BE
  8
0
  6
BYBLOCK
 62
     0
 10
11569.58821799997
 20
20415.540976000011
 30
0.0
 40
15.0
 50
0.0
 51
180.0
  0
ARC
  5
43BF
  8
0
  6
BYBLOCK
 62
     0
 10
8651.5882179999735
 20
20415.540976000011
 30
0.0
 40
15.0
 50
0.0
 51
180.0
  0
ARC
  5
43C0
  8
0
  6
BYBLOCK
 62
     0
 10
8651.5882179999735
 20
20415.540976000011
 30
0.0
 40
15.0
 50
180.0
 51
0.0
  0
ARC
  5
43C1
  8
0
  6
BYBLOCK
 62
     0
 10
14487.588217999961
 20
20415.540976000011
 30
0.0
 40
15.0
 50
180.0
 51
0.0
  0
ARC
  5
43C2
  8
0
  6
BYBLOCK
 62
     0
 10
14487.588217999961
 20
20415.540976000011
 30
0.0
 40
15.0
 50
0.0
 51
180.0
  0
ARC
  5
43C3
  8
0
  6
BYBLOCK
 62
     0
 10
14573.088217999961
 20
20415.540976000011
 30
0.0
 40
15.0
 50
0.0
 51
180.0
  0
ARC
  5
43C4
  8
0
  6
BYBLOCK
 62
     0
 10
14573.088217999961
 20
20415.540976000011
 30
0.0
 40
15.0
 50
180.0
 51
0.0
  0
ARC
  5
43C5
  8
0
  6
BYBLOCK
 62
     0
 10
11569.58821799997
 20
20415.540976000011
 30
0.0
 40
15.0
 50
0.0
 51
180.0
  0
ARC
  5
43C6
  8
0
  6
BYBLOCK
 62
     0
 10
11569.58821799997
 20
20415.540976000011
 30
0.0
 40
15.0
 50
180.0
 51
0.0
  0
ARC
  5
43C7
  8
0
  6
BYBLOCK
 62
     0
 10
14487.588217999961
 20
20415.540976000011
 30
0.0
 40
15.0
 50
180.0
 51
0.0
  0
ARC
  5
43C8
  8
0
  6
BYBLOCK
 62
     0
 10
14487.588217999961
 20
20415.540976000011
 30
0.0
 40
15.0
 50
0.0
 51
180.0
  0
ARC
  5
43C9
  8
0
  6
BYBLOCK
 62
     0
 10
22215.046860499991
 20
20415.540976000011
 30
0.0
 40
15.0
 50
0.0
 51
180.0
  0
ARC
  5
43CA
  8
0
  6
BYBLOCK
 62
     0
 10
22215.046860499991
 20
20415.540976000011
 30
0.0
 40
15.0
 50
180.0
 51
0.0
  0
ARC
  5
43CB
  8
0
  6
BYBLOCK
 62
     0
 10
22973.045870999969
 20
20415.540976000011
 30
0.0
 40
15.0
 50
180.0
 51
0.0
  0
ARC
  5
43CC
  8
0
  6
BYBLOCK
 62
     0
 10
22973.045870999969
 20
20415.540976000011
 30
0.0
 40
15.0
 50
0.0
 51
180.0
  0
ARC
  5
43CD
  8
0
  6
BYBLOCK
 62
     0
 10
20055.04587099998
 20
20415.540976000011
 30
0.0
 40
15.0
 50
180.0
 51
0.0
  0
ARC
  5
43CE
  8
0
  6
BYBLOCK
 62
     0
 10
20055.04587099998
 20
20415.540976000011
 30
0.0
 40
15.0
 50
0.0
 51
180.0
  0
ARC
  5
43CF
  8
0
  6
BYBLOCK
 62
     0
 10
19297.04587099998
 20
20415.540976000011
 30
0.0
 40
15.0
 50
0.0
 51
180.0
  0
ARC
  5
43D0
  8
0
  6
BYBLOCK
 62
     0
 10
19297.04587099998
 20
20415.540976000011
 30
0.0
 40
15.0
 50
180.0
 51
0.0
  0
ARC
  5
43D1
  8
0
  6
BYBLOCK
 62
     0
 10
26225.545474999981
 20
14915.66004375
 30
0.0
 40
15.0
 50
270.0
 51
90.0
  0
ARC
  5
43D2
  8
0
  6
BYBLOCK
 62
     0
 10
26225.545474999981
 20
14915.66004375
 30
0.0
 40
15.0
 50
90.0
 51
270.0
  0
ARC
  5
43D3
  8
0
  6
BYBLOCK
 62
     0
 10
26225.545474999981
 20
14508.16004375
 30
0.0
 40
15.0
 50
90.0
 51
270.0
  0
ARC
  5
43D4
  8
0
  6
BYBLOCK
 62
     0
 10
26225.545474999981
 20
14508.16004375
 30
0.0
 40
15.0
 50
270.0
 51
90.0
  0
ARC
  5
43D5
  8
0
  6
BYBLOCK
 62
     0
 10
26225.545474999981
 20
19235.539787999998
 30
0.0
 40
15.0
 50
90.0
 51
270.0
  0
ARC
  5
43D6
  8
0
  6
BYBLOCK
 62
     0
 10
26225.545474999981
 20
19235.539787999998
 30
0.0
 40
15.0
 50
270.0
 51
90.0
  0
ARC
  5
43D7
  8
0
  6
BYBLOCK
 62
     0
 10
26225.545474999981
 20
19643.039787999991
 30
0.0
 40
15.0
 50
270.0
 51
90.0
  0
ARC
  5
43D8
  8
0
  6
BYBLOCK
 62
     0
 10
26225.545474999981
 20
19643.039787999991
 30
0.0
 40
15.0
 50
90.0
 51
270.0
  0
ARC
  5
43D9
  8
0
  6
BYBLOCK
 62
     0
 10
18367.591293999969
 20
18534.539787999998
 30
0.0
 40
15.0
 50
90.0
 51
270.0
  0
ARC
  5
43DA
  8
0
  6
BYBLOCK
 62
     0
 10
18367.591293999969
 20
18534.539787999998
 30
0.0
 40
15.0
 50
270.0
 51
90.0
  0
ARC
  5
43DB
  8
0
  6
BYBLOCK
 62
     0
 10
18367.591293999969
 20
19643.039787999991
 30
0.0
 40
15.0
 50
270.0
 51
90.0
  0
ARC
  5
43DC
  8
0
  6
BYBLOCK
 62
     0
 10
18367.591293999969
 20
19643.039787999991
 30
0.0
 40
15.0
 50
90.0
 51
270.0
  0
ARC
  5
43DD
  8
0
  6
BYBLOCK
 62
     0
 10
18367.591293999969
 20
17075.53978799998
 30
0.0
 40
15.0
 50
90.0
 51
270.0
  0
ARC
  5
43DE
  8
0
  6
BYBLOCK
 62
     0
 10
18367.591293999969
 20
17075.53978799998
 30
0.0
 40
15.0
 50
270.0
 51
90.0
  0
ARC
  5
43DF
  8
0
  6
BYBLOCK
 62
     0
 10
18367.591293999969
 20
18534.539787999998
 30
0.0
 40
15.0
 50
270.0
 51
90.0
  0
ARC
  5
43E0
  8
0
  6
BYBLOCK
 62
     0
 10
18367.591293999969
 20
18534.539787999998
 30
0.0
 40
15.0
 50
90.0
 51
270.0
  0
ARC
  5
43E1
  8
0
  6
BYBLOCK
 62
     0
 10
18367.591293999969
 20
15616.7802995
 30
0.0
 40
15.0
 50
90.0
 51
270.0
  0
ARC
  5
43E2
  8
0
  6
BYBLOCK
 62
     0
 10
18367.591293999969
 20
15616.7802995
 30
0.0
 40
15.0
 50
270.0
 51
90.0
  0
ARC
  5
43E3
  8
0
  6
BYBLOCK
 62
     0
 10
18367.591293999969
 20
17075.53978799998
 30
0.0
 40
15.0
 50
270.0
 51
90.0
  0
ARC
  5
43E4
  8
0
  6
BYBLOCK
 62
     0
 10
18367.591293999969
 20
17075.53978799998
 30
0.0
 40
15.0
 50
90.0
 51
270.0
  0
ARC
  5
43E5
  8
0
  6
BYBLOCK
 62
     0
 10
18367.591293999969
 20
14508.039787999989
 30
0.0
 40
15.0
 50
90.0
 51
270.0
  0
ARC
  5
43E6
  8
0
  6
BYBLOCK
 62
     0
 10
18367.591293999969
 20
14508.039787999989
 30
0.0
 40
15.0
 50
270.0
 51
90.0
  0
ARC
  5
43E7
  8
0
  6
BYBLOCK
 62
     0
 10
18367.591293999969
 20
15616.7802995
 30
0.0
 40
15.0
 50
270.0
 51
90.0
  0
ARC
  5
43E8
  8
0
  6
BYBLOCK
 62
     0
 10
18367.591293999969
 20
15616.7802995
 30
0.0
 40
15.0
 50
90.0
 51
270.0
  0
ARC
  5
43E9
  8
0
  6
BYBLOCK
 62
     0
 10
19297.04587099998
 20
13536.59170399998
 30
0.0
 40
15.0
 50
0.0
 51
180.0
  0
ARC
  5
43EA
  8
0
  6
BYBLOCK
 62
     0
 10
19297.04587099998
 20
13536.59170399998
 30
0.0
 40
15.0
 50
180.0
 51
0.0
  0
ARC
  5
43EB
  8
0
  6
BYBLOCK
 62
     0
 10
19254.543627999981
 20
13536.59170399998
 30
0.0
 40
15.0
 50
180.0
 51
0.0
  0
ARC
  5
43EC
  8
0
  6
BYBLOCK
 62
     0
 10
19254.543627999981
 20
13536.59170399998
 30
0.0
 40
15.0
 50
0.0
 51
180.0
  0
ARC
  5
43ED
  8
0
  6
BYBLOCK
 62
     0
 10
25133.04587099998
 20
13536.59170399998
 30
0.0
 40
15.0
 50
180.0
 51
0.0
  0
ARC
  5
43EE
  8
0
  6
BYBLOCK
 62
     0
 10
25133.04587099998
 20
13536.59170399998
 30
0.0
 40
15.0
 50
0.0
 51
180.0
  0
ARC
  5
43EF
  8
0
  6
BYBLOCK
 62
     0
 10
25175.548113999961
 20
13536.59170399998
 30
0.0
 40
15.0
 50
0.0
 51
180.0
  0
ARC
  5
43F0
  8
0
  6
BYBLOCK
 62
     0
 10
25175.548113999961
 20
13536.59170399998
 30
0.0
 40
15.0
 50
180.0
 51
0.0
  0
ARC
  5
43F1
  8
0
  6
BYBLOCK
 62
     0
 10
25133.04587099998
 20
13536.59170399998
 30
0.0
 40
15.0
 50
0.0
 51
180.0
  0
ARC
  5
43F2
  8
0
  6
BYBLOCK
 62
     0
 10
25133.04587099998
 20
13536.59170399998
 30
0.0
 40
15.0
 50
180.0
 51
0.0
  0
ARC
  5
43F3
  8
0
  6
BYBLOCK
 62
     0
 10
25090.543627999981
 20
13536.59170399998
 30
0.0
 40
15.0
 50
180.0
 51
0.0
  0
ARC
  5
43F4
  8
0
  6
BYBLOCK
 62
     0
 10
25090.543627999981
 20
13536.59170399998
 30
0.0
 40
15.0
 50
0.0
 51
180.0
  0
ARC
  5
43F5
  8
0
  6
BYBLOCK
 62
     0
 10
19297.04587099998
 20
13536.59170399998
 30
0.0
 40
15.0
 50
180.0
 51
0.0
  0
ARC
  5
43F6
  8
0
  6
BYBLOCK
 62
     0
 10
19297.04587099998
 20
13536.59170399998
 30
0.0
 40
15.0
 50
0.0
 51
180.0
  0
ARC
  5
43F7
  8
0
  6
BYBLOCK
 62
     0
 10
19339.548113999961
 20
13536.59170399998
 30
0.0
 40
15.0
 50
0.0
 51
180.0
  0
ARC
  5
43F8
  8
0
  6
BYBLOCK
 62
     0
 10
19339.548113999961
 20
13536.59170399998
 30
0.0
 40
15.0
 50
180.0
 51
0.0
  0
ARC
  5
43F9
  8
0
  6
BYBLOCK
 62
     0
 10
19254.543627999981
 20
13136.591704
 30
0.0
 40
15.0
 50
0.0
 51
180.0
  0
ARC
  5
43FA
  8
0
  6
BYBLOCK
 62
     0
 10
19254.543627999981
 20
13136.591704
 30
0.0
 40
15.0
 50
180.0
 51
0.0
  0
ARC
  5
43FB
  8
0
  6
BYBLOCK
 62
     0
 10
25175.548113999961
 20
13136.591704
 30
0.0
 40
15.0
 50
180.0
 51
0.0
  0
ARC
  5
43FC
  8
0
  6
BYBLOCK
 62
     0
 10
25175.548113999961
 20
13136.591704
 30
0.0
 40
15.0
 50
0.0
 51
180.0
  0
ARC
  5
43FD
  8
0
  6
BYBLOCK
 62
     0
 10
26225.545474999981
 20
15616.7802995
 30
0.0
 40
15.0
 50
270.0
 51
90.0
  0
ARC
  5
43FE
  8
0
  6
BYBLOCK
 62
     0
 10
26225.545474999981
 20
15616.7802995
 30
0.0
 40
15.0
 50
90.0
 51
270.0
  0
ARC
  5
43FF
  8
0
  6
BYBLOCK
 62
     0
 10
26225.545474999981
 20
14915.539788
 30
0.0
 40
15.0
 50
90.0
 51
270.0
  0
ARC
  5
4400
  8
0
  6
BYBLOCK
 62
     0
 10
26225.545474999981
 20
14915.539788
 30
0.0
 40
15.0
 50
270.0
 51
90.0
  0
ARC
  5
4401
  8
0
  6
BYBLOCK
 62
     0
 10
26225.545474999981
 20
16317.539788
 30
0.0
 40
15.0
 50
270.0
 51
90.0
  0
ARC
  5
4402
  8
0
  6
BYBLOCK
 62
     0
 10
26225.545474999981
 20
16317.539788
 30
0.0
 40
15.0
 50
90.0
 51
270.0
  0
ARC
  5
4403
  8
0
  6
BYBLOCK
 62
     0
 10
26225.545474999981
 20
15616.7802995
 30
0.0
 40
15.0
 50
90.0
 51
270.0
  0
ARC
  5
4404
  8
0
  6
BYBLOCK
 62
     0
 10
26225.545474999981
 20
15616.7802995
 30
0.0
 40
15.0
 50
270.0
 51
90.0
  0
ARC
  5
4405
  8
0
  6
BYBLOCK
 62
     0
 10
26225.545474999981
 20
17075.53978799998
 30
0.0
 40
15.0
 50
270.0
 51
90.0
  0
ARC
  5
4406
  8
0
  6
BYBLOCK
 62
     0
 10
26225.545474999981
 20
17075.53978799998
 30
0.0
 40
15.0
 50
90.0
 51
270.0
  0
ARC
  5
4407
  8
0
  6
BYBLOCK
 62
     0
 10
26225.545474999981
 20
16317.539788
 30
0.0
 40
15.0
 50
90.0
 51
270.0
  0
ARC
  5
4408
  8
0
  6
BYBLOCK
 62
     0
 10
26225.545474999981
 20
16317.539788
 30
0.0
 40
15.0
 50
270.0
 51
90.0
  0
ARC
  5
4409
  8
0
  6
BYBLOCK
 62
     0
 10
26225.545474999981
 20
17833.539787999991
 30
0.0
 40
15.0
 50
270.0
 51
90.0
  0
ARC
  5
440A
  8
0
  6
BYBLOCK
 62
     0
 10
26225.545474999981
 20
17833.539787999991
 30
0.0
 40
15.0
 50
90.0
 51
270.0
  0
ARC
  5
440B
  8
0
  6
BYBLOCK
 62
     0
 10
26225.545474999981
 20
17075.53978799998
 30
0.0
 40
15.0
 50
90.0
 51
270.0
  0
ARC
  5
440C
  8
0
  6
BYBLOCK
 62
     0
 10
26225.545474999981
 20
17075.53978799998
 30
0.0
 40
15.0
 50
270.0
 51
90.0
  0
ARC
  5
440D
  8
0
  6
BYBLOCK
 62
     0
 10
26225.545474999981
 20
18534.539787999998
 30
0.0
 40
15.0
 50
270.0
 51
90.0
  0
ARC
  5
440E
  8
0
  6
BYBLOCK
 62
     0
 10
26225.545474999981
 20
18534.539787999998
 30
0.0
 40
15.0
 50
90.0
 51
270.0
  0
ARC
  5
440F
  8
0
  6
BYBLOCK
 62
     0
 10
26225.545474999981
 20
17833.539787999991
 30
0.0
 40
15.0
 50
90.0
 51
270.0
  0
ARC
  5
4410
  8
0
  6
BYBLOCK
 62
     0
 10
26225.545474999981
 20
17833.539787999991
 30
0.0
 40
15.0
 50
270.0
 51
90.0
  0
ARC
  5
4411
  8
0
  6
BYBLOCK
 62
     0
 10
26225.545474999981
 20
19235.539787999998
 30
0.0
 40
15.0
 50
270.0
 51
90.0
  0
ARC
  5
4412
  8
0
  6
BYBLOCK
 62
     0
 10
26225.545474999981
 20
19235.539787999998
 30
0.0
 40
15.0
 50
90.0
 51
270.0
  0
ARC
  5
4413
  8
0
  6
BYBLOCK
 62
     0
 10
26225.545474999981
 20
18534.539787999998
 30
0.0
 40
15.0
 50
90.0
 51
270.0
  0
ARC
  5
4414
  8
0
  6
BYBLOCK
 62
     0
 10
26225.545474999981
 20
18534.539787999998
 30
0.0
 40
15.0
 50
270.0
 51
90.0
  0
ARC
  5
4415
  8
0
  6
BYBLOCK
 62
     0
 10
26625.545474999981
 20
17075.53978799998
 30
0.0
 40
15.0
 50
90.0
 51
270.0
  0
ARC
  5
4416
  8
0
  6
BYBLOCK
 62
     0
 10
26625.545474999981
 20
17075.53978799998
 30
0.0
 40
15.0
 50
270.0
 51
90.0
  0
ARC
  5
4417
  8
0
  6
BYBLOCK
 62
     0
 10
26625.545474999981
 20
19643.039787999991
 30
0.0
 40
15.0
 50
270.0
 51
90.0
  0
ARC
  5
4418
  8
0
  6
BYBLOCK
 62
     0
 10
26625.545474999981
 20
19643.039787999991
 30
0.0
 40
15.0
 50
90.0
 51
270.0
  0
ARC
  5
4419
  8
0
  6
BYBLOCK
 62
     0
 10
26625.545474999981
 20
14508.039787999989
 30
0.0
 40
15.0
 50
90.0
 51
270.0
  0
ARC
  5
441A
  8
0
  6
BYBLOCK
 62
     0
 10
26625.545474999981
 20
14508.039787999989
 30
0.0
 40
15.0
 50
270.0
 51
90.0
  0
ARC
  5
441B
  8
0
  6
BYBLOCK
 62
     0
 10
26625.545474999981
 20
17075.53978799998
 30
0.0
 40
15.0
 50
270.0
 51
90.0
  0
ARC
  5
441C
  8
0
  6
BYBLOCK
 62
     0
 10
26625.545474999981
 20
17075.53978799998
 30
0.0
 40
15.0
 50
90.0
 51
270.0
  0
ARC
  5
441D
  8
0
  6
BYBLOCK
 62
     0
 10
27025.545474999981
 20
19685.537082999988
 30
0.0
 40
15.0
 50
270.0
 51
90.0
  0
ARC
  5
441E
  8
0
  6
BYBLOCK
 62
     0
 10
27025.545474999981
 20
19685.537082999988
 30
0.0
 40
15.0
 50
90.0
 51
270.0
  0
ARC
  5
441F
  8
0
  6
BYBLOCK
 62
     0
 10
27025.545474999981
 20
14465.542493000001
 30
0.0
 40
15.0
 50
90.0
 51
270.0
  0
ARC
  5
4420
  8
0
  6
BYBLOCK
 62
     0
 10
27025.545474999981
 20
14465.542493000001
 30
0.0
 40
15.0
 50
270.0
 51
90.0
  0
ARC
  5
4421
  8
0
  6
BYBLOCK
 62
     0
 10
26625.545474999981
 20
19643.039787999991
 30
0.0
 40
15.0
 50
270.0
 51
90.0
  0
ARC
  5
4422
  8
0
  6
BYBLOCK
 62
     0
 10
26625.545474999981
 20
19643.039787999991
 30
0.0
 40
15.0
 50
90.0
 51
270.0
  0
ARC
  5
4423
  8
0
  6
BYBLOCK
 62
     0
 10
26625.545474999981
 20
19685.537082999988
 30
0.0
 40
15.0
 50
90.0
 51
270.0
  0
ARC
  5
4424
  8
0
  6
BYBLOCK
 62
     0
 10
26625.545474999981
 20
19685.537082999988
 30
0.0
 40
15.0
 50
270.0
 51
90.0
  0
ARC
  5
4425
  8
0
  6
BYBLOCK
 62
     0
 10
26625.545474999981
 20
14508.039787999989
 30
0.0
 40
15.0
 50
90.0
 51
270.0
  0
ARC
  5
4426
  8
0
  6
BYBLOCK
 62
     0
 10
26625.545474999981
 20
14508.039787999989
 30
0.0
 40
15.0
 50
270.0
 51
90.0
  0
ARC
  5
4427
  8
0
  6
BYBLOCK
 62
     0
 10
26625.545474999981
 20
14465.542493000001
 30
0.0
 40
15.0
 50
270.0
 51
90.0
  0
ARC
  5
4428
  8
0
  6
BYBLOCK
 62
     0
 10
26625.545474999981
 20
14465.542493000001
 30
0.0
 40
15.0
 50
90.0
 51
270.0
  0
ARC
  5
4429
  8
0
  6
BYBLOCK
 62
     0
 10
24375.04587099998
 20
20415.540976000011
 30
0.0
 40
15.0
 50
0.0
 51
180.0
  0
ARC
  5
442A
  8
0
  6
BYBLOCK
 62
     0
 10
24375.04587099998
 20
20415.540976000011
 30
0.0
 40
15.0
 50
180.0
 51
0.0
  0
ARC
  5
442B
  8
0
  6
BYBLOCK
 62
     0
 10
25133.046860499991
 20
20415.540976000011
 30
0.0
 40
15.0
 50
180.0
 51
0.0
  0
ARC
  5
442C
  8
0
  6
BYBLOCK
 62
     0
 10
25133.046860499991
 20
20415.540976000011
 30
0.0
 40
15.0
 50
0.0
 51
180.0
  0
ARC
  5
442D
  8
0
  6
BYBLOCK
 62
     0
 10
23674.04587099998
 20
20415.540976000011
 30
0.0
 40
15.0
 50
0.0
 51
180.0
  0
ARC
  5
442E
  8
0
  6
BYBLOCK
 62
     0
 10
23674.04587099998
 20
20415.540976000011
 30
0.0
 40
15.0
 50
180.0
 51
0.0
  0
ARC
  5
442F
  8
0
  6
BYBLOCK
 62
     0
 10
24375.04587099998
 20
20415.540976000011
 30
0.0
 40
15.0
 50
180.0
 51
0.0
  0
ARC
  5
4430
  8
0
  6
BYBLOCK
 62
     0
 10
24375.04587099998
 20
20415.540976000011
 30
0.0
 40
15.0
 50
0.0
 51
180.0
  0
ARC
  5
4431
  8
0
  6
BYBLOCK
 62
     0
 10
22973.045870999969
 20
20415.540976000011
 30
0.0
 40
15.0
 50
0.0
 51
180.0
  0
ARC
  5
4432
  8
0
  6
BYBLOCK
 62
     0
 10
22973.045870999969
 20
20415.540976000011
 30
0.0
 40
15.0
 50
180.0
 51
0.0
  0
ARC
  5
4433
  8
0
  6
BYBLOCK
 62
     0
 10
23674.04587099998
 20
20415.540976000011
 30
0.0
 40
15.0
 50
180.0
 51
0.0
  0
ARC
  5
4434
  8
0
  6
BYBLOCK
 62
     0
 10
23674.04587099998
 20
20415.540976000011
 30
0.0
 40
15.0
 50
0.0
 51
180.0
  0
ARC
  5
4435
  8
0
  6
BYBLOCK
 62
     0
 10
25133.04587099998
 20
20415.540976000011
 30
0.0
 40
15.0
 50
180.0
 51
0.0
  0
ARC
  5
4436
  8
0
  6
BYBLOCK
 62
     0
 10
25133.04587099998
 20
20415.540976000011
 30
0.0
 40
15.0
 50
0.0
 51
180.0
  0
ARC
  5
4437
  8
0
  6
BYBLOCK
 62
     0
 10
25175.542175999981
 20
20415.540976000011
 30
0.0
 40
15.0
 50
0.0
 51
180.0
  0
ARC
  5
4438
  8
0
  6
BYBLOCK
 62
     0
 10
25175.542175999981
 20
20415.540976000011
 30
0.0
 40
15.0
 50
180.0
 51
0.0
  0
ARC
  5
4439
  8
0
  6
BYBLOCK
 62
     0
 10
19297.04587099998
 20
20415.540976000011
 30
0.0
 40
15.0
 50
0.0
 51
180.0
  0
ARC
  5
443A
  8
0
  6
BYBLOCK
 62
     0
 10
19297.04587099998
 20
20415.540976000011
 30
0.0
 40
15.0
 50
180.0
 51
0.0
  0
ARC
  5
443B
  8
0
  6
BYBLOCK
 62
     0
 10
19254.549565999969
 20
20415.540976000011
 30
0.0
 40
15.0
 50
180.0
 51
0.0
  0
ARC
  5
443C
  8
0
  6
BYBLOCK
 62
     0
 10
19254.549565999969
 20
20415.540976000011
 30
0.0
 40
15.0
 50
0.0
 51
180.0
  0
ARC
  5
443D
  8
0
  6
BYBLOCK
 62
     0
 10
21457.04587099998
 20
20415.540976000011
 30
0.0
 40
15.0
 50
0.0
 51
180.0
  0
ARC
  5
443E
  8
0
  6
BYBLOCK
 62
     0
 10
21457.04587099998
 20
20415.540976000011
 30
0.0
 40
15.0
 50
180.0
 51
0.0
  0
ARC
  5
443F
  8
0
  6
BYBLOCK
 62
     0
 10
22215.046860499991
 20
20415.540976000011
 30
0.0
 40
15.0
 50
180.0
 51
0.0
  0
ARC
  5
4440
  8
0
  6
BYBLOCK
 62
     0
 10
22215.046860499991
 20
20415.540976000011
 30
0.0
 40
15.0
 50
0.0
 51
180.0
  0
ARC
  5
4441
  8
0
  6
BYBLOCK
 62
     0
 10
20756.04587099998
 20
20415.540976000011
 30
0.0
 40
15.0
 50
0.0
 51
180.0
  0
ARC
  5
4442
  8
0
  6
BYBLOCK
 62
     0
 10
20756.04587099998
 20
20415.540976000011
 30
0.0
 40
15.0
 50
180.0
 51
0.0
  0
ARC
  5
4443
  8
0
  6
BYBLOCK
 62
     0
 10
21457.04587099998
 20
20415.540976000011
 30
0.0
 40
15.0
 50
180.0
 51
0.0
  0
ARC
  5
4444
  8
0
  6
BYBLOCK
 62
     0
 10
21457.04587099998
 20
20415.540976000011
 30
0.0
 40
15.0
 50
0.0
 51
180.0
  0
ARC
  5
4445
  8
0
  6
BYBLOCK
 62
     0
 10
20055.04587099998
 20
20415.540976000011
 30
0.0
 40
15.0
 50
0.0
 51
180.0
  0
ARC
  5
4446
  8
0
  6
BYBLOCK
 62
     0
 10
20055.04587099998
 20
20415.540976000011
 30
0.0
 40
15.0
 50
180.0
 51
0.0
  0
ARC
  5
4447
  8
0
  6
BYBLOCK
 62
     0
 10
20756.04587099998
 20
20415.540976000011
 30
0.0
 40
15.0
 50
180.0
 51
0.0
  0
ARC
  5
4448
  8
0
  6
BYBLOCK
 62
     0
 10
20756.04587099998
 20
20415.540976000011
 30
0.0
 40
15.0
 50
0.0
 51
180.0
  0
ARC
  5
4449
  8
0
  6
BYBLOCK
 62
     0
 10
18447.04653099996
 20
6367.0884779999951
 30
0.0
 40
15.0
 50
90.0
 51
270.0
  0
ARC
  5
444A
  8
0
  6
BYBLOCK
 62
     0
 10
18447.04653099996
 20
6367.0884779999951
 30
0.0
 40
15.0
 50
270.0
 51
90.0
  0
ARC
  5
444B
  8
0
  6
BYBLOCK
 62
     0
 10
18447.046530999982
 20
8258.588477999996
 30
0.0
 40
15.0
 50
270.0
 51
90.0
  0
ARC
  5
444C
  8
0
  6
BYBLOCK
 62
     0
 10
18447.046530999982
 20
8258.588477999996
 30
0.0
 40
15.0
 50
90.0
 51
270.0
  0
ARC
  5
444D
  8
0
  6
BYBLOCK
 62
     0
 10
18047.044221999939
 20
6367.0884779999969
 30
0.0
 40
15.0
 50
90.0
 51
270.0
  0
ARC
  5
444E
  8
0
  6
BYBLOCK
 62
     0
 10
18047.044221999939
 20
6367.0884779999969
 30
0.0
 40
15.0
 50
270.0
 51
90.0
  0
ARC
  5
444F
  8
0
  6
BYBLOCK
 62
     0
 10
18047.044221999939
 20
8716.0879829999994
 30
0.0
 40
15.0
 50
270.0
 51
90.0
  0
ARC
  5
4450
  8
0
  6
BYBLOCK
 62
     0
 10
18047.044221999939
 20
8716.0879829999994
 30
0.0
 40
15.0
 50
90.0
 51
270.0
  0
ARC
  5
4461
  8
0
  6
BYBLOCK
 62
     0
 10
19391.04587099998
 20
5467.088643000001
 30
0.0
 40
15.0
 50
0.0
 51
180.0
  0
ARC
  5
4462
  8
0
  6
BYBLOCK
 62
     0
 10
19391.04587099998
 20
5467.088643000001
 30
0.0
 40
15.0
 50
180.0
 51
0.0
  0
ARC
  5
4463
  8
0
  6
BYBLOCK
 62
     0
 10
22121.04587099998
 20
5467.088643000001
 30
0.0
 40
15.0
 50
180.0
 51
0.0
  0
ARC
  5
4464
  8
0
  6
BYBLOCK
 62
     0
 10
22121.04587099998
 20
5467.088643000001
 30
0.0
 40
15.0
 50
0.0
 51
180.0
  0
ARC
  5
4465
  8
0
  6
BYBLOCK
 62
     0
 10
22309.04587099998
 20
5467.088643000001
 30
0.0
 40
15.0
 50
0.0
 51
180.0
  0
ARC
  5
4466
  8
0
  6
BYBLOCK
 62
     0
 10
22309.04587099998
 20
5467.088643000001
 30
0.0
 40
15.0
 50
180.0
 51
0.0
  0
ARC
  5
4467
  8
0
  6
BYBLOCK
 62
     0
 10
25039.04587099998
 20
5467.088643000001
 30
0.0
 40
15.0
 50
180.0
 51
0.0
  0
ARC
  5
4468
  8
0
  6
BYBLOCK
 62
     0
 10
25039.04587099998
 20
5467.088643000001
 30
0.0
 40
15.0
 50
0.0
 51
180.0
  0
ARC
  5
4469
  8
0
  6
BYBLOCK
 62
     0
 10
22215.04587099998
 20
5067.088643000001
 30
0.0
 40
15.0
 50
0.0
 51
180.0
  0
ARC
  5
446A
  8
0
  6
BYBLOCK
 62
     0
 10
22215.04587099998
 20
5067.088643000001
 30
0.0
 40
15.0
 50
180.0
 51
0.0
  0
ARC
  5
446B
  8
0
  6
BYBLOCK
 62
     0
 10
25133.04587099998
 20
5067.088643000001
 30
0.0
 40
15.0
 50
180.0
 51
0.0
  0
ARC
  5
446C
  8
0
  6
BYBLOCK
 62
     0
 10
25133.04587099998
 20
5067.088643000001
 30
0.0
 40
15.0
 50
0.0
 51
180.0
  0
ARC
  5
446D
  8
0
  6
BYBLOCK
 62
     0
 10
19297.04587099998
 20
5067.088643000001
 30
0.0
 40
15.0
 50
0.0
 51
180.0
  0
ARC
  5
446E
  8
0
  6
BYBLOCK
 62
     0
 10
19297.04587099998
 20
5067.088643000001
 30
0.0
 40
15.0
 50
180.0
 51
0.0
  0
ARC
  5
446F
  8
0
  6
BYBLOCK
 62
     0
 10
22215.04587099998
 20
5067.088643000001
 30
0.0
 40
15.0
 50
180.0
 51
0.0
  0
ARC
  5
4470
  8
0
  6
BYBLOCK
 62
     0
 10
22215.04587099998
 20
5067.088643000001
 30
0.0
 40
15.0
 50
0.0
 51
180.0
  0
ARC
  5
4471
  8
0
  6
BYBLOCK
 62
     0
 10
25133.049829999982
 20
5067.088643000001
 30
0.0
 40
15.0
 50
180.0
 51
0.0
  0
ARC
  5
4472
  8
0
  6
BYBLOCK
 62
     0
 10
25133.049829999982
 20
5067.088643000001
 30
0.0
 40
15.0
 50
0.0
 51
180.0
  0
ARC
  5
4473
  8
0
  6
BYBLOCK
 62
     0
 10
25175.549829999982
 20
5067.088643000001
 30
0.0
 40
15.0
 50
0.0
 51
180.0
  0
ARC
  5
4474
  8
0
  6
BYBLOCK
 62
     0
 10
25175.549829999982
 20
5067.088643000001
 30
0.0
 40
15.0
 50
180.0
 51
0.0
  0
ARC
  5
4475
  8
0
  6
BYBLOCK
 62
     0
 10
19297.04587099998
 20
5067.088643000001
 30
0.0
 40
15.0
 50
0.0
 51
180.0
  0
ARC
  5
4476
  8
0
  6
BYBLOCK
 62
     0
 10
19297.04587099998
 20
5067.088643000001
 30
0.0
 40
15.0
 50
180.0
 51
0.0
  0
ARC
  5
4477
  8
0
  6
BYBLOCK
 62
     0
 10
19254.54587099998
 20
5067.088643000001
 30
0.0
 40
15.0
 50
180.0
 51
0.0
  0
ARC
  5
4478
  8
0
  6
BYBLOCK
 62
     0
 10
19254.54587099998
 20
5067.088643000001
 30
0.0
 40
15.0
 50
0.0
 51
180.0
  0
ARC
  5
4479
  8
0
  6
BYBLOCK
 62
     0
 10
19254.54587099998
 20
4667.0888079999986
 30
0.0
 40
15.0
 50
0.0
 51
180.0
  0
ARC
  5
447A
  8
0
  6
BYBLOCK
 62
     0
 10
19254.54587099998
 20
4667.0888079999986
 30
0.0
 40
15.0
 50
180.0
 51
0.0
  0
ARC
  5
447B
  8
0
  6
BYBLOCK
 62
     0
 10
25175.54587099998
 20
4667.0888079999986
 30
0.0
 40
15.0
 50
180.0
 51
0.0
  0
ARC
  5
447C
  8
0
  6
BYBLOCK
 62
     0
 10
25175.54587099998
 20
4667.0888079999986
 30
0.0
 40
15.0
 50
0.0
 51
180.0
  0
ARC
  5
447D
  8
0
  6
BYBLOCK
 62
     0
 10
15261.788825
 20
6367.0884780000006
 30
0.0
 40
15.0
 50
90.0
 51
270.0
  0
ARC
  5
447E
  8
0
  6
BYBLOCK
 62
     0
 10
15261.788825
 20
6367.0884780000006
 30
0.0
 40
15.0
 50
270.0
 51
90.0
  0
ARC
  5
447F
  8
0
  6
BYBLOCK
 62
     0
 10
15261.788825
 20
8716.0884780000033
 30
0.0
 40
15.0
 50
270.0
 51
90.0
  0
ARC
  5
4480
  8
0
  6
BYBLOCK
 62
     0
 10
15261.788825
 20
8716.0884780000033
 30
0.0
 40
15.0
 50
90.0
 51
270.0
  0
ARC
  5
4481
  8
0
  6
BYBLOCK
 62
     0
 10
7861.7900130000007
 20
6367.0884780000006
 30
0.0
 40
15.0
 50
90.0
 51
270.0
  0
ARC
  5
4482
  8
0
  6
BYBLOCK
 62
     0
 10
7861.7900130000007
 20
6367.0884780000006
 30
0.0
 40
15.0
 50
270.0
 51
90.0
  0
ARC
  5
4483
  8
0
  6
BYBLOCK
 62
     0
 10
7861.7900130000007
 20
8522.5884780000015
 30
0.0
 40
15.0
 50
270.0
 51
90.0
  0
ARC
  5
4484
  8
0
  6
BYBLOCK
 62
     0
 10
7861.7900130000007
 20
8522.5884780000015
 30
0.0
 40
15.0
 50
90.0
 51
270.0
  0
ARC
  5
4485
  8
0
  6
BYBLOCK
 62
     0
 10
14171.79040899999
 20
9515.0901529999974
 30
0.0
 40
15.0
 50
180.0
 51
0.0
  0
ARC
  5
4486
  8
0
  6
BYBLOCK
 62
     0
 10
14171.79040899999
 20
9515.0901529999974
 30
0.0
 40
15.0
 50
0.0
 51
180.0
  0
ARC
  5
4487
  8
0
  6
BYBLOCK
 62
     0
 10
14321.79040899999
 20
9515.0901529999974
 30
0.0
 40
15.0
 50
0.0
 51
180.0
  0
ARC
  5
4488
  8
0
  6
BYBLOCK
 62
     0
 10
14321.79040899999
 20
9515.0901529999974
 30
0.0
 40
15.0
 50
180.0
 51
0.0
  0
ARC
  5
4489
  8
0
  6
BYBLOCK
 62
     0
 10
8771.7904090000011
 20
9915.088502999999
 30
0.0
 40
15.0
 50
0.0
 51
180.0
  0
ARC
  5
448A
  8
0
  6
BYBLOCK
 62
     0
 10
8771.7904090000011
 20
9915.088502999999
 30
0.0
 40
15.0
 50
180.0
 51
0.0
  0
ARC
  5
448B
  8
0
  6
BYBLOCK
 62
     0
 10
14321.79040899999
 20
9915.088502999999
 30
0.0
 40
15.0
 50
180.0
 51
0.0
  0
ARC
  5
448C
  8
0
  6
BYBLOCK
 62
     0
 10
14321.79040899999
 20
9915.088502999999
 30
0.0
 40
15.0
 50
0.0
 51
180.0
  0
ARC
  5
448D
  8
0
  6
BYBLOCK
 62
     0
 10
8951.7904090000011
 20
9515.0901529999974
 30
0.0
 40
15.0
 50
0.0
 51
180.0
  0
ARC
  5
448E
  8
0
  6
BYBLOCK
 62
     0
 10
8951.7904090000011
 20
9515.0901529999974
 30
0.0
 40
15.0
 50
180.0
 51
0.0
  0
ARC
  5
448F
  8
0
  6
BYBLOCK
 62
     0
 10
14171.79040899999
 20
9515.0901529999974
 30
0.0
 40
15.0
 50
180.0
 51
0.0
  0
ARC
  5
4490
  8
0
  6
BYBLOCK
 62
     0
 10
14171.79040899999
 20
9515.0901529999974
 30
0.0
 40
15.0
 50
0.0
 51
180.0
  0
ARC
  5
4491
  8
0
  6
BYBLOCK
 62
     0
 10
8771.7904090000011
 20
9515.0901529999974
 30
0.0
 40
15.0
 50
0.0
 51
180.0
  0
ARC
  5
4492
  8
0
  6
BYBLOCK
 62
     0
 10
8771.7904090000011
 20
9515.0901529999974
 30
0.0
 40
15.0
 50
180.0
 51
0.0
  0
ARC
  5
4493
  8
0
  6
BYBLOCK
 62
     0
 10
8951.7904090000011
 20
9515.0901529999974
 30
0.0
 40
15.0
 50
180.0
 51
0.0
  0
ARC
  5
4494
  8
0
  6
BYBLOCK
 62
     0
 10
8951.7904090000011
 20
9515.0901529999974
 30
0.0
 40
15.0
 50
0.0
 51
180.0
  0
ARC
  5
4495
  8
0
  6
BYBLOCK
 62
     0
 10
14129.28842999999
 20
5067.0886419999961
 30
0.0
 40
15.0
 50
180.0
 51
0.0
  0
ARC
  5
4496
  8
0
  6
BYBLOCK
 62
     0
 10
14129.28842999999
 20
5067.0886419999961
 30
0.0
 40
15.0
 50
0.0
 51
180.0
  0
ARC
  5
4497
  8
0
  6
BYBLOCK
 62
     0
 10
14171.788430000001
 20
5067.0886419999961
 30
0.0
 40
15.0
 50
0.0
 51
180.0
  0
ARC
  5
4498
  8
0
  6
BYBLOCK
 62
     0
 10
14171.788430000001
 20
5067.0886419999961
 30
0.0
 40
15.0
 50
180.0
 51
0.0
  0
ARC
  5
4499
  8
0
  6
BYBLOCK
 62
     0
 10
11561.79040899999
 20
5067.088643000001
 30
0.0
 40
15.0
 50
0.0
 51
180.0
  0
ARC
  5
449A
  8
0
  6
BYBLOCK
 62
     0
 10
11561.79040899999
 20
5067.088643000001
 30
0.0
 40
15.0
 50
180.0
 51
0.0
  0
ARC
  5
449B
  8
0
  6
BYBLOCK
 62
     0
 10
14129.29040899999
 20
5067.088643000001
 30
0.0
 40
15.0
 50
180.0
 51
0.0
  0
ARC
  5
449C
  8
0
  6
BYBLOCK
 62
     0
 10
14129.29040899999
 20
5067.088643000001
 30
0.0
 40
15.0
 50
0.0
 51
180.0
  0
ARC
  5
449D
  8
0
  6
BYBLOCK
 62
     0
 10
8951.7904090000011
 20
4667.0888069999983
 30
0.0
 40
15.0
 50
0.0
 51
180.0
  0
ARC
  5
449E
  8
0
  6
BYBLOCK
 62
     0
 10
8951.7904090000011
 20
4667.0888069999983
 30
0.0
 40
15.0
 50
180.0
 51
0.0
  0
ARC
  5
449F
  8
0
  6
BYBLOCK
 62
     0
 10
14171.788430000001
 20
4667.0888069999983
 30
0.0
 40
15.0
 50
180.0
 51
0.0
  0
ARC
  5
44A0
  8
0
  6
BYBLOCK
 62
     0
 10
14171.788430000001
 20
4667.0888069999983
 30
0.0
 40
15.0
 50
0.0
 51
180.0
  0
ARC
  5
44A1
  8
0
  6
BYBLOCK
 62
     0
 10
8994.2904090000029
 20
5067.0886419999961
 30
0.0
 40
15.0
 50
0.0
 51
180.0
  0
ARC
  5
44A2
  8
0
  6
BYBLOCK
 62
     0
 10
8994.2904090000029
 20
5067.0886419999961
 30
0.0
 40
15.0
 50
180.0
 51
0.0
  0
ARC
  5
44A3
  8
0
  6
BYBLOCK
 62
     0
 10
8951.7904090000011
 20
5067.0886419999961
 30
0.0
 40
15.0
 50
180.0
 51
0.0
  0
ARC
  5
44A4
  8
0
  6
BYBLOCK
 62
     0
 10
8951.7904090000011
 20
5067.0886419999961
 30
0.0
 40
15.0
 50
0.0
 51
180.0
  0
ARC
  5
44A5
  8
0
  6
BYBLOCK
 62
     0
 10
11561.79040899999
 20
5067.0886419999961
 30
0.0
 40
15.0
 50
180.0
 51
0.0
  0
ARC
  5
44A6
  8
0
  6
BYBLOCK
 62
     0
 10
11561.79040899999
 20
5067.0886419999961
 30
0.0
 40
15.0
 50
0.0
 51
180.0
  0
ARC
  5
44A7
  8
0
  6
BYBLOCK
 62
     0
 10
8994.2904090000029
 20
5067.0886419999961
 30
0.0
 40
15.0
 50
0.0
 51
180.0
  0
ARC
  5
44A8
  8
0
  6
BYBLOCK
 62
     0
 10
8994.2904090000029
 20
5067.0886419999961
 30
0.0
 40
15.0
 50
180.0
 51
0.0
  0
LINE
  5
45D0
  8
0-1
  6
CONTINUOUS
 62
     3
 10
25069.548852999971
 20
8465.5884979999973
 30
0.0
 11
25069.548852999971
 21
8497.5884050000004
 31
0.0
  0
LINE
  5
45D1
  8
0-1
  6
CONTINUOUS
 62
     3
 10
25218.54824599998
 20
8389.4017760000006
 30
0.0
 11
25175.54613499996
 21
8389.4017760000006
 31
0.0
  0
LINE
  5
45D2
  8
0-1
  6
CONTINUOUS
 62
     3
 10
25218.54824599998
 20
8715.5888270000032
 30
0.0
 11
25218.54824599998
 21
8389.4017760000006
 31
0.0
  0
LINE
  5
45D3
  8
0-1
  6
CONTINUOUS
 62
     3
 10
24783.581659999989
 20
8462.0530769999987
 30
0.0
 11
24751.582742999992
 21
8494.0529849999984
 31
0.0
  0
LINE
  5
45D4
  8
0-1
  6
CONTINUOUS
 62
     3
 10
25064.548588999962
 20
8502.5886689999988
 30
0.0
 11
24755.118162999988
 21
8502.5886689999988
 31
0.0
  0
LINE
  5
45D5
  8
0-1
  6
CONTINUOUS
 62
     3
 10
25069.548852999971
 20
8494.189572000003
 30
0.0
 11
24751.452093999971
 21
8494.189572000003
 31
0.0
  0
LINE
  5
45D6
  8
0-1
  6
CONTINUOUS
 62
     3
 10
25064.548588999962
 20
8460.5882340000007
 30
0.0
 11
24787.119059999972
 21
8460.5882340000007
 31
0.0
  0
LINE
  5
45D7
  8
0-1
  6
CONTINUOUS
 62
     3
 10
25069.548852999971
 20
8468.9883209999989
 30
0.0
 11
24776.64740699996
 21
8468.9883209999989
 31
0.0
  0
LINE
  5
45D8
  8
0-1
  6
CONTINUOUS
 62
     3
 10
25069.548852999971
 20
8477.3884079999971
 30
0.0
 11
24768.248308999981
 21
8477.3884079999971
 31
0.0
  0
LINE
  5
45D9
  8
0-1
  6
CONTINUOUS
 62
     3
 10
25069.548852999971
 20
8485.7894849999975
 30
0.0
 11
24759.84723299996
 21
8485.7894849999975
 31
0.0
  0
LINE
  5
45DA
  8
0-1
  6
CONTINUOUS
 62
     3
 10
22564.512061000001
 20
8462.0530769999987
 30
0.0
 11
22596.508999000001
 21
8494.0529849999984
 31
0.0
  0
LINE
  5
45DB
  8
0-1
  6
CONTINUOUS
 62
     3
 10
22278.546847000001
 20
8465.5884979999973
 30
0.0
 11
22278.546847000001
 21
8497.5884050000004
 31
0.0
  0
LINE
  5
45DC
  8
0-1
  6
CONTINUOUS
 62
     3
 10
22278.546847000001
 20
8468.9883209999989
 30
0.0
 11
22571.444334999971
 21
8468.9883209999989
 31
0.0
  0
LINE
  5
45DD
  8
0-1
  6
CONTINUOUS
 62
     3
 10
22278.546847000001
 20
8477.3884079999971
 30
0.0
 11
22579.845411999991
 21
8477.3884079999971
 31
0.0
  0
LINE
  5
45DE
  8
0-1
  6
CONTINUOUS
 62
     3
 10
22283.547110999989
 20
8460.5882340000007
 30
0.0
 11
22560.974660999989
 21
8460.5882340000007
 31
0.0
  0
LINE
  5
45DF
  8
0-1
  6
CONTINUOUS
 62
     3
 10
22278.546847000001
 20
8485.7894849999975
 30
0.0
 11
22588.244509
 21
8485.7894849999975
 31
0.0
  0
LINE
  5
45E0
  8
0-1
  6
CONTINUOUS
 62
     3
 10
22278.546847000001
 20
8494.189572000003
 30
0.0
 11
22596.641627000001
 21
8494.189572000003
 31
0.0
  0
LINE
  5
45E1
  8
0-1
  6
CONTINUOUS
 62
     3
 10
22283.547110999989
 20
8502.5886689999988
 30
0.0
 11
22592.975558000009
 21
8502.5886689999988
 31
0.0
  0
LINE
  5
45E2
  8
0-1
  6
CONTINUOUS
 62
     3
 10
25218.54824599998
 20
8585.5879039999982
 30
0.0
 11
22215.04587099998
 21
8585.5879039999982
 31
0.0
  0
LINE
  5
45E3
  8
0-1
  6
CONTINUOUS
 62
     3
 10
22257.544154999989
 20
8511.5885500000004
 30
0.0
 11
25090.547585999971
 21
8511.5885500000004
 31
0.0
  0
LINE
  5
45E4
  8
0-1
  6
CONTINUOUS
 62
     3
 10
22257.544154999989
 20
8451.5883519999988
 30
0.0
 11
25090.547585999971
 21
8451.5883519999988
 31
0.0
  0
LINE
  5
45E5
  8
0-1
  6
CONTINUOUS
 62
     3
 10
22215.04587099998
 20
8715.5888270000032
 30
0.0
 11
25218.54824599998
 21
8715.5888270000032
 31
0.0
  0
LINE
  5
45E6
  8
0-1
  6
CONTINUOUS
 62
     3
 10
22151.544894999981
 20
8465.5884979999973
 30
0.0
 11
22151.544894999981
 21
8497.5884050000004
 31
0.0
  0
LINE
  5
45E7
  8
0-1
  6
CONTINUOUS
 62
     3
 10
21865.583639999972
 20
8462.0530769999987
 30
0.0
 11
21833.582742999981
 21
8494.0529849999984
 31
0.0
  0
LINE
  5
45E8
  8
0-1
  6
CONTINUOUS
 62
     3
 10
22151.544894999981
 20
8494.189572000003
 30
0.0
 11
21833.452094999961
 21
8494.189572000003
 31
0.0
  0
LINE
  5
45E9
  8
0-1
  6
CONTINUOUS
 62
     3
 10
22151.544894999981
 20
8485.7894849999975
 30
0.0
 11
21841.84723299996
 21
8485.7894849999975
 31
0.0
  0
LINE
  5
45EA
  8
0-1
  6
CONTINUOUS
 62
     3
 10
22151.544894999981
 20
8477.3884079999971
 30
0.0
 11
21850.24632999998
 21
8477.3884079999971
 31
0.0
  0
LINE
  5
45EB
  8
0-1
  6
CONTINUOUS
 62
     3
 10
22151.544894999981
 20
8468.9883209999989
 30
0.0
 11
21858.64542799996
 21
8468.9883209999989
 31
0.0
  0
LINE
  5
45EC
  8
0-1
  6
CONTINUOUS
 62
     3
 10
22146.546609999968
 20
8502.5886689999988
 30
0.0
 11
21837.11618399998
 21
8502.5886689999988
 31
0.0
  0
LINE
  5
45ED
  8
0-1
  6
CONTINUOUS
 62
     3
 10
22146.546609999968
 20
8460.5882340000007
 30
0.0
 11
21869.119060999968
 21
8460.5882340000007
 31
0.0
  0
LINE
  5
45EE
  8
0-1
  6
CONTINUOUS
 62
     3
 10
19365.545131999981
 20
8460.5882340000007
 30
0.0
 11
19642.97466199995
 21
8460.5882340000007
 31
0.0
  0
LINE
  5
45EF
  8
0-1
  6
CONTINUOUS
 62
     3
 10
19360.54684799998
 20
8465.5884979999973
 30
0.0
 11
19360.54684799998
 21
8497.5884050000004
 31
0.0
  0
LINE
  5
45F0
  8
0-1
  6
CONTINUOUS
 62
     3
 10
19211.545475999959
 20
8389.4017760000006
 30
0.0
 11
19254.543627999981
 21
8389.4017760000006
 31
0.0
  0
LINE
  5
45F1
  8
0-1
  6
CONTINUOUS
 62
     3
 10
19211.545475999959
 20
8389.4017760000006
 30
0.0
 11
19211.545475999959
 21
8715.5888270000032
 31
0.0
  0
LINE
  5
45F2
  8
0-1
  6
CONTINUOUS
 62
     3
 10
19365.545131999981
 20
8502.5886689999988
 30
0.0
 11
19674.97555899998
 21
8502.5886689999988
 31
0.0
  0
LINE
  5
45F3
  8
0-1
  6
CONTINUOUS
 62
     3
 10
19646.508101999982
 20
8462.0530769999987
 30
0.0
 11
19678.50899999998
 21
8494.0529849999984
 31
0.0
  0
LINE
  5
45F4
  8
0-1
  6
CONTINUOUS
 62
     3
 10
19360.54684799998
 20
8494.189572000003
 30
0.0
 11
19678.641626999979
 21
8494.189572000003
 31
0.0
  0
LINE
  5
45F5
  8
0-1
  6
CONTINUOUS
 62
     3
 10
19360.54684799998
 20
8485.7894849999975
 30
0.0
 11
19670.244509999971
 21
8485.7894849999975
 31
0.0
  0
LINE
  5
45F6
  8
0-1
  6
CONTINUOUS
 62
     3
 10
19360.54684799998
 20
8477.3884079999971
 30
0.0
 11
19661.845411999991
 21
8477.3884079999971
 31
0.0
  0
LINE
  5
45F7
  8
0-1
  6
CONTINUOUS
 62
     3
 10
19360.54684799998
 20
8468.9883209999989
 30
0.0
 11
19653.446314999961
 21
8468.9883209999989
 31
0.0
  0
LINE
  5
45F8
  8
0-1
  6
CONTINUOUS
 62
     3
 10
19339.544155999982
 20
8451.5883519999988
 30
0.0
 11
22172.545606999971
 21
8451.5883519999988
 31
0.0
  0
LINE
  5
45F9
  8
0-1
  6
CONTINUOUS
 62
     3
 10
19339.544155999982
 20
8511.5885500000004
 30
0.0
 11
22172.545606999971
 21
8511.5885500000004
 31
0.0
  0
LINE
  5
45FA
  8
0-1
  6
CONTINUOUS
 62
     3
 10
19211.545475999959
 20
8715.5888270000032
 30
0.0
 11
22215.04587099998
 21
8715.5888270000032
 31
0.0
  0
LINE
  5
45FB
  8
0-1
  6
CONTINUOUS
 62
     3
 10
22215.04587099998
 20
8585.5879039999982
 30
0.0
 11
19211.545475999959
 21
8585.5879039999982
 31
0.0
  0
LINE
  5
45FC
  8
0-1
  6
CONTINUOUS
 62
     3
 10
22215.04587099998
 20
8585.5879039999982
 30
0.0
 11
22215.04587099998
 21
8715.5888270000032
 31
0.0
  0
LINE
  5
45FD
  8
0-1
  6
CONTINUOUS
 62
     3
 10
22215.04587099998
 20
8585.5879039999982
 30
0.0
 11
22215.04587099998
 21
8715.5888270000032
 31
0.0
  0
ARC
  5
45FE
  8
0-1
  6
CONTINUOUS
 62
     3
 10
25064.548588999962
 20
8497.5884050000004
 30
0.0
 40
5.0
 50
0.0
 51
90.0
  0
ARC
  5
45FF
  8
0-1
  6
CONTINUOUS
 62
     3
 10
25064.548588999962
 20
8465.5884979999973
 30
0.0
 40
5.0
 50
269.9999850001808
 51
0.0
  0
ARC
  5
4600
  8
0-1
  6
CONTINUOUS
 62
     3
 10
24755.118162999988
 20
8497.5884050000004
 30
0.0
 40
5.0
 50
90.0
 51
224.99998499997989
  0
ARC
  5
4601
  8
0-1
  6
CONTINUOUS
 62
     3
 10
24787.119059999972
 20
8465.5884979999973
 30
0.0
 40
5.0
 50
224.99998499997989
 51
269.9999850001808
  0
ARC
  5
4602
  8
0-1
  6
CONTINUOUS
 62
     3
 10
22592.975558000009
 20
8497.5884050000004
 30
0.0
 40
5.0
 50
314.99998500027471
 51
90.0
  0
ARC
  5
4603
  8
0-1
  6
CONTINUOUS
 62
     3
 10
22560.974660999989
 20
8465.5884979999973
 30
0.0
 40
5.0
 50
269.9999850001808
 51
314.99998500027471
  0
ARC
  5
4604
  8
0-1
  6
CONTINUOUS
 62
     3
 10
22283.547110999989
 20
8465.5884979999973
 30
0.0
 40
5.0
 50
180.0
 51
269.9999850001808
  0
ARC
  5
4605
  8
0-1
  6
CONTINUOUS
 62
     3
 10
22283.547110999989
 20
8497.5884050000004
 30
0.0
 40
5.0
 50
90.0
 51
180.0
  0
ARC
  5
4606
  8
0-1
  6
CONTINUOUS
 62
     3
 10
22146.546609999968
 20
8465.5884979999973
 30
0.0
 40
5.0
 50
269.9999850001808
 51
0.0
  0
ARC
  5
4607
  8
0-1
  6
CONTINUOUS
 62
     3
 10
22146.546609999968
 20
8497.5884050000004
 30
0.0
 40
5.0
 50
0.0
 51
90.0
  0
ARC
  5
4608
  8
0-1
  6
CONTINUOUS
 62
     3
 10
21837.11618399998
 20
8497.5884050000004
 30
0.0
 40
5.0
 50
90.0
 51
224.99998499997989
  0
ARC
  5
4609
  8
0-1
  6
CONTINUOUS
 62
     3
 10
21869.119060999968
 20
8465.5884979999973
 30
0.0
 40
5.0
 50
224.99998499997989
 51
269.9999850001808
  0
ARC
  5
460A
  8
0-1
  6
CONTINUOUS
 62
     3
 10
19674.97555899998
 20
8497.5884050000004
 30
0.0
 40
5.0
 50
314.99998500027471
 51
90.0
  0
ARC
  5
460B
  8
0-1
  6
CONTINUOUS
 62
     3
 10
19365.545131999981
 20
8497.5884050000004
 30
0.0
 40
5.0
 50
90.0
 51
180.0
  0
ARC
  5
460C
  8
0-1
  6
CONTINUOUS
 62
     3
 10
19365.545131999981
 20
8465.5884979999973
 30
0.0
 40
5.0
 50
180.0
 51
269.9999850001808
  0
ARC
  5
460D
  8
0-1
  6
CONTINUOUS
 62
     3
 10
19642.97466199995
 20
8465.5884979999973
 30
0.0
 40
5.0
 50
269.9999850001808
 51
314.99998500027471
  0
LINE
  5
460E
  8
SUNPOU
  6
CONTINUOUS
 62
     4
 10
19211.543495999958
 20
8795.5888270000032
 30
0.0
 11
19211.543495999958
 21
9995.0464389999997
 31
0.0
  0
LINE
  5
460F
  8
SUNPOU
  6
CONTINUOUS
 62
     4
 10
25218.54824599998
 20
8795.5888270000032
 30
0.0
 11
25218.54824599998
 21
9995.0464389999997
 31
0.0
  0
LINE
  5
4610
  8
SUNPOU
  6
CONTINUOUS
 62
     4
 10
19214.543495999958
 20
9915.0464390000016
 30
0.0
 11
25215.54824599998
 21
9915.0464390000016
 31
0.0
  0
LINE
  5
4611
  8
SUNPOU
  6
CONTINUOUS
 62
     4
 10
19254.54560699996
 20
8795.5888270000032
 30
0.0
 11
19254.54560699996
 21
9595.0886689999988
 31
0.0
  0
LINE
  5
4612
  8
SUNPOU
  6
CONTINUOUS
 62
     4
 10
25175.54613499996
 20
8795.5888270000032
 30
0.0
 11
25175.54613499996
 21
9595.0886689999988
 31
0.0
  0
LINE
  5
4613
  8
SUNPOU
  6
CONTINUOUS
 62
     4
 10
19254.54560699996
 20
9515.0886689999988
 30
0.0
 11
25175.54613499996
 21
9515.0886689999988
 31
0.0
  0
LINE
  5
4614
  8
SUNPOU
  6
CONTINUOUS
 62
     4
 10
19254.54560699996
 20
8795.5888270000032
 30
0.0
 11
19254.54560699996
 21
9595.0886689999988
 31
0.0
  0
LINE
  5
4615
  8
SUNPOU
  6
CONTINUOUS
 62
     4
 10
19211.543495999958
 20
8795.5888270000032
 30
0.0
 11
19211.543495999958
 21
9595.0886689999988
 31
0.0
  0
LINE
  5
4616
  8
SUNPOU
  6
CONTINUOUS
 62
     4
 10
19254.54560699996
 20
9515.0886689999988
 30
0.0
 11
19494.54560699996
 21
9515.0886689999988
 31
0.0
  0
LINE
  5
4617
  8
SUNPOU
  6
CONTINUOUS
 62
     4
 10
19214.543495999958
 20
9515.0886689999988
 30
0.0
 11
18974.54349599998
 21
9515.0886689999988
 31
0.0
  0
LINE
  5
4618
  8
SUNPOU
  6
CONTINUOUS
 62
     4
 10
19254.54560699996
 20
9515.0886689999988
 30
0.0
 11
19214.543495999958
 21
9515.0886689999988
 31
0.0
  0
LINE
  5
4619
  8
SUNPOU
  6
CONTINUOUS
 62
     4
 10
25175.54613499996
 20
8795.5888270000032
 30
0.0
 11
25175.54613499996
 21
9595.0886689999988
 31
0.0
  0
LINE
  5
461A
  8
SUNPOU
  6
CONTINUOUS
 62
     4
 10
25218.54824599998
 20
8795.5888270000032
 30
0.0
 11
25218.54824599998
 21
9595.0886689999988
 31
0.0
  0
LINE
  5
461B
  8
SUNPOU
  6
CONTINUOUS
 62
     4
 10
25175.54613499996
 20
9515.0886689999988
 30
0.0
 11
24935.54613499996
 21
9515.0886689999988
 31
0.0
  0
LINE
  5
461C
  8
SUNPOU
  6
CONTINUOUS
 62
     4
 10
25215.54824599998
 20
9515.0886689999988
 30
0.0
 11
25455.54824599998
 21
9515.0886689999988
 31
0.0
  0
LINE
  5
461D
  8
SUNPOU
  6
CONTINUOUS
 62
     4
 10
25175.54613499996
 20
9515.0886689999988
 30
0.0
 11
25215.54824599998
 21
9515.0886689999988
 31
0.0
  0
TEXT
  5
461E
  8
0
  6
CONTINUOUS
 62
     7
 10
25335.54824599998
 20
9595.0886689999988
 30
0.0
 40
160.0
  1
43
  0
TEXT
  5
461F
  8
0
  6
CONTINUOUS
 62
     7
 10
18854.54349599998
 20
9595.0886689999988
 30
0.0
 40
160.0
  1
43
  0
TEXT
  5
4620
  8
0
  6
CONTINUOUS
 62
     7
 10
21948.379204333309
 20
9595.0886689999988
 30
0.0
 40
160.0
  1
5921
  0
TEXT
  5
4621
  8
0
  6
CONTINUOUS
 62
     7
 10
21975.04587099998
 20
9995.0464389999997
 30
0.0
 40
160.0
  1
6007
  0
ARC
  5
4622
  8
0
  6
BYBLOCK
 62
     0
 10
19211.543495999958
 20
9915.0464390000016
 30
0.0
 40
15.0
 50
0.0
 51
180.0
  0
ARC
  5
4623
  8
0
  6
BYBLOCK
 62
     0
 10
19211.543495999958
 20
9915.0464390000016
 30
0.0
 40
15.0
 50
180.0
 51
0.0
  0
ARC
  5
4624
  8
0
  6
BYBLOCK
 62
     0
 10
25218.54824599998
 20
9915.0464390000016
 30
0.0
 40
15.0
 50
180.0
 51
0.0
  0
ARC
  5
4625
  8
0
  6
BYBLOCK
 62
     0
 10
25218.54824599998
 20
9915.0464390000016
 30
0.0
 40
15.0
 50
0.0
 51
180.0
  0
ARC
  5
4626
  8
0
  6
BYBLOCK
 62
     0
 10
19254.54560699996
 20
9515.0886689999988
 30
0.0
 40
15.0
 50
0.0
 51
180.0
  0
ARC
  5
4627
  8
0
  6
BYBLOCK
 62
     0
 10
19254.54560699996
 20
9515.0886689999988
 30
0.0
 40
15.0
 50
180.0
 51
0.0
  0
ARC
  5
4628
  8
0
  6
BYBLOCK
 62
     0
 10
25175.54613499996
 20
9515.0886689999988
 30
0.0
 40
15.0
 50
180.0
 51
0.0
  0
ARC
  5
4629
  8
0
  6
BYBLOCK
 62
     0
 10
25175.54613499996
 20
9515.0886689999988
 30
0.0
 40
15.0
 50
0.0
 51
180.0
  0
ARC
  5
462A
  8
0
  6
BYBLOCK
 62
     0
 10
19254.54560699996
 20
9515.0886689999988
 30
0.0
 40
15.0
 50
0.0
 51
180.0
  0
ARC
  5
462B
  8
0
  6
BYBLOCK
 62
     0
 10
19254.54560699996
 20
9515.0886689999988
 30
0.0
 40
15.0
 50
180.0
 51
0.0
  0
ARC
  5
462C
  8
0
  6
BYBLOCK
 62
     0
 10
19211.543495999958
 20
9515.0886689999988
 30
0.0
 40
15.0
 50
180.0
 51
0.0
  0
ARC
  5
462D
  8
0
  6
BYBLOCK
 62
     0
 10
19211.543495999958
 20
9515.0886689999988
 30
0.0
 40
15.0
 50
0.0
 51
180.0
  0
ARC
  5
462E
  8
0
  6
BYBLOCK
 62
     0
 10
25175.54613499996
 20
9515.0886689999988
 30
0.0
 40
15.0
 50
180.0
 51
0.0
  0
ARC
  5
462F
  8
0
  6
BYBLOCK
 62
     0
 10
25175.54613499996
 20
9515.0886689999988
 30
0.0
 40
15.0
 50
0.0
 51
180.0
  0
ARC
  5
4630
  8
0
  6
BYBLOCK
 62
     0
 10
25218.54824599998
 20
9515.0886689999988
 30
0.0
 40
15.0
 50
0.0
 51
180.0
  0
ARC
  5
4631
  8
0
  6
BYBLOCK
 62
     0
 10
25218.54824599998
 20
9515.0886689999988
 30
0.0
 40
15.0
 50
180.0
 51
0.0
  0
INSERT
  5
463E
  8
SUNPOU
  6
CONTINUOUS
  2
A$C25373617
 10
11569.58747549996
 20
14315.54051399998
 30
0.0
  0
TEXT
  5
4695
  8
NAME
 10
24033.053546554009
 20
1076.0
 30
0.0
 40
360.0
  1
H
 41
0.6700000000000002
  7
00
  0
TEXT
  5
4696
  8
NAME
 10
23657.221561973682
 20
1076.0
 30
0.0
 40
360.0
  1
（ ）
  7
01
  0
TEXT
  5
4697
  8
NAME
 10
21933.552716389011
 20
1876.0
 30
0.0
 40
360.0
  1
ヨドガレージ ラヴィージュ
 41
0.75
  7
01
  0
TEXT
  5
4698
  8
NAME
 10
21550.022791898398
 20
1076.6369801169251
 30
0.0
 40
360.0
  1
VGCU-3052
 41
0.6700000000000002
  0
LINE
  5
4699
  8
NAME
  6
CONTINUOUS
 10
26067.886878884299
 20
2236.0
 30
0.0
 11
26067.886878884299
 21
1876.0
 31
0.0
  0
LINE
  5
469A
  8
NAME
  6
CONTINUOUS
 10
26167.886878884299
 20
2236.0
 30
0.0
 11
26167.886878884299
 21
1876.0
 31
0.0
  0
LINE
  5
469B
  8
NAME
  6
CONTINUOUS
 10
26267.88687888431
 20
2236.0
 30
0.0
 11
26267.88687888431
 21
1876.0
 31
0.0
  0
LINE
  5
469C
  8
NAME
  6
CONTINUOUS
 10
26007.886878884299
 20
2236.0
 30
0.0
 11
26327.886878884299
 21
2236.0
 31
0.0
  0
LINE
  5
469D
  8
NAME
  6
CONTINUOUS
 10
26327.886878884299
 20
1876.0
 30
0.0
 11
26007.886878884299
 21
1876.0
 31
0.0
  0
TEXT
  5
469E
  8
NAME
 10
25346.041792426669
 20
1076.0
 30
0.0
 40
360.0
  1
2
 41
0.6700000000000002
  7
00
  0
TEXT
  5
469F
  8
NAME
 10
24557.214549256722
 20
1076.0
 30
0.0
 40
360.0
  1
型（ 連棟）
  7
01
  0
LINE
  5
46FC
  8
2-0
  6
CONTINUOUS
 62
     3
 10
25163.542334000002
 20
14931.373957
 30
0.0
 11
25170.543891000001
 21
14931.373957
 31
0.0
  0
LINE
  5
46FD
  8
2-0
  6
CONTINUOUS
 62
     3
 10
25170.543891000001
 20
14931.373957
 30
0.0
 11
25170.543891000001
 21
14926.379632
 31
0.0
  0
LINE
  5
46FE
  8
2-0
  6
CONTINUOUS
 62
     3
 10
25170.543891000001
 20
14926.379632
 30
0.0
 11
25145.54653099996
 21
14926.379632
 31
0.0
  0
LINE
  5
46FF
  8
2-0
  6
CONTINUOUS
 62
     3
 10
25145.54653099996
 20
14926.379632
 30
0.0
 11
25145.54653099996
 21
14944.375435000011
 31
0.0
  0
LINE
  5
4700
  8
2-0
  6
CONTINUOUS
 62
     3
 10
25145.54653099996
 20
14944.375435000011
 30
0.0
 11
25175.544154999981
 21
14944.375435000011
 31
0.0
  0
LINE
  5
4701
  8
2-0
  6
CONTINUOUS
 62
     3
 10
25145.54653099996
 20
14928.277990000001
 30
0.0
 11
25145.54653099996
 21
14934.27989000002
 31
0.0
  0
LINE
  5
4702
  8
2-0
  6
CONTINUOUS
 62
     3
 10
25145.54653099996
 20
14934.27989000002
 30
0.0
 11
25175.544154999981
 21
14934.27989000002
 31
0.0
  0
LINE
  5
4703
  8
2-0
  6
CONTINUOUS
 62
     3
 10
25175.544154999981
 20
14897.28070900001
 30
0.0
 11
25175.544154999981
 21
14934.27989000002
 31
0.0
  0
LINE
  5
4704
  8
2-0
  6
CONTINUOUS
 62
     3
 10
25145.54653099996
 20
14897.28070900001
 30
0.0
 11
25175.544154999981
 21
14897.28070900001
 31
0.0
  0
LINE
  5
4705
  8
2-0
  6
CONTINUOUS
 62
     3
 10
25145.54653099996
 20
14903.27766
 30
0.0
 11
25145.54653099996
 21
14897.28070900001
 31
0.0
  0
LINE
  5
4706
  8
2-0
  6
CONTINUOUS
 62
     3
 10
25145.54653099996
 20
14887.179225
 30
0.0
 11
25175.544154999981
 21
14887.179225
 31
0.0
  0
LINE
  5
4707
  8
2-0
  6
CONTINUOUS
 62
     3
 10
25145.54653099996
 20
14905.186906000001
 30
0.0
 11
25145.54653099996
 21
14887.179225
 31
0.0
  0
LINE
  5
4708
  8
2-0
  6
CONTINUOUS
 62
     3
 10
25170.543891000001
 20
14905.186906000001
 30
0.0
 11
25145.54653099996
 21
14905.186906000001
 31
0.0
  0
LINE
  5
4709
  8
2-0
  6
CONTINUOUS
 62
     3
 10
25170.543891000001
 20
14900.186642000001
 30
0.0
 11
25170.543891000001
 21
14905.186906000001
 31
0.0
  0
LINE
  5
470A
  8
2-0
  6
CONTINUOUS
 62
     3
 10
25163.542334000002
 20
14900.186642000001
 30
0.0
 11
25170.543891000001
 21
14900.186642000001
 31
0.0
  0
LINE
  5
470B
  8
2-0
  6
CONTINUOUS
 62
     3
 10
19266.551386999949
 20
14931.373957
 30
0.0
 11
19259.553788999969
 21
14931.373957
 31
0.0
  0
LINE
  5
470C
  8
2-0
  6
CONTINUOUS
 62
     3
 10
19259.553788999969
 20
14931.373957
 30
0.0
 11
19259.553788999969
 21
14926.379632
 31
0.0
  0
LINE
  5
470D
  8
2-0
  6
CONTINUOUS
 62
     3
 10
19259.553788999969
 20
14926.379632
 30
0.0
 11
19284.547190999969
 21
14926.379632
 31
0.0
  0
LINE
  5
470E
  8
2-0
  6
CONTINUOUS
 62
     3
 10
19284.547190999969
 20
14926.379632
 30
0.0
 11
19284.547190999969
 21
14944.375435000011
 31
0.0
  0
LINE
  5
470F
  8
2-0
  6
CONTINUOUS
 62
     3
 10
19284.547190999969
 20
14944.375435000011
 30
0.0
 11
19254.549565999969
 21
14944.375435000011
 31
0.0
  0
LINE
  5
4710
  8
2-0
  6
CONTINUOUS
 62
     3
 10
19284.547190999969
 20
14928.277990000001
 30
0.0
 11
19284.547190999969
 21
14934.27989000002
 31
0.0
  0
LINE
  5
4711
  8
2-0
  6
CONTINUOUS
 62
     3
 10
19284.547190999969
 20
14934.27989000002
 30
0.0
 11
19254.549565999969
 21
14934.27989000002
 31
0.0
  0
LINE
  5
4712
  8
2-0
  6
CONTINUOUS
 62
     3
 10
19254.549565999969
 20
14897.28070900001
 30
0.0
 11
19254.549565999969
 21
14934.27989000002
 31
0.0
  0
LINE
  5
4713
  8
2-0
  6
CONTINUOUS
 62
     3
 10
19284.547190999969
 20
14897.28070900001
 30
0.0
 11
19254.549565999969
 21
14897.28070900001
 31
0.0
  0
LINE
  5
4714
  8
2-0
  6
CONTINUOUS
 62
     3
 10
19284.547190999969
 20
14903.27766
 30
0.0
 11
19284.547190999969
 21
14897.28070900001
 31
0.0
  0
LINE
  5
4715
  8
2-0
  6
CONTINUOUS
 62
     3
 10
19284.547190999969
 20
14887.179225
 30
0.0
 11
19254.549565999969
 21
14887.179225
 31
0.0
  0
LINE
  5
4716
  8
2-0
  6
CONTINUOUS
 62
     3
 10
19284.547190999969
 20
14905.186906000001
 30
0.0
 11
19284.547190999969
 21
14887.179225
 31
0.0
  0
LINE
  5
4717
  8
2-0
  6
CONTINUOUS
 62
     3
 10
19259.553788999969
 20
14905.186906000001
 30
0.0
 11
19284.547190999969
 21
14905.186906000001
 31
0.0
  0
LINE
  5
4718
  8
2-0
  6
CONTINUOUS
 62
     3
 10
19259.553788999969
 20
14900.186642000001
 30
0.0
 11
19259.553788999969
 21
14905.186906000001
 31
0.0
  0
LINE
  5
4719
  8
2-0
  6
CONTINUOUS
 62
     3
 10
19266.551386999949
 20
14900.186642000001
 30
0.0
 11
19259.553788999969
 21
14900.186642000001
 31
0.0
  0
LINE
  5
471A
  8
2-0
  6
CONTINUOUS
 62
     3
 10
19254.549565999969
 20
14944.375435000011
 30
0.0
 11
19254.549565999969
 21
15588.179225
 31
0.0
  0
LINE
  5
471D
  8
2-0
  6
CONTINUOUS
 62
     3
 10
19254.549565999969
 20
14897.28070900001
 30
0.0
 11
19254.549565999969
 21
14934.27989000002
 31
0.0
  0
LINE
  5
471E
  8
2-0
  6
CONTINUOUS
 62
     3
 10
25175.544154999981
 20
14934.27989000002
 30
0.0
 11
25175.544154999981
 21
14897.28070900001
 31
0.0
  0
LINE
  5
471F
  8
2-0
  6
CONTINUOUS
 62
     3
 10
25175.544154999981
 20
14887.179225
 30
0.0
 11
25175.544154999981
 21
14590.57779499999
 31
0.0
  0
TEXT
  5
4849
  8
FILENAME
  6
CONTINUOUS
 10
28546.857142857141
 20
348.0
 30
0.0
 40
200.0
  1
＜VGCU-3052-2-A_0.DXF ＞
  7
FILENAME
 72
     2
 11
32764.0
 21
348.0
 31
0.0
  0
LINE
  5
484E
  8
WAKUSEN-01
 10
868.00000000000193
 20
827.99999999999955
 30
0.0
 11
32764.000000000011
 21
827.99999999999943
 31
0.0
  0
LINE
  5
484F
  8
WAKUSEN-01
 10
868.00000000000193
 20
827.99999999999955
 30
0.0
 11
868.00000000000193
 21
22484.000000000011
 31
0.0
  0
LINE
  5
4850
  8
WAKUSEN-01
 10
32764.000000000011
 20
827.99999999999943
 30
0.0
 11
32764.000000000011
 21
22484.000000000011
 31
0.0
  0
LINE
  5
4851
  8
WAKUSEN-01
 10
20560.0
 20
827.99999999999716
 30
0.0
 11
20560.0
 21
2484.0
 31
0.0
  0
LINE
  5
4852
  8
WAKUSEN-02
 10
26868.0
 20
827.99999999999261
 30
0.0
 11
26868.0
 21
2484.0
 31
0.0
  0
ENDSEC
  0
EOF
