  0
SECTION
  2
HEADER
  9
$ACADVER
  1
AC1009
  9
$INSBASE
 10
0.0
 20
0.0
 30
0.0
  9
$EXTMIN
 10
867.99324330406671
 20
327.38164749855792
 30
-0.000000000000013
  9
$EXTMAX
 10
32765.33210850941
 20
22484.553276491992
 30
0.0000000000000023
  9
$LIMMIN
 10
0.0
 20
0.0
  9
$LIMMAX
 10
33600.0
 20
23760.0
  9
$ORTHOMODE
 70
     1
  9
$REGENMODE
 70
     1
  9
$FILLMODE
 70
     1
  9
$QTEXTMODE
 70
     0
  9
$MIRRTEXT
 70
     1
  9
$DRAGMODE
 70
     2
  9
$LTSCALE
 40
80.0
  9
$OSMODE
 70
  3071
  9
$ATTMODE
 70
     1
  9
$TEXTSIZE
 40
0.2
  9
$TRACEWID
 40
0.05
  9
$TEXTSTYLE
  7
00
  9
$CLAYER
  8
0
  9
$CELTYPE
  6
BYLAYER
  9
$CECOLOR
 62
   256
  9
$DIMSCALE
 40
80.0
  9
$DIMASZ
 40
3.0
  9
$DIMEXO
 40
1.0
  9
$DIMDLI
 40
0.38
  9
$DIMRND
 40
0.5
  9
$DIMDLE
 40
0.0
  9
$DIMEXE
 40
1.0
  9
$DIMTP
 40
0.0
  9
$DIMTM
 40
0.0
  9
$DIMTXT
 40
2.0
  9
$DIMCEN
 40
0.09
  9
$DIMTSZ
 40
0.0
  9
$DIMTOL
 70
     0
  9
$DIMLIM
 70
     0
  9
$DIMTIH
 70
     0
  9
$DIMTOH
 70
     0
  9
$DIMSE1
 70
     0
  9
$DIMSE2
 70
     0
  9
$DIMTAD
 70
     1
  9
$DIMZIN
 70
     8
  9
$DIMBLK
  1
DOTSMALL
  9
$DIMASO
 70
     1
  9
$DIMSHO
 70
     1
  9
$DIMPOST
  1

  9
$DIMAPOST
  1

  9
$DIMALT
 70
     0
  9
$DIMALTD
 70
     2
  9
$DIMALTF
 40
25.399999999999999
  9
$DIMLFAC
 40
1.0
  9
$DIMTOFL
 70
     1
  9
$DIMTVP
 40
0.0
  9
$DIMTIX
 70
     0
  9
$DIMSOXD
 70
     0
  9
$DIMSAH
 70
     0
  9
$DIMBLK1
  1

  9
$DIMBLK2
  1

  9
$DIMSTYLE
  2
SUNPOU
  9
$DIMCLRD
 70
     4
  9
$DIMCLRE
 70
     4
  9
$DIMCLRT
 70
     7
  9
$DIMTFAC
 40
1.0
  9
$DIMGAP
 40
1.0
  9
$LUNITS
 70
     2
  9
$LUPREC
 70
     4
  9
$SKETCHINC
 40
0.1
  9
$FILLETRAD
 40
0.0
  9
$AUNITS
 70
     0
  9
$AUPREC
 70
     0
  9
$MENU
  1
acad
  9
$ELEVATION
 40
0.0
  9
$PELEVATION
 40
0.0
  9
$THICKNESS
 40
0.0
  9
$LIMCHECK
 70
     0
  9
$BLIPMODE
 70
     1
  9
$CHAMFERA
 40
0.0
  9
$CHAMFERB
 40
0.0
  9
$SKPOLY
 70
     0
  9
$TDCREATE
 40
2311940.0750523489
  9
$TDUPDATE
 40
2458942.4352545948
  9
$TDINDWG
 40
0.2067451042
  9
$TDUSRTIMER
 40
0.206743125
  9
$USRTIMER
 70
     1
  9
$ANGBASE
 50
0.0
  9
$ANGDIR
 70
     0
  9
$PDMODE
 70
     0
  9
$PDSIZE
 40
0.0
  9
$PLINEWID
 40
0.0
  9
$COORDS
 70
     1
  9
$SPLFRAME
 70
     0
  9
$SPLINETYPE
 70
     6
  9
$SPLINESEGS
 70
     8
  9
$ATTDIA
 70
     1
  9
$ATTREQ
 70
     1
  9
$HANDLING
 70
     1
  9
$HANDSEED
  5
4FFA
  9
$SURFTAB1
 70
     6
  9
$SURFTAB2
 70
     6
  9
$SURFTYPE
 70
     6
  9
$SURFU
 70
     6
  9
$SURFV
 70
     6
  9
$UCSNAME
  2

  9
$UCSORG
 10
0.0
 20
0.0
 30
0.0
  9
$UCSXDIR
 10
1.0
 20
0.0
 30
0.0
  9
$UCSYDIR
 10
0.0
 20
1.0
 30
0.0
  9
$PUCSNAME
  2

  9
$PUCSORG
 10
0.0
 20
0.0
 30
0.0
  9
$PUCSXDIR
 10
1.0
 20
0.0
 30
0.0
  9
$PUCSYDIR
 10
0.0
 20
1.0
 30
0.0
  9
$USERI1
 70
     0
  9
$USERI2
 70
     0
  9
$USERI3
 70
     0
  9
$USERI4
 70
     0
  9
$USERI5
 70
     0
  9
$USERR1
 40
0.0
  9
$USERR2
 40
0.0
  9
$USERR3
 40
0.0
  9
$USERR4
 40
0.0
  9
$USERR5
 40
0.0
  9
$WORLDVIEW
 70
     1
  9
$SHADEDGE
 70
     3
  9
$SHADEDIF
 70
    70
  9
$TILEMODE
 70
     1
  9
$MAXACTVP
 70
    16
  9
$PLIMCHECK
 70
     0
  9
$PEXTMIN
 10
1.0000000000000000E+020
 20
1.0000000000000000E+020
 30
1.0000000000000000E+020
  9
$PEXTMAX
 10
-1.0000000000000000E+020
 20
-1.0000000000000000E+020
 30
-1.0000000000000000E+020
  9
$PLIMMIN
 10
0.0
 20
0.0
  9
$PLIMMAX
 10
12.0
 20
9.0
  9
$UNITMODE
 70
     0
  9
$VISRETAIN
 70
     0
  9
$PLINEGEN
 70
     1
  9
$PSLTSCALE
 70
     0
  0
ENDSEC
  0
SECTION
  2
TABLES
  0
TABLE
  2
VPORT
 70
     1
  0
VPORT
  2
*ACTIVE
 70
     0
 10
0.0
 20
0.0
 11
1.0
 21
1.0
 12
16800.0
 22
11880.0
 13
0.0
 23
0.0
 14
1.0
 24
1.0
 15
0.0
 25
0.0
 16
0.0
 26
0.0
 36
1.0
 17
0.0
 27
0.0
 37
0.0
 40
23981.023255813951
 41
2.195652173913043
 42
50.0
 43
0.0
 44
0.0
 50
0.0
 51
0.0
 71
     0
 72
 10000
 73
     1
 74
     1
 75
     0
 76
     0
 77
     0
 78
     0
  0
ENDTAB
  0
TABLE
  2
LTYPE
 70
     3
  0
LTYPE
  2
CONTINUOUS
 70
     0
  3
Solid line
 72
    65
 73
     0
 40
0.0
  0
LTYPE
  2
DASHED3
 70
     0
  3
------  ------  ------  ------  
 72
    65
 73
     2
 40
5.0
 49
3.75
 49
-1.25
  0
LTYPE
  2
CENTER2
 70
     0
  3
----------  --  ----------  --  
 72
    65
 73
     4
 40
20.0
 49
12.5
 49
-2.5
 49
2.5
 49
-2.5
  0
ENDTAB
  0
TABLE
  2
LAYER
 70
    20
  0
LAYER
  2
0
 70
     0
 62
     7
  6
CONTINUOUS
  0
LAYER
  2
SUNPOU
 70
     0
 62
     4
  6
CONTINUOUS
  0
LAYER
  2
0-1
 70
     0
 62
     7
  6
CONTINUOUS
  0
LAYER
  2
0-2
 70
     0
 62
     7
  6
CONTINUOUS
  0
LAYER
  2
0-5
 70
     0
 62
     7
  6
CONTINUOUS
  0
LAYER
  2
0-0
 70
     0
 62
     7
  6
CONTINUOUS
  0
LAYER
  2
2-0
 70
     0
 62
     7
  6
CONTINUOUS
  0
LAYER
  2
2-1
 70
     0
 62
     7
  6
CONTINUOUS
  0
LAYER
  2
0-3
 70
     0
 62
     7
  6
CONTINUOUS
  0
LAYER
  2
YODOROGO
 70
     0
 62
   130
  6
CONTINUOUS
  0
LAYER
  2
WAKUSEN-01
 70
     0
 62
    50
  6
CONTINUOUS
  0
LAYER
  2
WAKUSEN-02
 70
     0
 62
   130
  6
CONTINUOUS
  0
LAYER
  2
WAKUMOJI-01
 70
     0
 62
   130
  6
CONTINUOUS
  0
LAYER
  2
FILENAME
 70
     0
 62
     7
  6
CONTINUOUS
  0
LAYER
  2
NAME
 70
     0
 62
    20
  6
CONTINUOUS
  0
LAYER
  2
0-4
 70
     0
 62
     7
  6
CONTINUOUS
  0
LAYER
  2
0-6
 70
     0
 62
     7
  6
CONTINUOUS
  0
ENDTAB
  0
TABLE
  2
STYLE
 70
     5
  0
STYLE
  2
STANDARD
 70
     0
 40
0.0
 41
1.0
 50
0.0
 71
     0
 42
0.0
  3
txt
  4
BIGFONT
  0
STYLE
  2
00
 70
     0
 40
0.0
 41
0.6666666666666666
 50
0.0
 71
     0
 42
0.2
  3
ROMANS
  4
BIGFONT
  0
STYLE
  2
01
 70
     0
 40
3.0
 41
1.0
 50
0.0
 71
     0
 42
0.2
  3
ROMANS
  4
BIGFONT
  0
STYLE
  2
WAKUMOJI
 70
     0
 40
3.0
 41
1.0
 50
0.0
 71
     0
 42
3.0
  3
SIMPLEX
  4
BIGFONT
  0
STYLE
  2
FILENAME
 70
     0
 40
200.0
 41
1.0
 50
0.0
 71
     0
 42
200.0
  3
romans
  4
bigfont
  0
ENDTAB
  0
TABLE
  2
VIEW
 70
     0
  0
ENDTAB
  0
TABLE
  2
UCS
 70
     0
  0
ENDTAB
  0
TABLE
  2
APPID
 70
    13
  0
APPID
  2
ACAD
 70
     0
  0
APPID
  2
ACADANNOTATIVE
 70
     0
  0
APPID
  2
ACAD_PSEXT
 70
     0
  0
APPID
  2
DCO15
 70
     0
  0
APPID
  2
ACAD_MLEADERVER
 70
     0
  0
APPID
  2
AUTOCAD_POSTSCRIPT_FIGURE
 70
     0
  0
APPID
  2
ACAD_EXEMPT_FROM_CAD_STANDARDS
 70
     0
  0
APPID
  2
ACAD_DSTYLE_DIMJAG
 70
     0
  0
APPID
  2
ACAD_DSTYLE_DIMTALN
 70
     0
  0
APPID
  2
ACAD_DSTYLE_DIM_LINETYPE
 70
     0
  0
APPID
  2
ACAD_DSTYLE_DIM_EXT1_LINETYPE
 70
     0
  0
APPID
  2
ACAD_DSTYLE_DIM_EXT2_LINETYPE
 70
     0
  0
APPID
  2
ACAD_NAV_VCDISPLAY
 70
     0
  0
ENDTAB
  0
TABLE
  2
DIMSTYLE
 70
     2
  0
DIMSTYLE
  2
SUNPOU
 70
     0
  3

  4

  5

  6

  7

 40
80.0
 41
3.0
 42
1.0
 43
0.38
 44
1.0
 45
0.5
 46
0.0
 47
0.0
 48
0.0
140
2.0
141
0.09
142
0.0
143
25.399999999999999
144
1.0
145
0.0
146
1.0
147
1.0
 71
     0
 72
     0
 73
     0
 74
     0
 75
     0
 76
     0
 77
     1
 78
     8
170
     0
171
     2
172
     1
173
     0
174
     0
175
     0
176
     4
177
     4
178
     7
  0
ENDTAB
  0
ENDSEC
  0
SECTION
  2
BLOCKS
  0
BLOCK
  8
0
  2
$MODEL_SPACE
 70
     0
 10
0.0
 20
0.0
 30
0.0
  3
$MODEL_SPACE
  1

  0
ENDBLK
  5
4291
  8
0
  0
BLOCK
 67
     1
  8
0
  2
$PAPER_SPACE
 70
     0
 10
0.0
 20
0.0
 30
0.0
  3
$PAPER_SPACE
  1

  0
ENDBLK
  5
428D
 67
     1
  8
0
  0
BLOCK
  8
0
  2
_DOTSMALL
 70
     0
 10
0.0
 20
0.0
 30
0.0
  3
_DOTSMALL
  1

  0
POLYLINE
  5
42C2
  8
0
  6
BYBLOCK
 62
     0
 66
     1
 10
0.0
 20
0.0
 30
0.0
 70
     1
 40
0.5
 41
0.5
  0
VERTEX
  5
4FC2
  8
0
  6
BYBLOCK
 62
     0
 10
-0.0625
 20
0.0
 30
0.0
 42
1.0
  0
VERTEX
  5
4FC3
  8
0
  6
BYBLOCK
 62
     0
 10
0.0625
 20
0.0
 30
0.0
 42
1.0
  0
SEQEND
  5
4FC4
  8
0
  6
BYBLOCK
 62
     0
  0
ENDBLK
  5
42C6
  8
0
  0
ENDSEC
  0
SECTION
  2
ENTITIES
  0
LINE
  5
42C7
  8
2-0
  6
DASHED3
 62
     6
 10
8669.8096899664451
 20
18476.312089999981
 30
0.0
 11
8669.8096899664451
 21
18566.316840999982
 31
0.0
  0
LINE
  5
42C8
  8
2-0
  6
CONTINUOUS
 62
     3
 10
8669.8096899664451
 20
15558.5585395
 30
0.0
 11
8669.8096899664451
 21
15648.5573525
 31
0.0
  0
LINE
  5
42C9
  8
2-0
  6
CONTINUOUS
 62
     3
 10
8669.8096899664451
 20
17017.316049000001
 30
0.0
 11
8669.8096899664451
 21
17107.31882
 31
0.0
  0
LINE
  5
42CA
  8
2-0
  6
CONTINUOUS
 62
     6
 10
8635.458113966446
 20
15868.579642000001
 30
0.0
 11
8474.7914779664425
 21
16293.604056
 31
0.0
  0
LINE
  5
42CB
  8
2-0
  6
CONTINUOUS
 62
     6
 10
7526.8480329664408
 20
16293.604056
 30
0.0
 11
8474.7914779664425
 21
16293.604056
 31
0.0
  0
LINE
  5
42CC
  8
2-0
  6
CONTINUOUS
 62
     6
 10
7486.4915879664404
 20
14165.85410899998
 30
0.0
 11
7811.5062689664383
 21
13634.81657699997
 31
0.0
  0
LINE
  5
42CD
  8
2-0
  6
CONTINUOUS
 62
     6
 10
7811.5062689664383
 20
13634.81657699997
 30
0.0
 11
8674.0874289664425
 21
13634.81657699997
 31
0.0
  0
LINE
  5
42CE
  8
2-0
  6
CONTINUOUS
 62
     6
 10
4364.9837219664414
 20
13234.81822699998
 30
0.0
 11
5444.9818409664449
 21
13234.81822699998
 31
0.0
  0
LINE
  5
42CF
  8
2-0
  6
CONTINUOUS
 62
     6
 10
5961.9177769664411
 20
14887.330512500001
 30
0.0
 11
5444.9818409664449
 21
13234.81822699998
 31
0.0
  0
LINE
  5
42D0
  8
2-0
  6
CONTINUOUS
 62
     6
 10
12657.92103096643
 20
14659.704403999969
 30
0.0
 11
12783.776842966439
 21
14813.90225050001
 31
0.0
  0
LINE
  5
42D1
  8
2-0
  6
CONTINUOUS
 62
     6
 10
12783.776842966439
 20
14813.90225050001
 30
0.0
 11
13593.273319966451
 21
14813.90225050001
 31
0.0
  0
LINE
  5
42D2
  8
2-0
  6
CONTINUOUS
 62
     6
 10
8177.775601966443
 20
19570.038942999981
 30
0.0
 11
8321.678189966442
 21
20082.316576999969
 31
0.0
  0
LINE
  5
42D3
  8
2-0
  6
CONTINUOUS
 62
     6
 10
8321.678189966442
 20
20082.316576999969
 30
0.0
 11
8839.370302966443
 21
20082.316576999969
 31
0.0
  0
LINE
  5
42D4
  8
2-0
  6
CONTINUOUS
 62
     6
 10
6154.5303789664449
 20
19995.093049999981
 30
0.0
 11
6316.0536509664462
 21
20330.85107399998
 31
0.0
  0
LINE
  5
42D5
  8
2-0
  6
CONTINUOUS
 62
     6
 10
6543.5522989664432
 20
20803.756082999971
 30
0.0
 11
8205.8976329664401
 21
20803.756082999971
 31
0.0
  0
LINE
  5
42D6
  8
2-0
  6
CONTINUOUS
 62
     6
 10
6377.7151599664439
 20
20459.036778999969
 30
0.0
 11
6543.5522989664432
 21
20803.756082999971
 31
0.0
  0
LINE
  5
42D7
  8
2-0
  6
CONTINUOUS
 62
     6
 10
6157.8005439664421
 20
19080.30208699996
 30
0.0
 11
6256.839321966444
 21
18859.514502999958
 31
0.0
  0
LINE
  5
42D8
  8
2-0
  6
CONTINUOUS
 62
     6
 10
6256.839321966444
 20
18859.514502999958
 30
0.0
 11
6786.33586596644
 21
18859.514502999958
 31
0.0
  0
LINE
  5
42D9
  8
2-0
  6
CONTINUOUS
 62
     3
 10
6142.3142349664404
 20
14334.321036999971
 30
0.0
 11
6142.3142349664404
 21
19832.312749999961
 31
0.0
  0
LINE
  5
42DA
  8
2-0
  6
CONTINUOUS
 62
     3
 10
6006.8132189664439
 20
14302.318160999979
 30
0.0
 11
6006.8132189664439
 21
19842.317764999982
 31
0.0
  0
LINE
  5
42DB
  8
2-0
  6
DASHED3
 62
     6
 10
6049.8143409664417
 20
19388.978316999961
 30
0.0
 11
6049.8143409664417
 21
19675.81055899995
 31
0.0
  0
LINE
  5
42DC
  8
2-0
  6
DASHED3
 62
     6
 10
6092.3150999664449
 20
19367.437195999981
 30
0.0
 11
6092.3150999664449
 21
19675.81055899995
 31
0.0
  0
LINE
  5
42DD
  8
2-0
  6
CENTER2
 62
     6
 10
4762.8159839664449
 20
19629.816444999949
 30
0.0
 11
6409.3171849664441
 21
19629.816444999949
 31
0.0
  0
LINE
  5
42DE
  8
2-0
  6
CENTER2
 62
     6
 10
4762.8159839664449
 20
17062.316444999979
 30
0.0
 11
6409.3171849664441
 21
17062.316444999979
 31
0.0
  0
LINE
  5
42DF
  8
2-0
  6
CENTER2
 62
     6
 10
4762.8159839664449
 20
14494.81644499998
 30
0.0
 11
6409.3171849664441
 21
14494.81644499998
 31
0.0
  0
LINE
  5
42E0
  8
2-0
  6
CONTINUOUS
 62
     3
 10
6092.3150999664449
 20
14458.318080999959
 30
0.0
 11
6092.3150999664449
 21
19367.437195999981
 31
0.0
  0
LINE
  5
42E1
  8
2-0
  6
CONTINUOUS
 62
     3
 10
6049.8143409664417
 20
14458.318080999959
 30
0.0
 11
6049.8143409664417
 21
19388.978316999961
 31
0.0
  0
LINE
  5
42E2
  8
2-0
  6
CONTINUOUS
 62
     3
 10
6024.8149609664451
 20
19812.31420199998
 30
0.0
 11
6075.3139649664454
 21
19812.31420199998
 31
0.0
  0
LINE
  5
42E3
  8
2-0
  6
CONTINUOUS
 62
     3
 10
6024.8149609664451
 20
19834.81142999998
 30
0.0
 11
6006.8132189664439
 21
19834.81142999998
 31
0.0
  0
LINE
  5
42E4
  8
2-0
  6
CONTINUOUS
 62
     3
 10
6075.3139649664454
 20
19852.31037499995
 30
0.0
 11
6011.8134829664423
 21
19852.31037499995
 31
0.0
  0
LINE
  5
42E5
  8
2-0
  6
CONTINUOUS
 62
     3
 10
6006.8132189664439
 20
19847.31802899998
 30
0.0
 11
6006.8132189664439
 21
19812.31420199998
 31
0.0
  0
LINE
  5
42E6
  8
2-0
  6
CONTINUOUS
 62
     3
 10
6080.3142289664474
 20
19817.312485999981
 30
0.0
 11
6080.3142289664474
 21
19847.31802899998
 31
0.0
  0
LINE
  5
42E7
  8
2-0
  6
CONTINUOUS
 62
     3
 10
6024.8149609664451
 20
19400.128944999949
 30
0.0
 11
6024.8149609664451
 21
19834.81142999998
 31
0.0
  0
LINE
  5
42E8
  8
2-0
  6
CONTINUOUS
 62
     3
 10
6006.8132189664439
 20
19847.31802899998
 30
0.0
 11
6006.8132189664439
 21
19812.31420199998
 31
0.0
  0
LINE
  5
42E9
  8
2-0
  6
CONTINUOUS
 62
     3
 10
6092.3150999664449
 20
18566.316840999982
 30
0.0
 11
7867.7894259664408
 21
18566.316840999982
 31
0.0
  0
LINE
  5
42EA
  8
2-0
  6
CONTINUOUS
 62
     3
 10
6092.3150999664449
 20
18476.312089999981
 30
0.0
 11
8066.7295589664463
 21
18476.312089999981
 31
0.0
  0
LINE
  5
42EB
  8
2-0
  6
CONTINUOUS
 62
     3
 10
8726.8059679664475
 20
14537.319677999971
 30
0.0
 11
8726.8059679664475
 21
15558.5585395
 31
0.0
  0
LINE
  5
42EC
  8
2-0
  6
CONTINUOUS
 62
     3
 10
8612.8144009664375
 20
14537.319677999971
 30
0.0
 11
8612.8144009664375
 21
15558.5585395
 31
0.0
  0
LINE
  5
42ED
  8
2-0
  6
CONTINUOUS
 62
     3
 10
8669.8096899664451
 20
14537.319677999971
 30
0.0
 11
8669.8096899664451
 21
15558.5585395
 31
0.0
  0
LINE
  5
42EE
  8
2-0
  6
CONTINUOUS
 62
     3
 10
8612.8144009664375
 20
15648.5573525
 30
0.0
 11
8612.8144009664375
 21
17017.316049000001
 31
0.0
  0
LINE
  5
42EF
  8
2-0
  6
CONTINUOUS
 62
     3
 10
8726.8059679664475
 20
15648.5573525
 30
0.0
 11
8726.8059679664475
 21
17017.316049000001
 31
0.0
  0
LINE
  5
42F0
  8
2-0
  6
CONTINUOUS
 62
     3
 10
8669.8096899664451
 20
15648.5573525
 30
0.0
 11
8669.8096899664451
 21
17017.316049000001
 31
0.0
  0
LINE
  5
42F1
  8
2-0
  6
DASHED3
 62
     6
 10
8726.8059679664475
 20
18566.316840999982
 30
0.0
 11
8726.8059679664475
 21
19832.312749999961
 31
0.0
  0
LINE
  5
42F2
  8
2-0
  6
DASHED3
 62
     6
 10
8612.8144009664375
 20
18566.316840999982
 30
0.0
 11
8612.8144009664375
 21
19832.312749999961
 31
0.0
  0
LINE
  5
42F3
  8
2-0
  6
CONTINUOUS
 62
     3
 10
7309.3132929664471
 20
18823.471427999961
 30
0.0
 11
7309.3132929664471
 21
19832.312749999961
 31
0.0
  0
LINE
  5
42F4
  8
2-0
  6
CONTINUOUS
 62
     3
 10
7272.3081719664378
 20
18840.21617599998
 30
0.0
 11
7272.3081719664378
 21
19832.312749999961
 31
0.0
  0
LINE
  5
42F5
  8
2-0
  6
CONTINUOUS
 62
     3
 10
7109.3037249664421
 20
18913.955222999972
 30
0.0
 11
7109.3037249664421
 21
19832.312749999961
 31
0.0
  0
LINE
  5
42F6
  8
2-0
  6
CONTINUOUS
 62
     3
 10
8709.3119729664377
 20
18379.705644999969
 30
0.0
 11
8709.3119729664377
 21
19832.312749999961
 31
0.0
  0
LINE
  5
42F7
  8
2-0
  6
CONTINUOUS
 62
     3
 10
8672.3088319664457
 20
18436.73953399996
 30
0.0
 11
8672.3088319664457
 21
19832.312749999961
 31
0.0
  0
LINE
  5
42F8
  8
2-0
  6
CONTINUOUS
 62
     3
 10
8509.3132929664425
 20
18276.04023599995
 30
0.0
 11
8509.3132929664425
 21
19832.312749999961
 31
0.0
  0
LINE
  5
42F9
  8
2-0
  6
CONTINUOUS
 62
     3
 10
8472.3141109664411
 20
18292.82853399996
 30
0.0
 11
8472.3141109664411
 21
19832.312749999961
 31
0.0
  0
LINE
  5
42FA
  8
2-0
  6
CONTINUOUS
 62
     3
 10
8309.3096629664451
 20
18366.567579999952
 30
0.0
 11
8309.3096629664451
 21
19832.312749999961
 31
0.0
  0
LINE
  5
42FB
  8
2-0
  6
CONTINUOUS
 62
     3
 10
8272.3099869664402
 20
18383.306388999961
 30
0.0
 11
8272.3099869664402
 21
19832.312749999961
 31
0.0
  0
LINE
  5
42FC
  8
2-0
  6
CONTINUOUS
 62
     3
 10
8109.3114779664429
 20
18457.053353999981
 30
0.0
 11
8109.3114779664429
 21
19832.312749999961
 31
0.0
  0
LINE
  5
42FD
  8
2-0
  6
CONTINUOUS
 62
     3
 10
8072.311800966444
 20
18473.784244999981
 30
0.0
 11
8072.311800966444
 21
19832.312749999961
 31
0.0
  0
LINE
  5
42FE
  8
2-0
  6
CONTINUOUS
 62
     3
 10
7909.3132929664416
 20
18547.535168999981
 30
0.0
 11
7909.3132929664416
 21
19832.312749999961
 31
0.0
  0
LINE
  5
42FF
  8
2-0
  6
CONTINUOUS
 62
     3
 10
7872.3136159664373
 20
18564.26803899998
 30
0.0
 11
7872.3136159664373
 21
19832.312749999961
 31
0.0
  0
LINE
  5
4300
  8
2-0
  6
CONTINUOUS
 62
     3
 10
7709.3096629664433
 20
18638.011044999981
 30
0.0
 11
7709.3096629664433
 21
19832.312749999961
 31
0.0
  0
LINE
  5
4301
  8
2-0
  6
CONTINUOUS
 62
     3
 10
7672.3099869664429
 20
18654.74985399998
 30
0.0
 11
7672.3099869664429
 21
19832.312749999961
 31
0.0
  0
LINE
  5
4302
  8
2-0
  6
CONTINUOUS
 62
     3
 10
7509.3114779664429
 20
18732.991592999959
 30
0.0
 11
7509.3114779664429
 21
19832.312749999961
 31
0.0
  0
LINE
  5
4303
  8
2-0
  6
CONTINUOUS
 62
     3
 10
7472.3118009664431
 20
18749.726442999981
 30
0.0
 11
7472.3118009664431
 21
19832.312749999961
 31
0.0
  0
LINE
  5
4304
  8
2-0
  6
CONTINUOUS
 62
     3
 10
7072.3099869664411
 20
18930.688092999972
 30
0.0
 11
7072.3099869664411
 21
19832.312749999961
 31
0.0
  0
LINE
  5
4305
  8
2-0
  6
CONTINUOUS
 62
     3
 10
6909.3169219664424
 20
19004.435057999981
 30
0.0
 11
6909.3169219664424
 21
19832.312749999961
 31
0.0
  0
LINE
  5
4306
  8
2-0
  6
CONTINUOUS
 62
     3
 10
6872.3118009664431
 20
19021.17188799995
 30
0.0
 11
6872.3118009664431
 21
19832.312749999961
 31
0.0
  0
LINE
  5
4307
  8
2-0
  6
CONTINUOUS
 62
     3
 10
6699.8150009664432
 20
19094.918851999981
 30
0.0
 11
6699.8150009664432
 21
19832.312749999961
 31
0.0
  0
LINE
  5
4308
  8
2-0
  6
CONTINUOUS
 62
     3
 10
6662.81581896644
 20
19111.657660999968
 30
0.0
 11
6662.81581896644
 21
19832.312749999961
 31
0.0
  0
LINE
  5
4309
  8
2-0
  6
CONTINUOUS
 62
     3
 10
8510.2763279664341
 20
18275.65422999996
 30
0.0
 11
5735.7741099664418
 21
19531.048365999981
 31
0.0
  0
LINE
  5
430A
  8
2-0
  6
CONTINUOUS
 62
     3
 10
6499.8168149664416
 20
19185.39670799996
 30
0.0
 11
6499.8168149664416
 21
19832.312749999961
 31
0.0
  0
LINE
  5
430B
  8
2-0
  6
CONTINUOUS
 62
     3
 10
6462.8116949664418
 20
19202.135516999981
 30
0.0
 11
6462.8116949664418
 21
19832.312749999961
 31
0.0
  0
LINE
  5
430C
  8
2-0
  6
CONTINUOUS
 62
     3
 10
6262.8135089664438
 20
19292.61733199998
 30
0.0
 11
6262.8135089664438
 21
19832.312749999961
 31
0.0
  0
LINE
  5
430D
  8
2-0
  6
CONTINUOUS
 62
     3
 10
6299.8131859664463
 20
19275.878522999981
 30
0.0
 11
6299.8131859664463
 21
19832.312749999961
 31
0.0
  0
LINE
  5
430E
  8
2-0
  6
CONTINUOUS
 62
     3
 10
8510.2763279664341
 20
18275.65422999996
 30
0.0
 11
8637.0229239664459
 21
18491.142643999981
 31
0.0
  0
LINE
  5
430F
  8
2-0
  6
CONTINUOUS
 62
     3
 10
9245.4952629664458
 20
17553.193292999971
 30
0.0
 11
8637.0229239664459
 21
18491.142643999981
 31
0.0
  0
LINE
  5
4310
  8
2-0
  6
CONTINUOUS
 62
     3
 10
9245.4952629664458
 20
17553.193292999971
 30
0.0
 11
9372.2359199664479
 21
17768.681705999981
 31
0.0
  0
LINE
  5
4311
  8
2-0
  6
CONTINUOUS
 62
     3
 10
8669.8096899664451
 20
14458.318080999959
 30
0.0
 11
8669.8096899664451
 21
14302.318160999979
 31
0.0
  0
LINE
  5
4312
  8
2-0
  6
CONTINUOUS
 62
     3
 10
8669.8096899664451
 20
14537.319677999971
 30
0.0
 11
8669.8096899664451
 21
14458.318080999959
 31
0.0
  0
LINE
  5
4313
  8
2-0
  6
CONTINUOUS
 62
     6
 10
6182.131795966442
 20
19091.223090999982
 30
0.0
 11
6092.3150999664449
 21
19226.28960299995
 31
0.0
  0
LINE
  5
4314
  8
2-0
  6
CONTINUOUS
 62
     6
 10
6092.3150999664449
 20
19226.28960299995
 30
0.0
 11
6133.4717649664417
 21
19069.389000999981
 31
0.0
  0
LINE
  5
4315
  8
2-0
  6
CONTINUOUS
 62
     6
 10
6182.131795966442
 20
19091.223090999982
 30
0.0
 11
6133.4717649664417
 21
19069.389000999981
 31
0.0
  0
LINE
  5
4316
  8
2-0
  6
CONTINUOUS
 62
     6
 10
6133.4717649664417
 20
19069.389000999981
 30
0.0
 11
6092.3150999664449
 21
19226.28960299995
 31
0.0
  0
LINE
  5
4317
  8
2-0
  6
CONTINUOUS
 62
     6
 10
6092.3150999664449
 20
19226.28960299995
 30
0.0
 11
6182.131795966442
 21
19091.223090999982
 31
0.0
  0
LINE
  5
4318
  8
2-0
  6
CONTINUOUS
 62
     6
 10
6182.131795966442
 20
19091.223090999982
 30
0.0
 11
6092.3150999664449
 21
19226.28960299995
 31
0.0
  0
LINE
  5
4319
  8
2-0
  6
CONTINUOUS
 62
     6
 10
6133.4717649664417
 20
19069.389000999981
 30
0.0
 11
6092.3150999664449
 21
19226.28960299995
 31
0.0
  0
LINE
  5
431A
  8
2-0
  6
CONTINUOUS
 62
     6
 10
6133.4717649664417
 20
19069.389000999981
 30
0.0
 11
6182.131795966442
 21
19091.223090999982
 31
0.0
  0
LINE
  5
431B
  8
2-0
  6
CONTINUOUS
 62
     6
 10
5987.3659729664432
 20
14879.3461245
 30
0.0
 11
6009.8132189664439
 21
15039.99296449999
 31
0.0
  0
LINE
  5
431C
  8
2-0
  6
CONTINUOUS
 62
     6
 10
6009.8132189664439
 20
15039.99296449999
 30
0.0
 11
5936.4750249664439
 21
14895.30995149999
 31
0.0
  0
LINE
  5
431D
  8
2-0
  6
CONTINUOUS
 62
     6
 10
5987.3659729664432
 20
14879.3461245
 30
0.0
 11
5936.4750249664439
 21
14895.30995149999
 31
0.0
  0
LINE
  5
431E
  8
2-0
  6
CONTINUOUS
 62
     6
 10
5936.4750249664439
 20
14895.30995149999
 30
0.0
 11
6009.8132189664439
 21
15039.99296449999
 31
0.0
  0
LINE
  5
431F
  8
2-0
  6
CONTINUOUS
 62
     6
 10
6009.8132189664439
 20
15039.99296449999
 30
0.0
 11
5987.3659729664432
 21
14879.3461245
 31
0.0
  0
LINE
  5
4320
  8
2-0
  6
CONTINUOUS
 62
     6
 10
5987.3659729664432
 20
14879.3461245
 30
0.0
 11
6009.8132189664439
 21
15039.99296449999
 31
0.0
  0
LINE
  5
4321
  8
2-0
  6
CONTINUOUS
 62
     6
 10
5936.4750249664439
 20
14895.30995149999
 30
0.0
 11
6009.8132189664439
 21
15039.99296449999
 31
0.0
  0
LINE
  5
4322
  8
2-0
  6
CONTINUOUS
 62
     6
 10
5936.4750249664439
 20
14895.30995149999
 30
0.0
 11
5987.3659729664432
 21
14879.3461245
 31
0.0
  0
LINE
  5
4323
  8
2-0
  6
CONTINUOUS
 62
     6
 10
7509.2357609664432
 20
14179.771113999979
 30
0.0
 11
7402.9682759664474
 21
14302.318160999979
 31
0.0
  0
LINE
  5
4324
  8
2-0
  6
CONTINUOUS
 62
     6
 10
7402.9682759664474
 20
14302.318160999979
 30
0.0
 11
7463.7449399664401
 21
14151.929184999981
 31
0.0
  0
LINE
  5
4325
  8
2-0
  6
CONTINUOUS
 62
     6
 10
7509.2357609664432
 20
14179.771113999979
 30
0.0
 11
7463.7449399664401
 21
14151.929184999981
 31
0.0
  0
LINE
  5
4326
  8
2-0
  6
CONTINUOUS
 62
     6
 10
7463.7449399664401
 20
14151.929184999981
 30
0.0
 11
7402.9682759664474
 21
14302.318160999979
 31
0.0
  0
LINE
  5
4327
  8
2-0
  6
CONTINUOUS
 62
     6
 10
7402.9682759664474
 20
14302.318160999979
 30
0.0
 11
7509.2357609664432
 21
14179.771113999979
 31
0.0
  0
LINE
  5
4328
  8
2-0
  6
CONTINUOUS
 62
     6
 10
7509.2357609664432
 20
14179.771113999979
 30
0.0
 11
7402.9682759664474
 21
14302.318160999979
 31
0.0
  0
LINE
  5
4329
  8
2-0
  6
CONTINUOUS
 62
     6
 10
7463.7449399664401
 20
14151.929184999981
 30
0.0
 11
7402.9682759664474
 21
14302.318160999979
 31
0.0
  0
LINE
  5
432A
  8
2-0
  6
CONTINUOUS
 62
     6
 10
7463.7449399664401
 20
14151.929184999981
 30
0.0
 11
7509.2357609664432
 21
14179.771113999979
 31
0.0
  0
LINE
  5
432B
  8
2-0
  6
CONTINUOUS
 62
     6
 10
12637.52110196644
 20
14676.880686999981
 30
0.0
 11
12554.85640596644
 21
14537.319677999971
 31
0.0
  0
LINE
  5
432C
  8
2-0
  6
CONTINUOUS
 62
     6
 10
12554.85640596644
 20
14537.319677999971
 30
0.0
 11
12678.31403196644
 21
14642.52911099998
 31
0.0
  0
LINE
  5
432D
  8
2-0
  6
CONTINUOUS
 62
     6
 10
12637.52110196644
 20
14676.880686999981
 30
0.0
 11
12678.31403196644
 21
14642.52911099998
 31
0.0
  0
LINE
  5
432E
  8
2-0
  6
CONTINUOUS
 62
     6
 10
12678.31403196644
 20
14642.52911099998
 30
0.0
 11
12554.85640596644
 21
14537.319677999971
 31
0.0
  0
LINE
  5
432F
  8
2-0
  6
CONTINUOUS
 62
     6
 10
12554.85640596644
 20
14537.319677999971
 30
0.0
 11
12637.52110196644
 21
14676.880686999981
 31
0.0
  0
LINE
  5
4330
  8
2-0
  6
CONTINUOUS
 62
     6
 10
12637.52110196644
 20
14676.880686999981
 30
0.0
 11
12554.85640596644
 21
14537.319677999971
 31
0.0
  0
LINE
  5
4331
  8
2-0
  6
CONTINUOUS
 62
     6
 10
12678.31403196644
 20
14642.52911099998
 30
0.0
 11
12554.85640596644
 21
14537.319677999971
 31
0.0
  0
LINE
  5
4332
  8
2-0
  6
CONTINUOUS
 62
     6
 10
12678.31403196644
 20
14642.52911099998
 30
0.0
 11
12637.52110196644
 21
14676.880686999981
 31
0.0
  0
LINE
  5
4333
  8
2-0
  6
CONTINUOUS
 62
     6
 10
8603.111790966439
 20
16027.530035
 30
0.0
 11
8635.458113966446
 21
15868.579642000001
 31
0.0
  0
LINE
  5
4334
  8
2-0
  6
CONTINUOUS
 62
     6
 10
8635.458113966446
 20
15868.579642000001
 30
0.0
 11
8553.3090829664416
 21
16008.447475999999
 31
0.0
  0
LINE
  5
4335
  8
2-0
  6
CONTINUOUS
 62
     6
 10
8603.111790966439
 20
16027.530035
 30
0.0
 11
8553.3090829664416
 21
16008.447475999999
 31
0.0
  0
LINE
  5
4336
  8
2-0
  6
CONTINUOUS
 62
     6
 10
8553.3090829664416
 20
16008.447475999999
 30
0.0
 11
8635.458113966446
 21
15868.579642000001
 31
0.0
  0
LINE
  5
4337
  8
2-0
  6
CONTINUOUS
 62
     6
 10
8635.458113966446
 20
15868.579642000001
 30
0.0
 11
8603.111790966439
 21
16027.530035
 31
0.0
  0
LINE
  5
4338
  8
2-0
  6
CONTINUOUS
 62
     6
 10
8603.111790966439
 20
16027.530035
 30
0.0
 11
8635.458113966446
 21
15868.579642000001
 31
0.0
  0
LINE
  5
4339
  8
2-0
  6
CONTINUOUS
 62
     6
 10
8553.3090829664416
 20
16008.447475999999
 30
0.0
 11
8635.458113966446
 21
15868.579642000001
 31
0.0
  0
LINE
  5
433A
  8
2-0
  6
CONTINUOUS
 62
     6
 10
8553.3090829664416
 20
16008.447475999999
 30
0.0
 11
8603.111790966439
 21
16027.530035
 31
0.0
  0
LINE
  5
433B
  8
2-0
  6
CONTINUOUS
 62
     6
 10
6130.1461739664419
 20
20005.889343999981
 30
0.0
 11
6089.7590459664407
 21
19848.79276999996
 31
0.0
  0
LINE
  5
433C
  8
2-0
  6
CONTINUOUS
 62
     6
 10
6089.7590459664407
 20
19848.79276999996
 30
0.0
 11
6178.92052196644
 21
19984.300714999961
 31
0.0
  0
LINE
  5
433D
  8
2-0
  6
CONTINUOUS
 62
     6
 10
6130.1461739664419
 20
20005.889343999981
 30
0.0
 11
6178.92052196644
 21
19984.300714999961
 31
0.0
  0
LINE
  5
433E
  8
2-0
  6
CONTINUOUS
 62
     6
 10
6178.92052196644
 20
19984.300714999961
 30
0.0
 11
6089.7590459664407
 21
19848.79276999996
 31
0.0
  0
LINE
  5
433F
  8
2-0
  6
CONTINUOUS
 62
     6
 10
6089.7590459664407
 20
19848.79276999996
 30
0.0
 11
6130.1461739664419
 21
20005.889343999981
 31
0.0
  0
LINE
  5
4340
  8
2-0
  6
CONTINUOUS
 62
     6
 10
6130.1461739664419
 20
20005.889343999981
 30
0.0
 11
6089.7590459664407
 21
19848.79276999996
 31
0.0
  0
LINE
  5
4341
  8
2-0
  6
CONTINUOUS
 62
     6
 10
6178.92052196644
 20
19984.300714999961
 30
0.0
 11
6089.7590459664407
 21
19848.79276999996
 31
0.0
  0
LINE
  5
4342
  8
2-0
  6
CONTINUOUS
 62
     6
 10
6178.92052196644
 20
19984.300714999961
 30
0.0
 11
6130.1461739664419
 21
20005.889343999981
 31
0.0
  0
LINE
  5
4343
  8
2-0
  6
CONTINUOUS
 62
     6
 10
8151.8933969664431
 20
19576.43278799998
 30
0.0
 11
8139.3848189664413
 21
19414.712058999969
 31
0.0
  0
LINE
  5
4344
  8
2-0
  6
CONTINUOUS
 62
     6
 10
8139.3848189664413
 20
19414.712058999969
 30
0.0
 11
8203.6637459664416
 21
19563.639159999981
 31
0.0
  0
LINE
  5
4345
  8
2-0
  6
CONTINUOUS
 62
     6
 10
8151.8933969664431
 20
19576.43278799998
 30
0.0
 11
8203.6637459664416
 21
19563.639159999981
 31
0.0
  0
LINE
  5
4346
  8
2-0
  6
CONTINUOUS
 62
     6
 10
8203.6637459664416
 20
19563.639159999981
 30
0.0
 11
8139.3848189664413
 21
19414.712058999969
 31
0.0
  0
LINE
  5
4347
  8
2-0
  6
CONTINUOUS
 62
     6
 10
8139.3848189664413
 20
19414.712058999969
 30
0.0
 11
8151.8933969664431
 21
19576.43278799998
 31
0.0
  0
LINE
  5
4348
  8
2-0
  6
CONTINUOUS
 62
     6
 10
8151.8933969664431
 20
19576.43278799998
 30
0.0
 11
8139.3848189664413
 21
19414.712058999969
 31
0.0
  0
LINE
  5
4349
  8
2-0
  6
CONTINUOUS
 62
     6
 10
8203.6637459664416
 20
19563.639159999981
 30
0.0
 11
8139.3848189664413
 21
19414.712058999969
 31
0.0
  0
LINE
  5
434A
  8
2-0
  6
CONTINUOUS
 62
     6
 10
8203.6637459664416
 20
19563.639159999981
 30
0.0
 11
8151.8933969664431
 21
19576.43278799998
 31
0.0
  0
LINE
  5
434B
  8
2-0
  6
DASHED3
 62
     6
 10
11227.81288296642
 20
18476.312089999981
 30
0.0
 11
11227.81288296642
 21
18566.316840999982
 31
0.0
  0
LINE
  5
434C
  8
2-0
  6
CONTINUOUS
 62
     3
 10
11227.81288296642
 20
15558.5585395
 30
0.0
 11
11227.81288296642
 21
15648.5573525
 31
0.0
  0
LINE
  5
434D
  8
2-0
  6
DASHED3
 62
     6
 10
11187.812750966439
 20
17988.94273899998
 30
0.0
 11
11187.812750966439
 21
18476.312089999981
 31
0.0
  0
LINE
  5
434E
  8
2-0
  6
DASHED3
 62
     6
 10
11267.812025966439
 20
17813.208996999969
 30
0.0
 11
11267.812025966439
 21
18476.312089999981
 31
0.0
  0
LINE
  5
434F
  8
2-0
  6
CONTINUOUS
 62
     3
 10
11267.812025966439
 20
14537.319677999971
 30
0.0
 11
11267.812025966439
 21
15558.5585395
 31
0.0
  0
LINE
  5
4350
  8
2-0
  6
CONTINUOUS
 62
     3
 10
11187.812750966439
 20
14537.319677999971
 30
0.0
 11
11187.812750966439
 21
15558.5585395
 31
0.0
  0
LINE
  5
4351
  8
2-0
  6
CONTINUOUS
 62
     3
 10
11227.81288296642
 20
14537.319677999971
 30
0.0
 11
11227.81288296642
 21
15558.5585395
 31
0.0
  0
LINE
  5
4352
  8
2-0
  6
DASHED3
 62
     6
 10
11227.81288296642
 20
17901.073887999981
 30
0.0
 11
11227.81288296642
 21
18476.312089999981
 31
0.0
  0
LINE
  5
4353
  8
2-0
  6
DASHED3
 62
     6
 10
11267.812025966439
 20
17107.31882
 30
0.0
 11
11267.812025966439
 21
17813.208996999969
 31
0.0
  0
LINE
  5
4354
  8
2-0
  6
DASHED3
 62
     6
 10
11187.812750966439
 20
17107.31882
 30
0.0
 11
11187.812750966439
 21
17988.94273899998
 31
0.0
  0
LINE
  5
4355
  8
2-0
  6
DASHED3
 62
     6
 10
11227.81288296642
 20
17107.31882
 30
0.0
 11
11227.81288296642
 21
17901.073887999981
 31
0.0
  0
LINE
  5
4356
  8
2-0
  6
DASHED3
 62
     6
 10
11187.812750966439
 20
18566.316840999982
 30
0.0
 11
11187.812750966439
 21
19832.312749999961
 31
0.0
  0
LINE
  5
4357
  8
2-0
  6
DASHED3
 62
     6
 10
11227.81288296642
 20
18566.316840999982
 30
0.0
 11
11227.81288296642
 21
19832.312749999961
 31
0.0
  0
LINE
  5
4358
  8
2-0
  6
CONTINUOUS
 62
     3
 10
11227.81288296642
 20
14458.318080999959
 30
0.0
 11
11227.81288296642
 21
14302.318160999979
 31
0.0
  0
LINE
  5
4359
  8
2-0
  6
CONTINUOUS
 62
     3
 10
11227.81288296642
 20
14537.319677999971
 30
0.0
 11
11227.81288296642
 21
14458.318080999959
 31
0.0
  0
LINE
  5
435A
  8
2-0
  6
CONTINUOUS
 62
     3
 10
13870.811761966441
 20
14302.318160999979
 30
0.0
 11
13870.811761966441
 21
19842.317764999982
 31
0.0
  0
LINE
  5
435B
  8
2-0
  6
CONTINUOUS
 62
     3
 10
13852.811998966439
 20
19812.31420199998
 30
0.0
 11
13802.309531966441
 21
19812.31420199998
 31
0.0
  0
LINE
  5
435C
  8
2-0
  6
CONTINUOUS
 62
     3
 10
13852.811998966439
 20
19834.81142999998
 30
0.0
 11
13870.811761966441
 21
19834.81142999998
 31
0.0
  0
LINE
  5
435D
  8
2-0
  6
CONTINUOUS
 62
     3
 10
13802.309531966441
 20
19852.31037499995
 30
0.0
 11
13865.813476966439
 21
19852.31037499995
 31
0.0
  0
LINE
  5
435E
  8
2-0
  6
CONTINUOUS
 62
     3
 10
13870.811761966441
 20
19847.31802899998
 30
0.0
 11
13870.811761966441
 21
19812.31420199998
 31
0.0
  0
LINE
  5
435F
  8
2-0
  6
CONTINUOUS
 62
     3
 10
13797.312236966431
 20
19817.312485999981
 30
0.0
 11
13797.312236966431
 21
19847.31802899998
 31
0.0
  0
LINE
  5
4360
  8
2-0
  6
CONTINUOUS
 62
     3
 10
13870.811761966441
 20
19847.31802899998
 30
0.0
 11
13870.811761966441
 21
19812.31420199998
 31
0.0
  0
LINE
  5
4361
  8
2-0
  6
CONTINUOUS
 62
     3
 10
13735.31272496643
 20
14334.321036999971
 30
0.0
 11
13735.31272496643
 21
19832.312749999961
 31
0.0
  0
LINE
  5
4362
  8
2-0
  6
DASHED3
 62
     6
 10
11267.80806696644
 20
18566.316840999982
 30
0.0
 11
11267.80806696644
 21
19832.312749999961
 31
0.0
  0
LINE
  5
4363
  8
2-0
  6
CENTER2
 62
     6
 10
11217.81334496644
 20
20872.314729999998
 30
0.0
 11
11217.81334496644
 21
19062.81501999998
 31
0.0
  0
LINE
  5
4364
  8
2-0
  6
CONTINUOUS
 62
     6
 10
6317.982691966442
 20
18322.558922999971
 30
0.0
 11
6284.779236966443
 21
18481.330169999961
 31
0.0
  0
LINE
  5
4365
  8
2-0
  6
CONTINUOUS
 62
     6
 10
6284.779236966443
 20
18481.330169999961
 30
0.0
 11
6367.6814759664421
 21
18341.912675999982
 31
0.0
  0
LINE
  5
4366
  8
2-0
  6
CONTINUOUS
 62
     6
 10
6317.982691966442
 20
18322.558922999971
 30
0.0
 11
6367.6814759664421
 21
18341.912675999982
 31
0.0
  0
LINE
  5
4367
  8
2-0
  6
CONTINUOUS
 62
     6
 10
6367.6814759664421
 20
18341.912675999982
 30
0.0
 11
6284.779236966443
 21
18481.330169999961
 31
0.0
  0
LINE
  5
4368
  8
2-0
  6
CONTINUOUS
 62
     6
 10
6284.779236966443
 20
18481.330169999961
 30
0.0
 11
6317.982691966442
 21
18322.558922999971
 31
0.0
  0
LINE
  5
4369
  8
2-0
  6
CONTINUOUS
 62
     6
 10
6317.982691966442
 20
18322.558922999971
 30
0.0
 11
6284.779236966443
 21
18481.330169999961
 31
0.0
  0
LINE
  5
436A
  8
2-0
  6
CONTINUOUS
 62
     6
 10
6367.6814759664421
 20
18341.912675999982
 30
0.0
 11
6284.779236966443
 21
18481.330169999961
 31
0.0
  0
LINE
  5
436B
  8
2-0
  6
CONTINUOUS
 62
     6
 10
6367.6814759664421
 20
18341.912675999982
 30
0.0
 11
6317.982691966442
 21
18322.558922999971
 31
0.0
  0
LINE
  5
436C
  8
2-0
  6
CONTINUOUS
 62
     6
 10
6342.832083966442
 20
18332.23678899997
 30
0.0
 11
6492.8795919664453
 21
17946.909640999951
 31
0.0
  0
LINE
  5
436D
  8
2-0
  6
CONTINUOUS
 62
     6
 10
6317.982691966442
 20
15439.9339095
 30
0.0
 11
6284.779236966443
 21
15598.7101045
 31
0.0
  0
LINE
  5
436E
  8
2-0
  6
CONTINUOUS
 62
     6
 10
6284.779236966443
 20
15598.7101045
 30
0.0
 11
6367.6814759664421
 21
15459.28964149999
 31
0.0
  0
LINE
  5
436F
  8
2-0
  6
CONTINUOUS
 62
     6
 10
6317.982691966442
 20
15439.9339095
 30
0.0
 11
6367.6814759664421
 21
15459.28964149999
 31
0.0
  0
LINE
  5
4370
  8
2-0
  6
CONTINUOUS
 62
     6
 10
6367.6814759664421
 20
15459.28964149999
 30
0.0
 11
6284.779236966443
 21
15598.7101045
 31
0.0
  0
LINE
  5
4371
  8
2-0
  6
CONTINUOUS
 62
     6
 10
6284.779236966443
 20
15598.7101045
 30
0.0
 11
6317.982691966442
 21
15439.9339095
 31
0.0
  0
LINE
  5
4372
  8
2-0
  6
CONTINUOUS
 62
     6
 10
6317.982691966442
 20
15439.9339095
 30
0.0
 11
6284.779236966443
 21
15598.7101045
 31
0.0
  0
LINE
  5
4373
  8
2-0
  6
CONTINUOUS
 62
     6
 10
6367.6814759664421
 20
15459.28964149999
 30
0.0
 11
6284.779236966443
 21
15598.7101045
 31
0.0
  0
LINE
  5
4374
  8
2-0
  6
CONTINUOUS
 62
     6
 10
6367.6814759664421
 20
15459.28964149999
 30
0.0
 11
6317.982691966442
 21
15439.9339095
 31
0.0
  0
LINE
  5
4375
  8
2-0
  6
CONTINUOUS
 62
     6
 10
6342.832083966442
 20
15449.614744500001
 30
0.0
 11
6492.8795919664453
 21
15064.29056549999
 31
0.0
  0
LINE
  5
4376
  8
2-0
  6
CONTINUOUS
 62
     6
 10
6495.368341966443
 20
16897.145414999992
 30
0.0
 11
6462.1653819664398
 21
17055.920621000001
 31
0.0
  0
LINE
  5
4377
  8
2-0
  6
CONTINUOUS
 62
     6
 10
6462.1653819664398
 20
17055.920621000001
 30
0.0
 11
6545.0700949664442
 21
16916.503126999982
 31
0.0
  0
LINE
  5
4378
  8
2-0
  6
CONTINUOUS
 62
     6
 10
6495.368341966443
 20
16897.145414999992
 30
0.0
 11
6545.0700949664442
 21
16916.503126999982
 31
0.0
  0
LINE
  5
4379
  8
2-0
  6
CONTINUOUS
 62
     6
 10
6545.0700949664442
 20
16916.503126999982
 30
0.0
 11
6462.1653819664398
 21
17055.920621000001
 31
0.0
  0
LINE
  5
437A
  8
2-0
  6
CONTINUOUS
 62
     6
 10
6462.1653819664398
 20
17055.920621000001
 30
0.0
 11
6495.368341966443
 21
16897.145414999992
 31
0.0
  0
LINE
  5
437B
  8
2-0
  6
CONTINUOUS
 62
     6
 10
6495.368341966443
 20
16897.145414999992
 30
0.0
 11
6462.1653819664398
 21
17055.920621000001
 31
0.0
  0
LINE
  5
437C
  8
2-0
  6
CONTINUOUS
 62
     6
 10
6545.0700949664442
 20
16916.503126999982
 30
0.0
 11
6462.1653819664398
 21
17055.920621000001
 31
0.0
  0
LINE
  5
437D
  8
2-0
  6
CONTINUOUS
 62
     6
 10
6545.0700949664442
 20
16916.503126999982
 30
0.0
 11
6495.368341966443
 21
16897.145414999992
 31
0.0
  0
LINE
  5
437E
  8
2-0
  6
CONTINUOUS
 62
     6
 10
6520.2261469664454
 20
16906.827239999999
 30
0.0
 11
6618.9516669664454
 21
16653.29248
 31
0.0
  0
LINE
  5
437F
  8
2-0
  6
CENTER2
 62
     6
 10
6092.3150999664449
 20
20872.314729999998
 30
0.0
 11
6092.3150999664449
 21
19922.30813099998
 31
0.0
  0
LINE
  5
4380
  8
2-0
  6
CENTER2
 62
     6
 10
13785.31334496644
 20
20872.314729999998
 30
0.0
 11
13785.31334496644
 21
19922.30813099998
 31
0.0
  0
LINE
  5
4381
  8
2-0
  6
CONTINUOUS
 62
     6
 10
6492.8795919664453
 20
17946.909640999951
 30
0.0
 11
8476.6778193460814
 21
17946.909640999951
 31
0.0
  0
LINE
  5
4382
  8
2-0
  6
CONTINUOUS
 62
     6
 10
6492.8795919664453
 20
15064.29056549999
 30
0.0
 11
8476.6778193460814
 21
15064.29056549999
 31
0.0
  0
LINE
  5
4383
  8
2-0
  6
DASHED3
 62
     6
 10
8612.8144009664375
 20
18449.988451999969
 30
0.0
 11
8612.8144009664375
 21
18476.312089999981
 31
0.0
  0
LINE
  5
4384
  8
2-0
  6
DASHED3
 62
     6
 10
8726.8059679664475
 20
18352.72876599996
 30
0.0
 11
8726.8059679664475
 21
18476.312089999981
 31
0.0
  0
LINE
  5
4385
  8
2-0
  6
CONTINUOUS
 62
     3
 10
8726.8059679664475
 20
17107.31882
 30
0.0
 11
8726.8059679664475
 21
18352.72876599996
 31
0.0
  0
LINE
  5
4386
  8
2-0
  6
CONTINUOUS
 62
     3
 10
8612.8144009664375
 20
17107.31882
 30
0.0
 11
8612.8144009664375
 21
18449.988451999969
 31
0.0
  0
LINE
  5
4387
  8
2-0
  6
DASHED3
 62
     6
 10
8669.8096899664451
 20
18440.597615999981
 30
0.0
 11
8669.8096899664451
 21
19832.312749999961
 31
0.0
  0
LINE
  5
4388
  8
2-0
  6
CONTINUOUS
 62
     3
 10
8669.8096899664451
 20
17107.31882
 30
0.0
 11
8669.8096899664451
 21
18440.597615999981
 31
0.0
  0
LINE
  5
4389
  8
2-0
  6
CONTINUOUS
 62
     3
 10
11267.812025966439
 20
15648.5573525
 30
0.0
 11
11267.812025966439
 21
17002.473618999978
 31
0.0
  0
LINE
  5
438A
  8
2-0
  6
DASHED3
 62
     6
 10
11227.81288296642
 20
17018.533452999989
 30
0.0
 11
11227.81288296642
 21
17107.31882
 31
0.0
  0
LINE
  5
438B
  8
2-0
  6
CONTINUOUS
 62
     3
 10
11227.81288296642
 20
15648.5573525
 30
0.0
 11
11227.81288296642
 21
17018.533452999989
 31
0.0
  0
LINE
  5
438C
  8
2-0
  6
CONTINUOUS
 62
     3
 10
11187.812750966439
 20
15648.5573525
 30
0.0
 11
11187.812750966439
 21
17017.316049000001
 31
0.0
  0
LINE
  5
438D
  8
2-0
  6
DASHED3
 62
     6
 10
11006.719462966401
 20
17107.31882
 30
0.0
 11
13785.31334496644
 21
17107.31882
 31
0.0
  0
LINE
  5
438E
  8
2-0
  6
DASHED3
 62
     6
 10
11230.84352596644
 20
17017.316049000001
 30
0.0
 11
13785.31334496644
 21
17017.316049000001
 31
0.0
  0
LINE
  5
438F
  8
2-0
  6
CENTER2
 62
     6
 10
5873.5174259664418
 20
18521.31644499996
 30
0.0
 11
14157.46085896642
 21
18521.31644499996
 31
0.0
  0
LINE
  5
4390
  8
2-0
  6
DASHED3
 62
     6
 10
13785.31334496644
 20
15995.320298999981
 30
0.0
 11
13785.31334496644
 21
19675.81055899995
 31
0.0
  0
LINE
  5
4391
  8
2-0
  6
DASHED3
 62
     6
 10
13827.81360896644
 20
15978.253879
 30
0.0
 11
13827.81360896644
 21
19675.81055899995
 31
0.0
  0
LINE
  5
4392
  8
2-0
  6
CONTINUOUS
 62
     3
 10
13852.811998966439
 20
15969.421266999991
 30
0.0
 11
13852.811998966439
 21
19834.81142999998
 31
0.0
  0
LINE
  5
4393
  8
2-0
  6
CONTINUOUS
 62
     3
 10
13785.31334496644
 20
14458.318080999959
 30
0.0
 11
13785.31334496644
 21
15995.320298999981
 31
0.0
  0
LINE
  5
4394
  8
2-0
  6
CONTINUOUS
 62
     3
 10
13827.81360896644
 20
14458.318080999959
 30
0.0
 11
13827.81360896644
 21
15978.253879
 31
0.0
  0
LINE
  5
4395
  8
2-0
  6
CONTINUOUS
 62
     3
 10
8909.3066939664423
 20
18071.41344199995
 30
0.0
 11
8909.3066939664423
 21
19832.312749999961
 31
0.0
  0
LINE
  5
4396
  8
2-0
  6
CONTINUOUS
 62
     3
 10
8872.3075119664372
 20
18128.44931099996
 30
0.0
 11
8872.3075119664372
 21
19832.312749999961
 31
0.0
  0
LINE
  5
4397
  8
2-0
  6
CONTINUOUS
 62
     3
 10
9109.3053739664483
 20
17763.12717699998
 30
0.0
 11
9109.3053739664483
 21
19832.312749999961
 31
0.0
  0
LINE
  5
4398
  8
2-0
  6
CONTINUOUS
 62
     3
 10
9072.308171966446
 20
17820.161065999971
 30
0.0
 11
9072.308171966446
 21
19832.312749999961
 31
0.0
  0
LINE
  5
4399
  8
2-0
  6
CONTINUOUS
 62
     3
 10
9272.3068519664394
 20
17598.779625999981
 30
0.0
 11
9272.3068519664394
 21
19832.312749999961
 31
0.0
  0
LINE
  5
439A
  8
2-0
  6
CONTINUOUS
 62
     3
 10
9309.3030649664397
 20
17661.68278799998
 30
0.0
 11
9309.3030649664397
 21
19832.312749999961
 31
0.0
  0
LINE
  5
439B
  8
2-0
  6
CONTINUOUS
 62
     3
 10
9509.2987759664393
 20
17713.641191999981
 30
0.0
 11
9509.2987759664393
 21
19832.312749999961
 31
0.0
  0
LINE
  5
439C
  8
2-0
  6
CONTINUOUS
 62
     3
 10
9472.2995939664434
 20
17728.501437999981
 30
0.0
 11
9472.2995939664434
 21
19832.312749999961
 31
0.0
  0
LINE
  5
439D
  8
2-0
  6
CONTINUOUS
 62
     3
 10
9709.2964669664398
 20
17633.328163999959
 30
0.0
 11
9709.2964669664398
 21
19832.312749999961
 31
0.0
  0
LINE
  5
439E
  8
2-0
  6
CONTINUOUS
 62
     3
 10
9672.2972849664402
 20
17648.18445099995
 30
0.0
 11
9672.2972849664402
 21
19832.312749999961
 31
0.0
  0
LINE
  5
439F
  8
2-0
  6
CONTINUOUS
 62
     3
 10
10309.294486966441
 20
17392.387100999971
 30
0.0
 11
10309.294486966441
 21
19832.312749999961
 31
0.0
  0
LINE
  5
43A0
  8
2-0
  6
CONTINUOUS
 62
     3
 10
10272.29233596642
 20
17407.241407999962
 30
0.0
 11
10272.29233596642
 21
19832.312749999961
 31
0.0
  0
LINE
  5
43A1
  8
2-0
  6
CONTINUOUS
 62
     3
 10
11309.28194996644
 20
16985.817949
 30
0.0
 11
11309.28194996644
 21
19832.312749999961
 31
0.0
  0
LINE
  5
43A2
  8
2-0
  6
CONTINUOUS
 62
     3
 10
11272.282767966441
 20
17000.676216
 30
0.0
 11
11272.282767966441
 21
19832.312749999961
 31
0.0
  0
LINE
  5
43A3
  8
2-0
  6
CONTINUOUS
 62
     3
 10
11509.28458896643
 20
16905.504921999971
 30
0.0
 11
11509.28458896643
 21
19832.312749999961
 31
0.0
  0
LINE
  5
43A4
  8
2-0
  6
CONTINUOUS
 62
     3
 10
11472.281448966431
 20
16920.361208999992
 30
0.0
 11
11472.281448966431
 21
19832.312749999961
 31
0.0
  0
LINE
  5
43A5
  8
2-0
  6
CONTINUOUS
 62
     3
 10
11709.28030096644
 20
16825.189913999999
 30
0.0
 11
11709.28030096644
 21
19832.312749999961
 31
0.0
  0
LINE
  5
43A6
  8
2-0
  6
CONTINUOUS
 62
     3
 10
11672.278148966439
 20
16840.048180999991
 30
0.0
 11
11672.278148966439
 21
19832.312749999961
 31
0.0
  0
LINE
  5
43A7
  8
2-0
  6
CONTINUOUS
 62
     3
 10
11909.27601196644
 20
16744.87490699999
 30
0.0
 11
11909.27601196644
 21
19832.312749999961
 31
0.0
  0
LINE
  5
43A8
  8
2-0
  6
CONTINUOUS
 62
     3
 10
11872.275839966431
 20
16759.733173000001
 30
0.0
 11
11872.275839966431
 21
19832.312749999961
 31
0.0
  0
LINE
  5
43A9
  8
2-0
  6
CONTINUOUS
 62
     3
 10
12109.27271196644
 20
16664.559898999982
 30
0.0
 11
12109.27271196644
 21
19832.312749999961
 31
0.0
  0
LINE
  5
43AA
  8
2-0
  6
CONTINUOUS
 62
     3
 10
12072.27451996644
 20
16679.420145
 30
0.0
 11
12072.27451996644
 21
19832.312749999961
 31
0.0
  0
LINE
  5
43AB
  8
2-0
  6
CONTINUOUS
 62
     3
 10
12309.273371966439
 20
16584.244891999992
 30
0.0
 11
12309.273371966439
 21
19832.312749999961
 31
0.0
  0
LINE
  5
43AC
  8
2-0
  6
CONTINUOUS
 62
     3
 10
12272.27517996644
 20
16599.109097
 30
0.0
 11
12272.27517996644
 21
19832.312749999961
 31
0.0
  0
LINE
  5
43AD
  8
2-0
  6
CONTINUOUS
 62
     3
 10
12509.26710396642
 20
16503.933843999981
 30
0.0
 11
12509.26710396642
 21
19832.312749999961
 31
0.0
  0
LINE
  5
43AE
  8
2-0
  6
CONTINUOUS
 62
     3
 10
12472.268911966439
 20
16518.794089999999
 30
0.0
 11
12472.268911966439
 21
19832.312749999961
 31
0.0
  0
LINE
  5
43AF
  8
2-0
  6
CONTINUOUS
 62
     3
 10
12709.266773966439
 20
16423.620815999991
 30
0.0
 11
12709.266773966439
 21
19832.312749999961
 31
0.0
  0
LINE
  5
43B0
  8
2-0
  6
CONTINUOUS
 62
     3
 10
12672.267591966431
 20
16438.478093000002
 30
0.0
 11
12672.267591966431
 21
19832.312749999961
 31
0.0
  0
LINE
  5
43B1
  8
2-0
  6
CONTINUOUS
 62
     3
 10
12909.26644396644
 20
16343.30580799999
 30
0.0
 11
12909.26644396644
 21
19832.312749999961
 31
0.0
  0
LINE
  5
43B2
  8
2-0
  6
CONTINUOUS
 62
     3
 10
12872.26528296642
 20
16358.163085
 30
0.0
 11
12872.26528296642
 21
19832.312749999961
 31
0.0
  0
LINE
  5
43B3
  8
2-0
  6
CONTINUOUS
 62
     3
 10
13109.264133966441
 20
16262.993769999999
 30
0.0
 11
13109.264133966441
 21
19832.312749999961
 31
0.0
  0
LINE
  5
43B4
  8
2-0
  6
CONTINUOUS
 62
     3
 10
13072.26495296643
 20
16277.848078000001
 30
0.0
 11
13072.26495296643
 21
19832.312749999961
 31
0.0
  0
LINE
  5
43B5
  8
2-0
  6
CONTINUOUS
 62
     3
 10
13309.26281496644
 20
16182.678762999991
 30
0.0
 11
13309.26281496644
 21
19832.312749999961
 31
0.0
  0
LINE
  5
43B6
  8
2-0
  6
CONTINUOUS
 62
     3
 10
13272.261652966439
 20
16197.536040000001
 30
0.0
 11
13272.261652966439
 21
19832.312749999961
 31
0.0
  0
LINE
  5
43B7
  8
2-0
  6
CONTINUOUS
 62
     3
 10
13518.75335296642
 20
16102.36573499999
 30
0.0
 11
13518.75335296642
 21
19832.312749999961
 31
0.0
  0
LINE
  5
43B8
  8
2-0
  6
CONTINUOUS
 62
     3
 10
13481.753180966431
 20
16117.22103199999
 30
0.0
 11
13481.753180966431
 21
19832.312749999961
 31
0.0
  0
LINE
  5
43B9
  8
2-0
  6
CONTINUOUS
 62
     3
 10
13718.754012966439
 20
16022.04775799999
 30
0.0
 11
13718.754012966439
 21
19832.312749999961
 31
0.0
  0
LINE
  5
43BA
  8
2-0
  6
CONTINUOUS
 62
     3
 10
13681.751861966441
 20
16036.908993999999
 30
0.0
 11
13681.751861966441
 21
19832.312749999961
 31
0.0
  0
LINE
  5
43BB
  8
2-0
  6
DASHED3
 62
     6
 10
6162.3133509664403
 20
19629.816444999949
 30
0.0
 11
8589.8074459664422
 21
18521.31644499996
 31
0.0
  0
LINE
  5
43BC
  8
2-0
  6
CONTINUOUS
 62
     3
 10
6162.3133509664403
 20
17062.316444999979
 30
0.0
 11
8589.8074459664422
 21
15603.556956500001
 31
0.0
  0
LINE
  5
43BD
  8
2-0
  6
DASHED3
 62
     6
 10
11287.81407096642
 20
19629.816444999949
 30
0.0
 11
13715.30767096644
 21
18521.31644499996
 31
0.0
  0
LINE
  5
43BE
  8
2-0
  6
DASHED3
 62
     6
 10
13715.30767096644
 20
19629.816444999949
 30
0.0
 11
11287.81407096642
 21
18521.31644499996
 31
0.0
  0
LINE
  5
43BF
  8
2-0
  6
DASHED3
 62
     6
 10
11287.81407096642
 20
18521.31644499996
 30
0.0
 11
13715.30767096644
 21
17062.316444999979
 31
0.0
  0
LINE
  5
43C0
  8
2-0
  6
DASHED3
 62
     6
 10
13715.30767096644
 20
18521.31644499996
 30
0.0
 11
11287.81407096642
 21
17062.316444999979
 31
0.0
  0
LINE
  5
43C1
  8
2-0
  6
CONTINUOUS
 62
     3
 10
11287.81407096642
 20
15603.556956500001
 30
0.0
 11
13715.30767096644
 21
14494.81644499998
 31
0.0
  0
LINE
  5
43C2
  8
2-0
  6
CONTINUOUS
 62
     3
 10
13715.30767096644
 20
15603.556956500001
 30
0.0
 11
11287.81407096642
 21
14494.81644499998
 31
0.0
  0
LINE
  5
43C3
  8
2-0
  6
CONTINUOUS
 62
     3
 10
7065.4173029664416
 20
18933.809793999961
 30
0.0
 11
6162.3133509664403
 21
18521.31644499996
 31
0.0
  0
LINE
  5
43C4
  8
2-0
  6
DASHED3
 62
     6
 10
8589.8074459664422
 20
19629.816444999949
 30
0.0
 11
7065.4173029664416
 21
18933.809793999961
 31
0.0
  0
LINE
  5
43C5
  8
2-0
  6
DASHED3
 62
     6
 10
8589.8074459664422
 20
18521.31644499996
 30
0.0
 11
8322.5293829664406
 21
18360.59141399998
 31
0.0
  0
LINE
  5
43C6
  8
2-0
  6
CONTINUOUS
 62
     3
 10
9686.3904669664444
 20
17642.52896599998
 30
0.0
 11
8729.8098879664376
 21
17062.316444999979
 31
0.0
  0
LINE
  5
43C7
  8
2-0
  6
CONTINUOUS
 62
     3
 10
12669.93274996643
 20
16439.419353999991
 30
0.0
 11
11287.81407096642
 21
15603.556956500001
 31
0.0
  0
LINE
  5
43C8
  8
2-0
  6
DASHED3
 62
     6
 10
13715.30767096644
 20
17062.316444999979
 30
0.0
 11
12669.93274996643
 21
16439.419353999991
 31
0.0
  0
LINE
  5
43C9
  8
2-0
  6
CONTINUOUS
 62
     3
 10
11627.635056966439
 20
16857.976679999982
 30
0.0
 11
13715.30767096644
 21
15603.556956500001
 31
0.0
  0
LINE
  5
43CA
  8
2-0
  6
DASHED3
 62
     6
 10
11287.81407096642
 20
17062.316444999979
 30
0.0
 11
11627.635056966439
 21
16857.976679999982
 31
0.0
  0
LINE
  5
43CB
  8
2-0
  6
CONTINUOUS
 62
     3
 10
6162.3133509664403
 20
18521.31644499996
 30
0.0
 11
6666.5308799664408
 21
18218.119522999968
 31
0.0
  0
LINE
  5
43CC
  8
2-0
  6
CONTINUOUS
 62
     3
 10
7023.6806379664367
 20
18009.066523999962
 30
0.0
 11
8589.8074459664422
 21
17062.316444999979
 31
0.0
  0
LINE
  5
43CD
  8
2-0
  6
CONTINUOUS
 62
     3
 10
8322.5293829664406
 20
18360.59141399998
 30
0.0
 11
8063.3030119664454
 21
18204.714222999981
 31
0.0
  0
LINE
  5
43CE
  8
2-0
  6
CONTINUOUS
 62
     3
 10
7705.2051319664433
 20
17989.380211999971
 30
0.0
 11
6162.3133509664403
 21
17062.316444999979
 31
0.0
  0
LINE
  5
43CF
  8
2-0
  6
CONTINUOUS
 62
     6
 10
6618.9516669664454
 20
16653.29248
 30
0.0
 11
8504.3679856955168
 21
16653.29248
 31
0.0
  0
LINE
  5
43D0
  8
2-0
  6
CONTINUOUS
 62
     3
 10
7819.8489499664429
 20
16599.320905999972
 30
0.0
 11
6162.3133509664403
 21
15603.556956500001
 31
0.0
  0
LINE
  5
43D1
  8
2-0
  6
CONTINUOUS
 62
     3
 10
8589.8074459664422
 20
17062.316444999979
 30
0.0
 11
8233.7623269664437
 21
16848.219633000001
 31
0.0
  0
LINE
  5
43D2
  8
2-0
  6
CONTINUOUS
 62
     3
 10
6162.3133509664403
 20
15603.556956500001
 30
0.0
 11
6741.6803339664393
 21
15339.02992949999
 31
0.0
  0
LINE
  5
43D3
  8
2-0
  6
CONTINUOUS
 62
     3
 10
7196.0749319664419
 20
15135.90162949998
 30
0.0
 11
8589.8074459664422
 21
14494.81644499998
 31
0.0
  0
LINE
  5
43D4
  8
2-0
  6
CONTINUOUS
 62
     3
 10
8589.8074459664422
 20
15603.556956500001
 30
0.0
 11
7917.1744559664403
 21
15296.445535499981
 31
0.0
  0
LINE
  5
43D5
  8
2-0
  6
CONTINUOUS
 62
     3
 10
7518.919565966441
 20
15114.6109175
 30
0.0
 11
6162.3133509664403
 21
14494.81644499998
 31
0.0
  0
LINE
  5
43D6
  8
2-0
  6
CENTER2
 62
     6
 10
8659.8150999664467
 20
20872.314729999998
 30
0.0
 11
8659.8150999664467
 21
19062.81501999998
 31
0.0
  0
LINE
  5
43D7
  8
2-0
  6
CENTER2
 62
     6
 10
5873.5174259664418
 20
15603.556956500001
 30
0.0
 11
14122.34617896644
 21
15603.556956500001
 31
0.0
  0
LINE
  5
43D8
  8
0-1
  6
CONTINUOUS
 62
     3
 10
9767.2399449664481
 20
16595.035247999971
 30
0.0
 11
10373.18938796642
 21
17207.846691999981
 31
0.0
  0
LINE
  5
43D9
  8
0-1
  6
CONTINUOUS
 62
     3
 10
10373.18938796642
 20
17207.846691999981
 30
0.0
 11
10127.34505696642
 21
17398.284086999982
 31
0.0
  0
LINE
  5
43DA
  8
0-1
  6
CONTINUOUS
 62
     3
 10
9985.2255209664472
 20
17124.714830000001
 30
0.0
 11
9379.2740979664486
 21
16511.903385999991
 31
0.0
  0
LINE
  5
43DB
  8
0-1
  6
CONTINUOUS
 62
     3
 10
9827.3450569664437
 20
16173.919393
 30
0.0
 11
9379.2740979664486
 21
16511.903385999991
 31
0.0
  0
LINE
  5
43DC
  8
0-1
  6
CONTINUOUS
 62
     3
 10
10127.34505696642
 20
16323.404718
 30
0.0
 11
9767.2399449664481
 21
16595.035247999971
 31
0.0
  0
LINE
  5
43DD
  8
0-1
  6
CONTINUOUS
 62
     3
 10
9985.2255209664472
 20
17124.714830000001
 30
0.0
 11
9827.3450569664437
 21
17243.802667999971
 31
0.0
  0
LINE
  5
43DE
  8
0-1
  6
CONTINUOUS
 62
     3
 10
9827.3450569664437
 20
16173.919393
 30
0.0
 11
9827.3450569664437
 21
14047.42841999998
 31
0.0
  0
LINE
  5
43DF
  8
0-1
  6
CONTINUOUS
 62
     3
 10
9827.3450569664437
 20
17243.802667999971
 30
0.0
 11
9827.3450569664437
 21
20041.289074999971
 31
0.0
  0
LINE
  5
43E0
  8
0-1
  6
CONTINUOUS
 62
     3
 10
10127.34505696642
 20
17398.284086999982
 30
0.0
 11
10127.34505696642
 21
20041.289074999971
 31
0.0
  0
LINE
  5
43E1
  8
2-0
  6
DASHED3
 62
     6
 10
10127.34505696642
 20
19675.81055899995
 30
0.0
 11
13827.81360896644
 21
19675.81055899995
 31
0.0
  0
LINE
  5
43E2
  8
2-0
  6
DASHED3
 62
     6
 10
10127.34505696642
 20
19590.81201099998
 30
0.0
 11
13785.31334496644
 21
19590.81201099998
 31
0.0
  0
LINE
  5
43E3
  8
2-0
  6
CONTINUOUS
 62
     3
 10
10127.34505696642
 20
19832.312749999961
 30
0.0
 11
13797.312236966431
 21
19832.312749999961
 31
0.0
  0
LINE
  5
43E5
  8
2-0
  6
DASHED3
 62
     6
 10
6049.8143409664417
 20
19675.81055899995
 30
0.0
 11
9827.3450569664437
 21
19675.81055899995
 31
0.0
  0
LINE
  5
43E6
  8
2-0
  6
DASHED3
 62
     6
 10
6092.3150999664449
 20
19590.81201099998
 30
0.0
 11
9827.3450569664437
 21
19590.81201099998
 31
0.0
  0
LINE
  5
43E7
  8
2-0
  6
DASHED3
 62
     6
 10
8729.8098879664376
 20
19629.816444999949
 30
0.0
 11
9827.3450569664437
 21
19128.709233999969
 31
0.0
  0
LINE
  5
43E8
  8
2-0
  6
DASHED3
 62
     6
 10
9827.3450569664437
 20
19026.922388999981
 30
0.0
 11
8729.8098879664376
 21
18521.31644499996
 31
0.0
  0
LINE
  5
43E9
  8
2-0
  6
DASHED3
 62
     6
 10
11147.810639966439
 20
19629.816444999949
 30
0.0
 11
10127.34505696642
 21
19163.897156999981
 31
0.0
  0
LINE
  5
43EA
  8
2-0
  6
DASHED3
 62
     6
 10
10127.34505696642
 20
18991.73446699998
 30
0.0
 11
11147.810639966439
 21
18521.31644499996
 31
0.0
  0
LINE
  5
43EB
  8
2-0
  6
DASHED3
 62
     6
 10
10127.34505696642
 20
18566.316840999982
 30
0.0
 11
13785.31334496644
 21
18566.316840999982
 31
0.0
  0
LINE
  5
43EC
  8
2-0
  6
DASHED3
 62
     6
 10
10127.34505696642
 20
18476.312089999981
 30
0.0
 11
13785.31334496644
 21
18476.312089999981
 31
0.0
  0
LINE
  5
43ED
  8
2-0
  6
DASHED3
 62
     6
 10
7867.7894259664408
 20
18566.316840999982
 30
0.0
 11
9827.3450569664437
 21
18566.316840999982
 31
0.0
  0
LINE
  5
43EE
  8
2-0
  6
DASHED3
 62
     6
 10
8066.7295589664463
 20
18476.312089999981
 30
0.0
 11
9827.3450569664437
 21
18476.312089999981
 31
0.0
  0
LINE
  5
43EF
  8
2-0
  6
DASHED3
 62
     6
 10
8729.8098879664376
 20
18521.31644499996
 30
0.0
 11
9827.3450569664437
 21
17861.340990999979
 31
0.0
  0
LINE
  5
43F0
  8
2-0
  6
DASHED3
 62
     6
 10
9827.3450569664437
 20
17727.289972999981
 30
0.0
 11
9686.3904669664444
 21
17642.52896599998
 31
0.0
  0
LINE
  5
43F1
  8
2-0
  6
DASHED3
 62
     6
 10
11147.810639966439
 20
18521.31644499996
 30
0.0
 11
10127.34505696642
 21
17907.687459999961
 31
0.0
  0
LINE
  5
43F2
  8
2-0
  6
DASHED3
 62
     6
 10
10127.34505696642
 20
17680.943503999981
 30
0.0
 11
11147.810639966439
 21
17062.316444999979
 31
0.0
  0
LINE
  5
43F3
  8
2-0
  6
CONTINUOUS
 62
     3
 10
9827.3450569664437
 20
17585.920673999972
 30
0.0
 11
9372.2359199664479
 21
17768.681705999981
 31
0.0
  0
LINE
  5
43F4
  8
2-0
  6
CONTINUOUS
 62
     3
 10
14118.577175966429
 20
15861.490985999981
 30
0.0
 11
10127.34505696642
 21
17465.447172999979
 31
0.0
  0
LINE
  5
43F5
  8
2-0
  6
CONTINUOUS
 62
     3
 10
6092.3150999664449
 20
17017.316049000001
 30
0.0
 11
9879.0283079664441
 21
17017.316049000001
 31
0.0
  0
LINE
  5
43F6
  8
2-0
  6
CONTINUOUS
 62
     3
 10
6092.3150999664449
 20
17107.31882
 30
0.0
 11
9968.0225139664453
 21
17107.31882
 31
0.0
  0
LINE
  5
43F7
  8
2-0
  6
CONTINUOUS
 62
     3
 10
10273.786872966441
 20
17107.31882
 30
0.0
 11
11006.719462966401
 21
17107.31882
 31
0.0
  0
LINE
  5
43F8
  8
2-0
  6
CONTINUOUS
 62
     3
 10
10184.792665966441
 20
17017.316049000001
 30
0.0
 11
11230.841546966431
 21
17017.316049000001
 31
0.0
  0
LINE
  5
43F9
  8
2-0
  6
CONTINUOUS
 62
     3
 10
11147.810639966439
 20
17062.316444999979
 30
0.0
 11
10034.930241966429
 21
16393.114454999992
 31
0.0
  0
LINE
  5
43FA
  8
2-0
  6
CONTINUOUS
 62
     3
 10
9757.7333069664437
 20
16226.429093000001
 30
0.0
 11
8729.8098879664376
 21
15603.556956500001
 31
0.0
  0
LINE
  5
43FB
  8
2-0
  6
CONTINUOUS
 62
     3
 10
8729.8098879664376
 20
17062.316444999979
 30
0.0
 11
9478.4133369664396
 21
16612.166001999991
 31
0.0
  0
LINE
  5
43FC
  8
2-0
  6
CONTINUOUS
 62
     3
 10
10127.34505696642
 20
16221.94548299999
 30
0.0
 11
11147.810639966439
 21
15603.556956500001
 31
0.0
  0
LINE
  5
43FD
  8
0-1
  6
CONTINUOUS
 62
     3
 10
10127.34505696642
 20
15045.9691315
 30
0.0
 11
10127.34505696642
 21
14047.42841999998
 31
0.0
  0
LINE
  5
43FE
  8
0-1
  6
CONTINUOUS
 62
     3
 10
10127.34505696642
 20
16323.404718
 30
0.0
 11
10127.34505696642
 21
15105.27253849999
 31
0.0
  0
LINE
  5
43FF
  8
0-1
  6
CONTINUOUS
 62
     3
 10
10127.34505696642
 20
15105.27253849999
 30
0.0
 11
10127.34505696642
 21
15045.9691315
 31
0.0
  0
LINE
  5
4400
  8
2-0
  6
CONTINUOUS
 62
     3
 10
11147.810639966439
 20
15603.556956500001
 30
0.0
 11
10127.34505696642
 21
15137.63667750001
 31
0.0
  0
LINE
  5
4401
  8
2-0
  6
CONTINUOUS
 62
     3
 10
10127.34505696642
 20
14965.4749775
 30
0.0
 11
11147.810639966439
 21
14494.81644499998
 31
0.0
  0
LINE
  5
4402
  8
2-0
  6
CONTINUOUS
 62
     3
 10
9827.3450569664437
 20
15000.6638895
 30
0.0
 11
8729.8098879664376
 21
14494.81644499998
 31
0.0
  0
LINE
  5
4403
  8
2-0
  6
CONTINUOUS
 62
     3
 10
8729.8098879664376
 20
15603.556956500001
 30
0.0
 11
9827.3450569664437
 21
15102.447765499999
 31
0.0
  0
LINE
  5
4404
  8
2-0
  6
CONTINUOUS
 62
     3
 10
6092.3150999664449
 20
15558.5585395
 30
0.0
 11
9827.3450569664437
 21
15558.5585395
 31
0.0
  0
LINE
  5
4405
  8
2-0
  6
CONTINUOUS
 62
     3
 10
6092.3150999664449
 20
15648.5573525
 30
0.0
 11
9827.3450569664437
 21
15648.5573525
 31
0.0
  0
LINE
  5
4406
  8
2-0
  6
CONTINUOUS
 62
     3
 10
10127.34505696642
 20
15648.5573525
 30
0.0
 11
13732.31272496643
 21
15648.5573525
 31
0.0
  0
LINE
  5
4407
  8
2-0
  6
CONTINUOUS
 62
     3
 10
10127.34505696642
 20
15558.5585395
 30
0.0
 11
13732.31272496643
 21
15558.5585395
 31
0.0
  0
LINE
  5
4408
  8
2-0
  6
CONTINUOUS
 62
     3
 10
10127.34505696642
 20
14334.321036999971
 30
0.0
 11
13870.811761966441
 21
14334.321036999971
 31
0.0
  0
LINE
  5
4409
  8
2-0
  6
CONTINUOUS
 62
     3
 10
10127.34505696642
 20
14302.318160999979
 30
0.0
 11
13870.811761966441
 21
14302.318160999979
 31
0.0
  0
LINE
  5
440A
  8
2-0
  6
CONTINUOUS
 62
     3
 10
10127.34505696642
 20
14458.318080999959
 30
0.0
 11
13827.81360896644
 21
14458.318080999959
 31
0.0
  0
LINE
  5
440B
  8
2-0
  6
CONTINUOUS
 62
     3
 10
10127.34505696642
 20
14537.319677999971
 30
0.0
 11
13785.31334496644
 21
14537.319677999971
 31
0.0
  0
LINE
  5
440C
  8
2-0
  6
CONTINUOUS
 62
     3
 10
6092.3150999664449
 20
14537.319677999971
 30
0.0
 11
9827.3450569664437
 21
14537.319677999971
 31
0.0
  0
LINE
  5
440D
  8
2-0
  6
CONTINUOUS
 62
     3
 10
6049.8143409664417
 20
14458.318080999959
 30
0.0
 11
9827.3450569664437
 21
14458.318080999959
 31
0.0
  0
LINE
  5
440E
  8
2-0
  6
CONTINUOUS
 62
     3
 10
6006.8132189664429
 20
14334.321036999971
 30
0.0
 11
9827.3450569664437
 21
14334.321036999971
 31
0.0
  0
LINE
  5
440F
  8
2-0
  6
CONTINUOUS
 62
     3
 10
6006.8132189664429
 20
14302.318160999979
 30
0.0
 11
9827.3450569664437
 21
14302.318160999979
 31
0.0
  0
LINE
  5
4410
  8
2-0
  6
CONTINUOUS
 62
     3
 10
10472.29002696643
 20
17326.92837999995
 30
0.0
 11
10472.29002696643
 21
19832.312749999961
 31
0.0
  0
LINE
  5
4411
  8
2-0
  6
CONTINUOUS
 62
     3
 10
10509.289207966431
 20
17312.068133999979
 30
0.0
 11
10509.289207966431
 21
19832.312749999961
 31
0.0
  0
LINE
  5
4412
  8
2-0
  6
CONTINUOUS
 62
     3
 10
10672.288706966439
 20
17241.617278999991
 30
0.0
 11
10672.288706966439
 21
19832.312749999961
 31
0.0
  0
LINE
  5
4413
  8
2-0
  6
CONTINUOUS
 62
     3
 10
10709.288877966441
 20
17226.759012999992
 30
0.0
 11
10709.288877966441
 21
19832.312749999961
 31
0.0
  0
LINE
  5
4414
  8
2-0
  6
CONTINUOUS
 62
     3
 10
10872.289366966441
 20
17161.302271999979
 30
0.0
 11
10872.289366966441
 21
19832.312749999961
 31
0.0
  0
LINE
  5
4415
  8
2-0
  6
CONTINUOUS
 62
     3
 10
10909.28458896644
 20
17146.445984999991
 30
0.0
 11
10909.28458896644
 21
19832.312749999961
 31
0.0
  0
LINE
  5
4416
  8
2-0
  6
CONTINUOUS
 62
     3
 10
11072.286067966441
 20
17080.989244
 30
0.0
 11
11072.286067966441
 21
19832.312749999961
 31
0.0
  0
LINE
  5
4417
  8
2-0
  6
CONTINUOUS
 62
     3
 10
11109.28326996643
 20
17066.130977000001
 30
0.0
 11
11109.28326996643
 21
19832.312749999961
 31
0.0
  0
CIRCLE
  5
4418
  8
0-5
  6
CONTINUOUS
 62
     4
 10
15128.71667799999
 20
1375.9998579999999
 30
0.0
 40
20.0
  0
ARC
  5
4419
  8
0-5
  6
CONTINUOUS
 62
     4
 10
15128.71667799999
 20
1375.9998579999999
 30
0.0
 40
20.0
 50
180.0
 51
0.0
  0
ARC
  5
441A
  8
0-5
  6
CONTINUOUS
 62
     4
 10
15128.71667799999
 20
1375.9998579999999
 30
0.0
 40
20.0
 50
0.0
 51
179.99998499999839
  0
CIRCLE
  5
441B
  8
0-5
  6
CONTINUOUS
 62
     4
 10
15128.71667799999
 20
1776.0000640000001
 30
0.0
 40
20.0
  0
ARC
  5
441C
  8
0-5
  6
CONTINUOUS
 62
     4
 10
15128.71667799999
 20
1776.0000640000001
 30
0.0
 40
20.0
 50
180.0
 51
0.0
  0
ARC
  5
441D
  8
0-5
  6
CONTINUOUS
 62
     4
 10
15128.71667799999
 20
1776.0000640000001
 30
0.0
 40
20.0
 50
0.0
 51
179.99998499999839
  0
CIRCLE
  5
441E
  8
2-0
  6
CONTINUOUS
 62
     4
 10
4562.8153239664416
 20
19629.816444999949
 30
0.0
 40
200.00001
  0
CIRCLE
  5
441F
  8
2-0
  6
CONTINUOUS
 62
     4
 10
4562.8153239664416
 20
17062.316444999979
 30
0.0
 40
200.00001
  0
CIRCLE
  5
4420
  8
2-0
  6
CONTINUOUS
 62
     4
 10
4562.8153239664416
 20
14494.81644499998
 30
0.0
 40
200.00001
  0
ARC
  5
4421
  8
2-0
  6
CONTINUOUS
 62
     3
 10
6011.8134829664423
 20
19847.31802899998
 30
0.0
 40
5.0000010000000001
 50
90.0
 51
180.0
  0
ARC
  5
4422
  8
2-0
  6
CONTINUOUS
 62
     3
 10
6075.3139649664454
 20
19847.31802899998
 30
0.0
 40
5.0000010000000001
 50
0.0
 51
90.0
  0
ARC
  5
4423
  8
2-0
  6
CONTINUOUS
 62
     3
 10
6075.3139649664454
 20
19817.312485999981
 30
0.0
 40
5.0000010000000001
 50
270.0
 51
0.0
  0
ARC
  5
4424
  8
2-0
  6
CONTINUOUS
 62
     3
 10
13865.813476966439
 20
19847.31802899998
 30
0.0
 40
5.0000010000000001
 50
0.0
 51
90.0
  0
ARC
  5
4425
  8
2-0
  6
CONTINUOUS
 62
     3
 10
13802.309531966441
 20
19847.31802899998
 30
0.0
 40
5.0000010000000001
 50
90.0
 51
180.0
  0
ARC
  5
4426
  8
2-0
  6
CONTINUOUS
 62
     3
 10
13802.309531966441
 20
19817.312485999981
 30
0.0
 40
5.0000010000000001
 50
180.0
 51
270.0
  0
CIRCLE
  5
4427
  8
2-0
  6
CONTINUOUS
 62
     4
 10
8659.8200489664432
 20
21072.31473993876
 30
0.0
 40
200.00001
  0
CIRCLE
  5
4428
  8
2-0
  6
CONTINUOUS
 62
     4
 10
6092.3235129664408
 20
21072.31473982305
 30
0.0
 40
200.00001
  0
CIRCLE
  5
4429
  8
2-0
  6
CONTINUOUS
 62
     4
 10
11217.81829396642
 20
21072.31473993876
 30
0.0
 40
200.00001
  0
CIRCLE
  5
442A
  8
2-0
  6
CONTINUOUS
 62
     4
 10
13785.31334496644
 20
21072.314740000002
 30
0.0
 40
200.00001
  0
TEXT
  5
442B
  8
0-5
  6
CONTINUOUS
 62
     7
 10
16669.175069000001
 20
1655.999914999996
 30
0.0
 40
160.0
  1
H
  0
TEXT
  5
442C
  8
0-5
  6
CONTINUOUS
 62
     7
 10
15176.14792299998
 20
1655.999914999996
 30
0.0
 40
160.0
  1
（ ）内寸法ハ、  タ イプヲ示ス。
  0
TEXT
  5
442D
  8
0-5
  6
CONTINUOUS
 62
     7
 10
15288.716216000001
 20
1256.00008
 30
0.0
 40
160.0
  1
有効高サハ、基礎高サヲ含ミマセン。
  0
TEXT
  5
442E
  8
2-0
  6
CONTINUOUS
 62
     7
 10
7891.5050479664433
 20
13714.82079999995
 30
0.0
 40
160.0
  1
鼻隠し前
 50
359.99973399999988
 72
     4
 11
8254.1720860352652
 21
13794.819116291599
 31
0.0
  0
TEXT
  5
442F
  8
2-0
  6
CONTINUOUS
 62
     7
 10
4444.9800259664398
 20
13314.819479999969
 30
0.0
 40
160.0
  1
ケラバ 左
 72
     4
 11
4860.9800259664407
 21
13394.819479999969
 31
0.0
  0
TEXT
  5
4430
  8
2-0
  6
CONTINUOUS
 62
     7
 10
12863.77710696644
 20
14893.90152449999
 30
0.0
 40
160.0
  1
桁（前）
 72
     4
 11
13183.77710696644
 21
14973.90152449999
 31
0.0
  0
TEXT
  5
4431
  8
2-0
  6
CONTINUOUS
 62
     7
 10
8401.6769699664437
 20
20162.318820999972
 30
0.0
 40
160.0
  1
屋根
 72
     4
 11
8572.343636633108
 21
20242.318820999972
 31
0.0
  0
TEXT
  5
4432
  8
2-0
  6
CONTINUOUS
 62
     7
 10
6633.0518439664402
 20
20883.756346999959
 30
0.0
 40
160.0
  1
鼻隠しコーナー後
 72
     4
 11
7379.7185106331071
 21
20963.756346999959
 31
0.0
  0
TEXT
  5
4433
  8
2-0
  6
CONTINUOUS
 62
     7
 10
6336.8410709664386
 20
18939.518725999969
 30
0.0
 40
160.0
  1
上枠
 50
359.99964599999993
 72
     4
 11
6507.5082319070934
 21
19019.517671540321
 31
0.0
  0
TEXT
  5
4434
  8
2-0
  6
CONTINUOUS
 62
     7
 10
4506.8790779664423
 20
19543.452028999949
 30
0.0
 40
160.0
  1
C
 50
0.004253
 72
     4
 11
4560.206472844603
 21
19623.45598765172
 31
0.0
  0
TEXT
  5
4435
  8
2-0
  6
CONTINUOUS
 62
     7
 10
4503.0546479664436
 20
16975.959946999999
 30
0.0
 40
160.0
  1
B
 72
     4
 11
4556.3879812997766
 21
17055.959946999999
 31
0.0
  0
TEXT
  5
4436
  8
2-0
  6
CONTINUOUS
 62
     7
 10
4518.3632549664444
 20
14408.462915999969
 30
0.0
 40
160.0
  1
A
 50
359.99787299999991
 72
     4
 11
4571.6995581152823
 21
14488.460936043341
 31
0.0
  0
TEXT
  5
4437
  8
2-0
  6
CONTINUOUS
 62
     7
 10
7589.32955796644
 20
16327.22518899997
 30
0.0
 40
160.0
  1
梁＋梁補強
 50
359.99978700000008
 72
     4
 11
8047.9965220340418
 21
16407.223483882561
 31
0.0
  0
TEXT
  5
4438
  8
2-0
  6
CONTINUOUS
 62
     7
 10
6689.3265879664477
 20
18012.469316999981
 30
0.0
 40
160.0
  1
桁中B + 桁中補強B
 72
     4
 11
7574.6599212997817
 21
18092.469316999981
 31
0.0
  0
TEXT
  5
4439
  8
2-0
  6
CONTINUOUS
 62
     7
 10
6694.0833709664421
 20
15126.19308050001
 30
0.0
 40
160.0
  1
桁中B + 桁中補強B
 50
359.99987499999992
 72
     4
 11
7579.4168788305942
 21
15206.19114900211
 31
0.0
  0
TEXT
  5
443A
  8
2-0
  6
CONTINUOUS
 62
     7
 10
6752.8023259664478
 20
16699.245023999982
 30
0.0
 40
160.0
  1
桁中A + 桁中補強A
 72
     4
 11
7638.1356592997809
 21
16779.245023999982
 31
0.0
  0
TEXT
  5
443B
  8
2-0
  6
CONTINUOUS
 62
     7
 10
8608.1902459664507
 20
20976.799008938771
 30
0.0
 40
160.0
  1
2
 50
359.998582
 72
     4
 11
8661.5255591849527
 21
21056.797688979928
 31
0.0
  0
TEXT
  5
443C
  8
2-0
  6
CONTINUOUS
 62
     7
 10
6048.1119549664454
 20
20983.557085823049
 30
0.0
 40
160.0
  1
1
 50
359.99574699999999
 72
     4
 11
6074.7845598678878
 21
21063.555106166568
 31
0.0
  0
TEXT
  5
443D
  8
2-1
  6
CONTINUOUS
 62
     7
 10
8453.6848609664412
 20
12382.61223834743
 30
0.0
 40
160.0
  1
小 屋 伏 図
 50
359.99980699999981
 72
     4
 11
8955.0184637757666
 21
12462.61054961294
 31
0.0
  0
TEXT
  5
443E
  8
0-5
  6
CONTINUOUS
 62
     7
 10
11055.91942314193
 20
21016.064802827059
 30
0.0
 40
140.0
  1
n-1
 72
     4
 11
11219.252756475271
 21
21086.064802827059
 31
0.0
  0
TEXT
  5
443F
  8
0-5
  6
CONTINUOUS
 62
     7
 10
13735.045450966431
 20
20986.49667099999
 30
0.0
 40
160.0
  1
n
 72
     4
 11
13788.37878429977
 21
21039.830004333318
 31
0.0
  0
TEXT
  5
4448
  8
0-3
  6
CONTINUOUS
 62
     7
 10
27544.4346805186
 20
3658.1200421350532
 30
0.0
 40
160.0
  1
連結する場合は強度上、下記間口寸法に一ヶ所
  0
TEXT
  5
4449
  8
0-3
  6
CONTINUOUS
 62
     7
 10
27544.4346805186
 20
3451.291530856121
 30
0.0
 40
160.0
  1
中間ブレース、もしくは間仕切りが必要になります。
  0
TEXT
  5
444A
  8
0-3
  6
CONTINUOUS
 62
     7
 10
27544.4346805186
 20
3124.142197938243
 30
0.0
 40
160.0
  1
標準タイプ：間口寸法 7.00ｍ以内に一箇所
  0
TEXT
  5
444B
  8
0-3
  6
CONTINUOUS
 62
     7
 10
27571.745290429761
 20
2873.074148021421
 30
0.0
 40
160.0
  1
Hタイプ　：間口寸法 6.65ｍ以内に一箇所
  0
TEXT
  5
444C
  8
2-0
  6
CONTINUOUS
 62
     7
 10
10306.51064891338
 20
12409.805918612939
 30
0.0
 40
160.0
  1
1
 72
     4
 11
10333.177315580049
 21
12489.805918612939
 31
0.0
  0
TEXT
  5
444D
  8
2-0
  6
CONTINUOUS
 62
     7
 10
10549.59936616408
 20
12329.807386612951
 30
0.0
 40
160.0
  1
80
 72
     4
 11
10669.59936616408
 21
12409.807386612951
 31
0.0
  0
TEXT
  5
444E
  8
2-0
  6
CONTINUOUS
 62
     7
 10
9807.5126149133921
 20
12382.61054961294
 30
0.0
 40
160.0
  1
(S=  /   )
 72
     4
 11
10367.51261491339
 21
12462.61054961294
 31
0.0
  0
TEXT
  5
444F
  8
0-6
  6
CONTINUOUS
 62
     7
 10
6428.5982081112597
 20
20162.308921999971
 30
0.0
 40
160.0
  1
桁後+桁後補強
 72
     4
 11
7063.2648747779267
 21
20242.308921999971
 31
0.0
  0
LINE
  5
4450
  8
0-6
  6
CONTINUOUS
 62
     6
 10
7872.3136159664373
 20
19675.81055899995
 30
0.0
 11
7738.919668085201
 21
20082.310637999981
 31
0.0
  0
LINE
  5
4451
  8
0-6
  6
CONTINUOUS
 62
     6
 10
6379.6795175159768
 20
20082.310637999981
 30
0.0
 11
7738.919668085201
 21
20082.310637999981
 31
0.0
  0
LINE
  5
4452
  8
0-6
  6
CONTINUOUS
 62
     6
 10
7848.7061605991494
 20
19836.291997424902
 30
0.0
 11
7797.9325168262048
 21
19819.95848124013
 31
0.0
  0
LINE
  5
4453
  8
0-6
  6
CONTINUOUS
 62
     6
 10
7848.7061605991494
 20
19836.291997424902
 30
0.0
 11
7872.3136159664373
 21
19675.81055899995
 31
0.0
  0
LINE
  5
4454
  8
0-6
  6
CONTINUOUS
 62
     6
 10
7797.9325168262048
 20
19819.95848124013
 30
0.0
 11
7848.7061605991494
 21
19836.291997424902
 31
0.0
  0
LINE
  5
4455
  8
0-6
  6
CONTINUOUS
 62
     6
 10
7872.3136159664373
 20
19675.81055899995
 30
0.0
 11
7797.9325168262048
 21
19819.95848124013
 31
0.0
  0
LINE
  5
4456
  8
0-6
  6
CONTINUOUS
 62
     6
 10
7872.3136159664373
 20
19675.81055899995
 30
0.0
 11
7848.7061605991494
 21
19836.291997424902
 31
0.0
  0
LINE
  5
4457
  8
0-6
  6
CONTINUOUS
 62
     6
 10
7797.9325168262048
 20
19819.95848124013
 30
0.0
 11
7872.3136159664373
 21
19675.81055899995
 31
0.0
  0
LINE
  5
4458
  8
0-1
  6
CONTINUOUS
 62
     3
 10
7866.8833139999879
 20
8123.7741370000031
 30
0.0
 11
13046.885688999981
 21
8123.7741370000031
 31
0.0
  0
LINE
  5
4459
  8
0-1
  6
CONTINUOUS
 62
     3
 10
7156.8834459999889
 20
6112.7287530000021
 30
0.0
 11
13079.38450099999
 21
6112.7287530000021
 31
0.0
  0
LINE
  5
445A
  8
0-1
  6
CONTINUOUS
 62
     3
 10
7839.3845009999868
 20
6212.7285880000036
 30
0.0
 11
13079.38450099999
 21
6212.7285880000036
 31
0.0
  0
LINE
  5
445B
  8
0-1
  6
CONTINUOUS
 62
     3
 10
7846.8852269999879
 20
8245.7560310000008
 30
0.0
 11
7846.8852269999879
 21
6212.7285880000036
 31
0.0
  0
LINE
  5
445C
  8
0-1
  6
CONTINUOUS
 62
     3
 10
7866.8833139999879
 20
8246.4567800000023
 30
0.0
 11
7866.8833139999879
 21
6212.7285880000036
 31
0.0
  0
LINE
  5
445D
  8
0-1
  6
CONTINUOUS
 62
     3
 10
7839.3845009999868
 20
6112.7287530000021
 30
0.0
 11
7839.3845009999868
 21
6212.7285880000036
 31
0.0
  0
LINE
  5
445E
  8
0-1
  6
CONTINUOUS
 62
     3
 10
13142.16486699999
 20
8430.6529640000081
 30
0.0
 11
13137.61296399998
 21
8560.5737170000066
 31
0.0
  0
LINE
  5
445F
  8
0-1
  6
CONTINUOUS
 62
     3
 10
10529.384368999979
 20
6262.7287530000021
 30
0.0
 11
12951.884632999991
 21
6262.7287530000021
 31
0.0
  0
LINE
  5
4460
  8
0-1
  6
CONTINUOUS
 62
     3
 10
10042.884025999991
 20
6262.7287530000021
 30
0.0
 11
10042.884025999991
 21
8123.7741370000031
 31
0.0
  0
LINE
  5
4461
  8
0-1
  6
CONTINUOUS
 62
     3
 10
10062.885081999981
 20
6262.7287530000021
 30
0.0
 11
10062.885081999981
 21
8123.7741370000031
 31
0.0
  0
LINE
  5
4462
  8
0-1
  6
CONTINUOUS
 62
     3
 10
9992.8853449999879
 20
6262.7287530000021
 30
0.0
 11
9992.8853449999879
 21
8123.7741370000031
 31
0.0
  0
LINE
  5
4463
  8
0-1
  6
CONTINUOUS
 62
     3
 10
10112.88376199999
 20
6262.7287530000021
 30
0.0
 11
10112.88376199999
 21
8123.7741370000031
 31
0.0
  0
LINE
  5
4464
  8
0-1
  6
CONTINUOUS
 62
     3
 10
10245.88266599999
 20
6262.7287530000021
 30
0.0
 11
10245.88266599999
 21
8123.7741370000031
 31
0.0
  0
LINE
  5
4465
  8
0-1
  6
CONTINUOUS
 62
     3
 10
10260.884447999981
 20
6262.7287530000021
 30
0.0
 11
10260.884447999981
 21
8123.7741370000031
 31
0.0
  0
LINE
  5
4466
  8
0-1
  6
CONTINUOUS
 62
     3
 10
9859.8834709999846
 20
6262.7287530000021
 30
0.0
 11
9859.8834709999846
 21
8123.7741370000031
 31
0.0
  0
LINE
  5
4467
  8
0-1
  6
CONTINUOUS
 62
     3
 10
9844.8846589999812
 20
6262.7287530000021
 30
0.0
 11
9844.8846589999812
 21
8123.7741370000031
 31
0.0
  0
LINE
  5
4468
  8
0-1
  6
CONTINUOUS
 62
     3
 10
7961.882389999987
 20
8123.7741370000031
 30
0.0
 11
7961.882389999987
 21
6212.7285880000036
 31
0.0
  0
LINE
  5
4469
  8
0-1
  6
CONTINUOUS
 62
     3
 10
10529.384368999979
 20
8123.7741370000031
 30
0.0
 11
10529.384368999979
 21
6212.7285880000036
 31
0.0
  0
LINE
  5
446A
  8
0-1
  6
CONTINUOUS
 62
     3
 10
10384.384632999991
 20
8123.7741370000031
 30
0.0
 11
10384.384632999991
 21
6212.7285880000036
 31
0.0
  0
LINE
  5
446B
  8
0-1
  6
CONTINUOUS
 62
     3
 10
8642.8843559999877
 20
6262.7287530000021
 30
0.0
 11
8642.8843559999877
 21
8123.7741370000031
 31
0.0
  0
LINE
  5
446C
  8
0-1
  6
CONTINUOUS
 62
     3
 10
8662.884421999981
 20
6262.7287530000021
 30
0.0
 11
8662.884421999981
 21
8123.7741370000031
 31
0.0
  0
LINE
  5
446D
  8
0-1
  6
CONTINUOUS
 62
     3
 10
8592.884685999983
 20
6262.7287530000021
 30
0.0
 11
8592.884685999983
 21
8123.7741370000031
 31
0.0
  0
LINE
  5
446E
  8
0-1
  6
CONTINUOUS
 62
     3
 10
8712.8840919999948
 20
6262.7287530000021
 30
0.0
 11
8712.8840919999948
 21
8123.7741370000031
 31
0.0
  0
LINE
  5
446F
  8
0-1
  6
CONTINUOUS
 62
     3
 10
8845.8849759999903
 20
6262.7287530000021
 30
0.0
 11
8845.8849759999903
 21
8123.7741370000031
 31
0.0
  0
LINE
  5
4470
  8
0-1
  6
CONTINUOUS
 62
     3
 10
8860.8837879999937
 20
6262.7287530000021
 30
0.0
 11
8860.8837879999937
 21
8123.7741370000031
 31
0.0
  0
LINE
  5
4471
  8
0-1
  6
CONTINUOUS
 62
     3
 10
8459.8838009999909
 20
6262.7287530000021
 30
0.0
 11
8459.8838009999909
 21
8123.7741370000031
 31
0.0
  0
LINE
  5
4472
  8
0-1
  6
CONTINUOUS
 62
     3
 10
8444.8830099999905
 20
6262.7287530000021
 30
0.0
 11
8444.8830099999905
 21
8123.7741370000031
 31
0.0
  0
LINE
  5
4473
  8
0-1
  6
CONTINUOUS
 62
     3
 10
9144.8843289999913
 20
6262.7287530000021
 30
0.0
 11
9144.8843289999913
 21
8123.7741370000031
 31
0.0
  0
LINE
  5
4474
  8
0-1
  6
CONTINUOUS
 62
     3
 10
9159.8831419999915
 20
6262.7287530000021
 30
0.0
 11
9159.8831419999915
 21
8123.7741370000031
 31
0.0
  0
LINE
  5
4475
  8
0-1
  6
CONTINUOUS
 62
     3
 10
9560.8851079999913
 20
6262.7287530000021
 30
0.0
 11
9560.8851079999913
 21
8123.7741370000031
 31
0.0
  0
LINE
  5
4476
  8
0-1
  6
CONTINUOUS
 62
     3
 10
9545.8843159999742
 20
6262.7287530000021
 30
0.0
 11
9545.8843159999742
 21
8123.7741370000031
 31
0.0
  0
LINE
  5
4477
  8
0-1
  6
CONTINUOUS
 62
     3
 10
9412.8834319999805
 20
6262.7287530000021
 30
0.0
 11
9412.8834319999805
 21
8123.7741370000031
 31
0.0
  0
LINE
  5
4478
  8
0-1
  6
CONTINUOUS
 62
     3
 10
9292.8840259999943
 20
6262.7287530000021
 30
0.0
 11
9292.8840259999943
 21
8123.7741370000031
 31
0.0
  0
LINE
  5
4479
  8
0-1
  6
CONTINUOUS
 62
     3
 10
9362.8837619999904
 20
6262.7287530000021
 30
0.0
 11
9362.8837619999904
 21
8123.7741370000031
 31
0.0
  0
LINE
  5
447A
  8
0-1
  6
CONTINUOUS
 62
     3
 10
9342.8846859999885
 20
6262.7287530000021
 30
0.0
 11
9342.8846859999885
 21
8123.7741370000031
 31
0.0
  0
LINE
  5
447B
  8
0-1
  6
CONTINUOUS
 62
     3
 10
9684.3843029999916
 20
8123.7741370000031
 30
0.0
 11
9684.3843029999916
 21
6262.7287530000021
 31
0.0
  0
LINE
  5
447C
  8
0-1
  6
CONTINUOUS
 62
     3
 10
9721.3844739999804
 20
8123.7741370000031
 30
0.0
 11
9721.3844739999804
 21
6262.7287530000021
 31
0.0
  0
LINE
  5
447D
  8
0-1
  6
CONTINUOUS
 62
     3
 10
8284.3836429999865
 20
8123.7741370000031
 30
0.0
 11
8284.3836429999865
 21
6262.7287530000021
 31
0.0
  0
LINE
  5
447E
  8
0-1
  6
CONTINUOUS
 62
     3
 10
8321.3848039999903
 20
8123.7741370000031
 30
0.0
 11
8321.3848039999903
 21
6262.7287530000021
 31
0.0
  0
LINE
  5
447F
  8
0-1
  6
CONTINUOUS
 62
     3
 10
8984.3829829999868
 20
8123.7741370000031
 30
0.0
 11
8984.3829829999868
 21
6262.7287530000021
 31
0.0
  0
LINE
  5
4480
  8
0-1
  6
CONTINUOUS
 62
     3
 10
9021.3851339999874
 20
8123.7741370000031
 30
0.0
 11
9021.3851339999874
 21
6262.7287530000021
 31
0.0
  0
LINE
  5
4481
  8
0-1
  6
CONTINUOUS
 62
     3
 10
7961.882389999987
 20
6262.7287530000021
 30
0.0
 11
10384.384632999991
 21
6262.7287530000021
 31
0.0
  0
LINE
  5
4482
  8
0-1
  6
CONTINUOUS
 62
     3
 10
10456.88450099999
 20
8336.8871270000054
 30
0.0
 11
10452.33061799998
 21
8466.8059010000015
 31
0.0
  0
LINE
  5
4483
  8
0-1
  6
CONTINUOUS
 62
     3
 10
10456.88450099999
 20
8336.8871270000054
 30
0.0
 11
10456.88450099999
 21
8123.7741370000031
 31
0.0
  0
LINE
  5
4484
  8
0-1
  6
CONTINUOUS
 62
     3
 10
12951.884632999991
 20
8123.7741370000031
 30
0.0
 11
12951.884632999991
 21
6212.7285880000036
 31
0.0
  0
LINE
  5
4485
  8
0-1
  6
CONTINUOUS
 62
     3
 10
13066.88476499999
 20
8428.0152550000057
 30
0.0
 11
13066.88476499999
 21
6212.7285880000036
 31
0.0
  0
LINE
  5
4486
  8
0-1
  6
CONTINUOUS
 62
     3
 10
13046.885688999981
 20
8427.3145060000024
 30
0.0
 11
13046.885688999981
 21
6212.7285880000036
 31
0.0
  0
LINE
  5
4487
  8
0-1
  6
CONTINUOUS
 62
     3
 10
11892.38287799998
 20
8123.7741370000031
 30
0.0
 11
11892.38287799998
 21
6262.7287530000021
 31
0.0
  0
LINE
  5
4488
  8
0-1
  6
CONTINUOUS
 62
     3
 10
11929.38403899999
 20
8123.7741370000031
 30
0.0
 11
11929.38403899999
 21
6262.7287530000021
 31
0.0
  0
LINE
  5
4489
  8
0-1
  6
CONTINUOUS
 62
     3
 10
12592.38518699998
 20
8123.7741370000031
 30
0.0
 11
12592.38518699998
 21
6262.7287530000021
 31
0.0
  0
LINE
  5
448A
  8
0-1
  6
CONTINUOUS
 62
     3
 10
12629.383378999981
 20
8123.7741370000031
 30
0.0
 11
12629.383378999981
 21
6262.7287530000021
 31
0.0
  0
LINE
  5
448B
  8
0-1
  6
CONTINUOUS
 62
     3
 10
11192.383536999991
 20
8123.7741370000031
 30
0.0
 11
11192.383536999991
 21
6262.7287530000021
 31
0.0
  0
LINE
  5
448C
  8
0-1
  6
CONTINUOUS
 62
     3
 10
11229.383708999991
 20
8123.7741370000031
 30
0.0
 11
11229.383708999991
 21
6262.7287530000021
 31
0.0
  0
LINE
  5
448D
  8
0-1
  6
CONTINUOUS
 62
     3
 10
11570.883325999979
 20
6262.7287530000021
 30
0.0
 11
11570.883325999979
 21
8123.7741370000031
 31
0.0
  0
LINE
  5
448E
  8
0-1
  6
CONTINUOUS
 62
     3
 10
11550.884249999979
 20
6262.7287530000021
 30
0.0
 11
11550.884249999979
 21
8123.7741370000031
 31
0.0
  0
LINE
  5
448F
  8
0-1
  6
CONTINUOUS
 62
     3
 10
11620.884975999979
 20
6262.7287530000021
 30
0.0
 11
11620.884975999979
 21
8123.7741370000031
 31
0.0
  0
LINE
  5
4490
  8
0-1
  6
CONTINUOUS
 62
     3
 10
11500.883589999979
 20
6262.7287530000021
 30
0.0
 11
11500.883589999979
 21
8123.7741370000031
 31
0.0
  0
LINE
  5
4491
  8
0-1
  6
CONTINUOUS
 62
     3
 10
11367.88468599999
 20
6262.7287530000021
 30
0.0
 11
11367.88468599999
 21
8123.7741370000031
 31
0.0
  0
LINE
  5
4492
  8
0-1
  6
CONTINUOUS
 62
     3
 10
11352.883893999981
 20
6262.7287530000021
 30
0.0
 11
11352.883893999981
 21
8123.7741370000031
 31
0.0
  0
LINE
  5
4493
  8
0-1
  6
CONTINUOUS
 62
     3
 10
11753.883880999991
 20
6262.7287530000021
 30
0.0
 11
11753.883880999991
 21
8123.7741370000031
 31
0.0
  0
LINE
  5
4494
  8
0-1
  6
CONTINUOUS
 62
     3
 10
11768.88269299999
 20
6262.7287530000021
 30
0.0
 11
11768.88269299999
 21
8123.7741370000031
 31
0.0
  0
LINE
  5
4495
  8
0-1
  6
CONTINUOUS
 62
     3
 10
12468.885001999981
 20
6262.7287530000021
 30
0.0
 11
12468.885001999981
 21
8123.7741370000031
 31
0.0
  0
LINE
  5
4496
  8
0-1
  6
CONTINUOUS
 62
     3
 10
12453.88322099998
 20
6262.7287530000021
 30
0.0
 11
12453.88322099998
 21
8123.7741370000031
 31
0.0
  0
LINE
  5
4497
  8
0-1
  6
CONTINUOUS
 62
     3
 10
12052.88422399999
 20
6262.7287530000021
 30
0.0
 11
12052.88422399999
 21
8123.7741370000031
 31
0.0
  0
LINE
  5
4498
  8
0-1
  6
CONTINUOUS
 62
     3
 10
12067.88303599999
 20
6262.7287530000021
 30
0.0
 11
12067.88303599999
 21
8123.7741370000031
 31
0.0
  0
LINE
  5
4499
  8
0-1
  6
CONTINUOUS
 62
     3
 10
12200.882929999991
 20
6262.7287530000021
 30
0.0
 11
12200.882929999991
 21
8123.7741370000031
 31
0.0
  0
LINE
  5
449A
  8
0-1
  6
CONTINUOUS
 62
     3
 10
12320.88332599999
 20
6262.7287530000021
 30
0.0
 11
12320.88332599999
 21
8123.7741370000031
 31
0.0
  0
LINE
  5
449B
  8
0-1
  6
CONTINUOUS
 62
     3
 10
12250.88358999999
 20
6262.7287530000021
 30
0.0
 11
12250.88358999999
 21
8123.7741370000031
 31
0.0
  0
LINE
  5
449C
  8
0-1
  6
CONTINUOUS
 62
     3
 10
12270.88266599999
 20
6262.7287530000021
 30
0.0
 11
12270.88266599999
 21
8123.7741370000031
 31
0.0
  0
LINE
  5
449D
  8
0-1
  6
CONTINUOUS
 62
     3
 10
11068.883352999979
 20
6262.7287530000021
 30
0.0
 11
11068.883352999979
 21
8123.7741370000031
 31
0.0
  0
LINE
  5
449E
  8
0-1
  6
CONTINUOUS
 62
     3
 10
11053.883550999981
 20
6262.7287530000021
 30
0.0
 11
11053.883550999981
 21
8123.7741370000031
 31
0.0
  0
LINE
  5
449F
  8
0-1
  6
CONTINUOUS
 62
     3
 10
10652.884553999969
 20
6262.7287530000021
 30
0.0
 11
10652.884553999969
 21
8123.7741370000031
 31
0.0
  0
LINE
  5
44A0
  8
0-1
  6
CONTINUOUS
 62
     3
 10
10667.885344999981
 20
6262.7287530000021
 30
0.0
 11
10667.885344999981
 21
8123.7741370000031
 31
0.0
  0
LINE
  5
44A1
  8
0-1
  6
CONTINUOUS
 62
     3
 10
10800.88424999999
 20
6262.7287530000021
 30
0.0
 11
10800.88424999999
 21
8123.7741370000031
 31
0.0
  0
LINE
  5
44A2
  8
0-1
  6
CONTINUOUS
 62
     3
 10
10920.883655999991
 20
6262.7287530000021
 30
0.0
 11
10920.883655999991
 21
8123.7741370000031
 31
0.0
  0
LINE
  5
44A3
  8
0-1
  6
CONTINUOUS
 62
     3
 10
10850.883919999969
 20
6262.7287530000021
 30
0.0
 11
10850.883919999969
 21
8123.7741370000031
 31
0.0
  0
LINE
  5
44A4
  8
0-1
  6
CONTINUOUS
 62
     3
 10
10870.883985999981
 20
6262.7287530000021
 30
0.0
 11
10870.883985999981
 21
8123.7741370000031
 31
0.0
  0
LINE
  5
44A5
  8
0-1
  6
CONTINUOUS
 62
     3
 10
13079.38450099999
 20
6212.7285880000036
 30
0.0
 11
13079.38450099999
 21
6112.7287530000021
 31
0.0
  0
LINE
  5
44A6
  8
0-1
  6
CONTINUOUS
 62
     3
 10
7669.7569149999899
 20
8287.5792990000027
 30
0.0
 11
7668.5642549999893
 21
8321.5567460000057
 31
0.0
  0
LINE
  5
44A7
  8
0-1
  6
CONTINUOUS
 62
     3
 10
7671.4583109999912
 20
8324.6606310000025
 30
0.0
 11
13151.18256399999
 21
8516.0206920000037
 31
0.0
  0
LINE
  5
44A8
  8
0-1
  6
CONTINUOUS
 62
     3
 10
13152.582083999991
 20
8476.0472840000057
 30
0.0
 11
7672.8588209999898
 21
8284.6852430000054
 31
0.0
  0
LINE
  5
44A9
  8
0-1
  6
CONTINUOUS
 62
     3
 10
7670.1419309999928
 20
8276.5850530000062
 30
0.0
 11
7670.13896199999
 21
8276.6503770000054
 31
0.0
  0
LINE
  5
44AA
  8
0-1
  6
CONTINUOUS
 62
     3
 10
7670.13896199999
 20
8276.6503770000054
 30
0.0
 11
7671.2623389999917
 21
8244.6059300000052
 31
0.0
  0
LINE
  5
44AB
  8
0-1
  6
CONTINUOUS
 62
     3
 10
7676.4338309999894
 20
8239.7828330000029
 30
0.0
 11
13175.12583099997
 21
8431.8080130000053
 31
0.0
  0
LINE
  5
44AC
  8
0-1
  6
CONTINUOUS
 62
     3
 10
13170.57392799998
 20
8561.7277760000106
 30
0.0
 11
7671.8819279999898
 21
8369.7035870000018
 31
0.0
  0
LINE
  5
44AD
  8
0-1
  6
CONTINUOUS
 62
     3
 10
7667.0588309999903
 20
8364.5311040000051
 30
0.0
 11
7668.1792389999891
 21
8332.5519820000027
 31
0.0
  0
LINE
  5
44AE
  8
0-1
  6
CONTINUOUS
 62
     3
 10
7671.2841139999919
 20
8329.6579260000017
 30
0.0
 11
13151.00638699999
 21
8521.0179870000047
 31
0.0
  0
LINE
  5
44AF
  8
0-1
  6
CONTINUOUS
 62
     3
 10
13152.75727099998
 20
8471.0499890000065
 30
0.0
 11
7673.0340079999924
 21
8279.6879480000025
 31
0.0
  0
LINE
  5
44B0
  8
0-1
  6
CONTINUOUS
 62
     3
 10
7684.373679999987
 20
8370.1410600000017
 30
0.0
 11
7688.9265729999879
 21
8240.2203070000032
 31
0.0
  0
LINE
  5
44B1
  8
0-5
  6
CONTINUOUS
 62
     4
 10
7889.3845009999868
 20
4432.7286540000014
 30
0.0
 11
7889.3845009999868
 21
4272.728621000002
 31
0.0
  0
LINE
  5
44B2
  8
0-5
  6
CONTINUOUS
 62
     4
 10
10456.88450099999
 20
4432.7286540000014
 30
0.0
 11
10456.88450099999
 21
4272.728621000002
 31
0.0
  0
LINE
  5
44B3
  8
0-5
  6
CONTINUOUS
 62
     4
 10
13024.38450099999
 20
4432.7286540000014
 30
0.0
 11
13024.38450099999
 21
4272.728621000002
 31
0.0
  0
LINE
  5
44B4
  8
2-0
  6
CENTER2
 62
     6
 10
7889.3845009999868
 20
5850.0753400000012
 30
0.0
 11
7889.3845009999868
 21
6907.2184330000036
 31
0.0
  0
LINE
  5
44B5
  8
2-0
  6
CENTER2
 62
     6
 10
10456.88450099999
 20
5850.0753400000012
 30
0.0
 11
10456.88450099999
 21
6907.2184330000036
 31
0.0
  0
LINE
  5
44B6
  8
2-0
  6
CENTER2
 62
     6
 10
13024.38450099999
 20
5850.0753400000012
 30
0.0
 11
13024.38450099999
 21
6907.2184330000036
 31
0.0
  0
ARC
  5
44B7
  8
0-1
  6
CONTINUOUS
 62
     3
 10
7674.4454049999867
 20
8282.239548000005
 30
0.0
 40
2.5
 50
272.00698899981808
 51
92.006988999818205
  0
ARC
  5
44B8
  8
0-1
  6
CONTINUOUS
 62
     3
 10
7672.8706979999979
 20
8327.2132200000069
 30
0.0
 40
2.5
 50
272.00698899981808
 51
92.006988999818205
  0
ARC
  5
44B9
  8
0-1
  6
CONTINUOUS
 62
     3
 10
7671.5632259999929
 20
8321.6616600000052
 30
0.0
 40
3.0
 50
92.006988999818205
 51
182.0069889999746
  0
ARC
  5
44BA
  8
0-1
  6
CONTINUOUS
 62
     3
 10
13151.881333999991
 20
8496.0334929999954
 30
0.0
 40
20.0
 50
272.00698899981808
 51
92.006988999818205
  0
ARC
  5
44BB
  8
0-1
  6
CONTINUOUS
 62
     3
 10
7672.753905999989
 20
8287.6842140000062
 30
0.0
 40
3.0
 50
182.0069889999746
 51
272.00698899981808
  0
ARC
  5
44BC
  8
0-1
  6
CONTINUOUS
 62
     3
 10
7673.1389219999919
 20
8276.6909570000025
 30
0.0
 40
3.0
 50
92.006988999818205
 51
182.0069889999746
  0
ARC
  5
44BD
  8
0-1
  6
CONTINUOUS
 62
     3
 10
7676.259632999986
 20
8244.7801280000076
 30
0.0
 40
5.0
 50
182.0069889999746
 51
272.00698899981808
  0
ARC
  5
44BE
  8
0-1
  6
CONTINUOUS
 62
     3
 10
13146.88502899999
 20
8495.8592950000057
 30
0.0
 40
69.999999000000003
 50
293.79377700003289
 51
70.220199999983819
  0
ARC
  5
44BF
  8
0-1
  6
CONTINUOUS
 62
     3
 10
7672.0561259999931
 20
8364.7062920000026
 30
0.0
 40
5.0
 50
92.006988999818205
 51
182.0069889999746
  0
ARC
  5
44C0
  8
0-1
  6
CONTINUOUS
 62
     3
 10
7671.1772199999914
 20
8332.6559070000058
 30
0.0
 40
3.0
 50
182.0069889999746
 51
272.00698899981808
  0
ARC
  5
44C1
  8
0-1
  6
CONTINUOUS
 62
     3
 10
13151.881333999991
 20
8496.0334929999954
 30
0.0
 40
24.999998999999999
 50
272.00698899981808
 51
92.006988999818205
  0
CIRCLE
  5
44C2
  8
0-5
  6
CONTINUOUS
 62
     4
 10
7889.3845009999868
 20
4072.727961000001
 30
0.0
 40
199.9999949999999
  0
CIRCLE
  5
44C3
  8
0-5
  6
CONTINUOUS
 62
     4
 10
13024.38450099999
 20
4072.727961000001
 30
0.0
 40
199.9999949999999
  0
CIRCLE
  5
44C4
  8
0-5
  6
CONTINUOUS
 62
     4
 10
10456.88450099999
 20
4072.727961000001
 30
0.0
 40
199.9999949999999
  0
TEXT
  5
44C5
  8
0-5
  6
CONTINUOUS
 62
     7
 10
7835.1885248541957
 20
3985.4740166382039
 30
0.0
 40
160.0
  1
C
 72
     4
 11
7888.5218581875288
 21
4065.4740166382039
 31
0.0
  0
TEXT
  5
44C6
  8
0-5
  6
CONTINUOUS
 62
     7
 10
10402.68753385417
 20
3985.4740166382039
 30
0.0
 40
160.0
  1
B
 72
     4
 11
10456.02086718751
 21
4065.4740166382039
 31
0.0
  0
TEXT
  5
44C7
  8
0-5
  6
CONTINUOUS
 62
     7
 10
12970.18654485419
 20
3985.4740166382039
 30
0.0
 40
160.0
  1
A
 72
     4
 11
13023.51987818753
 21
4065.4740166382039
 31
0.0
  0
TEXT
  5
44C8
  8
2-0
  6
CONTINUOUS
 62
     7
 10
8987.9362189999865
 20
3325.5611470000022
 30
0.0
 40
160.0
  1
側 面 立 面 図
 72
     4
 11
9633.2695523333205
 21
3405.5611470000022
 31
0.0
  0
TEXT
  5
44C9
  8
2-0
  6
CONTINUOUS
 62
     7
 10
10984.761737470941
 20
3352.7565160000031
 30
0.0
 40
160.0
  1
1
 72
     4
 11
11011.42840413761
 21
3432.7565160000031
 31
0.0
  0
TEXT
  5
44CA
  8
2-0
  6
CONTINUOUS
 62
     7
 10
11227.850454721631
 20
3272.7579840000039
 30
0.0
 40
160.0
  1
80
 72
     4
 11
11347.850454721631
 21
3352.757984000003
 31
0.0
  0
TEXT
  5
44CB
  8
2-0
  6
CONTINUOUS
 62
     7
 10
10485.763703470941
 20
3325.5611470000022
 30
0.0
 40
160.0
  1
(S=  /   )
 72
     4
 11
11045.763703470941
 21
3405.5611470000022
 31
0.0
  0
LINE
  5
44CC
  8
0-1
  6
CONTINUOUS
 62
     3
 10
8151.3827579999979
 20
6262.7287530000021
 30
0.0
 11
8151.3827579999979
 21
8123.7741370000031
 31
0.0
  0
LINE
  5
44CD
  8
0-1
  6
CONTINUOUS
 62
     3
 10
8136.3819669999984
 20
6262.7287530000021
 30
0.0
 11
8136.3819669999984
 21
8123.7741370000031
 31
0.0
  0
LINE
  5
44CE
  8
0-1
  6
CONTINUOUS
 62
     3
 10
12777.38505499999
 20
6262.7287530000021
 30
0.0
 11
12777.38505499999
 21
8123.7741370000031
 31
0.0
  0
LINE
  5
44CF
  8
0-1
  6
CONTINUOUS
 62
     3
 10
12762.383273999971
 20
6262.7287530000021
 30
0.0
 11
12762.383273999971
 21
8123.7741370000031
 31
0.0
  0
LINE
  5
44D0
  8
0-5
  6
CONTINUOUS
 62
     4
 10
13159.38476500001
 20
6212.7285880000036
 30
0.0
 11
14876.844713
 21
6212.7285880000036
 31
0.0
  0
LINE
  5
44D1
  8
0-5
  6
CONTINUOUS
 62
     4
 10
14904.470874000001
 20
6420.5745750000024
 30
0.0
 11
14664.469092999991
 21
6420.5745750000024
 31
0.0
  0
LINE
  5
44D2
  8
0-5
  6
CONTINUOUS
 62
     4
 10
14784.468499000001
 20
6212.7285880000036
 30
0.0
 11
14904.470874000001
 21
6420.5745750000024
 31
0.0
  0
LINE
  5
44D3
  8
0-5
  6
CONTINUOUS
 62
     4
 10
14664.469092999991
 20
6420.5745750000024
 30
0.0
 11
14784.468499000001
 21
6212.7285880000036
 31
0.0
  0
TEXT
  5
44D4
  8
0-0
  6
CONTINUOUS
 62
     7
 10
14325.377559999981
 20
6500.574838999999
 30
0.0
 40
160.0
  1
布基礎天端
 72
     4
 11
14784.044226666651
 21
6580.574838999999
 31
0.0
  0
LINE
  5
44DF
  8
0-1
  6
CONTINUOUS
 62
     3
 10
25612.67678399997
 20
6212.7285879999999
 30
0.0
 11
25512.67744299996
 21
6212.7285879999999
 31
0.0
  0
LINE
  5
44E0
  8
0-1
  6
CONTINUOUS
 62
     3
 10
25512.67744299996
 20
6212.7285879999999
 30
0.0
 11
25512.67744299996
 21
6112.7287530000012
 31
0.0
  0
LINE
  5
44E1
  8
0-1
  6
CONTINUOUS
 62
     3
 10
25612.67678399997
 20
6112.7287530000012
 30
0.0
 11
25612.67678399997
 21
6212.7285879999999
 31
0.0
  0
LINE
  5
44E2
  8
0-1
  6
CONTINUOUS
 62
     3
 10
25585.17731099997
 20
8561.2289369999999
 30
0.0
 11
25585.17731099997
 21
6212.7285879999999
 31
0.0
  0
LINE
  5
44E3
  8
0-1
  6
CONTINUOUS
 62
     3
 10
25605.17638799996
 20
8431.2280139999984
 30
0.0
 11
25605.17638799996
 21
6212.7285879999999
 31
0.0
  0
LINE
  5
44E4
  8
0-1
  6
CONTINUOUS
 62
     3
 10
25475.17744299995
 20
8120.7286469999981
 30
0.0
 11
25475.17744299995
 21
6112.7287530000012
 31
0.0
  0
LINE
  5
44E5
  8
0-1
  6
CONTINUOUS
 62
     3
 10
25520.17783899996
 20
8431.2280139999984
 30
0.0
 11
25520.17783899996
 21
6212.7285879999999
 31
0.0
  0
LINE
  5
44F0
  8
0-1
  6
CONTINUOUS
 62
     3
 10
22150.12755999999
 20
7546.4450679999973
 30
0.0
 11
21904.28322899999
 21
7731.8858739999978
 31
0.0
  0
LINE
  5
44F1
  8
0-1
  6
CONTINUOUS
 62
     3
 10
21762.15973399999
 20
7463.3127109999969
 30
0.0
 11
21604.283229000001
 21
7582.4020330000021
 31
0.0
  0
LINE
  5
44F2
  8
0-1
  6
CONTINUOUS
 62
     3
 10
21544.177126999981
 20
6933.6326340000023
 30
0.0
 11
22150.12755999999
 21
7546.4450679999973
 31
0.0
  0
LINE
  5
44F9
  8
0-1
  6
CONTINUOUS
 62
     3
 10
21598.404058999979
 20
6892.728852000002
 30
0.0
 11
22907.677444000001
 21
6892.728852000002
 31
0.0
  0
LINE
  5
44FA
  8
0-1
  6
CONTINUOUS
 62
     3
 10
21568.00261299999
 20
6957.7288190000027
 30
0.0
 11
22907.677444000001
 21
6957.7288190000027
 31
0.0
  0
LINE
  5
44FB
  8
0-1
  6
CONTINUOUS
 62
     3
 10
21632.27560099999
 20
7022.7287859999997
 30
0.0
 11
22907.677444000001
 21
7022.7287859999997
 31
0.0
  0
LINE
  5
44FC
  8
0-1
  6
CONTINUOUS
 62
     3
 10
21696.548589999991
 20
7087.7292480000024
 30
0.0
 11
22907.677444000001
 21
7087.7292480000024
 31
0.0
  0
LINE
  5
44FD
  8
0-1
  6
CONTINUOUS
 62
     3
 10
21760.81959899998
 20
7152.7282250000007
 30
0.0
 11
22907.677444000001
 21
7152.7282250000007
 31
0.0
  0
LINE
  5
44FE
  8
0-1
  6
CONTINUOUS
 62
     3
 10
21825.092587999981
 20
7217.7286870000007
 30
0.0
 11
22907.677444000001
 21
7217.7286870000007
 31
0.0
  0
LINE
  5
44FF
  8
0-1
  6
CONTINUOUS
 62
     3
 10
21889.363597999982
 20
7282.7286539999968
 30
0.0
 11
22907.677444000001
 21
7282.7286539999968
 31
0.0
  0
LINE
  5
4500
  8
0-1
  6
CONTINUOUS
 62
     3
 10
21953.636585999979
 20
7347.7291160000004
 30
0.0
 11
22907.677444000001
 21
7347.7291160000004
 31
0.0
  0
LINE
  5
4501
  8
0-1
  6
CONTINUOUS
 62
     3
 10
22017.90759599999
 20
7412.7280929999979
 30
0.0
 11
22907.677444000001
 21
7412.7280929999979
 31
0.0
  0
LINE
  5
4502
  8
0-1
  6
CONTINUOUS
 62
     3
 10
22082.180583999991
 20
7477.7285550000033
 30
0.0
 11
22907.677444000001
 21
7477.7285550000033
 31
0.0
  0
LINE
  5
4503
  8
0-1
  6
CONTINUOUS
 62
     3
 10
22146.451593999991
 20
7542.7285220000031
 30
0.0
 11
22907.677444000001
 21
7542.7285220000031
 31
0.0
  0
LINE
  5
4504
  8
0-1
  6
CONTINUOUS
 62
     3
 10
22068.882178999971
 20
7607.7284890000019
 30
0.0
 11
22907.677444000001
 21
7607.7284890000019
 31
0.0
  0
LINE
  5
4505
  8
0-1
  6
CONTINUOUS
 62
     3
 10
21982.707795999992
 20
7672.7289510000028
 30
0.0
 11
22907.677444000001
 21
7672.7289510000028
 31
0.0
  0
LINE
  5
4506
  8
0-1
  6
CONTINUOUS
 62
     3
 10
21904.28322899999
 20
7737.7289180000007
 30
0.0
 11
22907.677444000001
 21
7737.7289180000007
 31
0.0
  0
LINE
  5
4507
  8
0-1
  6
CONTINUOUS
 62
     3
 10
21904.28322899999
 20
7802.7293799999989
 30
0.0
 11
22907.677444000001
 21
7802.7293799999989
 31
0.0
  0
LINE
  5
4508
  8
0-1
  6
CONTINUOUS
 62
     3
 10
21904.28322899999
 20
7867.7283569999972
 30
0.0
 11
22907.677444000001
 21
7867.7283569999972
 31
0.0
  0
LINE
  5
4509
  8
0-1
  6
CONTINUOUS
 62
     3
 10
21904.28322899999
 20
7932.7288190000027
 30
0.0
 11
22907.677444000001
 21
7932.7288190000027
 31
0.0
  0
LINE
  5
450A
  8
0-1
  6
CONTINUOUS
 62
     3
 10
21904.28322899999
 20
7997.7287859999969
 30
0.0
 11
22907.677444000001
 21
7997.7287859999969
 31
0.0
  0
LINE
  5
450B
  8
0-1
  6
CONTINUOUS
 62
     3
 10
21904.28322899999
 20
8052.1883109999999
 30
0.0
 11
22907.677444000001
 21
8052.1883109999999
 31
0.0
  0
LINE
  5
450C
  8
0-1
  6
CONTINUOUS
 62
     3
 10
21904.28322899999
 20
8120.7286469999981
 30
0.0
 11
23710.67113599999
 21
8120.7286469999981
 31
0.0
  0
LINE
  5
450F
  8
0-1
  6
CONTINUOUS
 62
     3
 10
21904.28322899999
 20
6662.0030939999988
 30
0.0
 11
21904.28322899999
 21
5695.3695289999996
 31
0.0
  0
LINE
  5
4510
  8
0-1
  6
CONTINUOUS
 62
     3
 10
21604.283229000001
 20
6512.5172739999998
 30
0.0
 11
21604.283229000001
 21
5695.3695289999996
 31
0.0
  0
LINE
  5
4511
  8
0-1
  6
CONTINUOUS
 62
     3
 10
21904.28322899999
 20
6177.7282249999998
 30
0.0
 11
22907.677444000001
 21
6177.7282249999998
 31
0.0
  0
LINE
  5
4512
  8
0-1
  6
CONTINUOUS
 62
     3
 10
21904.28322899999
 20
6242.7291820000009
 30
0.0
 11
22907.677444000001
 21
6242.7291820000009
 31
0.0
  0
LINE
  5
4513
  8
0-1
  6
CONTINUOUS
 62
     3
 10
21904.28322899999
 20
6307.7281590000002
 30
0.0
 11
22907.677444000001
 21
6307.7281590000002
 31
0.0
  0
LINE
  5
4514
  8
0-1
  6
CONTINUOUS
 62
     3
 10
21904.28322899999
 20
6437.7285880000027
 30
0.0
 11
22907.677444000001
 21
6437.7285880000027
 31
0.0
  0
LINE
  5
4515
  8
0-1
  6
CONTINUOUS
 62
     3
 10
21904.28322899999
 20
6372.7291160000023
 30
0.0
 11
22907.677444000001
 21
6372.7291160000023
 31
0.0
  0
LINE
  5
4516
  8
0-1
  6
CONTINUOUS
 62
     3
 10
21904.28322899999
 20
6502.7285549999997
 30
0.0
 11
22907.677444000001
 21
6502.7285549999997
 31
0.0
  0
LINE
  5
4517
  8
0-1
  6
CONTINUOUS
 62
     3
 10
21904.28322899999
 20
6567.7285220000022
 30
0.0
 11
22907.677444000001
 21
6567.7285220000022
 31
0.0
  0
LINE
  5
4518
  8
0-1
  6
CONTINUOUS
 62
     3
 10
21904.28322899999
 20
6632.7279940000008
 30
0.0
 11
22907.677444000001
 21
6632.7279940000008
 31
0.0
  0
LINE
  5
4519
  8
0-1
  6
CONTINUOUS
 62
     3
 10
21856.92126799998
 20
6697.7294460000012
 30
0.0
 11
22907.677444000001
 21
6697.7294460000012
 31
0.0
  0
LINE
  5
451A
  8
0-1
  6
CONTINUOUS
 62
     3
 10
21770.746884999979
 20
6762.7284230000032
 30
0.0
 11
22907.677444000001
 21
6762.7284230000032
 31
0.0
  0
LINE
  5
451B
  8
0-1
  6
CONTINUOUS
 62
     3
 10
21684.574481999982
 20
6827.7288849999986
 30
0.0
 11
22907.677444000001
 21
6827.7288849999986
 31
0.0
  0
LINE
  5
451C
  8
0-1
  6
CONTINUOUS
 62
     3
 10
22952.677839999971
 20
8431.2280139999984
 30
0.0
 11
22952.677839999971
 21
6112.7287530000012
 31
0.0
  0
LINE
  5
451D
  8
0-1
  6
CONTINUOUS
 62
     3
 10
23037.674407999992
 20
8431.2280139999984
 30
0.0
 11
23037.674407999992
 21
6112.7287530000012
 31
0.0
  0
LINE
  5
451E
  8
0-1
  6
CONTINUOUS
 62
     3
 10
23082.674803999998
 20
8120.7286469999981
 30
0.0
 11
23082.674803999998
 21
6112.7287530000012
 31
0.0
  0
LINE
  5
451F
  8
0-1
  6
CONTINUOUS
 62
     3
 10
22907.677444000001
 20
8120.7286469999981
 30
0.0
 11
22907.677444000001
 21
6112.7287530000012
 31
0.0
  0
LINE
  5
4520
  8
0-1
  6
CONTINUOUS
 62
     3
 10
21904.28322899999
 20
6662.0030939999988
 30
0.0
 11
21544.177126999981
 21
6933.6326340000023
 31
0.0
  0
LINE
  5
4523
  8
0-1
  6
CONTINUOUS
 62
     3
 10
23082.674803999998
 20
8052.1883109999999
 30
0.0
 11
25475.17744299995
 21
8052.1883109999999
 31
0.0
  0
LINE
  5
4524
  8
0-1
  6
CONTINUOUS
 62
     3
 10
23082.674803999998
 20
6697.7294460000012
 30
0.0
 11
25475.17744299995
 21
6697.7294460000012
 31
0.0
  0
LINE
  5
4525
  8
0-1
  6
CONTINUOUS
 62
     3
 10
23082.674803999998
 20
6762.7284230000032
 30
0.0
 11
25475.17744299995
 21
6762.7284230000032
 31
0.0
  0
LINE
  5
4526
  8
0-1
  6
CONTINUOUS
 62
     3
 10
23082.674803999998
 20
6827.7288849999986
 30
0.0
 11
25475.17744299995
 21
6827.7288849999986
 31
0.0
  0
LINE
  5
4527
  8
0-1
  6
CONTINUOUS
 62
     3
 10
23082.674803999998
 20
6892.728852000002
 30
0.0
 11
25475.17744299995
 21
6892.728852000002
 31
0.0
  0
LINE
  5
4528
  8
0-1
  6
CONTINUOUS
 62
     3
 10
23082.674803999998
 20
6957.7288190000027
 30
0.0
 11
25475.17744299995
 21
6957.7288190000027
 31
0.0
  0
LINE
  5
4529
  8
0-1
  6
CONTINUOUS
 62
     3
 10
23082.674803999998
 20
7022.7287859999997
 30
0.0
 11
25475.17744299995
 21
7022.7287859999997
 31
0.0
  0
LINE
  5
452A
  8
0-1
  6
CONTINUOUS
 62
     3
 10
23082.674803999998
 20
7087.7292480000024
 30
0.0
 11
25475.17744299995
 21
7087.7292480000024
 31
0.0
  0
LINE
  5
452B
  8
0-1
  6
CONTINUOUS
 62
     3
 10
23082.674803999998
 20
7152.7282250000007
 30
0.0
 11
25475.17744299995
 21
7152.7282250000007
 31
0.0
  0
LINE
  5
452C
  8
0-1
  6
CONTINUOUS
 62
     3
 10
23082.674803999998
 20
7217.7286870000007
 30
0.0
 11
25475.17744299995
 21
7217.7286870000007
 31
0.0
  0
LINE
  5
452D
  8
0-1
  6
CONTINUOUS
 62
     3
 10
23082.674803999998
 20
7282.7286539999968
 30
0.0
 11
25475.17744299995
 21
7282.7286539999968
 31
0.0
  0
LINE
  5
452E
  8
0-1
  6
CONTINUOUS
 62
     3
 10
23082.674803999998
 20
7347.7291160000004
 30
0.0
 11
25475.17744299995
 21
7347.7291160000004
 31
0.0
  0
LINE
  5
452F
  8
0-1
  6
CONTINUOUS
 62
     3
 10
23082.674803999998
 20
7412.7280929999979
 30
0.0
 11
25475.17744299995
 21
7412.7280929999979
 31
0.0
  0
LINE
  5
4530
  8
0-1
  6
CONTINUOUS
 62
     3
 10
23082.674803999998
 20
7477.7285550000033
 30
0.0
 11
25475.17744299995
 21
7477.7285550000033
 31
0.0
  0
LINE
  5
4531
  8
0-1
  6
CONTINUOUS
 62
     3
 10
23082.674803999998
 20
7542.7285220000031
 30
0.0
 11
25475.17744299995
 21
7542.7285220000031
 31
0.0
  0
LINE
  5
4532
  8
0-1
  6
CONTINUOUS
 62
     3
 10
23082.674803999998
 20
7607.7284890000019
 30
0.0
 11
25475.17744299995
 21
7607.7284890000019
 31
0.0
  0
LINE
  5
4533
  8
0-1
  6
CONTINUOUS
 62
     3
 10
23082.674803999998
 20
7672.7289510000028
 30
0.0
 11
25475.17744299995
 21
7672.7289510000028
 31
0.0
  0
LINE
  5
4534
  8
0-1
  6
CONTINUOUS
 62
     3
 10
23082.674803999998
 20
7737.7289180000007
 30
0.0
 11
25475.17744299995
 21
7737.7289180000007
 31
0.0
  0
LINE
  5
4535
  8
0-1
  6
CONTINUOUS
 62
     3
 10
23082.674803999998
 20
7802.7293799999989
 30
0.0
 11
25475.17744299995
 21
7802.7293799999989
 31
0.0
  0
LINE
  5
4536
  8
0-1
  6
CONTINUOUS
 62
     3
 10
23082.674803999998
 20
7867.7283569999972
 30
0.0
 11
25475.17744299995
 21
7867.7283569999972
 31
0.0
  0
LINE
  5
4537
  8
0-1
  6
CONTINUOUS
 62
     3
 10
23082.674803999998
 20
7932.7288190000027
 30
0.0
 11
25475.17744299995
 21
7932.7288190000027
 31
0.0
  0
LINE
  5
4538
  8
0-1
  6
CONTINUOUS
 62
     3
 10
23082.674803999998
 20
7997.7287859999969
 30
0.0
 11
25475.17744299995
 21
7997.7287859999969
 31
0.0
  0
LINE
  5
4539
  8
0-1
  6
CONTINUOUS
 62
     3
 10
23082.674803999998
 20
6177.7282249999998
 30
0.0
 11
25475.17744299995
 21
6177.7282249999998
 31
0.0
  0
LINE
  5
453A
  8
0-1
  6
CONTINUOUS
 62
     3
 10
23082.674803999998
 20
6242.7291820000009
 30
0.0
 11
25475.17744299995
 21
6242.7291820000009
 31
0.0
  0
LINE
  5
453B
  8
0-1
  6
CONTINUOUS
 62
     3
 10
23082.674803999998
 20
6307.7281590000002
 30
0.0
 11
25475.17744299995
 21
6307.7281590000002
 31
0.0
  0
LINE
  5
453C
  8
0-1
  6
CONTINUOUS
 62
     3
 10
23082.674803999998
 20
6372.7291160000023
 30
0.0
 11
25475.17744299995
 21
6372.7291160000023
 31
0.0
  0
LINE
  5
453D
  8
0-1
  6
CONTINUOUS
 62
     3
 10
23082.674803999998
 20
6437.7285880000027
 30
0.0
 11
25475.17744299995
 21
6437.7285880000027
 31
0.0
  0
LINE
  5
453E
  8
0-1
  6
CONTINUOUS
 62
     3
 10
23082.674803999998
 20
6502.7285549999997
 30
0.0
 11
25475.17744299995
 21
6502.7285549999997
 31
0.0
  0
LINE
  5
453F
  8
0-1
  6
CONTINUOUS
 62
     3
 10
23082.674803999998
 20
6567.7285220000022
 30
0.0
 11
25475.17744299995
 21
6567.7285220000022
 31
0.0
  0
LINE
  5
4540
  8
0-1
  6
CONTINUOUS
 62
     3
 10
23082.674803999998
 20
6632.7279940000008
 30
0.0
 11
25475.17744299995
 21
6632.7279940000008
 31
0.0
  0
LINE
  5
4542
  8
0-1
  6
CONTINUOUS
 62
     3
 10
23037.674407999992
 20
8120.7286469999981
 30
0.0
 11
25520.17783899996
 21
8120.7286469999981
 31
0.0
  0
LINE
  5
4543
  8
0-1
  6
CONTINUOUS
 62
     3
 10
21904.28322899999
 20
6112.7287530000012
 30
0.0
 11
25612.67678399997
 21
6112.7287530000012
 31
0.0
  0
LINE
  5
4545
  8
0-1
  6
CONTINUOUS
 62
     3
 10
21904.28322899999
 20
7731.8858739999978
 30
0.0
 11
21904.28322899999
 21
8935.9082550000021
 31
0.0
  0
LINE
  5
4546
  8
0-1
  6
CONTINUOUS
 62
     3
 10
21604.283229000001
 20
7582.4020330000021
 30
0.0
 11
21604.283229000001
 21
8935.9082550000021
 31
0.0
  0
LINE
  5
4550
  8
0-1
  6
CONTINUOUS
 62
     3
 10
20582.669525999991
 20
6892.728852000002
 30
0.0
 11
21197.967244999982
 21
6892.728852000002
 31
0.0
  0
LINE
  5
4551
  8
0-1
  6
CONTINUOUS
 62
     3
 10
20582.669525999991
 20
6957.7288190000027
 30
0.0
 11
21262.238253999982
 21
6957.7288190000027
 31
0.0
  0
LINE
  5
4552
  8
0-1
  6
CONTINUOUS
 62
     3
 10
20582.669525999991
 20
7022.7287859999997
 30
0.0
 11
21326.51124299999
 21
7022.7287859999997
 31
0.0
  0
LINE
  5
4553
  8
0-1
  6
CONTINUOUS
 62
     3
 10
20582.669525999991
 20
7087.7292480000024
 30
0.0
 11
21390.782252999968
 21
7087.7292480000024
 31
0.0
  0
LINE
  5
4554
  8
0-1
  6
CONTINUOUS
 62
     3
 10
20582.669525999991
 20
7152.7282250000007
 30
0.0
 11
21455.055240999991
 21
7152.7282250000007
 31
0.0
  0
LINE
  5
4555
  8
0-1
  6
CONTINUOUS
 62
     3
 10
20582.669525999991
 20
7217.7286870000007
 30
0.0
 11
21519.326250999991
 21
7217.7286870000007
 31
0.0
  0
LINE
  5
455D
  8
0-1
  6
CONTINUOUS
 62
     3
 10
20582.669525999991
 20
6697.7294460000012
 30
0.0
 11
21358.745723999989
 21
6697.7294460000012
 31
0.0
  0
LINE
  5
455E
  8
0-1
  6
CONTINUOUS
 62
     3
 10
20582.669525999991
 20
6762.7284230000032
 30
0.0
 11
21272.573320999982
 21
6762.7284230000032
 31
0.0
  0
LINE
  5
455F
  8
0-1
  6
CONTINUOUS
 62
     3
 10
20582.669525999991
 20
6827.7288849999986
 30
0.0
 11
21186.398938999992
 21
6827.7288849999986
 31
0.0
  0
LINE
  5
4560
  8
0-1
  6
CONTINUOUS
 62
     3
 10
20582.669525999991
 20
6632.7279940000008
 30
0.0
 11
21444.914167999981
 21
6632.7279940000008
 31
0.0
  0
LINE
  5
4561
  8
0-1
  6
CONTINUOUS
 62
     3
 10
20452.670580999991
 20
8431.2280139999984
 30
0.0
 11
20452.670580999991
 21
6112.7287530000012
 31
0.0
  0
LINE
  5
4562
  8
0-1
  6
CONTINUOUS
 62
     3
 10
20407.672164999982
 20
8120.7286469999981
 30
0.0
 11
20407.672164999982
 21
6112.7287530000012
 31
0.0
  0
LINE
  5
4563
  8
0-1
  6
CONTINUOUS
 62
     3
 10
20537.673088999982
 20
8431.2280139999984
 30
0.0
 11
20537.673088999982
 21
6112.7287530000012
 31
0.0
  0
LINE
  5
4564
  8
0-1
  6
CONTINUOUS
 62
     3
 10
20582.669525999991
 20
8120.7286469999981
 30
0.0
 11
20582.669525999991
 21
6112.7287530000012
 31
0.0
  0
LINE
  5
4565
  8
0-1
  6
CONTINUOUS
 62
     3
 10
20582.669525999991
 20
8120.7286469999981
 30
0.0
 11
20582.669525999991
 21
6112.7287530000012
 31
0.0
  0
LINE
  5
4570
  8
0-1
  6
CONTINUOUS
 62
     3
 10
17977.671504999991
 20
6212.7285879999999
 30
0.0
 11
17977.671504999991
 21
6112.7287530000012
 31
0.0
  0
LINE
  5
4571
  8
0-1
  6
CONTINUOUS
 62
     3
 10
17877.670185999999
 20
6112.7287530000012
 30
0.0
 11
17877.670185999999
 21
6212.7285879999999
 31
0.0
  0
LINE
  5
4572
  8
0-1
  6
CONTINUOUS
 62
     3
 10
17877.670185999999
 20
6212.7285879999999
 30
0.0
 11
17977.671504999991
 21
6212.7285879999999
 31
0.0
  0
LINE
  5
4573
  8
0-1
  6
CONTINUOUS
 62
     3
 10
18015.171504999991
 20
8120.7286469999981
 30
0.0
 11
18015.171504999991
 21
6112.7287530000012
 31
0.0
  0
LINE
  5
4574
  8
0-1
  6
CONTINUOUS
 62
     3
 10
17970.169129999998
 20
8431.2280139999984
 30
0.0
 11
17970.169129999998
 21
6212.7285879999999
 31
0.0
  0
LINE
  5
4575
  8
0-1
  6
CONTINUOUS
 62
     3
 10
17905.171636999981
 20
8561.2289369999999
 30
0.0
 11
17905.171636999981
 21
6212.7285879999999
 31
0.0
  0
LINE
  5
4576
  8
0-1
  6
CONTINUOUS
 62
     3
 10
17885.168602000002
 20
8431.2280139999984
 30
0.0
 11
17885.168602000002
 21
6212.7285879999999
 31
0.0
  0
LINE
  5
4577
  8
0-1
  6
CONTINUOUS
 62
     3
 10
17970.169129999998
 20
8120.7286469999981
 30
0.0
 11
20452.670580999991
 21
8120.7286469999981
 31
0.0
  0
LINE
  5
4579
  8
0-1
  6
CONTINUOUS
 62
     3
 10
18015.171504999991
 20
6632.7279940000008
 30
0.0
 11
20407.672164999982
 21
6632.7279940000008
 31
0.0
  0
LINE
  5
457A
  8
0-1
  6
CONTINUOUS
 62
     3
 10
18015.171504999991
 20
6567.7285220000022
 30
0.0
 11
20407.672164999982
 21
6567.7285220000022
 31
0.0
  0
LINE
  5
457B
  8
0-1
  6
CONTINUOUS
 62
     3
 10
18015.171504999991
 20
6502.7285549999997
 30
0.0
 11
20407.672164999982
 21
6502.7285549999997
 31
0.0
  0
LINE
  5
457C
  8
0-1
  6
CONTINUOUS
 62
     3
 10
18015.171504999991
 20
6437.7285880000027
 30
0.0
 11
20407.672164999982
 21
6437.7285880000027
 31
0.0
  0
LINE
  5
457D
  8
0-1
  6
CONTINUOUS
 62
     3
 10
18015.171504999991
 20
6372.7291160000023
 30
0.0
 11
20407.672164999982
 21
6372.7291160000023
 31
0.0
  0
LINE
  5
457E
  8
0-1
  6
CONTINUOUS
 62
     3
 10
18015.171504999991
 20
6307.7281590000002
 30
0.0
 11
20407.672164999982
 21
6307.7281590000002
 31
0.0
  0
LINE
  5
457F
  8
0-1
  6
CONTINUOUS
 62
     3
 10
18015.171504999991
 20
6242.7291820000009
 30
0.0
 11
20407.672164999982
 21
6242.7291820000009
 31
0.0
  0
LINE
  5
4580
  8
0-1
  6
CONTINUOUS
 62
     3
 10
18015.171504999991
 20
6177.7282249999998
 30
0.0
 11
20407.672164999982
 21
6177.7282249999998
 31
0.0
  0
LINE
  5
4581
  8
0-1
  6
CONTINUOUS
 62
     3
 10
18015.171504999991
 20
7997.7287859999969
 30
0.0
 11
20407.672164999982
 21
7997.7287859999969
 31
0.0
  0
LINE
  5
4582
  8
0-1
  6
CONTINUOUS
 62
     3
 10
18015.171504999991
 20
7932.7288190000027
 30
0.0
 11
20407.672164999982
 21
7932.7288190000027
 31
0.0
  0
LINE
  5
4583
  8
0-1
  6
CONTINUOUS
 62
     3
 10
18015.171504999991
 20
7867.7283569999972
 30
0.0
 11
20407.672164999982
 21
7867.7283569999972
 31
0.0
  0
LINE
  5
4584
  8
0-1
  6
CONTINUOUS
 62
     3
 10
18015.171504999991
 20
7802.7293799999989
 30
0.0
 11
20407.672164999982
 21
7802.7293799999989
 31
0.0
  0
LINE
  5
4585
  8
0-1
  6
CONTINUOUS
 62
     3
 10
18015.171504999991
 20
7737.7289180000007
 30
0.0
 11
20407.672164999982
 21
7737.7289180000007
 31
0.0
  0
LINE
  5
4586
  8
0-1
  6
CONTINUOUS
 62
     3
 10
18015.171504999991
 20
7672.7289510000028
 30
0.0
 11
20407.672164999982
 21
7672.7289510000028
 31
0.0
  0
LINE
  5
4587
  8
0-1
  6
CONTINUOUS
 62
     3
 10
18015.171504999991
 20
7607.7284890000019
 30
0.0
 11
20407.672164999982
 21
7607.7284890000019
 31
0.0
  0
LINE
  5
4588
  8
0-1
  6
CONTINUOUS
 62
     3
 10
18015.171504999991
 20
7542.7285220000031
 30
0.0
 11
20407.672164999982
 21
7542.7285220000031
 31
0.0
  0
LINE
  5
4589
  8
0-1
  6
CONTINUOUS
 62
     3
 10
18015.171504999991
 20
7477.7285550000033
 30
0.0
 11
20407.672164999982
 21
7477.7285550000033
 31
0.0
  0
LINE
  5
458A
  8
0-1
  6
CONTINUOUS
 62
     3
 10
18015.171504999991
 20
7412.7280929999979
 30
0.0
 11
20407.672164999982
 21
7412.7280929999979
 31
0.0
  0
LINE
  5
458B
  8
0-1
  6
CONTINUOUS
 62
     3
 10
18015.171504999991
 20
7347.7291160000004
 30
0.0
 11
20407.672164999982
 21
7347.7291160000004
 31
0.0
  0
LINE
  5
458C
  8
0-1
  6
CONTINUOUS
 62
     3
 10
18015.171504999991
 20
7282.7286539999968
 30
0.0
 11
20407.672164999982
 21
7282.7286539999968
 31
0.0
  0
LINE
  5
458D
  8
0-1
  6
CONTINUOUS
 62
     3
 10
18015.171504999991
 20
7217.7286870000007
 30
0.0
 11
20407.672164999982
 21
7217.7286870000007
 31
0.0
  0
LINE
  5
458E
  8
0-1
  6
CONTINUOUS
 62
     3
 10
18015.171504999991
 20
7152.7282250000007
 30
0.0
 11
20407.672164999982
 21
7152.7282250000007
 31
0.0
  0
LINE
  5
458F
  8
0-1
  6
CONTINUOUS
 62
     3
 10
18015.171504999991
 20
7087.7292480000024
 30
0.0
 11
20407.672164999982
 21
7087.7292480000024
 31
0.0
  0
LINE
  5
4590
  8
0-1
  6
CONTINUOUS
 62
     3
 10
18015.171504999991
 20
7022.7287859999997
 30
0.0
 11
20407.672164999982
 21
7022.7287859999997
 31
0.0
  0
LINE
  5
4591
  8
0-1
  6
CONTINUOUS
 62
     3
 10
18015.171504999991
 20
6957.7288190000027
 30
0.0
 11
20407.672164999982
 21
6957.7288190000027
 31
0.0
  0
LINE
  5
4592
  8
0-1
  6
CONTINUOUS
 62
     3
 10
18015.171504999991
 20
6892.728852000002
 30
0.0
 11
20407.672164999982
 21
6892.728852000002
 31
0.0
  0
LINE
  5
4593
  8
0-1
  6
CONTINUOUS
 62
     3
 10
18015.171504999991
 20
6827.7288849999986
 30
0.0
 11
20407.672164999982
 21
6827.7288849999986
 31
0.0
  0
LINE
  5
4594
  8
0-1
  6
CONTINUOUS
 62
     3
 10
18015.171504999991
 20
6762.7284230000032
 30
0.0
 11
20407.672164999982
 21
6762.7284230000032
 31
0.0
  0
LINE
  5
4595
  8
0-1
  6
CONTINUOUS
 62
     3
 10
18015.171504999991
 20
6697.7294460000012
 30
0.0
 11
20407.672164999982
 21
6697.7294460000012
 31
0.0
  0
LINE
  5
4596
  8
0-1
  6
CONTINUOUS
 62
     3
 10
18015.171504999991
 20
8052.1883109999999
 30
0.0
 11
20407.672164999982
 21
8052.1883109999999
 31
0.0
  0
LINE
  5
4599
  8
0-1
  6
CONTINUOUS
 62
     3
 10
17877.670185999999
 20
6112.7287530000012
 30
0.0
 11
21604.283229000001
 21
6112.7287530000012
 31
0.0
  0
LINE
  5
459C
  8
0-1
  6
CONTINUOUS
 62
     3
 10
20582.669525999991
 20
8052.1883109999999
 30
0.0
 11
21604.283229000001
 21
8052.1883109999999
 31
0.0
  0
LINE
  5
459D
  8
0-1
  6
CONTINUOUS
 62
     3
 10
20582.669525999991
 20
7282.7286539999968
 30
0.0
 11
21583.599238999981
 21
7282.7286539999968
 31
0.0
  0
LINE
  5
459E
  8
0-1
  6
CONTINUOUS
 62
     3
 10
20582.669525999991
 20
7347.7291160000004
 30
0.0
 11
21647.870248999981
 21
7347.7291160000004
 31
0.0
  0
LINE
  5
459F
  8
0-1
  6
CONTINUOUS
 62
     3
 10
20582.669525999991
 20
7412.7280929999979
 30
0.0
 11
21712.14323799999
 21
7412.7280929999979
 31
0.0
  0
LINE
  5
45A0
  8
0-1
  6
CONTINUOUS
 62
     3
 10
20582.669525999991
 20
7477.7285550000033
 30
0.0
 11
21743.047481999991
 21
7477.7285550000033
 31
0.0
  0
LINE
  5
45A1
  8
0-1
  6
CONTINUOUS
 62
     3
 10
20582.669525999991
 20
7542.7285220000031
 30
0.0
 11
21656.879037999981
 21
7542.7285220000031
 31
0.0
  0
LINE
  5
45A2
  8
0-1
  6
CONTINUOUS
 62
     3
 10
20582.669525999991
 20
7607.7284890000019
 30
0.0
 11
21604.283229000001
 21
7607.7284890000019
 31
0.0
  0
LINE
  5
45A3
  8
0-1
  6
CONTINUOUS
 62
     3
 10
20582.669525999991
 20
7672.7289510000028
 30
0.0
 11
21604.283229000001
 21
7672.7289510000028
 31
0.0
  0
LINE
  5
45A4
  8
0-1
  6
CONTINUOUS
 62
     3
 10
20582.669525999991
 20
7737.7289180000007
 30
0.0
 11
21604.283229000001
 21
7737.7289180000007
 31
0.0
  0
LINE
  5
45A5
  8
0-1
  6
CONTINUOUS
 62
     3
 10
20582.669525999991
 20
7802.7293799999989
 30
0.0
 11
21604.283229000001
 21
7802.7293799999989
 31
0.0
  0
LINE
  5
45A6
  8
0-1
  6
CONTINUOUS
 62
     3
 10
20582.669525999991
 20
7867.7283569999972
 30
0.0
 11
21604.283229000001
 21
7867.7283569999972
 31
0.0
  0
LINE
  5
45A7
  8
0-1
  6
CONTINUOUS
 62
     3
 10
20582.669525999991
 20
7932.7288190000027
 30
0.0
 11
21604.283229000001
 21
7932.7288190000027
 31
0.0
  0
LINE
  5
45A8
  8
0-1
  6
CONTINUOUS
 62
     3
 10
20582.669525999991
 20
7997.7287859999969
 30
0.0
 11
21604.283229000001
 21
7997.7287859999969
 31
0.0
  0
LINE
  5
45A9
  8
0-1
  6
CONTINUOUS
 62
     3
 10
20582.669525999991
 20
6177.7282249999998
 30
0.0
 11
21604.283229000001
 21
6177.7282249999998
 31
0.0
  0
LINE
  5
45AA
  8
0-1
  6
CONTINUOUS
 62
     3
 10
20582.669525999991
 20
6242.7291820000009
 30
0.0
 11
21604.283229000001
 21
6242.7291820000009
 31
0.0
  0
LINE
  5
45AB
  8
0-1
  6
CONTINUOUS
 62
     3
 10
20582.669525999991
 20
6307.7281590000002
 30
0.0
 11
21604.283229000001
 21
6307.7281590000002
 31
0.0
  0
LINE
  5
45AC
  8
0-1
  6
CONTINUOUS
 62
     3
 10
20582.669525999991
 20
6372.7291160000023
 30
0.0
 11
21604.283229000001
 21
6372.7291160000023
 31
0.0
  0
LINE
  5
45AD
  8
0-1
  6
CONTINUOUS
 62
     3
 10
20582.669525999991
 20
6437.7285880000027
 30
0.0
 11
21604.283229000001
 21
6437.7285880000027
 31
0.0
  0
LINE
  5
45AE
  8
0-1
  6
CONTINUOUS
 62
     3
 10
20582.669525999991
 20
6502.7285549999997
 30
0.0
 11
21604.283229000001
 21
6502.7285549999997
 31
0.0
  0
LINE
  5
45AF
  8
0-1
  6
CONTINUOUS
 62
     3
 10
20582.669525999991
 20
6567.7285220000022
 30
0.0
 11
21531.086570999982
 21
6567.7285220000022
 31
0.0
  0
LINE
  5
45B0
  8
0-1
  6
CONTINUOUS
 62
     3
 10
20537.673088999982
 20
8120.7286469999981
 30
0.0
 11
21604.283229000001
 21
8120.7286469999981
 31
0.0
  0
LINE
  5
45B1
  8
0-1
  6
CONTINUOUS
 62
     3
 10
21604.283229000001
 20
6512.5172739999998
 30
0.0
 11
21156.211279999981
 21
6850.5002769999983
 31
0.0
  0
LINE
  5
45B2
  8
0-1
  6
CONTINUOUS
 62
     3
 10
21762.15973399999
 20
7463.3127109999969
 30
0.0
 11
21156.211279999981
 21
6850.5002769999983
 31
0.0
  0
LINE
  5
45B6
  8
0-2
  6
CONTINUOUS
 62
     4
 10
24642.618123999961
 20
6859.9544569999989
 30
0.0
 11
24542.61878399998
 21
6859.9544569999989
 31
0.0
  0
LINE
  5
45B7
  8
0-2
  6
CONTINUOUS
 62
     4
 10
23915.23214399998
 20
6859.9544569999989
 30
0.0
 11
24015.23148499996
 21
6859.9544569999989
 31
0.0
  0
LINE
  5
45B8
  8
0-2
  6
CONTINUOUS
 62
     4
 10
19575.111855499999
 20
6859.9544569999989
 30
0.0
 11
19475.11251549999
 21
6859.9544569999989
 31
0.0
  0
LINE
  5
45B9
  8
0-2
  6
CONTINUOUS
 62
     4
 10
18847.727854500001
 20
6859.9544569999989
 30
0.0
 11
18947.725215499999
 21
6859.9544569999989
 31
0.0
  0
LINE
  5
45BA
  8
0-5
  6
CONTINUOUS
 62
     4
 10
13159.382786
 20
6112.7287530000012
 30
0.0
 11
17797.669922000001
 21
6112.7287530000012
 31
0.0
  0
LINE
  5
45BB
  8
0-5
  6
CONTINUOUS
 62
     4
 10
25562.676123999961
 20
4432.7286539999977
 30
0.0
 11
25562.676123999961
 21
4272.7286210000002
 31
0.0
  0
LINE
  5
45BC
  8
0-5
  6
CONTINUOUS
 62
     4
 10
22995.176123999961
 20
4432.7286539999977
 30
0.0
 11
22995.176123999961
 21
4272.7286210000002
 31
0.0
  0
LINE
  5
45BD
  8
0-5
  6
CONTINUOUS
 62
     4
 10
20495.17084499999
 20
4432.7286539999977
 30
0.0
 11
20495.17084499999
 21
4272.7286210000002
 31
0.0
  0
LINE
  5
45BE
  8
0-5
  6
CONTINUOUS
 62
     4
 10
17927.670844999979
 20
4432.7286539999977
 30
0.0
 11
17927.670844999979
 21
4272.7286210000002
 31
0.0
  0
LINE
  5
45BF
  8
0-5
  6
CONTINUOUS
 62
     4
 10
15344.79003899999
 20
6320.5742450000034
 30
0.0
 11
15464.787466
 21
6112.7287530000012
 31
0.0
  0
LINE
  5
45C0
  8
0-5
  6
CONTINUOUS
 62
     4
 10
15464.787466
 20
6112.7287530000012
 30
0.0
 11
15584.786872000001
 21
6320.5742450000034
 31
0.0
  0
LINE
  5
45C1
  8
0-5
  6
CONTINUOUS
 62
     4
 10
15584.786872000001
 20
6320.5742450000034
 30
0.0
 11
15344.79003899999
 21
6320.5742450000034
 31
0.0
  0
LINE
  5
45C2
  8
0-5
  6
CONTINUOUS
 62
     4
 10
13159.382786
 20
6112.7287530000012
 30
0.0
 11
17797.669922000001
 21
6112.7287530000012
 31
0.0
  0
LINE
  5
45C3
  8
2-0
  6
CENTER2
 62
     6
 10
25562.676123999961
 20
5850.0763299999999
 30
0.0
 11
25562.676123999961
 21
6887.2183670000013
 31
0.0
  0
LINE
  5
45C4
  8
2-0
  6
CENTER2
 62
     6
 10
22995.176123999961
 20
5850.0763299999999
 30
0.0
 11
22995.176123999961
 21
6887.2183670000013
 31
0.0
  0
LINE
  5
45C5
  8
2-0
  6
CENTER2
 62
     6
 10
20495.17084499999
 20
5850.0763299999999
 30
0.0
 11
20495.17084499999
 21
6887.2183670000013
 31
0.0
  0
LINE
  5
45C6
  8
2-0
  6
CENTER2
 62
     6
 10
17927.670844999979
 20
5850.0763299999999
 30
0.0
 11
17927.670844999979
 21
6887.2183670000013
 31
0.0
  0
LINE
  5
45C7
  8
2-0
  6
CONTINUOUS
 62
     6
 10
23879.517207999961
 20
13854.815322999981
 30
0.0
 11
24879.510609999928
 21
13854.815322999981
 31
0.0
  0
LINE
  5
45C8
  8
2-0
  6
CONTINUOUS
 62
     6
 10
25347.45098699996
 20
14325.236036999981
 30
0.0
 11
24879.510609999928
 21
13854.815322999981
 31
0.0
  0
LINE
  5
45C9
  8
2-0
  6
CONTINUOUS
 62
     6
 10
23896.22830399996
 20
18183.435387999969
 30
0.0
 11
24914.20365199996
 21
18183.435387999969
 31
0.0
  0
LINE
  5
45CA
  8
2-0
  6
CONTINUOUS
 62
     6
 10
25370.62916999996
 20
18408.150336999981
 30
0.0
 11
24914.20365199996
 21
18183.435387999969
 31
0.0
  0
LINE
  5
45CB
  8
2-0
  6
CONTINUOUS
 62
     6
 10
25308.810783999961
 20
17166.343683999981
 30
0.0
 11
25004.115365999962
 21
17269.997214999989
 31
0.0
  0
LINE
  5
45CC
  8
2-0
  6
CONTINUOUS
 62
     6
 10
25463.832822999932
 20
16676.72164
 30
0.0
 11
25004.115365999962
 21
16432.808328999989
 31
0.0
  0
LINE
  5
45CD
  8
2-0
  6
CONTINUOUS
 62
     6
 10
24084.11233099996
 20
16432.808328999989
 30
0.0
 11
25004.115365999962
 21
16432.808328999989
 31
0.0
  0
LINE
  5
45CE
  8
2-0
  6
CONTINUOUS
 62
     6
 10
23804.12130399996
 20
17269.997214999989
 30
0.0
 11
25004.115365999962
 21
17269.997214999989
 31
0.0
  0
LINE
  5
45CF
  8
2-0
  6
CONTINUOUS
 62
     6
 10
25380.010107999959
 20
14646.919682999949
 30
0.0
 11
25004.115365999962
 21
14827.86351799998
 31
0.0
  0
LINE
  5
45D0
  8
2-0
  6
CONTINUOUS
 62
     6
 10
23896.22830399996
 20
15265.672930000001
 30
0.0
 11
24914.20365199996
 21
15265.672930000001
 31
0.0
  0
LINE
  5
45D1
  8
2-0
  6
CONTINUOUS
 62
     6
 10
24484.11364999997
 20
14827.86351799998
 30
0.0
 11
25004.115365999962
 21
14827.86351799998
 31
0.0
  0
LINE
  5
45D2
  8
2-0
  6
CONTINUOUS
 62
     6
 10
25370.62916999996
 20
15490.385899999999
 30
0.0
 11
24914.20365199996
 21
15265.672930000001
 31
0.0
  0
LINE
  5
45D3
  8
2-0
  6
CONTINUOUS
 62
     4
 10
22995.176123999961
 20
19752.316973000001
 30
0.0
 11
22995.176123999961
 21
20482.313937999981
 31
0.0
  0
LINE
  5
45D4
  8
2-0
  6
CONTINUOUS
 62
     3
 10
25575.176783999948
 20
19563.314518999981
 30
0.0
 11
25575.176783999948
 21
19557.318556999991
 31
0.0
  0
LINE
  5
45D5
  8
2-0
  6
CONTINUOUS
 62
     3
 10
25575.176783999948
 20
19557.318556999991
 30
0.0
 11
25605.174407999959
 21
19557.318556999991
 31
0.0
  0
LINE
  5
45D6
  8
2-0
  6
CONTINUOUS
 62
     3
 10
25605.174407999959
 20
19587.318160999981
 30
0.0
 11
25524.17250799996
 21
19587.318160999981
 31
0.0
  0
LINE
  5
45D7
  8
2-0
  6
CONTINUOUS
 62
     3
 10
25575.176783999948
 20
19547.021100999991
 30
0.0
 11
25605.174407999959
 21
19547.021100999991
 31
0.0
  0
LINE
  5
45D8
  8
2-0
  6
CONTINUOUS
 62
     3
 10
25575.176783999948
 20
19565.022842999992
 30
0.0
 11
25575.176783999948
 21
19547.021100999991
 31
0.0
  0
LINE
  5
45D9
  8
2-0
  6
CONTINUOUS
 62
     3
 10
25600.174143999971
 20
19565.022842999992
 30
0.0
 11
25575.176783999948
 21
19565.022842999992
 31
0.0
  0
LINE
  5
45DA
  8
2-0
  6
CONTINUOUS
 62
     3
 10
25600.174143999971
 20
19560.014661000001
 30
0.0
 11
25600.174143999971
 21
19565.022842999992
 31
0.0
  0
LINE
  5
45DB
  8
2-0
  6
CONTINUOUS
 62
     3
 10
25593.172586999961
 20
19560.014661000001
 30
0.0
 11
25600.174143999971
 21
19560.014661000001
 31
0.0
  0
LINE
  5
45DC
  8
2-0
  6
CONTINUOUS
 62
     3
 10
25492.87631899997
 20
19660.314888000001
 30
0.0
 11
25492.87631899997
 21
19667.320403999991
 31
0.0
  0
LINE
  5
45DD
  8
2-0
  6
CONTINUOUS
 62
     3
 10
25492.87631899997
 20
19667.320403999991
 30
0.0
 11
25497.876582999961
 21
19667.320403999991
 31
0.0
  0
LINE
  5
45DE
  8
2-0
  6
CONTINUOUS
 62
     3
 10
25497.876582999961
 20
19667.320403999991
 30
0.0
 11
25497.876582999961
 21
19642.311166999989
 31
0.0
  0
LINE
  5
45DF
  8
2-0
  6
CONTINUOUS
 62
     3
 10
25497.876582999961
 20
19642.311166999989
 30
0.0
 11
25479.874840999961
 21
19642.311166999989
 31
0.0
  0
LINE
  5
45E0
  8
2-0
  6
CONTINUOUS
 62
     3
 10
25479.874840999961
 20
19642.311166999989
 30
0.0
 11
25479.874840999961
 21
19672.314729999998
 31
0.0
  0
LINE
  5
45E1
  8
2-0
  6
CONTINUOUS
 62
     3
 10
25490.172296999961
 20
19672.314729999998
 30
0.0
 11
25605.174407999959
 21
19672.314729999998
 31
0.0
  0
LINE
  5
45E2
  8
2-0
  6
CONTINUOUS
 62
     3
 10
25490.172296999961
 20
19642.311166999989
 30
0.0
 11
25490.172296999961
 21
19672.314729999998
 31
0.0
  0
LINE
  5
45E3
  8
2-0
  6
CONTINUOUS
 62
     3
 10
25496.174196999971
 20
19642.311166999989
 30
0.0
 11
25490.172296999961
 21
19642.311166999989
 31
0.0
  0
LINE
  5
45E4
  8
2-0
  6
CONTINUOUS
 62
     3
 10
25593.172586999961
 20
19206.717838499961
 30
0.0
 11
25600.174143999971
 21
19206.717838499961
 31
0.0
  0
LINE
  5
45E5
  8
2-0
  6
CONTINUOUS
 62
     3
 10
25600.174143999971
 20
19206.717838499961
 30
0.0
 11
25600.174143999971
 21
19211.718102499981
 31
0.0
  0
LINE
  5
45E6
  8
2-0
  6
CONTINUOUS
 62
     3
 10
25600.174143999971
 20
19211.718102499981
 30
0.0
 11
25575.176783999948
 21
19211.718102499981
 31
0.0
  0
LINE
  5
45E7
  8
2-0
  6
CONTINUOUS
 62
     3
 10
25575.176783999948
 20
19211.718102499981
 30
0.0
 11
25575.176783999948
 21
19193.722298499961
 31
0.0
  0
LINE
  5
45E8
  8
2-0
  6
CONTINUOUS
 62
     3
 10
25575.176783999948
 20
19193.722298499961
 30
0.0
 11
25605.174407999959
 21
19193.722298499961
 31
0.0
  0
LINE
  5
45E9
  8
2-0
  6
CONTINUOUS
 62
     3
 10
25575.176783999948
 20
19209.813805499962
 30
0.0
 11
25575.176783999948
 21
19203.81586449996
 31
0.0
  0
LINE
  5
45EA
  8
2-0
  6
CONTINUOUS
 62
     3
 10
25575.176783999948
 20
19203.81586449996
 30
0.0
 11
25605.174407999959
 21
19203.81586449996
 31
0.0
  0
LINE
  5
45EB
  8
2-0
  6
CONTINUOUS
 62
     3
 10
25605.174407999959
 20
19203.81586449996
 30
0.0
 11
25605.174407999959
 21
19240.81702549995
 31
0.0
  0
LINE
  5
45EC
  8
2-0
  6
CONTINUOUS
 62
     3
 10
25575.176783999948
 20
19240.81702549995
 30
0.0
 11
25605.174407999959
 21
19240.81702549995
 31
0.0
  0
LINE
  5
45ED
  8
2-0
  6
CONTINUOUS
 62
     3
 10
25575.176783999948
 20
19234.813145499971
 30
0.0
 11
25575.176783999948
 21
19240.81702549995
 31
0.0
  0
LINE
  5
45EE
  8
2-0
  6
CONTINUOUS
 62
     3
 10
25575.176783999948
 20
19250.912570499971
 30
0.0
 11
25605.174407999959
 21
19250.912570499971
 31
0.0
  0
LINE
  5
45EF
  8
2-0
  6
CONTINUOUS
 62
     3
 10
25575.176783999948
 20
19232.91082849996
 30
0.0
 11
25575.176783999948
 21
19250.912570499971
 31
0.0
  0
LINE
  5
45F0
  8
2-0
  6
CONTINUOUS
 62
     3
 10
25600.174143999971
 20
19232.91082849996
 30
0.0
 11
25575.176783999948
 21
19232.91082849996
 31
0.0
  0
LINE
  5
45F1
  8
2-0
  6
CONTINUOUS
 62
     3
 10
25600.174143999971
 20
19237.91109249998
 30
0.0
 11
25600.174143999971
 21
19232.91082849996
 31
0.0
  0
LINE
  5
45F2
  8
2-0
  6
CONTINUOUS
 62
     3
 10
25593.172586999961
 20
19237.91109249998
 30
0.0
 11
25600.174143999971
 21
19237.91109249998
 31
0.0
  0
LINE
  5
45F3
  8
2-0
  6
CONTINUOUS
 62
     3
 10
25593.172586999961
 20
18505.716848999989
 30
0.0
 11
25600.174143999971
 21
18505.716848999989
 31
0.0
  0
LINE
  5
45F4
  8
2-0
  6
CONTINUOUS
 62
     3
 10
25600.174143999971
 20
18505.716848999989
 30
0.0
 11
25600.174143999971
 21
18510.723050999961
 31
0.0
  0
LINE
  5
45F5
  8
2-0
  6
CONTINUOUS
 62
     3
 10
25600.174143999971
 20
18510.723050999961
 30
0.0
 11
25575.176783999948
 21
18510.723050999961
 31
0.0
  0
LINE
  5
45F6
  8
2-0
  6
CONTINUOUS
 62
     3
 10
25575.176783999948
 20
18510.723050999961
 30
0.0
 11
25575.176783999948
 21
18492.72130899999
 31
0.0
  0
LINE
  5
45F7
  8
2-0
  6
CONTINUOUS
 62
     3
 10
25575.176783999948
 20
18492.72130899999
 30
0.0
 11
25605.174407999959
 21
18492.72130899999
 31
0.0
  0
LINE
  5
45F8
  8
2-0
  6
CONTINUOUS
 62
     3
 10
25575.176783999948
 20
18508.812815999951
 30
0.0
 11
25575.176783999948
 21
18502.81685399995
 31
0.0
  0
LINE
  5
45F9
  8
2-0
  6
CONTINUOUS
 62
     3
 10
25575.176783999948
 20
18502.81685399995
 30
0.0
 11
25605.174407999959
 21
18502.81685399995
 31
0.0
  0
LINE
  5
45FA
  8
2-0
  6
CONTINUOUS
 62
     3
 10
25605.174407999959
 20
18502.81685399995
 30
0.0
 11
25605.174407999959
 21
18539.816035999989
 31
0.0
  0
LINE
  5
45FB
  8
2-0
  6
CONTINUOUS
 62
     3
 10
25575.176783999948
 20
18539.816035999989
 30
0.0
 11
25605.174407999959
 21
18539.816035999989
 31
0.0
  0
LINE
  5
45FC
  8
2-0
  6
CONTINUOUS
 62
     3
 10
25575.176783999948
 20
18533.820073999981
 30
0.0
 11
25575.176783999948
 21
18539.816035999989
 31
0.0
  0
LINE
  5
45FD
  8
2-0
  6
CONTINUOUS
 62
     3
 10
25575.176783999948
 20
18549.911580999978
 30
0.0
 11
25605.174407999959
 21
18549.911580999978
 31
0.0
  0
LINE
  5
45FE
  8
2-0
  6
CONTINUOUS
 62
     3
 10
25575.176783999948
 20
18531.909838999989
 30
0.0
 11
25575.176783999948
 21
18549.911580999978
 31
0.0
  0
LINE
  5
45FF
  8
2-0
  6
CONTINUOUS
 62
     3
 10
25600.174143999971
 20
18531.909838999989
 30
0.0
 11
25575.176783999948
 21
18531.909838999989
 31
0.0
  0
LINE
  5
4600
  8
2-0
  6
CONTINUOUS
 62
     3
 10
25600.174143999971
 20
18536.91604099996
 30
0.0
 11
25600.174143999971
 21
18531.909838999989
 31
0.0
  0
LINE
  5
4601
  8
2-0
  6
CONTINUOUS
 62
     3
 10
25593.172586999961
 20
18536.91604099996
 30
0.0
 11
25600.174143999971
 21
18536.91604099996
 31
0.0
  0
LINE
  5
4602
  8
2-0
  6
CONTINUOUS
 62
     3
 10
25593.172586999961
 20
17835.910102999991
 30
0.0
 11
25600.174143999971
 21
17835.910102999991
 31
0.0
  0
LINE
  5
4603
  8
2-0
  6
CONTINUOUS
 62
     3
 10
25600.174143999971
 20
17835.910102999991
 30
0.0
 11
25600.174143999971
 21
17830.921715999972
 31
0.0
  0
LINE
  5
4604
  8
2-0
  6
CONTINUOUS
 62
     3
 10
25600.174143999971
 20
17830.921715999972
 30
0.0
 11
25575.176783999948
 21
17830.921715999972
 31
0.0
  0
LINE
  5
4605
  8
2-0
  6
CONTINUOUS
 62
     3
 10
25575.176783999948
 20
17830.921715999972
 30
0.0
 11
25575.176783999948
 21
17848.917518999991
 31
0.0
  0
LINE
  5
4606
  8
2-0
  6
CONTINUOUS
 62
     3
 10
25575.176783999948
 20
17848.917518999991
 30
0.0
 11
25605.174407999959
 21
17848.917518999991
 31
0.0
  0
LINE
  5
4607
  8
2-0
  6
CONTINUOUS
 62
     3
 10
25575.176783999948
 20
17832.820073999981
 30
0.0
 11
25575.176783999948
 21
17838.816035999971
 31
0.0
  0
LINE
  5
4608
  8
2-0
  6
CONTINUOUS
 62
     3
 10
25575.176783999948
 20
17838.816035999971
 30
0.0
 11
25605.174407999959
 21
17838.816035999971
 31
0.0
  0
LINE
  5
4609
  8
2-0
  6
CONTINUOUS
 62
     3
 10
25605.174407999959
 20
17838.816035999971
 30
0.0
 11
25605.174407999959
 21
17801.816853999961
 31
0.0
  0
LINE
  5
460A
  8
2-0
  6
CONTINUOUS
 62
     3
 10
25575.176783999948
 20
17801.816853999961
 30
0.0
 11
25605.174407999959
 21
17801.816853999961
 31
0.0
  0
LINE
  5
460B
  8
2-0
  6
CONTINUOUS
 62
     3
 10
25575.176783999948
 20
17807.818754999978
 30
0.0
 11
25575.176783999948
 21
17801.816853999961
 31
0.0
  0
LINE
  5
460C
  8
2-0
  6
CONTINUOUS
 62
     3
 10
25575.176783999948
 20
17791.727247999981
 30
0.0
 11
25605.174407999959
 21
17791.727247999981
 31
0.0
  0
LINE
  5
460D
  8
2-0
  6
CONTINUOUS
 62
     3
 10
25575.176783999948
 20
17809.723050999972
 30
0.0
 11
25575.176783999948
 21
17791.727247999981
 31
0.0
  0
LINE
  5
460E
  8
2-0
  6
CONTINUOUS
 62
     3
 10
25600.174143999971
 20
17809.723050999972
 30
0.0
 11
25575.176783999948
 21
17809.723050999972
 31
0.0
  0
LINE
  5
460F
  8
2-0
  6
CONTINUOUS
 62
     3
 10
25600.174143999971
 20
17804.722787999981
 30
0.0
 11
25600.174143999971
 21
17809.723050999972
 31
0.0
  0
LINE
  5
4610
  8
2-0
  6
CONTINUOUS
 62
     3
 10
25593.172586999961
 20
17804.722787999981
 30
0.0
 11
25600.174143999971
 21
17804.722787999981
 31
0.0
  0
LINE
  5
4611
  8
2-0
  6
CONTINUOUS
 62
     3
 10
25602.288269999961
 20
17084.813673999972
 30
0.0
 11
25602.288269999961
 21
17104.814728999969
 31
0.0
  0
LINE
  5
4612
  8
2-0
  6
CONTINUOUS
 62
     3
 10
25602.288269999961
 20
17104.814728999969
 30
0.0
 11
25517.291700999958
 21
17104.814728999969
 31
0.0
  0
LINE
  5
4613
  8
2-0
  6
CONTINUOUS
 62
     3
 10
25593.172586999961
 20
17131.421438999991
 30
0.0
 11
25600.174143999971
 21
17131.421438999991
 31
0.0
  0
LINE
  5
4614
  8
2-0
  6
CONTINUOUS
 62
     3
 10
25600.174143999971
 20
17131.421438999991
 30
0.0
 11
25600.174143999971
 21
17126.427112999991
 31
0.0
  0
LINE
  5
4615
  8
2-0
  6
CONTINUOUS
 62
     3
 10
25600.174143999971
 20
17126.427112999991
 30
0.0
 11
25575.176783999948
 21
17126.427112999991
 31
0.0
  0
LINE
  5
4616
  8
2-0
  6
CONTINUOUS
 62
     3
 10
25575.176783999948
 20
17126.427112999991
 30
0.0
 11
25575.176783999948
 21
17144.422916999989
 31
0.0
  0
LINE
  5
4617
  8
2-0
  6
CONTINUOUS
 62
     3
 10
25575.176783999948
 20
17144.422916999989
 30
0.0
 11
25605.174407999959
 21
17144.422916999989
 31
0.0
  0
LINE
  5
4618
  8
2-0
  6
CONTINUOUS
 62
     3
 10
25575.176783999948
 20
17134.81433299998
 30
0.0
 11
25575.176783999948
 21
17128.812432999981
 31
0.0
  0
LINE
  5
4619
  8
2-0
  6
CONTINUOUS
 62
     3
 10
25605.174407999959
 20
17134.81433299998
 30
0.0
 11
25575.176783999948
 21
17134.81433299998
 31
0.0
  0
LINE
  5
461A
  8
2-0
  6
CONTINUOUS
 62
     3
 10
25605.174407999959
 20
17144.422916999989
 30
0.0
 11
25605.174407999959
 21
17791.727247999981
 31
0.0
  0
LINE
  5
461B
  8
2-0
  6
CONTINUOUS
 62
     3
 10
25605.174407999959
 20
17848.917518999991
 30
0.0
 11
25605.174407999959
 21
18492.72130899999
 31
0.0
  0
LINE
  5
461C
  8
2-0
  6
CONTINUOUS
 62
     3
 10
25605.174407999959
 20
16989.812617999989
 30
0.0
 11
25575.176783999948
 21
16989.812617999989
 31
0.0
  0
LINE
  5
461D
  8
2-0
  6
CONTINUOUS
 62
     3
 10
25575.176783999948
 20
16989.812617999989
 30
0.0
 11
25575.176783999948
 21
16995.814517999981
 31
0.0
  0
LINE
  5
461E
  8
2-0
  6
CONTINUOUS
 62
     3
 10
25517.291700999958
 20
17019.818160999981
 30
0.0
 11
25602.288269999961
 21
17019.818160999981
 31
0.0
  0
LINE
  5
461F
  8
2-0
  6
CONTINUOUS
 62
     3
 10
25602.288269999961
 20
17019.818160999981
 30
0.0
 11
25602.288269999961
 21
17039.813277999991
 31
0.0
  0
LINE
  5
4620
  8
2-0
  6
CONTINUOUS
 62
     3
 10
25575.176783999948
 20
16980.204034999992
 30
0.0
 11
25605.174407999959
 21
16980.204034999992
 31
0.0
  0
LINE
  5
4621
  8
2-0
  6
CONTINUOUS
 62
     3
 10
25575.176783999948
 20
16998.199837999979
 30
0.0
 11
25575.176783999948
 21
16980.204034999992
 31
0.0
  0
LINE
  5
4622
  8
2-0
  6
CONTINUOUS
 62
     3
 10
25600.174143999971
 20
16998.199837999979
 30
0.0
 11
25575.176783999948
 21
16998.199837999979
 31
0.0
  0
LINE
  5
4623
  8
2-0
  6
CONTINUOUS
 62
     3
 10
25600.174143999971
 20
16993.199573999991
 30
0.0
 11
25600.174143999971
 21
16998.199837999979
 31
0.0
  0
LINE
  5
4624
  8
2-0
  6
CONTINUOUS
 62
     3
 10
25593.172586999961
 20
16993.199573999991
 30
0.0
 11
25600.174143999971
 21
16993.199573999991
 31
0.0
  0
LINE
  5
4625
  8
2-0
  6
CONTINUOUS
 62
     3
 10
25593.172586999961
 20
16288.717343499949
 30
0.0
 11
25600.174143999971
 21
16288.717343499949
 31
0.0
  0
LINE
  5
4626
  8
2-0
  6
CONTINUOUS
 62
     3
 10
25600.174143999971
 20
16288.717343499949
 30
0.0
 11
25600.174143999971
 21
16293.717607499961
 31
0.0
  0
LINE
  5
4627
  8
2-0
  6
CONTINUOUS
 62
     3
 10
25600.174143999971
 20
16293.717607499961
 30
0.0
 11
25575.176783999948
 21
16293.717607499961
 31
0.0
  0
LINE
  5
4628
  8
2-0
  6
CONTINUOUS
 62
     3
 10
25575.176783999948
 20
16293.717607499961
 30
0.0
 11
25575.176783999948
 21
16275.71586549998
 31
0.0
  0
LINE
  5
4629
  8
2-0
  6
CONTINUOUS
 62
     3
 10
25575.176783999948
 20
16275.71586549998
 30
0.0
 11
25605.174407999959
 21
16275.71586549998
 31
0.0
  0
LINE
  5
462A
  8
2-0
  6
CONTINUOUS
 62
     3
 10
25575.176783999948
 20
16291.81331049998
 30
0.0
 11
25575.176783999948
 21
16285.816359499981
 31
0.0
  0
LINE
  5
462B
  8
2-0
  6
CONTINUOUS
 62
     3
 10
25575.176783999948
 20
16285.816359499981
 30
0.0
 11
25605.174407999959
 21
16285.816359499981
 31
0.0
  0
LINE
  5
462C
  8
2-0
  6
CONTINUOUS
 62
     3
 10
25605.174407999959
 20
16285.816359499981
 30
0.0
 11
25605.174407999959
 21
16322.81653049998
 31
0.0
  0
LINE
  5
462D
  8
2-0
  6
CONTINUOUS
 62
     3
 10
25575.176783999948
 20
16322.81653049998
 30
0.0
 11
25605.174407999959
 21
16322.81653049998
 31
0.0
  0
LINE
  5
462E
  8
2-0
  6
CONTINUOUS
 62
     3
 10
25575.176783999948
 20
16316.81364049998
 30
0.0
 11
25575.176783999948
 21
16322.81653049998
 31
0.0
  0
LINE
  5
462F
  8
2-0
  6
CONTINUOUS
 62
     3
 10
25575.176783999948
 20
16332.91207549998
 30
0.0
 11
25605.174407999959
 21
16332.91207549998
 31
0.0
  0
LINE
  5
4630
  8
2-0
  6
CONTINUOUS
 62
     3
 10
25575.176783999948
 20
16314.904394499979
 30
0.0
 11
25575.176783999948
 21
16332.91207549998
 31
0.0
  0
LINE
  5
4631
  8
2-0
  6
CONTINUOUS
 62
     3
 10
25600.174143999971
 20
16314.904394499979
 30
0.0
 11
25575.176783999948
 21
16314.904394499979
 31
0.0
  0
LINE
  5
4632
  8
2-0
  6
CONTINUOUS
 62
     3
 10
25600.174143999971
 20
16319.91059749998
 30
0.0
 11
25600.174143999971
 21
16314.904394499979
 31
0.0
  0
LINE
  5
4633
  8
2-0
  6
CONTINUOUS
 62
     3
 10
25593.172586999961
 20
16319.91059749998
 30
0.0
 11
25600.174143999971
 21
16319.91059749998
 31
0.0
  0
LINE
  5
4634
  8
2-0
  6
CONTINUOUS
 62
     3
 10
25593.172586999961
 20
15619.15061399998
 30
0.0
 11
25600.174143999971
 21
15619.15061399998
 31
0.0
  0
LINE
  5
4635
  8
2-0
  6
CONTINUOUS
 62
     3
 10
25600.174143999971
 20
15619.15061399998
 30
0.0
 11
25600.174143999971
 21
15614.15628899998
 31
0.0
  0
LINE
  5
4636
  8
2-0
  6
CONTINUOUS
 62
     3
 10
25600.174143999971
 20
15614.15628899998
 30
0.0
 11
25575.176783999948
 21
15614.15628899998
 31
0.0
  0
LINE
  5
4637
  8
2-0
  6
CONTINUOUS
 62
     3
 10
25575.176783999948
 20
15614.15628899998
 30
0.0
 11
25575.176783999948
 21
15632.152092
 31
0.0
  0
LINE
  5
4638
  8
2-0
  6
CONTINUOUS
 62
     3
 10
25575.176783999948
 20
15632.152092
 30
0.0
 11
25605.174407999959
 21
15632.152092
 31
0.0
  0
LINE
  5
4639
  8
2-0
  6
CONTINUOUS
 62
     3
 10
25575.176783999948
 20
15616.05464699999
 30
0.0
 11
25575.176783999948
 21
15622.056547
 31
0.0
  0
LINE
  5
463A
  8
2-0
  6
CONTINUOUS
 62
     3
 10
25575.176783999948
 20
15622.056547
 30
0.0
 11
25605.174407999959
 21
15622.056547
 31
0.0
  0
LINE
  5
463B
  8
2-0
  6
CONTINUOUS
 62
     3
 10
25605.174407999959
 20
15585.05736599999
 30
0.0
 11
25605.174407999959
 21
15622.056547
 31
0.0
  0
LINE
  5
463C
  8
2-0
  6
CONTINUOUS
 62
     3
 10
25575.176783999948
 20
15585.05736599999
 30
0.0
 11
25605.174407999959
 21
15585.05736599999
 31
0.0
  0
LINE
  5
463D
  8
2-0
  6
CONTINUOUS
 62
     3
 10
25575.176783999948
 20
15591.05431699998
 30
0.0
 11
25575.176783999948
 21
15585.05736599999
 31
0.0
  0
LINE
  5
463E
  8
2-0
  6
CONTINUOUS
 62
     3
 10
25575.176783999948
 20
15574.95588199998
 30
0.0
 11
25605.174407999959
 21
15574.95588199998
 31
0.0
  0
LINE
  5
463F
  8
2-0
  6
CONTINUOUS
 62
     3
 10
25575.176783999948
 20
15592.963562999979
 30
0.0
 11
25575.176783999948
 21
15574.95588199998
 31
0.0
  0
LINE
  5
4640
  8
2-0
  6
CONTINUOUS
 62
     3
 10
25600.174143999971
 20
15592.963562999979
 30
0.0
 11
25575.176783999948
 21
15592.963562999979
 31
0.0
  0
LINE
  5
4641
  8
2-0
  6
CONTINUOUS
 62
     3
 10
25600.174143999971
 20
15587.963298999999
 30
0.0
 11
25600.174143999971
 21
15592.963562999979
 31
0.0
  0
LINE
  5
4642
  8
2-0
  6
CONTINUOUS
 62
     3
 10
25593.172586999961
 20
15587.963298999999
 30
0.0
 11
25600.174143999971
 21
15587.963298999999
 31
0.0
  0
LINE
  5
4643
  8
2-0
  6
CONTINUOUS
 62
     3
 10
25605.174407999959
 20
16980.204034999992
 30
0.0
 11
25605.174407999959
 21
16332.91207549998
 31
0.0
  0
LINE
  5
4644
  8
2-0
  6
CONTINUOUS
 62
     3
 10
25605.174407999959
 20
17134.81433299998
 30
0.0
 11
25605.174407999959
 21
16989.812617999989
 31
0.0
  0
LINE
  5
4645
  8
2-0
  6
CONTINUOUS
 62
     3
 10
25517.291700999958
 20
17104.814728999969
 30
0.0
 11
25517.291700999958
 21
17019.818160999981
 31
0.0
  0
LINE
  5
4646
  8
2-0
  6
CONTINUOUS
 62
     3
 10
25593.172586999961
 20
14886.72229199998
 30
0.0
 11
25600.174143999971
 21
14886.72229199998
 31
0.0
  0
LINE
  5
4647
  8
2-0
  6
CONTINUOUS
 62
     3
 10
25600.174143999971
 20
14886.72229199998
 30
0.0
 11
25600.174143999971
 21
14891.71661799998
 31
0.0
  0
LINE
  5
4648
  8
2-0
  6
CONTINUOUS
 62
     3
 10
25600.174143999971
 20
14891.71661799998
 30
0.0
 11
25575.176783999948
 21
14891.71661799998
 31
0.0
  0
LINE
  5
4649
  8
2-0
  6
CONTINUOUS
 62
     3
 10
25575.176783999948
 20
14891.71661799998
 30
0.0
 11
25575.176783999948
 21
14873.720813999969
 31
0.0
  0
LINE
  5
464A
  8
2-0
  6
CONTINUOUS
 62
     3
 10
25575.176783999948
 20
14873.720813999969
 30
0.0
 11
25605.174407999959
 21
14873.720813999969
 31
0.0
  0
LINE
  5
464B
  8
2-0
  6
CONTINUOUS
 62
     3
 10
25575.176783999948
 20
14889.81924899998
 30
0.0
 11
25575.176783999948
 21
14883.81635899998
 31
0.0
  0
LINE
  5
464C
  8
2-0
  6
CONTINUOUS
 62
     3
 10
25575.176783999948
 20
14883.81635899998
 30
0.0
 11
25605.174407999959
 21
14883.81635899998
 31
0.0
  0
LINE
  5
464D
  8
2-0
  6
CONTINUOUS
 62
     3
 10
25605.174407999959
 20
14883.81635899998
 30
0.0
 11
25605.174407999959
 21
14920.816530999949
 31
0.0
  0
LINE
  5
464E
  8
2-0
  6
CONTINUOUS
 62
     3
 10
25575.176783999948
 20
14920.816530999949
 30
0.0
 11
25605.174407999959
 21
14920.816530999949
 31
0.0
  0
LINE
  5
464F
  8
2-0
  6
CONTINUOUS
 62
     3
 10
25575.176783999948
 20
14914.819578999981
 30
0.0
 11
25575.176783999948
 21
14920.816530999949
 31
0.0
  0
LINE
  5
4650
  8
2-0
  6
CONTINUOUS
 62
     3
 10
25575.176783999948
 20
14930.91702399998
 30
0.0
 11
25605.174407999959
 21
14930.91702399998
 31
0.0
  0
LINE
  5
4651
  8
2-0
  6
CONTINUOUS
 62
     3
 10
25575.176783999948
 20
14912.910332999991
 30
0.0
 11
25575.176783999948
 21
14930.91702399998
 31
0.0
  0
LINE
  5
4652
  8
2-0
  6
CONTINUOUS
 62
     3
 10
25600.174143999971
 20
14912.910332999991
 30
0.0
 11
25575.176783999948
 21
14912.910332999991
 31
0.0
  0
LINE
  5
4653
  8
2-0
  6
CONTINUOUS
 62
     3
 10
25600.174143999971
 20
14917.91554599998
 30
0.0
 11
25600.174143999971
 21
14912.910332999991
 31
0.0
  0
LINE
  5
4654
  8
2-0
  6
CONTINUOUS
 62
     3
 10
25593.172586999961
 20
14917.91554599998
 30
0.0
 11
25600.174143999971
 21
14917.91554599998
 31
0.0
  0
LINE
  5
4655
  8
2-0
  6
CONTINUOUS
 62
     3
 10
25575.176783999948
 20
14561.31837199998
 30
0.0
 11
25575.176783999948
 21
14567.32324099998
 31
0.0
  0
LINE
  5
4656
  8
2-0
  6
CONTINUOUS
 62
     3
 10
25575.176783999948
 20
14567.32324099998
 30
0.0
 11
25605.174407999959
 21
14567.32324099998
 31
0.0
  0
LINE
  5
4657
  8
2-0
  6
CONTINUOUS
 62
     3
 10
25605.174407999959
 20
14567.32324099998
 30
0.0
 11
25605.174407999959
 21
14452.319149999979
 31
0.0
  0
LINE
  5
4658
  8
2-0
  6
CONTINUOUS
 62
     3
 10
25605.174407999959
 20
14452.319149999979
 30
0.0
 11
25520.17585999997
 21
14452.319149999979
 31
0.0
  0
LINE
  5
4659
  8
2-0
  6
CONTINUOUS
 62
     3
 10
25520.17585999997
 20
14452.319149999979
 30
0.0
 11
25520.17585999997
 21
14537.314728999971
 31
0.0
  0
LINE
  5
465A
  8
2-0
  6
CONTINUOUS
 62
     3
 10
25520.17585999997
 20
14537.314728999971
 30
0.0
 11
25552.17477799996
 21
14537.314728999971
 31
0.0
  0
LINE
  5
465B
  8
2-0
  6
CONTINUOUS
 62
     3
 10
25593.172586999961
 20
14564.352973999979
 30
0.0
 11
25600.174143999971
 21
14564.352973999979
 31
0.0
  0
LINE
  5
465C
  8
2-0
  6
CONTINUOUS
 62
     3
 10
25600.174143999971
 20
14564.352973999979
 30
0.0
 11
25600.174143999971
 21
14559.355678999949
 31
0.0
  0
LINE
  5
465D
  8
2-0
  6
CONTINUOUS
 62
     3
 10
25600.174143999971
 20
14559.355678999949
 30
0.0
 11
25575.176783999948
 21
14559.355678999949
 31
0.0
  0
LINE
  5
465E
  8
2-0
  6
CONTINUOUS
 62
     3
 10
25575.176783999948
 20
14559.355678999949
 30
0.0
 11
25575.176783999948
 21
14577.35445199998
 31
0.0
  0
LINE
  5
465F
  8
2-0
  6
CONTINUOUS
 62
     3
 10
25575.176783999948
 20
14577.35445199998
 30
0.0
 11
25605.174407999959
 21
14577.35445199998
 31
0.0
  0
LINE
  5
4660
  8
2-0
  6
CENTER2
 62
     6
 10
25562.676123999961
 20
14254.82159199996
 30
0.0
 11
25562.676123999961
 21
15060.190350000001
 31
0.0
  0
LINE
  5
4661
  8
2-0
  6
CONTINUOUS
 62
     3
 10
25605.174407999959
 20
18549.911580999978
 30
0.0
 11
25605.174407999959
 21
19193.722298499961
 31
0.0
  0
LINE
  5
4662
  8
2-0
  6
CONTINUOUS
 62
     6
 10
26297.67929099996
 20
20402.317632999999
 30
0.0
 11
27497.673352999951
 21
20402.317632999999
 31
0.0
  0
LINE
  5
4663
  8
2-0
  6
CONTINUOUS
 62
     3
 10
23067.677971999969
 20
19672.314729999998
 30
0.0
 11
23067.677971999969
 21
19642.311166999989
 31
0.0
  0
LINE
  5
4664
  8
2-0
  6
CONTINUOUS
 62
     3
 10
23067.677971999969
 20
19642.311166999989
 30
0.0
 11
23061.68002999996
 21
19642.311166999989
 31
0.0
  0
LINE
  5
4665
  8
2-0
  6
CONTINUOUS
 62
     3
 10
23077.29447299998
 20
19642.311166999989
 30
0.0
 11
23077.29447299998
 21
19672.314729999998
 31
0.0
  0
LINE
  5
4666
  8
2-0
  6
CONTINUOUS
 62
     3
 10
23059.292730999961
 20
19642.311166999989
 30
0.0
 11
23077.29447299998
 21
19642.311166999989
 31
0.0
  0
LINE
  5
4667
  8
2-0
  6
CONTINUOUS
 62
     3
 10
23059.292730999961
 20
19667.320403999991
 30
0.0
 11
23059.292730999961
 21
19642.311166999989
 31
0.0
  0
LINE
  5
4668
  8
2-0
  6
CONTINUOUS
 62
     3
 10
23064.292994999989
 20
19667.320403999991
 30
0.0
 11
23059.292730999961
 21
19667.320403999991
 31
0.0
  0
LINE
  5
4669
  8
2-0
  6
CONTINUOUS
 62
     3
 10
23064.292994999989
 20
19660.314888000001
 30
0.0
 11
23064.292994999989
 21
19667.320403999991
 31
0.0
  0
LINE
  5
466A
  8
2-0
  6
CONTINUOUS
 62
     3
 10
23037.676387999982
 20
19669.422653000001
 30
0.0
 11
23037.676387999982
 21
19584.424104999998
 31
0.0
  0
LINE
  5
466B
  8
2-0
  6
CONTINUOUS
 62
     3
 10
23017.679290999971
 20
19669.422653000001
 30
0.0
 11
23037.676387999982
 21
19669.422653000001
 31
0.0
  0
LINE
  5
466C
  8
2-0
  6
CONTINUOUS
 62
     3
 10
22926.06519199998
 20
19660.314888000001
 30
0.0
 11
22926.06519199998
 21
19667.320403999991
 31
0.0
  0
LINE
  5
466D
  8
2-0
  6
CONTINUOUS
 62
     3
 10
22926.06519199998
 20
19667.320403999991
 30
0.0
 11
22931.065455999971
 21
19667.320403999991
 31
0.0
  0
LINE
  5
466E
  8
2-0
  6
CONTINUOUS
 62
     3
 10
22931.065455999971
 20
19667.320403999991
 30
0.0
 11
22931.065455999971
 21
19642.311166999989
 31
0.0
  0
LINE
  5
466F
  8
2-0
  6
CONTINUOUS
 62
     3
 10
22931.065455999971
 20
19642.311166999989
 30
0.0
 11
22913.063713999971
 21
19642.311166999989
 31
0.0
  0
LINE
  5
4670
  8
2-0
  6
CONTINUOUS
 62
     3
 10
22913.063713999971
 20
19642.311166999989
 30
0.0
 11
22913.063713999971
 21
19672.314729999998
 31
0.0
  0
LINE
  5
4671
  8
2-0
  6
CONTINUOUS
 62
     3
 10
22952.68377799997
 20
19669.422653000001
 30
0.0
 11
22972.678894999972
 21
19669.422653000001
 31
0.0
  0
LINE
  5
4672
  8
2-0
  6
CONTINUOUS
 62
     3
 10
22952.68377799997
 20
19584.424104999998
 30
0.0
 11
22952.68377799997
 21
19669.422653000001
 31
0.0
  0
LINE
  5
4673
  8
2-0
  6
CONTINUOUS
 62
     3
 10
22922.686153999981
 20
19642.311166999989
 30
0.0
 11
22928.68211499996
 21
19642.311166999989
 31
0.0
  0
LINE
  5
4674
  8
2-0
  6
CONTINUOUS
 62
     3
 10
22922.686153999981
 20
19672.314729999998
 30
0.0
 11
22922.686153999981
 21
19642.311166999989
 31
0.0
  0
LINE
  5
4675
  8
2-0
  6
CONTINUOUS
 62
     3
 10
23037.676387999982
 20
19584.424104999998
 30
0.0
 11
22952.68377799997
 21
19584.424104999998
 31
0.0
  0
LINE
  5
4676
  8
2-0
  6
CONTINUOUS
 62
     3
 10
23067.677971999969
 20
19672.314729999998
 30
0.0
 11
22922.686153999981
 21
19672.314729999998
 31
0.0
  0
LINE
  5
4677
  8
2-0
  6
CONTINUOUS
 62
     6
 10
25757.215291999932
 20
19814.994470000001
 30
0.0
 11
26297.67929099996
 21
20402.317632999999
 31
0.0
  0
LINE
  5
4678
  8
2-0
  6
CONTINUOUS
 62
     6
 10
23037.676387999982
 20
14537.314728999971
 30
0.0
 11
23314.266600999981
 21
14992.659428999979
 31
0.0
  0
LINE
  5
4679
  8
2-0
  6
CONTINUOUS
 62
     6
 10
23314.266600999981
 20
14992.659428999979
 30
0.0
 11
24344.61591999996
 21
14992.659428999979
 31
0.0
  0
LINE
  5
467A
  8
2-0
  6
CONTINUOUS
 62
     3
 10
25514.170000999959
 20
18478.815190999961
 30
0.0
 11
25561.175648999961
 21
18478.815190999961
 31
0.0
  0
LINE
  5
467B
  8
2-0
  6
CONTINUOUS
 62
     3
 10
25561.175648999961
 20
18563.815718999991
 30
0.0
 11
25514.170000999959
 21
18563.815718999991
 31
0.0
  0
LINE
  5
467C
  8
2-0
  6
CONTINUOUS
 62
     3
 10
25561.175648999961
 20
18478.815190999961
 30
0.0
 11
25561.175648999961
 21
18503.818489999991
 31
0.0
  0
LINE
  5
467D
  8
2-0
  6
CONTINUOUS
 62
     3
 10
25561.175648999961
 20
18538.814398999992
 30
0.0
 11
25561.175648999961
 21
18563.815718999991
 31
0.0
  0
LINE
  5
467E
  8
2-0
  6
CONTINUOUS
 62
     3
 10
25514.170000999959
 20
18563.815718999991
 30
0.0
 11
25514.170000999959
 21
18478.815190999961
 31
0.0
  0
LINE
  5
467F
  8
2-0
  6
CONTINUOUS
 62
     3
 10
25605.174407999959
 20
16275.71586549998
 30
0.0
 11
25605.174407999959
 21
15632.152092
 31
0.0
  0
LINE
  5
4680
  8
2-0
  6
CONTINUOUS
 62
     3
 10
25514.170000999959
 20
15560.81816099999
 30
0.0
 11
25561.175648999961
 21
15560.81816099999
 31
0.0
  0
LINE
  5
4681
  8
2-0
  6
CONTINUOUS
 62
     3
 10
25561.175648999961
 20
15645.814728999971
 30
0.0
 11
25514.170000999959
 21
15645.814728999971
 31
0.0
  0
LINE
  5
4682
  8
2-0
  6
CONTINUOUS
 62
     3
 10
25561.175648999961
 20
15560.81816099999
 30
0.0
 11
25561.175648999961
 21
15585.813541999991
 31
0.0
  0
LINE
  5
4683
  8
2-0
  6
CONTINUOUS
 62
     3
 10
25561.175648999961
 20
15620.813409999981
 30
0.0
 11
25561.175648999961
 21
15645.814728999971
 31
0.0
  0
LINE
  5
4684
  8
2-0
  6
CONTINUOUS
 62
     3
 10
25514.170000999959
 20
15645.814728999971
 30
0.0
 11
25514.170000999959
 21
15560.81816099999
 31
0.0
  0
LINE
  5
4685
  8
2-0
  6
CONTINUOUS
 62
     6
 10
23097.954707999961
 20
14687.910563999971
 30
0.0
 11
23037.676387999982
 21
14537.314728999971
 31
0.0
  0
LINE
  5
4686
  8
2-0
  6
CONTINUOUS
 62
     6
 10
23037.676387999982
 20
14537.314728999971
 30
0.0
 11
23143.535102999929
 21
14660.22303799998
 31
0.0
  0
LINE
  5
4687
  8
2-0
  6
CONTINUOUS
 62
     6
 10
23097.954707999961
 20
14687.910563999971
 30
0.0
 11
23143.535102999929
 21
14660.22303799998
 31
0.0
  0
LINE
  5
4688
  8
2-0
  6
CONTINUOUS
 62
     6
 10
23143.535102999929
 20
14660.22303799998
 30
0.0
 11
23037.676387999982
 21
14537.314728999971
 31
0.0
  0
LINE
  5
4689
  8
2-0
  6
CONTINUOUS
 62
     6
 10
23037.676387999982
 20
14537.314728999971
 30
0.0
 11
23097.954707999961
 21
14687.910563999971
 31
0.0
  0
LINE
  5
468A
  8
2-0
  6
CONTINUOUS
 62
     6
 10
23097.954707999961
 20
14687.910563999971
 30
0.0
 11
23037.676387999982
 21
14537.314728999971
 31
0.0
  0
LINE
  5
468B
  8
2-0
  6
CONTINUOUS
 62
     6
 10
23143.535102999929
 20
14660.22303799998
 30
0.0
 11
23037.676387999982
 21
14537.314728999971
 31
0.0
  0
LINE
  5
468C
  8
2-0
  6
CONTINUOUS
 62
     6
 10
23143.535102999929
 20
14660.22303799998
 30
0.0
 11
23097.954707999961
 21
14687.910563999971
 31
0.0
  0
LINE
  5
468D
  8
2-0
  6
CONTINUOUS
 62
     6
 10
25776.832320999962
 20
19796.933343000001
 30
0.0
 11
25648.87030099997
 21
19697.250725000002
 31
0.0
  0
LINE
  5
468E
  8
2-0
  6
CONTINUOUS
 62
     6
 10
25648.87030099997
 20
19697.250725000002
 30
0.0
 11
25737.584405999962
 21
19833.047679999989
 31
0.0
  0
LINE
  5
468F
  8
2-0
  6
CONTINUOUS
 62
     6
 10
25776.832320999962
 20
19796.933343000001
 30
0.0
 11
25737.584405999962
 21
19833.047679999989
 31
0.0
  0
LINE
  5
4690
  8
2-0
  6
CONTINUOUS
 62
     6
 10
25737.584405999962
 20
19833.047679999989
 30
0.0
 11
25648.87030099997
 21
19697.250725000002
 31
0.0
  0
LINE
  5
4691
  8
2-0
  6
CONTINUOUS
 62
     6
 10
25648.87030099997
 20
19697.250725000002
 30
0.0
 11
25776.832320999962
 21
19796.933343000001
 31
0.0
  0
LINE
  5
4692
  8
2-0
  6
CONTINUOUS
 62
     6
 10
25776.832320999962
 20
19796.933343000001
 30
0.0
 11
25648.87030099997
 21
19697.250725000002
 31
0.0
  0
LINE
  5
4693
  8
2-0
  6
CONTINUOUS
 62
     6
 10
25737.584405999962
 20
19833.047679999989
 30
0.0
 11
25648.87030099997
 21
19697.250725000002
 31
0.0
  0
LINE
  5
4694
  8
2-0
  6
CONTINUOUS
 62
     6
 10
25737.584405999962
 20
19833.047679999989
 30
0.0
 11
25776.832320999962
 21
19796.933343000001
 31
0.0
  0
LINE
  5
4695
  8
2-0
  6
CONTINUOUS
 62
     6
 10
19119.106523999992
 20
19424.542347999992
 30
0.0
 11
19251.039456999999
 21
18955.196512999992
 31
0.0
  0
LINE
  5
4696
  8
2-0
  6
CONTINUOUS
 62
     6
 10
19251.039456999999
 20
18955.196512999992
 30
0.0
 11
20276.077727999978
 21
18955.196512999992
 31
0.0
  0
LINE
  5
4697
  8
2-0
  6
CONTINUOUS
 62
     6
 10
19075.812473000002
 20
19578.570668
 30
0.0
 11
19093.434146999982
 21
19417.325023000001
 31
0.0
  0
LINE
  5
4698
  8
2-0
  6
CONTINUOUS
 62
     6
 10
19144.778900000001
 20
19431.763631999991
 30
0.0
 11
19093.434146999982
 21
19417.325023000001
 31
0.0
  0
LINE
  5
4699
  8
2-0
  6
CONTINUOUS
 62
     6
 10
19093.434146999982
 20
19417.325023000001
 30
0.0
 11
19075.812473000002
 21
19578.570668
 31
0.0
  0
LINE
  5
469A
  8
2-0
  6
CONTINUOUS
 62
     6
 10
19075.812473000002
 20
19578.570668
 30
0.0
 11
19144.778900000001
 21
19431.763631999991
 31
0.0
  0
LINE
  5
469B
  8
2-0
  6
CONTINUOUS
 62
     6
 10
19144.778900000001
 20
19431.763631999991
 30
0.0
 11
19075.812473000002
 21
19578.570668
 31
0.0
  0
LINE
  5
469C
  8
2-0
  6
CONTINUOUS
 62
     6
 10
19093.434146999982
 20
19417.325023000001
 30
0.0
 11
19075.812473000002
 21
19578.570668
 31
0.0
  0
LINE
  5
469D
  8
2-0
  6
CONTINUOUS
 62
     6
 10
19093.434146999982
 20
19417.325023000001
 30
0.0
 11
19144.778900000001
 21
19431.763631999991
 31
0.0
  0
LINE
  5
469E
  8
2-0
  6
CONTINUOUS
 62
     6
 10
23036.599529999981
 20
19553.563409999992
 30
0.0
 11
23185.469224999972
 21
19023.941234000002
 31
0.0
  0
LINE
  5
469F
  8
2-0
  6
CONTINUOUS
 62
     6
 10
23185.469224999972
 20
19023.941234000002
 30
0.0
 11
24210.51343399996
 21
19023.941234000002
 31
0.0
  0
LINE
  5
46A0
  8
2-0
  6
CONTINUOUS
 62
     6
 10
23054.223183999951
 20
19392.317764999989
 30
0.0
 11
23105.57387499998
 21
19406.752414999992
 31
0.0
  0
LINE
  5
46A1
  8
2-0
  6
CONTINUOUS
 62
     6
 10
23105.57387499998
 20
19406.752414999992
 30
0.0
 11
23054.223183999951
 21
19392.317764999989
 31
0.0
  0
LINE
  5
46A2
  8
2-0
  6
CONTINUOUS
 62
     6
 10
23054.223183999951
 20
19392.317764999989
 30
0.0
 11
23036.599529999981
 21
19553.563409999992
 31
0.0
  0
LINE
  5
46A3
  8
2-0
  6
CONTINUOUS
 62
     6
 10
23036.599529999981
 20
19553.563409999992
 30
0.0
 11
23105.57387499998
 21
19406.752414999992
 31
0.0
  0
LINE
  5
46A4
  8
2-0
  6
CONTINUOUS
 62
     6
 10
23105.57387499998
 20
19406.752414999992
 30
0.0
 11
23036.599529999981
 21
19553.563409999992
 31
0.0
  0
LINE
  5
46A5
  8
2-0
  6
CONTINUOUS
 62
     6
 10
23054.223183999951
 20
19392.317764999989
 30
0.0
 11
23036.599529999981
 21
19553.563409999992
 31
0.0
  0
LINE
  5
46A6
  8
2-0
  6
CONTINUOUS
 62
     6
 10
23105.57387499998
 20
19406.752414999992
 30
0.0
 11
23036.599529999981
 21
19553.563409999992
 31
0.0
  0
LINE
  5
46A7
  8
2-0
  6
CONTINUOUS
 62
     6
 10
23036.599529999981
 20
19553.563409999992
 30
0.0
 11
23054.223183999951
 21
19392.317764999989
 31
0.0
  0
LINE
  5
46A8
  8
2-0
  6
CONTINUOUS
 62
     4
 10
22995.176123999961
 20
19752.316973000001
 30
0.0
 11
22995.176123999961
 21
20482.313937999981
 31
0.0
  0
LINE
  5
46A9
  8
2-0
  6
CONTINUOUS
 62
     6
 10
25358.851033999959
 20
15514.31135099998
 30
0.0
 11
25514.170000999959
 21
15561.058671999979
 31
0.0
  0
LINE
  5
46AA
  8
2-0
  6
CONTINUOUS
 62
     6
 10
25514.170000999959
 20
15561.058671999979
 30
0.0
 11
25382.409284999962
 21
15466.46638699998
 31
0.0
  0
LINE
  5
46AB
  8
2-0
  6
CONTINUOUS
 62
     6
 10
25358.851033999959
 20
15514.31135099998
 30
0.0
 11
25382.409284999962
 21
15466.46638699998
 31
0.0
  0
LINE
  5
46AC
  8
2-0
  6
CONTINUOUS
 62
     6
 10
25382.409284999962
 20
15466.46638699998
 30
0.0
 11
25514.170000999959
 21
15561.058671999979
 31
0.0
  0
LINE
  5
46AD
  8
2-0
  6
CONTINUOUS
 62
     6
 10
25514.170000999959
 20
15561.058671999979
 30
0.0
 11
25358.851033999959
 21
15514.31135099998
 31
0.0
  0
LINE
  5
46AE
  8
2-0
  6
CONTINUOUS
 62
     6
 10
25358.851033999959
 20
15514.31135099998
 30
0.0
 11
25514.170000999959
 21
15561.058671999979
 31
0.0
  0
LINE
  5
46AF
  8
2-0
  6
CONTINUOUS
 62
     6
 10
25382.409284999962
 20
15466.46638699998
 30
0.0
 11
25514.170000999959
 21
15561.058671999979
 31
0.0
  0
LINE
  5
46B0
  8
2-0
  6
CONTINUOUS
 62
     6
 10
25382.409284999962
 20
15466.46638699998
 30
0.0
 11
25358.851033999959
 21
15514.31135099998
 31
0.0
  0
LINE
  5
46B1
  8
2-0
  6
CONTINUOUS
 62
     6
 10
25328.53668699996
 20
14344.046411999971
 30
0.0
 11
25460.28354599997
 21
14438.673338999981
 31
0.0
  0
LINE
  5
46B2
  8
2-0
  6
CONTINUOUS
 62
     6
 10
25460.28354599997
 20
14438.673338999981
 30
0.0
 11
25366.35340999996
 21
14306.434568999961
 31
0.0
  0
LINE
  5
46B3
  8
2-0
  6
CONTINUOUS
 62
     6
 10
25328.53668699996
 20
14344.046411999971
 30
0.0
 11
25366.35340999996
 21
14306.434568999961
 31
0.0
  0
LINE
  5
46B4
  8
2-0
  6
CONTINUOUS
 62
     6
 10
25366.35340999996
 20
14306.434568999961
 30
0.0
 11
25460.28354599997
 21
14438.673338999981
 31
0.0
  0
LINE
  5
46B5
  8
2-0
  6
CONTINUOUS
 62
     6
 10
25460.28354599997
 20
14438.673338999981
 30
0.0
 11
25328.53668699996
 21
14344.046411999971
 31
0.0
  0
LINE
  5
46B6
  8
2-0
  6
CONTINUOUS
 62
     6
 10
25328.53668699996
 20
14344.046411999971
 30
0.0
 11
25460.28354599997
 21
14438.673338999981
 31
0.0
  0
LINE
  5
46B7
  8
2-0
  6
CONTINUOUS
 62
     6
 10
25366.35340999996
 20
14306.434568999961
 30
0.0
 11
25460.28354599997
 21
14438.673338999981
 31
0.0
  0
LINE
  5
46B8
  8
2-0
  6
CONTINUOUS
 62
     6
 10
25366.35340999996
 20
14306.434568999961
 30
0.0
 11
25328.53668699996
 21
14344.046411999971
 31
0.0
  0
LINE
  5
46B9
  8
2-0
  6
CONTINUOUS
 62
     6
 10
25391.572475999961
 20
14670.95103899995
 30
0.0
 11
25524.17250799996
 21
14577.522710999971
 31
0.0
  0
LINE
  5
46BA
  8
2-0
  6
CONTINUOUS
 62
     6
 10
25524.17250799996
 20
14577.522710999971
 30
0.0
 11
25368.439821999971
 21
14622.898224999981
 31
0.0
  0
LINE
  5
46BB
  8
2-0
  6
CONTINUOUS
 62
     6
 10
25391.572475999961
 20
14670.95103899995
 30
0.0
 11
25368.439821999971
 21
14622.898224999981
 31
0.0
  0
LINE
  5
46BC
  8
2-0
  6
CONTINUOUS
 62
     6
 10
25368.439821999971
 20
14622.898224999981
 30
0.0
 11
25524.17250799996
 21
14577.522710999971
 31
0.0
  0
LINE
  5
46BD
  8
2-0
  6
CONTINUOUS
 62
     6
 10
25524.17250799996
 20
14577.522710999971
 30
0.0
 11
25391.572475999961
 21
14670.95103899995
 31
0.0
  0
LINE
  5
46BE
  8
2-0
  6
CONTINUOUS
 62
     6
 10
25391.572475999961
 20
14670.95103899995
 30
0.0
 11
25524.17250799996
 21
14577.522710999971
 31
0.0
  0
LINE
  5
46BF
  8
2-0
  6
CONTINUOUS
 62
     6
 10
25368.439821999971
 20
14622.898224999981
 30
0.0
 11
25524.17250799996
 21
14577.522710999971
 31
0.0
  0
LINE
  5
46C0
  8
2-0
  6
CONTINUOUS
 62
     6
 10
25368.439821999971
 20
14622.898224999981
 30
0.0
 11
25391.572475999961
 21
14670.95103899995
 31
0.0
  0
LINE
  5
46C1
  8
2-0
  6
CONTINUOUS
 62
     6
 10
25451.336121999961
 20
16700.271971999999
 30
0.0
 11
25605.174407999959
 21
16751.705803000001
 31
0.0
  0
LINE
  5
46C2
  8
2-0
  6
CONTINUOUS
 62
     6
 10
25605.174407999959
 20
16751.705803000001
 30
0.0
 11
25476.339420999961
 21
16653.165368000002
 31
0.0
  0
LINE
  5
46C3
  8
2-0
  6
CONTINUOUS
 62
     6
 10
25451.336121999961
 20
16700.271971999999
 30
0.0
 11
25476.339420999961
 21
16653.165368000002
 31
0.0
  0
LINE
  5
46C4
  8
2-0
  6
CONTINUOUS
 62
     6
 10
25476.339420999961
 20
16653.165368000002
 30
0.0
 11
25605.174407999959
 21
16751.705803000001
 31
0.0
  0
LINE
  5
46C5
  8
2-0
  6
CONTINUOUS
 62
     6
 10
25605.174407999959
 20
16751.705803000001
 30
0.0
 11
25451.336121999961
 21
16700.271971999999
 31
0.0
  0
LINE
  5
46C6
  8
2-0
  6
CONTINUOUS
 62
     6
 10
25451.336121999961
 20
16700.271971999999
 30
0.0
 11
25605.174407999959
 21
16751.705803000001
 31
0.0
  0
LINE
  5
46C7
  8
2-0
  6
CONTINUOUS
 62
     6
 10
25476.339420999961
 20
16653.165368000002
 30
0.0
 11
25605.174407999959
 21
16751.705803000001
 31
0.0
  0
LINE
  5
46C8
  8
2-0
  6
CONTINUOUS
 62
     6
 10
25476.339420999961
 20
16653.165368000002
 30
0.0
 11
25451.336121999961
 21
16700.271971999999
 31
0.0
  0
LINE
  5
46C9
  8
2-0
  6
CONTINUOUS
 62
     6
 10
25317.399914999962
 20
17191.59046399999
 30
0.0
 11
25460.28354599997
 21
17114.81483499999
 31
0.0
  0
LINE
  5
46CA
  8
2-0
  6
CONTINUOUS
 62
     6
 10
25460.28354599997
 20
17114.81483499999
 30
0.0
 11
25300.22165299996
 21
17141.096904000002
 31
0.0
  0
LINE
  5
46CB
  8
2-0
  6
CONTINUOUS
 62
     6
 10
25317.399914999962
 20
17191.59046399999
 30
0.0
 11
25300.22165299996
 21
17141.096904000002
 31
0.0
  0
LINE
  5
46CC
  8
2-0
  6
CONTINUOUS
 62
     6
 10
25300.22165299996
 20
17141.096904000002
 30
0.0
 11
25460.28354599997
 21
17114.81483499999
 31
0.0
  0
LINE
  5
46CD
  8
2-0
  6
CONTINUOUS
 62
     6
 10
25460.28354599997
 20
17114.81483499999
 30
0.0
 11
25317.399914999962
 21
17191.59046399999
 31
0.0
  0
LINE
  5
46CE
  8
2-0
  6
CONTINUOUS
 62
     6
 10
25317.399914999962
 20
17191.59046399999
 30
0.0
 11
25460.28354599997
 21
17114.81483499999
 31
0.0
  0
LINE
  5
46CF
  8
2-0
  6
CONTINUOUS
 62
     6
 10
25300.22165299996
 20
17141.096904000002
 30
0.0
 11
25460.28354599997
 21
17114.81483499999
 31
0.0
  0
LINE
  5
46D0
  8
2-0
  6
CONTINUOUS
 62
     6
 10
25300.22165299996
 20
17141.096904000002
 30
0.0
 11
25317.399914999962
 21
17191.59046399999
 31
0.0
  0
LINE
  5
46D1
  8
2-0
  6
CONTINUOUS
 62
     6
 10
25358.851033999959
 20
18432.070838999982
 30
0.0
 11
25514.170000999959
 21
18478.815190999961
 31
0.0
  0
LINE
  5
46D2
  8
2-0
  6
CONTINUOUS
 62
     6
 10
25514.170000999959
 20
18478.815190999961
 30
0.0
 11
25382.409284999962
 21
18384.219936999991
 31
0.0
  0
LINE
  5
46D3
  8
2-0
  6
CONTINUOUS
 62
     6
 10
25358.851033999959
 20
18432.070838999982
 30
0.0
 11
25382.409284999962
 21
18384.219936999991
 31
0.0
  0
LINE
  5
46D4
  8
2-0
  6
CONTINUOUS
 62
     6
 10
25382.409284999962
 20
18384.219936999991
 30
0.0
 11
25514.170000999959
 21
18478.815190999961
 31
0.0
  0
LINE
  5
46D5
  8
2-0
  6
CONTINUOUS
 62
     6
 10
25514.170000999959
 20
18478.815190999961
 30
0.0
 11
25358.851033999959
 21
18432.070838999982
 31
0.0
  0
LINE
  5
46D6
  8
2-0
  6
CONTINUOUS
 62
     6
 10
25358.851033999959
 20
18432.070838999982
 30
0.0
 11
25514.170000999959
 21
18478.815190999961
 31
0.0
  0
LINE
  5
46D7
  8
2-0
  6
CONTINUOUS
 62
     6
 10
25382.409284999962
 20
18384.219936999991
 30
0.0
 11
25514.170000999959
 21
18478.815190999961
 31
0.0
  0
LINE
  5
46D8
  8
2-0
  6
CONTINUOUS
 62
     6
 10
25382.409284999962
 20
18384.219936999991
 30
0.0
 11
25358.851033999959
 21
18432.070838999982
 31
0.0
  0
LINE
  5
46D9
  8
2-0
  6
CONTINUOUS
 62
     3
 10
19755.67142599999
 20
19672.314729999998
 30
0.0
 11
19718.670263999989
 21
19672.314729999998
 31
0.0
  0
LINE
  5
46DA
  8
2-0
  6
CONTINUOUS
 62
     3
 10
19755.67142599999
 20
19642.311166999989
 30
0.0
 11
19755.67142599999
 21
19672.314729999998
 31
0.0
  0
LINE
  5
46DB
  8
2-0
  6
CONTINUOUS
 62
     3
 10
19749.671504999969
 20
19642.311166999989
 30
0.0
 11
19755.67142599999
 21
19642.311166999989
 31
0.0
  0
LINE
  5
46DC
  8
2-0
  6
CONTINUOUS
 62
     3
 10
19765.768949999991
 20
19642.311166999989
 30
0.0
 11
19765.768949999991
 21
19672.314729999998
 31
0.0
  0
LINE
  5
46DD
  8
2-0
  6
CONTINUOUS
 62
     3
 10
19747.76522899999
 20
19642.311166999989
 30
0.0
 11
19765.768949999991
 21
19642.311166999989
 31
0.0
  0
LINE
  5
46DE
  8
2-0
  6
CONTINUOUS
 62
     3
 10
19747.76522899999
 20
19667.320403999991
 30
0.0
 11
19747.76522899999
 21
19642.311166999989
 31
0.0
  0
LINE
  5
46DF
  8
2-0
  6
CONTINUOUS
 62
     3
 10
19752.765492999992
 20
19667.320403999991
 30
0.0
 11
19747.76522899999
 21
19667.320403999991
 31
0.0
  0
LINE
  5
46E0
  8
2-0
  6
CONTINUOUS
 62
     3
 10
19752.765492999992
 20
19660.314888000001
 30
0.0
 11
19752.765492999992
 21
19667.320403999991
 31
0.0
  0
LINE
  5
46E1
  8
2-0
  6
CONTINUOUS
 62
     3
 10
19721.576197999981
 20
19660.314888000001
 30
0.0
 11
19721.576197999981
 21
19667.320403999991
 31
0.0
  0
LINE
  5
46E2
  8
2-0
  6
CONTINUOUS
 62
     3
 10
19721.576197999981
 20
19667.320403999991
 30
0.0
 11
19726.57646199999
 21
19667.320403999991
 31
0.0
  0
LINE
  5
46E3
  8
2-0
  6
CONTINUOUS
 62
     3
 10
19726.57646199999
 20
19667.320403999991
 30
0.0
 11
19726.57646199999
 21
19642.311166999989
 31
0.0
  0
LINE
  5
46E4
  8
2-0
  6
CONTINUOUS
 62
     3
 10
19726.57646199999
 20
19642.311166999989
 30
0.0
 11
19708.57669899999
 21
19642.311166999989
 31
0.0
  0
LINE
  5
46E5
  8
2-0
  6
CONTINUOUS
 62
     3
 10
19708.57669899999
 20
19642.311166999989
 30
0.0
 11
19708.57669899999
 21
19672.314729999998
 31
0.0
  0
LINE
  5
46E6
  8
2-0
  6
CONTINUOUS
 62
     3
 10
19724.670184999992
 20
19642.311166999989
 30
0.0
 11
19718.670263999989
 21
19642.311166999989
 31
0.0
  0
LINE
  5
46E7
  8
2-0
  6
CONTINUOUS
 62
     3
 10
19718.670263999989
 20
19642.311166999989
 30
0.0
 11
19718.670263999989
 21
19672.314729999998
 31
0.0
  0
LINE
  5
46E8
  8
2-0
  6
CONTINUOUS
 62
     3
 10
17915.172164999989
 20
19563.314518999981
 30
0.0
 11
17915.172164999989
 21
19557.318556999991
 31
0.0
  0
LINE
  5
46E9
  8
2-0
  6
CONTINUOUS
 62
     3
 10
17915.172164999989
 20
19557.318556999991
 30
0.0
 11
17885.174539999989
 21
19557.318556999991
 31
0.0
  0
LINE
  5
46EA
  8
2-0
  6
CONTINUOUS
 62
     3
 10
17885.174539999989
 20
19557.318556999991
 30
0.0
 11
17885.174539999989
 21
19672.314729999998
 31
0.0
  0
LINE
  5
46EB
  8
2-0
  6
CONTINUOUS
 62
     3
 10
17885.174539999989
 20
19587.318160999981
 30
0.0
 11
17966.172480999991
 21
19587.318160999981
 31
0.0
  0
LINE
  5
46EC
  8
2-0
  6
CONTINUOUS
 62
     3
 10
17915.172164999989
 20
19547.021100999991
 30
0.0
 11
17885.174539999989
 21
19547.021100999991
 31
0.0
  0
LINE
  5
46ED
  8
2-0
  6
CONTINUOUS
 62
     3
 10
17915.172164999989
 20
19565.022842999992
 30
0.0
 11
17915.172164999989
 21
19547.021100999991
 31
0.0
  0
LINE
  5
46EE
  8
2-0
  6
CONTINUOUS
 62
     3
 10
17890.178762999989
 20
19565.022842999992
 30
0.0
 11
17915.172164999989
 21
19565.022842999992
 31
0.0
  0
LINE
  5
46EF
  8
2-0
  6
CONTINUOUS
 62
     3
 10
17890.178762999989
 20
19560.014661000001
 30
0.0
 11
17890.178762999989
 21
19565.022842999992
 31
0.0
  0
LINE
  5
46F0
  8
2-0
  6
CONTINUOUS
 62
     3
 10
17897.176360999962
 20
19560.014661000001
 30
0.0
 11
17890.178762999989
 21
19560.014661000001
 31
0.0
  0
LINE
  5
46F1
  8
2-0
  6
CONTINUOUS
 62
     3
 10
17997.470649999981
 20
19660.314888000001
 30
0.0
 11
17997.470649999981
 21
19667.320403999991
 31
0.0
  0
LINE
  5
46F2
  8
2-0
  6
CONTINUOUS
 62
     3
 10
17997.470649999981
 20
19667.320403999991
 30
0.0
 11
17992.468405999989
 21
19667.320403999991
 31
0.0
  0
LINE
  5
46F3
  8
2-0
  6
CONTINUOUS
 62
     3
 10
17992.468405999989
 20
19667.320403999991
 30
0.0
 11
17992.468405999989
 21
19642.311166999989
 31
0.0
  0
LINE
  5
46F4
  8
2-0
  6
CONTINUOUS
 62
     3
 10
17992.468405999989
 20
19642.311166999989
 30
0.0
 11
18010.476086999988
 21
19642.311166999989
 31
0.0
  0
LINE
  5
46F5
  8
2-0
  6
CONTINUOUS
 62
     3
 10
18010.476086999988
 20
19642.311166999989
 30
0.0
 11
18010.476086999988
 21
19672.314729999998
 31
0.0
  0
LINE
  5
46F6
  8
2-0
  6
CONTINUOUS
 62
     3
 10
18000.176650999991
 20
19672.314729999998
 30
0.0
 11
17885.174539999989
 21
19672.314729999998
 31
0.0
  0
LINE
  5
46F7
  8
2-0
  6
CONTINUOUS
 62
     3
 10
18000.176650999991
 20
19642.311166999989
 30
0.0
 11
18000.176650999991
 21
19672.314729999998
 31
0.0
  0
LINE
  5
46F8
  8
2-0
  6
CONTINUOUS
 62
     3
 10
17994.172771999991
 20
19642.311166999989
 30
0.0
 11
18000.176650999991
 21
19642.311166999989
 31
0.0
  0
LINE
  5
46F9
  8
2-0
  6
CONTINUOUS
 62
     3
 10
19020.570259499978
 20
19660.314888000001
 30
0.0
 11
19020.570259499978
 21
19667.320403999991
 31
0.0
  0
LINE
  5
46FA
  8
2-0
  6
CONTINUOUS
 62
     3
 10
19020.570259499978
 20
19667.320403999991
 30
0.0
 11
19025.570522499991
 21
19667.320403999991
 31
0.0
  0
LINE
  5
46FB
  8
2-0
  6
CONTINUOUS
 62
     3
 10
19025.570522499991
 20
19667.320403999991
 30
0.0
 11
19025.570522499991
 21
19642.311166999989
 31
0.0
  0
LINE
  5
46FC
  8
2-0
  6
CONTINUOUS
 62
     3
 10
19025.570522499991
 20
19642.311166999989
 30
0.0
 11
19007.576699499961
 21
19642.311166999989
 31
0.0
  0
LINE
  5
46FD
  8
2-0
  6
CONTINUOUS
 62
     3
 10
19007.576699499961
 20
19642.311166999989
 30
0.0
 11
19007.576699499961
 21
19672.314729999998
 31
0.0
  0
LINE
  5
46FE
  8
2-0
  6
CONTINUOUS
 62
     3
 10
19023.66820549998
 20
19642.311166999989
 30
0.0
 11
19017.67026449999
 21
19642.311166999989
 31
0.0
  0
LINE
  5
46FF
  8
2-0
  6
CONTINUOUS
 62
     3
 10
19017.67026449999
 20
19642.311166999989
 30
0.0
 11
19017.67026449999
 21
19672.314729999998
 31
0.0
  0
LINE
  5
4700
  8
2-0
  6
CONTINUOUS
 62
     3
 10
19054.67142549999
 20
19672.314729999998
 30
0.0
 11
19017.67026449999
 21
19672.314729999998
 31
0.0
  0
LINE
  5
4701
  8
2-0
  6
CONTINUOUS
 62
     3
 10
19054.67142549999
 20
19642.311166999989
 30
0.0
 11
19054.67142549999
 21
19672.314729999998
 31
0.0
  0
LINE
  5
4702
  8
2-0
  6
CONTINUOUS
 62
     3
 10
19048.665566499982
 20
19642.311166999989
 30
0.0
 11
19054.67142549999
 21
19642.311166999989
 31
0.0
  0
LINE
  5
4703
  8
2-0
  6
CONTINUOUS
 62
     3
 10
19064.764990499982
 20
19642.311166999989
 30
0.0
 11
19064.764990499982
 21
19672.314729999998
 31
0.0
  0
LINE
  5
4704
  8
2-0
  6
CONTINUOUS
 62
     3
 10
19046.769187499991
 20
19642.311166999989
 30
0.0
 11
19064.764990499982
 21
19642.311166999989
 31
0.0
  0
LINE
  5
4705
  8
2-0
  6
CONTINUOUS
 62
     3
 10
19046.769187499991
 20
19667.320403999991
 30
0.0
 11
19046.769187499991
 21
19642.311166999989
 31
0.0
  0
LINE
  5
4706
  8
2-0
  6
CONTINUOUS
 62
     3
 10
19051.759553499978
 20
19667.320403999991
 30
0.0
 11
19046.769187499991
 21
19667.320403999991
 31
0.0
  0
LINE
  5
4707
  8
2-0
  6
CONTINUOUS
 62
     3
 10
19051.759553499978
 20
19660.314888000001
 30
0.0
 11
19051.759553499978
 21
19667.320403999991
 31
0.0
  0
LINE
  5
4708
  8
2-0
  6
CONTINUOUS
 62
     3
 10
18363.764000999989
 20
19672.314729999998
 30
0.0
 11
19007.576699499961
 21
19672.314729999998
 31
0.0
  0
LINE
  5
4709
  8
2-0
  6
CONTINUOUS
 62
     3
 10
20422.670977000002
 20
19672.314729999998
 30
0.0
 11
20422.670977000002
 21
19642.311166999989
 31
0.0
  0
LINE
  5
470A
  8
2-0
  6
CONTINUOUS
 62
     3
 10
20422.670977000002
 20
19642.311166999989
 30
0.0
 11
20428.674856000001
 21
19642.311166999989
 31
0.0
  0
LINE
  5
470B
  8
2-0
  6
CONTINUOUS
 62
     3
 10
20413.05447499999
 20
19642.311166999989
 30
0.0
 11
20413.05447499999
 21
19672.314729999998
 31
0.0
  0
LINE
  5
470C
  8
2-0
  6
CONTINUOUS
 62
     3
 10
20431.062155999989
 20
19642.311166999989
 30
0.0
 11
20413.05447499999
 21
19642.311166999989
 31
0.0
  0
LINE
  5
470D
  8
2-0
  6
CONTINUOUS
 62
     3
 10
20431.062155999989
 20
19667.320403999991
 30
0.0
 11
20431.062155999989
 21
19642.311166999989
 31
0.0
  0
LINE
  5
470E
  8
2-0
  6
CONTINUOUS
 62
     3
 10
20426.055952999988
 20
19667.320403999991
 30
0.0
 11
20431.062155999989
 21
19667.320403999991
 31
0.0
  0
LINE
  5
470F
  8
2-0
  6
CONTINUOUS
 62
     3
 10
20426.055952999988
 20
19660.314888000001
 30
0.0
 11
20426.055952999988
 21
19667.320403999991
 31
0.0
  0
LINE
  5
4710
  8
2-0
  6
CONTINUOUS
 62
     3
 10
20452.67454
 20
19669.422653000001
 30
0.0
 11
20452.67454
 21
19584.424104999998
 31
0.0
  0
LINE
  5
4711
  8
2-0
  6
CONTINUOUS
 62
     3
 10
20472.673615999989
 20
19669.422653000001
 30
0.0
 11
20452.67454
 21
19669.422653000001
 31
0.0
  0
LINE
  5
4712
  8
2-0
  6
CONTINUOUS
 62
     3
 10
20564.287714999999
 20
19660.314888000001
 30
0.0
 11
20564.287714999999
 21
19667.320403999991
 31
0.0
  0
LINE
  5
4713
  8
2-0
  6
CONTINUOUS
 62
     3
 10
20564.287714999999
 20
19667.320403999991
 30
0.0
 11
20559.28547200001
 21
19667.320403999991
 31
0.0
  0
LINE
  5
4714
  8
2-0
  6
CONTINUOUS
 62
     3
 10
20559.28547200001
 20
19667.320403999991
 30
0.0
 11
20559.28547200001
 21
19642.311166999989
 31
0.0
  0
LINE
  5
4715
  8
2-0
  6
CONTINUOUS
 62
     3
 10
20559.28547200001
 20
19642.311166999989
 30
0.0
 11
20577.28919299999
 21
19642.311166999989
 31
0.0
  0
LINE
  5
4716
  8
2-0
  6
CONTINUOUS
 62
     3
 10
20577.28919299999
 20
19642.311166999989
 30
0.0
 11
20577.28919299999
 21
19672.314729999998
 31
0.0
  0
LINE
  5
4717
  8
2-0
  6
CONTINUOUS
 62
     3
 10
20537.673087999989
 20
19669.422653000001
 30
0.0
 11
20517.670053000002
 21
19669.422653000001
 31
0.0
  0
LINE
  5
4718
  8
2-0
  6
CONTINUOUS
 62
     3
 10
20537.673087999989
 20
19584.424104999998
 30
0.0
 11
20537.673087999989
 21
19669.422653000001
 31
0.0
  0
LINE
  5
4719
  8
2-0
  6
CONTINUOUS
 62
     3
 10
20567.672692
 20
19642.311166999989
 30
0.0
 11
20561.67277099999
 21
19642.311166999989
 31
0.0
  0
LINE
  5
471A
  8
2-0
  6
CONTINUOUS
 62
     3
 10
20567.672692
 20
19672.314729999998
 30
0.0
 11
20567.672692
 21
19642.311166999989
 31
0.0
  0
LINE
  5
471B
  8
2-0
  6
CONTINUOUS
 62
     3
 10
20452.67454
 20
19584.424104999998
 30
0.0
 11
20537.673087999989
 21
19584.424104999998
 31
0.0
  0
LINE
  5
471C
  8
2-0
  6
CONTINUOUS
 62
     3
 10
20422.670977000002
 20
19672.314729999998
 30
0.0
 11
20567.672692
 21
19672.314729999998
 31
0.0
  0
LINE
  5
471D
  8
2-0
  6
CONTINUOUS
 62
     3
 10
20413.05447499999
 20
19672.314729999998
 30
0.0
 11
19765.768949999991
 21
19672.314729999998
 31
0.0
  0
LINE
  5
471E
  8
2-0
  6
CONTINUOUS
 62
     3
 10
19708.57669899999
 20
19672.314729999998
 30
0.0
 11
19064.764990499982
 21
19672.314729999998
 31
0.0
  0
LINE
  5
471F
  8
2-0
  6
CONTINUOUS
 62
     3
 10
17915.172164999989
 20
19563.314518999981
 30
0.0
 11
17915.172164999989
 21
19557.318556999991
 31
0.0
  0
LINE
  5
4720
  8
2-0
  6
CONTINUOUS
 62
     3
 10
17915.172164999989
 20
19557.318556999991
 30
0.0
 11
17885.174539999989
 21
19557.318556999991
 31
0.0
  0
LINE
  5
4721
  8
2-0
  6
CONTINUOUS
 62
     3
 10
17885.174539999989
 20
19557.318556999991
 30
0.0
 11
17885.174539999989
 21
19672.314729999998
 31
0.0
  0
LINE
  5
4722
  8
2-0
  6
CONTINUOUS
 62
     3
 10
17885.174539999989
 20
19587.318160999981
 30
0.0
 11
17966.172480999991
 21
19587.318160999981
 31
0.0
  0
LINE
  5
4723
  8
2-0
  6
CONTINUOUS
 62
     3
 10
17915.172164999989
 20
19547.021100999991
 30
0.0
 11
17885.174539999989
 21
19547.021100999991
 31
0.0
  0
LINE
  5
4724
  8
2-0
  6
CONTINUOUS
 62
     3
 10
17915.172164999989
 20
19565.022842999992
 30
0.0
 11
17915.172164999989
 21
19547.021100999991
 31
0.0
  0
LINE
  5
4725
  8
2-0
  6
CONTINUOUS
 62
     3
 10
17890.178762999989
 20
19565.022842999992
 30
0.0
 11
17915.172164999989
 21
19565.022842999992
 31
0.0
  0
LINE
  5
4726
  8
2-0
  6
CONTINUOUS
 62
     3
 10
17890.178762999989
 20
19560.014661000001
 30
0.0
 11
17890.178762999989
 21
19565.022842999992
 31
0.0
  0
LINE
  5
4727
  8
2-0
  6
CONTINUOUS
 62
     3
 10
17897.176360999962
 20
19560.014661000001
 30
0.0
 11
17890.178762999989
 21
19560.014661000001
 31
0.0
  0
LINE
  5
4728
  8
2-0
  6
CONTINUOUS
 62
     3
 10
17897.176360999962
 20
19206.717838499961
 30
0.0
 11
17890.178762999989
 21
19206.717838499961
 31
0.0
  0
LINE
  5
4729
  8
2-0
  6
CONTINUOUS
 62
     3
 10
17890.178762999989
 20
19206.717838499961
 30
0.0
 11
17890.178762999989
 21
19211.718102499981
 31
0.0
  0
LINE
  5
472A
  8
2-0
  6
CONTINUOUS
 62
     3
 10
17890.178762999989
 20
19211.718102499981
 30
0.0
 11
17915.172164999989
 21
19211.718102499981
 31
0.0
  0
LINE
  5
472B
  8
2-0
  6
CONTINUOUS
 62
     3
 10
17915.172164999989
 20
19211.718102499981
 30
0.0
 11
17915.172164999989
 21
19193.722298499961
 31
0.0
  0
LINE
  5
472C
  8
2-0
  6
CONTINUOUS
 62
     3
 10
17915.172164999989
 20
19193.722298499961
 30
0.0
 11
17885.174539999989
 21
19193.722298499961
 31
0.0
  0
LINE
  5
472D
  8
2-0
  6
CONTINUOUS
 62
     3
 10
17915.172164999989
 20
19209.813805499962
 30
0.0
 11
17915.172164999989
 21
19203.81586449996
 31
0.0
  0
LINE
  5
472E
  8
2-0
  6
CONTINUOUS
 62
     3
 10
17915.172164999989
 20
19203.81586449996
 30
0.0
 11
17885.174539999989
 21
19203.81586449996
 31
0.0
  0
LINE
  5
472F
  8
2-0
  6
CONTINUOUS
 62
     3
 10
17885.174539999989
 20
19203.81586449996
 30
0.0
 11
17885.174539999989
 21
19240.81702549995
 31
0.0
  0
LINE
  5
4730
  8
2-0
  6
CONTINUOUS
 62
     3
 10
17915.172164999989
 20
19240.81702549995
 30
0.0
 11
17885.174539999989
 21
19240.81702549995
 31
0.0
  0
LINE
  5
4731
  8
2-0
  6
CONTINUOUS
 62
     3
 10
17915.172164999989
 20
19234.813145499971
 30
0.0
 11
17915.172164999989
 21
19240.81702549995
 31
0.0
  0
LINE
  5
4732
  8
2-0
  6
CONTINUOUS
 62
     3
 10
17915.172164999989
 20
19250.912570499971
 30
0.0
 11
17885.174539999989
 21
19250.912570499971
 31
0.0
  0
LINE
  5
4733
  8
2-0
  6
CONTINUOUS
 62
     3
 10
17915.172164999989
 20
19232.91082849996
 30
0.0
 11
17915.172164999989
 21
19250.912570499971
 31
0.0
  0
LINE
  5
4734
  8
2-0
  6
CONTINUOUS
 62
     3
 10
17890.178762999989
 20
19232.91082849996
 30
0.0
 11
17915.172164999989
 21
19232.91082849996
 31
0.0
  0
LINE
  5
4735
  8
2-0
  6
CONTINUOUS
 62
     3
 10
17890.178762999989
 20
19237.91109249998
 30
0.0
 11
17890.178762999989
 21
19232.91082849996
 31
0.0
  0
LINE
  5
4736
  8
2-0
  6
CONTINUOUS
 62
     3
 10
17897.176360999962
 20
19237.91109249998
 30
0.0
 11
17890.178762999989
 21
19237.91109249998
 31
0.0
  0
LINE
  5
4737
  8
2-0
  6
CONTINUOUS
 62
     3
 10
17897.176360999962
 20
18505.71783899999
 30
0.0
 11
17890.178762999989
 21
18505.71783899999
 31
0.0
  0
LINE
  5
4738
  8
2-0
  6
CONTINUOUS
 62
     3
 10
17890.178762999989
 20
18505.71783899999
 30
0.0
 11
17890.178762999989
 21
18510.724040999969
 31
0.0
  0
LINE
  5
4739
  8
2-0
  6
CONTINUOUS
 62
     3
 10
17890.178762999989
 20
18510.724040999969
 30
0.0
 11
17915.172164999989
 21
18510.724040999969
 31
0.0
  0
LINE
  5
473A
  8
2-0
  6
CONTINUOUS
 62
     3
 10
17915.172164999989
 20
18510.724040999969
 30
0.0
 11
17915.172164999989
 21
18492.722298999979
 31
0.0
  0
LINE
  5
473B
  8
2-0
  6
CONTINUOUS
 62
     3
 10
17915.172164999989
 20
18492.722298999979
 30
0.0
 11
17885.174539999989
 21
18492.722298999979
 31
0.0
  0
LINE
  5
473C
  8
2-0
  6
CONTINUOUS
 62
     3
 10
17915.172164999989
 20
18508.813805999969
 30
0.0
 11
17915.172164999989
 21
18502.817843999968
 31
0.0
  0
LINE
  5
473D
  8
2-0
  6
CONTINUOUS
 62
     3
 10
17915.172164999989
 20
18502.817843999968
 30
0.0
 11
17885.174539999989
 21
18502.817843999968
 31
0.0
  0
LINE
  5
473E
  8
2-0
  6
CONTINUOUS
 62
     3
 10
17885.174539999989
 20
18502.817843999968
 30
0.0
 11
17885.174539999989
 21
18539.817025999961
 31
0.0
  0
LINE
  5
473F
  8
2-0
  6
CONTINUOUS
 62
     3
 10
17915.172164999989
 20
18539.817025999961
 30
0.0
 11
17885.174539999989
 21
18539.817025999961
 31
0.0
  0
LINE
  5
4740
  8
2-0
  6
CONTINUOUS
 62
     3
 10
17915.172164999989
 20
18533.821063999982
 30
0.0
 11
17915.172164999989
 21
18539.817025999961
 31
0.0
  0
LINE
  5
4741
  8
2-0
  6
CONTINUOUS
 62
     3
 10
17915.172164999989
 20
18549.91257099999
 30
0.0
 11
17885.174539999989
 21
18549.91257099999
 31
0.0
  0
LINE
  5
4742
  8
2-0
  6
CONTINUOUS
 62
     3
 10
17915.172164999989
 20
18531.91082899996
 30
0.0
 11
17915.172164999989
 21
18549.91257099999
 31
0.0
  0
LINE
  5
4743
  8
2-0
  6
CONTINUOUS
 62
     3
 10
17890.178762999989
 20
18531.91082899996
 30
0.0
 11
17915.172164999989
 21
18531.91082899996
 31
0.0
  0
LINE
  5
4744
  8
2-0
  6
CONTINUOUS
 62
     3
 10
17890.178762999989
 20
18536.91703099995
 30
0.0
 11
17890.178762999989
 21
18531.91082899996
 31
0.0
  0
LINE
  5
4745
  8
2-0
  6
CONTINUOUS
 62
     3
 10
17897.176360999962
 20
18536.91703099995
 30
0.0
 11
17890.178762999989
 21
18536.91703099995
 31
0.0
  0
LINE
  5
4746
  8
2-0
  6
CONTINUOUS
 62
     3
 10
17897.176360999962
 20
17835.910102999991
 30
0.0
 11
17890.178762999989
 21
17835.910102999991
 31
0.0
  0
LINE
  5
4747
  8
2-0
  6
CONTINUOUS
 62
     3
 10
17890.178762999989
 20
17835.910102999991
 30
0.0
 11
17890.178762999989
 21
17830.921715999972
 31
0.0
  0
LINE
  5
4748
  8
2-0
  6
CONTINUOUS
 62
     3
 10
17890.178762999989
 20
17830.921715999972
 30
0.0
 11
17915.172164999989
 21
17830.921715999972
 31
0.0
  0
LINE
  5
4749
  8
2-0
  6
CONTINUOUS
 62
     3
 10
17915.172164999989
 20
17830.921715999972
 30
0.0
 11
17915.172164999989
 21
17848.917518999991
 31
0.0
  0
LINE
  5
474A
  8
2-0
  6
CONTINUOUS
 62
     3
 10
17915.172164999989
 20
17848.917518999991
 30
0.0
 11
17885.174539999989
 21
17848.917518999991
 31
0.0
  0
LINE
  5
474B
  8
2-0
  6
CONTINUOUS
 62
     3
 10
17915.172164999989
 20
17832.820073999981
 30
0.0
 11
17915.172164999989
 21
17838.816035999971
 31
0.0
  0
LINE
  5
474C
  8
2-0
  6
CONTINUOUS
 62
     3
 10
17915.172164999989
 20
17838.816035999971
 30
0.0
 11
17885.174539999989
 21
17838.816035999971
 31
0.0
  0
LINE
  5
474D
  8
2-0
  6
CONTINUOUS
 62
     3
 10
17885.174539999989
 20
17838.816035999971
 30
0.0
 11
17885.174539999989
 21
17801.816853999961
 31
0.0
  0
LINE
  5
474E
  8
2-0
  6
CONTINUOUS
 62
     3
 10
17915.172164999989
 20
17801.816853999961
 30
0.0
 11
17885.174539999989
 21
17801.816853999961
 31
0.0
  0
LINE
  5
474F
  8
2-0
  6
CONTINUOUS
 62
     3
 10
17915.172164999989
 20
17807.818754999978
 30
0.0
 11
17915.172164999989
 21
17801.816853999961
 31
0.0
  0
LINE
  5
4750
  8
2-0
  6
CONTINUOUS
 62
     3
 10
17915.172164999989
 20
17791.727247999981
 30
0.0
 11
17885.174539999989
 21
17791.727247999981
 31
0.0
  0
LINE
  5
4751
  8
2-0
  6
CONTINUOUS
 62
     3
 10
17915.172164999989
 20
17809.723050999972
 30
0.0
 11
17915.172164999989
 21
17791.727247999981
 31
0.0
  0
LINE
  5
4752
  8
2-0
  6
CONTINUOUS
 62
     3
 10
17890.178762999989
 20
17809.723050999972
 30
0.0
 11
17915.172164999989
 21
17809.723050999972
 31
0.0
  0
LINE
  5
4753
  8
2-0
  6
CONTINUOUS
 62
     3
 10
17890.178762999989
 20
17804.722787999981
 30
0.0
 11
17890.178762999989
 21
17809.723050999972
 31
0.0
  0
LINE
  5
4754
  8
2-0
  6
CONTINUOUS
 62
     3
 10
17897.176360999962
 20
17804.722787999981
 30
0.0
 11
17890.178762999989
 21
17804.722787999981
 31
0.0
  0
LINE
  5
4755
  8
2-0
  6
CONTINUOUS
 62
     3
 10
17888.060677999991
 20
17084.813673999972
 30
0.0
 11
17888.060677999991
 21
17104.814728999969
 31
0.0
  0
LINE
  5
4756
  8
2-0
  6
CONTINUOUS
 62
     3
 10
17888.060677999991
 20
17104.814728999969
 30
0.0
 11
17973.061205999991
 21
17104.814728999969
 31
0.0
  0
LINE
  5
4757
  8
2-0
  6
CONTINUOUS
 62
     3
 10
17897.176360999962
 20
17131.421438999991
 30
0.0
 11
17890.178762999989
 21
17131.421438999991
 31
0.0
  0
LINE
  5
4758
  8
2-0
  6
CONTINUOUS
 62
     3
 10
17890.178762999989
 20
17131.421438999991
 30
0.0
 11
17890.178762999989
 21
17126.427112999991
 31
0.0
  0
LINE
  5
4759
  8
2-0
  6
CONTINUOUS
 62
     3
 10
17890.178762999989
 20
17126.427112999991
 30
0.0
 11
17915.172164999989
 21
17126.427112999991
 31
0.0
  0
LINE
  5
475A
  8
2-0
  6
CONTINUOUS
 62
     3
 10
17915.172164999989
 20
17126.427112999991
 30
0.0
 11
17915.172164999989
 21
17144.422916999989
 31
0.0
  0
LINE
  5
475B
  8
2-0
  6
CONTINUOUS
 62
     3
 10
17915.172164999989
 20
17144.422916999989
 30
0.0
 11
17885.174539999989
 21
17144.422916999989
 31
0.0
  0
LINE
  5
475C
  8
2-0
  6
CONTINUOUS
 62
     3
 10
17915.172164999989
 20
17134.81433299998
 30
0.0
 11
17915.172164999989
 21
17128.812432999981
 31
0.0
  0
LINE
  5
475D
  8
2-0
  6
CONTINUOUS
 62
     3
 10
17885.174539999989
 20
17134.81433299998
 30
0.0
 11
17915.172164999989
 21
17134.81433299998
 31
0.0
  0
LINE
  5
475E
  8
2-0
  6
CONTINUOUS
 62
     3
 10
17885.174539999989
 20
17144.422916999989
 30
0.0
 11
17885.174539999989
 21
17791.727247999981
 31
0.0
  0
LINE
  5
475F
  8
2-0
  6
CONTINUOUS
 62
     3
 10
17885.174539999989
 20
17848.917518999991
 30
0.0
 11
17885.174539999989
 21
18492.722298999979
 31
0.0
  0
LINE
  5
4760
  8
2-0
  6
CONTINUOUS
 62
     3
 10
17885.174539999989
 20
16989.812617999989
 30
0.0
 11
17915.172164999989
 21
16989.812617999989
 31
0.0
  0
LINE
  5
4761
  8
2-0
  6
CONTINUOUS
 62
     3
 10
17915.172164999989
 20
16989.812617999989
 30
0.0
 11
17915.172164999989
 21
16995.814517999981
 31
0.0
  0
LINE
  5
4762
  8
2-0
  6
CONTINUOUS
 62
     3
 10
17973.061205999991
 20
17019.818160999981
 30
0.0
 11
17888.060677999991
 21
17019.818160999981
 31
0.0
  0
LINE
  5
4763
  8
2-0
  6
CONTINUOUS
 62
     3
 10
17888.060677999991
 20
17019.818160999981
 30
0.0
 11
17888.060677999991
 21
17039.813277999991
 31
0.0
  0
LINE
  5
4764
  8
2-0
  6
CONTINUOUS
 62
     3
 10
17915.172164999989
 20
16980.204034999992
 30
0.0
 11
17885.174539999989
 21
16980.204034999992
 31
0.0
  0
LINE
  5
4765
  8
2-0
  6
CONTINUOUS
 62
     3
 10
17915.172164999989
 20
16998.199837999979
 30
0.0
 11
17915.172164999989
 21
16980.204034999992
 31
0.0
  0
LINE
  5
4766
  8
2-0
  6
CONTINUOUS
 62
     3
 10
17890.178762999989
 20
16998.199837999979
 30
0.0
 11
17915.172164999989
 21
16998.199837999979
 31
0.0
  0
LINE
  5
4767
  8
2-0
  6
CONTINUOUS
 62
     3
 10
17890.178762999989
 20
16993.199573999991
 30
0.0
 11
17890.178762999989
 21
16998.199837999979
 31
0.0
  0
LINE
  5
4768
  8
2-0
  6
CONTINUOUS
 62
     3
 10
17897.176360999962
 20
16993.199573999991
 30
0.0
 11
17890.178762999989
 21
16993.199573999991
 31
0.0
  0
LINE
  5
4769
  8
2-0
  6
CONTINUOUS
 62
     3
 10
17897.176360999962
 20
16288.717343499949
 30
0.0
 11
17890.178762999989
 21
16288.717343499949
 31
0.0
  0
LINE
  5
476A
  8
2-0
  6
CONTINUOUS
 62
     3
 10
17890.178762999989
 20
16288.717343499949
 30
0.0
 11
17890.178762999989
 21
16293.717607499961
 31
0.0
  0
LINE
  5
476B
  8
2-0
  6
CONTINUOUS
 62
     3
 10
17890.178762999989
 20
16293.717607499961
 30
0.0
 11
17915.172164999989
 21
16293.717607499961
 31
0.0
  0
LINE
  5
476C
  8
2-0
  6
CONTINUOUS
 62
     3
 10
17915.172164999989
 20
16293.717607499961
 30
0.0
 11
17915.172164999989
 21
16275.71586549998
 31
0.0
  0
LINE
  5
476D
  8
2-0
  6
CONTINUOUS
 62
     3
 10
17915.172164999989
 20
16275.71586549998
 30
0.0
 11
17885.174539999989
 21
16275.71586549998
 31
0.0
  0
LINE
  5
476E
  8
2-0
  6
CONTINUOUS
 62
     3
 10
17915.172164999989
 20
16291.81331049998
 30
0.0
 11
17915.172164999989
 21
16285.816359499981
 31
0.0
  0
LINE
  5
476F
  8
2-0
  6
CONTINUOUS
 62
     3
 10
17915.172164999989
 20
16285.816359499981
 30
0.0
 11
17885.174539999989
 21
16285.816359499981
 31
0.0
  0
LINE
  5
4770
  8
2-0
  6
CONTINUOUS
 62
     3
 10
17885.174539999989
 20
16285.816359499981
 30
0.0
 11
17885.174539999989
 21
16322.81653049998
 31
0.0
  0
LINE
  5
4771
  8
2-0
  6
CONTINUOUS
 62
     3
 10
17915.172164999989
 20
16322.81653049998
 30
0.0
 11
17885.174539999989
 21
16322.81653049998
 31
0.0
  0
LINE
  5
4772
  8
2-0
  6
CONTINUOUS
 62
     3
 10
17915.172164999989
 20
16316.81364049998
 30
0.0
 11
17915.172164999989
 21
16322.81653049998
 31
0.0
  0
LINE
  5
4773
  8
2-0
  6
CONTINUOUS
 62
     3
 10
17915.172164999989
 20
16332.91207549998
 30
0.0
 11
17885.174539999989
 21
16332.91207549998
 31
0.0
  0
LINE
  5
4774
  8
2-0
  6
CONTINUOUS
 62
     3
 10
17915.172164999989
 20
16314.904394499979
 30
0.0
 11
17915.172164999989
 21
16332.91207549998
 31
0.0
  0
LINE
  5
4775
  8
2-0
  6
CONTINUOUS
 62
     3
 10
17890.178762999989
 20
16314.904394499979
 30
0.0
 11
17915.172164999989
 21
16314.904394499979
 31
0.0
  0
LINE
  5
4776
  8
2-0
  6
CONTINUOUS
 62
     3
 10
17890.178762999989
 20
16319.91059749998
 30
0.0
 11
17890.178762999989
 21
16314.904394499979
 31
0.0
  0
LINE
  5
4777
  8
2-0
  6
CONTINUOUS
 62
     3
 10
17897.176360999962
 20
16319.91059749998
 30
0.0
 11
17890.178762999989
 21
16319.91059749998
 31
0.0
  0
LINE
  5
4778
  8
2-0
  6
CONTINUOUS
 62
     3
 10
17897.176360999962
 20
15619.15061399998
 30
0.0
 11
17890.178762999989
 21
15619.15061399998
 31
0.0
  0
LINE
  5
4779
  8
2-0
  6
CONTINUOUS
 62
     3
 10
17890.178762999989
 20
15619.15061399998
 30
0.0
 11
17890.178762999989
 21
15614.15628899999
 31
0.0
  0
LINE
  5
477A
  8
2-0
  6
CONTINUOUS
 62
     3
 10
17890.178762999989
 20
15614.15628899999
 30
0.0
 11
17915.172164999989
 21
15614.15628899999
 31
0.0
  0
LINE
  5
477B
  8
2-0
  6
CONTINUOUS
 62
     3
 10
17915.172164999989
 20
15614.15628899999
 30
0.0
 11
17915.172164999989
 21
15632.152092
 31
0.0
  0
LINE
  5
477C
  8
2-0
  6
CONTINUOUS
 62
     3
 10
17915.172164999989
 20
15632.152092
 30
0.0
 11
17885.174539999989
 21
15632.152092
 31
0.0
  0
LINE
  5
477D
  8
2-0
  6
CONTINUOUS
 62
     3
 10
17915.172164999989
 20
15616.05464699999
 30
0.0
 11
17915.172164999989
 21
15622.056547
 31
0.0
  0
LINE
  5
477E
  8
2-0
  6
CONTINUOUS
 62
     3
 10
17915.172164999989
 20
15622.056547
 30
0.0
 11
17885.174539999989
 21
15622.056547
 31
0.0
  0
LINE
  5
477F
  8
2-0
  6
CONTINUOUS
 62
     3
 10
17885.174539999989
 20
15585.05736599999
 30
0.0
 11
17885.174539999989
 21
15622.056547
 31
0.0
  0
LINE
  5
4780
  8
2-0
  6
CONTINUOUS
 62
     3
 10
17915.172164999989
 20
15585.05736599999
 30
0.0
 11
17885.174539999989
 21
15585.05736599999
 31
0.0
  0
LINE
  5
4781
  8
2-0
  6
CONTINUOUS
 62
     3
 10
17915.172164999989
 20
15591.05431699998
 30
0.0
 11
17915.172164999989
 21
15585.05736599999
 31
0.0
  0
LINE
  5
4782
  8
2-0
  6
CONTINUOUS
 62
     3
 10
17915.172164999989
 20
15574.95588199998
 30
0.0
 11
17885.174539999989
 21
15574.95588199998
 31
0.0
  0
LINE
  5
4783
  8
2-0
  6
CONTINUOUS
 62
     3
 10
17915.172164999989
 20
15592.963562999979
 30
0.0
 11
17915.172164999989
 21
15574.95588199998
 31
0.0
  0
LINE
  5
4784
  8
2-0
  6
CONTINUOUS
 62
     3
 10
17890.178762999989
 20
15592.963562999979
 30
0.0
 11
17915.172164999989
 21
15592.963562999979
 31
0.0
  0
LINE
  5
4785
  8
2-0
  6
CONTINUOUS
 62
     3
 10
17890.178762999989
 20
15587.963298999999
 30
0.0
 11
17890.178762999989
 21
15592.963562999979
 31
0.0
  0
LINE
  5
4786
  8
2-0
  6
CONTINUOUS
 62
     3
 10
17897.176360999962
 20
15587.963298999999
 30
0.0
 11
17890.178762999989
 21
15587.963298999999
 31
0.0
  0
LINE
  5
4787
  8
2-0
  6
CONTINUOUS
 62
     3
 10
17885.174539999989
 20
16980.204034999992
 30
0.0
 11
17885.174539999989
 21
16332.91207549998
 31
0.0
  0
LINE
  5
4788
  8
2-0
  6
CONTINUOUS
 62
     3
 10
17885.174539999989
 20
17134.81433299998
 30
0.0
 11
17885.174539999989
 21
16989.812617999989
 31
0.0
  0
LINE
  5
4789
  8
2-0
  6
CONTINUOUS
 62
     3
 10
17973.061205999991
 20
17104.814728999969
 30
0.0
 11
17973.061205999991
 21
17019.818160999981
 31
0.0
  0
LINE
  5
478A
  8
2-0
  6
CONTINUOUS
 62
     3
 10
17897.176360999962
 20
14886.72229199998
 30
0.0
 11
17890.178762999989
 21
14886.72229199998
 31
0.0
  0
LINE
  5
478B
  8
2-0
  6
CONTINUOUS
 62
     3
 10
17890.178762999989
 20
14886.72229199998
 30
0.0
 11
17890.178762999989
 21
14891.71661799998
 31
0.0
  0
LINE
  5
478C
  8
2-0
  6
CONTINUOUS
 62
     3
 10
17890.178762999989
 20
14891.71661799998
 30
0.0
 11
17915.172164999989
 21
14891.71661799998
 31
0.0
  0
LINE
  5
478D
  8
2-0
  6
CONTINUOUS
 62
     3
 10
17915.172164999989
 20
14891.71661799998
 30
0.0
 11
17915.172164999989
 21
14873.720813999969
 31
0.0
  0
LINE
  5
478E
  8
2-0
  6
CONTINUOUS
 62
     3
 10
17915.172164999989
 20
14873.720813999969
 30
0.0
 11
17885.174539999989
 21
14873.720813999969
 31
0.0
  0
LINE
  5
478F
  8
2-0
  6
CONTINUOUS
 62
     3
 10
17915.172164999989
 20
14889.81924899998
 30
0.0
 11
17915.172164999989
 21
14883.81635899998
 31
0.0
  0
LINE
  5
4790
  8
2-0
  6
CONTINUOUS
 62
     3
 10
17915.172164999989
 20
14883.81635899998
 30
0.0
 11
17885.174539999989
 21
14883.81635899998
 31
0.0
  0
LINE
  5
4791
  8
2-0
  6
CONTINUOUS
 62
     3
 10
17885.174539999989
 20
14883.81635899998
 30
0.0
 11
17885.174539999989
 21
14920.816530999949
 31
0.0
  0
LINE
  5
4792
  8
2-0
  6
CONTINUOUS
 62
     3
 10
17915.172164999989
 20
14920.816530999949
 30
0.0
 11
17885.174539999989
 21
14920.816530999949
 31
0.0
  0
LINE
  5
4793
  8
2-0
  6
CONTINUOUS
 62
     3
 10
17915.172164999989
 20
14914.819578999981
 30
0.0
 11
17915.172164999989
 21
14920.816530999949
 31
0.0
  0
LINE
  5
4794
  8
2-0
  6
CONTINUOUS
 62
     3
 10
17915.172164999989
 20
14930.91702399998
 30
0.0
 11
17885.174539999989
 21
14930.91702399998
 31
0.0
  0
LINE
  5
4795
  8
2-0
  6
CONTINUOUS
 62
     3
 10
17915.172164999989
 20
14912.910332999991
 30
0.0
 11
17915.172164999989
 21
14930.91702399998
 31
0.0
  0
LINE
  5
4796
  8
2-0
  6
CONTINUOUS
 62
     3
 10
17890.178762999989
 20
14912.910332999991
 30
0.0
 11
17915.172164999989
 21
14912.910332999991
 31
0.0
  0
LINE
  5
4797
  8
2-0
  6
CONTINUOUS
 62
     3
 10
17890.178762999989
 20
14917.91554599998
 30
0.0
 11
17890.178762999989
 21
14912.910332999991
 31
0.0
  0
LINE
  5
4798
  8
2-0
  6
CONTINUOUS
 62
     3
 10
17897.176360999962
 20
14917.91554599998
 30
0.0
 11
17890.178762999989
 21
14917.91554599998
 31
0.0
  0
LINE
  5
4799
  8
2-0
  6
CONTINUOUS
 62
     3
 10
17915.172164999989
 20
14561.31837199998
 30
0.0
 11
17915.172164999989
 21
14567.32324099998
 31
0.0
  0
LINE
  5
479A
  8
2-0
  6
CONTINUOUS
 62
     3
 10
17915.172164999989
 20
14567.32324099998
 30
0.0
 11
17885.174539999989
 21
14567.32324099998
 31
0.0
  0
LINE
  5
479B
  8
2-0
  6
CONTINUOUS
 62
     3
 10
17885.174539999989
 20
14567.32324099998
 30
0.0
 11
17885.174539999989
 21
14452.319149999979
 31
0.0
  0
LINE
  5
479C
  8
2-0
  6
CONTINUOUS
 62
     3
 10
17885.174539999989
 20
14452.319149999979
 30
0.0
 11
17970.173087999989
 21
14452.319149999979
 31
0.0
  0
LINE
  5
479D
  8
2-0
  6
CONTINUOUS
 62
     3
 10
17970.173087999989
 20
14452.319149999979
 30
0.0
 11
17970.173087999989
 21
14537.314728999971
 31
0.0
  0
LINE
  5
479E
  8
2-0
  6
CONTINUOUS
 62
     3
 10
17970.173087999989
 20
14537.314728999971
 30
0.0
 11
17938.176149999981
 21
14537.314728999971
 31
0.0
  0
LINE
  5
479F
  8
2-0
  6
CONTINUOUS
 62
     3
 10
17897.176360999962
 20
14564.352973999979
 30
0.0
 11
17890.178762999989
 21
14564.352973999979
 31
0.0
  0
LINE
  5
47A0
  8
2-0
  6
CONTINUOUS
 62
     3
 10
17890.178762999989
 20
14564.352973999979
 30
0.0
 11
17890.178762999989
 21
14559.355678999949
 31
0.0
  0
LINE
  5
47A1
  8
2-0
  6
CONTINUOUS
 62
     3
 10
17890.178762999989
 20
14559.355678999949
 30
0.0
 11
17915.172164999989
 21
14559.355678999949
 31
0.0
  0
LINE
  5
47A2
  8
2-0
  6
CONTINUOUS
 62
     3
 10
17915.172164999989
 20
14559.355678999949
 30
0.0
 11
17915.172164999989
 21
14577.35445199998
 31
0.0
  0
LINE
  5
47A3
  8
2-0
  6
CONTINUOUS
 62
     3
 10
17915.172164999989
 20
14577.35445199998
 30
0.0
 11
17885.174539999989
 21
14577.35445199998
 31
0.0
  0
LINE
  5
47A4
  8
2-0
  6
CONTINUOUS
 62
     3
 10
17885.174539999989
 20
14930.91702399998
 30
0.0
 11
17885.174539999989
 21
15574.95588199998
 31
0.0
  0
LINE
  5
47A5
  8
2-0
  6
CONTINUOUS
 62
     3
 10
17885.174539999989
 20
18549.91257099999
 30
0.0
 11
17885.174539999989
 21
19193.722298499961
 31
0.0
  0
LINE
  5
47A6
  8
2-0
  6
CONTINUOUS
 62
     3
 10
17976.176967999989
 20
18478.816180999969
 30
0.0
 11
17929.173298999991
 21
18478.816180999969
 31
0.0
  0
LINE
  5
47A7
  8
2-0
  6
CONTINUOUS
 62
     3
 10
17929.173298999991
 20
18563.816708999992
 30
0.0
 11
17976.176967999989
 21
18563.816708999992
 31
0.0
  0
LINE
  5
47A8
  8
2-0
  6
CONTINUOUS
 62
     3
 10
17929.173298999991
 20
18478.816180999969
 30
0.0
 11
17929.173298999991
 21
18503.819479999991
 31
0.0
  0
LINE
  5
47A9
  8
2-0
  6
CONTINUOUS
 62
     3
 10
17929.173298999991
 20
18538.815388999981
 30
0.0
 11
17929.173298999991
 21
18563.816708999992
 31
0.0
  0
LINE
  5
47AA
  8
2-0
  6
CONTINUOUS
 62
     3
 10
17976.176967999989
 20
18563.816708999992
 30
0.0
 11
17976.176967999989
 21
18478.816180999969
 31
0.0
  0
LINE
  5
47AB
  8
2-0
  6
CONTINUOUS
 62
     3
 10
17885.174539999989
 20
16275.71586549998
 30
0.0
 11
17885.174539999989
 21
15632.152092
 31
0.0
  0
LINE
  5
47AC
  8
2-0
  6
CONTINUOUS
 62
     3
 10
17976.176967999989
 20
15561.058672499999
 30
0.0
 11
17929.173298999991
 21
15561.058672499999
 31
0.0
  0
LINE
  5
47AD
  8
2-0
  6
CONTINUOUS
 62
     3
 10
17929.173298999991
 20
15646.055240499991
 30
0.0
 11
17976.176967999989
 21
15646.055240499991
 31
0.0
  0
LINE
  5
47AE
  8
2-0
  6
CONTINUOUS
 62
     3
 10
17929.173298999991
 20
15561.058672499999
 30
0.0
 11
17929.173298999991
 21
15586.054053499989
 31
0.0
  0
LINE
  5
47AF
  8
2-0
  6
CONTINUOUS
 62
     3
 10
17929.173298999991
 20
15621.05392150001
 30
0.0
 11
17929.173298999991
 21
15646.055240499991
 31
0.0
  0
LINE
  5
47B0
  8
2-0
  6
CONTINUOUS
 62
     3
 10
17976.176967999989
 20
15646.055240499991
 30
0.0
 11
17976.176967999989
 21
15561.058672499999
 31
0.0
  0
LINE
  5
47B1
  8
2-0
  6
CONTINUOUS
 62
     3
 10
25605.174407999959
 20
19557.318556999991
 30
0.0
 11
25605.174407999959
 21
19672.314729999998
 31
0.0
  0
LINE
  5
47B2
  8
2-0
  6
CONTINUOUS
 62
     3
 10
21975.136137000001
 20
17326.027487999982
 30
0.0
 11
21817.255674
 21
17445.111367000001
 31
0.0
  0
LINE
  5
47B3
  8
2-0
  6
CONTINUOUS
 62
     3
 10
22363.098024999999
 20
17409.159350999991
 30
0.0
 11
22117.255674
 21
17594.594712999999
 31
0.0
  0
LINE
  5
47B4
  8
2-0
  6
CONTINUOUS
 62
     3
 10
22117.255674
 20
16524.714408
 30
0.0
 11
21757.147592000001
 21
16796.341968000001
 31
0.0
  0
LINE
  5
47B5
  8
2-0
  6
CONTINUOUS
 62
     3
 10
21757.147592000001
 20
16796.341968000001
 30
0.0
 11
22363.098024999999
 21
17409.159350999991
 31
0.0
  0
LINE
  5
47B6
  8
2-0
  6
CONTINUOUS
 62
     3
 10
21817.255674
 20
16375.23205199999
 30
0.0
 11
21369.183724999992
 21
16713.212084999981
 31
0.0
  0
LINE
  5
47B7
  8
2-0
  6
CONTINUOUS
 62
     3
 10
21975.136137000001
 20
17326.027487999982
 30
0.0
 11
21369.183724999992
 21
16713.212084999981
 31
0.0
  0
LINE
  5
47B8
  8
2-0
  6
CONTINUOUS
 62
     3
 10
22117.255674
 20
19779.036514999989
 30
0.0
 11
22117.255674
 21
19973.522236000001
 31
0.0
  0
LINE
  5
47B9
  8
2-0
  6
CENTER2
 62
     6
 10
16598.216267999989
 20
19629.816444999949
 30
0.0
 11
26455.175727999958
 21
19629.816444999949
 31
0.0
  0
LINE
  5
47BA
  8
2-0
  6
CENTER2
 62
     6
 10
16598.216267999989
 20
17062.316444999979
 30
0.0
 11
26455.175727999958
 21
17062.316444999979
 31
0.0
  0
LINE
  5
47BB
  8
2-0
  6
CENTER2
 62
     6
 10
16598.216267999989
 20
14494.81644499998
 30
0.0
 11
26455.175727999958
 21
14494.81644499998
 31
0.0
  0
LINE
  5
47BC
  8
2-0
  6
CONTINUOUS
 62
     3
 10
18350.762523000001
 20
19660.314888000001
 30
0.0
 11
18350.762523000001
 21
19667.320403999991
 31
0.0
  0
LINE
  5
47BD
  8
2-0
  6
CONTINUOUS
 62
     3
 10
18350.762523000001
 20
19667.320403999991
 30
0.0
 11
18345.762258999988
 21
19667.320403999991
 31
0.0
  0
LINE
  5
47BE
  8
2-0
  6
CONTINUOUS
 62
     3
 10
18345.762258999988
 20
19667.320403999991
 30
0.0
 11
18345.762258999988
 21
19642.311166999989
 31
0.0
  0
LINE
  5
47BF
  8
2-0
  6
CONTINUOUS
 62
     3
 10
18345.762258999988
 20
19642.311166999989
 30
0.0
 11
18363.764000999989
 21
19642.311166999989
 31
0.0
  0
LINE
  5
47C0
  8
2-0
  6
CONTINUOUS
 62
     3
 10
18363.764000999989
 20
19642.311166999989
 30
0.0
 11
18363.764000999989
 21
19672.314729999998
 31
0.0
  0
LINE
  5
47C1
  8
2-0
  6
CONTINUOUS
 62
     3
 10
18347.664575999988
 20
19642.311166999989
 30
0.0
 11
18353.668455999989
 21
19642.311166999989
 31
0.0
  0
LINE
  5
47C2
  8
2-0
  6
CONTINUOUS
 62
     3
 10
18353.668455999989
 20
19642.311166999989
 30
0.0
 11
18353.668455999989
 21
19672.314729999998
 31
0.0
  0
LINE
  5
47C3
  8
2-0
  6
CONTINUOUS
 62
     3
 10
18316.67323399998
 20
19672.314729999998
 30
0.0
 11
18353.668455999989
 21
19672.314729999998
 31
0.0
  0
LINE
  5
47C4
  8
2-0
  6
CONTINUOUS
 62
     3
 10
18316.67323399998
 20
19642.311166999989
 30
0.0
 11
18316.67323399998
 21
19672.314729999998
 31
0.0
  0
LINE
  5
47C5
  8
2-0
  6
CONTINUOUS
 62
     3
 10
18322.667216000002
 20
19642.311166999989
 30
0.0
 11
18316.67323399998
 21
19642.311166999989
 31
0.0
  0
LINE
  5
47C6
  8
2-0
  6
CONTINUOUS
 62
     3
 10
18306.577689000002
 20
19642.311166999989
 30
0.0
 11
18306.577689000002
 21
19672.314729999998
 31
0.0
  0
LINE
  5
47C7
  8
2-0
  6
CONTINUOUS
 62
     3
 10
18324.573492
 20
19642.311166999989
 30
0.0
 11
18306.577689000002
 21
19642.311166999989
 31
0.0
  0
LINE
  5
47C8
  8
2-0
  6
CONTINUOUS
 62
     3
 10
18324.573492
 20
19667.320403999991
 30
0.0
 11
18324.573492
 21
19642.311166999989
 31
0.0
  0
LINE
  5
47C9
  8
2-0
  6
CONTINUOUS
 62
     3
 10
18319.575207999991
 20
19667.320403999991
 30
0.0
 11
18324.573492
 21
19667.320403999991
 31
0.0
  0
LINE
  5
47CA
  8
2-0
  6
CONTINUOUS
 62
     3
 10
18319.575207999991
 20
19660.314888000001
 30
0.0
 11
18319.575207999991
 21
19667.320403999991
 31
0.0
  0
LINE
  5
47CB
  8
2-0
  6
CONTINUOUS
 62
     3
 10
18010.476086999988
 20
19672.314729999998
 30
0.0
 11
18306.577689000002
 21
19672.314729999998
 31
0.0
  0
LINE
  5
47CC
  8
2-0
  6
CONTINUOUS
 62
     3
 10
21817.255674
 20
19587.318160999981
 30
0.0
 11
17885.174539999989
 21
19587.318160999981
 31
0.0
  0
LINE
  5
47CD
  8
2-0
  6
CONTINUOUS
 62
     3
 10
22117.255674
 20
19587.318160999981
 30
0.0
 11
25524.17250799996
 21
19587.318160999981
 31
0.0
  0
LINE
  5
47CE
  8
2-0
  6
CENTER2
 62
     6
 10
17927.670844999979
 20
20872.314729999998
 30
0.0
 11
17927.670844999979
 21
13869.05301099998
 31
0.0
  0
LINE
  5
47CF
  8
2-0
  6
CENTER2
 62
     6
 10
25562.676123999961
 20
20872.314729999998
 30
0.0
 11
25562.676123999961
 21
13869.05301099998
 31
0.0
  0
LINE
  5
47D0
  8
2-0
  6
CONTINUOUS
 62
     3
 10
25605.174407999959
 20
19547.021100999991
 30
0.0
 11
25605.174407999959
 21
19250.912570499971
 31
0.0
  0
LINE
  5
47D1
  8
2-0
  6
CONTINUOUS
 62
     3
 10
21817.255674
 20
17445.111367000001
 30
0.0
 11
21817.255674
 21
19973.522236000001
 31
0.0
  0
LINE
  5
47D2
  8
2-0
  6
CONTINUOUS
 62
     3
 10
22117.255674
 20
17594.594712999999
 30
0.0
 11
22117.255674
 21
19779.036514999989
 31
0.0
  0
LINE
  5
47D3
  8
2-0
  6
CONTINUOUS
 62
     3
 10
17885.174539999989
 20
19547.021100999991
 30
0.0
 11
17885.174539999989
 21
19250.912570499971
 31
0.0
  0
LINE
  5
47D4
  8
2-0
  6
CONTINUOUS
 62
     3
 10
21817.255674
 20
16375.23205199999
 30
0.0
 11
21817.255674
 21
14303.411843999969
 31
0.0
  0
LINE
  5
47D5
  8
2-0
  6
CONTINUOUS
 62
     3
 10
22117.255674
 20
16524.714408
 30
0.0
 11
22117.255674
 21
14303.411843999969
 31
0.0
  0
LINE
  5
47D6
  8
2-0
  6
CENTER2
 62
     6
 10
22995.176123999961
 20
20872.314729999998
 30
0.0
 11
22995.176123999961
 21
14303.411843999969
 31
0.0
  0
LINE
  5
47D7
  8
2-0
  6
CENTER2
 62
     6
 10
20495.17084499999
 20
20872.314729999998
 30
0.0
 11
20495.17084499999
 21
14303.411843999969
 31
0.0
  0
LINE
  5
47D8
  8
2-0
  6
CONTINUOUS
 62
     3
 10
17885.174539999989
 20
14577.35445199998
 30
0.0
 11
17885.174539999989
 21
14873.720813999969
 31
0.0
  0
LINE
  5
47D9
  8
2-0
  6
CONTINUOUS
 62
     3
 10
17966.172480999991
 20
14537.314728999971
 30
0.0
 11
17966.172480999991
 21
19672.314729999998
 31
0.0
  0
LINE
  5
47DA
  8
2-0
  6
CONTINUOUS
 62
     3
 10
25605.174407999959
 20
14577.35445199998
 30
0.0
 11
25605.174407999959
 21
14873.720813999969
 31
0.0
  0
LINE
  5
47DB
  8
2-0
  6
CONTINUOUS
 62
     3
 10
25524.17250799996
 20
14537.314728999971
 30
0.0
 11
25524.17250799996
 21
19672.314729999998
 31
0.0
  0
CIRCLE
  5
47F4
  8
0-5
  6
CONTINUOUS
 62
     4
 10
25562.676123999961
 20
4072.7289510000001
 30
0.0
 40
199.9999949999999
  0
CIRCLE
  5
47F5
  8
0-5
  6
CONTINUOUS
 62
     4
 10
22995.176123999961
 20
4072.7289510000001
 30
0.0
 40
199.9999949999999
  0
CIRCLE
  5
47F6
  8
0-5
  6
CONTINUOUS
 62
     4
 10
20495.17084499999
 20
4072.7289510000001
 30
0.0
 40
199.9999949999999
  0
CIRCLE
  5
47F7
  8
0-5
  6
CONTINUOUS
 62
     4
 10
17927.670844999979
 20
4072.7289510000001
 30
0.0
 40
199.9999949999999
  0
CIRCLE
  5
47F8
  8
2-0
  6
CONTINUOUS
 62
     4
 10
16398.218577999989
 20
19629.816444999949
 30
0.0
 40
200.00001
  0
CIRCLE
  5
47F9
  8
2-0
  6
CONTINUOUS
 62
     4
 10
16398.218577999989
 20
17062.316444999979
 30
0.0
 40
200.00001
  0
CIRCLE
  5
47FA
  8
2-0
  6
CONTINUOUS
 62
     4
 10
16398.218577999989
 20
14494.81644499998
 30
0.0
 40
200.00001
  0
CIRCLE
  5
47FB
  8
2-0
  6
CONTINUOUS
 62
     4
 10
20495.17084499999
 20
21072.319349000001
 30
0.0
 40
200.00001
  0
CIRCLE
  5
47FC
  8
2-0
  6
CONTINUOUS
 62
     4
 10
17927.670844999979
 20
21072.319349000001
 30
0.0
 40
200.00001
  0
CIRCLE
  5
47FD
  8
2-0
  6
CONTINUOUS
 62
     4
 10
22995.176123999961
 20
21072.319349000001
 30
0.0
 40
200.00001
  0
CIRCLE
  5
47FE
  8
2-0
  6
CONTINUOUS
 62
     4
 10
25562.676123999961
 20
21072.319349000001
 30
0.0
 40
200.00001
  0
TEXT
  5
47FF
  8
0-5
  6
CONTINUOUS
 62
     7
 10
25510.741473999969
 20
3988.2280040000001
 30
0.0
 40
160.0
  1
n
 72
     4
 11
25564.074807333302
 21
4041.5613373333331
 31
0.0
  0
TEXT
  5
4800
  8
0-5
  6
CONTINUOUS
 62
     7
 10
22829.05101017523
 20
4002.745112439397
 30
0.0
 40
140.0
  1
n-1
 72
     4
 11
22992.384343508558
 21
4072.745112439397
 31
0.0
  0
TEXT
  5
4801
  8
0-5
  6
CONTINUOUS
 62
     7
 10
17309.494906
 20
6842.0889997419981
 30
0.0
 40
160.0
  1
(2131.5)
 50
90.0
 72
     4
 11
17229.494906
 21
7295.4223330753312
 31
0.0
  0
TEXT
  5
4802
  8
0-5
  6
CONTINUOUS
 62
     7
 10
20448.24239799998
 20
3986.1989969999981
 30
0.0
 40
160.0
  1
2
 72
     4
 11
20501.575731333309
 21
4066.1989969999981
 31
0.0
  0
TEXT
  5
4803
  8
0-5
  6
CONTINUOUS
 62
     7
 10
17880.73843899999
 20
3986.1989969999981
 30
0.0
 40
160.0
  1
1
 72
     4
 11
17907.405105666661
 21
4066.1989969999981
 31
0.0
  0
TEXT
  5
4804
  8
0-5
  6
CONTINUOUS
 62
     7
 10
15344.79003899999
 20
6400.5750029999999
 30
0.0
 40
160.0
  1
G.L
 72
     4
 11
15504.79003899999
 21
6480.5750029999999
 31
0.0
  0
TEXT
  5
4805
  8
2-0
  6
CONTINUOUS
 62
     7
 10
23959.521430999961
 20
13934.817566999969
 30
0.0
 40
160.0
  1
前柱（右）
 50
0.000213
 72
     4
 11
24375.521133592982
 21
14014.81911350076
 31
0.0
  0
TEXT
  5
4806
  8
2-0
  6
CONTINUOUS
 62
     7
 10
23976.220649999959
 20
18263.439610999991
 30
0.0
 40
160.0
  1
補強柱 後
 50
359.99984199999989
 72
     4
 11
24386.887537274681
 21
18343.43847853698
 31
0.0
  0
TEXT
  5
4807
  8
2-0
  6
CONTINUOUS
 62
     7
 10
24164.116553999971
 20
16512.809582999991
 30
0.0
 40
160.0
  1
壁パネル
 50
359.99982299999999
 72
     4
 11
24526.783467803521
 21
16592.808462637859
 31
0.0
  0
TEXT
  5
4808
  8
2-0
  6
CONTINUOUS
 62
     7
 10
23884.113649999948
 20
17349.997479000001
 30
0.0
 40
160.0
  1
中柱（左右）
 50
0.000354
 72
     4
 11
24401.446489046171
 21
17430.000675324649
 31
0.0
  0
TEXT
  5
4809
  8
2-0
  6
CONTINUOUS
 62
     7
 10
24564.115893999959
 20
14907.858832999969
 30
0.0
 40
160.0
  1
下枠
 50
0.001063
 72
     4
 11
24734.781076409261
 21
14987.86199933926
 31
0.0
  0
TEXT
  5
480A
  8
2-0
  6
CONTINUOUS
 62
     7
 10
23976.220649999959
 20
15345.68012199998
 30
0.0
 40
160.0
  1
補強柱 前
 50
359.99937
 72
     4
 11
24386.888196287749
 21
15425.67560647931
 31
0.0
  0
TEXT
  5
480B
  8
2-0
  6
CONTINUOUS
 62
     7
 10
26377.671636999949
 20
20482.313937999999
 30
0.0
 40
160.0
  1
後柱（左右）
 50
0.000354
 72
     4
 11
26889.671142712941
 21
20562.317101372832
 31
0.0
  0
TEXT
  5
480C
  8
2-0
  6
CONTINUOUS
 62
     7
 10
23394.264885999972
 20
15072.654744999951
 30
0.0
 40
160.0
  1
前柱（中）
 72
     4
 11
23810.264885999972
 21
15152.654744999951
 31
0.0
  0
TEXT
  5
480D
  8
2-0
  6
CONTINUOUS
 62
     7
 10
19331.039721000008
 20
19035.196777000001
 30
0.0
 40
160.0
  1
間柱（後）
 72
     4
 11
19752.37305433334
 21
19115.196777000001
 31
0.0
  0
TEXT
  5
480E
  8
2-0
  6
CONTINUOUS
 62
     7
 10
23265.46948899997
 20
19103.941498
 30
0.0
 40
160.0
  1
後柱（中）
 72
     4
 11
23681.46948899997
 21
19183.941498
 31
0.0
  0
TEXT
  5
480F
  8
2-0
  6
CONTINUOUS
 62
     7
 10
16350.219210999971
 20
19535.336003
 30
0.0
 40
160.0
  1
C
 72
     4
 11
16403.55254433331
 21
19615.336003
 31
0.0
  0
TEXT
  5
4810
  8
2-0
  6
CONTINUOUS
 62
     7
 10
16350.439926999979
 20
16991.922363000001
 30
0.0
 40
160.0
  1
B
 72
     4
 11
16403.773260333321
 21
17071.922363000001
 31
0.0
  0
TEXT
  5
4811
  8
2-0
  6
CONTINUOUS
 62
     7
 10
16350.48248699997
 20
14406.20923399998
 30
0.0
 40
160.0
  1
A
 72
     4
 11
16403.815820333311
 21
14486.20923399998
 31
0.0
  0
TEXT
  5
4812
  8
2-0
  6
CONTINUOUS
 62
     7
 10
20443.539061999989
 20
20976.793720000001
 30
0.0
 40
160.0
  1
2
 72
     4
 11
20496.872395333321
 21
21056.793720000001
 31
0.0
  0
TEXT
  5
4813
  8
2-0
  6
CONTINUOUS
 62
     7
 10
17883.464235999971
 20
20983.551796999989
 30
0.0
 40
160.0
  1
1
 72
     4
 11
17910.130902666639
 21
21063.551796999989
 31
0.0
  0
TEXT
  5
4814
  8
2-0
  6
CONTINUOUS
 62
     7
 10
25511.270005999952
 20
20991.931099000009
 30
0.0
 40
160.0
  1
n
 72
     4
 11
25564.60333933328
 21
21045.264432333341
 31
0.0
  0
TEXT
  5
4815
  8
2-0
  6
CONTINUOUS
 62
     7
 10
22835.221124999978
 20
21004.427800000001
 30
0.0
 40
140.0
  1
n-1
 72
     4
 11
22998.55445833331
 21
21074.427800000001
 31
0.0
  0
TEXT
  5
4816
  8
2-0
  6
CONTINUOUS
 62
     7
 10
20923.42971299999
 20
12387.942223999989
 30
0.0
 40
160.0
  1
平 面 図
 50
0.000266
 72
     4
 11
21280.762699683812
 21
12462.61054961294
 31
0.0
  0
TEXT
  5
4817
  8
2-0
  6
CONTINUOUS
 62
     7
 10
20119.867900000001
 20
3254.289569999999
 30
0.0
 40
160.0
  1
正 面 立 面 図
 72
     4
 11
20765.20123333333
 21
3334.289569999999
 31
0.0
  0
CIRCLE
  5
4818
  8
0-4
  6
CONTINUOUS
 62
     4
 10
19211.42084499999
 20
6598.784693999999
 30
0.0
 40
18.487504999999981
  0
CIRCLE
  5
4819
  8
0-4
  6
CONTINUOUS
 62
     4
 10
24278.926123999961
 20
6598.784693999999
 30
0.0
 40
18.487504999999981
  0
TEXT
  5
481A
  8
2-0
  6
CONTINUOUS
 62
     7
 10
22116.69341847095
 20
3281.4849389999981
 30
0.0
 40
160.0
  1
1
 72
     4
 11
22143.360085137621
 21
3361.484938999999
 31
0.0
  0
TEXT
  5
481B
  8
2-0
  6
CONTINUOUS
 62
     7
 10
22359.782135721649
 20
3201.486406999999
 30
0.0
 40
160.0
  1
80
 72
     4
 11
22479.782135721649
 21
3281.486406999999
 31
0.0
  0
TEXT
  5
481C
  8
2-0
  6
CONTINUOUS
 62
     7
 10
21617.695384470961
 20
3254.289569999999
 30
0.0
 40
160.0
  1
(S=  /   )
 72
     4
 11
22177.695384470961
 21
3334.289569999999
 31
0.0
  0
TEXT
  5
481D
  8
2-0
  6
CONTINUOUS
 62
     7
 10
22632.254884821439
 20
12409.805918612939
 30
0.0
 40
160.0
  1
1
 72
     4
 11
22658.921551488111
 21
12489.805918612939
 31
0.0
  0
TEXT
  5
481E
  8
2-0
  6
CONTINUOUS
 62
     7
 10
22875.34360207212
 20
12329.807386612951
 30
0.0
 40
160.0
  1
80
 72
     4
 11
22995.34360207212
 21
12409.807386612951
 31
0.0
  0
TEXT
  5
481F
  8
2-0
  6
CONTINUOUS
 62
     7
 10
22133.256850821439
 20
12382.61054961294
 30
0.0
 40
160.0
  1
(S=  /   )
 72
     4
 11
22693.256850821439
 21
12462.61054961294
 31
0.0
  0
LINE
  5
4820
  8
SUNPOU
  6
CONTINUOUS
 10
17645.17084499999
 20
4912.7287530000031
 30
0.0
 11
17287.215838278891
 21
4912.7287530000031
 31
0.0
  0
LINE
  5
4821
  8
SUNPOU
  6
CONTINUOUS
 10
25845.180082999981
 20
4912.7287530000031
 30
0.0
 11
26203.135089721069
 21
4912.7287530000031
 31
0.0
  0
LINE
  5
4822
  8
2-0
  6
CONTINUOUS
 62
     3
 10
24823.176704999962
 20
19672.314729999998
 30
0.0
 11
24786.175542999961
 21
19672.314729999998
 31
0.0
  0
LINE
  5
4823
  8
2-0
  6
CONTINUOUS
 62
     3
 10
24823.176704999962
 20
19642.311166999989
 30
0.0
 11
24823.176704999962
 21
19672.314729999998
 31
0.0
  0
LINE
  5
4824
  8
2-0
  6
CONTINUOUS
 62
     3
 10
24817.176783999941
 20
19642.311166999989
 30
0.0
 11
24823.176704999962
 21
19642.311166999989
 31
0.0
  0
LINE
  5
4825
  8
2-0
  6
CONTINUOUS
 62
     3
 10
24833.274228999959
 20
19642.311166999989
 30
0.0
 11
24833.274228999959
 21
19672.314729999998
 31
0.0
  0
LINE
  5
4826
  8
2-0
  6
CONTINUOUS
 62
     3
 10
24815.270507999961
 20
19642.311166999989
 30
0.0
 11
24833.274228999959
 21
19642.311166999989
 31
0.0
  0
LINE
  5
4827
  8
2-0
  6
CONTINUOUS
 62
     3
 10
24815.270507999961
 20
19667.320403999991
 30
0.0
 11
24815.270507999961
 21
19642.311166999989
 31
0.0
  0
LINE
  5
4828
  8
2-0
  6
CONTINUOUS
 62
     3
 10
24820.270771999971
 20
19667.320403999991
 30
0.0
 11
24815.270507999961
 21
19667.320403999991
 31
0.0
  0
LINE
  5
4829
  8
2-0
  6
CONTINUOUS
 62
     3
 10
24820.270771999971
 20
19660.314888000001
 30
0.0
 11
24820.270771999971
 21
19667.320403999991
 31
0.0
  0
LINE
  5
482A
  8
2-0
  6
CONTINUOUS
 62
     3
 10
24789.081476999949
 20
19660.314888000001
 30
0.0
 11
24789.081476999949
 21
19667.320403999991
 31
0.0
  0
LINE
  5
482B
  8
2-0
  6
CONTINUOUS
 62
     3
 10
24789.081476999949
 20
19667.320403999991
 30
0.0
 11
24794.081740999962
 21
19667.320403999991
 31
0.0
  0
LINE
  5
482C
  8
2-0
  6
CONTINUOUS
 62
     3
 10
24794.081740999962
 20
19667.320403999991
 30
0.0
 11
24794.081740999962
 21
19642.311166999989
 31
0.0
  0
LINE
  5
482D
  8
2-0
  6
CONTINUOUS
 62
     3
 10
24794.081740999962
 20
19642.311166999989
 30
0.0
 11
24776.081977999958
 21
19642.311166999989
 31
0.0
  0
LINE
  5
482E
  8
2-0
  6
CONTINUOUS
 62
     3
 10
24776.081977999958
 20
19642.311166999989
 30
0.0
 11
24776.081977999958
 21
19672.314729999998
 31
0.0
  0
LINE
  5
482F
  8
2-0
  6
CONTINUOUS
 62
     3
 10
24792.175463999971
 20
19642.311166999989
 30
0.0
 11
24786.175542999961
 21
19642.311166999989
 31
0.0
  0
LINE
  5
4830
  8
2-0
  6
CONTINUOUS
 62
     3
 10
24786.175542999961
 20
19642.311166999989
 30
0.0
 11
24786.175542999961
 21
19672.314729999998
 31
0.0
  0
LINE
  5
4831
  8
2-0
  6
CONTINUOUS
 62
     3
 10
24088.075538499961
 20
19660.314888000001
 30
0.0
 11
24088.075538499961
 21
19667.320403999991
 31
0.0
  0
LINE
  5
4832
  8
2-0
  6
CONTINUOUS
 62
     3
 10
24088.075538499961
 20
19667.320403999991
 30
0.0
 11
24093.07580149997
 21
19667.320403999991
 31
0.0
  0
LINE
  5
4833
  8
2-0
  6
CONTINUOUS
 62
     3
 10
24093.07580149997
 20
19667.320403999991
 30
0.0
 11
24093.07580149997
 21
19642.311166999989
 31
0.0
  0
LINE
  5
4834
  8
2-0
  6
CONTINUOUS
 62
     3
 10
24093.07580149997
 20
19642.311166999989
 30
0.0
 11
24075.081978499951
 21
19642.311166999989
 31
0.0
  0
LINE
  5
4835
  8
2-0
  6
CONTINUOUS
 62
     3
 10
24075.081978499951
 20
19642.311166999989
 30
0.0
 11
24075.081978499951
 21
19672.314729999998
 31
0.0
  0
LINE
  5
4836
  8
2-0
  6
CONTINUOUS
 62
     3
 10
24091.173484499959
 20
19642.311166999989
 30
0.0
 11
24085.175543499961
 21
19642.311166999989
 31
0.0
  0
LINE
  5
4837
  8
2-0
  6
CONTINUOUS
 62
     3
 10
24085.175543499961
 20
19642.311166999989
 30
0.0
 11
24085.175543499961
 21
19672.314729999998
 31
0.0
  0
LINE
  5
4838
  8
2-0
  6
CONTINUOUS
 62
     3
 10
24122.176704499961
 20
19672.314729999998
 30
0.0
 11
24085.175543499961
 21
19672.314729999998
 31
0.0
  0
LINE
  5
4839
  8
2-0
  6
CONTINUOUS
 62
     3
 10
24122.176704499961
 20
19642.311166999989
 30
0.0
 11
24122.176704499961
 21
19672.314729999998
 31
0.0
  0
LINE
  5
483A
  8
2-0
  6
CONTINUOUS
 62
     3
 10
24116.170845499961
 20
19642.311166999989
 30
0.0
 11
24122.176704499961
 21
19642.311166999989
 31
0.0
  0
LINE
  5
483B
  8
2-0
  6
CONTINUOUS
 62
     3
 10
24132.270269499961
 20
19642.311166999989
 30
0.0
 11
24132.270269499961
 21
19672.314729999998
 31
0.0
  0
LINE
  5
483C
  8
2-0
  6
CONTINUOUS
 62
     3
 10
24114.274466499959
 20
19642.311166999989
 30
0.0
 11
24132.270269499961
 21
19642.311166999989
 31
0.0
  0
LINE
  5
483D
  8
2-0
  6
CONTINUOUS
 62
     3
 10
24114.274466499959
 20
19667.320403999991
 30
0.0
 11
24114.274466499959
 21
19642.311166999989
 31
0.0
  0
LINE
  5
483E
  8
2-0
  6
CONTINUOUS
 62
     3
 10
24119.264832499961
 20
19667.320403999991
 30
0.0
 11
24114.274466499959
 21
19667.320403999991
 31
0.0
  0
LINE
  5
483F
  8
2-0
  6
CONTINUOUS
 62
     3
 10
24119.264832499961
 20
19660.314888000001
 30
0.0
 11
24119.264832499961
 21
19667.320403999991
 31
0.0
  0
LINE
  5
4840
  8
2-0
  6
CONTINUOUS
 62
     3
 10
23431.26927999996
 20
19672.314729999998
 30
0.0
 11
24075.081978499951
 21
19672.314729999998
 31
0.0
  0
LINE
  5
4841
  8
2-0
  6
CONTINUOUS
 62
     3
 10
25480.559753999962
 20
19672.314729999998
 30
0.0
 11
24833.274228999959
 21
19672.314729999998
 31
0.0
  0
LINE
  5
4842
  8
2-0
  6
CONTINUOUS
 62
     3
 10
24776.081977999958
 20
19672.314729999998
 30
0.0
 11
24132.270269499961
 21
19672.314729999998
 31
0.0
  0
LINE
  5
4843
  8
2-0
  6
CONTINUOUS
 62
     3
 10
23418.267801999958
 20
19660.314888000001
 30
0.0
 11
23418.267801999958
 21
19667.320403999991
 31
0.0
  0
LINE
  5
4844
  8
2-0
  6
CONTINUOUS
 62
     3
 10
23418.267801999958
 20
19667.320403999991
 30
0.0
 11
23413.26753799996
 21
19667.320403999991
 31
0.0
  0
LINE
  5
4845
  8
2-0
  6
CONTINUOUS
 62
     3
 10
23413.26753799996
 20
19667.320403999991
 30
0.0
 11
23413.26753799996
 21
19642.311166999989
 31
0.0
  0
LINE
  5
4846
  8
2-0
  6
CONTINUOUS
 62
     3
 10
23413.26753799996
 20
19642.311166999989
 30
0.0
 11
23431.26927999996
 21
19642.311166999989
 31
0.0
  0
LINE
  5
4847
  8
2-0
  6
CONTINUOUS
 62
     3
 10
23431.26927999996
 20
19642.311166999989
 30
0.0
 11
23431.26927999996
 21
19672.314729999998
 31
0.0
  0
LINE
  5
4848
  8
2-0
  6
CONTINUOUS
 62
     3
 10
23415.16985499996
 20
19642.311166999989
 30
0.0
 11
23421.17373499996
 21
19642.311166999989
 31
0.0
  0
LINE
  5
4849
  8
2-0
  6
CONTINUOUS
 62
     3
 10
23421.17373499996
 20
19642.311166999989
 30
0.0
 11
23421.17373499996
 21
19672.314729999998
 31
0.0
  0
LINE
  5
484A
  8
2-0
  6
CONTINUOUS
 62
     3
 10
23384.178512999959
 20
19672.314729999998
 30
0.0
 11
23421.17373499996
 21
19672.314729999998
 31
0.0
  0
LINE
  5
484B
  8
2-0
  6
CONTINUOUS
 62
     3
 10
23384.178512999959
 20
19642.311166999989
 30
0.0
 11
23384.178512999959
 21
19672.314729999998
 31
0.0
  0
LINE
  5
484C
  8
2-0
  6
CONTINUOUS
 62
     3
 10
23390.172494999981
 20
19642.311166999989
 30
0.0
 11
23384.178512999959
 21
19642.311166999989
 31
0.0
  0
LINE
  5
484D
  8
2-0
  6
CONTINUOUS
 62
     3
 10
23374.082967999959
 20
19642.311166999989
 30
0.0
 11
23374.082967999959
 21
19672.314729999998
 31
0.0
  0
LINE
  5
484E
  8
2-0
  6
CONTINUOUS
 62
     3
 10
23392.078770999971
 20
19642.311166999989
 30
0.0
 11
23374.082967999959
 21
19642.311166999989
 31
0.0
  0
LINE
  5
484F
  8
2-0
  6
CONTINUOUS
 62
     3
 10
23392.078770999971
 20
19667.320403999991
 30
0.0
 11
23392.078770999971
 21
19642.311166999989
 31
0.0
  0
LINE
  5
4850
  8
2-0
  6
CONTINUOUS
 62
     3
 10
23387.080486999981
 20
19667.320403999991
 30
0.0
 11
23392.078770999971
 21
19667.320403999991
 31
0.0
  0
LINE
  5
4851
  8
2-0
  6
CONTINUOUS
 62
     3
 10
23387.080486999981
 20
19660.314888000001
 30
0.0
 11
23387.080486999981
 21
19667.320403999991
 31
0.0
  0
LINE
  5
4852
  8
2-0
  6
CONTINUOUS
 62
     3
 10
23077.98136599996
 20
19672.314729999998
 30
0.0
 11
23374.082967999959
 21
19672.314729999998
 31
0.0
  0
LINE
  5
4853
  8
2-0
  6
CONTINUOUS
 62
     3
 10
22256.365577999961
 20
19672.314729999998
 30
0.0
 11
22219.364415999971
 21
19672.314729999998
 31
0.0
  0
LINE
  5
4854
  8
2-0
  6
CONTINUOUS
 62
     3
 10
22256.365577999961
 20
19642.311166999989
 30
0.0
 11
22256.365577999961
 21
19672.314729999998
 31
0.0
  0
LINE
  5
4855
  8
2-0
  6
CONTINUOUS
 62
     3
 10
22250.365656999958
 20
19642.311166999989
 30
0.0
 11
22256.365577999961
 21
19642.311166999989
 31
0.0
  0
LINE
  5
4856
  8
2-0
  6
CONTINUOUS
 62
     3
 10
22266.46310199998
 20
19642.311166999989
 30
0.0
 11
22266.46310199998
 21
19672.314729999998
 31
0.0
  0
LINE
  5
4857
  8
2-0
  6
CONTINUOUS
 62
     3
 10
22248.459380999961
 20
19642.311166999989
 30
0.0
 11
22266.46310199998
 21
19642.311166999989
 31
0.0
  0
LINE
  5
4858
  8
2-0
  6
CONTINUOUS
 62
     3
 10
22248.459380999961
 20
19667.320403999991
 30
0.0
 11
22248.459380999961
 21
19642.311166999989
 31
0.0
  0
LINE
  5
4859
  8
2-0
  6
CONTINUOUS
 62
     3
 10
22253.45964499997
 20
19667.320403999991
 30
0.0
 11
22248.459380999961
 21
19667.320403999991
 31
0.0
  0
LINE
  5
485A
  8
2-0
  6
CONTINUOUS
 62
     3
 10
22253.45964499997
 20
19660.314888000001
 30
0.0
 11
22253.45964499997
 21
19667.320403999991
 31
0.0
  0
LINE
  5
485B
  8
2-0
  6
CONTINUOUS
 62
     3
 10
22222.27034999997
 20
19660.314888000001
 30
0.0
 11
22222.27034999997
 21
19667.320403999991
 31
0.0
  0
LINE
  5
485C
  8
2-0
  6
CONTINUOUS
 62
     3
 10
22222.27034999997
 20
19667.320403999991
 30
0.0
 11
22227.270613999968
 21
19667.320403999991
 31
0.0
  0
LINE
  5
485D
  8
2-0
  6
CONTINUOUS
 62
     3
 10
22227.270613999968
 20
19667.320403999991
 30
0.0
 11
22227.270613999968
 21
19642.311166999989
 31
0.0
  0
LINE
  5
485E
  8
2-0
  6
CONTINUOUS
 62
     3
 10
22227.270613999968
 20
19642.311166999989
 30
0.0
 11
22209.270850999968
 21
19642.311166999989
 31
0.0
  0
LINE
  5
485F
  8
2-0
  6
CONTINUOUS
 62
     3
 10
22209.270850999968
 20
19642.311166999989
 30
0.0
 11
22209.270850999968
 21
19672.314729999998
 31
0.0
  0
LINE
  5
4860
  8
2-0
  6
CONTINUOUS
 62
     3
 10
22225.36433699997
 20
19642.311166999989
 30
0.0
 11
22219.364415999971
 21
19642.311166999989
 31
0.0
  0
LINE
  5
4861
  8
2-0
  6
CONTINUOUS
 62
     3
 10
22219.364415999971
 20
19642.311166999989
 30
0.0
 11
22219.364415999971
 21
19672.314729999998
 31
0.0
  0
LINE
  5
4862
  8
2-0
  6
CONTINUOUS
 62
     3
 10
22913.748626999961
 20
19672.314729999998
 30
0.0
 11
22266.46310199998
 21
19672.314729999998
 31
0.0
  0
LINE
  5
4863
  8
2-0
  6
CONTINUOUS
 62
     3
 10
22209.270850999968
 20
19672.314729999998
 30
0.0
 11
22117.255674
 21
19672.314729999998
 31
0.0
  0
LINE
  5
4864
  8
2-0
  6
CONTINUOUS
 62
     3
 10
21618.573649499991
 20
19660.314888000001
 30
0.0
 11
21618.573649499991
 21
19667.320403999991
 31
0.0
  0
LINE
  5
4865
  8
2-0
  6
CONTINUOUS
 62
     3
 10
21618.573649499991
 20
19667.320403999991
 30
0.0
 11
21613.573385499982
 21
19667.320403999991
 31
0.0
  0
LINE
  5
4866
  8
2-0
  6
CONTINUOUS
 62
     3
 10
21613.573385499982
 20
19667.320403999991
 30
0.0
 11
21613.573385499982
 21
19642.311166999989
 31
0.0
  0
LINE
  5
4867
  8
2-0
  6
CONTINUOUS
 62
     3
 10
21613.573385499982
 20
19642.311166999989
 30
0.0
 11
21631.579086500002
 21
19642.311166999989
 31
0.0
  0
LINE
  5
4868
  8
2-0
  6
CONTINUOUS
 62
     3
 10
21631.579086500002
 20
19642.311166999989
 30
0.0
 11
21631.579086500002
 21
19672.314729999998
 31
0.0
  0
LINE
  5
4869
  8
2-0
  6
CONTINUOUS
 62
     3
 10
21615.481641499991
 20
19642.311166999989
 30
0.0
 11
21621.483541500002
 21
19642.311166999989
 31
0.0
  0
LINE
  5
486A
  8
2-0
  6
CONTINUOUS
 62
     3
 10
21621.483541500002
 20
19642.311166999989
 30
0.0
 11
21621.483541500002
 21
19672.314729999998
 31
0.0
  0
LINE
  5
486B
  8
2-0
  6
CONTINUOUS
 62
     3
 10
21584.484360499991
 20
19672.314729999998
 30
0.0
 11
21621.483541500002
 21
19672.314729999998
 31
0.0
  0
LINE
  5
486C
  8
2-0
  6
CONTINUOUS
 62
     3
 10
21584.484360499991
 20
19642.311166999989
 30
0.0
 11
21584.484360499991
 21
19672.314729999998
 31
0.0
  0
LINE
  5
486D
  8
2-0
  6
CONTINUOUS
 62
     3
 10
21590.478342499991
 20
19642.311166999989
 30
0.0
 11
21584.484360499991
 21
19642.311166999989
 31
0.0
  0
LINE
  5
486E
  8
2-0
  6
CONTINUOUS
 62
     3
 10
21574.388815499999
 20
19642.311166999989
 30
0.0
 11
21574.388815499999
 21
19672.314729999998
 31
0.0
  0
LINE
  5
486F
  8
2-0
  6
CONTINUOUS
 62
     3
 10
21592.384618499978
 20
19642.311166999989
 30
0.0
 11
21574.388815499999
 21
19642.311166999989
 31
0.0
  0
LINE
  5
4870
  8
2-0
  6
CONTINUOUS
 62
     3
 10
21592.384618499978
 20
19667.320403999991
 30
0.0
 11
21592.384618499978
 21
19642.311166999989
 31
0.0
  0
LINE
  5
4871
  8
2-0
  6
CONTINUOUS
 62
     3
 10
21587.384354499991
 20
19667.320403999991
 30
0.0
 11
21592.384618499978
 21
19667.320403999991
 31
0.0
  0
LINE
  5
4872
  8
2-0
  6
CONTINUOUS
 62
     3
 10
21587.384354499991
 20
19660.314888000001
 30
0.0
 11
21587.384354499991
 21
19667.320403999991
 31
0.0
  0
LINE
  5
4873
  8
2-0
  6
CONTINUOUS
 62
     3
 10
20930.782976999992
 20
19672.314729999998
 30
0.0
 11
21574.388815499999
 21
19672.314729999998
 31
0.0
  0
LINE
  5
4874
  8
2-0
  6
CONTINUOUS
 62
     3
 10
20917.575628999992
 20
19660.314888000001
 30
0.0
 11
20917.575628999992
 21
19667.320403999991
 31
0.0
  0
LINE
  5
4875
  8
2-0
  6
CONTINUOUS
 62
     3
 10
20917.575628999992
 20
19667.320403999991
 30
0.0
 11
20912.57536499999
 21
19667.320403999991
 31
0.0
  0
LINE
  5
4876
  8
2-0
  6
CONTINUOUS
 62
     3
 10
20912.57536499999
 20
19667.320403999991
 30
0.0
 11
20912.57536499999
 21
19642.311166999989
 31
0.0
  0
LINE
  5
4877
  8
2-0
  6
CONTINUOUS
 62
     3
 10
20912.57536499999
 20
19642.311166999989
 30
0.0
 11
20930.577107000008
 21
19642.311166999989
 31
0.0
  0
LINE
  5
4878
  8
2-0
  6
CONTINUOUS
 62
     3
 10
20930.577107000008
 20
19642.311166999989
 30
0.0
 11
20930.577107000008
 21
19672.314729999998
 31
0.0
  0
LINE
  5
4879
  8
2-0
  6
CONTINUOUS
 62
     3
 10
20914.477682000012
 20
19642.311166999989
 30
0.0
 11
20920.48156199999
 21
19642.311166999989
 31
0.0
  0
LINE
  5
487A
  8
2-0
  6
CONTINUOUS
 62
     3
 10
20920.48156199999
 20
19642.311166999989
 30
0.0
 11
20920.48156199999
 21
19672.314729999998
 31
0.0
  0
LINE
  5
487B
  8
2-0
  6
CONTINUOUS
 62
     3
 10
20883.486339999989
 20
19672.314729999998
 30
0.0
 11
20920.48156199999
 21
19672.314729999998
 31
0.0
  0
LINE
  5
487C
  8
2-0
  6
CONTINUOUS
 62
     3
 10
20883.486339999989
 20
19642.311166999989
 30
0.0
 11
20883.486339999989
 21
19672.314729999998
 31
0.0
  0
LINE
  5
487D
  8
2-0
  6
CONTINUOUS
 62
     3
 10
20889.480321999999
 20
19642.311166999989
 30
0.0
 11
20883.486339999989
 21
19642.311166999989
 31
0.0
  0
LINE
  5
487E
  8
2-0
  6
CONTINUOUS
 62
     3
 10
20873.390794999988
 20
19642.311166999989
 30
0.0
 11
20873.390794999988
 21
19672.314729999998
 31
0.0
  0
LINE
  5
487F
  8
2-0
  6
CONTINUOUS
 62
     3
 10
20891.386598000008
 20
19642.311166999989
 30
0.0
 11
20873.390794999988
 21
19642.311166999989
 31
0.0
  0
LINE
  5
4880
  8
2-0
  6
CONTINUOUS
 62
     3
 10
20891.386598000008
 20
19667.320403999991
 30
0.0
 11
20891.386598000008
 21
19642.311166999989
 31
0.0
  0
LINE
  5
4881
  8
2-0
  6
CONTINUOUS
 62
     3
 10
20886.388313999989
 20
19667.320403999991
 30
0.0
 11
20891.386598000008
 21
19667.320403999991
 31
0.0
  0
LINE
  5
4882
  8
2-0
  6
CONTINUOUS
 62
     3
 10
20886.388313999989
 20
19660.314888000001
 30
0.0
 11
20886.388313999989
 21
19667.320403999991
 31
0.0
  0
LINE
  5
4883
  8
2-0
  6
CONTINUOUS
 62
     3
 10
20577.28919299999
 20
19672.314729999998
 30
0.0
 11
20873.390794999988
 21
19672.314729999998
 31
0.0
  0
LINE
  5
4884
  8
2-0
  6
CONTINUOUS
 62
     3
 10
21817.255674
 20
19672.314729999998
 30
0.0
 11
21631.579086500002
 21
19672.314729999998
 31
0.0
  0
LINE
  5
4885
  8
2-0
  6
CONTINUOUS
 62
     3
 10
25605.174407999959
 20
15574.95588199998
 30
0.0
 11
25605.174407999959
 21
14930.91702399998
 31
0.0
  0
LINE
  5
4886
  8
SUNPOU
  6
CONTINUOUS
 10
5162.8187879664411
 20
19852.312354000002
 30
0.0
 11
5162.8187879664411
 21
20649.27962177846
 31
0.0
  0
LINE
  5
4887
  8
SUNPOU
  6
CONTINUOUS
 10
5162.818787966442
 20
14302.32112999998
 30
0.0
 11
5162.818787966442
 21
13626.8950141896
 31
0.0
  0
LINE
  5
4888
  8
2-0
  6
CONTINUOUS
 62
     6
 10
23899.748618591639
 20
18623.449808940361
 30
0.0
 11
24924.780950591648
 21
18623.449808940361
 31
0.0
  0
LINE
  5
4889
  8
2-0
  6
CONTINUOUS
 62
     6
 10
25454.874703395759
 20
19088.233346646441
 30
0.0
 11
24924.780950591648
 21
18623.449808940361
 31
0.0
  0
TEXT
  5
488A
  8
2-0
  6
CONTINUOUS
 62
     7
 10
23979.746902591662
 20
18703.45403194036
 30
0.0
 40
160.0
  1
間柱（側）
 72
     4
 11
24401.08023592499
 21
18783.45403194036
 31
0.0
  0
LINE
  5
488B
  8
2-0
  6
CONTINUOUS
 62
     6
 10
25472.453916673261
 20
19068.184204675748
 30
0.0
 11
25575.176783999948
 21
19193.722298499961
 31
0.0
  0
LINE
  5
488C
  8
2-0
  6
CONTINUOUS
 62
     6
 10
25575.176783999948
 20
19193.722298499961
 30
0.0
 11
25437.286513180919
 21
19108.286660997321
 31
0.0
  0
LINE
  5
488D
  8
2-0
  6
CONTINUOUS
 62
     6
 10
25437.286513180919
 20
19108.286660997321
 30
0.0
 11
25472.453916673261
 21
19068.184204675748
 31
0.0
  0
LINE
  5
488E
  8
SUNPOU
  6
CONTINUOUS
 10
7666.8845009999914
 20
9360.7302629999976
 30
0.0
 11
7191.5953883597576
 21
9360.7302629999976
 31
0.0
  0
LINE
  5
4891
  8
WAKUSEN-01
 10
868.00000000000193
 20
22484.000000000011
 30
0.0
 11
32764.000000000011
 21
22484.000000000011
 31
0.0
  0
LINE
  5
4894
  8
WAKUSEN-01
 10
20560.0
 20
2484.0
 30
0.0
 11
32764.0
 21
2484.0
 31
0.0
  0
LINE
  5
4895
  8
WAKUSEN-02
 10
20560.0
 20
1655.9999999999991
 30
0.0
 11
26868.0
 21
1655.9999999999991
 31
0.0
  0
TEXT
  5
4896
  8
WAKUMOJI-01
 10
20670.260259962761
 20
2125.9030093393221
 30
0.0
 40
240.0
  1
名　称
  7
WAKUMOJI
  0
TEXT
  5
4897
  8
WAKUMOJI-01
 10
20656.505485091919
 20
1319.12897497982
 30
0.0
 40
240.0
  1
機種名
  7
WAKUMOJI
  0
LINE
  5
489A
  8
YODOROGO
 10
29977.604341291921
 20
1995.7494964292871
 30
0.0
 11
29829.604341291921
 21
1995.7494964292871
 31
0.0
1001
AUTOCAD_POSTSCRIPT_FIGURE
1002
{
1000
PSFILL
1000
Grayscale
1000
Grayscale
1070
    25
1002
}
  0
LINE
  5
489B
  8
YODOROGO
 10
29829.604341291921
 20
1947.749496429288
 30
0.0
 11
29977.604341291921
 21
1947.749496429288
 31
0.0
1001
AUTOCAD_POSTSCRIPT_FIGURE
1002
{
1000
PSFILL
1000
Grayscale
1000
Grayscale
1070
    25
1002
}
  0
LINE
  5
489C
  8
YODOROGO
 10
29977.604341291921
 20
1907.7494964292871
 30
0.0
 11
29829.604341291921
 21
1907.7494964292871
 31
0.0
1001
AUTOCAD_POSTSCRIPT_FIGURE
1002
{
1000
PSFILL
1000
Grayscale
1000
Grayscale
1070
    25
1002
}
  0
LINE
  5
489D
  8
YODOROGO
 10
29829.604341291921
 20
1859.749496429288
 30
0.0
 11
29977.604341291921
 21
1859.749496429288
 31
0.0
1001
AUTOCAD_POSTSCRIPT_FIGURE
1002
{
1000
PSFILL
1000
Grayscale
1000
Grayscale
1070
    25
1002
}
  0
LINE
  5
489E
  8
YODOROGO
 10
29977.604341291921
 20
1819.7494964292871
 30
0.0
 11
29829.604341291921
 21
1819.7494964292871
 31
0.0
1001
AUTOCAD_POSTSCRIPT_FIGURE
1002
{
1000
PSFILL
1000
Grayscale
1000
Grayscale
1070
    25
1002
}
  0
LINE
  5
489F
  8
YODOROGO
 10
29921.60434129191
 20
1707.749496429288
 30
0.0
 11
29977.604341291921
 21
1707.749496429288
 31
0.0
1001
AUTOCAD_POSTSCRIPT_FIGURE
1002
{
1000
PSFILL
1000
Grayscale
1000
Grayscale
1070
    25
1002
}
  0
LINE
  5
48A0
  8
YODOROGO
 10
29737.604341291921
 20
1427.749496429288
 30
0.0
 11
29937.604341291932
 21
1481.3393349155101
 31
0.0
  0
LINE
  5
48A1
  8
YODOROGO
 10
29949.60434129191
 20
1707.749496429288
 30
0.0
 11
29885.604341291921
 21
1707.749496429288
 31
0.0
  0
ARC
  5
48A2
  8
YODOROGO
 10
30254.34774982791
 20
1807.864609233261
 30
0.0
 40
381.88686420564721
 50
213.96111677667841
 51
264.47872074317792
  0
ARC
  5
48A3
  8
YODOROGO
 10
30254.347749827921
 20
1807.864609233302
 30
0.0
 40
381.8868642056816
 50
208.14114420486601
 51
212.9210361185994
  0
LINE
  5
48A4
  8
YODOROGO
 10
29771.409872985321
 20
1556.807661346234
 30
0.0
 11
29933.78413250855
 21
1600.3157130570869
 31
0.0
  0
LINE
  5
48A5
  8
YODOROGO
 10
29737.604341291921
 20
1427.749496429288
 30
0.0
 11
29937.604341291932
 21
1481.3393349155101
 31
0.0
  0
LINE
  5
48A6
  8
YODOROGO
 10
29949.60434129191
 20
1707.749496429288
 30
0.0
 11
29885.604341291921
 21
1707.749496429288
 31
0.0
  0
ARC
  5
48A7
  8
YODOROGO
 10
30254.34774982791
 20
1807.864609233261
 30
0.0
 40
381.88686420564721
 50
213.96111677667841
 51
264.47872074317792
  0
LINE
  5
48A8
  8
YODOROGO
 10
28793.60434129191
 20
1819.7494964292871
 30
0.0
 11
28433.60434129191
 21
1819.7494964292871
 31
0.0
  0
LINE
  5
48A9
  8
YODOROGO
 10
28513.60434129191
 20
1427.749496429288
 30
0.0
 11
28793.60434129191
 21
1427.749496429288
 31
0.0
  0
LINE
  5
48AA
  8
YODOROGO
 10
28729.604341291921
 20
1923.7494964292871
 30
0.0
 11
28497.60434129191
 21
1923.7494964292871
 31
0.0
  0
LINE
  5
48AB
  8
YODOROGO
 10
28585.604341291921
 20
2027.749496429288
 30
0.0
 11
28657.604341291921
 21
2027.749496429288
 31
0.0
  0
LINE
  5
48AC
  8
YODOROGO
 10
28433.60434129191
 20
1707.749496429288
 30
0.0
 11
28433.60434129191
 21
1507.749496429288
 31
0.0
  0
LINE
  5
48AD
  8
YODOROGO
 10
28497.60434129191
 20
1563.7494964292871
 30
0.0
 11
28497.60434129191
 21
1707.749496429288
 31
0.0
  0
LINE
  5
48AE
  8
YODOROGO
 10
28585.604341291921
 20
1747.74949642929
 30
0.0
 11
28585.604341291921
 21
1547.749496429288
 31
0.0
  0
LINE
  5
48AF
  8
YODOROGO
 10
27857.604341291921
 20
1683.749496429288
 30
0.0
 11
27777.604341291921
 21
1619.9724140445701
 31
0.0
  0
LINE
  5
48B0
  8
YODOROGO
 10
27937.604341291921
 20
1619.9724140445701
 30
0.0
 11
27857.604341291921
 21
1683.749496429288
 31
0.0
  0
LINE
  5
48B1
  8
YODOROGO
 10
27857.604341291921
 20
1707.749496429288
 30
0.0
 11
27937.604341291921
 21
1643.9724140445701
 31
0.0
  0
LINE
  5
48B2
  8
YODOROGO
 10
27777.604341291921
 20
1643.9724140445701
 30
0.0
 11
27857.604341291921
 21
1707.749496429288
 31
0.0
  0
LINE
  5
48B3
  8
YODOROGO
 10
28040.913204016892
 20
1659.749496429288
 30
0.0
 11
28040.913204016892
 21
1683.7494964292871
 31
0.0
  0
LINE
  5
48B4
  8
YODOROGO
 10
27977.604341291921
 20
1683.7494964292871
 30
0.0
 11
27977.604341291921
 21
1667.749496429285
 31
0.0
  0
LINE
  5
48B5
  8
YODOROGO
 10
28098.135520230931
 20
1707.749496429288
 30
0.0
 11
28098.135520230931
 21
1655.5036372746561
 31
0.0
1001
AUTOCAD_POSTSCRIPT_FIGURE
1002
{
1000
PSFILL
1000
Grayscale
1000
Grayscale
1070
   100
1002
}
  0
LINE
  5
48B6
  8
YODOROGO
 10
28082.135520230921
 20
1655.5036372746561
 30
0.0
 11
28082.135520230921
 21
1707.749496429288
 31
0.0
1001
AUTOCAD_POSTSCRIPT_FIGURE
1002
{
1000
PSFILL
1000
Grayscale
1000
Grayscale
1070
   100
1002
}
  0
LINE
  5
48B7
  8
YODOROGO
 10
27809.604341291921
 20
1608.771904043258
 30
0.0
 11
27809.604341291921
 21
1632.771904043258
 31
0.0
  0
LINE
  5
48B8
  8
YODOROGO
 10
27905.604341291921
 20
1608.771904043258
 30
0.0
 11
27809.604341291921
 21
1608.771904043258
 31
0.0
  0
LINE
  5
48B9
  8
YODOROGO
 10
27905.604341291921
 20
1632.771904043258
 30
0.0
 11
27905.604341291921
 21
1608.771904043258
 31
0.0
  0
LINE
  5
48BA
  8
YODOROGO
 10
27809.604341291921
 20
1632.771904043258
 30
0.0
 11
27905.604341291921
 21
1632.771904043258
 31
0.0
  0
LINE
  5
48BB
  8
YODOROGO
 10
27824.509588915738
 20
1568.5028573704751
 30
0.0
 11
27785.604341291921
 21
1475.7494964292871
 31
0.0
1001
AUTOCAD_POSTSCRIPT_FIGURE
1002
{
1000
PSFILL
1000
Grayscale
1000
Grayscale
1070
   100
1002
}
  0
LINE
  5
48BC
  8
YODOROGO
 10
27777.604341291921
 20
1568.5028573704751
 30
0.0
 11
27824.509588915738
 21
1568.5028573704751
 31
0.0
1001
AUTOCAD_POSTSCRIPT_FIGURE
1002
{
1000
PSFILL
1000
Grayscale
1000
Grayscale
1070
   100
1002
}
  0
LINE
  5
48BD
  8
YODOROGO
 10
27777.604341291921
 20
1588.5028573704751
 30
0.0
 11
27777.604341291921
 21
1568.5028573704751
 31
0.0
1001
AUTOCAD_POSTSCRIPT_FIGURE
1002
{
1000
PSFILL
1000
Grayscale
1000
Grayscale
1070
   100
1002
}
  0
LINE
  5
48BE
  8
YODOROGO
 10
27937.604341291921
 20
1588.5028573704751
 30
0.0
 11
27777.604341291921
 21
1588.5028573704751
 31
0.0
1001
AUTOCAD_POSTSCRIPT_FIGURE
1002
{
1000
PSFILL
1000
Grayscale
1000
Grayscale
1070
   100
1002
}
  0
LINE
  5
48BF
  8
YODOROGO
 10
27937.604341291921
 20
1568.5028573704751
 30
0.0
 11
27937.604341291921
 21
1588.5028573704751
 31
0.0
1001
AUTOCAD_POSTSCRIPT_FIGURE
1002
{
1000
PSFILL
1000
Grayscale
1000
Grayscale
1070
   100
1002
}
  0
LINE
  5
48C0
  8
YODOROGO
 10
27844.509588915738
 20
1568.5028573704751
 30
0.0
 11
27937.604341291921
 21
1568.5028573704751
 31
0.0
1001
AUTOCAD_POSTSCRIPT_FIGURE
1002
{
1000
PSFILL
1000
Grayscale
1000
Grayscale
1070
   100
1002
}
  0
LINE
  5
48C1
  8
YODOROGO
 10
27815.546718284771
 20
1495.7494964292871
 30
0.0
 11
27844.509588915738
 21
1568.5028573704751
 31
0.0
1001
AUTOCAD_POSTSCRIPT_FIGURE
1002
{
1000
PSFILL
1000
Grayscale
1000
Grayscale
1070
   100
1002
}
  0
LINE
  5
48C2
  8
YODOROGO
 10
27902.054790808648
 20
1495.7494964292871
 30
0.0
 11
27815.546718284771
 21
1495.7494964292871
 31
0.0
1001
AUTOCAD_POSTSCRIPT_FIGURE
1002
{
1000
PSFILL
1000
Grayscale
1000
Grayscale
1070
   100
1002
}
  0
LINE
  5
48C3
  8
YODOROGO
 10
27885.065004790951
 20
1536.2338106976929
 30
0.0
 11
27902.054790808648
 21
1495.7494964292871
 31
0.0
1001
AUTOCAD_POSTSCRIPT_FIGURE
1002
{
1000
PSFILL
1000
Grayscale
1000
Grayscale
1070
   100
1002
}
  0
LINE
  5
48C4
  8
YODOROGO
 10
27901.065004790951
 20
1536.2338106976929
 30
0.0
 11
27885.065004790951
 21
1536.2338106976929
 31
0.0
1001
AUTOCAD_POSTSCRIPT_FIGURE
1002
{
1000
PSFILL
1000
Grayscale
1000
Grayscale
1070
   100
1002
}
  0
LINE
  5
48C5
  8
YODOROGO
 10
27929.604341291921
 20
1475.7494964292871
 30
0.0
 11
27901.065004790951
 21
1536.2338106976929
 31
0.0
1001
AUTOCAD_POSTSCRIPT_FIGURE
1002
{
1000
PSFILL
1000
Grayscale
1000
Grayscale
1070
   100
1002
}
  0
LINE
  5
48C6
  8
YODOROGO
 10
27785.604341291921
 20
1475.7494964292871
 30
0.0
 11
27929.604341291921
 21
1475.7494964292871
 31
0.0
1001
AUTOCAD_POSTSCRIPT_FIGURE
1002
{
1000
PSFILL
1000
Grayscale
1000
Grayscale
1070
   100
1002
}
  0
LINE
  5
48C7
  8
YODOROGO
 10
27777.604341291921
 20
1619.9724140445701
 30
0.0
 11
27777.604341291921
 21
1643.9724140445701
 31
0.0
  0
LINE
  5
48C8
  8
YODOROGO
 10
27937.604341291921
 20
1643.9724140445701
 30
0.0
 11
27937.604341291921
 21
1619.9724140445701
 31
0.0
  0
ARC
  5
48C9
  8
YODOROGO
 10
28225.940442146959
 20
1600.877765325326
 30
0.0
 40
175.9999999999998
 50
280.3644312771313
 51
3.5414836592180561
  0
ARC
  5
48CA
  8
YODOROGO
 10
28235.756030759301
 20
1633.5978069619041
 30
0.0
 40
111.9999999999982
 50
281.24905825041549
 51
348.75094174958321
  0
LINE
  5
48CB
  8
YODOROGO
 10
28257.604341291921
 20
1523.7494964292871
 30
0.0
 11
28257.604341291921
 21
1427.749496429288
 31
0.0
  0
LINE
  5
48CC
  8
YODOROGO
 10
28020.088903736909
 20
1610.650565061914
 30
0.0
 11
28040.913204016892
 21
1659.749496429288
 31
0.0
  0
LINE
  5
48CD
  8
YODOROGO
 10
28041.604341291921
 20
1583.120489948401
 30
0.0
 11
28020.088903736909
 21
1610.650565061914
 31
0.0
  0
LINE
  5
48CE
  8
YODOROGO
 10
28041.604341291921
 20
1563.120489948398
 30
0.0
 11
28041.604341291921
 21
1583.120489948401
 31
0.0
  0
LINE
  5
48CF
  8
YODOROGO
 10
28017.604341291921
 20
1585.2370637495301
 30
0.0
 11
28041.604341291921
 21
1563.120489948398
 31
0.0
  0
LINE
  5
48D0
  8
YODOROGO
 10
28017.604341291921
 20
1475.7494964292871
 30
0.0
 11
28017.604341291921
 21
1585.2370637495301
 31
0.0
  0
LINE
  5
48D1
  8
YODOROGO
 10
28001.604341291921
 20
1475.7494964292871
 30
0.0
 11
28017.604341291921
 21
1475.7494964292871
 31
0.0
  0
LINE
  5
48D2
  8
YODOROGO
 10
28001.604341291921
 20
1580.0053496897469
 30
0.0
 11
28001.604341291921
 21
1475.7494964292871
 31
0.0
  0
LINE
  5
48D3
  8
YODOROGO
 10
27977.604341291921
 20
1532.7680790334291
 30
0.0
 11
28001.604341291921
 21
1580.0053496897469
 31
0.0
  0
LINE
  5
48D4
  8
YODOROGO
 10
27977.604341291921
 20
1556.76807903343
 30
0.0
 11
27977.604341291921
 21
1532.7680790334291
 31
0.0
  0
LINE
  5
48D5
  8
YODOROGO
 10
28025.828774291349
 20
1667.749496429285
 30
0.0
 11
27977.604341291921
 21
1556.76807903343
 31
0.0
  0
LINE
  5
48D6
  8
YODOROGO
 10
27977.604341291921
 20
1667.749496429285
 30
0.0
 11
28025.828774291349
 21
1667.749496429285
 31
0.0
  0
LINE
  5
48D7
  8
YODOROGO
 10
28050.135520230899
 20
1655.5036372746561
 30
0.0
 11
28082.135520230921
 21
1655.5036372746561
 31
0.0
1001
AUTOCAD_POSTSCRIPT_FIGURE
1002
{
1000
PSFILL
1000
Grayscale
1000
Grayscale
1070
   100
1002
}
  0
LINE
  5
48D8
  8
YODOROGO
 10
28050.135520230899
 20
1631.5036372746561
 30
0.0
 11
28050.135520230899
 21
1655.5036372746561
 31
0.0
1001
AUTOCAD_POSTSCRIPT_FIGURE
1002
{
1000
PSFILL
1000
Grayscale
1000
Grayscale
1070
   100
1002
}
  0
LINE
  5
48D9
  8
YODOROGO
 10
28082.135520230921
 20
1631.5036372746561
 30
0.0
 11
28050.135520230899
 21
1631.5036372746561
 31
0.0
1001
AUTOCAD_POSTSCRIPT_FIGURE
1002
{
1000
PSFILL
1000
Grayscale
1000
Grayscale
1070
   100
1002
}
  0
LINE
  5
48DA
  8
YODOROGO
 10
28082.135520230921
 20
1499.749496429288
 30
0.0
 11
28082.135520230921
 21
1631.5036372746561
 31
0.0
1001
AUTOCAD_POSTSCRIPT_FIGURE
1002
{
1000
PSFILL
1000
Grayscale
1000
Grayscale
1070
   100
1002
}
  0
LINE
  5
48DB
  8
YODOROGO
 10
28050.135520230921
 20
1499.749496429288
 30
0.0
 11
28082.135520230921
 21
1499.749496429288
 31
0.0
1001
AUTOCAD_POSTSCRIPT_FIGURE
1002
{
1000
PSFILL
1000
Grayscale
1000
Grayscale
1070
   100
1002
}
  0
LINE
  5
48DC
  8
YODOROGO
 10
28050.135520230921
 20
1475.7494964292871
 30
0.0
 11
28050.135520230921
 21
1499.749496429288
 31
0.0
1001
AUTOCAD_POSTSCRIPT_FIGURE
1002
{
1000
PSFILL
1000
Grayscale
1000
Grayscale
1070
   100
1002
}
  0
LINE
  5
48DD
  8
YODOROGO
 10
28137.604341291921
 20
1475.7494964292871
 30
0.0
 11
28050.135520230921
 21
1475.7494964292871
 31
0.0
1001
AUTOCAD_POSTSCRIPT_FIGURE
1002
{
1000
PSFILL
1000
Grayscale
1000
Grayscale
1070
   100
1002
}
  0
LINE
  5
48DE
  8
YODOROGO
 10
28137.604341291921
 20
1499.749496429288
 30
0.0
 11
28137.604341291921
 21
1475.7494964292871
 31
0.0
1001
AUTOCAD_POSTSCRIPT_FIGURE
1002
{
1000
PSFILL
1000
Grayscale
1000
Grayscale
1070
   100
1002
}
  0
LINE
  5
48DF
  8
YODOROGO
 10
28098.135520230931
 20
1499.749496429288
 30
0.0
 11
28137.604341291921
 21
1499.749496429288
 31
0.0
1001
AUTOCAD_POSTSCRIPT_FIGURE
1002
{
1000
PSFILL
1000
Grayscale
1000
Grayscale
1070
   100
1002
}
  0
LINE
  5
48E0
  8
YODOROGO
 10
28098.135520230931
 20
1631.5036372746561
 30
0.0
 11
28098.135520230931
 21
1499.749496429288
 31
0.0
1001
AUTOCAD_POSTSCRIPT_FIGURE
1002
{
1000
PSFILL
1000
Grayscale
1000
Grayscale
1070
   100
1002
}
  0
LINE
  5
48E1
  8
YODOROGO
 10
28137.604341291921
 20
1631.5036372746561
 30
0.0
 11
28098.135520230931
 21
1631.5036372746561
 31
0.0
1001
AUTOCAD_POSTSCRIPT_FIGURE
1002
{
1000
PSFILL
1000
Grayscale
1000
Grayscale
1070
   100
1002
}
  0
LINE
  5
48E2
  8
YODOROGO
 10
28137.604341291921
 20
1655.5036372746561
 30
0.0
 11
28137.604341291921
 21
1631.5036372746561
 31
0.0
1001
AUTOCAD_POSTSCRIPT_FIGURE
1002
{
1000
PSFILL
1000
Grayscale
1000
Grayscale
1070
   100
1002
}
  0
LINE
  5
48E3
  8
YODOROGO
 10
28098.135520230931
 20
1655.5036372746561
 30
0.0
 11
28137.604341291921
 21
1655.5036372746561
 31
0.0
1001
AUTOCAD_POSTSCRIPT_FIGURE
1002
{
1000
PSFILL
1000
Grayscale
1000
Grayscale
1070
   100
1002
}
  0
LINE
  5
48E4
  8
YODOROGO
 10
28401.60434129191
 20
1667.749496429288
 30
0.0
 11
28345.604341291921
 21
1667.749496429288
 31
0.0
  0
LINE
  5
48E5
  8
YODOROGO
 10
28401.60434129191
 20
1611.749496429288
 30
0.0
 11
28401.60434129191
 21
1667.749496429288
 31
0.0
  0
LINE
  5
48E6
  8
YODOROGO
 10
28345.604341291921
 20
1667.749496429288
 30
0.0
 11
28345.604341291921
 21
1611.749496429288
 31
0.0
  0
ARC
  5
48E7
  8
YODOROGO
 10
28513.60434129191
 20
1507.749496429288
 30
0.0
 40
80.0
 50
180.0
 51
270.0
  0
ARC
  5
48E8
  8
YODOROGO
 10
28537.604341291921
 20
1563.7494964292871
 30
0.0
 40
40.0
 50
180.0
 51
270.0
  0
LINE
  5
48E9
  8
YODOROGO
 10
28561.604341291932
 20
1523.7494964292871
 30
0.0
 11
28537.604341291921
 21
1523.7494964292871
 31
0.0
  0
ARC
  5
48EA
  8
YODOROGO
 10
28561.604341291932
 20
1547.749496429285
 30
0.0
 40
23.999999999996358
 50
270.0
 51
0.0000000000054281
  0
LINE
  5
48EB
  8
YODOROGO
 10
27801.604341291921
 20
1890.786580793706
 30
0.0
 11
27777.604341291921
 21
1843.776747951672
 31
0.0
1001
AUTOCAD_POSTSCRIPT_FIGURE
1002
{
1000
PSFILL
1000
Grayscale
1000
Grayscale
1070
   100
1002
}
  0
LINE
  5
48EC
  8
YODOROGO
 10
27801.604341291921
 20
1747.749496429286
 30
0.0
 11
27801.604341291921
 21
1890.786580793706
 31
0.0
1001
AUTOCAD_POSTSCRIPT_FIGURE
1002
{
1000
PSFILL
1000
Grayscale
1000
Grayscale
1070
   100
1002
}
  0
LINE
  5
48ED
  8
YODOROGO
 10
27817.604341291921
 20
1747.749496429286
 30
0.0
 11
27801.604341291921
 21
1747.749496429286
 31
0.0
1001
AUTOCAD_POSTSCRIPT_FIGURE
1002
{
1000
PSFILL
1000
Grayscale
1000
Grayscale
1070
   100
1002
}
  0
LINE
  5
48EE
  8
YODOROGO
 10
27817.604341291921
 20
1893.7713320852661
 30
0.0
 11
27817.604341291921
 21
1747.749496429286
 31
0.0
1001
AUTOCAD_POSTSCRIPT_FIGURE
1002
{
1000
PSFILL
1000
Grayscale
1000
Grayscale
1070
   100
1002
}
  0
LINE
  5
48EF
  8
YODOROGO
 10
27841.604341291921
 20
1867.6547582841361
 30
0.0
 11
27817.604341291921
 21
1893.7713320852661
 31
0.0
1001
AUTOCAD_POSTSCRIPT_FIGURE
1002
{
1000
PSFILL
1000
Grayscale
1000
Grayscale
1070
   100
1002
}
  0
LINE
  5
48F0
  8
YODOROGO
 10
27841.604341291921
 20
1883.6547582841361
 30
0.0
 11
27841.604341291921
 21
1867.6547582841361
 31
0.0
1001
AUTOCAD_POSTSCRIPT_FIGURE
1002
{
1000
PSFILL
1000
Grayscale
1000
Grayscale
1070
   100
1002
}
  0
LINE
  5
48F1
  8
YODOROGO
 10
27817.604341291921
 20
1917.7713320852649
 30
0.0
 11
27841.604341291921
 21
1883.6547582841361
 31
0.0
1001
AUTOCAD_POSTSCRIPT_FIGURE
1002
{
1000
PSFILL
1000
Grayscale
1000
Grayscale
1070
   100
1002
}
  0
LINE
  5
48F2
  8
YODOROGO
 10
27817.604341291921
 20
1939.749496429288
 30
0.0
 11
27817.604341291921
 21
1917.7713320852649
 31
0.0
1001
AUTOCAD_POSTSCRIPT_FIGURE
1002
{
1000
PSFILL
1000
Grayscale
1000
Grayscale
1070
   100
1002
}
  0
LINE
  5
48F3
  8
YODOROGO
 10
27889.604341291921
 20
1939.749496429288
 30
0.0
 11
27817.604341291921
 21
1939.749496429288
 31
0.0
1001
AUTOCAD_POSTSCRIPT_FIGURE
1002
{
1000
PSFILL
1000
Grayscale
1000
Grayscale
1070
   100
1002
}
  0
LINE
  5
48F4
  8
YODOROGO
 10
27889.604341291921
 20
1900.5683489363
 30
0.0
 11
27889.604341291921
 21
1939.749496429288
 31
0.0
1001
AUTOCAD_POSTSCRIPT_FIGURE
1002
{
1000
PSFILL
1000
Grayscale
1000
Grayscale
1070
   100
1002
}
  0
LINE
  5
48F5
  8
YODOROGO
 10
27857.604341291921
 20
1900.5683489363
 30
0.0
 11
27889.604341291921
 21
1900.5683489363
 31
0.0
1001
AUTOCAD_POSTSCRIPT_FIGURE
1002
{
1000
PSFILL
1000
Grayscale
1000
Grayscale
1070
   100
1002
}
  0
LINE
  5
48F6
  8
YODOROGO
 10
27857.604341291921
 20
1884.568348936298
 30
0.0
 11
27857.604341291921
 21
1900.5683489363
 31
0.0
1001
AUTOCAD_POSTSCRIPT_FIGURE
1002
{
1000
PSFILL
1000
Grayscale
1000
Grayscale
1070
   100
1002
}
  0
LINE
  5
48F7
  8
YODOROGO
 10
27889.604341291921
 20
1884.568348936298
 30
0.0
 11
27857.604341291921
 21
1884.568348936298
 31
0.0
1001
AUTOCAD_POSTSCRIPT_FIGURE
1002
{
1000
PSFILL
1000
Grayscale
1000
Grayscale
1070
   100
1002
}
  0
LINE
  5
48F8
  8
YODOROGO
 10
27889.604341291921
 20
1879.6191779644371
 30
0.0
 11
27889.604341291921
 21
1884.568348936298
 31
0.0
1001
AUTOCAD_POSTSCRIPT_FIGURE
1002
{
1000
PSFILL
1000
Grayscale
1000
Grayscale
1070
   100
1002
}
  0
LINE
  5
48F9
  8
YODOROGO
 10
27849.604341291921
 20
1812.974981161417
 30
0.0
 11
27889.604341291921
 21
1879.6191779644371
 31
0.0
1001
AUTOCAD_POSTSCRIPT_FIGURE
1002
{
1000
PSFILL
1000
Grayscale
1000
Grayscale
1070
   100
1002
}
  0
LINE
  5
48FA
  8
YODOROGO
 10
27849.604341291921
 20
1796.9749811614161
 30
0.0
 11
27849.604341291921
 21
1812.974981161417
 31
0.0
1001
AUTOCAD_POSTSCRIPT_FIGURE
1002
{
1000
PSFILL
1000
Grayscale
1000
Grayscale
1070
   100
1002
}
  0
LINE
  5
48FB
  8
YODOROGO
 10
27889.604341291921
 20
1847.6191779644359
 30
0.0
 11
27849.604341291921
 21
1796.9749811614161
 31
0.0
1001
AUTOCAD_POSTSCRIPT_FIGURE
1002
{
1000
PSFILL
1000
Grayscale
1000
Grayscale
1070
   100
1002
}
  0
LINE
  5
48FC
  8
YODOROGO
 10
27889.604341291921
 20
1747.749496429286
 30
0.0
 11
27889.604341291921
 21
1847.6191779644359
 31
0.0
1001
AUTOCAD_POSTSCRIPT_FIGURE
1002
{
1000
PSFILL
1000
Grayscale
1000
Grayscale
1070
   100
1002
}
  0
LINE
  5
48FD
  8
YODOROGO
 10
27905.604341291921
 20
1747.749496429286
 30
0.0
 11
27889.604341291921
 21
1747.749496429286
 31
0.0
1001
AUTOCAD_POSTSCRIPT_FIGURE
1002
{
1000
PSFILL
1000
Grayscale
1000
Grayscale
1070
   100
1002
}
  0
LINE
  5
48FE
  8
YODOROGO
 10
27905.604341291921
 20
1849.409012158806
 30
0.0
 11
27905.604341291921
 21
1747.749496429286
 31
0.0
1001
AUTOCAD_POSTSCRIPT_FIGURE
1002
{
1000
PSFILL
1000
Grayscale
1000
Grayscale
1070
   100
1002
}
  0
LINE
  5
48FF
  8
YODOROGO
 10
27937.604341291921
 20
1796.9749811614161
 30
0.0
 11
27905.604341291921
 21
1849.409012158806
 31
0.0
1001
AUTOCAD_POSTSCRIPT_FIGURE
1002
{
1000
PSFILL
1000
Grayscale
1000
Grayscale
1070
   100
1002
}
  0
LINE
  5
4900
  8
YODOROGO
 10
27937.604341291921
 20
1812.974981161417
 30
0.0
 11
27937.604341291921
 21
1796.9749811614161
 31
0.0
1001
AUTOCAD_POSTSCRIPT_FIGURE
1002
{
1000
PSFILL
1000
Grayscale
1000
Grayscale
1070
   100
1002
}
  0
LINE
  5
4901
  8
YODOROGO
 10
27905.604341291921
 20
1881.4090121588081
 30
0.0
 11
27937.604341291921
 21
1812.974981161417
 31
0.0
1001
AUTOCAD_POSTSCRIPT_FIGURE
1002
{
1000
PSFILL
1000
Grayscale
1000
Grayscale
1070
   100
1002
}
  0
LINE
  5
4902
  8
YODOROGO
 10
27905.604341291921
 20
1884.5683489363
 30
0.0
 11
27905.604341291921
 21
1881.4090121588081
 31
0.0
1001
AUTOCAD_POSTSCRIPT_FIGURE
1002
{
1000
PSFILL
1000
Grayscale
1000
Grayscale
1070
   100
1002
}
  0
LINE
  5
4903
  8
YODOROGO
 10
27937.604341291921
 20
1884.568348936298
 30
0.0
 11
27905.604341291921
 21
1884.5683489363
 31
0.0
1001
AUTOCAD_POSTSCRIPT_FIGURE
1002
{
1000
PSFILL
1000
Grayscale
1000
Grayscale
1070
   100
1002
}
  0
LINE
  5
4904
  8
YODOROGO
 10
27937.604341291921
 20
1900.5683489363
 30
0.0
 11
27937.604341291921
 21
1884.568348936298
 31
0.0
1001
AUTOCAD_POSTSCRIPT_FIGURE
1002
{
1000
PSFILL
1000
Grayscale
1000
Grayscale
1070
   100
1002
}
  0
LINE
  5
4905
  8
YODOROGO
 10
27905.604341291921
 20
1900.5683489363
 30
0.0
 11
27937.604341291921
 21
1900.5683489363
 31
0.0
1001
AUTOCAD_POSTSCRIPT_FIGURE
1002
{
1000
PSFILL
1000
Grayscale
1000
Grayscale
1070
   100
1002
}
  0
LINE
  5
4906
  8
YODOROGO
 10
27905.604341291921
 20
1939.749496429288
 30
0.0
 11
27905.604341291921
 21
1900.5683489363
 31
0.0
1001
AUTOCAD_POSTSCRIPT_FIGURE
1002
{
1000
PSFILL
1000
Grayscale
1000
Grayscale
1070
   100
1002
}
  0
LINE
  5
4907
  8
YODOROGO
 10
27937.604341291921
 20
1939.749496429288
 30
0.0
 11
27905.604341291921
 21
1939.749496429288
 31
0.0
1001
AUTOCAD_POSTSCRIPT_FIGURE
1002
{
1000
PSFILL
1000
Grayscale
1000
Grayscale
1070
   100
1002
}
  0
LINE
  5
4908
  8
YODOROGO
 10
27937.604341291921
 20
1955.7494964292871
 30
0.0
 11
27937.604341291921
 21
1939.749496429288
 31
0.0
1001
AUTOCAD_POSTSCRIPT_FIGURE
1002
{
1000
PSFILL
1000
Grayscale
1000
Grayscale
1070
   100
1002
}
  0
LINE
  5
4909
  8
YODOROGO
 10
27905.604341291921
 20
1955.7494964292871
 30
0.0
 11
27937.604341291921
 21
1955.7494964292871
 31
0.0
1001
AUTOCAD_POSTSCRIPT_FIGURE
1002
{
1000
PSFILL
1000
Grayscale
1000
Grayscale
1070
   100
1002
}
  0
LINE
  5
490A
  8
YODOROGO
 10
27905.604341291921
 20
1979.749496429288
 30
0.0
 11
27905.604341291921
 21
1955.7494964292871
 31
0.0
1001
AUTOCAD_POSTSCRIPT_FIGURE
1002
{
1000
PSFILL
1000
Grayscale
1000
Grayscale
1070
   100
1002
}
  0
LINE
  5
490B
  8
YODOROGO
 10
27889.604341291921
 20
1979.749496429288
 30
0.0
 11
27905.604341291921
 21
1979.749496429288
 31
0.0
1001
AUTOCAD_POSTSCRIPT_FIGURE
1002
{
1000
PSFILL
1000
Grayscale
1000
Grayscale
1070
   100
1002
}
  0
LINE
  5
490C
  8
YODOROGO
 10
27889.604341291921
 20
1955.7494964292871
 30
0.0
 11
27889.604341291921
 21
1979.749496429288
 31
0.0
1001
AUTOCAD_POSTSCRIPT_FIGURE
1002
{
1000
PSFILL
1000
Grayscale
1000
Grayscale
1070
   100
1002
}
  0
LINE
  5
490D
  8
YODOROGO
 10
27865.604341291921
 20
1955.7494964292871
 30
0.0
 11
27889.604341291921
 21
1955.7494964292871
 31
0.0
1001
AUTOCAD_POSTSCRIPT_FIGURE
1002
{
1000
PSFILL
1000
Grayscale
1000
Grayscale
1070
   100
1002
}
  0
LINE
  5
490E
  8
YODOROGO
 10
27865.604341291921
 20
1979.749496429288
 30
0.0
 11
27865.604341291921
 21
1955.7494964292871
 31
0.0
1001
AUTOCAD_POSTSCRIPT_FIGURE
1002
{
1000
PSFILL
1000
Grayscale
1000
Grayscale
1070
   100
1002
}
  0
LINE
  5
490F
  8
YODOROGO
 10
27849.604341291921
 20
1979.749496429288
 30
0.0
 11
27865.604341291921
 21
1979.749496429288
 31
0.0
1001
AUTOCAD_POSTSCRIPT_FIGURE
1002
{
1000
PSFILL
1000
Grayscale
1000
Grayscale
1070
   100
1002
}
  0
LINE
  5
4910
  8
YODOROGO
 10
27849.604341291921
 20
1955.7494964292871
 30
0.0
 11
27849.604341291921
 21
1979.749496429288
 31
0.0
1001
AUTOCAD_POSTSCRIPT_FIGURE
1002
{
1000
PSFILL
1000
Grayscale
1000
Grayscale
1070
   100
1002
}
  0
LINE
  5
4911
  8
YODOROGO
 10
27817.604341291921
 20
1955.7494964292871
 30
0.0
 11
27849.604341291921
 21
1955.7494964292871
 31
0.0
1001
AUTOCAD_POSTSCRIPT_FIGURE
1002
{
1000
PSFILL
1000
Grayscale
1000
Grayscale
1070
   100
1002
}
  0
LINE
  5
4912
  8
YODOROGO
 10
27817.604341291921
 20
1979.749496429288
 30
0.0
 11
27817.604341291921
 21
1955.7494964292871
 31
0.0
1001
AUTOCAD_POSTSCRIPT_FIGURE
1002
{
1000
PSFILL
1000
Grayscale
1000
Grayscale
1070
   100
1002
}
  0
LINE
  5
4913
  8
YODOROGO
 10
27801.604341291921
 20
1979.749496429288
 30
0.0
 11
27817.604341291921
 21
1979.749496429288
 31
0.0
1001
AUTOCAD_POSTSCRIPT_FIGURE
1002
{
1000
PSFILL
1000
Grayscale
1000
Grayscale
1070
   100
1002
}
  0
LINE
  5
4914
  8
YODOROGO
 10
27801.604341291921
 20
1955.7494964292871
 30
0.0
 11
27801.604341291921
 21
1979.749496429288
 31
0.0
1001
AUTOCAD_POSTSCRIPT_FIGURE
1002
{
1000
PSFILL
1000
Grayscale
1000
Grayscale
1070
   100
1002
}
  0
LINE
  5
4915
  8
YODOROGO
 10
27777.604341291921
 20
1955.7494964292871
 30
0.0
 11
27801.604341291921
 21
1955.7494964292871
 31
0.0
1001
AUTOCAD_POSTSCRIPT_FIGURE
1002
{
1000
PSFILL
1000
Grayscale
1000
Grayscale
1070
   100
1002
}
  0
LINE
  5
4916
  8
YODOROGO
 10
27777.604341291921
 20
1939.749496429288
 30
0.0
 11
27777.604341291921
 21
1955.7494964292871
 31
0.0
1001
AUTOCAD_POSTSCRIPT_FIGURE
1002
{
1000
PSFILL
1000
Grayscale
1000
Grayscale
1070
   100
1002
}
  0
LINE
  5
4917
  8
YODOROGO
 10
27801.604341291921
 20
1939.749496429288
 30
0.0
 11
27777.604341291921
 21
1939.749496429288
 31
0.0
1001
AUTOCAD_POSTSCRIPT_FIGURE
1002
{
1000
PSFILL
1000
Grayscale
1000
Grayscale
1070
   100
1002
}
  0
LINE
  5
4918
  8
YODOROGO
 10
27801.604341291921
 20
1914.7865807937051
 30
0.0
 11
27801.604341291921
 21
1939.749496429288
 31
0.0
1001
AUTOCAD_POSTSCRIPT_FIGURE
1002
{
1000
PSFILL
1000
Grayscale
1000
Grayscale
1070
   100
1002
}
  0
LINE
  5
4919
  8
YODOROGO
 10
27777.604341291921
 20
1859.776747951671
 30
0.0
 11
27801.604341291921
 21
1914.7865807937051
 31
0.0
1001
AUTOCAD_POSTSCRIPT_FIGURE
1002
{
1000
PSFILL
1000
Grayscale
1000
Grayscale
1070
   100
1002
}
  0
LINE
  5
491A
  8
YODOROGO
 10
27777.604341291921
 20
1843.776747951672
 30
0.0
 11
27777.604341291921
 21
1859.776747951671
 31
0.0
1001
AUTOCAD_POSTSCRIPT_FIGURE
1002
{
1000
PSFILL
1000
Grayscale
1000
Grayscale
1070
   100
1002
}
  0
LINE
  5
491B
  8
YODOROGO
 10
28257.604341291921
 20
1867.7494964292871
 30
0.0
 11
28401.60434129191
 21
1824.877625640306
 31
0.0
1001
AUTOCAD_POSTSCRIPT_FIGURE
1002
{
1000
PSFILL
1000
Grayscale
1000
Grayscale
1070
   100
1002
}
  0
LINE
  5
491C
  8
YODOROGO
 10
28401.60434129191
 20
1752.877625640306
 30
0.0
 11
28257.604341291921
 21
1795.7494964292871
 31
0.0
1001
AUTOCAD_POSTSCRIPT_FIGURE
1002
{
1000
PSFILL
1000
Grayscale
1000
Grayscale
1070
   100
1002
}
  0
LINE
  5
491D
  8
YODOROGO
 10
28401.60434129191
 20
1984.877625640306
 30
0.0
 11
28257.604341291921
 21
2027.749496429288
 31
0.0
1001
AUTOCAD_POSTSCRIPT_FIGURE
1002
{
1000
PSFILL
1000
Grayscale
1000
Grayscale
1070
   100
1002
}
  0
LINE
  5
491E
  8
YODOROGO
 10
28257.604341291921
 20
1959.749496429288
 30
0.0
 11
28401.60434129191
 21
1916.8776256403071
 31
0.0
1001
AUTOCAD_POSTSCRIPT_FIGURE
1002
{
1000
PSFILL
1000
Grayscale
1000
Grayscale
1070
   100
1002
}
  0
LINE
  5
491F
  8
YODOROGO
 10
28257.604341291921
 20
1795.7494964292871
 30
0.0
 11
28257.604341291921
 21
1867.7494964292871
 31
0.0
1001
AUTOCAD_POSTSCRIPT_FIGURE
1002
{
1000
PSFILL
1000
Grayscale
1000
Grayscale
1070
   100
1002
}
  0
LINE
  5
4920
  8
YODOROGO
 10
28257.604341291921
 20
2027.749496429288
 30
0.0
 11
28257.604341291921
 21
1959.749496429288
 31
0.0
1001
AUTOCAD_POSTSCRIPT_FIGURE
1002
{
1000
PSFILL
1000
Grayscale
1000
Grayscale
1070
   100
1002
}
  0
LINE
  5
4921
  8
YODOROGO
 10
28080.236320206739
 20
1939.749496429288
 30
0.0
 11
28129.60434129191
 21
1747.749496429286
 31
0.0
1001
AUTOCAD_POSTSCRIPT_FIGURE
1002
{
1000
PSFILL
1000
Grayscale
1000
Grayscale
1070
   100
1002
}
  0
LINE
  5
4922
  8
YODOROGO
 10
27977.604341291921
 20
1939.749496429288
 30
0.0
 11
28080.236320206739
 21
1939.749496429288
 31
0.0
1001
AUTOCAD_POSTSCRIPT_FIGURE
1002
{
1000
PSFILL
1000
Grayscale
1000
Grayscale
1070
   100
1002
}
  0
LINE
  5
4923
  8
YODOROGO
 10
27977.604341291921
 20
1955.7494964292871
 30
0.0
 11
27977.604341291921
 21
1939.749496429288
 31
0.0
1001
AUTOCAD_POSTSCRIPT_FIGURE
1002
{
1000
PSFILL
1000
Grayscale
1000
Grayscale
1070
   100
1002
}
  0
LINE
  5
4924
  8
YODOROGO
 10
28076.60687851991
 20
1955.7494964292871
 30
0.0
 11
27977.604341291921
 21
1955.7494964292871
 31
0.0
1001
AUTOCAD_POSTSCRIPT_FIGURE
1002
{
1000
PSFILL
1000
Grayscale
1000
Grayscale
1070
   100
1002
}
  0
LINE
  5
4925
  8
YODOROGO
 10
28071.162715989711
 20
1979.749496429288
 30
0.0
 11
28076.60687851991
 21
1955.7494964292871
 31
0.0
1001
AUTOCAD_POSTSCRIPT_FIGURE
1002
{
1000
PSFILL
1000
Grayscale
1000
Grayscale
1070
   100
1002
}
  0
LINE
  5
4926
  8
YODOROGO
 10
28091.162715989711
 20
1979.749496429288
 30
0.0
 11
28071.162715989711
 21
1979.749496429288
 31
0.0
1001
AUTOCAD_POSTSCRIPT_FIGURE
1002
{
1000
PSFILL
1000
Grayscale
1000
Grayscale
1070
   100
1002
}
  0
LINE
  5
4927
  8
YODOROGO
 10
28095.806878519939
 20
1955.7494964292871
 30
0.0
 11
28091.162715989711
 21
1979.749496429288
 31
0.0
1001
AUTOCAD_POSTSCRIPT_FIGURE
1002
{
1000
PSFILL
1000
Grayscale
1000
Grayscale
1070
   100
1002
}
  0
LINE
  5
4928
  8
YODOROGO
 10
28121.604341291921
 20
1955.7494964292871
 30
0.0
 11
28095.806878519939
 21
1955.7494964292871
 31
0.0
1001
AUTOCAD_POSTSCRIPT_FIGURE
1002
{
1000
PSFILL
1000
Grayscale
1000
Grayscale
1070
   100
1002
}
  0
LINE
  5
4929
  8
YODOROGO
 10
28121.604341291921
 20
1979.749496429288
 30
0.0
 11
28121.604341291921
 21
1955.7494964292871
 31
0.0
1001
AUTOCAD_POSTSCRIPT_FIGURE
1002
{
1000
PSFILL
1000
Grayscale
1000
Grayscale
1070
   100
1002
}
  0
LINE
  5
492A
  8
YODOROGO
 10
28137.604341291921
 20
1979.749496429288
 30
0.0
 11
28121.604341291921
 21
1979.749496429288
 31
0.0
1001
AUTOCAD_POSTSCRIPT_FIGURE
1002
{
1000
PSFILL
1000
Grayscale
1000
Grayscale
1070
   100
1002
}
  0
LINE
  5
492B
  8
YODOROGO
 10
28137.604341291921
 20
1955.7494964292871
 30
0.0
 11
28137.604341291921
 21
1979.749496429288
 31
0.0
1001
AUTOCAD_POSTSCRIPT_FIGURE
1002
{
1000
PSFILL
1000
Grayscale
1000
Grayscale
1070
   100
1002
}
  0
LINE
  5
492C
  8
YODOROGO
 10
28137.604341291921
 20
1939.749496429288
 30
0.0
 11
28137.604341291921
 21
1955.7494964292871
 31
0.0
1001
AUTOCAD_POSTSCRIPT_FIGURE
1002
{
1000
PSFILL
1000
Grayscale
1000
Grayscale
1070
   100
1002
}
  0
LINE
  5
492D
  8
YODOROGO
 10
28098.902986873411
 20
1939.749496429288
 30
0.0
 11
28137.604341291921
 21
1939.749496429288
 31
0.0
1001
AUTOCAD_POSTSCRIPT_FIGURE
1002
{
1000
PSFILL
1000
Grayscale
1000
Grayscale
1070
   100
1002
}
  0
LINE
  5
492E
  8
YODOROGO
 10
28137.604341291921
 20
1747.749496429286
 30
0.0
 11
28098.902986873411
 21
1939.749496429288
 31
0.0
1001
AUTOCAD_POSTSCRIPT_FIGURE
1002
{
1000
PSFILL
1000
Grayscale
1000
Grayscale
1070
   100
1002
}
  0
LINE
  5
492F
  8
YODOROGO
 10
28129.60434129191
 20
1747.749496429286
 30
0.0
 11
28137.604341291921
 21
1747.749496429286
 31
0.0
1001
AUTOCAD_POSTSCRIPT_FIGURE
1002
{
1000
PSFILL
1000
Grayscale
1000
Grayscale
1070
   100
1002
}
  0
LINE
  5
4930
  8
YODOROGO
 10
28078.06921993379
 20
1775.7407762987939
 30
0.0
 11
27977.604341291921
 21
1747.749496429286
 31
0.0
  0
LINE
  5
4931
  8
YODOROGO
 10
28078.06921993379
 20
1798.6689795290731
 30
0.0
 11
28078.06921993379
 21
1775.7407762987939
 31
0.0
  0
LINE
  5
4932
  8
YODOROGO
 10
28033.83678061287
 20
1786.816933133767
 30
0.0
 11
28078.06921993379
 21
1798.6689795290731
 31
0.0
  0
LINE
  5
4933
  8
YODOROGO
 10
28033.83678061287
 20
1872.5683489362989
 30
0.0
 11
28033.83678061287
 21
1786.816933133767
 31
0.0
  0
LINE
  5
4934
  8
YODOROGO
 10
28078.06921993379
 20
1872.5683489362989
 30
0.0
 11
28033.83678061287
 21
1872.5683489362989
 31
0.0
  0
LINE
  5
4935
  8
YODOROGO
 10
28078.06921993379
 20
1892.568348936298
 30
0.0
 11
28078.06921993379
 21
1872.5683489362989
 31
0.0
  0
LINE
  5
4936
  8
YODOROGO
 10
27977.604341291921
 20
1892.568348936298
 30
0.0
 11
28078.06921993379
 21
1892.568348936298
 31
0.0
  0
LINE
  5
4937
  8
YODOROGO
 10
27977.604341291921
 20
1872.5683489362989
 30
0.0
 11
27977.604341291921
 21
1892.568348936298
 31
0.0
  0
LINE
  5
4938
  8
YODOROGO
 10
28021.836780612852
 20
1872.5683489362989
 30
0.0
 11
27977.604341291921
 21
1872.5683489362989
 31
0.0
  0
LINE
  5
4939
  8
YODOROGO
 10
28021.836780612852
 20
1784.673339594317
 30
0.0
 11
28021.836780612852
 21
1872.5683489362989
 31
0.0
  0
LINE
  5
493A
  8
YODOROGO
 10
27977.604341291921
 20
1771.749496429286
 30
0.0
 11
28021.836780612852
 21
1784.673339594317
 31
0.0
  0
LINE
  5
493B
  8
YODOROGO
 10
27977.604341291921
 20
1747.749496429286
 30
0.0
 11
27977.604341291921
 21
1771.749496429286
 31
0.0
  0
LINE
  5
493C
  8
YODOROGO
 10
28001.604341291921
 20
1707.749496429288
 30
0.0
 11
28001.604341291921
 21
1683.7494964292871
 31
0.0
  0
LINE
  5
493D
  8
YODOROGO
 10
28017.604341291921
 20
1707.749496429288
 30
0.0
 11
28001.604341291921
 21
1707.749496429288
 31
0.0
  0
LINE
  5
493E
  8
YODOROGO
 10
28017.604341291921
 20
1683.7494964292871
 30
0.0
 11
28017.604341291921
 21
1707.749496429288
 31
0.0
  0
LINE
  5
493F
  8
YODOROGO
 10
28040.913204016892
 20
1683.7494964292871
 30
0.0
 11
28017.604341291921
 21
1683.7494964292871
 31
0.0
  0
LINE
  5
4940
  8
YODOROGO
 10
28001.604341291921
 20
1683.7494964292871
 30
0.0
 11
27977.604341291921
 21
1683.7494964292871
 31
0.0
  0
LINE
  5
4941
  8
YODOROGO
 10
28082.135520230921
 20
1707.749496429288
 30
0.0
 11
28098.135520230931
 21
1707.749496429288
 31
0.0
1001
AUTOCAD_POSTSCRIPT_FIGURE
1002
{
1000
PSFILL
1000
Grayscale
1000
Grayscale
1070
   100
1002
}
  0
LINE
  5
4942
  8
YODOROGO
 10
28401.60434129191
 20
1824.877625640306
 30
0.0
 11
28401.60434129191
 21
1752.877625640306
 31
0.0
1001
AUTOCAD_POSTSCRIPT_FIGURE
1002
{
1000
PSFILL
1000
Grayscale
1000
Grayscale
1070
   100
1002
}
  0
LINE
  5
4943
  8
YODOROGO
 10
28401.60434129191
 20
1916.8776256403071
 30
0.0
 11
28401.60434129191
 21
1984.877625640306
 31
0.0
1001
AUTOCAD_POSTSCRIPT_FIGURE
1002
{
1000
PSFILL
1000
Grayscale
1000
Grayscale
1070
   100
1002
}
  0
LINE
  5
4944
  8
YODOROGO
 10
28433.60434129191
 20
1819.7494964292871
 30
0.0
 11
28433.60434129191
 21
1747.74949642929
 31
0.0
  0
LINE
  5
4945
  8
YODOROGO
 10
28497.60434129191
 20
1707.749496429288
 30
0.0
 11
28433.60434129191
 21
1707.749496429288
 31
0.0
  0
LINE
  5
4946
  8
YODOROGO
 10
28433.60434129191
 20
1747.74949642929
 30
0.0
 11
28585.604341291921
 21
1747.74949642929
 31
0.0
  0
LINE
  5
4947
  8
YODOROGO
 10
28497.60434129191
 20
1867.7494964292871
 30
0.0
 11
28433.60434129191
 21
1867.7494964292871
 31
0.0
  0
LINE
  5
4948
  8
YODOROGO
 10
28497.60434129191
 20
1923.7494964292871
 30
0.0
 11
28497.60434129191
 21
1867.7494964292871
 31
0.0
  0
LINE
  5
4949
  8
YODOROGO
 10
28585.604341291921
 20
1987.7494964292871
 30
0.0
 11
28585.604341291921
 21
2027.749496429288
 31
0.0
  0
LINE
  5
494A
  8
YODOROGO
 10
28433.60434129191
 20
1987.7494964292871
 30
0.0
 11
28585.604341291921
 21
1987.7494964292871
 31
0.0
  0
LINE
  5
494B
  8
YODOROGO
 10
28433.60434129191
 20
1867.7494964292871
 30
0.0
 11
28433.60434129191
 21
1987.7494964292871
 31
0.0
  0
LINE
  5
494C
  8
YODOROGO
 10
29001.60434129191
 20
2027.749496429288
 30
0.0
 11
29001.60434129191
 21
1619.749496429288
 31
0.0
  0
LINE
  5
494D
  8
YODOROGO
 10
29073.604341291921
 20
1579.749496429288
 30
0.0
 11
29073.604341291921
 21
2027.749496429288
 31
0.0
  0
LINE
  5
494E
  8
YODOROGO
 10
29261.604341291921
 20
1491.749496429286
 30
0.0
 11
29261.604341291921
 21
2007.749496429288
 31
0.0
  0
LINE
  5
494F
  8
YODOROGO
 10
29197.604341291921
 20
2007.749496429288
 30
0.0
 11
29197.604341291921
 21
1491.749496429286
 31
0.0
  0
LINE
  5
4950
  8
YODOROGO
 10
29385.604341291921
 20
2027.749496429288
 30
0.0
 11
29385.604341291921
 21
1427.749496429288
 31
0.0
  0
LINE
  5
4951
  8
YODOROGO
 10
29457.604341291921
 20
1427.749496429288
 30
0.0
 11
29457.604341291921
 21
2027.749496429288
 31
0.0
  0
LINE
  5
4952
  8
YODOROGO
 10
28657.604341291921
 20
1667.749496429288
 30
0.0
 11
28657.604341291921
 21
1747.74949642929
 31
0.0
  0
LINE
  5
4953
  8
YODOROGO
 10
29885.604341291921
 20
1707.749496429288
 30
0.0
 11
29885.604341291921
 21
1667.749496429288
 31
0.0
  0
LINE
  5
4954
  8
YODOROGO
 10
29885.604341291921
 20
1707.749496429288
 30
0.0
 11
29885.604341291921
 21
1667.749496429288
 31
0.0
  0
ARC
  5
4955
  8
YODOROGO
 10
28906.911576186842
 20
1618.217864442272
 30
0.0
 40
94.705151178741644
 50
274.05244162907098
 51
0.9266642149310712
  0
ARC
  5
4956
  8
YODOROGO
 10
28909.186170719819
 20
1592.61072861044
 30
0.0
 40
164.92042356085511
 50
271.5351210653775
 51
355.52727750585052
  0
LINE
  5
4957
  8
YODOROGO
 10
28913.604341291921
 20
1523.7494964292871
 30
0.0
 11
28913.604341291921
 21
1427.749496429288
 31
0.0
  0
LINE
  5
4958
  8
YODOROGO
 10
28793.60434129191
 20
1667.749496429288
 30
0.0
 11
28657.604341291921
 21
1667.749496429288
 31
0.0
  0
LINE
  5
4959
  8
YODOROGO
 10
28793.60434129191
 20
1603.7494964292871
 30
0.0
 11
28793.60434129191
 21
1667.749496429288
 31
0.0
  0
LINE
  5
495A
  8
YODOROGO
 10
28657.604341291921
 20
1603.7494964292871
 30
0.0
 11
28793.60434129191
 21
1603.7494964292871
 31
0.0
  0
LINE
  5
495B
  8
YODOROGO
 10
28657.604341291921
 20
1523.7494964292871
 30
0.0
 11
28657.604341291921
 21
1603.7494964292871
 31
0.0
  0
LINE
  5
495C
  8
YODOROGO
 10
28793.60434129191
 20
1523.7494964292871
 30
0.0
 11
28657.604341291921
 21
1523.7494964292871
 31
0.0
  0
LINE
  5
495D
  8
YODOROGO
 10
28793.60434129191
 20
1427.749496429288
 30
0.0
 11
28793.60434129191
 21
1523.7494964292871
 31
0.0
  0
LINE
  5
495E
  8
YODOROGO
 10
29197.604341291921
 20
1491.749496429286
 30
0.0
 11
29261.604341291921
 21
1491.749496429286
 31
0.0
  0
LINE
  5
495F
  8
YODOROGO
 10
29385.604341291921
 20
1427.749496429288
 30
0.0
 11
29457.604341291921
 21
1427.749496429288
 31
0.0
  0
LINE
  5
4960
  8
YODOROGO
 10
29737.604341291921
 20
1528.4414521705639
 30
0.0
 11
29737.604341291921
 21
1427.749496429288
 31
0.0
  0
LINE
  5
4961
  8
YODOROGO
 10
29617.604341291921
 20
1427.749496429288
 30
0.0
 11
29737.604341291921
 21
1528.4414521705639
 31
0.0
  0
LINE
  5
4962
  8
YODOROGO
 10
29617.604341291921
 20
1547.749496429288
 30
0.0
 11
29617.604341291921
 21
1427.749496429288
 31
0.0
  0
LINE
  5
4963
  8
YODOROGO
 10
29712.94462869945
 20
1627.749496429288
 30
0.0
 11
29617.604341291921
 21
1547.749496429288
 31
0.0
  0
LINE
  5
4964
  8
YODOROGO
 10
29617.604341291921
 20
1627.749496429288
 30
0.0
 11
29712.94462869945
 21
1627.749496429288
 31
0.0
  0
LINE
  5
4965
  8
YODOROGO
 10
29617.604341291921
 20
1667.749496429288
 30
0.0
 11
29617.604341291921
 21
1627.749496429288
 31
0.0
  0
LINE
  5
4966
  8
YODOROGO
 10
29885.604341291921
 20
1667.749496429288
 30
0.0
 11
29617.604341291921
 21
1667.749496429288
 31
0.0
  0
LINE
  5
4967
  8
YODOROGO
 10
29917.604341291921
 20
1627.749496429288
 30
0.0
 11
29777.604341291921
 21
1627.749496429288
 31
0.0
  0
LINE
  5
4968
  8
YODOROGO
 10
29777.604341291921
 20
1562.0054374176559
 30
0.0
 11
29771.409872985321
 21
1556.807661346234
 31
0.0
  0
LINE
  5
4969
  8
YODOROGO
 10
29777.604341291921
 20
1627.749496429288
 30
0.0
 11
29777.604341291921
 21
1562.0054374176559
 31
0.0
  0
LINE
  5
496A
  8
YODOROGO
 10
29737.604341291921
 20
1528.4414521705639
 30
0.0
 11
29737.604341291921
 21
1427.749496429288
 31
0.0
  0
LINE
  5
496B
  8
YODOROGO
 10
29617.604341291921
 20
1427.749496429288
 30
0.0
 11
29737.604341291921
 21
1528.4414521705639
 31
0.0
  0
LINE
  5
496C
  8
YODOROGO
 10
29617.604341291921
 20
1547.749496429288
 30
0.0
 11
29617.604341291921
 21
1427.749496429288
 31
0.0
  0
LINE
  5
496D
  8
YODOROGO
 10
29712.94462869945
 20
1627.749496429288
 30
0.0
 11
29617.604341291921
 21
1547.749496429288
 31
0.0
  0
LINE
  5
496E
  8
YODOROGO
 10
29617.604341291921
 20
1627.749496429288
 30
0.0
 11
29712.94462869945
 21
1627.749496429288
 31
0.0
  0
LINE
  5
496F
  8
YODOROGO
 10
29617.604341291921
 20
1667.749496429288
 30
0.0
 11
29617.604341291921
 21
1627.749496429288
 31
0.0
  0
LINE
  5
4970
  8
YODOROGO
 10
29885.604341291921
 20
1667.749496429288
 30
0.0
 11
29617.604341291921
 21
1667.749496429288
 31
0.0
  0
LINE
  5
4971
  8
YODOROGO
 10
28793.60434129191
 20
1747.74949642929
 30
0.0
 11
28793.60434129191
 21
1819.7494964292871
 31
0.0
  0
LINE
  5
4972
  8
YODOROGO
 10
28657.604341291921
 20
1747.74949642929
 30
0.0
 11
28793.60434129191
 21
1747.74949642929
 31
0.0
  0
LINE
  5
4973
  8
YODOROGO
 10
28729.604341291921
 20
1867.7494964292871
 30
0.0
 11
28729.604341291921
 21
1923.7494964292871
 31
0.0
  0
LINE
  5
4974
  8
YODOROGO
 10
28793.60434129191
 20
1867.7494964292871
 30
0.0
 11
28729.604341291921
 21
1867.7494964292871
 31
0.0
  0
LINE
  5
4975
  8
YODOROGO
 10
28793.60434129191
 20
1947.749496429288
 30
0.0
 11
28793.60434129191
 21
1867.7494964292871
 31
0.0
  0
ARC
  5
4976
  8
YODOROGO
 10
28753.60434129191
 20
1947.749496429288
 30
0.0
 40
40.0
 50
0.0
 51
90.0
  0
LINE
  5
4977
  8
YODOROGO
 10
28657.604341291921
 20
1987.7494964292871
 30
0.0
 11
28753.60434129191
 21
1987.7494964292871
 31
0.0
  0
LINE
  5
4978
  8
YODOROGO
 10
28657.604341291921
 20
2027.749496429288
 30
0.0
 11
28657.604341291921
 21
1987.7494964292871
 31
0.0
  0
LINE
  5
4979
  8
YODOROGO
 10
29073.604341291921
 20
2027.749496429288
 30
0.0
 11
29001.60434129191
 21
2027.749496429288
 31
0.0
  0
LINE
  5
497A
  8
YODOROGO
 10
29261.604341291921
 20
2007.749496429288
 30
0.0
 11
29197.604341291921
 21
2007.749496429288
 31
0.0
  0
LINE
  5
497B
  8
YODOROGO
 10
29457.604341291921
 20
2027.749496429288
 30
0.0
 11
29385.604341291921
 21
2027.749496429288
 31
0.0
  0
LINE
  5
497C
  8
YODOROGO
 10
29673.604341291921
 20
1707.749496429288
 30
0.0
 11
29673.604341291921
 21
1771.7494964292871
 31
0.0
1001
AUTOCAD_POSTSCRIPT_FIGURE
1002
{
1000
PSFILL
1000
Grayscale
1000
Grayscale
1070
    25
1002
}
  0
LINE
  5
497D
  8
YODOROGO
 10
29617.604341291921
 20
1707.749496429288
 30
0.0
 11
29673.604341291921
 21
1707.749496429288
 31
0.0
1001
AUTOCAD_POSTSCRIPT_FIGURE
1002
{
1000
PSFILL
1000
Grayscale
1000
Grayscale
1070
    25
1002
}
  0
LINE
  5
497E
  8
YODOROGO
 10
29617.604341291921
 20
1819.7494964292871
 30
0.0
 11
29617.604341291921
 21
1707.749496429288
 31
0.0
1001
AUTOCAD_POSTSCRIPT_FIGURE
1002
{
1000
PSFILL
1000
Grayscale
1000
Grayscale
1070
    25
1002
}
  0
LINE
  5
497F
  8
YODOROGO
 10
29765.604341291921
 20
1819.7494964292871
 30
0.0
 11
29617.604341291921
 21
1819.7494964292871
 31
0.0
1001
AUTOCAD_POSTSCRIPT_FIGURE
1002
{
1000
PSFILL
1000
Grayscale
1000
Grayscale
1070
    25
1002
}
  0
LINE
  5
4980
  8
YODOROGO
 10
29765.604341291921
 20
1859.749496429288
 30
0.0
 11
29765.604341291921
 21
1819.7494964292871
 31
0.0
1001
AUTOCAD_POSTSCRIPT_FIGURE
1002
{
1000
PSFILL
1000
Grayscale
1000
Grayscale
1070
    25
1002
}
  0
LINE
  5
4981
  8
YODOROGO
 10
29617.604341291921
 20
1859.749496429288
 30
0.0
 11
29765.604341291921
 21
1859.749496429288
 31
0.0
1001
AUTOCAD_POSTSCRIPT_FIGURE
1002
{
1000
PSFILL
1000
Grayscale
1000
Grayscale
1070
    25
1002
}
  0
LINE
  5
4982
  8
YODOROGO
 10
29617.604341291921
 20
1907.7494964292871
 30
0.0
 11
29617.604341291921
 21
1859.749496429288
 31
0.0
1001
AUTOCAD_POSTSCRIPT_FIGURE
1002
{
1000
PSFILL
1000
Grayscale
1000
Grayscale
1070
    25
1002
}
  0
LINE
  5
4983
  8
YODOROGO
 10
29765.604341291921
 20
1907.7494964292871
 30
0.0
 11
29617.604341291921
 21
1907.7494964292871
 31
0.0
1001
AUTOCAD_POSTSCRIPT_FIGURE
1002
{
1000
PSFILL
1000
Grayscale
1000
Grayscale
1070
    25
1002
}
  0
LINE
  5
4984
  8
YODOROGO
 10
29765.604341291921
 20
1947.749496429288
 30
0.0
 11
29765.604341291921
 21
1907.7494964292871
 31
0.0
1001
AUTOCAD_POSTSCRIPT_FIGURE
1002
{
1000
PSFILL
1000
Grayscale
1000
Grayscale
1070
    25
1002
}
  0
LINE
  5
4985
  8
YODOROGO
 10
29617.604341291921
 20
1947.749496429288
 30
0.0
 11
29765.604341291921
 21
1947.749496429288
 31
0.0
1001
AUTOCAD_POSTSCRIPT_FIGURE
1002
{
1000
PSFILL
1000
Grayscale
1000
Grayscale
1070
    25
1002
}
  0
LINE
  5
4986
  8
YODOROGO
 10
29617.604341291921
 20
2027.749496429288
 30
0.0
 11
29617.604341291921
 21
1947.749496429288
 31
0.0
1001
AUTOCAD_POSTSCRIPT_FIGURE
1002
{
1000
PSFILL
1000
Grayscale
1000
Grayscale
1070
    25
1002
}
  0
LINE
  5
4987
  8
YODOROGO
 10
29665.604341291921
 20
2027.749496429288
 30
0.0
 11
29617.604341291921
 21
2027.749496429288
 31
0.0
1001
AUTOCAD_POSTSCRIPT_FIGURE
1002
{
1000
PSFILL
1000
Grayscale
1000
Grayscale
1070
    25
1002
}
  0
LINE
  5
4988
  8
YODOROGO
 10
29665.604341291921
 20
1995.7494964292871
 30
0.0
 11
29665.604341291921
 21
2027.749496429288
 31
0.0
1001
AUTOCAD_POSTSCRIPT_FIGURE
1002
{
1000
PSFILL
1000
Grayscale
1000
Grayscale
1070
    25
1002
}
  0
LINE
  5
4989
  8
YODOROGO
 10
29765.604341291921
 20
1995.7494964292871
 30
0.0
 11
29665.604341291921
 21
1995.7494964292871
 31
0.0
1001
AUTOCAD_POSTSCRIPT_FIGURE
1002
{
1000
PSFILL
1000
Grayscale
1000
Grayscale
1070
    25
1002
}
  0
LINE
  5
498A
  8
YODOROGO
 10
29765.604341291921
 20
2027.749496429288
 30
0.0
 11
29765.604341291921
 21
1995.7494964292871
 31
0.0
1001
AUTOCAD_POSTSCRIPT_FIGURE
1002
{
1000
PSFILL
1000
Grayscale
1000
Grayscale
1070
    25
1002
}
  0
LINE
  5
498B
  8
YODOROGO
 10
29829.604341291921
 20
2027.749496429288
 30
0.0
 11
29765.604341291921
 21
2027.749496429288
 31
0.0
1001
AUTOCAD_POSTSCRIPT_FIGURE
1002
{
1000
PSFILL
1000
Grayscale
1000
Grayscale
1070
    25
1002
}
  0
LINE
  5
498C
  8
YODOROGO
 10
29829.604341291921
 20
1995.7494964292871
 30
0.0
 11
29829.604341291921
 21
2027.749496429288
 31
0.0
1001
AUTOCAD_POSTSCRIPT_FIGURE
1002
{
1000
PSFILL
1000
Grayscale
1000
Grayscale
1070
    25
1002
}
  0
LINE
  5
498D
  8
YODOROGO
 10
29829.604341291921
 20
1907.7494964292871
 30
0.0
 11
29829.604341291921
 21
1947.749496429288
 31
0.0
1001
AUTOCAD_POSTSCRIPT_FIGURE
1002
{
1000
PSFILL
1000
Grayscale
1000
Grayscale
1070
    25
1002
}
  0
LINE
  5
498E
  8
YODOROGO
 10
29829.604341291921
 20
1819.7494964292871
 30
0.0
 11
29829.604341291921
 21
1859.749496429288
 31
0.0
1001
AUTOCAD_POSTSCRIPT_FIGURE
1002
{
1000
PSFILL
1000
Grayscale
1000
Grayscale
1070
    25
1002
}
  0
LINE
  5
498F
  8
YODOROGO
 10
29921.60434129191
 20
1771.7494964292871
 30
0.0
 11
29921.60434129191
 21
1707.749496429288
 31
0.0
1001
AUTOCAD_POSTSCRIPT_FIGURE
1002
{
1000
PSFILL
1000
Grayscale
1000
Grayscale
1070
    25
1002
}
  0
LINE
  5
4990
  8
YODOROGO
 10
29829.604341291921
 20
1771.7494964292871
 30
0.0
 11
29921.60434129191
 21
1771.7494964292871
 31
0.0
1001
AUTOCAD_POSTSCRIPT_FIGURE
1002
{
1000
PSFILL
1000
Grayscale
1000
Grayscale
1070
    25
1002
}
  0
LINE
  5
4991
  8
YODOROGO
 10
29829.604341291921
 20
1707.749496429288
 30
0.0
 11
29829.604341291921
 21
1771.7494964292871
 31
0.0
1001
AUTOCAD_POSTSCRIPT_FIGURE
1002
{
1000
PSFILL
1000
Grayscale
1000
Grayscale
1070
    25
1002
}
  0
LINE
  5
4992
  8
YODOROGO
 10
29765.604341291921
 20
1707.749496429288
 30
0.0
 11
29829.604341291921
 21
1707.749496429288
 31
0.0
1001
AUTOCAD_POSTSCRIPT_FIGURE
1002
{
1000
PSFILL
1000
Grayscale
1000
Grayscale
1070
    25
1002
}
  0
LINE
  5
4993
  8
YODOROGO
 10
29765.604341291921
 20
1771.7494964292871
 30
0.0
 11
29765.604341291921
 21
1707.749496429288
 31
0.0
1001
AUTOCAD_POSTSCRIPT_FIGURE
1002
{
1000
PSFILL
1000
Grayscale
1000
Grayscale
1070
    25
1002
}
  0
LINE
  5
4994
  8
YODOROGO
 10
29673.604341291921
 20
1771.7494964292871
 30
0.0
 11
29765.604341291921
 21
1771.7494964292871
 31
0.0
1001
AUTOCAD_POSTSCRIPT_FIGURE
1002
{
1000
PSFILL
1000
Grayscale
1000
Grayscale
1070
    25
1002
}
  0
ARC
  5
4995
  8
YODOROGO
 10
31059.517893357912
 20
1602.6807375155761
 30
0.0
 40
178.22128111072141
 50
281.02627495425338
 51
357.77113575573799
  0
LINE
  5
4996
  8
YODOROGO
 10
31413.604341291921
 20
1907.7494964292871
 30
0.0
 11
31165.604341291921
 21
1907.7494964292871
 31
0.0
  0
LINE
  5
4997
  8
YODOROGO
 10
31413.604341291921
 20
2027.749496429288
 30
0.0
 11
31165.604341291921
 21
2027.749496429288
 31
0.0
  0
LINE
  5
4998
  8
YODOROGO
 10
31165.604341291921
 20
1963.749496429286
 30
0.0
 11
31413.604341291921
 21
1963.749496429286
 31
0.0
  0
LINE
  5
4999
  8
YODOROGO
 10
30791.604341291921
 20
1563.7494964292871
 30
0.0
 11
30791.604341291921
 21
1755.7494964292871
 31
0.0
  0
LINE
  5
499A
  8
YODOROGO
 10
30763.604341291921
 20
1691.749496429288
 30
0.0
 11
30763.604341291921
 21
1563.7494964292871
 31
0.0
  0
LINE
  5
499B
  8
YODOROGO
 10
30723.604341291921
 20
1491.749496429288
 30
0.0
 11
30723.604341291921
 21
1691.749496429288
 31
0.0
  0
LINE
  5
499C
  8
YODOROGO
 10
30899.604341291932
 20
1691.749496429288
 30
0.0
 11
30899.604341291932
 21
1491.749496429288
 31
0.0
  0
LINE
  5
499D
  8
YODOROGO
 10
30859.604341291932
 20
1563.7494964292871
 30
0.0
 11
30859.604341291932
 21
1691.749496429288
 31
0.0
  0
LINE
  5
499E
  8
YODOROGO
 10
30831.604341291921
 20
1755.7494964292871
 30
0.0
 11
30831.604341291921
 21
1563.7494964292871
 31
0.0
  0
LINE
  5
499F
  8
YODOROGO
 10
30973.604341291921
 20
2027.749496429288
 30
0.0
 11
30973.604341291921
 21
1467.749496429288
 31
0.0
  0
LINE
  5
49A0
  8
YODOROGO
 10
30645.604341291921
 20
1427.749496429288
 30
0.0
 11
30645.604341291921
 21
2027.749496429288
 31
0.0
  0
LINE
  5
49A1
  8
YODOROGO
 10
30697.604341291932
 20
1963.749496429286
 30
0.0
 11
30697.604341291932
 21
1427.749496429288
 31
0.0
  0
LINE
  5
49A2
  8
YODOROGO
 10
30925.604341291921
 20
1547.749496429288
 30
0.0
 11
30925.604341291921
 21
1963.749496429286
 31
0.0
  0
LINE
  5
49A3
  8
YODOROGO
 10
30381.604341291932
 20
1627.749496429288
 30
0.0
 11
30381.604341291932
 21
1679.749496429288
 31
0.0
  0
LINE
  5
49A4
  8
YODOROGO
 10
30617.604341291921
 20
1679.749496429288
 30
0.0
 11
30617.604341291921
 21
1627.749496429288
 31
0.0
  0
LINE
  5
49A5
  8
YODOROGO
 10
31165.604341291921
 20
1907.7494964292871
 30
0.0
 11
31165.604341291921
 21
1635.7494964292871
 31
0.0
  0
LINE
  5
49A6
  8
YODOROGO
 10
29949.60434129191
 20
1667.749496429288
 30
0.0
 11
29949.60434129191
 21
1707.749496429288
 31
0.0
  0
LINE
  5
49A7
  8
YODOROGO
 10
29949.60434129191
 20
1667.749496429288
 30
0.0
 11
29949.60434129191
 21
1707.749496429288
 31
0.0
  0
ARC
  5
49A8
  8
YODOROGO
 10
30537.604341291921
 20
1507.749496429288
 30
0.0
 40
80.0
 50
270.0
 51
0.0
  0
LINE
  5
49A9
  8
YODOROGO
 10
30569.604341291921
 20
1599.7494964292871
 30
0.0
 11
30617.604341291921
 21
1599.7494964292871
 31
0.0
  0
LINE
  5
49AA
  8
YODOROGO
 10
30617.604341291921
 20
1627.749496429288
 30
0.0
 11
30529.604341291939
 21
1627.749496429288
 31
0.0
  0
LINE
  5
49AB
  8
YODOROGO
 10
30217.604341291921
 20
1667.749496429288
 30
0.0
 11
29949.60434129191
 21
1667.749496429288
 31
0.0
  0
LINE
  5
49AC
  8
YODOROGO
 10
30217.604341291921
 20
1627.749496429288
 30
0.0
 11
30217.604341291921
 21
1667.749496429288
 31
0.0
  0
LINE
  5
49AD
  8
YODOROGO
 10
30017.604341291921
 20
1627.749496429288
 30
0.0
 11
30217.604341291921
 21
1627.749496429288
 31
0.0
  0
ARC
  5
49AE
  8
YODOROGO
 10
30230.05882870136
 20
1868.885714952901
 30
0.0
 40
321.37763628522822
 50
228.6181454618993
 51
245.660289248906
  0
LINE
  5
49AF
  8
YODOROGO
 10
30105.604341291921
 20
1603.7494964292871
 30
0.0
 11
30097.60434129195
 21
1576.0728158699001
 31
0.0
  0
LINE
  5
49B0
  8
YODOROGO
 10
30189.604341291921
 20
1603.7494964292871
 30
0.0
 11
30105.604341291921
 21
1603.7494964292871
 31
0.0
  0
LINE
  5
49B1
  8
YODOROGO
 10
30177.604341291921
 20
1551.817722473427
 30
0.0
 11
30189.604341291921
 21
1603.7494964292871
 31
0.0
  0
ARC
  5
49B2
  8
YODOROGO
 10
30230.05882870045
 20
1868.885714953002
 30
0.0
 40
321.37763628529081
 50
260.60629297969911
 51
267.77903556555862
  0
LINE
  5
49B3
  8
YODOROGO
 10
30217.604341291921
 20
1427.749496429285
 30
0.0
 11
30217.604341291921
 21
1547.749496429288
 31
0.0
  0
LINE
  5
49B4
  8
YODOROGO
 10
29937.604341291932
 20
1481.3393349155101
 30
0.0
 11
29937.604341291921
 21
1594.531090531141
 31
0.0
  0
LINE
  5
49B5
  8
YODOROGO
 10
30217.604341291921
 20
1667.749496429288
 30
0.0
 11
29949.60434129191
 21
1667.749496429288
 31
0.0
  0
LINE
  5
49B6
  8
YODOROGO
 10
30217.604341291921
 20
1627.749496429288
 30
0.0
 11
30217.604341291921
 21
1667.749496429288
 31
0.0
  0
LINE
  5
49B7
  8
YODOROGO
 10
30017.604341291921
 20
1627.749496429288
 30
0.0
 11
30217.604341291921
 21
1627.749496429288
 31
0.0
  0
ARC
  5
49B8
  8
YODOROGO
 10
30230.05882870136
 20
1868.885714952901
 30
0.0
 40
321.37763628522822
 50
228.6181454618993
 51
245.660289248906
  0
LINE
  5
49B9
  8
YODOROGO
 10
30105.604341291921
 20
1603.7494964292871
 30
0.0
 11
30097.60434129195
 21
1576.0728158699001
 31
0.0
  0
LINE
  5
49BA
  8
YODOROGO
 10
30189.604341291921
 20
1603.7494964292871
 30
0.0
 11
30105.604341291921
 21
1603.7494964292871
 31
0.0
  0
LINE
  5
49BB
  8
YODOROGO
 10
30177.604341291921
 20
1551.817722473427
 30
0.0
 11
30189.604341291921
 21
1603.7494964292871
 31
0.0
  0
ARC
  5
49BC
  8
YODOROGO
 10
30230.05882870045
 20
1868.885714953002
 30
0.0
 40
321.37763628529081
 50
260.60629297969911
 51
267.77903556555862
  0
LINE
  5
49BD
  8
YODOROGO
 10
30217.604341291921
 20
1427.749496429285
 30
0.0
 11
30217.604341291921
 21
1547.749496429288
 31
0.0
  0
LINE
  5
49BE
  8
YODOROGO
 10
29937.604341291932
 20
1481.3393349155101
 30
0.0
 11
29937.604341291921
 21
1594.531090531141
 31
0.0
  0
LINE
  5
49BF
  8
YODOROGO
 10
30433.604341291921
 20
1573.749496429288
 30
0.0
 11
30381.604341291932
 21
1573.749496429288
 31
0.0
  0
LINE
  5
49C0
  8
YODOROGO
 10
30433.604341291921
 20
1601.749496429285
 30
0.0
 11
30433.604341291921
 21
1573.749496429288
 31
0.0
  0
LINE
  5
49C1
  8
YODOROGO
 10
30381.604341291932
 20
1601.749496429285
 30
0.0
 11
30433.604341291921
 21
1601.749496429285
 31
0.0
  0
LINE
  5
49C2
  8
YODOROGO
 10
30381.604341291932
 20
1573.749496429288
 30
0.0
 11
30381.604341291932
 21
1601.749496429285
 31
0.0
  0
LINE
  5
49C3
  8
YODOROGO
 10
30429.604341291921
 20
1577.7494964292871
 30
0.0
 11
30385.604341291921
 21
1577.7494964292871
 31
0.0
  0
LINE
  5
49C4
  8
YODOROGO
 10
30429.604341291921
 20
1597.749496429288
 30
0.0
 11
30429.604341291921
 21
1577.7494964292871
 31
0.0
  0
LINE
  5
49C5
  8
YODOROGO
 10
30385.604341291921
 20
1597.749496429288
 30
0.0
 11
30429.604341291921
 21
1597.749496429288
 31
0.0
  0
LINE
  5
49C6
  8
YODOROGO
 10
30385.604341291921
 20
1577.7494964292871
 30
0.0
 11
30385.604341291921
 21
1597.749496429288
 31
0.0
  0
LINE
  5
49C7
  8
YODOROGO
 10
30425.604341291921
 20
1581.749496429286
 30
0.0
 11
30389.604341291921
 21
1581.749496429286
 31
0.0
  0
LINE
  5
49C8
  8
YODOROGO
 10
30425.604341291921
 20
1593.749496429288
 30
0.0
 11
30425.604341291921
 21
1581.749496429286
 31
0.0
  0
LINE
  5
49C9
  8
YODOROGO
 10
30389.604341291921
 20
1593.749496429288
 30
0.0
 11
30425.604341291921
 21
1593.749496429288
 31
0.0
  0
LINE
  5
49CA
  8
YODOROGO
 10
30389.604341291921
 20
1581.749496429286
 30
0.0
 11
30389.604341291921
 21
1593.749496429288
 31
0.0
  0
LINE
  5
49CB
  8
YODOROGO
 10
30421.604341291932
 20
1585.7494964292871
 30
0.0
 11
30393.604341291921
 21
1585.7494964292871
 31
0.0
  0
LINE
  5
49CC
  8
YODOROGO
 10
30421.604341291932
 20
1589.749496429288
 30
0.0
 11
30421.604341291932
 21
1585.7494964292871
 31
0.0
  0
LINE
  5
49CD
  8
YODOROGO
 10
30393.604341291921
 20
1589.749496429288
 30
0.0
 11
30421.604341291932
 21
1589.749496429288
 31
0.0
  0
LINE
  5
49CE
  8
YODOROGO
 10
30393.604341291921
 20
1585.7494964292871
 30
0.0
 11
30393.604341291921
 21
1589.749496429288
 31
0.0
  0
LINE
  5
49CF
  8
YODOROGO
 10
30465.604341291921
 20
1627.749496429288
 30
0.0
 11
30381.604341291932
 21
1627.749496429288
 31
0.0
  0
LINE
  5
49D0
  8
YODOROGO
 10
30465.604341291921
 20
1547.749496429288
 30
0.0
 11
30465.604341291921
 21
1627.749496429288
 31
0.0
  0
LINE
  5
49D1
  8
YODOROGO
 10
30381.604341291932
 20
1547.749496429288
 30
0.0
 11
30465.604341291921
 21
1547.749496429288
 31
0.0
  0
LINE
  5
49D2
  8
YODOROGO
 10
30381.604341291932
 20
1427.749496429288
 30
0.0
 11
30381.604341291932
 21
1547.749496429288
 31
0.0
  0
LINE
  5
49D3
  8
YODOROGO
 10
30537.604341291921
 20
1427.749496429288
 30
0.0
 11
30381.604341291932
 21
1427.749496429288
 31
0.0
  0
LINE
  5
49D4
  8
YODOROGO
 10
30569.604341291921
 20
1571.749496429285
 30
0.0
 11
30569.604341291921
 21
1599.7494964292871
 31
0.0
  0
ARC
  5
49D5
  8
YODOROGO
 10
30545.604341291921
 20
1571.749496429291
 30
0.0
 40
24.000000000003752
 50
270.0
 51
359.99999999998772
  0
LINE
  5
49D6
  8
YODOROGO
 10
30529.604341291939
 20
1547.749496429288
 30
0.0
 11
30545.604341291921
 21
1547.749496429288
 31
0.0
  0
LINE
  5
49D7
  8
YODOROGO
 10
30529.604341291939
 20
1627.749496429288
 30
0.0
 11
30529.604341291939
 21
1547.749496429288
 31
0.0
  0
LINE
  5
49D8
  8
YODOROGO
 10
30899.604341291932
 20
1547.749496429288
 30
0.0
 11
30925.604341291921
 21
1547.749496429288
 31
0.0
  0
LINE
  5
49D9
  8
YODOROGO
 10
30933.604341291921
 20
1427.749496429288
 30
0.0
 11
30899.604341291932
 21
1427.749496429288
 31
0.0
  0
LINE
  5
49DA
  8
YODOROGO
 10
30763.604341291921
 20
1563.7494964292871
 30
0.0
 11
30791.604341291921
 21
1563.7494964292871
 31
0.0
  0
LINE
  5
49DB
  8
YODOROGO
 10
30899.604341291932
 20
1491.749496429288
 30
0.0
 11
30723.604341291921
 21
1491.749496429288
 31
0.0
  0
LINE
  5
49DC
  8
YODOROGO
 10
30831.604341291921
 20
1563.7494964292871
 30
0.0
 11
30859.604341291932
 21
1563.7494964292871
 31
0.0
  0
LINE
  5
49DD
  8
YODOROGO
 10
30899.604341291932
 20
1427.749496429288
 30
0.0
 11
30899.604341291932
 21
1547.749496429288
 31
0.0
  0
LINE
  5
49DE
  8
YODOROGO
 10
30697.604341291932
 20
1427.749496429288
 30
0.0
 11
30645.604341291921
 21
1427.749496429288
 31
0.0
  0
LINE
  5
49DF
  8
YODOROGO
 10
30617.604341291921
 20
1599.7494964292871
 30
0.0
 11
30617.604341291921
 21
1507.749496429288
 31
0.0
  0
ARC
  5
49E0
  8
YODOROGO
 10
30933.604341291921
 20
1467.749496429288
 30
0.0
 40
40.0
 50
270.0
 51
0.0
  0
LINE
  5
49E1
  8
YODOROGO
 10
31093.604341291921
 20
1523.7494964292871
 30
0.0
 11
31093.604341291921
 21
1427.749496429288
 31
0.0
  0
ARC
  5
49E2
  8
YODOROGO
 10
31039.721395566768
 20
1637.5313901097329
 30
0.0
 40
125.8955565916754
 50
295.34052442160112
 51
359.18902303418679
  0
LINE
  5
49E3
  8
YODOROGO
 10
30617.604341291921
 20
1859.749496429288
 30
0.0
 11
30497.604341291921
 21
1939.749496429288
 31
0.0
  0
LINE
  5
49E4
  8
YODOROGO
 10
30497.604341291921
 20
2027.749496429288
 30
0.0
 11
30617.604341291921
 21
1947.749496429288
 31
0.0
  0
LINE
  5
49E5
  8
YODOROGO
 10
30529.604341291939
 20
1679.749496429288
 30
0.0
 11
30617.604341291921
 21
1679.749496429288
 31
0.0
  0
LINE
  5
49E6
  8
YODOROGO
 10
30617.604341291921
 20
1735.7494964292871
 30
0.0
 11
30529.604341291939
 21
1735.7494964292871
 31
0.0
  0
LINE
  5
49E7
  8
YODOROGO
 10
30381.604341291932
 20
1795.7494964292871
 30
0.0
 11
30617.604341291921
 21
1795.7494964292871
 31
0.0
  0
LINE
  5
49E8
  8
YODOROGO
 10
30081.604341291921
 20
2027.749496429288
 30
0.0
 11
30021.604341291921
 21
2027.749496429288
 31
0.0
  0
LINE
  5
49E9
  8
YODOROGO
 10
30081.604341291921
 20
1827.7494964292871
 30
0.0
 11
30081.604341291921
 21
2027.749496429288
 31
0.0
  0
LINE
  5
49EA
  8
YODOROGO
 10
30021.604341291921
 20
1827.7494964292871
 30
0.0
 11
30081.604341291921
 21
1827.7494964292871
 31
0.0
  0
LINE
  5
49EB
  8
YODOROGO
 10
30021.604341291921
 20
2027.749496429288
 30
0.0
 11
30021.604341291921
 21
1827.7494964292871
 31
0.0
  0
LINE
  5
49EC
  8
YODOROGO
 10
30161.604341291921
 20
2027.749496429288
 30
0.0
 11
30217.604341291921
 21
2027.749496429288
 31
0.0
  0
LINE
  5
49ED
  8
YODOROGO
 10
30161.604341291921
 20
1811.749496429288
 30
0.0
 11
30161.604341291921
 21
2027.749496429288
 31
0.0
  0
ARC
  5
49EE
  8
YODOROGO
 10
30121.604341291921
 20
1811.749496429288
 30
0.0
 40
40.0
 50
270.0
 51
0.0
  0
LINE
  5
49EF
  8
YODOROGO
 10
30021.604341291921
 20
1771.7494964292871
 30
0.0
 11
30121.604341291921
 21
1771.7494964292871
 31
0.0
  0
LINE
  5
49F0
  8
YODOROGO
 10
30021.604341291921
 20
1707.749496429288
 30
0.0
 11
30021.604341291921
 21
1771.7494964292871
 31
0.0
  0
LINE
  5
49F1
  8
YODOROGO
 10
30137.604341291921
 20
1707.749496429288
 30
0.0
 11
30021.604341291921
 21
1707.749496429288
 31
0.0
  0
ARC
  5
49F2
  8
YODOROGO
 10
30137.604341291921
 20
1787.7494964292871
 30
0.0
 40
80.0
 50
270.0
 51
0.0
  0
LINE
  5
49F3
  8
YODOROGO
 10
30217.604341291921
 20
2027.749496429288
 30
0.0
 11
30217.604341291921
 21
1787.7494964292871
 31
0.0
  0
LINE
  5
49F4
  8
YODOROGO
 10
29977.604341291921
 20
1947.749496429288
 30
0.0
 11
29977.604341291921
 21
1995.7494964292871
 31
0.0
1001
AUTOCAD_POSTSCRIPT_FIGURE
1002
{
1000
PSFILL
1000
Grayscale
1000
Grayscale
1070
    25
1002
}
  0
LINE
  5
49F5
  8
YODOROGO
 10
29977.604341291921
 20
1859.749496429288
 30
0.0
 11
29977.604341291921
 21
1907.7494964292871
 31
0.0
1001
AUTOCAD_POSTSCRIPT_FIGURE
1002
{
1000
PSFILL
1000
Grayscale
1000
Grayscale
1070
    25
1002
}
  0
LINE
  5
49F6
  8
YODOROGO
 10
29977.604341291921
 20
1707.749496429288
 30
0.0
 11
29977.604341291921
 21
1819.7494964292871
 31
0.0
1001
AUTOCAD_POSTSCRIPT_FIGURE
1002
{
1000
PSFILL
1000
Grayscale
1000
Grayscale
1070
    25
1002
}
  0
LINE
  5
49F7
  8
YODOROGO
 10
30381.604341291932
 20
1907.7494964292871
 30
0.0
 11
30497.604341291921
 21
2027.749496429288
 31
0.0
  0
LINE
  5
49F8
  8
YODOROGO
 10
30381.604341291932
 20
1819.7494964292871
 30
0.0
 11
30381.604341291932
 21
1907.7494964292871
 31
0.0
  0
LINE
  5
49F9
  8
YODOROGO
 10
30497.604341291921
 20
1939.749496429288
 30
0.0
 11
30381.604341291932
 21
1819.7494964292871
 31
0.0
  0
LINE
  5
49FA
  8
YODOROGO
 10
30465.604341291921
 20
1679.749496429288
 30
0.0
 11
30465.604341291921
 21
1735.7494964292871
 31
0.0
  0
LINE
  5
49FB
  8
YODOROGO
 10
30381.604341291932
 20
1679.749496429288
 30
0.0
 11
30465.604341291921
 21
1679.749496429288
 31
0.0
  0
LINE
  5
49FC
  8
YODOROGO
 10
30529.604341291939
 20
1735.7494964292871
 30
0.0
 11
30529.604341291939
 21
1679.749496429288
 31
0.0
  0
LINE
  5
49FD
  8
YODOROGO
 10
30381.604341291932
 20
1735.7494964292871
 30
0.0
 11
30381.604341291932
 21
1795.7494964292871
 31
0.0
  0
LINE
  5
49FE
  8
YODOROGO
 10
30465.604341291921
 20
1735.7494964292871
 30
0.0
 11
30381.604341291932
 21
1735.7494964292871
 31
0.0
  0
LINE
  5
49FF
  8
YODOROGO
 10
30645.604341291921
 20
2027.749496429288
 30
0.0
 11
30973.604341291921
 21
2027.749496429288
 31
0.0
  0
LINE
  5
4A00
  8
YODOROGO
 10
30925.604341291921
 20
1963.749496429286
 30
0.0
 11
30697.604341291932
 21
1963.749496429286
 31
0.0
  0
LINE
  5
4A01
  8
YODOROGO
 10
30873.604341291921
 20
1819.7494964292871
 30
0.0
 11
30899.604341291932
 21
1819.7494964292871
 31
0.0
  0
LINE
  5
4A02
  8
YODOROGO
 10
30899.604341291932
 20
1939.749496429288
 30
0.0
 11
30873.604341291921
 21
1819.7494964292871
 31
0.0
  0
LINE
  5
4A03
  8
YODOROGO
 10
30851.604341291939
 20
1939.749496429288
 30
0.0
 11
30899.604341291932
 21
1939.749496429288
 31
0.0
  0
LINE
  5
4A04
  8
YODOROGO
 10
30825.604341291921
 20
1819.7494964292871
 30
0.0
 11
30851.604341291939
 21
1939.749496429288
 31
0.0
  0
LINE
  5
4A05
  8
YODOROGO
 10
30797.604341291921
 20
1819.7494964292871
 30
0.0
 11
30825.604341291921
 21
1819.7494964292871
 31
0.0
  0
LINE
  5
4A06
  8
YODOROGO
 10
30771.604341291939
 20
1939.749496429288
 30
0.0
 11
30797.604341291921
 21
1819.7494964292871
 31
0.0
  0
LINE
  5
4A07
  8
YODOROGO
 10
30723.604341291921
 20
1939.749496429288
 30
0.0
 11
30771.604341291939
 21
1939.749496429288
 31
0.0
  0
LINE
  5
4A08
  8
YODOROGO
 10
30749.604341291921
 20
1819.7494964292871
 30
0.0
 11
30723.604341291921
 21
1939.749496429288
 31
0.0
  0
LINE
  5
4A09
  8
YODOROGO
 10
30723.604341291921
 20
1819.7494964292871
 30
0.0
 11
30749.604341291921
 21
1819.7494964292871
 31
0.0
  0
LINE
  5
4A0A
  8
YODOROGO
 10
30723.604341291921
 20
1755.7494964292871
 30
0.0
 11
30723.604341291921
 21
1819.7494964292871
 31
0.0
  0
LINE
  5
4A0B
  8
YODOROGO
 10
30899.604341291932
 20
1755.7494964292871
 30
0.0
 11
30723.604341291921
 21
1755.7494964292871
 31
0.0
  0
LINE
  5
4A0C
  8
YODOROGO
 10
30899.604341291932
 20
1819.7494964292871
 30
0.0
 11
30899.604341291932
 21
1755.7494964292871
 31
0.0
  0
LINE
  5
4A0D
  8
YODOROGO
 10
30617.604341291921
 20
1947.749496429288
 30
0.0
 11
30617.604341291921
 21
1859.749496429288
 31
0.0
  0
LINE
  5
4A0E
  8
YODOROGO
 10
30791.604341291921
 20
1755.7494964292871
 30
0.0
 11
30831.604341291921
 21
1755.7494964292871
 31
0.0
  0
LINE
  5
4A0F
  8
YODOROGO
 10
30723.604341291921
 20
1691.749496429288
 30
0.0
 11
30763.604341291921
 21
1691.749496429288
 31
0.0
  0
LINE
  5
4A10
  8
YODOROGO
 10
30859.604341291932
 20
1691.749496429288
 30
0.0
 11
30899.604341291932
 21
1691.749496429288
 31
0.0
  0
LINE
  5
4A11
  8
YODOROGO
 10
30617.604341291921
 20
1795.7494964292871
 30
0.0
 11
30617.604341291921
 21
1735.7494964292871
 31
0.0
  0
LINE
  5
4A12
  8
YODOROGO
 10
31165.604341291921
 20
2027.749496429288
 30
0.0
 11
31165.604341291921
 21
1963.749496429286
 31
0.0
  0
LINE
  5
4A13
  8
YODOROGO
 10
31533.604341291921
 20
1595.7494964292871
 30
0.0
 11
31533.60434129191
 21
1811.749496429288
 31
0.0
  0
LINE
  5
4A14
  8
YODOROGO
 10
31461.60434129191
 20
1987.7494964292871
 30
0.0
 11
31461.60434129191
 21
1635.7494964292871
 31
0.0
  0
LINE
  5
4A15
  8
YODOROGO
 10
31653.604341291921
 20
1427.749496429288
 30
0.0
 11
31653.60434129191
 21
1811.749496429288
 31
0.0
  0
LINE
  5
4A16
  8
YODOROGO
 10
31589.604341291921
 20
1811.749496429288
 30
0.0
 11
31589.604341291921
 21
1427.749496429288
 31
0.0
  0
LINE
  5
4A17
  8
YODOROGO
 10
31237.604341291921
 20
1595.7494964292871
 30
0.0
 11
31237.604341291921
 21
1707.749496429288
 31
0.0
  0
ARC
  5
4A18
  8
YODOROGO
 10
31353.914865116069
 20
1607.790351288558
 30
0.0
 40
180.0924485759885
 50
268.62849102169793
 51
356.16638457330322
  0
LINE
  5
4A19
  8
YODOROGO
 10
31349.604341291939
 20
1527.749496429288
 30
0.0
 11
31349.604341291939
 21
1427.749496429288
 31
0.0
  0
ARC
  5
4A1A
  8
YODOROGO
 10
31351.518075724562
 20
1637.838957017655
 30
0.0
 40
110.1060929836122
 50
269.00410209305932
 51
358.91264455492478
  0
LINE
  5
4A1B
  8
YODOROGO
 10
31589.604341291921
 20
1427.749496429288
 30
0.0
 11
31653.604341291921
 21
1427.749496429288
 31
0.0
  0
LINE
  5
4A1C
  8
YODOROGO
 10
31533.60434129191
 20
1811.749496429288
 30
0.0
 11
31589.604341291921
 21
1811.749496429288
 31
0.0
  0
LINE
  5
4A1D
  8
YODOROGO
 10
31621.604341291939
 20
1987.7494964292871
 30
0.0
 11
31461.60434129191
 21
1987.7494964292871
 31
0.0
  0
LINE
  5
4A1E
  8
YODOROGO
 10
31533.60434129191
 20
1915.7494964292871
 30
0.0
 11
31661.604341291939
 21
1915.7494964292871
 31
0.0
  0
LINE
  5
4A1F
  8
YODOROGO
 10
31701.604341291939
 20
1875.7494964292871
 30
0.0
 11
31533.60434129191
 21
1875.7494964292871
 31
0.0
  0
LINE
  5
4A20
  8
YODOROGO
 10
31237.604341291921
 20
1779.749496429288
 30
0.0
 11
31349.604341291939
 21
1779.749496429288
 31
0.0
  0
LINE
  5
4A21
  8
YODOROGO
 10
31237.604341291921
 20
1835.7494964292871
 30
0.0
 11
31237.604341291921
 21
1779.749496429288
 31
0.0
  0
LINE
  5
4A22
  8
YODOROGO
 10
31349.604341291939
 20
1835.7494964292871
 30
0.0
 11
31237.604341291921
 21
1835.7494964292871
 31
0.0
  0
LINE
  5
4A23
  8
YODOROGO
 10
31349.604341291939
 20
1779.749496429288
 30
0.0
 11
31349.604341291939
 21
1835.7494964292871
 31
0.0
  0
LINE
  5
4A24
  8
YODOROGO
 10
31533.60434129191
 20
1875.7494964292871
 30
0.0
 11
31533.60434129191
 21
1915.7494964292871
 31
0.0
  0
LINE
  5
4A25
  8
YODOROGO
 10
31413.604341291921
 20
1707.749496429288
 30
0.0
 11
31413.604341291921
 21
1907.7494964292871
 31
0.0
  0
LINE
  5
4A26
  8
YODOROGO
 10
31237.604341291921
 20
1707.749496429288
 30
0.0
 11
31413.604341291921
 21
1707.749496429288
 31
0.0
  0
LINE
  5
4A27
  8
YODOROGO
 10
31413.604341291921
 20
1963.749496429286
 30
0.0
 11
31413.604341291921
 21
2027.749496429288
 31
0.0
  0
ARC
  5
4A28
  8
YODOROGO
 10
31621.604341291939
 20
2003.749496429285
 30
0.0
 40
15.999999999994539
 50
270.0
 51
0.0000000000081422
  0
LINE
  5
4A29
  8
YODOROGO
 10
31637.604341291921
 20
2027.749496429288
 30
0.0
 11
31637.604341291921
 21
2003.7494964292871
 31
0.0
  0
LINE
  5
4A2A
  8
YODOROGO
 10
31701.604341291939
 20
2027.749496429288
 30
0.0
 11
31637.604341291921
 21
2027.749496429288
 31
0.0
  0
LINE
  5
4A2B
  8
YODOROGO
 10
31701.604341291939
 20
1955.7494964292871
 30
0.0
 11
31701.604341291939
 21
2027.749496429288
 31
0.0
  0
ARC
  5
4A2C
  8
YODOROGO
 10
31661.604341291939
 20
1955.7494964292871
 30
0.0
 40
40.0
 50
270.0
 51
0.0
  0
LINE
  5
4A2D
  8
YODOROGO
 10
31701.604341291939
 20
1811.749496429288
 30
0.0
 11
31701.604341291939
 21
1875.7494964292871
 31
0.0
  0
LINE
  5
4A2E
  8
YODOROGO
 10
31653.60434129191
 20
1811.749496429288
 30
0.0
 11
31701.604341291939
 21
1811.749496429288
 31
0.0
  0
LINE
  5
4A2F
  8
SUNPOU
  6
CONTINUOUS
 62
     4
 10
25685.174407999952
 20
19222.31644499996
 30
0.0
 11
26735.175727999958
 21
19222.31644499996
 31
0.0
  0
LINE
  5
4A30
  8
SUNPOU
  6
CONTINUOUS
 62
     4
 10
26535.175727999958
 20
19629.816444999949
 30
0.0
 11
26735.175727999958
 21
19629.816444999949
 31
0.0
  0
LINE
  5
4A31
  8
SUNPOU
  6
CONTINUOUS
 62
     4
 10
26655.175727999958
 20
19222.31644499996
 30
0.0
 11
26655.175727999958
 21
19629.816444999949
 31
0.0
  0
LINE
  5
4A32
  8
SUNPOU
  6
CONTINUOUS
 62
     4
 10
6092.3150999664449
 20
14222.318160999979
 30
0.0
 11
6092.3150999664449
 21
13043.368360999981
 31
0.0
  0
LINE
  5
4A33
  8
SUNPOU
  6
CONTINUOUS
 62
     4
 10
13785.31334496644
 20
14222.318160999979
 30
0.0
 11
13785.31334496644
 21
13043.368360999981
 31
0.0
  0
LINE
  5
4A34
  8
SUNPOU
  6
CONTINUOUS
 62
     4
 10
6092.3150999664449
 20
13123.368360999981
 30
0.0
 11
13785.31334496644
 21
13123.368360999981
 31
0.0
  0
LINE
  5
4A35
  8
SUNPOU
  6
CONTINUOUS
 62
     4
 10
5929.8142089664398
 20
14302.32112999998
 30
0.0
 11
5082.8187879664411
 21
14302.32112999998
 31
0.0
  0
LINE
  5
4A36
  8
SUNPOU
  6
CONTINUOUS
 62
     4
 10
5162.818787966442
 20
14494.81644499998
 30
0.0
 11
5162.818787966442
 21
14734.81644499998
 31
0.0
  0
LINE
  5
4A37
  8
SUNPOU
  6
CONTINUOUS
 62
     4
 10
5162.818787966442
 20
14302.32112999998
 30
0.0
 11
5162.818787966442
 21
14062.32112999998
 31
0.0
  0
LINE
  5
4A38
  8
SUNPOU
  6
CONTINUOUS
 62
     4
 10
5162.818787966442
 20
14494.81644499998
 30
0.0
 11
5162.818787966442
 21
14302.32112999998
 31
0.0
  0
LINE
  5
4A39
  8
SUNPOU
  6
CONTINUOUS
 62
     4
 10
5793.5199009664439
 20
15603.556956500001
 30
0.0
 11
5082.8187879664411
 21
15603.556956500001
 31
0.0
  0
LINE
  5
4A3A
  8
SUNPOU
  6
CONTINUOUS
 62
     4
 10
5162.818787966442
 20
15603.556956500001
 30
0.0
 11
5162.818787966442
 21
14494.81644499998
 31
0.0
  0
LINE
  5
4A3B
  8
SUNPOU
  6
CONTINUOUS
 62
     4
 10
5793.5199009664439
 20
15603.556956500001
 30
0.0
 11
5082.8187879664411
 21
15603.556956500001
 31
0.0
  0
LINE
  5
4A3C
  8
SUNPOU
  6
CONTINUOUS
 62
     4
 10
5162.818787966442
 20
17062.316444999979
 30
0.0
 11
5162.818787966442
 21
15603.556956500001
 31
0.0
  0
LINE
  5
4A3D
  8
SUNPOU
  6
CONTINUOUS
 62
     4
 10
5793.5199009664439
 20
18521.31644499996
 30
0.0
 11
5082.8187879664438
 21
18521.31644499996
 31
0.0
  0
LINE
  5
4A3E
  8
SUNPOU
  6
CONTINUOUS
 62
     4
 10
5162.818787966442
 20
18521.31644499996
 30
0.0
 11
5162.818787966442
 21
17062.316444999979
 31
0.0
  0
LINE
  5
4A3F
  8
SUNPOU
  6
CONTINUOUS
 62
     4
 10
5929.8142089664389
 20
19832.312354000002
 30
0.0
 11
5482.8187879664411
 21
19832.312354000002
 31
0.0
  0
LINE
  5
4A40
  8
SUNPOU
  6
CONTINUOUS
 62
     4
 10
5929.818563966438
 20
19852.312354000002
 30
0.0
 11
5482.8187879664411
 21
19852.312354000002
 31
0.0
  0
LINE
  5
4A42
  8
SUNPOU
  6
CONTINUOUS
 62
     4
 10
5562.8187879664401
 20
19852.312354000002
 30
0.0
 11
5562.8187879664401
 21
20092.312354000002
 31
0.0
  0
LINE
  5
4A43
  8
SUNPOU
  6
CONTINUOUS
 62
     4
 10
5562.8187879664401
 20
19812.312354000002
 30
0.0
 11
5562.8187879664401
 21
19852.312354000002
 31
0.0
  0
LINE
  5
4A44
  8
SUNPOU
  6
CONTINUOUS
 62
     4
 10
5929.818563966438
 20
19852.312354000002
 30
0.0
 11
5082.8187879664411
 21
19852.312354000002
 31
0.0
  0
LINE
  5
4A45
  8
SUNPOU
  6
CONTINUOUS
 62
     4
 10
5162.8187879664411
 20
19629.816444999949
 30
0.0
 11
5162.8187879664411
 21
19389.816444999949
 31
0.0
  0
LINE
  5
4A46
  8
SUNPOU
  6
CONTINUOUS
 62
     4
 10
5162.8187879664411
 20
19852.312354000002
 30
0.0
 11
5162.8187879664411
 21
20092.312354000002
 31
0.0
  0
LINE
  5
4A47
  8
SUNPOU
  6
CONTINUOUS
 62
     4
 10
5162.8187879664411
 20
19629.816444999949
 30
0.0
 11
5162.8187879664411
 21
19852.312354000002
 31
0.0
  0
LINE
  5
4A48
  8
SUNPOU
  6
CONTINUOUS
 62
     4
 10
5793.5199009664439
 20
18521.31644499996
 30
0.0
 11
5082.8187879664411
 21
18521.31644499996
 31
0.0
  0
LINE
  5
4A49
  8
SUNPOU
  6
CONTINUOUS
 62
     4
 10
5162.8187879664411
 20
18521.31644499996
 30
0.0
 11
5162.8187879664411
 21
19629.816444999949
 31
0.0
  0
LINE
  5
4A4A
  8
SUNPOU
  6
CONTINUOUS
 62
     4
 10
6006.8150999664467
 20
19932.312354000002
 30
0.0
 11
6006.8150999664467
 21
20482.317632999999
 31
0.0
  0
LINE
  5
4A4B
  8
SUNPOU
  6
CONTINUOUS
 62
     4
 10
6092.3150999664467
 20
20402.317632999999
 30
0.0
 11
6332.3150999664467
 21
20402.317632999999
 31
0.0
  0
LINE
  5
4A4C
  8
SUNPOU
  6
CONTINUOUS
 62
     4
 10
6009.8150999664467
 20
20402.317632999999
 30
0.0
 11
5769.8150999664467
 21
20402.317632999999
 31
0.0
  0
LINE
  5
4A4D
  8
SUNPOU
  6
CONTINUOUS
 62
     4
 10
6092.3150999664467
 20
20402.317632999999
 30
0.0
 11
6009.8150999664467
 21
20402.317632999999
 31
0.0
  0
LINE
  5
4A4E
  8
SUNPOU
  6
CONTINUOUS
 62
     4
 10
8659.8150999664467
 20
20402.317632999999
 30
0.0
 11
6092.3150999664467
 21
20402.317632999999
 31
0.0
  0
LINE
  5
4A4F
  8
SUNPOU
  6
CONTINUOUS
 62
     4
 10
8659.8150999664467
 20
20402.317632999999
 30
0.0
 11
11217.81334496644
 21
20402.317632999999
 31
0.0
  0
LINE
  5
4A50
  8
SUNPOU
  6
CONTINUOUS
 62
     4
 10
13867.813344966429
 20
19932.312354000002
 30
0.0
 11
13867.813344966429
 21
20482.317632999999
 31
0.0
  0
LINE
  5
4A51
  8
SUNPOU
  6
CONTINUOUS
 62
     4
 10
13785.31334496644
 20
20402.317632999999
 30
0.0
 11
13545.31334496644
 21
20402.317632999999
 31
0.0
  0
LINE
  5
4A52
  8
SUNPOU
  6
CONTINUOUS
 62
     4
 10
13867.813344966429
 20
20402.317632999999
 30
0.0
 11
14107.813344966429
 21
20402.317632999999
 31
0.0
  0
LINE
  5
4A53
  8
SUNPOU
  6
CONTINUOUS
 62
     4
 10
13785.31334496644
 20
20402.317632999999
 30
0.0
 11
13867.813344966429
 21
20402.317632999999
 31
0.0
  0
LINE
  5
4A54
  8
SUNPOU
  6
CONTINUOUS
 62
     4
 10
11217.81334496644
 20
20402.317632999999
 30
0.0
 11
13785.31334496644
 21
20402.317632999999
 31
0.0
  0
LINE
  5
4A55
  8
SUNPOU
  6
CONTINUOUS
 62
     4
 10
17805.174539999989
 20
18521.31644499996
 30
0.0
 11
16918.216267999989
 21
18521.31644499996
 31
0.0
  0
LINE
  5
4A56
  8
SUNPOU
  6
CONTINUOUS
 62
     4
 10
16998.216267999989
 20
18521.31644499996
 30
0.0
 11
16998.216267999989
 21
19629.816444999949
 31
0.0
  0
LINE
  5
4A57
  8
SUNPOU
  6
CONTINUOUS
 62
     4
 10
17805.174539999989
 20
18521.31644499996
 30
0.0
 11
16918.216267999989
 21
18521.31644499996
 31
0.0
  0
LINE
  5
4A58
  8
SUNPOU
  6
CONTINUOUS
 62
     4
 10
16998.216267999989
 20
17062.316444999979
 30
0.0
 11
16998.216267999989
 21
18521.31644499996
 31
0.0
  0
LINE
  5
4A59
  8
SUNPOU
  6
CONTINUOUS
 62
     4
 10
17805.174539999989
 20
15603.556956500001
 30
0.0
 11
16918.216267999989
 21
15603.556956500001
 31
0.0
  0
LINE
  5
4A5A
  8
SUNPOU
  6
CONTINUOUS
 62
     4
 10
16998.216267999989
 20
15603.556956500001
 30
0.0
 11
16998.216267999989
 21
17062.316444999979
 31
0.0
  0
LINE
  5
4A5B
  8
SUNPOU
  6
CONTINUOUS
 62
     4
 10
17805.174539999989
 20
15603.556956500001
 30
0.0
 11
16918.216267999989
 21
15603.556956500001
 31
0.0
  0
LINE
  5
4A5C
  8
SUNPOU
  6
CONTINUOUS
 62
     4
 10
16998.216267999989
 20
14494.81644499998
 30
0.0
 11
16998.216267999989
 21
15603.556956500001
 31
0.0
  0
LINE
  5
4A5D
  8
2-0
  6
CONTINUOUS
 62
     3
 10
22952.676123999961
 20
14452.31644499998
 30
0.0
 11
23037.676123999961
 21
14452.31644499998
 31
0.0
  0
LINE
  5
4A5E
  8
2-0
  6
CONTINUOUS
 62
     3
 10
23037.676123999961
 20
14452.31644499998
 30
0.0
 11
23037.676123999961
 21
14537.31644499998
 31
0.0
  0
LINE
  5
4A5F
  8
2-0
  6
CONTINUOUS
 62
     3
 10
23037.676123999961
 20
14537.31644499998
 30
0.0
 11
22952.676123999961
 21
14537.31644499998
 31
0.0
  0
LINE
  5
4A60
  8
2-0
  6
CONTINUOUS
 62
     3
 10
22952.676123999961
 20
14537.31644499998
 30
0.0
 11
22952.676123999961
 21
14452.31644499998
 31
0.0
  0
LINE
  5
4A61
  8
2-0
  6
CONTINUOUS
 62
     3
 10
20452.670844999979
 20
14452.31644499998
 30
0.0
 11
20537.670845000001
 21
14452.31644499998
 31
0.0
  0
LINE
  5
4A62
  8
2-0
  6
CONTINUOUS
 62
     3
 10
20537.670845000001
 20
14452.31644499998
 30
0.0
 11
20537.670845000001
 21
14537.31644499998
 31
0.0
  0
LINE
  5
4A63
  8
2-0
  6
CONTINUOUS
 62
     3
 10
20537.670845000001
 20
14537.31644499998
 30
0.0
 11
20452.670844999979
 21
14537.31644499998
 31
0.0
  0
LINE
  5
4A64
  8
2-0
  6
CONTINUOUS
 62
     3
 10
20452.670844999979
 20
14537.31644499998
 30
0.0
 11
20452.670844999979
 21
14452.31644499998
 31
0.0
  0
LINE
  5
4A65
  8
SUNPOU
  6
CONTINUOUS
 62
     4
 10
25562.676123999961
 20
13789.05301099998
 30
0.0
 11
25562.676123999961
 21
13443.368360999981
 31
0.0
  0
LINE
  5
4A66
  8
SUNPOU
  6
CONTINUOUS
 62
     4
 10
25520.17388099997
 20
14372.319149999979
 30
0.0
 11
25520.17388099997
 21
13443.368360999981
 31
0.0
  0
LINE
  5
4A67
  8
SUNPOU
  6
CONTINUOUS
 62
     4
 10
25562.676123999961
 20
13523.368360999981
 30
0.0
 11
25802.676123999961
 21
13523.368360999981
 31
0.0
  0
LINE
  5
4A68
  8
SUNPOU
  6
CONTINUOUS
 62
     4
 10
25520.17388099997
 20
13523.368360999981
 30
0.0
 11
25280.17388099997
 21
13523.368360999981
 31
0.0
  0
LINE
  5
4A69
  8
SUNPOU
  6
CONTINUOUS
 62
     4
 10
25562.676123999961
 20
13523.368360999981
 30
0.0
 11
25520.17388099997
 21
13523.368360999981
 31
0.0
  0
LINE
  5
4A6A
  8
SUNPOU
  6
CONTINUOUS
 62
     4
 10
17927.670844999979
 20
13789.05301099998
 30
0.0
 11
17927.670844999979
 21
13443.368360999981
 31
0.0
  0
LINE
  5
4A6B
  8
SUNPOU
  6
CONTINUOUS
 62
     4
 10
17970.173087999989
 20
14372.319149999979
 30
0.0
 11
17970.173087999989
 21
13443.368360999981
 31
0.0
  0
LINE
  5
4A6C
  8
SUNPOU
  6
CONTINUOUS
 62
     4
 10
17927.670844999979
 20
13523.368360999981
 30
0.0
 11
17687.670844999979
 21
13523.368360999981
 31
0.0
  0
LINE
  5
4A6D
  8
SUNPOU
  6
CONTINUOUS
 62
     4
 10
17970.173087999989
 20
13523.368360999981
 30
0.0
 11
18210.173087999989
 21
13523.368360999981
 31
0.0
  0
LINE
  5
4A6E
  8
SUNPOU
  6
CONTINUOUS
 62
     4
 10
17927.670844999979
 20
13523.368360999981
 30
0.0
 11
17970.173087999989
 21
13523.368360999981
 31
0.0
  0
LINE
  5
4A6F
  8
SUNPOU
  6
CONTINUOUS
 62
     4
 10
17927.670844999979
 20
13789.05301099998
 30
0.0
 11
17927.670844999979
 21
13043.368360999981
 31
0.0
  0
LINE
  5
4A70
  8
SUNPOU
  6
CONTINUOUS
 62
     4
 10
25562.676123999961
 20
13789.05301099998
 30
0.0
 11
25562.676123999961
 21
13043.368360999981
 31
0.0
  0
LINE
  5
4A71
  8
SUNPOU
  6
CONTINUOUS
 62
     4
 10
17927.670844999979
 20
13123.368360999981
 30
0.0
 11
25562.676123999961
 21
13123.368360999981
 31
0.0
  0
LINE
  5
4A72
  8
SUNPOU
  6
CONTINUOUS
 62
     4
 10
25685.174407999959
 20
14902.31644499998
 30
0.0
 11
26735.175727999958
 21
14902.31644499998
 31
0.0
  0
LINE
  5
4A73
  8
SUNPOU
  6
CONTINUOUS
 62
     4
 10
26535.175727999958
 20
14494.81644499998
 30
0.0
 11
26735.175727999958
 21
14494.81644499998
 31
0.0
  0
LINE
  5
4A74
  8
SUNPOU
  6
CONTINUOUS
 62
     4
 10
26655.175727999958
 20
14902.31644499998
 30
0.0
 11
26655.175727999958
 21
14494.81644499998
 31
0.0
  0
LINE
  5
4A75
  8
SUNPOU
  6
CONTINUOUS
 62
     4
 10
25685.174407999959
 20
15603.556956500001
 30
0.0
 11
26735.175727999958
 21
15603.556956500001
 31
0.0
  0
LINE
  5
4A76
  8
SUNPOU
  6
CONTINUOUS
 62
     4
 10
25685.174407999959
 20
14902.31644499998
 30
0.0
 11
26735.175727999958
 21
14902.31644499998
 31
0.0
  0
LINE
  5
4A77
  8
SUNPOU
  6
CONTINUOUS
 62
     4
 10
26655.175727999958
 20
15603.556956500001
 30
0.0
 11
26655.175727999958
 21
14902.31644499998
 31
0.0
  0
LINE
  5
4A78
  8
SUNPOU
  6
CONTINUOUS
 62
     4
 10
25685.174407999959
 20
16304.31644499998
 30
0.0
 11
26735.175727999958
 21
16304.31644499998
 31
0.0
  0
LINE
  5
4A79
  8
SUNPOU
  6
CONTINUOUS
 62
     4
 10
25685.174407999959
 20
15603.556956500001
 30
0.0
 11
26735.175727999958
 21
15603.556956500001
 31
0.0
  0
LINE
  5
4A7A
  8
SUNPOU
  6
CONTINUOUS
 62
     4
 10
26655.175727999958
 20
16304.31644499998
 30
0.0
 11
26655.175727999958
 21
15603.556956500001
 31
0.0
  0
LINE
  5
4A7B
  8
SUNPOU
  6
CONTINUOUS
 62
     4
 10
26535.175727999958
 20
17062.316444999979
 30
0.0
 11
26735.175727999958
 21
17062.316444999979
 31
0.0
  0
LINE
  5
4A7C
  8
SUNPOU
  6
CONTINUOUS
 62
     4
 10
25685.174407999959
 20
16304.31644499998
 30
0.0
 11
26735.175727999958
 21
16304.31644499998
 31
0.0
  0
LINE
  5
4A7D
  8
SUNPOU
  6
CONTINUOUS
 62
     4
 10
26655.175727999958
 20
17062.316444999979
 30
0.0
 11
26655.175727999958
 21
16304.31644499998
 31
0.0
  0
LINE
  5
4A7E
  8
SUNPOU
  6
CONTINUOUS
 62
     4
 10
25685.174407999959
 20
17820.316444999979
 30
0.0
 11
26735.175727999958
 21
17820.316444999979
 31
0.0
  0
LINE
  5
4A7F
  8
SUNPOU
  6
CONTINUOUS
 62
     4
 10
26535.175727999958
 20
17062.316444999979
 30
0.0
 11
26735.175727999958
 21
17062.316444999979
 31
0.0
  0
LINE
  5
4A80
  8
SUNPOU
  6
CONTINUOUS
 62
     4
 10
26655.175727999958
 20
17820.316444999979
 30
0.0
 11
26655.175727999958
 21
17062.316444999979
 31
0.0
  0
LINE
  5
4A81
  8
SUNPOU
  6
CONTINUOUS
 62
     4
 10
25685.174407999959
 20
18521.31644499996
 30
0.0
 11
26735.175727999958
 21
18521.31644499996
 31
0.0
  0
LINE
  5
4A82
  8
SUNPOU
  6
CONTINUOUS
 62
     4
 10
25685.174407999959
 20
17820.316444999979
 30
0.0
 11
26735.175727999958
 21
17820.316444999979
 31
0.0
  0
LINE
  5
4A83
  8
SUNPOU
  6
CONTINUOUS
 62
     4
 10
26655.175727999958
 20
18521.31644499996
 30
0.0
 11
26655.175727999958
 21
17820.316444999979
 31
0.0
  0
LINE
  5
4A84
  8
SUNPOU
  6
CONTINUOUS
 62
     4
 10
25685.174407999959
 20
19222.31644499996
 30
0.0
 11
26735.175727999958
 21
19222.31644499996
 31
0.0
  0
LINE
  5
4A85
  8
SUNPOU
  6
CONTINUOUS
 62
     4
 10
25685.174407999959
 20
18521.31644499996
 30
0.0
 11
26735.175727999958
 21
18521.31644499996
 31
0.0
  0
LINE
  5
4A86
  8
SUNPOU
  6
CONTINUOUS
 62
     4
 10
26655.175727999958
 20
19222.31644499996
 30
0.0
 11
26655.175727999958
 21
18521.31644499996
 31
0.0
  0
LINE
  5
4A87
  8
SUNPOU
  6
CONTINUOUS
 62
     4
 10
26535.175727999958
 20
17062.316444999979
 30
0.0
 11
27135.175727999958
 21
17062.316444999979
 31
0.0
  0
LINE
  5
4A88
  8
SUNPOU
  6
CONTINUOUS
 62
     4
 10
26535.175727999958
 20
19629.816444999949
 30
0.0
 11
27135.175727999958
 21
19629.816444999949
 31
0.0
  0
LINE
  5
4A89
  8
SUNPOU
  6
CONTINUOUS
 62
     4
 10
27055.175727999958
 20
17062.316444999979
 30
0.0
 11
27055.175727999958
 21
19629.816444999949
 31
0.0
  0
LINE
  5
4A8A
  8
SUNPOU
  6
CONTINUOUS
 62
     4
 10
26535.175727999958
 20
14494.81644499998
 30
0.0
 11
27135.175727999958
 21
14494.81644499998
 31
0.0
  0
LINE
  5
4A8B
  8
SUNPOU
  6
CONTINUOUS
 62
     4
 10
26535.175727999958
 20
17062.316444999979
 30
0.0
 11
27135.175727999958
 21
17062.316444999979
 31
0.0
  0
LINE
  5
4A8C
  8
SUNPOU
  6
CONTINUOUS
 62
     4
 10
27055.175727999958
 20
14494.81644499998
 30
0.0
 11
27055.175727999958
 21
17062.316444999979
 31
0.0
  0
LINE
  5
4A8D
  8
SUNPOU
  6
CONTINUOUS
 62
     4
 10
25685.174407999959
 20
19672.31373999998
 30
0.0
 11
27535.175727999958
 21
19672.31373999998
 31
0.0
  0
LINE
  5
4A8E
  8
SUNPOU
  6
CONTINUOUS
 62
     4
 10
25685.174407999959
 20
14452.319149999979
 30
0.0
 11
27535.175727999958
 21
14452.319149999979
 31
0.0
  0
LINE
  5
4A8F
  8
SUNPOU
  6
CONTINUOUS
 62
     4
 10
27455.175727999958
 20
19672.31373999998
 30
0.0
 11
27455.175727999958
 21
14452.319149999979
 31
0.0
  0
LINE
  5
4A90
  8
SUNPOU
  6
CONTINUOUS
 62
     4
 10
26535.175727999958
 20
19629.816444999949
 30
0.0
 11
27135.175727999958
 21
19629.816444999949
 31
0.0
  0
LINE
  5
4A91
  8
SUNPOU
  6
CONTINUOUS
 62
     4
 10
25685.174407999959
 20
19672.31373999998
 30
0.0
 11
27135.175727999958
 21
19672.31373999998
 31
0.0
  0
LINE
  5
4A92
  8
SUNPOU
  6
CONTINUOUS
 62
     4
 10
27055.175727999958
 20
19629.816444999949
 30
0.0
 11
27055.175727999958
 21
19389.816444999949
 31
0.0
  0
LINE
  5
4A93
  8
SUNPOU
  6
CONTINUOUS
 62
     4
 10
27055.175727999958
 20
19672.31373999998
 30
0.0
 11
27055.175727999958
 21
19912.31373999998
 31
0.0
  0
LINE
  5
4A94
  8
SUNPOU
  6
CONTINUOUS
 62
     4
 10
27055.175727999958
 20
19629.816444999949
 30
0.0
 11
27055.175727999958
 21
19672.31373999998
 31
0.0
  0
LINE
  5
4A95
  8
SUNPOU
  6
CONTINUOUS
 62
     4
 10
26535.175727999958
 20
14494.81644499998
 30
0.0
 11
27135.175727999958
 21
14494.81644499998
 31
0.0
  0
LINE
  5
4A96
  8
SUNPOU
  6
CONTINUOUS
 62
     4
 10
25685.174407999959
 20
14452.319149999979
 30
0.0
 11
27135.175727999958
 21
14452.319149999979
 31
0.0
  0
LINE
  5
4A97
  8
SUNPOU
  6
CONTINUOUS
 62
     4
 10
27055.175727999958
 20
14494.81644499998
 30
0.0
 11
27055.175727999958
 21
14734.81644499998
 31
0.0
  0
LINE
  5
4A98
  8
SUNPOU
  6
CONTINUOUS
 62
     4
 10
27055.175727999958
 20
14452.319149999979
 30
0.0
 11
27055.175727999958
 21
14212.319149999979
 31
0.0
  0
LINE
  5
4A99
  8
SUNPOU
  6
CONTINUOUS
 62
     4
 10
27055.175727999958
 20
14494.81644499998
 30
0.0
 11
27055.175727999958
 21
14452.319149999979
 31
0.0
  0
LINE
  5
4A9A
  8
SUNPOU
  6
CONTINUOUS
 62
     4
 10
20495.171834500001
 20
19752.314729999998
 30
0.0
 11
20495.171834500001
 21
20482.317632999999
 31
0.0
  0
LINE
  5
4A9B
  8
SUNPOU
  6
CONTINUOUS
 62
     4
 10
22995.176123999961
 20
19752.314729999998
 30
0.0
 11
22995.176123999961
 21
20482.317632999999
 31
0.0
  0
LINE
  5
4A9C
  8
SUNPOU
  6
CONTINUOUS
 62
     4
 10
20495.171834500001
 20
20402.317632999999
 30
0.0
 11
22995.176123999961
 21
20402.317632999999
 31
0.0
  0
LINE
  5
4A9D
  8
SUNPOU
  6
CONTINUOUS
 62
     4
 10
22995.176123999961
 20
19752.314729999998
 30
0.0
 11
22995.176123999961
 21
20482.317632999999
 31
0.0
  0
LINE
  5
4A9E
  8
SUNPOU
  6
CONTINUOUS
 62
     4
 10
23402.676123999961
 20
19752.314729999998
 30
0.0
 11
23402.676123999961
 21
20482.317632999999
 31
0.0
  0
LINE
  5
4A9F
  8
SUNPOU
  6
CONTINUOUS
 62
     4
 10
22995.176123999961
 20
20402.317632999999
 30
0.0
 11
22755.176123999961
 21
20402.317632999999
 31
0.0
  0
LINE
  5
4AA0
  8
SUNPOU
  6
CONTINUOUS
 62
     4
 10
23402.676123999961
 20
20402.317632999999
 30
0.0
 11
23642.676123999961
 21
20402.317632999999
 31
0.0
  0
LINE
  5
4AA1
  8
SUNPOU
  6
CONTINUOUS
 62
     4
 10
22995.176123999961
 20
20402.317632999999
 30
0.0
 11
23402.676123999961
 21
20402.317632999999
 31
0.0
  0
LINE
  5
4AA2
  8
SUNPOU
  6
CONTINUOUS
 62
     4
 10
24804.676123999961
 20
19752.314729999998
 30
0.0
 11
24804.676123999961
 21
20482.317632999999
 31
0.0
  0
LINE
  5
4AA3
  8
SUNPOU
  6
CONTINUOUS
 62
     4
 10
25562.67711349998
 20
19752.314729999998
 30
0.0
 11
25562.67711349998
 21
20482.317632999999
 31
0.0
  0
LINE
  5
4AA4
  8
SUNPOU
  6
CONTINUOUS
 62
     4
 10
24804.676123999961
 20
20402.317632999999
 30
0.0
 11
25562.67711349998
 21
20402.317632999999
 31
0.0
  0
LINE
  5
4AA5
  8
SUNPOU
  6
CONTINUOUS
 62
     4
 10
24103.676123999961
 20
19752.314729999998
 30
0.0
 11
24103.676123999961
 21
20482.317632999999
 31
0.0
  0
LINE
  5
4AA6
  8
SUNPOU
  6
CONTINUOUS
 62
     4
 10
24804.676123999961
 20
19752.314729999998
 30
0.0
 11
24804.676123999961
 21
20482.317632999999
 31
0.0
  0
LINE
  5
4AA7
  8
SUNPOU
  6
CONTINUOUS
 62
     4
 10
24103.676123999961
 20
20402.317632999999
 30
0.0
 11
24804.676123999961
 21
20402.317632999999
 31
0.0
  0
LINE
  5
4AA8
  8
SUNPOU
  6
CONTINUOUS
 62
     4
 10
23402.676123999961
 20
19752.314729999998
 30
0.0
 11
23402.676123999961
 21
20482.317632999999
 31
0.0
  0
LINE
  5
4AA9
  8
SUNPOU
  6
CONTINUOUS
 62
     4
 10
24103.676123999961
 20
19752.314729999998
 30
0.0
 11
24103.676123999961
 21
20482.317632999999
 31
0.0
  0
LINE
  5
4AAA
  8
SUNPOU
  6
CONTINUOUS
 62
     4
 10
23402.676123999961
 20
20402.317632999999
 30
0.0
 11
24103.676123999961
 21
20402.317632999999
 31
0.0
  0
LINE
  5
4AAB
  8
SUNPOU
  6
CONTINUOUS
 62
     4
 10
25562.676123999961
 20
19752.314729999998
 30
0.0
 11
25562.676123999961
 21
20482.317632999999
 31
0.0
  0
LINE
  5
4AAC
  8
SUNPOU
  6
CONTINUOUS
 62
     4
 10
25605.172428999958
 20
19752.314729999998
 30
0.0
 11
25605.172428999958
 21
20482.317632999999
 31
0.0
  0
LINE
  5
4AAD
  8
SUNPOU
  6
CONTINUOUS
 62
     4
 10
25562.676123999961
 20
20402.317632999999
 30
0.0
 11
25322.676123999961
 21
20402.317632999999
 31
0.0
  0
LINE
  5
4AAE
  8
SUNPOU
  6
CONTINUOUS
 62
     4
 10
25605.172428999958
 20
20402.317632999999
 30
0.0
 11
25845.172428999958
 21
20402.317632999999
 31
0.0
  0
LINE
  5
4AAF
  8
SUNPOU
  6
CONTINUOUS
 62
     4
 10
25562.676123999961
 20
20402.317632999999
 30
0.0
 11
25605.172428999958
 21
20402.317632999999
 31
0.0
  0
LINE
  5
4AB0
  8
SUNPOU
  6
CONTINUOUS
 62
     4
 10
17927.670844999979
 20
19752.314729999998
 30
0.0
 11
17927.670844999979
 21
20482.317632999999
 31
0.0
  0
LINE
  5
4AB1
  8
SUNPOU
  6
CONTINUOUS
 62
     4
 10
18335.170844999979
 20
19752.314729999998
 30
0.0
 11
18335.170844999979
 21
20482.317632999999
 31
0.0
  0
LINE
  5
4AB2
  8
SUNPOU
  6
CONTINUOUS
 62
     4
 10
17927.670844999979
 20
20402.317632999999
 30
0.0
 11
17687.670844999979
 21
20402.317632999999
 31
0.0
  0
LINE
  5
4AB3
  8
SUNPOU
  6
CONTINUOUS
 62
     4
 10
18335.170844999979
 20
20402.317632999999
 30
0.0
 11
18575.17084499999
 21
20402.317632999999
 31
0.0
  0
LINE
  5
4AB4
  8
SUNPOU
  6
CONTINUOUS
 62
     4
 10
17927.670844999979
 20
20402.317632999999
 30
0.0
 11
18335.170844999979
 21
20402.317632999999
 31
0.0
  0
LINE
  5
4AB5
  8
SUNPOU
  6
CONTINUOUS
 62
     4
 10
17927.670844999979
 20
19752.314729999998
 30
0.0
 11
17927.670844999979
 21
20482.317632999999
 31
0.0
  0
LINE
  5
4AB6
  8
SUNPOU
  6
CONTINUOUS
 62
     4
 10
17885.174539999989
 20
19752.314729999998
 30
0.0
 11
17885.174539999989
 21
20482.317632999999
 31
0.0
  0
LINE
  5
4AB7
  8
SUNPOU
  6
CONTINUOUS
 62
     4
 10
17927.670844999979
 20
20402.317632999999
 30
0.0
 11
18167.670844999979
 21
20402.317632999999
 31
0.0
  0
LINE
  5
4AB8
  8
SUNPOU
  6
CONTINUOUS
 62
     4
 10
17885.174539999989
 20
20402.317632999999
 30
0.0
 11
17645.174539999989
 21
20402.317632999999
 31
0.0
  0
LINE
  5
4AB9
  8
SUNPOU
  6
CONTINUOUS
 62
     4
 10
17927.670844999979
 20
20402.317632999999
 30
0.0
 11
17885.174539999989
 21
20402.317632999999
 31
0.0
  0
LINE
  5
4ABA
  8
SUNPOU
  6
CONTINUOUS
 62
     4
 10
19737.17084499999
 20
19752.314729999998
 30
0.0
 11
19737.17084499999
 21
20482.317632999999
 31
0.0
  0
LINE
  5
4ABB
  8
SUNPOU
  6
CONTINUOUS
 62
     4
 10
20495.171834500001
 20
19752.314729999998
 30
0.0
 11
20495.171834500001
 21
20482.317632999999
 31
0.0
  0
LINE
  5
4ABC
  8
SUNPOU
  6
CONTINUOUS
 62
     4
 10
19737.17084499999
 20
20402.317632999999
 30
0.0
 11
20495.171834500001
 21
20402.317632999999
 31
0.0
  0
LINE
  5
4ABD
  8
SUNPOU
  6
CONTINUOUS
 62
     4
 10
19036.17084499999
 20
19752.314729999998
 30
0.0
 11
19036.17084499999
 21
20482.317632999999
 31
0.0
  0
LINE
  5
4ABE
  8
SUNPOU
  6
CONTINUOUS
 62
     4
 10
19737.17084499999
 20
19752.314729999998
 30
0.0
 11
19737.17084499999
 21
20482.317632999999
 31
0.0
  0
LINE
  5
4ABF
  8
SUNPOU
  6
CONTINUOUS
 62
     4
 10
19036.17084499999
 20
20402.317632999999
 30
0.0
 11
19737.17084499999
 21
20402.317632999999
 31
0.0
  0
LINE
  5
4AC0
  8
SUNPOU
  6
CONTINUOUS
 62
     4
 10
18335.170844999979
 20
19752.314729999998
 30
0.0
 11
18335.170844999979
 21
20482.317632999999
 31
0.0
  0
LINE
  5
4AC1
  8
SUNPOU
  6
CONTINUOUS
 62
     4
 10
19036.17084499999
 20
19752.314729999998
 30
0.0
 11
19036.17084499999
 21
20482.317632999999
 31
0.0
  0
LINE
  5
4AC2
  8
SUNPOU
  6
CONTINUOUS
 62
     4
 10
18335.170844999979
 20
20402.317632999999
 30
0.0
 11
19036.17084499999
 21
20402.317632999999
 31
0.0
  0
LINE
  5
4AC3
  8
SUNPOU
  6
CONTINUOUS
 62
     4
 10
17797.670185999999
 20
6212.7285879999999
 30
0.0
 11
16997.671504999991
 21
6212.7285879999999
 31
0.0
  0
LINE
  5
4AC4
  8
SUNPOU
  6
CONTINUOUS
 62
     4
 10
17797.670185999999
 20
8104.228587999999
 30
0.0
 11
16997.671504999991
 21
8104.228587999999
 31
0.0
  0
LINE
  5
4AC5
  8
SUNPOU
  6
CONTINUOUS
 62
     4
 10
17077.671504999991
 20
6212.7285879999999
 30
0.0
 11
17077.671504999991
 21
8104.228587999999
 31
0.0
  0
LINE
  5
4AC6
  8
SUNPOU
  6
CONTINUOUS
 62
     4
 10
17797.670185999999
 20
6212.7285879999999
 30
0.0
 11
16597.669195999992
 21
6212.7285879999999
 31
0.0
  0
LINE
  5
4AC7
  8
SUNPOU
  6
CONTINUOUS
 62
     4
 10
17765.17044999998
 20
8561.7285880000018
 30
0.0
 11
16597.669195999992
 21
8561.7285880000018
 31
0.0
  0
LINE
  5
4AC8
  8
SUNPOU
  6
CONTINUOUS
 62
     4
 10
16677.669195999992
 20
6212.7285879999999
 30
0.0
 11
16677.669195999992
 21
8561.7285880000018
 31
0.0
  0
LINE
  5
4AD9
  8
SUNPOU
  6
CONTINUOUS
 62
     4
 10
18021.67084499999
 20
6032.728753000004
 30
0.0
 11
18021.67084499999
 21
5232.7287530000031
 31
0.0
  0
LINE
  5
4ADA
  8
SUNPOU
  6
CONTINUOUS
 62
     4
 10
20401.170844999979
 20
6032.728753000004
 30
0.0
 11
20401.170844999979
 21
5232.7287530000031
 31
0.0
  0
LINE
  5
4ADB
  8
SUNPOU
  6
CONTINUOUS
 62
     4
 10
18021.67084499999
 20
5312.7287530000031
 30
0.0
 11
20401.170844999979
 21
5312.7287530000031
 31
0.0
  0
LINE
  5
4ADC
  8
SUNPOU
  6
CONTINUOUS
 62
     4
 10
23089.176123999961
 20
6032.728753000004
 30
0.0
 11
23089.176123999961
 21
5232.7287530000031
 31
0.0
  0
LINE
  5
4ADD
  8
SUNPOU
  6
CONTINUOUS
 62
     4
 10
25468.676123999961
 20
6032.728753000004
 30
0.0
 11
25468.676123999961
 21
5232.7287530000031
 31
0.0
  0
LINE
  5
4ADE
  8
SUNPOU
  6
CONTINUOUS
 62
     4
 10
23089.176123999961
 20
5312.7287530000031
 30
0.0
 11
25468.676123999961
 21
5312.7287530000031
 31
0.0
  0
LINE
  5
4ADF
  8
SUNPOU
  6
CONTINUOUS
 62
     4
 10
22995.176123999961
 20
5770.0763299999999
 30
0.0
 11
22995.176123999961
 21
4832.7287530000021
 31
0.0
  0
LINE
  5
4AE0
  8
SUNPOU
  6
CONTINUOUS
 62
     4
 10
25562.676123999961
 20
5770.0763299999999
 30
0.0
 11
25562.676123999961
 21
4832.7287530000021
 31
0.0
  0
LINE
  5
4AE1
  8
SUNPOU
  6
CONTINUOUS
 62
     4
 10
22995.176123999961
 20
4912.7287530000031
 30
0.0
 11
25562.676123999961
 21
4912.7287530000031
 31
0.0
  0
LINE
  5
4AE2
  8
SUNPOU
  6
CONTINUOUS
 62
     4
 10
20495.17084499999
 20
5770.0763299999999
 30
0.0
 11
20495.17084499999
 21
4832.7287530000021
 31
0.0
  0
LINE
  5
4AE3
  8
SUNPOU
  6
CONTINUOUS
 62
     4
 10
22995.176123999961
 20
5770.0763299999999
 30
0.0
 11
22995.176123999961
 21
4832.7287530000021
 31
0.0
  0
LINE
  5
4AE4
  8
SUNPOU
  6
CONTINUOUS
 62
     4
 10
20495.17084499999
 20
4912.7287530000031
 30
0.0
 11
22995.176123999961
 21
4912.7287530000031
 31
0.0
  0
LINE
  5
4AE5
  8
SUNPOU
  6
CONTINUOUS
 62
     4
 10
17927.670844999979
 20
5770.0763299999999
 30
0.0
 11
17927.670844999979
 21
4832.7287530000021
 31
0.0
  0
LINE
  5
4AE6
  8
SUNPOU
  6
CONTINUOUS
 62
     4
 10
20495.17084499999
 20
5770.0763299999999
 30
0.0
 11
20495.17084499999
 21
4832.7287530000021
 31
0.0
  0
LINE
  5
4AE7
  8
SUNPOU
  6
CONTINUOUS
 62
     4
 10
17927.670844999979
 20
4912.7287530000031
 30
0.0
 11
20495.17084499999
 21
4912.7287530000031
 31
0.0
  0
LINE
  5
4AE8
  8
SUNPOU
  6
CONTINUOUS
 62
     4
 10
25562.680082999981
 20
5770.0763299999999
 30
0.0
 11
25562.680082999981
 21
4832.7287530000021
 31
0.0
  0
LINE
  5
4AE9
  8
SUNPOU
  6
CONTINUOUS
 62
     4
 10
25605.180082999981
 20
6032.728753000004
 30
0.0
 11
25605.180082999981
 21
4832.7287530000021
 31
0.0
  0
LINE
  5
4AEA
  8
SUNPOU
  6
CONTINUOUS
 62
     4
 10
25562.680082999981
 20
4912.7287530000031
 30
0.0
 11
25322.680082999981
 21
4912.7287530000031
 31
0.0
  0
LINE
  5
4AEB
  8
SUNPOU
  6
CONTINUOUS
 62
     4
 10
25605.180082999981
 20
4912.7287530000031
 30
0.0
 11
25845.180082999981
 21
4912.7287530000031
 31
0.0
  0
LINE
  5
4AEC
  8
SUNPOU
  6
CONTINUOUS
 62
     4
 10
25562.680082999981
 20
4912.7287530000031
 30
0.0
 11
25605.180082999981
 21
4912.7287530000031
 31
0.0
  0
LINE
  5
4AED
  8
SUNPOU
  6
CONTINUOUS
 62
     4
 10
17927.670844999979
 20
5770.0763299999999
 30
0.0
 11
17927.670844999979
 21
4832.7287530000021
 31
0.0
  0
LINE
  5
4AEE
  8
SUNPOU
  6
CONTINUOUS
 62
     4
 10
17885.17084499999
 20
6032.728753000004
 30
0.0
 11
17885.17084499999
 21
4832.7287530000021
 31
0.0
  0
LINE
  5
4AEF
  8
SUNPOU
  6
CONTINUOUS
 62
     4
 10
17927.670844999979
 20
4912.7287530000031
 30
0.0
 11
18167.670844999979
 21
4912.7287530000031
 31
0.0
  0
LINE
  5
4AF0
  8
SUNPOU
  6
CONTINUOUS
 62
     4
 10
17885.17084499999
 20
4912.7287530000031
 30
0.0
 11
17645.17084499999
 21
4912.7287530000031
 31
0.0
  0
LINE
  5
4AF1
  8
SUNPOU
  6
CONTINUOUS
 62
     4
 10
17927.670844999979
 20
4912.7287530000031
 30
0.0
 11
17885.17084499999
 21
4912.7287530000031
 31
0.0
  0
LINE
  5
4AF2
  8
SUNPOU
  6
CONTINUOUS
 62
     4
 10
17885.17084499999
 20
6032.728753000004
 30
0.0
 11
17885.17084499999
 21
4432.7289179999998
 31
0.0
  0
LINE
  5
4AF3
  8
SUNPOU
  6
CONTINUOUS
 62
     4
 10
25605.176123999961
 20
6032.728753000004
 30
0.0
 11
25605.176123999961
 21
4432.7289179999998
 31
0.0
  0
LINE
  5
4AF4
  8
SUNPOU
  6
CONTINUOUS
 62
     4
 10
17885.17084499999
 20
4512.7289179999989
 30
0.0
 11
25605.176123999961
 21
4512.7289179999989
 31
0.0
  0
LINE
  5
4AF5
  8
SUNPOU
  6
CONTINUOUS
 62
     4
 10
13159.38450099999
 20
6212.7285880000036
 30
0.0
 11
14236.88291699999
 21
6212.7285880000036
 31
0.0
  0
LINE
  5
4AF6
  8
SUNPOU
  6
CONTINUOUS
 62
     4
 10
13251.68978059937
 20
8561.7285880000018
 30
0.0
 11
14236.88291699999
 21
8561.7285880000018
 31
0.0
  0
LINE
  5
4AF7
  8
SUNPOU
  6
CONTINUOUS
 62
     4
 10
14156.88291699999
 20
6212.7285880000036
 30
0.0
 11
14156.88291699999
 21
8561.7285880000018
 31
0.0
  0
LINE
  5
4AF8
  8
SUNPOU
  6
CONTINUOUS
 62
     4
 10
7759.3845009999868
 20
6212.7285880000036
 30
0.0
 11
6676.8841049999919
 21
6212.7285880000036
 31
0.0
  0
LINE
  5
4AF9
  8
SUNPOU
  6
CONTINUOUS
 62
     4
 10
7586.884500999985
 20
8368.2285880000054
 30
0.0
 11
6676.8841049999919
 21
8368.2285880000054
 31
0.0
  0
LINE
  5
4AFA
  8
SUNPOU
  6
CONTINUOUS
 62
     4
 10
6756.8841049999901
 20
6212.7285880000036
 30
0.0
 11
6756.8841049999901
 21
8368.2285880000054
 31
0.0
  0
LINE
  5
4AFB
  8
SUNPOU
  6
CONTINUOUS
 62
     4
 10
13066.88450099999
 20
8507.6386510000048
 30
0.0
 11
13066.88450099999
 21
9440.7302629999976
 31
0.0
  0
LINE
  5
4AFC
  8
SUNPOU
  6
CONTINUOUS
 62
     4
 10
13216.88450099999
 20
8581.618410412435
 30
0.0
 11
13216.88450099999
 21
9440.7302629999976
 31
0.0
  0
LINE
  5
4AFD
  8
SUNPOU
  6
CONTINUOUS
 62
     4
 10
13066.88450099999
 20
9360.7302629999976
 30
0.0
 11
12826.88450099999
 21
9360.7302629999976
 31
0.0
  0
LINE
  5
4AFE
  8
SUNPOU
  6
CONTINUOUS
 62
     4
 10
13216.88450099999
 20
9360.7302629999976
 30
0.0
 11
13456.88450099999
 21
9360.7302629999976
 31
0.0
  0
LINE
  5
4AFF
  8
SUNPOU
  6
CONTINUOUS
 62
     4
 10
13066.88450099999
 20
9360.7302629999976
 30
0.0
 11
13216.88450099999
 21
9360.7302629999976
 31
0.0
  0
LINE
  5
4B00
  8
SUNPOU
  6
CONTINUOUS
 62
     4
 10
7666.8845009999914
 20
8449.7285870000087
 30
0.0
 11
7666.8845009999914
 21
9840.7286129999993
 31
0.0
  0
LINE
  5
4B01
  8
SUNPOU
  6
CONTINUOUS
 62
     4
 10
13216.88450099999
 20
8581.618410412435
 30
0.0
 11
13216.88450099999
 21
9840.7286129999993
 31
0.0
  0
LINE
  5
4B02
  8
SUNPOU
  6
CONTINUOUS
 62
     4
 10
7666.8845009999914
 20
9760.7286129999993
 30
0.0
 11
13216.88450099999
 21
9760.7286129999993
 31
0.0
  0
LINE
  5
4B03
  8
SUNPOU
  6
CONTINUOUS
 62
     4
 10
7846.8845009999914
 20
8319.9143626838086
 30
0.0
 11
7846.8845009999914
 21
9440.7302629999976
 31
0.0
  0
LINE
  5
4B04
  8
SUNPOU
  6
CONTINUOUS
 62
     4
 10
13066.88450099999
 20
8507.6386510000048
 30
0.0
 11
13066.88450099999
 21
9440.7302629999976
 31
0.0
  0
LINE
  5
4B05
  8
SUNPOU
  6
CONTINUOUS
 62
     4
 10
7846.8845009999914
 20
9360.7302629999976
 30
0.0
 11
13066.88450099999
 21
9360.7302629999976
 31
0.0
  0
LINE
  5
4B06
  8
SUNPOU
  6
CONTINUOUS
 62
     4
 10
7666.8845009999914
 20
8449.7285870000087
 30
0.0
 11
7666.8845009999914
 21
9440.7302629999976
 31
0.0
  0
LINE
  5
4B07
  8
SUNPOU
  6
CONTINUOUS
 62
     4
 10
7846.8845009999914
 20
8319.9143626838086
 30
0.0
 11
7846.8845009999914
 21
9440.7302629999976
 31
0.0
  0
LINE
  5
4B08
  8
SUNPOU
  6
CONTINUOUS
 62
     4
 10
7666.8845009999914
 20
9360.7302629999976
 30
0.0
 11
7426.8845009999859
 21
9360.7302629999976
 31
0.0
  0
LINE
  5
4B09
  8
SUNPOU
  6
CONTINUOUS
 62
     4
 10
7846.8845009999914
 20
9360.7302629999976
 30
0.0
 11
8086.8845009999914
 21
9360.7302629999976
 31
0.0
  0
LINE
  5
4B0A
  8
SUNPOU
  6
CONTINUOUS
 62
     4
 10
7666.8845009999914
 20
9360.7302629999976
 30
0.0
 11
7846.8845009999914
 21
9360.7302629999976
 31
0.0
  0
LINE
  5
4B0B
  8
SUNPOU
  6
CONTINUOUS
 62
     4
 10
13024.382521999971
 20
5770.0763290000023
 30
0.0
 11
13024.382521999971
 21
4832.7287519999991
 31
0.0
  0
LINE
  5
4B0C
  8
SUNPOU
  6
CONTINUOUS
 62
     4
 10
13066.88252199998
 20
6132.7285870000023
 30
0.0
 11
13066.88252199998
 21
4832.7287519999991
 31
0.0
  0
LINE
  5
4B0D
  8
SUNPOU
  6
CONTINUOUS
 62
     4
 10
13024.382521999971
 20
4912.7287519999991
 30
0.0
 11
12784.382521999971
 21
4912.7287519999991
 31
0.0
  0
LINE
  5
4B0E
  8
SUNPOU
  6
CONTINUOUS
 62
     4
 10
13066.88252199998
 20
4912.7287519999991
 30
0.0
 11
13306.88252199998
 21
4912.7287519999991
 31
0.0
  0
LINE
  5
4B0F
  8
SUNPOU
  6
CONTINUOUS
 62
     4
 10
13024.382521999971
 20
4912.7287519999991
 30
0.0
 11
13066.88252199998
 21
4912.7287519999991
 31
0.0
  0
LINE
  5
4B10
  8
SUNPOU
  6
CONTINUOUS
 62
     4
 10
10456.88450099999
 20
5770.0753400000012
 30
0.0
 11
10456.88450099999
 21
4832.728753000004
 31
0.0
  0
LINE
  5
4B11
  8
SUNPOU
  6
CONTINUOUS
 62
     4
 10
13024.38450099999
 20
5770.0753400000012
 30
0.0
 11
13024.38450099999
 21
4832.728753000004
 31
0.0
  0
LINE
  5
4B12
  8
SUNPOU
  6
CONTINUOUS
 62
     4
 10
10456.88450099999
 20
4912.7287530000031
 30
0.0
 11
13024.38450099999
 21
4912.7287530000031
 31
0.0
  0
LINE
  5
4B13
  8
SUNPOU
  6
CONTINUOUS
 62
     4
 10
7846.8845009999914
 20
6132.7285870000023
 30
0.0
 11
7846.8845009999914
 21
4432.7289170000013
 31
0.0
  0
LINE
  5
4B14
  8
SUNPOU
  6
CONTINUOUS
 62
     4
 10
13066.88252199998
 20
6132.7285870000023
 30
0.0
 11
13066.88252199998
 21
4432.7289170000013
 31
0.0
  0
LINE
  5
4B15
  8
SUNPOU
  6
CONTINUOUS
 62
     4
 10
7846.8845009999914
 20
4512.7289170000004
 30
0.0
 11
13066.88252199998
 21
4512.7289170000004
 31
0.0
  0
LINE
  5
4B16
  8
SUNPOU
  6
CONTINUOUS
 62
     4
 10
7889.3845009999868
 20
5770.0763290000023
 30
0.0
 11
7889.3845009999868
 21
4832.7287519999991
 31
0.0
  0
LINE
  5
4B17
  8
SUNPOU
  6
CONTINUOUS
 62
     4
 10
7846.8845009999914
 20
6132.7285870000023
 30
0.0
 11
7846.8845009999914
 21
4832.7287519999991
 31
0.0
  0
LINE
  5
4B18
  8
SUNPOU
  6
CONTINUOUS
 62
     4
 10
7889.3845009999868
 20
4912.7287519999991
 30
0.0
 11
8129.3845009999877
 21
4912.7287519999991
 31
0.0
  0
LINE
  5
4B19
  8
SUNPOU
  6
CONTINUOUS
 62
     4
 10
7846.8845009999914
 20
4912.7287519999991
 30
0.0
 11
7606.8845009999877
 21
4912.7287519999991
 31
0.0
  0
LINE
  5
4B1A
  8
SUNPOU
  6
CONTINUOUS
 62
     4
 10
7889.3845009999868
 20
4912.7287519999991
 30
0.0
 11
7846.8845009999914
 21
4912.7287519999991
 31
0.0
  0
LINE
  5
4B1B
  8
SUNPOU
  6
CONTINUOUS
 62
     4
 10
10456.88450099999
 20
5770.0763290000023
 30
0.0
 11
10456.88450099999
 21
4832.7287519999991
 31
0.0
  0
LINE
  5
4B1C
  8
SUNPOU
  6
CONTINUOUS
 62
     4
 10
7889.3845009999868
 20
5770.0763290000023
 30
0.0
 11
7889.3845009999868
 21
4832.7287519999991
 31
0.0
  0
LINE
  5
4B1D
  8
SUNPOU
  6
CONTINUOUS
 62
     4
 10
10456.88450099999
 20
4912.7287519999991
 30
0.0
 11
7889.3845009999868
 21
4912.7287519999991
 31
0.0
  0
LINE
  5
4B1E
  8
0
  6
CONTINUOUS
 10
27320.61169951249
 20
4013.2342825977748
 30
0.0
 11
32662.906701964599
 21
4013.2342825977748
 31
0.0
  0
LINE
  5
4B1F
  8
0
  6
CONTINUOUS
 10
32662.906701964599
 20
4013.2342825977748
 30
0.0
 11
32662.906701964599
 21
2658.9883116968108
 31
0.0
  0
LINE
  5
4B20
  8
0
  6
CONTINUOUS
 10
32662.906701964599
 20
2658.9883116968108
 30
0.0
 11
27320.61169951249
 21
2658.9883116968108
 31
0.0
  0
LINE
  5
4B21
  8
0
  6
CONTINUOUS
 10
27320.61169951249
 20
2658.9883116968108
 30
0.0
 11
27320.61169951249
 21
4013.2342825977748
 31
0.0
  0
TEXT
  5
4B22
  8
0
  6
CONTINUOUS
 62
     7
 10
8773.1345009999895
 20
4992.7287519999991
 30
0.0
 40
160.0
  1
2567.5
  0
TEXT
  5
4B23
  8
0
  6
CONTINUOUS
 62
     7
 10
7249.7107919036816
 20
4992.7287519999991
 30
0.0
 40
160.0
  1
42.5
  0
TEXT
  5
4B24
  8
0
  6
CONTINUOUS
 62
     7
 10
10176.88351149998
 20
4592.7289170000004
 30
0.0
 40
160.0
  1
5220
  0
TEXT
  5
4B25
  8
0
  6
CONTINUOUS
 62
     7
 10
11340.63450099999
 20
4992.7287530000031
 30
0.0
 40
160.0
  1
2567.5
  0
TEXT
  5
4B26
  8
0
  6
CONTINUOUS
 62
     7
 10
13184.056231096291
 20
4992.7287519999991
 30
0.0
 40
160.0
  1
42.5
  0
TEXT
  5
4B27
  8
0
  6
CONTINUOUS
 62
     7
 10
7253.5511676666574
 20
9440.7302629999976
 30
0.0
 40
160.0
  1
180
  0
TEXT
  5
4B28
  8
0
  6
CONTINUOUS
 62
     7
 10
10176.88450099998
 20
9440.7302629999976
 30
0.0
 40
160.0
  1
5220
  0
TEXT
  5
4B29
  8
0
  6
CONTINUOUS
 62
     7
 10
10161.88450099998
 20
9840.7286129999993
 30
0.0
 40
160.0
  1
5550
  0
TEXT
  5
4B2A
  8
0
  6
CONTINUOUS
 62
     7
 10
13283.55116766665
 20
9440.7302629999976
 30
0.0
 40
160.0
  1
150
  0
TEXT
  5
4B2B
  8
0
  6
CONTINUOUS
 62
     7
 10
6676.8841049999883
 20
6298.4785880000081
 30
0.0
 40
160.0
  1
2155.5（2395.5）
 50
90.0
  0
TEXT
  5
4B2C
  8
0
  6
CONTINUOUS
 62
     7
 10
14076.882916999981
 20
6581.8952546666724
 30
0.0
 40
160.0
  1
2349（2589）
 50
90.0
  0
TEXT
  5
4B2D
  8
0
  6
CONTINUOUS
 62
     7
 10
20705.173484499981
 20
4592.7289179999971
 30
0.0
 40
160.0
  1
2567.5 \U+00D7 ｎ ＋ 85
  0
TEXT
  5
4B2E
  8
0
  6
CONTINUOUS
 62
     7
 10
17319.131854741139
 20
4992.7287530000021
 30
0.0
 40
160.0
  1
42.5
  0
TEXT
  5
4B2F
  8
0
  6
CONTINUOUS
 62
     7
 10
25691.21907325881
 20
4992.7287530000021
 30
0.0
 40
160.0
  1
42.5
  0
TEXT
  5
4B30
  8
0
  6
CONTINUOUS
 62
     7
 10
18811.42084499999
 20
4992.7287530000021
 30
0.0
 40
160.0
  1
2567.5
  0
TEXT
  5
4B31
  8
0
  6
CONTINUOUS
 62
     7
 10
20641.173484499981
 20
4992.7287530000021
 30
0.0
 40
160.0
  1
2567.5 \U+00D7（ｎ － 2）
  0
TEXT
  5
4B32
  8
0
  6
CONTINUOUS
 62
     7
 10
23878.926123999961
 20
4992.7287530000021
 30
0.0
 40
160.0
  1
2567.5
  0
TEXT
  5
4B33
  8
0
  6
CONTINUOUS
 62
     7
 10
23350.926123999961
 20
5392.7287530000031
 30
0.0
 40
160.0
  1
有効開口巾 2379.5
  0
TEXT
  5
4B34
  8
0
  6
CONTINUOUS
 62
     7
 10
18283.42084499999
 20
5392.7287530000031
 30
0.0
 40
160.0
  1
有効開口巾 2379.5
  0
TEXT
  5
4B39
  8
0
  6
CONTINUOUS
 62
     7
 10
16597.669195999992
 20
6581.8952546666687
 30
0.0
 40
160.0
  1
2349（2589）
 50
90.0
  0
TEXT
  5
4B3A
  8
0
  6
CONTINUOUS
 62
     7
 10
16997.671504999991
 20
6276.7078262912746
 30
0.0
 40
160.0
  1
有効開口高サ 1891.5
 50
90.0
  0
TEXT
  5
4B3B
  8
0
  6
CONTINUOUS
 62
     7
 10
18512.337511666661
 20
20162.317632999991
 30
0.0
 40
160.0
  1
701
  0
TEXT
  5
4B3C
  8
0
  6
CONTINUOUS
 62
     7
 10
19213.337511666661
 20
20482.317632999999
 30
0.0
 40
160.0
  1
701
  0
TEXT
  5
4B3D
  8
0
  6
CONTINUOUS
 62
     7
 10
19902.838006416641
 20
20482.317632999999
 30
0.0
 40
160.0
  1
758
  0
TEXT
  5
4B3E
  8
0
  6
CONTINUOUS
 62
     7
 10
17324.858865471189
 20
20482.317632999999
 30
0.0
 40
160.0
  1
42.5
  0
TEXT
  5
4B3F
  8
0
  6
CONTINUOUS
 62
     7
 10
18028.504178333322
 20
20482.317632999999
 30
0.0
 40
160.0
  1
407.5
  0
TEXT
  5
4B40
  8
0
  6
CONTINUOUS
 62
     7
 10
25685.488103528769
 20
20482.317632999999
 30
0.0
 40
160.0
  1
42.5
  0
TEXT
  5
4B41
  8
0
  6
CONTINUOUS
 62
     7
 10
23579.84279066664
 20
20162.317632999991
 30
0.0
 40
160.0
  1
701
  0
TEXT
  5
4B42
  8
0
  6
CONTINUOUS
 62
     7
 10
24280.84279066664
 20
20482.317632999999
 30
0.0
 40
160.0
  1
701
  0
TEXT
  5
4B43
  8
0
  6
CONTINUOUS
 62
     7
 10
24970.343285416639
 20
20482.317632999999
 30
0.0
 40
160.0
  1
758
  0
TEXT
  5
4B44
  8
0
  6
CONTINUOUS
 62
     7
 10
23096.009457333301
 20
20482.317632999999
 30
0.0
 40
160.0
  1
407.5
  0
TEXT
  5
4B45
  8
0
  6
CONTINUOUS
 62
     7
 10
20641.17397924999
 20
20482.317632999999
 30
0.0
 40
160.0
  1
2567.5 \U+00D7（ｎ － 2）
  0
TEXT
  5
4B46
  8
0
  6
CONTINUOUS
 62
     7
 10
26975.175727999958
 20
13878.76291360319
 30
0.0
 40
160.0
  1
42.5
 50
90.0
  0
TEXT
  5
4B47
  8
0
  6
CONTINUOUS
 62
     7
 10
26975.175727999958
 20
19765.86997639676
 30
0.0
 40
160.0
  1
42.5
 50
90.0
  0
TEXT
  5
4B48
  8
0
  6
CONTINUOUS
 62
     7
 10
27375.175727999958
 20
16782.316444999979
 30
0.0
 40
160.0
  1
5220
 50
90.0
  0
TEXT
  5
4B49
  8
0
  6
CONTINUOUS
 62
     7
 10
26975.175727999958
 20
15378.56644499998
 30
0.0
 40
160.0
  1
2567.5
 50
90.0
  0
TEXT
  5
4B4A
  8
0
  6
CONTINUOUS
 62
     7
 10
26975.175727999958
 20
17946.066444999989
 30
0.0
 40
160.0
  1
2567.5
 50
90.0
  0
TEXT
  5
4B4B
  8
0
  6
CONTINUOUS
 62
     7
 10
26575.175727999958
 20
18698.48311166665
 30
0.0
 40
160.0
  1
701
 50
90.0
  0
TEXT
  5
4B4C
  8
0
  6
CONTINUOUS
 62
     7
 10
26575.175727999958
 20
17997.483111666661
 30
0.0
 40
160.0
  1
701
 50
90.0
  0
TEXT
  5
4B4D
  8
0
  6
CONTINUOUS
 62
     7
 10
26575.175727999958
 20
17227.98311166665
 30
0.0
 40
160.0
  1
758
 50
90.0
  0
TEXT
  5
4B4E
  8
0
  6
CONTINUOUS
 62
     7
 10
26575.175727999958
 20
16469.98311166665
 30
0.0
 40
160.0
  1
758
 50
90.0
  0
TEXT
  5
4B4F
  8
0
  6
CONTINUOUS
 62
     7
 10
26575.175727999958
 20
15780.603367416659
 30
0.0
 40
160.0
  1
701
 50
90.0
  0
TEXT
  5
4B50
  8
0
  6
CONTINUOUS
 62
     7
 10
26575.175727999958
 20
15079.603367416659
 30
0.0
 40
160.0
  1
701
 50
90.0
  0
TEXT
  5
4B51
  8
0
  6
CONTINUOUS
 62
     7
 10
26935.17572799998
 20
14567.636859203511
 30
0.0
 40
160.0
  1
407.5
 50
90.0
  0
TEXT
  5
4B52
  8
0
  6
CONTINUOUS
 62
     7
 10
21089.173484499981
 20
13203.368360999981
 30
0.0
 40
160.0
  1
2567.5 x n
  0
TEXT
  5
4B53
  8
0
  6
CONTINUOUS
 62
     7
 10
18045.724517382081
 20
13603.368360999981
 30
0.0
 40
160.0
  1
42.5
  0
TEXT
  5
4B54
  8
0
  6
CONTINUOUS
 62
     7
 10
24964.622451617881
 20
13603.368360999981
 30
0.0
 40
160.0
  1
42.5
  0
TEXT
  5
4B55
  8
0
  6
CONTINUOUS
 62
     7
 10
16918.216267999989
 20
14715.85336741665
 30
0.0
 40
160.0
  1
1108.5
 50
90.0
  0
TEXT
  5
4B56
  8
0
  6
CONTINUOUS
 62
     7
 10
16918.216267999989
 20
16066.270034083311
 30
0.0
 40
160.0
  1
1459
 50
90.0
  0
TEXT
  5
4B57
  8
0
  6
CONTINUOUS
 62
     7
 10
16918.216267999989
 20
17525.149778333322
 30
0.0
 40
160.0
  1
1459
 50
90.0
  0
TEXT
  5
4B58
  8
0
  6
CONTINUOUS
 62
     7
 10
16918.216267999989
 20
18742.233111666639
 30
0.0
 40
160.0
  1
1108.5
 50
90.0
  0
TEXT
  5
4B59
  8
0
  6
CONTINUOUS
 62
     7
 10
12101.56334496644
 20
20482.317632999999
 30
0.0
 40
160.0
  1
2567.5
  0
TEXT
  5
4B5A
  8
0
  6
CONTINUOUS
 62
     7
 10
13921.810050989699
 20
20482.317632999999
 30
0.0
 40
160.0
  1
85.5
  0
TEXT
  5
4B5B
  8
0
  6
CONTINUOUS
 62
     7
 10
8834.8142224664462
 20
20482.317632999999
 30
0.0
 40
160.0
  1
2567.5 \U+00D7（ｎ － 2）
  0
TEXT
  5
4B5C
  8
0
  6
CONTINUOUS
 62
     7
 10
6976.0650999664458
 20
20482.317632999999
 30
0.0
 40
160.0
  1
2567.5
  0
TEXT
  5
4B5D
  8
0
  6
CONTINUOUS
 62
     7
 10
5475.8183939431838
 20
20482.317632999999
 30
0.0
 40
160.0
  1
85.5
  0
TEXT
  5
4B5E
  8
0
  6
CONTINUOUS
 62
     7
 10
5082.8187879664383
 20
18742.233111666639
 30
0.0
 40
160.0
  1
1108.5
 50
90.0
  0
TEXT
  5
4B5F
  8
0
  6
CONTINUOUS
 62
     7
 10
5082.8187879664383
 20
19941.271629807641
 30
0.0
 40
160.0
  1
222.5
 50
90.0
  0
TEXT
  5
4B60
  8
0
  6
CONTINUOUS
 62
     7
 10
5482.8187879664411
 20
19972.312354000002
 30
0.0
 40
160.0
  1
20
 50
90.0
  0
TEXT
  5
4B61
  8
0
  6
CONTINUOUS
 62
     7
 10
5082.8187879664411
 20
17525.149778333311
 30
0.0
 40
160.0
  1
1459
 50
90.0
  0
TEXT
  5
4B62
  8
0
  6
CONTINUOUS
 62
     7
 10
5082.8187879664411
 20
16066.270034083311
 30
0.0
 40
160.0
  1
1459
 50
90.0
  0
TEXT
  5
4B63
  8
0
  6
CONTINUOUS
 62
     7
 10
5082.8187879664411
 20
14715.853367416659
 30
0.0
 40
160.0
  1
1108.5
 50
90.0
  0
TEXT
  5
4B64
  8
0
  6
CONTINUOUS
 62
     7
 10
5082.8187879664411
 20
13686.863434702611
 30
0.0
 40
160.0
  1
192.5
 50
90.0
  0
TEXT
  5
4B65
  8
0
  6
CONTINUOUS
 62
     7
 10
9128.1475557997765
 20
13203.368360999981
 30
0.0
 40
160.0
  1
2567.5  \U+00D7　ｎ
  0
TEXT
  5
4B66
  8
0
  6
CONTINUOUS
 62
     7
 10
26935.175727999958
 20
18931.694412643192
 30
0.0
 40
160.0
  1
407.5
 50
90.0
  0
ARC
  5
4B67
  8
0
  6
BYBLOCK
 62
     0
 10
26655.175727999958
 20
19222.31644499996
 30
0.0
 40
15.0
 50
90.0
 51
270.0
  0
ARC
  5
4B68
  8
0
  6
BYBLOCK
 62
     0
 10
26655.175727999958
 20
19222.31644499996
 30
0.0
 40
15.0
 50
270.0
 51
90.0
  0
ARC
  5
4B69
  8
0
  6
BYBLOCK
 62
     0
 10
26655.175727999958
 20
19629.816444999949
 30
0.0
 40
15.0
 50
270.0
 51
90.0
  0
ARC
  5
4B6A
  8
0
  6
BYBLOCK
 62
     0
 10
26655.175727999958
 20
19629.816444999949
 30
0.0
 40
15.0
 50
90.0
 51
270.0
  0
ARC
  5
4B6B
  8
0
  6
BYBLOCK
 62
     0
 10
6092.3150999664449
 20
13123.368360999981
 30
0.0
 40
15.0
 50
0.0
 51
180.0
  0
ARC
  5
4B6C
  8
0
  6
BYBLOCK
 62
     0
 10
6092.3150999664449
 20
13123.368360999981
 30
0.0
 40
15.0
 50
180.0
 51
0.0
  0
ARC
  5
4B6D
  8
0
  6
BYBLOCK
 62
     0
 10
13785.31334496644
 20
13123.368360999981
 30
0.0
 40
15.0
 50
180.0
 51
0.0
  0
ARC
  5
4B6E
  8
0
  6
BYBLOCK
 62
     0
 10
13785.31334496644
 20
13123.368360999981
 30
0.0
 40
15.0
 50
0.0
 51
180.0
  0
ARC
  5
4B6F
  8
0
  6
BYBLOCK
 62
     0
 10
5162.818787966442
 20
14494.81644499998
 30
0.0
 40
15.0
 50
90.0
 51
270.0
  0
ARC
  5
4B70
  8
0
  6
BYBLOCK
 62
     0
 10
5162.818787966442
 20
14494.81644499998
 30
0.0
 40
15.0
 50
270.0
 51
90.0
  0
ARC
  5
4B71
  8
0
  6
BYBLOCK
 62
     0
 10
5162.818787966442
 20
14302.32112999998
 30
0.0
 40
15.0
 50
270.0
 51
90.0
  0
ARC
  5
4B72
  8
0
  6
BYBLOCK
 62
     0
 10
5162.818787966442
 20
14302.32112999998
 30
0.0
 40
15.0
 50
90.0
 51
270.0
  0
ARC
  5
4B73
  8
0
  6
BYBLOCK
 62
     0
 10
5162.818787966442
 20
15603.556956500001
 30
0.0
 40
15.0
 50
270.0
 51
90.0
  0
ARC
  5
4B74
  8
0
  6
BYBLOCK
 62
     0
 10
5162.818787966442
 20
15603.556956500001
 30
0.0
 40
15.0
 50
90.0
 51
270.0
  0
ARC
  5
4B75
  8
0
  6
BYBLOCK
 62
     0
 10
5162.818787966442
 20
14494.81644499998
 30
0.0
 40
15.0
 50
90.0
 51
270.0
  0
ARC
  5
4B76
  8
0
  6
BYBLOCK
 62
     0
 10
5162.818787966442
 20
14494.81644499998
 30
0.0
 40
15.0
 50
270.0
 51
90.0
  0
ARC
  5
4B77
  8
0
  6
BYBLOCK
 62
     0
 10
5162.818787966442
 20
17062.316444999979
 30
0.0
 40
15.0
 50
270.0
 51
90.0
  0
ARC
  5
4B78
  8
0
  6
BYBLOCK
 62
     0
 10
5162.818787966442
 20
17062.316444999979
 30
0.0
 40
15.0
 50
90.0
 51
270.0
  0
ARC
  5
4B79
  8
0
  6
BYBLOCK
 62
     0
 10
5162.818787966442
 20
15603.556956500001
 30
0.0
 40
15.0
 50
90.0
 51
270.0
  0
ARC
  5
4B7A
  8
0
  6
BYBLOCK
 62
     0
 10
5162.818787966442
 20
15603.556956500001
 30
0.0
 40
15.0
 50
270.0
 51
90.0
  0
ARC
  5
4B7B
  8
0
  6
BYBLOCK
 62
     0
 10
5162.818787966442
 20
18521.31644499996
 30
0.0
 40
15.0
 50
270.0
 51
90.0
  0
ARC
  5
4B7C
  8
0
  6
BYBLOCK
 62
     0
 10
5162.818787966442
 20
18521.31644499996
 30
0.0
 40
15.0
 50
90.0
 51
270.0
  0
ARC
  5
4B7D
  8
0
  6
BYBLOCK
 62
     0
 10
5162.818787966442
 20
17062.316444999979
 30
0.0
 40
15.0
 50
90.0
 51
270.0
  0
ARC
  5
4B7E
  8
0
  6
BYBLOCK
 62
     0
 10
5162.818787966442
 20
17062.316444999979
 30
0.0
 40
15.0
 50
270.0
 51
90.0
  0
ARC
  5
4B7F
  8
0
  6
BYBLOCK
 62
     0
 10
5562.8187879664401
 20
19832.312354000002
 30
0.0
 40
15.0
 50
270.0
 51
90.0
  0
ARC
  5
4B80
  8
0
  6
BYBLOCK
 62
     0
 10
5562.8187879664401
 20
19832.312354000002
 30
0.0
 40
15.0
 50
90.0
 51
270.0
  0
ARC
  5
4B81
  8
0
  6
BYBLOCK
 62
     0
 10
5562.8187879664401
 20
19852.312354000002
 30
0.0
 40
15.0
 50
90.0
 51
270.0
  0
ARC
  5
4B82
  8
0
  6
BYBLOCK
 62
     0
 10
5562.8187879664401
 20
19852.312354000002
 30
0.0
 40
15.0
 50
270.0
 51
90.0
  0
ARC
  5
4B83
  8
0
  6
BYBLOCK
 62
     0
 10
5162.8187879664411
 20
19629.816444999949
 30
0.0
 40
15.0
 50
270.0
 51
90.0
  0
ARC
  5
4B84
  8
0
  6
BYBLOCK
 62
     0
 10
5162.8187879664411
 20
19629.816444999949
 30
0.0
 40
15.0
 50
90.0
 51
270.0
  0
ARC
  5
4B85
  8
0
  6
BYBLOCK
 62
     0
 10
5162.8187879664411
 20
19852.312354000002
 30
0.0
 40
15.0
 50
90.0
 51
270.0
  0
ARC
  5
4B86
  8
0
  6
BYBLOCK
 62
     0
 10
5162.8187879664411
 20
19852.312354000002
 30
0.0
 40
15.0
 50
270.0
 51
90.0
  0
ARC
  5
4B87
  8
0
  6
BYBLOCK
 62
     0
 10
5162.8187879664411
 20
18521.31644499996
 30
0.0
 40
15.0
 50
90.0
 51
270.0
  0
ARC
  5
4B88
  8
0
  6
BYBLOCK
 62
     0
 10
5162.8187879664411
 20
18521.31644499996
 30
0.0
 40
15.0
 50
270.0
 51
90.0
  0
ARC
  5
4B89
  8
0
  6
BYBLOCK
 62
     0
 10
5162.8187879664411
 20
19629.816444999949
 30
0.0
 40
15.0
 50
270.0
 51
90.0
  0
ARC
  5
4B8A
  8
0
  6
BYBLOCK
 62
     0
 10
5162.8187879664411
 20
19629.816444999949
 30
0.0
 40
15.0
 50
90.0
 51
270.0
  0
ARC
  5
4B8B
  8
0
  6
BYBLOCK
 62
     0
 10
6092.3150999664467
 20
20402.317632999999
 30
0.0
 40
15.0
 50
0.0
 51
180.0
  0
ARC
  5
4B8C
  8
0
  6
BYBLOCK
 62
     0
 10
6092.3150999664467
 20
20402.317632999999
 30
0.0
 40
15.0
 50
180.0
 51
0.0
  0
ARC
  5
4B8D
  8
0
  6
BYBLOCK
 62
     0
 10
6006.8150999664467
 20
20402.317632999999
 30
0.0
 40
15.0
 50
180.0
 51
0.0
  0
ARC
  5
4B8E
  8
0
  6
BYBLOCK
 62
     0
 10
6006.8150999664467
 20
20402.317632999999
 30
0.0
 40
15.0
 50
0.0
 51
180.0
  0
ARC
  5
4B8F
  8
0
  6
BYBLOCK
 62
     0
 10
8659.8150999664467
 20
20402.317632999999
 30
0.0
 40
15.0
 50
180.0
 51
0.0
  0
ARC
  5
4B90
  8
0
  6
BYBLOCK
 62
     0
 10
8659.8150999664467
 20
20402.317632999999
 30
0.0
 40
15.0
 50
0.0
 51
180.0
  0
ARC
  5
4B91
  8
0
  6
BYBLOCK
 62
     0
 10
6092.3150999664467
 20
20402.317632999999
 30
0.0
 40
15.0
 50
0.0
 51
180.0
  0
ARC
  5
4B92
  8
0
  6
BYBLOCK
 62
     0
 10
6092.3150999664467
 20
20402.317632999999
 30
0.0
 40
15.0
 50
180.0
 51
0.0
  0
ARC
  5
4B93
  8
0
  6
BYBLOCK
 62
     0
 10
8659.8150999664467
 20
20402.317632999999
 30
0.0
 40
15.0
 50
0.0
 51
180.0
  0
ARC
  5
4B94
  8
0
  6
BYBLOCK
 62
     0
 10
8659.8150999664467
 20
20402.317632999999
 30
0.0
 40
15.0
 50
180.0
 51
0.0
  0
ARC
  5
4B95
  8
0
  6
BYBLOCK
 62
     0
 10
11217.81334496644
 20
20402.317632999999
 30
0.0
 40
15.0
 50
180.0
 51
0.0
  0
ARC
  5
4B96
  8
0
  6
BYBLOCK
 62
     0
 10
11217.81334496644
 20
20402.317632999999
 30
0.0
 40
15.0
 50
0.0
 51
180.0
  0
ARC
  5
4B97
  8
0
  6
BYBLOCK
 62
     0
 10
13785.31334496644
 20
20402.317632999999
 30
0.0
 40
15.0
 50
180.0
 51
0.0
  0
ARC
  5
4B98
  8
0
  6
BYBLOCK
 62
     0
 10
13785.31334496644
 20
20402.317632999999
 30
0.0
 40
15.0
 50
0.0
 51
180.0
  0
ARC
  5
4B99
  8
0
  6
BYBLOCK
 62
     0
 10
13867.813344966429
 20
20402.317632999999
 30
0.0
 40
15.0
 50
0.0
 51
180.0
  0
ARC
  5
4B9A
  8
0
  6
BYBLOCK
 62
     0
 10
13867.813344966429
 20
20402.317632999999
 30
0.0
 40
15.0
 50
180.0
 51
0.0
  0
ARC
  5
4B9B
  8
0
  6
BYBLOCK
 62
     0
 10
11217.81334496644
 20
20402.317632999999
 30
0.0
 40
15.0
 50
0.0
 51
180.0
  0
ARC
  5
4B9C
  8
0
  6
BYBLOCK
 62
     0
 10
11217.81334496644
 20
20402.317632999999
 30
0.0
 40
15.0
 50
180.0
 51
0.0
  0
ARC
  5
4B9D
  8
0
  6
BYBLOCK
 62
     0
 10
13785.31334496644
 20
20402.317632999999
 30
0.0
 40
15.0
 50
180.0
 51
0.0
  0
ARC
  5
4B9E
  8
0
  6
BYBLOCK
 62
     0
 10
13785.31334496644
 20
20402.317632999999
 30
0.0
 40
15.0
 50
0.0
 51
180.0
  0
ARC
  5
4B9F
  8
0
  6
BYBLOCK
 62
     0
 10
16998.216267999989
 20
18521.31644499996
 30
0.0
 40
15.0
 50
90.0
 51
270.0
  0
ARC
  5
4BA0
  8
0
  6
BYBLOCK
 62
     0
 10
16998.216267999989
 20
18521.31644499996
 30
0.0
 40
15.0
 50
270.0
 51
90.0
  0
ARC
  5
4BA1
  8
0
  6
BYBLOCK
 62
     0
 10
16998.216267999989
 20
19629.816444999949
 30
0.0
 40
15.0
 50
270.0
 51
90.0
  0
ARC
  5
4BA2
  8
0
  6
BYBLOCK
 62
     0
 10
16998.216267999989
 20
19629.816444999949
 30
0.0
 40
15.0
 50
90.0
 51
270.0
  0
ARC
  5
4BA3
  8
0
  6
BYBLOCK
 62
     0
 10
16998.216267999989
 20
17062.316444999979
 30
0.0
 40
15.0
 50
90.0
 51
270.0
  0
ARC
  5
4BA4
  8
0
  6
BYBLOCK
 62
     0
 10
16998.216267999989
 20
17062.316444999979
 30
0.0
 40
15.0
 50
270.0
 51
90.0
  0
ARC
  5
4BA5
  8
0
  6
BYBLOCK
 62
     0
 10
16998.216267999989
 20
18521.31644499996
 30
0.0
 40
15.0
 50
270.0
 51
90.0
  0
ARC
  5
4BA6
  8
0
  6
BYBLOCK
 62
     0
 10
16998.216267999989
 20
18521.31644499996
 30
0.0
 40
15.0
 50
90.0
 51
270.0
  0
ARC
  5
4BA7
  8
0
  6
BYBLOCK
 62
     0
 10
16998.216267999989
 20
15603.556956500001
 30
0.0
 40
15.0
 50
90.0
 51
270.0
  0
ARC
  5
4BA8
  8
0
  6
BYBLOCK
 62
     0
 10
16998.216267999989
 20
15603.556956500001
 30
0.0
 40
15.0
 50
270.0
 51
90.0
  0
ARC
  5
4BA9
  8
0
  6
BYBLOCK
 62
     0
 10
16998.216267999989
 20
17062.316444999979
 30
0.0
 40
15.0
 50
270.0
 51
90.0
  0
ARC
  5
4BAA
  8
0
  6
BYBLOCK
 62
     0
 10
16998.216267999989
 20
17062.316444999979
 30
0.0
 40
15.0
 50
90.0
 51
270.0
  0
ARC
  5
4BAB
  8
0
  6
BYBLOCK
 62
     0
 10
16998.216267999989
 20
14494.81644499998
 30
0.0
 40
15.0
 50
90.0
 51
270.0
  0
ARC
  5
4BAC
  8
0
  6
BYBLOCK
 62
     0
 10
16998.216267999989
 20
14494.81644499998
 30
0.0
 40
15.0
 50
270.0
 51
90.0
  0
ARC
  5
4BAD
  8
0
  6
BYBLOCK
 62
     0
 10
16998.216267999989
 20
15603.556956500001
 30
0.0
 40
15.0
 50
270.0
 51
90.0
  0
ARC
  5
4BAE
  8
0
  6
BYBLOCK
 62
     0
 10
16998.216267999989
 20
15603.556956500001
 30
0.0
 40
15.0
 50
90.0
 51
270.0
  0
ARC
  5
4BAF
  8
0
  6
BYBLOCK
 62
     0
 10
25562.676123999961
 20
13523.368360999981
 30
0.0
 40
15.0
 50
0.0
 51
180.0
  0
ARC
  5
4BB0
  8
0
  6
BYBLOCK
 62
     0
 10
25562.676123999961
 20
13523.368360999981
 30
0.0
 40
15.0
 50
180.0
 51
0.0
  0
ARC
  5
4BB1
  8
0
  6
BYBLOCK
 62
     0
 10
25520.17388099997
 20
13523.368360999981
 30
0.0
 40
15.0
 50
180.0
 51
0.0
  0
ARC
  5
4BB2
  8
0
  6
BYBLOCK
 62
     0
 10
25520.17388099997
 20
13523.368360999981
 30
0.0
 40
15.0
 50
0.0
 51
180.0
  0
ARC
  5
4BB3
  8
0
  6
BYBLOCK
 62
     0
 10
17927.670844999979
 20
13523.368360999981
 30
0.0
 40
15.0
 50
180.0
 51
0.0
  0
ARC
  5
4BB4
  8
0
  6
BYBLOCK
 62
     0
 10
17927.670844999979
 20
13523.368360999981
 30
0.0
 40
15.0
 50
0.0
 51
180.0
  0
ARC
  5
4BB5
  8
0
  6
BYBLOCK
 62
     0
 10
17970.173087999989
 20
13523.368360999981
 30
0.0
 40
15.0
 50
0.0
 51
180.0
  0
ARC
  5
4BB6
  8
0
  6
BYBLOCK
 62
     0
 10
17970.173087999989
 20
13523.368360999981
 30
0.0
 40
15.0
 50
180.0
 51
0.0
  0
ARC
  5
4BB7
  8
0
  6
BYBLOCK
 62
     0
 10
17927.670844999979
 20
13123.368360999981
 30
0.0
 40
15.0
 50
0.0
 51
180.0
  0
ARC
  5
4BB8
  8
0
  6
BYBLOCK
 62
     0
 10
17927.670844999979
 20
13123.368360999981
 30
0.0
 40
15.0
 50
180.0
 51
0.0
  0
ARC
  5
4BB9
  8
0
  6
BYBLOCK
 62
     0
 10
25562.676123999961
 20
13123.368360999981
 30
0.0
 40
15.0
 50
180.0
 51
0.0
  0
ARC
  5
4BBA
  8
0
  6
BYBLOCK
 62
     0
 10
25562.676123999961
 20
13123.368360999981
 30
0.0
 40
15.0
 50
0.0
 51
180.0
  0
ARC
  5
4BBB
  8
0
  6
BYBLOCK
 62
     0
 10
26655.175727999958
 20
14902.31644499998
 30
0.0
 40
15.0
 50
270.0
 51
90.0
  0
ARC
  5
4BBC
  8
0
  6
BYBLOCK
 62
     0
 10
26655.175727999958
 20
14902.31644499998
 30
0.0
 40
15.0
 50
90.0
 51
270.0
  0
ARC
  5
4BBD
  8
0
  6
BYBLOCK
 62
     0
 10
26655.175727999958
 20
14494.81644499998
 30
0.0
 40
15.0
 50
90.0
 51
270.0
  0
ARC
  5
4BBE
  8
0
  6
BYBLOCK
 62
     0
 10
26655.175727999958
 20
14494.81644499998
 30
0.0
 40
15.0
 50
270.0
 51
90.0
  0
ARC
  5
4BBF
  8
0
  6
BYBLOCK
 62
     0
 10
26655.175727999958
 20
15603.556956500001
 30
0.0
 40
15.0
 50
270.0
 51
90.0
  0
ARC
  5
4BC0
  8
0
  6
BYBLOCK
 62
     0
 10
26655.175727999958
 20
15603.556956500001
 30
0.0
 40
15.0
 50
90.0
 51
270.0
  0
ARC
  5
4BC1
  8
0
  6
BYBLOCK
 62
     0
 10
26655.175727999958
 20
14902.31644499998
 30
0.0
 40
15.0
 50
90.0
 51
270.0
  0
ARC
  5
4BC2
  8
0
  6
BYBLOCK
 62
     0
 10
26655.175727999958
 20
14902.31644499998
 30
0.0
 40
15.0
 50
270.0
 51
90.0
  0
ARC
  5
4BC3
  8
0
  6
BYBLOCK
 62
     0
 10
26655.175727999958
 20
16304.31644499998
 30
0.0
 40
15.0
 50
270.0
 51
90.0
  0
ARC
  5
4BC4
  8
0
  6
BYBLOCK
 62
     0
 10
26655.175727999958
 20
16304.31644499998
 30
0.0
 40
15.0
 50
90.0
 51
270.0
  0
ARC
  5
4BC5
  8
0
  6
BYBLOCK
 62
     0
 10
26655.175727999958
 20
15603.556956500001
 30
0.0
 40
15.0
 50
90.0
 51
270.0
  0
ARC
  5
4BC6
  8
0
  6
BYBLOCK
 62
     0
 10
26655.175727999958
 20
15603.556956500001
 30
0.0
 40
15.0
 50
270.0
 51
90.0
  0
ARC
  5
4BC7
  8
0
  6
BYBLOCK
 62
     0
 10
26655.175727999958
 20
17062.316444999979
 30
0.0
 40
15.0
 50
270.0
 51
90.0
  0
ARC
  5
4BC8
  8
0
  6
BYBLOCK
 62
     0
 10
26655.175727999958
 20
17062.316444999979
 30
0.0
 40
15.0
 50
90.0
 51
270.0
  0
ARC
  5
4BC9
  8
0
  6
BYBLOCK
 62
     0
 10
26655.175727999958
 20
16304.31644499998
 30
0.0
 40
15.0
 50
90.0
 51
270.0
  0
ARC
  5
4BCA
  8
0
  6
BYBLOCK
 62
     0
 10
26655.175727999958
 20
16304.31644499998
 30
0.0
 40
15.0
 50
270.0
 51
90.0
  0
ARC
  5
4BCB
  8
0
  6
BYBLOCK
 62
     0
 10
26655.175727999958
 20
17820.316444999979
 30
0.0
 40
15.0
 50
270.0
 51
90.0
  0
ARC
  5
4BCC
  8
0
  6
BYBLOCK
 62
     0
 10
26655.175727999958
 20
17820.316444999979
 30
0.0
 40
15.0
 50
90.0
 51
270.0
  0
ARC
  5
4BCD
  8
0
  6
BYBLOCK
 62
     0
 10
26655.175727999958
 20
17062.316444999979
 30
0.0
 40
15.0
 50
90.0
 51
270.0
  0
ARC
  5
4BCE
  8
0
  6
BYBLOCK
 62
     0
 10
26655.175727999958
 20
17062.316444999979
 30
0.0
 40
15.0
 50
270.0
 51
90.0
  0
ARC
  5
4BCF
  8
0
  6
BYBLOCK
 62
     0
 10
26655.175727999958
 20
18521.31644499996
 30
0.0
 40
15.0
 50
270.0
 51
90.0
  0
ARC
  5
4BD0
  8
0
  6
BYBLOCK
 62
     0
 10
26655.175727999958
 20
18521.31644499996
 30
0.0
 40
15.0
 50
90.0
 51
270.0
  0
ARC
  5
4BD1
  8
0
  6
BYBLOCK
 62
     0
 10
26655.175727999958
 20
17820.316444999979
 30
0.0
 40
15.0
 50
90.0
 51
270.0
  0
ARC
  5
4BD2
  8
0
  6
BYBLOCK
 62
     0
 10
26655.175727999958
 20
17820.316444999979
 30
0.0
 40
15.0
 50
270.0
 51
90.0
  0
ARC
  5
4BD3
  8
0
  6
BYBLOCK
 62
     0
 10
26655.175727999958
 20
19222.31644499996
 30
0.0
 40
15.0
 50
270.0
 51
90.0
  0
ARC
  5
4BD4
  8
0
  6
BYBLOCK
 62
     0
 10
26655.175727999958
 20
19222.31644499996
 30
0.0
 40
15.0
 50
90.0
 51
270.0
  0
ARC
  5
4BD5
  8
0
  6
BYBLOCK
 62
     0
 10
26655.175727999958
 20
18521.31644499996
 30
0.0
 40
15.0
 50
90.0
 51
270.0
  0
ARC
  5
4BD6
  8
0
  6
BYBLOCK
 62
     0
 10
26655.175727999958
 20
18521.31644499996
 30
0.0
 40
15.0
 50
270.0
 51
90.0
  0
ARC
  5
4BD7
  8
0
  6
BYBLOCK
 62
     0
 10
27055.175727999958
 20
17062.316444999979
 30
0.0
 40
15.0
 50
90.0
 51
270.0
  0
ARC
  5
4BD8
  8
0
  6
BYBLOCK
 62
     0
 10
27055.175727999958
 20
17062.316444999979
 30
0.0
 40
15.0
 50
270.0
 51
90.0
  0
ARC
  5
4BD9
  8
0
  6
BYBLOCK
 62
     0
 10
27055.175727999958
 20
19629.816444999949
 30
0.0
 40
15.0
 50
270.0
 51
90.0
  0
ARC
  5
4BDA
  8
0
  6
BYBLOCK
 62
     0
 10
27055.175727999958
 20
19629.816444999949
 30
0.0
 40
15.0
 50
90.0
 51
270.0
  0
ARC
  5
4BDB
  8
0
  6
BYBLOCK
 62
     0
 10
27055.175727999958
 20
14494.81644499998
 30
0.0
 40
15.0
 50
90.0
 51
270.0
  0
ARC
  5
4BDC
  8
0
  6
BYBLOCK
 62
     0
 10
27055.175727999958
 20
14494.81644499998
 30
0.0
 40
15.0
 50
270.0
 51
90.0
  0
ARC
  5
4BDD
  8
0
  6
BYBLOCK
 62
     0
 10
27055.175727999958
 20
17062.316444999979
 30
0.0
 40
15.0
 50
270.0
 51
90.0
  0
ARC
  5
4BDE
  8
0
  6
BYBLOCK
 62
     0
 10
27055.175727999958
 20
17062.316444999979
 30
0.0
 40
15.0
 50
90.0
 51
270.0
  0
ARC
  5
4BDF
  8
0
  6
BYBLOCK
 62
     0
 10
27455.175727999958
 20
19672.31373999998
 30
0.0
 40
15.0
 50
270.0
 51
90.0
  0
ARC
  5
4BE0
  8
0
  6
BYBLOCK
 62
     0
 10
27455.175727999958
 20
19672.31373999998
 30
0.0
 40
15.0
 50
90.0
 51
270.0
  0
ARC
  5
4BE1
  8
0
  6
BYBLOCK
 62
     0
 10
27455.175727999958
 20
14452.319149999979
 30
0.0
 40
15.0
 50
90.0
 51
270.0
  0
ARC
  5
4BE2
  8
0
  6
BYBLOCK
 62
     0
 10
27455.175727999958
 20
14452.319149999979
 30
0.0
 40
15.0
 50
270.0
 51
90.0
  0
ARC
  5
4BE3
  8
0
  6
BYBLOCK
 62
     0
 10
27055.175727999958
 20
19629.816444999949
 30
0.0
 40
15.0
 50
270.0
 51
90.0
  0
ARC
  5
4BE4
  8
0
  6
BYBLOCK
 62
     0
 10
27055.175727999958
 20
19629.816444999949
 30
0.0
 40
15.0
 50
90.0
 51
270.0
  0
ARC
  5
4BE5
  8
0
  6
BYBLOCK
 62
     0
 10
27055.175727999958
 20
19672.31373999998
 30
0.0
 40
15.0
 50
90.0
 51
270.0
  0
ARC
  5
4BE6
  8
0
  6
BYBLOCK
 62
     0
 10
27055.175727999958
 20
19672.31373999998
 30
0.0
 40
15.0
 50
270.0
 51
90.0
  0
ARC
  5
4BE7
  8
0
  6
BYBLOCK
 62
     0
 10
27055.175727999958
 20
14494.81644499998
 30
0.0
 40
15.0
 50
90.0
 51
270.0
  0
ARC
  5
4BE8
  8
0
  6
BYBLOCK
 62
     0
 10
27055.175727999958
 20
14494.81644499998
 30
0.0
 40
15.0
 50
270.0
 51
90.0
  0
ARC
  5
4BE9
  8
0
  6
BYBLOCK
 62
     0
 10
27055.175727999958
 20
14452.319149999979
 30
0.0
 40
15.0
 50
270.0
 51
90.0
  0
ARC
  5
4BEA
  8
0
  6
BYBLOCK
 62
     0
 10
27055.175727999958
 20
14452.319149999979
 30
0.0
 40
15.0
 50
90.0
 51
270.0
  0
ARC
  5
4BEB
  8
0
  6
BYBLOCK
 62
     0
 10
20495.171834500001
 20
20402.317632999999
 30
0.0
 40
15.0
 50
0.0
 51
180.0
  0
ARC
  5
4BEC
  8
0
  6
BYBLOCK
 62
     0
 10
20495.171834500001
 20
20402.317632999999
 30
0.0
 40
15.0
 50
180.0
 51
0.0
  0
ARC
  5
4BED
  8
0
  6
BYBLOCK
 62
     0
 10
22995.176123999961
 20
20402.317632999999
 30
0.0
 40
15.0
 50
180.0
 51
0.0
  0
ARC
  5
4BEE
  8
0
  6
BYBLOCK
 62
     0
 10
22995.176123999961
 20
20402.317632999999
 30
0.0
 40
15.0
 50
0.0
 51
180.0
  0
ARC
  5
4BEF
  8
0
  6
BYBLOCK
 62
     0
 10
22995.176123999961
 20
20402.317632999999
 30
0.0
 40
15.0
 50
180.0
 51
0.0
  0
ARC
  5
4BF0
  8
0
  6
BYBLOCK
 62
     0
 10
22995.176123999961
 20
20402.317632999999
 30
0.0
 40
15.0
 50
0.0
 51
180.0
  0
ARC
  5
4BF1
  8
0
  6
BYBLOCK
 62
     0
 10
23402.676123999961
 20
20402.317632999999
 30
0.0
 40
15.0
 50
0.0
 51
180.0
  0
ARC
  5
4BF2
  8
0
  6
BYBLOCK
 62
     0
 10
23402.676123999961
 20
20402.317632999999
 30
0.0
 40
15.0
 50
180.0
 51
0.0
  0
ARC
  5
4BF3
  8
0
  6
BYBLOCK
 62
     0
 10
24804.676123999961
 20
20402.317632999999
 30
0.0
 40
15.0
 50
0.0
 51
180.0
  0
ARC
  5
4BF4
  8
0
  6
BYBLOCK
 62
     0
 10
24804.676123999961
 20
20402.317632999999
 30
0.0
 40
15.0
 50
180.0
 51
0.0
  0
ARC
  5
4BF5
  8
0
  6
BYBLOCK
 62
     0
 10
25562.67711349998
 20
20402.317632999999
 30
0.0
 40
15.0
 50
180.0
 51
0.0
  0
ARC
  5
4BF6
  8
0
  6
BYBLOCK
 62
     0
 10
25562.67711349998
 20
20402.317632999999
 30
0.0
 40
15.0
 50
0.0
 51
180.0
  0
ARC
  5
4BF7
  8
0
  6
BYBLOCK
 62
     0
 10
24103.676123999961
 20
20402.317632999999
 30
0.0
 40
15.0
 50
0.0
 51
180.0
  0
ARC
  5
4BF8
  8
0
  6
BYBLOCK
 62
     0
 10
24103.676123999961
 20
20402.317632999999
 30
0.0
 40
15.0
 50
180.0
 51
0.0
  0
ARC
  5
4BF9
  8
0
  6
BYBLOCK
 62
     0
 10
24804.676123999961
 20
20402.317632999999
 30
0.0
 40
15.0
 50
180.0
 51
0.0
  0
ARC
  5
4BFA
  8
0
  6
BYBLOCK
 62
     0
 10
24804.676123999961
 20
20402.317632999999
 30
0.0
 40
15.0
 50
0.0
 51
180.0
  0
ARC
  5
4BFB
  8
0
  6
BYBLOCK
 62
     0
 10
23402.676123999961
 20
20402.317632999999
 30
0.0
 40
15.0
 50
0.0
 51
180.0
  0
ARC
  5
4BFC
  8
0
  6
BYBLOCK
 62
     0
 10
23402.676123999961
 20
20402.317632999999
 30
0.0
 40
15.0
 50
180.0
 51
0.0
  0
ARC
  5
4BFD
  8
0
  6
BYBLOCK
 62
     0
 10
24103.676123999961
 20
20402.317632999999
 30
0.0
 40
15.0
 50
180.0
 51
0.0
  0
ARC
  5
4BFE
  8
0
  6
BYBLOCK
 62
     0
 10
24103.676123999961
 20
20402.317632999999
 30
0.0
 40
15.0
 50
0.0
 51
180.0
  0
ARC
  5
4BFF
  8
0
  6
BYBLOCK
 62
     0
 10
25562.676123999961
 20
20402.317632999999
 30
0.0
 40
15.0
 50
180.0
 51
0.0
  0
ARC
  5
4C00
  8
0
  6
BYBLOCK
 62
     0
 10
25562.676123999961
 20
20402.317632999999
 30
0.0
 40
15.0
 50
0.0
 51
180.0
  0
ARC
  5
4C01
  8
0
  6
BYBLOCK
 62
     0
 10
25605.172428999958
 20
20402.317632999999
 30
0.0
 40
15.0
 50
0.0
 51
180.0
  0
ARC
  5
4C02
  8
0
  6
BYBLOCK
 62
     0
 10
25605.172428999958
 20
20402.317632999999
 30
0.0
 40
15.0
 50
180.0
 51
0.0
  0
ARC
  5
4C03
  8
0
  6
BYBLOCK
 62
     0
 10
17927.670844999979
 20
20402.317632999999
 30
0.0
 40
15.0
 50
180.0
 51
0.0
  0
ARC
  5
4C04
  8
0
  6
BYBLOCK
 62
     0
 10
17927.670844999979
 20
20402.317632999999
 30
0.0
 40
15.0
 50
0.0
 51
180.0
  0
ARC
  5
4C05
  8
0
  6
BYBLOCK
 62
     0
 10
18335.170844999979
 20
20402.317632999999
 30
0.0
 40
15.0
 50
0.0
 51
180.0
  0
ARC
  5
4C06
  8
0
  6
BYBLOCK
 62
     0
 10
18335.170844999979
 20
20402.317632999999
 30
0.0
 40
15.0
 50
180.0
 51
0.0
  0
ARC
  5
4C07
  8
0
  6
BYBLOCK
 62
     0
 10
17927.670844999979
 20
20402.317632999999
 30
0.0
 40
15.0
 50
0.0
 51
180.0
  0
ARC
  5
4C08
  8
0
  6
BYBLOCK
 62
     0
 10
17927.670844999979
 20
20402.317632999999
 30
0.0
 40
15.0
 50
180.0
 51
0.0
  0
ARC
  5
4C09
  8
0
  6
BYBLOCK
 62
     0
 10
17885.174539999989
 20
20402.317632999999
 30
0.0
 40
15.0
 50
180.0
 51
0.0
  0
ARC
  5
4C0A
  8
0
  6
BYBLOCK
 62
     0
 10
17885.174539999989
 20
20402.317632999999
 30
0.0
 40
15.0
 50
0.0
 51
180.0
  0
ARC
  5
4C0B
  8
0
  6
BYBLOCK
 62
     0
 10
19737.17084499999
 20
20402.317632999999
 30
0.0
 40
15.0
 50
0.0
 51
180.0
  0
ARC
  5
4C0C
  8
0
  6
BYBLOCK
 62
     0
 10
19737.17084499999
 20
20402.317632999999
 30
0.0
 40
15.0
 50
180.0
 51
0.0
  0
ARC
  5
4C0D
  8
0
  6
BYBLOCK
 62
     0
 10
20495.171834500001
 20
20402.317632999999
 30
0.0
 40
15.0
 50
180.0
 51
0.0
  0
ARC
  5
4C0E
  8
0
  6
BYBLOCK
 62
     0
 10
20495.171834500001
 20
20402.317632999999
 30
0.0
 40
15.0
 50
0.0
 51
180.0
  0
ARC
  5
4C0F
  8
0
  6
BYBLOCK
 62
     0
 10
19036.17084499999
 20
20402.317632999999
 30
0.0
 40
15.0
 50
0.0
 51
180.0
  0
ARC
  5
4C10
  8
0
  6
BYBLOCK
 62
     0
 10
19036.17084499999
 20
20402.317632999999
 30
0.0
 40
15.0
 50
180.0
 51
0.0
  0
ARC
  5
4C11
  8
0
  6
BYBLOCK
 62
     0
 10
19737.17084499999
 20
20402.317632999999
 30
0.0
 40
15.0
 50
180.0
 51
0.0
  0
ARC
  5
4C12
  8
0
  6
BYBLOCK
 62
     0
 10
19737.17084499999
 20
20402.317632999999
 30
0.0
 40
15.0
 50
0.0
 51
180.0
  0
ARC
  5
4C13
  8
0
  6
BYBLOCK
 62
     0
 10
18335.170844999979
 20
20402.317632999999
 30
0.0
 40
15.0
 50
0.0
 51
180.0
  0
ARC
  5
4C14
  8
0
  6
BYBLOCK
 62
     0
 10
18335.170844999979
 20
20402.317632999999
 30
0.0
 40
15.0
 50
180.0
 51
0.0
  0
ARC
  5
4C15
  8
0
  6
BYBLOCK
 62
     0
 10
19036.17084499999
 20
20402.317632999999
 30
0.0
 40
15.0
 50
180.0
 51
0.0
  0
ARC
  5
4C16
  8
0
  6
BYBLOCK
 62
     0
 10
19036.17084499999
 20
20402.317632999999
 30
0.0
 40
15.0
 50
0.0
 51
180.0
  0
ARC
  5
4C17
  8
0
  6
BYBLOCK
 62
     0
 10
17077.671504999991
 20
6212.7285879999999
 30
0.0
 40
15.0
 50
90.0
 51
270.0
  0
ARC
  5
4C18
  8
0
  6
BYBLOCK
 62
     0
 10
17077.671504999991
 20
6212.7285879999999
 30
0.0
 40
15.0
 50
270.0
 51
90.0
  0
ARC
  5
4C19
  8
0
  6
BYBLOCK
 62
     0
 10
17077.671504999991
 20
8104.228587999999
 30
0.0
 40
15.0
 50
270.0
 51
90.0
  0
ARC
  5
4C1A
  8
0
  6
BYBLOCK
 62
     0
 10
17077.671504999991
 20
8104.228587999999
 30
0.0
 40
15.0
 50
90.0
 51
270.0
  0
ARC
  5
4C1B
  8
0
  6
BYBLOCK
 62
     0
 10
16677.669195999992
 20
6212.7285879999999
 30
0.0
 40
15.0
 50
90.0
 51
270.0
  0
ARC
  5
4C1C
  8
0
  6
BYBLOCK
 62
     0
 10
16677.669195999992
 20
6212.7285879999999
 30
0.0
 40
15.0
 50
270.0
 51
90.0
  0
ARC
  5
4C1D
  8
0
  6
BYBLOCK
 62
     0
 10
16677.669195999992
 20
8561.7285880000018
 30
0.0
 40
15.0
 50
270.0
 51
90.0
  0
ARC
  5
4C1E
  8
0
  6
BYBLOCK
 62
     0
 10
16677.669195999992
 20
8561.7285880000018
 30
0.0
 40
15.0
 50
90.0
 51
270.0
  0
ARC
  5
4C2F
  8
0
  6
BYBLOCK
 62
     0
 10
18021.67084499999
 20
5312.7287530000031
 30
0.0
 40
15.0
 50
0.0
 51
180.0
  0
ARC
  5
4C30
  8
0
  6
BYBLOCK
 62
     0
 10
18021.67084499999
 20
5312.7287530000031
 30
0.0
 40
15.0
 50
180.0
 51
0.0
  0
ARC
  5
4C31
  8
0
  6
BYBLOCK
 62
     0
 10
20401.170844999979
 20
5312.7287530000031
 30
0.0
 40
15.0
 50
180.0
 51
0.0
  0
ARC
  5
4C32
  8
0
  6
BYBLOCK
 62
     0
 10
20401.170844999979
 20
5312.7287530000031
 30
0.0
 40
15.0
 50
0.0
 51
180.0
  0
ARC
  5
4C33
  8
0
  6
BYBLOCK
 62
     0
 10
23089.176123999961
 20
5312.7287530000031
 30
0.0
 40
15.0
 50
0.0
 51
180.0
  0
ARC
  5
4C34
  8
0
  6
BYBLOCK
 62
     0
 10
23089.176123999961
 20
5312.7287530000031
 30
0.0
 40
15.0
 50
180.0
 51
0.0
  0
ARC
  5
4C35
  8
0
  6
BYBLOCK
 62
     0
 10
25468.676123999961
 20
5312.7287530000031
 30
0.0
 40
15.0
 50
180.0
 51
0.0
  0
ARC
  5
4C36
  8
0
  6
BYBLOCK
 62
     0
 10
25468.676123999961
 20
5312.7287530000031
 30
0.0
 40
15.0
 50
0.0
 51
180.0
  0
ARC
  5
4C37
  8
0
  6
BYBLOCK
 62
     0
 10
22995.176123999961
 20
4912.7287530000031
 30
0.0
 40
15.0
 50
0.0
 51
180.0
  0
ARC
  5
4C38
  8
0
  6
BYBLOCK
 62
     0
 10
22995.176123999961
 20
4912.7287530000031
 30
0.0
 40
15.0
 50
180.0
 51
0.0
  0
ARC
  5
4C39
  8
0
  6
BYBLOCK
 62
     0
 10
25562.676123999961
 20
4912.7287530000031
 30
0.0
 40
15.0
 50
180.0
 51
0.0
  0
ARC
  5
4C3A
  8
0
  6
BYBLOCK
 62
     0
 10
25562.676123999961
 20
4912.7287530000031
 30
0.0
 40
15.0
 50
0.0
 51
180.0
  0
ARC
  5
4C3B
  8
0
  6
BYBLOCK
 62
     0
 10
20495.17084499999
 20
4912.7287530000031
 30
0.0
 40
15.0
 50
0.0
 51
180.0
  0
ARC
  5
4C3C
  8
0
  6
BYBLOCK
 62
     0
 10
20495.17084499999
 20
4912.7287530000031
 30
0.0
 40
15.0
 50
180.0
 51
0.0
  0
ARC
  5
4C3D
  8
0
  6
BYBLOCK
 62
     0
 10
22995.176123999961
 20
4912.7287530000031
 30
0.0
 40
15.0
 50
180.0
 51
0.0
  0
ARC
  5
4C3E
  8
0
  6
BYBLOCK
 62
     0
 10
22995.176123999961
 20
4912.7287530000031
 30
0.0
 40
15.0
 50
0.0
 51
180.0
  0
ARC
  5
4C3F
  8
0
  6
BYBLOCK
 62
     0
 10
17927.670844999979
 20
4912.7287530000031
 30
0.0
 40
15.0
 50
0.0
 51
180.0
  0
ARC
  5
4C40
  8
0
  6
BYBLOCK
 62
     0
 10
17927.670844999979
 20
4912.7287530000031
 30
0.0
 40
15.0
 50
180.0
 51
0.0
  0
ARC
  5
4C41
  8
0
  6
BYBLOCK
 62
     0
 10
20495.17084499999
 20
4912.7287530000031
 30
0.0
 40
15.0
 50
180.0
 51
0.0
  0
ARC
  5
4C42
  8
0
  6
BYBLOCK
 62
     0
 10
20495.17084499999
 20
4912.7287530000031
 30
0.0
 40
15.0
 50
0.0
 51
180.0
  0
ARC
  5
4C43
  8
0
  6
BYBLOCK
 62
     0
 10
25562.680082999981
 20
4912.7287530000031
 30
0.0
 40
15.0
 50
180.0
 51
0.0
  0
ARC
  5
4C44
  8
0
  6
BYBLOCK
 62
     0
 10
25562.680082999981
 20
4912.7287530000031
 30
0.0
 40
15.0
 50
0.0
 51
180.0
  0
ARC
  5
4C45
  8
0
  6
BYBLOCK
 62
     0
 10
25605.180082999981
 20
4912.7287530000031
 30
0.0
 40
15.0
 50
0.0
 51
180.0
  0
ARC
  5
4C46
  8
0
  6
BYBLOCK
 62
     0
 10
25605.180082999981
 20
4912.7287530000031
 30
0.0
 40
15.0
 50
180.0
 51
0.0
  0
ARC
  5
4C47
  8
0
  6
BYBLOCK
 62
     0
 10
17927.670844999979
 20
4912.7287530000031
 30
0.0
 40
15.0
 50
0.0
 51
180.0
  0
ARC
  5
4C48
  8
0
  6
BYBLOCK
 62
     0
 10
17927.670844999979
 20
4912.7287530000031
 30
0.0
 40
15.0
 50
180.0
 51
0.0
  0
ARC
  5
4C49
  8
0
  6
BYBLOCK
 62
     0
 10
17885.17084499999
 20
4912.7287530000031
 30
0.0
 40
15.0
 50
180.0
 51
0.0
  0
ARC
  5
4C4A
  8
0
  6
BYBLOCK
 62
     0
 10
17885.17084499999
 20
4912.7287530000031
 30
0.0
 40
15.0
 50
0.0
 51
180.0
  0
ARC
  5
4C4B
  8
0
  6
BYBLOCK
 62
     0
 10
17885.17084499999
 20
4512.7289179999989
 30
0.0
 40
15.0
 50
0.0
 51
180.0
  0
ARC
  5
4C4C
  8
0
  6
BYBLOCK
 62
     0
 10
17885.17084499999
 20
4512.7289179999989
 30
0.0
 40
15.0
 50
180.0
 51
0.0
  0
ARC
  5
4C4D
  8
0
  6
BYBLOCK
 62
     0
 10
25605.176123999961
 20
4512.7289179999989
 30
0.0
 40
15.0
 50
180.0
 51
0.0
  0
ARC
  5
4C4E
  8
0
  6
BYBLOCK
 62
     0
 10
25605.176123999961
 20
4512.7289179999989
 30
0.0
 40
15.0
 50
0.0
 51
180.0
  0
ARC
  5
4C4F
  8
0
  6
BYBLOCK
 62
     0
 10
14156.88291699999
 20
6212.7285880000036
 30
0.0
 40
15.0
 50
90.0
 51
270.0
  0
ARC
  5
4C50
  8
0
  6
BYBLOCK
 62
     0
 10
14156.88291699999
 20
6212.7285880000036
 30
0.0
 40
15.0
 50
270.0
 51
90.0
  0
ARC
  5
4C51
  8
0
  6
BYBLOCK
 62
     0
 10
14156.88291699999
 20
8561.7285880000018
 30
0.0
 40
15.0
 50
270.0
 51
90.0
  0
ARC
  5
4C52
  8
0
  6
BYBLOCK
 62
     0
 10
14156.88291699999
 20
8561.7285880000018
 30
0.0
 40
15.0
 50
90.0
 51
270.0
  0
ARC
  5
4C53
  8
0
  6
BYBLOCK
 62
     0
 10
6756.8841049999901
 20
6212.7285880000036
 30
0.0
 40
15.0
 50
90.0
 51
270.0
  0
ARC
  5
4C54
  8
0
  6
BYBLOCK
 62
     0
 10
6756.8841049999901
 20
6212.7285880000036
 30
0.0
 40
15.0
 50
270.0
 51
90.0
  0
ARC
  5
4C55
  8
0
  6
BYBLOCK
 62
     0
 10
6756.8841049999901
 20
8368.2285880000054
 30
0.0
 40
15.0
 50
270.0
 51
90.0
  0
ARC
  5
4C56
  8
0
  6
BYBLOCK
 62
     0
 10
6756.8841049999901
 20
8368.2285880000054
 30
0.0
 40
15.0
 50
90.0
 51
270.0
  0
ARC
  5
4C57
  8
0
  6
BYBLOCK
 62
     0
 10
13066.88450099999
 20
9360.7302629999976
 30
0.0
 40
15.0
 50
180.0
 51
0.0
  0
ARC
  5
4C58
  8
0
  6
BYBLOCK
 62
     0
 10
13066.88450099999
 20
9360.7302629999976
 30
0.0
 40
15.0
 50
0.0
 51
180.0
  0
ARC
  5
4C59
  8
0
  6
BYBLOCK
 62
     0
 10
13216.88450099999
 20
9360.7302629999976
 30
0.0
 40
15.0
 50
0.0
 51
180.0
  0
ARC
  5
4C5A
  8
0
  6
BYBLOCK
 62
     0
 10
13216.88450099999
 20
9360.7302629999976
 30
0.0
 40
15.0
 50
180.0
 51
0.0
  0
ARC
  5
4C5B
  8
0
  6
BYBLOCK
 62
     0
 10
7666.8845009999914
 20
9760.7286129999993
 30
0.0
 40
15.0
 50
0.0
 51
180.0
  0
ARC
  5
4C5C
  8
0
  6
BYBLOCK
 62
     0
 10
7666.8845009999914
 20
9760.7286129999993
 30
0.0
 40
15.0
 50
180.0
 51
0.0
  0
ARC
  5
4C5D
  8
0
  6
BYBLOCK
 62
     0
 10
13216.88450099999
 20
9760.7286129999993
 30
0.0
 40
15.0
 50
180.0
 51
0.0
  0
ARC
  5
4C5E
  8
0
  6
BYBLOCK
 62
     0
 10
13216.88450099999
 20
9760.7286129999993
 30
0.0
 40
15.0
 50
0.0
 51
180.0
  0
ARC
  5
4C5F
  8
0
  6
BYBLOCK
 62
     0
 10
7846.8845009999914
 20
9360.7302629999976
 30
0.0
 40
15.0
 50
0.0
 51
180.0
  0
ARC
  5
4C60
  8
0
  6
BYBLOCK
 62
     0
 10
7846.8845009999914
 20
9360.7302629999976
 30
0.0
 40
15.0
 50
180.0
 51
0.0
  0
ARC
  5
4C61
  8
0
  6
BYBLOCK
 62
     0
 10
13066.88450099999
 20
9360.7302629999976
 30
0.0
 40
15.0
 50
180.0
 51
0.0
  0
ARC
  5
4C62
  8
0
  6
BYBLOCK
 62
     0
 10
13066.88450099999
 20
9360.7302629999976
 30
0.0
 40
15.0
 50
0.0
 51
180.0
  0
ARC
  5
4C63
  8
0
  6
BYBLOCK
 62
     0
 10
7666.8845009999914
 20
9360.7302629999976
 30
0.0
 40
15.0
 50
180.0
 51
0.0
  0
ARC
  5
4C64
  8
0
  6
BYBLOCK
 62
     0
 10
7666.8845009999914
 20
9360.7302629999976
 30
0.0
 40
15.0
 50
0.0
 51
180.0
  0
ARC
  5
4C65
  8
0
  6
BYBLOCK
 62
     0
 10
7846.8845009999914
 20
9360.7302629999976
 30
0.0
 40
15.0
 50
0.0
 51
180.0
  0
ARC
  5
4C66
  8
0
  6
BYBLOCK
 62
     0
 10
7846.8845009999914
 20
9360.7302629999976
 30
0.0
 40
15.0
 50
180.0
 51
0.0
  0
ARC
  5
4C67
  8
0
  6
BYBLOCK
 62
     0
 10
13024.382521999971
 20
4912.7287519999991
 30
0.0
 40
15.0
 50
180.0
 51
0.0
  0
ARC
  5
4C68
  8
0
  6
BYBLOCK
 62
     0
 10
13024.382521999971
 20
4912.7287519999991
 30
0.0
 40
15.0
 50
0.0
 51
180.0
  0
ARC
  5
4C69
  8
0
  6
BYBLOCK
 62
     0
 10
13066.88252199998
 20
4912.7287519999991
 30
0.0
 40
15.0
 50
0.0
 51
180.0
  0
ARC
  5
4C6A
  8
0
  6
BYBLOCK
 62
     0
 10
13066.88252199998
 20
4912.7287519999991
 30
0.0
 40
15.0
 50
180.0
 51
0.0
  0
ARC
  5
4C6B
  8
0
  6
BYBLOCK
 62
     0
 10
10456.88450099999
 20
4912.7287530000031
 30
0.0
 40
15.0
 50
0.0
 51
180.0
  0
ARC
  5
4C6C
  8
0
  6
BYBLOCK
 62
     0
 10
10456.88450099999
 20
4912.7287530000031
 30
0.0
 40
15.0
 50
180.0
 51
0.0
  0
ARC
  5
4C6D
  8
0
  6
BYBLOCK
 62
     0
 10
13024.38450099999
 20
4912.7287530000031
 30
0.0
 40
15.0
 50
180.0
 51
0.0
  0
ARC
  5
4C6E
  8
0
  6
BYBLOCK
 62
     0
 10
13024.38450099999
 20
4912.7287530000031
 30
0.0
 40
15.0
 50
0.0
 51
180.0
  0
ARC
  5
4C6F
  8
0
  6
BYBLOCK
 62
     0
 10
7846.8845009999914
 20
4512.7289170000004
 30
0.0
 40
15.0
 50
0.0
 51
180.0
  0
ARC
  5
4C70
  8
0
  6
BYBLOCK
 62
     0
 10
7846.8845009999914
 20
4512.7289170000004
 30
0.0
 40
15.0
 50
180.0
 51
0.0
  0
ARC
  5
4C71
  8
0
  6
BYBLOCK
 62
     0
 10
13066.88252199998
 20
4512.7289170000004
 30
0.0
 40
15.0
 50
180.0
 51
0.0
  0
ARC
  5
4C72
  8
0
  6
BYBLOCK
 62
     0
 10
13066.88252199998
 20
4512.7289170000004
 30
0.0
 40
15.0
 50
0.0
 51
180.0
  0
ARC
  5
4C73
  8
0
  6
BYBLOCK
 62
     0
 10
7889.3845009999868
 20
4912.7287519999991
 30
0.0
 40
15.0
 50
0.0
 51
180.0
  0
ARC
  5
4C74
  8
0
  6
BYBLOCK
 62
     0
 10
7889.3845009999868
 20
4912.7287519999991
 30
0.0
 40
15.0
 50
180.0
 51
0.0
  0
ARC
  5
4C75
  8
0
  6
BYBLOCK
 62
     0
 10
7846.8845009999914
 20
4912.7287519999991
 30
0.0
 40
15.0
 50
180.0
 51
0.0
  0
ARC
  5
4C76
  8
0
  6
BYBLOCK
 62
     0
 10
7846.8845009999914
 20
4912.7287519999991
 30
0.0
 40
15.0
 50
0.0
 51
180.0
  0
ARC
  5
4C77
  8
0
  6
BYBLOCK
 62
     0
 10
10456.88450099999
 20
4912.7287519999991
 30
0.0
 40
15.0
 50
180.0
 51
0.0
  0
ARC
  5
4C78
  8
0
  6
BYBLOCK
 62
     0
 10
10456.88450099999
 20
4912.7287519999991
 30
0.0
 40
15.0
 50
0.0
 51
180.0
  0
ARC
  5
4C79
  8
0
  6
BYBLOCK
 62
     0
 10
7889.3845009999868
 20
4912.7287519999991
 30
0.0
 40
15.0
 50
0.0
 51
180.0
  0
ARC
  5
4C7A
  8
0
  6
BYBLOCK
 62
     0
 10
7889.3845009999868
 20
4912.7287519999991
 30
0.0
 40
15.0
 50
180.0
 51
0.0
  0
LINE
  5
4DBF
  8
0-1
  6
CONTINUOUS
 62
     3
 10
25499.17910599996
 20
8311.2286080000031
 30
0.0
 11
25499.17910599996
 21
8343.2285150000007
 31
0.0
  0
LINE
  5
4DC0
  8
0-1
  6
CONTINUOUS
 62
     3
 10
25648.178498999969
 20
8235.0418860000027
 30
0.0
 11
25605.17638799996
 21
8235.0418860000027
 31
0.0
  0
LINE
  5
4DC1
  8
0-1
  6
CONTINUOUS
 62
     3
 10
25648.178498999961
 20
8561.2289369999999
 30
0.0
 11
25648.178498999961
 21
8235.0418860000027
 31
0.0
  0
LINE
  5
4DC2
  8
0-1
  6
CONTINUOUS
 62
     3
 10
25213.21191299997
 20
8307.6931870000008
 30
0.0
 11
25181.212995999958
 21
8339.6930949999969
 31
0.0
  0
LINE
  5
4DC3
  8
0-1
  6
CONTINUOUS
 62
     3
 10
25494.178841999961
 20
8348.2287790000028
 30
0.0
 11
25184.748415999959
 21
8348.2287790000028
 31
0.0
  0
LINE
  5
4DC4
  8
0-1
  6
CONTINUOUS
 62
     3
 10
25499.17910599996
 20
8339.8296820000032
 30
0.0
 11
25181.08234699997
 21
8339.8296820000032
 31
0.0
  0
LINE
  5
4DC5
  8
0-1
  6
CONTINUOUS
 62
     3
 10
25494.178841999961
 20
8306.2283440000028
 30
0.0
 11
25216.749312999971
 21
8306.2283440000028
 31
0.0
  0
LINE
  5
4DC6
  8
0-1
  6
CONTINUOUS
 62
     3
 10
25499.17910599996
 20
8314.6284309999974
 30
0.0
 11
25206.27765999996
 21
8314.6284309999974
 31
0.0
  0
LINE
  5
4DC7
  8
0-1
  6
CONTINUOUS
 62
     3
 10
25499.17910599996
 20
8323.0285179999992
 30
0.0
 11
25197.878561999962
 21
8323.0285179999992
 31
0.0
  0
LINE
  5
4DC8
  8
0-1
  6
CONTINUOUS
 62
     3
 10
25499.17910599996
 20
8331.4295950000032
 30
0.0
 11
25189.47748599996
 21
8331.4295950000032
 31
0.0
  0
LINE
  5
4DC9
  8
0-1
  6
CONTINUOUS
 62
     3
 10
23344.64231399999
 20
8307.6931870000008
 30
0.0
 11
23376.63925199999
 21
8339.6930949999969
 31
0.0
  0
LINE
  5
4DCA
  8
0-1
  6
CONTINUOUS
 62
     3
 10
23058.677099999979
 20
8311.2286080000031
 30
0.0
 11
23058.677099999979
 21
8343.2285150000007
 31
0.0
  0
LINE
  5
4DCB
  8
0-1
  6
CONTINUOUS
 62
     3
 10
22931.675146999991
 20
8311.2286080000031
 30
0.0
 11
22931.675146999991
 21
8343.2285150000007
 31
0.0
  0
LINE
  5
4DCC
  8
0-1
  6
CONTINUOUS
 62
     3
 10
23058.677099999979
 20
8314.6284309999974
 30
0.0
 11
23351.574587999981
 21
8314.6284309999974
 31
0.0
  0
LINE
  5
4DCD
  8
0-1
  6
CONTINUOUS
 62
     3
 10
23058.677099999979
 20
8323.0285179999992
 30
0.0
 11
23359.975664999991
 21
8323.0285179999992
 31
0.0
  0
LINE
  5
4DCE
  8
0-1
  6
CONTINUOUS
 62
     3
 10
23063.677363999981
 20
8306.2283440000028
 30
0.0
 11
23341.104913999981
 21
8306.2283440000028
 31
0.0
  0
LINE
  5
4DCF
  8
0-1
  6
CONTINUOUS
 62
     3
 10
23058.677099999979
 20
8331.4295950000032
 30
0.0
 11
23368.374761999989
 21
8331.4295950000032
 31
0.0
  0
LINE
  5
4DD0
  8
0-1
  6
CONTINUOUS
 62
     3
 10
23058.677099999979
 20
8339.8296820000032
 30
0.0
 11
23376.771879999978
 21
8339.8296820000032
 31
0.0
  0
LINE
  5
4DD1
  8
0-1
  6
CONTINUOUS
 62
     3
 10
23063.677363999981
 20
8348.2287790000028
 30
0.0
 11
23373.105811000001
 21
8348.2287790000028
 31
0.0
  0
LINE
  5
4DD2
  8
0-1
  6
CONTINUOUS
 62
     3
 10
22645.709933999991
 20
8307.6931870000008
 30
0.0
 11
22613.71299599998
 21
8339.6930949999969
 31
0.0
  0
LINE
  5
4DD3
  8
0-1
  6
CONTINUOUS
 62
     3
 10
22926.67686299999
 20
8306.2283440000028
 30
0.0
 11
22649.245353999991
 21
8306.2283440000028
 31
0.0
  0
LINE
  5
4DD4
  8
0-1
  6
CONTINUOUS
 62
     3
 10
22926.67686299999
 20
8348.2287790000028
 30
0.0
 11
22617.246435999969
 21
8348.2287790000028
 31
0.0
  0
LINE
  5
4DD5
  8
0-1
  6
CONTINUOUS
 62
     3
 10
22931.675146999991
 20
8314.6284309999974
 30
0.0
 11
22638.777659999982
 21
8314.6284309999974
 31
0.0
  0
LINE
  5
4DD6
  8
0-1
  6
CONTINUOUS
 62
     3
 10
22931.675146999991
 20
8323.0285179999992
 30
0.0
 11
22630.376582999968
 21
8323.0285179999992
 31
0.0
  0
LINE
  5
4DD7
  8
0-1
  6
CONTINUOUS
 62
     3
 10
22931.675146999991
 20
8331.4295950000032
 30
0.0
 11
22621.977485999982
 21
8331.4295950000032
 31
0.0
  0
LINE
  5
4DD8
  8
0-1
  6
CONTINUOUS
 62
     3
 10
22931.675146999991
 20
8339.8296820000032
 30
0.0
 11
22613.582347999982
 21
8339.8296820000032
 31
0.0
  0
LINE
  5
4DD9
  8
0-1
  6
CONTINUOUS
 62
     3
 10
21904.28322899999
 20
8297.2284620000028
 30
0.0
 11
22952.677839999971
 21
8297.2284620000028
 31
0.0
  0
LINE
  5
4DDA
  8
0-1
  6
CONTINUOUS
 62
     3
 10
21904.28322899999
 20
8357.2286600000025
 30
0.0
 11
22952.677839999971
 21
8357.2286600000025
 31
0.0
  0
LINE
  5
4DDB
  8
0-1
  6
CONTINUOUS
 62
     3
 10
25648.178498999961
 20
8431.2280139999984
 30
0.0
 11
21904.28322899999
 21
8431.2280139999984
 31
0.0
  0
LINE
  5
4DDC
  8
0-1
  6
CONTINUOUS
 62
     3
 10
23037.674407999992
 20
8357.2286600000025
 30
0.0
 11
25520.17783899996
 21
8357.2286600000025
 31
0.0
  0
LINE
  5
4DDD
  8
0-1
  6
CONTINUOUS
 62
     3
 10
23037.674407999992
 20
8297.2284620000028
 30
0.0
 11
25520.17783899996
 21
8297.2284620000028
 31
0.0
  0
LINE
  5
4DDE
  8
0-1
  6
CONTINUOUS
 62
     3
 10
21904.28322899999
 20
8561.2289369999999
 30
0.0
 11
25648.178498999961
 21
8561.2289369999999
 31
0.0
  0
LINE
  5
4DDF
  8
0-1
  6
CONTINUOUS
 62
     3
 10
20558.671821999989
 20
8314.6284309999974
 30
0.0
 11
20851.573267999989
 21
8314.6284309999974
 31
0.0
  0
LINE
  5
4DE0
  8
0-1
  6
CONTINUOUS
 62
     3
 10
20558.671821999989
 20
8323.0285179999992
 30
0.0
 11
20859.97038599999
 21
8323.0285179999992
 31
0.0
  0
LINE
  5
4DE1
  8
0-1
  6
CONTINUOUS
 62
     3
 10
20563.67208599997
 20
8306.2283440000028
 30
0.0
 11
20841.101614999981
 21
8306.2283440000028
 31
0.0
  0
LINE
  5
4DE2
  8
0-1
  6
CONTINUOUS
 62
     3
 10
20558.671821999989
 20
8331.4295950000032
 30
0.0
 11
20868.373441999989
 21
8331.4295950000032
 31
0.0
  0
LINE
  5
4DE3
  8
0-1
  6
CONTINUOUS
 62
     3
 10
20563.67208599997
 20
8348.2287790000028
 30
0.0
 11
20873.100532999972
 21
8348.2287790000028
 31
0.0
  0
LINE
  5
4DE4
  8
0-1
  6
CONTINUOUS
 62
     3
 10
20558.671821999989
 20
8311.2286080000031
 30
0.0
 11
20558.671821999989
 21
8343.2285150000007
 31
0.0
  0
LINE
  5
4DE5
  8
0-1
  6
CONTINUOUS
 62
     3
 10
20431.66986899999
 20
8311.2286080000031
 30
0.0
 11
20431.66986899999
 21
8343.2285150000007
 31
0.0
  0
LINE
  5
4DE6
  8
0-1
  6
CONTINUOUS
 62
     3
 10
20558.671821999989
 20
8339.8296820000032
 30
0.0
 11
20876.766600999981
 21
8339.8296820000032
 31
0.0
  0
LINE
  5
4DE7
  8
0-1
  6
CONTINUOUS
 62
     3
 10
20844.637034999982
 20
8307.6931870000008
 30
0.0
 11
20876.633972999989
 21
8339.6930949999969
 31
0.0
  0
LINE
  5
4DE8
  8
0-1
  6
CONTINUOUS
 62
     3
 10
20145.708613999981
 20
8307.6931870000008
 30
0.0
 11
20113.70771699999
 21
8339.6930949999969
 31
0.0
  0
LINE
  5
4DE9
  8
0-1
  6
CONTINUOUS
 62
     3
 10
20431.66986899999
 20
8339.8296820000032
 30
0.0
 11
20113.577068999992
 21
8339.8296820000032
 31
0.0
  0
LINE
  5
4DEA
  8
0-1
  6
CONTINUOUS
 62
     3
 10
20431.66986899999
 20
8331.4295950000032
 30
0.0
 11
20121.972206999992
 21
8331.4295950000032
 31
0.0
  0
LINE
  5
4DEB
  8
0-1
  6
CONTINUOUS
 62
     3
 10
20431.66986899999
 20
8323.0285179999992
 30
0.0
 11
20130.371303999978
 21
8323.0285179999992
 31
0.0
  0
LINE
  5
4DEC
  8
0-1
  6
CONTINUOUS
 62
     3
 10
20431.66986899999
 20
8314.6284309999974
 30
0.0
 11
20138.770401999991
 21
8314.6284309999974
 31
0.0
  0
LINE
  5
4DED
  8
0-1
  6
CONTINUOUS
 62
     3
 10
20426.671583999989
 20
8348.2287790000028
 30
0.0
 11
20117.241157999979
 21
8348.2287790000028
 31
0.0
  0
LINE
  5
4DEE
  8
0-1
  6
CONTINUOUS
 62
     3
 10
20426.671583999989
 20
8306.2283440000028
 30
0.0
 11
20149.244034999982
 21
8306.2283440000028
 31
0.0
  0
LINE
  5
4DEF
  8
0-1
  6
CONTINUOUS
 62
     3
 10
17996.17010599999
 20
8306.2283440000028
 30
0.0
 11
18273.599635999999
 21
8306.2283440000028
 31
0.0
  0
LINE
  5
4DF0
  8
0-1
  6
CONTINUOUS
 62
     3
 10
17991.171822
 20
8311.2286080000031
 30
0.0
 11
17991.171822
 21
8343.2285150000007
 31
0.0
  0
LINE
  5
4DF1
  8
0-1
  6
CONTINUOUS
 62
     3
 10
17842.17044999998
 20
8235.0418860000009
 30
0.0
 11
17885.168602000002
 21
8235.0418860000027
 31
0.0
  0
LINE
  5
4DF2
  8
0-1
  6
CONTINUOUS
 62
     3
 10
17842.17044999998
 20
8235.0418860000027
 30
0.0
 11
17842.17044999998
 21
8561.2289369999999
 31
0.0
  0
LINE
  5
4DF3
  8
0-1
  6
CONTINUOUS
 62
     3
 10
17996.17010599999
 20
8348.2287790000028
 30
0.0
 11
18305.60053299999
 21
8348.2287790000028
 31
0.0
  0
LINE
  5
4DF4
  8
0-1
  6
CONTINUOUS
 62
     3
 10
18277.133075999991
 20
8307.6931870000008
 30
0.0
 11
18309.133973999978
 21
8339.6930949999969
 31
0.0
  0
LINE
  5
4DF5
  8
0-1
  6
CONTINUOUS
 62
     3
 10
17991.171822
 20
8339.8296820000032
 30
0.0
 11
18309.266600999999
 21
8339.8296820000032
 31
0.0
  0
LINE
  5
4DF6
  8
0-1
  6
CONTINUOUS
 62
     3
 10
17991.171822
 20
8331.4295950000032
 30
0.0
 11
18300.869483999992
 21
8331.4295950000032
 31
0.0
  0
LINE
  5
4DF7
  8
0-1
  6
CONTINUOUS
 62
     3
 10
17991.171822
 20
8323.0285179999992
 30
0.0
 11
18292.470386000001
 21
8323.0285179999992
 31
0.0
  0
LINE
  5
4DF8
  8
0-1
  6
CONTINUOUS
 62
     3
 10
17991.171822
 20
8314.6284309999974
 30
0.0
 11
18284.071289
 21
8314.6284309999974
 31
0.0
  0
LINE
  5
4DF9
  8
0-1
  6
CONTINUOUS
 62
     3
 10
17970.169129999998
 20
8297.2284620000028
 30
0.0
 11
20452.670580999991
 21
8297.2284620000028
 31
0.0
  0
LINE
  5
4DFA
  8
0-1
  6
CONTINUOUS
 62
     3
 10
17970.169129999998
 20
8357.2286600000025
 30
0.0
 11
20452.670580999991
 21
8357.2286600000025
 31
0.0
  0
LINE
  5
4DFB
  8
0-1
  6
CONTINUOUS
 62
     3
 10
17842.17044999998
 20
8561.2289369999999
 30
0.0
 11
21604.283229000001
 21
8561.2289369999999
 31
0.0
  0
LINE
  5
4DFC
  8
0-1
  6
CONTINUOUS
 62
     3
 10
20537.673088999982
 20
8357.2286600000025
 30
0.0
 11
21604.283229000001
 21
8357.2286600000025
 31
0.0
  0
LINE
  5
4DFD
  8
0-1
  6
CONTINUOUS
 62
     3
 10
20537.673088999982
 20
8297.2284620000028
 30
0.0
 11
21604.283229000001
 21
8297.2284620000028
 31
0.0
  0
LINE
  5
4DFE
  8
0-1
  6
CONTINUOUS
 62
     3
 10
21604.283229000001
 20
8431.2280139999984
 30
0.0
 11
17842.17044999998
 21
8431.2280140000003
 31
0.0
  0
LINE
  5
4DFF
  8
0-1
  6
CONTINUOUS
 62
     3
 10
20495.17084499999
 20
8431.2280139999984
 30
0.0
 11
20495.17084499999
 21
8561.2289369999999
 31
0.0
  0
LINE
  5
4E00
  8
0-1
  6
CONTINUOUS
 62
     3
 10
22995.176123999961
 20
8431.2280139999984
 30
0.0
 11
22995.176123999961
 21
8561.2289369999999
 31
0.0
  0
ARC
  5
4E01
  8
0-1
  6
CONTINUOUS
 62
     3
 10
25494.178841999961
 20
8343.2285150000007
 30
0.0
 40
5.0
 50
0.0
 51
90.0
  0
ARC
  5
4E02
  8
0-1
  6
CONTINUOUS
 62
     3
 10
25494.178841999961
 20
8311.2286080000031
 30
0.0
 40
5.0
 50
269.9999850001808
 51
0.0
  0
ARC
  5
4E03
  8
0-1
  6
CONTINUOUS
 62
     3
 10
25184.748415999959
 20
8343.2285150000007
 30
0.0
 40
5.0
 50
90.0
 51
224.99998499997989
  0
ARC
  5
4E04
  8
0-1
  6
CONTINUOUS
 62
     3
 10
25216.749312999971
 20
8311.2286080000031
 30
0.0
 40
5.0
 50
224.99998499997989
 51
269.9999850001808
  0
ARC
  5
4E05
  8
0-1
  6
CONTINUOUS
 62
     3
 10
23373.105811000001
 20
8343.2285150000007
 30
0.0
 40
5.0
 50
314.99998500027471
 51
90.0
  0
ARC
  5
4E06
  8
0-1
  6
CONTINUOUS
 62
     3
 10
23341.104913999981
 20
8311.2286080000031
 30
0.0
 40
5.0
 50
269.9999850001808
 51
314.99998500027471
  0
ARC
  5
4E07
  8
0-1
  6
CONTINUOUS
 62
     3
 10
23063.677363999981
 20
8311.2286080000031
 30
0.0
 40
5.0
 50
180.0
 51
269.9999850001808
  0
ARC
  5
4E08
  8
0-1
  6
CONTINUOUS
 62
     3
 10
23063.677363999981
 20
8343.2285150000007
 30
0.0
 40
5.0
 50
90.0
 51
180.0
  0
ARC
  5
4E09
  8
0-1
  6
CONTINUOUS
 62
     3
 10
22926.67686299999
 20
8343.2285150000007
 30
0.0
 40
5.0
 50
0.0
 51
90.0
  0
ARC
  5
4E0A
  8
0-1
  6
CONTINUOUS
 62
     3
 10
22926.67686299999
 20
8311.2286080000031
 30
0.0
 40
5.0
 50
269.9999850001808
 51
0.0
  0
ARC
  5
4E0B
  8
0-1
  6
CONTINUOUS
 62
     3
 10
22649.245353999991
 20
8311.2286080000031
 30
0.0
 40
5.0
 50
224.99998499997989
 51
269.9999850001808
  0
ARC
  5
4E0C
  8
0-1
  6
CONTINUOUS
 62
     3
 10
22617.246435999969
 20
8343.2285150000007
 30
0.0
 40
5.0
 50
90.0
 51
224.99998499997989
  0
ARC
  5
4E0D
  8
0-1
  6
CONTINUOUS
 62
     3
 10
20563.67208599997
 20
8311.2286080000031
 30
0.0
 40
5.0
 50
180.0
 51
269.9999850001808
  0
ARC
  5
4E0E
  8
0-1
  6
CONTINUOUS
 62
     3
 10
20563.67208599997
 20
8343.2285150000007
 30
0.0
 40
5.0
 50
90.0
 51
180.0
  0
ARC
  5
4E0F
  8
0-1
  6
CONTINUOUS
 62
     3
 10
20841.101614999981
 20
8311.2286080000031
 30
0.0
 40
5.0
 50
269.9999850001808
 51
314.99998500027471
  0
ARC
  5
4E10
  8
0-1
  6
CONTINUOUS
 62
     3
 10
20426.671583999989
 20
8311.2286080000031
 30
0.0
 40
5.0
 50
269.9999850001808
 51
0.0
  0
ARC
  5
4E11
  8
0-1
  6
CONTINUOUS
 62
     3
 10
20426.671583999989
 20
8343.2285150000007
 30
0.0
 40
5.0
 50
0.0
 51
90.0
  0
ARC
  5
4E12
  8
0-1
  6
CONTINUOUS
 62
     3
 10
20873.100532999972
 20
8343.2285150000007
 30
0.0
 40
5.0
 50
314.99998500027471
 51
90.0
  0
ARC
  5
4E13
  8
0-1
  6
CONTINUOUS
 62
     3
 10
20117.241157999979
 20
8343.2285150000007
 30
0.0
 40
5.0
 50
90.0
 51
224.99998499997989
  0
ARC
  5
4E14
  8
0-1
  6
CONTINUOUS
 62
     3
 10
20149.244034999982
 20
8311.2286080000031
 30
0.0
 40
5.0
 50
224.99998499997989
 51
269.9999850001808
  0
ARC
  5
4E15
  8
0-1
  6
CONTINUOUS
 62
     3
 10
18305.60053299999
 20
8343.2285150000007
 30
0.0
 40
5.0
 50
314.99998500027471
 51
90.0
  0
ARC
  5
4E16
  8
0-1
  6
CONTINUOUS
 62
     3
 10
17996.17010599999
 20
8343.2285150000007
 30
0.0
 40
5.0
 50
90.0
 51
180.0
  0
ARC
  5
4E17
  8
0-1
  6
CONTINUOUS
 62
     3
 10
17996.17010599999
 20
8311.2286080000031
 30
0.0
 40
5.0
 50
180.0
 51
269.9999850001808
  0
ARC
  5
4E18
  8
0-1
  6
CONTINUOUS
 62
     3
 10
18273.599635999999
 20
8311.2286080000031
 30
0.0
 40
5.0
 50
269.9999850001808
 51
314.99998500027471
  0
LINE
  5
4E19
  8
SUNPOU
  6
CONTINUOUS
 62
     4
 10
17842.16846999999
 20
8641.2289370000017
 30
0.0
 11
17842.16846999999
 21
9840.686549
 31
0.0
  0
LINE
  5
4E1A
  8
SUNPOU
  6
CONTINUOUS
 62
     4
 10
25648.178498999961
 20
8641.2289370000017
 30
0.0
 11
25648.178498999961
 21
9840.686549
 31
0.0
  0
LINE
  5
4E1B
  8
SUNPOU
  6
CONTINUOUS
 62
     4
 10
17845.16846999999
 20
9760.686549
 30
0.0
 11
25645.178498999961
 21
9760.686549
 31
0.0
  0
LINE
  5
4E1C
  8
SUNPOU
  6
CONTINUOUS
 62
     4
 10
17885.170580999991
 20
8641.2289370000017
 30
0.0
 11
17885.170580999991
 21
9440.7287790000028
 31
0.0
  0
LINE
  5
4E1D
  8
SUNPOU
  6
CONTINUOUS
 62
     4
 10
25605.17638799996
 20
8641.2289370000017
 30
0.0
 11
25605.17638799996
 21
9440.7287790000028
 31
0.0
  0
LINE
  5
4E1E
  8
SUNPOU
  6
CONTINUOUS
 62
     4
 10
17885.170580999991
 20
9360.7287789999955
 30
0.0
 11
25605.17638799996
 21
9360.7287789999955
 31
0.0
  0
LINE
  5
4E1F
  8
SUNPOU
  6
CONTINUOUS
 62
     4
 10
17885.170580999991
 20
8641.2289370000017
 30
0.0
 11
17885.170580999991
 21
9440.7287790000028
 31
0.0
  0
LINE
  5
4E20
  8
SUNPOU
  6
CONTINUOUS
 62
     4
 10
17842.16846999999
 20
8641.2289370000017
 30
0.0
 11
17842.16846999999
 21
9440.7287790000028
 31
0.0
  0
LINE
  5
4E21
  8
SUNPOU
  6
CONTINUOUS
 62
     4
 10
17885.170580999991
 20
9360.7287789999955
 30
0.0
 11
18125.170580999991
 21
9360.7287789999955
 31
0.0
  0
LINE
  5
4E22
  8
SUNPOU
  6
CONTINUOUS
 62
     4
 10
17845.16846999999
 20
9360.7287789999955
 30
0.0
 11
17605.168469999979
 21
9360.7287789999955
 31
0.0
  0
LINE
  5
4E23
  8
SUNPOU
  6
CONTINUOUS
 62
     4
 10
17885.170580999991
 20
9360.7287789999955
 30
0.0
 11
17845.16846999999
 21
9360.7287789999955
 31
0.0
  0
LINE
  5
4E24
  8
SUNPOU
  6
CONTINUOUS
 62
     4
 10
25605.17638799996
 20
8641.2289370000017
 30
0.0
 11
25605.17638799996
 21
9440.7287790000028
 31
0.0
  0
LINE
  5
4E25
  8
SUNPOU
  6
CONTINUOUS
 62
     4
 10
25605.17638799996
 20
9360.7287789999955
 30
0.0
 11
25365.17638799996
 21
9360.7287789999955
 31
0.0
  0
LINE
  5
4E26
  8
SUNPOU
  6
CONTINUOUS
 62
     4
 10
25645.178498999961
 20
9360.7287789999955
 30
0.0
 11
25885.178498999961
 21
9360.7287789999955
 31
0.0
  0
LINE
  5
4E27
  8
SUNPOU
  6
CONTINUOUS
 62
     4
 10
25605.17638799996
 20
9360.7287789999955
 30
0.0
 11
25645.178498999961
 21
9360.7287789999955
 31
0.0
  0
TEXT
  5
4E28
  8
0
 62
     7
 10
25768.178498999961
 20
9440.7287790000028
 30
0.0
 40
160.0
  1
43
  0
TEXT
  5
4E29
  8
0
 62
     7
 10
17485.168469999979
 20
9440.7287790000028
 30
0.0
 40
160.0
  1
43
  0
TEXT
  5
4E2A
  8
0
 62
     7
 10
20705.173484499981
 20
9440.7287790000028
 30
0.0
 40
160.0
  1
2567.5 \U+00D7 ｎ ＋ 85
  0
TEXT
  5
4E2B
  8
0
 62
     7
 10
20651.840151166649
 20
9840.686549
 30
0.0
 40
160.0
  1
2567.5 \U+00D7 ｎ ＋ 171
  0
ARC
  5
4E2C
  8
0
  6
BYBLOCK
 62
     0
 10
17842.16846999999
 20
9760.686549
 30
0.0
 40
15.0
 50
0.0
 51
180.0
  0
ARC
  5
4E2D
  8
0
  6
BYBLOCK
 62
     0
 10
17842.16846999999
 20
9760.686549
 30
0.0
 40
15.0
 50
180.0
 51
0.0
  0
ARC
  5
4E2E
  8
0
  6
BYBLOCK
 62
     0
 10
25648.178498999961
 20
9760.686549
 30
0.0
 40
15.0
 50
180.0
 51
0.0
  0
ARC
  5
4E2F
  8
0
  6
BYBLOCK
 62
     0
 10
25648.178498999961
 20
9760.686549
 30
0.0
 40
15.0
 50
0.0
 51
180.0
  0
ARC
  5
4E30
  8
0
  6
BYBLOCK
 62
     0
 10
17885.170580999991
 20
9360.7287789999955
 30
0.0
 40
15.0
 50
0.0
 51
180.0
  0
ARC
  5
4E31
  8
0
  6
BYBLOCK
 62
     0
 10
17885.170580999991
 20
9360.7287789999955
 30
0.0
 40
15.0
 50
180.0
 51
0.0
  0
ARC
  5
4E32
  8
0
  6
BYBLOCK
 62
     0
 10
25605.17638799996
 20
9360.7287789999955
 30
0.0
 40
15.0
 50
180.0
 51
0.0
  0
ARC
  5
4E33
  8
0
  6
BYBLOCK
 62
     0
 10
25605.17638799996
 20
9360.7287789999955
 30
0.0
 40
15.0
 50
0.0
 51
180.0
  0
ARC
  5
4E34
  8
0
  6
BYBLOCK
 62
     0
 10
17885.170580999991
 20
9360.7287789999955
 30
0.0
 40
15.0
 50
0.0
 51
180.0
  0
ARC
  5
4E35
  8
0
  6
BYBLOCK
 62
     0
 10
17885.170580999991
 20
9360.7287789999955
 30
0.0
 40
15.0
 50
180.0
 51
0.0
  0
ARC
  5
4E36
  8
0
  6
BYBLOCK
 62
     0
 10
17842.16846999999
 20
9360.7287789999955
 30
0.0
 40
15.0
 50
180.0
 51
0.0
  0
ARC
  5
4E37
  8
0
  6
BYBLOCK
 62
     0
 10
17842.16846999999
 20
9360.7287789999955
 30
0.0
 40
15.0
 50
0.0
 51
180.0
  0
ARC
  5
4E38
  8
0
  6
BYBLOCK
 62
     0
 10
25605.17638799996
 20
9360.7287789999955
 30
0.0
 40
15.0
 50
180.0
 51
0.0
  0
ARC
  5
4E39
  8
0
  6
BYBLOCK
 62
     0
 10
25605.17638799996
 20
9360.7287789999955
 30
0.0
 40
15.0
 50
0.0
 51
180.0
  0
ARC
  5
4E3A
  8
0
  6
BYBLOCK
 62
     0
 10
25648.178498999961
 20
9360.7287789999955
 30
0.0
 40
15.0
 50
0.0
 51
180.0
  0
ARC
  5
4E3B
  8
0
  6
BYBLOCK
 62
     0
 10
25648.178498999961
 20
9360.7287789999955
 30
0.0
 40
15.0
 50
180.0
 51
0.0
  0
LINE
  5
4E3E
  8
2-0
  6
CONTINUOUS
 62
     3
 10
6083.3142289664474
 20
19832.312749999961
 30
0.0
 11
9827.3450569664437
 21
19832.312749999961
 31
0.0
  0
TEXT
  5
4EE1
  8
NAME
 10
24033.053546554009
 20
1076.0
 30
0.0
 40
360.0
  1
H
 41
0.6700000000000002
  7
00
  0
TEXT
  5
4EE2
  8
NAME
 10
23657.221561973682
 20
1076.0
 30
0.0
 40
360.0
  1
（ ）
  7
01
  0
TEXT
  5
4EE3
  8
NAME
 10
21933.552716389011
 20
1876.0
 30
0.0
 40
360.0
  1
ヨドガレージ ラヴィージュ
 41
0.75
  7
01
  0
TEXT
  5
4EE4
  8
NAME
 10
21550.022791898391
 20
1076.6369801169251
 30
0.0
 40
360.0
  1
VGCU-2652
 41
0.6700000000000002
  0
LINE
  5
4EE5
  8
NAME
  6
CONTINUOUS
 10
26067.886878884299
 20
2236.0
 30
0.0
 11
26067.886878884299
 21
1876.0
 31
0.0
  0
LINE
  5
4EE6
  8
NAME
  6
CONTINUOUS
 10
26167.886878884299
 20
2236.0
 30
0.0
 11
26167.886878884299
 21
1876.0
 31
0.0
  0
LINE
  5
4EE7
  8
NAME
  6
CONTINUOUS
 10
26267.88687888431
 20
2236.0
 30
0.0
 11
26267.88687888431
 21
1876.0
 31
0.0
  0
LINE
  5
4EE8
  8
NAME
  6
CONTINUOUS
 10
26007.886878884299
 20
2236.0
 30
0.0
 11
26327.886878884299
 21
2236.0
 31
0.0
  0
LINE
  5
4EE9
  8
NAME
  6
CONTINUOUS
 10
26327.886878884299
 20
1876.0
 30
0.0
 11
26007.886878884299
 21
1876.0
 31
0.0
  0
TEXT
  5
4EEA
  8
NAME
 10
25346.041792426669
 20
1076.0
 30
0.0
 40
360.0
  1
n
 41
0.6700000000000002
  7
00
  0
TEXT
  5
4EEB
  8
NAME
 10
24557.214549256722
 20
1076.0
 30
0.0
 40
360.0
  1
型（ 連棟）
  7
01
  0
LINE
  5
4F45
  8
2-0
  6
CONTINUOUS
 62
     3
 10
22952.67585999997
 20
17019.819150499989
 30
0.0
 11
23037.676387999971
 21
17019.819150499989
 31
0.0
  0
LINE
  5
4F46
  8
2-0
  6
CONTINUOUS
 62
     3
 10
23037.676387999971
 20
17104.813739499969
 30
0.0
 11
22952.67585999997
 21
17104.813739499969
 31
0.0
  0
LINE
  5
4F47
  8
2-0
  6
CONTINUOUS
 62
     3
 10
22952.67585999997
 20
17104.813739499969
 30
0.0
 11
22952.67585999997
 21
17019.819150499989
 31
0.0
  0
LINE
  5
4F48
  8
2-0
  6
CONTINUOUS
 62
     3
 10
23037.676387999971
 20
17019.819150499989
 30
0.0
 11
23037.676387999971
 21
17104.813739499969
 31
0.0
  0
LINE
  5
4F49
  8
2-0
  6
CONTINUOUS
 62
     6
 10
24626.35023698337
 20
16085.64805005846
 30
0.0
 11
23596.000917983391
 21
16085.64805005846
 31
0.0
  0
LINE
  5
4F4A
  8
2-0
  6
CONTINUOUS
 62
     6
 10
23034.109294999998
 20
17010.678511999999
 30
0.0
 11
23596.000917983391
 21
16085.64805005846
 31
0.0
  0
LINE
  5
4F4B
  8
2-0
  6
CONTINUOUS
 62
     6
 10
23094.387614999989
 20
16860.082677000009
 30
0.0
 11
23034.109294999998
 21
17010.678511999999
 31
0.0
  0
LINE
  5
4F4C
  8
2-0
  6
CONTINUOUS
 62
     6
 10
23034.109294999998
 20
17010.678511999999
 30
0.0
 11
23139.968010000001
 21
16887.770203999971
 31
0.0
  0
LINE
  5
4F4D
  8
2-0
  6
CONTINUOUS
 62
     6
 10
23094.387614999989
 20
16860.082677000009
 30
0.0
 11
23139.968010000001
 21
16887.770203999971
 31
0.0
  0
LINE
  5
4F4E
  8
2-0
  6
CONTINUOUS
 62
     6
 10
23139.968010000001
 20
16887.770203999971
 30
0.0
 11
23034.109294999998
 21
17010.678511999999
 31
0.0
  0
LINE
  5
4F4F
  8
2-0
  6
CONTINUOUS
 62
     6
 10
23034.109294999998
 20
17010.678511999999
 30
0.0
 11
23094.387614999989
 21
16860.082677000009
 31
0.0
  0
LINE
  5
4F50
  8
2-0
  6
CONTINUOUS
 62
     6
 10
23094.387614999989
 20
16860.082677000009
 30
0.0
 11
23034.109294999998
 21
17010.678511999999
 31
0.0
  0
LINE
  5
4F51
  8
2-0
  6
CONTINUOUS
 62
     6
 10
23139.968010000001
 20
16887.770203999971
 30
0.0
 11
23034.109294999998
 21
17010.678511999999
 31
0.0
  0
LINE
  5
4F52
  8
2-0
  6
CONTINUOUS
 62
     6
 10
23139.968010000001
 20
16887.770203999971
 30
0.0
 11
23094.387614999989
 21
16860.082677000009
 31
0.0
  0
TEXT
  5
4F53
  8
2-0
  6
CONTINUOUS
 62
     7
 10
23659.31614531673
 20
16158.64873705844
 30
0.0
 40
160.0
  1
中柱（中）
 72
     4
 11
24080.649478650059
 21
16238.64873705844
 31
0.0
  0
TEXT
  5
4FAC
  8
FILENAME
  6
CONTINUOUS
 10
28527.809523809519
 20
348.0
 30
0.0
 40
200.0
  1
＜VGCU-2652-N-A_0.DXF ＞
  7
FILENAME
 72
     2
 11
32764.0
 21
348.0
 31
0.0
  0
LINE
  5
4FB2
  8
WAKUSEN-01
 10
868.00000000000193
 20
827.99999999999955
 30
0.0
 11
32764.000000000011
 21
827.99999999999943
 31
0.0
  0
LINE
  5
4FB3
  8
WAKUSEN-01
 10
868.00000000000193
 20
827.99999999999955
 30
0.0
 11
868.00000000000193
 21
22484.000000000011
 31
0.0
  0
LINE
  5
4FB4
  8
WAKUSEN-01
 10
32764.000000000011
 20
827.99999999999943
 30
0.0
 11
32764.000000000011
 21
22484.000000000011
 31
0.0
  0
LINE
  5
4FB5
  8
WAKUSEN-01
 10
20560.0
 20
827.99999999999716
 30
0.0
 11
20560.0
 21
2484.0
 31
0.0
  0
LINE
  5
4FB6
  8
WAKUSEN-02
 10
26868.0
 20
827.99999999999261
 30
0.0
 11
26868.0
 21
2484.0
 31
0.0
  0
ENDSEC
  0
EOF
