  0
SECTION
  2
HEADER
  9
$ACADVER
  1
AC1009
  9
$INSBASE
 10
0.0
 20
0.0
 30
0.0
  9
$EXTMIN
 10
867.99324330406671
 20
327.38164749855792
 30
-0.0000000000000053
  9
$EXTMAX
 10
32765.33210850941
 20
22484.553276491992
 30
0.0000000000000099
  9
$LIMMIN
 10
0.0
 20
0.0
  9
$LIMMAX
 10
33600.0
 20
23760.0
  9
$ORTHOMODE
 70
     1
  9
$REGENMODE
 70
     1
  9
$FILLMODE
 70
     1
  9
$QTEXTMODE
 70
     0
  9
$MIRRTEXT
 70
     0
  9
$DRAGMODE
 70
     2
  9
$LTSCALE
 40
80.0
  9
$OSMODE
 70
  3071
  9
$ATTMODE
 70
     1
  9
$TEXTSIZE
 40
0.2
  9
$TRACEWID
 40
0.05
  9
$TEXTSTYLE
  7
00
  9
$CLAYER
  8
0
  9
$CELTYPE
  6
BYLAYER
  9
$CECOLOR
 62
   256
  9
$DIMSCALE
 40
80.0
  9
$DIMASZ
 40
3.0
  9
$DIMEXO
 40
1.0
  9
$DIMDLI
 40
0.38
  9
$DIMRND
 40
0.5
  9
$DIMDLE
 40
0.0
  9
$DIMEXE
 40
1.0
  9
$DIMTP
 40
0.0
  9
$DIMTM
 40
0.0
  9
$DIMTXT
 40
2.0
  9
$DIMCEN
 40
0.09
  9
$DIMTSZ
 40
0.0
  9
$DIMTOL
 70
     0
  9
$DIMLIM
 70
     0
  9
$DIMTIH
 70
     0
  9
$DIMTOH
 70
     0
  9
$DIMSE1
 70
     0
  9
$DIMSE2
 70
     0
  9
$DIMTAD
 70
     1
  9
$DIMZIN
 70
     8
  9
$DIMBLK
  1
DOTSMALL
  9
$DIMASO
 70
     1
  9
$DIMSHO
 70
     1
  9
$DIMPOST
  1

  9
$DIMAPOST
  1

  9
$DIMALT
 70
     0
  9
$DIMALTD
 70
     2
  9
$DIMALTF
 40
25.399999999999999
  9
$DIMLFAC
 40
1.0
  9
$DIMTOFL
 70
     1
  9
$DIMTVP
 40
0.0
  9
$DIMTIX
 70
     0
  9
$DIMSOXD
 70
     0
  9
$DIMSAH
 70
     0
  9
$DIMBLK1
  1

  9
$DIMBLK2
  1

  9
$DIMSTYLE
  2
SUNPOU
  9
$DIMCLRD
 70
     4
  9
$DIMCLRE
 70
     4
  9
$DIMCLRT
 70
     7
  9
$DIMTFAC
 40
1.0
  9
$DIMGAP
 40
1.0
  9
$LUNITS
 70
     2
  9
$LUPREC
 70
     4
  9
$SKETCHINC
 40
0.1
  9
$FILLETRAD
 40
0.0
  9
$AUNITS
 70
     0
  9
$AUPREC
 70
     0
  9
$MENU
  1
acad
  9
$ELEVATION
 40
0.0
  9
$PELEVATION
 40
0.0
  9
$THICKNESS
 40
0.0
  9
$LIMCHECK
 70
     0
  9
$BLIPMODE
 70
     1
  9
$CHAMFERA
 40
0.0
  9
$CHAMFERB
 40
0.0
  9
$SKPOLY
 70
     0
  9
$TDCREATE
 40
2454573.2532631601
  9
$TDUPDATE
 40
2458942.4320629281
  9
$TDINDWG
 40
0.0477697917
  9
$TDUSRTIMER
 40
0.0477690625
  9
$USRTIMER
 70
     1
  9
$ANGBASE
 50
0.0
  9
$ANGDIR
 70
     0
  9
$PDMODE
 70
     0
  9
$PDSIZE
 40
0.0
  9
$PLINEWID
 40
0.0
  9
$COORDS
 70
     1
  9
$SPLFRAME
 70
     0
  9
$SPLINETYPE
 70
     6
  9
$SPLINESEGS
 70
     8
  9
$ATTDIA
 70
     1
  9
$ATTREQ
 70
     1
  9
$HANDLING
 70
     1
  9
$HANDSEED
  5
506F
  9
$SURFTAB1
 70
     6
  9
$SURFTAB2
 70
     6
  9
$SURFTYPE
 70
     6
  9
$SURFU
 70
     6
  9
$SURFV
 70
     6
  9
$UCSNAME
  2

  9
$UCSORG
 10
0.0
 20
0.0
 30
0.0
  9
$UCSXDIR
 10
1.0
 20
0.0
 30
0.0
  9
$UCSYDIR
 10
0.0
 20
1.0
 30
0.0
  9
$PUCSNAME
  2

  9
$PUCSORG
 10
0.0
 20
0.0
 30
0.0
  9
$PUCSXDIR
 10
1.0
 20
0.0
 30
0.0
  9
$PUCSYDIR
 10
0.0
 20
1.0
 30
0.0
  9
$USERI1
 70
     0
  9
$USERI2
 70
     0
  9
$USERI3
 70
     0
  9
$USERI4
 70
     0
  9
$USERI5
 70
     0
  9
$USERR1
 40
0.0
  9
$USERR2
 40
0.0
  9
$USERR3
 40
0.0
  9
$USERR4
 40
0.0
  9
$USERR5
 40
0.0
  9
$WORLDVIEW
 70
     1
  9
$SHADEDGE
 70
     3
  9
$SHADEDIF
 70
    70
  9
$TILEMODE
 70
     1
  9
$MAXACTVP
 70
    16
  9
$PLIMCHECK
 70
     0
  9
$PEXTMIN
 10
1.0000000000000000E+020
 20
1.0000000000000000E+020
 30
1.0000000000000000E+020
  9
$PEXTMAX
 10
-1.0000000000000000E+020
 20
-1.0000000000000000E+020
 30
-1.0000000000000000E+020
  9
$PLIMMIN
 10
0.0
 20
0.0
  9
$PLIMMAX
 10
12.0
 20
9.0
  9
$UNITMODE
 70
     0
  9
$VISRETAIN
 70
     0
  9
$PLINEGEN
 70
     1
  9
$PSLTSCALE
 70
     0
  0
ENDSEC
  0
SECTION
  2
TABLES
  0
TABLE
  2
VPORT
 70
     1
  0
VPORT
  2
*ACTIVE
 70
     0
 10
0.0
 20
0.0
 11
1.0
 21
1.0
 12
16800.0
 22
11880.0
 13
0.0
 23
0.0
 14
1.0
 24
1.0
 15
0.0
 25
0.0
 16
0.0
 26
0.0
 36
1.0
 17
0.0
 27
0.0
 37
0.0
 40
23981.023255813951
 41
2.195652173913043
 42
50.0
 43
0.0
 44
0.0
 50
0.0
 51
0.0
 71
     0
 72
 10000
 73
     1
 74
     1
 75
     0
 76
     0
 77
     0
 78
     0
  0
ENDTAB
  0
TABLE
  2
LTYPE
 70
     3
  0
LTYPE
  2
CONTINUOUS
 70
     0
  3
Solid line
 72
    65
 73
     0
 40
0.0
  0
LTYPE
  2
DASHED3
 70
     0
  3
------  ------  ------  ------  
 72
    65
 73
     2
 40
5.0
 49
3.75
 49
-1.25
  0
LTYPE
  2
CENTER2
 70
     0
  3
----------  --  ----------  --  
 72
    65
 73
     4
 40
20.0
 49
12.5
 49
-2.5
 49
2.5
 49
-2.5
  0
ENDTAB
  0
TABLE
  2
LAYER
 70
    21
  0
LAYER
  2
0
 70
     0
 62
     7
  6
CONTINUOUS
  0
LAYER
  2
SUNPOU
 70
     0
 62
     4
  6
CONTINUOUS
  0
LAYER
  2
0-1
 70
     0
 62
     7
  6
CONTINUOUS
  0
LAYER
  2
0-5
 70
     0
 62
     7
  6
CONTINUOUS
  0
LAYER
  2
3-0
 70
     0
 62
     7
  6
CONTINUOUS
  0
LAYER
  2
0-D
 70
     0
 62
     7
  6
CONTINUOUS
  0
LAYER
  2
1-0
 70
     0
 62
     7
  6
CONTINUOUS
  0
LAYER
  2
1-1
 70
     0
 62
     7
  6
CONTINUOUS
  0
LAYER
  2
2-0
 70
     0
 62
     7
  6
CONTINUOUS
  0
LAYER
  2
YODOROGO
 70
     0
 62
   130
  6
CONTINUOUS
  0
LAYER
  2
WAKUSEN-01
 70
     0
 62
    50
  6
CONTINUOUS
  0
LAYER
  2
WAKUSEN-02
 70
     0
 62
   130
  6
CONTINUOUS
  0
LAYER
  2
WAKUMOJI-01
 70
     0
 62
   130
  6
CONTINUOUS
  0
LAYER
  2
FILENAME
 70
     0
 62
     7
  6
CONTINUOUS
  0
LAYER
  2
NAME
 70
     0
 62
    20
  6
CONTINUOUS
  0
LAYER
  2
0-6
 70
     0
 62
     7
  6
CONTINUOUS
  0
LAYER
  2
0-2
 70
     0
 62
     7
  6
CONTINUOUS
  0
LAYER
  2
0-3
 70
     0
 62
     7
  6
CONTINUOUS
  0
LAYER
  2
0-F
 70
     0
 62
     7
  6
CONTINUOUS
  0
ENDTAB
  0
TABLE
  2
STYLE
 70
     5
  0
STYLE
  2
STANDARD
 70
     0
 40
0.0
 41
1.0
 50
0.0
 71
     0
 42
0.0
  3
txt
  4
BIGFONT
  0
STYLE
  2
00
 70
     0
 40
0.0
 41
0.6666666666666666
 50
0.0
 71
     0
 42
0.2
  3
ROMANS
  4
BIGFONT
  0
STYLE
  2
01
 70
     0
 40
3.0
 41
1.0
 50
0.0
 71
     0
 42
0.2
  3
ROMANS
  4
BIGFONT
  0
STYLE
  2
WAKUMOJI
 70
     0
 40
3.0
 41
1.0
 50
0.0
 71
     0
 42
3.0
  3
SIMPLEX
  4
BIGFONT
  0
STYLE
  2
FILENAME
 70
     0
 40
200.0
 41
1.0
 50
0.0
 71
     0
 42
200.0
  3
romans
  4
bigfont
  0
ENDTAB
  0
TABLE
  2
VIEW
 70
     0
  0
ENDTAB
  0
TABLE
  2
UCS
 70
     0
  0
ENDTAB
  0
TABLE
  2
APPID
 70
    13
  0
APPID
  2
ACAD
 70
     0
  0
APPID
  2
ACADANNOTATIVE
 70
     0
  0
APPID
  2
ACAD_PSEXT
 70
     0
  0
APPID
  2
DCO15
 70
     0
  0
APPID
  2
ACAD_MLEADERVER
 70
     0
  0
APPID
  2
AUTOCAD_POSTSCRIPT_FIGURE
 70
     0
  0
APPID
  2
ACAD_DSTYLE_DIMJAG
 70
     0
  0
APPID
  2
ACAD_DSTYLE_DIMTALN
 70
     0
  0
APPID
  2
ACAD_EXEMPT_FROM_CAD_STANDARDS
 70
     0
  0
APPID
  2
ACAD_DSTYLE_DIM_LINETYPE
 70
     0
  0
APPID
  2
ACAD_DSTYLE_DIM_EXT1_LINETYPE
 70
     0
  0
APPID
  2
ACAD_DSTYLE_DIM_EXT2_LINETYPE
 70
     0
  0
APPID
  2
ACAD_NAV_VCDISPLAY
 70
     0
  0
ENDTAB
  0
TABLE
  2
DIMSTYLE
 70
     2
  0
DIMSTYLE
  2
SUNPOU
 70
     0
  3

  4

  5

  6

  7

 40
80.0
 41
3.0
 42
1.0
 43
0.38
 44
1.0
 45
0.5
 46
0.0
 47
0.0
 48
0.0
140
2.0
141
0.09
142
0.0
143
25.399999999999999
144
1.0
145
0.0
146
1.0
147
1.0
 71
     0
 72
     0
 73
     0
 74
     0
 75
     0
 76
     0
 77
     1
 78
     8
170
     0
171
     2
172
     1
173
     0
174
     0
175
     0
176
     4
177
     4
178
     7
  0
ENDTAB
  0
ENDSEC
  0
SECTION
  2
BLOCKS
  0
BLOCK
  8
0
  2
$MODEL_SPACE
 70
     0
 10
0.0
 20
0.0
 30
0.0
  3
$MODEL_SPACE
  1

  0
ENDBLK
  5
4424
  8
0
  0
BLOCK
 67
     1
  8
0
  2
$PAPER_SPACE
 70
     0
 10
0.0
 20
0.0
 30
0.0
  3
$PAPER_SPACE
  1

  0
ENDBLK
  5
4420
 67
     1
  8
0
  0
BLOCK
  8
0
  2
_DOTSMALL
 70
     0
 10
0.0
 20
0.0
 30
0.0
  3
_DOTSMALL
  1

  0
POLYLINE
  5
4457
  8
0
  6
BYBLOCK
 62
     0
 66
     1
 10
0.0
 20
0.0
 30
0.0
 70
     1
 40
0.5
 41
0.5
  0
VERTEX
  5
5037
  8
0
  6
BYBLOCK
 62
     0
 10
-0.0625
 20
0.0
 30
0.0
 42
1.0
  0
VERTEX
  5
5038
  8
0
  6
BYBLOCK
 62
     0
 10
0.0625
 20
0.0
 30
0.0
 42
1.0
  0
SEQEND
  5
5039
  8
0
  6
BYBLOCK
 62
     0
  0
ENDBLK
  5
445B
  8
0
  0
ENDSEC
  0
SECTION
  2
ENTITIES
  0
LINE
  5
445C
  8
3-0
  6
CONTINUOUS
 62
     3
 10
10861.957417
 20
18961.089591
 30
0.0
 11
10861.957417
 21
19847.603130999989
 31
0.0
  0
LINE
  5
445D
  8
3-0
  6
CONTINUOUS
 62
     3
 10
10824.954275999969
 20
18994.264342999999
 30
0.0
 11
10824.954275999969
 21
19847.603130999989
 31
0.0
  0
LINE
  5
445E
  8
3-0
  6
CONTINUOUS
 62
     3
 10
13529.95065999999
 20
13336.100821
 30
0.0
 11
13529.95065999999
 21
19847.603130999989
 31
0.0
  0
LINE
  5
445F
  8
3-0
  6
CONTINUOUS
 62
     3
 10
10364.45190099998
 20
13336.100821
 30
0.0
 11
10364.45190099998
 21
19847.603130999989
 31
0.0
  0
LINE
  5
4460
  8
3-0
  6
CONTINUOUS
 62
     3
 10
10228.950884
 20
13304.10190300001
 30
0.0
 11
10228.950884
 21
19895.606456999991
 31
0.0
  0
LINE
  5
4461
  8
3-0
  6
CONTINUOUS
 62
     3
 10
13668.44870700001
 20
13304.10190300001
 30
0.0
 11
13668.44870700001
 21
19895.606456999991
 31
0.0
  0
LINE
  5
4462
  8
3-0
  6
CONTINUOUS
 62
     3
 10
10422.95067299999
 20
19354.685189
 30
0.0
 11
10422.95067299999
 21
19847.603130999989
 31
0.0
  0
LINE
  5
4463
  8
3-0
  6
CONTINUOUS
 62
     3
 10
10459.95381399998
 20
19321.518355
 30
0.0
 11
10459.95381399998
 21
19847.603130999989
 31
0.0
  0
LINE
  5
4464
  8
3-0
  6
CONTINUOUS
 62
     3
 10
10622.957271999991
 20
19175.370497999989
 30
0.0
 11
10622.957271999991
 21
19847.603130999989
 31
0.0
  0
LINE
  5
4465
  8
3-0
  6
CONTINUOUS
 62
     3
 10
10659.954473999989
 20
19142.201684999989
 30
0.0
 11
10659.954473999989
 21
19847.603130999989
 31
0.0
  0
LINE
  5
4466
  8
3-0
  6
CONTINUOUS
 62
     3
 10
11024.949987
 20
18804.941629000001
 30
0.0
 11
11024.949987
 21
19847.603130999989
 31
0.0
  0
LINE
  5
4467
  8
3-0
  6
CONTINUOUS
 62
     3
 10
11061.955107
 20
18771.766876999998
 30
0.0
 11
11061.955107
 21
19847.603130999989
 31
0.0
  0
LINE
  5
4468
  8
3-0
  6
CONTINUOUS
 62
     3
 10
11224.95361599999
 20
18625.624959000001
 30
0.0
 11
11224.95361599999
 21
19847.603130999989
 31
0.0
  0
LINE
  5
4469
  8
3-0
  6
CONTINUOUS
 62
     3
 10
11261.953788000001
 20
18592.448227000001
 30
0.0
 11
11261.953788000001
 21
19847.603130999989
 31
0.0
  0
LINE
  5
446A
  8
3-0
  6
CONTINUOUS
 62
     3
 10
10302.451399
 20
19895.606456999991
 30
0.0
 11
13591.949181999989
 21
19895.606456999991
 31
0.0
  0
LINE
  5
446B
  8
3-0
  6
CONTINUOUS
 62
     3
 10
11650.185880000001
 20
18244.359783
 30
0.0
 11
11828.38610099998
 21
18419.707517999988
 31
0.0
  0
LINE
  5
446C
  8
3-0
  6
CONTINUOUS
 62
     3
 10
12183.86614800001
 20
17356.226996000001
 30
0.0
 11
12362.06340100001
 21
17531.572752
 31
0.0
  0
LINE
  5
446D
  8
3-0
  6
CONTINUOUS
 62
     3
 10
12183.86614800001
 20
17356.226996000001
 30
0.0
 11
11828.38610099998
 21
18419.707517999988
 31
0.0
  0
LINE
  5
446E
  8
3-0
  6
CONTINUOUS
 62
     3
 10
10314.449301000001
 20
16720.10078199999
 30
0.0
 11
13186.910978000011
 21
16720.10078199999
 31
0.0
  0
LINE
  5
446F
  8
3-0
  6
CONTINUOUS
 62
     3
 10
10271.952006
 20
13462.60393600001
 30
0.0
 11
13625.446596000011
 21
13462.60393600001
 31
0.0
  0
LINE
  5
4470
  8
3-0
  6
CONTINUOUS
 62
     3
 10
10314.449301000001
 20
13541.60355300001
 30
0.0
 11
13582.949301000001
 21
13541.60355300001
 31
0.0
  0
LINE
  5
4471
  8
3-0
  6
CONTINUOUS
 62
     3
 10
10228.950884
 20
13304.10190300001
 30
0.0
 11
13668.44870700001
 21
13304.10190300001
 31
0.0
  0
LINE
  5
4472
  8
3-0
  6
CONTINUOUS
 62
     3
 10
10228.950884
 20
13336.100821
 30
0.0
 11
13668.44870700001
 21
13336.100821
 31
0.0
  0
LINE
  5
4473
  8
3-0
  6
CONTINUOUS
 62
     3
 10
13582.949301000001
 20
13462.60393600001
 30
0.0
 11
13582.949301000001
 21
16344.680135000001
 31
0.0
  0
LINE
  5
4474
  8
3-0
  6
CONTINUOUS
 62
     3
 10
13625.446596000011
 20
13462.60393600001
 30
0.0
 11
13625.446596000011
 21
16301.535537
 31
0.0
  0
LINE
  5
4475
  8
3-0
  6
CONTINUOUS
 62
     3
 10
13962.45072599999
 20
15957.144833
 30
0.0
 11
12362.06340100001
 21
17531.572752
 31
0.0
  0
LINE
  5
4476
  8
3-0
  6
CONTINUOUS
 62
     3
 10
11650.185880000001
 20
18244.359783
 30
0.0
 11
9934.9548040000045
 21
19792.22411899998
 31
0.0
  0
LINE
  5
4477
  8
3-0
  6
CONTINUOUS
 62
     3
 10
10314.449301000001
 20
13462.60393600001
 30
0.0
 11
10314.449301000001
 21
19451.972589000001
 31
0.0
  0
LINE
  5
4478
  8
3-0
  6
CONTINUOUS
 62
     3
 10
10271.952006
 20
13462.60393600001
 30
0.0
 11
10271.952006
 21
19490.076341999989
 31
0.0
  0
LINE
  5
4479
  8
3-0
  6
CONTINUOUS
 62
     3
 10
11424.952296999991
 20
18446.304329999999
 30
0.0
 11
11424.952296999991
 21
19847.603130999989
 31
0.0
  0
LINE
  5
447A
  8
3-0
  6
CONTINUOUS
 62
     3
 10
11461.951478000001
 20
18413.13155699999
 30
0.0
 11
11461.951478000001
 21
19847.603130999989
 31
0.0
  0
LINE
  5
447B
  8
3-0
  6
CONTINUOUS
 62
     3
 10
11624.95295599999
 20
18266.987658999991
 30
0.0
 11
11624.95295599999
 21
19847.603130999989
 31
0.0
  0
LINE
  5
447C
  8
3-0
  6
CONTINUOUS
 62
     3
 10
12035.447784000011
 20
17813.74718799999
 30
0.0
 11
12035.447784000011
 21
19847.603130999989
 31
0.0
  0
LINE
  5
447D
  8
3-0
  6
CONTINUOUS
 62
     3
 10
12072.446964999999
 20
17699.697225
 30
0.0
 11
12072.446964999999
 21
19847.603130999989
 31
0.0
  0
LINE
  5
447E
  8
3-0
  6
CONTINUOUS
 62
     3
 10
12235.451413000001
 20
17406.983831999991
 30
0.0
 11
12235.451413000001
 21
19847.603130999989
 31
0.0
  0
LINE
  5
447F
  8
3-0
  6
CONTINUOUS
 62
     3
 10
12272.445646
 20
17443.393118
 30
0.0
 11
12272.445646
 21
19847.603130999989
 31
0.0
  0
LINE
  5
4480
  8
3-0
  6
CONTINUOUS
 62
     3
 10
12435.447124
 20
17459.37970999999
 30
0.0
 11
12435.447124
 21
19847.603130999989
 31
0.0
  0
LINE
  5
4481
  8
3-0
  6
CONTINUOUS
 62
     3
 10
12472.446305999991
 20
17422.976362999991
 30
0.0
 11
12472.446305999991
 21
19847.603130999989
 31
0.0
  0
LINE
  5
4482
  8
3-0
  6
CONTINUOUS
 62
     3
 10
12635.448773
 20
17262.61952199999
 30
0.0
 11
12635.448773
 21
19847.603130999989
 31
0.0
  0
LINE
  5
4483
  8
3-0
  6
CONTINUOUS
 62
     3
 10
12672.452904
 20
17226.220133999999
 30
0.0
 11
12672.452904
 21
19847.603130999989
 31
0.0
  0
LINE
  5
4484
  8
3-0
  6
CONTINUOUS
 62
     3
 10
12835.44844300001
 20
17065.86329299998
 30
0.0
 11
12835.44844300001
 21
19847.603130999989
 31
0.0
  0
LINE
  5
4485
  8
3-0
  6
CONTINUOUS
 62
     3
 10
12872.44861500001
 20
17029.465884999991
 30
0.0
 11
12872.44861500001
 21
19847.603130999989
 31
0.0
  0
LINE
  5
4486
  8
3-0
  6
CONTINUOUS
 62
     3
 10
13035.451083000011
 20
16869.111023000001
 30
0.0
 11
13035.451083000011
 21
19847.603130999989
 31
0.0
  0
LINE
  5
4487
  8
3-0
  6
CONTINUOUS
 62
     3
 10
13072.449275000001
 20
16832.709655999999
 30
0.0
 11
13072.449275000001
 21
19847.603130999989
 31
0.0
  0
LINE
  5
4488
  8
3-0
  6
CONTINUOUS
 62
     3
 10
13235.45075299999
 20
16672.35083499999
 30
0.0
 11
13235.45075299999
 21
19847.603130999989
 31
0.0
  0
LINE
  5
4489
  8
3-0
  6
CONTINUOUS
 62
     3
 10
13272.448945
 20
16635.951446999989
 30
0.0
 11
13272.448945
 21
19847.603130999989
 31
0.0
  0
LINE
  5
448A
  8
3-0
  6
CONTINUOUS
 62
     3
 10
13435.450423
 20
16475.594605999991
 30
0.0
 11
13435.450423
 21
19847.603130999989
 31
0.0
  0
LINE
  5
448B
  8
3-0
  6
CONTINUOUS
 62
     3
 10
13472.446635
 20
16439.197198000002
 30
0.0
 11
13472.446635
 21
19847.603130999989
 31
0.0
  0
LINE
  5
448C
  8
3-0
  6
CONTINUOUS
 62
     3
 10
11661.955106999991
 20
18255.939966000002
 30
0.0
 11
11661.955106999991
 21
19847.603130999989
 31
0.0
  0
LINE
  5
448D
  8
3-0
  6
CONTINUOUS
 62
     3
 10
11824.95361599999
 20
18416.332439000002
 30
0.0
 11
11824.95361599999
 21
19847.603130999989
 31
0.0
  0
LINE
  5
448E
  8
3-0
  6
CONTINUOUS
 62
     3
 10
11861.953788000001
 20
18316.232142999979
 30
0.0
 11
11861.953788000001
 21
19847.603130999989
 31
0.0
  0
LINE
  5
448F
  8
3-0
  6
CONTINUOUS
 62
     3
 10
10384.45101599999
 20
13496.60513699999
 30
0.0
 11
12732.947981999991
 21
15950.077952
 31
0.0
  0
LINE
  5
4490
  8
3-0
  6
CONTINUOUS
 62
     3
 10
13512.95055500001
 20
13496.60513699999
 30
0.0
 11
11164.454579999991
 21
15950.077952
 31
0.0
  0
LINE
  5
4491
  8
3-0
  6
CONTINUOUS
 62
     3
 10
10384.45101599999
 20
16765.105136999999
 30
0.0
 11
11905.072651
 21
18183.30747
 31
0.0
  0
LINE
  5
4492
  8
3-0
  6
CONTINUOUS
 62
     3
 10
11871.774179
 20
18285.957385999991
 30
0.0
 11
11779.71765799999
 21
18371.815044999988
 31
0.0
  0
LINE
  5
4493
  8
3-0
  6
CONTINUOUS
 62
     3
 10
10246.952626
 20
19509.794325999999
 30
0.0
 11
10246.952626
 21
19888.106060999991
 31
0.0
  0
LINE
  5
4494
  8
3-0
  6
CONTINUOUS
 62
     3
 10
13650.449935000001
 20
13304.10190300001
 30
0.0
 11
13650.449935000001
 21
19888.106060999991
 31
0.0
  0
LINE
  5
4495
  8
3-0
  6
CONTINUOUS
 62
     3
 10
10246.952626
 20
19847.603130999989
 30
0.0
 11
13647.449935000001
 21
19847.603130999989
 31
0.0
  0
LINE
  5
4496
  8
3-0
  6
CONTINUOUS
 62
     3
 10
13650.449935000001
 20
19888.106060999991
 30
0.0
 11
13668.44870700001
 21
19888.106060999991
 31
0.0
  0
LINE
  5
4497
  8
3-0
  6
CONTINUOUS
 62
     3
 10
13594.949181999989
 20
19870.605136999991
 30
0.0
 11
13594.949181999989
 21
19900.608700000001
 31
0.0
  0
LINE
  5
4498
  8
3-0
  6
CONTINUOUS
 62
     3
 10
13650.449935000001
 20
19865.602894
 30
0.0
 11
13599.94845699999
 21
19865.602894
 31
0.0
  0
LINE
  5
4499
  8
3-0
  6
CONTINUOUS
 62
     3
 10
13668.44870700001
 20
19900.608700000001
 30
0.0
 11
13668.44870700001
 21
19865.602894
 31
0.0
  0
LINE
  5
449A
  8
3-0
  6
CONTINUOUS
 62
     3
 10
13599.94845699999
 20
19905.60500499999
 30
0.0
 11
13663.450423
 21
19905.60500499999
 31
0.0
  0
LINE
  5
449B
  8
3-0
  6
CONTINUOUS
 62
     3
 10
10302.451399
 20
19870.605136999991
 30
0.0
 11
10302.451399
 21
19900.608700000001
 31
0.0
  0
LINE
  5
449C
  8
3-0
  6
CONTINUOUS
 62
     3
 10
10228.950884
 20
19900.608700000001
 30
0.0
 11
10228.950884
 21
19865.602894
 31
0.0
  0
LINE
  5
449D
  8
3-0
  6
CONTINUOUS
 62
     3
 10
10297.457074
 20
19905.60500499999
 30
0.0
 11
10233.954118
 21
19905.60500499999
 31
0.0
  0
LINE
  5
449E
  8
3-0
  6
CONTINUOUS
 62
     3
 10
10246.952626
 20
19888.106060999991
 30
0.0
 11
10228.950884
 21
19888.106060999991
 31
0.0
  0
LINE
  5
449F
  8
3-0
  6
CONTINUOUS
 62
     3
 10
10246.952626
 20
19865.602894
 30
0.0
 11
10297.457074
 21
19865.602894
 31
0.0
  0
LINE
  5
44A0
  8
3-0
  6
CONTINUOUS
 62
     3
 10
11638.45525299998
 20
16685.102894
 30
0.0
 11
11238.453933000001
 21
16685.102894
 31
0.0
  0
LINE
  5
44A1
  8
3-0
  6
CONTINUOUS
 62
     3
 10
11238.453933000001
 20
16585.101574
 30
0.0
 11
11638.45525299998
 21
16585.101574
 31
0.0
  0
LINE
  5
44A2
  8
3-0
  6
CONTINUOUS
 62
     3
 10
11238.453933000001
 20
16685.102894
 30
0.0
 11
11238.453933000001
 21
16585.101574
 31
0.0
  0
LINE
  5
44A3
  8
3-0
  6
CONTINUOUS
 62
     3
 10
11638.45525299998
 20
16585.101574
 30
0.0
 11
11638.45525299998
 21
16685.102894
 31
0.0
  0
LINE
  5
44A4
  8
3-0
  6
CONTINUOUS
 62
     3
 10
11663.453602999991
 20
16715.104477000001
 30
0.0
 11
11663.453602999991
 21
16515.103818
 31
0.0
  0
LINE
  5
44A5
  8
3-0
  6
CONTINUOUS
 62
     3
 10
11623.455450999991
 20
16715.104477000001
 30
0.0
 11
11663.453602999991
 21
16715.104477000001
 31
0.0
  0
LINE
  5
44A6
  8
3-0
  6
CONTINUOUS
 62
     3
 10
12258.948297999999
 20
16585.101574
 30
0.0
 11
12658.948628
 21
16585.101574
 31
0.0
  0
LINE
  5
44A7
  8
3-0
  6
CONTINUOUS
 62
     3
 10
12658.948628
 20
16685.102894
 30
0.0
 11
12258.948297999999
 21
16685.102894
 31
0.0
  0
LINE
  5
44A8
  8
3-0
  6
CONTINUOUS
 62
     3
 10
12258.948297999999
 20
16685.102894
 30
0.0
 11
12258.948297999999
 21
16585.101574
 31
0.0
  0
LINE
  5
44A9
  8
3-0
  6
CONTINUOUS
 62
     3
 10
12233.950938000011
 20
16715.104477000001
 30
0.0
 11
12233.950938000011
 21
16515.103818
 31
0.0
  0
LINE
  5
44AA
  8
3-0
  6
CONTINUOUS
 62
     3
 10
12233.950938000011
 20
16715.104477000001
 30
0.0
 11
12273.95205899999
 21
16715.104477000001
 31
0.0
  0
LINE
  5
44AB
  8
3-0
  6
CONTINUOUS
 62
     3
 10
12658.948628
 20
16585.101574
 30
0.0
 11
12658.948628
 21
16685.102894
 31
0.0
  0
LINE
  5
44AC
  8
3-0
  6
CONTINUOUS
 62
     3
 10
10489.452600000001
 20
16476.621975999991
 30
0.0
 11
10549.453787999981
 21
16476.621975999991
 31
0.0
  0
LINE
  5
44AD
  8
3-0
  6
CONTINUOUS
 62
     3
 10
10404.457020999989
 20
16615.10513699998
 30
0.0
 11
10439.451940000001
 21
16615.10513699998
 31
0.0
  0
LINE
  5
44AE
  8
3-0
  6
CONTINUOUS
 62
     3
 10
10404.457020999989
 20
16655.103289999988
 30
0.0
 11
10439.451940000001
 21
16655.103289999988
 31
0.0
  0
LINE
  5
44AF
  8
3-0
  6
CONTINUOUS
 62
     3
 10
10439.451940000001
 20
16697.601574
 30
0.0
 11
10439.451940000001
 21
16572.604873
 31
0.0
  0
LINE
  5
44B0
  8
3-0
  6
CONTINUOUS
 62
     3
 10
10439.451940000001
 20
16572.604873
 30
0.0
 11
10499.45312799999
 21
16572.604873
 31
0.0
  0
LINE
  5
44B1
  8
3-0
  6
CONTINUOUS
 62
     3
 10
10439.451940000001
 20
16697.601574
 30
0.0
 11
10499.45312799999
 21
16697.601574
 31
0.0
  0
LINE
  5
44B2
  8
3-0
  6
CONTINUOUS
 62
     3
 10
10499.45312799999
 20
16710.104213999992
 30
0.0
 11
10499.45312799999
 21
16560.100254000001
 31
0.0
  0
LINE
  5
44B3
  8
3-0
  6
CONTINUOUS
 62
     3
 10
10499.45312799999
 20
16710.104213999992
 30
0.0
 11
10524.459396
 21
16710.104213999992
 31
0.0
  0
LINE
  5
44B4
  8
3-0
  6
CONTINUOUS
 62
     3
 10
10404.457020999989
 20
16615.10513699998
 30
0.0
 11
10404.457020999989
 21
16655.103289999988
 31
0.0
  0
LINE
  5
44B5
  8
3-0
  6
CONTINUOUS
 62
     3
 10
10524.459396
 20
16560.100254000001
 30
0.0
 11
10499.45312799999
 21
16560.100254000001
 31
0.0
  0
LINE
  5
44B6
  8
3-0
  6
CONTINUOUS
 62
     3
 10
10524.459396
 20
16710.104213999992
 30
0.0
 11
10524.459396
 21
16560.100254000001
 31
0.0
  0
LINE
  5
44B7
  8
3-0
  6
CONTINUOUS
 62
     3
 10
10529.453722
 20
16715.104477000001
 30
0.0
 11
10529.453722
 21
16515.103818
 31
0.0
  0
LINE
  5
44B8
  8
3-0
  6
CONTINUOUS
 62
     3
 10
10489.452600000001
 20
16715.104477000001
 30
0.0
 11
10529.453722
 21
16715.104477000001
 31
0.0
  0
LINE
  5
44B9
  8
3-0
  6
CONTINUOUS
 62
     3
 10
10489.452600000001
 20
13951.599462
 30
0.0
 11
10489.452600000001
 21
16476.621975999991
 31
0.0
  0
LINE
  5
44BA
  8
3-0
  6
CONTINUOUS
 62
     3
 10
10549.453787999981
 20
13541.60355300001
 30
0.0
 11
10549.453787999981
 21
16476.621975999991
 31
0.0
  0
LINE
  5
44BB
  8
3-0
  6
CONTINUOUS
 62
     3
 10
10529.453722
 20
13541.60355300001
 30
0.0
 11
10529.453722
 21
16635.102233999991
 31
0.0
  0
LINE
  5
44BC
  8
3-0
  6
CONTINUOUS
 62
     3
 10
10519.453193999991
 20
13841.60355300001
 30
0.0
 11
10489.452600000001
 21
13841.60355300001
 31
0.0
  0
LINE
  5
44BD
  8
3-0
  6
CONTINUOUS
 62
     3
 10
10519.453193999991
 20
13941.604873
 30
0.0
 11
10519.453193999991
 21
13841.60355300001
 31
0.0
  0
LINE
  5
44BE
  8
3-0
  6
CONTINUOUS
 62
     3
 10
10489.452600000001
 20
13941.604873
 30
0.0
 11
10519.453193999991
 21
13941.604873
 31
0.0
  0
LINE
  5
44BF
  8
3-0
  6
CONTINUOUS
 62
     3
 10
10489.452600000001
 20
13841.60355300001
 30
0.0
 11
10489.452600000001
 21
13941.604873
 31
0.0
  0
LINE
  5
44C0
  8
3-0
  6
CONTINUOUS
 62
     3
 10
10489.452600000001
 20
13951.599462
 30
0.0
 11
10529.453722
 21
13951.599462
 31
0.0
  0
LINE
  5
44C1
  8
3-0
  6
DASHED3
 62
     6
 10
13407.947982000011
 20
16715.104477000001
 30
0.0
 11
13367.950819000011
 21
16715.104477000001
 31
0.0
  0
LINE
  5
44C2
  8
3-0
  6
DASHED3
 62
     6
 10
13367.950819000011
 20
16715.104477000001
 30
0.0
 11
13367.950819000011
 21
16542.001515999989
 31
0.0
  0
LINE
  5
44C3
  8
3-0
  6
DASHED3
 62
     6
 10
13372.94910300001
 20
16710.104213999992
 30
0.0
 11
13372.94910300001
 21
16560.100254000001
 31
0.0
  0
LINE
  5
44C4
  8
3-0
  6
DASHED3
 62
     6
 10
13372.94910300001
 20
16560.100254000001
 30
0.0
 11
13397.951413000001
 21
16560.100254000001
 31
0.0
  0
LINE
  5
44C5
  8
3-0
  6
DASHED3
 62
     6
 10
13492.948509000011
 20
16615.10513699998
 30
0.0
 11
13492.948509000011
 21
16655.103289999988
 31
0.0
  0
LINE
  5
44C6
  8
3-0
  6
DASHED3
 62
     6
 10
13397.951413000001
 20
16710.104213999992
 30
0.0
 11
13372.94910300001
 21
16710.104213999992
 31
0.0
  0
LINE
  5
44C7
  8
3-0
  6
DASHED3
 62
     6
 10
13397.951413000001
 20
16710.104213999992
 30
0.0
 11
13397.951413000001
 21
16560.100254000001
 31
0.0
  0
LINE
  5
44C8
  8
3-0
  6
DASHED3
 62
     6
 10
13457.94963100001
 20
16697.601574
 30
0.0
 11
13397.951413000001
 21
16697.601574
 31
0.0
  0
LINE
  5
44C9
  8
3-0
  6
DASHED3
 62
     6
 10
13457.94963100001
 20
16572.604873
 30
0.0
 11
13397.951413000001
 21
16572.604873
 31
0.0
  0
LINE
  5
44CA
  8
3-0
  6
DASHED3
 62
     6
 10
13457.94963100001
 20
16697.601574
 30
0.0
 11
13457.94963100001
 21
16572.604873
 31
0.0
  0
LINE
  5
44CB
  8
3-0
  6
DASHED3
 62
     6
 10
13492.948509000011
 20
16655.103289999988
 30
0.0
 11
13457.94963100001
 21
16655.103289999988
 31
0.0
  0
LINE
  5
44CC
  8
3-0
  6
DASHED3
 62
     6
 10
13492.948509000011
 20
16615.10513699998
 30
0.0
 11
13457.94963100001
 21
16615.10513699998
 31
0.0
  0
LINE
  5
44CD
  8
3-0
  6
CONTINUOUS
 62
     3
 10
13407.947982000011
 20
16476.621975999991
 30
0.0
 11
13347.948773
 21
16476.621975999991
 31
0.0
  0
LINE
  5
44CE
  8
3-0
  6
CONTINUOUS
 62
     3
 10
13347.948773
 20
13541.60355300001
 30
0.0
 11
13347.948773
 21
16476.621975999991
 31
0.0
  0
LINE
  5
44CF
  8
3-0
  6
CONTINUOUS
 62
     3
 10
13367.950819000011
 20
13541.60355300001
 30
0.0
 11
13367.950819000011
 21
16542.001515999989
 31
0.0
  0
LINE
  5
44D0
  8
3-0
  6
CONTINUOUS
 62
     3
 10
13407.947982000011
 20
13951.599462
 30
0.0
 11
13407.947982000011
 21
16476.621975999991
 31
0.0
  0
LINE
  5
44D1
  8
3-0
  6
CONTINUOUS
 62
     3
 10
13377.946398
 20
13841.60355300001
 30
0.0
 11
13407.947982000011
 21
13841.60355300001
 31
0.0
  0
LINE
  5
44D2
  8
3-0
  6
CONTINUOUS
 62
     3
 10
13377.946398
 20
13941.604873
 30
0.0
 11
13377.946398
 21
13841.60355300001
 31
0.0
  0
LINE
  5
44D3
  8
3-0
  6
CONTINUOUS
 62
     3
 10
13407.947982000011
 20
13941.604873
 30
0.0
 11
13377.946398
 21
13941.604873
 31
0.0
  0
LINE
  5
44D4
  8
3-0
  6
CONTINUOUS
 62
     3
 10
13407.947982000011
 20
13841.60355300001
 30
0.0
 11
13407.947982000011
 21
13941.604873
 31
0.0
  0
LINE
  5
44D5
  8
3-0
  6
CONTINUOUS
 62
     3
 10
13407.947982000011
 20
13951.599462
 30
0.0
 11
13367.950819000011
 21
13951.599462
 31
0.0
  0
LINE
  5
44D6
  8
3-0
  6
DASHED3
 62
     6
 10
13367.950819000011
 20
16542.001515999989
 30
0.0
 11
13367.950819000011
 21
16635.102233999991
 31
0.0
  0
LINE
  5
44D7
  8
3-0
  6
CONTINUOUS
 62
     3
 10
10848.636247
 20
16280.081514999991
 30
0.0
 11
10384.45101599999
 21
16765.105136999999
 31
0.0
  0
LINE
  5
44D8
  8
3-0
  6
CONTINUOUS
 62
     3
 10
10314.449301000001
 20
16810.10355399999
 30
0.0
 11
13095.42554700001
 21
16810.10355399999
 31
0.0
  0
LINE
  5
44D9
  8
3-0
  6
CONTINUOUS
 62
     3
 10
10314.449301000001
 20
16780.10592899999
 30
0.0
 11
13125.923000000001
 21
16780.10592899999
 31
0.0
  0
LINE
  5
44DA
  8
0-6
  6
CONTINUOUS
 62
     6
 10
11900.341602
 20
19623.329614999991
 30
0.0
 11
12044.24171499998
 21
20135.607249000001
 31
0.0
  0
LINE
  5
44DB
  8
0-6
  6
CONTINUOUS
 62
     6
 10
11487.19528899999
 20
19729.105189999998
 30
0.0
 11
11193.267461999991
 21
20135.607249000001
 31
0.0
  0
LINE
  5
44DC
  8
0-6
  6
CONTINUOUS
 62
     6
 10
12044.24171499998
 20
20135.607249000001
 30
0.0
 11
12561.931352999991
 21
20135.607249000001
 31
0.0
  0
LINE
  5
44DD
  8
0-6
  6
CONTINUOUS
 62
     6
 10
11433.930403
 20
20025.510384000001
 30
0.0
 11
11260.119081511421
 21
20384.71502101218
 31
0.0
  0
LINE
  5
44DE
  8
0-6
  6
CONTINUOUS
 62
     6
 10
11150.730577
 20
20586.024926999991
 30
0.0
 11
10954.67113899998
 21
20925.60540099999
 31
0.0
  0
LINE
  5
44DF
  8
0-6
  6
CONTINUOUS
 62
     6
 10
10954.67113899998
 20
20925.60540099999
 30
0.0
 11
11797.108717999999
 21
20925.60540099999
 31
0.0
  0
LINE
  5
44E0
  8
0-6
  6
CONTINUOUS
 62
     6
 10
11484.328945999991
 20
14461.935836000001
 30
0.0
 11
11547.72005899999
 21
14238.435321000001
 31
0.0
  0
LINE
  5
44E1
  8
0-6
  6
CONTINUOUS
 62
     6
 10
11547.72005899999
 20
14238.435321000001
 30
0.0
 11
12427.722963
 21
14238.435321000001
 31
0.0
  0
LINE
  5
44E2
  8
0-6
  6
CONTINUOUS
 62
     6
 10
10478.98193699998
 20
18562.802534999992
 30
0.0
 11
10998.980682999991
 21
18562.802534999992
 31
0.0
  0
LINE
  5
44E3
  8
0-6
  6
CONTINUOUS
 62
     6
 10
12455.251138
 20
12524.603764999991
 30
0.0
 11
13317.82536999998
 21
12524.603764999991
 31
0.0
  0
LINE
  5
44E4
  8
0-6
  6
CONTINUOUS
 62
     6
 10
12049.135085
 20
13188.13542399998
 30
0.0
 11
12455.251138
 21
12524.603764999991
 31
0.0
  0
LINE
  5
44E5
  8
0-6
  6
CONTINUOUS
 62
     6
 10
8470.3218730000026
 20
12034.603633000001
 30
0.0
 11
9550.3194970000022
 21
12034.603633000001
 31
0.0
  0
LINE
  5
44E6
  8
0-6
  6
CONTINUOUS
 62
     6
 10
10137.057713
 20
13904.879512
 30
0.0
 11
9550.3194970000022
 21
12034.603633000001
 31
0.0
  0
LINE
  5
44E7
  8
0-6
  6
CONTINUOUS
 62
     6
 10
10379.943653
 20
18783.594077999991
 30
0.0
 11
10478.98193699998
 21
18562.802534999992
 31
0.0
  0
LINE
  5
44E8
  8
0-6
  6
CONTINUOUS
 62
     6
 10
13765.859708
 20
20020.929778000002
 30
0.0
 11
14692.611912
 21
20925.60540099999
 31
0.0
  0
LINE
  5
44E9
  8
0-6
  6
CONTINUOUS
 62
     6
 10
14692.611912
 20
20925.60540099999
 30
0.0
 11
16367.610262
 21
20925.60540099999
 31
0.0
  0
LINE
  5
44EA
  8
0-6
  6
CONTINUOUS
 62
     6
 10
10640.326558000001
 20
16488.399689999991
 30
0.0
 11
10738.886787999991
 21
16010.081686999991
 31
0.0
  0
LINE
  5
44EB
  8
0-6
  6
CONTINUOUS
 62
     6
 10
10618.17574499998
 20
14880.970225999979
 30
0.0
 11
10734.233929
 21
15124.963707000001
 31
0.0
  0
LINE
  5
44EC
  8
0-6
  6
CONTINUOUS
 62
     6
 10
10734.233929
 20
15124.963707000001
 30
0.0
 11
11752.746716999991
 21
15124.963707000001
 31
0.0
  0
LINE
  5
44ED
  8
0-6
  6
CONTINUOUS
 62
     6
 10
10738.886787999991
 20
16010.081686999991
 30
0.0
 11
12935.90695199999
 21
16010.081686999991
 31
0.0
  0
LINE
  5
44EE
  8
0-6
  6
CONTINUOUS
 62
     6
 10
13064.085729
 20
16871.470186999992
 30
0.0
 11
13864.62679799999
 21
17142.812696000001
 31
0.0
  0
LINE
  5
44EF
  8
0-6
  6
CONTINUOUS
 62
     6
 10
13864.62679799999
 20
17142.812696000001
 30
0.0
 11
15655.594248051981
 21
17142.812696000001
 31
0.0
  0
LINE
  5
44F0
  8
0-6
  6
CONTINUOUS
 62
     6
 10
13064.085729
 20
13613.468643
 30
0.0
 11
13864.62679799999
 21
13884.809172999991
 31
0.0
  0
LINE
  5
44F1
  8
0-6
  6
CONTINUOUS
 62
     6
 10
13864.62679799999
 20
13884.809172999991
 30
0.0
 11
15642.54633620214
 21
13884.809172999991
 31
0.0
  0
LINE
  5
44F2
  8
0-6
  6
CONTINUOUS
 62
     6
 10
10675.57881399999
 20
20135.607249000001
 30
0.0
 11
11193.267461999991
 21
20135.607249000001
 31
0.0
  0
LINE
  5
44F3
  8
0-6
  6
CONTINUOUS
 62
     6
 10
10162.503434
 20
13896.898093
 30
0.0
 11
10184.951175
 21
14057.538994999981
 31
0.0
  0
LINE
  5
44F4
  8
0-6
  6
CONTINUOUS
 62
     6
 10
10184.951175
 20
14057.538994999981
 30
0.0
 11
10111.612980999989
 21
13912.86093099999
 31
0.0
  0
LINE
  5
44F5
  8
0-6
  6
CONTINUOUS
 62
     6
 10
10184.951175
 20
14057.538994999981
 30
0.0
 11
10162.503434
 21
13896.898093
 31
0.0
  0
LINE
  5
44F6
  8
0-6
  6
CONTINUOUS
 62
     6
 10
10162.503434
 20
13896.898093
 30
0.0
 11
10111.612980999989
 21
13912.86093099999
 31
0.0
  0
LINE
  5
44F7
  8
0-6
  6
CONTINUOUS
 62
     6
 10
10111.612980999989
 20
13912.86093099999
 30
0.0
 11
10184.951175
 21
14057.538994999981
 31
0.0
  0
LINE
  5
44F8
  8
0-6
  6
CONTINUOUS
 62
     6
 10
10111.612980999989
 20
13912.86093099999
 30
0.0
 11
10162.503434
 21
13896.898093
 31
0.0
  0
LINE
  5
44F9
  8
0-6
  6
CONTINUOUS
 62
     6
 10
10594.09688099999
 20
14892.42273099999
 30
0.0
 11
10549.453787999981
 21
14736.482196000001
 31
0.0
  0
LINE
  5
44FA
  8
0-6
  6
CONTINUOUS
 62
     6
 10
10549.453787999981
 20
14736.482196000001
 30
0.0
 11
10642.260546999991
 21
14869.51673199998
 31
0.0
  0
LINE
  5
44FB
  8
0-6
  6
CONTINUOUS
 62
     6
 10
10549.453787999981
 20
14736.482196000001
 30
0.0
 11
10594.09688099999
 21
14892.42273099999
 31
0.0
  0
LINE
  5
44FC
  8
0-6
  6
CONTINUOUS
 62
     6
 10
10594.09688099999
 20
14892.42273099999
 30
0.0
 11
10642.260546999991
 21
14869.51673199998
 31
0.0
  0
LINE
  5
44FD
  8
0-6
  6
CONTINUOUS
 62
     6
 10
10642.260546999991
 20
14869.51673199998
 30
0.0
 11
10549.453787999981
 21
14736.482196000001
 31
0.0
  0
LINE
  5
44FE
  8
0-6
  6
CONTINUOUS
 62
     6
 10
10642.260546999991
 20
14869.51673199998
 30
0.0
 11
10594.09688099999
 21
14892.42273099999
 31
0.0
  0
LINE
  5
44FF
  8
0-6
  6
CONTINUOUS
 62
     6
 10
12071.87876399999
 20
13202.058368
 30
0.0
 11
11965.611278
 21
13324.605413999991
 31
0.0
  0
LINE
  5
4500
  8
0-6
  6
CONTINUOUS
 62
     6
 10
11965.611278
 20
13324.605413999991
 30
0.0
 11
12026.388436999991
 21
13174.218418
 31
0.0
  0
LINE
  5
4501
  8
0-6
  6
CONTINUOUS
 62
     6
 10
11965.611278
 20
13324.605413999991
 30
0.0
 11
12071.87876399999
 21
13202.058368
 31
0.0
  0
LINE
  5
4502
  8
0-6
  6
CONTINUOUS
 62
     6
 10
12071.87876399999
 20
13202.058368
 30
0.0
 11
12026.388436999991
 21
13174.218418
 31
0.0
  0
LINE
  5
4503
  8
0-6
  6
CONTINUOUS
 62
     6
 10
12026.388436999991
 20
13174.218418
 30
0.0
 11
11965.611278
 21
13324.605413999991
 31
0.0
  0
LINE
  5
4504
  8
0-6
  6
CONTINUOUS
 62
     6
 10
12026.388436999991
 20
13174.218418
 30
0.0
 11
12071.87876399999
 21
13202.058368
 31
0.0
  0
LINE
  5
4505
  8
0-6
  6
CONTINUOUS
 62
     6
 10
11509.643029999999
 20
14470.315137999991
 30
0.0
 11
11434.05115399999
 21
14613.83419399999
 31
0.0
  0
LINE
  5
4506
  8
0-6
  6
CONTINUOUS
 62
     6
 10
11434.05115399999
 20
14613.83419399999
 30
0.0
 11
11459.005955000001
 21
14453.557522999979
 31
0.0
  0
LINE
  5
4507
  8
0-6
  6
CONTINUOUS
 62
     6
 10
11434.05115399999
 20
14613.83419399999
 30
0.0
 11
11509.643029999999
 21
14470.315137999991
 31
0.0
  0
LINE
  5
4508
  8
0-6
  6
CONTINUOUS
 62
     6
 10
11509.643029999999
 20
14470.315137999991
 30
0.0
 11
11459.005955000001
 21
14453.557522999979
 31
0.0
  0
LINE
  5
4509
  8
0-6
  6
CONTINUOUS
 62
     6
 10
11459.005955000001
 20
14453.557522999979
 30
0.0
 11
11434.05115399999
 21
14613.83419399999
 31
0.0
  0
LINE
  5
450A
  8
0-6
  6
CONTINUOUS
 62
     6
 10
11459.005955000001
 20
14453.557522999979
 30
0.0
 11
11509.643029999999
 21
14470.315137999991
 31
0.0
  0
LINE
  5
450B
  8
0-6
  6
CONTINUOUS
 62
     6
 10
10666.44432599999
 20
16493.778042000002
 30
0.0
 11
10608.035661
 21
16645.104318999991
 31
0.0
  0
LINE
  5
450C
  8
0-6
  6
CONTINUOUS
 62
     6
 10
10608.035661
 20
16645.104318999991
 30
0.0
 11
10614.202851
 21
16483.015399
 31
0.0
  0
LINE
  5
450D
  8
0-6
  6
CONTINUOUS
 62
     6
 10
10608.035661
 20
16645.104318999991
 30
0.0
 11
10666.44432599999
 21
16493.778042000002
 31
0.0
  0
LINE
  5
450E
  8
0-6
  6
CONTINUOUS
 62
     6
 10
10666.44432599999
 20
16493.778042000002
 30
0.0
 11
10614.202851
 21
16483.015399
 31
0.0
  0
LINE
  5
450F
  8
0-6
  6
CONTINUOUS
 62
     6
 10
10614.202851
 20
16483.015399
 30
0.0
 11
10608.035661
 21
16645.104318999991
 31
0.0
  0
LINE
  5
4510
  8
0-6
  6
CONTINUOUS
 62
     6
 10
10614.202851
 20
16483.015399
 30
0.0
 11
10666.44432599999
 21
16493.778042000002
 31
0.0
  0
LINE
  5
4511
  8
0-6
  6
CONTINUOUS
 62
     6
 10
13055.526291
 20
13638.723341000001
 30
0.0
 11
12912.557541
 21
13562.107063999991
 31
0.0
  0
LINE
  5
4512
  8
0-6
  6
CONTINUOUS
 62
     6
 10
12912.557541
 20
13562.107063999991
 30
0.0
 11
13072.647146999991
 21
13588.215924
 31
0.0
  0
LINE
  5
4513
  8
0-6
  6
CONTINUOUS
 62
     6
 10
12912.557541
 20
13562.107063999991
 30
0.0
 11
13055.526291
 21
13638.723341000001
 31
0.0
  0
LINE
  5
4514
  8
0-6
  6
CONTINUOUS
 62
     6
 10
13055.526291
 20
13638.723341000001
 30
0.0
 11
13072.647146999991
 21
13588.215924
 31
0.0
  0
LINE
  5
4515
  8
0-6
  6
CONTINUOUS
 62
     6
 10
13072.647146999991
 20
13588.215924
 30
0.0
 11
12912.557541
 21
13562.107063999991
 31
0.0
  0
LINE
  5
4516
  8
0-6
  6
CONTINUOUS
 62
     6
 10
13072.647146999991
 20
13588.215924
 30
0.0
 11
13055.526291
 21
13638.723341000001
 31
0.0
  0
LINE
  5
4517
  8
0-6
  6
CONTINUOUS
 62
     6
 10
13055.526291
 20
16896.722904999991
 30
0.0
 11
12912.557541
 21
16820.105639000001
 31
0.0
  0
LINE
  5
4518
  8
0-6
  6
CONTINUOUS
 62
     6
 10
12912.557541
 20
16820.105639000001
 30
0.0
 11
13072.647146999991
 21
16846.209549999989
 31
0.0
  0
LINE
  5
4519
  8
0-6
  6
CONTINUOUS
 62
     6
 10
12912.557541
 20
16820.105639000001
 30
0.0
 11
13055.526291
 21
16896.722904999991
 31
0.0
  0
LINE
  5
451A
  8
0-6
  6
CONTINUOUS
 62
     6
 10
13055.526291
 20
16896.722904999991
 30
0.0
 11
13072.647146999991
 21
16846.209549999989
 31
0.0
  0
LINE
  5
451B
  8
0-6
  6
CONTINUOUS
 62
     6
 10
13072.647146999991
 20
16846.209549999989
 30
0.0
 11
12912.557541
 21
16820.105639000001
 31
0.0
  0
LINE
  5
451C
  8
0-6
  6
CONTINUOUS
 62
     6
 10
13072.647146999991
 20
16846.209549999989
 30
0.0
 11
13055.526291
 21
16896.722904999991
 31
0.0
  0
LINE
  5
451D
  8
0-6
  6
CONTINUOUS
 62
     6
 10
10404.268967
 20
18794.513103000001
 30
0.0
 11
10314.449301000001
 21
18929.579614999999
 31
0.0
  0
LINE
  5
451E
  8
0-6
  6
CONTINUOUS
 62
     6
 10
10314.449301000001
 20
18929.579614999999
 30
0.0
 11
10355.603491999969
 21
18772.680991999991
 31
0.0
  0
LINE
  5
451F
  8
0-6
  6
CONTINUOUS
 62
     6
 10
10314.449301000001
 20
18929.579614999999
 30
0.0
 11
10404.268967
 21
18794.513103000001
 31
0.0
  0
LINE
  5
4520
  8
0-6
  6
CONTINUOUS
 62
     6
 10
10404.268967
 20
18794.513103000001
 30
0.0
 11
10355.603491999969
 21
18772.680991999991
 31
0.0
  0
LINE
  5
4521
  8
0-6
  6
CONTINUOUS
 62
     6
 10
10355.603491999969
 20
18772.680991999991
 30
0.0
 11
10314.449301000001
 21
18929.579614999999
 31
0.0
  0
LINE
  5
4522
  8
0-6
  6
CONTINUOUS
 62
     6
 10
10355.603491999969
 20
18772.680991999991
 30
0.0
 11
10404.268967
 21
18794.513103000001
 31
0.0
  0
LINE
  5
4523
  8
0-6
  6
CONTINUOUS
 62
     6
 10
11874.451478000001
 20
19629.727418999992
 30
0.0
 11
11861.953788000001
 21
19468.00470999999
 31
0.0
  0
LINE
  5
4524
  8
0-6
  6
CONTINUOUS
 62
     6
 10
11861.953788000001
 20
19468.00470999999
 30
0.0
 11
11926.226776999991
 21
19616.933789999981
 31
0.0
  0
LINE
  5
4525
  8
0-6
  6
CONTINUOUS
 62
     6
 10
11861.953788000001
 20
19468.00470999999
 30
0.0
 11
11874.451478000001
 21
19629.727418999992
 31
0.0
  0
LINE
  5
4526
  8
0-6
  6
CONTINUOUS
 62
     6
 10
11874.451478000001
 20
19629.727418999992
 30
0.0
 11
11926.226776999991
 21
19616.933789999981
 31
0.0
  0
LINE
  5
4527
  8
0-6
  6
CONTINUOUS
 62
     6
 10
11926.226776999991
 20
19616.933789999981
 30
0.0
 11
11861.953788000001
 21
19468.00470999999
 31
0.0
  0
LINE
  5
4528
  8
0-6
  6
CONTINUOUS
 62
     6
 10
11926.226776999991
 20
19616.933789999981
 30
0.0
 11
11874.451478000001
 21
19629.727418999992
 31
0.0
  0
LINE
  5
4529
  8
0-6
  6
CONTINUOUS
 62
     6
 10
11412.278429
 20
20013.01170399999
 30
0.0
 11
11508.929412999991
 21
19895.606456999991
 31
0.0
  0
LINE
  5
452A
  8
0-6
  6
CONTINUOUS
 62
     6
 10
11508.929412999991
 20
19895.606456999991
 30
0.0
 11
11455.579407999991
 21
20038.007085000001
 31
0.0
  0
LINE
  5
452B
  8
0-6
  6
CONTINUOUS
 62
     6
 10
11508.929412999991
 20
19895.606456999991
 30
0.0
 11
11412.278429
 21
20013.01170399999
 31
0.0
  0
LINE
  5
452C
  8
0-6
  6
CONTINUOUS
 62
     6
 10
11412.278429
 20
20013.01170399999
 30
0.0
 11
11455.579407999991
 21
20038.007085000001
 31
0.0
  0
LINE
  5
452D
  8
0-6
  6
CONTINUOUS
 62
     6
 10
11455.579407999991
 20
20038.007085000001
 30
0.0
 11
11508.929412999991
 21
19895.606456999991
 31
0.0
  0
LINE
  5
452E
  8
0-6
  6
CONTINUOUS
 62
     6
 10
11455.579407999991
 20
20038.007085000001
 30
0.0
 11
11412.278429
 21
20013.01170399999
 31
0.0
  0
LINE
  5
452F
  8
0-6
  6
CONTINUOUS
 62
     6
 10
11380.500227
 20
19851.283056
 30
0.0
 11
11487.19528899999
 21
19729.105189999998
 31
0.0
  0
LINE
  5
4530
  8
0-6
  6
CONTINUOUS
 62
     6
 10
11487.19528899999
 20
19729.105189999998
 30
0.0
 11
11425.89256799999
 21
19879.283347000001
 31
0.0
  0
LINE
  5
4531
  8
0-6
  6
CONTINUOUS
 62
     6
 10
11487.19528899999
 20
19729.105189999998
 30
0.0
 11
11380.500227
 21
19851.283056
 31
0.0
  0
LINE
  5
4532
  8
0-6
  6
CONTINUOUS
 62
     6
 10
11380.500227
 20
19851.283056
 30
0.0
 11
11425.89256799999
 21
19879.283347000001
 31
0.0
  0
LINE
  5
4533
  8
0-6
  6
CONTINUOUS
 62
     6
 10
11425.89256799999
 20
19879.283347000001
 30
0.0
 11
11487.19528899999
 21
19729.105189999998
 31
0.0
  0
LINE
  5
4534
  8
0-6
  6
CONTINUOUS
 62
     6
 10
11425.89256799999
 20
19879.283347000001
 30
0.0
 11
11380.500227
 21
19851.283056
 31
0.0
  0
LINE
  5
4535
  8
0-6
  6
CONTINUOUS
 62
     6
 10
13746.640562000001
 20
20039.412542999991
 30
0.0
 11
13654.95321999999
 21
19905.60500499999
 31
0.0
  0
LINE
  5
4536
  8
0-6
  6
CONTINUOUS
 62
     6
 10
13654.95321999999
 20
19905.60500499999
 30
0.0
 11
13785.077864000001
 21
20002.445034
 31
0.0
  0
LINE
  5
4537
  8
0-6
  6
CONTINUOUS
 62
     6
 10
13654.95321999999
 20
19905.60500499999
 30
0.0
 11
13746.640562000001
 21
20039.412542999991
 31
0.0
  0
LINE
  5
4538
  8
0-6
  6
CONTINUOUS
 62
     6
 10
13746.640562000001
 20
20039.412542999991
 30
0.0
 11
13785.077864000001
 21
20002.445034
 31
0.0
  0
LINE
  5
4539
  8
0-6
  6
CONTINUOUS
 62
     6
 10
13785.077864000001
 20
20002.445034
 30
0.0
 11
13654.95321999999
 21
19905.60500499999
 31
0.0
  0
LINE
  5
453A
  8
0-6
  6
CONTINUOUS
 62
     6
 10
13785.077864000001
 20
20002.445034
 30
0.0
 11
13746.640562000001
 21
20039.412542999991
 31
0.0
  0
LINE
  5
453B
  8
3-0
  6
DASHED3
 62
     6
 10
13095.42554700001
 20
16810.10355399999
 30
0.0
 11
13582.949301000001
 21
16810.10355399999
 31
0.0
  0
LINE
  5
453C
  8
3-0
  6
DASHED3
 62
     6
 10
10314.449301000001
 20
19644.106641999992
 30
0.0
 11
13582.949301000001
 21
19644.106641999992
 31
0.0
  0
LINE
  5
453D
  8
3-0
  6
DASHED3
 62
     6
 10
10271.952006
 20
19490.076341999989
 30
0.0
 11
10271.952006
 21
19729.105189999998
 31
0.0
  0
LINE
  5
453E
  8
3-0
  6
DASHED3
 62
     6
 10
10314.449301000001
 20
19451.972589000001
 30
0.0
 11
10314.449301000001
 21
19729.105189999998
 31
0.0
  0
LINE
  5
453F
  8
3-0
  6
DASHED3
 62
     6
 10
10271.952006
 20
19729.105189999998
 30
0.0
 11
13625.446596000011
 21
19729.105189999998
 31
0.0
  0
LINE
  5
4540
  8
3-0
  6
DASHED3
 62
     6
 10
13186.910978000011
 20
16720.10078199999
 30
0.0
 11
13582.949301000001
 21
16720.10078199999
 31
0.0
  0
LINE
  5
4541
  8
3-0
  6
DASHED3
 62
     6
 10
13582.949301000001
 20
16344.680135000001
 30
0.0
 11
13582.949301000001
 21
19729.105189999998
 31
0.0
  0
LINE
  5
4542
  8
3-0
  6
DASHED3
 62
     6
 10
13625.446596000011
 20
16301.535537
 30
0.0
 11
13625.446596000011
 21
19729.105189999998
 31
0.0
  0
LINE
  5
4543
  8
3-0
  6
DASHED3
 62
     6
 10
10384.45101599999
 20
19683.105136999991
 30
0.0
 11
13512.95055500001
 21
16765.105136999999
 31
0.0
  0
LINE
  5
4544
  8
3-0
  6
DASHED3
 62
     6
 10
11905.072651
 20
18183.30747
 30
0.0
 11
13512.95055500001
 21
19683.105136999991
 31
0.0
  0
LINE
  5
4545
  8
3-0
  6
DASHED3
 62
     6
 10
13125.923000000001
 20
16780.10592899999
 30
0.0
 11
13582.949301000001
 21
16780.10592899999
 31
0.0
  0
LINE
  5
4546
  8
3-0
  6
CENTER2
 62
     6
 10
13582.949301000001
 20
20925.60540099999
 30
0.0
 11
13582.949301000001
 21
19975.604740999981
 31
0.0
  0
LINE
  5
4547
  8
3-0
  6
CENTER2
 62
     6
 10
8984.9531540000007
 20
19683.105136999991
 30
0.0
 11
10631.451386000001
 21
19683.105136999991
 31
0.0
  0
LINE
  5
4548
  8
3-0
  6
CENTER2
 62
     6
 10
10314.449301000001
 20
20925.60540099999
 30
0.0
 11
10314.449301000001
 21
19975.604740999981
 31
0.0
  0
LINE
  5
4549
  8
3-0
  6
CENTER2
 62
     6
 10
8984.9531540000007
 20
16765.105136999999
 30
0.0
 11
10631.451386000001
 21
16765.105136999999
 31
0.0
  0
LINE
  5
454A
  8
3-0
  6
CENTER2
 62
     6
 10
8984.9531540000007
 20
13496.60513699999
 30
0.0
 11
10631.451386000001
 21
13496.60513699999
 31
0.0
  0
LINE
  5
454B
  8
3-0
  6
CENTER2
 62
     6
 10
10287.95443399999
 20
16635.102233999991
 30
0.0
 11
13582.949301000001
 21
16635.102233999991
 31
0.0
  0
LINE
  5
454C
  8
3-0
  6
CENTER2
 62
     6
 10
10445.179677
 20
13891.60421300001
 30
0.0
 11
10614.891723000001
 21
13891.60421300001
 31
0.0
  0
LINE
  5
454D
  8
3-0
  6
CENTER2
 62
     6
 10
13452.22387399999
 20
13891.60421300001
 30
0.0
 11
13282.511828000001
 21
13891.60421300001
 31
0.0
  0
LINE
  5
454E
  8
3-0
  6
CONTINUOUS
 62
     3
 10
13048.764335000011
 20
16280.081514999991
 30
0.0
 11
13332.659962000011
 21
16576.720292000002
 31
0.0
  0
LINE
  5
454F
  8
3-0
  6
DASHED3
 62
     6
 10
13332.659962000011
 20
16576.720292000002
 30
0.0
 11
13512.95055500001
 21
16765.105136999999
 31
0.0
  0
ARC
  5
4550
  8
3-0
  6
CONTINUOUS
 62
     3
 10
13663.450423
 20
19900.608700000001
 30
0.0
 40
5.0000010000000001
 50
0.0
 51
90.0
  0
ARC
  5
4551
  8
3-0
  6
CONTINUOUS
 62
     3
 10
13599.94845699999
 20
19900.608700000001
 30
0.0
 40
5.0000010000000001
 50
90.0
 51
180.0
  0
ARC
  5
4552
  8
3-0
  6
CONTINUOUS
 62
     3
 10
13599.94845699999
 20
19870.605136999991
 30
0.0
 40
5.0000010000000001
 50
180.0
 51
269.9999849999985
  0
ARC
  5
4553
  8
3-0
  6
CONTINUOUS
 62
     3
 10
10297.457074
 20
19870.605136999991
 30
0.0
 40
5.0000010000000001
 50
269.9999849999985
 51
0.0
  0
ARC
  5
4554
  8
3-0
  6
CONTINUOUS
 62
     3
 10
10297.457074
 20
19900.608700000001
 30
0.0
 40
5.0000010000000001
 50
0.0
 51
90.0
  0
ARC
  5
4555
  8
3-0
  6
CONTINUOUS
 62
     3
 10
10233.954118
 20
19900.608700000001
 30
0.0
 40
5.0000010000000001
 50
90.0
 51
180.0
  0
CIRCLE
  5
4556
  8
3-0
  6
CONTINUOUS
 62
     4
 10
13582.949301000001
 20
21125.606060999991
 30
0.0
 40
200.00001
  0
CIRCLE
  5
4557
  8
3-0
  6
CONTINUOUS
 62
     4
 10
10314.449301000001
 20
21125.606060999991
 30
0.0
 40
200.00001
  0
CIRCLE
  5
4558
  8
3-0
  6
CONTINUOUS
 62
     4
 10
8784.9554640000006
 20
19683.105136999991
 30
0.0
 40
200.00001
  0
CIRCLE
  5
4559
  8
3-0
  6
CONTINUOUS
 62
     4
 10
8784.9554640000006
 20
16765.105136999999
 30
0.0
 40
200.00001
  0
CIRCLE
  5
455A
  8
3-0
  6
CONTINUOUS
 62
     4
 10
8784.9554640000006
 20
13496.60513699999
 30
0.0
 40
200.00001
  0
TEXT
  5
455B
  8
0-5
  6
CONTINUOUS
 62
     7
 10
20612.241477999989
 20
2976.8647870000018
 30
0.0
 40
160.0
  1
正 面 立 面 図
 72
     4
 11
21257.574811333321
 21
3056.8647870000018
 31
0.0
  0
TEXT
  5
455C
  8
0-5
  6
CONTINUOUS
 62
     7
 10
10819.333432999991
 20
2976.8647870000018
 30
0.0
 40
160.0
  1
側 面 立 面 図
 72
     4
 11
11464.66676633333
 21
3056.8647870000018
 31
0.0
  0
TEXT
  5
455D
  8
0-D
  6
CONTINUOUS
 62
     7
 10
23319.943784999999
 20
2976.8647870000018
 30
0.0
 40
160.0
  1
80
 72
     4
 11
23439.943784999999
 21
3056.8647870000018
 31
0.0
  0
TEXT
  5
455E
  8
0-D
  6
CONTINUOUS
 62
     7
 10
23120.655750999991
 20
3056.8648039999998
 30
0.0
 40
160.0
  1
1
 72
     4
 11
23147.322417666659
 21
3136.8648039999998
 31
0.0
  0
TEXT
  5
455F
  8
0-D
  6
CONTINUOUS
 62
     7
 10
22563.265192049559
 20
3030.3644939999999
 30
0.0
 40
160.0
  1
(S=  /   )
 72
     4
 11
23123.265192049559
 21
3110.3644939999999
 31
0.0
  0
TEXT
  5
4560
  8
0-D
  6
CONTINUOUS
 62
     7
 10
13327.74869599999
 20
3056.8648039999998
 30
0.0
 40
160.0
  1
1
 72
     4
 11
13354.415362666659
 21
3136.8648039999998
 31
0.0
  0
TEXT
  5
4561
  8
0-D
  6
CONTINUOUS
 62
     7
 10
13527.03673
 20
2976.8647870000018
 30
0.0
 40
160.0
  1
80
 72
     4
 11
13647.03673
 21
3056.8647870000018
 31
0.0
  0
TEXT
  5
4562
  8
0-D
  6
CONTINUOUS
 62
     7
 10
12807.68355639708
 20
3022.0371540000001
 30
0.0
 40
160.0
  1
(S=  /   )
 72
     4
 11
13367.68355639708
 21
3102.0371540000001
 31
0.0
  0
TEXT
  5
4563
  8
3-0
  6
CONTINUOUS
 62
     7
 10
13537.495596000001
 20
21047.909956999989
 30
0.0
 40
160.0
  1
2
 50
359.998582
 72
     4
 11
13590.830909218501
 21
21127.90863704115
 31
0.0
  0
TEXT
  5
4564
  8
3-0
  6
CONTINUOUS
 62
     7
 10
10268.997574999999
 20
21047.909956999989
 30
0.0
 40
160.0
  1
1
 50
359.998582
 72
     4
 11
10295.666221560001
 21
21127.909297008318
 31
0.0
  0
TEXT
  5
4565
  8
3-0
  6
CONTINUOUS
 62
     7
 10
8737.3618989999977
 20
19604.11640699999
 30
0.0
 40
160.0
  1
C
 72
     4
 11
8790.6952323333317
 21
19684.11640699999
 31
0.0
  0
TEXT
  5
4566
  8
3-0
  6
CONTINUOUS
 62
     7
 10
8737.3618989999977
 20
16686.114427999979
 30
0.0
 40
160.0
  1
B
 72
     4
 11
8790.6952323333317
 21
16766.114427999979
 31
0.0
  0
TEXT
  5
4567
  8
3-0
  6
CONTINUOUS
 62
     7
 10
8737.3618989999977
 20
13417.61442700001
 30
0.0
 40
160.0
  1
A
 72
     4
 11
8790.6952323333317
 21
13497.61442700001
 31
0.0
  0
TEXT
  5
4568
  8
0-6
  6
CONTINUOUS
 62
     7
 10
12124.24296899999
 20
20215.609491999989
 30
0.0
 40
160.0
  1
屋根
 50
359.99964599999993
 72
     4
 11
12294.91012994065
 21
20295.608437540352
 31
0.0
  0
TEXT
  5
4569
  8
0-6
  6
CONTINUOUS
 62
     7
 10
11034.676352
 20
21005.607644999978
 30
0.0
 40
160.0
  1
鼻隠し後
 50
359.99982299999999
 72
     4
 11
11397.34326580356
 21
21085.606524637838
 31
0.0
  0
TEXT
  5
456A
  8
0-6
  6
CONTINUOUS
 62
     7
 10
11627.72230299998
 20
14318.434594999981
 30
0.0
 40
160.0
  1
ブレース
 72
     4
 11
11990.38896966665
 21
14403.76792833332
 31
0.0
  0
TEXT
  5
456B
  8
0-6
  6
CONTINUOUS
 62
     7
 10
12535.24843299999
 20
12604.60798799998
 30
0.0
 40
160.0
  1
鼻隠し前
 50
359.99973399999988
 72
     4
 11
12897.91547106882
 21
12684.60630429163
 31
0.0
  0
TEXT
  5
456C
  8
0-6
  6
CONTINUOUS
 62
     7
 10
8550.3176830000011
 20
12114.60785599999
 30
0.0
 40
160.0
  1
ケラバ 左
 72
     4
 11
8966.3176830000029
 21
12194.60785599999
 31
0.0
  0
TEXT
  5
456D
  8
0-6
  6
CONTINUOUS
 62
     7
 10
10558.97824099999
 20
18642.806757999992
 30
0.0
 40
160.0
  1
上枠
 50
359.99964599999993
 72
     4
 11
10729.64540194065
 21
18722.80570354034
 31
0.0
  0
TEXT
  5
456E
  8
0-6
  6
CONTINUOUS
 62
     7
 10
14772.612176000001
 20
21005.607644999989
 30
0.0
 40
160.0
  1
鼻隠しコーナー後
 50
359.999911
 72
     4
 11
15519.278966933211
 21
21085.606485170421
 31
0.0
  0
TEXT
  5
456F
  8
0-6
  6
CONTINUOUS
 62
     7
 10
10814.229243999989
 20
15204.964961
 30
0.0
 40
160.0
  1
水平上レール
 72
     4
 11
11368.895910666661
 21
15284.964961
 31
0.0
  0
TEXT
  5
4570
  8
0-6
  6
CONTINUOUS
 62
     7
 10
10818.882102999991
 20
16090.07997099999
 30
0.0
 40
160.0
  1
シャッター巻取シャフト
 72
     4
 11
11848.215436333319
 21
16170.07997099999
 31
0.0
  0
TEXT
  5
4571
  8
0-6
  6
CONTINUOUS
 62
     7
 10
10755.57808799998
 20
20215.609491999989
 30
0.0
 40
160.0
  1
桁後
 50
359.99964599999993
 72
     4
 11
10926.245248940641
 21
20295.608437540352
 31
0.0
  0
TEXT
  5
4572
  8
3-0
  6
CONTINUOUS
 62
     7
 10
22997.034815999988
 20
11276.624193
 30
0.0
 40
160.0
  1
80
 72
     4
 11
23117.034815999988
 21
11356.624193
 31
0.0
  0
TEXT
  5
4573
  8
3-0
  6
CONTINUOUS
 62
     7
 10
22797.748763
 20
11356.62247799999
 30
0.0
 40
160.0
  1
1
 50
0.002127
 72
     4
 11
22824.41245979604
 21
11436.623467895621
 31
0.0
  0
TEXT
  5
4574
  8
3-0
  6
CONTINUOUS
 62
     7
 10
20711.773652
 20
11276.624192999991
 30
0.0
 40
160.0
  1
平　面　図
 72
     4
 11
21165.106985333328
 21
11351.29085966666
 31
0.0
  0
TEXT
  5
4575
  8
3-0
  6
CONTINUOUS
 62
     7
 10
22258.80949424595
 20
11313.658017
 30
0.0
 40
160.0
  1
(S=  /   )
 72
     4
 11
22818.809494245939
 21
11393.658017
 31
0.0
  0
TEXT
  5
4576
  8
3-0
  6
CONTINUOUS
 62
     7
 10
12775.670862000001
 20
11356.62247799999
 30
0.0
 40
160.0
  1
1
 50
0.002127
 72
     4
 11
12802.334558796039
 21
11436.623467895621
 31
0.0
  0
TEXT
  5
4577
  8
3-0
  6
CONTINUOUS
 62
     7
 10
12974.95790499999
 20
11276.624193
 30
0.0
 40
160.0
  1
80
 72
     4
 11
13094.95790499999
 21
11356.624193
 31
0.0
  0
TEXT
  5
4578
  8
3-0
  6
CONTINUOUS
 62
     7
 10
12275.08114436323
 20
11329.561469
 30
0.0
 40
160.0
  1
(S=  /   )
 72
     4
 11
12835.08114436323
 21
11409.561469
 31
0.0
  0
TEXT
  5
4579
  8
3-0
  6
CONTINUOUS
 62
     7
 10
10684.160026999991
 20
11276.624193
 30
0.0
 40
160.0
  1
小 屋 伏 図
 72
     4
 11
11185.49336033333
 21
11356.624193
 31
0.0
  0
TEXT
  5
457A
  8
0-6
  6
CONTINUOUS
 62
     7
 10
13961.85283199999
 20
17441.634882999992
 30
0.0
 40
160.0
  1
桁中（OSD）
 72
     4
 11
14521.85283199999
 21
17521.634882999992
 31
0.0
  0
TEXT
  5
457B
  8
0-6
  6
CONTINUOUS
 62
     7
 10
13961.85283199999
 20
17221.633166999982
 30
0.0
 40
160.0
  1
+桁中補強（OSD）
 72
     4
 11
14793.85283199999
 21
17301.633166999982
 31
0.0
  0
TEXT
  5
457C
  8
0-6
  6
CONTINUOUS
 62
     7
 10
13937.121716999991
 20
14200.06928199998
 30
0.0
 40
160.0
  1
桁前（OSD）
 72
     4
 11
14497.121716999991
 21
14280.06928199998
 31
0.0
  0
TEXT
  5
457D
  8
0-6
  6
CONTINUOUS
 62
     7
 10
13937.121716999991
 20
13980.07152499999
 30
0.0
 40
160.0
  1
+桁前補強（OSD）
 72
     4
 11
14769.121716999991
 21
14060.07152499999
 31
0.0
  0
TEXT
  5
4580
  8
NAME
 10
24493.37543023163
 20
1076.0
 30
0.0
 40
360.0
  1
型（単棟）
  7
01
  0
TEXT
  5
4582
  8
NAME
 10
21853.692347086919
 20
1076.6369801169251
 30
0.0
 40
360.0
  1
VGCO-3362H
 41
0.6700000000000002
  0
LINE
  5
4583
  8
SUNPOU
  6
CONTINUOUS
 10
24692.406781000002
 20
13496.609095999949
 30
0.0
 11
24692.406781000002
 21
12700.11618499107
 31
0.0
  0
LINE
  5
4584
  8
2-0
  6
CONTINUOUS
 62
     3
 10
23642.405460999991
 20
14576.513464999971
 30
0.0
 11
23642.405460999991
 21
13932.71016999996
 31
0.0
  0
LINE
  5
4585
  8
2-0
  6
CONTINUOUS
 62
     3
 10
23642.405460999991
 20
15277.748532999971
 30
0.0
 11
23642.405460999991
 21
14633.709674999969
 31
0.0
  0
LINE
  5
4586
  8
2-0
  6
CONTINUOUS
 62
     3
 10
23517.10589399996
 20
19725.60738099998
 30
0.0
 11
22870.60722725001
 21
19725.607380999991
 31
0.0
  0
TEXT
  5
4587
  8
2-0
  6
CONTINUOUS
 62
     7
 10
20287.200568000011
 20
21040.399281274811
 30
0.0
 40
160.0
  1
1
 72
     4
 11
20313.867234666672
 21
21120.399281274811
 31
0.0
  0
TEXT
  5
4588
  8
2-0
  6
CONTINUOUS
 62
     7
 10
23548.275394000011
 20
21032.300083385879
 30
0.0
 40
160.0
  1
2
 72
     4
 11
23601.60872733334
 21
21112.300083385879
 31
0.0
  0
TEXT
  5
4589
  8
2-0
  6
CONTINUOUS
 62
     7
 10
19626.893708726631
 20
13408.001884999971
 30
0.0
 40
160.0
  1
A
 72
     4
 11
19680.22704205996
 21
13488.001884999971
 31
0.0
  0
TEXT
  5
458A
  8
2-0
  6
CONTINUOUS
 62
     7
 10
19626.851148726611
 20
16694.71501399999
 30
0.0
 40
160.0
  1
B
 72
     4
 11
19680.18448205994
 21
16774.71501399999
 31
0.0
  0
TEXT
  5
458B
  8
2-0
  6
CONTINUOUS
 62
     7
 10
19626.630432726619
 20
19588.62865399996
 30
0.0
 40
160.0
  1
C
 72
     4
 11
19679.963766059951
 21
19668.62865399996
 31
0.0
  0
TEXT
  5
458C
  8
0-3
  6
CONTINUOUS
 62
     7
 10
24414.902689999992
 20
20535.606588999832
 30
0.0
 40
160.0
  1
後柱（左右）
 50
0.0003540000147867
 72
     4
 11
24926.902195712952
 21
20615.609752372799
 31
0.0
  0
TEXT
  5
458D
  8
0-3
  6
CONTINUOUS
 62
     7
 10
22096.312370999989
 20
18656.058868499949
 30
0.0
 40
160.0
  1
間柱（側）
 72
     4
 11
22517.645704333328
 21
18736.058868499949
 31
0.0
  0
TEXT
  5
458E
  8
0-3
  6
CONTINUOUS
 62
     7
 10
22601.346946999951
 20
15177.142502312499
 30
0.0
 40
160.0
  1
下枠
 50
0.0010629999871935
 72
     4
 11
22772.012129409271
 21
15257.14566865175
 31
0.0
  0
TEXT
  5
458F
  8
0-3
  6
CONTINUOUS
 62
     7
 10
21921.344702999999
 20
17052.790129999848
 30
0.0
 40
160.0
  1
中柱（左右）
 50
0.0003540000147867
 72
     4
 11
22438.6775420462
 21
17132.793326324641
 31
0.0
  0
TEXT
  5
4590
  8
0-3
  6
CONTINUOUS
 62
     7
 10
22201.347607000029
 20
16215.60223399986
 30
0.0
 40
160.0
  1
壁パネル
 50
359.99982300001841
 72
     4
 11
22564.014520803561
 21
16295.60111363784
 31
0.0
  0
CIRCLE
  5
4591
  8
2-0
  6
CONTINUOUS
 62
     4
 10
20331.407177000001
 20
21129.166833274809
 30
0.0
 40
200.00001
  0
CIRCLE
  5
4592
  8
2-0
  6
CONTINUOUS
 62
     4
 10
23599.907177000001
 20
21127.825712385889
 30
0.0
 40
200.00001
  0
CIRCLE
  5
4593
  8
2-0
  6
CONTINUOUS
 62
     4
 10
19674.62979972663
 20
13496.609095999949
 30
0.0
 40
200.00001
  0
CIRCLE
  5
4594
  8
2-0
  6
CONTINUOUS
 62
     4
 10
19674.62979972663
 20
16765.109095999971
 30
0.0
 40
200.00001
  0
CIRCLE
  5
4595
  8
2-0
  6
CONTINUOUS
 62
     4
 10
19674.62979972663
 20
19683.10909599996
 30
0.0
 40
200.00001
  0
LINE
  5
4596
  8
2-0
  6
CONTINUOUS
 62
     3
 10
23561.403560999988
 20
13539.10737999995
 30
0.0
 11
23561.403560999988
 21
19725.607380999991
 31
0.0
  0
LINE
  5
4597
  8
2-0
  6
CONTINUOUS
 62
     3
 10
23642.405460999991
 20
13579.147102999959
 30
0.0
 11
23642.405460999991
 21
13875.51395999998
 31
0.0
  0
LINE
  5
4598
  8
2-0
  6
CONTINUOUS
 62
     3
 10
23630.403640000011
 20
13919.70869199996
 30
0.0
 11
23637.405196999978
 21
13919.70869199996
 31
0.0
  0
LINE
  5
4599
  8
2-0
  6
CONTINUOUS
 62
     3
 10
23637.405196999978
 20
13919.70869199996
 30
0.0
 11
23637.405196999978
 21
13914.702489999951
 31
0.0
  0
LINE
  5
459A
  8
2-0
  6
CONTINUOUS
 62
     3
 10
23637.405196999978
 20
13914.702489999951
 30
0.0
 11
23612.407836999981
 21
13914.702489999951
 31
0.0
  0
LINE
  5
459B
  8
2-0
  6
CONTINUOUS
 62
     3
 10
23612.407836999981
 20
13914.702489999951
 30
0.0
 11
23612.407836999981
 21
13932.71016999996
 31
0.0
  0
LINE
  5
459C
  8
2-0
  6
CONTINUOUS
 62
     3
 10
23612.407836999981
 20
13932.71016999996
 30
0.0
 11
23642.405460999991
 21
13932.71016999996
 31
0.0
  0
LINE
  5
459D
  8
2-0
  6
CONTINUOUS
 62
     3
 10
23612.407836999981
 20
13916.612724999981
 30
0.0
 11
23612.407836999981
 21
13922.608686999951
 31
0.0
  0
LINE
  5
459E
  8
2-0
  6
CONTINUOUS
 62
     3
 10
23612.407836999981
 20
13922.608686999951
 30
0.0
 11
23642.405460999991
 21
13922.608686999951
 31
0.0
  0
LINE
  5
459F
  8
2-0
  6
CONTINUOUS
 62
     3
 10
23642.405460999991
 20
13885.609504999949
 30
0.0
 11
23642.405460999991
 21
13922.608686999951
 31
0.0
  0
LINE
  5
45A0
  8
2-0
  6
CONTINUOUS
 62
     3
 10
23612.407836999981
 20
13885.609504999949
 30
0.0
 11
23642.405460999991
 21
13885.609504999949
 31
0.0
  0
LINE
  5
45A1
  8
2-0
  6
CONTINUOUS
 62
     3
 10
23612.407836999981
 20
13891.611405999971
 30
0.0
 11
23612.407836999981
 21
13885.609504999949
 31
0.0
  0
LINE
  5
45A2
  8
2-0
  6
CONTINUOUS
 62
     3
 10
23612.407836999981
 20
13875.51395999998
 30
0.0
 11
23642.405460999991
 21
13875.51395999998
 31
0.0
  0
LINE
  5
45A3
  8
2-0
  6
CONTINUOUS
 62
     3
 10
23612.407836999981
 20
13893.509763999949
 30
0.0
 11
23612.407836999981
 21
13875.51395999998
 31
0.0
  0
LINE
  5
45A4
  8
2-0
  6
CONTINUOUS
 62
     3
 10
23637.405196999978
 20
13893.509763999949
 30
0.0
 11
23612.407836999981
 21
13893.509763999949
 31
0.0
  0
LINE
  5
45A5
  8
2-0
  6
CONTINUOUS
 62
     3
 10
23637.405196999978
 20
13888.51543799998
 30
0.0
 11
23637.405196999978
 21
13893.509763999949
 31
0.0
  0
LINE
  5
45A6
  8
2-0
  6
CONTINUOUS
 62
     3
 10
23630.403640000011
 20
13888.51543799998
 30
0.0
 11
23637.405196999978
 21
13888.51543799998
 31
0.0
  0
LINE
  5
45A7
  8
2-0
  6
CONTINUOUS
 62
     3
 10
20369.908812999991
 20
13539.10737999997
 30
0.0
 11
20369.908812999991
 21
19725.607380999991
 31
0.0
  0
LINE
  5
45A8
  8
2-0
  6
CONTINUOUS
 62
     3
 10
20288.910872
 20
13579.14710299997
 30
0.0
 11
20288.910872
 21
13875.51395999998
 31
0.0
  0
LINE
  5
45A9
  8
2-0
  6
CONTINUOUS
 62
     3
 10
20300.912692999991
 20
13919.70869199998
 30
0.0
 11
20293.915094999989
 21
13919.70869199998
 31
0.0
  0
LINE
  5
45AA
  8
2-0
  6
CONTINUOUS
 62
     3
 10
20293.915094999989
 20
13919.70869199998
 30
0.0
 11
20293.915094999989
 21
13914.702489999971
 31
0.0
  0
LINE
  5
45AB
  8
2-0
  6
CONTINUOUS
 62
     3
 10
20293.915094999989
 20
13914.702489999971
 30
0.0
 11
20318.908497
 21
13914.702489999971
 31
0.0
  0
LINE
  5
45AC
  8
2-0
  6
CONTINUOUS
 62
     3
 10
20318.908497
 20
13914.702489999971
 30
0.0
 11
20318.908497
 21
13932.71016999998
 31
0.0
  0
LINE
  5
45AD
  8
2-0
  6
CONTINUOUS
 62
     3
 10
20318.908497
 20
13932.71016999998
 30
0.0
 11
20288.910872
 21
13932.71016999998
 31
0.0
  0
LINE
  5
45AE
  8
2-0
  6
CONTINUOUS
 62
     3
 10
20318.908497
 20
13916.612724999981
 30
0.0
 11
20318.908497
 21
13922.608686999951
 31
0.0
  0
LINE
  5
45AF
  8
2-0
  6
CONTINUOUS
 62
     3
 10
20318.908497
 20
13922.608686999951
 30
0.0
 11
20288.910872
 21
13922.608686999951
 31
0.0
  0
LINE
  5
45B0
  8
2-0
  6
CONTINUOUS
 62
     3
 10
20288.910872
 20
13885.60950499998
 30
0.0
 11
20288.910872
 21
13922.608686999951
 31
0.0
  0
LINE
  5
45B1
  8
2-0
  6
CONTINUOUS
 62
     3
 10
20318.908497
 20
13885.60950499998
 30
0.0
 11
20288.910872
 21
13885.60950499998
 31
0.0
  0
LINE
  5
45B2
  8
2-0
  6
CONTINUOUS
 62
     3
 10
20318.908497
 20
13891.611405999991
 30
0.0
 11
20318.908497
 21
13885.60950499998
 31
0.0
  0
LINE
  5
45B3
  8
2-0
  6
CONTINUOUS
 62
     3
 10
20318.908497
 20
13875.51395999998
 30
0.0
 11
20288.910872
 21
13875.51395999998
 31
0.0
  0
LINE
  5
45B4
  8
2-0
  6
CONTINUOUS
 62
     3
 10
20318.908497
 20
13893.509763999949
 30
0.0
 11
20318.908497
 21
13875.51395999998
 31
0.0
  0
LINE
  5
45B5
  8
2-0
  6
CONTINUOUS
 62
     3
 10
20293.915094999989
 20
13893.509763999949
 30
0.0
 11
20318.908497
 21
13893.509763999949
 31
0.0
  0
LINE
  5
45B6
  8
2-0
  6
CONTINUOUS
 62
     3
 10
20293.915094999989
 20
13888.51543799998
 30
0.0
 11
20293.915094999989
 21
13893.509763999949
 31
0.0
  0
LINE
  5
45B7
  8
2-0
  6
CONTINUOUS
 62
     3
 10
20300.912692999991
 20
13888.51543799998
 30
0.0
 11
20293.915094999989
 21
13888.51543799998
 31
0.0
  0
LINE
  5
45B8
  8
2-0
  6
CENTER2
 62
     6
 10
23599.907177000001
 20
20927.825702385879
 30
0.0
 11
23599.907177000001
 21
12870.81861527022
 31
0.0
  0
LINE
  5
45B9
  8
2-0
  6
CONTINUOUS
 62
     3
 10
20288.910872
 20
19600.31375199998
 30
0.0
 11
20288.910872
 21
18953.705221499949
 31
0.0
  0
LINE
  5
45BA
  8
2-0
  6
CONTINUOUS
 62
     3
 10
23642.405460999991
 20
19600.31375199998
 30
0.0
 11
23642.405460999991
 21
18953.705221499949
 31
0.0
  0
LINE
  5
45BB
  8
2-0
  6
CENTER2
 62
     6
 10
20331.407177000001
 20
20929.16682327482
 30
0.0
 11
20331.407177000001
 21
12870.845661999971
 31
0.0
  0
LINE
  5
45BC
  8
2-0
  6
CONTINUOUS
 62
     3
 10
20288.910872
 20
13932.64682599998
 30
0.0
 11
20288.910872
 21
14576.513464999971
 31
0.0
  0
LINE
  5
45BD
  8
2-0
  6
CONTINUOUS
 62
     3
 10
20288.910872
 20
19640.610811999981
 30
0.0
 11
23557.410872000011
 21
19640.610811999981
 31
0.0
  0
LINE
  5
45BE
  8
2-0
  6
CONTINUOUS
 62
     3
 10
20414.212418999999
 20
19725.607380999991
 30
0.0
 11
20710.415966250031
 21
19725.607380999991
 31
0.0
  0
LINE
  5
45BF
  8
2-0
  6
CONTINUOUS
 62
     3
 10
20723.413485250021
 20
19713.60753899999
 30
0.0
 11
20723.413485250021
 21
19720.613054999991
 31
0.0
  0
LINE
  5
45C0
  8
2-0
  6
CONTINUOUS
 62
     3
 10
20723.413485250021
 20
19720.613054999991
 30
0.0
 11
20728.411769250019
 21
19720.613054999991
 31
0.0
  0
LINE
  5
45C1
  8
2-0
  6
CONTINUOUS
 62
     3
 10
20728.411769250019
 20
19720.613054999991
 30
0.0
 11
20728.411769250019
 21
19695.603817999981
 31
0.0
  0
LINE
  5
45C2
  8
2-0
  6
CONTINUOUS
 62
     3
 10
20728.411769250019
 20
19695.603817999981
 30
0.0
 11
20710.415966250031
 21
19695.603817999981
 31
0.0
  0
LINE
  5
45C3
  8
2-0
  6
CONTINUOUS
 62
     3
 10
20710.415966250031
 20
19695.603817999981
 30
0.0
 11
20710.415966250031
 21
19725.607380999991
 31
0.0
  0
LINE
  5
45C4
  8
2-0
  6
CONTINUOUS
 62
     3
 10
20726.505493250032
 20
19695.603817999981
 30
0.0
 11
20720.511511250021
 21
19695.603817999981
 31
0.0
  0
LINE
  5
45C5
  8
2-0
  6
CONTINUOUS
 62
     3
 10
20720.511511250021
 20
19695.603817999981
 30
0.0
 11
20720.511511250021
 21
19725.607380999991
 31
0.0
  0
LINE
  5
45C6
  8
2-0
  6
CONTINUOUS
 62
     3
 10
20720.511511250021
 20
19725.607380999991
 30
0.0
 11
20757.506733250011
 21
19725.607380999991
 31
0.0
  0
LINE
  5
45C7
  8
2-0
  6
CONTINUOUS
 62
     3
 10
20757.506733250011
 20
19695.603817999981
 30
0.0
 11
20757.506733250011
 21
19725.607380999991
 31
0.0
  0
LINE
  5
45C8
  8
2-0
  6
CONTINUOUS
 62
     3
 10
20751.502853250029
 20
19695.603817999981
 30
0.0
 11
20757.506733250011
 21
19695.603817999981
 31
0.0
  0
LINE
  5
45C9
  8
2-0
  6
CONTINUOUS
 62
     3
 10
20767.602278250019
 20
19695.603817999981
 30
0.0
 11
20767.602278250019
 21
19725.607380999991
 31
0.0
  0
LINE
  5
45CA
  8
2-0
  6
CONTINUOUS
 62
     3
 10
20749.60053625
 20
19695.603817999981
 30
0.0
 11
20767.602278250019
 21
19695.603817999981
 31
0.0
  0
LINE
  5
45CB
  8
2-0
  6
CONTINUOUS
 62
     3
 10
20749.60053625
 20
19720.613054999991
 30
0.0
 11
20749.60053625
 21
19695.603817999981
 31
0.0
  0
LINE
  5
45CC
  8
2-0
  6
CONTINUOUS
 62
     3
 10
20754.600800250031
 20
19720.613054999991
 30
0.0
 11
20749.60053625
 21
19720.613054999991
 31
0.0
  0
LINE
  5
45CD
  8
2-0
  6
CONTINUOUS
 62
     3
 10
20754.600800250031
 20
19713.60753899999
 30
0.0
 11
20754.600800250031
 21
19720.613054999991
 31
0.0
  0
LINE
  5
45CE
  8
2-0
  6
CENTER2
 62
     6
 10
19874.627489726601
 20
13496.609095999949
 30
0.0
 11
24492.406781000002
 21
13496.609095999949
 31
0.0
  0
LINE
  5
45CF
  8
2-0
  6
CENTER2
 62
     6
 10
19874.627489726601
 20
16765.109095999971
 30
0.0
 11
24492.406781000002
 21
16765.109095999971
 31
0.0
  0
LINE
  5
45D0
  8
2-0
  6
CENTER2
 62
     6
 10
19874.627489726601
 20
19683.10909599996
 30
0.0
 11
24492.406781000002
 21
19683.10909599996
 31
0.0
  0
LINE
  5
45D1
  8
2-0
  6
CONTINUOUS
 62
     3
 10
23642.405460999991
 20
19610.61120799998
 30
0.0
 11
23642.405460999991
 21
19725.607380999991
 31
0.0
  0
LINE
  5
45D2
  8
2-0
  6
CONTINUOUS
 62
     3
 10
20288.910872
 20
15978.50851649996
 30
0.0
 11
20288.910872
 21
15334.94474299998
 31
0.0
  0
LINE
  5
45D3
  8
2-0
  6
CONTINUOUS
 62
     3
 10
20288.910872
 20
18252.70522199996
 30
0.0
 11
20288.910872
 21
18896.514949499971
 31
0.0
  0
LINE
  5
45D4
  8
2-0
  6
CONTINUOUS
 62
     3
 10
20288.910872
 20
14633.70967499998
 30
0.0
 11
20288.910872
 21
15277.748532999971
 31
0.0
  0
LINE
  5
45D5
  8
2-0
  6
CONTINUOUS
 62
     3
 10
20318.908497
 20
13579.14710299997
 30
0.0
 11
20288.910872
 21
13579.14710299997
 31
0.0
  0
LINE
  5
45D6
  8
2-0
  6
CONTINUOUS
 62
     3
 10
20318.908497
 20
13561.148329999951
 30
0.0
 11
20318.908497
 21
13579.14710299997
 31
0.0
  0
LINE
  5
45D7
  8
2-0
  6
CONTINUOUS
 62
     3
 10
20293.915094999989
 20
13561.148329999951
 30
0.0
 11
20318.908497
 21
13561.148329999951
 31
0.0
  0
LINE
  5
45D8
  8
2-0
  6
CONTINUOUS
 62
     3
 10
20293.915094999989
 20
13566.14562499997
 30
0.0
 11
20293.915094999989
 21
13561.148329999951
 31
0.0
  0
LINE
  5
45D9
  8
2-0
  6
CONTINUOUS
 62
     3
 10
20300.912692999991
 20
13566.14562499997
 30
0.0
 11
20293.915094999989
 21
13566.14562499997
 31
0.0
  0
LINE
  5
45DA
  8
2-0
  6
CONTINUOUS
 62
     3
 10
20318.908497
 20
13563.11102299997
 30
0.0
 11
20318.908497
 21
13569.115891999971
 31
0.0
  0
LINE
  5
45DB
  8
2-0
  6
CONTINUOUS
 62
     3
 10
20300.912692999991
 20
14620.70819699998
 30
0.0
 11
20293.915094999989
 21
14620.70819699998
 31
0.0
  0
LINE
  5
45DC
  8
2-0
  6
CONTINUOUS
 62
     3
 10
20293.915094999989
 20
14620.70819699998
 30
0.0
 11
20293.915094999989
 21
14615.70298399998
 31
0.0
  0
LINE
  5
45DD
  8
2-0
  6
CONTINUOUS
 62
     3
 10
20293.915094999989
 20
14615.70298399998
 30
0.0
 11
20318.908497
 21
14615.70298399998
 31
0.0
  0
LINE
  5
45DE
  8
2-0
  6
CONTINUOUS
 62
     3
 10
20318.908497
 20
14615.70298399998
 30
0.0
 11
20318.908497
 21
14633.70967499998
 31
0.0
  0
LINE
  5
45DF
  8
2-0
  6
CONTINUOUS
 62
     3
 10
20318.908497
 20
14633.70967499998
 30
0.0
 11
20288.910872
 21
14633.70967499998
 31
0.0
  0
LINE
  5
45E0
  8
2-0
  6
CONTINUOUS
 62
     3
 10
20318.908497
 20
14617.612229999961
 30
0.0
 11
20318.908497
 21
14623.609181999949
 31
0.0
  0
LINE
  5
45E1
  8
2-0
  6
CONTINUOUS
 62
     3
 10
20318.908497
 20
14623.609181999949
 30
0.0
 11
20288.910872
 21
14623.609181999949
 31
0.0
  0
LINE
  5
45E2
  8
2-0
  6
CONTINUOUS
 62
     3
 10
20288.910872
 20
14586.60900999998
 30
0.0
 11
20288.910872
 21
14623.609181999949
 31
0.0
  0
LINE
  5
45E3
  8
2-0
  6
CONTINUOUS
 62
     3
 10
20318.908497
 20
14586.60900999998
 30
0.0
 11
20288.910872
 21
14586.60900999998
 31
0.0
  0
LINE
  5
45E4
  8
2-0
  6
CONTINUOUS
 62
     3
 10
20318.908497
 20
14592.61189999998
 30
0.0
 11
20318.908497
 21
14586.60900999998
 31
0.0
  0
LINE
  5
45E5
  8
2-0
  6
CONTINUOUS
 62
     3
 10
20318.908497
 20
14576.513464999971
 30
0.0
 11
20288.910872
 21
14576.513464999971
 31
0.0
  0
LINE
  5
45E6
  8
2-0
  6
CONTINUOUS
 62
     3
 10
20318.908497
 20
14594.50926899998
 30
0.0
 11
20318.908497
 21
14576.513464999971
 31
0.0
  0
LINE
  5
45E7
  8
2-0
  6
CONTINUOUS
 62
     3
 10
20293.915094999989
 20
14594.50926899998
 30
0.0
 11
20318.908497
 21
14594.50926899998
 31
0.0
  0
LINE
  5
45E8
  8
2-0
  6
CONTINUOUS
 62
     3
 10
20293.915094999989
 20
14589.51494299996
 30
0.0
 11
20293.915094999989
 21
14594.50926899998
 31
0.0
  0
LINE
  5
45E9
  8
2-0
  6
CONTINUOUS
 62
     3
 10
20300.912692999991
 20
14589.51494299996
 30
0.0
 11
20293.915094999989
 21
14589.51494299996
 31
0.0
  0
LINE
  5
45EA
  8
2-0
  6
CONTINUOUS
 62
     3
 10
20376.797537999992
 20
16807.607379999961
 30
0.0
 11
20376.797537999992
 21
16722.61081199997
 31
0.0
  0
LINE
  5
45EB
  8
2-0
  6
CONTINUOUS
 62
     3
 10
20288.910872
 20
16837.606983999969
 30
0.0
 11
20288.910872
 21
16692.60526899996
 31
0.0
  0
LINE
  5
45EC
  8
2-0
  6
CONTINUOUS
 62
     3
 10
20288.910872
 20
16682.996685999969
 30
0.0
 11
20288.910872
 21
16035.70472649996
 31
0.0
  0
LINE
  5
45ED
  8
2-0
  6
CONTINUOUS
 62
     3
 10
20300.912692999991
 20
15290.75594999999
 30
0.0
 11
20293.915094999989
 21
15290.75594999999
 31
0.0
  0
LINE
  5
45EE
  8
2-0
  6
CONTINUOUS
 62
     3
 10
20293.915094999989
 20
15290.75594999999
 30
0.0
 11
20293.915094999989
 21
15295.756213999961
 31
0.0
  0
LINE
  5
45EF
  8
2-0
  6
CONTINUOUS
 62
     3
 10
20293.915094999989
 20
15295.756213999961
 30
0.0
 11
20318.908497
 21
15295.756213999961
 31
0.0
  0
LINE
  5
45F0
  8
2-0
  6
CONTINUOUS
 62
     3
 10
20318.908497
 20
15295.756213999961
 30
0.0
 11
20318.908497
 21
15277.748532999971
 31
0.0
  0
LINE
  5
45F1
  8
2-0
  6
CONTINUOUS
 62
     3
 10
20318.908497
 20
15277.748532999971
 30
0.0
 11
20288.910872
 21
15277.748532999971
 31
0.0
  0
LINE
  5
45F2
  8
2-0
  6
CONTINUOUS
 62
     3
 10
20318.908497
 20
15293.84696799998
 30
0.0
 11
20318.908497
 21
15287.85001699999
 31
0.0
  0
LINE
  5
45F3
  8
2-0
  6
CONTINUOUS
 62
     3
 10
20318.908497
 20
15287.85001699999
 30
0.0
 11
20288.910872
 21
15287.85001699999
 31
0.0
  0
LINE
  5
45F4
  8
2-0
  6
CONTINUOUS
 62
     3
 10
20288.910872
 20
15287.85001699999
 30
0.0
 11
20288.910872
 21
15324.849197999991
 31
0.0
  0
LINE
  5
45F5
  8
2-0
  6
CONTINUOUS
 62
     3
 10
20318.908497
 20
15324.849197999991
 30
0.0
 11
20288.910872
 21
15324.849197999991
 31
0.0
  0
LINE
  5
45F6
  8
2-0
  6
CONTINUOUS
 62
     3
 10
20318.908497
 20
15318.847297999981
 30
0.0
 11
20318.908497
 21
15324.849197999991
 31
0.0
  0
LINE
  5
45F7
  8
2-0
  6
CONTINUOUS
 62
     3
 10
20318.908497
 20
15334.94474299998
 30
0.0
 11
20288.910872
 21
15334.94474299998
 31
0.0
  0
LINE
  5
45F8
  8
2-0
  6
CONTINUOUS
 62
     3
 10
20318.908497
 20
15316.94893999998
 30
0.0
 11
20318.908497
 21
15334.94474299998
 31
0.0
  0
LINE
  5
45F9
  8
2-0
  6
CONTINUOUS
 62
     3
 10
20293.915094999989
 20
15316.94893999998
 30
0.0
 11
20318.908497
 21
15316.94893999998
 31
0.0
  0
LINE
  5
45FA
  8
2-0
  6
CONTINUOUS
 62
     3
 10
20293.915094999989
 20
15321.94326499998
 30
0.0
 11
20293.915094999989
 21
15316.94893999998
 31
0.0
  0
LINE
  5
45FB
  8
2-0
  6
CONTINUOUS
 62
     3
 10
20300.912692999991
 20
15321.94326499998
 30
0.0
 11
20293.915094999989
 21
15321.94326499998
 31
0.0
  0
LINE
  5
45FC
  8
2-0
  6
CONTINUOUS
 62
     3
 10
20300.912692999991
 20
16022.703248499971
 30
0.0
 11
20293.915094999989
 21
16022.703248499971
 31
0.0
  0
LINE
  5
45FD
  8
2-0
  6
CONTINUOUS
 62
     3
 10
20293.915094999989
 20
16022.703248499971
 30
0.0
 11
20293.915094999989
 21
16017.69704549997
 31
0.0
  0
LINE
  5
45FE
  8
2-0
  6
CONTINUOUS
 62
     3
 10
20293.915094999989
 20
16017.69704549997
 30
0.0
 11
20318.908497
 21
16017.69704549997
 31
0.0
  0
LINE
  5
45FF
  8
2-0
  6
CONTINUOUS
 62
     3
 10
20318.908497
 20
16017.69704549997
 30
0.0
 11
20318.908497
 21
16035.70472649996
 31
0.0
  0
LINE
  5
4600
  8
2-0
  6
CONTINUOUS
 62
     3
 10
20318.908497
 20
16035.70472649996
 30
0.0
 11
20288.910872
 21
16035.70472649996
 31
0.0
  0
LINE
  5
4601
  8
2-0
  6
CONTINUOUS
 62
     3
 10
20318.908497
 20
16019.60629149996
 30
0.0
 11
20318.908497
 21
16025.609181499971
 31
0.0
  0
LINE
  5
4602
  8
2-0
  6
CONTINUOUS
 62
     3
 10
20318.908497
 20
16025.609181499971
 30
0.0
 11
20288.910872
 21
16025.609181499971
 31
0.0
  0
LINE
  5
4603
  8
2-0
  6
CONTINUOUS
 62
     3
 10
20288.910872
 20
15988.60901049996
 30
0.0
 11
20288.910872
 21
16025.609181499971
 31
0.0
  0
LINE
  5
4604
  8
2-0
  6
CONTINUOUS
 62
     3
 10
20318.908497
 20
15988.60901049996
 30
0.0
 11
20288.910872
 21
15988.60901049996
 31
0.0
  0
LINE
  5
4605
  8
2-0
  6
CONTINUOUS
 62
     3
 10
20318.908497
 20
15994.60596149997
 30
0.0
 11
20318.908497
 21
15988.60901049996
 31
0.0
  0
LINE
  5
4606
  8
2-0
  6
CONTINUOUS
 62
     3
 10
20318.908497
 20
15978.50851649996
 30
0.0
 11
20288.910872
 21
15978.50851649996
 31
0.0
  0
LINE
  5
4607
  8
2-0
  6
CONTINUOUS
 62
     3
 10
20318.908497
 20
15996.510258499949
 30
0.0
 11
20318.908497
 21
15978.50851649996
 31
0.0
  0
LINE
  5
4608
  8
2-0
  6
CONTINUOUS
 62
     3
 10
20293.915094999989
 20
15996.510258499949
 30
0.0
 11
20318.908497
 21
15996.510258499949
 31
0.0
  0
LINE
  5
4609
  8
2-0
  6
CONTINUOUS
 62
     3
 10
20293.915094999989
 20
15991.509994499949
 30
0.0
 11
20293.915094999989
 21
15996.510258499949
 31
0.0
  0
LINE
  5
460A
  8
2-0
  6
CONTINUOUS
 62
     3
 10
20300.912692999991
 20
15991.509994499949
 30
0.0
 11
20293.915094999989
 21
15991.509994499949
 31
0.0
  0
LINE
  5
460B
  8
2-0
  6
CONTINUOUS
 62
     3
 10
20300.912692999991
 20
16695.992224999969
 30
0.0
 11
20293.915094999989
 21
16695.992224999969
 31
0.0
  0
LINE
  5
460C
  8
2-0
  6
CONTINUOUS
 62
     3
 10
20293.915094999989
 20
16695.992224999969
 30
0.0
 11
20293.915094999989
 21
16700.992488999971
 31
0.0
  0
LINE
  5
460D
  8
2-0
  6
CONTINUOUS
 62
     3
 10
20293.915094999989
 20
16700.992488999971
 30
0.0
 11
20318.908497
 21
16700.992488999971
 31
0.0
  0
LINE
  5
460E
  8
2-0
  6
CONTINUOUS
 62
     3
 10
20318.908497
 20
16700.992488999971
 30
0.0
 11
20318.908497
 21
16682.996685999969
 31
0.0
  0
LINE
  5
460F
  8
2-0
  6
CONTINUOUS
 62
     3
 10
20318.908497
 20
16682.996685999969
 30
0.0
 11
20288.910872
 21
16682.996685999969
 31
0.0
  0
LINE
  5
4610
  8
2-0
  6
CONTINUOUS
 62
     3
 10
20291.797009999998
 20
16722.61081199997
 30
0.0
 11
20291.797009999998
 21
16742.605928999979
 31
0.0
  0
LINE
  5
4611
  8
2-0
  6
CONTINUOUS
 62
     3
 10
20376.797537999992
 20
16722.61081199997
 30
0.0
 11
20291.797009999998
 21
16722.61081199997
 31
0.0
  0
LINE
  5
4612
  8
2-0
  6
CONTINUOUS
 62
     3
 10
20318.908497
 20
16692.60526899996
 30
0.0
 11
20318.908497
 21
16698.607168999981
 31
0.0
  0
LINE
  5
4613
  8
2-0
  6
CONTINUOUS
 62
     3
 10
20288.910872
 20
16692.60526899996
 30
0.0
 11
20318.908497
 21
16692.60526899996
 31
0.0
  0
LINE
  5
4614
  8
2-0
  6
CONTINUOUS
 62
     3
 10
20288.910872
 20
17551.710169999958
 30
0.0
 11
20288.910872
 21
18195.514949999961
 31
0.0
  0
LINE
  5
4615
  8
2-0
  6
CONTINUOUS
 62
     3
 10
20288.910872
 20
16847.21556799996
 30
0.0
 11
20288.910872
 21
17494.519898999981
 31
0.0
  0
LINE
  5
4616
  8
2-0
  6
CONTINUOUS
 62
     3
 10
20288.910872
 20
16837.606983999969
 30
0.0
 11
20318.908497
 21
16837.606983999969
 31
0.0
  0
LINE
  5
4617
  8
2-0
  6
CONTINUOUS
 62
     3
 10
20318.908497
 20
16837.606983999969
 30
0.0
 11
20318.908497
 21
16831.605083999959
 31
0.0
  0
LINE
  5
4618
  8
2-0
  6
CONTINUOUS
 62
     3
 10
20318.908497
 20
16847.21556799996
 30
0.0
 11
20288.910872
 21
16847.21556799996
 31
0.0
  0
LINE
  5
4619
  8
2-0
  6
CONTINUOUS
 62
     3
 10
20318.908497
 20
16829.219763999979
 30
0.0
 11
20318.908497
 21
16847.21556799996
 31
0.0
  0
LINE
  5
461A
  8
2-0
  6
CONTINUOUS
 62
     3
 10
20293.915094999989
 20
16829.219763999979
 30
0.0
 11
20318.908497
 21
16829.219763999979
 31
0.0
  0
LINE
  5
461B
  8
2-0
  6
CONTINUOUS
 62
     3
 10
20293.915094999989
 20
16834.214089999969
 30
0.0
 11
20293.915094999989
 21
16829.219763999979
 31
0.0
  0
LINE
  5
461C
  8
2-0
  6
CONTINUOUS
 62
     3
 10
20300.912692999991
 20
16834.214089999969
 30
0.0
 11
20293.915094999989
 21
16834.214089999969
 31
0.0
  0
LINE
  5
461D
  8
2-0
  6
CONTINUOUS
 62
     3
 10
20291.797009999998
 20
16807.607379999961
 30
0.0
 11
20376.797537999992
 21
16807.607379999961
 31
0.0
  0
LINE
  5
461E
  8
2-0
  6
CONTINUOUS
 62
     3
 10
20291.797009999998
 20
16787.606324999972
 30
0.0
 11
20291.797009999998
 21
16807.607379999961
 31
0.0
  0
LINE
  5
461F
  8
2-0
  6
CONTINUOUS
 62
     3
 10
20300.912692999991
 20
17507.515438999981
 30
0.0
 11
20293.915094999989
 21
17507.515438999981
 31
0.0
  0
LINE
  5
4620
  8
2-0
  6
CONTINUOUS
 62
     3
 10
20293.915094999989
 20
17507.515438999981
 30
0.0
 11
20293.915094999989
 21
17512.515701999971
 31
0.0
  0
LINE
  5
4621
  8
2-0
  6
CONTINUOUS
 62
     3
 10
20293.915094999989
 20
17512.515701999971
 30
0.0
 11
20318.908497
 21
17512.515701999971
 31
0.0
  0
LINE
  5
4622
  8
2-0
  6
CONTINUOUS
 62
     3
 10
20318.908497
 20
17512.515701999971
 30
0.0
 11
20318.908497
 21
17494.519898999981
 31
0.0
  0
LINE
  5
4623
  8
2-0
  6
CONTINUOUS
 62
     3
 10
20318.908497
 20
17494.519898999981
 30
0.0
 11
20288.910872
 21
17494.519898999981
 31
0.0
  0
LINE
  5
4624
  8
2-0
  6
CONTINUOUS
 62
     3
 10
20318.908497
 20
17510.61140599996
 30
0.0
 11
20318.908497
 21
17504.609504999971
 31
0.0
  0
LINE
  5
4625
  8
2-0
  6
CONTINUOUS
 62
     3
 10
20318.908497
 20
17504.609504999971
 30
0.0
 11
20288.910872
 21
17504.609504999971
 31
0.0
  0
LINE
  5
4626
  8
2-0
  6
CONTINUOUS
 62
     3
 10
20288.910872
 20
17541.60868699996
 30
0.0
 11
20288.910872
 21
17504.609504999971
 31
0.0
  0
LINE
  5
4627
  8
2-0
  6
CONTINUOUS
 62
     3
 10
20318.908497
 20
17541.60868699996
 30
0.0
 11
20288.910872
 21
17541.60868699996
 31
0.0
  0
LINE
  5
4628
  8
2-0
  6
CONTINUOUS
 62
     3
 10
20318.908497
 20
17535.612724999981
 30
0.0
 11
20318.908497
 21
17541.60868699996
 31
0.0
  0
LINE
  5
4629
  8
2-0
  6
CONTINUOUS
 62
     3
 10
20318.908497
 20
17551.710169999958
 30
0.0
 11
20288.910872
 21
17551.710169999958
 31
0.0
  0
LINE
  5
462A
  8
2-0
  6
CONTINUOUS
 62
     3
 10
20318.908497
 20
17533.714366999971
 30
0.0
 11
20318.908497
 21
17551.710169999958
 31
0.0
  0
LINE
  5
462B
  8
2-0
  6
CONTINUOUS
 62
     3
 10
20293.915094999989
 20
17533.714366999971
 30
0.0
 11
20318.908497
 21
17533.714366999971
 31
0.0
  0
LINE
  5
462C
  8
2-0
  6
CONTINUOUS
 62
     3
 10
20293.915094999989
 20
17538.702753999969
 30
0.0
 11
20293.915094999989
 21
17533.714366999971
 31
0.0
  0
LINE
  5
462D
  8
2-0
  6
CONTINUOUS
 62
     3
 10
20300.912692999991
 20
17538.702753999969
 30
0.0
 11
20293.915094999989
 21
17538.702753999969
 31
0.0
  0
LINE
  5
462E
  8
2-0
  6
CONTINUOUS
 62
     3
 10
20300.912692999991
 20
18239.709681999961
 30
0.0
 11
20293.915094999989
 21
18239.709681999961
 31
0.0
  0
LINE
  5
462F
  8
2-0
  6
CONTINUOUS
 62
     3
 10
20293.915094999989
 20
18239.709681999961
 30
0.0
 11
20293.915094999989
 21
18234.70347999996
 31
0.0
  0
LINE
  5
4630
  8
2-0
  6
CONTINUOUS
 62
     3
 10
20293.915094999989
 20
18234.70347999996
 30
0.0
 11
20318.908497
 21
18234.70347999996
 31
0.0
  0
LINE
  5
4631
  8
2-0
  6
CONTINUOUS
 62
     3
 10
20318.908497
 20
18234.70347999996
 30
0.0
 11
20318.908497
 21
18252.70522199996
 31
0.0
  0
LINE
  5
4632
  8
2-0
  6
CONTINUOUS
 62
     3
 10
20318.908497
 20
18252.70522199996
 30
0.0
 11
20288.910872
 21
18252.70522199996
 31
0.0
  0
LINE
  5
4633
  8
2-0
  6
CONTINUOUS
 62
     3
 10
20318.908497
 20
18236.613714999981
 30
0.0
 11
20318.908497
 21
18242.609676999949
 31
0.0
  0
LINE
  5
4634
  8
2-0
  6
CONTINUOUS
 62
     3
 10
20318.908497
 20
18242.609676999949
 30
0.0
 11
20288.910872
 21
18242.609676999949
 31
0.0
  0
LINE
  5
4635
  8
2-0
  6
CONTINUOUS
 62
     3
 10
20288.910872
 20
18205.61049499995
 30
0.0
 11
20288.910872
 21
18242.609676999949
 31
0.0
  0
LINE
  5
4636
  8
2-0
  6
CONTINUOUS
 62
     3
 10
20318.908497
 20
18205.61049499995
 30
0.0
 11
20288.910872
 21
18205.61049499995
 31
0.0
  0
LINE
  5
4637
  8
2-0
  6
CONTINUOUS
 62
     3
 10
20318.908497
 20
18211.606456999951
 30
0.0
 11
20318.908497
 21
18205.61049499995
 31
0.0
  0
LINE
  5
4638
  8
2-0
  6
CONTINUOUS
 62
     3
 10
20318.908497
 20
18195.514949999961
 30
0.0
 11
20288.910872
 21
18195.514949999961
 31
0.0
  0
LINE
  5
4639
  8
2-0
  6
CONTINUOUS
 62
     3
 10
20318.908497
 20
18213.51669199995
 30
0.0
 11
20318.908497
 21
18195.514949999961
 31
0.0
  0
LINE
  5
463A
  8
2-0
  6
CONTINUOUS
 62
     3
 10
20293.915094999989
 20
18213.51669199995
 30
0.0
 11
20318.908497
 21
18213.51669199995
 31
0.0
  0
LINE
  5
463B
  8
2-0
  6
CONTINUOUS
 62
     3
 10
20293.915094999989
 20
18208.510489999961
 30
0.0
 11
20293.915094999989
 21
18213.51669199995
 31
0.0
  0
LINE
  5
463C
  8
2-0
  6
CONTINUOUS
 62
     3
 10
20300.912692999991
 20
18208.510489999961
 30
0.0
 11
20293.915094999989
 21
18208.510489999961
 31
0.0
  0
LINE
  5
463D
  8
2-0
  6
CONTINUOUS
 62
     3
 10
20300.912692999991
 20
18940.703743499969
 30
0.0
 11
20293.915094999989
 21
18940.703743499969
 31
0.0
  0
LINE
  5
463E
  8
2-0
  6
CONTINUOUS
 62
     3
 10
20293.915094999989
 20
18940.703743499969
 30
0.0
 11
20293.915094999989
 21
18935.70347949996
 31
0.0
  0
LINE
  5
463F
  8
2-0
  6
CONTINUOUS
 62
     3
 10
20293.915094999989
 20
18935.70347949996
 30
0.0
 11
20318.908497
 21
18935.70347949996
 31
0.0
  0
LINE
  5
4640
  8
2-0
  6
CONTINUOUS
 62
     3
 10
20318.908497
 20
18935.70347949996
 30
0.0
 11
20318.908497
 21
18953.705221499949
 31
0.0
  0
LINE
  5
4641
  8
2-0
  6
CONTINUOUS
 62
     3
 10
20318.908497
 20
18953.705221499949
 30
0.0
 11
20288.910872
 21
18953.705221499949
 31
0.0
  0
LINE
  5
4642
  8
2-0
  6
CONTINUOUS
 62
     3
 10
20318.908497
 20
18937.60579649996
 30
0.0
 11
20318.908497
 21
18943.60967649996
 31
0.0
  0
LINE
  5
4643
  8
2-0
  6
CONTINUOUS
 62
     3
 10
20318.908497
 20
18943.60967649996
 30
0.0
 11
20288.910872
 21
18943.60967649996
 31
0.0
  0
LINE
  5
4644
  8
2-0
  6
CONTINUOUS
 62
     3
 10
20288.910872
 20
18906.60851549996
 30
0.0
 11
20288.910872
 21
18943.60967649996
 31
0.0
  0
LINE
  5
4645
  8
2-0
  6
CONTINUOUS
 62
     3
 10
20318.908497
 20
18906.60851549996
 30
0.0
 11
20288.910872
 21
18906.60851549996
 31
0.0
  0
LINE
  5
4646
  8
2-0
  6
CONTINUOUS
 62
     3
 10
20318.908497
 20
18912.606456499951
 30
0.0
 11
20318.908497
 21
18906.60851549996
 31
0.0
  0
LINE
  5
4647
  8
2-0
  6
CONTINUOUS
 62
     3
 10
20318.908497
 20
18896.514949499971
 30
0.0
 11
20288.910872
 21
18896.514949499971
 31
0.0
  0
LINE
  5
4648
  8
2-0
  6
CONTINUOUS
 62
     3
 10
20318.908497
 20
18914.51075349997
 30
0.0
 11
20318.908497
 21
18896.514949499971
 31
0.0
  0
LINE
  5
4649
  8
2-0
  6
CONTINUOUS
 62
     3
 10
20293.915094999989
 20
18914.51075349997
 30
0.0
 11
20318.908497
 21
18914.51075349997
 31
0.0
  0
LINE
  5
464A
  8
2-0
  6
CONTINUOUS
 62
     3
 10
20293.915094999989
 20
18909.510489499949
 30
0.0
 11
20293.915094999989
 21
18914.51075349997
 31
0.0
  0
LINE
  5
464B
  8
2-0
  6
CONTINUOUS
 62
     3
 10
20300.912692999991
 20
18909.510489499949
 30
0.0
 11
20293.915094999989
 21
18909.510489499949
 31
0.0
  0
LINE
  5
464C
  8
2-0
  6
CONTINUOUS
 62
     3
 10
20300.912692999991
 20
19613.307311999979
 30
0.0
 11
20293.915094999989
 21
19613.307311999979
 31
0.0
  0
LINE
  5
464D
  8
2-0
  6
CONTINUOUS
 62
     3
 10
20293.915094999989
 20
19613.307311999979
 30
0.0
 11
20293.915094999989
 21
19618.315493999991
 31
0.0
  0
LINE
  5
464E
  8
2-0
  6
CONTINUOUS
 62
     3
 10
20293.915094999989
 20
19618.315493999991
 30
0.0
 11
20318.908497
 21
19618.315493999991
 31
0.0
  0
LINE
  5
464F
  8
2-0
  6
CONTINUOUS
 62
     3
 10
20318.908497
 20
19618.315493999991
 30
0.0
 11
20318.908497
 21
19600.31375199998
 31
0.0
  0
LINE
  5
4650
  8
2-0
  6
CONTINUOUS
 62
     3
 10
20318.908497
 20
19600.31375199998
 30
0.0
 11
20288.910872
 21
19600.31375199998
 31
0.0
  0
LINE
  5
4651
  8
2-0
  6
CONTINUOUS
 62
     3
 10
20288.910872
 20
19640.610811999981
 30
0.0
 11
20369.908812999991
 21
19640.610811999981
 31
0.0
  0
LINE
  5
4652
  8
2-0
  6
CONTINUOUS
 62
     3
 10
20288.910872
 20
19610.611207999991
 30
0.0
 11
20288.910872
 21
19725.607380999991
 31
0.0
  0
LINE
  5
4653
  8
2-0
  6
CONTINUOUS
 62
     3
 10
20318.908497
 20
19610.611207999991
 30
0.0
 11
20288.910872
 21
19610.611207999991
 31
0.0
  0
LINE
  5
4654
  8
2-0
  6
CONTINUOUS
 62
     3
 10
20318.908497
 20
19616.607169999981
 30
0.0
 11
20318.908497
 21
19610.611207999991
 31
0.0
  0
LINE
  5
4655
  8
2-0
  6
CONTINUOUS
 62
     3
 10
22112.414976249998
 20
19725.607380999991
 30
0.0
 11
21468.603267750012
 21
19725.607380999991
 31
0.0
  0
LINE
  5
4656
  8
2-0
  6
CONTINUOUS
 62
     3
 10
20767.602278250019
 20
19725.607380999991
 30
0.0
 11
21411.414976749991
 21
19725.607380999991
 31
0.0
  0
LINE
  5
4657
  8
2-0
  6
CONTINUOUS
 62
     3
 10
21455.597830750001
 20
19713.60753899999
 30
0.0
 11
21455.597830750001
 21
19720.613054999991
 31
0.0
  0
LINE
  5
4658
  8
2-0
  6
CONTINUOUS
 62
     3
 10
21455.597830750001
 20
19720.613054999991
 30
0.0
 11
21450.607464750021
 21
19720.613054999991
 31
0.0
  0
LINE
  5
4659
  8
2-0
  6
CONTINUOUS
 62
     3
 10
21450.607464750021
 20
19720.613054999991
 30
0.0
 11
21450.607464750021
 21
19695.603817999981
 31
0.0
  0
LINE
  5
465A
  8
2-0
  6
CONTINUOUS
 62
     3
 10
21450.607464750021
 20
19695.603817999981
 30
0.0
 11
21468.603267750012
 21
19695.603817999981
 31
0.0
  0
LINE
  5
465B
  8
2-0
  6
CONTINUOUS
 62
     3
 10
21468.603267750012
 20
19695.603817999981
 30
0.0
 11
21468.603267750012
 21
19725.607380999991
 31
0.0
  0
LINE
  5
465C
  8
2-0
  6
CONTINUOUS
 62
     3
 10
21452.503843750001
 20
19695.603817999981
 30
0.0
 11
21458.509702750001
 21
19695.603817999981
 31
0.0
  0
LINE
  5
465D
  8
2-0
  6
CONTINUOUS
 62
     3
 10
21458.509702750001
 20
19695.603817999981
 30
0.0
 11
21458.509702750001
 21
19725.607380999991
 31
0.0
  0
LINE
  5
465E
  8
2-0
  6
CONTINUOUS
 62
     3
 10
21458.509702750001
 20
19725.607380999991
 30
0.0
 11
21421.508541750001
 21
19725.607380999991
 31
0.0
  0
LINE
  5
465F
  8
2-0
  6
CONTINUOUS
 62
     3
 10
21421.508541750001
 20
19695.603817999981
 30
0.0
 11
21421.508541750001
 21
19725.607380999991
 31
0.0
  0
LINE
  5
4660
  8
2-0
  6
CONTINUOUS
 62
     3
 10
21427.506482750021
 20
19695.603817999981
 30
0.0
 11
21421.508541750001
 21
19695.603817999981
 31
0.0
  0
LINE
  5
4661
  8
2-0
  6
CONTINUOUS
 62
     3
 10
21411.414976749991
 20
19695.603817999981
 30
0.0
 11
21411.414976749991
 21
19725.607380999991
 31
0.0
  0
LINE
  5
4662
  8
2-0
  6
CONTINUOUS
 62
     3
 10
21429.408799750021
 20
19695.603817999981
 30
0.0
 11
21411.414976749991
 21
19695.603817999981
 31
0.0
  0
LINE
  5
4663
  8
2-0
  6
CONTINUOUS
 62
     3
 10
21429.408799750021
 20
19720.613054999991
 30
0.0
 11
21429.408799750021
 21
19695.603817999981
 31
0.0
  0
LINE
  5
4664
  8
2-0
  6
CONTINUOUS
 62
     3
 10
21424.408536750008
 20
19720.613054999991
 30
0.0
 11
21429.408799750021
 21
19720.613054999991
 31
0.0
  0
LINE
  5
4665
  8
2-0
  6
CONTINUOUS
 62
     3
 10
21424.408536750008
 20
19713.60753899999
 30
0.0
 11
21424.408536750008
 21
19720.613054999991
 31
0.0
  0
LINE
  5
4666
  8
2-0
  6
CONTINUOUS
 62
     3
 10
20397.909103999991
 20
19695.603817999981
 30
0.0
 11
20403.912982999991
 21
19695.603817999981
 31
0.0
  0
LINE
  5
4667
  8
2-0
  6
CONTINUOUS
 62
     3
 10
20403.912982999991
 20
19695.603817999981
 30
0.0
 11
20403.912982999991
 21
19725.607380999991
 31
0.0
  0
LINE
  5
4668
  8
2-0
  6
CONTINUOUS
 62
     3
 10
20403.912982999991
 20
19725.607380999991
 30
0.0
 11
20288.910872
 21
19725.607380999991
 31
0.0
  0
LINE
  5
4669
  8
2-0
  6
CONTINUOUS
 62
     3
 10
20414.212418999999
 20
19695.603817999981
 30
0.0
 11
20414.212418999999
 21
19725.607380999991
 31
0.0
  0
LINE
  5
466A
  8
2-0
  6
CONTINUOUS
 62
     3
 10
20396.204738
 20
19695.603817999981
 30
0.0
 11
20414.212418999999
 21
19695.603817999981
 31
0.0
  0
LINE
  5
466B
  8
2-0
  6
CONTINUOUS
 62
     3
 10
20396.204738
 20
19720.613054999991
 30
0.0
 11
20396.204738
 21
19695.603817999981
 31
0.0
  0
LINE
  5
466C
  8
2-0
  6
CONTINUOUS
 62
     3
 10
20401.206981999989
 20
19720.613054999991
 30
0.0
 11
20396.204738
 21
19720.613054999991
 31
0.0
  0
LINE
  5
466D
  8
2-0
  6
CONTINUOUS
 62
     3
 10
20401.206981999989
 20
19713.60753899999
 30
0.0
 11
20401.206981999989
 21
19720.613054999991
 31
0.0
  0
LINE
  5
466E
  8
2-0
  6
CONTINUOUS
 62
     3
 10
20300.912692999991
 20
19613.307311999979
 30
0.0
 11
20293.915094999989
 21
19613.307311999979
 31
0.0
  0
LINE
  5
466F
  8
2-0
  6
CONTINUOUS
 62
     3
 10
20293.915094999989
 20
19613.307311999979
 30
0.0
 11
20293.915094999989
 21
19618.315493999991
 31
0.0
  0
LINE
  5
4670
  8
2-0
  6
CONTINUOUS
 62
     3
 10
20293.915094999989
 20
19618.315493999991
 30
0.0
 11
20318.908497
 21
19618.315493999991
 31
0.0
  0
LINE
  5
4671
  8
2-0
  6
CONTINUOUS
 62
     3
 10
20318.908497
 20
19618.315493999991
 30
0.0
 11
20318.908497
 21
19600.31375199998
 31
0.0
  0
LINE
  5
4672
  8
2-0
  6
CONTINUOUS
 62
     3
 10
20318.908497
 20
19600.31375199998
 30
0.0
 11
20288.910872
 21
19600.31375199998
 31
0.0
  0
LINE
  5
4673
  8
2-0
  6
CONTINUOUS
 62
     3
 10
20288.910872
 20
19640.610811999981
 30
0.0
 11
20369.908812999991
 21
19640.610811999981
 31
0.0
  0
LINE
  5
4674
  8
2-0
  6
CONTINUOUS
 62
     3
 10
20288.910872
 20
19610.611207999991
 30
0.0
 11
20288.910872
 21
19725.607380999991
 31
0.0
  0
LINE
  5
4675
  8
2-0
  6
CONTINUOUS
 62
     3
 10
20318.908497
 20
19610.611207999991
 30
0.0
 11
20288.910872
 21
19610.611207999991
 31
0.0
  0
LINE
  5
4676
  8
2-0
  6
CONTINUOUS
 62
     3
 10
20318.908497
 20
19616.607169999981
 30
0.0
 11
20318.908497
 21
19610.611207999991
 31
0.0
  0
LINE
  5
4677
  8
0-3
  6
CONTINUOUS
 62
     6
 10
23337.452705999978
 20
16843.88955499998
 30
0.0
 11
23354.630967999979
 21
16894.383114999979
 31
0.0
  0
LINE
  5
4678
  8
0-3
  6
CONTINUOUS
 62
     6
 10
23337.452705999978
 20
16843.88955499998
 30
0.0
 11
23497.514598999991
 21
16817.60748599995
 31
0.0
  0
LINE
  5
4679
  8
0-3
  6
CONTINUOUS
 62
     6
 10
23354.630967999979
 20
16894.383114999979
 30
0.0
 11
23497.514598999991
 21
16817.60748599995
 31
0.0
  0
LINE
  5
467A
  8
0-3
  6
CONTINUOUS
 62
     6
 10
23497.514598999991
 20
16817.60748599995
 30
0.0
 11
23354.630967999979
 21
16894.383114999979
 31
0.0
  0
LINE
  5
467B
  8
0-3
  6
CONTINUOUS
 62
     6
 10
23337.452705999978
 20
16843.88955499998
 30
0.0
 11
23497.514598999991
 21
16817.60748599995
 31
0.0
  0
LINE
  5
467C
  8
0-3
  6
CONTINUOUS
 62
     6
 10
23354.630967999979
 20
16894.383114999979
 30
0.0
 11
23337.452705999978
 21
16843.88955499998
 31
0.0
  0
LINE
  5
467D
  8
0-3
  6
CONTINUOUS
 62
     6
 10
23497.514598999991
 20
16817.60748599995
 30
0.0
 11
23337.452705999978
 21
16843.88955499998
 31
0.0
  0
LINE
  5
467E
  8
0-3
  6
CONTINUOUS
 62
     6
 10
23354.630967999979
 20
16894.383114999979
 30
0.0
 11
23497.514598999991
 21
16817.60748599995
 31
0.0
  0
LINE
  5
467F
  8
0-3
  6
CONTINUOUS
 62
     6
 10
23513.57047399996
 20
16355.958018999991
 30
0.0
 11
23488.567174999971
 21
16403.06462299998
 31
0.0
  0
LINE
  5
4680
  8
0-3
  6
CONTINUOUS
 62
     6
 10
23513.57047399996
 20
16355.958018999991
 30
0.0
 11
23642.405460999991
 21
16454.498453999971
 31
0.0
  0
LINE
  5
4681
  8
0-3
  6
CONTINUOUS
 62
     6
 10
23488.567174999971
 20
16403.06462299998
 30
0.0
 11
23642.405460999991
 21
16454.498453999971
 31
0.0
  0
LINE
  5
4682
  8
0-3
  6
CONTINUOUS
 62
     6
 10
23642.405460999991
 20
16454.498453999971
 30
0.0
 11
23488.567174999971
 21
16403.06462299998
 31
0.0
  0
LINE
  5
4683
  8
0-3
  6
CONTINUOUS
 62
     6
 10
23513.57047399996
 20
16355.958018999991
 30
0.0
 11
23642.405460999991
 21
16454.498453999971
 31
0.0
  0
LINE
  5
4684
  8
0-3
  6
CONTINUOUS
 62
     6
 10
23488.567174999971
 20
16403.06462299998
 30
0.0
 11
23513.57047399996
 21
16355.958018999991
 31
0.0
  0
LINE
  5
4685
  8
0-3
  6
CONTINUOUS
 62
     6
 10
23642.405460999991
 20
16454.498453999971
 30
0.0
 11
23513.57047399996
 21
16355.958018999991
 31
0.0
  0
LINE
  5
4686
  8
0-3
  6
CONTINUOUS
 62
     6
 10
23488.567174999971
 20
16403.06462299998
 30
0.0
 11
23642.405460999991
 21
16454.498453999971
 31
0.0
  0
LINE
  5
4687
  8
0-3
  6
CONTINUOUS
 62
     6
 10
23405.670874999982
 20
14892.181894312471
 30
0.0
 11
23428.80352899999
 21
14940.23470831245
 31
0.0
  0
LINE
  5
4688
  8
0-3
  6
CONTINUOUS
 62
     6
 10
23405.670874999982
 20
14892.181894312471
 30
0.0
 11
23561.403560999988
 21
14846.806380312461
 31
0.0
  0
LINE
  5
4689
  8
0-3
  6
CONTINUOUS
 62
     6
 10
23428.80352899999
 20
14940.23470831245
 30
0.0
 11
23561.403560999988
 21
14846.806380312461
 31
0.0
  0
LINE
  5
468A
  8
0-3
  6
CONTINUOUS
 62
     6
 10
23561.403560999988
 20
14846.806380312461
 30
0.0
 11
23428.80352899999
 21
14940.23470831245
 31
0.0
  0
LINE
  5
468B
  8
0-3
  6
CONTINUOUS
 62
     6
 10
23405.670874999982
 20
14892.181894312471
 30
0.0
 11
23561.403560999988
 21
14846.806380312461
 31
0.0
  0
LINE
  5
468C
  8
0-3
  6
CONTINUOUS
 62
     6
 10
23428.80352899999
 20
14940.23470831245
 30
0.0
 11
23405.670874999982
 21
14892.181894312471
 31
0.0
  0
LINE
  5
468D
  8
0-3
  6
CONTINUOUS
 62
     6
 10
23561.403560999988
 20
14846.806380312461
 30
0.0
 11
23405.670874999982
 21
14892.181894312471
 31
0.0
  0
LINE
  5
468E
  8
0-3
  6
CONTINUOUS
 62
     6
 10
23428.80352899999
 20
14940.23470831245
 30
0.0
 11
23561.403560999988
 21
14846.806380312461
 31
0.0
  0
LINE
  5
468F
  8
2-0
  6
CONTINUOUS
 62
     4
 10
23599.907177000001
 20
19805.60962399995
 30
0.0
 11
23599.907177000001
 21
20535.606588999981
 31
0.0
  0
LINE
  5
4690
  8
0-3
  6
CONTINUOUS
 62
     6
 10
23774.815458999969
 20
19886.340330999981
 30
0.0
 11
23814.063374000001
 21
19850.225993999979
 31
0.0
  0
LINE
  5
4691
  8
0-3
  6
CONTINUOUS
 62
     6
 10
23774.815458999969
 20
19886.340330999981
 30
0.0
 11
23686.101353999991
 21
19750.54337599998
 31
0.0
  0
LINE
  5
4692
  8
0-3
  6
CONTINUOUS
 62
     6
 10
23814.063374000001
 20
19850.225993999979
 30
0.0
 11
23686.101353999991
 21
19750.54337599998
 31
0.0
  0
LINE
  5
4693
  8
0-3
  6
CONTINUOUS
 62
     6
 10
23686.101353999991
 20
19750.54337599998
 30
0.0
 11
23814.063374000001
 21
19850.225993999979
 31
0.0
  0
LINE
  5
4694
  8
0-3
  6
CONTINUOUS
 62
     6
 10
23774.815458999969
 20
19886.340330999981
 30
0.0
 11
23686.101353999991
 21
19750.54337599998
 31
0.0
  0
LINE
  5
4695
  8
0-3
  6
CONTINUOUS
 62
     6
 10
23814.063374000001
 20
19850.225993999979
 30
0.0
 11
23774.815458999969
 21
19886.340330999981
 31
0.0
  0
LINE
  5
4696
  8
0-3
  6
CONTINUOUS
 62
     6
 10
23686.101353999991
 20
19750.54337599998
 30
0.0
 11
23774.815458999969
 21
19886.340330999981
 31
0.0
  0
LINE
  5
4697
  8
0-3
  6
CONTINUOUS
 62
     6
 10
23814.063374000001
 20
19850.225993999979
 30
0.0
 11
23686.101353999991
 21
19750.54337599998
 31
0.0
  0
LINE
  5
4698
  8
0-3
  6
CONTINUOUS
 62
     6
 10
23485.926496999971
 20
18794.95574949995
 30
0.0
 11
23459.820606000001
 21
18841.468497499962
 31
0.0
  0
LINE
  5
4699
  8
0-3
  6
CONTINUOUS
 62
     6
 10
23485.926496999971
 20
18794.95574949995
 30
0.0
 11
23612.407836999981
 21
18896.51494949995
 31
0.0
  0
LINE
  5
469A
  8
0-3
  6
CONTINUOUS
 62
     6
 10
23459.820606000001
 20
18841.468497499962
 30
0.0
 11
23612.407836999981
 21
18896.51494949995
 31
0.0
  0
LINE
  5
469B
  8
0-3
  6
CONTINUOUS
 62
     6
 10
23612.407836999981
 20
18896.51494949995
 30
0.0
 11
23459.820606000001
 21
18841.468497499962
 31
0.0
  0
LINE
  5
469C
  8
0-3
  6
CONTINUOUS
 62
     6
 10
23485.926496999971
 20
18794.95574949995
 30
0.0
 11
23612.407836999981
 21
18896.51494949995
 31
0.0
  0
LINE
  5
469D
  8
0-3
  6
CONTINUOUS
 62
     6
 10
23459.820606000001
 20
18841.468497499962
 30
0.0
 11
23485.926496999971
 21
18794.95574949995
 31
0.0
  0
LINE
  5
469E
  8
0-3
  6
CONTINUOUS
 62
     6
 10
23612.407836999981
 20
18896.51494949995
 30
0.0
 11
23485.926496999971
 21
18794.95574949995
 31
0.0
  0
LINE
  5
469F
  8
0-3
  6
CONTINUOUS
 62
     6
 10
23459.820606000001
 20
18841.468497499962
 30
0.0
 11
23612.407836999981
 21
18896.51494949995
 31
0.0
  0
LINE
  5
46A0
  8
2-0
  6
CONTINUOUS
 62
     3
 10
23642.405460999991
 20
15978.508516499949
 30
0.0
 11
23642.405460999991
 21
15334.94474299998
 31
0.0
  0
LINE
  5
46A1
  8
0-3
  6
CONTINUOUS
 62
     6
 10
23794.446344999971
 20
19868.287120999961
 30
0.0
 11
24334.910343999982
 21
20455.610283999991
 31
0.0
  0
LINE
  5
46A2
  8
0-3
  6
CONTINUOUS
 62
     6
 10
23472.877510999959
 20
18818.20915349996
 30
0.0
 11
23041.346418999969
 21
18576.054645499949
 31
0.0
  0
LINE
  5
46A3
  8
0-3
  6
CONTINUOUS
 62
     6
 10
24334.910343999982
 20
20455.610283999991
 30
0.0
 11
25534.904405999961
 21
20455.610283999991
 31
0.0
  0
LINE
  5
46A4
  8
2-0
  6
CONTINUOUS
 62
     3
 10
23642.405460999991
 20
18252.70423199996
 30
0.0
 11
23642.405460999991
 21
18896.51494949995
 31
0.0
  0
LINE
  5
46A5
  8
2-0
  6
CONTINUOUS
 62
     3
 10
23612.407836999981
 20
13579.147102999959
 30
0.0
 11
23642.405460999991
 21
13579.147102999959
 31
0.0
  0
LINE
  5
46A6
  8
2-0
  6
CONTINUOUS
 62
     3
 10
23612.407836999981
 20
13561.14832999994
 30
0.0
 11
23612.407836999981
 21
13579.147102999959
 31
0.0
  0
LINE
  5
46A7
  8
2-0
  6
CONTINUOUS
 62
     3
 10
23637.405196999978
 20
13561.14832999994
 30
0.0
 11
23612.407836999981
 21
13561.14832999994
 31
0.0
  0
LINE
  5
46A8
  8
2-0
  6
CONTINUOUS
 62
     3
 10
23637.405196999978
 20
13566.14562499997
 30
0.0
 11
23637.405196999978
 21
13561.14832999994
 31
0.0
  0
LINE
  5
46A9
  8
2-0
  6
CONTINUOUS
 62
     3
 10
23630.403640000011
 20
13566.14562499997
 30
0.0
 11
23637.405196999978
 21
13566.14562499997
 31
0.0
  0
LINE
  5
46AA
  8
2-0
  6
CONTINUOUS
 62
     3
 10
23612.407836999981
 20
13563.111022999959
 30
0.0
 11
23612.407836999981
 21
13569.115891999951
 31
0.0
  0
LINE
  5
46AB
  8
2-0
  6
CONTINUOUS
 62
     3
 10
23630.403640000011
 20
14620.708196999971
 30
0.0
 11
23637.405196999978
 21
14620.708196999971
 31
0.0
  0
LINE
  5
46AC
  8
2-0
  6
CONTINUOUS
 62
     3
 10
23637.405196999978
 20
14620.708196999971
 30
0.0
 11
23637.405196999978
 21
14615.70298399997
 31
0.0
  0
LINE
  5
46AD
  8
2-0
  6
CONTINUOUS
 62
     3
 10
23637.405196999978
 20
14615.70298399997
 30
0.0
 11
23612.407836999981
 21
14615.70298399997
 31
0.0
  0
LINE
  5
46AE
  8
2-0
  6
CONTINUOUS
 62
     3
 10
23612.407836999981
 20
14615.70298399997
 30
0.0
 11
23612.407836999981
 21
14633.709674999969
 31
0.0
  0
LINE
  5
46AF
  8
2-0
  6
CONTINUOUS
 62
     3
 10
23612.407836999981
 20
14633.709674999969
 30
0.0
 11
23642.405460999991
 21
14633.709674999969
 31
0.0
  0
LINE
  5
46B0
  8
2-0
  6
CONTINUOUS
 62
     3
 10
23612.407836999981
 20
14617.612229999961
 30
0.0
 11
23612.407836999981
 21
14623.609181999949
 31
0.0
  0
LINE
  5
46B1
  8
2-0
  6
CONTINUOUS
 62
     3
 10
23612.407836999981
 20
14623.609181999949
 30
0.0
 11
23642.405460999991
 21
14623.609181999949
 31
0.0
  0
LINE
  5
46B2
  8
2-0
  6
CONTINUOUS
 62
     3
 10
23642.405460999991
 20
14586.60900999996
 30
0.0
 11
23642.405460999991
 21
14623.609181999949
 31
0.0
  0
LINE
  5
46B3
  8
2-0
  6
CONTINUOUS
 62
     3
 10
23612.407836999981
 20
14586.60900999996
 30
0.0
 11
23642.405460999991
 21
14586.60900999996
 31
0.0
  0
LINE
  5
46B4
  8
2-0
  6
CONTINUOUS
 62
     3
 10
23612.407836999981
 20
14592.611899999971
 30
0.0
 11
23612.407836999981
 21
14586.60900999996
 31
0.0
  0
LINE
  5
46B5
  8
2-0
  6
CONTINUOUS
 62
     3
 10
23612.407836999981
 20
14576.513464999951
 30
0.0
 11
23642.405460999991
 21
14576.513464999951
 31
0.0
  0
LINE
  5
46B6
  8
2-0
  6
CONTINUOUS
 62
     3
 10
23612.407836999981
 20
14594.50926899996
 30
0.0
 11
23612.407836999981
 21
14576.513464999951
 31
0.0
  0
LINE
  5
46B7
  8
2-0
  6
CONTINUOUS
 62
     3
 10
23637.405196999978
 20
14594.50926899996
 30
0.0
 11
23612.407836999981
 21
14594.50926899996
 31
0.0
  0
LINE
  5
46B8
  8
2-0
  6
CONTINUOUS
 62
     3
 10
23637.405196999978
 20
14589.514942999949
 30
0.0
 11
23637.405196999978
 21
14594.50926899996
 31
0.0
  0
LINE
  5
46B9
  8
2-0
  6
CONTINUOUS
 62
     3
 10
23630.403640000011
 20
14589.514942999949
 30
0.0
 11
23637.405196999978
 21
14589.514942999949
 31
0.0
  0
LINE
  5
46BA
  8
0-3
  6
CONTINUOUS
 62
     6
 10
22016.314086999981
 20
18576.054645499949
 30
0.0
 11
23041.346418999969
 21
18576.054645499949
 31
0.0
  0
LINE
  5
46BB
  8
2-0
  6
CONTINUOUS
 62
     3
 10
23554.52275399998
 20
16807.607379999961
 30
0.0
 11
23554.52275399998
 21
16722.61081199997
 31
0.0
  0
LINE
  5
46BC
  8
2-0
  6
CONTINUOUS
 62
     3
 10
23642.405460999991
 20
16837.606983999962
 30
0.0
 11
23642.405460999991
 21
16692.60526899996
 31
0.0
  0
LINE
  5
46BD
  8
2-0
  6
CONTINUOUS
 62
     3
 10
23642.405460999991
 20
16682.996685999969
 30
0.0
 11
23642.405460999991
 21
16035.70472649996
 31
0.0
  0
LINE
  5
46BE
  8
2-0
  6
CONTINUOUS
 62
     3
 10
23630.403640000011
 20
15290.755949999981
 30
0.0
 11
23637.405196999978
 21
15290.755949999981
 31
0.0
  0
LINE
  5
46BF
  8
2-0
  6
CONTINUOUS
 62
     3
 10
23637.405196999978
 20
15290.755949999981
 30
0.0
 11
23637.405196999978
 21
15295.756213999961
 31
0.0
  0
LINE
  5
46C0
  8
2-0
  6
CONTINUOUS
 62
     3
 10
23637.405196999978
 20
15295.756213999961
 30
0.0
 11
23612.407836999981
 21
15295.756213999961
 31
0.0
  0
LINE
  5
46C1
  8
2-0
  6
CONTINUOUS
 62
     3
 10
23612.407836999981
 20
15295.756213999961
 30
0.0
 11
23612.407836999981
 21
15277.748532999971
 31
0.0
  0
LINE
  5
46C2
  8
2-0
  6
CONTINUOUS
 62
     3
 10
23612.407836999981
 20
15277.748532999971
 30
0.0
 11
23642.405460999991
 21
15277.748532999971
 31
0.0
  0
LINE
  5
46C3
  8
2-0
  6
CONTINUOUS
 62
     3
 10
23612.407836999981
 20
15293.846967999971
 30
0.0
 11
23612.407836999981
 21
15287.850016999981
 31
0.0
  0
LINE
  5
46C4
  8
2-0
  6
CONTINUOUS
 62
     3
 10
23612.407836999981
 20
15287.850016999981
 30
0.0
 11
23642.405460999991
 21
15287.850016999981
 31
0.0
  0
LINE
  5
46C5
  8
2-0
  6
CONTINUOUS
 62
     3
 10
23642.405460999991
 20
15287.850016999981
 30
0.0
 11
23642.405460999991
 21
15324.84919799998
 31
0.0
  0
LINE
  5
46C6
  8
2-0
  6
CONTINUOUS
 62
     3
 10
23612.407836999981
 20
15324.84919799998
 30
0.0
 11
23642.405460999991
 21
15324.84919799998
 31
0.0
  0
LINE
  5
46C7
  8
2-0
  6
CONTINUOUS
 62
     3
 10
23612.407836999981
 20
15318.847297999961
 30
0.0
 11
23612.407836999981
 21
15324.84919799998
 31
0.0
  0
LINE
  5
46C8
  8
2-0
  6
CONTINUOUS
 62
     3
 10
23612.407836999981
 20
15334.94474299998
 30
0.0
 11
23642.405460999991
 21
15334.94474299998
 31
0.0
  0
LINE
  5
46C9
  8
2-0
  6
CONTINUOUS
 62
     3
 10
23612.407836999981
 20
15316.94893999998
 30
0.0
 11
23612.407836999981
 21
15334.94474299998
 31
0.0
  0
LINE
  5
46CA
  8
2-0
  6
CONTINUOUS
 62
     3
 10
23637.405196999978
 20
15316.94893999998
 30
0.0
 11
23612.407836999981
 21
15316.94893999998
 31
0.0
  0
LINE
  5
46CB
  8
2-0
  6
CONTINUOUS
 62
     3
 10
23637.405196999978
 20
15321.943264999971
 30
0.0
 11
23637.405196999978
 21
15316.94893999998
 31
0.0
  0
LINE
  5
46CC
  8
2-0
  6
CONTINUOUS
 62
     3
 10
23630.403640000011
 20
15321.943264999971
 30
0.0
 11
23637.405196999978
 21
15321.943264999971
 31
0.0
  0
LINE
  5
46CD
  8
2-0
  6
CONTINUOUS
 62
     3
 10
23630.403640000011
 20
16022.703248499951
 30
0.0
 11
23637.405196999978
 21
16022.703248499951
 31
0.0
  0
LINE
  5
46CE
  8
2-0
  6
CONTINUOUS
 62
     3
 10
23637.405196999978
 20
16022.703248499951
 30
0.0
 11
23637.405196999978
 21
16017.69704549997
 31
0.0
  0
LINE
  5
46CF
  8
2-0
  6
CONTINUOUS
 62
     3
 10
23637.405196999978
 20
16017.69704549997
 30
0.0
 11
23612.407836999981
 21
16017.69704549997
 31
0.0
  0
LINE
  5
46D0
  8
2-0
  6
CONTINUOUS
 62
     3
 10
23612.407836999981
 20
16017.69704549997
 30
0.0
 11
23612.407836999981
 21
16035.70472649996
 31
0.0
  0
LINE
  5
46D1
  8
2-0
  6
CONTINUOUS
 62
     3
 10
23612.407836999981
 20
16035.70472649996
 30
0.0
 11
23642.405460999991
 21
16035.70472649996
 31
0.0
  0
LINE
  5
46D2
  8
2-0
  6
CONTINUOUS
 62
     3
 10
23612.407836999981
 20
16019.60629149996
 30
0.0
 11
23612.407836999981
 21
16025.609181499971
 31
0.0
  0
LINE
  5
46D3
  8
2-0
  6
CONTINUOUS
 62
     3
 10
23612.407836999981
 20
16025.609181499971
 30
0.0
 11
23642.405460999991
 21
16025.609181499971
 31
0.0
  0
LINE
  5
46D4
  8
2-0
  6
CONTINUOUS
 62
     3
 10
23642.405460999991
 20
15988.60901049996
 30
0.0
 11
23642.405460999991
 21
16025.609181499971
 31
0.0
  0
LINE
  5
46D5
  8
2-0
  6
CONTINUOUS
 62
     3
 10
23612.407836999981
 20
15988.60901049996
 30
0.0
 11
23642.405460999991
 21
15988.60901049996
 31
0.0
  0
LINE
  5
46D6
  8
2-0
  6
CONTINUOUS
 62
     3
 10
23612.407836999981
 20
15994.60596149997
 30
0.0
 11
23612.407836999981
 21
15988.60901049996
 31
0.0
  0
LINE
  5
46D7
  8
2-0
  6
CONTINUOUS
 62
     3
 10
23612.407836999981
 20
15978.508516499949
 30
0.0
 11
23642.405460999991
 21
15978.508516499949
 31
0.0
  0
LINE
  5
46D8
  8
2-0
  6
CONTINUOUS
 62
     3
 10
23612.407836999981
 20
15996.510258499949
 30
0.0
 11
23612.407836999981
 21
15978.508516499949
 31
0.0
  0
LINE
  5
46D9
  8
2-0
  6
CONTINUOUS
 62
     3
 10
23637.405196999978
 20
15996.510258499949
 30
0.0
 11
23612.407836999981
 21
15996.510258499949
 31
0.0
  0
LINE
  5
46DA
  8
2-0
  6
CONTINUOUS
 62
     3
 10
23637.405196999978
 20
15991.509994499949
 30
0.0
 11
23637.405196999978
 21
15996.510258499949
 31
0.0
  0
LINE
  5
46DB
  8
2-0
  6
CONTINUOUS
 62
     3
 10
23630.403640000011
 20
15991.509994499949
 30
0.0
 11
23637.405196999978
 21
15991.509994499949
 31
0.0
  0
LINE
  5
46DC
  8
2-0
  6
CONTINUOUS
 62
     3
 10
23630.403640000011
 20
16695.992224999962
 30
0.0
 11
23637.405196999978
 21
16695.992224999962
 31
0.0
  0
LINE
  5
46DD
  8
2-0
  6
CONTINUOUS
 62
     3
 10
23637.405196999978
 20
16695.992224999962
 30
0.0
 11
23637.405196999978
 21
16700.99248899996
 31
0.0
  0
LINE
  5
46DE
  8
2-0
  6
CONTINUOUS
 62
     3
 10
23637.405196999978
 20
16700.99248899996
 30
0.0
 11
23612.407836999981
 21
16700.99248899996
 31
0.0
  0
LINE
  5
46DF
  8
2-0
  6
CONTINUOUS
 62
     3
 10
23612.407836999981
 20
16700.99248899996
 30
0.0
 11
23612.407836999981
 21
16682.996685999969
 31
0.0
  0
LINE
  5
46E0
  8
2-0
  6
CONTINUOUS
 62
     3
 10
23612.407836999981
 20
16682.996685999969
 30
0.0
 11
23642.405460999991
 21
16682.996685999969
 31
0.0
  0
LINE
  5
46E1
  8
2-0
  6
CONTINUOUS
 62
     3
 10
23639.51932299999
 20
16722.61081199997
 30
0.0
 11
23639.51932299999
 21
16742.605928999961
 31
0.0
  0
LINE
  5
46E2
  8
2-0
  6
CONTINUOUS
 62
     3
 10
23554.52275399998
 20
16722.61081199997
 30
0.0
 11
23639.51932299999
 21
16722.61081199997
 31
0.0
  0
LINE
  5
46E3
  8
2-0
  6
CONTINUOUS
 62
     3
 10
23612.407836999981
 20
16692.60526899996
 30
0.0
 11
23612.407836999981
 21
16698.60716899997
 31
0.0
  0
LINE
  5
46E4
  8
2-0
  6
CONTINUOUS
 62
     3
 10
23642.405460999991
 20
16692.60526899996
 30
0.0
 11
23612.407836999981
 21
16692.60526899996
 31
0.0
  0
LINE
  5
46E5
  8
2-0
  6
CONTINUOUS
 62
     3
 10
23642.405460999991
 20
17551.710169999958
 30
0.0
 11
23642.405460999991
 21
18195.51395999996
 31
0.0
  0
LINE
  5
46E6
  8
2-0
  6
CONTINUOUS
 62
     3
 10
23642.405460999991
 20
16847.21556799996
 30
0.0
 11
23642.405460999991
 21
17494.51989899997
 31
0.0
  0
LINE
  5
46E7
  8
2-0
  6
CONTINUOUS
 62
     3
 10
23642.405460999991
 20
16837.606983999962
 30
0.0
 11
23612.407836999981
 21
16837.606983999962
 31
0.0
  0
LINE
  5
46E8
  8
2-0
  6
CONTINUOUS
 62
     3
 10
23612.407836999981
 20
16837.606983999962
 30
0.0
 11
23612.407836999981
 21
16831.605083999959
 31
0.0
  0
LINE
  5
46E9
  8
2-0
  6
CONTINUOUS
 62
     3
 10
23612.407836999981
 20
16847.21556799996
 30
0.0
 11
23642.405460999991
 21
16847.21556799996
 31
0.0
  0
LINE
  5
46EA
  8
2-0
  6
CONTINUOUS
 62
     3
 10
23612.407836999981
 20
16829.219763999961
 30
0.0
 11
23612.407836999981
 21
16847.21556799996
 31
0.0
  0
LINE
  5
46EB
  8
2-0
  6
CONTINUOUS
 62
     3
 10
23637.405196999978
 20
16829.219763999961
 30
0.0
 11
23612.407836999981
 21
16829.219763999961
 31
0.0
  0
LINE
  5
46EC
  8
2-0
  6
CONTINUOUS
 62
     3
 10
23637.405196999978
 20
16834.214089999969
 30
0.0
 11
23637.405196999978
 21
16829.219763999961
 31
0.0
  0
LINE
  5
46ED
  8
2-0
  6
CONTINUOUS
 62
     3
 10
23630.403640000011
 20
16834.214089999969
 30
0.0
 11
23637.405196999978
 21
16834.214089999969
 31
0.0
  0
LINE
  5
46EE
  8
2-0
  6
CONTINUOUS
 62
     3
 10
23639.51932299999
 20
16807.607379999961
 30
0.0
 11
23554.52275399998
 21
16807.607379999961
 31
0.0
  0
LINE
  5
46EF
  8
2-0
  6
CONTINUOUS
 62
     3
 10
23639.51932299999
 20
16787.60632499995
 30
0.0
 11
23639.51932299999
 21
16807.607379999961
 31
0.0
  0
LINE
  5
46F0
  8
2-0
  6
CONTINUOUS
 62
     3
 10
23630.403640000011
 20
17507.51543899997
 30
0.0
 11
23637.405196999978
 21
17507.51543899997
 31
0.0
  0
LINE
  5
46F1
  8
2-0
  6
CONTINUOUS
 62
     3
 10
23637.405196999978
 20
17507.51543899997
 30
0.0
 11
23637.405196999978
 21
17512.515701999971
 31
0.0
  0
LINE
  5
46F2
  8
2-0
  6
CONTINUOUS
 62
     3
 10
23637.405196999978
 20
17512.515701999971
 30
0.0
 11
23612.407836999981
 21
17512.515701999971
 31
0.0
  0
LINE
  5
46F3
  8
2-0
  6
CONTINUOUS
 62
     3
 10
23612.407836999981
 20
17512.515701999971
 30
0.0
 11
23612.407836999981
 21
17494.51989899997
 31
0.0
  0
LINE
  5
46F4
  8
2-0
  6
CONTINUOUS
 62
     3
 10
23612.407836999981
 20
17494.51989899997
 30
0.0
 11
23642.405460999991
 21
17494.51989899997
 31
0.0
  0
LINE
  5
46F5
  8
2-0
  6
CONTINUOUS
 62
     3
 10
23612.407836999981
 20
17510.61140599996
 30
0.0
 11
23612.407836999981
 21
17504.609504999971
 31
0.0
  0
LINE
  5
46F6
  8
2-0
  6
CONTINUOUS
 62
     3
 10
23612.407836999981
 20
17504.609504999971
 30
0.0
 11
23642.405460999991
 21
17504.609504999971
 31
0.0
  0
LINE
  5
46F7
  8
2-0
  6
CONTINUOUS
 62
     3
 10
23642.405460999991
 20
17541.60868699996
 30
0.0
 11
23642.405460999991
 21
17504.609504999971
 31
0.0
  0
LINE
  5
46F8
  8
2-0
  6
CONTINUOUS
 62
     3
 10
23612.407836999981
 20
17541.60868699996
 30
0.0
 11
23642.405460999991
 21
17541.60868699996
 31
0.0
  0
LINE
  5
46F9
  8
2-0
  6
CONTINUOUS
 62
     3
 10
23612.407836999981
 20
17535.61272499997
 30
0.0
 11
23612.407836999981
 21
17541.60868699996
 31
0.0
  0
LINE
  5
46FA
  8
2-0
  6
CONTINUOUS
 62
     3
 10
23612.407836999981
 20
17551.710169999958
 30
0.0
 11
23642.405460999991
 21
17551.710169999958
 31
0.0
  0
LINE
  5
46FB
  8
2-0
  6
CONTINUOUS
 62
     3
 10
23612.407836999981
 20
17533.714366999971
 30
0.0
 11
23612.407836999981
 21
17551.710169999958
 31
0.0
  0
LINE
  5
46FC
  8
2-0
  6
CONTINUOUS
 62
     3
 10
23637.405196999978
 20
17533.714366999971
 30
0.0
 11
23612.407836999981
 21
17533.714366999971
 31
0.0
  0
LINE
  5
46FD
  8
2-0
  6
CONTINUOUS
 62
     3
 10
23637.405196999978
 20
17538.702753999969
 30
0.0
 11
23637.405196999978
 21
17533.714366999971
 31
0.0
  0
LINE
  5
46FE
  8
2-0
  6
CONTINUOUS
 62
     3
 10
23630.403640000011
 20
17538.702753999969
 30
0.0
 11
23637.405196999978
 21
17538.702753999969
 31
0.0
  0
LINE
  5
46FF
  8
2-0
  6
CONTINUOUS
 62
     3
 10
23630.403640000011
 20
18239.70869199996
 30
0.0
 11
23637.405196999978
 21
18239.70869199996
 31
0.0
  0
LINE
  5
4700
  8
2-0
  6
CONTINUOUS
 62
     3
 10
23637.405196999978
 20
18239.70869199996
 30
0.0
 11
23637.405196999978
 21
18234.70248999996
 31
0.0
  0
LINE
  5
4701
  8
2-0
  6
CONTINUOUS
 62
     3
 10
23637.405196999978
 20
18234.70248999996
 30
0.0
 11
23612.407836999981
 21
18234.70248999996
 31
0.0
  0
LINE
  5
4702
  8
2-0
  6
CONTINUOUS
 62
     3
 10
23612.407836999981
 20
18234.70248999996
 30
0.0
 11
23612.407836999981
 21
18252.70423199996
 31
0.0
  0
LINE
  5
4703
  8
2-0
  6
CONTINUOUS
 62
     3
 10
23612.407836999981
 20
18252.70423199996
 30
0.0
 11
23642.405460999991
 21
18252.70423199996
 31
0.0
  0
LINE
  5
4704
  8
2-0
  6
CONTINUOUS
 62
     3
 10
23612.407836999981
 20
18236.612724999981
 30
0.0
 11
23612.407836999981
 21
18242.60868699996
 31
0.0
  0
LINE
  5
4705
  8
2-0
  6
CONTINUOUS
 62
     3
 10
23612.407836999981
 20
18242.60868699996
 30
0.0
 11
23642.405460999991
 21
18242.60868699996
 31
0.0
  0
LINE
  5
4706
  8
2-0
  6
CONTINUOUS
 62
     3
 10
23642.405460999991
 20
18205.609504999949
 30
0.0
 11
23642.405460999991
 21
18242.60868699996
 31
0.0
  0
LINE
  5
4707
  8
2-0
  6
CONTINUOUS
 62
     3
 10
23612.407836999981
 20
18205.609504999949
 30
0.0
 11
23642.405460999991
 21
18205.609504999949
 31
0.0
  0
LINE
  5
4708
  8
2-0
  6
CONTINUOUS
 62
     3
 10
23612.407836999981
 20
18211.605466999961
 30
0.0
 11
23612.407836999981
 21
18205.609504999949
 31
0.0
  0
LINE
  5
4709
  8
2-0
  6
CONTINUOUS
 62
     3
 10
23612.407836999981
 20
18195.51395999996
 30
0.0
 11
23642.405460999991
 21
18195.51395999996
 31
0.0
  0
LINE
  5
470A
  8
2-0
  6
CONTINUOUS
 62
     3
 10
23612.407836999981
 20
18213.515701999971
 30
0.0
 11
23612.407836999981
 21
18195.51395999996
 31
0.0
  0
LINE
  5
470B
  8
2-0
  6
CONTINUOUS
 62
     3
 10
23637.405196999978
 20
18213.515701999971
 30
0.0
 11
23612.407836999981
 21
18213.515701999971
 31
0.0
  0
LINE
  5
470C
  8
2-0
  6
CONTINUOUS
 62
     3
 10
23637.405196999978
 20
18208.50949999996
 30
0.0
 11
23637.405196999978
 21
18213.515701999971
 31
0.0
  0
LINE
  5
470D
  8
2-0
  6
CONTINUOUS
 62
     3
 10
23630.403640000011
 20
18208.50949999996
 30
0.0
 11
23637.405196999978
 21
18208.50949999996
 31
0.0
  0
LINE
  5
470E
  8
2-0
  6
CONTINUOUS
 62
     3
 10
23630.403640000011
 20
18940.703743499969
 30
0.0
 11
23637.405196999978
 21
18940.703743499969
 31
0.0
  0
LINE
  5
470F
  8
2-0
  6
CONTINUOUS
 62
     3
 10
23637.405196999978
 20
18940.703743499969
 30
0.0
 11
23637.405196999978
 21
18935.70347949996
 31
0.0
  0
LINE
  5
4710
  8
2-0
  6
CONTINUOUS
 62
     3
 10
23637.405196999978
 20
18935.70347949996
 30
0.0
 11
23612.407836999981
 21
18935.70347949996
 31
0.0
  0
LINE
  5
4711
  8
2-0
  6
CONTINUOUS
 62
     3
 10
23612.407836999981
 20
18935.70347949996
 30
0.0
 11
23612.407836999981
 21
18953.705221499949
 31
0.0
  0
LINE
  5
4712
  8
2-0
  6
CONTINUOUS
 62
     3
 10
23612.407836999981
 20
18953.705221499949
 30
0.0
 11
23642.405460999991
 21
18953.705221499949
 31
0.0
  0
LINE
  5
4713
  8
2-0
  6
CONTINUOUS
 62
     3
 10
23612.407836999981
 20
18937.60579649996
 30
0.0
 11
23612.407836999981
 21
18943.60967649996
 31
0.0
  0
LINE
  5
4714
  8
2-0
  6
CONTINUOUS
 62
     3
 10
23612.407836999981
 20
18943.60967649996
 30
0.0
 11
23642.405460999991
 21
18943.60967649996
 31
0.0
  0
LINE
  5
4715
  8
2-0
  6
CONTINUOUS
 62
     3
 10
23642.405460999991
 20
18906.60851549996
 30
0.0
 11
23642.405460999991
 21
18943.60967649996
 31
0.0
  0
LINE
  5
4716
  8
2-0
  6
CONTINUOUS
 62
     3
 10
23612.407836999981
 20
18906.60851549996
 30
0.0
 11
23642.405460999991
 21
18906.60851549996
 31
0.0
  0
LINE
  5
4717
  8
2-0
  6
CONTINUOUS
 62
     3
 10
23612.407836999981
 20
18912.60645649994
 30
0.0
 11
23612.407836999981
 21
18906.60851549996
 31
0.0
  0
LINE
  5
4718
  8
2-0
  6
CONTINUOUS
 62
     3
 10
23612.407836999981
 20
18896.51494949995
 30
0.0
 11
23642.405460999991
 21
18896.51494949995
 31
0.0
  0
LINE
  5
4719
  8
2-0
  6
CONTINUOUS
 62
     3
 10
23612.407836999981
 20
18914.510753499959
 30
0.0
 11
23612.407836999981
 21
18896.51494949995
 31
0.0
  0
LINE
  5
471A
  8
2-0
  6
CONTINUOUS
 62
     3
 10
23637.405196999978
 20
18914.510753499959
 30
0.0
 11
23612.407836999981
 21
18914.510753499959
 31
0.0
  0
LINE
  5
471B
  8
2-0
  6
CONTINUOUS
 62
     3
 10
23637.405196999978
 20
18909.510489499949
 30
0.0
 11
23637.405196999978
 21
18914.510753499959
 31
0.0
  0
LINE
  5
471C
  8
2-0
  6
CONTINUOUS
 62
     3
 10
23630.403640000011
 20
18909.510489499949
 30
0.0
 11
23637.405196999978
 21
18909.510489499949
 31
0.0
  0
LINE
  5
471D
  8
2-0
  6
CONTINUOUS
 62
     3
 10
23533.405249999982
 20
19695.603817999981
 30
0.0
 11
23527.403349999971
 21
19695.603817999981
 31
0.0
  0
LINE
  5
471E
  8
2-0
  6
CONTINUOUS
 62
     3
 10
23527.403349999971
 20
19695.603817999981
 30
0.0
 11
23527.403349999971
 21
19725.607380999991
 31
0.0
  0
LINE
  5
471F
  8
2-0
  6
CONTINUOUS
 62
     3
 10
23527.403349999971
 20
19725.607380999991
 30
0.0
 11
23642.405460999991
 21
19725.607380999991
 31
0.0
  0
LINE
  5
4720
  8
2-0
  6
CONTINUOUS
 62
     3
 10
23517.10589399996
 20
19695.603817999981
 30
0.0
 11
23517.10589399996
 21
19725.607380999991
 31
0.0
  0
LINE
  5
4721
  8
2-0
  6
CONTINUOUS
 62
     3
 10
23535.107635999961
 20
19695.603817999981
 30
0.0
 11
23517.10589399996
 21
19695.603817999981
 31
0.0
  0
LINE
  5
4722
  8
2-0
  6
CONTINUOUS
 62
     3
 10
23535.107635999961
 20
19720.613054999991
 30
0.0
 11
23535.107635999961
 21
19695.603817999981
 31
0.0
  0
LINE
  5
4723
  8
2-0
  6
CONTINUOUS
 62
     3
 10
23530.107371999991
 20
19720.613054999991
 30
0.0
 11
23535.107635999961
 21
19720.613054999991
 31
0.0
  0
LINE
  5
4724
  8
2-0
  6
CONTINUOUS
 62
     3
 10
23530.107371999991
 20
19713.60753899995
 30
0.0
 11
23530.107371999991
 21
19720.613054999991
 31
0.0
  0
LINE
  5
4725
  8
2-0
  6
CONTINUOUS
 62
     3
 10
23630.403640000011
 20
19613.307311999961
 30
0.0
 11
23637.405196999978
 21
19613.307311999961
 31
0.0
  0
LINE
  5
4726
  8
2-0
  6
CONTINUOUS
 62
     3
 10
23637.405196999978
 20
19613.307311999961
 30
0.0
 11
23637.405196999978
 21
19618.315493999991
 31
0.0
  0
LINE
  5
4727
  8
2-0
  6
CONTINUOUS
 62
     3
 10
23637.405196999978
 20
19618.315493999991
 30
0.0
 11
23612.407836999981
 21
19618.315493999991
 31
0.0
  0
LINE
  5
4728
  8
2-0
  6
CONTINUOUS
 62
     3
 10
23612.407836999981
 20
19618.315493999991
 30
0.0
 11
23612.407836999981
 21
19600.31375199998
 31
0.0
  0
LINE
  5
4729
  8
2-0
  6
CONTINUOUS
 62
     3
 10
23612.407836999981
 20
19600.31375199998
 30
0.0
 11
23642.405460999991
 21
19600.31375199998
 31
0.0
  0
LINE
  5
472A
  8
2-0
  6
CONTINUOUS
 62
     3
 10
23642.405460999991
 20
19640.610811999981
 30
0.0
 11
23561.403560999988
 21
19640.610811999981
 31
0.0
  0
LINE
  5
472B
  8
2-0
  6
CONTINUOUS
 62
     3
 10
23612.407836999981
 20
19610.61120799998
 30
0.0
 11
23642.405460999991
 21
19610.61120799998
 31
0.0
  0
LINE
  5
472C
  8
2-0
  6
CONTINUOUS
 62
     3
 10
23612.407836999981
 20
19616.607169999981
 30
0.0
 11
23612.407836999981
 21
19610.61120799998
 31
0.0
  0
LINE
  5
472D
  8
2-0
  6
CONTINUOUS
 62
     4
 10
23599.907177000001
 20
19805.60962399995
 30
0.0
 11
23599.907177000001
 21
20535.606588999981
 31
0.0
  0
LINE
  5
472E
  8
0-3
  6
CONTINUOUS
 62
     6
 10
22521.344702999981
 20
15097.147187312459
 30
0.0
 11
23041.346418999969
 21
15097.147187312459
 31
0.0
  0
LINE
  5
472F
  8
0-3
  6
CONTINUOUS
 62
     6
 10
23417.241160999991
 20
14916.20335231245
 30
0.0
 11
23041.346418999969
 21
15097.147187312459
 31
0.0
  0
LINE
  5
4730
  8
0-3
  6
CONTINUOUS
 62
     6
 10
21841.352356999989
 20
16972.789865999981
 30
0.0
 11
23041.346418999969
 21
16972.789865999981
 31
0.0
  0
LINE
  5
4731
  8
0-3
  6
CONTINUOUS
 62
     6
 10
22121.343383999982
 20
16135.600979999959
 30
0.0
 11
23041.346418999969
 21
16135.600979999959
 31
0.0
  0
LINE
  5
4732
  8
0-3
  6
CONTINUOUS
 62
     6
 10
23501.063875999971
 20
16379.514290999979
 30
0.0
 11
23041.346418999969
 21
16135.600979999959
 31
0.0
  0
LINE
  5
4733
  8
0-3
  6
CONTINUOUS
 62
     6
 10
23346.041837000001
 20
16869.136334999981
 30
0.0
 11
23041.346418999969
 21
16972.789865999981
 31
0.0
  0
LINE
  5
4734
  8
2-0
  6
CONTINUOUS
 62
     3
 10
22122.508541250001
 20
19695.603817999981
 30
0.0
 11
22122.508541250001
 21
19725.607380999991
 31
0.0
  0
LINE
  5
4735
  8
2-0
  6
CONTINUOUS
 62
     3
 10
22128.508462250011
 20
19695.603817999981
 30
0.0
 11
22122.508541250001
 21
19695.603817999981
 31
0.0
  0
LINE
  5
4736
  8
2-0
  6
CONTINUOUS
 62
     3
 10
22112.414976249998
 20
19695.603817999981
 30
0.0
 11
22112.414976249998
 21
19725.607380999991
 31
0.0
  0
LINE
  5
4737
  8
2-0
  6
CONTINUOUS
 62
     3
 10
22130.414739250009
 20
19695.603817999981
 30
0.0
 11
22112.414976249998
 21
19695.603817999981
 31
0.0
  0
LINE
  5
4738
  8
2-0
  6
CONTINUOUS
 62
     3
 10
22130.414739250009
 20
19720.613054999991
 30
0.0
 11
22130.414739250009
 21
19695.603817999981
 31
0.0
  0
LINE
  5
4739
  8
2-0
  6
CONTINUOUS
 62
     3
 10
22125.414475250011
 20
19720.613054999991
 30
0.0
 11
22130.414739250009
 21
19720.613054999991
 31
0.0
  0
LINE
  5
473A
  8
2-0
  6
CONTINUOUS
 62
     3
 10
22125.414475250011
 20
19713.60753899995
 30
0.0
 11
22125.414475250011
 21
19720.613054999991
 31
0.0
  0
LINE
  5
473B
  8
2-0
  6
CONTINUOUS
 62
     3
 10
22156.60377025
 20
19713.60753899995
 30
0.0
 11
22156.60377025
 21
19720.613054999991
 31
0.0
  0
LINE
  5
473C
  8
2-0
  6
CONTINUOUS
 62
     3
 10
22156.60377025
 20
19720.613054999991
 30
0.0
 11
22151.603506250001
 21
19720.613054999991
 31
0.0
  0
LINE
  5
473D
  8
2-0
  6
CONTINUOUS
 62
     3
 10
22151.603506250001
 20
19720.613054999991
 30
0.0
 11
22151.603506250001
 21
19695.603817999981
 31
0.0
  0
LINE
  5
473E
  8
2-0
  6
CONTINUOUS
 62
     3
 10
22151.603506250001
 20
19695.603817999981
 30
0.0
 11
22169.607227249999
 21
19695.603817999981
 31
0.0
  0
LINE
  5
473F
  8
2-0
  6
CONTINUOUS
 62
     3
 10
22169.607227249999
 20
19695.603817999981
 30
0.0
 11
22169.607227249999
 21
19725.607380999991
 31
0.0
  0
LINE
  5
4740
  8
2-0
  6
CONTINUOUS
 62
     3
 10
22153.509782249988
 20
19695.603817999981
 30
0.0
 11
22159.509703250002
 21
19695.603817999981
 31
0.0
  0
LINE
  5
4741
  8
2-0
  6
CONTINUOUS
 62
     3
 10
22159.509703250002
 20
19695.603817999981
 30
0.0
 11
22159.509703250002
 21
19725.607380999991
 31
0.0
  0
LINE
  5
4742
  8
2-0
  6
CONTINUOUS
 62
     3
 10
22159.509703250002
 20
19725.607380999991
 30
0.0
 11
22122.508541250001
 21
19725.607380999991
 31
0.0
  0
LINE
  5
4743
  8
2-0
  6
CONTINUOUS
 62
     3
 10
22823.508541250001
 20
19695.603817999981
 30
0.0
 11
22823.508541250001
 21
19725.607380999991
 31
0.0
  0
LINE
  5
4744
  8
2-0
  6
CONTINUOUS
 62
     3
 10
22829.508462250011
 20
19695.603817999981
 30
0.0
 11
22823.508541250001
 21
19695.603817999981
 31
0.0
  0
LINE
  5
4745
  8
2-0
  6
CONTINUOUS
 62
     3
 10
22813.414976250009
 20
19695.603817999981
 30
0.0
 11
22813.414976250009
 21
19725.607380999991
 31
0.0
  0
LINE
  5
4746
  8
2-0
  6
CONTINUOUS
 62
     3
 10
22831.414739250009
 20
19695.603817999981
 30
0.0
 11
22813.414976250009
 21
19695.603817999981
 31
0.0
  0
LINE
  5
4747
  8
2-0
  6
CONTINUOUS
 62
     3
 10
22831.414739250009
 20
19720.613054999991
 30
0.0
 11
22831.414739250009
 21
19695.603817999981
 31
0.0
  0
LINE
  5
4748
  8
2-0
  6
CONTINUOUS
 62
     3
 10
22826.41447525
 20
19720.613054999991
 30
0.0
 11
22831.414739250009
 21
19720.613054999991
 31
0.0
  0
LINE
  5
4749
  8
2-0
  6
CONTINUOUS
 62
     3
 10
22826.41447525
 20
19713.60753899995
 30
0.0
 11
22826.41447525
 21
19720.613054999991
 31
0.0
  0
LINE
  5
474A
  8
2-0
  6
CONTINUOUS
 62
     3
 10
22857.603770249989
 20
19713.60753899995
 30
0.0
 11
22857.603770249989
 21
19720.613054999991
 31
0.0
  0
LINE
  5
474B
  8
2-0
  6
CONTINUOUS
 62
     3
 10
22857.603770249989
 20
19720.613054999991
 30
0.0
 11
22852.603506250001
 21
19720.613054999991
 31
0.0
  0
LINE
  5
474C
  8
2-0
  6
CONTINUOUS
 62
     3
 10
22852.603506250001
 20
19720.613054999991
 30
0.0
 11
22852.603506250001
 21
19695.603817999981
 31
0.0
  0
LINE
  5
474D
  8
2-0
  6
CONTINUOUS
 62
     3
 10
22852.603506250001
 20
19695.603817999981
 30
0.0
 11
22870.60722725001
 21
19695.603817999981
 31
0.0
  0
LINE
  5
474E
  8
2-0
  6
CONTINUOUS
 62
     3
 10
22870.60722725001
 20
19695.603817999981
 30
0.0
 11
22870.60722725001
 21
19725.607380999991
 31
0.0
  0
LINE
  5
474F
  8
2-0
  6
CONTINUOUS
 62
     3
 10
22854.509782249988
 20
19695.603817999981
 30
0.0
 11
22860.509703250002
 21
19695.603817999981
 31
0.0
  0
LINE
  5
4750
  8
2-0
  6
CONTINUOUS
 62
     3
 10
22860.509703250002
 20
19695.603817999981
 30
0.0
 11
22860.509703250002
 21
19725.607380999991
 31
0.0
  0
LINE
  5
4751
  8
2-0
  6
CONTINUOUS
 62
     3
 10
22860.509703250002
 20
19725.607380999991
 30
0.0
 11
22823.508541250001
 21
19725.607380999991
 31
0.0
  0
LINE
  5
4752
  8
2-0
  6
CONTINUOUS
 62
     3
 10
22159.509703250002
 20
19725.607380999991
 30
0.0
 11
22122.508541250001
 21
19725.607380999991
 31
0.0
  0
LINE
  5
4753
  8
2-0
  6
CONTINUOUS
 62
     3
 10
22813.414976250009
 20
19725.607380999991
 30
0.0
 11
22169.607227249999
 21
19725.607380999991
 31
0.0
  0
LINE
  5
4754
  8
2-0
  6
CONTINUOUS
 62
     3
 10
22860.509703250002
 20
19725.607380999991
 30
0.0
 11
22823.508541250001
 21
19725.607380999991
 31
0.0
  0
LINE
  5
4755
  8
0-1
  6
CONTINUOUS
 62
     3
 10
20288.910872
 20
13885.60851549996
 30
0.0
 11
20244.912112999998
 21
13885.60851549996
 31
0.0
  0
LINE
  5
4756
  8
0-1
  6
CONTINUOUS
 62
     3
 10
20254.910661000002
 20
13925.608647499979
 30
0.0
 11
20278.910344
 21
13925.608647499979
 31
0.0
  0
LINE
  5
4757
  8
0-1
  6
CONTINUOUS
 62
     3
 10
20244.912112999998
 20
13885.60851549996
 30
0.0
 11
20244.912112999998
 21
13909.60819849998
 31
0.0
  0
LINE
  5
4758
  8
0-1
  6
CONTINUOUS
 62
     3
 10
20244.912112999998
 20
13909.60819849998
 30
0.0
 11
20254.910661000002
 21
13914.60945249997
 31
0.0
  0
LINE
  5
4759
  8
0-1
  6
CONTINUOUS
 62
     3
 10
20254.910661000002
 20
13914.60945249997
 30
0.0
 11
20254.910661000002
 21
13925.608647499979
 31
0.0
  0
LINE
  5
475A
  8
0-1
  6
CONTINUOUS
 62
     3
 10
20278.910344
 20
13925.608647499979
 30
0.0
 11
20281.41047599999
 21
13923.108515499949
 31
0.0
  0
LINE
  5
475B
  8
0-1
  6
CONTINUOUS
 62
     3
 10
20281.41047599999
 20
13923.108515499949
 30
0.0
 11
20316.91314199999
 21
13923.108515499949
 31
0.0
  0
LINE
  5
475C
  8
0-1
  6
CONTINUOUS
 62
     3
 10
20309.410767000001
 20
14603.908504499979
 30
0.0
 11
20319.413273999991
 21
14603.908504499979
 31
0.0
  0
LINE
  5
475D
  8
0-1
  6
CONTINUOUS
 62
     3
 10
20319.413273999991
 20
14603.908504499979
 30
0.0
 11
20319.413273999991
 21
14584.40925749998
 31
0.0
  0
LINE
  5
475E
  8
0-1
  6
CONTINUOUS
 62
     3
 10
20319.413273999991
 20
14584.40925749998
 30
0.0
 11
20279.413142000001
 21
14584.40925749998
 31
0.0
  0
LINE
  5
475F
  8
0-1
  6
CONTINUOUS
 62
     3
 10
20317.411981000008
 20
14585.608845499981
 30
0.0
 11
20269.412614000001
 21
14585.608845499981
 31
0.0
  0
LINE
  5
4760
  8
0-1
  6
CONTINUOUS
 62
     3
 10
20269.412614000001
 20
14585.608845499981
 30
0.0
 11
20269.412614000001
 21
14625.60996749998
 31
0.0
  0
LINE
  5
4761
  8
0-1
  6
CONTINUOUS
 62
     3
 10
20269.412614000001
 20
14625.60996749998
 30
0.0
 11
20271.411928000001
 21
14625.60996749998
 31
0.0
  0
LINE
  5
4762
  8
0-1
  6
CONTINUOUS
 62
     3
 10
20271.411928000001
 20
14625.60996749998
 30
0.0
 11
20271.411928000001
 21
14617.608753499981
 31
0.0
  0
LINE
  5
4763
  8
0-1
  6
CONTINUOUS
 62
     3
 10
20279.413142000001
 20
14584.40925749998
 30
0.0
 11
20279.413142000001
 21
14585.608845499981
 31
0.0
  0
LINE
  5
4764
  8
0-1
  6
CONTINUOUS
 62
     3
 10
20279.413142000001
 20
14585.608845499981
 30
0.0
 11
20285.41108300001
 21
14585.608845499981
 31
0.0
  0
LINE
  5
4765
  8
0-1
  6
CONTINUOUS
 62
     3
 10
20251.909711
 20
13914.60945249997
 30
0.0
 11
20251.909711
 21
13926.60830449997
 31
0.0
  0
LINE
  5
4766
  8
0-1
  6
CONTINUOUS
 62
     3
 10
20251.909711
 20
13926.60830449997
 30
0.0
 11
20279.910000999989
 21
13926.60830449997
 31
0.0
  0
LINE
  5
4767
  8
0-1
  6
CONTINUOUS
 62
     3
 10
20279.910000999989
 20
13926.60830449997
 30
0.0
 11
20279.910000999989
 21
13964.60912249998
 31
0.0
  0
LINE
  5
4768
  8
0-1
  6
CONTINUOUS
 62
     3
 10
20279.910000999989
 20
13964.60912249998
 30
0.0
 11
20255.411478999991
 21
13964.60912249998
 31
0.0
  0
LINE
  5
4769
  8
0-1
  6
CONTINUOUS
 62
     3
 10
20255.411478999991
 20
13964.60912249998
 30
0.0
 11
20262.411057000001
 21
13957.608555499961
 31
0.0
  0
LINE
  5
476A
  8
0-1
  6
CONTINUOUS
 62
     3
 10
20251.909711
 20
13914.60945249997
 30
0.0
 11
20254.910661000002
 21
13914.60945249997
 31
0.0
  0
LINE
  5
476B
  8
0-1
  6
CONTINUOUS
 62
     3
 10
20254.910661000002
 20
13914.60945249997
 30
0.0
 11
20251.909711
 21
13921.61001949998
 31
0.0
  0
LINE
  5
476C
  8
0-1
  6
CONTINUOUS
 62
     3
 10
20272.912402999998
 20
13956.608898499981
 30
0.0
 11
20278.910344
 21
13956.608898499981
 31
0.0
  0
LINE
  5
476D
  8
0-1
  6
CONTINUOUS
 62
     3
 10
20278.910344
 20
13956.608898499981
 30
0.0
 11
20278.910344
 21
13926.60830449997
 31
0.0
  0
LINE
  5
476E
  8
0-1
  6
CONTINUOUS
 62
     3
 10
20278.910344
 20
13926.60830449997
 30
0.0
 11
20252.909368000001
 21
13926.60830449997
 31
0.0
  0
LINE
  5
476F
  8
0-1
  6
CONTINUOUS
 62
     3
 10
20252.909368000001
 20
13926.60830449997
 30
0.0
 11
20252.909368000001
 21
14632.108726499981
 31
0.0
  0
LINE
  5
4770
  8
0-1
  6
CONTINUOUS
 62
     3
 10
20252.909368000001
 20
14632.108726499981
 30
0.0
 11
20278.910344
 21
14632.108726499981
 31
0.0
  0
LINE
  5
4771
  8
0-1
  6
CONTINUOUS
 62
     3
 10
20278.910344
 20
14632.108726499981
 30
0.0
 11
20278.910344
 21
14602.10813249998
 31
0.0
  0
LINE
  5
4772
  8
0-1
  6
CONTINUOUS
 62
     3
 10
20278.910344
 20
14602.10813249998
 30
0.0
 11
20277.710756
 21
14602.10813249998
 31
0.0
  0
LINE
  5
4773
  8
0-1
  6
CONTINUOUS
 62
     3
 10
20277.710756
 20
14602.10813249998
 30
0.0
 11
20277.710756
 21
14609.108700499981
 31
0.0
  0
LINE
  5
4774
  8
0-3
  6
CONTINUOUS
 62
     6
 10
20288.910872
 20
14371.38321215468
 30
0.0
 11
21092.019176833051
 21
14621.10892499996
 31
0.0
  0
LINE
  5
4775
  8
0-3
  6
CONTINUOUS
 62
     6
 10
20449.611606336119
 20
14393.42591917702
 30
0.0
 11
20288.910872
 21
14371.38321215468
 31
0.0
  0
LINE
  5
4776
  8
0-3
  6
CONTINUOUS
 62
     6
 10
20288.910872
 20
14371.38321215468
 30
0.0
 11
20433.774527681519
 21
14444.354018898201
 31
0.0
  0
LINE
  5
4777
  8
0-3
  6
CONTINUOUS
 62
     6
 10
20288.910872
 20
14371.38321215468
 30
0.0
 11
20449.611606336119
 21
14393.42591917702
 31
0.0
  0
LINE
  5
4778
  8
0-3
  6
CONTINUOUS
 62
     6
 10
20449.611606336119
 20
14393.42591917702
 30
0.0
 11
20433.774527681519
 21
14444.354018898201
 31
0.0
  0
LINE
  5
4779
  8
0-3
  6
CONTINUOUS
 62
     6
 10
20433.774527681519
 20
14444.354018898201
 30
0.0
 11
20288.910872
 21
14371.38321215468
 31
0.0
  0
LINE
  5
477A
  8
0-3
  6
CONTINUOUS
 62
     6
 10
20433.774527681519
 20
14444.354018898201
 30
0.0
 11
20449.611606336119
 21
14393.42591917702
 31
0.0
  0
LINE
  5
477B
  8
0-3
  6
CONTINUOUS
 62
     6
 10
21092.019176833081
 20
14621.10892499996
 30
0.0
 11
21746.580647833081
 21
14621.10892499996
 31
0.0
  0
TEXT
  5
477C
  8
0-3
  6
CONTINUOUS
 62
     7
 10
21159.204037833078
 20
14701.109188999961
 30
0.0
 40
160.0
  1
引戸扉
 72
     4
 11
21431.204037833078
 21
14781.109188999961
 31
0.0
  0
LINE
  5
477D
  8
0-1
  6
CONTINUOUS
 62
     3
 10
20318.906516999981
 20
13563.110032999961
 30
0.0
 11
20318.906516999981
 21
13569.110942999951
 31
0.0
  0
LINE
  5
477E
  8
1-0
  6
CONTINUOUS
 62
     2
 10
20553.40424699998
 20
13512.78077299996
 30
0.0
 11
20553.40424699998
 21
13534.11008499996
 31
0.0
  0
LINE
  5
477F
  8
1-0
  6
CONTINUOUS
 62
     2
 10
20546.804531999991
 20
13540.709799999981
 30
0.0
 11
20471.00480699999
 21
13540.709799999981
 31
0.0
  0
LINE
  5
4780
  8
1-0
  6
CONTINUOUS
 62
     2
 10
20464.405091999972
 20
13534.11008499996
 30
0.0
 11
20464.405091999972
 21
13520.70973399998
 31
0.0
  0
LINE
  5
4781
  8
1-0
  6
CONTINUOUS
 62
     2
 10
20464.405091999972
 20
13520.70973399998
 30
0.0
 11
20466.006521999989
 21
13520.70973399998
 31
0.0
  0
LINE
  5
4782
  8
1-0
  6
CONTINUOUS
 62
     2
 10
20466.006521999989
 20
13520.70973399998
 30
0.0
 11
20466.006521999989
 21
13534.11008499996
 31
0.0
  0
LINE
  5
4783
  8
1-0
  6
CONTINUOUS
 62
     2
 10
20471.00480699999
 20
13539.11034899997
 30
0.0
 11
20546.804531999991
 21
13539.11034899997
 31
0.0
  0
LINE
  5
4784
  8
1-0
  6
CONTINUOUS
 62
     2
 10
20551.80677499999
 20
13534.11008499996
 30
0.0
 11
20551.80677499999
 21
13512.78077299996
 31
0.0
  0
LINE
  5
4785
  8
1-0
  6
CONTINUOUS
 62
     2
 10
20553.738785999969
 20
13508.114057999959
 30
0.0
 11
20561.342115999989
 21
13500.511716999959
 31
0.0
  0
LINE
  5
4786
  8
1-0
  6
CONTINUOUS
 62
     2
 10
20562.806959999991
 20
13496.976295999961
 30
0.0
 11
20562.806959999991
 21
13469.31054499996
 31
0.0
  0
LINE
  5
4787
  8
1-0
  6
CONTINUOUS
 62
     2
 10
20557.806696
 20
13464.31028099998
 30
0.0
 11
20380.505175999991
 21
13464.31028099998
 31
0.0
  0
LINE
  5
4788
  8
1-0
  6
CONTINUOUS
 62
     2
 10
20375.504911999979
 20
13469.31054499996
 30
0.0
 11
20375.504911999979
 21
13534.11008499996
 31
0.0
  0
LINE
  5
4789
  8
1-0
  6
CONTINUOUS
 62
     2
 10
20368.907176999968
 20
13540.709799999981
 30
0.0
 11
20333.90730899998
 21
13540.709799999981
 31
0.0
  0
LINE
  5
478A
  8
1-0
  6
CONTINUOUS
 62
     2
 10
20333.90730899998
 20
13540.709799999981
 30
0.0
 11
20333.90730899998
 21
13539.11034899997
 31
0.0
  0
LINE
  5
478B
  8
1-0
  6
CONTINUOUS
 62
     2
 10
20333.90730899998
 20
13539.11034899997
 30
0.0
 11
20368.907176999968
 21
13539.11034899997
 31
0.0
  0
LINE
  5
478C
  8
1-0
  6
CONTINUOUS
 62
     2
 10
20373.903481999969
 20
13534.11008499996
 30
0.0
 11
20373.903481999969
 21
13469.31054499996
 31
0.0
  0
LINE
  5
478D
  8
1-0
  6
CONTINUOUS
 62
     2
 10
20380.505175999991
 20
13462.70983999998
 30
0.0
 11
20557.806696
 21
13462.70983999998
 31
0.0
  0
LINE
  5
478E
  8
1-0
  6
CONTINUOUS
 62
     2
 10
20564.406410999989
 20
13469.31054499996
 30
0.0
 11
20564.406410999989
 21
13496.976295999961
 31
0.0
  0
LINE
  5
478F
  8
1-0
  6
CONTINUOUS
 62
     2
 10
20562.472421999992
 20
13501.64301099996
 30
0.0
 11
20554.871069999968
 21
13509.24535299998
 31
0.0
  0
LINE
  5
4790
  8
1-0
  6
CONTINUOUS
 62
     2
 10
20353.90440499999
 20
13531.609952999979
 30
0.0
 11
20353.90440499999
 21
13548.210195999971
 31
0.0
  0
LINE
  5
4791
  8
1-1
  6
CONTINUOUS
 62
     3
 10
20353.90440499999
 20
13544.109623999961
 30
0.0
 11
20353.90440499999
 21
13530.91019399998
 31
0.0
  0
LINE
  5
4792
  8
1-1
  6
CONTINUOUS
 62
     3
 10
20317.506996999971
 20
13451.10986099995
 30
0.0
 11
20326.91366899999
 21
13451.10986099995
 31
0.0
  0
LINE
  5
4793
  8
1-1
  6
CONTINUOUS
 62
     3
 10
20329.461309999999
 20
13452.16395499998
 30
0.0
 11
20330.821238999979
 21
13453.524873999981
 31
0.0
  0
LINE
  5
4794
  8
1-1
  6
CONTINUOUS
 62
     3
 10
20332.232635999972
 20
13454.10982199996
 30
0.0
 11
20367.105814999992
 21
13454.10982199996
 31
0.0
  0
LINE
  5
4795
  8
1-1
  6
CONTINUOUS
 62
     3
 10
20373.903481999969
 20
13460.91045799996
 30
0.0
 11
20373.903481999969
 21
13532.30971299997
 31
0.0
  0
LINE
  5
4796
  8
1-1
  6
CONTINUOUS
 62
     3
 10
20333.90730899998
 20
13539.11034899997
 30
0.0
 11
20333.90730899998
 21
13537.50990899998
 31
0.0
  0
LINE
  5
4797
  8
1-1
  6
CONTINUOUS
 62
     3
 10
20333.90730899998
 20
13537.50990899998
 30
0.0
 11
20367.105814999992
 21
13537.50990899998
 31
0.0
  0
LINE
  5
4798
  8
1-1
  6
CONTINUOUS
 62
     3
 10
20372.30600999996
 20
13532.30971299997
 30
0.0
 11
20372.30600999996
 21
13460.91045799996
 31
0.0
  0
LINE
  5
4799
  8
1-1
  6
CONTINUOUS
 62
     3
 10
20367.105814999992
 20
13455.709272999949
 30
0.0
 11
20332.232635999972
 21
13455.709272999949
 31
0.0
  0
LINE
  5
479A
  8
1-1
  6
CONTINUOUS
 62
     3
 10
20329.688954999969
 20
13454.656168999971
 30
0.0
 11
20328.329024999999
 21
13453.29524999997
 31
0.0
  0
LINE
  5
479B
  8
1-1
  6
CONTINUOUS
 62
     3
 10
20326.91366899999
 20
13452.71030199997
 30
0.0
 11
20317.506996999971
 21
13452.71030199997
 31
0.0
  0
LINE
  5
479C
  8
1-1
  6
CONTINUOUS
 62
     3
 10
20287.503433999998
 20
13482.71089599997
 30
0.0
 11
20287.503433999998
 21
13492.11855799996
 31
0.0
  0
LINE
  5
479D
  8
1-1
  6
CONTINUOUS
 62
     3
 10
20288.091350999988
 20
13493.533913999951
 30
0.0
 11
20289.449300999961
 21
13494.892852999979
 31
0.0
  0
LINE
  5
479E
  8
1-1
  6
CONTINUOUS
 62
     3
 10
20290.506363999972
 20
13497.437523999961
 30
0.0
 11
20290.506363999972
 21
13562.309316999979
 31
0.0
  0
LINE
  5
479F
  8
1-1
  6
CONTINUOUS
 62
     3
 10
20295.706558999969
 20
13567.509512999981
 30
0.0
 11
20318.50665399999
 21
13567.509512999981
 31
0.0
  0
LINE
  5
47A0
  8
1-1
  6
CONTINUOUS
 62
     3
 10
20319.30439999999
 20
13566.709786999971
 30
0.0
 11
20319.30439999999
 21
13563.110032999961
 31
0.0
  0
LINE
  5
47A1
  8
1-1
  6
CONTINUOUS
 62
     3
 10
20319.30439999999
 20
13563.110032999961
 30
0.0
 11
20320.905831
 21
13563.110032999961
 31
0.0
  0
LINE
  5
47A2
  8
1-1
  6
CONTINUOUS
 62
     3
 10
20320.905831
 20
13563.110032999961
 30
0.0
 11
20320.905831
 21
13566.709786999971
 31
0.0
  0
LINE
  5
47A3
  8
1-1
  6
CONTINUOUS
 62
     3
 10
20318.50665399999
 20
13569.110942999951
 30
0.0
 11
20295.706558999969
 21
13569.110942999951
 31
0.0
  0
LINE
  5
47A4
  8
1-1
  6
CONTINUOUS
 62
     3
 10
20288.904933000002
 20
13562.309316999979
 30
0.0
 11
20288.904933000002
 21
13497.437523999961
 31
0.0
  0
LINE
  5
47A5
  8
1-1
  6
CONTINUOUS
 62
     3
 10
20288.320974999991
 20
13496.02414799998
 30
0.0
 11
20286.959065999981
 21
13494.665207999949
 31
0.0
  0
LINE
  5
47A6
  8
1-1
  6
CONTINUOUS
 62
     3
 10
20285.90596299999
 20
13492.11855799996
 30
0.0
 11
20285.90596299999
 21
13482.71089599997
 31
0.0
  0
ARC
  5
47A7
  8
1-0
  6
CONTINUOUS
 62
     2
 10
20546.804531999991
 20
13534.11008499996
 30
0.0
 40
6.600000999999998
 50
0.0
 51
90.0
  0
ARC
  5
47A8
  8
1-0
  6
CONTINUOUS
 62
     2
 10
20471.00480699999
 20
13534.11008499996
 30
0.0
 40
6.600000999999998
 50
90.0
 51
180.0
  0
ARC
  5
47A9
  8
1-0
  6
CONTINUOUS
 62
     2
 10
20471.00480699999
 20
13534.11008499996
 30
0.0
 40
5.0
 50
90.0
 51
180.0
  0
ARC
  5
47AA
  8
1-0
  6
CONTINUOUS
 62
     2
 10
20546.804531999991
 20
13534.11008499996
 30
0.0
 40
5.0
 50
0.0
 51
89.999985000180857
  0
ARC
  5
47AB
  8
1-0
  6
CONTINUOUS
 62
     2
 10
20558.404510999972
 20
13512.78077299996
 30
0.0
 40
6.600000999999998
 50
180.0
 51
224.99998499996141
  0
ARC
  5
47AC
  8
1-0
  6
CONTINUOUS
 62
     2
 10
20557.806696
 20
13496.976295999961
 30
0.0
 40
5.0
 50
359.99998499999839
 51
44.99998499996147
  0
ARC
  5
47AD
  8
1-0
  6
CONTINUOUS
 62
     2
 10
20557.806696
 20
13469.31054499996
 30
0.0
 40
5.0
 50
269.9999850001808
 51
359.99998499999839
  0
ARC
  5
47AE
  8
1-0
  6
CONTINUOUS
 62
     2
 10
20380.505175999991
 20
13469.31054499996
 30
0.0
 40
5.0
 50
180.0
 51
270.0
  0
ARC
  5
47AF
  8
1-0
  6
CONTINUOUS
 62
     2
 10
20368.907176999968
 20
13534.11008499996
 30
0.0
 40
6.600000999999998
 50
0.0
 51
90.0
  0
ARC
  5
47B0
  8
1-0
  6
CONTINUOUS
 62
     2
 10
20368.907176999968
 20
13534.11008499996
 30
0.0
 40
5.0
 50
0.0
 51
89.999985000180857
  0
ARC
  5
47B1
  8
1-0
  6
CONTINUOUS
 62
     2
 10
20380.505175999991
 20
13469.31054499996
 30
0.0
 40
6.600000999999998
 50
180.0
 51
269.9999850001808
  0
ARC
  5
47B2
  8
1-0
  6
CONTINUOUS
 62
     2
 10
20557.806696
 20
13469.31054499996
 30
0.0
 40
6.600000999999998
 50
269.9999850001808
 51
359.99998499999839
  0
ARC
  5
47B3
  8
1-0
  6
CONTINUOUS
 62
     2
 10
20557.806696
 20
13496.976295999961
 30
0.0
 40
6.600000999999998
 50
0.0
 51
45.000000000128964
  0
ARC
  5
47B4
  8
1-0
  6
CONTINUOUS
 62
     2
 10
20558.404510999972
 20
13512.78077299996
 30
0.0
 40
5.0
 50
179.99998499999839
 51
225.00000000012901
  0
ARC
  5
47B5
  8
1-1
  6
CONTINUOUS
 62
     3
 10
20317.506996999971
 20
13482.71089599997
 30
0.0
 40
31.600002000000011
 50
180.0
 51
269.9999850001808
  0
ARC
  5
47B6
  8
1-1
  6
CONTINUOUS
 62
     3
 10
20326.91366899999
 20
13454.71060499996
 30
0.0
 40
3.6000000000000001
 50
269.9999850001808
 51
314.99998500027471
  0
ARC
  5
47B7
  8
1-1
  6
CONTINUOUS
 62
     3
 10
20332.232635999972
 20
13452.109517999959
 30
0.0
 40
2.0
 50
90.0
 51
134.99999999987099
  0
ARC
  5
47B8
  8
1-1
  6
CONTINUOUS
 62
     3
 10
20367.105814999992
 20
13460.91045799996
 30
0.0
 40
6.8000009999999991
 50
269.9999850001808
 51
359.99998499999839
  0
ARC
  5
47B9
  8
1-1
  6
CONTINUOUS
 62
     3
 10
20367.105814999992
 20
13532.30971299997
 30
0.0
 40
6.8000009999999991
 50
0.0
 51
90.0
  0
ARC
  5
47BA
  8
1-1
  6
CONTINUOUS
 62
     3
 10
20367.105814999992
 20
13532.30971299997
 30
0.0
 40
5.2000010000000003
 50
0.0
 51
89.999985000180857
  0
ARC
  5
47BB
  8
1-1
  6
CONTINUOUS
 62
     3
 10
20367.105814999992
 20
13460.91045799996
 30
0.0
 40
5.2000010000000003
 50
269.9999850001808
 51
359.99998499999839
  0
ARC
  5
47BC
  8
1-1
  6
CONTINUOUS
 62
     3
 10
20332.232635999972
 20
13452.109517999959
 30
0.0
 40
3.6000000000000001
 50
90.0
 51
134.99999999987099
  0
ARC
  5
47BD
  8
1-1
  6
CONTINUOUS
 62
     3
 10
20326.91366899999
 20
13454.71060499996
 30
0.0
 40
2.0
 50
269.9999850001808
 51
314.99998500027471
  0
ARC
  5
47BE
  8
1-1
  6
CONTINUOUS
 62
     3
 10
20317.506996999971
 20
13482.71089599997
 30
0.0
 40
30.0
 50
179.99998499999839
 51
270.0
  0
ARC
  5
47BF
  8
1-1
  6
CONTINUOUS
 62
     3
 10
20289.50670699999
 20
13492.11855799996
 30
0.0
 40
2.0
 50
134.99999999987099
 51
180.0
  0
ARC
  5
47C0
  8
1-1
  6
CONTINUOUS
 62
     3
 10
20286.90561899999
 20
13497.437523999961
 30
0.0
 40
3.6000000000000001
 50
314.99998500027471
 51
359.99998499999839
  0
ARC
  5
47C1
  8
1-1
  6
CONTINUOUS
 62
     3
 10
20295.706558999969
 20
13562.309316999979
 30
0.0
 40
5.2000010000000003
 50
90.0
 51
180.0
  0
ARC
  5
47C2
  8
1-1
  6
CONTINUOUS
 62
     3
 10
20318.50665399999
 20
13566.709786999971
 30
0.0
 40
0.8
 50
0.0
 51
89.999985000180857
  0
ARC
  5
47C3
  8
1-1
  6
CONTINUOUS
 62
     3
 10
20318.50665399999
 20
13566.709786999971
 30
0.0
 40
2.399999999999999
 50
0.0
 51
90.0
  0
ARC
  5
47C4
  8
1-1
  6
CONTINUOUS
 62
     3
 10
20295.706558999969
 20
13562.309316999979
 30
0.0
 40
6.8000009999999991
 50
90.0
 51
180.0
  0
ARC
  5
47C5
  8
1-1
  6
CONTINUOUS
 62
     3
 10
20286.90561899999
 20
13497.437523999961
 30
0.0
 40
2.0
 50
314.99998500027471
 51
359.99998499999839
  0
ARC
  5
47C6
  8
1-1
  6
CONTINUOUS
 62
     3
 10
20289.50670699999
 20
13492.11855799996
 30
0.0
 40
3.6000000000000001
 50
134.99999999987099
 51
180.0
  0
LINE
  5
47C7
  8
0-1
  6
CONTINUOUS
 62
     3
 10
23612.403877999961
 20
13563.110032999961
 30
0.0
 11
23612.403877999961
 21
13569.110942999951
 31
0.0
  0
LINE
  5
47C8
  8
1-0
  6
CONTINUOUS
 62
     2
 10
23377.910106999982
 20
13512.78077299996
 30
0.0
 11
23377.910106999982
 21
13534.11008499996
 31
0.0
  0
LINE
  5
47C9
  8
1-0
  6
CONTINUOUS
 62
     2
 10
23384.505862999958
 20
13540.70979999997
 30
0.0
 11
23460.307567999978
 21
13540.70979999997
 31
0.0
  0
LINE
  5
47CA
  8
1-0
  6
CONTINUOUS
 62
     2
 10
23466.90926299999
 20
13534.11008499996
 30
0.0
 11
23466.90926299999
 21
13520.70973399996
 31
0.0
  0
LINE
  5
47CB
  8
1-0
  6
CONTINUOUS
 62
     2
 10
23466.90926299999
 20
13520.70973399996
 30
0.0
 11
23465.307831999991
 21
13520.70973399996
 31
0.0
  0
LINE
  5
47CC
  8
1-0
  6
CONTINUOUS
 62
     2
 10
23465.307831999991
 20
13520.70973399996
 30
0.0
 11
23465.307831999991
 21
13534.11008499996
 31
0.0
  0
LINE
  5
47CD
  8
1-0
  6
CONTINUOUS
 62
     2
 10
23460.307567999978
 20
13539.11034899995
 30
0.0
 11
23384.505862999958
 21
13539.11034899995
 31
0.0
  0
LINE
  5
47CE
  8
1-0
  6
CONTINUOUS
 62
     2
 10
23379.511537999999
 20
13534.11008499996
 30
0.0
 11
23379.511537999999
 21
13512.78077299996
 31
0.0
  0
LINE
  5
47CF
  8
1-0
  6
CONTINUOUS
 62
     2
 10
23377.573588999981
 20
13508.114057999959
 30
0.0
 11
23369.97025799999
 21
13500.511716999959
 31
0.0
  0
LINE
  5
47D0
  8
1-0
  6
CONTINUOUS
 62
     2
 10
23368.509372999972
 20
13496.976295999961
 30
0.0
 11
23368.509372999972
 21
13469.31054499996
 31
0.0
  0
LINE
  5
47D1
  8
1-0
  6
CONTINUOUS
 62
     2
 10
23373.509636999988
 20
13464.31028099996
 30
0.0
 11
23550.807198999981
 21
13464.31028099996
 31
0.0
  0
LINE
  5
47D2
  8
1-0
  6
CONTINUOUS
 62
     2
 10
23555.807461999961
 20
13469.31054499996
 30
0.0
 11
23555.807461999961
 21
13534.11008499996
 31
0.0
  0
LINE
  5
47D3
  8
1-0
  6
CONTINUOUS
 62
     2
 10
23562.409156999991
 20
13540.70979999997
 30
0.0
 11
23597.411004000001
 21
13540.70979999997
 31
0.0
  0
LINE
  5
47D4
  8
1-0
  6
CONTINUOUS
 62
     2
 10
23597.411004000001
 20
13540.70979999997
 30
0.0
 11
23597.411004000001
 21
13539.11034899995
 31
0.0
  0
LINE
  5
47D5
  8
1-0
  6
CONTINUOUS
 62
     2
 10
23597.411004000001
 20
13539.11034899995
 30
0.0
 11
23562.409156999991
 21
13539.11034899995
 31
0.0
  0
LINE
  5
47D6
  8
1-0
  6
CONTINUOUS
 62
     2
 10
23557.408892999982
 20
13534.11008499996
 30
0.0
 11
23557.408892999982
 21
13469.31054499996
 31
0.0
  0
LINE
  5
47D7
  8
1-0
  6
CONTINUOUS
 62
     2
 10
23550.807198999981
 20
13462.70983999997
 30
0.0
 11
23373.509636999988
 21
13462.70983999997
 31
0.0
  0
LINE
  5
47D8
  8
1-0
  6
CONTINUOUS
 62
     2
 10
23366.907942999958
 20
13469.31054499996
 30
0.0
 11
23366.907942999958
 21
13496.976295999961
 31
0.0
  0
LINE
  5
47D9
  8
1-0
  6
CONTINUOUS
 62
     2
 10
23368.839952999959
 20
13501.64301099996
 30
0.0
 11
23376.443283999961
 21
13509.24535299996
 31
0.0
  0
LINE
  5
47DA
  8
1-0
  6
CONTINUOUS
 62
     2
 10
23577.409948999961
 20
13531.60995299997
 30
0.0
 11
23577.409948999961
 21
13548.210195999971
 31
0.0
  0
LINE
  5
47DB
  8
1-1
  6
CONTINUOUS
 62
     3
 10
23613.80933599998
 20
13451.10986099995
 30
0.0
 11
23604.39870499996
 21
13451.10986099995
 31
0.0
  0
LINE
  5
47DC
  8
1-1
  6
CONTINUOUS
 62
     3
 10
23601.85502399996
 20
13452.163954999971
 30
0.0
 11
23600.495093999991
 21
13453.52487399997
 31
0.0
  0
LINE
  5
47DD
  8
1-1
  6
CONTINUOUS
 62
     3
 10
23599.077758999989
 20
13454.10982199996
 30
0.0
 11
23564.206559999999
 21
13454.10982199996
 31
0.0
  0
LINE
  5
47DE
  8
1-1
  6
CONTINUOUS
 62
     3
 10
23557.408892999982
 20
13460.91045799996
 30
0.0
 11
23557.408892999982
 21
13532.30971299997
 31
0.0
  0
LINE
  5
47DF
  8
1-1
  6
CONTINUOUS
 62
     3
 10
23597.411004000001
 20
13539.11034899995
 30
0.0
 11
23597.411004000001
 21
13537.509908999949
 31
0.0
  0
LINE
  5
47E0
  8
1-1
  6
CONTINUOUS
 62
     3
 10
23597.411004000001
 20
13537.509908999949
 30
0.0
 11
23564.206559999999
 21
13537.509908999949
 31
0.0
  0
LINE
  5
47E1
  8
1-1
  6
CONTINUOUS
 62
     3
 10
23559.004384999971
 20
13532.30971299997
 30
0.0
 11
23559.004384999971
 21
13460.91045799996
 31
0.0
  0
LINE
  5
47E2
  8
1-1
  6
CONTINUOUS
 62
     3
 10
23564.206559999999
 20
13455.709272999949
 30
0.0
 11
23599.077758999989
 21
13455.709272999949
 31
0.0
  0
LINE
  5
47E3
  8
1-1
  6
CONTINUOUS
 62
     3
 10
23601.625399999961
 20
13454.656168999971
 30
0.0
 11
23602.987307999982
 21
13453.29524999997
 31
0.0
  0
LINE
  5
47E4
  8
1-1
  6
CONTINUOUS
 62
     3
 10
23604.39870499996
 20
13452.71030199995
 30
0.0
 11
23613.80933599998
 21
13452.71030199995
 31
0.0
  0
LINE
  5
47E5
  8
1-1
  6
CONTINUOUS
 62
     3
 10
23643.810919999989
 20
13482.71089599995
 30
0.0
 11
23643.810919999989
 21
13492.11855799996
 31
0.0
  0
LINE
  5
47E6
  8
1-1
  6
CONTINUOUS
 62
     3
 10
23643.223002999959
 20
13493.533913999951
 30
0.0
 11
23641.863073999961
 21
13494.89285299997
 31
0.0
  0
LINE
  5
47E7
  8
1-1
  6
CONTINUOUS
 62
     3
 10
23640.80996999998
 20
13497.437523999961
 30
0.0
 11
23640.80996999998
 21
13562.309316999959
 31
0.0
  0
LINE
  5
47E8
  8
1-1
  6
CONTINUOUS
 62
     3
 10
23635.60779499996
 20
13567.50951299997
 30
0.0
 11
23612.807699999968
 21
13567.50951299997
 31
0.0
  0
LINE
  5
47E9
  8
1-1
  6
CONTINUOUS
 62
     3
 10
23612.007973999971
 20
13566.709786999971
 30
0.0
 11
23612.007973999971
 21
13563.110032999961
 31
0.0
  0
LINE
  5
47EA
  8
1-1
  6
CONTINUOUS
 62
     3
 10
23612.007973999971
 20
13563.110032999961
 30
0.0
 11
23610.406543999961
 21
13563.110032999961
 31
0.0
  0
LINE
  5
47EB
  8
1-1
  6
CONTINUOUS
 62
     3
 10
23610.406543999961
 20
13563.110032999961
 30
0.0
 11
23610.406543999961
 21
13566.709786999971
 31
0.0
  0
LINE
  5
47EC
  8
1-1
  6
CONTINUOUS
 62
     3
 10
23612.807699999968
 20
13569.110942999951
 30
0.0
 11
23635.60779499996
 21
13569.110942999951
 31
0.0
  0
LINE
  5
47ED
  8
1-1
  6
CONTINUOUS
 62
     3
 10
23642.411399999979
 20
13562.309316999959
 30
0.0
 11
23642.411399999979
 21
13497.437523999961
 31
0.0
  0
LINE
  5
47EE
  8
1-1
  6
CONTINUOUS
 62
     3
 10
23642.993378999989
 20
13496.02414799997
 30
0.0
 11
23644.353307999962
 21
13494.665207999949
 31
0.0
  0
LINE
  5
47EF
  8
1-1
  6
CONTINUOUS
 62
     3
 10
23645.40641199996
 20
13492.11855799996
 30
0.0
 11
23645.40641199996
 21
13482.71089599995
 31
0.0
  0
LINE
  5
47F0
  8
1-1
  6
CONTINUOUS
 62
     3
 10
23577.409948999961
 20
13544.109623999961
 30
0.0
 11
23577.409948999961
 21
13530.91019399996
 31
0.0
  0
ARC
  5
47F1
  8
1-0
  6
CONTINUOUS
 62
     2
 10
23384.505862999958
 20
13534.11008499996
 30
0.0
 40
6.600000999999998
 50
90.0
 51
180.0
  0
ARC
  5
47F2
  8
1-0
  6
CONTINUOUS
 62
     2
 10
23460.307567999978
 20
13534.11008499996
 30
0.0
 40
6.600000999999998
 50
0.0
 51
89.999985000180857
  0
ARC
  5
47F3
  8
1-0
  6
CONTINUOUS
 62
     2
 10
23460.307567999978
 20
13534.11008499996
 30
0.0
 40
5.0
 50
0.0
 51
90.0
  0
ARC
  5
47F4
  8
1-0
  6
CONTINUOUS
 62
     2
 10
23384.505862999958
 20
13534.11008499996
 30
0.0
 40
5.0
 50
90.0
 51
180.0
  0
ARC
  5
47F5
  8
1-0
  6
CONTINUOUS
 62
     2
 10
23372.909842999969
 20
13512.78077299996
 30
0.0
 40
6.600000999999998
 50
314.99998500027471
 51
359.99998499999839
  0
ARC
  5
47F6
  8
1-0
  6
CONTINUOUS
 62
     2
 10
23373.509636999988
 20
13496.976295999961
 30
0.0
 40
5.0
 50
134.99999999987099
 51
180.0
  0
ARC
  5
47F7
  8
1-0
  6
CONTINUOUS
 62
     2
 10
23373.509636999988
 20
13469.31054499996
 30
0.0
 40
5.0
 50
180.0
 51
269.9999850001808
  0
ARC
  5
47F8
  8
1-0
  6
CONTINUOUS
 62
     2
 10
23550.807198999981
 20
13469.31054499996
 30
0.0
 40
5.0
 50
269.9999850001808
 51
0.0
  0
ARC
  5
47F9
  8
1-0
  6
CONTINUOUS
 62
     2
 10
23562.409156999991
 20
13534.11008499996
 30
0.0
 40
6.600000999999998
 50
90.0
 51
180.0
  0
ARC
  5
47FA
  8
1-0
  6
CONTINUOUS
 62
     2
 10
23562.409156999991
 20
13534.11008499996
 30
0.0
 40
5.0
 50
90.0
 51
179.99998499999839
  0
ARC
  5
47FB
  8
1-0
  6
CONTINUOUS
 62
     2
 10
23550.807198999981
 20
13469.31054499996
 30
0.0
 40
6.600000999999998
 50
269.9999850001808
 51
359.99998499999839
  0
ARC
  5
47FC
  8
1-0
  6
CONTINUOUS
 62
     2
 10
23373.509636999988
 20
13469.31054499996
 30
0.0
 40
6.600000999999998
 50
180.0
 51
270.0
  0
ARC
  5
47FD
  8
1-0
  6
CONTINUOUS
 62
     2
 10
23373.509636999988
 20
13496.976295999961
 30
0.0
 40
6.600000999999998
 50
134.99999999987099
 51
180.0
  0
ARC
  5
47FE
  8
1-0
  6
CONTINUOUS
 62
     2
 10
23372.909842999969
 20
13512.78077299996
 30
0.0
 40
5.0
 50
314.99998500027471
 51
359.99998499999839
  0
ARC
  5
47FF
  8
1-1
  6
CONTINUOUS
 62
     3
 10
23613.80933599998
 20
13482.71089599995
 30
0.0
 40
31.600002000000011
 50
269.9999850001808
 51
359.99998499999839
  0
ARC
  5
4800
  8
1-1
  6
CONTINUOUS
 62
     3
 10
23604.39870499996
 20
13454.71060499996
 30
0.0
 40
3.6000000000000001
 50
225.00000000012901
 51
270.0
  0
ARC
  5
4801
  8
1-1
  6
CONTINUOUS
 62
     3
 10
23599.077758999989
 20
13452.109517999959
 30
0.0
 40
2.0
 50
45.000000000128964
 51
90.0
  0
ARC
  5
4802
  8
1-1
  6
CONTINUOUS
 62
     3
 10
23564.206559999999
 20
13460.91045799996
 30
0.0
 40
6.8000009999999991
 50
180.0
 51
270.0
  0
ARC
  5
4803
  8
1-1
  6
CONTINUOUS
 62
     3
 10
23564.206559999999
 20
13532.30971299997
 30
0.0
 40
6.8000009999999991
 50
90.0
 51
180.0
  0
ARC
  5
4804
  8
1-1
  6
CONTINUOUS
 62
     3
 10
23564.206559999999
 20
13532.30971299997
 30
0.0
 40
5.2000010000000003
 50
90.0
 51
180.0
  0
ARC
  5
4805
  8
1-1
  6
CONTINUOUS
 62
     3
 10
23564.206559999999
 20
13460.91045799996
 30
0.0
 40
5.2000010000000003
 50
180.0
 51
269.9999850001808
  0
ARC
  5
4806
  8
1-1
  6
CONTINUOUS
 62
     3
 10
23599.077758999989
 20
13452.109517999959
 30
0.0
 40
3.6000000000000001
 50
44.99998499996147
 51
89.999985000180857
  0
ARC
  5
4807
  8
1-1
  6
CONTINUOUS
 62
     3
 10
23604.39870499996
 20
13454.71060499996
 30
0.0
 40
2.0
 50
224.99998499996141
 51
269.9999850001808
  0
ARC
  5
4808
  8
1-1
  6
CONTINUOUS
 62
     3
 10
23613.80933599998
 20
13482.71089599995
 30
0.0
 40
30.0
 50
269.9999850001808
 51
359.99998499999839
  0
ARC
  5
4809
  8
1-1
  6
CONTINUOUS
 62
     3
 10
23641.811605999981
 20
13492.11855799996
 30
0.0
 40
2.0
 50
0.0
 51
45.000000000128964
  0
ARC
  5
480A
  8
1-1
  6
CONTINUOUS
 62
     3
 10
23644.410713999961
 20
13497.437523999961
 30
0.0
 40
3.6000000000000001
 50
179.99998499999839
 51
225.00000000012901
  0
ARC
  5
480B
  8
1-1
  6
CONTINUOUS
 62
     3
 10
23635.60779499996
 20
13562.309316999959
 30
0.0
 40
5.2000010000000003
 50
0.0
 51
90.0
  0
ARC
  5
480C
  8
1-1
  6
CONTINUOUS
 62
     3
 10
23612.807699999968
 20
13566.709786999971
 30
0.0
 40
0.8
 50
90.0
 51
179.99998499999839
  0
ARC
  5
480D
  8
1-1
  6
CONTINUOUS
 62
     3
 10
23612.807699999968
 20
13566.709786999971
 30
0.0
 40
2.399999999999999
 50
90.0
 51
180.0
  0
ARC
  5
480E
  8
1-1
  6
CONTINUOUS
 62
     3
 10
23635.60779499996
 20
13562.309316999959
 30
0.0
 40
6.8000009999999991
 50
0.0
 51
89.999985000180857
  0
ARC
  5
480F
  8
1-1
  6
CONTINUOUS
 62
     3
 10
23644.410713999961
 20
13497.437523999961
 30
0.0
 40
2.0
 50
180.0
 51
224.99998499996141
  0
ARC
  5
4810
  8
1-1
  6
CONTINUOUS
 62
     3
 10
23641.811605999981
 20
13492.11855799996
 30
0.0
 40
3.6000000000000001
 50
359.99998499999839
 51
44.99998499996147
  0
LINE
  5
4811
  8
0-3
  6
CONTINUOUS
 62
     6
 10
22381.75499199998
 20
14136.610216999959
 30
0.0
 11
23381.75631199999
 21
14136.610216999959
 31
0.0
  0
LINE
  5
4812
  8
0-3
  6
CONTINUOUS
 62
     6
 10
23473.029933999958
 20
13700.089748999961
 30
0.0
 11
23540.808649999992
 21
13552.723498999971
 31
0.0
  0
LINE
  5
4813
  8
0-3
  6
CONTINUOUS
 62
     6
 10
23540.808649999992
 20
13552.723498999971
 30
0.0
 11
23524.485539999961
 21
13714.107709999949
 31
0.0
  0
LINE
  5
4814
  8
0-3
  6
CONTINUOUS
 62
     6
 10
23540.808649999992
 20
13552.723498999971
 30
0.0
 11
23473.029933999958
 21
13700.089748999961
 31
0.0
  0
LINE
  5
4815
  8
0-3
  6
CONTINUOUS
 62
     6
 10
23473.029933999958
 20
13700.089748999961
 30
0.0
 11
23524.485539999961
 21
13714.107709999949
 31
0.0
  0
LINE
  5
4816
  8
0-3
  6
CONTINUOUS
 62
     6
 10
23524.485539999961
 20
13714.107709999949
 30
0.0
 11
23540.808649999992
 21
13552.723498999971
 31
0.0
  0
LINE
  5
4817
  8
0-3
  6
CONTINUOUS
 62
     6
 10
23524.485539999961
 20
13714.107709999949
 30
0.0
 11
23473.029933999958
 21
13700.089748999961
 31
0.0
  0
LINE
  5
4818
  8
0-3
  6
CONTINUOUS
 62
     6
 10
23498.757736999989
 20
13707.09922399997
 30
0.0
 11
23381.75631199999
 21
14136.610216999959
 31
0.0
  0
TEXT
  5
4819
  8
0-3
  6
CONTINUOUS
 62
     7
 10
22461.755255999971
 20
14216.610480999971
 30
0.0
 40
160.0
  1
前柱（右）
 72
     4
 11
22877.755255999971
 21
14296.610480999971
 31
0.0
  0
LINE
  5
481A
  8
0-3
  6
CONTINUOUS
 62
     6
 10
23301.756047999988
 20
12858.210393999971
 30
0.0
 11
22301.758687000001
 21
12858.210393999971
 31
0.0
  0
LINE
  5
481B
  8
0-3
  6
CONTINUOUS
 62
     6
 10
23393.02768999997
 20
13294.72987299996
 30
0.0
 11
23460.80640699996
 21
13442.09612299997
 31
0.0
  0
LINE
  5
481C
  8
0-3
  6
CONTINUOUS
 62
     6
 10
23460.80640699996
 20
13442.09612299997
 30
0.0
 11
23444.48527599997
 21
13280.71290199997
 31
0.0
  0
LINE
  5
481D
  8
0-3
  6
CONTINUOUS
 62
     6
 10
23460.80640699996
 20
13442.09612299997
 30
0.0
 11
23393.02768999997
 21
13294.72987299996
 31
0.0
  0
LINE
  5
481E
  8
0-3
  6
CONTINUOUS
 62
     6
 10
23393.02768999997
 20
13294.72987299996
 30
0.0
 11
23444.48527599997
 21
13280.71290199997
 31
0.0
  0
LINE
  5
481F
  8
0-3
  6
CONTINUOUS
 62
     6
 10
23444.48527599997
 20
13280.71290199997
 30
0.0
 11
23460.80640699996
 21
13442.09612299997
 31
0.0
  0
LINE
  5
4820
  8
0-3
  6
CONTINUOUS
 62
     6
 10
23444.48527599997
 20
13280.71290199997
 30
0.0
 11
23393.02768999997
 21
13294.72987299996
 31
0.0
  0
LINE
  5
4821
  8
0-3
  6
CONTINUOUS
 62
     6
 10
23418.755492999961
 20
13287.72138699995
 30
0.0
 11
23301.756047999988
 21
12858.210393999971
 31
0.0
  0
TEXT
  5
4822
  8
0-3
  6
CONTINUOUS
 62
     7
 10
22389.756205999998
 20
12938.210657999951
 30
0.0
 40
160.0
  1
袖柱（右）
 72
     4
 11
22805.756205999998
 21
13018.210657999951
 31
0.0
  0
LINE
  5
4823
  8
0-3
  6
CONTINUOUS
 62
     6
 10
21835.594592837129
 20
19008.489163999981
 30
0.0
 11
22860.63286383712
 21
19008.489163999981
 31
0.0
  0
TEXT
  5
4824
  8
0-3
  6
CONTINUOUS
 62
     7
 10
21915.594856837131
 20
19088.48942799999
 30
0.0
 40
160.0
  1
間柱（後）
 72
     4
 11
22336.928190170471
 21
19168.48942799999
 31
0.0
  0
LINE
  5
4825
  8
2-0
  6
CONTINUOUS
 62
     3
 10
23557.410872000011
 20
19640.610811999981
 30
0.0
 11
23561.403560999988
 21
19640.610811999981
 31
0.0
  0
LINE
  5
4826
  8
SUNPOU
  6
CONTINUOUS
 10
9014.1662429999833
 20
9304.7739439999968
 30
0.0
 11
8524.6431749999902
 21
9304.7739439999968
 31
0.0
  0
TEXT
  5
4827
  8
0-2
  6
CONTINUOUS
 62
     7
 10
15377.72539845051
 20
3703.0662690254189
 30
0.0
 40
160.0
  1
A
 72
     4
 11
15431.058731783851
 21
3783.066269025418
 31
0.0
  0
TEXT
  5
4828
  8
0-2
  6
CONTINUOUS
 62
     7
 10
12108.923418450509
 20
3703.0662690254189
 30
0.0
 40
160.0
  1
B
 72
     4
 11
12162.256751783851
 21
3783.066269025418
 31
0.0
  0
TEXT
  5
4829
  8
0-2
  6
CONTINUOUS
 62
     7
 10
9190.9253984505158
 20
3703.0662690254189
 30
0.0
 40
160.0
  1
C
 72
     4
 11
9244.2587317838497
 21
3783.066269025418
 31
0.0
  0
CIRCLE
  5
482A
  8
0-2
  6
CONTINUOUS
 62
     4
 10
12154.66611099998
 20
3776.8656950000009
 30
0.0
 40
199.9999949999999
  0
CIRCLE
  5
482B
  8
0-2
  6
CONTINUOUS
 62
     4
 10
15423.466110999991
 20
3776.8656950000009
 30
0.0
 40
199.9999949999999
  0
CIRCLE
  5
482C
  8
0-2
  6
CONTINUOUS
 62
     4
 10
9236.6661109999914
 20
3776.8656950000009
 30
0.0
 40
199.9999949999999
  0
ARC
  5
482D
  8
0-1
  6
CONTINUOUS
 62
     3
 10
14970.165080999959
 20
6923.8207864999986
 30
0.0
 40
12.000000999999999
 50
179.99998499999839
 51
0.0
  0
ARC
  5
482E
  8
0-1
  6
CONTINUOUS
 62
     3
 10
14970.165080999959
 20
7025.8209254999983
 30
0.0
 40
12.000000999999999
 50
0.0
 51
179.99998499999839
  0
ARC
  5
482F
  8
0-1
  6
CONTINUOUS
 62
     3
 10
14970.165080999959
 20
6923.8207864999986
 30
0.0
 40
14.0
 50
179.99998499999839
 51
0.0
  0
ARC
  5
4830
  8
0-1
  6
CONTINUOUS
 62
     3
 10
14970.165080999959
 20
7025.8209254999983
 30
0.0
 40
14.0
 50
0.0
 51
180.0
  0
CIRCLE
  5
4831
  8
0-1
  6
CONTINUOUS
 62
     3
 10
14970.165080999959
 20
6937.8209315000022
 30
0.0
 40
11.00000099999999
  0
ARC
  5
4832
  8
0-1
  6
CONTINUOUS
 62
     3
 10
14940.66431599998
 20
7029.2212435000001
 30
0.0
 40
2.0
 50
289.99256900017122
 51
0.0
  0
ARC
  5
4833
  8
0-1
  6
CONTINUOUS
 62
     3
 10
14940.66431599998
 20
6920.4199734999993
 30
0.0
 40
2.0
 50
0.0
 51
70.007415999868869
  0
ARC
  5
4834
  8
0-1
  6
CONTINUOUS
 62
     3
 10
14936.66568799999
 20
6927.195865499998
 30
0.0
 40
1.0
 50
180.0
 51
250.0074159998689
  0
ARC
  5
4835
  8
0-1
  6
CONTINUOUS
 62
     3
 10
14941.66595199999
 20
6925.3766884999986
 30
0.0
 40
1.0
 50
250.0074159998689
 51
0.0
  0
ARC
  5
4836
  8
0-1
  6
CONTINUOUS
 62
     3
 10
14941.66595199999
 20
7024.264528499999
 30
0.0
 40
1.0
 50
0.0
 51
109.9925690001714
  0
ARC
  5
4837
  8
0-1
  6
CONTINUOUS
 62
     3
 10
14933.66671799998
 20
7022.418132499999
 30
0.0
 40
2.0
 50
0.0
 51
109.9925690001714
  0
ARC
  5
4838
  8
0-1
  6
CONTINUOUS
 62
     3
 10
14933.66671799998
 20
6927.2235785000012
 30
0.0
 40
2.0
 50
250.0074159998689
 51
0.0
  0
ARC
  5
4839
  8
0-1
  6
CONTINUOUS
 62
     3
 10
14918.665925999991
 20
6941.1930414999988
 30
0.0
 40
10.0
 50
180.0
 51
250.0074159998689
  0
ARC
  5
483A
  8
0-1
  6
CONTINUOUS
 62
     3
 10
14918.665925999991
 20
7008.4471855000002
 30
0.0
 40
10.0
 50
109.9925690001714
 51
180.0
  0
ARC
  5
483B
  8
0-1
  6
CONTINUOUS
 62
     3
 10
14936.66568799999
 20
7029.8200474999967
 30
0.0
 40
6.0000010000000001
 50
0.0
 51
90.0
  0
ARC
  5
483C
  8
0-1
  6
CONTINUOUS
 62
     3
 10
14936.66568799999
 20
6919.8201795000032
 30
0.0
 40
6.0000010000000001
 50
269.9999850001808
 51
0.0
  0
ARC
  5
483D
  8
0-1
  6
CONTINUOUS
 62
     3
 10
14900.664183999979
 20
6919.8201795000032
 30
0.0
 40
6.0000010000000001
 50
180.0
 51
269.9999850001808
  0
ARC
  5
483E
  8
0-1
  6
CONTINUOUS
 62
     3
 10
14900.664183999979
 20
7029.8200474999967
 30
0.0
 40
6.0000010000000001
 50
90.0
 51
180.0
  0
ARC
  5
483F
  8
0-1
  6
CONTINUOUS
 62
     3
 10
9019.627733999987
 20
8226.7558379999937
 30
0.0
 40
3.0
 50
181.71998599999409
 51
271.71998600002632
  0
ARC
  5
4840
  8
0-1
  6
CONTINUOUS
 62
     3
 10
15550.603557999961
 20
8439.265075999996
 30
0.0
 40
20.0
 50
271.71998600002632
 51
91.719986000026395
  0
ARC
  5
4841
  8
0-1
  6
CONTINUOUS
 62
     3
 10
9018.6063029999914
 20
8260.7412029999978
 30
0.0
 40
3.0
 50
91.719986000026395
 51
181.71998599999409
  0
ARC
  5
4842
  8
0-1
  6
CONTINUOUS
 62
     3
 10
9021.2905299999857
 20
8221.3032539999967
 30
0.0
 40
2.5
 50
271.71998600002632
 51
91.719986000026395
  0
ARC
  5
4843
  8
0-1
  6
CONTINUOUS
 62
     3
 10
9019.9404979999872
 20
8266.2838549999942
 30
0.0
 40
2.5
 50
271.71998600002632
 51
91.719986000026395
  0
ARC
  5
4844
  8
0-1
  6
CONTINUOUS
 62
     3
 10
9019.9563339999895
 20
8215.7606019999948
 30
0.0
 40
3.0
 50
91.719986000026395
 51
181.71998599999409
  0
ARC
  5
4845
  8
0-1
  6
CONTINUOUS
 62
     3
 10
9022.9157149999864
 20
8183.8359169999967
 30
0.0
 40
5.0
 50
181.71998599999409
 51
271.71998600002632
  0
ARC
  5
4846
  8
0-1
  6
CONTINUOUS
 62
     3
 10
15545.60527399998
 20
8439.1156229999979
 30
0.0
 40
69.999999000000003
 50
293.50677499978701
 51
69.933196999909853
  0
ARC
  5
4847
  8
0-1
  6
CONTINUOUS
 62
     3
 10
9019.3149699999885
 20
8303.7818759999973
 30
0.0
 40
5.0
 50
91.719986000026395
 51
181.71998599999409
  0
ARC
  5
4848
  8
0-1
  6
CONTINUOUS
 62
     3
 10
9018.2757229999861
 20
8271.7354489999907
 30
0.0
 40
3.0
 50
181.71998599999409
 51
271.71998600002632
  0
ARC
  5
4849
  8
0-1
  6
CONTINUOUS
 62
     3
 10
15550.603557999961
 20
8439.265075999996
 30
0.0
 40
24.999998999999999
 50
271.71998600002632
 51
91.719986000026395
  0
LINE
  5
484A
  8
2-0
  6
CENTER2
 62
     6
 10
15423.16611099999
 20
5554.212579
 30
0.0
 11
15423.16611099999
 21
6611.3556720000051
 31
0.0
  0
LINE
  5
484B
  8
2-0
  6
CENTER2
 62
     6
 10
12154.66611099998
 20
5554.212579
 30
0.0
 11
12154.66611099998
 21
6611.3556720000051
 31
0.0
  0
LINE
  5
484C
  8
2-0
  6
CENTER2
 62
     6
 10
9236.6661109999914
 20
5554.212579
 30
0.0
 11
9236.6661109999914
 21
6611.3556720000051
 31
0.0
  0
LINE
  5
484D
  8
0-2
  6
CONTINUOUS
 62
     4
 10
15423.466110999991
 20
4136.8653980000008
 30
0.0
 11
15423.466110999991
 21
3976.8653650000042
 31
0.0
  0
LINE
  5
484E
  8
0-2
  6
CONTINUOUS
 62
     4
 10
12154.66611099998
 20
4136.8653980000008
 30
0.0
 11
12154.66611099998
 21
3976.8653650000042
 31
0.0
  0
LINE
  5
484F
  8
0-2
  6
CONTINUOUS
 62
     4
 10
9236.6661109999914
 20
4136.8653980000008
 30
0.0
 11
9236.6661109999914
 21
3976.8653650000042
 31
0.0
  0
LINE
  5
4850
  8
0-1
  6
CONTINUOUS
 62
     3
 10
15027.165318999991
 20
7982.7747299999919
 30
0.0
 11
15027.165318999991
 21
5966.8654970000034
 31
0.0
  0
LINE
  5
4851
  8
0-1
  6
CONTINUOUS
 62
     3
 10
13590.163497999991
 20
7982.7747299999919
 30
0.0
 11
13590.163497999991
 21
5966.8654970000034
 31
0.0
  0
LINE
  5
4852
  8
0-1
  6
CONTINUOUS
 62
     3
 10
14986.16552999998
 20
7982.7747299999919
 30
0.0
 11
14986.16552999998
 21
5966.8654970000034
 31
0.0
  0
LINE
  5
4853
  8
0-1
  6
CONTINUOUS
 62
     3
 10
14280.667086999991
 20
5966.8654970000034
 30
0.0
 11
14280.667086999991
 21
7982.7747299999919
 31
0.0
  0
LINE
  5
4854
  8
0-1
  6
CONTINUOUS
 62
     3
 10
14986.16552999998
 20
5966.8654970000034
 30
0.0
 11
14280.667086999991
 21
5966.8654970000034
 31
0.0
  0
LINE
  5
4855
  8
0-1
  6
CONTINUOUS
 62
     3
 10
14971.16473799999
 20
6945.3203375000003
 30
0.0
 11
14971.16473799999
 21
6930.3200405000007
 31
0.0
  0
LINE
  5
4856
  8
0-1
  6
CONTINUOUS
 62
     3
 10
14969.16344499998
 20
6945.3203375000003
 30
0.0
 11
14971.16473799999
 21
6945.3203375000003
 31
0.0
  0
LINE
  5
4857
  8
0-1
  6
CONTINUOUS
 62
     3
 10
14969.16344499998
 20
6930.3200405000007
 30
0.0
 11
14969.16344499998
 21
6945.3203375000003
 31
0.0
  0
LINE
  5
4858
  8
0-1
  6
CONTINUOUS
 62
     3
 10
14971.16473799999
 20
6930.3200405000007
 30
0.0
 11
14969.16344499998
 21
6930.3200405000007
 31
0.0
  0
LINE
  5
4859
  8
0-1
  6
CONTINUOUS
 62
     3
 10
14977.663497999991
 20
7010.8206285000024
 30
0.0
 11
14977.663497999991
 21
6964.8205754999981
 31
0.0
  0
LINE
  5
485A
  8
0-1
  6
CONTINUOUS
 62
     3
 10
14962.666664999981
 20
7010.8206285000024
 30
0.0
 11
14977.663497999991
 21
7010.8206285000024
 31
0.0
  0
LINE
  5
485B
  8
0-1
  6
CONTINUOUS
 62
     3
 10
14962.666664999981
 20
6964.8205754999981
 30
0.0
 11
14962.666664999981
 21
7010.8206285000024
 31
0.0
  0
LINE
  5
485C
  8
0-1
  6
CONTINUOUS
 62
     3
 10
14977.663497999991
 20
6964.8205754999981
 30
0.0
 11
14962.666664999981
 21
6964.8205754999981
 31
0.0
  0
LINE
  5
485D
  8
0-1
  6
CONTINUOUS
 62
     3
 10
14958.16523999998
 20
6923.8207864999986
 30
0.0
 11
14958.16523999998
 21
7025.8209254999983
 31
0.0
  0
LINE
  5
485E
  8
0-1
  6
CONTINUOUS
 62
     3
 10
14982.16492299998
 20
7025.8209254999983
 30
0.0
 11
14982.16492299998
 21
6923.8207864999986
 31
0.0
  0
LINE
  5
485F
  8
0-1
  6
CONTINUOUS
 62
     3
 10
14956.16592599998
 20
6923.8207864999986
 30
0.0
 11
14956.16592599998
 21
7025.8209254999983
 31
0.0
  0
LINE
  5
4860
  8
0-1
  6
CONTINUOUS
 62
     3
 10
14984.166215999991
 20
7025.8209254999983
 30
0.0
 11
14984.166215999991
 21
6923.8207864999986
 31
0.0
  0
LINE
  5
4861
  8
0-1
  6
CONTINUOUS
 62
     3
 10
14941.66595199999
 20
7027.4886694999977
 30
0.0
 11
14941.66595199999
 21
7025.3280245000024
 31
0.0
  0
LINE
  5
4862
  8
0-1
  6
CONTINUOUS
 62
     3
 10
14941.34922899999
 20
7027.3416905000013
 30
0.0
 11
14915.245317999959
 21
7017.8449495000013
 31
0.0
  0
LINE
  5
4863
  8
0-1
  6
CONTINUOUS
 62
     3
 10
14942.665608999991
 20
7029.2212435000001
 30
0.0
 11
14942.665608999991
 21
7029.8200474999967
 31
0.0
  0
LINE
  5
4864
  8
0-1
  6
CONTINUOUS
 62
     3
 10
14942.665608999991
 20
6919.8201795000032
 30
0.0
 11
14942.665608999991
 21
6920.4199734999993
 31
0.0
  0
LINE
  5
4865
  8
0-1
  6
CONTINUOUS
 62
     3
 10
14941.34922899999
 20
6922.2990315000034
 30
0.0
 11
14915.245317999959
 21
6931.7962665000023
 31
0.0
  0
LINE
  5
4866
  8
0-1
  6
CONTINUOUS
 62
     3
 10
14935.666030999981
 20
6927.195865499998
 30
0.0
 11
14935.666030999981
 21
7022.418132499999
 31
0.0
  0
LINE
  5
4867
  8
0-1
  6
CONTINUOUS
 62
     3
 10
14941.32349499999
 20
6924.4374065000002
 30
0.0
 11
14936.323231999981
 21
6926.2555945000022
 31
0.0
  0
LINE
  5
4868
  8
0-1
  6
CONTINUOUS
 62
     3
 10
14942.665608999991
 20
6925.3766884999986
 30
0.0
 11
14942.665608999991
 21
7024.264528499999
 31
0.0
  0
LINE
  5
4869
  8
0-1
  6
CONTINUOUS
 62
     3
 10
14941.32349499999
 20
7025.2043054999986
 30
0.0
 11
14935.543300999991
 21
7023.1020564999953
 31
0.0
  0
LINE
  5
486A
  8
0-1
  6
CONTINUOUS
 62
     3
 10
14941.66595199999
 20
6922.1842194999981
 30
0.0
 11
14941.66595199999
 21
6924.3126965000001
 31
0.0
  0
LINE
  5
486B
  8
0-1
  6
CONTINUOUS
 62
     3
 10
14908.66539799999
 20
6941.1930414999988
 30
0.0
 11
14908.66539799999
 21
7008.4471855000002
 31
0.0
  0
LINE
  5
486C
  8
0-1
  6
CONTINUOUS
 62
     3
 10
14894.66624299998
 20
7029.8200474999967
 30
0.0
 11
14894.66624299998
 21
6919.8201795000032
 31
0.0
  0
LINE
  5
486D
  8
0-1
  6
CONTINUOUS
 62
     3
 10
14900.664183999979
 20
6913.8207534999992
 30
0.0
 11
14936.66568799999
 21
6913.8207534999992
 31
0.0
  0
LINE
  5
486E
  8
0-1
  6
CONTINUOUS
 62
     3
 10
14936.66568799999
 20
7035.8209585000013
 30
0.0
 11
14900.664183999979
 21
7035.8209585000013
 31
0.0
  0
LINE
  5
486F
  8
0-1
  6
CONTINUOUS
 62
     3
 10
14987.16518699999
 20
7982.7747299999919
 30
0.0
 11
14987.16518699999
 21
5966.8654970000034
 31
0.0
  0
LINE
  5
4870
  8
0-1
  6
CONTINUOUS
 62
     3
 10
13627.16465899998
 20
7982.7747299999919
 30
0.0
 11
13627.16465899998
 21
5966.8654970000034
 31
0.0
  0
LINE
  5
4871
  8
0-1
  6
CONTINUOUS
 62
     3
 10
15027.66613699998
 20
7982.7747299999919
 30
0.0
 11
15027.66613699998
 21
8063.7741559999986
 31
0.0
  0
LINE
  5
4872
  8
0-1
  6
CONTINUOUS
 62
     3
 10
13589.66465899998
 20
7982.7747299999919
 30
0.0
 11
15027.66613699998
 21
7982.7747299999919
 31
0.0
  0
LINE
  5
4873
  8
0-1
  6
CONTINUOUS
 62
     3
 10
13589.66465899998
 20
8063.7741559999986
 30
0.0
 11
13589.66465899998
 21
7982.7747299999919
 31
0.0
  0
LINE
  5
4874
  8
0-1
  6
CONTINUOUS
 62
     3
 10
15027.66613699998
 20
8063.7741559999986
 30
0.0
 11
13589.66465899998
 21
8063.7741559999986
 31
0.0
  0
LINE
  5
4875
  8
0-1
  6
CONTINUOUS
 62
     3
 10
15478.16611099999
 20
5916.8653320000003
 30
0.0
 11
15478.16611099999
 21
5816.8654970000007
 31
0.0
  0
LINE
  5
4876
  8
0-1
  6
CONTINUOUS
 62
     3
 10
15350.66426299999
 20
8067.8202919999976
 30
0.0
 11
15350.66426299999
 21
5916.8653320000003
 31
0.0
  0
LINE
  5
4877
  8
0-1
  6
CONTINUOUS
 62
     3
 10
15445.665318999991
 20
8371.1023329999971
 30
0.0
 11
15445.665318999991
 21
5916.8653320000003
 31
0.0
  0
LINE
  5
4878
  8
0-1
  6
CONTINUOUS
 62
     3
 10
15465.66611099998
 20
8371.6950437655669
 30
0.0
 11
15465.66611099998
 21
5916.8653320000003
 31
0.0
  0
LINE
  5
4879
  8
0-1
  6
CONTINUOUS
 62
     3
 10
12618.665265999971
 20
5966.8654970000034
 30
0.0
 11
12618.665265999971
 21
8067.8202919999976
 31
0.0
  0
LINE
  5
487A
  8
0-1
  6
CONTINUOUS
 62
     3
 10
12751.66515999998
 20
5966.8654970000034
 30
0.0
 11
12751.66515999998
 21
8067.8202919999976
 31
0.0
  0
LINE
  5
487B
  8
0-1
  6
CONTINUOUS
 62
     3
 10
12766.663972999981
 20
5966.8654970000034
 30
0.0
 11
12766.663972999981
 21
8067.8202919999976
 31
0.0
  0
LINE
  5
487C
  8
0-1
  6
CONTINUOUS
 62
     3
 10
13968.665265999991
 20
5966.8654970000034
 30
0.0
 11
13968.665265999991
 21
7982.7747299999919
 31
0.0
  0
LINE
  5
487D
  8
0-1
  6
CONTINUOUS
 62
     3
 10
13948.666189999991
 20
5966.8654970000034
 30
0.0
 11
13948.666189999991
 21
7982.7747299999919
 31
0.0
  0
LINE
  5
487E
  8
0-1
  6
CONTINUOUS
 62
     3
 10
14018.665925999991
 20
5966.8654970000034
 30
0.0
 11
14018.66592599998
 21
7982.7747299999919
 31
0.0
  0
LINE
  5
487F
  8
0-1
  6
CONTINUOUS
 62
     3
 10
13898.66552999998
 20
5966.8654970000034
 30
0.0
 11
13898.66552999998
 21
7982.7747299999919
 31
0.0
  0
LINE
  5
4880
  8
0-1
  6
CONTINUOUS
 62
     3
 10
13765.66365599999
 20
5966.8654970000034
 30
0.0
 11
13765.66365599999
 21
7982.7747299999919
 31
0.0
  0
LINE
  5
4881
  8
0-1
  6
CONTINUOUS
 62
     3
 10
13750.66682299999
 20
5966.8654970000034
 30
0.0
 11
13750.66682299999
 21
7982.7747299999919
 31
0.0
  0
LINE
  5
4882
  8
0-1
  6
CONTINUOUS
 62
     3
 10
14151.66581999998
 20
5966.8654970000034
 30
0.0
 11
14151.66581999998
 21
7982.7747299999919
 31
0.0
  0
LINE
  5
4883
  8
0-1
  6
CONTINUOUS
 62
     3
 10
14166.66463199998
 20
5966.8654970000034
 30
0.0
 11
14166.66463199998
 21
7982.7747299999919
 31
0.0
  0
LINE
  5
4884
  8
0-1
  6
CONTINUOUS
 62
     3
 10
13466.665291999991
 20
5966.8654970000034
 30
0.0
 11
13466.665291999991
 21
8067.8202919999976
 31
0.0
  0
LINE
  5
4885
  8
0-1
  6
CONTINUOUS
 62
     3
 10
13451.66450099999
 20
5966.8654970000034
 30
0.0
 11
13451.66450099999
 21
8067.8202919999976
 31
0.0
  0
LINE
  5
4886
  8
0-1
  6
CONTINUOUS
 62
     3
 10
13050.66550299998
 20
5966.8654970000034
 30
0.0
 11
13050.66550299998
 21
8067.8202919999976
 31
0.0
  0
LINE
  5
4887
  8
0-1
  6
CONTINUOUS
 62
     3
 10
13065.66629499999
 20
5966.8654970000034
 30
0.0
 11
13065.66629499999
 21
8067.8202919999976
 31
0.0
  0
LINE
  5
4888
  8
0-1
  6
CONTINUOUS
 62
     3
 10
13198.666189999991
 20
5966.8654970000034
 30
0.0
 11
13198.666189999991
 21
8067.8202919999976
 31
0.0
  0
LINE
  5
4889
  8
0-1
  6
CONTINUOUS
 62
     3
 10
13318.66460599998
 20
5966.8654970000034
 30
0.0
 11
13318.66460599996
 21
8067.8202919999976
 31
0.0
  0
LINE
  5
488A
  8
0-1
  6
CONTINUOUS
 62
     3
 10
13248.664869999981
 20
5966.8654970000034
 30
0.0
 11
13248.664869999981
 21
8067.8202919999976
 31
0.0
  0
LINE
  5
488B
  8
0-1
  6
CONTINUOUS
 62
     3
 10
13268.665925999991
 20
5966.8654970000034
 30
0.0
 11
13268.66592599998
 21
8067.8202919999976
 31
0.0
  0
LINE
  5
488C
  8
0-1
  6
CONTINUOUS
 62
     3
 10
12927.165318999991
 20
8067.8202919999976
 30
0.0
 11
12927.165318999991
 21
5966.8654970000034
 31
0.0
  0
LINE
  5
488D
  8
0-1
  6
CONTINUOUS
 62
     3
 10
12890.16613699998
 20
8067.8202919999976
 30
0.0
 11
12890.16613699998
 21
5966.8654970000034
 31
0.0
  0
LINE
  5
488E
  8
0-1
  6
CONTINUOUS
 62
     3
 10
13590.163497999991
 20
8067.8202919999976
 30
0.0
 11
13590.163497999991
 21
8063.7741559999986
 31
0.0
  0
LINE
  5
488F
  8
0-1
  6
CONTINUOUS
 62
     3
 10
15027.165318999991
 20
8067.8202919999976
 30
0.0
 11
15027.165318999991
 21
8063.7741559999986
 31
0.0
  0
LINE
  5
4890
  8
0-1
  6
CONTINUOUS
 62
     3
 10
10719.16476399999
 20
8067.8202919999976
 30
0.0
 11
10719.16476399999
 21
5966.8654970000034
 31
0.0
  0
LINE
  5
4891
  8
0-1
  6
CONTINUOUS
 62
     3
 10
10682.16360299999
 20
8067.8202919999976
 30
0.0
 11
10682.16360299999
 21
5966.8654970000034
 31
0.0
  0
LINE
  5
4892
  8
0-1
  6
CONTINUOUS
 62
     3
 10
10019.165423999981
 20
8067.8202919999976
 30
0.0
 11
10019.165423999981
 21
5966.8654970000034
 31
0.0
  0
LINE
  5
4893
  8
0-1
  6
CONTINUOUS
 62
     3
 10
9982.1662429999833
 20
8067.8202919999976
 30
0.0
 11
9982.1662429999833
 21
5966.8654970000034
 31
0.0
  0
LINE
  5
4894
  8
0-1
  6
CONTINUOUS
 62
     3
 10
11419.16608399998
 20
8067.8202919999976
 30
0.0
 11
11419.16608399998
 21
5966.8654970000034
 31
0.0
  0
LINE
  5
4895
  8
0-1
  6
CONTINUOUS
 62
     3
 10
11382.16492299998
 20
8067.8202919999976
 30
0.0
 11
11382.16492299998
 21
5966.8654970000034
 31
0.0
  0
LINE
  5
4896
  8
0-1
  6
CONTINUOUS
 62
     3
 10
11040.66431599998
 20
5966.8654970000034
 30
0.0
 11
11040.66431599998
 21
8067.8202919999976
 31
0.0
  0
LINE
  5
4897
  8
0-1
  6
CONTINUOUS
 62
     3
 10
11060.66537199999
 20
5966.8654970000034
 30
0.0
 11
11060.66537199999
 21
8067.8202919999976
 31
0.0
  0
LINE
  5
4898
  8
0-1
  6
CONTINUOUS
 62
     3
 10
10990.66365599999
 20
5966.8654970000034
 30
0.0
 11
10990.66365599999
 21
8067.8202919999976
 31
0.0
  0
LINE
  5
4899
  8
0-1
  6
CONTINUOUS
 62
     3
 10
11110.666030999981
 20
5966.8654970000034
 30
0.0
 11
11110.666030999981
 21
8067.8202919999976
 31
0.0
  0
LINE
  5
489A
  8
0-1
  6
CONTINUOUS
 62
     3
 10
11243.665925999991
 20
5966.8654970000034
 30
0.0
 11
11243.665925999991
 21
8067.8202919999976
 31
0.0
  0
LINE
  5
489B
  8
0-1
  6
CONTINUOUS
 62
     3
 10
11258.66473799999
 20
5966.8654970000034
 30
0.0
 11
11258.66473799999
 21
8067.8202919999976
 31
0.0
  0
LINE
  5
489C
  8
0-1
  6
CONTINUOUS
 62
     3
 10
10857.66376199998
 20
5966.8654970000034
 30
0.0
 11
10857.66376199998
 21
8067.8202919999976
 31
0.0
  0
LINE
  5
489D
  8
0-1
  6
CONTINUOUS
 62
     3
 10
10842.664948999991
 20
5966.8654970000034
 30
0.0
 11
10842.66494899998
 21
8067.8202919999976
 31
0.0
  0
LINE
  5
489E
  8
0-1
  6
CONTINUOUS
 62
     3
 10
10142.665608999991
 20
5966.8654970000034
 30
0.0
 11
10142.665608999991
 21
8067.8202919999976
 31
0.0
  0
LINE
  5
489F
  8
0-1
  6
CONTINUOUS
 62
     3
 10
10157.66442099999
 20
5966.8654970000034
 30
0.0
 11
10157.66442099999
 21
8067.8202919999976
 31
0.0
  0
LINE
  5
48A0
  8
0-1
  6
CONTINUOUS
 62
     3
 10
10558.66539799999
 20
5966.8654970000034
 30
0.0
 11
10558.66539799999
 21
8067.8202919999976
 31
0.0
  0
LINE
  5
48A1
  8
0-1
  6
CONTINUOUS
 62
     3
 10
10543.664605999969
 20
5966.8654970000034
 30
0.0
 11
10543.664605999969
 21
8067.8202919999976
 31
0.0
  0
LINE
  5
48A2
  8
0-1
  6
CONTINUOUS
 62
     3
 10
10410.664711999991
 20
5966.8654970000034
 30
0.0
 11
10410.664711999991
 21
8067.8202919999976
 31
0.0
  0
LINE
  5
48A3
  8
0-1
  6
CONTINUOUS
 62
     3
 10
10290.66629499999
 20
5966.8654970000034
 30
0.0
 11
10290.66629499999
 21
8067.8202919999976
 31
0.0
  0
LINE
  5
48A4
  8
0-1
  6
CONTINUOUS
 62
     3
 10
10360.666030999981
 20
5966.8654970000034
 30
0.0
 11
10360.666030999981
 21
8067.8202919999976
 31
0.0
  0
LINE
  5
48A5
  8
0-1
  6
CONTINUOUS
 62
     3
 10
10340.66497599998
 20
5966.8654970000034
 30
0.0
 11
10340.66497599998
 21
8067.8202919999976
 31
0.0
  0
LINE
  5
48A6
  8
0-1
  6
CONTINUOUS
 62
     3
 10
11542.66626899999
 20
5966.8654970000034
 30
0.0
 11
11542.66626899999
 21
8067.8202919999976
 31
0.0
  0
LINE
  5
48A7
  8
0-1
  6
CONTINUOUS
 62
     3
 10
11557.66508099999
 20
5966.8654970000034
 30
0.0
 11
11557.665080999979
 21
8067.8202919999976
 31
0.0
  0
LINE
  5
48A8
  8
0-1
  6
CONTINUOUS
 62
     3
 10
11690.66497599998
 20
5966.8654970000034
 30
0.0
 11
11690.66497599998
 21
8067.8202919999976
 31
0.0
  0
LINE
  5
48A9
  8
0-1
  6
CONTINUOUS
 62
     3
 10
11958.664077999991
 20
5966.8654970000034
 30
0.0
 11
11958.66407799998
 21
8067.8202919999976
 31
0.0
  0
LINE
  5
48AA
  8
0-1
  6
CONTINUOUS
 62
     3
 10
11943.667244999981
 20
5966.8654970000034
 30
0.0
 11
11943.667244999981
 21
8067.8202919999976
 31
0.0
  0
LINE
  5
48AB
  8
0-1
  6
CONTINUOUS
 62
     3
 10
11810.66537199999
 20
5966.8654970000034
 30
0.0
 11
11810.66537199999
 21
8067.8202919999976
 31
0.0
  0
LINE
  5
48AC
  8
0-1
  6
CONTINUOUS
 62
     3
 10
11760.664711999991
 20
5966.8654970000034
 30
0.0
 11
11760.664711999991
 21
8067.8202919999976
 31
0.0
  0
LINE
  5
48AD
  8
0-1
  6
CONTINUOUS
 62
     3
 10
11740.66563499999
 20
5966.8654970000034
 30
0.0
 11
11740.66563499999
 21
8067.8202919999976
 31
0.0
  0
LINE
  5
48AE
  8
0-1
  6
CONTINUOUS
 62
     3
 10
12568.66460599998
 20
5966.8654970000034
 30
0.0
 11
12568.66460599996
 21
8067.8202919999976
 31
0.0
  0
LINE
  5
48AF
  8
0-1
  6
CONTINUOUS
 62
     3
 10
12548.663549999979
 20
5966.8654970000034
 30
0.0
 11
12548.663549999979
 21
8067.8202919999976
 31
0.0
  0
LINE
  5
48B0
  8
0-1
  6
CONTINUOUS
 62
     3
 10
12498.664869999981
 20
5966.8654970000034
 30
0.0
 11
12498.664869999981
 21
8067.8202919999976
 31
0.0
  0
LINE
  5
48B1
  8
0-1
  6
CONTINUOUS
 62
     3
 10
12365.66497599998
 20
5966.8654970000034
 30
0.0
 11
12365.66497599998
 21
8067.8202919999976
 31
0.0
  0
LINE
  5
48B2
  8
0-1
  6
CONTINUOUS
 62
     3
 10
12350.664183999979
 20
5966.8654970000034
 30
0.0
 11
12350.664183999979
 21
8067.8202919999976
 31
0.0
  0
LINE
  5
48B3
  8
0-1
  6
CONTINUOUS
 62
     3
 10
12082.16624299998
 20
8067.8202919999976
 30
0.0
 11
12082.16624299998
 21
5916.8653320000003
 31
0.0
  0
LINE
  5
48B4
  8
0-1
  6
CONTINUOUS
 62
     3
 10
12227.16597899999
 20
8067.8202919999976
 30
0.0
 11
12227.16597899999
 21
5916.8653320000003
 31
0.0
  0
LINE
  5
48B5
  8
0-1
  6
CONTINUOUS
 62
     3
 10
12154.66611099998
 20
8272.575754999998
 30
0.0
 11
12154.66611099998
 21
8067.8202919999976
 31
0.0
  0
LINE
  5
48B6
  8
0-1
  6
CONTINUOUS
 62
     3
 10
12227.16597899999
 20
5966.8654970000034
 30
0.0
 11
15350.66426299999
 21
5966.8654970000034
 31
0.0
  0
LINE
  5
48B7
  8
0-1
  6
CONTINUOUS
 62
     3
 10
9031.6592479999872
 20
8309.1542889999982
 30
0.0
 11
9035.5608789999878
 21
8179.2127509999973
 31
0.0
  0
LINE
  5
48B8
  8
0-1
  6
CONTINUOUS
 62
     3
 10
9186.6661109999914
 20
5816.8654970000007
 30
0.0
 11
9186.6661109999914
 21
5916.8653320000003
 31
0.0
  0
LINE
  5
48B9
  8
0-1
  6
CONTINUOUS
 62
     3
 10
9640.6636559999879
 20
5966.8654970000034
 30
0.0
 11
9640.6636559999879
 21
8067.8202919999976
 31
0.0
  0
LINE
  5
48BA
  8
0-1
  6
CONTINUOUS
 62
     3
 10
9660.6647119999907
 20
5966.8654970000034
 30
0.0
 11
9660.6647119999907
 21
8067.8202919999976
 31
0.0
  0
LINE
  5
48BB
  8
0-1
  6
CONTINUOUS
 62
     3
 10
9590.6649759999964
 20
5966.8654970000034
 30
0.0
 11
9590.6649759999964
 21
8067.8202919999976
 31
0.0
  0
LINE
  5
48BC
  8
0-1
  6
CONTINUOUS
 62
     3
 10
9710.6653719999886
 20
5966.8654970000034
 30
0.0
 11
9710.6653719999886
 21
8067.8202919999976
 31
0.0
  0
LINE
  5
48BD
  8
0-1
  6
CONTINUOUS
 62
     3
 10
9843.6652659999963
 20
5966.8654970000034
 30
0.0
 11
9843.6652659999872
 21
8067.8202919999976
 31
0.0
  0
LINE
  5
48BE
  8
0-1
  6
CONTINUOUS
 62
     3
 10
9858.6640779999962
 20
5966.8654970000034
 30
0.0
 11
9858.6640779999962
 21
8067.8202919999976
 31
0.0
  0
LINE
  5
48BF
  8
0-1
  6
CONTINUOUS
 62
     3
 10
9457.6650809999919
 20
5966.8654970000034
 30
0.0
 11
9457.6650809999919
 21
8067.8202919999976
 31
0.0
  0
LINE
  5
48C0
  8
0-1
  6
CONTINUOUS
 62
     3
 10
9442.6642889999875
 20
5966.8654970000034
 30
0.0
 11
9442.6642889999875
 21
8067.8202919999976
 31
0.0
  0
LINE
  5
48C1
  8
0-1
  6
CONTINUOUS
 62
     3
 10
9309.1679579999836
 20
8067.8202919999976
 30
0.0
 11
9309.1679579999909
 21
5916.8653320000003
 31
0.0
  0
LINE
  5
48C2
  8
0-1
  6
CONTINUOUS
 62
     3
 10
9214.1669019999881
 20
8184.5762569999924
 30
0.0
 11
9214.1669019999881
 21
5916.8653320000003
 31
0.0
  0
LINE
  5
48C3
  8
0-1
  6
CONTINUOUS
 62
     3
 10
9194.1661109999914
 20
8183.9754729999977
 30
0.0
 11
9194.1661109999914
 21
5916.8653320000003
 31
0.0
  0
LINE
  5
48C4
  8
0-1
  6
CONTINUOUS
 62
     3
 10
9186.6661109999914
 20
5916.8653320000003
 30
0.0
 11
15478.16611099999
 21
5916.8653320000003
 31
0.0
  0
LINE
  5
48C5
  8
0-1
  6
CONTINUOUS
 62
     3
 10
9309.1679579999909
 20
5966.8654970000034
 30
0.0
 11
12082.16624299998
 21
5966.8654970000034
 31
0.0
  0
LINE
  5
48C6
  8
0-1
  6
CONTINUOUS
 62
     3
 10
8504.1670339999819
 20
5816.8654970000007
 30
0.0
 11
15478.16611099999
 21
5816.8654970000007
 31
0.0
  0
LINE
  5
48C7
  8
0-1
  6
CONTINUOUS
 62
     3
 10
9214.1669019999881
 20
8067.8202919999976
 30
0.0
 11
15445.665318999991
 21
8067.8202919999976
 31
0.0
  0
LINE
  5
48C8
  8
0-1
  6
CONTINUOUS
 62
     3
 10
15540.55948099998
 20
8373.9340349999984
 30
0.0
 11
15536.657849999991
 21
8503.8755729999975
 31
0.0
  0
LINE
  5
48C9
  8
0-1
  6
CONTINUOUS
 62
     3
 10
12154.66611099998
 20
8272.575754999998
 30
0.0
 11
12150.76447899999
 21
8402.5172929999935
 31
0.0
  0
LINE
  5
48CA
  8
0-1
  6
CONTINUOUS
 62
     3
 10
15551.20335199998
 20
8419.2749079999976
 30
0.0
 11
9019.7168129999936
 21
8223.7578579999936
 31
0.0
  0
LINE
  5
48CB
  8
0-1
  6
CONTINUOUS
 62
     3
 10
9018.5172239999883
 20
8263.7401739999968
 30
0.0
 11
15550.003763999979
 21
8459.2562339999968
 31
0.0
  0
LINE
  5
48CC
  8
0-1
  6
CONTINUOUS
 62
     3
 10
9016.6267839999873
 20
8226.665769999996
 30
0.0
 11
9015.607331999985
 21
8260.6501449999978
 31
0.0
  0
LINE
  5
48CD
  8
0-1
  6
CONTINUOUS
 62
     3
 10
9017.9174299999886
 20
8183.6854729999977
 30
0.0
 11
9016.9593429999877
 21
8215.6715239999994
 31
0.0
  0
LINE
  5
48CE
  8
0-1
  6
CONTINUOUS
 62
     3
 10
15573.52638299998
 20
8374.9237939999985
 30
0.0
 11
9023.0661579999887
 21
8178.8386219999929
 31
0.0
  0
LINE
  5
48CF
  8
0-1
  6
CONTINUOUS
 62
     3
 10
9019.1645269999863
 20
8308.7801599999948
 30
0.0
 11
15569.624751999971
 21
8504.8653319999976
 31
0.0
  0
LINE
  5
48D0
  8
0-1
  6
CONTINUOUS
 62
     3
 10
9015.2767519999907
 20
8271.6453809999985
 30
0.0
 11
9014.316685999991
 21
8303.6314319999983
 31
0.0
  0
LINE
  5
48D1
  8
0-1
  6
CONTINUOUS
 62
     3
 10
15549.85134099998
 20
8464.2535289999978
 30
0.0
 11
9018.3667809999879
 21
8268.7374679999957
 31
0.0
  0
LINE
  5
48D2
  8
0-1
  6
CONTINUOUS
 62
     3
 10
9019.867255999985
 20
8218.7595729999975
 30
0.0
 11
15551.355774999991
 21
8414.2766229999961
 31
0.0
  0
LINE
  5
48D3
  8
0-2
  6
CONTINUOUS
 62
     4
 10
15423.16611099999
 20
4536.8659920000009
 30
0.0
 11
15423.16611099999
 21
4274.8645939890139
 31
0.0
  0
LINE
  5
48D4
  8
0-2
  6
CONTINUOUS
 62
     4
 10
9236.6661109999914
 20
4536.8659920000009
 30
0.0
 11
9236.6661109999914
 21
4274.8645939890139
 31
0.0
  0
LINE
  5
48D5
  8
0-2
  6
CONTINUOUS
 62
     4
 10
23599.908891999981
 20
4536.8659920000009
 30
0.0
 11
23599.908891999981
 21
4274.864593989013
 31
0.0
  0
LINE
  5
48D6
  8
0-2
  6
CONTINUOUS
 62
     4
 10
23599.90717699999
 20
4536.8659920000009
 30
0.0
 11
23599.90717699999
 21
4274.8645939890139
 31
0.0
  0
LINE
  5
48D7
  8
0-2
  6
CONTINUOUS
 62
     4
 10
20331.407176999979
 20
4536.8659920000009
 30
0.0
 11
20331.407176999979
 21
4274.8645939890139
 31
0.0
  0
CIRCLE
  5
48D8
  8
0-2
  6
CONTINUOUS
 62
     4
 10
23599.908891999981
 20
3776.865695000005
 30
0.0
 40
199.999979
  0
LINE
  5
48D9
  8
0-1
  6
CONTINUOUS
 62
     3
 10
23557.40691299997
 20
8374.8663879999949
 30
0.0
 11
23557.406912999981
 21
5916.8653320000003
 31
0.0
  0
LINE
  5
48DA
  8
0-1
  6
CONTINUOUS
 62
     3
 10
23622.40638599997
 20
8504.8653319999976
 30
0.0
 11
23622.40638599997
 21
5916.8653320000003
 31
0.0
  0
LINE
  5
48DB
  8
0-1
  6
CONTINUOUS
 62
     3
 10
23642.40717699995
 20
8374.8663879999949
 30
0.0
 11
23642.40717699999
 21
5916.8653320000003
 31
0.0
  0
LINE
  5
48DC
  8
0-1
  6
CONTINUOUS
 62
     3
 10
23649.905857999969
 20
5916.8653320000003
 30
0.0
 11
23549.906517999982
 21
5916.8653320000003
 31
0.0
  0
LINE
  5
48DD
  8
0-1
  6
CONTINUOUS
 62
     3
 10
23649.905857999969
 20
5816.8654970000007
 30
0.0
 11
23649.905857999969
 21
5916.8653320000003
 31
0.0
  0
LINE
  5
48DE
  8
0-1
  6
CONTINUOUS
 62
     3
 10
23549.906517999982
 20
5916.8653320000003
 30
0.0
 11
23549.906517999982
 21
5816.8654970000007
 31
0.0
  0
LINE
  5
48DF
  8
0-1
  6
CONTINUOUS
 62
     3
 10
23685.407176999961
 20
8179.1790989999954
 30
0.0
 11
23685.407176999961
 21
8504.8653319999976
 31
0.0
  0
LINE
  5
48E0
  8
0-1
  6
CONTINUOUS
 62
     3
 10
23685.407176999961
 20
8179.1790989999954
 30
0.0
 11
23642.405461999981
 21
8179.1790989999954
 31
0.0
  0
LINE
  5
48E1
  8
0-1
  6
CONTINUOUS
 62
     3
 10
23599.907176999961
 20
8375.3652270000002
 30
0.0
 11
23599.907176999961
 21
8504.865332000003
 31
0.0
  0
LINE
  5
48E2
  8
0-1
  6
CONTINUOUS
 62
     3
 10
23649.905857999969
 20
5816.8654970000007
 30
0.0
 11
23549.407678999989
 21
5816.8654970000007
 31
0.0
  0
LINE
  5
48E3
  8
2-0
  6
CENTER2
 62
     6
 10
23599.90717699999
 20
5554.2125789999991
 30
0.0
 11
23599.90717699999
 21
6591.3556060000037
 31
0.0
  0
LINE
  5
48E4
  8
0-F
  6
CONTINUOUS
 62
     3
 10
23556.40725699997
 20
8064.865859999999
 30
0.0
 11
23556.40725699997
 21
8241.3656749999955
 31
0.0
  0
LINE
  5
48E5
  8
1-0
  6
CONTINUOUS
 62
     2
 10
23366.905962999968
 20
5816.8654970000007
 30
0.0
 11
23366.905962999961
 21
8064.865859999999
 31
0.0
  0
LINE
  5
48E6
  8
1-0
  6
CONTINUOUS
 62
     2
 10
23557.406912999981
 20
5922.8652530000018
 30
0.0
 11
23549.407678999989
 21
5922.8652530000018
 31
0.0
  0
LINE
  5
48E7
  8
1-0
  6
CONTINUOUS
 62
     2
 10
23549.407678999989
 20
5816.8654970000007
 30
0.0
 11
23549.407678999989
 21
5922.8652530000018
 31
0.0
  0
TEXT
  5
48E8
  8
0-2
  6
CONTINUOUS
 62
     7
 10
23547.869591999999
 20
3685.2253670000018
 30
0.0
 40
160.0
  1
2
 72
     4
 11
23601.202925333331
 21
3765.2253670000009
 31
0.0
  0
TEXT
  5
48E9
  8
0-2
  6
CONTINUOUS
 62
     7
 10
20279.365633000001
 20
3685.2253670000018
 30
0.0
 40
160.0
  1
1
 72
     4
 11
20306.032299666669
 21
3765.2253670000009
 31
0.0
  0
CIRCLE
  5
48EA
  8
0-2
  6
CONTINUOUS
 62
     4
 10
20331.407176999979
 20
3776.8656950000009
 30
0.0
 40
199.9999949999999
  0
ARC
  5
48EB
  8
0-1
  6
CONTINUOUS
 62
     3
 10
21986.605432
 20
6444.5183820000047
 30
0.0
 40
15.0
 50
90.0
 51
182.60255400004641
  0
ARC
  5
48EC
  8
0-1
  6
CONTINUOUS
 62
     3
 10
21995.210398999989
 20
6444.5183820000047
 30
0.0
 40
15.0
 50
357.39743000001278
 51
90.0
  0
CIRCLE
  5
48ED
  8
0-1
  6
CONTINUOUS
 62
     3
 10
21990.906926
 20
6516.8658270000024
 30
0.0
 40
23.500001999999991
  0
ARC
  5
48EE
  8
0-1
  6
CONTINUOUS
 62
     3
 10
23531.407916
 20
8255.3658210000031
 30
0.0
 40
5.0
 50
269.9999850001808
 51
0.0
  0
ARC
  5
48EF
  8
0-1
  6
CONTINUOUS
 62
     3
 10
23531.407916
 20
8287.3657280000025
 30
0.0
 40
5.0
 50
0.0
 51
90.0
  0
ARC
  5
48F0
  8
0-1
  6
CONTINUOUS
 62
     3
 10
23221.977489000001
 20
8287.3657280000025
 30
0.0
 40
5.0
 50
90.0
 51
224.99998499996141
  0
ARC
  5
48F1
  8
0-1
  6
CONTINUOUS
 62
     3
 10
23253.980365999982
 20
8255.3658210000031
 30
0.0
 40
5.0
 50
224.99998499996141
 51
269.9999850001808
  0
ARC
  5
48F2
  8
0-1
  6
CONTINUOUS
 62
     3
 10
20709.336864000001
 20
8287.3657280000025
 30
0.0
 40
5.0
 50
314.99998500027471
 51
90.0
  0
ARC
  5
48F3
  8
0-1
  6
CONTINUOUS
 62
     3
 10
20677.335966999992
 20
8255.3658210000031
 30
0.0
 40
5.0
 50
269.9999850001808
 51
314.99998500027471
  0
ARC
  5
48F4
  8
0-1
  6
CONTINUOUS
 62
     3
 10
20399.906438000002
 20
8255.3658210000031
 30
0.0
 40
5.0
 50
180.0
 51
269.9999850001808
  0
ARC
  5
48F5
  8
0-1
  6
CONTINUOUS
 62
     3
 10
20399.906438000002
 20
8287.3657280000025
 30
0.0
 40
5.0
 50
90.0
 51
180.0
  0
LINE
  5
48F6
  8
1-0
  6
CONTINUOUS
 62
     2
 10
23366.907941999991
 20
5816.8654970000007
 30
0.0
 11
23366.907941999991
 21
8064.8658600000008
 31
0.0
  0
LINE
  5
48F7
  8
1-0
  6
CONTINUOUS
 62
     2
 10
20381.90667499998
 20
5816.8654970000007
 30
0.0
 11
20381.90667499998
 21
5922.8652530000018
 31
0.0
  0
LINE
  5
48F8
  8
1-0
  6
CONTINUOUS
 62
     2
 10
20373.907440999999
 20
5922.8652530000018
 30
0.0
 11
20381.90667499998
 21
5922.8652530000018
 31
0.0
  0
LINE
  5
48F9
  8
1-0
  6
CONTINUOUS
 62
     2
 10
20564.40839099999
 20
5816.8654970000007
 30
0.0
 11
20564.40839099999
 21
8064.8658600000008
 31
0.0
  0
LINE
  5
48FA
  8
0-F
  6
CONTINUOUS
 62
     3
 10
23556.40725600001
 20
8064.8658600000008
 30
0.0
 11
23556.40725600001
 21
8241.3656749999973
 31
0.0
  0
LINE
  5
48FB
  8
0-F
  6
CONTINUOUS
 62
     3
 10
20374.90709700001
 20
8064.8658600000008
 30
0.0
 11
23556.40725600001
 21
8064.8658600000008
 31
0.0
  0
LINE
  5
48FC
  8
0-F
  6
CONTINUOUS
 62
     3
 10
20374.90709700001
 20
8064.8658600000008
 30
0.0
 11
20374.90709700001
 21
8241.3656749999973
 31
0.0
  0
LINE
  5
48FD
  8
2-0
  6
CENTER2
 62
     6
 10
20331.407176999979
 20
5554.212579
 30
0.0
 11
20331.407176999979
 21
6591.3556060000037
 31
0.0
  0
LINE
  5
48FE
  8
0-2
  6
CONTINUOUS
 62
     4
 10
23599.90717699999
 20
4136.8653980000008
 30
0.0
 11
23599.90717699999
 21
3976.8653650000042
 31
0.0
  0
LINE
  5
48FF
  8
0-2
  6
CONTINUOUS
 62
     4
 10
20331.407176999979
 20
4136.8653980000008
 30
0.0
 11
20331.407176999979
 21
3976.8653650000042
 31
0.0
  0
LINE
  5
4900
  8
0-1
  6
CONTINUOUS
 62
     3
 10
21940.906265999991
 20
6316.8661570000031
 30
0.0
 11
21940.906265999991
 21
6266.8659920000036
 31
0.0
  0
LINE
  5
4901
  8
0-1
  6
CONTINUOUS
 62
     3
 10
22040.90758599999
 20
6316.8661570000031
 30
0.0
 11
22040.90758599999
 21
6266.8659920000036
 31
0.0
  0
LINE
  5
4902
  8
0-1
  6
CONTINUOUS
 62
     3
 10
21940.906265999991
 20
6266.8659920000036
 30
0.0
 11
22040.90758599999
 21
6266.8659920000036
 31
0.0
  0
LINE
  5
4903
  8
0-1
  6
CONTINUOUS
 62
     3
 10
21940.906265999991
 20
7506.8661240000083
 30
0.0
 11
22040.90758599999
 21
7506.8661240000083
 31
0.0
  0
LINE
  5
4904
  8
0-1
  6
CONTINUOUS
 62
     3
 10
22040.90758599999
 20
7556.8657940000021
 30
0.0
 11
22040.90758599999
 21
7506.8661240000083
 31
0.0
  0
LINE
  5
4905
  8
0-1
  6
CONTINUOUS
 62
     3
 10
21940.906265999991
 20
7556.8657940000021
 30
0.0
 11
21940.906265999991
 21
7506.8661240000083
 31
0.0
  0
LINE
  5
4906
  8
0-1
  6
CONTINUOUS
 62
     3
 10
21940.906265999991
 20
7236.8652330000023
 30
0.0
 11
21940.906265999991
 21
7186.8655630000021
 31
0.0
  0
LINE
  5
4907
  8
0-1
  6
CONTINUOUS
 62
     3
 10
22040.90758599999
 20
7236.8652330000023
 30
0.0
 11
22040.90758599999
 21
7186.8655630000021
 31
0.0
  0
LINE
  5
4908
  8
0-1
  6
CONTINUOUS
 62
     3
 10
21940.906265999991
 20
7186.8655630000021
 30
0.0
 11
22040.90758599999
 21
7186.8655630000021
 31
0.0
  0
LINE
  5
4909
  8
0-1
  6
CONTINUOUS
 62
     3
 10
21940.906265999991
 20
6676.8658600000053
 30
0.0
 11
22040.90758599999
 21
6676.8658600000053
 31
0.0
  0
LINE
  5
490A
  8
0-1
  6
CONTINUOUS
 62
     3
 10
22040.90758599999
 20
6726.866025000003
 30
0.0
 11
22040.90758599999
 21
6676.8658600000053
 31
0.0
  0
LINE
  5
490B
  8
0-1
  6
CONTINUOUS
 62
     3
 10
21940.906265999991
 20
6726.866025000003
 30
0.0
 11
21940.906265999991
 21
6676.8658600000053
 31
0.0
  0
LINE
  5
490C
  8
0-1
  6
CONTINUOUS
 62
     3
 10
22009.87488123294
 20
6436.8655630000021
 30
0.0
 11
23366.907941999991
 21
6436.8655630000021
 31
0.0
  0
LINE
  5
490D
  8
0-1
  6
CONTINUOUS
 62
     3
 10
22007.604373232949
 20
6386.8658930000029
 30
0.0
 11
23366.907941999991
 21
6386.8658930000029
 31
0.0
  0
LINE
  5
490E
  8
0-1
  6
CONTINUOUS
 62
     3
 10
21995.210398999989
 20
6459.5176890000012
 30
0.0
 11
21986.605432
 21
6459.5176890000012
 31
0.0
  0
LINE
  5
490F
  8
0-1
  6
CONTINUOUS
 62
     3
 10
21975.908114000002
 20
6349.517821000004
 30
0.0
 11
22005.905738000001
 21
6349.517821000004
 31
0.0
  0
LINE
  5
4910
  8
0-1
  6
CONTINUOUS
 62
     3
 10
21971.620476
 20
6443.8374270000013
 30
0.0
 11
21975.908114000002
 21
6349.517821000004
 31
0.0
  0
LINE
  5
4911
  8
0-1
  6
CONTINUOUS
 62
     3
 10
22005.905738000001
 20
6349.517821000004
 30
0.0
 11
22010.193374999992
 21
6443.8374270000013
 31
0.0
  0
LINE
  5
4912
  8
0-1
  6
CONTINUOUS
 62
     3
 10
20281.408496
 20
5816.8654970000007
 30
0.0
 11
20381.90667499998
 21
5816.8654970000007
 31
0.0
  0
LINE
  5
4913
  8
0-1
  6
CONTINUOUS
 62
     3
 10
23536.406200000001
 20
8255.3658210000031
 30
0.0
 11
23536.406200000001
 21
8287.3657280000025
 31
0.0
  0
LINE
  5
4914
  8
0-1
  6
CONTINUOUS
 62
     3
 10
23250.444946000011
 20
8251.8294110000006
 30
0.0
 11
23218.442068999972
 21
8283.8303079999969
 31
0.0
  0
LINE
  5
4915
  8
0-1
  6
CONTINUOUS
 62
     3
 10
23536.406200000001
 20
8283.9659049999973
 30
0.0
 11
23218.313399999999
 21
8283.9659049999973
 31
0.0
  0
LINE
  5
4916
  8
0-1
  6
CONTINUOUS
 62
     3
 10
23536.406200000001
 20
8275.5658179999955
 30
0.0
 11
23226.708538999988
 21
8275.5658179999955
 31
0.0
  0
LINE
  5
4917
  8
0-1
  6
CONTINUOUS
 62
     3
 10
23536.406200000001
 20
8267.1657309999955
 30
0.0
 11
23235.107636000001
 21
8267.1657309999955
 31
0.0
  0
LINE
  5
4918
  8
0-1
  6
CONTINUOUS
 62
     3
 10
23536.406200000001
 20
8258.7656439999973
 30
0.0
 11
23243.506732999998
 21
8258.7656439999973
 31
0.0
  0
LINE
  5
4919
  8
0-1
  6
CONTINUOUS
 62
     3
 10
23531.407916
 20
8292.3659919999973
 30
0.0
 11
23221.977489000001
 21
8292.3659919999973
 31
0.0
  0
LINE
  5
491A
  8
0-1
  6
CONTINUOUS
 62
     3
 10
23531.407916
 20
8250.3665459999975
 30
0.0
 11
23253.980365999982
 21
8250.3665459999975
 31
0.0
  0
LINE
  5
491B
  8
0-1
  6
CONTINUOUS
 62
     3
 10
23599.907177000001
 20
8375.3652270000002
 30
0.0
 11
23599.907177000001
 21
8504.865332000003
 31
0.0
  0
LINE
  5
491C
  8
0-1
  6
CONTINUOUS
 62
     3
 10
23557.406912999992
 20
8374.8663879999967
 30
0.0
 11
23557.406912999992
 21
5816.8654970000007
 31
0.0
  0
LINE
  5
491D
  8
0-1
  6
CONTINUOUS
 62
     3
 10
20381.90667499998
 20
5816.8654970000007
 30
0.0
 11
23599.90717699999
 21
5816.8654969999998
 31
0.0
  0
LINE
  5
491E
  8
0-1
  6
CONTINUOUS
 62
     3
 10
20564.40839099999
 20
8051.8651999999984
 30
0.0
 11
23366.907941999991
 21
8051.8651999999984
 31
0.0
  0
LINE
  5
491F
  8
0-1
  6
CONTINUOUS
 62
     3
 10
20564.40839099999
 20
7776.8655300000028
 30
0.0
 11
23366.907941999991
 21
7776.8655300000028
 31
0.0
  0
LINE
  5
4920
  8
0-1
  6
CONTINUOUS
 62
     3
 10
20564.40839099999
 20
8001.8655300000028
 30
0.0
 11
23366.907941999991
 21
8001.8655300000028
 31
0.0
  0
LINE
  5
4921
  8
0-1
  6
CONTINUOUS
 62
     3
 10
20564.40839099999
 20
7941.8658270000024
 30
0.0
 11
23366.907941999991
 21
7941.8658270000024
 31
0.0
  0
LINE
  5
4922
  8
0-1
  6
CONTINUOUS
 62
     3
 10
20564.40839099999
 20
7856.8657939999975
 30
0.0
 11
23366.907941999991
 21
7856.8657939999975
 31
0.0
  0
LINE
  5
4923
  8
0-1
  6
CONTINUOUS
 62
     3
 10
20564.40839099999
 20
7691.8659920000018
 30
0.0
 11
23366.907941999991
 21
7691.8659920000018
 31
0.0
  0
LINE
  5
4924
  8
0-1
  6
CONTINUOUS
 62
     3
 10
20564.40839099999
 20
7631.8657940000021
 30
0.0
 11
23366.907941999991
 21
7631.8657940000021
 31
0.0
  0
LINE
  5
4925
  8
0-1
  6
CONTINUOUS
 62
     3
 10
20564.40839099999
 20
6631.8654640000041
 30
0.0
 11
23366.907941999991
 21
6631.8654640000041
 31
0.0
  0
LINE
  5
4926
  8
0-1
  6
CONTINUOUS
 62
     3
 10
20564.40839099999
 20
5866.8661570000004
 30
0.0
 11
23366.907941999991
 21
5866.8661570000004
 31
0.0
  0
LINE
  5
4927
  8
0-1
  6
CONTINUOUS
 62
     3
 10
20564.40839099999
 20
5916.8653320000003
 30
0.0
 11
23366.907941999991
 21
5916.8653320000003
 31
0.0
  0
LINE
  5
4928
  8
0-1
  6
CONTINUOUS
 62
     3
 10
20564.40839099999
 20
5976.866025000003
 30
0.0
 11
23366.907941999991
 21
5976.866025000003
 31
0.0
  0
LINE
  5
4929
  8
0-1
  6
CONTINUOUS
 62
     3
 10
20564.40839099999
 20
6061.8655630000021
 30
0.0
 11
23366.907941999991
 21
6061.8655630000021
 31
0.0
  0
LINE
  5
492A
  8
0-1
  6
CONTINUOUS
 62
     3
 10
20564.40839099999
 20
6141.8653320000039
 30
0.0
 11
23366.907941999991
 21
6141.8653320000039
 31
0.0
  0
LINE
  5
492B
  8
0-1
  6
CONTINUOUS
 62
     3
 10
20564.40839099999
 20
6226.8658600000026
 30
0.0
 11
23366.907941999991
 21
6226.8658600000026
 31
0.0
  0
LINE
  5
492C
  8
0-1
  6
CONTINUOUS
 62
     3
 10
20564.40839099999
 20
6286.8660580000023
 30
0.0
 11
23366.907941999991
 21
6286.8660580000023
 31
0.0
  0
LINE
  5
492D
  8
0-1
  6
CONTINUOUS
 62
     3
 10
20564.40839099999
 20
6336.8657280000016
 30
0.0
 11
23366.907941999991
 21
6336.8657280000016
 31
0.0
  0
LINE
  5
492E
  8
0-1
  6
CONTINUOUS
 62
     3
 10
20564.40839099999
 20
6386.8658930000029
 30
0.0
 11
21974.207915232932
 21
6386.8658930000029
 31
0.0
  0
LINE
  5
492F
  8
0-1
  6
CONTINUOUS
 62
     3
 10
20564.40839099999
 20
6436.8655630000021
 30
0.0
 11
21971.937407232908
 21
6436.8655630000021
 31
0.0
  0
LINE
  5
4930
  8
0-1
  6
CONTINUOUS
 62
     3
 10
20564.40839099999
 20
6486.8657280000043
 30
0.0
 11
23366.907941999991
 21
6486.8657280000043
 31
0.0
  0
LINE
  5
4931
  8
0-1
  6
CONTINUOUS
 62
     3
 10
20564.40839099999
 20
6546.8654310000038
 30
0.0
 11
23366.907941999991
 21
6546.8654310000038
 31
0.0
  0
LINE
  5
4932
  8
0-1
  6
CONTINUOUS
 62
     3
 10
20564.40839099999
 20
6711.8657280000016
 30
0.0
 11
23366.907941999991
 21
6711.8657280000016
 31
0.0
  0
LINE
  5
4933
  8
0-1
  6
CONTINUOUS
 62
     3
 10
20564.40839099999
 20
6796.8652660000034
 30
0.0
 11
23366.907941999991
 21
6796.8652660000034
 31
0.0
  0
LINE
  5
4934
  8
0-1
  6
CONTINUOUS
 62
     3
 10
20564.40839099999
 20
6856.8659590000052
 30
0.0
 11
23366.907941999991
 21
6856.8659590000052
 31
0.0
  0
LINE
  5
4935
  8
0-1
  6
CONTINUOUS
 62
     3
 10
20564.40839099999
 20
6906.8661240000029
 30
0.0
 11
23366.907941999991
 21
6906.8661240000029
 31
0.0
  0
LINE
  5
4936
  8
0-1
  6
CONTINUOUS
 62
     3
 10
20564.40839099999
 20
6956.8652990000028
 30
0.0
 11
23366.907941999991
 21
6956.8652990000028
 31
0.0
  0
LINE
  5
4937
  8
0-1
  6
CONTINUOUS
 62
     3
 10
20564.40839099999
 20
7526.8656950000022
 30
0.0
 11
23366.907941999991
 21
7526.8656950000022
 31
0.0
  0
LINE
  5
4938
  8
0-1
  6
CONTINUOUS
 62
     3
 10
20564.40839099999
 20
7476.8655300000028
 30
0.0
 11
23366.907941999991
 21
7476.8655300000028
 31
0.0
  0
LINE
  5
4939
  8
0-1
  6
CONTINUOUS
 62
     3
 10
20564.40839099999
 20
7426.8658600000053
 30
0.0
 11
23366.907941999991
 21
7426.8658600000053
 31
0.0
  0
LINE
  5
493A
  8
0-1
  6
CONTINUOUS
 62
     3
 10
20564.40839099999
 20
7366.8661570000049
 30
0.0
 11
23366.907941999991
 21
7366.8661570000049
 31
0.0
  0
LINE
  5
493B
  8
0-1
  6
CONTINUOUS
 62
     3
 10
20564.40839099999
 20
7281.8661240000083
 30
0.0
 11
23366.907941999991
 21
7281.8661240000083
 31
0.0
  0
LINE
  5
493C
  8
0-1
  6
CONTINUOUS
 62
     3
 10
20564.40839099999
 20
7201.8658600000053
 30
0.0
 11
23366.907941999991
 21
7201.8658600000053
 31
0.0
  0
LINE
  5
493D
  8
0-1
  6
CONTINUOUS
 62
     3
 10
20564.40839099999
 20
7116.8658270000042
 30
0.0
 11
23366.907941999991
 21
7116.8658270000042
 31
0.0
  0
LINE
  5
493E
  8
0-1
  6
CONTINUOUS
 62
     3
 10
20564.40839099999
 20
7056.8661240000019
 30
0.0
 11
23366.907941999991
 21
7056.8661240000019
 31
0.0
  0
LINE
  5
493F
  8
0-1
  6
CONTINUOUS
 62
     3
 10
20564.40839099999
 20
7006.8659590000052
 30
0.0
 11
23366.907941999991
 21
7006.8659590000052
 31
0.0
  0
LINE
  5
4940
  8
0-1
  6
CONTINUOUS
 62
     3
 10
20564.40839099999
 20
7581.8661240000083
 30
0.0
 11
23366.907941999991
 21
7581.8661240000083
 31
0.0
  0
LINE
  5
4941
  8
0-1
  6
CONTINUOUS
 62
     3
 10
20680.873366
 20
8251.8294110000006
 30
0.0
 11
20712.870305
 21
8283.8303079999969
 31
0.0
  0
LINE
  5
4942
  8
0-1
  6
CONTINUOUS
 62
     3
 10
20394.906174
 20
8255.3658210000031
 30
0.0
 11
20394.906174
 21
8287.3657280000025
 31
0.0
  0
LINE
  5
4943
  8
0-1
  6
CONTINUOUS
 62
     3
 10
20245.907177000001
 20
8179.1790989999972
 30
0.0
 11
20288.908891999989
 21
8179.1790989999972
 31
0.0
  0
LINE
  5
4944
  8
0-1
  6
CONTINUOUS
 62
     3
 10
20245.907177000001
 20
8179.1790989999972
 30
0.0
 11
20245.907177000001
 21
8504.865332000003
 31
0.0
  0
LINE
  5
4945
  8
0-1
  6
CONTINUOUS
 62
     3
 10
20394.906174
 20
8258.7656439999973
 30
0.0
 11
20687.807619999981
 21
8258.7656439999973
 31
0.0
  0
LINE
  5
4946
  8
0-1
  6
CONTINUOUS
 62
     3
 10
20394.906174
 20
8267.1657309999955
 30
0.0
 11
20696.206717000001
 21
8267.1657309999955
 31
0.0
  0
LINE
  5
4947
  8
0-1
  6
CONTINUOUS
 62
     3
 10
20394.906174
 20
8275.5658179999955
 30
0.0
 11
20704.605814999992
 21
8275.5658179999955
 31
0.0
  0
LINE
  5
4948
  8
0-1
  6
CONTINUOUS
 62
     3
 10
20394.906174
 20
8283.9659049999973
 30
0.0
 11
20713.002933
 21
8283.9659049999973
 31
0.0
  0
LINE
  5
4949
  8
0-1
  6
CONTINUOUS
 62
     3
 10
20399.906438000002
 20
8292.3659919999973
 30
0.0
 11
20709.336864000001
 21
8292.3659919999973
 31
0.0
  0
LINE
  5
494A
  8
0-1
  6
CONTINUOUS
 62
     3
 10
20399.906438000002
 20
8250.3665459999975
 30
0.0
 11
20677.335966999992
 21
8250.3665459999975
 31
0.0
  0
LINE
  5
494B
  8
0-1
  6
CONTINUOUS
 62
     3
 10
20381.40783599998
 20
5916.8653320000003
 30
0.0
 11
20381.40783599998
 21
5816.8654970000007
 31
0.0
  0
LINE
  5
494C
  8
0-1
  6
CONTINUOUS
 62
     3
 10
20281.408496
 20
5816.8654970000007
 30
0.0
 11
20281.408496
 21
5916.8653320000003
 31
0.0
  0
LINE
  5
494D
  8
0-1
  6
CONTINUOUS
 62
     3
 10
20281.408496
 20
5916.8653320000003
 30
0.0
 11
20381.40783599998
 21
5916.8653320000003
 31
0.0
  0
LINE
  5
494E
  8
0-1
  6
CONTINUOUS
 62
     3
 10
20288.907177000001
 20
8374.8663879999967
 30
0.0
 11
20288.90717699999
 21
5916.8653320000003
 31
0.0
  0
LINE
  5
494F
  8
0-1
  6
CONTINUOUS
 62
     3
 10
20308.907968
 20
8504.865332000003
 30
0.0
 11
20308.907968
 21
5916.8653320000003
 31
0.0
  0
LINE
  5
4950
  8
0-1
  6
CONTINUOUS
 62
     3
 10
20373.907440999999
 20
8374.8663879999967
 30
0.0
 11
20373.907440999999
 21
5916.8653320000003
 31
0.0
  0
LINE
  5
4951
  8
0-1
  6
CONTINUOUS
 62
     3
 10
23685.407176999961
 20
8374.8663879999949
 30
0.0
 11
20245.907177000001
 21
8374.8663879999967
 31
0.0
  0
LINE
  5
4952
  8
0-1
  6
CONTINUOUS
 62
     3
 10
20373.907440999999
 20
8301.3648840000023
 30
0.0
 11
23557.406912999992
 21
8301.3648840000023
 31
0.0
  0
LINE
  5
4953
  8
0-1
  6
CONTINUOUS
 62
     3
 10
20245.907177000001
 20
8504.865332000003
 30
0.0
 11
23685.407176999961
 21
8504.865332000003
 31
0.0
  0
LINE
  5
4954
  8
0-1
  6
CONTINUOUS
 62
     3
 10
20373.907440999999
 20
8241.3656749999973
 30
0.0
 11
23557.406912999992
 21
8241.3656749999973
 31
0.0
  0
LINE
  5
4955
  8
0-5
  6
CONTINUOUS
 62
     4
 10
17183.248128999981
 20
5916.8643420000017
 30
0.0
 11
17303.249513999988
 21
6124.7098340000011
 31
0.0
  0
LINE
  5
4956
  8
0-5
  6
CONTINUOUS
 62
     4
 10
17063.24872299999
 20
6124.7098340000011
 30
0.0
 11
17183.248128999981
 21
5916.8643420000017
 31
0.0
  0
LINE
  5
4957
  8
0-5
  6
CONTINUOUS
 62
     4
 10
17303.249513999988
 20
6124.7098340000011
 30
0.0
 11
17063.24872299999
 21
6124.7098340000011
 31
0.0
  0
TEXT
  5
4958
  8
0-5
  6
CONTINUOUS
 62
     7
 10
16724.156199999979
 20
6204.7100980000032
 30
0.0
 40
160.0
  1
布基礎天端
 72
     4
 11
17182.822866666651
 21
6284.7100980000023
 31
0.0
  0
LINE
  5
4959
  8
0-5
  6
CONTINUOUS
 62
     4
 10
15558.166374999981
 20
5916.8643420000017
 30
0.0
 11
17275.625332999989
 21
5916.8643420000017
 31
0.0
  0
LINE
  5
495A
  8
0-5
  6
CONTINUOUS
 62
     4
 10
18008.538127999978
 20
6024.7109890000038
 30
0.0
 11
18128.537533999981
 21
5816.8654970000007
 31
0.0
  0
LINE
  5
495B
  8
0-5
  6
CONTINUOUS
 62
     4
 10
15558.166374999981
 20
5816.8654970000007
 30
0.0
 11
20201.412190999981
 21
5816.8654970000007
 31
0.0
  0
LINE
  5
495C
  8
0-5
  6
CONTINUOUS
 62
     4
 10
18128.537533999981
 20
5816.8654970000007
 30
0.0
 11
18248.537929999991
 21
6024.7109890000038
 31
0.0
  0
LINE
  5
495D
  8
0-5
  6
CONTINUOUS
 62
     4
 10
18248.537929999991
 20
6024.7109890000038
 30
0.0
 11
18008.538127999978
 21
6024.7109890000038
 31
0.0
  0
TEXT
  5
495E
  8
0-5
  6
CONTINUOUS
 62
     7
 10
18008.53812799996
 20
6104.7112530000049
 30
0.0
 40
160.0
  1
G.L
 72
     4
 11
18168.53812799996
 21
6184.7112530000059
 31
0.0
  0
LINE
  5
495F
  8
3-0
  6
CONTINUOUS
 62
     6
 10
21489.81228683711
 20
19538.614137999979
 30
0.0
 11
21535.669814837129
 21
19565.84439499996
 31
0.0
  0
LINE
  5
4960
  8
3-0
  6
CONTINUOUS
 62
     6
 10
21489.81228683711
 20
19538.614137999979
 30
0.0
 11
21431.050277837141
 21
19689.809766999981
 31
0.0
  0
LINE
  5
4961
  8
3-0
  6
CONTINUOUS
 62
     6
 10
21535.669814837129
 20
19565.84439499996
 30
0.0
 11
21489.81228683711
 21
19538.614137999979
 31
0.0
  0
LINE
  5
4962
  8
3-0
  6
CONTINUOUS
 62
     6
 10
21431.050277837141
 20
19689.809766999981
 30
0.0
 11
21535.669814837129
 21
19565.84439499996
 31
0.0
  0
LINE
  5
4963
  8
3-0
  6
CONTINUOUS
 62
     6
 10
21431.050277837141
 20
19689.809766999981
 30
0.0
 11
21489.81228683711
 21
19538.614137999979
 31
0.0
  0
LINE
  5
4964
  8
3-0
  6
CONTINUOUS
 62
     6
 10
21535.669814837129
 20
19565.84439499996
 30
0.0
 11
21431.050277837141
 21
19689.809766999981
 31
0.0
  0
LINE
  5
4965
  8
3-0
  6
CONTINUOUS
 62
     6
 10
21512.741050837129
 20
19552.231245999981
 30
0.0
 11
21835.594592837129
 21
19008.489163999981
 31
0.0
  0
LINE
  5
4966
  8
SUNPOU
  6
CONTINUOUS
 10
9433.3573855583327
 20
19905.602761999991
 30
0.0
 11
9433.3573855583327
 21
20627.628352073549
 31
0.0
  0
LINE
  5
4967
  8
SUNPOU
  6
CONTINUOUS
 10
9433.3573855583327
 20
13304.104873
 30
0.0
 11
9433.3573855583327
 21
12602.734472109851
 31
0.0
  0
CIRCLE
  5
4968
  8
0-5
  6
CONTINUOUS
 62
     4
 10
15128.714698
 20
1375.999610999999
 30
0.0
 40
20.0
  0
ARC
  5
4969
  8
0-5
  6
CONTINUOUS
 62
     4
 10
15128.714698
 20
1375.999610999999
 30
0.0
 40
20.0
 50
180.0
 51
0.0
  0
ARC
  5
496A
  8
0-5
  6
CONTINUOUS
 62
     4
 10
15128.714698
 20
1375.999610999999
 30
0.0
 40
20.0
 50
0.0
 51
179.99998499999839
  0
TEXT
  5
496B
  8
0-5
  6
CONTINUOUS
 62
     7
 10
15288.713245999999
 20
1255.9998339999991
 30
0.0
 40
160.0
  1
有効高サハ、基礎高サヲ含ミマセン。
  0
LINE
  5
496E
  8
WAKUSEN-01
 10
868.00000000000193
 20
22484.000000000011
 30
0.0
 11
32764.000000000011
 21
22484.000000000011
 31
0.0
  0
LINE
  5
4971
  8
WAKUSEN-01
 10
20560.0
 20
2484.0
 30
0.0
 11
32764.0
 21
2484.0
 31
0.0
  0
LINE
  5
4972
  8
WAKUSEN-02
 10
20560.0
 20
1655.9999999999991
 30
0.0
 11
26868.0
 21
1655.9999999999991
 31
0.0
  0
TEXT
  5
4973
  8
WAKUMOJI-01
 10
20670.260259962761
 20
2125.9030093393221
 30
0.0
 40
240.0
  1
名　称
  7
WAKUMOJI
  0
TEXT
  5
4974
  8
WAKUMOJI-01
 10
20656.505485091919
 20
1319.12897497982
 30
0.0
 40
240.0
  1
機種名
  7
WAKUMOJI
  0
LINE
  5
4977
  8
YODOROGO
 10
29977.604341291921
 20
1995.7494964292871
 30
0.0
 11
29829.604341291921
 21
1995.7494964292871
 31
0.0
1001
AUTOCAD_POSTSCRIPT_FIGURE
1002
{
1000
PSFILL
1000
Grayscale
1000
Grayscale
1070
    25
1002
}
  0
LINE
  5
4978
  8
YODOROGO
 10
29829.604341291921
 20
1947.749496429288
 30
0.0
 11
29977.604341291921
 21
1947.749496429288
 31
0.0
1001
AUTOCAD_POSTSCRIPT_FIGURE
1002
{
1000
PSFILL
1000
Grayscale
1000
Grayscale
1070
    25
1002
}
  0
LINE
  5
4979
  8
YODOROGO
 10
29977.604341291921
 20
1907.7494964292871
 30
0.0
 11
29829.604341291921
 21
1907.7494964292871
 31
0.0
1001
AUTOCAD_POSTSCRIPT_FIGURE
1002
{
1000
PSFILL
1000
Grayscale
1000
Grayscale
1070
    25
1002
}
  0
LINE
  5
497A
  8
YODOROGO
 10
29829.604341291921
 20
1859.749496429288
 30
0.0
 11
29977.604341291921
 21
1859.749496429288
 31
0.0
1001
AUTOCAD_POSTSCRIPT_FIGURE
1002
{
1000
PSFILL
1000
Grayscale
1000
Grayscale
1070
    25
1002
}
  0
LINE
  5
497B
  8
YODOROGO
 10
29977.604341291921
 20
1819.7494964292871
 30
0.0
 11
29829.604341291921
 21
1819.7494964292871
 31
0.0
1001
AUTOCAD_POSTSCRIPT_FIGURE
1002
{
1000
PSFILL
1000
Grayscale
1000
Grayscale
1070
    25
1002
}
  0
LINE
  5
497C
  8
YODOROGO
 10
29921.60434129191
 20
1707.749496429288
 30
0.0
 11
29977.604341291921
 21
1707.749496429288
 31
0.0
1001
AUTOCAD_POSTSCRIPT_FIGURE
1002
{
1000
PSFILL
1000
Grayscale
1000
Grayscale
1070
    25
1002
}
  0
LINE
  5
497D
  8
YODOROGO
 10
29737.604341291921
 20
1427.749496429288
 30
0.0
 11
29937.604341291932
 21
1481.3393349155101
 31
0.0
  0
LINE
  5
497E
  8
YODOROGO
 10
29949.60434129191
 20
1707.749496429288
 30
0.0
 11
29885.604341291921
 21
1707.749496429288
 31
0.0
  0
ARC
  5
497F
  8
YODOROGO
 10
30254.34774982791
 20
1807.864609233261
 30
0.0
 40
381.88686420564721
 50
213.96111677667841
 51
264.47872074317792
  0
ARC
  5
4980
  8
YODOROGO
 10
30254.347749827921
 20
1807.864609233302
 30
0.0
 40
381.8868642056816
 50
208.14114420486601
 51
212.9210361185994
  0
LINE
  5
4981
  8
YODOROGO
 10
29771.409872985321
 20
1556.807661346234
 30
0.0
 11
29933.78413250855
 21
1600.3157130570869
 31
0.0
  0
LINE
  5
4982
  8
YODOROGO
 10
29737.604341291921
 20
1427.749496429288
 30
0.0
 11
29937.604341291932
 21
1481.3393349155101
 31
0.0
  0
LINE
  5
4983
  8
YODOROGO
 10
29949.60434129191
 20
1707.749496429288
 30
0.0
 11
29885.604341291921
 21
1707.749496429288
 31
0.0
  0
ARC
  5
4984
  8
YODOROGO
 10
30254.34774982791
 20
1807.864609233261
 30
0.0
 40
381.88686420564721
 50
213.96111677667841
 51
264.47872074317792
  0
LINE
  5
4985
  8
YODOROGO
 10
28793.60434129191
 20
1819.7494964292871
 30
0.0
 11
28433.60434129191
 21
1819.7494964292871
 31
0.0
  0
LINE
  5
4986
  8
YODOROGO
 10
28513.60434129191
 20
1427.749496429288
 30
0.0
 11
28793.60434129191
 21
1427.749496429288
 31
0.0
  0
LINE
  5
4987
  8
YODOROGO
 10
28729.604341291921
 20
1923.7494964292871
 30
0.0
 11
28497.60434129191
 21
1923.7494964292871
 31
0.0
  0
LINE
  5
4988
  8
YODOROGO
 10
28585.604341291921
 20
2027.749496429288
 30
0.0
 11
28657.604341291921
 21
2027.749496429288
 31
0.0
  0
LINE
  5
4989
  8
YODOROGO
 10
28433.60434129191
 20
1707.749496429288
 30
0.0
 11
28433.60434129191
 21
1507.749496429288
 31
0.0
  0
LINE
  5
498A
  8
YODOROGO
 10
28497.60434129191
 20
1563.7494964292871
 30
0.0
 11
28497.60434129191
 21
1707.749496429288
 31
0.0
  0
LINE
  5
498B
  8
YODOROGO
 10
28585.604341291921
 20
1747.74949642929
 30
0.0
 11
28585.604341291921
 21
1547.749496429288
 31
0.0
  0
LINE
  5
498C
  8
YODOROGO
 10
27857.604341291921
 20
1683.749496429288
 30
0.0
 11
27777.604341291921
 21
1619.9724140445701
 31
0.0
  0
LINE
  5
498D
  8
YODOROGO
 10
27937.604341291921
 20
1619.9724140445701
 30
0.0
 11
27857.604341291921
 21
1683.749496429288
 31
0.0
  0
LINE
  5
498E
  8
YODOROGO
 10
27857.604341291921
 20
1707.749496429288
 30
0.0
 11
27937.604341291921
 21
1643.9724140445701
 31
0.0
  0
LINE
  5
498F
  8
YODOROGO
 10
27777.604341291921
 20
1643.9724140445701
 30
0.0
 11
27857.604341291921
 21
1707.749496429288
 31
0.0
  0
LINE
  5
4990
  8
YODOROGO
 10
28040.913204016892
 20
1659.749496429288
 30
0.0
 11
28040.913204016892
 21
1683.7494964292871
 31
0.0
  0
LINE
  5
4991
  8
YODOROGO
 10
27977.604341291921
 20
1683.7494964292871
 30
0.0
 11
27977.604341291921
 21
1667.749496429285
 31
0.0
  0
LINE
  5
4992
  8
YODOROGO
 10
28098.135520230931
 20
1707.749496429288
 30
0.0
 11
28098.135520230931
 21
1655.5036372746561
 31
0.0
1001
AUTOCAD_POSTSCRIPT_FIGURE
1002
{
1000
PSFILL
1000
Grayscale
1000
Grayscale
1070
   100
1002
}
  0
LINE
  5
4993
  8
YODOROGO
 10
28082.135520230921
 20
1655.5036372746561
 30
0.0
 11
28082.135520230921
 21
1707.749496429288
 31
0.0
1001
AUTOCAD_POSTSCRIPT_FIGURE
1002
{
1000
PSFILL
1000
Grayscale
1000
Grayscale
1070
   100
1002
}
  0
LINE
  5
4994
  8
YODOROGO
 10
27809.604341291921
 20
1608.771904043258
 30
0.0
 11
27809.604341291921
 21
1632.771904043258
 31
0.0
  0
LINE
  5
4995
  8
YODOROGO
 10
27905.604341291921
 20
1608.771904043258
 30
0.0
 11
27809.604341291921
 21
1608.771904043258
 31
0.0
  0
LINE
  5
4996
  8
YODOROGO
 10
27905.604341291921
 20
1632.771904043258
 30
0.0
 11
27905.604341291921
 21
1608.771904043258
 31
0.0
  0
LINE
  5
4997
  8
YODOROGO
 10
27809.604341291921
 20
1632.771904043258
 30
0.0
 11
27905.604341291921
 21
1632.771904043258
 31
0.0
  0
LINE
  5
4998
  8
YODOROGO
 10
27824.509588915738
 20
1568.5028573704751
 30
0.0
 11
27785.604341291921
 21
1475.7494964292871
 31
0.0
1001
AUTOCAD_POSTSCRIPT_FIGURE
1002
{
1000
PSFILL
1000
Grayscale
1000
Grayscale
1070
   100
1002
}
  0
LINE
  5
4999
  8
YODOROGO
 10
27777.604341291921
 20
1568.5028573704751
 30
0.0
 11
27824.509588915738
 21
1568.5028573704751
 31
0.0
1001
AUTOCAD_POSTSCRIPT_FIGURE
1002
{
1000
PSFILL
1000
Grayscale
1000
Grayscale
1070
   100
1002
}
  0
LINE
  5
499A
  8
YODOROGO
 10
27777.604341291921
 20
1588.5028573704751
 30
0.0
 11
27777.604341291921
 21
1568.5028573704751
 31
0.0
1001
AUTOCAD_POSTSCRIPT_FIGURE
1002
{
1000
PSFILL
1000
Grayscale
1000
Grayscale
1070
   100
1002
}
  0
LINE
  5
499B
  8
YODOROGO
 10
27937.604341291921
 20
1588.5028573704751
 30
0.0
 11
27777.604341291921
 21
1588.5028573704751
 31
0.0
1001
AUTOCAD_POSTSCRIPT_FIGURE
1002
{
1000
PSFILL
1000
Grayscale
1000
Grayscale
1070
   100
1002
}
  0
LINE
  5
499C
  8
YODOROGO
 10
27937.604341291921
 20
1568.5028573704751
 30
0.0
 11
27937.604341291921
 21
1588.5028573704751
 31
0.0
1001
AUTOCAD_POSTSCRIPT_FIGURE
1002
{
1000
PSFILL
1000
Grayscale
1000
Grayscale
1070
   100
1002
}
  0
LINE
  5
499D
  8
YODOROGO
 10
27844.509588915738
 20
1568.5028573704751
 30
0.0
 11
27937.604341291921
 21
1568.5028573704751
 31
0.0
1001
AUTOCAD_POSTSCRIPT_FIGURE
1002
{
1000
PSFILL
1000
Grayscale
1000
Grayscale
1070
   100
1002
}
  0
LINE
  5
499E
  8
YODOROGO
 10
27815.546718284771
 20
1495.7494964292871
 30
0.0
 11
27844.509588915738
 21
1568.5028573704751
 31
0.0
1001
AUTOCAD_POSTSCRIPT_FIGURE
1002
{
1000
PSFILL
1000
Grayscale
1000
Grayscale
1070
   100
1002
}
  0
LINE
  5
499F
  8
YODOROGO
 10
27902.054790808648
 20
1495.7494964292871
 30
0.0
 11
27815.546718284771
 21
1495.7494964292871
 31
0.0
1001
AUTOCAD_POSTSCRIPT_FIGURE
1002
{
1000
PSFILL
1000
Grayscale
1000
Grayscale
1070
   100
1002
}
  0
LINE
  5
49A0
  8
YODOROGO
 10
27885.065004790951
 20
1536.2338106976929
 30
0.0
 11
27902.054790808648
 21
1495.7494964292871
 31
0.0
1001
AUTOCAD_POSTSCRIPT_FIGURE
1002
{
1000
PSFILL
1000
Grayscale
1000
Grayscale
1070
   100
1002
}
  0
LINE
  5
49A1
  8
YODOROGO
 10
27901.065004790951
 20
1536.2338106976929
 30
0.0
 11
27885.065004790951
 21
1536.2338106976929
 31
0.0
1001
AUTOCAD_POSTSCRIPT_FIGURE
1002
{
1000
PSFILL
1000
Grayscale
1000
Grayscale
1070
   100
1002
}
  0
LINE
  5
49A2
  8
YODOROGO
 10
27929.604341291921
 20
1475.7494964292871
 30
0.0
 11
27901.065004790951
 21
1536.2338106976929
 31
0.0
1001
AUTOCAD_POSTSCRIPT_FIGURE
1002
{
1000
PSFILL
1000
Grayscale
1000
Grayscale
1070
   100
1002
}
  0
LINE
  5
49A3
  8
YODOROGO
 10
27785.604341291921
 20
1475.7494964292871
 30
0.0
 11
27929.604341291921
 21
1475.7494964292871
 31
0.0
1001
AUTOCAD_POSTSCRIPT_FIGURE
1002
{
1000
PSFILL
1000
Grayscale
1000
Grayscale
1070
   100
1002
}
  0
LINE
  5
49A4
  8
YODOROGO
 10
27777.604341291921
 20
1619.9724140445701
 30
0.0
 11
27777.604341291921
 21
1643.9724140445701
 31
0.0
  0
LINE
  5
49A5
  8
YODOROGO
 10
27937.604341291921
 20
1643.9724140445701
 30
0.0
 11
27937.604341291921
 21
1619.9724140445701
 31
0.0
  0
ARC
  5
49A6
  8
YODOROGO
 10
28225.940442146959
 20
1600.877765325326
 30
0.0
 40
175.9999999999998
 50
280.3644312771313
 51
3.5414836592180561
  0
ARC
  5
49A7
  8
YODOROGO
 10
28235.756030759301
 20
1633.5978069619041
 30
0.0
 40
111.9999999999982
 50
281.24905825041549
 51
348.75094174958321
  0
LINE
  5
49A8
  8
YODOROGO
 10
28257.604341291921
 20
1523.7494964292871
 30
0.0
 11
28257.604341291921
 21
1427.749496429288
 31
0.0
  0
LINE
  5
49A9
  8
YODOROGO
 10
28020.088903736909
 20
1610.650565061914
 30
0.0
 11
28040.913204016892
 21
1659.749496429288
 31
0.0
  0
LINE
  5
49AA
  8
YODOROGO
 10
28041.604341291921
 20
1583.120489948401
 30
0.0
 11
28020.088903736909
 21
1610.650565061914
 31
0.0
  0
LINE
  5
49AB
  8
YODOROGO
 10
28041.604341291921
 20
1563.120489948398
 30
0.0
 11
28041.604341291921
 21
1583.120489948401
 31
0.0
  0
LINE
  5
49AC
  8
YODOROGO
 10
28017.604341291921
 20
1585.2370637495301
 30
0.0
 11
28041.604341291921
 21
1563.120489948398
 31
0.0
  0
LINE
  5
49AD
  8
YODOROGO
 10
28017.604341291921
 20
1475.7494964292871
 30
0.0
 11
28017.604341291921
 21
1585.2370637495301
 31
0.0
  0
LINE
  5
49AE
  8
YODOROGO
 10
28001.604341291921
 20
1475.7494964292871
 30
0.0
 11
28017.604341291921
 21
1475.7494964292871
 31
0.0
  0
LINE
  5
49AF
  8
YODOROGO
 10
28001.604341291921
 20
1580.0053496897469
 30
0.0
 11
28001.604341291921
 21
1475.7494964292871
 31
0.0
  0
LINE
  5
49B0
  8
YODOROGO
 10
27977.604341291921
 20
1532.7680790334291
 30
0.0
 11
28001.604341291921
 21
1580.0053496897469
 31
0.0
  0
LINE
  5
49B1
  8
YODOROGO
 10
27977.604341291921
 20
1556.76807903343
 30
0.0
 11
27977.604341291921
 21
1532.7680790334291
 31
0.0
  0
LINE
  5
49B2
  8
YODOROGO
 10
28025.828774291349
 20
1667.749496429285
 30
0.0
 11
27977.604341291921
 21
1556.76807903343
 31
0.0
  0
LINE
  5
49B3
  8
YODOROGO
 10
27977.604341291921
 20
1667.749496429285
 30
0.0
 11
28025.828774291349
 21
1667.749496429285
 31
0.0
  0
LINE
  5
49B4
  8
YODOROGO
 10
28050.135520230899
 20
1655.5036372746561
 30
0.0
 11
28082.135520230921
 21
1655.5036372746561
 31
0.0
1001
AUTOCAD_POSTSCRIPT_FIGURE
1002
{
1000
PSFILL
1000
Grayscale
1000
Grayscale
1070
   100
1002
}
  0
LINE
  5
49B5
  8
YODOROGO
 10
28050.135520230899
 20
1631.5036372746561
 30
0.0
 11
28050.135520230899
 21
1655.5036372746561
 31
0.0
1001
AUTOCAD_POSTSCRIPT_FIGURE
1002
{
1000
PSFILL
1000
Grayscale
1000
Grayscale
1070
   100
1002
}
  0
LINE
  5
49B6
  8
YODOROGO
 10
28082.135520230921
 20
1631.5036372746561
 30
0.0
 11
28050.135520230899
 21
1631.5036372746561
 31
0.0
1001
AUTOCAD_POSTSCRIPT_FIGURE
1002
{
1000
PSFILL
1000
Grayscale
1000
Grayscale
1070
   100
1002
}
  0
LINE
  5
49B7
  8
YODOROGO
 10
28082.135520230921
 20
1499.749496429288
 30
0.0
 11
28082.135520230921
 21
1631.5036372746561
 31
0.0
1001
AUTOCAD_POSTSCRIPT_FIGURE
1002
{
1000
PSFILL
1000
Grayscale
1000
Grayscale
1070
   100
1002
}
  0
LINE
  5
49B8
  8
YODOROGO
 10
28050.135520230921
 20
1499.749496429288
 30
0.0
 11
28082.135520230921
 21
1499.749496429288
 31
0.0
1001
AUTOCAD_POSTSCRIPT_FIGURE
1002
{
1000
PSFILL
1000
Grayscale
1000
Grayscale
1070
   100
1002
}
  0
LINE
  5
49B9
  8
YODOROGO
 10
28050.135520230921
 20
1475.7494964292871
 30
0.0
 11
28050.135520230921
 21
1499.749496429288
 31
0.0
1001
AUTOCAD_POSTSCRIPT_FIGURE
1002
{
1000
PSFILL
1000
Grayscale
1000
Grayscale
1070
   100
1002
}
  0
LINE
  5
49BA
  8
YODOROGO
 10
28137.604341291921
 20
1475.7494964292871
 30
0.0
 11
28050.135520230921
 21
1475.7494964292871
 31
0.0
1001
AUTOCAD_POSTSCRIPT_FIGURE
1002
{
1000
PSFILL
1000
Grayscale
1000
Grayscale
1070
   100
1002
}
  0
LINE
  5
49BB
  8
YODOROGO
 10
28137.604341291921
 20
1499.749496429288
 30
0.0
 11
28137.604341291921
 21
1475.7494964292871
 31
0.0
1001
AUTOCAD_POSTSCRIPT_FIGURE
1002
{
1000
PSFILL
1000
Grayscale
1000
Grayscale
1070
   100
1002
}
  0
LINE
  5
49BC
  8
YODOROGO
 10
28098.135520230931
 20
1499.749496429288
 30
0.0
 11
28137.604341291921
 21
1499.749496429288
 31
0.0
1001
AUTOCAD_POSTSCRIPT_FIGURE
1002
{
1000
PSFILL
1000
Grayscale
1000
Grayscale
1070
   100
1002
}
  0
LINE
  5
49BD
  8
YODOROGO
 10
28098.135520230931
 20
1631.5036372746561
 30
0.0
 11
28098.135520230931
 21
1499.749496429288
 31
0.0
1001
AUTOCAD_POSTSCRIPT_FIGURE
1002
{
1000
PSFILL
1000
Grayscale
1000
Grayscale
1070
   100
1002
}
  0
LINE
  5
49BE
  8
YODOROGO
 10
28137.604341291921
 20
1631.5036372746561
 30
0.0
 11
28098.135520230931
 21
1631.5036372746561
 31
0.0
1001
AUTOCAD_POSTSCRIPT_FIGURE
1002
{
1000
PSFILL
1000
Grayscale
1000
Grayscale
1070
   100
1002
}
  0
LINE
  5
49BF
  8
YODOROGO
 10
28137.604341291921
 20
1655.5036372746561
 30
0.0
 11
28137.604341291921
 21
1631.5036372746561
 31
0.0
1001
AUTOCAD_POSTSCRIPT_FIGURE
1002
{
1000
PSFILL
1000
Grayscale
1000
Grayscale
1070
   100
1002
}
  0
LINE
  5
49C0
  8
YODOROGO
 10
28098.135520230931
 20
1655.5036372746561
 30
0.0
 11
28137.604341291921
 21
1655.5036372746561
 31
0.0
1001
AUTOCAD_POSTSCRIPT_FIGURE
1002
{
1000
PSFILL
1000
Grayscale
1000
Grayscale
1070
   100
1002
}
  0
LINE
  5
49C1
  8
YODOROGO
 10
28401.60434129191
 20
1667.749496429288
 30
0.0
 11
28345.604341291921
 21
1667.749496429288
 31
0.0
  0
LINE
  5
49C2
  8
YODOROGO
 10
28401.60434129191
 20
1611.749496429288
 30
0.0
 11
28401.60434129191
 21
1667.749496429288
 31
0.0
  0
LINE
  5
49C3
  8
YODOROGO
 10
28345.604341291921
 20
1667.749496429288
 30
0.0
 11
28345.604341291921
 21
1611.749496429288
 31
0.0
  0
ARC
  5
49C4
  8
YODOROGO
 10
28513.60434129191
 20
1507.749496429288
 30
0.0
 40
80.0
 50
180.0
 51
270.0
  0
ARC
  5
49C5
  8
YODOROGO
 10
28537.604341291921
 20
1563.7494964292871
 30
0.0
 40
40.0
 50
180.0
 51
270.0
  0
LINE
  5
49C6
  8
YODOROGO
 10
28561.604341291932
 20
1523.7494964292871
 30
0.0
 11
28537.604341291921
 21
1523.7494964292871
 31
0.0
  0
ARC
  5
49C7
  8
YODOROGO
 10
28561.604341291932
 20
1547.749496429285
 30
0.0
 40
23.999999999996358
 50
270.0
 51
0.0000000000054281
  0
LINE
  5
49C8
  8
YODOROGO
 10
27801.604341291921
 20
1890.786580793706
 30
0.0
 11
27777.604341291921
 21
1843.776747951672
 31
0.0
1001
AUTOCAD_POSTSCRIPT_FIGURE
1002
{
1000
PSFILL
1000
Grayscale
1000
Grayscale
1070
   100
1002
}
  0
LINE
  5
49C9
  8
YODOROGO
 10
27801.604341291921
 20
1747.749496429286
 30
0.0
 11
27801.604341291921
 21
1890.786580793706
 31
0.0
1001
AUTOCAD_POSTSCRIPT_FIGURE
1002
{
1000
PSFILL
1000
Grayscale
1000
Grayscale
1070
   100
1002
}
  0
LINE
  5
49CA
  8
YODOROGO
 10
27817.604341291921
 20
1747.749496429286
 30
0.0
 11
27801.604341291921
 21
1747.749496429286
 31
0.0
1001
AUTOCAD_POSTSCRIPT_FIGURE
1002
{
1000
PSFILL
1000
Grayscale
1000
Grayscale
1070
   100
1002
}
  0
LINE
  5
49CB
  8
YODOROGO
 10
27817.604341291921
 20
1893.7713320852661
 30
0.0
 11
27817.604341291921
 21
1747.749496429286
 31
0.0
1001
AUTOCAD_POSTSCRIPT_FIGURE
1002
{
1000
PSFILL
1000
Grayscale
1000
Grayscale
1070
   100
1002
}
  0
LINE
  5
49CC
  8
YODOROGO
 10
27841.604341291921
 20
1867.6547582841361
 30
0.0
 11
27817.604341291921
 21
1893.7713320852661
 31
0.0
1001
AUTOCAD_POSTSCRIPT_FIGURE
1002
{
1000
PSFILL
1000
Grayscale
1000
Grayscale
1070
   100
1002
}
  0
LINE
  5
49CD
  8
YODOROGO
 10
27841.604341291921
 20
1883.6547582841361
 30
0.0
 11
27841.604341291921
 21
1867.6547582841361
 31
0.0
1001
AUTOCAD_POSTSCRIPT_FIGURE
1002
{
1000
PSFILL
1000
Grayscale
1000
Grayscale
1070
   100
1002
}
  0
LINE
  5
49CE
  8
YODOROGO
 10
27817.604341291921
 20
1917.7713320852649
 30
0.0
 11
27841.604341291921
 21
1883.6547582841361
 31
0.0
1001
AUTOCAD_POSTSCRIPT_FIGURE
1002
{
1000
PSFILL
1000
Grayscale
1000
Grayscale
1070
   100
1002
}
  0
LINE
  5
49CF
  8
YODOROGO
 10
27817.604341291921
 20
1939.749496429288
 30
0.0
 11
27817.604341291921
 21
1917.7713320852649
 31
0.0
1001
AUTOCAD_POSTSCRIPT_FIGURE
1002
{
1000
PSFILL
1000
Grayscale
1000
Grayscale
1070
   100
1002
}
  0
LINE
  5
49D0
  8
YODOROGO
 10
27889.604341291921
 20
1939.749496429288
 30
0.0
 11
27817.604341291921
 21
1939.749496429288
 31
0.0
1001
AUTOCAD_POSTSCRIPT_FIGURE
1002
{
1000
PSFILL
1000
Grayscale
1000
Grayscale
1070
   100
1002
}
  0
LINE
  5
49D1
  8
YODOROGO
 10
27889.604341291921
 20
1900.5683489363
 30
0.0
 11
27889.604341291921
 21
1939.749496429288
 31
0.0
1001
AUTOCAD_POSTSCRIPT_FIGURE
1002
{
1000
PSFILL
1000
Grayscale
1000
Grayscale
1070
   100
1002
}
  0
LINE
  5
49D2
  8
YODOROGO
 10
27857.604341291921
 20
1900.5683489363
 30
0.0
 11
27889.604341291921
 21
1900.5683489363
 31
0.0
1001
AUTOCAD_POSTSCRIPT_FIGURE
1002
{
1000
PSFILL
1000
Grayscale
1000
Grayscale
1070
   100
1002
}
  0
LINE
  5
49D3
  8
YODOROGO
 10
27857.604341291921
 20
1884.568348936298
 30
0.0
 11
27857.604341291921
 21
1900.5683489363
 31
0.0
1001
AUTOCAD_POSTSCRIPT_FIGURE
1002
{
1000
PSFILL
1000
Grayscale
1000
Grayscale
1070
   100
1002
}
  0
LINE
  5
49D4
  8
YODOROGO
 10
27889.604341291921
 20
1884.568348936298
 30
0.0
 11
27857.604341291921
 21
1884.568348936298
 31
0.0
1001
AUTOCAD_POSTSCRIPT_FIGURE
1002
{
1000
PSFILL
1000
Grayscale
1000
Grayscale
1070
   100
1002
}
  0
LINE
  5
49D5
  8
YODOROGO
 10
27889.604341291921
 20
1879.6191779644371
 30
0.0
 11
27889.604341291921
 21
1884.568348936298
 31
0.0
1001
AUTOCAD_POSTSCRIPT_FIGURE
1002
{
1000
PSFILL
1000
Grayscale
1000
Grayscale
1070
   100
1002
}
  0
LINE
  5
49D6
  8
YODOROGO
 10
27849.604341291921
 20
1812.974981161417
 30
0.0
 11
27889.604341291921
 21
1879.6191779644371
 31
0.0
1001
AUTOCAD_POSTSCRIPT_FIGURE
1002
{
1000
PSFILL
1000
Grayscale
1000
Grayscale
1070
   100
1002
}
  0
LINE
  5
49D7
  8
YODOROGO
 10
27849.604341291921
 20
1796.9749811614161
 30
0.0
 11
27849.604341291921
 21
1812.974981161417
 31
0.0
1001
AUTOCAD_POSTSCRIPT_FIGURE
1002
{
1000
PSFILL
1000
Grayscale
1000
Grayscale
1070
   100
1002
}
  0
LINE
  5
49D8
  8
YODOROGO
 10
27889.604341291921
 20
1847.6191779644359
 30
0.0
 11
27849.604341291921
 21
1796.9749811614161
 31
0.0
1001
AUTOCAD_POSTSCRIPT_FIGURE
1002
{
1000
PSFILL
1000
Grayscale
1000
Grayscale
1070
   100
1002
}
  0
LINE
  5
49D9
  8
YODOROGO
 10
27889.604341291921
 20
1747.749496429286
 30
0.0
 11
27889.604341291921
 21
1847.6191779644359
 31
0.0
1001
AUTOCAD_POSTSCRIPT_FIGURE
1002
{
1000
PSFILL
1000
Grayscale
1000
Grayscale
1070
   100
1002
}
  0
LINE
  5
49DA
  8
YODOROGO
 10
27905.604341291921
 20
1747.749496429286
 30
0.0
 11
27889.604341291921
 21
1747.749496429286
 31
0.0
1001
AUTOCAD_POSTSCRIPT_FIGURE
1002
{
1000
PSFILL
1000
Grayscale
1000
Grayscale
1070
   100
1002
}
  0
LINE
  5
49DB
  8
YODOROGO
 10
27905.604341291921
 20
1849.409012158806
 30
0.0
 11
27905.604341291921
 21
1747.749496429286
 31
0.0
1001
AUTOCAD_POSTSCRIPT_FIGURE
1002
{
1000
PSFILL
1000
Grayscale
1000
Grayscale
1070
   100
1002
}
  0
LINE
  5
49DC
  8
YODOROGO
 10
27937.604341291921
 20
1796.9749811614161
 30
0.0
 11
27905.604341291921
 21
1849.409012158806
 31
0.0
1001
AUTOCAD_POSTSCRIPT_FIGURE
1002
{
1000
PSFILL
1000
Grayscale
1000
Grayscale
1070
   100
1002
}
  0
LINE
  5
49DD
  8
YODOROGO
 10
27937.604341291921
 20
1812.974981161417
 30
0.0
 11
27937.604341291921
 21
1796.9749811614161
 31
0.0
1001
AUTOCAD_POSTSCRIPT_FIGURE
1002
{
1000
PSFILL
1000
Grayscale
1000
Grayscale
1070
   100
1002
}
  0
LINE
  5
49DE
  8
YODOROGO
 10
27905.604341291921
 20
1881.4090121588081
 30
0.0
 11
27937.604341291921
 21
1812.974981161417
 31
0.0
1001
AUTOCAD_POSTSCRIPT_FIGURE
1002
{
1000
PSFILL
1000
Grayscale
1000
Grayscale
1070
   100
1002
}
  0
LINE
  5
49DF
  8
YODOROGO
 10
27905.604341291921
 20
1884.5683489363
 30
0.0
 11
27905.604341291921
 21
1881.4090121588081
 31
0.0
1001
AUTOCAD_POSTSCRIPT_FIGURE
1002
{
1000
PSFILL
1000
Grayscale
1000
Grayscale
1070
   100
1002
}
  0
LINE
  5
49E0
  8
YODOROGO
 10
27937.604341291921
 20
1884.568348936298
 30
0.0
 11
27905.604341291921
 21
1884.5683489363
 31
0.0
1001
AUTOCAD_POSTSCRIPT_FIGURE
1002
{
1000
PSFILL
1000
Grayscale
1000
Grayscale
1070
   100
1002
}
  0
LINE
  5
49E1
  8
YODOROGO
 10
27937.604341291921
 20
1900.5683489363
 30
0.0
 11
27937.604341291921
 21
1884.568348936298
 31
0.0
1001
AUTOCAD_POSTSCRIPT_FIGURE
1002
{
1000
PSFILL
1000
Grayscale
1000
Grayscale
1070
   100
1002
}
  0
LINE
  5
49E2
  8
YODOROGO
 10
27905.604341291921
 20
1900.5683489363
 30
0.0
 11
27937.604341291921
 21
1900.5683489363
 31
0.0
1001
AUTOCAD_POSTSCRIPT_FIGURE
1002
{
1000
PSFILL
1000
Grayscale
1000
Grayscale
1070
   100
1002
}
  0
LINE
  5
49E3
  8
YODOROGO
 10
27905.604341291921
 20
1939.749496429288
 30
0.0
 11
27905.604341291921
 21
1900.5683489363
 31
0.0
1001
AUTOCAD_POSTSCRIPT_FIGURE
1002
{
1000
PSFILL
1000
Grayscale
1000
Grayscale
1070
   100
1002
}
  0
LINE
  5
49E4
  8
YODOROGO
 10
27937.604341291921
 20
1939.749496429288
 30
0.0
 11
27905.604341291921
 21
1939.749496429288
 31
0.0
1001
AUTOCAD_POSTSCRIPT_FIGURE
1002
{
1000
PSFILL
1000
Grayscale
1000
Grayscale
1070
   100
1002
}
  0
LINE
  5
49E5
  8
YODOROGO
 10
27937.604341291921
 20
1955.7494964292871
 30
0.0
 11
27937.604341291921
 21
1939.749496429288
 31
0.0
1001
AUTOCAD_POSTSCRIPT_FIGURE
1002
{
1000
PSFILL
1000
Grayscale
1000
Grayscale
1070
   100
1002
}
  0
LINE
  5
49E6
  8
YODOROGO
 10
27905.604341291921
 20
1955.7494964292871
 30
0.0
 11
27937.604341291921
 21
1955.7494964292871
 31
0.0
1001
AUTOCAD_POSTSCRIPT_FIGURE
1002
{
1000
PSFILL
1000
Grayscale
1000
Grayscale
1070
   100
1002
}
  0
LINE
  5
49E7
  8
YODOROGO
 10
27905.604341291921
 20
1979.749496429288
 30
0.0
 11
27905.604341291921
 21
1955.7494964292871
 31
0.0
1001
AUTOCAD_POSTSCRIPT_FIGURE
1002
{
1000
PSFILL
1000
Grayscale
1000
Grayscale
1070
   100
1002
}
  0
LINE
  5
49E8
  8
YODOROGO
 10
27889.604341291921
 20
1979.749496429288
 30
0.0
 11
27905.604341291921
 21
1979.749496429288
 31
0.0
1001
AUTOCAD_POSTSCRIPT_FIGURE
1002
{
1000
PSFILL
1000
Grayscale
1000
Grayscale
1070
   100
1002
}
  0
LINE
  5
49E9
  8
YODOROGO
 10
27889.604341291921
 20
1955.7494964292871
 30
0.0
 11
27889.604341291921
 21
1979.749496429288
 31
0.0
1001
AUTOCAD_POSTSCRIPT_FIGURE
1002
{
1000
PSFILL
1000
Grayscale
1000
Grayscale
1070
   100
1002
}
  0
LINE
  5
49EA
  8
YODOROGO
 10
27865.604341291921
 20
1955.7494964292871
 30
0.0
 11
27889.604341291921
 21
1955.7494964292871
 31
0.0
1001
AUTOCAD_POSTSCRIPT_FIGURE
1002
{
1000
PSFILL
1000
Grayscale
1000
Grayscale
1070
   100
1002
}
  0
LINE
  5
49EB
  8
YODOROGO
 10
27865.604341291921
 20
1979.749496429288
 30
0.0
 11
27865.604341291921
 21
1955.7494964292871
 31
0.0
1001
AUTOCAD_POSTSCRIPT_FIGURE
1002
{
1000
PSFILL
1000
Grayscale
1000
Grayscale
1070
   100
1002
}
  0
LINE
  5
49EC
  8
YODOROGO
 10
27849.604341291921
 20
1979.749496429288
 30
0.0
 11
27865.604341291921
 21
1979.749496429288
 31
0.0
1001
AUTOCAD_POSTSCRIPT_FIGURE
1002
{
1000
PSFILL
1000
Grayscale
1000
Grayscale
1070
   100
1002
}
  0
LINE
  5
49ED
  8
YODOROGO
 10
27849.604341291921
 20
1955.7494964292871
 30
0.0
 11
27849.604341291921
 21
1979.749496429288
 31
0.0
1001
AUTOCAD_POSTSCRIPT_FIGURE
1002
{
1000
PSFILL
1000
Grayscale
1000
Grayscale
1070
   100
1002
}
  0
LINE
  5
49EE
  8
YODOROGO
 10
27817.604341291921
 20
1955.7494964292871
 30
0.0
 11
27849.604341291921
 21
1955.7494964292871
 31
0.0
1001
AUTOCAD_POSTSCRIPT_FIGURE
1002
{
1000
PSFILL
1000
Grayscale
1000
Grayscale
1070
   100
1002
}
  0
LINE
  5
49EF
  8
YODOROGO
 10
27817.604341291921
 20
1979.749496429288
 30
0.0
 11
27817.604341291921
 21
1955.7494964292871
 31
0.0
1001
AUTOCAD_POSTSCRIPT_FIGURE
1002
{
1000
PSFILL
1000
Grayscale
1000
Grayscale
1070
   100
1002
}
  0
LINE
  5
49F0
  8
YODOROGO
 10
27801.604341291921
 20
1979.749496429288
 30
0.0
 11
27817.604341291921
 21
1979.749496429288
 31
0.0
1001
AUTOCAD_POSTSCRIPT_FIGURE
1002
{
1000
PSFILL
1000
Grayscale
1000
Grayscale
1070
   100
1002
}
  0
LINE
  5
49F1
  8
YODOROGO
 10
27801.604341291921
 20
1955.7494964292871
 30
0.0
 11
27801.604341291921
 21
1979.749496429288
 31
0.0
1001
AUTOCAD_POSTSCRIPT_FIGURE
1002
{
1000
PSFILL
1000
Grayscale
1000
Grayscale
1070
   100
1002
}
  0
LINE
  5
49F2
  8
YODOROGO
 10
27777.604341291921
 20
1955.7494964292871
 30
0.0
 11
27801.604341291921
 21
1955.7494964292871
 31
0.0
1001
AUTOCAD_POSTSCRIPT_FIGURE
1002
{
1000
PSFILL
1000
Grayscale
1000
Grayscale
1070
   100
1002
}
  0
LINE
  5
49F3
  8
YODOROGO
 10
27777.604341291921
 20
1939.749496429288
 30
0.0
 11
27777.604341291921
 21
1955.7494964292871
 31
0.0
1001
AUTOCAD_POSTSCRIPT_FIGURE
1002
{
1000
PSFILL
1000
Grayscale
1000
Grayscale
1070
   100
1002
}
  0
LINE
  5
49F4
  8
YODOROGO
 10
27801.604341291921
 20
1939.749496429288
 30
0.0
 11
27777.604341291921
 21
1939.749496429288
 31
0.0
1001
AUTOCAD_POSTSCRIPT_FIGURE
1002
{
1000
PSFILL
1000
Grayscale
1000
Grayscale
1070
   100
1002
}
  0
LINE
  5
49F5
  8
YODOROGO
 10
27801.604341291921
 20
1914.7865807937051
 30
0.0
 11
27801.604341291921
 21
1939.749496429288
 31
0.0
1001
AUTOCAD_POSTSCRIPT_FIGURE
1002
{
1000
PSFILL
1000
Grayscale
1000
Grayscale
1070
   100
1002
}
  0
LINE
  5
49F6
  8
YODOROGO
 10
27777.604341291921
 20
1859.776747951671
 30
0.0
 11
27801.604341291921
 21
1914.7865807937051
 31
0.0
1001
AUTOCAD_POSTSCRIPT_FIGURE
1002
{
1000
PSFILL
1000
Grayscale
1000
Grayscale
1070
   100
1002
}
  0
LINE
  5
49F7
  8
YODOROGO
 10
27777.604341291921
 20
1843.776747951672
 30
0.0
 11
27777.604341291921
 21
1859.776747951671
 31
0.0
1001
AUTOCAD_POSTSCRIPT_FIGURE
1002
{
1000
PSFILL
1000
Grayscale
1000
Grayscale
1070
   100
1002
}
  0
LINE
  5
49F8
  8
YODOROGO
 10
28257.604341291921
 20
1867.7494964292871
 30
0.0
 11
28401.60434129191
 21
1824.877625640306
 31
0.0
1001
AUTOCAD_POSTSCRIPT_FIGURE
1002
{
1000
PSFILL
1000
Grayscale
1000
Grayscale
1070
   100
1002
}
  0
LINE
  5
49F9
  8
YODOROGO
 10
28401.60434129191
 20
1752.877625640306
 30
0.0
 11
28257.604341291921
 21
1795.7494964292871
 31
0.0
1001
AUTOCAD_POSTSCRIPT_FIGURE
1002
{
1000
PSFILL
1000
Grayscale
1000
Grayscale
1070
   100
1002
}
  0
LINE
  5
49FA
  8
YODOROGO
 10
28401.60434129191
 20
1984.877625640306
 30
0.0
 11
28257.604341291921
 21
2027.749496429288
 31
0.0
1001
AUTOCAD_POSTSCRIPT_FIGURE
1002
{
1000
PSFILL
1000
Grayscale
1000
Grayscale
1070
   100
1002
}
  0
LINE
  5
49FB
  8
YODOROGO
 10
28257.604341291921
 20
1959.749496429288
 30
0.0
 11
28401.60434129191
 21
1916.8776256403071
 31
0.0
1001
AUTOCAD_POSTSCRIPT_FIGURE
1002
{
1000
PSFILL
1000
Grayscale
1000
Grayscale
1070
   100
1002
}
  0
LINE
  5
49FC
  8
YODOROGO
 10
28257.604341291921
 20
1795.7494964292871
 30
0.0
 11
28257.604341291921
 21
1867.7494964292871
 31
0.0
1001
AUTOCAD_POSTSCRIPT_FIGURE
1002
{
1000
PSFILL
1000
Grayscale
1000
Grayscale
1070
   100
1002
}
  0
LINE
  5
49FD
  8
YODOROGO
 10
28257.604341291921
 20
2027.749496429288
 30
0.0
 11
28257.604341291921
 21
1959.749496429288
 31
0.0
1001
AUTOCAD_POSTSCRIPT_FIGURE
1002
{
1000
PSFILL
1000
Grayscale
1000
Grayscale
1070
   100
1002
}
  0
LINE
  5
49FE
  8
YODOROGO
 10
28080.236320206739
 20
1939.749496429288
 30
0.0
 11
28129.60434129191
 21
1747.749496429286
 31
0.0
1001
AUTOCAD_POSTSCRIPT_FIGURE
1002
{
1000
PSFILL
1000
Grayscale
1000
Grayscale
1070
   100
1002
}
  0
LINE
  5
49FF
  8
YODOROGO
 10
27977.604341291921
 20
1939.749496429288
 30
0.0
 11
28080.236320206739
 21
1939.749496429288
 31
0.0
1001
AUTOCAD_POSTSCRIPT_FIGURE
1002
{
1000
PSFILL
1000
Grayscale
1000
Grayscale
1070
   100
1002
}
  0
LINE
  5
4A00
  8
YODOROGO
 10
27977.604341291921
 20
1955.7494964292871
 30
0.0
 11
27977.604341291921
 21
1939.749496429288
 31
0.0
1001
AUTOCAD_POSTSCRIPT_FIGURE
1002
{
1000
PSFILL
1000
Grayscale
1000
Grayscale
1070
   100
1002
}
  0
LINE
  5
4A01
  8
YODOROGO
 10
28076.60687851991
 20
1955.7494964292871
 30
0.0
 11
27977.604341291921
 21
1955.7494964292871
 31
0.0
1001
AUTOCAD_POSTSCRIPT_FIGURE
1002
{
1000
PSFILL
1000
Grayscale
1000
Grayscale
1070
   100
1002
}
  0
LINE
  5
4A02
  8
YODOROGO
 10
28071.162715989711
 20
1979.749496429288
 30
0.0
 11
28076.60687851991
 21
1955.7494964292871
 31
0.0
1001
AUTOCAD_POSTSCRIPT_FIGURE
1002
{
1000
PSFILL
1000
Grayscale
1000
Grayscale
1070
   100
1002
}
  0
LINE
  5
4A03
  8
YODOROGO
 10
28091.162715989711
 20
1979.749496429288
 30
0.0
 11
28071.162715989711
 21
1979.749496429288
 31
0.0
1001
AUTOCAD_POSTSCRIPT_FIGURE
1002
{
1000
PSFILL
1000
Grayscale
1000
Grayscale
1070
   100
1002
}
  0
LINE
  5
4A04
  8
YODOROGO
 10
28095.806878519939
 20
1955.7494964292871
 30
0.0
 11
28091.162715989711
 21
1979.749496429288
 31
0.0
1001
AUTOCAD_POSTSCRIPT_FIGURE
1002
{
1000
PSFILL
1000
Grayscale
1000
Grayscale
1070
   100
1002
}
  0
LINE
  5
4A05
  8
YODOROGO
 10
28121.604341291921
 20
1955.7494964292871
 30
0.0
 11
28095.806878519939
 21
1955.7494964292871
 31
0.0
1001
AUTOCAD_POSTSCRIPT_FIGURE
1002
{
1000
PSFILL
1000
Grayscale
1000
Grayscale
1070
   100
1002
}
  0
LINE
  5
4A06
  8
YODOROGO
 10
28121.604341291921
 20
1979.749496429288
 30
0.0
 11
28121.604341291921
 21
1955.7494964292871
 31
0.0
1001
AUTOCAD_POSTSCRIPT_FIGURE
1002
{
1000
PSFILL
1000
Grayscale
1000
Grayscale
1070
   100
1002
}
  0
LINE
  5
4A07
  8
YODOROGO
 10
28137.604341291921
 20
1979.749496429288
 30
0.0
 11
28121.604341291921
 21
1979.749496429288
 31
0.0
1001
AUTOCAD_POSTSCRIPT_FIGURE
1002
{
1000
PSFILL
1000
Grayscale
1000
Grayscale
1070
   100
1002
}
  0
LINE
  5
4A08
  8
YODOROGO
 10
28137.604341291921
 20
1955.7494964292871
 30
0.0
 11
28137.604341291921
 21
1979.749496429288
 31
0.0
1001
AUTOCAD_POSTSCRIPT_FIGURE
1002
{
1000
PSFILL
1000
Grayscale
1000
Grayscale
1070
   100
1002
}
  0
LINE
  5
4A09
  8
YODOROGO
 10
28137.604341291921
 20
1939.749496429288
 30
0.0
 11
28137.604341291921
 21
1955.7494964292871
 31
0.0
1001
AUTOCAD_POSTSCRIPT_FIGURE
1002
{
1000
PSFILL
1000
Grayscale
1000
Grayscale
1070
   100
1002
}
  0
LINE
  5
4A0A
  8
YODOROGO
 10
28098.902986873411
 20
1939.749496429288
 30
0.0
 11
28137.604341291921
 21
1939.749496429288
 31
0.0
1001
AUTOCAD_POSTSCRIPT_FIGURE
1002
{
1000
PSFILL
1000
Grayscale
1000
Grayscale
1070
   100
1002
}
  0
LINE
  5
4A0B
  8
YODOROGO
 10
28137.604341291921
 20
1747.749496429286
 30
0.0
 11
28098.902986873411
 21
1939.749496429288
 31
0.0
1001
AUTOCAD_POSTSCRIPT_FIGURE
1002
{
1000
PSFILL
1000
Grayscale
1000
Grayscale
1070
   100
1002
}
  0
LINE
  5
4A0C
  8
YODOROGO
 10
28129.60434129191
 20
1747.749496429286
 30
0.0
 11
28137.604341291921
 21
1747.749496429286
 31
0.0
1001
AUTOCAD_POSTSCRIPT_FIGURE
1002
{
1000
PSFILL
1000
Grayscale
1000
Grayscale
1070
   100
1002
}
  0
LINE
  5
4A0D
  8
YODOROGO
 10
28078.06921993379
 20
1775.7407762987939
 30
0.0
 11
27977.604341291921
 21
1747.749496429286
 31
0.0
  0
LINE
  5
4A0E
  8
YODOROGO
 10
28078.06921993379
 20
1798.6689795290731
 30
0.0
 11
28078.06921993379
 21
1775.7407762987939
 31
0.0
  0
LINE
  5
4A0F
  8
YODOROGO
 10
28033.83678061287
 20
1786.816933133767
 30
0.0
 11
28078.06921993379
 21
1798.6689795290731
 31
0.0
  0
LINE
  5
4A10
  8
YODOROGO
 10
28033.83678061287
 20
1872.5683489362989
 30
0.0
 11
28033.83678061287
 21
1786.816933133767
 31
0.0
  0
LINE
  5
4A11
  8
YODOROGO
 10
28078.06921993379
 20
1872.5683489362989
 30
0.0
 11
28033.83678061287
 21
1872.5683489362989
 31
0.0
  0
LINE
  5
4A12
  8
YODOROGO
 10
28078.06921993379
 20
1892.568348936298
 30
0.0
 11
28078.06921993379
 21
1872.5683489362989
 31
0.0
  0
LINE
  5
4A13
  8
YODOROGO
 10
27977.604341291921
 20
1892.568348936298
 30
0.0
 11
28078.06921993379
 21
1892.568348936298
 31
0.0
  0
LINE
  5
4A14
  8
YODOROGO
 10
27977.604341291921
 20
1872.5683489362989
 30
0.0
 11
27977.604341291921
 21
1892.568348936298
 31
0.0
  0
LINE
  5
4A15
  8
YODOROGO
 10
28021.836780612852
 20
1872.5683489362989
 30
0.0
 11
27977.604341291921
 21
1872.5683489362989
 31
0.0
  0
LINE
  5
4A16
  8
YODOROGO
 10
28021.836780612852
 20
1784.673339594317
 30
0.0
 11
28021.836780612852
 21
1872.5683489362989
 31
0.0
  0
LINE
  5
4A17
  8
YODOROGO
 10
27977.604341291921
 20
1771.749496429286
 30
0.0
 11
28021.836780612852
 21
1784.673339594317
 31
0.0
  0
LINE
  5
4A18
  8
YODOROGO
 10
27977.604341291921
 20
1747.749496429286
 30
0.0
 11
27977.604341291921
 21
1771.749496429286
 31
0.0
  0
LINE
  5
4A19
  8
YODOROGO
 10
28001.604341291921
 20
1707.749496429288
 30
0.0
 11
28001.604341291921
 21
1683.7494964292871
 31
0.0
  0
LINE
  5
4A1A
  8
YODOROGO
 10
28017.604341291921
 20
1707.749496429288
 30
0.0
 11
28001.604341291921
 21
1707.749496429288
 31
0.0
  0
LINE
  5
4A1B
  8
YODOROGO
 10
28017.604341291921
 20
1683.7494964292871
 30
0.0
 11
28017.604341291921
 21
1707.749496429288
 31
0.0
  0
LINE
  5
4A1C
  8
YODOROGO
 10
28040.913204016892
 20
1683.7494964292871
 30
0.0
 11
28017.604341291921
 21
1683.7494964292871
 31
0.0
  0
LINE
  5
4A1D
  8
YODOROGO
 10
28001.604341291921
 20
1683.7494964292871
 30
0.0
 11
27977.604341291921
 21
1683.7494964292871
 31
0.0
  0
LINE
  5
4A1E
  8
YODOROGO
 10
28082.135520230921
 20
1707.749496429288
 30
0.0
 11
28098.135520230931
 21
1707.749496429288
 31
0.0
1001
AUTOCAD_POSTSCRIPT_FIGURE
1002
{
1000
PSFILL
1000
Grayscale
1000
Grayscale
1070
   100
1002
}
  0
LINE
  5
4A1F
  8
YODOROGO
 10
28401.60434129191
 20
1824.877625640306
 30
0.0
 11
28401.60434129191
 21
1752.877625640306
 31
0.0
1001
AUTOCAD_POSTSCRIPT_FIGURE
1002
{
1000
PSFILL
1000
Grayscale
1000
Grayscale
1070
   100
1002
}
  0
LINE
  5
4A20
  8
YODOROGO
 10
28401.60434129191
 20
1916.8776256403071
 30
0.0
 11
28401.60434129191
 21
1984.877625640306
 31
0.0
1001
AUTOCAD_POSTSCRIPT_FIGURE
1002
{
1000
PSFILL
1000
Grayscale
1000
Grayscale
1070
   100
1002
}
  0
LINE
  5
4A21
  8
YODOROGO
 10
28433.60434129191
 20
1819.7494964292871
 30
0.0
 11
28433.60434129191
 21
1747.74949642929
 31
0.0
  0
LINE
  5
4A22
  8
YODOROGO
 10
28497.60434129191
 20
1707.749496429288
 30
0.0
 11
28433.60434129191
 21
1707.749496429288
 31
0.0
  0
LINE
  5
4A23
  8
YODOROGO
 10
28433.60434129191
 20
1747.74949642929
 30
0.0
 11
28585.604341291921
 21
1747.74949642929
 31
0.0
  0
LINE
  5
4A24
  8
YODOROGO
 10
28497.60434129191
 20
1867.7494964292871
 30
0.0
 11
28433.60434129191
 21
1867.7494964292871
 31
0.0
  0
LINE
  5
4A25
  8
YODOROGO
 10
28497.60434129191
 20
1923.7494964292871
 30
0.0
 11
28497.60434129191
 21
1867.7494964292871
 31
0.0
  0
LINE
  5
4A26
  8
YODOROGO
 10
28585.604341291921
 20
1987.7494964292871
 30
0.0
 11
28585.604341291921
 21
2027.749496429288
 31
0.0
  0
LINE
  5
4A27
  8
YODOROGO
 10
28433.60434129191
 20
1987.7494964292871
 30
0.0
 11
28585.604341291921
 21
1987.7494964292871
 31
0.0
  0
LINE
  5
4A28
  8
YODOROGO
 10
28433.60434129191
 20
1867.7494964292871
 30
0.0
 11
28433.60434129191
 21
1987.7494964292871
 31
0.0
  0
LINE
  5
4A29
  8
YODOROGO
 10
29001.60434129191
 20
2027.749496429288
 30
0.0
 11
29001.60434129191
 21
1619.749496429288
 31
0.0
  0
LINE
  5
4A2A
  8
YODOROGO
 10
29073.604341291921
 20
1579.749496429288
 30
0.0
 11
29073.604341291921
 21
2027.749496429288
 31
0.0
  0
LINE
  5
4A2B
  8
YODOROGO
 10
29261.604341291921
 20
1491.749496429286
 30
0.0
 11
29261.604341291921
 21
2007.749496429288
 31
0.0
  0
LINE
  5
4A2C
  8
YODOROGO
 10
29197.604341291921
 20
2007.749496429288
 30
0.0
 11
29197.604341291921
 21
1491.749496429286
 31
0.0
  0
LINE
  5
4A2D
  8
YODOROGO
 10
29385.604341291921
 20
2027.749496429288
 30
0.0
 11
29385.604341291921
 21
1427.749496429288
 31
0.0
  0
LINE
  5
4A2E
  8
YODOROGO
 10
29457.604341291921
 20
1427.749496429288
 30
0.0
 11
29457.604341291921
 21
2027.749496429288
 31
0.0
  0
LINE
  5
4A2F
  8
YODOROGO
 10
28657.604341291921
 20
1667.749496429288
 30
0.0
 11
28657.604341291921
 21
1747.74949642929
 31
0.0
  0
LINE
  5
4A30
  8
YODOROGO
 10
29885.604341291921
 20
1707.749496429288
 30
0.0
 11
29885.604341291921
 21
1667.749496429288
 31
0.0
  0
LINE
  5
4A31
  8
YODOROGO
 10
29885.604341291921
 20
1707.749496429288
 30
0.0
 11
29885.604341291921
 21
1667.749496429288
 31
0.0
  0
ARC
  5
4A32
  8
YODOROGO
 10
28906.911576186842
 20
1618.217864442272
 30
0.0
 40
94.705151178741644
 50
274.05244162907098
 51
0.9266642149310712
  0
ARC
  5
4A33
  8
YODOROGO
 10
28909.186170719819
 20
1592.61072861044
 30
0.0
 40
164.92042356085511
 50
271.5351210653775
 51
355.52727750585052
  0
LINE
  5
4A34
  8
YODOROGO
 10
28913.604341291921
 20
1523.7494964292871
 30
0.0
 11
28913.604341291921
 21
1427.749496429288
 31
0.0
  0
LINE
  5
4A35
  8
YODOROGO
 10
28793.60434129191
 20
1667.749496429288
 30
0.0
 11
28657.604341291921
 21
1667.749496429288
 31
0.0
  0
LINE
  5
4A36
  8
YODOROGO
 10
28793.60434129191
 20
1603.7494964292871
 30
0.0
 11
28793.60434129191
 21
1667.749496429288
 31
0.0
  0
LINE
  5
4A37
  8
YODOROGO
 10
28657.604341291921
 20
1603.7494964292871
 30
0.0
 11
28793.60434129191
 21
1603.7494964292871
 31
0.0
  0
LINE
  5
4A38
  8
YODOROGO
 10
28657.604341291921
 20
1523.7494964292871
 30
0.0
 11
28657.604341291921
 21
1603.7494964292871
 31
0.0
  0
LINE
  5
4A39
  8
YODOROGO
 10
28793.60434129191
 20
1523.7494964292871
 30
0.0
 11
28657.604341291921
 21
1523.7494964292871
 31
0.0
  0
LINE
  5
4A3A
  8
YODOROGO
 10
28793.60434129191
 20
1427.749496429288
 30
0.0
 11
28793.60434129191
 21
1523.7494964292871
 31
0.0
  0
LINE
  5
4A3B
  8
YODOROGO
 10
29197.604341291921
 20
1491.749496429286
 30
0.0
 11
29261.604341291921
 21
1491.749496429286
 31
0.0
  0
LINE
  5
4A3C
  8
YODOROGO
 10
29385.604341291921
 20
1427.749496429288
 30
0.0
 11
29457.604341291921
 21
1427.749496429288
 31
0.0
  0
LINE
  5
4A3D
  8
YODOROGO
 10
29737.604341291921
 20
1528.4414521705639
 30
0.0
 11
29737.604341291921
 21
1427.749496429288
 31
0.0
  0
LINE
  5
4A3E
  8
YODOROGO
 10
29617.604341291921
 20
1427.749496429288
 30
0.0
 11
29737.604341291921
 21
1528.4414521705639
 31
0.0
  0
LINE
  5
4A3F
  8
YODOROGO
 10
29617.604341291921
 20
1547.749496429288
 30
0.0
 11
29617.604341291921
 21
1427.749496429288
 31
0.0
  0
LINE
  5
4A40
  8
YODOROGO
 10
29712.94462869945
 20
1627.749496429288
 30
0.0
 11
29617.604341291921
 21
1547.749496429288
 31
0.0
  0
LINE
  5
4A41
  8
YODOROGO
 10
29617.604341291921
 20
1627.749496429288
 30
0.0
 11
29712.94462869945
 21
1627.749496429288
 31
0.0
  0
LINE
  5
4A42
  8
YODOROGO
 10
29617.604341291921
 20
1667.749496429288
 30
0.0
 11
29617.604341291921
 21
1627.749496429288
 31
0.0
  0
LINE
  5
4A43
  8
YODOROGO
 10
29885.604341291921
 20
1667.749496429288
 30
0.0
 11
29617.604341291921
 21
1667.749496429288
 31
0.0
  0
LINE
  5
4A44
  8
YODOROGO
 10
29917.604341291921
 20
1627.749496429288
 30
0.0
 11
29777.604341291921
 21
1627.749496429288
 31
0.0
  0
LINE
  5
4A45
  8
YODOROGO
 10
29777.604341291921
 20
1562.0054374176559
 30
0.0
 11
29771.409872985321
 21
1556.807661346234
 31
0.0
  0
LINE
  5
4A46
  8
YODOROGO
 10
29777.604341291921
 20
1627.749496429288
 30
0.0
 11
29777.604341291921
 21
1562.0054374176559
 31
0.0
  0
LINE
  5
4A47
  8
YODOROGO
 10
29737.604341291921
 20
1528.4414521705639
 30
0.0
 11
29737.604341291921
 21
1427.749496429288
 31
0.0
  0
LINE
  5
4A48
  8
YODOROGO
 10
29617.604341291921
 20
1427.749496429288
 30
0.0
 11
29737.604341291921
 21
1528.4414521705639
 31
0.0
  0
LINE
  5
4A49
  8
YODOROGO
 10
29617.604341291921
 20
1547.749496429288
 30
0.0
 11
29617.604341291921
 21
1427.749496429288
 31
0.0
  0
LINE
  5
4A4A
  8
YODOROGO
 10
29712.94462869945
 20
1627.749496429288
 30
0.0
 11
29617.604341291921
 21
1547.749496429288
 31
0.0
  0
LINE
  5
4A4B
  8
YODOROGO
 10
29617.604341291921
 20
1627.749496429288
 30
0.0
 11
29712.94462869945
 21
1627.749496429288
 31
0.0
  0
LINE
  5
4A4C
  8
YODOROGO
 10
29617.604341291921
 20
1667.749496429288
 30
0.0
 11
29617.604341291921
 21
1627.749496429288
 31
0.0
  0
LINE
  5
4A4D
  8
YODOROGO
 10
29885.604341291921
 20
1667.749496429288
 30
0.0
 11
29617.604341291921
 21
1667.749496429288
 31
0.0
  0
LINE
  5
4A4E
  8
YODOROGO
 10
28793.60434129191
 20
1747.74949642929
 30
0.0
 11
28793.60434129191
 21
1819.7494964292871
 31
0.0
  0
LINE
  5
4A4F
  8
YODOROGO
 10
28657.604341291921
 20
1747.74949642929
 30
0.0
 11
28793.60434129191
 21
1747.74949642929
 31
0.0
  0
LINE
  5
4A50
  8
YODOROGO
 10
28729.604341291921
 20
1867.7494964292871
 30
0.0
 11
28729.604341291921
 21
1923.7494964292871
 31
0.0
  0
LINE
  5
4A51
  8
YODOROGO
 10
28793.60434129191
 20
1867.7494964292871
 30
0.0
 11
28729.604341291921
 21
1867.7494964292871
 31
0.0
  0
LINE
  5
4A52
  8
YODOROGO
 10
28793.60434129191
 20
1947.749496429288
 30
0.0
 11
28793.60434129191
 21
1867.7494964292871
 31
0.0
  0
ARC
  5
4A53
  8
YODOROGO
 10
28753.60434129191
 20
1947.749496429288
 30
0.0
 40
40.0
 50
0.0
 51
90.0
  0
LINE
  5
4A54
  8
YODOROGO
 10
28657.604341291921
 20
1987.7494964292871
 30
0.0
 11
28753.60434129191
 21
1987.7494964292871
 31
0.0
  0
LINE
  5
4A55
  8
YODOROGO
 10
28657.604341291921
 20
2027.749496429288
 30
0.0
 11
28657.604341291921
 21
1987.7494964292871
 31
0.0
  0
LINE
  5
4A56
  8
YODOROGO
 10
29073.604341291921
 20
2027.749496429288
 30
0.0
 11
29001.60434129191
 21
2027.749496429288
 31
0.0
  0
LINE
  5
4A57
  8
YODOROGO
 10
29261.604341291921
 20
2007.749496429288
 30
0.0
 11
29197.604341291921
 21
2007.749496429288
 31
0.0
  0
LINE
  5
4A58
  8
YODOROGO
 10
29457.604341291921
 20
2027.749496429288
 30
0.0
 11
29385.604341291921
 21
2027.749496429288
 31
0.0
  0
LINE
  5
4A59
  8
YODOROGO
 10
29673.604341291921
 20
1707.749496429288
 30
0.0
 11
29673.604341291921
 21
1771.7494964292871
 31
0.0
1001
AUTOCAD_POSTSCRIPT_FIGURE
1002
{
1000
PSFILL
1000
Grayscale
1000
Grayscale
1070
    25
1002
}
  0
LINE
  5
4A5A
  8
YODOROGO
 10
29617.604341291921
 20
1707.749496429288
 30
0.0
 11
29673.604341291921
 21
1707.749496429288
 31
0.0
1001
AUTOCAD_POSTSCRIPT_FIGURE
1002
{
1000
PSFILL
1000
Grayscale
1000
Grayscale
1070
    25
1002
}
  0
LINE
  5
4A5B
  8
YODOROGO
 10
29617.604341291921
 20
1819.7494964292871
 30
0.0
 11
29617.604341291921
 21
1707.749496429288
 31
0.0
1001
AUTOCAD_POSTSCRIPT_FIGURE
1002
{
1000
PSFILL
1000
Grayscale
1000
Grayscale
1070
    25
1002
}
  0
LINE
  5
4A5C
  8
YODOROGO
 10
29765.604341291921
 20
1819.7494964292871
 30
0.0
 11
29617.604341291921
 21
1819.7494964292871
 31
0.0
1001
AUTOCAD_POSTSCRIPT_FIGURE
1002
{
1000
PSFILL
1000
Grayscale
1000
Grayscale
1070
    25
1002
}
  0
LINE
  5
4A5D
  8
YODOROGO
 10
29765.604341291921
 20
1859.749496429288
 30
0.0
 11
29765.604341291921
 21
1819.7494964292871
 31
0.0
1001
AUTOCAD_POSTSCRIPT_FIGURE
1002
{
1000
PSFILL
1000
Grayscale
1000
Grayscale
1070
    25
1002
}
  0
LINE
  5
4A5E
  8
YODOROGO
 10
29617.604341291921
 20
1859.749496429288
 30
0.0
 11
29765.604341291921
 21
1859.749496429288
 31
0.0
1001
AUTOCAD_POSTSCRIPT_FIGURE
1002
{
1000
PSFILL
1000
Grayscale
1000
Grayscale
1070
    25
1002
}
  0
LINE
  5
4A5F
  8
YODOROGO
 10
29617.604341291921
 20
1907.7494964292871
 30
0.0
 11
29617.604341291921
 21
1859.749496429288
 31
0.0
1001
AUTOCAD_POSTSCRIPT_FIGURE
1002
{
1000
PSFILL
1000
Grayscale
1000
Grayscale
1070
    25
1002
}
  0
LINE
  5
4A60
  8
YODOROGO
 10
29765.604341291921
 20
1907.7494964292871
 30
0.0
 11
29617.604341291921
 21
1907.7494964292871
 31
0.0
1001
AUTOCAD_POSTSCRIPT_FIGURE
1002
{
1000
PSFILL
1000
Grayscale
1000
Grayscale
1070
    25
1002
}
  0
LINE
  5
4A61
  8
YODOROGO
 10
29765.604341291921
 20
1947.749496429288
 30
0.0
 11
29765.604341291921
 21
1907.7494964292871
 31
0.0
1001
AUTOCAD_POSTSCRIPT_FIGURE
1002
{
1000
PSFILL
1000
Grayscale
1000
Grayscale
1070
    25
1002
}
  0
LINE
  5
4A62
  8
YODOROGO
 10
29617.604341291921
 20
1947.749496429288
 30
0.0
 11
29765.604341291921
 21
1947.749496429288
 31
0.0
1001
AUTOCAD_POSTSCRIPT_FIGURE
1002
{
1000
PSFILL
1000
Grayscale
1000
Grayscale
1070
    25
1002
}
  0
LINE
  5
4A63
  8
YODOROGO
 10
29617.604341291921
 20
2027.749496429288
 30
0.0
 11
29617.604341291921
 21
1947.749496429288
 31
0.0
1001
AUTOCAD_POSTSCRIPT_FIGURE
1002
{
1000
PSFILL
1000
Grayscale
1000
Grayscale
1070
    25
1002
}
  0
LINE
  5
4A64
  8
YODOROGO
 10
29665.604341291921
 20
2027.749496429288
 30
0.0
 11
29617.604341291921
 21
2027.749496429288
 31
0.0
1001
AUTOCAD_POSTSCRIPT_FIGURE
1002
{
1000
PSFILL
1000
Grayscale
1000
Grayscale
1070
    25
1002
}
  0
LINE
  5
4A65
  8
YODOROGO
 10
29665.604341291921
 20
1995.7494964292871
 30
0.0
 11
29665.604341291921
 21
2027.749496429288
 31
0.0
1001
AUTOCAD_POSTSCRIPT_FIGURE
1002
{
1000
PSFILL
1000
Grayscale
1000
Grayscale
1070
    25
1002
}
  0
LINE
  5
4A66
  8
YODOROGO
 10
29765.604341291921
 20
1995.7494964292871
 30
0.0
 11
29665.604341291921
 21
1995.7494964292871
 31
0.0
1001
AUTOCAD_POSTSCRIPT_FIGURE
1002
{
1000
PSFILL
1000
Grayscale
1000
Grayscale
1070
    25
1002
}
  0
LINE
  5
4A67
  8
YODOROGO
 10
29765.604341291921
 20
2027.749496429288
 30
0.0
 11
29765.604341291921
 21
1995.7494964292871
 31
0.0
1001
AUTOCAD_POSTSCRIPT_FIGURE
1002
{
1000
PSFILL
1000
Grayscale
1000
Grayscale
1070
    25
1002
}
  0
LINE
  5
4A68
  8
YODOROGO
 10
29829.604341291921
 20
2027.749496429288
 30
0.0
 11
29765.604341291921
 21
2027.749496429288
 31
0.0
1001
AUTOCAD_POSTSCRIPT_FIGURE
1002
{
1000
PSFILL
1000
Grayscale
1000
Grayscale
1070
    25
1002
}
  0
LINE
  5
4A69
  8
YODOROGO
 10
29829.604341291921
 20
1995.7494964292871
 30
0.0
 11
29829.604341291921
 21
2027.749496429288
 31
0.0
1001
AUTOCAD_POSTSCRIPT_FIGURE
1002
{
1000
PSFILL
1000
Grayscale
1000
Grayscale
1070
    25
1002
}
  0
LINE
  5
4A6A
  8
YODOROGO
 10
29829.604341291921
 20
1907.7494964292871
 30
0.0
 11
29829.604341291921
 21
1947.749496429288
 31
0.0
1001
AUTOCAD_POSTSCRIPT_FIGURE
1002
{
1000
PSFILL
1000
Grayscale
1000
Grayscale
1070
    25
1002
}
  0
LINE
  5
4A6B
  8
YODOROGO
 10
29829.604341291921
 20
1819.7494964292871
 30
0.0
 11
29829.604341291921
 21
1859.749496429288
 31
0.0
1001
AUTOCAD_POSTSCRIPT_FIGURE
1002
{
1000
PSFILL
1000
Grayscale
1000
Grayscale
1070
    25
1002
}
  0
LINE
  5
4A6C
  8
YODOROGO
 10
29921.60434129191
 20
1771.7494964292871
 30
0.0
 11
29921.60434129191
 21
1707.749496429288
 31
0.0
1001
AUTOCAD_POSTSCRIPT_FIGURE
1002
{
1000
PSFILL
1000
Grayscale
1000
Grayscale
1070
    25
1002
}
  0
LINE
  5
4A6D
  8
YODOROGO
 10
29829.604341291921
 20
1771.7494964292871
 30
0.0
 11
29921.60434129191
 21
1771.7494964292871
 31
0.0
1001
AUTOCAD_POSTSCRIPT_FIGURE
1002
{
1000
PSFILL
1000
Grayscale
1000
Grayscale
1070
    25
1002
}
  0
LINE
  5
4A6E
  8
YODOROGO
 10
29829.604341291921
 20
1707.749496429288
 30
0.0
 11
29829.604341291921
 21
1771.7494964292871
 31
0.0
1001
AUTOCAD_POSTSCRIPT_FIGURE
1002
{
1000
PSFILL
1000
Grayscale
1000
Grayscale
1070
    25
1002
}
  0
LINE
  5
4A6F
  8
YODOROGO
 10
29765.604341291921
 20
1707.749496429288
 30
0.0
 11
29829.604341291921
 21
1707.749496429288
 31
0.0
1001
AUTOCAD_POSTSCRIPT_FIGURE
1002
{
1000
PSFILL
1000
Grayscale
1000
Grayscale
1070
    25
1002
}
  0
LINE
  5
4A70
  8
YODOROGO
 10
29765.604341291921
 20
1771.7494964292871
 30
0.0
 11
29765.604341291921
 21
1707.749496429288
 31
0.0
1001
AUTOCAD_POSTSCRIPT_FIGURE
1002
{
1000
PSFILL
1000
Grayscale
1000
Grayscale
1070
    25
1002
}
  0
LINE
  5
4A71
  8
YODOROGO
 10
29673.604341291921
 20
1771.7494964292871
 30
0.0
 11
29765.604341291921
 21
1771.7494964292871
 31
0.0
1001
AUTOCAD_POSTSCRIPT_FIGURE
1002
{
1000
PSFILL
1000
Grayscale
1000
Grayscale
1070
    25
1002
}
  0
ARC
  5
4A72
  8
YODOROGO
 10
31059.517893357912
 20
1602.6807375155761
 30
0.0
 40
178.22128111072141
 50
281.02627495425338
 51
357.77113575573799
  0
LINE
  5
4A73
  8
YODOROGO
 10
31413.604341291921
 20
1907.7494964292871
 30
0.0
 11
31165.604341291921
 21
1907.7494964292871
 31
0.0
  0
LINE
  5
4A74
  8
YODOROGO
 10
31413.604341291921
 20
2027.749496429288
 30
0.0
 11
31165.604341291921
 21
2027.749496429288
 31
0.0
  0
LINE
  5
4A75
  8
YODOROGO
 10
31165.604341291921
 20
1963.749496429286
 30
0.0
 11
31413.604341291921
 21
1963.749496429286
 31
0.0
  0
LINE
  5
4A76
  8
YODOROGO
 10
30791.604341291921
 20
1563.7494964292871
 30
0.0
 11
30791.604341291921
 21
1755.7494964292871
 31
0.0
  0
LINE
  5
4A77
  8
YODOROGO
 10
30763.604341291921
 20
1691.749496429288
 30
0.0
 11
30763.604341291921
 21
1563.7494964292871
 31
0.0
  0
LINE
  5
4A78
  8
YODOROGO
 10
30723.604341291921
 20
1491.749496429288
 30
0.0
 11
30723.604341291921
 21
1691.749496429288
 31
0.0
  0
LINE
  5
4A79
  8
YODOROGO
 10
30899.604341291932
 20
1691.749496429288
 30
0.0
 11
30899.604341291932
 21
1491.749496429288
 31
0.0
  0
LINE
  5
4A7A
  8
YODOROGO
 10
30859.604341291932
 20
1563.7494964292871
 30
0.0
 11
30859.604341291932
 21
1691.749496429288
 31
0.0
  0
LINE
  5
4A7B
  8
YODOROGO
 10
30831.604341291921
 20
1755.7494964292871
 30
0.0
 11
30831.604341291921
 21
1563.7494964292871
 31
0.0
  0
LINE
  5
4A7C
  8
YODOROGO
 10
30973.604341291921
 20
2027.749496429288
 30
0.0
 11
30973.604341291921
 21
1467.749496429288
 31
0.0
  0
LINE
  5
4A7D
  8
YODOROGO
 10
30645.604341291921
 20
1427.749496429288
 30
0.0
 11
30645.604341291921
 21
2027.749496429288
 31
0.0
  0
LINE
  5
4A7E
  8
YODOROGO
 10
30697.604341291932
 20
1963.749496429286
 30
0.0
 11
30697.604341291932
 21
1427.749496429288
 31
0.0
  0
LINE
  5
4A7F
  8
YODOROGO
 10
30925.604341291921
 20
1547.749496429288
 30
0.0
 11
30925.604341291921
 21
1963.749496429286
 31
0.0
  0
LINE
  5
4A80
  8
YODOROGO
 10
30381.604341291932
 20
1627.749496429288
 30
0.0
 11
30381.604341291932
 21
1679.749496429288
 31
0.0
  0
LINE
  5
4A81
  8
YODOROGO
 10
30617.604341291921
 20
1679.749496429288
 30
0.0
 11
30617.604341291921
 21
1627.749496429288
 31
0.0
  0
LINE
  5
4A82
  8
YODOROGO
 10
31165.604341291921
 20
1907.7494964292871
 30
0.0
 11
31165.604341291921
 21
1635.7494964292871
 31
0.0
  0
LINE
  5
4A83
  8
YODOROGO
 10
29949.60434129191
 20
1667.749496429288
 30
0.0
 11
29949.60434129191
 21
1707.749496429288
 31
0.0
  0
LINE
  5
4A84
  8
YODOROGO
 10
29949.60434129191
 20
1667.749496429288
 30
0.0
 11
29949.60434129191
 21
1707.749496429288
 31
0.0
  0
ARC
  5
4A85
  8
YODOROGO
 10
30537.604341291921
 20
1507.749496429288
 30
0.0
 40
80.0
 50
270.0
 51
0.0
  0
LINE
  5
4A86
  8
YODOROGO
 10
30569.604341291921
 20
1599.7494964292871
 30
0.0
 11
30617.604341291921
 21
1599.7494964292871
 31
0.0
  0
LINE
  5
4A87
  8
YODOROGO
 10
30617.604341291921
 20
1627.749496429288
 30
0.0
 11
30529.604341291939
 21
1627.749496429288
 31
0.0
  0
LINE
  5
4A88
  8
YODOROGO
 10
30217.604341291921
 20
1667.749496429288
 30
0.0
 11
29949.60434129191
 21
1667.749496429288
 31
0.0
  0
LINE
  5
4A89
  8
YODOROGO
 10
30217.604341291921
 20
1627.749496429288
 30
0.0
 11
30217.604341291921
 21
1667.749496429288
 31
0.0
  0
LINE
  5
4A8A
  8
YODOROGO
 10
30017.604341291921
 20
1627.749496429288
 30
0.0
 11
30217.604341291921
 21
1627.749496429288
 31
0.0
  0
ARC
  5
4A8B
  8
YODOROGO
 10
30230.05882870136
 20
1868.885714952901
 30
0.0
 40
321.37763628522822
 50
228.6181454618993
 51
245.660289248906
  0
LINE
  5
4A8C
  8
YODOROGO
 10
30105.604341291921
 20
1603.7494964292871
 30
0.0
 11
30097.60434129195
 21
1576.0728158699001
 31
0.0
  0
LINE
  5
4A8D
  8
YODOROGO
 10
30189.604341291921
 20
1603.7494964292871
 30
0.0
 11
30105.604341291921
 21
1603.7494964292871
 31
0.0
  0
LINE
  5
4A8E
  8
YODOROGO
 10
30177.604341291921
 20
1551.817722473427
 30
0.0
 11
30189.604341291921
 21
1603.7494964292871
 31
0.0
  0
ARC
  5
4A8F
  8
YODOROGO
 10
30230.05882870045
 20
1868.885714953002
 30
0.0
 40
321.37763628529081
 50
260.60629297969911
 51
267.77903556555862
  0
LINE
  5
4A90
  8
YODOROGO
 10
30217.604341291921
 20
1427.749496429285
 30
0.0
 11
30217.604341291921
 21
1547.749496429288
 31
0.0
  0
LINE
  5
4A91
  8
YODOROGO
 10
29937.604341291932
 20
1481.3393349155101
 30
0.0
 11
29937.604341291921
 21
1594.531090531141
 31
0.0
  0
LINE
  5
4A92
  8
YODOROGO
 10
30217.604341291921
 20
1667.749496429288
 30
0.0
 11
29949.60434129191
 21
1667.749496429288
 31
0.0
  0
LINE
  5
4A93
  8
YODOROGO
 10
30217.604341291921
 20
1627.749496429288
 30
0.0
 11
30217.604341291921
 21
1667.749496429288
 31
0.0
  0
LINE
  5
4A94
  8
YODOROGO
 10
30017.604341291921
 20
1627.749496429288
 30
0.0
 11
30217.604341291921
 21
1627.749496429288
 31
0.0
  0
ARC
  5
4A95
  8
YODOROGO
 10
30230.05882870136
 20
1868.885714952901
 30
0.0
 40
321.37763628522822
 50
228.6181454618993
 51
245.660289248906
  0
LINE
  5
4A96
  8
YODOROGO
 10
30105.604341291921
 20
1603.7494964292871
 30
0.0
 11
30097.60434129195
 21
1576.0728158699001
 31
0.0
  0
LINE
  5
4A97
  8
YODOROGO
 10
30189.604341291921
 20
1603.7494964292871
 30
0.0
 11
30105.604341291921
 21
1603.7494964292871
 31
0.0
  0
LINE
  5
4A98
  8
YODOROGO
 10
30177.604341291921
 20
1551.817722473427
 30
0.0
 11
30189.604341291921
 21
1603.7494964292871
 31
0.0
  0
ARC
  5
4A99
  8
YODOROGO
 10
30230.05882870045
 20
1868.885714953002
 30
0.0
 40
321.37763628529081
 50
260.60629297969911
 51
267.77903556555862
  0
LINE
  5
4A9A
  8
YODOROGO
 10
30217.604341291921
 20
1427.749496429285
 30
0.0
 11
30217.604341291921
 21
1547.749496429288
 31
0.0
  0
LINE
  5
4A9B
  8
YODOROGO
 10
29937.604341291932
 20
1481.3393349155101
 30
0.0
 11
29937.604341291921
 21
1594.531090531141
 31
0.0
  0
LINE
  5
4A9C
  8
YODOROGO
 10
30433.604341291921
 20
1573.749496429288
 30
0.0
 11
30381.604341291932
 21
1573.749496429288
 31
0.0
  0
LINE
  5
4A9D
  8
YODOROGO
 10
30433.604341291921
 20
1601.749496429285
 30
0.0
 11
30433.604341291921
 21
1573.749496429288
 31
0.0
  0
LINE
  5
4A9E
  8
YODOROGO
 10
30381.604341291932
 20
1601.749496429285
 30
0.0
 11
30433.604341291921
 21
1601.749496429285
 31
0.0
  0
LINE
  5
4A9F
  8
YODOROGO
 10
30381.604341291932
 20
1573.749496429288
 30
0.0
 11
30381.604341291932
 21
1601.749496429285
 31
0.0
  0
LINE
  5
4AA0
  8
YODOROGO
 10
30429.604341291921
 20
1577.7494964292871
 30
0.0
 11
30385.604341291921
 21
1577.7494964292871
 31
0.0
  0
LINE
  5
4AA1
  8
YODOROGO
 10
30429.604341291921
 20
1597.749496429288
 30
0.0
 11
30429.604341291921
 21
1577.7494964292871
 31
0.0
  0
LINE
  5
4AA2
  8
YODOROGO
 10
30385.604341291921
 20
1597.749496429288
 30
0.0
 11
30429.604341291921
 21
1597.749496429288
 31
0.0
  0
LINE
  5
4AA3
  8
YODOROGO
 10
30385.604341291921
 20
1577.7494964292871
 30
0.0
 11
30385.604341291921
 21
1597.749496429288
 31
0.0
  0
LINE
  5
4AA4
  8
YODOROGO
 10
30425.604341291921
 20
1581.749496429286
 30
0.0
 11
30389.604341291921
 21
1581.749496429286
 31
0.0
  0
LINE
  5
4AA5
  8
YODOROGO
 10
30425.604341291921
 20
1593.749496429288
 30
0.0
 11
30425.604341291921
 21
1581.749496429286
 31
0.0
  0
LINE
  5
4AA6
  8
YODOROGO
 10
30389.604341291921
 20
1593.749496429288
 30
0.0
 11
30425.604341291921
 21
1593.749496429288
 31
0.0
  0
LINE
  5
4AA7
  8
YODOROGO
 10
30389.604341291921
 20
1581.749496429286
 30
0.0
 11
30389.604341291921
 21
1593.749496429288
 31
0.0
  0
LINE
  5
4AA8
  8
YODOROGO
 10
30421.604341291932
 20
1585.7494964292871
 30
0.0
 11
30393.604341291921
 21
1585.7494964292871
 31
0.0
  0
LINE
  5
4AA9
  8
YODOROGO
 10
30421.604341291932
 20
1589.749496429288
 30
0.0
 11
30421.604341291932
 21
1585.7494964292871
 31
0.0
  0
LINE
  5
4AAA
  8
YODOROGO
 10
30393.604341291921
 20
1589.749496429288
 30
0.0
 11
30421.604341291932
 21
1589.749496429288
 31
0.0
  0
LINE
  5
4AAB
  8
YODOROGO
 10
30393.604341291921
 20
1585.7494964292871
 30
0.0
 11
30393.604341291921
 21
1589.749496429288
 31
0.0
  0
LINE
  5
4AAC
  8
YODOROGO
 10
30465.604341291921
 20
1627.749496429288
 30
0.0
 11
30381.604341291932
 21
1627.749496429288
 31
0.0
  0
LINE
  5
4AAD
  8
YODOROGO
 10
30465.604341291921
 20
1547.749496429288
 30
0.0
 11
30465.604341291921
 21
1627.749496429288
 31
0.0
  0
LINE
  5
4AAE
  8
YODOROGO
 10
30381.604341291932
 20
1547.749496429288
 30
0.0
 11
30465.604341291921
 21
1547.749496429288
 31
0.0
  0
LINE
  5
4AAF
  8
YODOROGO
 10
30381.604341291932
 20
1427.749496429288
 30
0.0
 11
30381.604341291932
 21
1547.749496429288
 31
0.0
  0
LINE
  5
4AB0
  8
YODOROGO
 10
30537.604341291921
 20
1427.749496429288
 30
0.0
 11
30381.604341291932
 21
1427.749496429288
 31
0.0
  0
LINE
  5
4AB1
  8
YODOROGO
 10
30569.604341291921
 20
1571.749496429285
 30
0.0
 11
30569.604341291921
 21
1599.7494964292871
 31
0.0
  0
ARC
  5
4AB2
  8
YODOROGO
 10
30545.604341291921
 20
1571.749496429291
 30
0.0
 40
24.000000000003752
 50
270.0
 51
359.99999999998772
  0
LINE
  5
4AB3
  8
YODOROGO
 10
30529.604341291939
 20
1547.749496429288
 30
0.0
 11
30545.604341291921
 21
1547.749496429288
 31
0.0
  0
LINE
  5
4AB4
  8
YODOROGO
 10
30529.604341291939
 20
1627.749496429288
 30
0.0
 11
30529.604341291939
 21
1547.749496429288
 31
0.0
  0
LINE
  5
4AB5
  8
YODOROGO
 10
30899.604341291932
 20
1547.749496429288
 30
0.0
 11
30925.604341291921
 21
1547.749496429288
 31
0.0
  0
LINE
  5
4AB6
  8
YODOROGO
 10
30933.604341291921
 20
1427.749496429288
 30
0.0
 11
30899.604341291932
 21
1427.749496429288
 31
0.0
  0
LINE
  5
4AB7
  8
YODOROGO
 10
30763.604341291921
 20
1563.7494964292871
 30
0.0
 11
30791.604341291921
 21
1563.7494964292871
 31
0.0
  0
LINE
  5
4AB8
  8
YODOROGO
 10
30899.604341291932
 20
1491.749496429288
 30
0.0
 11
30723.604341291921
 21
1491.749496429288
 31
0.0
  0
LINE
  5
4AB9
  8
YODOROGO
 10
30831.604341291921
 20
1563.7494964292871
 30
0.0
 11
30859.604341291932
 21
1563.7494964292871
 31
0.0
  0
LINE
  5
4ABA
  8
YODOROGO
 10
30899.604341291932
 20
1427.749496429288
 30
0.0
 11
30899.604341291932
 21
1547.749496429288
 31
0.0
  0
LINE
  5
4ABB
  8
YODOROGO
 10
30697.604341291932
 20
1427.749496429288
 30
0.0
 11
30645.604341291921
 21
1427.749496429288
 31
0.0
  0
LINE
  5
4ABC
  8
YODOROGO
 10
30617.604341291921
 20
1599.7494964292871
 30
0.0
 11
30617.604341291921
 21
1507.749496429288
 31
0.0
  0
ARC
  5
4ABD
  8
YODOROGO
 10
30933.604341291921
 20
1467.749496429288
 30
0.0
 40
40.0
 50
270.0
 51
0.0
  0
LINE
  5
4ABE
  8
YODOROGO
 10
31093.604341291921
 20
1523.7494964292871
 30
0.0
 11
31093.604341291921
 21
1427.749496429288
 31
0.0
  0
ARC
  5
4ABF
  8
YODOROGO
 10
31039.721395566768
 20
1637.5313901097329
 30
0.0
 40
125.8955565916754
 50
295.34052442160112
 51
359.18902303418679
  0
LINE
  5
4AC0
  8
YODOROGO
 10
30617.604341291921
 20
1859.749496429288
 30
0.0
 11
30497.604341291921
 21
1939.749496429288
 31
0.0
  0
LINE
  5
4AC1
  8
YODOROGO
 10
30497.604341291921
 20
2027.749496429288
 30
0.0
 11
30617.604341291921
 21
1947.749496429288
 31
0.0
  0
LINE
  5
4AC2
  8
YODOROGO
 10
30529.604341291939
 20
1679.749496429288
 30
0.0
 11
30617.604341291921
 21
1679.749496429288
 31
0.0
  0
LINE
  5
4AC3
  8
YODOROGO
 10
30617.604341291921
 20
1735.7494964292871
 30
0.0
 11
30529.604341291939
 21
1735.7494964292871
 31
0.0
  0
LINE
  5
4AC4
  8
YODOROGO
 10
30381.604341291932
 20
1795.7494964292871
 30
0.0
 11
30617.604341291921
 21
1795.7494964292871
 31
0.0
  0
LINE
  5
4AC5
  8
YODOROGO
 10
30081.604341291921
 20
2027.749496429288
 30
0.0
 11
30021.604341291921
 21
2027.749496429288
 31
0.0
  0
LINE
  5
4AC6
  8
YODOROGO
 10
30081.604341291921
 20
1827.7494964292871
 30
0.0
 11
30081.604341291921
 21
2027.749496429288
 31
0.0
  0
LINE
  5
4AC7
  8
YODOROGO
 10
30021.604341291921
 20
1827.7494964292871
 30
0.0
 11
30081.604341291921
 21
1827.7494964292871
 31
0.0
  0
LINE
  5
4AC8
  8
YODOROGO
 10
30021.604341291921
 20
2027.749496429288
 30
0.0
 11
30021.604341291921
 21
1827.7494964292871
 31
0.0
  0
LINE
  5
4AC9
  8
YODOROGO
 10
30161.604341291921
 20
2027.749496429288
 30
0.0
 11
30217.604341291921
 21
2027.749496429288
 31
0.0
  0
LINE
  5
4ACA
  8
YODOROGO
 10
30161.604341291921
 20
1811.749496429288
 30
0.0
 11
30161.604341291921
 21
2027.749496429288
 31
0.0
  0
ARC
  5
4ACB
  8
YODOROGO
 10
30121.604341291921
 20
1811.749496429288
 30
0.0
 40
40.0
 50
270.0
 51
0.0
  0
LINE
  5
4ACC
  8
YODOROGO
 10
30021.604341291921
 20
1771.7494964292871
 30
0.0
 11
30121.604341291921
 21
1771.7494964292871
 31
0.0
  0
LINE
  5
4ACD
  8
YODOROGO
 10
30021.604341291921
 20
1707.749496429288
 30
0.0
 11
30021.604341291921
 21
1771.7494964292871
 31
0.0
  0
LINE
  5
4ACE
  8
YODOROGO
 10
30137.604341291921
 20
1707.749496429288
 30
0.0
 11
30021.604341291921
 21
1707.749496429288
 31
0.0
  0
ARC
  5
4ACF
  8
YODOROGO
 10
30137.604341291921
 20
1787.7494964292871
 30
0.0
 40
80.0
 50
270.0
 51
0.0
  0
LINE
  5
4AD0
  8
YODOROGO
 10
30217.604341291921
 20
2027.749496429288
 30
0.0
 11
30217.604341291921
 21
1787.7494964292871
 31
0.0
  0
LINE
  5
4AD1
  8
YODOROGO
 10
29977.604341291921
 20
1947.749496429288
 30
0.0
 11
29977.604341291921
 21
1995.7494964292871
 31
0.0
1001
AUTOCAD_POSTSCRIPT_FIGURE
1002
{
1000
PSFILL
1000
Grayscale
1000
Grayscale
1070
    25
1002
}
  0
LINE
  5
4AD2
  8
YODOROGO
 10
29977.604341291921
 20
1859.749496429288
 30
0.0
 11
29977.604341291921
 21
1907.7494964292871
 31
0.0
1001
AUTOCAD_POSTSCRIPT_FIGURE
1002
{
1000
PSFILL
1000
Grayscale
1000
Grayscale
1070
    25
1002
}
  0
LINE
  5
4AD3
  8
YODOROGO
 10
29977.604341291921
 20
1707.749496429288
 30
0.0
 11
29977.604341291921
 21
1819.7494964292871
 31
0.0
1001
AUTOCAD_POSTSCRIPT_FIGURE
1002
{
1000
PSFILL
1000
Grayscale
1000
Grayscale
1070
    25
1002
}
  0
LINE
  5
4AD4
  8
YODOROGO
 10
30381.604341291932
 20
1907.7494964292871
 30
0.0
 11
30497.604341291921
 21
2027.749496429288
 31
0.0
  0
LINE
  5
4AD5
  8
YODOROGO
 10
30381.604341291932
 20
1819.7494964292871
 30
0.0
 11
30381.604341291932
 21
1907.7494964292871
 31
0.0
  0
LINE
  5
4AD6
  8
YODOROGO
 10
30497.604341291921
 20
1939.749496429288
 30
0.0
 11
30381.604341291932
 21
1819.7494964292871
 31
0.0
  0
LINE
  5
4AD7
  8
YODOROGO
 10
30465.604341291921
 20
1679.749496429288
 30
0.0
 11
30465.604341291921
 21
1735.7494964292871
 31
0.0
  0
LINE
  5
4AD8
  8
YODOROGO
 10
30381.604341291932
 20
1679.749496429288
 30
0.0
 11
30465.604341291921
 21
1679.749496429288
 31
0.0
  0
LINE
  5
4AD9
  8
YODOROGO
 10
30529.604341291939
 20
1735.7494964292871
 30
0.0
 11
30529.604341291939
 21
1679.749496429288
 31
0.0
  0
LINE
  5
4ADA
  8
YODOROGO
 10
30381.604341291932
 20
1735.7494964292871
 30
0.0
 11
30381.604341291932
 21
1795.7494964292871
 31
0.0
  0
LINE
  5
4ADB
  8
YODOROGO
 10
30465.604341291921
 20
1735.7494964292871
 30
0.0
 11
30381.604341291932
 21
1735.7494964292871
 31
0.0
  0
LINE
  5
4ADC
  8
YODOROGO
 10
30645.604341291921
 20
2027.749496429288
 30
0.0
 11
30973.604341291921
 21
2027.749496429288
 31
0.0
  0
LINE
  5
4ADD
  8
YODOROGO
 10
30925.604341291921
 20
1963.749496429286
 30
0.0
 11
30697.604341291932
 21
1963.749496429286
 31
0.0
  0
LINE
  5
4ADE
  8
YODOROGO
 10
30873.604341291921
 20
1819.7494964292871
 30
0.0
 11
30899.604341291932
 21
1819.7494964292871
 31
0.0
  0
LINE
  5
4ADF
  8
YODOROGO
 10
30899.604341291932
 20
1939.749496429288
 30
0.0
 11
30873.604341291921
 21
1819.7494964292871
 31
0.0
  0
LINE
  5
4AE0
  8
YODOROGO
 10
30851.604341291939
 20
1939.749496429288
 30
0.0
 11
30899.604341291932
 21
1939.749496429288
 31
0.0
  0
LINE
  5
4AE1
  8
YODOROGO
 10
30825.604341291921
 20
1819.7494964292871
 30
0.0
 11
30851.604341291939
 21
1939.749496429288
 31
0.0
  0
LINE
  5
4AE2
  8
YODOROGO
 10
30797.604341291921
 20
1819.7494964292871
 30
0.0
 11
30825.604341291921
 21
1819.7494964292871
 31
0.0
  0
LINE
  5
4AE3
  8
YODOROGO
 10
30771.604341291939
 20
1939.749496429288
 30
0.0
 11
30797.604341291921
 21
1819.7494964292871
 31
0.0
  0
LINE
  5
4AE4
  8
YODOROGO
 10
30723.604341291921
 20
1939.749496429288
 30
0.0
 11
30771.604341291939
 21
1939.749496429288
 31
0.0
  0
LINE
  5
4AE5
  8
YODOROGO
 10
30749.604341291921
 20
1819.7494964292871
 30
0.0
 11
30723.604341291921
 21
1939.749496429288
 31
0.0
  0
LINE
  5
4AE6
  8
YODOROGO
 10
30723.604341291921
 20
1819.7494964292871
 30
0.0
 11
30749.604341291921
 21
1819.7494964292871
 31
0.0
  0
LINE
  5
4AE7
  8
YODOROGO
 10
30723.604341291921
 20
1755.7494964292871
 30
0.0
 11
30723.604341291921
 21
1819.7494964292871
 31
0.0
  0
LINE
  5
4AE8
  8
YODOROGO
 10
30899.604341291932
 20
1755.7494964292871
 30
0.0
 11
30723.604341291921
 21
1755.7494964292871
 31
0.0
  0
LINE
  5
4AE9
  8
YODOROGO
 10
30899.604341291932
 20
1819.7494964292871
 30
0.0
 11
30899.604341291932
 21
1755.7494964292871
 31
0.0
  0
LINE
  5
4AEA
  8
YODOROGO
 10
30617.604341291921
 20
1947.749496429288
 30
0.0
 11
30617.604341291921
 21
1859.749496429288
 31
0.0
  0
LINE
  5
4AEB
  8
YODOROGO
 10
30791.604341291921
 20
1755.7494964292871
 30
0.0
 11
30831.604341291921
 21
1755.7494964292871
 31
0.0
  0
LINE
  5
4AEC
  8
YODOROGO
 10
30723.604341291921
 20
1691.749496429288
 30
0.0
 11
30763.604341291921
 21
1691.749496429288
 31
0.0
  0
LINE
  5
4AED
  8
YODOROGO
 10
30859.604341291932
 20
1691.749496429288
 30
0.0
 11
30899.604341291932
 21
1691.749496429288
 31
0.0
  0
LINE
  5
4AEE
  8
YODOROGO
 10
30617.604341291921
 20
1795.7494964292871
 30
0.0
 11
30617.604341291921
 21
1735.7494964292871
 31
0.0
  0
LINE
  5
4AEF
  8
YODOROGO
 10
31165.604341291921
 20
2027.749496429288
 30
0.0
 11
31165.604341291921
 21
1963.749496429286
 31
0.0
  0
LINE
  5
4AF0
  8
YODOROGO
 10
31533.604341291921
 20
1595.7494964292871
 30
0.0
 11
31533.60434129191
 21
1811.749496429288
 31
0.0
  0
LINE
  5
4AF1
  8
YODOROGO
 10
31461.60434129191
 20
1987.7494964292871
 30
0.0
 11
31461.60434129191
 21
1635.7494964292871
 31
0.0
  0
LINE
  5
4AF2
  8
YODOROGO
 10
31653.604341291921
 20
1427.749496429288
 30
0.0
 11
31653.60434129191
 21
1811.749496429288
 31
0.0
  0
LINE
  5
4AF3
  8
YODOROGO
 10
31589.604341291921
 20
1811.749496429288
 30
0.0
 11
31589.604341291921
 21
1427.749496429288
 31
0.0
  0
LINE
  5
4AF4
  8
YODOROGO
 10
31237.604341291921
 20
1595.7494964292871
 30
0.0
 11
31237.604341291921
 21
1707.749496429288
 31
0.0
  0
ARC
  5
4AF5
  8
YODOROGO
 10
31353.914865116069
 20
1607.790351288558
 30
0.0
 40
180.0924485759885
 50
268.62849102169793
 51
356.16638457330322
  0
LINE
  5
4AF6
  8
YODOROGO
 10
31349.604341291939
 20
1527.749496429288
 30
0.0
 11
31349.604341291939
 21
1427.749496429288
 31
0.0
  0
ARC
  5
4AF7
  8
YODOROGO
 10
31351.518075724562
 20
1637.838957017655
 30
0.0
 40
110.1060929836122
 50
269.00410209305932
 51
358.91264455492478
  0
LINE
  5
4AF8
  8
YODOROGO
 10
31589.604341291921
 20
1427.749496429288
 30
0.0
 11
31653.604341291921
 21
1427.749496429288
 31
0.0
  0
LINE
  5
4AF9
  8
YODOROGO
 10
31533.60434129191
 20
1811.749496429288
 30
0.0
 11
31589.604341291921
 21
1811.749496429288
 31
0.0
  0
LINE
  5
4AFA
  8
YODOROGO
 10
31621.604341291939
 20
1987.7494964292871
 30
0.0
 11
31461.60434129191
 21
1987.7494964292871
 31
0.0
  0
LINE
  5
4AFB
  8
YODOROGO
 10
31533.60434129191
 20
1915.7494964292871
 30
0.0
 11
31661.604341291939
 21
1915.7494964292871
 31
0.0
  0
LINE
  5
4AFC
  8
YODOROGO
 10
31701.604341291939
 20
1875.7494964292871
 30
0.0
 11
31533.60434129191
 21
1875.7494964292871
 31
0.0
  0
LINE
  5
4AFD
  8
YODOROGO
 10
31237.604341291921
 20
1779.749496429288
 30
0.0
 11
31349.604341291939
 21
1779.749496429288
 31
0.0
  0
LINE
  5
4AFE
  8
YODOROGO
 10
31237.604341291921
 20
1835.7494964292871
 30
0.0
 11
31237.604341291921
 21
1779.749496429288
 31
0.0
  0
LINE
  5
4AFF
  8
YODOROGO
 10
31349.604341291939
 20
1835.7494964292871
 30
0.0
 11
31237.604341291921
 21
1835.7494964292871
 31
0.0
  0
LINE
  5
4B00
  8
YODOROGO
 10
31349.604341291939
 20
1779.749496429288
 30
0.0
 11
31349.604341291939
 21
1835.7494964292871
 31
0.0
  0
LINE
  5
4B01
  8
YODOROGO
 10
31533.60434129191
 20
1875.7494964292871
 30
0.0
 11
31533.60434129191
 21
1915.7494964292871
 31
0.0
  0
LINE
  5
4B02
  8
YODOROGO
 10
31413.604341291921
 20
1707.749496429288
 30
0.0
 11
31413.604341291921
 21
1907.7494964292871
 31
0.0
  0
LINE
  5
4B03
  8
YODOROGO
 10
31237.604341291921
 20
1707.749496429288
 30
0.0
 11
31413.604341291921
 21
1707.749496429288
 31
0.0
  0
LINE
  5
4B04
  8
YODOROGO
 10
31413.604341291921
 20
1963.749496429286
 30
0.0
 11
31413.604341291921
 21
2027.749496429288
 31
0.0
  0
ARC
  5
4B05
  8
YODOROGO
 10
31621.604341291939
 20
2003.749496429285
 30
0.0
 40
15.999999999994539
 50
270.0
 51
0.0000000000081422
  0
LINE
  5
4B06
  8
YODOROGO
 10
31637.604341291921
 20
2027.749496429288
 30
0.0
 11
31637.604341291921
 21
2003.7494964292871
 31
0.0
  0
LINE
  5
4B07
  8
YODOROGO
 10
31701.604341291939
 20
2027.749496429288
 30
0.0
 11
31637.604341291921
 21
2027.749496429288
 31
0.0
  0
LINE
  5
4B08
  8
YODOROGO
 10
31701.604341291939
 20
1955.7494964292871
 30
0.0
 11
31701.604341291939
 21
2027.749496429288
 31
0.0
  0
ARC
  5
4B09
  8
YODOROGO
 10
31661.604341291939
 20
1955.7494964292871
 30
0.0
 40
40.0
 50
270.0
 51
0.0
  0
LINE
  5
4B0A
  8
YODOROGO
 10
31701.604341291939
 20
1811.749496429288
 30
0.0
 11
31701.604341291939
 21
1875.7494964292871
 31
0.0
  0
LINE
  5
4B0B
  8
YODOROGO
 10
31653.60434129191
 20
1811.749496429288
 30
0.0
 11
31701.604341291939
 21
1811.749496429288
 31
0.0
  0
LINE
  5
4B0F
  8
SUNPOU
  6
CONTINUOUS
 62
     4
 10
10156.950752000001
 20
19905.604873
 30
0.0
 11
9753.3573855583327
 21
19905.604873
 31
0.0
  0
LINE
  5
4B10
  8
SUNPOU
  6
CONTINUOUS
 62
     4
 10
10225.450012999991
 20
19895.604873
 30
0.0
 11
9753.3573855583327
 21
19895.604873
 31
0.0
  0
LINE
  5
4B11
  8
SUNPOU
  6
CONTINUOUS
 62
     4
 10
9833.3573855583327
 20
19905.604873
 30
0.0
 11
9833.3573855583327
 21
20145.604873
 31
0.0
  0
LINE
  5
4B12
  8
SUNPOU
  6
CONTINUOUS
 62
     4
 10
9833.3573855583327
 20
19895.604873
 30
0.0
 11
9833.3573855583327
 21
19655.604873
 31
0.0
  0
LINE
  5
4B13
  8
SUNPOU
  6
CONTINUOUS
 62
     4
 10
9833.3573855583327
 20
19905.604873
 30
0.0
 11
9833.3573855583327
 21
19895.604873
 31
0.0
  0
LINE
  5
4B14
  8
SUNPOU
  6
CONTINUOUS
 62
     4
 10
9416.1114428423825
 20
19683.104873
 30
0.0
 11
9353.3573855583327
 21
19683.104873
 31
0.0
  0
LINE
  5
4B15
  8
SUNPOU
  6
CONTINUOUS
 62
     4
 10
10156.950752000001
 20
19905.604873
 30
0.0
 11
9353.3573855583327
 21
19905.604873
 31
0.0
  0
LINE
  5
4B16
  8
SUNPOU
  6
CONTINUOUS
 62
     4
 10
9433.3573855583327
 20
19683.104873
 30
0.0
 11
9433.3573855583327
 21
19905.604873
 31
0.0
  0
LINE
  5
4B17
  8
SUNPOU
  6
CONTINUOUS
 62
     4
 10
9416.1114428423825
 20
19683.104873
 30
0.0
 11
9353.3573855583327
 21
19683.104873
 31
0.0
  0
LINE
  5
4B18
  8
SUNPOU
  6
CONTINUOUS
 62
     4
 10
9416.1114428423825
 20
16765.104873000011
 30
0.0
 11
9353.3573855583327
 21
16765.104873000011
 31
0.0
  0
LINE
  5
4B19
  8
SUNPOU
  6
CONTINUOUS
 62
     4
 10
9433.3573855583327
 20
19683.104873
 30
0.0
 11
9433.3573855583327
 21
16765.104873000011
 31
0.0
  0
LINE
  5
4B1A
  8
SUNPOU
  6
CONTINUOUS
 62
     4
 10
9416.1114428423825
 20
16765.104873000011
 30
0.0
 11
9353.3573855583327
 21
16765.104873000011
 31
0.0
  0
LINE
  5
4B1B
  8
SUNPOU
  6
CONTINUOUS
 62
     4
 10
9433.3573855583327
 20
16765.104873000011
 30
0.0
 11
9433.3573855583327
 21
13496.604872999989
 31
0.0
  0
LINE
  5
4B1C
  8
SUNPOU
  6
CONTINUOUS
 62
     4
 10
10151.950488
 20
13304.104873
 30
0.0
 11
9353.3573855583327
 21
13304.104873
 31
0.0
  0
LINE
  5
4B1D
  8
SUNPOU
  6
CONTINUOUS
 62
     4
 10
9433.3573855583327
 20
13496.604872999989
 30
0.0
 11
9433.3573855583327
 21
13304.104873
 31
0.0
  0
LINE
  5
4B1E
  8
SUNPOU
  6
CONTINUOUS
 62
     4
 10
13582.949301000001
 20
20450.735393922489
 30
0.0
 11
13582.949301000001
 21
20535.604345
 31
0.0
  0
LINE
  5
4B1F
  8
SUNPOU
  6
CONTINUOUS
 62
     4
 10
13668.44771700001
 20
19975.073750440301
 30
0.0
 11
13668.44771700001
 21
20535.604345
 31
0.0
  0
LINE
  5
4B20
  8
SUNPOU
  6
CONTINUOUS
 62
     4
 10
13582.949301000001
 20
20455.604345
 30
0.0
 11
13342.949301000001
 21
20455.604345
 31
0.0
  0
LINE
  5
4B21
  8
SUNPOU
  6
CONTINUOUS
 62
     4
 10
13665.44771700001
 20
20455.604345
 30
0.0
 11
13905.44771700001
 21
20455.604345
 31
0.0
  0
LINE
  5
4B22
  8
SUNPOU
  6
CONTINUOUS
 62
     4
 10
13582.949301000001
 20
20455.604345
 30
0.0
 11
13665.44771700001
 21
20455.604345
 31
0.0
  0
LINE
  5
4B23
  8
SUNPOU
  6
CONTINUOUS
 62
     4
 10
10314.44930099999
 20
20467.768665958371
 30
0.0
 11
10314.44930099999
 21
20535.604345
 31
0.0
  0
LINE
  5
4B24
  8
SUNPOU
  6
CONTINUOUS
 62
     4
 10
13582.94930099999
 20
20385.809155338211
 30
0.0
 11
13582.94930099999
 21
20535.604345
 31
0.0
  0
LINE
  5
4B25
  8
SUNPOU
  6
CONTINUOUS
 62
     4
 10
10314.44930099999
 20
20455.604345
 30
0.0
 11
13582.94930099999
 21
20455.604345
 31
0.0
  0
LINE
  5
4B26
  8
SUNPOU
  6
CONTINUOUS
 62
     4
 10
10228.949300999981
 20
19980.16115759909
 30
0.0
 11
10228.949300999981
 21
20535.604345
 31
0.0
  0
LINE
  5
4B27
  8
SUNPOU
  6
CONTINUOUS
 62
     4
 10
10314.44930099999
 20
20467.768665958371
 30
0.0
 11
10314.44930099999
 21
20535.604345
 31
0.0
  0
LINE
  5
4B28
  8
SUNPOU
  6
CONTINUOUS
 62
     4
 10
10231.949300999981
 20
20455.604345
 30
0.0
 11
9991.9493009999915
 21
20455.604345
 31
0.0
  0
LINE
  5
4B29
  8
SUNPOU
  6
CONTINUOUS
 62
     4
 10
10314.44930099999
 20
20455.604345
 30
0.0
 11
10554.44930099999
 21
20455.604345
 31
0.0
  0
LINE
  5
4B2A
  8
SUNPOU
  6
CONTINUOUS
 62
     4
 10
10231.949300999981
 20
20455.604345
 30
0.0
 11
10314.44930099999
 21
20455.604345
 31
0.0
  0
LINE
  5
4B2B
  8
SUNPOU
  6
CONTINUOUS
 62
     4
 10
20201.408496
 20
5916.8653320000003
 30
0.0
 11
19001.408495999978
 21
5916.8653320000003
 31
0.0
  0
LINE
  5
4B2C
  8
SUNPOU
  6
CONTINUOUS
 62
     4
 10
20168.907177000001
 20
8504.865332000003
 30
0.0
 11
19001.408495999978
 21
8504.865332000003
 31
0.0
  0
LINE
  5
4B2D
  8
SUNPOU
  6
CONTINUOUS
 62
     4
 10
19081.408495999978
 20
5916.8653320000003
 30
0.0
 11
19081.408495999978
 21
8504.865332000003
 31
0.0
  0
LINE
  5
4B3E
  8
SUNPOU
  6
CONTINUOUS
 62
     4
 10
23599.90717699999
 20
5474.2125790000036
 30
0.0
 11
23599.90717699999
 21
4536.8659920000009
 31
0.0
  0
LINE
  5
4B3F
  8
SUNPOU
  6
CONTINUOUS
 62
     4
 10
20331.407176999979
 20
5474.2125790000036
 30
0.0
 11
20331.407176999979
 21
4536.8659920000009
 31
0.0
  0
LINE
  5
4B40
  8
SUNPOU
  6
CONTINUOUS
 62
     4
 10
23599.90717699999
 20
4616.8659920000009
 30
0.0
 11
20331.407176999979
 21
4616.8659920000009
 31
0.0
  0
LINE
  5
4B41
  8
SUNPOU
  6
CONTINUOUS
 62
     4
 10
20288.90717699999
 20
5836.8653320000021
 30
0.0
 11
20288.90717699999
 21
4136.8656620000002
 31
0.0
  0
LINE
  5
4B42
  8
SUNPOU
  6
CONTINUOUS
 62
     4
 10
23642.40717699999
 20
5836.8653320000021
 30
0.0
 11
23642.40717699999
 21
4136.8656620000002
 31
0.0
  0
LINE
  5
4B43
  8
SUNPOU
  6
CONTINUOUS
 62
     4
 10
20288.90717699999
 20
4216.865662000002
 30
0.0
 11
23642.40717699999
 21
4216.865662000002
 31
0.0
  0
LINE
  5
4B44
  8
SUNPOU
  6
CONTINUOUS
 62
     4
 10
20331.407176999979
 20
5474.2125790000036
 30
0.0
 11
20331.407176999979
 21
4536.8659920000009
 31
0.0
  0
LINE
  5
4B45
  8
SUNPOU
  6
CONTINUOUS
 62
     4
 10
20288.90717699999
 20
5836.8653320000021
 30
0.0
 11
20288.90717699999
 21
4536.8659920000009
 31
0.0
  0
LINE
  5
4B46
  8
SUNPOU
  6
CONTINUOUS
 62
     4
 10
20331.407176999979
 20
4616.8659920000009
 30
0.0
 11
20571.407176999979
 21
4616.8659920000009
 31
0.0
  0
LINE
  5
4B47
  8
SUNPOU
  6
CONTINUOUS
 62
     4
 10
20288.90717699999
 20
4616.8659920000009
 30
0.0
 11
20048.90717699999
 21
4616.8659920000009
 31
0.0
  0
LINE
  5
4B48
  8
SUNPOU
  6
CONTINUOUS
 62
     4
 10
20331.407176999979
 20
4616.8659920000009
 30
0.0
 11
20288.90717699999
 21
4616.8659920000009
 31
0.0
  0
LINE
  5
4B49
  8
SUNPOU
  6
CONTINUOUS
 62
     4
 10
20564.40839099999
 20
5736.8654970000007
 30
0.0
 11
20564.40839099999
 21
4936.8658270000014
 31
0.0
  0
LINE
  5
4B4A
  8
SUNPOU
  6
CONTINUOUS
 62
     4
 10
23366.907941999991
 20
5736.8654970000007
 30
0.0
 11
23366.907941999991
 21
4936.8658270000014
 31
0.0
  0
LINE
  5
4B4B
  8
SUNPOU
  6
CONTINUOUS
 62
     4
 10
20564.40839099999
 20
5016.8658270000014
 30
0.0
 11
23366.907941999991
 21
5016.8658270000014
 31
0.0
  0
LINE
  5
4B4C
  8
SUNPOU
  6
CONTINUOUS
 62
     4
 10
20201.408496
 20
5916.8653320000003
 30
0.0
 11
19401.407835999998
 21
5916.8653320000003
 31
0.0
  0
LINE
  5
4B4D
  8
SUNPOU
  6
CONTINUOUS
 62
     4
 10
20201.408496
 20
7855.3653320000021
 30
0.0
 11
19401.407835999998
 21
7855.3653320000021
 31
0.0
  0
LINE
  5
4B4E
  8
SUNPOU
  6
CONTINUOUS
 62
     4
 10
19481.407835999991
 20
5916.8653320000003
 30
0.0
 11
19481.407835999991
 21
7855.3653320000021
 31
0.0
  0
LINE
  5
4B4F
  8
SUNPOU
  6
CONTINUOUS
 62
     4
 10
23599.90717699999
 20
5474.2125790000018
 30
0.0
 11
23599.90717699999
 21
4536.8659920000009
 31
0.0
  0
LINE
  5
4B50
  8
SUNPOU
  6
CONTINUOUS
 62
     4
 10
23642.40717699999
 20
5836.8653320000021
 30
0.0
 11
23642.40717699999
 21
4536.8659920000009
 31
0.0
  0
LINE
  5
4B51
  8
SUNPOU
  6
CONTINUOUS
 62
     4
 10
23599.90717699999
 20
4616.8659920000009
 30
0.0
 11
23359.90717699999
 21
4616.8659920000009
 31
0.0
  0
LINE
  5
4B52
  8
SUNPOU
  6
CONTINUOUS
 62
     4
 10
23642.40717699999
 20
4616.8659920000009
 30
0.0
 11
23882.40717699999
 21
4616.8659920000009
 31
0.0
  0
LINE
  5
4B53
  8
SUNPOU
  6
CONTINUOUS
 62
     4
 10
23599.90717699999
 20
4616.8659920000009
 30
0.0
 11
23642.40717699999
 21
4616.8659920000009
 31
0.0
  0
LINE
  5
4B54
  8
SUNPOU
  6
CONTINUOUS
 62
     4
 10
9236.6661109999914
 20
5474.2125790000036
 30
0.0
 11
9236.6661109999914
 21
4536.8659920000009
 31
0.0
  0
LINE
  5
4B55
  8
SUNPOU
  6
CONTINUOUS
 62
     4
 10
12154.66611099998
 20
5474.2125790000036
 30
0.0
 11
12154.66611099998
 21
4536.8659920000009
 31
0.0
  0
LINE
  5
4B56
  8
SUNPOU
  6
CONTINUOUS
 62
     4
 10
9236.6661109999914
 20
4616.8659920000009
 30
0.0
 11
12154.66611099998
 21
4616.8659920000009
 31
0.0
  0
LINE
  5
4B57
  8
SUNPOU
  6
CONTINUOUS
 62
     4
 10
12154.66611099998
 20
5474.2125790000036
 30
0.0
 11
12154.66611099998
 21
4536.8659920000009
 31
0.0
  0
LINE
  5
4B58
  8
SUNPOU
  6
CONTINUOUS
 62
     4
 10
15423.16611099999
 20
5474.2125790000036
 30
0.0
 11
15423.16611099999
 21
4536.8659920000009
 31
0.0
  0
LINE
  5
4B59
  8
SUNPOU
  6
CONTINUOUS
 62
     4
 10
12154.66611099998
 20
4616.8659920000009
 30
0.0
 11
15423.16611099999
 21
4616.8659920000009
 31
0.0
  0
LINE
  5
4B5A
  8
SUNPOU
  6
CONTINUOUS
 62
     4
 10
9236.6661109999914
 20
5474.2125790000036
 30
0.0
 11
9236.6661109999914
 21
4536.8659920000009
 31
0.0
  0
LINE
  5
4B5B
  8
SUNPOU
  6
CONTINUOUS
 62
     4
 10
9194.1661109999914
 20
5836.8653320000021
 30
0.0
 11
9194.1661109999914
 21
4536.8659920000009
 31
0.0
  0
LINE
  5
4B5C
  8
SUNPOU
  6
CONTINUOUS
 62
     4
 10
9236.6661109999914
 20
4616.8659920000009
 30
0.0
 11
9476.6661109999914
 21
4616.8659920000009
 31
0.0
  0
LINE
  5
4B5D
  8
SUNPOU
  6
CONTINUOUS
 62
     4
 10
9194.1661109999914
 20
4616.8659920000009
 30
0.0
 11
8954.1661109999895
 21
4616.8659920000009
 31
0.0
  0
LINE
  5
4B5E
  8
SUNPOU
  6
CONTINUOUS
 62
     4
 10
9236.6661109999914
 20
4616.8659920000009
 30
0.0
 11
9194.1661109999914
 21
4616.8659920000009
 31
0.0
  0
LINE
  5
4B5F
  8
SUNPOU
  6
CONTINUOUS
 62
     4
 10
15423.16611099999
 20
5474.2125790000036
 30
0.0
 11
15423.16611099999
 21
4536.8659920000009
 31
0.0
  0
LINE
  5
4B60
  8
SUNPOU
  6
CONTINUOUS
 62
     4
 10
15465.66611099998
 20
5836.8653320000021
 30
0.0
 11
15465.66611099998
 21
4536.8659920000009
 31
0.0
  0
LINE
  5
4B61
  8
SUNPOU
  6
CONTINUOUS
 62
     4
 10
15423.16611099999
 20
4616.8659920000009
 30
0.0
 11
15183.16611099999
 21
4616.8659920000009
 31
0.0
  0
LINE
  5
4B62
  8
SUNPOU
  6
CONTINUOUS
 62
     4
 10
15465.66611099998
 20
4616.8659920000009
 30
0.0
 11
15705.66611099998
 21
4616.8659920000009
 31
0.0
  0
LINE
  5
4B63
  8
SUNPOU
  6
CONTINUOUS
 62
     4
 10
15423.16611099999
 20
4616.8659920000009
 30
0.0
 11
15465.66611099998
 21
4616.8659920000009
 31
0.0
  0
LINE
  5
4B64
  8
SUNPOU
  6
CONTINUOUS
 62
     4
 10
9194.1661109999914
 20
5836.8653320000021
 30
0.0
 11
9194.1661109999914
 21
4136.8656620000029
 31
0.0
  0
LINE
  5
4B65
  8
SUNPOU
  6
CONTINUOUS
 62
     4
 10
15465.66611099998
 20
5836.8653320000021
 30
0.0
 11
15465.66611099998
 21
4136.8656620000029
 31
0.0
  0
LINE
  5
4B66
  8
SUNPOU
  6
CONTINUOUS
 62
     4
 10
9194.1661109999914
 20
4216.865662000002
 30
0.0
 11
15465.66611099998
 21
4216.865662000002
 31
0.0
  0
LINE
  5
4B67
  8
SUNPOU
  6
CONTINUOUS
 62
     4
 10
15558.16611099999
 20
5916.8653320000003
 30
0.0
 11
16635.664526999972
 21
5916.8653320000003
 31
0.0
  0
LINE
  5
4B68
  8
SUNPOU
  6
CONTINUOUS
 62
     4
 10
15649.624751999971
 20
8504.8653319999976
 30
0.0
 11
16635.664526999972
 21
8504.8653319999976
 31
0.0
  0
LINE
  5
4B69
  8
SUNPOU
  6
CONTINUOUS
 62
     4
 10
16555.664526999972
 20
5916.8653320000003
 30
0.0
 11
16555.664526999972
 21
8504.8653319999976
 31
0.0
  0
LINE
  5
4B6A
  8
SUNPOU
  6
CONTINUOUS
 62
     4
 10
9106.6661109999877
 20
5916.8653320000003
 30
0.0
 11
8024.1676939999898
 21
5916.8653320000003
 31
0.0
  0
LINE
  5
4B6B
  8
SUNPOU
  6
CONTINUOUS
 62
     4
 10
8929.0593616666265
 20
8313.8653319999976
 30
0.0
 11
8024.1676939999898
 21
8313.8653319999976
 31
0.0
  0
LINE
  5
4B6C
  8
SUNPOU
  6
CONTINUOUS
 62
     4
 10
8104.1676939999879
 20
5916.8653320000003
 30
0.0
 11
8104.1676939999879
 21
8313.8653319999976
 31
0.0
  0
LINE
  5
4B6D
  8
SUNPOU
  6
CONTINUOUS
 62
     4
 10
9194.1661109999914
 20
8263.9604245239098
 30
0.0
 11
9194.1661109999914
 21
9384.7739439999968
 31
0.0
  0
LINE
  5
4B6E
  8
SUNPOU
  6
CONTINUOUS
 62
     4
 10
15465.66611099998
 20
8451.6950437655669
 30
0.0
 11
15465.66611099998
 21
9384.7739439999968
 31
0.0
  0
LINE
  5
4B6F
  8
SUNPOU
  6
CONTINUOUS
 62
     4
 10
9194.1661109999914
 20
9304.7739439999968
 30
0.0
 11
15465.66611099998
 21
9304.7739439999968
 31
0.0
  0
LINE
  5
4B70
  8
SUNPOU
  6
CONTINUOUS
 62
     4
 10
15465.66611099998
 20
8451.6950437655669
 30
0.0
 11
15465.66611099998
 21
9384.7739439999968
 31
0.0
  0
LINE
  5
4B71
  8
SUNPOU
  6
CONTINUOUS
 62
     4
 10
15615.66611099999
 20
8521.7777556801775
 30
0.0
 11
15615.66611099999
 21
9384.7739439999968
 31
0.0
  0
LINE
  5
4B72
  8
SUNPOU
  6
CONTINUOUS
 62
     4
 10
15465.66611099998
 20
9304.7739439999968
 30
0.0
 11
15225.66611099999
 21
9304.7739439999968
 31
0.0
  0
LINE
  5
4B73
  8
SUNPOU
  6
CONTINUOUS
 62
     4
 10
15615.66611099999
 20
9304.7739439999968
 30
0.0
 11
15855.66611099999
 21
9304.7739439999968
 31
0.0
  0
LINE
  5
4B74
  8
SUNPOU
  6
CONTINUOUS
 62
     4
 10
15465.66611099998
 20
9304.7739439999968
 30
0.0
 11
15615.66611099999
 21
9304.7739439999968
 31
0.0
  0
LINE
  5
4B75
  8
SUNPOU
  6
CONTINUOUS
 62
     4
 10
9194.1661109999914
 20
8263.9604245239098
 30
0.0
 11
9194.1661109999914
 21
9384.7739439999968
 31
0.0
  0
LINE
  5
4B76
  8
SUNPOU
  6
CONTINUOUS
 62
     4
 10
9014.1661109999914
 20
8384.9897292098885
 30
0.0
 11
9014.1661109999914
 21
9384.7739439999968
 31
0.0
  0
LINE
  5
4B77
  8
SUNPOU
  6
CONTINUOUS
 62
     4
 10
9194.1661109999914
 20
9304.7739439999968
 30
0.0
 11
9014.1661109999914
 21
9304.7739439999968
 31
0.0
  0
LINE
  5
4B78
  8
SUNPOU
  6
CONTINUOUS
 62
     4
 10
9014.1661109999914
 20
8391.7523504001438
 30
0.0
 11
9014.1661109999914
 21
9784.7742739999958
 31
0.0
  0
LINE
  5
4B79
  8
SUNPOU
  6
CONTINUOUS
 62
     4
 10
15615.66611099999
 20
8549.2320997579354
 30
0.0
 11
15615.66611099999
 21
9784.7742739999958
 31
0.0
  0
LINE
  5
4B7A
  8
SUNPOU
  6
CONTINUOUS
 62
     4
 10
9014.1661109999914
 20
9704.7742739999958
 30
0.0
 11
15615.66611099999
 21
9704.7742739999958
 31
0.0
  0
LINE
  5
4B7B
  8
SUNPOU
  6
CONTINUOUS
 62
     4
 10
20331.40458727604
 20
12790.84566204188
 30
0.0
 11
20331.39339692831
 21
12445.16101222297
 31
0.0
  0
LINE
  5
4B7C
  8
SUNPOU
  6
CONTINUOUS
 62
     4
 10
20288.921225526989
 20
13374.11317659974
 30
0.0
 11
20288.891153950612
 21
12445.16238808643
 31
0.0
  0
LINE
  5
4B7D
  8
SUNPOU
  6
CONTINUOUS
 62
     4
 10
20331.39598665226
 20
12525.16101218105
 30
0.0
 11
20571.39598652651
 21
12525.15324300919
 31
0.0
  0
LINE
  5
4B7E
  8
SUNPOU
  6
CONTINUOUS
 62
     4
 10
20288.893743674558
 20
12525.16238804452
 30
0.0
 11
20048.893743800319
 21
12525.17015721638
 31
0.0
  0
LINE
  5
4B7F
  8
SUNPOU
  6
CONTINUOUS
 62
     4
 10
20331.39598665226
 20
12525.16101218105
 30
0.0
 11
20288.893743674558
 21
12525.16238804452
 31
0.0
  0
LINE
  5
4B80
  8
SUNPOU
  6
CONTINUOUS
 62
     4
 10
20288.910872
 20
13314.60317099999
 30
0.0
 11
20288.910872
 21
11964.605150999991
 31
0.0
  0
LINE
  5
4B81
  8
SUNPOU
  6
CONTINUOUS
 62
     4
 10
23642.409419999989
 20
13374.111800999961
 30
0.0
 11
23642.409419999989
 21
11964.605150999991
 31
0.0
  0
LINE
  5
4B82
  8
SUNPOU
  6
CONTINUOUS
 62
     4
 10
20288.910872
 20
12044.605150999991
 30
0.0
 11
23642.409419999989
 21
12044.605150999991
 31
0.0
  0
LINE
  5
4B83
  8
SUNPOU
  6
CONTINUOUS
 62
     4
 10
22842.009122250001
 20
19805.607380999991
 30
0.0
 11
22842.009122250001
 21
20535.610283999991
 31
0.0
  0
LINE
  5
4B84
  8
SUNPOU
  6
CONTINUOUS
 62
     4
 10
23599.913115999989
 20
19805.607380999991
 30
0.0
 11
23599.913115999989
 21
20535.610283999991
 31
0.0
  0
LINE
  5
4B85
  8
SUNPOU
  6
CONTINUOUS
 62
     4
 10
22842.009122250001
 20
20455.610283999991
 30
0.0
 11
23599.913115999989
 21
20455.610283999991
 31
0.0
  0
LINE
  5
4B86
  8
SUNPOU
  6
CONTINUOUS
 62
     4
 10
22141.009122250001
 20
19805.607380999991
 30
0.0
 11
22141.009122250001
 21
20535.610283999991
 31
0.0
  0
LINE
  5
4B87
  8
SUNPOU
  6
CONTINUOUS
 62
     4
 10
22842.009122250001
 20
19805.607380999991
 30
0.0
 11
22842.009122250001
 21
20535.610283999991
 31
0.0
  0
LINE
  5
4B88
  8
SUNPOU
  6
CONTINUOUS
 62
     4
 10
22141.009122250001
 20
20455.610283999991
 30
0.0
 11
22842.009122250001
 21
20455.610283999991
 31
0.0
  0
LINE
  5
4B89
  8
SUNPOU
  6
CONTINUOUS
 62
     4
 10
20739.009122250009
 20
19805.607380999991
 30
0.0
 11
20739.009122250009
 21
20535.610283999991
 31
0.0
  0
LINE
  5
4B8A
  8
SUNPOU
  6
CONTINUOUS
 62
     4
 10
21440.009122250001
 20
19805.607380999991
 30
0.0
 11
21440.009122250001
 21
20535.610283999991
 31
0.0
  0
LINE
  5
4B8B
  8
SUNPOU
  6
CONTINUOUS
 62
     4
 10
20739.009122250009
 20
20455.610283999991
 30
0.0
 11
21440.009122250001
 21
20455.610283999991
 31
0.0
  0
LINE
  5
4B8C
  8
SUNPOU
  6
CONTINUOUS
 62
     4
 10
21440.009122250001
 20
19805.607380999991
 30
0.0
 11
21440.009122250001
 21
20535.610283999991
 31
0.0
  0
LINE
  5
4B8D
  8
SUNPOU
  6
CONTINUOUS
 62
     4
 10
22141.009122250001
 20
19805.607380999991
 30
0.0
 11
22141.009122250001
 21
20535.610283999991
 31
0.0
  0
LINE
  5
4B8E
  8
SUNPOU
  6
CONTINUOUS
 62
     4
 10
21440.009122250001
 20
20455.610283999991
 30
0.0
 11
22141.009122250001
 21
20455.610283999991
 31
0.0
  0
LINE
  5
4B8F
  8
SUNPOU
  6
CONTINUOUS
 62
     4
 10
20331.407177000001
 20
19805.607380999991
 30
0.0
 11
20331.407177000001
 21
20535.610283999991
 31
0.0
  0
LINE
  5
4B90
  8
SUNPOU
  6
CONTINUOUS
 62
     4
 10
20288.910872
 20
19805.607380999991
 30
0.0
 11
20288.910872
 21
20535.610283999991
 31
0.0
  0
LINE
  5
4B91
  8
SUNPOU
  6
CONTINUOUS
 62
     4
 10
20331.407177000001
 20
20455.610283999991
 30
0.0
 11
20571.407177000001
 21
20455.610283999991
 31
0.0
  0
LINE
  5
4B92
  8
SUNPOU
  6
CONTINUOUS
 62
     4
 10
20288.910872
 20
20455.610283999991
 30
0.0
 11
20048.910872
 21
20455.610283999991
 31
0.0
  0
LINE
  5
4B93
  8
SUNPOU
  6
CONTINUOUS
 62
     4
 10
20331.407177000001
 20
20455.610283999991
 30
0.0
 11
20288.910872
 21
20455.610283999991
 31
0.0
  0
LINE
  5
4B94
  8
SUNPOU
  6
CONTINUOUS
 62
     4
 10
20331.407177000001
 20
19805.607380999991
 30
0.0
 11
20331.407177000001
 21
20535.610283999991
 31
0.0
  0
LINE
  5
4B95
  8
SUNPOU
  6
CONTINUOUS
 62
     4
 10
20739.009122250009
 20
19805.607380999991
 30
0.0
 11
20739.009122250009
 21
20535.610283999991
 31
0.0
  0
LINE
  5
4B96
  8
SUNPOU
  6
CONTINUOUS
 62
     4
 10
20331.407177000001
 20
20455.610283999991
 30
0.0
 11
20739.009122250009
 21
20455.610283999991
 31
0.0
  0
LINE
  5
4B97
  8
SUNPOU
  6
CONTINUOUS
 62
     4
 10
23599.90717699999
 20
19805.607380999991
 30
0.0
 11
23599.90717699999
 21
20535.610283999991
 31
0.0
  0
LINE
  5
4B98
  8
SUNPOU
  6
CONTINUOUS
 62
     4
 10
23642.403482000002
 20
19805.607380999991
 30
0.0
 11
23642.403482000002
 21
20535.610283999991
 31
0.0
  0
LINE
  5
4B99
  8
SUNPOU
  6
CONTINUOUS
 62
     4
 10
23599.90717699999
 20
20455.610283999991
 30
0.0
 11
23359.90717699999
 21
20455.610283999991
 31
0.0
  0
LINE
  5
4B9A
  8
SUNPOU
  6
CONTINUOUS
 62
     4
 10
23642.403482000002
 20
20455.610283999991
 30
0.0
 11
23882.403482000002
 21
20455.610283999991
 31
0.0
  0
LINE
  5
4B9B
  8
SUNPOU
  6
CONTINUOUS
 62
     4
 10
23599.90717699999
 20
20455.610283999991
 30
0.0
 11
23642.403482000002
 21
20455.610283999991
 31
0.0
  0
LINE
  5
4B9C
  8
SUNPOU
  6
CONTINUOUS
 62
     4
 10
24572.406781000002
 20
13496.609095999949
 30
0.0
 11
25172.406781000002
 21
13496.609095999949
 31
0.0
  0
LINE
  5
4B9D
  8
SUNPOU
  6
CONTINUOUS
 62
     4
 10
23722.405460999991
 20
13454.111800999961
 30
0.0
 11
25172.406781000002
 21
13454.111800999961
 31
0.0
  0
LINE
  5
4B9E
  8
SUNPOU
  6
CONTINUOUS
 62
     4
 10
25092.406781000002
 20
13496.609095999949
 30
0.0
 11
25092.406781000002
 21
13736.609095999949
 31
0.0
  0
LINE
  5
4B9F
  8
SUNPOU
  6
CONTINUOUS
 62
     4
 10
25092.406781000002
 20
13454.111800999961
 30
0.0
 11
25092.406781000002
 21
13214.11180099997
 31
0.0
  0
LINE
  5
4BA0
  8
SUNPOU
  6
CONTINUOUS
 62
     4
 10
25092.406781000002
 20
13496.609095999949
 30
0.0
 11
25092.406781000002
 21
13454.111800999961
 31
0.0
  0
LINE
  5
4BA1
  8
SUNPOU
  6
CONTINUOUS
 62
     4
 10
24572.406781000002
 20
19683.10909599996
 30
0.0
 11
25172.406781000002
 21
19683.10909599996
 31
0.0
  0
LINE
  5
4BA2
  8
SUNPOU
  6
CONTINUOUS
 62
     4
 10
23722.405460999991
 20
19725.606390999968
 30
0.0
 11
25172.406781000002
 21
19725.606390999961
 31
0.0
  0
LINE
  5
4BA3
  8
SUNPOU
  6
CONTINUOUS
 62
     4
 10
25092.406781000002
 20
19683.10909599996
 30
0.0
 11
25092.406781000002
 21
19443.10909599996
 31
0.0
  0
LINE
  5
4BA4
  8
SUNPOU
  6
CONTINUOUS
 62
     4
 10
25092.406781000002
 20
19725.606390999961
 30
0.0
 11
25092.406781000002
 21
19965.606390999961
 31
0.0
  0
LINE
  5
4BA5
  8
SUNPOU
  6
CONTINUOUS
 62
     4
 10
25092.406781000002
 20
19683.10909599996
 30
0.0
 11
25092.406781000002
 21
19725.606390999961
 31
0.0
  0
LINE
  5
4BA6
  8
SUNPOU
  6
CONTINUOUS
 62
     4
 10
23722.405460999991
 20
19725.606390999968
 30
0.0
 11
25572.406781000002
 21
19725.606390999961
 31
0.0
  0
LINE
  5
4BA7
  8
SUNPOU
  6
CONTINUOUS
 62
     4
 10
23722.405460999991
 20
13454.111800999961
 30
0.0
 11
25572.406781000002
 21
13454.111800999961
 31
0.0
  0
LINE
  5
4BA8
  8
SUNPOU
  6
CONTINUOUS
 62
     4
 10
25492.406781000002
 20
19725.606390999961
 30
0.0
 11
25492.406781000002
 21
13454.111800999961
 31
0.0
  0
LINE
  5
4BA9
  8
SUNPOU
  6
CONTINUOUS
 62
     4
 10
24572.406781000002
 20
13496.609095999949
 30
0.0
 11
25172.406781000002
 21
13496.609095999949
 31
0.0
  0
LINE
  5
4BAA
  8
SUNPOU
  6
CONTINUOUS
 62
     4
 10
24572.406781000002
 20
16765.109095999971
 30
0.0
 11
25172.406781000002
 21
16765.10909599996
 31
0.0
  0
LINE
  5
4BAB
  8
SUNPOU
  6
CONTINUOUS
 62
     4
 10
25092.406781000002
 20
13496.609095999949
 30
0.0
 11
25092.406781000002
 21
16765.10909599996
 31
0.0
  0
LINE
  5
4BAC
  8
SUNPOU
  6
CONTINUOUS
 62
     4
 10
24572.406781000002
 20
16765.109095999971
 30
0.0
 11
25172.406781000002
 21
16765.10909599996
 31
0.0
  0
LINE
  5
4BAD
  8
SUNPOU
  6
CONTINUOUS
 62
     4
 10
24572.406781000002
 20
19683.10909599996
 30
0.0
 11
25172.406781000002
 21
19683.10909599996
 31
0.0
  0
LINE
  5
4BAE
  8
SUNPOU
  6
CONTINUOUS
 62
     4
 10
25092.406781000002
 20
16765.10909599996
 30
0.0
 11
25092.406781000002
 21
19683.10909599996
 31
0.0
  0
LINE
  5
4BAF
  8
SUNPOU
  6
CONTINUOUS
 62
     4
 10
24572.406781000002
 20
19683.10909599996
 30
0.0
 11
24772.406781000002
 21
19683.10909599996
 31
0.0
  0
LINE
  5
4BB0
  8
SUNPOU
  6
CONTINUOUS
 62
     4
 10
23722.405460999991
 20
18925.10909599996
 30
0.0
 11
24772.406781000002
 21
18925.10909599996
 31
0.0
  0
LINE
  5
4BB1
  8
SUNPOU
  6
CONTINUOUS
 62
     4
 10
24692.406781000002
 20
19683.10909599996
 30
0.0
 11
24692.406781000002
 21
18925.10909599996
 31
0.0
  0
LINE
  5
4BB2
  8
SUNPOU
  6
CONTINUOUS
 62
     4
 10
23722.405460999991
 20
18925.10909599996
 30
0.0
 11
24772.406781000002
 21
18925.10909599996
 31
0.0
  0
LINE
  5
4BB3
  8
SUNPOU
  6
CONTINUOUS
 62
     4
 10
23722.405460999991
 20
18224.10909599996
 30
0.0
 11
24772.406781000002
 21
18224.10909599996
 31
0.0
  0
LINE
  5
4BB4
  8
SUNPOU
  6
CONTINUOUS
 62
     4
 10
24692.406781000002
 20
18925.10909599996
 30
0.0
 11
24692.406781000002
 21
18224.10909599996
 31
0.0
  0
LINE
  5
4BB5
  8
SUNPOU
  6
CONTINUOUS
 62
     4
 10
23722.405460999991
 20
18224.10909599996
 30
0.0
 11
24772.406781000002
 21
18224.10909599996
 31
0.0
  0
LINE
  5
4BB6
  8
SUNPOU
  6
CONTINUOUS
 62
     4
 10
23722.405460999991
 20
17523.109095999971
 30
0.0
 11
24772.406781000002
 21
17523.109095999949
 31
0.0
  0
LINE
  5
4BB7
  8
SUNPOU
  6
CONTINUOUS
 62
     4
 10
24692.406781000002
 20
18224.10909599996
 30
0.0
 11
24692.406781000002
 21
17523.109095999949
 31
0.0
  0
LINE
  5
4BB8
  8
SUNPOU
  6
CONTINUOUS
 62
     4
 10
23722.405460999991
 20
17523.109095999971
 30
0.0
 11
24772.406781000002
 21
17523.109095999949
 31
0.0
  0
LINE
  5
4BB9
  8
SUNPOU
  6
CONTINUOUS
 62
     4
 10
24572.406781000002
 20
16765.109095999971
 30
0.0
 11
24772.406781000002
 21
16765.10909599996
 31
0.0
  0
LINE
  5
4BBA
  8
SUNPOU
  6
CONTINUOUS
 62
     4
 10
24692.406781000002
 20
17523.109095999949
 30
0.0
 11
24692.406781000002
 21
16765.10909599996
 31
0.0
  0
LINE
  5
4BBB
  8
SUNPOU
  6
CONTINUOUS
 62
     4
 10
24572.406781000002
 20
16765.109095999971
 30
0.0
 11
24772.406781000002
 21
16765.10909599996
 31
0.0
  0
LINE
  5
4BBC
  8
SUNPOU
  6
CONTINUOUS
 62
     4
 10
23722.405460999991
 20
16007.109095999949
 30
0.0
 11
24772.406781000002
 21
16007.109095999949
 31
0.0
  0
LINE
  5
4BBD
  8
SUNPOU
  6
CONTINUOUS
 62
     4
 10
24692.406781000002
 20
16765.10909599996
 30
0.0
 11
24692.406781000002
 21
16007.109095999949
 31
0.0
  0
LINE
  5
4BBE
  8
SUNPOU
  6
CONTINUOUS
 62
     4
 10
23722.405460999991
 20
16007.109095999949
 30
0.0
 11
24772.406781000002
 21
16007.109095999949
 31
0.0
  0
LINE
  5
4BBF
  8
SUNPOU
  6
CONTINUOUS
 62
     4
 10
23722.405460999991
 20
15306.34960749998
 30
0.0
 11
24772.406781000002
 21
15306.34960749998
 31
0.0
  0
LINE
  5
4BC0
  8
SUNPOU
  6
CONTINUOUS
 62
     4
 10
24692.406781000002
 20
16007.109095999949
 30
0.0
 11
24692.406781000002
 21
15306.34960749998
 31
0.0
  0
LINE
  5
4BC1
  8
SUNPOU
  6
CONTINUOUS
 62
     4
 10
23722.405460999991
 20
15306.34960749998
 30
0.0
 11
24772.406781000002
 21
15306.34960749998
 31
0.0
  0
LINE
  5
4BC2
  8
SUNPOU
  6
CONTINUOUS
 62
     4
 10
23722.405460999991
 20
14605.10909599996
 30
0.0
 11
24772.406781000002
 21
14605.10909599996
 31
0.0
  0
LINE
  5
4BC3
  8
SUNPOU
  6
CONTINUOUS
 62
     4
 10
24692.406781000002
 20
15306.34960749998
 30
0.0
 11
24692.406781000002
 21
14605.10909599996
 31
0.0
  0
LINE
  5
4BC4
  8
SUNPOU
  6
CONTINUOUS
 62
     4
 10
23722.405460999991
 20
14605.10909599996
 30
0.0
 11
24772.406781000002
 21
14605.10909599996
 31
0.0
  0
LINE
  5
4BC5
  8
SUNPOU
  6
CONTINUOUS
 62
     4
 10
23722.405460999991
 20
13904.10909599996
 30
0.0
 11
24772.406781000002
 21
13904.10909599996
 31
0.0
  0
LINE
  5
4BC6
  8
SUNPOU
  6
CONTINUOUS
 62
     4
 10
24692.406781000002
 20
14605.10909599996
 30
0.0
 11
24692.406781000002
 21
13904.10909599996
 31
0.0
  0
LINE
  5
4BC7
  8
SUNPOU
  6
CONTINUOUS
 62
     4
 10
23722.405460999991
 20
13904.10909599996
 30
0.0
 11
24772.406781000002
 21
13904.10909599996
 31
0.0
  0
LINE
  5
4BC8
  8
SUNPOU
  6
CONTINUOUS
 62
     4
 10
24572.406781000002
 20
13496.609095999949
 30
0.0
 11
24772.406781000002
 21
13496.609095999949
 31
0.0
  0
LINE
  5
4BC9
  8
SUNPOU
  6
CONTINUOUS
 62
     4
 10
24692.406781000002
 20
13904.10909599996
 30
0.0
 11
24692.406781000002
 21
13496.609095999949
 31
0.0
  0
LINE
  5
4BCA
  8
SUNPOU
  6
CONTINUOUS
 62
     4
 10
20331.407177000001
 20
12790.845661999971
 30
0.0
 11
20331.407177000001
 21
12445.16101199997
 31
0.0
  0
LINE
  5
4BCB
  8
SUNPOU
  6
CONTINUOUS
 62
     4
 10
20373.909419999989
 20
13374.11180099997
 30
0.0
 11
20373.909419999989
 21
12445.16101199997
 31
0.0
  0
LINE
  5
4BCC
  8
SUNPOU
  6
CONTINUOUS
 62
     4
 10
20331.407177000001
 20
12525.16101199997
 30
0.0
 11
20091.407177000001
 21
12525.16101199997
 31
0.0
  0
LINE
  5
4BCD
  8
SUNPOU
  6
CONTINUOUS
 62
     4
 10
20373.909419999989
 20
12525.16101199997
 30
0.0
 11
20613.909419999989
 21
12525.16101199997
 31
0.0
  0
LINE
  5
4BCE
  8
SUNPOU
  6
CONTINUOUS
 62
     4
 10
20331.407177000001
 20
12525.16101199997
 30
0.0
 11
20373.909419999989
 21
12525.16101199997
 31
0.0
  0
LINE
  5
4BCF
  8
SUNPOU
  6
CONTINUOUS
 62
     4
 10
23599.90717699999
 20
12755.182753499959
 30
0.0
 11
23599.90717699999
 21
12445.16101199995
 31
0.0
  0
LINE
  5
4BD0
  8
SUNPOU
  6
CONTINUOUS
 62
     4
 10
23557.404933999991
 20
13374.111800999961
 30
0.0
 11
23557.404933999991
 21
12445.16101199995
 31
0.0
  0
LINE
  5
4BD1
  8
SUNPOU
  6
CONTINUOUS
 62
     4
 10
23599.90717699999
 20
12525.16101199995
 30
0.0
 11
23839.90717699999
 21
12525.16101199995
 31
0.0
  0
LINE
  5
4BD2
  8
SUNPOU
  6
CONTINUOUS
 62
     4
 10
23557.404933999991
 20
12525.16101199995
 30
0.0
 11
23317.404933999991
 21
12525.16101199995
 31
0.0
  0
LINE
  5
4BD3
  8
SUNPOU
  6
CONTINUOUS
 62
     4
 10
23599.90717699999
 20
12525.16101199995
 30
0.0
 11
23557.404933999991
 21
12525.16101199995
 31
0.0
  0
LINE
  5
4BD4
  8
SUNPOU
  6
CONTINUOUS
 62
     4
 10
23599.90717699999
 20
12755.182753499959
 30
0.0
 11
23599.90717699999
 21
12445.16101199995
 31
0.0
  0
LINE
  5
4BD5
  8
SUNPOU
  6
CONTINUOUS
 62
     4
 10
23642.409419999989
 20
13374.111800999961
 30
0.0
 11
23642.409419999989
 21
12445.16101199995
 31
0.0
  0
LINE
  5
4BD6
  8
SUNPOU
  6
CONTINUOUS
 62
     4
 10
23599.90717699999
 20
12525.16101199995
 30
0.0
 11
23359.90717699999
 21
12525.16101199995
 31
0.0
  0
LINE
  5
4BD7
  8
SUNPOU
  6
CONTINUOUS
 62
     4
 10
23642.409419999989
 20
12525.16101199995
 30
0.0
 11
23882.409419999989
 21
12525.16101199995
 31
0.0
  0
LINE
  5
4BD8
  8
SUNPOU
  6
CONTINUOUS
 62
     4
 10
23599.90717699999
 20
12525.16101199995
 30
0.0
 11
23642.409419999989
 21
12525.16101199995
 31
0.0
  0
TEXT
  5
4BD9
  8
0
  6
CONTINUOUS
 62
     7
 10
23717.960849382071
 20
12605.16101199995
 30
0.0
 40
160.0
  1
42.5
  0
TEXT
  5
4BDA
  8
0
  6
CONTINUOUS
 62
     7
 10
23001.853504617909
 20
12605.16101199995
 30
0.0
 40
160.0
  1
42.5
  0
TEXT
  5
4BDB
  8
0
  6
CONTINUOUS
 62
     7
 10
20449.4608493821
 20
12605.16101199997
 30
0.0
 40
160.0
  1
42.5
  0
TEXT
  5
4BDC
  8
0
  6
CONTINUOUS
 62
     7
 10
24629.32090456185
 20
12722.70946110753
 30
0.0
 40
160.0
  1
407.5
 50
90.0
  0
TEXT
  5
4BDD
  8
0
  6
CONTINUOUS
 62
     7
 10
24612.406781000002
 20
14081.275762666641
 30
0.0
 40
160.0
  1
701
 50
90.0
  0
TEXT
  5
4BDE
  8
0
  6
CONTINUOUS
 62
     7
 10
24612.406781000002
 20
14782.396018416641
 30
0.0
 40
160.0
  1
701
 50
90.0
  0
TEXT
  5
4BDF
  8
0
  6
CONTINUOUS
 62
     7
 10
24612.406781000002
 20
15483.396018416641
 30
0.0
 40
160.0
  1
701
 50
90.0
  0
TEXT
  5
4BE0
  8
0
  6
CONTINUOUS
 62
     7
 10
24612.406781000002
 20
16172.775762666641
 30
0.0
 40
160.0
  1
758
 50
90.0
  0
TEXT
  5
4BE1
  8
0
  6
CONTINUOUS
 62
     7
 10
24612.406781000002
 20
16930.775762666632
 30
0.0
 40
160.0
  1
758
 50
90.0
  0
TEXT
  5
4BE2
  8
0
  6
CONTINUOUS
 62
     7
 10
24612.406781000002
 20
17700.275762666632
 30
0.0
 40
160.0
  1
701
 50
90.0
  0
TEXT
  5
4BE3
  8
0
  6
CONTINUOUS
 62
     7
 10
24612.406781000002
 20
18401.275762666632
 30
0.0
 40
160.0
  1
701
 50
90.0
  0
TEXT
  5
4BE4
  8
0
  6
CONTINUOUS
 62
     7
 10
24612.406781000002
 20
19090.775762666639
 30
0.0
 40
160.0
  1
758
 50
90.0
  0
TEXT
  5
4BE5
  8
0
  6
CONTINUOUS
 62
     7
 10
25012.406781000002
 20
17957.4424293333
 30
0.0
 40
160.0
  1
2918
 50
90.0
  0
TEXT
  5
4BE6
  8
0
  6
CONTINUOUS
 62
     7
 10
25012.406781000002
 20
14730.85909599996
 30
0.0
 40
160.0
  1
3268.5
 50
90.0
  0
TEXT
  5
4BE7
  8
0
  6
CONTINUOUS
 62
     7
 10
25412.406781000002
 20
16216.52576266663
 30
0.0
 40
160.0
  1
6271.5
 50
90.0
  0
TEXT
  5
4BE8
  8
0
  6
CONTINUOUS
 62
     7
 10
25012.406781000002
 20
19819.162627396759
 30
0.0
 40
160.0
  1
42.5
 50
90.0
  0
TEXT
  5
4BE9
  8
0
  6
CONTINUOUS
 62
     7
 10
25012.406781000002
 20
12880.55556460317
 30
0.0
 40
160.0
  1
42.5
 50
90.0
  0
TEXT
  5
4BEA
  8
0
  6
CONTINUOUS
 62
     7
 10
23722.71915652879
 20
20535.610283999991
 30
0.0
 40
160.0
  1
42.5
  0
TEXT
  5
4BEB
  8
0
  6
CONTINUOUS
 62
     7
 10
20432.240510333329
 20
20535.610283999991
 30
0.0
 40
160.0
  1
407.5
  0
TEXT
  5
4BEC
  8
0
  6
CONTINUOUS
 62
     7
 10
19728.595197471201
 20
20535.610283999991
 30
0.0
 40
160.0
  1
42.5
  0
TEXT
  5
4BED
  8
0
  6
CONTINUOUS
 62
     7
 10
21617.175788916658
 20
20535.610283999991
 30
0.0
 40
160.0
  1
701
  0
TEXT
  5
4BEE
  8
0
  6
CONTINUOUS
 62
     7
 10
20911.65377075212
 20
20198.842136011121
 30
0.0
 40
160.0
  1
701
  0
TEXT
  5
4BEF
  8
0
  6
CONTINUOUS
 62
     7
 10
22318.175788916658
 20
20535.610283999991
 30
0.0
 40
160.0
  1
701
  0
TEXT
  5
4BF0
  8
0
  6
CONTINUOUS
 62
     7
 10
23007.627785791668
 20
20535.610283999991
 30
0.0
 40
160.0
  1
758
  0
TEXT
  5
4BF1
  8
0
  6
CONTINUOUS
 62
     7
 10
21565.660145999991
 20
12124.605150999991
 30
0.0
 40
160.0
  1
3353.5
  0
TEXT
  5
4BF2
  8
0
  6
CONTINUOUS
 62
     7
 10
19733.3449043074
 20
12605.180372063171
 30
0.0
 40
160.0
  1
42.5
 50
359.99814524684132
  0
TEXT
  5
4BF3
  8
0
  6
CONTINUOUS
 62
     7
 10
11954.91611099998
 20
9784.7742739999958
 30
0.0
 40
160.0
  1
6601.5
  0
TEXT
  5
4BF4
  8
0
  6
CONTINUOUS
 62
     7
 10
8581.785936999986
 20
9384.7751979999957
 30
0.0
 40
160.0
  1
180
  0
TEXT
  5
4BF5
  8
0
  6
CONTINUOUS
 62
     7
 10
15728.34760399999
 20
9384.7751979999957
 30
0.0
 40
160.0
  1
150
  0
TEXT
  5
4BF6
  8
0
  6
CONTINUOUS
 62
     7
 10
11956.582777666659
 20
9384.7739439999968
 30
0.0
 40
160.0
  1
6271.5
  0
TEXT
  5
4BF7
  8
0
  6
CONTINUOUS
 62
     7
 10
8024.1676939999898
 20
6822.0319986666682
 30
0.0
 40
160.0
  1
2397
 50
90.0
  0
TEXT
  5
4BF8
  8
0
  6
CONTINUOUS
 62
     7
 10
16475.664526999972
 20
6917.5319986666691
 30
0.0
 40
160.0
  1
2588
 50
90.0
  0
TEXT
  5
4BF9
  8
0
  6
CONTINUOUS
 62
     7
 10
11956.582777666659
 20
4296.8656620000029
 30
0.0
 40
160.0
  1
6271.5
  0
TEXT
  5
4BFA
  8
0
  6
CONTINUOUS
 62
     7
 10
15585.96479099998
 20
4696.8657610000018
 30
0.0
 40
160.0
  1
42.5
  0
TEXT
  5
4BFB
  8
0
  6
CONTINUOUS
 62
     7
 10
8610.3401871611859
 20
4696.8657610000018
 30
0.0
 40
160.0
  1
42.5
  0
TEXT
  5
4BFC
  8
0
  6
CONTINUOUS
 62
     7
 10
13388.91611099999
 20
4696.8659920000009
 30
0.0
 40
160.0
  1
3268.5
  0
TEXT
  5
4BFD
  8
0
  6
CONTINUOUS
 62
     7
 10
10428.99944433332
 20
4696.8659920000009
 30
0.0
 40
160.0
  1
2918
  0
TEXT
  5
4BFE
  8
0
  6
CONTINUOUS
 62
     7
 10
23735.676265636601
 20
4723.5937636705421
 30
0.0
 40
160.0
  1
42.5
  0
TEXT
  5
4BFF
  8
0
  6
CONTINUOUS
 62
     7
 10
19401.407835999998
 20
6017.532246166671
 30
0.0
 40
160.0
  1
有効開口高サ1938.5
 50
90.0
  0
TEXT
  5
4C00
  8
0
  6
CONTINUOUS
 62
     7
 10
21501.65816649999
 20
5363.5324936666666
 30
0.0
 40
160.0
  1
有効開口巾
  0
TEXT
  5
4C01
  8
0
  6
CONTINUOUS
 62
     7
 10
21578.991499833312
 20
5096.8658270000024
 30
0.0
 40
160.0
  1
2802.5
  0
TEXT
  5
4C02
  8
0
  6
CONTINUOUS
 62
     7
 10
19619.067023911372
 20
4723.5937636705421
 30
0.0
 40
160.0
  1
42.5
  0
TEXT
  5
4C03
  8
0
  6
CONTINUOUS
 62
     7
 10
21565.65717699999
 20
4296.8656620000002
 30
0.0
 40
160.0
  1
3353.5
  0
TEXT
  5
4C04
  8
0
  6
CONTINUOUS
 62
     7
 10
21565.65717699999
 20
4696.8659920000009
 30
0.0
 40
160.0
  1
3268.5
  0
TEXT
  5
4C09
  8
0
  6
CONTINUOUS
 62
     7
 10
19001.408495999978
 20
6867.2040905096701
 30
0.0
 40
160.0
  1
2588
 50
90.0
  0
TEXT
  5
4C0A
  8
0
  6
CONTINUOUS
 62
     7
 10
9739.3021570000001
 20
20535.604609000002
 30
0.0
 40
160.0
  1
85.5
  0
TEXT
  5
4C0B
  8
0
  6
CONTINUOUS
 62
     7
 10
11548.699300999981
 20
20535.604345
 30
0.0
 40
160.0
  1
3268.5
  0
TEXT
  5
4C0C
  8
0
  6
CONTINUOUS
 62
     7
 10
13729.29510900001
 20
20535.075861440291
 30
0.0
 40
160.0
  1
85.5
  0
TEXT
  5
4C0D
  8
0
  6
CONTINUOUS
 62
     7
 10
9353.3573855583327
 20
12638.66370804386
 30
0.0
 40
160.0
  1
192.5
 50
90.0
  0
TEXT
  5
4C0E
  8
0
  6
CONTINUOUS
 62
     7
 10
9353.3573855583327
 20
14730.854872999989
 30
0.0
 40
160.0
  1
3268.5
 50
90.0
  0
TEXT
  5
4C0F
  8
0
  6
CONTINUOUS
 62
     7
 10
9353.3573855583327
 20
17957.43820633334
 30
0.0
 40
160.0
  1
2918
 50
90.0
  0
TEXT
  5
4C10
  8
0
  6
CONTINUOUS
 62
     7
 10
9356.4689255583271
 20
19988.097218999999
 30
0.0
 40
160.0
  1
222.5
 50
90.0
  0
TEXT
  5
4C11
  8
0
  6
CONTINUOUS
 62
     7
 10
9768.2109062345717
 20
20035.12662100001
 30
0.0
 40
160.0
  1
10
 50
90.0
  0
ARC
  5
4C17
  8
0
  6
BYBLOCK
 62
     0
 10
9833.3573855583327
 20
19905.604873
 30
0.0
 40
15.0
 50
90.0
 51
270.0
  0
ARC
  5
4C18
  8
0
  6
BYBLOCK
 62
     0
 10
9833.3573855583327
 20
19905.604873
 30
0.0
 40
15.0
 50
270.0
 51
90.0
  0
ARC
  5
4C19
  8
0
  6
BYBLOCK
 62
     0
 10
9833.3573855583327
 20
19895.604873
 30
0.0
 40
15.0
 50
270.0
 51
90.0
  0
ARC
  5
4C1A
  8
0
  6
BYBLOCK
 62
     0
 10
9833.3573855583327
 20
19895.604873
 30
0.0
 40
15.0
 50
90.0
 51
270.0
  0
ARC
  5
4C1B
  8
0
  6
BYBLOCK
 62
     0
 10
9433.3573855583327
 20
19683.104873
 30
0.0
 40
15.0
 50
90.0
 51
270.0
  0
ARC
  5
4C1C
  8
0
  6
BYBLOCK
 62
     0
 10
9433.3573855583327
 20
19683.104873
 30
0.0
 40
15.0
 50
270.0
 51
90.0
  0
ARC
  5
4C1D
  8
0
  6
BYBLOCK
 62
     0
 10
9433.3573855583327
 20
19905.604873
 30
0.0
 40
15.0
 50
270.0
 51
90.0
  0
ARC
  5
4C1E
  8
0
  6
BYBLOCK
 62
     0
 10
9433.3573855583327
 20
19905.604873
 30
0.0
 40
15.0
 50
90.0
 51
270.0
  0
ARC
  5
4C1F
  8
0
  6
BYBLOCK
 62
     0
 10
9433.3573855583327
 20
19683.104873
 30
0.0
 40
15.0
 50
270.0
 51
90.0
  0
ARC
  5
4C20
  8
0
  6
BYBLOCK
 62
     0
 10
9433.3573855583327
 20
19683.104873
 30
0.0
 40
15.0
 50
90.0
 51
270.0
  0
ARC
  5
4C21
  8
0
  6
BYBLOCK
 62
     0
 10
9433.3573855583327
 20
16765.104873000011
 30
0.0
 40
15.0
 50
90.0
 51
270.0
  0
ARC
  5
4C22
  8
0
  6
BYBLOCK
 62
     0
 10
9433.3573855583327
 20
16765.104873000011
 30
0.0
 40
15.0
 50
270.0
 51
90.0
  0
ARC
  5
4C23
  8
0
  6
BYBLOCK
 62
     0
 10
9433.3573855583327
 20
16765.104873000011
 30
0.0
 40
15.0
 50
270.0
 51
90.0
  0
ARC
  5
4C24
  8
0
  6
BYBLOCK
 62
     0
 10
9433.3573855583327
 20
16765.104873000011
 30
0.0
 40
15.0
 50
90.0
 51
270.0
  0
ARC
  5
4C25
  8
0
  6
BYBLOCK
 62
     0
 10
9433.3573855583327
 20
13496.604872999989
 30
0.0
 40
15.0
 50
90.0
 51
270.0
  0
ARC
  5
4C26
  8
0
  6
BYBLOCK
 62
     0
 10
9433.3573855583327
 20
13496.604872999989
 30
0.0
 40
15.0
 50
270.0
 51
90.0
  0
ARC
  5
4C27
  8
0
  6
BYBLOCK
 62
     0
 10
9433.3573855583327
 20
13496.604872999989
 30
0.0
 40
15.0
 50
270.0
 51
90.0
  0
ARC
  5
4C28
  8
0
  6
BYBLOCK
 62
     0
 10
9433.3573855583327
 20
13496.604872999989
 30
0.0
 40
15.0
 50
90.0
 51
270.0
  0
ARC
  5
4C29
  8
0
  6
BYBLOCK
 62
     0
 10
9433.3573855583327
 20
13304.104873
 30
0.0
 40
15.0
 50
90.0
 51
270.0
  0
ARC
  5
4C2A
  8
0
  6
BYBLOCK
 62
     0
 10
9433.3573855583327
 20
13304.104873
 30
0.0
 40
15.0
 50
270.0
 51
90.0
  0
ARC
  5
4C2B
  8
0
  6
BYBLOCK
 62
     0
 10
13582.949301000001
 20
20455.604345
 30
0.0
 40
15.0
 50
180.0
 51
0.0
  0
ARC
  5
4C2C
  8
0
  6
BYBLOCK
 62
     0
 10
13582.949301000001
 20
20455.604345
 30
0.0
 40
15.0
 50
0.0
 51
180.0
  0
ARC
  5
4C2D
  8
0
  6
BYBLOCK
 62
     0
 10
13668.44771700001
 20
20455.604345
 30
0.0
 40
15.0
 50
0.0
 51
180.0
  0
ARC
  5
4C2E
  8
0
  6
BYBLOCK
 62
     0
 10
13668.44771700001
 20
20455.604345
 30
0.0
 40
15.0
 50
180.0
 51
0.0
  0
ARC
  5
4C2F
  8
0
  6
BYBLOCK
 62
     0
 10
10314.44930099999
 20
20455.604345
 30
0.0
 40
15.0
 50
0.0
 51
180.0
  0
ARC
  5
4C30
  8
0
  6
BYBLOCK
 62
     0
 10
10314.44930099999
 20
20455.604345
 30
0.0
 40
15.0
 50
180.0
 51
0.0
  0
ARC
  5
4C31
  8
0
  6
BYBLOCK
 62
     0
 10
13582.94930099999
 20
20455.604345
 30
0.0
 40
15.0
 50
180.0
 51
0.0
  0
ARC
  5
4C32
  8
0
  6
BYBLOCK
 62
     0
 10
13582.94930099999
 20
20455.604345
 30
0.0
 40
15.0
 50
0.0
 51
180.0
  0
ARC
  5
4C33
  8
0
  6
BYBLOCK
 62
     0
 10
10228.949300999981
 20
20455.604345
 30
0.0
 40
15.0
 50
180.0
 51
0.0
  0
ARC
  5
4C34
  8
0
  6
BYBLOCK
 62
     0
 10
10228.949300999981
 20
20455.604345
 30
0.0
 40
15.0
 50
0.0
 51
180.0
  0
ARC
  5
4C35
  8
0
  6
BYBLOCK
 62
     0
 10
10314.44930099999
 20
20455.604345
 30
0.0
 40
15.0
 50
0.0
 51
180.0
  0
ARC
  5
4C36
  8
0
  6
BYBLOCK
 62
     0
 10
10314.44930099999
 20
20455.604345
 30
0.0
 40
15.0
 50
180.0
 51
0.0
  0
ARC
  5
4C37
  8
0
  6
BYBLOCK
 62
     0
 10
19081.408495999978
 20
5916.8653320000003
 30
0.0
 40
15.0
 50
90.0
 51
270.0
  0
ARC
  5
4C38
  8
0
  6
BYBLOCK
 62
     0
 10
19081.408495999978
 20
5916.8653320000003
 30
0.0
 40
15.0
 50
270.0
 51
90.0
  0
ARC
  5
4C39
  8
0
  6
BYBLOCK
 62
     0
 10
19081.408495999978
 20
8504.865332000003
 30
0.0
 40
15.0
 50
270.0
 51
90.0
  0
ARC
  5
4C3A
  8
0
  6
BYBLOCK
 62
     0
 10
19081.408495999978
 20
8504.865332000003
 30
0.0
 40
15.0
 50
90.0
 51
270.0
  0
ARC
  5
4C4B
  8
0
  6
BYBLOCK
 62
     0
 10
23599.90717699999
 20
4616.8659920000009
 30
0.0
 40
15.0
 50
180.0
 51
0.0
  0
ARC
  5
4C4C
  8
0
  6
BYBLOCK
 62
     0
 10
23599.90717699999
 20
4616.8659920000009
 30
0.0
 40
15.0
 50
0.0
 51
180.0
  0
ARC
  5
4C4D
  8
0
  6
BYBLOCK
 62
     0
 10
20331.407176999979
 20
4616.8659920000009
 30
0.0
 40
15.0
 50
0.0
 51
180.0
  0
ARC
  5
4C4E
  8
0
  6
BYBLOCK
 62
     0
 10
20331.407176999979
 20
4616.8659920000009
 30
0.0
 40
15.0
 50
180.0
 51
0.0
  0
ARC
  5
4C4F
  8
0
  6
BYBLOCK
 62
     0
 10
20288.90717699999
 20
4216.865662000002
 30
0.0
 40
15.0
 50
0.0
 51
180.0
  0
ARC
  5
4C50
  8
0
  6
BYBLOCK
 62
     0
 10
20288.90717699999
 20
4216.865662000002
 30
0.0
 40
15.0
 50
180.0
 51
0.0
  0
ARC
  5
4C51
  8
0
  6
BYBLOCK
 62
     0
 10
23642.40717699999
 20
4216.865662000002
 30
0.0
 40
15.0
 50
180.0
 51
0.0
  0
ARC
  5
4C52
  8
0
  6
BYBLOCK
 62
     0
 10
23642.40717699999
 20
4216.865662000002
 30
0.0
 40
15.0
 50
0.0
 51
180.0
  0
ARC
  5
4C53
  8
0
  6
BYBLOCK
 62
     0
 10
20331.407176999979
 20
4616.8659920000009
 30
0.0
 40
15.0
 50
0.0
 51
180.0
  0
ARC
  5
4C54
  8
0
  6
BYBLOCK
 62
     0
 10
20331.407176999979
 20
4616.8659920000009
 30
0.0
 40
15.0
 50
180.0
 51
0.0
  0
ARC
  5
4C55
  8
0
  6
BYBLOCK
 62
     0
 10
20288.90717699999
 20
4616.8659920000009
 30
0.0
 40
15.0
 50
180.0
 51
0.0
  0
ARC
  5
4C56
  8
0
  6
BYBLOCK
 62
     0
 10
20288.90717699999
 20
4616.8659920000009
 30
0.0
 40
15.0
 50
0.0
 51
180.0
  0
ARC
  5
4C57
  8
0
  6
BYBLOCK
 62
     0
 10
20564.40839099999
 20
5016.8658270000014
 30
0.0
 40
15.0
 50
0.0
 51
180.0
  0
ARC
  5
4C58
  8
0
  6
BYBLOCK
 62
     0
 10
20564.40839099999
 20
5016.8658270000014
 30
0.0
 40
15.0
 50
180.0
 51
0.0
  0
ARC
  5
4C59
  8
0
  6
BYBLOCK
 62
     0
 10
23366.907941999991
 20
5016.8658270000014
 30
0.0
 40
15.0
 50
180.0
 51
0.0
  0
ARC
  5
4C5A
  8
0
  6
BYBLOCK
 62
     0
 10
23366.907941999991
 20
5016.8658270000014
 30
0.0
 40
15.0
 50
0.0
 51
180.0
  0
ARC
  5
4C5B
  8
0
  6
BYBLOCK
 62
     0
 10
19481.407835999991
 20
5916.8653320000003
 30
0.0
 40
15.0
 50
90.0
 51
270.0
  0
ARC
  5
4C5C
  8
0
  6
BYBLOCK
 62
     0
 10
19481.407835999991
 20
5916.8653320000003
 30
0.0
 40
15.0
 50
270.0
 51
90.0
  0
ARC
  5
4C5D
  8
0
  6
BYBLOCK
 62
     0
 10
19481.407835999991
 20
7855.3653320000021
 30
0.0
 40
15.0
 50
270.0
 51
90.0
  0
ARC
  5
4C5E
  8
0
  6
BYBLOCK
 62
     0
 10
19481.407835999991
 20
7855.3653320000021
 30
0.0
 40
15.0
 50
90.0
 51
270.0
  0
ARC
  5
4C5F
  8
0
  6
BYBLOCK
 62
     0
 10
23599.90717699999
 20
4616.8659920000009
 30
0.0
 40
15.0
 50
180.0
 51
0.0
  0
ARC
  5
4C60
  8
0
  6
BYBLOCK
 62
     0
 10
23599.90717699999
 20
4616.8659920000009
 30
0.0
 40
15.0
 50
0.0
 51
180.0
  0
ARC
  5
4C61
  8
0
  6
BYBLOCK
 62
     0
 10
23642.40717699999
 20
4616.8659920000009
 30
0.0
 40
15.0
 50
0.0
 51
180.0
  0
ARC
  5
4C62
  8
0
  6
BYBLOCK
 62
     0
 10
23642.40717699999
 20
4616.8659920000009
 30
0.0
 40
15.0
 50
180.0
 51
0.0
  0
ARC
  5
4C63
  8
0
  6
BYBLOCK
 62
     0
 10
9236.6661109999914
 20
4616.8659920000009
 30
0.0
 40
15.0
 50
0.0
 51
180.0
  0
ARC
  5
4C64
  8
0
  6
BYBLOCK
 62
     0
 10
9236.6661109999914
 20
4616.8659920000009
 30
0.0
 40
15.0
 50
180.0
 51
0.0
  0
ARC
  5
4C65
  8
0
  6
BYBLOCK
 62
     0
 10
12154.66611099998
 20
4616.8659920000009
 30
0.0
 40
15.0
 50
180.0
 51
0.0
  0
ARC
  5
4C66
  8
0
  6
BYBLOCK
 62
     0
 10
12154.66611099998
 20
4616.8659920000009
 30
0.0
 40
15.0
 50
0.0
 51
180.0
  0
ARC
  5
4C67
  8
0
  6
BYBLOCK
 62
     0
 10
12154.66611099998
 20
4616.8659920000009
 30
0.0
 40
15.0
 50
0.0
 51
180.0
  0
ARC
  5
4C68
  8
0
  6
BYBLOCK
 62
     0
 10
12154.66611099998
 20
4616.8659920000009
 30
0.0
 40
15.0
 50
180.0
 51
0.0
  0
ARC
  5
4C69
  8
0
  6
BYBLOCK
 62
     0
 10
15423.16611099999
 20
4616.8659920000009
 30
0.0
 40
15.0
 50
180.0
 51
0.0
  0
ARC
  5
4C6A
  8
0
  6
BYBLOCK
 62
     0
 10
15423.16611099999
 20
4616.8659920000009
 30
0.0
 40
15.0
 50
0.0
 51
180.0
  0
ARC
  5
4C6B
  8
0
  6
BYBLOCK
 62
     0
 10
9236.6661109999914
 20
4616.8659920000009
 30
0.0
 40
15.0
 50
0.0
 51
180.0
  0
ARC
  5
4C6C
  8
0
  6
BYBLOCK
 62
     0
 10
9236.6661109999914
 20
4616.8659920000009
 30
0.0
 40
15.0
 50
180.0
 51
0.0
  0
ARC
  5
4C6D
  8
0
  6
BYBLOCK
 62
     0
 10
9194.1661109999914
 20
4616.8659920000009
 30
0.0
 40
15.0
 50
180.0
 51
0.0
  0
ARC
  5
4C6E
  8
0
  6
BYBLOCK
 62
     0
 10
9194.1661109999914
 20
4616.8659920000009
 30
0.0
 40
15.0
 50
0.0
 51
180.0
  0
ARC
  5
4C6F
  8
0
  6
BYBLOCK
 62
     0
 10
15423.16611099999
 20
4616.8659920000009
 30
0.0
 40
15.0
 50
180.0
 51
0.0
  0
ARC
  5
4C70
  8
0
  6
BYBLOCK
 62
     0
 10
15423.16611099999
 20
4616.8659920000009
 30
0.0
 40
15.0
 50
0.0
 51
180.0
  0
ARC
  5
4C71
  8
0
  6
BYBLOCK
 62
     0
 10
15465.66611099998
 20
4616.8659920000009
 30
0.0
 40
15.0
 50
0.0
 51
180.0
  0
ARC
  5
4C72
  8
0
  6
BYBLOCK
 62
     0
 10
15465.66611099998
 20
4616.8659920000009
 30
0.0
 40
15.0
 50
180.0
 51
0.0
  0
ARC
  5
4C73
  8
0
  6
BYBLOCK
 62
     0
 10
9194.1661109999914
 20
4216.865662000002
 30
0.0
 40
15.0
 50
0.0
 51
180.0
  0
ARC
  5
4C74
  8
0
  6
BYBLOCK
 62
     0
 10
9194.1661109999914
 20
4216.865662000002
 30
0.0
 40
15.0
 50
180.0
 51
0.0
  0
ARC
  5
4C75
  8
0
  6
BYBLOCK
 62
     0
 10
15465.66611099998
 20
4216.865662000002
 30
0.0
 40
15.0
 50
180.0
 51
0.0
  0
ARC
  5
4C76
  8
0
  6
BYBLOCK
 62
     0
 10
15465.66611099998
 20
4216.865662000002
 30
0.0
 40
15.0
 50
0.0
 51
180.0
  0
ARC
  5
4C77
  8
0
  6
BYBLOCK
 62
     0
 10
16555.664526999972
 20
5916.8653320000003
 30
0.0
 40
15.0
 50
90.0
 51
270.0
  0
ARC
  5
4C78
  8
0
  6
BYBLOCK
 62
     0
 10
16555.664526999972
 20
5916.8653320000003
 30
0.0
 40
15.0
 50
270.0
 51
90.0
  0
ARC
  5
4C79
  8
0
  6
BYBLOCK
 62
     0
 10
16555.664526999972
 20
8504.8653319999976
 30
0.0
 40
15.0
 50
270.0
 51
90.0
  0
ARC
  5
4C7A
  8
0
  6
BYBLOCK
 62
     0
 10
16555.664526999972
 20
8504.8653319999976
 30
0.0
 40
15.0
 50
90.0
 51
270.0
  0
ARC
  5
4C7B
  8
0
  6
BYBLOCK
 62
     0
 10
8104.1676939999879
 20
5916.8653320000003
 30
0.0
 40
15.0
 50
90.0
 51
270.0
  0
ARC
  5
4C7C
  8
0
  6
BYBLOCK
 62
     0
 10
8104.1676939999879
 20
5916.8653320000003
 30
0.0
 40
15.0
 50
270.0
 51
90.0
  0
ARC
  5
4C7D
  8
0
  6
BYBLOCK
 62
     0
 10
8104.1676939999879
 20
8313.8653319999976
 30
0.0
 40
15.0
 50
270.0
 51
90.0
  0
ARC
  5
4C7E
  8
0
  6
BYBLOCK
 62
     0
 10
8104.1676939999879
 20
8313.8653319999976
 30
0.0
 40
15.0
 50
90.0
 51
270.0
  0
ARC
  5
4C7F
  8
0
  6
BYBLOCK
 62
     0
 10
9194.1661109999914
 20
9304.7739439999968
 30
0.0
 40
15.0
 50
0.0
 51
180.0
  0
ARC
  5
4C80
  8
0
  6
BYBLOCK
 62
     0
 10
9194.1661109999914
 20
9304.7739439999968
 30
0.0
 40
15.0
 50
180.0
 51
0.0
  0
ARC
  5
4C81
  8
0
  6
BYBLOCK
 62
     0
 10
15465.66611099998
 20
9304.7739439999968
 30
0.0
 40
15.0
 50
180.0
 51
0.0
  0
ARC
  5
4C82
  8
0
  6
BYBLOCK
 62
     0
 10
15465.66611099998
 20
9304.7739439999968
 30
0.0
 40
15.0
 50
0.0
 51
180.0
  0
ARC
  5
4C83
  8
0
  6
BYBLOCK
 62
     0
 10
15465.66611099998
 20
9304.7739439999968
 30
0.0
 40
15.0
 50
180.0
 51
0.0
  0
ARC
  5
4C84
  8
0
  6
BYBLOCK
 62
     0
 10
15465.66611099998
 20
9304.7739439999968
 30
0.0
 40
15.0
 50
0.0
 51
180.0
  0
ARC
  5
4C85
  8
0
  6
BYBLOCK
 62
     0
 10
15615.66611099999
 20
9304.7739439999968
 30
0.0
 40
15.0
 50
0.0
 51
180.0
  0
ARC
  5
4C86
  8
0
  6
BYBLOCK
 62
     0
 10
15615.66611099999
 20
9304.7739439999968
 30
0.0
 40
15.0
 50
180.0
 51
0.0
  0
ARC
  5
4C87
  8
0
  6
BYBLOCK
 62
     0
 10
9194.1661109999914
 20
9304.7739439999968
 30
0.0
 40
15.0
 50
180.0
 51
0.0
  0
ARC
  5
4C88
  8
0
  6
BYBLOCK
 62
     0
 10
9194.1661109999914
 20
9304.7739439999968
 30
0.0
 40
15.0
 50
0.0
 51
180.0
  0
ARC
  5
4C89
  8
0
  6
BYBLOCK
 62
     0
 10
9014.1661109999914
 20
9304.7739439999968
 30
0.0
 40
15.0
 50
0.0
 51
180.0
  0
ARC
  5
4C8A
  8
0
  6
BYBLOCK
 62
     0
 10
9014.1661109999914
 20
9304.7739439999968
 30
0.0
 40
15.0
 50
180.0
 51
0.0
  0
ARC
  5
4C8B
  8
0
  6
BYBLOCK
 62
     0
 10
9014.1661109999914
 20
9704.7742739999958
 30
0.0
 40
15.0
 50
0.0
 51
180.0
  0
ARC
  5
4C8C
  8
0
  6
BYBLOCK
 62
     0
 10
9014.1661109999914
 20
9704.7742739999958
 30
0.0
 40
15.0
 50
180.0
 51
0.0
  0
ARC
  5
4C8D
  8
0
  6
BYBLOCK
 62
     0
 10
15615.66611099999
 20
9704.7742739999958
 30
0.0
 40
15.0
 50
180.0
 51
0.0
  0
ARC
  5
4C8E
  8
0
  6
BYBLOCK
 62
     0
 10
15615.66611099999
 20
9704.7742739999958
 30
0.0
 40
15.0
 50
0.0
 51
180.0
  0
ARC
  5
4C8F
  8
0
  6
BYBLOCK
 62
     0
 10
20331.39598665226
 20
12525.16101218105
 30
0.0
 40
15.000000000001339
 50
359.99814524684479
 51
179.9981452468449
  0
ARC
  5
4C90
  8
0
  6
BYBLOCK
 62
     0
 10
20331.39598665226
 20
12525.16101218105
 30
0.0
 40
15.000000000001339
 50
179.9981452468449
 51
359.99814524684479
  0
ARC
  5
4C91
  8
0
  6
BYBLOCK
 62
     0
 10
20288.893743674558
 20
12525.16238804452
 30
0.0
 40
15.000000000001339
 50
179.9981452468449
 51
359.99814524684479
  0
ARC
  5
4C92
  8
0
  6
BYBLOCK
 62
     0
 10
20288.893743674558
 20
12525.16238804452
 30
0.0
 40
15.000000000001339
 50
359.99814524684479
 51
179.9981452468449
  0
ARC
  5
4C93
  8
0
  6
BYBLOCK
 62
     0
 10
20288.910872
 20
12044.605150999991
 30
0.0
 40
15.0
 50
0.0
 51
180.0
  0
ARC
  5
4C94
  8
0
  6
BYBLOCK
 62
     0
 10
20288.910872
 20
12044.605150999991
 30
0.0
 40
15.0
 50
180.0
 51
0.0
  0
ARC
  5
4C95
  8
0
  6
BYBLOCK
 62
     0
 10
23642.409419999989
 20
12044.605150999991
 30
0.0
 40
15.0
 50
180.0
 51
0.0
  0
ARC
  5
4C96
  8
0
  6
BYBLOCK
 62
     0
 10
23642.409419999989
 20
12044.605150999991
 30
0.0
 40
15.0
 50
0.0
 51
180.0
  0
ARC
  5
4C97
  8
0
  6
BYBLOCK
 62
     0
 10
22842.009122250001
 20
20455.610283999991
 30
0.0
 40
15.0
 50
0.0
 51
180.0
  0
ARC
  5
4C98
  8
0
  6
BYBLOCK
 62
     0
 10
22842.009122250001
 20
20455.610283999991
 30
0.0
 40
15.0
 50
180.0
 51
0.0
  0
ARC
  5
4C99
  8
0
  6
BYBLOCK
 62
     0
 10
23599.913115999989
 20
20455.610283999991
 30
0.0
 40
15.0
 50
180.0
 51
0.0
  0
ARC
  5
4C9A
  8
0
  6
BYBLOCK
 62
     0
 10
23599.913115999989
 20
20455.610283999991
 30
0.0
 40
15.0
 50
0.0
 51
180.0
  0
ARC
  5
4C9B
  8
0
  6
BYBLOCK
 62
     0
 10
22141.009122250001
 20
20455.610283999991
 30
0.0
 40
15.0
 50
0.0
 51
180.0
  0
ARC
  5
4C9C
  8
0
  6
BYBLOCK
 62
     0
 10
22141.009122250001
 20
20455.610283999991
 30
0.0
 40
15.0
 50
180.0
 51
0.0
  0
ARC
  5
4C9D
  8
0
  6
BYBLOCK
 62
     0
 10
22842.009122250001
 20
20455.610283999991
 30
0.0
 40
15.0
 50
180.0
 51
0.0
  0
ARC
  5
4C9E
  8
0
  6
BYBLOCK
 62
     0
 10
22842.009122250001
 20
20455.610283999991
 30
0.0
 40
15.0
 50
0.0
 51
180.0
  0
ARC
  5
4C9F
  8
0
  6
BYBLOCK
 62
     0
 10
20739.009122250009
 20
20455.610283999991
 30
0.0
 40
15.0
 50
0.0
 51
180.0
  0
ARC
  5
4CA0
  8
0
  6
BYBLOCK
 62
     0
 10
20739.009122250009
 20
20455.610283999991
 30
0.0
 40
15.0
 50
180.0
 51
0.0
  0
ARC
  5
4CA1
  8
0
  6
BYBLOCK
 62
     0
 10
21440.009122250001
 20
20455.610283999991
 30
0.0
 40
15.0
 50
180.0
 51
0.0
  0
ARC
  5
4CA2
  8
0
  6
BYBLOCK
 62
     0
 10
21440.009122250001
 20
20455.610283999991
 30
0.0
 40
15.0
 50
0.0
 51
180.0
  0
ARC
  5
4CA3
  8
0
  6
BYBLOCK
 62
     0
 10
21440.009122250001
 20
20455.610283999991
 30
0.0
 40
15.0
 50
0.0
 51
180.0
  0
ARC
  5
4CA4
  8
0
  6
BYBLOCK
 62
     0
 10
21440.009122250001
 20
20455.610283999991
 30
0.0
 40
15.0
 50
180.0
 51
0.0
  0
ARC
  5
4CA5
  8
0
  6
BYBLOCK
 62
     0
 10
22141.009122250001
 20
20455.610283999991
 30
0.0
 40
15.0
 50
180.0
 51
0.0
  0
ARC
  5
4CA6
  8
0
  6
BYBLOCK
 62
     0
 10
22141.009122250001
 20
20455.610283999991
 30
0.0
 40
15.0
 50
0.0
 51
180.0
  0
ARC
  5
4CA7
  8
0
  6
BYBLOCK
 62
     0
 10
20331.407177000001
 20
20455.610283999991
 30
0.0
 40
15.0
 50
0.0
 51
180.0
  0
ARC
  5
4CA8
  8
0
  6
BYBLOCK
 62
     0
 10
20331.407177000001
 20
20455.610283999991
 30
0.0
 40
15.0
 50
180.0
 51
0.0
  0
ARC
  5
4CA9
  8
0
  6
BYBLOCK
 62
     0
 10
20288.910872
 20
20455.610283999991
 30
0.0
 40
15.0
 50
180.0
 51
0.0
  0
ARC
  5
4CAA
  8
0
  6
BYBLOCK
 62
     0
 10
20288.910872
 20
20455.610283999991
 30
0.0
 40
15.0
 50
0.0
 51
180.0
  0
ARC
  5
4CAB
  8
0
  6
BYBLOCK
 62
     0
 10
20331.407177000001
 20
20455.610283999991
 30
0.0
 40
15.0
 50
0.0
 51
180.0
  0
ARC
  5
4CAC
  8
0
  6
BYBLOCK
 62
     0
 10
20331.407177000001
 20
20455.610283999991
 30
0.0
 40
15.0
 50
180.0
 51
0.0
  0
ARC
  5
4CAD
  8
0
  6
BYBLOCK
 62
     0
 10
20739.009122250009
 20
20455.610283999991
 30
0.0
 40
15.0
 50
180.0
 51
0.0
  0
ARC
  5
4CAE
  8
0
  6
BYBLOCK
 62
     0
 10
20739.009122250009
 20
20455.610283999991
 30
0.0
 40
15.0
 50
0.0
 51
180.0
  0
ARC
  5
4CAF
  8
0
  6
BYBLOCK
 62
     0
 10
23599.90717699999
 20
20455.610283999991
 30
0.0
 40
15.0
 50
180.0
 51
0.0
  0
ARC
  5
4CB0
  8
0
  6
BYBLOCK
 62
     0
 10
23599.90717699999
 20
20455.610283999991
 30
0.0
 40
15.0
 50
0.0
 51
180.0
  0
ARC
  5
4CB1
  8
0
  6
BYBLOCK
 62
     0
 10
23642.403482000002
 20
20455.610283999991
 30
0.0
 40
15.0
 50
0.0
 51
180.0
  0
ARC
  5
4CB2
  8
0
  6
BYBLOCK
 62
     0
 10
23642.403482000002
 20
20455.610283999991
 30
0.0
 40
15.0
 50
180.0
 51
0.0
  0
ARC
  5
4CB3
  8
0
  6
BYBLOCK
 62
     0
 10
25092.406781000002
 20
13496.609095999949
 30
0.0
 40
15.0
 50
90.0
 51
270.0
  0
ARC
  5
4CB4
  8
0
  6
BYBLOCK
 62
     0
 10
25092.406781000002
 20
13496.609095999949
 30
0.0
 40
15.0
 50
270.0
 51
90.0
  0
ARC
  5
4CB5
  8
0
  6
BYBLOCK
 62
     0
 10
25092.406781000002
 20
13454.111800999961
 30
0.0
 40
15.0
 50
270.0
 51
90.0
  0
ARC
  5
4CB6
  8
0
  6
BYBLOCK
 62
     0
 10
25092.406781000002
 20
13454.111800999961
 30
0.0
 40
15.0
 50
90.0
 51
270.0
  0
ARC
  5
4CB7
  8
0
  6
BYBLOCK
 62
     0
 10
25092.406781000002
 20
19683.10909599996
 30
0.0
 40
15.0
 50
270.0
 51
90.0
  0
ARC
  5
4CB8
  8
0
  6
BYBLOCK
 62
     0
 10
25092.406781000002
 20
19683.10909599996
 30
0.0
 40
15.0
 50
90.0
 51
270.0
  0
ARC
  5
4CB9
  8
0
  6
BYBLOCK
 62
     0
 10
25092.406781000002
 20
19725.606390999961
 30
0.0
 40
15.0
 50
90.0
 51
270.0
  0
ARC
  5
4CBA
  8
0
  6
BYBLOCK
 62
     0
 10
25092.406781000002
 20
19725.606390999961
 30
0.0
 40
15.0
 50
270.0
 51
90.0
  0
ARC
  5
4CBB
  8
0
  6
BYBLOCK
 62
     0
 10
25492.406781000002
 20
19725.606390999961
 30
0.0
 40
15.0
 50
270.0
 51
90.0
  0
ARC
  5
4CBC
  8
0
  6
BYBLOCK
 62
     0
 10
25492.406781000002
 20
19725.606390999961
 30
0.0
 40
15.0
 50
90.0
 51
270.0
  0
ARC
  5
4CBD
  8
0
  6
BYBLOCK
 62
     0
 10
25492.406781000002
 20
13454.111800999961
 30
0.0
 40
15.0
 50
90.0
 51
270.0
  0
ARC
  5
4CBE
  8
0
  6
BYBLOCK
 62
     0
 10
25492.406781000002
 20
13454.111800999961
 30
0.0
 40
15.0
 50
270.0
 51
90.0
  0
ARC
  5
4CBF
  8
0
  6
BYBLOCK
 62
     0
 10
25092.406781000002
 20
13496.609095999949
 30
0.0
 40
15.0
 50
90.0
 51
270.0
  0
ARC
  5
4CC0
  8
0
  6
BYBLOCK
 62
     0
 10
25092.406781000002
 20
13496.609095999949
 30
0.0
 40
15.0
 50
270.0
 51
90.0
  0
ARC
  5
4CC1
  8
0
  6
BYBLOCK
 62
     0
 10
25092.406781000002
 20
16765.10909599996
 30
0.0
 40
15.0
 50
270.0
 51
90.0
  0
ARC
  5
4CC2
  8
0
  6
BYBLOCK
 62
     0
 10
25092.406781000002
 20
16765.10909599996
 30
0.0
 40
15.0
 50
90.0
 51
270.0
  0
ARC
  5
4CC3
  8
0
  6
BYBLOCK
 62
     0
 10
25092.406781000002
 20
16765.10909599996
 30
0.0
 40
15.0
 50
90.0
 51
270.0
  0
ARC
  5
4CC4
  8
0
  6
BYBLOCK
 62
     0
 10
25092.406781000002
 20
16765.10909599996
 30
0.0
 40
15.0
 50
270.0
 51
90.0
  0
ARC
  5
4CC5
  8
0
  6
BYBLOCK
 62
     0
 10
25092.406781000002
 20
19683.10909599996
 30
0.0
 40
15.0
 50
270.0
 51
90.0
  0
ARC
  5
4CC6
  8
0
  6
BYBLOCK
 62
     0
 10
25092.406781000002
 20
19683.10909599996
 30
0.0
 40
15.0
 50
90.0
 51
270.0
  0
ARC
  5
4CC7
  8
0
  6
BYBLOCK
 62
     0
 10
24692.406781000002
 20
19683.10909599996
 30
0.0
 40
15.0
 50
270.0
 51
90.0
  0
ARC
  5
4CC8
  8
0
  6
BYBLOCK
 62
     0
 10
24692.406781000002
 20
19683.10909599996
 30
0.0
 40
15.0
 50
90.0
 51
270.0
  0
ARC
  5
4CC9
  8
0
  6
BYBLOCK
 62
     0
 10
24692.406781000002
 20
18925.10909599996
 30
0.0
 40
15.0
 50
90.0
 51
270.0
  0
ARC
  5
4CCA
  8
0
  6
BYBLOCK
 62
     0
 10
24692.406781000002
 20
18925.10909599996
 30
0.0
 40
15.0
 50
270.0
 51
90.0
  0
ARC
  5
4CCB
  8
0
  6
BYBLOCK
 62
     0
 10
24692.406781000002
 20
18925.10909599996
 30
0.0
 40
15.0
 50
270.0
 51
90.0
  0
ARC
  5
4CCC
  8
0
  6
BYBLOCK
 62
     0
 10
24692.406781000002
 20
18925.10909599996
 30
0.0
 40
15.0
 50
90.0
 51
270.0
  0
ARC
  5
4CCD
  8
0
  6
BYBLOCK
 62
     0
 10
24692.406781000002
 20
18224.10909599996
 30
0.0
 40
15.0
 50
90.0
 51
270.0
  0
ARC
  5
4CCE
  8
0
  6
BYBLOCK
 62
     0
 10
24692.406781000002
 20
18224.10909599996
 30
0.0
 40
15.0
 50
270.0
 51
90.0
  0
ARC
  5
4CCF
  8
0
  6
BYBLOCK
 62
     0
 10
24692.406781000002
 20
18224.10909599996
 30
0.0
 40
15.0
 50
270.0
 51
90.0
  0
ARC
  5
4CD0
  8
0
  6
BYBLOCK
 62
     0
 10
24692.406781000002
 20
18224.10909599996
 30
0.0
 40
15.0
 50
90.0
 51
270.0
  0
ARC
  5
4CD1
  8
0
  6
BYBLOCK
 62
     0
 10
24692.406781000002
 20
17523.109095999949
 30
0.0
 40
15.0
 50
90.0
 51
270.0
  0
ARC
  5
4CD2
  8
0
  6
BYBLOCK
 62
     0
 10
24692.406781000002
 20
17523.109095999949
 30
0.0
 40
15.0
 50
270.0
 51
90.0
  0
ARC
  5
4CD3
  8
0
  6
BYBLOCK
 62
     0
 10
24692.406781000002
 20
17523.109095999949
 30
0.0
 40
15.0
 50
270.0
 51
90.0
  0
ARC
  5
4CD4
  8
0
  6
BYBLOCK
 62
     0
 10
24692.406781000002
 20
17523.109095999949
 30
0.0
 40
15.0
 50
90.0
 51
270.0
  0
ARC
  5
4CD5
  8
0
  6
BYBLOCK
 62
     0
 10
24692.406781000002
 20
16765.10909599996
 30
0.0
 40
15.0
 50
90.0
 51
270.0
  0
ARC
  5
4CD6
  8
0
  6
BYBLOCK
 62
     0
 10
24692.406781000002
 20
16765.10909599996
 30
0.0
 40
15.0
 50
270.0
 51
90.0
  0
ARC
  5
4CD7
  8
0
  6
BYBLOCK
 62
     0
 10
24692.406781000002
 20
16765.10909599996
 30
0.0
 40
15.0
 50
270.0
 51
90.0
  0
ARC
  5
4CD8
  8
0
  6
BYBLOCK
 62
     0
 10
24692.406781000002
 20
16765.10909599996
 30
0.0
 40
15.0
 50
90.0
 51
270.0
  0
ARC
  5
4CD9
  8
0
  6
BYBLOCK
 62
     0
 10
24692.406781000002
 20
16007.109095999949
 30
0.0
 40
15.0
 50
90.0
 51
270.0
  0
ARC
  5
4CDA
  8
0
  6
BYBLOCK
 62
     0
 10
24692.406781000002
 20
16007.109095999949
 30
0.0
 40
15.0
 50
270.0
 51
90.0
  0
ARC
  5
4CDB
  8
0
  6
BYBLOCK
 62
     0
 10
24692.406781000002
 20
16007.109095999949
 30
0.0
 40
15.0
 50
270.0
 51
90.0
  0
ARC
  5
4CDC
  8
0
  6
BYBLOCK
 62
     0
 10
24692.406781000002
 20
16007.109095999949
 30
0.0
 40
15.0
 50
90.0
 51
270.0
  0
ARC
  5
4CDD
  8
0
  6
BYBLOCK
 62
     0
 10
24692.406781000002
 20
15306.34960749998
 30
0.0
 40
15.0
 50
90.0
 51
270.0
  0
ARC
  5
4CDE
  8
0
  6
BYBLOCK
 62
     0
 10
24692.406781000002
 20
15306.34960749998
 30
0.0
 40
15.0
 50
270.0
 51
90.0
  0
ARC
  5
4CDF
  8
0
  6
BYBLOCK
 62
     0
 10
24692.406781000002
 20
15306.34960749998
 30
0.0
 40
15.0
 50
270.0
 51
90.0
  0
ARC
  5
4CE0
  8
0
  6
BYBLOCK
 62
     0
 10
24692.406781000002
 20
15306.34960749998
 30
0.0
 40
15.0
 50
90.0
 51
270.0
  0
ARC
  5
4CE1
  8
0
  6
BYBLOCK
 62
     0
 10
24692.406781000002
 20
14605.10909599996
 30
0.0
 40
15.0
 50
90.0
 51
270.0
  0
ARC
  5
4CE2
  8
0
  6
BYBLOCK
 62
     0
 10
24692.406781000002
 20
14605.10909599996
 30
0.0
 40
15.0
 50
270.0
 51
90.0
  0
ARC
  5
4CE3
  8
0
  6
BYBLOCK
 62
     0
 10
24692.406781000002
 20
14605.10909599996
 30
0.0
 40
15.0
 50
270.0
 51
90.0
  0
ARC
  5
4CE4
  8
0
  6
BYBLOCK
 62
     0
 10
24692.406781000002
 20
14605.10909599996
 30
0.0
 40
15.0
 50
90.0
 51
270.0
  0
ARC
  5
4CE5
  8
0
  6
BYBLOCK
 62
     0
 10
24692.406781000002
 20
13904.10909599996
 30
0.0
 40
15.0
 50
90.0
 51
270.0
  0
ARC
  5
4CE6
  8
0
  6
BYBLOCK
 62
     0
 10
24692.406781000002
 20
13904.10909599996
 30
0.0
 40
15.0
 50
270.0
 51
90.0
  0
ARC
  5
4CE7
  8
0
  6
BYBLOCK
 62
     0
 10
24692.406781000002
 20
13904.10909599996
 30
0.0
 40
15.0
 50
270.0
 51
90.0
  0
ARC
  5
4CE8
  8
0
  6
BYBLOCK
 62
     0
 10
24692.406781000002
 20
13904.10909599996
 30
0.0
 40
15.0
 50
90.0
 51
270.0
  0
ARC
  5
4CE9
  8
0
  6
BYBLOCK
 62
     0
 10
24692.406781000002
 20
13496.609095999949
 30
0.0
 40
15.0
 50
90.0
 51
270.0
  0
ARC
  5
4CEA
  8
0
  6
BYBLOCK
 62
     0
 10
24692.406781000002
 20
13496.609095999949
 30
0.0
 40
15.0
 50
270.0
 51
90.0
  0
ARC
  5
4CEB
  8
0
  6
BYBLOCK
 62
     0
 10
20331.407177000001
 20
12525.16101199997
 30
0.0
 40
15.0
 50
180.0
 51
0.0
  0
ARC
  5
4CEC
  8
0
  6
BYBLOCK
 62
     0
 10
20331.407177000001
 20
12525.16101199997
 30
0.0
 40
15.0
 50
0.0
 51
180.0
  0
ARC
  5
4CED
  8
0
  6
BYBLOCK
 62
     0
 10
20373.909419999989
 20
12525.16101199997
 30
0.0
 40
15.0
 50
0.0
 51
180.0
  0
ARC
  5
4CEE
  8
0
  6
BYBLOCK
 62
     0
 10
20373.909419999989
 20
12525.16101199997
 30
0.0
 40
15.0
 50
180.0
 51
0.0
  0
ARC
  5
4CEF
  8
0
  6
BYBLOCK
 62
     0
 10
23599.90717699999
 20
12525.16101199995
 30
0.0
 40
15.0
 50
0.0
 51
180.0
  0
ARC
  5
4CF0
  8
0
  6
BYBLOCK
 62
     0
 10
23599.90717699999
 20
12525.16101199995
 30
0.0
 40
15.0
 50
180.0
 51
0.0
  0
ARC
  5
4CF1
  8
0
  6
BYBLOCK
 62
     0
 10
23557.404933999991
 20
12525.16101199995
 30
0.0
 40
15.0
 50
180.0
 51
0.0
  0
ARC
  5
4CF2
  8
0
  6
BYBLOCK
 62
     0
 10
23557.404933999991
 20
12525.16101199995
 30
0.0
 40
15.0
 50
0.0
 51
180.0
  0
ARC
  5
4CF3
  8
0
  6
BYBLOCK
 62
     0
 10
23599.90717699999
 20
12525.16101199995
 30
0.0
 40
15.0
 50
180.0
 51
0.0
  0
ARC
  5
4CF4
  8
0
  6
BYBLOCK
 62
     0
 10
23599.90717699999
 20
12525.16101199995
 30
0.0
 40
15.0
 50
0.0
 51
180.0
  0
ARC
  5
4CF5
  8
0
  6
BYBLOCK
 62
     0
 10
23642.409419999989
 20
12525.16101199995
 30
0.0
 40
15.0
 50
0.0
 51
180.0
  0
ARC
  5
4CF6
  8
0
  6
BYBLOCK
 62
     0
 10
23642.409419999989
 20
12525.16101199995
 30
0.0
 40
15.0
 50
180.0
 51
0.0
  0
LINE
  5
4EFA
  8
SUNPOU
  6
CONTINUOUS
 62
     4
 10
23642.408298499951
 20
8585.3651599999976
 30
0.0
 11
23642.408298499951
 21
9384.8650019999968
 31
0.0
  0
LINE
  5
4EFB
  8
SUNPOU
  6
CONTINUOUS
 62
     4
 10
23685.410409499938
 20
8585.3651599999976
 30
0.0
 11
23685.410409499938
 21
9384.8650019999968
 31
0.0
  0
LINE
  5
4EFC
  8
SUNPOU
  6
CONTINUOUS
 62
     4
 10
23642.408298499951
 20
9304.8650019999968
 30
0.0
 11
23402.408298499951
 21
9304.8650019999968
 31
0.0
  0
LINE
  5
4EFD
  8
SUNPOU
  6
CONTINUOUS
 62
     4
 10
23682.410409499949
 20
9304.8650019999968
 30
0.0
 11
23922.410409499949
 21
9304.8650019999968
 31
0.0
  0
LINE
  5
4EFE
  8
SUNPOU
  6
CONTINUOUS
 62
     4
 10
23642.408298499951
 20
9304.8650019999968
 30
0.0
 11
23682.410409499949
 21
9304.8650019999968
 31
0.0
  0
LINE
  5
4EFF
  8
SUNPOU
  6
CONTINUOUS
 62
     4
 10
20245.905659499989
 20
8585.3651599999976
 30
0.0
 11
20245.905659499989
 21
9784.8227719999995
 31
0.0
  0
LINE
  5
4F00
  8
SUNPOU
  6
CONTINUOUS
 62
     4
 10
23685.410409499938
 20
8585.3651599999976
 30
0.0
 11
23685.410409499938
 21
9784.8227719999995
 31
0.0
  0
LINE
  5
4F01
  8
SUNPOU
  6
CONTINUOUS
 62
     4
 10
20248.9056595
 20
9704.8227719999995
 30
0.0
 11
23682.410409499949
 21
9704.8227719999995
 31
0.0
  0
LINE
  5
4F02
  8
SUNPOU
  6
CONTINUOUS
 62
     4
 10
20288.90777049998
 20
8585.3651599999976
 30
0.0
 11
20288.90777049998
 21
9384.8650019999968
 31
0.0
  0
LINE
  5
4F03
  8
SUNPOU
  6
CONTINUOUS
 62
     4
 10
23642.408298499951
 20
8585.3651599999976
 30
0.0
 11
23642.408298499951
 21
9384.8650019999968
 31
0.0
  0
LINE
  5
4F04
  8
SUNPOU
  6
CONTINUOUS
 62
     4
 10
20288.90777049998
 20
9304.8650019999968
 30
0.0
 11
23642.408298499951
 21
9304.8650019999968
 31
0.0
  0
LINE
  5
4F05
  8
SUNPOU
  6
CONTINUOUS
 62
     4
 10
20288.90777049998
 20
8585.3651599999976
 30
0.0
 11
20288.90777049998
 21
9384.8650019999968
 31
0.0
  0
LINE
  5
4F06
  8
SUNPOU
  6
CONTINUOUS
 62
     4
 10
20245.905659499989
 20
8585.3651599999976
 30
0.0
 11
20245.905659499989
 21
9384.8650019999968
 31
0.0
  0
LINE
  5
4F07
  8
SUNPOU
  6
CONTINUOUS
 62
     4
 10
20288.90777049998
 20
9304.8650019999968
 30
0.0
 11
20528.90777049998
 21
9304.8650019999968
 31
0.0
  0
LINE
  5
4F08
  8
SUNPOU
  6
CONTINUOUS
 62
     4
 10
20248.9056595
 20
9304.8650019999968
 30
0.0
 11
20008.9056595
 21
9304.8650019999968
 31
0.0
  0
LINE
  5
4F09
  8
SUNPOU
  6
CONTINUOUS
 62
     4
 10
20288.90777049998
 20
9304.8650019999968
 30
0.0
 11
20248.9056595
 21
9304.8650019999968
 31
0.0
  0
TEXT
  5
4F0A
  8
0
  6
CONTINUOUS
 62
     7
 10
19888.9056595
 20
9384.8650019999968
 30
0.0
 40
160.0
  1
43
  0
TEXT
  5
4F0B
  8
0
  6
CONTINUOUS
 62
     7
 10
21565.658034499971
 20
9384.8650019999968
 30
0.0
 40
160.0
  1
3353.5
  0
TEXT
  5
4F0C
  8
0
  6
CONTINUOUS
 62
     7
 10
21565.658034499971
 20
9784.8227719999995
 30
0.0
 40
160.0
  1
3439.5
  0
TEXT
  5
4F0D
  8
0
  6
CONTINUOUS
 62
     7
 10
23802.410409499949
 20
9384.8650019999968
 30
0.0
 40
160.0
  1
43
  0
ARC
  5
4F0E
  8
0
  6
BYBLOCK
 62
     0
 10
23642.408298499951
 20
9304.8650019999968
 30
0.0
 40
15.0
 50
180.0
 51
0.0
  0
ARC
  5
4F0F
  8
0
  6
BYBLOCK
 62
     0
 10
23642.408298499951
 20
9304.8650019999968
 30
0.0
 40
15.0
 50
0.0
 51
180.0
  0
ARC
  5
4F10
  8
0
  6
BYBLOCK
 62
     0
 10
23685.410409499938
 20
9304.8650019999968
 30
0.0
 40
15.0
 50
0.0
 51
180.0
  0
ARC
  5
4F11
  8
0
  6
BYBLOCK
 62
     0
 10
23685.410409499938
 20
9304.8650019999968
 30
0.0
 40
15.0
 50
180.0
 51
0.0
  0
ARC
  5
4F12
  8
0
  6
BYBLOCK
 62
     0
 10
20245.905659499989
 20
9704.8227719999995
 30
0.0
 40
15.0
 50
0.0
 51
180.0
  0
ARC
  5
4F13
  8
0
  6
BYBLOCK
 62
     0
 10
20245.905659499989
 20
9704.8227719999995
 30
0.0
 40
15.0
 50
180.0
 51
0.0
  0
ARC
  5
4F14
  8
0
  6
BYBLOCK
 62
     0
 10
23685.410409499938
 20
9704.8227719999995
 30
0.0
 40
15.0
 50
180.0
 51
0.0
  0
ARC
  5
4F15
  8
0
  6
BYBLOCK
 62
     0
 10
23685.410409499938
 20
9704.8227719999995
 30
0.0
 40
15.0
 50
0.0
 51
180.0
  0
ARC
  5
4F16
  8
0
  6
BYBLOCK
 62
     0
 10
20288.90777049998
 20
9304.8650019999968
 30
0.0
 40
15.0
 50
0.0
 51
180.0
  0
ARC
  5
4F17
  8
0
  6
BYBLOCK
 62
     0
 10
20288.90777049998
 20
9304.8650019999968
 30
0.0
 40
15.0
 50
180.0
 51
0.0
  0
ARC
  5
4F18
  8
0
  6
BYBLOCK
 62
     0
 10
23642.408298499951
 20
9304.8650019999968
 30
0.0
 40
15.0
 50
180.0
 51
0.0
  0
ARC
  5
4F19
  8
0
  6
BYBLOCK
 62
     0
 10
23642.408298499951
 20
9304.8650019999968
 30
0.0
 40
15.0
 50
0.0
 51
180.0
  0
ARC
  5
4F1A
  8
0
  6
BYBLOCK
 62
     0
 10
20288.90777049998
 20
9304.8650019999968
 30
0.0
 40
15.0
 50
0.0
 51
180.0
  0
ARC
  5
4F1B
  8
0
  6
BYBLOCK
 62
     0
 10
20288.90777049998
 20
9304.8650019999968
 30
0.0
 40
15.0
 50
180.0
 51
0.0
  0
ARC
  5
4F1C
  8
0
  6
BYBLOCK
 62
     0
 10
20245.905659499989
 20
9304.8650019999968
 30
0.0
 40
15.0
 50
180.0
 51
0.0
  0
ARC
  5
4F1D
  8
0
  6
BYBLOCK
 62
     0
 10
20245.905659499989
 20
9304.8650019999968
 30
0.0
 40
15.0
 50
0.0
 51
180.0
  0
LINE
  5
4F2B
  8
SUNPOU
  6
CONTINUOUS
 62
     4
 10
10228.94791550001
 20
13224.10190300001
 30
0.0
 11
10228.94791550001
 21
12045.152103000009
 31
0.0
  0
LINE
  5
4F2C
  8
SUNPOU
  6
CONTINUOUS
 62
     4
 10
13668.44870750002
 20
13224.10190300001
 30
0.0
 11
13668.44870750002
 21
12045.152103000009
 31
0.0
  0
LINE
  5
4F2D
  8
SUNPOU
  6
CONTINUOUS
 62
     4
 10
10228.94791550001
 20
12125.152103000009
 30
0.0
 11
13668.44870750002
 21
12125.152103000009
 31
0.0
  0
TEXT
  5
4F2E
  8
0
  6
CONTINUOUS
 62
     7
 10
11026.03164483334
 20
12205.152103000009
 30
0.0
 40
160.0
  1
ケラバ外寸 3439.5
  0
ARC
  5
4F2F
  8
0
  6
BYBLOCK
 62
     0
 10
10228.94791550001
 20
12125.152103000009
 30
0.0
 40
15.0
 50
0.0
 51
180.0
  0
ARC
  5
4F30
  8
0
  6
BYBLOCK
 62
     0
 10
10228.94791550001
 20
12125.152103000009
 30
0.0
 40
15.0
 50
180.0
 51
0.0
  0
ARC
  5
4F31
  8
0
  6
BYBLOCK
 62
     0
 10
13668.44870750002
 20
12125.152103000009
 30
0.0
 40
15.0
 50
180.0
 51
0.0
  0
ARC
  5
4F32
  8
0
  6
BYBLOCK
 62
     0
 10
13668.44870750002
 20
12125.152103000009
 30
0.0
 40
15.0
 50
0.0
 51
180.0
  0
TEXT
  5
4F83
  8
NAME
 10
21933.552716388989
 20
1876.0
 30
0.0
 40
360.0
  1
ヨドガレージ ラヴィージュ
 41
0.75
  7
01
  0
LINE
  5
4F84
  8
NAME
  6
CONTINUOUS
 10
26067.886878884288
 20
2236.0
 30
0.0
 11
26067.886878884288
 21
1876.0
 31
0.0
  0
LINE
  5
4F85
  8
NAME
  6
CONTINUOUS
 10
26167.886878884288
 20
2236.0
 30
0.0
 11
26167.886878884288
 21
1876.0
 31
0.0
  0
LINE
  5
4F86
  8
NAME
  6
CONTINUOUS
 10
26267.88687888431
 20
2236.0
 30
0.0
 11
26267.88687888431
 21
1876.0
 31
0.0
  0
LINE
  5
4F87
  8
NAME
  6
CONTINUOUS
 10
26007.886878884288
 20
2236.0
 30
0.0
 11
26327.886878884288
 21
2236.0
 31
0.0
  0
LINE
  5
4F88
  8
NAME
  6
CONTINUOUS
 10
26327.886878884288
 20
1876.0
 30
0.0
 11
26007.886878884288
 21
1876.0
 31
0.0
  0
TEXT
  5
5021
  8
FILENAME
  6
CONTINUOUS
 10
28337.333333333328
 20
348.0
 30
0.0
 40
200.0
  1
＜VGCO-3362H-1-A_0.DXF ＞
  7
FILENAME
 72
     2
 11
32764.0
 21
348.0
 31
0.0
  0
LINE
  5
5026
  8
WAKUSEN-01
 10
868.00000000000193
 20
827.99999999999955
 30
0.0
 11
32764.000000000011
 21
827.99999999999943
 31
0.0
  0
LINE
  5
5027
  8
WAKUSEN-01
 10
868.00000000000193
 20
827.99999999999955
 30
0.0
 11
868.00000000000193
 21
22484.000000000011
 31
0.0
  0
LINE
  5
5028
  8
WAKUSEN-01
 10
32764.000000000011
 20
827.99999999999943
 30
0.0
 11
32764.000000000011
 21
22484.000000000011
 31
0.0
  0
LINE
  5
5029
  8
WAKUSEN-01
 10
20560.0
 20
827.99999999999716
 30
0.0
 11
20560.0
 21
2484.0
 31
0.0
  0
LINE
  5
502A
  8
WAKUSEN-02
 10
26868.0
 20
827.99999999999261
 30
0.0
 11
26868.0
 21
2484.0
 31
0.0
  0
ENDSEC
  0
EOF
