  0
SECTION
  2
HEADER
  9
$ACADVER
  1
AC1009
  9
$INSBASE
 10
0.0
 20
0.0
 30
0.0
  9
$EXTMIN
 10
867.99324330406671
 20
327.38164749855792
 30
-0.0000000000000053
  9
$EXTMAX
 10
32765.33210850941
 20
22484.553276491992
 30
0.0000000000000099
  9
$LIMMIN
 10
0.0
 20
0.0
  9
$LIMMAX
 10
33600.0
 20
23760.0
  9
$ORTHOMODE
 70
     1
  9
$REGENMODE
 70
     1
  9
$FILLMODE
 70
     1
  9
$QTEXTMODE
 70
     0
  9
$MIRRTEXT
 70
     1
  9
$DRAGMODE
 70
     2
  9
$LTSCALE
 40
80.0
  9
$OSMODE
 70
  3071
  9
$ATTMODE
 70
     1
  9
$TEXTSIZE
 40
0.2
  9
$TRACEWID
 40
0.05
  9
$TEXTSTYLE
  7
00
  9
$CLAYER
  8
0
  9
$CELTYPE
  6
BYLAYER
  9
$CECOLOR
 62
   256
  9
$DIMSCALE
 40
80.0
  9
$DIMASZ
 40
3.0
  9
$DIMEXO
 40
1.0
  9
$DIMDLI
 40
0.38
  9
$DIMRND
 40
0.5
  9
$DIMDLE
 40
0.0
  9
$DIMEXE
 40
1.0
  9
$DIMTP
 40
0.0
  9
$DIMTM
 40
0.0
  9
$DIMTXT
 40
2.0
  9
$DIMCEN
 40
0.09
  9
$DIMTSZ
 40
0.0
  9
$DIMTOL
 70
     0
  9
$DIMLIM
 70
     0
  9
$DIMTIH
 70
     0
  9
$DIMTOH
 70
     0
  9
$DIMSE1
 70
     0
  9
$DIMSE2
 70
     0
  9
$DIMTAD
 70
     1
  9
$DIMZIN
 70
     8
  9
$DIMBLK
  1
DOTSMALL
  9
$DIMASO
 70
     1
  9
$DIMSHO
 70
     1
  9
$DIMPOST
  1

  9
$DIMAPOST
  1

  9
$DIMALT
 70
     0
  9
$DIMALTD
 70
     2
  9
$DIMALTF
 40
25.399999999999999
  9
$DIMLFAC
 40
1.0
  9
$DIMTOFL
 70
     1
  9
$DIMTVP
 40
0.0
  9
$DIMTIX
 70
     0
  9
$DIMSOXD
 70
     0
  9
$DIMSAH
 70
     0
  9
$DIMBLK1
  1

  9
$DIMBLK2
  1

  9
$DIMSTYLE
  2
SUNPOU
  9
$DIMCLRD
 70
     4
  9
$DIMCLRE
 70
     4
  9
$DIMCLRT
 70
     7
  9
$DIMTFAC
 40
1.0
  9
$DIMGAP
 40
1.0
  9
$LUNITS
 70
     2
  9
$LUPREC
 70
     4
  9
$SKETCHINC
 40
0.1
  9
$FILLETRAD
 40
0.0
  9
$AUNITS
 70
     0
  9
$AUPREC
 70
     0
  9
$MENU
  1
acad
  9
$ELEVATION
 40
0.0
  9
$PELEVATION
 40
0.0
  9
$THICKNESS
 40
0.0
  9
$LIMCHECK
 70
     0
  9
$BLIPMODE
 70
     1
  9
$CHAMFERA
 40
0.0
  9
$CHAMFERB
 40
0.0
  9
$SKPOLY
 70
     0
  9
$TDCREATE
 40
2311940.0749268518
  9
$TDUPDATE
 40
2458942.4288391792
  9
$TDINDWG
 40
0.0484541435
  9
$TDUSRTIMER
 40
0.0484532407
  9
$USRTIMER
 70
     1
  9
$ANGBASE
 50
0.0
  9
$ANGDIR
 70
     0
  9
$PDMODE
 70
     0
  9
$PDSIZE
 40
0.0
  9
$PLINEWID
 40
0.0
  9
$COORDS
 70
     1
  9
$SPLFRAME
 70
     0
  9
$SPLINETYPE
 70
     6
  9
$SPLINESEGS
 70
     8
  9
$ATTDIA
 70
     1
  9
$ATTREQ
 70
     1
  9
$HANDLING
 70
     1
  9
$HANDSEED
  5
4835
  9
$SURFTAB1
 70
     6
  9
$SURFTAB2
 70
     6
  9
$SURFTYPE
 70
     6
  9
$SURFU
 70
     6
  9
$SURFV
 70
     6
  9
$UCSNAME
  2

  9
$UCSORG
 10
0.0
 20
0.0
 30
0.0
  9
$UCSXDIR
 10
1.0
 20
0.0
 30
0.0
  9
$UCSYDIR
 10
0.0
 20
1.0
 30
0.0
  9
$PUCSNAME
  2

  9
$PUCSORG
 10
0.0
 20
0.0
 30
0.0
  9
$PUCSXDIR
 10
1.0
 20
0.0
 30
0.0
  9
$PUCSYDIR
 10
0.0
 20
1.0
 30
0.0
  9
$USERI1
 70
     0
  9
$USERI2
 70
     0
  9
$USERI3
 70
     0
  9
$USERI4
 70
     0
  9
$USERI5
 70
     0
  9
$USERR1
 40
0.0
  9
$USERR2
 40
0.0
  9
$USERR3
 40
0.0
  9
$USERR4
 40
0.0
  9
$USERR5
 40
0.0
  9
$WORLDVIEW
 70
     1
  9
$SHADEDGE
 70
     3
  9
$SHADEDIF
 70
    70
  9
$TILEMODE
 70
     1
  9
$MAXACTVP
 70
    16
  9
$PLIMCHECK
 70
     0
  9
$PEXTMIN
 10
1.0000000000000000E+020
 20
1.0000000000000000E+020
 30
1.0000000000000000E+020
  9
$PEXTMAX
 10
-1.0000000000000000E+020
 20
-1.0000000000000000E+020
 30
-1.0000000000000000E+020
  9
$PLIMMIN
 10
0.0
 20
0.0
  9
$PLIMMAX
 10
12.0
 20
9.0
  9
$UNITMODE
 70
     0
  9
$VISRETAIN
 70
     0
  9
$PLINEGEN
 70
     1
  9
$PSLTSCALE
 70
     0
  0
ENDSEC
  0
SECTION
  2
TABLES
  0
TABLE
  2
VPORT
 70
     1
  0
VPORT
  2
*ACTIVE
 70
     0
 10
0.0
 20
0.0
 11
1.0
 21
1.0
 12
16800.0
 22
11880.0
 13
0.0
 23
0.0
 14
1.0
 24
1.0
 15
0.0
 25
0.0
 16
0.0
 26
0.0
 36
1.0
 17
0.0
 27
0.0
 37
0.0
 40
23981.023255813951
 41
2.195652173913043
 42
50.0
 43
0.0
 44
0.0
 50
0.0
 51
0.0
 71
     0
 72
 10000
 73
     1
 74
     1
 75
     0
 76
     0
 77
     0
 78
     0
  0
ENDTAB
  0
TABLE
  2
LTYPE
 70
     3
  0
LTYPE
  2
CONTINUOUS
 70
     0
  3
Solid line
 72
    65
 73
     0
 40
0.0
  0
LTYPE
  2
DASHED3
 70
     0
  3
------  ------  ------  ------  
 72
    65
 73
     2
 40
5.0
 49
3.75
 49
-1.25
  0
LTYPE
  2
CENTER2
 70
     0
  3
----------  --  ----------  --  
 72
    65
 73
     4
 40
20.0
 49
12.5
 49
-2.5
 49
2.5
 49
-2.5
  0
ENDTAB
  0
TABLE
  2
LAYER
 70
    16
  0
LAYER
  2
0
 70
     0
 62
     7
  6
CONTINUOUS
  0
LAYER
  2
SUNPOU
 70
     0
 62
     4
  6
CONTINUOUS
  0
LAYER
  2
0-1
 70
     0
 62
     7
  6
CONTINUOUS
  0
LAYER
  2
2-0
 70
     0
 62
     7
  6
CONTINUOUS
  0
LAYER
  2
0-2
 70
     0
 62
     7
  6
CONTINUOUS
  0
LAYER
  2
0-6
 70
     0
 62
     7
  6
CONTINUOUS
  0
LAYER
  2
0-5
 70
     0
 62
     7
  6
CONTINUOUS
  0
LAYER
  2
YODOROGO
 70
     0
 62
   130
  6
CONTINUOUS
  0
LAYER
  2
WAKUSEN-01
 70
     0
 62
    50
  6
CONTINUOUS
  0
LAYER
  2
WAKUSEN-02
 70
     0
 62
   130
  6
CONTINUOUS
  0
LAYER
  2
WAKUMOJI-01
 70
     0
 62
   130
  6
CONTINUOUS
  0
LAYER
  2
FILENAME
 70
     0
 62
     7
  6
CONTINUOUS
  0
LAYER
  2
NAME
 70
     0
 62
    20
  6
CONTINUOUS
  0
LAYER
  2
0-4
 70
     0
 62
     7
  6
CONTINUOUS
  0
ENDTAB
  0
TABLE
  2
STYLE
 70
     5
  0
STYLE
  2
STANDARD
 70
     0
 40
0.0
 41
1.0
 50
0.0
 71
     0
 42
0.0
  3
txt
  4
BIGFONT
  0
STYLE
  2
00
 70
     0
 40
0.0
 41
0.6666666666666666
 50
0.0
 71
     0
 42
0.2
  3
ROMANS
  4
BIGFONT
  0
STYLE
  2
01
 70
     0
 40
3.0
 41
1.0
 50
0.0
 71
     0
 42
0.2
  3
ROMANS
  4
BIGFONT
  0
STYLE
  2
WAKUMOJI
 70
     0
 40
3.0
 41
1.0
 50
0.0
 71
     0
 42
3.0
  3
SIMPLEX
  4
BIGFONT
  0
STYLE
  2
FILENAME
 70
     0
 40
200.0
 41
1.0
 50
0.0
 71
     0
 42
200.0
  3
romans
  4
bigfont
  0
ENDTAB
  0
TABLE
  2
VIEW
 70
     0
  0
ENDTAB
  0
TABLE
  2
UCS
 70
     0
  0
ENDTAB
  0
TABLE
  2
APPID
 70
    13
  0
APPID
  2
ACAD
 70
     0
  0
APPID
  2
ACADANNOTATIVE
 70
     0
  0
APPID
  2
ACAD_PSEXT
 70
     0
  0
APPID
  2
DCO15
 70
     0
  0
APPID
  2
ACAD_MLEADERVER
 70
     0
  0
APPID
  2
AUTOCAD_POSTSCRIPT_FIGURE
 70
     0
  0
APPID
  2
ACAD_EXEMPT_FROM_CAD_STANDARDS
 70
     0
  0
APPID
  2
ACAD_DSTYLE_DIMJAG
 70
     0
  0
APPID
  2
ACAD_DSTYLE_DIMTALN
 70
     0
  0
APPID
  2
ACAD_DSTYLE_DIM_LINETYPE
 70
     0
  0
APPID
  2
ACAD_DSTYLE_DIM_EXT1_LINETYPE
 70
     0
  0
APPID
  2
ACAD_DSTYLE_DIM_EXT2_LINETYPE
 70
     0
  0
APPID
  2
ACAD_NAV_VCDISPLAY
 70
     0
  0
ENDTAB
  0
TABLE
  2
DIMSTYLE
 70
     2
  0
DIMSTYLE
  2
SUNPOU
 70
     0
  3

  4

  5

  6

  7

 40
80.0
 41
3.0
 42
1.0
 43
0.38
 44
1.0
 45
0.5
 46
0.0
 47
0.0
 48
0.0
140
2.0
141
0.09
142
0.0
143
25.399999999999999
144
1.0
145
0.0
146
1.0
147
1.0
 71
     0
 72
     0
 73
     0
 74
     0
 75
     0
 76
     0
 77
     1
 78
     8
170
     0
171
     2
172
     1
173
     0
174
     0
175
     0
176
     4
177
     4
178
     7
  0
ENDTAB
  0
ENDSEC
  0
SECTION
  2
BLOCKS
  0
BLOCK
  8
0
  2
$MODEL_SPACE
 70
     0
 10
0.0
 20
0.0
 30
0.0
  3
$MODEL_SPACE
  1

  0
ENDBLK
  5
3C12
  8
0
  0
BLOCK
 67
     1
  8
0
  2
$PAPER_SPACE
 70
     0
 10
0.0
 20
0.0
 30
0.0
  3
$PAPER_SPACE
  1

  0
ENDBLK
  5
3C0E
 67
     1
  8
0
  0
BLOCK
  8
0
  2
_DOTSMALL
 70
     0
 10
0.0
 20
0.0
 30
0.0
  3
_DOTSMALL
  1

  0
POLYLINE
  5
3C40
  8
0
  6
BYBLOCK
 62
     0
 66
     1
 10
0.0
 20
0.0
 30
0.0
 70
     1
 40
0.5
 41
0.5
  0
VERTEX
  5
47FD
  8
0
  6
BYBLOCK
 62
     0
 10
-0.0625
 20
0.0
 30
0.0
 42
1.0
  0
VERTEX
  5
47FE
  8
0
  6
BYBLOCK
 62
     0
 10
0.0625
 20
0.0
 30
0.0
 42
1.0
  0
SEQEND
  5
47FF
  8
0
  6
BYBLOCK
 62
     0
  0
ENDBLK
  5
3C44
  8
0
  0
ENDSEC
  0
SECTION
  2
ENTITIES
  0
LINE
  5
3C45
  8
0-2
  6
CONTINUOUS
 62
     3
 10
13845.507891999991
 20
16150.62639799998
 30
0.0
 11
13845.507891999991
 21
20185.31340899998
 31
0.0
  0
LINE
  5
3C46
  8
0-2
  6
CONTINUOUS
 62
     3
 10
13510.007085999991
 20
16313.83770499998
 30
0.0
 11
13510.007085999991
 21
20144.81641799998
 31
0.0
  0
LINE
  5
3C47
  8
0-2
  6
CONTINUOUS
 62
     3
 10
13473.00592499997
 20
16332.59166399998
 30
0.0
 11
13473.00592499997
 21
20144.81641799998
 31
0.0
  0
LINE
  5
3C48
  8
0-2
  6
CONTINUOUS
 62
     3
 10
13310.00741599998
 20
16415.210830999978
 30
0.0
 11
13310.00741599998
 21
20144.81641799998
 31
0.0
  0
LINE
  5
3C49
  8
0-2
  6
CONTINUOUS
 62
     3
 10
13273.008233999981
 20
16433.963799999969
 30
0.0
 11
13273.008233999981
 21
20144.81641799998
 31
0.0
  0
LINE
  5
3C4A
  8
0-2
  6
CONTINUOUS
 62
     3
 10
13110.007745999979
 20
16516.586926999971
 30
0.0
 11
13110.007745999979
 21
20144.81641799998
 31
0.0
  0
LINE
  5
3C4B
  8
0-2
  6
CONTINUOUS
 62
     3
 10
13073.007574999971
 20
16535.33890599999
 30
0.0
 11
13073.007574999971
 21
20144.81641799998
 31
0.0
  0
LINE
  5
3C4C
  8
0-2
  6
CONTINUOUS
 62
     3
 10
12436.00740299998
 20
16858.214222999992
 30
0.0
 11
12436.00740299998
 21
20144.81641799998
 31
0.0
  0
LINE
  5
3C4D
  8
0-2
  6
CONTINUOUS
 62
     3
 10
12473.00658499999
 20
16839.46224299998
 30
0.0
 11
12473.00658499999
 21
20144.81641799998
 31
0.0
  0
LINE
  5
3C4E
  8
0-2
  6
CONTINUOUS
 62
     3
 10
12636.00707299999
 20
16756.839116999981
 30
0.0
 11
12636.00707299999
 21
20144.81641799998
 31
0.0
  0
LINE
  5
3C4F
  8
0-2
  6
CONTINUOUS
 62
     3
 10
12673.008233999981
 20
16738.087137999992
 30
0.0
 11
12673.008233999981
 21
20144.81641799998
 31
0.0
  0
LINE
  5
3C50
  8
0-2
  6
CONTINUOUS
 62
     3
 10
12836.00773299998
 20
16655.465990999979
 30
0.0
 11
12836.00773299998
 21
20144.81641799998
 31
0.0
  0
LINE
  5
3C51
  8
0-2
  6
CONTINUOUS
 62
     3
 10
12873.005924999979
 20
16636.712031999981
 30
0.0
 11
12873.005924999979
 21
20144.81641799998
 31
0.0
  0
LINE
  5
3C52
  8
0-2
  6
CONTINUOUS
 62
     3
 10
12236.00773299998
 20
16959.589327999991
 30
0.0
 11
12236.00773299998
 21
20144.81641799998
 31
0.0
  0
LINE
  5
3C53
  8
0-2
  6
CONTINUOUS
 62
     3
 10
12199.008551000001
 20
16978.341307999981
 30
0.0
 11
12199.008551000001
 21
20144.81641799998
 31
0.0
  0
LINE
  5
3C54
  8
0-2
  6
CONTINUOUS
 62
     3
 10
12036.00707299999
 20
17060.960474999982
 30
0.0
 11
12036.00707299999
 21
20144.81641799998
 31
0.0
  0
LINE
  5
3C55
  8
0-2
  6
CONTINUOUS
 62
     3
 10
11999.006901999979
 20
17079.716412999991
 30
0.0
 11
11999.006901999979
 21
20144.81641799998
 31
0.0
  0
LINE
  5
3C56
  8
0-2
  6
CONTINUOUS
 62
     3
 10
11836.00839299998
 20
17162.335579999992
 30
0.0
 11
11836.00839299998
 21
20144.81641799998
 31
0.0
  0
LINE
  5
3C57
  8
0-2
  6
CONTINUOUS
 62
     3
 10
11799.00624199999
 20
17181.09151899998
 30
0.0
 11
11799.00624199999
 21
20144.81641799998
 31
0.0
  0
LINE
  5
3C58
  8
0-2
  6
CONTINUOUS
 62
     3
 10
10127.30576899999
 20
18301.732195999961
 30
0.0
 11
7007.3102429999963
 21
19877.83478799996
 31
0.0
  0
LINE
  5
3C59
  8
0-2
  6
CONTINUOUS
 62
     3
 10
13669.50687499999
 20
16238.31511199998
 30
0.0
 11
13669.50687499999
 21
20144.81641799998
 31
0.0
  0
LINE
  5
3C5A
  8
0-2
  6
CONTINUOUS
 62
     3
 10
13632.506703999999
 20
16257.068081999991
 30
0.0
 11
13632.506703999999
 21
20144.81641799998
 31
0.0
  0
LINE
  5
3C5B
  8
0-2
  6
CONTINUOUS
 62
     3
 10
13728.006638000001
 20
13633.31509899999
 30
0.0
 11
13728.006638000001
 21
20144.81641799998
 31
0.0
  0
LINE
  5
3C5C
  8
0-2
  6
CONTINUOUS
 62
     3
 10
13863.507653999999
 20
13601.317170999981
 30
0.0
 11
13863.507653999999
 21
20192.817763999981
 31
0.0
  0
LINE
  5
3C5D
  8
0-2
  6
CONTINUOUS
 62
     3
 10
7923.732407999998
 20
19418.651800999982
 30
0.0
 11
10439.50653199999
 21
17062.316444999979
 31
0.0
  0
LINE
  5
3C5E
  8
0-2
  6
CONTINUOUS
 62
     3
 10
10562.00805
 20
17849.194452999971
 30
0.0
 11
10562.00805
 21
20144.81641799998
 31
0.0
  0
LINE
  5
3C5F
  8
0-2
  6
CONTINUOUS
 62
     3
 10
10599.00723099999
 20
17761.911540999969
 30
0.0
 11
10599.00723099999
 21
20144.81641799998
 31
0.0
  0
LINE
  5
3C60
  8
0-2
  6
CONTINUOUS
 62
     3
 10
10762.00870999998
 20
17504.904704999972
 30
0.0
 11
10762.00870999998
 21
20144.81641799998
 31
0.0
  0
LINE
  5
3C61
  8
0-2
  6
CONTINUOUS
 62
     3
 10
10799.00690199999
 20
17548.28585399998
 30
0.0
 11
10799.00690199999
 21
20144.81641799998
 31
0.0
  0
LINE
  5
3C62
  8
0-2
  6
CONTINUOUS
 62
     3
 10
10962.00738999999
 20
17615.33808699996
 30
0.0
 11
10962.00738999999
 21
20144.81641799998
 31
0.0
  0
LINE
  5
3C63
  8
0-2
  6
CONTINUOUS
 62
     3
 10
10999.00756099998
 20
17596.586107999981
 30
0.0
 11
10999.00756099998
 21
20144.81641799998
 31
0.0
  0
LINE
  5
3C64
  8
0-2
  6
CONTINUOUS
 62
     3
 10
11162.00804999998
 20
17513.966940999959
 30
0.0
 11
11162.00804999998
 21
20144.81641799998
 31
0.0
  0
LINE
  5
3C65
  8
0-2
  6
CONTINUOUS
 62
     3
 10
11199.006241999979
 20
17495.211001999971
 30
0.0
 11
11199.006241999979
 21
20144.81641799998
 31
0.0
  0
LINE
  5
3C66
  8
0-2
  6
CONTINUOUS
 62
     3
 10
11362.00870999998
 20
17412.591834999948
 30
0.0
 11
11362.00870999998
 21
20144.81641799998
 31
0.0
  0
LINE
  5
3C67
  8
0-2
  6
CONTINUOUS
 62
     3
 10
11399.00690199999
 20
17393.835896999979
 30
0.0
 11
11399.00690199999
 21
20144.81641799998
 31
0.0
  0
LINE
  5
3C68
  8
0-2
  6
CONTINUOUS
 62
     3
 10
11562.007389999981
 20
17301.216624999968
 30
0.0
 11
11562.007389999981
 21
20144.81641799998
 31
0.0
  0
LINE
  5
3C69
  8
0-2
  6
CONTINUOUS
 62
     3
 10
11599.008550999981
 20
17282.462665999981
 30
0.0
 11
11599.008550999981
 21
20144.81641799998
 31
0.0
  0
LINE
  5
3C6A
  8
0-2
  6
CONTINUOUS
 62
     3
 10
8799.0072309999941
 20
18975.000116999981
 30
0.0
 11
8799.0072309999941
 21
20144.81641799998
 31
0.0
  0
LINE
  5
3C6B
  8
0-2
  6
CONTINUOUS
 62
     3
 10
8762.0070599999981
 20
18993.75407699995
 30
0.0
 11
8762.0070599999981
 21
20144.81641799998
 31
0.0
  0
LINE
  5
3C6C
  8
0-2
  6
CONTINUOUS
 62
     3
 10
8599.0085509999954
 20
19076.375222999981
 30
0.0
 11
8599.0085509999954
 21
20144.81641799998
 31
0.0
  0
LINE
  5
3C6D
  8
0-2
  6
CONTINUOUS
 62
     3
 10
10399.00756099998
 20
18233.711978999949
 30
0.0
 11
10399.00756099998
 21
20144.81641799998
 31
0.0
  0
LINE
  5
3C6E
  8
0-2
  6
CONTINUOUS
 62
     3
 10
10362.0064
 20
18320.990932999961
 30
0.0
 11
10362.0064
 21
20144.81641799998
 31
0.0
  0
LINE
  5
3C6F
  8
0-2
  6
CONTINUOUS
 62
     3
 10
10199.007890999979
 20
18385.79245299998
 30
0.0
 11
10199.007890999979
 21
20144.81641799998
 31
0.0
  0
LINE
  5
3C70
  8
0-2
  6
CONTINUOUS
 62
     3
 10
10162.007719999991
 20
18342.41328299998
 30
0.0
 11
10162.007719999991
 21
20144.81641799998
 31
0.0
  0
LINE
  5
3C71
  8
0-2
  6
CONTINUOUS
 62
     3
 10
9999.0062419999958
 20
18366.757401999981
 30
0.0
 11
9999.0062419999958
 21
20144.81641799998
 31
0.0
  0
LINE
  5
3C72
  8
0-2
  6
CONTINUOUS
 62
     3
 10
9962.0080499999967
 20
18385.51334099998
 30
0.0
 11
9962.0080499999967
 21
20144.81641799998
 31
0.0
  0
LINE
  5
3C73
  8
0-2
  6
CONTINUOUS
 62
     3
 10
9799.0085509999972
 20
18468.132507999981
 30
0.0
 11
9799.0085509999972
 21
20144.81641799998
 31
0.0
  0
LINE
  5
3C74
  8
0-2
  6
CONTINUOUS
 62
     3
 10
9762.0063999999984
 20
18486.888445999961
 30
0.0
 11
9762.0063999999984
 21
20144.81641799998
 31
0.0
  0
LINE
  5
3C75
  8
0-2
  6
CONTINUOUS
 62
     3
 10
9599.0078909999938
 20
18569.507612999951
 30
0.0
 11
9599.0078909999938
 21
20144.81641799998
 31
0.0
  0
LINE
  5
3C76
  8
0-2
  6
CONTINUOUS
 62
     3
 10
9562.0087099999964
 20
18588.263551999949
 30
0.0
 11
9562.0087099999964
 21
20144.81641799998
 31
0.0
  0
LINE
  5
3C77
  8
0-2
  6
CONTINUOUS
 62
     3
 10
9399.0062419999958
 20
18670.878759999949
 30
0.0
 11
9399.0062419999958
 21
20144.81641799998
 31
0.0
  0
LINE
  5
3C78
  8
0-2
  6
CONTINUOUS
 62
     3
 10
9362.0080499999985
 20
18689.63469799998
 30
0.0
 11
9362.0080499999985
 21
20144.81641799998
 31
0.0
  0
LINE
  5
3C79
  8
0-2
  6
CONTINUOUS
 62
     3
 10
9199.0085509999954
 20
18772.253864999981
 30
0.0
 11
9199.0085509999954
 21
20144.81641799998
 31
0.0
  0
LINE
  5
3C7A
  8
0-2
  6
CONTINUOUS
 62
     3
 10
9162.0064000000002
 20
18791.009803999961
 30
0.0
 11
9162.0064000000002
 21
20144.81641799998
 31
0.0
  0
LINE
  5
3C7B
  8
0-2
  6
CONTINUOUS
 62
     3
 10
8999.0069019999937
 20
18873.628970999969
 30
0.0
 11
8999.0069019999937
 21
20144.81641799998
 31
0.0
  0
LINE
  5
3C7C
  8
0-2
  6
CONTINUOUS
 62
     3
 10
8962.0087099999946
 20
18892.38490999995
 30
0.0
 11
8962.0087099999946
 21
20144.81641799998
 31
0.0
  0
LINE
  5
3C7D
  8
0-2
  6
CONTINUOUS
 62
     3
 10
8562.0073899999952
 20
19095.12918199995
 30
0.0
 11
8562.0073899999952
 21
20144.81641799998
 31
0.0
  0
LINE
  5
3C7E
  8
0-2
  6
CONTINUOUS
 62
     3
 10
8399.0069019999937
 20
19177.752307999981
 30
0.0
 11
8399.0069019999937
 21
20144.81641799998
 31
0.0
  0
LINE
  5
3C7F
  8
0-2
  6
CONTINUOUS
 62
     3
 10
8362.0087099999964
 20
19196.50428799996
 30
0.0
 11
8362.0087099999964
 21
20144.81641799998
 31
0.0
  0
LINE
  5
3C80
  8
0-2
  6
CONTINUOUS
 62
     3
 10
7198.5060039999989
 20
13757.317091999979
 30
0.0
 11
7198.5060039999989
 21
19780.923496999982
 31
0.0
  0
LINE
  5
3C81
  8
0-2
  6
CONTINUOUS
 62
     3
 10
7241.0072579999978
 20
13757.317091999979
 30
0.0
 11
7241.0072579999978
 21
19759.38039599995
 31
0.0
  0
LINE
  5
3C82
  8
0-2
  6
CONTINUOUS
 62
     3
 10
7155.5078510000003
 20
13601.317170999981
 30
0.0
 11
7155.5078510000003
 21
20192.817763999981
 31
0.0
  0
LINE
  5
3C83
  8
0-2
  6
CONTINUOUS
 62
     3
 10
7291.0058979999976
 20
13633.31509899999
 30
0.0
 11
7291.0058979999976
 21
20144.81641799998
 31
0.0
  0
LINE
  5
3C84
  8
0-2
  6
CONTINUOUS
 62
     3
 10
10579.506993999979
 20
13793.81644499998
 30
0.0
 11
13153.92435599999
 21
16494.327239999991
 31
0.0
  0
LINE
  5
3C85
  8
0-2
  6
CONTINUOUS
 62
     3
 10
13708.007522
 20
13793.81644499998
 30
0.0
 11
10579.506993999979
 21
17062.316444999979
 31
0.0
  0
LINE
  5
3C86
  8
0-2
  6
CONTINUOUS
 62
     3
 10
14011.70328299999
 20
16064.865734999979
 30
0.0
 11
10888.136704999981
 21
17652.782660999968
 31
0.0
  0
LINE
  5
3C87
  8
0-2
  6
CONTINUOUS
 62
     3
 10
7155.5078510000021
 20
13633.31509899999
 30
0.0
 11
13863.507653999999
 21
13633.31509899999
 31
0.0
  0
LINE
  5
3C88
  8
0-2
  6
CONTINUOUS
 62
     3
 10
7155.5078510000021
 20
13601.317170999981
 30
0.0
 11
13863.507653999999
 21
13601.317170999981
 31
0.0
  0
LINE
  5
3C89
  8
0-2
  6
CONTINUOUS
 62
     3
 10
7241.0072579999978
 20
13836.317698999979
 30
0.0
 11
13778.007258
 21
13836.317698999979
 31
0.0
  0
LINE
  5
3C8A
  8
0-2
  6
CONTINUOUS
 62
     3
 10
7198.5060039999989
 20
13757.317091999979
 30
0.0
 11
13820.506531999999
 21
13757.317091999979
 31
0.0
  0
LINE
  5
3C8B
  8
0-2
  6
CONTINUOUS
 62
     3
 10
10509.507257999991
 20
13836.317698999979
 30
0.0
 11
10509.507257999991
 21
17973.041053999979
 31
0.0
  0
LINE
  5
3C8C
  8
0-2
  6
CONTINUOUS
 62
     3
 10
10566.506505999971
 20
13836.317698999979
 30
0.0
 11
10566.506505999971
 21
17017.316048999979
 31
0.0
  0
LINE
  5
3C8D
  8
0-2
  6
CONTINUOUS
 62
     3
 10
10452.50701999999
 20
13836.317698999979
 30
0.0
 11
10452.50701999999
 21
17017.316048999979
 31
0.0
  0
LINE
  5
3C8E
  8
0-2
  6
CONTINUOUS
 62
     3
 10
10439.50653199999
 20
13793.81644499998
 30
0.0
 11
7311.0060039999989
 21
17062.316444999979
 31
0.0
  0
LINE
  5
3C8F
  8
0-2
  6
CONTINUOUS
 62
     3
 10
7311.0060039999989
 20
13793.81644499998
 30
0.0
 11
10439.50653199999
 21
17062.316444999979
 31
0.0
  0
LINE
  5
3C90
  8
0-2
  6
CONTINUOUS
 62
     3
 10
10509.507257999991
 20
13836.317698999979
 30
0.0
 11
10509.507257999991
 21
13757.317091999979
 31
0.0
  0
LINE
  5
3C91
  8
0-2
  6
CONTINUOUS
 62
     3
 10
7241.0072579999978
 20
17017.316048999979
 30
0.0
 11
12122.11613099999
 21
17017.316048999979
 31
0.0
  0
LINE
  5
3C92
  8
0-2
  6
CONTINUOUS
 62
     3
 10
7241.0072579999978
 20
17096.316655999992
 30
0.0
 11
11966.255766999981
 21
17096.316655999992
 31
0.0
  0
LINE
  5
3C93
  8
0-2
  6
CONTINUOUS
 62
     3
 10
7311.0060039999989
 20
17062.316444999979
 30
0.0
 11
9163.5019259999972
 21
18790.25362799998
 31
0.0
  0
LINE
  5
3C94
  8
0-2
  6
CONTINUOUS
 62
     3
 10
10452.50701999999
 20
17096.316655999992
 30
0.0
 11
10452.50701999999
 21
18107.505791999982
 31
0.0
  0
LINE
  5
3C95
  8
0-2
  6
CONTINUOUS
 62
     3
 10
10566.506505999971
 20
17096.316655999992
 30
0.0
 11
10566.506505999971
 21
17838.578294999981
 31
0.0
  0
LINE
  5
3C96
  8
0-2
  6
CONTINUOUS
 62
     3
 10
11091.41445799999
 20
17549.748718999959
 30
0.0
 11
10579.506993999979
 21
17062.316444999979
 31
0.0
  0
LINE
  5
3C97
  8
0-2
  6
CONTINUOUS
 62
     3
 10
10725.899321000001
 20
17462.574678999968
 30
0.0
 11
10289.542163
 21
18491.94017799995
 31
0.0
  0
LINE
  5
3C98
  8
0-2
  6
CONTINUOUS
 62
     3
 10
10725.899321000001
 20
17462.574678999968
 30
0.0
 11
10888.136704999981
 21
17652.782660999968
 31
0.0
  0
LINE
  5
3C99
  8
0-2
  6
CONTINUOUS
 62
     3
 10
10127.30576899999
 20
18301.732195999961
 30
0.0
 11
10289.542163
 21
18491.94017799995
 31
0.0
  0
LINE
  5
3C9A
  8
0-2
  6
CONTINUOUS
 62
     3
 10
13778.007258
 20
13757.317091999979
 30
0.0
 11
13778.007258
 21
16183.31814799998
 31
0.0
  0
LINE
  5
3C9B
  8
0-2
  6
CONTINUOUS
 62
     3
 10
13820.506531999999
 20
13757.317091999979
 30
0.0
 11
13820.506531999999
 21
16161.77702599998
 31
0.0
  0
LINE
  5
3C9C
  8
0-2
  6
CONTINUOUS
 62
     3
 10
7173.5086039999978
 20
20144.81641799998
 30
0.0
 11
13845.507891999991
 21
20144.81641799998
 31
0.0
  0
LINE
  5
3C9D
  8
0-2
  6
CONTINUOUS
 62
     3
 10
7229.0073759999977
 20
20192.817763999981
 30
0.0
 11
13790.008129
 21
20192.817763999981
 31
0.0
  0
LINE
  5
3C9E
  8
0-2
  6
CONTINUOUS
 62
     3
 10
7173.5086039999978
 20
19792.074124999981
 30
0.0
 11
7173.5086039999978
 21
20185.31340899998
 31
0.0
  0
LINE
  5
3C9F
  8
0-2
  6
CONTINUOUS
 62
     3
 10
7586.5074820000054
 20
19584.258325999959
 30
0.0
 11
7586.5074820000054
 21
20144.81641799998
 31
0.0
  0
LINE
  5
3CA0
  8
0-2
  6
CONTINUOUS
 62
     3
 10
7549.5063209999989
 20
19603.012284999961
 30
0.0
 11
7549.5063209999989
 21
20144.81641799998
 31
0.0
  0
LINE
  5
3CA1
  8
0-2
  6
CONTINUOUS
 62
     3
 10
7386.5097909999977
 20
19685.633430999969
 30
0.0
 11
7386.5097909999977
 21
20144.81641799998
 31
0.0
  0
LINE
  5
3CA2
  8
0-2
  6
CONTINUOUS
 62
     3
 10
7349.5076399999998
 20
19704.38739099996
 30
0.0
 11
7349.5076399999998
 21
20144.81641799998
 31
0.0
  0
LINE
  5
3CA3
  8
0-2
  6
CONTINUOUS
 62
     3
 10
8199.0072309999941
 20
19279.12345499995
 30
0.0
 11
8199.0072309999941
 21
20144.81641799998
 31
0.0
  0
LINE
  5
3CA4
  8
0-2
  6
CONTINUOUS
 62
     3
 10
8162.0070599999981
 20
19297.87543399998
 30
0.0
 11
8162.0070599999981
 21
20144.81641799998
 31
0.0
  0
LINE
  5
3CA5
  8
0-2
  6
CONTINUOUS
 62
     3
 10
7999.0075609999949
 20
19380.49855999996
 30
0.0
 11
7999.0075609999949
 21
20144.81641799998
 31
0.0
  0
LINE
  5
3CA6
  8
0-2
  6
CONTINUOUS
 62
     3
 10
7962.0073899999952
 20
19399.25053999995
 30
0.0
 11
7962.0073899999952
 21
20144.81641799998
 31
0.0
  0
LINE
  5
3CA7
  8
0-2
  6
CONTINUOUS
 62
     3
 10
7762.0077199999942
 20
19500.62564499996
 30
0.0
 11
7762.0077199999942
 21
20144.81641799998
 31
0.0
  0
LINE
  5
3CA8
  8
0-2
  6
CONTINUOUS
 62
     3
 10
7799.0069019999937
 20
19481.86970699998
 30
0.0
 11
7799.0069019999937
 21
20144.81641799998
 31
0.0
  0
LINE
  5
3CA9
  8
0-2
  6
CONTINUOUS
 62
     3
 10
7229.0073759999977
 20
20167.814464999981
 30
0.0
 11
7229.0073759999977
 21
20197.81802799998
 31
0.0
  0
LINE
  5
3CAA
  8
0-2
  6
CONTINUOUS
 62
     3
 10
7155.5078510000003
 20
20197.81802799998
 30
0.0
 11
7155.5078510000003
 21
20162.81618099998
 31
0.0
  0
LINE
  5
3CAB
  8
0-2
  6
CONTINUOUS
 62
     3
 10
7224.0071119999948
 20
20202.818291999982
 30
0.0
 11
7160.5081149999996
 21
20202.818291999982
 31
0.0
  0
LINE
  5
3CAC
  8
0-2
  6
CONTINUOUS
 62
     3
 10
7173.5086039999978
 20
20185.31340899998
 30
0.0
 11
7155.5078510000003
 21
20185.31340899998
 31
0.0
  0
LINE
  5
3CAD
  8
0-2
  6
CONTINUOUS
 62
     3
 10
7173.5086039999978
 20
20162.81618099998
 30
0.0
 11
7224.0071119999948
 21
20162.81618099998
 31
0.0
  0
LINE
  5
3CAE
  8
0-2
  6
CONTINUOUS
 62
     3
 10
13845.507891999991
 20
20185.31340899998
 30
0.0
 11
13863.507653999999
 21
20185.31340899998
 31
0.0
  0
LINE
  5
3CAF
  8
0-2
  6
CONTINUOUS
 62
     3
 10
13790.008129
 20
20167.814464999981
 30
0.0
 11
13790.008129
 21
20197.81802799998
 31
0.0
  0
LINE
  5
3CB0
  8
0-2
  6
CONTINUOUS
 62
     3
 10
13845.507891999991
 20
20162.81618099998
 30
0.0
 11
13795.00641399999
 21
20162.81618099998
 31
0.0
  0
LINE
  5
3CB1
  8
0-2
  6
CONTINUOUS
 62
     3
 10
13863.507653999999
 20
20197.81802799998
 30
0.0
 11
13863.507653999999
 21
20162.81618099998
 31
0.0
  0
LINE
  5
3CB2
  8
0-2
  6
CONTINUOUS
 62
     3
 10
13795.00641399999
 20
20202.818291999982
 30
0.0
 11
13858.507390000001
 21
20202.818291999982
 31
0.0
  0
LINE
  5
3CB3
  8
0-2
  6
CONTINUOUS
 62
     3
 10
10424.507719999991
 20
20144.81641799998
 30
0.0
 11
10424.507719999991
 21
20192.817763999981
 31
0.0
  0
LINE
  5
3CB4
  8
0-2
  6
CONTINUOUS
 62
     3
 10
10509.507257999991
 20
13757.317091999979
 30
0.0
 11
10509.507257999991
 21
13601.317170999981
 31
0.0
  0
LINE
  5
3CB5
  8
0-6
  6
CONTINUOUS
 62
     6
 10
7063.6146789999984
 20
14181.588298999981
 30
0.0
 11
6505.1083579999977
 21
12401.31717099999
 31
0.0
  0
LINE
  5
3CB6
  8
0-6
  6
CONTINUOUS
 62
     6
 10
5425.1092489999983
 20
12401.31717099999
 30
0.0
 11
6505.1083579999977
 21
12401.31717099999
 31
0.0
  0
LINE
  5
3CB7
  8
0-6
  6
CONTINUOUS
 62
     6
 10
10452.50701999999
 20
15338.687261999979
 30
0.0
 11
10187.318834
 21
15707.646760999971
 31
0.0
  0
LINE
  5
3CB8
  8
0-6
  6
CONTINUOUS
 62
     6
 10
9392.2996329999987
 20
12801.31651099999
 30
0.0
 11
10254.878813999991
 21
12801.31651099999
 31
0.0
  0
LINE
  5
3CB9
  8
0-6
  6
CONTINUOUS
 62
     6
 10
8986.187538999995
 20
13464.849159999991
 30
0.0
 11
9392.2996329999987
 21
12801.31651099999
 31
0.0
  0
LINE
  5
3CBA
  8
0-6
  6
CONTINUOUS
 62
     6
 10
8484.7754829999976
 20
14165.145427999991
 30
0.0
 11
9284.7751529999969
 21
14165.145427999991
 31
0.0
  0
LINE
  5
3CBB
  8
0-6
  6
CONTINUOUS
 62
     6
 10
8401.8890809999957
 20
13988.20615899999
 30
0.0
 11
8484.7754829999976
 21
14165.145427999991
 31
0.0
  0
LINE
  5
3CBC
  8
0-6
  6
CONTINUOUS
 62
     6
 10
9084.2617979999959
 20
17250.145044999961
 30
0.0
 11
9023.1144689999965
 21
17421.913387999972
 31
0.0
  0
LINE
  5
3CBD
  8
0-6
  6
CONTINUOUS
 62
     6
 10
8331.3053870000003
 20
16238.586305999979
 30
0.0
 11
8542.572476000003
 21
16440.646654999979
 31
0.0
  0
LINE
  5
3CBE
  8
0-6
  6
CONTINUOUS
 62
     6
 10
8542.572476000003
 20
16440.646654999979
 30
0.0
 11
9422.5724099999916
 21
16440.646654999979
 31
0.0
  0
LINE
  5
3CBF
  8
0-6
  6
CONTINUOUS
 62
     6
 10
8222.5407379999979
 20
17421.913387999972
 30
0.0
 11
9023.1144689999965
 21
17421.913387999972
 31
0.0
  0
LINE
  5
3CC0
  8
0-6
  6
CONTINUOUS
 62
     6
 10
7405.5339549999953
 20
18452.24489199997
 30
0.0
 11
7936.0341269999954
 21
18452.24489199997
 31
0.0
  0
LINE
  5
3CC1
  8
0-6
  6
CONTINUOUS
 62
     6
 10
7306.4936909999997
 20
18673.038414999981
 30
0.0
 11
7405.5339549999953
 21
18452.24489199997
 31
0.0
  0
LINE
  5
3CC2
  8
0-6
  6
CONTINUOUS
 62
     6
 10
9941.0815689999963
 20
15707.646760999971
 30
0.0
 11
10187.318834
 21
15707.646760999971
 31
0.0
  0
LINE
  5
3CC3
  8
0-6
  6
CONTINUOUS
 62
     6
 10
11552.79273099999
 20
21152.81499299996
 30
0.0
 11
13227.79009199999
 21
21152.81499299996
 31
0.0
  0
LINE
  5
3CC4
  8
0-6
  6
CONTINUOUS
 62
     6
 10
8087.7830309999954
 20
20813.234518999961
 30
0.0
 11
7891.7255719999948
 21
21152.81499299996
 31
0.0
  0
LINE
  5
3CC5
  8
0-6
  6
CONTINUOUS
 62
     6
 10
8370.9828569999972
 20
20322.719711999969
 30
0.0
 11
8161.7912919999962
 21
20685.052772999981
 31
0.0
  0
LINE
  5
3CC6
  8
0-6
  6
CONTINUOUS
 62
     6
 10
8424.2487329999931
 20
20026.314517999981
 30
0.0
 11
8130.3209059999936
 21
20432.81855599998
 31
0.0
  0
LINE
  5
3CC7
  8
0-6
  6
CONTINUOUS
 62
     6
 10
7319.8217899999972
 20
20432.81855599998
 30
0.0
 11
8130.3209059999936
 21
20432.81855599998
 31
0.0
  0
LINE
  5
3CC8
  8
0-6
  6
CONTINUOUS
 62
     6
 10
8837.3940559999992
 20
19920.54092199996
 30
0.0
 11
8981.2971389999948
 21
20432.81855599998
 31
0.0
  0
LINE
  5
3CC9
  8
0-6
  6
CONTINUOUS
 62
     6
 10
8981.2971389999948
 20
20432.81855599998
 30
0.0
 11
9498.9867759999979
 21
20432.81855599998
 31
0.0
  0
LINE
  5
3CCA
  8
0-6
  6
CONTINUOUS
 62
     6
 10
7891.7255719999948
 20
21152.81499299996
 30
0.0
 11
8734.1641409999866
 21
21152.81499299996
 31
0.0
  0
LINE
  5
3CCB
  8
0-6
  6
CONTINUOUS
 62
     6
 10
13418.075273999981
 20
20823.233066999968
 30
0.0
 11
13227.79009199999
 21
21152.81499299996
 31
0.0
  0
LINE
  5
3CCC
  8
0-6
  6
CONTINUOUS
 62
     6
 10
13711.772566
 20
20332.720239999981
 30
0.0
 11
13492.08155599999
 21
20695.053300999982
 31
0.0
  0
LINE
  5
3CCD
  8
0-6
  6
CONTINUOUS
 62
     6
 10
9008.9322080000002
 20
13478.76913399998
 30
0.0
 11
8902.662741999995
 21
13601.317170999981
 31
0.0
  0
LINE
  5
3CCE
  8
0-6
  6
CONTINUOUS
 62
     6
 10
8902.662741999995
 20
13601.317170999981
 30
0.0
 11
8963.4428709999847
 21
13450.92720599998
 31
0.0
  0
LINE
  5
3CCF
  8
0-6
  6
CONTINUOUS
 62
     6
 10
8902.662741999995
 20
13601.317170999981
 30
0.0
 11
9008.9322080000002
 21
13478.76913399998
 31
0.0
  0
LINE
  5
3CD0
  8
0-6
  6
CONTINUOUS
 62
     6
 10
9008.9322080000002
 20
13478.76913399998
 30
0.0
 11
8963.4428709999847
 21
13450.92720599998
 31
0.0
  0
LINE
  5
3CD1
  8
0-6
  6
CONTINUOUS
 62
     6
 10
8963.4428709999847
 20
13450.92720599998
 30
0.0
 11
8902.662741999995
 21
13601.317170999981
 31
0.0
  0
LINE
  5
3CD2
  8
0-6
  6
CONTINUOUS
 62
     6
 10
8963.4428709999847
 20
13450.92720599998
 30
0.0
 11
9008.9322080000002
 21
13478.76913399998
 31
0.0
  0
LINE
  5
3CD3
  8
0-6
  6
CONTINUOUS
 62
     6
 10
7089.0594109999984
 20
14173.606879999979
 30
0.0
 11
7111.5061619999969
 21
14334.253720999979
 31
0.0
  0
LINE
  5
3CD4
  8
0-6
  6
CONTINUOUS
 62
     6
 10
7111.5061619999969
 20
14334.253720999979
 30
0.0
 11
7038.1689579999993
 21
14189.570706999981
 31
0.0
  0
LINE
  5
3CD5
  8
0-6
  6
CONTINUOUS
 62
     6
 10
7111.5061619999969
 20
14334.253720999979
 30
0.0
 11
7089.0594109999984
 21
14173.606879999979
 31
0.0
  0
LINE
  5
3CD6
  8
0-6
  6
CONTINUOUS
 62
     6
 10
7089.0594109999984
 20
14173.606879999979
 30
0.0
 11
7038.1689579999993
 21
14189.570706999981
 31
0.0
  0
LINE
  5
3CD7
  8
0-6
  6
CONTINUOUS
 62
     6
 10
7038.1689579999993
 20
14189.570706999981
 30
0.0
 11
7111.5061619999969
 21
14334.253720999979
 31
0.0
  0
LINE
  5
3CD8
  8
0-6
  6
CONTINUOUS
 62
     6
 10
7038.1689579999993
 20
14189.570706999981
 30
0.0
 11
7089.0594109999984
 21
14173.606879999979
 31
0.0
  0
LINE
  5
3CD9
  8
0-6
  6
CONTINUOUS
 62
     6
 10
8377.7409329999937
 20
13999.51910799998
 30
0.0
 11
8334.0153479999935
 21
13843.31628699998
 31
0.0
  0
LINE
  5
3CDA
  8
0-6
  6
CONTINUOUS
 62
     6
 10
8334.0153479999935
 20
13843.31628699998
 30
0.0
 11
8426.0382179999979
 21
13976.89518999999
 31
0.0
  0
LINE
  5
3CDB
  8
0-6
  6
CONTINUOUS
 62
     6
 10
8334.0153479999935
 20
13843.31628699998
 30
0.0
 11
8377.7409329999937
 21
13999.51910799998
 31
0.0
  0
LINE
  5
3CDC
  8
0-6
  6
CONTINUOUS
 62
     6
 10
8377.7409329999937
 20
13999.51910799998
 30
0.0
 11
8426.0382179999979
 21
13976.89518999999
 31
0.0
  0
LINE
  5
3CDD
  8
0-6
  6
CONTINUOUS
 62
     6
 10
8426.0382179999979
 20
13976.89518999999
 30
0.0
 11
8334.0153479999935
 21
13843.31628699998
 31
0.0
  0
LINE
  5
3CDE
  8
0-6
  6
CONTINUOUS
 62
     6
 10
8426.0382179999979
 20
13976.89518999999
 30
0.0
 11
8377.7409329999937
 21
13999.51910799998
 31
0.0
  0
LINE
  5
3CDF
  8
0-6
  6
CONTINUOUS
 62
     6
 10
10380.12988199999
 20
15483.85129799997
 30
0.0
 11
10452.50701999999
 21
15338.687261999979
 31
0.0
  0
LINE
  5
3CE0
  8
0-6
  6
CONTINUOUS
 62
     6
 10
10452.50701999999
 20
15338.687261999979
 30
0.0
 11
10336.96054099998
 21
15452.53036499999
 31
0.0
  0
LINE
  5
3CE1
  8
0-6
  6
CONTINUOUS
 62
     6
 10
10452.50701999999
 20
15338.687261999979
 30
0.0
 11
10380.12988199999
 21
15483.85129799997
 31
0.0
  0
LINE
  5
3CE2
  8
0-6
  6
CONTINUOUS
 62
     6
 10
10380.12988199999
 20
15483.85129799997
 30
0.0
 11
10336.96054099998
 21
15452.53036499999
 31
0.0
  0
LINE
  5
3CE3
  8
0-6
  6
CONTINUOUS
 62
     6
 10
10336.96054099998
 20
15452.53036499999
 30
0.0
 11
10452.50701999999
 21
15338.687261999979
 31
0.0
  0
LINE
  5
3CE4
  8
0-6
  6
CONTINUOUS
 62
     6
 10
10336.96054099998
 20
15452.53036499999
 30
0.0
 11
10380.12988199999
 21
15483.85129799997
 31
0.0
  0
LINE
  5
3CE5
  8
0-6
  6
CONTINUOUS
 62
     6
 10
8312.8740889999972
 20
16257.858898999961
 30
0.0
 11
8215.6787369999947
 21
16127.996541999981
 31
0.0
  0
LINE
  5
3CE6
  8
0-6
  6
CONTINUOUS
 62
     6
 10
8215.6787369999947
 20
16127.996541999981
 30
0.0
 11
8349.7366839999977
 21
16219.31569299998
 31
0.0
  0
LINE
  5
3CE7
  8
0-6
  6
CONTINUOUS
 62
     6
 10
8215.6787369999947
 20
16127.996541999981
 30
0.0
 11
8312.8740889999972
 21
16257.858898999961
 31
0.0
  0
LINE
  5
3CE8
  8
0-6
  6
CONTINUOUS
 62
     6
 10
8312.8740889999972
 20
16257.858898999961
 30
0.0
 11
8349.7366839999977
 21
16219.31569299998
 31
0.0
  0
LINE
  5
3CE9
  8
0-6
  6
CONTINUOUS
 62
     6
 10
8349.7366839999977
 20
16219.31569299998
 30
0.0
 11
8215.6787369999947
 21
16127.996541999981
 31
0.0
  0
LINE
  5
3CEA
  8
0-6
  6
CONTINUOUS
 62
     6
 10
8349.7366839999977
 20
16219.31569299998
 30
0.0
 11
8312.8740889999972
 21
16257.858898999961
 31
0.0
  0
LINE
  5
3CEB
  8
0-6
  6
CONTINUOUS
 62
     6
 10
9109.9005219999963
 20
17257.481140999989
 30
0.0
 11
9128.2645159999956
 21
17096.316655999992
 31
0.0
  0
LINE
  5
3CEC
  8
0-6
  6
CONTINUOUS
 62
     6
 10
9128.2645159999956
 20
17096.316655999992
 30
0.0
 11
9058.6230729999897
 21
17242.812907999982
 31
0.0
  0
LINE
  5
3CED
  8
0-6
  6
CONTINUOUS
 62
     6
 10
9128.2645159999956
 20
17096.316655999992
 30
0.0
 11
9109.9005219999963
 21
17257.481140999989
 31
0.0
  0
LINE
  5
3CEE
  8
0-6
  6
CONTINUOUS
 62
     6
 10
9109.9005219999963
 20
17257.481140999989
 30
0.0
 11
9058.6230729999897
 21
17242.812907999982
 31
0.0
  0
LINE
  5
3CEF
  8
0-6
  6
CONTINUOUS
 62
     6
 10
9058.6230729999897
 20
17242.812907999982
 30
0.0
 11
9128.2645159999956
 21
17096.316655999992
 31
0.0
  0
LINE
  5
3CF0
  8
0-6
  6
CONTINUOUS
 62
     6
 10
9058.6230729999897
 20
17242.812907999982
 30
0.0
 11
9109.9005219999963
 21
17257.481140999989
 31
0.0
  0
LINE
  5
3CF1
  8
0-6
  6
CONTINUOUS
 62
     6
 10
7330.8249439999972
 20
18683.951500999981
 30
0.0
 11
7241.0072579999978
 21
18819.023950999948
 31
0.0
  0
LINE
  5
3CF2
  8
0-6
  6
CONTINUOUS
 62
     6
 10
7241.0072579999978
 20
18819.023950999948
 30
0.0
 11
7282.1614490000011
 21
18662.125328999969
 31
0.0
  0
LINE
  5
3CF3
  8
0-6
  6
CONTINUOUS
 62
     6
 10
7241.0072579999978
 20
18819.023950999948
 30
0.0
 11
7330.8249439999972
 21
18683.951500999981
 31
0.0
  0
LINE
  5
3CF4
  8
0-6
  6
CONTINUOUS
 62
     6
 10
7330.8249439999972
 20
18683.951500999981
 30
0.0
 11
7282.1614490000011
 21
18662.125328999969
 31
0.0
  0
LINE
  5
3CF5
  8
0-6
  6
CONTINUOUS
 62
     6
 10
7282.1614490000011
 20
18662.125328999969
 30
0.0
 11
7241.0072579999978
 21
18819.023950999948
 31
0.0
  0
LINE
  5
3CF6
  8
0-6
  6
CONTINUOUS
 62
     6
 10
7282.1614490000011
 20
18662.125328999969
 30
0.0
 11
7330.8249439999972
 21
18683.951500999981
 31
0.0
  0
LINE
  5
3CF7
  8
0-6
  6
CONTINUOUS
 62
     6
 10
8317.5516909999933
 20
20148.490404999971
 30
0.0
 11
8424.2487329999931
 21
20026.314517999981
 31
0.0
  0
LINE
  5
3CF8
  8
0-6
  6
CONTINUOUS
 62
     6
 10
8424.2487329999931
 20
20026.314517999981
 30
0.0
 11
8362.9450219999981
 21
20176.494653999969
 31
0.0
  0
LINE
  5
3CF9
  8
0-6
  6
CONTINUOUS
 62
     6
 10
8424.2487329999931
 20
20026.314517999981
 30
0.0
 11
8317.5516909999933
 21
20148.490404999971
 31
0.0
  0
LINE
  5
3CFA
  8
0-6
  6
CONTINUOUS
 62
     6
 10
8317.5516909999933
 20
20148.490404999971
 30
0.0
 11
8362.9450219999981
 21
20176.494653999969
 31
0.0
  0
LINE
  5
3CFB
  8
0-6
  6
CONTINUOUS
 62
     6
 10
8362.9450219999981
 20
20176.494653999969
 30
0.0
 11
8424.2487329999931
 21
20026.314517999981
 31
0.0
  0
LINE
  5
3CFC
  8
0-6
  6
CONTINUOUS
 62
     6
 10
8362.9450219999981
 20
20176.494653999969
 30
0.0
 11
8317.5516909999933
 21
20148.490404999971
 31
0.0
  0
LINE
  5
3CFD
  8
0-6
  6
CONTINUOUS
 62
     6
 10
8811.5069019999937
 20
19926.940705999961
 30
0.0
 11
8799.0072309999941
 21
19765.212057999968
 31
0.0
  0
LINE
  5
3CFE
  8
0-6
  6
CONTINUOUS
 62
     6
 10
8799.0072309999941
 20
19765.212057999968
 30
0.0
 11
8863.282199999996
 21
19914.14509699995
 31
0.0
  0
LINE
  5
3CFF
  8
0-6
  6
CONTINUOUS
 62
     6
 10
8799.0072309999941
 20
19765.212057999968
 30
0.0
 11
8811.5069019999937
 21
19926.940705999961
 31
0.0
  0
LINE
  5
3D00
  8
0-6
  6
CONTINUOUS
 62
     6
 10
8811.5069019999937
 20
19926.940705999961
 30
0.0
 11
8863.282199999996
 21
19914.14509699995
 31
0.0
  0
LINE
  5
3D01
  8
0-6
  6
CONTINUOUS
 62
     6
 10
8863.282199999996
 20
19914.14509699995
 30
0.0
 11
8799.0072309999941
 21
19765.212057999968
 31
0.0
  0
LINE
  5
3D02
  8
0-6
  6
CONTINUOUS
 62
     6
 10
8863.282199999996
 20
19914.14509699995
 30
0.0
 11
8811.5069019999937
 21
19926.940705999961
 31
0.0
  0
LINE
  5
3D03
  8
0-6
  6
CONTINUOUS
 62
     6
 10
8349.3328619999957
 20
20310.217072999982
 30
0.0
 11
8445.9828569999954
 21
20192.817763999981
 31
0.0
  0
LINE
  5
3D04
  8
0-6
  6
CONTINUOUS
 62
     6
 10
8445.9828569999954
 20
20192.817763999981
 30
0.0
 11
8392.6328519999952
 21
20335.218391999981
 31
0.0
  0
LINE
  5
3D05
  8
0-6
  6
CONTINUOUS
 62
     6
 10
8445.9828569999954
 20
20192.817763999981
 30
0.0
 11
8349.3328619999957
 21
20310.217072999982
 31
0.0
  0
LINE
  5
3D06
  8
0-6
  6
CONTINUOUS
 62
     6
 10
8349.3328619999957
 20
20310.217072999982
 30
0.0
 11
8392.6328519999952
 21
20335.218391999981
 31
0.0
  0
LINE
  5
3D07
  8
0-6
  6
CONTINUOUS
 62
     6
 10
8392.6328519999952
 20
20335.218391999981
 30
0.0
 11
8445.9828569999954
 21
20192.817763999981
 31
0.0
  0
LINE
  5
3D08
  8
0-6
  6
CONTINUOUS
 62
     6
 10
8392.6328519999952
 20
20335.218391999981
 30
0.0
 11
8349.3328619999957
 21
20310.217072999982
 31
0.0
  0
LINE
  5
3D09
  8
0-6
  6
CONTINUOUS
 62
     6
 10
13690.12257199998
 20
20320.219579999972
 30
0.0
 11
13786.772566
 21
20202.818291999982
 31
0.0
  0
LINE
  5
3D0A
  8
0-6
  6
CONTINUOUS
 62
     6
 10
13786.772566
 20
20202.818291999982
 30
0.0
 11
13733.42256099999
 21
20345.218919999981
 31
0.0
  0
LINE
  5
3D0B
  8
0-6
  6
CONTINUOUS
 62
     6
 10
13786.772566
 20
20202.818291999982
 30
0.0
 11
13690.12257199998
 21
20320.219579999972
 31
0.0
  0
LINE
  5
3D0C
  8
0-6
  6
CONTINUOUS
 62
     6
 10
13690.12257199998
 20
20320.219579999972
 30
0.0
 11
13733.42256099999
 21
20345.218919999981
 31
0.0
  0
LINE
  5
3D0D
  8
0-6
  6
CONTINUOUS
 62
     6
 10
13733.42256099999
 20
20345.218919999981
 30
0.0
 11
13786.772566
 21
20202.818291999982
 31
0.0
  0
LINE
  5
3D0E
  8
0-6
  6
CONTINUOUS
 62
     6
 10
13733.42256099999
 20
20345.218919999981
 30
0.0
 11
13690.12257199998
 21
20320.219579999972
 31
0.0
  0
LINE
  5
3D0F
  8
2-0
  6
DASHED3
 62
     6
 10
13820.506531999999
 20
16161.77702599998
 30
0.0
 11
13820.506531999999
 21
20026.314517999981
 31
0.0
  0
LINE
  5
3D10
  8
2-0
  6
DASHED3
 62
     6
 10
13778.007258
 20
16183.31814799998
 30
0.0
 11
13778.007258
 21
20026.314517999981
 31
0.0
  0
LINE
  5
3D11
  8
2-0
  6
DASHED3
 62
     6
 10
13708.007522
 20
19980.316444999949
 30
0.0
 11
11091.41445799999
 21
17549.748718999959
 31
0.0
  0
LINE
  5
3D12
  8
2-0
  6
DASHED3
 62
     6
 10
13708.007522
 20
17062.316444999979
 30
0.0
 11
10579.506993999979
 21
19980.316444999949
 31
0.0
  0
LINE
  5
3D13
  8
2-0
  6
DASHED3
 62
     6
 10
9163.5019259999972
 20
18790.25362799998
 30
0.0
 11
10439.50653199999
 21
19980.316444999949
 31
0.0
  0
LINE
  5
3D14
  8
2-0
  6
DASHED3
 62
     6
 10
11966.255766999981
 20
17096.316655999992
 30
0.0
 11
13778.007258
 21
17096.316655999992
 31
0.0
  0
LINE
  5
3D15
  8
2-0
  6
DASHED3
 62
     6
 10
12122.11613099999
 20
17017.316048999979
 30
0.0
 11
13778.007258
 21
17017.316048999979
 31
0.0
  0
LINE
  5
3D16
  8
2-0
  6
DASHED3
 62
     6
 10
13153.92435599999
 20
16494.327239999991
 30
0.0
 11
13708.007522
 21
17062.316444999979
 31
0.0
  0
LINE
  5
3D17
  8
2-0
  6
DASHED3
 62
     6
 10
7198.5060039999989
 20
20026.314517999981
 30
0.0
 11
13820.506531999999
 21
20026.314517999981
 31
0.0
  0
LINE
  5
3D18
  8
2-0
  6
DASHED3
 62
     6
 10
7241.0072579999978
 20
19941.313989999981
 30
0.0
 11
13778.007258
 21
19941.313989999981
 31
0.0
  0
LINE
  5
3D19
  8
2-0
  6
DASHED3
 62
     6
 10
7311.0060039999989
 20
19980.316444999949
 30
0.0
 11
7923.732407999998
 21
19418.651800999982
 31
0.0
  0
LINE
  5
3D1A
  8
2-0
  6
DASHED3
 62
     6
 10
7241.0072579999978
 20
19759.38039599995
 30
0.0
 11
7241.0072579999978
 21
20026.314517999981
 31
0.0
  0
LINE
  5
3D1B
  8
2-0
  6
DASHED3
 62
     6
 10
7198.5060039999989
 20
19780.923496999982
 30
0.0
 11
7198.5060039999989
 21
20026.314517999981
 31
0.0
  0
LINE
  5
3D1C
  8
2-0
  6
CENTER2
 62
     6
 10
5911.505667999998
 20
13793.81644499998
 30
0.0
 11
7558.0073629999943
 21
13793.81644499998
 31
0.0
  0
LINE
  5
3D1D
  8
2-0
  6
CENTER2
 62
     6
 10
5911.505667999998
 20
17062.316444999979
 30
0.0
 11
7558.0073629999943
 21
17062.316444999979
 31
0.0
  0
LINE
  5
3D1E
  8
2-0
  6
CENTER2
 62
     6
 10
5911.505667999998
 20
19980.316444999949
 30
0.0
 11
7558.0073629999943
 21
19980.316444999949
 31
0.0
  0
LINE
  5
3D1F
  8
2-0
  6
CENTER2
 62
     6
 10
13450.50770699999
 20
13793.81644499998
 30
0.0
 11
14076.771048999981
 21
13793.81644499998
 31
0.0
  0
LINE
  5
3D20
  8
2-0
  6
CENTER2
 62
     6
 10
13450.50770699999
 20
17062.316444999979
 30
0.0
 11
14076.771048999981
 21
17062.316444999979
 31
0.0
  0
LINE
  5
3D21
  8
2-0
  6
CENTER2
 62
     6
 10
7241.0072579999978
 20
21222.814729999998
 30
0.0
 11
7241.0072579999978
 21
20272.818027999969
 31
0.0
  0
LINE
  5
3D22
  8
2-0
  6
CENTER2
 62
     6
 10
10509.507257999991
 20
21222.814729999998
 30
0.0
 11
10509.507257999991
 21
20272.818027999969
 31
0.0
  0
LINE
  5
3D23
  8
2-0
  6
CENTER2
 62
     6
 10
13778.007258
 20
21222.81670799998
 30
0.0
 11
13778.007258
 21
20272.818027999969
 31
0.0
  0
LINE
  5
3D24
  8
2-0
  6
DASHED3
 62
     6
 10
10452.50701999999
 20
18107.505791999982
 30
0.0
 11
10452.50701999999
 21
19941.313989999981
 31
0.0
  0
LINE
  5
3D25
  8
2-0
  6
DASHED3
 62
     6
 10
10509.507257999991
 20
17973.041053999979
 30
0.0
 11
10509.507257999991
 21
19941.313989999981
 31
0.0
  0
LINE
  5
3D26
  8
2-0
  6
DASHED3
 62
     6
 10
10566.506505999971
 20
17838.578294999981
 30
0.0
 11
10566.506505999971
 21
19941.313989999981
 31
0.0
  0
CIRCLE
  5
3D27
  8
0-1
  6
CONTINUOUS
 62
     4
 10
5711.5055039999979
 20
13793.81644499998
 30
0.0
 40
199.9999949999999
  0
CIRCLE
  5
3D28
  8
0-1
  6
CONTINUOUS
 62
     4
 10
5711.5055039999979
 20
17062.316444999979
 30
0.0
 40
199.9999949999999
  0
CIRCLE
  5
3D29
  8
0-1
  6
CONTINUOUS
 62
     4
 10
5711.5055039999979
 20
19980.316444999949
 30
0.0
 40
199.9999949999999
  0
CIRCLE
  5
3D2A
  8
0-1
  6
CONTINUOUS
 62
     4
 10
7241.0072579999978
 20
21422.81341000001
 30
0.0
 40
199.9999949999999
  0
CIRCLE
  5
3D2B
  8
0-1
  6
CONTINUOUS
 62
     4
 10
10509.507257999991
 20
21422.81341000001
 30
0.0
 40
199.9999949999999
  0
CIRCLE
  5
3D2C
  8
0-1
  6
CONTINUOUS
 62
     4
 10
13778.007258
 20
21422.81340899998
 30
0.0
 40
199.9999949999999
  0
CIRCLE
  5
3D2D
  8
0-1
  6
CONTINUOUS
 62
     4
 10
15128.713709000011
 20
1375.999857999999
 30
0.0
 40
20.0
  0
ARC
  5
3D2E
  8
0-1
  6
CONTINUOUS
 62
     4
 10
15128.713709000011
 20
1375.999857999999
 30
0.0
 40
20.0
 50
180.0
 51
0.0
  0
ARC
  5
3D2F
  8
0-1
  6
CONTINUOUS
 62
     4
 10
15128.713709000011
 20
1375.999857999999
 30
0.0
 40
20.0
 50
0.0
 51
179.99998499999839
  0
CIRCLE
  5
3D30
  8
0-1
  6
CONTINUOUS
 62
     4
 10
15128.713709000011
 20
1775.999939999999
 30
0.0
 40
20.0
  0
ARC
  5
3D31
  8
0-1
  6
CONTINUOUS
 62
     4
 10
15128.713709000011
 20
1775.999939999999
 30
0.0
 40
20.0
 50
180.0
 51
0.0
  0
ARC
  5
3D32
  8
0-1
  6
CONTINUOUS
 62
     4
 10
15128.713709000011
 20
1775.999939999999
 30
0.0
 40
20.0
 50
0.0
 51
179.99998499999839
  0
ARC
  5
3D33
  8
0-2
  6
CONTINUOUS
 62
     3
 10
7224.0071119999948
 20
20167.814464999981
 30
0.0
 40
5.0
 50
269.9999850001808
 51
0.0
  0
ARC
  5
3D34
  8
0-2
  6
CONTINUOUS
 62
     3
 10
7224.0071119999948
 20
20197.81802799998
 30
0.0
 40
5.0
 50
0.0
 51
90.0
  0
ARC
  5
3D35
  8
0-2
  6
CONTINUOUS
 62
     3
 10
7160.5081149999996
 20
20197.81802799998
 30
0.0
 40
5.0
 50
90.0
 51
180.0
  0
ARC
  5
3D36
  8
0-2
  6
CONTINUOUS
 62
     3
 10
13858.507390000001
 20
20197.81802799998
 30
0.0
 40
5.0
 50
0.0
 51
90.0
  0
ARC
  5
3D37
  8
0-2
  6
CONTINUOUS
 62
     3
 10
13795.00641399999
 20
20197.81802799998
 30
0.0
 40
5.0
 50
90.0
 51
180.0
  0
ARC
  5
3D38
  8
0-2
  6
CONTINUOUS
 62
     3
 10
13795.00641399999
 20
20167.814464999981
 30
0.0
 40
5.0
 50
180.0
 51
269.9999850001808
  0
TEXT
  5
3D39
  8
0-1
  6
CONTINUOUS
 62
     7
 10
16670.495407999992
 20
1655.9999159999979
 30
0.0
 40
160.0
  1
H
  0
TEXT
  5
3D3A
  8
0-1
  6
CONTINUOUS
 62
     7
 10
15176.14594300001
 20
1655.9999159999979
 30
0.0
 40
160.0
  1
（ ）内寸法ハ、  タ イプヲ示ス。
  0
TEXT
  5
3D3B
  8
0-1
  6
CONTINUOUS
 62
     7
 10
15288.715227000001
 20
1255.9999569999991
 30
0.0
 40
160.0
  1
有効高サハ、基礎高サヲ含ミマセン。
  0
TEXT
  5
3D3C
  8
0-1
  6
CONTINUOUS
 62
     7
 10
7192.0695989999986
 20
21336.288653000011
 30
0.0
 40
160.0
  1
1
 72
     4
 11
7218.7362656666683
 21
21416.288653000011
 31
0.0
  0
TEXT
  5
3D3D
  8
0-1
  6
CONTINUOUS
 62
     7
 10
10461.40990499997
 20
21330.680677000011
 30
0.0
 40
160.0
  1
2
 72
     4
 11
10514.743238333311
 21
21410.680677000011
 31
0.0
  0
TEXT
  5
3D3E
  8
0-1
  6
CONTINUOUS
 62
     7
 10
13734.00849899997
 20
21338.57697599996
 30
0.0
 40
160.0
  1
3
 72
     4
 11
13787.34183233331
 21
21418.57697599996
 31
0.0
  0
TEXT
  5
3D3F
  8
0-1
  6
CONTINUOUS
 62
     7
 10
5656.4521230000009
 20
19885.66378399996
 30
0.0
 40
160.0
  1
C
 72
     4
 11
5709.7854563333349
 21
19965.66378399996
 31
0.0
  0
TEXT
  5
3D40
  8
0-1
  6
CONTINUOUS
 62
     7
 10
5656.4521230000009
 20
16967.661804999982
 30
0.0
 40
160.0
  1
B
 72
     4
 11
5709.7854563333349
 21
17047.661804999982
 31
0.0
  0
TEXT
  5
3D41
  8
0-1
  6
CONTINUOUS
 62
     7
 10
5656.4521230000009
 20
13699.16378399998
 30
0.0
 40
160.0
  1
A
 72
     4
 11
5709.7854563333349
 21
13779.16378399998
 31
0.0
  0
TEXT
  5
3D42
  8
0-6
  6
CONTINUOUS
 62
     7
 10
5505.1090179999928
 20
12481.317434999981
 30
0.0
 40
160.0
  1
ケラバ 左
 72
     4
 11
5921.1090179999928
 21
12561.317434999981
 31
0.0
  0
TEXT
  5
3D43
  8
0-6
  6
CONTINUOUS
 62
     7
 10
9472.2998969999881
 20
12881.31677499999
 30
0.0
 40
160.0
  1
鼻隠し前
 72
     4
 11
9834.9665636666541
 21
12961.31677499999
 31
0.0
  0
TEXT
  5
3D44
  8
0-6
  6
CONTINUOUS
 62
     7
 10
8564.775746999996
 20
14245.14569199998
 30
0.0
 40
160.0
  1
桁（前）
 72
     4
 11
8884.7757469999979
 21
14325.14569199998
 31
0.0
  0
TEXT
  5
3D45
  8
0-6
  6
CONTINUOUS
 62
     7
 10
8622.5727399999978
 20
16520.648898999982
 30
0.0
 40
160.0
  1
ブレース
 72
     4
 11
8985.239406666662
 21
16605.982232333321
 31
0.0
  0
TEXT
  5
3D46
  8
0-6
  6
CONTINUOUS
 62
     7
 10
8303.1140730000006
 20
17501.911672999981
 30
0.0
 40
160.0
  1
桁（中）
 72
     4
 11
8623.1140730000006
 21
17581.911672999981
 31
0.0
  0
TEXT
  5
3D47
  8
0-6
  6
CONTINUOUS
 62
     7
 10
7496.0336649999972
 20
18532.24515499995
 30
0.0
 40
160.0
  1
上枠
 72
     4
 11
7666.7003316666642
 21
18612.245154999961
 31
0.0
  0
TEXT
  5
3D48
  8
0-6
  6
CONTINUOUS
 62
     7
 10
9957.3215389999841
 20
15787.64702499998
 30
0.0
 40
160.0
  1
梁
 72
     4
 11
10031.98820566665
 21
15867.64702499998
 31
0.0
  0
TEXT
  5
3D49
  8
0-6
  6
CONTINUOUS
 62
     7
 10
11632.791014999981
 20
21232.815256999958
 30
0.0
 40
160.0
  1
鼻隠しコーナー後
 72
     4
 11
12379.45768166665
 21
21312.815256999958
 31
0.0
  0
TEXT
  5
3D4A
  8
0-6
  6
CONTINUOUS
 62
     7
 10
7410.3214999999982
 20
20512.816839999981
 30
0.0
 40
160.0
  1
桁（後）
 72
     4
 11
7730.3214999999982
 21
20592.816839999981
 31
0.0
  0
TEXT
  5
3D4B
  8
0-6
  6
CONTINUOUS
 62
     7
 10
9061.2974029999987
 20
20512.816839999981
 30
0.0
 40
160.0
  1
屋根
 72
     4
 11
9231.9640696666647
 21
20592.816839999981
 31
0.0
  0
TEXT
  5
3D4C
  8
0-6
  6
CONTINUOUS
 62
     7
 10
7971.7268260000001
 20
21232.815256999958
 30
0.0
 40
160.0
  1
鼻隠し後
 72
     4
 11
8334.3934926666661
 21
21312.815256999958
 31
0.0
  0
TEXT
  5
3D4D
  8
2-0
  6
CONTINUOUS
 62
     7
 10
9246.3794209999942
 20
11671.71907899998
 30
0.0
 40
160.0
  1
小 屋 伏 図
 72
     4
 11
9747.7127543333281
 21
11751.71907899998
 31
0.0
  0
TEXT
  5
3D56
  8
2-0
  6
CONTINUOUS
 62
     7
 10
11099.20493947095
 20
11698.91444799998
 30
0.0
 40
160.0
  1
1
 72
     4
 11
11125.87160613762
 21
11778.91444799998
 31
0.0
  0
TEXT
  5
3D57
  8
2-0
  6
CONTINUOUS
 62
     7
 10
11342.29365672164
 20
11618.91591599998
 30
0.0
 40
160.0
  1
80
 72
     4
 11
11462.29365672164
 21
11698.91591599998
 31
0.0
  0
TEXT
  5
3D58
  8
2-0
  6
CONTINUOUS
 62
     7
 10
10600.20690547095
 20
11671.71907899998
 30
0.0
 40
160.0
  1
(S=  /   )
 72
     4
 11
11160.20690547095
 21
11751.71907899998
 31
0.0
  0
LINE
  5
3D63
  8
0-1
  6
CONTINUOUS
 62
     3
 10
25063.674144499961
 20
6212.7285879999972
 30
0.0
 11
24963.674803499991
 21
6212.7285879999972
 31
0.0
  0
LINE
  5
3D64
  8
0-1
  6
CONTINUOUS
 62
     3
 10
24963.674803499991
 20
6212.7285879999972
 30
0.0
 11
24963.674803499991
 21
6112.7287530000012
 31
0.0
  0
LINE
  5
3D65
  8
0-1
  6
CONTINUOUS
 62
     3
 10
25063.674144499961
 20
6112.7287530000012
 30
0.0
 11
25063.674144499961
 21
6212.7285879999972
 31
0.0
  0
LINE
  5
3D66
  8
0-1
  6
CONTINUOUS
 62
     3
 10
25036.174671499961
 20
8561.2289369999999
 30
0.0
 11
25036.174671499961
 21
6212.7285879999972
 31
0.0
  0
LINE
  5
3D67
  8
0-1
  6
CONTINUOUS
 62
     3
 10
25056.17374849999
 20
8431.2280139999984
 30
0.0
 11
25056.17374849999
 21
6212.7285879999972
 31
0.0
  0
LINE
  5
3D68
  8
0-1
  6
CONTINUOUS
 62
     3
 10
24926.174803499958
 20
8120.7286469999981
 30
0.0
 11
24926.174803499958
 21
6112.7287530000012
 31
0.0
  0
LINE
  5
3D69
  8
0-1
  6
CONTINUOUS
 62
     3
 10
24971.175199499961
 20
8431.2280139999984
 30
0.0
 11
24971.175199499961
 21
6212.7285879999972
 31
0.0
  0
LINE
  5
3D72
  8
0-1
  6
CONTINUOUS
 62
     3
 10
21787.6717685
 20
8431.2280139999984
 30
0.0
 11
21787.6717685
 21
6112.7287530000012
 31
0.0
  0
LINE
  5
3D73
  8
0-1
  6
CONTINUOUS
 62
     3
 10
21832.6721645
 20
8120.7286469999981
 30
0.0
 11
21832.6721645
 21
6112.7287530000012
 31
0.0
  0
LINE
  5
3D76
  8
0-1
  6
CONTINUOUS
 62
     3
 10
21832.6721645
 20
8052.1883109999999
 30
0.0
 11
24926.174803499958
 21
8052.1883109999999
 31
0.0
  0
LINE
  5
3D77
  8
0-1
  6
CONTINUOUS
 62
     3
 10
21832.6721645
 20
6697.7294460000012
 30
0.0
 11
24926.174803499958
 21
6697.7294460000012
 31
0.0
  0
LINE
  5
3D78
  8
0-1
  6
CONTINUOUS
 62
     3
 10
21832.6721645
 20
6762.7284230000032
 30
0.0
 11
24926.174803499958
 21
6762.7284230000032
 31
0.0
  0
LINE
  5
3D79
  8
0-1
  6
CONTINUOUS
 62
     3
 10
21832.6721645
 20
6827.7288849999986
 30
0.0
 11
24926.174803499958
 21
6827.7288849999986
 31
0.0
  0
LINE
  5
3D7A
  8
0-1
  6
CONTINUOUS
 62
     3
 10
21832.6721645
 20
6892.728852000002
 30
0.0
 11
24926.174803499958
 21
6892.728852000002
 31
0.0
  0
LINE
  5
3D7B
  8
0-1
  6
CONTINUOUS
 62
     3
 10
21832.6721645
 20
6957.7288189999999
 30
0.0
 11
24926.174803499958
 21
6957.7288189999999
 31
0.0
  0
LINE
  5
3D7C
  8
0-1
  6
CONTINUOUS
 62
     3
 10
21832.6721645
 20
7022.7287859999997
 30
0.0
 11
24926.174803499958
 21
7022.7287859999997
 31
0.0
  0
LINE
  5
3D7D
  8
0-1
  6
CONTINUOUS
 62
     3
 10
21832.6721645
 20
7087.7292480000024
 30
0.0
 11
24926.174803499958
 21
7087.7292480000024
 31
0.0
  0
LINE
  5
3D7E
  8
0-1
  6
CONTINUOUS
 62
     3
 10
21832.6721645
 20
7152.7282249999971
 30
0.0
 11
24926.174803499958
 21
7152.7282249999971
 31
0.0
  0
LINE
  5
3D7F
  8
0-1
  6
CONTINUOUS
 62
     3
 10
21832.6721645
 20
7217.7286870000007
 30
0.0
 11
24926.174803499958
 21
7217.7286870000007
 31
0.0
  0
LINE
  5
3D80
  8
0-1
  6
CONTINUOUS
 62
     3
 10
21832.6721645
 20
7282.7286539999968
 30
0.0
 11
24926.174803499958
 21
7282.7286539999968
 31
0.0
  0
LINE
  5
3D81
  8
0-1
  6
CONTINUOUS
 62
     3
 10
21832.6721645
 20
7347.7291160000004
 30
0.0
 11
24926.174803499958
 21
7347.7291160000004
 31
0.0
  0
LINE
  5
3D82
  8
0-1
  6
CONTINUOUS
 62
     3
 10
21832.6721645
 20
7412.7280929999979
 30
0.0
 11
24926.174803499958
 21
7412.7280929999979
 31
0.0
  0
LINE
  5
3D83
  8
0-1
  6
CONTINUOUS
 62
     3
 10
21832.6721645
 20
7477.7285550000033
 30
0.0
 11
24926.174803499958
 21
7477.7285550000033
 31
0.0
  0
LINE
  5
3D84
  8
0-1
  6
CONTINUOUS
 62
     3
 10
21832.6721645
 20
7542.7285220000031
 30
0.0
 11
24926.174803499958
 21
7542.7285220000031
 31
0.0
  0
LINE
  5
3D85
  8
0-1
  6
CONTINUOUS
 62
     3
 10
21832.6721645
 20
7607.7284890000019
 30
0.0
 11
24926.174803499958
 21
7607.7284890000019
 31
0.0
  0
LINE
  5
3D86
  8
0-1
  6
CONTINUOUS
 62
     3
 10
21832.6721645
 20
7672.7289510000028
 30
0.0
 11
24926.174803499958
 21
7672.7289510000028
 31
0.0
  0
LINE
  5
3D87
  8
0-1
  6
CONTINUOUS
 62
     3
 10
21832.6721645
 20
7737.7289180000007
 30
0.0
 11
24926.174803499958
 21
7737.7289180000007
 31
0.0
  0
LINE
  5
3D88
  8
0-1
  6
CONTINUOUS
 62
     3
 10
21832.6721645
 20
7802.7293799999989
 30
0.0
 11
24926.174803499958
 21
7802.7293799999989
 31
0.0
  0
LINE
  5
3D89
  8
0-1
  6
CONTINUOUS
 62
     3
 10
21832.6721645
 20
7867.7283569999972
 30
0.0
 11
24926.174803499958
 21
7867.7283569999972
 31
0.0
  0
LINE
  5
3D8A
  8
0-1
  6
CONTINUOUS
 62
     3
 10
21832.6721645
 20
7932.7288190000027
 30
0.0
 11
24926.174803499958
 21
7932.7288190000027
 31
0.0
  0
LINE
  5
3D8B
  8
0-1
  6
CONTINUOUS
 62
     3
 10
21832.6721645
 20
7997.7287859999969
 30
0.0
 11
24926.174803499958
 21
7997.7287859999969
 31
0.0
  0
LINE
  5
3D8C
  8
0-1
  6
CONTINUOUS
 62
     3
 10
21832.6721645
 20
6177.7282249999989
 30
0.0
 11
24926.174803499958
 21
6177.7282249999989
 31
0.0
  0
LINE
  5
3D8D
  8
0-1
  6
CONTINUOUS
 62
     3
 10
21832.6721645
 20
6242.7291819999991
 30
0.0
 11
24926.174803499958
 21
6242.7291819999991
 31
0.0
  0
LINE
  5
3D8E
  8
0-1
  6
CONTINUOUS
 62
     3
 10
21832.6721645
 20
6307.7281590000002
 30
0.0
 11
24926.174803499958
 21
6307.7281590000002
 31
0.0
  0
LINE
  5
3D8F
  8
0-1
  6
CONTINUOUS
 62
     3
 10
21832.6721645
 20
6372.7291159999977
 30
0.0
 11
24926.174803499958
 21
6372.7291159999977
 31
0.0
  0
LINE
  5
3D90
  8
0-1
  6
CONTINUOUS
 62
     3
 10
21832.6721645
 20
6437.7285880000027
 30
0.0
 11
24926.174803499958
 21
6437.7285880000027
 31
0.0
  0
LINE
  5
3D91
  8
0-1
  6
CONTINUOUS
 62
     3
 10
21832.6721645
 20
6502.7285549999997
 30
0.0
 11
24926.174803499958
 21
6502.7285549999997
 31
0.0
  0
LINE
  5
3D92
  8
0-1
  6
CONTINUOUS
 62
     3
 10
21832.6721645
 20
6567.7285220000022
 30
0.0
 11
24926.174803499958
 21
6567.7285220000022
 31
0.0
  0
LINE
  5
3D93
  8
0-1
  6
CONTINUOUS
 62
     3
 10
21832.6721645
 20
6632.7279940000008
 30
0.0
 11
24926.174803499958
 21
6632.7279940000008
 31
0.0
  0
LINE
  5
3D95
  8
0-1
  6
CONTINUOUS
 62
     3
 10
21787.6717685
 20
8120.7286469999981
 30
0.0
 11
24971.175199499961
 21
8120.7286469999981
 31
0.0
  0
LINE
  5
3D9F
  8
0-1
  6
CONTINUOUS
 62
     3
 10
21702.673220499972
 20
8431.2280139999984
 30
0.0
 11
21702.673220499972
 21
6112.7287530000012
 31
0.0
  0
LINE
  5
3DA0
  8
0-1
  6
CONTINUOUS
 62
     3
 10
21657.674804499959
 20
8120.7286469999981
 30
0.0
 11
21657.674804499959
 21
6112.7287530000012
 31
0.0
  0
LINE
  5
3DAB
  8
0-1
  6
CONTINUOUS
 62
     3
 10
18526.674144499961
 20
6212.7285879999972
 30
0.0
 11
18526.674144499961
 21
6112.7287530000012
 31
0.0
  0
LINE
  5
3DAC
  8
0-1
  6
CONTINUOUS
 62
     3
 10
18426.672825499991
 20
6112.7287530000012
 30
0.0
 11
18426.672825499991
 21
6212.7285879999972
 31
0.0
  0
LINE
  5
3DAD
  8
0-1
  6
CONTINUOUS
 62
     3
 10
18426.672825499991
 20
6212.7285879999972
 30
0.0
 11
18526.674144499961
 21
6212.7285879999972
 31
0.0
  0
LINE
  5
3DAE
  8
0-1
  6
CONTINUOUS
 62
     3
 10
18564.17414449999
 20
8120.7286469999981
 30
0.0
 11
18564.17414449999
 21
6112.7287530000012
 31
0.0
  0
LINE
  5
3DAF
  8
0-1
  6
CONTINUOUS
 62
     3
 10
18519.17176949999
 20
8431.2280139999984
 30
0.0
 11
18519.17176949999
 21
6212.7285879999972
 31
0.0
  0
LINE
  5
3DB0
  8
0-1
  6
CONTINUOUS
 62
     3
 10
18454.17427649998
 20
8561.2289369999999
 30
0.0
 11
18454.17427649998
 21
6212.7285879999972
 31
0.0
  0
LINE
  5
3DB1
  8
0-1
  6
CONTINUOUS
 62
     3
 10
18434.171241499989
 20
8431.2280139999984
 30
0.0
 11
18434.171241499989
 21
6212.7285879999972
 31
0.0
  0
LINE
  5
3DB2
  8
0-1
  6
CONTINUOUS
 62
     3
 10
18519.17176949999
 20
8120.7286469999981
 30
0.0
 11
21702.673220499972
 21
8120.7286469999981
 31
0.0
  0
LINE
  5
3DB4
  8
0-1
  6
CONTINUOUS
 62
     3
 10
18564.17414449999
 20
6632.7279940000008
 30
0.0
 11
21657.674804499959
 21
6632.7279940000008
 31
0.0
  0
LINE
  5
3DB5
  8
0-1
  6
CONTINUOUS
 62
     3
 10
18564.17414449999
 20
6567.7285220000022
 30
0.0
 11
21657.674804499959
 21
6567.7285220000022
 31
0.0
  0
LINE
  5
3DB6
  8
0-1
  6
CONTINUOUS
 62
     3
 10
18564.17414449999
 20
6502.7285549999997
 30
0.0
 11
21657.674804499959
 21
6502.7285549999997
 31
0.0
  0
LINE
  5
3DB7
  8
0-1
  6
CONTINUOUS
 62
     3
 10
18564.17414449999
 20
6437.7285880000027
 30
0.0
 11
21657.674804499959
 21
6437.7285880000027
 31
0.0
  0
LINE
  5
3DB8
  8
0-1
  6
CONTINUOUS
 62
     3
 10
18564.17414449999
 20
6372.7291159999977
 30
0.0
 11
21657.674804499959
 21
6372.7291159999977
 31
0.0
  0
LINE
  5
3DB9
  8
0-1
  6
CONTINUOUS
 62
     3
 10
18564.17414449999
 20
6307.7281590000002
 30
0.0
 11
21657.674804499959
 21
6307.7281590000002
 31
0.0
  0
LINE
  5
3DBA
  8
0-1
  6
CONTINUOUS
 62
     3
 10
18564.17414449999
 20
6242.7291819999991
 30
0.0
 11
21657.674804499959
 21
6242.7291819999991
 31
0.0
  0
LINE
  5
3DBB
  8
0-1
  6
CONTINUOUS
 62
     3
 10
18564.17414449999
 20
6177.7282249999989
 30
0.0
 11
21657.674804499959
 21
6177.7282249999989
 31
0.0
  0
LINE
  5
3DBC
  8
0-1
  6
CONTINUOUS
 62
     3
 10
18564.17414449999
 20
7997.7287859999969
 30
0.0
 11
21657.674804499959
 21
7997.7287859999969
 31
0.0
  0
LINE
  5
3DBD
  8
0-1
  6
CONTINUOUS
 62
     3
 10
18564.17414449999
 20
7932.7288190000027
 30
0.0
 11
21657.674804499959
 21
7932.7288190000027
 31
0.0
  0
LINE
  5
3DBE
  8
0-1
  6
CONTINUOUS
 62
     3
 10
18564.17414449999
 20
7867.7283569999972
 30
0.0
 11
21657.674804499959
 21
7867.7283569999972
 31
0.0
  0
LINE
  5
3DBF
  8
0-1
  6
CONTINUOUS
 62
     3
 10
18564.17414449999
 20
7802.7293799999989
 30
0.0
 11
21657.674804499959
 21
7802.7293799999989
 31
0.0
  0
LINE
  5
3DC0
  8
0-1
  6
CONTINUOUS
 62
     3
 10
18564.17414449999
 20
7737.7289180000007
 30
0.0
 11
21657.674804499959
 21
7737.7289180000007
 31
0.0
  0
LINE
  5
3DC1
  8
0-1
  6
CONTINUOUS
 62
     3
 10
18564.17414449999
 20
7672.7289510000028
 30
0.0
 11
21657.674804499959
 21
7672.7289510000028
 31
0.0
  0
LINE
  5
3DC2
  8
0-1
  6
CONTINUOUS
 62
     3
 10
18564.17414449999
 20
7607.7284890000019
 30
0.0
 11
21657.674804499959
 21
7607.7284890000019
 31
0.0
  0
LINE
  5
3DC3
  8
0-1
  6
CONTINUOUS
 62
     3
 10
18564.17414449999
 20
7542.7285220000031
 30
0.0
 11
21657.674804499959
 21
7542.7285220000031
 31
0.0
  0
LINE
  5
3DC4
  8
0-1
  6
CONTINUOUS
 62
     3
 10
18564.17414449999
 20
7477.7285550000033
 30
0.0
 11
21657.674804499959
 21
7477.7285550000033
 31
0.0
  0
LINE
  5
3DC5
  8
0-1
  6
CONTINUOUS
 62
     3
 10
18564.17414449999
 20
7412.7280929999979
 30
0.0
 11
21657.674804499959
 21
7412.7280929999979
 31
0.0
  0
LINE
  5
3DC6
  8
0-1
  6
CONTINUOUS
 62
     3
 10
18564.17414449999
 20
7347.7291160000004
 30
0.0
 11
21657.674804499959
 21
7347.7291160000004
 31
0.0
  0
LINE
  5
3DC7
  8
0-1
  6
CONTINUOUS
 62
     3
 10
18564.17414449999
 20
7282.7286539999968
 30
0.0
 11
21657.674804499959
 21
7282.7286539999968
 31
0.0
  0
LINE
  5
3DC8
  8
0-1
  6
CONTINUOUS
 62
     3
 10
18564.17414449999
 20
7217.7286870000007
 30
0.0
 11
21657.674804499959
 21
7217.7286870000007
 31
0.0
  0
LINE
  5
3DC9
  8
0-1
  6
CONTINUOUS
 62
     3
 10
18564.17414449999
 20
7152.7282249999971
 30
0.0
 11
21657.674804499959
 21
7152.7282249999971
 31
0.0
  0
LINE
  5
3DCA
  8
0-1
  6
CONTINUOUS
 62
     3
 10
18564.17414449999
 20
7087.7292480000024
 30
0.0
 11
21657.674804499959
 21
7087.7292480000024
 31
0.0
  0
LINE
  5
3DCB
  8
0-1
  6
CONTINUOUS
 62
     3
 10
18564.17414449999
 20
7022.7287859999997
 30
0.0
 11
21657.674804499959
 21
7022.7287859999997
 31
0.0
  0
LINE
  5
3DCC
  8
0-1
  6
CONTINUOUS
 62
     3
 10
18564.17414449999
 20
6957.7288189999999
 30
0.0
 11
21657.674804499959
 21
6957.7288189999999
 31
0.0
  0
LINE
  5
3DCD
  8
0-1
  6
CONTINUOUS
 62
     3
 10
18564.17414449999
 20
6892.728852000002
 30
0.0
 11
21657.674804499959
 21
6892.728852000002
 31
0.0
  0
LINE
  5
3DCE
  8
0-1
  6
CONTINUOUS
 62
     3
 10
18564.17414449999
 20
6827.7288849999986
 30
0.0
 11
21657.674804499959
 21
6827.7288849999986
 31
0.0
  0
LINE
  5
3DCF
  8
0-1
  6
CONTINUOUS
 62
     3
 10
18564.17414449999
 20
6762.7284230000032
 30
0.0
 11
21657.674804499959
 21
6762.7284230000032
 31
0.0
  0
LINE
  5
3DD0
  8
0-1
  6
CONTINUOUS
 62
     3
 10
18564.17414449999
 20
6697.7294460000012
 30
0.0
 11
21657.674804499959
 21
6697.7294460000012
 31
0.0
  0
LINE
  5
3DD1
  8
0-1
  6
CONTINUOUS
 62
     3
 10
18564.17414449999
 20
8052.1883109999999
 30
0.0
 11
21657.674804499959
 21
8052.1883109999999
 31
0.0
  0
LINE
  5
3DD7
  8
0-2
  6
CONTINUOUS
 62
     4
 10
23743.115484499991
 20
6859.9544569999989
 30
0.0
 11
23643.116144499989
 21
6859.9544569999989
 31
0.0
  0
LINE
  5
3DD8
  8
0-2
  6
CONTINUOUS
 62
     4
 10
23015.729504499988
 20
6859.9544569999989
 30
0.0
 11
23115.72884549998
 21
6859.9544569999989
 31
0.0
  0
LINE
  5
3DD9
  8
0-2
  6
CONTINUOUS
 62
     4
 10
20474.614495000002
 20
6859.9544569999989
 30
0.0
 11
20374.615154999989
 21
6859.9544569999989
 31
0.0
  0
LINE
  5
3DDA
  8
0-2
  6
CONTINUOUS
 62
     4
 10
19747.230493999981
 20
6859.9544569999989
 30
0.0
 11
19847.22785499999
 21
6859.9544569999989
 31
0.0
  0
LINE
  5
3DDB
  8
0-5
  6
CONTINUOUS
 62
     4
 10
13159.38080600001
 20
6112.7287530000003
 30
0.0
 11
18346.672561499981
 21
6112.7287530000012
 31
0.0
  0
LINE
  5
3DDC
  8
0-5
  6
CONTINUOUS
 62
     4
 10
21745.17348449997
 20
4432.7286539999986
 30
0.0
 11
21745.17348449997
 21
4272.728621000002
 31
0.0
  0
LINE
  5
3DDD
  8
0-5
  6
CONTINUOUS
 62
     4
 10
18476.673484499981
 20
4432.7286539999986
 30
0.0
 11
18476.673484499981
 21
4272.728621000002
 31
0.0
  0
LINE
  5
3DDE
  8
0-5
  6
CONTINUOUS
 62
     4
 10
15344.79003899999
 20
6320.5742450000034
 30
0.0
 11
15464.787466
 21
6112.7287530000012
 31
0.0
  0
LINE
  5
3DDF
  8
0-5
  6
CONTINUOUS
 62
     4
 10
15464.787466
 20
6112.7287530000012
 30
0.0
 11
15584.786872000001
 21
6320.5742450000034
 31
0.0
  0
LINE
  5
3DE0
  8
0-5
  6
CONTINUOUS
 62
     4
 10
15584.786872000001
 20
6320.5742450000034
 30
0.0
 11
15344.79003899999
 21
6320.5742450000034
 31
0.0
  0
LINE
  5
3DE1
  8
0-5
  6
CONTINUOUS
 62
     4
 10
13159.38080600001
 20
6112.7287530000003
 30
0.0
 11
18346.672561499981
 21
6112.7287530000012
 31
0.0
  0
LINE
  5
3DE2
  8
2-0
  6
CENTER2
 62
     6
 10
25013.673484499981
 20
5850.0763299999999
 30
0.0
 11
25013.673484499981
 21
6887.2183670000013
 31
0.0
  0
LINE
  5
3DE3
  8
2-0
  6
CENTER2
 62
     6
 10
21745.17348449997
 20
5850.0763299999999
 30
0.0
 11
21745.17348449997
 21
6887.2183670000013
 31
0.0
  0
LINE
  5
3DE4
  8
2-0
  6
CENTER2
 62
     6
 10
18476.673484499981
 20
5850.0763299999999
 30
0.0
 11
18476.673484499981
 21
6887.2183670000013
 31
0.0
  0
LINE
  5
3DE5
  8
2-0
  6
CONTINUOUS
 62
     6
 10
23330.514568499981
 20
13153.815322999981
 30
0.0
 11
24330.507970499952
 21
13153.815322999981
 31
0.0
  0
LINE
  5
3DE6
  8
2-0
  6
CONTINUOUS
 62
     6
 10
24798.448347499969
 20
13624.236036999981
 30
0.0
 11
24330.507970499952
 21
13153.815322999981
 31
0.0
  0
LINE
  5
3DE7
  8
2-0
  6
CONTINUOUS
 62
     6
 10
24759.808144499981
 20
17166.343683999981
 30
0.0
 11
24455.112726499981
 21
17269.997214999989
 31
0.0
  0
LINE
  5
3DE8
  8
2-0
  6
CONTINUOUS
 62
     6
 10
24914.830183499951
 20
16676.72164
 30
0.0
 11
24455.112726499981
 21
16432.808328999989
 31
0.0
  0
LINE
  5
3DE9
  8
2-0
  6
CONTINUOUS
 62
     6
 10
23535.10969149998
 20
16432.808328999989
 30
0.0
 11
24455.112726499981
 21
16432.808328999989
 31
0.0
  0
LINE
  5
3DEA
  8
2-0
  6
CONTINUOUS
 62
     6
 10
23255.11866449998
 20
17269.997214999989
 30
0.0
 11
24455.112726499981
 21
17269.997214999989
 31
0.0
  0
LINE
  5
3DEB
  8
2-0
  6
CONTINUOUS
 62
     6
 10
24831.007468499989
 20
15213.410701312459
 30
0.0
 11
24455.112726499981
 21
15394.354536312479
 31
0.0
  0
LINE
  5
3DEC
  8
2-0
  6
CONTINUOUS
 62
     6
 10
23935.111010499961
 20
15394.354536312479
 30
0.0
 11
24455.112726499981
 21
15394.354536312479
 31
0.0
  0
LINE
  5
3DED
  8
2-0
  6
CONTINUOUS
 62
     4
 10
21745.17348449997
 20
20102.816973000001
 30
0.0
 11
21745.17348449997
 21
20832.813937999981
 31
0.0
  0
LINE
  5
3DEE
  8
2-0
  6
CONTINUOUS
 62
     3
 10
25026.17414449995
 20
19913.814518999981
 30
0.0
 11
25026.17414449995
 21
19907.818556999991
 31
0.0
  0
LINE
  5
3DEF
  8
2-0
  6
CONTINUOUS
 62
     3
 10
25026.17414449995
 20
19907.818556999991
 30
0.0
 11
25056.171768499971
 21
19907.818556999991
 31
0.0
  0
LINE
  5
3DF0
  8
2-0
  6
CONTINUOUS
 62
     3
 10
25056.171768499971
 20
19937.818160999981
 30
0.0
 11
24975.169868499961
 21
19937.818160999981
 31
0.0
  0
LINE
  5
3DF1
  8
2-0
  6
CONTINUOUS
 62
     3
 10
25026.17414449995
 20
19897.521100999991
 30
0.0
 11
25056.171768499971
 21
19897.521100999991
 31
0.0
  0
LINE
  5
3DF2
  8
2-0
  6
CONTINUOUS
 62
     3
 10
25026.17414449995
 20
19915.522842999992
 30
0.0
 11
25026.17414449995
 21
19897.521100999991
 31
0.0
  0
LINE
  5
3DF3
  8
2-0
  6
CONTINUOUS
 62
     3
 10
25051.171504499991
 20
19915.522842999992
 30
0.0
 11
25026.17414449995
 21
19915.522842999992
 31
0.0
  0
LINE
  5
3DF4
  8
2-0
  6
CONTINUOUS
 62
     3
 10
25051.171504499991
 20
19910.514661000001
 30
0.0
 11
25051.171504499991
 21
19915.522842999992
 31
0.0
  0
LINE
  5
3DF5
  8
2-0
  6
CONTINUOUS
 62
     3
 10
25044.16994749998
 20
19910.514661000001
 30
0.0
 11
25051.171504499991
 21
19910.514661000001
 31
0.0
  0
LINE
  5
3DF6
  8
2-0
  6
CONTINUOUS
 62
     3
 10
24943.873679499971
 20
20010.814888000001
 30
0.0
 11
24943.873679499971
 21
20017.820403999991
 31
0.0
  0
LINE
  5
3DF7
  8
2-0
  6
CONTINUOUS
 62
     3
 10
24943.873679499971
 20
20017.820403999991
 30
0.0
 11
24948.873943499959
 21
20017.820403999991
 31
0.0
  0
LINE
  5
3DF8
  8
2-0
  6
CONTINUOUS
 62
     3
 10
24948.873943499959
 20
20017.820403999991
 30
0.0
 11
24948.873943499959
 21
19992.811166999989
 31
0.0
  0
LINE
  5
3DF9
  8
2-0
  6
CONTINUOUS
 62
     3
 10
24948.873943499959
 20
19992.811166999989
 30
0.0
 11
24930.872201499958
 21
19992.811166999989
 31
0.0
  0
LINE
  5
3DFA
  8
2-0
  6
CONTINUOUS
 62
     3
 10
24930.872201499958
 20
19992.811166999989
 30
0.0
 11
24930.872201499958
 21
20022.814729999998
 31
0.0
  0
LINE
  5
3DFB
  8
2-0
  6
CONTINUOUS
 62
     3
 10
24941.169657499981
 20
20022.814729999998
 30
0.0
 11
25056.171768499971
 21
20022.814729999998
 31
0.0
  0
LINE
  5
3DFC
  8
2-0
  6
CONTINUOUS
 62
     3
 10
24941.169657499981
 20
19992.811166999989
 30
0.0
 11
24941.169657499981
 21
20022.814729999998
 31
0.0
  0
LINE
  5
3DFD
  8
2-0
  6
CONTINUOUS
 62
     3
 10
24947.17155749998
 20
19992.811166999989
 30
0.0
 11
24941.169657499981
 21
19992.811166999989
 31
0.0
  0
LINE
  5
3DFE
  8
2-0
  6
CONTINUOUS
 62
     3
 10
25044.16994749998
 20
19206.717838499961
 30
0.0
 11
25051.171504499991
 21
19206.717838499961
 31
0.0
  0
LINE
  5
3DFF
  8
2-0
  6
CONTINUOUS
 62
     3
 10
25051.171504499991
 20
19206.717838499961
 30
0.0
 11
25051.171504499991
 21
19211.718102499981
 31
0.0
  0
LINE
  5
3E00
  8
2-0
  6
CONTINUOUS
 62
     3
 10
25051.171504499991
 20
19211.718102499981
 30
0.0
 11
25026.17414449995
 21
19211.718102499981
 31
0.0
  0
LINE
  5
3E01
  8
2-0
  6
CONTINUOUS
 62
     3
 10
25026.17414449995
 20
19211.718102499981
 30
0.0
 11
25026.17414449995
 21
19193.722298499961
 31
0.0
  0
LINE
  5
3E02
  8
2-0
  6
CONTINUOUS
 62
     3
 10
25026.17414449995
 20
19193.722298499961
 30
0.0
 11
25056.171768499971
 21
19193.722298499961
 31
0.0
  0
LINE
  5
3E03
  8
2-0
  6
CONTINUOUS
 62
     3
 10
25026.17414449995
 20
19209.813805499962
 30
0.0
 11
25026.17414449995
 21
19203.81586449996
 31
0.0
  0
LINE
  5
3E04
  8
2-0
  6
CONTINUOUS
 62
     3
 10
25026.17414449995
 20
19203.81586449996
 30
0.0
 11
25056.171768499971
 21
19203.81586449996
 31
0.0
  0
LINE
  5
3E05
  8
2-0
  6
CONTINUOUS
 62
     3
 10
25056.171768499971
 20
19203.81586449996
 30
0.0
 11
25056.171768499971
 21
19240.81702549995
 31
0.0
  0
LINE
  5
3E06
  8
2-0
  6
CONTINUOUS
 62
     3
 10
25026.17414449995
 20
19240.81702549995
 30
0.0
 11
25056.171768499971
 21
19240.81702549995
 31
0.0
  0
LINE
  5
3E07
  8
2-0
  6
CONTINUOUS
 62
     3
 10
25026.17414449995
 20
19234.813145499971
 30
0.0
 11
25026.17414449995
 21
19240.81702549995
 31
0.0
  0
LINE
  5
3E08
  8
2-0
  6
CONTINUOUS
 62
     3
 10
25026.17414449995
 20
19250.912570499971
 30
0.0
 11
25056.171768499971
 21
19250.912570499971
 31
0.0
  0
LINE
  5
3E09
  8
2-0
  6
CONTINUOUS
 62
     3
 10
25026.17414449995
 20
19232.91082849996
 30
0.0
 11
25026.17414449995
 21
19250.912570499971
 31
0.0
  0
LINE
  5
3E0A
  8
2-0
  6
CONTINUOUS
 62
     3
 10
25051.171504499991
 20
19232.91082849996
 30
0.0
 11
25026.17414449995
 21
19232.91082849996
 31
0.0
  0
LINE
  5
3E0B
  8
2-0
  6
CONTINUOUS
 62
     3
 10
25051.171504499991
 20
19237.91109249998
 30
0.0
 11
25051.171504499991
 21
19232.91082849996
 31
0.0
  0
LINE
  5
3E0C
  8
2-0
  6
CONTINUOUS
 62
     3
 10
25044.16994749998
 20
19237.91109249998
 30
0.0
 11
25051.171504499991
 21
19237.91109249998
 31
0.0
  0
LINE
  5
3E0D
  8
2-0
  6
CONTINUOUS
 62
     3
 10
25044.16994749998
 20
18505.716848999989
 30
0.0
 11
25051.171504499991
 21
18505.716848999989
 31
0.0
  0
LINE
  5
3E0E
  8
2-0
  6
CONTINUOUS
 62
     3
 10
25051.171504499991
 20
18505.716848999989
 30
0.0
 11
25051.171504499991
 21
18510.723050999961
 31
0.0
  0
LINE
  5
3E0F
  8
2-0
  6
CONTINUOUS
 62
     3
 10
25051.171504499991
 20
18510.723050999961
 30
0.0
 11
25026.17414449995
 21
18510.723050999961
 31
0.0
  0
LINE
  5
3E10
  8
2-0
  6
CONTINUOUS
 62
     3
 10
25026.17414449995
 20
18510.723050999961
 30
0.0
 11
25026.17414449995
 21
18492.72130899999
 31
0.0
  0
LINE
  5
3E11
  8
2-0
  6
CONTINUOUS
 62
     3
 10
25026.17414449995
 20
18492.72130899999
 30
0.0
 11
25056.171768499971
 21
18492.72130899999
 31
0.0
  0
LINE
  5
3E12
  8
2-0
  6
CONTINUOUS
 62
     3
 10
25026.17414449995
 20
18508.812815999951
 30
0.0
 11
25026.17414449995
 21
18502.81685399995
 31
0.0
  0
LINE
  5
3E13
  8
2-0
  6
CONTINUOUS
 62
     3
 10
25026.17414449995
 20
18502.81685399995
 30
0.0
 11
25056.171768499971
 21
18502.81685399995
 31
0.0
  0
LINE
  5
3E14
  8
2-0
  6
CONTINUOUS
 62
     3
 10
25056.171768499971
 20
18502.81685399995
 30
0.0
 11
25056.171768499971
 21
18539.816035999989
 31
0.0
  0
LINE
  5
3E15
  8
2-0
  6
CONTINUOUS
 62
     3
 10
25026.17414449995
 20
18539.816035999989
 30
0.0
 11
25056.171768499971
 21
18539.816035999989
 31
0.0
  0
LINE
  5
3E16
  8
2-0
  6
CONTINUOUS
 62
     3
 10
25026.17414449995
 20
18533.820073999981
 30
0.0
 11
25026.17414449995
 21
18539.816035999989
 31
0.0
  0
LINE
  5
3E17
  8
2-0
  6
CONTINUOUS
 62
     3
 10
25026.17414449995
 20
18549.911580999978
 30
0.0
 11
25056.171768499971
 21
18549.911580999978
 31
0.0
  0
LINE
  5
3E18
  8
2-0
  6
CONTINUOUS
 62
     3
 10
25026.17414449995
 20
18531.909838999989
 30
0.0
 11
25026.17414449995
 21
18549.911580999978
 31
0.0
  0
LINE
  5
3E19
  8
2-0
  6
CONTINUOUS
 62
     3
 10
25051.171504499991
 20
18531.909838999989
 30
0.0
 11
25026.17414449995
 21
18531.909838999989
 31
0.0
  0
LINE
  5
3E1A
  8
2-0
  6
CONTINUOUS
 62
     3
 10
25051.171504499991
 20
18536.91604099996
 30
0.0
 11
25051.171504499991
 21
18531.909838999989
 31
0.0
  0
LINE
  5
3E1B
  8
2-0
  6
CONTINUOUS
 62
     3
 10
25044.16994749998
 20
18536.91604099996
 30
0.0
 11
25051.171504499991
 21
18536.91604099996
 31
0.0
  0
LINE
  5
3E1C
  8
2-0
  6
CONTINUOUS
 62
     3
 10
25044.16994749998
 20
17835.910102999991
 30
0.0
 11
25051.171504499991
 21
17835.910102999991
 31
0.0
  0
LINE
  5
3E1D
  8
2-0
  6
CONTINUOUS
 62
     3
 10
25051.171504499991
 20
17835.910102999991
 30
0.0
 11
25051.171504499991
 21
17830.921715999972
 31
0.0
  0
LINE
  5
3E1E
  8
2-0
  6
CONTINUOUS
 62
     3
 10
25051.171504499991
 20
17830.921715999972
 30
0.0
 11
25026.17414449995
 21
17830.921715999972
 31
0.0
  0
LINE
  5
3E1F
  8
2-0
  6
CONTINUOUS
 62
     3
 10
25026.17414449995
 20
17830.921715999972
 30
0.0
 11
25026.17414449995
 21
17848.917518999991
 31
0.0
  0
LINE
  5
3E20
  8
2-0
  6
CONTINUOUS
 62
     3
 10
25026.17414449995
 20
17848.917518999991
 30
0.0
 11
25056.171768499971
 21
17848.917518999991
 31
0.0
  0
LINE
  5
3E21
  8
2-0
  6
CONTINUOUS
 62
     3
 10
25026.17414449995
 20
17832.820073999981
 30
0.0
 11
25026.17414449995
 21
17838.816035999971
 31
0.0
  0
LINE
  5
3E22
  8
2-0
  6
CONTINUOUS
 62
     3
 10
25026.17414449995
 20
17838.816035999971
 30
0.0
 11
25056.171768499971
 21
17838.816035999971
 31
0.0
  0
LINE
  5
3E23
  8
2-0
  6
CONTINUOUS
 62
     3
 10
25056.171768499971
 20
17838.816035999971
 30
0.0
 11
25056.171768499971
 21
17801.816853999961
 31
0.0
  0
LINE
  5
3E24
  8
2-0
  6
CONTINUOUS
 62
     3
 10
25026.17414449995
 20
17801.816853999961
 30
0.0
 11
25056.171768499971
 21
17801.816853999961
 31
0.0
  0
LINE
  5
3E25
  8
2-0
  6
CONTINUOUS
 62
     3
 10
25026.17414449995
 20
17807.818754999978
 30
0.0
 11
25026.17414449995
 21
17801.816853999961
 31
0.0
  0
LINE
  5
3E26
  8
2-0
  6
CONTINUOUS
 62
     3
 10
25026.17414449995
 20
17791.727247999981
 30
0.0
 11
25056.171768499971
 21
17791.727247999981
 31
0.0
  0
LINE
  5
3E27
  8
2-0
  6
CONTINUOUS
 62
     3
 10
25026.17414449995
 20
17809.723050999972
 30
0.0
 11
25026.17414449995
 21
17791.727247999981
 31
0.0
  0
LINE
  5
3E28
  8
2-0
  6
CONTINUOUS
 62
     3
 10
25051.171504499991
 20
17809.723050999972
 30
0.0
 11
25026.17414449995
 21
17809.723050999972
 31
0.0
  0
LINE
  5
3E29
  8
2-0
  6
CONTINUOUS
 62
     3
 10
25051.171504499991
 20
17804.722787999981
 30
0.0
 11
25051.171504499991
 21
17809.723050999972
 31
0.0
  0
LINE
  5
3E2A
  8
2-0
  6
CONTINUOUS
 62
     3
 10
25044.16994749998
 20
17804.722787999981
 30
0.0
 11
25051.171504499991
 21
17804.722787999981
 31
0.0
  0
LINE
  5
3E2B
  8
2-0
  6
CONTINUOUS
 62
     3
 10
25053.28563049998
 20
17084.813673999972
 30
0.0
 11
25053.28563049998
 21
17104.814728999969
 31
0.0
  0
LINE
  5
3E2C
  8
2-0
  6
CONTINUOUS
 62
     3
 10
25053.28563049998
 20
17104.814728999969
 30
0.0
 11
24968.289061499981
 21
17104.814728999969
 31
0.0
  0
LINE
  5
3E2D
  8
2-0
  6
CONTINUOUS
 62
     3
 10
25044.16994749998
 20
17131.421438999991
 30
0.0
 11
25051.171504499991
 21
17131.421438999991
 31
0.0
  0
LINE
  5
3E2E
  8
2-0
  6
CONTINUOUS
 62
     3
 10
25051.171504499991
 20
17131.421438999991
 30
0.0
 11
25051.171504499991
 21
17126.427112999991
 31
0.0
  0
LINE
  5
3E2F
  8
2-0
  6
CONTINUOUS
 62
     3
 10
25051.171504499991
 20
17126.427112999991
 30
0.0
 11
25026.17414449995
 21
17126.427112999991
 31
0.0
  0
LINE
  5
3E30
  8
2-0
  6
CONTINUOUS
 62
     3
 10
25026.17414449995
 20
17126.427112999991
 30
0.0
 11
25026.17414449995
 21
17144.422916999989
 31
0.0
  0
LINE
  5
3E31
  8
2-0
  6
CONTINUOUS
 62
     3
 10
25026.17414449995
 20
17144.422916999989
 30
0.0
 11
25056.171768499971
 21
17144.422916999989
 31
0.0
  0
LINE
  5
3E32
  8
2-0
  6
CONTINUOUS
 62
     3
 10
25026.17414449995
 20
17134.81433299998
 30
0.0
 11
25026.17414449995
 21
17128.812432999981
 31
0.0
  0
LINE
  5
3E33
  8
2-0
  6
CONTINUOUS
 62
     3
 10
25056.171768499971
 20
17134.81433299998
 30
0.0
 11
25026.17414449995
 21
17134.81433299998
 31
0.0
  0
LINE
  5
3E34
  8
2-0
  6
CONTINUOUS
 62
     3
 10
25056.171768499971
 20
17144.422916999989
 30
0.0
 11
25056.171768499971
 21
17791.727247999981
 31
0.0
  0
LINE
  5
3E35
  8
2-0
  6
CONTINUOUS
 62
     3
 10
25056.171768499971
 20
17848.917518999991
 30
0.0
 11
25056.171768499971
 21
18492.72130899999
 31
0.0
  0
LINE
  5
3E36
  8
2-0
  6
CONTINUOUS
 62
     3
 10
25056.171768499971
 20
16989.812617999989
 30
0.0
 11
25026.17414449995
 21
16989.812617999989
 31
0.0
  0
LINE
  5
3E37
  8
2-0
  6
CONTINUOUS
 62
     3
 10
25026.17414449995
 20
16989.812617999989
 30
0.0
 11
25026.17414449995
 21
16995.814517999981
 31
0.0
  0
LINE
  5
3E38
  8
2-0
  6
CONTINUOUS
 62
     3
 10
24968.289061499981
 20
17019.818160999981
 30
0.0
 11
25053.28563049998
 21
17019.818160999981
 31
0.0
  0
LINE
  5
3E39
  8
2-0
  6
CONTINUOUS
 62
     3
 10
25053.28563049998
 20
17019.818160999981
 30
0.0
 11
25053.28563049998
 21
17039.813277999991
 31
0.0
  0
LINE
  5
3E3A
  8
2-0
  6
CONTINUOUS
 62
     3
 10
25026.17414449995
 20
16980.204034999992
 30
0.0
 11
25056.171768499971
 21
16980.204034999992
 31
0.0
  0
LINE
  5
3E3B
  8
2-0
  6
CONTINUOUS
 62
     3
 10
25026.17414449995
 20
16998.199837999979
 30
0.0
 11
25026.17414449995
 21
16980.204034999992
 31
0.0
  0
LINE
  5
3E3C
  8
2-0
  6
CONTINUOUS
 62
     3
 10
25051.171504499991
 20
16998.199837999979
 30
0.0
 11
25026.17414449995
 21
16998.199837999979
 31
0.0
  0
LINE
  5
3E3D
  8
2-0
  6
CONTINUOUS
 62
     3
 10
25051.171504499991
 20
16993.199573999991
 30
0.0
 11
25051.171504499991
 21
16998.199837999979
 31
0.0
  0
LINE
  5
3E3E
  8
2-0
  6
CONTINUOUS
 62
     3
 10
25044.16994749998
 20
16993.199573999991
 30
0.0
 11
25051.171504499991
 21
16993.199573999991
 31
0.0
  0
LINE
  5
3E3F
  8
2-0
  6
CONTINUOUS
 62
     3
 10
25044.16994749998
 20
16288.717343499949
 30
0.0
 11
25051.171504499991
 21
16288.717343499949
 31
0.0
  0
LINE
  5
3E40
  8
2-0
  6
CONTINUOUS
 62
     3
 10
25051.171504499991
 20
16288.717343499949
 30
0.0
 11
25051.171504499991
 21
16293.717607499961
 31
0.0
  0
LINE
  5
3E41
  8
2-0
  6
CONTINUOUS
 62
     3
 10
25051.171504499991
 20
16293.717607499961
 30
0.0
 11
25026.17414449995
 21
16293.717607499961
 31
0.0
  0
LINE
  5
3E42
  8
2-0
  6
CONTINUOUS
 62
     3
 10
25026.17414449995
 20
16293.717607499961
 30
0.0
 11
25026.17414449995
 21
16275.71586549998
 31
0.0
  0
LINE
  5
3E43
  8
2-0
  6
CONTINUOUS
 62
     3
 10
25026.17414449995
 20
16275.71586549998
 30
0.0
 11
25056.171768499971
 21
16275.71586549998
 31
0.0
  0
LINE
  5
3E44
  8
2-0
  6
CONTINUOUS
 62
     3
 10
25026.17414449995
 20
16291.81331049998
 30
0.0
 11
25026.17414449995
 21
16285.816359499981
 31
0.0
  0
LINE
  5
3E45
  8
2-0
  6
CONTINUOUS
 62
     3
 10
25026.17414449995
 20
16285.816359499981
 30
0.0
 11
25056.171768499971
 21
16285.816359499981
 31
0.0
  0
LINE
  5
3E46
  8
2-0
  6
CONTINUOUS
 62
     3
 10
25056.171768499971
 20
16285.816359499981
 30
0.0
 11
25056.171768499971
 21
16322.81653049998
 31
0.0
  0
LINE
  5
3E47
  8
2-0
  6
CONTINUOUS
 62
     3
 10
25026.17414449995
 20
16322.81653049998
 30
0.0
 11
25056.171768499971
 21
16322.81653049998
 31
0.0
  0
LINE
  5
3E48
  8
2-0
  6
CONTINUOUS
 62
     3
 10
25026.17414449995
 20
16316.81364049998
 30
0.0
 11
25026.17414449995
 21
16322.81653049998
 31
0.0
  0
LINE
  5
3E49
  8
2-0
  6
CONTINUOUS
 62
     3
 10
25026.17414449995
 20
16332.91207549998
 30
0.0
 11
25056.171768499971
 21
16332.91207549998
 31
0.0
  0
LINE
  5
3E4A
  8
2-0
  6
CONTINUOUS
 62
     3
 10
25026.17414449995
 20
16314.904394499979
 30
0.0
 11
25026.17414449995
 21
16332.91207549998
 31
0.0
  0
LINE
  5
3E4B
  8
2-0
  6
CONTINUOUS
 62
     3
 10
25051.171504499991
 20
16314.904394499979
 30
0.0
 11
25026.17414449995
 21
16314.904394499979
 31
0.0
  0
LINE
  5
3E4C
  8
2-0
  6
CONTINUOUS
 62
     3
 10
25051.171504499991
 20
16319.91059749998
 30
0.0
 11
25051.171504499991
 21
16314.904394499979
 31
0.0
  0
LINE
  5
3E4D
  8
2-0
  6
CONTINUOUS
 62
     3
 10
25044.16994749998
 20
16319.91059749998
 30
0.0
 11
25051.171504499991
 21
16319.91059749998
 31
0.0
  0
LINE
  5
3E4E
  8
2-0
  6
CONTINUOUS
 62
     3
 10
25044.16994749998
 20
15619.15061399998
 30
0.0
 11
25051.171504499991
 21
15619.15061399998
 31
0.0
  0
LINE
  5
3E4F
  8
2-0
  6
CONTINUOUS
 62
     3
 10
25051.171504499991
 20
15619.15061399998
 30
0.0
 11
25051.171504499991
 21
15614.15628899998
 31
0.0
  0
LINE
  5
3E50
  8
2-0
  6
CONTINUOUS
 62
     3
 10
25051.171504499991
 20
15614.15628899998
 30
0.0
 11
25026.17414449995
 21
15614.15628899998
 31
0.0
  0
LINE
  5
3E51
  8
2-0
  6
CONTINUOUS
 62
     3
 10
25026.17414449995
 20
15614.15628899998
 30
0.0
 11
25026.17414449995
 21
15632.152092
 31
0.0
  0
LINE
  5
3E52
  8
2-0
  6
CONTINUOUS
 62
     3
 10
25026.17414449995
 20
15632.152092
 30
0.0
 11
25056.171768499971
 21
15632.152092
 31
0.0
  0
LINE
  5
3E53
  8
2-0
  6
CONTINUOUS
 62
     3
 10
25026.17414449995
 20
15616.05464699999
 30
0.0
 11
25026.17414449995
 21
15622.056547
 31
0.0
  0
LINE
  5
3E54
  8
2-0
  6
CONTINUOUS
 62
     3
 10
25026.17414449995
 20
15622.056547
 30
0.0
 11
25056.171768499971
 21
15622.056547
 31
0.0
  0
LINE
  5
3E55
  8
2-0
  6
CONTINUOUS
 62
     3
 10
25056.171768499971
 20
15585.05736599999
 30
0.0
 11
25056.171768499971
 21
15622.056547
 31
0.0
  0
LINE
  5
3E56
  8
2-0
  6
CONTINUOUS
 62
     3
 10
25026.17414449995
 20
15585.05736599999
 30
0.0
 11
25056.171768499971
 21
15585.05736599999
 31
0.0
  0
LINE
  5
3E57
  8
2-0
  6
CONTINUOUS
 62
     3
 10
25026.17414449995
 20
15591.05431699998
 30
0.0
 11
25026.17414449995
 21
15585.05736599999
 31
0.0
  0
LINE
  5
3E58
  8
2-0
  6
CONTINUOUS
 62
     3
 10
25026.17414449995
 20
15574.95588199998
 30
0.0
 11
25056.171768499971
 21
15574.95588199998
 31
0.0
  0
LINE
  5
3E59
  8
2-0
  6
CONTINUOUS
 62
     3
 10
25026.17414449995
 20
15592.963562999979
 30
0.0
 11
25026.17414449995
 21
15574.95588199998
 31
0.0
  0
LINE
  5
3E5A
  8
2-0
  6
CONTINUOUS
 62
     3
 10
25051.171504499991
 20
15592.963562999979
 30
0.0
 11
25026.17414449995
 21
15592.963562999979
 31
0.0
  0
LINE
  5
3E5B
  8
2-0
  6
CONTINUOUS
 62
     3
 10
25051.171504499991
 20
15587.963298999999
 30
0.0
 11
25051.171504499991
 21
15592.963562999979
 31
0.0
  0
LINE
  5
3E5C
  8
2-0
  6
CONTINUOUS
 62
     3
 10
25044.16994749998
 20
15587.963298999999
 30
0.0
 11
25051.171504499991
 21
15587.963298999999
 31
0.0
  0
LINE
  5
3E5D
  8
2-0
  6
CONTINUOUS
 62
     3
 10
25056.171768499971
 20
16980.204034999992
 30
0.0
 11
25056.171768499971
 21
16332.91207549998
 31
0.0
  0
LINE
  5
3E5E
  8
2-0
  6
CONTINUOUS
 62
     3
 10
25056.171768499971
 20
17134.81433299998
 30
0.0
 11
25056.171768499971
 21
16989.812617999989
 31
0.0
  0
LINE
  5
3E5F
  8
2-0
  6
CONTINUOUS
 62
     3
 10
24968.289061499981
 20
17104.814728999969
 30
0.0
 11
24968.289061499981
 21
17019.818160999981
 31
0.0
  0
LINE
  5
3E60
  8
2-0
  6
CONTINUOUS
 62
     6
 10
23430.080394499961
 20
18873.26199449995
 30
0.0
 11
24455.112726499981
 21
18873.26199449995
 31
0.0
  0
LINE
  5
3E61
  8
2-0
  6
CONTINUOUS
 62
     3
 10
25044.16994749998
 20
14886.72229199998
 30
0.0
 11
25051.171504499991
 21
14886.72229199998
 31
0.0
  0
LINE
  5
3E62
  8
2-0
  6
CONTINUOUS
 62
     3
 10
25051.171504499991
 20
14886.72229199998
 30
0.0
 11
25051.171504499991
 21
14891.71661799998
 31
0.0
  0
LINE
  5
3E63
  8
2-0
  6
CONTINUOUS
 62
     3
 10
25051.171504499991
 20
14891.71661799998
 30
0.0
 11
25026.17414449995
 21
14891.71661799998
 31
0.0
  0
LINE
  5
3E64
  8
2-0
  6
CONTINUOUS
 62
     3
 10
25026.17414449995
 20
14891.71661799998
 30
0.0
 11
25026.17414449995
 21
14873.720813999969
 31
0.0
  0
LINE
  5
3E65
  8
2-0
  6
CONTINUOUS
 62
     3
 10
25026.17414449995
 20
14873.720813999969
 30
0.0
 11
25056.171768499971
 21
14873.720813999969
 31
0.0
  0
LINE
  5
3E66
  8
2-0
  6
CONTINUOUS
 62
     3
 10
25026.17414449995
 20
14889.81924899998
 30
0.0
 11
25026.17414449995
 21
14883.81635899998
 31
0.0
  0
LINE
  5
3E67
  8
2-0
  6
CONTINUOUS
 62
     3
 10
25026.17414449995
 20
14883.81635899998
 30
0.0
 11
25056.171768499971
 21
14883.81635899998
 31
0.0
  0
LINE
  5
3E68
  8
2-0
  6
CONTINUOUS
 62
     3
 10
25056.171768499971
 20
14883.81635899998
 30
0.0
 11
25056.171768499971
 21
14920.816530999949
 31
0.0
  0
LINE
  5
3E69
  8
2-0
  6
CONTINUOUS
 62
     3
 10
25026.17414449995
 20
14920.816530999949
 30
0.0
 11
25056.171768499971
 21
14920.816530999949
 31
0.0
  0
LINE
  5
3E6A
  8
2-0
  6
CONTINUOUS
 62
     3
 10
25026.17414449995
 20
14914.819578999981
 30
0.0
 11
25026.17414449995
 21
14920.816530999949
 31
0.0
  0
LINE
  5
3E6B
  8
2-0
  6
CONTINUOUS
 62
     3
 10
25026.17414449995
 20
14930.91702399998
 30
0.0
 11
25056.171768499971
 21
14930.91702399998
 31
0.0
  0
LINE
  5
3E6C
  8
2-0
  6
CONTINUOUS
 62
     3
 10
25026.17414449995
 20
14912.910332999991
 30
0.0
 11
25026.17414449995
 21
14930.91702399998
 31
0.0
  0
LINE
  5
3E6D
  8
2-0
  6
CONTINUOUS
 62
     3
 10
25051.171504499991
 20
14912.910332999991
 30
0.0
 11
25026.17414449995
 21
14912.910332999991
 31
0.0
  0
LINE
  5
3E6E
  8
2-0
  6
CONTINUOUS
 62
     3
 10
25051.171504499991
 20
14917.91554599998
 30
0.0
 11
25051.171504499991
 21
14912.910332999991
 31
0.0
  0
LINE
  5
3E6F
  8
2-0
  6
CONTINUOUS
 62
     3
 10
25044.16994749998
 20
14917.91554599998
 30
0.0
 11
25051.171504499991
 21
14917.91554599998
 31
0.0
  0
LINE
  5
3E70
  8
2-0
  6
CONTINUOUS
 62
     3
 10
25026.17414449995
 20
13860.31837199998
 30
0.0
 11
25026.17414449995
 21
13866.32324099998
 31
0.0
  0
LINE
  5
3E71
  8
2-0
  6
CONTINUOUS
 62
     3
 10
25026.17414449995
 20
13866.32324099998
 30
0.0
 11
25056.171768499971
 21
13866.32324099998
 31
0.0
  0
LINE
  5
3E72
  8
2-0
  6
CONTINUOUS
 62
     3
 10
25056.171768499971
 20
13866.32324099998
 30
0.0
 11
25056.171768499971
 21
13751.319149999979
 31
0.0
  0
LINE
  5
3E73
  8
2-0
  6
CONTINUOUS
 62
     3
 10
25056.171768499971
 20
13751.319149999979
 30
0.0
 11
24971.173220499972
 21
13751.319149999979
 31
0.0
  0
LINE
  5
3E74
  8
2-0
  6
CONTINUOUS
 62
     3
 10
24971.173220499972
 20
13751.319149999979
 30
0.0
 11
24971.173220499972
 21
13836.31472899998
 31
0.0
  0
LINE
  5
3E75
  8
2-0
  6
CONTINUOUS
 62
     3
 10
24971.173220499972
 20
13836.31472899998
 30
0.0
 11
25003.17213849998
 21
13836.31472899998
 31
0.0
  0
LINE
  5
3E76
  8
2-0
  6
CONTINUOUS
 62
     3
 10
25044.16994749998
 20
13863.352973999979
 30
0.0
 11
25051.171504499991
 21
13863.352973999979
 31
0.0
  0
LINE
  5
3E77
  8
2-0
  6
CONTINUOUS
 62
     3
 10
25051.171504499991
 20
13863.352973999979
 30
0.0
 11
25051.171504499991
 21
13858.355678999949
 31
0.0
  0
LINE
  5
3E78
  8
2-0
  6
CONTINUOUS
 62
     3
 10
25051.171504499991
 20
13858.355678999949
 30
0.0
 11
25026.17414449995
 21
13858.355678999949
 31
0.0
  0
LINE
  5
3E79
  8
2-0
  6
CONTINUOUS
 62
     3
 10
25026.17414449995
 20
13858.355678999949
 30
0.0
 11
25026.17414449995
 21
13876.35445199997
 31
0.0
  0
LINE
  5
3E7A
  8
2-0
  6
CONTINUOUS
 62
     3
 10
25026.17414449995
 20
13876.35445199997
 30
0.0
 11
25056.171768499971
 21
13876.35445199997
 31
0.0
  0
LINE
  5
3E7B
  8
2-0
  6
CENTER2
 62
     6
 10
25013.673484499981
 20
13168.05301099998
 30
0.0
 11
25013.673484499981
 21
21222.819339000001
 31
0.0
  0
LINE
  5
3E7C
  8
2-0
  6
CONTINUOUS
 62
     3
 10
25056.171768499971
 20
18549.911580999978
 30
0.0
 11
25056.171768499971
 21
19193.722298499961
 31
0.0
  0
LINE
  5
3E7D
  8
2-0
  6
CONTINUOUS
 62
     6
 10
25748.676651499962
 20
20752.817632999999
 30
0.0
 11
26948.67071349996
 21
20752.817632999999
 31
0.0
  0
LINE
  5
3E7E
  8
2-0
  6
CONTINUOUS
 62
     3
 10
21817.675332499992
 20
20022.814729999998
 30
0.0
 11
21817.675332499992
 21
19992.811166999989
 31
0.0
  0
LINE
  5
3E7F
  8
2-0
  6
CONTINUOUS
 62
     3
 10
21817.675332499992
 20
19992.811166999989
 30
0.0
 11
21811.677390499972
 21
19992.811166999989
 31
0.0
  0
LINE
  5
3E80
  8
2-0
  6
CONTINUOUS
 62
     3
 10
21827.291833499981
 20
19992.811166999989
 30
0.0
 11
21827.291833499981
 21
20022.814729999998
 31
0.0
  0
LINE
  5
3E81
  8
2-0
  6
CONTINUOUS
 62
     3
 10
21809.29009149997
 20
19992.811166999989
 30
0.0
 11
21827.291833499981
 21
19992.811166999989
 31
0.0
  0
LINE
  5
3E82
  8
2-0
  6
CONTINUOUS
 62
     3
 10
21809.29009149997
 20
20017.820403999991
 30
0.0
 11
21809.29009149997
 21
19992.811166999989
 31
0.0
  0
LINE
  5
3E83
  8
2-0
  6
CONTINUOUS
 62
     3
 10
21814.29035549999
 20
20017.820403999991
 30
0.0
 11
21809.29009149997
 21
20017.820403999991
 31
0.0
  0
LINE
  5
3E84
  8
2-0
  6
CONTINUOUS
 62
     3
 10
21814.29035549999
 20
20010.814888000001
 30
0.0
 11
21814.29035549999
 21
20017.820403999991
 31
0.0
  0
LINE
  5
3E85
  8
2-0
  6
CONTINUOUS
 62
     3
 10
21787.67374849999
 20
20019.922653000001
 30
0.0
 11
21787.67374849999
 21
19934.924104999991
 31
0.0
  0
LINE
  5
3E86
  8
2-0
  6
CONTINUOUS
 62
     3
 10
21767.676651499991
 20
20019.922653000001
 30
0.0
 11
21787.67374849999
 21
20019.922653000001
 31
0.0
  0
LINE
  5
3E87
  8
2-0
  6
CONTINUOUS
 62
     3
 10
21676.062552499989
 20
20010.814888000001
 30
0.0
 11
21676.062552499989
 21
20017.820403999991
 31
0.0
  0
LINE
  5
3E88
  8
2-0
  6
CONTINUOUS
 62
     3
 10
21676.062552499989
 20
20017.820403999991
 30
0.0
 11
21681.06281649998
 21
20017.820403999991
 31
0.0
  0
LINE
  5
3E89
  8
2-0
  6
CONTINUOUS
 62
     3
 10
21681.06281649998
 20
20017.820403999991
 30
0.0
 11
21681.06281649998
 21
19992.811166999989
 31
0.0
  0
LINE
  5
3E8A
  8
2-0
  6
CONTINUOUS
 62
     3
 10
21681.06281649998
 20
19992.811166999989
 30
0.0
 11
21663.061074499969
 21
19992.811166999989
 31
0.0
  0
LINE
  5
3E8B
  8
2-0
  6
CONTINUOUS
 62
     3
 10
21663.061074499969
 20
19992.811166999989
 30
0.0
 11
21663.061074499969
 21
20022.814729999998
 31
0.0
  0
LINE
  5
3E8C
  8
2-0
  6
CONTINUOUS
 62
     3
 10
21702.68113849996
 20
20019.922653000001
 30
0.0
 11
21722.676255499991
 21
20019.922653000001
 31
0.0
  0
LINE
  5
3E8D
  8
2-0
  6
CONTINUOUS
 62
     3
 10
21702.68113849996
 20
19934.924104999991
 30
0.0
 11
21702.68113849996
 21
20019.922653000001
 31
0.0
  0
LINE
  5
3E8E
  8
2-0
  6
CONTINUOUS
 62
     3
 10
21672.683514499979
 20
19992.811166999989
 30
0.0
 11
21678.679475499968
 21
19992.811166999989
 31
0.0
  0
LINE
  5
3E8F
  8
2-0
  6
CONTINUOUS
 62
     3
 10
21672.683514499979
 20
20022.814729999998
 30
0.0
 11
21672.683514499979
 21
19992.811166999989
 31
0.0
  0
LINE
  5
3E90
  8
2-0
  6
CONTINUOUS
 62
     3
 10
21787.67374849999
 20
19934.924104999991
 30
0.0
 11
21702.68113849996
 21
19934.924104999991
 31
0.0
  0
LINE
  5
3E91
  8
2-0
  6
CONTINUOUS
 62
     3
 10
21817.675332499992
 20
20022.814729999998
 30
0.0
 11
21672.683514499979
 21
20022.814729999998
 31
0.0
  0
LINE
  5
3E92
  8
2-0
  6
CONTINUOUS
 62
     6
 10
24886.643818499961
 20
19115.41650249996
 30
0.0
 11
24455.112726499981
 21
18873.26199449995
 31
0.0
  0
LINE
  5
3E93
  8
2-0
  6
CONTINUOUS
 62
     6
 10
25208.212652499951
 20
20165.494470000001
 30
0.0
 11
25748.676651499962
 21
20752.817632999999
 31
0.0
  0
LINE
  5
3E94
  8
2-0
  6
CONTINUOUS
 62
     6
 10
21787.67374849999
 20
13836.31472899998
 30
0.0
 11
22064.26396149999
 21
14291.659428999979
 31
0.0
  0
LINE
  5
3E95
  8
2-0
  6
CONTINUOUS
 62
     6
 10
22064.26396149999
 20
14291.659428999979
 30
0.0
 11
23094.61328049998
 21
14291.659428999979
 31
0.0
  0
LINE
  5
3E96
  8
2-0
  6
CONTINUOUS
 62
     3
 10
25056.171768499971
 20
16275.71586549998
 30
0.0
 11
25056.171768499971
 21
15632.152092
 31
0.0
  0
LINE
  5
3E97
  8
2-0
  6
CONTINUOUS
 62
     6
 10
21847.952068499992
 20
13986.910563999971
 30
0.0
 11
21787.67374849999
 21
13836.31472899998
 31
0.0
  0
LINE
  5
3E98
  8
2-0
  6
CONTINUOUS
 62
     6
 10
21787.67374849999
 20
13836.31472899998
 30
0.0
 11
21893.53246349996
 21
13959.22303799998
 31
0.0
  0
LINE
  5
3E99
  8
2-0
  6
CONTINUOUS
 62
     6
 10
21847.952068499992
 20
13986.910563999971
 30
0.0
 11
21893.53246349996
 21
13959.22303799998
 31
0.0
  0
LINE
  5
3E9A
  8
2-0
  6
CONTINUOUS
 62
     6
 10
21893.53246349996
 20
13959.22303799998
 30
0.0
 11
21787.67374849999
 21
13836.31472899998
 31
0.0
  0
LINE
  5
3E9B
  8
2-0
  6
CONTINUOUS
 62
     6
 10
21787.67374849999
 20
13836.31472899998
 30
0.0
 11
21847.952068499992
 21
13986.910563999971
 31
0.0
  0
LINE
  5
3E9C
  8
2-0
  6
CONTINUOUS
 62
     6
 10
21847.952068499992
 20
13986.910563999971
 30
0.0
 11
21787.67374849999
 21
13836.31472899998
 31
0.0
  0
LINE
  5
3E9D
  8
2-0
  6
CONTINUOUS
 62
     6
 10
21893.53246349996
 20
13959.22303799998
 30
0.0
 11
21787.67374849999
 21
13836.31472899998
 31
0.0
  0
LINE
  5
3E9E
  8
2-0
  6
CONTINUOUS
 62
     6
 10
21893.53246349996
 20
13959.22303799998
 30
0.0
 11
21847.952068499992
 21
13986.910563999971
 31
0.0
  0
LINE
  5
3E9F
  8
2-0
  6
CONTINUOUS
 62
     6
 10
24873.586913499981
 20
19138.67584649998
 30
0.0
 11
25026.17414449995
 21
19193.722298499961
 31
0.0
  0
LINE
  5
3EA0
  8
2-0
  6
CONTINUOUS
 62
     6
 10
25026.17414449995
 20
19193.722298499961
 30
0.0
 11
24899.69280449998
 21
19092.163098499968
 31
0.0
  0
LINE
  5
3EA1
  8
2-0
  6
CONTINUOUS
 62
     6
 10
24873.586913499981
 20
19138.67584649998
 30
0.0
 11
24899.69280449998
 21
19092.163098499968
 31
0.0
  0
LINE
  5
3EA2
  8
2-0
  6
CONTINUOUS
 62
     6
 10
24899.69280449998
 20
19092.163098499968
 30
0.0
 11
25026.17414449995
 21
19193.722298499961
 31
0.0
  0
LINE
  5
3EA3
  8
2-0
  6
CONTINUOUS
 62
     6
 10
25026.17414449995
 20
19193.722298499961
 30
0.0
 11
24873.586913499981
 21
19138.67584649998
 31
0.0
  0
LINE
  5
3EA4
  8
2-0
  6
CONTINUOUS
 62
     6
 10
24873.586913499981
 20
19138.67584649998
 30
0.0
 11
25026.17414449995
 21
19193.722298499961
 31
0.0
  0
LINE
  5
3EA5
  8
2-0
  6
CONTINUOUS
 62
     6
 10
24899.69280449998
 20
19092.163098499968
 30
0.0
 11
25026.17414449995
 21
19193.722298499961
 31
0.0
  0
LINE
  5
3EA6
  8
2-0
  6
CONTINUOUS
 62
     6
 10
24899.69280449998
 20
19092.163098499968
 30
0.0
 11
24873.586913499981
 21
19138.67584649998
 31
0.0
  0
LINE
  5
3EA7
  8
2-0
  6
CONTINUOUS
 62
     6
 10
25227.829681499981
 20
20147.433343000001
 30
0.0
 11
25099.867661499971
 21
20047.750725000002
 31
0.0
  0
LINE
  5
3EA8
  8
2-0
  6
CONTINUOUS
 62
     6
 10
25099.867661499971
 20
20047.750725000002
 30
0.0
 11
25188.581766499981
 21
20183.54768
 31
0.0
  0
LINE
  5
3EA9
  8
2-0
  6
CONTINUOUS
 62
     6
 10
25227.829681499981
 20
20147.433343000001
 30
0.0
 11
25188.581766499981
 21
20183.54768
 31
0.0
  0
LINE
  5
3EAA
  8
2-0
  6
CONTINUOUS
 62
     6
 10
25188.581766499981
 20
20183.54768
 30
0.0
 11
25099.867661499971
 21
20047.750725000002
 31
0.0
  0
LINE
  5
3EAB
  8
2-0
  6
CONTINUOUS
 62
     6
 10
25099.867661499971
 20
20047.750725000002
 30
0.0
 11
25227.829681499981
 21
20147.433343000001
 31
0.0
  0
LINE
  5
3EAC
  8
2-0
  6
CONTINUOUS
 62
     6
 10
25227.829681499981
 20
20147.433343000001
 30
0.0
 11
25099.867661499971
 21
20047.750725000002
 31
0.0
  0
LINE
  5
3EAD
  8
2-0
  6
CONTINUOUS
 62
     6
 10
25188.581766499981
 20
20183.54768
 30
0.0
 11
25099.867661499971
 21
20047.750725000002
 31
0.0
  0
LINE
  5
3EAE
  8
2-0
  6
CONTINUOUS
 62
     6
 10
25188.581766499981
 20
20183.54768
 30
0.0
 11
25227.829681499981
 21
20147.433343000001
 31
0.0
  0
LINE
  5
3EAF
  8
2-0
  6
CONTINUOUS
 62
     6
 10
20369.109163499968
 20
19775.042347999992
 30
0.0
 11
20501.04209649999
 21
19305.696512999992
 31
0.0
  0
LINE
  5
3EB0
  8
2-0
  6
CONTINUOUS
 62
     6
 10
20501.04209649999
 20
19305.696512999992
 30
0.0
 11
21526.080367499981
 21
19305.696512999992
 31
0.0
  0
LINE
  5
3EB1
  8
2-0
  6
CONTINUOUS
 62
     6
 10
20325.815112499989
 20
19929.070668
 30
0.0
 11
20343.43678649998
 21
19767.825023000001
 31
0.0
  0
LINE
  5
3EB2
  8
2-0
  6
CONTINUOUS
 62
     6
 10
20394.781539499982
 20
19782.263631999991
 30
0.0
 11
20343.43678649998
 21
19767.825023000001
 31
0.0
  0
LINE
  5
3EB3
  8
2-0
  6
CONTINUOUS
 62
     6
 10
20343.43678649998
 20
19767.825023000001
 30
0.0
 11
20325.815112499989
 21
19929.070668
 31
0.0
  0
LINE
  5
3EB4
  8
2-0
  6
CONTINUOUS
 62
     6
 10
20325.815112499989
 20
19929.070668
 30
0.0
 11
20394.781539499982
 21
19782.263631999991
 31
0.0
  0
LINE
  5
3EB5
  8
2-0
  6
CONTINUOUS
 62
     6
 10
20394.781539499982
 20
19782.263631999991
 30
0.0
 11
20325.815112499989
 21
19929.070668
 31
0.0
  0
LINE
  5
3EB6
  8
2-0
  6
CONTINUOUS
 62
     6
 10
20343.43678649998
 20
19767.825023000001
 30
0.0
 11
20325.815112499989
 21
19929.070668
 31
0.0
  0
LINE
  5
3EB7
  8
2-0
  6
CONTINUOUS
 62
     6
 10
20343.43678649998
 20
19767.825023000001
 30
0.0
 11
20394.781539499982
 21
19782.263631999991
 31
0.0
  0
LINE
  5
3EB8
  8
2-0
  6
CONTINUOUS
 62
     6
 10
21786.596890499979
 20
19904.063409999992
 30
0.0
 11
21935.466585499991
 21
19374.441234000002
 31
0.0
  0
LINE
  5
3EB9
  8
2-0
  6
CONTINUOUS
 62
     6
 10
21935.466585499991
 20
19374.441234000002
 30
0.0
 11
22960.510794499969
 21
19374.441234000002
 31
0.0
  0
LINE
  5
3EBA
  8
2-0
  6
CONTINUOUS
 62
     6
 10
21804.220544499971
 20
19742.817764999989
 30
0.0
 11
21855.571235499981
 21
19757.252414999992
 31
0.0
  0
LINE
  5
3EBB
  8
2-0
  6
CONTINUOUS
 62
     6
 10
21855.571235499981
 20
19757.252414999992
 30
0.0
 11
21804.220544499971
 21
19742.817764999989
 31
0.0
  0
LINE
  5
3EBC
  8
2-0
  6
CONTINUOUS
 62
     6
 10
21804.220544499971
 20
19742.817764999989
 30
0.0
 11
21786.596890499979
 21
19904.063409999992
 31
0.0
  0
LINE
  5
3EBD
  8
2-0
  6
CONTINUOUS
 62
     6
 10
21786.596890499979
 20
19904.063409999992
 30
0.0
 11
21855.571235499981
 21
19757.252414999992
 31
0.0
  0
LINE
  5
3EBE
  8
2-0
  6
CONTINUOUS
 62
     6
 10
21855.571235499981
 20
19757.252414999992
 30
0.0
 11
21786.596890499979
 21
19904.063409999992
 31
0.0
  0
LINE
  5
3EBF
  8
2-0
  6
CONTINUOUS
 62
     6
 10
21804.220544499971
 20
19742.817764999989
 30
0.0
 11
21786.596890499979
 21
19904.063409999992
 31
0.0
  0
LINE
  5
3EC0
  8
2-0
  6
CONTINUOUS
 62
     6
 10
21855.571235499981
 20
19757.252414999992
 30
0.0
 11
21786.596890499979
 21
19904.063409999992
 31
0.0
  0
LINE
  5
3EC1
  8
2-0
  6
CONTINUOUS
 62
     6
 10
21786.596890499979
 20
19904.063409999992
 30
0.0
 11
21804.220544499971
 21
19742.817764999989
 31
0.0
  0
LINE
  5
3EC2
  8
2-0
  6
CONTINUOUS
 62
     4
 10
21745.17348449997
 20
20102.816973000001
 30
0.0
 11
21745.17348449997
 21
20832.813937999981
 31
0.0
  0
LINE
  5
3EC3
  8
2-0
  6
CONTINUOUS
 62
     6
 10
24779.534047499968
 20
13643.046411999971
 30
0.0
 11
24911.280906499971
 21
13737.673338999981
 31
0.0
  0
LINE
  5
3EC4
  8
2-0
  6
CONTINUOUS
 62
     6
 10
24911.280906499971
 20
13737.673338999981
 30
0.0
 11
24817.350770499961
 21
13605.43456899997
 31
0.0
  0
LINE
  5
3EC5
  8
2-0
  6
CONTINUOUS
 62
     6
 10
24779.534047499968
 20
13643.046411999971
 30
0.0
 11
24817.350770499961
 21
13605.43456899997
 31
0.0
  0
LINE
  5
3EC6
  8
2-0
  6
CONTINUOUS
 62
     6
 10
24817.350770499961
 20
13605.43456899997
 30
0.0
 11
24911.280906499971
 21
13737.673338999981
 31
0.0
  0
LINE
  5
3EC7
  8
2-0
  6
CONTINUOUS
 62
     6
 10
24911.280906499971
 20
13737.673338999981
 30
0.0
 11
24779.534047499968
 21
13643.046411999971
 31
0.0
  0
LINE
  5
3EC8
  8
2-0
  6
CONTINUOUS
 62
     6
 10
24779.534047499968
 20
13643.046411999971
 30
0.0
 11
24911.280906499971
 21
13737.673338999981
 31
0.0
  0
LINE
  5
3EC9
  8
2-0
  6
CONTINUOUS
 62
     6
 10
24817.350770499961
 20
13605.43456899997
 30
0.0
 11
24911.280906499971
 21
13737.673338999981
 31
0.0
  0
LINE
  5
3ECA
  8
2-0
  6
CONTINUOUS
 62
     6
 10
24817.350770499961
 20
13605.43456899997
 30
0.0
 11
24779.534047499968
 21
13643.046411999971
 31
0.0
  0
LINE
  5
3ECB
  8
2-0
  6
CONTINUOUS
 62
     6
 10
24842.569836499981
 20
15237.442057312461
 30
0.0
 11
24975.169868499961
 21
15144.013729312461
 31
0.0
  0
LINE
  5
3ECC
  8
2-0
  6
CONTINUOUS
 62
     6
 10
24975.169868499961
 20
15144.013729312461
 30
0.0
 11
24819.437182499969
 21
15189.38924331248
 31
0.0
  0
LINE
  5
3ECD
  8
2-0
  6
CONTINUOUS
 62
     6
 10
24842.569836499981
 20
15237.442057312461
 30
0.0
 11
24819.437182499969
 21
15189.38924331248
 31
0.0
  0
LINE
  5
3ECE
  8
2-0
  6
CONTINUOUS
 62
     6
 10
24819.437182499969
 20
15189.38924331248
 30
0.0
 11
24975.169868499961
 21
15144.013729312461
 31
0.0
  0
LINE
  5
3ECF
  8
2-0
  6
CONTINUOUS
 62
     6
 10
24975.169868499961
 20
15144.013729312461
 30
0.0
 11
24842.569836499981
 21
15237.442057312461
 31
0.0
  0
LINE
  5
3ED0
  8
2-0
  6
CONTINUOUS
 62
     6
 10
24842.569836499981
 20
15237.442057312461
 30
0.0
 11
24975.169868499961
 21
15144.013729312461
 31
0.0
  0
LINE
  5
3ED1
  8
2-0
  6
CONTINUOUS
 62
     6
 10
24819.437182499969
 20
15189.38924331248
 30
0.0
 11
24975.169868499961
 21
15144.013729312461
 31
0.0
  0
LINE
  5
3ED2
  8
2-0
  6
CONTINUOUS
 62
     6
 10
24819.437182499969
 20
15189.38924331248
 30
0.0
 11
24842.569836499981
 21
15237.442057312461
 31
0.0
  0
LINE
  5
3ED3
  8
2-0
  6
CONTINUOUS
 62
     6
 10
24902.33348249998
 20
16700.271971999999
 30
0.0
 11
25056.171768499971
 21
16751.705803000001
 31
0.0
  0
LINE
  5
3ED4
  8
2-0
  6
CONTINUOUS
 62
     6
 10
25056.171768499971
 20
16751.705803000001
 30
0.0
 11
24927.336781499958
 21
16653.165368000002
 31
0.0
  0
LINE
  5
3ED5
  8
2-0
  6
CONTINUOUS
 62
     6
 10
24902.33348249998
 20
16700.271971999999
 30
0.0
 11
24927.336781499958
 21
16653.165368000002
 31
0.0
  0
LINE
  5
3ED6
  8
2-0
  6
CONTINUOUS
 62
     6
 10
24927.336781499958
 20
16653.165368000002
 30
0.0
 11
25056.171768499971
 21
16751.705803000001
 31
0.0
  0
LINE
  5
3ED7
  8
2-0
  6
CONTINUOUS
 62
     6
 10
25056.171768499971
 20
16751.705803000001
 30
0.0
 11
24902.33348249998
 21
16700.271971999999
 31
0.0
  0
LINE
  5
3ED8
  8
2-0
  6
CONTINUOUS
 62
     6
 10
24902.33348249998
 20
16700.271971999999
 30
0.0
 11
25056.171768499971
 21
16751.705803000001
 31
0.0
  0
LINE
  5
3ED9
  8
2-0
  6
CONTINUOUS
 62
     6
 10
24927.336781499958
 20
16653.165368000002
 30
0.0
 11
25056.171768499971
 21
16751.705803000001
 31
0.0
  0
LINE
  5
3EDA
  8
2-0
  6
CONTINUOUS
 62
     6
 10
24927.336781499958
 20
16653.165368000002
 30
0.0
 11
24902.33348249998
 21
16700.271971999999
 31
0.0
  0
LINE
  5
3EDB
  8
2-0
  6
CONTINUOUS
 62
     6
 10
24768.397275499981
 20
17191.59046399999
 30
0.0
 11
24911.280906499971
 21
17114.81483499999
 31
0.0
  0
LINE
  5
3EDC
  8
2-0
  6
CONTINUOUS
 62
     6
 10
24911.280906499971
 20
17114.81483499999
 30
0.0
 11
24751.21901349998
 21
17141.096904000002
 31
0.0
  0
LINE
  5
3EDD
  8
2-0
  6
CONTINUOUS
 62
     6
 10
24768.397275499981
 20
17191.59046399999
 30
0.0
 11
24751.21901349998
 21
17141.096904000002
 31
0.0
  0
LINE
  5
3EDE
  8
2-0
  6
CONTINUOUS
 62
     6
 10
24751.21901349998
 20
17141.096904000002
 30
0.0
 11
24911.280906499971
 21
17114.81483499999
 31
0.0
  0
LINE
  5
3EDF
  8
2-0
  6
CONTINUOUS
 62
     6
 10
24911.280906499971
 20
17114.81483499999
 30
0.0
 11
24768.397275499981
 21
17191.59046399999
 31
0.0
  0
LINE
  5
3EE0
  8
2-0
  6
CONTINUOUS
 62
     6
 10
24768.397275499981
 20
17191.59046399999
 30
0.0
 11
24911.280906499971
 21
17114.81483499999
 31
0.0
  0
LINE
  5
3EE1
  8
2-0
  6
CONTINUOUS
 62
     6
 10
24751.21901349998
 20
17141.096904000002
 30
0.0
 11
24911.280906499971
 21
17114.81483499999
 31
0.0
  0
LINE
  5
3EE2
  8
2-0
  6
CONTINUOUS
 62
     6
 10
24751.21901349998
 20
17141.096904000002
 30
0.0
 11
24768.397275499981
 21
17191.59046399999
 31
0.0
  0
LINE
  5
3EE3
  8
2-0
  6
CONTINUOUS
 62
     3
 10
21005.674065499959
 20
20022.814729999998
 30
0.0
 11
20968.672903499981
 21
20022.814729999998
 31
0.0
  0
LINE
  5
3EE4
  8
2-0
  6
CONTINUOUS
 62
     3
 10
21005.674065499959
 20
19992.811166999989
 30
0.0
 11
21005.674065499959
 21
20022.814729999998
 31
0.0
  0
LINE
  5
3EE5
  8
2-0
  6
CONTINUOUS
 62
     3
 10
20999.674144499961
 20
19992.811166999989
 30
0.0
 11
21005.674065499959
 21
19992.811166999989
 31
0.0
  0
LINE
  5
3EE6
  8
2-0
  6
CONTINUOUS
 62
     3
 10
21015.77158949996
 20
19992.811166999989
 30
0.0
 11
21015.77158949996
 21
20022.814729999998
 31
0.0
  0
LINE
  5
3EE7
  8
2-0
  6
CONTINUOUS
 62
     3
 10
20997.767868499981
 20
19992.811166999989
 30
0.0
 11
21015.77158949996
 21
19992.811166999989
 31
0.0
  0
LINE
  5
3EE8
  8
2-0
  6
CONTINUOUS
 62
     3
 10
20997.767868499981
 20
20017.820403999991
 30
0.0
 11
20997.767868499981
 21
19992.811166999989
 31
0.0
  0
LINE
  5
3EE9
  8
2-0
  6
CONTINUOUS
 62
     3
 10
21002.768132499968
 20
20017.820403999991
 30
0.0
 11
20997.767868499981
 21
20017.820403999991
 31
0.0
  0
LINE
  5
3EEA
  8
2-0
  6
CONTINUOUS
 62
     3
 10
21002.768132499968
 20
20010.814888000001
 30
0.0
 11
21002.768132499968
 21
20017.820403999991
 31
0.0
  0
LINE
  5
3EEB
  8
2-0
  6
CONTINUOUS
 62
     3
 10
20971.578837499961
 20
20010.814888000001
 30
0.0
 11
20971.578837499961
 21
20017.820403999991
 31
0.0
  0
LINE
  5
3EEC
  8
2-0
  6
CONTINUOUS
 62
     3
 10
20971.578837499961
 20
20017.820403999991
 30
0.0
 11
20976.579101499981
 21
20017.820403999991
 31
0.0
  0
LINE
  5
3EED
  8
2-0
  6
CONTINUOUS
 62
     3
 10
20976.579101499981
 20
20017.820403999991
 30
0.0
 11
20976.579101499981
 21
19992.811166999989
 31
0.0
  0
LINE
  5
3EEE
  8
2-0
  6
CONTINUOUS
 62
     3
 10
20976.579101499981
 20
19992.811166999989
 30
0.0
 11
20958.579338499982
 21
19992.811166999989
 31
0.0
  0
LINE
  5
3EEF
  8
2-0
  6
CONTINUOUS
 62
     3
 10
20958.579338499982
 20
19992.811166999989
 30
0.0
 11
20958.579338499982
 21
20022.814729999998
 31
0.0
  0
LINE
  5
3EF0
  8
2-0
  6
CONTINUOUS
 62
     3
 10
20974.672824499969
 20
19992.811166999989
 30
0.0
 11
20968.672903499981
 21
19992.811166999989
 31
0.0
  0
LINE
  5
3EF1
  8
2-0
  6
CONTINUOUS
 62
     3
 10
20968.672903499981
 20
19992.811166999989
 30
0.0
 11
20968.672903499981
 21
20022.814729999998
 31
0.0
  0
LINE
  5
3EF2
  8
2-0
  6
CONTINUOUS
 62
     3
 10
18464.17480449998
 20
19913.814518999981
 30
0.0
 11
18464.17480449998
 21
19907.818556999991
 31
0.0
  0
LINE
  5
3EF3
  8
2-0
  6
CONTINUOUS
 62
     3
 10
18464.17480449998
 20
19907.818556999991
 30
0.0
 11
18434.17717949998
 21
19907.818556999991
 31
0.0
  0
LINE
  5
3EF4
  8
2-0
  6
CONTINUOUS
 62
     3
 10
18434.17717949998
 20
19907.818556999991
 30
0.0
 11
18434.17717949998
 21
20022.814729999998
 31
0.0
  0
LINE
  5
3EF5
  8
2-0
  6
CONTINUOUS
 62
     3
 10
18434.17717949998
 20
19937.818160999981
 30
0.0
 11
18515.17512049996
 21
19937.818160999981
 31
0.0
  0
LINE
  5
3EF6
  8
2-0
  6
CONTINUOUS
 62
     3
 10
18464.17480449998
 20
19897.521100999991
 30
0.0
 11
18434.17717949998
 21
19897.521100999991
 31
0.0
  0
LINE
  5
3EF7
  8
2-0
  6
CONTINUOUS
 62
     3
 10
18464.17480449998
 20
19915.522842999992
 30
0.0
 11
18464.17480449998
 21
19897.521100999991
 31
0.0
  0
LINE
  5
3EF8
  8
2-0
  6
CONTINUOUS
 62
     3
 10
18439.18140249998
 20
19915.522842999992
 30
0.0
 11
18464.17480449998
 21
19915.522842999992
 31
0.0
  0
LINE
  5
3EF9
  8
2-0
  6
CONTINUOUS
 62
     3
 10
18439.18140249998
 20
19910.514661000001
 30
0.0
 11
18439.18140249998
 21
19915.522842999992
 31
0.0
  0
LINE
  5
3EFA
  8
2-0
  6
CONTINUOUS
 62
     3
 10
18446.179000499949
 20
19910.514661000001
 30
0.0
 11
18439.18140249998
 21
19910.514661000001
 31
0.0
  0
LINE
  5
3EFB
  8
2-0
  6
CONTINUOUS
 62
     3
 10
18546.473289499962
 20
20010.814888000001
 30
0.0
 11
18546.473289499962
 21
20017.820403999991
 31
0.0
  0
LINE
  5
3EFC
  8
2-0
  6
CONTINUOUS
 62
     3
 10
18546.473289499962
 20
20017.820403999991
 30
0.0
 11
18541.47104549998
 21
20017.820403999991
 31
0.0
  0
LINE
  5
3EFD
  8
2-0
  6
CONTINUOUS
 62
     3
 10
18541.47104549998
 20
20017.820403999991
 30
0.0
 11
18541.47104549998
 21
19992.811166999989
 31
0.0
  0
LINE
  5
3EFE
  8
2-0
  6
CONTINUOUS
 62
     3
 10
18541.47104549998
 20
19992.811166999989
 30
0.0
 11
18559.478726499961
 21
19992.811166999989
 31
0.0
  0
LINE
  5
3EFF
  8
2-0
  6
CONTINUOUS
 62
     3
 10
18559.478726499961
 20
19992.811166999989
 30
0.0
 11
18559.478726499961
 21
20022.814729999998
 31
0.0
  0
LINE
  5
3F00
  8
2-0
  6
CONTINUOUS
 62
     3
 10
18549.17929049996
 20
20022.814729999998
 30
0.0
 11
18434.17717949998
 21
20022.814729999998
 31
0.0
  0
LINE
  5
3F01
  8
2-0
  6
CONTINUOUS
 62
     3
 10
18549.17929049996
 20
19992.811166999989
 30
0.0
 11
18549.17929049996
 21
20022.814729999998
 31
0.0
  0
LINE
  5
3F02
  8
2-0
  6
CONTINUOUS
 62
     3
 10
18543.175411499949
 20
19992.811166999989
 30
0.0
 11
18549.17929049996
 21
19992.811166999989
 31
0.0
  0
LINE
  5
3F03
  8
2-0
  6
CONTINUOUS
 62
     3
 10
19600.763182999981
 20
20010.814888000001
 30
0.0
 11
19600.763182999981
 21
20017.820403999991
 31
0.0
  0
LINE
  5
3F04
  8
2-0
  6
CONTINUOUS
 62
     3
 10
19600.763182999981
 20
20017.820403999991
 30
0.0
 11
19595.76291899995
 21
20017.820403999991
 31
0.0
  0
LINE
  5
3F05
  8
2-0
  6
CONTINUOUS
 62
     3
 10
19595.76291899995
 20
20017.820403999991
 30
0.0
 11
19595.76291899995
 21
19992.811166999989
 31
0.0
  0
LINE
  5
3F06
  8
2-0
  6
CONTINUOUS
 62
     3
 10
19595.76291899995
 20
19992.811166999989
 30
0.0
 11
19613.768619999981
 21
19992.811166999989
 31
0.0
  0
LINE
  5
3F07
  8
2-0
  6
CONTINUOUS
 62
     3
 10
19613.768619999981
 20
19992.811166999989
 30
0.0
 11
19613.768619999981
 21
20022.814729999998
 31
0.0
  0
LINE
  5
3F08
  8
2-0
  6
CONTINUOUS
 62
     3
 10
19597.671174999949
 20
19992.811166999989
 30
0.0
 11
19603.673074999981
 21
19992.811166999989
 31
0.0
  0
LINE
  5
3F09
  8
2-0
  6
CONTINUOUS
 62
     3
 10
19603.673074999981
 20
19992.811166999989
 30
0.0
 11
19603.673074999981
 21
20022.814729999998
 31
0.0
  0
LINE
  5
3F0A
  8
2-0
  6
CONTINUOUS
 62
     3
 10
19566.67389399996
 20
20022.814729999998
 30
0.0
 11
19603.673074999981
 21
20022.814729999998
 31
0.0
  0
LINE
  5
3F0B
  8
2-0
  6
CONTINUOUS
 62
     3
 10
19566.67389399996
 20
19992.811166999989
 30
0.0
 11
19566.67389399996
 21
20022.814729999998
 31
0.0
  0
LINE
  5
3F0C
  8
2-0
  6
CONTINUOUS
 62
     3
 10
19572.667875999981
 20
19992.811166999989
 30
0.0
 11
19566.67389399996
 21
19992.811166999989
 31
0.0
  0
LINE
  5
3F0D
  8
2-0
  6
CONTINUOUS
 62
     3
 10
19556.578348999981
 20
19992.811166999989
 30
0.0
 11
19556.578348999981
 21
20022.814729999998
 31
0.0
  0
LINE
  5
3F0E
  8
2-0
  6
CONTINUOUS
 62
     3
 10
19574.574151999961
 20
19992.811166999989
 30
0.0
 11
19556.578348999981
 21
19992.811166999989
 31
0.0
  0
LINE
  5
3F0F
  8
2-0
  6
CONTINUOUS
 62
     3
 10
19574.574151999961
 20
20017.820403999991
 30
0.0
 11
19574.574151999961
 21
19992.811166999989
 31
0.0
  0
LINE
  5
3F10
  8
2-0
  6
CONTINUOUS
 62
     3
 10
19569.57388799997
 20
20017.820403999991
 30
0.0
 11
19574.574151999961
 21
20017.820403999991
 31
0.0
  0
LINE
  5
3F11
  8
2-0
  6
CONTINUOUS
 62
     3
 10
19569.57388799997
 20
20010.814888000001
 30
0.0
 11
19569.57388799997
 21
20017.820403999991
 31
0.0
  0
LINE
  5
3F12
  8
2-0
  6
CONTINUOUS
 62
     3
 10
20270.572898999981
 20
20010.814888000001
 30
0.0
 11
20270.572898999981
 21
20017.820403999991
 31
0.0
  0
LINE
  5
3F13
  8
2-0
  6
CONTINUOUS
 62
     3
 10
20270.572898999981
 20
20017.820403999991
 30
0.0
 11
20275.573161999971
 21
20017.820403999991
 31
0.0
  0
LINE
  5
3F14
  8
2-0
  6
CONTINUOUS
 62
     3
 10
20275.573161999971
 20
20017.820403999991
 30
0.0
 11
20275.573161999971
 21
19992.811166999989
 31
0.0
  0
LINE
  5
3F15
  8
2-0
  6
CONTINUOUS
 62
     3
 10
20275.573161999971
 20
19992.811166999989
 30
0.0
 11
20257.57933899996
 21
19992.811166999989
 31
0.0
  0
LINE
  5
3F16
  8
2-0
  6
CONTINUOUS
 62
     3
 10
20257.57933899996
 20
19992.811166999989
 30
0.0
 11
20257.57933899996
 21
20022.814729999998
 31
0.0
  0
LINE
  5
3F17
  8
2-0
  6
CONTINUOUS
 62
     3
 10
20273.670844999961
 20
19992.811166999989
 30
0.0
 11
20267.672903999981
 21
19992.811166999989
 31
0.0
  0
LINE
  5
3F18
  8
2-0
  6
CONTINUOUS
 62
     3
 10
20267.672903999981
 20
19992.811166999989
 30
0.0
 11
20267.672903999981
 21
20022.814729999998
 31
0.0
  0
LINE
  5
3F19
  8
2-0
  6
CONTINUOUS
 62
     3
 10
20304.674064999981
 20
20022.814729999998
 30
0.0
 11
20267.672903999981
 21
20022.814729999998
 31
0.0
  0
LINE
  5
3F1A
  8
2-0
  6
CONTINUOUS
 62
     3
 10
20304.674064999981
 20
19992.811166999989
 30
0.0
 11
20304.674064999981
 21
20022.814729999998
 31
0.0
  0
LINE
  5
3F1B
  8
2-0
  6
CONTINUOUS
 62
     3
 10
20298.66820599998
 20
19992.811166999989
 30
0.0
 11
20304.674064999981
 21
19992.811166999989
 31
0.0
  0
LINE
  5
3F1C
  8
2-0
  6
CONTINUOUS
 62
     3
 10
20314.767629999969
 20
19992.811166999989
 30
0.0
 11
20314.767629999969
 21
20022.814729999998
 31
0.0
  0
LINE
  5
3F1D
  8
2-0
  6
CONTINUOUS
 62
     3
 10
20296.771826999971
 20
19992.811166999989
 30
0.0
 11
20314.767629999969
 21
19992.811166999989
 31
0.0
  0
LINE
  5
3F1E
  8
2-0
  6
CONTINUOUS
 62
     3
 10
20296.771826999971
 20
20017.820403999991
 30
0.0
 11
20296.771826999971
 21
19992.811166999989
 31
0.0
  0
LINE
  5
3F1F
  8
2-0
  6
CONTINUOUS
 62
     3
 10
20301.76219299998
 20
20017.820403999991
 30
0.0
 11
20296.771826999971
 21
20017.820403999991
 31
0.0
  0
LINE
  5
3F20
  8
2-0
  6
CONTINUOUS
 62
     3
 10
20301.76219299998
 20
20010.814888000001
 30
0.0
 11
20301.76219299998
 21
20017.820403999991
 31
0.0
  0
LINE
  5
3F21
  8
2-0
  6
CONTINUOUS
 62
     3
 10
19613.768619999981
 20
20022.814729999998
 30
0.0
 11
20257.57933899996
 21
20022.814729999998
 31
0.0
  0
LINE
  5
3F22
  8
2-0
  6
CONTINUOUS
 62
     3
 10
18912.972510499989
 20
20022.814729999998
 30
0.0
 11
19556.578348999981
 21
20022.814729999998
 31
0.0
  0
LINE
  5
3F23
  8
2-0
  6
CONTINUOUS
 62
     3
 10
20958.579338499982
 20
20022.814729999998
 30
0.0
 11
20314.767629999969
 21
20022.814729999998
 31
0.0
  0
LINE
  5
3F24
  8
2-0
  6
CONTINUOUS
 62
     3
 10
18464.17480449998
 20
19913.814518999981
 30
0.0
 11
18464.17480449998
 21
19907.818556999991
 31
0.0
  0
LINE
  5
3F25
  8
2-0
  6
CONTINUOUS
 62
     3
 10
18464.17480449998
 20
19907.818556999991
 30
0.0
 11
18434.17717949998
 21
19907.818556999991
 31
0.0
  0
LINE
  5
3F26
  8
2-0
  6
CONTINUOUS
 62
     3
 10
18434.17717949998
 20
19907.818556999991
 30
0.0
 11
18434.17717949998
 21
20022.814729999998
 31
0.0
  0
LINE
  5
3F27
  8
2-0
  6
CONTINUOUS
 62
     3
 10
18434.17717949998
 20
19937.818160999981
 30
0.0
 11
18515.17512049996
 21
19937.818160999981
 31
0.0
  0
LINE
  5
3F28
  8
2-0
  6
CONTINUOUS
 62
     3
 10
18464.17480449998
 20
19897.521100999991
 30
0.0
 11
18434.17717949998
 21
19897.521100999991
 31
0.0
  0
LINE
  5
3F29
  8
2-0
  6
CONTINUOUS
 62
     3
 10
18464.17480449998
 20
19915.522842999992
 30
0.0
 11
18464.17480449998
 21
19897.521100999991
 31
0.0
  0
LINE
  5
3F2A
  8
2-0
  6
CONTINUOUS
 62
     3
 10
18439.18140249998
 20
19915.522842999992
 30
0.0
 11
18464.17480449998
 21
19915.522842999992
 31
0.0
  0
LINE
  5
3F2B
  8
2-0
  6
CONTINUOUS
 62
     3
 10
18439.18140249998
 20
19910.514661000001
 30
0.0
 11
18439.18140249998
 21
19915.522842999992
 31
0.0
  0
LINE
  5
3F2C
  8
2-0
  6
CONTINUOUS
 62
     3
 10
18446.179000499949
 20
19910.514661000001
 30
0.0
 11
18439.18140249998
 21
19910.514661000001
 31
0.0
  0
LINE
  5
3F2D
  8
2-0
  6
CONTINUOUS
 62
     3
 10
18446.179000499949
 20
19206.717838499961
 30
0.0
 11
18439.18140249998
 21
19206.717838499961
 31
0.0
  0
LINE
  5
3F2E
  8
2-0
  6
CONTINUOUS
 62
     3
 10
18439.18140249998
 20
19206.717838499961
 30
0.0
 11
18439.18140249998
 21
19211.718102499981
 31
0.0
  0
LINE
  5
3F2F
  8
2-0
  6
CONTINUOUS
 62
     3
 10
18439.18140249998
 20
19211.718102499981
 30
0.0
 11
18464.17480449998
 21
19211.718102499981
 31
0.0
  0
LINE
  5
3F30
  8
2-0
  6
CONTINUOUS
 62
     3
 10
18464.17480449998
 20
19211.718102499981
 30
0.0
 11
18464.17480449998
 21
19193.722298499961
 31
0.0
  0
LINE
  5
3F31
  8
2-0
  6
CONTINUOUS
 62
     3
 10
18464.17480449998
 20
19193.722298499961
 30
0.0
 11
18434.17717949998
 21
19193.722298499961
 31
0.0
  0
LINE
  5
3F32
  8
2-0
  6
CONTINUOUS
 62
     3
 10
18464.17480449998
 20
19209.813805499962
 30
0.0
 11
18464.17480449998
 21
19203.81586449996
 31
0.0
  0
LINE
  5
3F33
  8
2-0
  6
CONTINUOUS
 62
     3
 10
18464.17480449998
 20
19203.81586449996
 30
0.0
 11
18434.17717949998
 21
19203.81586449996
 31
0.0
  0
LINE
  5
3F34
  8
2-0
  6
CONTINUOUS
 62
     3
 10
18434.17717949998
 20
19203.81586449996
 30
0.0
 11
18434.17717949998
 21
19240.81702549995
 31
0.0
  0
LINE
  5
3F35
  8
2-0
  6
CONTINUOUS
 62
     3
 10
18464.17480449998
 20
19240.81702549995
 30
0.0
 11
18434.17717949998
 21
19240.81702549995
 31
0.0
  0
LINE
  5
3F36
  8
2-0
  6
CONTINUOUS
 62
     3
 10
18464.17480449998
 20
19234.813145499971
 30
0.0
 11
18464.17480449998
 21
19240.81702549995
 31
0.0
  0
LINE
  5
3F37
  8
2-0
  6
CONTINUOUS
 62
     3
 10
18464.17480449998
 20
19250.912570499971
 30
0.0
 11
18434.17717949998
 21
19250.912570499971
 31
0.0
  0
LINE
  5
3F38
  8
2-0
  6
CONTINUOUS
 62
     3
 10
18464.17480449998
 20
19232.91082849996
 30
0.0
 11
18464.17480449998
 21
19250.912570499971
 31
0.0
  0
LINE
  5
3F39
  8
2-0
  6
CONTINUOUS
 62
     3
 10
18439.18140249998
 20
19232.91082849996
 30
0.0
 11
18464.17480449998
 21
19232.91082849996
 31
0.0
  0
LINE
  5
3F3A
  8
2-0
  6
CONTINUOUS
 62
     3
 10
18439.18140249998
 20
19237.91109249998
 30
0.0
 11
18439.18140249998
 21
19232.91082849996
 31
0.0
  0
LINE
  5
3F3B
  8
2-0
  6
CONTINUOUS
 62
     3
 10
18446.179000499949
 20
19237.91109249998
 30
0.0
 11
18439.18140249998
 21
19237.91109249998
 31
0.0
  0
LINE
  5
3F3C
  8
2-0
  6
CONTINUOUS
 62
     3
 10
18446.179000499949
 20
18505.71783899999
 30
0.0
 11
18439.18140249998
 21
18505.71783899999
 31
0.0
  0
LINE
  5
3F3D
  8
2-0
  6
CONTINUOUS
 62
     3
 10
18439.18140249998
 20
18505.71783899999
 30
0.0
 11
18439.18140249998
 21
18510.724040999969
 31
0.0
  0
LINE
  5
3F3E
  8
2-0
  6
CONTINUOUS
 62
     3
 10
18439.18140249998
 20
18510.724040999969
 30
0.0
 11
18464.17480449998
 21
18510.724040999969
 31
0.0
  0
LINE
  5
3F3F
  8
2-0
  6
CONTINUOUS
 62
     3
 10
18464.17480449998
 20
18510.724040999969
 30
0.0
 11
18464.17480449998
 21
18492.722298999979
 31
0.0
  0
LINE
  5
3F40
  8
2-0
  6
CONTINUOUS
 62
     3
 10
18464.17480449998
 20
18492.722298999979
 30
0.0
 11
18434.17717949998
 21
18492.722298999979
 31
0.0
  0
LINE
  5
3F41
  8
2-0
  6
CONTINUOUS
 62
     3
 10
18464.17480449998
 20
18508.813805999969
 30
0.0
 11
18464.17480449998
 21
18502.817843999968
 31
0.0
  0
LINE
  5
3F42
  8
2-0
  6
CONTINUOUS
 62
     3
 10
18464.17480449998
 20
18502.817843999968
 30
0.0
 11
18434.17717949998
 21
18502.817843999968
 31
0.0
  0
LINE
  5
3F43
  8
2-0
  6
CONTINUOUS
 62
     3
 10
18434.17717949998
 20
18502.817843999968
 30
0.0
 11
18434.17717949998
 21
18539.817025999961
 31
0.0
  0
LINE
  5
3F44
  8
2-0
  6
CONTINUOUS
 62
     3
 10
18464.17480449998
 20
18539.817025999961
 30
0.0
 11
18434.17717949998
 21
18539.817025999961
 31
0.0
  0
LINE
  5
3F45
  8
2-0
  6
CONTINUOUS
 62
     3
 10
18464.17480449998
 20
18533.821063999982
 30
0.0
 11
18464.17480449998
 21
18539.817025999961
 31
0.0
  0
LINE
  5
3F46
  8
2-0
  6
CONTINUOUS
 62
     3
 10
18464.17480449998
 20
18549.91257099999
 30
0.0
 11
18434.17717949998
 21
18549.91257099999
 31
0.0
  0
LINE
  5
3F47
  8
2-0
  6
CONTINUOUS
 62
     3
 10
18464.17480449998
 20
18531.91082899996
 30
0.0
 11
18464.17480449998
 21
18549.91257099999
 31
0.0
  0
LINE
  5
3F48
  8
2-0
  6
CONTINUOUS
 62
     3
 10
18439.18140249998
 20
18531.91082899996
 30
0.0
 11
18464.17480449998
 21
18531.91082899996
 31
0.0
  0
LINE
  5
3F49
  8
2-0
  6
CONTINUOUS
 62
     3
 10
18439.18140249998
 20
18536.91703099995
 30
0.0
 11
18439.18140249998
 21
18531.91082899996
 31
0.0
  0
LINE
  5
3F4A
  8
2-0
  6
CONTINUOUS
 62
     3
 10
18446.179000499949
 20
18536.91703099995
 30
0.0
 11
18439.18140249998
 21
18536.91703099995
 31
0.0
  0
LINE
  5
3F4B
  8
2-0
  6
CONTINUOUS
 62
     3
 10
18446.179000499949
 20
17835.910102999991
 30
0.0
 11
18439.18140249998
 21
17835.910102999991
 31
0.0
  0
LINE
  5
3F4C
  8
2-0
  6
CONTINUOUS
 62
     3
 10
18439.18140249998
 20
17835.910102999991
 30
0.0
 11
18439.18140249998
 21
17830.921715999972
 31
0.0
  0
LINE
  5
3F4D
  8
2-0
  6
CONTINUOUS
 62
     3
 10
18439.18140249998
 20
17830.921715999972
 30
0.0
 11
18464.17480449998
 21
17830.921715999972
 31
0.0
  0
LINE
  5
3F4E
  8
2-0
  6
CONTINUOUS
 62
     3
 10
18464.17480449998
 20
17830.921715999972
 30
0.0
 11
18464.17480449998
 21
17848.917518999991
 31
0.0
  0
LINE
  5
3F4F
  8
2-0
  6
CONTINUOUS
 62
     3
 10
18464.17480449998
 20
17848.917518999991
 30
0.0
 11
18434.17717949998
 21
17848.917518999991
 31
0.0
  0
LINE
  5
3F50
  8
2-0
  6
CONTINUOUS
 62
     3
 10
18464.17480449998
 20
17832.820073999981
 30
0.0
 11
18464.17480449998
 21
17838.816035999971
 31
0.0
  0
LINE
  5
3F51
  8
2-0
  6
CONTINUOUS
 62
     3
 10
18464.17480449998
 20
17838.816035999971
 30
0.0
 11
18434.17717949998
 21
17838.816035999971
 31
0.0
  0
LINE
  5
3F52
  8
2-0
  6
CONTINUOUS
 62
     3
 10
18434.17717949998
 20
17838.816035999971
 30
0.0
 11
18434.17717949998
 21
17801.816853999961
 31
0.0
  0
LINE
  5
3F53
  8
2-0
  6
CONTINUOUS
 62
     3
 10
18464.17480449998
 20
17801.816853999961
 30
0.0
 11
18434.17717949998
 21
17801.816853999961
 31
0.0
  0
LINE
  5
3F54
  8
2-0
  6
CONTINUOUS
 62
     3
 10
18464.17480449998
 20
17807.818754999978
 30
0.0
 11
18464.17480449998
 21
17801.816853999961
 31
0.0
  0
LINE
  5
3F55
  8
2-0
  6
CONTINUOUS
 62
     3
 10
18464.17480449998
 20
17791.727247999981
 30
0.0
 11
18434.17717949998
 21
17791.727247999981
 31
0.0
  0
LINE
  5
3F56
  8
2-0
  6
CONTINUOUS
 62
     3
 10
18464.17480449998
 20
17809.723050999972
 30
0.0
 11
18464.17480449998
 21
17791.727247999981
 31
0.0
  0
LINE
  5
3F57
  8
2-0
  6
CONTINUOUS
 62
     3
 10
18439.18140249998
 20
17809.723050999972
 30
0.0
 11
18464.17480449998
 21
17809.723050999972
 31
0.0
  0
LINE
  5
3F58
  8
2-0
  6
CONTINUOUS
 62
     3
 10
18439.18140249998
 20
17804.722787999981
 30
0.0
 11
18439.18140249998
 21
17809.723050999972
 31
0.0
  0
LINE
  5
3F59
  8
2-0
  6
CONTINUOUS
 62
     3
 10
18446.179000499949
 20
17804.722787999981
 30
0.0
 11
18439.18140249998
 21
17804.722787999981
 31
0.0
  0
LINE
  5
3F5A
  8
2-0
  6
CONTINUOUS
 62
     3
 10
18437.06331749996
 20
17084.813673999972
 30
0.0
 11
18437.06331749996
 21
17104.814728999969
 31
0.0
  0
LINE
  5
3F5B
  8
2-0
  6
CONTINUOUS
 62
     3
 10
18437.06331749996
 20
17104.814728999969
 30
0.0
 11
18522.063845499961
 21
17104.814728999969
 31
0.0
  0
LINE
  5
3F5C
  8
2-0
  6
CONTINUOUS
 62
     3
 10
18446.179000499949
 20
17131.421438999991
 30
0.0
 11
18439.18140249998
 21
17131.421438999991
 31
0.0
  0
LINE
  5
3F5D
  8
2-0
  6
CONTINUOUS
 62
     3
 10
18439.18140249998
 20
17131.421438999991
 30
0.0
 11
18439.18140249998
 21
17126.427112999991
 31
0.0
  0
LINE
  5
3F5E
  8
2-0
  6
CONTINUOUS
 62
     3
 10
18439.18140249998
 20
17126.427112999991
 30
0.0
 11
18464.17480449998
 21
17126.427112999991
 31
0.0
  0
LINE
  5
3F5F
  8
2-0
  6
CONTINUOUS
 62
     3
 10
18464.17480449998
 20
17126.427112999991
 30
0.0
 11
18464.17480449998
 21
17144.422916999989
 31
0.0
  0
LINE
  5
3F60
  8
2-0
  6
CONTINUOUS
 62
     3
 10
18464.17480449998
 20
17144.422916999989
 30
0.0
 11
18434.17717949998
 21
17144.422916999989
 31
0.0
  0
LINE
  5
3F61
  8
2-0
  6
CONTINUOUS
 62
     3
 10
18464.17480449998
 20
17134.81433299998
 30
0.0
 11
18464.17480449998
 21
17128.812432999981
 31
0.0
  0
LINE
  5
3F62
  8
2-0
  6
CONTINUOUS
 62
     3
 10
18434.17717949998
 20
17134.81433299998
 30
0.0
 11
18464.17480449998
 21
17134.81433299998
 31
0.0
  0
LINE
  5
3F63
  8
2-0
  6
CONTINUOUS
 62
     3
 10
18434.17717949998
 20
17144.422916999989
 30
0.0
 11
18434.17717949998
 21
17791.727247999981
 31
0.0
  0
LINE
  5
3F64
  8
2-0
  6
CONTINUOUS
 62
     3
 10
18434.17717949998
 20
17848.917518999991
 30
0.0
 11
18434.17717949998
 21
18492.722298999979
 31
0.0
  0
LINE
  5
3F65
  8
2-0
  6
CONTINUOUS
 62
     3
 10
18434.17717949998
 20
16989.812617999989
 30
0.0
 11
18464.17480449998
 21
16989.812617999989
 31
0.0
  0
LINE
  5
3F66
  8
2-0
  6
CONTINUOUS
 62
     3
 10
18464.17480449998
 20
16989.812617999989
 30
0.0
 11
18464.17480449998
 21
16995.814517999981
 31
0.0
  0
LINE
  5
3F67
  8
2-0
  6
CONTINUOUS
 62
     3
 10
18522.063845499961
 20
17019.818160999981
 30
0.0
 11
18437.06331749996
 21
17019.818160999981
 31
0.0
  0
LINE
  5
3F68
  8
2-0
  6
CONTINUOUS
 62
     3
 10
18437.06331749996
 20
17019.818160999981
 30
0.0
 11
18437.06331749996
 21
17039.813277999991
 31
0.0
  0
LINE
  5
3F69
  8
2-0
  6
CONTINUOUS
 62
     3
 10
18464.17480449998
 20
16980.204034999992
 30
0.0
 11
18434.17717949998
 21
16980.204034999992
 31
0.0
  0
LINE
  5
3F6A
  8
2-0
  6
CONTINUOUS
 62
     3
 10
18464.17480449998
 20
16998.199837999979
 30
0.0
 11
18464.17480449998
 21
16980.204034999992
 31
0.0
  0
LINE
  5
3F6B
  8
2-0
  6
CONTINUOUS
 62
     3
 10
18439.18140249998
 20
16998.199837999979
 30
0.0
 11
18464.17480449998
 21
16998.199837999979
 31
0.0
  0
LINE
  5
3F6C
  8
2-0
  6
CONTINUOUS
 62
     3
 10
18439.18140249998
 20
16993.199573999991
 30
0.0
 11
18439.18140249998
 21
16998.199837999979
 31
0.0
  0
LINE
  5
3F6D
  8
2-0
  6
CONTINUOUS
 62
     3
 10
18446.179000499949
 20
16993.199573999991
 30
0.0
 11
18439.18140249998
 21
16993.199573999991
 31
0.0
  0
LINE
  5
3F6E
  8
2-0
  6
CONTINUOUS
 62
     3
 10
18446.179000499949
 20
16288.717343499949
 30
0.0
 11
18439.18140249998
 21
16288.717343499949
 31
0.0
  0
LINE
  5
3F6F
  8
2-0
  6
CONTINUOUS
 62
     3
 10
18439.18140249998
 20
16288.717343499949
 30
0.0
 11
18439.18140249998
 21
16293.717607499961
 31
0.0
  0
LINE
  5
3F70
  8
2-0
  6
CONTINUOUS
 62
     3
 10
18439.18140249998
 20
16293.717607499961
 30
0.0
 11
18464.17480449998
 21
16293.717607499961
 31
0.0
  0
LINE
  5
3F71
  8
2-0
  6
CONTINUOUS
 62
     3
 10
18464.17480449998
 20
16293.717607499961
 30
0.0
 11
18464.17480449998
 21
16275.71586549998
 31
0.0
  0
LINE
  5
3F72
  8
2-0
  6
CONTINUOUS
 62
     3
 10
18464.17480449998
 20
16275.71586549998
 30
0.0
 11
18434.17717949998
 21
16275.71586549998
 31
0.0
  0
LINE
  5
3F73
  8
2-0
  6
CONTINUOUS
 62
     3
 10
18464.17480449998
 20
16291.81331049998
 30
0.0
 11
18464.17480449998
 21
16285.816359499981
 31
0.0
  0
LINE
  5
3F74
  8
2-0
  6
CONTINUOUS
 62
     3
 10
18464.17480449998
 20
16285.816359499981
 30
0.0
 11
18434.17717949998
 21
16285.816359499981
 31
0.0
  0
LINE
  5
3F75
  8
2-0
  6
CONTINUOUS
 62
     3
 10
18434.17717949998
 20
16285.816359499981
 30
0.0
 11
18434.17717949998
 21
16322.81653049998
 31
0.0
  0
LINE
  5
3F76
  8
2-0
  6
CONTINUOUS
 62
     3
 10
18464.17480449998
 20
16322.81653049998
 30
0.0
 11
18434.17717949998
 21
16322.81653049998
 31
0.0
  0
LINE
  5
3F77
  8
2-0
  6
CONTINUOUS
 62
     3
 10
18464.17480449998
 20
16316.81364049998
 30
0.0
 11
18464.17480449998
 21
16322.81653049998
 31
0.0
  0
LINE
  5
3F78
  8
2-0
  6
CONTINUOUS
 62
     3
 10
18464.17480449998
 20
16332.91207549998
 30
0.0
 11
18434.17717949998
 21
16332.91207549998
 31
0.0
  0
LINE
  5
3F79
  8
2-0
  6
CONTINUOUS
 62
     3
 10
18464.17480449998
 20
16314.904394499979
 30
0.0
 11
18464.17480449998
 21
16332.91207549998
 31
0.0
  0
LINE
  5
3F7A
  8
2-0
  6
CONTINUOUS
 62
     3
 10
18439.18140249998
 20
16314.904394499979
 30
0.0
 11
18464.17480449998
 21
16314.904394499979
 31
0.0
  0
LINE
  5
3F7B
  8
2-0
  6
CONTINUOUS
 62
     3
 10
18439.18140249998
 20
16319.91059749998
 30
0.0
 11
18439.18140249998
 21
16314.904394499979
 31
0.0
  0
LINE
  5
3F7C
  8
2-0
  6
CONTINUOUS
 62
     3
 10
18446.179000499949
 20
16319.91059749998
 30
0.0
 11
18439.18140249998
 21
16319.91059749998
 31
0.0
  0
LINE
  5
3F7D
  8
2-0
  6
CONTINUOUS
 62
     3
 10
18446.179000499949
 20
15619.15061399998
 30
0.0
 11
18439.18140249998
 21
15619.15061399998
 31
0.0
  0
LINE
  5
3F7E
  8
2-0
  6
CONTINUOUS
 62
     3
 10
18439.18140249998
 20
15619.15061399998
 30
0.0
 11
18439.18140249998
 21
15614.15628899999
 31
0.0
  0
LINE
  5
3F7F
  8
2-0
  6
CONTINUOUS
 62
     3
 10
18439.18140249998
 20
15614.15628899999
 30
0.0
 11
18464.17480449998
 21
15614.15628899999
 31
0.0
  0
LINE
  5
3F80
  8
2-0
  6
CONTINUOUS
 62
     3
 10
18464.17480449998
 20
15614.15628899999
 30
0.0
 11
18464.17480449998
 21
15632.152092
 31
0.0
  0
LINE
  5
3F81
  8
2-0
  6
CONTINUOUS
 62
     3
 10
18464.17480449998
 20
15632.152092
 30
0.0
 11
18434.17717949998
 21
15632.152092
 31
0.0
  0
LINE
  5
3F82
  8
2-0
  6
CONTINUOUS
 62
     3
 10
18464.17480449998
 20
15616.05464699999
 30
0.0
 11
18464.17480449998
 21
15622.056547
 31
0.0
  0
LINE
  5
3F83
  8
2-0
  6
CONTINUOUS
 62
     3
 10
18464.17480449998
 20
15622.056547
 30
0.0
 11
18434.17717949998
 21
15622.056547
 31
0.0
  0
LINE
  5
3F84
  8
2-0
  6
CONTINUOUS
 62
     3
 10
18434.17717949998
 20
15585.05736599999
 30
0.0
 11
18434.17717949998
 21
15622.056547
 31
0.0
  0
LINE
  5
3F85
  8
2-0
  6
CONTINUOUS
 62
     3
 10
18464.17480449998
 20
15585.05736599999
 30
0.0
 11
18434.17717949998
 21
15585.05736599999
 31
0.0
  0
LINE
  5
3F86
  8
2-0
  6
CONTINUOUS
 62
     3
 10
18464.17480449998
 20
15591.05431699998
 30
0.0
 11
18464.17480449998
 21
15585.05736599999
 31
0.0
  0
LINE
  5
3F87
  8
2-0
  6
CONTINUOUS
 62
     3
 10
18464.17480449998
 20
15574.95588199998
 30
0.0
 11
18434.17717949998
 21
15574.95588199998
 31
0.0
  0
LINE
  5
3F88
  8
2-0
  6
CONTINUOUS
 62
     3
 10
18464.17480449998
 20
15592.963562999979
 30
0.0
 11
18464.17480449998
 21
15574.95588199998
 31
0.0
  0
LINE
  5
3F89
  8
2-0
  6
CONTINUOUS
 62
     3
 10
18439.18140249998
 20
15592.963562999979
 30
0.0
 11
18464.17480449998
 21
15592.963562999979
 31
0.0
  0
LINE
  5
3F8A
  8
2-0
  6
CONTINUOUS
 62
     3
 10
18439.18140249998
 20
15587.963298999999
 30
0.0
 11
18439.18140249998
 21
15592.963562999979
 31
0.0
  0
LINE
  5
3F8B
  8
2-0
  6
CONTINUOUS
 62
     3
 10
18446.179000499949
 20
15587.963298999999
 30
0.0
 11
18439.18140249998
 21
15587.963298999999
 31
0.0
  0
LINE
  5
3F8C
  8
2-0
  6
CONTINUOUS
 62
     3
 10
18434.17717949998
 20
16980.204034999992
 30
0.0
 11
18434.17717949998
 21
16332.91207549998
 31
0.0
  0
LINE
  5
3F8D
  8
2-0
  6
CONTINUOUS
 62
     3
 10
18434.17717949998
 20
17134.81433299998
 30
0.0
 11
18434.17717949998
 21
16989.812617999989
 31
0.0
  0
LINE
  5
3F8E
  8
2-0
  6
CONTINUOUS
 62
     3
 10
18522.063845499961
 20
17104.814728999969
 30
0.0
 11
18522.063845499961
 21
17019.818160999981
 31
0.0
  0
LINE
  5
3F8F
  8
2-0
  6
CONTINUOUS
 62
     3
 10
18446.179000499949
 20
14886.72229199998
 30
0.0
 11
18439.18140249998
 21
14886.72229199998
 31
0.0
  0
LINE
  5
3F90
  8
2-0
  6
CONTINUOUS
 62
     3
 10
18439.18140249998
 20
14886.72229199998
 30
0.0
 11
18439.18140249998
 21
14891.71661799998
 31
0.0
  0
LINE
  5
3F91
  8
2-0
  6
CONTINUOUS
 62
     3
 10
18439.18140249998
 20
14891.71661799998
 30
0.0
 11
18464.17480449998
 21
14891.71661799998
 31
0.0
  0
LINE
  5
3F92
  8
2-0
  6
CONTINUOUS
 62
     3
 10
18464.17480449998
 20
14891.71661799998
 30
0.0
 11
18464.17480449998
 21
14873.720813999969
 31
0.0
  0
LINE
  5
3F93
  8
2-0
  6
CONTINUOUS
 62
     3
 10
18464.17480449998
 20
14873.720813999969
 30
0.0
 11
18434.17717949998
 21
14873.720813999969
 31
0.0
  0
LINE
  5
3F94
  8
2-0
  6
CONTINUOUS
 62
     3
 10
18464.17480449998
 20
14889.81924899998
 30
0.0
 11
18464.17480449998
 21
14883.81635899998
 31
0.0
  0
LINE
  5
3F95
  8
2-0
  6
CONTINUOUS
 62
     3
 10
18464.17480449998
 20
14883.81635899998
 30
0.0
 11
18434.17717949998
 21
14883.81635899998
 31
0.0
  0
LINE
  5
3F96
  8
2-0
  6
CONTINUOUS
 62
     3
 10
18434.17717949998
 20
14883.81635899998
 30
0.0
 11
18434.17717949998
 21
14920.816530999949
 31
0.0
  0
LINE
  5
3F97
  8
2-0
  6
CONTINUOUS
 62
     3
 10
18464.17480449998
 20
14920.816530999949
 30
0.0
 11
18434.17717949998
 21
14920.816530999949
 31
0.0
  0
LINE
  5
3F98
  8
2-0
  6
CONTINUOUS
 62
     3
 10
18464.17480449998
 20
14914.819578999981
 30
0.0
 11
18464.17480449998
 21
14920.816530999949
 31
0.0
  0
LINE
  5
3F99
  8
2-0
  6
CONTINUOUS
 62
     3
 10
18464.17480449998
 20
14930.91702399998
 30
0.0
 11
18434.17717949998
 21
14930.91702399998
 31
0.0
  0
LINE
  5
3F9A
  8
2-0
  6
CONTINUOUS
 62
     3
 10
18464.17480449998
 20
14912.910332999991
 30
0.0
 11
18464.17480449998
 21
14930.91702399998
 31
0.0
  0
LINE
  5
3F9B
  8
2-0
  6
CONTINUOUS
 62
     3
 10
18439.18140249998
 20
14912.910332999991
 30
0.0
 11
18464.17480449998
 21
14912.910332999991
 31
0.0
  0
LINE
  5
3F9C
  8
2-0
  6
CONTINUOUS
 62
     3
 10
18439.18140249998
 20
14917.91554599998
 30
0.0
 11
18439.18140249998
 21
14912.910332999991
 31
0.0
  0
LINE
  5
3F9D
  8
2-0
  6
CONTINUOUS
 62
     3
 10
18446.179000499949
 20
14917.91554599998
 30
0.0
 11
18439.18140249998
 21
14917.91554599998
 31
0.0
  0
LINE
  5
3F9E
  8
2-0
  6
CONTINUOUS
 62
     3
 10
18464.17480449998
 20
13860.31837199998
 30
0.0
 11
18464.17480449998
 21
13866.32324099998
 31
0.0
  0
LINE
  5
3F9F
  8
2-0
  6
CONTINUOUS
 62
     3
 10
18464.17480449998
 20
13866.32324099998
 30
0.0
 11
18434.17717949998
 21
13866.32324099998
 31
0.0
  0
LINE
  5
3FA0
  8
2-0
  6
CONTINUOUS
 62
     3
 10
18434.17717949998
 20
13866.32324099998
 30
0.0
 11
18434.17717949998
 21
13751.319149999979
 31
0.0
  0
LINE
  5
3FA1
  8
2-0
  6
CONTINUOUS
 62
     3
 10
18434.17717949998
 20
13751.319149999979
 30
0.0
 11
18519.175727499969
 21
13751.319149999979
 31
0.0
  0
LINE
  5
3FA2
  8
2-0
  6
CONTINUOUS
 62
     3
 10
18519.175727499969
 20
13751.319149999979
 30
0.0
 11
18519.175727499969
 21
13836.31472899998
 31
0.0
  0
LINE
  5
3FA3
  8
2-0
  6
CONTINUOUS
 62
     3
 10
18519.175727499969
 20
13836.31472899998
 30
0.0
 11
18487.178789499962
 21
13836.31472899998
 31
0.0
  0
LINE
  5
3FA4
  8
2-0
  6
CONTINUOUS
 62
     3
 10
18446.179000499949
 20
13863.352973999979
 30
0.0
 11
18439.18140249998
 21
13863.352973999979
 31
0.0
  0
LINE
  5
3FA5
  8
2-0
  6
CONTINUOUS
 62
     3
 10
18439.18140249998
 20
13863.352973999979
 30
0.0
 11
18439.18140249998
 21
13858.355678999949
 31
0.0
  0
LINE
  5
3FA6
  8
2-0
  6
CONTINUOUS
 62
     3
 10
18439.18140249998
 20
13858.355678999949
 30
0.0
 11
18464.17480449998
 21
13858.355678999949
 31
0.0
  0
LINE
  5
3FA7
  8
2-0
  6
CONTINUOUS
 62
     3
 10
18464.17480449998
 20
13858.355678999949
 30
0.0
 11
18464.17480449998
 21
13876.35445199997
 31
0.0
  0
LINE
  5
3FA8
  8
2-0
  6
CONTINUOUS
 62
     3
 10
18464.17480449998
 20
13876.35445199997
 30
0.0
 11
18434.17717949998
 21
13876.35445199997
 31
0.0
  0
LINE
  5
3FA9
  8
2-0
  6
CONTINUOUS
 62
     3
 10
18434.17717949998
 20
14930.91702399998
 30
0.0
 11
18434.17717949998
 21
15574.95588199998
 31
0.0
  0
LINE
  5
3FAA
  8
2-0
  6
CONTINUOUS
 62
     3
 10
18434.17717949998
 20
18549.91257099999
 30
0.0
 11
18434.17717949998
 21
19193.722298499961
 31
0.0
  0
LINE
  5
3FAB
  8
2-0
  6
CONTINUOUS
 62
     3
 10
18434.17717949998
 20
16275.71586549998
 30
0.0
 11
18434.17717949998
 21
15632.152092
 31
0.0
  0
LINE
  5
3FAC
  8
2-0
  6
CONTINUOUS
 62
     3
 10
25056.171768499971
 20
19907.818556999991
 30
0.0
 11
25056.171768499971
 21
20022.814729999998
 31
0.0
  0
LINE
  5
3FAD
  8
2-0
  6
CENTER2
 62
     6
 10
17147.218907499981
 20
19980.316444999949
 30
0.0
 11
25906.173088499982
 21
19980.316444999949
 31
0.0
  0
LINE
  5
3FAE
  8
2-0
  6
CENTER2
 62
     6
 10
17147.218907499981
 20
17062.316444999979
 30
0.0
 11
25906.173088499982
 21
17062.316444999979
 31
0.0
  0
LINE
  5
3FAF
  8
2-0
  6
CENTER2
 62
     6
 10
17147.218907499981
 20
13793.81644499998
 30
0.0
 11
25906.173088499982
 21
13793.81644499998
 31
0.0
  0
LINE
  5
3FB0
  8
2-0
  6
CONTINUOUS
 62
     3
 10
18899.765162499982
 20
20010.814888000001
 30
0.0
 11
18899.765162499982
 21
20017.820403999991
 31
0.0
  0
LINE
  5
3FB1
  8
2-0
  6
CONTINUOUS
 62
     3
 10
18899.765162499982
 20
20017.820403999991
 30
0.0
 11
18894.764898499961
 21
20017.820403999991
 31
0.0
  0
LINE
  5
3FB2
  8
2-0
  6
CONTINUOUS
 62
     3
 10
18894.764898499961
 20
20017.820403999991
 30
0.0
 11
18894.764898499961
 21
19992.811166999989
 31
0.0
  0
LINE
  5
3FB3
  8
2-0
  6
CONTINUOUS
 62
     3
 10
18894.764898499961
 20
19992.811166999989
 30
0.0
 11
18912.766640499991
 21
19992.811166999989
 31
0.0
  0
LINE
  5
3FB4
  8
2-0
  6
CONTINUOUS
 62
     3
 10
18912.766640499991
 20
19992.811166999989
 30
0.0
 11
18912.766640499991
 21
20022.814729999998
 31
0.0
  0
LINE
  5
3FB5
  8
2-0
  6
CONTINUOUS
 62
     3
 10
18896.667215499991
 20
19992.811166999989
 30
0.0
 11
18902.67109549998
 21
19992.811166999989
 31
0.0
  0
LINE
  5
3FB6
  8
2-0
  6
CONTINUOUS
 62
     3
 10
18902.67109549998
 20
19992.811166999989
 30
0.0
 11
18902.67109549998
 21
20022.814729999998
 31
0.0
  0
LINE
  5
3FB7
  8
2-0
  6
CONTINUOUS
 62
     3
 10
18865.67587349996
 20
20022.814729999998
 30
0.0
 11
18902.67109549998
 21
20022.814729999998
 31
0.0
  0
LINE
  5
3FB8
  8
2-0
  6
CONTINUOUS
 62
     3
 10
18865.67587349996
 20
19992.811166999989
 30
0.0
 11
18865.67587349996
 21
20022.814729999998
 31
0.0
  0
LINE
  5
3FB9
  8
2-0
  6
CONTINUOUS
 62
     3
 10
18871.669855499989
 20
19992.811166999989
 30
0.0
 11
18865.67587349996
 21
19992.811166999989
 31
0.0
  0
LINE
  5
3FBA
  8
2-0
  6
CONTINUOUS
 62
     3
 10
18855.58032849996
 20
19992.811166999989
 30
0.0
 11
18855.58032849996
 21
20022.814729999998
 31
0.0
  0
LINE
  5
3FBB
  8
2-0
  6
CONTINUOUS
 62
     3
 10
18873.576131499991
 20
19992.811166999989
 30
0.0
 11
18855.58032849996
 21
19992.811166999989
 31
0.0
  0
LINE
  5
3FBC
  8
2-0
  6
CONTINUOUS
 62
     3
 10
18873.576131499991
 20
20017.820403999991
 30
0.0
 11
18873.576131499991
 21
19992.811166999989
 31
0.0
  0
LINE
  5
3FBD
  8
2-0
  6
CONTINUOUS
 62
     3
 10
18868.57784749999
 20
20017.820403999991
 30
0.0
 11
18873.576131499991
 21
20017.820403999991
 31
0.0
  0
LINE
  5
3FBE
  8
2-0
  6
CONTINUOUS
 62
     3
 10
18868.57784749999
 20
20010.814888000001
 30
0.0
 11
18868.57784749999
 21
20017.820403999991
 31
0.0
  0
LINE
  5
3FBF
  8
2-0
  6
CONTINUOUS
 62
     3
 10
18559.478726499961
 20
20022.814729999998
 30
0.0
 11
18855.58032849996
 21
20022.814729999998
 31
0.0
  0
LINE
  5
3FC0
  8
2-0
  6
CONTINUOUS
 62
     3
 10
18434.17717949998
 20
19937.818160999981
 30
0.0
 11
24975.169868499961
 21
19937.818160999981
 31
0.0
  0
LINE
  5
3FC1
  8
2-0
  6
CONTINUOUS
 62
     3
 10
18434.17717949998
 20
14229.854175
 30
0.0
 11
18434.17717949998
 21
14873.720813999969
 31
0.0
  0
LINE
  5
3FC2
  8
2-0
  6
CENTER2
 62
     6
 10
18476.673484499981
 20
21222.814729999998
 30
0.0
 11
18476.673484499981
 21
13168.05301099998
 31
0.0
  0
LINE
  5
3FC3
  8
2-0
  6
CONTINUOUS
 62
     3
 10
25056.171768499971
 20
19897.521100999991
 30
0.0
 11
25056.171768499971
 21
19250.912570499971
 31
0.0
  0
LINE
  5
3FC4
  8
2-0
  6
CONTINUOUS
 62
     3
 10
18434.17717949998
 20
19897.521100999991
 30
0.0
 11
18434.17717949998
 21
19250.912570499971
 31
0.0
  0
LINE
  5
3FC5
  8
2-0
  6
CENTER2
 62
     6
 10
21745.17348449997
 20
21222.814729999998
 30
0.0
 11
21745.17348449997
 21
13602.41184399998
 31
0.0
  0
LINE
  5
3FC6
  8
2-0
  6
CONTINUOUS
 62
     3
 10
18446.179000499949
 20
14185.72278699999
 30
0.0
 11
18439.18140249998
 21
14185.72278699999
 31
0.0
  0
LINE
  5
3FC7
  8
2-0
  6
CONTINUOUS
 62
     3
 10
18439.18140249998
 20
14185.72278699999
 30
0.0
 11
18439.18140249998
 21
14190.717112999981
 31
0.0
  0
LINE
  5
3FC8
  8
2-0
  6
CONTINUOUS
 62
     3
 10
18439.18140249998
 20
14190.717112999981
 30
0.0
 11
18464.17480449998
 21
14190.717112999981
 31
0.0
  0
LINE
  5
3FC9
  8
2-0
  6
CONTINUOUS
 62
     3
 10
18464.17480449998
 20
14190.717112999981
 30
0.0
 11
18464.17480449998
 21
14172.72130899998
 31
0.0
  0
LINE
  5
3FCA
  8
2-0
  6
CONTINUOUS
 62
     3
 10
18464.17480449998
 20
14172.72130899998
 30
0.0
 11
18434.17717949998
 21
14172.72130899998
 31
0.0
  0
LINE
  5
3FCB
  8
2-0
  6
CONTINUOUS
 62
     3
 10
18464.17480449998
 20
14188.818755
 30
0.0
 11
18464.17480449998
 21
14182.81685399999
 31
0.0
  0
LINE
  5
3FCC
  8
2-0
  6
CONTINUOUS
 62
     3
 10
18464.17480449998
 20
14182.81685399999
 30
0.0
 11
18434.17717949998
 21
14182.81685399999
 31
0.0
  0
LINE
  5
3FCD
  8
2-0
  6
CONTINUOUS
 62
     3
 10
18434.17717949998
 20
14182.81685399999
 30
0.0
 11
18434.17717949998
 21
14219.81603599996
 31
0.0
  0
LINE
  5
3FCE
  8
2-0
  6
CONTINUOUS
 62
     3
 10
18464.17480449998
 20
14219.81603599996
 30
0.0
 11
18434.17717949998
 21
14219.81603599996
 31
0.0
  0
LINE
  5
3FCF
  8
2-0
  6
CONTINUOUS
 62
     3
 10
18464.17480449998
 20
14213.820073999999
 30
0.0
 11
18464.17480449998
 21
14219.81603599996
 31
0.0
  0
LINE
  5
3FD0
  8
2-0
  6
CONTINUOUS
 62
     3
 10
18464.17480449998
 20
14229.917518999981
 30
0.0
 11
18434.17717949998
 21
14229.917518999981
 31
0.0
  0
LINE
  5
3FD1
  8
2-0
  6
CONTINUOUS
 62
     3
 10
18464.17480449998
 20
14211.909838999971
 30
0.0
 11
18464.17480449998
 21
14229.917518999981
 31
0.0
  0
LINE
  5
3FD2
  8
2-0
  6
CONTINUOUS
 62
     3
 10
18439.18140249998
 20
14211.909838999971
 30
0.0
 11
18464.17480449998
 21
14211.909838999971
 31
0.0
  0
LINE
  5
3FD3
  8
2-0
  6
CONTINUOUS
 62
     3
 10
18439.18140249998
 20
14216.91604099998
 30
0.0
 11
18439.18140249998
 21
14211.909838999971
 31
0.0
  0
LINE
  5
3FD4
  8
2-0
  6
CONTINUOUS
 62
     3
 10
18446.179000499949
 20
14216.91604099998
 30
0.0
 11
18439.18140249998
 21
14216.91604099998
 31
0.0
  0
LINE
  5
3FD5
  8
2-0
  6
CONTINUOUS
 62
     3
 10
18434.17717949998
 20
13876.35445199997
 30
0.0
 11
18434.17717949998
 21
14172.72130899998
 31
0.0
  0
LINE
  5
3FD6
  8
2-0
  6
CONTINUOUS
 62
     3
 10
18515.17512049996
 20
13836.31472899998
 30
0.0
 11
18515.17512049996
 21
20022.814729999998
 31
0.0
  0
LINE
  5
3FD7
  8
2-0
  6
CONTINUOUS
 62
     3
 10
25044.16994749998
 20
14185.72278699999
 30
0.0
 11
25051.171504499991
 21
14185.72278699999
 31
0.0
  0
LINE
  5
3FD8
  8
2-0
  6
CONTINUOUS
 62
     3
 10
25051.171504499991
 20
14185.72278699999
 30
0.0
 11
25051.171504499991
 21
14190.717112999981
 31
0.0
  0
LINE
  5
3FD9
  8
2-0
  6
CONTINUOUS
 62
     3
 10
25051.171504499991
 20
14190.717112999981
 30
0.0
 11
25026.17414449995
 21
14190.717112999981
 31
0.0
  0
LINE
  5
3FDA
  8
2-0
  6
CONTINUOUS
 62
     3
 10
25026.17414449995
 20
14190.717112999981
 30
0.0
 11
25026.17414449995
 21
14172.72130899998
 31
0.0
  0
LINE
  5
3FDB
  8
2-0
  6
CONTINUOUS
 62
     3
 10
25026.17414449995
 20
14172.72130899998
 30
0.0
 11
25056.171768499971
 21
14172.72130899998
 31
0.0
  0
LINE
  5
3FDC
  8
2-0
  6
CONTINUOUS
 62
     3
 10
25026.17414449995
 20
14188.818755
 30
0.0
 11
25026.17414449995
 21
14182.81685399999
 31
0.0
  0
LINE
  5
3FDD
  8
2-0
  6
CONTINUOUS
 62
     3
 10
25026.17414449995
 20
14182.81685399999
 30
0.0
 11
25056.171768499971
 21
14182.81685399999
 31
0.0
  0
LINE
  5
3FDE
  8
2-0
  6
CONTINUOUS
 62
     3
 10
25056.171768499971
 20
14182.81685399999
 30
0.0
 11
25056.171768499971
 21
14219.81603599996
 31
0.0
  0
LINE
  5
3FDF
  8
2-0
  6
CONTINUOUS
 62
     3
 10
25026.17414449995
 20
14219.81603599996
 30
0.0
 11
25056.171768499971
 21
14219.81603599996
 31
0.0
  0
LINE
  5
3FE0
  8
2-0
  6
CONTINUOUS
 62
     3
 10
25026.17414449995
 20
14213.820073999999
 30
0.0
 11
25026.17414449995
 21
14219.81603599996
 31
0.0
  0
LINE
  5
3FE1
  8
2-0
  6
CONTINUOUS
 62
     3
 10
25026.17414449995
 20
14229.917518999981
 30
0.0
 11
25056.171768499971
 21
14229.917518999981
 31
0.0
  0
LINE
  5
3FE2
  8
2-0
  6
CONTINUOUS
 62
     3
 10
25026.17414449995
 20
14211.909838999971
 30
0.0
 11
25026.17414449995
 21
14229.917518999981
 31
0.0
  0
LINE
  5
3FE3
  8
2-0
  6
CONTINUOUS
 62
     3
 10
25051.171504499991
 20
14211.909838999971
 30
0.0
 11
25026.17414449995
 21
14211.909838999971
 31
0.0
  0
LINE
  5
3FE4
  8
2-0
  6
CONTINUOUS
 62
     3
 10
25051.171504499991
 20
14216.91604099998
 30
0.0
 11
25051.171504499991
 21
14211.909838999971
 31
0.0
  0
LINE
  5
3FE5
  8
2-0
  6
CONTINUOUS
 62
     3
 10
25044.16994749998
 20
14216.91604099998
 30
0.0
 11
25051.171504499991
 21
14216.91604099998
 31
0.0
  0
LINE
  5
3FE6
  8
2-0
  6
CONTINUOUS
 62
     3
 10
25056.171768499971
 20
13876.35445199997
 30
0.0
 11
25056.171768499971
 21
14172.72130899998
 31
0.0
  0
LINE
  5
3FE7
  8
2-0
  6
CONTINUOUS
 62
     3
 10
24975.169868499961
 20
13836.31472899998
 30
0.0
 11
24975.169868499961
 21
20022.814729999998
 31
0.0
  0
LINE
  5
3FE8
  8
2-0
  6
CONTINUOUS
 62
     3
 10
21702.68113849996
 20
19179.819150499981
 30
0.0
 11
21787.67374849999
 21
19179.819150499981
 31
0.0
  0
LINE
  5
3FE9
  8
2-0
  6
CONTINUOUS
 62
     3
 10
21787.67374849999
 20
19264.813739499969
 30
0.0
 11
21702.68113849996
 21
19264.813739499969
 31
0.0
  0
LINE
  5
3FEA
  8
2-0
  6
CONTINUOUS
 62
     3
 10
21702.68113849996
 20
19264.813739499969
 30
0.0
 11
21702.68113849996
 21
19179.819150499981
 31
0.0
  0
LINE
  5
3FEB
  8
2-0
  6
CONTINUOUS
 62
     3
 10
21787.67374849999
 20
19179.819150499981
 30
0.0
 11
21787.67374849999
 21
19264.813739499969
 31
0.0
  0
LINE
  5
3FEC
  8
2-0
  6
CONTINUOUS
 62
     6
 10
21784.10863549999
 20
19170.678511999991
 30
0.0
 11
22060.698848499978
 21
18715.333811999979
 31
0.0
  0
LINE
  5
3FED
  8
2-0
  6
CONTINUOUS
 62
     6
 10
22060.698848499978
 20
18715.333811999979
 30
0.0
 11
23091.04816749999
 21
18715.333811999979
 31
0.0
  0
LINE
  5
3FEE
  8
2-0
  6
CONTINUOUS
 62
     6
 10
21844.386955499991
 20
19020.082676999999
 30
0.0
 11
21784.10863549999
 21
19170.678511999991
 31
0.0
  0
LINE
  5
3FEF
  8
2-0
  6
CONTINUOUS
 62
     6
 10
21784.10863549999
 20
19170.678511999991
 30
0.0
 11
21889.967350499988
 21
19047.770203999971
 31
0.0
  0
LINE
  5
3FF0
  8
2-0
  6
CONTINUOUS
 62
     6
 10
21844.386955499991
 20
19020.082676999999
 30
0.0
 11
21889.967350499988
 21
19047.770203999971
 31
0.0
  0
LINE
  5
3FF1
  8
2-0
  6
CONTINUOUS
 62
     6
 10
21889.967350499988
 20
19047.770203999971
 30
0.0
 11
21784.10863549999
 21
19170.678511999991
 31
0.0
  0
LINE
  5
3FF2
  8
2-0
  6
CONTINUOUS
 62
     6
 10
21784.10863549999
 20
19170.678511999991
 30
0.0
 11
21844.386955499991
 21
19020.082676999999
 31
0.0
  0
LINE
  5
3FF3
  8
2-0
  6
CONTINUOUS
 62
     6
 10
21844.386955499991
 20
19020.082676999999
 30
0.0
 11
21784.10863549999
 21
19170.678511999991
 31
0.0
  0
LINE
  5
3FF4
  8
2-0
  6
CONTINUOUS
 62
     6
 10
21889.967350499988
 20
19047.770203999971
 30
0.0
 11
21784.10863549999
 21
19170.678511999991
 31
0.0
  0
LINE
  5
3FF5
  8
2-0
  6
CONTINUOUS
 62
     6
 10
21889.967350499988
 20
19047.770203999971
 30
0.0
 11
21844.386955499991
 21
19020.082676999999
 31
0.0
  0
CIRCLE
  5
4006
  8
0-5
  6
CONTINUOUS
 62
     4
 10
21745.17348449997
 20
4072.728951000001
 30
0.0
 40
199.9999949999999
  0
CIRCLE
  5
4007
  8
0-5
  6
CONTINUOUS
 62
     4
 10
18476.673484499981
 20
4072.728951000001
 30
0.0
 40
199.9999949999999
  0
CIRCLE
  5
4008
  8
2-0
  6
CONTINUOUS
 62
     4
 10
16947.22121749998
 20
19980.316444999949
 30
0.0
 40
200.00001
  0
CIRCLE
  5
4009
  8
2-0
  6
CONTINUOUS
 62
     4
 10
16947.22121749998
 20
17062.316444999979
 30
0.0
 40
200.00001
  0
CIRCLE
  5
400A
  8
2-0
  6
CONTINUOUS
 62
     4
 10
16947.22121749998
 20
13793.81644499998
 30
0.0
 40
200.00001
  0
CIRCLE
  5
400B
  8
2-0
  6
CONTINUOUS
 62
     4
 10
21745.17348449997
 20
21422.819349000001
 30
0.0
 40
200.00001
  0
CIRCLE
  5
400C
  8
2-0
  6
CONTINUOUS
 62
     4
 10
18476.673484499981
 20
21422.819349000001
 30
0.0
 40
200.00001
  0
TEXT
  5
400D
  8
0-5
  6
CONTINUOUS
 62
     7
 10
17858.497545499991
 20
6842.0889997419981
 30
0.0
 40
160.0
  1
(2131.5)
 50
90.0
 72
     4
 11
17778.497545499991
 21
7295.4223330753312
 31
0.0
  0
TEXT
  5
400E
  8
0-5
  6
CONTINUOUS
 62
     7
 10
21698.245037499979
 20
3986.1989969999981
 30
0.0
 40
160.0
  1
2
 72
     4
 11
21751.578370833311
 21
4066.1989969999981
 31
0.0
  0
TEXT
  5
400F
  8
0-5
  6
CONTINUOUS
 62
     7
 10
18429.741078499981
 20
3986.1989969999981
 30
0.0
 40
160.0
  1
1
 72
     4
 11
18456.407745166649
 21
4066.1989969999981
 31
0.0
  0
TEXT
  5
4010
  8
0-5
  6
CONTINUOUS
 62
     7
 10
15344.79003899999
 20
6400.5750029999999
 30
0.0
 40
160.0
  1
G.L
 72
     4
 11
15504.79003899999
 21
6480.5750029999999
 31
0.0
  0
TEXT
  5
4011
  8
2-0
  6
CONTINUOUS
 62
     7
 10
23410.51879149997
 20
13233.817566999969
 30
0.0
 40
160.0
  1
前柱（右）
 50
0.000213
 72
     4
 11
23826.51849409299
 21
13313.81911350076
 31
0.0
  0
TEXT
  5
4012
  8
2-0
  6
CONTINUOUS
 62
     7
 10
23615.113914499962
 20
16512.809582999991
 30
0.0
 40
160.0
  1
壁パネル
 50
359.99982299999999
 72
     4
 11
23977.780828303519
 21
16592.808462637859
 31
0.0
  0
TEXT
  5
4013
  8
2-0
  6
CONTINUOUS
 62
     7
 10
23335.111010499961
 20
17349.997479000001
 30
0.0
 40
160.0
  1
中柱（左右）
 50
0.000354
 72
     4
 11
23852.44384954618
 21
17430.000675324649
 31
0.0
  0
TEXT
  5
4014
  8
2-0
  6
CONTINUOUS
 62
     7
 10
24015.11325449996
 20
15474.34985131247
 30
0.0
 40
160.0
  1
下枠
 50
0.001063
 72
     4
 11
24185.778436909259
 21
15554.35301765176
 31
0.0
  0
TEXT
  5
4015
  8
2-0
  6
CONTINUOUS
 62
     7
 10
23510.078678499991
 20
18953.26621749996
 30
0.0
 40
160.0
  1
間柱（側）
 72
     4
 11
23931.412011833319
 21
19033.26621749996
 31
0.0
  0
TEXT
  5
4016
  8
2-0
  6
CONTINUOUS
 62
     7
 10
25828.668997499979
 20
20832.813937999999
 30
0.0
 40
160.0
  1
後柱（左右）
 50
0.000354
 72
     4
 11
26340.668503212961
 21
20912.817101372832
 31
0.0
  0
TEXT
  5
4017
  8
2-0
  6
CONTINUOUS
 62
     7
 10
22144.262246499991
 20
14371.654744999971
 30
0.0
 40
160.0
  1
前柱（中）
 72
     4
 11
22560.262246499991
 21
14451.654744999971
 31
0.0
  0
TEXT
  5
4018
  8
2-0
  6
CONTINUOUS
 62
     7
 10
20581.042360499989
 20
19385.696777000001
 30
0.0
 40
160.0
  1
間柱（後）
 72
     4
 11
21002.375693833321
 21
19465.696777000001
 31
0.0
  0
TEXT
  5
4019
  8
2-0
  6
CONTINUOUS
 62
     7
 10
22015.46684949999
 20
19454.441498
 30
0.0
 40
160.0
  1
後柱（中）
 72
     4
 11
22431.46684949999
 21
19534.441498
 31
0.0
  0
TEXT
  5
401A
  8
2-0
  6
CONTINUOUS
 62
     7
 10
16899.221850499969
 20
19885.836003
 30
0.0
 40
160.0
  1
C
 72
     4
 11
16952.555183833301
 21
19965.836003
 31
0.0
  0
TEXT
  5
401B
  8
2-0
  6
CONTINUOUS
 62
     7
 10
16899.442566499969
 20
16991.922363000001
 30
0.0
 40
160.0
  1
B
 72
     4
 11
16952.775899833301
 21
17071.922363000001
 31
0.0
  0
TEXT
  5
401C
  8
2-0
  6
CONTINUOUS
 62
     7
 10
16899.48512649996
 20
13705.209233999971
 30
0.0
 40
160.0
  1
A
 72
     4
 11
16952.818459833299
 21
13785.209233999971
 31
0.0
  0
TEXT
  5
401D
  8
2-0
  6
CONTINUOUS
 62
     7
 10
21693.54170149998
 20
21327.293720000001
 30
0.0
 40
160.0
  1
2
 72
     4
 11
21746.875034833309
 21
21407.293720000001
 31
0.0
  0
TEXT
  5
401E
  8
2-0
  6
CONTINUOUS
 62
     7
 10
18432.466875499969
 20
21334.051796999989
 30
0.0
 40
160.0
  1
1
 72
     4
 11
18459.133542166641
 21
21414.051796999989
 31
0.0
  0
TEXT
  5
401F
  8
2-0
  6
CONTINUOUS
 62
     7
 10
20923.42971299999
 20
11686.942224
 30
0.0
 40
160.0
  1
平 面 図
 50
0.000266
 72
     4
 11
21280.762699683812
 21
11761.610549612949
 31
0.0
  0
TEXT
  5
4020
  8
2-0
  6
CONTINUOUS
 62
     7
 10
20119.867900000001
 20
3254.2895699999972
 30
0.0
 40
160.0
  1
正 面 立 面 図
 72
     4
 11
20765.20123333333
 21
3334.2895699999972
 31
0.0
  0
TEXT
  5
4021
  8
2-0
  6
CONTINUOUS
 62
     7
 10
22182.680742500001
 20
18788.33449899996
 30
0.0
 40
160.0
  1
梁補助柱
 72
     4
 11
22545.347409166661
 21
18868.334498999971
 31
0.0
  0
CIRCLE
  5
4022
  8
0-4
  6
CONTINUOUS
 62
     4
 10
20110.923484499981
 20
6598.784693999999
 30
0.0
 40
18.487504999999981
  0
CIRCLE
  5
4023
  8
0-4
  6
CONTINUOUS
 62
     4
 10
23379.423484499981
 20
6598.784693999999
 30
0.0
 40
18.487504999999981
  0
TEXT
  5
4024
  8
2-0
  6
CONTINUOUS
 62
     7
 10
22116.69341847095
 20
3281.4849389999981
 30
0.0
 40
160.0
  1
1
 72
     4
 11
22143.360085137621
 21
3361.484938999999
 31
0.0
  0
TEXT
  5
4025
  8
2-0
  6
CONTINUOUS
 62
     7
 10
22359.782135721649
 20
3201.4864069999971
 30
0.0
 40
160.0
  1
80
 72
     4
 11
22479.782135721649
 21
3281.4864069999971
 31
0.0
  0
TEXT
  5
4026
  8
2-0
  6
CONTINUOUS
 62
     7
 10
21617.695384470961
 20
3254.2895699999972
 30
0.0
 40
160.0
  1
(S=  /   )
 72
     4
 11
22177.695384470961
 21
3334.2895699999972
 31
0.0
  0
TEXT
  5
4027
  8
2-0
  6
CONTINUOUS
 62
     7
 10
22632.254884821439
 20
11708.80591861295
 30
0.0
 40
160.0
  1
1
 72
     4
 11
22658.921551488111
 21
11788.80591861295
 31
0.0
  0
TEXT
  5
4028
  8
2-0
  6
CONTINUOUS
 62
     7
 10
22875.34360207212
 20
11628.807386612951
 30
0.0
 40
160.0
  1
80
 72
     4
 11
22995.34360207212
 21
11708.807386612951
 31
0.0
  0
TEXT
  5
4029
  8
2-0
  6
CONTINUOUS
 62
     7
 10
22133.256850821439
 20
11681.610549612949
 30
0.0
 40
160.0
  1
(S=  /   )
 72
     4
 11
22693.256850821439
 21
11761.610549612949
 31
0.0
  0
LINE
  5
402A
  8
SUNPOU
  6
CONTINUOUS
 10
18194.173484499981
 20
4912.7287530000031
 30
0.0
 11
17836.218477778879
 21
4912.7287530000031
 31
0.0
  0
LINE
  5
402B
  8
SUNPOU
  6
CONTINUOUS
 10
25296.177443499979
 20
4912.7287530000031
 30
0.0
 11
25654.132450221081
 21
4912.7287530000031
 31
0.0
  0
LINE
  5
402C
  8
2-0
  6
CONTINUOUS
 62
     3
 10
24274.174065499959
 20
20022.814729999998
 30
0.0
 11
24237.172903499981
 21
20022.814729999998
 31
0.0
  0
LINE
  5
402D
  8
2-0
  6
CONTINUOUS
 62
     3
 10
24274.174065499959
 20
19992.811166999989
 30
0.0
 11
24274.174065499959
 21
20022.814729999998
 31
0.0
  0
LINE
  5
402E
  8
2-0
  6
CONTINUOUS
 62
     3
 10
24268.174144499961
 20
19992.811166999989
 30
0.0
 11
24274.174065499959
 21
19992.811166999989
 31
0.0
  0
LINE
  5
402F
  8
2-0
  6
CONTINUOUS
 62
     3
 10
24284.271589499971
 20
19992.811166999989
 30
0.0
 11
24284.271589499971
 21
20022.814729999998
 31
0.0
  0
LINE
  5
4030
  8
2-0
  6
CONTINUOUS
 62
     3
 10
24266.267868499981
 20
19992.811166999989
 30
0.0
 11
24284.271589499971
 21
19992.811166999989
 31
0.0
  0
LINE
  5
4031
  8
2-0
  6
CONTINUOUS
 62
     3
 10
24266.267868499981
 20
20017.820403999991
 30
0.0
 11
24266.267868499981
 21
19992.811166999989
 31
0.0
  0
LINE
  5
4032
  8
2-0
  6
CONTINUOUS
 62
     3
 10
24271.268132499968
 20
20017.820403999991
 30
0.0
 11
24266.267868499981
 21
20017.820403999991
 31
0.0
  0
LINE
  5
4033
  8
2-0
  6
CONTINUOUS
 62
     3
 10
24271.268132499968
 20
20010.814888000001
 30
0.0
 11
24271.268132499968
 21
20017.820403999991
 31
0.0
  0
LINE
  5
4034
  8
2-0
  6
CONTINUOUS
 62
     3
 10
24240.078837499961
 20
20010.814888000001
 30
0.0
 11
24240.078837499961
 21
20017.820403999991
 31
0.0
  0
LINE
  5
4035
  8
2-0
  6
CONTINUOUS
 62
     3
 10
24240.078837499961
 20
20017.820403999991
 30
0.0
 11
24245.079101499981
 21
20017.820403999991
 31
0.0
  0
LINE
  5
4036
  8
2-0
  6
CONTINUOUS
 62
     3
 10
24245.079101499981
 20
20017.820403999991
 30
0.0
 11
24245.079101499981
 21
19992.811166999989
 31
0.0
  0
LINE
  5
4037
  8
2-0
  6
CONTINUOUS
 62
     3
 10
24245.079101499981
 20
19992.811166999989
 30
0.0
 11
24227.079338499989
 21
19992.811166999989
 31
0.0
  0
LINE
  5
4038
  8
2-0
  6
CONTINUOUS
 62
     3
 10
24227.079338499989
 20
19992.811166999989
 30
0.0
 11
24227.079338499989
 21
20022.814729999998
 31
0.0
  0
LINE
  5
4039
  8
2-0
  6
CONTINUOUS
 62
     3
 10
24243.172824499969
 20
19992.811166999989
 30
0.0
 11
24237.172903499981
 21
19992.811166999989
 31
0.0
  0
LINE
  5
403A
  8
2-0
  6
CONTINUOUS
 62
     3
 10
24237.172903499981
 20
19992.811166999989
 30
0.0
 11
24237.172903499981
 21
20022.814729999998
 31
0.0
  0
LINE
  5
403B
  8
2-0
  6
CONTINUOUS
 62
     3
 10
22869.263182999981
 20
20010.814888000001
 30
0.0
 11
22869.263182999981
 21
20017.820403999991
 31
0.0
  0
LINE
  5
403C
  8
2-0
  6
CONTINUOUS
 62
     3
 10
22869.263182999981
 20
20017.820403999991
 30
0.0
 11
22864.262918999972
 21
20017.820403999991
 31
0.0
  0
LINE
  5
403D
  8
2-0
  6
CONTINUOUS
 62
     3
 10
22864.262918999972
 20
20017.820403999991
 30
0.0
 11
22864.262918999972
 21
19992.811166999989
 31
0.0
  0
LINE
  5
403E
  8
2-0
  6
CONTINUOUS
 62
     3
 10
22864.262918999972
 20
19992.811166999989
 30
0.0
 11
22882.268619999981
 21
19992.811166999989
 31
0.0
  0
LINE
  5
403F
  8
2-0
  6
CONTINUOUS
 62
     3
 10
22882.268619999981
 20
19992.811166999989
 30
0.0
 11
22882.268619999981
 21
20022.814729999998
 31
0.0
  0
LINE
  5
4040
  8
2-0
  6
CONTINUOUS
 62
     3
 10
22866.171174999959
 20
19992.811166999989
 30
0.0
 11
22872.17307499997
 21
19992.811166999989
 31
0.0
  0
LINE
  5
4041
  8
2-0
  6
CONTINUOUS
 62
     3
 10
22872.17307499997
 20
19992.811166999989
 30
0.0
 11
22872.17307499997
 21
20022.814729999998
 31
0.0
  0
LINE
  5
4042
  8
2-0
  6
CONTINUOUS
 62
     3
 10
22835.17389399997
 20
20022.814729999998
 30
0.0
 11
22872.17307499997
 21
20022.814729999998
 31
0.0
  0
LINE
  5
4043
  8
2-0
  6
CONTINUOUS
 62
     3
 10
22835.17389399997
 20
19992.811166999989
 30
0.0
 11
22835.17389399997
 21
20022.814729999998
 31
0.0
  0
LINE
  5
4044
  8
2-0
  6
CONTINUOUS
 62
     3
 10
22841.167875999981
 20
19992.811166999989
 30
0.0
 11
22835.17389399997
 21
19992.811166999989
 31
0.0
  0
LINE
  5
4045
  8
2-0
  6
CONTINUOUS
 62
     3
 10
22825.078348999981
 20
19992.811166999989
 30
0.0
 11
22825.078348999981
 21
20022.814729999998
 31
0.0
  0
LINE
  5
4046
  8
2-0
  6
CONTINUOUS
 62
     3
 10
22843.074151999968
 20
19992.811166999989
 30
0.0
 11
22825.078348999981
 21
19992.811166999989
 31
0.0
  0
LINE
  5
4047
  8
2-0
  6
CONTINUOUS
 62
     3
 10
22843.074151999968
 20
20017.820403999991
 30
0.0
 11
22843.074151999968
 21
19992.811166999989
 31
0.0
  0
LINE
  5
4048
  8
2-0
  6
CONTINUOUS
 62
     3
 10
22838.073887999981
 20
20017.820403999991
 30
0.0
 11
22843.074151999968
 21
20017.820403999991
 31
0.0
  0
LINE
  5
4049
  8
2-0
  6
CONTINUOUS
 62
     3
 10
22838.073887999981
 20
20010.814888000001
 30
0.0
 11
22838.073887999981
 21
20017.820403999991
 31
0.0
  0
LINE
  5
404A
  8
2-0
  6
CONTINUOUS
 62
     3
 10
23539.072898999981
 20
20010.814888000001
 30
0.0
 11
23539.072898999981
 21
20017.820403999991
 31
0.0
  0
LINE
  5
404B
  8
2-0
  6
CONTINUOUS
 62
     3
 10
23539.072898999981
 20
20017.820403999991
 30
0.0
 11
23544.073161999961
 21
20017.820403999991
 31
0.0
  0
LINE
  5
404C
  8
2-0
  6
CONTINUOUS
 62
     3
 10
23544.073161999961
 20
20017.820403999991
 30
0.0
 11
23544.073161999961
 21
19992.811166999989
 31
0.0
  0
LINE
  5
404D
  8
2-0
  6
CONTINUOUS
 62
     3
 10
23544.073161999961
 20
19992.811166999989
 30
0.0
 11
23526.07933899996
 21
19992.811166999989
 31
0.0
  0
LINE
  5
404E
  8
2-0
  6
CONTINUOUS
 62
     3
 10
23526.07933899996
 20
19992.811166999989
 30
0.0
 11
23526.07933899996
 21
20022.814729999998
 31
0.0
  0
LINE
  5
404F
  8
2-0
  6
CONTINUOUS
 62
     3
 10
23542.170844999961
 20
19992.811166999989
 30
0.0
 11
23536.172903999981
 21
19992.811166999989
 31
0.0
  0
LINE
  5
4050
  8
2-0
  6
CONTINUOUS
 62
     3
 10
23536.172903999981
 20
19992.811166999989
 30
0.0
 11
23536.172903999981
 21
20022.814729999998
 31
0.0
  0
LINE
  5
4051
  8
2-0
  6
CONTINUOUS
 62
     3
 10
23573.174064999981
 20
20022.814729999998
 30
0.0
 11
23536.172903999981
 21
20022.814729999998
 31
0.0
  0
LINE
  5
4052
  8
2-0
  6
CONTINUOUS
 62
     3
 10
23573.174064999981
 20
19992.811166999989
 30
0.0
 11
23573.174064999981
 21
20022.814729999998
 31
0.0
  0
LINE
  5
4053
  8
2-0
  6
CONTINUOUS
 62
     3
 10
23567.16820599998
 20
19992.811166999989
 30
0.0
 11
23573.174064999981
 21
19992.811166999989
 31
0.0
  0
LINE
  5
4054
  8
2-0
  6
CONTINUOUS
 62
     3
 10
23583.26762999998
 20
19992.811166999989
 30
0.0
 11
23583.26762999998
 21
20022.814729999998
 31
0.0
  0
LINE
  5
4055
  8
2-0
  6
CONTINUOUS
 62
     3
 10
23565.271826999971
 20
19992.811166999989
 30
0.0
 11
23583.26762999998
 21
19992.811166999989
 31
0.0
  0
LINE
  5
4056
  8
2-0
  6
CONTINUOUS
 62
     3
 10
23565.271826999971
 20
20017.820403999991
 30
0.0
 11
23565.271826999971
 21
19992.811166999989
 31
0.0
  0
LINE
  5
4057
  8
2-0
  6
CONTINUOUS
 62
     3
 10
23570.26219299998
 20
20017.820403999991
 30
0.0
 11
23565.271826999971
 21
20017.820403999991
 31
0.0
  0
LINE
  5
4058
  8
2-0
  6
CONTINUOUS
 62
     3
 10
23570.26219299998
 20
20010.814888000001
 30
0.0
 11
23570.26219299998
 21
20017.820403999991
 31
0.0
  0
LINE
  5
4059
  8
2-0
  6
CONTINUOUS
 62
     3
 10
22882.268619999981
 20
20022.814729999998
 30
0.0
 11
23526.07933899996
 21
20022.814729999998
 31
0.0
  0
LINE
  5
405A
  8
2-0
  6
CONTINUOUS
 62
     3
 10
22181.472510499989
 20
20022.814729999998
 30
0.0
 11
22825.078348999981
 21
20022.814729999998
 31
0.0
  0
LINE
  5
405B
  8
2-0
  6
CONTINUOUS
 62
     3
 10
24931.557114499981
 20
20022.814729999998
 30
0.0
 11
24284.271589499971
 21
20022.814729999998
 31
0.0
  0
LINE
  5
405C
  8
2-0
  6
CONTINUOUS
 62
     3
 10
24227.079338499989
 20
20022.814729999998
 30
0.0
 11
23583.26762999998
 21
20022.814729999998
 31
0.0
  0
LINE
  5
405D
  8
2-0
  6
CONTINUOUS
 62
     3
 10
22168.265162499982
 20
20010.814888000001
 30
0.0
 11
22168.265162499982
 21
20017.820403999991
 31
0.0
  0
LINE
  5
405E
  8
2-0
  6
CONTINUOUS
 62
     3
 10
22168.265162499982
 20
20017.820403999991
 30
0.0
 11
22163.264898499969
 21
20017.820403999991
 31
0.0
  0
LINE
  5
405F
  8
2-0
  6
CONTINUOUS
 62
     3
 10
22163.264898499969
 20
20017.820403999991
 30
0.0
 11
22163.264898499969
 21
19992.811166999989
 31
0.0
  0
LINE
  5
4060
  8
2-0
  6
CONTINUOUS
 62
     3
 10
22163.264898499969
 20
19992.811166999989
 30
0.0
 11
22181.266640499991
 21
19992.811166999989
 31
0.0
  0
LINE
  5
4061
  8
2-0
  6
CONTINUOUS
 62
     3
 10
22181.266640499991
 20
19992.811166999989
 30
0.0
 11
22181.266640499991
 21
20022.814729999998
 31
0.0
  0
LINE
  5
4062
  8
2-0
  6
CONTINUOUS
 62
     3
 10
22165.167215499991
 20
19992.811166999989
 30
0.0
 11
22171.171095499969
 21
19992.811166999989
 31
0.0
  0
LINE
  5
4063
  8
2-0
  6
CONTINUOUS
 62
     3
 10
22171.171095499969
 20
19992.811166999989
 30
0.0
 11
22171.171095499969
 21
20022.814729999998
 31
0.0
  0
LINE
  5
4064
  8
2-0
  6
CONTINUOUS
 62
     3
 10
22134.175873499971
 20
20022.814729999998
 30
0.0
 11
22171.171095499969
 21
20022.814729999998
 31
0.0
  0
LINE
  5
4065
  8
2-0
  6
CONTINUOUS
 62
     3
 10
22134.175873499971
 20
19992.811166999989
 30
0.0
 11
22134.175873499971
 21
20022.814729999998
 31
0.0
  0
LINE
  5
4066
  8
2-0
  6
CONTINUOUS
 62
     3
 10
22140.169855499978
 20
19992.811166999989
 30
0.0
 11
22134.175873499971
 21
19992.811166999989
 31
0.0
  0
LINE
  5
4067
  8
2-0
  6
CONTINUOUS
 62
     3
 10
22124.080328499989
 20
19992.811166999989
 30
0.0
 11
22124.080328499989
 21
20022.814729999998
 31
0.0
  0
LINE
  5
4068
  8
2-0
  6
CONTINUOUS
 62
     3
 10
22142.076131499991
 20
19992.811166999989
 30
0.0
 11
22124.080328499989
 21
19992.811166999989
 31
0.0
  0
LINE
  5
4069
  8
2-0
  6
CONTINUOUS
 62
     3
 10
22142.076131499991
 20
20017.820403999991
 30
0.0
 11
22142.076131499991
 21
19992.811166999989
 31
0.0
  0
LINE
  5
406A
  8
2-0
  6
CONTINUOUS
 62
     3
 10
22137.07784749999
 20
20017.820403999991
 30
0.0
 11
22142.076131499991
 21
20017.820403999991
 31
0.0
  0
LINE
  5
406B
  8
2-0
  6
CONTINUOUS
 62
     3
 10
22137.07784749999
 20
20010.814888000001
 30
0.0
 11
22137.07784749999
 21
20017.820403999991
 31
0.0
  0
LINE
  5
406C
  8
2-0
  6
CONTINUOUS
 62
     3
 10
21827.978726499969
 20
20022.814729999998
 30
0.0
 11
22124.080328499989
 21
20022.814729999998
 31
0.0
  0
LINE
  5
406D
  8
2-0
  6
CONTINUOUS
 62
     3
 10
21663.745987499991
 20
20022.814729999998
 30
0.0
 11
21015.77158949996
 21
20022.814729999998
 31
0.0
  0
LINE
  5
406E
  8
2-0
  6
CONTINUOUS
 62
     3
 10
25056.171768499971
 20
15574.95588199998
 30
0.0
 11
25056.171768499971
 21
14930.91702399998
 31
0.0
  0
LINE
  5
406F
  8
2-0
  6
CONTINUOUS
 62
     3
 10
25056.171768499971
 20
14873.720813999969
 30
0.0
 11
25056.171768499971
 21
14229.917518999981
 31
0.0
  0
LINE
  5
4070
  8
0-1
  6
CONTINUOUS
 62
     3
 10
7241.8830360000075
 20
6262.7287530000021
 30
0.0
 11
7241.8830360000075
 21
8123.7746320000033
 31
0.0
  0
LINE
  5
4071
  8
0-1
  6
CONTINUOUS
 62
     3
 10
7261.8840920000021
 20
6262.7287530000021
 30
0.0
 11
7261.8840920000021
 21
8123.7746320000033
 31
0.0
  0
LINE
  5
4072
  8
0-1
  6
CONTINUOUS
 62
     3
 10
7191.8833660000128
 20
6262.7287530000021
 30
0.0
 11
7191.8833660000128
 21
8123.7746320000033
 31
0.0
  0
LINE
  5
4073
  8
0-1
  6
CONTINUOUS
 62
     3
 10
7311.8827720000081
 20
6262.7287530000021
 30
0.0
 11
7311.8827720000081
 21
8123.7746320000033
 31
0.0
  0
LINE
  5
4074
  8
0-1
  6
CONTINUOUS
 62
     3
 10
7444.8836559999982
 20
6262.7287530000021
 30
0.0
 11
7444.8836559999982
 21
8123.7746320000033
 31
0.0
  0
LINE
  5
4075
  8
0-1
  6
CONTINUOUS
 62
     3
 10
7459.8834580000039
 20
6262.7287530000021
 30
0.0
 11
7459.8834580000039
 21
8123.7746320000033
 31
0.0
  0
LINE
  5
4076
  8
0-1
  6
CONTINUOUS
 62
     3
 10
7058.8834710000083
 20
6262.7287530000021
 30
0.0
 11
7058.8834710000083
 21
8123.7746320000033
 31
0.0
  0
LINE
  5
4077
  8
0-1
  6
CONTINUOUS
 62
     3
 10
7043.8836690000098
 20
6262.7287530000021
 30
0.0
 11
7043.8836690000098
 21
8123.7746320000033
 31
0.0
  0
LINE
  5
4078
  8
0-1
  6
CONTINUOUS
 62
     3
 10
8320.3831550000104
 20
8123.7746320000033
 30
0.0
 11
8320.3831550000104
 21
6262.7287530000021
 31
0.0
  0
LINE
  5
4079
  8
0-1
  6
CONTINUOUS
 62
     3
 10
8283.3849630000059
 20
8123.7746320000033
 30
0.0
 11
8283.3849630000059
 21
6262.7287530000021
 31
0.0
  0
LINE
  5
407A
  8
0-1
  6
CONTINUOUS
 62
     3
 10
7620.3838140000098
 20
8123.7746320000033
 30
0.0
 11
7620.3838140000098
 21
6262.7287530000021
 31
0.0
  0
LINE
  5
407B
  8
0-1
  6
CONTINUOUS
 62
     3
 10
7583.3836429999938
 20
8123.7746320000033
 30
0.0
 11
7583.3836429999938
 21
6262.7287530000021
 31
0.0
  0
LINE
  5
407C
  8
0-1
  6
CONTINUOUS
 62
     3
 10
9020.382494999998
 20
8123.7746320000033
 30
0.0
 11
9020.382494999998
 21
6262.7287530000021
 31
0.0
  0
LINE
  5
407D
  8
0-1
  6
CONTINUOUS
 62
     3
 10
8983.3843030000007
 20
8123.7746320000033
 30
0.0
 11
8983.3843030000007
 21
6262.7287530000021
 31
0.0
  0
LINE
  5
407E
  8
0-1
  6
CONTINUOUS
 62
     3
 10
8641.8827059999967
 20
6262.7287530000021
 30
0.0
 11
8641.8827059999967
 21
8123.7746320000033
 31
0.0
  0
LINE
  5
407F
  8
0-1
  6
CONTINUOUS
 62
     3
 10
8661.8837620000086
 20
6262.7287530000021
 30
0.0
 11
8661.8837620000086
 21
8123.7746320000033
 31
0.0
  0
LINE
  5
4080
  8
0-1
  6
CONTINUOUS
 62
     3
 10
8591.884026000007
 20
6262.7287530000021
 30
0.0
 11
8591.884026000007
 21
8123.7746320000033
 31
0.0
  0
LINE
  5
4081
  8
0-1
  6
CONTINUOUS
 62
     3
 10
8711.8834320000115
 20
6262.7287530000021
 30
0.0
 11
8711.8834320000115
 21
8123.7746320000033
 31
0.0
  0
LINE
  5
4082
  8
0-1
  6
CONTINUOUS
 62
     3
 10
8844.8833259999956
 20
6262.7287530000021
 30
0.0
 11
8844.8833259999956
 21
8123.7746320000033
 31
0.0
  0
LINE
  5
4083
  8
0-1
  6
CONTINUOUS
 62
     3
 10
8859.8831280000086
 20
6262.7287530000021
 30
0.0
 11
8859.8831280000086
 21
8123.7746320000033
 31
0.0
  0
LINE
  5
4084
  8
0-1
  6
CONTINUOUS
 62
     3
 10
8458.8831410000057
 20
6262.7287530000021
 30
0.0
 11
8458.8831410000057
 21
8123.7746320000033
 31
0.0
  0
LINE
  5
4085
  8
0-1
  6
CONTINUOUS
 62
     3
 10
8443.8843290000059
 20
6262.7287530000021
 30
0.0
 11
8443.8843290000059
 21
8123.7746320000033
 31
0.0
  0
LINE
  5
4086
  8
0-1
  6
CONTINUOUS
 62
     3
 10
7743.8830090000083
 20
6262.7287530000021
 30
0.0
 11
7743.8830090000083
 21
8123.7746320000033
 31
0.0
  0
LINE
  5
4087
  8
0-1
  6
CONTINUOUS
 62
     3
 10
7758.8838009999972
 20
6262.7287530000021
 30
0.0
 11
7758.8838009999972
 21
8123.7746320000033
 31
0.0
  0
LINE
  5
4088
  8
0-1
  6
CONTINUOUS
 62
     3
 10
8159.8837880000074
 20
6262.7287530000021
 30
0.0
 11
8159.8837880000074
 21
8123.7746320000033
 31
0.0
  0
LINE
  5
4089
  8
0-1
  6
CONTINUOUS
 62
     3
 10
8144.882996000003
 20
6262.7287530000021
 30
0.0
 11
8144.882996000003
 21
8123.7746320000033
 31
0.0
  0
LINE
  5
408A
  8
0-1
  6
CONTINUOUS
 62
     3
 10
8011.8840920000002
 20
6262.7287530000021
 30
0.0
 11
8011.8840920000002
 21
8123.7746320000033
 31
0.0
  0
LINE
  5
408B
  8
0-1
  6
CONTINUOUS
 62
     3
 10
7891.8827060000049
 20
6262.7287530000021
 30
0.0
 11
7891.8827060000049
 21
8123.7746320000033
 31
0.0
  0
LINE
  5
408C
  8
0-1
  6
CONTINUOUS
 62
     3
 10
7961.8854110000102
 20
6262.7287530000021
 30
0.0
 11
7961.8854110000102
 21
8123.7746320000033
 31
0.0
  0
LINE
  5
408D
  8
0-1
  6
CONTINUOUS
 62
     3
 10
7941.8843560000059
 20
6262.7287530000021
 30
0.0
 11
7941.8843560000059
 21
8123.7746320000033
 31
0.0
  0
LINE
  5
408E
  8
0-1
  6
CONTINUOUS
 62
     3
 10
9143.8826800000024
 20
6262.7287530000021
 30
0.0
 11
9143.8826800000024
 21
8123.7746320000033
 31
0.0
  0
LINE
  5
408F
  8
0-1
  6
CONTINUOUS
 62
     3
 10
9158.8834710000083
 20
6262.7287530000021
 30
0.0
 11
9158.8834710000083
 21
8123.7746320000033
 31
0.0
  0
LINE
  5
4090
  8
0-1
  6
CONTINUOUS
 62
     3
 10
9291.8843560000096
 20
6262.7287530000021
 30
0.0
 11
9291.8843560000096
 21
8123.7746320000033
 31
0.0
  0
LINE
  5
4091
  8
0-1
  6
CONTINUOUS
 62
     3
 10
9559.8834580000057
 20
6262.7287530000021
 30
0.0
 11
9559.8834580000057
 21
8123.7746320000033
 31
0.0
  0
LINE
  5
4092
  8
0-1
  6
CONTINUOUS
 62
     3
 10
9544.8846460000059
 20
6262.7287530000021
 30
0.0
 11
9544.8846460000059
 21
8123.7746320000033
 31
0.0
  0
LINE
  5
4093
  8
0-1
  6
CONTINUOUS
 62
     3
 10
9411.8837619999958
 20
6262.7287530000021
 30
0.0
 11
9411.8837619999958
 21
8123.7746320000033
 31
0.0
  0
LINE
  5
4094
  8
0-1
  6
CONTINUOUS
 62
     3
 10
9361.8840920000021
 20
6262.7287530000021
 30
0.0
 11
9361.8840920000021
 21
8123.7746320000033
 31
0.0
  0
LINE
  5
4095
  8
0-1
  6
CONTINUOUS
 62
     3
 10
9341.8850150000089
 20
6262.7287530000021
 30
0.0
 11
9341.8850150000089
 21
8123.7746320000033
 31
0.0
  0
LINE
  5
4096
  8
0-1
  6
CONTINUOUS
 62
     3
 10
10169.883986000001
 20
6262.7287530000021
 30
0.0
 11
10169.883986000001
 21
8123.7746320000033
 31
0.0
  0
LINE
  5
4097
  8
0-1
  6
CONTINUOUS
 62
     3
 10
10149.88491000001
 20
6262.7287530000021
 30
0.0
 11
10149.88491000001
 21
8123.7746320000033
 31
0.0
  0
LINE
  5
4098
  8
0-1
  6
CONTINUOUS
 62
     3
 10
10219.88464599999
 20
6262.7287530000021
 30
0.0
 11
10219.88464599999
 21
8123.7746320000033
 31
0.0
  0
LINE
  5
4099
  8
0-1
  6
CONTINUOUS
 62
     3
 10
10099.88425000001
 20
6262.7287530000021
 30
0.0
 11
10099.88425000001
 21
8123.7746320000033
 31
0.0
  0
LINE
  5
409A
  8
0-1
  6
CONTINUOUS
 62
     3
 10
9966.8843559999968
 20
6262.7287530000021
 30
0.0
 11
9966.8843559999968
 21
8123.7746320000033
 31
0.0
  0
LINE
  5
409B
  8
0-1
  6
CONTINUOUS
 62
     3
 10
9951.8825739999957
 20
6262.7287530000021
 30
0.0
 11
9951.8825739999957
 21
8123.7746320000033
 31
0.0
  0
LINE
  5
409C
  8
0-1
  6
CONTINUOUS
 62
     3
 10
10352.884539999999
 20
6262.7287530000021
 30
0.0
 11
10352.884539999999
 21
8123.7746320000033
 31
0.0
  0
LINE
  5
409D
  8
0-1
  6
CONTINUOUS
 62
     3
 10
10367.88335300001
 20
6262.7287530000021
 30
0.0
 11
10367.88335300001
 21
8123.7746320000033
 31
0.0
  0
LINE
  5
409E
  8
0-1
  6
CONTINUOUS
 62
     3
 10
12467.88335300001
 20
6262.7287530000021
 30
0.0
 11
12467.88335300001
 21
8123.7746320000033
 31
0.0
  0
LINE
  5
409F
  8
0-1
  6
CONTINUOUS
 62
     3
 10
12452.88454000001
 20
6262.7287530000021
 30
0.0
 11
12452.88454000001
 21
8123.7746320000033
 31
0.0
  0
LINE
  5
40A0
  8
0-1
  6
CONTINUOUS
 62
     3
 10
12051.883563999991
 20
6262.7287530000021
 30
0.0
 11
12051.883563999991
 21
8123.7746320000033
 31
0.0
  0
LINE
  5
40A1
  8
0-1
  6
CONTINUOUS
 62
     3
 10
12066.883366
 20
6262.7287530000021
 30
0.0
 11
12066.883366
 21
8123.7746320000033
 31
0.0
  0
LINE
  5
40A2
  8
0-1
  6
CONTINUOUS
 62
     3
 10
12199.88425000001
 20
6262.7287530000021
 30
0.0
 11
12199.88425000001
 21
8123.7746320000033
 31
0.0
  0
LINE
  5
40A3
  8
0-1
  6
CONTINUOUS
 62
     3
 10
12319.883656000011
 20
6262.7287530000021
 30
0.0
 11
12319.883656000011
 21
8123.7746320000033
 31
0.0
  0
LINE
  5
40A4
  8
0-1
  6
CONTINUOUS
 62
     3
 10
12249.88491000001
 20
6262.7287530000021
 30
0.0
 11
12249.88491000001
 21
8123.7746320000033
 31
0.0
  0
LINE
  5
40A5
  8
0-1
  6
CONTINUOUS
 62
     3
 10
12269.883986000001
 20
6262.7287530000021
 30
0.0
 11
12269.883986000001
 21
8123.7746320000033
 31
0.0
  0
LINE
  5
40A6
  8
0-1
  6
CONTINUOUS
 62
     3
 10
11569.88464599999
 20
6262.7287530000021
 30
0.0
 11
11569.88464599999
 21
8123.7746320000033
 31
0.0
  0
LINE
  5
40A7
  8
0-1
  6
CONTINUOUS
 62
     3
 10
11549.88359000001
 20
6262.7287530000021
 30
0.0
 11
11549.88359000001
 21
8123.7746320000033
 31
0.0
  0
LINE
  5
40A8
  8
0-1
  6
CONTINUOUS
 62
     3
 10
11619.88332600001
 20
6262.7287530000021
 30
0.0
 11
11619.88332600001
 21
8123.7746320000033
 31
0.0
  0
LINE
  5
40A9
  8
0-1
  6
CONTINUOUS
 62
     3
 10
11499.88491000001
 20
6262.7287530000021
 30
0.0
 11
11499.88491000001
 21
8123.7746320000033
 31
0.0
  0
LINE
  5
40AA
  8
0-1
  6
CONTINUOUS
 62
     3
 10
11366.884026000011
 20
6262.7287530000021
 30
0.0
 11
11366.884026000011
 21
8123.7746320000033
 31
0.0
  0
LINE
  5
40AB
  8
0-1
  6
CONTINUOUS
 62
     3
 10
11351.88422399999
 20
6262.7287530000021
 30
0.0
 11
11351.88422399999
 21
8123.7746320000033
 31
0.0
  0
LINE
  5
40AC
  8
0-1
  6
CONTINUOUS
 62
     3
 10
11752.882231000011
 20
6262.7287530000021
 30
0.0
 11
11752.882231000011
 21
8123.7746320000033
 31
0.0
  0
LINE
  5
40AD
  8
0-1
  6
CONTINUOUS
 62
     3
 10
11767.884012
 20
6262.7287530000021
 30
0.0
 11
11767.884012
 21
8123.7746320000033
 31
0.0
  0
LINE
  5
40AE
  8
0-1
  6
CONTINUOUS
 62
     3
 10
11067.884672
 20
6262.7287530000021
 30
0.0
 11
11067.884672
 21
8123.7746320000033
 31
0.0
  0
LINE
  5
40AF
  8
0-1
  6
CONTINUOUS
 62
     3
 10
11052.88289100001
 20
6262.7287530000021
 30
0.0
 11
11052.88289100001
 21
8123.7746320000033
 31
0.0
  0
LINE
  5
40B0
  8
0-1
  6
CONTINUOUS
 62
     3
 10
10651.884883000001
 20
6262.7287530000021
 30
0.0
 11
10651.884883000001
 21
8123.7746320000033
 31
0.0
  0
LINE
  5
40B1
  8
0-1
  6
CONTINUOUS
 62
     3
 10
10666.883696000001
 20
6262.7287530000021
 30
0.0
 11
10666.883696000001
 21
8123.7746320000033
 31
0.0
  0
LINE
  5
40B2
  8
0-1
  6
CONTINUOUS
 62
     3
 10
10799.88260000001
 20
6262.7287530000021
 30
0.0
 11
10799.88260000001
 21
8123.7746320000033
 31
0.0
  0
LINE
  5
40B3
  8
0-1
  6
CONTINUOUS
 62
     3
 10
10919.883986000001
 20
6262.7287530000021
 30
0.0
 11
10919.883986000001
 21
8123.7746320000033
 31
0.0
  0
LINE
  5
40B4
  8
0-1
  6
CONTINUOUS
 62
     3
 10
10849.88424999999
 20
6262.7287530000021
 30
0.0
 11
10849.88424999999
 21
8123.7746320000033
 31
0.0
  0
LINE
  5
40B5
  8
0-1
  6
CONTINUOUS
 62
     3
 10
10869.88332600001
 20
6262.7287530000021
 30
0.0
 11
10869.88332600001
 21
8123.7746320000033
 31
0.0
  0
LINE
  5
40B6
  8
0-1
  6
CONTINUOUS
 62
     3
 10
10528.384699000009
 20
8123.7746320000033
 30
0.0
 11
10528.384699000009
 21
6262.7287530000021
 31
0.0
  0
LINE
  5
40B7
  8
0-1
  6
CONTINUOUS
 62
     3
 10
10491.383537000011
 20
8123.7746320000033
 30
0.0
 11
10491.383537000011
 21
6262.7287530000021
 31
0.0
  0
LINE
  5
40B8
  8
0-1
  6
CONTINUOUS
 62
     3
 10
11928.382389
 20
8123.7746320000033
 30
0.0
 11
11928.382389
 21
6262.7287530000021
 31
0.0
  0
LINE
  5
40B9
  8
0-1
  6
CONTINUOUS
 62
     3
 10
11891.383207000001
 20
8123.7746320000033
 30
0.0
 11
11891.383207000001
 21
6262.7287530000021
 31
0.0
  0
LINE
  5
40BA
  8
0-1
  6
CONTINUOUS
 62
     3
 10
11228.38403899999
 20
8123.7746320000033
 30
0.0
 11
11228.38403899999
 21
6262.7287530000021
 31
0.0
  0
LINE
  5
40BB
  8
0-1
  6
CONTINUOUS
 62
     3
 10
11191.38386700001
 20
8123.7746320000033
 30
0.0
 11
11191.38386700001
 21
6262.7287530000021
 31
0.0
  0
LINE
  5
40BC
  8
0-1
  6
CONTINUOUS
 62
     3
 10
12628.384699
 20
8123.7746320000033
 30
0.0
 11
12628.384699
 21
6262.7287530000021
 31
0.0
  0
LINE
  5
40BD
  8
0-1
  6
CONTINUOUS
 62
     3
 10
12591.383537000011
 20
8123.7746320000033
 30
0.0
 11
12591.383537000011
 21
6262.7287530000021
 31
0.0
  0
LINE
  5
40BE
  8
0-1
  6
CONTINUOUS
 62
     3
 10
13079.383511
 20
6212.7285879999999
 30
0.0
 11
13079.383511
 21
6112.7287530000003
 31
0.0
  0
LINE
  5
40BF
  8
0-1
  6
CONTINUOUS
 62
     3
 10
13046.882719999991
 20
8427.0576630000032
 30
0.0
 11
13046.882719999991
 21
6212.7285879999999
 31
0.0
  0
LINE
  5
40C0
  8
0-1
  6
CONTINUOUS
 62
     3
 10
13066.883511
 20
8427.6386520000051
 30
0.0
 11
13066.883511
 21
6212.7285879999999
 31
0.0
  0
LINE
  5
40C1
  8
0-1
  6
CONTINUOUS
 62
     3
 10
12951.88364299999
 20
8123.7746320000033
 30
0.0
 11
12951.88364299999
 21
6212.7285879999999
 31
0.0
  0
LINE
  5
40C2
  8
0-1
  6
CONTINUOUS
 62
     3
 10
9755.883511
 20
8328.5300950000037
 30
0.0
 11
9755.883511
 21
8123.7746320000033
 31
0.0
  0
LINE
  5
40C3
  8
0-1
  6
CONTINUOUS
 62
     3
 10
9683.3836430000083
 20
8123.7746320000033
 30
0.0
 11
9683.3836430000083
 21
6212.7285879999999
 31
0.0
  0
LINE
  5
40C4
  8
0-1
  6
CONTINUOUS
 62
     3
 10
9828.3823889999967
 20
8123.7746320000033
 30
0.0
 11
9828.3823889999967
 21
6212.7285879999999
 31
0.0
  0
LINE
  5
40C5
  8
0-1
  6
CONTINUOUS
 62
     3
 10
9828.3823889999967
 20
6262.7287530000021
 30
0.0
 11
12951.88364299999
 21
6262.7287530000021
 31
0.0
  0
LINE
  5
40C6
  8
0-1
  6
CONTINUOUS
 62
     3
 10
6787.883511
 20
6112.7287530000003
 30
0.0
 11
6787.883511
 21
6212.7285879999999
 31
0.0
  0
LINE
  5
40C7
  8
0-1
  6
CONTINUOUS
 62
     3
 10
6815.3833130000021
 20
8240.5310910000026
 30
0.0
 11
6815.3833130000021
 21
6212.7285879999999
 31
0.0
  0
LINE
  5
40C8
  8
0-1
  6
CONTINUOUS
 62
     3
 10
6795.383511
 20
8239.9143636838089
 30
0.0
 11
6795.383511
 21
6212.7285879999999
 31
0.0
  0
LINE
  5
40C9
  8
0-1
  6
CONTINUOUS
 62
     3
 10
6910.3823900000061
 20
8123.7746320000033
 30
0.0
 11
6910.3823900000061
 21
6212.7285879999999
 31
0.0
  0
LINE
  5
40CA
  8
0-1
  6
CONTINUOUS
 62
     3
 10
6787.883511
 20
6212.7285879999999
 30
0.0
 11
13079.383511
 21
6212.7285879999999
 31
0.0
  0
LINE
  5
40CB
  8
0-1
  6
CONTINUOUS
 62
     3
 10
6910.3823900000061
 20
6262.7287530000021
 30
0.0
 11
9683.3836430000083
 21
6262.7287530000021
 31
0.0
  0
LINE
  5
40CC
  8
0-1
  6
CONTINUOUS
 62
     3
 10
6105.3824560000003
 20
6112.7287530000012
 30
0.0
 11
13079.383511
 21
6112.7287530000003
 31
0.0
  0
LINE
  5
40CD
  8
0-1
  6
CONTINUOUS
 62
     3
 10
6815.3833130000021
 20
8123.7746320000033
 30
0.0
 11
13046.882719999991
 21
8123.7746320000033
 31
0.0
  0
LINE
  5
40CE
  8
0-1
  6
CONTINUOUS
 62
     3
 10
6621.0816869999999
 20
8274.7139130000032
 30
0.0
 11
13152.573175999991
 21
8470.2299740000053
 31
0.0
  0
LINE
  5
40CF
  8
0-1
  6
CONTINUOUS
 62
     3
 10
13151.07270099999
 20
8520.2088590000058
 30
0.0
 11
6619.5822019999978
 21
8324.6918089999981
 31
0.0
  0
LINE
  5
40D0
  8
0-1
  6
CONTINUOUS
 62
     3
 10
6616.4921740000073
 20
8327.6007110000028
 30
0.0
 11
6615.5321069999991
 21
8359.5862670000024
 31
0.0
  0
LINE
  5
40D1
  8
0-1
  6
CONTINUOUS
 62
     3
 10
6620.3809380000021
 20
8364.7335100000018
 30
0.0
 11
13170.842152999991
 21
8560.8206620000019
 31
0.0
  0
LINE
  5
40D2
  8
0-1
  6
CONTINUOUS
 62
     3
 10
13174.74675299999
 20
8430.8791240000046
 30
0.0
 11
6624.2815790000022
 21
8234.7924669999975
 31
0.0
  0
LINE
  5
40D3
  8
0-1
  6
CONTINUOUS
 62
     3
 10
6619.1338410000026
 20
8239.6398130000016
 30
0.0
 11
6618.1747640000021
 21
8271.6258640000033
 31
0.0
  0
LINE
  5
40D4
  8
0-1
  6
CONTINUOUS
 62
     3
 10
6617.8431950000022
 20
8282.6206049999982
 30
0.0
 11
6616.8227530000013
 21
8316.6049800000055
 31
0.0
  0
LINE
  5
40D5
  8
0-1
  6
CONTINUOUS
 62
     3
 10
6619.7316560000027
 20
8319.6940190000005
 30
0.0
 11
13151.224134
 21
8515.2115640000029
 31
0.0
  0
LINE
  5
40D6
  8
0-1
  6
CONTINUOUS
 62
     3
 10
13152.42372199999
 20
8475.2282580000028
 30
0.0
 11
6620.9332240000012
 21
8279.7121980000029
 31
0.0
  0
LINE
  5
40D7
  8
0-1
  6
CONTINUOUS
 62
     3
 10
9755.883511
 20
8328.5300950000037
 30
0.0
 11
9751.9808900000044
 21
8458.4716330000028
 31
0.0
  0
LINE
  5
40D8
  8
0-1
  6
CONTINUOUS
 62
     3
 10
13141.77985099999
 20
8429.8883750000023
 30
0.0
 11
13137.878220000001
 21
8559.8299130000087
 31
0.0
  0
LINE
  5
40D9
  8
0-1
  6
CONTINUOUS
 62
     3
 10
6632.8736799999997
 20
8365.1086290000021
 30
0.0
 11
6636.7763010000026
 21
8235.1675860000014
 31
0.0
  0
LINE
  5
40DA
  8
0-5
  6
CONTINUOUS
 62
     4
 10
14784.468499000001
 20
6212.7285879999999
 30
0.0
 11
14904.468894999991
 21
6420.575565000001
 31
0.0
  0
LINE
  5
40DB
  8
0-5
  6
CONTINUOUS
 62
     4
 10
14664.470082
 20
6420.575565000001
 30
0.0
 11
14784.468499000001
 21
6212.7285879999999
 31
0.0
  0
LINE
  5
40DC
  8
0-5
  6
CONTINUOUS
 62
     4
 10
14904.468894999991
 20
6420.575565000001
 30
0.0
 11
14664.470082
 21
6420.575565000001
 31
0.0
  0
LINE
  5
40DD
  8
0-5
  6
CONTINUOUS
 62
     4
 10
13159.38080600001
 20
6212.7285879999999
 30
0.0
 11
14876.846691999999
 21
6212.7285879999999
 31
0.0
  0
LINE
  5
40DE
  8
0-5
  6
CONTINUOUS
 62
     4
 10
13024.383511
 20
4432.7291490000007
 30
0.0
 11
13024.383511
 21
4272.7296110000007
 31
0.0
  0
LINE
  5
40DF
  8
0-5
  6
CONTINUOUS
 62
     4
 10
9755.883511
 20
4432.7291490000007
 30
0.0
 11
9755.883511
 21
4272.7296110000007
 31
0.0
  0
LINE
  5
40E0
  8
0-5
  6
CONTINUOUS
 62
     4
 10
6837.883511
 20
4432.7291490000007
 30
0.0
 11
6837.883511
 21
4272.7296110000007
 31
0.0
  0
LINE
  5
40E1
  8
2-0
  6
CENTER2
 62
     6
 10
13024.383511
 20
5850.0763300000017
 30
0.0
 11
13024.383511
 21
6907.2189280000021
 31
0.0
  0
LINE
  5
40E2
  8
2-0
  6
CENTER2
 62
     6
 10
9755.883511
 20
5850.0763300000017
 30
0.0
 11
9755.883511
 21
6907.2189280000021
 31
0.0
  0
LINE
  5
40E3
  8
2-0
  6
CENTER2
 62
     6
 10
6837.883511
 20
5850.0763300000017
 30
0.0
 11
6837.883511
 21
6907.2189280000021
 31
0.0
  0
ARC
  5
40E4
  8
0-1
  6
CONTINUOUS
 62
     3
 10
13151.82293799999
 20
8495.220406000004
 30
0.0
 40
24.999998999999999
 50
271.71998600002598
 51
91.719986000025997
  0
ARC
  5
40E5
  8
0-1
  6
CONTINUOUS
 62
     3
 10
6619.492134000001
 20
8327.6907790000023
 30
0.0
 40
3.0
 50
181.71998600002601
 51
271.71998600002598
  0
ARC
  5
40E6
  8
0-1
  6
CONTINUOUS
 62
     3
 10
6620.5294019999992
 20
8359.7357210000027
 30
0.0
 40
5.0
 50
91.719986000025997
 51
181.71998600002601
  0
ARC
  5
40E7
  8
0-1
  6
CONTINUOUS
 62
     3
 10
13146.82564399999
 20
8495.0699630000054
 30
0.0
 40
69.999999000000003
 50
293.50677499976382
 51
69.933196999884814
  0
ARC
  5
40E8
  8
0-1
  6
CONTINUOUS
 62
     3
 10
6624.1331150000024
 20
8239.7902570000024
 30
0.0
 40
5.0
 50
181.71998600002601
 51
271.71998600002598
  0
ARC
  5
40E9
  8
0-1
  6
CONTINUOUS
 62
     3
 10
6621.1717560000043
 20
8271.7154370000026
 30
0.0
 40
3.0
 50
91.719986000025997
 51
181.71998600002601
  0
ARC
  5
40EA
  8
0-1
  6
CONTINUOUS
 62
     3
 10
6621.1559189999998
 20
8322.2381949999999
 30
0.0
 40
2.5
 50
271.71998600002598
 51
91.719986000025997
  0
ARC
  5
40EB
  8
0-1
  6
CONTINUOUS
 62
     3
 10
6622.5059509999992
 20
8277.2580890000008
 30
0.0
 40
2.5
 50
271.71998600002598
 51
91.719986000025997
  0
ARC
  5
40EC
  8
0-1
  6
CONTINUOUS
 62
     3
 10
6619.8217240000022
 20
8316.6955429999998
 30
0.0
 40
3.0
 50
91.719986000025997
 51
181.71998600002601
  0
ARC
  5
40ED
  8
0-1
  6
CONTINUOUS
 62
     3
 10
13151.82293799999
 20
8495.220406000004
 30
0.0
 40
20.0
 50
271.71998600002598
 51
91.719986000025997
  0
ARC
  5
40EE
  8
0-1
  6
CONTINUOUS
 62
     3
 10
6620.8421660000004
 20
8282.710178000003
 30
0.0
 40
3.0
 50
181.71998600002601
 51
271.71998600002598
  0
CIRCLE
  5
40EF
  8
0-5
  6
CONTINUOUS
 62
     4
 10
9755.883511
 20
4072.7284560000039
 30
0.0
 40
199.9999949999999
  0
CIRCLE
  5
40F0
  8
0-5
  6
CONTINUOUS
 62
     4
 10
13024.383511
 20
4072.7284560000039
 30
0.0
 40
199.9999949999999
  0
CIRCLE
  5
40F1
  8
0-5
  6
CONTINUOUS
 62
     4
 10
6837.883511
 20
4072.7284560000039
 30
0.0
 40
199.9999949999999
  0
TEXT
  5
40F2
  8
0-5
  6
CONTINUOUS
 62
     7
 10
14325.37657
 20
6500.5748390000026
 30
0.0
 40
160.0
  1
布基礎天端
 72
     4
 11
14784.04323666667
 21
6580.5748390000044
 31
0.0
  0
TEXT
  5
40F3
  8
0-5
  6
CONTINUOUS
 62
     7
 10
12977.427350999989
 20
3989.517660000005
 30
0.0
 40
160.0
  1
A
 72
     4
 11
13030.760684333331
 21
4069.517660000005
 31
0.0
  0
TEXT
  5
40F4
  8
0-5
  6
CONTINUOUS
 62
     7
 10
9708.9273509999985
 20
3989.517660000005
 30
0.0
 40
160.0
  1
B
 72
     4
 11
9762.2606843333306
 21
4069.517660000005
 31
0.0
  0
TEXT
  5
40F5
  8
0-5
  6
CONTINUOUS
 62
     7
 10
6790.9273510000039
 20
3989.517660000005
 30
0.0
 40
160.0
  1
C
 72
     4
 11
6844.2606843333378
 21
4069.517660000005
 31
0.0
  0
TEXT
  5
40F6
  8
2-0
  6
CONTINUOUS
 62
     7
 10
8437.8497670000015
 20
3235.607121000005
 30
0.0
 40
160.0
  1
側 面 立 面 図
 50
0.000139
 72
     4
 11
9083.1829062508223
 21
3315.6086865833799
 31
0.0
  0
TEXT
  5
40F7
  8
2-0
  6
CONTINUOUS
 62
     7
 10
10434.675091388441
 20
3262.8040555833759
 30
0.0
 40
160.0
  1
1
 72
     4
 11
10461.34175805511
 21
3342.8040555833759
 31
0.0
  0
TEXT
  5
40F8
  8
2-0
  6
CONTINUOUS
 62
     7
 10
10677.76380863914
 20
3182.805523583379
 30
0.0
 40
160.0
  1
80
 72
     4
 11
10797.76380863914
 21
3262.805523583379
 31
0.0
  0
TEXT
  5
40F9
  8
2-0
  6
CONTINUOUS
 62
     7
 10
9935.6770573884405
 20
3235.6086865833799
 30
0.0
 40
160.0
  1
(S=  /   )
 72
     4
 11
10495.677057388441
 21
3315.6086865833799
 31
0.0
  0
LINE
  5
40FA
  8
0-1
  6
CONTINUOUS
 62
     3
 10
12751.885873999991
 20
6262.7287530000021
 30
0.0
 11
12751.885873999991
 21
8123.7746320000033
 31
0.0
  0
LINE
  5
40FB
  8
0-1
  6
CONTINUOUS
 62
     3
 10
12766.885676
 20
6262.7287530000021
 30
0.0
 11
12766.885676
 21
8123.7746320000033
 31
0.0
  0
LINE
  5
40FC
  8
0-5
  6
CONTINUOUS
 62
     4
 10
25056.173484499981
 20
4432.7286539999986
 30
0.0
 11
25056.173484499981
 21
4272.728621000002
 31
0.0
  0
CIRCLE
  5
40FD
  8
0-5
  6
CONTINUOUS
 62
     4
 10
25056.173484499981
 20
4072.728951000001
 30
0.0
 40
199.9999949999999
  0
TEXT
  5
40FE
  8
0-5
  6
CONTINUOUS
 62
     7
 10
25009.245037499979
 20
3986.1989969999981
 30
0.0
 40
160.0
  1
3
 72
     4
 11
25062.578370833311
 21
4066.1989969999981
 31
0.0
  0
LINE
  5
40FF
  8
0-2
  6
CONTINUOUS
 62
     3
 10
18426.672825499991
 20
6112.7287530000012
 30
0.0
 11
25063.674144499961
 21
6112.7287530000012
 31
0.0
  0
LINE
  5
4100
  8
SUNPOU
  6
CONTINUOUS
 10
6311.5074819999973
 20
13601.32112999998
 30
0.0
 11
6311.5074819999973
 21
12925.8950141896
 31
0.0
  0
LINE
  5
4101
  8
SUNPOU
  6
CONTINUOUS
 10
6311.5074819999991
 20
20202.812354000002
 30
0.0
 11
6311.5074819999991
 21
20970.536725545211
 31
0.0
  0
CIRCLE
  5
4102
  8
2-0
  6
CONTINUOUS
 62
     4
 10
25013.673484499981
 20
21422.819349000001
 30
0.0
 40
200.00001
  0
TEXT
  5
4103
  8
2-0
  6
CONTINUOUS
 62
     7
 10
24962.041701499991
 20
21327.293720000001
 30
0.0
 40
160.0
  1
3
 72
     4
 11
25015.37503483332
 21
21407.293720000001
 31
0.0
  0
LINE
  5
4104
  8
SUNPOU
  6
CONTINUOUS
 10
6615.383511
 20
9360.7302639999998
 30
0.0
 11
6140.0943983597681
 21
9360.7302639999998
 31
0.0
  0
LINE
  5
4107
  8
WAKUSEN-01
 10
868.00000000000193
 20
22484.000000000011
 30
0.0
 11
32764.000000000011
 21
22484.000000000011
 31
0.0
  0
LINE
  5
410A
  8
WAKUSEN-01
 10
20560.0
 20
2484.0
 30
0.0
 11
32764.0
 21
2484.0
 31
0.0
  0
LINE
  5
410B
  8
WAKUSEN-02
 10
20560.0
 20
1655.9999999999991
 30
0.0
 11
26868.0
 21
1655.9999999999991
 31
0.0
  0
TEXT
  5
410C
  8
WAKUMOJI-01
 10
20670.260259962761
 20
2125.9030093393221
 30
0.0
 40
240.0
  1
名　称
  7
WAKUMOJI
  0
TEXT
  5
410D
  8
WAKUMOJI-01
 10
20656.505485091919
 20
1319.12897497982
 30
0.0
 40
240.0
  1
機種名
  7
WAKUMOJI
  0
LINE
  5
4110
  8
YODOROGO
 10
29977.604341291921
 20
1995.7494964292871
 30
0.0
 11
29829.604341291921
 21
1995.7494964292871
 31
0.0
1001
AUTOCAD_POSTSCRIPT_FIGURE
1002
{
1000
PSFILL
1000
Grayscale
1000
Grayscale
1070
    25
1002
}
  0
LINE
  5
4111
  8
YODOROGO
 10
29829.604341291921
 20
1947.749496429288
 30
0.0
 11
29977.604341291921
 21
1947.749496429288
 31
0.0
1001
AUTOCAD_POSTSCRIPT_FIGURE
1002
{
1000
PSFILL
1000
Grayscale
1000
Grayscale
1070
    25
1002
}
  0
LINE
  5
4112
  8
YODOROGO
 10
29977.604341291921
 20
1907.7494964292871
 30
0.0
 11
29829.604341291921
 21
1907.7494964292871
 31
0.0
1001
AUTOCAD_POSTSCRIPT_FIGURE
1002
{
1000
PSFILL
1000
Grayscale
1000
Grayscale
1070
    25
1002
}
  0
LINE
  5
4113
  8
YODOROGO
 10
29829.604341291921
 20
1859.749496429288
 30
0.0
 11
29977.604341291921
 21
1859.749496429288
 31
0.0
1001
AUTOCAD_POSTSCRIPT_FIGURE
1002
{
1000
PSFILL
1000
Grayscale
1000
Grayscale
1070
    25
1002
}
  0
LINE
  5
4114
  8
YODOROGO
 10
29977.604341291921
 20
1819.7494964292871
 30
0.0
 11
29829.604341291921
 21
1819.7494964292871
 31
0.0
1001
AUTOCAD_POSTSCRIPT_FIGURE
1002
{
1000
PSFILL
1000
Grayscale
1000
Grayscale
1070
    25
1002
}
  0
LINE
  5
4115
  8
YODOROGO
 10
29921.60434129191
 20
1707.749496429288
 30
0.0
 11
29977.604341291921
 21
1707.749496429288
 31
0.0
1001
AUTOCAD_POSTSCRIPT_FIGURE
1002
{
1000
PSFILL
1000
Grayscale
1000
Grayscale
1070
    25
1002
}
  0
LINE
  5
4116
  8
YODOROGO
 10
29737.604341291921
 20
1427.749496429288
 30
0.0
 11
29937.604341291932
 21
1481.3393349155101
 31
0.0
  0
LINE
  5
4117
  8
YODOROGO
 10
29949.60434129191
 20
1707.749496429288
 30
0.0
 11
29885.604341291921
 21
1707.749496429288
 31
0.0
  0
ARC
  5
4118
  8
YODOROGO
 10
30254.34774982791
 20
1807.864609233261
 30
0.0
 40
381.88686420564721
 50
213.96111677667841
 51
264.47872074317792
  0
ARC
  5
4119
  8
YODOROGO
 10
30254.347749827921
 20
1807.864609233302
 30
0.0
 40
381.8868642056816
 50
208.14114420486601
 51
212.9210361185994
  0
LINE
  5
411A
  8
YODOROGO
 10
29771.409872985321
 20
1556.807661346234
 30
0.0
 11
29933.78413250855
 21
1600.3157130570869
 31
0.0
  0
LINE
  5
411B
  8
YODOROGO
 10
29737.604341291921
 20
1427.749496429288
 30
0.0
 11
29937.604341291932
 21
1481.3393349155101
 31
0.0
  0
LINE
  5
411C
  8
YODOROGO
 10
29949.60434129191
 20
1707.749496429288
 30
0.0
 11
29885.604341291921
 21
1707.749496429288
 31
0.0
  0
ARC
  5
411D
  8
YODOROGO
 10
30254.34774982791
 20
1807.864609233261
 30
0.0
 40
381.88686420564721
 50
213.96111677667841
 51
264.47872074317792
  0
LINE
  5
411E
  8
YODOROGO
 10
28793.60434129191
 20
1819.7494964292871
 30
0.0
 11
28433.60434129191
 21
1819.7494964292871
 31
0.0
  0
LINE
  5
411F
  8
YODOROGO
 10
28513.60434129191
 20
1427.749496429288
 30
0.0
 11
28793.60434129191
 21
1427.749496429288
 31
0.0
  0
LINE
  5
4120
  8
YODOROGO
 10
28729.604341291921
 20
1923.7494964292871
 30
0.0
 11
28497.60434129191
 21
1923.7494964292871
 31
0.0
  0
LINE
  5
4121
  8
YODOROGO
 10
28585.604341291921
 20
2027.749496429288
 30
0.0
 11
28657.604341291921
 21
2027.749496429288
 31
0.0
  0
LINE
  5
4122
  8
YODOROGO
 10
28433.60434129191
 20
1707.749496429288
 30
0.0
 11
28433.60434129191
 21
1507.749496429288
 31
0.0
  0
LINE
  5
4123
  8
YODOROGO
 10
28497.60434129191
 20
1563.7494964292871
 30
0.0
 11
28497.60434129191
 21
1707.749496429288
 31
0.0
  0
LINE
  5
4124
  8
YODOROGO
 10
28585.604341291921
 20
1747.74949642929
 30
0.0
 11
28585.604341291921
 21
1547.749496429288
 31
0.0
  0
LINE
  5
4125
  8
YODOROGO
 10
27857.604341291921
 20
1683.749496429288
 30
0.0
 11
27777.604341291921
 21
1619.9724140445701
 31
0.0
  0
LINE
  5
4126
  8
YODOROGO
 10
27937.604341291921
 20
1619.9724140445701
 30
0.0
 11
27857.604341291921
 21
1683.749496429288
 31
0.0
  0
LINE
  5
4127
  8
YODOROGO
 10
27857.604341291921
 20
1707.749496429288
 30
0.0
 11
27937.604341291921
 21
1643.9724140445701
 31
0.0
  0
LINE
  5
4128
  8
YODOROGO
 10
27777.604341291921
 20
1643.9724140445701
 30
0.0
 11
27857.604341291921
 21
1707.749496429288
 31
0.0
  0
LINE
  5
4129
  8
YODOROGO
 10
28040.913204016892
 20
1659.749496429288
 30
0.0
 11
28040.913204016892
 21
1683.7494964292871
 31
0.0
  0
LINE
  5
412A
  8
YODOROGO
 10
27977.604341291921
 20
1683.7494964292871
 30
0.0
 11
27977.604341291921
 21
1667.749496429285
 31
0.0
  0
LINE
  5
412B
  8
YODOROGO
 10
28098.135520230931
 20
1707.749496429288
 30
0.0
 11
28098.135520230931
 21
1655.5036372746561
 31
0.0
1001
AUTOCAD_POSTSCRIPT_FIGURE
1002
{
1000
PSFILL
1000
Grayscale
1000
Grayscale
1070
   100
1002
}
  0
LINE
  5
412C
  8
YODOROGO
 10
28082.135520230921
 20
1655.5036372746561
 30
0.0
 11
28082.135520230921
 21
1707.749496429288
 31
0.0
1001
AUTOCAD_POSTSCRIPT_FIGURE
1002
{
1000
PSFILL
1000
Grayscale
1000
Grayscale
1070
   100
1002
}
  0
LINE
  5
412D
  8
YODOROGO
 10
27809.604341291921
 20
1608.771904043258
 30
0.0
 11
27809.604341291921
 21
1632.771904043258
 31
0.0
  0
LINE
  5
412E
  8
YODOROGO
 10
27905.604341291921
 20
1608.771904043258
 30
0.0
 11
27809.604341291921
 21
1608.771904043258
 31
0.0
  0
LINE
  5
412F
  8
YODOROGO
 10
27905.604341291921
 20
1632.771904043258
 30
0.0
 11
27905.604341291921
 21
1608.771904043258
 31
0.0
  0
LINE
  5
4130
  8
YODOROGO
 10
27809.604341291921
 20
1632.771904043258
 30
0.0
 11
27905.604341291921
 21
1632.771904043258
 31
0.0
  0
LINE
  5
4131
  8
YODOROGO
 10
27824.509588915738
 20
1568.5028573704751
 30
0.0
 11
27785.604341291921
 21
1475.7494964292871
 31
0.0
1001
AUTOCAD_POSTSCRIPT_FIGURE
1002
{
1000
PSFILL
1000
Grayscale
1000
Grayscale
1070
   100
1002
}
  0
LINE
  5
4132
  8
YODOROGO
 10
27777.604341291921
 20
1568.5028573704751
 30
0.0
 11
27824.509588915738
 21
1568.5028573704751
 31
0.0
1001
AUTOCAD_POSTSCRIPT_FIGURE
1002
{
1000
PSFILL
1000
Grayscale
1000
Grayscale
1070
   100
1002
}
  0
LINE
  5
4133
  8
YODOROGO
 10
27777.604341291921
 20
1588.5028573704751
 30
0.0
 11
27777.604341291921
 21
1568.5028573704751
 31
0.0
1001
AUTOCAD_POSTSCRIPT_FIGURE
1002
{
1000
PSFILL
1000
Grayscale
1000
Grayscale
1070
   100
1002
}
  0
LINE
  5
4134
  8
YODOROGO
 10
27937.604341291921
 20
1588.5028573704751
 30
0.0
 11
27777.604341291921
 21
1588.5028573704751
 31
0.0
1001
AUTOCAD_POSTSCRIPT_FIGURE
1002
{
1000
PSFILL
1000
Grayscale
1000
Grayscale
1070
   100
1002
}
  0
LINE
  5
4135
  8
YODOROGO
 10
27937.604341291921
 20
1568.5028573704751
 30
0.0
 11
27937.604341291921
 21
1588.5028573704751
 31
0.0
1001
AUTOCAD_POSTSCRIPT_FIGURE
1002
{
1000
PSFILL
1000
Grayscale
1000
Grayscale
1070
   100
1002
}
  0
LINE
  5
4136
  8
YODOROGO
 10
27844.509588915738
 20
1568.5028573704751
 30
0.0
 11
27937.604341291921
 21
1568.5028573704751
 31
0.0
1001
AUTOCAD_POSTSCRIPT_FIGURE
1002
{
1000
PSFILL
1000
Grayscale
1000
Grayscale
1070
   100
1002
}
  0
LINE
  5
4137
  8
YODOROGO
 10
27815.546718284771
 20
1495.7494964292871
 30
0.0
 11
27844.509588915738
 21
1568.5028573704751
 31
0.0
1001
AUTOCAD_POSTSCRIPT_FIGURE
1002
{
1000
PSFILL
1000
Grayscale
1000
Grayscale
1070
   100
1002
}
  0
LINE
  5
4138
  8
YODOROGO
 10
27902.054790808648
 20
1495.7494964292871
 30
0.0
 11
27815.546718284771
 21
1495.7494964292871
 31
0.0
1001
AUTOCAD_POSTSCRIPT_FIGURE
1002
{
1000
PSFILL
1000
Grayscale
1000
Grayscale
1070
   100
1002
}
  0
LINE
  5
4139
  8
YODOROGO
 10
27885.065004790951
 20
1536.2338106976929
 30
0.0
 11
27902.054790808648
 21
1495.7494964292871
 31
0.0
1001
AUTOCAD_POSTSCRIPT_FIGURE
1002
{
1000
PSFILL
1000
Grayscale
1000
Grayscale
1070
   100
1002
}
  0
LINE
  5
413A
  8
YODOROGO
 10
27901.065004790951
 20
1536.2338106976929
 30
0.0
 11
27885.065004790951
 21
1536.2338106976929
 31
0.0
1001
AUTOCAD_POSTSCRIPT_FIGURE
1002
{
1000
PSFILL
1000
Grayscale
1000
Grayscale
1070
   100
1002
}
  0
LINE
  5
413B
  8
YODOROGO
 10
27929.604341291921
 20
1475.7494964292871
 30
0.0
 11
27901.065004790951
 21
1536.2338106976929
 31
0.0
1001
AUTOCAD_POSTSCRIPT_FIGURE
1002
{
1000
PSFILL
1000
Grayscale
1000
Grayscale
1070
   100
1002
}
  0
LINE
  5
413C
  8
YODOROGO
 10
27785.604341291921
 20
1475.7494964292871
 30
0.0
 11
27929.604341291921
 21
1475.7494964292871
 31
0.0
1001
AUTOCAD_POSTSCRIPT_FIGURE
1002
{
1000
PSFILL
1000
Grayscale
1000
Grayscale
1070
   100
1002
}
  0
LINE
  5
413D
  8
YODOROGO
 10
27777.604341291921
 20
1619.9724140445701
 30
0.0
 11
27777.604341291921
 21
1643.9724140445701
 31
0.0
  0
LINE
  5
413E
  8
YODOROGO
 10
27937.604341291921
 20
1643.9724140445701
 30
0.0
 11
27937.604341291921
 21
1619.9724140445701
 31
0.0
  0
ARC
  5
413F
  8
YODOROGO
 10
28225.940442146959
 20
1600.877765325326
 30
0.0
 40
175.9999999999998
 50
280.3644312771313
 51
3.5414836592180561
  0
ARC
  5
4140
  8
YODOROGO
 10
28235.756030759301
 20
1633.5978069619041
 30
0.0
 40
111.9999999999982
 50
281.24905825041549
 51
348.75094174958321
  0
LINE
  5
4141
  8
YODOROGO
 10
28257.604341291921
 20
1523.7494964292871
 30
0.0
 11
28257.604341291921
 21
1427.749496429288
 31
0.0
  0
LINE
  5
4142
  8
YODOROGO
 10
28020.088903736909
 20
1610.650565061914
 30
0.0
 11
28040.913204016892
 21
1659.749496429288
 31
0.0
  0
LINE
  5
4143
  8
YODOROGO
 10
28041.604341291921
 20
1583.120489948401
 30
0.0
 11
28020.088903736909
 21
1610.650565061914
 31
0.0
  0
LINE
  5
4144
  8
YODOROGO
 10
28041.604341291921
 20
1563.120489948398
 30
0.0
 11
28041.604341291921
 21
1583.120489948401
 31
0.0
  0
LINE
  5
4145
  8
YODOROGO
 10
28017.604341291921
 20
1585.2370637495301
 30
0.0
 11
28041.604341291921
 21
1563.120489948398
 31
0.0
  0
LINE
  5
4146
  8
YODOROGO
 10
28017.604341291921
 20
1475.7494964292871
 30
0.0
 11
28017.604341291921
 21
1585.2370637495301
 31
0.0
  0
LINE
  5
4147
  8
YODOROGO
 10
28001.604341291921
 20
1475.7494964292871
 30
0.0
 11
28017.604341291921
 21
1475.7494964292871
 31
0.0
  0
LINE
  5
4148
  8
YODOROGO
 10
28001.604341291921
 20
1580.0053496897469
 30
0.0
 11
28001.604341291921
 21
1475.7494964292871
 31
0.0
  0
LINE
  5
4149
  8
YODOROGO
 10
27977.604341291921
 20
1532.7680790334291
 30
0.0
 11
28001.604341291921
 21
1580.0053496897469
 31
0.0
  0
LINE
  5
414A
  8
YODOROGO
 10
27977.604341291921
 20
1556.76807903343
 30
0.0
 11
27977.604341291921
 21
1532.7680790334291
 31
0.0
  0
LINE
  5
414B
  8
YODOROGO
 10
28025.828774291349
 20
1667.749496429285
 30
0.0
 11
27977.604341291921
 21
1556.76807903343
 31
0.0
  0
LINE
  5
414C
  8
YODOROGO
 10
27977.604341291921
 20
1667.749496429285
 30
0.0
 11
28025.828774291349
 21
1667.749496429285
 31
0.0
  0
LINE
  5
414D
  8
YODOROGO
 10
28050.135520230899
 20
1655.5036372746561
 30
0.0
 11
28082.135520230921
 21
1655.5036372746561
 31
0.0
1001
AUTOCAD_POSTSCRIPT_FIGURE
1002
{
1000
PSFILL
1000
Grayscale
1000
Grayscale
1070
   100
1002
}
  0
LINE
  5
414E
  8
YODOROGO
 10
28050.135520230899
 20
1631.5036372746561
 30
0.0
 11
28050.135520230899
 21
1655.5036372746561
 31
0.0
1001
AUTOCAD_POSTSCRIPT_FIGURE
1002
{
1000
PSFILL
1000
Grayscale
1000
Grayscale
1070
   100
1002
}
  0
LINE
  5
414F
  8
YODOROGO
 10
28082.135520230921
 20
1631.5036372746561
 30
0.0
 11
28050.135520230899
 21
1631.5036372746561
 31
0.0
1001
AUTOCAD_POSTSCRIPT_FIGURE
1002
{
1000
PSFILL
1000
Grayscale
1000
Grayscale
1070
   100
1002
}
  0
LINE
  5
4150
  8
YODOROGO
 10
28082.135520230921
 20
1499.749496429288
 30
0.0
 11
28082.135520230921
 21
1631.5036372746561
 31
0.0
1001
AUTOCAD_POSTSCRIPT_FIGURE
1002
{
1000
PSFILL
1000
Grayscale
1000
Grayscale
1070
   100
1002
}
  0
LINE
  5
4151
  8
YODOROGO
 10
28050.135520230921
 20
1499.749496429288
 30
0.0
 11
28082.135520230921
 21
1499.749496429288
 31
0.0
1001
AUTOCAD_POSTSCRIPT_FIGURE
1002
{
1000
PSFILL
1000
Grayscale
1000
Grayscale
1070
   100
1002
}
  0
LINE
  5
4152
  8
YODOROGO
 10
28050.135520230921
 20
1475.7494964292871
 30
0.0
 11
28050.135520230921
 21
1499.749496429288
 31
0.0
1001
AUTOCAD_POSTSCRIPT_FIGURE
1002
{
1000
PSFILL
1000
Grayscale
1000
Grayscale
1070
   100
1002
}
  0
LINE
  5
4153
  8
YODOROGO
 10
28137.604341291921
 20
1475.7494964292871
 30
0.0
 11
28050.135520230921
 21
1475.7494964292871
 31
0.0
1001
AUTOCAD_POSTSCRIPT_FIGURE
1002
{
1000
PSFILL
1000
Grayscale
1000
Grayscale
1070
   100
1002
}
  0
LINE
  5
4154
  8
YODOROGO
 10
28137.604341291921
 20
1499.749496429288
 30
0.0
 11
28137.604341291921
 21
1475.7494964292871
 31
0.0
1001
AUTOCAD_POSTSCRIPT_FIGURE
1002
{
1000
PSFILL
1000
Grayscale
1000
Grayscale
1070
   100
1002
}
  0
LINE
  5
4155
  8
YODOROGO
 10
28098.135520230931
 20
1499.749496429288
 30
0.0
 11
28137.604341291921
 21
1499.749496429288
 31
0.0
1001
AUTOCAD_POSTSCRIPT_FIGURE
1002
{
1000
PSFILL
1000
Grayscale
1000
Grayscale
1070
   100
1002
}
  0
LINE
  5
4156
  8
YODOROGO
 10
28098.135520230931
 20
1631.5036372746561
 30
0.0
 11
28098.135520230931
 21
1499.749496429288
 31
0.0
1001
AUTOCAD_POSTSCRIPT_FIGURE
1002
{
1000
PSFILL
1000
Grayscale
1000
Grayscale
1070
   100
1002
}
  0
LINE
  5
4157
  8
YODOROGO
 10
28137.604341291921
 20
1631.5036372746561
 30
0.0
 11
28098.135520230931
 21
1631.5036372746561
 31
0.0
1001
AUTOCAD_POSTSCRIPT_FIGURE
1002
{
1000
PSFILL
1000
Grayscale
1000
Grayscale
1070
   100
1002
}
  0
LINE
  5
4158
  8
YODOROGO
 10
28137.604341291921
 20
1655.5036372746561
 30
0.0
 11
28137.604341291921
 21
1631.5036372746561
 31
0.0
1001
AUTOCAD_POSTSCRIPT_FIGURE
1002
{
1000
PSFILL
1000
Grayscale
1000
Grayscale
1070
   100
1002
}
  0
LINE
  5
4159
  8
YODOROGO
 10
28098.135520230931
 20
1655.5036372746561
 30
0.0
 11
28137.604341291921
 21
1655.5036372746561
 31
0.0
1001
AUTOCAD_POSTSCRIPT_FIGURE
1002
{
1000
PSFILL
1000
Grayscale
1000
Grayscale
1070
   100
1002
}
  0
LINE
  5
415A
  8
YODOROGO
 10
28401.60434129191
 20
1667.749496429288
 30
0.0
 11
28345.604341291921
 21
1667.749496429288
 31
0.0
  0
LINE
  5
415B
  8
YODOROGO
 10
28401.60434129191
 20
1611.749496429288
 30
0.0
 11
28401.60434129191
 21
1667.749496429288
 31
0.0
  0
LINE
  5
415C
  8
YODOROGO
 10
28345.604341291921
 20
1667.749496429288
 30
0.0
 11
28345.604341291921
 21
1611.749496429288
 31
0.0
  0
ARC
  5
415D
  8
YODOROGO
 10
28513.60434129191
 20
1507.749496429288
 30
0.0
 40
80.0
 50
180.0
 51
270.0
  0
ARC
  5
415E
  8
YODOROGO
 10
28537.604341291921
 20
1563.7494964292871
 30
0.0
 40
40.0
 50
180.0
 51
270.0
  0
LINE
  5
415F
  8
YODOROGO
 10
28561.604341291932
 20
1523.7494964292871
 30
0.0
 11
28537.604341291921
 21
1523.7494964292871
 31
0.0
  0
ARC
  5
4160
  8
YODOROGO
 10
28561.604341291932
 20
1547.749496429285
 30
0.0
 40
23.999999999996358
 50
270.0
 51
0.0000000000054281
  0
LINE
  5
4161
  8
YODOROGO
 10
27801.604341291921
 20
1890.786580793706
 30
0.0
 11
27777.604341291921
 21
1843.776747951672
 31
0.0
1001
AUTOCAD_POSTSCRIPT_FIGURE
1002
{
1000
PSFILL
1000
Grayscale
1000
Grayscale
1070
   100
1002
}
  0
LINE
  5
4162
  8
YODOROGO
 10
27801.604341291921
 20
1747.749496429286
 30
0.0
 11
27801.604341291921
 21
1890.786580793706
 31
0.0
1001
AUTOCAD_POSTSCRIPT_FIGURE
1002
{
1000
PSFILL
1000
Grayscale
1000
Grayscale
1070
   100
1002
}
  0
LINE
  5
4163
  8
YODOROGO
 10
27817.604341291921
 20
1747.749496429286
 30
0.0
 11
27801.604341291921
 21
1747.749496429286
 31
0.0
1001
AUTOCAD_POSTSCRIPT_FIGURE
1002
{
1000
PSFILL
1000
Grayscale
1000
Grayscale
1070
   100
1002
}
  0
LINE
  5
4164
  8
YODOROGO
 10
27817.604341291921
 20
1893.7713320852661
 30
0.0
 11
27817.604341291921
 21
1747.749496429286
 31
0.0
1001
AUTOCAD_POSTSCRIPT_FIGURE
1002
{
1000
PSFILL
1000
Grayscale
1000
Grayscale
1070
   100
1002
}
  0
LINE
  5
4165
  8
YODOROGO
 10
27841.604341291921
 20
1867.6547582841361
 30
0.0
 11
27817.604341291921
 21
1893.7713320852661
 31
0.0
1001
AUTOCAD_POSTSCRIPT_FIGURE
1002
{
1000
PSFILL
1000
Grayscale
1000
Grayscale
1070
   100
1002
}
  0
LINE
  5
4166
  8
YODOROGO
 10
27841.604341291921
 20
1883.6547582841361
 30
0.0
 11
27841.604341291921
 21
1867.6547582841361
 31
0.0
1001
AUTOCAD_POSTSCRIPT_FIGURE
1002
{
1000
PSFILL
1000
Grayscale
1000
Grayscale
1070
   100
1002
}
  0
LINE
  5
4167
  8
YODOROGO
 10
27817.604341291921
 20
1917.7713320852649
 30
0.0
 11
27841.604341291921
 21
1883.6547582841361
 31
0.0
1001
AUTOCAD_POSTSCRIPT_FIGURE
1002
{
1000
PSFILL
1000
Grayscale
1000
Grayscale
1070
   100
1002
}
  0
LINE
  5
4168
  8
YODOROGO
 10
27817.604341291921
 20
1939.749496429288
 30
0.0
 11
27817.604341291921
 21
1917.7713320852649
 31
0.0
1001
AUTOCAD_POSTSCRIPT_FIGURE
1002
{
1000
PSFILL
1000
Grayscale
1000
Grayscale
1070
   100
1002
}
  0
LINE
  5
4169
  8
YODOROGO
 10
27889.604341291921
 20
1939.749496429288
 30
0.0
 11
27817.604341291921
 21
1939.749496429288
 31
0.0
1001
AUTOCAD_POSTSCRIPT_FIGURE
1002
{
1000
PSFILL
1000
Grayscale
1000
Grayscale
1070
   100
1002
}
  0
LINE
  5
416A
  8
YODOROGO
 10
27889.604341291921
 20
1900.5683489363
 30
0.0
 11
27889.604341291921
 21
1939.749496429288
 31
0.0
1001
AUTOCAD_POSTSCRIPT_FIGURE
1002
{
1000
PSFILL
1000
Grayscale
1000
Grayscale
1070
   100
1002
}
  0
LINE
  5
416B
  8
YODOROGO
 10
27857.604341291921
 20
1900.5683489363
 30
0.0
 11
27889.604341291921
 21
1900.5683489363
 31
0.0
1001
AUTOCAD_POSTSCRIPT_FIGURE
1002
{
1000
PSFILL
1000
Grayscale
1000
Grayscale
1070
   100
1002
}
  0
LINE
  5
416C
  8
YODOROGO
 10
27857.604341291921
 20
1884.568348936298
 30
0.0
 11
27857.604341291921
 21
1900.5683489363
 31
0.0
1001
AUTOCAD_POSTSCRIPT_FIGURE
1002
{
1000
PSFILL
1000
Grayscale
1000
Grayscale
1070
   100
1002
}
  0
LINE
  5
416D
  8
YODOROGO
 10
27889.604341291921
 20
1884.568348936298
 30
0.0
 11
27857.604341291921
 21
1884.568348936298
 31
0.0
1001
AUTOCAD_POSTSCRIPT_FIGURE
1002
{
1000
PSFILL
1000
Grayscale
1000
Grayscale
1070
   100
1002
}
  0
LINE
  5
416E
  8
YODOROGO
 10
27889.604341291921
 20
1879.6191779644371
 30
0.0
 11
27889.604341291921
 21
1884.568348936298
 31
0.0
1001
AUTOCAD_POSTSCRIPT_FIGURE
1002
{
1000
PSFILL
1000
Grayscale
1000
Grayscale
1070
   100
1002
}
  0
LINE
  5
416F
  8
YODOROGO
 10
27849.604341291921
 20
1812.974981161417
 30
0.0
 11
27889.604341291921
 21
1879.6191779644371
 31
0.0
1001
AUTOCAD_POSTSCRIPT_FIGURE
1002
{
1000
PSFILL
1000
Grayscale
1000
Grayscale
1070
   100
1002
}
  0
LINE
  5
4170
  8
YODOROGO
 10
27849.604341291921
 20
1796.9749811614161
 30
0.0
 11
27849.604341291921
 21
1812.974981161417
 31
0.0
1001
AUTOCAD_POSTSCRIPT_FIGURE
1002
{
1000
PSFILL
1000
Grayscale
1000
Grayscale
1070
   100
1002
}
  0
LINE
  5
4171
  8
YODOROGO
 10
27889.604341291921
 20
1847.6191779644359
 30
0.0
 11
27849.604341291921
 21
1796.9749811614161
 31
0.0
1001
AUTOCAD_POSTSCRIPT_FIGURE
1002
{
1000
PSFILL
1000
Grayscale
1000
Grayscale
1070
   100
1002
}
  0
LINE
  5
4172
  8
YODOROGO
 10
27889.604341291921
 20
1747.749496429286
 30
0.0
 11
27889.604341291921
 21
1847.6191779644359
 31
0.0
1001
AUTOCAD_POSTSCRIPT_FIGURE
1002
{
1000
PSFILL
1000
Grayscale
1000
Grayscale
1070
   100
1002
}
  0
LINE
  5
4173
  8
YODOROGO
 10
27905.604341291921
 20
1747.749496429286
 30
0.0
 11
27889.604341291921
 21
1747.749496429286
 31
0.0
1001
AUTOCAD_POSTSCRIPT_FIGURE
1002
{
1000
PSFILL
1000
Grayscale
1000
Grayscale
1070
   100
1002
}
  0
LINE
  5
4174
  8
YODOROGO
 10
27905.604341291921
 20
1849.409012158806
 30
0.0
 11
27905.604341291921
 21
1747.749496429286
 31
0.0
1001
AUTOCAD_POSTSCRIPT_FIGURE
1002
{
1000
PSFILL
1000
Grayscale
1000
Grayscale
1070
   100
1002
}
  0
LINE
  5
4175
  8
YODOROGO
 10
27937.604341291921
 20
1796.9749811614161
 30
0.0
 11
27905.604341291921
 21
1849.409012158806
 31
0.0
1001
AUTOCAD_POSTSCRIPT_FIGURE
1002
{
1000
PSFILL
1000
Grayscale
1000
Grayscale
1070
   100
1002
}
  0
LINE
  5
4176
  8
YODOROGO
 10
27937.604341291921
 20
1812.974981161417
 30
0.0
 11
27937.604341291921
 21
1796.9749811614161
 31
0.0
1001
AUTOCAD_POSTSCRIPT_FIGURE
1002
{
1000
PSFILL
1000
Grayscale
1000
Grayscale
1070
   100
1002
}
  0
LINE
  5
4177
  8
YODOROGO
 10
27905.604341291921
 20
1881.4090121588081
 30
0.0
 11
27937.604341291921
 21
1812.974981161417
 31
0.0
1001
AUTOCAD_POSTSCRIPT_FIGURE
1002
{
1000
PSFILL
1000
Grayscale
1000
Grayscale
1070
   100
1002
}
  0
LINE
  5
4178
  8
YODOROGO
 10
27905.604341291921
 20
1884.5683489363
 30
0.0
 11
27905.604341291921
 21
1881.4090121588081
 31
0.0
1001
AUTOCAD_POSTSCRIPT_FIGURE
1002
{
1000
PSFILL
1000
Grayscale
1000
Grayscale
1070
   100
1002
}
  0
LINE
  5
4179
  8
YODOROGO
 10
27937.604341291921
 20
1884.568348936298
 30
0.0
 11
27905.604341291921
 21
1884.5683489363
 31
0.0
1001
AUTOCAD_POSTSCRIPT_FIGURE
1002
{
1000
PSFILL
1000
Grayscale
1000
Grayscale
1070
   100
1002
}
  0
LINE
  5
417A
  8
YODOROGO
 10
27937.604341291921
 20
1900.5683489363
 30
0.0
 11
27937.604341291921
 21
1884.568348936298
 31
0.0
1001
AUTOCAD_POSTSCRIPT_FIGURE
1002
{
1000
PSFILL
1000
Grayscale
1000
Grayscale
1070
   100
1002
}
  0
LINE
  5
417B
  8
YODOROGO
 10
27905.604341291921
 20
1900.5683489363
 30
0.0
 11
27937.604341291921
 21
1900.5683489363
 31
0.0
1001
AUTOCAD_POSTSCRIPT_FIGURE
1002
{
1000
PSFILL
1000
Grayscale
1000
Grayscale
1070
   100
1002
}
  0
LINE
  5
417C
  8
YODOROGO
 10
27905.604341291921
 20
1939.749496429288
 30
0.0
 11
27905.604341291921
 21
1900.5683489363
 31
0.0
1001
AUTOCAD_POSTSCRIPT_FIGURE
1002
{
1000
PSFILL
1000
Grayscale
1000
Grayscale
1070
   100
1002
}
  0
LINE
  5
417D
  8
YODOROGO
 10
27937.604341291921
 20
1939.749496429288
 30
0.0
 11
27905.604341291921
 21
1939.749496429288
 31
0.0
1001
AUTOCAD_POSTSCRIPT_FIGURE
1002
{
1000
PSFILL
1000
Grayscale
1000
Grayscale
1070
   100
1002
}
  0
LINE
  5
417E
  8
YODOROGO
 10
27937.604341291921
 20
1955.7494964292871
 30
0.0
 11
27937.604341291921
 21
1939.749496429288
 31
0.0
1001
AUTOCAD_POSTSCRIPT_FIGURE
1002
{
1000
PSFILL
1000
Grayscale
1000
Grayscale
1070
   100
1002
}
  0
LINE
  5
417F
  8
YODOROGO
 10
27905.604341291921
 20
1955.7494964292871
 30
0.0
 11
27937.604341291921
 21
1955.7494964292871
 31
0.0
1001
AUTOCAD_POSTSCRIPT_FIGURE
1002
{
1000
PSFILL
1000
Grayscale
1000
Grayscale
1070
   100
1002
}
  0
LINE
  5
4180
  8
YODOROGO
 10
27905.604341291921
 20
1979.749496429288
 30
0.0
 11
27905.604341291921
 21
1955.7494964292871
 31
0.0
1001
AUTOCAD_POSTSCRIPT_FIGURE
1002
{
1000
PSFILL
1000
Grayscale
1000
Grayscale
1070
   100
1002
}
  0
LINE
  5
4181
  8
YODOROGO
 10
27889.604341291921
 20
1979.749496429288
 30
0.0
 11
27905.604341291921
 21
1979.749496429288
 31
0.0
1001
AUTOCAD_POSTSCRIPT_FIGURE
1002
{
1000
PSFILL
1000
Grayscale
1000
Grayscale
1070
   100
1002
}
  0
LINE
  5
4182
  8
YODOROGO
 10
27889.604341291921
 20
1955.7494964292871
 30
0.0
 11
27889.604341291921
 21
1979.749496429288
 31
0.0
1001
AUTOCAD_POSTSCRIPT_FIGURE
1002
{
1000
PSFILL
1000
Grayscale
1000
Grayscale
1070
   100
1002
}
  0
LINE
  5
4183
  8
YODOROGO
 10
27865.604341291921
 20
1955.7494964292871
 30
0.0
 11
27889.604341291921
 21
1955.7494964292871
 31
0.0
1001
AUTOCAD_POSTSCRIPT_FIGURE
1002
{
1000
PSFILL
1000
Grayscale
1000
Grayscale
1070
   100
1002
}
  0
LINE
  5
4184
  8
YODOROGO
 10
27865.604341291921
 20
1979.749496429288
 30
0.0
 11
27865.604341291921
 21
1955.7494964292871
 31
0.0
1001
AUTOCAD_POSTSCRIPT_FIGURE
1002
{
1000
PSFILL
1000
Grayscale
1000
Grayscale
1070
   100
1002
}
  0
LINE
  5
4185
  8
YODOROGO
 10
27849.604341291921
 20
1979.749496429288
 30
0.0
 11
27865.604341291921
 21
1979.749496429288
 31
0.0
1001
AUTOCAD_POSTSCRIPT_FIGURE
1002
{
1000
PSFILL
1000
Grayscale
1000
Grayscale
1070
   100
1002
}
  0
LINE
  5
4186
  8
YODOROGO
 10
27849.604341291921
 20
1955.7494964292871
 30
0.0
 11
27849.604341291921
 21
1979.749496429288
 31
0.0
1001
AUTOCAD_POSTSCRIPT_FIGURE
1002
{
1000
PSFILL
1000
Grayscale
1000
Grayscale
1070
   100
1002
}
  0
LINE
  5
4187
  8
YODOROGO
 10
27817.604341291921
 20
1955.7494964292871
 30
0.0
 11
27849.604341291921
 21
1955.7494964292871
 31
0.0
1001
AUTOCAD_POSTSCRIPT_FIGURE
1002
{
1000
PSFILL
1000
Grayscale
1000
Grayscale
1070
   100
1002
}
  0
LINE
  5
4188
  8
YODOROGO
 10
27817.604341291921
 20
1979.749496429288
 30
0.0
 11
27817.604341291921
 21
1955.7494964292871
 31
0.0
1001
AUTOCAD_POSTSCRIPT_FIGURE
1002
{
1000
PSFILL
1000
Grayscale
1000
Grayscale
1070
   100
1002
}
  0
LINE
  5
4189
  8
YODOROGO
 10
27801.604341291921
 20
1979.749496429288
 30
0.0
 11
27817.604341291921
 21
1979.749496429288
 31
0.0
1001
AUTOCAD_POSTSCRIPT_FIGURE
1002
{
1000
PSFILL
1000
Grayscale
1000
Grayscale
1070
   100
1002
}
  0
LINE
  5
418A
  8
YODOROGO
 10
27801.604341291921
 20
1955.7494964292871
 30
0.0
 11
27801.604341291921
 21
1979.749496429288
 31
0.0
1001
AUTOCAD_POSTSCRIPT_FIGURE
1002
{
1000
PSFILL
1000
Grayscale
1000
Grayscale
1070
   100
1002
}
  0
LINE
  5
418B
  8
YODOROGO
 10
27777.604341291921
 20
1955.7494964292871
 30
0.0
 11
27801.604341291921
 21
1955.7494964292871
 31
0.0
1001
AUTOCAD_POSTSCRIPT_FIGURE
1002
{
1000
PSFILL
1000
Grayscale
1000
Grayscale
1070
   100
1002
}
  0
LINE
  5
418C
  8
YODOROGO
 10
27777.604341291921
 20
1939.749496429288
 30
0.0
 11
27777.604341291921
 21
1955.7494964292871
 31
0.0
1001
AUTOCAD_POSTSCRIPT_FIGURE
1002
{
1000
PSFILL
1000
Grayscale
1000
Grayscale
1070
   100
1002
}
  0
LINE
  5
418D
  8
YODOROGO
 10
27801.604341291921
 20
1939.749496429288
 30
0.0
 11
27777.604341291921
 21
1939.749496429288
 31
0.0
1001
AUTOCAD_POSTSCRIPT_FIGURE
1002
{
1000
PSFILL
1000
Grayscale
1000
Grayscale
1070
   100
1002
}
  0
LINE
  5
418E
  8
YODOROGO
 10
27801.604341291921
 20
1914.7865807937051
 30
0.0
 11
27801.604341291921
 21
1939.749496429288
 31
0.0
1001
AUTOCAD_POSTSCRIPT_FIGURE
1002
{
1000
PSFILL
1000
Grayscale
1000
Grayscale
1070
   100
1002
}
  0
LINE
  5
418F
  8
YODOROGO
 10
27777.604341291921
 20
1859.776747951671
 30
0.0
 11
27801.604341291921
 21
1914.7865807937051
 31
0.0
1001
AUTOCAD_POSTSCRIPT_FIGURE
1002
{
1000
PSFILL
1000
Grayscale
1000
Grayscale
1070
   100
1002
}
  0
LINE
  5
4190
  8
YODOROGO
 10
27777.604341291921
 20
1843.776747951672
 30
0.0
 11
27777.604341291921
 21
1859.776747951671
 31
0.0
1001
AUTOCAD_POSTSCRIPT_FIGURE
1002
{
1000
PSFILL
1000
Grayscale
1000
Grayscale
1070
   100
1002
}
  0
LINE
  5
4191
  8
YODOROGO
 10
28257.604341291921
 20
1867.7494964292871
 30
0.0
 11
28401.60434129191
 21
1824.877625640306
 31
0.0
1001
AUTOCAD_POSTSCRIPT_FIGURE
1002
{
1000
PSFILL
1000
Grayscale
1000
Grayscale
1070
   100
1002
}
  0
LINE
  5
4192
  8
YODOROGO
 10
28401.60434129191
 20
1752.877625640306
 30
0.0
 11
28257.604341291921
 21
1795.7494964292871
 31
0.0
1001
AUTOCAD_POSTSCRIPT_FIGURE
1002
{
1000
PSFILL
1000
Grayscale
1000
Grayscale
1070
   100
1002
}
  0
LINE
  5
4193
  8
YODOROGO
 10
28401.60434129191
 20
1984.877625640306
 30
0.0
 11
28257.604341291921
 21
2027.749496429288
 31
0.0
1001
AUTOCAD_POSTSCRIPT_FIGURE
1002
{
1000
PSFILL
1000
Grayscale
1000
Grayscale
1070
   100
1002
}
  0
LINE
  5
4194
  8
YODOROGO
 10
28257.604341291921
 20
1959.749496429288
 30
0.0
 11
28401.60434129191
 21
1916.8776256403071
 31
0.0
1001
AUTOCAD_POSTSCRIPT_FIGURE
1002
{
1000
PSFILL
1000
Grayscale
1000
Grayscale
1070
   100
1002
}
  0
LINE
  5
4195
  8
YODOROGO
 10
28257.604341291921
 20
1795.7494964292871
 30
0.0
 11
28257.604341291921
 21
1867.7494964292871
 31
0.0
1001
AUTOCAD_POSTSCRIPT_FIGURE
1002
{
1000
PSFILL
1000
Grayscale
1000
Grayscale
1070
   100
1002
}
  0
LINE
  5
4196
  8
YODOROGO
 10
28257.604341291921
 20
2027.749496429288
 30
0.0
 11
28257.604341291921
 21
1959.749496429288
 31
0.0
1001
AUTOCAD_POSTSCRIPT_FIGURE
1002
{
1000
PSFILL
1000
Grayscale
1000
Grayscale
1070
   100
1002
}
  0
LINE
  5
4197
  8
YODOROGO
 10
28080.236320206739
 20
1939.749496429288
 30
0.0
 11
28129.60434129191
 21
1747.749496429286
 31
0.0
1001
AUTOCAD_POSTSCRIPT_FIGURE
1002
{
1000
PSFILL
1000
Grayscale
1000
Grayscale
1070
   100
1002
}
  0
LINE
  5
4198
  8
YODOROGO
 10
27977.604341291921
 20
1939.749496429288
 30
0.0
 11
28080.236320206739
 21
1939.749496429288
 31
0.0
1001
AUTOCAD_POSTSCRIPT_FIGURE
1002
{
1000
PSFILL
1000
Grayscale
1000
Grayscale
1070
   100
1002
}
  0
LINE
  5
4199
  8
YODOROGO
 10
27977.604341291921
 20
1955.7494964292871
 30
0.0
 11
27977.604341291921
 21
1939.749496429288
 31
0.0
1001
AUTOCAD_POSTSCRIPT_FIGURE
1002
{
1000
PSFILL
1000
Grayscale
1000
Grayscale
1070
   100
1002
}
  0
LINE
  5
419A
  8
YODOROGO
 10
28076.60687851991
 20
1955.7494964292871
 30
0.0
 11
27977.604341291921
 21
1955.7494964292871
 31
0.0
1001
AUTOCAD_POSTSCRIPT_FIGURE
1002
{
1000
PSFILL
1000
Grayscale
1000
Grayscale
1070
   100
1002
}
  0
LINE
  5
419B
  8
YODOROGO
 10
28071.162715989711
 20
1979.749496429288
 30
0.0
 11
28076.60687851991
 21
1955.7494964292871
 31
0.0
1001
AUTOCAD_POSTSCRIPT_FIGURE
1002
{
1000
PSFILL
1000
Grayscale
1000
Grayscale
1070
   100
1002
}
  0
LINE
  5
419C
  8
YODOROGO
 10
28091.162715989711
 20
1979.749496429288
 30
0.0
 11
28071.162715989711
 21
1979.749496429288
 31
0.0
1001
AUTOCAD_POSTSCRIPT_FIGURE
1002
{
1000
PSFILL
1000
Grayscale
1000
Grayscale
1070
   100
1002
}
  0
LINE
  5
419D
  8
YODOROGO
 10
28095.806878519939
 20
1955.7494964292871
 30
0.0
 11
28091.162715989711
 21
1979.749496429288
 31
0.0
1001
AUTOCAD_POSTSCRIPT_FIGURE
1002
{
1000
PSFILL
1000
Grayscale
1000
Grayscale
1070
   100
1002
}
  0
LINE
  5
419E
  8
YODOROGO
 10
28121.604341291921
 20
1955.7494964292871
 30
0.0
 11
28095.806878519939
 21
1955.7494964292871
 31
0.0
1001
AUTOCAD_POSTSCRIPT_FIGURE
1002
{
1000
PSFILL
1000
Grayscale
1000
Grayscale
1070
   100
1002
}
  0
LINE
  5
419F
  8
YODOROGO
 10
28121.604341291921
 20
1979.749496429288
 30
0.0
 11
28121.604341291921
 21
1955.7494964292871
 31
0.0
1001
AUTOCAD_POSTSCRIPT_FIGURE
1002
{
1000
PSFILL
1000
Grayscale
1000
Grayscale
1070
   100
1002
}
  0
LINE
  5
41A0
  8
YODOROGO
 10
28137.604341291921
 20
1979.749496429288
 30
0.0
 11
28121.604341291921
 21
1979.749496429288
 31
0.0
1001
AUTOCAD_POSTSCRIPT_FIGURE
1002
{
1000
PSFILL
1000
Grayscale
1000
Grayscale
1070
   100
1002
}
  0
LINE
  5
41A1
  8
YODOROGO
 10
28137.604341291921
 20
1955.7494964292871
 30
0.0
 11
28137.604341291921
 21
1979.749496429288
 31
0.0
1001
AUTOCAD_POSTSCRIPT_FIGURE
1002
{
1000
PSFILL
1000
Grayscale
1000
Grayscale
1070
   100
1002
}
  0
LINE
  5
41A2
  8
YODOROGO
 10
28137.604341291921
 20
1939.749496429288
 30
0.0
 11
28137.604341291921
 21
1955.7494964292871
 31
0.0
1001
AUTOCAD_POSTSCRIPT_FIGURE
1002
{
1000
PSFILL
1000
Grayscale
1000
Grayscale
1070
   100
1002
}
  0
LINE
  5
41A3
  8
YODOROGO
 10
28098.902986873411
 20
1939.749496429288
 30
0.0
 11
28137.604341291921
 21
1939.749496429288
 31
0.0
1001
AUTOCAD_POSTSCRIPT_FIGURE
1002
{
1000
PSFILL
1000
Grayscale
1000
Grayscale
1070
   100
1002
}
  0
LINE
  5
41A4
  8
YODOROGO
 10
28137.604341291921
 20
1747.749496429286
 30
0.0
 11
28098.902986873411
 21
1939.749496429288
 31
0.0
1001
AUTOCAD_POSTSCRIPT_FIGURE
1002
{
1000
PSFILL
1000
Grayscale
1000
Grayscale
1070
   100
1002
}
  0
LINE
  5
41A5
  8
YODOROGO
 10
28129.60434129191
 20
1747.749496429286
 30
0.0
 11
28137.604341291921
 21
1747.749496429286
 31
0.0
1001
AUTOCAD_POSTSCRIPT_FIGURE
1002
{
1000
PSFILL
1000
Grayscale
1000
Grayscale
1070
   100
1002
}
  0
LINE
  5
41A6
  8
YODOROGO
 10
28078.06921993379
 20
1775.7407762987939
 30
0.0
 11
27977.604341291921
 21
1747.749496429286
 31
0.0
  0
LINE
  5
41A7
  8
YODOROGO
 10
28078.06921993379
 20
1798.6689795290731
 30
0.0
 11
28078.06921993379
 21
1775.7407762987939
 31
0.0
  0
LINE
  5
41A8
  8
YODOROGO
 10
28033.83678061287
 20
1786.816933133767
 30
0.0
 11
28078.06921993379
 21
1798.6689795290731
 31
0.0
  0
LINE
  5
41A9
  8
YODOROGO
 10
28033.83678061287
 20
1872.5683489362989
 30
0.0
 11
28033.83678061287
 21
1786.816933133767
 31
0.0
  0
LINE
  5
41AA
  8
YODOROGO
 10
28078.06921993379
 20
1872.5683489362989
 30
0.0
 11
28033.83678061287
 21
1872.5683489362989
 31
0.0
  0
LINE
  5
41AB
  8
YODOROGO
 10
28078.06921993379
 20
1892.568348936298
 30
0.0
 11
28078.06921993379
 21
1872.5683489362989
 31
0.0
  0
LINE
  5
41AC
  8
YODOROGO
 10
27977.604341291921
 20
1892.568348936298
 30
0.0
 11
28078.06921993379
 21
1892.568348936298
 31
0.0
  0
LINE
  5
41AD
  8
YODOROGO
 10
27977.604341291921
 20
1872.5683489362989
 30
0.0
 11
27977.604341291921
 21
1892.568348936298
 31
0.0
  0
LINE
  5
41AE
  8
YODOROGO
 10
28021.836780612852
 20
1872.5683489362989
 30
0.0
 11
27977.604341291921
 21
1872.5683489362989
 31
0.0
  0
LINE
  5
41AF
  8
YODOROGO
 10
28021.836780612852
 20
1784.673339594317
 30
0.0
 11
28021.836780612852
 21
1872.5683489362989
 31
0.0
  0
LINE
  5
41B0
  8
YODOROGO
 10
27977.604341291921
 20
1771.749496429286
 30
0.0
 11
28021.836780612852
 21
1784.673339594317
 31
0.0
  0
LINE
  5
41B1
  8
YODOROGO
 10
27977.604341291921
 20
1747.749496429286
 30
0.0
 11
27977.604341291921
 21
1771.749496429286
 31
0.0
  0
LINE
  5
41B2
  8
YODOROGO
 10
28001.604341291921
 20
1707.749496429288
 30
0.0
 11
28001.604341291921
 21
1683.7494964292871
 31
0.0
  0
LINE
  5
41B3
  8
YODOROGO
 10
28017.604341291921
 20
1707.749496429288
 30
0.0
 11
28001.604341291921
 21
1707.749496429288
 31
0.0
  0
LINE
  5
41B4
  8
YODOROGO
 10
28017.604341291921
 20
1683.7494964292871
 30
0.0
 11
28017.604341291921
 21
1707.749496429288
 31
0.0
  0
LINE
  5
41B5
  8
YODOROGO
 10
28040.913204016892
 20
1683.7494964292871
 30
0.0
 11
28017.604341291921
 21
1683.7494964292871
 31
0.0
  0
LINE
  5
41B6
  8
YODOROGO
 10
28001.604341291921
 20
1683.7494964292871
 30
0.0
 11
27977.604341291921
 21
1683.7494964292871
 31
0.0
  0
LINE
  5
41B7
  8
YODOROGO
 10
28082.135520230921
 20
1707.749496429288
 30
0.0
 11
28098.135520230931
 21
1707.749496429288
 31
0.0
1001
AUTOCAD_POSTSCRIPT_FIGURE
1002
{
1000
PSFILL
1000
Grayscale
1000
Grayscale
1070
   100
1002
}
  0
LINE
  5
41B8
  8
YODOROGO
 10
28401.60434129191
 20
1824.877625640306
 30
0.0
 11
28401.60434129191
 21
1752.877625640306
 31
0.0
1001
AUTOCAD_POSTSCRIPT_FIGURE
1002
{
1000
PSFILL
1000
Grayscale
1000
Grayscale
1070
   100
1002
}
  0
LINE
  5
41B9
  8
YODOROGO
 10
28401.60434129191
 20
1916.8776256403071
 30
0.0
 11
28401.60434129191
 21
1984.877625640306
 31
0.0
1001
AUTOCAD_POSTSCRIPT_FIGURE
1002
{
1000
PSFILL
1000
Grayscale
1000
Grayscale
1070
   100
1002
}
  0
LINE
  5
41BA
  8
YODOROGO
 10
28433.60434129191
 20
1819.7494964292871
 30
0.0
 11
28433.60434129191
 21
1747.74949642929
 31
0.0
  0
LINE
  5
41BB
  8
YODOROGO
 10
28497.60434129191
 20
1707.749496429288
 30
0.0
 11
28433.60434129191
 21
1707.749496429288
 31
0.0
  0
LINE
  5
41BC
  8
YODOROGO
 10
28433.60434129191
 20
1747.74949642929
 30
0.0
 11
28585.604341291921
 21
1747.74949642929
 31
0.0
  0
LINE
  5
41BD
  8
YODOROGO
 10
28497.60434129191
 20
1867.7494964292871
 30
0.0
 11
28433.60434129191
 21
1867.7494964292871
 31
0.0
  0
LINE
  5
41BE
  8
YODOROGO
 10
28497.60434129191
 20
1923.7494964292871
 30
0.0
 11
28497.60434129191
 21
1867.7494964292871
 31
0.0
  0
LINE
  5
41BF
  8
YODOROGO
 10
28585.604341291921
 20
1987.7494964292871
 30
0.0
 11
28585.604341291921
 21
2027.749496429288
 31
0.0
  0
LINE
  5
41C0
  8
YODOROGO
 10
28433.60434129191
 20
1987.7494964292871
 30
0.0
 11
28585.604341291921
 21
1987.7494964292871
 31
0.0
  0
LINE
  5
41C1
  8
YODOROGO
 10
28433.60434129191
 20
1867.7494964292871
 30
0.0
 11
28433.60434129191
 21
1987.7494964292871
 31
0.0
  0
LINE
  5
41C2
  8
YODOROGO
 10
29001.60434129191
 20
2027.749496429288
 30
0.0
 11
29001.60434129191
 21
1619.749496429288
 31
0.0
  0
LINE
  5
41C3
  8
YODOROGO
 10
29073.604341291921
 20
1579.749496429288
 30
0.0
 11
29073.604341291921
 21
2027.749496429288
 31
0.0
  0
LINE
  5
41C4
  8
YODOROGO
 10
29261.604341291921
 20
1491.749496429286
 30
0.0
 11
29261.604341291921
 21
2007.749496429288
 31
0.0
  0
LINE
  5
41C5
  8
YODOROGO
 10
29197.604341291921
 20
2007.749496429288
 30
0.0
 11
29197.604341291921
 21
1491.749496429286
 31
0.0
  0
LINE
  5
41C6
  8
YODOROGO
 10
29385.604341291921
 20
2027.749496429288
 30
0.0
 11
29385.604341291921
 21
1427.749496429288
 31
0.0
  0
LINE
  5
41C7
  8
YODOROGO
 10
29457.604341291921
 20
1427.749496429288
 30
0.0
 11
29457.604341291921
 21
2027.749496429288
 31
0.0
  0
LINE
  5
41C8
  8
YODOROGO
 10
28657.604341291921
 20
1667.749496429288
 30
0.0
 11
28657.604341291921
 21
1747.74949642929
 31
0.0
  0
LINE
  5
41C9
  8
YODOROGO
 10
29885.604341291921
 20
1707.749496429288
 30
0.0
 11
29885.604341291921
 21
1667.749496429288
 31
0.0
  0
LINE
  5
41CA
  8
YODOROGO
 10
29885.604341291921
 20
1707.749496429288
 30
0.0
 11
29885.604341291921
 21
1667.749496429288
 31
0.0
  0
ARC
  5
41CB
  8
YODOROGO
 10
28906.911576186842
 20
1618.217864442272
 30
0.0
 40
94.705151178741644
 50
274.05244162907098
 51
0.9266642149310712
  0
ARC
  5
41CC
  8
YODOROGO
 10
28909.186170719819
 20
1592.61072861044
 30
0.0
 40
164.92042356085511
 50
271.5351210653775
 51
355.52727750585052
  0
LINE
  5
41CD
  8
YODOROGO
 10
28913.604341291921
 20
1523.7494964292871
 30
0.0
 11
28913.604341291921
 21
1427.749496429288
 31
0.0
  0
LINE
  5
41CE
  8
YODOROGO
 10
28793.60434129191
 20
1667.749496429288
 30
0.0
 11
28657.604341291921
 21
1667.749496429288
 31
0.0
  0
LINE
  5
41CF
  8
YODOROGO
 10
28793.60434129191
 20
1603.7494964292871
 30
0.0
 11
28793.60434129191
 21
1667.749496429288
 31
0.0
  0
LINE
  5
41D0
  8
YODOROGO
 10
28657.604341291921
 20
1603.7494964292871
 30
0.0
 11
28793.60434129191
 21
1603.7494964292871
 31
0.0
  0
LINE
  5
41D1
  8
YODOROGO
 10
28657.604341291921
 20
1523.7494964292871
 30
0.0
 11
28657.604341291921
 21
1603.7494964292871
 31
0.0
  0
LINE
  5
41D2
  8
YODOROGO
 10
28793.60434129191
 20
1523.7494964292871
 30
0.0
 11
28657.604341291921
 21
1523.7494964292871
 31
0.0
  0
LINE
  5
41D3
  8
YODOROGO
 10
28793.60434129191
 20
1427.749496429288
 30
0.0
 11
28793.60434129191
 21
1523.7494964292871
 31
0.0
  0
LINE
  5
41D4
  8
YODOROGO
 10
29197.604341291921
 20
1491.749496429286
 30
0.0
 11
29261.604341291921
 21
1491.749496429286
 31
0.0
  0
LINE
  5
41D5
  8
YODOROGO
 10
29385.604341291921
 20
1427.749496429288
 30
0.0
 11
29457.604341291921
 21
1427.749496429288
 31
0.0
  0
LINE
  5
41D6
  8
YODOROGO
 10
29737.604341291921
 20
1528.4414521705639
 30
0.0
 11
29737.604341291921
 21
1427.749496429288
 31
0.0
  0
LINE
  5
41D7
  8
YODOROGO
 10
29617.604341291921
 20
1427.749496429288
 30
0.0
 11
29737.604341291921
 21
1528.4414521705639
 31
0.0
  0
LINE
  5
41D8
  8
YODOROGO
 10
29617.604341291921
 20
1547.749496429288
 30
0.0
 11
29617.604341291921
 21
1427.749496429288
 31
0.0
  0
LINE
  5
41D9
  8
YODOROGO
 10
29712.94462869945
 20
1627.749496429288
 30
0.0
 11
29617.604341291921
 21
1547.749496429288
 31
0.0
  0
LINE
  5
41DA
  8
YODOROGO
 10
29617.604341291921
 20
1627.749496429288
 30
0.0
 11
29712.94462869945
 21
1627.749496429288
 31
0.0
  0
LINE
  5
41DB
  8
YODOROGO
 10
29617.604341291921
 20
1667.749496429288
 30
0.0
 11
29617.604341291921
 21
1627.749496429288
 31
0.0
  0
LINE
  5
41DC
  8
YODOROGO
 10
29885.604341291921
 20
1667.749496429288
 30
0.0
 11
29617.604341291921
 21
1667.749496429288
 31
0.0
  0
LINE
  5
41DD
  8
YODOROGO
 10
29917.604341291921
 20
1627.749496429288
 30
0.0
 11
29777.604341291921
 21
1627.749496429288
 31
0.0
  0
LINE
  5
41DE
  8
YODOROGO
 10
29777.604341291921
 20
1562.0054374176559
 30
0.0
 11
29771.409872985321
 21
1556.807661346234
 31
0.0
  0
LINE
  5
41DF
  8
YODOROGO
 10
29777.604341291921
 20
1627.749496429288
 30
0.0
 11
29777.604341291921
 21
1562.0054374176559
 31
0.0
  0
LINE
  5
41E0
  8
YODOROGO
 10
29737.604341291921
 20
1528.4414521705639
 30
0.0
 11
29737.604341291921
 21
1427.749496429288
 31
0.0
  0
LINE
  5
41E1
  8
YODOROGO
 10
29617.604341291921
 20
1427.749496429288
 30
0.0
 11
29737.604341291921
 21
1528.4414521705639
 31
0.0
  0
LINE
  5
41E2
  8
YODOROGO
 10
29617.604341291921
 20
1547.749496429288
 30
0.0
 11
29617.604341291921
 21
1427.749496429288
 31
0.0
  0
LINE
  5
41E3
  8
YODOROGO
 10
29712.94462869945
 20
1627.749496429288
 30
0.0
 11
29617.604341291921
 21
1547.749496429288
 31
0.0
  0
LINE
  5
41E4
  8
YODOROGO
 10
29617.604341291921
 20
1627.749496429288
 30
0.0
 11
29712.94462869945
 21
1627.749496429288
 31
0.0
  0
LINE
  5
41E5
  8
YODOROGO
 10
29617.604341291921
 20
1667.749496429288
 30
0.0
 11
29617.604341291921
 21
1627.749496429288
 31
0.0
  0
LINE
  5
41E6
  8
YODOROGO
 10
29885.604341291921
 20
1667.749496429288
 30
0.0
 11
29617.604341291921
 21
1667.749496429288
 31
0.0
  0
LINE
  5
41E7
  8
YODOROGO
 10
28793.60434129191
 20
1747.74949642929
 30
0.0
 11
28793.60434129191
 21
1819.7494964292871
 31
0.0
  0
LINE
  5
41E8
  8
YODOROGO
 10
28657.604341291921
 20
1747.74949642929
 30
0.0
 11
28793.60434129191
 21
1747.74949642929
 31
0.0
  0
LINE
  5
41E9
  8
YODOROGO
 10
28729.604341291921
 20
1867.7494964292871
 30
0.0
 11
28729.604341291921
 21
1923.7494964292871
 31
0.0
  0
LINE
  5
41EA
  8
YODOROGO
 10
28793.60434129191
 20
1867.7494964292871
 30
0.0
 11
28729.604341291921
 21
1867.7494964292871
 31
0.0
  0
LINE
  5
41EB
  8
YODOROGO
 10
28793.60434129191
 20
1947.749496429288
 30
0.0
 11
28793.60434129191
 21
1867.7494964292871
 31
0.0
  0
ARC
  5
41EC
  8
YODOROGO
 10
28753.60434129191
 20
1947.749496429288
 30
0.0
 40
40.0
 50
0.0
 51
90.0
  0
LINE
  5
41ED
  8
YODOROGO
 10
28657.604341291921
 20
1987.7494964292871
 30
0.0
 11
28753.60434129191
 21
1987.7494964292871
 31
0.0
  0
LINE
  5
41EE
  8
YODOROGO
 10
28657.604341291921
 20
2027.749496429288
 30
0.0
 11
28657.604341291921
 21
1987.7494964292871
 31
0.0
  0
LINE
  5
41EF
  8
YODOROGO
 10
29073.604341291921
 20
2027.749496429288
 30
0.0
 11
29001.60434129191
 21
2027.749496429288
 31
0.0
  0
LINE
  5
41F0
  8
YODOROGO
 10
29261.604341291921
 20
2007.749496429288
 30
0.0
 11
29197.604341291921
 21
2007.749496429288
 31
0.0
  0
LINE
  5
41F1
  8
YODOROGO
 10
29457.604341291921
 20
2027.749496429288
 30
0.0
 11
29385.604341291921
 21
2027.749496429288
 31
0.0
  0
LINE
  5
41F2
  8
YODOROGO
 10
29673.604341291921
 20
1707.749496429288
 30
0.0
 11
29673.604341291921
 21
1771.7494964292871
 31
0.0
1001
AUTOCAD_POSTSCRIPT_FIGURE
1002
{
1000
PSFILL
1000
Grayscale
1000
Grayscale
1070
    25
1002
}
  0
LINE
  5
41F3
  8
YODOROGO
 10
29617.604341291921
 20
1707.749496429288
 30
0.0
 11
29673.604341291921
 21
1707.749496429288
 31
0.0
1001
AUTOCAD_POSTSCRIPT_FIGURE
1002
{
1000
PSFILL
1000
Grayscale
1000
Grayscale
1070
    25
1002
}
  0
LINE
  5
41F4
  8
YODOROGO
 10
29617.604341291921
 20
1819.7494964292871
 30
0.0
 11
29617.604341291921
 21
1707.749496429288
 31
0.0
1001
AUTOCAD_POSTSCRIPT_FIGURE
1002
{
1000
PSFILL
1000
Grayscale
1000
Grayscale
1070
    25
1002
}
  0
LINE
  5
41F5
  8
YODOROGO
 10
29765.604341291921
 20
1819.7494964292871
 30
0.0
 11
29617.604341291921
 21
1819.7494964292871
 31
0.0
1001
AUTOCAD_POSTSCRIPT_FIGURE
1002
{
1000
PSFILL
1000
Grayscale
1000
Grayscale
1070
    25
1002
}
  0
LINE
  5
41F6
  8
YODOROGO
 10
29765.604341291921
 20
1859.749496429288
 30
0.0
 11
29765.604341291921
 21
1819.7494964292871
 31
0.0
1001
AUTOCAD_POSTSCRIPT_FIGURE
1002
{
1000
PSFILL
1000
Grayscale
1000
Grayscale
1070
    25
1002
}
  0
LINE
  5
41F7
  8
YODOROGO
 10
29617.604341291921
 20
1859.749496429288
 30
0.0
 11
29765.604341291921
 21
1859.749496429288
 31
0.0
1001
AUTOCAD_POSTSCRIPT_FIGURE
1002
{
1000
PSFILL
1000
Grayscale
1000
Grayscale
1070
    25
1002
}
  0
LINE
  5
41F8
  8
YODOROGO
 10
29617.604341291921
 20
1907.7494964292871
 30
0.0
 11
29617.604341291921
 21
1859.749496429288
 31
0.0
1001
AUTOCAD_POSTSCRIPT_FIGURE
1002
{
1000
PSFILL
1000
Grayscale
1000
Grayscale
1070
    25
1002
}
  0
LINE
  5
41F9
  8
YODOROGO
 10
29765.604341291921
 20
1907.7494964292871
 30
0.0
 11
29617.604341291921
 21
1907.7494964292871
 31
0.0
1001
AUTOCAD_POSTSCRIPT_FIGURE
1002
{
1000
PSFILL
1000
Grayscale
1000
Grayscale
1070
    25
1002
}
  0
LINE
  5
41FA
  8
YODOROGO
 10
29765.604341291921
 20
1947.749496429288
 30
0.0
 11
29765.604341291921
 21
1907.7494964292871
 31
0.0
1001
AUTOCAD_POSTSCRIPT_FIGURE
1002
{
1000
PSFILL
1000
Grayscale
1000
Grayscale
1070
    25
1002
}
  0
LINE
  5
41FB
  8
YODOROGO
 10
29617.604341291921
 20
1947.749496429288
 30
0.0
 11
29765.604341291921
 21
1947.749496429288
 31
0.0
1001
AUTOCAD_POSTSCRIPT_FIGURE
1002
{
1000
PSFILL
1000
Grayscale
1000
Grayscale
1070
    25
1002
}
  0
LINE
  5
41FC
  8
YODOROGO
 10
29617.604341291921
 20
2027.749496429288
 30
0.0
 11
29617.604341291921
 21
1947.749496429288
 31
0.0
1001
AUTOCAD_POSTSCRIPT_FIGURE
1002
{
1000
PSFILL
1000
Grayscale
1000
Grayscale
1070
    25
1002
}
  0
LINE
  5
41FD
  8
YODOROGO
 10
29665.604341291921
 20
2027.749496429288
 30
0.0
 11
29617.604341291921
 21
2027.749496429288
 31
0.0
1001
AUTOCAD_POSTSCRIPT_FIGURE
1002
{
1000
PSFILL
1000
Grayscale
1000
Grayscale
1070
    25
1002
}
  0
LINE
  5
41FE
  8
YODOROGO
 10
29665.604341291921
 20
1995.7494964292871
 30
0.0
 11
29665.604341291921
 21
2027.749496429288
 31
0.0
1001
AUTOCAD_POSTSCRIPT_FIGURE
1002
{
1000
PSFILL
1000
Grayscale
1000
Grayscale
1070
    25
1002
}
  0
LINE
  5
41FF
  8
YODOROGO
 10
29765.604341291921
 20
1995.7494964292871
 30
0.0
 11
29665.604341291921
 21
1995.7494964292871
 31
0.0
1001
AUTOCAD_POSTSCRIPT_FIGURE
1002
{
1000
PSFILL
1000
Grayscale
1000
Grayscale
1070
    25
1002
}
  0
LINE
  5
4200
  8
YODOROGO
 10
29765.604341291921
 20
2027.749496429288
 30
0.0
 11
29765.604341291921
 21
1995.7494964292871
 31
0.0
1001
AUTOCAD_POSTSCRIPT_FIGURE
1002
{
1000
PSFILL
1000
Grayscale
1000
Grayscale
1070
    25
1002
}
  0
LINE
  5
4201
  8
YODOROGO
 10
29829.604341291921
 20
2027.749496429288
 30
0.0
 11
29765.604341291921
 21
2027.749496429288
 31
0.0
1001
AUTOCAD_POSTSCRIPT_FIGURE
1002
{
1000
PSFILL
1000
Grayscale
1000
Grayscale
1070
    25
1002
}
  0
LINE
  5
4202
  8
YODOROGO
 10
29829.604341291921
 20
1995.7494964292871
 30
0.0
 11
29829.604341291921
 21
2027.749496429288
 31
0.0
1001
AUTOCAD_POSTSCRIPT_FIGURE
1002
{
1000
PSFILL
1000
Grayscale
1000
Grayscale
1070
    25
1002
}
  0
LINE
  5
4203
  8
YODOROGO
 10
29829.604341291921
 20
1907.7494964292871
 30
0.0
 11
29829.604341291921
 21
1947.749496429288
 31
0.0
1001
AUTOCAD_POSTSCRIPT_FIGURE
1002
{
1000
PSFILL
1000
Grayscale
1000
Grayscale
1070
    25
1002
}
  0
LINE
  5
4204
  8
YODOROGO
 10
29829.604341291921
 20
1819.7494964292871
 30
0.0
 11
29829.604341291921
 21
1859.749496429288
 31
0.0
1001
AUTOCAD_POSTSCRIPT_FIGURE
1002
{
1000
PSFILL
1000
Grayscale
1000
Grayscale
1070
    25
1002
}
  0
LINE
  5
4205
  8
YODOROGO
 10
29921.60434129191
 20
1771.7494964292871
 30
0.0
 11
29921.60434129191
 21
1707.749496429288
 31
0.0
1001
AUTOCAD_POSTSCRIPT_FIGURE
1002
{
1000
PSFILL
1000
Grayscale
1000
Grayscale
1070
    25
1002
}
  0
LINE
  5
4206
  8
YODOROGO
 10
29829.604341291921
 20
1771.7494964292871
 30
0.0
 11
29921.60434129191
 21
1771.7494964292871
 31
0.0
1001
AUTOCAD_POSTSCRIPT_FIGURE
1002
{
1000
PSFILL
1000
Grayscale
1000
Grayscale
1070
    25
1002
}
  0
LINE
  5
4207
  8
YODOROGO
 10
29829.604341291921
 20
1707.749496429288
 30
0.0
 11
29829.604341291921
 21
1771.7494964292871
 31
0.0
1001
AUTOCAD_POSTSCRIPT_FIGURE
1002
{
1000
PSFILL
1000
Grayscale
1000
Grayscale
1070
    25
1002
}
  0
LINE
  5
4208
  8
YODOROGO
 10
29765.604341291921
 20
1707.749496429288
 30
0.0
 11
29829.604341291921
 21
1707.749496429288
 31
0.0
1001
AUTOCAD_POSTSCRIPT_FIGURE
1002
{
1000
PSFILL
1000
Grayscale
1000
Grayscale
1070
    25
1002
}
  0
LINE
  5
4209
  8
YODOROGO
 10
29765.604341291921
 20
1771.7494964292871
 30
0.0
 11
29765.604341291921
 21
1707.749496429288
 31
0.0
1001
AUTOCAD_POSTSCRIPT_FIGURE
1002
{
1000
PSFILL
1000
Grayscale
1000
Grayscale
1070
    25
1002
}
  0
LINE
  5
420A
  8
YODOROGO
 10
29673.604341291921
 20
1771.7494964292871
 30
0.0
 11
29765.604341291921
 21
1771.7494964292871
 31
0.0
1001
AUTOCAD_POSTSCRIPT_FIGURE
1002
{
1000
PSFILL
1000
Grayscale
1000
Grayscale
1070
    25
1002
}
  0
ARC
  5
420B
  8
YODOROGO
 10
31059.517893357912
 20
1602.6807375155761
 30
0.0
 40
178.22128111072141
 50
281.02627495425338
 51
357.77113575573799
  0
LINE
  5
420C
  8
YODOROGO
 10
31413.604341291921
 20
1907.7494964292871
 30
0.0
 11
31165.604341291921
 21
1907.7494964292871
 31
0.0
  0
LINE
  5
420D
  8
YODOROGO
 10
31413.604341291921
 20
2027.749496429288
 30
0.0
 11
31165.604341291921
 21
2027.749496429288
 31
0.0
  0
LINE
  5
420E
  8
YODOROGO
 10
31165.604341291921
 20
1963.749496429286
 30
0.0
 11
31413.604341291921
 21
1963.749496429286
 31
0.0
  0
LINE
  5
420F
  8
YODOROGO
 10
30791.604341291921
 20
1563.7494964292871
 30
0.0
 11
30791.604341291921
 21
1755.7494964292871
 31
0.0
  0
LINE
  5
4210
  8
YODOROGO
 10
30763.604341291921
 20
1691.749496429288
 30
0.0
 11
30763.604341291921
 21
1563.7494964292871
 31
0.0
  0
LINE
  5
4211
  8
YODOROGO
 10
30723.604341291921
 20
1491.749496429288
 30
0.0
 11
30723.604341291921
 21
1691.749496429288
 31
0.0
  0
LINE
  5
4212
  8
YODOROGO
 10
30899.604341291932
 20
1691.749496429288
 30
0.0
 11
30899.604341291932
 21
1491.749496429288
 31
0.0
  0
LINE
  5
4213
  8
YODOROGO
 10
30859.604341291932
 20
1563.7494964292871
 30
0.0
 11
30859.604341291932
 21
1691.749496429288
 31
0.0
  0
LINE
  5
4214
  8
YODOROGO
 10
30831.604341291921
 20
1755.7494964292871
 30
0.0
 11
30831.604341291921
 21
1563.7494964292871
 31
0.0
  0
LINE
  5
4215
  8
YODOROGO
 10
30973.604341291921
 20
2027.749496429288
 30
0.0
 11
30973.604341291921
 21
1467.749496429288
 31
0.0
  0
LINE
  5
4216
  8
YODOROGO
 10
30645.604341291921
 20
1427.749496429288
 30
0.0
 11
30645.604341291921
 21
2027.749496429288
 31
0.0
  0
LINE
  5
4217
  8
YODOROGO
 10
30697.604341291932
 20
1963.749496429286
 30
0.0
 11
30697.604341291932
 21
1427.749496429288
 31
0.0
  0
LINE
  5
4218
  8
YODOROGO
 10
30925.604341291921
 20
1547.749496429288
 30
0.0
 11
30925.604341291921
 21
1963.749496429286
 31
0.0
  0
LINE
  5
4219
  8
YODOROGO
 10
30381.604341291932
 20
1627.749496429288
 30
0.0
 11
30381.604341291932
 21
1679.749496429288
 31
0.0
  0
LINE
  5
421A
  8
YODOROGO
 10
30617.604341291921
 20
1679.749496429288
 30
0.0
 11
30617.604341291921
 21
1627.749496429288
 31
0.0
  0
LINE
  5
421B
  8
YODOROGO
 10
31165.604341291921
 20
1907.7494964292871
 30
0.0
 11
31165.604341291921
 21
1635.7494964292871
 31
0.0
  0
LINE
  5
421C
  8
YODOROGO
 10
29949.60434129191
 20
1667.749496429288
 30
0.0
 11
29949.60434129191
 21
1707.749496429288
 31
0.0
  0
LINE
  5
421D
  8
YODOROGO
 10
29949.60434129191
 20
1667.749496429288
 30
0.0
 11
29949.60434129191
 21
1707.749496429288
 31
0.0
  0
ARC
  5
421E
  8
YODOROGO
 10
30537.604341291921
 20
1507.749496429288
 30
0.0
 40
80.0
 50
270.0
 51
0.0
  0
LINE
  5
421F
  8
YODOROGO
 10
30569.604341291921
 20
1599.7494964292871
 30
0.0
 11
30617.604341291921
 21
1599.7494964292871
 31
0.0
  0
LINE
  5
4220
  8
YODOROGO
 10
30617.604341291921
 20
1627.749496429288
 30
0.0
 11
30529.604341291939
 21
1627.749496429288
 31
0.0
  0
LINE
  5
4221
  8
YODOROGO
 10
30217.604341291921
 20
1667.749496429288
 30
0.0
 11
29949.60434129191
 21
1667.749496429288
 31
0.0
  0
LINE
  5
4222
  8
YODOROGO
 10
30217.604341291921
 20
1627.749496429288
 30
0.0
 11
30217.604341291921
 21
1667.749496429288
 31
0.0
  0
LINE
  5
4223
  8
YODOROGO
 10
30017.604341291921
 20
1627.749496429288
 30
0.0
 11
30217.604341291921
 21
1627.749496429288
 31
0.0
  0
ARC
  5
4224
  8
YODOROGO
 10
30230.05882870136
 20
1868.885714952901
 30
0.0
 40
321.37763628522822
 50
228.6181454618993
 51
245.660289248906
  0
LINE
  5
4225
  8
YODOROGO
 10
30105.604341291921
 20
1603.7494964292871
 30
0.0
 11
30097.60434129195
 21
1576.0728158699001
 31
0.0
  0
LINE
  5
4226
  8
YODOROGO
 10
30189.604341291921
 20
1603.7494964292871
 30
0.0
 11
30105.604341291921
 21
1603.7494964292871
 31
0.0
  0
LINE
  5
4227
  8
YODOROGO
 10
30177.604341291921
 20
1551.817722473427
 30
0.0
 11
30189.604341291921
 21
1603.7494964292871
 31
0.0
  0
ARC
  5
4228
  8
YODOROGO
 10
30230.05882870045
 20
1868.885714953002
 30
0.0
 40
321.37763628529081
 50
260.60629297969911
 51
267.77903556555862
  0
LINE
  5
4229
  8
YODOROGO
 10
30217.604341291921
 20
1427.749496429285
 30
0.0
 11
30217.604341291921
 21
1547.749496429288
 31
0.0
  0
LINE
  5
422A
  8
YODOROGO
 10
29937.604341291932
 20
1481.3393349155101
 30
0.0
 11
29937.604341291921
 21
1594.531090531141
 31
0.0
  0
LINE
  5
422B
  8
YODOROGO
 10
30217.604341291921
 20
1667.749496429288
 30
0.0
 11
29949.60434129191
 21
1667.749496429288
 31
0.0
  0
LINE
  5
422C
  8
YODOROGO
 10
30217.604341291921
 20
1627.749496429288
 30
0.0
 11
30217.604341291921
 21
1667.749496429288
 31
0.0
  0
LINE
  5
422D
  8
YODOROGO
 10
30017.604341291921
 20
1627.749496429288
 30
0.0
 11
30217.604341291921
 21
1627.749496429288
 31
0.0
  0
ARC
  5
422E
  8
YODOROGO
 10
30230.05882870136
 20
1868.885714952901
 30
0.0
 40
321.37763628522822
 50
228.6181454618993
 51
245.660289248906
  0
LINE
  5
422F
  8
YODOROGO
 10
30105.604341291921
 20
1603.7494964292871
 30
0.0
 11
30097.60434129195
 21
1576.0728158699001
 31
0.0
  0
LINE
  5
4230
  8
YODOROGO
 10
30189.604341291921
 20
1603.7494964292871
 30
0.0
 11
30105.604341291921
 21
1603.7494964292871
 31
0.0
  0
LINE
  5
4231
  8
YODOROGO
 10
30177.604341291921
 20
1551.817722473427
 30
0.0
 11
30189.604341291921
 21
1603.7494964292871
 31
0.0
  0
ARC
  5
4232
  8
YODOROGO
 10
30230.05882870045
 20
1868.885714953002
 30
0.0
 40
321.37763628529081
 50
260.60629297969911
 51
267.77903556555862
  0
LINE
  5
4233
  8
YODOROGO
 10
30217.604341291921
 20
1427.749496429285
 30
0.0
 11
30217.604341291921
 21
1547.749496429288
 31
0.0
  0
LINE
  5
4234
  8
YODOROGO
 10
29937.604341291932
 20
1481.3393349155101
 30
0.0
 11
29937.604341291921
 21
1594.531090531141
 31
0.0
  0
LINE
  5
4235
  8
YODOROGO
 10
30433.604341291921
 20
1573.749496429288
 30
0.0
 11
30381.604341291932
 21
1573.749496429288
 31
0.0
  0
LINE
  5
4236
  8
YODOROGO
 10
30433.604341291921
 20
1601.749496429285
 30
0.0
 11
30433.604341291921
 21
1573.749496429288
 31
0.0
  0
LINE
  5
4237
  8
YODOROGO
 10
30381.604341291932
 20
1601.749496429285
 30
0.0
 11
30433.604341291921
 21
1601.749496429285
 31
0.0
  0
LINE
  5
4238
  8
YODOROGO
 10
30381.604341291932
 20
1573.749496429288
 30
0.0
 11
30381.604341291932
 21
1601.749496429285
 31
0.0
  0
LINE
  5
4239
  8
YODOROGO
 10
30429.604341291921
 20
1577.7494964292871
 30
0.0
 11
30385.604341291921
 21
1577.7494964292871
 31
0.0
  0
LINE
  5
423A
  8
YODOROGO
 10
30429.604341291921
 20
1597.749496429288
 30
0.0
 11
30429.604341291921
 21
1577.7494964292871
 31
0.0
  0
LINE
  5
423B
  8
YODOROGO
 10
30385.604341291921
 20
1597.749496429288
 30
0.0
 11
30429.604341291921
 21
1597.749496429288
 31
0.0
  0
LINE
  5
423C
  8
YODOROGO
 10
30385.604341291921
 20
1577.7494964292871
 30
0.0
 11
30385.604341291921
 21
1597.749496429288
 31
0.0
  0
LINE
  5
423D
  8
YODOROGO
 10
30425.604341291921
 20
1581.749496429286
 30
0.0
 11
30389.604341291921
 21
1581.749496429286
 31
0.0
  0
LINE
  5
423E
  8
YODOROGO
 10
30425.604341291921
 20
1593.749496429288
 30
0.0
 11
30425.604341291921
 21
1581.749496429286
 31
0.0
  0
LINE
  5
423F
  8
YODOROGO
 10
30389.604341291921
 20
1593.749496429288
 30
0.0
 11
30425.604341291921
 21
1593.749496429288
 31
0.0
  0
LINE
  5
4240
  8
YODOROGO
 10
30389.604341291921
 20
1581.749496429286
 30
0.0
 11
30389.604341291921
 21
1593.749496429288
 31
0.0
  0
LINE
  5
4241
  8
YODOROGO
 10
30421.604341291932
 20
1585.7494964292871
 30
0.0
 11
30393.604341291921
 21
1585.7494964292871
 31
0.0
  0
LINE
  5
4242
  8
YODOROGO
 10
30421.604341291932
 20
1589.749496429288
 30
0.0
 11
30421.604341291932
 21
1585.7494964292871
 31
0.0
  0
LINE
  5
4243
  8
YODOROGO
 10
30393.604341291921
 20
1589.749496429288
 30
0.0
 11
30421.604341291932
 21
1589.749496429288
 31
0.0
  0
LINE
  5
4244
  8
YODOROGO
 10
30393.604341291921
 20
1585.7494964292871
 30
0.0
 11
30393.604341291921
 21
1589.749496429288
 31
0.0
  0
LINE
  5
4245
  8
YODOROGO
 10
30465.604341291921
 20
1627.749496429288
 30
0.0
 11
30381.604341291932
 21
1627.749496429288
 31
0.0
  0
LINE
  5
4246
  8
YODOROGO
 10
30465.604341291921
 20
1547.749496429288
 30
0.0
 11
30465.604341291921
 21
1627.749496429288
 31
0.0
  0
LINE
  5
4247
  8
YODOROGO
 10
30381.604341291932
 20
1547.749496429288
 30
0.0
 11
30465.604341291921
 21
1547.749496429288
 31
0.0
  0
LINE
  5
4248
  8
YODOROGO
 10
30381.604341291932
 20
1427.749496429288
 30
0.0
 11
30381.604341291932
 21
1547.749496429288
 31
0.0
  0
LINE
  5
4249
  8
YODOROGO
 10
30537.604341291921
 20
1427.749496429288
 30
0.0
 11
30381.604341291932
 21
1427.749496429288
 31
0.0
  0
LINE
  5
424A
  8
YODOROGO
 10
30569.604341291921
 20
1571.749496429285
 30
0.0
 11
30569.604341291921
 21
1599.7494964292871
 31
0.0
  0
ARC
  5
424B
  8
YODOROGO
 10
30545.604341291921
 20
1571.749496429291
 30
0.0
 40
24.000000000003752
 50
270.0
 51
359.99999999998772
  0
LINE
  5
424C
  8
YODOROGO
 10
30529.604341291939
 20
1547.749496429288
 30
0.0
 11
30545.604341291921
 21
1547.749496429288
 31
0.0
  0
LINE
  5
424D
  8
YODOROGO
 10
30529.604341291939
 20
1627.749496429288
 30
0.0
 11
30529.604341291939
 21
1547.749496429288
 31
0.0
  0
LINE
  5
424E
  8
YODOROGO
 10
30899.604341291932
 20
1547.749496429288
 30
0.0
 11
30925.604341291921
 21
1547.749496429288
 31
0.0
  0
LINE
  5
424F
  8
YODOROGO
 10
30933.604341291921
 20
1427.749496429288
 30
0.0
 11
30899.604341291932
 21
1427.749496429288
 31
0.0
  0
LINE
  5
4250
  8
YODOROGO
 10
30763.604341291921
 20
1563.7494964292871
 30
0.0
 11
30791.604341291921
 21
1563.7494964292871
 31
0.0
  0
LINE
  5
4251
  8
YODOROGO
 10
30899.604341291932
 20
1491.749496429288
 30
0.0
 11
30723.604341291921
 21
1491.749496429288
 31
0.0
  0
LINE
  5
4252
  8
YODOROGO
 10
30831.604341291921
 20
1563.7494964292871
 30
0.0
 11
30859.604341291932
 21
1563.7494964292871
 31
0.0
  0
LINE
  5
4253
  8
YODOROGO
 10
30899.604341291932
 20
1427.749496429288
 30
0.0
 11
30899.604341291932
 21
1547.749496429288
 31
0.0
  0
LINE
  5
4254
  8
YODOROGO
 10
30697.604341291932
 20
1427.749496429288
 30
0.0
 11
30645.604341291921
 21
1427.749496429288
 31
0.0
  0
LINE
  5
4255
  8
YODOROGO
 10
30617.604341291921
 20
1599.7494964292871
 30
0.0
 11
30617.604341291921
 21
1507.749496429288
 31
0.0
  0
ARC
  5
4256
  8
YODOROGO
 10
30933.604341291921
 20
1467.749496429288
 30
0.0
 40
40.0
 50
270.0
 51
0.0
  0
LINE
  5
4257
  8
YODOROGO
 10
31093.604341291921
 20
1523.7494964292871
 30
0.0
 11
31093.604341291921
 21
1427.749496429288
 31
0.0
  0
ARC
  5
4258
  8
YODOROGO
 10
31039.721395566768
 20
1637.5313901097329
 30
0.0
 40
125.8955565916754
 50
295.34052442160112
 51
359.18902303418679
  0
LINE
  5
4259
  8
YODOROGO
 10
30617.604341291921
 20
1859.749496429288
 30
0.0
 11
30497.604341291921
 21
1939.749496429288
 31
0.0
  0
LINE
  5
425A
  8
YODOROGO
 10
30497.604341291921
 20
2027.749496429288
 30
0.0
 11
30617.604341291921
 21
1947.749496429288
 31
0.0
  0
LINE
  5
425B
  8
YODOROGO
 10
30529.604341291939
 20
1679.749496429288
 30
0.0
 11
30617.604341291921
 21
1679.749496429288
 31
0.0
  0
LINE
  5
425C
  8
YODOROGO
 10
30617.604341291921
 20
1735.7494964292871
 30
0.0
 11
30529.604341291939
 21
1735.7494964292871
 31
0.0
  0
LINE
  5
425D
  8
YODOROGO
 10
30381.604341291932
 20
1795.7494964292871
 30
0.0
 11
30617.604341291921
 21
1795.7494964292871
 31
0.0
  0
LINE
  5
425E
  8
YODOROGO
 10
30081.604341291921
 20
2027.749496429288
 30
0.0
 11
30021.604341291921
 21
2027.749496429288
 31
0.0
  0
LINE
  5
425F
  8
YODOROGO
 10
30081.604341291921
 20
1827.7494964292871
 30
0.0
 11
30081.604341291921
 21
2027.749496429288
 31
0.0
  0
LINE
  5
4260
  8
YODOROGO
 10
30021.604341291921
 20
1827.7494964292871
 30
0.0
 11
30081.604341291921
 21
1827.7494964292871
 31
0.0
  0
LINE
  5
4261
  8
YODOROGO
 10
30021.604341291921
 20
2027.749496429288
 30
0.0
 11
30021.604341291921
 21
1827.7494964292871
 31
0.0
  0
LINE
  5
4262
  8
YODOROGO
 10
30161.604341291921
 20
2027.749496429288
 30
0.0
 11
30217.604341291921
 21
2027.749496429288
 31
0.0
  0
LINE
  5
4263
  8
YODOROGO
 10
30161.604341291921
 20
1811.749496429288
 30
0.0
 11
30161.604341291921
 21
2027.749496429288
 31
0.0
  0
ARC
  5
4264
  8
YODOROGO
 10
30121.604341291921
 20
1811.749496429288
 30
0.0
 40
40.0
 50
270.0
 51
0.0
  0
LINE
  5
4265
  8
YODOROGO
 10
30021.604341291921
 20
1771.7494964292871
 30
0.0
 11
30121.604341291921
 21
1771.7494964292871
 31
0.0
  0
LINE
  5
4266
  8
YODOROGO
 10
30021.604341291921
 20
1707.749496429288
 30
0.0
 11
30021.604341291921
 21
1771.7494964292871
 31
0.0
  0
LINE
  5
4267
  8
YODOROGO
 10
30137.604341291921
 20
1707.749496429288
 30
0.0
 11
30021.604341291921
 21
1707.749496429288
 31
0.0
  0
ARC
  5
4268
  8
YODOROGO
 10
30137.604341291921
 20
1787.7494964292871
 30
0.0
 40
80.0
 50
270.0
 51
0.0
  0
LINE
  5
4269
  8
YODOROGO
 10
30217.604341291921
 20
2027.749496429288
 30
0.0
 11
30217.604341291921
 21
1787.7494964292871
 31
0.0
  0
LINE
  5
426A
  8
YODOROGO
 10
29977.604341291921
 20
1947.749496429288
 30
0.0
 11
29977.604341291921
 21
1995.7494964292871
 31
0.0
1001
AUTOCAD_POSTSCRIPT_FIGURE
1002
{
1000
PSFILL
1000
Grayscale
1000
Grayscale
1070
    25
1002
}
  0
LINE
  5
426B
  8
YODOROGO
 10
29977.604341291921
 20
1859.749496429288
 30
0.0
 11
29977.604341291921
 21
1907.7494964292871
 31
0.0
1001
AUTOCAD_POSTSCRIPT_FIGURE
1002
{
1000
PSFILL
1000
Grayscale
1000
Grayscale
1070
    25
1002
}
  0
LINE
  5
426C
  8
YODOROGO
 10
29977.604341291921
 20
1707.749496429288
 30
0.0
 11
29977.604341291921
 21
1819.7494964292871
 31
0.0
1001
AUTOCAD_POSTSCRIPT_FIGURE
1002
{
1000
PSFILL
1000
Grayscale
1000
Grayscale
1070
    25
1002
}
  0
LINE
  5
426D
  8
YODOROGO
 10
30381.604341291932
 20
1907.7494964292871
 30
0.0
 11
30497.604341291921
 21
2027.749496429288
 31
0.0
  0
LINE
  5
426E
  8
YODOROGO
 10
30381.604341291932
 20
1819.7494964292871
 30
0.0
 11
30381.604341291932
 21
1907.7494964292871
 31
0.0
  0
LINE
  5
426F
  8
YODOROGO
 10
30497.604341291921
 20
1939.749496429288
 30
0.0
 11
30381.604341291932
 21
1819.7494964292871
 31
0.0
  0
LINE
  5
4270
  8
YODOROGO
 10
30465.604341291921
 20
1679.749496429288
 30
0.0
 11
30465.604341291921
 21
1735.7494964292871
 31
0.0
  0
LINE
  5
4271
  8
YODOROGO
 10
30381.604341291932
 20
1679.749496429288
 30
0.0
 11
30465.604341291921
 21
1679.749496429288
 31
0.0
  0
LINE
  5
4272
  8
YODOROGO
 10
30529.604341291939
 20
1735.7494964292871
 30
0.0
 11
30529.604341291939
 21
1679.749496429288
 31
0.0
  0
LINE
  5
4273
  8
YODOROGO
 10
30381.604341291932
 20
1735.7494964292871
 30
0.0
 11
30381.604341291932
 21
1795.7494964292871
 31
0.0
  0
LINE
  5
4274
  8
YODOROGO
 10
30465.604341291921
 20
1735.7494964292871
 30
0.0
 11
30381.604341291932
 21
1735.7494964292871
 31
0.0
  0
LINE
  5
4275
  8
YODOROGO
 10
30645.604341291921
 20
2027.749496429288
 30
0.0
 11
30973.604341291921
 21
2027.749496429288
 31
0.0
  0
LINE
  5
4276
  8
YODOROGO
 10
30925.604341291921
 20
1963.749496429286
 30
0.0
 11
30697.604341291932
 21
1963.749496429286
 31
0.0
  0
LINE
  5
4277
  8
YODOROGO
 10
30873.604341291921
 20
1819.7494964292871
 30
0.0
 11
30899.604341291932
 21
1819.7494964292871
 31
0.0
  0
LINE
  5
4278
  8
YODOROGO
 10
30899.604341291932
 20
1939.749496429288
 30
0.0
 11
30873.604341291921
 21
1819.7494964292871
 31
0.0
  0
LINE
  5
4279
  8
YODOROGO
 10
30851.604341291939
 20
1939.749496429288
 30
0.0
 11
30899.604341291932
 21
1939.749496429288
 31
0.0
  0
LINE
  5
427A
  8
YODOROGO
 10
30825.604341291921
 20
1819.7494964292871
 30
0.0
 11
30851.604341291939
 21
1939.749496429288
 31
0.0
  0
LINE
  5
427B
  8
YODOROGO
 10
30797.604341291921
 20
1819.7494964292871
 30
0.0
 11
30825.604341291921
 21
1819.7494964292871
 31
0.0
  0
LINE
  5
427C
  8
YODOROGO
 10
30771.604341291939
 20
1939.749496429288
 30
0.0
 11
30797.604341291921
 21
1819.7494964292871
 31
0.0
  0
LINE
  5
427D
  8
YODOROGO
 10
30723.604341291921
 20
1939.749496429288
 30
0.0
 11
30771.604341291939
 21
1939.749496429288
 31
0.0
  0
LINE
  5
427E
  8
YODOROGO
 10
30749.604341291921
 20
1819.7494964292871
 30
0.0
 11
30723.604341291921
 21
1939.749496429288
 31
0.0
  0
LINE
  5
427F
  8
YODOROGO
 10
30723.604341291921
 20
1819.7494964292871
 30
0.0
 11
30749.604341291921
 21
1819.7494964292871
 31
0.0
  0
LINE
  5
4280
  8
YODOROGO
 10
30723.604341291921
 20
1755.7494964292871
 30
0.0
 11
30723.604341291921
 21
1819.7494964292871
 31
0.0
  0
LINE
  5
4281
  8
YODOROGO
 10
30899.604341291932
 20
1755.7494964292871
 30
0.0
 11
30723.604341291921
 21
1755.7494964292871
 31
0.0
  0
LINE
  5
4282
  8
YODOROGO
 10
30899.604341291932
 20
1819.7494964292871
 30
0.0
 11
30899.604341291932
 21
1755.7494964292871
 31
0.0
  0
LINE
  5
4283
  8
YODOROGO
 10
30617.604341291921
 20
1947.749496429288
 30
0.0
 11
30617.604341291921
 21
1859.749496429288
 31
0.0
  0
LINE
  5
4284
  8
YODOROGO
 10
30791.604341291921
 20
1755.7494964292871
 30
0.0
 11
30831.604341291921
 21
1755.7494964292871
 31
0.0
  0
LINE
  5
4285
  8
YODOROGO
 10
30723.604341291921
 20
1691.749496429288
 30
0.0
 11
30763.604341291921
 21
1691.749496429288
 31
0.0
  0
LINE
  5
4286
  8
YODOROGO
 10
30859.604341291932
 20
1691.749496429288
 30
0.0
 11
30899.604341291932
 21
1691.749496429288
 31
0.0
  0
LINE
  5
4287
  8
YODOROGO
 10
30617.604341291921
 20
1795.7494964292871
 30
0.0
 11
30617.604341291921
 21
1735.7494964292871
 31
0.0
  0
LINE
  5
4288
  8
YODOROGO
 10
31165.604341291921
 20
2027.749496429288
 30
0.0
 11
31165.604341291921
 21
1963.749496429286
 31
0.0
  0
LINE
  5
4289
  8
YODOROGO
 10
31533.604341291921
 20
1595.7494964292871
 30
0.0
 11
31533.60434129191
 21
1811.749496429288
 31
0.0
  0
LINE
  5
428A
  8
YODOROGO
 10
31461.60434129191
 20
1987.7494964292871
 30
0.0
 11
31461.60434129191
 21
1635.7494964292871
 31
0.0
  0
LINE
  5
428B
  8
YODOROGO
 10
31653.604341291921
 20
1427.749496429288
 30
0.0
 11
31653.60434129191
 21
1811.749496429288
 31
0.0
  0
LINE
  5
428C
  8
YODOROGO
 10
31589.604341291921
 20
1811.749496429288
 30
0.0
 11
31589.604341291921
 21
1427.749496429288
 31
0.0
  0
LINE
  5
428D
  8
YODOROGO
 10
31237.604341291921
 20
1595.7494964292871
 30
0.0
 11
31237.604341291921
 21
1707.749496429288
 31
0.0
  0
ARC
  5
428E
  8
YODOROGO
 10
31353.914865116069
 20
1607.790351288558
 30
0.0
 40
180.0924485759885
 50
268.62849102169793
 51
356.16638457330322
  0
LINE
  5
428F
  8
YODOROGO
 10
31349.604341291939
 20
1527.749496429288
 30
0.0
 11
31349.604341291939
 21
1427.749496429288
 31
0.0
  0
ARC
  5
4290
  8
YODOROGO
 10
31351.518075724562
 20
1637.838957017655
 30
0.0
 40
110.1060929836122
 50
269.00410209305932
 51
358.91264455492478
  0
LINE
  5
4291
  8
YODOROGO
 10
31589.604341291921
 20
1427.749496429288
 30
0.0
 11
31653.604341291921
 21
1427.749496429288
 31
0.0
  0
LINE
  5
4292
  8
YODOROGO
 10
31533.60434129191
 20
1811.749496429288
 30
0.0
 11
31589.604341291921
 21
1811.749496429288
 31
0.0
  0
LINE
  5
4293
  8
YODOROGO
 10
31621.604341291939
 20
1987.7494964292871
 30
0.0
 11
31461.60434129191
 21
1987.7494964292871
 31
0.0
  0
LINE
  5
4294
  8
YODOROGO
 10
31533.60434129191
 20
1915.7494964292871
 30
0.0
 11
31661.604341291939
 21
1915.7494964292871
 31
0.0
  0
LINE
  5
4295
  8
YODOROGO
 10
31701.604341291939
 20
1875.7494964292871
 30
0.0
 11
31533.60434129191
 21
1875.7494964292871
 31
0.0
  0
LINE
  5
4296
  8
YODOROGO
 10
31237.604341291921
 20
1779.749496429288
 30
0.0
 11
31349.604341291939
 21
1779.749496429288
 31
0.0
  0
LINE
  5
4297
  8
YODOROGO
 10
31237.604341291921
 20
1835.7494964292871
 30
0.0
 11
31237.604341291921
 21
1779.749496429288
 31
0.0
  0
LINE
  5
4298
  8
YODOROGO
 10
31349.604341291939
 20
1835.7494964292871
 30
0.0
 11
31237.604341291921
 21
1835.7494964292871
 31
0.0
  0
LINE
  5
4299
  8
YODOROGO
 10
31349.604341291939
 20
1779.749496429288
 30
0.0
 11
31349.604341291939
 21
1835.7494964292871
 31
0.0
  0
LINE
  5
429A
  8
YODOROGO
 10
31533.60434129191
 20
1875.7494964292871
 30
0.0
 11
31533.60434129191
 21
1915.7494964292871
 31
0.0
  0
LINE
  5
429B
  8
YODOROGO
 10
31413.604341291921
 20
1707.749496429288
 30
0.0
 11
31413.604341291921
 21
1907.7494964292871
 31
0.0
  0
LINE
  5
429C
  8
YODOROGO
 10
31237.604341291921
 20
1707.749496429288
 30
0.0
 11
31413.604341291921
 21
1707.749496429288
 31
0.0
  0
LINE
  5
429D
  8
YODOROGO
 10
31413.604341291921
 20
1963.749496429286
 30
0.0
 11
31413.604341291921
 21
2027.749496429288
 31
0.0
  0
ARC
  5
429E
  8
YODOROGO
 10
31621.604341291939
 20
2003.749496429285
 30
0.0
 40
15.999999999994539
 50
270.0
 51
0.0000000000081422
  0
LINE
  5
429F
  8
YODOROGO
 10
31637.604341291921
 20
2027.749496429288
 30
0.0
 11
31637.604341291921
 21
2003.7494964292871
 31
0.0
  0
LINE
  5
42A0
  8
YODOROGO
 10
31701.604341291939
 20
2027.749496429288
 30
0.0
 11
31637.604341291921
 21
2027.749496429288
 31
0.0
  0
LINE
  5
42A1
  8
YODOROGO
 10
31701.604341291939
 20
1955.7494964292871
 30
0.0
 11
31701.604341291939
 21
2027.749496429288
 31
0.0
  0
ARC
  5
42A2
  8
YODOROGO
 10
31661.604341291939
 20
1955.7494964292871
 30
0.0
 40
40.0
 50
270.0
 51
0.0
  0
LINE
  5
42A3
  8
YODOROGO
 10
31701.604341291939
 20
1811.749496429288
 30
0.0
 11
31701.604341291939
 21
1875.7494964292871
 31
0.0
  0
LINE
  5
42A4
  8
YODOROGO
 10
31653.60434129191
 20
1811.749496429288
 30
0.0
 11
31701.604341291939
 21
1811.749496429288
 31
0.0
  0
LINE
  5
42A8
  8
SUNPOU
  6
CONTINUOUS
 62
     4
 10
7078.5029029999969
 20
13601.32112999998
 30
0.0
 11
6231.5074819999973
 21
13601.32112999998
 31
0.0
  0
LINE
  5
42A9
  8
SUNPOU
  6
CONTINUOUS
 62
     4
 10
6311.5074819999973
 20
13793.81644499998
 30
0.0
 11
6311.5074819999973
 21
13601.32112999998
 31
0.0
  0
LINE
  5
42AA
  8
SUNPOU
  6
CONTINUOUS
 62
     4
 10
6311.507482
 20
17062.316444999979
 30
0.0
 11
6311.5074819999991
 21
13793.81644499998
 31
0.0
  0
LINE
  5
42AB
  8
SUNPOU
  6
CONTINUOUS
 62
     4
 10
7078.5029029999969
 20
20192.812354000002
 30
0.0
 11
6631.5074819999982
 21
20192.812354000002
 31
0.0
  0
LINE
  5
42AC
  8
SUNPOU
  6
CONTINUOUS
 62
     4
 10
7078.5072579999978
 20
20202.812354000002
 30
0.0
 11
6631.5074819999982
 21
20202.812354000002
 31
0.0
  0
LINE
  5
42AD
  8
SUNPOU
  6
CONTINUOUS
 62
     4
 10
6711.5074819999982
 20
20192.812354000002
 30
0.0
 11
6711.5074819999982
 21
19952.812354000002
 31
0.0
  0
LINE
  5
42AE
  8
SUNPOU
  6
CONTINUOUS
 62
     4
 10
6711.5074819999982
 20
20202.812354000002
 30
0.0
 11
6711.5074819999982
 21
20442.812354000002
 31
0.0
  0
LINE
  5
42AF
  8
SUNPOU
  6
CONTINUOUS
 62
     4
 10
6711.5074819999982
 20
20192.812354000002
 30
0.0
 11
6711.5074819999982
 21
20202.812354000002
 31
0.0
  0
LINE
  5
42B0
  8
SUNPOU
  6
CONTINUOUS
 62
     4
 10
7078.5072579999978
 20
20202.812354000002
 30
0.0
 11
6231.5074819999991
 21
20202.812354000002
 31
0.0
  0
LINE
  5
42B1
  8
SUNPOU
  6
CONTINUOUS
 62
     4
 10
6311.5074819999991
 20
19980.316444999949
 30
0.0
 11
6311.5074819999991
 21
20202.812354000002
 31
0.0
  0
LINE
  5
42B2
  8
SUNPOU
  6
CONTINUOUS
 62
     4
 10
6311.5074819999973
 20
17062.316444999979
 30
0.0
 11
6311.5074819999991
 21
19980.316444999949
 31
0.0
  0
LINE
  5
42B3
  8
SUNPOU
  6
CONTINUOUS
 62
     4
 10
7241.0072579999978
 20
20752.817632999999
 30
0.0
 11
10509.507257999991
 21
20752.817632999999
 31
0.0
  0
LINE
  5
42B4
  8
SUNPOU
  6
CONTINUOUS
 62
     4
 10
7155.5072579999987
 20
20282.812354000002
 30
0.0
 11
7155.5072579999987
 21
20832.817632999999
 31
0.0
  0
LINE
  5
42B5
  8
SUNPOU
  6
CONTINUOUS
 62
     4
 10
7241.0072579999978
 20
20752.817632999999
 30
0.0
 11
7481.0072579999978
 21
20752.817632999999
 31
0.0
  0
LINE
  5
42B6
  8
SUNPOU
  6
CONTINUOUS
 62
     4
 10
7158.5072579999969
 20
20752.817632999999
 30
0.0
 11
6918.5072579999978
 21
20752.817632999999
 31
0.0
  0
LINE
  5
42B7
  8
SUNPOU
  6
CONTINUOUS
 62
     4
 10
7241.0072579999978
 20
20752.817632999999
 30
0.0
 11
7158.5072579999969
 21
20752.817632999999
 31
0.0
  0
LINE
  5
42B8
  8
SUNPOU
  6
CONTINUOUS
 62
     4
 10
13778.007258
 20
20752.817632999999
 30
0.0
 11
10509.507257999991
 21
20752.817632999999
 31
0.0
  0
LINE
  5
42B9
  8
SUNPOU
  6
CONTINUOUS
 62
     4
 10
13863.507258
 20
20282.812354000002
 30
0.0
 11
13863.507258
 21
20832.817632999999
 31
0.0
  0
LINE
  5
42BA
  8
SUNPOU
  6
CONTINUOUS
 62
     4
 10
13778.007258
 20
20752.817632999999
 30
0.0
 11
13538.007257999991
 21
20752.817632999999
 31
0.0
  0
LINE
  5
42BB
  8
SUNPOU
  6
CONTINUOUS
 62
     4
 10
13860.507258
 20
20752.817632999999
 30
0.0
 11
14100.507258
 21
20752.817632999999
 31
0.0
  0
LINE
  5
42BC
  8
SUNPOU
  6
CONTINUOUS
 62
     4
 10
13778.007258
 20
20752.817632999999
 30
0.0
 11
13860.507258
 21
20752.817632999999
 31
0.0
  0
LINE
  5
42BD
  8
SUNPOU
  6
CONTINUOUS
 62
     4
 10
25013.673484499981
 20
13088.05301099998
 30
0.0
 11
25013.673484499981
 21
12742.368360999981
 31
0.0
  0
LINE
  5
42BE
  8
SUNPOU
  6
CONTINUOUS
 62
     4
 10
25056.17572749998
 20
13671.319149999979
 30
0.0
 11
25056.17572749998
 21
12742.368360999981
 31
0.0
  0
LINE
  5
42BF
  8
SUNPOU
  6
CONTINUOUS
 62
     4
 10
25013.673484499981
 20
12822.368360999981
 30
0.0
 11
24773.673484499981
 21
12822.368360999981
 31
0.0
  0
LINE
  5
42C0
  8
SUNPOU
  6
CONTINUOUS
 62
     4
 10
25056.17572749998
 20
12822.368360999981
 30
0.0
 11
25296.17572749998
 21
12822.368360999981
 31
0.0
  0
LINE
  5
42C1
  8
SUNPOU
  6
CONTINUOUS
 62
     4
 10
25013.673484499981
 20
12822.368360999981
 30
0.0
 11
25056.17572749998
 21
12822.368360999981
 31
0.0
  0
LINE
  5
42C2
  8
SUNPOU
  6
CONTINUOUS
 62
     4
 10
18476.673484499981
 20
13088.05301099998
 30
0.0
 11
18476.673484499981
 21
12742.368360999981
 31
0.0
  0
LINE
  5
42C3
  8
SUNPOU
  6
CONTINUOUS
 62
     4
 10
18434.17124149996
 20
13671.319149999979
 30
0.0
 11
18434.17124149996
 21
12742.368360999981
 31
0.0
  0
LINE
  5
42C4
  8
SUNPOU
  6
CONTINUOUS
 62
     4
 10
18476.673484499981
 20
12822.368360999981
 30
0.0
 11
18716.673484499981
 21
12822.368360999981
 31
0.0
  0
LINE
  5
42C5
  8
SUNPOU
  6
CONTINUOUS
 62
     4
 10
18434.17124149996
 20
12822.368360999981
 30
0.0
 11
18194.17124149996
 21
12822.368360999981
 31
0.0
  0
LINE
  5
42C6
  8
SUNPOU
  6
CONTINUOUS
 62
     4
 10
18476.673484499981
 20
12822.368360999981
 30
0.0
 11
18434.17124149996
 21
12822.368360999981
 31
0.0
  0
LINE
  5
42C7
  8
SUNPOU
  6
CONTINUOUS
 62
     4
 10
6615.383511
 20
8449.7285880000018
 30
0.0
 11
6615.383511
 21
9840.7286139999997
 31
0.0
  0
LINE
  5
42C8
  8
SUNPOU
  6
CONTINUOUS
 62
     4
 10
13216.883511
 20
8581.6184114124335
 30
0.0
 11
13216.883511
 21
9840.7286139999997
 31
0.0
  0
LINE
  5
42C9
  8
SUNPOU
  6
CONTINUOUS
 62
     4
 10
6615.383511
 20
9760.7286140000015
 30
0.0
 11
13216.883511
 21
9760.7286140000015
 31
0.0
  0
LINE
  5
42CA
  8
SUNPOU
  6
CONTINUOUS
 62
     4
 10
13066.883511
 20
8507.6386520000069
 30
0.0
 11
13066.883511
 21
9440.7302639999998
 31
0.0
  0
LINE
  5
42CB
  8
SUNPOU
  6
CONTINUOUS
 62
     4
 10
13216.883511
 20
8581.6184114124335
 30
0.0
 11
13216.883511
 21
9440.7302639999998
 31
0.0
  0
LINE
  5
42CC
  8
SUNPOU
  6
CONTINUOUS
 62
     4
 10
13066.883511
 20
9360.7302639999998
 30
0.0
 11
12826.883511
 21
9360.7302639999998
 31
0.0
  0
LINE
  5
42CD
  8
SUNPOU
  6
CONTINUOUS
 62
     4
 10
13216.883511
 20
9360.7302639999998
 30
0.0
 11
13456.883511
 21
9360.7302639999998
 31
0.0
  0
LINE
  5
42CE
  8
SUNPOU
  6
CONTINUOUS
 62
     4
 10
13066.883511
 20
9360.7302639999998
 30
0.0
 11
13216.883511
 21
9360.7302639999998
 31
0.0
  0
LINE
  5
42CF
  8
SUNPOU
  6
CONTINUOUS
 62
     4
 10
6795.383511
 20
8319.9143636838089
 30
0.0
 11
6795.383511
 21
9440.7302639999998
 31
0.0
  0
LINE
  5
42D0
  8
SUNPOU
  6
CONTINUOUS
 62
     4
 10
13066.883511
 20
8507.6386520000069
 30
0.0
 11
13066.883511
 21
9440.7302639999998
 31
0.0
  0
LINE
  5
42D1
  8
SUNPOU
  6
CONTINUOUS
 62
     4
 10
6795.383511
 20
9360.7302639999998
 30
0.0
 11
13066.883511
 21
9360.7302639999998
 31
0.0
  0
LINE
  5
42D2
  8
SUNPOU
  6
CONTINUOUS
 62
     4
 10
6615.383511
 20
8449.7285880000018
 30
0.0
 11
6615.383511
 21
9440.7302639999998
 31
0.0
  0
LINE
  5
42D3
  8
SUNPOU
  6
CONTINUOUS
 62
     4
 10
6795.383511
 20
8319.9143636838089
 30
0.0
 11
6795.383511
 21
9440.7302639999998
 31
0.0
  0
LINE
  5
42D4
  8
SUNPOU
  6
CONTINUOUS
 62
     4
 10
6615.383511
 20
9360.7302639999998
 30
0.0
 11
6795.383511
 21
9360.7302639999998
 31
0.0
  0
LINE
  5
42D5
  8
SUNPOU
  6
CONTINUOUS
 62
     4
 10
13159.383511
 20
6212.7285879999999
 30
0.0
 11
14236.88390699999
 21
6212.7285879999999
 31
0.0
  0
LINE
  5
42D6
  8
SUNPOU
  6
CONTINUOUS
 62
     4
 10
13251.69077059938
 20
8560.7285880000018
 30
0.0
 11
14236.88390699999
 21
8560.7285880000018
 31
0.0
  0
LINE
  5
42D7
  8
SUNPOU
  6
CONTINUOUS
 62
     4
 10
14156.88390699999
 20
6212.7285879999999
 30
0.0
 11
14156.88390699999
 21
8560.7285880000018
 31
0.0
  0
LINE
  5
42D8
  8
SUNPOU
  6
CONTINUOUS
 62
     4
 10
6707.883511
 20
6212.7285879999999
 30
0.0
 11
5625.3831150000051
 21
6212.7285880000027
 31
0.0
  0
LINE
  5
42D9
  8
SUNPOU
  6
CONTINUOUS
 62
     4
 10
6535.383511
 20
8369.7285880000054
 30
0.0
 11
5625.3831150000051
 21
8369.7285880000054
 31
0.0
  0
LINE
  5
42DA
  8
SUNPOU
  6
CONTINUOUS
 62
     4
 10
5705.3831150000024
 20
6212.7285880000027
 30
0.0
 11
5705.3831150000024
 21
8369.7285880000054
 31
0.0
  0
LINE
  5
42DB
  8
SUNPOU
  6
CONTINUOUS
 62
     4
 10
6795.383511
 20
6132.7285880000018
 30
0.0
 11
6795.383511
 21
4432.7289180000007
 31
0.0
  0
LINE
  5
42DC
  8
SUNPOU
  6
CONTINUOUS
 62
     4
 10
13066.883511
 20
6132.7285880000018
 30
0.0
 11
13066.883511
 21
4432.7289180000007
 31
0.0
  0
LINE
  5
42DD
  8
SUNPOU
  6
CONTINUOUS
 62
     4
 10
6795.383511
 20
4512.7289179999989
 30
0.0
 11
13066.883511
 21
4512.7289179999989
 31
0.0
  0
LINE
  5
42DE
  8
SUNPOU
  6
CONTINUOUS
 62
     4
 10
13024.383511
 20
5770.0763300000017
 30
0.0
 11
13024.383511
 21
4832.728753000004
 31
0.0
  0
LINE
  5
42DF
  8
SUNPOU
  6
CONTINUOUS
 62
     4
 10
13066.883511
 20
6132.7285880000018
 30
0.0
 11
13066.883511
 21
4832.728753000004
 31
0.0
  0
LINE
  5
42E0
  8
SUNPOU
  6
CONTINUOUS
 62
     4
 10
13024.383511
 20
4912.7287530000031
 30
0.0
 11
12784.383511
 21
4912.7287530000031
 31
0.0
  0
LINE
  5
42E1
  8
SUNPOU
  6
CONTINUOUS
 62
     4
 10
13066.883511
 20
4912.7287530000031
 30
0.0
 11
13306.883511
 21
4912.7287530000031
 31
0.0
  0
LINE
  5
42E2
  8
SUNPOU
  6
CONTINUOUS
 62
     4
 10
13024.383511
 20
4912.7287530000031
 30
0.0
 11
13066.883511
 21
4912.7287530000031
 31
0.0
  0
LINE
  5
42E3
  8
SUNPOU
  6
CONTINUOUS
 62
     4
 10
6837.883511
 20
5770.0763300000017
 30
0.0
 11
6837.883511
 21
4832.728753000004
 31
0.0
  0
LINE
  5
42E4
  8
SUNPOU
  6
CONTINUOUS
 62
     4
 10
6795.383511
 20
6132.7285880000018
 30
0.0
 11
6795.383511
 21
4832.728753000004
 31
0.0
  0
LINE
  5
42E5
  8
SUNPOU
  6
CONTINUOUS
 62
     4
 10
6837.883511
 20
4912.7287530000031
 30
0.0
 11
7077.883511
 21
4912.7287530000031
 31
0.0
  0
LINE
  5
42E6
  8
SUNPOU
  6
CONTINUOUS
 62
     4
 10
6795.383511
 20
4912.7287530000031
 30
0.0
 11
6555.3835109999991
 21
4912.7287530000031
 31
0.0
  0
LINE
  5
42E7
  8
SUNPOU
  6
CONTINUOUS
 62
     4
 10
6837.883511
 20
4912.7287530000031
 30
0.0
 11
6795.383511
 21
4912.7287530000031
 31
0.0
  0
LINE
  5
42E8
  8
SUNPOU
  6
CONTINUOUS
 62
     4
 10
9755.883511
 20
5770.0763300000017
 30
0.0
 11
9755.883511
 21
4832.728753000004
 31
0.0
  0
LINE
  5
42E9
  8
SUNPOU
  6
CONTINUOUS
 62
     4
 10
6837.883511
 20
5770.0763300000017
 30
0.0
 11
6837.883511
 21
4832.728753000004
 31
0.0
  0
LINE
  5
42EA
  8
SUNPOU
  6
CONTINUOUS
 62
     4
 10
9755.883511
 20
4912.7287530000031
 30
0.0
 11
6837.883511
 21
4912.7287530000031
 31
0.0
  0
LINE
  5
42EB
  8
SUNPOU
  6
CONTINUOUS
 62
     4
 10
9755.883511
 20
5770.0763300000017
 30
0.0
 11
9755.883511
 21
4832.728753000004
 31
0.0
  0
LINE
  5
42EC
  8
SUNPOU
  6
CONTINUOUS
 62
     4
 10
13024.383511
 20
5770.0763300000017
 30
0.0
 11
13024.383511
 21
4832.728753000004
 31
0.0
  0
LINE
  5
42ED
  8
SUNPOU
  6
CONTINUOUS
 62
     4
 10
9755.883511
 20
4912.7287530000031
 30
0.0
 11
13024.383511
 21
4912.7287530000031
 31
0.0
  0
LINE
  5
42EE
  8
2-0
  6
CONTINUOUS
 62
     3
 10
21702.673484499981
 20
13751.31644499998
 30
0.0
 11
21787.673484499981
 21
13751.31644499998
 31
0.0
  0
LINE
  5
42EF
  8
2-0
  6
CONTINUOUS
 62
     3
 10
21787.673484499981
 20
13751.31644499998
 30
0.0
 11
21787.673484499981
 21
13836.31644499998
 31
0.0
  0
LINE
  5
42F0
  8
2-0
  6
CONTINUOUS
 62
     3
 10
21787.673484499981
 20
13836.31644499998
 30
0.0
 11
21702.673484499981
 21
13836.31644499998
 31
0.0
  0
LINE
  5
42F1
  8
2-0
  6
CONTINUOUS
 62
     3
 10
21702.673484499981
 20
13836.31644499998
 30
0.0
 11
21702.673484499981
 21
13751.31644499998
 31
0.0
  0
LINE
  5
42F2
  8
2-0
  6
CONTINUOUS
 62
     3
 10
21702.673484499981
 20
13751.31644499998
 30
0.0
 11
21787.673484499981
 21
13751.31644499998
 31
0.0
  0
LINE
  5
42F3
  8
2-0
  6
CONTINUOUS
 62
     3
 10
21787.673484499981
 20
13751.31644499998
 30
0.0
 11
21787.673484499981
 21
13836.31644499998
 31
0.0
  0
LINE
  5
42F4
  8
2-0
  6
CONTINUOUS
 62
     3
 10
21787.673484499981
 20
13836.31644499998
 30
0.0
 11
21702.673484499981
 21
13836.31644499998
 31
0.0
  0
LINE
  5
42F5
  8
2-0
  6
CONTINUOUS
 62
     3
 10
21702.673484499981
 20
13836.31644499998
 30
0.0
 11
21702.673484499981
 21
13751.31644499998
 31
0.0
  0
LINE
  5
42F6
  8
SUNPOU
  6
CONTINUOUS
 62
     4
 10
25013.673484499981
 20
13088.05301099998
 30
0.0
 11
25013.673484499981
 21
12742.368360999981
 31
0.0
  0
LINE
  5
42F7
  8
SUNPOU
  6
CONTINUOUS
 62
     4
 10
24971.171241499971
 20
13671.319149999979
 30
0.0
 11
24971.171241499971
 21
12742.368360999981
 31
0.0
  0
LINE
  5
42F8
  8
SUNPOU
  6
CONTINUOUS
 62
     4
 10
25013.673484499981
 20
12822.368360999981
 30
0.0
 11
25253.673484499981
 21
12822.368360999981
 31
0.0
  0
LINE
  5
42F9
  8
SUNPOU
  6
CONTINUOUS
 62
     4
 10
24971.171241499971
 20
12822.368360999981
 30
0.0
 11
24731.171241499971
 21
12822.368360999981
 31
0.0
  0
LINE
  5
42FA
  8
SUNPOU
  6
CONTINUOUS
 62
     4
 10
25013.673484499981
 20
12822.368360999981
 30
0.0
 11
24971.171241499971
 21
12822.368360999981
 31
0.0
  0
LINE
  5
42FB
  8
SUNPOU
  6
CONTINUOUS
 62
     4
 10
18476.673484499981
 20
13088.05301099998
 30
0.0
 11
18476.673484499981
 21
12742.368360999981
 31
0.0
  0
LINE
  5
42FC
  8
SUNPOU
  6
CONTINUOUS
 62
     4
 10
18519.175727499969
 20
13671.319149999979
 30
0.0
 11
18519.175727499969
 21
12742.368360999981
 31
0.0
  0
LINE
  5
42FD
  8
SUNPOU
  6
CONTINUOUS
 62
     4
 10
18476.673484499981
 20
12822.368360999981
 30
0.0
 11
18236.673484499981
 21
12822.368360999981
 31
0.0
  0
LINE
  5
42FE
  8
SUNPOU
  6
CONTINUOUS
 62
     4
 10
18519.175727499969
 20
12822.368360999981
 30
0.0
 11
18759.175727499969
 21
12822.368360999981
 31
0.0
  0
LINE
  5
42FF
  8
SUNPOU
  6
CONTINUOUS
 62
     4
 10
18476.673484499981
 20
12822.368360999981
 30
0.0
 11
18519.175727499969
 21
12822.368360999981
 31
0.0
  0
LINE
  5
4300
  8
SUNPOU
  6
CONTINUOUS
 62
     4
 10
18434.17124149996
 20
13671.319149999979
 30
0.0
 11
18434.17124149996
 21
12342.368360999981
 31
0.0
  0
LINE
  5
4301
  8
SUNPOU
  6
CONTINUOUS
 62
     4
 10
25056.17572749998
 20
13671.319149999979
 30
0.0
 11
25056.17572749998
 21
12342.368360999981
 31
0.0
  0
LINE
  5
4302
  8
SUNPOU
  6
CONTINUOUS
 62
     4
 10
18434.17124149996
 20
12422.368360999981
 30
0.0
 11
25056.17572749998
 21
12422.368360999981
 31
0.0
  0
LINE
  5
4303
  8
SUNPOU
  6
CONTINUOUS
 62
     4
 10
25136.171768499971
 20
14201.31644499998
 30
0.0
 11
26186.173088499982
 21
14201.31644499998
 31
0.0
  0
LINE
  5
4304
  8
SUNPOU
  6
CONTINUOUS
 62
     4
 10
25986.173088499982
 20
13793.81644499998
 30
0.0
 11
26186.173088499982
 21
13793.81644499998
 31
0.0
  0
LINE
  5
4305
  8
SUNPOU
  6
CONTINUOUS
 62
     4
 10
26106.173088499982
 20
14201.31644499998
 30
0.0
 11
26106.173088499982
 21
13793.81644499998
 31
0.0
  0
LINE
  5
4306
  8
SUNPOU
  6
CONTINUOUS
 62
     4
 10
25136.171768499971
 20
14902.31644499998
 30
0.0
 11
26186.173088499982
 21
14902.31644499998
 31
0.0
  0
LINE
  5
4307
  8
SUNPOU
  6
CONTINUOUS
 62
     4
 10
25136.171768499971
 20
14201.31644499998
 30
0.0
 11
26186.173088499982
 21
14201.31644499998
 31
0.0
  0
LINE
  5
4308
  8
SUNPOU
  6
CONTINUOUS
 62
     4
 10
26106.173088499982
 20
14902.31644499998
 30
0.0
 11
26106.173088499982
 21
14201.31644499998
 31
0.0
  0
LINE
  5
4309
  8
SUNPOU
  6
CONTINUOUS
 62
     4
 10
25136.171768499971
 20
15603.556956500001
 30
0.0
 11
26186.173088499982
 21
15603.556956500001
 31
0.0
  0
LINE
  5
430A
  8
SUNPOU
  6
CONTINUOUS
 62
     4
 10
25136.171768499971
 20
14902.31644499998
 30
0.0
 11
26186.173088499982
 21
14902.31644499998
 31
0.0
  0
LINE
  5
430B
  8
SUNPOU
  6
CONTINUOUS
 62
     4
 10
26106.173088499982
 20
15603.556956500001
 30
0.0
 11
26106.173088499982
 21
14902.31644499998
 31
0.0
  0
LINE
  5
430C
  8
SUNPOU
  6
CONTINUOUS
 62
     4
 10
25136.171768499971
 20
16304.31644499998
 30
0.0
 11
26186.173088499982
 21
16304.31644499998
 31
0.0
  0
LINE
  5
430D
  8
SUNPOU
  6
CONTINUOUS
 62
     4
 10
25136.171768499971
 20
15603.556956500001
 30
0.0
 11
26186.173088499982
 21
15603.556956500001
 31
0.0
  0
LINE
  5
430E
  8
SUNPOU
  6
CONTINUOUS
 62
     4
 10
26106.173088499982
 20
16304.31644499998
 30
0.0
 11
26106.173088499982
 21
15603.556956500001
 31
0.0
  0
LINE
  5
430F
  8
SUNPOU
  6
CONTINUOUS
 62
     4
 10
25986.173088499982
 20
17062.316444999979
 30
0.0
 11
26186.173088499982
 21
17062.316444999979
 31
0.0
  0
LINE
  5
4310
  8
SUNPOU
  6
CONTINUOUS
 62
     4
 10
25136.171768499971
 20
16304.31644499998
 30
0.0
 11
26186.173088499982
 21
16304.31644499998
 31
0.0
  0
LINE
  5
4311
  8
SUNPOU
  6
CONTINUOUS
 62
     4
 10
26106.173088499982
 20
17062.316444999979
 30
0.0
 11
26106.173088499982
 21
16304.31644499998
 31
0.0
  0
LINE
  5
4312
  8
SUNPOU
  6
CONTINUOUS
 62
     4
 10
25136.171768499971
 20
17820.316444999979
 30
0.0
 11
26186.173088499982
 21
17820.316444999979
 31
0.0
  0
LINE
  5
4313
  8
SUNPOU
  6
CONTINUOUS
 62
     4
 10
25986.173088499982
 20
17062.316444999979
 30
0.0
 11
26186.173088499982
 21
17062.316444999979
 31
0.0
  0
LINE
  5
4314
  8
SUNPOU
  6
CONTINUOUS
 62
     4
 10
26106.173088499982
 20
17820.316444999979
 30
0.0
 11
26106.173088499982
 21
17062.316444999979
 31
0.0
  0
LINE
  5
4315
  8
SUNPOU
  6
CONTINUOUS
 62
     4
 10
25136.171768499971
 20
18521.31644499996
 30
0.0
 11
26186.173088499982
 21
18521.31644499996
 31
0.0
  0
LINE
  5
4316
  8
SUNPOU
  6
CONTINUOUS
 62
     4
 10
25136.171768499971
 20
17820.316444999979
 30
0.0
 11
26186.173088499982
 21
17820.316444999979
 31
0.0
  0
LINE
  5
4317
  8
SUNPOU
  6
CONTINUOUS
 62
     4
 10
26106.173088499982
 20
18521.31644499996
 30
0.0
 11
26106.173088499982
 21
17820.316444999979
 31
0.0
  0
LINE
  5
4318
  8
SUNPOU
  6
CONTINUOUS
 62
     4
 10
25136.171768499971
 20
19222.31644499996
 30
0.0
 11
26186.173088499982
 21
19222.31644499996
 31
0.0
  0
LINE
  5
4319
  8
SUNPOU
  6
CONTINUOUS
 62
     4
 10
25136.171768499971
 20
18521.31644499996
 30
0.0
 11
26186.173088499982
 21
18521.31644499996
 31
0.0
  0
LINE
  5
431A
  8
SUNPOU
  6
CONTINUOUS
 62
     4
 10
26106.173088499982
 20
19222.31644499996
 30
0.0
 11
26106.173088499982
 21
18521.31644499996
 31
0.0
  0
LINE
  5
431B
  8
SUNPOU
  6
CONTINUOUS
 62
     4
 10
25986.173088499982
 20
19980.316444999949
 30
0.0
 11
26186.173088499982
 21
19980.316444999949
 31
0.0
  0
LINE
  5
431C
  8
SUNPOU
  6
CONTINUOUS
 62
     4
 10
25136.171768499971
 20
19222.31644499996
 30
0.0
 11
26186.173088499982
 21
19222.31644499996
 31
0.0
  0
LINE
  5
431D
  8
SUNPOU
  6
CONTINUOUS
 62
     4
 10
26106.173088499982
 20
19980.316444999949
 30
0.0
 11
26106.173088499982
 21
19222.31644499996
 31
0.0
  0
LINE
  5
431E
  8
SUNPOU
  6
CONTINUOUS
 62
     4
 10
25986.173088499982
 20
17062.316444999979
 30
0.0
 11
26586.173088499982
 21
17062.316444999979
 31
0.0
  0
LINE
  5
431F
  8
SUNPOU
  6
CONTINUOUS
 62
     4
 10
25986.173088499982
 20
19980.316444999949
 30
0.0
 11
26586.173088499982
 21
19980.316444999949
 31
0.0
  0
LINE
  5
4320
  8
SUNPOU
  6
CONTINUOUS
 62
     4
 10
26506.173088499982
 20
17062.316444999979
 30
0.0
 11
26506.173088499982
 21
19980.316444999949
 31
0.0
  0
LINE
  5
4321
  8
SUNPOU
  6
CONTINUOUS
 62
     4
 10
25986.173088499982
 20
13793.81644499998
 30
0.0
 11
26586.173088499982
 21
13793.81644499998
 31
0.0
  0
LINE
  5
4322
  8
SUNPOU
  6
CONTINUOUS
 62
     4
 10
25986.173088499982
 20
17062.316444999979
 30
0.0
 11
26586.173088499982
 21
17062.316444999979
 31
0.0
  0
LINE
  5
4323
  8
SUNPOU
  6
CONTINUOUS
 62
     4
 10
26506.173088499982
 20
13793.81644499998
 30
0.0
 11
26506.173088499982
 21
17062.316444999979
 31
0.0
  0
LINE
  5
4324
  8
SUNPOU
  6
CONTINUOUS
 62
     4
 10
25136.171768499971
 20
20022.81373999998
 30
0.0
 11
26986.173088499982
 21
20022.81373999998
 31
0.0
  0
LINE
  5
4325
  8
SUNPOU
  6
CONTINUOUS
 62
     4
 10
25136.171768499971
 20
13751.319149999979
 30
0.0
 11
26986.173088499982
 21
13751.319149999979
 31
0.0
  0
LINE
  5
4326
  8
SUNPOU
  6
CONTINUOUS
 62
     4
 10
26906.173088499982
 20
20022.81373999998
 30
0.0
 11
26906.173088499982
 21
13751.319149999979
 31
0.0
  0
LINE
  5
4327
  8
SUNPOU
  6
CONTINUOUS
 62
     4
 10
25986.173088499982
 20
19980.316444999949
 30
0.0
 11
26586.173088499982
 21
19980.316444999949
 31
0.0
  0
LINE
  5
4328
  8
SUNPOU
  6
CONTINUOUS
 62
     4
 10
25136.171768499971
 20
20022.81373999998
 30
0.0
 11
26586.173088499982
 21
20022.81373999998
 31
0.0
  0
LINE
  5
4329
  8
SUNPOU
  6
CONTINUOUS
 62
     4
 10
26506.173088499982
 20
19980.316444999949
 30
0.0
 11
26506.173088499982
 21
19740.316444999949
 31
0.0
  0
LINE
  5
432A
  8
SUNPOU
  6
CONTINUOUS
 62
     4
 10
26506.173088499982
 20
20022.81373999998
 30
0.0
 11
26506.173088499982
 21
20262.81373999998
 31
0.0
  0
LINE
  5
432B
  8
SUNPOU
  6
CONTINUOUS
 62
     4
 10
26506.173088499982
 20
19980.316444999949
 30
0.0
 11
26506.173088499982
 21
20022.81373999998
 31
0.0
  0
LINE
  5
432C
  8
SUNPOU
  6
CONTINUOUS
 62
     4
 10
25986.173088499982
 20
13793.81644499998
 30
0.0
 11
26586.173088499982
 21
13793.81644499998
 31
0.0
  0
LINE
  5
432D
  8
SUNPOU
  6
CONTINUOUS
 62
     4
 10
25136.171768499971
 20
13751.319149999979
 30
0.0
 11
26586.173088499982
 21
13751.319149999979
 31
0.0
  0
LINE
  5
432E
  8
SUNPOU
  6
CONTINUOUS
 62
     4
 10
26506.173088499982
 20
13793.81644499998
 30
0.0
 11
26506.173088499982
 21
14033.816444999969
 31
0.0
  0
LINE
  5
432F
  8
SUNPOU
  6
CONTINUOUS
 62
     4
 10
26506.173088499982
 20
13751.319149999979
 30
0.0
 11
26506.173088499982
 21
13511.319149999979
 31
0.0
  0
LINE
  5
4330
  8
SUNPOU
  6
CONTINUOUS
 62
     4
 10
26506.173088499982
 20
13793.81644499998
 30
0.0
 11
26506.173088499982
 21
13751.319149999979
 31
0.0
  0
LINE
  5
4331
  8
SUNPOU
  6
CONTINUOUS
 62
     4
 10
21745.17348449997
 20
20102.814729999998
 30
0.0
 11
21745.17348449997
 21
20832.817632999999
 31
0.0
  0
LINE
  5
4332
  8
SUNPOU
  6
CONTINUOUS
 62
     4
 10
22152.673484499981
 20
20102.814729999998
 30
0.0
 11
22152.673484499981
 21
20832.817632999999
 31
0.0
  0
LINE
  5
4333
  8
SUNPOU
  6
CONTINUOUS
 62
     4
 10
21745.17348449997
 20
20752.817632999999
 30
0.0
 11
22152.673484499981
 21
20752.817632999999
 31
0.0
  0
LINE
  5
4334
  8
SUNPOU
  6
CONTINUOUS
 62
     4
 10
24255.673484499981
 20
20102.814729999998
 30
0.0
 11
24255.673484499981
 21
20832.817632999999
 31
0.0
  0
LINE
  5
4335
  8
SUNPOU
  6
CONTINUOUS
 62
     4
 10
25013.674473999981
 20
20102.814729999998
 30
0.0
 11
25013.674473999981
 21
20832.817632999999
 31
0.0
  0
LINE
  5
4336
  8
SUNPOU
  6
CONTINUOUS
 62
     4
 10
24255.673484499981
 20
20752.817632999999
 30
0.0
 11
25013.674473999981
 21
20752.817632999999
 31
0.0
  0
LINE
  5
4337
  8
SUNPOU
  6
CONTINUOUS
 62
     4
 10
23554.673484499981
 20
20102.814729999998
 30
0.0
 11
23554.673484499981
 21
20832.817632999999
 31
0.0
  0
LINE
  5
4338
  8
SUNPOU
  6
CONTINUOUS
 62
     4
 10
24255.673484499981
 20
20102.814729999998
 30
0.0
 11
24255.673484499981
 21
20832.817632999999
 31
0.0
  0
LINE
  5
4339
  8
SUNPOU
  6
CONTINUOUS
 62
     4
 10
23554.673484499981
 20
20752.817632999999
 30
0.0
 11
24255.673484499981
 21
20752.817632999999
 31
0.0
  0
LINE
  5
433A
  8
SUNPOU
  6
CONTINUOUS
 62
     4
 10
22853.673484499981
 20
20102.814729999998
 30
0.0
 11
22853.673484499981
 21
20832.817632999999
 31
0.0
  0
LINE
  5
433B
  8
SUNPOU
  6
CONTINUOUS
 62
     4
 10
23554.673484499981
 20
20102.814729999998
 30
0.0
 11
23554.673484499981
 21
20832.817632999999
 31
0.0
  0
LINE
  5
433C
  8
SUNPOU
  6
CONTINUOUS
 62
     4
 10
22853.673484499981
 20
20752.817632999999
 30
0.0
 11
23554.673484499981
 21
20752.817632999999
 31
0.0
  0
LINE
  5
433D
  8
SUNPOU
  6
CONTINUOUS
 62
     4
 10
22152.673484499981
 20
20102.814729999998
 30
0.0
 11
22152.673484499981
 21
20832.817632999999
 31
0.0
  0
LINE
  5
433E
  8
SUNPOU
  6
CONTINUOUS
 62
     4
 10
22853.673484499981
 20
20102.814729999998
 30
0.0
 11
22853.673484499981
 21
20832.817632999999
 31
0.0
  0
LINE
  5
433F
  8
SUNPOU
  6
CONTINUOUS
 62
     4
 10
22152.673484499981
 20
20752.817632999999
 30
0.0
 11
22853.673484499981
 21
20752.817632999999
 31
0.0
  0
LINE
  5
4340
  8
SUNPOU
  6
CONTINUOUS
 62
     4
 10
25013.673484499981
 20
20102.814729999998
 30
0.0
 11
25013.673484499981
 21
20832.817632999999
 31
0.0
  0
LINE
  5
4341
  8
SUNPOU
  6
CONTINUOUS
 62
     4
 10
25056.169789499989
 20
20102.814729999998
 30
0.0
 11
25056.169789499989
 21
20832.817632999999
 31
0.0
  0
LINE
  5
4342
  8
SUNPOU
  6
CONTINUOUS
 62
     4
 10
25013.673484499981
 20
20752.817632999999
 30
0.0
 11
24773.673484499981
 21
20752.817632999999
 31
0.0
  0
LINE
  5
4343
  8
SUNPOU
  6
CONTINUOUS
 62
     4
 10
25056.169789499989
 20
20752.817632999999
 30
0.0
 11
25296.169789499989
 21
20752.817632999999
 31
0.0
  0
LINE
  5
4344
  8
SUNPOU
  6
CONTINUOUS
 62
     4
 10
25013.673484499981
 20
20752.817632999999
 30
0.0
 11
25056.169789499989
 21
20752.817632999999
 31
0.0
  0
LINE
  5
4345
  8
SUNPOU
  6
CONTINUOUS
 62
     4
 10
18476.673484499981
 20
20102.814729999998
 30
0.0
 11
18476.673484499981
 21
20832.817632999999
 31
0.0
  0
LINE
  5
4346
  8
SUNPOU
  6
CONTINUOUS
 62
     4
 10
18884.173484499981
 20
20102.814729999998
 30
0.0
 11
18884.173484499981
 21
20832.817632999999
 31
0.0
  0
LINE
  5
4347
  8
SUNPOU
  6
CONTINUOUS
 62
     4
 10
18476.673484499981
 20
20752.817632999999
 30
0.0
 11
18884.173484499981
 21
20752.817632999999
 31
0.0
  0
LINE
  5
4348
  8
SUNPOU
  6
CONTINUOUS
 62
     4
 10
18476.673484499981
 20
20102.814729999998
 30
0.0
 11
18476.673484499981
 21
20832.817632999999
 31
0.0
  0
LINE
  5
4349
  8
SUNPOU
  6
CONTINUOUS
 62
     4
 10
18434.17717949998
 20
20102.814729999998
 30
0.0
 11
18434.17717949998
 21
20832.817632999999
 31
0.0
  0
LINE
  5
434A
  8
SUNPOU
  6
CONTINUOUS
 62
     4
 10
18476.673484499981
 20
20752.817632999999
 30
0.0
 11
18716.673484499981
 21
20752.817632999999
 31
0.0
  0
LINE
  5
434B
  8
SUNPOU
  6
CONTINUOUS
 62
     4
 10
18434.17717949998
 20
20752.817632999999
 30
0.0
 11
18194.17717949998
 21
20752.817632999999
 31
0.0
  0
LINE
  5
434C
  8
SUNPOU
  6
CONTINUOUS
 62
     4
 10
18476.673484499981
 20
20752.817632999999
 30
0.0
 11
18434.17717949998
 21
20752.817632999999
 31
0.0
  0
LINE
  5
434D
  8
SUNPOU
  6
CONTINUOUS
 62
     4
 10
20987.173484499981
 20
20102.814729999998
 30
0.0
 11
20987.173484499981
 21
20832.817632999999
 31
0.0
  0
LINE
  5
434E
  8
SUNPOU
  6
CONTINUOUS
 62
     4
 10
21745.174473999989
 20
20102.814729999998
 30
0.0
 11
21745.174473999989
 21
20832.817632999999
 31
0.0
  0
LINE
  5
434F
  8
SUNPOU
  6
CONTINUOUS
 62
     4
 10
20987.173484499981
 20
20752.817632999999
 30
0.0
 11
21745.174473999989
 21
20752.817632999999
 31
0.0
  0
LINE
  5
4350
  8
SUNPOU
  6
CONTINUOUS
 62
     4
 10
20286.173484499981
 20
20102.814729999998
 30
0.0
 11
20286.173484499981
 21
20832.817632999999
 31
0.0
  0
LINE
  5
4351
  8
SUNPOU
  6
CONTINUOUS
 62
     4
 10
20987.173484499981
 20
20102.814729999998
 30
0.0
 11
20987.173484499981
 21
20832.817632999999
 31
0.0
  0
LINE
  5
4352
  8
SUNPOU
  6
CONTINUOUS
 62
     4
 10
20286.173484499981
 20
20752.817632999999
 30
0.0
 11
20987.173484499981
 21
20752.817632999999
 31
0.0
  0
LINE
  5
4353
  8
SUNPOU
  6
CONTINUOUS
 62
     4
 10
19585.173484499981
 20
20102.814729999998
 30
0.0
 11
19585.173484499981
 21
20832.817632999999
 31
0.0
  0
LINE
  5
4354
  8
SUNPOU
  6
CONTINUOUS
 62
     4
 10
20286.173484499981
 20
20102.814729999998
 30
0.0
 11
20286.173484499981
 21
20832.817632999999
 31
0.0
  0
LINE
  5
4355
  8
SUNPOU
  6
CONTINUOUS
 62
     4
 10
19585.173484499981
 20
20752.817632999999
 30
0.0
 11
20286.173484499981
 21
20752.817632999999
 31
0.0
  0
LINE
  5
4356
  8
SUNPOU
  6
CONTINUOUS
 62
     4
 10
18884.173484499981
 20
20102.814729999998
 30
0.0
 11
18884.173484499981
 21
20832.817632999999
 31
0.0
  0
LINE
  5
4357
  8
SUNPOU
  6
CONTINUOUS
 62
     4
 10
19585.173484499981
 20
20102.814729999998
 30
0.0
 11
19585.173484499981
 21
20832.817632999999
 31
0.0
  0
LINE
  5
4358
  8
SUNPOU
  6
CONTINUOUS
 62
     4
 10
18884.173484499981
 20
20752.817632999999
 30
0.0
 11
19585.173484499981
 21
20752.817632999999
 31
0.0
  0
LINE
  5
4359
  8
SUNPOU
  6
CONTINUOUS
 62
     4
 10
18346.672825499991
 20
6212.7285879999972
 30
0.0
 11
17546.674144499979
 21
6212.7285879999972
 31
0.0
  0
LINE
  5
435A
  8
SUNPOU
  6
CONTINUOUS
 62
     4
 10
18346.672825499991
 20
8104.2285879999981
 30
0.0
 11
17546.674144499979
 21
8104.2285879999981
 31
0.0
  0
LINE
  5
435B
  8
SUNPOU
  6
CONTINUOUS
 62
     4
 10
17626.674144499972
 20
6212.7285879999972
 30
0.0
 11
17626.674144499972
 21
8104.2285879999981
 31
0.0
  0
LINE
  5
435C
  8
SUNPOU
  6
CONTINUOUS
 62
     4
 10
18346.672825499991
 20
6212.7285879999972
 30
0.0
 11
17146.671835499961
 21
6212.7285879999972
 31
0.0
  0
LINE
  5
435D
  8
SUNPOU
  6
CONTINUOUS
 62
     4
 10
18314.17308949996
 20
8560.7285880000018
 30
0.0
 11
17146.671835499968
 21
8560.7285880000018
 31
0.0
  0
LINE
  5
435E
  8
SUNPOU
  6
CONTINUOUS
 62
     4
 10
17226.671835499961
 20
6212.7285879999972
 30
0.0
 11
17226.671835499968
 21
8560.7285880000018
 31
0.0
  0
LINE
  5
436F
  8
SUNPOU
  6
CONTINUOUS
 62
     4
 10
18570.673484499981
 20
6032.728753000004
 30
0.0
 11
18570.673484499981
 21
5232.7287530000031
 31
0.0
  0
LINE
  5
4370
  8
SUNPOU
  6
CONTINUOUS
 62
     4
 10
21651.173484499981
 20
6032.728753000004
 30
0.0
 11
21651.173484499981
 21
5232.7287530000031
 31
0.0
  0
LINE
  5
4371
  8
SUNPOU
  6
CONTINUOUS
 62
     4
 10
18570.673484499981
 20
5312.7287530000031
 30
0.0
 11
21651.173484499981
 21
5312.7287530000031
 31
0.0
  0
LINE
  5
4372
  8
SUNPOU
  6
CONTINUOUS
 62
     4
 10
21839.173484499981
 20
6032.728753000004
 30
0.0
 11
21839.173484499981
 21
5232.7287530000031
 31
0.0
  0
LINE
  5
4373
  8
SUNPOU
  6
CONTINUOUS
 62
     4
 10
24919.673484499981
 20
6032.728753000004
 30
0.0
 11
24919.673484499981
 21
5232.7287530000031
 31
0.0
  0
LINE
  5
4374
  8
SUNPOU
  6
CONTINUOUS
 62
     4
 10
21839.173484499981
 20
5312.7287530000031
 30
0.0
 11
24919.673484499981
 21
5312.7287530000031
 31
0.0
  0
LINE
  5
4375
  8
SUNPOU
  6
CONTINUOUS
 62
     4
 10
21745.17348449997
 20
5770.0763299999999
 30
0.0
 11
21745.17348449997
 21
4832.728753000004
 31
0.0
  0
LINE
  5
4376
  8
SUNPOU
  6
CONTINUOUS
 62
     4
 10
25013.673484499981
 20
5770.0763299999999
 30
0.0
 11
25013.673484499981
 21
4832.728753000004
 31
0.0
  0
LINE
  5
4377
  8
SUNPOU
  6
CONTINUOUS
 62
     4
 10
21745.17348449997
 20
4912.7287530000031
 30
0.0
 11
25013.673484499981
 21
4912.7287530000031
 31
0.0
  0
LINE
  5
4378
  8
SUNPOU
  6
CONTINUOUS
 62
     4
 10
18476.673484499981
 20
5770.0763299999999
 30
0.0
 11
18476.673484499981
 21
4832.728753000004
 31
0.0
  0
LINE
  5
4379
  8
SUNPOU
  6
CONTINUOUS
 62
     4
 10
21745.17348449997
 20
5770.0763299999999
 30
0.0
 11
21745.17348449997
 21
4832.728753000004
 31
0.0
  0
LINE
  5
437A
  8
SUNPOU
  6
CONTINUOUS
 62
     4
 10
18476.673484499981
 20
4912.7287530000031
 30
0.0
 11
21745.17348449997
 21
4912.7287530000031
 31
0.0
  0
LINE
  5
437B
  8
SUNPOU
  6
CONTINUOUS
 62
     4
 10
25013.67744349999
 20
5770.0763299999999
 30
0.0
 11
25013.67744349999
 21
4832.728753000004
 31
0.0
  0
LINE
  5
437C
  8
SUNPOU
  6
CONTINUOUS
 62
     4
 10
25056.177443499979
 20
6032.728753000004
 30
0.0
 11
25056.177443499979
 21
4832.728753000004
 31
0.0
  0
LINE
  5
437D
  8
SUNPOU
  6
CONTINUOUS
 62
     4
 10
25013.67744349999
 20
4912.7287530000031
 30
0.0
 11
24773.67744349999
 21
4912.7287530000031
 31
0.0
  0
LINE
  5
437E
  8
SUNPOU
  6
CONTINUOUS
 62
     4
 10
25056.177443499979
 20
4912.7287530000031
 30
0.0
 11
25296.177443499979
 21
4912.7287530000031
 31
0.0
  0
LINE
  5
437F
  8
SUNPOU
  6
CONTINUOUS
 62
     4
 10
25013.67744349999
 20
4912.7287530000031
 30
0.0
 11
25056.177443499979
 21
4912.7287530000031
 31
0.0
  0
LINE
  5
4380
  8
SUNPOU
  6
CONTINUOUS
 62
     4
 10
18476.673484499981
 20
5770.0763299999999
 30
0.0
 11
18476.673484499981
 21
4832.728753000004
 31
0.0
  0
LINE
  5
4381
  8
SUNPOU
  6
CONTINUOUS
 62
     4
 10
18434.173484499981
 20
6032.728753000004
 30
0.0
 11
18434.173484499981
 21
4832.728753000004
 31
0.0
  0
LINE
  5
4382
  8
SUNPOU
  6
CONTINUOUS
 62
     4
 10
18476.673484499981
 20
4912.7287530000031
 30
0.0
 11
18716.673484499981
 21
4912.7287530000031
 31
0.0
  0
LINE
  5
4383
  8
SUNPOU
  6
CONTINUOUS
 62
     4
 10
18434.173484499981
 20
4912.7287530000031
 30
0.0
 11
18194.173484499981
 21
4912.7287530000031
 31
0.0
  0
LINE
  5
4384
  8
SUNPOU
  6
CONTINUOUS
 62
     4
 10
18476.673484499981
 20
4912.7287530000031
 30
0.0
 11
18434.173484499981
 21
4912.7287530000031
 31
0.0
  0
LINE
  5
4385
  8
SUNPOU
  6
CONTINUOUS
 62
     4
 10
18434.173484499981
 20
6032.728753000004
 30
0.0
 11
18434.173484499981
 21
4432.7289180000007
 31
0.0
  0
LINE
  5
4386
  8
SUNPOU
  6
CONTINUOUS
 62
     4
 10
25056.173484499981
 20
6032.728753000004
 30
0.0
 11
25056.173484499981
 21
4432.7289180000007
 31
0.0
  0
LINE
  5
4387
  8
SUNPOU
  6
CONTINUOUS
 62
     4
 10
18434.173484499981
 20
4512.7289179999989
 30
0.0
 11
25056.173484499981
 21
4512.7289179999989
 31
0.0
  0
TEXT
  5
4388
  8
0
  6
CONTINUOUS
 62
     7
 10
21451.840151166642
 20
4592.7289180000007
 30
0.0
 40
160.0
  1
6622
  0
TEXT
  5
4389
  8
0
  6
CONTINUOUS
 62
     7
 10
17868.134494241142
 20
4992.7287530000031
 30
0.0
 40
160.0
  1
42.5
  0
TEXT
  5
438A
  8
0
  6
CONTINUOUS
 62
     7
 10
25142.216433758818
 20
4992.7287530000031
 30
0.0
 40
160.0
  1
42.5
  0
TEXT
  5
438B
  8
0
  6
CONTINUOUS
 62
     7
 10
19710.923484499981
 20
4992.7287530000031
 30
0.0
 40
160.0
  1
3268.5
  0
TEXT
  5
438C
  8
0
  6
CONTINUOUS
 62
     7
 10
22979.423484499981
 20
4992.7287530000031
 30
0.0
 40
160.0
  1
3268.5
  0
TEXT
  5
438D
  8
0
  6
CONTINUOUS
 62
     7
 10
22478.090151166642
 20
5392.7287530000031
 30
0.0
 40
160.0
  1
有効開口巾 3080.5
  0
TEXT
  5
438E
  8
0
  6
CONTINUOUS
 62
     7
 10
19209.590151166642
 20
5392.7287530000031
 30
0.0
 40
160.0
  1
有効開口巾 3080.5
  0
TEXT
  5
4393
  8
0
  6
CONTINUOUS
 62
     7
 10
17146.671835499961
 20
6581.3952546666678
 30
0.0
 40
160.0
  1
2348（2588）
 50
90.0
  0
TEXT
  5
4394
  8
0
  6
CONTINUOUS
 62
     7
 10
17546.674144499979
 20
6276.7078262912746
 30
0.0
 40
160.0
  1
有効開口高サ 1891.5
 50
90.0
  0
TEXT
  5
4395
  8
0
  6
CONTINUOUS
 62
     7
 10
19061.340151166649
 20
20512.817632999999
 30
0.0
 40
160.0
  1
701
  0
TEXT
  5
4396
  8
0
  6
CONTINUOUS
 62
     7
 10
19762.340151166649
 20
20832.817632999999
 30
0.0
 40
160.0
  1
701
  0
TEXT
  5
4397
  8
0
  6
CONTINUOUS
 62
     7
 10
20463.340151166649
 20
20832.817632999999
 30
0.0
 40
160.0
  1
701
  0
TEXT
  5
4398
  8
0
  6
CONTINUOUS
 62
     7
 10
21152.840645916669
 20
20832.817632999999
 30
0.0
 40
160.0
  1
758
  0
TEXT
  5
4399
  8
0
  6
CONTINUOUS
 62
     7
 10
17873.861504971181
 20
20832.817632999999
 30
0.0
 40
160.0
  1
42.5
  0
TEXT
  5
439A
  8
0
  6
CONTINUOUS
 62
     7
 10
18577.506817833309
 20
20832.817632999999
 30
0.0
 40
160.0
  1
407.5
  0
TEXT
  5
439B
  8
0
  6
CONTINUOUS
 62
     7
 10
25136.48546402877
 20
20832.817632999999
 30
0.0
 40
160.0
  1
42.5
  0
TEXT
  5
439C
  8
0
  6
CONTINUOUS
 62
     7
 10
22329.840151166642
 20
20512.817632999999
 30
0.0
 40
160.0
  1
701
  0
TEXT
  5
439D
  8
0
  6
CONTINUOUS
 62
     7
 10
23030.840151166642
 20
20832.817632999999
 30
0.0
 40
160.0
  1
701
  0
TEXT
  5
439E
  8
0
  6
CONTINUOUS
 62
     7
 10
23731.840151166642
 20
20832.817632999999
 30
0.0
 40
160.0
  1
701
  0
TEXT
  5
439F
  8
0
  6
CONTINUOUS
 62
     7
 10
24421.340645916662
 20
20832.817632999999
 30
0.0
 40
160.0
  1
758
  0
TEXT
  5
43A0
  8
0
  6
CONTINUOUS
 62
     7
 10
21846.006817833309
 20
20832.817632999999
 30
0.0
 40
160.0
  1
407.5
  0
TEXT
  5
43A1
  8
0
  6
CONTINUOUS
 62
     7
 10
26426.173088499982
 20
13177.76291360319
 30
0.0
 40
160.0
  1
42.5
 50
90.0
  0
TEXT
  5
43A2
  8
0
  6
CONTINUOUS
 62
     7
 10
26426.173088499982
 20
20116.369976396789
 30
0.0
 40
160.0
  1
42.5
 50
90.0
  0
TEXT
  5
43A3
  8
0
  6
CONTINUOUS
 62
     7
 10
26826.173088499982
 20
16513.733111666661
 30
0.0
 40
160.0
  1
6271.5
 50
90.0
  0
TEXT
  5
43A4
  8
0
  6
CONTINUOUS
 62
     7
 10
26426.173088499982
 20
15028.06644499998
 30
0.0
 40
160.0
  1
3268.5
 50
90.0
  0
TEXT
  5
43A5
  8
0
  6
CONTINUOUS
 62
     7
 10
26426.173088499982
 20
18254.649778333322
 30
0.0
 40
160.0
  1
2918
 50
90.0
  0
TEXT
  5
43A6
  8
0
  6
CONTINUOUS
 62
     7
 10
26026.17308849996
 20
19387.983111666661
 30
0.0
 40
160.0
  1
758
 50
90.0
  0
TEXT
  5
43A7
  8
0
  6
CONTINUOUS
 62
     7
 10
26026.17308849996
 20
18698.48311166665
 30
0.0
 40
160.0
  1
701
 50
90.0
  0
TEXT
  5
43A8
  8
0
  6
CONTINUOUS
 62
     7
 10
26026.17308849996
 20
17997.483111666661
 30
0.0
 40
160.0
  1
701
 50
90.0
  0
TEXT
  5
43A9
  8
0
  6
CONTINUOUS
 62
     7
 10
26026.17308849996
 20
17227.98311166665
 30
0.0
 40
160.0
  1
758
 50
90.0
  0
TEXT
  5
43AA
  8
0
  6
CONTINUOUS
 62
     7
 10
26026.17308849996
 20
16469.98311166665
 30
0.0
 40
160.0
  1
758
 50
90.0
  0
TEXT
  5
43AB
  8
0
  6
CONTINUOUS
 62
     7
 10
26026.17308849996
 20
15780.603367416659
 30
0.0
 40
160.0
  1
701
 50
90.0
  0
TEXT
  5
43AC
  8
0
  6
CONTINUOUS
 62
     7
 10
26026.17308849996
 20
15079.603367416659
 30
0.0
 40
160.0
  1
701
 50
90.0
  0
TEXT
  5
43AD
  8
0
  6
CONTINUOUS
 62
     7
 10
26026.17308849996
 20
14378.48311166665
 30
0.0
 40
160.0
  1
701
 50
90.0
  0
TEXT
  5
43AE
  8
0
  6
CONTINUOUS
 62
     7
 10
26386.173088499982
 20
13866.63685920352
 30
0.0
 40
160.0
  1
407.5
 50
90.0
  0
TEXT
  5
43AF
  8
0
  6
CONTINUOUS
 62
     7
 10
21451.840151166642
 20
12502.368360999981
 30
0.0
 40
160.0
  1
6622
  0
TEXT
  5
43B0
  8
0
  6
CONTINUOUS
 62
     7
 10
18594.727156882062
 20
12902.368360999981
 30
0.0
 40
160.0
  1
42.5
  0
TEXT
  5
43B1
  8
0
  6
CONTINUOUS
 62
     7
 10
24415.61981211789
 20
12902.368360999981
 30
0.0
 40
160.0
  1
42.5
  0
TEXT
  5
43B2
  8
0
  6
CONTINUOUS
 62
     7
 10
10990.133510999991
 20
4992.7287530000031
 30
0.0
 40
160.0
  1
3268.5
  0
TEXT
  5
43B3
  8
0
  6
CONTINUOUS
 62
     7
 10
8030.216844333333
 20
4992.7287530000031
 30
0.0
 40
160.0
  1
2918
  0
TEXT
  5
43B4
  8
0
  6
CONTINUOUS
 62
     7
 10
6198.209801903693
 20
4992.7287530000031
 30
0.0
 40
160.0
  1
42.5
  0
TEXT
  5
43B5
  8
0
  6
CONTINUOUS
 62
     7
 10
13205.20214830982
 20
4992.7287530000031
 30
0.0
 40
160.0
  1
42.5
  0
TEXT
  5
43B6
  8
0
  6
CONTINUOUS
 62
     7
 10
9557.8001776666697
 20
4592.7289180000007
 30
0.0
 40
160.0
  1
6271.5
  0
TEXT
  5
43B7
  8
0
  6
CONTINUOUS
 62
     7
 10
5625.3831150000024
 20
6512.5619213333384
 30
0.0
 40
160.0
  1
2157（2397）
 50
90.0
  0
TEXT
  5
43B8
  8
0
  6
CONTINUOUS
 62
     7
 10
14076.88390699999
 20
6581.3952546666706
 30
0.0
 40
160.0
  1
2348（2588）
 50
90.0
  0
TEXT
  5
43B9
  8
0
  6
CONTINUOUS
 62
     7
 10
6202.0501776666661
 20
9440.7302639999998
 30
0.0
 40
160.0
  1
180
  0
TEXT
  5
43BA
  8
0
  6
CONTINUOUS
 62
     7
 10
9557.8001776666697
 20
9440.7302639999998
 30
0.0
 40
160.0
  1
6271.5
  0
TEXT
  5
43BB
  8
0
  6
CONTINUOUS
 62
     7
 10
13283.550177666661
 20
9440.7302639999998
 30
0.0
 40
160.0
  1
150
  0
TEXT
  5
43BC
  8
0
  6
CONTINUOUS
 62
     7
 10
9556.133511
 20
9840.7286139999997
 30
0.0
 40
160.0
  1
6601.5
  0
TEXT
  5
43BD
  8
0
  6
CONTINUOUS
 62
     7
 10
17878.61981211789
 20
12902.368360999981
 30
0.0
 40
160.0
  1
42.5
  0
TEXT
  5
43BE
  8
0
  6
CONTINUOUS
 62
     7
 10
25131.727156882062
 20
12902.368360999981
 30
0.0
 40
160.0
  1
42.5
  0
TEXT
  5
43BF
  8
0
  6
CONTINUOUS
 62
     7
 10
13914.50396402325
 20
20832.817632999999
 30
0.0
 40
160.0
  1
85.5
  0
TEXT
  5
43C0
  8
0
  6
CONTINUOUS
 62
     7
 10
11743.757258
 20
20832.817632999999
 30
0.0
 40
160.0
  1
3268.5
  0
TEXT
  5
43C1
  8
0
  6
CONTINUOUS
 62
     7
 10
6624.5105519767349
 20
20832.817632999999
 30
0.0
 40
160.0
  1
85.5
  0
TEXT
  5
43C2
  8
0
  6
CONTINUOUS
 62
     7
 10
8475.2572579999978
 20
20832.817632999999
 30
0.0
 40
160.0
  1
3268.5
  0
TEXT
  5
43C3
  8
0
  6
CONTINUOUS
 62
     7
 10
6231.5074819999963
 20
18254.649778333311
 30
0.0
 40
160.0
  1
2918
 50
90.0
  0
TEXT
  5
43C4
  8
0
  6
CONTINUOUS
 62
     7
 10
6231.5074819999963
 20
20291.771629807648
 30
0.0
 40
160.0
  1
222.5
 50
90.0
  0
TEXT
  5
43C5
  8
0
  6
CONTINUOUS
 62
     7
 10
6631.5074819999982
 20
20349.479020666651
 30
0.0
 40
160.0
  1
10
 50
90.0
  0
TEXT
  5
43C6
  8
0
  6
CONTINUOUS
 62
     7
 10
6231.5074819999973
 20
15028.06644499998
 30
0.0
 40
160.0
  1
3268.5
 50
90.0
  0
TEXT
  5
43C7
  8
0
  6
CONTINUOUS
 62
     7
 10
6231.5074819999936
 20
12985.863434702611
 30
0.0
 40
160.0
  1
192.5
 50
90.0
  0
ARC
  5
43CD
  8
0
  6
BYBLOCK
 62
     0
 10
6311.5074819999973
 20
13793.81644499998
 30
0.0
 40
15.0
 50
270.0
 51
90.0
  0
ARC
  5
43CE
  8
0
  6
BYBLOCK
 62
     0
 10
6311.5074819999973
 20
13793.81644499998
 30
0.0
 40
15.0
 50
90.0
 51
270.0
  0
ARC
  5
43CF
  8
0
  6
BYBLOCK
 62
     0
 10
6311.5074819999973
 20
13601.32112999998
 30
0.0
 40
15.0
 50
90.0
 51
270.0
  0
ARC
  5
43D0
  8
0
  6
BYBLOCK
 62
     0
 10
6311.5074819999973
 20
13601.32112999998
 30
0.0
 40
15.0
 50
270.0
 51
90.0
  0
ARC
  5
43D1
  8
0
  6
BYBLOCK
 62
     0
 10
6311.507482
 20
17062.316444999979
 30
0.0
 40
15.0
 50
270.0
 51
90.0
  0
ARC
  5
43D2
  8
0
  6
BYBLOCK
 62
     0
 10
6311.507482
 20
17062.316444999979
 30
0.0
 40
15.0
 50
90.0
 51
270.0
  0
ARC
  5
43D3
  8
0
  6
BYBLOCK
 62
     0
 10
6311.5074819999991
 20
13793.81644499998
 30
0.0
 40
15.0
 50
90.0
 51
270.0
  0
ARC
  5
43D4
  8
0
  6
BYBLOCK
 62
     0
 10
6311.5074819999991
 20
13793.81644499998
 30
0.0
 40
15.0
 50
270.0
 51
90.0
  0
ARC
  5
43D5
  8
0
  6
BYBLOCK
 62
     0
 10
6711.5074819999982
 20
20192.812354000002
 30
0.0
 40
15.0
 50
270.0
 51
90.0
  0
ARC
  5
43D6
  8
0
  6
BYBLOCK
 62
     0
 10
6711.5074819999982
 20
20192.812354000002
 30
0.0
 40
15.0
 50
90.0
 51
270.0
  0
ARC
  5
43D7
  8
0
  6
BYBLOCK
 62
     0
 10
6711.5074819999982
 20
20202.812354000002
 30
0.0
 40
15.0
 50
90.0
 51
270.0
  0
ARC
  5
43D8
  8
0
  6
BYBLOCK
 62
     0
 10
6711.5074819999982
 20
20202.812354000002
 30
0.0
 40
15.0
 50
270.0
 51
90.0
  0
ARC
  5
43D9
  8
0
  6
BYBLOCK
 62
     0
 10
6311.5074819999991
 20
19980.316444999949
 30
0.0
 40
15.0
 50
90.0
 51
270.0
  0
ARC
  5
43DA
  8
0
  6
BYBLOCK
 62
     0
 10
6311.5074819999991
 20
19980.316444999949
 30
0.0
 40
15.0
 50
270.0
 51
90.0
  0
ARC
  5
43DB
  8
0
  6
BYBLOCK
 62
     0
 10
6311.5074819999991
 20
20202.812354000002
 30
0.0
 40
15.0
 50
270.0
 51
90.0
  0
ARC
  5
43DC
  8
0
  6
BYBLOCK
 62
     0
 10
6311.5074819999991
 20
20202.812354000002
 30
0.0
 40
15.0
 50
90.0
 51
270.0
  0
ARC
  5
43DD
  8
0
  6
BYBLOCK
 62
     0
 10
6311.5074819999973
 20
17062.316444999979
 30
0.0
 40
15.0
 50
90.0
 51
270.0
  0
ARC
  5
43DE
  8
0
  6
BYBLOCK
 62
     0
 10
6311.5074819999973
 20
17062.316444999979
 30
0.0
 40
15.0
 50
270.0
 51
90.0
  0
ARC
  5
43DF
  8
0
  6
BYBLOCK
 62
     0
 10
6311.5074819999991
 20
19980.316444999949
 30
0.0
 40
15.0
 50
270.0
 51
90.0
  0
ARC
  5
43E0
  8
0
  6
BYBLOCK
 62
     0
 10
6311.5074819999991
 20
19980.316444999949
 30
0.0
 40
15.0
 50
90.0
 51
270.0
  0
ARC
  5
43E1
  8
0
  6
BYBLOCK
 62
     0
 10
7241.0072579999978
 20
20752.817632999999
 30
0.0
 40
15.0
 50
0.0
 51
180.0
  0
ARC
  5
43E2
  8
0
  6
BYBLOCK
 62
     0
 10
7241.0072579999978
 20
20752.817632999999
 30
0.0
 40
15.0
 50
180.0
 51
0.0
  0
ARC
  5
43E3
  8
0
  6
BYBLOCK
 62
     0
 10
10509.507257999991
 20
20752.817632999999
 30
0.0
 40
15.0
 50
180.0
 51
0.0
  0
ARC
  5
43E4
  8
0
  6
BYBLOCK
 62
     0
 10
10509.507257999991
 20
20752.817632999999
 30
0.0
 40
15.0
 50
0.0
 51
180.0
  0
ARC
  5
43E5
  8
0
  6
BYBLOCK
 62
     0
 10
7241.0072579999978
 20
20752.817632999999
 30
0.0
 40
15.0
 50
0.0
 51
180.0
  0
ARC
  5
43E6
  8
0
  6
BYBLOCK
 62
     0
 10
7241.0072579999978
 20
20752.817632999999
 30
0.0
 40
15.0
 50
180.0
 51
0.0
  0
ARC
  5
43E7
  8
0
  6
BYBLOCK
 62
     0
 10
7155.5072579999987
 20
20752.817632999999
 30
0.0
 40
15.0
 50
180.0
 51
0.0
  0
ARC
  5
43E8
  8
0
  6
BYBLOCK
 62
     0
 10
7155.5072579999987
 20
20752.817632999999
 30
0.0
 40
15.0
 50
0.0
 51
180.0
  0
ARC
  5
43E9
  8
0
  6
BYBLOCK
 62
     0
 10
13778.007258
 20
20752.817632999999
 30
0.0
 40
15.0
 50
180.0
 51
0.0
  0
ARC
  5
43EA
  8
0
  6
BYBLOCK
 62
     0
 10
13778.007258
 20
20752.817632999999
 30
0.0
 40
15.0
 50
0.0
 51
180.0
  0
ARC
  5
43EB
  8
0
  6
BYBLOCK
 62
     0
 10
10509.507257999991
 20
20752.817632999999
 30
0.0
 40
15.0
 50
0.0
 51
180.0
  0
ARC
  5
43EC
  8
0
  6
BYBLOCK
 62
     0
 10
10509.507257999991
 20
20752.817632999999
 30
0.0
 40
15.0
 50
180.0
 51
0.0
  0
ARC
  5
43ED
  8
0
  6
BYBLOCK
 62
     0
 10
13778.007258
 20
20752.817632999999
 30
0.0
 40
15.0
 50
180.0
 51
0.0
  0
ARC
  5
43EE
  8
0
  6
BYBLOCK
 62
     0
 10
13778.007258
 20
20752.817632999999
 30
0.0
 40
15.0
 50
0.0
 51
180.0
  0
ARC
  5
43EF
  8
0
  6
BYBLOCK
 62
     0
 10
13863.507258
 20
20752.817632999999
 30
0.0
 40
15.0
 50
0.0
 51
180.0
  0
ARC
  5
43F0
  8
0
  6
BYBLOCK
 62
     0
 10
13863.507258
 20
20752.817632999999
 30
0.0
 40
15.0
 50
180.0
 51
0.0
  0
ARC
  5
43F1
  8
0
  6
BYBLOCK
 62
     0
 10
25013.673484499981
 20
12822.368360999981
 30
0.0
 40
15.0
 50
180.0
 51
0.0
  0
ARC
  5
43F2
  8
0
  6
BYBLOCK
 62
     0
 10
25013.673484499981
 20
12822.368360999981
 30
0.0
 40
15.0
 50
0.0
 51
180.0
  0
ARC
  5
43F3
  8
0
  6
BYBLOCK
 62
     0
 10
25056.17572749998
 20
12822.368360999981
 30
0.0
 40
15.0
 50
0.0
 51
180.0
  0
ARC
  5
43F4
  8
0
  6
BYBLOCK
 62
     0
 10
25056.17572749998
 20
12822.368360999981
 30
0.0
 40
15.0
 50
180.0
 51
0.0
  0
ARC
  5
43F5
  8
0
  6
BYBLOCK
 62
     0
 10
18476.673484499981
 20
12822.368360999981
 30
0.0
 40
15.0
 50
0.0
 51
180.0
  0
ARC
  5
43F6
  8
0
  6
BYBLOCK
 62
     0
 10
18476.673484499981
 20
12822.368360999981
 30
0.0
 40
15.0
 50
180.0
 51
0.0
  0
ARC
  5
43F7
  8
0
  6
BYBLOCK
 62
     0
 10
18434.17124149996
 20
12822.368360999981
 30
0.0
 40
15.0
 50
180.0
 51
0.0
  0
ARC
  5
43F8
  8
0
  6
BYBLOCK
 62
     0
 10
18434.17124149996
 20
12822.368360999981
 30
0.0
 40
15.0
 50
0.0
 51
180.0
  0
ARC
  5
43F9
  8
0
  6
BYBLOCK
 62
     0
 10
6615.383511
 20
9760.7286140000015
 30
0.0
 40
15.0
 50
0.0
 51
180.0
  0
ARC
  5
43FA
  8
0
  6
BYBLOCK
 62
     0
 10
6615.383511
 20
9760.7286140000015
 30
0.0
 40
15.0
 50
180.0
 51
0.0
  0
ARC
  5
43FB
  8
0
  6
BYBLOCK
 62
     0
 10
13216.883511
 20
9760.7286140000015
 30
0.0
 40
15.0
 50
180.0
 51
0.0
  0
ARC
  5
43FC
  8
0
  6
BYBLOCK
 62
     0
 10
13216.883511
 20
9760.7286140000015
 30
0.0
 40
15.0
 50
0.0
 51
180.0
  0
ARC
  5
43FD
  8
0
  6
BYBLOCK
 62
     0
 10
13066.883511
 20
9360.7302639999998
 30
0.0
 40
15.0
 50
180.0
 51
0.0
  0
ARC
  5
43FE
  8
0
  6
BYBLOCK
 62
     0
 10
13066.883511
 20
9360.7302639999998
 30
0.0
 40
15.0
 50
0.0
 51
180.0
  0
ARC
  5
43FF
  8
0
  6
BYBLOCK
 62
     0
 10
13216.883511
 20
9360.7302639999998
 30
0.0
 40
15.0
 50
0.0
 51
180.0
  0
ARC
  5
4400
  8
0
  6
BYBLOCK
 62
     0
 10
13216.883511
 20
9360.7302639999998
 30
0.0
 40
15.0
 50
180.0
 51
0.0
  0
ARC
  5
4401
  8
0
  6
BYBLOCK
 62
     0
 10
6795.383511
 20
9360.7302639999998
 30
0.0
 40
15.0
 50
0.0
 51
180.0
  0
ARC
  5
4402
  8
0
  6
BYBLOCK
 62
     0
 10
6795.383511
 20
9360.7302639999998
 30
0.0
 40
15.0
 50
180.0
 51
0.0
  0
ARC
  5
4403
  8
0
  6
BYBLOCK
 62
     0
 10
13066.883511
 20
9360.7302639999998
 30
0.0
 40
15.0
 50
180.0
 51
0.0
  0
ARC
  5
4404
  8
0
  6
BYBLOCK
 62
     0
 10
13066.883511
 20
9360.7302639999998
 30
0.0
 40
15.0
 50
0.0
 51
180.0
  0
ARC
  5
4405
  8
0
  6
BYBLOCK
 62
     0
 10
6615.383511
 20
9360.7302639999998
 30
0.0
 40
15.0
 50
0.0
 51
180.0
  0
ARC
  5
4406
  8
0
  6
BYBLOCK
 62
     0
 10
6615.383511
 20
9360.7302639999998
 30
0.0
 40
15.0
 50
180.0
 51
0.0
  0
ARC
  5
4407
  8
0
  6
BYBLOCK
 62
     0
 10
6795.383511
 20
9360.7302639999998
 30
0.0
 40
15.0
 50
180.0
 51
0.0
  0
ARC
  5
4408
  8
0
  6
BYBLOCK
 62
     0
 10
6795.383511
 20
9360.7302639999998
 30
0.0
 40
15.0
 50
0.0
 51
180.0
  0
ARC
  5
4409
  8
0
  6
BYBLOCK
 62
     0
 10
14156.88390699999
 20
6212.7285879999999
 30
0.0
 40
15.0
 50
90.0
 51
270.0
  0
ARC
  5
440A
  8
0
  6
BYBLOCK
 62
     0
 10
14156.88390699999
 20
6212.7285879999999
 30
0.0
 40
15.0
 50
270.0
 51
90.0
  0
ARC
  5
440B
  8
0
  6
BYBLOCK
 62
     0
 10
14156.88390699999
 20
8560.7285880000018
 30
0.0
 40
15.0
 50
270.0
 51
90.0
  0
ARC
  5
440C
  8
0
  6
BYBLOCK
 62
     0
 10
14156.88390699999
 20
8560.7285880000018
 30
0.0
 40
15.0
 50
90.0
 51
270.0
  0
ARC
  5
440D
  8
0
  6
BYBLOCK
 62
     0
 10
5705.3831150000024
 20
6212.7285880000027
 30
0.0
 40
15.0
 50
90.0
 51
270.0
  0
ARC
  5
440E
  8
0
  6
BYBLOCK
 62
     0
 10
5705.3831150000024
 20
6212.7285880000027
 30
0.0
 40
15.0
 50
270.0
 51
90.0
  0
ARC
  5
440F
  8
0
  6
BYBLOCK
 62
     0
 10
5705.3831150000024
 20
8369.7285880000054
 30
0.0
 40
15.0
 50
270.0
 51
90.0
  0
ARC
  5
4410
  8
0
  6
BYBLOCK
 62
     0
 10
5705.3831150000024
 20
8369.7285880000054
 30
0.0
 40
15.0
 50
90.0
 51
270.0
  0
ARC
  5
4411
  8
0
  6
BYBLOCK
 62
     0
 10
6795.383511
 20
4512.7289179999989
 30
0.0
 40
15.0
 50
0.0
 51
180.0
  0
ARC
  5
4412
  8
0
  6
BYBLOCK
 62
     0
 10
6795.383511
 20
4512.7289179999989
 30
0.0
 40
15.0
 50
180.0
 51
0.0
  0
ARC
  5
4413
  8
0
  6
BYBLOCK
 62
     0
 10
13066.883511
 20
4512.7289179999989
 30
0.0
 40
15.0
 50
180.0
 51
0.0
  0
ARC
  5
4414
  8
0
  6
BYBLOCK
 62
     0
 10
13066.883511
 20
4512.7289179999989
 30
0.0
 40
15.0
 50
0.0
 51
180.0
  0
ARC
  5
4415
  8
0
  6
BYBLOCK
 62
     0
 10
13024.383511
 20
4912.7287530000031
 30
0.0
 40
15.0
 50
180.0
 51
0.0
  0
ARC
  5
4416
  8
0
  6
BYBLOCK
 62
     0
 10
13024.383511
 20
4912.7287530000031
 30
0.0
 40
15.0
 50
0.0
 51
180.0
  0
ARC
  5
4417
  8
0
  6
BYBLOCK
 62
     0
 10
13066.883511
 20
4912.7287530000031
 30
0.0
 40
15.0
 50
0.0
 51
180.0
  0
ARC
  5
4418
  8
0
  6
BYBLOCK
 62
     0
 10
13066.883511
 20
4912.7287530000031
 30
0.0
 40
15.0
 50
180.0
 51
0.0
  0
ARC
  5
4419
  8
0
  6
BYBLOCK
 62
     0
 10
6837.883511
 20
4912.7287530000031
 30
0.0
 40
15.0
 50
0.0
 51
180.0
  0
ARC
  5
441A
  8
0
  6
BYBLOCK
 62
     0
 10
6837.883511
 20
4912.7287530000031
 30
0.0
 40
15.0
 50
180.0
 51
0.0
  0
ARC
  5
441B
  8
0
  6
BYBLOCK
 62
     0
 10
6795.383511
 20
4912.7287530000031
 30
0.0
 40
15.0
 50
180.0
 51
0.0
  0
ARC
  5
441C
  8
0
  6
BYBLOCK
 62
     0
 10
6795.383511
 20
4912.7287530000031
 30
0.0
 40
15.0
 50
0.0
 51
180.0
  0
ARC
  5
441D
  8
0
  6
BYBLOCK
 62
     0
 10
9755.883511
 20
4912.7287530000031
 30
0.0
 40
15.0
 50
180.0
 51
0.0
  0
ARC
  5
441E
  8
0
  6
BYBLOCK
 62
     0
 10
9755.883511
 20
4912.7287530000031
 30
0.0
 40
15.0
 50
0.0
 51
180.0
  0
ARC
  5
441F
  8
0
  6
BYBLOCK
 62
     0
 10
6837.883511
 20
4912.7287530000031
 30
0.0
 40
15.0
 50
0.0
 51
180.0
  0
ARC
  5
4420
  8
0
  6
BYBLOCK
 62
     0
 10
6837.883511
 20
4912.7287530000031
 30
0.0
 40
15.0
 50
180.0
 51
0.0
  0
ARC
  5
4421
  8
0
  6
BYBLOCK
 62
     0
 10
9755.883511
 20
4912.7287530000031
 30
0.0
 40
15.0
 50
0.0
 51
180.0
  0
ARC
  5
4422
  8
0
  6
BYBLOCK
 62
     0
 10
9755.883511
 20
4912.7287530000031
 30
0.0
 40
15.0
 50
180.0
 51
0.0
  0
ARC
  5
4423
  8
0
  6
BYBLOCK
 62
     0
 10
13024.383511
 20
4912.7287530000031
 30
0.0
 40
15.0
 50
180.0
 51
0.0
  0
ARC
  5
4424
  8
0
  6
BYBLOCK
 62
     0
 10
13024.383511
 20
4912.7287530000031
 30
0.0
 40
15.0
 50
0.0
 51
180.0
  0
ARC
  5
4425
  8
0
  6
BYBLOCK
 62
     0
 10
25013.673484499981
 20
12822.368360999981
 30
0.0
 40
15.0
 50
0.0
 51
180.0
  0
ARC
  5
4426
  8
0
  6
BYBLOCK
 62
     0
 10
25013.673484499981
 20
12822.368360999981
 30
0.0
 40
15.0
 50
180.0
 51
0.0
  0
ARC
  5
4427
  8
0
  6
BYBLOCK
 62
     0
 10
24971.171241499971
 20
12822.368360999981
 30
0.0
 40
15.0
 50
180.0
 51
0.0
  0
ARC
  5
4428
  8
0
  6
BYBLOCK
 62
     0
 10
24971.171241499971
 20
12822.368360999981
 30
0.0
 40
15.0
 50
0.0
 51
180.0
  0
ARC
  5
4429
  8
0
  6
BYBLOCK
 62
     0
 10
18476.673484499981
 20
12822.368360999981
 30
0.0
 40
15.0
 50
180.0
 51
0.0
  0
ARC
  5
442A
  8
0
  6
BYBLOCK
 62
     0
 10
18476.673484499981
 20
12822.368360999981
 30
0.0
 40
15.0
 50
0.0
 51
180.0
  0
ARC
  5
442B
  8
0
  6
BYBLOCK
 62
     0
 10
18519.175727499969
 20
12822.368360999981
 30
0.0
 40
15.0
 50
0.0
 51
180.0
  0
ARC
  5
442C
  8
0
  6
BYBLOCK
 62
     0
 10
18519.175727499969
 20
12822.368360999981
 30
0.0
 40
15.0
 50
180.0
 51
0.0
  0
ARC
  5
442D
  8
0
  6
BYBLOCK
 62
     0
 10
18434.17124149996
 20
12422.368360999981
 30
0.0
 40
15.0
 50
0.0
 51
180.0
  0
ARC
  5
442E
  8
0
  6
BYBLOCK
 62
     0
 10
18434.17124149996
 20
12422.368360999981
 30
0.0
 40
15.0
 50
180.0
 51
0.0
  0
ARC
  5
442F
  8
0
  6
BYBLOCK
 62
     0
 10
25056.17572749998
 20
12422.368360999981
 30
0.0
 40
15.0
 50
180.0
 51
0.0
  0
ARC
  5
4430
  8
0
  6
BYBLOCK
 62
     0
 10
25056.17572749998
 20
12422.368360999981
 30
0.0
 40
15.0
 50
0.0
 51
180.0
  0
ARC
  5
4431
  8
0
  6
BYBLOCK
 62
     0
 10
26106.173088499982
 20
14201.31644499998
 30
0.0
 40
15.0
 50
270.0
 51
90.0
  0
ARC
  5
4432
  8
0
  6
BYBLOCK
 62
     0
 10
26106.173088499982
 20
14201.31644499998
 30
0.0
 40
15.0
 50
90.0
 51
270.0
  0
ARC
  5
4433
  8
0
  6
BYBLOCK
 62
     0
 10
26106.173088499982
 20
13793.81644499998
 30
0.0
 40
15.0
 50
90.0
 51
270.0
  0
ARC
  5
4434
  8
0
  6
BYBLOCK
 62
     0
 10
26106.173088499982
 20
13793.81644499998
 30
0.0
 40
15.0
 50
270.0
 51
90.0
  0
ARC
  5
4435
  8
0
  6
BYBLOCK
 62
     0
 10
26106.173088499982
 20
14902.31644499998
 30
0.0
 40
15.0
 50
270.0
 51
90.0
  0
ARC
  5
4436
  8
0
  6
BYBLOCK
 62
     0
 10
26106.173088499982
 20
14902.31644499998
 30
0.0
 40
15.0
 50
90.0
 51
270.0
  0
ARC
  5
4437
  8
0
  6
BYBLOCK
 62
     0
 10
26106.173088499982
 20
14201.31644499998
 30
0.0
 40
15.0
 50
90.0
 51
270.0
  0
ARC
  5
4438
  8
0
  6
BYBLOCK
 62
     0
 10
26106.173088499982
 20
14201.31644499998
 30
0.0
 40
15.0
 50
270.0
 51
90.0
  0
ARC
  5
4439
  8
0
  6
BYBLOCK
 62
     0
 10
26106.173088499982
 20
15603.556956500001
 30
0.0
 40
15.0
 50
270.0
 51
90.0
  0
ARC
  5
443A
  8
0
  6
BYBLOCK
 62
     0
 10
26106.173088499982
 20
15603.556956500001
 30
0.0
 40
15.0
 50
90.0
 51
270.0
  0
ARC
  5
443B
  8
0
  6
BYBLOCK
 62
     0
 10
26106.173088499982
 20
14902.31644499998
 30
0.0
 40
15.0
 50
90.0
 51
270.0
  0
ARC
  5
443C
  8
0
  6
BYBLOCK
 62
     0
 10
26106.173088499982
 20
14902.31644499998
 30
0.0
 40
15.0
 50
270.0
 51
90.0
  0
ARC
  5
443D
  8
0
  6
BYBLOCK
 62
     0
 10
26106.173088499982
 20
16304.31644499998
 30
0.0
 40
15.0
 50
270.0
 51
90.0
  0
ARC
  5
443E
  8
0
  6
BYBLOCK
 62
     0
 10
26106.173088499982
 20
16304.31644499998
 30
0.0
 40
15.0
 50
90.0
 51
270.0
  0
ARC
  5
443F
  8
0
  6
BYBLOCK
 62
     0
 10
26106.173088499982
 20
15603.556956500001
 30
0.0
 40
15.0
 50
90.0
 51
270.0
  0
ARC
  5
4440
  8
0
  6
BYBLOCK
 62
     0
 10
26106.173088499982
 20
15603.556956500001
 30
0.0
 40
15.0
 50
270.0
 51
90.0
  0
ARC
  5
4441
  8
0
  6
BYBLOCK
 62
     0
 10
26106.173088499982
 20
17062.316444999979
 30
0.0
 40
15.0
 50
270.0
 51
90.0
  0
ARC
  5
4442
  8
0
  6
BYBLOCK
 62
     0
 10
26106.173088499982
 20
17062.316444999979
 30
0.0
 40
15.0
 50
90.0
 51
270.0
  0
ARC
  5
4443
  8
0
  6
BYBLOCK
 62
     0
 10
26106.173088499982
 20
16304.31644499998
 30
0.0
 40
15.0
 50
90.0
 51
270.0
  0
ARC
  5
4444
  8
0
  6
BYBLOCK
 62
     0
 10
26106.173088499982
 20
16304.31644499998
 30
0.0
 40
15.0
 50
270.0
 51
90.0
  0
ARC
  5
4445
  8
0
  6
BYBLOCK
 62
     0
 10
26106.173088499982
 20
17820.316444999979
 30
0.0
 40
15.0
 50
270.0
 51
90.0
  0
ARC
  5
4446
  8
0
  6
BYBLOCK
 62
     0
 10
26106.173088499982
 20
17820.316444999979
 30
0.0
 40
15.0
 50
90.0
 51
270.0
  0
ARC
  5
4447
  8
0
  6
BYBLOCK
 62
     0
 10
26106.173088499982
 20
17062.316444999979
 30
0.0
 40
15.0
 50
90.0
 51
270.0
  0
ARC
  5
4448
  8
0
  6
BYBLOCK
 62
     0
 10
26106.173088499982
 20
17062.316444999979
 30
0.0
 40
15.0
 50
270.0
 51
90.0
  0
ARC
  5
4449
  8
0
  6
BYBLOCK
 62
     0
 10
26106.173088499982
 20
18521.31644499996
 30
0.0
 40
15.0
 50
270.0
 51
90.0
  0
ARC
  5
444A
  8
0
  6
BYBLOCK
 62
     0
 10
26106.173088499982
 20
18521.31644499996
 30
0.0
 40
15.0
 50
90.0
 51
270.0
  0
ARC
  5
444B
  8
0
  6
BYBLOCK
 62
     0
 10
26106.173088499982
 20
17820.316444999979
 30
0.0
 40
15.0
 50
90.0
 51
270.0
  0
ARC
  5
444C
  8
0
  6
BYBLOCK
 62
     0
 10
26106.173088499982
 20
17820.316444999979
 30
0.0
 40
15.0
 50
270.0
 51
90.0
  0
ARC
  5
444D
  8
0
  6
BYBLOCK
 62
     0
 10
26106.173088499982
 20
19222.31644499996
 30
0.0
 40
15.0
 50
270.0
 51
90.0
  0
ARC
  5
444E
  8
0
  6
BYBLOCK
 62
     0
 10
26106.173088499982
 20
19222.31644499996
 30
0.0
 40
15.0
 50
90.0
 51
270.0
  0
ARC
  5
444F
  8
0
  6
BYBLOCK
 62
     0
 10
26106.173088499982
 20
18521.31644499996
 30
0.0
 40
15.0
 50
90.0
 51
270.0
  0
ARC
  5
4450
  8
0
  6
BYBLOCK
 62
     0
 10
26106.173088499982
 20
18521.31644499996
 30
0.0
 40
15.0
 50
270.0
 51
90.0
  0
ARC
  5
4451
  8
0
  6
BYBLOCK
 62
     0
 10
26106.173088499982
 20
19980.316444999949
 30
0.0
 40
15.0
 50
270.0
 51
90.0
  0
ARC
  5
4452
  8
0
  6
BYBLOCK
 62
     0
 10
26106.173088499982
 20
19980.316444999949
 30
0.0
 40
15.0
 50
90.0
 51
270.0
  0
ARC
  5
4453
  8
0
  6
BYBLOCK
 62
     0
 10
26106.173088499982
 20
19222.31644499996
 30
0.0
 40
15.0
 50
90.0
 51
270.0
  0
ARC
  5
4454
  8
0
  6
BYBLOCK
 62
     0
 10
26106.173088499982
 20
19222.31644499996
 30
0.0
 40
15.0
 50
270.0
 51
90.0
  0
ARC
  5
4455
  8
0
  6
BYBLOCK
 62
     0
 10
26506.173088499982
 20
17062.316444999979
 30
0.0
 40
15.0
 50
90.0
 51
270.0
  0
ARC
  5
4456
  8
0
  6
BYBLOCK
 62
     0
 10
26506.173088499982
 20
17062.316444999979
 30
0.0
 40
15.0
 50
270.0
 51
90.0
  0
ARC
  5
4457
  8
0
  6
BYBLOCK
 62
     0
 10
26506.173088499982
 20
19980.316444999949
 30
0.0
 40
15.0
 50
270.0
 51
90.0
  0
ARC
  5
4458
  8
0
  6
BYBLOCK
 62
     0
 10
26506.173088499982
 20
19980.316444999949
 30
0.0
 40
15.0
 50
90.0
 51
270.0
  0
ARC
  5
4459
  8
0
  6
BYBLOCK
 62
     0
 10
26506.173088499982
 20
13793.81644499998
 30
0.0
 40
15.0
 50
90.0
 51
270.0
  0
ARC
  5
445A
  8
0
  6
BYBLOCK
 62
     0
 10
26506.173088499982
 20
13793.81644499998
 30
0.0
 40
15.0
 50
270.0
 51
90.0
  0
ARC
  5
445B
  8
0
  6
BYBLOCK
 62
     0
 10
26506.173088499982
 20
17062.316444999979
 30
0.0
 40
15.0
 50
270.0
 51
90.0
  0
ARC
  5
445C
  8
0
  6
BYBLOCK
 62
     0
 10
26506.173088499982
 20
17062.316444999979
 30
0.0
 40
15.0
 50
90.0
 51
270.0
  0
ARC
  5
445D
  8
0
  6
BYBLOCK
 62
     0
 10
26906.173088499982
 20
20022.81373999998
 30
0.0
 40
15.0
 50
270.0
 51
90.0
  0
ARC
  5
445E
  8
0
  6
BYBLOCK
 62
     0
 10
26906.173088499982
 20
20022.81373999998
 30
0.0
 40
15.0
 50
90.0
 51
270.0
  0
ARC
  5
445F
  8
0
  6
BYBLOCK
 62
     0
 10
26906.173088499982
 20
13751.319149999979
 30
0.0
 40
15.0
 50
90.0
 51
270.0
  0
ARC
  5
4460
  8
0
  6
BYBLOCK
 62
     0
 10
26906.173088499982
 20
13751.319149999979
 30
0.0
 40
15.0
 50
270.0
 51
90.0
  0
ARC
  5
4461
  8
0
  6
BYBLOCK
 62
     0
 10
26506.173088499982
 20
19980.316444999949
 30
0.0
 40
15.0
 50
270.0
 51
90.0
  0
ARC
  5
4462
  8
0
  6
BYBLOCK
 62
     0
 10
26506.173088499982
 20
19980.316444999949
 30
0.0
 40
15.0
 50
90.0
 51
270.0
  0
ARC
  5
4463
  8
0
  6
BYBLOCK
 62
     0
 10
26506.173088499982
 20
20022.81373999998
 30
0.0
 40
15.0
 50
90.0
 51
270.0
  0
ARC
  5
4464
  8
0
  6
BYBLOCK
 62
     0
 10
26506.173088499982
 20
20022.81373999998
 30
0.0
 40
15.0
 50
270.0
 51
90.0
  0
ARC
  5
4465
  8
0
  6
BYBLOCK
 62
     0
 10
26506.173088499982
 20
13793.81644499998
 30
0.0
 40
15.0
 50
90.0
 51
270.0
  0
ARC
  5
4466
  8
0
  6
BYBLOCK
 62
     0
 10
26506.173088499982
 20
13793.81644499998
 30
0.0
 40
15.0
 50
270.0
 51
90.0
  0
ARC
  5
4467
  8
0
  6
BYBLOCK
 62
     0
 10
26506.173088499982
 20
13751.319149999979
 30
0.0
 40
15.0
 50
270.0
 51
90.0
  0
ARC
  5
4468
  8
0
  6
BYBLOCK
 62
     0
 10
26506.173088499982
 20
13751.319149999979
 30
0.0
 40
15.0
 50
90.0
 51
270.0
  0
ARC
  5
4469
  8
0
  6
BYBLOCK
 62
     0
 10
21745.17348449997
 20
20752.817632999999
 30
0.0
 40
15.0
 50
0.0
 51
180.0
  0
ARC
  5
446A
  8
0
  6
BYBLOCK
 62
     0
 10
21745.17348449997
 20
20752.817632999999
 30
0.0
 40
15.0
 50
180.0
 51
0.0
  0
ARC
  5
446B
  8
0
  6
BYBLOCK
 62
     0
 10
22152.673484499981
 20
20752.817632999999
 30
0.0
 40
15.0
 50
180.0
 51
0.0
  0
ARC
  5
446C
  8
0
  6
BYBLOCK
 62
     0
 10
22152.673484499981
 20
20752.817632999999
 30
0.0
 40
15.0
 50
0.0
 51
180.0
  0
ARC
  5
446D
  8
0
  6
BYBLOCK
 62
     0
 10
24255.673484499981
 20
20752.817632999999
 30
0.0
 40
15.0
 50
0.0
 51
180.0
  0
ARC
  5
446E
  8
0
  6
BYBLOCK
 62
     0
 10
24255.673484499981
 20
20752.817632999999
 30
0.0
 40
15.0
 50
180.0
 51
0.0
  0
ARC
  5
446F
  8
0
  6
BYBLOCK
 62
     0
 10
25013.674473999981
 20
20752.817632999999
 30
0.0
 40
15.0
 50
180.0
 51
0.0
  0
ARC
  5
4470
  8
0
  6
BYBLOCK
 62
     0
 10
25013.674473999981
 20
20752.817632999999
 30
0.0
 40
15.0
 50
0.0
 51
180.0
  0
ARC
  5
4471
  8
0
  6
BYBLOCK
 62
     0
 10
23554.673484499981
 20
20752.817632999999
 30
0.0
 40
15.0
 50
0.0
 51
180.0
  0
ARC
  5
4472
  8
0
  6
BYBLOCK
 62
     0
 10
23554.673484499981
 20
20752.817632999999
 30
0.0
 40
15.0
 50
180.0
 51
0.0
  0
ARC
  5
4473
  8
0
  6
BYBLOCK
 62
     0
 10
24255.673484499981
 20
20752.817632999999
 30
0.0
 40
15.0
 50
180.0
 51
0.0
  0
ARC
  5
4474
  8
0
  6
BYBLOCK
 62
     0
 10
24255.673484499981
 20
20752.817632999999
 30
0.0
 40
15.0
 50
0.0
 51
180.0
  0
ARC
  5
4475
  8
0
  6
BYBLOCK
 62
     0
 10
22853.673484499981
 20
20752.817632999999
 30
0.0
 40
15.0
 50
0.0
 51
180.0
  0
ARC
  5
4476
  8
0
  6
BYBLOCK
 62
     0
 10
22853.673484499981
 20
20752.817632999999
 30
0.0
 40
15.0
 50
180.0
 51
0.0
  0
ARC
  5
4477
  8
0
  6
BYBLOCK
 62
     0
 10
23554.673484499981
 20
20752.817632999999
 30
0.0
 40
15.0
 50
180.0
 51
0.0
  0
ARC
  5
4478
  8
0
  6
BYBLOCK
 62
     0
 10
23554.673484499981
 20
20752.817632999999
 30
0.0
 40
15.0
 50
0.0
 51
180.0
  0
ARC
  5
4479
  8
0
  6
BYBLOCK
 62
     0
 10
22152.673484499981
 20
20752.817632999999
 30
0.0
 40
15.0
 50
0.0
 51
180.0
  0
ARC
  5
447A
  8
0
  6
BYBLOCK
 62
     0
 10
22152.673484499981
 20
20752.817632999999
 30
0.0
 40
15.0
 50
180.0
 51
0.0
  0
ARC
  5
447B
  8
0
  6
BYBLOCK
 62
     0
 10
22853.673484499981
 20
20752.817632999999
 30
0.0
 40
15.0
 50
180.0
 51
0.0
  0
ARC
  5
447C
  8
0
  6
BYBLOCK
 62
     0
 10
22853.673484499981
 20
20752.817632999999
 30
0.0
 40
15.0
 50
0.0
 51
180.0
  0
ARC
  5
447D
  8
0
  6
BYBLOCK
 62
     0
 10
25013.673484499981
 20
20752.817632999999
 30
0.0
 40
15.0
 50
180.0
 51
0.0
  0
ARC
  5
447E
  8
0
  6
BYBLOCK
 62
     0
 10
25013.673484499981
 20
20752.817632999999
 30
0.0
 40
15.0
 50
0.0
 51
180.0
  0
ARC
  5
447F
  8
0
  6
BYBLOCK
 62
     0
 10
25056.169789499989
 20
20752.817632999999
 30
0.0
 40
15.0
 50
0.0
 51
180.0
  0
ARC
  5
4480
  8
0
  6
BYBLOCK
 62
     0
 10
25056.169789499989
 20
20752.817632999999
 30
0.0
 40
15.0
 50
180.0
 51
0.0
  0
ARC
  5
4481
  8
0
  6
BYBLOCK
 62
     0
 10
18476.673484499981
 20
20752.817632999999
 30
0.0
 40
15.0
 50
0.0
 51
180.0
  0
ARC
  5
4482
  8
0
  6
BYBLOCK
 62
     0
 10
18476.673484499981
 20
20752.817632999999
 30
0.0
 40
15.0
 50
180.0
 51
0.0
  0
ARC
  5
4483
  8
0
  6
BYBLOCK
 62
     0
 10
18884.173484499981
 20
20752.817632999999
 30
0.0
 40
15.0
 50
180.0
 51
0.0
  0
ARC
  5
4484
  8
0
  6
BYBLOCK
 62
     0
 10
18884.173484499981
 20
20752.817632999999
 30
0.0
 40
15.0
 50
0.0
 51
180.0
  0
ARC
  5
4485
  8
0
  6
BYBLOCK
 62
     0
 10
18476.673484499981
 20
20752.817632999999
 30
0.0
 40
15.0
 50
0.0
 51
180.0
  0
ARC
  5
4486
  8
0
  6
BYBLOCK
 62
     0
 10
18476.673484499981
 20
20752.817632999999
 30
0.0
 40
15.0
 50
180.0
 51
0.0
  0
ARC
  5
4487
  8
0
  6
BYBLOCK
 62
     0
 10
18434.17717949998
 20
20752.817632999999
 30
0.0
 40
15.0
 50
180.0
 51
0.0
  0
ARC
  5
4488
  8
0
  6
BYBLOCK
 62
     0
 10
18434.17717949998
 20
20752.817632999999
 30
0.0
 40
15.0
 50
0.0
 51
180.0
  0
ARC
  5
4489
  8
0
  6
BYBLOCK
 62
     0
 10
20987.173484499981
 20
20752.817632999999
 30
0.0
 40
15.0
 50
0.0
 51
180.0
  0
ARC
  5
448A
  8
0
  6
BYBLOCK
 62
     0
 10
20987.173484499981
 20
20752.817632999999
 30
0.0
 40
15.0
 50
180.0
 51
0.0
  0
ARC
  5
448B
  8
0
  6
BYBLOCK
 62
     0
 10
21745.174473999989
 20
20752.817632999999
 30
0.0
 40
15.0
 50
180.0
 51
0.0
  0
ARC
  5
448C
  8
0
  6
BYBLOCK
 62
     0
 10
21745.174473999989
 20
20752.817632999999
 30
0.0
 40
15.0
 50
0.0
 51
180.0
  0
ARC
  5
448D
  8
0
  6
BYBLOCK
 62
     0
 10
20286.173484499981
 20
20752.817632999999
 30
0.0
 40
15.0
 50
0.0
 51
180.0
  0
ARC
  5
448E
  8
0
  6
BYBLOCK
 62
     0
 10
20286.173484499981
 20
20752.817632999999
 30
0.0
 40
15.0
 50
180.0
 51
0.0
  0
ARC
  5
448F
  8
0
  6
BYBLOCK
 62
     0
 10
20987.173484499981
 20
20752.817632999999
 30
0.0
 40
15.0
 50
180.0
 51
0.0
  0
ARC
  5
4490
  8
0
  6
BYBLOCK
 62
     0
 10
20987.173484499981
 20
20752.817632999999
 30
0.0
 40
15.0
 50
0.0
 51
180.0
  0
ARC
  5
4491
  8
0
  6
BYBLOCK
 62
     0
 10
19585.173484499981
 20
20752.817632999999
 30
0.0
 40
15.0
 50
0.0
 51
180.0
  0
ARC
  5
4492
  8
0
  6
BYBLOCK
 62
     0
 10
19585.173484499981
 20
20752.817632999999
 30
0.0
 40
15.0
 50
180.0
 51
0.0
  0
ARC
  5
4493
  8
0
  6
BYBLOCK
 62
     0
 10
20286.173484499981
 20
20752.817632999999
 30
0.0
 40
15.0
 50
180.0
 51
0.0
  0
ARC
  5
4494
  8
0
  6
BYBLOCK
 62
     0
 10
20286.173484499981
 20
20752.817632999999
 30
0.0
 40
15.0
 50
0.0
 51
180.0
  0
ARC
  5
4495
  8
0
  6
BYBLOCK
 62
     0
 10
18884.173484499981
 20
20752.817632999999
 30
0.0
 40
15.0
 50
0.0
 51
180.0
  0
ARC
  5
4496
  8
0
  6
BYBLOCK
 62
     0
 10
18884.173484499981
 20
20752.817632999999
 30
0.0
 40
15.0
 50
180.0
 51
0.0
  0
ARC
  5
4497
  8
0
  6
BYBLOCK
 62
     0
 10
19585.173484499981
 20
20752.817632999999
 30
0.0
 40
15.0
 50
180.0
 51
0.0
  0
ARC
  5
4498
  8
0
  6
BYBLOCK
 62
     0
 10
19585.173484499981
 20
20752.817632999999
 30
0.0
 40
15.0
 50
0.0
 51
180.0
  0
ARC
  5
4499
  8
0
  6
BYBLOCK
 62
     0
 10
17626.674144499972
 20
6212.7285879999972
 30
0.0
 40
15.0
 50
90.0
 51
270.0
  0
ARC
  5
449A
  8
0
  6
BYBLOCK
 62
     0
 10
17626.674144499972
 20
6212.7285879999972
 30
0.0
 40
15.0
 50
270.0
 51
90.0
  0
ARC
  5
449B
  8
0
  6
BYBLOCK
 62
     0
 10
17626.674144499972
 20
8104.2285879999981
 30
0.0
 40
15.0
 50
270.0
 51
90.0
  0
ARC
  5
449C
  8
0
  6
BYBLOCK
 62
     0
 10
17626.674144499972
 20
8104.2285879999981
 30
0.0
 40
15.0
 50
90.0
 51
270.0
  0
ARC
  5
449D
  8
0
  6
BYBLOCK
 62
     0
 10
17226.671835499961
 20
6212.7285879999972
 30
0.0
 40
15.0
 50
90.0
 51
270.0
  0
ARC
  5
449E
  8
0
  6
BYBLOCK
 62
     0
 10
17226.671835499961
 20
6212.7285879999972
 30
0.0
 40
15.0
 50
270.0
 51
90.0
  0
ARC
  5
449F
  8
0
  6
BYBLOCK
 62
     0
 10
17226.671835499968
 20
8560.7285880000018
 30
0.0
 40
15.0
 50
270.0
 51
90.0
  0
ARC
  5
44A0
  8
0
  6
BYBLOCK
 62
     0
 10
17226.671835499968
 20
8560.7285880000018
 30
0.0
 40
15.0
 50
90.0
 51
270.0
  0
ARC
  5
44B1
  8
0
  6
BYBLOCK
 62
     0
 10
18570.673484499981
 20
5312.7287530000031
 30
0.0
 40
15.0
 50
0.0
 51
180.0
  0
ARC
  5
44B2
  8
0
  6
BYBLOCK
 62
     0
 10
18570.673484499981
 20
5312.7287530000031
 30
0.0
 40
15.0
 50
180.0
 51
0.0
  0
ARC
  5
44B3
  8
0
  6
BYBLOCK
 62
     0
 10
21651.173484499981
 20
5312.7287530000031
 30
0.0
 40
15.0
 50
180.0
 51
0.0
  0
ARC
  5
44B4
  8
0
  6
BYBLOCK
 62
     0
 10
21651.173484499981
 20
5312.7287530000031
 30
0.0
 40
15.0
 50
0.0
 51
180.0
  0
ARC
  5
44B5
  8
0
  6
BYBLOCK
 62
     0
 10
21839.173484499981
 20
5312.7287530000031
 30
0.0
 40
15.0
 50
0.0
 51
180.0
  0
ARC
  5
44B6
  8
0
  6
BYBLOCK
 62
     0
 10
21839.173484499981
 20
5312.7287530000031
 30
0.0
 40
15.0
 50
180.0
 51
0.0
  0
ARC
  5
44B7
  8
0
  6
BYBLOCK
 62
     0
 10
24919.673484499981
 20
5312.7287530000031
 30
0.0
 40
15.0
 50
180.0
 51
0.0
  0
ARC
  5
44B8
  8
0
  6
BYBLOCK
 62
     0
 10
24919.673484499981
 20
5312.7287530000031
 30
0.0
 40
15.0
 50
0.0
 51
180.0
  0
ARC
  5
44B9
  8
0
  6
BYBLOCK
 62
     0
 10
21745.17348449997
 20
4912.7287530000031
 30
0.0
 40
15.0
 50
0.0
 51
180.0
  0
ARC
  5
44BA
  8
0
  6
BYBLOCK
 62
     0
 10
21745.17348449997
 20
4912.7287530000031
 30
0.0
 40
15.0
 50
180.0
 51
0.0
  0
ARC
  5
44BB
  8
0
  6
BYBLOCK
 62
     0
 10
25013.673484499981
 20
4912.7287530000031
 30
0.0
 40
15.0
 50
180.0
 51
0.0
  0
ARC
  5
44BC
  8
0
  6
BYBLOCK
 62
     0
 10
25013.673484499981
 20
4912.7287530000031
 30
0.0
 40
15.0
 50
0.0
 51
180.0
  0
ARC
  5
44BD
  8
0
  6
BYBLOCK
 62
     0
 10
18476.673484499981
 20
4912.7287530000031
 30
0.0
 40
15.0
 50
0.0
 51
180.0
  0
ARC
  5
44BE
  8
0
  6
BYBLOCK
 62
     0
 10
18476.673484499981
 20
4912.7287530000031
 30
0.0
 40
15.0
 50
180.0
 51
0.0
  0
ARC
  5
44BF
  8
0
  6
BYBLOCK
 62
     0
 10
21745.17348449997
 20
4912.7287530000031
 30
0.0
 40
15.0
 50
180.0
 51
0.0
  0
ARC
  5
44C0
  8
0
  6
BYBLOCK
 62
     0
 10
21745.17348449997
 20
4912.7287530000031
 30
0.0
 40
15.0
 50
0.0
 51
180.0
  0
ARC
  5
44C1
  8
0
  6
BYBLOCK
 62
     0
 10
25013.67744349999
 20
4912.7287530000031
 30
0.0
 40
15.0
 50
180.0
 51
0.0
  0
ARC
  5
44C2
  8
0
  6
BYBLOCK
 62
     0
 10
25013.67744349999
 20
4912.7287530000031
 30
0.0
 40
15.0
 50
0.0
 51
180.0
  0
ARC
  5
44C3
  8
0
  6
BYBLOCK
 62
     0
 10
25056.177443499979
 20
4912.7287530000031
 30
0.0
 40
15.0
 50
0.0
 51
180.0
  0
ARC
  5
44C4
  8
0
  6
BYBLOCK
 62
     0
 10
25056.177443499979
 20
4912.7287530000031
 30
0.0
 40
15.0
 50
180.0
 51
0.0
  0
ARC
  5
44C5
  8
0
  6
BYBLOCK
 62
     0
 10
18476.673484499981
 20
4912.7287530000031
 30
0.0
 40
15.0
 50
0.0
 51
180.0
  0
ARC
  5
44C6
  8
0
  6
BYBLOCK
 62
     0
 10
18476.673484499981
 20
4912.7287530000031
 30
0.0
 40
15.0
 50
180.0
 51
0.0
  0
ARC
  5
44C7
  8
0
  6
BYBLOCK
 62
     0
 10
18434.173484499981
 20
4912.7287530000031
 30
0.0
 40
15.0
 50
180.0
 51
0.0
  0
ARC
  5
44C8
  8
0
  6
BYBLOCK
 62
     0
 10
18434.173484499981
 20
4912.7287530000031
 30
0.0
 40
15.0
 50
0.0
 51
180.0
  0
ARC
  5
44C9
  8
0
  6
BYBLOCK
 62
     0
 10
18434.173484499981
 20
4512.7289179999989
 30
0.0
 40
15.0
 50
0.0
 51
180.0
  0
ARC
  5
44CA
  8
0
  6
BYBLOCK
 62
     0
 10
18434.173484499981
 20
4512.7289179999989
 30
0.0
 40
15.0
 50
180.0
 51
0.0
  0
ARC
  5
44CB
  8
0
  6
BYBLOCK
 62
     0
 10
25056.173484499981
 20
4512.7289179999989
 30
0.0
 40
15.0
 50
180.0
 51
0.0
  0
ARC
  5
44CC
  8
0
  6
BYBLOCK
 62
     0
 10
25056.173484499981
 20
4512.7289179999989
 30
0.0
 40
15.0
 50
0.0
 51
180.0
  0
LINE
  5
45F0
  8
0-1
  6
CONTINUOUS
 62
     3
 10
24950.176466499979
 20
8311.2286079999976
 30
0.0
 11
24950.176466499979
 21
8343.2285150000007
 31
0.0
  0
LINE
  5
45F1
  8
0-1
  6
CONTINUOUS
 62
     3
 10
25099.175859499988
 20
8235.0418860000009
 30
0.0
 11
25056.17374849999
 21
8235.0418860000009
 31
0.0
  0
LINE
  5
45F2
  8
0-1
  6
CONTINUOUS
 62
     3
 10
25099.175859499988
 20
8561.2289370000035
 30
0.0
 11
25099.175859499988
 21
8235.0418860000009
 31
0.0
  0
LINE
  5
45F3
  8
0-1
  6
CONTINUOUS
 62
     3
 10
24664.209273500001
 20
8307.6931869999953
 30
0.0
 11
24632.210356499989
 21
8339.6930949999987
 31
0.0
  0
LINE
  5
45F4
  8
0-1
  6
CONTINUOUS
 62
     3
 10
24945.176202499981
 20
8348.2287790000009
 30
0.0
 11
24635.745776499989
 21
8348.2287790000009
 31
0.0
  0
LINE
  5
45F5
  8
0-1
  6
CONTINUOUS
 62
     3
 10
24950.176466499979
 20
8339.8296820000032
 30
0.0
 11
24632.079707499979
 21
8339.8296820000032
 31
0.0
  0
LINE
  5
45F6
  8
0-1
  6
CONTINUOUS
 62
     3
 10
24945.176202499981
 20
8306.2283440000028
 30
0.0
 11
24667.74667349998
 21
8306.2283440000028
 31
0.0
  0
LINE
  5
45F7
  8
0-1
  6
CONTINUOUS
 62
     3
 10
24950.176466499979
 20
8314.6284309999992
 30
0.0
 11
24657.275020500001
 21
8314.6284309999992
 31
0.0
  0
LINE
  5
45F8
  8
0-1
  6
CONTINUOUS
 62
     3
 10
24950.176466499979
 20
8323.0285179999992
 30
0.0
 11
24648.875922499989
 21
8323.0285179999992
 31
0.0
  0
LINE
  5
45F9
  8
0-1
  6
CONTINUOUS
 62
     3
 10
24950.176466499979
 20
8331.4295949999978
 30
0.0
 11
24640.474846499979
 21
8331.4295949999978
 31
0.0
  0
LINE
  5
45FA
  8
0-1
  6
CONTINUOUS
 62
     3
 10
22094.639674500009
 20
8307.6931869999953
 30
0.0
 11
22126.63661250001
 21
8339.6930949999987
 31
0.0
  0
LINE
  5
45FB
  8
0-1
  6
CONTINUOUS
 62
     3
 10
21808.674460500009
 20
8311.2286079999976
 30
0.0
 11
21808.674460500009
 21
8343.2285150000007
 31
0.0
  0
LINE
  5
45FC
  8
0-1
  6
CONTINUOUS
 62
     3
 10
21808.674460500009
 20
8314.6284309999992
 30
0.0
 11
22101.57194849999
 21
8314.6284309999992
 31
0.0
  0
LINE
  5
45FD
  8
0-1
  6
CONTINUOUS
 62
     3
 10
21808.674460500009
 20
8323.0285179999992
 30
0.0
 11
22109.973025499999
 21
8323.0285179999992
 31
0.0
  0
LINE
  5
45FE
  8
0-1
  6
CONTINUOUS
 62
     3
 10
21813.67472449999
 20
8306.2283440000028
 30
0.0
 11
22091.102274500001
 21
8306.2283440000028
 31
0.0
  0
LINE
  5
45FF
  8
0-1
  6
CONTINUOUS
 62
     3
 10
21808.674460500009
 20
8331.4295949999978
 30
0.0
 11
22118.372122500012
 21
8331.4295949999978
 31
0.0
  0
LINE
  5
4600
  8
0-1
  6
CONTINUOUS
 62
     3
 10
21808.674460500009
 20
8339.8296820000032
 30
0.0
 11
22126.769240500009
 21
8339.8296820000032
 31
0.0
  0
LINE
  5
4601
  8
0-1
  6
CONTINUOUS
 62
     3
 10
21813.67472449999
 20
8348.2287790000009
 30
0.0
 11
22123.103171500021
 21
8348.2287790000009
 31
0.0
  0
LINE
  5
4602
  8
0-1
  6
CONTINUOUS
 62
     3
 10
25099.175859499988
 20
8431.2280139999984
 30
0.0
 11
21745.173484499988
 21
8431.2280139999984
 31
0.0
  0
LINE
  5
4603
  8
0-1
  6
CONTINUOUS
 62
     3
 10
21787.6717685
 20
8357.2286600000025
 30
0.0
 11
24971.175199499979
 21
8357.2286600000025
 31
0.0
  0
LINE
  5
4604
  8
0-1
  6
CONTINUOUS
 62
     3
 10
21787.6717685
 20
8297.2284619999991
 30
0.0
 11
24971.175199499979
 21
8297.2284619999991
 31
0.0
  0
LINE
  5
4605
  8
0-1
  6
CONTINUOUS
 62
     3
 10
21745.173484499988
 20
8561.2289370000035
 30
0.0
 11
25099.175859499988
 21
8561.2289370000035
 31
0.0
  0
LINE
  5
4606
  8
0-1
  6
CONTINUOUS
 62
     3
 10
21681.672508499989
 20
8311.2286079999976
 30
0.0
 11
21681.672508499989
 21
8343.2285150000007
 31
0.0
  0
LINE
  5
4607
  8
0-1
  6
CONTINUOUS
 62
     3
 10
21395.71125349998
 20
8307.6931869999953
 30
0.0
 11
21363.710356499989
 21
8339.6930949999987
 31
0.0
  0
LINE
  5
4608
  8
0-1
  6
CONTINUOUS
 62
     3
 10
21681.672508499989
 20
8339.8296820000032
 30
0.0
 11
21363.579708499969
 21
8339.8296820000032
 31
0.0
  0
LINE
  5
4609
  8
0-1
  6
CONTINUOUS
 62
     3
 10
21681.672508499989
 20
8331.4295949999978
 30
0.0
 11
21371.974846499979
 21
8331.4295949999978
 31
0.0
  0
LINE
  5
460A
  8
0-1
  6
CONTINUOUS
 62
     3
 10
21681.672508499989
 20
8323.0285179999992
 30
0.0
 11
21380.373943499992
 21
8323.0285179999992
 31
0.0
  0
LINE
  5
460B
  8
0-1
  6
CONTINUOUS
 62
     3
 10
21681.672508499989
 20
8314.6284309999992
 30
0.0
 11
21388.773041499971
 21
8314.6284309999992
 31
0.0
  0
LINE
  5
460C
  8
0-1
  6
CONTINUOUS
 62
     3
 10
21676.67422349998
 20
8348.2287790000009
 30
0.0
 11
21367.243797499988
 21
8348.2287790000009
 31
0.0
  0
LINE
  5
460D
  8
0-1
  6
CONTINUOUS
 62
     3
 10
21676.67422349998
 20
8306.2283440000028
 30
0.0
 11
21399.24667449998
 21
8306.2283440000028
 31
0.0
  0
LINE
  5
460E
  8
0-1
  6
CONTINUOUS
 62
     3
 10
18545.172745499989
 20
8306.2283440000028
 30
0.0
 11
18822.602275499969
 21
8306.2283440000028
 31
0.0
  0
LINE
  5
460F
  8
0-1
  6
CONTINUOUS
 62
     3
 10
18540.174461499992
 20
8311.2286079999976
 30
0.0
 11
18540.174461499992
 21
8343.2285150000007
 31
0.0
  0
LINE
  5
4610
  8
0-1
  6
CONTINUOUS
 62
     3
 10
18391.173089499971
 20
8235.0418860000009
 30
0.0
 11
18434.171241499989
 21
8235.0418860000009
 31
0.0
  0
LINE
  5
4611
  8
0-1
  6
CONTINUOUS
 62
     3
 10
18391.173089499971
 20
8235.0418860000009
 30
0.0
 11
18391.173089499971
 21
8561.2289370000035
 31
0.0
  0
LINE
  5
4612
  8
0-1
  6
CONTINUOUS
 62
     3
 10
18545.172745499989
 20
8348.2287790000009
 30
0.0
 11
18854.603172499988
 21
8348.2287790000009
 31
0.0
  0
LINE
  5
4613
  8
0-1
  6
CONTINUOUS
 62
     3
 10
18826.13571549999
 20
8307.6931869999953
 30
0.0
 11
18858.136613499992
 21
8339.6930949999987
 31
0.0
  0
LINE
  5
4614
  8
0-1
  6
CONTINUOUS
 62
     3
 10
18540.174461499992
 20
8339.8296820000032
 30
0.0
 11
18858.269240500002
 21
8339.8296820000032
 31
0.0
  0
LINE
  5
4615
  8
0-1
  6
CONTINUOUS
 62
     3
 10
18540.174461499992
 20
8331.4295949999978
 30
0.0
 11
18849.87212349999
 21
8331.4295949999978
 31
0.0
  0
LINE
  5
4616
  8
0-1
  6
CONTINUOUS
 62
     3
 10
18540.174461499992
 20
8323.0285179999992
 30
0.0
 11
18841.473025499999
 21
8323.0285179999992
 31
0.0
  0
LINE
  5
4617
  8
0-1
  6
CONTINUOUS
 62
     3
 10
18540.174461499992
 20
8314.6284309999992
 30
0.0
 11
18833.073928499969
 21
8314.6284309999992
 31
0.0
  0
LINE
  5
4618
  8
0-1
  6
CONTINUOUS
 62
     3
 10
18519.17176949999
 20
8297.2284619999991
 30
0.0
 11
21702.673220499979
 21
8297.2284619999991
 31
0.0
  0
LINE
  5
4619
  8
0-1
  6
CONTINUOUS
 62
     3
 10
18519.17176949999
 20
8357.2286600000025
 30
0.0
 11
21702.673220499979
 21
8357.2286600000025
 31
0.0
  0
LINE
  5
461A
  8
0-1
  6
CONTINUOUS
 62
     3
 10
18391.173089499971
 20
8561.2289370000035
 30
0.0
 11
21745.173484499988
 21
8561.2289370000035
 31
0.0
  0
LINE
  5
461B
  8
0-1
  6
CONTINUOUS
 62
     3
 10
21745.173484499988
 20
8431.2280139999984
 30
0.0
 11
18391.173089499971
 21
8431.2280139999984
 31
0.0
  0
LINE
  5
461C
  8
0-1
  6
CONTINUOUS
 62
     3
 10
21745.173484499988
 20
8431.2280139999984
 30
0.0
 11
21745.173484499988
 21
8561.2289370000035
 31
0.0
  0
LINE
  5
461D
  8
0-1
  6
CONTINUOUS
 62
     3
 10
21745.173484499988
 20
8431.2280139999984
 30
0.0
 11
21745.173484499988
 21
8561.2289370000035
 31
0.0
  0
ARC
  5
461E
  8
0-1
  6
CONTINUOUS
 62
     3
 10
24945.176202499981
 20
8343.2285150000007
 30
0.0
 40
5.0
 50
0.0
 51
90.0
  0
ARC
  5
461F
  8
0-1
  6
CONTINUOUS
 62
     3
 10
24945.176202499981
 20
8311.2286079999976
 30
0.0
 40
5.0
 50
269.9999850001808
 51
0.0
  0
ARC
  5
4620
  8
0-1
  6
CONTINUOUS
 62
     3
 10
24635.745776499989
 20
8343.2285150000007
 30
0.0
 40
5.0
 50
90.0
 51
224.99998499997989
  0
ARC
  5
4621
  8
0-1
  6
CONTINUOUS
 62
     3
 10
24667.74667349998
 20
8311.2286079999976
 30
0.0
 40
5.0
 50
224.99998499997989
 51
269.9999850001808
  0
ARC
  5
4622
  8
0-1
  6
CONTINUOUS
 62
     3
 10
22123.103171500021
 20
8343.2285150000007
 30
0.0
 40
5.0
 50
314.99998500027471
 51
90.0
  0
ARC
  5
4623
  8
0-1
  6
CONTINUOUS
 62
     3
 10
22091.102274500001
 20
8311.2286079999976
 30
0.0
 40
5.0
 50
269.9999850001808
 51
314.99998500027471
  0
ARC
  5
4624
  8
0-1
  6
CONTINUOUS
 62
     3
 10
21813.67472449999
 20
8311.2286079999976
 30
0.0
 40
5.0
 50
180.0
 51
269.9999850001808
  0
ARC
  5
4625
  8
0-1
  6
CONTINUOUS
 62
     3
 10
21813.67472449999
 20
8343.2285150000007
 30
0.0
 40
5.0
 50
90.0
 51
180.0
  0
ARC
  5
4626
  8
0-1
  6
CONTINUOUS
 62
     3
 10
21676.67422349998
 20
8311.2286079999976
 30
0.0
 40
5.0
 50
269.9999850001808
 51
0.0
  0
ARC
  5
4627
  8
0-1
  6
CONTINUOUS
 62
     3
 10
21676.67422349998
 20
8343.2285150000007
 30
0.0
 40
5.0
 50
0.0
 51
90.0
  0
ARC
  5
4628
  8
0-1
  6
CONTINUOUS
 62
     3
 10
21367.243797499988
 20
8343.2285150000007
 30
0.0
 40
5.0
 50
90.0
 51
224.99998499997989
  0
ARC
  5
4629
  8
0-1
  6
CONTINUOUS
 62
     3
 10
21399.24667449998
 20
8311.2286079999976
 30
0.0
 40
5.0
 50
224.99998499997989
 51
269.9999850001808
  0
ARC
  5
462A
  8
0-1
  6
CONTINUOUS
 62
     3
 10
18854.603172499988
 20
8343.2285150000007
 30
0.0
 40
5.0
 50
314.99998500027471
 51
90.0
  0
ARC
  5
462B
  8
0-1
  6
CONTINUOUS
 62
     3
 10
18545.172745499989
 20
8343.2285150000007
 30
0.0
 40
5.0
 50
90.0
 51
180.0
  0
ARC
  5
462C
  8
0-1
  6
CONTINUOUS
 62
     3
 10
18545.172745499989
 20
8311.2286079999976
 30
0.0
 40
5.0
 50
180.0
 51
269.9999850001808
  0
ARC
  5
462D
  8
0-1
  6
CONTINUOUS
 62
     3
 10
18822.602275499969
 20
8311.2286079999976
 30
0.0
 40
5.0
 50
269.9999850001808
 51
314.99998500027471
  0
LINE
  5
462E
  8
SUNPOU
  6
CONTINUOUS
 62
     4
 10
18391.17110949997
 20
8641.2289370000035
 30
0.0
 11
18391.17110949997
 21
9840.686549
 31
0.0
  0
LINE
  5
462F
  8
SUNPOU
  6
CONTINUOUS
 62
     4
 10
25099.175859499988
 20
8641.2289370000035
 30
0.0
 11
25099.175859499988
 21
9840.686549
 31
0.0
  0
LINE
  5
4630
  8
SUNPOU
  6
CONTINUOUS
 62
     4
 10
18394.17110949997
 20
9760.686549
 30
0.0
 11
25096.175859499988
 21
9760.686549
 31
0.0
  0
LINE
  5
4631
  8
SUNPOU
  6
CONTINUOUS
 62
     4
 10
18434.173220499972
 20
8641.2289370000035
 30
0.0
 11
18434.173220499972
 21
9440.7287790000028
 31
0.0
  0
LINE
  5
4632
  8
SUNPOU
  6
CONTINUOUS
 62
     4
 10
25056.17374849999
 20
8641.2289370000035
 30
0.0
 11
25056.17374849999
 21
9440.7287790000028
 31
0.0
  0
LINE
  5
4633
  8
SUNPOU
  6
CONTINUOUS
 62
     4
 10
18434.173220499972
 20
9360.7287790000028
 30
0.0
 11
25056.17374849999
 21
9360.7287790000028
 31
0.0
  0
LINE
  5
4634
  8
SUNPOU
  6
CONTINUOUS
 62
     4
 10
18434.173220499972
 20
8641.2289370000035
 30
0.0
 11
18434.173220499972
 21
9440.7287790000028
 31
0.0
  0
LINE
  5
4635
  8
SUNPOU
  6
CONTINUOUS
 62
     4
 10
18391.17110949997
 20
8641.2289370000035
 30
0.0
 11
18391.17110949997
 21
9440.7287790000028
 31
0.0
  0
LINE
  5
4636
  8
SUNPOU
  6
CONTINUOUS
 62
     4
 10
18434.173220499972
 20
9360.7287790000028
 30
0.0
 11
18674.173220499972
 21
9360.7287790000028
 31
0.0
  0
LINE
  5
4637
  8
SUNPOU
  6
CONTINUOUS
 62
     4
 10
18394.17110949997
 20
9360.7287790000028
 30
0.0
 11
18154.171109499988
 21
9360.7287790000028
 31
0.0
  0
LINE
  5
4638
  8
SUNPOU
  6
CONTINUOUS
 62
     4
 10
18434.173220499972
 20
9360.7287790000028
 30
0.0
 11
18394.17110949997
 21
9360.7287790000028
 31
0.0
  0
LINE
  5
4639
  8
SUNPOU
  6
CONTINUOUS
 62
     4
 10
25056.17374849999
 20
8641.2289370000035
 30
0.0
 11
25056.17374849999
 21
9440.7287790000028
 31
0.0
  0
LINE
  5
463A
  8
SUNPOU
  6
CONTINUOUS
 62
     4
 10
25099.175859499988
 20
8641.2289370000035
 30
0.0
 11
25099.175859499988
 21
9440.7287790000028
 31
0.0
  0
LINE
  5
463B
  8
SUNPOU
  6
CONTINUOUS
 62
     4
 10
25056.17374849999
 20
9360.7287790000028
 30
0.0
 11
24816.173748499968
 21
9360.7287790000028
 31
0.0
  0
LINE
  5
463C
  8
SUNPOU
  6
CONTINUOUS
 62
     4
 10
25096.175859499988
 20
9360.7287790000028
 30
0.0
 11
25336.175859499988
 21
9360.7287790000028
 31
0.0
  0
LINE
  5
463D
  8
SUNPOU
  6
CONTINUOUS
 62
     4
 10
25056.17374849999
 20
9360.7287790000028
 30
0.0
 11
25096.175859499988
 21
9360.7287790000028
 31
0.0
  0
TEXT
  5
463E
  8
0
  6
CONTINUOUS
 62
     7
 10
25216.175859499988
 20
9440.7287790000028
 30
0.0
 40
160.0
  1
43
  0
TEXT
  5
463F
  8
0
  6
CONTINUOUS
 62
     7
 10
18034.171109499981
 20
9440.7287790000028
 30
0.0
 40
160.0
  1
43
  0
TEXT
  5
4640
  8
0
  6
CONTINUOUS
 62
     7
 10
21451.840151166671
 20
9440.7287790000028
 30
0.0
 40
160.0
  1
6622
  0
TEXT
  5
4641
  8
0
  6
CONTINUOUS
 62
     7
 10
21465.173484499988
 20
9840.686549
 30
0.0
 40
160.0
  1
6708
  0
ARC
  5
4642
  8
0
  6
BYBLOCK
 62
     0
 10
18391.17110949997
 20
9760.686549
 30
0.0
 40
15.0
 50
0.0
 51
180.0
  0
ARC
  5
4643
  8
0
  6
BYBLOCK
 62
     0
 10
18391.17110949997
 20
9760.686549
 30
0.0
 40
15.0
 50
180.0
 51
0.0
  0
ARC
  5
4644
  8
0
  6
BYBLOCK
 62
     0
 10
25099.175859499988
 20
9760.686549
 30
0.0
 40
15.0
 50
180.0
 51
0.0
  0
ARC
  5
4645
  8
0
  6
BYBLOCK
 62
     0
 10
25099.175859499988
 20
9760.686549
 30
0.0
 40
15.0
 50
0.0
 51
180.0
  0
ARC
  5
4646
  8
0
  6
BYBLOCK
 62
     0
 10
18434.173220499972
 20
9360.7287790000028
 30
0.0
 40
15.0
 50
0.0
 51
180.0
  0
ARC
  5
4647
  8
0
  6
BYBLOCK
 62
     0
 10
18434.173220499972
 20
9360.7287790000028
 30
0.0
 40
15.0
 50
180.0
 51
0.0
  0
ARC
  5
4648
  8
0
  6
BYBLOCK
 62
     0
 10
25056.17374849999
 20
9360.7287790000028
 30
0.0
 40
15.0
 50
180.0
 51
0.0
  0
ARC
  5
4649
  8
0
  6
BYBLOCK
 62
     0
 10
25056.17374849999
 20
9360.7287790000028
 30
0.0
 40
15.0
 50
0.0
 51
180.0
  0
ARC
  5
464A
  8
0
  6
BYBLOCK
 62
     0
 10
18434.173220499972
 20
9360.7287790000028
 30
0.0
 40
15.0
 50
0.0
 51
180.0
  0
ARC
  5
464B
  8
0
  6
BYBLOCK
 62
     0
 10
18434.173220499972
 20
9360.7287790000028
 30
0.0
 40
15.0
 50
180.0
 51
0.0
  0
ARC
  5
464C
  8
0
  6
BYBLOCK
 62
     0
 10
18391.17110949997
 20
9360.7287790000028
 30
0.0
 40
15.0
 50
180.0
 51
0.0
  0
ARC
  5
464D
  8
0
  6
BYBLOCK
 62
     0
 10
18391.17110949997
 20
9360.7287790000028
 30
0.0
 40
15.0
 50
0.0
 51
180.0
  0
ARC
  5
464E
  8
0
  6
BYBLOCK
 62
     0
 10
25056.17374849999
 20
9360.7287790000028
 30
0.0
 40
15.0
 50
180.0
 51
0.0
  0
ARC
  5
464F
  8
0
  6
BYBLOCK
 62
     0
 10
25056.17374849999
 20
9360.7287790000028
 30
0.0
 40
15.0
 50
0.0
 51
180.0
  0
ARC
  5
4650
  8
0
  6
BYBLOCK
 62
     0
 10
25099.175859499988
 20
9360.7287790000028
 30
0.0
 40
15.0
 50
0.0
 51
180.0
  0
ARC
  5
4651
  8
0
  6
BYBLOCK
 62
     0
 10
25099.175859499988
 20
9360.7287790000028
 30
0.0
 40
15.0
 50
180.0
 51
0.0
  0
LINE
  5
465F
  8
SUNPOU
  6
CONTINUOUS
 62
     4
 10
7155.5073565000066
 20
13521.317170999981
 30
0.0
 11
7155.5073565000066
 21
12321.31618199996
 31
0.0
  0
LINE
  5
4660
  8
SUNPOU
  6
CONTINUOUS
 62
     4
 10
13863.50715949999
 20
13521.317170999981
 30
0.0
 11
13863.50715949999
 21
12321.31618199996
 31
0.0
  0
LINE
  5
4661
  8
SUNPOU
  6
CONTINUOUS
 62
     4
 10
7155.5073565000066
 20
12401.31618199996
 30
0.0
 11
13863.50715949999
 21
12401.31618199996
 31
0.0
  0
TEXT
  5
4662
  8
0
  6
CONTINUOUS
 62
     7
 10
9706.8405913333208
 20
12481.31618199996
 30
0.0
 40
160.0
  1
ケラバ外寸 6708
  0
ARC
  5
4663
  8
0
  6
BYBLOCK
 62
     0
 10
7155.5073565000066
 20
12401.31618199996
 30
0.0
 40
15.0
 50
0.0
 51
180.0
  0
ARC
  5
4664
  8
0
  6
BYBLOCK
 62
     0
 10
7155.5073565000066
 20
12401.31618199996
 30
0.0
 40
15.0
 50
180.0
 51
0.0
  0
ARC
  5
4665
  8
0
  6
BYBLOCK
 62
     0
 10
13863.50715949999
 20
12401.31618199996
 30
0.0
 40
15.0
 50
180.0
 51
0.0
  0
ARC
  5
4666
  8
0
  6
BYBLOCK
 62
     0
 10
13863.50715949999
 20
12401.31618199996
 30
0.0
 40
15.0
 50
0.0
 51
180.0
  0
TEXT
  5
46F9
  8
NAME
 10
24033.053546554009
 20
1076.0
 30
0.0
 40
360.0
  1
H
 41
0.6700000000000002
  7
00
  0
TEXT
  5
46FA
  8
NAME
 10
23657.221561973682
 20
1076.0
 30
0.0
 40
360.0
  1
（ ）
  7
01
  0
TEXT
  5
46FC
  8
NAME
 10
21933.552716389011
 20
1876.0
 30
0.0
 40
360.0
  1
ヨドガレージ ラヴィージュ
 41
0.75
  7
01
  0
TEXT
  5
46FD
  8
NAME
 10
21816.089515848391
 20
1076.6369801169251
 30
0.0
 40
360.0
  1
VGC-3362
 41
0.6700000000000002
  0
LINE
  5
46FE
  8
NAME
  6
CONTINUOUS
 10
26067.886878884299
 20
2236.0
 30
0.0
 11
26067.886878884299
 21
1876.0
 31
0.0
  0
LINE
  5
46FF
  8
NAME
  6
CONTINUOUS
 10
26167.886878884299
 20
2236.0
 30
0.0
 11
26167.886878884299
 21
1876.0
 31
0.0
  0
LINE
  5
4700
  8
NAME
  6
CONTINUOUS
 10
26267.88687888431
 20
2236.0
 30
0.0
 11
26267.88687888431
 21
1876.0
 31
0.0
  0
LINE
  5
4701
  8
NAME
  6
CONTINUOUS
 10
26007.886878884299
 20
2236.0
 30
0.0
 11
26327.886878884299
 21
2236.0
 31
0.0
  0
LINE
  5
4702
  8
NAME
  6
CONTINUOUS
 10
26327.886878884299
 20
1876.0
 30
0.0
 11
26007.886878884299
 21
1876.0
 31
0.0
  0
TEXT
  5
4703
  8
NAME
 10
25346.041792426669
 20
1076.0
 30
0.0
 40
360.0
  1
2
 41
0.6700000000000002
  7
00
  0
TEXT
  5
474D
  8
NAME
 10
24557.214549256729
 20
1076.0
 30
0.0
 40
360.0
  1
型（ 連棟）
  7
01
  0
TEXT
  5
47E6
  8
FILENAME
  6
CONTINUOUS
 10
28756.38095238095
 20
348.0
 30
0.0
 40
200.0
  1
＜VGC-3362-2-A_0.DXF ＞
  7
FILENAME
 72
     2
 11
32764.0
 21
348.0
 31
0.0
  0
LINE
  5
47EC
  8
WAKUSEN-01
 10
868.00000000000193
 20
827.99999999999955
 30
0.0
 11
32764.000000000011
 21
827.99999999999943
 31
0.0
  0
LINE
  5
47ED
  8
WAKUSEN-01
 10
868.00000000000193
 20
827.99999999999955
 30
0.0
 11
868.00000000000193
 21
22484.000000000011
 31
0.0
  0
LINE
  5
47EE
  8
WAKUSEN-01
 10
32764.000000000011
 20
827.99999999999943
 30
0.0
 11
32764.000000000011
 21
22484.000000000011
 31
0.0
  0
LINE
  5
47EF
  8
WAKUSEN-01
 10
20560.0
 20
827.99999999999716
 30
0.0
 11
20560.0
 21
2484.0
 31
0.0
  0
LINE
  5
47F0
  8
WAKUSEN-02
 10
26868.0
 20
827.99999999999261
 30
0.0
 11
26868.0
 21
2484.0
 31
0.0
  0
ENDSEC
  0
EOF
