  0
SECTION
  2
HEADER
  9
$ACADVER
  1
AC1009
  9
$INSBASE
 10
0.0
 20
0.0
 30
0.0
  9
$EXTMIN
 10
867.99324330406671
 20
327.38164749855792
 30
-0.000000000000013
  9
$EXTMAX
 10
32765.33210850941
 20
22484.553276491992
 30
0.0000000000000023
  9
$LIMMIN
 10
0.0
 20
0.0
  9
$LIMMAX
 10
33600.0
 20
23760.0
  9
$ORTHOMODE
 70
     1
  9
$REGENMODE
 70
     1
  9
$FILLMODE
 70
     1
  9
$QTEXTMODE
 70
     0
  9
$MIRRTEXT
 70
     1
  9
$DRAGMODE
 70
     2
  9
$LTSCALE
 40
80.0
  9
$OSMODE
 70
  3071
  9
$ATTMODE
 70
     1
  9
$TEXTSIZE
 40
0.2
  9
$TRACEWID
 40
0.05
  9
$TEXTSTYLE
  7
00
  9
$CLAYER
  8
0
  9
$CELTYPE
  6
BYLAYER
  9
$CECOLOR
 62
   256
  9
$DIMSCALE
 40
80.0
  9
$DIMASZ
 40
3.0
  9
$DIMEXO
 40
1.0
  9
$DIMDLI
 40
0.38
  9
$DIMRND
 40
0.5
  9
$DIMDLE
 40
0.0
  9
$DIMEXE
 40
1.0
  9
$DIMTP
 40
0.0
  9
$DIMTM
 40
0.0
  9
$DIMTXT
 40
2.0
  9
$DIMCEN
 40
0.09
  9
$DIMTSZ
 40
0.0
  9
$DIMTOL
 70
     0
  9
$DIMLIM
 70
     0
  9
$DIMTIH
 70
     0
  9
$DIMTOH
 70
     0
  9
$DIMSE1
 70
     0
  9
$DIMSE2
 70
     0
  9
$DIMTAD
 70
     1
  9
$DIMZIN
 70
     8
  9
$DIMBLK
  1
DOTSMALL
  9
$DIMASO
 70
     1
  9
$DIMSHO
 70
     1
  9
$DIMPOST
  1

  9
$DIMAPOST
  1

  9
$DIMALT
 70
     0
  9
$DIMALTD
 70
     2
  9
$DIMALTF
 40
25.399999999999999
  9
$DIMLFAC
 40
1.0
  9
$DIMTOFL
 70
     1
  9
$DIMTVP
 40
0.0
  9
$DIMTIX
 70
     0
  9
$DIMSOXD
 70
     0
  9
$DIMSAH
 70
     0
  9
$DIMBLK1
  1

  9
$DIMBLK2
  1

  9
$DIMSTYLE
  2
SUNPOU
  9
$DIMCLRD
 70
     4
  9
$DIMCLRE
 70
     4
  9
$DIMCLRT
 70
     7
  9
$DIMTFAC
 40
1.0
  9
$DIMGAP
 40
1.0
  9
$LUNITS
 70
     2
  9
$LUPREC
 70
     4
  9
$SKETCHINC
 40
0.1
  9
$FILLETRAD
 40
0.0
  9
$AUNITS
 70
     0
  9
$AUPREC
 70
     0
  9
$MENU
  1
acad
  9
$ELEVATION
 40
0.0
  9
$PELEVATION
 40
0.0
  9
$THICKNESS
 40
0.0
  9
$LIMCHECK
 70
     0
  9
$BLIPMODE
 70
     1
  9
$CHAMFERA
 40
0.0
  9
$CHAMFERB
 40
0.0
  9
$SKPOLY
 70
     0
  9
$TDCREATE
 40
2311940.074926632
  9
$TDUPDATE
 40
2458942.4291613651
  9
$TDINDWG
 40
0.0512443403
  9
$TDUSRTIMER
 40
0.0512432639
  9
$USRTIMER
 70
     1
  9
$ANGBASE
 50
0.0
  9
$ANGDIR
 70
     0
  9
$PDMODE
 70
     0
  9
$PDSIZE
 40
0.0
  9
$PLINEWID
 40
0.0
  9
$COORDS
 70
     1
  9
$SPLFRAME
 70
     0
  9
$SPLINETYPE
 70
     6
  9
$SPLINESEGS
 70
     8
  9
$ATTDIA
 70
     1
  9
$ATTREQ
 70
     1
  9
$HANDLING
 70
     1
  9
$HANDSEED
  5
4959
  9
$SURFTAB1
 70
     6
  9
$SURFTAB2
 70
     6
  9
$SURFTYPE
 70
     6
  9
$SURFU
 70
     6
  9
$SURFV
 70
     6
  9
$UCSNAME
  2

  9
$UCSORG
 10
0.0
 20
0.0
 30
0.0
  9
$UCSXDIR
 10
1.0
 20
0.0
 30
0.0
  9
$UCSYDIR
 10
0.0
 20
1.0
 30
0.0
  9
$PUCSNAME
  2

  9
$PUCSORG
 10
0.0
 20
0.0
 30
0.0
  9
$PUCSXDIR
 10
1.0
 20
0.0
 30
0.0
  9
$PUCSYDIR
 10
0.0
 20
1.0
 30
0.0
  9
$USERI1
 70
     0
  9
$USERI2
 70
     0
  9
$USERI3
 70
     0
  9
$USERI4
 70
     0
  9
$USERI5
 70
     0
  9
$USERR1
 40
0.0
  9
$USERR2
 40
0.0
  9
$USERR3
 40
0.0
  9
$USERR4
 40
0.0
  9
$USERR5
 40
0.0
  9
$WORLDVIEW
 70
     1
  9
$SHADEDGE
 70
     3
  9
$SHADEDIF
 70
    70
  9
$TILEMODE
 70
     1
  9
$MAXACTVP
 70
    16
  9
$PLIMCHECK
 70
     0
  9
$PEXTMIN
 10
1.0000000000000000E+020
 20
1.0000000000000000E+020
 30
1.0000000000000000E+020
  9
$PEXTMAX
 10
-1.0000000000000000E+020
 20
-1.0000000000000000E+020
 30
-1.0000000000000000E+020
  9
$PLIMMIN
 10
0.0
 20
0.0
  9
$PLIMMAX
 10
12.0
 20
9.0
  9
$UNITMODE
 70
     0
  9
$VISRETAIN
 70
     0
  9
$PLINEGEN
 70
     1
  9
$PSLTSCALE
 70
     0
  0
ENDSEC
  0
SECTION
  2
TABLES
  0
TABLE
  2
VPORT
 70
     1
  0
VPORT
  2
*ACTIVE
 70
     0
 10
0.0
 20
0.0
 11
1.0
 21
1.0
 12
16800.0
 22
11880.0
 13
0.0
 23
0.0
 14
1.0
 24
1.0
 15
0.0
 25
0.0
 16
0.0
 26
0.0
 36
1.0
 17
0.0
 27
0.0
 37
0.0
 40
23981.023255813951
 41
2.195652173913043
 42
50.0
 43
0.0
 44
0.0
 50
0.0
 51
0.0
 71
     0
 72
 10000
 73
     1
 74
     1
 75
     0
 76
     0
 77
     0
 78
     0
  0
ENDTAB
  0
TABLE
  2
LTYPE
 70
     3
  0
LTYPE
  2
CONTINUOUS
 70
     0
  3
Solid line
 72
    65
 73
     0
 40
0.0
  0
LTYPE
  2
DASHED3
 70
     0
  3
------  ------  ------  ------  
 72
    65
 73
     2
 40
5.0
 49
3.75
 49
-1.25
  0
LTYPE
  2
CENTER2
 70
     0
  3
----------  --  ----------  --  
 72
    65
 73
     4
 40
20.0
 49
12.5
 49
-2.5
 49
2.5
 49
-2.5
  0
ENDTAB
  0
TABLE
  2
LAYER
 70
    16
  0
LAYER
  2
0
 70
     0
 62
     7
  6
CONTINUOUS
  0
LAYER
  2
SUNPOU
 70
     0
 62
     4
  6
CONTINUOUS
  0
LAYER
  2
0-1
 70
     0
 62
     7
  6
CONTINUOUS
  0
LAYER
  2
0-2
 70
     0
 62
     7
  6
CONTINUOUS
  0
LAYER
  2
0-5
 70
     0
 62
     7
  6
CONTINUOUS
  0
LAYER
  2
2-0
 70
     0
 62
     7
  6
CONTINUOUS
  0
LAYER
  2
0-3
 70
     0
 62
     7
  6
CONTINUOUS
  0
LAYER
  2
YODOROGO
 70
     0
 62
   130
  6
CONTINUOUS
  0
LAYER
  2
WAKUSEN-01
 70
     0
 62
    50
  6
CONTINUOUS
  0
LAYER
  2
WAKUSEN-02
 70
     0
 62
   130
  6
CONTINUOUS
  0
LAYER
  2
WAKUMOJI-01
 70
     0
 62
   130
  6
CONTINUOUS
  0
LAYER
  2
FILENAME
 70
     0
 62
     7
  6
CONTINUOUS
  0
LAYER
  2
NAME
 70
     0
 62
    20
  6
CONTINUOUS
  0
LAYER
  2
0-4
 70
     0
 62
     7
  6
CONTINUOUS
  0
ENDTAB
  0
TABLE
  2
STYLE
 70
     5
  0
STYLE
  2
STANDARD
 70
     0
 40
0.0
 41
1.0
 50
0.0
 71
     0
 42
0.0
  3
txt
  4
BIGFONT
  0
STYLE
  2
00
 70
     0
 40
0.0
 41
0.6666666666666666
 50
0.0
 71
     0
 42
0.2
  3
ROMANS
  4
BIGFONT
  0
STYLE
  2
01
 70
     0
 40
3.0
 41
1.0
 50
0.0
 71
     0
 42
0.2
  3
ROMANS
  4
BIGFONT
  0
STYLE
  2
WAKUMOJI
 70
     0
 40
3.0
 41
1.0
 50
0.0
 71
     0
 42
3.0
  3
SIMPLEX
  4
BIGFONT
  0
STYLE
  2
FILENAME
 70
     0
 40
200.0
 41
1.0
 50
0.0
 71
     0
 42
200.0
  3
romans
  4
bigfont
  0
ENDTAB
  0
TABLE
  2
VIEW
 70
     0
  0
ENDTAB
  0
TABLE
  2
UCS
 70
     0
  0
ENDTAB
  0
TABLE
  2
APPID
 70
    13
  0
APPID
  2
ACAD
 70
     0
  0
APPID
  2
ACADANNOTATIVE
 70
     0
  0
APPID
  2
ACAD_PSEXT
 70
     0
  0
APPID
  2
DCO15
 70
     0
  0
APPID
  2
ACAD_MLEADERVER
 70
     0
  0
APPID
  2
AUTOCAD_POSTSCRIPT_FIGURE
 70
     0
  0
APPID
  2
ACAD_EXEMPT_FROM_CAD_STANDARDS
 70
     0
  0
APPID
  2
ACAD_DSTYLE_DIMJAG
 70
     0
  0
APPID
  2
ACAD_DSTYLE_DIMTALN
 70
     0
  0
APPID
  2
ACAD_DSTYLE_DIM_LINETYPE
 70
     0
  0
APPID
  2
ACAD_DSTYLE_DIM_EXT1_LINETYPE
 70
     0
  0
APPID
  2
ACAD_DSTYLE_DIM_EXT2_LINETYPE
 70
     0
  0
APPID
  2
ACAD_NAV_VCDISPLAY
 70
     0
  0
ENDTAB
  0
TABLE
  2
DIMSTYLE
 70
     2
  0
DIMSTYLE
  2
SUNPOU
 70
     0
  3

  4

  5

  6

  7

 40
80.0
 41
3.0
 42
1.0
 43
0.38
 44
1.0
 45
0.5
 46
0.0
 47
0.0
 48
0.0
140
2.0
141
0.09
142
0.0
143
25.399999999999999
144
1.0
145
0.0
146
1.0
147
1.0
 71
     0
 72
     0
 73
     0
 74
     0
 75
     0
 76
     0
 77
     1
 78
     8
170
     0
171
     2
172
     1
173
     0
174
     0
175
     0
176
     4
177
     4
178
     7
  0
ENDTAB
  0
ENDSEC
  0
SECTION
  2
BLOCKS
  0
BLOCK
  8
0
  2
$MODEL_SPACE
 70
     0
 10
0.0
 20
0.0
 30
0.0
  3
$MODEL_SPACE
  1

  0
ENDBLK
  5
3C85
  8
0
  0
BLOCK
 67
     1
  8
0
  2
$PAPER_SPACE
 70
     0
 10
0.0
 20
0.0
 30
0.0
  3
$PAPER_SPACE
  1

  0
ENDBLK
  5
3C81
 67
     1
  8
0
  0
BLOCK
  8
0
  2
_DOTSMALL
 70
     0
 10
0.0
 20
0.0
 30
0.0
  3
_DOTSMALL
  1

  0
POLYLINE
  5
3CB3
  8
0
  6
BYBLOCK
 62
     0
 66
     1
 10
0.0
 20
0.0
 30
0.0
 70
     1
 40
0.5
 41
0.5
  0
VERTEX
  5
4921
  8
0
  6
BYBLOCK
 62
     0
 10
-0.0625
 20
0.0
 30
0.0
 42
1.0
  0
VERTEX
  5
4922
  8
0
  6
BYBLOCK
 62
     0
 10
0.0625
 20
0.0
 30
0.0
 42
1.0
  0
SEQEND
  5
4923
  8
0
  6
BYBLOCK
 62
     0
  0
ENDBLK
  5
3CB7
  8
0
  0
ENDSEC
  0
SECTION
  2
ENTITIES
  0
CIRCLE
  5
3CB8
  8
0-5
  6
CONTINUOUS
 62
     4
 10
15128.715688
 20
1375.9998579999999
 30
0.0
 40
20.0
  0
ARC
  5
3CB9
  8
0-5
  6
CONTINUOUS
 62
     4
 10
15128.715688
 20
1375.9998579999999
 30
0.0
 40
20.0
 50
180.0
 51
0.0
  0
ARC
  5
3CBA
  8
0-5
  6
CONTINUOUS
 62
     4
 10
15128.715688
 20
1375.9998579999999
 30
0.0
 40
20.0
 50
0.0
 51
179.99998499999839
  0
CIRCLE
  5
3CBB
  8
0-5
  6
CONTINUOUS
 62
     4
 10
15128.715688
 20
1775.999939999999
 30
0.0
 40
20.0
  0
ARC
  5
3CBC
  8
0-5
  6
CONTINUOUS
 62
     4
 10
15128.715688
 20
1775.999939999999
 30
0.0
 40
20.0
 50
180.0
 51
0.0
  0
ARC
  5
3CBD
  8
0-5
  6
CONTINUOUS
 62
     4
 10
15128.715688
 20
1775.999939999999
 30
0.0
 40
20.0
 50
0.0
 51
179.99998499999839
  0
TEXT
  5
3CBE
  8
0-5
  6
CONTINUOUS
 62
     7
 10
16681.41443199998
 20
1655.999916
 30
0.0
 40
160.0
  1
H
  0
TEXT
  5
3CBF
  8
0-5
  6
CONTINUOUS
 62
     7
 10
15176.148913000001
 20
1655.999916
 30
0.0
 40
160.0
  1
（ ）内寸法ハ、  タ イプヲ示ス。
  0
TEXT
  5
3CC0
  8
0-5
  6
CONTINUOUS
 62
     7
 10
15288.716216000001
 20
1255.9999569999991
 30
0.0
 40
160.0
  1
有効高サハ、基礎高サヲ含ミマセン。
  0
TEXT
  5
3CC9
  8
0-3
  6
CONTINUOUS
 62
     7
 10
27544.4346805186
 20
3658.1200421350532
 30
0.0
 40
160.0
  1
連結する場合は強度上、下記間口寸法に一ヶ所
  0
TEXT
  5
3CCA
  8
0-3
  6
CONTINUOUS
 62
     7
 10
27544.4346805186
 20
3451.291530856121
 30
0.0
 40
160.0
  1
中間ブレース、もしくは間仕切りが必要になります。
  0
TEXT
  5
3CCB
  8
0-3
  6
CONTINUOUS
 62
     7
 10
27544.4346805186
 20
3124.142197938243
 30
0.0
 40
160.0
  1
標準タイプ：間口寸法 10.57ｍ以内に一箇所
  0
TEXT
  5
3CCC
  8
0-3
  6
CONTINUOUS
 62
     7
 10
27571.745290429761
 20
2873.074148021421
 30
0.0
 40
160.0
  1
Hタイプ　：間口寸法 9.21ｍ以内に一箇所
  0
LINE
  5
3CCD
  8
0-5
  6
CONTINUOUS
 62
     4
 10
12181.77477100002
 20
5932.883550999999
 30
0.0
 11
17096.669922000001
 21
5932.883550999999
 31
0.0
  0
LINE
  5
3CCE
  8
0-1
  6
CONTINUOUS
 62
     3
 10
6188.2762880000082
 20
7943.9289339999968
 30
0.0
 11
12069.275694
 21
7943.9289339999968
 31
0.0
  0
LINE
  5
3CCF
  8
0-1
  6
CONTINUOUS
 62
     3
 10
5478.2764190000089
 20
5932.883550999999
 30
0.0
 11
12101.775496
 21
5932.883550999999
 31
0.0
  0
LINE
  5
3CD0
  8
0-1
  6
CONTINUOUS
 62
     3
 10
6283.2763540000078
 20
6082.8835509999981
 30
0.0
 11
9056.2756280000158
 21
6082.8835509999981
 31
0.0
  0
LINE
  5
3CD1
  8
0-1
  6
CONTINUOUS
 62
     3
 10
6160.7754960000093
 20
6032.8828910000011
 30
0.0
 11
12101.775496
 21
6032.8828910000011
 31
0.0
  0
LINE
  5
3CD2
  8
0-1
  6
CONTINUOUS
 62
     3
 10
6283.2763540000078
 20
7943.9289339999968
 30
0.0
 11
6283.2763540000078
 21
6032.8828910000011
 31
0.0
  0
LINE
  5
3CD3
  8
0-1
  6
CONTINUOUS
 62
     3
 10
6168.2742420000059
 20
8065.9642749999966
 30
0.0
 11
6168.2742420000059
 21
6032.8828910000011
 31
0.0
  0
LINE
  5
3CD4
  8
0-1
  6
CONTINUOUS
 62
     3
 10
6188.2762880000082
 20
8066.5818850000032
 30
0.0
 11
6188.2762880000082
 21
6032.8828910000011
 31
0.0
  0
LINE
  5
3CD5
  8
0-1
  6
CONTINUOUS
 62
     3
 10
6406.7755480000087
 20
6082.8835509999981
 30
0.0
 11
6406.7755480000087
 21
7943.9289339999968
 31
0.0
  0
LINE
  5
3CD6
  8
0-1
  6
CONTINUOUS
 62
     3
 10
6421.7753510000066
 20
6082.8835509999981
 30
0.0
 11
6421.7753510000066
 21
7943.9289339999968
 31
0.0
  0
LINE
  5
3CD7
  8
0-1
  6
CONTINUOUS
 62
     3
 10
6822.774347999999
 20
6082.8835509999981
 30
0.0
 11
6822.774347999999
 21
7943.9289339999968
 31
0.0
  0
LINE
  5
3CD8
  8
0-1
  6
CONTINUOUS
 62
     3
 10
6807.7745459999969
 20
6082.8835509999981
 30
0.0
 11
6807.7745459999969
 21
7943.9289339999968
 31
0.0
  0
LINE
  5
3CD9
  8
0-1
  6
CONTINUOUS
 62
     3
 10
6674.7746510000097
 20
6082.8835509999981
 30
0.0
 11
6674.7746510000097
 21
7943.9289339999968
 31
0.0
  0
LINE
  5
3CDA
  8
0-1
  6
CONTINUOUS
 62
     3
 10
6554.7762350000103
 20
6082.8835509999981
 30
0.0
 11
6554.7762350000103
 21
7943.9289339999968
 31
0.0
  0
LINE
  5
3CDB
  8
0-1
  6
CONTINUOUS
 62
     3
 10
6624.7749810000132
 20
6082.8835509999981
 30
0.0
 11
6624.7749810000132
 21
7943.9289339999968
 31
0.0
  0
LINE
  5
3CDC
  8
0-1
  6
CONTINUOUS
 62
     3
 10
6604.7749150000091
 20
6082.8835509999981
 30
0.0
 11
6604.7749150000091
 21
7943.9289339999968
 31
0.0
  0
LINE
  5
3CDD
  8
0-1
  6
CONTINUOUS
 62
     3
 10
6160.7754960000093
 20
5932.883550999999
 30
0.0
 11
6160.7754960000093
 21
6032.8828910000011
 31
0.0
  0
LINE
  5
3CDE
  8
0-1
  6
CONTINUOUS
 62
     3
 10
12164.286647000001
 20
8250.4276939999982
 30
0.0
 11
12160.273173000011
 21
8380.3662629999999
 31
0.0
  0
LINE
  5
3CDF
  8
0-1
  6
CONTINUOUS
 62
     3
 10
9201.275364000021
 20
6082.8835509999981
 30
0.0
 11
11974.27562800001
 21
6082.8835509999981
 31
0.0
  0
LINE
  5
3CE0
  8
0-1
  6
CONTINUOUS
 62
     3
 10
9201.275364000021
 20
7943.9289339999968
 30
0.0
 11
9201.275364000021
 21
6032.8828910000011
 31
0.0
  0
LINE
  5
3CE1
  8
0-1
  6
CONTINUOUS
 62
     3
 10
9056.2756280000158
 20
7943.9289339999968
 30
0.0
 11
9056.2756280000158
 21
6032.8828910000011
 31
0.0
  0
LINE
  5
3CE2
  8
0-1
  6
CONTINUOUS
 62
     3
 10
9324.7755490000072
 20
6082.8835509999981
 30
0.0
 11
9324.7755490000072
 21
7943.9289339999968
 31
0.0
  0
LINE
  5
3CE3
  8
0-1
  6
CONTINUOUS
 62
     3
 10
9339.7763410000189
 20
6082.8835509999981
 30
0.0
 11
9339.7763410000189
 21
7943.9289339999968
 31
0.0
  0
LINE
  5
3CE4
  8
0-1
  6
CONTINUOUS
 62
     3
 10
9472.7752450000207
 20
6082.8835509999981
 30
0.0
 11
9472.7752450000207
 21
7943.9289339999968
 31
0.0
  0
LINE
  5
3CE5
  8
0-1
  6
CONTINUOUS
 62
     3
 10
9522.7768950000154
 20
6082.8835509999981
 30
0.0
 11
9522.7768950000154
 21
7943.9289339999968
 31
0.0
  0
LINE
  5
3CE6
  8
0-1
  6
CONTINUOUS
 62
     3
 10
9542.7749810000078
 20
6082.8835509999981
 30
0.0
 11
9542.7749810000078
 21
7943.9289339999968
 31
0.0
  0
LINE
  5
3CE7
  8
0-1
  6
CONTINUOUS
 62
     3
 10
8714.7770010000204
 20
6082.8835509999981
 30
0.0
 11
8714.7770010000204
 21
7943.9289339999968
 31
0.0
  0
LINE
  5
3CE8
  8
0-1
  6
CONTINUOUS
 62
     3
 10
8734.7760770000095
 20
6082.8835509999981
 30
0.0
 11
8734.7760770000095
 21
7943.9289339999968
 31
0.0
  0
LINE
  5
3CE9
  8
0-1
  6
CONTINUOUS
 62
     3
 10
8784.7767370000201
 20
6082.8835509999981
 30
0.0
 11
8784.7767370000201
 21
7943.9289339999968
 31
0.0
  0
LINE
  5
3CEA
  8
0-1
  6
CONTINUOUS
 62
     3
 10
8917.7766310000206
 20
6082.8835509999981
 30
0.0
 11
8917.7766310000206
 21
7943.9289339999968
 31
0.0
  0
LINE
  5
3CEB
  8
0-1
  6
CONTINUOUS
 62
     3
 10
8932.7754430000186
 20
6082.8835509999981
 30
0.0
 11
8932.7754430000186
 21
7943.9289339999968
 31
0.0
  0
LINE
  5
3CEC
  8
0-1
  6
CONTINUOUS
 62
     3
 10
8664.7763410000189
 20
6082.8835509999981
 30
0.0
 11
8664.7763410000189
 21
7943.9289339999968
 31
0.0
  0
LINE
  5
3CED
  8
0-1
  6
CONTINUOUS
 62
     3
 10
8531.7764460000089
 20
6082.8835509999981
 30
0.0
 11
8531.7764460000089
 21
7943.9289339999968
 31
0.0
  0
LINE
  5
3CEE
  8
0-1
  6
CONTINUOUS
 62
     3
 10
8516.7756540000028
 20
6082.8835509999981
 30
0.0
 11
8516.7756540000028
 21
7943.9289339999968
 31
0.0
  0
LINE
  5
3CEF
  8
0-1
  6
CONTINUOUS
 62
     3
 10
7314.7753510000211
 20
6082.8835509999981
 30
0.0
 11
7314.7753510000211
 21
7943.9289339999968
 31
0.0
  0
LINE
  5
3CF0
  8
0-1
  6
CONTINUOUS
 62
     3
 10
7334.7773960000059
 20
6082.8835509999981
 30
0.0
 11
7334.7773960000059
 21
7943.9289339999968
 31
0.0
  0
LINE
  5
3CF1
  8
0-1
  6
CONTINUOUS
 62
     3
 10
7264.775681000021
 20
6082.8835509999981
 30
0.0
 11
7264.775681000021
 21
7943.9289339999968
 31
0.0
  0
LINE
  5
3CF2
  8
0-1
  6
CONTINUOUS
 62
     3
 10
7384.7750870000191
 20
6082.8835509999981
 30
0.0
 11
7384.7750870000191
 21
7943.9289339999968
 31
0.0
  0
LINE
  5
3CF3
  8
0-1
  6
CONTINUOUS
 62
     3
 10
7517.7759710000191
 20
6082.8835509999981
 30
0.0
 11
7517.7759710000191
 21
7943.9289339999968
 31
0.0
  0
LINE
  5
3CF4
  8
0-1
  6
CONTINUOUS
 62
     3
 10
7532.7767630000189
 20
6082.8835509999981
 30
0.0
 11
7532.7767630000189
 21
7943.9289339999968
 31
0.0
  0
LINE
  5
3CF5
  8
0-1
  6
CONTINUOUS
 62
     3
 10
7131.77479700001
 20
6082.8835509999981
 30
0.0
 11
7131.77479700001
 21
7943.9289339999968
 31
0.0
  0
LINE
  5
3CF6
  8
0-1
  6
CONTINUOUS
 62
     3
 10
7116.7759840000181
 20
6082.8835509999981
 30
0.0
 11
7116.7759840000181
 21
7943.9289339999968
 31
0.0
  0
LINE
  5
3CF7
  8
0-1
  6
CONTINUOUS
 62
     3
 10
7816.7753250000196
 20
6082.8835509999981
 30
0.0
 11
7816.7753250000196
 21
7943.9289339999968
 31
0.0
  0
LINE
  5
3CF8
  8
0-1
  6
CONTINUOUS
 62
     3
 10
7831.7741370000222
 20
6082.8835509999981
 30
0.0
 11
7831.7741370000222
 21
7943.9289339999968
 31
0.0
  0
LINE
  5
3CF9
  8
0-1
  6
CONTINUOUS
 62
     3
 10
8232.7761030000111
 20
6082.8835509999981
 30
0.0
 11
8232.7761030000111
 21
7943.9289339999968
 31
0.0
  0
LINE
  5
3CFA
  8
0-1
  6
CONTINUOUS
 62
     3
 10
8217.7753110000085
 20
6082.8835509999981
 30
0.0
 11
8217.7753110000085
 21
7943.9289339999968
 31
0.0
  0
LINE
  5
3CFB
  8
0-1
  6
CONTINUOUS
 62
     3
 10
8084.7744270000112
 20
6082.8835509999981
 30
0.0
 11
8084.7744270000112
 21
7943.9289339999968
 31
0.0
  0
LINE
  5
3CFC
  8
0-1
  6
CONTINUOUS
 62
     3
 10
7964.7770010000204
 20
6082.8835509999981
 30
0.0
 11
7964.7770010000204
 21
7943.9289339999968
 31
0.0
  0
LINE
  5
3CFD
  8
0-1
  6
CONTINUOUS
 62
     3
 10
8034.7767370000201
 20
6082.8835509999981
 30
0.0
 11
8034.7767370000201
 21
7943.9289339999968
 31
0.0
  0
LINE
  5
3CFE
  8
0-1
  6
CONTINUOUS
 62
     3
 10
8014.7766710000051
 20
6082.8835509999981
 30
0.0
 11
8014.7766710000051
 21
7943.9289339999968
 31
0.0
  0
LINE
  5
3CFF
  8
0-1
  6
CONTINUOUS
 62
     3
 10
8356.2762880000191
 20
7943.9289339999968
 30
0.0
 11
8356.2762880000191
 21
6082.8835509999981
 31
0.0
  0
LINE
  5
3D00
  8
0-1
  6
CONTINUOUS
 62
     3
 10
8393.2754700000114
 20
7943.9289339999968
 30
0.0
 11
8393.2754700000114
 21
6082.8835509999981
 31
0.0
  0
LINE
  5
3D01
  8
0-1
  6
CONTINUOUS
 62
     3
 10
6946.2745320000013
 20
7943.9289339999968
 30
0.0
 11
6946.2745320000013
 21
6082.8835509999981
 31
0.0
  0
LINE
  5
3D02
  8
0-1
  6
CONTINUOUS
 62
     3
 10
6983.2747040000067
 20
7943.9289339999968
 30
0.0
 11
6983.2747040000067
 21
6082.8835509999981
 31
0.0
  0
LINE
  5
3D03
  8
0-1
  6
CONTINUOUS
 62
     3
 10
7656.2769480000188
 20
7943.9289339999968
 30
0.0
 11
7656.2769480000188
 21
6082.8835509999981
 31
0.0
  0
LINE
  5
3D04
  8
0-1
  6
CONTINUOUS
 62
     3
 10
7693.2761300000211
 20
7943.9289339999968
 30
0.0
 11
7693.2761300000211
 21
6082.8835509999981
 31
0.0
  0
LINE
  5
3D05
  8
0-1
  6
CONTINUOUS
 62
     3
 10
9128.7240290000045
 20
8157.0369759999976
 30
0.0
 11
9124.7115440000089
 21
8286.9755449999975
 31
0.0
  0
LINE
  5
3D06
  8
0-1
  6
CONTINUOUS
 62
     3
 10
9128.7754960000093
 20
8157.0389560000003
 30
0.0
 11
9128.7754960000093
 21
7943.9289339999968
 31
0.0
  0
LINE
  5
3D07
  8
0-1
  6
CONTINUOUS
 62
     3
 10
11974.27562800001
 20
7943.9289339999968
 30
0.0
 11
11974.27562800001
 21
6032.8828910000011
 31
0.0
  0
LINE
  5
3D08
  8
0-1
  6
CONTINUOUS
 62
     3
 10
12089.27674900001
 20
8248.1126469999963
 30
0.0
 11
12089.27674900001
 21
6032.8828910000011
 31
0.0
  0
LINE
  5
3D09
  8
0-1
  6
CONTINUOUS
 62
     3
 10
12069.275694
 20
8247.4950370000006
 30
0.0
 11
12069.275694
 21
6032.8828910000011
 31
0.0
  0
LINE
  5
3D0A
  8
0-1
  6
CONTINUOUS
 62
     3
 10
10564.27684200001
 20
7943.9289339999968
 30
0.0
 11
10564.27684200001
 21
6082.8835509999981
 31
0.0
  0
LINE
  5
3D0B
  8
0-1
  6
CONTINUOUS
 62
     3
 10
10601.27701400001
 20
7943.9289339999968
 30
0.0
 11
10601.27701400001
 21
6082.8835509999981
 31
0.0
  0
LINE
  5
3D0C
  8
0-1
  6
CONTINUOUS
 62
     3
 10
11264.276182000011
 20
7943.9289339999968
 30
0.0
 11
11264.276182000011
 21
6082.8835509999981
 31
0.0
  0
LINE
  5
3D0D
  8
0-1
  6
CONTINUOUS
 62
     3
 10
11301.275363999999
 20
7943.9289339999968
 30
0.0
 11
11301.275363999999
 21
6082.8835509999981
 31
0.0
  0
LINE
  5
3D0E
  8
0-1
  6
CONTINUOUS
 62
     3
 10
9864.2745330000216
 20
7943.9289339999968
 30
0.0
 11
9864.2745330000216
 21
6082.8835509999981
 31
0.0
  0
LINE
  5
3D0F
  8
0-1
  6
CONTINUOUS
 62
     3
 10
9901.2756940000199
 20
7943.9289339999968
 30
0.0
 11
9901.2756940000199
 21
6082.8835509999981
 31
0.0
  0
LINE
  5
3D10
  8
0-1
  6
CONTINUOUS
 62
     3
 10
10242.77432200001
 20
6082.8835509999981
 30
0.0
 11
10242.77432200001
 21
7943.9289339999968
 31
0.0
  0
LINE
  5
3D11
  8
0-1
  6
CONTINUOUS
 62
     3
 10
10222.77524500001
 20
6082.8835509999981
 30
0.0
 11
10222.77524500001
 21
7943.9289339999968
 31
0.0
  0
LINE
  5
3D12
  8
0-1
  6
CONTINUOUS
 62
     3
 10
10292.77597100001
 20
6082.8835509999981
 30
0.0
 11
10292.77597100001
 21
7943.9289339999968
 31
0.0
  0
LINE
  5
3D13
  8
0-1
  6
CONTINUOUS
 62
     3
 10
10172.77656500002
 20
6082.8835509999981
 30
0.0
 11
10172.77656500002
 21
7943.9289339999968
 31
0.0
  0
LINE
  5
3D14
  8
0-1
  6
CONTINUOUS
 62
     3
 10
10039.775681000019
 20
6082.8835509999981
 30
0.0
 11
10039.775681000019
 21
7943.9289339999968
 31
0.0
  0
LINE
  5
3D15
  8
0-1
  6
CONTINUOUS
 62
     3
 10
10024.77587900001
 20
6082.8835509999981
 30
0.0
 11
10024.77587900001
 21
7943.9289339999968
 31
0.0
  0
LINE
  5
3D16
  8
0-1
  6
CONTINUOUS
 62
     3
 10
10425.776855000009
 20
6082.8835509999981
 30
0.0
 11
10425.776855000009
 21
7943.9289339999968
 31
0.0
  0
LINE
  5
3D17
  8
0-1
  6
CONTINUOUS
 62
     3
 10
10440.776657000009
 20
6082.8835509999981
 30
0.0
 11
10440.776657000009
 21
7943.9289339999968
 31
0.0
  0
LINE
  5
3D18
  8
0-1
  6
CONTINUOUS
 62
     3
 10
11140.77599799999
 20
6082.8835509999981
 30
0.0
 11
11140.77599799999
 21
7943.9289339999968
 31
0.0
  0
LINE
  5
3D19
  8
0-1
  6
CONTINUOUS
 62
     3
 10
11125.775206
 20
6082.8835509999981
 30
0.0
 11
11125.775206
 21
7943.9289339999968
 31
0.0
  0
LINE
  5
3D1A
  8
0-1
  6
CONTINUOUS
 62
     3
 10
10724.775219000019
 20
6082.8835509999981
 30
0.0
 11
10724.775219000019
 21
7943.9289339999968
 31
0.0
  0
LINE
  5
3D1B
  8
0-1
  6
CONTINUOUS
 62
     3
 10
10739.777001
 20
6082.8835509999981
 30
0.0
 11
10739.777001
 21
7943.9289339999968
 31
0.0
  0
LINE
  5
3D1C
  8
0-1
  6
CONTINUOUS
 62
     3
 10
10872.776895000001
 20
6082.8835509999981
 30
0.0
 11
10872.776895000001
 21
7943.9289339999968
 31
0.0
  0
LINE
  5
3D1D
  8
0-1
  6
CONTINUOUS
 62
     3
 10
10992.774322000019
 20
6082.8835509999981
 30
0.0
 11
10992.774322000019
 21
7943.9289339999968
 31
0.0
  0
LINE
  5
3D1E
  8
0-1
  6
CONTINUOUS
 62
     3
 10
10922.77458600001
 20
6082.8835509999981
 30
0.0
 11
10922.77458600001
 21
7943.9289339999968
 31
0.0
  0
LINE
  5
3D1F
  8
0-1
  6
CONTINUOUS
 62
     3
 10
10942.77663100001
 20
6082.8835509999981
 30
0.0
 11
10942.77663100001
 21
7943.9289339999968
 31
0.0
  0
LINE
  5
3D20
  8
0-1
  6
CONTINUOUS
 62
     3
 10
11642.77597100001
 20
6082.8835509999981
 30
0.0
 11
11642.77597100001
 21
7943.9289339999968
 31
0.0
  0
LINE
  5
3D21
  8
0-1
  6
CONTINUOUS
 62
     3
 10
11622.776895000001
 20
6082.8835509999981
 30
0.0
 11
11622.776895000001
 21
7943.9289339999968
 31
0.0
  0
LINE
  5
3D22
  8
0-1
  6
CONTINUOUS
 62
     3
 10
11692.77663100001
 20
6082.8835509999981
 30
0.0
 11
11692.77663100001
 21
7943.9289339999968
 31
0.0
  0
LINE
  5
3D23
  8
0-1
  6
CONTINUOUS
 62
     3
 10
11572.77623500001
 20
6082.8835509999981
 30
0.0
 11
11572.77623500001
 21
7943.9289339999968
 31
0.0
  0
LINE
  5
3D24
  8
0-1
  6
CONTINUOUS
 62
     3
 10
11439.77634100001
 20
6082.8835509999981
 30
0.0
 11
11439.77634100001
 21
7943.9289339999968
 31
0.0
  0
LINE
  5
3D25
  8
0-1
  6
CONTINUOUS
 62
     3
 10
11424.77455900001
 20
6082.8835509999981
 30
0.0
 11
11424.77455900001
 21
7943.9289339999968
 31
0.0
  0
LINE
  5
3D26
  8
0-1
  6
CONTINUOUS
 62
     3
 10
11835.77663
 20
6082.8835509999981
 30
0.0
 11
11835.77663
 21
7943.9289339999968
 31
0.0
  0
LINE
  5
3D27
  8
0-1
  6
CONTINUOUS
 62
     3
 10
11850.77544300001
 20
6082.8835509999981
 30
0.0
 11
11850.77544300001
 21
7943.9289339999968
 31
0.0
  0
LINE
  5
3D28
  8
0-1
  6
CONTINUOUS
 62
     3
 10
9740.774348000019
 20
6082.8835509999981
 30
0.0
 11
9740.774348000019
 21
7943.9289339999968
 31
0.0
  0
LINE
  5
3D29
  8
0-1
  6
CONTINUOUS
 62
     3
 10
9725.7755360000192
 20
6082.8835509999981
 30
0.0
 11
9725.7755360000192
 21
7943.9289339999968
 31
0.0
  0
LINE
  5
3D2A
  8
0-1
  6
CONTINUOUS
 62
     3
 10
9592.7766310000115
 20
6082.8835509999981
 30
0.0
 11
9592.7766310000115
 21
7943.9289339999968
 31
0.0
  0
LINE
  5
3D2B
  8
0-1
  6
CONTINUOUS
 62
     3
 10
12101.775496
 20
6032.8828910000011
 30
0.0
 11
12101.775496
 21
5932.883550999999
 31
0.0
  0
LINE
  5
3D2C
  8
0-1
  6
CONTINUOUS
 62
     3
 10
5990.8044630000068
 20
8108.5090779999973
 30
0.0
 11
5989.7572970000083
 21
8142.494442999996
 31
0.0
  0
LINE
  5
3D2D
  8
0-1
  6
CONTINUOUS
 62
     3
 10
5992.6632310000077
 20
8145.5844719999968
 30
0.0
 11
12173.65669800001
 21
8335.7578119999944
 31
0.0
  0
LINE
  5
3D2E
  8
0-1
  6
CONTINUOUS
 62
     3
 10
12174.889938
 20
8295.7764849999967
 30
0.0
 11
5993.8964710000091
 21
8105.6031450000028
 31
0.0
  0
LINE
  5
3D2F
  8
0-1
  6
CONTINUOUS
 62
     3
 10
5992.5098180000095
 20
8150.582755999998
 30
0.0
 11
12173.502296000001
 21
8340.7551060000005
 31
0.0
  0
LINE
  5
3D30
  8
0-1
  6
CONTINUOUS
 62
     3
 10
12175.043351
 20
8290.7782009999974
 30
0.0
 11
5994.0488940000023
 21
8100.6058510000003
 31
0.0
  0
LINE
  5
3D31
  8
0-1
  6
CONTINUOUS
 62
     3
 10
5991.1429600000083
 20
8097.5148319999989
 30
0.0
 11
5991.1429600000083
 21
8097.5801560000018
 31
0.0
  0
LINE
  5
3D32
  8
0-1
  6
CONTINUOUS
 62
     3
 10
5991.1429600000083
 20
8097.5801560000018
 30
0.0
 11
5992.1327200000078
 21
8065.5307610000027
 31
0.0
  0
LINE
  5
3D33
  8
0-1
  6
CONTINUOUS
 62
     3
 10
5997.2844170000126
 20
8060.6878690000021
 30
0.0
 11
12197.250580000011
 21
8251.4451660000032
 31
0.0
  0
LINE
  5
3D34
  8
0-1
  6
CONTINUOUS
 62
     3
 10
12193.240075000011
 20
8381.3847249999999
 30
0.0
 11
5993.2739120000087
 21
8190.625447999998
 31
0.0
  0
LINE
  5
3D35
  8
0-1
  6
CONTINUOUS
 62
     3
 10
5988.4290400000064
 20
8185.4727610000027
 30
0.0
 11
5989.4178100000081
 21
8153.4886889999971
 31
0.0
  0
LINE
  5
3D36
  8
0-1
  6
CONTINUOUS
 62
     3
 10
6005.7686330000024
 20
8191.010463999999
 30
0.0
 11
6009.779138000009
 21
8061.0718950000028
 31
0.0
  0
LINE
  5
3D37
  8
2-0
  6
CENTER2
 62
     6
 10
6210.7754960000084
 20
5670.2301380000026
 30
0.0
 11
6210.7754960000084
 21
6727.3727360000012
 31
0.0
  0
LINE
  5
3D38
  8
2-0
  6
CENTER2
 62
     6
 10
9128.7754960000093
 20
5670.2301380000026
 30
0.0
 11
9128.7754960000093
 21
6727.3727360000012
 31
0.0
  0
LINE
  5
3D39
  8
2-0
  6
CENTER2
 62
     6
 10
12046.775496
 20
5670.2301380000026
 30
0.0
 11
12046.775496
 21
6727.3727360000012
 31
0.0
  0
ARC
  5
3D3A
  8
0-1
  6
CONTINUOUS
 62
     3
 10
5995.4731570000113
 20
8103.1515109999982
 30
0.0
 40
2.5
 50
271.76798999988182
 51
91.767989999881877
  0
ARC
  5
3D3B
  8
0-1
  6
CONTINUOUS
 62
     3
 10
5994.0855150000079
 20
8148.1291430000028
 30
0.0
 40
2.5
 50
271.76798999988182
 51
91.767989999881877
  0
ARC
  5
3D3C
  8
0-1
  6
CONTINUOUS
 62
     3
 10
5992.7542880000083
 20
8142.5864909999973
 30
0.0
 40
3.0
 50
91.767989999881877
 51
181.7679899999863
  0
ARC
  5
3D3D
  8
0-1
  6
CONTINUOUS
 62
     3
 10
12174.27331800001
 20
8315.7666530000024
 30
0.0
 40
20.0
 50
271.76798999988182
 51
91.767989999881877
  0
ARC
  5
3D3E
  8
0-1
  6
CONTINUOUS
 62
     3
 10
5993.8044230000087
 20
8108.603105999995
 30
0.0
 40
3.0
 50
181.7679899999863
 51
271.76798999988182
  0
ARC
  5
3D3F
  8
0-1
  6
CONTINUOUS
 62
     3
 10
12174.27331800001
 20
8315.7666530000024
 30
0.0
 40
24.999998999999999
 50
271.76798999988182
 51
91.767989999881877
  0
ARC
  5
3D40
  8
0-1
  6
CONTINUOUS
 62
     3
 10
5994.1449000000093
 20
8097.6078699999953
 30
0.0
 40
3.0
 50
91.767989999881877
 51
181.7679899999863
  0
ARC
  5
3D41
  8
0-1
  6
CONTINUOUS
 62
     3
 10
5997.130014000013
 20
8065.6851629999974
 30
0.0
 40
5.0
 50
181.7679899999863
 51
271.76798999988182
  0
ARC
  5
3D42
  8
0-1
  6
CONTINUOUS
 62
     3
 10
12169.276023
 20
8315.6122509999968
 30
0.0
 40
69.999999000000003
 50
293.55477900013489
 51
69.981200999902924
  0
ARC
  5
3D43
  8
0-1
  6
CONTINUOUS
 62
     3
 10
5993.4283150000083
 20
8185.627163000001
 30
0.0
 40
5.0
 50
91.767989999881877
 51
181.7679899999863
  0
ARC
  5
3D44
  8
0-1
  6
CONTINUOUS
 62
     3
 10
5992.4148010000099
 20
8153.5807370000002
 30
0.0
 40
3.0
 50
181.7679899999863
 51
271.76798999988182
  0
TEXT
  5
3D45
  8
2-0
  6
CONTINUOUS
 62
     7
 10
7809.4520960000173
 20
2971.7328399999992
 30
0.0
 40
160.0
  1
側 面 立 面 図
 72
     4
 11
8454.7854293333494
 21
3051.7328400000001
 31
0.0
  0
TEXT
  5
3D46
  8
2-0
  6
CONTINUOUS
 62
     7
 10
9806.2776144709787
 20
2998.9282089999988
 30
0.0
 40
160.0
  1
1
 72
     4
 11
9832.9442811376448
 21
3078.9282089999979
 31
0.0
  0
TEXT
  5
3D47
  8
2-0
  6
CONTINUOUS
 62
     7
 10
10049.366331721671
 20
2918.9296769999992
 30
0.0
 40
160.0
  1
80
 72
     4
 11
10169.366331721671
 21
2998.9296769999992
 31
0.0
  0
TEXT
  5
3D48
  8
2-0
  6
CONTINUOUS
 62
     7
 10
9307.2795804709767
 20
2971.7328399999992
 30
0.0
 40
160.0
  1
(S=  /   )
 72
     4
 11
9867.2795804709767
 21
3051.7328400000001
 31
0.0
  0
LINE
  5
3D49
  8
0-5
  6
CONTINUOUS
 62
     4
 10
12046.775496
 20
4252.8829569999989
 30
0.0
 11
12046.775496
 21
4092.883418999998
 31
0.0
  0
LINE
  5
3D4A
  8
0-5
  6
CONTINUOUS
 62
     4
 10
9128.7754960000093
 20
4252.8829569999989
 30
0.0
 11
9128.7754960000093
 21
4092.883418999998
 31
0.0
  0
LINE
  5
3D4B
  8
0-5
  6
CONTINUOUS
 62
     4
 10
6210.7754960000084
 20
4252.8829569999989
 30
0.0
 11
6210.7754960000084
 21
4092.883418999998
 31
0.0
  0
CIRCLE
  5
3D4C
  8
0-5
  6
CONTINUOUS
 62
     4
 10
9128.7754960000093
 20
3892.8822640000021
 30
0.0
 40
199.9999949999999
  0
CIRCLE
  5
3D4D
  8
0-5
  6
CONTINUOUS
 62
     4
 10
12046.775496
 20
3892.8822640000021
 30
0.0
 40
199.9999949999999
  0
CIRCLE
  5
3D4E
  8
0-5
  6
CONTINUOUS
 62
     4
 10
6210.7754960000084
 20
3892.8822640000021
 30
0.0
 40
199.9999949999999
  0
TEXT
  5
3D4F
  8
0-5
  6
CONTINUOUS
 62
     7
 10
11999.819336
 20
3809.6714680000032
 30
0.0
 40
160.0
  1
A
 72
     4
 11
12053.15266933334
 21
3889.6714680000032
 31
0.0
  0
TEXT
  5
3D50
  8
0-5
  6
CONTINUOUS
 62
     7
 10
9081.8193360000078
 20
3809.6714680000032
 30
0.0
 40
160.0
  1
B
 72
     4
 11
9135.1526693333417
 21
3889.6714680000032
 31
0.0
  0
TEXT
  5
3D51
  8
0-5
  6
CONTINUOUS
 62
     7
 10
6163.819336000015
 20
3809.6714680000032
 30
0.0
 40
160.0
  1
C
 72
     4
 11
6217.1526693333481
 21
3889.6714680000032
 31
0.0
  0
LINE
  5
3D52
  8
0-5
  6
CONTINUOUS
 62
     4
 10
13806.859493
 20
6032.8828909999984
 30
0.0
 11
13926.859888999999
 21
6240.7298679999976
 31
0.0
  0
LINE
  5
3D53
  8
0-5
  6
CONTINUOUS
 62
     4
 10
13686.861075999999
 20
6240.7298679999976
 30
0.0
 11
13806.859493
 21
6032.8828909999984
 31
0.0
  0
LINE
  5
3D54
  8
0-5
  6
CONTINUOUS
 62
     4
 10
13926.859888999999
 20
6240.7298679999976
 30
0.0
 11
13686.861075999999
 21
6240.7298679999976
 31
0.0
  0
LINE
  5
3D55
  8
0-5
  6
CONTINUOUS
 62
     4
 10
12181.77279100001
 20
6032.8828909999984
 30
0.0
 11
13899.237686
 21
6032.8828909999984
 31
0.0
  0
TEXT
  5
3D56
  8
0-5
  6
CONTINUOUS
 62
     7
 10
13347.767563999991
 20
6320.7291420000001
 30
0.0
 40
160.0
  1
布基礎天端
 72
     4
 11
13806.43423066666
 21
6400.7291419999992
 31
0.0
  0
LINE
  5
3D57
  8
2-0
  6
CONTINUOUS
 62
     3
 10
8080.1285699999989
 20
17512.482303000001
 30
0.0
 11
8242.3723870000031
 21
17697.694189999991
 31
0.0
  0
LINE
  5
3D58
  8
2-0
  6
CONTINUOUS
 62
     3
 10
7481.5404609999978
 20
18346.643724999991
 30
0.0
 11
7643.7679470000003
 21
18536.847746999982
 31
0.0
  0
LINE
  5
3D59
  8
2-0
  6
CONTINUOUS
 62
     3
 10
8080.1285699999989
 20
17512.482303000001
 30
0.0
 11
7643.7679470000003
 21
18536.847746999982
 31
0.0
  0
LINE
  5
3D5A
  8
2-0
  6
CONTINUOUS
 62
     3
 10
7481.5404609999978
 20
18346.643724999991
 30
0.0
 11
4698.504525999997
 21
19934.348064999991
 31
0.0
  0
LINE
  5
3D5B
  8
2-0
  6
CONTINUOUS
 62
     3
 10
8290.5073499999999
 20
17017.31802899998
 30
0.0
 11
8290.5073499999999
 21
17107.322779999959
 31
0.0
  0
LINE
  5
3D5C
  8
2-0
  6
CONTINUOUS
 62
     6
 10
6407.1869389999983
 20
13815.352128999981
 30
0.0
 11
6732.2011260000036
 21
13284.31756699998
 31
0.0
  0
LINE
  5
3D5D
  8
2-0
  6
CONTINUOUS
 62
     6
 10
6732.2011260000036
 20
13284.31756699998
 30
0.0
 11
7594.7847600000032
 21
13284.31756699998
 31
0.0
  0
LINE
  5
3D5E
  8
2-0
  6
CONTINUOUS
 62
     6
 10
3284.6789080000021
 20
12884.31228799997
 30
0.0
 11
4364.6713369999979
 21
12884.31228799997
 31
0.0
  0
LINE
  5
3D5F
  8
2-0
  6
CONTINUOUS
 62
     6
 10
4881.6129639999999
 20
14532.09027799998
 30
0.0
 11
4364.6713369999979
 21
12884.31228799997
 31
0.0
  0
LINE
  5
3D60
  8
2-0
  6
CONTINUOUS
 62
     6
 10
6134.40524
 20
14309.207372999959
 30
0.0
 11
6270.7590130000017
 21
14458.66201599998
 31
0.0
  0
LINE
  5
3D61
  8
2-0
  6
CONTINUOUS
 62
     6
 10
6270.7590130000017
 20
14458.66201599998
 30
0.0
 11
7070.7547240000049
 21
14458.66201599998
 31
0.0
  0
LINE
  5
3D62
  8
2-0
  6
CONTINUOUS
 62
     6
 10
24580.517207999961
 20
13504.315322999981
 30
0.0
 11
25580.510609999928
 21
13504.315322999981
 31
0.0
  0
LINE
  5
3D63
  8
2-0
  6
CONTINUOUS
 62
     6
 10
26048.45098699996
 20
13974.736036999981
 30
0.0
 11
25580.510609999928
 21
13504.315322999981
 31
0.0
  0
LINE
  5
3D64
  8
2-0
  6
CONTINUOUS
 62
     6
 10
26009.810783999961
 20
17166.343683999981
 30
0.0
 11
25705.115365999962
 21
17269.997214999989
 31
0.0
  0
LINE
  5
3D65
  8
2-0
  6
CONTINUOUS
 62
     6
 10
26164.832822999932
 20
16676.72164
 30
0.0
 11
25705.115365999962
 21
16432.808328999989
 31
0.0
  0
LINE
  5
3D66
  8
2-0
  6
CONTINUOUS
 62
     6
 10
24785.11233099996
 20
16432.808328999989
 30
0.0
 11
25705.115365999962
 21
16432.808328999989
 31
0.0
  0
LINE
  5
3D67
  8
2-0
  6
CONTINUOUS
 62
     6
 10
24505.121303999949
 20
17269.997214999989
 30
0.0
 11
25705.115365999962
 21
17269.997214999989
 31
0.0
  0
LINE
  5
3D68
  8
2-0
  6
CONTINUOUS
 62
     6
 10
26081.010107999959
 20
14296.419682999949
 30
0.0
 11
25705.115365999962
 21
14477.36351799998
 31
0.0
  0
LINE
  5
3D69
  8
2-0
  6
CONTINUOUS
 62
     6
 10
25185.11364999997
 20
14477.36351799998
 30
0.0
 11
25705.115365999962
 21
14477.36351799998
 31
0.0
  0
LINE
  5
3D6A
  8
2-0
  6
CONTINUOUS
 62
     4
 10
22995.176123999961
 20
20102.816973000001
 30
0.0
 11
22995.176123999961
 21
20832.813937999981
 31
0.0
  0
LINE
  5
3D6B
  8
2-0
  6
CONTINUOUS
 62
     3
 10
26276.176783999959
 20
19913.814518999981
 30
0.0
 11
26276.176783999959
 21
19907.818556999991
 31
0.0
  0
LINE
  5
3D6C
  8
2-0
  6
CONTINUOUS
 62
     3
 10
26276.176783999959
 20
19907.818556999991
 30
0.0
 11
26306.174407999959
 21
19907.818556999991
 31
0.0
  0
LINE
  5
3D6D
  8
2-0
  6
CONTINUOUS
 62
     3
 10
26306.174407999959
 20
19937.818160999981
 30
0.0
 11
26225.17250799996
 21
19937.818160999981
 31
0.0
  0
LINE
  5
3D6E
  8
2-0
  6
CONTINUOUS
 62
     3
 10
26276.176783999959
 20
19897.521100999991
 30
0.0
 11
26306.174407999959
 21
19897.521100999991
 31
0.0
  0
LINE
  5
3D6F
  8
2-0
  6
CONTINUOUS
 62
     3
 10
26276.176783999959
 20
19915.522842999992
 30
0.0
 11
26276.176783999959
 21
19897.521100999991
 31
0.0
  0
LINE
  5
3D70
  8
2-0
  6
CONTINUOUS
 62
     3
 10
26301.174143999971
 20
19915.522842999992
 30
0.0
 11
26276.176783999959
 21
19915.522842999992
 31
0.0
  0
LINE
  5
3D71
  8
2-0
  6
CONTINUOUS
 62
     3
 10
26301.174143999971
 20
19910.514661000001
 30
0.0
 11
26301.174143999971
 21
19915.522842999992
 31
0.0
  0
LINE
  5
3D72
  8
2-0
  6
CONTINUOUS
 62
     3
 10
26294.172586999961
 20
19910.514661000001
 30
0.0
 11
26301.174143999971
 21
19910.514661000001
 31
0.0
  0
LINE
  5
3D73
  8
2-0
  6
CONTINUOUS
 62
     3
 10
26193.876318999959
 20
20010.814888000001
 30
0.0
 11
26193.876318999959
 21
20017.820403999991
 31
0.0
  0
LINE
  5
3D74
  8
2-0
  6
CONTINUOUS
 62
     3
 10
26193.876318999959
 20
20017.820403999991
 30
0.0
 11
26198.876582999961
 21
20017.820403999991
 31
0.0
  0
LINE
  5
3D75
  8
2-0
  6
CONTINUOUS
 62
     3
 10
26198.876582999961
 20
20017.820403999991
 30
0.0
 11
26198.876582999961
 21
19992.811166999989
 31
0.0
  0
LINE
  5
3D76
  8
2-0
  6
CONTINUOUS
 62
     3
 10
26198.876582999961
 20
19992.811166999989
 30
0.0
 11
26180.87484099995
 21
19992.811166999989
 31
0.0
  0
LINE
  5
3D77
  8
2-0
  6
CONTINUOUS
 62
     3
 10
26180.87484099995
 20
19992.811166999989
 30
0.0
 11
26180.87484099995
 21
20022.814729999998
 31
0.0
  0
LINE
  5
3D78
  8
2-0
  6
CONTINUOUS
 62
     3
 10
26191.172296999961
 20
20022.814729999998
 30
0.0
 11
26306.174407999959
 21
20022.814729999998
 31
0.0
  0
LINE
  5
3D79
  8
2-0
  6
CONTINUOUS
 62
     3
 10
26191.172296999961
 20
19992.811166999989
 30
0.0
 11
26191.172296999961
 21
20022.814729999998
 31
0.0
  0
LINE
  5
3D7A
  8
2-0
  6
CONTINUOUS
 62
     3
 10
26197.174196999971
 20
19992.811166999989
 30
0.0
 11
26191.172296999961
 21
19992.811166999989
 31
0.0
  0
LINE
  5
3D7B
  8
2-0
  6
CONTINUOUS
 62
     3
 10
26294.172586999961
 20
19206.717838499961
 30
0.0
 11
26301.174143999971
 21
19206.717838499961
 31
0.0
  0
LINE
  5
3D7C
  8
2-0
  6
CONTINUOUS
 62
     3
 10
26301.174143999971
 20
19206.717838499961
 30
0.0
 11
26301.174143999971
 21
19211.718102499981
 31
0.0
  0
LINE
  5
3D7D
  8
2-0
  6
CONTINUOUS
 62
     3
 10
26301.174143999971
 20
19211.718102499981
 30
0.0
 11
26276.176783999959
 21
19211.718102499981
 31
0.0
  0
LINE
  5
3D7E
  8
2-0
  6
CONTINUOUS
 62
     3
 10
26276.176783999959
 20
19211.718102499981
 30
0.0
 11
26276.176783999959
 21
19193.722298499961
 31
0.0
  0
LINE
  5
3D7F
  8
2-0
  6
CONTINUOUS
 62
     3
 10
26276.176783999959
 20
19193.722298499961
 30
0.0
 11
26306.174407999959
 21
19193.722298499961
 31
0.0
  0
LINE
  5
3D80
  8
2-0
  6
CONTINUOUS
 62
     3
 10
26276.176783999959
 20
19209.813805499962
 30
0.0
 11
26276.176783999959
 21
19203.81586449996
 31
0.0
  0
LINE
  5
3D81
  8
2-0
  6
CONTINUOUS
 62
     3
 10
26276.176783999959
 20
19203.81586449996
 30
0.0
 11
26306.174407999959
 21
19203.81586449996
 31
0.0
  0
LINE
  5
3D82
  8
2-0
  6
CONTINUOUS
 62
     3
 10
26306.174407999959
 20
19203.81586449996
 30
0.0
 11
26306.174407999959
 21
19240.81702549995
 31
0.0
  0
LINE
  5
3D83
  8
2-0
  6
CONTINUOUS
 62
     3
 10
26276.176783999959
 20
19240.81702549995
 30
0.0
 11
26306.174407999959
 21
19240.81702549995
 31
0.0
  0
LINE
  5
3D84
  8
2-0
  6
CONTINUOUS
 62
     3
 10
26276.176783999959
 20
19234.813145499971
 30
0.0
 11
26276.176783999959
 21
19240.81702549995
 31
0.0
  0
LINE
  5
3D85
  8
2-0
  6
CONTINUOUS
 62
     3
 10
26276.176783999959
 20
19250.912570499971
 30
0.0
 11
26306.174407999959
 21
19250.912570499971
 31
0.0
  0
LINE
  5
3D86
  8
2-0
  6
CONTINUOUS
 62
     3
 10
26276.176783999959
 20
19232.91082849996
 30
0.0
 11
26276.176783999959
 21
19250.912570499971
 31
0.0
  0
LINE
  5
3D87
  8
2-0
  6
CONTINUOUS
 62
     3
 10
26301.174143999971
 20
19232.91082849996
 30
0.0
 11
26276.176783999959
 21
19232.91082849996
 31
0.0
  0
LINE
  5
3D88
  8
2-0
  6
CONTINUOUS
 62
     3
 10
26301.174143999971
 20
19237.91109249998
 30
0.0
 11
26301.174143999971
 21
19232.91082849996
 31
0.0
  0
LINE
  5
3D89
  8
2-0
  6
CONTINUOUS
 62
     3
 10
26294.172586999961
 20
19237.91109249998
 30
0.0
 11
26301.174143999971
 21
19237.91109249998
 31
0.0
  0
LINE
  5
3D8A
  8
2-0
  6
CONTINUOUS
 62
     3
 10
26294.172586999961
 20
18505.716848999989
 30
0.0
 11
26301.174143999971
 21
18505.716848999989
 31
0.0
  0
LINE
  5
3D8B
  8
2-0
  6
CONTINUOUS
 62
     3
 10
26301.174143999971
 20
18505.716848999989
 30
0.0
 11
26301.174143999971
 21
18510.723050999961
 31
0.0
  0
LINE
  5
3D8C
  8
2-0
  6
CONTINUOUS
 62
     3
 10
26301.174143999971
 20
18510.723050999961
 30
0.0
 11
26276.176783999959
 21
18510.723050999961
 31
0.0
  0
LINE
  5
3D8D
  8
2-0
  6
CONTINUOUS
 62
     3
 10
26276.176783999959
 20
18510.723050999961
 30
0.0
 11
26276.176783999959
 21
18492.72130899999
 31
0.0
  0
LINE
  5
3D8E
  8
2-0
  6
CONTINUOUS
 62
     3
 10
26276.176783999959
 20
18492.72130899999
 30
0.0
 11
26306.174407999959
 21
18492.72130899999
 31
0.0
  0
LINE
  5
3D8F
  8
2-0
  6
CONTINUOUS
 62
     3
 10
26276.176783999959
 20
18508.812815999951
 30
0.0
 11
26276.176783999959
 21
18502.81685399995
 31
0.0
  0
LINE
  5
3D90
  8
2-0
  6
CONTINUOUS
 62
     3
 10
26276.176783999959
 20
18502.81685399995
 30
0.0
 11
26306.174407999959
 21
18502.81685399995
 31
0.0
  0
LINE
  5
3D91
  8
2-0
  6
CONTINUOUS
 62
     3
 10
26306.174407999959
 20
18502.81685399995
 30
0.0
 11
26306.174407999959
 21
18539.816035999989
 31
0.0
  0
LINE
  5
3D92
  8
2-0
  6
CONTINUOUS
 62
     3
 10
26276.176783999959
 20
18539.816035999989
 30
0.0
 11
26306.174407999959
 21
18539.816035999989
 31
0.0
  0
LINE
  5
3D93
  8
2-0
  6
CONTINUOUS
 62
     3
 10
26276.176783999959
 20
18533.820073999981
 30
0.0
 11
26276.176783999959
 21
18539.816035999989
 31
0.0
  0
LINE
  5
3D94
  8
2-0
  6
CONTINUOUS
 62
     3
 10
26276.176783999959
 20
18549.911580999978
 30
0.0
 11
26306.174407999959
 21
18549.911580999978
 31
0.0
  0
LINE
  5
3D95
  8
2-0
  6
CONTINUOUS
 62
     3
 10
26276.176783999959
 20
18531.909838999989
 30
0.0
 11
26276.176783999959
 21
18549.911580999978
 31
0.0
  0
LINE
  5
3D96
  8
2-0
  6
CONTINUOUS
 62
     3
 10
26301.174143999971
 20
18531.909838999989
 30
0.0
 11
26276.176783999959
 21
18531.909838999989
 31
0.0
  0
LINE
  5
3D97
  8
2-0
  6
CONTINUOUS
 62
     3
 10
26301.174143999971
 20
18536.91604099996
 30
0.0
 11
26301.174143999971
 21
18531.909838999989
 31
0.0
  0
LINE
  5
3D98
  8
2-0
  6
CONTINUOUS
 62
     3
 10
26294.172586999961
 20
18536.91604099996
 30
0.0
 11
26301.174143999971
 21
18536.91604099996
 31
0.0
  0
LINE
  5
3D99
  8
2-0
  6
CONTINUOUS
 62
     3
 10
26294.172586999961
 20
17835.910102999991
 30
0.0
 11
26301.174143999971
 21
17835.910102999991
 31
0.0
  0
LINE
  5
3D9A
  8
2-0
  6
CONTINUOUS
 62
     3
 10
26301.174143999971
 20
17835.910102999991
 30
0.0
 11
26301.174143999971
 21
17830.921715999972
 31
0.0
  0
LINE
  5
3D9B
  8
2-0
  6
CONTINUOUS
 62
     3
 10
26301.174143999971
 20
17830.921715999972
 30
0.0
 11
26276.176783999959
 21
17830.921715999972
 31
0.0
  0
LINE
  5
3D9C
  8
2-0
  6
CONTINUOUS
 62
     3
 10
26276.176783999959
 20
17830.921715999972
 30
0.0
 11
26276.176783999959
 21
17848.917518999991
 31
0.0
  0
LINE
  5
3D9D
  8
2-0
  6
CONTINUOUS
 62
     3
 10
26276.176783999959
 20
17848.917518999991
 30
0.0
 11
26306.174407999959
 21
17848.917518999991
 31
0.0
  0
LINE
  5
3D9E
  8
2-0
  6
CONTINUOUS
 62
     3
 10
26276.176783999959
 20
17832.820073999981
 30
0.0
 11
26276.176783999959
 21
17838.816035999971
 31
0.0
  0
LINE
  5
3D9F
  8
2-0
  6
CONTINUOUS
 62
     3
 10
26276.176783999959
 20
17838.816035999971
 30
0.0
 11
26306.174407999959
 21
17838.816035999971
 31
0.0
  0
LINE
  5
3DA0
  8
2-0
  6
CONTINUOUS
 62
     3
 10
26306.174407999959
 20
17838.816035999971
 30
0.0
 11
26306.174407999959
 21
17801.816853999961
 31
0.0
  0
LINE
  5
3DA1
  8
2-0
  6
CONTINUOUS
 62
     3
 10
26276.176783999959
 20
17801.816853999961
 30
0.0
 11
26306.174407999959
 21
17801.816853999961
 31
0.0
  0
LINE
  5
3DA2
  8
2-0
  6
CONTINUOUS
 62
     3
 10
26276.176783999959
 20
17807.818754999978
 30
0.0
 11
26276.176783999959
 21
17801.816853999961
 31
0.0
  0
LINE
  5
3DA3
  8
2-0
  6
CONTINUOUS
 62
     3
 10
26276.176783999959
 20
17791.727247999981
 30
0.0
 11
26306.174407999959
 21
17791.727247999981
 31
0.0
  0
LINE
  5
3DA4
  8
2-0
  6
CONTINUOUS
 62
     3
 10
26276.176783999959
 20
17809.723050999972
 30
0.0
 11
26276.176783999959
 21
17791.727247999981
 31
0.0
  0
LINE
  5
3DA5
  8
2-0
  6
CONTINUOUS
 62
     3
 10
26301.174143999971
 20
17809.723050999972
 30
0.0
 11
26276.176783999959
 21
17809.723050999972
 31
0.0
  0
LINE
  5
3DA6
  8
2-0
  6
CONTINUOUS
 62
     3
 10
26301.174143999971
 20
17804.722787999981
 30
0.0
 11
26301.174143999971
 21
17809.723050999972
 31
0.0
  0
LINE
  5
3DA7
  8
2-0
  6
CONTINUOUS
 62
     3
 10
26294.172586999961
 20
17804.722787999981
 30
0.0
 11
26301.174143999971
 21
17804.722787999981
 31
0.0
  0
LINE
  5
3DA8
  8
2-0
  6
CONTINUOUS
 62
     3
 10
26303.288269999961
 20
17084.813673999972
 30
0.0
 11
26303.288269999961
 21
17104.814728999969
 31
0.0
  0
LINE
  5
3DA9
  8
2-0
  6
CONTINUOUS
 62
     3
 10
26303.288269999961
 20
17104.814728999969
 30
0.0
 11
26218.291700999958
 21
17104.814728999969
 31
0.0
  0
LINE
  5
3DAA
  8
2-0
  6
CONTINUOUS
 62
     3
 10
26294.172586999961
 20
17131.421438999991
 30
0.0
 11
26301.174143999971
 21
17131.421438999991
 31
0.0
  0
LINE
  5
3DAB
  8
2-0
  6
CONTINUOUS
 62
     3
 10
26301.174143999971
 20
17131.421438999991
 30
0.0
 11
26301.174143999971
 21
17126.427112999991
 31
0.0
  0
LINE
  5
3DAC
  8
2-0
  6
CONTINUOUS
 62
     3
 10
26301.174143999971
 20
17126.427112999991
 30
0.0
 11
26276.176783999959
 21
17126.427112999991
 31
0.0
  0
LINE
  5
3DAD
  8
2-0
  6
CONTINUOUS
 62
     3
 10
26276.176783999959
 20
17126.427112999991
 30
0.0
 11
26276.176783999959
 21
17144.422916999989
 31
0.0
  0
LINE
  5
3DAE
  8
2-0
  6
CONTINUOUS
 62
     3
 10
26276.176783999959
 20
17144.422916999989
 30
0.0
 11
26306.174407999959
 21
17144.422916999989
 31
0.0
  0
LINE
  5
3DAF
  8
2-0
  6
CONTINUOUS
 62
     3
 10
26276.176783999959
 20
17134.81433299998
 30
0.0
 11
26276.176783999959
 21
17128.812432999981
 31
0.0
  0
LINE
  5
3DB0
  8
2-0
  6
CONTINUOUS
 62
     3
 10
26306.174407999959
 20
17134.81433299998
 30
0.0
 11
26276.176783999959
 21
17134.81433299998
 31
0.0
  0
LINE
  5
3DB1
  8
2-0
  6
CONTINUOUS
 62
     3
 10
26306.174407999959
 20
17144.422916999989
 30
0.0
 11
26306.174407999959
 21
17791.727247999981
 31
0.0
  0
LINE
  5
3DB2
  8
2-0
  6
CONTINUOUS
 62
     3
 10
26306.174407999959
 20
17848.917518999991
 30
0.0
 11
26306.174407999959
 21
18492.72130899999
 31
0.0
  0
LINE
  5
3DB3
  8
2-0
  6
CONTINUOUS
 62
     3
 10
26306.174407999959
 20
16989.812617999989
 30
0.0
 11
26276.176783999959
 21
16989.812617999989
 31
0.0
  0
LINE
  5
3DB4
  8
2-0
  6
CONTINUOUS
 62
     3
 10
26276.176783999959
 20
16989.812617999989
 30
0.0
 11
26276.176783999959
 21
16995.814517999981
 31
0.0
  0
LINE
  5
3DB5
  8
2-0
  6
CONTINUOUS
 62
     3
 10
26218.291700999958
 20
17019.818160999981
 30
0.0
 11
26303.288269999961
 21
17019.818160999981
 31
0.0
  0
LINE
  5
3DB6
  8
2-0
  6
CONTINUOUS
 62
     3
 10
26303.288269999961
 20
17019.818160999981
 30
0.0
 11
26303.288269999961
 21
17039.813277999991
 31
0.0
  0
LINE
  5
3DB7
  8
2-0
  6
CONTINUOUS
 62
     3
 10
26276.176783999959
 20
16980.204034999992
 30
0.0
 11
26306.174407999959
 21
16980.204034999992
 31
0.0
  0
LINE
  5
3DB8
  8
2-0
  6
CONTINUOUS
 62
     3
 10
26276.176783999959
 20
16998.199837999979
 30
0.0
 11
26276.176783999959
 21
16980.204034999992
 31
0.0
  0
LINE
  5
3DB9
  8
2-0
  6
CONTINUOUS
 62
     3
 10
26301.174143999971
 20
16998.199837999979
 30
0.0
 11
26276.176783999959
 21
16998.199837999979
 31
0.0
  0
LINE
  5
3DBA
  8
2-0
  6
CONTINUOUS
 62
     3
 10
26301.174143999971
 20
16993.199573999991
 30
0.0
 11
26301.174143999971
 21
16998.199837999979
 31
0.0
  0
LINE
  5
3DBB
  8
2-0
  6
CONTINUOUS
 62
     3
 10
26294.172586999961
 20
16993.199573999991
 30
0.0
 11
26301.174143999971
 21
16993.199573999991
 31
0.0
  0
LINE
  5
3DBC
  8
2-0
  6
CONTINUOUS
 62
     3
 10
26294.172586999961
 20
16288.717343499949
 30
0.0
 11
26301.174143999971
 21
16288.717343499949
 31
0.0
  0
LINE
  5
3DBD
  8
2-0
  6
CONTINUOUS
 62
     3
 10
26301.174143999971
 20
16288.717343499949
 30
0.0
 11
26301.174143999971
 21
16293.717607499961
 31
0.0
  0
LINE
  5
3DBE
  8
2-0
  6
CONTINUOUS
 62
     3
 10
26301.174143999971
 20
16293.717607499961
 30
0.0
 11
26276.176783999959
 21
16293.717607499961
 31
0.0
  0
LINE
  5
3DBF
  8
2-0
  6
CONTINUOUS
 62
     3
 10
26276.176783999959
 20
16293.717607499961
 30
0.0
 11
26276.176783999959
 21
16275.71586549998
 31
0.0
  0
LINE
  5
3DC0
  8
2-0
  6
CONTINUOUS
 62
     3
 10
26276.176783999959
 20
16275.71586549998
 30
0.0
 11
26306.174407999959
 21
16275.71586549998
 31
0.0
  0
LINE
  5
3DC1
  8
2-0
  6
CONTINUOUS
 62
     3
 10
26276.176783999959
 20
16291.81331049998
 30
0.0
 11
26276.176783999959
 21
16285.816359499981
 31
0.0
  0
LINE
  5
3DC2
  8
2-0
  6
CONTINUOUS
 62
     3
 10
26276.176783999959
 20
16285.816359499981
 30
0.0
 11
26306.174407999959
 21
16285.816359499981
 31
0.0
  0
LINE
  5
3DC3
  8
2-0
  6
CONTINUOUS
 62
     3
 10
26306.174407999959
 20
16285.816359499981
 30
0.0
 11
26306.174407999959
 21
16322.81653049998
 31
0.0
  0
LINE
  5
3DC4
  8
2-0
  6
CONTINUOUS
 62
     3
 10
26276.176783999959
 20
16322.81653049998
 30
0.0
 11
26306.174407999959
 21
16322.81653049998
 31
0.0
  0
LINE
  5
3DC5
  8
2-0
  6
CONTINUOUS
 62
     3
 10
26276.176783999959
 20
16316.81364049998
 30
0.0
 11
26276.176783999959
 21
16322.81653049998
 31
0.0
  0
LINE
  5
3DC6
  8
2-0
  6
CONTINUOUS
 62
     3
 10
26276.176783999959
 20
16332.91207549998
 30
0.0
 11
26306.174407999959
 21
16332.91207549998
 31
0.0
  0
LINE
  5
3DC7
  8
2-0
  6
CONTINUOUS
 62
     3
 10
26276.176783999959
 20
16314.904394499979
 30
0.0
 11
26276.176783999959
 21
16332.91207549998
 31
0.0
  0
LINE
  5
3DC8
  8
2-0
  6
CONTINUOUS
 62
     3
 10
26301.174143999971
 20
16314.904394499979
 30
0.0
 11
26276.176783999959
 21
16314.904394499979
 31
0.0
  0
LINE
  5
3DC9
  8
2-0
  6
CONTINUOUS
 62
     3
 10
26301.174143999971
 20
16319.91059749998
 30
0.0
 11
26301.174143999971
 21
16314.904394499979
 31
0.0
  0
LINE
  5
3DCA
  8
2-0
  6
CONTINUOUS
 62
     3
 10
26294.172586999961
 20
16319.91059749998
 30
0.0
 11
26301.174143999971
 21
16319.91059749998
 31
0.0
  0
LINE
  5
3DCB
  8
2-0
  6
CONTINUOUS
 62
     3
 10
26294.172586999961
 20
15619.15061399998
 30
0.0
 11
26301.174143999971
 21
15619.15061399998
 31
0.0
  0
LINE
  5
3DCC
  8
2-0
  6
CONTINUOUS
 62
     3
 10
26301.174143999971
 20
15619.15061399998
 30
0.0
 11
26301.174143999971
 21
15614.15628899998
 31
0.0
  0
LINE
  5
3DCD
  8
2-0
  6
CONTINUOUS
 62
     3
 10
26301.174143999971
 20
15614.15628899998
 30
0.0
 11
26276.176783999959
 21
15614.15628899998
 31
0.0
  0
LINE
  5
3DCE
  8
2-0
  6
CONTINUOUS
 62
     3
 10
26276.176783999959
 20
15614.15628899998
 30
0.0
 11
26276.176783999959
 21
15632.152092
 31
0.0
  0
LINE
  5
3DCF
  8
2-0
  6
CONTINUOUS
 62
     3
 10
26276.176783999959
 20
15632.152092
 30
0.0
 11
26306.174407999959
 21
15632.152092
 31
0.0
  0
LINE
  5
3DD0
  8
2-0
  6
CONTINUOUS
 62
     3
 10
26276.176783999959
 20
15616.05464699999
 30
0.0
 11
26276.176783999959
 21
15622.056547
 31
0.0
  0
LINE
  5
3DD1
  8
2-0
  6
CONTINUOUS
 62
     3
 10
26276.176783999959
 20
15622.056547
 30
0.0
 11
26306.174407999959
 21
15622.056547
 31
0.0
  0
LINE
  5
3DD2
  8
2-0
  6
CONTINUOUS
 62
     3
 10
26306.174407999959
 20
15585.05736599999
 30
0.0
 11
26306.174407999959
 21
15622.056547
 31
0.0
  0
LINE
  5
3DD3
  8
2-0
  6
CONTINUOUS
 62
     3
 10
26276.176783999959
 20
15585.05736599999
 30
0.0
 11
26306.174407999959
 21
15585.05736599999
 31
0.0
  0
LINE
  5
3DD4
  8
2-0
  6
CONTINUOUS
 62
     3
 10
26276.176783999959
 20
15591.05431699998
 30
0.0
 11
26276.176783999959
 21
15585.05736599999
 31
0.0
  0
LINE
  5
3DD5
  8
2-0
  6
CONTINUOUS
 62
     3
 10
26276.176783999959
 20
15574.95588199998
 30
0.0
 11
26306.174407999959
 21
15574.95588199998
 31
0.0
  0
LINE
  5
3DD6
  8
2-0
  6
CONTINUOUS
 62
     3
 10
26276.176783999959
 20
15592.963562999979
 30
0.0
 11
26276.176783999959
 21
15574.95588199998
 31
0.0
  0
LINE
  5
3DD7
  8
2-0
  6
CONTINUOUS
 62
     3
 10
26301.174143999971
 20
15592.963562999979
 30
0.0
 11
26276.176783999959
 21
15592.963562999979
 31
0.0
  0
LINE
  5
3DD8
  8
2-0
  6
CONTINUOUS
 62
     3
 10
26301.174143999971
 20
15587.963298999999
 30
0.0
 11
26301.174143999971
 21
15592.963562999979
 31
0.0
  0
LINE
  5
3DD9
  8
2-0
  6
CONTINUOUS
 62
     3
 10
26294.172586999961
 20
15587.963298999999
 30
0.0
 11
26301.174143999971
 21
15587.963298999999
 31
0.0
  0
LINE
  5
3DDA
  8
2-0
  6
CONTINUOUS
 62
     3
 10
26306.174407999959
 20
16980.204034999992
 30
0.0
 11
26306.174407999959
 21
16332.91207549998
 31
0.0
  0
LINE
  5
3DDB
  8
2-0
  6
CONTINUOUS
 62
     3
 10
26306.174407999959
 20
17134.81433299998
 30
0.0
 11
26306.174407999959
 21
16989.812617999989
 31
0.0
  0
LINE
  5
3DDC
  8
2-0
  6
CONTINUOUS
 62
     3
 10
26218.291700999958
 20
17104.814728999969
 30
0.0
 11
26218.291700999958
 21
17019.818160999981
 31
0.0
  0
LINE
  5
3DDD
  8
2-0
  6
CONTINUOUS
 62
     6
 10
24680.083033999948
 20
18873.26199449995
 30
0.0
 11
25705.115365999962
 21
18873.26199449995
 31
0.0
  0
LINE
  5
3DDE
  8
2-0
  6
CONTINUOUS
 62
     3
 10
26294.172586999961
 20
14886.72229199998
 30
0.0
 11
26301.174143999971
 21
14886.72229199998
 31
0.0
  0
LINE
  5
3DDF
  8
2-0
  6
CONTINUOUS
 62
     3
 10
26301.174143999971
 20
14886.72229199998
 30
0.0
 11
26301.174143999971
 21
14891.71661799998
 31
0.0
  0
LINE
  5
3DE0
  8
2-0
  6
CONTINUOUS
 62
     3
 10
26301.174143999971
 20
14891.71661799998
 30
0.0
 11
26276.176783999959
 21
14891.71661799998
 31
0.0
  0
LINE
  5
3DE1
  8
2-0
  6
CONTINUOUS
 62
     3
 10
26276.176783999959
 20
14891.71661799998
 30
0.0
 11
26276.176783999959
 21
14873.720813999969
 31
0.0
  0
LINE
  5
3DE2
  8
2-0
  6
CONTINUOUS
 62
     3
 10
26276.176783999959
 20
14873.720813999969
 30
0.0
 11
26306.174407999959
 21
14873.720813999969
 31
0.0
  0
LINE
  5
3DE3
  8
2-0
  6
CONTINUOUS
 62
     3
 10
26276.176783999959
 20
14889.81924899998
 30
0.0
 11
26276.176783999959
 21
14883.81635899998
 31
0.0
  0
LINE
  5
3DE4
  8
2-0
  6
CONTINUOUS
 62
     3
 10
26276.176783999959
 20
14883.81635899998
 30
0.0
 11
26306.174407999959
 21
14883.81635899998
 31
0.0
  0
LINE
  5
3DE5
  8
2-0
  6
CONTINUOUS
 62
     3
 10
26306.174407999959
 20
14883.81635899998
 30
0.0
 11
26306.174407999959
 21
14920.816530999949
 31
0.0
  0
LINE
  5
3DE6
  8
2-0
  6
CONTINUOUS
 62
     3
 10
26276.176783999959
 20
14920.816530999949
 30
0.0
 11
26306.174407999959
 21
14920.816530999949
 31
0.0
  0
LINE
  5
3DE7
  8
2-0
  6
CONTINUOUS
 62
     3
 10
26276.176783999959
 20
14914.819578999981
 30
0.0
 11
26276.176783999959
 21
14920.816530999949
 31
0.0
  0
LINE
  5
3DE8
  8
2-0
  6
CONTINUOUS
 62
     3
 10
26276.176783999959
 20
14930.91702399998
 30
0.0
 11
26306.174407999959
 21
14930.91702399998
 31
0.0
  0
LINE
  5
3DE9
  8
2-0
  6
CONTINUOUS
 62
     3
 10
26276.176783999959
 20
14912.910332999991
 30
0.0
 11
26276.176783999959
 21
14930.91702399998
 31
0.0
  0
LINE
  5
3DEA
  8
2-0
  6
CONTINUOUS
 62
     3
 10
26301.174143999971
 20
14912.910332999991
 30
0.0
 11
26276.176783999959
 21
14912.910332999991
 31
0.0
  0
LINE
  5
3DEB
  8
2-0
  6
CONTINUOUS
 62
     3
 10
26301.174143999971
 20
14917.91554599998
 30
0.0
 11
26301.174143999971
 21
14912.910332999991
 31
0.0
  0
LINE
  5
3DEC
  8
2-0
  6
CONTINUOUS
 62
     3
 10
26294.172586999961
 20
14917.91554599998
 30
0.0
 11
26301.174143999971
 21
14917.91554599998
 31
0.0
  0
LINE
  5
3DED
  8
2-0
  6
CONTINUOUS
 62
     3
 10
26276.176783999959
 20
14210.81837199998
 30
0.0
 11
26276.176783999959
 21
14216.82324099998
 31
0.0
  0
LINE
  5
3DEE
  8
2-0
  6
CONTINUOUS
 62
     3
 10
26276.176783999959
 20
14216.82324099998
 30
0.0
 11
26306.174407999959
 21
14216.82324099998
 31
0.0
  0
LINE
  5
3DEF
  8
2-0
  6
CONTINUOUS
 62
     3
 10
26306.174407999959
 20
14216.82324099998
 30
0.0
 11
26306.174407999959
 21
14101.819149999979
 31
0.0
  0
LINE
  5
3DF0
  8
2-0
  6
CONTINUOUS
 62
     3
 10
26306.174407999959
 20
14101.819149999979
 30
0.0
 11
26221.17585999997
 21
14101.819149999979
 31
0.0
  0
LINE
  5
3DF1
  8
2-0
  6
CONTINUOUS
 62
     3
 10
26221.17585999997
 20
14101.819149999979
 30
0.0
 11
26221.17585999997
 21
14186.81472899998
 31
0.0
  0
LINE
  5
3DF2
  8
2-0
  6
CONTINUOUS
 62
     3
 10
26221.17585999997
 20
14186.81472899998
 30
0.0
 11
26253.17477799996
 21
14186.81472899998
 31
0.0
  0
LINE
  5
3DF3
  8
2-0
  6
CONTINUOUS
 62
     3
 10
26294.172586999961
 20
14213.852973999979
 30
0.0
 11
26301.174143999971
 21
14213.852973999979
 31
0.0
  0
LINE
  5
3DF4
  8
2-0
  6
CONTINUOUS
 62
     3
 10
26301.174143999971
 20
14213.852973999979
 30
0.0
 11
26301.174143999971
 21
14208.855678999949
 31
0.0
  0
LINE
  5
3DF5
  8
2-0
  6
CONTINUOUS
 62
     3
 10
26301.174143999971
 20
14208.855678999949
 30
0.0
 11
26276.176783999959
 21
14208.855678999949
 31
0.0
  0
LINE
  5
3DF6
  8
2-0
  6
CONTINUOUS
 62
     3
 10
26276.176783999959
 20
14208.855678999949
 30
0.0
 11
26276.176783999959
 21
14226.85445199998
 31
0.0
  0
LINE
  5
3DF7
  8
2-0
  6
CONTINUOUS
 62
     3
 10
26276.176783999959
 20
14226.85445199998
 30
0.0
 11
26306.174407999959
 21
14226.85445199998
 31
0.0
  0
LINE
  5
3DF8
  8
2-0
  6
CENTER2
 62
     6
 10
26263.676123999961
 20
13904.32159199996
 30
0.0
 11
26263.676123999961
 21
15060.190350000001
 31
0.0
  0
LINE
  5
3DF9
  8
2-0
  6
CONTINUOUS
 62
     3
 10
26306.174407999959
 20
18549.911580999978
 30
0.0
 11
26306.174407999959
 21
19193.722298499961
 31
0.0
  0
LINE
  5
3DFA
  8
2-0
  6
CONTINUOUS
 62
     6
 10
26998.67929099996
 20
20752.817632999999
 30
0.0
 11
28198.673352999951
 21
20752.817632999999
 31
0.0
  0
LINE
  5
3DFB
  8
2-0
  6
CENTER2
 62
     6
 10
3682.5057270000011
 20
19980.316444999949
 30
0.0
 11
5329.0034630000009
 21
19980.316444999949
 31
0.0
  0
LINE
  5
3DFC
  8
2-0
  6
CENTER2
 62
     6
 10
5012.0073170000014
 20
21152.813013999988
 30
0.0
 11
5012.0073170000014
 21
20272.820007999999
 31
0.0
  0
LINE
  5
3DFD
  8
2-0
  6
CONTINUOUS
 62
     3
 10
23067.677971999969
 20
20022.814729999998
 30
0.0
 11
23067.677971999969
 21
19992.811166999989
 31
0.0
  0
LINE
  5
3DFE
  8
2-0
  6
CONTINUOUS
 62
     3
 10
23067.677971999969
 20
19992.811166999989
 30
0.0
 11
23061.68002999996
 21
19992.811166999989
 31
0.0
  0
LINE
  5
3DFF
  8
2-0
  6
CONTINUOUS
 62
     3
 10
23077.29447299998
 20
19992.811166999989
 30
0.0
 11
23077.29447299998
 21
20022.814729999998
 31
0.0
  0
LINE
  5
3E00
  8
2-0
  6
CONTINUOUS
 62
     3
 10
23059.292730999961
 20
19992.811166999989
 30
0.0
 11
23077.29447299998
 21
19992.811166999989
 31
0.0
  0
LINE
  5
3E01
  8
2-0
  6
CONTINUOUS
 62
     3
 10
23059.292730999961
 20
20017.820403999991
 30
0.0
 11
23059.292730999961
 21
19992.811166999989
 31
0.0
  0
LINE
  5
3E02
  8
2-0
  6
CONTINUOUS
 62
     3
 10
23064.292994999989
 20
20017.820403999991
 30
0.0
 11
23059.292730999961
 21
20017.820403999991
 31
0.0
  0
LINE
  5
3E03
  8
2-0
  6
CONTINUOUS
 62
     3
 10
23064.292994999989
 20
20010.814888000001
 30
0.0
 11
23064.292994999989
 21
20017.820403999991
 31
0.0
  0
LINE
  5
3E04
  8
2-0
  6
CONTINUOUS
 62
     3
 10
23037.676387999982
 20
20019.922653000001
 30
0.0
 11
23037.676387999982
 21
19934.924104999991
 31
0.0
  0
LINE
  5
3E05
  8
2-0
  6
CONTINUOUS
 62
     3
 10
23017.679290999971
 20
20019.922653000001
 30
0.0
 11
23037.676387999982
 21
20019.922653000001
 31
0.0
  0
LINE
  5
3E06
  8
2-0
  6
CONTINUOUS
 62
     3
 10
22926.06519199998
 20
20010.814888000001
 30
0.0
 11
22926.06519199998
 21
20017.820403999991
 31
0.0
  0
LINE
  5
3E07
  8
2-0
  6
CONTINUOUS
 62
     3
 10
22926.06519199998
 20
20017.820403999991
 30
0.0
 11
22931.065455999971
 21
20017.820403999991
 31
0.0
  0
LINE
  5
3E08
  8
2-0
  6
CONTINUOUS
 62
     3
 10
22931.065455999971
 20
20017.820403999991
 30
0.0
 11
22931.065455999971
 21
19992.811166999989
 31
0.0
  0
LINE
  5
3E09
  8
2-0
  6
CONTINUOUS
 62
     3
 10
22931.065455999971
 20
19992.811166999989
 30
0.0
 11
22913.063713999971
 21
19992.811166999989
 31
0.0
  0
LINE
  5
3E0A
  8
2-0
  6
CONTINUOUS
 62
     3
 10
22913.063713999971
 20
19992.811166999989
 30
0.0
 11
22913.063713999971
 21
20022.814729999998
 31
0.0
  0
LINE
  5
3E0B
  8
2-0
  6
CONTINUOUS
 62
     3
 10
22952.68377799997
 20
20019.922653000001
 30
0.0
 11
22972.678894999972
 21
20019.922653000001
 31
0.0
  0
LINE
  5
3E0C
  8
2-0
  6
CONTINUOUS
 62
     3
 10
22952.68377799997
 20
19934.924104999991
 30
0.0
 11
22952.68377799997
 21
20019.922653000001
 31
0.0
  0
LINE
  5
3E0D
  8
2-0
  6
CONTINUOUS
 62
     3
 10
22922.686153999981
 20
19992.811166999989
 30
0.0
 11
22928.68211499996
 21
19992.811166999989
 31
0.0
  0
LINE
  5
3E0E
  8
2-0
  6
CONTINUOUS
 62
     3
 10
22922.686153999981
 20
20022.814729999998
 30
0.0
 11
22922.686153999981
 21
19992.811166999989
 31
0.0
  0
LINE
  5
3E0F
  8
2-0
  6
CONTINUOUS
 62
     3
 10
23037.676387999982
 20
19934.924104999991
 30
0.0
 11
22952.68377799997
 21
19934.924104999991
 31
0.0
  0
LINE
  5
3E10
  8
2-0
  6
CONTINUOUS
 62
     3
 10
23067.677971999969
 20
20022.814729999998
 30
0.0
 11
22922.686153999981
 21
20022.814729999998
 31
0.0
  0
LINE
  5
3E11
  8
2-0
  6
CENTER2
 62
     6
 10
3682.5057270000011
 20
17062.316444999979
 30
0.0
 11
5329.0034630000009
 21
17062.316444999979
 31
0.0
  0
LINE
  5
3E12
  8
2-0
  6
CENTER2
 62
     6
 10
3682.5057270000011
 20
14144.316444999969
 30
0.0
 11
5329.0034630000009
 21
14144.316444999969
 31
0.0
  0
LINE
  5
3E13
  8
2-0
  6
CONTINUOUS
 62
     6
 10
26136.646457999959
 20
19115.41650249996
 30
0.0
 11
25705.115365999962
 21
18873.26199449995
 31
0.0
  0
LINE
  5
3E14
  8
2-0
  6
CONTINUOUS
 62
     6
 10
26458.215291999932
 20
20165.494470000001
 30
0.0
 11
26998.67929099996
 21
20752.817632999999
 31
0.0
  0
LINE
  5
3E15
  8
2-0
  6
CONTINUOUS
 62
     6
 10
23037.676387999982
 20
14186.81472899998
 30
0.0
 11
23314.266600999981
 21
14642.159428999979
 31
0.0
  0
LINE
  5
3E16
  8
2-0
  6
CONTINUOUS
 62
     6
 10
23314.266600999981
 20
14642.159428999979
 30
0.0
 11
24344.61591999996
 21
14642.159428999979
 31
0.0
  0
LINE
  5
3E17
  8
2-0
  6
CONTINUOUS
 62
     3
 10
4944.501734999998
 20
20162.818160999981
 30
0.0
 11
4995.0037080000002
 21
20162.818160999981
 31
0.0
  0
LINE
  5
3E18
  8
2-0
  6
CONTINUOUS
 62
     3
 10
4944.501734999998
 20
20185.311430999991
 30
0.0
 11
4926.5029619999978
 21
20185.311430999991
 31
0.0
  0
LINE
  5
3E19
  8
2-0
  6
CONTINUOUS
 62
     3
 10
4995.0037080000002
 20
20202.812354000002
 30
0.0
 11
4931.5057000000024
 21
20202.812354000002
 31
0.0
  0
LINE
  5
3E1A
  8
2-0
  6
CONTINUOUS
 62
     3
 10
4926.5029619999978
 20
20197.818028999991
 30
0.0
 11
4926.5029619999978
 21
20162.818160999981
 31
0.0
  0
LINE
  5
3E1B
  8
2-0
  6
CONTINUOUS
 62
     3
 10
5000.0034769999993
 20
20167.812485999999
 30
0.0
 11
5000.0034769999993
 21
20197.818028999991
 31
0.0
  0
LINE
  5
3E1C
  8
2-0
  6
CONTINUOUS
 62
     3
 10
4926.5029619999978
 20
20197.818028999991
 30
0.0
 11
4926.5029619999978
 21
20162.818160999981
 31
0.0
  0
LINE
  5
3E1D
  8
2-0
  6
CONTINUOUS
 62
     3
 10
26306.174407999959
 20
16275.71586549998
 30
0.0
 11
26306.174407999959
 21
15632.152092
 31
0.0
  0
LINE
  5
3E1E
  8
2-0
  6
CONTINUOUS
 62
     3
 10
8233.5105769999955
 20
14186.81472899998
 30
0.0
 11
8233.5105770000027
 21
17017.31802899998
 31
0.0
  0
LINE
  5
3E1F
  8
2-0
  6
CONTINUOUS
 62
     3
 10
8347.5105570000032
 20
14186.81472899998
 30
0.0
 11
8347.5105570000032
 21
17017.31802899998
 31
0.0
  0
LINE
  5
3E20
  8
2-0
  6
CONTINUOUS
 62
     3
 10
8290.5073499999999
 20
13951.82112999998
 30
0.0
 11
8290.5073499999999
 21
17017.31802899998
 31
0.0
  0
LINE
  5
3E21
  8
2-0
  6
CONTINUOUS
 62
     6
 10
23097.954707999961
 20
14337.410563999971
 30
0.0
 11
23037.676387999982
 21
14186.81472899998
 31
0.0
  0
LINE
  5
3E22
  8
2-0
  6
CONTINUOUS
 62
     6
 10
23037.676387999982
 20
14186.81472899998
 30
0.0
 11
23143.535102999929
 21
14309.72303799998
 31
0.0
  0
LINE
  5
3E23
  8
2-0
  6
CONTINUOUS
 62
     6
 10
23097.954707999961
 20
14337.410563999971
 30
0.0
 11
23143.535102999929
 21
14309.72303799998
 31
0.0
  0
LINE
  5
3E24
  8
2-0
  6
CONTINUOUS
 62
     6
 10
23143.535102999929
 20
14309.72303799998
 30
0.0
 11
23037.676387999982
 21
14186.81472899998
 31
0.0
  0
LINE
  5
3E25
  8
2-0
  6
CONTINUOUS
 62
     6
 10
23037.676387999982
 20
14186.81472899998
 30
0.0
 11
23097.954707999961
 21
14337.410563999971
 31
0.0
  0
LINE
  5
3E26
  8
2-0
  6
CONTINUOUS
 62
     6
 10
23097.954707999961
 20
14337.410563999971
 30
0.0
 11
23037.676387999982
 21
14186.81472899998
 31
0.0
  0
LINE
  5
3E27
  8
2-0
  6
CONTINUOUS
 62
     6
 10
23143.535102999929
 20
14309.72303799998
 30
0.0
 11
23037.676387999982
 21
14186.81472899998
 31
0.0
  0
LINE
  5
3E28
  8
2-0
  6
CONTINUOUS
 62
     6
 10
23143.535102999929
 20
14309.72303799998
 30
0.0
 11
23097.954707999961
 21
14337.410563999971
 31
0.0
  0
LINE
  5
3E29
  8
2-0
  6
CONTINUOUS
 62
     6
 10
26123.589552999962
 20
19138.67584649998
 30
0.0
 11
26276.176783999959
 21
19193.722298499961
 31
0.0
  0
LINE
  5
3E2A
  8
2-0
  6
CONTINUOUS
 62
     6
 10
26276.176783999959
 20
19193.722298499961
 30
0.0
 11
26149.695443999961
 21
19092.163098499968
 31
0.0
  0
LINE
  5
3E2B
  8
2-0
  6
CONTINUOUS
 62
     6
 10
26123.589552999962
 20
19138.67584649998
 30
0.0
 11
26149.695443999961
 21
19092.163098499968
 31
0.0
  0
LINE
  5
3E2C
  8
2-0
  6
CONTINUOUS
 62
     6
 10
26149.695443999961
 20
19092.163098499968
 30
0.0
 11
26276.176783999959
 21
19193.722298499961
 31
0.0
  0
LINE
  5
3E2D
  8
2-0
  6
CONTINUOUS
 62
     6
 10
26276.176783999959
 20
19193.722298499961
 30
0.0
 11
26123.589552999962
 21
19138.67584649998
 31
0.0
  0
LINE
  5
3E2E
  8
2-0
  6
CONTINUOUS
 62
     6
 10
26123.589552999962
 20
19138.67584649998
 30
0.0
 11
26276.176783999959
 21
19193.722298499961
 31
0.0
  0
LINE
  5
3E2F
  8
2-0
  6
CONTINUOUS
 62
     6
 10
26149.695443999961
 20
19092.163098499968
 30
0.0
 11
26276.176783999959
 21
19193.722298499961
 31
0.0
  0
LINE
  5
3E30
  8
2-0
  6
CONTINUOUS
 62
     6
 10
26149.695443999961
 20
19092.163098499968
 30
0.0
 11
26123.589552999962
 21
19138.67584649998
 31
0.0
  0
LINE
  5
3E31
  8
2-0
  6
CONTINUOUS
 62
     6
 10
26477.832320999962
 20
20147.433343000001
 30
0.0
 11
26349.870300999959
 21
20047.750725000002
 31
0.0
  0
LINE
  5
3E32
  8
2-0
  6
CONTINUOUS
 62
     6
 10
26349.870300999959
 20
20047.750725000002
 30
0.0
 11
26438.584405999962
 21
20183.54768
 31
0.0
  0
LINE
  5
3E33
  8
2-0
  6
CONTINUOUS
 62
     6
 10
26477.832320999962
 20
20147.433343000001
 30
0.0
 11
26438.584405999962
 21
20183.54768
 31
0.0
  0
LINE
  5
3E34
  8
2-0
  6
CONTINUOUS
 62
     6
 10
26438.584405999962
 20
20183.54768
 30
0.0
 11
26349.870300999959
 21
20047.750725000002
 31
0.0
  0
LINE
  5
3E35
  8
2-0
  6
CONTINUOUS
 62
     6
 10
26349.870300999959
 20
20047.750725000002
 30
0.0
 11
26477.832320999962
 21
20147.433343000001
 31
0.0
  0
LINE
  5
3E36
  8
2-0
  6
CONTINUOUS
 62
     6
 10
26477.832320999962
 20
20147.433343000001
 30
0.0
 11
26349.870300999959
 21
20047.750725000002
 31
0.0
  0
LINE
  5
3E37
  8
2-0
  6
CONTINUOUS
 62
     6
 10
26438.584405999962
 20
20183.54768
 30
0.0
 11
26349.870300999959
 21
20047.750725000002
 31
0.0
  0
LINE
  5
3E38
  8
2-0
  6
CONTINUOUS
 62
     6
 10
26438.584405999962
 20
20183.54768
 30
0.0
 11
26477.832320999962
 21
20147.433343000001
 31
0.0
  0
LINE
  5
3E39
  8
2-0
  6
CONTINUOUS
 62
     6
 10
19119.106523999992
 20
19775.042347999992
 30
0.0
 11
19251.039456999999
 21
19305.696512999992
 31
0.0
  0
LINE
  5
3E3A
  8
2-0
  6
CONTINUOUS
 62
     6
 10
19251.039456999999
 20
19305.696512999992
 30
0.0
 11
20276.077727999978
 21
19305.696512999992
 31
0.0
  0
LINE
  5
3E3B
  8
2-0
  6
CONTINUOUS
 62
     6
 10
19075.812473000002
 20
19929.070668
 30
0.0
 11
19093.434146999982
 21
19767.825023000001
 31
0.0
  0
LINE
  5
3E3C
  8
2-0
  6
CONTINUOUS
 62
     6
 10
19144.778900000001
 20
19782.263631999991
 30
0.0
 11
19093.434146999982
 21
19767.825023000001
 31
0.0
  0
LINE
  5
3E3D
  8
2-0
  6
CONTINUOUS
 62
     6
 10
19093.434146999982
 20
19767.825023000001
 30
0.0
 11
19075.812473000002
 21
19929.070668
 31
0.0
  0
LINE
  5
3E3E
  8
2-0
  6
CONTINUOUS
 62
     6
 10
19075.812473000002
 20
19929.070668
 30
0.0
 11
19144.778900000001
 21
19782.263631999991
 31
0.0
  0
LINE
  5
3E3F
  8
2-0
  6
CONTINUOUS
 62
     6
 10
19144.778900000001
 20
19782.263631999991
 30
0.0
 11
19075.812473000002
 21
19929.070668
 31
0.0
  0
LINE
  5
3E40
  8
2-0
  6
CONTINUOUS
 62
     6
 10
19093.434146999982
 20
19767.825023000001
 30
0.0
 11
19075.812473000002
 21
19929.070668
 31
0.0
  0
LINE
  5
3E41
  8
2-0
  6
CONTINUOUS
 62
     6
 10
19093.434146999982
 20
19767.825023000001
 30
0.0
 11
19144.778900000001
 21
19782.263631999991
 31
0.0
  0
LINE
  5
3E42
  8
2-0
  6
CONTINUOUS
 62
     6
 10
23036.599529999981
 20
19904.063409999992
 30
0.0
 11
23185.469224999972
 21
19374.441234000002
 31
0.0
  0
LINE
  5
3E43
  8
2-0
  6
CONTINUOUS
 62
     6
 10
23185.469224999972
 20
19374.441234000002
 30
0.0
 11
24210.51343399996
 21
19374.441234000002
 31
0.0
  0
LINE
  5
3E44
  8
2-0
  6
CONTINUOUS
 62
     6
 10
23054.223183999951
 20
19742.817764999989
 30
0.0
 11
23105.57387499998
 21
19757.252414999992
 31
0.0
  0
LINE
  5
3E45
  8
2-0
  6
CONTINUOUS
 62
     6
 10
23105.57387499998
 20
19757.252414999992
 30
0.0
 11
23054.223183999951
 21
19742.817764999989
 31
0.0
  0
LINE
  5
3E46
  8
2-0
  6
CONTINUOUS
 62
     6
 10
23054.223183999951
 20
19742.817764999989
 30
0.0
 11
23036.599529999981
 21
19904.063409999992
 31
0.0
  0
LINE
  5
3E47
  8
2-0
  6
CONTINUOUS
 62
     6
 10
23036.599529999981
 20
19904.063409999992
 30
0.0
 11
23105.57387499998
 21
19757.252414999992
 31
0.0
  0
LINE
  5
3E48
  8
2-0
  6
CONTINUOUS
 62
     6
 10
23105.57387499998
 20
19757.252414999992
 30
0.0
 11
23036.599529999981
 21
19904.063409999992
 31
0.0
  0
LINE
  5
3E49
  8
2-0
  6
CONTINUOUS
 62
     6
 10
23054.223183999951
 20
19742.817764999989
 30
0.0
 11
23036.599529999981
 21
19904.063409999992
 31
0.0
  0
LINE
  5
3E4A
  8
2-0
  6
CONTINUOUS
 62
     6
 10
23105.57387499998
 20
19757.252414999992
 30
0.0
 11
23036.599529999981
 21
19904.063409999992
 31
0.0
  0
LINE
  5
3E4B
  8
2-0
  6
CONTINUOUS
 62
     6
 10
23036.599529999981
 20
19904.063409999992
 30
0.0
 11
23054.223183999951
 21
19742.817764999989
 31
0.0
  0
LINE
  5
3E4C
  8
2-0
  6
CONTINUOUS
 62
     4
 10
22995.176123999961
 20
20102.816973000001
 30
0.0
 11
22995.176123999961
 21
20832.813937999981
 31
0.0
  0
LINE
  5
3E4D
  8
2-0
  6
CONTINUOUS
 62
     6
 10
4907.0557160000017
 20
14524.110838999961
 30
0.0
 11
4929.5029619999987
 21
14684.75273099998
 31
0.0
  0
LINE
  5
3E4E
  8
2-0
  6
CONTINUOUS
 62
     6
 10
4929.5029619999987
 20
14684.75273099998
 30
0.0
 11
4856.1726859999981
 21
14540.06872799998
 31
0.0
  0
LINE
  5
3E4F
  8
2-0
  6
CONTINUOUS
 62
     6
 10
4907.0557160000017
 20
14524.110838999961
 30
0.0
 11
4856.1726859999981
 21
14540.06872799998
 31
0.0
  0
LINE
  5
3E50
  8
2-0
  6
CONTINUOUS
 62
     6
 10
4856.1726859999981
 20
14540.06872799998
 30
0.0
 11
4929.5029619999987
 21
14684.75273099998
 31
0.0
  0
LINE
  5
3E51
  8
2-0
  6
CONTINUOUS
 62
     6
 10
4929.5029619999987
 20
14684.75273099998
 30
0.0
 11
4907.0557160000017
 21
14524.110838999961
 31
0.0
  0
LINE
  5
3E52
  8
2-0
  6
CONTINUOUS
 62
     6
 10
4907.0557160000017
 20
14524.110838999961
 30
0.0
 11
4929.5029619999987
 21
14684.75273099998
 31
0.0
  0
LINE
  5
3E53
  8
2-0
  6
CONTINUOUS
 62
     6
 10
4856.1726859999981
 20
14540.06872799998
 30
0.0
 11
4929.5029619999987
 21
14684.75273099998
 31
0.0
  0
LINE
  5
3E54
  8
2-0
  6
CONTINUOUS
 62
     6
 10
4856.1726859999981
 20
14540.06872799998
 30
0.0
 11
4907.0557160000017
 21
14524.110838999961
 31
0.0
  0
LINE
  5
3E55
  8
2-0
  6
CONTINUOUS
 62
     6
 10
6429.9276479999999
 20
13829.27111399997
 30
0.0
 11
6323.6576879999993
 21
13951.82112999998
 31
0.0
  0
LINE
  5
3E56
  8
2-0
  6
CONTINUOUS
 62
     6
 10
6323.6576879999993
 20
13951.82112999998
 30
0.0
 11
6384.4343520000029
 21
13801.43215399998
 31
0.0
  0
LINE
  5
3E57
  8
2-0
  6
CONTINUOUS
 62
     6
 10
6429.9276479999999
 20
13829.27111399997
 30
0.0
 11
6384.4343520000029
 21
13801.43215399998
 31
0.0
  0
LINE
  5
3E58
  8
2-0
  6
CONTINUOUS
 62
     6
 10
6384.4343520000029
 20
13801.43215399998
 30
0.0
 11
6323.6576879999993
 21
13951.82112999998
 31
0.0
  0
LINE
  5
3E59
  8
2-0
  6
CONTINUOUS
 62
     6
 10
6323.6576879999993
 20
13951.82112999998
 30
0.0
 11
6429.9276479999999
 21
13829.27111399997
 31
0.0
  0
LINE
  5
3E5A
  8
2-0
  6
CONTINUOUS
 62
     6
 10
6429.9276479999999
 20
13829.27111399997
 30
0.0
 11
6323.6576879999993
 21
13951.82112999998
 31
0.0
  0
LINE
  5
3E5B
  8
2-0
  6
CONTINUOUS
 62
     6
 10
6384.4343520000029
 20
13801.43215399998
 30
0.0
 11
6323.6576879999993
 21
13951.82112999998
 31
0.0
  0
LINE
  5
3E5C
  8
2-0
  6
CONTINUOUS
 62
     6
 10
6384.4343520000029
 20
13801.43215399998
 30
0.0
 11
6429.9276479999999
 21
13829.27111399997
 31
0.0
  0
LINE
  5
3E5D
  8
2-0
  6
CONTINUOUS
 62
     6
 10
6114.0018469999986
 20
14326.380686999981
 30
0.0
 11
6031.3351709999988
 21
14186.81472899998
 31
0.0
  0
LINE
  5
3E5E
  8
2-0
  6
CONTINUOUS
 62
     6
 10
6031.3351709999988
 20
14186.81472899998
 30
0.0
 11
6165.2952120000009
 21
14292.029110999971
 31
0.0
  0
LINE
  5
3E5F
  8
2-0
  6
CONTINUOUS
 62
     6
 10
6114.0018469999986
 20
14326.380686999981
 30
0.0
 11
6165.2952120000009
 21
14292.029110999971
 31
0.0
  0
LINE
  5
3E60
  8
2-0
  6
CONTINUOUS
 62
     6
 10
6165.2952120000009
 20
14292.029110999971
 30
0.0
 11
6031.3351709999988
 21
14186.81472899998
 31
0.0
  0
LINE
  5
3E61
  8
2-0
  6
CONTINUOUS
 62
     6
 10
6031.3351709999988
 20
14186.81472899998
 30
0.0
 11
6114.0018469999986
 21
14326.380686999981
 31
0.0
  0
LINE
  5
3E62
  8
2-0
  6
CONTINUOUS
 62
     6
 10
6114.0018469999986
 20
14326.380686999981
 30
0.0
 11
6031.3351709999988
 21
14186.81472899998
 31
0.0
  0
LINE
  5
3E63
  8
2-0
  6
CONTINUOUS
 62
     6
 10
6165.2952120000009
 20
14292.029110999971
 30
0.0
 11
6031.3351709999988
 21
14186.81472899998
 31
0.0
  0
LINE
  5
3E64
  8
2-0
  6
CONTINUOUS
 62
     6
 10
6165.2952120000009
 20
14292.029110999971
 30
0.0
 11
6114.0018469999986
 21
14326.380686999981
 31
0.0
  0
LINE
  5
3E65
  8
2-0
  6
CONTINUOUS
 62
     6
 10
26029.536686999971
 20
13993.546411999971
 30
0.0
 11
26161.28354599997
 21
14088.173338999981
 31
0.0
  0
LINE
  5
3E66
  8
2-0
  6
CONTINUOUS
 62
     6
 10
26161.28354599997
 20
14088.173338999981
 30
0.0
 11
26067.35340999996
 21
13955.93456899997
 31
0.0
  0
LINE
  5
3E67
  8
2-0
  6
CONTINUOUS
 62
     6
 10
26029.536686999971
 20
13993.546411999971
 30
0.0
 11
26067.35340999996
 21
13955.93456899997
 31
0.0
  0
LINE
  5
3E68
  8
2-0
  6
CONTINUOUS
 62
     6
 10
26067.35340999996
 20
13955.93456899997
 30
0.0
 11
26161.28354599997
 21
14088.173338999981
 31
0.0
  0
LINE
  5
3E69
  8
2-0
  6
CONTINUOUS
 62
     6
 10
26161.28354599997
 20
14088.173338999981
 30
0.0
 11
26029.536686999971
 21
13993.546411999971
 31
0.0
  0
LINE
  5
3E6A
  8
2-0
  6
CONTINUOUS
 62
     6
 10
26029.536686999971
 20
13993.546411999971
 30
0.0
 11
26161.28354599997
 21
14088.173338999981
 31
0.0
  0
LINE
  5
3E6B
  8
2-0
  6
CONTINUOUS
 62
     6
 10
26067.35340999996
 20
13955.93456899997
 30
0.0
 11
26161.28354599997
 21
14088.173338999981
 31
0.0
  0
LINE
  5
3E6C
  8
2-0
  6
CONTINUOUS
 62
     6
 10
26067.35340999996
 20
13955.93456899997
 30
0.0
 11
26029.536686999971
 21
13993.546411999971
 31
0.0
  0
LINE
  5
3E6D
  8
2-0
  6
CONTINUOUS
 62
     6
 10
26092.572475999961
 20
14320.45103899996
 30
0.0
 11
26225.17250799996
 21
14227.022710999971
 31
0.0
  0
LINE
  5
3E6E
  8
2-0
  6
CONTINUOUS
 62
     6
 10
26225.17250799996
 20
14227.022710999971
 30
0.0
 11
26069.43982199996
 21
14272.398224999981
 31
0.0
  0
LINE
  5
3E6F
  8
2-0
  6
CONTINUOUS
 62
     6
 10
26092.572475999961
 20
14320.45103899996
 30
0.0
 11
26069.43982199996
 21
14272.398224999981
 31
0.0
  0
LINE
  5
3E70
  8
2-0
  6
CONTINUOUS
 62
     6
 10
26069.43982199996
 20
14272.398224999981
 30
0.0
 11
26225.17250799996
 21
14227.022710999971
 31
0.0
  0
LINE
  5
3E71
  8
2-0
  6
CONTINUOUS
 62
     6
 10
26225.17250799996
 20
14227.022710999971
 30
0.0
 11
26092.572475999961
 21
14320.45103899996
 31
0.0
  0
LINE
  5
3E72
  8
2-0
  6
CONTINUOUS
 62
     6
 10
26092.572475999961
 20
14320.45103899996
 30
0.0
 11
26225.17250799996
 21
14227.022710999971
 31
0.0
  0
LINE
  5
3E73
  8
2-0
  6
CONTINUOUS
 62
     6
 10
26069.43982199996
 20
14272.398224999981
 30
0.0
 11
26225.17250799996
 21
14227.022710999971
 31
0.0
  0
LINE
  5
3E74
  8
2-0
  6
CONTINUOUS
 62
     6
 10
26069.43982199996
 20
14272.398224999981
 30
0.0
 11
26092.572475999961
 21
14320.45103899996
 31
0.0
  0
LINE
  5
3E75
  8
2-0
  6
CONTINUOUS
 62
     6
 10
26152.336121999961
 20
16700.271971999999
 30
0.0
 11
26306.174407999959
 21
16751.705803000001
 31
0.0
  0
LINE
  5
3E76
  8
2-0
  6
CONTINUOUS
 62
     6
 10
26306.174407999959
 20
16751.705803000001
 30
0.0
 11
26177.339420999961
 21
16653.165368000002
 31
0.0
  0
LINE
  5
3E77
  8
2-0
  6
CONTINUOUS
 62
     6
 10
26152.336121999961
 20
16700.271971999999
 30
0.0
 11
26177.339420999961
 21
16653.165368000002
 31
0.0
  0
LINE
  5
3E78
  8
2-0
  6
CONTINUOUS
 62
     6
 10
26177.339420999961
 20
16653.165368000002
 30
0.0
 11
26306.174407999959
 21
16751.705803000001
 31
0.0
  0
LINE
  5
3E79
  8
2-0
  6
CONTINUOUS
 62
     6
 10
26306.174407999959
 20
16751.705803000001
 30
0.0
 11
26152.336121999961
 21
16700.271971999999
 31
0.0
  0
LINE
  5
3E7A
  8
2-0
  6
CONTINUOUS
 62
     6
 10
26152.336121999961
 20
16700.271971999999
 30
0.0
 11
26306.174407999959
 21
16751.705803000001
 31
0.0
  0
LINE
  5
3E7B
  8
2-0
  6
CONTINUOUS
 62
     6
 10
26177.339420999961
 20
16653.165368000002
 30
0.0
 11
26306.174407999959
 21
16751.705803000001
 31
0.0
  0
LINE
  5
3E7C
  8
2-0
  6
CONTINUOUS
 62
     6
 10
26177.339420999961
 20
16653.165368000002
 30
0.0
 11
26152.336121999961
 21
16700.271971999999
 31
0.0
  0
LINE
  5
3E7D
  8
2-0
  6
CONTINUOUS
 62
     6
 10
26018.399914999962
 20
17191.59046399999
 30
0.0
 11
26161.28354599997
 21
17114.81483499999
 31
0.0
  0
LINE
  5
3E7E
  8
2-0
  6
CONTINUOUS
 62
     6
 10
26161.28354599997
 20
17114.81483499999
 30
0.0
 11
26001.22165299996
 21
17141.096904000002
 31
0.0
  0
LINE
  5
3E7F
  8
2-0
  6
CONTINUOUS
 62
     6
 10
26018.399914999962
 20
17191.59046399999
 30
0.0
 11
26001.22165299996
 21
17141.096904000002
 31
0.0
  0
LINE
  5
3E80
  8
2-0
  6
CONTINUOUS
 62
     6
 10
26001.22165299996
 20
17141.096904000002
 30
0.0
 11
26161.28354599997
 21
17114.81483499999
 31
0.0
  0
LINE
  5
3E81
  8
2-0
  6
CONTINUOUS
 62
     6
 10
26161.28354599997
 20
17114.81483499999
 30
0.0
 11
26018.399914999962
 21
17191.59046399999
 31
0.0
  0
LINE
  5
3E82
  8
2-0
  6
CONTINUOUS
 62
     6
 10
26018.399914999962
 20
17191.59046399999
 30
0.0
 11
26161.28354599997
 21
17114.81483499999
 31
0.0
  0
LINE
  5
3E83
  8
2-0
  6
CONTINUOUS
 62
     6
 10
26001.22165299996
 20
17141.096904000002
 30
0.0
 11
26161.28354599997
 21
17114.81483499999
 31
0.0
  0
LINE
  5
3E84
  8
2-0
  6
CONTINUOUS
 62
     6
 10
26001.22165299996
 20
17141.096904000002
 30
0.0
 11
26018.399914999962
 21
17191.59046399999
 31
0.0
  0
LINE
  5
3E85
  8
2-0
  6
CONTINUOUS
 62
     3
 10
10488.506386999999
 20
15558.316049999959
 30
0.0
 11
10488.506386999999
 21
15648.31783099998
 31
0.0
  0
LINE
  5
3E86
  8
2-0
  6
DASHED3
 62
     6
 10
10828.50454
 20
17017.31802899998
 30
0.0
 11
10828.50454
 21
17107.322779999959
 31
0.0
  0
LINE
  5
3E87
  8
2-0
  6
CONTINUOUS
 62
     3
 10
13824.51196900001
 20
20162.818160999981
 30
0.0
 11
13774.01049100001
 21
20162.818160999981
 31
0.0
  0
LINE
  5
3E88
  8
2-0
  6
CONTINUOUS
 62
     3
 10
13824.51196900001
 20
20185.311430999991
 30
0.0
 11
13842.50777200001
 21
20185.311430999991
 31
0.0
  0
LINE
  5
3E89
  8
2-0
  6
CONTINUOUS
 62
     3
 10
13774.01049100001
 20
20202.812354000002
 30
0.0
 11
13837.51245700001
 21
20202.812354000002
 31
0.0
  0
LINE
  5
3E8A
  8
2-0
  6
CONTINUOUS
 62
     3
 10
13769.013196000011
 20
20167.812485999999
 30
0.0
 11
13769.013196000011
 21
20197.818028999991
 31
0.0
  0
LINE
  5
3E8B
  8
2-0
  6
DASHED3
 62
     6
 10
10828.50454
 20
17107.322779999959
 30
0.0
 11
10828.50454
 21
17836.85632499999
 31
0.0
  0
LINE
  5
3E8C
  8
2-0
  6
CENTER2
 62
     6
 10
5065.0010089999987
 20
17062.316444999979
 30
0.0
 11
13603.52243400002
 21
17062.316444999979
 31
0.0
  0
LINE
  5
3E8D
  8
2-0
  6
CONTINUOUS
 62
     3
 10
5012.0073170000014
 20
17107.322779999959
 30
0.0
 11
9275.6870249999993
 21
17107.322779999959
 31
0.0
  0
LINE
  5
3E8E
  8
2-0
  6
CONTINUOUS
 62
     3
 10
19755.67142599999
 20
20022.814729999998
 30
0.0
 11
19718.670263999989
 21
20022.814729999998
 31
0.0
  0
LINE
  5
3E8F
  8
2-0
  6
CONTINUOUS
 62
     3
 10
19755.67142599999
 20
19992.811166999989
 30
0.0
 11
19755.67142599999
 21
20022.814729999998
 31
0.0
  0
LINE
  5
3E90
  8
2-0
  6
CONTINUOUS
 62
     3
 10
19749.671504999969
 20
19992.811166999989
 30
0.0
 11
19755.67142599999
 21
19992.811166999989
 31
0.0
  0
LINE
  5
3E91
  8
2-0
  6
CONTINUOUS
 62
     3
 10
19765.768949999991
 20
19992.811166999989
 30
0.0
 11
19765.768949999991
 21
20022.814729999998
 31
0.0
  0
LINE
  5
3E92
  8
2-0
  6
CONTINUOUS
 62
     3
 10
19747.76522899999
 20
19992.811166999989
 30
0.0
 11
19765.768949999991
 21
19992.811166999989
 31
0.0
  0
LINE
  5
3E93
  8
2-0
  6
CONTINUOUS
 62
     3
 10
19747.76522899999
 20
20017.820403999991
 30
0.0
 11
19747.76522899999
 21
19992.811166999989
 31
0.0
  0
LINE
  5
3E94
  8
2-0
  6
CONTINUOUS
 62
     3
 10
19752.765492999992
 20
20017.820403999991
 30
0.0
 11
19747.76522899999
 21
20017.820403999991
 31
0.0
  0
LINE
  5
3E95
  8
2-0
  6
CONTINUOUS
 62
     3
 10
19752.765492999992
 20
20010.814888000001
 30
0.0
 11
19752.765492999992
 21
20017.820403999991
 31
0.0
  0
LINE
  5
3E96
  8
2-0
  6
CONTINUOUS
 62
     3
 10
19721.576197999981
 20
20010.814888000001
 30
0.0
 11
19721.576197999981
 21
20017.820403999991
 31
0.0
  0
LINE
  5
3E97
  8
2-0
  6
CONTINUOUS
 62
     3
 10
19721.576197999981
 20
20017.820403999991
 30
0.0
 11
19726.57646199999
 21
20017.820403999991
 31
0.0
  0
LINE
  5
3E98
  8
2-0
  6
CONTINUOUS
 62
     3
 10
19726.57646199999
 20
20017.820403999991
 30
0.0
 11
19726.57646199999
 21
19992.811166999989
 31
0.0
  0
LINE
  5
3E99
  8
2-0
  6
CONTINUOUS
 62
     3
 10
19726.57646199999
 20
19992.811166999989
 30
0.0
 11
19708.57669899999
 21
19992.811166999989
 31
0.0
  0
LINE
  5
3E9A
  8
2-0
  6
CONTINUOUS
 62
     3
 10
19708.57669899999
 20
19992.811166999989
 30
0.0
 11
19708.57669899999
 21
20022.814729999998
 31
0.0
  0
LINE
  5
3E9B
  8
2-0
  6
CONTINUOUS
 62
     3
 10
19724.670184999992
 20
19992.811166999989
 30
0.0
 11
19718.670263999989
 21
19992.811166999989
 31
0.0
  0
LINE
  5
3E9C
  8
2-0
  6
CONTINUOUS
 62
     3
 10
19718.670263999989
 20
19992.811166999989
 30
0.0
 11
19718.670263999989
 21
20022.814729999998
 31
0.0
  0
LINE
  5
3E9D
  8
2-0
  6
CONTINUOUS
 62
     3
 10
17214.172164999989
 20
19913.814518999981
 30
0.0
 11
17214.172164999989
 21
19907.818556999991
 31
0.0
  0
LINE
  5
3E9E
  8
2-0
  6
CONTINUOUS
 62
     3
 10
17214.172164999989
 20
19907.818556999991
 30
0.0
 11
17184.174539999989
 21
19907.818556999991
 31
0.0
  0
LINE
  5
3E9F
  8
2-0
  6
CONTINUOUS
 62
     3
 10
17184.174539999989
 20
19907.818556999991
 30
0.0
 11
17184.174539999989
 21
20022.814729999998
 31
0.0
  0
LINE
  5
3EA0
  8
2-0
  6
CONTINUOUS
 62
     3
 10
17184.174539999989
 20
19937.818160999981
 30
0.0
 11
17265.172480999991
 21
19937.818160999981
 31
0.0
  0
LINE
  5
3EA1
  8
2-0
  6
CONTINUOUS
 62
     3
 10
17214.172164999989
 20
19897.521100999991
 30
0.0
 11
17184.174539999989
 21
19897.521100999991
 31
0.0
  0
LINE
  5
3EA2
  8
2-0
  6
CONTINUOUS
 62
     3
 10
17214.172164999989
 20
19915.522842999992
 30
0.0
 11
17214.172164999989
 21
19897.521100999991
 31
0.0
  0
LINE
  5
3EA3
  8
2-0
  6
CONTINUOUS
 62
     3
 10
17189.178762999989
 20
19915.522842999992
 30
0.0
 11
17214.172164999989
 21
19915.522842999992
 31
0.0
  0
LINE
  5
3EA4
  8
2-0
  6
CONTINUOUS
 62
     3
 10
17189.178762999989
 20
19910.514661000001
 30
0.0
 11
17189.178762999989
 21
19915.522842999992
 31
0.0
  0
LINE
  5
3EA5
  8
2-0
  6
CONTINUOUS
 62
     3
 10
17196.176360999969
 20
19910.514661000001
 30
0.0
 11
17189.178762999989
 21
19910.514661000001
 31
0.0
  0
LINE
  5
3EA6
  8
2-0
  6
CONTINUOUS
 62
     3
 10
17296.470649999981
 20
20010.814888000001
 30
0.0
 11
17296.470649999981
 21
20017.820403999991
 31
0.0
  0
LINE
  5
3EA7
  8
2-0
  6
CONTINUOUS
 62
     3
 10
17296.470649999981
 20
20017.820403999991
 30
0.0
 11
17291.468405999989
 21
20017.820403999991
 31
0.0
  0
LINE
  5
3EA8
  8
2-0
  6
CONTINUOUS
 62
     3
 10
17291.468405999989
 20
20017.820403999991
 30
0.0
 11
17291.468405999989
 21
19992.811166999989
 31
0.0
  0
LINE
  5
3EA9
  8
2-0
  6
CONTINUOUS
 62
     3
 10
17291.468405999989
 20
19992.811166999989
 30
0.0
 11
17309.476086999981
 21
19992.811166999989
 31
0.0
  0
LINE
  5
3EAA
  8
2-0
  6
CONTINUOUS
 62
     3
 10
17309.476086999981
 20
19992.811166999989
 30
0.0
 11
17309.476086999981
 21
20022.814729999998
 31
0.0
  0
LINE
  5
3EAB
  8
2-0
  6
CONTINUOUS
 62
     3
 10
17299.176650999991
 20
20022.814729999998
 30
0.0
 11
17184.174539999989
 21
20022.814729999998
 31
0.0
  0
LINE
  5
3EAC
  8
2-0
  6
CONTINUOUS
 62
     3
 10
17299.176650999991
 20
19992.811166999989
 30
0.0
 11
17299.176650999991
 21
20022.814729999998
 31
0.0
  0
LINE
  5
3EAD
  8
2-0
  6
CONTINUOUS
 62
     3
 10
17293.172771999991
 20
19992.811166999989
 30
0.0
 11
17299.176650999991
 21
19992.811166999989
 31
0.0
  0
LINE
  5
3EAE
  8
2-0
  6
CONTINUOUS
 62
     3
 10
18350.76054349999
 20
20010.814888000001
 30
0.0
 11
18350.76054349999
 21
20017.820403999991
 31
0.0
  0
LINE
  5
3EAF
  8
2-0
  6
CONTINUOUS
 62
     3
 10
18350.76054349999
 20
20017.820403999991
 30
0.0
 11
18345.760279499991
 21
20017.820403999991
 31
0.0
  0
LINE
  5
3EB0
  8
2-0
  6
CONTINUOUS
 62
     3
 10
18345.760279499991
 20
20017.820403999991
 30
0.0
 11
18345.760279499991
 21
19992.811166999989
 31
0.0
  0
LINE
  5
3EB1
  8
2-0
  6
CONTINUOUS
 62
     3
 10
18345.760279499991
 20
19992.811166999989
 30
0.0
 11
18363.765980499989
 21
19992.811166999989
 31
0.0
  0
LINE
  5
3EB2
  8
2-0
  6
CONTINUOUS
 62
     3
 10
18363.765980499989
 20
19992.811166999989
 30
0.0
 11
18363.765980499989
 21
20022.814729999998
 31
0.0
  0
LINE
  5
3EB3
  8
2-0
  6
CONTINUOUS
 62
     3
 10
18347.668535499961
 20
19992.811166999989
 30
0.0
 11
18353.670435499978
 21
19992.811166999989
 31
0.0
  0
LINE
  5
3EB4
  8
2-0
  6
CONTINUOUS
 62
     3
 10
18353.670435499978
 20
19992.811166999989
 30
0.0
 11
18353.670435499978
 21
20022.814729999998
 31
0.0
  0
LINE
  5
3EB5
  8
2-0
  6
CONTINUOUS
 62
     3
 10
18316.671254499961
 20
20022.814729999998
 30
0.0
 11
18353.670435499978
 21
20022.814729999998
 31
0.0
  0
LINE
  5
3EB6
  8
2-0
  6
CONTINUOUS
 62
     3
 10
18316.671254499961
 20
19992.811166999989
 30
0.0
 11
18316.671254499961
 21
20022.814729999998
 31
0.0
  0
LINE
  5
3EB7
  8
2-0
  6
CONTINUOUS
 62
     3
 10
18322.66523649999
 20
19992.811166999989
 30
0.0
 11
18316.671254499961
 21
19992.811166999989
 31
0.0
  0
LINE
  5
3EB8
  8
2-0
  6
CONTINUOUS
 62
     3
 10
18306.575709499979
 20
19992.811166999989
 30
0.0
 11
18306.575709499979
 21
20022.814729999998
 31
0.0
  0
LINE
  5
3EB9
  8
2-0
  6
CONTINUOUS
 62
     3
 10
18324.571512499992
 20
19992.811166999989
 30
0.0
 11
18306.575709499979
 21
19992.811166999989
 31
0.0
  0
LINE
  5
3EBA
  8
2-0
  6
CONTINUOUS
 62
     3
 10
18324.571512499992
 20
20017.820403999991
 30
0.0
 11
18324.571512499992
 21
19992.811166999989
 31
0.0
  0
LINE
  5
3EBB
  8
2-0
  6
CONTINUOUS
 62
     3
 10
18319.571248499989
 20
20017.820403999991
 30
0.0
 11
18324.571512499992
 21
20017.820403999991
 31
0.0
  0
LINE
  5
3EBC
  8
2-0
  6
CONTINUOUS
 62
     3
 10
18319.571248499989
 20
20010.814888000001
 30
0.0
 11
18319.571248499989
 21
20017.820403999991
 31
0.0
  0
LINE
  5
3EBD
  8
2-0
  6
CONTINUOUS
 62
     3
 10
19020.570259499978
 20
20010.814888000001
 30
0.0
 11
19020.570259499978
 21
20017.820403999991
 31
0.0
  0
LINE
  5
3EBE
  8
2-0
  6
CONTINUOUS
 62
     3
 10
19020.570259499978
 20
20017.820403999991
 30
0.0
 11
19025.570522499991
 21
20017.820403999991
 31
0.0
  0
LINE
  5
3EBF
  8
2-0
  6
CONTINUOUS
 62
     3
 10
19025.570522499991
 20
20017.820403999991
 30
0.0
 11
19025.570522499991
 21
19992.811166999989
 31
0.0
  0
LINE
  5
3EC0
  8
2-0
  6
CONTINUOUS
 62
     3
 10
19025.570522499991
 20
19992.811166999989
 30
0.0
 11
19007.576699499961
 21
19992.811166999989
 31
0.0
  0
LINE
  5
3EC1
  8
2-0
  6
CONTINUOUS
 62
     3
 10
19007.576699499961
 20
19992.811166999989
 30
0.0
 11
19007.576699499961
 21
20022.814729999998
 31
0.0
  0
LINE
  5
3EC2
  8
2-0
  6
CONTINUOUS
 62
     3
 10
19023.66820549998
 20
19992.811166999989
 30
0.0
 11
19017.67026449999
 21
19992.811166999989
 31
0.0
  0
LINE
  5
3EC3
  8
2-0
  6
CONTINUOUS
 62
     3
 10
19017.67026449999
 20
19992.811166999989
 30
0.0
 11
19017.67026449999
 21
20022.814729999998
 31
0.0
  0
LINE
  5
3EC4
  8
2-0
  6
CONTINUOUS
 62
     3
 10
19054.67142549999
 20
20022.814729999998
 30
0.0
 11
19017.67026449999
 21
20022.814729999998
 31
0.0
  0
LINE
  5
3EC5
  8
2-0
  6
CONTINUOUS
 62
     3
 10
19054.67142549999
 20
19992.811166999989
 30
0.0
 11
19054.67142549999
 21
20022.814729999998
 31
0.0
  0
LINE
  5
3EC6
  8
2-0
  6
CONTINUOUS
 62
     3
 10
19048.665566499982
 20
19992.811166999989
 30
0.0
 11
19054.67142549999
 21
19992.811166999989
 31
0.0
  0
LINE
  5
3EC7
  8
2-0
  6
CONTINUOUS
 62
     3
 10
19064.764990499982
 20
19992.811166999989
 30
0.0
 11
19064.764990499982
 21
20022.814729999998
 31
0.0
  0
LINE
  5
3EC8
  8
2-0
  6
CONTINUOUS
 62
     3
 10
19046.769187499991
 20
19992.811166999989
 30
0.0
 11
19064.764990499982
 21
19992.811166999989
 31
0.0
  0
LINE
  5
3EC9
  8
2-0
  6
CONTINUOUS
 62
     3
 10
19046.769187499991
 20
20017.820403999991
 30
0.0
 11
19046.769187499991
 21
19992.811166999989
 31
0.0
  0
LINE
  5
3ECA
  8
2-0
  6
CONTINUOUS
 62
     3
 10
19051.759553499978
 20
20017.820403999991
 30
0.0
 11
19046.769187499991
 21
20017.820403999991
 31
0.0
  0
LINE
  5
3ECB
  8
2-0
  6
CONTINUOUS
 62
     3
 10
19051.759553499978
 20
20010.814888000001
 30
0.0
 11
19051.759553499978
 21
20017.820403999991
 31
0.0
  0
LINE
  5
3ECC
  8
2-0
  6
CONTINUOUS
 62
     3
 10
18363.765980499989
 20
20022.814729999998
 30
0.0
 11
19007.576699499961
 21
20022.814729999998
 31
0.0
  0
LINE
  5
3ECD
  8
2-0
  6
CONTINUOUS
 62
     3
 10
17662.969871000001
 20
20022.814729999998
 30
0.0
 11
18306.575709499979
 21
20022.814729999998
 31
0.0
  0
LINE
  5
3ECE
  8
2-0
  6
CONTINUOUS
 62
     3
 10
20422.670977000002
 20
20022.814729999998
 30
0.0
 11
20422.670977000002
 21
19992.811166999989
 31
0.0
  0
LINE
  5
3ECF
  8
2-0
  6
CONTINUOUS
 62
     3
 10
20422.670977000002
 20
19992.811166999989
 30
0.0
 11
20428.674856000001
 21
19992.811166999989
 31
0.0
  0
LINE
  5
3ED0
  8
2-0
  6
CONTINUOUS
 62
     3
 10
20413.05447499999
 20
19992.811166999989
 30
0.0
 11
20413.05447499999
 21
20022.814729999998
 31
0.0
  0
LINE
  5
3ED1
  8
2-0
  6
CONTINUOUS
 62
     3
 10
20431.062155999989
 20
19992.811166999989
 30
0.0
 11
20413.05447499999
 21
19992.811166999989
 31
0.0
  0
LINE
  5
3ED2
  8
2-0
  6
CONTINUOUS
 62
     3
 10
20431.062155999989
 20
20017.820403999991
 30
0.0
 11
20431.062155999989
 21
19992.811166999989
 31
0.0
  0
LINE
  5
3ED3
  8
2-0
  6
CONTINUOUS
 62
     3
 10
20426.055952999988
 20
20017.820403999991
 30
0.0
 11
20431.062155999989
 21
20017.820403999991
 31
0.0
  0
LINE
  5
3ED4
  8
2-0
  6
CONTINUOUS
 62
     3
 10
20426.055952999988
 20
20010.814888000001
 30
0.0
 11
20426.055952999988
 21
20017.820403999991
 31
0.0
  0
LINE
  5
3ED5
  8
2-0
  6
CONTINUOUS
 62
     3
 10
20452.67454
 20
20019.922653000001
 30
0.0
 11
20452.67454
 21
19934.924104999991
 31
0.0
  0
LINE
  5
3ED6
  8
2-0
  6
CONTINUOUS
 62
     3
 10
20472.673615999989
 20
20019.922653000001
 30
0.0
 11
20452.67454
 21
20019.922653000001
 31
0.0
  0
LINE
  5
3ED7
  8
2-0
  6
CONTINUOUS
 62
     3
 10
20564.287714999999
 20
20010.814888000001
 30
0.0
 11
20564.287714999999
 21
20017.820403999991
 31
0.0
  0
LINE
  5
3ED8
  8
2-0
  6
CONTINUOUS
 62
     3
 10
20564.287714999999
 20
20017.820403999991
 30
0.0
 11
20559.28547200001
 21
20017.820403999991
 31
0.0
  0
LINE
  5
3ED9
  8
2-0
  6
CONTINUOUS
 62
     3
 10
20559.28547200001
 20
20017.820403999991
 30
0.0
 11
20559.28547200001
 21
19992.811166999989
 31
0.0
  0
LINE
  5
3EDA
  8
2-0
  6
CONTINUOUS
 62
     3
 10
20559.28547200001
 20
19992.811166999989
 30
0.0
 11
20577.28919299999
 21
19992.811166999989
 31
0.0
  0
LINE
  5
3EDB
  8
2-0
  6
CONTINUOUS
 62
     3
 10
20577.28919299999
 20
19992.811166999989
 30
0.0
 11
20577.28919299999
 21
20022.814729999998
 31
0.0
  0
LINE
  5
3EDC
  8
2-0
  6
CONTINUOUS
 62
     3
 10
20537.673087999989
 20
20019.922653000001
 30
0.0
 11
20517.670053000002
 21
20019.922653000001
 31
0.0
  0
LINE
  5
3EDD
  8
2-0
  6
CONTINUOUS
 62
     3
 10
20537.673087999989
 20
19934.924104999991
 30
0.0
 11
20537.673087999989
 21
20019.922653000001
 31
0.0
  0
LINE
  5
3EDE
  8
2-0
  6
CONTINUOUS
 62
     3
 10
20567.672692
 20
19992.811166999989
 30
0.0
 11
20561.67277099999
 21
19992.811166999989
 31
0.0
  0
LINE
  5
3EDF
  8
2-0
  6
CONTINUOUS
 62
     3
 10
20567.672692
 20
20022.814729999998
 30
0.0
 11
20567.672692
 21
19992.811166999989
 31
0.0
  0
LINE
  5
3EE0
  8
2-0
  6
CONTINUOUS
 62
     3
 10
20452.67454
 20
19934.924104999991
 30
0.0
 11
20537.673087999989
 21
19934.924104999991
 31
0.0
  0
LINE
  5
3EE1
  8
2-0
  6
CONTINUOUS
 62
     3
 10
20422.670977000002
 20
20022.814729999998
 30
0.0
 11
20567.672692
 21
20022.814729999998
 31
0.0
  0
LINE
  5
3EE2
  8
2-0
  6
CONTINUOUS
 62
     3
 10
20413.05447499999
 20
20022.814729999998
 30
0.0
 11
19765.768949999991
 21
20022.814729999998
 31
0.0
  0
LINE
  5
3EE3
  8
2-0
  6
CONTINUOUS
 62
     3
 10
19708.57669899999
 20
20022.814729999998
 30
0.0
 11
19064.764990499982
 21
20022.814729999998
 31
0.0
  0
LINE
  5
3EE4
  8
2-0
  6
CONTINUOUS
 62
     3
 10
17214.172164999989
 20
19913.814518999981
 30
0.0
 11
17214.172164999989
 21
19907.818556999991
 31
0.0
  0
LINE
  5
3EE5
  8
2-0
  6
CONTINUOUS
 62
     3
 10
17214.172164999989
 20
19907.818556999991
 30
0.0
 11
17184.174539999989
 21
19907.818556999991
 31
0.0
  0
LINE
  5
3EE6
  8
2-0
  6
CONTINUOUS
 62
     3
 10
17184.174539999989
 20
19907.818556999991
 30
0.0
 11
17184.174539999989
 21
20022.814729999998
 31
0.0
  0
LINE
  5
3EE7
  8
2-0
  6
CONTINUOUS
 62
     3
 10
17184.174539999989
 20
19937.818160999981
 30
0.0
 11
17265.172480999991
 21
19937.818160999981
 31
0.0
  0
LINE
  5
3EE8
  8
2-0
  6
CONTINUOUS
 62
     3
 10
17214.172164999989
 20
19897.521100999991
 30
0.0
 11
17184.174539999989
 21
19897.521100999991
 31
0.0
  0
LINE
  5
3EE9
  8
2-0
  6
CONTINUOUS
 62
     3
 10
17214.172164999989
 20
19915.522842999992
 30
0.0
 11
17214.172164999989
 21
19897.521100999991
 31
0.0
  0
LINE
  5
3EEA
  8
2-0
  6
CONTINUOUS
 62
     3
 10
17189.178762999989
 20
19915.522842999992
 30
0.0
 11
17214.172164999989
 21
19915.522842999992
 31
0.0
  0
LINE
  5
3EEB
  8
2-0
  6
CONTINUOUS
 62
     3
 10
17189.178762999989
 20
19910.514661000001
 30
0.0
 11
17189.178762999989
 21
19915.522842999992
 31
0.0
  0
LINE
  5
3EEC
  8
2-0
  6
CONTINUOUS
 62
     3
 10
17196.176360999969
 20
19910.514661000001
 30
0.0
 11
17189.178762999989
 21
19910.514661000001
 31
0.0
  0
LINE
  5
3EED
  8
2-0
  6
CONTINUOUS
 62
     3
 10
17196.176360999969
 20
19206.717838499961
 30
0.0
 11
17189.178762999989
 21
19206.717838499961
 31
0.0
  0
LINE
  5
3EEE
  8
2-0
  6
CONTINUOUS
 62
     3
 10
17189.178762999989
 20
19206.717838499961
 30
0.0
 11
17189.178762999989
 21
19211.718102499981
 31
0.0
  0
LINE
  5
3EEF
  8
2-0
  6
CONTINUOUS
 62
     3
 10
17189.178762999989
 20
19211.718102499981
 30
0.0
 11
17214.172164999989
 21
19211.718102499981
 31
0.0
  0
LINE
  5
3EF0
  8
2-0
  6
CONTINUOUS
 62
     3
 10
17214.172164999989
 20
19211.718102499981
 30
0.0
 11
17214.172164999989
 21
19193.722298499961
 31
0.0
  0
LINE
  5
3EF1
  8
2-0
  6
CONTINUOUS
 62
     3
 10
17214.172164999989
 20
19193.722298499961
 30
0.0
 11
17184.174539999989
 21
19193.722298499961
 31
0.0
  0
LINE
  5
3EF2
  8
2-0
  6
CONTINUOUS
 62
     3
 10
17214.172164999989
 20
19209.813805499962
 30
0.0
 11
17214.172164999989
 21
19203.81586449996
 31
0.0
  0
LINE
  5
3EF3
  8
2-0
  6
CONTINUOUS
 62
     3
 10
17214.172164999989
 20
19203.81586449996
 30
0.0
 11
17184.174539999989
 21
19203.81586449996
 31
0.0
  0
LINE
  5
3EF4
  8
2-0
  6
CONTINUOUS
 62
     3
 10
17184.174539999989
 20
19203.81586449996
 30
0.0
 11
17184.174539999989
 21
19240.81702549995
 31
0.0
  0
LINE
  5
3EF5
  8
2-0
  6
CONTINUOUS
 62
     3
 10
17214.172164999989
 20
19240.81702549995
 30
0.0
 11
17184.174539999989
 21
19240.81702549995
 31
0.0
  0
LINE
  5
3EF6
  8
2-0
  6
CONTINUOUS
 62
     3
 10
17214.172164999989
 20
19234.813145499971
 30
0.0
 11
17214.172164999989
 21
19240.81702549995
 31
0.0
  0
LINE
  5
3EF7
  8
2-0
  6
CONTINUOUS
 62
     3
 10
17214.172164999989
 20
19250.912570499971
 30
0.0
 11
17184.174539999989
 21
19250.912570499971
 31
0.0
  0
LINE
  5
3EF8
  8
2-0
  6
CONTINUOUS
 62
     3
 10
17214.172164999989
 20
19232.91082849996
 30
0.0
 11
17214.172164999989
 21
19250.912570499971
 31
0.0
  0
LINE
  5
3EF9
  8
2-0
  6
CONTINUOUS
 62
     3
 10
17189.178762999989
 20
19232.91082849996
 30
0.0
 11
17214.172164999989
 21
19232.91082849996
 31
0.0
  0
LINE
  5
3EFA
  8
2-0
  6
CONTINUOUS
 62
     3
 10
17189.178762999989
 20
19237.91109249998
 30
0.0
 11
17189.178762999989
 21
19232.91082849996
 31
0.0
  0
LINE
  5
3EFB
  8
2-0
  6
CONTINUOUS
 62
     3
 10
17196.176360999969
 20
19237.91109249998
 30
0.0
 11
17189.178762999989
 21
19237.91109249998
 31
0.0
  0
LINE
  5
3EFC
  8
2-0
  6
CONTINUOUS
 62
     3
 10
17196.176360999969
 20
18505.71783899999
 30
0.0
 11
17189.178762999989
 21
18505.71783899999
 31
0.0
  0
LINE
  5
3EFD
  8
2-0
  6
CONTINUOUS
 62
     3
 10
17189.178762999989
 20
18505.71783899999
 30
0.0
 11
17189.178762999989
 21
18510.724040999969
 31
0.0
  0
LINE
  5
3EFE
  8
2-0
  6
CONTINUOUS
 62
     3
 10
17189.178762999989
 20
18510.724040999969
 30
0.0
 11
17214.172164999989
 21
18510.724040999969
 31
0.0
  0
LINE
  5
3EFF
  8
2-0
  6
CONTINUOUS
 62
     3
 10
17214.172164999989
 20
18510.724040999969
 30
0.0
 11
17214.172164999989
 21
18492.722298999979
 31
0.0
  0
LINE
  5
3F00
  8
2-0
  6
CONTINUOUS
 62
     3
 10
17214.172164999989
 20
18492.722298999979
 30
0.0
 11
17184.174539999989
 21
18492.722298999979
 31
0.0
  0
LINE
  5
3F01
  8
2-0
  6
CONTINUOUS
 62
     3
 10
17214.172164999989
 20
18508.813805999969
 30
0.0
 11
17214.172164999989
 21
18502.817843999968
 31
0.0
  0
LINE
  5
3F02
  8
2-0
  6
CONTINUOUS
 62
     3
 10
17214.172164999989
 20
18502.817843999968
 30
0.0
 11
17184.174539999989
 21
18502.817843999968
 31
0.0
  0
LINE
  5
3F03
  8
2-0
  6
CONTINUOUS
 62
     3
 10
17184.174539999989
 20
18502.817843999968
 30
0.0
 11
17184.174539999989
 21
18539.817025999961
 31
0.0
  0
LINE
  5
3F04
  8
2-0
  6
CONTINUOUS
 62
     3
 10
17214.172164999989
 20
18539.817025999961
 30
0.0
 11
17184.174539999989
 21
18539.817025999961
 31
0.0
  0
LINE
  5
3F05
  8
2-0
  6
CONTINUOUS
 62
     3
 10
17214.172164999989
 20
18533.821063999982
 30
0.0
 11
17214.172164999989
 21
18539.817025999961
 31
0.0
  0
LINE
  5
3F06
  8
2-0
  6
CONTINUOUS
 62
     3
 10
17214.172164999989
 20
18549.91257099999
 30
0.0
 11
17184.174539999989
 21
18549.91257099999
 31
0.0
  0
LINE
  5
3F07
  8
2-0
  6
CONTINUOUS
 62
     3
 10
17214.172164999989
 20
18531.91082899996
 30
0.0
 11
17214.172164999989
 21
18549.91257099999
 31
0.0
  0
LINE
  5
3F08
  8
2-0
  6
CONTINUOUS
 62
     3
 10
17189.178762999989
 20
18531.91082899996
 30
0.0
 11
17214.172164999989
 21
18531.91082899996
 31
0.0
  0
LINE
  5
3F09
  8
2-0
  6
CONTINUOUS
 62
     3
 10
17189.178762999989
 20
18536.91703099995
 30
0.0
 11
17189.178762999989
 21
18531.91082899996
 31
0.0
  0
LINE
  5
3F0A
  8
2-0
  6
CONTINUOUS
 62
     3
 10
17196.176360999969
 20
18536.91703099995
 30
0.0
 11
17189.178762999989
 21
18536.91703099995
 31
0.0
  0
LINE
  5
3F0B
  8
2-0
  6
CONTINUOUS
 62
     3
 10
17196.176360999969
 20
17835.910102999991
 30
0.0
 11
17189.178762999989
 21
17835.910102999991
 31
0.0
  0
LINE
  5
3F0C
  8
2-0
  6
CONTINUOUS
 62
     3
 10
17189.178762999989
 20
17835.910102999991
 30
0.0
 11
17189.178762999989
 21
17830.921715999972
 31
0.0
  0
LINE
  5
3F0D
  8
2-0
  6
CONTINUOUS
 62
     3
 10
17189.178762999989
 20
17830.921715999972
 30
0.0
 11
17214.172164999989
 21
17830.921715999972
 31
0.0
  0
LINE
  5
3F0E
  8
2-0
  6
CONTINUOUS
 62
     3
 10
17214.172164999989
 20
17830.921715999972
 30
0.0
 11
17214.172164999989
 21
17848.917518999991
 31
0.0
  0
LINE
  5
3F0F
  8
2-0
  6
CONTINUOUS
 62
     3
 10
17214.172164999989
 20
17848.917518999991
 30
0.0
 11
17184.174539999989
 21
17848.917518999991
 31
0.0
  0
LINE
  5
3F10
  8
2-0
  6
CONTINUOUS
 62
     3
 10
17214.172164999989
 20
17832.820073999981
 30
0.0
 11
17214.172164999989
 21
17838.816035999971
 31
0.0
  0
LINE
  5
3F11
  8
2-0
  6
CONTINUOUS
 62
     3
 10
17214.172164999989
 20
17838.816035999971
 30
0.0
 11
17184.174539999989
 21
17838.816035999971
 31
0.0
  0
LINE
  5
3F12
  8
2-0
  6
CONTINUOUS
 62
     3
 10
17184.174539999989
 20
17838.816035999971
 30
0.0
 11
17184.174539999989
 21
17801.816853999961
 31
0.0
  0
LINE
  5
3F13
  8
2-0
  6
CONTINUOUS
 62
     3
 10
17214.172164999989
 20
17801.816853999961
 30
0.0
 11
17184.174539999989
 21
17801.816853999961
 31
0.0
  0
LINE
  5
3F14
  8
2-0
  6
CONTINUOUS
 62
     3
 10
17214.172164999989
 20
17807.818754999978
 30
0.0
 11
17214.172164999989
 21
17801.816853999961
 31
0.0
  0
LINE
  5
3F15
  8
2-0
  6
CONTINUOUS
 62
     3
 10
17214.172164999989
 20
17791.727247999981
 30
0.0
 11
17184.174539999989
 21
17791.727247999981
 31
0.0
  0
LINE
  5
3F16
  8
2-0
  6
CONTINUOUS
 62
     3
 10
17214.172164999989
 20
17809.723050999972
 30
0.0
 11
17214.172164999989
 21
17791.727247999981
 31
0.0
  0
LINE
  5
3F17
  8
2-0
  6
CONTINUOUS
 62
     3
 10
17189.178762999989
 20
17809.723050999972
 30
0.0
 11
17214.172164999989
 21
17809.723050999972
 31
0.0
  0
LINE
  5
3F18
  8
2-0
  6
CONTINUOUS
 62
     3
 10
17189.178762999989
 20
17804.722787999981
 30
0.0
 11
17189.178762999989
 21
17809.723050999972
 31
0.0
  0
LINE
  5
3F19
  8
2-0
  6
CONTINUOUS
 62
     3
 10
17196.176360999969
 20
17804.722787999981
 30
0.0
 11
17189.178762999989
 21
17804.722787999981
 31
0.0
  0
LINE
  5
3F1A
  8
2-0
  6
CONTINUOUS
 62
     3
 10
17187.060677999991
 20
17084.813673999972
 30
0.0
 11
17187.060677999991
 21
17104.814728999969
 31
0.0
  0
LINE
  5
3F1B
  8
2-0
  6
CONTINUOUS
 62
     3
 10
17187.060677999991
 20
17104.814728999969
 30
0.0
 11
17272.061205999991
 21
17104.814728999969
 31
0.0
  0
LINE
  5
3F1C
  8
2-0
  6
CONTINUOUS
 62
     3
 10
17196.176360999969
 20
17131.421438999991
 30
0.0
 11
17189.178762999989
 21
17131.421438999991
 31
0.0
  0
LINE
  5
3F1D
  8
2-0
  6
CONTINUOUS
 62
     3
 10
17189.178762999989
 20
17131.421438999991
 30
0.0
 11
17189.178762999989
 21
17126.427112999991
 31
0.0
  0
LINE
  5
3F1E
  8
2-0
  6
CONTINUOUS
 62
     3
 10
17189.178762999989
 20
17126.427112999991
 30
0.0
 11
17214.172164999989
 21
17126.427112999991
 31
0.0
  0
LINE
  5
3F1F
  8
2-0
  6
CONTINUOUS
 62
     3
 10
17214.172164999989
 20
17126.427112999991
 30
0.0
 11
17214.172164999989
 21
17144.422916999989
 31
0.0
  0
LINE
  5
3F20
  8
2-0
  6
CONTINUOUS
 62
     3
 10
17214.172164999989
 20
17144.422916999989
 30
0.0
 11
17184.174539999989
 21
17144.422916999989
 31
0.0
  0
LINE
  5
3F21
  8
2-0
  6
CONTINUOUS
 62
     3
 10
17214.172164999989
 20
17134.81433299998
 30
0.0
 11
17214.172164999989
 21
17128.812432999981
 31
0.0
  0
LINE
  5
3F22
  8
2-0
  6
CONTINUOUS
 62
     3
 10
17184.174539999989
 20
17134.81433299998
 30
0.0
 11
17214.172164999989
 21
17134.81433299998
 31
0.0
  0
LINE
  5
3F23
  8
2-0
  6
CONTINUOUS
 62
     3
 10
17184.174539999989
 20
17144.422916999989
 30
0.0
 11
17184.174539999989
 21
17791.727247999981
 31
0.0
  0
LINE
  5
3F24
  8
2-0
  6
CONTINUOUS
 62
     3
 10
17184.174539999989
 20
17848.917518999991
 30
0.0
 11
17184.174539999989
 21
18492.722298999979
 31
0.0
  0
LINE
  5
3F25
  8
2-0
  6
CONTINUOUS
 62
     3
 10
17184.174539999989
 20
16989.812617999989
 30
0.0
 11
17214.172164999989
 21
16989.812617999989
 31
0.0
  0
LINE
  5
3F26
  8
2-0
  6
CONTINUOUS
 62
     3
 10
17214.172164999989
 20
16989.812617999989
 30
0.0
 11
17214.172164999989
 21
16995.814517999981
 31
0.0
  0
LINE
  5
3F27
  8
2-0
  6
CONTINUOUS
 62
     3
 10
17272.061205999991
 20
17019.818160999981
 30
0.0
 11
17187.060677999991
 21
17019.818160999981
 31
0.0
  0
LINE
  5
3F28
  8
2-0
  6
CONTINUOUS
 62
     3
 10
17187.060677999991
 20
17019.818160999981
 30
0.0
 11
17187.060677999991
 21
17039.813277999991
 31
0.0
  0
LINE
  5
3F29
  8
2-0
  6
CONTINUOUS
 62
     3
 10
17214.172164999989
 20
16980.204034999992
 30
0.0
 11
17184.174539999989
 21
16980.204034999992
 31
0.0
  0
LINE
  5
3F2A
  8
2-0
  6
CONTINUOUS
 62
     3
 10
17214.172164999989
 20
16998.199837999979
 30
0.0
 11
17214.172164999989
 21
16980.204034999992
 31
0.0
  0
LINE
  5
3F2B
  8
2-0
  6
CONTINUOUS
 62
     3
 10
17189.178762999989
 20
16998.199837999979
 30
0.0
 11
17214.172164999989
 21
16998.199837999979
 31
0.0
  0
LINE
  5
3F2C
  8
2-0
  6
CONTINUOUS
 62
     3
 10
17189.178762999989
 20
16993.199573999991
 30
0.0
 11
17189.178762999989
 21
16998.199837999979
 31
0.0
  0
LINE
  5
3F2D
  8
2-0
  6
CONTINUOUS
 62
     3
 10
17196.176360999969
 20
16993.199573999991
 30
0.0
 11
17189.178762999989
 21
16993.199573999991
 31
0.0
  0
LINE
  5
3F2E
  8
2-0
  6
CONTINUOUS
 62
     3
 10
17196.176360999969
 20
16288.717343499949
 30
0.0
 11
17189.178762999989
 21
16288.717343499949
 31
0.0
  0
LINE
  5
3F2F
  8
2-0
  6
CONTINUOUS
 62
     3
 10
17189.178762999989
 20
16288.717343499949
 30
0.0
 11
17189.178762999989
 21
16293.717607499961
 31
0.0
  0
LINE
  5
3F30
  8
2-0
  6
CONTINUOUS
 62
     3
 10
17189.178762999989
 20
16293.717607499961
 30
0.0
 11
17214.172164999989
 21
16293.717607499961
 31
0.0
  0
LINE
  5
3F31
  8
2-0
  6
CONTINUOUS
 62
     3
 10
17214.172164999989
 20
16293.717607499961
 30
0.0
 11
17214.172164999989
 21
16275.71586549998
 31
0.0
  0
LINE
  5
3F32
  8
2-0
  6
CONTINUOUS
 62
     3
 10
17214.172164999989
 20
16275.71586549998
 30
0.0
 11
17184.174539999989
 21
16275.71586549998
 31
0.0
  0
LINE
  5
3F33
  8
2-0
  6
CONTINUOUS
 62
     3
 10
17214.172164999989
 20
16291.81331049998
 30
0.0
 11
17214.172164999989
 21
16285.816359499981
 31
0.0
  0
LINE
  5
3F34
  8
2-0
  6
CONTINUOUS
 62
     3
 10
17214.172164999989
 20
16285.816359499981
 30
0.0
 11
17184.174539999989
 21
16285.816359499981
 31
0.0
  0
LINE
  5
3F35
  8
2-0
  6
CONTINUOUS
 62
     3
 10
17184.174539999989
 20
16285.816359499981
 30
0.0
 11
17184.174539999989
 21
16322.81653049998
 31
0.0
  0
LINE
  5
3F36
  8
2-0
  6
CONTINUOUS
 62
     3
 10
17214.172164999989
 20
16322.81653049998
 30
0.0
 11
17184.174539999989
 21
16322.81653049998
 31
0.0
  0
LINE
  5
3F37
  8
2-0
  6
CONTINUOUS
 62
     3
 10
17214.172164999989
 20
16316.81364049998
 30
0.0
 11
17214.172164999989
 21
16322.81653049998
 31
0.0
  0
LINE
  5
3F38
  8
2-0
  6
CONTINUOUS
 62
     3
 10
17214.172164999989
 20
16332.91207549998
 30
0.0
 11
17184.174539999989
 21
16332.91207549998
 31
0.0
  0
LINE
  5
3F39
  8
2-0
  6
CONTINUOUS
 62
     3
 10
17214.172164999989
 20
16314.904394499979
 30
0.0
 11
17214.172164999989
 21
16332.91207549998
 31
0.0
  0
LINE
  5
3F3A
  8
2-0
  6
CONTINUOUS
 62
     3
 10
17189.178762999989
 20
16314.904394499979
 30
0.0
 11
17214.172164999989
 21
16314.904394499979
 31
0.0
  0
LINE
  5
3F3B
  8
2-0
  6
CONTINUOUS
 62
     3
 10
17189.178762999989
 20
16319.91059749998
 30
0.0
 11
17189.178762999989
 21
16314.904394499979
 31
0.0
  0
LINE
  5
3F3C
  8
2-0
  6
CONTINUOUS
 62
     3
 10
17196.176360999969
 20
16319.91059749998
 30
0.0
 11
17189.178762999989
 21
16319.91059749998
 31
0.0
  0
LINE
  5
3F3D
  8
2-0
  6
CONTINUOUS
 62
     3
 10
17196.176360999969
 20
15619.15061399998
 30
0.0
 11
17189.178762999989
 21
15619.15061399998
 31
0.0
  0
LINE
  5
3F3E
  8
2-0
  6
CONTINUOUS
 62
     3
 10
17189.178762999989
 20
15619.15061399998
 30
0.0
 11
17189.178762999989
 21
15614.15628899999
 31
0.0
  0
LINE
  5
3F3F
  8
2-0
  6
CONTINUOUS
 62
     3
 10
17189.178762999989
 20
15614.15628899999
 30
0.0
 11
17214.172164999989
 21
15614.15628899999
 31
0.0
  0
LINE
  5
3F40
  8
2-0
  6
CONTINUOUS
 62
     3
 10
17214.172164999989
 20
15614.15628899999
 30
0.0
 11
17214.172164999989
 21
15632.152092
 31
0.0
  0
LINE
  5
3F41
  8
2-0
  6
CONTINUOUS
 62
     3
 10
17214.172164999989
 20
15632.152092
 30
0.0
 11
17184.174539999989
 21
15632.152092
 31
0.0
  0
LINE
  5
3F42
  8
2-0
  6
CONTINUOUS
 62
     3
 10
17214.172164999989
 20
15616.05464699999
 30
0.0
 11
17214.172164999989
 21
15622.056547
 31
0.0
  0
LINE
  5
3F43
  8
2-0
  6
CONTINUOUS
 62
     3
 10
17214.172164999989
 20
15622.056547
 30
0.0
 11
17184.174539999989
 21
15622.056547
 31
0.0
  0
LINE
  5
3F44
  8
2-0
  6
CONTINUOUS
 62
     3
 10
17184.174539999989
 20
15585.05736599999
 30
0.0
 11
17184.174539999989
 21
15622.056547
 31
0.0
  0
LINE
  5
3F45
  8
2-0
  6
CONTINUOUS
 62
     3
 10
17214.172164999989
 20
15585.05736599999
 30
0.0
 11
17184.174539999989
 21
15585.05736599999
 31
0.0
  0
LINE
  5
3F46
  8
2-0
  6
CONTINUOUS
 62
     3
 10
17214.172164999989
 20
15591.05431699998
 30
0.0
 11
17214.172164999989
 21
15585.05736599999
 31
0.0
  0
LINE
  5
3F47
  8
2-0
  6
CONTINUOUS
 62
     3
 10
17214.172164999989
 20
15574.95588199998
 30
0.0
 11
17184.174539999989
 21
15574.95588199998
 31
0.0
  0
LINE
  5
3F48
  8
2-0
  6
CONTINUOUS
 62
     3
 10
17214.172164999989
 20
15592.963562999979
 30
0.0
 11
17214.172164999989
 21
15574.95588199998
 31
0.0
  0
LINE
  5
3F49
  8
2-0
  6
CONTINUOUS
 62
     3
 10
17189.178762999989
 20
15592.963562999979
 30
0.0
 11
17214.172164999989
 21
15592.963562999979
 31
0.0
  0
LINE
  5
3F4A
  8
2-0
  6
CONTINUOUS
 62
     3
 10
17189.178762999989
 20
15587.963298999999
 30
0.0
 11
17189.178762999989
 21
15592.963562999979
 31
0.0
  0
LINE
  5
3F4B
  8
2-0
  6
CONTINUOUS
 62
     3
 10
17196.176360999969
 20
15587.963298999999
 30
0.0
 11
17189.178762999989
 21
15587.963298999999
 31
0.0
  0
LINE
  5
3F4C
  8
2-0
  6
CONTINUOUS
 62
     3
 10
17184.174539999989
 20
16980.204034999992
 30
0.0
 11
17184.174539999989
 21
16332.91207549998
 31
0.0
  0
LINE
  5
3F4D
  8
2-0
  6
CONTINUOUS
 62
     3
 10
17184.174539999989
 20
17134.81433299998
 30
0.0
 11
17184.174539999989
 21
16989.812617999989
 31
0.0
  0
LINE
  5
3F4E
  8
2-0
  6
CONTINUOUS
 62
     3
 10
17272.061205999991
 20
17104.814728999969
 30
0.0
 11
17272.061205999991
 21
17019.818160999981
 31
0.0
  0
LINE
  5
3F4F
  8
2-0
  6
CONTINUOUS
 62
     3
 10
17196.176360999969
 20
14886.72229199998
 30
0.0
 11
17189.178762999989
 21
14886.72229199998
 31
0.0
  0
LINE
  5
3F50
  8
2-0
  6
CONTINUOUS
 62
     3
 10
17189.178762999989
 20
14886.72229199998
 30
0.0
 11
17189.178762999989
 21
14891.71661799998
 31
0.0
  0
LINE
  5
3F51
  8
2-0
  6
CONTINUOUS
 62
     3
 10
17189.178762999989
 20
14891.71661799998
 30
0.0
 11
17214.172164999989
 21
14891.71661799998
 31
0.0
  0
LINE
  5
3F52
  8
2-0
  6
CONTINUOUS
 62
     3
 10
17214.172164999989
 20
14891.71661799998
 30
0.0
 11
17214.172164999989
 21
14873.720813999969
 31
0.0
  0
LINE
  5
3F53
  8
2-0
  6
CONTINUOUS
 62
     3
 10
17214.172164999989
 20
14873.720813999969
 30
0.0
 11
17184.174539999989
 21
14873.720813999969
 31
0.0
  0
LINE
  5
3F54
  8
2-0
  6
CONTINUOUS
 62
     3
 10
17214.172164999989
 20
14889.81924899998
 30
0.0
 11
17214.172164999989
 21
14883.81635899998
 31
0.0
  0
LINE
  5
3F55
  8
2-0
  6
CONTINUOUS
 62
     3
 10
17214.172164999989
 20
14883.81635899998
 30
0.0
 11
17184.174539999989
 21
14883.81635899998
 31
0.0
  0
LINE
  5
3F56
  8
2-0
  6
CONTINUOUS
 62
     3
 10
17184.174539999989
 20
14883.81635899998
 30
0.0
 11
17184.174539999989
 21
14920.816530999949
 31
0.0
  0
LINE
  5
3F57
  8
2-0
  6
CONTINUOUS
 62
     3
 10
17214.172164999989
 20
14920.816530999949
 30
0.0
 11
17184.174539999989
 21
14920.816530999949
 31
0.0
  0
LINE
  5
3F58
  8
2-0
  6
CONTINUOUS
 62
     3
 10
17214.172164999989
 20
14914.819578999981
 30
0.0
 11
17214.172164999989
 21
14920.816530999949
 31
0.0
  0
LINE
  5
3F59
  8
2-0
  6
CONTINUOUS
 62
     3
 10
17214.172164999989
 20
14930.91702399998
 30
0.0
 11
17184.174539999989
 21
14930.91702399998
 31
0.0
  0
LINE
  5
3F5A
  8
2-0
  6
CONTINUOUS
 62
     3
 10
17214.172164999989
 20
14912.910332999991
 30
0.0
 11
17214.172164999989
 21
14930.91702399998
 31
0.0
  0
LINE
  5
3F5B
  8
2-0
  6
CONTINUOUS
 62
     3
 10
17189.178762999989
 20
14912.910332999991
 30
0.0
 11
17214.172164999989
 21
14912.910332999991
 31
0.0
  0
LINE
  5
3F5C
  8
2-0
  6
CONTINUOUS
 62
     3
 10
17189.178762999989
 20
14917.91554599998
 30
0.0
 11
17189.178762999989
 21
14912.910332999991
 31
0.0
  0
LINE
  5
3F5D
  8
2-0
  6
CONTINUOUS
 62
     3
 10
17196.176360999969
 20
14917.91554599998
 30
0.0
 11
17189.178762999989
 21
14917.91554599998
 31
0.0
  0
LINE
  5
3F5E
  8
2-0
  6
CONTINUOUS
 62
     3
 10
17214.172164999989
 20
14210.81837199998
 30
0.0
 11
17214.172164999989
 21
14216.82324099998
 31
0.0
  0
LINE
  5
3F5F
  8
2-0
  6
CONTINUOUS
 62
     3
 10
17214.172164999989
 20
14216.82324099998
 30
0.0
 11
17184.174539999989
 21
14216.82324099998
 31
0.0
  0
LINE
  5
3F60
  8
2-0
  6
CONTINUOUS
 62
     3
 10
17184.174539999989
 20
14216.82324099998
 30
0.0
 11
17184.174539999989
 21
14101.819149999979
 31
0.0
  0
LINE
  5
3F61
  8
2-0
  6
CONTINUOUS
 62
     3
 10
17184.174539999989
 20
14101.819149999979
 30
0.0
 11
17269.173087999981
 21
14101.819149999979
 31
0.0
  0
LINE
  5
3F62
  8
2-0
  6
CONTINUOUS
 62
     3
 10
17269.173087999981
 20
14101.819149999979
 30
0.0
 11
17269.173087999981
 21
14186.81472899998
 31
0.0
  0
LINE
  5
3F63
  8
2-0
  6
CONTINUOUS
 62
     3
 10
17269.173087999981
 20
14186.81472899998
 30
0.0
 11
17237.176149999981
 21
14186.81472899998
 31
0.0
  0
LINE
  5
3F64
  8
2-0
  6
CONTINUOUS
 62
     3
 10
17196.176360999969
 20
14213.852973999979
 30
0.0
 11
17189.178762999989
 21
14213.852973999979
 31
0.0
  0
LINE
  5
3F65
  8
2-0
  6
CONTINUOUS
 62
     3
 10
17189.178762999989
 20
14213.852973999979
 30
0.0
 11
17189.178762999989
 21
14208.855678999949
 31
0.0
  0
LINE
  5
3F66
  8
2-0
  6
CONTINUOUS
 62
     3
 10
17189.178762999989
 20
14208.855678999949
 30
0.0
 11
17214.172164999989
 21
14208.855678999949
 31
0.0
  0
LINE
  5
3F67
  8
2-0
  6
CONTINUOUS
 62
     3
 10
17214.172164999989
 20
14208.855678999949
 30
0.0
 11
17214.172164999989
 21
14226.85445199998
 31
0.0
  0
LINE
  5
3F68
  8
2-0
  6
CONTINUOUS
 62
     3
 10
17214.172164999989
 20
14226.85445199998
 30
0.0
 11
17184.174539999989
 21
14226.85445199998
 31
0.0
  0
LINE
  5
3F69
  8
2-0
  6
CONTINUOUS
 62
     3
 10
17184.174539999989
 20
14930.91702399998
 30
0.0
 11
17184.174539999989
 21
15574.95588199998
 31
0.0
  0
LINE
  5
3F6A
  8
2-0
  6
CONTINUOUS
 62
     3
 10
17184.174539999989
 20
18549.91257099999
 30
0.0
 11
17184.174539999989
 21
19193.722298499961
 31
0.0
  0
LINE
  5
3F6B
  8
2-0
  6
CONTINUOUS
 62
     3
 10
17184.174539999989
 20
16275.71586549998
 30
0.0
 11
17184.174539999989
 21
15632.152092
 31
0.0
  0
LINE
  5
3F6C
  8
2-0
  6
CONTINUOUS
 62
     3
 10
13842.50777200001
 20
20185.311430999991
 30
0.0
 11
13842.50777200001
 21
20162.818160999981
 31
0.0
  0
LINE
  5
3F6D
  8
2-0
  6
DASHED3
 62
     6
 10
13757.00638699999
 20
19759.382377000002
 30
0.0
 11
13757.00638699999
 21
20026.320457000002
 31
0.0
  0
LINE
  5
3F6E
  8
2-0
  6
CONTINUOUS
 62
     3
 10
9993.0091319999992
 20
16710.949495000001
 30
0.0
 11
9993.0091319999992
 21
18476.320007999992
 31
0.0
  0
LINE
  5
3F6F
  8
2-0
  6
CONTINUOUS
 62
     3
 10
10030.012273
 20
16689.986393999981
 30
0.0
 11
10030.012273
 21
18476.320007999992
 31
0.0
  0
LINE
  5
3F70
  8
2-0
  6
CONTINUOUS
 62
     3
 10
10230.011943
 20
16576.68073
 30
0.0
 11
10230.011943
 21
18476.320007999992
 31
0.0
  0
LINE
  5
3F71
  8
2-0
  6
CONTINUOUS
 62
     3
 10
10193.011770999999
 20
16597.643831000001
 30
0.0
 11
10193.011770999999
 21
18476.320007999992
 31
0.0
  0
LINE
  5
3F72
  8
2-0
  6
CONTINUOUS
 62
     3
 10
10393.00946199998
 20
16484.343115999978
 30
0.0
 11
10393.00946199998
 21
18476.320007999992
 31
0.0
  0
LINE
  5
3F73
  8
2-0
  6
CONTINUOUS
 62
     3
 10
10430.00864399999
 20
16463.380013999991
 30
0.0
 11
10430.00864399999
 21
18476.320007999992
 31
0.0
  0
LINE
  5
3F74
  8
2-0
  6
CONTINUOUS
 62
     3
 10
10593.015071
 20
16371.03844199999
 30
0.0
 11
10593.015071
 21
18476.320007999992
 31
0.0
  0
LINE
  5
3F75
  8
2-0
  6
CONTINUOUS
 62
     3
 10
10630.014252000001
 20
16350.08028899999
 30
0.0
 11
10630.014252000001
 21
18476.320007999992
 31
0.0
  0
LINE
  5
3F76
  8
2-0
  6
CONTINUOUS
 62
     3
 10
9496.4637219999968
 20
17316.03332099997
 30
0.0
 11
9338.5832580000042
 21
17445.111367000001
 31
0.0
  0
LINE
  5
3F77
  8
2-0
  6
CONTINUOUS
 62
     3
 10
9884.4246200000034
 20
17409.159350999991
 30
0.0
 11
9638.581279
 21
17594.594712999999
 31
0.0
  0
LINE
  5
3F78
  8
2-0
  6
CONTINUOUS
 62
     3
 10
9638.581279
 20
16524.714408
 30
0.0
 11
9278.4781459999995
 21
16796.341968000001
 31
0.0
  0
LINE
  5
3F79
  8
2-0
  6
CONTINUOUS
 62
     3
 10
9278.4781459999995
 20
16796.341968000001
 30
0.0
 11
9884.4246200000034
 21
17409.159350999991
 31
0.0
  0
LINE
  5
3F7A
  8
2-0
  6
CONTINUOUS
 62
     3
 10
9338.5832580000042
 20
16375.23205199999
 30
0.0
 11
8890.5132890000023
 21
16713.212084999981
 31
0.0
  0
LINE
  5
3F7B
  8
2-0
  6
CONTINUOUS
 62
     3
 10
9496.4637219999968
 20
17316.03332099997
 30
0.0
 11
8890.5132890000023
 21
16713.212084999981
 31
0.0
  0
LINE
  5
3F7C
  8
2-0
  6
CONTINUOUS
 62
     3
 10
9638.581279
 20
20129.536514999982
 30
0.0
 11
9638.581279
 21
20324.022236000001
 31
0.0
  0
LINE
  5
3F7D
  8
2-0
  6
DASHED3
 62
     6
 10
13757.00638699999
 20
19941.315969999989
 30
0.0
 11
9638.581279
 21
19941.315969999989
 31
0.0
  0
LINE
  5
3F7E
  8
2-0
  6
DASHED3
 62
     6
 10
13799.510610000019
 20
20026.320457000002
 30
0.0
 11
9638.581279
 21
20026.320457000002
 31
0.0
  0
LINE
  5
3F7F
  8
2-0
  6
CONTINUOUS
 62
     3
 10
9284.9145509999998
 20
17102.08893299997
 30
0.0
 11
8242.3723870000031
 21
17697.694189999991
 31
0.0
  0
LINE
  5
3F80
  8
2-0
  6
CONTINUOUS
 62
     3
 10
14134.772764000019
 20
14350.069083999981
 30
0.0
 11
9480.8997570000083
 21
16991.061694999971
 31
0.0
  0
LINE
  5
3F81
  8
2-0
  6
DASHED3
 62
     6
 10
13757.00638699999
 20
17017.31802899998
 30
0.0
 11
9506.8631230000046
 21
17017.31802899998
 31
0.0
  0
LINE
  5
3F82
  8
2-0
  6
DASHED3
 62
     6
 10
13757.00638699999
 20
17107.322779999959
 30
0.0
 11
9595.8543599999994
 21
17107.322779999959
 31
0.0
  0
LINE
  5
3F83
  8
2-0
  6
CONTINUOUS
 62
     3
 10
5012.0073170000014
 20
17017.31802899998
 30
0.0
 11
9201.1017340000035
 21
17017.31802899998
 31
0.0
  0
LINE
  5
3F84
  8
2-0
  6
CONTINUOUS
 62
     3
 10
13842.50777200001
 20
13951.82112999998
 30
0.0
 11
9638.581279
 21
13951.82112999998
 31
0.0
  0
LINE
  5
3F85
  8
2-0
  6
CONTINUOUS
 62
     3
 10
13799.510610000019
 20
14107.81511199998
 30
0.0
 11
9638.581279
 21
14107.81511199998
 31
0.0
  0
LINE
  5
3F86
  8
2-0
  6
CONTINUOUS
 62
     3
 10
13757.00638699999
 20
14186.81472899998
 30
0.0
 11
9638.581279
 21
14186.81472899998
 31
0.0
  0
LINE
  5
3F87
  8
2-0
  6
CONTINUOUS
 62
     3
 10
4969.500619999998
 20
14107.81511199998
 30
0.0
 11
9338.5832580000042
 21
14107.81511199998
 31
0.0
  0
LINE
  5
3F88
  8
2-0
  6
CONTINUOUS
 62
     3
 10
4926.5029619999978
 20
13983.821036999971
 30
0.0
 11
9338.5832580000042
 21
13983.821036999971
 31
0.0
  0
LINE
  5
3F89
  8
2-0
  6
CONTINUOUS
 62
     3
 10
4926.5029619999978
 20
13951.82112999998
 30
0.0
 11
9338.5832580000042
 21
13951.82112999998
 31
0.0
  0
LINE
  5
3F8A
  8
2-0
  6
CONTINUOUS
 62
     3
 10
26306.174407999959
 20
19907.818556999991
 30
0.0
 11
26306.174407999959
 21
20022.814729999998
 31
0.0
  0
LINE
  5
3F8B
  8
2-0
  6
CONTINUOUS
 62
     3
 10
21975.136137000001
 20
17326.027487999982
 30
0.0
 11
21817.255674
 21
17445.111367000001
 31
0.0
  0
LINE
  5
3F8C
  8
2-0
  6
CONTINUOUS
 62
     3
 10
22363.098024999999
 20
17409.159350999991
 30
0.0
 11
22117.255674
 21
17594.594712999999
 31
0.0
  0
LINE
  5
3F8D
  8
2-0
  6
CONTINUOUS
 62
     3
 10
22117.255674
 20
16524.714408
 30
0.0
 11
21757.147592000001
 21
16796.341968000001
 31
0.0
  0
LINE
  5
3F8E
  8
2-0
  6
CONTINUOUS
 62
     3
 10
21757.147592000001
 20
16796.341968000001
 30
0.0
 11
22363.098024999999
 21
17409.159350999991
 31
0.0
  0
LINE
  5
3F8F
  8
2-0
  6
CONTINUOUS
 62
     3
 10
21817.255674
 20
16375.23205199999
 30
0.0
 11
21369.183724999992
 21
16713.212084999981
 31
0.0
  0
LINE
  5
3F90
  8
2-0
  6
CONTINUOUS
 62
     3
 10
21975.136137000001
 20
17326.027487999982
 30
0.0
 11
21369.183724999992
 21
16713.212084999981
 31
0.0
  0
LINE
  5
3F91
  8
2-0
  6
CONTINUOUS
 62
     3
 10
22117.255674
 20
20129.536514999982
 30
0.0
 11
22117.255674
 21
20324.022236000001
 31
0.0
  0
LINE
  5
3F92
  8
2-0
  6
DASHED3
 62
     6
 10
10431.510109000001
 20
16462.531791000001
 30
0.0
 11
10431.510109000001
 21
19941.315969999989
 31
0.0
  0
LINE
  5
3F93
  8
2-0
  6
DASHED3
 62
     6
 10
10488.506386999999
 20
16430.237924000001
 30
0.0
 11
10488.506386999999
 21
19941.315969999989
 31
0.0
  0
LINE
  5
3F94
  8
2-0
  6
DASHED3
 62
     6
 10
10545.512563
 20
16397.948016999992
 30
0.0
 11
10545.512563
 21
19941.315969999981
 31
0.0
  0
LINE
  5
3F95
  8
2-0
  6
CONTINUOUS
 62
     3
 10
10431.510109000001
 20
14186.81472899998
 30
0.0
 11
10431.510109000001
 21
16462.531791000001
 31
0.0
  0
LINE
  5
3F96
  8
2-0
  6
CONTINUOUS
 62
     3
 10
10488.506386999999
 20
13951.82112999998
 30
0.0
 11
10488.506386999999
 21
16430.237924000001
 31
0.0
  0
LINE
  5
3F97
  8
2-0
  6
CONTINUOUS
 62
     3
 10
10545.512563
 20
14186.81472899998
 30
0.0
 11
10545.512563
 21
16397.948016999992
 31
0.0
  0
LINE
  5
3F98
  8
2-0
  6
DASHED3
 62
     6
 10
5082.0055679999987
 20
19980.316444999949
 30
0.0
 11
5812.9200301227793
 21
19298.581091887208
 31
0.0
  0
LINE
  5
3F99
  8
2-0
  6
DASHED3
 62
     6
 10
10558.507112999991
 20
19980.316444999949
 30
0.0
 11
13687.010610000019
 21
17062.316444999979
 31
0.0
  0
LINE
  5
3F9A
  8
2-0
  6
DASHED3
 62
     6
 10
10558.507112999991
 20
17062.316444999979
 30
0.0
 11
13687.00764100002
 21
19980.316444999949
 31
0.0
  0
LINE
  5
3F9B
  8
2-0
  6
CONTINUOUS
 62
     3
 10
5082.0085380000019
 20
17062.316444999979
 30
0.0
 11
6847.062678808803
 21
18708.60927339617
 31
0.0
  0
LINE
  5
3F9C
  8
2-0
  6
CONTINUOUS
 62
     3
 10
8290.5073499999999
 20
17107.322779999959
 30
0.0
 11
8290.5073499999999
 21
17675.418456999982
 31
0.0
  0
LINE
  5
3F9D
  8
2-0
  6
CONTINUOUS
 62
     3
 10
8347.5105570000032
 20
17107.322779999959
 30
0.0
 11
8347.5105570000032
 21
17643.128549000001
 31
0.0
  0
LINE
  5
3F9E
  8
2-0
  6
DASHED3
 62
     6
 10
8347.5105570000032
 20
17643.128549000001
 30
0.0
 11
8347.5105570000032
 21
19941.315969999989
 31
0.0
  0
LINE
  5
3F9F
  8
2-0
  6
DASHED3
 62
     6
 10
8290.5073499999999
 20
17675.418456999982
 30
0.0
 11
8290.5073499999999
 21
19941.315969999989
 31
0.0
  0
LINE
  5
3FA0
  8
2-0
  6
CONTINUOUS
 62
     3
 10
8233.5105770000027
 20
17107.322779999959
 30
0.0
 11
8233.5105770000027
 21
17687.30765599999
 31
0.0
  0
LINE
  5
3FA1
  8
2-0
  6
DASHED3
 62
     6
 10
8233.5105770000027
 20
17687.30765599999
 30
0.0
 11
8233.5105770000027
 21
19941.315969999989
 31
0.0
  0
LINE
  5
3FA2
  8
2-0
  6
DASHED3
 62
     6
 10
13757.00638699999
 20
14584.570431
 30
0.0
 11
13757.00638699999
 21
19759.382377000002
 31
0.0
  0
LINE
  5
3FA3
  8
2-0
  6
CENTER2
 62
     6
 10
5065.0010089999987
 20
14144.316444999969
 30
0.0
 11
13975.806535000011
 21
14144.316444999969
 31
0.0
  0
LINE
  5
3FA4
  8
2-0
  6
CENTER2
 62
     6
 10
15897.21626799998
 20
19980.316444999949
 30
0.0
 11
27156.175727999958
 21
19980.316444999949
 31
0.0
  0
LINE
  5
3FA5
  8
2-0
  6
CENTER2
 62
     6
 10
15897.21626799998
 20
17062.316444999979
 30
0.0
 11
27156.175727999958
 21
17062.316444999979
 31
0.0
  0
LINE
  5
3FA6
  8
2-0
  6
CENTER2
 62
     6
 10
15897.21626799998
 20
14144.316444999969
 30
0.0
 11
27156.175727999958
 21
14144.316444999969
 31
0.0
  0
LINE
  5
3FA7
  8
2-0
  6
CONTINUOUS
 62
     3
 10
17649.762523000001
 20
20010.814888000001
 30
0.0
 11
17649.762523000001
 21
20017.820403999991
 31
0.0
  0
LINE
  5
3FA8
  8
2-0
  6
CONTINUOUS
 62
     3
 10
17649.762523000001
 20
20017.820403999991
 30
0.0
 11
17644.762258999981
 21
20017.820403999991
 31
0.0
  0
LINE
  5
3FA9
  8
2-0
  6
CONTINUOUS
 62
     3
 10
17644.762258999981
 20
20017.820403999991
 30
0.0
 11
17644.762258999981
 21
19992.811166999989
 31
0.0
  0
LINE
  5
3FAA
  8
2-0
  6
CONTINUOUS
 62
     3
 10
17644.762258999981
 20
19992.811166999989
 30
0.0
 11
17662.764000999989
 21
19992.811166999989
 31
0.0
  0
LINE
  5
3FAB
  8
2-0
  6
CONTINUOUS
 62
     3
 10
17662.764000999989
 20
19992.811166999989
 30
0.0
 11
17662.764000999989
 21
20022.814729999998
 31
0.0
  0
LINE
  5
3FAC
  8
2-0
  6
CONTINUOUS
 62
     3
 10
17646.664575999988
 20
19992.811166999989
 30
0.0
 11
17652.668455999981
 21
19992.811166999989
 31
0.0
  0
LINE
  5
3FAD
  8
2-0
  6
CONTINUOUS
 62
     3
 10
17652.668455999981
 20
19992.811166999989
 30
0.0
 11
17652.668455999981
 21
20022.814729999998
 31
0.0
  0
LINE
  5
3FAE
  8
2-0
  6
CONTINUOUS
 62
     3
 10
17615.673233999991
 20
20022.814729999998
 30
0.0
 11
17652.668455999981
 21
20022.814729999998
 31
0.0
  0
LINE
  5
3FAF
  8
2-0
  6
CONTINUOUS
 62
     3
 10
17615.673233999991
 20
19992.811166999989
 30
0.0
 11
17615.673233999991
 21
20022.814729999998
 31
0.0
  0
LINE
  5
3FB0
  8
2-0
  6
CONTINUOUS
 62
     3
 10
17621.667216000002
 20
19992.811166999989
 30
0.0
 11
17615.673233999991
 21
19992.811166999989
 31
0.0
  0
LINE
  5
3FB1
  8
2-0
  6
CONTINUOUS
 62
     3
 10
17605.577689000002
 20
19992.811166999989
 30
0.0
 11
17605.577689000002
 21
20022.814729999998
 31
0.0
  0
LINE
  5
3FB2
  8
2-0
  6
CONTINUOUS
 62
     3
 10
17623.573492
 20
19992.811166999989
 30
0.0
 11
17605.577689000002
 21
19992.811166999989
 31
0.0
  0
LINE
  5
3FB3
  8
2-0
  6
CONTINUOUS
 62
     3
 10
17623.573492
 20
20017.820403999991
 30
0.0
 11
17623.573492
 21
19992.811166999989
 31
0.0
  0
LINE
  5
3FB4
  8
2-0
  6
CONTINUOUS
 62
     3
 10
17618.575207999998
 20
20017.820403999991
 30
0.0
 11
17623.573492
 21
20017.820403999991
 31
0.0
  0
LINE
  5
3FB5
  8
2-0
  6
CONTINUOUS
 62
     3
 10
17618.575207999998
 20
20010.814888000001
 30
0.0
 11
17618.575207999998
 21
20017.820403999991
 31
0.0
  0
LINE
  5
3FB6
  8
2-0
  6
CONTINUOUS
 62
     3
 10
17309.476086999981
 20
20022.814729999998
 30
0.0
 11
17605.577689000002
 21
20022.814729999998
 31
0.0
  0
LINE
  5
3FB7
  8
2-0
  6
CONTINUOUS
 62
     3
 10
21817.255674
 20
19937.818160999981
 30
0.0
 11
17184.174539999989
 21
19937.818160999981
 31
0.0
  0
LINE
  5
3FB8
  8
2-0
  6
CONTINUOUS
 62
     3
 10
22117.255674
 20
19937.818160999981
 30
0.0
 11
26225.17250799996
 21
19937.818160999981
 31
0.0
  0
LINE
  5
3FB9
  8
2-0
  6
CONTINUOUS
 62
     3
 10
13842.50777200001
 20
13983.821036999971
 30
0.0
 11
9638.581279
 21
13983.821036999971
 31
0.0
  0
LINE
  5
3FBA
  8
2-0
  6
CONTINUOUS
 62
     3
 10
17184.174539999989
 20
14226.85445199998
 30
0.0
 11
17184.174539999989
 21
14873.720813999969
 31
0.0
  0
LINE
  5
3FBB
  8
2-0
  6
CONTINUOUS
 62
     3
 10
4944.501734999998
 20
19792.210713
 30
0.0
 11
4944.501734999998
 21
20185.311430999991
 31
0.0
  0
LINE
  5
3FBC
  8
2-0
  6
DASHED3
 62
     6
 10
4969.500619999998
 20
20026.320457000002
 30
0.0
 11
9338.5832580000042
 21
20026.320457000002
 31
0.0
  0
LINE
  5
3FBD
  8
2-0
  6
DASHED3
 62
     6
 10
5012.0073170000014
 20
19941.315969999989
 30
0.0
 11
9338.5832580000042
 21
19941.315969999989
 31
0.0
  0
LINE
  5
3FBE
  8
2-0
  6
DASHED3
 62
     6
 10
4969.500619999998
 20
19779.646708
 30
0.0
 11
4969.500619999998
 21
20026.320457000002
 31
0.0
  0
LINE
  5
3FBF
  8
2-0
  6
DASHED3
 62
     6
 10
5012.0073170000014
 20
19755.381768999981
 30
0.0
 11
5012.0073170000014
 21
20026.320457000002
 31
0.0
  0
LINE
  5
3FC0
  8
2-0
  6
CONTINUOUS
 62
     3
 10
9338.5832580000042
 20
17445.111367000001
 30
0.0
 11
9338.5832580000042
 21
20324.022236000001
 31
0.0
  0
LINE
  5
3FC1
  8
2-0
  6
CONTINUOUS
 62
     3
 10
9638.581279
 20
17594.594712999999
 30
0.0
 11
9638.581279
 21
20129.536514999982
 31
0.0
  0
LINE
  5
3FC2
  8
2-0
  6
CONTINUOUS
 62
     3
 10
13842.50777200001
 20
20197.818028999991
 30
0.0
 11
13842.50777200001
 21
20162.818160999981
 31
0.0
  0
LINE
  5
3FC3
  8
2-0
  6
DASHED3
 62
     6
 10
13799.510610000019
 20
14560.494536
 30
0.0
 11
13799.510610000019
 21
20026.320457000002
 31
0.0
  0
LINE
  5
3FC4
  8
2-0
  6
CONTINUOUS
 62
     3
 10
5182.5086960000008
 20
19658.054778999991
 30
0.0
 11
5182.5086960000008
 21
20144.812459000001
 31
0.0
  0
LINE
  5
3FC5
  8
2-0
  6
CONTINUOUS
 62
     3
 10
5219.499960000001
 20
19636.933315999999
 30
0.0
 11
5219.499960000001
 21
20144.812459000001
 31
0.0
  0
LINE
  5
3FC6
  8
2-0
  6
CONTINUOUS
 62
     3
 10
5382.5014379999984
 20
19543.886044999988
 30
0.0
 11
5382.5014379999984
 21
20144.812459000001
 31
0.0
  0
LINE
  5
3FC7
  8
2-0
  6
CONTINUOUS
 62
     3
 10
5419.506558000001
 20
19522.760622999991
 30
0.0
 11
5419.506558000001
 21
20144.812459000001
 31
0.0
  0
LINE
  5
3FC8
  8
2-0
  6
CONTINUOUS
 62
     3
 10
5619.5017739999967
 20
19408.591888999981
 30
0.0
 11
5619.5017739999967
 21
20144.812459000001
 31
0.0
  0
LINE
  5
3FC9
  8
2-0
  6
CONTINUOUS
 62
     3
 10
5582.5050669999973
 20
19429.713351999999
 30
0.0
 11
5582.5050669999973
 21
20144.812459000001
 31
0.0
  0
LINE
  5
3FCA
  8
2-0
  6
CONTINUOUS
 62
     3
 10
5782.5086959999999
 20
19315.548577000001
 30
0.0
 11
5782.5086959999999
 21
20144.812459000001
 31
0.0
  0
LINE
  5
3FCB
  8
2-0
  6
CONTINUOUS
 62
     3
 10
5819.502929000002
 20
19294.425134000001
 30
0.0
 11
5819.502929000002
 21
20144.812459000001
 31
0.0
  0
LINE
  5
3FCC
  8
2-0
  6
CONTINUOUS
 62
     3
 10
5982.5014379999993
 20
19201.377863000002
 30
0.0
 11
5982.5014379999993
 21
20144.812459000001
 31
0.0
  0
LINE
  5
3FCD
  8
2-0
  6
CONTINUOUS
 62
     3
 10
6393.0036880000016
 20
18973.036435999991
 30
0.0
 11
6393.0036880000016
 21
20144.812459000001
 31
0.0
  0
LINE
  5
3FCE
  8
2-0
  6
CONTINUOUS
 62
     3
 10
6430.0033650000014
 20
18951.907055
 30
0.0
 11
6430.0033650000014
 21
20144.812459000001
 31
0.0
  0
LINE
  5
3FCF
  8
2-0
  6
CONTINUOUS
 62
     3
 10
6019.506558000001
 20
19180.250461
 30
0.0
 11
6019.506558000001
 21
20144.812459000001
 31
0.0
  0
LINE
  5
3FD0
  8
2-0
  6
CONTINUOUS
 62
     3
 10
6193.0084720000059
 20
19087.20319
 30
0.0
 11
6193.0084720000059
 21
20144.812459000001
 31
0.0
  0
LINE
  5
3FD1
  8
2-0
  6
CONTINUOUS
 62
     3
 10
6230.0081490000011
 20
19066.083707000002
 30
0.0
 11
6230.0081490000011
 21
20144.812459000001
 31
0.0
  0
LINE
  5
3FD2
  8
2-0
  6
CONTINUOUS
 62
     3
 10
6593.0102870000019
 20
18858.855824999999
 30
0.0
 11
6593.0102870000019
 21
20144.812459000001
 31
0.0
  0
LINE
  5
3FD3
  8
2-0
  6
CONTINUOUS
 62
     3
 10
6630.0099630000004
 20
18837.73832
 30
0.0
 11
6630.0099630000004
 21
20144.812459000001
 31
0.0
  0
LINE
  5
3FD4
  8
2-0
  6
CONTINUOUS
 62
     3
 10
6793.0030280000019
 20
18744.68906999996
 30
0.0
 11
6793.0030280000019
 21
20144.812459000001
 31
0.0
  0
LINE
  5
3FD5
  8
2-0
  6
CONTINUOUS
 62
     3
 10
6830.0027050000017
 20
18723.567607000001
 30
0.0
 11
6830.0027050000017
 21
20144.812459000001
 31
0.0
  0
LINE
  5
3FD6
  8
2-0
  6
CONTINUOUS
 62
     3
 10
6993.0081420000024
 20
18625.52226199998
 30
0.0
 11
6993.0081420000024
 21
20144.812459000001
 31
0.0
  0
LINE
  5
3FD7
  8
2-0
  6
CONTINUOUS
 62
     3
 10
7030.0038599999989
 20
18604.39683899999
 30
0.0
 11
7030.0038599999989
 21
20144.812459000001
 31
0.0
  0
LINE
  5
3FD8
  8
2-0
  6
CONTINUOUS
 62
     3
 10
7193.0063280000004
 20
18511.349568999991
 30
0.0
 11
7193.0063280000004
 21
20144.812459000001
 31
0.0
  0
LINE
  5
3FD9
  8
2-0
  6
CONTINUOUS
 62
     3
 10
7230.0074890000014
 20
18490.228104999991
 30
0.0
 11
7230.0074890000014
 21
20144.812459000001
 31
0.0
  0
LINE
  5
3FDA
  8
2-0
  6
CONTINUOUS
 62
     3
 10
7393.0074820000027
 20
18397.17489599996
 30
0.0
 11
7393.0074820000027
 21
20144.812459000001
 31
0.0
  0
LINE
  5
3FDB
  8
2-0
  6
CONTINUOUS
 62
     3
 10
7430.0071589999998
 20
18376.055411999962
 30
0.0
 11
7430.0071589999998
 21
20144.812459000001
 31
0.0
  0
LINE
  5
3FDC
  8
2-0
  6
CONTINUOUS
 62
     3
 10
7593.007152000002
 20
18477.333520999979
 30
0.0
 11
7593.007152000002
 21
20144.812459000001
 31
0.0
  0
LINE
  5
3FDD
  8
2-0
  6
CONTINUOUS
 62
     3
 10
7630.0063340000024
 20
18520.71071199996
 30
0.0
 11
7630.0063340000024
 21
20144.812459000001
 31
0.0
  0
LINE
  5
3FDE
  8
2-0
  6
CONTINUOUS
 62
     3
 10
7793.0107820000021
 20
18184.808182999961
 30
0.0
 11
7793.0107820000021
 21
20144.812459000001
 31
0.0
  0
LINE
  5
3FDF
  8
2-0
  6
CONTINUOUS
 62
     3
 10
7830.0129329999982
 20
18097.52922999996
 30
0.0
 11
7830.0129329999982
 21
20144.812459000001
 31
0.0
  0
LINE
  5
3FE0
  8
2-0
  6
CONTINUOUS
 62
     3
 10
8230.0093040000047
 20
17683.19817499999
 30
0.0
 11
8230.0093040000047
 21
20144.812459000001
 31
0.0
  0
LINE
  5
3FE1
  8
2-0
  6
CONTINUOUS
 62
     3
 10
8193.0111120000001
 20
17644.819058000001
 30
0.0
 11
8193.0111120000001
 21
20144.812459000001
 31
0.0
  0
LINE
  5
3FE2
  8
2-0
  6
CONTINUOUS
 62
     3
 10
8030.0071589999998
 20
17630.720926999991
 30
0.0
 11
8030.0071589999998
 21
20144.812459000001
 31
0.0
  0
LINE
  5
3FE3
  8
2-0
  6
CONTINUOUS
 62
     3
 10
7993.004512999999
 20
17713.007744999992
 30
0.0
 11
7993.004512999999
 21
20144.812459000001
 31
0.0
  0
LINE
  5
3FE4
  8
2-0
  6
CONTINUOUS
 62
     3
 10
9030.0060040000044
 20
17246.496792999969
 30
0.0
 11
9030.0060040000044
 21
20144.812459000001
 31
0.0
  0
LINE
  5
3FE5
  8
2-0
  6
CONTINUOUS
 62
     3
 10
8993.0058329999974
 20
17267.455934999969
 30
0.0
 11
8993.0058329999974
 21
20144.812459000001
 31
0.0
  0
LINE
  5
3FE6
  8
2-0
  6
CONTINUOUS
 62
     3
 10
8830.0112830000016
 20
17369.790684999989
 30
0.0
 11
8830.0112830000016
 21
20144.812459000001
 31
0.0
  0
LINE
  5
3FE7
  8
2-0
  6
CONTINUOUS
 62
     3
 10
8793.0091320000065
 20
17390.755766999991
 30
0.0
 11
8793.0091320000065
 21
20144.812459000001
 31
0.0
  0
LINE
  5
3FE8
  8
2-0
  6
CONTINUOUS
 62
     3
 10
8630.0046850000017
 20
17483.096348999999
 30
0.0
 11
8630.0046850000017
 21
20144.812459000001
 31
0.0
  0
LINE
  5
3FE9
  8
2-0
  6
CONTINUOUS
 62
     3
 10
8593.0074820000027
 20
17504.055491999989
 30
0.0
 11
8593.0074820000027
 21
20144.812459000001
 31
0.0
  0
LINE
  5
3FEA
  8
2-0
  6
CONTINUOUS
 62
     3
 10
8430.0104580000007
 20
17596.394094999989
 30
0.0
 11
8430.0104580000007
 21
20144.812459000001
 31
0.0
  0
LINE
  5
3FEB
  8
2-0
  6
CONTINUOUS
 62
     3
 10
8393.0053380000027
 20
17617.349278999991
 30
0.0
 11
8393.0053380000027
 21
20144.812459000001
 31
0.0
  0
LINE
  5
3FEC
  8
2-0
  6
CONTINUOUS
 62
     3
 10
9230.0076540000045
 20
17133.197066999968
 30
0.0
 11
9230.0076540000045
 21
20144.812459000001
 31
0.0
  0
LINE
  5
3FED
  8
2-0
  6
CONTINUOUS
 62
     3
 10
9193.0035229999994
 20
17154.15422999996
 30
0.0
 11
9193.0035229999994
 21
20144.812459000001
 31
0.0
  0
LINE
  5
3FEE
  8
2-0
  6
CONTINUOUS
 62
     3
 10
9830.0106230000056
 20
16803.286118999971
 30
0.0
 11
9830.0106230000056
 21
20144.812459000001
 31
0.0
  0
LINE
  5
3FEF
  8
2-0
  6
CONTINUOUS
 62
     3
 10
9793.0055030000003
 20
16824.243281999981
 30
0.0
 11
9793.0055030000003
 21
20144.812459000001
 31
0.0
  0
LINE
  5
3FF0
  8
2-0
  6
CONTINUOUS
 62
     3
 10
9993.0091319999992
 20
18447.242858999991
 30
0.0
 11
9993.0091319999992
 21
20144.812459000001
 31
0.0
  0
LINE
  5
3FF1
  8
2-0
  6
CONTINUOUS
 62
     3
 10
10030.012273
 20
18441.61112899999
 30
0.0
 11
10030.012273
 21
20144.812459000001
 31
0.0
  0
LINE
  5
3FF2
  8
2-0
  6
CONTINUOUS
 62
     3
 10
10193.011770999999
 20
18435.977418999992
 30
0.0
 11
10193.011770999999
 21
20144.812459000001
 31
0.0
  0
LINE
  5
3FF3
  8
2-0
  6
CONTINUOUS
 62
     3
 10
10230.011943
 20
18430.345688999962
 30
0.0
 11
10230.011943
 21
20144.812459000001
 31
0.0
  0
LINE
  5
3FF4
  8
2-0
  6
CONTINUOUS
 62
     3
 10
10393.00946199998
 20
18435.977418999992
 30
0.0
 11
10393.00946199998
 21
20144.812459000001
 31
0.0
  0
LINE
  5
3FF5
  8
2-0
  6
CONTINUOUS
 62
     3
 10
10430.00864399999
 20
18435.977418999992
 30
0.0
 11
10430.00864399999
 21
20144.812459000001
 31
0.0
  0
LINE
  5
3FF6
  8
2-0
  6
CONTINUOUS
 62
     3
 10
10630.014252000001
 20
18430.345688999962
 30
0.0
 11
10630.014252000001
 21
20144.812459000001
 31
0.0
  0
LINE
  5
3FF7
  8
2-0
  6
CONTINUOUS
 62
     3
 10
10793.011770999999
 20
16257.737725999979
 30
0.0
 11
10793.011770999999
 21
20144.812459000001
 31
0.0
  0
LINE
  5
3FF8
  8
2-0
  6
CONTINUOUS
 62
     3
 10
10830.012932999991
 20
16236.780563
 30
0.0
 11
10830.012932999991
 21
20144.812459000001
 31
0.0
  0
LINE
  5
3FF9
  8
2-0
  6
CONTINUOUS
 62
     3
 10
10993.01936
 20
16144.93800099999
 30
0.0
 11
10993.01936
 21
20144.812459000001
 31
0.0
  0
LINE
  5
3FFA
  8
2-0
  6
CONTINUOUS
 62
     3
 10
11030.014582
 20
16108.47968999996
 30
0.0
 11
11030.014582
 21
20144.812459000001
 31
0.0
  0
LINE
  5
3FFB
  8
2-0
  6
CONTINUOUS
 62
     3
 10
11193.013091000001
 20
16016.141085999971
 30
0.0
 11
11193.013091000001
 21
20144.812459000001
 31
0.0
  0
LINE
  5
3FFC
  8
2-0
  6
CONTINUOUS
 62
     3
 10
11230.014252000001
 20
15995.17699499998
 30
0.0
 11
11230.014252000001
 21
20144.812459000001
 31
0.0
  0
LINE
  5
3FFD
  8
2-0
  6
CONTINUOUS
 62
     3
 10
11393.012761
 20
15902.83542199996
 30
0.0
 11
11393.012761
 21
20144.812459000001
 31
0.0
  0
LINE
  5
3FFE
  8
2-0
  6
CONTINUOUS
 62
     3
 10
11430.012932999991
 20
15881.877268999981
 30
0.0
 11
11430.012932999991
 21
20144.812459000001
 31
0.0
  0
LINE
  5
3FFF
  8
2-0
  6
CONTINUOUS
 62
     3
 10
11593.01936
 20
15789.534706999981
 30
0.0
 11
11593.01936
 21
20144.812459000001
 31
0.0
  0
LINE
  5
4000
  8
2-0
  6
CONTINUOUS
 62
     3
 10
11630.016562000001
 20
15768.577543999971
 30
0.0
 11
11630.016562000001
 21
20144.812459000001
 31
0.0
  0
LINE
  5
4001
  8
2-0
  6
CONTINUOUS
 62
     3
 10
11793.01606
 20
15676.23498199998
 30
0.0
 11
11793.01606
 21
20144.812459000001
 31
0.0
  0
LINE
  5
4002
  8
2-0
  6
CONTINUOUS
 62
     3
 10
11830.014252000001
 20
15655.27682899998
 30
0.0
 11
11830.014252000001
 21
20144.812459000001
 31
0.0
  0
LINE
  5
4003
  8
2-0
  6
CONTINUOUS
 62
     3
 10
11993.01770999998
 20
15562.935255999961
 30
0.0
 11
11993.01770999998
 21
20144.812459000001
 31
0.0
  0
LINE
  5
4004
  8
2-0
  6
CONTINUOUS
 62
     3
 10
12030.017881
 20
15541.971164999961
 30
0.0
 11
12030.017881
 21
20144.812459000001
 31
0.0
  0
LINE
  5
4005
  8
2-0
  6
CONTINUOUS
 62
     3
 10
12193.018369999991
 20
15449.629591999979
 30
0.0
 11
12193.018369999991
 21
20144.812459000001
 31
0.0
  0
LINE
  5
4006
  8
2-0
  6
CONTINUOUS
 62
     3
 10
12230.015572
 20
15428.67143899998
 30
0.0
 11
12230.015572
 21
20144.812459000001
 31
0.0
  0
LINE
  5
4007
  8
2-0
  6
CONTINUOUS
 62
     3
 10
12393.016059999991
 20
15336.33481499996
 30
0.0
 11
12393.016059999991
 21
20144.812459000001
 31
0.0
  0
LINE
  5
4008
  8
2-0
  6
CONTINUOUS
 62
     3
 10
12430.014252000001
 20
15315.371713999961
 30
0.0
 11
12430.014252000001
 21
20144.812459000001
 31
0.0
  0
LINE
  5
4009
  8
2-0
  6
CONTINUOUS
 62
     3
 10
12593.01771
 20
15223.029150999981
 30
0.0
 11
12593.01771
 21
20144.812459000001
 31
0.0
  0
LINE
  5
400A
  8
2-0
  6
CONTINUOUS
 62
     3
 10
12630.016891999991
 20
15202.07198799998
 30
0.0
 11
12630.016891999991
 21
20144.812459000001
 31
0.0
  0
LINE
  5
400B
  8
2-0
  6
CONTINUOUS
 62
     3
 10
12793.018369999991
 20
15125.226615
 30
0.0
 11
12793.018369999991
 21
20144.812459000001
 31
0.0
  0
LINE
  5
400C
  8
2-0
  6
CONTINUOUS
 62
     3
 10
12830.015571999989
 20
15104.263513
 30
0.0
 11
12830.015571999989
 21
20144.812459000001
 31
0.0
  0
LINE
  5
400D
  8
2-0
  6
CONTINUOUS
 62
     3
 10
12993.021009
 20
15011.926888999989
 30
0.0
 11
12993.021009
 21
20144.812459000001
 31
0.0
  0
LINE
  5
400E
  8
2-0
  6
CONTINUOUS
 62
     3
 10
13030.019200999999
 20
14990.96279799999
 30
0.0
 11
13030.019200999999
 21
20144.812459000001
 31
0.0
  0
LINE
  5
400F
  8
2-0
  6
CONTINUOUS
 62
     3
 10
13193.020678999999
 20
14898.62122499999
 30
0.0
 11
13193.020678999999
 21
20144.812459000001
 31
0.0
  0
LINE
  5
4010
  8
2-0
  6
CONTINUOUS
 62
     3
 10
13230.018870999989
 20
14877.663071999999
 30
0.0
 11
13230.018870999989
 21
20144.812459000001
 31
0.0
  0
LINE
  5
4011
  8
2-0
  6
CONTINUOUS
 62
     3
 10
13430.020521
 20
14763.863347
 30
0.0
 11
13430.020521
 21
20144.812459000001
 31
0.0
  0
LINE
  5
4012
  8
2-0
  6
CONTINUOUS
 62
     3
 10
13393.02133899999
 20
14785.32051
 30
0.0
 11
13393.02133899999
 21
20144.812459000001
 31
0.0
  0
LINE
  5
4013
  8
2-0
  6
CONTINUOUS
 62
     3
 10
13603.52243400002
 20
14671.520784
 30
0.0
 11
13603.52243400002
 21
20144.812459000001
 31
0.0
  0
LINE
  5
4014
  8
2-0
  6
CONTINUOUS
 62
     3
 10
13640.524585000019
 20
14650.557683000001
 30
0.0
 11
13640.524585000019
 21
20144.812459000001
 31
0.0
  0
LINE
  5
4015
  8
2-0
  6
CONTINUOUS
 62
     3
 10
10593.015071
 20
18430.345688999962
 30
0.0
 11
10593.015071
 21
20144.812459000001
 31
0.0
  0
LINE
  5
4016
  8
2-0
  6
CENTER2
 62
     6
 10
8280.5073169999996
 20
21152.813013999988
 30
0.0
 11
8280.5073169999996
 21
19063.316340000001
 31
0.0
  0
LINE
  5
4017
  8
2-0
  6
CENTER2
 62
     6
 10
10488.506386999999
 20
21152.813013999988
 30
0.0
 11
10488.506386999999
 21
18566.316840999989
 31
0.0
  0
LINE
  5
4018
  8
2-0
  6
CENTER2
 62
     6
 10
13757.00638699999
 20
21152.813013999988
 30
0.0
 11
13757.00638699999
 21
19063.316340000001
 31
0.0
  0
LINE
  5
4019
  8
2-0
  6
CENTER2
 62
     6
 10
17226.670844999979
 20
21222.814729999998
 30
0.0
 11
17226.670844999979
 21
13518.55301099998
 31
0.0
  0
LINE
  5
401A
  8
2-0
  6
CENTER2
 62
     6
 10
26263.676123999961
 20
21222.814729999998
 30
0.0
 11
26263.676123999961
 21
13518.55301099998
 31
0.0
  0
LINE
  5
401B
  8
2-0
  6
CONTINUOUS
 62
     3
 10
26306.174407999959
 20
19897.521100999991
 30
0.0
 11
26306.174407999959
 21
19250.912570499971
 31
0.0
  0
LINE
  5
401C
  8
2-0
  6
CONTINUOUS
 62
     3
 10
21817.255674
 20
17445.111367000001
 30
0.0
 11
21817.255674
 21
20324.022236000001
 31
0.0
  0
LINE
  5
401D
  8
2-0
  6
CONTINUOUS
 62
     3
 10
22117.255674
 20
17594.594712999999
 30
0.0
 11
22117.255674
 21
20129.536514999982
 31
0.0
  0
LINE
  5
401E
  8
2-0
  6
CONTINUOUS
 62
     3
 10
17184.174539999989
 20
19897.521100999991
 30
0.0
 11
17184.174539999989
 21
19250.912570499971
 31
0.0
  0
LINE
  5
401F
  8
2-0
  6
CONTINUOUS
 62
     3
 10
4926.5029619999978
 20
13951.82112999998
 30
0.0
 11
4926.5029619999978
 21
20162.818160999981
 31
0.0
  0
LINE
  5
4020
  8
2-0
  6
CONTINUOUS
 62
     3
 10
4969.500619999998
 20
14107.81511199998
 30
0.0
 11
4969.500619999998
 21
19779.646708
 31
0.0
  0
LINE
  5
4021
  8
2-0
  6
CONTINUOUS
 62
     3
 10
5012.0073170000014
 20
14107.81511199998
 30
0.0
 11
5012.0073170000014
 21
19755.381768999981
 31
0.0
  0
LINE
  5
4022
  8
2-0
  6
CONTINUOUS
 62
     3
 10
5062.0010089999987
 20
13983.821036999971
 30
0.0
 11
5062.0010089999987
 21
20144.812459000001
 31
0.0
  0
LINE
  5
4023
  8
2-0
  6
CONTINUOUS
 62
     3
 10
5012.0073170000014
 20
14186.81472899998
 30
0.0
 11
9338.5832580000042
 21
14186.81472899998
 31
0.0
  0
LINE
  5
4024
  8
2-0
  6
CONTINUOUS
 62
     3
 10
13824.51196900001
 20
13983.821036999971
 30
0.0
 11
13824.51196900001
 21
20185.311430999991
 31
0.0
  0
LINE
  5
4025
  8
2-0
  6
CONTINUOUS
 62
     3
 10
13842.50777200001
 20
13951.82112999998
 30
0.0
 11
13842.50777200001
 21
20185.311430999991
 31
0.0
  0
LINE
  5
4026
  8
2-0
  6
CONTINUOUS
 62
     3
 10
13757.00638699999
 20
14107.81511199998
 30
0.0
 11
13757.00638699999
 21
14584.569440999991
 31
0.0
  0
LINE
  5
4027
  8
2-0
  6
CONTINUOUS
 62
     3
 10
13799.510610000019
 20
14107.81511199998
 30
0.0
 11
13799.510610000019
 21
14560.49156699999
 31
0.0
  0
LINE
  5
4028
  8
2-0
  6
CONTINUOUS
 62
     3
 10
13704.00972600002
 20
13983.821036999971
 30
0.0
 11
13704.00972600002
 21
20144.812459000001
 31
0.0
  0
LINE
  5
4029
  8
0-1
  6
CONTINUOUS
 62
     3
 10
8210.5046120000006
 20
17062.316444999979
 30
0.0
 11
5082.0055679999987
 21
14144.316444999969
 31
0.0
  0
LINE
  5
402A
  8
0-1
  6
CONTINUOUS
 62
     3
 10
5082.0085380000019
 20
17062.316444999979
 30
0.0
 11
8210.5075810000017
 21
14144.316444999969
 31
0.0
  0
LINE
  5
402B
  8
2-0
  6
CONTINUOUS
 62
     3
 10
9338.5832580000042
 20
16375.23205199999
 30
0.0
 11
9338.5832580000042
 21
13747.029044999979
 31
0.0
  0
LINE
  5
402C
  8
2-0
  6
CONTINUOUS
 62
     3
 10
9638.581279
 20
16524.714408
 30
0.0
 11
9638.581279
 21
13747.029044999979
 31
0.0
  0
LINE
  5
402D
  8
2-0
  6
DASHED3
 62
     6
 10
10558.507112999991
 20
17062.316444999979
 30
0.0
 11
12427.94206367739
 21
15318.66604850671
 31
0.0
  0
LINE
  5
402E
  8
2-0
  6
DASHED3
 62
     6
 10
13687.010610000019
 20
17062.316444999979
 30
0.0
 11
12048.45851337867
 21
15534.016413853489
 31
0.0
  0
LINE
  5
402F
  8
2-0
  6
CONTINUOUS
 62
     3
 10
21817.255674
 20
16375.23205199999
 30
0.0
 11
21817.255674
 21
13952.911843999969
 31
0.0
  0
LINE
  5
4030
  8
2-0
  6
CONTINUOUS
 62
     3
 10
22117.255674
 20
16524.714408
 30
0.0
 11
22117.255674
 21
13952.911843999969
 31
0.0
  0
LINE
  5
4031
  8
2-0
  6
CENTER2
 62
     6
 10
22995.176123999961
 20
21222.814729999998
 30
0.0
 11
22995.176123999961
 21
13952.911843999969
 31
0.0
  0
LINE
  5
4032
  8
2-0
  6
CENTER2
 62
     6
 10
20495.17084499999
 20
21222.814729999998
 30
0.0
 11
20495.17084499999
 21
13952.911843999969
 31
0.0
  0
LINE
  5
4033
  8
2-0
  6
CONTINUOUS
 62
     3
 10
17265.172480999991
 20
14186.81472899998
 30
0.0
 11
17265.172480999991
 21
20022.814729999998
 31
0.0
  0
LINE
  5
4034
  8
2-0
  6
CONTINUOUS
 62
     3
 10
26225.17250799996
 20
14186.81472899998
 30
0.0
 11
26225.17250799996
 21
20022.814729999998
 31
0.0
  0
CIRCLE
  5
4035
  8
2-0
  6
CONTINUOUS
 62
     4
 10
8280.5073169999996
 20
21352.817632999999
 30
0.0
 40
200.00001
  0
CIRCLE
  5
4036
  8
2-0
  6
CONTINUOUS
 62
     4
 10
5012.0073170000014
 20
21352.817632999999
 30
0.0
 40
200.00001
  0
CIRCLE
  5
4037
  8
2-0
  6
CONTINUOUS
 62
     4
 10
3482.5045720000021
 20
19980.316444999949
 30
0.0
 40
200.00001
  0
CIRCLE
  5
4038
  8
2-0
  6
CONTINUOUS
 62
     4
 10
3482.5045720000021
 20
17062.316444999979
 30
0.0
 40
200.00001
  0
CIRCLE
  5
4039
  8
2-0
  6
CONTINUOUS
 62
     4
 10
3482.5045720000021
 20
14144.316444999969
 30
0.0
 40
200.00001
  0
ARC
  5
403A
  8
2-0
  6
CONTINUOUS
 62
     3
 10
4931.5057000000024
 20
20197.818028999991
 30
0.0
 40
5.0000029999999951
 50
90.0
 51
180.0
  0
ARC
  5
403B
  8
2-0
  6
CONTINUOUS
 62
     3
 10
4995.0037080000002
 20
20197.818028999991
 30
0.0
 40
5.0000029999999951
 50
0.0
 51
90.0
  0
ARC
  5
403C
  8
2-0
  6
CONTINUOUS
 62
     3
 10
4995.0037080000002
 20
20167.812485999999
 30
0.0
 40
5.0000029999999951
 50
270.0
 51
0.0
  0
ARC
  5
403D
  8
2-0
  6
CONTINUOUS
 62
     3
 10
13837.51245700001
 20
20197.818028999991
 30
0.0
 40
5.0000029999999951
 50
0.0
 51
90.0
  0
ARC
  5
403E
  8
2-0
  6
CONTINUOUS
 62
     3
 10
13774.01049100001
 20
20197.818028999991
 30
0.0
 40
5.0000029999999951
 50
90.0
 51
180.0
  0
ARC
  5
403F
  8
2-0
  6
CONTINUOUS
 62
     3
 10
13774.01049100001
 20
20167.812485999999
 30
0.0
 40
5.0000029999999951
 50
180.0
 51
270.0
  0
CIRCLE
  5
4040
  8
2-0
  6
CONTINUOUS
 62
     4
 10
10488.506386999999
 20
21352.817632999999
 30
0.0
 40
200.00001
  0
CIRCLE
  5
4041
  8
2-0
  6
CONTINUOUS
 62
     4
 10
13757.00638699999
 20
21352.817632999999
 30
0.0
 40
200.00001
  0
CIRCLE
  5
4042
  8
2-0
  6
CONTINUOUS
 62
     4
 10
15697.218577999991
 20
19980.316444999949
 30
0.0
 40
200.00001
  0
CIRCLE
  5
4043
  8
2-0
  6
CONTINUOUS
 62
     4
 10
15697.218577999991
 20
17062.316444999979
 30
0.0
 40
200.00001
  0
CIRCLE
  5
4044
  8
2-0
  6
CONTINUOUS
 62
     4
 10
15697.218577999991
 20
14144.316444999969
 30
0.0
 40
200.00001
  0
CIRCLE
  5
4045
  8
2-0
  6
CONTINUOUS
 62
     4
 10
20495.17084499999
 20
21422.819349000001
 30
0.0
 40
200.00001
  0
CIRCLE
  5
4046
  8
2-0
  6
CONTINUOUS
 62
     4
 10
17226.670844999979
 20
21422.819349000001
 30
0.0
 40
200.00001
  0
CIRCLE
  5
4047
  8
2-0
  6
CONTINUOUS
 62
     4
 10
22995.176123999961
 20
21422.819349000001
 30
0.0
 40
200.00001
  0
CIRCLE
  5
4048
  8
2-0
  6
CONTINUOUS
 62
     4
 10
26263.676123999961
 20
21422.819349000001
 30
0.0
 40
200.00001
  0
TEXT
  5
4049
  8
2-0
  6
CONTINUOUS
 62
     7
 10
6812.199905000004
 20
13364.31881999998
 30
0.0
 40
160.0
  1
鼻隠し前
 72
     4
 11
7174.866571666671
 21
13444.31881999998
 31
0.0
  0
TEXT
  5
404A
  8
2-0
  6
CONTINUOUS
 62
     7
 10
3364.6719960000019
 20
12964.31651099997
 30
0.0
 40
160.0
  1
ケラバ 左
 50
0.000473
 72
     4
 11
3780.671335553237
 21
13044.319945246711
 31
0.0
  0
TEXT
  5
404B
  8
2-0
  6
CONTINUOUS
 62
     7
 10
6350.7577930000034
 20
14538.66029999997
 30
0.0
 40
160.0
  1
桁（前）
 50
0.000266
 72
     4
 11
6670.7574215904897
 21
14618.66178562337
 31
0.0
  0
TEXT
  5
404C
  8
2-0
  6
CONTINUOUS
 62
     7
 10
24660.521430999968
 20
13584.317566999969
 30
0.0
 40
160.0
  1
前柱（右）
 50
0.000213
 72
     4
 11
25076.521133592989
 21
13664.31911350076
 31
0.0
  0
TEXT
  5
404D
  8
2-0
  6
CONTINUOUS
 62
     7
 10
24865.116553999971
 20
16512.809582999991
 30
0.0
 40
160.0
  1
壁パネル
 50
359.99982299999999
 72
     4
 11
25227.783467803521
 21
16592.808462637859
 31
0.0
  0
TEXT
  5
404E
  8
2-0
  6
CONTINUOUS
 62
     7
 10
24585.113649999948
 20
17349.997479000001
 30
0.0
 40
160.0
  1
中柱（左右）
 50
0.000354
 72
     4
 11
25102.446489046171
 21
17430.000675324649
 31
0.0
  0
TEXT
  5
404F
  8
2-0
  6
CONTINUOUS
 62
     7
 10
25265.115893999959
 20
14557.358832999969
 30
0.0
 40
160.0
  1
下枠
 50
0.001063
 72
     4
 11
25435.781076409261
 21
14637.36199933926
 31
0.0
  0
TEXT
  5
4050
  8
2-0
  6
CONTINUOUS
 62
     7
 10
24760.081317999971
 20
18953.26621749996
 30
0.0
 40
160.0
  1
間柱（側）
 72
     4
 11
25181.4146513333
 21
19033.26621749996
 31
0.0
  0
TEXT
  5
4051
  8
2-0
  6
CONTINUOUS
 62
     7
 10
27078.671636999959
 20
20832.813937999999
 30
0.0
 40
160.0
  1
後柱（左右）
 50
0.000354
 72
     4
 11
27590.671142712948
 21
20912.817101372832
 31
0.0
  0
TEXT
  5
4052
  8
2-0
  6
CONTINUOUS
 62
     7
 10
8228.8785039999966
 20
21257.290024999991
 30
0.0
 40
160.0
  1
2
 72
     4
 11
8282.2118373333305
 21
21337.290024999991
 31
0.0
  0
TEXT
  5
4053
  8
2-0
  6
CONTINUOUS
 62
     7
 10
4967.7987280000007
 20
21264.057999000001
 30
0.0
 40
160.0
  1
1
 50
359.99574699999999
 72
     4
 11
4994.4713329014439
 21
21344.056019343519
 31
0.0
  0
TEXT
  5
4054
  8
2-0
  6
CONTINUOUS
 62
     7
 10
3434.5054530000002
 20
19885.836003
 30
0.0
 40
160.0
  1
C
 72
     4
 11
3487.8387863333328
 21
19965.836003
 31
0.0
  0
TEXT
  5
4055
  8
2-0
  6
CONTINUOUS
 62
     7
 10
3434.726664000003
 20
16981.928195999979
 30
0.0
 40
160.0
  1
B
 72
     4
 11
3488.059997333336
 21
17061.928195999979
 31
0.0
  0
TEXT
  5
4056
  8
2-0
  6
CONTINUOUS
 62
     7
 10
3434.768481000001
 20
14055.709233999971
 30
0.0
 40
160.0
  1
A
 50
359.99787299999991
 72
     4
 11
3488.104784148838
 21
14135.70725404334
 31
0.0
  0
TEXT
  5
4057
  8
2-0
  6
CONTINUOUS
 62
     7
 10
23394.264885999972
 20
14722.154744999951
 30
0.0
 40
160.0
  1
前柱（中）
 72
     4
 11
23810.264885999972
 21
14802.154744999951
 31
0.0
  0
TEXT
  5
4058
  8
2-0
  6
CONTINUOUS
 62
     7
 10
19331.039721000008
 20
19385.696777000001
 30
0.0
 40
160.0
  1
間柱（後）
 72
     4
 11
19752.37305433334
 21
19465.696777000001
 31
0.0
  0
TEXT
  5
4059
  8
2-0
  6
CONTINUOUS
 62
     7
 10
23265.46948899997
 20
19454.441498
 30
0.0
 40
160.0
  1
後柱（中）
 72
     4
 11
23681.46948899997
 21
19534.441498
 31
0.0
  0
TEXT
  5
405A
  8
2-0
  6
CONTINUOUS
 62
     7
 10
15649.21921099996
 20
19885.836003
 30
0.0
 40
160.0
  1
C
 72
     4
 11
15702.552544333301
 21
19965.836003
 31
0.0
  0
TEXT
  5
405B
  8
2-0
  6
CONTINUOUS
 62
     7
 10
15649.43992699997
 20
16991.922363000001
 30
0.0
 40
160.0
  1
B
 72
     4
 11
15702.77326033331
 21
17071.922363000001
 31
0.0
  0
TEXT
  5
405C
  8
2-0
  6
CONTINUOUS
 62
     7
 10
15649.482486999979
 20
14055.70923399998
 30
0.0
 40
160.0
  1
A
 72
     4
 11
15702.815820333321
 21
14135.70923399998
 31
0.0
  0
TEXT
  5
405D
  8
2-0
  6
CONTINUOUS
 62
     7
 10
20443.539061999989
 20
21327.293720000001
 30
0.0
 40
160.0
  1
2
 72
     4
 11
20496.872395333321
 21
21407.293720000001
 31
0.0
  0
TEXT
  5
405E
  8
2-0
  6
CONTINUOUS
 62
     7
 10
17182.464235999989
 20
21334.051796999989
 30
0.0
 40
160.0
  1
1
 72
     4
 11
17209.13090266666
 21
21414.051796999989
 31
0.0
  0
TEXT
  5
405F
  8
2-0
  6
CONTINUOUS
 62
     7
 10
26212.270005999952
 20
21342.431099000001
 30
0.0
 40
160.0
  1
n
 72
     4
 11
26265.60333933328
 21
21395.76443233333
 31
0.0
  0
TEXT
  5
4060
  8
2-0
  6
CONTINUOUS
 62
     7
 10
22835.221124999978
 20
21354.927800000001
 30
0.0
 40
140.0
  1
n-1
 72
     4
 11
22998.55445833331
 21
21424.927800000001
 31
0.0
  0
TEXT
  5
4061
  8
2-0
  6
CONTINUOUS
 62
     7
 10
13705.606207000001
 20
21272.42938300001
 30
0.0
 40
160.0
  1
n
 72
     4
 11
13758.93954033334
 21
21325.762716333342
 31
0.0
  0
TEXT
  5
4062
  8
2-0
  6
CONTINUOUS
 62
     7
 10
10328.554356999981
 20
21284.924104999991
 30
0.0
 40
140.0
  1
n-1
 72
     4
 11
10491.88769033332
 21
21354.924104999991
 31
0.0
  0
TEXT
  5
4063
  8
2-0
  6
CONTINUOUS
 62
     7
 10
8200.0522590000037
 20
12001.45556599999
 30
0.0
 40
160.0
  1
小 屋 伏 図
 50
359.99980699999981
 72
     4
 11
8701.3858618093291
 21
12081.4538772655
 31
0.0
  0
TEXT
  5
4064
  8
2-0
  6
CONTINUOUS
 62
     7
 10
20923.42971299999
 20
12037.442224
 30
0.0
 40
160.0
  1
平 面 図
 50
0.000266
 72
     4
 11
21280.762699683812
 21
12112.110549612949
 31
0.0
  0
TEXT
  5
4065
  8
2-0
  6
CONTINUOUS
 62
     7
 10
22632.254884821439
 20
12059.305918612939
 30
0.0
 40
160.0
  1
1
 72
     4
 11
22658.921551488111
 21
12139.305918612939
 31
0.0
  0
TEXT
  5
4066
  8
2-0
  6
CONTINUOUS
 62
     7
 10
22875.34360207212
 20
11979.307386612951
 30
0.0
 40
160.0
  1
80
 72
     4
 11
22995.34360207212
 21
12059.307386612951
 31
0.0
  0
TEXT
  5
4067
  8
2-0
  6
CONTINUOUS
 62
     7
 10
22133.256850821439
 20
12032.110549612949
 30
0.0
 40
160.0
  1
(S=  /   )
 72
     4
 11
22693.256850821439
 21
12112.110549612949
 31
0.0
  0
TEXT
  5
4068
  8
2-0
  6
CONTINUOUS
 62
     7
 10
10052.878046946949
 20
12028.649246265501
 30
0.0
 40
160.0
  1
1
 72
     4
 11
10079.544713613621
 21
12108.649246265501
 31
0.0
  0
TEXT
  5
4069
  8
2-0
  6
CONTINUOUS
 62
     7
 10
10295.96676419765
 20
11948.650714265499
 30
0.0
 40
160.0
  1
80
 72
     4
 11
10415.96676419765
 21
12028.650714265499
 31
0.0
  0
TEXT
  5
406A
  8
2-0
  6
CONTINUOUS
 62
     7
 10
9553.88001294694
 20
12001.4538772655
 30
0.0
 40
160.0
  1
(S=  /   )
 72
     4
 11
10113.88001294694
 21
12081.4538772655
 31
0.0
  0
LINE
  5
406B
  8
2-0
  6
CONTINUOUS
 62
     3
 10
25524.176704999962
 20
20022.814729999998
 30
0.0
 11
25487.175542999961
 21
20022.814729999998
 31
0.0
  0
LINE
  5
406C
  8
2-0
  6
CONTINUOUS
 62
     3
 10
25524.176704999962
 20
19992.811166999989
 30
0.0
 11
25524.176704999962
 21
20022.814729999998
 31
0.0
  0
LINE
  5
406D
  8
2-0
  6
CONTINUOUS
 62
     3
 10
25518.176783999941
 20
19992.811166999989
 30
0.0
 11
25524.176704999962
 21
19992.811166999989
 31
0.0
  0
LINE
  5
406E
  8
2-0
  6
CONTINUOUS
 62
     3
 10
25534.274228999959
 20
19992.811166999989
 30
0.0
 11
25534.274228999959
 21
20022.814729999998
 31
0.0
  0
LINE
  5
406F
  8
2-0
  6
CONTINUOUS
 62
     3
 10
25516.270507999961
 20
19992.811166999989
 30
0.0
 11
25534.274228999959
 21
19992.811166999989
 31
0.0
  0
LINE
  5
4070
  8
2-0
  6
CONTINUOUS
 62
     3
 10
25516.270507999961
 20
20017.820403999991
 30
0.0
 11
25516.270507999961
 21
19992.811166999989
 31
0.0
  0
LINE
  5
4071
  8
2-0
  6
CONTINUOUS
 62
     3
 10
25521.27077199996
 20
20017.820403999991
 30
0.0
 11
25516.270507999961
 21
20017.820403999991
 31
0.0
  0
LINE
  5
4072
  8
2-0
  6
CONTINUOUS
 62
     3
 10
25521.27077199996
 20
20010.814888000001
 30
0.0
 11
25521.27077199996
 21
20017.820403999991
 31
0.0
  0
LINE
  5
4073
  8
2-0
  6
CONTINUOUS
 62
     3
 10
25490.081476999942
 20
20010.814888000001
 30
0.0
 11
25490.081476999942
 21
20017.820403999991
 31
0.0
  0
LINE
  5
4074
  8
2-0
  6
CONTINUOUS
 62
     3
 10
25490.081476999942
 20
20017.820403999991
 30
0.0
 11
25495.081740999962
 21
20017.820403999991
 31
0.0
  0
LINE
  5
4075
  8
2-0
  6
CONTINUOUS
 62
     3
 10
25495.081740999962
 20
20017.820403999991
 30
0.0
 11
25495.081740999962
 21
19992.811166999989
 31
0.0
  0
LINE
  5
4076
  8
2-0
  6
CONTINUOUS
 62
     3
 10
25495.081740999962
 20
19992.811166999989
 30
0.0
 11
25477.081977999958
 21
19992.811166999989
 31
0.0
  0
LINE
  5
4077
  8
2-0
  6
CONTINUOUS
 62
     3
 10
25477.081977999958
 20
19992.811166999989
 30
0.0
 11
25477.081977999958
 21
20022.814729999998
 31
0.0
  0
LINE
  5
4078
  8
2-0
  6
CONTINUOUS
 62
     3
 10
25493.17546399996
 20
19992.811166999989
 30
0.0
 11
25487.175542999961
 21
19992.811166999989
 31
0.0
  0
LINE
  5
4079
  8
2-0
  6
CONTINUOUS
 62
     3
 10
25487.175542999961
 20
19992.811166999989
 30
0.0
 11
25487.175542999961
 21
20022.814729999998
 31
0.0
  0
LINE
  5
407A
  8
2-0
  6
CONTINUOUS
 62
     3
 10
24119.265822499961
 20
20010.814888000001
 30
0.0
 11
24119.265822499961
 21
20017.820403999991
 31
0.0
  0
LINE
  5
407B
  8
2-0
  6
CONTINUOUS
 62
     3
 10
24119.265822499961
 20
20017.820403999991
 30
0.0
 11
24114.26555849997
 21
20017.820403999991
 31
0.0
  0
LINE
  5
407C
  8
2-0
  6
CONTINUOUS
 62
     3
 10
24114.26555849997
 20
20017.820403999991
 30
0.0
 11
24114.26555849997
 21
19992.811166999989
 31
0.0
  0
LINE
  5
407D
  8
2-0
  6
CONTINUOUS
 62
     3
 10
24114.26555849997
 20
19992.811166999989
 30
0.0
 11
24132.271259499961
 21
19992.811166999989
 31
0.0
  0
LINE
  5
407E
  8
2-0
  6
CONTINUOUS
 62
     3
 10
24132.271259499961
 20
19992.811166999989
 30
0.0
 11
24132.271259499961
 21
20022.814729999998
 31
0.0
  0
LINE
  5
407F
  8
2-0
  6
CONTINUOUS
 62
     3
 10
24116.173814499962
 20
19992.811166999989
 30
0.0
 11
24122.175714499961
 21
19992.811166999989
 31
0.0
  0
LINE
  5
4080
  8
2-0
  6
CONTINUOUS
 62
     3
 10
24122.175714499961
 20
19992.811166999989
 30
0.0
 11
24122.175714499961
 21
20022.814729999998
 31
0.0
  0
LINE
  5
4081
  8
2-0
  6
CONTINUOUS
 62
     3
 10
24085.176533499962
 20
20022.814729999998
 30
0.0
 11
24122.175714499961
 21
20022.814729999998
 31
0.0
  0
LINE
  5
4082
  8
2-0
  6
CONTINUOUS
 62
     3
 10
24085.176533499962
 20
19992.811166999989
 30
0.0
 11
24085.176533499962
 21
20022.814729999998
 31
0.0
  0
LINE
  5
4083
  8
2-0
  6
CONTINUOUS
 62
     3
 10
24091.170515499962
 20
19992.811166999989
 30
0.0
 11
24085.176533499962
 21
19992.811166999989
 31
0.0
  0
LINE
  5
4084
  8
2-0
  6
CONTINUOUS
 62
     3
 10
24075.080988499962
 20
19992.811166999989
 30
0.0
 11
24075.080988499962
 21
20022.814729999998
 31
0.0
  0
LINE
  5
4085
  8
2-0
  6
CONTINUOUS
 62
     3
 10
24093.07679149996
 20
19992.811166999989
 30
0.0
 11
24075.080988499962
 21
19992.811166999989
 31
0.0
  0
LINE
  5
4086
  8
2-0
  6
CONTINUOUS
 62
     3
 10
24093.07679149996
 20
20017.820403999991
 30
0.0
 11
24093.07679149996
 21
19992.811166999989
 31
0.0
  0
LINE
  5
4087
  8
2-0
  6
CONTINUOUS
 62
     3
 10
24088.076527499961
 20
20017.820403999991
 30
0.0
 11
24093.07679149996
 21
20017.820403999991
 31
0.0
  0
LINE
  5
4088
  8
2-0
  6
CONTINUOUS
 62
     3
 10
24088.076527499961
 20
20010.814888000001
 30
0.0
 11
24088.076527499961
 21
20017.820403999991
 31
0.0
  0
LINE
  5
4089
  8
2-0
  6
CONTINUOUS
 62
     3
 10
24789.075538499961
 20
20010.814888000001
 30
0.0
 11
24789.075538499961
 21
20017.820403999991
 31
0.0
  0
LINE
  5
408A
  8
2-0
  6
CONTINUOUS
 62
     3
 10
24789.075538499961
 20
20017.820403999991
 30
0.0
 11
24794.07580149997
 21
20017.820403999991
 31
0.0
  0
LINE
  5
408B
  8
2-0
  6
CONTINUOUS
 62
     3
 10
24794.07580149997
 20
20017.820403999991
 30
0.0
 11
24794.07580149997
 21
19992.811166999989
 31
0.0
  0
LINE
  5
408C
  8
2-0
  6
CONTINUOUS
 62
     3
 10
24794.07580149997
 20
19992.811166999989
 30
0.0
 11
24776.081978499951
 21
19992.811166999989
 31
0.0
  0
LINE
  5
408D
  8
2-0
  6
CONTINUOUS
 62
     3
 10
24776.081978499951
 20
19992.811166999989
 30
0.0
 11
24776.081978499951
 21
20022.814729999998
 31
0.0
  0
LINE
  5
408E
  8
2-0
  6
CONTINUOUS
 62
     3
 10
24792.173484499959
 20
19992.811166999989
 30
0.0
 11
24786.175543499961
 21
19992.811166999989
 31
0.0
  0
LINE
  5
408F
  8
2-0
  6
CONTINUOUS
 62
     3
 10
24786.175543499961
 20
19992.811166999989
 30
0.0
 11
24786.175543499961
 21
20022.814729999998
 31
0.0
  0
LINE
  5
4090
  8
2-0
  6
CONTINUOUS
 62
     3
 10
24823.176704499961
 20
20022.814729999998
 30
0.0
 11
24786.175543499961
 21
20022.814729999998
 31
0.0
  0
LINE
  5
4091
  8
2-0
  6
CONTINUOUS
 62
     3
 10
24823.176704499961
 20
19992.811166999989
 30
0.0
 11
24823.176704499961
 21
20022.814729999998
 31
0.0
  0
LINE
  5
4092
  8
2-0
  6
CONTINUOUS
 62
     3
 10
24817.170845499961
 20
19992.811166999989
 30
0.0
 11
24823.176704499961
 21
19992.811166999989
 31
0.0
  0
LINE
  5
4093
  8
2-0
  6
CONTINUOUS
 62
     3
 10
24833.270269499961
 20
19992.811166999989
 30
0.0
 11
24833.270269499961
 21
20022.814729999998
 31
0.0
  0
LINE
  5
4094
  8
2-0
  6
CONTINUOUS
 62
     3
 10
24815.274466499959
 20
19992.811166999989
 30
0.0
 11
24833.270269499961
 21
19992.811166999989
 31
0.0
  0
LINE
  5
4095
  8
2-0
  6
CONTINUOUS
 62
     3
 10
24815.274466499959
 20
20017.820403999991
 30
0.0
 11
24815.274466499959
 21
19992.811166999989
 31
0.0
  0
LINE
  5
4096
  8
2-0
  6
CONTINUOUS
 62
     3
 10
24820.264832499961
 20
20017.820403999991
 30
0.0
 11
24815.274466499959
 21
20017.820403999991
 31
0.0
  0
LINE
  5
4097
  8
2-0
  6
CONTINUOUS
 62
     3
 10
24820.264832499961
 20
20010.814888000001
 30
0.0
 11
24820.264832499961
 21
20017.820403999991
 31
0.0
  0
LINE
  5
4098
  8
2-0
  6
CONTINUOUS
 62
     3
 10
24132.271259499961
 20
20022.814729999998
 30
0.0
 11
24776.081978499951
 21
20022.814729999998
 31
0.0
  0
LINE
  5
4099
  8
2-0
  6
CONTINUOUS
 62
     3
 10
23431.47514999998
 20
20022.814729999998
 30
0.0
 11
24075.080988499962
 21
20022.814729999998
 31
0.0
  0
LINE
  5
409A
  8
2-0
  6
CONTINUOUS
 62
     3
 10
26181.559753999962
 20
20022.814729999998
 30
0.0
 11
25534.274228999959
 21
20022.814729999998
 31
0.0
  0
LINE
  5
409B
  8
2-0
  6
CONTINUOUS
 62
     3
 10
25477.081977999958
 20
20022.814729999998
 30
0.0
 11
24833.270269499961
 21
20022.814729999998
 31
0.0
  0
LINE
  5
409C
  8
2-0
  6
CONTINUOUS
 62
     3
 10
23418.267801999958
 20
20010.814888000001
 30
0.0
 11
23418.267801999958
 21
20017.820403999991
 31
0.0
  0
LINE
  5
409D
  8
2-0
  6
CONTINUOUS
 62
     3
 10
23418.267801999958
 20
20017.820403999991
 30
0.0
 11
23413.26753799996
 21
20017.820403999991
 31
0.0
  0
LINE
  5
409E
  8
2-0
  6
CONTINUOUS
 62
     3
 10
23413.26753799996
 20
20017.820403999991
 30
0.0
 11
23413.26753799996
 21
19992.811166999989
 31
0.0
  0
LINE
  5
409F
  8
2-0
  6
CONTINUOUS
 62
     3
 10
23413.26753799996
 20
19992.811166999989
 30
0.0
 11
23431.26927999996
 21
19992.811166999989
 31
0.0
  0
LINE
  5
40A0
  8
2-0
  6
CONTINUOUS
 62
     3
 10
23431.26927999996
 20
19992.811166999989
 30
0.0
 11
23431.26927999996
 21
20022.814729999998
 31
0.0
  0
LINE
  5
40A1
  8
2-0
  6
CONTINUOUS
 62
     3
 10
23415.16985499996
 20
19992.811166999989
 30
0.0
 11
23421.17373499996
 21
19992.811166999989
 31
0.0
  0
LINE
  5
40A2
  8
2-0
  6
CONTINUOUS
 62
     3
 10
23421.17373499996
 20
19992.811166999989
 30
0.0
 11
23421.17373499996
 21
20022.814729999998
 31
0.0
  0
LINE
  5
40A3
  8
2-0
  6
CONTINUOUS
 62
     3
 10
23384.178512999959
 20
20022.814729999998
 30
0.0
 11
23421.17373499996
 21
20022.814729999998
 31
0.0
  0
LINE
  5
40A4
  8
2-0
  6
CONTINUOUS
 62
     3
 10
23384.178512999959
 20
19992.811166999989
 30
0.0
 11
23384.178512999959
 21
20022.814729999998
 31
0.0
  0
LINE
  5
40A5
  8
2-0
  6
CONTINUOUS
 62
     3
 10
23390.172494999981
 20
19992.811166999989
 30
0.0
 11
23384.178512999959
 21
19992.811166999989
 31
0.0
  0
LINE
  5
40A6
  8
2-0
  6
CONTINUOUS
 62
     3
 10
23374.082967999959
 20
19992.811166999989
 30
0.0
 11
23374.082967999959
 21
20022.814729999998
 31
0.0
  0
LINE
  5
40A7
  8
2-0
  6
CONTINUOUS
 62
     3
 10
23392.078770999971
 20
19992.811166999989
 30
0.0
 11
23374.082967999959
 21
19992.811166999989
 31
0.0
  0
LINE
  5
40A8
  8
2-0
  6
CONTINUOUS
 62
     3
 10
23392.078770999971
 20
20017.820403999991
 30
0.0
 11
23392.078770999971
 21
19992.811166999989
 31
0.0
  0
LINE
  5
40A9
  8
2-0
  6
CONTINUOUS
 62
     3
 10
23387.080486999981
 20
20017.820403999991
 30
0.0
 11
23392.078770999971
 21
20017.820403999991
 31
0.0
  0
LINE
  5
40AA
  8
2-0
  6
CONTINUOUS
 62
     3
 10
23387.080486999981
 20
20010.814888000001
 30
0.0
 11
23387.080486999981
 21
20017.820403999991
 31
0.0
  0
LINE
  5
40AB
  8
2-0
  6
CONTINUOUS
 62
     3
 10
23077.98136599996
 20
20022.814729999998
 30
0.0
 11
23374.082967999959
 21
20022.814729999998
 31
0.0
  0
LINE
  5
40AC
  8
2-0
  6
CONTINUOUS
 62
     3
 10
22256.365577999961
 20
20022.814729999998
 30
0.0
 11
22219.364415999971
 21
20022.814729999998
 31
0.0
  0
LINE
  5
40AD
  8
2-0
  6
CONTINUOUS
 62
     3
 10
22256.365577999961
 20
19992.811166999989
 30
0.0
 11
22256.365577999961
 21
20022.814729999998
 31
0.0
  0
LINE
  5
40AE
  8
2-0
  6
CONTINUOUS
 62
     3
 10
22250.365656999958
 20
19992.811166999989
 30
0.0
 11
22256.365577999961
 21
19992.811166999989
 31
0.0
  0
LINE
  5
40AF
  8
2-0
  6
CONTINUOUS
 62
     3
 10
22266.46310199998
 20
19992.811166999989
 30
0.0
 11
22266.46310199998
 21
20022.814729999998
 31
0.0
  0
LINE
  5
40B0
  8
2-0
  6
CONTINUOUS
 62
     3
 10
22248.459380999961
 20
19992.811166999989
 30
0.0
 11
22266.46310199998
 21
19992.811166999989
 31
0.0
  0
LINE
  5
40B1
  8
2-0
  6
CONTINUOUS
 62
     3
 10
22248.459380999961
 20
20017.820403999991
 30
0.0
 11
22248.459380999961
 21
19992.811166999989
 31
0.0
  0
LINE
  5
40B2
  8
2-0
  6
CONTINUOUS
 62
     3
 10
22253.45964499997
 20
20017.820403999991
 30
0.0
 11
22248.459380999961
 21
20017.820403999991
 31
0.0
  0
LINE
  5
40B3
  8
2-0
  6
CONTINUOUS
 62
     3
 10
22253.45964499997
 20
20010.814888000001
 30
0.0
 11
22253.45964499997
 21
20017.820403999991
 31
0.0
  0
LINE
  5
40B4
  8
2-0
  6
CONTINUOUS
 62
     3
 10
22222.27034999997
 20
20010.814888000001
 30
0.0
 11
22222.27034999997
 21
20017.820403999991
 31
0.0
  0
LINE
  5
40B5
  8
2-0
  6
CONTINUOUS
 62
     3
 10
22222.27034999997
 20
20017.820403999991
 30
0.0
 11
22227.270613999968
 21
20017.820403999991
 31
0.0
  0
LINE
  5
40B6
  8
2-0
  6
CONTINUOUS
 62
     3
 10
22227.270613999968
 20
20017.820403999991
 30
0.0
 11
22227.270613999968
 21
19992.811166999989
 31
0.0
  0
LINE
  5
40B7
  8
2-0
  6
CONTINUOUS
 62
     3
 10
22227.270613999968
 20
19992.811166999989
 30
0.0
 11
22209.270850999968
 21
19992.811166999989
 31
0.0
  0
LINE
  5
40B8
  8
2-0
  6
CONTINUOUS
 62
     3
 10
22209.270850999968
 20
19992.811166999989
 30
0.0
 11
22209.270850999968
 21
20022.814729999998
 31
0.0
  0
LINE
  5
40B9
  8
2-0
  6
CONTINUOUS
 62
     3
 10
22225.36433699997
 20
19992.811166999989
 30
0.0
 11
22219.364415999971
 21
19992.811166999989
 31
0.0
  0
LINE
  5
40BA
  8
2-0
  6
CONTINUOUS
 62
     3
 10
22219.364415999971
 20
19992.811166999989
 30
0.0
 11
22219.364415999971
 21
20022.814729999998
 31
0.0
  0
LINE
  5
40BB
  8
2-0
  6
CONTINUOUS
 62
     3
 10
22913.748626999961
 20
20022.814729999998
 30
0.0
 11
22266.46310199998
 21
20022.814729999998
 31
0.0
  0
LINE
  5
40BC
  8
2-0
  6
CONTINUOUS
 62
     3
 10
22209.270850999968
 20
20022.814729999998
 30
0.0
 11
22117.255674
 21
20022.814729999998
 31
0.0
  0
LINE
  5
40BD
  8
2-0
  6
CONTINUOUS
 62
     3
 10
21618.573649499991
 20
20010.814888000001
 30
0.0
 11
21618.573649499991
 21
20017.820403999991
 31
0.0
  0
LINE
  5
40BE
  8
2-0
  6
CONTINUOUS
 62
     3
 10
21618.573649499991
 20
20017.820403999991
 30
0.0
 11
21613.573385499982
 21
20017.820403999991
 31
0.0
  0
LINE
  5
40BF
  8
2-0
  6
CONTINUOUS
 62
     3
 10
21613.573385499982
 20
20017.820403999991
 30
0.0
 11
21613.573385499982
 21
19992.811166999989
 31
0.0
  0
LINE
  5
40C0
  8
2-0
  6
CONTINUOUS
 62
     3
 10
21613.573385499982
 20
19992.811166999989
 30
0.0
 11
21631.579086500002
 21
19992.811166999989
 31
0.0
  0
LINE
  5
40C1
  8
2-0
  6
CONTINUOUS
 62
     3
 10
21631.579086500002
 20
19992.811166999989
 30
0.0
 11
21631.579086500002
 21
20022.814729999998
 31
0.0
  0
LINE
  5
40C2
  8
2-0
  6
CONTINUOUS
 62
     3
 10
21615.481641499991
 20
19992.811166999989
 30
0.0
 11
21621.483541500002
 21
19992.811166999989
 31
0.0
  0
LINE
  5
40C3
  8
2-0
  6
CONTINUOUS
 62
     3
 10
21621.483541500002
 20
19992.811166999989
 30
0.0
 11
21621.483541500002
 21
20022.814729999998
 31
0.0
  0
LINE
  5
40C4
  8
2-0
  6
CONTINUOUS
 62
     3
 10
21584.484360499991
 20
20022.814729999998
 30
0.0
 11
21621.483541500002
 21
20022.814729999998
 31
0.0
  0
LINE
  5
40C5
  8
2-0
  6
CONTINUOUS
 62
     3
 10
21584.484360499991
 20
19992.811166999989
 30
0.0
 11
21584.484360499991
 21
20022.814729999998
 31
0.0
  0
LINE
  5
40C6
  8
2-0
  6
CONTINUOUS
 62
     3
 10
21590.478342499991
 20
19992.811166999989
 30
0.0
 11
21584.484360499991
 21
19992.811166999989
 31
0.0
  0
LINE
  5
40C7
  8
2-0
  6
CONTINUOUS
 62
     3
 10
21574.388815499999
 20
19992.811166999989
 30
0.0
 11
21574.388815499999
 21
20022.814729999998
 31
0.0
  0
LINE
  5
40C8
  8
2-0
  6
CONTINUOUS
 62
     3
 10
21592.384618499978
 20
19992.811166999989
 30
0.0
 11
21574.388815499999
 21
19992.811166999989
 31
0.0
  0
LINE
  5
40C9
  8
2-0
  6
CONTINUOUS
 62
     3
 10
21592.384618499978
 20
20017.820403999991
 30
0.0
 11
21592.384618499978
 21
19992.811166999989
 31
0.0
  0
LINE
  5
40CA
  8
2-0
  6
CONTINUOUS
 62
     3
 10
21587.384354499991
 20
20017.820403999991
 30
0.0
 11
21592.384618499978
 21
20017.820403999991
 31
0.0
  0
LINE
  5
40CB
  8
2-0
  6
CONTINUOUS
 62
     3
 10
21587.384354499991
 20
20010.814888000001
 30
0.0
 11
21587.384354499991
 21
20017.820403999991
 31
0.0
  0
LINE
  5
40CC
  8
2-0
  6
CONTINUOUS
 62
     3
 10
20930.782976999992
 20
20022.814729999998
 30
0.0
 11
21574.388815499999
 21
20022.814729999998
 31
0.0
  0
LINE
  5
40CD
  8
2-0
  6
CONTINUOUS
 62
     3
 10
20917.575628999992
 20
20010.814888000001
 30
0.0
 11
20917.575628999992
 21
20017.820403999991
 31
0.0
  0
LINE
  5
40CE
  8
2-0
  6
CONTINUOUS
 62
     3
 10
20917.575628999992
 20
20017.820403999991
 30
0.0
 11
20912.57536499999
 21
20017.820403999991
 31
0.0
  0
LINE
  5
40CF
  8
2-0
  6
CONTINUOUS
 62
     3
 10
20912.57536499999
 20
20017.820403999991
 30
0.0
 11
20912.57536499999
 21
19992.811166999989
 31
0.0
  0
LINE
  5
40D0
  8
2-0
  6
CONTINUOUS
 62
     3
 10
20912.57536499999
 20
19992.811166999989
 30
0.0
 11
20930.577107000008
 21
19992.811166999989
 31
0.0
  0
LINE
  5
40D1
  8
2-0
  6
CONTINUOUS
 62
     3
 10
20930.577107000008
 20
19992.811166999989
 30
0.0
 11
20930.577107000008
 21
20022.814729999998
 31
0.0
  0
LINE
  5
40D2
  8
2-0
  6
CONTINUOUS
 62
     3
 10
20914.477682000012
 20
19992.811166999989
 30
0.0
 11
20920.48156199999
 21
19992.811166999989
 31
0.0
  0
LINE
  5
40D3
  8
2-0
  6
CONTINUOUS
 62
     3
 10
20920.48156199999
 20
19992.811166999989
 30
0.0
 11
20920.48156199999
 21
20022.814729999998
 31
0.0
  0
LINE
  5
40D4
  8
2-0
  6
CONTINUOUS
 62
     3
 10
20883.486339999989
 20
20022.814729999998
 30
0.0
 11
20920.48156199999
 21
20022.814729999998
 31
0.0
  0
LINE
  5
40D5
  8
2-0
  6
CONTINUOUS
 62
     3
 10
20883.486339999989
 20
19992.811166999989
 30
0.0
 11
20883.486339999989
 21
20022.814729999998
 31
0.0
  0
LINE
  5
40D6
  8
2-0
  6
CONTINUOUS
 62
     3
 10
20889.480321999999
 20
19992.811166999989
 30
0.0
 11
20883.486339999989
 21
19992.811166999989
 31
0.0
  0
LINE
  5
40D7
  8
2-0
  6
CONTINUOUS
 62
     3
 10
20873.390794999988
 20
19992.811166999989
 30
0.0
 11
20873.390794999988
 21
20022.814729999998
 31
0.0
  0
LINE
  5
40D8
  8
2-0
  6
CONTINUOUS
 62
     3
 10
20891.386598000008
 20
19992.811166999989
 30
0.0
 11
20873.390794999988
 21
19992.811166999989
 31
0.0
  0
LINE
  5
40D9
  8
2-0
  6
CONTINUOUS
 62
     3
 10
20891.386598000008
 20
20017.820403999991
 30
0.0
 11
20891.386598000008
 21
19992.811166999989
 31
0.0
  0
LINE
  5
40DA
  8
2-0
  6
CONTINUOUS
 62
     3
 10
20886.388313999989
 20
20017.820403999991
 30
0.0
 11
20891.386598000008
 21
20017.820403999991
 31
0.0
  0
LINE
  5
40DB
  8
2-0
  6
CONTINUOUS
 62
     3
 10
20886.388313999989
 20
20010.814888000001
 30
0.0
 11
20886.388313999989
 21
20017.820403999991
 31
0.0
  0
LINE
  5
40DC
  8
2-0
  6
CONTINUOUS
 62
     3
 10
20577.28919299999
 20
20022.814729999998
 30
0.0
 11
20873.390794999988
 21
20022.814729999998
 31
0.0
  0
LINE
  5
40DD
  8
2-0
  6
CONTINUOUS
 62
     3
 10
21817.255674
 20
20022.814729999998
 30
0.0
 11
21631.579086500002
 21
20022.814729999998
 31
0.0
  0
LINE
  5
40DE
  8
2-0
  6
CONTINUOUS
 62
     3
 10
26306.174407999959
 20
15574.95588199998
 30
0.0
 11
26306.174407999959
 21
14930.91702399998
 31
0.0
  0
LINE
  5
40DF
  8
2-0
  6
CONTINUOUS
 62
     3
 10
26306.174407999959
 20
14873.720813999969
 30
0.0
 11
26306.174407999959
 21
14226.85445199998
 31
0.0
  0
LINE
  5
40E0
  8
SUNPOU
  6
CONTINUOUS
 10
4082.5075409999999
 20
20202.812354000002
 30
0.0
 11
4082.5075409999999
 21
20999.77962177846
 31
0.0
  0
LINE
  5
40E1
  8
SUNPOU
  6
CONTINUOUS
 10
4082.507540999999
 20
13951.82112999998
 30
0.0
 11
4082.507540999999
 21
13276.3950141896
 31
0.0
  0
LINE
  5
40EC
  8
0-1
  6
CONTINUOUS
 62
     3
 10
26313.67678399997
 20
6032.8833859999977
 30
0.0
 11
26213.67744299996
 21
6032.8833859999977
 31
0.0
  0
LINE
  5
40ED
  8
0-1
  6
CONTINUOUS
 62
     3
 10
26213.67744299996
 20
6032.8833859999977
 30
0.0
 11
26213.67744299996
 21
5932.883550999999
 31
0.0
  0
LINE
  5
40EE
  8
0-1
  6
CONTINUOUS
 62
     3
 10
26313.67678399997
 20
5932.883550999999
 30
0.0
 11
26313.67678399997
 21
6032.8833859999977
 31
0.0
  0
LINE
  5
40EF
  8
0-1
  6
CONTINUOUS
 62
     3
 10
26286.17731099997
 20
8381.3837349999976
 30
0.0
 11
26286.17731099997
 21
6032.8833859999977
 31
0.0
  0
LINE
  5
40F0
  8
0-1
  6
CONTINUOUS
 62
     3
 10
26306.17638799996
 20
8251.3828119999926
 30
0.0
 11
26306.17638799996
 21
6032.8833859999977
 31
0.0
  0
LINE
  5
40F1
  8
0-1
  6
CONTINUOUS
 62
     3
 10
26176.17744299995
 20
7940.8834449999968
 30
0.0
 11
26176.17744299995
 21
5932.883550999999
 31
0.0
  0
LINE
  5
40F2
  8
0-1
  6
CONTINUOUS
 62
     3
 10
26221.17783899996
 20
8251.3828119999926
 30
0.0
 11
26221.17783899996
 21
6032.8833859999977
 31
0.0
  0
LINE
  5
40FD
  8
0-1
  6
CONTINUOUS
 62
     3
 10
22150.12755999999
 20
7366.5998659999977
 30
0.0
 11
21904.28322899999
 21
7552.0406719999937
 31
0.0
  0
LINE
  5
40FE
  8
0-1
  6
CONTINUOUS
 62
     3
 10
21762.15973399999
 20
7283.4675089999973
 30
0.0
 11
21604.283229000001
 21
7402.5568309999971
 31
0.0
  0
LINE
  5
40FF
  8
0-1
  6
CONTINUOUS
 62
     3
 10
21544.177126999981
 20
6753.7874319999992
 30
0.0
 11
22150.12755999999
 21
7366.5998659999977
 31
0.0
  0
LINE
  5
4106
  8
0-1
  6
CONTINUOUS
 62
     3
 10
21598.404058999979
 20
6712.8836500000007
 30
0.0
 11
22907.677444000001
 21
6712.8836500000007
 31
0.0
  0
LINE
  5
4107
  8
0-1
  6
CONTINUOUS
 62
     3
 10
21568.00261299999
 20
6777.8836169999986
 30
0.0
 11
22907.677444000001
 21
6777.8836169999986
 31
0.0
  0
LINE
  5
4108
  8
0-1
  6
CONTINUOUS
 62
     3
 10
21632.27560099999
 20
6842.8835839999983
 30
0.0
 11
22907.677444000001
 21
6842.8835839999983
 31
0.0
  0
LINE
  5
4109
  8
0-1
  6
CONTINUOUS
 62
     3
 10
21696.548589999991
 20
6907.8840459999992
 30
0.0
 11
22907.677444000001
 21
6907.8840459999992
 31
0.0
  0
LINE
  5
410A
  8
0-1
  6
CONTINUOUS
 62
     3
 10
21760.81959899998
 20
6972.8830229999967
 30
0.0
 11
22907.677444000001
 21
6972.8830229999967
 31
0.0
  0
LINE
  5
410B
  8
0-1
  6
CONTINUOUS
 62
     3
 10
21825.092587999981
 20
7037.8834849999994
 30
0.0
 11
22907.677444000001
 21
7037.8834849999994
 31
0.0
  0
LINE
  5
410C
  8
0-1
  6
CONTINUOUS
 62
     3
 10
21889.363597999982
 20
7102.8834519999973
 30
0.0
 11
22907.677444000001
 21
7102.8834519999973
 31
0.0
  0
LINE
  5
410D
  8
0-1
  6
CONTINUOUS
 62
     3
 10
21953.636585999979
 20
7167.8839139999982
 30
0.0
 11
22907.677444000001
 21
7167.8839139999982
 31
0.0
  0
LINE
  5
410E
  8
0-1
  6
CONTINUOUS
 62
     3
 10
22017.90759599999
 20
7232.8828909999966
 30
0.0
 11
22907.677444000001
 21
7232.8828909999966
 31
0.0
  0
LINE
  5
410F
  8
0-1
  6
CONTINUOUS
 62
     3
 10
22082.180583999991
 20
7297.883353000002
 30
0.0
 11
22907.677444000001
 21
7297.883353000002
 31
0.0
  0
LINE
  5
4110
  8
0-1
  6
CONTINUOUS
 62
     3
 10
22146.451593999991
 20
7362.883319999999
 30
0.0
 11
22907.677444000001
 21
7362.883319999999
 31
0.0
  0
LINE
  5
4111
  8
0-1
  6
CONTINUOUS
 62
     3
 10
22068.882178999971
 20
7427.8832869999969
 30
0.0
 11
22907.677444000001
 21
7427.8832869999969
 31
0.0
  0
LINE
  5
4112
  8
0-1
  6
CONTINUOUS
 62
     3
 10
21982.707795999992
 20
7492.8837489999969
 30
0.0
 11
22907.677444000001
 21
7492.8837489999969
 31
0.0
  0
LINE
  5
4113
  8
0-1
  6
CONTINUOUS
 62
     3
 10
21904.28322899999
 20
7557.8837159999975
 30
0.0
 11
22907.677444000001
 21
7557.8837159999975
 31
0.0
  0
LINE
  5
4114
  8
0-1
  6
CONTINUOUS
 62
     3
 10
21904.28322899999
 20
7622.8841779999984
 30
0.0
 11
22907.677444000001
 21
7622.8841779999984
 31
0.0
  0
LINE
  5
4115
  8
0-1
  6
CONTINUOUS
 62
     3
 10
21904.28322899999
 20
7687.8831549999968
 30
0.0
 11
22907.677444000001
 21
7687.8831549999968
 31
0.0
  0
LINE
  5
4116
  8
0-1
  6
CONTINUOUS
 62
     3
 10
21904.28322899999
 20
7752.8836170000013
 30
0.0
 11
22907.677444000001
 21
7752.8836170000013
 31
0.0
  0
LINE
  5
4117
  8
0-1
  6
CONTINUOUS
 62
     3
 10
21904.28322899999
 20
7817.8835839999974
 30
0.0
 11
22907.677444000001
 21
7817.8835839999974
 31
0.0
  0
LINE
  5
4118
  8
0-1
  6
CONTINUOUS
 62
     3
 10
21904.28322899999
 20
7872.3431089999976
 30
0.0
 11
22907.677444000001
 21
7872.3431089999976
 31
0.0
  0
LINE
  5
4119
  8
0-1
  6
CONTINUOUS
 62
     3
 10
21904.28322899999
 20
7940.8834449999968
 30
0.0
 11
23710.67113599999
 21
7940.8834449999968
 31
0.0
  0
LINE
  5
411C
  8
0-1
  6
CONTINUOUS
 62
     3
 10
21904.28322899999
 20
6482.1578919999984
 30
0.0
 11
21904.28322899999
 21
5515.5243269999974
 31
0.0
  0
LINE
  5
411D
  8
0-1
  6
CONTINUOUS
 62
     3
 10
21604.283229000001
 20
6332.6720719999967
 30
0.0
 11
21604.283229000001
 21
5515.5243269999974
 31
0.0
  0
LINE
  5
411E
  8
0-1
  6
CONTINUOUS
 62
     3
 10
21904.28322899999
 20
5997.8830229999994
 30
0.0
 11
22907.677444000001
 21
5997.8830229999994
 31
0.0
  0
LINE
  5
411F
  8
0-1
  6
CONTINUOUS
 62
     3
 10
21904.28322899999
 20
6062.8839799999978
 30
0.0
 11
22907.677444000001
 21
6062.8839799999978
 31
0.0
  0
LINE
  5
4120
  8
0-1
  6
CONTINUOUS
 62
     3
 10
21904.28322899999
 20
6127.8829569999971
 30
0.0
 11
22907.677444000001
 21
6127.8829569999971
 31
0.0
  0
LINE
  5
4121
  8
0-1
  6
CONTINUOUS
 62
     3
 10
21904.28322899999
 20
6257.8833859999986
 30
0.0
 11
22907.677444000001
 21
6257.8833859999986
 31
0.0
  0
LINE
  5
4122
  8
0-1
  6
CONTINUOUS
 62
     3
 10
21904.28322899999
 20
6192.8839139999991
 30
0.0
 11
22907.677444000001
 21
6192.8839139999991
 31
0.0
  0
LINE
  5
4123
  8
0-1
  6
CONTINUOUS
 62
     3
 10
21904.28322899999
 20
6322.8833529999984
 30
0.0
 11
22907.677444000001
 21
6322.8833529999984
 31
0.0
  0
LINE
  5
4124
  8
0-1
  6
CONTINUOUS
 62
     3
 10
21904.28322899999
 20
6387.883319999999
 30
0.0
 11
22907.677444000001
 21
6387.883319999999
 31
0.0
  0
LINE
  5
4125
  8
0-1
  6
CONTINUOUS
 62
     3
 10
21904.28322899999
 20
6452.8827919999976
 30
0.0
 11
22907.677444000001
 21
6452.8827919999976
 31
0.0
  0
LINE
  5
4126
  8
0-1
  6
CONTINUOUS
 62
     3
 10
21856.92126799998
 20
6517.8842439999999
 30
0.0
 11
22907.677444000001
 21
6517.8842439999999
 31
0.0
  0
LINE
  5
4127
  8
0-1
  6
CONTINUOUS
 62
     3
 10
21770.746884999979
 20
6582.883221
 30
0.0
 11
22907.677444000001
 21
6582.883221
 31
0.0
  0
LINE
  5
4128
  8
0-1
  6
CONTINUOUS
 62
     3
 10
21684.574481999982
 20
6647.8836829999982
 30
0.0
 11
22907.677444000001
 21
6647.8836829999982
 31
0.0
  0
LINE
  5
4129
  8
0-1
  6
CONTINUOUS
 62
     3
 10
22952.677839999971
 20
8251.3828119999926
 30
0.0
 11
22952.677839999971
 21
5932.883550999999
 31
0.0
  0
LINE
  5
412A
  8
0-1
  6
CONTINUOUS
 62
     3
 10
23037.674407999992
 20
8251.3828119999926
 30
0.0
 11
23037.674407999992
 21
5932.883550999999
 31
0.0
  0
LINE
  5
412B
  8
0-1
  6
CONTINUOUS
 62
     3
 10
23082.674803999998
 20
7940.8834449999968
 30
0.0
 11
23082.674803999998
 21
5932.883550999999
 31
0.0
  0
LINE
  5
412C
  8
0-1
  6
CONTINUOUS
 62
     3
 10
22907.677444000001
 20
7940.8834449999968
 30
0.0
 11
22907.677444000001
 21
5932.883550999999
 31
0.0
  0
LINE
  5
412D
  8
0-1
  6
CONTINUOUS
 62
     3
 10
21904.28322899999
 20
6482.1578919999984
 30
0.0
 11
21544.177126999981
 21
6753.7874319999992
 31
0.0
  0
LINE
  5
4130
  8
0-1
  6
CONTINUOUS
 62
     3
 10
23082.674803999998
 20
7872.3431089999976
 30
0.0
 11
26176.17744299995
 21
7872.3431089999976
 31
0.0
  0
LINE
  5
4131
  8
0-1
  6
CONTINUOUS
 62
     3
 10
23082.674803999998
 20
6517.8842439999999
 30
0.0
 11
26176.17744299995
 21
6517.8842439999999
 31
0.0
  0
LINE
  5
4132
  8
0-1
  6
CONTINUOUS
 62
     3
 10
23082.674803999998
 20
6582.883221
 30
0.0
 11
26176.17744299995
 21
6582.883221
 31
0.0
  0
LINE
  5
4133
  8
0-1
  6
CONTINUOUS
 62
     3
 10
23082.674803999998
 20
6647.8836829999982
 30
0.0
 11
26176.17744299995
 21
6647.8836829999982
 31
0.0
  0
LINE
  5
4134
  8
0-1
  6
CONTINUOUS
 62
     3
 10
23082.674803999998
 20
6712.8836500000007
 30
0.0
 11
26176.17744299995
 21
6712.8836500000007
 31
0.0
  0
LINE
  5
4135
  8
0-1
  6
CONTINUOUS
 62
     3
 10
23082.674803999998
 20
6777.8836169999986
 30
0.0
 11
26176.17744299995
 21
6777.8836169999986
 31
0.0
  0
LINE
  5
4136
  8
0-1
  6
CONTINUOUS
 62
     3
 10
23082.674803999998
 20
6842.8835839999983
 30
0.0
 11
26176.17744299995
 21
6842.8835839999983
 31
0.0
  0
LINE
  5
4137
  8
0-1
  6
CONTINUOUS
 62
     3
 10
23082.674803999998
 20
6907.8840459999992
 30
0.0
 11
26176.17744299995
 21
6907.8840459999992
 31
0.0
  0
LINE
  5
4138
  8
0-1
  6
CONTINUOUS
 62
     3
 10
23082.674803999998
 20
6972.8830229999967
 30
0.0
 11
26176.17744299995
 21
6972.8830229999967
 31
0.0
  0
LINE
  5
4139
  8
0-1
  6
CONTINUOUS
 62
     3
 10
23082.674803999998
 20
7037.8834849999994
 30
0.0
 11
26176.17744299995
 21
7037.8834849999994
 31
0.0
  0
LINE
  5
413A
  8
0-1
  6
CONTINUOUS
 62
     3
 10
23082.674803999998
 20
7102.8834519999973
 30
0.0
 11
26176.17744299995
 21
7102.8834519999973
 31
0.0
  0
LINE
  5
413B
  8
0-1
  6
CONTINUOUS
 62
     3
 10
23082.674803999998
 20
7167.8839139999982
 30
0.0
 11
26176.17744299995
 21
7167.8839139999982
 31
0.0
  0
LINE
  5
413C
  8
0-1
  6
CONTINUOUS
 62
     3
 10
23082.674803999998
 20
7232.8828909999966
 30
0.0
 11
26176.17744299995
 21
7232.8828909999966
 31
0.0
  0
LINE
  5
413D
  8
0-1
  6
CONTINUOUS
 62
     3
 10
23082.674803999998
 20
7297.883353000002
 30
0.0
 11
26176.17744299995
 21
7297.883353000002
 31
0.0
  0
LINE
  5
413E
  8
0-1
  6
CONTINUOUS
 62
     3
 10
23082.674803999998
 20
7362.883319999999
 30
0.0
 11
26176.17744299995
 21
7362.883319999999
 31
0.0
  0
LINE
  5
413F
  8
0-1
  6
CONTINUOUS
 62
     3
 10
23082.674803999998
 20
7427.8832869999969
 30
0.0
 11
26176.17744299995
 21
7427.8832869999969
 31
0.0
  0
LINE
  5
4140
  8
0-1
  6
CONTINUOUS
 62
     3
 10
23082.674803999998
 20
7492.8837489999969
 30
0.0
 11
26176.17744299995
 21
7492.8837489999969
 31
0.0
  0
LINE
  5
4141
  8
0-1
  6
CONTINUOUS
 62
     3
 10
23082.674803999998
 20
7557.8837159999975
 30
0.0
 11
26176.17744299995
 21
7557.8837159999975
 31
0.0
  0
LINE
  5
4142
  8
0-1
  6
CONTINUOUS
 62
     3
 10
23082.674803999998
 20
7622.8841779999984
 30
0.0
 11
26176.17744299995
 21
7622.8841779999984
 31
0.0
  0
LINE
  5
4143
  8
0-1
  6
CONTINUOUS
 62
     3
 10
23082.674803999998
 20
7687.8831549999968
 30
0.0
 11
26176.17744299995
 21
7687.8831549999968
 31
0.0
  0
LINE
  5
4144
  8
0-1
  6
CONTINUOUS
 62
     3
 10
23082.674803999998
 20
7752.8836170000013
 30
0.0
 11
26176.17744299995
 21
7752.8836170000013
 31
0.0
  0
LINE
  5
4145
  8
0-1
  6
CONTINUOUS
 62
     3
 10
23082.674803999998
 20
7817.8835839999974
 30
0.0
 11
26176.17744299995
 21
7817.8835839999974
 31
0.0
  0
LINE
  5
4146
  8
0-1
  6
CONTINUOUS
 62
     3
 10
23082.674803999998
 20
5997.8830229999994
 30
0.0
 11
26176.17744299995
 21
5997.8830229999994
 31
0.0
  0
LINE
  5
4147
  8
0-1
  6
CONTINUOUS
 62
     3
 10
23082.674803999998
 20
6062.8839799999978
 30
0.0
 11
26176.17744299995
 21
6062.8839799999978
 31
0.0
  0
LINE
  5
4148
  8
0-1
  6
CONTINUOUS
 62
     3
 10
23082.674803999998
 20
6127.8829569999971
 30
0.0
 11
26176.17744299995
 21
6127.8829569999971
 31
0.0
  0
LINE
  5
4149
  8
0-1
  6
CONTINUOUS
 62
     3
 10
23082.674803999998
 20
6192.8839139999991
 30
0.0
 11
26176.17744299995
 21
6192.8839139999991
 31
0.0
  0
LINE
  5
414A
  8
0-1
  6
CONTINUOUS
 62
     3
 10
23082.674803999998
 20
6257.8833859999986
 30
0.0
 11
26176.17744299995
 21
6257.8833859999986
 31
0.0
  0
LINE
  5
414B
  8
0-1
  6
CONTINUOUS
 62
     3
 10
23082.674803999998
 20
6322.8833529999984
 30
0.0
 11
26176.17744299995
 21
6322.8833529999984
 31
0.0
  0
LINE
  5
414C
  8
0-1
  6
CONTINUOUS
 62
     3
 10
23082.674803999998
 20
6387.883319999999
 30
0.0
 11
26176.17744299995
 21
6387.883319999999
 31
0.0
  0
LINE
  5
414D
  8
0-1
  6
CONTINUOUS
 62
     3
 10
23082.674803999998
 20
6452.8827919999976
 30
0.0
 11
26176.17744299995
 21
6452.8827919999976
 31
0.0
  0
LINE
  5
414F
  8
0-1
  6
CONTINUOUS
 62
     3
 10
23037.674407999992
 20
7940.8834449999968
 30
0.0
 11
26221.17783899996
 21
7940.8834449999968
 31
0.0
  0
LINE
  5
4150
  8
0-1
  6
CONTINUOUS
 62
     3
 10
21904.28322899999
 20
5932.883550999999
 30
0.0
 11
26313.67678399997
 21
5932.883550999999
 31
0.0
  0
LINE
  5
4152
  8
0-1
  6
CONTINUOUS
 62
     3
 10
21904.28322899999
 20
7552.0406719999937
 30
0.0
 11
21904.28322899999
 21
8756.063052999998
 31
0.0
  0
LINE
  5
4153
  8
0-1
  6
CONTINUOUS
 62
     3
 10
21604.283229000001
 20
7402.5568309999971
 30
0.0
 11
21604.283229000001
 21
8756.063052999998
 31
0.0
  0
LINE
  5
415D
  8
0-1
  6
CONTINUOUS
 62
     3
 10
20582.669525999991
 20
6712.8836500000007
 30
0.0
 11
21197.967244999982
 21
6712.8836500000007
 31
0.0
  0
LINE
  5
415E
  8
0-1
  6
CONTINUOUS
 62
     3
 10
20582.669525999991
 20
6777.8836169999986
 30
0.0
 11
21262.238253999982
 21
6777.8836169999986
 31
0.0
  0
LINE
  5
415F
  8
0-1
  6
CONTINUOUS
 62
     3
 10
20582.669525999991
 20
6842.8835839999983
 30
0.0
 11
21326.51124299999
 21
6842.8835839999983
 31
0.0
  0
LINE
  5
4160
  8
0-1
  6
CONTINUOUS
 62
     3
 10
20582.669525999991
 20
6907.8840459999992
 30
0.0
 11
21390.782252999968
 21
6907.8840459999992
 31
0.0
  0
LINE
  5
4161
  8
0-1
  6
CONTINUOUS
 62
     3
 10
20582.669525999991
 20
6972.8830229999967
 30
0.0
 11
21455.055240999991
 21
6972.8830229999967
 31
0.0
  0
LINE
  5
4162
  8
0-1
  6
CONTINUOUS
 62
     3
 10
20582.669525999991
 20
7037.8834849999994
 30
0.0
 11
21519.326250999991
 21
7037.8834849999994
 31
0.0
  0
LINE
  5
416A
  8
0-1
  6
CONTINUOUS
 62
     3
 10
20582.669525999991
 20
6517.8842439999999
 30
0.0
 11
21358.745723999989
 21
6517.8842439999999
 31
0.0
  0
LINE
  5
416B
  8
0-1
  6
CONTINUOUS
 62
     3
 10
20582.669525999991
 20
6582.883221
 30
0.0
 11
21272.573320999982
 21
6582.883221
 31
0.0
  0
LINE
  5
416C
  8
0-1
  6
CONTINUOUS
 62
     3
 10
20582.669525999991
 20
6647.8836829999982
 30
0.0
 11
21186.398938999992
 21
6647.8836829999982
 31
0.0
  0
LINE
  5
416D
  8
0-1
  6
CONTINUOUS
 62
     3
 10
20582.669525999991
 20
6452.8827919999976
 30
0.0
 11
21444.914167999981
 21
6452.8827919999976
 31
0.0
  0
LINE
  5
416E
  8
0-1
  6
CONTINUOUS
 62
     3
 10
20452.670580999991
 20
8251.3828119999926
 30
0.0
 11
20452.670580999991
 21
5932.883550999999
 31
0.0
  0
LINE
  5
416F
  8
0-1
  6
CONTINUOUS
 62
     3
 10
20407.672164999982
 20
7940.8834449999968
 30
0.0
 11
20407.672164999982
 21
5932.883550999999
 31
0.0
  0
LINE
  5
4170
  8
0-1
  6
CONTINUOUS
 62
     3
 10
20537.673088999982
 20
8251.3828119999926
 30
0.0
 11
20537.673088999982
 21
5932.883550999999
 31
0.0
  0
LINE
  5
4171
  8
0-1
  6
CONTINUOUS
 62
     3
 10
20582.669525999991
 20
7940.8834449999968
 30
0.0
 11
20582.669525999991
 21
5932.883550999999
 31
0.0
  0
LINE
  5
4172
  8
0-1
  6
CONTINUOUS
 62
     3
 10
20582.669525999991
 20
7940.8834449999968
 30
0.0
 11
20582.669525999991
 21
5932.883550999999
 31
0.0
  0
LINE
  5
417D
  8
0-1
  6
CONTINUOUS
 62
     3
 10
17276.671504999991
 20
6032.8833859999977
 30
0.0
 11
17276.671504999991
 21
5932.883550999999
 31
0.0
  0
LINE
  5
417E
  8
0-1
  6
CONTINUOUS
 62
     3
 10
17176.670185999999
 20
5932.883550999999
 30
0.0
 11
17176.670185999999
 21
6032.8833859999977
 31
0.0
  0
LINE
  5
417F
  8
0-1
  6
CONTINUOUS
 62
     3
 10
17176.670185999999
 20
6032.8833859999977
 30
0.0
 11
17276.671504999991
 21
6032.8833859999977
 31
0.0
  0
LINE
  5
4180
  8
0-1
  6
CONTINUOUS
 62
     3
 10
17314.171504999998
 20
7940.8834449999968
 30
0.0
 11
17314.171504999998
 21
5932.883550999999
 31
0.0
  0
LINE
  5
4181
  8
0-1
  6
CONTINUOUS
 62
     3
 10
17269.169129999991
 20
8251.3828119999926
 30
0.0
 11
17269.169129999991
 21
6032.8833859999977
 31
0.0
  0
LINE
  5
4182
  8
0-1
  6
CONTINUOUS
 62
     3
 10
17204.171636999981
 20
8381.3837349999976
 30
0.0
 11
17204.171636999981
 21
6032.8833859999977
 31
0.0
  0
LINE
  5
4183
  8
0-1
  6
CONTINUOUS
 62
     3
 10
17184.168602000002
 20
8251.3828119999926
 30
0.0
 11
17184.168602000002
 21
6032.8833859999977
 31
0.0
  0
LINE
  5
4184
  8
0-1
  6
CONTINUOUS
 62
     3
 10
17269.169129999991
 20
7940.8834449999968
 30
0.0
 11
20452.670580999991
 21
7940.8834449999968
 31
0.0
  0
LINE
  5
4186
  8
0-1
  6
CONTINUOUS
 62
     3
 10
17314.171504999998
 20
6452.8827919999976
 30
0.0
 11
20407.672164999982
 21
6452.8827919999976
 31
0.0
  0
LINE
  5
4187
  8
0-1
  6
CONTINUOUS
 62
     3
 10
17314.171504999998
 20
6387.883319999999
 30
0.0
 11
20407.672164999982
 21
6387.883319999999
 31
0.0
  0
LINE
  5
4188
  8
0-1
  6
CONTINUOUS
 62
     3
 10
17314.171504999998
 20
6322.8833529999984
 30
0.0
 11
20407.672164999982
 21
6322.8833529999984
 31
0.0
  0
LINE
  5
4189
  8
0-1
  6
CONTINUOUS
 62
     3
 10
17314.171504999998
 20
6257.8833859999986
 30
0.0
 11
20407.672164999982
 21
6257.8833859999986
 31
0.0
  0
LINE
  5
418A
  8
0-1
  6
CONTINUOUS
 62
     3
 10
17314.171504999998
 20
6192.8839139999991
 30
0.0
 11
20407.672164999982
 21
6192.8839139999991
 31
0.0
  0
LINE
  5
418B
  8
0-1
  6
CONTINUOUS
 62
     3
 10
17314.171504999998
 20
6127.8829569999971
 30
0.0
 11
20407.672164999982
 21
6127.8829569999971
 31
0.0
  0
LINE
  5
418C
  8
0-1
  6
CONTINUOUS
 62
     3
 10
17314.171504999998
 20
6062.8839799999978
 30
0.0
 11
20407.672164999982
 21
6062.8839799999978
 31
0.0
  0
LINE
  5
418D
  8
0-1
  6
CONTINUOUS
 62
     3
 10
17314.171504999998
 20
5997.8830229999994
 30
0.0
 11
20407.672164999982
 21
5997.8830229999994
 31
0.0
  0
LINE
  5
418E
  8
0-1
  6
CONTINUOUS
 62
     3
 10
17314.171504999998
 20
7817.8835839999974
 30
0.0
 11
20407.672164999982
 21
7817.8835839999974
 31
0.0
  0
LINE
  5
418F
  8
0-1
  6
CONTINUOUS
 62
     3
 10
17314.171504999998
 20
7752.8836170000013
 30
0.0
 11
20407.672164999982
 21
7752.8836170000013
 31
0.0
  0
LINE
  5
4190
  8
0-1
  6
CONTINUOUS
 62
     3
 10
17314.171504999998
 20
7687.8831549999968
 30
0.0
 11
20407.672164999982
 21
7687.8831549999968
 31
0.0
  0
LINE
  5
4191
  8
0-1
  6
CONTINUOUS
 62
     3
 10
17314.171504999998
 20
7622.8841779999984
 30
0.0
 11
20407.672164999982
 21
7622.8841779999984
 31
0.0
  0
LINE
  5
4192
  8
0-1
  6
CONTINUOUS
 62
     3
 10
17314.171504999998
 20
7557.8837159999975
 30
0.0
 11
20407.672164999982
 21
7557.8837159999975
 31
0.0
  0
LINE
  5
4193
  8
0-1
  6
CONTINUOUS
 62
     3
 10
17314.171504999998
 20
7492.8837489999969
 30
0.0
 11
20407.672164999982
 21
7492.8837489999969
 31
0.0
  0
LINE
  5
4194
  8
0-1
  6
CONTINUOUS
 62
     3
 10
17314.171504999998
 20
7427.8832869999969
 30
0.0
 11
20407.672164999982
 21
7427.8832869999969
 31
0.0
  0
LINE
  5
4195
  8
0-1
  6
CONTINUOUS
 62
     3
 10
17314.171504999998
 20
7362.883319999999
 30
0.0
 11
20407.672164999982
 21
7362.883319999999
 31
0.0
  0
LINE
  5
4196
  8
0-1
  6
CONTINUOUS
 62
     3
 10
17314.171504999998
 20
7297.883353000002
 30
0.0
 11
20407.672164999982
 21
7297.883353000002
 31
0.0
  0
LINE
  5
4197
  8
0-1
  6
CONTINUOUS
 62
     3
 10
17314.171504999998
 20
7232.8828909999966
 30
0.0
 11
20407.672164999982
 21
7232.8828909999966
 31
0.0
  0
LINE
  5
4198
  8
0-1
  6
CONTINUOUS
 62
     3
 10
17314.171504999998
 20
7167.8839139999982
 30
0.0
 11
20407.672164999982
 21
7167.8839139999982
 31
0.0
  0
LINE
  5
4199
  8
0-1
  6
CONTINUOUS
 62
     3
 10
17314.171504999998
 20
7102.8834519999973
 30
0.0
 11
20407.672164999982
 21
7102.8834519999973
 31
0.0
  0
LINE
  5
419A
  8
0-1
  6
CONTINUOUS
 62
     3
 10
17314.171504999998
 20
7037.8834849999994
 30
0.0
 11
20407.672164999982
 21
7037.8834849999994
 31
0.0
  0
LINE
  5
419B
  8
0-1
  6
CONTINUOUS
 62
     3
 10
17314.171504999998
 20
6972.8830229999967
 30
0.0
 11
20407.672164999982
 21
6972.8830229999967
 31
0.0
  0
LINE
  5
419C
  8
0-1
  6
CONTINUOUS
 62
     3
 10
17314.171504999998
 20
6907.8840459999992
 30
0.0
 11
20407.672164999982
 21
6907.8840459999992
 31
0.0
  0
LINE
  5
419D
  8
0-1
  6
CONTINUOUS
 62
     3
 10
17314.171504999998
 20
6842.8835839999983
 30
0.0
 11
20407.672164999982
 21
6842.8835839999983
 31
0.0
  0
LINE
  5
419E
  8
0-1
  6
CONTINUOUS
 62
     3
 10
17314.171504999998
 20
6777.8836169999986
 30
0.0
 11
20407.672164999982
 21
6777.8836169999986
 31
0.0
  0
LINE
  5
419F
  8
0-1
  6
CONTINUOUS
 62
     3
 10
17314.171504999998
 20
6712.8836500000007
 30
0.0
 11
20407.672164999982
 21
6712.8836500000007
 31
0.0
  0
LINE
  5
41A0
  8
0-1
  6
CONTINUOUS
 62
     3
 10
17314.171504999998
 20
6647.8836829999982
 30
0.0
 11
20407.672164999982
 21
6647.8836829999982
 31
0.0
  0
LINE
  5
41A1
  8
0-1
  6
CONTINUOUS
 62
     3
 10
17314.171504999998
 20
6582.883221
 30
0.0
 11
20407.672164999982
 21
6582.883221
 31
0.0
  0
LINE
  5
41A2
  8
0-1
  6
CONTINUOUS
 62
     3
 10
17314.171504999998
 20
6517.8842439999999
 30
0.0
 11
20407.672164999982
 21
6517.8842439999999
 31
0.0
  0
LINE
  5
41A3
  8
0-1
  6
CONTINUOUS
 62
     3
 10
17314.171504999998
 20
7872.3431089999976
 30
0.0
 11
20407.672164999982
 21
7872.3431089999976
 31
0.0
  0
LINE
  5
41A6
  8
0-1
  6
CONTINUOUS
 62
     3
 10
17176.670185999999
 20
5932.883550999999
 30
0.0
 11
21604.283229000001
 21
5932.883550999999
 31
0.0
  0
LINE
  5
41A9
  8
0-1
  6
CONTINUOUS
 62
     3
 10
20582.669525999991
 20
7872.3431089999976
 30
0.0
 11
21604.283229000001
 21
7872.3431089999976
 31
0.0
  0
LINE
  5
41AA
  8
0-1
  6
CONTINUOUS
 62
     3
 10
20582.669525999991
 20
7102.8834519999973
 30
0.0
 11
21583.599238999981
 21
7102.8834519999973
 31
0.0
  0
LINE
  5
41AB
  8
0-1
  6
CONTINUOUS
 62
     3
 10
20582.669525999991
 20
7167.8839139999982
 30
0.0
 11
21647.870248999981
 21
7167.8839139999982
 31
0.0
  0
LINE
  5
41AC
  8
0-1
  6
CONTINUOUS
 62
     3
 10
20582.669525999991
 20
7232.8828909999966
 30
0.0
 11
21712.14323799999
 21
7232.8828909999966
 31
0.0
  0
LINE
  5
41AD
  8
0-1
  6
CONTINUOUS
 62
     3
 10
20582.669525999991
 20
7297.883353000002
 30
0.0
 11
21743.047481999991
 21
7297.883353000002
 31
0.0
  0
LINE
  5
41AE
  8
0-1
  6
CONTINUOUS
 62
     3
 10
20582.669525999991
 20
7362.883319999999
 30
0.0
 11
21656.879037999981
 21
7362.883319999999
 31
0.0
  0
LINE
  5
41AF
  8
0-1
  6
CONTINUOUS
 62
     3
 10
20582.669525999991
 20
7427.8832869999969
 30
0.0
 11
21604.283229000001
 21
7427.8832869999969
 31
0.0
  0
LINE
  5
41B0
  8
0-1
  6
CONTINUOUS
 62
     3
 10
20582.669525999991
 20
7492.8837489999969
 30
0.0
 11
21604.283229000001
 21
7492.8837489999969
 31
0.0
  0
LINE
  5
41B1
  8
0-1
  6
CONTINUOUS
 62
     3
 10
20582.669525999991
 20
7557.8837159999975
 30
0.0
 11
21604.283229000001
 21
7557.8837159999975
 31
0.0
  0
LINE
  5
41B2
  8
0-1
  6
CONTINUOUS
 62
     3
 10
20582.669525999991
 20
7622.8841779999984
 30
0.0
 11
21604.283229000001
 21
7622.8841779999984
 31
0.0
  0
LINE
  5
41B3
  8
0-1
  6
CONTINUOUS
 62
     3
 10
20582.669525999991
 20
7687.8831549999968
 30
0.0
 11
21604.283229000001
 21
7687.8831549999968
 31
0.0
  0
LINE
  5
41B4
  8
0-1
  6
CONTINUOUS
 62
     3
 10
20582.669525999991
 20
7752.8836170000013
 30
0.0
 11
21604.283229000001
 21
7752.8836170000013
 31
0.0
  0
LINE
  5
41B5
  8
0-1
  6
CONTINUOUS
 62
     3
 10
20582.669525999991
 20
7817.8835839999974
 30
0.0
 11
21604.283229000001
 21
7817.8835839999974
 31
0.0
  0
LINE
  5
41B6
  8
0-1
  6
CONTINUOUS
 62
     3
 10
20582.669525999991
 20
5997.8830229999994
 30
0.0
 11
21604.283229000001
 21
5997.8830229999994
 31
0.0
  0
LINE
  5
41B7
  8
0-1
  6
CONTINUOUS
 62
     3
 10
20582.669525999991
 20
6062.8839799999978
 30
0.0
 11
21604.283229000001
 21
6062.8839799999978
 31
0.0
  0
LINE
  5
41B8
  8
0-1
  6
CONTINUOUS
 62
     3
 10
20582.669525999991
 20
6127.8829569999971
 30
0.0
 11
21604.283229000001
 21
6127.8829569999971
 31
0.0
  0
LINE
  5
41B9
  8
0-1
  6
CONTINUOUS
 62
     3
 10
20582.669525999991
 20
6192.8839139999991
 30
0.0
 11
21604.283229000001
 21
6192.8839139999991
 31
0.0
  0
LINE
  5
41BA
  8
0-1
  6
CONTINUOUS
 62
     3
 10
20582.669525999991
 20
6257.8833859999986
 30
0.0
 11
21604.283229000001
 21
6257.8833859999986
 31
0.0
  0
LINE
  5
41BB
  8
0-1
  6
CONTINUOUS
 62
     3
 10
20582.669525999991
 20
6322.8833529999984
 30
0.0
 11
21604.283229000001
 21
6322.8833529999984
 31
0.0
  0
LINE
  5
41BC
  8
0-1
  6
CONTINUOUS
 62
     3
 10
20582.669525999991
 20
6387.883319999999
 30
0.0
 11
21531.086570999982
 21
6387.883319999999
 31
0.0
  0
LINE
  5
41BD
  8
0-1
  6
CONTINUOUS
 62
     3
 10
20537.673088999982
 20
7940.8834449999968
 30
0.0
 11
21604.283229000001
 21
7940.8834449999968
 31
0.0
  0
LINE
  5
41BE
  8
0-1
  6
CONTINUOUS
 62
     3
 10
21604.283229000001
 20
6332.6720719999967
 30
0.0
 11
21156.211279999981
 21
6670.6550749999951
 31
0.0
  0
LINE
  5
41BF
  8
0-1
  6
CONTINUOUS
 62
     3
 10
21762.15973399999
 20
7283.4675089999973
 30
0.0
 11
21156.211279999981
 21
6670.6550749999951
 31
0.0
  0
LINE
  5
41C3
  8
0-2
  6
CONTINUOUS
 62
     4
 10
24993.118123999971
 20
6680.1092549999967
 30
0.0
 11
24893.11878399998
 21
6680.1092549999967
 31
0.0
  0
LINE
  5
41C4
  8
0-2
  6
CONTINUOUS
 62
     4
 10
24265.73214399998
 20
6680.1092549999967
 30
0.0
 11
24365.73148499996
 21
6680.1092549999967
 31
0.0
  0
LINE
  5
41C5
  8
0-2
  6
CONTINUOUS
 62
     4
 10
19224.611855499999
 20
6680.1092549999967
 30
0.0
 11
19124.612515500001
 21
6680.1092549999967
 31
0.0
  0
LINE
  5
41C6
  8
0-2
  6
CONTINUOUS
 62
     4
 10
18497.227854500001
 20
6680.1092549999967
 30
0.0
 11
18597.225215499991
 21
6680.1092549999967
 31
0.0
  0
LINE
  5
41C7
  8
0-5
  6
CONTINUOUS
 62
     4
 10
26263.676123999961
 20
4252.8834519999937
 30
0.0
 11
26263.676123999961
 21
4092.883418999998
 31
0.0
  0
LINE
  5
41C8
  8
0-5
  6
CONTINUOUS
 62
     4
 10
22995.176123999961
 20
4252.8834519999937
 30
0.0
 11
22995.176123999961
 21
4092.883418999998
 31
0.0
  0
LINE
  5
41C9
  8
0-5
  6
CONTINUOUS
 62
     4
 10
20495.17084499999
 20
4252.8834519999937
 30
0.0
 11
20495.17084499999
 21
4092.883418999998
 31
0.0
  0
LINE
  5
41CA
  8
0-5
  6
CONTINUOUS
 62
     4
 10
17226.670844999979
 20
4252.8834519999937
 30
0.0
 11
17226.670844999979
 21
4092.883418999998
 31
0.0
  0
LINE
  5
41CB
  8
2-0
  6
CENTER2
 62
     6
 10
26263.676123999961
 20
5670.2311279999967
 30
0.0
 11
26263.676123999961
 21
6707.3731649999972
 31
0.0
  0
LINE
  5
41CC
  8
2-0
  6
CENTER2
 62
     6
 10
22995.176123999961
 20
5670.2311279999967
 30
0.0
 11
22995.176123999961
 21
6707.3731649999972
 31
0.0
  0
LINE
  5
41CD
  8
2-0
  6
CENTER2
 62
     6
 10
20495.17084499999
 20
5670.2311279999967
 30
0.0
 11
20495.17084499999
 21
6707.3731649999972
 31
0.0
  0
LINE
  5
41CE
  8
2-0
  6
CENTER2
 62
     6
 10
17226.670844999979
 20
5670.2311279999967
 30
0.0
 11
17226.670844999979
 21
6707.3731649999972
 31
0.0
  0
CIRCLE
  5
41E7
  8
0-5
  6
CONTINUOUS
 62
     4
 10
26263.676123999961
 20
3892.8837489999969
 30
0.0
 40
199.9999949999999
  0
CIRCLE
  5
41E8
  8
0-5
  6
CONTINUOUS
 62
     4
 10
22995.176123999961
 20
3892.8837489999969
 30
0.0
 40
199.9999949999999
  0
CIRCLE
  5
41E9
  8
0-5
  6
CONTINUOUS
 62
     4
 10
20495.17084499999
 20
3892.8837489999969
 30
0.0
 40
199.9999949999999
  0
CIRCLE
  5
41EA
  8
0-5
  6
CONTINUOUS
 62
     4
 10
17226.670844999979
 20
3892.8837489999969
 30
0.0
 40
199.9999949999999
  0
TEXT
  5
41EB
  8
0-5
  6
CONTINUOUS
 62
     7
 10
26211.741473999969
 20
3808.3828019999978
 30
0.0
 40
160.0
  1
n
 72
     4
 11
26265.074807333302
 21
3861.7161353333308
 31
0.0
  0
TEXT
  5
41EC
  8
0-5
  6
CONTINUOUS
 62
     7
 10
22829.05101017523
 20
3822.8999104393961
 30
0.0
 40
140.0
  1
n-1
 72
     4
 11
22992.384343508558
 21
3892.8999104393961
 31
0.0
  0
TEXT
  5
41ED
  8
0-5
  6
CONTINUOUS
 62
     7
 10
16608.494905999989
 20
6662.243797741995
 30
0.0
 40
160.0
  1
(2131.5)
 50
90.0
 72
     4
 11
16528.494905999989
 21
7115.577131075328
 31
0.0
  0
TEXT
  5
41EE
  8
0-5
  6
CONTINUOUS
 62
     7
 10
20448.24239799998
 20
3806.3537949999982
 30
0.0
 40
160.0
  1
2
 72
     4
 11
20501.575731333309
 21
3886.3537949999982
 31
0.0
  0
TEXT
  5
41EF
  8
0-5
  6
CONTINUOUS
 62
     7
 10
17179.73843899999
 20
3806.3537949999982
 30
0.0
 40
160.0
  1
1
 72
     4
 11
17206.405105666661
 21
3886.3537949999982
 31
0.0
  0
TEXT
  5
41F0
  8
2-0
  6
CONTINUOUS
 62
     7
 10
20119.867900000001
 20
3074.4443679999958
 30
0.0
 40
160.0
  1
正 面 立 面 図
 72
     4
 11
20765.20123333333
 21
3154.4443679999958
 31
0.0
  0
CIRCLE
  5
41F1
  8
0-4
  6
CONTINUOUS
 62
     4
 10
18860.92084499999
 20
6418.9394919999977
 30
0.0
 40
18.487504999999981
  0
CIRCLE
  5
41F2
  8
0-4
  6
CONTINUOUS
 62
     4
 10
24629.426123999961
 20
6418.9394919999977
 30
0.0
 40
18.487504999999981
  0
TEXT
  5
41F3
  8
2-0
  6
CONTINUOUS
 62
     7
 10
22116.69341847095
 20
3101.6397369999968
 30
0.0
 40
160.0
  1
1
 72
     4
 11
22143.360085137621
 21
3181.6397369999968
 31
0.0
  0
TEXT
  5
41F4
  8
2-0
  6
CONTINUOUS
 62
     7
 10
22359.782135721649
 20
3021.6412049999958
 30
0.0
 40
160.0
  1
80
 72
     4
 11
22479.782135721649
 21
3101.6412049999958
 31
0.0
  0
TEXT
  5
41F5
  8
2-0
  6
CONTINUOUS
 62
     7
 10
21617.695384470961
 20
3074.4443679999958
 30
0.0
 40
160.0
  1
(S=  /   )
 72
     4
 11
22177.695384470961
 21
3154.4443679999958
 31
0.0
  0
LINE
  5
41F6
  8
SUNPOU
  6
CONTINUOUS
 10
16944.17084499999
 20
4732.883550999999
 30
0.0
 11
16586.215838278891
 21
4732.883550999999
 31
0.0
  0
LINE
  5
41F7
  8
SUNPOU
  6
CONTINUOUS
 10
26546.180082999981
 20
4732.883550999999
 30
0.0
 11
26904.135089721069
 21
4732.883550999999
 31
0.0
  0
LINE
  5
41F8
  8
0-5
  6
CONTINUOUS
 62
     4
 10
15004.801784999971
 20
6140.7290430000003
 30
0.0
 11
15124.79822199999
 21
5932.8835510000008
 31
0.0
  0
LINE
  5
41F9
  8
0-5
  6
CONTINUOUS
 62
     4
 10
15124.79822199999
 20
5932.8835510000008
 30
0.0
 11
15244.79861799999
 21
6140.7290430000003
 31
0.0
  0
LINE
  5
41FA
  8
0-5
  6
CONTINUOUS
 62
     4
 10
15244.79861799999
 20
6140.7290430000003
 30
0.0
 11
15004.801784999971
 21
6140.7290430000003
 31
0.0
  0
TEXT
  5
41FB
  8
0-5
  6
CONTINUOUS
 62
     7
 10
15004.801784999971
 20
6220.7298009999977
 30
0.0
 40
160.0
  1
G.L
 72
     4
 11
15164.801784999971
 21
6300.7298009999977
 31
0.0
  0
LINE
  5
41FC
  8
2-0
  6
CONTINUOUS
 62
     3
 10
5000.0034769999993
 20
20192.819744000011
 30
0.0
 11
9338.5832580000042
 21
20192.819744
 31
0.0
  0
LINE
  5
41FD
  8
2-0
  6
CONTINUOUS
 62
     3
 10
4944.501734999998
 20
20144.812459000001
 30
0.0
 11
9338.5832580000042
 21
20144.812459000001
 31
0.0
  0
LINE
  5
41FE
  8
2-0
  6
CONTINUOUS
 62
     3
 10
9638.581279
 20
20192.819744
 30
0.0
 11
13769.013196000011
 21
20192.819744
 31
0.0
  0
LINE
  5
41FF
  8
2-0
  6
CONTINUOUS
 62
     3
 10
9638.581279
 20
20144.812459000001
 30
0.0
 11
13824.51196900001
 21
20144.812459000001
 31
0.0
  0
LINE
  5
4200
  8
2-0
  6
DASHED3
 62
     6
 10
9338.5832580000042
 20
17980.88311235308
 30
0.0
 11
8736.3389548410705
 21
17415.490654500201
 31
0.0
  0
LINE
  5
4201
  8
2-0
  6
DASHED3
 62
     6
 10
9338.5832580000042
 20
19065.31815268374
 30
0.0
 11
8350.9202189546177
 21
19980.544525021902
 31
0.0
  0
LINE
  5
4202
  8
0-1
  6
CONTINUOUS
 62
     3
 10
8360.4044860922513
 20
17062.55993824
 30
0.0
 11
9338.5832580000042
 21
16156.121812701511
 31
0.0
  0
LINE
  5
4203
  8
0-1
  6
CONTINUOUS
 62
     3
 10
9338.5832580000042
 20
15054.0015537907
 30
0.0
 11
8369.8813302690542
 21
14144.57532734274
 31
0.0
  0
LINE
  5
4204
  8
2-0
  6
CONTINUOUS
 62
     3
 10
8736.3389548410705
 20
17415.490654500201
 30
0.0
 11
8360.4044860922513
 21
17062.55993824
 31
0.0
  0
LINE
  5
4205
  8
2-0
  6
DASHED3
 62
     6
 10
6847.062678808803
 20
18708.60927339617
 30
0.0
 11
8210.5090660000023
 21
19980.316444999949
 31
0.0
  0
LINE
  5
4206
  8
2-0
  6
CONTINUOUS
 62
     3
 10
5812.9200301227793
 20
19298.581091887208
 30
0.0
 11
8210.5046120000006
 21
17062.316444999979
 31
0.0
  0
LINE
  5
4207
  8
0-1
  6
CONTINUOUS
 62
     3
 10
12427.94206367739
 20
15318.66604850671
 30
0.0
 11
13687.00764100002
 21
14144.316444999969
 31
0.0
  0
LINE
  5
4208
  8
0-1
  6
CONTINUOUS
 62
     3
 10
12048.45851337867
 20
15534.016413853489
 30
0.0
 11
10558.505132999981
 21
14144.316444999969
 31
0.0
  0
LINE
  5
4209
  8
2-0
  6
DASHED3
 62
     6
 10
10418.50566100001
 20
17062.316444999979
 30
0.0
 11
10016.338785937891
 21
16687.209287136891
 31
0.0
  0
LINE
  5
420A
  8
0-1
  6
CONTINUOUS
 62
     3
 10
9638.581279
 20
14871.76446804079
 30
0.0
 11
10418.507641
 21
14144.316444999969
 31
0.0
  0
LINE
  5
420B
  8
0-1
  6
CONTINUOUS
 62
     3
 10
10016.338785937891
 20
16687.209287136891
 30
0.0
 11
9638.581279
 21
16334.86911797942
 31
0.0
  0
LINE
  5
420C
  8
2-0
  6
DASHED3
 62
     6
 10
10418.50566100001
 20
19980.316444999949
 30
0.0
 11
9638.5812790000055
 21
19252.869808338601
 31
0.0
  0
LINE
  5
420D
  8
2-0
  6
DASHED3
 62
     6
 10
10418.50566100001
 20
17062.316444999979
 30
0.0
 11
9638.581279
 21
17789.763772020531
 31
0.0
  0
LINE
  5
420E
  8
2-0
  6
CONTINUOUS
 62
     6
 10
7149.6446855000013
 20
17245.148951499959
 30
0.0
 11
7088.4933975000013
 21
17406.915209499981
 31
0.0
  0
LINE
  5
420F
  8
2-0
  6
CONTINUOUS
 62
     6
 10
6287.9246164999986
 20
17406.915209499981
 30
0.0
 11
7088.4933975000013
 21
17406.915209499981
 31
0.0
  0
LINE
  5
4210
  8
2-0
  6
CONTINUOUS
 62
     6
 10
6346.5836905000006
 20
16490.754420499979
 30
0.0
 11
7226.5806545000014
 21
16490.754420499979
 31
0.0
  0
LINE
  5
4211
  8
2-0
  6
CONTINUOUS
 62
     6
 10
6135.3156104999998
 20
16288.69011249998
 30
0.0
 11
6346.5836905000006
 21
16490.754420499979
 31
0.0
  0
LINE
  5
4212
  8
2-0
  6
CONTINUOUS
 62
     6
 10
8218.252160500002
 20
15333.68918849996
 30
0.0
 11
7953.0659535000032
 21
15702.643738499981
 31
0.0
  0
LINE
  5
4213
  8
2-0
  6
CONTINUOUS
 62
     6
 10
7706.8336374999999
 20
15702.643738499981
 30
0.0
 11
7953.0659535000032
 21
15702.643738499981
 31
0.0
  0
LINE
  5
4214
  8
2-0
  6
CONTINUOUS
 62
     6
 10
8145.8770024999976
 20
15478.854214499979
 30
0.0
 11
8218.252160500002
 21
15333.68918849996
 31
0.0
  0
LINE
  5
4215
  8
2-0
  6
CONTINUOUS
 62
     6
 10
8218.252160500002
 20
15333.68918849996
 30
0.0
 11
8102.7056814999978
 21
15447.535261499979
 31
0.0
  0
LINE
  5
4216
  8
2-0
  6
CONTINUOUS
 62
     6
 10
8218.252160500002
 20
15333.68918849996
 30
0.0
 11
8145.8770024999976
 21
15478.854214499979
 31
0.0
  0
LINE
  5
4217
  8
2-0
  6
CONTINUOUS
 62
     6
 10
8145.8770024999976
 20
15478.854214499979
 30
0.0
 11
8102.7056814999978
 21
15447.535261499979
 31
0.0
  0
LINE
  5
4218
  8
2-0
  6
CONTINUOUS
 62
     6
 10
8102.7056814999978
 20
15447.535261499979
 30
0.0
 11
8218.252160500002
 21
15333.68918849996
 31
0.0
  0
LINE
  5
4219
  8
2-0
  6
CONTINUOUS
 62
     6
 10
8102.7056814999978
 20
15447.535261499979
 30
0.0
 11
8145.8770024999976
 21
15478.854214499979
 31
0.0
  0
LINE
  5
421A
  8
2-0
  6
CONTINUOUS
 62
     6
 10
6116.8783745000028
 20
16307.965674499979
 30
0.0
 11
6019.6859915000041
 21
16178.10628649998
 31
0.0
  0
LINE
  5
421B
  8
2-0
  6
CONTINUOUS
 62
     6
 10
6019.6859915000041
 20
16178.10628649998
 30
0.0
 11
6153.7469085000002
 21
16269.42642749998
 31
0.0
  0
LINE
  5
421C
  8
2-0
  6
CONTINUOUS
 62
     6
 10
6019.6859915000041
 20
16178.10628649998
 30
0.0
 11
6116.8783745000028
 21
16307.965674499979
 31
0.0
  0
LINE
  5
421D
  8
2-0
  6
CONTINUOUS
 62
     6
 10
6116.8783745000028
 20
16307.965674499979
 30
0.0
 11
6153.7469085000002
 21
16269.42642749998
 31
0.0
  0
LINE
  5
421E
  8
2-0
  6
CONTINUOUS
 62
     6
 10
6153.7469085000002
 20
16269.42642749998
 30
0.0
 11
6019.6859915000041
 21
16178.10628649998
 31
0.0
  0
LINE
  5
421F
  8
2-0
  6
CONTINUOUS
 62
     6
 10
6153.7469085000002
 20
16269.42642749998
 30
0.0
 11
6116.8783745000028
 21
16307.965674499979
 31
0.0
  0
LINE
  5
4220
  8
2-0
  6
CONTINUOUS
 62
     6
 10
7175.2774714999996
 20
17252.477129499981
 30
0.0
 11
7193.6414655000017
 21
17091.320562499961
 31
0.0
  0
LINE
  5
4221
  8
2-0
  6
CONTINUOUS
 62
     6
 10
7193.6414655000017
 20
17091.320562499961
 30
0.0
 11
7124.0020025000022
 21
17237.808896499981
 31
0.0
  0
LINE
  5
4222
  8
2-0
  6
CONTINUOUS
 62
     6
 10
7193.6414655000017
 20
17091.320562499961
 30
0.0
 11
7175.2774714999996
 21
17252.477129499981
 31
0.0
  0
LINE
  5
4223
  8
2-0
  6
CONTINUOUS
 62
     6
 10
7175.2774714999996
 20
17252.477129499981
 30
0.0
 11
7124.0020025000022
 21
17237.808896499981
 31
0.0
  0
LINE
  5
4224
  8
2-0
  6
CONTINUOUS
 62
     6
 10
7124.0020025000022
 20
17237.808896499981
 30
0.0
 11
7193.6414655000017
 21
17091.320562499961
 31
0.0
  0
LINE
  5
4225
  8
2-0
  6
CONTINUOUS
 62
     6
 10
7124.0020025000022
 20
17237.808896499981
 30
0.0
 11
7175.2774714999996
 21
17252.477129499981
 31
0.0
  0
TEXT
  5
4226
  8
2-0
  6
CONTINUOUS
 62
     7
 10
6368.489042500004
 20
17486.907555499969
 30
0.0
 40
160.0
  1
桁（中）
 50
359.99982299999999
 72
     4
 11
6688.4892896371002
 21
17566.906566945101
 31
0.0
  0
TEXT
  5
4227
  8
2-0
  6
CONTINUOUS
 62
     7
 10
6426.5799955000002
 20
16570.754684499971
 30
0.0
 40
160.0
  1
ブレース
 50
0.000354
 72
     4
 11
6789.246134930685
 21
16656.090258555181
 31
0.0
  0
TEXT
  5
4228
  8
2-0
  6
CONTINUOUS
 62
     7
 10
7723.0696484999999
 20
15782.64796149997
 30
0.0
 40
160.0
  1
梁
 50
359.99893700000001
 72
     4
 11
7797.7377993818118
 21
15862.64657620674
 31
0.0
  0
LINE
  5
4229
  8
2-0
  6
CONTINUOUS
 62
     6
 10
5181.7864887559281
 20
18203.93680820251
 30
0.0
 11
5701.7862247559306
 21
18203.93680820251
 31
0.0
  0
LINE
  5
422A
  8
2-0
  6
CONTINUOUS
 62
     6
 10
5082.7491947559301
 20
18424.72835120251
 30
0.0
 11
5181.7864887559281
 21
18203.93680820251
 31
0.0
  0
LINE
  5
422B
  8
2-0
  6
CONTINUOUS
 62
     6
 10
5107.0754987559294
 20
18435.643417202511
 30
0.0
 11
5017.2588017559292
 21
18570.709929202501
 31
0.0
  0
LINE
  5
422C
  8
2-0
  6
CONTINUOUS
 62
     6
 10
5017.2588017559292
 20
18570.709929202501
 30
0.0
 11
5058.4090337559292
 21
18413.813286202501
 31
0.0
  0
LINE
  5
422D
  8
2-0
  6
CONTINUOUS
 62
     6
 10
5017.2588017559292
 20
18570.709929202501
 30
0.0
 11
5107.0754987559294
 21
18435.643417202511
 31
0.0
  0
LINE
  5
422E
  8
2-0
  6
CONTINUOUS
 62
     6
 10
5107.0754987559294
 20
18435.643417202511
 30
0.0
 11
5058.4090337559292
 21
18413.813286202501
 31
0.0
  0
LINE
  5
422F
  8
2-0
  6
CONTINUOUS
 62
     6
 10
5058.4090337559292
 20
18413.813286202501
 30
0.0
 11
5017.2588017559292
 21
18570.709929202501
 31
0.0
  0
LINE
  5
4230
  8
2-0
  6
CONTINUOUS
 62
     6
 10
5058.4090337559292
 20
18413.813286202501
 30
0.0
 11
5107.0754987559294
 21
18435.643417202511
 31
0.0
  0
TEXT
  5
4231
  8
2-0
  6
CONTINUOUS
 62
     7
 10
5261.7827937559296
 20
18283.933113202489
 30
0.0
 40
160.0
  1
上枠
 50
359.99964599999993
 72
     4
 11
5432.4499546965844
 21
18363.932058742841
 31
0.0
  0
LINE
  5
4232
  8
2-0
  6
CONTINUOUS
 62
     6
 10
6975.5001270000002
 20
19920.54092299999
 30
0.0
 11
7119.401230000004
 21
20432.812619
 31
0.0
  0
LINE
  5
4233
  8
2-0
  6
CONTINUOUS
 62
     6
 10
6562.3528240000032
 20
20026.31847799999
 30
0.0
 11
6268.4279670000024
 21
20432.812619
 31
0.0
  0
LINE
  5
4234
  8
2-0
  6
CONTINUOUS
 62
     6
 10
7119.401230000004
 20
20432.812619
 30
0.0
 11
7637.090868000003
 21
20432.812619
 31
0.0
  0
LINE
  5
4235
  8
2-0
  6
CONTINUOUS
 62
     6
 10
6509.0938770000039
 20
20322.719712999999
 30
0.0
 11
6299.9003329999978
 21
20685.054753
 31
0.0
  0
LINE
  5
4236
  8
2-0
  6
CONTINUOUS
 62
     6
 10
6225.8900920000005
 20
20813.236499999992
 30
0.0
 11
6029.8326330000009
 21
21152.822911999981
 31
0.0
  0
LINE
  5
4237
  8
2-0
  6
CONTINUOUS
 62
     6
 10
6029.8326330000009
 20
21152.822911999981
 30
0.0
 11
6872.272192000004
 21
21152.822911999981
 31
0.0
  0
LINE
  5
4238
  8
2-0
  6
CONTINUOUS
 62
     6
 10
5468.4312660000032
 20
20432.812619
 30
0.0
 11
6268.4279670000024
 21
20432.812619
 31
0.0
  0
LINE
  5
4239
  8
2-0
  6
CONTINUOUS
 62
     6
 10
6487.4419030000026
 20
20310.224991999999
 30
0.0
 11
6584.0899180000024
 21
20192.819745000001
 31
0.0
  0
LINE
  5
423A
  8
2-0
  6
CONTINUOUS
 62
     6
 10
6584.0899180000024
 20
20192.819745000001
 30
0.0
 11
6530.7379330000012
 21
20335.218394
 31
0.0
  0
LINE
  5
423B
  8
2-0
  6
CONTINUOUS
 62
     6
 10
6584.0899180000024
 20
20192.819745000001
 30
0.0
 11
6487.4419030000026
 21
20310.224991999999
 31
0.0
  0
LINE
  5
423C
  8
2-0
  6
CONTINUOUS
 62
     6
 10
6487.4419030000026
 20
20310.224991999999
 30
0.0
 11
6530.7379330000012
 21
20335.218394
 31
0.0
  0
LINE
  5
423D
  8
2-0
  6
CONTINUOUS
 62
     6
 10
6530.7379330000012
 20
20335.218394
 30
0.0
 11
6584.0899180000024
 21
20192.819745000001
 31
0.0
  0
LINE
  5
423E
  8
2-0
  6
CONTINUOUS
 62
     6
 10
6530.7379330000012
 20
20335.218394
 30
0.0
 11
6487.4419030000026
 21
20310.224991999999
 31
0.0
  0
LINE
  5
423F
  8
2-0
  6
CONTINUOUS
 62
     6
 10
6455.6547930000024
 20
20148.490406000001
 30
0.0
 11
6562.3528240000032
 21
20026.31847799999
 31
0.0
  0
LINE
  5
4240
  8
2-0
  6
CONTINUOUS
 62
     6
 10
6562.3528240000032
 20
20026.31847799999
 30
0.0
 11
6501.0510930000019
 21
20176.492676000002
 31
0.0
  0
LINE
  5
4241
  8
2-0
  6
CONTINUOUS
 62
     6
 10
6562.3528240000032
 20
20026.31847799999
 30
0.0
 11
6455.6547930000024
 21
20148.490406000001
 31
0.0
  0
LINE
  5
4242
  8
2-0
  6
CONTINUOUS
 62
     6
 10
6455.6547930000024
 20
20148.490406000001
 30
0.0
 11
6501.0510930000019
 21
20176.492676000002
 31
0.0
  0
LINE
  5
4243
  8
2-0
  6
CONTINUOUS
 62
     6
 10
6501.0510930000019
 20
20176.492676000002
 30
0.0
 11
6562.3528240000032
 21
20026.31847799999
 31
0.0
  0
LINE
  5
4244
  8
2-0
  6
CONTINUOUS
 62
     6
 10
6501.0510930000019
 20
20176.492676000002
 30
0.0
 11
6455.6547930000024
 21
20148.490406000001
 31
0.0
  0
LINE
  5
4245
  8
2-0
  6
CONTINUOUS
 62
     6
 10
6949.6119830000034
 20
19926.938727000001
 30
0.0
 11
6937.1133030000019
 21
19765.216017999999
 31
0.0
  0
LINE
  5
4246
  8
2-0
  6
CONTINUOUS
 62
     6
 10
6937.1133030000019
 20
19765.216017999999
 30
0.0
 11
7001.392230000004
 21
19914.147078000002
 31
0.0
  0
LINE
  5
4247
  8
2-0
  6
CONTINUOUS
 62
     6
 10
6937.1133030000019
 20
19765.216017999999
 30
0.0
 11
6949.6119830000034
 21
19926.938727000001
 31
0.0
  0
LINE
  5
4248
  8
2-0
  6
CONTINUOUS
 62
     6
 10
6949.6119830000034
 20
19926.938727000001
 30
0.0
 11
7001.392230000004
 21
19914.147078000002
 31
0.0
  0
LINE
  5
4249
  8
2-0
  6
CONTINUOUS
 62
     6
 10
7001.392230000004
 20
19914.147078000002
 30
0.0
 11
6937.1133030000019
 21
19765.216017999999
 31
0.0
  0
LINE
  5
424A
  8
2-0
  6
CONTINUOUS
 62
     6
 10
7001.392230000004
 20
19914.147078000002
 30
0.0
 11
6949.6119830000034
 21
19926.938727000001
 31
0.0
  0
TEXT
  5
424B
  8
2-0
  6
CONTINUOUS
 62
     7
 10
7199.4074330000012
 20
20512.82080099998
 30
0.0
 40
160.0
  1
屋根
 50
359.99964599999993
 72
     4
 11
7370.0745939406561
 21
20592.819746540328
 31
0.0
  0
TEXT
  5
424C
  8
2-0
  6
CONTINUOUS
 62
     7
 10
6109.834877000003
 20
21232.819216999978
 30
0.0
 40
160.0
  1
鼻隠し後
 72
     4
 11
6472.5015436666699
 21
21312.819216999978
 31
0.0
  0
TEXT
  5
424D
  8
2-0
  6
CONTINUOUS
 62
     7
 10
5548.4275710000038
 20
20512.820800999991
 30
0.0
 40
160.0
  1
桁（後）
 50
359.99982299999999
 72
     4
 11
5868.4278181370992
 21
20592.819812445119
 31
0.0
  0
LINE
  5
424E
  8
2-0
  6
CONTINUOUS
 62
     6
 10
11542.297738499999
 20
21152.822910999981
 30
0.0
 11
13217.29509949999
 21
21152.822910999981
 31
0.0
  0
LINE
  5
424F
  8
2-0
  6
CONTINUOUS
 62
     6
 10
13407.5783025
 20
20823.229107999989
 30
0.0
 11
13217.29509949999
 21
21152.822910999981
 31
0.0
  0
LINE
  5
4250
  8
2-0
  6
CONTINUOUS
 62
     6
 10
13690.7781285
 20
20332.728158000002
 30
0.0
 11
13481.5885435
 21
20695.051320999999
 31
0.0
  0
LINE
  5
4251
  8
2-0
  6
CONTINUOUS
 62
     6
 10
13669.130113500019
 20
20320.221559999991
 30
0.0
 11
13765.7781285
 21
20202.812354000002
 31
0.0
  0
LINE
  5
4252
  8
2-0
  6
CONTINUOUS
 62
     6
 10
13765.7781285
 20
20202.812354000002
 30
0.0
 11
13712.426143500001
 21
20345.22683900001
 31
0.0
  0
LINE
  5
4253
  8
2-0
  6
CONTINUOUS
 62
     6
 10
13765.7781285
 20
20202.812354000002
 30
0.0
 11
13669.130113500019
 21
20320.221559999991
 31
0.0
  0
LINE
  5
4254
  8
2-0
  6
CONTINUOUS
 62
     6
 10
13669.130113500019
 20
20320.221559999991
 30
0.0
 11
13712.426143500001
 21
20345.22683900001
 31
0.0
  0
LINE
  5
4255
  8
2-0
  6
CONTINUOUS
 62
     6
 10
13712.426143500001
 20
20345.22683900001
 30
0.0
 11
13765.7781285
 21
20202.812354000002
 31
0.0
  0
LINE
  5
4256
  8
2-0
  6
CONTINUOUS
 62
     6
 10
13712.426143500001
 20
20345.22683900001
 30
0.0
 11
13669.130113500019
 21
20320.221559999991
 31
0.0
  0
TEXT
  5
4257
  8
2-0
  6
CONTINUOUS
 62
     7
 10
11622.29602350001
 20
21232.819215999982
 30
0.0
 40
160.0
  1
鼻隠しコーナー後
 72
     4
 11
12368.96269016668
 21
21312.819215999982
 31
0.0
  0
LINE
  5
4258
  8
SUNPOU
  6
CONTINUOUS
 10
5988.2742420000086
 20
9180.8835769999969
 30
0.0
 11
5512.9851293597758
 21
9180.8835769999969
 31
0.0
  0
LINE
  5
425B
  8
WAKUSEN-01
 10
868.00000000000193
 20
22484.000000000011
 30
0.0
 11
32764.000000000011
 21
22484.000000000011
 31
0.0
  0
LINE
  5
425E
  8
WAKUSEN-01
 10
20560.0
 20
2484.0
 30
0.0
 11
32764.0
 21
2484.0
 31
0.0
  0
LINE
  5
425F
  8
WAKUSEN-02
 10
20560.0
 20
1655.9999999999991
 30
0.0
 11
26868.0
 21
1655.9999999999991
 31
0.0
  0
TEXT
  5
4260
  8
WAKUMOJI-01
 10
20670.260259962761
 20
2125.9030093393221
 30
0.0
 40
240.0
  1
名　称
  7
WAKUMOJI
  0
TEXT
  5
4261
  8
WAKUMOJI-01
 10
20656.505485091919
 20
1319.12897497982
 30
0.0
 40
240.0
  1
機種名
  7
WAKUMOJI
  0
LINE
  5
4264
  8
YODOROGO
 10
29977.604341291921
 20
1995.7494964292871
 30
0.0
 11
29829.604341291921
 21
1995.7494964292871
 31
0.0
1001
AUTOCAD_POSTSCRIPT_FIGURE
1002
{
1000
PSFILL
1000
Grayscale
1000
Grayscale
1070
    25
1002
}
  0
LINE
  5
4265
  8
YODOROGO
 10
29829.604341291921
 20
1947.749496429288
 30
0.0
 11
29977.604341291921
 21
1947.749496429288
 31
0.0
1001
AUTOCAD_POSTSCRIPT_FIGURE
1002
{
1000
PSFILL
1000
Grayscale
1000
Grayscale
1070
    25
1002
}
  0
LINE
  5
4266
  8
YODOROGO
 10
29977.604341291921
 20
1907.7494964292871
 30
0.0
 11
29829.604341291921
 21
1907.7494964292871
 31
0.0
1001
AUTOCAD_POSTSCRIPT_FIGURE
1002
{
1000
PSFILL
1000
Grayscale
1000
Grayscale
1070
    25
1002
}
  0
LINE
  5
4267
  8
YODOROGO
 10
29829.604341291921
 20
1859.749496429288
 30
0.0
 11
29977.604341291921
 21
1859.749496429288
 31
0.0
1001
AUTOCAD_POSTSCRIPT_FIGURE
1002
{
1000
PSFILL
1000
Grayscale
1000
Grayscale
1070
    25
1002
}
  0
LINE
  5
4268
  8
YODOROGO
 10
29977.604341291921
 20
1819.7494964292871
 30
0.0
 11
29829.604341291921
 21
1819.7494964292871
 31
0.0
1001
AUTOCAD_POSTSCRIPT_FIGURE
1002
{
1000
PSFILL
1000
Grayscale
1000
Grayscale
1070
    25
1002
}
  0
LINE
  5
4269
  8
YODOROGO
 10
29921.60434129191
 20
1707.749496429288
 30
0.0
 11
29977.604341291921
 21
1707.749496429288
 31
0.0
1001
AUTOCAD_POSTSCRIPT_FIGURE
1002
{
1000
PSFILL
1000
Grayscale
1000
Grayscale
1070
    25
1002
}
  0
LINE
  5
426A
  8
YODOROGO
 10
29737.604341291921
 20
1427.749496429288
 30
0.0
 11
29937.604341291932
 21
1481.3393349155101
 31
0.0
  0
LINE
  5
426B
  8
YODOROGO
 10
29949.60434129191
 20
1707.749496429288
 30
0.0
 11
29885.604341291921
 21
1707.749496429288
 31
0.0
  0
ARC
  5
426C
  8
YODOROGO
 10
30254.34774982791
 20
1807.864609233261
 30
0.0
 40
381.88686420564721
 50
213.96111677667841
 51
264.47872074317792
  0
ARC
  5
426D
  8
YODOROGO
 10
30254.347749827921
 20
1807.864609233302
 30
0.0
 40
381.8868642056816
 50
208.14114420486601
 51
212.9210361185994
  0
LINE
  5
426E
  8
YODOROGO
 10
29771.409872985321
 20
1556.807661346234
 30
0.0
 11
29933.78413250855
 21
1600.3157130570869
 31
0.0
  0
LINE
  5
426F
  8
YODOROGO
 10
29737.604341291921
 20
1427.749496429288
 30
0.0
 11
29937.604341291932
 21
1481.3393349155101
 31
0.0
  0
LINE
  5
4270
  8
YODOROGO
 10
29949.60434129191
 20
1707.749496429288
 30
0.0
 11
29885.604341291921
 21
1707.749496429288
 31
0.0
  0
ARC
  5
4271
  8
YODOROGO
 10
30254.34774982791
 20
1807.864609233261
 30
0.0
 40
381.88686420564721
 50
213.96111677667841
 51
264.47872074317792
  0
LINE
  5
4272
  8
YODOROGO
 10
28793.60434129191
 20
1819.7494964292871
 30
0.0
 11
28433.60434129191
 21
1819.7494964292871
 31
0.0
  0
LINE
  5
4273
  8
YODOROGO
 10
28513.60434129191
 20
1427.749496429288
 30
0.0
 11
28793.60434129191
 21
1427.749496429288
 31
0.0
  0
LINE
  5
4274
  8
YODOROGO
 10
28729.604341291921
 20
1923.7494964292871
 30
0.0
 11
28497.60434129191
 21
1923.7494964292871
 31
0.0
  0
LINE
  5
4275
  8
YODOROGO
 10
28585.604341291921
 20
2027.749496429288
 30
0.0
 11
28657.604341291921
 21
2027.749496429288
 31
0.0
  0
LINE
  5
4276
  8
YODOROGO
 10
28433.60434129191
 20
1707.749496429288
 30
0.0
 11
28433.60434129191
 21
1507.749496429288
 31
0.0
  0
LINE
  5
4277
  8
YODOROGO
 10
28497.60434129191
 20
1563.7494964292871
 30
0.0
 11
28497.60434129191
 21
1707.749496429288
 31
0.0
  0
LINE
  5
4278
  8
YODOROGO
 10
28585.604341291921
 20
1747.74949642929
 30
0.0
 11
28585.604341291921
 21
1547.749496429288
 31
0.0
  0
LINE
  5
4279
  8
YODOROGO
 10
27857.604341291921
 20
1683.749496429288
 30
0.0
 11
27777.604341291921
 21
1619.9724140445701
 31
0.0
  0
LINE
  5
427A
  8
YODOROGO
 10
27937.604341291921
 20
1619.9724140445701
 30
0.0
 11
27857.604341291921
 21
1683.749496429288
 31
0.0
  0
LINE
  5
427B
  8
YODOROGO
 10
27857.604341291921
 20
1707.749496429288
 30
0.0
 11
27937.604341291921
 21
1643.9724140445701
 31
0.0
  0
LINE
  5
427C
  8
YODOROGO
 10
27777.604341291921
 20
1643.9724140445701
 30
0.0
 11
27857.604341291921
 21
1707.749496429288
 31
0.0
  0
LINE
  5
427D
  8
YODOROGO
 10
28040.913204016892
 20
1659.749496429288
 30
0.0
 11
28040.913204016892
 21
1683.7494964292871
 31
0.0
  0
LINE
  5
427E
  8
YODOROGO
 10
27977.604341291921
 20
1683.7494964292871
 30
0.0
 11
27977.604341291921
 21
1667.749496429285
 31
0.0
  0
LINE
  5
427F
  8
YODOROGO
 10
28098.135520230931
 20
1707.749496429288
 30
0.0
 11
28098.135520230931
 21
1655.5036372746561
 31
0.0
1001
AUTOCAD_POSTSCRIPT_FIGURE
1002
{
1000
PSFILL
1000
Grayscale
1000
Grayscale
1070
   100
1002
}
  0
LINE
  5
4280
  8
YODOROGO
 10
28082.135520230921
 20
1655.5036372746561
 30
0.0
 11
28082.135520230921
 21
1707.749496429288
 31
0.0
1001
AUTOCAD_POSTSCRIPT_FIGURE
1002
{
1000
PSFILL
1000
Grayscale
1000
Grayscale
1070
   100
1002
}
  0
LINE
  5
4281
  8
YODOROGO
 10
27809.604341291921
 20
1608.771904043258
 30
0.0
 11
27809.604341291921
 21
1632.771904043258
 31
0.0
  0
LINE
  5
4282
  8
YODOROGO
 10
27905.604341291921
 20
1608.771904043258
 30
0.0
 11
27809.604341291921
 21
1608.771904043258
 31
0.0
  0
LINE
  5
4283
  8
YODOROGO
 10
27905.604341291921
 20
1632.771904043258
 30
0.0
 11
27905.604341291921
 21
1608.771904043258
 31
0.0
  0
LINE
  5
4284
  8
YODOROGO
 10
27809.604341291921
 20
1632.771904043258
 30
0.0
 11
27905.604341291921
 21
1632.771904043258
 31
0.0
  0
LINE
  5
4285
  8
YODOROGO
 10
27824.509588915738
 20
1568.5028573704751
 30
0.0
 11
27785.604341291921
 21
1475.7494964292871
 31
0.0
1001
AUTOCAD_POSTSCRIPT_FIGURE
1002
{
1000
PSFILL
1000
Grayscale
1000
Grayscale
1070
   100
1002
}
  0
LINE
  5
4286
  8
YODOROGO
 10
27777.604341291921
 20
1568.5028573704751
 30
0.0
 11
27824.509588915738
 21
1568.5028573704751
 31
0.0
1001
AUTOCAD_POSTSCRIPT_FIGURE
1002
{
1000
PSFILL
1000
Grayscale
1000
Grayscale
1070
   100
1002
}
  0
LINE
  5
4287
  8
YODOROGO
 10
27777.604341291921
 20
1588.5028573704751
 30
0.0
 11
27777.604341291921
 21
1568.5028573704751
 31
0.0
1001
AUTOCAD_POSTSCRIPT_FIGURE
1002
{
1000
PSFILL
1000
Grayscale
1000
Grayscale
1070
   100
1002
}
  0
LINE
  5
4288
  8
YODOROGO
 10
27937.604341291921
 20
1588.5028573704751
 30
0.0
 11
27777.604341291921
 21
1588.5028573704751
 31
0.0
1001
AUTOCAD_POSTSCRIPT_FIGURE
1002
{
1000
PSFILL
1000
Grayscale
1000
Grayscale
1070
   100
1002
}
  0
LINE
  5
4289
  8
YODOROGO
 10
27937.604341291921
 20
1568.5028573704751
 30
0.0
 11
27937.604341291921
 21
1588.5028573704751
 31
0.0
1001
AUTOCAD_POSTSCRIPT_FIGURE
1002
{
1000
PSFILL
1000
Grayscale
1000
Grayscale
1070
   100
1002
}
  0
LINE
  5
428A
  8
YODOROGO
 10
27844.509588915738
 20
1568.5028573704751
 30
0.0
 11
27937.604341291921
 21
1568.5028573704751
 31
0.0
1001
AUTOCAD_POSTSCRIPT_FIGURE
1002
{
1000
PSFILL
1000
Grayscale
1000
Grayscale
1070
   100
1002
}
  0
LINE
  5
428B
  8
YODOROGO
 10
27815.546718284771
 20
1495.7494964292871
 30
0.0
 11
27844.509588915738
 21
1568.5028573704751
 31
0.0
1001
AUTOCAD_POSTSCRIPT_FIGURE
1002
{
1000
PSFILL
1000
Grayscale
1000
Grayscale
1070
   100
1002
}
  0
LINE
  5
428C
  8
YODOROGO
 10
27902.054790808648
 20
1495.7494964292871
 30
0.0
 11
27815.546718284771
 21
1495.7494964292871
 31
0.0
1001
AUTOCAD_POSTSCRIPT_FIGURE
1002
{
1000
PSFILL
1000
Grayscale
1000
Grayscale
1070
   100
1002
}
  0
LINE
  5
428D
  8
YODOROGO
 10
27885.065004790951
 20
1536.2338106976929
 30
0.0
 11
27902.054790808648
 21
1495.7494964292871
 31
0.0
1001
AUTOCAD_POSTSCRIPT_FIGURE
1002
{
1000
PSFILL
1000
Grayscale
1000
Grayscale
1070
   100
1002
}
  0
LINE
  5
428E
  8
YODOROGO
 10
27901.065004790951
 20
1536.2338106976929
 30
0.0
 11
27885.065004790951
 21
1536.2338106976929
 31
0.0
1001
AUTOCAD_POSTSCRIPT_FIGURE
1002
{
1000
PSFILL
1000
Grayscale
1000
Grayscale
1070
   100
1002
}
  0
LINE
  5
428F
  8
YODOROGO
 10
27929.604341291921
 20
1475.7494964292871
 30
0.0
 11
27901.065004790951
 21
1536.2338106976929
 31
0.0
1001
AUTOCAD_POSTSCRIPT_FIGURE
1002
{
1000
PSFILL
1000
Grayscale
1000
Grayscale
1070
   100
1002
}
  0
LINE
  5
4290
  8
YODOROGO
 10
27785.604341291921
 20
1475.7494964292871
 30
0.0
 11
27929.604341291921
 21
1475.7494964292871
 31
0.0
1001
AUTOCAD_POSTSCRIPT_FIGURE
1002
{
1000
PSFILL
1000
Grayscale
1000
Grayscale
1070
   100
1002
}
  0
LINE
  5
4291
  8
YODOROGO
 10
27777.604341291921
 20
1619.9724140445701
 30
0.0
 11
27777.604341291921
 21
1643.9724140445701
 31
0.0
  0
LINE
  5
4292
  8
YODOROGO
 10
27937.604341291921
 20
1643.9724140445701
 30
0.0
 11
27937.604341291921
 21
1619.9724140445701
 31
0.0
  0
ARC
  5
4293
  8
YODOROGO
 10
28225.940442146959
 20
1600.877765325326
 30
0.0
 40
175.9999999999998
 50
280.3644312771313
 51
3.5414836592180561
  0
ARC
  5
4294
  8
YODOROGO
 10
28235.756030759301
 20
1633.5978069619041
 30
0.0
 40
111.9999999999982
 50
281.24905825041549
 51
348.75094174958321
  0
LINE
  5
4295
  8
YODOROGO
 10
28257.604341291921
 20
1523.7494964292871
 30
0.0
 11
28257.604341291921
 21
1427.749496429288
 31
0.0
  0
LINE
  5
4296
  8
YODOROGO
 10
28020.088903736909
 20
1610.650565061914
 30
0.0
 11
28040.913204016892
 21
1659.749496429288
 31
0.0
  0
LINE
  5
4297
  8
YODOROGO
 10
28041.604341291921
 20
1583.120489948401
 30
0.0
 11
28020.088903736909
 21
1610.650565061914
 31
0.0
  0
LINE
  5
4298
  8
YODOROGO
 10
28041.604341291921
 20
1563.120489948398
 30
0.0
 11
28041.604341291921
 21
1583.120489948401
 31
0.0
  0
LINE
  5
4299
  8
YODOROGO
 10
28017.604341291921
 20
1585.2370637495301
 30
0.0
 11
28041.604341291921
 21
1563.120489948398
 31
0.0
  0
LINE
  5
429A
  8
YODOROGO
 10
28017.604341291921
 20
1475.7494964292871
 30
0.0
 11
28017.604341291921
 21
1585.2370637495301
 31
0.0
  0
LINE
  5
429B
  8
YODOROGO
 10
28001.604341291921
 20
1475.7494964292871
 30
0.0
 11
28017.604341291921
 21
1475.7494964292871
 31
0.0
  0
LINE
  5
429C
  8
YODOROGO
 10
28001.604341291921
 20
1580.0053496897469
 30
0.0
 11
28001.604341291921
 21
1475.7494964292871
 31
0.0
  0
LINE
  5
429D
  8
YODOROGO
 10
27977.604341291921
 20
1532.7680790334291
 30
0.0
 11
28001.604341291921
 21
1580.0053496897469
 31
0.0
  0
LINE
  5
429E
  8
YODOROGO
 10
27977.604341291921
 20
1556.76807903343
 30
0.0
 11
27977.604341291921
 21
1532.7680790334291
 31
0.0
  0
LINE
  5
429F
  8
YODOROGO
 10
28025.828774291349
 20
1667.749496429285
 30
0.0
 11
27977.604341291921
 21
1556.76807903343
 31
0.0
  0
LINE
  5
42A0
  8
YODOROGO
 10
27977.604341291921
 20
1667.749496429285
 30
0.0
 11
28025.828774291349
 21
1667.749496429285
 31
0.0
  0
LINE
  5
42A1
  8
YODOROGO
 10
28050.135520230899
 20
1655.5036372746561
 30
0.0
 11
28082.135520230921
 21
1655.5036372746561
 31
0.0
1001
AUTOCAD_POSTSCRIPT_FIGURE
1002
{
1000
PSFILL
1000
Grayscale
1000
Grayscale
1070
   100
1002
}
  0
LINE
  5
42A2
  8
YODOROGO
 10
28050.135520230899
 20
1631.5036372746561
 30
0.0
 11
28050.135520230899
 21
1655.5036372746561
 31
0.0
1001
AUTOCAD_POSTSCRIPT_FIGURE
1002
{
1000
PSFILL
1000
Grayscale
1000
Grayscale
1070
   100
1002
}
  0
LINE
  5
42A3
  8
YODOROGO
 10
28082.135520230921
 20
1631.5036372746561
 30
0.0
 11
28050.135520230899
 21
1631.5036372746561
 31
0.0
1001
AUTOCAD_POSTSCRIPT_FIGURE
1002
{
1000
PSFILL
1000
Grayscale
1000
Grayscale
1070
   100
1002
}
  0
LINE
  5
42A4
  8
YODOROGO
 10
28082.135520230921
 20
1499.749496429288
 30
0.0
 11
28082.135520230921
 21
1631.5036372746561
 31
0.0
1001
AUTOCAD_POSTSCRIPT_FIGURE
1002
{
1000
PSFILL
1000
Grayscale
1000
Grayscale
1070
   100
1002
}
  0
LINE
  5
42A5
  8
YODOROGO
 10
28050.135520230921
 20
1499.749496429288
 30
0.0
 11
28082.135520230921
 21
1499.749496429288
 31
0.0
1001
AUTOCAD_POSTSCRIPT_FIGURE
1002
{
1000
PSFILL
1000
Grayscale
1000
Grayscale
1070
   100
1002
}
  0
LINE
  5
42A6
  8
YODOROGO
 10
28050.135520230921
 20
1475.7494964292871
 30
0.0
 11
28050.135520230921
 21
1499.749496429288
 31
0.0
1001
AUTOCAD_POSTSCRIPT_FIGURE
1002
{
1000
PSFILL
1000
Grayscale
1000
Grayscale
1070
   100
1002
}
  0
LINE
  5
42A7
  8
YODOROGO
 10
28137.604341291921
 20
1475.7494964292871
 30
0.0
 11
28050.135520230921
 21
1475.7494964292871
 31
0.0
1001
AUTOCAD_POSTSCRIPT_FIGURE
1002
{
1000
PSFILL
1000
Grayscale
1000
Grayscale
1070
   100
1002
}
  0
LINE
  5
42A8
  8
YODOROGO
 10
28137.604341291921
 20
1499.749496429288
 30
0.0
 11
28137.604341291921
 21
1475.7494964292871
 31
0.0
1001
AUTOCAD_POSTSCRIPT_FIGURE
1002
{
1000
PSFILL
1000
Grayscale
1000
Grayscale
1070
   100
1002
}
  0
LINE
  5
42A9
  8
YODOROGO
 10
28098.135520230931
 20
1499.749496429288
 30
0.0
 11
28137.604341291921
 21
1499.749496429288
 31
0.0
1001
AUTOCAD_POSTSCRIPT_FIGURE
1002
{
1000
PSFILL
1000
Grayscale
1000
Grayscale
1070
   100
1002
}
  0
LINE
  5
42AA
  8
YODOROGO
 10
28098.135520230931
 20
1631.5036372746561
 30
0.0
 11
28098.135520230931
 21
1499.749496429288
 31
0.0
1001
AUTOCAD_POSTSCRIPT_FIGURE
1002
{
1000
PSFILL
1000
Grayscale
1000
Grayscale
1070
   100
1002
}
  0
LINE
  5
42AB
  8
YODOROGO
 10
28137.604341291921
 20
1631.5036372746561
 30
0.0
 11
28098.135520230931
 21
1631.5036372746561
 31
0.0
1001
AUTOCAD_POSTSCRIPT_FIGURE
1002
{
1000
PSFILL
1000
Grayscale
1000
Grayscale
1070
   100
1002
}
  0
LINE
  5
42AC
  8
YODOROGO
 10
28137.604341291921
 20
1655.5036372746561
 30
0.0
 11
28137.604341291921
 21
1631.5036372746561
 31
0.0
1001
AUTOCAD_POSTSCRIPT_FIGURE
1002
{
1000
PSFILL
1000
Grayscale
1000
Grayscale
1070
   100
1002
}
  0
LINE
  5
42AD
  8
YODOROGO
 10
28098.135520230931
 20
1655.5036372746561
 30
0.0
 11
28137.604341291921
 21
1655.5036372746561
 31
0.0
1001
AUTOCAD_POSTSCRIPT_FIGURE
1002
{
1000
PSFILL
1000
Grayscale
1000
Grayscale
1070
   100
1002
}
  0
LINE
  5
42AE
  8
YODOROGO
 10
28401.60434129191
 20
1667.749496429288
 30
0.0
 11
28345.604341291921
 21
1667.749496429288
 31
0.0
  0
LINE
  5
42AF
  8
YODOROGO
 10
28401.60434129191
 20
1611.749496429288
 30
0.0
 11
28401.60434129191
 21
1667.749496429288
 31
0.0
  0
LINE
  5
42B0
  8
YODOROGO
 10
28345.604341291921
 20
1667.749496429288
 30
0.0
 11
28345.604341291921
 21
1611.749496429288
 31
0.0
  0
ARC
  5
42B1
  8
YODOROGO
 10
28513.60434129191
 20
1507.749496429288
 30
0.0
 40
80.0
 50
180.0
 51
270.0
  0
ARC
  5
42B2
  8
YODOROGO
 10
28537.604341291921
 20
1563.7494964292871
 30
0.0
 40
40.0
 50
180.0
 51
270.0
  0
LINE
  5
42B3
  8
YODOROGO
 10
28561.604341291932
 20
1523.7494964292871
 30
0.0
 11
28537.604341291921
 21
1523.7494964292871
 31
0.0
  0
ARC
  5
42B4
  8
YODOROGO
 10
28561.604341291932
 20
1547.749496429285
 30
0.0
 40
23.999999999996358
 50
270.0
 51
0.0000000000054281
  0
LINE
  5
42B5
  8
YODOROGO
 10
27801.604341291921
 20
1890.786580793706
 30
0.0
 11
27777.604341291921
 21
1843.776747951672
 31
0.0
1001
AUTOCAD_POSTSCRIPT_FIGURE
1002
{
1000
PSFILL
1000
Grayscale
1000
Grayscale
1070
   100
1002
}
  0
LINE
  5
42B6
  8
YODOROGO
 10
27801.604341291921
 20
1747.749496429286
 30
0.0
 11
27801.604341291921
 21
1890.786580793706
 31
0.0
1001
AUTOCAD_POSTSCRIPT_FIGURE
1002
{
1000
PSFILL
1000
Grayscale
1000
Grayscale
1070
   100
1002
}
  0
LINE
  5
42B7
  8
YODOROGO
 10
27817.604341291921
 20
1747.749496429286
 30
0.0
 11
27801.604341291921
 21
1747.749496429286
 31
0.0
1001
AUTOCAD_POSTSCRIPT_FIGURE
1002
{
1000
PSFILL
1000
Grayscale
1000
Grayscale
1070
   100
1002
}
  0
LINE
  5
42B8
  8
YODOROGO
 10
27817.604341291921
 20
1893.7713320852661
 30
0.0
 11
27817.604341291921
 21
1747.749496429286
 31
0.0
1001
AUTOCAD_POSTSCRIPT_FIGURE
1002
{
1000
PSFILL
1000
Grayscale
1000
Grayscale
1070
   100
1002
}
  0
LINE
  5
42B9
  8
YODOROGO
 10
27841.604341291921
 20
1867.6547582841361
 30
0.0
 11
27817.604341291921
 21
1893.7713320852661
 31
0.0
1001
AUTOCAD_POSTSCRIPT_FIGURE
1002
{
1000
PSFILL
1000
Grayscale
1000
Grayscale
1070
   100
1002
}
  0
LINE
  5
42BA
  8
YODOROGO
 10
27841.604341291921
 20
1883.6547582841361
 30
0.0
 11
27841.604341291921
 21
1867.6547582841361
 31
0.0
1001
AUTOCAD_POSTSCRIPT_FIGURE
1002
{
1000
PSFILL
1000
Grayscale
1000
Grayscale
1070
   100
1002
}
  0
LINE
  5
42BB
  8
YODOROGO
 10
27817.604341291921
 20
1917.7713320852649
 30
0.0
 11
27841.604341291921
 21
1883.6547582841361
 31
0.0
1001
AUTOCAD_POSTSCRIPT_FIGURE
1002
{
1000
PSFILL
1000
Grayscale
1000
Grayscale
1070
   100
1002
}
  0
LINE
  5
42BC
  8
YODOROGO
 10
27817.604341291921
 20
1939.749496429288
 30
0.0
 11
27817.604341291921
 21
1917.7713320852649
 31
0.0
1001
AUTOCAD_POSTSCRIPT_FIGURE
1002
{
1000
PSFILL
1000
Grayscale
1000
Grayscale
1070
   100
1002
}
  0
LINE
  5
42BD
  8
YODOROGO
 10
27889.604341291921
 20
1939.749496429288
 30
0.0
 11
27817.604341291921
 21
1939.749496429288
 31
0.0
1001
AUTOCAD_POSTSCRIPT_FIGURE
1002
{
1000
PSFILL
1000
Grayscale
1000
Grayscale
1070
   100
1002
}
  0
LINE
  5
42BE
  8
YODOROGO
 10
27889.604341291921
 20
1900.5683489363
 30
0.0
 11
27889.604341291921
 21
1939.749496429288
 31
0.0
1001
AUTOCAD_POSTSCRIPT_FIGURE
1002
{
1000
PSFILL
1000
Grayscale
1000
Grayscale
1070
   100
1002
}
  0
LINE
  5
42BF
  8
YODOROGO
 10
27857.604341291921
 20
1900.5683489363
 30
0.0
 11
27889.604341291921
 21
1900.5683489363
 31
0.0
1001
AUTOCAD_POSTSCRIPT_FIGURE
1002
{
1000
PSFILL
1000
Grayscale
1000
Grayscale
1070
   100
1002
}
  0
LINE
  5
42C0
  8
YODOROGO
 10
27857.604341291921
 20
1884.568348936298
 30
0.0
 11
27857.604341291921
 21
1900.5683489363
 31
0.0
1001
AUTOCAD_POSTSCRIPT_FIGURE
1002
{
1000
PSFILL
1000
Grayscale
1000
Grayscale
1070
   100
1002
}
  0
LINE
  5
42C1
  8
YODOROGO
 10
27889.604341291921
 20
1884.568348936298
 30
0.0
 11
27857.604341291921
 21
1884.568348936298
 31
0.0
1001
AUTOCAD_POSTSCRIPT_FIGURE
1002
{
1000
PSFILL
1000
Grayscale
1000
Grayscale
1070
   100
1002
}
  0
LINE
  5
42C2
  8
YODOROGO
 10
27889.604341291921
 20
1879.6191779644371
 30
0.0
 11
27889.604341291921
 21
1884.568348936298
 31
0.0
1001
AUTOCAD_POSTSCRIPT_FIGURE
1002
{
1000
PSFILL
1000
Grayscale
1000
Grayscale
1070
   100
1002
}
  0
LINE
  5
42C3
  8
YODOROGO
 10
27849.604341291921
 20
1812.974981161417
 30
0.0
 11
27889.604341291921
 21
1879.6191779644371
 31
0.0
1001
AUTOCAD_POSTSCRIPT_FIGURE
1002
{
1000
PSFILL
1000
Grayscale
1000
Grayscale
1070
   100
1002
}
  0
LINE
  5
42C4
  8
YODOROGO
 10
27849.604341291921
 20
1796.9749811614161
 30
0.0
 11
27849.604341291921
 21
1812.974981161417
 31
0.0
1001
AUTOCAD_POSTSCRIPT_FIGURE
1002
{
1000
PSFILL
1000
Grayscale
1000
Grayscale
1070
   100
1002
}
  0
LINE
  5
42C5
  8
YODOROGO
 10
27889.604341291921
 20
1847.6191779644359
 30
0.0
 11
27849.604341291921
 21
1796.9749811614161
 31
0.0
1001
AUTOCAD_POSTSCRIPT_FIGURE
1002
{
1000
PSFILL
1000
Grayscale
1000
Grayscale
1070
   100
1002
}
  0
LINE
  5
42C6
  8
YODOROGO
 10
27889.604341291921
 20
1747.749496429286
 30
0.0
 11
27889.604341291921
 21
1847.6191779644359
 31
0.0
1001
AUTOCAD_POSTSCRIPT_FIGURE
1002
{
1000
PSFILL
1000
Grayscale
1000
Grayscale
1070
   100
1002
}
  0
LINE
  5
42C7
  8
YODOROGO
 10
27905.604341291921
 20
1747.749496429286
 30
0.0
 11
27889.604341291921
 21
1747.749496429286
 31
0.0
1001
AUTOCAD_POSTSCRIPT_FIGURE
1002
{
1000
PSFILL
1000
Grayscale
1000
Grayscale
1070
   100
1002
}
  0
LINE
  5
42C8
  8
YODOROGO
 10
27905.604341291921
 20
1849.409012158806
 30
0.0
 11
27905.604341291921
 21
1747.749496429286
 31
0.0
1001
AUTOCAD_POSTSCRIPT_FIGURE
1002
{
1000
PSFILL
1000
Grayscale
1000
Grayscale
1070
   100
1002
}
  0
LINE
  5
42C9
  8
YODOROGO
 10
27937.604341291921
 20
1796.9749811614161
 30
0.0
 11
27905.604341291921
 21
1849.409012158806
 31
0.0
1001
AUTOCAD_POSTSCRIPT_FIGURE
1002
{
1000
PSFILL
1000
Grayscale
1000
Grayscale
1070
   100
1002
}
  0
LINE
  5
42CA
  8
YODOROGO
 10
27937.604341291921
 20
1812.974981161417
 30
0.0
 11
27937.604341291921
 21
1796.9749811614161
 31
0.0
1001
AUTOCAD_POSTSCRIPT_FIGURE
1002
{
1000
PSFILL
1000
Grayscale
1000
Grayscale
1070
   100
1002
}
  0
LINE
  5
42CB
  8
YODOROGO
 10
27905.604341291921
 20
1881.4090121588081
 30
0.0
 11
27937.604341291921
 21
1812.974981161417
 31
0.0
1001
AUTOCAD_POSTSCRIPT_FIGURE
1002
{
1000
PSFILL
1000
Grayscale
1000
Grayscale
1070
   100
1002
}
  0
LINE
  5
42CC
  8
YODOROGO
 10
27905.604341291921
 20
1884.5683489363
 30
0.0
 11
27905.604341291921
 21
1881.4090121588081
 31
0.0
1001
AUTOCAD_POSTSCRIPT_FIGURE
1002
{
1000
PSFILL
1000
Grayscale
1000
Grayscale
1070
   100
1002
}
  0
LINE
  5
42CD
  8
YODOROGO
 10
27937.604341291921
 20
1884.568348936298
 30
0.0
 11
27905.604341291921
 21
1884.5683489363
 31
0.0
1001
AUTOCAD_POSTSCRIPT_FIGURE
1002
{
1000
PSFILL
1000
Grayscale
1000
Grayscale
1070
   100
1002
}
  0
LINE
  5
42CE
  8
YODOROGO
 10
27937.604341291921
 20
1900.5683489363
 30
0.0
 11
27937.604341291921
 21
1884.568348936298
 31
0.0
1001
AUTOCAD_POSTSCRIPT_FIGURE
1002
{
1000
PSFILL
1000
Grayscale
1000
Grayscale
1070
   100
1002
}
  0
LINE
  5
42CF
  8
YODOROGO
 10
27905.604341291921
 20
1900.5683489363
 30
0.0
 11
27937.604341291921
 21
1900.5683489363
 31
0.0
1001
AUTOCAD_POSTSCRIPT_FIGURE
1002
{
1000
PSFILL
1000
Grayscale
1000
Grayscale
1070
   100
1002
}
  0
LINE
  5
42D0
  8
YODOROGO
 10
27905.604341291921
 20
1939.749496429288
 30
0.0
 11
27905.604341291921
 21
1900.5683489363
 31
0.0
1001
AUTOCAD_POSTSCRIPT_FIGURE
1002
{
1000
PSFILL
1000
Grayscale
1000
Grayscale
1070
   100
1002
}
  0
LINE
  5
42D1
  8
YODOROGO
 10
27937.604341291921
 20
1939.749496429288
 30
0.0
 11
27905.604341291921
 21
1939.749496429288
 31
0.0
1001
AUTOCAD_POSTSCRIPT_FIGURE
1002
{
1000
PSFILL
1000
Grayscale
1000
Grayscale
1070
   100
1002
}
  0
LINE
  5
42D2
  8
YODOROGO
 10
27937.604341291921
 20
1955.7494964292871
 30
0.0
 11
27937.604341291921
 21
1939.749496429288
 31
0.0
1001
AUTOCAD_POSTSCRIPT_FIGURE
1002
{
1000
PSFILL
1000
Grayscale
1000
Grayscale
1070
   100
1002
}
  0
LINE
  5
42D3
  8
YODOROGO
 10
27905.604341291921
 20
1955.7494964292871
 30
0.0
 11
27937.604341291921
 21
1955.7494964292871
 31
0.0
1001
AUTOCAD_POSTSCRIPT_FIGURE
1002
{
1000
PSFILL
1000
Grayscale
1000
Grayscale
1070
   100
1002
}
  0
LINE
  5
42D4
  8
YODOROGO
 10
27905.604341291921
 20
1979.749496429288
 30
0.0
 11
27905.604341291921
 21
1955.7494964292871
 31
0.0
1001
AUTOCAD_POSTSCRIPT_FIGURE
1002
{
1000
PSFILL
1000
Grayscale
1000
Grayscale
1070
   100
1002
}
  0
LINE
  5
42D5
  8
YODOROGO
 10
27889.604341291921
 20
1979.749496429288
 30
0.0
 11
27905.604341291921
 21
1979.749496429288
 31
0.0
1001
AUTOCAD_POSTSCRIPT_FIGURE
1002
{
1000
PSFILL
1000
Grayscale
1000
Grayscale
1070
   100
1002
}
  0
LINE
  5
42D6
  8
YODOROGO
 10
27889.604341291921
 20
1955.7494964292871
 30
0.0
 11
27889.604341291921
 21
1979.749496429288
 31
0.0
1001
AUTOCAD_POSTSCRIPT_FIGURE
1002
{
1000
PSFILL
1000
Grayscale
1000
Grayscale
1070
   100
1002
}
  0
LINE
  5
42D7
  8
YODOROGO
 10
27865.604341291921
 20
1955.7494964292871
 30
0.0
 11
27889.604341291921
 21
1955.7494964292871
 31
0.0
1001
AUTOCAD_POSTSCRIPT_FIGURE
1002
{
1000
PSFILL
1000
Grayscale
1000
Grayscale
1070
   100
1002
}
  0
LINE
  5
42D8
  8
YODOROGO
 10
27865.604341291921
 20
1979.749496429288
 30
0.0
 11
27865.604341291921
 21
1955.7494964292871
 31
0.0
1001
AUTOCAD_POSTSCRIPT_FIGURE
1002
{
1000
PSFILL
1000
Grayscale
1000
Grayscale
1070
   100
1002
}
  0
LINE
  5
42D9
  8
YODOROGO
 10
27849.604341291921
 20
1979.749496429288
 30
0.0
 11
27865.604341291921
 21
1979.749496429288
 31
0.0
1001
AUTOCAD_POSTSCRIPT_FIGURE
1002
{
1000
PSFILL
1000
Grayscale
1000
Grayscale
1070
   100
1002
}
  0
LINE
  5
42DA
  8
YODOROGO
 10
27849.604341291921
 20
1955.7494964292871
 30
0.0
 11
27849.604341291921
 21
1979.749496429288
 31
0.0
1001
AUTOCAD_POSTSCRIPT_FIGURE
1002
{
1000
PSFILL
1000
Grayscale
1000
Grayscale
1070
   100
1002
}
  0
LINE
  5
42DB
  8
YODOROGO
 10
27817.604341291921
 20
1955.7494964292871
 30
0.0
 11
27849.604341291921
 21
1955.7494964292871
 31
0.0
1001
AUTOCAD_POSTSCRIPT_FIGURE
1002
{
1000
PSFILL
1000
Grayscale
1000
Grayscale
1070
   100
1002
}
  0
LINE
  5
42DC
  8
YODOROGO
 10
27817.604341291921
 20
1979.749496429288
 30
0.0
 11
27817.604341291921
 21
1955.7494964292871
 31
0.0
1001
AUTOCAD_POSTSCRIPT_FIGURE
1002
{
1000
PSFILL
1000
Grayscale
1000
Grayscale
1070
   100
1002
}
  0
LINE
  5
42DD
  8
YODOROGO
 10
27801.604341291921
 20
1979.749496429288
 30
0.0
 11
27817.604341291921
 21
1979.749496429288
 31
0.0
1001
AUTOCAD_POSTSCRIPT_FIGURE
1002
{
1000
PSFILL
1000
Grayscale
1000
Grayscale
1070
   100
1002
}
  0
LINE
  5
42DE
  8
YODOROGO
 10
27801.604341291921
 20
1955.7494964292871
 30
0.0
 11
27801.604341291921
 21
1979.749496429288
 31
0.0
1001
AUTOCAD_POSTSCRIPT_FIGURE
1002
{
1000
PSFILL
1000
Grayscale
1000
Grayscale
1070
   100
1002
}
  0
LINE
  5
42DF
  8
YODOROGO
 10
27777.604341291921
 20
1955.7494964292871
 30
0.0
 11
27801.604341291921
 21
1955.7494964292871
 31
0.0
1001
AUTOCAD_POSTSCRIPT_FIGURE
1002
{
1000
PSFILL
1000
Grayscale
1000
Grayscale
1070
   100
1002
}
  0
LINE
  5
42E0
  8
YODOROGO
 10
27777.604341291921
 20
1939.749496429288
 30
0.0
 11
27777.604341291921
 21
1955.7494964292871
 31
0.0
1001
AUTOCAD_POSTSCRIPT_FIGURE
1002
{
1000
PSFILL
1000
Grayscale
1000
Grayscale
1070
   100
1002
}
  0
LINE
  5
42E1
  8
YODOROGO
 10
27801.604341291921
 20
1939.749496429288
 30
0.0
 11
27777.604341291921
 21
1939.749496429288
 31
0.0
1001
AUTOCAD_POSTSCRIPT_FIGURE
1002
{
1000
PSFILL
1000
Grayscale
1000
Grayscale
1070
   100
1002
}
  0
LINE
  5
42E2
  8
YODOROGO
 10
27801.604341291921
 20
1914.7865807937051
 30
0.0
 11
27801.604341291921
 21
1939.749496429288
 31
0.0
1001
AUTOCAD_POSTSCRIPT_FIGURE
1002
{
1000
PSFILL
1000
Grayscale
1000
Grayscale
1070
   100
1002
}
  0
LINE
  5
42E3
  8
YODOROGO
 10
27777.604341291921
 20
1859.776747951671
 30
0.0
 11
27801.604341291921
 21
1914.7865807937051
 31
0.0
1001
AUTOCAD_POSTSCRIPT_FIGURE
1002
{
1000
PSFILL
1000
Grayscale
1000
Grayscale
1070
   100
1002
}
  0
LINE
  5
42E4
  8
YODOROGO
 10
27777.604341291921
 20
1843.776747951672
 30
0.0
 11
27777.604341291921
 21
1859.776747951671
 31
0.0
1001
AUTOCAD_POSTSCRIPT_FIGURE
1002
{
1000
PSFILL
1000
Grayscale
1000
Grayscale
1070
   100
1002
}
  0
LINE
  5
42E5
  8
YODOROGO
 10
28257.604341291921
 20
1867.7494964292871
 30
0.0
 11
28401.60434129191
 21
1824.877625640306
 31
0.0
1001
AUTOCAD_POSTSCRIPT_FIGURE
1002
{
1000
PSFILL
1000
Grayscale
1000
Grayscale
1070
   100
1002
}
  0
LINE
  5
42E6
  8
YODOROGO
 10
28401.60434129191
 20
1752.877625640306
 30
0.0
 11
28257.604341291921
 21
1795.7494964292871
 31
0.0
1001
AUTOCAD_POSTSCRIPT_FIGURE
1002
{
1000
PSFILL
1000
Grayscale
1000
Grayscale
1070
   100
1002
}
  0
LINE
  5
42E7
  8
YODOROGO
 10
28401.60434129191
 20
1984.877625640306
 30
0.0
 11
28257.604341291921
 21
2027.749496429288
 31
0.0
1001
AUTOCAD_POSTSCRIPT_FIGURE
1002
{
1000
PSFILL
1000
Grayscale
1000
Grayscale
1070
   100
1002
}
  0
LINE
  5
42E8
  8
YODOROGO
 10
28257.604341291921
 20
1959.749496429288
 30
0.0
 11
28401.60434129191
 21
1916.8776256403071
 31
0.0
1001
AUTOCAD_POSTSCRIPT_FIGURE
1002
{
1000
PSFILL
1000
Grayscale
1000
Grayscale
1070
   100
1002
}
  0
LINE
  5
42E9
  8
YODOROGO
 10
28257.604341291921
 20
1795.7494964292871
 30
0.0
 11
28257.604341291921
 21
1867.7494964292871
 31
0.0
1001
AUTOCAD_POSTSCRIPT_FIGURE
1002
{
1000
PSFILL
1000
Grayscale
1000
Grayscale
1070
   100
1002
}
  0
LINE
  5
42EA
  8
YODOROGO
 10
28257.604341291921
 20
2027.749496429288
 30
0.0
 11
28257.604341291921
 21
1959.749496429288
 31
0.0
1001
AUTOCAD_POSTSCRIPT_FIGURE
1002
{
1000
PSFILL
1000
Grayscale
1000
Grayscale
1070
   100
1002
}
  0
LINE
  5
42EB
  8
YODOROGO
 10
28080.236320206739
 20
1939.749496429288
 30
0.0
 11
28129.60434129191
 21
1747.749496429286
 31
0.0
1001
AUTOCAD_POSTSCRIPT_FIGURE
1002
{
1000
PSFILL
1000
Grayscale
1000
Grayscale
1070
   100
1002
}
  0
LINE
  5
42EC
  8
YODOROGO
 10
27977.604341291921
 20
1939.749496429288
 30
0.0
 11
28080.236320206739
 21
1939.749496429288
 31
0.0
1001
AUTOCAD_POSTSCRIPT_FIGURE
1002
{
1000
PSFILL
1000
Grayscale
1000
Grayscale
1070
   100
1002
}
  0
LINE
  5
42ED
  8
YODOROGO
 10
27977.604341291921
 20
1955.7494964292871
 30
0.0
 11
27977.604341291921
 21
1939.749496429288
 31
0.0
1001
AUTOCAD_POSTSCRIPT_FIGURE
1002
{
1000
PSFILL
1000
Grayscale
1000
Grayscale
1070
   100
1002
}
  0
LINE
  5
42EE
  8
YODOROGO
 10
28076.60687851991
 20
1955.7494964292871
 30
0.0
 11
27977.604341291921
 21
1955.7494964292871
 31
0.0
1001
AUTOCAD_POSTSCRIPT_FIGURE
1002
{
1000
PSFILL
1000
Grayscale
1000
Grayscale
1070
   100
1002
}
  0
LINE
  5
42EF
  8
YODOROGO
 10
28071.162715989711
 20
1979.749496429288
 30
0.0
 11
28076.60687851991
 21
1955.7494964292871
 31
0.0
1001
AUTOCAD_POSTSCRIPT_FIGURE
1002
{
1000
PSFILL
1000
Grayscale
1000
Grayscale
1070
   100
1002
}
  0
LINE
  5
42F0
  8
YODOROGO
 10
28091.162715989711
 20
1979.749496429288
 30
0.0
 11
28071.162715989711
 21
1979.749496429288
 31
0.0
1001
AUTOCAD_POSTSCRIPT_FIGURE
1002
{
1000
PSFILL
1000
Grayscale
1000
Grayscale
1070
   100
1002
}
  0
LINE
  5
42F1
  8
YODOROGO
 10
28095.806878519939
 20
1955.7494964292871
 30
0.0
 11
28091.162715989711
 21
1979.749496429288
 31
0.0
1001
AUTOCAD_POSTSCRIPT_FIGURE
1002
{
1000
PSFILL
1000
Grayscale
1000
Grayscale
1070
   100
1002
}
  0
LINE
  5
42F2
  8
YODOROGO
 10
28121.604341291921
 20
1955.7494964292871
 30
0.0
 11
28095.806878519939
 21
1955.7494964292871
 31
0.0
1001
AUTOCAD_POSTSCRIPT_FIGURE
1002
{
1000
PSFILL
1000
Grayscale
1000
Grayscale
1070
   100
1002
}
  0
LINE
  5
42F3
  8
YODOROGO
 10
28121.604341291921
 20
1979.749496429288
 30
0.0
 11
28121.604341291921
 21
1955.7494964292871
 31
0.0
1001
AUTOCAD_POSTSCRIPT_FIGURE
1002
{
1000
PSFILL
1000
Grayscale
1000
Grayscale
1070
   100
1002
}
  0
LINE
  5
42F4
  8
YODOROGO
 10
28137.604341291921
 20
1979.749496429288
 30
0.0
 11
28121.604341291921
 21
1979.749496429288
 31
0.0
1001
AUTOCAD_POSTSCRIPT_FIGURE
1002
{
1000
PSFILL
1000
Grayscale
1000
Grayscale
1070
   100
1002
}
  0
LINE
  5
42F5
  8
YODOROGO
 10
28137.604341291921
 20
1955.7494964292871
 30
0.0
 11
28137.604341291921
 21
1979.749496429288
 31
0.0
1001
AUTOCAD_POSTSCRIPT_FIGURE
1002
{
1000
PSFILL
1000
Grayscale
1000
Grayscale
1070
   100
1002
}
  0
LINE
  5
42F6
  8
YODOROGO
 10
28137.604341291921
 20
1939.749496429288
 30
0.0
 11
28137.604341291921
 21
1955.7494964292871
 31
0.0
1001
AUTOCAD_POSTSCRIPT_FIGURE
1002
{
1000
PSFILL
1000
Grayscale
1000
Grayscale
1070
   100
1002
}
  0
LINE
  5
42F7
  8
YODOROGO
 10
28098.902986873411
 20
1939.749496429288
 30
0.0
 11
28137.604341291921
 21
1939.749496429288
 31
0.0
1001
AUTOCAD_POSTSCRIPT_FIGURE
1002
{
1000
PSFILL
1000
Grayscale
1000
Grayscale
1070
   100
1002
}
  0
LINE
  5
42F8
  8
YODOROGO
 10
28137.604341291921
 20
1747.749496429286
 30
0.0
 11
28098.902986873411
 21
1939.749496429288
 31
0.0
1001
AUTOCAD_POSTSCRIPT_FIGURE
1002
{
1000
PSFILL
1000
Grayscale
1000
Grayscale
1070
   100
1002
}
  0
LINE
  5
42F9
  8
YODOROGO
 10
28129.60434129191
 20
1747.749496429286
 30
0.0
 11
28137.604341291921
 21
1747.749496429286
 31
0.0
1001
AUTOCAD_POSTSCRIPT_FIGURE
1002
{
1000
PSFILL
1000
Grayscale
1000
Grayscale
1070
   100
1002
}
  0
LINE
  5
42FA
  8
YODOROGO
 10
28078.06921993379
 20
1775.7407762987939
 30
0.0
 11
27977.604341291921
 21
1747.749496429286
 31
0.0
  0
LINE
  5
42FB
  8
YODOROGO
 10
28078.06921993379
 20
1798.6689795290731
 30
0.0
 11
28078.06921993379
 21
1775.7407762987939
 31
0.0
  0
LINE
  5
42FC
  8
YODOROGO
 10
28033.83678061287
 20
1786.816933133767
 30
0.0
 11
28078.06921993379
 21
1798.6689795290731
 31
0.0
  0
LINE
  5
42FD
  8
YODOROGO
 10
28033.83678061287
 20
1872.5683489362989
 30
0.0
 11
28033.83678061287
 21
1786.816933133767
 31
0.0
  0
LINE
  5
42FE
  8
YODOROGO
 10
28078.06921993379
 20
1872.5683489362989
 30
0.0
 11
28033.83678061287
 21
1872.5683489362989
 31
0.0
  0
LINE
  5
42FF
  8
YODOROGO
 10
28078.06921993379
 20
1892.568348936298
 30
0.0
 11
28078.06921993379
 21
1872.5683489362989
 31
0.0
  0
LINE
  5
4300
  8
YODOROGO
 10
27977.604341291921
 20
1892.568348936298
 30
0.0
 11
28078.06921993379
 21
1892.568348936298
 31
0.0
  0
LINE
  5
4301
  8
YODOROGO
 10
27977.604341291921
 20
1872.5683489362989
 30
0.0
 11
27977.604341291921
 21
1892.568348936298
 31
0.0
  0
LINE
  5
4302
  8
YODOROGO
 10
28021.836780612852
 20
1872.5683489362989
 30
0.0
 11
27977.604341291921
 21
1872.5683489362989
 31
0.0
  0
LINE
  5
4303
  8
YODOROGO
 10
28021.836780612852
 20
1784.673339594317
 30
0.0
 11
28021.836780612852
 21
1872.5683489362989
 31
0.0
  0
LINE
  5
4304
  8
YODOROGO
 10
27977.604341291921
 20
1771.749496429286
 30
0.0
 11
28021.836780612852
 21
1784.673339594317
 31
0.0
  0
LINE
  5
4305
  8
YODOROGO
 10
27977.604341291921
 20
1747.749496429286
 30
0.0
 11
27977.604341291921
 21
1771.749496429286
 31
0.0
  0
LINE
  5
4306
  8
YODOROGO
 10
28001.604341291921
 20
1707.749496429288
 30
0.0
 11
28001.604341291921
 21
1683.7494964292871
 31
0.0
  0
LINE
  5
4307
  8
YODOROGO
 10
28017.604341291921
 20
1707.749496429288
 30
0.0
 11
28001.604341291921
 21
1707.749496429288
 31
0.0
  0
LINE
  5
4308
  8
YODOROGO
 10
28017.604341291921
 20
1683.7494964292871
 30
0.0
 11
28017.604341291921
 21
1707.749496429288
 31
0.0
  0
LINE
  5
4309
  8
YODOROGO
 10
28040.913204016892
 20
1683.7494964292871
 30
0.0
 11
28017.604341291921
 21
1683.7494964292871
 31
0.0
  0
LINE
  5
430A
  8
YODOROGO
 10
28001.604341291921
 20
1683.7494964292871
 30
0.0
 11
27977.604341291921
 21
1683.7494964292871
 31
0.0
  0
LINE
  5
430B
  8
YODOROGO
 10
28082.135520230921
 20
1707.749496429288
 30
0.0
 11
28098.135520230931
 21
1707.749496429288
 31
0.0
1001
AUTOCAD_POSTSCRIPT_FIGURE
1002
{
1000
PSFILL
1000
Grayscale
1000
Grayscale
1070
   100
1002
}
  0
LINE
  5
430C
  8
YODOROGO
 10
28401.60434129191
 20
1824.877625640306
 30
0.0
 11
28401.60434129191
 21
1752.877625640306
 31
0.0
1001
AUTOCAD_POSTSCRIPT_FIGURE
1002
{
1000
PSFILL
1000
Grayscale
1000
Grayscale
1070
   100
1002
}
  0
LINE
  5
430D
  8
YODOROGO
 10
28401.60434129191
 20
1916.8776256403071
 30
0.0
 11
28401.60434129191
 21
1984.877625640306
 31
0.0
1001
AUTOCAD_POSTSCRIPT_FIGURE
1002
{
1000
PSFILL
1000
Grayscale
1000
Grayscale
1070
   100
1002
}
  0
LINE
  5
430E
  8
YODOROGO
 10
28433.60434129191
 20
1819.7494964292871
 30
0.0
 11
28433.60434129191
 21
1747.74949642929
 31
0.0
  0
LINE
  5
430F
  8
YODOROGO
 10
28497.60434129191
 20
1707.749496429288
 30
0.0
 11
28433.60434129191
 21
1707.749496429288
 31
0.0
  0
LINE
  5
4310
  8
YODOROGO
 10
28433.60434129191
 20
1747.74949642929
 30
0.0
 11
28585.604341291921
 21
1747.74949642929
 31
0.0
  0
LINE
  5
4311
  8
YODOROGO
 10
28497.60434129191
 20
1867.7494964292871
 30
0.0
 11
28433.60434129191
 21
1867.7494964292871
 31
0.0
  0
LINE
  5
4312
  8
YODOROGO
 10
28497.60434129191
 20
1923.7494964292871
 30
0.0
 11
28497.60434129191
 21
1867.7494964292871
 31
0.0
  0
LINE
  5
4313
  8
YODOROGO
 10
28585.604341291921
 20
1987.7494964292871
 30
0.0
 11
28585.604341291921
 21
2027.749496429288
 31
0.0
  0
LINE
  5
4314
  8
YODOROGO
 10
28433.60434129191
 20
1987.7494964292871
 30
0.0
 11
28585.604341291921
 21
1987.7494964292871
 31
0.0
  0
LINE
  5
4315
  8
YODOROGO
 10
28433.60434129191
 20
1867.7494964292871
 30
0.0
 11
28433.60434129191
 21
1987.7494964292871
 31
0.0
  0
LINE
  5
4316
  8
YODOROGO
 10
29001.60434129191
 20
2027.749496429288
 30
0.0
 11
29001.60434129191
 21
1619.749496429288
 31
0.0
  0
LINE
  5
4317
  8
YODOROGO
 10
29073.604341291921
 20
1579.749496429288
 30
0.0
 11
29073.604341291921
 21
2027.749496429288
 31
0.0
  0
LINE
  5
4318
  8
YODOROGO
 10
29261.604341291921
 20
1491.749496429286
 30
0.0
 11
29261.604341291921
 21
2007.749496429288
 31
0.0
  0
LINE
  5
4319
  8
YODOROGO
 10
29197.604341291921
 20
2007.749496429288
 30
0.0
 11
29197.604341291921
 21
1491.749496429286
 31
0.0
  0
LINE
  5
431A
  8
YODOROGO
 10
29385.604341291921
 20
2027.749496429288
 30
0.0
 11
29385.604341291921
 21
1427.749496429288
 31
0.0
  0
LINE
  5
431B
  8
YODOROGO
 10
29457.604341291921
 20
1427.749496429288
 30
0.0
 11
29457.604341291921
 21
2027.749496429288
 31
0.0
  0
LINE
  5
431C
  8
YODOROGO
 10
28657.604341291921
 20
1667.749496429288
 30
0.0
 11
28657.604341291921
 21
1747.74949642929
 31
0.0
  0
LINE
  5
431D
  8
YODOROGO
 10
29885.604341291921
 20
1707.749496429288
 30
0.0
 11
29885.604341291921
 21
1667.749496429288
 31
0.0
  0
LINE
  5
431E
  8
YODOROGO
 10
29885.604341291921
 20
1707.749496429288
 30
0.0
 11
29885.604341291921
 21
1667.749496429288
 31
0.0
  0
ARC
  5
431F
  8
YODOROGO
 10
28906.911576186842
 20
1618.217864442272
 30
0.0
 40
94.705151178741644
 50
274.05244162907098
 51
0.9266642149310712
  0
ARC
  5
4320
  8
YODOROGO
 10
28909.186170719819
 20
1592.61072861044
 30
0.0
 40
164.92042356085511
 50
271.5351210653775
 51
355.52727750585052
  0
LINE
  5
4321
  8
YODOROGO
 10
28913.604341291921
 20
1523.7494964292871
 30
0.0
 11
28913.604341291921
 21
1427.749496429288
 31
0.0
  0
LINE
  5
4322
  8
YODOROGO
 10
28793.60434129191
 20
1667.749496429288
 30
0.0
 11
28657.604341291921
 21
1667.749496429288
 31
0.0
  0
LINE
  5
4323
  8
YODOROGO
 10
28793.60434129191
 20
1603.7494964292871
 30
0.0
 11
28793.60434129191
 21
1667.749496429288
 31
0.0
  0
LINE
  5
4324
  8
YODOROGO
 10
28657.604341291921
 20
1603.7494964292871
 30
0.0
 11
28793.60434129191
 21
1603.7494964292871
 31
0.0
  0
LINE
  5
4325
  8
YODOROGO
 10
28657.604341291921
 20
1523.7494964292871
 30
0.0
 11
28657.604341291921
 21
1603.7494964292871
 31
0.0
  0
LINE
  5
4326
  8
YODOROGO
 10
28793.60434129191
 20
1523.7494964292871
 30
0.0
 11
28657.604341291921
 21
1523.7494964292871
 31
0.0
  0
LINE
  5
4327
  8
YODOROGO
 10
28793.60434129191
 20
1427.749496429288
 30
0.0
 11
28793.60434129191
 21
1523.7494964292871
 31
0.0
  0
LINE
  5
4328
  8
YODOROGO
 10
29197.604341291921
 20
1491.749496429286
 30
0.0
 11
29261.604341291921
 21
1491.749496429286
 31
0.0
  0
LINE
  5
4329
  8
YODOROGO
 10
29385.604341291921
 20
1427.749496429288
 30
0.0
 11
29457.604341291921
 21
1427.749496429288
 31
0.0
  0
LINE
  5
432A
  8
YODOROGO
 10
29737.604341291921
 20
1528.4414521705639
 30
0.0
 11
29737.604341291921
 21
1427.749496429288
 31
0.0
  0
LINE
  5
432B
  8
YODOROGO
 10
29617.604341291921
 20
1427.749496429288
 30
0.0
 11
29737.604341291921
 21
1528.4414521705639
 31
0.0
  0
LINE
  5
432C
  8
YODOROGO
 10
29617.604341291921
 20
1547.749496429288
 30
0.0
 11
29617.604341291921
 21
1427.749496429288
 31
0.0
  0
LINE
  5
432D
  8
YODOROGO
 10
29712.94462869945
 20
1627.749496429288
 30
0.0
 11
29617.604341291921
 21
1547.749496429288
 31
0.0
  0
LINE
  5
432E
  8
YODOROGO
 10
29617.604341291921
 20
1627.749496429288
 30
0.0
 11
29712.94462869945
 21
1627.749496429288
 31
0.0
  0
LINE
  5
432F
  8
YODOROGO
 10
29617.604341291921
 20
1667.749496429288
 30
0.0
 11
29617.604341291921
 21
1627.749496429288
 31
0.0
  0
LINE
  5
4330
  8
YODOROGO
 10
29885.604341291921
 20
1667.749496429288
 30
0.0
 11
29617.604341291921
 21
1667.749496429288
 31
0.0
  0
LINE
  5
4331
  8
YODOROGO
 10
29917.604341291921
 20
1627.749496429288
 30
0.0
 11
29777.604341291921
 21
1627.749496429288
 31
0.0
  0
LINE
  5
4332
  8
YODOROGO
 10
29777.604341291921
 20
1562.0054374176559
 30
0.0
 11
29771.409872985321
 21
1556.807661346234
 31
0.0
  0
LINE
  5
4333
  8
YODOROGO
 10
29777.604341291921
 20
1627.749496429288
 30
0.0
 11
29777.604341291921
 21
1562.0054374176559
 31
0.0
  0
LINE
  5
4334
  8
YODOROGO
 10
29737.604341291921
 20
1528.4414521705639
 30
0.0
 11
29737.604341291921
 21
1427.749496429288
 31
0.0
  0
LINE
  5
4335
  8
YODOROGO
 10
29617.604341291921
 20
1427.749496429288
 30
0.0
 11
29737.604341291921
 21
1528.4414521705639
 31
0.0
  0
LINE
  5
4336
  8
YODOROGO
 10
29617.604341291921
 20
1547.749496429288
 30
0.0
 11
29617.604341291921
 21
1427.749496429288
 31
0.0
  0
LINE
  5
4337
  8
YODOROGO
 10
29712.94462869945
 20
1627.749496429288
 30
0.0
 11
29617.604341291921
 21
1547.749496429288
 31
0.0
  0
LINE
  5
4338
  8
YODOROGO
 10
29617.604341291921
 20
1627.749496429288
 30
0.0
 11
29712.94462869945
 21
1627.749496429288
 31
0.0
  0
LINE
  5
4339
  8
YODOROGO
 10
29617.604341291921
 20
1667.749496429288
 30
0.0
 11
29617.604341291921
 21
1627.749496429288
 31
0.0
  0
LINE
  5
433A
  8
YODOROGO
 10
29885.604341291921
 20
1667.749496429288
 30
0.0
 11
29617.604341291921
 21
1667.749496429288
 31
0.0
  0
LINE
  5
433B
  8
YODOROGO
 10
28793.60434129191
 20
1747.74949642929
 30
0.0
 11
28793.60434129191
 21
1819.7494964292871
 31
0.0
  0
LINE
  5
433C
  8
YODOROGO
 10
28657.604341291921
 20
1747.74949642929
 30
0.0
 11
28793.60434129191
 21
1747.74949642929
 31
0.0
  0
LINE
  5
433D
  8
YODOROGO
 10
28729.604341291921
 20
1867.7494964292871
 30
0.0
 11
28729.604341291921
 21
1923.7494964292871
 31
0.0
  0
LINE
  5
433E
  8
YODOROGO
 10
28793.60434129191
 20
1867.7494964292871
 30
0.0
 11
28729.604341291921
 21
1867.7494964292871
 31
0.0
  0
LINE
  5
433F
  8
YODOROGO
 10
28793.60434129191
 20
1947.749496429288
 30
0.0
 11
28793.60434129191
 21
1867.7494964292871
 31
0.0
  0
ARC
  5
4340
  8
YODOROGO
 10
28753.60434129191
 20
1947.749496429288
 30
0.0
 40
40.0
 50
0.0
 51
90.0
  0
LINE
  5
4341
  8
YODOROGO
 10
28657.604341291921
 20
1987.7494964292871
 30
0.0
 11
28753.60434129191
 21
1987.7494964292871
 31
0.0
  0
LINE
  5
4342
  8
YODOROGO
 10
28657.604341291921
 20
2027.749496429288
 30
0.0
 11
28657.604341291921
 21
1987.7494964292871
 31
0.0
  0
LINE
  5
4343
  8
YODOROGO
 10
29073.604341291921
 20
2027.749496429288
 30
0.0
 11
29001.60434129191
 21
2027.749496429288
 31
0.0
  0
LINE
  5
4344
  8
YODOROGO
 10
29261.604341291921
 20
2007.749496429288
 30
0.0
 11
29197.604341291921
 21
2007.749496429288
 31
0.0
  0
LINE
  5
4345
  8
YODOROGO
 10
29457.604341291921
 20
2027.749496429288
 30
0.0
 11
29385.604341291921
 21
2027.749496429288
 31
0.0
  0
LINE
  5
4346
  8
YODOROGO
 10
29673.604341291921
 20
1707.749496429288
 30
0.0
 11
29673.604341291921
 21
1771.7494964292871
 31
0.0
1001
AUTOCAD_POSTSCRIPT_FIGURE
1002
{
1000
PSFILL
1000
Grayscale
1000
Grayscale
1070
    25
1002
}
  0
LINE
  5
4347
  8
YODOROGO
 10
29617.604341291921
 20
1707.749496429288
 30
0.0
 11
29673.604341291921
 21
1707.749496429288
 31
0.0
1001
AUTOCAD_POSTSCRIPT_FIGURE
1002
{
1000
PSFILL
1000
Grayscale
1000
Grayscale
1070
    25
1002
}
  0
LINE
  5
4348
  8
YODOROGO
 10
29617.604341291921
 20
1819.7494964292871
 30
0.0
 11
29617.604341291921
 21
1707.749496429288
 31
0.0
1001
AUTOCAD_POSTSCRIPT_FIGURE
1002
{
1000
PSFILL
1000
Grayscale
1000
Grayscale
1070
    25
1002
}
  0
LINE
  5
4349
  8
YODOROGO
 10
29765.604341291921
 20
1819.7494964292871
 30
0.0
 11
29617.604341291921
 21
1819.7494964292871
 31
0.0
1001
AUTOCAD_POSTSCRIPT_FIGURE
1002
{
1000
PSFILL
1000
Grayscale
1000
Grayscale
1070
    25
1002
}
  0
LINE
  5
434A
  8
YODOROGO
 10
29765.604341291921
 20
1859.749496429288
 30
0.0
 11
29765.604341291921
 21
1819.7494964292871
 31
0.0
1001
AUTOCAD_POSTSCRIPT_FIGURE
1002
{
1000
PSFILL
1000
Grayscale
1000
Grayscale
1070
    25
1002
}
  0
LINE
  5
434B
  8
YODOROGO
 10
29617.604341291921
 20
1859.749496429288
 30
0.0
 11
29765.604341291921
 21
1859.749496429288
 31
0.0
1001
AUTOCAD_POSTSCRIPT_FIGURE
1002
{
1000
PSFILL
1000
Grayscale
1000
Grayscale
1070
    25
1002
}
  0
LINE
  5
434C
  8
YODOROGO
 10
29617.604341291921
 20
1907.7494964292871
 30
0.0
 11
29617.604341291921
 21
1859.749496429288
 31
0.0
1001
AUTOCAD_POSTSCRIPT_FIGURE
1002
{
1000
PSFILL
1000
Grayscale
1000
Grayscale
1070
    25
1002
}
  0
LINE
  5
434D
  8
YODOROGO
 10
29765.604341291921
 20
1907.7494964292871
 30
0.0
 11
29617.604341291921
 21
1907.7494964292871
 31
0.0
1001
AUTOCAD_POSTSCRIPT_FIGURE
1002
{
1000
PSFILL
1000
Grayscale
1000
Grayscale
1070
    25
1002
}
  0
LINE
  5
434E
  8
YODOROGO
 10
29765.604341291921
 20
1947.749496429288
 30
0.0
 11
29765.604341291921
 21
1907.7494964292871
 31
0.0
1001
AUTOCAD_POSTSCRIPT_FIGURE
1002
{
1000
PSFILL
1000
Grayscale
1000
Grayscale
1070
    25
1002
}
  0
LINE
  5
434F
  8
YODOROGO
 10
29617.604341291921
 20
1947.749496429288
 30
0.0
 11
29765.604341291921
 21
1947.749496429288
 31
0.0
1001
AUTOCAD_POSTSCRIPT_FIGURE
1002
{
1000
PSFILL
1000
Grayscale
1000
Grayscale
1070
    25
1002
}
  0
LINE
  5
4350
  8
YODOROGO
 10
29617.604341291921
 20
2027.749496429288
 30
0.0
 11
29617.604341291921
 21
1947.749496429288
 31
0.0
1001
AUTOCAD_POSTSCRIPT_FIGURE
1002
{
1000
PSFILL
1000
Grayscale
1000
Grayscale
1070
    25
1002
}
  0
LINE
  5
4351
  8
YODOROGO
 10
29665.604341291921
 20
2027.749496429288
 30
0.0
 11
29617.604341291921
 21
2027.749496429288
 31
0.0
1001
AUTOCAD_POSTSCRIPT_FIGURE
1002
{
1000
PSFILL
1000
Grayscale
1000
Grayscale
1070
    25
1002
}
  0
LINE
  5
4352
  8
YODOROGO
 10
29665.604341291921
 20
1995.7494964292871
 30
0.0
 11
29665.604341291921
 21
2027.749496429288
 31
0.0
1001
AUTOCAD_POSTSCRIPT_FIGURE
1002
{
1000
PSFILL
1000
Grayscale
1000
Grayscale
1070
    25
1002
}
  0
LINE
  5
4353
  8
YODOROGO
 10
29765.604341291921
 20
1995.7494964292871
 30
0.0
 11
29665.604341291921
 21
1995.7494964292871
 31
0.0
1001
AUTOCAD_POSTSCRIPT_FIGURE
1002
{
1000
PSFILL
1000
Grayscale
1000
Grayscale
1070
    25
1002
}
  0
LINE
  5
4354
  8
YODOROGO
 10
29765.604341291921
 20
2027.749496429288
 30
0.0
 11
29765.604341291921
 21
1995.7494964292871
 31
0.0
1001
AUTOCAD_POSTSCRIPT_FIGURE
1002
{
1000
PSFILL
1000
Grayscale
1000
Grayscale
1070
    25
1002
}
  0
LINE
  5
4355
  8
YODOROGO
 10
29829.604341291921
 20
2027.749496429288
 30
0.0
 11
29765.604341291921
 21
2027.749496429288
 31
0.0
1001
AUTOCAD_POSTSCRIPT_FIGURE
1002
{
1000
PSFILL
1000
Grayscale
1000
Grayscale
1070
    25
1002
}
  0
LINE
  5
4356
  8
YODOROGO
 10
29829.604341291921
 20
1995.7494964292871
 30
0.0
 11
29829.604341291921
 21
2027.749496429288
 31
0.0
1001
AUTOCAD_POSTSCRIPT_FIGURE
1002
{
1000
PSFILL
1000
Grayscale
1000
Grayscale
1070
    25
1002
}
  0
LINE
  5
4357
  8
YODOROGO
 10
29829.604341291921
 20
1907.7494964292871
 30
0.0
 11
29829.604341291921
 21
1947.749496429288
 31
0.0
1001
AUTOCAD_POSTSCRIPT_FIGURE
1002
{
1000
PSFILL
1000
Grayscale
1000
Grayscale
1070
    25
1002
}
  0
LINE
  5
4358
  8
YODOROGO
 10
29829.604341291921
 20
1819.7494964292871
 30
0.0
 11
29829.604341291921
 21
1859.749496429288
 31
0.0
1001
AUTOCAD_POSTSCRIPT_FIGURE
1002
{
1000
PSFILL
1000
Grayscale
1000
Grayscale
1070
    25
1002
}
  0
LINE
  5
4359
  8
YODOROGO
 10
29921.60434129191
 20
1771.7494964292871
 30
0.0
 11
29921.60434129191
 21
1707.749496429288
 31
0.0
1001
AUTOCAD_POSTSCRIPT_FIGURE
1002
{
1000
PSFILL
1000
Grayscale
1000
Grayscale
1070
    25
1002
}
  0
LINE
  5
435A
  8
YODOROGO
 10
29829.604341291921
 20
1771.7494964292871
 30
0.0
 11
29921.60434129191
 21
1771.7494964292871
 31
0.0
1001
AUTOCAD_POSTSCRIPT_FIGURE
1002
{
1000
PSFILL
1000
Grayscale
1000
Grayscale
1070
    25
1002
}
  0
LINE
  5
435B
  8
YODOROGO
 10
29829.604341291921
 20
1707.749496429288
 30
0.0
 11
29829.604341291921
 21
1771.7494964292871
 31
0.0
1001
AUTOCAD_POSTSCRIPT_FIGURE
1002
{
1000
PSFILL
1000
Grayscale
1000
Grayscale
1070
    25
1002
}
  0
LINE
  5
435C
  8
YODOROGO
 10
29765.604341291921
 20
1707.749496429288
 30
0.0
 11
29829.604341291921
 21
1707.749496429288
 31
0.0
1001
AUTOCAD_POSTSCRIPT_FIGURE
1002
{
1000
PSFILL
1000
Grayscale
1000
Grayscale
1070
    25
1002
}
  0
LINE
  5
435D
  8
YODOROGO
 10
29765.604341291921
 20
1771.7494964292871
 30
0.0
 11
29765.604341291921
 21
1707.749496429288
 31
0.0
1001
AUTOCAD_POSTSCRIPT_FIGURE
1002
{
1000
PSFILL
1000
Grayscale
1000
Grayscale
1070
    25
1002
}
  0
LINE
  5
435E
  8
YODOROGO
 10
29673.604341291921
 20
1771.7494964292871
 30
0.0
 11
29765.604341291921
 21
1771.7494964292871
 31
0.0
1001
AUTOCAD_POSTSCRIPT_FIGURE
1002
{
1000
PSFILL
1000
Grayscale
1000
Grayscale
1070
    25
1002
}
  0
ARC
  5
435F
  8
YODOROGO
 10
31059.517893357912
 20
1602.6807375155761
 30
0.0
 40
178.22128111072141
 50
281.02627495425338
 51
357.77113575573799
  0
LINE
  5
4360
  8
YODOROGO
 10
31413.604341291921
 20
1907.7494964292871
 30
0.0
 11
31165.604341291921
 21
1907.7494964292871
 31
0.0
  0
LINE
  5
4361
  8
YODOROGO
 10
31413.604341291921
 20
2027.749496429288
 30
0.0
 11
31165.604341291921
 21
2027.749496429288
 31
0.0
  0
LINE
  5
4362
  8
YODOROGO
 10
31165.604341291921
 20
1963.749496429286
 30
0.0
 11
31413.604341291921
 21
1963.749496429286
 31
0.0
  0
LINE
  5
4363
  8
YODOROGO
 10
30791.604341291921
 20
1563.7494964292871
 30
0.0
 11
30791.604341291921
 21
1755.7494964292871
 31
0.0
  0
LINE
  5
4364
  8
YODOROGO
 10
30763.604341291921
 20
1691.749496429288
 30
0.0
 11
30763.604341291921
 21
1563.7494964292871
 31
0.0
  0
LINE
  5
4365
  8
YODOROGO
 10
30723.604341291921
 20
1491.749496429288
 30
0.0
 11
30723.604341291921
 21
1691.749496429288
 31
0.0
  0
LINE
  5
4366
  8
YODOROGO
 10
30899.604341291932
 20
1691.749496429288
 30
0.0
 11
30899.604341291932
 21
1491.749496429288
 31
0.0
  0
LINE
  5
4367
  8
YODOROGO
 10
30859.604341291932
 20
1563.7494964292871
 30
0.0
 11
30859.604341291932
 21
1691.749496429288
 31
0.0
  0
LINE
  5
4368
  8
YODOROGO
 10
30831.604341291921
 20
1755.7494964292871
 30
0.0
 11
30831.604341291921
 21
1563.7494964292871
 31
0.0
  0
LINE
  5
4369
  8
YODOROGO
 10
30973.604341291921
 20
2027.749496429288
 30
0.0
 11
30973.604341291921
 21
1467.749496429288
 31
0.0
  0
LINE
  5
436A
  8
YODOROGO
 10
30645.604341291921
 20
1427.749496429288
 30
0.0
 11
30645.604341291921
 21
2027.749496429288
 31
0.0
  0
LINE
  5
436B
  8
YODOROGO
 10
30697.604341291932
 20
1963.749496429286
 30
0.0
 11
30697.604341291932
 21
1427.749496429288
 31
0.0
  0
LINE
  5
436C
  8
YODOROGO
 10
30925.604341291921
 20
1547.749496429288
 30
0.0
 11
30925.604341291921
 21
1963.749496429286
 31
0.0
  0
LINE
  5
436D
  8
YODOROGO
 10
30381.604341291932
 20
1627.749496429288
 30
0.0
 11
30381.604341291932
 21
1679.749496429288
 31
0.0
  0
LINE
  5
436E
  8
YODOROGO
 10
30617.604341291921
 20
1679.749496429288
 30
0.0
 11
30617.604341291921
 21
1627.749496429288
 31
0.0
  0
LINE
  5
436F
  8
YODOROGO
 10
31165.604341291921
 20
1907.7494964292871
 30
0.0
 11
31165.604341291921
 21
1635.7494964292871
 31
0.0
  0
LINE
  5
4370
  8
YODOROGO
 10
29949.60434129191
 20
1667.749496429288
 30
0.0
 11
29949.60434129191
 21
1707.749496429288
 31
0.0
  0
LINE
  5
4371
  8
YODOROGO
 10
29949.60434129191
 20
1667.749496429288
 30
0.0
 11
29949.60434129191
 21
1707.749496429288
 31
0.0
  0
ARC
  5
4372
  8
YODOROGO
 10
30537.604341291921
 20
1507.749496429288
 30
0.0
 40
80.0
 50
270.0
 51
0.0
  0
LINE
  5
4373
  8
YODOROGO
 10
30569.604341291921
 20
1599.7494964292871
 30
0.0
 11
30617.604341291921
 21
1599.7494964292871
 31
0.0
  0
LINE
  5
4374
  8
YODOROGO
 10
30617.604341291921
 20
1627.749496429288
 30
0.0
 11
30529.604341291939
 21
1627.749496429288
 31
0.0
  0
LINE
  5
4375
  8
YODOROGO
 10
30217.604341291921
 20
1667.749496429288
 30
0.0
 11
29949.60434129191
 21
1667.749496429288
 31
0.0
  0
LINE
  5
4376
  8
YODOROGO
 10
30217.604341291921
 20
1627.749496429288
 30
0.0
 11
30217.604341291921
 21
1667.749496429288
 31
0.0
  0
LINE
  5
4377
  8
YODOROGO
 10
30017.604341291921
 20
1627.749496429288
 30
0.0
 11
30217.604341291921
 21
1627.749496429288
 31
0.0
  0
ARC
  5
4378
  8
YODOROGO
 10
30230.05882870136
 20
1868.885714952901
 30
0.0
 40
321.37763628522822
 50
228.6181454618993
 51
245.660289248906
  0
LINE
  5
4379
  8
YODOROGO
 10
30105.604341291921
 20
1603.7494964292871
 30
0.0
 11
30097.60434129195
 21
1576.0728158699001
 31
0.0
  0
LINE
  5
437A
  8
YODOROGO
 10
30189.604341291921
 20
1603.7494964292871
 30
0.0
 11
30105.604341291921
 21
1603.7494964292871
 31
0.0
  0
LINE
  5
437B
  8
YODOROGO
 10
30177.604341291921
 20
1551.817722473427
 30
0.0
 11
30189.604341291921
 21
1603.7494964292871
 31
0.0
  0
ARC
  5
437C
  8
YODOROGO
 10
30230.05882870045
 20
1868.885714953002
 30
0.0
 40
321.37763628529081
 50
260.60629297969911
 51
267.77903556555862
  0
LINE
  5
437D
  8
YODOROGO
 10
30217.604341291921
 20
1427.749496429285
 30
0.0
 11
30217.604341291921
 21
1547.749496429288
 31
0.0
  0
LINE
  5
437E
  8
YODOROGO
 10
29937.604341291932
 20
1481.3393349155101
 30
0.0
 11
29937.604341291921
 21
1594.531090531141
 31
0.0
  0
LINE
  5
437F
  8
YODOROGO
 10
30217.604341291921
 20
1667.749496429288
 30
0.0
 11
29949.60434129191
 21
1667.749496429288
 31
0.0
  0
LINE
  5
4380
  8
YODOROGO
 10
30217.604341291921
 20
1627.749496429288
 30
0.0
 11
30217.604341291921
 21
1667.749496429288
 31
0.0
  0
LINE
  5
4381
  8
YODOROGO
 10
30017.604341291921
 20
1627.749496429288
 30
0.0
 11
30217.604341291921
 21
1627.749496429288
 31
0.0
  0
ARC
  5
4382
  8
YODOROGO
 10
30230.05882870136
 20
1868.885714952901
 30
0.0
 40
321.37763628522822
 50
228.6181454618993
 51
245.660289248906
  0
LINE
  5
4383
  8
YODOROGO
 10
30105.604341291921
 20
1603.7494964292871
 30
0.0
 11
30097.60434129195
 21
1576.0728158699001
 31
0.0
  0
LINE
  5
4384
  8
YODOROGO
 10
30189.604341291921
 20
1603.7494964292871
 30
0.0
 11
30105.604341291921
 21
1603.7494964292871
 31
0.0
  0
LINE
  5
4385
  8
YODOROGO
 10
30177.604341291921
 20
1551.817722473427
 30
0.0
 11
30189.604341291921
 21
1603.7494964292871
 31
0.0
  0
ARC
  5
4386
  8
YODOROGO
 10
30230.05882870045
 20
1868.885714953002
 30
0.0
 40
321.37763628529081
 50
260.60629297969911
 51
267.77903556555862
  0
LINE
  5
4387
  8
YODOROGO
 10
30217.604341291921
 20
1427.749496429285
 30
0.0
 11
30217.604341291921
 21
1547.749496429288
 31
0.0
  0
LINE
  5
4388
  8
YODOROGO
 10
29937.604341291932
 20
1481.3393349155101
 30
0.0
 11
29937.604341291921
 21
1594.531090531141
 31
0.0
  0
LINE
  5
4389
  8
YODOROGO
 10
30433.604341291921
 20
1573.749496429288
 30
0.0
 11
30381.604341291932
 21
1573.749496429288
 31
0.0
  0
LINE
  5
438A
  8
YODOROGO
 10
30433.604341291921
 20
1601.749496429285
 30
0.0
 11
30433.604341291921
 21
1573.749496429288
 31
0.0
  0
LINE
  5
438B
  8
YODOROGO
 10
30381.604341291932
 20
1601.749496429285
 30
0.0
 11
30433.604341291921
 21
1601.749496429285
 31
0.0
  0
LINE
  5
438C
  8
YODOROGO
 10
30381.604341291932
 20
1573.749496429288
 30
0.0
 11
30381.604341291932
 21
1601.749496429285
 31
0.0
  0
LINE
  5
438D
  8
YODOROGO
 10
30429.604341291921
 20
1577.7494964292871
 30
0.0
 11
30385.604341291921
 21
1577.7494964292871
 31
0.0
  0
LINE
  5
438E
  8
YODOROGO
 10
30429.604341291921
 20
1597.749496429288
 30
0.0
 11
30429.604341291921
 21
1577.7494964292871
 31
0.0
  0
LINE
  5
438F
  8
YODOROGO
 10
30385.604341291921
 20
1597.749496429288
 30
0.0
 11
30429.604341291921
 21
1597.749496429288
 31
0.0
  0
LINE
  5
4390
  8
YODOROGO
 10
30385.604341291921
 20
1577.7494964292871
 30
0.0
 11
30385.604341291921
 21
1597.749496429288
 31
0.0
  0
LINE
  5
4391
  8
YODOROGO
 10
30425.604341291921
 20
1581.749496429286
 30
0.0
 11
30389.604341291921
 21
1581.749496429286
 31
0.0
  0
LINE
  5
4392
  8
YODOROGO
 10
30425.604341291921
 20
1593.749496429288
 30
0.0
 11
30425.604341291921
 21
1581.749496429286
 31
0.0
  0
LINE
  5
4393
  8
YODOROGO
 10
30389.604341291921
 20
1593.749496429288
 30
0.0
 11
30425.604341291921
 21
1593.749496429288
 31
0.0
  0
LINE
  5
4394
  8
YODOROGO
 10
30389.604341291921
 20
1581.749496429286
 30
0.0
 11
30389.604341291921
 21
1593.749496429288
 31
0.0
  0
LINE
  5
4395
  8
YODOROGO
 10
30421.604341291932
 20
1585.7494964292871
 30
0.0
 11
30393.604341291921
 21
1585.7494964292871
 31
0.0
  0
LINE
  5
4396
  8
YODOROGO
 10
30421.604341291932
 20
1589.749496429288
 30
0.0
 11
30421.604341291932
 21
1585.7494964292871
 31
0.0
  0
LINE
  5
4397
  8
YODOROGO
 10
30393.604341291921
 20
1589.749496429288
 30
0.0
 11
30421.604341291932
 21
1589.749496429288
 31
0.0
  0
LINE
  5
4398
  8
YODOROGO
 10
30393.604341291921
 20
1585.7494964292871
 30
0.0
 11
30393.604341291921
 21
1589.749496429288
 31
0.0
  0
LINE
  5
4399
  8
YODOROGO
 10
30465.604341291921
 20
1627.749496429288
 30
0.0
 11
30381.604341291932
 21
1627.749496429288
 31
0.0
  0
LINE
  5
439A
  8
YODOROGO
 10
30465.604341291921
 20
1547.749496429288
 30
0.0
 11
30465.604341291921
 21
1627.749496429288
 31
0.0
  0
LINE
  5
439B
  8
YODOROGO
 10
30381.604341291932
 20
1547.749496429288
 30
0.0
 11
30465.604341291921
 21
1547.749496429288
 31
0.0
  0
LINE
  5
439C
  8
YODOROGO
 10
30381.604341291932
 20
1427.749496429288
 30
0.0
 11
30381.604341291932
 21
1547.749496429288
 31
0.0
  0
LINE
  5
439D
  8
YODOROGO
 10
30537.604341291921
 20
1427.749496429288
 30
0.0
 11
30381.604341291932
 21
1427.749496429288
 31
0.0
  0
LINE
  5
439E
  8
YODOROGO
 10
30569.604341291921
 20
1571.749496429285
 30
0.0
 11
30569.604341291921
 21
1599.7494964292871
 31
0.0
  0
ARC
  5
439F
  8
YODOROGO
 10
30545.604341291921
 20
1571.749496429291
 30
0.0
 40
24.000000000003752
 50
270.0
 51
359.99999999998772
  0
LINE
  5
43A0
  8
YODOROGO
 10
30529.604341291939
 20
1547.749496429288
 30
0.0
 11
30545.604341291921
 21
1547.749496429288
 31
0.0
  0
LINE
  5
43A1
  8
YODOROGO
 10
30529.604341291939
 20
1627.749496429288
 30
0.0
 11
30529.604341291939
 21
1547.749496429288
 31
0.0
  0
LINE
  5
43A2
  8
YODOROGO
 10
30899.604341291932
 20
1547.749496429288
 30
0.0
 11
30925.604341291921
 21
1547.749496429288
 31
0.0
  0
LINE
  5
43A3
  8
YODOROGO
 10
30933.604341291921
 20
1427.749496429288
 30
0.0
 11
30899.604341291932
 21
1427.749496429288
 31
0.0
  0
LINE
  5
43A4
  8
YODOROGO
 10
30763.604341291921
 20
1563.7494964292871
 30
0.0
 11
30791.604341291921
 21
1563.7494964292871
 31
0.0
  0
LINE
  5
43A5
  8
YODOROGO
 10
30899.604341291932
 20
1491.749496429288
 30
0.0
 11
30723.604341291921
 21
1491.749496429288
 31
0.0
  0
LINE
  5
43A6
  8
YODOROGO
 10
30831.604341291921
 20
1563.7494964292871
 30
0.0
 11
30859.604341291932
 21
1563.7494964292871
 31
0.0
  0
LINE
  5
43A7
  8
YODOROGO
 10
30899.604341291932
 20
1427.749496429288
 30
0.0
 11
30899.604341291932
 21
1547.749496429288
 31
0.0
  0
LINE
  5
43A8
  8
YODOROGO
 10
30697.604341291932
 20
1427.749496429288
 30
0.0
 11
30645.604341291921
 21
1427.749496429288
 31
0.0
  0
LINE
  5
43A9
  8
YODOROGO
 10
30617.604341291921
 20
1599.7494964292871
 30
0.0
 11
30617.604341291921
 21
1507.749496429288
 31
0.0
  0
ARC
  5
43AA
  8
YODOROGO
 10
30933.604341291921
 20
1467.749496429288
 30
0.0
 40
40.0
 50
270.0
 51
0.0
  0
LINE
  5
43AB
  8
YODOROGO
 10
31093.604341291921
 20
1523.7494964292871
 30
0.0
 11
31093.604341291921
 21
1427.749496429288
 31
0.0
  0
ARC
  5
43AC
  8
YODOROGO
 10
31039.721395566768
 20
1637.5313901097329
 30
0.0
 40
125.8955565916754
 50
295.34052442160112
 51
359.18902303418679
  0
LINE
  5
43AD
  8
YODOROGO
 10
30617.604341291921
 20
1859.749496429288
 30
0.0
 11
30497.604341291921
 21
1939.749496429288
 31
0.0
  0
LINE
  5
43AE
  8
YODOROGO
 10
30497.604341291921
 20
2027.749496429288
 30
0.0
 11
30617.604341291921
 21
1947.749496429288
 31
0.0
  0
LINE
  5
43AF
  8
YODOROGO
 10
30529.604341291939
 20
1679.749496429288
 30
0.0
 11
30617.604341291921
 21
1679.749496429288
 31
0.0
  0
LINE
  5
43B0
  8
YODOROGO
 10
30617.604341291921
 20
1735.7494964292871
 30
0.0
 11
30529.604341291939
 21
1735.7494964292871
 31
0.0
  0
LINE
  5
43B1
  8
YODOROGO
 10
30381.604341291932
 20
1795.7494964292871
 30
0.0
 11
30617.604341291921
 21
1795.7494964292871
 31
0.0
  0
LINE
  5
43B2
  8
YODOROGO
 10
30081.604341291921
 20
2027.749496429288
 30
0.0
 11
30021.604341291921
 21
2027.749496429288
 31
0.0
  0
LINE
  5
43B3
  8
YODOROGO
 10
30081.604341291921
 20
1827.7494964292871
 30
0.0
 11
30081.604341291921
 21
2027.749496429288
 31
0.0
  0
LINE
  5
43B4
  8
YODOROGO
 10
30021.604341291921
 20
1827.7494964292871
 30
0.0
 11
30081.604341291921
 21
1827.7494964292871
 31
0.0
  0
LINE
  5
43B5
  8
YODOROGO
 10
30021.604341291921
 20
2027.749496429288
 30
0.0
 11
30021.604341291921
 21
1827.7494964292871
 31
0.0
  0
LINE
  5
43B6
  8
YODOROGO
 10
30161.604341291921
 20
2027.749496429288
 30
0.0
 11
30217.604341291921
 21
2027.749496429288
 31
0.0
  0
LINE
  5
43B7
  8
YODOROGO
 10
30161.604341291921
 20
1811.749496429288
 30
0.0
 11
30161.604341291921
 21
2027.749496429288
 31
0.0
  0
ARC
  5
43B8
  8
YODOROGO
 10
30121.604341291921
 20
1811.749496429288
 30
0.0
 40
40.0
 50
270.0
 51
0.0
  0
LINE
  5
43B9
  8
YODOROGO
 10
30021.604341291921
 20
1771.7494964292871
 30
0.0
 11
30121.604341291921
 21
1771.7494964292871
 31
0.0
  0
LINE
  5
43BA
  8
YODOROGO
 10
30021.604341291921
 20
1707.749496429288
 30
0.0
 11
30021.604341291921
 21
1771.7494964292871
 31
0.0
  0
LINE
  5
43BB
  8
YODOROGO
 10
30137.604341291921
 20
1707.749496429288
 30
0.0
 11
30021.604341291921
 21
1707.749496429288
 31
0.0
  0
ARC
  5
43BC
  8
YODOROGO
 10
30137.604341291921
 20
1787.7494964292871
 30
0.0
 40
80.0
 50
270.0
 51
0.0
  0
LINE
  5
43BD
  8
YODOROGO
 10
30217.604341291921
 20
2027.749496429288
 30
0.0
 11
30217.604341291921
 21
1787.7494964292871
 31
0.0
  0
LINE
  5
43BE
  8
YODOROGO
 10
29977.604341291921
 20
1947.749496429288
 30
0.0
 11
29977.604341291921
 21
1995.7494964292871
 31
0.0
1001
AUTOCAD_POSTSCRIPT_FIGURE
1002
{
1000
PSFILL
1000
Grayscale
1000
Grayscale
1070
    25
1002
}
  0
LINE
  5
43BF
  8
YODOROGO
 10
29977.604341291921
 20
1859.749496429288
 30
0.0
 11
29977.604341291921
 21
1907.7494964292871
 31
0.0
1001
AUTOCAD_POSTSCRIPT_FIGURE
1002
{
1000
PSFILL
1000
Grayscale
1000
Grayscale
1070
    25
1002
}
  0
LINE
  5
43C0
  8
YODOROGO
 10
29977.604341291921
 20
1707.749496429288
 30
0.0
 11
29977.604341291921
 21
1819.7494964292871
 31
0.0
1001
AUTOCAD_POSTSCRIPT_FIGURE
1002
{
1000
PSFILL
1000
Grayscale
1000
Grayscale
1070
    25
1002
}
  0
LINE
  5
43C1
  8
YODOROGO
 10
30381.604341291932
 20
1907.7494964292871
 30
0.0
 11
30497.604341291921
 21
2027.749496429288
 31
0.0
  0
LINE
  5
43C2
  8
YODOROGO
 10
30381.604341291932
 20
1819.7494964292871
 30
0.0
 11
30381.604341291932
 21
1907.7494964292871
 31
0.0
  0
LINE
  5
43C3
  8
YODOROGO
 10
30497.604341291921
 20
1939.749496429288
 30
0.0
 11
30381.604341291932
 21
1819.7494964292871
 31
0.0
  0
LINE
  5
43C4
  8
YODOROGO
 10
30465.604341291921
 20
1679.749496429288
 30
0.0
 11
30465.604341291921
 21
1735.7494964292871
 31
0.0
  0
LINE
  5
43C5
  8
YODOROGO
 10
30381.604341291932
 20
1679.749496429288
 30
0.0
 11
30465.604341291921
 21
1679.749496429288
 31
0.0
  0
LINE
  5
43C6
  8
YODOROGO
 10
30529.604341291939
 20
1735.7494964292871
 30
0.0
 11
30529.604341291939
 21
1679.749496429288
 31
0.0
  0
LINE
  5
43C7
  8
YODOROGO
 10
30381.604341291932
 20
1735.7494964292871
 30
0.0
 11
30381.604341291932
 21
1795.7494964292871
 31
0.0
  0
LINE
  5
43C8
  8
YODOROGO
 10
30465.604341291921
 20
1735.7494964292871
 30
0.0
 11
30381.604341291932
 21
1735.7494964292871
 31
0.0
  0
LINE
  5
43C9
  8
YODOROGO
 10
30645.604341291921
 20
2027.749496429288
 30
0.0
 11
30973.604341291921
 21
2027.749496429288
 31
0.0
  0
LINE
  5
43CA
  8
YODOROGO
 10
30925.604341291921
 20
1963.749496429286
 30
0.0
 11
30697.604341291932
 21
1963.749496429286
 31
0.0
  0
LINE
  5
43CB
  8
YODOROGO
 10
30873.604341291921
 20
1819.7494964292871
 30
0.0
 11
30899.604341291932
 21
1819.7494964292871
 31
0.0
  0
LINE
  5
43CC
  8
YODOROGO
 10
30899.604341291932
 20
1939.749496429288
 30
0.0
 11
30873.604341291921
 21
1819.7494964292871
 31
0.0
  0
LINE
  5
43CD
  8
YODOROGO
 10
30851.604341291939
 20
1939.749496429288
 30
0.0
 11
30899.604341291932
 21
1939.749496429288
 31
0.0
  0
LINE
  5
43CE
  8
YODOROGO
 10
30825.604341291921
 20
1819.7494964292871
 30
0.0
 11
30851.604341291939
 21
1939.749496429288
 31
0.0
  0
LINE
  5
43CF
  8
YODOROGO
 10
30797.604341291921
 20
1819.7494964292871
 30
0.0
 11
30825.604341291921
 21
1819.7494964292871
 31
0.0
  0
LINE
  5
43D0
  8
YODOROGO
 10
30771.604341291939
 20
1939.749496429288
 30
0.0
 11
30797.604341291921
 21
1819.7494964292871
 31
0.0
  0
LINE
  5
43D1
  8
YODOROGO
 10
30723.604341291921
 20
1939.749496429288
 30
0.0
 11
30771.604341291939
 21
1939.749496429288
 31
0.0
  0
LINE
  5
43D2
  8
YODOROGO
 10
30749.604341291921
 20
1819.7494964292871
 30
0.0
 11
30723.604341291921
 21
1939.749496429288
 31
0.0
  0
LINE
  5
43D3
  8
YODOROGO
 10
30723.604341291921
 20
1819.7494964292871
 30
0.0
 11
30749.604341291921
 21
1819.7494964292871
 31
0.0
  0
LINE
  5
43D4
  8
YODOROGO
 10
30723.604341291921
 20
1755.7494964292871
 30
0.0
 11
30723.604341291921
 21
1819.7494964292871
 31
0.0
  0
LINE
  5
43D5
  8
YODOROGO
 10
30899.604341291932
 20
1755.7494964292871
 30
0.0
 11
30723.604341291921
 21
1755.7494964292871
 31
0.0
  0
LINE
  5
43D6
  8
YODOROGO
 10
30899.604341291932
 20
1819.7494964292871
 30
0.0
 11
30899.604341291932
 21
1755.7494964292871
 31
0.0
  0
LINE
  5
43D7
  8
YODOROGO
 10
30617.604341291921
 20
1947.749496429288
 30
0.0
 11
30617.604341291921
 21
1859.749496429288
 31
0.0
  0
LINE
  5
43D8
  8
YODOROGO
 10
30791.604341291921
 20
1755.7494964292871
 30
0.0
 11
30831.604341291921
 21
1755.7494964292871
 31
0.0
  0
LINE
  5
43D9
  8
YODOROGO
 10
30723.604341291921
 20
1691.749496429288
 30
0.0
 11
30763.604341291921
 21
1691.749496429288
 31
0.0
  0
LINE
  5
43DA
  8
YODOROGO
 10
30859.604341291932
 20
1691.749496429288
 30
0.0
 11
30899.604341291932
 21
1691.749496429288
 31
0.0
  0
LINE
  5
43DB
  8
YODOROGO
 10
30617.604341291921
 20
1795.7494964292871
 30
0.0
 11
30617.604341291921
 21
1735.7494964292871
 31
0.0
  0
LINE
  5
43DC
  8
YODOROGO
 10
31165.604341291921
 20
2027.749496429288
 30
0.0
 11
31165.604341291921
 21
1963.749496429286
 31
0.0
  0
LINE
  5
43DD
  8
YODOROGO
 10
31533.604341291921
 20
1595.7494964292871
 30
0.0
 11
31533.60434129191
 21
1811.749496429288
 31
0.0
  0
LINE
  5
43DE
  8
YODOROGO
 10
31461.60434129191
 20
1987.7494964292871
 30
0.0
 11
31461.60434129191
 21
1635.7494964292871
 31
0.0
  0
LINE
  5
43DF
  8
YODOROGO
 10
31653.604341291921
 20
1427.749496429288
 30
0.0
 11
31653.60434129191
 21
1811.749496429288
 31
0.0
  0
LINE
  5
43E0
  8
YODOROGO
 10
31589.604341291921
 20
1811.749496429288
 30
0.0
 11
31589.604341291921
 21
1427.749496429288
 31
0.0
  0
LINE
  5
43E1
  8
YODOROGO
 10
31237.604341291921
 20
1595.7494964292871
 30
0.0
 11
31237.604341291921
 21
1707.749496429288
 31
0.0
  0
ARC
  5
43E2
  8
YODOROGO
 10
31353.914865116069
 20
1607.790351288558
 30
0.0
 40
180.0924485759885
 50
268.62849102169793
 51
356.16638457330322
  0
LINE
  5
43E3
  8
YODOROGO
 10
31349.604341291939
 20
1527.749496429288
 30
0.0
 11
31349.604341291939
 21
1427.749496429288
 31
0.0
  0
ARC
  5
43E4
  8
YODOROGO
 10
31351.518075724562
 20
1637.838957017655
 30
0.0
 40
110.1060929836122
 50
269.00410209305932
 51
358.91264455492478
  0
LINE
  5
43E5
  8
YODOROGO
 10
31589.604341291921
 20
1427.749496429288
 30
0.0
 11
31653.604341291921
 21
1427.749496429288
 31
0.0
  0
LINE
  5
43E6
  8
YODOROGO
 10
31533.60434129191
 20
1811.749496429288
 30
0.0
 11
31589.604341291921
 21
1811.749496429288
 31
0.0
  0
LINE
  5
43E7
  8
YODOROGO
 10
31621.604341291939
 20
1987.7494964292871
 30
0.0
 11
31461.60434129191
 21
1987.7494964292871
 31
0.0
  0
LINE
  5
43E8
  8
YODOROGO
 10
31533.60434129191
 20
1915.7494964292871
 30
0.0
 11
31661.604341291939
 21
1915.7494964292871
 31
0.0
  0
LINE
  5
43E9
  8
YODOROGO
 10
31701.604341291939
 20
1875.7494964292871
 30
0.0
 11
31533.60434129191
 21
1875.7494964292871
 31
0.0
  0
LINE
  5
43EA
  8
YODOROGO
 10
31237.604341291921
 20
1779.749496429288
 30
0.0
 11
31349.604341291939
 21
1779.749496429288
 31
0.0
  0
LINE
  5
43EB
  8
YODOROGO
 10
31237.604341291921
 20
1835.7494964292871
 30
0.0
 11
31237.604341291921
 21
1779.749496429288
 31
0.0
  0
LINE
  5
43EC
  8
YODOROGO
 10
31349.604341291939
 20
1835.7494964292871
 30
0.0
 11
31237.604341291921
 21
1835.7494964292871
 31
0.0
  0
LINE
  5
43ED
  8
YODOROGO
 10
31349.604341291939
 20
1779.749496429288
 30
0.0
 11
31349.604341291939
 21
1835.7494964292871
 31
0.0
  0
LINE
  5
43EE
  8
YODOROGO
 10
31533.60434129191
 20
1875.7494964292871
 30
0.0
 11
31533.60434129191
 21
1915.7494964292871
 31
0.0
  0
LINE
  5
43EF
  8
YODOROGO
 10
31413.604341291921
 20
1707.749496429288
 30
0.0
 11
31413.604341291921
 21
1907.7494964292871
 31
0.0
  0
LINE
  5
43F0
  8
YODOROGO
 10
31237.604341291921
 20
1707.749496429288
 30
0.0
 11
31413.604341291921
 21
1707.749496429288
 31
0.0
  0
LINE
  5
43F1
  8
YODOROGO
 10
31413.604341291921
 20
1963.749496429286
 30
0.0
 11
31413.604341291921
 21
2027.749496429288
 31
0.0
  0
ARC
  5
43F2
  8
YODOROGO
 10
31621.604341291939
 20
2003.749496429285
 30
0.0
 40
15.999999999994539
 50
270.0
 51
0.0000000000081422
  0
LINE
  5
43F3
  8
YODOROGO
 10
31637.604341291921
 20
2027.749496429288
 30
0.0
 11
31637.604341291921
 21
2003.7494964292871
 31
0.0
  0
LINE
  5
43F4
  8
YODOROGO
 10
31701.604341291939
 20
2027.749496429288
 30
0.0
 11
31637.604341291921
 21
2027.749496429288
 31
0.0
  0
LINE
  5
43F5
  8
YODOROGO
 10
31701.604341291939
 20
1955.7494964292871
 30
0.0
 11
31701.604341291939
 21
2027.749496429288
 31
0.0
  0
ARC
  5
43F6
  8
YODOROGO
 10
31661.604341291939
 20
1955.7494964292871
 30
0.0
 40
40.0
 50
270.0
 51
0.0
  0
LINE
  5
43F7
  8
YODOROGO
 10
31701.604341291939
 20
1811.749496429288
 30
0.0
 11
31701.604341291939
 21
1875.7494964292871
 31
0.0
  0
LINE
  5
43F8
  8
YODOROGO
 10
31653.60434129191
 20
1811.749496429288
 30
0.0
 11
31701.604341291939
 21
1811.749496429288
 31
0.0
  0
LINE
  5
43F9
  8
SUNPOU
  6
CONTINUOUS
 62
     4
 10
17096.670185999999
 20
6032.8833859999977
 30
0.0
 11
16296.67150499998
 21
6032.8833859999977
 31
0.0
  0
LINE
  5
43FA
  8
SUNPOU
  6
CONTINUOUS
 62
     4
 10
17096.670185999999
 20
7924.3833859999977
 30
0.0
 11
16296.67150499998
 21
7924.3833859999977
 31
0.0
  0
LINE
  5
43FB
  8
SUNPOU
  6
CONTINUOUS
 62
     4
 10
16376.67150499998
 20
6032.8833859999977
 30
0.0
 11
16376.67150499998
 21
7924.3833859999977
 31
0.0
  0
LINE
  5
43FC
  8
SUNPOU
  6
CONTINUOUS
 62
     4
 10
17096.670185999999
 20
6032.8833859999977
 30
0.0
 11
15896.66919599999
 21
6032.8833859999977
 31
0.0
  0
LINE
  5
43FD
  8
SUNPOU
  6
CONTINUOUS
 62
     4
 10
17064.17044999998
 20
8381.3828909999866
 30
0.0
 11
15896.66919599999
 21
8381.3828909999866
 31
0.0
  0
LINE
  5
43FE
  8
SUNPOU
  6
CONTINUOUS
 62
     4
 10
15976.66919599999
 20
6032.8833859999977
 30
0.0
 11
15976.66919599999
 21
8381.3828909999866
 31
0.0
  0
LINE
  5
440F
  8
SUNPOU
  6
CONTINUOUS
 62
     4
 10
17320.670844999979
 20
5852.8835510000008
 30
0.0
 11
17320.670844999979
 21
5052.8835509999999
 31
0.0
  0
LINE
  5
4410
  8
SUNPOU
  6
CONTINUOUS
 62
     4
 10
20401.170844999979
 20
5852.8835510000008
 30
0.0
 11
20401.170844999979
 21
5052.8835509999999
 31
0.0
  0
LINE
  5
4411
  8
SUNPOU
  6
CONTINUOUS
 62
     4
 10
17320.670844999979
 20
5132.8835510000008
 30
0.0
 11
20401.170844999979
 21
5132.8835510000008
 31
0.0
  0
LINE
  5
4412
  8
SUNPOU
  6
CONTINUOUS
 62
     4
 10
23089.176123999961
 20
5852.8835510000008
 30
0.0
 11
23089.176123999961
 21
5052.8835509999999
 31
0.0
  0
LINE
  5
4413
  8
SUNPOU
  6
CONTINUOUS
 62
     4
 10
26169.676123999961
 20
5852.8835510000008
 30
0.0
 11
26169.676123999961
 21
5052.8835509999999
 31
0.0
  0
LINE
  5
4414
  8
SUNPOU
  6
CONTINUOUS
 62
     4
 10
23089.176123999961
 20
5132.8835510000008
 30
0.0
 11
26169.676123999961
 21
5132.8835510000008
 31
0.0
  0
LINE
  5
4415
  8
SUNPOU
  6
CONTINUOUS
 62
     4
 10
22995.176123999961
 20
5590.2311279999976
 30
0.0
 11
22995.176123999961
 21
4652.8835509999999
 31
0.0
  0
LINE
  5
4416
  8
SUNPOU
  6
CONTINUOUS
 62
     4
 10
26263.676123999961
 20
5590.2311279999976
 30
0.0
 11
26263.676123999961
 21
4652.8835509999999
 31
0.0
  0
LINE
  5
4417
  8
SUNPOU
  6
CONTINUOUS
 62
     4
 10
22995.176123999961
 20
4732.883550999999
 30
0.0
 11
26263.676123999961
 21
4732.883550999999
 31
0.0
  0
LINE
  5
4418
  8
SUNPOU
  6
CONTINUOUS
 62
     4
 10
20495.17084499999
 20
5590.2311279999976
 30
0.0
 11
20495.17084499999
 21
4652.8835509999999
 31
0.0
  0
LINE
  5
4419
  8
SUNPOU
  6
CONTINUOUS
 62
     4
 10
22995.176123999961
 20
5590.2311279999976
 30
0.0
 11
22995.176123999961
 21
4652.8835509999999
 31
0.0
  0
LINE
  5
441A
  8
SUNPOU
  6
CONTINUOUS
 62
     4
 10
20495.17084499999
 20
4732.883550999999
 30
0.0
 11
22995.176123999961
 21
4732.883550999999
 31
0.0
  0
LINE
  5
441B
  8
SUNPOU
  6
CONTINUOUS
 62
     4
 10
17226.670844999979
 20
5590.2311279999976
 30
0.0
 11
17226.670844999979
 21
4652.8835509999999
 31
0.0
  0
LINE
  5
441C
  8
SUNPOU
  6
CONTINUOUS
 62
     4
 10
20495.17084499999
 20
5590.2311279999976
 30
0.0
 11
20495.17084499999
 21
4652.8835509999999
 31
0.0
  0
LINE
  5
441D
  8
SUNPOU
  6
CONTINUOUS
 62
     4
 10
17226.670844999979
 20
4732.883550999999
 30
0.0
 11
20495.17084499999
 21
4732.883550999999
 31
0.0
  0
LINE
  5
441E
  8
SUNPOU
  6
CONTINUOUS
 62
     4
 10
26263.680082999981
 20
5590.2311279999976
 30
0.0
 11
26263.680082999981
 21
4652.8835509999999
 31
0.0
  0
LINE
  5
441F
  8
SUNPOU
  6
CONTINUOUS
 62
     4
 10
26306.180082999981
 20
5852.8835510000008
 30
0.0
 11
26306.180082999981
 21
4652.8835509999999
 31
0.0
  0
LINE
  5
4420
  8
SUNPOU
  6
CONTINUOUS
 62
     4
 10
26263.680082999981
 20
4732.883550999999
 30
0.0
 11
26023.680082999981
 21
4732.883550999999
 31
0.0
  0
LINE
  5
4421
  8
SUNPOU
  6
CONTINUOUS
 62
     4
 10
26306.180082999981
 20
4732.883550999999
 30
0.0
 11
26546.180082999981
 21
4732.883550999999
 31
0.0
  0
LINE
  5
4422
  8
SUNPOU
  6
CONTINUOUS
 62
     4
 10
26263.680082999981
 20
4732.883550999999
 30
0.0
 11
26306.180082999981
 21
4732.883550999999
 31
0.0
  0
LINE
  5
4423
  8
SUNPOU
  6
CONTINUOUS
 62
     4
 10
17226.670844999979
 20
5590.2311279999976
 30
0.0
 11
17226.670844999979
 21
4652.8835509999999
 31
0.0
  0
LINE
  5
4424
  8
SUNPOU
  6
CONTINUOUS
 62
     4
 10
17184.17084499999
 20
5852.8835510000008
 30
0.0
 11
17184.17084499999
 21
4652.8835509999999
 31
0.0
  0
LINE
  5
4425
  8
SUNPOU
  6
CONTINUOUS
 62
     4
 10
17226.670844999979
 20
4732.883550999999
 30
0.0
 11
17466.670844999979
 21
4732.883550999999
 31
0.0
  0
LINE
  5
4426
  8
SUNPOU
  6
CONTINUOUS
 62
     4
 10
17184.17084499999
 20
4732.883550999999
 30
0.0
 11
16944.17084499999
 21
4732.883550999999
 31
0.0
  0
LINE
  5
4427
  8
SUNPOU
  6
CONTINUOUS
 62
     4
 10
17226.670844999979
 20
4732.883550999999
 30
0.0
 11
17184.17084499999
 21
4732.883550999999
 31
0.0
  0
LINE
  5
4428
  8
SUNPOU
  6
CONTINUOUS
 62
     4
 10
17184.17084499999
 20
5852.8835510000008
 30
0.0
 11
17184.17084499999
 21
4252.8837159999948
 31
0.0
  0
LINE
  5
4429
  8
SUNPOU
  6
CONTINUOUS
 62
     4
 10
26306.176123999961
 20
5852.8835510000008
 30
0.0
 11
26306.176123999961
 21
4252.8837159999948
 31
0.0
  0
LINE
  5
442A
  8
SUNPOU
  6
CONTINUOUS
 62
     4
 10
17184.17084499999
 20
4332.8837159999948
 30
0.0
 11
26306.176123999961
 21
4332.8837159999948
 31
0.0
  0
LINE
  5
442B
  8
2-0
  6
CONTINUOUS
 62
     3
 10
22952.676123999961
 20
14101.81644499998
 30
0.0
 11
23037.676123999961
 21
14101.81644499998
 31
0.0
  0
LINE
  5
442C
  8
2-0
  6
CONTINUOUS
 62
     3
 10
23037.676123999961
 20
14101.81644499998
 30
0.0
 11
23037.676123999961
 21
14186.81644499998
 31
0.0
  0
LINE
  5
442D
  8
2-0
  6
CONTINUOUS
 62
     3
 10
23037.676123999961
 20
14186.81644499998
 30
0.0
 11
22952.676123999961
 21
14186.81644499998
 31
0.0
  0
LINE
  5
442E
  8
2-0
  6
CONTINUOUS
 62
     3
 10
22952.676123999961
 20
14186.81644499998
 30
0.0
 11
22952.676123999961
 21
14101.81644499998
 31
0.0
  0
LINE
  5
442F
  8
2-0
  6
CONTINUOUS
 62
     3
 10
20452.670844999979
 20
14101.81644499998
 30
0.0
 11
20537.670845000001
 21
14101.81644499998
 31
0.0
  0
LINE
  5
4430
  8
2-0
  6
CONTINUOUS
 62
     3
 10
20537.670845000001
 20
14101.81644499998
 30
0.0
 11
20537.670845000001
 21
14186.81644499998
 31
0.0
  0
LINE
  5
4431
  8
2-0
  6
CONTINUOUS
 62
     3
 10
20537.670845000001
 20
14186.81644499998
 30
0.0
 11
20452.670844999979
 21
14186.81644499998
 31
0.0
  0
LINE
  5
4432
  8
2-0
  6
CONTINUOUS
 62
     3
 10
20452.670844999979
 20
14186.81644499998
 30
0.0
 11
20452.670844999979
 21
14101.81644499998
 31
0.0
  0
LINE
  5
4433
  8
SUNPOU
  6
CONTINUOUS
 62
     4
 10
5012.0073170000014
 20
13871.82112999998
 30
0.0
 11
5012.0073170000014
 21
12724.318951999971
 31
0.0
  0
LINE
  5
4434
  8
SUNPOU
  6
CONTINUOUS
 62
     4
 10
13757.00638699999
 20
13871.82112999998
 30
0.0
 11
13757.00638699999
 21
12724.318951999971
 31
0.0
  0
LINE
  5
4435
  8
SUNPOU
  6
CONTINUOUS
 62
     4
 10
5012.0073170000014
 20
12804.318951999971
 30
0.0
 11
13757.00638699999
 21
12804.318951999971
 31
0.0
  0
LINE
  5
4436
  8
SUNPOU
  6
CONTINUOUS
 62
     4
 10
4922.9975380000014
 20
20192.819744
 30
0.0
 11
4402.5075409999999
 21
20192.819744
 31
0.0
  0
LINE
  5
4437
  8
SUNPOU
  6
CONTINUOUS
 62
     4
 10
4849.5073169999996
 20
20202.812354000002
 30
0.0
 11
4402.5075409999999
 21
20202.812354000002
 31
0.0
  0
LINE
  5
4438
  8
SUNPOU
  6
CONTINUOUS
 62
     4
 10
4482.5075409999999
 20
20192.819744
 30
0.0
 11
4482.5075409999999
 21
19952.819744
 31
0.0
  0
LINE
  5
4439
  8
SUNPOU
  6
CONTINUOUS
 62
     4
 10
4482.5075409999999
 20
20202.812354000002
 30
0.0
 11
4482.5075409999999
 21
20442.812354000002
 31
0.0
  0
LINE
  5
443A
  8
SUNPOU
  6
CONTINUOUS
 62
     4
 10
4482.5075409999999
 20
20192.819744
 30
0.0
 11
4482.5075409999999
 21
20202.812354000002
 31
0.0
  0
LINE
  5
443B
  8
SUNPOU
  6
CONTINUOUS
 62
     4
 10
4849.5073169999996
 20
20202.812354000002
 30
0.0
 11
4002.507540999999
 21
20202.812354000002
 31
0.0
  0
LINE
  5
443C
  8
SUNPOU
  6
CONTINUOUS
 62
     4
 10
4082.5075409999999
 20
19980.316444999949
 30
0.0
 11
4082.5075409999999
 21
19740.316444999949
 31
0.0
  0
LINE
  5
443D
  8
SUNPOU
  6
CONTINUOUS
 62
     4
 10
4082.5075409999999
 20
20202.812354000002
 30
0.0
 11
4082.5075409999999
 21
20442.812354000002
 31
0.0
  0
LINE
  5
443E
  8
SUNPOU
  6
CONTINUOUS
 62
     4
 10
4082.5075409999999
 20
19980.316444999949
 30
0.0
 11
4082.5075409999999
 21
20202.812354000002
 31
0.0
  0
LINE
  5
443F
  8
SUNPOU
  6
CONTINUOUS
 62
     4
 10
4082.5075409999999
 20
17062.316444999979
 30
0.0
 11
4082.5075409999999
 21
19980.316444999949
 31
0.0
  0
LINE
  5
4440
  8
SUNPOU
  6
CONTINUOUS
 62
     4
 10
4082.507540999999
 20
14144.316444999969
 30
0.0
 11
4082.5075409999999
 21
17062.316444999979
 31
0.0
  0
LINE
  5
4441
  8
SUNPOU
  6
CONTINUOUS
 62
     4
 10
4849.5029619999978
 20
13951.82112999998
 30
0.0
 11
4002.507540999999
 21
13951.82112999998
 31
0.0
  0
LINE
  5
4442
  8
SUNPOU
  6
CONTINUOUS
 62
     4
 10
4082.507540999999
 20
14144.316444999969
 30
0.0
 11
4082.507540999999
 21
14384.31644499998
 31
0.0
  0
LINE
  5
4443
  8
SUNPOU
  6
CONTINUOUS
 62
     4
 10
4082.507540999999
 20
13951.82112999998
 30
0.0
 11
4082.507540999999
 21
13711.82112999998
 31
0.0
  0
LINE
  5
4444
  8
SUNPOU
  6
CONTINUOUS
 62
     4
 10
4082.507540999999
 20
14144.316444999969
 30
0.0
 11
4082.507540999999
 21
13951.82112999998
 31
0.0
  0
LINE
  5
4445
  8
SUNPOU
  6
CONTINUOUS
 62
     4
 10
13842.506386999999
 20
20282.812354000002
 30
0.0
 11
13842.506386999999
 21
20832.817632999999
 31
0.0
  0
LINE
  5
4446
  8
SUNPOU
  6
CONTINUOUS
 62
     4
 10
13757.00638699999
 20
20752.817632999999
 30
0.0
 11
13517.00638699999
 21
20752.817632999999
 31
0.0
  0
LINE
  5
4447
  8
SUNPOU
  6
CONTINUOUS
 62
     4
 10
13839.506386999999
 20
20752.817632999999
 30
0.0
 11
14079.506386999999
 21
20752.817632999999
 31
0.0
  0
LINE
  5
4448
  8
SUNPOU
  6
CONTINUOUS
 62
     4
 10
13757.00638699999
 20
20752.817632999999
 30
0.0
 11
13839.506386999999
 21
20752.817632999999
 31
0.0
  0
LINE
  5
4449
  8
SUNPOU
  6
CONTINUOUS
 62
     4
 10
10488.506386999999
 20
20752.817632999999
 30
0.0
 11
13757.00638699999
 21
20752.817632999999
 31
0.0
  0
LINE
  5
444A
  8
SUNPOU
  6
CONTINUOUS
 62
     4
 10
8280.5080600000019
 20
20752.817632999999
 30
0.0
 11
10488.506386999999
 21
20752.817632999999
 31
0.0
  0
LINE
  5
444B
  8
SUNPOU
  6
CONTINUOUS
 62
     4
 10
5012.0073170000014
 20
20752.817632999999
 30
0.0
 11
8280.5080600000019
 21
20752.817632999999
 31
0.0
  0
LINE
  5
444C
  8
SUNPOU
  6
CONTINUOUS
 62
     4
 10
4926.5073169999978
 20
20282.812354000002
 30
0.0
 11
4926.5073169999978
 21
20832.817632999999
 31
0.0
  0
LINE
  5
444D
  8
SUNPOU
  6
CONTINUOUS
 62
     4
 10
5012.0073170000014
 20
20752.817632999999
 30
0.0
 11
5252.0073169999996
 21
20752.817632999999
 31
0.0
  0
LINE
  5
444E
  8
SUNPOU
  6
CONTINUOUS
 62
     4
 10
4929.5073169999978
 20
20752.817632999999
 30
0.0
 11
4689.5073169999987
 21
20752.817632999999
 31
0.0
  0
LINE
  5
444F
  8
SUNPOU
  6
CONTINUOUS
 62
     4
 10
5012.0073170000014
 20
20752.817632999999
 30
0.0
 11
4929.5073169999978
 21
20752.817632999999
 31
0.0
  0
LINE
  5
4450
  8
SUNPOU
  6
CONTINUOUS
 62
     4
 10
26263.676123999961
 20
13438.55301099998
 30
0.0
 11
26263.676123999961
 21
13092.868360999981
 31
0.0
  0
LINE
  5
4451
  8
SUNPOU
  6
CONTINUOUS
 62
     4
 10
26221.17388099997
 20
14021.819149999979
 30
0.0
 11
26221.17388099997
 21
13092.868360999981
 31
0.0
  0
LINE
  5
4452
  8
SUNPOU
  6
CONTINUOUS
 62
     4
 10
26263.676123999961
 20
13172.868360999981
 30
0.0
 11
26503.676123999961
 21
13172.868360999981
 31
0.0
  0
LINE
  5
4453
  8
SUNPOU
  6
CONTINUOUS
 62
     4
 10
26221.17388099997
 20
13172.868360999981
 30
0.0
 11
25981.17388099997
 21
13172.868360999981
 31
0.0
  0
LINE
  5
4454
  8
SUNPOU
  6
CONTINUOUS
 62
     4
 10
26263.676123999961
 20
13172.868360999981
 30
0.0
 11
26221.17388099997
 21
13172.868360999981
 31
0.0
  0
LINE
  5
4455
  8
SUNPOU
  6
CONTINUOUS
 62
     4
 10
17226.670844999979
 20
13438.55301099998
 30
0.0
 11
17226.670844999979
 21
13092.868360999981
 31
0.0
  0
LINE
  5
4456
  8
SUNPOU
  6
CONTINUOUS
 62
     4
 10
17269.173087999981
 20
14021.819149999979
 30
0.0
 11
17269.173087999981
 21
13092.868360999981
 31
0.0
  0
LINE
  5
4457
  8
SUNPOU
  6
CONTINUOUS
 62
     4
 10
17226.670844999979
 20
13172.868360999981
 30
0.0
 11
16986.67084499999
 21
13172.868360999981
 31
0.0
  0
LINE
  5
4458
  8
SUNPOU
  6
CONTINUOUS
 62
     4
 10
17269.173087999981
 20
13172.868360999981
 30
0.0
 11
17509.173087999989
 21
13172.868360999981
 31
0.0
  0
LINE
  5
4459
  8
SUNPOU
  6
CONTINUOUS
 62
     4
 10
17226.670844999979
 20
13172.868360999981
 30
0.0
 11
17269.173087999981
 21
13172.868360999981
 31
0.0
  0
LINE
  5
445A
  8
SUNPOU
  6
CONTINUOUS
 62
     4
 10
17226.670844999979
 20
13438.55301099998
 30
0.0
 11
17226.670844999979
 21
12692.868360999981
 31
0.0
  0
LINE
  5
445B
  8
SUNPOU
  6
CONTINUOUS
 62
     4
 10
26263.676123999961
 20
13438.55301099998
 30
0.0
 11
26263.676123999961
 21
12692.868360999981
 31
0.0
  0
LINE
  5
445C
  8
SUNPOU
  6
CONTINUOUS
 62
     4
 10
17226.670844999979
 20
12772.868360999981
 30
0.0
 11
26263.676123999961
 21
12772.868360999981
 31
0.0
  0
LINE
  5
445D
  8
SUNPOU
  6
CONTINUOUS
 62
     4
 10
26386.174407999959
 20
14902.31644499998
 30
0.0
 11
27436.175727999958
 21
14902.31644499998
 31
0.0
  0
LINE
  5
445E
  8
SUNPOU
  6
CONTINUOUS
 62
     4
 10
27236.175727999958
 20
14144.316444999969
 30
0.0
 11
27436.175727999958
 21
14144.316444999969
 31
0.0
  0
LINE
  5
445F
  8
SUNPOU
  6
CONTINUOUS
 62
     4
 10
27356.175727999958
 20
14902.31644499998
 30
0.0
 11
27356.175727999958
 21
14144.316444999969
 31
0.0
  0
LINE
  5
4460
  8
SUNPOU
  6
CONTINUOUS
 62
     4
 10
26386.174407999959
 20
15603.556956500001
 30
0.0
 11
27436.175727999958
 21
15603.556956500001
 31
0.0
  0
LINE
  5
4461
  8
SUNPOU
  6
CONTINUOUS
 62
     4
 10
26386.174407999959
 20
14902.31644499998
 30
0.0
 11
27436.175727999958
 21
14902.31644499998
 31
0.0
  0
LINE
  5
4462
  8
SUNPOU
  6
CONTINUOUS
 62
     4
 10
27356.175727999958
 20
15603.556956500001
 30
0.0
 11
27356.175727999958
 21
14902.31644499998
 31
0.0
  0
LINE
  5
4463
  8
SUNPOU
  6
CONTINUOUS
 62
     4
 10
26386.174407999959
 20
16304.31644499998
 30
0.0
 11
27436.175727999958
 21
16304.31644499998
 31
0.0
  0
LINE
  5
4464
  8
SUNPOU
  6
CONTINUOUS
 62
     4
 10
26386.174407999959
 20
15603.556956500001
 30
0.0
 11
27436.175727999958
 21
15603.556956500001
 31
0.0
  0
LINE
  5
4465
  8
SUNPOU
  6
CONTINUOUS
 62
     4
 10
27356.175727999958
 20
16304.31644499998
 30
0.0
 11
27356.175727999958
 21
15603.556956500001
 31
0.0
  0
LINE
  5
4466
  8
SUNPOU
  6
CONTINUOUS
 62
     4
 10
27236.175727999958
 20
17062.316444999979
 30
0.0
 11
27436.175727999958
 21
17062.316444999979
 31
0.0
  0
LINE
  5
4467
  8
SUNPOU
  6
CONTINUOUS
 62
     4
 10
26386.174407999959
 20
16304.31644499998
 30
0.0
 11
27436.175727999958
 21
16304.31644499998
 31
0.0
  0
LINE
  5
4468
  8
SUNPOU
  6
CONTINUOUS
 62
     4
 10
27356.175727999958
 20
17062.316444999979
 30
0.0
 11
27356.175727999958
 21
16304.31644499998
 31
0.0
  0
LINE
  5
4469
  8
SUNPOU
  6
CONTINUOUS
 62
     4
 10
26386.174407999959
 20
17820.316444999979
 30
0.0
 11
27436.175727999958
 21
17820.316444999979
 31
0.0
  0
LINE
  5
446A
  8
SUNPOU
  6
CONTINUOUS
 62
     4
 10
27236.175727999958
 20
17062.316444999979
 30
0.0
 11
27436.175727999958
 21
17062.316444999979
 31
0.0
  0
LINE
  5
446B
  8
SUNPOU
  6
CONTINUOUS
 62
     4
 10
27356.175727999958
 20
17820.316444999979
 30
0.0
 11
27356.175727999958
 21
17062.316444999979
 31
0.0
  0
LINE
  5
446C
  8
SUNPOU
  6
CONTINUOUS
 62
     4
 10
26386.174407999959
 20
18521.31644499996
 30
0.0
 11
27436.175727999958
 21
18521.31644499996
 31
0.0
  0
LINE
  5
446D
  8
SUNPOU
  6
CONTINUOUS
 62
     4
 10
26386.174407999959
 20
17820.316444999979
 30
0.0
 11
27436.175727999958
 21
17820.316444999979
 31
0.0
  0
LINE
  5
446E
  8
SUNPOU
  6
CONTINUOUS
 62
     4
 10
27356.175727999958
 20
18521.31644499996
 30
0.0
 11
27356.175727999958
 21
17820.316444999979
 31
0.0
  0
LINE
  5
446F
  8
SUNPOU
  6
CONTINUOUS
 62
     4
 10
26386.174407999959
 20
19222.31644499996
 30
0.0
 11
27436.175727999958
 21
19222.31644499996
 31
0.0
  0
LINE
  5
4470
  8
SUNPOU
  6
CONTINUOUS
 62
     4
 10
26386.174407999959
 20
18521.31644499996
 30
0.0
 11
27436.175727999958
 21
18521.31644499996
 31
0.0
  0
LINE
  5
4471
  8
SUNPOU
  6
CONTINUOUS
 62
     4
 10
27356.175727999958
 20
19222.31644499996
 30
0.0
 11
27356.175727999958
 21
18521.31644499996
 31
0.0
  0
LINE
  5
4472
  8
SUNPOU
  6
CONTINUOUS
 62
     4
 10
27236.175727999958
 20
19980.316444999949
 30
0.0
 11
27436.175727999958
 21
19980.316444999949
 31
0.0
  0
LINE
  5
4473
  8
SUNPOU
  6
CONTINUOUS
 62
     4
 10
26386.174407999959
 20
19222.31644499996
 30
0.0
 11
27436.175727999958
 21
19222.31644499996
 31
0.0
  0
LINE
  5
4474
  8
SUNPOU
  6
CONTINUOUS
 62
     4
 10
27356.175727999958
 20
19980.316444999949
 30
0.0
 11
27356.175727999958
 21
19222.31644499996
 31
0.0
  0
LINE
  5
4475
  8
SUNPOU
  6
CONTINUOUS
 62
     4
 10
27236.175727999958
 20
17062.316444999979
 30
0.0
 11
27836.175727999958
 21
17062.316444999979
 31
0.0
  0
LINE
  5
4476
  8
SUNPOU
  6
CONTINUOUS
 62
     4
 10
27236.175727999958
 20
19980.316444999949
 30
0.0
 11
27836.175727999958
 21
19980.316444999949
 31
0.0
  0
LINE
  5
4477
  8
SUNPOU
  6
CONTINUOUS
 62
     4
 10
27756.175727999958
 20
17062.316444999979
 30
0.0
 11
27756.175727999958
 21
19980.316444999949
 31
0.0
  0
LINE
  5
4478
  8
SUNPOU
  6
CONTINUOUS
 62
     4
 10
27236.175727999958
 20
14144.316444999969
 30
0.0
 11
27836.175727999958
 21
14144.316444999969
 31
0.0
  0
LINE
  5
4479
  8
SUNPOU
  6
CONTINUOUS
 62
     4
 10
27236.175727999958
 20
17062.316444999979
 30
0.0
 11
27836.175727999958
 21
17062.316444999979
 31
0.0
  0
LINE
  5
447A
  8
SUNPOU
  6
CONTINUOUS
 62
     4
 10
27756.175727999958
 20
14144.316444999969
 30
0.0
 11
27756.175727999958
 21
17062.316444999979
 31
0.0
  0
LINE
  5
447B
  8
SUNPOU
  6
CONTINUOUS
 62
     4
 10
26386.174407999959
 20
20022.81373999998
 30
0.0
 11
28236.175727999958
 21
20022.81373999998
 31
0.0
  0
LINE
  5
447C
  8
SUNPOU
  6
CONTINUOUS
 62
     4
 10
26386.174407999959
 20
14101.819149999979
 30
0.0
 11
28236.175727999958
 21
14101.819149999979
 31
0.0
  0
LINE
  5
447D
  8
SUNPOU
  6
CONTINUOUS
 62
     4
 10
28156.175727999958
 20
20022.81373999998
 30
0.0
 11
28156.175727999958
 21
14101.819149999979
 31
0.0
  0
LINE
  5
447E
  8
SUNPOU
  6
CONTINUOUS
 62
     4
 10
27236.175727999958
 20
19980.316444999949
 30
0.0
 11
27836.175727999958
 21
19980.316444999949
 31
0.0
  0
LINE
  5
447F
  8
SUNPOU
  6
CONTINUOUS
 62
     4
 10
26386.174407999959
 20
20022.81373999998
 30
0.0
 11
27836.175727999958
 21
20022.81373999998
 31
0.0
  0
LINE
  5
4480
  8
SUNPOU
  6
CONTINUOUS
 62
     4
 10
27756.175727999958
 20
19980.316444999949
 30
0.0
 11
27756.175727999958
 21
19740.316444999949
 31
0.0
  0
LINE
  5
4481
  8
SUNPOU
  6
CONTINUOUS
 62
     4
 10
27756.175727999958
 20
20022.81373999998
 30
0.0
 11
27756.175727999958
 21
20262.81373999998
 31
0.0
  0
LINE
  5
4482
  8
SUNPOU
  6
CONTINUOUS
 62
     4
 10
27756.175727999958
 20
19980.316444999949
 30
0.0
 11
27756.175727999958
 21
20022.81373999998
 31
0.0
  0
LINE
  5
4483
  8
SUNPOU
  6
CONTINUOUS
 62
     4
 10
27236.175727999958
 20
14144.316444999969
 30
0.0
 11
27836.175727999958
 21
14144.316444999969
 31
0.0
  0
LINE
  5
4484
  8
SUNPOU
  6
CONTINUOUS
 62
     4
 10
26386.174407999959
 20
14101.819149999979
 30
0.0
 11
27836.175727999958
 21
14101.819149999979
 31
0.0
  0
LINE
  5
4485
  8
SUNPOU
  6
CONTINUOUS
 62
     4
 10
27756.175727999958
 20
14144.316444999969
 30
0.0
 11
27756.175727999958
 21
14384.31644499998
 31
0.0
  0
LINE
  5
4486
  8
SUNPOU
  6
CONTINUOUS
 62
     4
 10
27756.175727999958
 20
14101.819149999979
 30
0.0
 11
27756.175727999958
 21
13861.819149999979
 31
0.0
  0
LINE
  5
4487
  8
SUNPOU
  6
CONTINUOUS
 62
     4
 10
27756.175727999958
 20
14144.316444999969
 30
0.0
 11
27756.175727999958
 21
14101.819149999979
 31
0.0
  0
LINE
  5
4488
  8
SUNPOU
  6
CONTINUOUS
 62
     4
 10
20495.171834500001
 20
20102.814729999998
 30
0.0
 11
20495.171834500001
 21
20832.817632999999
 31
0.0
  0
LINE
  5
4489
  8
SUNPOU
  6
CONTINUOUS
 62
     4
 10
22995.176123999961
 20
20102.814729999998
 30
0.0
 11
22995.176123999961
 21
20832.817632999999
 31
0.0
  0
LINE
  5
448A
  8
SUNPOU
  6
CONTINUOUS
 62
     4
 10
20495.171834500001
 20
20752.817632999999
 30
0.0
 11
22995.176123999961
 21
20752.817632999999
 31
0.0
  0
LINE
  5
448B
  8
SUNPOU
  6
CONTINUOUS
 62
     4
 10
22995.176123999961
 20
20102.814729999998
 30
0.0
 11
22995.176123999961
 21
20832.817632999999
 31
0.0
  0
LINE
  5
448C
  8
SUNPOU
  6
CONTINUOUS
 62
     4
 10
23402.676123999961
 20
20102.814729999998
 30
0.0
 11
23402.676123999961
 21
20832.817632999999
 31
0.0
  0
LINE
  5
448D
  8
SUNPOU
  6
CONTINUOUS
 62
     4
 10
22995.176123999961
 20
20752.817632999999
 30
0.0
 11
22755.176123999961
 21
20752.817632999999
 31
0.0
  0
LINE
  5
448E
  8
SUNPOU
  6
CONTINUOUS
 62
     4
 10
23402.676123999961
 20
20752.817632999999
 30
0.0
 11
23642.676123999961
 21
20752.817632999999
 31
0.0
  0
LINE
  5
448F
  8
SUNPOU
  6
CONTINUOUS
 62
     4
 10
22995.176123999961
 20
20752.817632999999
 30
0.0
 11
23402.676123999961
 21
20752.817632999999
 31
0.0
  0
LINE
  5
4490
  8
SUNPOU
  6
CONTINUOUS
 62
     4
 10
25505.676123999961
 20
20102.814729999998
 30
0.0
 11
25505.676123999961
 21
20832.817632999999
 31
0.0
  0
LINE
  5
4491
  8
SUNPOU
  6
CONTINUOUS
 62
     4
 10
26263.67711349998
 20
20102.814729999998
 30
0.0
 11
26263.67711349998
 21
20832.817632999999
 31
0.0
  0
LINE
  5
4492
  8
SUNPOU
  6
CONTINUOUS
 62
     4
 10
25505.676123999961
 20
20752.817632999999
 30
0.0
 11
26263.67711349998
 21
20752.817632999999
 31
0.0
  0
LINE
  5
4493
  8
SUNPOU
  6
CONTINUOUS
 62
     4
 10
24804.676123999961
 20
20102.814729999998
 30
0.0
 11
24804.676123999961
 21
20832.817632999999
 31
0.0
  0
LINE
  5
4494
  8
SUNPOU
  6
CONTINUOUS
 62
     4
 10
25505.676123999961
 20
20102.814729999998
 30
0.0
 11
25505.676123999961
 21
20832.817632999999
 31
0.0
  0
LINE
  5
4495
  8
SUNPOU
  6
CONTINUOUS
 62
     4
 10
24804.676123999961
 20
20752.817632999999
 30
0.0
 11
25505.676123999961
 21
20752.817632999999
 31
0.0
  0
LINE
  5
4496
  8
SUNPOU
  6
CONTINUOUS
 62
     4
 10
24103.676123999961
 20
20102.814729999998
 30
0.0
 11
24103.676123999961
 21
20832.817632999999
 31
0.0
  0
LINE
  5
4497
  8
SUNPOU
  6
CONTINUOUS
 62
     4
 10
24804.676123999961
 20
20102.814729999998
 30
0.0
 11
24804.676123999961
 21
20832.817632999999
 31
0.0
  0
LINE
  5
4498
  8
SUNPOU
  6
CONTINUOUS
 62
     4
 10
24103.676123999961
 20
20752.817632999999
 30
0.0
 11
24804.676123999961
 21
20752.817632999999
 31
0.0
  0
LINE
  5
4499
  8
SUNPOU
  6
CONTINUOUS
 62
     4
 10
23402.676123999961
 20
20102.814729999998
 30
0.0
 11
23402.676123999961
 21
20832.817632999999
 31
0.0
  0
LINE
  5
449A
  8
SUNPOU
  6
CONTINUOUS
 62
     4
 10
24103.676123999961
 20
20102.814729999998
 30
0.0
 11
24103.676123999961
 21
20832.817632999999
 31
0.0
  0
LINE
  5
449B
  8
SUNPOU
  6
CONTINUOUS
 62
     4
 10
23402.676123999961
 20
20752.817632999999
 30
0.0
 11
24103.676123999961
 21
20752.817632999999
 31
0.0
  0
LINE
  5
449C
  8
SUNPOU
  6
CONTINUOUS
 62
     4
 10
26263.676123999961
 20
20102.814729999998
 30
0.0
 11
26263.676123999961
 21
20832.817632999999
 31
0.0
  0
LINE
  5
449D
  8
SUNPOU
  6
CONTINUOUS
 62
     4
 10
26306.172428999958
 20
20102.814729999998
 30
0.0
 11
26306.172428999958
 21
20832.817632999999
 31
0.0
  0
LINE
  5
449E
  8
SUNPOU
  6
CONTINUOUS
 62
     4
 10
26263.676123999961
 20
20752.817632999999
 30
0.0
 11
26023.676123999961
 21
20752.817632999999
 31
0.0
  0
LINE
  5
449F
  8
SUNPOU
  6
CONTINUOUS
 62
     4
 10
26306.172428999958
 20
20752.817632999999
 30
0.0
 11
26546.172428999958
 21
20752.817632999999
 31
0.0
  0
LINE
  5
44A0
  8
SUNPOU
  6
CONTINUOUS
 62
     4
 10
26263.676123999961
 20
20752.817632999999
 30
0.0
 11
26306.172428999958
 21
20752.817632999999
 31
0.0
  0
LINE
  5
44A1
  8
SUNPOU
  6
CONTINUOUS
 62
     4
 10
17226.670844999979
 20
20102.814729999998
 30
0.0
 11
17226.670844999979
 21
20832.817632999999
 31
0.0
  0
LINE
  5
44A2
  8
SUNPOU
  6
CONTINUOUS
 62
     4
 10
17634.17084499999
 20
20102.814729999998
 30
0.0
 11
17634.17084499999
 21
20832.817632999999
 31
0.0
  0
LINE
  5
44A3
  8
SUNPOU
  6
CONTINUOUS
 62
     4
 10
17226.670844999979
 20
20752.817632999999
 30
0.0
 11
16986.67084499999
 21
20752.817632999999
 31
0.0
  0
LINE
  5
44A4
  8
SUNPOU
  6
CONTINUOUS
 62
     4
 10
17634.17084499999
 20
20752.817632999999
 30
0.0
 11
17874.17084499999
 21
20752.817632999999
 31
0.0
  0
LINE
  5
44A5
  8
SUNPOU
  6
CONTINUOUS
 62
     4
 10
17226.670844999979
 20
20752.817632999999
 30
0.0
 11
17634.17084499999
 21
20752.817632999999
 31
0.0
  0
LINE
  5
44A6
  8
SUNPOU
  6
CONTINUOUS
 62
     4
 10
17226.670844999979
 20
20102.814729999998
 30
0.0
 11
17226.670844999979
 21
20832.817632999999
 31
0.0
  0
LINE
  5
44A7
  8
SUNPOU
  6
CONTINUOUS
 62
     4
 10
17184.174539999989
 20
20102.814729999998
 30
0.0
 11
17184.174539999989
 21
20832.817632999999
 31
0.0
  0
LINE
  5
44A8
  8
SUNPOU
  6
CONTINUOUS
 62
     4
 10
17226.670844999979
 20
20752.817632999999
 30
0.0
 11
17466.670844999979
 21
20752.817632999999
 31
0.0
  0
LINE
  5
44A9
  8
SUNPOU
  6
CONTINUOUS
 62
     4
 10
17184.174539999989
 20
20752.817632999999
 30
0.0
 11
16944.174539999982
 21
20752.817632999999
 31
0.0
  0
LINE
  5
44AA
  8
SUNPOU
  6
CONTINUOUS
 62
     4
 10
17226.670844999979
 20
20752.817632999999
 30
0.0
 11
17184.174539999989
 21
20752.817632999999
 31
0.0
  0
LINE
  5
44AB
  8
SUNPOU
  6
CONTINUOUS
 62
     4
 10
19737.17084499999
 20
20102.814729999998
 30
0.0
 11
19737.17084499999
 21
20832.817632999999
 31
0.0
  0
LINE
  5
44AC
  8
SUNPOU
  6
CONTINUOUS
 62
     4
 10
20495.171834500001
 20
20102.814729999998
 30
0.0
 11
20495.171834500001
 21
20832.817632999999
 31
0.0
  0
LINE
  5
44AD
  8
SUNPOU
  6
CONTINUOUS
 62
     4
 10
19737.17084499999
 20
20752.817632999999
 30
0.0
 11
20495.171834500001
 21
20752.817632999999
 31
0.0
  0
LINE
  5
44AE
  8
SUNPOU
  6
CONTINUOUS
 62
     4
 10
19036.17084499999
 20
20102.814729999998
 30
0.0
 11
19036.17084499999
 21
20832.817632999999
 31
0.0
  0
LINE
  5
44AF
  8
SUNPOU
  6
CONTINUOUS
 62
     4
 10
19737.17084499999
 20
20102.814729999998
 30
0.0
 11
19737.17084499999
 21
20832.817632999999
 31
0.0
  0
LINE
  5
44B0
  8
SUNPOU
  6
CONTINUOUS
 62
     4
 10
19036.17084499999
 20
20752.817632999999
 30
0.0
 11
19737.17084499999
 21
20752.817632999999
 31
0.0
  0
LINE
  5
44B1
  8
SUNPOU
  6
CONTINUOUS
 62
     4
 10
18335.170844999979
 20
20102.814729999998
 30
0.0
 11
18335.170844999979
 21
20832.817632999999
 31
0.0
  0
LINE
  5
44B2
  8
SUNPOU
  6
CONTINUOUS
 62
     4
 10
19036.17084499999
 20
20102.814729999998
 30
0.0
 11
19036.17084499999
 21
20832.817632999999
 31
0.0
  0
LINE
  5
44B3
  8
SUNPOU
  6
CONTINUOUS
 62
     4
 10
18335.170844999979
 20
20752.817632999999
 30
0.0
 11
19036.17084499999
 21
20752.817632999999
 31
0.0
  0
LINE
  5
44B4
  8
SUNPOU
  6
CONTINUOUS
 62
     4
 10
17634.17084499999
 20
20102.814729999998
 30
0.0
 11
17634.17084499999
 21
20832.817632999999
 31
0.0
  0
LINE
  5
44B5
  8
SUNPOU
  6
CONTINUOUS
 62
     4
 10
18335.170844999979
 20
20102.814729999998
 30
0.0
 11
18335.170844999979
 21
20832.817632999999
 31
0.0
  0
LINE
  5
44B6
  8
SUNPOU
  6
CONTINUOUS
 62
     4
 10
17634.17084499999
 20
20752.817632999999
 30
0.0
 11
18335.170844999979
 21
20752.817632999999
 31
0.0
  0
LINE
  5
44B7
  8
SUNPOU
  6
CONTINUOUS
 62
     4
 10
5988.2754960000084
 20
8269.8819010000025
 30
0.0
 11
5988.2754960000084
 21
9660.8819269999985
 31
0.0
  0
LINE
  5
44B8
  8
SUNPOU
  6
CONTINUOUS
 62
     4
 10
12239.275496
 20
8401.7717244124324
 30
0.0
 11
12239.275496
 21
9660.8819269999985
 31
0.0
  0
LINE
  5
44B9
  8
SUNPOU
  6
CONTINUOUS
 62
     4
 10
5988.2754960000084
 20
9580.8819269999985
 30
0.0
 11
12239.275496
 21
9580.8819269999985
 31
0.0
  0
LINE
  5
44BA
  8
SUNPOU
  6
CONTINUOUS
 62
     4
 10
12089.27674900001
 20
8328.1126469999981
 30
0.0
 11
12089.27674900001
 21
9260.8835770000005
 31
0.0
  0
LINE
  5
44BB
  8
SUNPOU
  6
CONTINUOUS
 62
     4
 10
12239.275496
 20
8401.7717244124324
 30
0.0
 11
12239.275496
 21
9260.8835770000005
 31
0.0
  0
LINE
  5
44BC
  8
SUNPOU
  6
CONTINUOUS
 62
     4
 10
12089.27674900001
 20
9180.8835770000005
 30
0.0
 11
11849.27674900001
 21
9180.8835770000005
 31
0.0
  0
LINE
  5
44BD
  8
SUNPOU
  6
CONTINUOUS
 62
     4
 10
12239.275496
 20
9180.8835770000005
 30
0.0
 11
12479.275496
 21
9180.8835770000005
 31
0.0
  0
LINE
  5
44BE
  8
SUNPOU
  6
CONTINUOUS
 62
     4
 10
12089.27674900001
 20
9180.8835770000005
 30
0.0
 11
12239.275496
 21
9180.8835770000005
 31
0.0
  0
LINE
  5
44BF
  8
SUNPOU
  6
CONTINUOUS
 62
     4
 10
6168.2742420000059
 20
8145.9642749999966
 30
0.0
 11
6168.2742420000059
 21
9260.8835770000005
 31
0.0
  0
LINE
  5
44C0
  8
SUNPOU
  6
CONTINUOUS
 62
     4
 10
12089.27674900001
 20
8328.1126469999981
 30
0.0
 11
12089.27674900001
 21
9260.8835770000005
 31
0.0
  0
LINE
  5
44C1
  8
SUNPOU
  6
CONTINUOUS
 62
     4
 10
6168.2742420000059
 20
9180.8835770000005
 30
0.0
 11
12089.27674900001
 21
9180.8835770000005
 31
0.0
  0
LINE
  5
44C2
  8
SUNPOU
  6
CONTINUOUS
 62
     4
 10
5988.2754960000084
 20
8269.8819010000025
 30
0.0
 11
5988.2754960000084
 21
9260.8835769999969
 31
0.0
  0
LINE
  5
44C3
  8
SUNPOU
  6
CONTINUOUS
 62
     4
 10
6168.2742420000059
 20
8145.9642749999966
 30
0.0
 11
6168.2742420000059
 21
9260.8835769999969
 31
0.0
  0
LINE
  5
44C4
  8
SUNPOU
  6
CONTINUOUS
 62
     4
 10
5988.2754960000084
 20
9180.8835769999969
 30
0.0
 11
5748.2754960000084
 21
9180.8835769999969
 31
0.0
  0
LINE
  5
44C5
  8
SUNPOU
  6
CONTINUOUS
 62
     4
 10
6168.2742420000059
 20
9180.8835769999969
 30
0.0
 11
6408.2742420000077
 21
9180.8835769999969
 31
0.0
  0
LINE
  5
44C6
  8
SUNPOU
  6
CONTINUOUS
 62
     4
 10
5988.2754960000084
 20
9180.8835769999969
 30
0.0
 11
6168.2742420000059
 21
9180.8835769999969
 31
0.0
  0
LINE
  5
44C7
  8
SUNPOU
  6
CONTINUOUS
 62
     4
 10
6080.7754960000084
 20
6032.8828909999984
 30
0.0
 11
4998.2770780000083
 21
6032.8828909999984
 31
0.0
  0
LINE
  5
44C8
  8
SUNPOU
  6
CONTINUOUS
 62
     4
 10
5908.2774740000023
 20
8189.3828909999993
 30
0.0
 11
4998.2770780000083
 21
8189.3828909999993
 31
0.0
  0
LINE
  5
44C9
  8
SUNPOU
  6
CONTINUOUS
 62
     4
 10
5078.2770780000064
 20
6032.8828909999984
 30
0.0
 11
5078.2770780000064
 21
8189.3828909999993
 31
0.0
  0
LINE
  5
44CA
  8
SUNPOU
  6
CONTINUOUS
 62
     4
 10
12181.775496
 20
6032.8828909999984
 30
0.0
 11
13259.274901000001
 21
6032.8828909999984
 31
0.0
  0
LINE
  5
44CB
  8
SUNPOU
  6
CONTINUOUS
 62
     4
 10
12274.081764599379
 20
8381.3828909999975
 30
0.0
 11
13259.274901000001
 21
8381.3828909999957
 31
0.0
  0
LINE
  5
44CC
  8
SUNPOU
  6
CONTINUOUS
 62
     4
 10
13179.274901000001
 20
6032.8828909999984
 30
0.0
 11
13179.274901000001
 21
8381.3828909999957
 31
0.0
  0
LINE
  5
44CD
  8
SUNPOU
  6
CONTINUOUS
 62
     4
 10
6168.2754960000102
 20
5952.8823960000027
 30
0.0
 11
6168.2754960000102
 21
4252.8827260000007
 31
0.0
  0
LINE
  5
44CE
  8
SUNPOU
  6
CONTINUOUS
 62
     4
 10
12089.275496
 20
5952.8823960000027
 30
0.0
 11
12089.275496
 21
4252.8827260000007
 31
0.0
  0
LINE
  5
44CF
  8
SUNPOU
  6
CONTINUOUS
 62
     4
 10
6168.2754960000102
 20
4332.8827260000016
 30
0.0
 11
12089.275496
 21
4332.8827260000016
 31
0.0
  0
LINE
  5
44D0
  8
SUNPOU
  6
CONTINUOUS
 62
     4
 10
12046.775496
 20
5590.2301380000008
 30
0.0
 11
12046.775496
 21
4652.8825610000013
 31
0.0
  0
LINE
  5
44D1
  8
SUNPOU
  6
CONTINUOUS
 62
     4
 10
12089.275496
 20
5952.8823960000027
 30
0.0
 11
12089.275496
 21
4652.8825610000013
 31
0.0
  0
LINE
  5
44D2
  8
SUNPOU
  6
CONTINUOUS
 62
     4
 10
12046.775496
 20
4732.8825610000004
 30
0.0
 11
11806.775496
 21
4732.8825610000004
 31
0.0
  0
LINE
  5
44D3
  8
SUNPOU
  6
CONTINUOUS
 62
     4
 10
12089.275496
 20
4732.8825610000004
 30
0.0
 11
12329.275496
 21
4732.8825610000004
 31
0.0
  0
LINE
  5
44D4
  8
SUNPOU
  6
CONTINUOUS
 62
     4
 10
12046.775496
 20
4732.8825610000004
 30
0.0
 11
12089.275496
 21
4732.8825610000004
 31
0.0
  0
LINE
  5
44D5
  8
SUNPOU
  6
CONTINUOUS
 62
     4
 10
6210.7754960000084
 20
5590.2301380000008
 30
0.0
 11
6210.7754960000084
 21
4652.8825610000013
 31
0.0
  0
LINE
  5
44D6
  8
SUNPOU
  6
CONTINUOUS
 62
     4
 10
6168.2754960000102
 20
5952.8823960000027
 30
0.0
 11
6168.2754960000102
 21
4652.8825610000013
 31
0.0
  0
LINE
  5
44D7
  8
SUNPOU
  6
CONTINUOUS
 62
     4
 10
6210.7754960000084
 20
4732.8825610000004
 30
0.0
 11
6450.7754960000102
 21
4732.8825610000004
 31
0.0
  0
LINE
  5
44D8
  8
SUNPOU
  6
CONTINUOUS
 62
     4
 10
6168.2754960000102
 20
4732.8825610000004
 30
0.0
 11
5928.2754960000084
 21
4732.8825610000004
 31
0.0
  0
LINE
  5
44D9
  8
SUNPOU
  6
CONTINUOUS
 62
     4
 10
6210.7754960000084
 20
4732.8825610000004
 30
0.0
 11
6168.2754960000102
 21
4732.8825610000004
 31
0.0
  0
LINE
  5
44DA
  8
SUNPOU
  6
CONTINUOUS
 62
     4
 10
9128.7754960000093
 20
5590.2301380000008
 30
0.0
 11
9128.7754960000093
 21
4652.8825610000013
 31
0.0
  0
LINE
  5
44DB
  8
SUNPOU
  6
CONTINUOUS
 62
     4
 10
6210.7754960000084
 20
5590.2301380000008
 30
0.0
 11
6210.7754960000084
 21
4652.8825610000013
 31
0.0
  0
LINE
  5
44DC
  8
SUNPOU
  6
CONTINUOUS
 62
     4
 10
9128.7754960000093
 20
4732.8825610000004
 30
0.0
 11
6210.7754960000084
 21
4732.8825610000004
 31
0.0
  0
LINE
  5
44DD
  8
SUNPOU
  6
CONTINUOUS
 62
     4
 10
9128.7754960000093
 20
5590.2301380000008
 30
0.0
 11
9128.7754960000093
 21
4652.8825610000013
 31
0.0
  0
LINE
  5
44DE
  8
SUNPOU
  6
CONTINUOUS
 62
     4
 10
12046.775496
 20
5590.2301380000008
 30
0.0
 11
12046.775496
 21
4652.8825610000013
 31
0.0
  0
LINE
  5
44DF
  8
SUNPOU
  6
CONTINUOUS
 62
     4
 10
9128.7754960000093
 20
4732.8825610000004
 30
0.0
 11
12046.775496
 21
4732.8825610000004
 31
0.0
  0
LINE
  5
44E0
  8
0
  6
CONTINUOUS
 10
27320.61169951249
 20
4013.2342825977748
 30
0.0
 11
32662.906701964599
 21
4013.2342825977748
 31
0.0
  0
LINE
  5
44E1
  8
0
  6
CONTINUOUS
 10
32662.906701964599
 20
4013.2342825977748
 30
0.0
 11
32662.906701964599
 21
2658.9883116968108
 31
0.0
  0
LINE
  5
44E2
  8
0
  6
CONTINUOUS
 10
32662.906701964599
 20
2658.9883116968108
 30
0.0
 11
27320.61169951249
 21
2658.9883116968108
 31
0.0
  0
LINE
  5
44E3
  8
0
  6
CONTINUOUS
 10
27320.61169951249
 20
2658.9883116968108
 30
0.0
 11
27320.61169951249
 21
4013.2342825977748
 31
0.0
  0
TEXT
  5
44E4
  8
0
  6
CONTINUOUS
 62
     7
 10
10321.10882933334
 20
4812.8825610000022
 30
0.0
 40
160.0
  1
2918
  0
TEXT
  5
44E5
  8
0
  6
CONTINUOUS
 62
     7
 10
7403.1088293333423
 20
4812.8825610000022
 30
0.0
 40
160.0
  1
2918
  0
TEXT
  5
44E6
  8
0
  6
CONTINUOUS
 62
     7
 10
5571.1017869037023
 20
4812.8825610000022
 30
0.0
 40
160.0
  1
42.5
  0
TEXT
  5
44E7
  8
0
  6
CONTINUOUS
 62
     7
 10
12227.594133309831
 20
4812.8825610000022
 30
0.0
 40
160.0
  1
42.5
  0
TEXT
  5
44E8
  8
0
  6
CONTINUOUS
 62
     7
 10
8862.1088293333414
 20
4412.8827260000016
 30
0.0
 40
160.0
  1
5921
  0
TEXT
  5
44E9
  8
0
  6
CONTINUOUS
 62
     7
 10
13099.274901000001
 20
6188.4662243333323
 30
0.0
 40
160.0
  1
2348.5（2588.5）
 50
90.0
  0
TEXT
  5
44EA
  8
0
  6
CONTINUOUS
 62
     7
 10
4998.2770780000037
 20
6119.1328909999966
 30
0.0
 40
160.0
  1
2156.5（2396.5）
 50
90.0
  0
TEXT
  5
44EB
  8
0
  6
CONTINUOUS
 62
     7
 10
5574.9421626666763
 20
9260.8835769999969
 30
0.0
 40
160.0
  1
180
  0
TEXT
  5
44EC
  8
0
  6
CONTINUOUS
 62
     7
 10
8862.1088288333467
 20
9260.8835770000005
 30
0.0
 40
160.0
  1
5921
  0
TEXT
  5
44ED
  8
0
  6
CONTINUOUS
 62
     7
 10
12305.942162666661
 20
9260.8835770000005
 30
0.0
 40
160.0
  1
150
  0
TEXT
  5
44EE
  8
0
  6
CONTINUOUS
 62
     7
 10
8847.1088293333414
 20
9660.8819269999985
 30
0.0
 40
160.0
  1
6251
  0
TEXT
  5
44EF
  8
0
  6
CONTINUOUS
 62
     7
 10
17811.337511666661
 20
20512.817632999999
 30
0.0
 40
160.0
  1
701
  0
TEXT
  5
44F0
  8
0
  6
CONTINUOUS
 62
     7
 10
18512.337511666661
 20
20832.817632999999
 30
0.0
 40
160.0
  1
701
  0
TEXT
  5
44F1
  8
0
  6
CONTINUOUS
 62
     7
 10
19213.337511666661
 20
20832.817632999999
 30
0.0
 40
160.0
  1
701
  0
TEXT
  5
44F2
  8
0
  6
CONTINUOUS
 62
     7
 10
19902.838006416641
 20
20832.817632999999
 30
0.0
 40
160.0
  1
758
  0
TEXT
  5
44F3
  8
0
  6
CONTINUOUS
 62
     7
 10
16623.858865471189
 20
20832.817632999999
 30
0.0
 40
160.0
  1
42.5
  0
TEXT
  5
44F4
  8
0
  6
CONTINUOUS
 62
     7
 10
17327.504178333322
 20
20832.817632999999
 30
0.0
 40
160.0
  1
407.5
  0
TEXT
  5
44F5
  8
0
  6
CONTINUOUS
 62
     7
 10
26386.488103528769
 20
20832.817632999999
 30
0.0
 40
160.0
  1
42.5
  0
TEXT
  5
44F6
  8
0
  6
CONTINUOUS
 62
     7
 10
23579.84279066664
 20
20512.817632999999
 30
0.0
 40
160.0
  1
701
  0
TEXT
  5
44F7
  8
0
  6
CONTINUOUS
 62
     7
 10
24280.84279066664
 20
20832.817632999999
 30
0.0
 40
160.0
  1
701
  0
TEXT
  5
44F8
  8
0
  6
CONTINUOUS
 62
     7
 10
24981.84279066664
 20
20832.817632999999
 30
0.0
 40
160.0
  1
701
  0
TEXT
  5
44F9
  8
0
  6
CONTINUOUS
 62
     7
 10
25671.343285416639
 20
20832.817632999999
 30
0.0
 40
160.0
  1
758
  0
TEXT
  5
44FA
  8
0
  6
CONTINUOUS
 62
     7
 10
23096.009457333301
 20
20832.817632999999
 30
0.0
 40
160.0
  1
407.5
  0
TEXT
  5
44FB
  8
0
  6
CONTINUOUS
 62
     7
 10
20641.17397924999
 20
20832.817632999999
 30
0.0
 40
160.0
  1
3268.5 \U+00D7（ｎ － 2）
  0
TEXT
  5
44FC
  8
0
  6
CONTINUOUS
 62
     7
 10
27676.175727999958
 20
13528.26291360319
 30
0.0
 40
160.0
  1
42.5
 50
90.0
  0
TEXT
  5
44FD
  8
0
  6
CONTINUOUS
 62
     7
 10
27676.175727999958
 20
20116.369976396789
 30
0.0
 40
160.0
  1
42.5
 50
90.0
  0
TEXT
  5
44FE
  8
0
  6
CONTINUOUS
 62
     7
 10
28076.175727999958
 20
16795.649778333322
 30
0.0
 40
160.0
  1
5921
 50
90.0
  0
TEXT
  5
44FF
  8
0
  6
CONTINUOUS
 62
     7
 10
27676.175727999958
 20
15336.649778333311
 30
0.0
 40
160.0
  1
2918
 50
90.0
  0
TEXT
  5
4500
  8
0
  6
CONTINUOUS
 62
     7
 10
27676.175727999958
 20
18254.649778333322
 30
0.0
 40
160.0
  1
2918
 50
90.0
  0
TEXT
  5
4501
  8
0
  6
CONTINUOUS
 62
     7
 10
27276.175727999958
 20
19387.983111666661
 30
0.0
 40
160.0
  1
758
 50
90.0
  0
TEXT
  5
4502
  8
0
  6
CONTINUOUS
 62
     7
 10
27276.175727999958
 20
18698.48311166665
 30
0.0
 40
160.0
  1
701
 50
90.0
  0
TEXT
  5
4503
  8
0
  6
CONTINUOUS
 62
     7
 10
27276.175727999958
 20
17997.483111666661
 30
0.0
 40
160.0
  1
701
 50
90.0
  0
TEXT
  5
4504
  8
0
  6
CONTINUOUS
 62
     7
 10
27276.175727999958
 20
17227.98311166665
 30
0.0
 40
160.0
  1
758
 50
90.0
  0
TEXT
  5
4505
  8
0
  6
CONTINUOUS
 62
     7
 10
27276.175727999958
 20
16469.98311166665
 30
0.0
 40
160.0
  1
758
 50
90.0
  0
TEXT
  5
4506
  8
0
  6
CONTINUOUS
 62
     7
 10
27276.175727999958
 20
15780.603367416659
 30
0.0
 40
160.0
  1
701
 50
90.0
  0
TEXT
  5
4507
  8
0
  6
CONTINUOUS
 62
     7
 10
27276.175727999958
 20
15079.603367416659
 30
0.0
 40
160.0
  1
701
 50
90.0
  0
TEXT
  5
4508
  8
0
  6
CONTINUOUS
 62
     7
 10
27276.175727999958
 20
14309.98311166665
 30
0.0
 40
160.0
  1
758
 50
90.0
  0
TEXT
  5
4509
  8
0
  6
CONTINUOUS
 62
     7
 10
21089.173484499981
 20
12852.868360999981
 30
0.0
 40
160.0
  1
3268.5 x n
  0
TEXT
  5
450A
  8
0
  6
CONTINUOUS
 62
     7
 10
17344.724517382081
 20
13252.868360999981
 30
0.0
 40
160.0
  1
42.5
  0
TEXT
  5
450B
  8
0
  6
CONTINUOUS
 62
     7
 10
25665.62245161787
 20
13252.868360999981
 30
0.0
 40
160.0
  1
42.5
  0
TEXT
  5
450C
  8
0
  6
CONTINUOUS
 62
     7
 10
4395.5106109767339
 20
20832.817632999999
 30
0.0
 40
160.0
  1
85.5
  0
TEXT
  5
450D
  8
0
  6
CONTINUOUS
 62
     7
 10
6246.2576885000008
 20
20832.817632999999
 30
0.0
 40
160.0
  1
3268.5
  0
TEXT
  5
450E
  8
0
  6
CONTINUOUS
 62
     7
 10
8280.5072235000007
 20
20832.817632999999
 30
0.0
 40
160.0
  1
3268.5 \U+00D7（ｎ － 2）
  0
TEXT
  5
450F
  8
0
  6
CONTINUOUS
 62
     7
 10
11722.75638699999
 20
20832.817632999999
 30
0.0
 40
160.0
  1
3268.5
  0
TEXT
  5
4510
  8
0
  6
CONTINUOUS
 62
     7
 10
13893.50309302325
 20
20832.817632999999
 30
0.0
 40
160.0
  1
85.5
  0
TEXT
  5
4511
  8
0
  6
CONTINUOUS
 62
     7
 10
4002.507540999994
 20
13336.363434702611
 30
0.0
 40
160.0
  1
192.5
 50
90.0
  0
TEXT
  5
4512
  8
0
  6
CONTINUOUS
 62
     7
 10
4002.5075409999972
 20
15336.649778333311
 30
0.0
 40
160.0
  1
2918
 50
90.0
  0
TEXT
  5
4513
  8
0
  6
CONTINUOUS
 62
     7
 10
4002.5075409999972
 20
18254.649778333311
 30
0.0
 40
160.0
  1
2918
 50
90.0
  0
TEXT
  5
4514
  8
0
  6
CONTINUOUS
 62
     7
 10
4002.5075409999972
 20
20291.771629807648
 30
0.0
 40
160.0
  1
222.5
 50
90.0
  0
TEXT
  5
4515
  8
0
  6
CONTINUOUS
 62
     7
 10
4402.5075409999999
 20
20349.479020666651
 30
0.0
 40
160.0
  1
10
 50
90.0
  0
TEXT
  5
4516
  8
0
  6
CONTINUOUS
 62
     7
 10
8728.5068520000004
 20
12884.31895199998
 30
0.0
 40
160.0
  1
3268.5 x n
  0
TEXT
  5
4517
  8
0
  6
CONTINUOUS
 62
     7
 10
20705.173484499981
 20
4412.8837159999957
 30
0.0
 40
160.0
  1
3268.5 \U+00D7 ｎ ＋ 85
  0
TEXT
  5
4518
  8
0
  6
CONTINUOUS
 62
     7
 10
16618.13185474115
 20
4812.8835509999999
 30
0.0
 40
160.0
  1
42.5
  0
TEXT
  5
4519
  8
0
  6
CONTINUOUS
 62
     7
 10
26392.219073258821
 20
4812.8835509999999
 30
0.0
 40
160.0
  1
42.5
  0
TEXT
  5
451A
  8
0
  6
CONTINUOUS
 62
     7
 10
18460.920844999979
 20
4812.8835509999999
 30
0.0
 40
160.0
  1
3268.5
  0
TEXT
  5
451B
  8
0
  6
CONTINUOUS
 62
     7
 10
20641.173484499981
 20
4812.8835509999999
 30
0.0
 40
160.0
  1
3268.5 \U+00D7（ｎ － 2）
  0
TEXT
  5
451C
  8
0
  6
CONTINUOUS
 62
     7
 10
24229.426123999961
 20
4812.8835509999999
 30
0.0
 40
160.0
  1
3268.5
  0
TEXT
  5
451D
  8
0
  6
CONTINUOUS
 62
     7
 10
23728.09279066664
 20
5212.8835509999999
 30
0.0
 40
160.0
  1
有効開口巾 3080.5
  0
TEXT
  5
451E
  8
0
  6
CONTINUOUS
 62
     7
 10
17959.587511666661
 20
5212.8835509999999
 30
0.0
 40
160.0
  1
有効開口巾 3080.5
  0
TEXT
  5
4523
  8
0
  6
CONTINUOUS
 62
     7
 10
15896.66919599999
 20
6188.4664718333288
 30
0.0
 40
160.0
  1
2348.5（2588.5）
 50
90.0
  0
TEXT
  5
4524
  8
0
  6
CONTINUOUS
 62
     7
 10
16296.67150499998
 20
6096.8626242912696
 30
0.0
 40
160.0
  1
有効開口高サ 1891.5
 50
90.0
  0
ARC
  5
4525
  8
0
  6
BYBLOCK
 62
     0
 10
16376.67150499998
 20
6032.8833859999977
 30
0.0
 40
15.0
 50
90.0
 51
270.0
  0
ARC
  5
4526
  8
0
  6
BYBLOCK
 62
     0
 10
16376.67150499998
 20
6032.8833859999977
 30
0.0
 40
15.0
 50
270.0
 51
90.0
  0
ARC
  5
4527
  8
0
  6
BYBLOCK
 62
     0
 10
16376.67150499998
 20
7924.3833859999977
 30
0.0
 40
15.0
 50
270.0
 51
90.0
  0
ARC
  5
4528
  8
0
  6
BYBLOCK
 62
     0
 10
16376.67150499998
 20
7924.3833859999977
 30
0.0
 40
15.0
 50
90.0
 51
270.0
  0
ARC
  5
4529
  8
0
  6
BYBLOCK
 62
     0
 10
15976.66919599999
 20
6032.8833859999977
 30
0.0
 40
15.0
 50
90.0
 51
270.0
  0
ARC
  5
452A
  8
0
  6
BYBLOCK
 62
     0
 10
15976.66919599999
 20
6032.8833859999977
 30
0.0
 40
15.0
 50
270.0
 51
90.0
  0
ARC
  5
452B
  8
0
  6
BYBLOCK
 62
     0
 10
15976.66919599999
 20
8381.3828909999866
 30
0.0
 40
15.0
 50
270.0
 51
90.0
  0
ARC
  5
452C
  8
0
  6
BYBLOCK
 62
     0
 10
15976.66919599999
 20
8381.3828909999866
 30
0.0
 40
15.0
 50
90.0
 51
270.0
  0
ARC
  5
453D
  8
0
  6
BYBLOCK
 62
     0
 10
17320.670844999979
 20
5132.8835510000008
 30
0.0
 40
15.0
 50
0.0
 51
180.0
  0
ARC
  5
453E
  8
0
  6
BYBLOCK
 62
     0
 10
17320.670844999979
 20
5132.8835510000008
 30
0.0
 40
15.0
 50
180.0
 51
0.0
  0
ARC
  5
453F
  8
0
  6
BYBLOCK
 62
     0
 10
20401.170844999979
 20
5132.8835510000008
 30
0.0
 40
15.0
 50
180.0
 51
0.0
  0
ARC
  5
4540
  8
0
  6
BYBLOCK
 62
     0
 10
20401.170844999979
 20
5132.8835510000008
 30
0.0
 40
15.0
 50
0.0
 51
180.0
  0
ARC
  5
4541
  8
0
  6
BYBLOCK
 62
     0
 10
23089.176123999961
 20
5132.8835510000008
 30
0.0
 40
15.0
 50
0.0
 51
180.0
  0
ARC
  5
4542
  8
0
  6
BYBLOCK
 62
     0
 10
23089.176123999961
 20
5132.8835510000008
 30
0.0
 40
15.0
 50
180.0
 51
0.0
  0
ARC
  5
4543
  8
0
  6
BYBLOCK
 62
     0
 10
26169.676123999961
 20
5132.8835510000008
 30
0.0
 40
15.0
 50
180.0
 51
0.0
  0
ARC
  5
4544
  8
0
  6
BYBLOCK
 62
     0
 10
26169.676123999961
 20
5132.8835510000008
 30
0.0
 40
15.0
 50
0.0
 51
180.0
  0
ARC
  5
4545
  8
0
  6
BYBLOCK
 62
     0
 10
22995.176123999961
 20
4732.883550999999
 30
0.0
 40
15.0
 50
0.0
 51
180.0
  0
ARC
  5
4546
  8
0
  6
BYBLOCK
 62
     0
 10
22995.176123999961
 20
4732.883550999999
 30
0.0
 40
15.0
 50
180.0
 51
0.0
  0
ARC
  5
4547
  8
0
  6
BYBLOCK
 62
     0
 10
26263.676123999961
 20
4732.883550999999
 30
0.0
 40
15.0
 50
180.0
 51
0.0
  0
ARC
  5
4548
  8
0
  6
BYBLOCK
 62
     0
 10
26263.676123999961
 20
4732.883550999999
 30
0.0
 40
15.0
 50
0.0
 51
180.0
  0
ARC
  5
4549
  8
0
  6
BYBLOCK
 62
     0
 10
20495.17084499999
 20
4732.883550999999
 30
0.0
 40
15.0
 50
0.0
 51
180.0
  0
ARC
  5
454A
  8
0
  6
BYBLOCK
 62
     0
 10
20495.17084499999
 20
4732.883550999999
 30
0.0
 40
15.0
 50
180.0
 51
0.0
  0
ARC
  5
454B
  8
0
  6
BYBLOCK
 62
     0
 10
22995.176123999961
 20
4732.883550999999
 30
0.0
 40
15.0
 50
180.0
 51
0.0
  0
ARC
  5
454C
  8
0
  6
BYBLOCK
 62
     0
 10
22995.176123999961
 20
4732.883550999999
 30
0.0
 40
15.0
 50
0.0
 51
180.0
  0
ARC
  5
454D
  8
0
  6
BYBLOCK
 62
     0
 10
17226.670844999979
 20
4732.883550999999
 30
0.0
 40
15.0
 50
0.0
 51
180.0
  0
ARC
  5
454E
  8
0
  6
BYBLOCK
 62
     0
 10
17226.670844999979
 20
4732.883550999999
 30
0.0
 40
15.0
 50
180.0
 51
0.0
  0
ARC
  5
454F
  8
0
  6
BYBLOCK
 62
     0
 10
20495.17084499999
 20
4732.883550999999
 30
0.0
 40
15.0
 50
180.0
 51
0.0
  0
ARC
  5
4550
  8
0
  6
BYBLOCK
 62
     0
 10
20495.17084499999
 20
4732.883550999999
 30
0.0
 40
15.0
 50
0.0
 51
180.0
  0
ARC
  5
4551
  8
0
  6
BYBLOCK
 62
     0
 10
26263.680082999981
 20
4732.883550999999
 30
0.0
 40
15.0
 50
180.0
 51
0.0
  0
ARC
  5
4552
  8
0
  6
BYBLOCK
 62
     0
 10
26263.680082999981
 20
4732.883550999999
 30
0.0
 40
15.0
 50
0.0
 51
180.0
  0
ARC
  5
4553
  8
0
  6
BYBLOCK
 62
     0
 10
26306.180082999981
 20
4732.883550999999
 30
0.0
 40
15.0
 50
0.0
 51
180.0
  0
ARC
  5
4554
  8
0
  6
BYBLOCK
 62
     0
 10
26306.180082999981
 20
4732.883550999999
 30
0.0
 40
15.0
 50
180.0
 51
0.0
  0
ARC
  5
4555
  8
0
  6
BYBLOCK
 62
     0
 10
17226.670844999979
 20
4732.883550999999
 30
0.0
 40
15.0
 50
0.0
 51
180.0
  0
ARC
  5
4556
  8
0
  6
BYBLOCK
 62
     0
 10
17226.670844999979
 20
4732.883550999999
 30
0.0
 40
15.0
 50
180.0
 51
0.0
  0
ARC
  5
4557
  8
0
  6
BYBLOCK
 62
     0
 10
17184.17084499999
 20
4732.883550999999
 30
0.0
 40
15.0
 50
180.0
 51
0.0
  0
ARC
  5
4558
  8
0
  6
BYBLOCK
 62
     0
 10
17184.17084499999
 20
4732.883550999999
 30
0.0
 40
15.0
 50
0.0
 51
180.0
  0
ARC
  5
4559
  8
0
  6
BYBLOCK
 62
     0
 10
17184.17084499999
 20
4332.8837159999948
 30
0.0
 40
15.0
 50
0.0
 51
180.0
  0
ARC
  5
455A
  8
0
  6
BYBLOCK
 62
     0
 10
17184.17084499999
 20
4332.8837159999948
 30
0.0
 40
15.0
 50
180.0
 51
0.0
  0
ARC
  5
455B
  8
0
  6
BYBLOCK
 62
     0
 10
26306.176123999961
 20
4332.8837159999948
 30
0.0
 40
15.0
 50
180.0
 51
0.0
  0
ARC
  5
455C
  8
0
  6
BYBLOCK
 62
     0
 10
26306.176123999961
 20
4332.8837159999948
 30
0.0
 40
15.0
 50
0.0
 51
180.0
  0
ARC
  5
455D
  8
0
  6
BYBLOCK
 62
     0
 10
5012.0073170000014
 20
12804.318951999971
 30
0.0
 40
15.0
 50
0.0
 51
180.0
  0
ARC
  5
455E
  8
0
  6
BYBLOCK
 62
     0
 10
5012.0073170000014
 20
12804.318951999971
 30
0.0
 40
15.0
 50
180.0
 51
0.0
  0
ARC
  5
455F
  8
0
  6
BYBLOCK
 62
     0
 10
13757.00638699999
 20
12804.318951999971
 30
0.0
 40
15.0
 50
180.0
 51
0.0
  0
ARC
  5
4560
  8
0
  6
BYBLOCK
 62
     0
 10
13757.00638699999
 20
12804.318951999971
 30
0.0
 40
15.0
 50
0.0
 51
180.0
  0
ARC
  5
4561
  8
0
  6
BYBLOCK
 62
     0
 10
4482.5075409999999
 20
20192.819744
 30
0.0
 40
15.0
 50
270.0
 51
90.0
  0
ARC
  5
4562
  8
0
  6
BYBLOCK
 62
     0
 10
4482.5075409999999
 20
20192.819744
 30
0.0
 40
15.0
 50
90.0
 51
270.0
  0
ARC
  5
4563
  8
0
  6
BYBLOCK
 62
     0
 10
4482.5075409999999
 20
20202.812354000002
 30
0.0
 40
15.0
 50
90.0
 51
270.0
  0
ARC
  5
4564
  8
0
  6
BYBLOCK
 62
     0
 10
4482.5075409999999
 20
20202.812354000002
 30
0.0
 40
15.0
 50
270.0
 51
90.0
  0
ARC
  5
4565
  8
0
  6
BYBLOCK
 62
     0
 10
4082.5075409999999
 20
19980.316444999949
 30
0.0
 40
15.0
 50
270.0
 51
90.0
  0
ARC
  5
4566
  8
0
  6
BYBLOCK
 62
     0
 10
4082.5075409999999
 20
19980.316444999949
 30
0.0
 40
15.0
 50
90.0
 51
270.0
  0
ARC
  5
4567
  8
0
  6
BYBLOCK
 62
     0
 10
4082.5075409999999
 20
20202.812354000002
 30
0.0
 40
15.0
 50
90.0
 51
270.0
  0
ARC
  5
4568
  8
0
  6
BYBLOCK
 62
     0
 10
4082.5075409999999
 20
20202.812354000002
 30
0.0
 40
15.0
 50
270.0
 51
90.0
  0
ARC
  5
4569
  8
0
  6
BYBLOCK
 62
     0
 10
4082.5075409999999
 20
17062.316444999979
 30
0.0
 40
15.0
 50
90.0
 51
270.0
  0
ARC
  5
456A
  8
0
  6
BYBLOCK
 62
     0
 10
4082.5075409999999
 20
17062.316444999979
 30
0.0
 40
15.0
 50
270.0
 51
90.0
  0
ARC
  5
456B
  8
0
  6
BYBLOCK
 62
     0
 10
4082.5075409999999
 20
19980.316444999949
 30
0.0
 40
15.0
 50
270.0
 51
90.0
  0
ARC
  5
456C
  8
0
  6
BYBLOCK
 62
     0
 10
4082.5075409999999
 20
19980.316444999949
 30
0.0
 40
15.0
 50
90.0
 51
270.0
  0
ARC
  5
456D
  8
0
  6
BYBLOCK
 62
     0
 10
4082.507540999999
 20
14144.316444999969
 30
0.0
 40
15.0
 50
90.0
 51
270.0
  0
ARC
  5
456E
  8
0
  6
BYBLOCK
 62
     0
 10
4082.507540999999
 20
14144.316444999969
 30
0.0
 40
15.0
 50
270.0
 51
90.0
  0
ARC
  5
456F
  8
0
  6
BYBLOCK
 62
     0
 10
4082.5075409999999
 20
17062.316444999979
 30
0.0
 40
15.0
 50
270.0
 51
90.0
  0
ARC
  5
4570
  8
0
  6
BYBLOCK
 62
     0
 10
4082.5075409999999
 20
17062.316444999979
 30
0.0
 40
15.0
 50
90.0
 51
270.0
  0
ARC
  5
4571
  8
0
  6
BYBLOCK
 62
     0
 10
4082.507540999999
 20
14144.316444999969
 30
0.0
 40
15.0
 50
90.0
 51
270.0
  0
ARC
  5
4572
  8
0
  6
BYBLOCK
 62
     0
 10
4082.507540999999
 20
14144.316444999969
 30
0.0
 40
15.0
 50
270.0
 51
90.0
  0
ARC
  5
4573
  8
0
  6
BYBLOCK
 62
     0
 10
4082.507540999999
 20
13951.82112999998
 30
0.0
 40
15.0
 50
270.0
 51
90.0
  0
ARC
  5
4574
  8
0
  6
BYBLOCK
 62
     0
 10
4082.507540999999
 20
13951.82112999998
 30
0.0
 40
15.0
 50
90.0
 51
270.0
  0
ARC
  5
4575
  8
0
  6
BYBLOCK
 62
     0
 10
13757.00638699999
 20
20752.817632999999
 30
0.0
 40
15.0
 50
180.0
 51
0.0
  0
ARC
  5
4576
  8
0
  6
BYBLOCK
 62
     0
 10
13757.00638699999
 20
20752.817632999999
 30
0.0
 40
15.0
 50
0.0
 51
180.0
  0
ARC
  5
4577
  8
0
  6
BYBLOCK
 62
     0
 10
13842.506386999999
 20
20752.817632999999
 30
0.0
 40
15.0
 50
0.0
 51
180.0
  0
ARC
  5
4578
  8
0
  6
BYBLOCK
 62
     0
 10
13842.506386999999
 20
20752.817632999999
 30
0.0
 40
15.0
 50
180.0
 51
0.0
  0
ARC
  5
4579
  8
0
  6
BYBLOCK
 62
     0
 10
10488.506386999999
 20
20752.817632999999
 30
0.0
 40
15.0
 50
0.0
 51
180.0
  0
ARC
  5
457A
  8
0
  6
BYBLOCK
 62
     0
 10
10488.506386999999
 20
20752.817632999999
 30
0.0
 40
15.0
 50
180.0
 51
0.0
  0
ARC
  5
457B
  8
0
  6
BYBLOCK
 62
     0
 10
13757.00638699999
 20
20752.817632999999
 30
0.0
 40
15.0
 50
180.0
 51
0.0
  0
ARC
  5
457C
  8
0
  6
BYBLOCK
 62
     0
 10
13757.00638699999
 20
20752.817632999999
 30
0.0
 40
15.0
 50
0.0
 51
180.0
  0
ARC
  5
457D
  8
0
  6
BYBLOCK
 62
     0
 10
8280.5080600000019
 20
20752.817632999999
 30
0.0
 40
15.0
 50
0.0
 51
180.0
  0
ARC
  5
457E
  8
0
  6
BYBLOCK
 62
     0
 10
8280.5080600000019
 20
20752.817632999999
 30
0.0
 40
15.0
 50
180.0
 51
0.0
  0
ARC
  5
457F
  8
0
  6
BYBLOCK
 62
     0
 10
10488.506386999999
 20
20752.817632999999
 30
0.0
 40
15.0
 50
180.0
 51
0.0
  0
ARC
  5
4580
  8
0
  6
BYBLOCK
 62
     0
 10
10488.506386999999
 20
20752.817632999999
 30
0.0
 40
15.0
 50
0.0
 51
180.0
  0
ARC
  5
4581
  8
0
  6
BYBLOCK
 62
     0
 10
5012.0073170000014
 20
20752.817632999999
 30
0.0
 40
15.0
 50
0.0
 51
180.0
  0
ARC
  5
4582
  8
0
  6
BYBLOCK
 62
     0
 10
5012.0073170000014
 20
20752.817632999999
 30
0.0
 40
15.0
 50
180.0
 51
0.0
  0
ARC
  5
4583
  8
0
  6
BYBLOCK
 62
     0
 10
8280.5080600000019
 20
20752.817632999999
 30
0.0
 40
15.0
 50
180.0
 51
0.0
  0
ARC
  5
4584
  8
0
  6
BYBLOCK
 62
     0
 10
8280.5080600000019
 20
20752.817632999999
 30
0.0
 40
15.0
 50
0.0
 51
180.0
  0
ARC
  5
4585
  8
0
  6
BYBLOCK
 62
     0
 10
5012.0073170000014
 20
20752.817632999999
 30
0.0
 40
15.0
 50
0.0
 51
180.0
  0
ARC
  5
4586
  8
0
  6
BYBLOCK
 62
     0
 10
5012.0073170000014
 20
20752.817632999999
 30
0.0
 40
15.0
 50
180.0
 51
0.0
  0
ARC
  5
4587
  8
0
  6
BYBLOCK
 62
     0
 10
4926.5073169999978
 20
20752.817632999999
 30
0.0
 40
15.0
 50
180.0
 51
0.0
  0
ARC
  5
4588
  8
0
  6
BYBLOCK
 62
     0
 10
4926.5073169999978
 20
20752.817632999999
 30
0.0
 40
15.0
 50
0.0
 51
180.0
  0
ARC
  5
4589
  8
0
  6
BYBLOCK
 62
     0
 10
26263.676123999961
 20
13172.868360999981
 30
0.0
 40
15.0
 50
0.0
 51
180.0
  0
ARC
  5
458A
  8
0
  6
BYBLOCK
 62
     0
 10
26263.676123999961
 20
13172.868360999981
 30
0.0
 40
15.0
 50
180.0
 51
0.0
  0
ARC
  5
458B
  8
0
  6
BYBLOCK
 62
     0
 10
26221.17388099997
 20
13172.868360999981
 30
0.0
 40
15.0
 50
180.0
 51
0.0
  0
ARC
  5
458C
  8
0
  6
BYBLOCK
 62
     0
 10
26221.17388099997
 20
13172.868360999981
 30
0.0
 40
15.0
 50
0.0
 51
180.0
  0
ARC
  5
458D
  8
0
  6
BYBLOCK
 62
     0
 10
17226.670844999979
 20
13172.868360999981
 30
0.0
 40
15.0
 50
180.0
 51
0.0
  0
ARC
  5
458E
  8
0
  6
BYBLOCK
 62
     0
 10
17226.670844999979
 20
13172.868360999981
 30
0.0
 40
15.0
 50
0.0
 51
180.0
  0
ARC
  5
458F
  8
0
  6
BYBLOCK
 62
     0
 10
17269.173087999981
 20
13172.868360999981
 30
0.0
 40
15.0
 50
0.0
 51
180.0
  0
ARC
  5
4590
  8
0
  6
BYBLOCK
 62
     0
 10
17269.173087999981
 20
13172.868360999981
 30
0.0
 40
15.0
 50
180.0
 51
0.0
  0
ARC
  5
4591
  8
0
  6
BYBLOCK
 62
     0
 10
17226.670844999979
 20
12772.868360999981
 30
0.0
 40
15.0
 50
0.0
 51
180.0
  0
ARC
  5
4592
  8
0
  6
BYBLOCK
 62
     0
 10
17226.670844999979
 20
12772.868360999981
 30
0.0
 40
15.0
 50
180.0
 51
0.0
  0
ARC
  5
4593
  8
0
  6
BYBLOCK
 62
     0
 10
26263.676123999961
 20
12772.868360999981
 30
0.0
 40
15.0
 50
180.0
 51
0.0
  0
ARC
  5
4594
  8
0
  6
BYBLOCK
 62
     0
 10
26263.676123999961
 20
12772.868360999981
 30
0.0
 40
15.0
 50
0.0
 51
180.0
  0
ARC
  5
4595
  8
0
  6
BYBLOCK
 62
     0
 10
27356.175727999958
 20
14902.31644499998
 30
0.0
 40
15.0
 50
270.0
 51
90.0
  0
ARC
  5
4596
  8
0
  6
BYBLOCK
 62
     0
 10
27356.175727999958
 20
14902.31644499998
 30
0.0
 40
15.0
 50
90.0
 51
270.0
  0
ARC
  5
4597
  8
0
  6
BYBLOCK
 62
     0
 10
27356.175727999958
 20
14144.316444999969
 30
0.0
 40
15.0
 50
90.0
 51
270.0
  0
ARC
  5
4598
  8
0
  6
BYBLOCK
 62
     0
 10
27356.175727999958
 20
14144.316444999969
 30
0.0
 40
15.0
 50
270.0
 51
90.0
  0
ARC
  5
4599
  8
0
  6
BYBLOCK
 62
     0
 10
27356.175727999958
 20
15603.556956500001
 30
0.0
 40
15.0
 50
270.0
 51
90.0
  0
ARC
  5
459A
  8
0
  6
BYBLOCK
 62
     0
 10
27356.175727999958
 20
15603.556956500001
 30
0.0
 40
15.0
 50
90.0
 51
270.0
  0
ARC
  5
459B
  8
0
  6
BYBLOCK
 62
     0
 10
27356.175727999958
 20
14902.31644499998
 30
0.0
 40
15.0
 50
90.0
 51
270.0
  0
ARC
  5
459C
  8
0
  6
BYBLOCK
 62
     0
 10
27356.175727999958
 20
14902.31644499998
 30
0.0
 40
15.0
 50
270.0
 51
90.0
  0
ARC
  5
459D
  8
0
  6
BYBLOCK
 62
     0
 10
27356.175727999958
 20
16304.31644499998
 30
0.0
 40
15.0
 50
270.0
 51
90.0
  0
ARC
  5
459E
  8
0
  6
BYBLOCK
 62
     0
 10
27356.175727999958
 20
16304.31644499998
 30
0.0
 40
15.0
 50
90.0
 51
270.0
  0
ARC
  5
459F
  8
0
  6
BYBLOCK
 62
     0
 10
27356.175727999958
 20
15603.556956500001
 30
0.0
 40
15.0
 50
90.0
 51
270.0
  0
ARC
  5
45A0
  8
0
  6
BYBLOCK
 62
     0
 10
27356.175727999958
 20
15603.556956500001
 30
0.0
 40
15.0
 50
270.0
 51
90.0
  0
ARC
  5
45A1
  8
0
  6
BYBLOCK
 62
     0
 10
27356.175727999958
 20
17062.316444999979
 30
0.0
 40
15.0
 50
270.0
 51
90.0
  0
ARC
  5
45A2
  8
0
  6
BYBLOCK
 62
     0
 10
27356.175727999958
 20
17062.316444999979
 30
0.0
 40
15.0
 50
90.0
 51
270.0
  0
ARC
  5
45A3
  8
0
  6
BYBLOCK
 62
     0
 10
27356.175727999958
 20
16304.31644499998
 30
0.0
 40
15.0
 50
90.0
 51
270.0
  0
ARC
  5
45A4
  8
0
  6
BYBLOCK
 62
     0
 10
27356.175727999958
 20
16304.31644499998
 30
0.0
 40
15.0
 50
270.0
 51
90.0
  0
ARC
  5
45A5
  8
0
  6
BYBLOCK
 62
     0
 10
27356.175727999958
 20
17820.316444999979
 30
0.0
 40
15.0
 50
270.0
 51
90.0
  0
ARC
  5
45A6
  8
0
  6
BYBLOCK
 62
     0
 10
27356.175727999958
 20
17820.316444999979
 30
0.0
 40
15.0
 50
90.0
 51
270.0
  0
ARC
  5
45A7
  8
0
  6
BYBLOCK
 62
     0
 10
27356.175727999958
 20
17062.316444999979
 30
0.0
 40
15.0
 50
90.0
 51
270.0
  0
ARC
  5
45A8
  8
0
  6
BYBLOCK
 62
     0
 10
27356.175727999958
 20
17062.316444999979
 30
0.0
 40
15.0
 50
270.0
 51
90.0
  0
ARC
  5
45A9
  8
0
  6
BYBLOCK
 62
     0
 10
27356.175727999958
 20
18521.31644499996
 30
0.0
 40
15.0
 50
270.0
 51
90.0
  0
ARC
  5
45AA
  8
0
  6
BYBLOCK
 62
     0
 10
27356.175727999958
 20
18521.31644499996
 30
0.0
 40
15.0
 50
90.0
 51
270.0
  0
ARC
  5
45AB
  8
0
  6
BYBLOCK
 62
     0
 10
27356.175727999958
 20
17820.316444999979
 30
0.0
 40
15.0
 50
90.0
 51
270.0
  0
ARC
  5
45AC
  8
0
  6
BYBLOCK
 62
     0
 10
27356.175727999958
 20
17820.316444999979
 30
0.0
 40
15.0
 50
270.0
 51
90.0
  0
ARC
  5
45AD
  8
0
  6
BYBLOCK
 62
     0
 10
27356.175727999958
 20
19222.31644499996
 30
0.0
 40
15.0
 50
270.0
 51
90.0
  0
ARC
  5
45AE
  8
0
  6
BYBLOCK
 62
     0
 10
27356.175727999958
 20
19222.31644499996
 30
0.0
 40
15.0
 50
90.0
 51
270.0
  0
ARC
  5
45AF
  8
0
  6
BYBLOCK
 62
     0
 10
27356.175727999958
 20
18521.31644499996
 30
0.0
 40
15.0
 50
90.0
 51
270.0
  0
ARC
  5
45B0
  8
0
  6
BYBLOCK
 62
     0
 10
27356.175727999958
 20
18521.31644499996
 30
0.0
 40
15.0
 50
270.0
 51
90.0
  0
ARC
  5
45B1
  8
0
  6
BYBLOCK
 62
     0
 10
27356.175727999958
 20
19980.316444999949
 30
0.0
 40
15.0
 50
270.0
 51
90.0
  0
ARC
  5
45B2
  8
0
  6
BYBLOCK
 62
     0
 10
27356.175727999958
 20
19980.316444999949
 30
0.0
 40
15.0
 50
90.0
 51
270.0
  0
ARC
  5
45B3
  8
0
  6
BYBLOCK
 62
     0
 10
27356.175727999958
 20
19222.31644499996
 30
0.0
 40
15.0
 50
90.0
 51
270.0
  0
ARC
  5
45B4
  8
0
  6
BYBLOCK
 62
     0
 10
27356.175727999958
 20
19222.31644499996
 30
0.0
 40
15.0
 50
270.0
 51
90.0
  0
ARC
  5
45B5
  8
0
  6
BYBLOCK
 62
     0
 10
27756.175727999958
 20
17062.316444999979
 30
0.0
 40
15.0
 50
90.0
 51
270.0
  0
ARC
  5
45B6
  8
0
  6
BYBLOCK
 62
     0
 10
27756.175727999958
 20
17062.316444999979
 30
0.0
 40
15.0
 50
270.0
 51
90.0
  0
ARC
  5
45B7
  8
0
  6
BYBLOCK
 62
     0
 10
27756.175727999958
 20
19980.316444999949
 30
0.0
 40
15.0
 50
270.0
 51
90.0
  0
ARC
  5
45B8
  8
0
  6
BYBLOCK
 62
     0
 10
27756.175727999958
 20
19980.316444999949
 30
0.0
 40
15.0
 50
90.0
 51
270.0
  0
ARC
  5
45B9
  8
0
  6
BYBLOCK
 62
     0
 10
27756.175727999958
 20
14144.316444999969
 30
0.0
 40
15.0
 50
90.0
 51
270.0
  0
ARC
  5
45BA
  8
0
  6
BYBLOCK
 62
     0
 10
27756.175727999958
 20
14144.316444999969
 30
0.0
 40
15.0
 50
270.0
 51
90.0
  0
ARC
  5
45BB
  8
0
  6
BYBLOCK
 62
     0
 10
27756.175727999958
 20
17062.316444999979
 30
0.0
 40
15.0
 50
270.0
 51
90.0
  0
ARC
  5
45BC
  8
0
  6
BYBLOCK
 62
     0
 10
27756.175727999958
 20
17062.316444999979
 30
0.0
 40
15.0
 50
90.0
 51
270.0
  0
ARC
  5
45BD
  8
0
  6
BYBLOCK
 62
     0
 10
28156.175727999958
 20
20022.81373999998
 30
0.0
 40
15.0
 50
270.0
 51
90.0
  0
ARC
  5
45BE
  8
0
  6
BYBLOCK
 62
     0
 10
28156.175727999958
 20
20022.81373999998
 30
0.0
 40
15.0
 50
90.0
 51
270.0
  0
ARC
  5
45BF
  8
0
  6
BYBLOCK
 62
     0
 10
28156.175727999958
 20
14101.819149999979
 30
0.0
 40
15.0
 50
90.0
 51
270.0
  0
ARC
  5
45C0
  8
0
  6
BYBLOCK
 62
     0
 10
28156.175727999958
 20
14101.819149999979
 30
0.0
 40
15.0
 50
270.0
 51
90.0
  0
ARC
  5
45C1
  8
0
  6
BYBLOCK
 62
     0
 10
27756.175727999958
 20
19980.316444999949
 30
0.0
 40
15.0
 50
270.0
 51
90.0
  0
ARC
  5
45C2
  8
0
  6
BYBLOCK
 62
     0
 10
27756.175727999958
 20
19980.316444999949
 30
0.0
 40
15.0
 50
90.0
 51
270.0
  0
ARC
  5
45C3
  8
0
  6
BYBLOCK
 62
     0
 10
27756.175727999958
 20
20022.81373999998
 30
0.0
 40
15.0
 50
90.0
 51
270.0
  0
ARC
  5
45C4
  8
0
  6
BYBLOCK
 62
     0
 10
27756.175727999958
 20
20022.81373999998
 30
0.0
 40
15.0
 50
270.0
 51
90.0
  0
ARC
  5
45C5
  8
0
  6
BYBLOCK
 62
     0
 10
27756.175727999958
 20
14144.316444999969
 30
0.0
 40
15.0
 50
90.0
 51
270.0
  0
ARC
  5
45C6
  8
0
  6
BYBLOCK
 62
     0
 10
27756.175727999958
 20
14144.316444999969
 30
0.0
 40
15.0
 50
270.0
 51
90.0
  0
ARC
  5
45C7
  8
0
  6
BYBLOCK
 62
     0
 10
27756.175727999958
 20
14101.819149999979
 30
0.0
 40
15.0
 50
270.0
 51
90.0
  0
ARC
  5
45C8
  8
0
  6
BYBLOCK
 62
     0
 10
27756.175727999958
 20
14101.819149999979
 30
0.0
 40
15.0
 50
90.0
 51
270.0
  0
ARC
  5
45C9
  8
0
  6
BYBLOCK
 62
     0
 10
20495.171834500001
 20
20752.817632999999
 30
0.0
 40
15.0
 50
0.0
 51
180.0
  0
ARC
  5
45CA
  8
0
  6
BYBLOCK
 62
     0
 10
20495.171834500001
 20
20752.817632999999
 30
0.0
 40
15.0
 50
180.0
 51
0.0
  0
ARC
  5
45CB
  8
0
  6
BYBLOCK
 62
     0
 10
22995.176123999961
 20
20752.817632999999
 30
0.0
 40
15.0
 50
180.0
 51
0.0
  0
ARC
  5
45CC
  8
0
  6
BYBLOCK
 62
     0
 10
22995.176123999961
 20
20752.817632999999
 30
0.0
 40
15.0
 50
0.0
 51
180.0
  0
ARC
  5
45CD
  8
0
  6
BYBLOCK
 62
     0
 10
22995.176123999961
 20
20752.817632999999
 30
0.0
 40
15.0
 50
180.0
 51
0.0
  0
ARC
  5
45CE
  8
0
  6
BYBLOCK
 62
     0
 10
22995.176123999961
 20
20752.817632999999
 30
0.0
 40
15.0
 50
0.0
 51
180.0
  0
ARC
  5
45CF
  8
0
  6
BYBLOCK
 62
     0
 10
23402.676123999961
 20
20752.817632999999
 30
0.0
 40
15.0
 50
0.0
 51
180.0
  0
ARC
  5
45D0
  8
0
  6
BYBLOCK
 62
     0
 10
23402.676123999961
 20
20752.817632999999
 30
0.0
 40
15.0
 50
180.0
 51
0.0
  0
ARC
  5
45D1
  8
0
  6
BYBLOCK
 62
     0
 10
25505.676123999961
 20
20752.817632999999
 30
0.0
 40
15.0
 50
0.0
 51
180.0
  0
ARC
  5
45D2
  8
0
  6
BYBLOCK
 62
     0
 10
25505.676123999961
 20
20752.817632999999
 30
0.0
 40
15.0
 50
180.0
 51
0.0
  0
ARC
  5
45D3
  8
0
  6
BYBLOCK
 62
     0
 10
26263.67711349998
 20
20752.817632999999
 30
0.0
 40
15.0
 50
180.0
 51
0.0
  0
ARC
  5
45D4
  8
0
  6
BYBLOCK
 62
     0
 10
26263.67711349998
 20
20752.817632999999
 30
0.0
 40
15.0
 50
0.0
 51
180.0
  0
ARC
  5
45D5
  8
0
  6
BYBLOCK
 62
     0
 10
24804.676123999961
 20
20752.817632999999
 30
0.0
 40
15.0
 50
0.0
 51
180.0
  0
ARC
  5
45D6
  8
0
  6
BYBLOCK
 62
     0
 10
24804.676123999961
 20
20752.817632999999
 30
0.0
 40
15.0
 50
180.0
 51
0.0
  0
ARC
  5
45D7
  8
0
  6
BYBLOCK
 62
     0
 10
25505.676123999961
 20
20752.817632999999
 30
0.0
 40
15.0
 50
180.0
 51
0.0
  0
ARC
  5
45D8
  8
0
  6
BYBLOCK
 62
     0
 10
25505.676123999961
 20
20752.817632999999
 30
0.0
 40
15.0
 50
0.0
 51
180.0
  0
ARC
  5
45D9
  8
0
  6
BYBLOCK
 62
     0
 10
24103.676123999961
 20
20752.817632999999
 30
0.0
 40
15.0
 50
0.0
 51
180.0
  0
ARC
  5
45DA
  8
0
  6
BYBLOCK
 62
     0
 10
24103.676123999961
 20
20752.817632999999
 30
0.0
 40
15.0
 50
180.0
 51
0.0
  0
ARC
  5
45DB
  8
0
  6
BYBLOCK
 62
     0
 10
24804.676123999961
 20
20752.817632999999
 30
0.0
 40
15.0
 50
180.0
 51
0.0
  0
ARC
  5
45DC
  8
0
  6
BYBLOCK
 62
     0
 10
24804.676123999961
 20
20752.817632999999
 30
0.0
 40
15.0
 50
0.0
 51
180.0
  0
ARC
  5
45DD
  8
0
  6
BYBLOCK
 62
     0
 10
23402.676123999961
 20
20752.817632999999
 30
0.0
 40
15.0
 50
0.0
 51
180.0
  0
ARC
  5
45DE
  8
0
  6
BYBLOCK
 62
     0
 10
23402.676123999961
 20
20752.817632999999
 30
0.0
 40
15.0
 50
180.0
 51
0.0
  0
ARC
  5
45DF
  8
0
  6
BYBLOCK
 62
     0
 10
24103.676123999961
 20
20752.817632999999
 30
0.0
 40
15.0
 50
180.0
 51
0.0
  0
ARC
  5
45E0
  8
0
  6
BYBLOCK
 62
     0
 10
24103.676123999961
 20
20752.817632999999
 30
0.0
 40
15.0
 50
0.0
 51
180.0
  0
ARC
  5
45E1
  8
0
  6
BYBLOCK
 62
     0
 10
26263.676123999961
 20
20752.817632999999
 30
0.0
 40
15.0
 50
180.0
 51
0.0
  0
ARC
  5
45E2
  8
0
  6
BYBLOCK
 62
     0
 10
26263.676123999961
 20
20752.817632999999
 30
0.0
 40
15.0
 50
0.0
 51
180.0
  0
ARC
  5
45E3
  8
0
  6
BYBLOCK
 62
     0
 10
26306.172428999958
 20
20752.817632999999
 30
0.0
 40
15.0
 50
0.0
 51
180.0
  0
ARC
  5
45E4
  8
0
  6
BYBLOCK
 62
     0
 10
26306.172428999958
 20
20752.817632999999
 30
0.0
 40
15.0
 50
180.0
 51
0.0
  0
ARC
  5
45E5
  8
0
  6
BYBLOCK
 62
     0
 10
17226.670844999979
 20
20752.817632999999
 30
0.0
 40
15.0
 50
180.0
 51
0.0
  0
ARC
  5
45E6
  8
0
  6
BYBLOCK
 62
     0
 10
17226.670844999979
 20
20752.817632999999
 30
0.0
 40
15.0
 50
0.0
 51
180.0
  0
ARC
  5
45E7
  8
0
  6
BYBLOCK
 62
     0
 10
17634.17084499999
 20
20752.817632999999
 30
0.0
 40
15.0
 50
0.0
 51
180.0
  0
ARC
  5
45E8
  8
0
  6
BYBLOCK
 62
     0
 10
17634.17084499999
 20
20752.817632999999
 30
0.0
 40
15.0
 50
180.0
 51
0.0
  0
ARC
  5
45E9
  8
0
  6
BYBLOCK
 62
     0
 10
17226.670844999979
 20
20752.817632999999
 30
0.0
 40
15.0
 50
0.0
 51
180.0
  0
ARC
  5
45EA
  8
0
  6
BYBLOCK
 62
     0
 10
17226.670844999979
 20
20752.817632999999
 30
0.0
 40
15.0
 50
180.0
 51
0.0
  0
ARC
  5
45EB
  8
0
  6
BYBLOCK
 62
     0
 10
17184.174539999989
 20
20752.817632999999
 30
0.0
 40
15.0
 50
180.0
 51
0.0
  0
ARC
  5
45EC
  8
0
  6
BYBLOCK
 62
     0
 10
17184.174539999989
 20
20752.817632999999
 30
0.0
 40
15.0
 50
0.0
 51
180.0
  0
ARC
  5
45ED
  8
0
  6
BYBLOCK
 62
     0
 10
19737.17084499999
 20
20752.817632999999
 30
0.0
 40
15.0
 50
0.0
 51
180.0
  0
ARC
  5
45EE
  8
0
  6
BYBLOCK
 62
     0
 10
19737.17084499999
 20
20752.817632999999
 30
0.0
 40
15.0
 50
180.0
 51
0.0
  0
ARC
  5
45EF
  8
0
  6
BYBLOCK
 62
     0
 10
20495.171834500001
 20
20752.817632999999
 30
0.0
 40
15.0
 50
180.0
 51
0.0
  0
ARC
  5
45F0
  8
0
  6
BYBLOCK
 62
     0
 10
20495.171834500001
 20
20752.817632999999
 30
0.0
 40
15.0
 50
0.0
 51
180.0
  0
ARC
  5
45F1
  8
0
  6
BYBLOCK
 62
     0
 10
19036.17084499999
 20
20752.817632999999
 30
0.0
 40
15.0
 50
0.0
 51
180.0
  0
ARC
  5
45F2
  8
0
  6
BYBLOCK
 62
     0
 10
19036.17084499999
 20
20752.817632999999
 30
0.0
 40
15.0
 50
180.0
 51
0.0
  0
ARC
  5
45F3
  8
0
  6
BYBLOCK
 62
     0
 10
19737.17084499999
 20
20752.817632999999
 30
0.0
 40
15.0
 50
180.0
 51
0.0
  0
ARC
  5
45F4
  8
0
  6
BYBLOCK
 62
     0
 10
19737.17084499999
 20
20752.817632999999
 30
0.0
 40
15.0
 50
0.0
 51
180.0
  0
ARC
  5
45F5
  8
0
  6
BYBLOCK
 62
     0
 10
18335.170844999979
 20
20752.817632999999
 30
0.0
 40
15.0
 50
0.0
 51
180.0
  0
ARC
  5
45F6
  8
0
  6
BYBLOCK
 62
     0
 10
18335.170844999979
 20
20752.817632999999
 30
0.0
 40
15.0
 50
180.0
 51
0.0
  0
ARC
  5
45F7
  8
0
  6
BYBLOCK
 62
     0
 10
19036.17084499999
 20
20752.817632999999
 30
0.0
 40
15.0
 50
180.0
 51
0.0
  0
ARC
  5
45F8
  8
0
  6
BYBLOCK
 62
     0
 10
19036.17084499999
 20
20752.817632999999
 30
0.0
 40
15.0
 50
0.0
 51
180.0
  0
ARC
  5
45F9
  8
0
  6
BYBLOCK
 62
     0
 10
17634.17084499999
 20
20752.817632999999
 30
0.0
 40
15.0
 50
0.0
 51
180.0
  0
ARC
  5
45FA
  8
0
  6
BYBLOCK
 62
     0
 10
17634.17084499999
 20
20752.817632999999
 30
0.0
 40
15.0
 50
180.0
 51
0.0
  0
ARC
  5
45FB
  8
0
  6
BYBLOCK
 62
     0
 10
18335.170844999979
 20
20752.817632999999
 30
0.0
 40
15.0
 50
180.0
 51
0.0
  0
ARC
  5
45FC
  8
0
  6
BYBLOCK
 62
     0
 10
18335.170844999979
 20
20752.817632999999
 30
0.0
 40
15.0
 50
0.0
 51
180.0
  0
ARC
  5
45FD
  8
0
  6
BYBLOCK
 62
     0
 10
5988.2754960000084
 20
9580.8819269999985
 30
0.0
 40
15.0
 50
0.0
 51
180.0
  0
ARC
  5
45FE
  8
0
  6
BYBLOCK
 62
     0
 10
5988.2754960000084
 20
9580.8819269999985
 30
0.0
 40
15.0
 50
180.0
 51
0.0
  0
ARC
  5
45FF
  8
0
  6
BYBLOCK
 62
     0
 10
12239.275496
 20
9580.8819269999985
 30
0.0
 40
15.0
 50
180.0
 51
0.0
  0
ARC
  5
4600
  8
0
  6
BYBLOCK
 62
     0
 10
12239.275496
 20
9580.8819269999985
 30
0.0
 40
15.0
 50
0.0
 51
180.0
  0
ARC
  5
4601
  8
0
  6
BYBLOCK
 62
     0
 10
12089.27674900001
 20
9180.8835770000005
 30
0.0
 40
15.0
 50
180.0
 51
0.0
  0
ARC
  5
4602
  8
0
  6
BYBLOCK
 62
     0
 10
12089.27674900001
 20
9180.8835770000005
 30
0.0
 40
15.0
 50
0.0
 51
180.0
  0
ARC
  5
4603
  8
0
  6
BYBLOCK
 62
     0
 10
12239.275496
 20
9180.8835770000005
 30
0.0
 40
15.0
 50
0.0
 51
180.0
  0
ARC
  5
4604
  8
0
  6
BYBLOCK
 62
     0
 10
12239.275496
 20
9180.8835770000005
 30
0.0
 40
15.0
 50
180.0
 51
0.0
  0
ARC
  5
4605
  8
0
  6
BYBLOCK
 62
     0
 10
6168.2742420000059
 20
9180.8835770000005
 30
0.0
 40
15.0
 50
0.0
 51
180.0
  0
ARC
  5
4606
  8
0
  6
BYBLOCK
 62
     0
 10
6168.2742420000059
 20
9180.8835770000005
 30
0.0
 40
15.0
 50
180.0
 51
0.0
  0
ARC
  5
4607
  8
0
  6
BYBLOCK
 62
     0
 10
12089.27674900001
 20
9180.8835770000005
 30
0.0
 40
15.0
 50
180.0
 51
0.0
  0
ARC
  5
4608
  8
0
  6
BYBLOCK
 62
     0
 10
12089.27674900001
 20
9180.8835770000005
 30
0.0
 40
15.0
 50
0.0
 51
180.0
  0
ARC
  5
4609
  8
0
  6
BYBLOCK
 62
     0
 10
5988.2754960000084
 20
9180.8835769999969
 30
0.0
 40
15.0
 50
180.0
 51
0.0
  0
ARC
  5
460A
  8
0
  6
BYBLOCK
 62
     0
 10
5988.2754960000084
 20
9180.8835769999969
 30
0.0
 40
15.0
 50
0.0
 51
180.0
  0
ARC
  5
460B
  8
0
  6
BYBLOCK
 62
     0
 10
6168.2742420000059
 20
9180.8835769999969
 30
0.0
 40
15.0
 50
0.0
 51
180.0
  0
ARC
  5
460C
  8
0
  6
BYBLOCK
 62
     0
 10
6168.2742420000059
 20
9180.8835769999969
 30
0.0
 40
15.0
 50
180.0
 51
0.0
  0
ARC
  5
460D
  8
0
  6
BYBLOCK
 62
     0
 10
5078.2770780000064
 20
6032.8828909999984
 30
0.0
 40
15.0
 50
90.0
 51
270.0
  0
ARC
  5
460E
  8
0
  6
BYBLOCK
 62
     0
 10
5078.2770780000064
 20
6032.8828909999984
 30
0.0
 40
15.0
 50
270.0
 51
90.0
  0
ARC
  5
460F
  8
0
  6
BYBLOCK
 62
     0
 10
5078.2770780000064
 20
8189.3828909999993
 30
0.0
 40
15.0
 50
270.0
 51
90.0
  0
ARC
  5
4610
  8
0
  6
BYBLOCK
 62
     0
 10
5078.2770780000064
 20
8189.3828909999993
 30
0.0
 40
15.0
 50
90.0
 51
270.0
  0
ARC
  5
4611
  8
0
  6
BYBLOCK
 62
     0
 10
13179.274901000001
 20
6032.8828909999984
 30
0.0
 40
15.0
 50
90.0
 51
270.0
  0
ARC
  5
4612
  8
0
  6
BYBLOCK
 62
     0
 10
13179.274901000001
 20
6032.8828909999984
 30
0.0
 40
15.0
 50
270.0
 51
90.0
  0
ARC
  5
4613
  8
0
  6
BYBLOCK
 62
     0
 10
13179.274901000001
 20
8381.3828909999957
 30
0.0
 40
15.0
 50
270.0
 51
90.0
  0
ARC
  5
4614
  8
0
  6
BYBLOCK
 62
     0
 10
13179.274901000001
 20
8381.3828909999957
 30
0.0
 40
15.0
 50
90.0
 51
270.0
  0
ARC
  5
4615
  8
0
  6
BYBLOCK
 62
     0
 10
6168.2754960000102
 20
4332.8827260000016
 30
0.0
 40
15.0
 50
0.0
 51
180.0
  0
ARC
  5
4616
  8
0
  6
BYBLOCK
 62
     0
 10
6168.2754960000102
 20
4332.8827260000016
 30
0.0
 40
15.0
 50
180.0
 51
0.0
  0
ARC
  5
4617
  8
0
  6
BYBLOCK
 62
     0
 10
12089.275496
 20
4332.8827260000016
 30
0.0
 40
15.0
 50
180.0
 51
0.0
  0
ARC
  5
4618
  8
0
  6
BYBLOCK
 62
     0
 10
12089.275496
 20
4332.8827260000016
 30
0.0
 40
15.0
 50
0.0
 51
180.0
  0
ARC
  5
4619
  8
0
  6
BYBLOCK
 62
     0
 10
12046.775496
 20
4732.8825610000004
 30
0.0
 40
15.0
 50
180.0
 51
0.0
  0
ARC
  5
461A
  8
0
  6
BYBLOCK
 62
     0
 10
12046.775496
 20
4732.8825610000004
 30
0.0
 40
15.0
 50
0.0
 51
180.0
  0
ARC
  5
461B
  8
0
  6
BYBLOCK
 62
     0
 10
12089.275496
 20
4732.8825610000004
 30
0.0
 40
15.0
 50
0.0
 51
180.0
  0
ARC
  5
461C
  8
0
  6
BYBLOCK
 62
     0
 10
12089.275496
 20
4732.8825610000004
 30
0.0
 40
15.0
 50
180.0
 51
0.0
  0
ARC
  5
461D
  8
0
  6
BYBLOCK
 62
     0
 10
6210.7754960000084
 20
4732.8825610000004
 30
0.0
 40
15.0
 50
0.0
 51
180.0
  0
ARC
  5
461E
  8
0
  6
BYBLOCK
 62
     0
 10
6210.7754960000084
 20
4732.8825610000004
 30
0.0
 40
15.0
 50
180.0
 51
0.0
  0
ARC
  5
461F
  8
0
  6
BYBLOCK
 62
     0
 10
6168.2754960000102
 20
4732.8825610000004
 30
0.0
 40
15.0
 50
180.0
 51
0.0
  0
ARC
  5
4620
  8
0
  6
BYBLOCK
 62
     0
 10
6168.2754960000102
 20
4732.8825610000004
 30
0.0
 40
15.0
 50
0.0
 51
180.0
  0
ARC
  5
4621
  8
0
  6
BYBLOCK
 62
     0
 10
9128.7754960000093
 20
4732.8825610000004
 30
0.0
 40
15.0
 50
180.0
 51
0.0
  0
ARC
  5
4622
  8
0
  6
BYBLOCK
 62
     0
 10
9128.7754960000093
 20
4732.8825610000004
 30
0.0
 40
15.0
 50
0.0
 51
180.0
  0
ARC
  5
4623
  8
0
  6
BYBLOCK
 62
     0
 10
6210.7754960000084
 20
4732.8825610000004
 30
0.0
 40
15.0
 50
0.0
 51
180.0
  0
ARC
  5
4624
  8
0
  6
BYBLOCK
 62
     0
 10
6210.7754960000084
 20
4732.8825610000004
 30
0.0
 40
15.0
 50
180.0
 51
0.0
  0
ARC
  5
4625
  8
0
  6
BYBLOCK
 62
     0
 10
9128.7754960000093
 20
4732.8825610000004
 30
0.0
 40
15.0
 50
0.0
 51
180.0
  0
ARC
  5
4626
  8
0
  6
BYBLOCK
 62
     0
 10
9128.7754960000093
 20
4732.8825610000004
 30
0.0
 40
15.0
 50
180.0
 51
0.0
  0
ARC
  5
4627
  8
0
  6
BYBLOCK
 62
     0
 10
12046.775496
 20
4732.8825610000004
 30
0.0
 40
15.0
 50
180.0
 51
0.0
  0
ARC
  5
4628
  8
0
  6
BYBLOCK
 62
     0
 10
12046.775496
 20
4732.8825610000004
 30
0.0
 40
15.0
 50
0.0
 51
180.0
  0
LINE
  5
4768
  8
0-1
  6
CONTINUOUS
 62
     3
 10
26200.17910599997
 20
8131.3834059999954
 30
0.0
 11
26200.17910599997
 21
8163.383312999993
 31
0.0
  0
LINE
  5
4769
  8
0-1
  6
CONTINUOUS
 62
     3
 10
26349.178498999961
 20
8055.1966839999941
 30
0.0
 11
26306.17638799996
 21
8055.1966839999941
 31
0.0
  0
LINE
  5
476A
  8
0-1
  6
CONTINUOUS
 62
     3
 10
26349.178498999961
 20
8381.3837349999922
 30
0.0
 11
26349.178498999961
 21
8055.1966839999941
 31
0.0
  0
LINE
  5
476B
  8
0-1
  6
CONTINUOUS
 62
     3
 10
25914.21191299997
 20
8127.8479849999931
 30
0.0
 11
25882.212995999958
 21
8159.8478929999892
 31
0.0
  0
LINE
  5
476C
  8
0-1
  6
CONTINUOUS
 62
     3
 10
26195.178841999961
 20
8168.383576999996
 30
0.0
 11
25885.748415999959
 21
8168.383576999996
 31
0.0
  0
LINE
  5
476D
  8
0-1
  6
CONTINUOUS
 62
     3
 10
26200.17910599997
 20
8159.9844799999964
 30
0.0
 11
25882.08234699997
 21
8159.9844799999964
 31
0.0
  0
LINE
  5
476E
  8
0-1
  6
CONTINUOUS
 62
     3
 10
26195.178841999961
 20
8126.383141999996
 30
0.0
 11
25917.74931299996
 21
8126.383141999996
 31
0.0
  0
LINE
  5
476F
  8
0-1
  6
CONTINUOUS
 62
     3
 10
26200.17910599997
 20
8134.7832289999906
 30
0.0
 11
25907.27765999996
 21
8134.7832289999906
 31
0.0
  0
LINE
  5
4770
  8
0-1
  6
CONTINUOUS
 62
     3
 10
26200.17910599997
 20
8143.1833159999906
 30
0.0
 11
25898.878561999962
 21
8143.1833159999906
 31
0.0
  0
LINE
  5
4771
  8
0-1
  6
CONTINUOUS
 62
     3
 10
26200.17910599997
 20
8151.5843929999965
 30
0.0
 11
25890.47748599996
 21
8151.5843929999965
 31
0.0
  0
LINE
  5
4772
  8
0-1
  6
CONTINUOUS
 62
     3
 10
23344.64231399999
 20
8127.8479849999931
 30
0.0
 11
23376.63925199999
 21
8159.8478929999892
 31
0.0
  0
LINE
  5
4773
  8
0-1
  6
CONTINUOUS
 62
     3
 10
23058.677099999979
 20
8131.3834059999954
 30
0.0
 11
23058.677099999979
 21
8163.383312999993
 31
0.0
  0
LINE
  5
4774
  8
0-1
  6
CONTINUOUS
 62
     3
 10
22931.675146999991
 20
8131.3834059999954
 30
0.0
 11
22931.675146999991
 21
8163.383312999993
 31
0.0
  0
LINE
  5
4775
  8
0-1
  6
CONTINUOUS
 62
     3
 10
23058.677099999979
 20
8134.7832289999906
 30
0.0
 11
23351.574587999981
 21
8134.7832289999906
 31
0.0
  0
LINE
  5
4776
  8
0-1
  6
CONTINUOUS
 62
     3
 10
23058.677099999979
 20
8143.1833159999906
 30
0.0
 11
23359.975664999991
 21
8143.1833159999906
 31
0.0
  0
LINE
  5
4777
  8
0-1
  6
CONTINUOUS
 62
     3
 10
23063.677363999981
 20
8126.383141999996
 30
0.0
 11
23341.104913999981
 21
8126.383141999996
 31
0.0
  0
LINE
  5
4778
  8
0-1
  6
CONTINUOUS
 62
     3
 10
23058.677099999979
 20
8151.5843929999965
 30
0.0
 11
23368.374761999989
 21
8151.5843929999965
 31
0.0
  0
LINE
  5
4779
  8
0-1
  6
CONTINUOUS
 62
     3
 10
23058.677099999979
 20
8159.9844799999964
 30
0.0
 11
23376.771879999978
 21
8159.9844799999964
 31
0.0
  0
LINE
  5
477A
  8
0-1
  6
CONTINUOUS
 62
     3
 10
23063.677363999981
 20
8168.383576999996
 30
0.0
 11
23373.105811000001
 21
8168.383576999996
 31
0.0
  0
LINE
  5
477B
  8
0-1
  6
CONTINUOUS
 62
     3
 10
22645.709933999991
 20
8127.8479849999931
 30
0.0
 11
22613.71299599998
 21
8159.8478929999892
 31
0.0
  0
LINE
  5
477C
  8
0-1
  6
CONTINUOUS
 62
     3
 10
22926.67686299999
 20
8126.383141999996
 30
0.0
 11
22649.245353999991
 21
8126.383141999996
 31
0.0
  0
LINE
  5
477D
  8
0-1
  6
CONTINUOUS
 62
     3
 10
22926.67686299999
 20
8168.383576999996
 30
0.0
 11
22617.246435999969
 21
8168.383576999996
 31
0.0
  0
LINE
  5
477E
  8
0-1
  6
CONTINUOUS
 62
     3
 10
22931.675146999991
 20
8134.7832289999906
 30
0.0
 11
22638.777659999982
 21
8134.7832289999906
 31
0.0
  0
LINE
  5
477F
  8
0-1
  6
CONTINUOUS
 62
     3
 10
22931.675146999991
 20
8143.1833159999906
 30
0.0
 11
22630.376582999968
 21
8143.1833159999906
 31
0.0
  0
LINE
  5
4780
  8
0-1
  6
CONTINUOUS
 62
     3
 10
22931.675146999991
 20
8151.5843929999965
 30
0.0
 11
22621.977485999982
 21
8151.5843929999965
 31
0.0
  0
LINE
  5
4781
  8
0-1
  6
CONTINUOUS
 62
     3
 10
22931.675146999991
 20
8159.9844799999964
 30
0.0
 11
22613.582347999982
 21
8159.9844799999964
 31
0.0
  0
LINE
  5
4782
  8
0-1
  6
CONTINUOUS
 62
     3
 10
21904.28322899999
 20
8117.3832599999951
 30
0.0
 11
22952.677839999971
 21
8117.3832599999951
 31
0.0
  0
LINE
  5
4783
  8
0-1
  6
CONTINUOUS
 62
     3
 10
21904.28322899999
 20
8177.3834579999948
 30
0.0
 11
22952.677839999971
 21
8177.3834579999948
 31
0.0
  0
LINE
  5
4784
  8
0-1
  6
CONTINUOUS
 62
     3
 10
26349.178498999961
 20
8251.3828119999926
 30
0.0
 11
21904.28322899999
 21
8251.3828119999926
 31
0.0
  0
LINE
  5
4785
  8
0-1
  6
CONTINUOUS
 62
     3
 10
23037.674407999992
 20
8177.3834579999948
 30
0.0
 11
26221.17783899996
 21
8177.3834579999948
 31
0.0
  0
LINE
  5
4786
  8
0-1
  6
CONTINUOUS
 62
     3
 10
23037.674407999992
 20
8117.3832599999951
 30
0.0
 11
26221.17783899996
 21
8117.3832599999951
 31
0.0
  0
LINE
  5
4787
  8
0-1
  6
CONTINUOUS
 62
     3
 10
21904.28322899999
 20
8381.3837349999922
 30
0.0
 11
26349.178498999961
 21
8381.3837349999922
 31
0.0
  0
LINE
  5
4788
  8
0-1
  6
CONTINUOUS
 62
     3
 10
20558.671821999989
 20
8134.7832289999906
 30
0.0
 11
20851.573267999989
 21
8134.7832289999906
 31
0.0
  0
LINE
  5
4789
  8
0-1
  6
CONTINUOUS
 62
     3
 10
20558.671821999989
 20
8143.1833159999906
 30
0.0
 11
20859.97038599999
 21
8143.1833159999906
 31
0.0
  0
LINE
  5
478A
  8
0-1
  6
CONTINUOUS
 62
     3
 10
20563.67208599997
 20
8126.383141999996
 30
0.0
 11
20841.101614999981
 21
8126.383141999996
 31
0.0
  0
LINE
  5
478B
  8
0-1
  6
CONTINUOUS
 62
     3
 10
20558.671821999989
 20
8151.5843929999965
 30
0.0
 11
20868.373441999989
 21
8151.5843929999965
 31
0.0
  0
LINE
  5
478C
  8
0-1
  6
CONTINUOUS
 62
     3
 10
20563.67208599997
 20
8168.383576999996
 30
0.0
 11
20873.100532999972
 21
8168.383576999996
 31
0.0
  0
LINE
  5
478D
  8
0-1
  6
CONTINUOUS
 62
     3
 10
20558.671821999989
 20
8131.3834059999954
 30
0.0
 11
20558.671821999989
 21
8163.383312999993
 31
0.0
  0
LINE
  5
478E
  8
0-1
  6
CONTINUOUS
 62
     3
 10
20431.66986899999
 20
8131.3834059999954
 30
0.0
 11
20431.66986899999
 21
8163.383312999993
 31
0.0
  0
LINE
  5
478F
  8
0-1
  6
CONTINUOUS
 62
     3
 10
20558.671821999989
 20
8159.9844799999964
 30
0.0
 11
20876.766600999981
 21
8159.9844799999964
 31
0.0
  0
LINE
  5
4790
  8
0-1
  6
CONTINUOUS
 62
     3
 10
20844.637034999982
 20
8127.8479849999931
 30
0.0
 11
20876.633972999989
 21
8159.8478929999892
 31
0.0
  0
LINE
  5
4791
  8
0-1
  6
CONTINUOUS
 62
     3
 10
20145.708613999981
 20
8127.8479849999931
 30
0.0
 11
20113.70771699999
 21
8159.8478929999892
 31
0.0
  0
LINE
  5
4792
  8
0-1
  6
CONTINUOUS
 62
     3
 10
20431.66986899999
 20
8159.9844799999964
 30
0.0
 11
20113.577068999992
 21
8159.9844799999964
 31
0.0
  0
LINE
  5
4793
  8
0-1
  6
CONTINUOUS
 62
     3
 10
20431.66986899999
 20
8151.5843929999965
 30
0.0
 11
20121.972206999992
 21
8151.5843929999965
 31
0.0
  0
LINE
  5
4794
  8
0-1
  6
CONTINUOUS
 62
     3
 10
20431.66986899999
 20
8143.1833159999906
 30
0.0
 11
20130.371303999978
 21
8143.1833159999906
 31
0.0
  0
LINE
  5
4795
  8
0-1
  6
CONTINUOUS
 62
     3
 10
20431.66986899999
 20
8134.7832289999906
 30
0.0
 11
20138.770401999991
 21
8134.7832289999906
 31
0.0
  0
LINE
  5
4796
  8
0-1
  6
CONTINUOUS
 62
     3
 10
20426.671583999989
 20
8168.383576999996
 30
0.0
 11
20117.241157999979
 21
8168.383576999996
 31
0.0
  0
LINE
  5
4797
  8
0-1
  6
CONTINUOUS
 62
     3
 10
20426.671583999989
 20
8126.383141999996
 30
0.0
 11
20149.244034999982
 21
8126.383141999996
 31
0.0
  0
LINE
  5
4798
  8
0-1
  6
CONTINUOUS
 62
     3
 10
17295.17010599999
 20
8126.383141999996
 30
0.0
 11
17572.599635999992
 21
8126.383141999996
 31
0.0
  0
LINE
  5
4799
  8
0-1
  6
CONTINUOUS
 62
     3
 10
17290.171821999989
 20
8131.3834059999954
 30
0.0
 11
17290.171821999989
 21
8163.383312999993
 31
0.0
  0
LINE
  5
479A
  8
0-1
  6
CONTINUOUS
 62
     3
 10
17141.17044999998
 20
8055.1966839999941
 30
0.0
 11
17184.168602000002
 21
8055.1966839999941
 31
0.0
  0
LINE
  5
479B
  8
0-1
  6
CONTINUOUS
 62
     3
 10
17141.17044999998
 20
8055.1966839999941
 30
0.0
 11
17141.17044999998
 21
8381.3837349999922
 31
0.0
  0
LINE
  5
479C
  8
0-1
  6
CONTINUOUS
 62
     3
 10
17295.17010599999
 20
8168.383576999996
 30
0.0
 11
17604.600533000001
 21
8168.383576999996
 31
0.0
  0
LINE
  5
479D
  8
0-1
  6
CONTINUOUS
 62
     3
 10
17576.133075999991
 20
8127.8479849999931
 30
0.0
 11
17608.133973999989
 21
8159.8478929999892
 31
0.0
  0
LINE
  5
479E
  8
0-1
  6
CONTINUOUS
 62
     3
 10
17290.171821999989
 20
8159.9844799999964
 30
0.0
 11
17608.266600999999
 21
8159.9844799999964
 31
0.0
  0
LINE
  5
479F
  8
0-1
  6
CONTINUOUS
 62
     3
 10
17290.171821999989
 20
8151.5843929999965
 30
0.0
 11
17599.869483999992
 21
8151.5843929999965
 31
0.0
  0
LINE
  5
47A0
  8
0-1
  6
CONTINUOUS
 62
     3
 10
17290.171821999989
 20
8143.1833159999906
 30
0.0
 11
17591.470386000001
 21
8143.1833159999906
 31
0.0
  0
LINE
  5
47A1
  8
0-1
  6
CONTINUOUS
 62
     3
 10
17290.171821999989
 20
8134.7832289999906
 30
0.0
 11
17583.071289
 21
8134.7832289999906
 31
0.0
  0
LINE
  5
47A2
  8
0-1
  6
CONTINUOUS
 62
     3
 10
17269.169129999991
 20
8117.3832599999951
 30
0.0
 11
20452.670580999991
 21
8117.3832599999951
 31
0.0
  0
LINE
  5
47A3
  8
0-1
  6
CONTINUOUS
 62
     3
 10
17269.169129999991
 20
8177.3834579999948
 30
0.0
 11
20452.670580999991
 21
8177.3834579999948
 31
0.0
  0
LINE
  5
47A4
  8
0-1
  6
CONTINUOUS
 62
     3
 10
17141.17044999998
 20
8381.3837349999922
 30
0.0
 11
21604.283229000001
 21
8381.3837349999922
 31
0.0
  0
LINE
  5
47A5
  8
0-1
  6
CONTINUOUS
 62
     3
 10
20537.673088999982
 20
8177.3834579999948
 30
0.0
 11
21604.283229000001
 21
8177.3834579999948
 31
0.0
  0
LINE
  5
47A6
  8
0-1
  6
CONTINUOUS
 62
     3
 10
20537.673088999982
 20
8117.3832599999951
 30
0.0
 11
21604.283229000001
 21
8117.3832599999951
 31
0.0
  0
LINE
  5
47A7
  8
0-1
  6
CONTINUOUS
 62
     3
 10
21604.283229000001
 20
8251.3828119999926
 30
0.0
 11
17141.17044999998
 21
8251.3828119999926
 31
0.0
  0
LINE
  5
47A8
  8
0-1
  6
CONTINUOUS
 62
     3
 10
20495.17084499999
 20
8251.3828119999926
 30
0.0
 11
20495.17084499999
 21
8381.3837349999922
 31
0.0
  0
LINE
  5
47A9
  8
0-1
  6
CONTINUOUS
 62
     3
 10
22995.176123999961
 20
8251.3828119999926
 30
0.0
 11
22995.176123999961
 21
8381.3837349999922
 31
0.0
  0
ARC
  5
47AA
  8
0-1
  6
CONTINUOUS
 62
     3
 10
26195.178841999961
 20
8163.383312999993
 30
0.0
 40
5.0
 50
0.0
 51
90.0
  0
ARC
  5
47AB
  8
0-1
  6
CONTINUOUS
 62
     3
 10
26195.178841999961
 20
8131.3834059999954
 30
0.0
 40
5.0
 50
269.9999850001808
 51
0.0
  0
ARC
  5
47AC
  8
0-1
  6
CONTINUOUS
 62
     3
 10
25885.748415999959
 20
8163.383312999993
 30
0.0
 40
5.0
 50
90.0
 51
224.99998499997989
  0
ARC
  5
47AD
  8
0-1
  6
CONTINUOUS
 62
     3
 10
25917.74931299996
 20
8131.3834059999954
 30
0.0
 40
5.0
 50
224.99998499997989
 51
269.9999850001808
  0
ARC
  5
47AE
  8
0-1
  6
CONTINUOUS
 62
     3
 10
23373.105811000001
 20
8163.383312999993
 30
0.0
 40
5.0
 50
314.99998500027471
 51
90.0
  0
ARC
  5
47AF
  8
0-1
  6
CONTINUOUS
 62
     3
 10
23341.104913999981
 20
8131.3834059999954
 30
0.0
 40
5.0
 50
269.9999850001808
 51
314.99998500027471
  0
ARC
  5
47B0
  8
0-1
  6
CONTINUOUS
 62
     3
 10
23063.677363999981
 20
8131.3834059999954
 30
0.0
 40
5.0
 50
180.0
 51
269.9999850001808
  0
ARC
  5
47B1
  8
0-1
  6
CONTINUOUS
 62
     3
 10
23063.677363999981
 20
8163.383312999993
 30
0.0
 40
5.0
 50
90.0
 51
180.0
  0
ARC
  5
47B2
  8
0-1
  6
CONTINUOUS
 62
     3
 10
22926.67686299999
 20
8163.383312999993
 30
0.0
 40
5.0
 50
0.0
 51
90.0
  0
ARC
  5
47B3
  8
0-1
  6
CONTINUOUS
 62
     3
 10
22926.67686299999
 20
8131.3834059999954
 30
0.0
 40
5.0
 50
269.9999850001808
 51
0.0
  0
ARC
  5
47B4
  8
0-1
  6
CONTINUOUS
 62
     3
 10
22649.245353999991
 20
8131.3834059999954
 30
0.0
 40
5.0
 50
224.99998499997989
 51
269.9999850001808
  0
ARC
  5
47B5
  8
0-1
  6
CONTINUOUS
 62
     3
 10
22617.246435999969
 20
8163.383312999993
 30
0.0
 40
5.0
 50
90.0
 51
224.99998499997989
  0
ARC
  5
47B6
  8
0-1
  6
CONTINUOUS
 62
     3
 10
20563.67208599997
 20
8131.3834059999954
 30
0.0
 40
5.0
 50
180.0
 51
269.9999850001808
  0
ARC
  5
47B7
  8
0-1
  6
CONTINUOUS
 62
     3
 10
20563.67208599997
 20
8163.383312999993
 30
0.0
 40
5.0
 50
90.0
 51
180.0
  0
ARC
  5
47B8
  8
0-1
  6
CONTINUOUS
 62
     3
 10
20841.101614999981
 20
8131.3834059999954
 30
0.0
 40
5.0
 50
269.9999850001808
 51
314.99998500027471
  0
ARC
  5
47B9
  8
0-1
  6
CONTINUOUS
 62
     3
 10
20426.671583999989
 20
8131.3834059999954
 30
0.0
 40
5.0
 50
269.9999850001808
 51
0.0
  0
ARC
  5
47BA
  8
0-1
  6
CONTINUOUS
 62
     3
 10
20426.671583999989
 20
8163.383312999993
 30
0.0
 40
5.0
 50
0.0
 51
90.0
  0
ARC
  5
47BB
  8
0-1
  6
CONTINUOUS
 62
     3
 10
20873.100532999972
 20
8163.383312999993
 30
0.0
 40
5.0
 50
314.99998500027471
 51
90.0
  0
ARC
  5
47BC
  8
0-1
  6
CONTINUOUS
 62
     3
 10
20117.241157999979
 20
8163.383312999993
 30
0.0
 40
5.0
 50
90.0
 51
224.99998499997989
  0
ARC
  5
47BD
  8
0-1
  6
CONTINUOUS
 62
     3
 10
20149.244034999982
 20
8131.3834059999954
 30
0.0
 40
5.0
 50
224.99998499997989
 51
269.9999850001808
  0
ARC
  5
47BE
  8
0-1
  6
CONTINUOUS
 62
     3
 10
17604.600533000001
 20
8163.383312999993
 30
0.0
 40
5.0
 50
314.99998500027471
 51
90.0
  0
ARC
  5
47BF
  8
0-1
  6
CONTINUOUS
 62
     3
 10
17295.17010599999
 20
8163.383312999993
 30
0.0
 40
5.0
 50
90.0
 51
180.0
  0
ARC
  5
47C0
  8
0-1
  6
CONTINUOUS
 62
     3
 10
17295.17010599999
 20
8131.3834059999954
 30
0.0
 40
5.0
 50
180.0
 51
269.9999850001808
  0
ARC
  5
47C1
  8
0-1
  6
CONTINUOUS
 62
     3
 10
17572.599635999992
 20
8131.3834059999954
 30
0.0
 40
5.0
 50
269.9999850001808
 51
314.99998500027471
  0
LINE
  5
47C2
  8
SUNPOU
  6
CONTINUOUS
 62
     4
 10
17141.168469999979
 20
8461.383734999994
 30
0.0
 11
17141.168469999979
 21
9660.8413469999941
 31
0.0
  0
LINE
  5
47C3
  8
SUNPOU
  6
CONTINUOUS
 62
     4
 10
26349.178498999961
 20
8461.383734999994
 30
0.0
 11
26349.178498999961
 21
9660.8413469999941
 31
0.0
  0
LINE
  5
47C4
  8
SUNPOU
  6
CONTINUOUS
 62
     4
 10
17144.168469999979
 20
9580.8413469999923
 30
0.0
 11
26346.178498999961
 21
9580.8413469999923
 31
0.0
  0
LINE
  5
47C5
  8
SUNPOU
  6
CONTINUOUS
 62
     4
 10
17184.170580999991
 20
8461.383734999994
 30
0.0
 11
17184.170580999991
 21
9260.8835769999969
 31
0.0
  0
LINE
  5
47C6
  8
SUNPOU
  6
CONTINUOUS
 62
     4
 10
26306.17638799996
 20
8461.383734999994
 30
0.0
 11
26306.17638799996
 21
9260.8835769999969
 31
0.0
  0
LINE
  5
47C7
  8
SUNPOU
  6
CONTINUOUS
 62
     4
 10
17184.170580999991
 20
9180.8835769999878
 30
0.0
 11
26306.17638799996
 21
9180.8835769999878
 31
0.0
  0
LINE
  5
47C8
  8
SUNPOU
  6
CONTINUOUS
 62
     4
 10
17184.170580999991
 20
8461.383734999994
 30
0.0
 11
17184.170580999991
 21
9260.8835769999969
 31
0.0
  0
LINE
  5
47C9
  8
SUNPOU
  6
CONTINUOUS
 62
     4
 10
17141.168469999979
 20
8461.383734999994
 30
0.0
 11
17141.168469999979
 21
9260.8835769999969
 31
0.0
  0
LINE
  5
47CA
  8
SUNPOU
  6
CONTINUOUS
 62
     4
 10
17184.170580999991
 20
9180.8835769999878
 30
0.0
 11
17424.170580999991
 21
9180.8835769999878
 31
0.0
  0
LINE
  5
47CB
  8
SUNPOU
  6
CONTINUOUS
 62
     4
 10
17144.168469999979
 20
9180.8835769999878
 30
0.0
 11
16904.168469999979
 21
9180.8835769999878
 31
0.0
  0
LINE
  5
47CC
  8
SUNPOU
  6
CONTINUOUS
 62
     4
 10
17184.170580999991
 20
9180.8835769999878
 30
0.0
 11
17144.168469999979
 21
9180.8835769999878
 31
0.0
  0
LINE
  5
47CD
  8
SUNPOU
  6
CONTINUOUS
 62
     4
 10
26306.17638799996
 20
8461.383734999994
 30
0.0
 11
26306.17638799996
 21
9260.8835769999969
 31
0.0
  0
LINE
  5
47CE
  8
SUNPOU
  6
CONTINUOUS
 62
     4
 10
26349.178498999961
 20
8461.383734999994
 30
0.0
 11
26349.178498999961
 21
9260.8835769999969
 31
0.0
  0
LINE
  5
47CF
  8
SUNPOU
  6
CONTINUOUS
 62
     4
 10
26306.17638799996
 20
9180.8835769999878
 30
0.0
 11
26066.17638799996
 21
9180.8835769999878
 31
0.0
  0
LINE
  5
47D0
  8
SUNPOU
  6
CONTINUOUS
 62
     4
 10
26346.178498999961
 20
9180.8835769999878
 30
0.0
 11
26586.178498999961
 21
9180.8835769999878
 31
0.0
  0
LINE
  5
47D1
  8
SUNPOU
  6
CONTINUOUS
 62
     4
 10
26306.17638799996
 20
9180.8835769999878
 30
0.0
 11
26346.178498999961
 21
9180.8835769999878
 31
0.0
  0
TEXT
  5
47D2
  8
0
  6
CONTINUOUS
 62
     7
 10
26466.178498999961
 20
9260.8835769999969
 30
0.0
 40
160.0
  1
43
  0
TEXT
  5
47D3
  8
0
  6
CONTINUOUS
 62
     7
 10
16784.168469999979
 20
9260.8835769999969
 30
0.0
 40
160.0
  1
43
  0
TEXT
  5
47D4
  8
0
  6
CONTINUOUS
 62
     7
 10
20705.173484499981
 20
9260.8835769999969
 30
0.0
 40
160.0
  1
3268.5 \U+00D7 ｎ ＋ 85
  0
TEXT
  5
47D5
  8
0
  6
CONTINUOUS
 62
     7
 10
20651.840151166649
 20
9660.8413469999941
 30
0.0
 40
160.0
  1
3268.5 \U+00D7 ｎ ＋ 171
  0
ARC
  5
47D6
  8
0
  6
BYBLOCK
 62
     0
 10
17141.168469999979
 20
9580.8413469999923
 30
0.0
 40
15.0
 50
0.0
 51
180.0
  0
ARC
  5
47D7
  8
0
  6
BYBLOCK
 62
     0
 10
17141.168469999979
 20
9580.8413469999923
 30
0.0
 40
15.0
 50
180.0
 51
0.0
  0
ARC
  5
47D8
  8
0
  6
BYBLOCK
 62
     0
 10
26349.178498999961
 20
9580.8413469999923
 30
0.0
 40
15.0
 50
180.0
 51
0.0
  0
ARC
  5
47D9
  8
0
  6
BYBLOCK
 62
     0
 10
26349.178498999961
 20
9580.8413469999923
 30
0.0
 40
15.0
 50
0.0
 51
180.0
  0
ARC
  5
47DA
  8
0
  6
BYBLOCK
 62
     0
 10
17184.170580999991
 20
9180.8835769999878
 30
0.0
 40
15.0
 50
0.0
 51
180.0
  0
ARC
  5
47DB
  8
0
  6
BYBLOCK
 62
     0
 10
17184.170580999991
 20
9180.8835769999878
 30
0.0
 40
15.0
 50
180.0
 51
0.0
  0
ARC
  5
47DC
  8
0
  6
BYBLOCK
 62
     0
 10
26306.17638799996
 20
9180.8835769999878
 30
0.0
 40
15.0
 50
180.0
 51
0.0
  0
ARC
  5
47DD
  8
0
  6
BYBLOCK
 62
     0
 10
26306.17638799996
 20
9180.8835769999878
 30
0.0
 40
15.0
 50
0.0
 51
180.0
  0
ARC
  5
47DE
  8
0
  6
BYBLOCK
 62
     0
 10
17184.170580999991
 20
9180.8835769999878
 30
0.0
 40
15.0
 50
0.0
 51
180.0
  0
ARC
  5
47DF
  8
0
  6
BYBLOCK
 62
     0
 10
17184.170580999991
 20
9180.8835769999878
 30
0.0
 40
15.0
 50
180.0
 51
0.0
  0
ARC
  5
47E0
  8
0
  6
BYBLOCK
 62
     0
 10
17141.168469999979
 20
9180.8835769999878
 30
0.0
 40
15.0
 50
180.0
 51
0.0
  0
ARC
  5
47E1
  8
0
  6
BYBLOCK
 62
     0
 10
17141.168469999979
 20
9180.8835769999878
 30
0.0
 40
15.0
 50
0.0
 51
180.0
  0
ARC
  5
47E2
  8
0
  6
BYBLOCK
 62
     0
 10
26306.17638799996
 20
9180.8835769999878
 30
0.0
 40
15.0
 50
180.0
 51
0.0
  0
ARC
  5
47E3
  8
0
  6
BYBLOCK
 62
     0
 10
26306.17638799996
 20
9180.8835769999878
 30
0.0
 40
15.0
 50
0.0
 51
180.0
  0
ARC
  5
47E4
  8
0
  6
BYBLOCK
 62
     0
 10
26349.178498999961
 20
9180.8835769999878
 30
0.0
 40
15.0
 50
0.0
 51
180.0
  0
ARC
  5
47E5
  8
0
  6
BYBLOCK
 62
     0
 10
26349.178498999961
 20
9180.8835769999878
 30
0.0
 40
15.0
 50
180.0
 51
0.0
  0
TEXT
  5
483C
  8
NAME
 10
24033.05354655402
 20
1076.0
 30
0.0
 40
360.0
  1
H
 41
0.6700000000000002
  7
00
  0
TEXT
  5
483D
  8
NAME
 10
23657.2215619737
 20
1076.0
 30
0.0
 40
360.0
  1
（ ）
  7
01
  0
TEXT
  5
483E
  8
NAME
 10
24557.214549256751
 20
1076.0
 30
0.0
 40
360.0
  1
型（ 連棟）
  7
01
  0
TEXT
  5
483F
  8
NAME
 10
21816.089515848402
 20
1076.6369801169251
 30
0.0
 40
360.0
  1
VGC-3359
 41
0.6700000000000002
  0
TEXT
  5
4840
  8
NAME
 10
25322.399158861332
 20
1076.0
 30
0.0
 40
360.0
  1
n
 41
0.6700000000000002
  7
00
  0
TEXT
  5
4842
  8
NAME
 10
21933.552716389018
 20
1876.0
 30
0.0
 40
360.0
  1
ヨドガレージ ラヴィージュ
 41
0.75
  7
01
  0
LINE
  5
4843
  8
NAME
  6
CONTINUOUS
 10
26067.886878884321
 20
2236.0
 30
0.0
 11
26067.886878884321
 21
1876.0
 31
0.0
  0
LINE
  5
4844
  8
NAME
  6
CONTINUOUS
 10
26167.886878884321
 20
2236.0
 30
0.0
 11
26167.886878884321
 21
1876.0
 31
0.0
  0
LINE
  5
4845
  8
NAME
  6
CONTINUOUS
 10
26267.886878884321
 20
2236.0
 30
0.0
 11
26267.886878884321
 21
1876.0
 31
0.0
  0
LINE
  5
4846
  8
NAME
  6
CONTINUOUS
 10
26007.886878884321
 20
2236.0
 30
0.0
 11
26327.886878884321
 21
2236.0
 31
0.0
  0
LINE
  5
4847
  8
NAME
  6
CONTINUOUS
 10
26327.886878884321
 20
1876.0
 30
0.0
 11
26007.886878884321
 21
1876.0
 31
0.0
  0
LINE
  5
48A1
  8
2-0
  6
CONTINUOUS
 62
     3
 10
22952.67585999997
 20
17019.819150499989
 30
0.0
 11
23037.676387999971
 21
17019.819150499989
 31
0.0
  0
LINE
  5
48A2
  8
2-0
  6
CONTINUOUS
 62
     3
 10
23037.676387999971
 20
17104.813739499969
 30
0.0
 11
22952.67585999997
 21
17104.813739499969
 31
0.0
  0
LINE
  5
48A4
  8
2-0
  6
CONTINUOUS
 62
     3
 10
23037.676387999971
 20
17019.819150499989
 30
0.0
 11
23037.676387999971
 21
17104.813739499969
 31
0.0
  0
LINE
  5
48A5
  8
2-0
  6
CONTINUOUS
 62
     6
 10
24515.756446286461
 20
16267.71630149999
 30
0.0
 11
23485.407127286478
 21
16267.71630149999
 31
0.0
  0
LINE
  5
48A6
  8
2-0
  6
CONTINUOUS
 62
     6
 10
23034.109294999998
 20
17010.678511999999
 30
0.0
 11
23485.407127286478
 21
16267.71630149999
 31
0.0
  0
LINE
  5
48A7
  8
2-0
  6
CONTINUOUS
 62
     6
 10
23094.387614999989
 20
16860.082677000009
 30
0.0
 11
23034.109294999998
 21
17010.678511999999
 31
0.0
  0
LINE
  5
48A8
  8
2-0
  6
CONTINUOUS
 62
     6
 10
23034.109294999998
 20
17010.678511999999
 30
0.0
 11
23139.968010000001
 21
16887.770203999971
 31
0.0
  0
LINE
  5
48A9
  8
2-0
  6
CONTINUOUS
 62
     6
 10
23094.387614999989
 20
16860.082677000009
 30
0.0
 11
23139.968010000001
 21
16887.770203999971
 31
0.0
  0
LINE
  5
48AA
  8
2-0
  6
CONTINUOUS
 62
     6
 10
23139.968010000001
 20
16887.770203999971
 30
0.0
 11
23034.109294999998
 21
17010.678511999999
 31
0.0
  0
LINE
  5
48AB
  8
2-0
  6
CONTINUOUS
 62
     6
 10
23034.109294999998
 20
17010.678511999999
 30
0.0
 11
23094.387614999989
 21
16860.082677000009
 31
0.0
  0
LINE
  5
48AC
  8
2-0
  6
CONTINUOUS
 62
     6
 10
23094.387614999989
 20
16860.082677000009
 30
0.0
 11
23034.109294999998
 21
17010.678511999999
 31
0.0
  0
LINE
  5
48AD
  8
2-0
  6
CONTINUOUS
 62
     6
 10
23139.968010000001
 20
16887.770203999971
 30
0.0
 11
23034.109294999998
 21
17010.678511999999
 31
0.0
  0
LINE
  5
48AE
  8
2-0
  6
CONTINUOUS
 62
     6
 10
23139.968010000001
 20
16887.770203999971
 30
0.0
 11
23094.387614999989
 21
16860.082677000009
 31
0.0
  0
TEXT
  5
48AF
  8
2-0
  6
CONTINUOUS
 62
     7
 10
23548.722354619818
 20
16340.716988499969
 30
0.0
 40
160.0
  1
中柱（中）
 72
     4
 11
23970.05568795315
 21
16420.716988499971
 31
0.0
  0
LINE
  5
48B4
  8
2-0
  6
CONTINUOUS
 62
     3
 10
22952.67585999997
 20
17019.819150499989
 30
0.0
 11
22952.67585999997
 21
17104.813739499969
 31
0.0
  0
TEXT
  5
490A
  8
FILENAME
  6
CONTINUOUS
 10
28737.333333333339
 20
348.0
 30
0.0
 40
200.0
  1
＜VGC-3359-N-A_0.DXF ＞
  7
FILENAME
 72
     2
 11
32764.0
 21
348.0
 31
0.0
  0
LINE
  5
4910
  8
WAKUSEN-01
 10
868.00000000000193
 20
827.99999999999955
 30
0.0
 11
32764.000000000011
 21
827.99999999999943
 31
0.0
  0
LINE
  5
4911
  8
WAKUSEN-01
 10
868.00000000000193
 20
827.99999999999955
 30
0.0
 11
868.00000000000193
 21
22484.000000000011
 31
0.0
  0
LINE
  5
4912
  8
WAKUSEN-01
 10
32764.000000000011
 20
827.99999999999943
 30
0.0
 11
32764.000000000011
 21
22484.000000000011
 31
0.0
  0
LINE
  5
4913
  8
WAKUSEN-01
 10
20560.0
 20
827.99999999999716
 30
0.0
 11
20560.0
 21
2484.0
 31
0.0
  0
LINE
  5
4914
  8
WAKUSEN-02
 10
26868.0
 20
827.99999999999261
 30
0.0
 11
26868.0
 21
2484.0
 31
0.0
  0
ENDSEC
  0
EOF
