  0
SECTION
  2
HEADER
  9
$ACADVER
  1
AC1009
  9
$INSBASE
 10
0.0
 20
0.0
 30
0.0
  9
$EXTMIN
 10
867.99324330406671
 20
327.38164749855792
 30
-0.0000000000000053
  9
$EXTMAX
 10
32765.33210850941
 20
22484.553276491992
 30
0.0000000000000099
  9
$LIMMIN
 10
0.0
 20
0.0
  9
$LIMMAX
 10
33600.0
 20
23760.0
  9
$ORTHOMODE
 70
     1
  9
$REGENMODE
 70
     1
  9
$FILLMODE
 70
     1
  9
$QTEXTMODE
 70
     0
  9
$MIRRTEXT
 70
     1
  9
$DRAGMODE
 70
     2
  9
$LTSCALE
 40
80.0
  9
$OSMODE
 70
  3071
  9
$ATTMODE
 70
     1
  9
$TEXTSIZE
 40
0.2
  9
$TRACEWID
 40
0.05
  9
$TEXTSTYLE
  7
00
  9
$CLAYER
  8
0
  9
$CELTYPE
  6
BYLAYER
  9
$CECOLOR
 62
   256
  9
$DIMSCALE
 40
80.0
  9
$DIMASZ
 40
3.0
  9
$DIMEXO
 40
1.0
  9
$DIMDLI
 40
0.38
  9
$DIMRND
 40
0.5
  9
$DIMDLE
 40
0.0
  9
$DIMEXE
 40
1.0
  9
$DIMTP
 40
0.0
  9
$DIMTM
 40
0.0
  9
$DIMTXT
 40
2.0
  9
$DIMCEN
 40
0.09
  9
$DIMTSZ
 40
0.0
  9
$DIMTOL
 70
     0
  9
$DIMLIM
 70
     0
  9
$DIMTIH
 70
     0
  9
$DIMTOH
 70
     0
  9
$DIMSE1
 70
     0
  9
$DIMSE2
 70
     0
  9
$DIMTAD
 70
     1
  9
$DIMZIN
 70
     8
  9
$DIMBLK
  1
DOTSMALL
  9
$DIMASO
 70
     1
  9
$DIMSHO
 70
     1
  9
$DIMPOST
  1

  9
$DIMAPOST
  1

  9
$DIMALT
 70
     0
  9
$DIMALTD
 70
     2
  9
$DIMALTF
 40
25.399999999999999
  9
$DIMLFAC
 40
1.0
  9
$DIMTOFL
 70
     1
  9
$DIMTVP
 40
0.0
  9
$DIMTIX
 70
     0
  9
$DIMSOXD
 70
     0
  9
$DIMSAH
 70
     0
  9
$DIMBLK1
  1

  9
$DIMBLK2
  1

  9
$DIMSTYLE
  2
SUNPOU
  9
$DIMCLRD
 70
     4
  9
$DIMCLRE
 70
     4
  9
$DIMCLRT
 70
     7
  9
$DIMTFAC
 40
1.0
  9
$DIMGAP
 40
1.0
  9
$LUNITS
 70
     2
  9
$LUPREC
 70
     4
  9
$SKETCHINC
 40
0.1
  9
$FILLETRAD
 40
0.0
  9
$AUNITS
 70
     0
  9
$AUPREC
 70
     0
  9
$MENU
  1
acad
  9
$ELEVATION
 40
0.0
  9
$PELEVATION
 40
0.0
  9
$THICKNESS
 40
0.0
  9
$LIMCHECK
 70
     0
  9
$BLIPMODE
 70
     1
  9
$CHAMFERA
 40
0.0
  9
$CHAMFERB
 40
0.0
  9
$SKPOLY
 70
     0
  9
$TDCREATE
 40
2454568.9039380788
  9
$TDUPDATE
 40
2458942.4294967358
  9
$TDINDWG
 40
0.0513052315
  9
$TDUSRTIMER
 40
0.0513039699
  9
$USRTIMER
 70
     1
  9
$ANGBASE
 50
0.0
  9
$ANGDIR
 70
     0
  9
$PDMODE
 70
     0
  9
$PDSIZE
 40
0.0
  9
$PLINEWID
 40
0.0
  9
$COORDS
 70
     1
  9
$SPLFRAME
 70
     0
  9
$SPLINETYPE
 70
     6
  9
$SPLINESEGS
 70
     8
  9
$ATTDIA
 70
     1
  9
$ATTREQ
 70
     1
  9
$HANDLING
 70
     1
  9
$HANDSEED
  5
38C8
  9
$SURFTAB1
 70
     6
  9
$SURFTAB2
 70
     6
  9
$SURFTYPE
 70
     6
  9
$SURFU
 70
     6
  9
$SURFV
 70
     6
  9
$UCSNAME
  2

  9
$UCSORG
 10
0.0
 20
0.0
 30
0.0
  9
$UCSXDIR
 10
1.0
 20
0.0
 30
0.0
  9
$UCSYDIR
 10
0.0
 20
1.0
 30
0.0
  9
$PUCSNAME
  2

  9
$PUCSORG
 10
0.0
 20
0.0
 30
0.0
  9
$PUCSXDIR
 10
1.0
 20
0.0
 30
0.0
  9
$PUCSYDIR
 10
0.0
 20
1.0
 30
0.0
  9
$USERI1
 70
     0
  9
$USERI2
 70
     0
  9
$USERI3
 70
     0
  9
$USERI4
 70
     0
  9
$USERI5
 70
     0
  9
$USERR1
 40
0.0
  9
$USERR2
 40
0.0
  9
$USERR3
 40
0.0
  9
$USERR4
 40
0.0
  9
$USERR5
 40
0.0
  9
$WORLDVIEW
 70
     1
  9
$SHADEDGE
 70
     3
  9
$SHADEDIF
 70
    70
  9
$TILEMODE
 70
     1
  9
$MAXACTVP
 70
    16
  9
$PLIMCHECK
 70
     0
  9
$PEXTMIN
 10
1.0000000000000000E+020
 20
1.0000000000000000E+020
 30
1.0000000000000000E+020
  9
$PEXTMAX
 10
-1.0000000000000000E+020
 20
-1.0000000000000000E+020
 30
-1.0000000000000000E+020
  9
$PLIMMIN
 10
0.0
 20
0.0
  9
$PLIMMAX
 10
12.0
 20
9.0
  9
$UNITMODE
 70
     0
  9
$VISRETAIN
 70
     0
  9
$PLINEGEN
 70
     1
  9
$PSLTSCALE
 70
     0
  0
ENDSEC
  0
SECTION
  2
TABLES
  0
TABLE
  2
VPORT
 70
     1
  0
VPORT
  2
*ACTIVE
 70
     0
 10
0.0
 20
0.0
 11
1.0
 21
1.0
 12
16800.0
 22
11880.0
 13
0.0
 23
0.0
 14
1.0
 24
1.0
 15
0.0
 25
0.0
 16
0.0
 26
0.0
 36
1.0
 17
0.0
 27
0.0
 37
0.0
 40
23981.023255813951
 41
2.195652173913043
 42
50.0
 43
0.0
 44
0.0
 50
0.0
 51
0.0
 71
     0
 72
 10000
 73
     1
 74
     1
 75
     0
 76
     0
 77
     0
 78
     0
  0
ENDTAB
  0
TABLE
  2
LTYPE
 70
     3
  0
LTYPE
  2
CONTINUOUS
 70
     0
  3
Solid line
 72
    65
 73
     0
 40
0.0
  0
LTYPE
  2
DASHED3
 70
     0
  3
------  ------  ------  ------  
 72
    65
 73
     2
 40
5.0
 49
3.75
 49
-1.25
  0
LTYPE
  2
CENTER2
 70
     0
  3
----------  --  ----------  --  
 72
    65
 73
     4
 40
20.0
 49
12.5
 49
-2.5
 49
2.5
 49
-2.5
  0
ENDTAB
  0
TABLE
  2
LAYER
 70
    16
  0
LAYER
  2
0
 70
     0
 62
     7
  6
CONTINUOUS
  0
LAYER
  2
SUNPOU
 70
     0
 62
     4
  6
CONTINUOUS
  0
LAYER
  2
0-1
 70
     0
 62
     7
  6
CONTINUOUS
  0
LAYER
  2
0-2
 70
     0
 62
     7
  6
CONTINUOUS
  0
LAYER
  2
0-5
 70
     0
 62
     7
  6
CONTINUOUS
  0
LAYER
  2
0-6
 70
     0
 62
     7
  6
CONTINUOUS
  0
LAYER
  2
2-0
 70
     0
 62
     7
  6
CONTINUOUS
  0
LAYER
  2
YODOROGO
 70
     0
 62
   130
  6
CONTINUOUS
  0
LAYER
  2
WAKUSEN-01
 70
     0
 62
    50
  6
CONTINUOUS
  0
LAYER
  2
WAKUSEN-02
 70
     0
 62
   130
  6
CONTINUOUS
  0
LAYER
  2
WAKUMOJI-01
 70
     0
 62
   130
  6
CONTINUOUS
  0
LAYER
  2
FILENAME
 70
     0
 62
     7
  6
CONTINUOUS
  0
LAYER
  2
NAME
 70
     0
 62
    20
  6
CONTINUOUS
  0
LAYER
  2
0-4
 70
     0
 62
     7
  6
CONTINUOUS
  0
ENDTAB
  0
TABLE
  2
STYLE
 70
     5
  0
STYLE
  2
STANDARD
 70
     0
 40
0.0
 41
1.0
 50
0.0
 71
     0
 42
0.0
  3
txt
  4
BIGFONT
  0
STYLE
  2
00
 70
     0
 40
0.0
 41
0.6666666666666666
 50
0.0
 71
     0
 42
0.2
  3
ROMANS
  4
BIGFONT
  0
STYLE
  2
01
 70
     0
 40
3.0
 41
1.0
 50
0.0
 71
     0
 42
0.2
  3
ROMANS
  4
BIGFONT
  0
STYLE
  2
WAKUMOJI
 70
     0
 40
3.0
 41
1.0
 50
0.0
 71
     0
 42
3.0
  3
SIMPLEX
  4
BIGFONT
  0
STYLE
  2
FILENAME
 70
     0
 40
200.0
 41
1.0
 50
0.0
 71
     0
 42
200.0
  3
romans
  4
bigfont
  0
ENDTAB
  0
TABLE
  2
VIEW
 70
     0
  0
ENDTAB
  0
TABLE
  2
UCS
 70
     0
  0
ENDTAB
  0
TABLE
  2
APPID
 70
    13
  0
APPID
  2
ACAD
 70
     0
  0
APPID
  2
ACADANNOTATIVE
 70
     0
  0
APPID
  2
ACAD_PSEXT
 70
     0
  0
APPID
  2
DCO15
 70
     0
  0
APPID
  2
AUTOCAD_POSTSCRIPT_FIGURE
 70
     0
  0
APPID
  2
ACAD_EXEMPT_FROM_CAD_STANDARDS
 70
     0
  0
APPID
  2
ACAD_MLEADERVER
 70
     0
  0
APPID
  2
ACAD_DSTYLE_DIMJAG
 70
     0
  0
APPID
  2
ACAD_DSTYLE_DIMTALN
 70
     0
  0
APPID
  2
ACAD_DSTYLE_DIM_LINETYPE
 70
     0
  0
APPID
  2
ACAD_DSTYLE_DIM_EXT1_LINETYPE
 70
     0
  0
APPID
  2
ACAD_DSTYLE_DIM_EXT2_LINETYPE
 70
     0
  0
APPID
  2
ACAD_NAV_VCDISPLAY
 70
     0
  0
ENDTAB
  0
TABLE
  2
DIMSTYLE
 70
     2
  0
DIMSTYLE
  2
SUNPOU
 70
     0
  3

  4

  5

  6

  7

 40
80.0
 41
3.0
 42
1.0
 43
0.38
 44
1.0
 45
0.5
 46
0.0
 47
0.0
 48
0.0
140
2.0
141
0.09
142
0.0
143
25.399999999999999
144
1.0
145
0.0
146
1.0
147
1.0
 71
     0
 72
     0
 73
     0
 74
     0
 75
     0
 76
     0
 77
     1
 78
     8
170
     0
171
     2
172
     1
173
     0
174
     0
175
     0
176
     4
177
     4
178
     7
  0
ENDTAB
  0
ENDSEC
  0
SECTION
  2
BLOCKS
  0
BLOCK
  8
0
  2
$MODEL_SPACE
 70
     0
 10
0.0
 20
0.0
 30
0.0
  3
$MODEL_SPACE
  1

  0
ENDBLK
  5
2D33
  8
0
  0
BLOCK
 67
     1
  8
0
  2
$PAPER_SPACE
 70
     0
 10
0.0
 20
0.0
 30
0.0
  3
$PAPER_SPACE
  1

  0
ENDBLK
  5
2D2F
 67
     1
  8
0
  0
BLOCK
  8
0
  2
_DOTSMALL
 70
     0
 10
0.0
 20
0.0
 30
0.0
  3
_DOTSMALL
  1

  0
POLYLINE
  5
2D61
  8
0
  6
BYBLOCK
 62
     0
 66
     1
 10
0.0
 20
0.0
 30
0.0
 70
     1
 40
0.5
 41
0.5
  0
VERTEX
  5
3890
  8
0
  6
BYBLOCK
 62
     0
 10
-0.0625
 20
0.0
 30
0.0
 42
1.0
  0
VERTEX
  5
3891
  8
0
  6
BYBLOCK
 62
     0
 10
0.0625
 20
0.0
 30
0.0
 42
1.0
  0
SEQEND
  5
3892
  8
0
  6
BYBLOCK
 62
     0
  0
ENDBLK
  5
2D65
  8
0
  0
ENDSEC
  0
SECTION
  2
ENTITIES
  0
LINE
  5
2D66
  8
0-1
  6
CONTINUOUS
 62
     3
 10
11506.347129
 20
18946.468725999999
 30
0.0
 11
11506.347129
 21
19832.988205000001
 31
0.0
  0
LINE
  5
2D67
  8
0-1
  6
CONTINUOUS
 62
     3
 10
11469.346956999991
 20
18979.643477999991
 30
0.0
 11
11469.346956999991
 21
19832.988205000001
 31
0.0
  0
LINE
  5
2D68
  8
0-1
  6
CONTINUOUS
 62
     3
 10
10958.84792
 20
16784.486463000001
 30
0.0
 11
13740.504051999989
 21
16784.486463000001
 31
0.0
  0
LINE
  5
2D69
  8
0-1
  6
CONTINUOUS
 62
     3
 10
14177.34928
 20
13671.985896
 30
0.0
 11
14177.34928
 21
19832.988205000001
 31
0.0
  0
LINE
  5
2D6A
  8
0-1
  6
CONTINUOUS
 62
     3
 10
11008.846561
 20
13671.985896
 30
0.0
 11
11008.846561
 21
19832.988205000001
 31
0.0
  0
LINE
  5
2D6B
  8
0-1
  6
CONTINUOUS
 62
     3
 10
10873.347524000001
 20
13639.984999
 30
0.0
 11
10873.347524000001
 21
19880.987571000001
 31
0.0
  0
LINE
  5
2D6C
  8
0-1
  6
CONTINUOUS
 62
     3
 10
14312.848316
 20
13639.984999
 30
0.0
 11
14312.848316
 21
19880.987571000001
 31
0.0
  0
LINE
  5
2D6D
  8
0-1
  6
CONTINUOUS
 62
     3
 10
11067.346324
 20
19340.074220999992
 30
0.0
 11
11067.346324
 21
19832.988205000001
 31
0.0
  0
LINE
  5
2D6E
  8
0-1
  6
CONTINUOUS
 62
     3
 10
11104.34550499999
 20
19306.89947
 30
0.0
 11
11104.34550499999
 21
19832.988205000001
 31
0.0
  0
LINE
  5
2D6F
  8
0-1
  6
CONTINUOUS
 62
     3
 10
11267.34698299999
 20
19160.755571999991
 30
0.0
 11
11267.34698299999
 21
19832.988205000001
 31
0.0
  0
LINE
  5
2D70
  8
0-1
  6
CONTINUOUS
 62
     3
 10
11304.347154999999
 20
19127.578839999991
 30
0.0
 11
11304.347154999999
 21
19832.988205000001
 31
0.0
  0
LINE
  5
2D71
  8
0-1
  6
CONTINUOUS
 62
     3
 10
11669.346627000001
 20
18800.324828000001
 30
0.0
 11
11669.346627000001
 21
19832.988205000001
 31
0.0
  0
LINE
  5
2D72
  8
0-1
  6
CONTINUOUS
 62
     3
 10
11706.34778799999
 20
18767.152055999992
 30
0.0
 11
11706.34778799999
 21
19832.988205000001
 31
0.0
  0
LINE
  5
2D73
  8
0-1
  6
CONTINUOUS
 62
     3
 10
11869.346297
 20
18621.010137999991
 30
0.0
 11
11869.346297
 21
19832.988205000001
 31
0.0
  0
LINE
  5
2D74
  8
0-1
  6
CONTINUOUS
 62
     3
 10
11906.345479
 20
18587.837364999981
 30
0.0
 11
11906.345479
 21
19832.988205000001
 31
0.0
  0
LINE
  5
2D75
  8
0-1
  6
CONTINUOUS
 62
     3
 10
10946.847049
 20
19880.987571000001
 30
0.0
 11
14239.348791
 21
19880.987571000001
 31
0.0
  0
LINE
  5
2D76
  8
0-1
  6
CONTINUOUS
 62
     3
 10
12294.582519999991
 20
18239.746940999979
 30
0.0
 11
12472.781752000001
 21
18415.090716999988
 31
0.0
  0
LINE
  5
2D77
  8
0-1
  6
CONTINUOUS
 62
     3
 10
12817.761362999991
 20
17351.610196000001
 30
0.0
 11
12995.96059499999
 21
17526.957931000001
 31
0.0
  0
LINE
  5
2D78
  8
0-1
  6
CONTINUOUS
 62
     3
 10
12817.761362999991
 20
17351.610196000001
 30
0.0
 11
12472.781752000001
 21
18415.090716999988
 31
0.0
  0
LINE
  5
2D79
  8
0-1
  6
CONTINUOUS
 62
     3
 10
10958.84792
 20
16705.489815000001
 30
0.0
 11
13820.80817199999
 21
16705.489815000001
 31
0.0
  0
LINE
  5
2D7A
  8
0-1
  6
CONTINUOUS
 62
     3
 10
10916.347656
 20
13795.985909000001
 30
0.0
 11
14269.849174000001
 21
13795.985909000001
 31
0.0
  0
LINE
  5
2D7B
  8
0-1
  6
CONTINUOUS
 62
     3
 10
10958.84792
 20
13874.98552599998
 30
0.0
 11
14227.347919999989
 21
13874.98552599998
 31
0.0
  0
LINE
  5
2D7C
  8
0-1
  6
CONTINUOUS
 62
     3
 10
10873.347524000001
 20
13639.984999
 30
0.0
 11
14312.848316
 21
13639.984999
 31
0.0
  0
LINE
  5
2D7D
  8
0-1
  6
CONTINUOUS
 62
     3
 10
10873.347524000001
 20
13671.985896
 30
0.0
 11
14312.848316
 21
13671.985896
 31
0.0
  0
LINE
  5
2D7E
  8
0-1
  6
CONTINUOUS
 62
     3
 10
14227.347919999989
 20
13795.985909000001
 30
0.0
 11
14227.347919999989
 21
16315.87206
 31
0.0
  0
LINE
  5
2D7F
  8
0-1
  6
CONTINUOUS
 62
     3
 10
14269.849174000001
 20
13795.985909000001
 30
0.0
 11
14269.849174000001
 21
16274.05967899998
 31
0.0
  0
LINE
  5
2D80
  8
0-1
  6
CONTINUOUS
 62
     3
 10
14606.85033499999
 20
15942.528916999991
 30
0.0
 11
12995.96059499999
 21
17526.957931000001
 31
0.0
  0
LINE
  5
2D81
  8
0-1
  6
CONTINUOUS
 62
     3
 10
12294.582519999991
 20
18239.746940999979
 30
0.0
 11
10579.346494999991
 21
19777.605233999991
 31
0.0
  0
LINE
  5
2D82
  8
0-1
  6
CONTINUOUS
 62
     3
 10
10958.84792
 20
13795.985909000001
 30
0.0
 11
10958.84792
 21
19437.349743999981
 31
0.0
  0
LINE
  5
2D83
  8
0-1
  6
CONTINUOUS
 62
     3
 10
10916.347656
 20
13795.985909000001
 30
0.0
 11
10916.347656
 21
19475.455476999981
 31
0.0
  0
LINE
  5
2D84
  8
0-1
  6
CONTINUOUS
 62
     3
 10
12069.346957
 20
18441.691488
 30
0.0
 11
12069.346957
 21
19832.988205000001
 31
0.0
  0
LINE
  5
2D85
  8
0-1
  6
CONTINUOUS
 62
     3
 10
12106.347129
 20
18408.514757000001
 30
0.0
 11
12106.347129
 21
19832.988205000001
 31
0.0
  0
LINE
  5
2D86
  8
0-1
  6
CONTINUOUS
 62
     3
 10
12269.346627000001
 20
18262.374817999989
 30
0.0
 11
12269.346627000001
 21
19832.988205000001
 31
0.0
  0
LINE
  5
2D87
  8
0-1
  6
CONTINUOUS
 62
     3
 10
12669.346957
 20
17809.138305
 30
0.0
 11
12669.346957
 21
19832.988205000001
 31
0.0
  0
LINE
  5
2D88
  8
0-1
  6
CONTINUOUS
 62
     3
 10
12706.347128999991
 20
17695.078443999992
 30
0.0
 11
12706.347128999991
 21
19832.988205000001
 31
0.0
  0
LINE
  5
2D89
  8
0-1
  6
CONTINUOUS
 62
     3
 10
12869.34662699999
 20
17402.369010999999
 30
0.0
 11
12869.34662699999
 21
19832.988205000001
 31
0.0
  0
LINE
  5
2D8A
  8
0-1
  6
CONTINUOUS
 62
     3
 10
12906.34778799999
 20
17438.776317
 30
0.0
 11
12906.34778799999
 21
19832.988205000001
 31
0.0
  0
LINE
  5
2D8B
  8
0-1
  6
CONTINUOUS
 62
     3
 10
13069.34629699998
 20
17454.758949999999
 30
0.0
 11
13069.34629699998
 21
19832.988205000001
 31
0.0
  0
LINE
  5
2D8C
  8
0-1
  6
CONTINUOUS
 62
     3
 10
13106.346469
 20
17418.361541999999
 30
0.0
 11
13106.346469
 21
19832.988205000001
 31
0.0
  0
LINE
  5
2D8D
  8
0-1
  6
CONTINUOUS
 62
     3
 10
13269.347947
 20
17258.002721000001
 30
0.0
 11
13269.347947
 21
19832.988205000001
 31
0.0
  0
LINE
  5
2D8E
  8
0-1
  6
CONTINUOUS
 62
     3
 10
13306.347128999991
 20
17221.605313
 30
0.0
 11
13306.347128999991
 21
19832.988205000001
 31
0.0
  0
LINE
  5
2D8F
  8
0-1
  6
CONTINUOUS
 62
     3
 10
13469.345637
 20
17051.246386999999
 30
0.0
 11
13469.345637
 21
19832.988205000001
 31
0.0
  0
LINE
  5
2D90
  8
0-1
  6
CONTINUOUS
 62
     3
 10
13506.34778799999
 20
17014.848978999991
 30
0.0
 11
13506.34778799999
 21
19832.988205000001
 31
0.0
  0
LINE
  5
2D91
  8
0-1
  6
CONTINUOUS
 62
     3
 10
13669.34629699998
 20
16854.490157999971
 30
0.0
 11
13669.34629699998
 21
19832.988205000001
 31
0.0
  0
LINE
  5
2D92
  8
0-1
  6
CONTINUOUS
 62
     3
 10
13706.34646899998
 20
16818.090770999999
 30
0.0
 11
13706.34646899998
 21
19832.988205000001
 31
0.0
  0
LINE
  5
2D93
  8
0-1
  6
CONTINUOUS
 62
     3
 10
13869.347947
 20
16657.733929999991
 30
0.0
 11
13869.347947
 21
19832.988205000001
 31
0.0
  0
LINE
  5
2D94
  8
0-1
  6
CONTINUOUS
 62
     3
 10
13906.347129
 20
16621.33454199999
 30
0.0
 11
13906.347129
 21
19832.988205000001
 31
0.0
  0
LINE
  5
2D95
  8
0-1
  6
CONTINUOUS
 62
     3
 10
14079.84805199999
 20
16460.98264899999
 30
0.0
 11
14079.84805199999
 21
19832.988205000001
 31
0.0
  0
LINE
  5
2D96
  8
0-1
  6
CONTINUOUS
 62
     3
 10
14116.84921399998
 20
16424.579302999991
 30
0.0
 11
14116.84921399998
 21
19832.988205000001
 31
0.0
  0
LINE
  5
2D97
  8
0-1
  6
CONTINUOUS
 62
     3
 10
12306.347787999999
 20
18251.321186000001
 30
0.0
 11
12306.347787999999
 21
19832.988205000001
 31
0.0
  0
LINE
  5
2D98
  8
0-1
  6
CONTINUOUS
 62
     3
 10
12469.34629699998
 20
18411.715637999991
 30
0.0
 11
12469.34629699998
 21
19832.988205000001
 31
0.0
  0
LINE
  5
2D99
  8
0-1
  6
CONTINUOUS
 62
     3
 10
12506.345479
 20
18311.617321999991
 30
0.0
 11
12506.345479
 21
19832.988205000001
 31
0.0
  0
LINE
  5
2D9A
  8
0-1
  6
CONTINUOUS
 62
     3
 10
11028.847656
 20
16750.486251999992
 30
0.0
 11
14157.348183999989
 21
13832.486252000001
 31
0.0
  0
LINE
  5
2D9B
  8
0-1
  6
CONTINUOUS
 62
     3
 10
11028.847656
 20
16750.486251999992
 30
0.0
 11
12549.465332
 21
18178.694629000001
 31
0.0
  0
LINE
  5
2D9C
  8
0-1
  6
CONTINUOUS
 62
     3
 10
12516.16883999998
 20
18281.338606000001
 30
0.0
 11
12424.109349
 21
18367.198244999989
 31
0.0
  0
LINE
  5
2D9D
  8
0-1
  6
CONTINUOUS
 62
     3
 10
10891.34629699998
 20
19495.179400000001
 30
0.0
 11
10891.34629699998
 21
19873.489154999988
 31
0.0
  0
LINE
  5
2D9E
  8
0-1
  6
CONTINUOUS
 62
     3
 10
10891.34629699998
 20
19832.988205000001
 30
0.0
 11
14294.84954399999
 21
19832.988205000001
 31
0.0
  0
LINE
  5
2D9F
  8
0-1
  6
CONTINUOUS
 62
     3
 10
10946.847049
 20
19855.988230999999
 30
0.0
 11
10946.847049
 21
19885.987835
 31
0.0
  0
LINE
  5
2DA0
  8
0-1
  6
CONTINUOUS
 62
     3
 10
10873.347524000001
 20
19885.987835
 30
0.0
 11
10873.347524000001
 21
19850.985988
 31
0.0
  0
LINE
  5
2DA1
  8
0-1
  6
CONTINUOUS
 62
     3
 10
10941.846784999991
 20
19890.988098999991
 30
0.0
 11
10878.34778799999
 21
19890.988098999991
 31
0.0
  0
LINE
  5
2DA2
  8
0-1
  6
CONTINUOUS
 62
     3
 10
10891.34629699998
 20
19873.489154999988
 30
0.0
 11
10873.347524000001
 21
19873.489154999988
 31
0.0
  0
LINE
  5
2DA3
  8
0-1
  6
CONTINUOUS
 62
     3
 10
10891.34629699998
 20
19850.985988
 30
0.0
 11
10941.846784999991
 21
19850.985988
 31
0.0
  0
LINE
  5
2DA4
  8
0-1
  6
CONTINUOUS
 62
     3
 10
14294.84954399999
 20
16252.42057199999
 30
0.0
 11
14294.84954399999
 21
19873.489154999988
 31
0.0
  0
LINE
  5
2DA5
  8
0-1
  6
CONTINUOUS
 62
     3
 10
14294.84954399999
 20
19873.489154999988
 30
0.0
 11
14312.848316
 21
19873.489154999988
 31
0.0
  0
LINE
  5
2DA6
  8
0-1
  6
CONTINUOUS
 62
     3
 10
14239.348791
 20
19855.988230999999
 30
0.0
 11
14239.348791
 21
19885.987835
 31
0.0
  0
LINE
  5
2DA7
  8
0-1
  6
CONTINUOUS
 62
     3
 10
14294.84954399999
 20
19850.985988
 30
0.0
 11
14244.350044999999
 21
19850.985988
 31
0.0
  0
LINE
  5
2DA8
  8
0-1
  6
CONTINUOUS
 62
     3
 10
14312.848316
 20
19885.987835
 30
0.0
 11
14312.848316
 21
19850.985988
 31
0.0
  0
LINE
  5
2DA9
  8
0-1
  6
CONTINUOUS
 62
     3
 10
14244.350044999999
 20
19890.988098999991
 30
0.0
 11
14307.848051999999
 21
19890.988098999991
 31
0.0
  0
LINE
  5
2DAA
  8
0-1
  6
CONTINUOUS
 62
     3
 10
13955.996424000001
 20
16572.49189999999
 30
0.0
 11
11028.847656
 21
13832.486252000001
 31
0.0
  0
LINE
  5
2DAB
  8
0-6
  6
CONTINUOUS
 62
     6
 10
12789.129606
 20
16938.31881099999
 30
0.0
 11
12727.982276999999
 21
17110.087154000001
 31
0.0
  0
LINE
  5
2DAC
  8
0-6
  6
CONTINUOUS
 62
     6
 10
12544.735273
 20
19608.714687999989
 30
0.0
 11
12688.63637599998
 21
20120.988362999979
 31
0.0
  0
LINE
  5
2DAD
  8
0-6
  6
CONTINUOUS
 62
     6
 10
12131.58796999999
 20
19714.488283999981
 30
0.0
 11
11837.66014299999
 21
20120.988362999979
 31
0.0
  0
LINE
  5
2DAE
  8
0-6
  6
CONTINUOUS
 62
     6
 10
12688.63637599998
 20
20120.988362999979
 30
0.0
 11
13240.444006
 21
20120.988362999979
 31
0.0
  0
LINE
  5
2DAF
  8
0-6
  6
CONTINUOUS
 62
     6
 10
12078.323083999991
 20
20010.893477999991
 30
0.0
 11
11891.666529367691
 21
20396.648180193031
 31
0.0
  0
LINE
  5
2DB0
  8
0-6
  6
CONTINUOUS
 62
     6
 10
11817.659257367681
 20
20524.833885193031
 30
0.0
 11
11599.066789
 21
20910.988495000001
 31
0.0
  0
LINE
  5
2DB1
  8
0-6
  6
CONTINUOUS
 62
     6
 10
11599.066789
 20
20910.988495000001
 30
0.0
 11
12441.503379
 21
20910.988495000001
 31
0.0
  0
LINE
  5
2DB2
  8
0-6
  6
CONTINUOUS
 62
     6
 10
11037.660472999991
 20
20120.988362999979
 30
0.0
 11
11837.66014299999
 21
20120.988362999979
 31
0.0
  0
LINE
  5
2DB3
  8
0-6
  6
CONTINUOUS
 62
     6
 10
11927.410525999991
 20
17110.087154000001
 30
0.0
 11
12727.982276999999
 21
17110.087154000001
 31
0.0
  0
LINE
  5
2DB4
  8
0-6
  6
CONTINUOUS
 62
     6
 10
11973.306653999991
 20
16088.068072
 30
0.0
 11
12184.57374399999
 21
16290.129410999991
 31
0.0
  0
LINE
  5
2DB5
  8
0-6
  6
CONTINUOUS
 62
     6
 10
12184.57374399999
 20
16290.129410999991
 30
0.0
 11
13064.571698
 21
16290.129410999991
 31
0.0
  0
LINE
  5
2DB6
  8
0-6
  6
CONTINUOUS
 62
     6
 10
11123.37362799999
 20
18548.185629
 30
0.0
 11
11643.373363999999
 21
18548.185629
 31
0.0
  0
LINE
  5
2DB7
  8
0-6
  6
CONTINUOUS
 62
     6
 10
12109.229308
 20
14026.874976999999
 30
0.0
 11
12192.115709999989
 21
14203.81424499999
 31
0.0
  0
LINE
  5
2DB8
  8
0-6
  6
CONTINUOUS
 62
     6
 10
12192.115709999989
 20
14203.81424499999
 30
0.0
 11
12992.11636899999
 21
14203.81424499999
 31
0.0
  0
LINE
  5
2DB9
  8
0-6
  6
CONTINUOUS
 62
     6
 10
13099.639859999999
 20
12839.98532899999
 30
0.0
 11
13962.219041
 21
12839.98532899999
 31
0.0
  0
LINE
  5
2DBA
  8
0-6
  6
CONTINUOUS
 62
     6
 10
12693.52776599999
 20
13503.51698799999
 30
0.0
 11
13099.639859999999
 21
12839.98532899999
 31
0.0
  0
LINE
  5
2DBB
  8
0-6
  6
CONTINUOUS
 62
     6
 10
9114.7145539999983
 20
12349.98618599998
 30
0.0
 11
10194.71316799998
 21
12349.98618599998
 31
0.0
  0
LINE
  5
2DBC
  8
0-6
  6
CONTINUOUS
 62
     6
 10
10781.45237299998
 20
14220.258105999999
 30
0.0
 11
10194.71316799998
 21
12349.98618599998
 31
0.0
  0
LINE
  5
2DBD
  8
0-6
  6
CONTINUOUS
 62
     6
 10
11024.33138499999
 20
18768.979151999989
 30
0.0
 11
11123.37362799999
 21
18548.185629
 31
0.0
  0
LINE
  5
2DBE
  8
0-6
  6
CONTINUOUS
 62
     6
 10
14420.75777299999
 20
20006.310893000002
 30
0.0
 11
15347.505028
 21
20910.988495000001
 31
0.0
  0
LINE
  5
2DBF
  8
0-6
  6
CONTINUOUS
 62
     6
 10
15347.505028
 20
20910.988495000001
 30
0.0
 11
17022.505357999991
 21
20910.988495000001
 31
0.0
  0
LINE
  5
2DC0
  8
0-6
  6
CONTINUOUS
 62
     6
 10
10806.897104999989
 20
14212.276687
 30
0.0
 11
10829.34781499999
 21
14372.92154799998
 31
0.0
  0
LINE
  5
2DC1
  8
0-6
  6
CONTINUOUS
 62
     6
 10
10829.34781499999
 20
14372.92154799998
 30
0.0
 11
10756.00962099999
 21
14228.23952499999
 31
0.0
  0
LINE
  5
2DC2
  8
0-6
  6
CONTINUOUS
 62
     6
 10
10829.34781499999
 20
14372.92154799998
 30
0.0
 11
10806.897104999989
 21
14212.276687
 31
0.0
  0
LINE
  5
2DC3
  8
0-6
  6
CONTINUOUS
 62
     6
 10
10806.897104999989
 20
14212.276687
 30
0.0
 11
10756.00962099999
 21
14228.23952499999
 31
0.0
  0
LINE
  5
2DC4
  8
0-6
  6
CONTINUOUS
 62
     6
 10
10756.00962099999
 20
14228.23952499999
 30
0.0
 11
10829.34781499999
 21
14372.92154799998
 31
0.0
  0
LINE
  5
2DC5
  8
0-6
  6
CONTINUOUS
 62
     6
 10
10756.00962099999
 20
14228.23952499999
 30
0.0
 11
10806.897104999989
 21
14212.276687
 31
0.0
  0
LINE
  5
2DC6
  8
0-6
  6
CONTINUOUS
 62
     6
 10
12085.081159999991
 20
14038.188915000001
 30
0.0
 11
12041.35557499999
 21
13881.986093999991
 31
0.0
  0
LINE
  5
2DC7
  8
0-6
  6
CONTINUOUS
 62
     6
 10
12041.35557499999
 20
13881.986093999991
 30
0.0
 11
12133.377455
 21
14015.563018000001
 31
0.0
  0
LINE
  5
2DC8
  8
0-6
  6
CONTINUOUS
 62
     6
 10
12041.35557499999
 20
13881.986093999991
 30
0.0
 11
12085.081159999991
 21
14038.188915000001
 31
0.0
  0
LINE
  5
2DC9
  8
0-6
  6
CONTINUOUS
 62
     6
 10
12085.081159999991
 20
14038.188915000001
 30
0.0
 11
12133.377455
 21
14015.563018000001
 31
0.0
  0
LINE
  5
2DCA
  8
0-6
  6
CONTINUOUS
 62
     6
 10
12133.377455
 20
14015.563018000001
 30
0.0
 11
12041.35557499999
 21
13881.986093999991
 31
0.0
  0
LINE
  5
2DCB
  8
0-6
  6
CONTINUOUS
 62
     6
 10
12133.377455
 20
14015.563018000001
 30
0.0
 11
12085.081159999991
 21
14038.188915000001
 31
0.0
  0
LINE
  5
2DCC
  8
0-6
  6
CONTINUOUS
 62
     6
 10
12716.27144499998
 20
13517.437951999989
 30
0.0
 11
12610.00099
 21
13639.984999
 31
0.0
  0
LINE
  5
2DCD
  8
0-6
  6
CONTINUOUS
 62
     6
 10
12610.00099
 20
13639.984999
 30
0.0
 11
12670.782107999999
 21
13489.59602299998
 31
0.0
  0
LINE
  5
2DCE
  8
0-6
  6
CONTINUOUS
 62
     6
 10
12610.00099
 20
13639.984999
 30
0.0
 11
12716.27144499998
 21
13517.437951999989
 31
0.0
  0
LINE
  5
2DCF
  8
0-6
  6
CONTINUOUS
 62
     6
 10
12716.27144499998
 20
13517.437951999989
 30
0.0
 11
12670.782107999999
 21
13489.59602299998
 31
0.0
  0
LINE
  5
2DD0
  8
0-6
  6
CONTINUOUS
 62
     6
 10
12670.782107999999
 20
13489.59602299998
 30
0.0
 11
12610.00099
 21
13639.984999
 31
0.0
  0
LINE
  5
2DD1
  8
0-6
  6
CONTINUOUS
 62
     6
 10
12670.782107999999
 20
13489.59602299998
 30
0.0
 11
12716.27144499998
 21
13517.437951999989
 31
0.0
  0
LINE
  5
2DD2
  8
0-6
  6
CONTINUOUS
 62
     6
 10
11954.874367
 20
16107.341655
 30
0.0
 11
11857.677035000001
 21
15977.479296999991
 31
0.0
  0
LINE
  5
2DD3
  8
0-6
  6
CONTINUOUS
 62
     6
 10
11857.677035000001
 20
15977.479296999991
 30
0.0
 11
11991.737951999999
 21
16068.798449
 31
0.0
  0
LINE
  5
2DD4
  8
0-6
  6
CONTINUOUS
 62
     6
 10
11857.677035000001
 20
15977.479296999991
 30
0.0
 11
11954.874367
 21
16107.341655
 31
0.0
  0
LINE
  5
2DD5
  8
0-6
  6
CONTINUOUS
 62
     6
 10
11954.874367
 20
16107.341655
 30
0.0
 11
11991.737951999999
 21
16068.798449
 31
0.0
  0
LINE
  5
2DD6
  8
0-6
  6
CONTINUOUS
 62
     6
 10
11991.737951999999
 20
16068.798449
 30
0.0
 11
11857.677035000001
 21
15977.479296999991
 31
0.0
  0
LINE
  5
2DD7
  8
0-6
  6
CONTINUOUS
 62
     6
 10
11991.737951999999
 20
16068.798449
 30
0.0
 11
11954.874367
 21
16107.341655
 31
0.0
  0
LINE
  5
2DD8
  8
0-6
  6
CONTINUOUS
 62
     6
 10
12814.76833099999
 20
16945.650947999991
 30
0.0
 11
12833.132324
 21
16784.486463000001
 31
0.0
  0
LINE
  5
2DD9
  8
0-6
  6
CONTINUOUS
 62
     6
 10
12833.132324
 20
16784.486463000001
 30
0.0
 11
12763.490880999991
 21
16930.982714999991
 31
0.0
  0
LINE
  5
2DDA
  8
0-6
  6
CONTINUOUS
 62
     6
 10
12833.132324
 20
16784.486463000001
 30
0.0
 11
12814.76833099999
 21
16945.650947999991
 31
0.0
  0
LINE
  5
2DDB
  8
0-6
  6
CONTINUOUS
 62
     6
 10
12814.76833099999
 20
16945.650947999991
 30
0.0
 11
12763.490880999991
 21
16930.982714999991
 31
0.0
  0
LINE
  5
2DDC
  8
0-6
  6
CONTINUOUS
 62
     6
 10
12763.490880999991
 20
16930.982714999991
 30
0.0
 11
12833.132324
 21
16784.486463000001
 31
0.0
  0
LINE
  5
2DDD
  8
0-6
  6
CONTINUOUS
 62
     6
 10
12763.490880999991
 20
16930.982714999991
 30
0.0
 11
12814.76833099999
 21
16945.650947999991
 31
0.0
  0
LINE
  5
2DDE
  8
0-6
  6
CONTINUOUS
 62
     6
 10
11048.66164799999
 20
18779.892238
 30
0.0
 11
10958.84792
 21
18914.962708999989
 31
0.0
  0
LINE
  5
2DDF
  8
0-6
  6
CONTINUOUS
 62
     6
 10
10958.84792
 20
18914.962708999989
 30
0.0
 11
11000.00211199998
 21
18758.062107000002
 31
0.0
  0
LINE
  5
2DE0
  8
0-6
  6
CONTINUOUS
 62
     6
 10
10958.84792
 20
18914.962708999989
 30
0.0
 11
11048.66164799999
 21
18779.892238
 31
0.0
  0
LINE
  5
2DE1
  8
0-6
  6
CONTINUOUS
 62
     6
 10
11048.66164799999
 20
18779.892238
 30
0.0
 11
11000.00211199998
 21
18758.062107000002
 31
0.0
  0
LINE
  5
2DE2
  8
0-6
  6
CONTINUOUS
 62
     6
 10
11000.00211199998
 20
18758.062107000002
 30
0.0
 11
10958.84792
 21
18914.962708999989
 31
0.0
  0
LINE
  5
2DE3
  8
0-6
  6
CONTINUOUS
 62
     6
 10
11000.00211199998
 20
18758.062107000002
 30
0.0
 11
11048.66164799999
 21
18779.892238
 31
0.0
  0
LINE
  5
2DE4
  8
0-6
  6
CONTINUOUS
 62
     6
 10
12518.84613899999
 20
19615.110513
 30
0.0
 11
12506.345479
 21
19453.385824000001
 31
0.0
  0
LINE
  5
2DE5
  8
0-6
  6
CONTINUOUS
 62
     6
 10
12506.345479
 20
19453.385824000001
 30
0.0
 11
12570.620446999999
 21
19602.314903999992
 31
0.0
  0
LINE
  5
2DE6
  8
0-6
  6
CONTINUOUS
 62
     6
 10
12506.345479
 20
19453.385824000001
 30
0.0
 11
12518.84613899999
 21
19615.110513
 31
0.0
  0
LINE
  5
2DE7
  8
0-6
  6
CONTINUOUS
 62
     6
 10
12518.84613899999
 20
19615.110513
 30
0.0
 11
12570.620446999999
 21
19602.314903999992
 31
0.0
  0
LINE
  5
2DE8
  8
0-6
  6
CONTINUOUS
 62
     6
 10
12570.620446999999
 20
19602.314903999992
 30
0.0
 11
12506.345479
 21
19453.385824000001
 31
0.0
  0
LINE
  5
2DE9
  8
0-6
  6
CONTINUOUS
 62
     6
 10
12570.620446999999
 20
19602.314903999992
 30
0.0
 11
12518.84613899999
 21
19615.110513
 31
0.0
  0
LINE
  5
2DEA
  8
0-6
  6
CONTINUOUS
 62
     6
 10
12056.672099999991
 20
19998.39479799999
 30
0.0
 11
12153.323084
 21
19880.987571000001
 31
0.0
  0
LINE
  5
2DEB
  8
0-6
  6
CONTINUOUS
 62
     6
 10
12153.323084
 20
19880.987571000001
 30
0.0
 11
12099.972089000001
 21
20023.392158999992
 31
0.0
  0
LINE
  5
2DEC
  8
0-6
  6
CONTINUOUS
 62
     6
 10
12153.323084
 20
19880.987571000001
 30
0.0
 11
12056.672099999991
 21
19998.39479799999
 31
0.0
  0
LINE
  5
2DED
  8
0-6
  6
CONTINUOUS
 62
     6
 10
12056.672099999991
 20
19998.39479799999
 30
0.0
 11
12099.972089000001
 21
20023.392158999992
 31
0.0
  0
LINE
  5
2DEE
  8
0-6
  6
CONTINUOUS
 62
     6
 10
12099.972089000001
 20
20023.392158999992
 30
0.0
 11
12153.323084
 21
19880.987571000001
 31
0.0
  0
LINE
  5
2DEF
  8
0-6
  6
CONTINUOUS
 62
     6
 10
12099.972089000001
 20
20023.392158999992
 30
0.0
 11
12056.672099999991
 21
19998.39479799999
 31
0.0
  0
LINE
  5
2DF0
  8
0-6
  6
CONTINUOUS
 62
     6
 10
12024.890928999999
 20
19836.664171
 30
0.0
 11
12131.58796999999
 21
19714.488283999981
 31
0.0
  0
LINE
  5
2DF1
  8
0-6
  6
CONTINUOUS
 62
     6
 10
12131.58796999999
 20
19714.488283999981
 30
0.0
 11
12070.28326899999
 21
19864.664460999978
 31
0.0
  0
LINE
  5
2DF2
  8
0-6
  6
CONTINUOUS
 62
     6
 10
12131.58796999999
 20
19714.488283999981
 30
0.0
 11
12024.890928999999
 21
19836.664171
 31
0.0
  0
LINE
  5
2DF3
  8
0-6
  6
CONTINUOUS
 62
     6
 10
12024.890928999999
 20
19836.664171
 30
0.0
 11
12070.28326899999
 21
19864.664460999978
 31
0.0
  0
LINE
  5
2DF4
  8
0-6
  6
CONTINUOUS
 62
     6
 10
12070.28326899999
 20
19864.664460999978
 30
0.0
 11
12131.58796999999
 21
19714.488283999981
 31
0.0
  0
LINE
  5
2DF5
  8
0-6
  6
CONTINUOUS
 62
     6
 10
12070.28326899999
 20
19864.664460999978
 30
0.0
 11
12024.890928999999
 21
19836.664171
 31
0.0
  0
LINE
  5
2DF6
  8
0-6
  6
CONTINUOUS
 62
     6
 10
14401.53664799999
 20
20024.797617
 30
0.0
 11
14309.848316
 21
19890.988098999991
 31
0.0
  0
LINE
  5
2DF7
  8
0-6
  6
CONTINUOUS
 62
     6
 10
14309.848316
 20
19890.988098999991
 30
0.0
 11
14439.97691899999
 21
19987.826147999989
 31
0.0
  0
LINE
  5
2DF8
  8
0-6
  6
CONTINUOUS
 62
     6
 10
14309.848316
 20
19890.988098999991
 30
0.0
 11
14401.53664799999
 21
20024.797617
 31
0.0
  0
LINE
  5
2DF9
  8
0-6
  6
CONTINUOUS
 62
     6
 10
14401.53664799999
 20
20024.797617
 30
0.0
 11
14439.97691899999
 21
19987.826147999989
 31
0.0
  0
LINE
  5
2DFA
  8
0-6
  6
CONTINUOUS
 62
     6
 10
14439.97691899999
 20
19987.826147999989
 30
0.0
 11
14309.848316
 21
19890.988098999991
 31
0.0
  0
LINE
  5
2DFB
  8
0-6
  6
CONTINUOUS
 62
     6
 10
14439.97691899999
 20
19987.826147999989
 30
0.0
 11
14401.53664799999
 21
20024.797617
 31
0.0
  0
LINE
  5
2DFC
  8
2-0
  6
DASHED3
 62
     6
 10
13740.504051999989
 20
16784.486463000001
 30
0.0
 11
14227.347919999989
 21
16784.486463000001
 31
0.0
  0
LINE
  5
2DFD
  8
2-0
  6
DASHED3
 62
     6
 10
10958.84792
 20
19629.487755999991
 30
0.0
 11
14227.347919999989
 21
19629.487755999991
 31
0.0
  0
LINE
  5
2DFE
  8
2-0
  6
DASHED3
 62
     6
 10
10916.347656
 20
19475.455476999981
 30
0.0
 11
10916.347656
 21
19714.488283999981
 31
0.0
  0
LINE
  5
2DFF
  8
2-0
  6
DASHED3
 62
     6
 10
10958.84792
 20
19437.349743999981
 30
0.0
 11
10958.84792
 21
19714.488283999981
 31
0.0
  0
LINE
  5
2E00
  8
2-0
  6
DASHED3
 62
     6
 10
10916.347656
 20
19714.488283999981
 30
0.0
 11
14269.849174000001
 21
19714.488283999981
 31
0.0
  0
LINE
  5
2E01
  8
2-0
  6
DASHED3
 62
     6
 10
13820.80817199999
 20
16705.489815000001
 30
0.0
 11
14227.347919999989
 21
16705.489815000001
 31
0.0
  0
LINE
  5
2E02
  8
2-0
  6
DASHED3
 62
     6
 10
14227.347919999989
 20
16315.87206
 30
0.0
 11
14227.347919999989
 21
19714.488283999981
 31
0.0
  0
LINE
  5
2E03
  8
2-0
  6
DASHED3
 62
     6
 10
14269.849174000001
 20
16286.92259099999
 30
0.0
 11
14269.849174000001
 21
19714.488283999981
 31
0.0
  0
LINE
  5
2E04
  8
2-0
  6
DASHED3
 62
     6
 10
14157.348183999989
 20
16750.486251999992
 30
0.0
 11
13955.996424000001
 21
16572.49189999999
 31
0.0
  0
LINE
  5
2E05
  8
2-0
  6
DASHED3
 62
     6
 10
11028.847656
 20
19668.486251999992
 30
0.0
 11
14157.348183999989
 21
16750.486251999992
 31
0.0
  0
LINE
  5
2E06
  8
2-0
  6
DASHED3
 62
     6
 10
12549.465332
 20
18178.694629000001
 30
0.0
 11
14157.348183999989
 21
19668.486251999992
 31
0.0
  0
LINE
  5
2E07
  8
2-0
  6
CENTER2
 62
     6
 10
14227.347919999989
 20
20910.988495000001
 30
0.0
 11
14227.347919999989
 21
19960.987835
 31
0.0
  0
LINE
  5
2E08
  8
2-0
  6
CENTER2
 62
     6
 10
9629.3468250000005
 20
19668.486251999992
 30
0.0
 11
11275.84505699998
 21
19668.486251999992
 31
0.0
  0
LINE
  5
2E09
  8
2-0
  6
CENTER2
 62
     6
 10
10958.84792
 20
20910.988495000001
 30
0.0
 11
10958.84792
 21
19960.987835
 31
0.0
  0
LINE
  5
2E0A
  8
2-0
  6
CENTER2
 62
     6
 10
9629.3468250000005
 20
16750.486251999992
 30
0.0
 11
11275.84505699998
 21
16750.486251999992
 31
0.0
  0
LINE
  5
2E0B
  8
2-0
  6
CENTER2
 62
     6
 10
9629.3468250000005
 20
13832.486252000001
 30
0.0
 11
11275.84505699998
 21
13832.486252000001
 31
0.0
  0
ARC
  5
2E0C
  8
0-1
  6
CONTINUOUS
 62
     3
 10
10941.846784999991
 20
19855.988230999999
 30
0.0
 40
5.0
 50
269.9999849999723
 51
0.0
  0
ARC
  5
2E0D
  8
0-1
  6
CONTINUOUS
 62
     3
 10
10941.846784999991
 20
19885.987835
 30
0.0
 40
5.0
 50
0.0
 51
90.0
  0
ARC
  5
2E0E
  8
0-1
  6
CONTINUOUS
 62
     3
 10
10878.34778799999
 20
19885.987835
 30
0.0
 40
5.0
 50
90.0
 51
180.0
  0
ARC
  5
2E0F
  8
0-1
  6
CONTINUOUS
 62
     3
 10
14307.848051999999
 20
19885.987835
 30
0.0
 40
5.0
 50
0.0
 51
90.0
  0
ARC
  5
2E10
  8
0-1
  6
CONTINUOUS
 62
     3
 10
14244.350044999999
 20
19885.987835
 30
0.0
 40
5.0
 50
90.0
 51
180.0
  0
ARC
  5
2E11
  8
0-1
  6
CONTINUOUS
 62
     3
 10
14244.350044999999
 20
19855.988230999999
 30
0.0
 40
5.0
 50
180.0
 51
269.9999849999723
  0
CIRCLE
  5
2E12
  8
0-5
  6
CONTINUOUS
 62
     4
 10
14227.347919999989
 20
21110.991133999989
 30
0.0
 40
199.9999949999999
  0
CIRCLE
  5
2E13
  8
0-5
  6
CONTINUOUS
 62
     4
 10
10958.84792
 20
21110.991133999989
 30
0.0
 40
199.9999949999999
  0
CIRCLE
  5
2E14
  8
0-5
  6
CONTINUOUS
 62
     4
 10
9429.3461650000008
 20
19668.486251999992
 30
0.0
 40
199.9999949999999
  0
CIRCLE
  5
2E15
  8
0-5
  6
CONTINUOUS
 62
     4
 10
9429.3461650000008
 20
16750.486251999992
 30
0.0
 40
199.9999949999999
  0
CIRCLE
  5
2E16
  8
0-5
  6
CONTINUOUS
 62
     4
 10
9429.3461650000008
 20
13832.486252000001
 30
0.0
 40
199.9999949999999
  0
CIRCLE
  5
2E17
  8
0-5
  6
CONTINUOUS
 62
     4
 10
15274.457836
 20
1596.945997
 30
0.0
 40
20.0
  0
ARC
  5
2E18
  8
0-5
  6
CONTINUOUS
 62
     4
 10
15274.457836
 20
1596.945997
 30
0.0
 40
20.0
 50
180.0
 51
0.0
  0
ARC
  5
2E19
  8
0-5
  6
CONTINUOUS
 62
     4
 10
15274.457836
 20
1596.945997
 30
0.0
 40
20.0
 50
0.0
 51
179.99998500000001
  0
CIRCLE
  5
2E1A
  8
0-5
  6
CONTINUOUS
 62
     4
 10
15274.457836
 20
1996.9462040000001
 30
0.0
 40
20.0
  0
ARC
  5
2E1B
  8
0-5
  6
CONTINUOUS
 62
     4
 10
15274.457836
 20
1996.9462040000001
 30
0.0
 40
20.0
 50
180.0
 51
0.0
  0
ARC
  5
2E1C
  8
0-5
  6
CONTINUOUS
 62
     4
 10
15274.457836
 20
1996.9462040000001
 30
0.0
 40
20.0
 50
0.0
 51
179.99998500000001
  0
TEXT
  5
2E1D
  8
0-5
  6
CONTINUOUS
 62
     7
 10
14179.11200099999
 20
21024.114022999998
 30
0.0
 40
160.0
  1
2
 72
     4
 11
14232.44533433333
 21
21104.114022999998
 31
0.0
  0
TEXT
  5
2E1E
  8
0-5
  6
CONTINUOUS
 62
     7
 10
10909.594528999991
 20
21018.674306000001
 30
0.0
 40
160.0
  1
1
 72
     4
 11
10936.261195666661
 21
21098.674306000001
 31
0.0
  0
TEXT
  5
2E1F
  8
0-5
  6
CONTINUOUS
 62
     7
 10
9380.670793000003
 20
19580.213579999981
 30
0.0
 40
160.0
  1
C
 72
     4
 11
9434.0041263333387
 21
19660.213579999981
 31
0.0
  0
TEXT
  5
2E20
  8
0-5
  6
CONTINUOUS
 62
     7
 10
9380.670793000003
 20
16662.211600999992
 30
0.0
 40
160.0
  1
B
 72
     4
 11
9434.0041263333387
 21
16742.211600999992
 31
0.0
  0
TEXT
  5
2E21
  8
0-5
  6
CONTINUOUS
 62
     7
 10
9380.670793000003
 20
13744.210611
 30
0.0
 40
160.0
  1
A
 72
     4
 11
9434.0041263333387
 21
13824.210611
 31
0.0
  0
TEXT
  5
2E22
  8
0-5
  6
CONTINUOUS
 62
     7
 10
16796.586874000001
 20
1876.946054999999
 30
0.0
 40
160.0
  1
H
  0
TEXT
  5
2E23
  8
0-5
  6
CONTINUOUS
 62
     7
 10
15321.888091000001
 20
1876.946054999999
 30
0.0
 40
160.0
  1
（ ）内寸法ハ、  タ イプヲ示ス。
  0
TEXT
  5
2E24
  8
0-5
  6
CONTINUOUS
 62
     7
 10
15434.45638499999
 20
1476.946095999999
 30
0.0
 40
160.0
  1
有効高サハ、基礎高サヲ含ミマセン。
  0
TEXT
  5
2E25
  8
0-6
  6
CONTINUOUS
 62
     7
 10
12768.636640000001
 20
20200.990607
 30
0.0
 40
160.0
  1
屋根
  0
TEXT
  5
2E26
  8
0-6
  6
CONTINUOUS
 62
     7
 10
11679.065074
 20
20990.988758999982
 30
0.0
 40
160.0
  1
鼻隠し後
  0
TEXT
  5
2E27
  8
0-6
  6
CONTINUOUS
 62
     7
 10
11117.66073699998
 20
20200.990607
 30
0.0
 40
160.0
  1
桁（後）
  0
TEXT
  5
2E28
  8
0-6
  6
CONTINUOUS
 62
     7
 10
12007.98287099998
 20
17190.085438999999
 30
0.0
 40
160.0
  1
桁（中）
  0
TEXT
  5
2E29
  8
0-6
  6
CONTINUOUS
 62
     7
 10
12264.572028000001
 20
16370.12967499998
 30
0.0
 40
160.0
  1
ブレース
  0
TEXT
  5
2E2A
  8
0-6
  6
CONTINUOUS
 62
     7
 10
12272.11597399998
 20
14283.814509
 30
0.0
 40
160.0
  1
桁（前）
  0
TEXT
  5
2E2B
  8
0-6
  6
CONTINUOUS
 62
     7
 10
13179.640124
 20
12919.985592000001
 30
0.0
 40
160.0
  1
鼻隠し前
  0
TEXT
  5
2E2C
  8
0-6
  6
CONTINUOUS
 62
     7
 10
9194.7118479999972
 20
12429.98644999998
 30
0.0
 40
160.0
  1
ケラバ 左
  0
TEXT
  5
2E2D
  8
0-6
  6
CONTINUOUS
 62
     7
 10
11203.373891999991
 20
18628.187871999991
 30
0.0
 40
160.0
  1
上枠
  0
TEXT
  5
2E2E
  8
0-6
  6
CONTINUOUS
 62
     7
 10
15427.505291999991
 20
20990.988758999982
 30
0.0
 40
160.0
  1
鼻隠しコーナー後
  0
TEXT
  5
2E2F
  8
2-0
  6
CONTINUOUS
 62
     7
 10
11127.462322999991
 20
11596.27449488648
 30
0.0
 40
160.0
  1
小 屋 伏 図
 50
359.99961300000001
 72
     4
 11
11628.796196675819
 21
11676.27110866666
 31
0.0
  0
TEXT
  5
2E37
  8
2-0
  6
CONTINUOUS
 62
     7
 10
12980.288381813431
 20
11623.46647766667
 30
0.0
 40
160.0
  1
1
 72
     4
 11
13006.9550484801
 21
11703.46647766667
 31
0.0
  0
TEXT
  5
2E38
  8
2-0
  6
CONTINUOUS
 62
     7
 10
13223.377099064141
 20
11543.467945666671
 30
0.0
 40
160.0
  1
80
 72
     4
 11
13343.377099064141
 21
11623.467945666671
 31
0.0
  0
TEXT
  5
2E39
  8
2-0
  6
CONTINUOUS
 62
     7
 10
12481.29034781345
 20
11596.27110866666
 30
0.0
 40
160.0
  1
(S=  /   )
 72
     4
 11
13041.29034781345
 21
11676.27110866666
 31
0.0
  0
LINE
  5
2E3A
  8
0-1
  6
CONTINUOUS
 62
     3
 10
9673.5677129999895
 20
8478.9693009999955
 30
0.0
 11
15554.567118999979
 21
8478.9693009999955
 31
0.0
  0
LINE
  5
2E3B
  8
0-1
  6
CONTINUOUS
 62
     3
 10
8963.567843999992
 20
6467.9239179999977
 30
0.0
 11
15587.066920999991
 21
6467.9239179999977
 31
0.0
  0
LINE
  5
2E3C
  8
0-1
  6
CONTINUOUS
 62
     3
 10
9768.56777899999
 20
6617.9239179999977
 30
0.0
 11
12541.567053000001
 21
6617.9239179999977
 31
0.0
  0
LINE
  5
2E3D
  8
0-1
  6
CONTINUOUS
 62
     3
 10
9646.0669209999924
 20
6567.9232579999998
 30
0.0
 11
15587.066920999991
 21
6567.9232579999998
 31
0.0
  0
LINE
  5
2E3E
  8
0-1
  6
CONTINUOUS
 62
     3
 10
9768.56777899999
 20
8478.9693009999955
 30
0.0
 11
9768.56777899999
 21
6567.9232579999998
 31
0.0
  0
LINE
  5
2E3F
  8
0-1
  6
CONTINUOUS
 62
     3
 10
9653.565666999988
 20
8601.0046419999962
 30
0.0
 11
9653.565666999988
 21
6567.9232579999998
 31
0.0
  0
LINE
  5
2E40
  8
0-1
  6
CONTINUOUS
 62
     3
 10
9673.5677129999895
 20
8601.6222520000028
 30
0.0
 11
9673.5677129999895
 21
6567.9232579999998
 31
0.0
  0
LINE
  5
2E41
  8
0-1
  6
CONTINUOUS
 62
     3
 10
9892.0669729999972
 20
6617.9239179999977
 30
0.0
 11
9892.0669729999972
 21
8478.9693009999955
 31
0.0
  0
LINE
  5
2E42
  8
0-1
  6
CONTINUOUS
 62
     3
 10
9907.0667759999887
 20
6617.9239179999977
 30
0.0
 11
9907.0667759999887
 21
8478.9693009999955
 31
0.0
  0
LINE
  5
2E43
  8
0-1
  6
CONTINUOUS
 62
     3
 10
10308.065772999969
 20
6617.9239179999977
 30
0.0
 11
10308.065772999969
 21
8478.9693009999955
 31
0.0
  0
LINE
  5
2E44
  8
0-1
  6
CONTINUOUS
 62
     3
 10
10293.065970999971
 20
6617.9239179999977
 30
0.0
 11
10293.065970999971
 21
8478.9693009999955
 31
0.0
  0
LINE
  5
2E45
  8
0-1
  6
CONTINUOUS
 62
     3
 10
10160.066075999979
 20
6617.9239179999977
 30
0.0
 11
10160.066075999979
 21
8478.9693009999955
 31
0.0
  0
LINE
  5
2E46
  8
0-1
  6
CONTINUOUS
 62
     3
 10
10040.067659999981
 20
6617.9239179999977
 30
0.0
 11
10040.067659999981
 21
8478.9693009999955
 31
0.0
  0
LINE
  5
2E47
  8
0-1
  6
CONTINUOUS
 62
     3
 10
10110.066405999991
 20
6617.9239179999977
 30
0.0
 11
10110.066405999991
 21
8478.9693009999955
 31
0.0
  0
LINE
  5
2E48
  8
0-1
  6
CONTINUOUS
 62
     3
 10
10090.06633999999
 20
6617.9239179999977
 30
0.0
 11
10090.06633999999
 21
8478.9693009999955
 31
0.0
  0
LINE
  5
2E49
  8
0-1
  6
CONTINUOUS
 62
     3
 10
9646.0669209999924
 20
6467.9239179999977
 30
0.0
 11
9646.0669209999924
 21
6567.9232579999998
 31
0.0
  0
LINE
  5
2E4A
  8
0-1
  6
CONTINUOUS
 62
     3
 10
15649.57807199998
 20
8785.4680609999978
 30
0.0
 11
15645.56459799999
 21
8915.4066299999977
 31
0.0
  0
LINE
  5
2E4B
  8
0-1
  6
CONTINUOUS
 62
     3
 10
12686.566789
 20
6617.9239179999977
 30
0.0
 11
15459.56705299999
 21
6617.9239179999977
 31
0.0
  0
LINE
  5
2E4C
  8
0-1
  6
CONTINUOUS
 62
     3
 10
12686.566789
 20
8478.9693009999955
 30
0.0
 11
12686.566789
 21
6567.9232579999998
 31
0.0
  0
LINE
  5
2E4D
  8
0-1
  6
CONTINUOUS
 62
     3
 10
12541.567053000001
 20
8478.9693009999955
 30
0.0
 11
12541.567053000001
 21
6567.9232579999998
 31
0.0
  0
LINE
  5
2E4E
  8
0-1
  6
CONTINUOUS
 62
     3
 10
12810.06697399999
 20
6617.9239179999977
 30
0.0
 11
12810.06697399999
 21
8478.9693009999955
 31
0.0
  0
LINE
  5
2E4F
  8
0-1
  6
CONTINUOUS
 62
     3
 10
12825.067766
 20
6617.9239179999977
 30
0.0
 11
12825.067766
 21
8478.9693009999955
 31
0.0
  0
LINE
  5
2E50
  8
0-1
  6
CONTINUOUS
 62
     3
 10
12958.06667
 20
6617.9239179999977
 30
0.0
 11
12958.06667
 21
8478.9693009999955
 31
0.0
  0
LINE
  5
2E51
  8
0-1
  6
CONTINUOUS
 62
     3
 10
13008.06832
 20
6617.9239179999977
 30
0.0
 11
13008.06832
 21
8478.9693009999955
 31
0.0
  0
LINE
  5
2E52
  8
0-1
  6
CONTINUOUS
 62
     3
 10
13028.066405999991
 20
6617.9239179999977
 30
0.0
 11
13028.066405999991
 21
8478.9693009999955
 31
0.0
  0
LINE
  5
2E53
  8
0-1
  6
CONTINUOUS
 62
     3
 10
12200.068426
 20
6617.9239179999977
 30
0.0
 11
12200.068426
 21
8478.9693009999955
 31
0.0
  0
LINE
  5
2E54
  8
0-1
  6
CONTINUOUS
 62
     3
 10
12220.067501999991
 20
6617.9239179999977
 30
0.0
 11
12220.067501999991
 21
8478.9693009999955
 31
0.0
  0
LINE
  5
2E55
  8
0-1
  6
CONTINUOUS
 62
     3
 10
12270.068162
 20
6617.9239179999977
 30
0.0
 11
12270.068162
 21
8478.9693009999955
 31
0.0
  0
LINE
  5
2E56
  8
0-1
  6
CONTINUOUS
 62
     3
 10
12403.068056
 20
6617.9239179999977
 30
0.0
 11
12403.068056
 21
8478.9693009999955
 31
0.0
  0
LINE
  5
2E57
  8
0-1
  6
CONTINUOUS
 62
     3
 10
12418.066867999991
 20
6617.9239179999977
 30
0.0
 11
12418.066867999991
 21
8478.9693009999955
 31
0.0
  0
LINE
  5
2E58
  8
0-1
  6
CONTINUOUS
 62
     3
 10
12150.067766
 20
6617.9239179999977
 30
0.0
 11
12150.067766
 21
8478.9693009999955
 31
0.0
  0
LINE
  5
2E59
  8
0-1
  6
CONTINUOUS
 62
     3
 10
12017.06787099999
 20
6617.9239179999977
 30
0.0
 11
12017.06787099999
 21
8478.9693009999955
 31
0.0
  0
LINE
  5
2E5A
  8
0-1
  6
CONTINUOUS
 62
     3
 10
12002.06707899998
 20
6617.9239179999977
 30
0.0
 11
12002.06707899998
 21
8478.9693009999955
 31
0.0
  0
LINE
  5
2E5B
  8
0-1
  6
CONTINUOUS
 62
     3
 10
10800.066775999991
 20
6617.9239179999977
 30
0.0
 11
10800.066775999991
 21
8478.9693009999955
 31
0.0
  0
LINE
  5
2E5C
  8
0-1
  6
CONTINUOUS
 62
     3
 10
10820.06882099999
 20
6617.9239179999977
 30
0.0
 11
10820.06882099999
 21
8478.9693009999955
 31
0.0
  0
LINE
  5
2E5D
  8
0-1
  6
CONTINUOUS
 62
     3
 10
10750.067106
 20
6617.9239179999977
 30
0.0
 11
10750.067106
 21
8478.9693009999955
 31
0.0
  0
LINE
  5
2E5E
  8
0-1
  6
CONTINUOUS
 62
     3
 10
10870.066511999999
 20
6617.9239179999977
 30
0.0
 11
10870.066511999999
 21
8478.9693009999955
 31
0.0
  0
LINE
  5
2E5F
  8
0-1
  6
CONTINUOUS
 62
     3
 10
11003.067395999989
 20
6617.9239179999977
 30
0.0
 11
11003.067395999989
 21
8478.9693009999955
 31
0.0
  0
LINE
  5
2E60
  8
0-1
  6
CONTINUOUS
 62
     3
 10
11018.068187999999
 20
6617.9239179999977
 30
0.0
 11
11018.068187999999
 21
8478.9693009999955
 31
0.0
  0
LINE
  5
2E61
  8
0-1
  6
CONTINUOUS
 62
     3
 10
10617.06622199999
 20
6617.9239179999977
 30
0.0
 11
10617.06622199999
 21
8478.9693009999955
 31
0.0
  0
LINE
  5
2E62
  8
0-1
  6
CONTINUOUS
 62
     3
 10
10602.06740899999
 20
6617.9239179999977
 30
0.0
 11
10602.06740899999
 21
8478.9693009999955
 31
0.0
  0
LINE
  5
2E63
  8
0-1
  6
CONTINUOUS
 62
     3
 10
11302.06675
 20
6617.9239179999977
 30
0.0
 11
11302.06675
 21
8478.9693009999955
 31
0.0
  0
LINE
  5
2E64
  8
0-1
  6
CONTINUOUS
 62
     3
 10
11317.065561999991
 20
6617.9239179999977
 30
0.0
 11
11317.065561999991
 21
8478.9693009999955
 31
0.0
  0
LINE
  5
2E65
  8
0-1
  6
CONTINUOUS
 62
     3
 10
11718.06752799999
 20
6617.9239179999977
 30
0.0
 11
11718.06752799999
 21
8478.9693009999955
 31
0.0
  0
LINE
  5
2E66
  8
0-1
  6
CONTINUOUS
 62
     3
 10
11703.066735999981
 20
6617.9239179999977
 30
0.0
 11
11703.066735999981
 21
8478.9693009999955
 31
0.0
  0
LINE
  5
2E67
  8
0-1
  6
CONTINUOUS
 62
     3
 10
11570.065851999991
 20
6617.9239179999977
 30
0.0
 11
11570.065851999991
 21
8478.9693009999955
 31
0.0
  0
LINE
  5
2E68
  8
0-1
  6
CONTINUOUS
 62
     3
 10
11450.068425999991
 20
6617.9239179999977
 30
0.0
 11
11450.068425999991
 21
8478.9693009999955
 31
0.0
  0
LINE
  5
2E69
  8
0-1
  6
CONTINUOUS
 62
     3
 10
11520.068162
 20
6617.9239179999977
 30
0.0
 11
11520.068162
 21
8478.9693009999955
 31
0.0
  0
LINE
  5
2E6A
  8
0-1
  6
CONTINUOUS
 62
     3
 10
11500.06809599999
 20
6617.9239179999977
 30
0.0
 11
11500.06809599999
 21
8478.9693009999955
 31
0.0
  0
LINE
  5
2E6B
  8
0-1
  6
CONTINUOUS
 62
     3
 10
11841.567713
 20
8478.9693009999955
 30
0.0
 11
11841.567713
 21
6617.9239179999977
 31
0.0
  0
LINE
  5
2E6C
  8
0-1
  6
CONTINUOUS
 62
     3
 10
11878.566894999991
 20
8478.9693009999955
 30
0.0
 11
11878.566894999991
 21
6617.9239179999977
 31
0.0
  0
LINE
  5
2E6D
  8
0-1
  6
CONTINUOUS
 62
     3
 10
10431.565956999981
 20
8478.9693009999955
 30
0.0
 11
10431.565956999981
 21
6617.9239179999977
 31
0.0
  0
LINE
  5
2E6E
  8
0-1
  6
CONTINUOUS
 62
     3
 10
10468.566128999981
 20
8478.9693009999955
 30
0.0
 11
10468.566128999981
 21
6617.9239179999977
 31
0.0
  0
LINE
  5
2E6F
  8
0-1
  6
CONTINUOUS
 62
     3
 10
11141.568373
 20
8478.9693009999955
 30
0.0
 11
11141.568373
 21
6617.9239179999977
 31
0.0
  0
LINE
  5
2E70
  8
0-1
  6
CONTINUOUS
 62
     3
 10
11178.567555
 20
8478.9693009999955
 30
0.0
 11
11178.567555
 21
6617.9239179999977
 31
0.0
  0
LINE
  5
2E71
  8
0-1
  6
CONTINUOUS
 62
     3
 10
12614.01545399998
 20
8692.0773429999954
 30
0.0
 11
12610.00296899999
 21
8822.0159119999971
 31
0.0
  0
LINE
  5
2E72
  8
0-1
  6
CONTINUOUS
 62
     3
 10
12614.066920999991
 20
8692.0793229999981
 30
0.0
 11
12614.066920999991
 21
8478.9693009999955
 31
0.0
  0
LINE
  5
2E73
  8
0-1
  6
CONTINUOUS
 62
     3
 10
15459.56705299999
 20
8478.9693009999955
 30
0.0
 11
15459.56705299999
 21
6567.9232579999998
 31
0.0
  0
LINE
  5
2E74
  8
0-1
  6
CONTINUOUS
 62
     3
 10
15574.568173999991
 20
8783.1530139999977
 30
0.0
 11
15574.568173999991
 21
6567.9232579999998
 31
0.0
  0
LINE
  5
2E75
  8
0-1
  6
CONTINUOUS
 62
     3
 10
15554.567118999979
 20
8782.5354040000002
 30
0.0
 11
15554.567118999979
 21
6567.9232579999998
 31
0.0
  0
LINE
  5
2E76
  8
0-1
  6
CONTINUOUS
 62
     3
 10
14049.568267000001
 20
8478.9693009999955
 30
0.0
 11
14049.568267000001
 21
6617.9239179999977
 31
0.0
  0
LINE
  5
2E77
  8
0-1
  6
CONTINUOUS
 62
     3
 10
14086.56843899999
 20
8478.9693009999955
 30
0.0
 11
14086.56843899999
 21
6617.9239179999977
 31
0.0
  0
LINE
  5
2E78
  8
0-1
  6
CONTINUOUS
 62
     3
 10
14749.56760699999
 20
8478.9693009999955
 30
0.0
 11
14749.56760699999
 21
6617.9239179999977
 31
0.0
  0
LINE
  5
2E79
  8
0-1
  6
CONTINUOUS
 62
     3
 10
14786.56678899999
 20
8478.9693009999955
 30
0.0
 11
14786.56678899999
 21
6617.9239179999977
 31
0.0
  0
LINE
  5
2E7A
  8
0-1
  6
CONTINUOUS
 62
     3
 10
13349.565957999999
 20
8478.9693009999955
 30
0.0
 11
13349.565957999999
 21
6617.9239179999977
 31
0.0
  0
LINE
  5
2E7B
  8
0-1
  6
CONTINUOUS
 62
     3
 10
13386.56711899999
 20
8478.9693009999955
 30
0.0
 11
13386.56711899999
 21
6617.9239179999977
 31
0.0
  0
LINE
  5
2E7C
  8
0-1
  6
CONTINUOUS
 62
     3
 10
13728.065747000001
 20
6617.9239179999977
 30
0.0
 11
13728.065747000001
 21
8478.9693009999955
 31
0.0
  0
LINE
  5
2E7D
  8
0-1
  6
CONTINUOUS
 62
     3
 10
13708.066669999989
 20
6617.9239179999977
 30
0.0
 11
13708.066669999989
 21
8478.9693009999955
 31
0.0
  0
LINE
  5
2E7E
  8
0-1
  6
CONTINUOUS
 62
     3
 10
13778.067395999989
 20
6617.9239179999977
 30
0.0
 11
13778.067395999989
 21
8478.9693009999955
 31
0.0
  0
LINE
  5
2E7F
  8
0-1
  6
CONTINUOUS
 62
     3
 10
13658.06799
 20
6617.9239179999977
 30
0.0
 11
13658.06799
 21
8478.9693009999955
 31
0.0
  0
LINE
  5
2E80
  8
0-1
  6
CONTINUOUS
 62
     3
 10
13525.067106
 20
6617.9239179999977
 30
0.0
 11
13525.067106
 21
8478.9693009999955
 31
0.0
  0
LINE
  5
2E81
  8
0-1
  6
CONTINUOUS
 62
     3
 10
13510.067303999989
 20
6617.9239179999977
 30
0.0
 11
13510.067303999989
 21
8478.9693009999955
 31
0.0
  0
LINE
  5
2E82
  8
0-1
  6
CONTINUOUS
 62
     3
 10
13911.06828
 20
6617.9239179999977
 30
0.0
 11
13911.06828
 21
8478.9693009999955
 31
0.0
  0
LINE
  5
2E83
  8
0-1
  6
CONTINUOUS
 62
     3
 10
13926.068081999991
 20
6617.9239179999977
 30
0.0
 11
13926.068081999991
 21
8478.9693009999955
 31
0.0
  0
LINE
  5
2E84
  8
0-1
  6
CONTINUOUS
 62
     3
 10
14626.06742299998
 20
6617.9239179999977
 30
0.0
 11
14626.06742299998
 21
8478.9693009999955
 31
0.0
  0
LINE
  5
2E85
  8
0-1
  6
CONTINUOUS
 62
     3
 10
14611.066630999991
 20
6617.9239179999977
 30
0.0
 11
14611.066630999991
 21
8478.9693009999955
 31
0.0
  0
LINE
  5
2E86
  8
0-1
  6
CONTINUOUS
 62
     3
 10
14210.066644
 20
6617.9239179999977
 30
0.0
 11
14210.066644
 21
8478.9693009999955
 31
0.0
  0
LINE
  5
2E87
  8
0-1
  6
CONTINUOUS
 62
     3
 10
14225.068425999991
 20
6617.9239179999977
 30
0.0
 11
14225.068425999991
 21
8478.9693009999955
 31
0.0
  0
LINE
  5
2E88
  8
0-1
  6
CONTINUOUS
 62
     3
 10
14358.06831999998
 20
6617.9239179999977
 30
0.0
 11
14358.06831999998
 21
8478.9693009999955
 31
0.0
  0
LINE
  5
2E89
  8
0-1
  6
CONTINUOUS
 62
     3
 10
14478.065747000001
 20
6617.9239179999977
 30
0.0
 11
14478.065747000001
 21
8478.9693009999955
 31
0.0
  0
LINE
  5
2E8A
  8
0-1
  6
CONTINUOUS
 62
     3
 10
14408.06601099999
 20
6617.9239179999977
 30
0.0
 11
14408.06601099999
 21
8478.9693009999955
 31
0.0
  0
LINE
  5
2E8B
  8
0-1
  6
CONTINUOUS
 62
     3
 10
14428.068056
 20
6617.9239179999977
 30
0.0
 11
14428.068056
 21
8478.9693009999955
 31
0.0
  0
LINE
  5
2E8C
  8
0-1
  6
CONTINUOUS
 62
     3
 10
15128.067396
 20
6617.9239179999977
 30
0.0
 11
15128.067396
 21
8478.9693009999955
 31
0.0
  0
LINE
  5
2E8D
  8
0-1
  6
CONTINUOUS
 62
     3
 10
15108.06831999998
 20
6617.9239179999977
 30
0.0
 11
15108.06831999998
 21
8478.9693009999955
 31
0.0
  0
LINE
  5
2E8E
  8
0-1
  6
CONTINUOUS
 62
     3
 10
15178.06805599998
 20
6617.9239179999977
 30
0.0
 11
15178.06805599998
 21
8478.9693009999955
 31
0.0
  0
LINE
  5
2E8F
  8
0-1
  6
CONTINUOUS
 62
     3
 10
15058.067660000001
 20
6617.9239179999977
 30
0.0
 11
15058.067660000001
 21
8478.9693009999955
 31
0.0
  0
LINE
  5
2E90
  8
0-1
  6
CONTINUOUS
 62
     3
 10
14925.067765999989
 20
6617.9239179999977
 30
0.0
 11
14925.067765999989
 21
8478.9693009999955
 31
0.0
  0
LINE
  5
2E91
  8
0-1
  6
CONTINUOUS
 62
     3
 10
14910.065984000001
 20
6617.9239179999977
 30
0.0
 11
14910.065984000001
 21
8478.9693009999955
 31
0.0
  0
LINE
  5
2E92
  8
0-1
  6
CONTINUOUS
 62
     3
 10
15321.068054999991
 20
6617.9239179999977
 30
0.0
 11
15321.068054999991
 21
8478.9693009999955
 31
0.0
  0
LINE
  5
2E93
  8
0-1
  6
CONTINUOUS
 62
     3
 10
15336.066867999991
 20
6617.9239179999977
 30
0.0
 11
15336.066867999991
 21
8478.9693009999955
 31
0.0
  0
LINE
  5
2E94
  8
0-1
  6
CONTINUOUS
 62
     3
 10
13226.065773
 20
6617.9239179999977
 30
0.0
 11
13226.065773
 21
8478.9693009999955
 31
0.0
  0
LINE
  5
2E95
  8
0-1
  6
CONTINUOUS
 62
     3
 10
13211.066961
 20
6617.9239179999977
 30
0.0
 11
13211.066961
 21
8478.9693009999955
 31
0.0
  0
LINE
  5
2E96
  8
0-1
  6
CONTINUOUS
 62
     3
 10
13078.06805599998
 20
6617.9239179999977
 30
0.0
 11
13078.06805599998
 21
8478.9693009999955
 31
0.0
  0
LINE
  5
2E97
  8
0-1
  6
CONTINUOUS
 62
     3
 10
15587.066920999991
 20
6567.9232579999998
 30
0.0
 11
15587.066920999991
 21
6467.9239179999977
 31
0.0
  0
LINE
  5
2E98
  8
0-1
  6
CONTINUOUS
 62
     3
 10
9476.0958879999871
 20
8643.5494449999951
 30
0.0
 11
9475.0487219999868
 21
8677.5348099999956
 31
0.0
  0
LINE
  5
2E99
  8
0-1
  6
CONTINUOUS
 62
     3
 10
9477.9546559999926
 20
8680.6248389999982
 30
0.0
 11
15658.94812299998
 21
8870.7981789999976
 31
0.0
  0
LINE
  5
2E9A
  8
0-1
  6
CONTINUOUS
 62
     3
 10
15660.181362999991
 20
8830.8168519999981
 30
0.0
 11
9479.1878959999922
 21
8640.6435120000024
 31
0.0
  0
LINE
  5
2E9B
  8
0-1
  6
CONTINUOUS
 62
     3
 10
9477.8012429999908
 20
8685.6231229999976
 30
0.0
 11
15658.79372099998
 21
8875.7954730000001
 31
0.0
  0
LINE
  5
2E9C
  8
0-1
  6
CONTINUOUS
 62
     3
 10
15660.334775999991
 20
8825.818567999997
 30
0.0
 11
9479.3403189999863
 21
8635.6462179999962
 31
0.0
  0
LINE
  5
2E9D
  8
0-1
  6
CONTINUOUS
 62
     3
 10
9476.4343849999877
 20
8632.5551990000004
 30
0.0
 11
9476.4343849999877
 21
8632.6205229999978
 31
0.0
  0
LINE
  5
2E9E
  8
0-1
  6
CONTINUOUS
 62
     3
 10
9476.4343849999877
 20
8632.6205229999978
 30
0.0
 11
9477.4241449999918
 21
8600.5711280000032
 31
0.0
  0
LINE
  5
2E9F
  8
0-1
  6
CONTINUOUS
 62
     3
 10
9482.5758419999911
 20
8595.7282360000008
 30
0.0
 11
15682.54200499999
 21
8786.4855330000028
 31
0.0
  0
LINE
  5
2EA0
  8
0-1
  6
CONTINUOUS
 62
     3
 10
15678.53149999999
 20
8916.4250919999977
 30
0.0
 11
9478.5653369999909
 21
8725.6658149999967
 31
0.0
  0
LINE
  5
2EA1
  8
0-1
  6
CONTINUOUS
 62
     3
 10
9473.7204649999876
 20
8720.5131280000005
 30
0.0
 11
9474.7092349999912
 21
8688.5290559999976
 31
0.0
  0
LINE
  5
2EA2
  8
0-1
  6
CONTINUOUS
 62
     3
 10
9491.0600579999864
 20
8726.0508310000005
 30
0.0
 11
9495.0705629999884
 21
8596.1122620000006
 31
0.0
  0
LINE
  5
2EA3
  8
0-5
  6
CONTINUOUS
 62
     4
 10
18457.442461999992
 20
6675.7694099999999
 30
0.0
 11
18577.438899000001
 21
6467.9239179999977
 31
0.0
  0
LINE
  5
2EA4
  8
0-5
  6
CONTINUOUS
 62
     4
 10
15667.066196
 20
6467.9239179999977
 30
0.0
 11
20549.312579000001
 21
6467.9239179999977
 31
0.0
  0
LINE
  5
2EA5
  8
0-5
  6
CONTINUOUS
 62
     4
 10
18577.438899000001
 20
6467.9239179999977
 30
0.0
 11
18697.439295
 21
6675.7694099999999
 31
0.0
  0
LINE
  5
2EA6
  8
0-5
  6
CONTINUOUS
 62
     4
 10
18697.439295
 20
6675.7694099999999
 30
0.0
 11
18457.442461999992
 21
6675.7694099999999
 31
0.0
  0
LINE
  5
2EA7
  8
2-0
  6
CENTER2
 62
     6
 10
9696.0669209999924
 20
6205.2705050000022
 30
0.0
 11
9696.0669209999924
 21
7262.4131029999999
 31
0.0
  0
LINE
  5
2EA8
  8
2-0
  6
CENTER2
 62
     6
 10
12614.066920999991
 20
6205.2705050000022
 30
0.0
 11
12614.066920999991
 21
7262.4131029999999
 31
0.0
  0
LINE
  5
2EA9
  8
2-0
  6
CENTER2
 62
     6
 10
15532.066920999991
 20
6205.2705050000022
 30
0.0
 11
15532.066920999991
 21
7262.4131029999999
 31
0.0
  0
ARC
  5
2EAA
  8
0-1
  6
CONTINUOUS
 62
     3
 10
9480.7645819999907
 20
8638.1918779999978
 30
0.0
 40
2.5
 50
271.76798999988182
 51
91.767989999881877
  0
ARC
  5
2EAB
  8
0-1
  6
CONTINUOUS
 62
     3
 10
9479.3769399999946
 20
8683.1695100000015
 30
0.0
 40
2.5
 50
271.76798999988182
 51
91.767989999881877
  0
ARC
  5
2EAC
  8
0-1
  6
CONTINUOUS
 62
     3
 10
9478.0457129999886
 20
8677.6268579999978
 30
0.0
 40
3.0
 50
91.767989999881877
 51
181.7679900000058
  0
ARC
  5
2EAD
  8
0-1
  6
CONTINUOUS
 62
     3
 10
15659.56474299999
 20
8850.8070199999984
 30
0.0
 40
20.0
 50
271.76798999988182
 51
91.767989999881877
  0
ARC
  5
2EAE
  8
0-1
  6
CONTINUOUS
 62
     3
 10
9479.0958479999917
 20
8643.6434729999946
 30
0.0
 40
3.0
 50
181.7679900000058
 51
271.76798999988182
  0
ARC
  5
2EAF
  8
0-1
  6
CONTINUOUS
 62
     3
 10
15659.56474299999
 20
8850.8070199999984
 30
0.0
 40
24.999998999999999
 50
271.76798999988182
 51
91.767989999881877
  0
ARC
  5
2EB0
  8
0-1
  6
CONTINUOUS
 62
     3
 10
9479.4363249999915
 20
8632.6482369999976
 30
0.0
 40
3.0
 50
91.767989999881877
 51
181.7679900000058
  0
ARC
  5
2EB1
  8
0-1
  6
CONTINUOUS
 62
     3
 10
9482.4214389999943
 20
8600.7255299999979
 30
0.0
 40
5.0
 50
181.7679900000058
 51
271.76798999988182
  0
ARC
  5
2EB2
  8
0-1
  6
CONTINUOUS
 62
     3
 10
15654.567447999991
 20
8850.6526179999983
 30
0.0
 40
69.999999000000003
 50
293.5547790001263
 51
69.981200999909021
  0
ARC
  5
2EB3
  8
0-1
  6
CONTINUOUS
 62
     3
 10
9478.7197399999877
 20
8720.6675300000006
 30
0.0
 40
5.0
 50
91.767989999881877
 51
181.7679900000058
  0
ARC
  5
2EB4
  8
0-1
  6
CONTINUOUS
 62
     3
 10
9477.7062259999911
 20
8688.6211039999998
 30
0.0
 40
3.0
 50
181.7679900000058
 51
271.76798999988182
  0
TEXT
  5
2EB5
  8
0-5
  6
CONTINUOUS
 62
     7
 10
18457.442461999992
 20
6755.7701679999973
 30
0.0
 40
160.0
  1
G.L
 72
     4
 11
18617.442461999992
 21
6835.7701679999982
 31
0.0
  0
TEXT
  5
2EB6
  8
2-0
  6
CONTINUOUS
 62
     7
 10
11294.743520999989
 20
3506.7732069999979
 30
0.0
 40
160.0
  1
側 面 立 面 図
 72
     4
 11
11940.076854333331
 21
3586.7732069999979
 31
0.0
  0
TEXT
  5
2EB7
  8
2-0
  6
CONTINUOUS
 62
     7
 10
13291.56903947094
 20
3533.9685759999988
 30
0.0
 40
160.0
  1
1
 72
     4
 11
13318.23570613761
 21
3613.9685759999988
 31
0.0
  0
TEXT
  5
2EB8
  8
2-0
  6
CONTINUOUS
 62
     7
 10
13534.65775672165
 20
3453.9700439999988
 30
0.0
 40
160.0
  1
80
 72
     4
 11
13654.65775672165
 21
3533.9700439999988
 31
0.0
  0
TEXT
  5
2EB9
  8
2-0
  6
CONTINUOUS
 62
     7
 10
12792.571005470951
 20
3506.7732069999979
 30
0.0
 40
160.0
  1
(S=  /   )
 72
     4
 11
13352.571005470951
 21
3586.7732069999979
 31
0.0
  0
TEXT
  5
2EBA
  8
2-0
  6
CONTINUOUS
 62
     7
 10
21078.271616000009
 20
11601.604441999991
 30
0.0
 40
160.0
  1
平　面　図
 72
     4
 11
21531.604949333341
 21
11676.27110866666
 31
0.0
  0
TEXT
  5
2EBB
  8
2-0
  6
CONTINUOUS
 62
     7
 10
22883.097134470969
 20
11623.46647766667
 30
0.0
 40
160.0
  1
1
 72
     4
 11
22909.76380113764
 21
11703.46647766667
 31
0.0
  0
TEXT
  5
2EBC
  8
2-0
  6
CONTINUOUS
 62
     7
 10
23126.185851721671
 20
11543.467945666671
 30
0.0
 40
160.0
  1
80
 72
     4
 11
23246.185851721671
 21
11623.467945666671
 31
0.0
  0
TEXT
  5
2EBD
  8
2-0
  6
CONTINUOUS
 62
     7
 10
22384.099100470969
 20
11596.27110866666
 30
0.0
 40
160.0
  1
(S=  /   )
 72
     4
 11
22944.099100470969
 21
11676.27110866666
 31
0.0
  0
LINE
  5
2EBE
  8
2-0
  6
CONTINUOUS
 62
     6
 10
22264.654586000001
 20
13192.485129999999
 30
0.0
 11
23264.647987999961
 21
13192.485129999999
 31
0.0
  0
LINE
  5
2EBF
  8
2-0
  6
CONTINUOUS
 62
     6
 10
23732.588365
 20
13662.905844000001
 30
0.0
 11
23264.647987999961
 21
13192.485129999999
 31
0.0
  0
LINE
  5
2EC0
  8
2-0
  6
CONTINUOUS
 62
     6
 10
23693.948161999979
 20
16854.513491000002
 30
0.0
 11
23389.25274399999
 21
16958.16702200002
 31
0.0
  0
LINE
  5
2EC1
  8
2-0
  6
CONTINUOUS
 62
     6
 10
23848.97020099996
 20
16364.89144700002
 30
0.0
 11
23389.25274399999
 21
16120.978136000011
 31
0.0
  0
LINE
  5
2EC2
  8
2-0
  6
CONTINUOUS
 62
     6
 10
22469.249708999982
 20
16120.978136000011
 30
0.0
 11
23389.25274399999
 21
16120.978136000011
 31
0.0
  0
LINE
  5
2EC3
  8
2-0
  6
CONTINUOUS
 62
     6
 10
22189.258681999989
 20
16958.16702200002
 30
0.0
 11
23389.25274399999
 21
16958.16702200002
 31
0.0
  0
LINE
  5
2EC4
  8
2-0
  6
CONTINUOUS
 62
     6
 10
23765.147486000002
 20
13984.58948999998
 30
0.0
 11
23389.25274399999
 21
14165.533325
 31
0.0
  0
LINE
  5
2EC5
  8
2-0
  6
CONTINUOUS
 62
     6
 10
22869.251027999991
 20
14165.533325
 30
0.0
 11
23389.25274399999
 21
14165.533325
 31
0.0
  0
LINE
  5
2EC6
  8
2-0
  6
CONTINUOUS
 62
     4
 10
20679.313502000001
 20
19790.986780000021
 30
0.0
 11
20679.313502000001
 21
20520.983745000001
 31
0.0
  0
LINE
  5
2EC7
  8
2-0
  6
CONTINUOUS
 62
     3
 10
23960.314161999991
 20
19601.984326000009
 30
0.0
 11
23960.314161999991
 21
19595.988364000012
 31
0.0
  0
LINE
  5
2EC8
  8
2-0
  6
CONTINUOUS
 62
     3
 10
23960.314161999991
 20
19595.988364000012
 30
0.0
 11
23990.311785999991
 21
19595.988364000012
 31
0.0
  0
LINE
  5
2EC9
  8
2-0
  6
CONTINUOUS
 62
     3
 10
23990.311785999991
 20
19625.987968000001
 30
0.0
 11
23909.309885999981
 21
19625.987968000001
 31
0.0
  0
LINE
  5
2ECA
  8
2-0
  6
CONTINUOUS
 62
     3
 10
23960.314161999991
 20
19585.690908
 30
0.0
 11
23990.311785999991
 21
19585.690908
 31
0.0
  0
LINE
  5
2ECB
  8
2-0
  6
CONTINUOUS
 62
     3
 10
23960.314161999991
 20
19603.692650000001
 30
0.0
 11
23960.314161999991
 21
19585.690908
 31
0.0
  0
LINE
  5
2ECC
  8
2-0
  6
CONTINUOUS
 62
     3
 10
23985.311521999989
 20
19603.692650000001
 30
0.0
 11
23960.314161999991
 21
19603.692650000001
 31
0.0
  0
LINE
  5
2ECD
  8
2-0
  6
CONTINUOUS
 62
     3
 10
23985.311521999989
 20
19598.68446800001
 30
0.0
 11
23985.311521999989
 21
19603.692650000001
 31
0.0
  0
LINE
  5
2ECE
  8
2-0
  6
CONTINUOUS
 62
     3
 10
23978.309965
 20
19598.68446800001
 30
0.0
 11
23985.311521999989
 21
19598.68446800001
 31
0.0
  0
LINE
  5
2ECF
  8
2-0
  6
CONTINUOUS
 62
     3
 10
23878.013696999999
 20
19698.984695000021
 30
0.0
 11
23878.013696999999
 21
19705.990211000011
 31
0.0
  0
LINE
  5
2ED0
  8
2-0
  6
CONTINUOUS
 62
     3
 10
23878.013696999999
 20
19705.990211000011
 30
0.0
 11
23883.013960999971
 21
19705.990211000011
 31
0.0
  0
LINE
  5
2ED1
  8
2-0
  6
CONTINUOUS
 62
     3
 10
23883.013960999971
 20
19705.990211000011
 30
0.0
 11
23883.013960999971
 21
19680.980973999998
 31
0.0
  0
LINE
  5
2ED2
  8
2-0
  6
CONTINUOUS
 62
     3
 10
23883.013960999971
 20
19680.980973999998
 30
0.0
 11
23865.012218999971
 21
19680.980973999998
 31
0.0
  0
LINE
  5
2ED3
  8
2-0
  6
CONTINUOUS
 62
     3
 10
23865.012218999971
 20
19680.980973999998
 30
0.0
 11
23865.012218999971
 21
19710.984537000011
 31
0.0
  0
LINE
  5
2ED4
  8
2-0
  6
CONTINUOUS
 62
     3
 10
23875.30967499999
 20
19710.984537000011
 30
0.0
 11
23990.311785999991
 21
19710.984537000011
 31
0.0
  0
LINE
  5
2ED5
  8
2-0
  6
CONTINUOUS
 62
     3
 10
23875.30967499999
 20
19680.980973999998
 30
0.0
 11
23875.30967499999
 21
19710.984537000011
 31
0.0
  0
LINE
  5
2ED6
  8
2-0
  6
CONTINUOUS
 62
     3
 10
23881.311574999982
 20
19680.980973999998
 30
0.0
 11
23875.30967499999
 21
19680.980973999998
 31
0.0
  0
LINE
  5
2ED7
  8
2-0
  6
CONTINUOUS
 62
     3
 10
23978.309965
 20
18894.887645499992
 30
0.0
 11
23985.311521999989
 21
18894.887645499992
 31
0.0
  0
LINE
  5
2ED8
  8
2-0
  6
CONTINUOUS
 62
     3
 10
23985.311521999989
 20
18894.887645499992
 30
0.0
 11
23985.311521999989
 21
18899.887909500001
 31
0.0
  0
LINE
  5
2ED9
  8
2-0
  6
CONTINUOUS
 62
     3
 10
23985.311521999989
 20
18899.887909500001
 30
0.0
 11
23960.314161999991
 21
18899.887909500001
 31
0.0
  0
LINE
  5
2EDA
  8
2-0
  6
CONTINUOUS
 62
     3
 10
23960.314161999991
 20
18899.887909500001
 30
0.0
 11
23960.314161999991
 21
18881.892105499999
 31
0.0
  0
LINE
  5
2EDB
  8
2-0
  6
CONTINUOUS
 62
     3
 10
23960.314161999991
 20
18881.892105499999
 30
0.0
 11
23990.311785999991
 21
18881.892105499999
 31
0.0
  0
LINE
  5
2EDC
  8
2-0
  6
CONTINUOUS
 62
     3
 10
23960.314161999991
 20
18897.983612499971
 30
0.0
 11
23960.314161999991
 21
18891.985671499999
 31
0.0
  0
LINE
  5
2EDD
  8
2-0
  6
CONTINUOUS
 62
     3
 10
23960.314161999991
 20
18891.985671499999
 30
0.0
 11
23990.311785999991
 21
18891.985671499999
 31
0.0
  0
LINE
  5
2EDE
  8
2-0
  6
CONTINUOUS
 62
     3
 10
23990.311785999991
 20
18891.985671499999
 30
0.0
 11
23990.311785999991
 21
18928.986832499992
 31
0.0
  0
LINE
  5
2EDF
  8
2-0
  6
CONTINUOUS
 62
     3
 10
23960.314161999991
 20
18928.986832499992
 30
0.0
 11
23990.311785999991
 21
18928.986832499992
 31
0.0
  0
LINE
  5
2EE0
  8
2-0
  6
CONTINUOUS
 62
     3
 10
23960.314161999991
 20
18922.982952499991
 30
0.0
 11
23960.314161999991
 21
18928.986832499992
 31
0.0
  0
LINE
  5
2EE1
  8
2-0
  6
CONTINUOUS
 62
     3
 10
23960.314161999991
 20
18939.082377499992
 30
0.0
 11
23990.311785999991
 21
18939.082377499992
 31
0.0
  0
LINE
  5
2EE2
  8
2-0
  6
CONTINUOUS
 62
     3
 10
23960.314161999991
 20
18921.080635499999
 30
0.0
 11
23960.314161999991
 21
18939.082377499992
 31
0.0
  0
LINE
  5
2EE3
  8
2-0
  6
CONTINUOUS
 62
     3
 10
23985.311521999989
 20
18921.080635499999
 30
0.0
 11
23960.314161999991
 21
18921.080635499999
 31
0.0
  0
LINE
  5
2EE4
  8
2-0
  6
CONTINUOUS
 62
     3
 10
23985.311521999989
 20
18926.080899500001
 30
0.0
 11
23985.311521999989
 21
18921.080635499999
 31
0.0
  0
LINE
  5
2EE5
  8
2-0
  6
CONTINUOUS
 62
     3
 10
23978.309965
 20
18926.080899500001
 30
0.0
 11
23985.311521999989
 21
18926.080899500001
 31
0.0
  0
LINE
  5
2EE6
  8
2-0
  6
CONTINUOUS
 62
     3
 10
23978.309965
 20
18193.886655999999
 30
0.0
 11
23985.311521999989
 21
18193.886655999999
 31
0.0
  0
LINE
  5
2EE7
  8
2-0
  6
CONTINUOUS
 62
     3
 10
23985.311521999989
 20
18193.886655999999
 30
0.0
 11
23985.311521999989
 21
18198.892857999999
 31
0.0
  0
LINE
  5
2EE8
  8
2-0
  6
CONTINUOUS
 62
     3
 10
23985.311521999989
 20
18198.892857999999
 30
0.0
 11
23960.314161999991
 21
18198.892857999999
 31
0.0
  0
LINE
  5
2EE9
  8
2-0
  6
CONTINUOUS
 62
     3
 10
23960.314161999991
 20
18198.892857999999
 30
0.0
 11
23960.314161999991
 21
18180.89111600001
 31
0.0
  0
LINE
  5
2EEA
  8
2-0
  6
CONTINUOUS
 62
     3
 10
23960.314161999991
 20
18180.89111600001
 30
0.0
 11
23990.311785999991
 21
18180.89111600001
 31
0.0
  0
LINE
  5
2EEB
  8
2-0
  6
CONTINUOUS
 62
     3
 10
23960.314161999991
 20
18196.982622999989
 30
0.0
 11
23960.314161999991
 21
18190.986660999999
 31
0.0
  0
LINE
  5
2EEC
  8
2-0
  6
CONTINUOUS
 62
     3
 10
23960.314161999991
 20
18190.986660999999
 30
0.0
 11
23990.311785999991
 21
18190.986660999999
 31
0.0
  0
LINE
  5
2EED
  8
2-0
  6
CONTINUOUS
 62
     3
 10
23990.311785999991
 20
18190.986660999999
 30
0.0
 11
23990.311785999991
 21
18227.985842999991
 31
0.0
  0
LINE
  5
2EEE
  8
2-0
  6
CONTINUOUS
 62
     3
 10
23960.314161999991
 20
18227.985842999991
 30
0.0
 11
23990.311785999991
 21
18227.985842999991
 31
0.0
  0
LINE
  5
2EEF
  8
2-0
  6
CONTINUOUS
 62
     3
 10
23960.314161999991
 20
18221.989881000001
 30
0.0
 11
23960.314161999991
 21
18227.985842999991
 31
0.0
  0
LINE
  5
2EF0
  8
2-0
  6
CONTINUOUS
 62
     3
 10
23960.314161999991
 20
18238.08138800001
 30
0.0
 11
23990.311785999991
 21
18238.08138800001
 31
0.0
  0
LINE
  5
2EF1
  8
2-0
  6
CONTINUOUS
 62
     3
 10
23960.314161999991
 20
18220.079645999998
 30
0.0
 11
23960.314161999991
 21
18238.08138800001
 31
0.0
  0
LINE
  5
2EF2
  8
2-0
  6
CONTINUOUS
 62
     3
 10
23985.311521999989
 20
18220.079645999998
 30
0.0
 11
23960.314161999991
 21
18220.079645999998
 31
0.0
  0
LINE
  5
2EF3
  8
2-0
  6
CONTINUOUS
 62
     3
 10
23985.311521999989
 20
18225.085847999992
 30
0.0
 11
23985.311521999989
 21
18220.079645999998
 31
0.0
  0
LINE
  5
2EF4
  8
2-0
  6
CONTINUOUS
 62
     3
 10
23978.309965
 20
18225.085847999992
 30
0.0
 11
23985.311521999989
 21
18225.085847999992
 31
0.0
  0
LINE
  5
2EF5
  8
2-0
  6
CONTINUOUS
 62
     3
 10
23978.309965
 20
17524.07991
 30
0.0
 11
23985.311521999989
 21
17524.07991
 31
0.0
  0
LINE
  5
2EF6
  8
2-0
  6
CONTINUOUS
 62
     3
 10
23985.311521999989
 20
17524.07991
 30
0.0
 11
23985.311521999989
 21
17519.091522999999
 31
0.0
  0
LINE
  5
2EF7
  8
2-0
  6
CONTINUOUS
 62
     3
 10
23985.311521999989
 20
17519.091522999999
 30
0.0
 11
23960.314161999991
 21
17519.091522999999
 31
0.0
  0
LINE
  5
2EF8
  8
2-0
  6
CONTINUOUS
 62
     3
 10
23960.314161999991
 20
17519.091522999999
 30
0.0
 11
23960.314161999991
 21
17537.087326000001
 31
0.0
  0
LINE
  5
2EF9
  8
2-0
  6
CONTINUOUS
 62
     3
 10
23960.314161999991
 20
17537.087326000001
 30
0.0
 11
23990.311785999991
 21
17537.087326000001
 31
0.0
  0
LINE
  5
2EFA
  8
2-0
  6
CONTINUOUS
 62
     3
 10
23960.314161999991
 20
17520.989881000001
 30
0.0
 11
23960.314161999991
 21
17526.985842999999
 31
0.0
  0
LINE
  5
2EFB
  8
2-0
  6
CONTINUOUS
 62
     3
 10
23960.314161999991
 20
17526.985842999999
 30
0.0
 11
23990.311785999991
 21
17526.985842999999
 31
0.0
  0
LINE
  5
2EFC
  8
2-0
  6
CONTINUOUS
 62
     3
 10
23990.311785999991
 20
17526.985842999999
 30
0.0
 11
23990.311785999991
 21
17489.98666100001
 31
0.0
  0
LINE
  5
2EFD
  8
2-0
  6
CONTINUOUS
 62
     3
 10
23960.314161999991
 20
17489.98666100001
 30
0.0
 11
23990.311785999991
 21
17489.98666100001
 31
0.0
  0
LINE
  5
2EFE
  8
2-0
  6
CONTINUOUS
 62
     3
 10
23960.314161999991
 20
17495.988561999991
 30
0.0
 11
23960.314161999991
 21
17489.98666100001
 31
0.0
  0
LINE
  5
2EFF
  8
2-0
  6
CONTINUOUS
 62
     3
 10
23960.314161999991
 20
17479.897055000001
 30
0.0
 11
23990.311785999991
 21
17479.897055000001
 31
0.0
  0
LINE
  5
2F00
  8
2-0
  6
CONTINUOUS
 62
     3
 10
23960.314161999991
 20
17497.892857999988
 30
0.0
 11
23960.314161999991
 21
17479.897055000001
 31
0.0
  0
LINE
  5
2F01
  8
2-0
  6
CONTINUOUS
 62
     3
 10
23985.311521999989
 20
17497.892857999988
 30
0.0
 11
23960.314161999991
 21
17497.892857999988
 31
0.0
  0
LINE
  5
2F02
  8
2-0
  6
CONTINUOUS
 62
     3
 10
23985.311521999989
 20
17492.892595000001
 30
0.0
 11
23985.311521999989
 21
17497.892857999988
 31
0.0
  0
LINE
  5
2F03
  8
2-0
  6
CONTINUOUS
 62
     3
 10
23978.309965
 20
17492.892595000001
 30
0.0
 11
23985.311521999989
 21
17492.892595000001
 31
0.0
  0
LINE
  5
2F04
  8
2-0
  6
CONTINUOUS
 62
     3
 10
23987.425648
 20
16772.983480999999
 30
0.0
 11
23987.425648
 21
16792.984536
 31
0.0
  0
LINE
  5
2F05
  8
2-0
  6
CONTINUOUS
 62
     3
 10
23987.425648
 20
16792.984536
 30
0.0
 11
23902.42907899999
 21
16792.984536
 31
0.0
  0
LINE
  5
2F06
  8
2-0
  6
CONTINUOUS
 62
     3
 10
23978.309965
 20
16819.591246
 30
0.0
 11
23985.311521999989
 21
16819.591246
 31
0.0
  0
LINE
  5
2F07
  8
2-0
  6
CONTINUOUS
 62
     3
 10
23985.311521999989
 20
16819.591246
 30
0.0
 11
23985.311521999989
 21
16814.596920000011
 31
0.0
  0
LINE
  5
2F08
  8
2-0
  6
CONTINUOUS
 62
     3
 10
23985.311521999989
 20
16814.596920000011
 30
0.0
 11
23960.314161999991
 21
16814.596920000011
 31
0.0
  0
LINE
  5
2F09
  8
2-0
  6
CONTINUOUS
 62
     3
 10
23960.314161999991
 20
16814.596920000011
 30
0.0
 11
23960.314161999991
 21
16832.592723999991
 31
0.0
  0
LINE
  5
2F0A
  8
2-0
  6
CONTINUOUS
 62
     3
 10
23960.314161999991
 20
16832.592723999991
 30
0.0
 11
23990.311785999991
 21
16832.592723999991
 31
0.0
  0
LINE
  5
2F0B
  8
2-0
  6
CONTINUOUS
 62
     3
 10
23960.314161999991
 20
16822.98413999999
 30
0.0
 11
23960.314161999991
 21
16816.982240000001
 31
0.0
  0
LINE
  5
2F0C
  8
2-0
  6
CONTINUOUS
 62
     3
 10
23990.311785999991
 20
16822.98413999999
 30
0.0
 11
23960.314161999991
 21
16822.98413999999
 31
0.0
  0
LINE
  5
2F0D
  8
2-0
  6
CONTINUOUS
 62
     3
 10
23990.311785999991
 20
16832.592723999991
 30
0.0
 11
23990.311785999991
 21
17479.897055000001
 31
0.0
  0
LINE
  5
2F0E
  8
2-0
  6
CONTINUOUS
 62
     3
 10
23990.311785999991
 20
17537.087326000001
 30
0.0
 11
23990.311785999991
 21
18180.89111600001
 31
0.0
  0
LINE
  5
2F0F
  8
2-0
  6
CONTINUOUS
 62
     3
 10
23990.311785999991
 20
16677.982424999991
 30
0.0
 11
23960.314161999991
 21
16677.982424999991
 31
0.0
  0
LINE
  5
2F10
  8
2-0
  6
CONTINUOUS
 62
     3
 10
23960.314161999991
 20
16677.982424999991
 30
0.0
 11
23960.314161999991
 21
16683.984325000001
 31
0.0
  0
LINE
  5
2F11
  8
2-0
  6
CONTINUOUS
 62
     3
 10
23902.42907899999
 20
16707.987968000001
 30
0.0
 11
23987.425648
 21
16707.987968000001
 31
0.0
  0
LINE
  5
2F12
  8
2-0
  6
CONTINUOUS
 62
     3
 10
23987.425648
 20
16707.987968000001
 30
0.0
 11
23987.425648
 21
16727.983085000011
 31
0.0
  0
LINE
  5
2F13
  8
2-0
  6
CONTINUOUS
 62
     3
 10
23960.314161999991
 20
16668.373842000012
 30
0.0
 11
23990.311785999991
 21
16668.373842000012
 31
0.0
  0
LINE
  5
2F14
  8
2-0
  6
CONTINUOUS
 62
     3
 10
23960.314161999991
 20
16686.369644999992
 30
0.0
 11
23960.314161999991
 21
16668.373842000012
 31
0.0
  0
LINE
  5
2F15
  8
2-0
  6
CONTINUOUS
 62
     3
 10
23985.311521999989
 20
16686.369644999992
 30
0.0
 11
23960.314161999991
 21
16686.369644999992
 31
0.0
  0
LINE
  5
2F16
  8
2-0
  6
CONTINUOUS
 62
     3
 10
23985.311521999989
 20
16681.369381000011
 30
0.0
 11
23985.311521999989
 21
16686.369644999992
 31
0.0
  0
LINE
  5
2F17
  8
2-0
  6
CONTINUOUS
 62
     3
 10
23978.309965
 20
16681.369381000011
 30
0.0
 11
23985.311521999989
 21
16681.369381000011
 31
0.0
  0
LINE
  5
2F18
  8
2-0
  6
CONTINUOUS
 62
     3
 10
23978.309965
 20
15976.887150499981
 30
0.0
 11
23985.311521999989
 21
15976.887150499981
 31
0.0
  0
LINE
  5
2F19
  8
2-0
  6
CONTINUOUS
 62
     3
 10
23985.311521999989
 20
15976.887150499981
 30
0.0
 11
23985.311521999989
 21
15981.88741449999
 31
0.0
  0
LINE
  5
2F1A
  8
2-0
  6
CONTINUOUS
 62
     3
 10
23985.311521999989
 20
15981.88741449999
 30
0.0
 11
23960.314161999991
 21
15981.88741449999
 31
0.0
  0
LINE
  5
2F1B
  8
2-0
  6
CONTINUOUS
 62
     3
 10
23960.314161999991
 20
15981.88741449999
 30
0.0
 11
23960.314161999991
 21
15963.885672500001
 31
0.0
  0
LINE
  5
2F1C
  8
2-0
  6
CONTINUOUS
 62
     3
 10
23960.314161999991
 20
15963.885672500001
 30
0.0
 11
23990.311785999991
 21
15963.885672500001
 31
0.0
  0
LINE
  5
2F1D
  8
2-0
  6
CONTINUOUS
 62
     3
 10
23960.314161999991
 20
15979.9831175
 30
0.0
 11
23960.314161999991
 21
15973.986166500001
 31
0.0
  0
LINE
  5
2F1E
  8
2-0
  6
CONTINUOUS
 62
     3
 10
23960.314161999991
 20
15973.986166500001
 30
0.0
 11
23990.311785999991
 21
15973.986166500001
 31
0.0
  0
LINE
  5
2F1F
  8
2-0
  6
CONTINUOUS
 62
     3
 10
23990.311785999991
 20
15973.986166500001
 30
0.0
 11
23990.311785999991
 21
16010.9863375
 31
0.0
  0
LINE
  5
2F20
  8
2-0
  6
CONTINUOUS
 62
     3
 10
23960.314161999991
 20
16010.9863375
 30
0.0
 11
23990.311785999991
 21
16010.9863375
 31
0.0
  0
LINE
  5
2F21
  8
2-0
  6
CONTINUOUS
 62
     3
 10
23960.314161999991
 20
16004.983447500001
 30
0.0
 11
23960.314161999991
 21
16010.9863375
 31
0.0
  0
LINE
  5
2F22
  8
2-0
  6
CONTINUOUS
 62
     3
 10
23960.314161999991
 20
16021.081882500001
 30
0.0
 11
23990.311785999991
 21
16021.081882500001
 31
0.0
  0
LINE
  5
2F23
  8
2-0
  6
CONTINUOUS
 62
     3
 10
23960.314161999991
 20
16003.074201499991
 30
0.0
 11
23960.314161999991
 21
16021.081882500001
 31
0.0
  0
LINE
  5
2F24
  8
2-0
  6
CONTINUOUS
 62
     3
 10
23985.311521999989
 20
16003.074201499991
 30
0.0
 11
23960.314161999991
 21
16003.074201499991
 31
0.0
  0
LINE
  5
2F25
  8
2-0
  6
CONTINUOUS
 62
     3
 10
23985.311521999989
 20
16008.0804045
 30
0.0
 11
23985.311521999989
 21
16003.074201499991
 31
0.0
  0
LINE
  5
2F26
  8
2-0
  6
CONTINUOUS
 62
     3
 10
23978.309965
 20
16008.0804045
 30
0.0
 11
23985.311521999989
 21
16008.0804045
 31
0.0
  0
LINE
  5
2F27
  8
2-0
  6
CONTINUOUS
 62
     3
 10
23978.309965
 20
15307.320421
 30
0.0
 11
23985.311521999989
 21
15307.320421
 31
0.0
  0
LINE
  5
2F28
  8
2-0
  6
CONTINUOUS
 62
     3
 10
23985.311521999989
 20
15307.320421
 30
0.0
 11
23985.311521999989
 21
15302.326096000001
 31
0.0
  0
LINE
  5
2F29
  8
2-0
  6
CONTINUOUS
 62
     3
 10
23985.311521999989
 20
15302.326096000001
 30
0.0
 11
23960.314161999991
 21
15302.326096000001
 31
0.0
  0
LINE
  5
2F2A
  8
2-0
  6
CONTINUOUS
 62
     3
 10
23960.314161999991
 20
15302.326096000001
 30
0.0
 11
23960.314161999991
 21
15320.32189900001
 31
0.0
  0
LINE
  5
2F2B
  8
2-0
  6
CONTINUOUS
 62
     3
 10
23960.314161999991
 20
15320.32189900001
 30
0.0
 11
23990.311785999991
 21
15320.32189900001
 31
0.0
  0
LINE
  5
2F2C
  8
2-0
  6
CONTINUOUS
 62
     3
 10
23960.314161999991
 20
15304.22445400001
 30
0.0
 11
23960.314161999991
 21
15310.226354
 31
0.0
  0
LINE
  5
2F2D
  8
2-0
  6
CONTINUOUS
 62
     3
 10
23960.314161999991
 20
15310.226354
 30
0.0
 11
23990.311785999991
 21
15310.226354
 31
0.0
  0
LINE
  5
2F2E
  8
2-0
  6
CONTINUOUS
 62
     3
 10
23990.311785999991
 20
15273.22717300001
 30
0.0
 11
23990.311785999991
 21
15310.226354
 31
0.0
  0
LINE
  5
2F2F
  8
2-0
  6
CONTINUOUS
 62
     3
 10
23960.314161999991
 20
15273.22717300001
 30
0.0
 11
23990.311785999991
 21
15273.22717300001
 31
0.0
  0
LINE
  5
2F30
  8
2-0
  6
CONTINUOUS
 62
     3
 10
23960.314161999991
 20
15279.224124
 30
0.0
 11
23960.314161999991
 21
15273.22717300001
 31
0.0
  0
LINE
  5
2F31
  8
2-0
  6
CONTINUOUS
 62
     3
 10
23960.314161999991
 20
15263.12568899999
 30
0.0
 11
23990.311785999991
 21
15263.12568899999
 31
0.0
  0
LINE
  5
2F32
  8
2-0
  6
CONTINUOUS
 62
     3
 10
23960.314161999991
 20
15281.13336999999
 30
0.0
 11
23960.314161999991
 21
15263.12568899999
 31
0.0
  0
LINE
  5
2F33
  8
2-0
  6
CONTINUOUS
 62
     3
 10
23985.311521999989
 20
15281.13336999999
 30
0.0
 11
23960.314161999991
 21
15281.13336999999
 31
0.0
  0
LINE
  5
2F34
  8
2-0
  6
CONTINUOUS
 62
     3
 10
23985.311521999989
 20
15276.133106000019
 30
0.0
 11
23985.311521999989
 21
15281.13336999999
 31
0.0
  0
LINE
  5
2F35
  8
2-0
  6
CONTINUOUS
 62
     3
 10
23978.309965
 20
15276.133106000019
 30
0.0
 11
23985.311521999989
 21
15276.133106000019
 31
0.0
  0
LINE
  5
2F36
  8
2-0
  6
CONTINUOUS
 62
     3
 10
23990.311785999991
 20
16668.373842000012
 30
0.0
 11
23990.311785999991
 21
16021.081882500001
 31
0.0
  0
LINE
  5
2F37
  8
2-0
  6
CONTINUOUS
 62
     3
 10
23990.311785999991
 20
16822.98413999999
 30
0.0
 11
23990.311785999991
 21
16677.982424999991
 31
0.0
  0
LINE
  5
2F38
  8
2-0
  6
CONTINUOUS
 62
     3
 10
23902.42907899999
 20
16792.984536
 30
0.0
 11
23902.42907899999
 21
16707.987968000001
 31
0.0
  0
LINE
  5
2F39
  8
2-0
  6
CONTINUOUS
 62
     6
 10
22364.220411999991
 20
18561.431801499992
 30
0.0
 11
23389.25274399999
 21
18561.431801499992
 31
0.0
  0
LINE
  5
2F3A
  8
2-0
  6
CONTINUOUS
 62
     3
 10
23978.309965
 20
14574.892099000001
 30
0.0
 11
23985.311521999989
 21
14574.892099000001
 31
0.0
  0
LINE
  5
2F3B
  8
2-0
  6
CONTINUOUS
 62
     3
 10
23985.311521999989
 20
14574.892099000001
 30
0.0
 11
23985.311521999989
 21
14579.886425000001
 31
0.0
  0
LINE
  5
2F3C
  8
2-0
  6
CONTINUOUS
 62
     3
 10
23985.311521999989
 20
14579.886425000001
 30
0.0
 11
23960.314161999991
 21
14579.886425000001
 31
0.0
  0
LINE
  5
2F3D
  8
2-0
  6
CONTINUOUS
 62
     3
 10
23960.314161999991
 20
14579.886425000001
 30
0.0
 11
23960.314161999991
 21
14561.890621
 31
0.0
  0
LINE
  5
2F3E
  8
2-0
  6
CONTINUOUS
 62
     3
 10
23960.314161999991
 20
14561.890621
 30
0.0
 11
23990.311785999991
 21
14561.890621
 31
0.0
  0
LINE
  5
2F3F
  8
2-0
  6
CONTINUOUS
 62
     3
 10
23960.314161999991
 20
14577.989056
 30
0.0
 11
23960.314161999991
 21
14571.98616600001
 31
0.0
  0
LINE
  5
2F40
  8
2-0
  6
CONTINUOUS
 62
     3
 10
23960.314161999991
 20
14571.98616600001
 30
0.0
 11
23990.311785999991
 21
14571.98616600001
 31
0.0
  0
LINE
  5
2F41
  8
2-0
  6
CONTINUOUS
 62
     3
 10
23990.311785999991
 20
14571.98616600001
 30
0.0
 11
23990.311785999991
 21
14608.986337999981
 31
0.0
  0
LINE
  5
2F42
  8
2-0
  6
CONTINUOUS
 62
     3
 10
23960.314161999991
 20
14608.986337999981
 30
0.0
 11
23990.311785999991
 21
14608.986337999981
 31
0.0
  0
LINE
  5
2F43
  8
2-0
  6
CONTINUOUS
 62
     3
 10
23960.314161999991
 20
14602.98938599999
 30
0.0
 11
23960.314161999991
 21
14608.986337999981
 31
0.0
  0
LINE
  5
2F44
  8
2-0
  6
CONTINUOUS
 62
     3
 10
23960.314161999991
 20
14619.086831000001
 30
0.0
 11
23990.311785999991
 21
14619.086831000001
 31
0.0
  0
LINE
  5
2F45
  8
2-0
  6
CONTINUOUS
 62
     3
 10
23960.314161999991
 20
14601.08014
 30
0.0
 11
23960.314161999991
 21
14619.086831000001
 31
0.0
  0
LINE
  5
2F46
  8
2-0
  6
CONTINUOUS
 62
     3
 10
23985.311521999989
 20
14601.08014
 30
0.0
 11
23960.314161999991
 21
14601.08014
 31
0.0
  0
LINE
  5
2F47
  8
2-0
  6
CONTINUOUS
 62
     3
 10
23985.311521999989
 20
14606.085353
 30
0.0
 11
23985.311521999989
 21
14601.08014
 31
0.0
  0
LINE
  5
2F48
  8
2-0
  6
CONTINUOUS
 62
     3
 10
23978.309965
 20
14606.085353
 30
0.0
 11
23985.311521999989
 21
14606.085353
 31
0.0
  0
LINE
  5
2F49
  8
2-0
  6
CONTINUOUS
 62
     3
 10
23960.314161999991
 20
13898.988179
 30
0.0
 11
23960.314161999991
 21
13904.993047999989
 31
0.0
  0
LINE
  5
2F4A
  8
2-0
  6
CONTINUOUS
 62
     3
 10
23960.314161999991
 20
13904.993047999989
 30
0.0
 11
23990.311785999991
 21
13904.993047999989
 31
0.0
  0
LINE
  5
2F4B
  8
2-0
  6
CONTINUOUS
 62
     3
 10
23990.311785999991
 20
13904.993047999989
 30
0.0
 11
23990.311785999991
 21
13789.988957
 31
0.0
  0
LINE
  5
2F4C
  8
2-0
  6
CONTINUOUS
 62
     3
 10
23990.311785999991
 20
13789.988957
 30
0.0
 11
23905.313237999992
 21
13789.988957
 31
0.0
  0
LINE
  5
2F4D
  8
2-0
  6
CONTINUOUS
 62
     3
 10
23905.313237999992
 20
13789.988957
 30
0.0
 11
23905.313237999992
 21
13874.984536
 31
0.0
  0
LINE
  5
2F4E
  8
2-0
  6
CONTINUOUS
 62
     3
 10
23905.313237999992
 20
13874.984536
 30
0.0
 11
23937.312155999989
 21
13874.984536
 31
0.0
  0
LINE
  5
2F4F
  8
2-0
  6
CONTINUOUS
 62
     3
 10
23978.309965
 20
13902.022781
 30
0.0
 11
23985.311521999989
 21
13902.022781
 31
0.0
  0
LINE
  5
2F50
  8
2-0
  6
CONTINUOUS
 62
     3
 10
23985.311521999989
 20
13902.022781
 30
0.0
 11
23985.311521999989
 21
13897.02548599998
 31
0.0
  0
LINE
  5
2F51
  8
2-0
  6
CONTINUOUS
 62
     3
 10
23985.311521999989
 20
13897.02548599998
 30
0.0
 11
23960.314161999991
 21
13897.02548599998
 31
0.0
  0
LINE
  5
2F52
  8
2-0
  6
CONTINUOUS
 62
     3
 10
23960.314161999991
 20
13897.02548599998
 30
0.0
 11
23960.314161999991
 21
13915.024258999991
 31
0.0
  0
LINE
  5
2F53
  8
2-0
  6
CONTINUOUS
 62
     3
 10
23960.314161999991
 20
13915.024258999991
 30
0.0
 11
23990.311785999991
 21
13915.024258999991
 31
0.0
  0
LINE
  5
2F54
  8
2-0
  6
CENTER2
 62
     6
 10
23947.813502000001
 20
13592.49139899999
 30
0.0
 11
23947.813502000001
 21
14748.360157000019
 31
0.0
  0
LINE
  5
2F55
  8
2-0
  6
CONTINUOUS
 62
     3
 10
23990.311785999991
 20
18238.08138800001
 30
0.0
 11
23990.311785999991
 21
18881.892105499999
 31
0.0
  0
LINE
  5
2F56
  8
2-0
  6
CONTINUOUS
 62
     6
 10
24682.816668999982
 20
20440.987440000012
 30
0.0
 11
25882.810730999961
 21
20440.987440000012
 31
0.0
  0
LINE
  5
2F57
  8
2-0
  6
CONTINUOUS
 62
     6
 10
23820.783835999981
 20
18803.586309499991
 30
0.0
 11
23389.25274399999
 21
18561.431801499992
 31
0.0
  0
LINE
  5
2F58
  8
2-0
  6
CONTINUOUS
 62
     6
 10
24142.35266999996
 20
19853.664277000022
 30
0.0
 11
24682.816668999982
 21
20440.987440000012
 31
0.0
  0
LINE
  5
2F59
  8
2-0
  6
CONTINUOUS
 62
     3
 10
23990.311785999991
 20
15963.885672500001
 30
0.0
 11
23990.311785999991
 21
15320.32189900001
 31
0.0
  0
LINE
  5
2F5A
  8
2-0
  6
CONTINUOUS
 62
     6
 10
23807.72693099999
 20
18826.84565349999
 30
0.0
 11
23960.314161999991
 21
18881.892105499999
 31
0.0
  0
LINE
  5
2F5B
  8
2-0
  6
CONTINUOUS
 62
     6
 10
23960.314161999991
 20
18881.892105499999
 30
0.0
 11
23833.832821999989
 21
18780.332905499981
 31
0.0
  0
LINE
  5
2F5C
  8
2-0
  6
CONTINUOUS
 62
     6
 10
23807.72693099999
 20
18826.84565349999
 30
0.0
 11
23833.832821999989
 21
18780.332905499981
 31
0.0
  0
LINE
  5
2F5D
  8
2-0
  6
CONTINUOUS
 62
     6
 10
23833.832821999989
 20
18780.332905499981
 30
0.0
 11
23960.314161999991
 21
18881.892105499999
 31
0.0
  0
LINE
  5
2F5E
  8
2-0
  6
CONTINUOUS
 62
     6
 10
23960.314161999991
 20
18881.892105499999
 30
0.0
 11
23807.72693099999
 21
18826.84565349999
 31
0.0
  0
LINE
  5
2F5F
  8
2-0
  6
CONTINUOUS
 62
     6
 10
23807.72693099999
 20
18826.84565349999
 30
0.0
 11
23960.314161999991
 21
18881.892105499999
 31
0.0
  0
LINE
  5
2F60
  8
2-0
  6
CONTINUOUS
 62
     6
 10
23833.832821999989
 20
18780.332905499981
 30
0.0
 11
23960.314161999991
 21
18881.892105499999
 31
0.0
  0
LINE
  5
2F61
  8
2-0
  6
CONTINUOUS
 62
     6
 10
23833.832821999989
 20
18780.332905499981
 30
0.0
 11
23807.72693099999
 21
18826.84565349999
 31
0.0
  0
LINE
  5
2F62
  8
2-0
  6
CONTINUOUS
 62
     6
 10
24161.96969899999
 20
19835.603150000021
 30
0.0
 11
24034.007678999998
 21
19735.920532000011
 31
0.0
  0
LINE
  5
2F63
  8
2-0
  6
CONTINUOUS
 62
     6
 10
24034.007678999998
 20
19735.920532000011
 30
0.0
 11
24122.721783999979
 21
19871.717487000009
 31
0.0
  0
LINE
  5
2F64
  8
2-0
  6
CONTINUOUS
 62
     6
 10
24161.96969899999
 20
19835.603150000021
 30
0.0
 11
24122.721783999979
 21
19871.717487000009
 31
0.0
  0
LINE
  5
2F65
  8
2-0
  6
CONTINUOUS
 62
     6
 10
24122.721783999979
 20
19871.717487000009
 30
0.0
 11
24034.007678999998
 21
19735.920532000011
 31
0.0
  0
LINE
  5
2F66
  8
2-0
  6
CONTINUOUS
 62
     6
 10
24034.007678999998
 20
19735.920532000011
 30
0.0
 11
24161.96969899999
 21
19835.603150000021
 31
0.0
  0
LINE
  5
2F67
  8
2-0
  6
CONTINUOUS
 62
     6
 10
24161.96969899999
 20
19835.603150000021
 30
0.0
 11
24034.007678999998
 21
19735.920532000011
 31
0.0
  0
LINE
  5
2F68
  8
2-0
  6
CONTINUOUS
 62
     6
 10
24122.721783999979
 20
19871.717487000009
 30
0.0
 11
24034.007678999998
 21
19735.920532000011
 31
0.0
  0
LINE
  5
2F69
  8
2-0
  6
CONTINUOUS
 62
     6
 10
24122.721783999979
 20
19871.717487000009
 30
0.0
 11
24161.96969899999
 21
19835.603150000021
 31
0.0
  0
LINE
  5
2F6A
  8
2-0
  6
CONTINUOUS
 62
     4
 10
20679.313502000001
 20
19790.986780000021
 30
0.0
 11
20679.313502000001
 21
20520.983745000001
 31
0.0
  0
LINE
  5
2F6B
  8
2-0
  6
CONTINUOUS
 62
     6
 10
23713.674064999988
 20
13681.716218999991
 30
0.0
 11
23845.420923999991
 21
13776.343145999999
 31
0.0
  0
LINE
  5
2F6C
  8
2-0
  6
CONTINUOUS
 62
     6
 10
23845.420923999991
 20
13776.343145999999
 30
0.0
 11
23751.490787999988
 21
13644.10437599999
 31
0.0
  0
LINE
  5
2F6D
  8
2-0
  6
CONTINUOUS
 62
     6
 10
23713.674064999988
 20
13681.716218999991
 30
0.0
 11
23751.490787999988
 21
13644.10437599999
 31
0.0
  0
LINE
  5
2F6E
  8
2-0
  6
CONTINUOUS
 62
     6
 10
23751.490787999988
 20
13644.10437599999
 30
0.0
 11
23845.420923999991
 21
13776.343145999999
 31
0.0
  0
LINE
  5
2F6F
  8
2-0
  6
CONTINUOUS
 62
     6
 10
23845.420923999991
 20
13776.343145999999
 30
0.0
 11
23713.674064999988
 21
13681.716218999991
 31
0.0
  0
LINE
  5
2F70
  8
2-0
  6
CONTINUOUS
 62
     6
 10
23713.674064999988
 20
13681.716218999991
 30
0.0
 11
23845.420923999991
 21
13776.343145999999
 31
0.0
  0
LINE
  5
2F71
  8
2-0
  6
CONTINUOUS
 62
     6
 10
23751.490787999988
 20
13644.10437599999
 30
0.0
 11
23845.420923999991
 21
13776.343145999999
 31
0.0
  0
LINE
  5
2F72
  8
2-0
  6
CONTINUOUS
 62
     6
 10
23751.490787999988
 20
13644.10437599999
 30
0.0
 11
23713.674064999988
 21
13681.716218999991
 31
0.0
  0
LINE
  5
2F73
  8
2-0
  6
CONTINUOUS
 62
     6
 10
23776.70985399999
 20
14008.620845999991
 30
0.0
 11
23909.309885999981
 21
13915.192517999991
 31
0.0
  0
LINE
  5
2F74
  8
2-0
  6
CONTINUOUS
 62
     6
 10
23909.309885999981
 20
13915.192517999991
 30
0.0
 11
23753.577199999982
 21
13960.568031999999
 31
0.0
  0
LINE
  5
2F75
  8
2-0
  6
CONTINUOUS
 62
     6
 10
23776.70985399999
 20
14008.620845999991
 30
0.0
 11
23753.577199999982
 21
13960.568031999999
 31
0.0
  0
LINE
  5
2F76
  8
2-0
  6
CONTINUOUS
 62
     6
 10
23753.577199999982
 20
13960.568031999999
 30
0.0
 11
23909.309885999981
 21
13915.192517999991
 31
0.0
  0
LINE
  5
2F77
  8
2-0
  6
CONTINUOUS
 62
     6
 10
23909.309885999981
 20
13915.192517999991
 30
0.0
 11
23776.70985399999
 21
14008.620845999991
 31
0.0
  0
LINE
  5
2F78
  8
2-0
  6
CONTINUOUS
 62
     6
 10
23776.70985399999
 20
14008.620845999991
 30
0.0
 11
23909.309885999981
 21
13915.192517999991
 31
0.0
  0
LINE
  5
2F79
  8
2-0
  6
CONTINUOUS
 62
     6
 10
23753.577199999982
 20
13960.568031999999
 30
0.0
 11
23909.309885999981
 21
13915.192517999991
 31
0.0
  0
LINE
  5
2F7A
  8
2-0
  6
CONTINUOUS
 62
     6
 10
23753.577199999982
 20
13960.568031999999
 30
0.0
 11
23776.70985399999
 21
14008.620845999991
 31
0.0
  0
LINE
  5
2F7B
  8
2-0
  6
CONTINUOUS
 62
     6
 10
23836.473499999989
 20
16388.441779000019
 30
0.0
 11
23990.311785999991
 21
16439.875610000021
 31
0.0
  0
LINE
  5
2F7C
  8
2-0
  6
CONTINUOUS
 62
     6
 10
23990.311785999991
 20
16439.875610000021
 30
0.0
 11
23861.47679899996
 21
16341.33517500002
 31
0.0
  0
LINE
  5
2F7D
  8
2-0
  6
CONTINUOUS
 62
     6
 10
23836.473499999989
 20
16388.441779000019
 30
0.0
 11
23861.47679899996
 21
16341.33517500002
 31
0.0
  0
LINE
  5
2F7E
  8
2-0
  6
CONTINUOUS
 62
     6
 10
23861.47679899996
 20
16341.33517500002
 30
0.0
 11
23990.311785999991
 21
16439.875610000021
 31
0.0
  0
LINE
  5
2F7F
  8
2-0
  6
CONTINUOUS
 62
     6
 10
23990.311785999991
 20
16439.875610000021
 30
0.0
 11
23836.473499999989
 21
16388.441779000019
 31
0.0
  0
LINE
  5
2F80
  8
2-0
  6
CONTINUOUS
 62
     6
 10
23836.473499999989
 20
16388.441779000019
 30
0.0
 11
23990.311785999991
 21
16439.875610000021
 31
0.0
  0
LINE
  5
2F81
  8
2-0
  6
CONTINUOUS
 62
     6
 10
23861.47679899996
 20
16341.33517500002
 30
0.0
 11
23990.311785999991
 21
16439.875610000021
 31
0.0
  0
LINE
  5
2F82
  8
2-0
  6
CONTINUOUS
 62
     6
 10
23861.47679899996
 20
16341.33517500002
 30
0.0
 11
23836.473499999989
 21
16388.441779000019
 31
0.0
  0
LINE
  5
2F83
  8
2-0
  6
CONTINUOUS
 62
     6
 10
23702.53729299999
 20
16879.76027100001
 30
0.0
 11
23845.420923999991
 21
16802.984641999999
 31
0.0
  0
LINE
  5
2F84
  8
2-0
  6
CONTINUOUS
 62
     6
 10
23845.420923999991
 20
16802.984641999999
 30
0.0
 11
23685.359030999982
 21
16829.266711000011
 31
0.0
  0
LINE
  5
2F85
  8
2-0
  6
CONTINUOUS
 62
     6
 10
23702.53729299999
 20
16879.76027100001
 30
0.0
 11
23685.359030999982
 21
16829.266711000011
 31
0.0
  0
LINE
  5
2F86
  8
2-0
  6
CONTINUOUS
 62
     6
 10
23685.359030999982
 20
16829.266711000011
 30
0.0
 11
23845.420923999991
 21
16802.984641999999
 31
0.0
  0
LINE
  5
2F87
  8
2-0
  6
CONTINUOUS
 62
     6
 10
23845.420923999991
 20
16802.984641999999
 30
0.0
 11
23702.53729299999
 21
16879.76027100001
 31
0.0
  0
LINE
  5
2F88
  8
2-0
  6
CONTINUOUS
 62
     6
 10
23702.53729299999
 20
16879.76027100001
 30
0.0
 11
23845.420923999991
 21
16802.984641999999
 31
0.0
  0
LINE
  5
2F89
  8
2-0
  6
CONTINUOUS
 62
     6
 10
23685.359030999982
 20
16829.266711000011
 30
0.0
 11
23845.420923999991
 21
16802.984641999999
 31
0.0
  0
LINE
  5
2F8A
  8
2-0
  6
CONTINUOUS
 62
     6
 10
23685.359030999982
 20
16829.266711000011
 30
0.0
 11
23702.53729299999
 21
16879.76027100001
 31
0.0
  0
LINE
  5
2F8B
  8
2-0
  6
CONTINUOUS
 62
     3
 10
20666.814821999989
 20
19601.984326000009
 30
0.0
 11
20666.814821999989
 21
19595.988364000012
 31
0.0
  0
LINE
  5
2F8C
  8
2-0
  6
CONTINUOUS
 62
     3
 10
20666.814821999989
 20
19595.988364000012
 30
0.0
 11
20636.817196999989
 21
19595.988364000012
 31
0.0
  0
LINE
  5
2F8D
  8
2-0
  6
CONTINUOUS
 62
     3
 10
20636.817196999989
 20
19595.988364000012
 30
0.0
 11
20636.817196999989
 21
19710.984537000011
 31
0.0
  0
LINE
  5
2F8E
  8
2-0
  6
CONTINUOUS
 62
     3
 10
20636.817196999989
 20
19625.987968000001
 30
0.0
 11
20717.815138000002
 21
19625.987968000001
 31
0.0
  0
LINE
  5
2F8F
  8
2-0
  6
CONTINUOUS
 62
     3
 10
20666.814821999989
 20
19585.690908
 30
0.0
 11
20636.817196999989
 21
19585.690908
 31
0.0
  0
LINE
  5
2F90
  8
2-0
  6
CONTINUOUS
 62
     3
 10
20666.814821999989
 20
19603.692650000001
 30
0.0
 11
20666.814821999989
 21
19585.690908
 31
0.0
  0
LINE
  5
2F91
  8
2-0
  6
CONTINUOUS
 62
     3
 10
20641.821419999989
 20
19603.692650000001
 30
0.0
 11
20666.814821999989
 21
19603.692650000001
 31
0.0
  0
LINE
  5
2F92
  8
2-0
  6
CONTINUOUS
 62
     3
 10
20641.821419999989
 20
19598.68446800001
 30
0.0
 11
20641.821419999989
 21
19603.692650000001
 31
0.0
  0
LINE
  5
2F93
  8
2-0
  6
CONTINUOUS
 62
     3
 10
20648.819017999969
 20
19598.68446800001
 30
0.0
 11
20641.821419999989
 21
19598.68446800001
 31
0.0
  0
LINE
  5
2F94
  8
2-0
  6
CONTINUOUS
 62
     3
 10
20749.113306999989
 20
19698.984695000021
 30
0.0
 11
20749.113306999989
 21
19705.990211000011
 31
0.0
  0
LINE
  5
2F95
  8
2-0
  6
CONTINUOUS
 62
     3
 10
20749.113306999989
 20
19705.990211000011
 30
0.0
 11
20744.111062999989
 21
19705.990211000011
 31
0.0
  0
LINE
  5
2F96
  8
2-0
  6
CONTINUOUS
 62
     3
 10
20744.111062999989
 20
19705.990211000011
 30
0.0
 11
20744.111062999989
 21
19680.980973999998
 31
0.0
  0
LINE
  5
2F97
  8
2-0
  6
CONTINUOUS
 62
     3
 10
20744.111062999989
 20
19680.980973999998
 30
0.0
 11
20762.118743999981
 21
19680.980973999998
 31
0.0
  0
LINE
  5
2F98
  8
2-0
  6
CONTINUOUS
 62
     3
 10
20762.118743999981
 20
19680.980973999998
 30
0.0
 11
20762.118743999981
 21
19710.984537000011
 31
0.0
  0
LINE
  5
2F99
  8
2-0
  6
CONTINUOUS
 62
     3
 10
20751.819307999991
 20
19710.984537000011
 30
0.0
 11
20636.817196999989
 21
19710.984537000011
 31
0.0
  0
LINE
  5
2F9A
  8
2-0
  6
CONTINUOUS
 62
     3
 10
20751.819307999991
 20
19680.980973999998
 30
0.0
 11
20751.819307999991
 21
19710.984537000011
 31
0.0
  0
LINE
  5
2F9B
  8
2-0
  6
CONTINUOUS
 62
     3
 10
20745.815428999991
 20
19680.980973999998
 30
0.0
 11
20751.819307999991
 21
19680.980973999998
 31
0.0
  0
LINE
  5
2F9C
  8
2-0
  6
CONTINUOUS
 62
     3
 10
20666.814821999989
 20
19601.984326000009
 30
0.0
 11
20666.814821999989
 21
19595.988364000012
 31
0.0
  0
LINE
  5
2F9D
  8
2-0
  6
CONTINUOUS
 62
     3
 10
20666.814821999989
 20
19595.988364000012
 30
0.0
 11
20636.817196999989
 21
19595.988364000012
 31
0.0
  0
LINE
  5
2F9E
  8
2-0
  6
CONTINUOUS
 62
     3
 10
20636.817196999989
 20
19595.988364000012
 30
0.0
 11
20636.817196999989
 21
19710.984537000011
 31
0.0
  0
LINE
  5
2F9F
  8
2-0
  6
CONTINUOUS
 62
     3
 10
20636.817196999989
 20
19625.987968000001
 30
0.0
 11
20717.815138000002
 21
19625.987968000001
 31
0.0
  0
LINE
  5
2FA0
  8
2-0
  6
CONTINUOUS
 62
     3
 10
20666.814821999989
 20
19585.690908
 30
0.0
 11
20636.817196999989
 21
19585.690908
 31
0.0
  0
LINE
  5
2FA1
  8
2-0
  6
CONTINUOUS
 62
     3
 10
20666.814821999989
 20
19603.692650000001
 30
0.0
 11
20666.814821999989
 21
19585.690908
 31
0.0
  0
LINE
  5
2FA2
  8
2-0
  6
CONTINUOUS
 62
     3
 10
20641.821419999989
 20
19603.692650000001
 30
0.0
 11
20666.814821999989
 21
19603.692650000001
 31
0.0
  0
LINE
  5
2FA3
  8
2-0
  6
CONTINUOUS
 62
     3
 10
20641.821419999989
 20
19598.68446800001
 30
0.0
 11
20641.821419999989
 21
19603.692650000001
 31
0.0
  0
LINE
  5
2FA4
  8
2-0
  6
CONTINUOUS
 62
     3
 10
20648.819017999969
 20
19598.68446800001
 30
0.0
 11
20641.821419999989
 21
19598.68446800001
 31
0.0
  0
LINE
  5
2FA5
  8
2-0
  6
CONTINUOUS
 62
     3
 10
20648.819017999969
 20
18894.887645499992
 30
0.0
 11
20641.821419999989
 21
18894.887645499992
 31
0.0
  0
LINE
  5
2FA6
  8
2-0
  6
CONTINUOUS
 62
     3
 10
20641.821419999989
 20
18894.887645499992
 30
0.0
 11
20641.821419999989
 21
18899.887909500001
 31
0.0
  0
LINE
  5
2FA7
  8
2-0
  6
CONTINUOUS
 62
     3
 10
20641.821419999989
 20
18899.887909500001
 30
0.0
 11
20666.814821999989
 21
18899.887909500001
 31
0.0
  0
LINE
  5
2FA8
  8
2-0
  6
CONTINUOUS
 62
     3
 10
20666.814821999989
 20
18899.887909500001
 30
0.0
 11
20666.814821999989
 21
18881.892105499981
 31
0.0
  0
LINE
  5
2FA9
  8
2-0
  6
CONTINUOUS
 62
     3
 10
20666.814821999989
 20
18881.892105499981
 30
0.0
 11
20636.817196999989
 21
18881.892105499981
 31
0.0
  0
LINE
  5
2FAA
  8
2-0
  6
CONTINUOUS
 62
     3
 10
20666.814821999989
 20
18897.98361249996
 30
0.0
 11
20666.814821999989
 21
18891.985671499991
 31
0.0
  0
LINE
  5
2FAB
  8
2-0
  6
CONTINUOUS
 62
     3
 10
20666.814821999989
 20
18891.985671499991
 30
0.0
 11
20636.817196999989
 21
18891.985671499991
 31
0.0
  0
LINE
  5
2FAC
  8
2-0
  6
CONTINUOUS
 62
     3
 10
20636.817196999989
 20
18891.985671499991
 30
0.0
 11
20636.817196999989
 21
18928.986832499992
 31
0.0
  0
LINE
  5
2FAD
  8
2-0
  6
CONTINUOUS
 62
     3
 10
20666.814821999989
 20
18928.986832499992
 30
0.0
 11
20636.817196999989
 21
18928.986832499992
 31
0.0
  0
LINE
  5
2FAE
  8
2-0
  6
CONTINUOUS
 62
     3
 10
20666.814821999989
 20
18922.982952499991
 30
0.0
 11
20666.814821999989
 21
18928.986832499992
 31
0.0
  0
LINE
  5
2FAF
  8
2-0
  6
CONTINUOUS
 62
     3
 10
20666.814821999989
 20
18939.082377499981
 30
0.0
 11
20636.817196999989
 21
18939.082377499981
 31
0.0
  0
LINE
  5
2FB0
  8
2-0
  6
CONTINUOUS
 62
     3
 10
20666.814821999989
 20
18921.080635499999
 30
0.0
 11
20666.814821999989
 21
18939.082377499981
 31
0.0
  0
LINE
  5
2FB1
  8
2-0
  6
CONTINUOUS
 62
     3
 10
20641.821419999989
 20
18921.080635499999
 30
0.0
 11
20666.814821999989
 21
18921.080635499999
 31
0.0
  0
LINE
  5
2FB2
  8
2-0
  6
CONTINUOUS
 62
     3
 10
20641.821419999989
 20
18926.080899499979
 30
0.0
 11
20641.821419999989
 21
18921.080635499999
 31
0.0
  0
LINE
  5
2FB3
  8
2-0
  6
CONTINUOUS
 62
     3
 10
20648.819017999969
 20
18926.080899499979
 30
0.0
 11
20641.821419999989
 21
18926.080899499979
 31
0.0
  0
LINE
  5
2FB4
  8
2-0
  6
CONTINUOUS
 62
     3
 10
20648.819017999969
 20
18193.886655999999
 30
0.0
 11
20641.821419999989
 21
18193.886655999999
 31
0.0
  0
LINE
  5
2FB5
  8
2-0
  6
CONTINUOUS
 62
     3
 10
20641.821419999989
 20
18193.886655999999
 30
0.0
 11
20641.821419999989
 21
18198.892857999999
 31
0.0
  0
LINE
  5
2FB6
  8
2-0
  6
CONTINUOUS
 62
     3
 10
20641.821419999989
 20
18198.892857999999
 30
0.0
 11
20666.814821999989
 21
18198.892857999999
 31
0.0
  0
LINE
  5
2FB7
  8
2-0
  6
CONTINUOUS
 62
     3
 10
20666.814821999989
 20
18198.892857999999
 30
0.0
 11
20666.814821999989
 21
18180.891115999992
 31
0.0
  0
LINE
  5
2FB8
  8
2-0
  6
CONTINUOUS
 62
     3
 10
20666.814821999989
 20
18180.891115999992
 30
0.0
 11
20636.817196999989
 21
18180.891115999992
 31
0.0
  0
LINE
  5
2FB9
  8
2-0
  6
CONTINUOUS
 62
     3
 10
20666.814821999989
 20
18196.982622999982
 30
0.0
 11
20666.814821999989
 21
18190.986660999992
 31
0.0
  0
LINE
  5
2FBA
  8
2-0
  6
CONTINUOUS
 62
     3
 10
20666.814821999989
 20
18190.986660999992
 30
0.0
 11
20636.817196999989
 21
18190.986660999992
 31
0.0
  0
LINE
  5
2FBB
  8
2-0
  6
CONTINUOUS
 62
     3
 10
20636.817196999989
 20
18190.986660999992
 30
0.0
 11
20636.817196999989
 21
18227.985842999991
 31
0.0
  0
LINE
  5
2FBC
  8
2-0
  6
CONTINUOUS
 62
     3
 10
20666.814821999989
 20
18227.985842999991
 30
0.0
 11
20636.817196999989
 21
18227.985842999991
 31
0.0
  0
LINE
  5
2FBD
  8
2-0
  6
CONTINUOUS
 62
     3
 10
20666.814821999989
 20
18221.989881000001
 30
0.0
 11
20666.814821999989
 21
18227.985842999991
 31
0.0
  0
LINE
  5
2FBE
  8
2-0
  6
CONTINUOUS
 62
     3
 10
20666.814821999989
 20
18238.081387999999
 30
0.0
 11
20636.817196999989
 21
18238.081387999999
 31
0.0
  0
LINE
  5
2FBF
  8
2-0
  6
CONTINUOUS
 62
     3
 10
20666.814821999989
 20
18220.079645999991
 30
0.0
 11
20666.814821999989
 21
18238.081387999999
 31
0.0
  0
LINE
  5
2FC0
  8
2-0
  6
CONTINUOUS
 62
     3
 10
20641.821419999989
 20
18220.079645999991
 30
0.0
 11
20666.814821999989
 21
18220.079645999991
 31
0.0
  0
LINE
  5
2FC1
  8
2-0
  6
CONTINUOUS
 62
     3
 10
20641.821419999989
 20
18225.085847999992
 30
0.0
 11
20641.821419999989
 21
18220.079645999991
 31
0.0
  0
LINE
  5
2FC2
  8
2-0
  6
CONTINUOUS
 62
     3
 10
20648.819017999969
 20
18225.085847999992
 30
0.0
 11
20641.821419999989
 21
18225.085847999992
 31
0.0
  0
LINE
  5
2FC3
  8
2-0
  6
CONTINUOUS
 62
     3
 10
20648.819017999969
 20
17524.079909999989
 30
0.0
 11
20641.821419999989
 21
17524.079909999989
 31
0.0
  0
LINE
  5
2FC4
  8
2-0
  6
CONTINUOUS
 62
     3
 10
20641.821419999989
 20
17524.079909999989
 30
0.0
 11
20641.821419999989
 21
17519.091522999999
 31
0.0
  0
LINE
  5
2FC5
  8
2-0
  6
CONTINUOUS
 62
     3
 10
20641.821419999989
 20
17519.091522999999
 30
0.0
 11
20666.814821999989
 21
17519.091522999999
 31
0.0
  0
LINE
  5
2FC6
  8
2-0
  6
CONTINUOUS
 62
     3
 10
20666.814821999989
 20
17519.091522999999
 30
0.0
 11
20666.814821999989
 21
17537.08732599999
 31
0.0
  0
LINE
  5
2FC7
  8
2-0
  6
CONTINUOUS
 62
     3
 10
20666.814821999989
 20
17537.08732599999
 30
0.0
 11
20636.817196999989
 21
17537.08732599999
 31
0.0
  0
LINE
  5
2FC8
  8
2-0
  6
CONTINUOUS
 62
     3
 10
20666.814821999989
 20
17520.989881000001
 30
0.0
 11
20666.814821999989
 21
17526.985842999991
 31
0.0
  0
LINE
  5
2FC9
  8
2-0
  6
CONTINUOUS
 62
     3
 10
20666.814821999989
 20
17526.985842999991
 30
0.0
 11
20636.817196999989
 21
17526.985842999991
 31
0.0
  0
LINE
  5
2FCA
  8
2-0
  6
CONTINUOUS
 62
     3
 10
20636.817196999989
 20
17526.985842999991
 30
0.0
 11
20636.817196999989
 21
17489.986660999992
 31
0.0
  0
LINE
  5
2FCB
  8
2-0
  6
CONTINUOUS
 62
     3
 10
20666.814821999989
 20
17489.986660999992
 30
0.0
 11
20636.817196999989
 21
17489.986660999992
 31
0.0
  0
LINE
  5
2FCC
  8
2-0
  6
CONTINUOUS
 62
     3
 10
20666.814821999989
 20
17495.988561999991
 30
0.0
 11
20666.814821999989
 21
17489.986660999992
 31
0.0
  0
LINE
  5
2FCD
  8
2-0
  6
CONTINUOUS
 62
     3
 10
20666.814821999989
 20
17479.897055000001
 30
0.0
 11
20636.817196999989
 21
17479.897055000001
 31
0.0
  0
LINE
  5
2FCE
  8
2-0
  6
CONTINUOUS
 62
     3
 10
20666.814821999989
 20
17497.892857999981
 30
0.0
 11
20666.814821999989
 21
17479.897055000001
 31
0.0
  0
LINE
  5
2FCF
  8
2-0
  6
CONTINUOUS
 62
     3
 10
20641.821419999989
 20
17497.892857999981
 30
0.0
 11
20666.814821999989
 21
17497.892857999981
 31
0.0
  0
LINE
  5
2FD0
  8
2-0
  6
CONTINUOUS
 62
     3
 10
20641.821419999989
 20
17492.892595000001
 30
0.0
 11
20641.821419999989
 21
17497.892857999981
 31
0.0
  0
LINE
  5
2FD1
  8
2-0
  6
CONTINUOUS
 62
     3
 10
20648.819017999969
 20
17492.892595000001
 30
0.0
 11
20641.821419999989
 21
17492.892595000001
 31
0.0
  0
LINE
  5
2FD2
  8
2-0
  6
CONTINUOUS
 62
     3
 10
20639.703334999991
 20
16772.983480999999
 30
0.0
 11
20639.703334999991
 21
16792.984536
 31
0.0
  0
LINE
  5
2FD3
  8
2-0
  6
CONTINUOUS
 62
     3
 10
20639.703334999991
 20
16792.984536
 30
0.0
 11
20724.703862999999
 21
16792.984536
 31
0.0
  0
LINE
  5
2FD4
  8
2-0
  6
CONTINUOUS
 62
     3
 10
20648.819017999969
 20
16819.591246
 30
0.0
 11
20641.821419999989
 21
16819.591246
 31
0.0
  0
LINE
  5
2FD5
  8
2-0
  6
CONTINUOUS
 62
     3
 10
20641.821419999989
 20
16819.591246
 30
0.0
 11
20641.821419999989
 21
16814.596920000011
 31
0.0
  0
LINE
  5
2FD6
  8
2-0
  6
CONTINUOUS
 62
     3
 10
20641.821419999989
 20
16814.596920000011
 30
0.0
 11
20666.814821999989
 21
16814.596920000011
 31
0.0
  0
LINE
  5
2FD7
  8
2-0
  6
CONTINUOUS
 62
     3
 10
20666.814821999989
 20
16814.596920000011
 30
0.0
 11
20666.814821999989
 21
16832.592723999991
 31
0.0
  0
LINE
  5
2FD8
  8
2-0
  6
CONTINUOUS
 62
     3
 10
20666.814821999989
 20
16832.592723999991
 30
0.0
 11
20636.817196999989
 21
16832.592723999991
 31
0.0
  0
LINE
  5
2FD9
  8
2-0
  6
CONTINUOUS
 62
     3
 10
20666.814821999989
 20
16822.98413999999
 30
0.0
 11
20666.814821999989
 21
16816.982240000001
 31
0.0
  0
LINE
  5
2FDA
  8
2-0
  6
CONTINUOUS
 62
     3
 10
20636.817196999989
 20
16822.98413999999
 30
0.0
 11
20666.814821999989
 21
16822.98413999999
 31
0.0
  0
LINE
  5
2FDB
  8
2-0
  6
CONTINUOUS
 62
     3
 10
20636.817196999989
 20
16832.592723999991
 30
0.0
 11
20636.817196999989
 21
17479.897055000001
 31
0.0
  0
LINE
  5
2FDC
  8
2-0
  6
CONTINUOUS
 62
     3
 10
20636.817196999989
 20
17537.08732599999
 30
0.0
 11
20636.817196999989
 21
18180.891115999992
 31
0.0
  0
LINE
  5
2FDD
  8
2-0
  6
CONTINUOUS
 62
     3
 10
20636.817196999989
 20
16677.982424999991
 30
0.0
 11
20666.814821999989
 21
16677.982424999991
 31
0.0
  0
LINE
  5
2FDE
  8
2-0
  6
CONTINUOUS
 62
     3
 10
20666.814821999989
 20
16677.982424999991
 30
0.0
 11
20666.814821999989
 21
16683.984325000001
 31
0.0
  0
LINE
  5
2FDF
  8
2-0
  6
CONTINUOUS
 62
     3
 10
20724.703862999999
 20
16707.987968000001
 30
0.0
 11
20639.703334999991
 21
16707.987968000001
 31
0.0
  0
LINE
  5
2FE0
  8
2-0
  6
CONTINUOUS
 62
     3
 10
20639.703334999991
 20
16707.987968000001
 30
0.0
 11
20639.703334999991
 21
16727.983085000011
 31
0.0
  0
LINE
  5
2FE1
  8
2-0
  6
CONTINUOUS
 62
     3
 10
20666.814821999989
 20
16668.373842000012
 30
0.0
 11
20636.817196999989
 21
16668.373842000012
 31
0.0
  0
LINE
  5
2FE2
  8
2-0
  6
CONTINUOUS
 62
     3
 10
20666.814821999989
 20
16686.369644999992
 30
0.0
 11
20666.814821999989
 21
16668.373842000012
 31
0.0
  0
LINE
  5
2FE3
  8
2-0
  6
CONTINUOUS
 62
     3
 10
20641.821419999989
 20
16686.369644999992
 30
0.0
 11
20666.814821999989
 21
16686.369644999992
 31
0.0
  0
LINE
  5
2FE4
  8
2-0
  6
CONTINUOUS
 62
     3
 10
20641.821419999989
 20
16681.369381000011
 30
0.0
 11
20641.821419999989
 21
16686.369644999992
 31
0.0
  0
LINE
  5
2FE5
  8
2-0
  6
CONTINUOUS
 62
     3
 10
20648.819017999969
 20
16681.369381000011
 30
0.0
 11
20641.821419999989
 21
16681.369381000011
 31
0.0
  0
LINE
  5
2FE6
  8
2-0
  6
CONTINUOUS
 62
     3
 10
20648.819017999969
 20
15976.887150499981
 30
0.0
 11
20641.821419999989
 21
15976.887150499981
 31
0.0
  0
LINE
  5
2FE7
  8
2-0
  6
CONTINUOUS
 62
     3
 10
20641.821419999989
 20
15976.887150499981
 30
0.0
 11
20641.821419999989
 21
15981.88741449999
 31
0.0
  0
LINE
  5
2FE8
  8
2-0
  6
CONTINUOUS
 62
     3
 10
20641.821419999989
 20
15981.88741449999
 30
0.0
 11
20666.814821999989
 21
15981.88741449999
 31
0.0
  0
LINE
  5
2FE9
  8
2-0
  6
CONTINUOUS
 62
     3
 10
20666.814821999989
 20
15981.88741449999
 30
0.0
 11
20666.814821999989
 21
15963.88567249999
 31
0.0
  0
LINE
  5
2FEA
  8
2-0
  6
CONTINUOUS
 62
     3
 10
20666.814821999989
 20
15963.88567249999
 30
0.0
 11
20636.817196999989
 21
15963.88567249999
 31
0.0
  0
LINE
  5
2FEB
  8
2-0
  6
CONTINUOUS
 62
     3
 10
20666.814821999989
 20
15979.9831175
 30
0.0
 11
20666.814821999989
 21
15973.986166500001
 31
0.0
  0
LINE
  5
2FEC
  8
2-0
  6
CONTINUOUS
 62
     3
 10
20666.814821999989
 20
15973.986166500001
 30
0.0
 11
20636.817196999989
 21
15973.986166500001
 31
0.0
  0
LINE
  5
2FED
  8
2-0
  6
CONTINUOUS
 62
     3
 10
20636.817196999989
 20
15973.986166500001
 30
0.0
 11
20636.817196999989
 21
16010.9863375
 31
0.0
  0
LINE
  5
2FEE
  8
2-0
  6
CONTINUOUS
 62
     3
 10
20666.814821999989
 20
16010.9863375
 30
0.0
 11
20636.817196999989
 21
16010.9863375
 31
0.0
  0
LINE
  5
2FEF
  8
2-0
  6
CONTINUOUS
 62
     3
 10
20666.814821999989
 20
16004.983447500001
 30
0.0
 11
20666.814821999989
 21
16010.9863375
 31
0.0
  0
LINE
  5
2FF0
  8
2-0
  6
CONTINUOUS
 62
     3
 10
20666.814821999989
 20
16021.08188249999
 30
0.0
 11
20636.817196999989
 21
16021.08188249999
 31
0.0
  0
LINE
  5
2FF1
  8
2-0
  6
CONTINUOUS
 62
     3
 10
20666.814821999989
 20
16003.074201499991
 30
0.0
 11
20666.814821999989
 21
16021.08188249999
 31
0.0
  0
LINE
  5
2FF2
  8
2-0
  6
CONTINUOUS
 62
     3
 10
20641.821419999989
 20
16003.074201499991
 30
0.0
 11
20666.814821999989
 21
16003.074201499991
 31
0.0
  0
LINE
  5
2FF3
  8
2-0
  6
CONTINUOUS
 62
     3
 10
20641.821419999989
 20
16008.0804045
 30
0.0
 11
20641.821419999989
 21
16003.074201499991
 31
0.0
  0
LINE
  5
2FF4
  8
2-0
  6
CONTINUOUS
 62
     3
 10
20648.819017999969
 20
16008.0804045
 30
0.0
 11
20641.821419999989
 21
16008.0804045
 31
0.0
  0
LINE
  5
2FF5
  8
2-0
  6
CONTINUOUS
 62
     3
 10
20648.819017999969
 20
15307.320421
 30
0.0
 11
20641.821419999989
 21
15307.320421
 31
0.0
  0
LINE
  5
2FF6
  8
2-0
  6
CONTINUOUS
 62
     3
 10
20641.821419999989
 20
15307.320421
 30
0.0
 11
20641.821419999989
 21
15302.326096000001
 31
0.0
  0
LINE
  5
2FF7
  8
2-0
  6
CONTINUOUS
 62
     3
 10
20641.821419999989
 20
15302.326096000001
 30
0.0
 11
20666.814821999989
 21
15302.326096000001
 31
0.0
  0
LINE
  5
2FF8
  8
2-0
  6
CONTINUOUS
 62
     3
 10
20666.814821999989
 20
15302.326096000001
 30
0.0
 11
20666.814821999989
 21
15320.32189900001
 31
0.0
  0
LINE
  5
2FF9
  8
2-0
  6
CONTINUOUS
 62
     3
 10
20666.814821999989
 20
15320.32189900001
 30
0.0
 11
20636.817196999989
 21
15320.32189900001
 31
0.0
  0
LINE
  5
2FFA
  8
2-0
  6
CONTINUOUS
 62
     3
 10
20666.814821999989
 20
15304.22445399999
 30
0.0
 11
20666.814821999989
 21
15310.226354
 31
0.0
  0
LINE
  5
2FFB
  8
2-0
  6
CONTINUOUS
 62
     3
 10
20666.814821999989
 20
15310.226354
 30
0.0
 11
20636.817196999989
 21
15310.226354
 31
0.0
  0
LINE
  5
2FFC
  8
2-0
  6
CONTINUOUS
 62
     3
 10
20636.817196999989
 20
15273.22717300001
 30
0.0
 11
20636.817196999989
 21
15310.226354
 31
0.0
  0
LINE
  5
2FFD
  8
2-0
  6
CONTINUOUS
 62
     3
 10
20666.814821999989
 20
15273.22717300001
 30
0.0
 11
20636.817196999989
 21
15273.22717300001
 31
0.0
  0
LINE
  5
2FFE
  8
2-0
  6
CONTINUOUS
 62
     3
 10
20666.814821999989
 20
15279.224124
 30
0.0
 11
20666.814821999989
 21
15273.22717300001
 31
0.0
  0
LINE
  5
2FFF
  8
2-0
  6
CONTINUOUS
 62
     3
 10
20666.814821999989
 20
15263.12568899999
 30
0.0
 11
20636.817196999989
 21
15263.12568899999
 31
0.0
  0
LINE
  5
3000
  8
2-0
  6
CONTINUOUS
 62
     3
 10
20666.814821999989
 20
15281.13336999999
 30
0.0
 11
20666.814821999989
 21
15263.12568899999
 31
0.0
  0
LINE
  5
3001
  8
2-0
  6
CONTINUOUS
 62
     3
 10
20641.821419999989
 20
15281.13336999999
 30
0.0
 11
20666.814821999989
 21
15281.13336999999
 31
0.0
  0
LINE
  5
3002
  8
2-0
  6
CONTINUOUS
 62
     3
 10
20641.821419999989
 20
15276.133106000019
 30
0.0
 11
20641.821419999989
 21
15281.13336999999
 31
0.0
  0
LINE
  5
3003
  8
2-0
  6
CONTINUOUS
 62
     3
 10
20648.819017999969
 20
15276.133106000019
 30
0.0
 11
20641.821419999989
 21
15276.133106000019
 31
0.0
  0
LINE
  5
3004
  8
2-0
  6
CONTINUOUS
 62
     3
 10
20636.817196999989
 20
16668.373842000012
 30
0.0
 11
20636.817196999989
 21
16021.08188249999
 31
0.0
  0
LINE
  5
3005
  8
2-0
  6
CONTINUOUS
 62
     3
 10
20636.817196999989
 20
16822.98413999999
 30
0.0
 11
20636.817196999989
 21
16677.982424999991
 31
0.0
  0
LINE
  5
3006
  8
2-0
  6
CONTINUOUS
 62
     3
 10
20724.703862999999
 20
16792.984536
 30
0.0
 11
20724.703862999999
 21
16707.987968000001
 31
0.0
  0
LINE
  5
3007
  8
2-0
  6
CONTINUOUS
 62
     3
 10
20648.819017999969
 20
14574.892099000001
 30
0.0
 11
20641.821419999989
 21
14574.892099000001
 31
0.0
  0
LINE
  5
3008
  8
2-0
  6
CONTINUOUS
 62
     3
 10
20641.821419999989
 20
14574.892099000001
 30
0.0
 11
20641.821419999989
 21
14579.88642500001
 31
0.0
  0
LINE
  5
3009
  8
2-0
  6
CONTINUOUS
 62
     3
 10
20641.821419999989
 20
14579.88642500001
 30
0.0
 11
20666.814821999989
 21
14579.88642500001
 31
0.0
  0
LINE
  5
300A
  8
2-0
  6
CONTINUOUS
 62
     3
 10
20666.814821999989
 20
14579.88642500001
 30
0.0
 11
20666.814821999989
 21
14561.890621
 31
0.0
  0
LINE
  5
300B
  8
2-0
  6
CONTINUOUS
 62
     3
 10
20666.814821999989
 20
14561.890621
 30
0.0
 11
20636.817196999989
 21
14561.890621
 31
0.0
  0
LINE
  5
300C
  8
2-0
  6
CONTINUOUS
 62
     3
 10
20666.814821999989
 20
14577.989056
 30
0.0
 11
20666.814821999989
 21
14571.98616600001
 31
0.0
  0
LINE
  5
300D
  8
2-0
  6
CONTINUOUS
 62
     3
 10
20666.814821999989
 20
14571.98616600001
 30
0.0
 11
20636.817196999989
 21
14571.98616600001
 31
0.0
  0
LINE
  5
300E
  8
2-0
  6
CONTINUOUS
 62
     3
 10
20636.817196999989
 20
14571.98616600001
 30
0.0
 11
20636.817196999989
 21
14608.986337999981
 31
0.0
  0
LINE
  5
300F
  8
2-0
  6
CONTINUOUS
 62
     3
 10
20666.814821999989
 20
14608.986337999981
 30
0.0
 11
20636.817196999989
 21
14608.986337999981
 31
0.0
  0
LINE
  5
3010
  8
2-0
  6
CONTINUOUS
 62
     3
 10
20666.814821999989
 20
14602.989385999999
 30
0.0
 11
20666.814821999989
 21
14608.986337999981
 31
0.0
  0
LINE
  5
3011
  8
2-0
  6
CONTINUOUS
 62
     3
 10
20666.814821999989
 20
14619.086831000001
 30
0.0
 11
20636.817196999989
 21
14619.086831000001
 31
0.0
  0
LINE
  5
3012
  8
2-0
  6
CONTINUOUS
 62
     3
 10
20666.814821999989
 20
14601.08014
 30
0.0
 11
20666.814821999989
 21
14619.086831000001
 31
0.0
  0
LINE
  5
3013
  8
2-0
  6
CONTINUOUS
 62
     3
 10
20641.821419999989
 20
14601.08014
 30
0.0
 11
20666.814821999989
 21
14601.08014
 31
0.0
  0
LINE
  5
3014
  8
2-0
  6
CONTINUOUS
 62
     3
 10
20641.821419999989
 20
14606.085353
 30
0.0
 11
20641.821419999989
 21
14601.08014
 31
0.0
  0
LINE
  5
3015
  8
2-0
  6
CONTINUOUS
 62
     3
 10
20648.819017999969
 20
14606.085353
 30
0.0
 11
20641.821419999989
 21
14606.085353
 31
0.0
  0
LINE
  5
3016
  8
2-0
  6
CONTINUOUS
 62
     3
 10
20666.814821999989
 20
13898.988179
 30
0.0
 11
20666.814821999989
 21
13904.993047999989
 31
0.0
  0
LINE
  5
3017
  8
2-0
  6
CONTINUOUS
 62
     3
 10
20666.814821999989
 20
13904.993047999989
 30
0.0
 11
20636.817196999989
 21
13904.993047999989
 31
0.0
  0
LINE
  5
3018
  8
2-0
  6
CONTINUOUS
 62
     3
 10
20636.817196999989
 20
13904.993047999989
 30
0.0
 11
20636.817196999989
 21
13789.988957
 31
0.0
  0
LINE
  5
3019
  8
2-0
  6
CONTINUOUS
 62
     3
 10
20636.817196999989
 20
13789.988957
 30
0.0
 11
20721.815744999989
 21
13789.988957
 31
0.0
  0
LINE
  5
301A
  8
2-0
  6
CONTINUOUS
 62
     3
 10
20721.815744999989
 20
13789.988957
 30
0.0
 11
20721.815744999989
 21
13874.984536
 31
0.0
  0
LINE
  5
301B
  8
2-0
  6
CONTINUOUS
 62
     3
 10
20721.815744999989
 20
13874.984536
 30
0.0
 11
20689.818806999981
 21
13874.984536
 31
0.0
  0
LINE
  5
301C
  8
2-0
  6
CONTINUOUS
 62
     3
 10
20648.819017999969
 20
13902.022781
 30
0.0
 11
20641.821419999989
 21
13902.022781
 31
0.0
  0
LINE
  5
301D
  8
2-0
  6
CONTINUOUS
 62
     3
 10
20641.821419999989
 20
13902.022781
 30
0.0
 11
20641.821419999989
 21
13897.02548599998
 31
0.0
  0
LINE
  5
301E
  8
2-0
  6
CONTINUOUS
 62
     3
 10
20641.821419999989
 20
13897.02548599998
 30
0.0
 11
20666.814821999989
 21
13897.02548599998
 31
0.0
  0
LINE
  5
301F
  8
2-0
  6
CONTINUOUS
 62
     3
 10
20666.814821999989
 20
13897.02548599998
 30
0.0
 11
20666.814821999989
 21
13915.024258999991
 31
0.0
  0
LINE
  5
3020
  8
2-0
  6
CONTINUOUS
 62
     3
 10
20666.814821999989
 20
13915.024258999991
 30
0.0
 11
20636.817196999989
 21
13915.024258999991
 31
0.0
  0
LINE
  5
3021
  8
2-0
  6
CONTINUOUS
 62
     3
 10
20636.817196999989
 20
14619.086831000001
 30
0.0
 11
20636.817196999989
 21
15263.12568899999
 31
0.0
  0
LINE
  5
3022
  8
2-0
  6
CONTINUOUS
 62
     3
 10
20636.817196999989
 20
18238.081387999999
 30
0.0
 11
20636.817196999989
 21
18881.892105499981
 31
0.0
  0
LINE
  5
3023
  8
2-0
  6
CONTINUOUS
 62
     3
 10
20727.819625
 20
18166.984997999982
 30
0.0
 11
20680.815955999991
 21
18166.984997999982
 31
0.0
  0
LINE
  5
3024
  8
2-0
  6
CONTINUOUS
 62
     3
 10
20680.815955999991
 20
18251.985526
 30
0.0
 11
20727.819625
 21
18251.985526
 31
0.0
  0
LINE
  5
3025
  8
2-0
  6
CONTINUOUS
 62
     3
 10
20680.815955999991
 20
18166.984997999982
 30
0.0
 11
20680.815955999991
 21
18191.988297
 31
0.0
  0
LINE
  5
3026
  8
2-0
  6
CONTINUOUS
 62
     3
 10
20680.815955999991
 20
18226.984206000001
 30
0.0
 11
20680.815955999991
 21
18251.985526
 31
0.0
  0
LINE
  5
3027
  8
2-0
  6
CONTINUOUS
 62
     3
 10
20727.819625
 20
18251.985526
 30
0.0
 11
20727.819625
 21
18166.984997999982
 31
0.0
  0
LINE
  5
3028
  8
2-0
  6
CONTINUOUS
 62
     3
 10
20636.817196999989
 20
15963.88567249999
 30
0.0
 11
20636.817196999989
 21
15320.32189900001
 31
0.0
  0
LINE
  5
3029
  8
2-0
  6
CONTINUOUS
 62
     3
 10
23990.311785999991
 20
19595.988364000012
 30
0.0
 11
23990.311785999991
 21
19710.984537000011
 31
0.0
  0
LINE
  5
302A
  8
2-0
  6
CENTER2
 62
     6
 10
19349.858924999979
 20
19668.486251999992
 30
0.0
 11
24840.313105999991
 21
19668.486251999992
 31
0.0
  0
LINE
  5
302B
  8
2-0
  6
CENTER2
 62
     6
 10
19349.858924999979
 20
16750.486251999992
 30
0.0
 11
24840.313105999991
 21
16750.486251999992
 31
0.0
  0
LINE
  5
302C
  8
2-0
  6
CENTER2
 62
     6
 10
19349.858924999979
 20
13832.486252000001
 30
0.0
 11
24840.313105999991
 21
13832.486252000001
 31
0.0
  0
LINE
  5
302D
  8
2-0
  6
CONTINUOUS
 62
     3
 10
20636.817196999989
 20
19625.987968000001
 30
0.0
 11
23909.309885999981
 21
19625.987968000001
 31
0.0
  0
LINE
  5
302E
  8
2-0
  6
CONTINUOUS
 62
     3
 10
20636.817196999989
 20
13915.024258999991
 30
0.0
 11
20636.817196999989
 21
14561.890621
 31
0.0
  0
LINE
  5
302F
  8
2-0
  6
CENTER2
 62
     6
 10
20679.313502000001
 20
20910.984537000018
 30
0.0
 11
20679.313502000001
 21
13206.722818
 31
0.0
  0
LINE
  5
3030
  8
2-0
  6
CENTER2
 62
     6
 10
23947.813502000001
 20
20910.984537000018
 30
0.0
 11
23947.813502000001
 21
13206.722818
 31
0.0
  0
LINE
  5
3031
  8
2-0
  6
CONTINUOUS
 62
     3
 10
23990.311785999991
 20
19585.690908
 30
0.0
 11
23990.311785999991
 21
18939.082377499992
 31
0.0
  0
LINE
  5
3032
  8
2-0
  6
CONTINUOUS
 62
     3
 10
20636.817196999989
 20
19585.690908
 30
0.0
 11
20636.817196999989
 21
18939.082377499981
 31
0.0
  0
LINE
  5
3033
  8
2-0
  6
CONTINUOUS
 62
     3
 10
20717.815138000002
 20
13874.984536
 30
0.0
 11
20717.815138000002
 21
19710.984537000011
 31
0.0
  0
LINE
  5
3034
  8
2-0
  6
CONTINUOUS
 62
     3
 10
23909.309885999981
 20
13874.984536
 30
0.0
 11
23909.309885999981
 21
19710.984537000011
 31
0.0
  0
CIRCLE
  5
3035
  8
2-0
  6
CONTINUOUS
 62
     4
 10
19149.861235
 20
19668.486251999992
 30
0.0
 40
200.00001
  0
CIRCLE
  5
3036
  8
2-0
  6
CONTINUOUS
 62
     4
 10
19149.861235
 20
16750.486251999992
 30
0.0
 40
200.00001
  0
CIRCLE
  5
3037
  8
2-0
  6
CONTINUOUS
 62
     4
 10
19149.861235
 20
13832.486252000001
 30
0.0
 40
200.00001
  0
CIRCLE
  5
3038
  8
2-0
  6
CONTINUOUS
 62
     4
 10
20679.313502000001
 20
21110.989156000011
 30
0.0
 40
200.00001
  0
TEXT
  5
3039
  8
2-0
  6
CONTINUOUS
 62
     7
 10
22344.65880899999
 20
13272.487373999989
 30
0.0
 40
160.0
  1
前柱（右）
 50
0.000213
 72
     4
 11
22760.65851159301
 21
13352.48892050078
 31
0.0
  0
TEXT
  5
303A
  8
2-0
  6
CONTINUOUS
 62
     7
 10
22549.253931999989
 20
16200.97939000001
 30
0.0
 40
160.0
  1
壁パネル
 50
359.99982299999999
 72
     4
 11
22911.92084580355
 21
16280.978269637881
 31
0.0
  0
TEXT
  5
303B
  8
2-0
  6
CONTINUOUS
 62
     7
 10
22269.251027999981
 20
17038.167286000022
 30
0.0
 40
160.0
  1
中柱（左右）
 50
0.000354
 72
     4
 11
22786.583867046189
 21
17118.170482324669
 31
0.0
  0
TEXT
  5
303C
  8
2-0
  6
CONTINUOUS
 62
     7
 10
22949.25327199998
 20
14245.52863999999
 30
0.0
 40
160.0
  1
下枠
 50
0.001063
 72
     4
 11
23119.918454409279
 21
14325.531806339281
 31
0.0
  0
TEXT
  5
303D
  8
2-0
  6
CONTINUOUS
 62
     7
 10
22444.218696
 20
18641.436024499992
 30
0.0
 40
160.0
  1
間柱（側）
 72
     4
 11
22865.552029333328
 21
18721.436024499992
 31
0.0
  0
TEXT
  5
303E
  8
2-0
  6
CONTINUOUS
 62
     7
 10
24762.809014999992
 20
20520.983745000009
 30
0.0
 40
160.0
  1
後柱（左右）
 50
0.000354
 72
     4
 11
25274.80852071297
 21
20600.986908372841
 31
0.0
  0
TEXT
  5
303F
  8
2-0
  6
CONTINUOUS
 62
     7
 10
19101.861867999971
 20
19574.005810000021
 30
0.0
 40
160.0
  1
C
 72
     4
 11
19155.195201333299
 21
19654.005810000021
 31
0.0
  0
TEXT
  5
3040
  8
2-0
  6
CONTINUOUS
 62
     7
 10
19102.082583999982
 20
16680.092170000022
 30
0.0
 40
160.0
  1
B
 72
     4
 11
19155.415917333321
 21
16760.092170000022
 31
0.0
  0
TEXT
  5
3041
  8
2-0
  6
CONTINUOUS
 62
     7
 10
19102.125143999991
 20
13743.879041
 30
0.0
 40
160.0
  1
A
 72
     4
 11
19155.458477333319
 21
13823.879041
 31
0.0
  0
TEXT
  5
3042
  8
2-0
  6
CONTINUOUS
 62
     7
 10
20635.106892999989
 20
21022.221604000009
 30
0.0
 40
160.0
  1
1
 72
     4
 11
20661.773559666661
 21
21102.221604000009
 31
0.0
  0
LINE
  5
3043
  8
2-0
  6
CONTINUOUS
 62
     3
 10
23208.314082999968
 20
19710.984537000011
 30
0.0
 11
23171.312921000001
 21
19710.984537000011
 31
0.0
  0
LINE
  5
3044
  8
2-0
  6
CONTINUOUS
 62
     3
 10
23208.314082999968
 20
19680.980973999998
 30
0.0
 11
23208.314082999968
 21
19710.984537000011
 31
0.0
  0
LINE
  5
3045
  8
2-0
  6
CONTINUOUS
 62
     3
 10
23202.31416199997
 20
19680.980973999998
 30
0.0
 11
23208.314082999968
 21
19680.980973999998
 31
0.0
  0
LINE
  5
3046
  8
2-0
  6
CONTINUOUS
 62
     3
 10
23218.411606999998
 20
19680.980973999998
 30
0.0
 11
23218.411606999998
 21
19710.984537000011
 31
0.0
  0
LINE
  5
3047
  8
2-0
  6
CONTINUOUS
 62
     3
 10
23200.407886000001
 20
19680.980973999998
 30
0.0
 11
23218.411606999998
 21
19680.980973999998
 31
0.0
  0
LINE
  5
3048
  8
2-0
  6
CONTINUOUS
 62
     3
 10
23200.407886000001
 20
19705.990211000011
 30
0.0
 11
23200.407886000001
 21
19680.980973999998
 31
0.0
  0
LINE
  5
3049
  8
2-0
  6
CONTINUOUS
 62
     3
 10
23205.408149999999
 20
19705.990211000011
 30
0.0
 11
23200.407886000001
 21
19705.990211000011
 31
0.0
  0
LINE
  5
304A
  8
2-0
  6
CONTINUOUS
 62
     3
 10
23205.408149999999
 20
19698.984695000021
 30
0.0
 11
23205.408149999999
 21
19705.990211000011
 31
0.0
  0
LINE
  5
304B
  8
2-0
  6
CONTINUOUS
 62
     3
 10
23174.218854999981
 20
19698.984695000021
 30
0.0
 11
23174.218854999981
 21
19705.990211000011
 31
0.0
  0
LINE
  5
304C
  8
2-0
  6
CONTINUOUS
 62
     3
 10
23174.218854999981
 20
19705.990211000011
 30
0.0
 11
23179.219119000001
 21
19705.990211000011
 31
0.0
  0
LINE
  5
304D
  8
2-0
  6
CONTINUOUS
 62
     3
 10
23179.219119000001
 20
19705.990211000011
 30
0.0
 11
23179.219119000001
 21
19680.980973999998
 31
0.0
  0
LINE
  5
304E
  8
2-0
  6
CONTINUOUS
 62
     3
 10
23179.219119000001
 20
19680.980973999998
 30
0.0
 11
23161.219356000001
 21
19680.980973999998
 31
0.0
  0
LINE
  5
304F
  8
2-0
  6
CONTINUOUS
 62
     3
 10
23161.219356000001
 20
19680.980973999998
 30
0.0
 11
23161.219356000001
 21
19710.984537000011
 31
0.0
  0
LINE
  5
3050
  8
2-0
  6
CONTINUOUS
 62
     3
 10
23177.312841999981
 20
19680.980973999998
 30
0.0
 11
23171.312921000001
 21
19680.980973999998
 31
0.0
  0
LINE
  5
3051
  8
2-0
  6
CONTINUOUS
 62
     3
 10
23171.312921000001
 20
19680.980973999998
 30
0.0
 11
23171.312921000001
 21
19710.984537000011
 31
0.0
  0
LINE
  5
3052
  8
2-0
  6
CONTINUOUS
 62
     3
 10
21803.403200500001
 20
19698.984695000021
 30
0.0
 11
21803.403200500001
 21
19705.990211000011
 31
0.0
  0
LINE
  5
3053
  8
2-0
  6
CONTINUOUS
 62
     3
 10
21803.403200500001
 20
19705.990211000011
 30
0.0
 11
21798.402936499991
 21
19705.990211000011
 31
0.0
  0
LINE
  5
3054
  8
2-0
  6
CONTINUOUS
 62
     3
 10
21798.402936499991
 20
19705.990211000011
 30
0.0
 11
21798.402936499991
 21
19680.980973999998
 31
0.0
  0
LINE
  5
3055
  8
2-0
  6
CONTINUOUS
 62
     3
 10
21798.402936499991
 20
19680.980973999998
 30
0.0
 11
21816.408637500001
 21
19680.980973999998
 31
0.0
  0
LINE
  5
3056
  8
2-0
  6
CONTINUOUS
 62
     3
 10
21816.408637500001
 20
19680.980973999998
 30
0.0
 11
21816.408637500001
 21
19710.984537000011
 31
0.0
  0
LINE
  5
3057
  8
2-0
  6
CONTINUOUS
 62
     3
 10
21800.31119249999
 20
19680.980973999998
 30
0.0
 11
21806.313092499979
 21
19680.980973999998
 31
0.0
  0
LINE
  5
3058
  8
2-0
  6
CONTINUOUS
 62
     3
 10
21806.313092499979
 20
19680.980973999998
 30
0.0
 11
21806.313092499979
 21
19710.984537000011
 31
0.0
  0
LINE
  5
3059
  8
2-0
  6
CONTINUOUS
 62
     3
 10
21769.31391149999
 20
19710.984537000011
 30
0.0
 11
21806.313092499979
 21
19710.984537000011
 31
0.0
  0
LINE
  5
305A
  8
2-0
  6
CONTINUOUS
 62
     3
 10
21769.31391149999
 20
19680.980973999998
 30
0.0
 11
21769.31391149999
 21
19710.984537000011
 31
0.0
  0
LINE
  5
305B
  8
2-0
  6
CONTINUOUS
 62
     3
 10
21775.30789349999
 20
19680.980973999998
 30
0.0
 11
21769.31391149999
 21
19680.980973999998
 31
0.0
  0
LINE
  5
305C
  8
2-0
  6
CONTINUOUS
 62
     3
 10
21759.218366500001
 20
19680.980973999998
 30
0.0
 11
21759.218366500001
 21
19710.984537000011
 31
0.0
  0
LINE
  5
305D
  8
2-0
  6
CONTINUOUS
 62
     3
 10
21777.214169499981
 20
19680.980973999998
 30
0.0
 11
21759.218366500001
 21
19680.980973999998
 31
0.0
  0
LINE
  5
305E
  8
2-0
  6
CONTINUOUS
 62
     3
 10
21777.214169499981
 20
19705.990211000011
 30
0.0
 11
21777.214169499981
 21
19680.980973999998
 31
0.0
  0
LINE
  5
305F
  8
2-0
  6
CONTINUOUS
 62
     3
 10
21772.21390549999
 20
19705.990211000011
 30
0.0
 11
21777.214169499981
 21
19705.990211000011
 31
0.0
  0
LINE
  5
3060
  8
2-0
  6
CONTINUOUS
 62
     3
 10
21772.21390549999
 20
19698.984695000021
 30
0.0
 11
21772.21390549999
 21
19705.990211000011
 31
0.0
  0
LINE
  5
3061
  8
2-0
  6
CONTINUOUS
 62
     3
 10
22473.21291649999
 20
19698.984695000021
 30
0.0
 11
22473.21291649999
 21
19705.990211000011
 31
0.0
  0
LINE
  5
3062
  8
2-0
  6
CONTINUOUS
 62
     3
 10
22473.21291649999
 20
19705.990211000011
 30
0.0
 11
22478.213179499999
 21
19705.990211000011
 31
0.0
  0
LINE
  5
3063
  8
2-0
  6
CONTINUOUS
 62
     3
 10
22478.213179499999
 20
19705.990211000011
 30
0.0
 11
22478.213179499999
 21
19680.980973999998
 31
0.0
  0
LINE
  5
3064
  8
2-0
  6
CONTINUOUS
 62
     3
 10
22478.213179499999
 20
19680.980973999998
 30
0.0
 11
22460.219356499991
 21
19680.980973999998
 31
0.0
  0
LINE
  5
3065
  8
2-0
  6
CONTINUOUS
 62
     3
 10
22460.219356499991
 20
19680.980973999998
 30
0.0
 11
22460.219356499991
 21
19710.984537000011
 31
0.0
  0
LINE
  5
3066
  8
2-0
  6
CONTINUOUS
 62
     3
 10
22476.31086249997
 20
19680.980973999998
 30
0.0
 11
22470.31292149999
 21
19680.980973999998
 31
0.0
  0
LINE
  5
3067
  8
2-0
  6
CONTINUOUS
 62
     3
 10
22470.31292149999
 20
19680.980973999998
 30
0.0
 11
22470.31292149999
 21
19710.984537000011
 31
0.0
  0
LINE
  5
3068
  8
2-0
  6
CONTINUOUS
 62
     3
 10
22507.314082500001
 20
19710.984537000011
 30
0.0
 11
22470.31292149999
 21
19710.984537000011
 31
0.0
  0
LINE
  5
3069
  8
2-0
  6
CONTINUOUS
 62
     3
 10
22507.314082500001
 20
19680.980973999998
 30
0.0
 11
22507.314082500001
 21
19710.984537000011
 31
0.0
  0
LINE
  5
306A
  8
2-0
  6
CONTINUOUS
 62
     3
 10
22501.3082235
 20
19680.980973999998
 30
0.0
 11
22507.314082500001
 21
19680.980973999998
 31
0.0
  0
LINE
  5
306B
  8
2-0
  6
CONTINUOUS
 62
     3
 10
22517.4076475
 20
19680.980973999998
 30
0.0
 11
22517.4076475
 21
19710.984537000011
 31
0.0
  0
LINE
  5
306C
  8
2-0
  6
CONTINUOUS
 62
     3
 10
22499.411844499991
 20
19680.980973999998
 30
0.0
 11
22517.4076475
 21
19680.980973999998
 31
0.0
  0
LINE
  5
306D
  8
2-0
  6
CONTINUOUS
 62
     3
 10
22499.411844499991
 20
19705.990211000011
 30
0.0
 11
22499.411844499991
 21
19680.980973999998
 31
0.0
  0
LINE
  5
306E
  8
2-0
  6
CONTINUOUS
 62
     3
 10
22504.4022105
 20
19705.990211000011
 30
0.0
 11
22499.411844499991
 21
19705.990211000011
 31
0.0
  0
LINE
  5
306F
  8
2-0
  6
CONTINUOUS
 62
     3
 10
22504.4022105
 20
19698.984695000021
 30
0.0
 11
22504.4022105
 21
19705.990211000011
 31
0.0
  0
LINE
  5
3070
  8
2-0
  6
CONTINUOUS
 62
     3
 10
21816.408637500001
 20
19710.984537000011
 30
0.0
 11
22460.219356499991
 21
19710.984537000011
 31
0.0
  0
LINE
  5
3071
  8
2-0
  6
CONTINUOUS
 62
     3
 10
21115.612528000001
 20
19710.984537000011
 30
0.0
 11
21759.218366500001
 21
19710.984537000011
 31
0.0
  0
LINE
  5
3072
  8
2-0
  6
CONTINUOUS
 62
     3
 10
23865.697132000001
 20
19710.984537000011
 30
0.0
 11
23218.411606999998
 21
19710.984537000011
 31
0.0
  0
LINE
  5
3073
  8
2-0
  6
CONTINUOUS
 62
     3
 10
23161.219356000001
 20
19710.984537000011
 30
0.0
 11
22517.4076475
 21
19710.984537000011
 31
0.0
  0
LINE
  5
3074
  8
2-0
  6
CONTINUOUS
 62
     3
 10
21102.405179999991
 20
19698.984695000021
 30
0.0
 11
21102.405179999991
 21
19705.990211000011
 31
0.0
  0
LINE
  5
3075
  8
2-0
  6
CONTINUOUS
 62
     3
 10
21102.405179999991
 20
19705.990211000011
 30
0.0
 11
21097.404915999981
 21
19705.990211000011
 31
0.0
  0
LINE
  5
3076
  8
2-0
  6
CONTINUOUS
 62
     3
 10
21097.404915999981
 20
19705.990211000011
 30
0.0
 11
21097.404915999981
 21
19680.980973999998
 31
0.0
  0
LINE
  5
3077
  8
2-0
  6
CONTINUOUS
 62
     3
 10
21097.404915999981
 20
19680.980973999998
 30
0.0
 11
21115.406658
 21
19680.980973999998
 31
0.0
  0
LINE
  5
3078
  8
2-0
  6
CONTINUOUS
 62
     3
 10
21115.406658
 20
19680.980973999998
 30
0.0
 11
21115.406658
 21
19710.984537000011
 31
0.0
  0
LINE
  5
3079
  8
2-0
  6
CONTINUOUS
 62
     3
 10
21099.30723300001
 20
19680.980973999998
 30
0.0
 11
21105.311113
 21
19680.980973999998
 31
0.0
  0
LINE
  5
307A
  8
2-0
  6
CONTINUOUS
 62
     3
 10
21105.311113
 20
19680.980973999998
 30
0.0
 11
21105.311113
 21
19710.984537000011
 31
0.0
  0
LINE
  5
307B
  8
2-0
  6
CONTINUOUS
 62
     3
 10
21068.315890999991
 20
19710.984537000011
 30
0.0
 11
21105.311113
 21
19710.984537000011
 31
0.0
  0
LINE
  5
307C
  8
2-0
  6
CONTINUOUS
 62
     3
 10
21068.315890999991
 20
19680.980973999998
 30
0.0
 11
21068.315890999991
 21
19710.984537000011
 31
0.0
  0
LINE
  5
307D
  8
2-0
  6
CONTINUOUS
 62
     3
 10
21074.309872999991
 20
19680.980973999998
 30
0.0
 11
21068.315890999991
 21
19680.980973999998
 31
0.0
  0
LINE
  5
307E
  8
2-0
  6
CONTINUOUS
 62
     3
 10
21058.220345999998
 20
19680.980973999998
 30
0.0
 11
21058.220345999998
 21
19710.984537000011
 31
0.0
  0
LINE
  5
307F
  8
2-0
  6
CONTINUOUS
 62
     3
 10
21076.216149
 20
19680.980973999998
 30
0.0
 11
21058.220345999998
 21
19680.980973999998
 31
0.0
  0
LINE
  5
3080
  8
2-0
  6
CONTINUOUS
 62
     3
 10
21076.216149
 20
19705.990211000011
 30
0.0
 11
21076.216149
 21
19680.980973999998
 31
0.0
  0
LINE
  5
3081
  8
2-0
  6
CONTINUOUS
 62
     3
 10
21071.217864999999
 20
19705.990211000011
 30
0.0
 11
21076.216149
 21
19705.990211000011
 31
0.0
  0
LINE
  5
3082
  8
2-0
  6
CONTINUOUS
 62
     3
 10
21071.217864999999
 20
19698.984695000021
 30
0.0
 11
21071.217864999999
 21
19705.990211000011
 31
0.0
  0
LINE
  5
3083
  8
2-0
  6
CONTINUOUS
 62
     3
 10
20762.118743999981
 20
19710.984537000011
 30
0.0
 11
21058.220345999998
 21
19710.984537000011
 31
0.0
  0
LINE
  5
3084
  8
2-0
  6
CONTINUOUS
 62
     3
 10
23990.311785999991
 20
15263.12568899999
 30
0.0
 11
23990.311785999991
 21
14619.086831000001
 31
0.0
  0
LINE
  5
3085
  8
2-0
  6
CONTINUOUS
 62
     3
 10
23990.311785999991
 20
14561.890621
 30
0.0
 11
23990.311785999991
 21
13915.024258999991
 31
0.0
  0
CIRCLE
  5
3086
  8
2-0
  6
CONTINUOUS
 62
     4
 10
23947.813502000001
 20
21110.989156000011
 30
0.0
 40
200.00001
  0
TEXT
  5
3087
  8
2-0
  6
CONTINUOUS
 62
     7
 10
23896.181719000011
 20
21015.463527000022
 30
0.0
 40
160.0
  1
2
 72
     4
 11
23949.51505233334
 21
21095.463527000022
 31
0.0
  0
LINE
  5
3088
  8
0-6
  6
CONTINUOUS
 62
     6
 10
22220.948993499991
 20
18999.666309
 30
0.0
 11
23245.9892435
 21
18999.666309
 31
0.0
  0
LINE
  5
3089
  8
0-6
  6
CONTINUOUS
 62
     6
 10
21921.024215499991
 20
19557.019561000008
 30
0.0
 11
21816.408637500001
 21
19680.980973999998
 31
0.0
  0
LINE
  5
308A
  8
0-6
  6
CONTINUOUS
 62
     6
 10
21816.408637500001
 20
19680.980973999998
 30
0.0
 11
21875.166687500001
 21
19529.78930400002
 31
0.0
  0
LINE
  5
308B
  8
0-6
  6
CONTINUOUS
 62
     6
 10
21816.408637500001
 20
19680.980973999998
 30
0.0
 11
21921.024215499991
 21
19557.019561000008
 31
0.0
  0
LINE
  5
308C
  8
0-6
  6
CONTINUOUS
 62
     6
 10
21921.024215499991
 20
19557.019561000008
 30
0.0
 11
21875.166687500001
 21
19529.78930400002
 31
0.0
  0
LINE
  5
308D
  8
0-6
  6
CONTINUOUS
 62
     6
 10
21875.166687500001
 20
19529.78930400002
 30
0.0
 11
21816.408637500001
 21
19680.980973999998
 31
0.0
  0
LINE
  5
308E
  8
0-6
  6
CONTINUOUS
 62
     6
 10
21875.166687500001
 20
19529.78930400002
 30
0.0
 11
21921.024215499991
 21
19557.019561000008
 31
0.0
  0
LINE
  5
308F
  8
0-6
  6
CONTINUOUS
 62
     6
 10
21898.095451500001
 20
19543.406412000011
 30
0.0
 11
22220.948993499991
 21
18999.666309
 31
0.0
  0
TEXT
  5
3090
  8
0-6
  6
CONTINUOUS
 62
     7
 10
22300.9492575
 20
19079.668553000021
 30
0.0
 40
160.0
  1
間柱（後）
 72
     4
 11
22722.282590833329
 21
19159.668553000021
 31
0.0
  0
LINE
  5
3091
  8
0-5
  6
CONTINUOUS
 62
     4
 10
15532.066920999991
 20
4787.9233240000003
 30
0.0
 11
15532.066920999991
 21
4627.9237860000003
 31
0.0
  0
LINE
  5
3092
  8
0-5
  6
CONTINUOUS
 62
     4
 10
12614.066920999991
 20
4787.9233240000003
 30
0.0
 11
12614.066920999991
 21
4627.9237860000003
 31
0.0
  0
LINE
  5
3093
  8
0-5
  6
CONTINUOUS
 62
     4
 10
9696.0669209999924
 20
4787.9233240000003
 30
0.0
 11
9696.0669209999924
 21
4627.9237860000003
 31
0.0
  0
CIRCLE
  5
3094
  8
0-5
  6
CONTINUOUS
 62
     4
 10
12614.066920999991
 20
4427.9226310000013
 30
0.0
 40
199.9999949999999
  0
CIRCLE
  5
3095
  8
0-5
  6
CONTINUOUS
 62
     4
 10
15532.066920999991
 20
4427.9226310000013
 30
0.0
 40
199.9999949999999
  0
CIRCLE
  5
3096
  8
0-5
  6
CONTINUOUS
 62
     4
 10
9696.0669209999924
 20
4427.9226310000013
 30
0.0
 40
199.9999949999999
  0
TEXT
  5
3097
  8
0-5
  6
CONTINUOUS
 62
     7
 10
15485.11076099998
 20
4344.7118350000001
 30
0.0
 40
160.0
  1
A
 72
     4
 11
15538.444094333319
 21
4424.7118350000001
 31
0.0
  0
TEXT
  5
3098
  8
0-5
  6
CONTINUOUS
 62
     7
 10
12567.110760999991
 20
4344.7118350000001
 30
0.0
 40
160.0
  1
B
 72
     4
 11
12620.444094333319
 21
4424.7118350000001
 31
0.0
  0
TEXT
  5
3099
  8
0-5
  6
CONTINUOUS
 62
     7
 10
9649.1107609999963
 20
4344.7118350000001
 30
0.0
 40
160.0
  1
C
 72
     4
 11
9702.4440943333302
 21
4424.7118350000001
 31
0.0
  0
LINE
  5
309A
  8
0-5
  6
CONTINUOUS
 62
     4
 10
17292.150917999981
 20
6567.9232579999989
 30
0.0
 11
17412.151313999981
 21
6775.7702349999954
 31
0.0
  0
LINE
  5
309B
  8
0-5
  6
CONTINUOUS
 62
     4
 10
17172.152500999971
 20
6775.7702349999954
 30
0.0
 11
17292.150917999981
 21
6567.9232579999989
 31
0.0
  0
LINE
  5
309C
  8
0-5
  6
CONTINUOUS
 62
     4
 10
17412.151313999981
 20
6775.7702349999954
 30
0.0
 11
17172.152500999971
 21
6775.7702349999954
 31
0.0
  0
LINE
  5
309D
  8
0-5
  6
CONTINUOUS
 62
     4
 10
15667.064216000001
 20
6567.9232579999998
 30
0.0
 11
17384.529110999982
 21
6567.9232579999989
 31
0.0
  0
TEXT
  5
309E
  8
0-5
  6
CONTINUOUS
 62
     7
 10
16833.058988999979
 20
6855.7695089999979
 30
0.0
 40
160.0
  1
布基礎天端
 72
     4
 11
17291.725655666651
 21
6935.7695089999979
 31
0.0
  0
LINE
  5
309F
  8
0-1
  6
CONTINUOUS
 62
     3
 10
20721.809807000009
 20
8475.9238119999973
 30
0.0
 11
23905.313237999992
 21
8475.9238119999973
 31
0.0
  0
LINE
  5
30A6
  8
0-1
  6
CONTINUOUS
 62
     3
 10
23997.812182999991
 20
6567.9237529999991
 30
0.0
 11
23897.812841999999
 21
6567.9237529999991
 31
0.0
  0
LINE
  5
30A7
  8
0-1
  6
CONTINUOUS
 62
     3
 10
23897.812841999999
 20
6567.9237529999991
 30
0.0
 11
23897.812841999999
 21
6467.9239179999959
 31
0.0
  0
LINE
  5
30A8
  8
0-1
  6
CONTINUOUS
 62
     3
 10
23997.812182999991
 20
6467.9239179999959
 30
0.0
 11
23997.812182999991
 21
6567.9237529999991
 31
0.0
  0
LINE
  5
30A9
  8
0-1
  6
CONTINUOUS
 62
     3
 10
23905.313237999992
 20
8785.9238449999975
 30
0.0
 11
23905.313237999992
 21
6567.9237529999991
 31
0.0
  0
LINE
  5
30AA
  8
0-1
  6
CONTINUOUS
 62
     3
 10
23860.314821999989
 20
8475.9238119999973
 30
0.0
 11
23860.314821999989
 21
6467.9239179999959
 31
0.0
  0
LINE
  5
30AB
  8
0-1
  6
CONTINUOUS
 62
     3
 10
23970.314689999988
 20
8915.9237789999934
 30
0.0
 11
23970.314689999988
 21
6567.9237529999991
 31
0.0
  0
LINE
  5
30AC
  8
0-1
  6
CONTINUOUS
 62
     3
 10
23990.311786999999
 20
8785.9238449999975
 30
0.0
 11
23990.311786999999
 21
6567.9237529999991
 31
0.0
  0
LINE
  5
30AE
  8
0-1
  6
CONTINUOUS
 62
     3
 10
20629.31086300001
 20
6567.9237529999991
 30
0.0
 11
20729.310203000001
 21
6567.9237529999991
 31
0.0
  0
LINE
  5
30AF
  8
0-1
  6
CONTINUOUS
 62
     3
 10
20729.310203000001
 20
6567.9237529999991
 30
0.0
 11
20729.310203000001
 21
6467.9239179999959
 31
0.0
  0
LINE
  5
30B0
  8
0-1
  6
CONTINUOUS
 62
     3
 10
20629.31086300001
 20
6467.9239179999959
 30
0.0
 11
20629.31086300001
 21
6567.9237529999991
 31
0.0
  0
LINE
  5
30B1
  8
0-1
  6
CONTINUOUS
 62
     3
 10
20766.812182999998
 20
8475.9238119999973
 30
0.0
 11
20766.812182999998
 21
6467.9239179999959
 31
0.0
  0
LINE
  5
30B2
  8
0-1
  6
CONTINUOUS
 62
     3
 10
20721.809807000009
 20
8785.9238449999975
 30
0.0
 11
20721.809807000009
 21
6567.9237529999991
 31
0.0
  0
LINE
  5
30B3
  8
0-1
  6
CONTINUOUS
 62
     3
 10
20656.810334999998
 20
8915.9237789999934
 30
0.0
 11
20656.810334999998
 21
6567.9237529999991
 31
0.0
  0
LINE
  5
30B4
  8
0-1
  6
CONTINUOUS
 62
     3
 10
20636.811258999998
 20
8785.9238449999975
 30
0.0
 11
20636.811258999998
 21
6567.9237529999991
 31
0.0
  0
LINE
  5
30B5
  8
0-1
  6
CONTINUOUS
 62
     3
 10
20766.812182999998
 20
6987.9246439999988
 30
0.0
 11
23860.314821999989
 21
6987.9246439999988
 31
0.0
  0
LINE
  5
30B6
  8
0-1
  6
CONTINUOUS
 62
     3
 10
20766.812182999998
 20
6922.9241819999988
 30
0.0
 11
23860.314821999989
 21
6922.9241819999988
 31
0.0
  0
LINE
  5
30B7
  8
0-1
  6
CONTINUOUS
 62
     3
 10
20766.812182999998
 20
6857.9242150000009
 30
0.0
 11
23860.314821999989
 21
6857.9242150000009
 31
0.0
  0
LINE
  5
30B8
  8
0-1
  6
CONTINUOUS
 62
     3
 10
20766.812182999998
 20
6792.923753
 30
0.0
 11
23860.314821999989
 21
6792.923753
 31
0.0
  0
LINE
  5
30B9
  8
0-1
  6
CONTINUOUS
 62
     3
 10
20766.812182999998
 20
6727.9242810000032
 30
0.0
 11
23860.314821999989
 21
6727.9242810000032
 31
0.0
  0
LINE
  5
30BA
  8
0-1
  6
CONTINUOUS
 62
     3
 10
20766.812182999998
 20
6662.9243139999999
 30
0.0
 11
23860.314821999989
 21
6662.9243139999999
 31
0.0
  0
LINE
  5
30BB
  8
0-1
  6
CONTINUOUS
 62
     3
 10
20766.812182999998
 20
6597.9243470000001
 30
0.0
 11
23860.314821999989
 21
6597.9243470000001
 31
0.0
  0
LINE
  5
30BC
  8
0-1
  6
CONTINUOUS
 62
     3
 10
20766.812182999998
 20
6532.9238849999983
 30
0.0
 11
23860.314821999989
 21
6532.9238849999983
 31
0.0
  0
LINE
  5
30BD
  8
0-1
  6
CONTINUOUS
 62
     3
 10
20766.812182999998
 20
8352.9239510000007
 30
0.0
 11
23860.314821999989
 21
8352.9239510000007
 31
0.0
  0
LINE
  5
30BE
  8
0-1
  6
CONTINUOUS
 62
     3
 10
20766.812182999998
 20
8287.9239839999973
 30
0.0
 11
23860.314821999989
 21
8287.9239839999973
 31
0.0
  0
LINE
  5
30BF
  8
0-1
  6
CONTINUOUS
 62
     3
 10
20766.812182999998
 20
8222.9245120000032
 30
0.0
 11
23860.314821999989
 21
8222.9245120000032
 31
0.0
  0
LINE
  5
30C0
  8
0-1
  6
CONTINUOUS
 62
     3
 10
20766.812182999998
 20
8157.924544999998
 30
0.0
 11
23860.314821999989
 21
8157.924544999998
 31
0.0
  0
LINE
  5
30C1
  8
0-1
  6
CONTINUOUS
 62
     3
 10
20766.812182999998
 20
8092.924578000001
 30
0.0
 11
23860.314821999989
 21
8092.924578000001
 31
0.0
  0
LINE
  5
30C2
  8
0-1
  6
CONTINUOUS
 62
     3
 10
20766.812182999998
 20
8027.9241159999974
 30
0.0
 11
23860.314821999989
 21
8027.9241159999974
 31
0.0
  0
LINE
  5
30C3
  8
0-1
  6
CONTINUOUS
 62
     3
 10
20766.812182999998
 20
7962.9241489999986
 30
0.0
 11
23860.314821999989
 21
7962.9241489999986
 31
0.0
  0
LINE
  5
30C4
  8
0-1
  6
CONTINUOUS
 62
     3
 10
20766.812182999998
 20
7897.9246769999982
 30
0.0
 11
23860.314821999989
 21
7897.9246769999982
 31
0.0
  0
LINE
  5
30C5
  8
0-1
  6
CONTINUOUS
 62
     3
 10
20766.812182999998
 20
7832.9247099999948
 30
0.0
 11
23860.314821999989
 21
7832.9247099999948
 31
0.0
  0
LINE
  5
30C6
  8
0-1
  6
CONTINUOUS
 62
     3
 10
20766.812182999998
 20
7767.924248000003
 30
0.0
 11
23860.314821999989
 21
7767.924248000003
 31
0.0
  0
LINE
  5
30C7
  8
0-1
  6
CONTINUOUS
 62
     3
 10
20766.812182999998
 20
7702.9242810000032
 30
0.0
 11
23860.314821999989
 21
7702.9242810000032
 31
0.0
  0
LINE
  5
30C8
  8
0-1
  6
CONTINUOUS
 62
     3
 10
20766.812182999998
 20
7637.9243139999999
 30
0.0
 11
23860.314821999989
 21
7637.9243139999999
 31
0.0
  0
LINE
  5
30C9
  8
0-1
  6
CONTINUOUS
 62
     3
 10
20766.812182999998
 20
7572.923851999999
 30
0.0
 11
23860.314821999989
 21
7572.923851999999
 31
0.0
  0
LINE
  5
30CA
  8
0-1
  6
CONTINUOUS
 62
     3
 10
20766.812182999998
 20
7507.9238849999947
 30
0.0
 11
23860.314821999989
 21
7507.9238849999947
 31
0.0
  0
LINE
  5
30CB
  8
0-1
  6
CONTINUOUS
 62
     3
 10
20766.812182999998
 20
7442.9244129999997
 30
0.0
 11
23860.314821999989
 21
7442.9244129999997
 31
0.0
  0
LINE
  5
30CC
  8
0-1
  6
CONTINUOUS
 62
     3
 10
20766.812182999998
 20
7377.9244459999973
 30
0.0
 11
23860.314821999989
 21
7377.9244459999973
 31
0.0
  0
LINE
  5
30CD
  8
0-1
  6
CONTINUOUS
 62
     3
 10
20766.812182999998
 20
7312.9244789999966
 30
0.0
 11
23860.314821999989
 21
7312.9244789999966
 31
0.0
  0
LINE
  5
30CE
  8
0-1
  6
CONTINUOUS
 62
     3
 10
20766.812182999998
 20
7247.9240170000021
 30
0.0
 11
23860.314821999989
 21
7247.9240170000021
 31
0.0
  0
LINE
  5
30CF
  8
0-1
  6
CONTINUOUS
 62
     3
 10
20766.812182999998
 20
7182.9240499999978
 30
0.0
 11
23860.314821999989
 21
7182.9240499999978
 31
0.0
  0
LINE
  5
30D0
  8
0-1
  6
CONTINUOUS
 62
     3
 10
20766.812182999998
 20
7117.9245780000001
 30
0.0
 11
23860.314821999989
 21
7117.9245780000001
 31
0.0
  0
LINE
  5
30D1
  8
0-1
  6
CONTINUOUS
 62
     3
 10
20766.812182999998
 20
7052.9246109999985
 30
0.0
 11
23860.314821999989
 21
7052.9246109999985
 31
0.0
  0
LINE
  5
30D2
  8
0-1
  6
CONTINUOUS
 62
     3
 10
20766.812182999998
 20
8407.3839709999975
 30
0.0
 11
23860.314821999989
 21
8407.3839709999975
 31
0.0
  0
LINE
  5
30D3
  8
0-1
  6
CONTINUOUS
 62
     3
 10
20629.31086300001
 20
6467.9239179999959
 30
0.0
 11
23997.812182999991
 21
6467.9239179999959
 31
0.0
  0
LINE
  5
30E5
  8
0-2
  6
CONTINUOUS
 62
     4
 10
22677.25352200001
 20
7215.1506119999976
 30
0.0
 11
22577.254182000001
 21
7215.1506119999976
 31
0.0
  0
LINE
  5
30E6
  8
0-2
  6
CONTINUOUS
 62
     4
 10
21949.869521999979
 20
7215.1506119999976
 30
0.0
 11
22049.868861999988
 21
7215.1506119999976
 31
0.0
  0
LINE
  5
30E7
  8
0-5
  6
CONTINUOUS
 62
     4
 10
23947.813502000001
 20
4787.9243139999962
 30
0.0
 11
23947.813502000001
 21
4627.9247759999989
 31
0.0
  0
LINE
  5
30E8
  8
0-5
  6
CONTINUOUS
 62
     4
 10
20679.313502000001
 20
4787.9243139999962
 30
0.0
 11
20679.313502000001
 21
4627.9247759999989
 31
0.0
  0
LINE
  5
30E9
  8
2-0
  6
CENTER2
 62
     6
 10
23947.813502000001
 20
6205.2714950000009
 30
0.0
 11
23947.813502000001
 21
7242.414522
 31
0.0
  0
LINE
  5
30EA
  8
2-0
  6
CENTER2
 62
     6
 10
20679.313502000001
 20
6205.2714950000009
 30
0.0
 11
20679.313502000001
 21
7242.414522
 31
0.0
  0
CIRCLE
  5
30F3
  8
0-5
  6
CONTINUOUS
 62
     4
 10
23947.813502000001
 20
4427.9236209999972
 30
0.0
 40
199.9999949999999
  0
CIRCLE
  5
30F4
  8
0-5
  6
CONTINUOUS
 62
     4
 10
20679.313502000001
 20
4427.9236209999972
 30
0.0
 40
199.9999949999999
  0
TEXT
  5
30F5
  8
0-5
  6
CONTINUOUS
 62
     7
 10
23895.900626999999
 20
4338.4486389999984
 30
0.0
 40
160.0
  1
2
 72
     4
 11
23949.233960333331
 21
4418.4486389999984
 31
0.0
  0
TEXT
  5
30F6
  8
0-5
  6
CONTINUOUS
 62
     7
 10
20627.400627999999
 20
4338.4486389999984
 30
0.0
 40
160.0
  1
1
 72
     4
 11
20654.067294666671
 21
4418.4486389999984
 31
0.0
  0
CIRCLE
  5
30F7
  8
0-4
  6
CONTINUOUS
 62
     4
 10
22313.563502000001
 20
6953.9803539999957
 30
0.0
 40
18.487504999999981
  0
LINE
  5
30F8
  8
SUNPOU
  6
CONTINUOUS
 10
20396.81350199999
 20
5267.9239180000041
 30
0.0
 11
20038.858495278891
 21
5267.9239180000041
 31
0.0
  0
LINE
  5
30F9
  8
SUNPOU
  6
CONTINUOUS
 10
24230.313502000001
 20
5267.9239180000041
 30
0.0
 11
24588.268508721088
 21
5267.9239180000041
 31
0.0
  0
TEXT
  5
30FA
  8
0-5
  6
CONTINUOUS
 62
     7
 10
20061.13558300001
 20
7197.2841647419982
 30
0.0
 40
160.0
  1
(2131.5)
 50
90.0
 72
     4
 11
19981.13558300001
 21
7650.6174980753312
 31
0.0
  0
TEXT
  5
30FB
  8
2-0
  6
CONTINUOUS
 62
     7
 10
20994.240102
 20
3506.7741969999988
 30
0.0
 40
160.0
  1
正 面 立 面 図
 72
     4
 11
21639.573435333328
 21
3586.7741969999988
 31
0.0
  0
TEXT
  5
30FC
  8
2-0
  6
CONTINUOUS
 62
     7
 10
22991.065620470959
 20
3533.9695660000002
 30
0.0
 40
160.0
  1
1
 72
     4
 11
23017.732287137631
 21
3613.9695660000002
 31
0.0
  0
TEXT
  5
30FD
  8
2-0
  6
CONTINUOUS
 62
     7
 10
23234.154337721651
 20
3453.9710340000001
 30
0.0
 40
160.0
  1
80
 72
     4
 11
23354.154337721651
 21
3533.9710340000001
 31
0.0
  0
TEXT
  5
30FE
  8
2-0
  6
CONTINUOUS
 62
     7
 10
22492.067586470948
 20
3506.7741969999988
 30
0.0
 40
160.0
  1
(S=  /   )
 72
     4
 11
23052.067586470948
 21
3586.7741969999988
 31
0.0
  0
LINE
  5
30FF
  8
SUNPOU
  6
CONTINUOUS
 10
10029.348638999991
 20
19890.982161000022
 30
0.0
 11
10029.348638999991
 21
20687.949428778458
 31
0.0
  0
LINE
  5
3100
  8
SUNPOU
  6
CONTINUOUS
 10
10029.348638999991
 20
13639.990937
 30
0.0
 11
10029.348638999991
 21
12964.56482118961
 31
0.0
  0
LINE
  5
3101
  8
SUNPOU
  6
CONTINUOUS
 10
9473.565666999988
 20
9715.9239439999983
 30
0.0
 11
8998.2765543597579
 21
9715.9239439999983
 31
0.0
  0
LINE
  5
3104
  8
WAKUSEN-01
 10
868.00000000000193
 20
22484.000000000011
 30
0.0
 11
32764.000000000011
 21
22484.000000000011
 31
0.0
  0
LINE
  5
3106
  8
WAKUSEN-01
 10
20560.0
 20
2484.0
 30
0.0
 11
32764.0
 21
2484.0
 31
0.0
  0
LINE
  5
3107
  8
WAKUSEN-02
 10
20560.0
 20
1655.9999999999991
 30
0.0
 11
26868.0
 21
1655.9999999999991
 31
0.0
  0
TEXT
  5
3108
  8
WAKUMOJI-01
 10
20670.260259962761
 20
2125.9030093393221
 30
0.0
 40
240.0
  1
名　称
  7
WAKUMOJI
  0
TEXT
  5
3109
  8
WAKUMOJI-01
 10
20656.505485091919
 20
1319.12897497982
 30
0.0
 40
240.0
  1
機種名
  7
WAKUMOJI
  0
LINE
  5
310C
  8
YODOROGO
 10
29977.604341291921
 20
1995.7494964292871
 30
0.0
 11
29829.604341291921
 21
1995.7494964292871
 31
0.0
1001
AUTOCAD_POSTSCRIPT_FIGURE
1002
{
1000
PSFILL
1000
Grayscale
1000
Grayscale
1070
    25
1002
}
  0
LINE
  5
310D
  8
YODOROGO
 10
29829.604341291921
 20
1947.749496429288
 30
0.0
 11
29977.604341291921
 21
1947.749496429288
 31
0.0
1001
AUTOCAD_POSTSCRIPT_FIGURE
1002
{
1000
PSFILL
1000
Grayscale
1000
Grayscale
1070
    25
1002
}
  0
LINE
  5
310E
  8
YODOROGO
 10
29977.604341291921
 20
1907.7494964292871
 30
0.0
 11
29829.604341291921
 21
1907.7494964292871
 31
0.0
1001
AUTOCAD_POSTSCRIPT_FIGURE
1002
{
1000
PSFILL
1000
Grayscale
1000
Grayscale
1070
    25
1002
}
  0
LINE
  5
310F
  8
YODOROGO
 10
29829.604341291921
 20
1859.749496429288
 30
0.0
 11
29977.604341291921
 21
1859.749496429288
 31
0.0
1001
AUTOCAD_POSTSCRIPT_FIGURE
1002
{
1000
PSFILL
1000
Grayscale
1000
Grayscale
1070
    25
1002
}
  0
LINE
  5
3110
  8
YODOROGO
 10
29977.604341291921
 20
1819.7494964292871
 30
0.0
 11
29829.604341291921
 21
1819.7494964292871
 31
0.0
1001
AUTOCAD_POSTSCRIPT_FIGURE
1002
{
1000
PSFILL
1000
Grayscale
1000
Grayscale
1070
    25
1002
}
  0
LINE
  5
3111
  8
YODOROGO
 10
29921.60434129191
 20
1707.749496429288
 30
0.0
 11
29977.604341291921
 21
1707.749496429288
 31
0.0
1001
AUTOCAD_POSTSCRIPT_FIGURE
1002
{
1000
PSFILL
1000
Grayscale
1000
Grayscale
1070
    25
1002
}
  0
LINE
  5
3112
  8
YODOROGO
 10
29737.604341291921
 20
1427.749496429288
 30
0.0
 11
29937.604341291932
 21
1481.3393349155101
 31
0.0
  0
LINE
  5
3113
  8
YODOROGO
 10
29949.60434129191
 20
1707.749496429288
 30
0.0
 11
29885.604341291921
 21
1707.749496429288
 31
0.0
  0
ARC
  5
3114
  8
YODOROGO
 10
30254.34774982791
 20
1807.864609233261
 30
0.0
 40
381.88686420564721
 50
213.96111677667841
 51
264.47872074317792
  0
ARC
  5
3115
  8
YODOROGO
 10
30254.347749827921
 20
1807.864609233302
 30
0.0
 40
381.8868642056816
 50
208.14114420486601
 51
212.9210361185994
  0
LINE
  5
3116
  8
YODOROGO
 10
29771.409872985321
 20
1556.807661346234
 30
0.0
 11
29933.78413250855
 21
1600.3157130570869
 31
0.0
  0
LINE
  5
3117
  8
YODOROGO
 10
29737.604341291921
 20
1427.749496429288
 30
0.0
 11
29937.604341291932
 21
1481.3393349155101
 31
0.0
  0
LINE
  5
3118
  8
YODOROGO
 10
29949.60434129191
 20
1707.749496429288
 30
0.0
 11
29885.604341291921
 21
1707.749496429288
 31
0.0
  0
ARC
  5
3119
  8
YODOROGO
 10
30254.34774982791
 20
1807.864609233261
 30
0.0
 40
381.88686420564721
 50
213.96111677667841
 51
264.47872074317792
  0
LINE
  5
311A
  8
YODOROGO
 10
28793.60434129191
 20
1819.7494964292871
 30
0.0
 11
28433.60434129191
 21
1819.7494964292871
 31
0.0
  0
LINE
  5
311B
  8
YODOROGO
 10
28513.60434129191
 20
1427.749496429288
 30
0.0
 11
28793.60434129191
 21
1427.749496429288
 31
0.0
  0
LINE
  5
311C
  8
YODOROGO
 10
28729.604341291921
 20
1923.7494964292871
 30
0.0
 11
28497.60434129191
 21
1923.7494964292871
 31
0.0
  0
LINE
  5
311D
  8
YODOROGO
 10
28585.604341291921
 20
2027.749496429288
 30
0.0
 11
28657.604341291921
 21
2027.749496429288
 31
0.0
  0
LINE
  5
311E
  8
YODOROGO
 10
28433.60434129191
 20
1707.749496429288
 30
0.0
 11
28433.60434129191
 21
1507.749496429288
 31
0.0
  0
LINE
  5
311F
  8
YODOROGO
 10
28497.60434129191
 20
1563.7494964292871
 30
0.0
 11
28497.60434129191
 21
1707.749496429288
 31
0.0
  0
LINE
  5
3120
  8
YODOROGO
 10
28585.604341291921
 20
1747.74949642929
 30
0.0
 11
28585.604341291921
 21
1547.749496429288
 31
0.0
  0
LINE
  5
3121
  8
YODOROGO
 10
27857.604341291921
 20
1683.749496429288
 30
0.0
 11
27777.604341291921
 21
1619.9724140445701
 31
0.0
  0
LINE
  5
3122
  8
YODOROGO
 10
27937.604341291921
 20
1619.9724140445701
 30
0.0
 11
27857.604341291921
 21
1683.749496429288
 31
0.0
  0
LINE
  5
3123
  8
YODOROGO
 10
27857.604341291921
 20
1707.749496429288
 30
0.0
 11
27937.604341291921
 21
1643.9724140445701
 31
0.0
  0
LINE
  5
3124
  8
YODOROGO
 10
27777.604341291921
 20
1643.9724140445701
 30
0.0
 11
27857.604341291921
 21
1707.749496429288
 31
0.0
  0
LINE
  5
3125
  8
YODOROGO
 10
28040.913204016892
 20
1659.749496429288
 30
0.0
 11
28040.913204016892
 21
1683.7494964292871
 31
0.0
  0
LINE
  5
3126
  8
YODOROGO
 10
27977.604341291921
 20
1683.7494964292871
 30
0.0
 11
27977.604341291921
 21
1667.749496429285
 31
0.0
  0
LINE
  5
3127
  8
YODOROGO
 10
28098.135520230931
 20
1707.749496429288
 30
0.0
 11
28098.135520230931
 21
1655.5036372746561
 31
0.0
1001
AUTOCAD_POSTSCRIPT_FIGURE
1002
{
1000
PSFILL
1000
Grayscale
1000
Grayscale
1070
   100
1002
}
  0
LINE
  5
3128
  8
YODOROGO
 10
28082.135520230921
 20
1655.5036372746561
 30
0.0
 11
28082.135520230921
 21
1707.749496429288
 31
0.0
1001
AUTOCAD_POSTSCRIPT_FIGURE
1002
{
1000
PSFILL
1000
Grayscale
1000
Grayscale
1070
   100
1002
}
  0
LINE
  5
3129
  8
YODOROGO
 10
27809.604341291921
 20
1608.771904043258
 30
0.0
 11
27809.604341291921
 21
1632.771904043258
 31
0.0
  0
LINE
  5
312A
  8
YODOROGO
 10
27905.604341291921
 20
1608.771904043258
 30
0.0
 11
27809.604341291921
 21
1608.771904043258
 31
0.0
  0
LINE
  5
312B
  8
YODOROGO
 10
27905.604341291921
 20
1632.771904043258
 30
0.0
 11
27905.604341291921
 21
1608.771904043258
 31
0.0
  0
LINE
  5
312C
  8
YODOROGO
 10
27809.604341291921
 20
1632.771904043258
 30
0.0
 11
27905.604341291921
 21
1632.771904043258
 31
0.0
  0
LINE
  5
312D
  8
YODOROGO
 10
27824.509588915738
 20
1568.5028573704751
 30
0.0
 11
27785.604341291921
 21
1475.7494964292871
 31
0.0
1001
AUTOCAD_POSTSCRIPT_FIGURE
1002
{
1000
PSFILL
1000
Grayscale
1000
Grayscale
1070
   100
1002
}
  0
LINE
  5
312E
  8
YODOROGO
 10
27777.604341291921
 20
1568.5028573704751
 30
0.0
 11
27824.509588915738
 21
1568.5028573704751
 31
0.0
1001
AUTOCAD_POSTSCRIPT_FIGURE
1002
{
1000
PSFILL
1000
Grayscale
1000
Grayscale
1070
   100
1002
}
  0
LINE
  5
312F
  8
YODOROGO
 10
27777.604341291921
 20
1588.5028573704751
 30
0.0
 11
27777.604341291921
 21
1568.5028573704751
 31
0.0
1001
AUTOCAD_POSTSCRIPT_FIGURE
1002
{
1000
PSFILL
1000
Grayscale
1000
Grayscale
1070
   100
1002
}
  0
LINE
  5
3130
  8
YODOROGO
 10
27937.604341291921
 20
1588.5028573704751
 30
0.0
 11
27777.604341291921
 21
1588.5028573704751
 31
0.0
1001
AUTOCAD_POSTSCRIPT_FIGURE
1002
{
1000
PSFILL
1000
Grayscale
1000
Grayscale
1070
   100
1002
}
  0
LINE
  5
3131
  8
YODOROGO
 10
27937.604341291921
 20
1568.5028573704751
 30
0.0
 11
27937.604341291921
 21
1588.5028573704751
 31
0.0
1001
AUTOCAD_POSTSCRIPT_FIGURE
1002
{
1000
PSFILL
1000
Grayscale
1000
Grayscale
1070
   100
1002
}
  0
LINE
  5
3132
  8
YODOROGO
 10
27844.50958891576
 20
1568.5028573704751
 30
0.0
 11
27937.604341291921
 21
1568.5028573704751
 31
0.0
1001
AUTOCAD_POSTSCRIPT_FIGURE
1002
{
1000
PSFILL
1000
Grayscale
1000
Grayscale
1070
   100
1002
}
  0
LINE
  5
3133
  8
YODOROGO
 10
27815.546718284771
 20
1495.7494964292871
 30
0.0
 11
27844.50958891576
 21
1568.5028573704751
 31
0.0
1001
AUTOCAD_POSTSCRIPT_FIGURE
1002
{
1000
PSFILL
1000
Grayscale
1000
Grayscale
1070
   100
1002
}
  0
LINE
  5
3134
  8
YODOROGO
 10
27902.054790808648
 20
1495.7494964292871
 30
0.0
 11
27815.546718284771
 21
1495.7494964292871
 31
0.0
1001
AUTOCAD_POSTSCRIPT_FIGURE
1002
{
1000
PSFILL
1000
Grayscale
1000
Grayscale
1070
   100
1002
}
  0
LINE
  5
3135
  8
YODOROGO
 10
27885.065004790951
 20
1536.2338106976929
 30
0.0
 11
27902.054790808648
 21
1495.7494964292871
 31
0.0
1001
AUTOCAD_POSTSCRIPT_FIGURE
1002
{
1000
PSFILL
1000
Grayscale
1000
Grayscale
1070
   100
1002
}
  0
LINE
  5
3136
  8
YODOROGO
 10
27901.065004790951
 20
1536.2338106976929
 30
0.0
 11
27885.065004790951
 21
1536.2338106976929
 31
0.0
1001
AUTOCAD_POSTSCRIPT_FIGURE
1002
{
1000
PSFILL
1000
Grayscale
1000
Grayscale
1070
   100
1002
}
  0
LINE
  5
3137
  8
YODOROGO
 10
27929.604341291921
 20
1475.7494964292871
 30
0.0
 11
27901.065004790951
 21
1536.2338106976929
 31
0.0
1001
AUTOCAD_POSTSCRIPT_FIGURE
1002
{
1000
PSFILL
1000
Grayscale
1000
Grayscale
1070
   100
1002
}
  0
LINE
  5
3138
  8
YODOROGO
 10
27785.604341291921
 20
1475.7494964292871
 30
0.0
 11
27929.604341291921
 21
1475.7494964292871
 31
0.0
1001
AUTOCAD_POSTSCRIPT_FIGURE
1002
{
1000
PSFILL
1000
Grayscale
1000
Grayscale
1070
   100
1002
}
  0
LINE
  5
3139
  8
YODOROGO
 10
27777.604341291921
 20
1619.9724140445701
 30
0.0
 11
27777.604341291921
 21
1643.9724140445701
 31
0.0
  0
LINE
  5
313A
  8
YODOROGO
 10
27937.604341291921
 20
1643.9724140445701
 30
0.0
 11
27937.604341291921
 21
1619.9724140445701
 31
0.0
  0
ARC
  5
313B
  8
YODOROGO
 10
28225.940442146959
 20
1600.877765325326
 30
0.0
 40
175.9999999999998
 50
280.3644312771313
 51
3.5414836592180561
  0
ARC
  5
313C
  8
YODOROGO
 10
28235.756030759301
 20
1633.5978069619041
 30
0.0
 40
111.9999999999982
 50
281.24905825041549
 51
348.75094174958321
  0
LINE
  5
313D
  8
YODOROGO
 10
28257.604341291921
 20
1523.7494964292871
 30
0.0
 11
28257.604341291921
 21
1427.749496429288
 31
0.0
  0
LINE
  5
313E
  8
YODOROGO
 10
28020.088903736902
 20
1610.650565061914
 30
0.0
 11
28040.913204016892
 21
1659.749496429288
 31
0.0
  0
LINE
  5
313F
  8
YODOROGO
 10
28041.604341291921
 20
1583.120489948401
 30
0.0
 11
28020.088903736902
 21
1610.650565061914
 31
0.0
  0
LINE
  5
3140
  8
YODOROGO
 10
28041.604341291921
 20
1563.120489948398
 30
0.0
 11
28041.604341291921
 21
1583.120489948401
 31
0.0
  0
LINE
  5
3141
  8
YODOROGO
 10
28017.604341291921
 20
1585.2370637495301
 30
0.0
 11
28041.604341291921
 21
1563.120489948398
 31
0.0
  0
LINE
  5
3142
  8
YODOROGO
 10
28017.604341291921
 20
1475.7494964292871
 30
0.0
 11
28017.604341291921
 21
1585.2370637495301
 31
0.0
  0
LINE
  5
3143
  8
YODOROGO
 10
28001.604341291921
 20
1475.7494964292871
 30
0.0
 11
28017.604341291921
 21
1475.7494964292871
 31
0.0
  0
LINE
  5
3144
  8
YODOROGO
 10
28001.604341291921
 20
1580.0053496897469
 30
0.0
 11
28001.604341291921
 21
1475.7494964292871
 31
0.0
  0
LINE
  5
3145
  8
YODOROGO
 10
27977.604341291921
 20
1532.7680790334291
 30
0.0
 11
28001.604341291921
 21
1580.0053496897469
 31
0.0
  0
LINE
  5
3146
  8
YODOROGO
 10
27977.604341291921
 20
1556.76807903343
 30
0.0
 11
27977.604341291921
 21
1532.7680790334291
 31
0.0
  0
LINE
  5
3147
  8
YODOROGO
 10
28025.828774291349
 20
1667.749496429285
 30
0.0
 11
27977.604341291921
 21
1556.76807903343
 31
0.0
  0
LINE
  5
3148
  8
YODOROGO
 10
27977.604341291921
 20
1667.749496429285
 30
0.0
 11
28025.828774291349
 21
1667.749496429285
 31
0.0
  0
LINE
  5
3149
  8
YODOROGO
 10
28050.135520230899
 20
1655.5036372746561
 30
0.0
 11
28082.135520230921
 21
1655.5036372746561
 31
0.0
1001
AUTOCAD_POSTSCRIPT_FIGURE
1002
{
1000
PSFILL
1000
Grayscale
1000
Grayscale
1070
   100
1002
}
  0
LINE
  5
314A
  8
YODOROGO
 10
28050.135520230899
 20
1631.5036372746561
 30
0.0
 11
28050.135520230899
 21
1655.5036372746561
 31
0.0
1001
AUTOCAD_POSTSCRIPT_FIGURE
1002
{
1000
PSFILL
1000
Grayscale
1000
Grayscale
1070
   100
1002
}
  0
LINE
  5
314B
  8
YODOROGO
 10
28082.135520230921
 20
1631.5036372746561
 30
0.0
 11
28050.135520230899
 21
1631.5036372746561
 31
0.0
1001
AUTOCAD_POSTSCRIPT_FIGURE
1002
{
1000
PSFILL
1000
Grayscale
1000
Grayscale
1070
   100
1002
}
  0
LINE
  5
314C
  8
YODOROGO
 10
28082.135520230921
 20
1499.749496429288
 30
0.0
 11
28082.135520230921
 21
1631.5036372746561
 31
0.0
1001
AUTOCAD_POSTSCRIPT_FIGURE
1002
{
1000
PSFILL
1000
Grayscale
1000
Grayscale
1070
   100
1002
}
  0
LINE
  5
314D
  8
YODOROGO
 10
28050.135520230921
 20
1499.749496429288
 30
0.0
 11
28082.135520230921
 21
1499.749496429288
 31
0.0
1001
AUTOCAD_POSTSCRIPT_FIGURE
1002
{
1000
PSFILL
1000
Grayscale
1000
Grayscale
1070
   100
1002
}
  0
LINE
  5
314E
  8
YODOROGO
 10
28050.135520230921
 20
1475.7494964292871
 30
0.0
 11
28050.135520230921
 21
1499.749496429288
 31
0.0
1001
AUTOCAD_POSTSCRIPT_FIGURE
1002
{
1000
PSFILL
1000
Grayscale
1000
Grayscale
1070
   100
1002
}
  0
LINE
  5
314F
  8
YODOROGO
 10
28137.604341291921
 20
1475.7494964292871
 30
0.0
 11
28050.135520230921
 21
1475.7494964292871
 31
0.0
1001
AUTOCAD_POSTSCRIPT_FIGURE
1002
{
1000
PSFILL
1000
Grayscale
1000
Grayscale
1070
   100
1002
}
  0
LINE
  5
3150
  8
YODOROGO
 10
28137.604341291921
 20
1499.749496429288
 30
0.0
 11
28137.604341291921
 21
1475.7494964292871
 31
0.0
1001
AUTOCAD_POSTSCRIPT_FIGURE
1002
{
1000
PSFILL
1000
Grayscale
1000
Grayscale
1070
   100
1002
}
  0
LINE
  5
3151
  8
YODOROGO
 10
28098.135520230931
 20
1499.749496429288
 30
0.0
 11
28137.604341291921
 21
1499.749496429288
 31
0.0
1001
AUTOCAD_POSTSCRIPT_FIGURE
1002
{
1000
PSFILL
1000
Grayscale
1000
Grayscale
1070
   100
1002
}
  0
LINE
  5
3152
  8
YODOROGO
 10
28098.135520230931
 20
1631.5036372746561
 30
0.0
 11
28098.135520230931
 21
1499.749496429288
 31
0.0
1001
AUTOCAD_POSTSCRIPT_FIGURE
1002
{
1000
PSFILL
1000
Grayscale
1000
Grayscale
1070
   100
1002
}
  0
LINE
  5
3153
  8
YODOROGO
 10
28137.604341291921
 20
1631.5036372746561
 30
0.0
 11
28098.135520230931
 21
1631.5036372746561
 31
0.0
1001
AUTOCAD_POSTSCRIPT_FIGURE
1002
{
1000
PSFILL
1000
Grayscale
1000
Grayscale
1070
   100
1002
}
  0
LINE
  5
3154
  8
YODOROGO
 10
28137.604341291921
 20
1655.5036372746561
 30
0.0
 11
28137.604341291921
 21
1631.5036372746561
 31
0.0
1001
AUTOCAD_POSTSCRIPT_FIGURE
1002
{
1000
PSFILL
1000
Grayscale
1000
Grayscale
1070
   100
1002
}
  0
LINE
  5
3155
  8
YODOROGO
 10
28098.135520230931
 20
1655.5036372746561
 30
0.0
 11
28137.604341291921
 21
1655.5036372746561
 31
0.0
1001
AUTOCAD_POSTSCRIPT_FIGURE
1002
{
1000
PSFILL
1000
Grayscale
1000
Grayscale
1070
   100
1002
}
  0
LINE
  5
3156
  8
YODOROGO
 10
28401.60434129191
 20
1667.749496429288
 30
0.0
 11
28345.604341291921
 21
1667.749496429288
 31
0.0
  0
LINE
  5
3157
  8
YODOROGO
 10
28401.60434129191
 20
1611.749496429288
 30
0.0
 11
28401.60434129191
 21
1667.749496429288
 31
0.0
  0
LINE
  5
3158
  8
YODOROGO
 10
28345.604341291921
 20
1667.749496429288
 30
0.0
 11
28345.604341291921
 21
1611.749496429288
 31
0.0
  0
ARC
  5
3159
  8
YODOROGO
 10
28513.60434129191
 20
1507.749496429288
 30
0.0
 40
80.0
 50
180.0
 51
270.0
  0
ARC
  5
315A
  8
YODOROGO
 10
28537.604341291921
 20
1563.7494964292871
 30
0.0
 40
40.0
 50
180.0
 51
270.0
  0
LINE
  5
315B
  8
YODOROGO
 10
28561.604341291932
 20
1523.7494964292871
 30
0.0
 11
28537.604341291921
 21
1523.7494964292871
 31
0.0
  0
ARC
  5
315C
  8
YODOROGO
 10
28561.604341291932
 20
1547.749496429285
 30
0.0
 40
23.999999999996358
 50
270.0
 51
0.0000000000054281
  0
LINE
  5
315D
  8
YODOROGO
 10
27801.604341291921
 20
1890.786580793706
 30
0.0
 11
27777.604341291921
 21
1843.776747951672
 31
0.0
1001
AUTOCAD_POSTSCRIPT_FIGURE
1002
{
1000
PSFILL
1000
Grayscale
1000
Grayscale
1070
   100
1002
}
  0
LINE
  5
315E
  8
YODOROGO
 10
27801.604341291921
 20
1747.749496429286
 30
0.0
 11
27801.604341291921
 21
1890.786580793706
 31
0.0
1001
AUTOCAD_POSTSCRIPT_FIGURE
1002
{
1000
PSFILL
1000
Grayscale
1000
Grayscale
1070
   100
1002
}
  0
LINE
  5
315F
  8
YODOROGO
 10
27817.604341291921
 20
1747.749496429286
 30
0.0
 11
27801.604341291921
 21
1747.749496429286
 31
0.0
1001
AUTOCAD_POSTSCRIPT_FIGURE
1002
{
1000
PSFILL
1000
Grayscale
1000
Grayscale
1070
   100
1002
}
  0
LINE
  5
3160
  8
YODOROGO
 10
27817.604341291921
 20
1893.7713320852661
 30
0.0
 11
27817.604341291921
 21
1747.749496429286
 31
0.0
1001
AUTOCAD_POSTSCRIPT_FIGURE
1002
{
1000
PSFILL
1000
Grayscale
1000
Grayscale
1070
   100
1002
}
  0
LINE
  5
3161
  8
YODOROGO
 10
27841.604341291921
 20
1867.6547582841361
 30
0.0
 11
27817.604341291921
 21
1893.7713320852661
 31
0.0
1001
AUTOCAD_POSTSCRIPT_FIGURE
1002
{
1000
PSFILL
1000
Grayscale
1000
Grayscale
1070
   100
1002
}
  0
LINE
  5
3162
  8
YODOROGO
 10
27841.604341291921
 20
1883.6547582841361
 30
0.0
 11
27841.604341291921
 21
1867.6547582841361
 31
0.0
1001
AUTOCAD_POSTSCRIPT_FIGURE
1002
{
1000
PSFILL
1000
Grayscale
1000
Grayscale
1070
   100
1002
}
  0
LINE
  5
3163
  8
YODOROGO
 10
27817.604341291921
 20
1917.7713320852649
 30
0.0
 11
27841.604341291921
 21
1883.6547582841361
 31
0.0
1001
AUTOCAD_POSTSCRIPT_FIGURE
1002
{
1000
PSFILL
1000
Grayscale
1000
Grayscale
1070
   100
1002
}
  0
LINE
  5
3164
  8
YODOROGO
 10
27817.604341291921
 20
1939.749496429288
 30
0.0
 11
27817.604341291921
 21
1917.7713320852649
 31
0.0
1001
AUTOCAD_POSTSCRIPT_FIGURE
1002
{
1000
PSFILL
1000
Grayscale
1000
Grayscale
1070
   100
1002
}
  0
LINE
  5
3165
  8
YODOROGO
 10
27889.604341291921
 20
1939.749496429288
 30
0.0
 11
27817.604341291921
 21
1939.749496429288
 31
0.0
1001
AUTOCAD_POSTSCRIPT_FIGURE
1002
{
1000
PSFILL
1000
Grayscale
1000
Grayscale
1070
   100
1002
}
  0
LINE
  5
3166
  8
YODOROGO
 10
27889.604341291921
 20
1900.5683489363
 30
0.0
 11
27889.604341291921
 21
1939.749496429288
 31
0.0
1001
AUTOCAD_POSTSCRIPT_FIGURE
1002
{
1000
PSFILL
1000
Grayscale
1000
Grayscale
1070
   100
1002
}
  0
LINE
  5
3167
  8
YODOROGO
 10
27857.604341291921
 20
1900.5683489363
 30
0.0
 11
27889.604341291921
 21
1900.5683489363
 31
0.0
1001
AUTOCAD_POSTSCRIPT_FIGURE
1002
{
1000
PSFILL
1000
Grayscale
1000
Grayscale
1070
   100
1002
}
  0
LINE
  5
3168
  8
YODOROGO
 10
27857.604341291921
 20
1884.568348936298
 30
0.0
 11
27857.604341291921
 21
1900.5683489363
 31
0.0
1001
AUTOCAD_POSTSCRIPT_FIGURE
1002
{
1000
PSFILL
1000
Grayscale
1000
Grayscale
1070
   100
1002
}
  0
LINE
  5
3169
  8
YODOROGO
 10
27889.604341291921
 20
1884.568348936298
 30
0.0
 11
27857.604341291921
 21
1884.568348936298
 31
0.0
1001
AUTOCAD_POSTSCRIPT_FIGURE
1002
{
1000
PSFILL
1000
Grayscale
1000
Grayscale
1070
   100
1002
}
  0
LINE
  5
316A
  8
YODOROGO
 10
27889.604341291921
 20
1879.6191779644371
 30
0.0
 11
27889.604341291921
 21
1884.568348936298
 31
0.0
1001
AUTOCAD_POSTSCRIPT_FIGURE
1002
{
1000
PSFILL
1000
Grayscale
1000
Grayscale
1070
   100
1002
}
  0
LINE
  5
316B
  8
YODOROGO
 10
27849.604341291921
 20
1812.974981161417
 30
0.0
 11
27889.604341291921
 21
1879.6191779644371
 31
0.0
1001
AUTOCAD_POSTSCRIPT_FIGURE
1002
{
1000
PSFILL
1000
Grayscale
1000
Grayscale
1070
   100
1002
}
  0
LINE
  5
316C
  8
YODOROGO
 10
27849.604341291921
 20
1796.9749811614161
 30
0.0
 11
27849.604341291921
 21
1812.974981161417
 31
0.0
1001
AUTOCAD_POSTSCRIPT_FIGURE
1002
{
1000
PSFILL
1000
Grayscale
1000
Grayscale
1070
   100
1002
}
  0
LINE
  5
316D
  8
YODOROGO
 10
27889.604341291921
 20
1847.6191779644359
 30
0.0
 11
27849.604341291921
 21
1796.9749811614161
 31
0.0
1001
AUTOCAD_POSTSCRIPT_FIGURE
1002
{
1000
PSFILL
1000
Grayscale
1000
Grayscale
1070
   100
1002
}
  0
LINE
  5
316E
  8
YODOROGO
 10
27889.604341291921
 20
1747.749496429286
 30
0.0
 11
27889.604341291921
 21
1847.6191779644359
 31
0.0
1001
AUTOCAD_POSTSCRIPT_FIGURE
1002
{
1000
PSFILL
1000
Grayscale
1000
Grayscale
1070
   100
1002
}
  0
LINE
  5
316F
  8
YODOROGO
 10
27905.604341291921
 20
1747.749496429286
 30
0.0
 11
27889.604341291921
 21
1747.749496429286
 31
0.0
1001
AUTOCAD_POSTSCRIPT_FIGURE
1002
{
1000
PSFILL
1000
Grayscale
1000
Grayscale
1070
   100
1002
}
  0
LINE
  5
3170
  8
YODOROGO
 10
27905.604341291921
 20
1849.409012158806
 30
0.0
 11
27905.604341291921
 21
1747.749496429286
 31
0.0
1001
AUTOCAD_POSTSCRIPT_FIGURE
1002
{
1000
PSFILL
1000
Grayscale
1000
Grayscale
1070
   100
1002
}
  0
LINE
  5
3171
  8
YODOROGO
 10
27937.604341291921
 20
1796.9749811614161
 30
0.0
 11
27905.604341291921
 21
1849.409012158806
 31
0.0
1001
AUTOCAD_POSTSCRIPT_FIGURE
1002
{
1000
PSFILL
1000
Grayscale
1000
Grayscale
1070
   100
1002
}
  0
LINE
  5
3172
  8
YODOROGO
 10
27937.604341291921
 20
1812.974981161417
 30
0.0
 11
27937.604341291921
 21
1796.9749811614161
 31
0.0
1001
AUTOCAD_POSTSCRIPT_FIGURE
1002
{
1000
PSFILL
1000
Grayscale
1000
Grayscale
1070
   100
1002
}
  0
LINE
  5
3173
  8
YODOROGO
 10
27905.604341291921
 20
1881.4090121588081
 30
0.0
 11
27937.604341291921
 21
1812.974981161417
 31
0.0
1001
AUTOCAD_POSTSCRIPT_FIGURE
1002
{
1000
PSFILL
1000
Grayscale
1000
Grayscale
1070
   100
1002
}
  0
LINE
  5
3174
  8
YODOROGO
 10
27905.604341291939
 20
1884.5683489363
 30
0.0
 11
27905.604341291921
 21
1881.4090121588081
 31
0.0
1001
AUTOCAD_POSTSCRIPT_FIGURE
1002
{
1000
PSFILL
1000
Grayscale
1000
Grayscale
1070
   100
1002
}
  0
LINE
  5
3175
  8
YODOROGO
 10
27937.604341291921
 20
1884.568348936298
 30
0.0
 11
27905.604341291939
 21
1884.5683489363
 31
0.0
1001
AUTOCAD_POSTSCRIPT_FIGURE
1002
{
1000
PSFILL
1000
Grayscale
1000
Grayscale
1070
   100
1002
}
  0
LINE
  5
3176
  8
YODOROGO
 10
27937.604341291921
 20
1900.5683489363
 30
0.0
 11
27937.604341291921
 21
1884.568348936298
 31
0.0
1001
AUTOCAD_POSTSCRIPT_FIGURE
1002
{
1000
PSFILL
1000
Grayscale
1000
Grayscale
1070
   100
1002
}
  0
LINE
  5
3177
  8
YODOROGO
 10
27905.604341291921
 20
1900.5683489363
 30
0.0
 11
27937.604341291921
 21
1900.5683489363
 31
0.0
1001
AUTOCAD_POSTSCRIPT_FIGURE
1002
{
1000
PSFILL
1000
Grayscale
1000
Grayscale
1070
   100
1002
}
  0
LINE
  5
3178
  8
YODOROGO
 10
27905.604341291921
 20
1939.749496429288
 30
0.0
 11
27905.604341291921
 21
1900.5683489363
 31
0.0
1001
AUTOCAD_POSTSCRIPT_FIGURE
1002
{
1000
PSFILL
1000
Grayscale
1000
Grayscale
1070
   100
1002
}
  0
LINE
  5
3179
  8
YODOROGO
 10
27937.604341291921
 20
1939.749496429288
 30
0.0
 11
27905.604341291921
 21
1939.749496429288
 31
0.0
1001
AUTOCAD_POSTSCRIPT_FIGURE
1002
{
1000
PSFILL
1000
Grayscale
1000
Grayscale
1070
   100
1002
}
  0
LINE
  5
317A
  8
YODOROGO
 10
27937.604341291921
 20
1955.7494964292871
 30
0.0
 11
27937.604341291921
 21
1939.749496429288
 31
0.0
1001
AUTOCAD_POSTSCRIPT_FIGURE
1002
{
1000
PSFILL
1000
Grayscale
1000
Grayscale
1070
   100
1002
}
  0
LINE
  5
317B
  8
YODOROGO
 10
27905.604341291921
 20
1955.7494964292871
 30
0.0
 11
27937.604341291921
 21
1955.7494964292871
 31
0.0
1001
AUTOCAD_POSTSCRIPT_FIGURE
1002
{
1000
PSFILL
1000
Grayscale
1000
Grayscale
1070
   100
1002
}
  0
LINE
  5
317C
  8
YODOROGO
 10
27905.604341291921
 20
1979.749496429288
 30
0.0
 11
27905.604341291921
 21
1955.7494964292871
 31
0.0
1001
AUTOCAD_POSTSCRIPT_FIGURE
1002
{
1000
PSFILL
1000
Grayscale
1000
Grayscale
1070
   100
1002
}
  0
LINE
  5
317D
  8
YODOROGO
 10
27889.604341291921
 20
1979.749496429288
 30
0.0
 11
27905.604341291921
 21
1979.749496429288
 31
0.0
1001
AUTOCAD_POSTSCRIPT_FIGURE
1002
{
1000
PSFILL
1000
Grayscale
1000
Grayscale
1070
   100
1002
}
  0
LINE
  5
317E
  8
YODOROGO
 10
27889.604341291921
 20
1955.7494964292871
 30
0.0
 11
27889.604341291921
 21
1979.749496429288
 31
0.0
1001
AUTOCAD_POSTSCRIPT_FIGURE
1002
{
1000
PSFILL
1000
Grayscale
1000
Grayscale
1070
   100
1002
}
  0
LINE
  5
317F
  8
YODOROGO
 10
27865.604341291921
 20
1955.7494964292871
 30
0.0
 11
27889.604341291921
 21
1955.7494964292871
 31
0.0
1001
AUTOCAD_POSTSCRIPT_FIGURE
1002
{
1000
PSFILL
1000
Grayscale
1000
Grayscale
1070
   100
1002
}
  0
LINE
  5
3180
  8
YODOROGO
 10
27865.604341291921
 20
1979.749496429288
 30
0.0
 11
27865.604341291921
 21
1955.7494964292871
 31
0.0
1001
AUTOCAD_POSTSCRIPT_FIGURE
1002
{
1000
PSFILL
1000
Grayscale
1000
Grayscale
1070
   100
1002
}
  0
LINE
  5
3181
  8
YODOROGO
 10
27849.604341291921
 20
1979.749496429288
 30
0.0
 11
27865.604341291921
 21
1979.749496429288
 31
0.0
1001
AUTOCAD_POSTSCRIPT_FIGURE
1002
{
1000
PSFILL
1000
Grayscale
1000
Grayscale
1070
   100
1002
}
  0
LINE
  5
3182
  8
YODOROGO
 10
27849.604341291921
 20
1955.7494964292871
 30
0.0
 11
27849.604341291921
 21
1979.749496429288
 31
0.0
1001
AUTOCAD_POSTSCRIPT_FIGURE
1002
{
1000
PSFILL
1000
Grayscale
1000
Grayscale
1070
   100
1002
}
  0
LINE
  5
3183
  8
YODOROGO
 10
27817.604341291921
 20
1955.7494964292871
 30
0.0
 11
27849.604341291921
 21
1955.7494964292871
 31
0.0
1001
AUTOCAD_POSTSCRIPT_FIGURE
1002
{
1000
PSFILL
1000
Grayscale
1000
Grayscale
1070
   100
1002
}
  0
LINE
  5
3184
  8
YODOROGO
 10
27817.604341291921
 20
1979.749496429288
 30
0.0
 11
27817.604341291921
 21
1955.7494964292871
 31
0.0
1001
AUTOCAD_POSTSCRIPT_FIGURE
1002
{
1000
PSFILL
1000
Grayscale
1000
Grayscale
1070
   100
1002
}
  0
LINE
  5
3185
  8
YODOROGO
 10
27801.604341291921
 20
1979.749496429288
 30
0.0
 11
27817.604341291921
 21
1979.749496429288
 31
0.0
1001
AUTOCAD_POSTSCRIPT_FIGURE
1002
{
1000
PSFILL
1000
Grayscale
1000
Grayscale
1070
   100
1002
}
  0
LINE
  5
3186
  8
YODOROGO
 10
27801.604341291921
 20
1955.7494964292871
 30
0.0
 11
27801.604341291921
 21
1979.749496429288
 31
0.0
1001
AUTOCAD_POSTSCRIPT_FIGURE
1002
{
1000
PSFILL
1000
Grayscale
1000
Grayscale
1070
   100
1002
}
  0
LINE
  5
3187
  8
YODOROGO
 10
27777.604341291921
 20
1955.7494964292871
 30
0.0
 11
27801.604341291921
 21
1955.7494964292871
 31
0.0
1001
AUTOCAD_POSTSCRIPT_FIGURE
1002
{
1000
PSFILL
1000
Grayscale
1000
Grayscale
1070
   100
1002
}
  0
LINE
  5
3188
  8
YODOROGO
 10
27777.604341291921
 20
1939.749496429288
 30
0.0
 11
27777.604341291921
 21
1955.7494964292871
 31
0.0
1001
AUTOCAD_POSTSCRIPT_FIGURE
1002
{
1000
PSFILL
1000
Grayscale
1000
Grayscale
1070
   100
1002
}
  0
LINE
  5
3189
  8
YODOROGO
 10
27801.604341291921
 20
1939.749496429288
 30
0.0
 11
27777.604341291921
 21
1939.749496429288
 31
0.0
1001
AUTOCAD_POSTSCRIPT_FIGURE
1002
{
1000
PSFILL
1000
Grayscale
1000
Grayscale
1070
   100
1002
}
  0
LINE
  5
318A
  8
YODOROGO
 10
27801.604341291921
 20
1914.7865807937051
 30
0.0
 11
27801.604341291921
 21
1939.749496429288
 31
0.0
1001
AUTOCAD_POSTSCRIPT_FIGURE
1002
{
1000
PSFILL
1000
Grayscale
1000
Grayscale
1070
   100
1002
}
  0
LINE
  5
318B
  8
YODOROGO
 10
27777.604341291921
 20
1859.776747951671
 30
0.0
 11
27801.604341291921
 21
1914.7865807937051
 31
0.0
1001
AUTOCAD_POSTSCRIPT_FIGURE
1002
{
1000
PSFILL
1000
Grayscale
1000
Grayscale
1070
   100
1002
}
  0
LINE
  5
318C
  8
YODOROGO
 10
27777.604341291921
 20
1843.776747951672
 30
0.0
 11
27777.604341291921
 21
1859.776747951671
 31
0.0
1001
AUTOCAD_POSTSCRIPT_FIGURE
1002
{
1000
PSFILL
1000
Grayscale
1000
Grayscale
1070
   100
1002
}
  0
LINE
  5
318D
  8
YODOROGO
 10
28257.604341291921
 20
1867.7494964292871
 30
0.0
 11
28401.60434129191
 21
1824.877625640306
 31
0.0
1001
AUTOCAD_POSTSCRIPT_FIGURE
1002
{
1000
PSFILL
1000
Grayscale
1000
Grayscale
1070
   100
1002
}
  0
LINE
  5
318E
  8
YODOROGO
 10
28401.60434129191
 20
1752.877625640306
 30
0.0
 11
28257.604341291921
 21
1795.7494964292871
 31
0.0
1001
AUTOCAD_POSTSCRIPT_FIGURE
1002
{
1000
PSFILL
1000
Grayscale
1000
Grayscale
1070
   100
1002
}
  0
LINE
  5
318F
  8
YODOROGO
 10
28401.60434129191
 20
1984.877625640306
 30
0.0
 11
28257.604341291921
 21
2027.749496429288
 31
0.0
1001
AUTOCAD_POSTSCRIPT_FIGURE
1002
{
1000
PSFILL
1000
Grayscale
1000
Grayscale
1070
   100
1002
}
  0
LINE
  5
3190
  8
YODOROGO
 10
28257.604341291921
 20
1959.749496429288
 30
0.0
 11
28401.60434129191
 21
1916.8776256403071
 31
0.0
1001
AUTOCAD_POSTSCRIPT_FIGURE
1002
{
1000
PSFILL
1000
Grayscale
1000
Grayscale
1070
   100
1002
}
  0
LINE
  5
3191
  8
YODOROGO
 10
28257.604341291921
 20
1795.7494964292871
 30
0.0
 11
28257.604341291921
 21
1867.7494964292871
 31
0.0
1001
AUTOCAD_POSTSCRIPT_FIGURE
1002
{
1000
PSFILL
1000
Grayscale
1000
Grayscale
1070
   100
1002
}
  0
LINE
  5
3192
  8
YODOROGO
 10
28257.604341291921
 20
2027.749496429288
 30
0.0
 11
28257.604341291921
 21
1959.749496429288
 31
0.0
1001
AUTOCAD_POSTSCRIPT_FIGURE
1002
{
1000
PSFILL
1000
Grayscale
1000
Grayscale
1070
   100
1002
}
  0
LINE
  5
3193
  8
YODOROGO
 10
28080.236320206739
 20
1939.749496429288
 30
0.0
 11
28129.60434129191
 21
1747.749496429286
 31
0.0
1001
AUTOCAD_POSTSCRIPT_FIGURE
1002
{
1000
PSFILL
1000
Grayscale
1000
Grayscale
1070
   100
1002
}
  0
LINE
  5
3194
  8
YODOROGO
 10
27977.604341291921
 20
1939.749496429288
 30
0.0
 11
28080.236320206739
 21
1939.749496429288
 31
0.0
1001
AUTOCAD_POSTSCRIPT_FIGURE
1002
{
1000
PSFILL
1000
Grayscale
1000
Grayscale
1070
   100
1002
}
  0
LINE
  5
3195
  8
YODOROGO
 10
27977.604341291921
 20
1955.7494964292871
 30
0.0
 11
27977.604341291921
 21
1939.749496429288
 31
0.0
1001
AUTOCAD_POSTSCRIPT_FIGURE
1002
{
1000
PSFILL
1000
Grayscale
1000
Grayscale
1070
   100
1002
}
  0
LINE
  5
3196
  8
YODOROGO
 10
28076.60687851991
 20
1955.7494964292871
 30
0.0
 11
27977.604341291921
 21
1955.7494964292871
 31
0.0
1001
AUTOCAD_POSTSCRIPT_FIGURE
1002
{
1000
PSFILL
1000
Grayscale
1000
Grayscale
1070
   100
1002
}
  0
LINE
  5
3197
  8
YODOROGO
 10
28071.162715989711
 20
1979.749496429288
 30
0.0
 11
28076.60687851991
 21
1955.7494964292871
 31
0.0
1001
AUTOCAD_POSTSCRIPT_FIGURE
1002
{
1000
PSFILL
1000
Grayscale
1000
Grayscale
1070
   100
1002
}
  0
LINE
  5
3198
  8
YODOROGO
 10
28091.162715989711
 20
1979.749496429288
 30
0.0
 11
28071.162715989711
 21
1979.749496429288
 31
0.0
1001
AUTOCAD_POSTSCRIPT_FIGURE
1002
{
1000
PSFILL
1000
Grayscale
1000
Grayscale
1070
   100
1002
}
  0
LINE
  5
3199
  8
YODOROGO
 10
28095.806878519939
 20
1955.7494964292871
 30
0.0
 11
28091.162715989711
 21
1979.749496429288
 31
0.0
1001
AUTOCAD_POSTSCRIPT_FIGURE
1002
{
1000
PSFILL
1000
Grayscale
1000
Grayscale
1070
   100
1002
}
  0
LINE
  5
319A
  8
YODOROGO
 10
28121.604341291921
 20
1955.7494964292871
 30
0.0
 11
28095.806878519939
 21
1955.7494964292871
 31
0.0
1001
AUTOCAD_POSTSCRIPT_FIGURE
1002
{
1000
PSFILL
1000
Grayscale
1000
Grayscale
1070
   100
1002
}
  0
LINE
  5
319B
  8
YODOROGO
 10
28121.604341291921
 20
1979.749496429288
 30
0.0
 11
28121.604341291921
 21
1955.7494964292871
 31
0.0
1001
AUTOCAD_POSTSCRIPT_FIGURE
1002
{
1000
PSFILL
1000
Grayscale
1000
Grayscale
1070
   100
1002
}
  0
LINE
  5
319C
  8
YODOROGO
 10
28137.604341291921
 20
1979.749496429288
 30
0.0
 11
28121.604341291921
 21
1979.749496429288
 31
0.0
1001
AUTOCAD_POSTSCRIPT_FIGURE
1002
{
1000
PSFILL
1000
Grayscale
1000
Grayscale
1070
   100
1002
}
  0
LINE
  5
319D
  8
YODOROGO
 10
28137.604341291921
 20
1955.7494964292871
 30
0.0
 11
28137.604341291921
 21
1979.749496429288
 31
0.0
1001
AUTOCAD_POSTSCRIPT_FIGURE
1002
{
1000
PSFILL
1000
Grayscale
1000
Grayscale
1070
   100
1002
}
  0
LINE
  5
319E
  8
YODOROGO
 10
28137.604341291921
 20
1939.749496429288
 30
0.0
 11
28137.604341291921
 21
1955.7494964292871
 31
0.0
1001
AUTOCAD_POSTSCRIPT_FIGURE
1002
{
1000
PSFILL
1000
Grayscale
1000
Grayscale
1070
   100
1002
}
  0
LINE
  5
319F
  8
YODOROGO
 10
28098.902986873411
 20
1939.749496429288
 30
0.0
 11
28137.604341291921
 21
1939.749496429288
 31
0.0
1001
AUTOCAD_POSTSCRIPT_FIGURE
1002
{
1000
PSFILL
1000
Grayscale
1000
Grayscale
1070
   100
1002
}
  0
LINE
  5
31A0
  8
YODOROGO
 10
28137.604341291921
 20
1747.749496429286
 30
0.0
 11
28098.902986873411
 21
1939.749496429288
 31
0.0
1001
AUTOCAD_POSTSCRIPT_FIGURE
1002
{
1000
PSFILL
1000
Grayscale
1000
Grayscale
1070
   100
1002
}
  0
LINE
  5
31A1
  8
YODOROGO
 10
28129.60434129191
 20
1747.749496429286
 30
0.0
 11
28137.604341291921
 21
1747.749496429286
 31
0.0
1001
AUTOCAD_POSTSCRIPT_FIGURE
1002
{
1000
PSFILL
1000
Grayscale
1000
Grayscale
1070
   100
1002
}
  0
LINE
  5
31A2
  8
YODOROGO
 10
28078.06921993379
 20
1775.7407762987939
 30
0.0
 11
27977.604341291921
 21
1747.749496429286
 31
0.0
  0
LINE
  5
31A3
  8
YODOROGO
 10
28078.06921993379
 20
1798.6689795290731
 30
0.0
 11
28078.06921993379
 21
1775.7407762987939
 31
0.0
  0
LINE
  5
31A4
  8
YODOROGO
 10
28033.83678061287
 20
1786.816933133767
 30
0.0
 11
28078.06921993379
 21
1798.6689795290731
 31
0.0
  0
LINE
  5
31A5
  8
YODOROGO
 10
28033.83678061287
 20
1872.5683489362989
 30
0.0
 11
28033.83678061287
 21
1786.816933133767
 31
0.0
  0
LINE
  5
31A6
  8
YODOROGO
 10
28078.06921993379
 20
1872.5683489362989
 30
0.0
 11
28033.83678061287
 21
1872.5683489362989
 31
0.0
  0
LINE
  5
31A7
  8
YODOROGO
 10
28078.06921993379
 20
1892.568348936298
 30
0.0
 11
28078.06921993379
 21
1872.5683489362989
 31
0.0
  0
LINE
  5
31A8
  8
YODOROGO
 10
27977.604341291921
 20
1892.568348936298
 30
0.0
 11
28078.06921993379
 21
1892.568348936298
 31
0.0
  0
LINE
  5
31A9
  8
YODOROGO
 10
27977.604341291921
 20
1872.5683489362989
 30
0.0
 11
27977.604341291921
 21
1892.568348936298
 31
0.0
  0
LINE
  5
31AA
  8
YODOROGO
 10
28021.836780612852
 20
1872.5683489362989
 30
0.0
 11
27977.604341291921
 21
1872.5683489362989
 31
0.0
  0
LINE
  5
31AB
  8
YODOROGO
 10
28021.836780612852
 20
1784.673339594317
 30
0.0
 11
28021.836780612852
 21
1872.5683489362989
 31
0.0
  0
LINE
  5
31AC
  8
YODOROGO
 10
27977.604341291921
 20
1771.749496429286
 30
0.0
 11
28021.836780612852
 21
1784.673339594317
 31
0.0
  0
LINE
  5
31AD
  8
YODOROGO
 10
27977.604341291921
 20
1747.749496429286
 30
0.0
 11
27977.604341291921
 21
1771.749496429286
 31
0.0
  0
LINE
  5
31AE
  8
YODOROGO
 10
28001.604341291921
 20
1707.749496429288
 30
0.0
 11
28001.604341291921
 21
1683.7494964292871
 31
0.0
  0
LINE
  5
31AF
  8
YODOROGO
 10
28017.604341291921
 20
1707.749496429288
 30
0.0
 11
28001.604341291921
 21
1707.749496429288
 31
0.0
  0
LINE
  5
31B0
  8
YODOROGO
 10
28017.604341291921
 20
1683.7494964292871
 30
0.0
 11
28017.604341291921
 21
1707.749496429288
 31
0.0
  0
LINE
  5
31B1
  8
YODOROGO
 10
28040.913204016892
 20
1683.7494964292871
 30
0.0
 11
28017.604341291921
 21
1683.7494964292871
 31
0.0
  0
LINE
  5
31B2
  8
YODOROGO
 10
28001.604341291921
 20
1683.7494964292871
 30
0.0
 11
27977.604341291921
 21
1683.7494964292871
 31
0.0
  0
LINE
  5
31B3
  8
YODOROGO
 10
28082.135520230921
 20
1707.749496429288
 30
0.0
 11
28098.135520230931
 21
1707.749496429288
 31
0.0
1001
AUTOCAD_POSTSCRIPT_FIGURE
1002
{
1000
PSFILL
1000
Grayscale
1000
Grayscale
1070
   100
1002
}
  0
LINE
  5
31B4
  8
YODOROGO
 10
28401.60434129191
 20
1824.877625640306
 30
0.0
 11
28401.60434129191
 21
1752.877625640306
 31
0.0
1001
AUTOCAD_POSTSCRIPT_FIGURE
1002
{
1000
PSFILL
1000
Grayscale
1000
Grayscale
1070
   100
1002
}
  0
LINE
  5
31B5
  8
YODOROGO
 10
28401.60434129191
 20
1916.8776256403071
 30
0.0
 11
28401.60434129191
 21
1984.877625640306
 31
0.0
1001
AUTOCAD_POSTSCRIPT_FIGURE
1002
{
1000
PSFILL
1000
Grayscale
1000
Grayscale
1070
   100
1002
}
  0
LINE
  5
31B6
  8
YODOROGO
 10
28433.60434129191
 20
1819.7494964292871
 30
0.0
 11
28433.60434129191
 21
1747.74949642929
 31
0.0
  0
LINE
  5
31B7
  8
YODOROGO
 10
28497.60434129191
 20
1707.749496429288
 30
0.0
 11
28433.60434129191
 21
1707.749496429288
 31
0.0
  0
LINE
  5
31B8
  8
YODOROGO
 10
28433.60434129191
 20
1747.74949642929
 30
0.0
 11
28585.604341291921
 21
1747.74949642929
 31
0.0
  0
LINE
  5
31B9
  8
YODOROGO
 10
28497.60434129191
 20
1867.7494964292871
 30
0.0
 11
28433.60434129191
 21
1867.7494964292871
 31
0.0
  0
LINE
  5
31BA
  8
YODOROGO
 10
28497.60434129191
 20
1923.7494964292871
 30
0.0
 11
28497.60434129191
 21
1867.7494964292871
 31
0.0
  0
LINE
  5
31BB
  8
YODOROGO
 10
28585.604341291921
 20
1987.7494964292871
 30
0.0
 11
28585.604341291921
 21
2027.749496429288
 31
0.0
  0
LINE
  5
31BC
  8
YODOROGO
 10
28433.60434129191
 20
1987.7494964292871
 30
0.0
 11
28585.604341291921
 21
1987.7494964292871
 31
0.0
  0
LINE
  5
31BD
  8
YODOROGO
 10
28433.60434129191
 20
1867.7494964292871
 30
0.0
 11
28433.60434129191
 21
1987.7494964292871
 31
0.0
  0
LINE
  5
31BE
  8
YODOROGO
 10
29001.60434129191
 20
2027.749496429288
 30
0.0
 11
29001.60434129191
 21
1619.749496429288
 31
0.0
  0
LINE
  5
31BF
  8
YODOROGO
 10
29073.604341291921
 20
1579.749496429288
 30
0.0
 11
29073.604341291921
 21
2027.749496429288
 31
0.0
  0
LINE
  5
31C0
  8
YODOROGO
 10
29261.604341291921
 20
1491.749496429286
 30
0.0
 11
29261.604341291921
 21
2007.749496429288
 31
0.0
  0
LINE
  5
31C1
  8
YODOROGO
 10
29197.604341291921
 20
2007.749496429288
 30
0.0
 11
29197.604341291921
 21
1491.749496429286
 31
0.0
  0
LINE
  5
31C2
  8
YODOROGO
 10
29385.604341291921
 20
2027.749496429288
 30
0.0
 11
29385.604341291921
 21
1427.749496429288
 31
0.0
  0
LINE
  5
31C3
  8
YODOROGO
 10
29457.604341291921
 20
1427.749496429288
 30
0.0
 11
29457.604341291921
 21
2027.749496429288
 31
0.0
  0
LINE
  5
31C4
  8
YODOROGO
 10
28657.604341291921
 20
1667.749496429288
 30
0.0
 11
28657.604341291921
 21
1747.74949642929
 31
0.0
  0
LINE
  5
31C5
  8
YODOROGO
 10
29885.604341291921
 20
1707.749496429288
 30
0.0
 11
29885.604341291921
 21
1667.749496429288
 31
0.0
  0
LINE
  5
31C6
  8
YODOROGO
 10
29885.604341291921
 20
1707.749496429288
 30
0.0
 11
29885.604341291921
 21
1667.749496429288
 31
0.0
  0
ARC
  5
31C7
  8
YODOROGO
 10
28906.911576186842
 20
1618.217864442272
 30
0.0
 40
94.705151178741644
 50
274.05244162907098
 51
0.9266642149310712
  0
ARC
  5
31C8
  8
YODOROGO
 10
28909.186170719819
 20
1592.61072861044
 30
0.0
 40
164.92042356085511
 50
271.53512106537772
 51
355.52727750585052
  0
LINE
  5
31C9
  8
YODOROGO
 10
28913.604341291921
 20
1523.7494964292871
 30
0.0
 11
28913.604341291921
 21
1427.749496429288
 31
0.0
  0
LINE
  5
31CA
  8
YODOROGO
 10
28793.60434129191
 20
1667.749496429288
 30
0.0
 11
28657.604341291921
 21
1667.749496429288
 31
0.0
  0
LINE
  5
31CB
  8
YODOROGO
 10
28793.60434129191
 20
1603.749496429288
 30
0.0
 11
28793.60434129191
 21
1667.749496429288
 31
0.0
  0
LINE
  5
31CC
  8
YODOROGO
 10
28657.604341291921
 20
1603.749496429288
 30
0.0
 11
28793.60434129191
 21
1603.749496429288
 31
0.0
  0
LINE
  5
31CD
  8
YODOROGO
 10
28657.604341291921
 20
1523.7494964292871
 30
0.0
 11
28657.604341291921
 21
1603.749496429288
 31
0.0
  0
LINE
  5
31CE
  8
YODOROGO
 10
28793.60434129191
 20
1523.7494964292871
 30
0.0
 11
28657.604341291921
 21
1523.7494964292871
 31
0.0
  0
LINE
  5
31CF
  8
YODOROGO
 10
28793.60434129191
 20
1427.749496429288
 30
0.0
 11
28793.60434129191
 21
1523.7494964292871
 31
0.0
  0
LINE
  5
31D0
  8
YODOROGO
 10
29197.604341291921
 20
1491.749496429286
 30
0.0
 11
29261.604341291921
 21
1491.749496429286
 31
0.0
  0
LINE
  5
31D1
  8
YODOROGO
 10
29385.604341291921
 20
1427.749496429288
 30
0.0
 11
29457.604341291921
 21
1427.749496429288
 31
0.0
  0
LINE
  5
31D2
  8
YODOROGO
 10
29737.604341291921
 20
1528.4414521705639
 30
0.0
 11
29737.604341291921
 21
1427.749496429288
 31
0.0
  0
LINE
  5
31D3
  8
YODOROGO
 10
29617.604341291921
 20
1427.749496429288
 30
0.0
 11
29737.604341291921
 21
1528.4414521705639
 31
0.0
  0
LINE
  5
31D4
  8
YODOROGO
 10
29617.604341291921
 20
1547.749496429288
 30
0.0
 11
29617.604341291921
 21
1427.749496429288
 31
0.0
  0
LINE
  5
31D5
  8
YODOROGO
 10
29712.944628699472
 20
1627.749496429288
 30
0.0
 11
29617.604341291921
 21
1547.749496429288
 31
0.0
  0
LINE
  5
31D6
  8
YODOROGO
 10
29617.604341291921
 20
1627.749496429288
 30
0.0
 11
29712.944628699472
 21
1627.749496429288
 31
0.0
  0
LINE
  5
31D7
  8
YODOROGO
 10
29617.604341291921
 20
1667.749496429288
 30
0.0
 11
29617.604341291921
 21
1627.749496429288
 31
0.0
  0
LINE
  5
31D8
  8
YODOROGO
 10
29885.604341291921
 20
1667.749496429288
 30
0.0
 11
29617.604341291921
 21
1667.749496429288
 31
0.0
  0
LINE
  5
31D9
  8
YODOROGO
 10
29917.604341291921
 20
1627.749496429288
 30
0.0
 11
29777.604341291921
 21
1627.749496429288
 31
0.0
  0
LINE
  5
31DA
  8
YODOROGO
 10
29777.604341291921
 20
1562.0054374176559
 30
0.0
 11
29771.409872985321
 21
1556.807661346234
 31
0.0
  0
LINE
  5
31DB
  8
YODOROGO
 10
29777.604341291921
 20
1627.749496429288
 30
0.0
 11
29777.604341291921
 21
1562.0054374176559
 31
0.0
  0
LINE
  5
31DC
  8
YODOROGO
 10
29737.604341291921
 20
1528.4414521705639
 30
0.0
 11
29737.604341291921
 21
1427.749496429288
 31
0.0
  0
LINE
  5
31DD
  8
YODOROGO
 10
29617.604341291921
 20
1427.749496429288
 30
0.0
 11
29737.604341291921
 21
1528.4414521705639
 31
0.0
  0
LINE
  5
31DE
  8
YODOROGO
 10
29617.604341291921
 20
1547.749496429288
 30
0.0
 11
29617.604341291921
 21
1427.749496429288
 31
0.0
  0
LINE
  5
31DF
  8
YODOROGO
 10
29712.944628699472
 20
1627.749496429288
 30
0.0
 11
29617.604341291921
 21
1547.749496429288
 31
0.0
  0
LINE
  5
31E0
  8
YODOROGO
 10
29617.604341291921
 20
1627.749496429288
 30
0.0
 11
29712.944628699472
 21
1627.749496429288
 31
0.0
  0
LINE
  5
31E1
  8
YODOROGO
 10
29617.604341291921
 20
1667.749496429288
 30
0.0
 11
29617.604341291921
 21
1627.749496429288
 31
0.0
  0
LINE
  5
31E2
  8
YODOROGO
 10
29885.604341291921
 20
1667.749496429288
 30
0.0
 11
29617.604341291921
 21
1667.749496429288
 31
0.0
  0
LINE
  5
31E3
  8
YODOROGO
 10
28793.60434129191
 20
1747.74949642929
 30
0.0
 11
28793.60434129191
 21
1819.7494964292871
 31
0.0
  0
LINE
  5
31E4
  8
YODOROGO
 10
28657.604341291921
 20
1747.74949642929
 30
0.0
 11
28793.60434129191
 21
1747.74949642929
 31
0.0
  0
LINE
  5
31E5
  8
YODOROGO
 10
28729.604341291921
 20
1867.7494964292871
 30
0.0
 11
28729.604341291921
 21
1923.7494964292871
 31
0.0
  0
LINE
  5
31E6
  8
YODOROGO
 10
28793.60434129191
 20
1867.7494964292871
 30
0.0
 11
28729.604341291921
 21
1867.7494964292871
 31
0.0
  0
LINE
  5
31E7
  8
YODOROGO
 10
28793.60434129191
 20
1947.749496429288
 30
0.0
 11
28793.60434129191
 21
1867.7494964292871
 31
0.0
  0
ARC
  5
31E8
  8
YODOROGO
 10
28753.60434129191
 20
1947.749496429288
 30
0.0
 40
40.0
 50
0.0
 51
90.0
  0
LINE
  5
31E9
  8
YODOROGO
 10
28657.604341291921
 20
1987.7494964292871
 30
0.0
 11
28753.60434129191
 21
1987.7494964292871
 31
0.0
  0
LINE
  5
31EA
  8
YODOROGO
 10
28657.604341291921
 20
2027.749496429288
 30
0.0
 11
28657.604341291921
 21
1987.7494964292871
 31
0.0
  0
LINE
  5
31EB
  8
YODOROGO
 10
29073.604341291921
 20
2027.749496429288
 30
0.0
 11
29001.60434129191
 21
2027.749496429288
 31
0.0
  0
LINE
  5
31EC
  8
YODOROGO
 10
29261.604341291921
 20
2007.749496429288
 30
0.0
 11
29197.604341291921
 21
2007.749496429288
 31
0.0
  0
LINE
  5
31ED
  8
YODOROGO
 10
29457.604341291921
 20
2027.749496429288
 30
0.0
 11
29385.604341291921
 21
2027.749496429288
 31
0.0
  0
LINE
  5
31EE
  8
YODOROGO
 10
29673.604341291921
 20
1707.749496429288
 30
0.0
 11
29673.604341291921
 21
1771.7494964292871
 31
0.0
1001
AUTOCAD_POSTSCRIPT_FIGURE
1002
{
1000
PSFILL
1000
Grayscale
1000
Grayscale
1070
    25
1002
}
  0
LINE
  5
31EF
  8
YODOROGO
 10
29617.604341291921
 20
1707.749496429288
 30
0.0
 11
29673.604341291921
 21
1707.749496429288
 31
0.0
1001
AUTOCAD_POSTSCRIPT_FIGURE
1002
{
1000
PSFILL
1000
Grayscale
1000
Grayscale
1070
    25
1002
}
  0
LINE
  5
31F0
  8
YODOROGO
 10
29617.604341291921
 20
1819.7494964292871
 30
0.0
 11
29617.604341291921
 21
1707.749496429288
 31
0.0
1001
AUTOCAD_POSTSCRIPT_FIGURE
1002
{
1000
PSFILL
1000
Grayscale
1000
Grayscale
1070
    25
1002
}
  0
LINE
  5
31F1
  8
YODOROGO
 10
29765.604341291921
 20
1819.7494964292871
 30
0.0
 11
29617.604341291921
 21
1819.7494964292871
 31
0.0
1001
AUTOCAD_POSTSCRIPT_FIGURE
1002
{
1000
PSFILL
1000
Grayscale
1000
Grayscale
1070
    25
1002
}
  0
LINE
  5
31F2
  8
YODOROGO
 10
29765.604341291921
 20
1859.749496429288
 30
0.0
 11
29765.604341291921
 21
1819.7494964292871
 31
0.0
1001
AUTOCAD_POSTSCRIPT_FIGURE
1002
{
1000
PSFILL
1000
Grayscale
1000
Grayscale
1070
    25
1002
}
  0
LINE
  5
31F3
  8
YODOROGO
 10
29617.604341291921
 20
1859.749496429288
 30
0.0
 11
29765.604341291921
 21
1859.749496429288
 31
0.0
1001
AUTOCAD_POSTSCRIPT_FIGURE
1002
{
1000
PSFILL
1000
Grayscale
1000
Grayscale
1070
    25
1002
}
  0
LINE
  5
31F4
  8
YODOROGO
 10
29617.604341291921
 20
1907.7494964292871
 30
0.0
 11
29617.604341291921
 21
1859.749496429288
 31
0.0
1001
AUTOCAD_POSTSCRIPT_FIGURE
1002
{
1000
PSFILL
1000
Grayscale
1000
Grayscale
1070
    25
1002
}
  0
LINE
  5
31F5
  8
YODOROGO
 10
29765.604341291921
 20
1907.7494964292871
 30
0.0
 11
29617.604341291921
 21
1907.7494964292871
 31
0.0
1001
AUTOCAD_POSTSCRIPT_FIGURE
1002
{
1000
PSFILL
1000
Grayscale
1000
Grayscale
1070
    25
1002
}
  0
LINE
  5
31F6
  8
YODOROGO
 10
29765.604341291921
 20
1947.749496429288
 30
0.0
 11
29765.604341291921
 21
1907.7494964292871
 31
0.0
1001
AUTOCAD_POSTSCRIPT_FIGURE
1002
{
1000
PSFILL
1000
Grayscale
1000
Grayscale
1070
    25
1002
}
  0
LINE
  5
31F7
  8
YODOROGO
 10
29617.604341291921
 20
1947.749496429288
 30
0.0
 11
29765.604341291921
 21
1947.749496429288
 31
0.0
1001
AUTOCAD_POSTSCRIPT_FIGURE
1002
{
1000
PSFILL
1000
Grayscale
1000
Grayscale
1070
    25
1002
}
  0
LINE
  5
31F8
  8
YODOROGO
 10
29617.604341291921
 20
2027.749496429288
 30
0.0
 11
29617.604341291921
 21
1947.749496429288
 31
0.0
1001
AUTOCAD_POSTSCRIPT_FIGURE
1002
{
1000
PSFILL
1000
Grayscale
1000
Grayscale
1070
    25
1002
}
  0
LINE
  5
31F9
  8
YODOROGO
 10
29665.604341291921
 20
2027.749496429288
 30
0.0
 11
29617.604341291921
 21
2027.749496429288
 31
0.0
1001
AUTOCAD_POSTSCRIPT_FIGURE
1002
{
1000
PSFILL
1000
Grayscale
1000
Grayscale
1070
    25
1002
}
  0
LINE
  5
31FA
  8
YODOROGO
 10
29665.604341291921
 20
1995.7494964292871
 30
0.0
 11
29665.604341291921
 21
2027.749496429288
 31
0.0
1001
AUTOCAD_POSTSCRIPT_FIGURE
1002
{
1000
PSFILL
1000
Grayscale
1000
Grayscale
1070
    25
1002
}
  0
LINE
  5
31FB
  8
YODOROGO
 10
29765.604341291921
 20
1995.7494964292871
 30
0.0
 11
29665.604341291921
 21
1995.7494964292871
 31
0.0
1001
AUTOCAD_POSTSCRIPT_FIGURE
1002
{
1000
PSFILL
1000
Grayscale
1000
Grayscale
1070
    25
1002
}
  0
LINE
  5
31FC
  8
YODOROGO
 10
29765.604341291921
 20
2027.749496429288
 30
0.0
 11
29765.604341291921
 21
1995.7494964292871
 31
0.0
1001
AUTOCAD_POSTSCRIPT_FIGURE
1002
{
1000
PSFILL
1000
Grayscale
1000
Grayscale
1070
    25
1002
}
  0
LINE
  5
31FD
  8
YODOROGO
 10
29829.604341291921
 20
2027.749496429288
 30
0.0
 11
29765.604341291921
 21
2027.749496429288
 31
0.0
1001
AUTOCAD_POSTSCRIPT_FIGURE
1002
{
1000
PSFILL
1000
Grayscale
1000
Grayscale
1070
    25
1002
}
  0
LINE
  5
31FE
  8
YODOROGO
 10
29829.604341291921
 20
1995.7494964292871
 30
0.0
 11
29829.604341291921
 21
2027.749496429288
 31
0.0
1001
AUTOCAD_POSTSCRIPT_FIGURE
1002
{
1000
PSFILL
1000
Grayscale
1000
Grayscale
1070
    25
1002
}
  0
LINE
  5
31FF
  8
YODOROGO
 10
29829.604341291921
 20
1907.7494964292871
 30
0.0
 11
29829.604341291921
 21
1947.749496429288
 31
0.0
1001
AUTOCAD_POSTSCRIPT_FIGURE
1002
{
1000
PSFILL
1000
Grayscale
1000
Grayscale
1070
    25
1002
}
  0
LINE
  5
3200
  8
YODOROGO
 10
29829.604341291921
 20
1819.7494964292871
 30
0.0
 11
29829.604341291921
 21
1859.749496429288
 31
0.0
1001
AUTOCAD_POSTSCRIPT_FIGURE
1002
{
1000
PSFILL
1000
Grayscale
1000
Grayscale
1070
    25
1002
}
  0
LINE
  5
3201
  8
YODOROGO
 10
29921.60434129191
 20
1771.7494964292871
 30
0.0
 11
29921.60434129191
 21
1707.749496429288
 31
0.0
1001
AUTOCAD_POSTSCRIPT_FIGURE
1002
{
1000
PSFILL
1000
Grayscale
1000
Grayscale
1070
    25
1002
}
  0
LINE
  5
3202
  8
YODOROGO
 10
29829.604341291921
 20
1771.7494964292871
 30
0.0
 11
29921.60434129191
 21
1771.7494964292871
 31
0.0
1001
AUTOCAD_POSTSCRIPT_FIGURE
1002
{
1000
PSFILL
1000
Grayscale
1000
Grayscale
1070
    25
1002
}
  0
LINE
  5
3203
  8
YODOROGO
 10
29829.604341291921
 20
1707.749496429288
 30
0.0
 11
29829.604341291921
 21
1771.7494964292871
 31
0.0
1001
AUTOCAD_POSTSCRIPT_FIGURE
1002
{
1000
PSFILL
1000
Grayscale
1000
Grayscale
1070
    25
1002
}
  0
LINE
  5
3204
  8
YODOROGO
 10
29765.604341291921
 20
1707.749496429288
 30
0.0
 11
29829.604341291921
 21
1707.749496429288
 31
0.0
1001
AUTOCAD_POSTSCRIPT_FIGURE
1002
{
1000
PSFILL
1000
Grayscale
1000
Grayscale
1070
    25
1002
}
  0
LINE
  5
3205
  8
YODOROGO
 10
29765.604341291921
 20
1771.7494964292871
 30
0.0
 11
29765.604341291921
 21
1707.749496429288
 31
0.0
1001
AUTOCAD_POSTSCRIPT_FIGURE
1002
{
1000
PSFILL
1000
Grayscale
1000
Grayscale
1070
    25
1002
}
  0
LINE
  5
3206
  8
YODOROGO
 10
29673.604341291921
 20
1771.7494964292871
 30
0.0
 11
29765.604341291921
 21
1771.7494964292871
 31
0.0
1001
AUTOCAD_POSTSCRIPT_FIGURE
1002
{
1000
PSFILL
1000
Grayscale
1000
Grayscale
1070
    25
1002
}
  0
ARC
  5
3207
  8
YODOROGO
 10
31059.517893357912
 20
1602.6807375155761
 30
0.0
 40
178.22128111072141
 50
281.02627495425338
 51
357.77113575573799
  0
LINE
  5
3208
  8
YODOROGO
 10
31413.604341291921
 20
1907.7494964292871
 30
0.0
 11
31165.604341291921
 21
1907.7494964292871
 31
0.0
  0
LINE
  5
3209
  8
YODOROGO
 10
31413.604341291921
 20
2027.749496429288
 30
0.0
 11
31165.604341291921
 21
2027.749496429288
 31
0.0
  0
LINE
  5
320A
  8
YODOROGO
 10
31165.604341291921
 20
1963.749496429286
 30
0.0
 11
31413.604341291921
 21
1963.749496429286
 31
0.0
  0
LINE
  5
320B
  8
YODOROGO
 10
30791.604341291921
 20
1563.7494964292871
 30
0.0
 11
30791.604341291921
 21
1755.7494964292871
 31
0.0
  0
LINE
  5
320C
  8
YODOROGO
 10
30763.604341291921
 20
1691.749496429288
 30
0.0
 11
30763.604341291921
 21
1563.7494964292871
 31
0.0
  0
LINE
  5
320D
  8
YODOROGO
 10
30723.604341291921
 20
1491.749496429288
 30
0.0
 11
30723.604341291921
 21
1691.749496429288
 31
0.0
  0
LINE
  5
320E
  8
YODOROGO
 10
30899.604341291932
 20
1691.749496429288
 30
0.0
 11
30899.604341291932
 21
1491.749496429288
 31
0.0
  0
LINE
  5
320F
  8
YODOROGO
 10
30859.604341291932
 20
1563.7494964292871
 30
0.0
 11
30859.604341291932
 21
1691.749496429288
 31
0.0
  0
LINE
  5
3210
  8
YODOROGO
 10
30831.604341291921
 20
1755.7494964292871
 30
0.0
 11
30831.604341291921
 21
1563.7494964292871
 31
0.0
  0
LINE
  5
3211
  8
YODOROGO
 10
30973.604341291921
 20
2027.749496429288
 30
0.0
 11
30973.604341291921
 21
1467.749496429288
 31
0.0
  0
LINE
  5
3212
  8
YODOROGO
 10
30645.604341291921
 20
1427.749496429288
 30
0.0
 11
30645.604341291921
 21
2027.749496429288
 31
0.0
  0
LINE
  5
3213
  8
YODOROGO
 10
30697.604341291932
 20
1963.749496429286
 30
0.0
 11
30697.604341291932
 21
1427.749496429288
 31
0.0
  0
LINE
  5
3214
  8
YODOROGO
 10
30925.604341291921
 20
1547.749496429288
 30
0.0
 11
30925.604341291921
 21
1963.749496429286
 31
0.0
  0
LINE
  5
3215
  8
YODOROGO
 10
30381.604341291932
 20
1627.749496429288
 30
0.0
 11
30381.604341291932
 21
1679.749496429288
 31
0.0
  0
LINE
  5
3216
  8
YODOROGO
 10
30617.604341291921
 20
1679.749496429288
 30
0.0
 11
30617.604341291921
 21
1627.749496429288
 31
0.0
  0
LINE
  5
3217
  8
YODOROGO
 10
31165.604341291921
 20
1907.7494964292871
 30
0.0
 11
31165.604341291921
 21
1635.7494964292871
 31
0.0
  0
LINE
  5
3218
  8
YODOROGO
 10
29949.60434129191
 20
1667.749496429288
 30
0.0
 11
29949.60434129191
 21
1707.749496429288
 31
0.0
  0
LINE
  5
3219
  8
YODOROGO
 10
29949.60434129191
 20
1667.749496429288
 30
0.0
 11
29949.60434129191
 21
1707.749496429288
 31
0.0
  0
ARC
  5
321A
  8
YODOROGO
 10
30537.604341291921
 20
1507.749496429288
 30
0.0
 40
80.0
 50
270.0
 51
0.0
  0
LINE
  5
321B
  8
YODOROGO
 10
30569.604341291921
 20
1599.7494964292871
 30
0.0
 11
30617.604341291921
 21
1599.7494964292871
 31
0.0
  0
LINE
  5
321C
  8
YODOROGO
 10
30617.604341291921
 20
1627.749496429288
 30
0.0
 11
30529.604341291939
 21
1627.749496429288
 31
0.0
  0
LINE
  5
321D
  8
YODOROGO
 10
30217.604341291921
 20
1667.749496429288
 30
0.0
 11
29949.60434129191
 21
1667.749496429288
 31
0.0
  0
LINE
  5
321E
  8
YODOROGO
 10
30217.604341291921
 20
1627.749496429288
 30
0.0
 11
30217.604341291921
 21
1667.749496429288
 31
0.0
  0
LINE
  5
321F
  8
YODOROGO
 10
30017.604341291921
 20
1627.749496429288
 30
0.0
 11
30217.604341291921
 21
1627.749496429288
 31
0.0
  0
ARC
  5
3220
  8
YODOROGO
 10
30230.05882870136
 20
1868.885714952901
 30
0.0
 40
321.37763628522822
 50
228.6181454618993
 51
245.660289248906
  0
LINE
  5
3221
  8
YODOROGO
 10
30105.604341291921
 20
1603.749496429288
 30
0.0
 11
30097.604341291972
 21
1576.0728158699001
 31
0.0
  0
LINE
  5
3222
  8
YODOROGO
 10
30189.604341291921
 20
1603.749496429288
 30
0.0
 11
30105.604341291921
 21
1603.749496429288
 31
0.0
  0
LINE
  5
3223
  8
YODOROGO
 10
30177.604341291921
 20
1551.817722473427
 30
0.0
 11
30189.604341291921
 21
1603.749496429288
 31
0.0
  0
ARC
  5
3224
  8
YODOROGO
 10
30230.058828700468
 20
1868.885714953002
 30
0.0
 40
321.37763628529081
 50
260.60629297969911
 51
267.77903556555862
  0
LINE
  5
3225
  8
YODOROGO
 10
30217.604341291921
 20
1427.749496429285
 30
0.0
 11
30217.604341291921
 21
1547.749496429288
 31
0.0
  0
LINE
  5
3226
  8
YODOROGO
 10
29937.604341291932
 20
1481.3393349155101
 30
0.0
 11
29937.604341291921
 21
1594.531090531141
 31
0.0
  0
LINE
  5
3227
  8
YODOROGO
 10
30217.604341291921
 20
1667.749496429288
 30
0.0
 11
29949.60434129191
 21
1667.749496429288
 31
0.0
  0
LINE
  5
3228
  8
YODOROGO
 10
30217.604341291921
 20
1627.749496429288
 30
0.0
 11
30217.604341291921
 21
1667.749496429288
 31
0.0
  0
LINE
  5
3229
  8
YODOROGO
 10
30017.604341291921
 20
1627.749496429288
 30
0.0
 11
30217.604341291921
 21
1627.749496429288
 31
0.0
  0
ARC
  5
322A
  8
YODOROGO
 10
30230.05882870136
 20
1868.885714952901
 30
0.0
 40
321.37763628522822
 50
228.6181454618993
 51
245.660289248906
  0
LINE
  5
322B
  8
YODOROGO
 10
30105.604341291921
 20
1603.749496429288
 30
0.0
 11
30097.604341291972
 21
1576.0728158699001
 31
0.0
  0
LINE
  5
322C
  8
YODOROGO
 10
30189.604341291921
 20
1603.749496429288
 30
0.0
 11
30105.604341291921
 21
1603.749496429288
 31
0.0
  0
LINE
  5
322D
  8
YODOROGO
 10
30177.604341291921
 20
1551.817722473427
 30
0.0
 11
30189.604341291921
 21
1603.749496429288
 31
0.0
  0
ARC
  5
322E
  8
YODOROGO
 10
30230.058828700468
 20
1868.885714953002
 30
0.0
 40
321.37763628529081
 50
260.60629297969911
 51
267.77903556555862
  0
LINE
  5
322F
  8
YODOROGO
 10
30217.604341291921
 20
1427.749496429285
 30
0.0
 11
30217.604341291921
 21
1547.749496429288
 31
0.0
  0
LINE
  5
3230
  8
YODOROGO
 10
29937.604341291932
 20
1481.3393349155101
 30
0.0
 11
29937.604341291921
 21
1594.531090531141
 31
0.0
  0
LINE
  5
3231
  8
YODOROGO
 10
30433.604341291939
 20
1573.749496429288
 30
0.0
 11
30381.604341291932
 21
1573.749496429288
 31
0.0
  0
LINE
  5
3232
  8
YODOROGO
 10
30433.604341291939
 20
1601.749496429285
 30
0.0
 11
30433.604341291939
 21
1573.749496429288
 31
0.0
  0
LINE
  5
3233
  8
YODOROGO
 10
30381.604341291932
 20
1601.749496429285
 30
0.0
 11
30433.604341291939
 21
1601.749496429285
 31
0.0
  0
LINE
  5
3234
  8
YODOROGO
 10
30381.604341291932
 20
1573.749496429288
 30
0.0
 11
30381.604341291932
 21
1601.749496429285
 31
0.0
  0
LINE
  5
3235
  8
YODOROGO
 10
30429.604341291921
 20
1577.7494964292871
 30
0.0
 11
30385.604341291939
 21
1577.7494964292871
 31
0.0
  0
LINE
  5
3236
  8
YODOROGO
 10
30429.604341291921
 20
1597.749496429288
 30
0.0
 11
30429.604341291921
 21
1577.7494964292871
 31
0.0
  0
LINE
  5
3237
  8
YODOROGO
 10
30385.604341291939
 20
1597.749496429288
 30
0.0
 11
30429.604341291921
 21
1597.749496429288
 31
0.0
  0
LINE
  5
3238
  8
YODOROGO
 10
30385.604341291939
 20
1577.7494964292871
 30
0.0
 11
30385.604341291939
 21
1597.749496429288
 31
0.0
  0
LINE
  5
3239
  8
YODOROGO
 10
30425.604341291921
 20
1581.749496429286
 30
0.0
 11
30389.604341291939
 21
1581.749496429286
 31
0.0
  0
LINE
  5
323A
  8
YODOROGO
 10
30425.604341291939
 20
1593.749496429288
 30
0.0
 11
30425.604341291921
 21
1581.749496429286
 31
0.0
  0
LINE
  5
323B
  8
YODOROGO
 10
30389.604341291939
 20
1593.749496429288
 30
0.0
 11
30425.604341291939
 21
1593.749496429288
 31
0.0
  0
LINE
  5
323C
  8
YODOROGO
 10
30389.604341291939
 20
1581.749496429286
 30
0.0
 11
30389.604341291939
 21
1593.749496429288
 31
0.0
  0
LINE
  5
323D
  8
YODOROGO
 10
30421.604341291932
 20
1585.7494964292871
 30
0.0
 11
30393.604341291939
 21
1585.7494964292871
 31
0.0
  0
LINE
  5
323E
  8
YODOROGO
 10
30421.604341291932
 20
1589.749496429288
 30
0.0
 11
30421.604341291932
 21
1585.7494964292871
 31
0.0
  0
LINE
  5
323F
  8
YODOROGO
 10
30393.604341291939
 20
1589.749496429288
 30
0.0
 11
30421.604341291932
 21
1589.749496429288
 31
0.0
  0
LINE
  5
3240
  8
YODOROGO
 10
30393.604341291939
 20
1585.7494964292871
 30
0.0
 11
30393.604341291939
 21
1589.749496429288
 31
0.0
  0
LINE
  5
3241
  8
YODOROGO
 10
30465.604341291921
 20
1627.749496429288
 30
0.0
 11
30381.604341291932
 21
1627.749496429288
 31
0.0
  0
LINE
  5
3242
  8
YODOROGO
 10
30465.604341291921
 20
1547.749496429288
 30
0.0
 11
30465.604341291921
 21
1627.749496429288
 31
0.0
  0
LINE
  5
3243
  8
YODOROGO
 10
30381.604341291932
 20
1547.749496429288
 30
0.0
 11
30465.604341291921
 21
1547.749496429288
 31
0.0
  0
LINE
  5
3244
  8
YODOROGO
 10
30381.604341291932
 20
1427.749496429288
 30
0.0
 11
30381.604341291932
 21
1547.749496429288
 31
0.0
  0
LINE
  5
3245
  8
YODOROGO
 10
30537.604341291921
 20
1427.749496429288
 30
0.0
 11
30381.604341291932
 21
1427.749496429288
 31
0.0
  0
LINE
  5
3246
  8
YODOROGO
 10
30569.604341291921
 20
1571.749496429285
 30
0.0
 11
30569.604341291921
 21
1599.7494964292871
 31
0.0
  0
ARC
  5
3247
  8
YODOROGO
 10
30545.604341291921
 20
1571.749496429291
 30
0.0
 40
24.000000000003752
 50
270.0
 51
359.99999999998772
  0
LINE
  5
3248
  8
YODOROGO
 10
30529.604341291939
 20
1547.749496429288
 30
0.0
 11
30545.604341291921
 21
1547.749496429288
 31
0.0
  0
LINE
  5
3249
  8
YODOROGO
 10
30529.604341291939
 20
1627.749496429288
 30
0.0
 11
30529.604341291939
 21
1547.749496429288
 31
0.0
  0
LINE
  5
324A
  8
YODOROGO
 10
30899.604341291932
 20
1547.749496429288
 30
0.0
 11
30925.604341291921
 21
1547.749496429288
 31
0.0
  0
LINE
  5
324B
  8
YODOROGO
 10
30933.604341291921
 20
1427.749496429288
 30
0.0
 11
30899.604341291932
 21
1427.749496429288
 31
0.0
  0
LINE
  5
324C
  8
YODOROGO
 10
30763.604341291921
 20
1563.7494964292871
 30
0.0
 11
30791.604341291921
 21
1563.7494964292871
 31
0.0
  0
LINE
  5
324D
  8
YODOROGO
 10
30899.604341291932
 20
1491.749496429288
 30
0.0
 11
30723.604341291921
 21
1491.749496429288
 31
0.0
  0
LINE
  5
324E
  8
YODOROGO
 10
30831.604341291921
 20
1563.7494964292871
 30
0.0
 11
30859.604341291932
 21
1563.7494964292871
 31
0.0
  0
LINE
  5
324F
  8
YODOROGO
 10
30899.604341291932
 20
1427.749496429288
 30
0.0
 11
30899.604341291932
 21
1547.749496429288
 31
0.0
  0
LINE
  5
3250
  8
YODOROGO
 10
30697.604341291932
 20
1427.749496429288
 30
0.0
 11
30645.604341291921
 21
1427.749496429288
 31
0.0
  0
LINE
  5
3251
  8
YODOROGO
 10
30617.604341291921
 20
1599.7494964292871
 30
0.0
 11
30617.604341291921
 21
1507.749496429288
 31
0.0
  0
ARC
  5
3252
  8
YODOROGO
 10
30933.604341291921
 20
1467.749496429288
 30
0.0
 40
40.0
 50
270.0
 51
0.0
  0
LINE
  5
3253
  8
YODOROGO
 10
31093.604341291921
 20
1523.7494964292871
 30
0.0
 11
31093.604341291921
 21
1427.749496429288
 31
0.0
  0
ARC
  5
3254
  8
YODOROGO
 10
31039.721395566768
 20
1637.5313901097329
 30
0.0
 40
125.8955565916754
 50
295.34052442160112
 51
359.18902303418679
  0
LINE
  5
3255
  8
YODOROGO
 10
30617.604341291921
 20
1859.749496429288
 30
0.0
 11
30497.604341291921
 21
1939.749496429288
 31
0.0
  0
LINE
  5
3256
  8
YODOROGO
 10
30497.604341291921
 20
2027.749496429288
 30
0.0
 11
30617.604341291921
 21
1947.749496429288
 31
0.0
  0
LINE
  5
3257
  8
YODOROGO
 10
30529.604341291939
 20
1679.749496429288
 30
0.0
 11
30617.604341291921
 21
1679.749496429288
 31
0.0
  0
LINE
  5
3258
  8
YODOROGO
 10
30617.604341291921
 20
1735.7494964292871
 30
0.0
 11
30529.604341291939
 21
1735.7494964292871
 31
0.0
  0
LINE
  5
3259
  8
YODOROGO
 10
30381.604341291932
 20
1795.7494964292871
 30
0.0
 11
30617.604341291921
 21
1795.7494964292871
 31
0.0
  0
LINE
  5
325A
  8
YODOROGO
 10
30081.604341291939
 20
2027.749496429288
 30
0.0
 11
30021.604341291921
 21
2027.749496429288
 31
0.0
  0
LINE
  5
325B
  8
YODOROGO
 10
30081.604341291939
 20
1827.7494964292871
 30
0.0
 11
30081.604341291939
 21
2027.749496429288
 31
0.0
  0
LINE
  5
325C
  8
YODOROGO
 10
30021.604341291921
 20
1827.7494964292871
 30
0.0
 11
30081.604341291939
 21
1827.7494964292871
 31
0.0
  0
LINE
  5
325D
  8
YODOROGO
 10
30021.604341291921
 20
2027.749496429288
 30
0.0
 11
30021.604341291921
 21
1827.7494964292871
 31
0.0
  0
LINE
  5
325E
  8
YODOROGO
 10
30161.604341291939
 20
2027.749496429288
 30
0.0
 11
30217.604341291921
 21
2027.749496429288
 31
0.0
  0
LINE
  5
325F
  8
YODOROGO
 10
30161.604341291939
 20
1811.749496429288
 30
0.0
 11
30161.604341291939
 21
2027.749496429288
 31
0.0
  0
ARC
  5
3260
  8
YODOROGO
 10
30121.604341291939
 20
1811.749496429288
 30
0.0
 40
40.0
 50
270.0
 51
0.0
  0
LINE
  5
3261
  8
YODOROGO
 10
30021.604341291921
 20
1771.7494964292871
 30
0.0
 11
30121.604341291939
 21
1771.7494964292871
 31
0.0
  0
LINE
  5
3262
  8
YODOROGO
 10
30021.604341291921
 20
1707.749496429288
 30
0.0
 11
30021.604341291921
 21
1771.7494964292871
 31
0.0
  0
LINE
  5
3263
  8
YODOROGO
 10
30137.604341291921
 20
1707.749496429288
 30
0.0
 11
30021.604341291921
 21
1707.749496429288
 31
0.0
  0
ARC
  5
3264
  8
YODOROGO
 10
30137.604341291921
 20
1787.7494964292871
 30
0.0
 40
80.0
 50
270.0
 51
0.0
  0
LINE
  5
3265
  8
YODOROGO
 10
30217.604341291921
 20
2027.749496429288
 30
0.0
 11
30217.604341291921
 21
1787.7494964292871
 31
0.0
  0
LINE
  5
3266
  8
YODOROGO
 10
29977.604341291921
 20
1947.749496429288
 30
0.0
 11
29977.604341291921
 21
1995.7494964292871
 31
0.0
1001
AUTOCAD_POSTSCRIPT_FIGURE
1002
{
1000
PSFILL
1000
Grayscale
1000
Grayscale
1070
    25
1002
}
  0
LINE
  5
3267
  8
YODOROGO
 10
29977.604341291921
 20
1859.749496429288
 30
0.0
 11
29977.604341291921
 21
1907.7494964292871
 31
0.0
1001
AUTOCAD_POSTSCRIPT_FIGURE
1002
{
1000
PSFILL
1000
Grayscale
1000
Grayscale
1070
    25
1002
}
  0
LINE
  5
3268
  8
YODOROGO
 10
29977.604341291921
 20
1707.749496429288
 30
0.0
 11
29977.604341291921
 21
1819.7494964292871
 31
0.0
1001
AUTOCAD_POSTSCRIPT_FIGURE
1002
{
1000
PSFILL
1000
Grayscale
1000
Grayscale
1070
    25
1002
}
  0
LINE
  5
3269
  8
YODOROGO
 10
30381.604341291932
 20
1907.7494964292871
 30
0.0
 11
30497.604341291921
 21
2027.749496429288
 31
0.0
  0
LINE
  5
326A
  8
YODOROGO
 10
30381.604341291932
 20
1819.7494964292871
 30
0.0
 11
30381.604341291932
 21
1907.7494964292871
 31
0.0
  0
LINE
  5
326B
  8
YODOROGO
 10
30497.604341291921
 20
1939.749496429288
 30
0.0
 11
30381.604341291932
 21
1819.7494964292871
 31
0.0
  0
LINE
  5
326C
  8
YODOROGO
 10
30465.604341291921
 20
1679.749496429288
 30
0.0
 11
30465.604341291921
 21
1735.7494964292871
 31
0.0
  0
LINE
  5
326D
  8
YODOROGO
 10
30381.604341291932
 20
1679.749496429288
 30
0.0
 11
30465.604341291921
 21
1679.749496429288
 31
0.0
  0
LINE
  5
326E
  8
YODOROGO
 10
30529.604341291939
 20
1735.7494964292871
 30
0.0
 11
30529.604341291939
 21
1679.749496429288
 31
0.0
  0
LINE
  5
326F
  8
YODOROGO
 10
30381.604341291932
 20
1735.7494964292871
 30
0.0
 11
30381.604341291932
 21
1795.7494964292871
 31
0.0
  0
LINE
  5
3270
  8
YODOROGO
 10
30465.604341291921
 20
1735.7494964292871
 30
0.0
 11
30381.604341291932
 21
1735.7494964292871
 31
0.0
  0
LINE
  5
3271
  8
YODOROGO
 10
30645.604341291921
 20
2027.749496429288
 30
0.0
 11
30973.604341291921
 21
2027.749496429288
 31
0.0
  0
LINE
  5
3272
  8
YODOROGO
 10
30925.604341291921
 20
1963.749496429286
 30
0.0
 11
30697.604341291932
 21
1963.749496429286
 31
0.0
  0
LINE
  5
3273
  8
YODOROGO
 10
30873.604341291921
 20
1819.7494964292871
 30
0.0
 11
30899.604341291932
 21
1819.7494964292871
 31
0.0
  0
LINE
  5
3274
  8
YODOROGO
 10
30899.604341291932
 20
1939.749496429288
 30
0.0
 11
30873.604341291921
 21
1819.7494964292871
 31
0.0
  0
LINE
  5
3275
  8
YODOROGO
 10
30851.604341291939
 20
1939.749496429288
 30
0.0
 11
30899.604341291932
 21
1939.749496429288
 31
0.0
  0
LINE
  5
3276
  8
YODOROGO
 10
30825.604341291921
 20
1819.7494964292871
 30
0.0
 11
30851.604341291939
 21
1939.749496429288
 31
0.0
  0
LINE
  5
3277
  8
YODOROGO
 10
30797.604341291921
 20
1819.7494964292871
 30
0.0
 11
30825.604341291921
 21
1819.7494964292871
 31
0.0
  0
LINE
  5
3278
  8
YODOROGO
 10
30771.604341291939
 20
1939.749496429288
 30
0.0
 11
30797.604341291921
 21
1819.7494964292871
 31
0.0
  0
LINE
  5
3279
  8
YODOROGO
 10
30723.604341291921
 20
1939.749496429288
 30
0.0
 11
30771.604341291939
 21
1939.749496429288
 31
0.0
  0
LINE
  5
327A
  8
YODOROGO
 10
30749.604341291921
 20
1819.7494964292871
 30
0.0
 11
30723.604341291921
 21
1939.749496429288
 31
0.0
  0
LINE
  5
327B
  8
YODOROGO
 10
30723.604341291921
 20
1819.7494964292871
 30
0.0
 11
30749.604341291921
 21
1819.7494964292871
 31
0.0
  0
LINE
  5
327C
  8
YODOROGO
 10
30723.604341291921
 20
1755.7494964292871
 30
0.0
 11
30723.604341291921
 21
1819.7494964292871
 31
0.0
  0
LINE
  5
327D
  8
YODOROGO
 10
30899.604341291932
 20
1755.7494964292871
 30
0.0
 11
30723.604341291921
 21
1755.7494964292871
 31
0.0
  0
LINE
  5
327E
  8
YODOROGO
 10
30899.604341291932
 20
1819.7494964292871
 30
0.0
 11
30899.604341291932
 21
1755.7494964292871
 31
0.0
  0
LINE
  5
327F
  8
YODOROGO
 10
30617.604341291921
 20
1947.749496429288
 30
0.0
 11
30617.604341291921
 21
1859.749496429288
 31
0.0
  0
LINE
  5
3280
  8
YODOROGO
 10
30791.604341291921
 20
1755.7494964292871
 30
0.0
 11
30831.604341291921
 21
1755.7494964292871
 31
0.0
  0
LINE
  5
3281
  8
YODOROGO
 10
30723.604341291921
 20
1691.749496429288
 30
0.0
 11
30763.604341291921
 21
1691.749496429288
 31
0.0
  0
LINE
  5
3282
  8
YODOROGO
 10
30859.604341291932
 20
1691.749496429288
 30
0.0
 11
30899.604341291932
 21
1691.749496429288
 31
0.0
  0
LINE
  5
3283
  8
YODOROGO
 10
30617.604341291921
 20
1795.7494964292871
 30
0.0
 11
30617.604341291921
 21
1735.7494964292871
 31
0.0
  0
LINE
  5
3284
  8
YODOROGO
 10
31165.604341291921
 20
2027.749496429288
 30
0.0
 11
31165.604341291921
 21
1963.749496429286
 31
0.0
  0
LINE
  5
3285
  8
YODOROGO
 10
31533.604341291921
 20
1595.7494964292871
 30
0.0
 11
31533.60434129191
 21
1811.749496429288
 31
0.0
  0
LINE
  5
3286
  8
YODOROGO
 10
31461.60434129191
 20
1987.7494964292871
 30
0.0
 11
31461.60434129191
 21
1635.7494964292871
 31
0.0
  0
LINE
  5
3287
  8
YODOROGO
 10
31653.604341291921
 20
1427.749496429288
 30
0.0
 11
31653.60434129191
 21
1811.749496429288
 31
0.0
  0
LINE
  5
3288
  8
YODOROGO
 10
31589.604341291921
 20
1811.749496429288
 30
0.0
 11
31589.604341291921
 21
1427.749496429288
 31
0.0
  0
LINE
  5
3289
  8
YODOROGO
 10
31237.604341291921
 20
1595.7494964292871
 30
0.0
 11
31237.604341291921
 21
1707.749496429288
 31
0.0
  0
ARC
  5
328A
  8
YODOROGO
 10
31353.914865116069
 20
1607.790351288558
 30
0.0
 40
180.0924485759885
 50
268.62849102169793
 51
356.16638457330322
  0
LINE
  5
328B
  8
YODOROGO
 10
31349.604341291939
 20
1527.749496429288
 30
0.0
 11
31349.604341291939
 21
1427.749496429288
 31
0.0
  0
ARC
  5
328C
  8
YODOROGO
 10
31351.518075724562
 20
1637.838957017655
 30
0.0
 40
110.1060929836122
 50
269.00410209305932
 51
358.91264455492478
  0
LINE
  5
328D
  8
YODOROGO
 10
31589.604341291921
 20
1427.749496429288
 30
0.0
 11
31653.604341291921
 21
1427.749496429288
 31
0.0
  0
LINE
  5
328E
  8
YODOROGO
 10
31533.60434129191
 20
1811.749496429288
 30
0.0
 11
31589.604341291921
 21
1811.749496429288
 31
0.0
  0
LINE
  5
328F
  8
YODOROGO
 10
31621.604341291939
 20
1987.7494964292871
 30
0.0
 11
31461.60434129191
 21
1987.7494964292871
 31
0.0
  0
LINE
  5
3290
  8
YODOROGO
 10
31533.60434129191
 20
1915.7494964292871
 30
0.0
 11
31661.604341291939
 21
1915.7494964292871
 31
0.0
  0
LINE
  5
3291
  8
YODOROGO
 10
31701.604341291939
 20
1875.7494964292871
 30
0.0
 11
31533.60434129191
 21
1875.7494964292871
 31
0.0
  0
LINE
  5
3292
  8
YODOROGO
 10
31237.604341291921
 20
1779.749496429288
 30
0.0
 11
31349.604341291939
 21
1779.749496429288
 31
0.0
  0
LINE
  5
3293
  8
YODOROGO
 10
31237.604341291921
 20
1835.7494964292871
 30
0.0
 11
31237.604341291921
 21
1779.749496429288
 31
0.0
  0
LINE
  5
3294
  8
YODOROGO
 10
31349.604341291939
 20
1835.7494964292871
 30
0.0
 11
31237.604341291921
 21
1835.7494964292871
 31
0.0
  0
LINE
  5
3295
  8
YODOROGO
 10
31349.604341291939
 20
1779.749496429288
 30
0.0
 11
31349.604341291939
 21
1835.7494964292871
 31
0.0
  0
LINE
  5
3296
  8
YODOROGO
 10
31533.60434129191
 20
1875.7494964292871
 30
0.0
 11
31533.60434129191
 21
1915.7494964292871
 31
0.0
  0
LINE
  5
3297
  8
YODOROGO
 10
31413.604341291921
 20
1707.749496429288
 30
0.0
 11
31413.604341291921
 21
1907.7494964292871
 31
0.0
  0
LINE
  5
3298
  8
YODOROGO
 10
31237.604341291921
 20
1707.749496429288
 30
0.0
 11
31413.604341291921
 21
1707.749496429288
 31
0.0
  0
LINE
  5
3299
  8
YODOROGO
 10
31413.604341291921
 20
1963.749496429286
 30
0.0
 11
31413.604341291921
 21
2027.749496429288
 31
0.0
  0
ARC
  5
329A
  8
YODOROGO
 10
31621.604341291939
 20
2003.749496429285
 30
0.0
 40
15.999999999994539
 50
270.0
 51
0.0000000000081422
  0
LINE
  5
329B
  8
YODOROGO
 10
31637.604341291921
 20
2027.749496429288
 30
0.0
 11
31637.604341291921
 21
2003.7494964292871
 31
0.0
  0
LINE
  5
329C
  8
YODOROGO
 10
31701.604341291939
 20
2027.749496429288
 30
0.0
 11
31637.604341291921
 21
2027.749496429288
 31
0.0
  0
LINE
  5
329D
  8
YODOROGO
 10
31701.604341291939
 20
1955.7494964292871
 30
0.0
 11
31701.604341291939
 21
2027.749496429288
 31
0.0
  0
ARC
  5
329E
  8
YODOROGO
 10
31661.604341291939
 20
1955.7494964292871
 30
0.0
 40
40.0
 50
270.0
 51
0.0
  0
LINE
  5
329F
  8
YODOROGO
 10
31701.604341291939
 20
1811.749496429288
 30
0.0
 11
31701.604341291939
 21
1875.7494964292871
 31
0.0
  0
LINE
  5
32A0
  8
YODOROGO
 10
31653.60434129191
 20
1811.749496429288
 30
0.0
 11
31701.604341291939
 21
1811.749496429288
 31
0.0
  0
LINE
  5
32A4
  8
SUNPOU
  6
CONTINUOUS
 62
     4
 10
10796.344059999999
 20
13639.990937
 30
0.0
 11
9949.3486389999998
 21
13639.990937
 31
0.0
  0
LINE
  5
32A5
  8
SUNPOU
  6
CONTINUOUS
 62
     4
 10
10029.348638999991
 20
13832.486252000001
 30
0.0
 11
10029.348638999991
 21
14072.486252000001
 31
0.0
  0
LINE
  5
32A6
  8
SUNPOU
  6
CONTINUOUS
 62
     4
 10
10029.348638999991
 20
13639.990937
 30
0.0
 11
10029.348638999991
 21
13399.990937
 31
0.0
  0
LINE
  5
32A7
  8
SUNPOU
  6
CONTINUOUS
 62
     4
 10
10029.348638999991
 20
13832.486252000001
 30
0.0
 11
10029.348638999991
 21
13639.990937
 31
0.0
  0
LINE
  5
32A8
  8
SUNPOU
  6
CONTINUOUS
 62
     4
 10
10869.847049
 20
19880.987571000001
 30
0.0
 11
10349.348639
 21
19880.987571000001
 31
0.0
  0
LINE
  5
32A9
  8
SUNPOU
  6
CONTINUOUS
 62
     4
 10
10796.348415
 20
19890.982161000022
 30
0.0
 11
10349.348639
 21
19890.982161000022
 31
0.0
  0
LINE
  5
32AA
  8
SUNPOU
  6
CONTINUOUS
 62
     4
 10
10429.348639
 20
19880.987571000001
 30
0.0
 11
10429.348639
 21
19640.987571000001
 31
0.0
  0
LINE
  5
32AB
  8
SUNPOU
  6
CONTINUOUS
 62
     4
 10
10429.348639
 20
19890.982161000022
 30
0.0
 11
10429.348639
 21
20130.982161000022
 31
0.0
  0
LINE
  5
32AC
  8
SUNPOU
  6
CONTINUOUS
 62
     4
 10
10429.348639
 20
19880.987571000001
 30
0.0
 11
10429.348639
 21
19890.982161000022
 31
0.0
  0
LINE
  5
32AD
  8
SUNPOU
  6
CONTINUOUS
 62
     4
 10
10796.348415
 20
19890.982161000022
 30
0.0
 11
9949.3486389999998
 21
19890.982161000022
 31
0.0
  0
LINE
  5
32AE
  8
SUNPOU
  6
CONTINUOUS
 62
     4
 10
10029.348638999991
 20
19668.486251999992
 30
0.0
 11
10029.348638999991
 21
19428.486251999992
 31
0.0
  0
LINE
  5
32AF
  8
SUNPOU
  6
CONTINUOUS
 62
     4
 10
10029.348638999991
 20
19890.982161000022
 30
0.0
 11
10029.348638999991
 21
20130.982161000022
 31
0.0
  0
LINE
  5
32B0
  8
SUNPOU
  6
CONTINUOUS
 62
     4
 10
10029.348638999991
 20
19668.486251999992
 30
0.0
 11
10029.348638999991
 21
19890.982161000022
 31
0.0
  0
LINE
  5
32B1
  8
SUNPOU
  6
CONTINUOUS
 62
     4
 10
10029.348638999991
 20
16750.486251999992
 30
0.0
 11
10029.348638999991
 21
19668.486251999992
 31
0.0
  0
LINE
  5
32B2
  8
SUNPOU
  6
CONTINUOUS
 62
     4
 10
10029.348638999991
 20
13832.486252000001
 30
0.0
 11
10029.348638999991
 21
16750.486251999992
 31
0.0
  0
LINE
  5
32B3
  8
SUNPOU
  6
CONTINUOUS
 62
     4
 10
14312.853858
 20
19970.98612000002
 30
0.0
 11
14312.853858
 21
20520.99139900001
 31
0.0
  0
LINE
  5
32B4
  8
SUNPOU
  6
CONTINUOUS
 62
     4
 10
14227.353858
 20
20440.99139900002
 30
0.0
 11
13987.353858
 21
20440.99139900002
 31
0.0
  0
LINE
  5
32B5
  8
SUNPOU
  6
CONTINUOUS
 62
     4
 10
14309.853858
 20
20440.99139900002
 30
0.0
 11
14549.853858
 21
20440.99139900002
 31
0.0
  0
LINE
  5
32B6
  8
SUNPOU
  6
CONTINUOUS
 62
     4
 10
14227.353858
 20
20440.99139900002
 30
0.0
 11
14309.853858
 21
20440.99139900002
 31
0.0
  0
LINE
  5
32B7
  8
SUNPOU
  6
CONTINUOUS
 62
     4
 10
10873.353858
 20
19970.98612000002
 30
0.0
 11
10873.353858
 21
20520.99139900001
 31
0.0
  0
LINE
  5
32B8
  8
SUNPOU
  6
CONTINUOUS
 62
     4
 10
10958.853858
 20
20440.99139900002
 30
0.0
 11
11198.853858
 21
20440.99139900002
 31
0.0
  0
LINE
  5
32B9
  8
SUNPOU
  6
CONTINUOUS
 62
     4
 10
10876.353858
 20
20440.99139900002
 30
0.0
 11
10636.353858
 21
20440.99139900002
 31
0.0
  0
LINE
  5
32BA
  8
SUNPOU
  6
CONTINUOUS
 62
     4
 10
10958.853858
 20
20440.99139900002
 30
0.0
 11
10876.353858
 21
20440.99139900002
 31
0.0
  0
LINE
  5
32BB
  8
SUNPOU
  6
CONTINUOUS
 62
     4
 10
14227.353858
 20
20440.99139900002
 30
0.0
 11
10958.853858
 21
20440.99139900002
 31
0.0
  0
LINE
  5
32BC
  8
SUNPOU
  6
CONTINUOUS
 62
     4
 10
20549.310863000021
 20
6567.9237529999991
 30
0.0
 11
19749.312182000001
 21
6567.9237529999991
 31
0.0
  0
LINE
  5
32BD
  8
SUNPOU
  6
CONTINUOUS
 62
     4
 10
20549.310863000021
 20
8459.4237529999973
 30
0.0
 11
19749.312182000001
 21
8459.4237530000028
 31
0.0
  0
LINE
  5
32BE
  8
SUNPOU
  6
CONTINUOUS
 62
     4
 10
19829.312182000001
 20
6567.9237529999991
 30
0.0
 11
19829.312182000001
 21
8459.4237530000028
 31
0.0
  0
LINE
  5
32BF
  8
SUNPOU
  6
CONTINUOUS
 62
     4
 10
20549.310863000021
 20
6567.9237529999991
 30
0.0
 11
19349.309872999991
 21
6567.9237529999991
 31
0.0
  0
LINE
  5
32C0
  8
SUNPOU
  6
CONTINUOUS
 62
     4
 10
20516.813107000009
 20
8916.4237789999952
 30
0.0
 11
19349.309872999991
 21
8916.4237789999952
 31
0.0
  0
LINE
  5
32C1
  8
SUNPOU
  6
CONTINUOUS
 62
     4
 10
19429.309872999991
 20
6567.9237529999991
 30
0.0
 11
19429.309872999998
 21
8916.4237789999952
 31
0.0
  0
LINE
  5
32D2
  8
SUNPOU
  6
CONTINUOUS
 62
     4
 10
23947.813502000001
 20
6125.2714950000009
 30
0.0
 11
23947.813502000001
 21
5187.9239180000041
 31
0.0
  0
LINE
  5
32D3
  8
SUNPOU
  6
CONTINUOUS
 62
     4
 10
23990.313502000001
 20
6387.9239180000041
 30
0.0
 11
23990.313502000001
 21
5187.9239180000041
 31
0.0
  0
LINE
  5
32D4
  8
SUNPOU
  6
CONTINUOUS
 62
     4
 10
23947.813502000001
 20
5267.9239180000041
 30
0.0
 11
23707.813502000001
 21
5267.9239180000041
 31
0.0
  0
LINE
  5
32D5
  8
SUNPOU
  6
CONTINUOUS
 62
     4
 10
23990.313502000001
 20
5267.9239180000041
 30
0.0
 11
24230.313502000001
 21
5267.9239180000041
 31
0.0
  0
LINE
  5
32D6
  8
SUNPOU
  6
CONTINUOUS
 62
     4
 10
23947.813502000001
 20
5267.9239180000041
 30
0.0
 11
23990.313502000001
 21
5267.9239180000041
 31
0.0
  0
LINE
  5
32D7
  8
SUNPOU
  6
CONTINUOUS
 62
     4
 10
20773.313502000001
 20
6387.9239180000041
 30
0.0
 11
20773.313502000001
 21
5587.9239180000041
 31
0.0
  0
LINE
  5
32D8
  8
SUNPOU
  6
CONTINUOUS
 62
     4
 10
23853.813502000001
 20
6387.9239180000041
 30
0.0
 11
23853.813502000001
 21
5587.9239180000041
 31
0.0
  0
LINE
  5
32D9
  8
SUNPOU
  6
CONTINUOUS
 62
     4
 10
20773.313502000001
 20
5667.9239180000041
 30
0.0
 11
23853.813502000001
 21
5667.9239180000041
 31
0.0
  0
LINE
  5
32DA
  8
SUNPOU
  6
CONTINUOUS
 62
     4
 10
20679.313502000001
 20
6125.2714950000009
 30
0.0
 11
20679.313502000001
 21
5187.9239180000041
 31
0.0
  0
LINE
  5
32DB
  8
SUNPOU
  6
CONTINUOUS
 62
     4
 10
23947.813502000001
 20
6125.2714950000009
 30
0.0
 11
23947.813502000001
 21
5187.9239180000041
 31
0.0
  0
LINE
  5
32DC
  8
SUNPOU
  6
CONTINUOUS
 62
     4
 10
20679.313502000001
 20
5267.9239180000041
 30
0.0
 11
23947.813502000001
 21
5267.9239180000041
 31
0.0
  0
LINE
  5
32DD
  8
SUNPOU
  6
CONTINUOUS
 62
     4
 10
20679.313502000001
 20
6125.2714950000009
 30
0.0
 11
20679.313502000001
 21
5187.9239180000041
 31
0.0
  0
LINE
  5
32DE
  8
SUNPOU
  6
CONTINUOUS
 62
     4
 10
20636.81350199999
 20
6387.9239180000041
 30
0.0
 11
20636.81350199999
 21
5187.9239180000041
 31
0.0
  0
LINE
  5
32DF
  8
SUNPOU
  6
CONTINUOUS
 62
     4
 10
20679.313502000001
 20
5267.9239180000041
 30
0.0
 11
20919.313502000001
 21
5267.9239180000041
 31
0.0
  0
LINE
  5
32E0
  8
SUNPOU
  6
CONTINUOUS
 62
     4
 10
20636.81350199999
 20
5267.9239180000041
 30
0.0
 11
20396.81350199999
 21
5267.9239180000041
 31
0.0
  0
LINE
  5
32E1
  8
SUNPOU
  6
CONTINUOUS
 62
     4
 10
20679.313502000001
 20
5267.9239180000041
 30
0.0
 11
20636.81350199999
 21
5267.9239180000041
 31
0.0
  0
LINE
  5
32E2
  8
SUNPOU
  6
CONTINUOUS
 62
     4
 10
20636.81350199999
 20
6387.9239180000041
 30
0.0
 11
20636.81350199999
 21
4787.9240829999999
 31
0.0
  0
LINE
  5
32E3
  8
SUNPOU
  6
CONTINUOUS
 62
     4
 10
23990.313502000001
 20
6387.9239180000041
 30
0.0
 11
23990.313502000001
 21
4787.9240829999999
 31
0.0
  0
LINE
  5
32E4
  8
SUNPOU
  6
CONTINUOUS
 62
     4
 10
20636.81350199999
 20
4867.9240830000008
 30
0.0
 11
23990.313502000001
 21
4867.9240830000008
 31
0.0
  0
LINE
  5
32E5
  8
SUNPOU
  6
CONTINUOUS
 62
     4
 10
9473.5669209999905
 20
8804.9222680000057
 30
0.0
 11
9473.5669209999905
 21
10195.922293999991
 31
0.0
  0
LINE
  5
32E6
  8
SUNPOU
  6
CONTINUOUS
 62
     4
 10
15724.566920999991
 20
8936.812091412432
 30
0.0
 11
15724.566920999991
 21
10195.922293999991
 31
0.0
  0
LINE
  5
32E7
  8
SUNPOU
  6
CONTINUOUS
 62
     4
 10
9473.5669209999905
 20
10115.922293999991
 30
0.0
 11
15724.566920999991
 21
10115.922293999991
 31
0.0
  0
LINE
  5
32E8
  8
SUNPOU
  6
CONTINUOUS
 62
     4
 10
15574.568173999991
 20
8863.1530139999977
 30
0.0
 11
15574.568173999991
 21
9795.9239440000001
 31
0.0
  0
LINE
  5
32E9
  8
SUNPOU
  6
CONTINUOUS
 62
     4
 10
15724.566920999991
 20
8936.812091412432
 30
0.0
 11
15724.566920999991
 21
9795.9239440000001
 31
0.0
  0
LINE
  5
32EA
  8
SUNPOU
  6
CONTINUOUS
 62
     4
 10
15574.568173999991
 20
9715.9239440000001
 30
0.0
 11
15334.568173999991
 21
9715.9239440000001
 31
0.0
  0
LINE
  5
32EB
  8
SUNPOU
  6
CONTINUOUS
 62
     4
 10
15724.566920999991
 20
9715.9239440000001
 30
0.0
 11
15964.566920999991
 21
9715.9239440000001
 31
0.0
  0
LINE
  5
32EC
  8
SUNPOU
  6
CONTINUOUS
 62
     4
 10
15574.568173999991
 20
9715.9239440000001
 30
0.0
 11
15724.566920999991
 21
9715.9239440000001
 31
0.0
  0
LINE
  5
32ED
  8
SUNPOU
  6
CONTINUOUS
 62
     4
 10
9653.565666999988
 20
8681.0046419999962
 30
0.0
 11
9653.565666999988
 21
9795.9239440000001
 31
0.0
  0
LINE
  5
32EE
  8
SUNPOU
  6
CONTINUOUS
 62
     4
 10
15574.568173999991
 20
8863.1530139999977
 30
0.0
 11
15574.568173999991
 21
9795.9239440000001
 31
0.0
  0
LINE
  5
32EF
  8
SUNPOU
  6
CONTINUOUS
 62
     4
 10
9653.565666999988
 20
9715.9239440000001
 30
0.0
 11
15574.568173999991
 21
9715.9239440000001
 31
0.0
  0
LINE
  5
32F0
  8
SUNPOU
  6
CONTINUOUS
 62
     4
 10
9473.5669209999905
 20
8804.9222680000057
 30
0.0
 11
9473.5669209999905
 21
9795.9239440000001
 31
0.0
  0
LINE
  5
32F1
  8
SUNPOU
  6
CONTINUOUS
 62
     4
 10
9653.565666999988
 20
8681.0046419999962
 30
0.0
 11
9653.565666999988
 21
9795.9239440000001
 31
0.0
  0
LINE
  5
32F2
  8
SUNPOU
  6
CONTINUOUS
 62
     4
 10
9473.5669209999905
 20
9715.9239439999983
 30
0.0
 11
9233.5669209999905
 21
9715.9239439999983
 31
0.0
  0
LINE
  5
32F3
  8
SUNPOU
  6
CONTINUOUS
 62
     4
 10
9653.565666999988
 20
9715.9239439999983
 30
0.0
 11
9893.5656669999898
 21
9715.9239439999983
 31
0.0
  0
LINE
  5
32F4
  8
SUNPOU
  6
CONTINUOUS
 62
     4
 10
9473.5669209999905
 20
9715.9239439999983
 30
0.0
 11
9653.565666999988
 21
9715.9239439999983
 31
0.0
  0
LINE
  5
32F5
  8
SUNPOU
  6
CONTINUOUS
 62
     4
 10
9566.0669209999924
 20
6567.9232579999998
 30
0.0
 11
8483.5685029999859
 21
6567.9232579999989
 31
0.0
  0
LINE
  5
32F6
  8
SUNPOU
  6
CONTINUOUS
 62
     4
 10
9393.5688989999835
 20
8724.4232579999989
 30
0.0
 11
8483.5685029999859
 21
8724.4232579999989
 31
0.0
  0
LINE
  5
32F7
  8
SUNPOU
  6
CONTINUOUS
 62
     4
 10
8563.5685029999859
 20
6567.9232579999989
 30
0.0
 11
8563.5685029999859
 21
8724.4232579999989
 31
0.0
  0
LINE
  5
32F8
  8
SUNPOU
  6
CONTINUOUS
 62
     4
 10
15667.066920999991
 20
6567.9232579999998
 30
0.0
 11
16744.56632599996
 21
6567.9232579999989
 31
0.0
  0
LINE
  5
32F9
  8
SUNPOU
  6
CONTINUOUS
 62
     4
 10
15759.373189599361
 20
8916.4232580000007
 30
0.0
 11
16744.56632599996
 21
8916.4232580000007
 31
0.0
  0
LINE
  5
32FA
  8
SUNPOU
  6
CONTINUOUS
 62
     4
 10
16664.56632599996
 20
6567.9232579999989
 30
0.0
 11
16664.56632599996
 21
8916.4232580000007
 31
0.0
  0
LINE
  5
32FB
  8
SUNPOU
  6
CONTINUOUS
 62
     4
 10
9653.5669209999924
 20
6487.9227630000032
 30
0.0
 11
9653.5669209999924
 21
4787.9230930000012
 31
0.0
  0
LINE
  5
32FC
  8
SUNPOU
  6
CONTINUOUS
 62
     4
 10
15574.566920999991
 20
6487.9227630000032
 30
0.0
 11
15574.566920999991
 21
4787.9230930000012
 31
0.0
  0
LINE
  5
32FD
  8
SUNPOU
  6
CONTINUOUS
 62
     4
 10
9653.5669209999924
 20
4867.9230930000012
 30
0.0
 11
15574.566920999991
 21
4867.9230930000012
 31
0.0
  0
LINE
  5
32FE
  8
SUNPOU
  6
CONTINUOUS
 62
     4
 10
15532.066920999991
 20
6125.2705049999986
 30
0.0
 11
15532.066920999991
 21
5187.922928
 31
0.0
  0
LINE
  5
32FF
  8
SUNPOU
  6
CONTINUOUS
 62
     4
 10
15574.566920999991
 20
6487.9227630000032
 30
0.0
 11
15574.566920999991
 21
5187.922928
 31
0.0
  0
LINE
  5
3300
  8
SUNPOU
  6
CONTINUOUS
 62
     4
 10
15532.066920999991
 20
5267.922928
 30
0.0
 11
15292.066920999991
 21
5267.922928
 31
0.0
  0
LINE
  5
3301
  8
SUNPOU
  6
CONTINUOUS
 62
     4
 10
15574.566920999991
 20
5267.922928
 30
0.0
 11
15814.566920999991
 21
5267.922928
 31
0.0
  0
LINE
  5
3302
  8
SUNPOU
  6
CONTINUOUS
 62
     4
 10
15532.066920999991
 20
5267.922928
 30
0.0
 11
15574.566920999991
 21
5267.922928
 31
0.0
  0
LINE
  5
3303
  8
SUNPOU
  6
CONTINUOUS
 62
     4
 10
9696.0669209999924
 20
6125.2705049999986
 30
0.0
 11
9696.0669209999924
 21
5187.922928
 31
0.0
  0
LINE
  5
3304
  8
SUNPOU
  6
CONTINUOUS
 62
     4
 10
9653.5669209999924
 20
6487.9227630000032
 30
0.0
 11
9653.5669209999924
 21
5187.922928
 31
0.0
  0
LINE
  5
3305
  8
SUNPOU
  6
CONTINUOUS
 62
     4
 10
9696.0669209999924
 20
5267.922928
 30
0.0
 11
9936.0669209999924
 21
5267.922928
 31
0.0
  0
LINE
  5
3306
  8
SUNPOU
  6
CONTINUOUS
 62
     4
 10
9653.5669209999924
 20
5267.922928
 30
0.0
 11
9413.5669209999905
 21
5267.922928
 31
0.0
  0
LINE
  5
3307
  8
SUNPOU
  6
CONTINUOUS
 62
     4
 10
9696.0669209999924
 20
5267.922928
 30
0.0
 11
9653.5669209999924
 21
5267.922928
 31
0.0
  0
LINE
  5
3308
  8
SUNPOU
  6
CONTINUOUS
 62
     4
 10
12614.066920999991
 20
6125.2705049999986
 30
0.0
 11
12614.066920999991
 21
5187.922928
 31
0.0
  0
LINE
  5
3309
  8
SUNPOU
  6
CONTINUOUS
 62
     4
 10
9696.0669209999924
 20
6125.2705049999986
 30
0.0
 11
9696.0669209999924
 21
5187.922928
 31
0.0
  0
LINE
  5
330A
  8
SUNPOU
  6
CONTINUOUS
 62
     4
 10
12614.066920999991
 20
5267.922928
 30
0.0
 11
9696.0669209999924
 21
5267.922928
 31
0.0
  0
LINE
  5
330B
  8
SUNPOU
  6
CONTINUOUS
 62
     4
 10
12614.066920999991
 20
6125.2705049999986
 30
0.0
 11
12614.066920999991
 21
5187.922928
 31
0.0
  0
LINE
  5
330C
  8
SUNPOU
  6
CONTINUOUS
 62
     4
 10
15532.066920999991
 20
6125.2705049999986
 30
0.0
 11
15532.066920999991
 21
5187.922928
 31
0.0
  0
LINE
  5
330D
  8
SUNPOU
  6
CONTINUOUS
 62
     4
 10
12614.066920999991
 20
5267.922928
 30
0.0
 11
15532.066920999991
 21
5267.922928
 31
0.0
  0
LINE
  5
330E
  8
SUNPOU
  6
CONTINUOUS
 62
     4
 10
20679.313502000001
 20
13126.722818
 30
0.0
 11
20679.313502000001
 21
12781.038167999999
 31
0.0
  0
LINE
  5
330F
  8
SUNPOU
  6
CONTINUOUS
 62
     4
 10
20636.811258999998
 20
13709.988957
 30
0.0
 11
20636.811258999998
 21
12781.038167999999
 31
0.0
  0
LINE
  5
3310
  8
SUNPOU
  6
CONTINUOUS
 62
     4
 10
20679.313502000001
 20
12861.038167999999
 30
0.0
 11
20919.313502000001
 21
12861.038167999999
 31
0.0
  0
LINE
  5
3311
  8
SUNPOU
  6
CONTINUOUS
 62
     4
 10
20636.811258999998
 20
12861.038167999999
 30
0.0
 11
20396.811258999998
 21
12861.038167999999
 31
0.0
  0
LINE
  5
3312
  8
SUNPOU
  6
CONTINUOUS
 62
     4
 10
20679.313502000001
 20
12861.038167999999
 30
0.0
 11
20636.811258999998
 21
12861.038167999999
 31
0.0
  0
LINE
  5
3313
  8
SUNPOU
  6
CONTINUOUS
 62
     4
 10
23947.813502000001
 20
13126.722818
 30
0.0
 11
23947.813502000001
 21
12781.038167999999
 31
0.0
  0
LINE
  5
3314
  8
SUNPOU
  6
CONTINUOUS
 62
     4
 10
23990.315744999989
 20
13709.988957
 30
0.0
 11
23990.315744999989
 21
12781.038167999999
 31
0.0
  0
LINE
  5
3315
  8
SUNPOU
  6
CONTINUOUS
 62
     4
 10
23947.813502000001
 20
12861.038167999999
 30
0.0
 11
23707.813502000001
 21
12861.038167999999
 31
0.0
  0
LINE
  5
3316
  8
SUNPOU
  6
CONTINUOUS
 62
     4
 10
23990.315744999989
 20
12861.038167999999
 30
0.0
 11
24230.315744999989
 21
12861.038167999999
 31
0.0
  0
LINE
  5
3317
  8
SUNPOU
  6
CONTINUOUS
 62
     4
 10
23947.813502000001
 20
12861.038167999999
 30
0.0
 11
23990.315744999989
 21
12861.038167999999
 31
0.0
  0
LINE
  5
3318
  8
SUNPOU
  6
CONTINUOUS
 62
     4
 10
23947.813502000001
 20
13126.722818
 30
0.0
 11
23947.813502000001
 21
12781.038167999999
 31
0.0
  0
LINE
  5
3319
  8
SUNPOU
  6
CONTINUOUS
 62
     4
 10
23905.311258999991
 20
13709.988957
 30
0.0
 11
23905.311258999991
 21
12781.038167999999
 31
0.0
  0
LINE
  5
331A
  8
SUNPOU
  6
CONTINUOUS
 62
     4
 10
23947.813502000001
 20
12861.038167999999
 30
0.0
 11
24187.813502000001
 21
12861.038167999999
 31
0.0
  0
LINE
  5
331B
  8
SUNPOU
  6
CONTINUOUS
 62
     4
 10
23905.311258999991
 20
12861.038167999999
 30
0.0
 11
23665.311258999991
 21
12861.038167999999
 31
0.0
  0
LINE
  5
331C
  8
SUNPOU
  6
CONTINUOUS
 62
     4
 10
23947.813502000001
 20
12861.038167999999
 30
0.0
 11
23905.311258999991
 21
12861.038167999999
 31
0.0
  0
LINE
  5
331D
  8
SUNPOU
  6
CONTINUOUS
 62
     4
 10
20679.313502000001
 20
13126.722818
 30
0.0
 11
20679.313502000001
 21
12781.038167999999
 31
0.0
  0
LINE
  5
331E
  8
SUNPOU
  6
CONTINUOUS
 62
     4
 10
20721.815744999989
 20
13709.988957
 30
0.0
 11
20721.815744999989
 21
12781.038167999999
 31
0.0
  0
LINE
  5
331F
  8
SUNPOU
  6
CONTINUOUS
 62
     4
 10
20679.313502000001
 20
12861.038167999999
 30
0.0
 11
20439.313502000001
 21
12861.038167999999
 31
0.0
  0
LINE
  5
3320
  8
SUNPOU
  6
CONTINUOUS
 62
     4
 10
20721.815744999989
 20
12861.038167999999
 30
0.0
 11
20961.815744999989
 21
12861.038167999999
 31
0.0
  0
LINE
  5
3321
  8
SUNPOU
  6
CONTINUOUS
 62
     4
 10
20679.313502000001
 20
12861.038167999999
 30
0.0
 11
20721.815744999989
 21
12861.038167999999
 31
0.0
  0
LINE
  5
3322
  8
SUNPOU
  6
CONTINUOUS
 62
     4
 10
20636.811258999998
 20
13709.988957
 30
0.0
 11
20636.811258999998
 21
12381.038167999999
 31
0.0
  0
LINE
  5
3323
  8
SUNPOU
  6
CONTINUOUS
 62
     4
 10
23990.315744999989
 20
13709.988957
 30
0.0
 11
23990.315744999989
 21
12381.038167999999
 31
0.0
  0
LINE
  5
3324
  8
SUNPOU
  6
CONTINUOUS
 62
     4
 10
20636.811258999998
 20
12461.038167999999
 30
0.0
 11
23990.315744999989
 21
12461.038167999999
 31
0.0
  0
LINE
  5
3325
  8
SUNPOU
  6
CONTINUOUS
 62
     4
 10
24070.311785999991
 20
14590.486252000001
 30
0.0
 11
25120.31310599998
 21
14590.486252000001
 31
0.0
  0
LINE
  5
3326
  8
SUNPOU
  6
CONTINUOUS
 62
     4
 10
24920.313105999991
 20
13832.486252000001
 30
0.0
 11
25120.31310599998
 21
13832.486252000001
 31
0.0
  0
LINE
  5
3327
  8
SUNPOU
  6
CONTINUOUS
 62
     4
 10
25040.31310599998
 20
14590.486252000001
 30
0.0
 11
25040.31310599998
 21
13832.486252000001
 31
0.0
  0
LINE
  5
3328
  8
SUNPOU
  6
CONTINUOUS
 62
     4
 10
24070.311785999991
 20
15291.72676350001
 30
0.0
 11
25120.31310599998
 21
15291.72676350001
 31
0.0
  0
LINE
  5
3329
  8
SUNPOU
  6
CONTINUOUS
 62
     4
 10
24070.311785999991
 20
14590.486252000001
 30
0.0
 11
25120.31310599998
 21
14590.486252000001
 31
0.0
  0
LINE
  5
332A
  8
SUNPOU
  6
CONTINUOUS
 62
     4
 10
25040.31310599998
 20
15291.72676350001
 30
0.0
 11
25040.31310599998
 21
14590.486252000001
 31
0.0
  0
LINE
  5
332B
  8
SUNPOU
  6
CONTINUOUS
 62
     4
 10
24070.311785999991
 20
15992.486252000001
 30
0.0
 11
25120.31310599998
 21
15992.486252000001
 31
0.0
  0
LINE
  5
332C
  8
SUNPOU
  6
CONTINUOUS
 62
     4
 10
24070.311785999991
 20
15291.72676350001
 30
0.0
 11
25120.31310599998
 21
15291.72676350001
 31
0.0
  0
LINE
  5
332D
  8
SUNPOU
  6
CONTINUOUS
 62
     4
 10
25040.31310599998
 20
15992.486252000001
 30
0.0
 11
25040.31310599998
 21
15291.72676350001
 31
0.0
  0
LINE
  5
332E
  8
SUNPOU
  6
CONTINUOUS
 62
     4
 10
24920.313105999991
 20
16750.486251999992
 30
0.0
 11
25120.31310599998
 21
16750.486251999992
 31
0.0
  0
LINE
  5
332F
  8
SUNPOU
  6
CONTINUOUS
 62
     4
 10
24070.311785999991
 20
15992.486252000001
 30
0.0
 11
25120.31310599998
 21
15992.486252000001
 31
0.0
  0
LINE
  5
3330
  8
SUNPOU
  6
CONTINUOUS
 62
     4
 10
25040.31310599998
 20
16750.486251999992
 30
0.0
 11
25040.31310599998
 21
15992.486252000001
 31
0.0
  0
LINE
  5
3331
  8
SUNPOU
  6
CONTINUOUS
 62
     4
 10
24070.311785999991
 20
17508.486251999992
 30
0.0
 11
25120.31310599998
 21
17508.486251999992
 31
0.0
  0
LINE
  5
3332
  8
SUNPOU
  6
CONTINUOUS
 62
     4
 10
24920.313105999991
 20
16750.486251999992
 30
0.0
 11
25120.31310599998
 21
16750.486251999992
 31
0.0
  0
LINE
  5
3333
  8
SUNPOU
  6
CONTINUOUS
 62
     4
 10
25040.31310599998
 20
17508.486251999992
 30
0.0
 11
25040.31310599998
 21
16750.486251999992
 31
0.0
  0
LINE
  5
3334
  8
SUNPOU
  6
CONTINUOUS
 62
     4
 10
24070.311785999991
 20
18209.486251999992
 30
0.0
 11
25120.31310599998
 21
18209.486251999992
 31
0.0
  0
LINE
  5
3335
  8
SUNPOU
  6
CONTINUOUS
 62
     4
 10
24070.311785999991
 20
17508.486251999992
 30
0.0
 11
25120.31310599998
 21
17508.486251999992
 31
0.0
  0
LINE
  5
3336
  8
SUNPOU
  6
CONTINUOUS
 62
     4
 10
25040.31310599998
 20
18209.486251999992
 30
0.0
 11
25040.31310599998
 21
17508.486251999992
 31
0.0
  0
LINE
  5
3337
  8
SUNPOU
  6
CONTINUOUS
 62
     4
 10
24070.311785999991
 20
18910.486251999999
 30
0.0
 11
25120.31310599998
 21
18910.486251999992
 31
0.0
  0
LINE
  5
3338
  8
SUNPOU
  6
CONTINUOUS
 62
     4
 10
24070.311785999991
 20
18209.486251999992
 30
0.0
 11
25120.31310599998
 21
18209.486251999992
 31
0.0
  0
LINE
  5
3339
  8
SUNPOU
  6
CONTINUOUS
 62
     4
 10
25040.31310599998
 20
18910.486251999992
 30
0.0
 11
25040.31310599998
 21
18209.486251999992
 31
0.0
  0
LINE
  5
333A
  8
SUNPOU
  6
CONTINUOUS
 62
     4
 10
24920.313105999991
 20
19668.486251999992
 30
0.0
 11
25120.31310599998
 21
19668.486251999992
 31
0.0
  0
LINE
  5
333B
  8
SUNPOU
  6
CONTINUOUS
 62
     4
 10
24070.311785999991
 20
18910.486251999999
 30
0.0
 11
25120.31310599998
 21
18910.486251999992
 31
0.0
  0
LINE
  5
333C
  8
SUNPOU
  6
CONTINUOUS
 62
     4
 10
25040.31310599998
 20
19668.486251999992
 30
0.0
 11
25040.31310599998
 21
18910.486251999992
 31
0.0
  0
LINE
  5
333D
  8
SUNPOU
  6
CONTINUOUS
 62
     4
 10
24920.313105999991
 20
16750.486251999992
 30
0.0
 11
25520.31310599998
 21
16750.486251999992
 31
0.0
  0
LINE
  5
333E
  8
SUNPOU
  6
CONTINUOUS
 62
     4
 10
24920.313105999991
 20
19668.486251999992
 30
0.0
 11
25520.31310599998
 21
19668.486251999992
 31
0.0
  0
LINE
  5
333F
  8
SUNPOU
  6
CONTINUOUS
 62
     4
 10
25440.31310599998
 20
16750.486251999992
 30
0.0
 11
25440.31310599998
 21
19668.486251999992
 31
0.0
  0
LINE
  5
3340
  8
SUNPOU
  6
CONTINUOUS
 62
     4
 10
24920.313105999991
 20
13832.486252000001
 30
0.0
 11
25520.31310599998
 21
13832.486252000001
 31
0.0
  0
LINE
  5
3341
  8
SUNPOU
  6
CONTINUOUS
 62
     4
 10
24920.313105999991
 20
16750.486251999992
 30
0.0
 11
25520.31310599998
 21
16750.486251999992
 31
0.0
  0
LINE
  5
3342
  8
SUNPOU
  6
CONTINUOUS
 62
     4
 10
25440.31310599998
 20
13832.486252000001
 30
0.0
 11
25440.31310599998
 21
16750.486251999992
 31
0.0
  0
LINE
  5
3343
  8
SUNPOU
  6
CONTINUOUS
 62
     4
 10
24070.311785999991
 20
19710.983547
 30
0.0
 11
25920.313105999991
 21
19710.983546999982
 31
0.0
  0
LINE
  5
3344
  8
SUNPOU
  6
CONTINUOUS
 62
     4
 10
24070.311785999991
 20
13789.988957
 30
0.0
 11
25920.313105999991
 21
13789.988957
 31
0.0
  0
LINE
  5
3345
  8
SUNPOU
  6
CONTINUOUS
 62
     4
 10
25840.313105999991
 20
19710.983546999982
 30
0.0
 11
25840.313105999991
 21
13789.988957
 31
0.0
  0
LINE
  5
3346
  8
SUNPOU
  6
CONTINUOUS
 62
     4
 10
24920.313105999991
 20
19668.486251999992
 30
0.0
 11
25520.31310599998
 21
19668.486251999992
 31
0.0
  0
LINE
  5
3347
  8
SUNPOU
  6
CONTINUOUS
 62
     4
 10
24070.311785999991
 20
19710.983547
 30
0.0
 11
25520.31310599998
 21
19710.983546999982
 31
0.0
  0
LINE
  5
3348
  8
SUNPOU
  6
CONTINUOUS
 62
     4
 10
25440.31310599998
 20
19668.486251999992
 30
0.0
 11
25440.31310599998
 21
19428.486251999992
 31
0.0
  0
LINE
  5
3349
  8
SUNPOU
  6
CONTINUOUS
 62
     4
 10
25440.31310599998
 20
19710.983546999982
 30
0.0
 11
25440.31310599998
 21
19950.983546999982
 31
0.0
  0
LINE
  5
334A
  8
SUNPOU
  6
CONTINUOUS
 62
     4
 10
25440.31310599998
 20
19668.486251999992
 30
0.0
 11
25440.31310599998
 21
19710.983546999982
 31
0.0
  0
LINE
  5
334B
  8
SUNPOU
  6
CONTINUOUS
 62
     4
 10
24920.313105999991
 20
13832.486252000001
 30
0.0
 11
25520.31310599998
 21
13832.486252000001
 31
0.0
  0
LINE
  5
334C
  8
SUNPOU
  6
CONTINUOUS
 62
     4
 10
24070.311785999991
 20
13789.988957
 30
0.0
 11
25520.31310599998
 21
13789.988957
 31
0.0
  0
LINE
  5
334D
  8
SUNPOU
  6
CONTINUOUS
 62
     4
 10
25440.31310599998
 20
13832.486252000001
 30
0.0
 11
25440.31310599998
 21
14072.486252000001
 31
0.0
  0
LINE
  5
334E
  8
SUNPOU
  6
CONTINUOUS
 62
     4
 10
25440.31310599998
 20
13789.988957
 30
0.0
 11
25440.31310599998
 21
13549.988957
 31
0.0
  0
LINE
  5
334F
  8
SUNPOU
  6
CONTINUOUS
 62
     4
 10
25440.31310599998
 20
13832.486252000001
 30
0.0
 11
25440.31310599998
 21
13789.988957
 31
0.0
  0
LINE
  5
3350
  8
SUNPOU
  6
CONTINUOUS
 62
     4
 10
20679.313502000001
 20
19790.984537000018
 30
0.0
 11
20679.313502000001
 21
20520.987440000012
 31
0.0
  0
LINE
  5
3351
  8
SUNPOU
  6
CONTINUOUS
 62
     4
 10
21086.813502000001
 20
19790.984537000018
 30
0.0
 11
21086.813502000001
 21
20520.987440000012
 31
0.0
  0
LINE
  5
3352
  8
SUNPOU
  6
CONTINUOUS
 62
     4
 10
20679.313502000001
 20
20440.987440000012
 30
0.0
 11
20439.313502000001
 21
20440.987440000012
 31
0.0
  0
LINE
  5
3353
  8
SUNPOU
  6
CONTINUOUS
 62
     4
 10
21086.813502000001
 20
20440.987440000012
 30
0.0
 11
21326.813502000001
 21
20440.987440000012
 31
0.0
  0
LINE
  5
3354
  8
SUNPOU
  6
CONTINUOUS
 62
     4
 10
20679.313502000001
 20
20440.987440000012
 30
0.0
 11
21086.813502000001
 21
20440.987440000012
 31
0.0
  0
LINE
  5
3355
  8
SUNPOU
  6
CONTINUOUS
 62
     4
 10
23189.813502000001
 20
19790.984537000018
 30
0.0
 11
23189.813502000001
 21
20520.987440000012
 31
0.0
  0
LINE
  5
3356
  8
SUNPOU
  6
CONTINUOUS
 62
     4
 10
23947.814491500001
 20
19790.984537000018
 30
0.0
 11
23947.814491500001
 21
20520.987440000012
 31
0.0
  0
LINE
  5
3357
  8
SUNPOU
  6
CONTINUOUS
 62
     4
 10
23189.813502000001
 20
20440.987440000012
 30
0.0
 11
23947.814491500001
 21
20440.987440000012
 31
0.0
  0
LINE
  5
3358
  8
SUNPOU
  6
CONTINUOUS
 62
     4
 10
22488.813502000001
 20
19790.984537000018
 30
0.0
 11
22488.813502000001
 21
20520.987440000012
 31
0.0
  0
LINE
  5
3359
  8
SUNPOU
  6
CONTINUOUS
 62
     4
 10
23189.813502000001
 20
19790.984537000018
 30
0.0
 11
23189.813502000001
 21
20520.987440000012
 31
0.0
  0
LINE
  5
335A
  8
SUNPOU
  6
CONTINUOUS
 62
     4
 10
22488.813502000001
 20
20440.987440000012
 30
0.0
 11
23189.813502000001
 21
20440.987440000012
 31
0.0
  0
LINE
  5
335B
  8
SUNPOU
  6
CONTINUOUS
 62
     4
 10
21787.813502000001
 20
19790.984537000018
 30
0.0
 11
21787.813502000001
 21
20520.987440000012
 31
0.0
  0
LINE
  5
335C
  8
SUNPOU
  6
CONTINUOUS
 62
     4
 10
22488.813502000001
 20
19790.984537000018
 30
0.0
 11
22488.813502000001
 21
20520.987440000012
 31
0.0
  0
LINE
  5
335D
  8
SUNPOU
  6
CONTINUOUS
 62
     4
 10
21787.813502000001
 20
20440.987440000012
 30
0.0
 11
22488.813502000001
 21
20440.987440000012
 31
0.0
  0
LINE
  5
335E
  8
SUNPOU
  6
CONTINUOUS
 62
     4
 10
21086.813502000001
 20
19790.984537000018
 30
0.0
 11
21086.813502000001
 21
20520.987440000012
 31
0.0
  0
LINE
  5
335F
  8
SUNPOU
  6
CONTINUOUS
 62
     4
 10
21787.813502000001
 20
19790.984537000018
 30
0.0
 11
21787.813502000001
 21
20520.987440000012
 31
0.0
  0
LINE
  5
3360
  8
SUNPOU
  6
CONTINUOUS
 62
     4
 10
21086.813502000001
 20
20440.987440000012
 30
0.0
 11
21787.813502000001
 21
20440.987440000012
 31
0.0
  0
LINE
  5
3361
  8
SUNPOU
  6
CONTINUOUS
 62
     4
 10
23947.813502000001
 20
19790.984537000018
 30
0.0
 11
23947.813502000001
 21
20520.987440000012
 31
0.0
  0
LINE
  5
3362
  8
SUNPOU
  6
CONTINUOUS
 62
     4
 10
23990.309806999991
 20
19790.984537000018
 30
0.0
 11
23990.309806999991
 21
20520.987440000012
 31
0.0
  0
LINE
  5
3363
  8
SUNPOU
  6
CONTINUOUS
 62
     4
 10
23947.813502000001
 20
20440.987440000012
 30
0.0
 11
23707.813502000001
 21
20440.987440000012
 31
0.0
  0
LINE
  5
3364
  8
SUNPOU
  6
CONTINUOUS
 62
     4
 10
23990.309806999991
 20
20440.987440000012
 30
0.0
 11
24230.309806999991
 21
20440.987440000012
 31
0.0
  0
LINE
  5
3365
  8
SUNPOU
  6
CONTINUOUS
 62
     4
 10
23947.813502000001
 20
20440.987440000012
 30
0.0
 11
23990.309806999991
 21
20440.987440000012
 31
0.0
  0
LINE
  5
3366
  8
SUNPOU
  6
CONTINUOUS
 62
     4
 10
20679.313502000001
 20
19790.984537000018
 30
0.0
 11
20679.313502000001
 21
20520.987440000012
 31
0.0
  0
LINE
  5
3367
  8
SUNPOU
  6
CONTINUOUS
 62
     4
 10
20636.817196999989
 20
19790.984537000018
 30
0.0
 11
20636.817196999989
 21
20520.987440000012
 31
0.0
  0
LINE
  5
3368
  8
SUNPOU
  6
CONTINUOUS
 62
     4
 10
20679.313502000001
 20
20440.987440000012
 30
0.0
 11
20919.313502000001
 21
20440.987440000012
 31
0.0
  0
LINE
  5
3369
  8
SUNPOU
  6
CONTINUOUS
 62
     4
 10
20636.817196999989
 20
20440.987440000012
 30
0.0
 11
20396.817196999989
 21
20440.987440000012
 31
0.0
  0
LINE
  5
336A
  8
SUNPOU
  6
CONTINUOUS
 62
     4
 10
20679.313502000001
 20
20440.987440000012
 30
0.0
 11
20636.817196999989
 21
20440.987440000012
 31
0.0
  0
TEXT
  5
336B
  8
0
  6
CONTINUOUS
 62
     7
 10
20076.501522471179
 20
20520.987440000012
 30
0.0
 40
160.0
  1
42.5
  0
TEXT
  5
336C
  8
0
  6
CONTINUOUS
 62
     7
 10
24070.62548152879
 20
20520.987440000012
 30
0.0
 40
160.0
  1
42.5
  0
TEXT
  5
336D
  8
0
  6
CONTINUOUS
 62
     7
 10
21263.980168666669
 20
20200.987440000012
 30
0.0
 40
160.0
  1
701
  0
TEXT
  5
336E
  8
0
  6
CONTINUOUS
 62
     7
 10
21964.980168666661
 20
20520.987440000012
 30
0.0
 40
160.0
  1
701
  0
TEXT
  5
336F
  8
0
  6
CONTINUOUS
 62
     7
 10
22665.980168666661
 20
20520.987440000012
 30
0.0
 40
160.0
  1
701
  0
TEXT
  5
3370
  8
0
  6
CONTINUOUS
 62
     7
 10
23355.480663416671
 20
20520.987440000012
 30
0.0
 40
160.0
  1
758
  0
TEXT
  5
3371
  8
0
  6
CONTINUOUS
 62
     7
 10
20780.146835333329
 20
20520.987440000012
 30
0.0
 40
160.0
  1
407.5
  0
TEXT
  5
3372
  8
0
  6
CONTINUOUS
 62
     7
 10
25360.31310599998
 20
13216.43272060321
 30
0.0
 40
160.0
  1
42.5
 50
90.0
  0
TEXT
  5
3373
  8
0
  6
CONTINUOUS
 62
     7
 10
25360.31310599998
 20
19804.539783396791
 30
0.0
 40
160.0
  1
42.5
 50
90.0
  0
TEXT
  5
3374
  8
0
  6
CONTINUOUS
 62
     7
 10
25760.313105999991
 20
16483.819585333331
 30
0.0
 40
160.0
  1
5921
 50
90.0
  0
TEXT
  5
3375
  8
0
  6
CONTINUOUS
 62
     7
 10
25360.31310599998
 20
15024.819585333331
 30
0.0
 40
160.0
  1
2918
 50
90.0
  0
TEXT
  5
3376
  8
0
  6
CONTINUOUS
 62
     7
 10
25360.31310599998
 20
17942.819585333331
 30
0.0
 40
160.0
  1
2918
 50
90.0
  0
TEXT
  5
3377
  8
0
  6
CONTINUOUS
 62
     7
 10
24960.313105999991
 20
19076.15291866667
 30
0.0
 40
160.0
  1
758
 50
90.0
  0
TEXT
  5
3378
  8
0
  6
CONTINUOUS
 62
     7
 10
24960.313105999991
 20
18386.652918666659
 30
0.0
 40
160.0
  1
701
 50
90.0
  0
TEXT
  5
3379
  8
0
  6
CONTINUOUS
 62
     7
 10
24960.313105999991
 20
17685.65291866667
 30
0.0
 40
160.0
  1
701
 50
90.0
  0
TEXT
  5
337A
  8
0
  6
CONTINUOUS
 62
     7
 10
24960.313105999991
 20
16916.15291866667
 30
0.0
 40
160.0
  1
758
 50
90.0
  0
TEXT
  5
337B
  8
0
  6
CONTINUOUS
 62
     7
 10
24960.313105999991
 20
16158.15291866667
 30
0.0
 40
160.0
  1
758
 50
90.0
  0
TEXT
  5
337C
  8
0
  6
CONTINUOUS
 62
     7
 10
24960.313105999991
 20
15468.773174416679
 30
0.0
 40
160.0
  1
701
 50
90.0
  0
TEXT
  5
337D
  8
0
  6
CONTINUOUS
 62
     7
 10
24960.313105999991
 20
14767.773174416679
 30
0.0
 40
160.0
  1
701
 50
90.0
  0
TEXT
  5
337E
  8
0
  6
CONTINUOUS
 62
     7
 10
24960.313105999991
 20
13998.15291866667
 30
0.0
 40
160.0
  1
758
 50
90.0
  0
TEXT
  5
337F
  8
0
  6
CONTINUOUS
 62
     7
 10
21913.563502000001
 20
12541.038167999999
 30
0.0
 40
160.0
  1
3353.5
  0
TEXT
  5
3380
  8
0
  6
CONTINUOUS
 62
     7
 10
20797.367174382081
 20
12941.038167999999
 30
0.0
 40
160.0
  1
42.5
  0
TEXT
  5
3381
  8
0
  6
CONTINUOUS
 62
     7
 10
23349.759829617891
 20
12941.038167999999
 30
0.0
 40
160.0
  1
42.5
  0
TEXT
  5
3382
  8
0
  6
CONTINUOUS
 62
     7
 10
24065.867174382081
 20
12941.038167999999
 30
0.0
 40
160.0
  1
42.5
  0
TEXT
  5
3383
  8
0
  6
CONTINUOUS
 62
     7
 10
20081.259829617891
 20
12941.038167999999
 30
0.0
 40
160.0
  1
42.5
  0
TEXT
  5
3384
  8
0
  6
CONTINUOUS
 62
     7
 10
13806.400254333321
 20
5347.922928
 30
0.0
 40
160.0
  1
2918
  0
TEXT
  5
3385
  8
0
  6
CONTINUOUS
 62
     7
 10
10888.400254333321
 20
5347.922928
 30
0.0
 40
160.0
  1
2918
  0
TEXT
  5
3386
  8
0
  6
CONTINUOUS
 62
     7
 10
9056.3932119036836
 20
5347.922928
 30
0.0
 40
160.0
  1
42.5
  0
TEXT
  5
3387
  8
0
  6
CONTINUOUS
 62
     7
 10
15712.88555830981
 20
5347.922928
 30
0.0
 40
160.0
  1
42.5
  0
TEXT
  5
3388
  8
0
  6
CONTINUOUS
 62
     7
 10
12347.400254333321
 20
4947.9230930000012
 30
0.0
 40
160.0
  1
5921
  0
TEXT
  5
3389
  8
0
  6
CONTINUOUS
 62
     7
 10
16584.56632599996
 20
6723.5065913333337
 30
0.0
 40
160.0
  1
2348.5（2588.5）
 50
90.0
  0
TEXT
  5
338A
  8
0
  6
CONTINUOUS
 62
     7
 10
8483.5685029999859
 20
6654.1732579999998
 30
0.0
 40
160.0
  1
2156.5（2396.5）
 50
90.0
  0
TEXT
  5
338B
  8
0
  6
CONTINUOUS
 62
     7
 10
9060.2335876666566
 20
9795.9239440000001
 30
0.0
 40
160.0
  1
180
  0
TEXT
  5
338C
  8
0
  6
CONTINUOUS
 62
     7
 10
12347.400253833321
 20
9795.9239440000001
 30
0.0
 40
160.0
  1
5921
  0
TEXT
  5
338D
  8
0
  6
CONTINUOUS
 62
     7
 10
15791.23358766666
 20
9795.9239440000001
 30
0.0
 40
160.0
  1
150
  0
TEXT
  5
338E
  8
0
  6
CONTINUOUS
 62
     7
 10
12332.400254333321
 20
10195.922293999991
 30
0.0
 40
160.0
  1
6251
  0
TEXT
  5
338F
  8
0
  6
CONTINUOUS
 62
     7
 10
21913.563502000001
 20
4947.9240830000008
 30
0.0
 40
160.0
  1
3353.5
  0
TEXT
  5
3390
  8
0
  6
CONTINUOUS
 62
     7
 10
20070.774511741161
 20
5347.9239180000041
 30
0.0
 40
160.0
  1
42.5
  0
TEXT
  5
3391
  8
0
  6
CONTINUOUS
 62
     7
 10
21913.563502000001
 20
5347.9239180000041
 30
0.0
 40
160.0
  1
3268.5
  0
TEXT
  5
3392
  8
0
  6
CONTINUOUS
 62
     7
 10
21412.230168666661
 20
5747.923918000005
 30
0.0
 40
160.0
  1
有効開口巾 3080.5
  0
TEXT
  5
3393
  8
0
  6
CONTINUOUS
 62
     7
 10
24076.35249225884
 20
5347.9239180000041
 30
0.0
 40
160.0
  1
42.5
  0
TEXT
  5
3398
  8
0
  6
CONTINUOUS
 62
     7
 10
19349.309872999991
 20
6723.5070993333338
 30
0.0
 40
160.0
  1
2348.5（2588.5）
 50
90.0
  0
TEXT
  5
3399
  8
0
  6
CONTINUOUS
 62
     7
 10
19749.312181999991
 20
6631.9029912912747
 30
0.0
 40
160.0
  1
有効開口高サ 1891.5
 50
90.0
  0
TEXT
  5
339A
  8
0
  6
CONTINUOUS
 62
     7
 10
12193.103858
 20
20520.99139900001
 30
0.0
 40
160.0
  1
3268.5
  0
TEXT
  5
339B
  8
0
  6
CONTINUOUS
 62
     7
 10
10342.35715197675
 20
20520.99139900001
 30
0.0
 40
160.0
  1
85.5
  0
TEXT
  5
339C
  8
0
  6
CONTINUOUS
 62
     7
 10
14363.85056402328
 20
20520.99139900001
 30
0.0
 40
160.0
  1
85.5
  0
TEXT
  5
339D
  8
0
  6
CONTINUOUS
 62
     7
 10
9949.3486389999962
 20
15024.819585333331
 30
0.0
 40
160.0
  1
2918
 50
90.0
  0
TEXT
  5
339E
  8
0
  6
CONTINUOUS
 62
     7
 10
9949.3486389999998
 20
17942.819585333331
 30
0.0
 40
160.0
  1
2918
 50
90.0
  0
TEXT
  5
339F
  8
0
  6
CONTINUOUS
 62
     7
 10
9949.3486389999962
 20
19979.941436807669
 30
0.0
 40
160.0
  1
222.5
 50
90.0
  0
TEXT
  5
33A0
  8
0
  6
CONTINUOUS
 62
     7
 10
10349.348639
 20
20037.648827666679
 30
0.0
 40
160.0
  1
10
 50
90.0
  0
TEXT
  5
33A1
  8
0
  6
CONTINUOUS
 62
     7
 10
9949.3486389999962
 20
13024.53324170262
 30
0.0
 40
160.0
  1
192.5
 50
90.0
  0
ARC
  5
33A7
  8
0
  6
BYBLOCK
 62
     0
 10
10029.348638999991
 20
13832.486252000001
 30
0.0
 40
15.0
 50
90.0
 51
270.0
  0
ARC
  5
33A8
  8
0
  6
BYBLOCK
 62
     0
 10
10029.348638999991
 20
13832.486252000001
 30
0.0
 40
15.0
 50
270.0
 51
90.0
  0
ARC
  5
33A9
  8
0
  6
BYBLOCK
 62
     0
 10
10029.348638999991
 20
13639.990937
 30
0.0
 40
15.0
 50
270.0
 51
90.0
  0
ARC
  5
33AA
  8
0
  6
BYBLOCK
 62
     0
 10
10029.348638999991
 20
13639.990937
 30
0.0
 40
15.0
 50
90.0
 51
270.0
  0
ARC
  5
33AB
  8
0
  6
BYBLOCK
 62
     0
 10
10429.348639
 20
19880.987571000001
 30
0.0
 40
15.0
 50
270.0
 51
90.0
  0
ARC
  5
33AC
  8
0
  6
BYBLOCK
 62
     0
 10
10429.348639
 20
19880.987571000001
 30
0.0
 40
15.0
 50
90.0
 51
270.0
  0
ARC
  5
33AD
  8
0
  6
BYBLOCK
 62
     0
 10
10429.348639
 20
19890.982161000022
 30
0.0
 40
15.0
 50
90.0
 51
270.0
  0
ARC
  5
33AE
  8
0
  6
BYBLOCK
 62
     0
 10
10429.348639
 20
19890.982161000022
 30
0.0
 40
15.0
 50
270.0
 51
90.0
  0
ARC
  5
33AF
  8
0
  6
BYBLOCK
 62
     0
 10
10029.348638999991
 20
19668.486251999992
 30
0.0
 40
15.0
 50
270.0
 51
90.0
  0
ARC
  5
33B0
  8
0
  6
BYBLOCK
 62
     0
 10
10029.348638999991
 20
19668.486251999992
 30
0.0
 40
15.0
 50
90.0
 51
270.0
  0
ARC
  5
33B1
  8
0
  6
BYBLOCK
 62
     0
 10
10029.348638999991
 20
19890.982161000022
 30
0.0
 40
15.0
 50
90.0
 51
270.0
  0
ARC
  5
33B2
  8
0
  6
BYBLOCK
 62
     0
 10
10029.348638999991
 20
19890.982161000022
 30
0.0
 40
15.0
 50
270.0
 51
90.0
  0
ARC
  5
33B3
  8
0
  6
BYBLOCK
 62
     0
 10
10029.348638999991
 20
16750.486251999992
 30
0.0
 40
15.0
 50
90.0
 51
270.0
  0
ARC
  5
33B4
  8
0
  6
BYBLOCK
 62
     0
 10
10029.348638999991
 20
16750.486251999992
 30
0.0
 40
15.0
 50
270.0
 51
90.0
  0
ARC
  5
33B5
  8
0
  6
BYBLOCK
 62
     0
 10
10029.348638999991
 20
19668.486251999992
 30
0.0
 40
15.0
 50
270.0
 51
90.0
  0
ARC
  5
33B6
  8
0
  6
BYBLOCK
 62
     0
 10
10029.348638999991
 20
19668.486251999992
 30
0.0
 40
15.0
 50
90.0
 51
270.0
  0
ARC
  5
33B7
  8
0
  6
BYBLOCK
 62
     0
 10
10029.348638999991
 20
13832.486252000001
 30
0.0
 40
15.0
 50
90.0
 51
270.0
  0
ARC
  5
33B8
  8
0
  6
BYBLOCK
 62
     0
 10
10029.348638999991
 20
13832.486252000001
 30
0.0
 40
15.0
 50
270.0
 51
90.0
  0
ARC
  5
33B9
  8
0
  6
BYBLOCK
 62
     0
 10
10029.348638999991
 20
16750.486251999992
 30
0.0
 40
15.0
 50
270.0
 51
90.0
  0
ARC
  5
33BA
  8
0
  6
BYBLOCK
 62
     0
 10
10029.348638999991
 20
16750.486251999992
 30
0.0
 40
15.0
 50
90.0
 51
270.0
  0
ARC
  5
33BB
  8
0
  6
BYBLOCK
 62
     0
 10
14227.353858
 20
20440.99139900002
 30
0.0
 40
15.0
 50
180.0
 51
0.0
  0
ARC
  5
33BC
  8
0
  6
BYBLOCK
 62
     0
 10
14227.353858
 20
20440.99139900002
 30
0.0
 40
15.0
 50
0.0
 51
180.0
  0
ARC
  5
33BD
  8
0
  6
BYBLOCK
 62
     0
 10
14312.853858
 20
20440.99139900002
 30
0.0
 40
15.0
 50
0.0
 51
180.0
  0
ARC
  5
33BE
  8
0
  6
BYBLOCK
 62
     0
 10
14312.853858
 20
20440.99139900002
 30
0.0
 40
15.0
 50
180.0
 51
0.0
  0
ARC
  5
33BF
  8
0
  6
BYBLOCK
 62
     0
 10
10958.853858
 20
20440.99139900002
 30
0.0
 40
15.0
 50
0.0
 51
180.0
  0
ARC
  5
33C0
  8
0
  6
BYBLOCK
 62
     0
 10
10958.853858
 20
20440.99139900002
 30
0.0
 40
15.0
 50
180.0
 51
0.0
  0
ARC
  5
33C1
  8
0
  6
BYBLOCK
 62
     0
 10
10873.353858
 20
20440.99139900002
 30
0.0
 40
15.0
 50
180.0
 51
0.0
  0
ARC
  5
33C2
  8
0
  6
BYBLOCK
 62
     0
 10
10873.353858
 20
20440.99139900002
 30
0.0
 40
15.0
 50
0.0
 51
180.0
  0
ARC
  5
33C3
  8
0
  6
BYBLOCK
 62
     0
 10
14227.353858
 20
20440.99139900002
 30
0.0
 40
15.0
 50
180.0
 51
0.0
  0
ARC
  5
33C4
  8
0
  6
BYBLOCK
 62
     0
 10
14227.353858
 20
20440.99139900002
 30
0.0
 40
15.0
 50
0.0
 51
180.0
  0
ARC
  5
33C5
  8
0
  6
BYBLOCK
 62
     0
 10
10958.853858
 20
20440.99139900002
 30
0.0
 40
15.0
 50
0.0
 51
180.0
  0
ARC
  5
33C6
  8
0
  6
BYBLOCK
 62
     0
 10
10958.853858
 20
20440.99139900002
 30
0.0
 40
15.0
 50
180.0
 51
0.0
  0
ARC
  5
33C7
  8
0
  6
BYBLOCK
 62
     0
 10
19829.312182000001
 20
6567.9237529999991
 30
0.0
 40
15.0
 50
90.0
 51
270.0
  0
ARC
  5
33C8
  8
0
  6
BYBLOCK
 62
     0
 10
19829.312182000001
 20
6567.9237529999991
 30
0.0
 40
15.0
 50
270.0
 51
90.0
  0
ARC
  5
33C9
  8
0
  6
BYBLOCK
 62
     0
 10
19829.312182000001
 20
8459.4237530000028
 30
0.0
 40
15.0
 50
270.0
 51
90.0
  0
ARC
  5
33CA
  8
0
  6
BYBLOCK
 62
     0
 10
19829.312182000001
 20
8459.4237530000028
 30
0.0
 40
15.0
 50
90.0
 51
270.0
  0
ARC
  5
33CB
  8
0
  6
BYBLOCK
 62
     0
 10
19429.309872999991
 20
6567.9237529999991
 30
0.0
 40
15.0
 50
90.0
 51
270.0
  0
ARC
  5
33CC
  8
0
  6
BYBLOCK
 62
     0
 10
19429.309872999991
 20
6567.9237529999991
 30
0.0
 40
15.0
 50
270.0
 51
90.0
  0
ARC
  5
33CD
  8
0
  6
BYBLOCK
 62
     0
 10
19429.309872999998
 20
8916.4237789999952
 30
0.0
 40
15.0
 50
270.0
 51
90.0
  0
ARC
  5
33CE
  8
0
  6
BYBLOCK
 62
     0
 10
19429.309872999998
 20
8916.4237789999952
 30
0.0
 40
15.0
 50
90.0
 51
270.0
  0
ARC
  5
33DF
  8
0
  6
BYBLOCK
 62
     0
 10
23947.813502000001
 20
5267.9239180000041
 30
0.0
 40
15.0
 50
180.0
 51
0.0
  0
ARC
  5
33E0
  8
0
  6
BYBLOCK
 62
     0
 10
23947.813502000001
 20
5267.9239180000041
 30
0.0
 40
15.0
 50
0.0
 51
180.0
  0
ARC
  5
33E1
  8
0
  6
BYBLOCK
 62
     0
 10
23990.313502000001
 20
5267.9239180000041
 30
0.0
 40
15.0
 50
0.0
 51
180.0
  0
ARC
  5
33E2
  8
0
  6
BYBLOCK
 62
     0
 10
23990.313502000001
 20
5267.9239180000041
 30
0.0
 40
15.0
 50
180.0
 51
0.0
  0
ARC
  5
33E3
  8
0
  6
BYBLOCK
 62
     0
 10
20773.313502000001
 20
5667.9239180000041
 30
0.0
 40
15.0
 50
0.0
 51
180.0
  0
ARC
  5
33E4
  8
0
  6
BYBLOCK
 62
     0
 10
20773.313502000001
 20
5667.9239180000041
 30
0.0
 40
15.0
 50
180.0
 51
0.0
  0
ARC
  5
33E5
  8
0
  6
BYBLOCK
 62
     0
 10
23853.813502000001
 20
5667.9239180000041
 30
0.0
 40
15.0
 50
180.0
 51
0.0
  0
ARC
  5
33E6
  8
0
  6
BYBLOCK
 62
     0
 10
23853.813502000001
 20
5667.9239180000041
 30
0.0
 40
15.0
 50
0.0
 51
180.0
  0
ARC
  5
33E7
  8
0
  6
BYBLOCK
 62
     0
 10
20679.313502000001
 20
5267.9239180000041
 30
0.0
 40
15.0
 50
0.0
 51
180.0
  0
ARC
  5
33E8
  8
0
  6
BYBLOCK
 62
     0
 10
20679.313502000001
 20
5267.9239180000041
 30
0.0
 40
15.0
 50
180.0
 51
0.0
  0
ARC
  5
33E9
  8
0
  6
BYBLOCK
 62
     0
 10
23947.813502000001
 20
5267.9239180000041
 30
0.0
 40
15.0
 50
180.0
 51
0.0
  0
ARC
  5
33EA
  8
0
  6
BYBLOCK
 62
     0
 10
23947.813502000001
 20
5267.9239180000041
 30
0.0
 40
15.0
 50
0.0
 51
180.0
  0
ARC
  5
33EB
  8
0
  6
BYBLOCK
 62
     0
 10
20679.313502000001
 20
5267.9239180000041
 30
0.0
 40
15.0
 50
0.0
 51
180.0
  0
ARC
  5
33EC
  8
0
  6
BYBLOCK
 62
     0
 10
20679.313502000001
 20
5267.9239180000041
 30
0.0
 40
15.0
 50
180.0
 51
0.0
  0
ARC
  5
33ED
  8
0
  6
BYBLOCK
 62
     0
 10
20636.81350199999
 20
5267.9239180000041
 30
0.0
 40
15.0
 50
180.0
 51
0.0
  0
ARC
  5
33EE
  8
0
  6
BYBLOCK
 62
     0
 10
20636.81350199999
 20
5267.9239180000041
 30
0.0
 40
15.0
 50
0.0
 51
180.0
  0
ARC
  5
33EF
  8
0
  6
BYBLOCK
 62
     0
 10
20636.81350199999
 20
4867.9240830000008
 30
0.0
 40
15.0
 50
0.0
 51
180.0
  0
ARC
  5
33F0
  8
0
  6
BYBLOCK
 62
     0
 10
20636.81350199999
 20
4867.9240830000008
 30
0.0
 40
15.0
 50
180.0
 51
0.0
  0
ARC
  5
33F1
  8
0
  6
BYBLOCK
 62
     0
 10
23990.313502000001
 20
4867.9240830000008
 30
0.0
 40
15.0
 50
180.0
 51
0.0
  0
ARC
  5
33F2
  8
0
  6
BYBLOCK
 62
     0
 10
23990.313502000001
 20
4867.9240830000008
 30
0.0
 40
15.0
 50
0.0
 51
180.0
  0
ARC
  5
33F3
  8
0
  6
BYBLOCK
 62
     0
 10
9473.5669209999905
 20
10115.922293999991
 30
0.0
 40
15.0
 50
0.0
 51
180.0
  0
ARC
  5
33F4
  8
0
  6
BYBLOCK
 62
     0
 10
9473.5669209999905
 20
10115.922293999991
 30
0.0
 40
15.0
 50
180.0
 51
0.0
  0
ARC
  5
33F5
  8
0
  6
BYBLOCK
 62
     0
 10
15724.566920999991
 20
10115.922293999991
 30
0.0
 40
15.0
 50
180.0
 51
0.0
  0
ARC
  5
33F6
  8
0
  6
BYBLOCK
 62
     0
 10
15724.566920999991
 20
10115.922293999991
 30
0.0
 40
15.0
 50
0.0
 51
180.0
  0
ARC
  5
33F7
  8
0
  6
BYBLOCK
 62
     0
 10
15574.568173999991
 20
9715.9239440000001
 30
0.0
 40
15.0
 50
180.0
 51
0.0
  0
ARC
  5
33F8
  8
0
  6
BYBLOCK
 62
     0
 10
15574.568173999991
 20
9715.9239440000001
 30
0.0
 40
15.0
 50
0.0
 51
180.0
  0
ARC
  5
33F9
  8
0
  6
BYBLOCK
 62
     0
 10
15724.566920999991
 20
9715.9239440000001
 30
0.0
 40
15.0
 50
0.0
 51
180.0
  0
ARC
  5
33FA
  8
0
  6
BYBLOCK
 62
     0
 10
15724.566920999991
 20
9715.9239440000001
 30
0.0
 40
15.0
 50
180.0
 51
0.0
  0
ARC
  5
33FB
  8
0
  6
BYBLOCK
 62
     0
 10
9653.565666999988
 20
9715.9239440000001
 30
0.0
 40
15.0
 50
0.0
 51
180.0
  0
ARC
  5
33FC
  8
0
  6
BYBLOCK
 62
     0
 10
9653.565666999988
 20
9715.9239440000001
 30
0.0
 40
15.0
 50
180.0
 51
0.0
  0
ARC
  5
33FD
  8
0
  6
BYBLOCK
 62
     0
 10
15574.568173999991
 20
9715.9239440000001
 30
0.0
 40
15.0
 50
180.0
 51
0.0
  0
ARC
  5
33FE
  8
0
  6
BYBLOCK
 62
     0
 10
15574.568173999991
 20
9715.9239440000001
 30
0.0
 40
15.0
 50
0.0
 51
180.0
  0
ARC
  5
33FF
  8
0
  6
BYBLOCK
 62
     0
 10
9473.5669209999905
 20
9715.9239439999983
 30
0.0
 40
15.0
 50
180.0
 51
0.0
  0
ARC
  5
3400
  8
0
  6
BYBLOCK
 62
     0
 10
9473.5669209999905
 20
9715.9239439999983
 30
0.0
 40
15.0
 50
0.0
 51
180.0
  0
ARC
  5
3401
  8
0
  6
BYBLOCK
 62
     0
 10
9653.565666999988
 20
9715.9239439999983
 30
0.0
 40
15.0
 50
0.0
 51
180.0
  0
ARC
  5
3402
  8
0
  6
BYBLOCK
 62
     0
 10
9653.565666999988
 20
9715.9239439999983
 30
0.0
 40
15.0
 50
180.0
 51
0.0
  0
ARC
  5
3403
  8
0
  6
BYBLOCK
 62
     0
 10
8563.5685029999859
 20
6567.9232579999989
 30
0.0
 40
15.0
 50
90.0
 51
270.0
  0
ARC
  5
3404
  8
0
  6
BYBLOCK
 62
     0
 10
8563.5685029999859
 20
6567.9232579999989
 30
0.0
 40
15.0
 50
270.0
 51
90.0
  0
ARC
  5
3405
  8
0
  6
BYBLOCK
 62
     0
 10
8563.5685029999859
 20
8724.4232579999989
 30
0.0
 40
15.0
 50
270.0
 51
90.0
  0
ARC
  5
3406
  8
0
  6
BYBLOCK
 62
     0
 10
8563.5685029999859
 20
8724.4232579999989
 30
0.0
 40
15.0
 50
90.0
 51
270.0
  0
ARC
  5
3407
  8
0
  6
BYBLOCK
 62
     0
 10
16664.56632599996
 20
6567.9232579999989
 30
0.0
 40
15.0
 50
90.0
 51
270.0
  0
ARC
  5
3408
  8
0
  6
BYBLOCK
 62
     0
 10
16664.56632599996
 20
6567.9232579999989
 30
0.0
 40
15.0
 50
270.0
 51
90.0
  0
ARC
  5
3409
  8
0
  6
BYBLOCK
 62
     0
 10
16664.56632599996
 20
8916.4232580000007
 30
0.0
 40
15.0
 50
270.0
 51
90.0
  0
ARC
  5
340A
  8
0
  6
BYBLOCK
 62
     0
 10
16664.56632599996
 20
8916.4232580000007
 30
0.0
 40
15.0
 50
90.0
 51
270.0
  0
ARC
  5
340B
  8
0
  6
BYBLOCK
 62
     0
 10
9653.5669209999924
 20
4867.9230930000012
 30
0.0
 40
15.0
 50
0.0
 51
180.0
  0
ARC
  5
340C
  8
0
  6
BYBLOCK
 62
     0
 10
9653.5669209999924
 20
4867.9230930000012
 30
0.0
 40
15.0
 50
180.0
 51
0.0
  0
ARC
  5
340D
  8
0
  6
BYBLOCK
 62
     0
 10
15574.566920999991
 20
4867.9230930000012
 30
0.0
 40
15.0
 50
180.0
 51
0.0
  0
ARC
  5
340E
  8
0
  6
BYBLOCK
 62
     0
 10
15574.566920999991
 20
4867.9230930000012
 30
0.0
 40
15.0
 50
0.0
 51
180.0
  0
ARC
  5
340F
  8
0
  6
BYBLOCK
 62
     0
 10
15532.066920999991
 20
5267.922928
 30
0.0
 40
15.0
 50
180.0
 51
0.0
  0
ARC
  5
3410
  8
0
  6
BYBLOCK
 62
     0
 10
15532.066920999991
 20
5267.922928
 30
0.0
 40
15.0
 50
0.0
 51
180.0
  0
ARC
  5
3411
  8
0
  6
BYBLOCK
 62
     0
 10
15574.566920999991
 20
5267.922928
 30
0.0
 40
15.0
 50
0.0
 51
180.0
  0
ARC
  5
3412
  8
0
  6
BYBLOCK
 62
     0
 10
15574.566920999991
 20
5267.922928
 30
0.0
 40
15.0
 50
180.0
 51
0.0
  0
ARC
  5
3413
  8
0
  6
BYBLOCK
 62
     0
 10
9696.0669209999924
 20
5267.922928
 30
0.0
 40
15.0
 50
0.0
 51
180.0
  0
ARC
  5
3414
  8
0
  6
BYBLOCK
 62
     0
 10
9696.0669209999924
 20
5267.922928
 30
0.0
 40
15.0
 50
180.0
 51
0.0
  0
ARC
  5
3415
  8
0
  6
BYBLOCK
 62
     0
 10
9653.5669209999924
 20
5267.922928
 30
0.0
 40
15.0
 50
180.0
 51
0.0
  0
ARC
  5
3416
  8
0
  6
BYBLOCK
 62
     0
 10
9653.5669209999924
 20
5267.922928
 30
0.0
 40
15.0
 50
0.0
 51
180.0
  0
ARC
  5
3417
  8
0
  6
BYBLOCK
 62
     0
 10
12614.066920999991
 20
5267.922928
 30
0.0
 40
15.0
 50
180.0
 51
0.0
  0
ARC
  5
3418
  8
0
  6
BYBLOCK
 62
     0
 10
12614.066920999991
 20
5267.922928
 30
0.0
 40
15.0
 50
0.0
 51
180.0
  0
ARC
  5
3419
  8
0
  6
BYBLOCK
 62
     0
 10
9696.0669209999924
 20
5267.922928
 30
0.0
 40
15.0
 50
0.0
 51
180.0
  0
ARC
  5
341A
  8
0
  6
BYBLOCK
 62
     0
 10
9696.0669209999924
 20
5267.922928
 30
0.0
 40
15.0
 50
180.0
 51
0.0
  0
ARC
  5
341B
  8
0
  6
BYBLOCK
 62
     0
 10
12614.066920999991
 20
5267.922928
 30
0.0
 40
15.0
 50
0.0
 51
180.0
  0
ARC
  5
341C
  8
0
  6
BYBLOCK
 62
     0
 10
12614.066920999991
 20
5267.922928
 30
0.0
 40
15.0
 50
180.0
 51
0.0
  0
ARC
  5
341D
  8
0
  6
BYBLOCK
 62
     0
 10
15532.066920999991
 20
5267.922928
 30
0.0
 40
15.0
 50
180.0
 51
0.0
  0
ARC
  5
341E
  8
0
  6
BYBLOCK
 62
     0
 10
15532.066920999991
 20
5267.922928
 30
0.0
 40
15.0
 50
0.0
 51
180.0
  0
ARC
  5
341F
  8
0
  6
BYBLOCK
 62
     0
 10
20679.313502000001
 20
12861.038167999999
 30
0.0
 40
15.0
 50
0.0
 51
180.0
  0
ARC
  5
3420
  8
0
  6
BYBLOCK
 62
     0
 10
20679.313502000001
 20
12861.038167999999
 30
0.0
 40
15.0
 50
180.0
 51
0.0
  0
ARC
  5
3421
  8
0
  6
BYBLOCK
 62
     0
 10
20636.811258999998
 20
12861.038167999999
 30
0.0
 40
15.0
 50
180.0
 51
0.0
  0
ARC
  5
3422
  8
0
  6
BYBLOCK
 62
     0
 10
20636.811258999998
 20
12861.038167999999
 30
0.0
 40
15.0
 50
0.0
 51
180.0
  0
ARC
  5
3423
  8
0
  6
BYBLOCK
 62
     0
 10
23947.813502000001
 20
12861.038167999999
 30
0.0
 40
15.0
 50
180.0
 51
0.0
  0
ARC
  5
3424
  8
0
  6
BYBLOCK
 62
     0
 10
23947.813502000001
 20
12861.038167999999
 30
0.0
 40
15.0
 50
0.0
 51
180.0
  0
ARC
  5
3425
  8
0
  6
BYBLOCK
 62
     0
 10
23990.315744999989
 20
12861.038167999999
 30
0.0
 40
15.0
 50
0.0
 51
180.0
  0
ARC
  5
3426
  8
0
  6
BYBLOCK
 62
     0
 10
23990.315744999989
 20
12861.038167999999
 30
0.0
 40
15.0
 50
180.0
 51
0.0
  0
ARC
  5
3427
  8
0
  6
BYBLOCK
 62
     0
 10
23947.813502000001
 20
12861.038167999999
 30
0.0
 40
15.0
 50
0.0
 51
180.0
  0
ARC
  5
3428
  8
0
  6
BYBLOCK
 62
     0
 10
23947.813502000001
 20
12861.038167999999
 30
0.0
 40
15.0
 50
180.0
 51
0.0
  0
ARC
  5
3429
  8
0
  6
BYBLOCK
 62
     0
 10
23905.311258999991
 20
12861.038167999999
 30
0.0
 40
15.0
 50
180.0
 51
0.0
  0
ARC
  5
342A
  8
0
  6
BYBLOCK
 62
     0
 10
23905.311258999991
 20
12861.038167999999
 30
0.0
 40
15.0
 50
0.0
 51
180.0
  0
ARC
  5
342B
  8
0
  6
BYBLOCK
 62
     0
 10
20679.313502000001
 20
12861.038167999999
 30
0.0
 40
15.0
 50
180.0
 51
0.0
  0
ARC
  5
342C
  8
0
  6
BYBLOCK
 62
     0
 10
20679.313502000001
 20
12861.038167999999
 30
0.0
 40
15.0
 50
0.0
 51
180.0
  0
ARC
  5
342D
  8
0
  6
BYBLOCK
 62
     0
 10
20721.815744999989
 20
12861.038167999999
 30
0.0
 40
15.0
 50
0.0
 51
180.0
  0
ARC
  5
342E
  8
0
  6
BYBLOCK
 62
     0
 10
20721.815744999989
 20
12861.038167999999
 30
0.0
 40
15.0
 50
180.0
 51
0.0
  0
ARC
  5
342F
  8
0
  6
BYBLOCK
 62
     0
 10
20636.811258999998
 20
12461.038167999999
 30
0.0
 40
15.0
 50
0.0
 51
180.0
  0
ARC
  5
3430
  8
0
  6
BYBLOCK
 62
     0
 10
20636.811258999998
 20
12461.038167999999
 30
0.0
 40
15.0
 50
180.0
 51
0.0
  0
ARC
  5
3431
  8
0
  6
BYBLOCK
 62
     0
 10
23990.315744999989
 20
12461.038167999999
 30
0.0
 40
15.0
 50
180.0
 51
0.0
  0
ARC
  5
3432
  8
0
  6
BYBLOCK
 62
     0
 10
23990.315744999989
 20
12461.038167999999
 30
0.0
 40
15.0
 50
0.0
 51
180.0
  0
ARC
  5
3433
  8
0
  6
BYBLOCK
 62
     0
 10
25040.31310599998
 20
14590.486252000001
 30
0.0
 40
15.0
 50
270.0
 51
90.0
  0
ARC
  5
3434
  8
0
  6
BYBLOCK
 62
     0
 10
25040.31310599998
 20
14590.486252000001
 30
0.0
 40
15.0
 50
90.0
 51
270.0
  0
ARC
  5
3435
  8
0
  6
BYBLOCK
 62
     0
 10
25040.31310599998
 20
13832.486252000001
 30
0.0
 40
15.0
 50
90.0
 51
270.0
  0
ARC
  5
3436
  8
0
  6
BYBLOCK
 62
     0
 10
25040.31310599998
 20
13832.486252000001
 30
0.0
 40
15.0
 50
270.0
 51
90.0
  0
ARC
  5
3437
  8
0
  6
BYBLOCK
 62
     0
 10
25040.31310599998
 20
15291.72676350001
 30
0.0
 40
15.0
 50
270.0
 51
90.0
  0
ARC
  5
3438
  8
0
  6
BYBLOCK
 62
     0
 10
25040.31310599998
 20
15291.72676350001
 30
0.0
 40
15.0
 50
90.0
 51
270.0
  0
ARC
  5
3439
  8
0
  6
BYBLOCK
 62
     0
 10
25040.31310599998
 20
14590.486252000001
 30
0.0
 40
15.0
 50
90.0
 51
270.0
  0
ARC
  5
343A
  8
0
  6
BYBLOCK
 62
     0
 10
25040.31310599998
 20
14590.486252000001
 30
0.0
 40
15.0
 50
270.0
 51
90.0
  0
ARC
  5
343B
  8
0
  6
BYBLOCK
 62
     0
 10
25040.31310599998
 20
15992.486252000001
 30
0.0
 40
15.0
 50
270.0
 51
90.0
  0
ARC
  5
343C
  8
0
  6
BYBLOCK
 62
     0
 10
25040.31310599998
 20
15992.486252000001
 30
0.0
 40
15.0
 50
90.0
 51
270.0
  0
ARC
  5
343D
  8
0
  6
BYBLOCK
 62
     0
 10
25040.31310599998
 20
15291.72676350001
 30
0.0
 40
15.0
 50
90.0
 51
270.0
  0
ARC
  5
343E
  8
0
  6
BYBLOCK
 62
     0
 10
25040.31310599998
 20
15291.72676350001
 30
0.0
 40
15.0
 50
270.0
 51
90.0
  0
ARC
  5
343F
  8
0
  6
BYBLOCK
 62
     0
 10
25040.31310599998
 20
16750.486251999992
 30
0.0
 40
15.0
 50
270.0
 51
90.0
  0
ARC
  5
3440
  8
0
  6
BYBLOCK
 62
     0
 10
25040.31310599998
 20
16750.486251999992
 30
0.0
 40
15.0
 50
90.0
 51
270.0
  0
ARC
  5
3441
  8
0
  6
BYBLOCK
 62
     0
 10
25040.31310599998
 20
15992.486252000001
 30
0.0
 40
15.0
 50
90.0
 51
270.0
  0
ARC
  5
3442
  8
0
  6
BYBLOCK
 62
     0
 10
25040.31310599998
 20
15992.486252000001
 30
0.0
 40
15.0
 50
270.0
 51
90.0
  0
ARC
  5
3443
  8
0
  6
BYBLOCK
 62
     0
 10
25040.31310599998
 20
17508.486251999992
 30
0.0
 40
15.0
 50
270.0
 51
90.0
  0
ARC
  5
3444
  8
0
  6
BYBLOCK
 62
     0
 10
25040.31310599998
 20
17508.486251999992
 30
0.0
 40
15.0
 50
90.0
 51
270.0
  0
ARC
  5
3445
  8
0
  6
BYBLOCK
 62
     0
 10
25040.31310599998
 20
16750.486251999992
 30
0.0
 40
15.0
 50
90.0
 51
270.0
  0
ARC
  5
3446
  8
0
  6
BYBLOCK
 62
     0
 10
25040.31310599998
 20
16750.486251999992
 30
0.0
 40
15.0
 50
270.0
 51
90.0
  0
ARC
  5
3447
  8
0
  6
BYBLOCK
 62
     0
 10
25040.31310599998
 20
18209.486251999992
 30
0.0
 40
15.0
 50
270.0
 51
90.0
  0
ARC
  5
3448
  8
0
  6
BYBLOCK
 62
     0
 10
25040.31310599998
 20
18209.486251999992
 30
0.0
 40
15.0
 50
90.0
 51
270.0
  0
ARC
  5
3449
  8
0
  6
BYBLOCK
 62
     0
 10
25040.31310599998
 20
17508.486251999992
 30
0.0
 40
15.0
 50
90.0
 51
270.0
  0
ARC
  5
344A
  8
0
  6
BYBLOCK
 62
     0
 10
25040.31310599998
 20
17508.486251999992
 30
0.0
 40
15.0
 50
270.0
 51
90.0
  0
ARC
  5
344B
  8
0
  6
BYBLOCK
 62
     0
 10
25040.31310599998
 20
18910.486251999992
 30
0.0
 40
15.0
 50
270.0
 51
90.0
  0
ARC
  5
344C
  8
0
  6
BYBLOCK
 62
     0
 10
25040.31310599998
 20
18910.486251999992
 30
0.0
 40
15.0
 50
90.0
 51
270.0
  0
ARC
  5
344D
  8
0
  6
BYBLOCK
 62
     0
 10
25040.31310599998
 20
18209.486251999992
 30
0.0
 40
15.0
 50
90.0
 51
270.0
  0
ARC
  5
344E
  8
0
  6
BYBLOCK
 62
     0
 10
25040.31310599998
 20
18209.486251999992
 30
0.0
 40
15.0
 50
270.0
 51
90.0
  0
ARC
  5
344F
  8
0
  6
BYBLOCK
 62
     0
 10
25040.31310599998
 20
19668.486251999992
 30
0.0
 40
15.0
 50
270.0
 51
90.0
  0
ARC
  5
3450
  8
0
  6
BYBLOCK
 62
     0
 10
25040.31310599998
 20
19668.486251999992
 30
0.0
 40
15.0
 50
90.0
 51
270.0
  0
ARC
  5
3451
  8
0
  6
BYBLOCK
 62
     0
 10
25040.31310599998
 20
18910.486251999992
 30
0.0
 40
15.0
 50
90.0
 51
270.0
  0
ARC
  5
3452
  8
0
  6
BYBLOCK
 62
     0
 10
25040.31310599998
 20
18910.486251999992
 30
0.0
 40
15.0
 50
270.0
 51
90.0
  0
ARC
  5
3453
  8
0
  6
BYBLOCK
 62
     0
 10
25440.31310599998
 20
16750.486251999992
 30
0.0
 40
15.0
 50
90.0
 51
270.0
  0
ARC
  5
3454
  8
0
  6
BYBLOCK
 62
     0
 10
25440.31310599998
 20
16750.486251999992
 30
0.0
 40
15.0
 50
270.0
 51
90.0
  0
ARC
  5
3455
  8
0
  6
BYBLOCK
 62
     0
 10
25440.31310599998
 20
19668.486251999992
 30
0.0
 40
15.0
 50
270.0
 51
90.0
  0
ARC
  5
3456
  8
0
  6
BYBLOCK
 62
     0
 10
25440.31310599998
 20
19668.486251999992
 30
0.0
 40
15.0
 50
90.0
 51
270.0
  0
ARC
  5
3457
  8
0
  6
BYBLOCK
 62
     0
 10
25440.31310599998
 20
13832.486252000001
 30
0.0
 40
15.0
 50
90.0
 51
270.0
  0
ARC
  5
3458
  8
0
  6
BYBLOCK
 62
     0
 10
25440.31310599998
 20
13832.486252000001
 30
0.0
 40
15.0
 50
270.0
 51
90.0
  0
ARC
  5
3459
  8
0
  6
BYBLOCK
 62
     0
 10
25440.31310599998
 20
16750.486251999992
 30
0.0
 40
15.0
 50
270.0
 51
90.0
  0
ARC
  5
345A
  8
0
  6
BYBLOCK
 62
     0
 10
25440.31310599998
 20
16750.486251999992
 30
0.0
 40
15.0
 50
90.0
 51
270.0
  0
ARC
  5
345B
  8
0
  6
BYBLOCK
 62
     0
 10
25840.313105999991
 20
19710.983546999982
 30
0.0
 40
15.0
 50
270.0
 51
90.0
  0
ARC
  5
345C
  8
0
  6
BYBLOCK
 62
     0
 10
25840.313105999991
 20
19710.983546999982
 30
0.0
 40
15.0
 50
90.0
 51
270.0
  0
ARC
  5
345D
  8
0
  6
BYBLOCK
 62
     0
 10
25840.313105999991
 20
13789.988957
 30
0.0
 40
15.0
 50
90.0
 51
270.0
  0
ARC
  5
345E
  8
0
  6
BYBLOCK
 62
     0
 10
25840.313105999991
 20
13789.988957
 30
0.0
 40
15.0
 50
270.0
 51
90.0
  0
ARC
  5
345F
  8
0
  6
BYBLOCK
 62
     0
 10
25440.31310599998
 20
19668.486251999992
 30
0.0
 40
15.0
 50
270.0
 51
90.0
  0
ARC
  5
3460
  8
0
  6
BYBLOCK
 62
     0
 10
25440.31310599998
 20
19668.486251999992
 30
0.0
 40
15.0
 50
90.0
 51
270.0
  0
ARC
  5
3461
  8
0
  6
BYBLOCK
 62
     0
 10
25440.31310599998
 20
19710.983546999982
 30
0.0
 40
15.0
 50
90.0
 51
270.0
  0
ARC
  5
3462
  8
0
  6
BYBLOCK
 62
     0
 10
25440.31310599998
 20
19710.983546999982
 30
0.0
 40
15.0
 50
270.0
 51
90.0
  0
ARC
  5
3463
  8
0
  6
BYBLOCK
 62
     0
 10
25440.31310599998
 20
13832.486252000001
 30
0.0
 40
15.0
 50
90.0
 51
270.0
  0
ARC
  5
3464
  8
0
  6
BYBLOCK
 62
     0
 10
25440.31310599998
 20
13832.486252000001
 30
0.0
 40
15.0
 50
270.0
 51
90.0
  0
ARC
  5
3465
  8
0
  6
BYBLOCK
 62
     0
 10
25440.31310599998
 20
13789.988957
 30
0.0
 40
15.0
 50
270.0
 51
90.0
  0
ARC
  5
3466
  8
0
  6
BYBLOCK
 62
     0
 10
25440.31310599998
 20
13789.988957
 30
0.0
 40
15.0
 50
90.0
 51
270.0
  0
ARC
  5
3467
  8
0
  6
BYBLOCK
 62
     0
 10
20679.313502000001
 20
20440.987440000012
 30
0.0
 40
15.0
 50
180.0
 51
0.0
  0
ARC
  5
3468
  8
0
  6
BYBLOCK
 62
     0
 10
20679.313502000001
 20
20440.987440000012
 30
0.0
 40
15.0
 50
0.0
 51
180.0
  0
ARC
  5
3469
  8
0
  6
BYBLOCK
 62
     0
 10
21086.813502000001
 20
20440.987440000012
 30
0.0
 40
15.0
 50
0.0
 51
180.0
  0
ARC
  5
346A
  8
0
  6
BYBLOCK
 62
     0
 10
21086.813502000001
 20
20440.987440000012
 30
0.0
 40
15.0
 50
180.0
 51
0.0
  0
ARC
  5
346B
  8
0
  6
BYBLOCK
 62
     0
 10
23189.813502000001
 20
20440.987440000012
 30
0.0
 40
15.0
 50
0.0
 51
180.0
  0
ARC
  5
346C
  8
0
  6
BYBLOCK
 62
     0
 10
23189.813502000001
 20
20440.987440000012
 30
0.0
 40
15.0
 50
180.0
 51
0.0
  0
ARC
  5
346D
  8
0
  6
BYBLOCK
 62
     0
 10
23947.814491500001
 20
20440.987440000012
 30
0.0
 40
15.0
 50
180.0
 51
0.0
  0
ARC
  5
346E
  8
0
  6
BYBLOCK
 62
     0
 10
23947.814491500001
 20
20440.987440000012
 30
0.0
 40
15.0
 50
0.0
 51
180.0
  0
ARC
  5
346F
  8
0
  6
BYBLOCK
 62
     0
 10
22488.813502000001
 20
20440.987440000012
 30
0.0
 40
15.0
 50
0.0
 51
180.0
  0
ARC
  5
3470
  8
0
  6
BYBLOCK
 62
     0
 10
22488.813502000001
 20
20440.987440000012
 30
0.0
 40
15.0
 50
180.0
 51
0.0
  0
ARC
  5
3471
  8
0
  6
BYBLOCK
 62
     0
 10
23189.813502000001
 20
20440.987440000012
 30
0.0
 40
15.0
 50
180.0
 51
0.0
  0
ARC
  5
3472
  8
0
  6
BYBLOCK
 62
     0
 10
23189.813502000001
 20
20440.987440000012
 30
0.0
 40
15.0
 50
0.0
 51
180.0
  0
ARC
  5
3473
  8
0
  6
BYBLOCK
 62
     0
 10
21787.813502000001
 20
20440.987440000012
 30
0.0
 40
15.0
 50
0.0
 51
180.0
  0
ARC
  5
3474
  8
0
  6
BYBLOCK
 62
     0
 10
21787.813502000001
 20
20440.987440000012
 30
0.0
 40
15.0
 50
180.0
 51
0.0
  0
ARC
  5
3475
  8
0
  6
BYBLOCK
 62
     0
 10
22488.813502000001
 20
20440.987440000012
 30
0.0
 40
15.0
 50
180.0
 51
0.0
  0
ARC
  5
3476
  8
0
  6
BYBLOCK
 62
     0
 10
22488.813502000001
 20
20440.987440000012
 30
0.0
 40
15.0
 50
0.0
 51
180.0
  0
ARC
  5
3477
  8
0
  6
BYBLOCK
 62
     0
 10
21086.813502000001
 20
20440.987440000012
 30
0.0
 40
15.0
 50
0.0
 51
180.0
  0
ARC
  5
3478
  8
0
  6
BYBLOCK
 62
     0
 10
21086.813502000001
 20
20440.987440000012
 30
0.0
 40
15.0
 50
180.0
 51
0.0
  0
ARC
  5
3479
  8
0
  6
BYBLOCK
 62
     0
 10
21787.813502000001
 20
20440.987440000012
 30
0.0
 40
15.0
 50
180.0
 51
0.0
  0
ARC
  5
347A
  8
0
  6
BYBLOCK
 62
     0
 10
21787.813502000001
 20
20440.987440000012
 30
0.0
 40
15.0
 50
0.0
 51
180.0
  0
ARC
  5
347B
  8
0
  6
BYBLOCK
 62
     0
 10
23947.813502000001
 20
20440.987440000012
 30
0.0
 40
15.0
 50
180.0
 51
0.0
  0
ARC
  5
347C
  8
0
  6
BYBLOCK
 62
     0
 10
23947.813502000001
 20
20440.987440000012
 30
0.0
 40
15.0
 50
0.0
 51
180.0
  0
ARC
  5
347D
  8
0
  6
BYBLOCK
 62
     0
 10
23990.309806999991
 20
20440.987440000012
 30
0.0
 40
15.0
 50
0.0
 51
180.0
  0
ARC
  5
347E
  8
0
  6
BYBLOCK
 62
     0
 10
23990.309806999991
 20
20440.987440000012
 30
0.0
 40
15.0
 50
180.0
 51
0.0
  0
ARC
  5
347F
  8
0
  6
BYBLOCK
 62
     0
 10
20679.313502000001
 20
20440.987440000012
 30
0.0
 40
15.0
 50
0.0
 51
180.0
  0
ARC
  5
3480
  8
0
  6
BYBLOCK
 62
     0
 10
20679.313502000001
 20
20440.987440000012
 30
0.0
 40
15.0
 50
180.0
 51
0.0
  0
ARC
  5
3481
  8
0
  6
BYBLOCK
 62
     0
 10
20636.817196999989
 20
20440.987440000012
 30
0.0
 40
15.0
 50
180.0
 51
0.0
  0
ARC
  5
3482
  8
0
  6
BYBLOCK
 62
     0
 10
20636.817196999989
 20
20440.987440000012
 30
0.0
 40
15.0
 50
0.0
 51
180.0
  0
LINE
  5
3485
  8
WAKUSEN-01
 10
868.00000000000193
 20
22484.000000000011
 30
0.0
 11
32764.000000000011
 21
22484.000000000011
 31
0.0
  0
LINE
  5
3488
  8
WAKUSEN-01
 10
20560.0
 20
2484.0
 30
0.0
 11
32764.0
 21
2484.0
 31
0.0
  0
LINE
  5
3489
  8
WAKUSEN-02
 10
20560.0
 20
1655.9999999999991
 30
0.0
 11
26868.0
 21
1655.9999999999991
 31
0.0
  0
TEXT
  5
348A
  8
WAKUMOJI-01
 10
20670.260259962761
 20
2125.9030093393221
 30
0.0
 40
240.0
  1
名　称
  7
WAKUMOJI
  0
TEXT
  5
348B
  8
WAKUMOJI-01
 10
20656.505485091919
 20
1319.12897497982
 30
0.0
 40
240.0
  1
機種名
  7
WAKUMOJI
  0
LINE
  5
348E
  8
YODOROGO
 10
29977.604341291921
 20
1995.7494964292871
 30
0.0
 11
29829.604341291921
 21
1995.7494964292871
 31
0.0
1001
AUTOCAD_POSTSCRIPT_FIGURE
1002
{
1000
PSFILL
1000
Grayscale
1000
Grayscale
1070
    25
1002
}
  0
LINE
  5
348F
  8
YODOROGO
 10
29829.604341291921
 20
1947.749496429288
 30
0.0
 11
29977.604341291921
 21
1947.749496429288
 31
0.0
1001
AUTOCAD_POSTSCRIPT_FIGURE
1002
{
1000
PSFILL
1000
Grayscale
1000
Grayscale
1070
    25
1002
}
  0
LINE
  5
3490
  8
YODOROGO
 10
29977.604341291921
 20
1907.7494964292871
 30
0.0
 11
29829.604341291921
 21
1907.7494964292871
 31
0.0
1001
AUTOCAD_POSTSCRIPT_FIGURE
1002
{
1000
PSFILL
1000
Grayscale
1000
Grayscale
1070
    25
1002
}
  0
LINE
  5
3491
  8
YODOROGO
 10
29829.604341291921
 20
1859.749496429288
 30
0.0
 11
29977.604341291921
 21
1859.749496429288
 31
0.0
1001
AUTOCAD_POSTSCRIPT_FIGURE
1002
{
1000
PSFILL
1000
Grayscale
1000
Grayscale
1070
    25
1002
}
  0
LINE
  5
3492
  8
YODOROGO
 10
29977.604341291921
 20
1819.7494964292871
 30
0.0
 11
29829.604341291921
 21
1819.7494964292871
 31
0.0
1001
AUTOCAD_POSTSCRIPT_FIGURE
1002
{
1000
PSFILL
1000
Grayscale
1000
Grayscale
1070
    25
1002
}
  0
LINE
  5
3493
  8
YODOROGO
 10
29921.60434129191
 20
1707.749496429288
 30
0.0
 11
29977.604341291921
 21
1707.749496429288
 31
0.0
1001
AUTOCAD_POSTSCRIPT_FIGURE
1002
{
1000
PSFILL
1000
Grayscale
1000
Grayscale
1070
    25
1002
}
  0
LINE
  5
3494
  8
YODOROGO
 10
29737.604341291921
 20
1427.749496429288
 30
0.0
 11
29937.604341291932
 21
1481.3393349155101
 31
0.0
  0
LINE
  5
3495
  8
YODOROGO
 10
29949.60434129191
 20
1707.749496429288
 30
0.0
 11
29885.604341291921
 21
1707.749496429288
 31
0.0
  0
ARC
  5
3496
  8
YODOROGO
 10
30254.34774982791
 20
1807.864609233261
 30
0.0
 40
381.88686420564721
 50
213.96111677667841
 51
264.47872074317792
  0
ARC
  5
3497
  8
YODOROGO
 10
30254.347749827921
 20
1807.864609233302
 30
0.0
 40
381.8868642056816
 50
208.14114420486601
 51
212.9210361185994
  0
LINE
  5
3498
  8
YODOROGO
 10
29771.409872985321
 20
1556.807661346234
 30
0.0
 11
29933.78413250855
 21
1600.3157130570869
 31
0.0
  0
LINE
  5
3499
  8
YODOROGO
 10
29737.604341291921
 20
1427.749496429288
 30
0.0
 11
29937.604341291932
 21
1481.3393349155101
 31
0.0
  0
LINE
  5
349A
  8
YODOROGO
 10
29949.60434129191
 20
1707.749496429288
 30
0.0
 11
29885.604341291921
 21
1707.749496429288
 31
0.0
  0
ARC
  5
349B
  8
YODOROGO
 10
30254.34774982791
 20
1807.864609233261
 30
0.0
 40
381.88686420564721
 50
213.96111677667841
 51
264.47872074317792
  0
LINE
  5
349C
  8
YODOROGO
 10
28793.60434129191
 20
1819.7494964292871
 30
0.0
 11
28433.60434129191
 21
1819.7494964292871
 31
0.0
  0
LINE
  5
349D
  8
YODOROGO
 10
28513.60434129191
 20
1427.749496429288
 30
0.0
 11
28793.60434129191
 21
1427.749496429288
 31
0.0
  0
LINE
  5
349E
  8
YODOROGO
 10
28729.604341291921
 20
1923.7494964292871
 30
0.0
 11
28497.60434129191
 21
1923.7494964292871
 31
0.0
  0
LINE
  5
349F
  8
YODOROGO
 10
28585.604341291921
 20
2027.749496429288
 30
0.0
 11
28657.604341291921
 21
2027.749496429288
 31
0.0
  0
LINE
  5
34A0
  8
YODOROGO
 10
28433.60434129191
 20
1707.749496429288
 30
0.0
 11
28433.60434129191
 21
1507.749496429288
 31
0.0
  0
LINE
  5
34A1
  8
YODOROGO
 10
28497.60434129191
 20
1563.7494964292871
 30
0.0
 11
28497.60434129191
 21
1707.749496429288
 31
0.0
  0
LINE
  5
34A2
  8
YODOROGO
 10
28585.604341291921
 20
1747.74949642929
 30
0.0
 11
28585.604341291921
 21
1547.749496429288
 31
0.0
  0
LINE
  5
34A3
  8
YODOROGO
 10
27857.604341291921
 20
1683.749496429288
 30
0.0
 11
27777.604341291921
 21
1619.9724140445701
 31
0.0
  0
LINE
  5
34A4
  8
YODOROGO
 10
27937.604341291921
 20
1619.9724140445701
 30
0.0
 11
27857.604341291921
 21
1683.749496429288
 31
0.0
  0
LINE
  5
34A5
  8
YODOROGO
 10
27857.604341291921
 20
1707.749496429288
 30
0.0
 11
27937.604341291921
 21
1643.9724140445701
 31
0.0
  0
LINE
  5
34A6
  8
YODOROGO
 10
27777.604341291921
 20
1643.9724140445701
 30
0.0
 11
27857.604341291921
 21
1707.749496429288
 31
0.0
  0
LINE
  5
34A7
  8
YODOROGO
 10
28040.913204016892
 20
1659.749496429288
 30
0.0
 11
28040.913204016892
 21
1683.7494964292871
 31
0.0
  0
LINE
  5
34A8
  8
YODOROGO
 10
27977.604341291921
 20
1683.7494964292871
 30
0.0
 11
27977.604341291921
 21
1667.749496429285
 31
0.0
  0
LINE
  5
34A9
  8
YODOROGO
 10
28098.135520230931
 20
1707.749496429288
 30
0.0
 11
28098.135520230931
 21
1655.5036372746561
 31
0.0
1001
AUTOCAD_POSTSCRIPT_FIGURE
1002
{
1000
PSFILL
1000
Grayscale
1000
Grayscale
1070
   100
1002
}
  0
LINE
  5
34AA
  8
YODOROGO
 10
28082.135520230921
 20
1655.5036372746561
 30
0.0
 11
28082.135520230921
 21
1707.749496429288
 31
0.0
1001
AUTOCAD_POSTSCRIPT_FIGURE
1002
{
1000
PSFILL
1000
Grayscale
1000
Grayscale
1070
   100
1002
}
  0
LINE
  5
34AB
  8
YODOROGO
 10
27809.604341291921
 20
1608.771904043258
 30
0.0
 11
27809.604341291921
 21
1632.771904043258
 31
0.0
  0
LINE
  5
34AC
  8
YODOROGO
 10
27905.604341291921
 20
1608.771904043258
 30
0.0
 11
27809.604341291921
 21
1608.771904043258
 31
0.0
  0
LINE
  5
34AD
  8
YODOROGO
 10
27905.604341291921
 20
1632.771904043258
 30
0.0
 11
27905.604341291921
 21
1608.771904043258
 31
0.0
  0
LINE
  5
34AE
  8
YODOROGO
 10
27809.604341291921
 20
1632.771904043258
 30
0.0
 11
27905.604341291921
 21
1632.771904043258
 31
0.0
  0
LINE
  5
34AF
  8
YODOROGO
 10
27824.509588915738
 20
1568.5028573704751
 30
0.0
 11
27785.604341291921
 21
1475.7494964292871
 31
0.0
1001
AUTOCAD_POSTSCRIPT_FIGURE
1002
{
1000
PSFILL
1000
Grayscale
1000
Grayscale
1070
   100
1002
}
  0
LINE
  5
34B0
  8
YODOROGO
 10
27777.604341291921
 20
1568.5028573704751
 30
0.0
 11
27824.509588915738
 21
1568.5028573704751
 31
0.0
1001
AUTOCAD_POSTSCRIPT_FIGURE
1002
{
1000
PSFILL
1000
Grayscale
1000
Grayscale
1070
   100
1002
}
  0
LINE
  5
34B1
  8
YODOROGO
 10
27777.604341291921
 20
1588.5028573704751
 30
0.0
 11
27777.604341291921
 21
1568.5028573704751
 31
0.0
1001
AUTOCAD_POSTSCRIPT_FIGURE
1002
{
1000
PSFILL
1000
Grayscale
1000
Grayscale
1070
   100
1002
}
  0
LINE
  5
34B2
  8
YODOROGO
 10
27937.604341291921
 20
1588.5028573704751
 30
0.0
 11
27777.604341291921
 21
1588.5028573704751
 31
0.0
1001
AUTOCAD_POSTSCRIPT_FIGURE
1002
{
1000
PSFILL
1000
Grayscale
1000
Grayscale
1070
   100
1002
}
  0
LINE
  5
34B3
  8
YODOROGO
 10
27937.604341291921
 20
1568.5028573704751
 30
0.0
 11
27937.604341291921
 21
1588.5028573704751
 31
0.0
1001
AUTOCAD_POSTSCRIPT_FIGURE
1002
{
1000
PSFILL
1000
Grayscale
1000
Grayscale
1070
   100
1002
}
  0
LINE
  5
34B4
  8
YODOROGO
 10
27844.50958891576
 20
1568.5028573704751
 30
0.0
 11
27937.604341291921
 21
1568.5028573704751
 31
0.0
1001
AUTOCAD_POSTSCRIPT_FIGURE
1002
{
1000
PSFILL
1000
Grayscale
1000
Grayscale
1070
   100
1002
}
  0
LINE
  5
34B5
  8
YODOROGO
 10
27815.546718284771
 20
1495.7494964292871
 30
0.0
 11
27844.50958891576
 21
1568.5028573704751
 31
0.0
1001
AUTOCAD_POSTSCRIPT_FIGURE
1002
{
1000
PSFILL
1000
Grayscale
1000
Grayscale
1070
   100
1002
}
  0
LINE
  5
34B6
  8
YODOROGO
 10
27902.054790808648
 20
1495.7494964292871
 30
0.0
 11
27815.546718284771
 21
1495.7494964292871
 31
0.0
1001
AUTOCAD_POSTSCRIPT_FIGURE
1002
{
1000
PSFILL
1000
Grayscale
1000
Grayscale
1070
   100
1002
}
  0
LINE
  5
34B7
  8
YODOROGO
 10
27885.065004790951
 20
1536.2338106976929
 30
0.0
 11
27902.054790808648
 21
1495.7494964292871
 31
0.0
1001
AUTOCAD_POSTSCRIPT_FIGURE
1002
{
1000
PSFILL
1000
Grayscale
1000
Grayscale
1070
   100
1002
}
  0
LINE
  5
34B8
  8
YODOROGO
 10
27901.065004790951
 20
1536.2338106976929
 30
0.0
 11
27885.065004790951
 21
1536.2338106976929
 31
0.0
1001
AUTOCAD_POSTSCRIPT_FIGURE
1002
{
1000
PSFILL
1000
Grayscale
1000
Grayscale
1070
   100
1002
}
  0
LINE
  5
34B9
  8
YODOROGO
 10
27929.604341291921
 20
1475.7494964292871
 30
0.0
 11
27901.065004790951
 21
1536.2338106976929
 31
0.0
1001
AUTOCAD_POSTSCRIPT_FIGURE
1002
{
1000
PSFILL
1000
Grayscale
1000
Grayscale
1070
   100
1002
}
  0
LINE
  5
34BA
  8
YODOROGO
 10
27785.604341291921
 20
1475.7494964292871
 30
0.0
 11
27929.604341291921
 21
1475.7494964292871
 31
0.0
1001
AUTOCAD_POSTSCRIPT_FIGURE
1002
{
1000
PSFILL
1000
Grayscale
1000
Grayscale
1070
   100
1002
}
  0
LINE
  5
34BB
  8
YODOROGO
 10
27777.604341291921
 20
1619.9724140445701
 30
0.0
 11
27777.604341291921
 21
1643.9724140445701
 31
0.0
  0
LINE
  5
34BC
  8
YODOROGO
 10
27937.604341291921
 20
1643.9724140445701
 30
0.0
 11
27937.604341291921
 21
1619.9724140445701
 31
0.0
  0
ARC
  5
34BD
  8
YODOROGO
 10
28225.940442146959
 20
1600.877765325326
 30
0.0
 40
175.9999999999998
 50
280.3644312771313
 51
3.5414836592180561
  0
ARC
  5
34BE
  8
YODOROGO
 10
28235.756030759301
 20
1633.5978069619041
 30
0.0
 40
111.9999999999982
 50
281.24905825041549
 51
348.75094174958321
  0
LINE
  5
34BF
  8
YODOROGO
 10
28257.604341291921
 20
1523.7494964292871
 30
0.0
 11
28257.604341291921
 21
1427.749496429288
 31
0.0
  0
LINE
  5
34C0
  8
YODOROGO
 10
28020.088903736902
 20
1610.650565061914
 30
0.0
 11
28040.913204016892
 21
1659.749496429288
 31
0.0
  0
LINE
  5
34C1
  8
YODOROGO
 10
28041.604341291921
 20
1583.120489948401
 30
0.0
 11
28020.088903736902
 21
1610.650565061914
 31
0.0
  0
LINE
  5
34C2
  8
YODOROGO
 10
28041.604341291921
 20
1563.120489948398
 30
0.0
 11
28041.604341291921
 21
1583.120489948401
 31
0.0
  0
LINE
  5
34C3
  8
YODOROGO
 10
28017.604341291921
 20
1585.2370637495301
 30
0.0
 11
28041.604341291921
 21
1563.120489948398
 31
0.0
  0
LINE
  5
34C4
  8
YODOROGO
 10
28017.604341291921
 20
1475.7494964292871
 30
0.0
 11
28017.604341291921
 21
1585.2370637495301
 31
0.0
  0
LINE
  5
34C5
  8
YODOROGO
 10
28001.604341291921
 20
1475.7494964292871
 30
0.0
 11
28017.604341291921
 21
1475.7494964292871
 31
0.0
  0
LINE
  5
34C6
  8
YODOROGO
 10
28001.604341291921
 20
1580.0053496897469
 30
0.0
 11
28001.604341291921
 21
1475.7494964292871
 31
0.0
  0
LINE
  5
34C7
  8
YODOROGO
 10
27977.604341291921
 20
1532.7680790334291
 30
0.0
 11
28001.604341291921
 21
1580.0053496897469
 31
0.0
  0
LINE
  5
34C8
  8
YODOROGO
 10
27977.604341291921
 20
1556.76807903343
 30
0.0
 11
27977.604341291921
 21
1532.7680790334291
 31
0.0
  0
LINE
  5
34C9
  8
YODOROGO
 10
28025.828774291349
 20
1667.749496429285
 30
0.0
 11
27977.604341291921
 21
1556.76807903343
 31
0.0
  0
LINE
  5
34CA
  8
YODOROGO
 10
27977.604341291921
 20
1667.749496429285
 30
0.0
 11
28025.828774291349
 21
1667.749496429285
 31
0.0
  0
LINE
  5
34CB
  8
YODOROGO
 10
28050.135520230899
 20
1655.5036372746561
 30
0.0
 11
28082.135520230921
 21
1655.5036372746561
 31
0.0
1001
AUTOCAD_POSTSCRIPT_FIGURE
1002
{
1000
PSFILL
1000
Grayscale
1000
Grayscale
1070
   100
1002
}
  0
LINE
  5
34CC
  8
YODOROGO
 10
28050.135520230899
 20
1631.5036372746561
 30
0.0
 11
28050.135520230899
 21
1655.5036372746561
 31
0.0
1001
AUTOCAD_POSTSCRIPT_FIGURE
1002
{
1000
PSFILL
1000
Grayscale
1000
Grayscale
1070
   100
1002
}
  0
LINE
  5
34CD
  8
YODOROGO
 10
28082.135520230921
 20
1631.5036372746561
 30
0.0
 11
28050.135520230899
 21
1631.5036372746561
 31
0.0
1001
AUTOCAD_POSTSCRIPT_FIGURE
1002
{
1000
PSFILL
1000
Grayscale
1000
Grayscale
1070
   100
1002
}
  0
LINE
  5
34CE
  8
YODOROGO
 10
28082.135520230921
 20
1499.749496429288
 30
0.0
 11
28082.135520230921
 21
1631.5036372746561
 31
0.0
1001
AUTOCAD_POSTSCRIPT_FIGURE
1002
{
1000
PSFILL
1000
Grayscale
1000
Grayscale
1070
   100
1002
}
  0
LINE
  5
34CF
  8
YODOROGO
 10
28050.135520230921
 20
1499.749496429288
 30
0.0
 11
28082.135520230921
 21
1499.749496429288
 31
0.0
1001
AUTOCAD_POSTSCRIPT_FIGURE
1002
{
1000
PSFILL
1000
Grayscale
1000
Grayscale
1070
   100
1002
}
  0
LINE
  5
34D0
  8
YODOROGO
 10
28050.135520230921
 20
1475.7494964292871
 30
0.0
 11
28050.135520230921
 21
1499.749496429288
 31
0.0
1001
AUTOCAD_POSTSCRIPT_FIGURE
1002
{
1000
PSFILL
1000
Grayscale
1000
Grayscale
1070
   100
1002
}
  0
LINE
  5
34D1
  8
YODOROGO
 10
28137.604341291921
 20
1475.7494964292871
 30
0.0
 11
28050.135520230921
 21
1475.7494964292871
 31
0.0
1001
AUTOCAD_POSTSCRIPT_FIGURE
1002
{
1000
PSFILL
1000
Grayscale
1000
Grayscale
1070
   100
1002
}
  0
LINE
  5
34D2
  8
YODOROGO
 10
28137.604341291921
 20
1499.749496429288
 30
0.0
 11
28137.604341291921
 21
1475.7494964292871
 31
0.0
1001
AUTOCAD_POSTSCRIPT_FIGURE
1002
{
1000
PSFILL
1000
Grayscale
1000
Grayscale
1070
   100
1002
}
  0
LINE
  5
34D3
  8
YODOROGO
 10
28098.135520230931
 20
1499.749496429288
 30
0.0
 11
28137.604341291921
 21
1499.749496429288
 31
0.0
1001
AUTOCAD_POSTSCRIPT_FIGURE
1002
{
1000
PSFILL
1000
Grayscale
1000
Grayscale
1070
   100
1002
}
  0
LINE
  5
34D4
  8
YODOROGO
 10
28098.135520230931
 20
1631.5036372746561
 30
0.0
 11
28098.135520230931
 21
1499.749496429288
 31
0.0
1001
AUTOCAD_POSTSCRIPT_FIGURE
1002
{
1000
PSFILL
1000
Grayscale
1000
Grayscale
1070
   100
1002
}
  0
LINE
  5
34D5
  8
YODOROGO
 10
28137.604341291921
 20
1631.5036372746561
 30
0.0
 11
28098.135520230931
 21
1631.5036372746561
 31
0.0
1001
AUTOCAD_POSTSCRIPT_FIGURE
1002
{
1000
PSFILL
1000
Grayscale
1000
Grayscale
1070
   100
1002
}
  0
LINE
  5
34D6
  8
YODOROGO
 10
28137.604341291921
 20
1655.5036372746561
 30
0.0
 11
28137.604341291921
 21
1631.5036372746561
 31
0.0
1001
AUTOCAD_POSTSCRIPT_FIGURE
1002
{
1000
PSFILL
1000
Grayscale
1000
Grayscale
1070
   100
1002
}
  0
LINE
  5
34D7
  8
YODOROGO
 10
28098.135520230931
 20
1655.5036372746561
 30
0.0
 11
28137.604341291921
 21
1655.5036372746561
 31
0.0
1001
AUTOCAD_POSTSCRIPT_FIGURE
1002
{
1000
PSFILL
1000
Grayscale
1000
Grayscale
1070
   100
1002
}
  0
LINE
  5
34D8
  8
YODOROGO
 10
28401.60434129191
 20
1667.749496429288
 30
0.0
 11
28345.604341291921
 21
1667.749496429288
 31
0.0
  0
LINE
  5
34D9
  8
YODOROGO
 10
28401.60434129191
 20
1611.749496429288
 30
0.0
 11
28401.60434129191
 21
1667.749496429288
 31
0.0
  0
LINE
  5
34DA
  8
YODOROGO
 10
28345.604341291921
 20
1667.749496429288
 30
0.0
 11
28345.604341291921
 21
1611.749496429288
 31
0.0
  0
ARC
  5
34DB
  8
YODOROGO
 10
28513.60434129191
 20
1507.749496429288
 30
0.0
 40
80.0
 50
180.0
 51
270.0
  0
ARC
  5
34DC
  8
YODOROGO
 10
28537.604341291921
 20
1563.7494964292871
 30
0.0
 40
40.0
 50
180.0
 51
270.0
  0
LINE
  5
34DD
  8
YODOROGO
 10
28561.604341291932
 20
1523.7494964292871
 30
0.0
 11
28537.604341291921
 21
1523.7494964292871
 31
0.0
  0
ARC
  5
34DE
  8
YODOROGO
 10
28561.604341291932
 20
1547.749496429285
 30
0.0
 40
23.999999999996358
 50
270.0
 51
0.0000000000054281
  0
LINE
  5
34DF
  8
YODOROGO
 10
27801.604341291921
 20
1890.786580793706
 30
0.0
 11
27777.604341291921
 21
1843.776747951672
 31
0.0
1001
AUTOCAD_POSTSCRIPT_FIGURE
1002
{
1000
PSFILL
1000
Grayscale
1000
Grayscale
1070
   100
1002
}
  0
LINE
  5
34E0
  8
YODOROGO
 10
27801.604341291921
 20
1747.749496429286
 30
0.0
 11
27801.604341291921
 21
1890.786580793706
 31
0.0
1001
AUTOCAD_POSTSCRIPT_FIGURE
1002
{
1000
PSFILL
1000
Grayscale
1000
Grayscale
1070
   100
1002
}
  0
LINE
  5
34E1
  8
YODOROGO
 10
27817.604341291921
 20
1747.749496429286
 30
0.0
 11
27801.604341291921
 21
1747.749496429286
 31
0.0
1001
AUTOCAD_POSTSCRIPT_FIGURE
1002
{
1000
PSFILL
1000
Grayscale
1000
Grayscale
1070
   100
1002
}
  0
LINE
  5
34E2
  8
YODOROGO
 10
27817.604341291921
 20
1893.7713320852661
 30
0.0
 11
27817.604341291921
 21
1747.749496429286
 31
0.0
1001
AUTOCAD_POSTSCRIPT_FIGURE
1002
{
1000
PSFILL
1000
Grayscale
1000
Grayscale
1070
   100
1002
}
  0
LINE
  5
34E3
  8
YODOROGO
 10
27841.604341291921
 20
1867.6547582841361
 30
0.0
 11
27817.604341291921
 21
1893.7713320852661
 31
0.0
1001
AUTOCAD_POSTSCRIPT_FIGURE
1002
{
1000
PSFILL
1000
Grayscale
1000
Grayscale
1070
   100
1002
}
  0
LINE
  5
34E4
  8
YODOROGO
 10
27841.604341291921
 20
1883.6547582841361
 30
0.0
 11
27841.604341291921
 21
1867.6547582841361
 31
0.0
1001
AUTOCAD_POSTSCRIPT_FIGURE
1002
{
1000
PSFILL
1000
Grayscale
1000
Grayscale
1070
   100
1002
}
  0
LINE
  5
34E5
  8
YODOROGO
 10
27817.604341291921
 20
1917.7713320852649
 30
0.0
 11
27841.604341291921
 21
1883.6547582841361
 31
0.0
1001
AUTOCAD_POSTSCRIPT_FIGURE
1002
{
1000
PSFILL
1000
Grayscale
1000
Grayscale
1070
   100
1002
}
  0
LINE
  5
34E6
  8
YODOROGO
 10
27817.604341291921
 20
1939.749496429288
 30
0.0
 11
27817.604341291921
 21
1917.7713320852649
 31
0.0
1001
AUTOCAD_POSTSCRIPT_FIGURE
1002
{
1000
PSFILL
1000
Grayscale
1000
Grayscale
1070
   100
1002
}
  0
LINE
  5
34E7
  8
YODOROGO
 10
27889.604341291921
 20
1939.749496429288
 30
0.0
 11
27817.604341291921
 21
1939.749496429288
 31
0.0
1001
AUTOCAD_POSTSCRIPT_FIGURE
1002
{
1000
PSFILL
1000
Grayscale
1000
Grayscale
1070
   100
1002
}
  0
LINE
  5
34E8
  8
YODOROGO
 10
27889.604341291921
 20
1900.5683489363
 30
0.0
 11
27889.604341291921
 21
1939.749496429288
 31
0.0
1001
AUTOCAD_POSTSCRIPT_FIGURE
1002
{
1000
PSFILL
1000
Grayscale
1000
Grayscale
1070
   100
1002
}
  0
LINE
  5
34E9
  8
YODOROGO
 10
27857.604341291921
 20
1900.5683489363
 30
0.0
 11
27889.604341291921
 21
1900.5683489363
 31
0.0
1001
AUTOCAD_POSTSCRIPT_FIGURE
1002
{
1000
PSFILL
1000
Grayscale
1000
Grayscale
1070
   100
1002
}
  0
LINE
  5
34EA
  8
YODOROGO
 10
27857.604341291921
 20
1884.568348936298
 30
0.0
 11
27857.604341291921
 21
1900.5683489363
 31
0.0
1001
AUTOCAD_POSTSCRIPT_FIGURE
1002
{
1000
PSFILL
1000
Grayscale
1000
Grayscale
1070
   100
1002
}
  0
LINE
  5
34EB
  8
YODOROGO
 10
27889.604341291921
 20
1884.568348936298
 30
0.0
 11
27857.604341291921
 21
1884.568348936298
 31
0.0
1001
AUTOCAD_POSTSCRIPT_FIGURE
1002
{
1000
PSFILL
1000
Grayscale
1000
Grayscale
1070
   100
1002
}
  0
LINE
  5
34EC
  8
YODOROGO
 10
27889.604341291921
 20
1879.6191779644371
 30
0.0
 11
27889.604341291921
 21
1884.568348936298
 31
0.0
1001
AUTOCAD_POSTSCRIPT_FIGURE
1002
{
1000
PSFILL
1000
Grayscale
1000
Grayscale
1070
   100
1002
}
  0
LINE
  5
34ED
  8
YODOROGO
 10
27849.604341291921
 20
1812.974981161417
 30
0.0
 11
27889.604341291921
 21
1879.6191779644371
 31
0.0
1001
AUTOCAD_POSTSCRIPT_FIGURE
1002
{
1000
PSFILL
1000
Grayscale
1000
Grayscale
1070
   100
1002
}
  0
LINE
  5
34EE
  8
YODOROGO
 10
27849.604341291921
 20
1796.9749811614161
 30
0.0
 11
27849.604341291921
 21
1812.974981161417
 31
0.0
1001
AUTOCAD_POSTSCRIPT_FIGURE
1002
{
1000
PSFILL
1000
Grayscale
1000
Grayscale
1070
   100
1002
}
  0
LINE
  5
34EF
  8
YODOROGO
 10
27889.604341291921
 20
1847.6191779644359
 30
0.0
 11
27849.604341291921
 21
1796.9749811614161
 31
0.0
1001
AUTOCAD_POSTSCRIPT_FIGURE
1002
{
1000
PSFILL
1000
Grayscale
1000
Grayscale
1070
   100
1002
}
  0
LINE
  5
34F0
  8
YODOROGO
 10
27889.604341291921
 20
1747.749496429286
 30
0.0
 11
27889.604341291921
 21
1847.6191779644359
 31
0.0
1001
AUTOCAD_POSTSCRIPT_FIGURE
1002
{
1000
PSFILL
1000
Grayscale
1000
Grayscale
1070
   100
1002
}
  0
LINE
  5
34F1
  8
YODOROGO
 10
27905.604341291921
 20
1747.749496429286
 30
0.0
 11
27889.604341291921
 21
1747.749496429286
 31
0.0
1001
AUTOCAD_POSTSCRIPT_FIGURE
1002
{
1000
PSFILL
1000
Grayscale
1000
Grayscale
1070
   100
1002
}
  0
LINE
  5
34F2
  8
YODOROGO
 10
27905.604341291921
 20
1849.409012158806
 30
0.0
 11
27905.604341291921
 21
1747.749496429286
 31
0.0
1001
AUTOCAD_POSTSCRIPT_FIGURE
1002
{
1000
PSFILL
1000
Grayscale
1000
Grayscale
1070
   100
1002
}
  0
LINE
  5
34F3
  8
YODOROGO
 10
27937.604341291921
 20
1796.9749811614161
 30
0.0
 11
27905.604341291921
 21
1849.409012158806
 31
0.0
1001
AUTOCAD_POSTSCRIPT_FIGURE
1002
{
1000
PSFILL
1000
Grayscale
1000
Grayscale
1070
   100
1002
}
  0
LINE
  5
34F4
  8
YODOROGO
 10
27937.604341291921
 20
1812.974981161417
 30
0.0
 11
27937.604341291921
 21
1796.9749811614161
 31
0.0
1001
AUTOCAD_POSTSCRIPT_FIGURE
1002
{
1000
PSFILL
1000
Grayscale
1000
Grayscale
1070
   100
1002
}
  0
LINE
  5
34F5
  8
YODOROGO
 10
27905.604341291921
 20
1881.4090121588081
 30
0.0
 11
27937.604341291921
 21
1812.974981161417
 31
0.0
1001
AUTOCAD_POSTSCRIPT_FIGURE
1002
{
1000
PSFILL
1000
Grayscale
1000
Grayscale
1070
   100
1002
}
  0
LINE
  5
34F6
  8
YODOROGO
 10
27905.604341291939
 20
1884.5683489363
 30
0.0
 11
27905.604341291921
 21
1881.4090121588081
 31
0.0
1001
AUTOCAD_POSTSCRIPT_FIGURE
1002
{
1000
PSFILL
1000
Grayscale
1000
Grayscale
1070
   100
1002
}
  0
LINE
  5
34F7
  8
YODOROGO
 10
27937.604341291921
 20
1884.568348936298
 30
0.0
 11
27905.604341291939
 21
1884.5683489363
 31
0.0
1001
AUTOCAD_POSTSCRIPT_FIGURE
1002
{
1000
PSFILL
1000
Grayscale
1000
Grayscale
1070
   100
1002
}
  0
LINE
  5
34F8
  8
YODOROGO
 10
27937.604341291921
 20
1900.5683489363
 30
0.0
 11
27937.604341291921
 21
1884.568348936298
 31
0.0
1001
AUTOCAD_POSTSCRIPT_FIGURE
1002
{
1000
PSFILL
1000
Grayscale
1000
Grayscale
1070
   100
1002
}
  0
LINE
  5
34F9
  8
YODOROGO
 10
27905.604341291921
 20
1900.5683489363
 30
0.0
 11
27937.604341291921
 21
1900.5683489363
 31
0.0
1001
AUTOCAD_POSTSCRIPT_FIGURE
1002
{
1000
PSFILL
1000
Grayscale
1000
Grayscale
1070
   100
1002
}
  0
LINE
  5
34FA
  8
YODOROGO
 10
27905.604341291921
 20
1939.749496429288
 30
0.0
 11
27905.604341291921
 21
1900.5683489363
 31
0.0
1001
AUTOCAD_POSTSCRIPT_FIGURE
1002
{
1000
PSFILL
1000
Grayscale
1000
Grayscale
1070
   100
1002
}
  0
LINE
  5
34FB
  8
YODOROGO
 10
27937.604341291921
 20
1939.749496429288
 30
0.0
 11
27905.604341291921
 21
1939.749496429288
 31
0.0
1001
AUTOCAD_POSTSCRIPT_FIGURE
1002
{
1000
PSFILL
1000
Grayscale
1000
Grayscale
1070
   100
1002
}
  0
LINE
  5
34FC
  8
YODOROGO
 10
27937.604341291921
 20
1955.7494964292871
 30
0.0
 11
27937.604341291921
 21
1939.749496429288
 31
0.0
1001
AUTOCAD_POSTSCRIPT_FIGURE
1002
{
1000
PSFILL
1000
Grayscale
1000
Grayscale
1070
   100
1002
}
  0
LINE
  5
34FD
  8
YODOROGO
 10
27905.604341291921
 20
1955.7494964292871
 30
0.0
 11
27937.604341291921
 21
1955.7494964292871
 31
0.0
1001
AUTOCAD_POSTSCRIPT_FIGURE
1002
{
1000
PSFILL
1000
Grayscale
1000
Grayscale
1070
   100
1002
}
  0
LINE
  5
34FE
  8
YODOROGO
 10
27905.604341291921
 20
1979.749496429288
 30
0.0
 11
27905.604341291921
 21
1955.7494964292871
 31
0.0
1001
AUTOCAD_POSTSCRIPT_FIGURE
1002
{
1000
PSFILL
1000
Grayscale
1000
Grayscale
1070
   100
1002
}
  0
LINE
  5
34FF
  8
YODOROGO
 10
27889.604341291921
 20
1979.749496429288
 30
0.0
 11
27905.604341291921
 21
1979.749496429288
 31
0.0
1001
AUTOCAD_POSTSCRIPT_FIGURE
1002
{
1000
PSFILL
1000
Grayscale
1000
Grayscale
1070
   100
1002
}
  0
LINE
  5
3500
  8
YODOROGO
 10
27889.604341291921
 20
1955.7494964292871
 30
0.0
 11
27889.604341291921
 21
1979.749496429288
 31
0.0
1001
AUTOCAD_POSTSCRIPT_FIGURE
1002
{
1000
PSFILL
1000
Grayscale
1000
Grayscale
1070
   100
1002
}
  0
LINE
  5
3501
  8
YODOROGO
 10
27865.604341291921
 20
1955.7494964292871
 30
0.0
 11
27889.604341291921
 21
1955.7494964292871
 31
0.0
1001
AUTOCAD_POSTSCRIPT_FIGURE
1002
{
1000
PSFILL
1000
Grayscale
1000
Grayscale
1070
   100
1002
}
  0
LINE
  5
3502
  8
YODOROGO
 10
27865.604341291921
 20
1979.749496429288
 30
0.0
 11
27865.604341291921
 21
1955.7494964292871
 31
0.0
1001
AUTOCAD_POSTSCRIPT_FIGURE
1002
{
1000
PSFILL
1000
Grayscale
1000
Grayscale
1070
   100
1002
}
  0
LINE
  5
3503
  8
YODOROGO
 10
27849.604341291921
 20
1979.749496429288
 30
0.0
 11
27865.604341291921
 21
1979.749496429288
 31
0.0
1001
AUTOCAD_POSTSCRIPT_FIGURE
1002
{
1000
PSFILL
1000
Grayscale
1000
Grayscale
1070
   100
1002
}
  0
LINE
  5
3504
  8
YODOROGO
 10
27849.604341291921
 20
1955.7494964292871
 30
0.0
 11
27849.604341291921
 21
1979.749496429288
 31
0.0
1001
AUTOCAD_POSTSCRIPT_FIGURE
1002
{
1000
PSFILL
1000
Grayscale
1000
Grayscale
1070
   100
1002
}
  0
LINE
  5
3505
  8
YODOROGO
 10
27817.604341291921
 20
1955.7494964292871
 30
0.0
 11
27849.604341291921
 21
1955.7494964292871
 31
0.0
1001
AUTOCAD_POSTSCRIPT_FIGURE
1002
{
1000
PSFILL
1000
Grayscale
1000
Grayscale
1070
   100
1002
}
  0
LINE
  5
3506
  8
YODOROGO
 10
27817.604341291921
 20
1979.749496429288
 30
0.0
 11
27817.604341291921
 21
1955.7494964292871
 31
0.0
1001
AUTOCAD_POSTSCRIPT_FIGURE
1002
{
1000
PSFILL
1000
Grayscale
1000
Grayscale
1070
   100
1002
}
  0
LINE
  5
3507
  8
YODOROGO
 10
27801.604341291921
 20
1979.749496429288
 30
0.0
 11
27817.604341291921
 21
1979.749496429288
 31
0.0
1001
AUTOCAD_POSTSCRIPT_FIGURE
1002
{
1000
PSFILL
1000
Grayscale
1000
Grayscale
1070
   100
1002
}
  0
LINE
  5
3508
  8
YODOROGO
 10
27801.604341291921
 20
1955.7494964292871
 30
0.0
 11
27801.604341291921
 21
1979.749496429288
 31
0.0
1001
AUTOCAD_POSTSCRIPT_FIGURE
1002
{
1000
PSFILL
1000
Grayscale
1000
Grayscale
1070
   100
1002
}
  0
LINE
  5
3509
  8
YODOROGO
 10
27777.604341291921
 20
1955.7494964292871
 30
0.0
 11
27801.604341291921
 21
1955.7494964292871
 31
0.0
1001
AUTOCAD_POSTSCRIPT_FIGURE
1002
{
1000
PSFILL
1000
Grayscale
1000
Grayscale
1070
   100
1002
}
  0
LINE
  5
350A
  8
YODOROGO
 10
27777.604341291921
 20
1939.749496429288
 30
0.0
 11
27777.604341291921
 21
1955.7494964292871
 31
0.0
1001
AUTOCAD_POSTSCRIPT_FIGURE
1002
{
1000
PSFILL
1000
Grayscale
1000
Grayscale
1070
   100
1002
}
  0
LINE
  5
350B
  8
YODOROGO
 10
27801.604341291921
 20
1939.749496429288
 30
0.0
 11
27777.604341291921
 21
1939.749496429288
 31
0.0
1001
AUTOCAD_POSTSCRIPT_FIGURE
1002
{
1000
PSFILL
1000
Grayscale
1000
Grayscale
1070
   100
1002
}
  0
LINE
  5
350C
  8
YODOROGO
 10
27801.604341291921
 20
1914.7865807937051
 30
0.0
 11
27801.604341291921
 21
1939.749496429288
 31
0.0
1001
AUTOCAD_POSTSCRIPT_FIGURE
1002
{
1000
PSFILL
1000
Grayscale
1000
Grayscale
1070
   100
1002
}
  0
LINE
  5
350D
  8
YODOROGO
 10
27777.604341291921
 20
1859.776747951671
 30
0.0
 11
27801.604341291921
 21
1914.7865807937051
 31
0.0
1001
AUTOCAD_POSTSCRIPT_FIGURE
1002
{
1000
PSFILL
1000
Grayscale
1000
Grayscale
1070
   100
1002
}
  0
LINE
  5
350E
  8
YODOROGO
 10
27777.604341291921
 20
1843.776747951672
 30
0.0
 11
27777.604341291921
 21
1859.776747951671
 31
0.0
1001
AUTOCAD_POSTSCRIPT_FIGURE
1002
{
1000
PSFILL
1000
Grayscale
1000
Grayscale
1070
   100
1002
}
  0
LINE
  5
350F
  8
YODOROGO
 10
28257.604341291921
 20
1867.7494964292871
 30
0.0
 11
28401.60434129191
 21
1824.877625640306
 31
0.0
1001
AUTOCAD_POSTSCRIPT_FIGURE
1002
{
1000
PSFILL
1000
Grayscale
1000
Grayscale
1070
   100
1002
}
  0
LINE
  5
3510
  8
YODOROGO
 10
28401.60434129191
 20
1752.877625640306
 30
0.0
 11
28257.604341291921
 21
1795.7494964292871
 31
0.0
1001
AUTOCAD_POSTSCRIPT_FIGURE
1002
{
1000
PSFILL
1000
Grayscale
1000
Grayscale
1070
   100
1002
}
  0
LINE
  5
3511
  8
YODOROGO
 10
28401.60434129191
 20
1984.877625640306
 30
0.0
 11
28257.604341291921
 21
2027.749496429288
 31
0.0
1001
AUTOCAD_POSTSCRIPT_FIGURE
1002
{
1000
PSFILL
1000
Grayscale
1000
Grayscale
1070
   100
1002
}
  0
LINE
  5
3512
  8
YODOROGO
 10
28257.604341291921
 20
1959.749496429288
 30
0.0
 11
28401.60434129191
 21
1916.8776256403071
 31
0.0
1001
AUTOCAD_POSTSCRIPT_FIGURE
1002
{
1000
PSFILL
1000
Grayscale
1000
Grayscale
1070
   100
1002
}
  0
LINE
  5
3513
  8
YODOROGO
 10
28257.604341291921
 20
1795.7494964292871
 30
0.0
 11
28257.604341291921
 21
1867.7494964292871
 31
0.0
1001
AUTOCAD_POSTSCRIPT_FIGURE
1002
{
1000
PSFILL
1000
Grayscale
1000
Grayscale
1070
   100
1002
}
  0
LINE
  5
3514
  8
YODOROGO
 10
28257.604341291921
 20
2027.749496429288
 30
0.0
 11
28257.604341291921
 21
1959.749496429288
 31
0.0
1001
AUTOCAD_POSTSCRIPT_FIGURE
1002
{
1000
PSFILL
1000
Grayscale
1000
Grayscale
1070
   100
1002
}
  0
LINE
  5
3515
  8
YODOROGO
 10
28080.236320206739
 20
1939.749496429288
 30
0.0
 11
28129.60434129191
 21
1747.749496429286
 31
0.0
1001
AUTOCAD_POSTSCRIPT_FIGURE
1002
{
1000
PSFILL
1000
Grayscale
1000
Grayscale
1070
   100
1002
}
  0
LINE
  5
3516
  8
YODOROGO
 10
27977.604341291921
 20
1939.749496429288
 30
0.0
 11
28080.236320206739
 21
1939.749496429288
 31
0.0
1001
AUTOCAD_POSTSCRIPT_FIGURE
1002
{
1000
PSFILL
1000
Grayscale
1000
Grayscale
1070
   100
1002
}
  0
LINE
  5
3517
  8
YODOROGO
 10
27977.604341291921
 20
1955.7494964292871
 30
0.0
 11
27977.604341291921
 21
1939.749496429288
 31
0.0
1001
AUTOCAD_POSTSCRIPT_FIGURE
1002
{
1000
PSFILL
1000
Grayscale
1000
Grayscale
1070
   100
1002
}
  0
LINE
  5
3518
  8
YODOROGO
 10
28076.60687851991
 20
1955.7494964292871
 30
0.0
 11
27977.604341291921
 21
1955.7494964292871
 31
0.0
1001
AUTOCAD_POSTSCRIPT_FIGURE
1002
{
1000
PSFILL
1000
Grayscale
1000
Grayscale
1070
   100
1002
}
  0
LINE
  5
3519
  8
YODOROGO
 10
28071.162715989711
 20
1979.749496429288
 30
0.0
 11
28076.60687851991
 21
1955.7494964292871
 31
0.0
1001
AUTOCAD_POSTSCRIPT_FIGURE
1002
{
1000
PSFILL
1000
Grayscale
1000
Grayscale
1070
   100
1002
}
  0
LINE
  5
351A
  8
YODOROGO
 10
28091.162715989711
 20
1979.749496429288
 30
0.0
 11
28071.162715989711
 21
1979.749496429288
 31
0.0
1001
AUTOCAD_POSTSCRIPT_FIGURE
1002
{
1000
PSFILL
1000
Grayscale
1000
Grayscale
1070
   100
1002
}
  0
LINE
  5
351B
  8
YODOROGO
 10
28095.806878519939
 20
1955.7494964292871
 30
0.0
 11
28091.162715989711
 21
1979.749496429288
 31
0.0
1001
AUTOCAD_POSTSCRIPT_FIGURE
1002
{
1000
PSFILL
1000
Grayscale
1000
Grayscale
1070
   100
1002
}
  0
LINE
  5
351C
  8
YODOROGO
 10
28121.604341291921
 20
1955.7494964292871
 30
0.0
 11
28095.806878519939
 21
1955.7494964292871
 31
0.0
1001
AUTOCAD_POSTSCRIPT_FIGURE
1002
{
1000
PSFILL
1000
Grayscale
1000
Grayscale
1070
   100
1002
}
  0
LINE
  5
351D
  8
YODOROGO
 10
28121.604341291921
 20
1979.749496429288
 30
0.0
 11
28121.604341291921
 21
1955.7494964292871
 31
0.0
1001
AUTOCAD_POSTSCRIPT_FIGURE
1002
{
1000
PSFILL
1000
Grayscale
1000
Grayscale
1070
   100
1002
}
  0
LINE
  5
351E
  8
YODOROGO
 10
28137.604341291921
 20
1979.749496429288
 30
0.0
 11
28121.604341291921
 21
1979.749496429288
 31
0.0
1001
AUTOCAD_POSTSCRIPT_FIGURE
1002
{
1000
PSFILL
1000
Grayscale
1000
Grayscale
1070
   100
1002
}
  0
LINE
  5
351F
  8
YODOROGO
 10
28137.604341291921
 20
1955.7494964292871
 30
0.0
 11
28137.604341291921
 21
1979.749496429288
 31
0.0
1001
AUTOCAD_POSTSCRIPT_FIGURE
1002
{
1000
PSFILL
1000
Grayscale
1000
Grayscale
1070
   100
1002
}
  0
LINE
  5
3520
  8
YODOROGO
 10
28137.604341291921
 20
1939.749496429288
 30
0.0
 11
28137.604341291921
 21
1955.7494964292871
 31
0.0
1001
AUTOCAD_POSTSCRIPT_FIGURE
1002
{
1000
PSFILL
1000
Grayscale
1000
Grayscale
1070
   100
1002
}
  0
LINE
  5
3521
  8
YODOROGO
 10
28098.902986873411
 20
1939.749496429288
 30
0.0
 11
28137.604341291921
 21
1939.749496429288
 31
0.0
1001
AUTOCAD_POSTSCRIPT_FIGURE
1002
{
1000
PSFILL
1000
Grayscale
1000
Grayscale
1070
   100
1002
}
  0
LINE
  5
3522
  8
YODOROGO
 10
28137.604341291921
 20
1747.749496429286
 30
0.0
 11
28098.902986873411
 21
1939.749496429288
 31
0.0
1001
AUTOCAD_POSTSCRIPT_FIGURE
1002
{
1000
PSFILL
1000
Grayscale
1000
Grayscale
1070
   100
1002
}
  0
LINE
  5
3523
  8
YODOROGO
 10
28129.60434129191
 20
1747.749496429286
 30
0.0
 11
28137.604341291921
 21
1747.749496429286
 31
0.0
1001
AUTOCAD_POSTSCRIPT_FIGURE
1002
{
1000
PSFILL
1000
Grayscale
1000
Grayscale
1070
   100
1002
}
  0
LINE
  5
3524
  8
YODOROGO
 10
28078.06921993379
 20
1775.7407762987939
 30
0.0
 11
27977.604341291921
 21
1747.749496429286
 31
0.0
  0
LINE
  5
3525
  8
YODOROGO
 10
28078.06921993379
 20
1798.6689795290731
 30
0.0
 11
28078.06921993379
 21
1775.7407762987939
 31
0.0
  0
LINE
  5
3526
  8
YODOROGO
 10
28033.83678061287
 20
1786.816933133767
 30
0.0
 11
28078.06921993379
 21
1798.6689795290731
 31
0.0
  0
LINE
  5
3527
  8
YODOROGO
 10
28033.83678061287
 20
1872.5683489362989
 30
0.0
 11
28033.83678061287
 21
1786.816933133767
 31
0.0
  0
LINE
  5
3528
  8
YODOROGO
 10
28078.06921993379
 20
1872.5683489362989
 30
0.0
 11
28033.83678061287
 21
1872.5683489362989
 31
0.0
  0
LINE
  5
3529
  8
YODOROGO
 10
28078.06921993379
 20
1892.568348936298
 30
0.0
 11
28078.06921993379
 21
1872.5683489362989
 31
0.0
  0
LINE
  5
352A
  8
YODOROGO
 10
27977.604341291921
 20
1892.568348936298
 30
0.0
 11
28078.06921993379
 21
1892.568348936298
 31
0.0
  0
LINE
  5
352B
  8
YODOROGO
 10
27977.604341291921
 20
1872.5683489362989
 30
0.0
 11
27977.604341291921
 21
1892.568348936298
 31
0.0
  0
LINE
  5
352C
  8
YODOROGO
 10
28021.836780612852
 20
1872.5683489362989
 30
0.0
 11
27977.604341291921
 21
1872.5683489362989
 31
0.0
  0
LINE
  5
352D
  8
YODOROGO
 10
28021.836780612852
 20
1784.673339594317
 30
0.0
 11
28021.836780612852
 21
1872.5683489362989
 31
0.0
  0
LINE
  5
352E
  8
YODOROGO
 10
27977.604341291921
 20
1771.749496429286
 30
0.0
 11
28021.836780612852
 21
1784.673339594317
 31
0.0
  0
LINE
  5
352F
  8
YODOROGO
 10
27977.604341291921
 20
1747.749496429286
 30
0.0
 11
27977.604341291921
 21
1771.749496429286
 31
0.0
  0
LINE
  5
3530
  8
YODOROGO
 10
28001.604341291921
 20
1707.749496429288
 30
0.0
 11
28001.604341291921
 21
1683.7494964292871
 31
0.0
  0
LINE
  5
3531
  8
YODOROGO
 10
28017.604341291921
 20
1707.749496429288
 30
0.0
 11
28001.604341291921
 21
1707.749496429288
 31
0.0
  0
LINE
  5
3532
  8
YODOROGO
 10
28017.604341291921
 20
1683.7494964292871
 30
0.0
 11
28017.604341291921
 21
1707.749496429288
 31
0.0
  0
LINE
  5
3533
  8
YODOROGO
 10
28040.913204016892
 20
1683.7494964292871
 30
0.0
 11
28017.604341291921
 21
1683.7494964292871
 31
0.0
  0
LINE
  5
3534
  8
YODOROGO
 10
28001.604341291921
 20
1683.7494964292871
 30
0.0
 11
27977.604341291921
 21
1683.7494964292871
 31
0.0
  0
LINE
  5
3535
  8
YODOROGO
 10
28082.135520230921
 20
1707.749496429288
 30
0.0
 11
28098.135520230931
 21
1707.749496429288
 31
0.0
1001
AUTOCAD_POSTSCRIPT_FIGURE
1002
{
1000
PSFILL
1000
Grayscale
1000
Grayscale
1070
   100
1002
}
  0
LINE
  5
3536
  8
YODOROGO
 10
28401.60434129191
 20
1824.877625640306
 30
0.0
 11
28401.60434129191
 21
1752.877625640306
 31
0.0
1001
AUTOCAD_POSTSCRIPT_FIGURE
1002
{
1000
PSFILL
1000
Grayscale
1000
Grayscale
1070
   100
1002
}
  0
LINE
  5
3537
  8
YODOROGO
 10
28401.60434129191
 20
1916.8776256403071
 30
0.0
 11
28401.60434129191
 21
1984.877625640306
 31
0.0
1001
AUTOCAD_POSTSCRIPT_FIGURE
1002
{
1000
PSFILL
1000
Grayscale
1000
Grayscale
1070
   100
1002
}
  0
LINE
  5
3538
  8
YODOROGO
 10
28433.60434129191
 20
1819.7494964292871
 30
0.0
 11
28433.60434129191
 21
1747.74949642929
 31
0.0
  0
LINE
  5
3539
  8
YODOROGO
 10
28497.60434129191
 20
1707.749496429288
 30
0.0
 11
28433.60434129191
 21
1707.749496429288
 31
0.0
  0
LINE
  5
353A
  8
YODOROGO
 10
28433.60434129191
 20
1747.74949642929
 30
0.0
 11
28585.604341291921
 21
1747.74949642929
 31
0.0
  0
LINE
  5
353B
  8
YODOROGO
 10
28497.60434129191
 20
1867.7494964292871
 30
0.0
 11
28433.60434129191
 21
1867.7494964292871
 31
0.0
  0
LINE
  5
353C
  8
YODOROGO
 10
28497.60434129191
 20
1923.7494964292871
 30
0.0
 11
28497.60434129191
 21
1867.7494964292871
 31
0.0
  0
LINE
  5
353D
  8
YODOROGO
 10
28585.604341291921
 20
1987.7494964292871
 30
0.0
 11
28585.604341291921
 21
2027.749496429288
 31
0.0
  0
LINE
  5
353E
  8
YODOROGO
 10
28433.60434129191
 20
1987.7494964292871
 30
0.0
 11
28585.604341291921
 21
1987.7494964292871
 31
0.0
  0
LINE
  5
353F
  8
YODOROGO
 10
28433.60434129191
 20
1867.7494964292871
 30
0.0
 11
28433.60434129191
 21
1987.7494964292871
 31
0.0
  0
LINE
  5
3540
  8
YODOROGO
 10
29001.60434129191
 20
2027.749496429288
 30
0.0
 11
29001.60434129191
 21
1619.749496429288
 31
0.0
  0
LINE
  5
3541
  8
YODOROGO
 10
29073.604341291921
 20
1579.749496429288
 30
0.0
 11
29073.604341291921
 21
2027.749496429288
 31
0.0
  0
LINE
  5
3542
  8
YODOROGO
 10
29261.604341291921
 20
1491.749496429286
 30
0.0
 11
29261.604341291921
 21
2007.749496429288
 31
0.0
  0
LINE
  5
3543
  8
YODOROGO
 10
29197.604341291921
 20
2007.749496429288
 30
0.0
 11
29197.604341291921
 21
1491.749496429286
 31
0.0
  0
LINE
  5
3544
  8
YODOROGO
 10
29385.604341291921
 20
2027.749496429288
 30
0.0
 11
29385.604341291921
 21
1427.749496429288
 31
0.0
  0
LINE
  5
3545
  8
YODOROGO
 10
29457.604341291921
 20
1427.749496429288
 30
0.0
 11
29457.604341291921
 21
2027.749496429288
 31
0.0
  0
LINE
  5
3546
  8
YODOROGO
 10
28657.604341291921
 20
1667.749496429288
 30
0.0
 11
28657.604341291921
 21
1747.74949642929
 31
0.0
  0
LINE
  5
3547
  8
YODOROGO
 10
29885.604341291921
 20
1707.749496429288
 30
0.0
 11
29885.604341291921
 21
1667.749496429288
 31
0.0
  0
LINE
  5
3548
  8
YODOROGO
 10
29885.604341291921
 20
1707.749496429288
 30
0.0
 11
29885.604341291921
 21
1667.749496429288
 31
0.0
  0
ARC
  5
3549
  8
YODOROGO
 10
28906.911576186842
 20
1618.217864442272
 30
0.0
 40
94.705151178741644
 50
274.05244162907098
 51
0.9266642149310712
  0
ARC
  5
354A
  8
YODOROGO
 10
28909.186170719819
 20
1592.61072861044
 30
0.0
 40
164.92042356085511
 50
271.53512106537772
 51
355.52727750585052
  0
LINE
  5
354B
  8
YODOROGO
 10
28913.604341291921
 20
1523.7494964292871
 30
0.0
 11
28913.604341291921
 21
1427.749496429288
 31
0.0
  0
LINE
  5
354C
  8
YODOROGO
 10
28793.60434129191
 20
1667.749496429288
 30
0.0
 11
28657.604341291921
 21
1667.749496429288
 31
0.0
  0
LINE
  5
354D
  8
YODOROGO
 10
28793.60434129191
 20
1603.749496429288
 30
0.0
 11
28793.60434129191
 21
1667.749496429288
 31
0.0
  0
LINE
  5
354E
  8
YODOROGO
 10
28657.604341291921
 20
1603.749496429288
 30
0.0
 11
28793.60434129191
 21
1603.749496429288
 31
0.0
  0
LINE
  5
354F
  8
YODOROGO
 10
28657.604341291921
 20
1523.7494964292871
 30
0.0
 11
28657.604341291921
 21
1603.749496429288
 31
0.0
  0
LINE
  5
3550
  8
YODOROGO
 10
28793.60434129191
 20
1523.7494964292871
 30
0.0
 11
28657.604341291921
 21
1523.7494964292871
 31
0.0
  0
LINE
  5
3551
  8
YODOROGO
 10
28793.60434129191
 20
1427.749496429288
 30
0.0
 11
28793.60434129191
 21
1523.7494964292871
 31
0.0
  0
LINE
  5
3552
  8
YODOROGO
 10
29197.604341291921
 20
1491.749496429286
 30
0.0
 11
29261.604341291921
 21
1491.749496429286
 31
0.0
  0
LINE
  5
3553
  8
YODOROGO
 10
29385.604341291921
 20
1427.749496429288
 30
0.0
 11
29457.604341291921
 21
1427.749496429288
 31
0.0
  0
LINE
  5
3554
  8
YODOROGO
 10
29737.604341291921
 20
1528.4414521705639
 30
0.0
 11
29737.604341291921
 21
1427.749496429288
 31
0.0
  0
LINE
  5
3555
  8
YODOROGO
 10
29617.604341291921
 20
1427.749496429288
 30
0.0
 11
29737.604341291921
 21
1528.4414521705639
 31
0.0
  0
LINE
  5
3556
  8
YODOROGO
 10
29617.604341291921
 20
1547.749496429288
 30
0.0
 11
29617.604341291921
 21
1427.749496429288
 31
0.0
  0
LINE
  5
3557
  8
YODOROGO
 10
29712.944628699472
 20
1627.749496429288
 30
0.0
 11
29617.604341291921
 21
1547.749496429288
 31
0.0
  0
LINE
  5
3558
  8
YODOROGO
 10
29617.604341291921
 20
1627.749496429288
 30
0.0
 11
29712.944628699472
 21
1627.749496429288
 31
0.0
  0
LINE
  5
3559
  8
YODOROGO
 10
29617.604341291921
 20
1667.749496429288
 30
0.0
 11
29617.604341291921
 21
1627.749496429288
 31
0.0
  0
LINE
  5
355A
  8
YODOROGO
 10
29885.604341291921
 20
1667.749496429288
 30
0.0
 11
29617.604341291921
 21
1667.749496429288
 31
0.0
  0
LINE
  5
355B
  8
YODOROGO
 10
29917.604341291921
 20
1627.749496429288
 30
0.0
 11
29777.604341291921
 21
1627.749496429288
 31
0.0
  0
LINE
  5
355C
  8
YODOROGO
 10
29777.604341291921
 20
1562.0054374176559
 30
0.0
 11
29771.409872985321
 21
1556.807661346234
 31
0.0
  0
LINE
  5
355D
  8
YODOROGO
 10
29777.604341291921
 20
1627.749496429288
 30
0.0
 11
29777.604341291921
 21
1562.0054374176559
 31
0.0
  0
LINE
  5
355E
  8
YODOROGO
 10
29737.604341291921
 20
1528.4414521705639
 30
0.0
 11
29737.604341291921
 21
1427.749496429288
 31
0.0
  0
LINE
  5
355F
  8
YODOROGO
 10
29617.604341291921
 20
1427.749496429288
 30
0.0
 11
29737.604341291921
 21
1528.4414521705639
 31
0.0
  0
LINE
  5
3560
  8
YODOROGO
 10
29617.604341291921
 20
1547.749496429288
 30
0.0
 11
29617.604341291921
 21
1427.749496429288
 31
0.0
  0
LINE
  5
3561
  8
YODOROGO
 10
29712.944628699472
 20
1627.749496429288
 30
0.0
 11
29617.604341291921
 21
1547.749496429288
 31
0.0
  0
LINE
  5
3562
  8
YODOROGO
 10
29617.604341291921
 20
1627.749496429288
 30
0.0
 11
29712.944628699472
 21
1627.749496429288
 31
0.0
  0
LINE
  5
3563
  8
YODOROGO
 10
29617.604341291921
 20
1667.749496429288
 30
0.0
 11
29617.604341291921
 21
1627.749496429288
 31
0.0
  0
LINE
  5
3564
  8
YODOROGO
 10
29885.604341291921
 20
1667.749496429288
 30
0.0
 11
29617.604341291921
 21
1667.749496429288
 31
0.0
  0
LINE
  5
3565
  8
YODOROGO
 10
28793.60434129191
 20
1747.74949642929
 30
0.0
 11
28793.60434129191
 21
1819.7494964292871
 31
0.0
  0
LINE
  5
3566
  8
YODOROGO
 10
28657.604341291921
 20
1747.74949642929
 30
0.0
 11
28793.60434129191
 21
1747.74949642929
 31
0.0
  0
LINE
  5
3567
  8
YODOROGO
 10
28729.604341291921
 20
1867.7494964292871
 30
0.0
 11
28729.604341291921
 21
1923.7494964292871
 31
0.0
  0
LINE
  5
3568
  8
YODOROGO
 10
28793.60434129191
 20
1867.7494964292871
 30
0.0
 11
28729.604341291921
 21
1867.7494964292871
 31
0.0
  0
LINE
  5
3569
  8
YODOROGO
 10
28793.60434129191
 20
1947.749496429288
 30
0.0
 11
28793.60434129191
 21
1867.7494964292871
 31
0.0
  0
ARC
  5
356A
  8
YODOROGO
 10
28753.60434129191
 20
1947.749496429288
 30
0.0
 40
40.0
 50
0.0
 51
90.0
  0
LINE
  5
356B
  8
YODOROGO
 10
28657.604341291921
 20
1987.7494964292871
 30
0.0
 11
28753.60434129191
 21
1987.7494964292871
 31
0.0
  0
LINE
  5
356C
  8
YODOROGO
 10
28657.604341291921
 20
2027.749496429288
 30
0.0
 11
28657.604341291921
 21
1987.7494964292871
 31
0.0
  0
LINE
  5
356D
  8
YODOROGO
 10
29073.604341291921
 20
2027.749496429288
 30
0.0
 11
29001.60434129191
 21
2027.749496429288
 31
0.0
  0
LINE
  5
356E
  8
YODOROGO
 10
29261.604341291921
 20
2007.749496429288
 30
0.0
 11
29197.604341291921
 21
2007.749496429288
 31
0.0
  0
LINE
  5
356F
  8
YODOROGO
 10
29457.604341291921
 20
2027.749496429288
 30
0.0
 11
29385.604341291921
 21
2027.749496429288
 31
0.0
  0
LINE
  5
3570
  8
YODOROGO
 10
29673.604341291921
 20
1707.749496429288
 30
0.0
 11
29673.604341291921
 21
1771.7494964292871
 31
0.0
1001
AUTOCAD_POSTSCRIPT_FIGURE
1002
{
1000
PSFILL
1000
Grayscale
1000
Grayscale
1070
    25
1002
}
  0
LINE
  5
3571
  8
YODOROGO
 10
29617.604341291921
 20
1707.749496429288
 30
0.0
 11
29673.604341291921
 21
1707.749496429288
 31
0.0
1001
AUTOCAD_POSTSCRIPT_FIGURE
1002
{
1000
PSFILL
1000
Grayscale
1000
Grayscale
1070
    25
1002
}
  0
LINE
  5
3572
  8
YODOROGO
 10
29617.604341291921
 20
1819.7494964292871
 30
0.0
 11
29617.604341291921
 21
1707.749496429288
 31
0.0
1001
AUTOCAD_POSTSCRIPT_FIGURE
1002
{
1000
PSFILL
1000
Grayscale
1000
Grayscale
1070
    25
1002
}
  0
LINE
  5
3573
  8
YODOROGO
 10
29765.604341291921
 20
1819.7494964292871
 30
0.0
 11
29617.604341291921
 21
1819.7494964292871
 31
0.0
1001
AUTOCAD_POSTSCRIPT_FIGURE
1002
{
1000
PSFILL
1000
Grayscale
1000
Grayscale
1070
    25
1002
}
  0
LINE
  5
3574
  8
YODOROGO
 10
29765.604341291921
 20
1859.749496429288
 30
0.0
 11
29765.604341291921
 21
1819.7494964292871
 31
0.0
1001
AUTOCAD_POSTSCRIPT_FIGURE
1002
{
1000
PSFILL
1000
Grayscale
1000
Grayscale
1070
    25
1002
}
  0
LINE
  5
3575
  8
YODOROGO
 10
29617.604341291921
 20
1859.749496429288
 30
0.0
 11
29765.604341291921
 21
1859.749496429288
 31
0.0
1001
AUTOCAD_POSTSCRIPT_FIGURE
1002
{
1000
PSFILL
1000
Grayscale
1000
Grayscale
1070
    25
1002
}
  0
LINE
  5
3576
  8
YODOROGO
 10
29617.604341291921
 20
1907.7494964292871
 30
0.0
 11
29617.604341291921
 21
1859.749496429288
 31
0.0
1001
AUTOCAD_POSTSCRIPT_FIGURE
1002
{
1000
PSFILL
1000
Grayscale
1000
Grayscale
1070
    25
1002
}
  0
LINE
  5
3577
  8
YODOROGO
 10
29765.604341291921
 20
1907.7494964292871
 30
0.0
 11
29617.604341291921
 21
1907.7494964292871
 31
0.0
1001
AUTOCAD_POSTSCRIPT_FIGURE
1002
{
1000
PSFILL
1000
Grayscale
1000
Grayscale
1070
    25
1002
}
  0
LINE
  5
3578
  8
YODOROGO
 10
29765.604341291921
 20
1947.749496429288
 30
0.0
 11
29765.604341291921
 21
1907.7494964292871
 31
0.0
1001
AUTOCAD_POSTSCRIPT_FIGURE
1002
{
1000
PSFILL
1000
Grayscale
1000
Grayscale
1070
    25
1002
}
  0
LINE
  5
3579
  8
YODOROGO
 10
29617.604341291921
 20
1947.749496429288
 30
0.0
 11
29765.604341291921
 21
1947.749496429288
 31
0.0
1001
AUTOCAD_POSTSCRIPT_FIGURE
1002
{
1000
PSFILL
1000
Grayscale
1000
Grayscale
1070
    25
1002
}
  0
LINE
  5
357A
  8
YODOROGO
 10
29617.604341291921
 20
2027.749496429288
 30
0.0
 11
29617.604341291921
 21
1947.749496429288
 31
0.0
1001
AUTOCAD_POSTSCRIPT_FIGURE
1002
{
1000
PSFILL
1000
Grayscale
1000
Grayscale
1070
    25
1002
}
  0
LINE
  5
357B
  8
YODOROGO
 10
29665.604341291921
 20
2027.749496429288
 30
0.0
 11
29617.604341291921
 21
2027.749496429288
 31
0.0
1001
AUTOCAD_POSTSCRIPT_FIGURE
1002
{
1000
PSFILL
1000
Grayscale
1000
Grayscale
1070
    25
1002
}
  0
LINE
  5
357C
  8
YODOROGO
 10
29665.604341291921
 20
1995.7494964292871
 30
0.0
 11
29665.604341291921
 21
2027.749496429288
 31
0.0
1001
AUTOCAD_POSTSCRIPT_FIGURE
1002
{
1000
PSFILL
1000
Grayscale
1000
Grayscale
1070
    25
1002
}
  0
LINE
  5
357D
  8
YODOROGO
 10
29765.604341291921
 20
1995.7494964292871
 30
0.0
 11
29665.604341291921
 21
1995.7494964292871
 31
0.0
1001
AUTOCAD_POSTSCRIPT_FIGURE
1002
{
1000
PSFILL
1000
Grayscale
1000
Grayscale
1070
    25
1002
}
  0
LINE
  5
357E
  8
YODOROGO
 10
29765.604341291921
 20
2027.749496429288
 30
0.0
 11
29765.604341291921
 21
1995.7494964292871
 31
0.0
1001
AUTOCAD_POSTSCRIPT_FIGURE
1002
{
1000
PSFILL
1000
Grayscale
1000
Grayscale
1070
    25
1002
}
  0
LINE
  5
357F
  8
YODOROGO
 10
29829.604341291921
 20
2027.749496429288
 30
0.0
 11
29765.604341291921
 21
2027.749496429288
 31
0.0
1001
AUTOCAD_POSTSCRIPT_FIGURE
1002
{
1000
PSFILL
1000
Grayscale
1000
Grayscale
1070
    25
1002
}
  0
LINE
  5
3580
  8
YODOROGO
 10
29829.604341291921
 20
1995.7494964292871
 30
0.0
 11
29829.604341291921
 21
2027.749496429288
 31
0.0
1001
AUTOCAD_POSTSCRIPT_FIGURE
1002
{
1000
PSFILL
1000
Grayscale
1000
Grayscale
1070
    25
1002
}
  0
LINE
  5
3581
  8
YODOROGO
 10
29829.604341291921
 20
1907.7494964292871
 30
0.0
 11
29829.604341291921
 21
1947.749496429288
 31
0.0
1001
AUTOCAD_POSTSCRIPT_FIGURE
1002
{
1000
PSFILL
1000
Grayscale
1000
Grayscale
1070
    25
1002
}
  0
LINE
  5
3582
  8
YODOROGO
 10
29829.604341291921
 20
1819.7494964292871
 30
0.0
 11
29829.604341291921
 21
1859.749496429288
 31
0.0
1001
AUTOCAD_POSTSCRIPT_FIGURE
1002
{
1000
PSFILL
1000
Grayscale
1000
Grayscale
1070
    25
1002
}
  0
LINE
  5
3583
  8
YODOROGO
 10
29921.60434129191
 20
1771.7494964292871
 30
0.0
 11
29921.60434129191
 21
1707.749496429288
 31
0.0
1001
AUTOCAD_POSTSCRIPT_FIGURE
1002
{
1000
PSFILL
1000
Grayscale
1000
Grayscale
1070
    25
1002
}
  0
LINE
  5
3584
  8
YODOROGO
 10
29829.604341291921
 20
1771.7494964292871
 30
0.0
 11
29921.60434129191
 21
1771.7494964292871
 31
0.0
1001
AUTOCAD_POSTSCRIPT_FIGURE
1002
{
1000
PSFILL
1000
Grayscale
1000
Grayscale
1070
    25
1002
}
  0
LINE
  5
3585
  8
YODOROGO
 10
29829.604341291921
 20
1707.749496429288
 30
0.0
 11
29829.604341291921
 21
1771.7494964292871
 31
0.0
1001
AUTOCAD_POSTSCRIPT_FIGURE
1002
{
1000
PSFILL
1000
Grayscale
1000
Grayscale
1070
    25
1002
}
  0
LINE
  5
3586
  8
YODOROGO
 10
29765.604341291921
 20
1707.749496429288
 30
0.0
 11
29829.604341291921
 21
1707.749496429288
 31
0.0
1001
AUTOCAD_POSTSCRIPT_FIGURE
1002
{
1000
PSFILL
1000
Grayscale
1000
Grayscale
1070
    25
1002
}
  0
LINE
  5
3587
  8
YODOROGO
 10
29765.604341291921
 20
1771.7494964292871
 30
0.0
 11
29765.604341291921
 21
1707.749496429288
 31
0.0
1001
AUTOCAD_POSTSCRIPT_FIGURE
1002
{
1000
PSFILL
1000
Grayscale
1000
Grayscale
1070
    25
1002
}
  0
LINE
  5
3588
  8
YODOROGO
 10
29673.604341291921
 20
1771.7494964292871
 30
0.0
 11
29765.604341291921
 21
1771.7494964292871
 31
0.0
1001
AUTOCAD_POSTSCRIPT_FIGURE
1002
{
1000
PSFILL
1000
Grayscale
1000
Grayscale
1070
    25
1002
}
  0
ARC
  5
3589
  8
YODOROGO
 10
31059.517893357912
 20
1602.6807375155761
 30
0.0
 40
178.22128111072141
 50
281.02627495425338
 51
357.77113575573799
  0
LINE
  5
358A
  8
YODOROGO
 10
31413.604341291921
 20
1907.7494964292871
 30
0.0
 11
31165.604341291921
 21
1907.7494964292871
 31
0.0
  0
LINE
  5
358B
  8
YODOROGO
 10
31413.604341291921
 20
2027.749496429288
 30
0.0
 11
31165.604341291921
 21
2027.749496429288
 31
0.0
  0
LINE
  5
358C
  8
YODOROGO
 10
31165.604341291921
 20
1963.749496429286
 30
0.0
 11
31413.604341291921
 21
1963.749496429286
 31
0.0
  0
LINE
  5
358D
  8
YODOROGO
 10
30791.604341291921
 20
1563.7494964292871
 30
0.0
 11
30791.604341291921
 21
1755.7494964292871
 31
0.0
  0
LINE
  5
358E
  8
YODOROGO
 10
30763.604341291921
 20
1691.749496429288
 30
0.0
 11
30763.604341291921
 21
1563.7494964292871
 31
0.0
  0
LINE
  5
358F
  8
YODOROGO
 10
30723.604341291921
 20
1491.749496429288
 30
0.0
 11
30723.604341291921
 21
1691.749496429288
 31
0.0
  0
LINE
  5
3590
  8
YODOROGO
 10
30899.604341291932
 20
1691.749496429288
 30
0.0
 11
30899.604341291932
 21
1491.749496429288
 31
0.0
  0
LINE
  5
3591
  8
YODOROGO
 10
30859.604341291932
 20
1563.7494964292871
 30
0.0
 11
30859.604341291932
 21
1691.749496429288
 31
0.0
  0
LINE
  5
3592
  8
YODOROGO
 10
30831.604341291921
 20
1755.7494964292871
 30
0.0
 11
30831.604341291921
 21
1563.7494964292871
 31
0.0
  0
LINE
  5
3593
  8
YODOROGO
 10
30973.604341291921
 20
2027.749496429288
 30
0.0
 11
30973.604341291921
 21
1467.749496429288
 31
0.0
  0
LINE
  5
3594
  8
YODOROGO
 10
30645.604341291921
 20
1427.749496429288
 30
0.0
 11
30645.604341291921
 21
2027.749496429288
 31
0.0
  0
LINE
  5
3595
  8
YODOROGO
 10
30697.604341291932
 20
1963.749496429286
 30
0.0
 11
30697.604341291932
 21
1427.749496429288
 31
0.0
  0
LINE
  5
3596
  8
YODOROGO
 10
30925.604341291921
 20
1547.749496429288
 30
0.0
 11
30925.604341291921
 21
1963.749496429286
 31
0.0
  0
LINE
  5
3597
  8
YODOROGO
 10
30381.604341291932
 20
1627.749496429288
 30
0.0
 11
30381.604341291932
 21
1679.749496429288
 31
0.0
  0
LINE
  5
3598
  8
YODOROGO
 10
30617.604341291921
 20
1679.749496429288
 30
0.0
 11
30617.604341291921
 21
1627.749496429288
 31
0.0
  0
LINE
  5
3599
  8
YODOROGO
 10
31165.604341291921
 20
1907.7494964292871
 30
0.0
 11
31165.604341291921
 21
1635.7494964292871
 31
0.0
  0
LINE
  5
359A
  8
YODOROGO
 10
29949.60434129191
 20
1667.749496429288
 30
0.0
 11
29949.60434129191
 21
1707.749496429288
 31
0.0
  0
LINE
  5
359B
  8
YODOROGO
 10
29949.60434129191
 20
1667.749496429288
 30
0.0
 11
29949.60434129191
 21
1707.749496429288
 31
0.0
  0
ARC
  5
359C
  8
YODOROGO
 10
30537.604341291921
 20
1507.749496429288
 30
0.0
 40
80.0
 50
270.0
 51
0.0
  0
LINE
  5
359D
  8
YODOROGO
 10
30569.604341291921
 20
1599.7494964292871
 30
0.0
 11
30617.604341291921
 21
1599.7494964292871
 31
0.0
  0
LINE
  5
359E
  8
YODOROGO
 10
30617.604341291921
 20
1627.749496429288
 30
0.0
 11
30529.604341291939
 21
1627.749496429288
 31
0.0
  0
LINE
  5
359F
  8
YODOROGO
 10
30217.604341291921
 20
1667.749496429288
 30
0.0
 11
29949.60434129191
 21
1667.749496429288
 31
0.0
  0
LINE
  5
35A0
  8
YODOROGO
 10
30217.604341291921
 20
1627.749496429288
 30
0.0
 11
30217.604341291921
 21
1667.749496429288
 31
0.0
  0
LINE
  5
35A1
  8
YODOROGO
 10
30017.604341291921
 20
1627.749496429288
 30
0.0
 11
30217.604341291921
 21
1627.749496429288
 31
0.0
  0
ARC
  5
35A2
  8
YODOROGO
 10
30230.05882870136
 20
1868.885714952901
 30
0.0
 40
321.37763628522822
 50
228.6181454618993
 51
245.660289248906
  0
LINE
  5
35A3
  8
YODOROGO
 10
30105.604341291921
 20
1603.749496429288
 30
0.0
 11
30097.604341291972
 21
1576.0728158699001
 31
0.0
  0
LINE
  5
35A4
  8
YODOROGO
 10
30189.604341291921
 20
1603.749496429288
 30
0.0
 11
30105.604341291921
 21
1603.749496429288
 31
0.0
  0
LINE
  5
35A5
  8
YODOROGO
 10
30177.604341291921
 20
1551.817722473427
 30
0.0
 11
30189.604341291921
 21
1603.749496429288
 31
0.0
  0
ARC
  5
35A6
  8
YODOROGO
 10
30230.058828700468
 20
1868.885714953002
 30
0.0
 40
321.37763628529081
 50
260.60629297969911
 51
267.77903556555862
  0
LINE
  5
35A7
  8
YODOROGO
 10
30217.604341291921
 20
1427.749496429285
 30
0.0
 11
30217.604341291921
 21
1547.749496429288
 31
0.0
  0
LINE
  5
35A8
  8
YODOROGO
 10
29937.604341291932
 20
1481.3393349155101
 30
0.0
 11
29937.604341291921
 21
1594.531090531141
 31
0.0
  0
LINE
  5
35A9
  8
YODOROGO
 10
30217.604341291921
 20
1667.749496429288
 30
0.0
 11
29949.60434129191
 21
1667.749496429288
 31
0.0
  0
LINE
  5
35AA
  8
YODOROGO
 10
30217.604341291921
 20
1627.749496429288
 30
0.0
 11
30217.604341291921
 21
1667.749496429288
 31
0.0
  0
LINE
  5
35AB
  8
YODOROGO
 10
30017.604341291921
 20
1627.749496429288
 30
0.0
 11
30217.604341291921
 21
1627.749496429288
 31
0.0
  0
ARC
  5
35AC
  8
YODOROGO
 10
30230.05882870136
 20
1868.885714952901
 30
0.0
 40
321.37763628522822
 50
228.6181454618993
 51
245.660289248906
  0
LINE
  5
35AD
  8
YODOROGO
 10
30105.604341291921
 20
1603.749496429288
 30
0.0
 11
30097.604341291972
 21
1576.0728158699001
 31
0.0
  0
LINE
  5
35AE
  8
YODOROGO
 10
30189.604341291921
 20
1603.749496429288
 30
0.0
 11
30105.604341291921
 21
1603.749496429288
 31
0.0
  0
LINE
  5
35AF
  8
YODOROGO
 10
30177.604341291921
 20
1551.817722473427
 30
0.0
 11
30189.604341291921
 21
1603.749496429288
 31
0.0
  0
ARC
  5
35B0
  8
YODOROGO
 10
30230.058828700468
 20
1868.885714953002
 30
0.0
 40
321.37763628529081
 50
260.60629297969911
 51
267.77903556555862
  0
LINE
  5
35B1
  8
YODOROGO
 10
30217.604341291921
 20
1427.749496429285
 30
0.0
 11
30217.604341291921
 21
1547.749496429288
 31
0.0
  0
LINE
  5
35B2
  8
YODOROGO
 10
29937.604341291932
 20
1481.3393349155101
 30
0.0
 11
29937.604341291921
 21
1594.531090531141
 31
0.0
  0
LINE
  5
35B3
  8
YODOROGO
 10
30433.604341291939
 20
1573.749496429288
 30
0.0
 11
30381.604341291932
 21
1573.749496429288
 31
0.0
  0
LINE
  5
35B4
  8
YODOROGO
 10
30433.604341291939
 20
1601.749496429285
 30
0.0
 11
30433.604341291939
 21
1573.749496429288
 31
0.0
  0
LINE
  5
35B5
  8
YODOROGO
 10
30381.604341291932
 20
1601.749496429285
 30
0.0
 11
30433.604341291939
 21
1601.749496429285
 31
0.0
  0
LINE
  5
35B6
  8
YODOROGO
 10
30381.604341291932
 20
1573.749496429288
 30
0.0
 11
30381.604341291932
 21
1601.749496429285
 31
0.0
  0
LINE
  5
35B7
  8
YODOROGO
 10
30429.604341291921
 20
1577.7494964292871
 30
0.0
 11
30385.604341291939
 21
1577.7494964292871
 31
0.0
  0
LINE
  5
35B8
  8
YODOROGO
 10
30429.604341291921
 20
1597.749496429288
 30
0.0
 11
30429.604341291921
 21
1577.7494964292871
 31
0.0
  0
LINE
  5
35B9
  8
YODOROGO
 10
30385.604341291939
 20
1597.749496429288
 30
0.0
 11
30429.604341291921
 21
1597.749496429288
 31
0.0
  0
LINE
  5
35BA
  8
YODOROGO
 10
30385.604341291939
 20
1577.7494964292871
 30
0.0
 11
30385.604341291939
 21
1597.749496429288
 31
0.0
  0
LINE
  5
35BB
  8
YODOROGO
 10
30425.604341291921
 20
1581.749496429286
 30
0.0
 11
30389.604341291939
 21
1581.749496429286
 31
0.0
  0
LINE
  5
35BC
  8
YODOROGO
 10
30425.604341291939
 20
1593.749496429288
 30
0.0
 11
30425.604341291921
 21
1581.749496429286
 31
0.0
  0
LINE
  5
35BD
  8
YODOROGO
 10
30389.604341291939
 20
1593.749496429288
 30
0.0
 11
30425.604341291939
 21
1593.749496429288
 31
0.0
  0
LINE
  5
35BE
  8
YODOROGO
 10
30389.604341291939
 20
1581.749496429286
 30
0.0
 11
30389.604341291939
 21
1593.749496429288
 31
0.0
  0
LINE
  5
35BF
  8
YODOROGO
 10
30421.604341291932
 20
1585.7494964292871
 30
0.0
 11
30393.604341291939
 21
1585.7494964292871
 31
0.0
  0
LINE
  5
35C0
  8
YODOROGO
 10
30421.604341291932
 20
1589.749496429288
 30
0.0
 11
30421.604341291932
 21
1585.7494964292871
 31
0.0
  0
LINE
  5
35C1
  8
YODOROGO
 10
30393.604341291939
 20
1589.749496429288
 30
0.0
 11
30421.604341291932
 21
1589.749496429288
 31
0.0
  0
LINE
  5
35C2
  8
YODOROGO
 10
30393.604341291939
 20
1585.7494964292871
 30
0.0
 11
30393.604341291939
 21
1589.749496429288
 31
0.0
  0
LINE
  5
35C3
  8
YODOROGO
 10
30465.604341291921
 20
1627.749496429288
 30
0.0
 11
30381.604341291932
 21
1627.749496429288
 31
0.0
  0
LINE
  5
35C4
  8
YODOROGO
 10
30465.604341291921
 20
1547.749496429288
 30
0.0
 11
30465.604341291921
 21
1627.749496429288
 31
0.0
  0
LINE
  5
35C5
  8
YODOROGO
 10
30381.604341291932
 20
1547.749496429288
 30
0.0
 11
30465.604341291921
 21
1547.749496429288
 31
0.0
  0
LINE
  5
35C6
  8
YODOROGO
 10
30381.604341291932
 20
1427.749496429288
 30
0.0
 11
30381.604341291932
 21
1547.749496429288
 31
0.0
  0
LINE
  5
35C7
  8
YODOROGO
 10
30537.604341291921
 20
1427.749496429288
 30
0.0
 11
30381.604341291932
 21
1427.749496429288
 31
0.0
  0
LINE
  5
35C8
  8
YODOROGO
 10
30569.604341291921
 20
1571.749496429285
 30
0.0
 11
30569.604341291921
 21
1599.7494964292871
 31
0.0
  0
ARC
  5
35C9
  8
YODOROGO
 10
30545.604341291921
 20
1571.749496429291
 30
0.0
 40
24.000000000003752
 50
270.0
 51
359.99999999998772
  0
LINE
  5
35CA
  8
YODOROGO
 10
30529.604341291939
 20
1547.749496429288
 30
0.0
 11
30545.604341291921
 21
1547.749496429288
 31
0.0
  0
LINE
  5
35CB
  8
YODOROGO
 10
30529.604341291939
 20
1627.749496429288
 30
0.0
 11
30529.604341291939
 21
1547.749496429288
 31
0.0
  0
LINE
  5
35CC
  8
YODOROGO
 10
30899.604341291932
 20
1547.749496429288
 30
0.0
 11
30925.604341291921
 21
1547.749496429288
 31
0.0
  0
LINE
  5
35CD
  8
YODOROGO
 10
30933.604341291921
 20
1427.749496429288
 30
0.0
 11
30899.604341291932
 21
1427.749496429288
 31
0.0
  0
LINE
  5
35CE
  8
YODOROGO
 10
30763.604341291921
 20
1563.7494964292871
 30
0.0
 11
30791.604341291921
 21
1563.7494964292871
 31
0.0
  0
LINE
  5
35CF
  8
YODOROGO
 10
30899.604341291932
 20
1491.749496429288
 30
0.0
 11
30723.604341291921
 21
1491.749496429288
 31
0.0
  0
LINE
  5
35D0
  8
YODOROGO
 10
30831.604341291921
 20
1563.7494964292871
 30
0.0
 11
30859.604341291932
 21
1563.7494964292871
 31
0.0
  0
LINE
  5
35D1
  8
YODOROGO
 10
30899.604341291932
 20
1427.749496429288
 30
0.0
 11
30899.604341291932
 21
1547.749496429288
 31
0.0
  0
LINE
  5
35D2
  8
YODOROGO
 10
30697.604341291932
 20
1427.749496429288
 30
0.0
 11
30645.604341291921
 21
1427.749496429288
 31
0.0
  0
LINE
  5
35D3
  8
YODOROGO
 10
30617.604341291921
 20
1599.7494964292871
 30
0.0
 11
30617.604341291921
 21
1507.749496429288
 31
0.0
  0
ARC
  5
35D4
  8
YODOROGO
 10
30933.604341291921
 20
1467.749496429288
 30
0.0
 40
40.0
 50
270.0
 51
0.0
  0
LINE
  5
35D5
  8
YODOROGO
 10
31093.604341291921
 20
1523.7494964292871
 30
0.0
 11
31093.604341291921
 21
1427.749496429288
 31
0.0
  0
ARC
  5
35D6
  8
YODOROGO
 10
31039.721395566768
 20
1637.5313901097329
 30
0.0
 40
125.8955565916754
 50
295.34052442160112
 51
359.18902303418679
  0
LINE
  5
35D7
  8
YODOROGO
 10
30617.604341291921
 20
1859.749496429288
 30
0.0
 11
30497.604341291921
 21
1939.749496429288
 31
0.0
  0
LINE
  5
35D8
  8
YODOROGO
 10
30497.604341291921
 20
2027.749496429288
 30
0.0
 11
30617.604341291921
 21
1947.749496429288
 31
0.0
  0
LINE
  5
35D9
  8
YODOROGO
 10
30529.604341291939
 20
1679.749496429288
 30
0.0
 11
30617.604341291921
 21
1679.749496429288
 31
0.0
  0
LINE
  5
35DA
  8
YODOROGO
 10
30617.604341291921
 20
1735.7494964292871
 30
0.0
 11
30529.604341291939
 21
1735.7494964292871
 31
0.0
  0
LINE
  5
35DB
  8
YODOROGO
 10
30381.604341291932
 20
1795.7494964292871
 30
0.0
 11
30617.604341291921
 21
1795.7494964292871
 31
0.0
  0
LINE
  5
35DC
  8
YODOROGO
 10
30081.604341291939
 20
2027.749496429288
 30
0.0
 11
30021.604341291921
 21
2027.749496429288
 31
0.0
  0
LINE
  5
35DD
  8
YODOROGO
 10
30081.604341291939
 20
1827.7494964292871
 30
0.0
 11
30081.604341291939
 21
2027.749496429288
 31
0.0
  0
LINE
  5
35DE
  8
YODOROGO
 10
30021.604341291921
 20
1827.7494964292871
 30
0.0
 11
30081.604341291939
 21
1827.7494964292871
 31
0.0
  0
LINE
  5
35DF
  8
YODOROGO
 10
30021.604341291921
 20
2027.749496429288
 30
0.0
 11
30021.604341291921
 21
1827.7494964292871
 31
0.0
  0
LINE
  5
35E0
  8
YODOROGO
 10
30161.604341291939
 20
2027.749496429288
 30
0.0
 11
30217.604341291921
 21
2027.749496429288
 31
0.0
  0
LINE
  5
35E1
  8
YODOROGO
 10
30161.604341291939
 20
1811.749496429288
 30
0.0
 11
30161.604341291939
 21
2027.749496429288
 31
0.0
  0
ARC
  5
35E2
  8
YODOROGO
 10
30121.604341291939
 20
1811.749496429288
 30
0.0
 40
40.0
 50
270.0
 51
0.0
  0
LINE
  5
35E3
  8
YODOROGO
 10
30021.604341291921
 20
1771.7494964292871
 30
0.0
 11
30121.604341291939
 21
1771.7494964292871
 31
0.0
  0
LINE
  5
35E4
  8
YODOROGO
 10
30021.604341291921
 20
1707.749496429288
 30
0.0
 11
30021.604341291921
 21
1771.7494964292871
 31
0.0
  0
LINE
  5
35E5
  8
YODOROGO
 10
30137.604341291921
 20
1707.749496429288
 30
0.0
 11
30021.604341291921
 21
1707.749496429288
 31
0.0
  0
ARC
  5
35E6
  8
YODOROGO
 10
30137.604341291921
 20
1787.7494964292871
 30
0.0
 40
80.0
 50
270.0
 51
0.0
  0
LINE
  5
35E7
  8
YODOROGO
 10
30217.604341291921
 20
2027.749496429288
 30
0.0
 11
30217.604341291921
 21
1787.7494964292871
 31
0.0
  0
LINE
  5
35E8
  8
YODOROGO
 10
29977.604341291921
 20
1947.749496429288
 30
0.0
 11
29977.604341291921
 21
1995.7494964292871
 31
0.0
1001
AUTOCAD_POSTSCRIPT_FIGURE
1002
{
1000
PSFILL
1000
Grayscale
1000
Grayscale
1070
    25
1002
}
  0
LINE
  5
35E9
  8
YODOROGO
 10
29977.604341291921
 20
1859.749496429288
 30
0.0
 11
29977.604341291921
 21
1907.7494964292871
 31
0.0
1001
AUTOCAD_POSTSCRIPT_FIGURE
1002
{
1000
PSFILL
1000
Grayscale
1000
Grayscale
1070
    25
1002
}
  0
LINE
  5
35EA
  8
YODOROGO
 10
29977.604341291921
 20
1707.749496429288
 30
0.0
 11
29977.604341291921
 21
1819.7494964292871
 31
0.0
1001
AUTOCAD_POSTSCRIPT_FIGURE
1002
{
1000
PSFILL
1000
Grayscale
1000
Grayscale
1070
    25
1002
}
  0
LINE
  5
35EB
  8
YODOROGO
 10
30381.604341291932
 20
1907.7494964292871
 30
0.0
 11
30497.604341291921
 21
2027.749496429288
 31
0.0
  0
LINE
  5
35EC
  8
YODOROGO
 10
30381.604341291932
 20
1819.7494964292871
 30
0.0
 11
30381.604341291932
 21
1907.7494964292871
 31
0.0
  0
LINE
  5
35ED
  8
YODOROGO
 10
30497.604341291921
 20
1939.749496429288
 30
0.0
 11
30381.604341291932
 21
1819.7494964292871
 31
0.0
  0
LINE
  5
35EE
  8
YODOROGO
 10
30465.604341291921
 20
1679.749496429288
 30
0.0
 11
30465.604341291921
 21
1735.7494964292871
 31
0.0
  0
LINE
  5
35EF
  8
YODOROGO
 10
30381.604341291932
 20
1679.749496429288
 30
0.0
 11
30465.604341291921
 21
1679.749496429288
 31
0.0
  0
LINE
  5
35F0
  8
YODOROGO
 10
30529.604341291939
 20
1735.7494964292871
 30
0.0
 11
30529.604341291939
 21
1679.749496429288
 31
0.0
  0
LINE
  5
35F1
  8
YODOROGO
 10
30381.604341291932
 20
1735.7494964292871
 30
0.0
 11
30381.604341291932
 21
1795.7494964292871
 31
0.0
  0
LINE
  5
35F2
  8
YODOROGO
 10
30465.604341291921
 20
1735.7494964292871
 30
0.0
 11
30381.604341291932
 21
1735.7494964292871
 31
0.0
  0
LINE
  5
35F3
  8
YODOROGO
 10
30645.604341291921
 20
2027.749496429288
 30
0.0
 11
30973.604341291921
 21
2027.749496429288
 31
0.0
  0
LINE
  5
35F4
  8
YODOROGO
 10
30925.604341291921
 20
1963.749496429286
 30
0.0
 11
30697.604341291932
 21
1963.749496429286
 31
0.0
  0
LINE
  5
35F5
  8
YODOROGO
 10
30873.604341291921
 20
1819.7494964292871
 30
0.0
 11
30899.604341291932
 21
1819.7494964292871
 31
0.0
  0
LINE
  5
35F6
  8
YODOROGO
 10
30899.604341291932
 20
1939.749496429288
 30
0.0
 11
30873.604341291921
 21
1819.7494964292871
 31
0.0
  0
LINE
  5
35F7
  8
YODOROGO
 10
30851.604341291939
 20
1939.749496429288
 30
0.0
 11
30899.604341291932
 21
1939.749496429288
 31
0.0
  0
LINE
  5
35F8
  8
YODOROGO
 10
30825.604341291921
 20
1819.7494964292871
 30
0.0
 11
30851.604341291939
 21
1939.749496429288
 31
0.0
  0
LINE
  5
35F9
  8
YODOROGO
 10
30797.604341291921
 20
1819.7494964292871
 30
0.0
 11
30825.604341291921
 21
1819.7494964292871
 31
0.0
  0
LINE
  5
35FA
  8
YODOROGO
 10
30771.604341291939
 20
1939.749496429288
 30
0.0
 11
30797.604341291921
 21
1819.7494964292871
 31
0.0
  0
LINE
  5
35FB
  8
YODOROGO
 10
30723.604341291921
 20
1939.749496429288
 30
0.0
 11
30771.604341291939
 21
1939.749496429288
 31
0.0
  0
LINE
  5
35FC
  8
YODOROGO
 10
30749.604341291921
 20
1819.7494964292871
 30
0.0
 11
30723.604341291921
 21
1939.749496429288
 31
0.0
  0
LINE
  5
35FD
  8
YODOROGO
 10
30723.604341291921
 20
1819.7494964292871
 30
0.0
 11
30749.604341291921
 21
1819.7494964292871
 31
0.0
  0
LINE
  5
35FE
  8
YODOROGO
 10
30723.604341291921
 20
1755.7494964292871
 30
0.0
 11
30723.604341291921
 21
1819.7494964292871
 31
0.0
  0
LINE
  5
35FF
  8
YODOROGO
 10
30899.604341291932
 20
1755.7494964292871
 30
0.0
 11
30723.604341291921
 21
1755.7494964292871
 31
0.0
  0
LINE
  5
3600
  8
YODOROGO
 10
30899.604341291932
 20
1819.7494964292871
 30
0.0
 11
30899.604341291932
 21
1755.7494964292871
 31
0.0
  0
LINE
  5
3601
  8
YODOROGO
 10
30617.604341291921
 20
1947.749496429288
 30
0.0
 11
30617.604341291921
 21
1859.749496429288
 31
0.0
  0
LINE
  5
3602
  8
YODOROGO
 10
30791.604341291921
 20
1755.7494964292871
 30
0.0
 11
30831.604341291921
 21
1755.7494964292871
 31
0.0
  0
LINE
  5
3603
  8
YODOROGO
 10
30723.604341291921
 20
1691.749496429288
 30
0.0
 11
30763.604341291921
 21
1691.749496429288
 31
0.0
  0
LINE
  5
3604
  8
YODOROGO
 10
30859.604341291932
 20
1691.749496429288
 30
0.0
 11
30899.604341291932
 21
1691.749496429288
 31
0.0
  0
LINE
  5
3605
  8
YODOROGO
 10
30617.604341291921
 20
1795.7494964292871
 30
0.0
 11
30617.604341291921
 21
1735.7494964292871
 31
0.0
  0
LINE
  5
3606
  8
YODOROGO
 10
31165.604341291921
 20
2027.749496429288
 30
0.0
 11
31165.604341291921
 21
1963.749496429286
 31
0.0
  0
LINE
  5
3607
  8
YODOROGO
 10
31533.604341291921
 20
1595.7494964292871
 30
0.0
 11
31533.60434129191
 21
1811.749496429288
 31
0.0
  0
LINE
  5
3608
  8
YODOROGO
 10
31461.60434129191
 20
1987.7494964292871
 30
0.0
 11
31461.60434129191
 21
1635.7494964292871
 31
0.0
  0
LINE
  5
3609
  8
YODOROGO
 10
31653.604341291921
 20
1427.749496429288
 30
0.0
 11
31653.60434129191
 21
1811.749496429288
 31
0.0
  0
LINE
  5
360A
  8
YODOROGO
 10
31589.604341291921
 20
1811.749496429288
 30
0.0
 11
31589.604341291921
 21
1427.749496429288
 31
0.0
  0
LINE
  5
360B
  8
YODOROGO
 10
31237.604341291921
 20
1595.7494964292871
 30
0.0
 11
31237.604341291921
 21
1707.749496429288
 31
0.0
  0
ARC
  5
360C
  8
YODOROGO
 10
31353.914865116069
 20
1607.790351288558
 30
0.0
 40
180.0924485759885
 50
268.62849102169793
 51
356.16638457330322
  0
LINE
  5
360D
  8
YODOROGO
 10
31349.604341291939
 20
1527.749496429288
 30
0.0
 11
31349.604341291939
 21
1427.749496429288
 31
0.0
  0
ARC
  5
360E
  8
YODOROGO
 10
31351.518075724562
 20
1637.838957017655
 30
0.0
 40
110.1060929836122
 50
269.00410209305932
 51
358.91264455492478
  0
LINE
  5
360F
  8
YODOROGO
 10
31589.604341291921
 20
1427.749496429288
 30
0.0
 11
31653.604341291921
 21
1427.749496429288
 31
0.0
  0
LINE
  5
3610
  8
YODOROGO
 10
31533.60434129191
 20
1811.749496429288
 30
0.0
 11
31589.604341291921
 21
1811.749496429288
 31
0.0
  0
LINE
  5
3611
  8
YODOROGO
 10
31621.604341291939
 20
1987.7494964292871
 30
0.0
 11
31461.60434129191
 21
1987.7494964292871
 31
0.0
  0
LINE
  5
3612
  8
YODOROGO
 10
31533.60434129191
 20
1915.7494964292871
 30
0.0
 11
31661.604341291939
 21
1915.7494964292871
 31
0.0
  0
LINE
  5
3613
  8
YODOROGO
 10
31701.604341291939
 20
1875.7494964292871
 30
0.0
 11
31533.60434129191
 21
1875.7494964292871
 31
0.0
  0
LINE
  5
3614
  8
YODOROGO
 10
31237.604341291921
 20
1779.749496429288
 30
0.0
 11
31349.604341291939
 21
1779.749496429288
 31
0.0
  0
LINE
  5
3615
  8
YODOROGO
 10
31237.604341291921
 20
1835.7494964292871
 30
0.0
 11
31237.604341291921
 21
1779.749496429288
 31
0.0
  0
LINE
  5
3616
  8
YODOROGO
 10
31349.604341291939
 20
1835.7494964292871
 30
0.0
 11
31237.604341291921
 21
1835.7494964292871
 31
0.0
  0
LINE
  5
3617
  8
YODOROGO
 10
31349.604341291939
 20
1779.749496429288
 30
0.0
 11
31349.604341291939
 21
1835.7494964292871
 31
0.0
  0
LINE
  5
3618
  8
YODOROGO
 10
31533.60434129191
 20
1875.7494964292871
 30
0.0
 11
31533.60434129191
 21
1915.7494964292871
 31
0.0
  0
LINE
  5
3619
  8
YODOROGO
 10
31413.604341291921
 20
1707.749496429288
 30
0.0
 11
31413.604341291921
 21
1907.7494964292871
 31
0.0
  0
LINE
  5
361A
  8
YODOROGO
 10
31237.604341291921
 20
1707.749496429288
 30
0.0
 11
31413.604341291921
 21
1707.749496429288
 31
0.0
  0
LINE
  5
361B
  8
YODOROGO
 10
31413.604341291921
 20
1963.749496429286
 30
0.0
 11
31413.604341291921
 21
2027.749496429288
 31
0.0
  0
ARC
  5
361C
  8
YODOROGO
 10
31621.604341291939
 20
2003.749496429285
 30
0.0
 40
15.999999999994539
 50
270.0
 51
0.0000000000081422
  0
LINE
  5
361D
  8
YODOROGO
 10
31637.604341291921
 20
2027.749496429288
 30
0.0
 11
31637.604341291921
 21
2003.7494964292871
 31
0.0
  0
LINE
  5
361E
  8
YODOROGO
 10
31701.604341291939
 20
2027.749496429288
 30
0.0
 11
31637.604341291921
 21
2027.749496429288
 31
0.0
  0
LINE
  5
361F
  8
YODOROGO
 10
31701.604341291939
 20
1955.7494964292871
 30
0.0
 11
31701.604341291939
 21
2027.749496429288
 31
0.0
  0
ARC
  5
3620
  8
YODOROGO
 10
31661.604341291939
 20
1955.7494964292871
 30
0.0
 40
40.0
 50
270.0
 51
0.0
  0
LINE
  5
3621
  8
YODOROGO
 10
31701.604341291939
 20
1811.749496429288
 30
0.0
 11
31701.604341291939
 21
1875.7494964292871
 31
0.0
  0
LINE
  5
3622
  8
YODOROGO
 10
31653.60434129191
 20
1811.749496429288
 30
0.0
 11
31701.604341291939
 21
1811.749496429288
 31
0.0
  0
LINE
  5
3728
  8
0-1
  6
CONTINUOUS
 62
     3
 10
20721.809807000001
 20
8652.4241219999985
 30
0.0
 11
23905.313237999992
 21
8652.4241219999985
 31
0.0
  0
LINE
  5
3729
  8
0-1
  6
CONTINUOUS
 62
     3
 10
20593.813107000009
 20
8590.2380409999969
 30
0.0
 11
20593.813107000009
 21
8915.9237789999934
 31
0.0
  0
LINE
  5
372A
  8
0-1
  6
CONTINUOUS
 62
     3
 10
24033.311918999989
 20
8785.9238449999921
 30
0.0
 11
20593.813107000009
 21
8785.9238449999921
 31
0.0
  0
LINE
  5
372B
  8
0-1
  6
CONTINUOUS
 62
     3
 10
24033.311918999989
 20
8915.9237789999934
 30
0.0
 11
24033.311918999989
 21
8590.2380409999969
 31
0.0
  0
LINE
  5
372C
  8
0-1
  6
CONTINUOUS
 62
     3
 10
20593.813107000009
 20
8915.9237789999934
 30
0.0
 11
24033.311918999989
 21
8915.9237789999934
 31
0.0
  0
LINE
  5
372D
  8
0-1
  6
CONTINUOUS
 62
     3
 10
24033.311918999989
 20
8590.2380409999969
 30
0.0
 11
23990.311786999999
 21
8590.2380409999969
 31
0.0
  0
LINE
  5
372E
  8
0-1
  6
CONTINUOUS
 62
     3
 10
20593.813107000009
 20
8590.2380409999969
 30
0.0
 11
20636.811259000009
 21
8590.2380409999969
 31
0.0
  0
LINE
  5
372F
  8
0-1
  6
CONTINUOUS
 62
     3
 10
20747.812763000009
 20
8661.4244990000043
 30
0.0
 11
21025.242292999999
 21
8661.4244990000043
 31
0.0
  0
LINE
  5
3730
  8
0-1
  6
CONTINUOUS
 62
     3
 10
20747.812763000009
 20
8703.4239439999983
 30
0.0
 11
21057.239231
 21
8703.4239439999983
 31
0.0
  0
LINE
  5
3731
  8
0-1
  6
CONTINUOUS
 62
     3
 10
20742.812499999989
 20
8666.4242679999988
 30
0.0
 11
20742.812499999989
 21
8698.4246699999985
 31
0.0
  0
LINE
  5
3732
  8
0-1
  6
CONTINUOUS
 62
     3
 10
20721.809807000001
 20
8712.4238259999984
 30
0.0
 11
23905.313237999992
 21
8712.4238259999984
 31
0.0
  0
LINE
  5
3733
  8
0-1
  6
CONTINUOUS
 62
     3
 10
21028.775733000009
 20
8662.8883529999966
 30
0.0
 11
21060.77663099999
 21
8694.8887549999981
 31
0.0
  0
LINE
  5
3734
  8
0-1
  6
CONTINUOUS
 62
     3
 10
20742.812499999989
 20
8695.0243519999985
 30
0.0
 11
21060.905298999998
 21
8695.0243519999985
 31
0.0
  0
LINE
  5
3735
  8
0-1
  6
CONTINUOUS
 62
     3
 10
20742.812499999989
 20
8686.6242649999967
 30
0.0
 11
21052.512140999999
 21
8686.6242649999967
 31
0.0
  0
LINE
  5
3736
  8
0-1
  6
CONTINUOUS
 62
     3
 10
20742.812499999989
 20
8678.2246729999988
 30
0.0
 11
21044.113043000008
 21
8678.2246729999988
 31
0.0
  0
LINE
  5
3737
  8
0-1
  6
CONTINUOUS
 62
     3
 10
20742.812499999989
 20
8669.824585999997
 30
0.0
 11
21035.709987000009
 21
8669.824585999997
 31
0.0
  0
LINE
  5
3738
  8
0-1
  6
CONTINUOUS
 62
     3
 10
23884.31252599998
 20
8695.0243519999985
 30
0.0
 11
23566.219725999999
 21
8695.0243519999985
 31
0.0
  0
LINE
  5
3739
  8
0-1
  6
CONTINUOUS
 62
     3
 10
23884.31252599998
 20
8686.6242649999967
 30
0.0
 11
23574.614863999999
 21
8686.6242649999967
 31
0.0
  0
LINE
  5
373A
  8
0-1
  6
CONTINUOUS
 62
     3
 10
23884.31252599998
 20
8678.2246729999988
 30
0.0
 11
23583.01396099999
 21
8678.2246729999988
 31
0.0
  0
LINE
  5
373B
  8
0-1
  6
CONTINUOUS
 62
     3
 10
23884.31252599998
 20
8669.824585999997
 30
0.0
 11
23591.413058999991
 21
8669.824585999997
 31
0.0
  0
LINE
  5
373C
  8
0-1
  6
CONTINUOUS
 62
     3
 10
23879.312261999999
 20
8703.4239439999983
 30
0.0
 11
23569.88579399998
 21
8703.4239439999983
 31
0.0
  0
LINE
  5
373D
  8
0-1
  6
CONTINUOUS
 62
     3
 10
23879.312261999999
 20
8661.4244990000043
 30
0.0
 11
23601.882732999991
 21
8661.4244990000043
 31
0.0
  0
LINE
  5
373E
  8
0-1
  6
CONTINUOUS
 62
     3
 10
23884.31252599998
 20
8666.4242679999988
 30
0.0
 11
23884.31252599998
 21
8698.4246699999985
 31
0.0
  0
LINE
  5
373F
  8
0-1
  6
CONTINUOUS
 62
     3
 10
23598.347311999991
 20
8662.8883529999966
 30
0.0
 11
23566.350374000001
 21
8694.8887549999981
 31
0.0
  0
ARC
  5
3740
  8
0-1
  6
CONTINUOUS
 62
     3
 10
20747.812763000009
 20
8698.4246699999985
 30
0.0
 40
5.0
 50
90.0
 51
180.0
  0
ARC
  5
3741
  8
0-1
  6
CONTINUOUS
 62
     3
 10
20747.812763000009
 20
8666.4242679999988
 30
0.0
 40
5.0
 50
180.0
 51
269.9999850001808
  0
ARC
  5
3742
  8
0-1
  6
CONTINUOUS
 62
     3
 10
21025.242292999999
 20
8666.4242679999988
 30
0.0
 40
5.0
 50
269.9999850001808
 51
314.99998500027471
  0
ARC
  5
3743
  8
0-1
  6
CONTINUOUS
 62
     3
 10
21057.239231
 20
8698.4246699999985
 30
0.0
 40
5.0
 50
314.99998500027471
 51
90.0
  0
ARC
  5
3744
  8
0-1
  6
CONTINUOUS
 62
     3
 10
23879.312261999999
 20
8666.4242679999988
 30
0.0
 40
5.0
 50
269.9999850001808
 51
0.0
  0
ARC
  5
3745
  8
0-1
  6
CONTINUOUS
 62
     3
 10
23879.312261999999
 20
8698.4246699999985
 30
0.0
 40
5.0
 50
0.0
 51
90.0
  0
ARC
  5
3746
  8
0-1
  6
CONTINUOUS
 62
     3
 10
23569.88579399998
 20
8698.4246699999985
 30
0.0
 40
5.0
 50
90.0
 51
224.99998499997989
  0
ARC
  5
3747
  8
0-1
  6
CONTINUOUS
 62
     3
 10
23601.882732999991
 20
8666.4242679999988
 30
0.0
 40
5.0
 50
224.99998499997989
 51
269.9999850001808
  0
LINE
  5
3748
  8
SUNPOU
  6
CONTINUOUS
 62
     4
 10
23990.313765999981
 20
8995.9237789999916
 30
0.0
 11
23990.313765999981
 21
9795.4236209999963
 31
0.0
  0
LINE
  5
3749
  8
SUNPOU
  6
CONTINUOUS
 62
     4
 10
24033.315876999972
 20
8995.9237789999916
 30
0.0
 11
24033.315876999972
 21
9795.4236209999963
 31
0.0
  0
LINE
  5
374A
  8
SUNPOU
  6
CONTINUOUS
 62
     4
 10
23990.313765999981
 20
9715.4236209999926
 30
0.0
 11
23750.313765999981
 21
9715.4236209999926
 31
0.0
  0
LINE
  5
374B
  8
SUNPOU
  6
CONTINUOUS
 62
     4
 10
24030.315876999972
 20
9715.4236209999926
 30
0.0
 11
24270.315876999972
 21
9715.4236209999926
 31
0.0
  0
LINE
  5
374C
  8
SUNPOU
  6
CONTINUOUS
 62
     4
 10
23990.313765999981
 20
9715.4236209999926
 30
0.0
 11
24030.315876999972
 21
9715.4236209999926
 31
0.0
  0
LINE
  5
374D
  8
SUNPOU
  6
CONTINUOUS
 62
     4
 10
20593.811127000019
 20
8995.9237789999916
 30
0.0
 11
20593.811127000019
 21
10195.381391000001
 31
0.0
  0
LINE
  5
374E
  8
SUNPOU
  6
CONTINUOUS
 62
     4
 10
24033.315876999972
 20
8995.9237789999916
 30
0.0
 11
24033.315876999972
 21
10195.381391000001
 31
0.0
  0
LINE
  5
374F
  8
SUNPOU
  6
CONTINUOUS
 62
     4
 10
20596.811127000019
 20
10115.38139099999
 30
0.0
 11
24030.315876999972
 21
10115.38139099999
 31
0.0
  0
LINE
  5
3750
  8
SUNPOU
  6
CONTINUOUS
 62
     4
 10
20636.81323800001
 20
8995.9237789999916
 30
0.0
 11
20636.81323800001
 21
9795.4236209999963
 31
0.0
  0
LINE
  5
3751
  8
SUNPOU
  6
CONTINUOUS
 62
     4
 10
23990.313765999981
 20
8995.9237789999916
 30
0.0
 11
23990.313765999981
 21
9795.4236209999963
 31
0.0
  0
LINE
  5
3752
  8
SUNPOU
  6
CONTINUOUS
 62
     4
 10
20636.81323800001
 20
9715.4236209999926
 30
0.0
 11
23990.313765999981
 21
9715.4236209999926
 31
0.0
  0
LINE
  5
3753
  8
SUNPOU
  6
CONTINUOUS
 62
     4
 10
20636.81323800001
 20
8995.9237789999916
 30
0.0
 11
20636.81323800001
 21
9795.4236209999963
 31
0.0
  0
LINE
  5
3754
  8
SUNPOU
  6
CONTINUOUS
 62
     4
 10
20593.811127000019
 20
8995.9237789999916
 30
0.0
 11
20593.811127000019
 21
9795.4236209999963
 31
0.0
  0
LINE
  5
3755
  8
SUNPOU
  6
CONTINUOUS
 62
     4
 10
20636.81323800001
 20
9715.4236209999926
 30
0.0
 11
20876.813237999999
 21
9715.4236209999926
 31
0.0
  0
LINE
  5
3756
  8
SUNPOU
  6
CONTINUOUS
 62
     4
 10
20596.811127000019
 20
9715.4236209999926
 30
0.0
 11
20356.811127000019
 21
9715.4236209999926
 31
0.0
  0
LINE
  5
3757
  8
SUNPOU
  6
CONTINUOUS
 62
     4
 10
20636.81323800001
 20
9715.4236209999926
 30
0.0
 11
20596.811127000019
 21
9715.4236209999926
 31
0.0
  0
TEXT
  5
3758
  8
0
  6
CONTINUOUS
 62
     7
 10
20236.811127000019
 20
9795.4236209999963
 30
0.0
 40
160.0
  1
43
  0
TEXT
  5
3759
  8
0
  6
CONTINUOUS
 62
     7
 10
21913.56350199999
 20
9795.4236209999963
 30
0.0
 40
160.0
  1
3353.5
  0
TEXT
  5
375A
  8
0
  6
CONTINUOUS
 62
     7
 10
21913.56350199999
 20
10195.381391000001
 30
0.0
 40
160.0
  1
3439.5
  0
TEXT
  5
375B
  8
0
  6
CONTINUOUS
 62
     7
 10
24150.315876999972
 20
9795.4236209999963
 30
0.0
 40
160.0
  1
43
  0
ARC
  5
375C
  8
0
  6
BYBLOCK
 62
     0
 10
23990.313765999981
 20
9715.4236209999926
 30
0.0
 40
15.0
 50
180.0
 51
0.0
  0
ARC
  5
375D
  8
0
  6
BYBLOCK
 62
     0
 10
23990.313765999981
 20
9715.4236209999926
 30
0.0
 40
15.0
 50
0.0
 51
180.0
  0
ARC
  5
375E
  8
0
  6
BYBLOCK
 62
     0
 10
24033.315876999972
 20
9715.4236209999926
 30
0.0
 40
15.0
 50
0.0
 51
180.0
  0
ARC
  5
375F
  8
0
  6
BYBLOCK
 62
     0
 10
24033.315876999972
 20
9715.4236209999926
 30
0.0
 40
15.0
 50
180.0
 51
0.0
  0
ARC
  5
3760
  8
0
  6
BYBLOCK
 62
     0
 10
20593.811127000019
 20
10115.38139099999
 30
0.0
 40
15.0
 50
0.0
 51
180.0
  0
ARC
  5
3761
  8
0
  6
BYBLOCK
 62
     0
 10
20593.811127000019
 20
10115.38139099999
 30
0.0
 40
15.0
 50
180.0
 51
0.0
  0
ARC
  5
3762
  8
0
  6
BYBLOCK
 62
     0
 10
24033.315876999972
 20
10115.38139099999
 30
0.0
 40
15.0
 50
180.0
 51
0.0
  0
ARC
  5
3763
  8
0
  6
BYBLOCK
 62
     0
 10
24033.315876999972
 20
10115.38139099999
 30
0.0
 40
15.0
 50
0.0
 51
180.0
  0
ARC
  5
3764
  8
0
  6
BYBLOCK
 62
     0
 10
20636.81323800001
 20
9715.4236209999926
 30
0.0
 40
15.0
 50
0.0
 51
180.0
  0
ARC
  5
3765
  8
0
  6
BYBLOCK
 62
     0
 10
20636.81323800001
 20
9715.4236209999926
 30
0.0
 40
15.0
 50
180.0
 51
0.0
  0
ARC
  5
3766
  8
0
  6
BYBLOCK
 62
     0
 10
23990.313765999981
 20
9715.4236209999926
 30
0.0
 40
15.0
 50
180.0
 51
0.0
  0
ARC
  5
3767
  8
0
  6
BYBLOCK
 62
     0
 10
23990.313765999981
 20
9715.4236209999926
 30
0.0
 40
15.0
 50
0.0
 51
180.0
  0
ARC
  5
3768
  8
0
  6
BYBLOCK
 62
     0
 10
20636.81323800001
 20
9715.4236209999926
 30
0.0
 40
15.0
 50
0.0
 51
180.0
  0
ARC
  5
3769
  8
0
  6
BYBLOCK
 62
     0
 10
20636.81323800001
 20
9715.4236209999926
 30
0.0
 40
15.0
 50
180.0
 51
0.0
  0
ARC
  5
376A
  8
0
  6
BYBLOCK
 62
     0
 10
20593.811127000019
 20
9715.4236209999926
 30
0.0
 40
15.0
 50
180.0
 51
0.0
  0
ARC
  5
376B
  8
0
  6
BYBLOCK
 62
     0
 10
20593.811127000019
 20
9715.4236209999926
 30
0.0
 40
15.0
 50
0.0
 51
180.0
  0
LINE
  5
3779
  8
SUNPOU
  6
CONTINUOUS
 62
     4
 10
10873.34752399999
 20
13559.984999
 30
0.0
 11
10873.34752399999
 21
12381.035199
 31
0.0
  0
LINE
  5
377A
  8
SUNPOU
  6
CONTINUOUS
 62
     4
 10
14312.848316
 20
13559.984999
 30
0.0
 11
14312.848316
 21
12381.035199
 31
0.0
  0
LINE
  5
377B
  8
SUNPOU
  6
CONTINUOUS
 62
     4
 10
10873.34752399999
 20
12461.035199
 30
0.0
 11
14312.848316
 21
12461.035199
 31
0.0
  0
TEXT
  5
377C
  8
0
  6
CONTINUOUS
 62
     7
 10
11670.43125333332
 20
12541.035199
 30
0.0
 40
160.0
  1
ケラバ外寸 3439.5
  0
ARC
  5
377D
  8
0
  6
BYBLOCK
 62
     0
 10
10873.34752399999
 20
12461.035199
 30
0.0
 40
15.0
 50
0.0
 51
180.0
  0
ARC
  5
377E
  8
0
  6
BYBLOCK
 62
     0
 10
10873.34752399999
 20
12461.035199
 30
0.0
 40
15.0
 50
180.0
 51
0.0
  0
ARC
  5
377F
  8
0
  6
BYBLOCK
 62
     0
 10
14312.848316
 20
12461.035199
 30
0.0
 40
15.0
 50
180.0
 51
0.0
  0
ARC
  5
3780
  8
0
  6
BYBLOCK
 62
     0
 10
14312.848316
 20
12461.035199
 30
0.0
 40
15.0
 50
0.0
 51
180.0
  0
TEXT
  5
37D6
  8
NAME
 10
24033.05354655402
 20
1076.0
 30
0.0
 40
360.0
  1
H
 41
0.6700000000000002
  7
00
  0
TEXT
  5
37D7
  8
NAME
 10
23657.2215619737
 20
1076.0
 30
0.0
 40
360.0
  1
（ ）
  7
01
  0
TEXT
  5
37D8
  8
NAME
 10
24557.214549256751
 20
1076.0
 30
0.0
 40
360.0
  1
型（単棟）
  7
01
  0
TEXT
  5
37D9
  8
NAME
 10
21933.552716389018
 20
1876.0
 30
0.0
 40
360.0
  1
ヨドガレージ ラヴィージュ
 41
0.75
  7
01
  0
TEXT
  5
37DA
  8
NAME
 10
21816.089515848402
 20
1076.6369801169251
 30
0.0
 40
360.0
  1
VGC-3359
 41
0.6700000000000002
  0
LINE
  5
37DB
  8
NAME
  6
CONTINUOUS
 10
26067.886878884321
 20
2236.0
 30
0.0
 11
26067.886878884321
 21
1876.0
 31
0.0
  0
LINE
  5
37DC
  8
NAME
  6
CONTINUOUS
 10
26167.886878884321
 20
2236.0
 30
0.0
 11
26167.886878884321
 21
1876.0
 31
0.0
  0
LINE
  5
37DD
  8
NAME
  6
CONTINUOUS
 10
26267.886878884328
 20
2236.0
 30
0.0
 11
26267.886878884328
 21
1876.0
 31
0.0
  0
LINE
  5
37DE
  8
NAME
  6
CONTINUOUS
 10
26007.886878884321
 20
2236.0
 30
0.0
 11
26327.886878884321
 21
2236.0
 31
0.0
  0
LINE
  5
37DF
  8
NAME
  6
CONTINUOUS
 10
26327.886878884321
 20
1876.0
 30
0.0
 11
26007.886878884321
 21
1876.0
 31
0.0
  0
TEXT
  5
3879
  8
FILENAME
  6
CONTINUOUS
 10
28756.38095238095
 20
348.0
 30
0.0
 40
200.0
  1
＜VGC-3359-1-A_0.DXF ＞
  7
FILENAME
 72
     2
 11
32764.0
 21
348.0
 31
0.0
  0
LINE
  5
387F
  8
WAKUSEN-01
 10
868.00000000000193
 20
827.99999999999955
 30
0.0
 11
32764.000000000011
 21
827.99999999999943
 31
0.0
  0
LINE
  5
3880
  8
WAKUSEN-01
 10
868.00000000000193
 20
827.99999999999955
 30
0.0
 11
868.00000000000193
 21
22484.000000000011
 31
0.0
  0
LINE
  5
3881
  8
WAKUSEN-01
 10
32764.000000000011
 20
827.99999999999943
 30
0.0
 11
32764.000000000011
 21
22484.000000000011
 31
0.0
  0
LINE
  5
3882
  8
WAKUSEN-01
 10
20560.0
 20
827.99999999999716
 30
0.0
 11
20560.0
 21
2484.0
 31
0.0
  0
LINE
  5
3883
  8
WAKUSEN-02
 10
26868.0
 20
827.99999999999261
 30
0.0
 11
26868.0
 21
2484.0
 31
0.0
  0
ENDSEC
  0
EOF
