  0
SECTION
  2
HEADER
  9
$ACADVER
  1
AC1009
  9
$INSBASE
 10
0.0
 20
0.0
 30
0.0
  9
$EXTMIN
 10
867.99324330406671
 20
327.38164749855792
 30
-0.0000000000000053
  9
$EXTMAX
 10
32765.33210850941
 20
22484.553276491992
 30
0.0000000000000099
  9
$LIMMIN
 10
0.0
 20
0.0
  9
$LIMMAX
 10
33600.0
 20
23760.0
  9
$ORTHOMODE
 70
     1
  9
$REGENMODE
 70
     1
  9
$FILLMODE
 70
     1
  9
$QTEXTMODE
 70
     0
  9
$MIRRTEXT
 70
     1
  9
$DRAGMODE
 70
     2
  9
$LTSCALE
 40
80.0
  9
$OSMODE
 70
  3071
  9
$ATTMODE
 70
     1
  9
$TEXTSIZE
 40
0.2
  9
$TRACEWID
 40
0.05
  9
$TEXTSTYLE
  7
00
  9
$CLAYER
  8
0
  9
$CELTYPE
  6
BYLAYER
  9
$CECOLOR
 62
   256
  9
$DIMSCALE
 40
80.0
  9
$DIMASZ
 40
3.0
  9
$DIMEXO
 40
1.0
  9
$DIMDLI
 40
0.38
  9
$DIMRND
 40
0.5
  9
$DIMDLE
 40
0.0
  9
$DIMEXE
 40
1.0
  9
$DIMTP
 40
0.0
  9
$DIMTM
 40
0.0
  9
$DIMTXT
 40
2.0
  9
$DIMCEN
 40
0.09
  9
$DIMTSZ
 40
0.0
  9
$DIMTOL
 70
     0
  9
$DIMLIM
 70
     0
  9
$DIMTIH
 70
     0
  9
$DIMTOH
 70
     0
  9
$DIMSE1
 70
     0
  9
$DIMSE2
 70
     0
  9
$DIMTAD
 70
     1
  9
$DIMZIN
 70
     8
  9
$DIMBLK
  1
DOTSMALL
  9
$DIMASO
 70
     1
  9
$DIMSHO
 70
     1
  9
$DIMPOST
  1

  9
$DIMAPOST
  1

  9
$DIMALT
 70
     0
  9
$DIMALTD
 70
     2
  9
$DIMALTF
 40
25.399999999999999
  9
$DIMLFAC
 40
1.0
  9
$DIMTOFL
 70
     1
  9
$DIMTVP
 40
0.0
  9
$DIMTIX
 70
     0
  9
$DIMSOXD
 70
     0
  9
$DIMSAH
 70
     0
  9
$DIMBLK1
  1

  9
$DIMBLK2
  1

  9
$DIMSTYLE
  2
SUNPOU
  9
$DIMCLRD
 70
     4
  9
$DIMCLRE
 70
     4
  9
$DIMCLRT
 70
     7
  9
$DIMTFAC
 40
1.0
  9
$DIMGAP
 40
1.0
  9
$LUNITS
 70
     2
  9
$LUPREC
 70
     4
  9
$SKETCHINC
 40
0.1
  9
$FILLETRAD
 40
0.0
  9
$AUNITS
 70
     0
  9
$AUPREC
 70
     0
  9
$MENU
  1
acad
  9
$ELEVATION
 40
0.0
  9
$PELEVATION
 40
0.0
  9
$THICKNESS
 40
0.0
  9
$LIMCHECK
 70
     0
  9
$BLIPMODE
 70
     1
  9
$CHAMFERA
 40
0.0
  9
$CHAMFERB
 40
0.0
  9
$SKPOLY
 70
     0
  9
$TDCREATE
 40
2311940.0749266208
  9
$TDUPDATE
 40
2458942.429638796
  9
$TDINDWG
 40
0.0386594213
  9
$TDUSRTIMER
 40
0.0386572569
  9
$USRTIMER
 70
     1
  9
$ANGBASE
 50
0.0
  9
$ANGDIR
 70
     0
  9
$PDMODE
 70
     0
  9
$PDSIZE
 40
0.0
  9
$PLINEWID
 40
0.0
  9
$COORDS
 70
     1
  9
$SPLFRAME
 70
     0
  9
$SPLINETYPE
 70
     6
  9
$SPLINESEGS
 70
     8
  9
$ATTDIA
 70
     1
  9
$ATTREQ
 70
     1
  9
$HANDLING
 70
     1
  9
$HANDSEED
  5
5191
  9
$SURFTAB1
 70
     6
  9
$SURFTAB2
 70
     6
  9
$SURFTYPE
 70
     6
  9
$SURFU
 70
     6
  9
$SURFV
 70
     6
  9
$UCSNAME
  2

  9
$UCSORG
 10
0.0
 20
0.0
 30
0.0
  9
$UCSXDIR
 10
1.0
 20
0.0
 30
0.0
  9
$UCSYDIR
 10
0.0
 20
1.0
 30
0.0
  9
$PUCSNAME
  2

  9
$PUCSORG
 10
0.0
 20
0.0
 30
0.0
  9
$PUCSXDIR
 10
1.0
 20
0.0
 30
0.0
  9
$PUCSYDIR
 10
0.0
 20
1.0
 30
0.0
  9
$USERI1
 70
     0
  9
$USERI2
 70
     0
  9
$USERI3
 70
     0
  9
$USERI4
 70
     0
  9
$USERI5
 70
     0
  9
$USERR1
 40
0.0
  9
$USERR2
 40
0.0
  9
$USERR3
 40
0.0
  9
$USERR4
 40
0.0
  9
$USERR5
 40
0.0
  9
$WORLDVIEW
 70
     1
  9
$SHADEDGE
 70
     3
  9
$SHADEDIF
 70
    70
  9
$TILEMODE
 70
     1
  9
$MAXACTVP
 70
    16
  9
$PLIMCHECK
 70
     0
  9
$PEXTMIN
 10
1.0000000000000000E+020
 20
1.0000000000000000E+020
 30
1.0000000000000000E+020
  9
$PEXTMAX
 10
-1.0000000000000000E+020
 20
-1.0000000000000000E+020
 30
-1.0000000000000000E+020
  9
$PLIMMIN
 10
0.0
 20
0.0
  9
$PLIMMAX
 10
12.0
 20
9.0
  9
$UNITMODE
 70
     0
  9
$VISRETAIN
 70
     0
  9
$PLINEGEN
 70
     1
  9
$PSLTSCALE
 70
     0
  0
ENDSEC
  0
SECTION
  2
TABLES
  0
TABLE
  2
VPORT
 70
     1
  0
VPORT
  2
*ACTIVE
 70
     0
 10
0.0
 20
0.0
 11
1.0
 21
1.0
 12
16800.0
 22
11880.0
 13
0.0
 23
0.0
 14
1.0
 24
1.0
 15
0.0
 25
0.0
 16
0.0
 26
0.0
 36
1.0
 17
0.0
 27
0.0
 37
0.0
 40
23981.023255813951
 41
2.195652173913043
 42
50.0
 43
0.0
 44
0.0
 50
0.0
 51
0.0
 71
     0
 72
 10000
 73
     1
 74
     1
 75
     0
 76
     0
 77
     0
 78
     0
  0
ENDTAB
  0
TABLE
  2
LTYPE
 70
     3
  0
LTYPE
  2
CONTINUOUS
 70
     0
  3
Solid line
 72
    65
 73
     0
 40
0.0
  0
LTYPE
  2
DASHED3
 70
     0
  3
------  ------  ------  ------  
 72
    65
 73
     2
 40
5.0
 49
3.75
 49
-1.25
  0
LTYPE
  2
CENTER2
 70
     0
  3
----------  --  ----------  --  
 72
    65
 73
     4
 40
20.0
 49
12.5
 49
-2.5
 49
2.5
 49
-2.5
  0
ENDTAB
  0
TABLE
  2
LAYER
 70
    17
  0
LAYER
  2
0
 70
     0
 62
     7
  6
CONTINUOUS
  0
LAYER
  2
SUNPOU
 70
     0
 62
     4
  6
CONTINUOUS
  0
LAYER
  2
0-1
 70
     0
 62
     7
  6
CONTINUOUS
  0
LAYER
  2
0-2
 70
     0
 62
     7
  6
CONTINUOUS
  0
LAYER
  2
0-5
 70
     0
 62
     7
  6
CONTINUOUS
  0
LAYER
  2
2-0
 70
     0
 62
     7
  6
CONTINUOUS
  0
LAYER
  2
0-3
 70
     0
 62
     7
  6
CONTINUOUS
  0
LAYER
  2
YODOROGO
 70
     0
 62
   130
  6
CONTINUOUS
  0
LAYER
  2
WAKUSEN-01
 70
     0
 62
    50
  6
CONTINUOUS
  0
LAYER
  2
WAKUSEN-02
 70
     0
 62
   130
  6
CONTINUOUS
  0
LAYER
  2
WAKUMOJI-01
 70
     0
 62
   130
  6
CONTINUOUS
  0
LAYER
  2
FILENAME
 70
     0
 62
     7
  6
CONTINUOUS
  0
LAYER
  2
NAME
 70
     0
 62
    20
  6
CONTINUOUS
  0
LAYER
  2
0-4
 70
     0
 62
     7
  6
CONTINUOUS
  0
LAYER
  2
0-0
 70
     0
 62
     7
  6
CONTINUOUS
  0
ENDTAB
  0
TABLE
  2
STYLE
 70
     5
  0
STYLE
  2
STANDARD
 70
     0
 40
0.0
 41
1.0
 50
0.0
 71
     0
 42
0.0
  3
txt
  4
BIGFONT
  0
STYLE
  2
00
 70
     0
 40
0.0
 41
0.6666666666666666
 50
0.0
 71
     0
 42
0.2
  3
ROMANS
  4
BIGFONT
  0
STYLE
  2
01
 70
     0
 40
3.0
 41
1.0
 50
0.0
 71
     0
 42
0.2
  3
ROMANS
  4
BIGFONT
  0
STYLE
  2
WAKUMOJI
 70
     0
 40
3.0
 41
1.0
 50
0.0
 71
     0
 42
3.0
  3
SIMPLEX
  4
BIGFONT
  0
STYLE
  2
FILENAME
 70
     0
 40
200.0
 41
1.0
 50
0.0
 71
     0
 42
200.0
  3
romans
  4
bigfont
  0
ENDTAB
  0
TABLE
  2
VIEW
 70
     0
  0
ENDTAB
  0
TABLE
  2
UCS
 70
     0
  0
ENDTAB
  0
TABLE
  2
APPID
 70
    14
  0
APPID
  2
ACAD
 70
     0
  0
APPID
  2
ACADANNOTATIVE
 70
     0
  0
APPID
  2
ACAD_PSEXT
 70
     0
  0
APPID
  2
DCO15
 70
     0
  0
APPID
  2
ACAD_MLEADERVER
 70
     0
  0
APPID
  2
AUTOCAD_POSTSCRIPT_FIGURE
 70
     0
  0
APPID
  2
ACAD_EXEMPT_FROM_CAD_STANDARDS
 70
     0
  0
APPID
  2
ACLAYERTOOLS
 70
     0
  0
APPID
  2
ACAD_DSTYLE_DIMJAG
 70
     0
  0
APPID
  2
ACAD_DSTYLE_DIMTALN
 70
     0
  0
APPID
  2
ACAD_DSTYLE_DIM_LINETYPE
 70
     0
  0
APPID
  2
ACAD_DSTYLE_DIM_EXT1_LINETYPE
 70
     0
  0
APPID
  2
ACAD_DSTYLE_DIM_EXT2_LINETYPE
 70
     0
  0
APPID
  2
ACAD_NAV_VCDISPLAY
 70
     0
  0
ENDTAB
  0
TABLE
  2
DIMSTYLE
 70
     2
  0
DIMSTYLE
  2
SUNPOU
 70
     0
  3

  4

  5

  6

  7

 40
80.0
 41
3.0
 42
1.0
 43
0.38
 44
1.0
 45
0.5
 46
0.0
 47
0.0
 48
0.0
140
2.0
141
0.09
142
0.0
143
25.399999999999999
144
1.0
145
0.0
146
1.0
147
1.0
 71
     0
 72
     0
 73
     0
 74
     0
 75
     0
 76
     0
 77
     1
 78
     8
170
     0
171
     2
172
     1
173
     0
174
     0
175
     0
176
     4
177
     4
178
     7
  0
ENDTAB
  0
ENDSEC
  0
SECTION
  2
BLOCKS
  0
BLOCK
  8
0
  2
$MODEL_SPACE
 70
     0
 10
0.0
 20
0.0
 30
0.0
  3
$MODEL_SPACE
  1

  0
ENDBLK
  5
44C0
  8
0
  0
BLOCK
 67
     1
  8
0
  2
$PAPER_SPACE
 70
     0
 10
0.0
 20
0.0
 30
0.0
  3
$PAPER_SPACE
  1

  0
ENDBLK
  5
44BC
 67
     1
  8
0
  0
BLOCK
  8
0
  2
_DOTSMALL
 70
     0
 10
0.0
 20
0.0
 30
0.0
  3
_DOTSMALL
  1

  0
POLYLINE
  5
44F0
  8
0
  6
BYBLOCK
 62
     0
 66
     1
 10
0.0
 20
0.0
 30
0.0
 70
     1
 40
0.5
 41
0.5
  0
VERTEX
  5
5159
  8
0
  6
BYBLOCK
 62
     0
 10
-0.0625
 20
0.0
 30
0.0
 42
1.0
  0
VERTEX
  5
515A
  8
0
  6
BYBLOCK
 62
     0
 10
0.0625
 20
0.0
 30
0.0
 42
1.0
  0
SEQEND
  5
515B
  8
0
  6
BYBLOCK
 62
     0
  0
ENDBLK
  5
44F4
  8
0
  0
ENDSEC
  0
SECTION
  2
ENTITIES
  0
LINE
  5
44F5
  8
2-0
  6
CONTINUOUS
 62
     3
 10
7973.9060400000071
 20
18081.480312999978
 30
0.0
 11
8100.6481810000023
 21
18296.968725999981
 31
0.0
  0
LINE
  5
44F6
  8
2-0
  6
CONTINUOUS
 62
     3
 10
8709.1284390000019
 20
17359.01145799999
 30
0.0
 11
8835.8710750000027
 21
17574.505808999991
 31
0.0
  0
LINE
  5
44F7
  8
2-0
  6
CONTINUOUS
 62
     3
 10
8709.1284390000019
 20
17359.01145799999
 30
0.0
 11
8100.6481810000023
 21
18296.968725999981
 31
0.0
  0
LINE
  5
44F8
  8
2-0
  6
CONTINUOUS
 62
     3
 10
5138.878544000002
 20
13959.43609099999
 30
0.0
 11
5138.878544000002
 21
19221.37421099998
 31
0.0
  0
LINE
  5
44F9
  8
2-0
  6
CONTINUOUS
 62
     3
 10
5071.3754370000042
 20
19663.92924199998
 30
0.0
 11
5121.8774090000043
 21
19663.92924199998
 31
0.0
  0
LINE
  5
44FA
  8
2-0
  6
CONTINUOUS
 62
     3
 10
5071.3754370000042
 20
19686.43240899999
 30
0.0
 11
5053.3741890000028
 21
19686.43240899999
 31
0.0
  0
LINE
  5
44FB
  8
2-0
  6
CONTINUOUS
 62
     3
 10
5121.8774090000043
 20
19703.925414999991
 30
0.0
 11
5058.3798970000007
 21
19703.925414999991
 31
0.0
  0
LINE
  5
44FC
  8
2-0
  6
CONTINUOUS
 62
     3
 10
5126.8747040000053
 20
19668.927525999981
 30
0.0
 11
5126.8747040000053
 21
19698.925150999981
 31
0.0
  0
LINE
  5
44FD
  8
2-0
  6
CONTINUOUS
 62
     3
 10
14600.87660499999
 20
19703.925414999991
 30
0.0
 11
14664.38154100001
 21
19703.925414999991
 31
0.0
  0
LINE
  5
44FE
  8
2-0
  6
CONTINUOUS
 62
     3
 10
14651.38006300001
 20
19663.92924199998
 30
0.0
 11
14600.87660499999
 21
19663.92924199998
 31
0.0
  0
LINE
  5
44FF
  8
2-0
  6
CONTINUOUS
 62
     3
 10
14595.883269000011
 20
19668.927525999981
 30
0.0
 11
14595.883269000011
 21
19698.925150999981
 31
0.0
  0
LINE
  5
4500
  8
2-0
  6
CONTINUOUS
 62
     3
 10
14651.38006300001
 20
19686.43240899999
 30
0.0
 11
14669.379825
 21
19686.43240899999
 31
0.0
  0
LINE
  5
4501
  8
2-0
  6
CONTINUOUS
 62
     3
 10
8407.3785440000029
 20
14038.43075899999
 30
0.0
 11
8407.3785440000029
 21
13959.43411099997
 31
0.0
  0
LINE
  5
4502
  8
2-0
  6
CONTINUOUS
 62
     3
 10
8464.3812560000006
 20
16947.93565499999
 30
0.0
 11
8464.3812560000006
 21
17736.28988299999
 31
0.0
  0
LINE
  5
4503
  8
2-0
  6
CONTINUOUS
 62
     3
 10
8350.3773170000022
 20
16947.93565499999
 30
0.0
 11
8350.3773170000022
 21
17912.017685999981
 31
0.0
  0
LINE
  5
4504
  8
2-0
  6
CONTINUOUS
 62
     3
 10
8407.3785440000029
 20
16947.93565499999
 30
0.0
 11
8407.3785440000029
 21
17824.152794999991
 31
0.0
  0
LINE
  5
4505
  8
2-0
  6
CONTINUOUS
 62
     3
 10
8407.3785440000029
 20
16868.935047999981
 30
0.0
 11
8407.3785440000029
 21
16947.93565499999
 31
0.0
  0
LINE
  5
4506
  8
2-0
  6
CONTINUOUS
 62
     3
 10
8322.3755419999961
 20
19645.92354099996
 30
0.0
 11
8322.3755419999961
 21
19693.930824999989
 31
0.0
  0
LINE
  5
4507
  8
2-0
  6
CONTINUOUS
 62
     3
 10
8407.3785440000029
 20
13959.43411099997
 30
0.0
 11
8407.3785440000029
 21
13803.437159999979
 31
0.0
  0
LINE
  5
4508
  8
2-0
  6
CONTINUOUS
 62
     6
 10
7281.7683580000003
 20
17101.766023999979
 30
0.0
 11
7220.6175650000023
 21
17273.027108999991
 31
0.0
  0
LINE
  5
4509
  8
2-0
  6
CONTINUOUS
 62
     6
 10
6917.6176039999991
 20
19421.652002999981
 30
0.0
 11
7061.523161000001
 21
19933.925677999989
 31
0.0
  0
LINE
  5
450A
  8
2-0
  6
CONTINUOUS
 62
     6
 10
6504.4727760000033
 20
19527.429557999982
 30
0.0
 11
6210.5479180000002
 21
19933.925677999989
 31
0.0
  0
LINE
  5
450B
  8
2-0
  6
CONTINUOUS
 62
     6
 10
7061.523161000001
 20
19933.925677999989
 30
0.0
 11
7579.210325
 21
19933.925677999989
 31
0.0
  0
LINE
  5
450C
  8
2-0
  6
CONTINUOUS
 62
     6
 10
6451.2118489999993
 20
19823.832772999991
 30
0.0
 11
6242.0183050000023
 21
20186.165833999989
 31
0.0
  0
LINE
  5
450D
  8
2-0
  6
CONTINUOUS
 62
     6
 10
6168.0080640000033
 20
20314.351538999981
 30
0.0
 11
5971.9491200000011
 21
20653.937950999982
 31
0.0
  0
LINE
  5
450E
  8
2-0
  6
CONTINUOUS
 62
     6
 10
5971.9491200000011
 20
20653.937950999982
 30
0.0
 11
6814.3891739999999
 21
20653.937950999982
 31
0.0
  0
LINE
  5
450F
  8
2-0
  6
CONTINUOUS
 62
     6
 10
5410.5527020000009
 20
19933.925677999989
 30
0.0
 11
6210.5479180000002
 21
19933.925677999989
 31
0.0
  0
LINE
  5
4510
  8
2-0
  6
CONTINUOUS
 62
     6
 10
6420.0482880000018
 20
17273.027108999991
 30
0.0
 11
7220.6175650000023
 21
17273.027108999991
 31
0.0
  0
LINE
  5
4511
  8
2-0
  6
CONTINUOUS
 62
     6
 10
5303.4057360000043
 20
18060.048064999992
 30
0.0
 11
5833.9064030000009
 21
18060.048064999992
 31
0.0
  0
LINE
  5
4512
  8
2-0
  6
CONTINUOUS
 62
     6
 10
6299.7603670000017
 20
14190.329116999979
 30
0.0
 11
6382.6512229999989
 21
14367.266405999981
 31
0.0
  0
LINE
  5
4513
  8
2-0
  6
CONTINUOUS
 62
     6
 10
6382.6512229999989
 20
14367.266405999981
 30
0.0
 11
7182.6479240000008
 21
14367.266405999981
 31
0.0
  0
LINE
  5
4514
  8
2-0
  6
CONTINUOUS
 62
     6
 10
7290.1699289999979
 20
13003.433529999949
 30
0.0
 11
8152.7545540000028
 21
13003.433529999949
 31
0.0
  0
LINE
  5
4515
  8
2-0
  6
CONTINUOUS
 62
     6
 10
6884.0603100000017
 20
13666.96518999999
 30
0.0
 11
7290.1699289999979
 21
13003.433529999949
 31
0.0
  0
LINE
  5
4516
  8
2-0
  6
CONTINUOUS
 62
     6
 10
3322.9736069999999
 20
12603.437159999979
 30
0.0
 11
4402.9771709999977
 21
12603.437159999979
 31
0.0
  0
LINE
  5
4517
  8
2-0
  6
CONTINUOUS
 62
     6
 10
4961.4842339999996
 20
14383.706307999981
 30
0.0
 11
4402.9771709999977
 21
12603.437159999979
 31
0.0
  0
LINE
  5
4518
  8
2-0
  6
CONTINUOUS
 62
     6
 10
5204.3669580000042
 20
18280.841588999989
 30
0.0
 11
5303.4057360000043
 21
18060.048064999992
 31
0.0
  0
LINE
  5
4519
  8
2-0
  6
CONTINUOUS
 62
     6
 10
6514.1763760000013
 20
16406.489814999979
 30
0.0
 11
7394.1738359999999
 21
16406.489814999979
 31
0.0
  0
LINE
  5
451A
  8
2-0
  6
CONTINUOUS
 62
     6
 10
6302.9073070000013
 20
16204.42649699998
 30
0.0
 11
6514.1763760000013
 21
16406.489814999979
 31
0.0
  0
LINE
  5
451B
  8
2-0
  6
CONTINUOUS
 62
     6
 10
12358.663912
 20
20653.937950999982
 30
0.0
 11
14033.662261999991
 21
20653.937950999982
 31
0.0
  0
LINE
  5
451C
  8
2-0
  6
CONTINUOUS
 62
     6
 10
14223.944475
 20
20324.34612799999
 30
0.0
 11
14033.662261999991
 21
20653.937950999982
 31
0.0
  0
LINE
  5
451D
  8
2-0
  6
CONTINUOUS
 62
     6
 10
14517.64572699999
 20
19833.841218999991
 30
0.0
 11
14308.45713200001
 21
20196.16240199998
 31
0.0
  0
LINE
  5
451E
  8
2-0
  6
CONTINUOUS
 62
     6
 10
8350.3773170000022
 20
15190.30823999998
 30
0.0
 11
8085.1901210000015
 21
15559.261800999981
 31
0.0
  0
LINE
  5
451F
  8
2-0
  6
CONTINUOUS
 62
     6
 10
7838.956814000001
 20
15559.261800999981
 30
0.0
 11
8085.1901210000015
 21
15559.261800999981
 31
0.0
  0
LINE
  5
4520
  8
2-0
  6
CONTINUOUS
 62
     6
 10
4986.9272340000034
 20
14375.72686899998
 30
0.0
 11
5009.3799230000041
 21
14536.37172999995
 31
0.0
  0
LINE
  5
4521
  8
2-0
  6
CONTINUOUS
 62
     6
 10
5009.3799230000041
 20
14536.37172999995
 30
0.0
 11
4936.0414820000024
 21
14391.69069599998
 31
0.0
  0
LINE
  5
4522
  8
2-0
  6
CONTINUOUS
 62
     6
 10
5009.3799230000041
 20
14536.37172999995
 30
0.0
 11
4986.9272340000034
 21
14375.72686899998
 31
0.0
  0
LINE
  5
4523
  8
2-0
  6
CONTINUOUS
 62
     6
 10
4986.9272340000034
 20
14375.72686899998
 30
0.0
 11
4936.0414820000024
 21
14391.69069599998
 31
0.0
  0
LINE
  5
4524
  8
2-0
  6
CONTINUOUS
 62
     6
 10
4936.0414820000024
 20
14391.69069599998
 30
0.0
 11
5009.3799230000041
 21
14536.37172999995
 31
0.0
  0
LINE
  5
4525
  8
2-0
  6
CONTINUOUS
 62
     6
 10
4936.0414820000024
 20
14391.69069599998
 30
0.0
 11
4986.9272340000034
 21
14375.72686899998
 31
0.0
  0
LINE
  5
4526
  8
2-0
  6
CONTINUOUS
 62
     6
 10
6275.6137040000021
 20
14201.637116999949
 30
0.0
 11
6231.8896029999987
 21
14045.435285999971
 31
0.0
  0
LINE
  5
4527
  8
2-0
  6
CONTINUOUS
 62
     6
 10
6231.8896029999987
 20
14045.435285999971
 30
0.0
 11
6323.9099990000041
 21
14179.01616899998
 31
0.0
  0
LINE
  5
4528
  8
2-0
  6
CONTINUOUS
 62
     6
 10
6231.8896029999987
 20
14045.435285999971
 30
0.0
 11
6275.6137040000021
 21
14201.637116999949
 31
0.0
  0
LINE
  5
4529
  8
2-0
  6
CONTINUOUS
 62
     6
 10
6275.6137040000021
 20
14201.637116999949
 30
0.0
 11
6323.9099990000041
 21
14179.01616899998
 31
0.0
  0
LINE
  5
452A
  8
2-0
  6
CONTINUOUS
 62
     6
 10
6323.9099990000041
 20
14179.01616899998
 30
0.0
 11
6231.8896029999987
 21
14045.435285999971
 31
0.0
  0
LINE
  5
452B
  8
2-0
  6
CONTINUOUS
 62
     6
 10
6323.9099990000041
 20
14179.01616899998
 30
0.0
 11
6275.6137040000021
 21
14201.637116999949
 31
0.0
  0
LINE
  5
452C
  8
2-0
  6
CONTINUOUS
 62
     6
 10
6906.8044840000039
 20
13680.890112999979
 30
0.0
 11
6800.5300700000053
 21
13803.437159999979
 31
0.0
  0
LINE
  5
452D
  8
2-0
  6
CONTINUOUS
 62
     6
 10
6800.5300700000053
 20
13803.437159999979
 30
0.0
 11
6861.3151470000021
 21
13653.04521499998
 31
0.0
  0
LINE
  5
452E
  8
2-0
  6
CONTINUOUS
 62
     6
 10
6800.5300700000053
 20
13803.437159999979
 30
0.0
 11
6906.8044840000039
 21
13680.890112999979
 31
0.0
  0
LINE
  5
452F
  8
2-0
  6
CONTINUOUS
 62
     6
 10
6906.8044840000039
 20
13680.890112999979
 30
0.0
 11
6861.3151470000021
 21
13653.04521499998
 31
0.0
  0
LINE
  5
4530
  8
2-0
  6
CONTINUOUS
 62
     6
 10
6861.3151470000021
 20
13653.04521499998
 30
0.0
 11
6800.5300700000053
 21
13803.437159999979
 31
0.0
  0
LINE
  5
4531
  8
2-0
  6
CONTINUOUS
 62
     6
 10
6861.3151470000021
 20
13653.04521499998
 30
0.0
 11
6906.8044840000039
 21
13680.890112999979
 31
0.0
  0
LINE
  5
4532
  8
2-0
  6
CONTINUOUS
 62
     6
 10
8278.0006740000026
 20
15335.47326599999
 30
0.0
 11
8350.3773170000022
 21
15190.30823999998
 31
0.0
  0
LINE
  5
4533
  8
2-0
  6
CONTINUOUS
 62
     6
 10
8350.3773170000022
 20
15190.30823999998
 30
0.0
 11
8234.8308380000017
 21
15304.15431299999
 31
0.0
  0
LINE
  5
4534
  8
2-0
  6
CONTINUOUS
 62
     6
 10
8350.3773170000022
 20
15190.30823999998
 30
0.0
 11
8278.0006740000026
 21
15335.47326599999
 31
0.0
  0
LINE
  5
4535
  8
2-0
  6
CONTINUOUS
 62
     6
 10
8278.0006740000026
 20
15335.47326599999
 30
0.0
 11
8234.8308380000017
 21
15304.15431299999
 31
0.0
  0
LINE
  5
4536
  8
2-0
  6
CONTINUOUS
 62
     6
 10
8234.8308380000017
 20
15304.15431299999
 30
0.0
 11
8350.3773170000022
 21
15190.30823999998
 31
0.0
  0
LINE
  5
4537
  8
2-0
  6
CONTINUOUS
 62
     6
 10
8234.8308380000017
 20
15304.15431299999
 30
0.0
 11
8278.0006740000026
 21
15335.47326599999
 31
0.0
  0
LINE
  5
4538
  8
2-0
  6
CONTINUOUS
 62
     6
 10
6284.4720500000003
 20
16223.69908899998
 30
0.0
 11
6187.2781830000022
 21
16093.840690999979
 31
0.0
  0
LINE
  5
4539
  8
2-0
  6
CONTINUOUS
 62
     6
 10
6187.2781830000022
 20
16093.840690999979
 30
0.0
 11
6321.3371200000001
 21
16185.159841999979
 31
0.0
  0
LINE
  5
453A
  8
2-0
  6
CONTINUOUS
 62
     6
 10
6187.2781830000022
 20
16093.840690999979
 30
0.0
 11
6284.4720500000003
 21
16223.69908899998
 31
0.0
  0
LINE
  5
453B
  8
2-0
  6
CONTINUOUS
 62
     6
 10
6284.4720500000003
 20
16223.69908899998
 30
0.0
 11
6321.3371200000001
 21
16185.159841999979
 31
0.0
  0
LINE
  5
453C
  8
2-0
  6
CONTINUOUS
 62
     6
 10
6321.3371200000001
 20
16185.159841999979
 30
0.0
 11
6187.2781830000022
 21
16093.840690999979
 31
0.0
  0
LINE
  5
453D
  8
2-0
  6
CONTINUOUS
 62
     6
 10
6321.3371200000001
 20
16185.159841999979
 30
0.0
 11
6284.4720500000003
 21
16223.69908899998
 31
0.0
  0
LINE
  5
453E
  8
2-0
  6
CONTINUOUS
 62
     6
 10
7307.3996590000024
 20
17109.096180999979
 30
0.0
 11
7325.765138000007
 21
16947.93565499999
 31
0.0
  0
LINE
  5
453F
  8
2-0
  6
CONTINUOUS
 62
     6
 10
7325.765138000007
 20
16947.93565499999
 30
0.0
 11
7256.1266640000031
 21
17094.427947999979
 31
0.0
  0
LINE
  5
4540
  8
2-0
  6
CONTINUOUS
 62
     6
 10
7325.765138000007
 20
16947.93565499999
 30
0.0
 11
7307.3996590000024
 21
17109.096180999979
 31
0.0
  0
LINE
  5
4541
  8
2-0
  6
CONTINUOUS
 62
     6
 10
7307.3996590000024
 20
17109.096180999979
 30
0.0
 11
7256.1266640000031
 21
17094.427947999979
 31
0.0
  0
LINE
  5
4542
  8
2-0
  6
CONTINUOUS
 62
     6
 10
7256.1266640000031
 20
17094.427947999979
 30
0.0
 11
7325.765138000007
 21
16947.93565499999
 31
0.0
  0
LINE
  5
4543
  8
2-0
  6
CONTINUOUS
 62
     6
 10
7256.1266640000031
 20
17094.427947999979
 30
0.0
 11
7307.3996590000024
 21
17109.096180999979
 31
0.0
  0
LINE
  5
4544
  8
2-0
  6
CONTINUOUS
 62
     6
 10
5228.6952410000013
 20
18291.754673999982
 30
0.0
 11
5138.878544000002
 21
18426.823165999991
 31
0.0
  0
LINE
  5
4545
  8
2-0
  6
CONTINUOUS
 62
     6
 10
5138.878544000002
 20
18426.823165999991
 30
0.0
 11
5180.0272919999989
 21
18269.92454399999
 31
0.0
  0
LINE
  5
4546
  8
2-0
  6
CONTINUOUS
 62
     6
 10
5138.878544000002
 20
18426.823165999991
 30
0.0
 11
5228.6952410000013
 21
18291.754673999982
 31
0.0
  0
LINE
  5
4547
  8
2-0
  6
CONTINUOUS
 62
     6
 10
5228.6952410000013
 20
18291.754673999982
 30
0.0
 11
5180.0272919999989
 21
18269.92454399999
 31
0.0
  0
LINE
  5
4548
  8
2-0
  6
CONTINUOUS
 62
     6
 10
5180.0272919999989
 20
18269.92454399999
 30
0.0
 11
5138.878544000002
 21
18426.823165999991
 31
0.0
  0
LINE
  5
4549
  8
2-0
  6
CONTINUOUS
 62
     6
 10
5180.0272919999989
 20
18269.92454399999
 30
0.0
 11
5228.6952410000013
 21
18291.754673999982
 31
0.0
  0
LINE
  5
454A
  8
2-0
  6
CONTINUOUS
 62
     6
 10
6429.5638340000032
 20
19811.33409299999
 30
0.0
 11
6526.2078900000024
 21
19693.930824999989
 31
0.0
  0
LINE
  5
454B
  8
2-0
  6
CONTINUOUS
 62
     6
 10
6526.2078900000024
 20
19693.930824999989
 30
0.0
 11
6472.8598639999991
 21
19836.335411999949
 31
0.0
  0
LINE
  5
454C
  8
2-0
  6
CONTINUOUS
 62
     6
 10
6526.2078900000024
 20
19693.930824999989
 30
0.0
 11
6429.5638340000032
 21
19811.33409299999
 31
0.0
  0
LINE
  5
454D
  8
2-0
  6
CONTINUOUS
 62
     6
 10
6429.5638340000032
 20
19811.33409299999
 30
0.0
 11
6472.8598639999991
 21
19836.335411999949
 31
0.0
  0
LINE
  5
454E
  8
2-0
  6
CONTINUOUS
 62
     6
 10
6472.8598639999991
 20
19836.335411999949
 30
0.0
 11
6526.2078900000024
 21
19693.930824999989
 31
0.0
  0
LINE
  5
454F
  8
2-0
  6
CONTINUOUS
 62
     6
 10
6472.8598639999991
 20
19836.335411999949
 30
0.0
 11
6429.5638340000032
 21
19811.33409299999
 31
0.0
  0
LINE
  5
4550
  8
2-0
  6
CONTINUOUS
 62
     6
 10
6397.7757339999989
 20
19649.601485999989
 30
0.0
 11
6504.4727760000033
 21
19527.429557999982
 31
0.0
  0
LINE
  5
4551
  8
2-0
  6
CONTINUOUS
 62
     6
 10
6504.4727760000033
 20
19527.429557999982
 30
0.0
 11
6443.1685700000007
 21
19677.603755999949
 31
0.0
  0
LINE
  5
4552
  8
2-0
  6
CONTINUOUS
 62
     6
 10
6504.4727760000033
 20
19527.429557999982
 30
0.0
 11
6397.7757339999989
 21
19649.601485999989
 31
0.0
  0
LINE
  5
4553
  8
2-0
  6
CONTINUOUS
 62
     6
 10
6397.7757339999989
 20
19649.601485999989
 30
0.0
 11
6443.1685700000007
 21
19677.603755999949
 31
0.0
  0
LINE
  5
4554
  8
2-0
  6
CONTINUOUS
 62
     6
 10
6443.1685700000007
 20
19677.603755999949
 30
0.0
 11
6504.4727760000033
 21
19527.429557999982
 31
0.0
  0
LINE
  5
4555
  8
2-0
  6
CONTINUOUS
 62
     6
 10
6443.1685700000007
 20
19677.603755999949
 30
0.0
 11
6397.7757339999989
 21
19649.601485999989
 31
0.0
  0
LINE
  5
4556
  8
2-0
  6
CONTINUOUS
 62
     6
 10
6891.7339140000013
 20
19428.051786999989
 30
0.0
 11
6879.2337489999991
 21
19266.32511899999
 31
0.0
  0
LINE
  5
4557
  8
2-0
  6
CONTINUOUS
 62
     6
 10
6879.2337489999991
 20
19266.32511899999
 30
0.0
 11
6943.5111919999972
 21
19415.258157999971
 31
0.0
  0
LINE
  5
4558
  8
2-0
  6
CONTINUOUS
 62
     6
 10
6879.2337489999991
 20
19266.32511899999
 30
0.0
 11
6891.7339140000013
 21
19428.051786999989
 31
0.0
  0
LINE
  5
4559
  8
2-0
  6
CONTINUOUS
 62
     6
 10
7091.7350690000021
 20
19428.051786999989
 30
0.0
 11
7143.512346999999
 21
19415.258157999971
 31
0.0
  0
LINE
  5
455A
  8
2-0
  6
CONTINUOUS
 62
     6
 10
6943.5111919999972
 20
19415.258157999971
 30
0.0
 11
6879.2337489999991
 21
19266.32511899999
 31
0.0
  0
LINE
  5
455B
  8
2-0
  6
CONTINUOUS
 62
     6
 10
7143.512346999999
 20
19415.258157999971
 30
0.0
 11
7091.7350690000021
 21
19428.051786999989
 31
0.0
  0
LINE
  5
455C
  8
2-0
  6
CONTINUOUS
 62
     6
 10
14495.997712
 20
19821.334620999991
 30
0.0
 11
14592.64572699999
 21
19703.925414999991
 31
0.0
  0
LINE
  5
455D
  8
2-0
  6
CONTINUOUS
 62
     6
 10
14592.64572699999
 20
19703.925414999991
 30
0.0
 11
14539.293741999991
 21
19846.33593999999
 31
0.0
  0
LINE
  5
455E
  8
2-0
  6
CONTINUOUS
 62
     6
 10
14592.64572699999
 20
19703.925414999991
 30
0.0
 11
14495.997712
 21
19821.334620999991
 31
0.0
  0
LINE
  5
455F
  8
2-0
  6
CONTINUOUS
 62
     6
 10
14495.997712
 20
19821.334620999991
 30
0.0
 11
14539.293741999991
 21
19846.33593999999
 31
0.0
  0
LINE
  5
4560
  8
2-0
  6
CONTINUOUS
 62
     6
 10
14539.293741999991
 20
19846.33593999999
 30
0.0
 11
14592.64572699999
 21
19703.925414999991
 31
0.0
  0
LINE
  5
4561
  8
2-0
  6
CONTINUOUS
 62
     6
 10
14539.293741999991
 20
19846.33593999999
 30
0.0
 11
14495.997712
 21
19821.334620999991
 31
0.0
  0
LINE
  5
4562
  8
2-0
  6
DASHED3
 62
     6
 10
5138.878544000002
 20
19571.374870999982
 30
0.0
 11
5138.878544000002
 21
19877.43021799999
 31
0.0
  0
LINE
  5
4563
  8
2-0
  6
DASHED3
 62
     6
 10
14583.878438999989
 20
16422.824801999981
 30
0.0
 11
14583.878438999989
 21
19527.429557999982
 31
0.0
  0
LINE
  5
4564
  8
2-0
  6
DASHED3
 62
     6
 10
10941.745295999959
 20
16594.941962999979
 30
0.0
 11
11245.377712999991
 21
16913.935443999992
 31
0.0
  0
LINE
  5
4565
  8
2-0
  6
DASHED3
 62
     6
 10
8407.3785440000029
 20
17824.152794999991
 30
0.0
 11
8407.3785440000029
 21
19645.92551999999
 31
0.0
  0
LINE
  5
4566
  8
2-0
  6
CONTINUOUS
 62
     3
 10
11315.378439
 20
14038.43075899999
 30
0.0
 11
11315.378439
 21
13959.43411099997
 31
0.0
  0
LINE
  5
4567
  8
2-0
  6
DASHED3
 62
     6
 10
11258.376222000001
 20
16868.935047999981
 30
0.0
 11
11258.376222000001
 21
16449.085095999992
 31
0.0
  0
LINE
  5
4568
  8
2-0
  6
DASHED3
 62
     6
 10
11372.381646
 20
16868.935047999981
 30
0.0
 11
11372.381646
 21
16396.57044699998
 31
0.0
  0
LINE
  5
4569
  8
2-0
  6
CONTINUOUS
 62
     3
 10
14583.878438999989
 20
13959.43609099999
 30
0.0
 11
14583.878438999989
 21
15083.262803999991
 31
0.0
  0
LINE
  5
456A
  8
2-0
  6
DASHED3
 62
     6
 10
14583.878438999989
 20
15083.262803999991
 30
0.0
 11
14583.878438999989
 21
16422.824801999981
 31
0.0
  0
LINE
  5
456B
  8
2-0
  6
CONTINUOUS
 62
     3
 10
10265.375469000001
 20
17191.495620999969
 30
0.0
 11
10019.535098
 21
17386.43372799996
 31
0.0
  0
LINE
  5
456C
  8
2-0
  6
CONTINUOUS
 62
     3
 10
10019.535098
 20
16307.05661699998
 30
0.0
 11
9659.4260260000028
 21
16578.686156999989
 31
0.0
  0
LINE
  5
456D
  8
2-0
  6
CONTINUOUS
 62
     3
 10
9877.4076430000041
 20
17108.36771799999
 30
0.0
 11
9719.5350980000057
 21
17236.950382999981
 31
0.0
  0
LINE
  5
456E
  8
2-0
  6
CONTINUOUS
 62
     3
 10
9719.5350980000057
 20
16157.571291999981
 30
0.0
 11
9271.4581999999955
 21
16495.550334999982
 31
0.0
  0
LINE
  5
456F
  8
2-0
  6
CONTINUOUS
 62
     3
 10
9659.4260260000028
 20
16578.686156999989
 30
0.0
 11
10265.375469000001
 21
17191.495620999969
 31
0.0
  0
LINE
  5
4570
  8
2-0
  6
CONTINUOUS
 62
     3
 10
9877.4076430000041
 20
17108.36771799999
 30
0.0
 11
9271.4581999999955
 21
16495.550334999982
 31
0.0
  0
LINE
  5
4571
  8
2-0
  6
CONTINUOUS
 62
     3
 10
9719.5350980000057
 20
16157.571291999981
 30
0.0
 11
9719.5350980000057
 21
13676.115513999979
 31
0.0
  0
LINE
  5
4572
  8
2-0
  6
CONTINUOUS
 62
     3
 10
10019.535098
 20
16307.05661699998
 30
0.0
 11
10019.535098
 21
13676.115513999979
 31
0.0
  0
LINE
  5
4573
  8
2-0
  6
CONTINUOUS
 62
     3
 10
9861.692245000002
 20
17092.466244999981
 30
0.0
 11
8835.8710750000027
 21
17574.505808999991
 31
0.0
  0
LINE
  5
4574
  8
2-0
  6
CONTINUOUS
 62
     3
 10
10024.544269999989
 20
16947.93565499999
 30
0.0
 11
10175.44989899999
 21
16947.93565499999
 31
0.0
  0
LINE
  5
4575
  8
2-0
  6
CONTINUOUS
 62
     3
 10
9946.4275180000004
 20
16868.935047999981
 30
0.0
 11
10346.952419999991
 21
16868.935047999981
 31
0.0
  0
LINE
  5
4576
  8
2-0
  6
CONTINUOUS
 62
     3
 10
7973.9060400000071
 20
18081.480312999978
 30
0.0
 11
5018.7475000000049
 21
19437.933543999981
 31
0.0
  0
LINE
  5
4577
  8
2-0
  6
DASHED3
 62
     6
 10
5138.878544000002
 20
19442.427050999981
 30
0.0
 11
9719.5350980000057
 21
19442.427050999981
 31
0.0
  0
LINE
  5
4578
  8
2-0
  6
DASHED3
 62
     6
 10
5096.3777860000046
 20
19527.429557999982
 30
0.0
 11
9719.5350980000057
 21
19527.429557999982
 31
0.0
  0
LINE
  5
4579
  8
2-0
  6
CONTINUOUS
 62
     3
 10
5126.8747040000062
 20
19693.930824999989
 30
0.0
 11
9719.5350980000057
 21
19693.930824999989
 31
0.0
  0
LINE
  5
457A
  8
2-0
  6
CONTINUOUS
 62
     3
 10
5191.8722360000011
 20
16947.93565499999
 30
0.0
 11
9718.7779320000045
 21
16947.93565499999
 31
0.0
  0
LINE
  5
457B
  8
2-0
  6
CONTINUOUS
 62
     3
 10
5191.8722360000011
 20
16868.935047999981
 30
0.0
 11
9640.6621699999996
 21
16868.935047999981
 31
0.0
  0
LINE
  5
457C
  8
2-0
  6
CONTINUOUS
 62
     3
 10
5191.8722360000011
 20
14038.43075899999
 30
0.0
 11
9719.5350980000057
 21
14038.43075899999
 31
0.0
  0
LINE
  5
457D
  8
2-0
  6
CONTINUOUS
 62
     3
 10
5096.3777860000046
 20
13959.43411099997
 30
0.0
 11
9719.5350980000057
 21
13959.43411099997
 31
0.0
  0
LINE
  5
457E
  8
2-0
  6
CONTINUOUS
 62
     3
 10
5056.3741890000019
 20
13803.437159999979
 30
0.0
 11
9719.5350980000057
 21
13803.437159999979
 31
0.0
  0
LINE
  5
457F
  8
2-0
  6
CONTINUOUS
 62
     3
 10
5056.3741890000019
 20
13835.440035999971
 30
0.0
 11
9719.5350980000057
 21
13835.440035999971
 31
0.0
  0
LINE
  5
4580
  8
2-0
  6
CONTINUOUS
 62
     3
 10
5071.3754370000042
 20
19645.92354099996
 30
0.0
 11
9719.5350980000057
 21
19645.92354099996
 31
0.0
  0
LINE
  5
4581
  8
2-0
  6
CENTER2
 62
     6
 10
3809.376954000003
 20
19481.435443999981
 30
0.0
 11
5816.3777660000023
 21
19481.435443999981
 31
0.0
  0
LINE
  5
4582
  8
2-0
  6
CENTER2
 62
     6
 10
3809.376954000003
 20
16913.935443999992
 30
0.0
 11
5816.3777660000023
 21
16913.935443999992
 31
0.0
  0
LINE
  5
4583
  8
2-0
  6
CENTER2
 62
     6
 10
3809.376954000003
 20
13995.935443999981
 30
0.0
 11
5816.3777660000023
 21
13995.935443999981
 31
0.0
  0
LINE
  5
4584
  8
2-0
  6
CONTINUOUS
 62
     3
 10
9719.5350980000057
 20
17236.950382999981
 30
0.0
 11
9719.5350980000057
 21
19850.11898052668
 31
0.0
  0
LINE
  5
4585
  8
2-0
  6
CONTINUOUS
 62
     3
 10
10019.535098
 20
17386.43372799996
 30
0.0
 11
10019.535098
 21
19850.11898052668
 31
0.0
  0
LINE
  5
4586
  8
2-0
  6
DASHED3
 62
     6
 10
11245.377712999991
 20
16913.935443999992
 30
0.0
 11
10019.535098
 21
18211.277346999981
 31
0.0
  0
LINE
  5
4587
  8
2-0
  6
DASHED3
 62
     6
 10
9719.5350980000057
 20
18176.449696999989
 30
0.0
 11
8477.378775000001
 21
19481.435443999981
 31
0.0
  0
LINE
  5
4588
  8
2-0
  6
CONTINUOUS
 62
     3
 10
8477.378775000001
 20
16913.935443999992
 30
0.0
 11
9017.4785430000029
 21
17490.849374999991
 31
0.0
  0
LINE
  5
4589
  8
2-0
  6
DASHED3
 62
     6
 10
9017.4785430000029
 20
17490.851353999991
 30
0.0
 11
9719.5350980000057
 21
18228.410079999951
 31
0.0
  0
LINE
  5
458A
  8
2-0
  6
DASHED3
 62
     6
 10
10019.535098
 20
18193.58836799999
 30
0.0
 11
11250.97678099999
 21
19487.31065499999
 31
0.0
  0
LINE
  5
458B
  8
2-0
  6
CONTINUOUS
 62
     3
 10
10019.535098
 20
19693.930824999989
 30
0.0
 11
14595.883269
 21
19693.930824999981
 31
0.0
  0
LINE
  5
458C
  8
2-0
  6
CONTINUOUS
 62
     3
 10
10019.535098
 20
19645.92354099996
 30
0.0
 11
14651.38006300001
 21
19645.92354099996
 31
0.0
  0
LINE
  5
458D
  8
2-0
  6
DASHED3
 62
     6
 10
10019.535098
 20
19527.429557999982
 30
0.0
 11
14626.379693000001
 21
19527.429557999982
 31
0.0
  0
LINE
  5
458E
  8
2-0
  6
DASHED3
 62
     6
 10
10019.535098
 20
19442.427050999981
 30
0.0
 11
14583.878438999989
 21
19442.427050999981
 31
0.0
  0
LINE
  5
458F
  8
2-0
  6
DASHED3
 62
     6
 10
10175.44989899999
 20
16947.93565499999
 30
0.0
 11
14583.878438999989
 21
16947.93565499999
 31
0.0
  0
LINE
  5
4590
  8
2-0
  6
DASHED3
 62
     6
 10
10346.952419999991
 20
16868.935047999981
 30
0.0
 11
14583.878438999989
 21
16868.935047999981
 31
0.0
  0
LINE
  5
4591
  8
2-0
  6
CENTER2
 62
     6
 10
13906.381197000001
 20
16913.935443999992
 30
0.0
 11
14820.240876
 21
16913.935443999992
 31
0.0
  0
LINE
  5
4592
  8
2-0
  6
CENTER2
 62
     6
 10
13906.381197000001
 20
13995.935443999981
 30
0.0
 11
14816.24422800001
 21
13995.935443999981
 31
0.0
  0
LINE
  5
4593
  8
2-0
  6
CONTINUOUS
 62
     3
 10
10019.535098
 20
13959.43411099997
 30
0.0
 11
14626.379693000001
 21
13959.43411099997
 31
0.0
  0
LINE
  5
4594
  8
2-0
  6
CONTINUOUS
 62
     3
 10
10019.535098
 20
14038.43075899999
 30
0.0
 11
14583.878438999989
 21
14038.43075899999
 31
0.0
  0
LINE
  5
4595
  8
2-0
  6
CONTINUOUS
 62
     3
 10
10019.535098
 20
13835.440035999971
 30
0.0
 11
14666.379825
 21
13835.440035999971
 31
0.0
  0
LINE
  5
4596
  8
2-0
  6
CONTINUOUS
 62
     3
 10
10019.535098
 20
13803.437159999979
 30
0.0
 11
14666.379825
 21
13803.437159999979
 31
0.0
  0
LINE
  5
4597
  8
2-0
  6
CONTINUOUS
 62
     3
 10
12388.872355
 20
15928.32324499999
 30
0.0
 11
12388.872355
 21
16043.648017999951
 31
0.0
  0
LINE
  5
4598
  8
2-0
  6
CONTINUOUS
 62
     3
 10
14778.248358999999
 20
14832.493430999961
 30
0.0
 11
10071.763706
 21
16995.695499999951
 31
0.0
  0
LINE
  5
4599
  8
2-0
  6
DASHED3
 62
     6
 10
14626.379693000001
 20
14902.44961699996
 30
0.0
 11
14626.379693000001
 21
16403.25132199996
 31
0.0
  0
LINE
  5
459A
  8
2-0
  6
CONTINUOUS
 62
     3
 10
5071.3754370000042
 20
19412.31065499999
 30
0.0
 11
5071.3754370000042
 21
19686.43240899999
 31
0.0
  0
LINE
  5
459B
  8
2-0
  6
CONTINUOUS
 62
     3
 10
5053.3741890000028
 20
19686.43240899999
 30
0.0
 11
5053.3741890000028
 21
19698.925150999981
 31
0.0
  0
LINE
  5
459C
  8
2-0
  6
DASHED3
 62
     6
 10
5096.3777860000046
 20
19402.171560999981
 30
0.0
 11
5096.3777860000046
 21
19527.429557999982
 31
0.0
  0
LINE
  5
459D
  8
2-0
  6
CONTINUOUS
 62
     3
 10
5215.3859480000019
 20
19347.352752999981
 30
0.0
 11
5215.3859480000019
 21
19645.92354099996
 31
0.0
  0
LINE
  5
459E
  8
2-0
  6
CONTINUOUS
 62
     3
 10
5378.3844570000047
 20
19272.265653999992
 30
0.0
 11
5378.3844570000047
 21
19645.92354099996
 31
0.0
  0
LINE
  5
459F
  8
2-0
  6
CONTINUOUS
 62
     3
 10
5415.3816590000033
 20
19255.225957999981
 30
0.0
 11
5415.3816590000033
 21
19645.92354099996
 31
0.0
  0
LINE
  5
45A0
  8
2-0
  6
CONTINUOUS
 62
     3
 10
5588.8845620000038
 20
19180.140838999981
 30
0.0
 11
5588.8845620000038
 21
19645.92354099996
 31
0.0
  0
LINE
  5
45A1
  8
2-0
  6
CONTINUOUS
 62
     3
 10
5625.8842390000027
 20
19163.09520399999
 30
0.0
 11
5625.8842390000027
 21
19645.92354099996
 31
0.0
  0
LINE
  5
45A2
  8
2-0
  6
CONTINUOUS
 62
     3
 10
6425.8799500000023
 20
18794.574168999981
 30
0.0
 11
6425.8799500000023
 21
19645.92354099996
 31
0.0
  0
LINE
  5
45A3
  8
2-0
  6
CONTINUOUS
 62
     3
 10
5825.8824240000031
 20
19070.96840999999
 30
0.0
 11
5825.8824240000031
 21
19645.92354099996
 31
0.0
  0
LINE
  5
45A4
  8
2-0
  6
CONTINUOUS
 62
     3
 10
5788.8743350000041
 20
19088.01800299999
 30
0.0
 11
5788.8743350000041
 21
19645.92354099996
 31
0.0
  0
LINE
  5
45A5
  8
2-0
  6
CONTINUOUS
 62
     3
 10
6025.8781350000017
 20
18978.841614999968
 30
0.0
 11
6025.8781350000017
 21
19645.92354099996
 31
0.0
  0
LINE
  5
45A6
  8
2-0
  6
CONTINUOUS
 62
     3
 10
5988.880933000004
 20
18995.887248999981
 30
0.0
 11
5988.880933000004
 21
19645.92354099996
 31
0.0
  0
LINE
  5
45A7
  8
2-0
  6
CONTINUOUS
 62
     3
 10
6188.8791179999998
 20
18903.758474999991
 30
0.0
 11
6188.8791179999998
 21
19645.92354099996
 31
0.0
  0
LINE
  5
45A8
  8
2-0
  6
CONTINUOUS
 62
     3
 10
6225.8787949999987
 20
18886.702942999989
 30
0.0
 11
6225.8787949999987
 21
19645.92354099996
 31
0.0
  0
LINE
  5
45A9
  8
2-0
  6
CONTINUOUS
 62
     3
 10
6388.8802729999979
 20
18811.61782399999
 30
0.0
 11
6388.8802729999979
 21
19645.92354099996
 31
0.0
  0
LINE
  5
45AA
  8
2-0
  6
CONTINUOUS
 62
     3
 10
8188.8792830000029
 20
18160.96788199999
 30
0.0
 11
8188.8792830000029
 21
19645.92354099996
 31
0.0
  0
LINE
  5
45AB
  8
2-0
  6
CONTINUOUS
 62
     3
 10
8225.8819290000029
 20
18103.93399199998
 30
0.0
 11
8225.8819290000029
 21
19645.92354099996
 31
0.0
  0
LINE
  5
45AC
  8
2-0
  6
CONTINUOUS
 62
     3
 10
8025.8792900000044
 20
18169.846022999991
 30
0.0
 11
8025.8792900000044
 21
19645.92354099996
 31
0.0
  0
LINE
  5
45AD
  8
2-0
  6
CONTINUOUS
 62
     3
 10
7988.8810980000026
 20
18106.93890199998
 30
0.0
 11
7988.8810980000026
 21
19645.92354099996
 31
0.0
  0
LINE
  5
45AE
  8
2-0
  6
CONTINUOUS
 62
     3
 10
7825.8756610000028
 20
18149.674727999991
 30
0.0
 11
7825.8756610000028
 21
19645.92354099996
 31
0.0
  0
LINE
  5
45AF
  8
2-0
  6
CONTINUOUS
 62
     3
 10
7788.8744990000023
 20
18166.718382999981
 30
0.0
 11
7788.8744990000023
 21
19645.92354099996
 31
0.0
  0
LINE
  5
45B0
  8
2-0
  6
CONTINUOUS
 62
     3
 10
7625.8715370000027
 20
18241.797563999949
 30
0.0
 11
7625.8715370000027
 21
19645.92354099996
 31
0.0
  0
LINE
  5
45B1
  8
2-0
  6
CONTINUOUS
 62
     3
 10
7588.8792829999966
 20
18258.84715799999
 30
0.0
 11
7588.8792829999966
 21
19645.92354099996
 31
0.0
  0
LINE
  5
45B2
  8
2-0
  6
CONTINUOUS
 62
     3
 10
7425.8792900000008
 20
18333.930296999992
 30
0.0
 11
7425.8792900000008
 21
19645.92354099996
 31
0.0
  0
LINE
  5
45B3
  8
2-0
  6
CONTINUOUS
 62
     3
 10
7388.8810980000026
 20
18350.971972999982
 30
0.0
 11
7388.8810980000026
 21
19645.92354099996
 31
0.0
  0
LINE
  5
45B4
  8
2-0
  6
CONTINUOUS
 62
     3
 10
7225.8796200000024
 20
18426.057091999981
 30
0.0
 11
7225.8796200000024
 21
19645.92354099996
 31
0.0
  0
LINE
  5
45B5
  8
2-0
  6
CONTINUOUS
 62
     3
 10
7188.8814280000051
 20
18443.10272699995
 30
0.0
 11
7188.8814280000051
 21
19645.92354099996
 31
0.0
  0
LINE
  5
45B6
  8
2-0
  6
CONTINUOUS
 62
     3
 10
6625.8796200000024
 20
18702.449352999982
 30
0.0
 11
6625.8796200000024
 21
19645.92354099996
 31
0.0
  0
LINE
  5
45B7
  8
2-0
  6
CONTINUOUS
 62
     3
 10
6588.8784580000029
 20
18719.494987999991
 30
0.0
 11
6588.8784580000029
 21
19645.92354099996
 31
0.0
  0
LINE
  5
45B8
  8
2-0
  6
CONTINUOUS
 62
     3
 10
6788.8796130000028
 20
18627.362254999989
 30
0.0
 11
6788.8796130000028
 21
19645.92354099996
 31
0.0
  0
LINE
  5
45B9
  8
2-0
  6
CONTINUOUS
 62
     3
 10
6825.8787950000033
 20
18610.318599999991
 30
0.0
 11
6825.8787950000033
 21
19645.92354099996
 31
0.0
  0
LINE
  5
45BA
  8
2-0
  6
CONTINUOUS
 62
     3
 10
6988.879283000002
 20
18535.235459999982
 30
0.0
 11
6988.879283000002
 21
19645.92354099996
 31
0.0
  0
LINE
  5
45BB
  8
2-0
  6
CONTINUOUS
 62
     3
 10
7025.8769800000009
 20
18518.19774299999
 30
0.0
 11
7025.8769800000009
 21
19645.92354099996
 31
0.0
  0
LINE
  5
45BC
  8
2-0
  6
DASHED3
 62
     6
 10
8350.3773170000022
 20
17912.017685999981
 30
0.0
 11
8350.3773170000022
 21
19442.427050999981
 31
0.0
  0
LINE
  5
45BD
  8
2-0
  6
DASHED3
 62
     6
 10
8464.3812560000006
 20
17736.28988299999
 30
0.0
 11
8464.3812560000006
 21
19442.427050999981
 31
0.0
  0
LINE
  5
45BE
  8
2-0
  6
CONTINUOUS
 62
     3
 10
8388.8774690000046
 20
17852.665780999982
 30
0.0
 11
8388.8774690000046
 21
19645.92354099996
 31
0.0
  0
LINE
  5
45BF
  8
2-0
  6
CONTINUOUS
 62
     3
 10
8425.8786300000029
 20
17795.637829999981
 30
0.0
 11
8425.8786300000029
 21
19645.92354099996
 31
0.0
  0
LINE
  5
45C0
  8
2-0
  6
CONTINUOUS
 62
     3
 10
8625.8768149999978
 20
17487.339687999978
 30
0.0
 11
8625.8768149999978
 21
19645.92354099996
 31
0.0
  0
LINE
  5
45C1
  8
2-0
  6
CONTINUOUS
 62
     3
 10
11025.878795000001
 20
16556.18496899998
 30
0.0
 11
11025.878795000001
 21
19645.92354099996
 31
0.0
  0
LINE
  5
45C2
  8
2-0
  6
CONTINUOUS
 62
     3
 10
10988.878623000001
 20
16573.228623999981
 30
0.0
 11
10988.878623000001
 21
19645.92354099996
 31
0.0
  0
LINE
  5
45C3
  8
2-0
  6
CONTINUOUS
 62
     3
 10
10825.87912499999
 20
16648.313742999992
 30
0.0
 11
10825.87912499999
 21
19645.92354099996
 31
0.0
  0
LINE
  5
45C4
  8
2-0
  6
CONTINUOUS
 62
     3
 10
10788.879943
 20
16665.357397999978
 30
0.0
 11
10788.879943
 21
19645.92354099996
 31
0.0
  0
LINE
  5
45C5
  8
2-0
  6
CONTINUOUS
 62
     3
 10
10588.877304
 20
16757.48419299996
 30
0.0
 11
10588.877304
 21
19645.92354099996
 31
0.0
  0
LINE
  5
45C6
  8
2-0
  6
CONTINUOUS
 62
     3
 10
10625.876485999979
 20
16740.444496999979
 30
0.0
 11
10625.876485999979
 21
19645.92354099996
 31
0.0
  0
LINE
  5
45C7
  8
2-0
  6
CONTINUOUS
 62
     3
 10
10425.879784999999
 20
16832.573270999961
 30
0.0
 11
10425.879784999999
 21
19645.92354099996
 31
0.0
  0
LINE
  5
45C8
  8
2-0
  6
CONTINUOUS
 62
     3
 10
10388.877633999989
 20
16849.62088499996
 30
0.0
 11
10388.877633999989
 21
19645.92354099996
 31
0.0
  0
LINE
  5
45C9
  8
2-0
  6
CONTINUOUS
 62
     3
 10
10188.87895299999
 20
16941.745699999981
 30
0.0
 11
10188.87895299999
 21
19645.92354099996
 31
0.0
  0
LINE
  5
45CA
  8
2-0
  6
CONTINUOUS
 62
     3
 10
10225.877145
 20
16924.707983999961
 30
0.0
 11
10225.877145
 21
19645.92354099996
 31
0.0
  0
LINE
  5
45CB
  8
2-0
  6
CONTINUOUS
 62
     3
 10
9588.8779639999993
 20
17218.134002999981
 30
0.0
 11
9588.8779639999993
 21
19645.92354099996
 31
0.0
  0
LINE
  5
45CC
  8
2-0
  6
CONTINUOUS
 62
     3
 10
9625.8791249999995
 20
17201.096285999989
 30
0.0
 11
9625.8791249999995
 21
19645.92354099996
 31
0.0
  0
LINE
  5
45CD
  8
2-0
  6
CONTINUOUS
 62
     3
 10
9425.8804450000025
 20
17302.719887999981
 30
0.0
 11
9425.8804450000025
 21
19645.92354099996
 31
0.0
  0
LINE
  5
45CE
  8
2-0
  6
CONTINUOUS
 62
     3
 10
9225.8797849999992
 20
17394.85064199999
 30
0.0
 11
9225.8797849999992
 21
19645.92354099996
 31
0.0
  0
LINE
  5
45CF
  8
2-0
  6
CONTINUOUS
 62
     3
 10
9188.8756540000086
 20
17411.89033699995
 30
0.0
 11
9188.8756540000086
 21
19645.92354099996
 31
0.0
  0
LINE
  5
45D0
  8
2-0
  6
CONTINUOUS
 62
     3
 10
9025.8786300000029
 20
17486.981394999981
 30
0.0
 11
9025.8786300000029
 21
19645.92354099996
 31
0.0
  0
LINE
  5
45D1
  8
2-0
  6
CONTINUOUS
 62
     3
 10
8825.8750010000058
 20
17557.527477999982
 30
0.0
 11
8825.8750010000058
 21
19645.92354099996
 31
0.0
  0
LINE
  5
45D2
  8
2-0
  6
CONTINUOUS
 62
     3
 10
8788.8807680000082
 20
17502.253380999991
 30
0.0
 11
8788.8807680000082
 21
19645.92354099996
 31
0.0
  0
LINE
  5
45D3
  8
2-0
  6
CONTINUOUS
 62
     3
 10
8588.8771390000002
 20
17544.37753699996
 30
0.0
 11
8588.8771390000002
 21
19645.92354099996
 31
0.0
  0
LINE
  5
45D4
  8
2-0
  6
CONTINUOUS
 62
     3
 10
11188.877304
 20
16481.099849999991
 30
0.0
 11
11188.877304
 21
19645.92354099996
 31
0.0
  0
LINE
  5
45D5
  8
2-0
  6
CONTINUOUS
 62
     3
 10
11225.87549599999
 20
16464.056194999979
 30
0.0
 11
11225.87549599999
 21
19645.92354099996
 31
0.0
  0
LINE
  5
45D6
  8
2-0
  6
CONTINUOUS
 62
     3
 10
10025.880445000001
 20
17381.647252999981
 30
0.0
 11
10025.880445000001
 21
19645.92354099996
 31
0.0
  0
LINE
  5
45D7
  8
2-0
  6
CONTINUOUS
 62
     3
 10
9388.8812630000084
 20
17319.765521999991
 30
0.0
 11
9388.8812630000084
 21
19645.92354099996
 31
0.0
  0
LINE
  5
45D8
  8
2-0
  6
CONTINUOUS
 62
     3
 10
8988.8804380000001
 20
17504.023070999981
 30
0.0
 11
8988.8804380000001
 21
19645.92354099996
 31
0.0
  0
LINE
  5
45D9
  8
2-0
  6
DASHED3
 62
     6
 10
11258.376222000001
 20
16947.93565499999
 30
0.0
 11
11258.376222000001
 21
19442.427050999981
 31
0.0
  0
LINE
  5
45DA
  8
2-0
  6
DASHED3
 62
     6
 10
11372.381646
 20
16947.93565499999
 30
0.0
 11
11372.381646
 21
19442.427050999981
 31
0.0
  0
LINE
  5
45DB
  8
2-0
  6
DASHED3
 62
     6
 10
11315.378439
 20
16422.824801999981
 30
0.0
 11
11315.378439
 21
19442.427050999981
 31
0.0
  0
LINE
  5
45DC
  8
2-0
  6
CONTINUOUS
 62
     3
 10
11625.875826
 20
16279.79666599998
 30
0.0
 11
11625.875826
 21
19645.92354099996
 31
0.0
  0
LINE
  5
45DD
  8
2-0
  6
CONTINUOUS
 62
     3
 10
11588.877634
 20
16296.84428099998
 30
0.0
 11
11588.877634
 21
19645.92354099996
 31
0.0
  0
LINE
  5
45DE
  8
2-0
  6
CONTINUOUS
 62
     3
 10
11825.874506
 20
16187.66987199998
 30
0.0
 11
11825.874506
 21
19645.92354099996
 31
0.0
  0
LINE
  5
45DF
  8
2-0
  6
CONTINUOUS
 62
     3
 10
11788.871365000001
 20
16204.713526999991
 30
0.0
 11
11788.871365000001
 21
19645.92354099996
 31
0.0
  0
LINE
  5
45E0
  8
2-0
  6
CONTINUOUS
 62
     3
 10
12025.871207
 20
16095.537137999991
 30
0.0
 11
12025.871207
 21
19645.92354099996
 31
0.0
  0
LINE
  5
45E1
  8
2-0
  6
CONTINUOUS
 62
     3
 10
12225.868897
 20
16003.41232299998
 30
0.0
 11
12225.868897
 21
19645.92354099996
 31
0.0
  0
LINE
  5
45E2
  8
2-0
  6
CONTINUOUS
 62
     3
 10
12188.873675000001
 20
16020.45201899996
 30
0.0
 11
12188.873675000001
 21
19645.92354099996
 31
0.0
  0
LINE
  5
45E3
  8
2-0
  6
CONTINUOUS
 62
     3
 10
12425.87054699999
 20
15911.28156899999
 30
0.0
 11
12425.87054699999
 21
19645.92354099996
 31
0.0
  0
LINE
  5
45E4
  8
2-0
  6
CONTINUOUS
 62
     3
 10
12588.871034999989
 20
15836.190511999979
 30
0.0
 11
12588.871034999989
 21
19645.92354099996
 31
0.0
  0
LINE
  5
45E5
  8
2-0
  6
CONTINUOUS
 62
     3
 10
12825.864938000001
 20
15727.02006199998
 30
0.0
 11
12825.864938000001
 21
19645.92354099996
 31
0.0
  0
LINE
  5
45E6
  8
2-0
  6
CONTINUOUS
 62
     3
 10
12788.86971599999
 20
15744.063716999981
 30
0.0
 11
12788.86971599999
 21
19645.92354099996
 31
0.0
  0
LINE
  5
45E7
  8
2-0
  6
CONTINUOUS
 62
     3
 10
13025.863618999991
 20
15634.89128699998
 30
0.0
 11
13025.863618999991
 21
19645.92354099996
 31
0.0
  0
LINE
  5
45E8
  8
2-0
  6
CONTINUOUS
 62
     3
 10
12988.865426999981
 20
15651.934941999991
 30
0.0
 11
12988.865426999981
 21
19645.92354099996
 31
0.0
  0
LINE
  5
45E9
  8
2-0
  6
CONTINUOUS
 62
     3
 10
13225.86427899999
 20
15542.762512999971
 30
0.0
 11
13225.86427899999
 21
19645.92354099996
 31
0.0
  0
LINE
  5
45EA
  8
2-0
  6
CONTINUOUS
 62
     3
 10
13188.86608699998
 20
15559.806167999979
 30
0.0
 11
13188.86608699998
 21
19645.92354099996
 31
0.0
  0
LINE
  5
45EB
  8
2-0
  6
CONTINUOUS
 62
     3
 10
13425.86394899998
 20
15450.63472899997
 30
0.0
 11
13425.86394899998
 21
19645.92354099996
 31
0.0
  0
LINE
  5
45EC
  8
2-0
  6
CONTINUOUS
 62
     3
 10
13388.861798
 20
15467.67937299999
 30
0.0
 11
13388.861798
 21
19645.92354099996
 31
0.0
  0
LINE
  5
45ED
  8
2-0
  6
CONTINUOUS
 62
     3
 10
13625.86163899999
 20
15358.50595399998
 30
0.0
 11
13625.86163899999
 21
19645.92354099996
 31
0.0
  0
LINE
  5
45EE
  8
2-0
  6
CONTINUOUS
 62
     3
 10
13588.865426999981
 20
15375.54960899996
 30
0.0
 11
13588.865426999981
 21
19645.92354099996
 31
0.0
  0
LINE
  5
45EF
  8
2-0
  6
CONTINUOUS
 62
     3
 10
13825.861309
 20
15266.37322099998
 30
0.0
 11
13825.861309
 21
19645.92354099996
 31
0.0
  0
LINE
  5
45F0
  8
2-0
  6
CONTINUOUS
 62
     3
 10
13788.86311699999
 20
15283.419844999949
 30
0.0
 11
13788.86311699999
 21
19645.92354099996
 31
0.0
  0
LINE
  5
45F1
  8
2-0
  6
CONTINUOUS
 62
     3
 10
14025.86097899999
 20
15174.246425999991
 30
0.0
 11
14025.86097899999
 21
19645.92354099996
 31
0.0
  0
LINE
  5
45F2
  8
2-0
  6
CONTINUOUS
 62
     3
 10
13988.859818000001
 20
15191.28810199999
 30
0.0
 11
13988.859818000001
 21
19645.92354099996
 31
0.0
  0
LINE
  5
45F3
  8
2-0
  6
CONTINUOUS
 62
     3
 10
11388.87697399999
 20
16388.973054999991
 30
0.0
 11
11388.87697399999
 21
19645.92354099996
 31
0.0
  0
LINE
  5
45F4
  8
2-0
  6
CONTINUOUS
 62
     3
 10
11425.875165999991
 20
16371.92544099999
 30
0.0
 11
11425.875165999991
 21
19645.92354099996
 31
0.0
  0
LINE
  5
45F5
  8
2-0
  6
CONTINUOUS
 62
     3
 10
11988.875984
 20
16112.586731999991
 30
0.0
 11
11988.875984
 21
19645.92354099996
 31
0.0
  0
LINE
  5
45F6
  8
2-0
  6
CONTINUOUS
 62
     3
 10
12625.86823799999
 20
15819.146856999991
 30
0.0
 11
12625.86823799999
 21
19645.92354099996
 31
0.0
  0
LINE
  5
45F7
  8
2-0
  6
CONTINUOUS
 62
     3
 10
12388.872355
 20
16043.648017999951
 30
0.0
 11
12388.872355
 21
19645.92354099996
 31
0.0
  0
LINE
  5
45F8
  8
2-0
  6
CONTINUOUS
 62
     3
 10
14188.86245699999
 20
15099.15536799998
 30
0.0
 11
14188.86245699999
 21
19645.92354099996
 31
0.0
  0
LINE
  5
45F9
  8
2-0
  6
CONTINUOUS
 62
     3
 10
14225.863619
 20
15082.11171299998
 30
0.0
 11
14225.863619
 21
19645.92354099996
 31
0.0
  0
LINE
  5
45FA
  8
2-0
  6
CONTINUOUS
 62
     3
 10
14399.364543
 20
15007.02659399999
 30
0.0
 11
14399.364543
 21
19645.92354099996
 31
0.0
  0
LINE
  5
45FB
  8
2-0
  6
CONTINUOUS
 62
     3
 10
14436.365705
 20
14989.981948999981
 30
0.0
 11
14436.365705
 21
19645.92354099996
 31
0.0
  0
LINE
  5
45FC
  8
2-0
  6
CONTINUOUS
 62
     3
 10
14549.360584
 20
14937.929518999979
 30
0.0
 11
14549.360584
 21
19645.92354099996
 31
0.0
  0
LINE
  5
45FD
  8
2-0
  6
CONTINUOUS
 62
     3
 10
14586.35877599999
 20
14920.884873999979
 30
0.0
 11
14586.35877599999
 21
19645.92354099996
 31
0.0
  0
LINE
  5
45FE
  8
2-0
  6
CONTINUOUS
 62
     3
 10
14669.379825
 20
19698.925150999981
 30
0.0
 11
14669.379825
 21
19663.92924199998
 31
0.0
  0
LINE
  5
45FF
  8
2-0
  6
CENTER2
 62
     6
 10
5138.878544000002
 20
20723.935058999999
 30
0.0
 11
5138.878544000002
 21
13803.43913899998
 31
0.0
  0
LINE
  5
4600
  8
2-0
  6
CENTER2
 62
     6
 10
8407.3785440000029
 20
20723.933729000011
 30
0.0
 11
8407.3785440000029
 21
13803.43913899998
 31
0.0
  0
LINE
  5
4601
  8
2-0
  6
CENTER2
 62
     6
 10
11315.378439
 20
20723.933729000011
 30
0.0
 11
11315.378439
 21
13803.43913899998
 31
0.0
  0
LINE
  5
4602
  8
2-0
  6
DASHED3
 62
     6
 10
5583.7585990000016
 20
19182.498445999991
 30
0.0
 11
5208.8767960000041
 21
19481.429505999989
 31
0.0
  0
LINE
  5
4603
  8
2-0
  6
DASHED3
 62
     6
 10
7113.8631170000008
 20
18477.659181999981
 30
0.0
 11
8337.3827670000064
 21
19481.429505999989
 31
0.0
  0
LINE
  5
4604
  8
2-0
  6
CONTINUOUS
 62
     3
 10
5208.8767960000041
 20
16913.935443999992
 30
0.0
 11
7113.8631170000008
 21
18477.659181999981
 31
0.0
  0
LINE
  5
4605
  8
2-0
  6
CONTINUOUS
 62
     3
 10
8337.3827670000064
 20
16913.935443999992
 30
0.0
 11
5583.7645370000027
 21
19182.498445999991
 31
0.0
  0
LINE
  5
4606
  8
2-0
  6
DASHED3
 62
     6
 10
11749.753108999999
 20
19182.498445999991
 30
0.0
 11
11385.379165
 21
19481.429505999989
 31
0.0
  0
LINE
  5
4607
  8
2-0
  6
DASHED3
 62
     6
 10
13279.86158599999
 20
18477.659181999981
 30
0.0
 11
14513.881673
 21
19481.429505999989
 31
0.0
  0
LINE
  5
4608
  8
2-0
  6
DASHED3
 62
     6
 10
11385.379165
 20
16913.935443999992
 30
0.0
 11
13279.86158599999
 21
18477.659181999981
 31
0.0
  0
LINE
  5
4609
  8
2-0
  6
DASHED3
 62
     6
 10
14513.881673
 20
16913.935443999992
 30
0.0
 11
11749.760037
 21
19182.498445999991
 31
0.0
  0
LINE
  5
460A
  8
2-0
  6
CONTINUOUS
 62
     3
 10
11245.377712999991
 20
13995.935443999981
 30
0.0
 11
10019.535098
 21
15293.77965599995
 31
0.0
  0
LINE
  5
460B
  8
2-0
  6
CONTINUOUS
 62
     3
 10
9719.5350980000057
 20
15608.951675999981
 30
0.0
 11
8477.378775000001
 21
16913.935443999992
 31
0.0
  0
LINE
  5
460C
  8
2-0
  6
CONTINUOUS
 62
     3
 10
8477.378775000001
 20
13995.935443999981
 30
0.0
 11
9017.4785430000029
 21
14563.353557999981
 31
0.0
  0
LINE
  5
460D
  8
2-0
  6
CONTINUOUS
 62
     3
 10
9017.4785430000029
 20
14563.35652699996
 30
0.0
 11
9719.5350980000057
 21
15310.91634799999
 31
0.0
  0
LINE
  5
460E
  8
2-0
  6
CONTINUOUS
 62
     3
 10
10019.535098
 20
15626.09232699998
 30
0.0
 11
10941.742326999991
 21
16594.941962999979
 31
0.0
  0
LINE
  5
460F
  8
2-0
  6
CONTINUOUS
 62
     3
 10
5053.3741890000028
 20
13803.437159999979
 30
0.0
 11
5053.3741890000028
 21
19686.43240899999
 31
0.0
  0
LINE
  5
4610
  8
2-0
  6
CONTINUOUS
 62
     3
 10
5096.3777860000046
 20
13959.43411099997
 30
0.0
 11
5096.3777860000046
 21
19402.171560999981
 31
0.0
  0
LINE
  5
4611
  8
2-0
  6
CONTINUOUS
 62
     3
 10
5188.8722360000011
 20
13835.440035999971
 30
0.0
 11
5188.8722360000011
 21
19645.92354099996
 31
0.0
  0
LINE
  5
4612
  8
2-0
  6
CONTINUOUS
 62
     3
 10
14669.379825
 20
13803.437159999979
 30
0.0
 11
14669.379825
 21
19686.43240899999
 31
0.0
  0
LINE
  5
4613
  8
2-0
  6
CONTINUOUS
 62
     3
 10
14651.38006300001
 20
13835.440035999971
 30
0.0
 11
14651.38006300001
 21
19686.43240899999
 31
0.0
  0
LINE
  5
4614
  8
2-0
  6
CONTINUOUS
 62
     3
 10
14626.379693000001
 20
13959.43411099997
 30
0.0
 11
14626.379693000001
 21
14902.451596999979
 31
0.0
  0
LINE
  5
4615
  8
2-0
  6
CONTINUOUS
 62
     3
 10
8350.3773170000022
 20
14038.43075899999
 30
0.0
 11
8350.3773170000022
 21
16868.935047999981
 31
0.0
  0
LINE
  5
4616
  8
2-0
  6
CONTINUOUS
 62
     3
 10
8464.3812560000006
 20
14038.43075899999
 30
0.0
 11
8464.3812560000006
 21
16868.935047999981
 31
0.0
  0
LINE
  5
4617
  8
2-0
  6
CONTINUOUS
 62
     3
 10
8407.3785440000029
 20
14038.43075899999
 30
0.0
 11
8407.3785440000029
 21
16868.935047999981
 31
0.0
  0
LINE
  5
4618
  8
2-0
  6
CONTINUOUS
 62
     3
 10
11258.376222000001
 20
14038.43075899999
 30
0.0
 11
11258.376222000001
 21
16449.085095999992
 31
0.0
  0
LINE
  5
4619
  8
2-0
  6
CONTINUOUS
 62
     3
 10
11315.378439
 20
14038.43075899999
 30
0.0
 11
11315.378439
 21
16422.824801999981
 31
0.0
  0
LINE
  5
461A
  8
2-0
  6
CONTINUOUS
 62
     3
 10
11372.381646
 20
14038.43075899999
 30
0.0
 11
11372.381646
 21
16396.57044699998
 31
0.0
  0
LINE
  5
461B
  8
2-0
  6
CONTINUOUS
 62
     3
 10
11315.378439
 20
13959.43411099997
 30
0.0
 11
11315.378439
 21
13803.437159999979
 31
0.0
  0
LINE
  5
461C
  8
2-0
  6
CENTER2
 62
     6
 10
14583.878438999989
 20
20723.933729000011
 30
0.0
 11
14583.878438999989
 21
13803.43913899998
 31
0.0
  0
LINE
  5
461D
  8
2-0
  6
DASHED3
 62
     6
 10
14626.379693000001
 20
16403.25132199996
 30
0.0
 11
14626.379693000001
 21
19527.429557999982
 31
0.0
  0
LINE
  5
461E
  8
0-1
  6
CONTINUOUS
 62
     3
 10
5208.8767960000041
 20
13995.935443999981
 30
0.0
 11
8337.380293000002
 21
16913.935443999992
 31
0.0
  0
LINE
  5
461F
  8
0-1
  6
CONTINUOUS
 62
     3
 10
8337.380293000002
 20
13995.935443999981
 30
0.0
 11
5208.8767960000041
 21
16913.935443999992
 31
0.0
  0
LINE
  5
4620
  8
2-0
  6
DASHED3
 62
     6
 10
13096.887755999969
 20
15602.173803999969
 30
0.0
 11
14513.87969299999
 21
16913.935443999992
 31
0.0
  0
LINE
  5
4621
  8
2-0
  6
DASHED3
 62
     6
 10
12494.180764000001
 20
15879.809202999981
 30
0.0
 11
11385.377184999999
 21
16913.935443999992
 31
0.0
  0
LINE
  5
4622
  8
0-1
  6
CONTINUOUS
 62
     3
 10
11385.377184999999
 20
13995.935443999981
 30
0.0
 11
13096.887755999969
 21
15602.173803999969
 31
0.0
  0
LINE
  5
4623
  8
0-1
  6
CONTINUOUS
 62
     3
 10
14513.87969299999
 20
13995.935443999981
 30
0.0
 11
12494.180764000001
 21
15879.809202999981
 31
0.0
  0
CIRCLE
  5
4624
  8
2-0
  6
CONTINUOUS
 62
     4
 10
15205.72984799999
 20
1569.042511000001
 30
0.0
 40
20.000004000000001
  0
ARC
  5
4625
  8
2-0
  6
CONTINUOUS
 62
     4
 10
15205.72984799999
 20
1569.042511000001
 30
0.0
 40
20.000004000000001
 50
180.0
 51
0.0
  0
ARC
  5
4626
  8
2-0
  6
CONTINUOUS
 62
     4
 10
15205.72984799999
 20
1569.042511000001
 30
0.0
 40
20.000004000000001
 50
0.0
 51
179.9999849999983
  0
CIRCLE
  5
4627
  8
2-0
  6
CONTINUOUS
 62
     4
 10
15205.72984799999
 20
1969.0445729999999
 30
0.0
 40
20.000004000000001
  0
ARC
  5
4628
  8
2-0
  6
CONTINUOUS
 62
     4
 10
15205.72984799999
 20
1969.0445729999999
 30
0.0
 40
20.000004000000001
 50
180.0
 51
0.0
  0
ARC
  5
4629
  8
2-0
  6
CONTINUOUS
 62
     4
 10
15205.72984799999
 20
1969.0445729999999
 30
0.0
 40
20.000004000000001
 50
0.0
 51
179.9999849999983
  0
CIRCLE
  5
462A
  8
2-0
  6
CONTINUOUS
 62
     4
 10
5138.878544000002
 20
20923.933739
 30
0.0
 40
200.00001
  0
CIRCLE
  5
462B
  8
2-0
  6
CONTINUOUS
 62
     4
 10
3609.376046999997
 20
19481.435443999981
 30
0.0
 40
200.00001
  0
CIRCLE
  5
462C
  8
2-0
  6
CONTINUOUS
 62
     4
 10
3609.376046999997
 20
16913.935443999992
 30
0.0
 40
200.00001
  0
CIRCLE
  5
462D
  8
2-0
  6
CONTINUOUS
 62
     4
 10
3609.376046999997
 20
13995.935443999981
 30
0.0
 40
200.00001
  0
ARC
  5
462E
  8
2-0
  6
CONTINUOUS
 62
     3
 10
5058.3798970000007
 20
19698.925150999981
 30
0.0
 40
5.0000010000000001
 50
90.0
 51
180.0
  0
ARC
  5
462F
  8
2-0
  6
CONTINUOUS
 62
     3
 10
5121.8774090000043
 20
19698.925150999981
 30
0.0
 40
5.0000010000000001
 50
0.0
 51
90.0
  0
ARC
  5
4630
  8
2-0
  6
CONTINUOUS
 62
     3
 10
5121.8774090000043
 20
19668.927525999981
 30
0.0
 40
5.0000010000000001
 50
269.9999850001808
 51
0.0
  0
ARC
  5
4631
  8
2-0
  6
CONTINUOUS
 62
     3
 10
14600.87660499999
 20
19668.927525999981
 30
0.0
 40
5.0000010000000001
 50
180.0
 51
269.9999850001808
  0
ARC
  5
4632
  8
2-0
  6
CONTINUOUS
 62
     3
 10
14600.87660499999
 20
19698.925150999981
 30
0.0
 40
5.0000010000000001
 50
90.0
 51
180.0
  0
ARC
  5
4633
  8
2-0
  6
CONTINUOUS
 62
     3
 10
14664.38154100001
 20
19698.925150999981
 30
0.0
 40
5.0000010000000001
 50
0.0
 51
90.0
  0
CIRCLE
  5
4634
  8
2-0
  6
CONTINUOUS
 62
     4
 10
8407.3785440000029
 20
20923.930429999989
 30
0.0
 40
200.00001
  0
CIRCLE
  5
4635
  8
2-0
  6
CONTINUOUS
 62
     4
 10
11315.378439
 20
20923.930429999989
 30
0.0
 40
200.00001
  0
CIRCLE
  5
4636
  8
2-0
  6
CONTINUOUS
 62
     4
 10
14583.878438999989
 20
20923.930429999989
 30
0.0
 40
200.00001
  0
TEXT
  5
4637
  8
2-0
  6
CONTINUOUS
 62
     7
 10
16766.971204999991
 20
1845.5315210000001
 30
0.0
 40
160.0
  1
H
  0
TEXT
  5
4638
  8
2-0
  6
CONTINUOUS
 62
     7
 10
15253.162082999999
 20
1849.044919000002
 30
0.0
 40
160.0
  1
（ ）内寸法ハ、  タ イプヲ示ス。
  0
TEXT
  5
4639
  8
2-0
  6
CONTINUOUS
 62
     7
 10
15365.728397000001
 20
1449.043104000001
 30
0.0
 40
160.0
  1
有効高サハ、基礎高サヲ含ミマセン。
  0
TEXT
  5
463A
  8
2-0
  6
CONTINUOUS
 62
     7
 10
5090.2967050000052
 20
20837.18727599999
 30
0.0
 40
160.0
  1
1
 72
     4
 11
5116.9633716666722
 21
20917.18727599999
 31
0.0
  0
TEXT
  5
463B
  8
2-0
  6
CONTINUOUS
 62
     7
 10
3563.3559510000041
 20
19395.755940999981
 30
0.0
 40
160.0
  1
C
 50
0.001418
 72
     4
 11
3616.6873044155009
 21
19475.75726090981
 31
0.0
  0
TEXT
  5
463C
  8
2-0
  6
CONTINUOUS
 62
     7
 10
3562.8996719999991
 20
16828.849796999959
 30
0.0
 40
160.0
  1
B
 50
0.001418
 72
     4
 11
3616.231025415495
 21
16908.851116909791
 31
0.0
  0
TEXT
  5
463D
  8
2-0
  6
CONTINUOUS
 62
     7
 10
3559.7472889999981
 20
13912.653137999971
 30
0.0
 40
160.0
  1
A
 72
     4
 11
3613.0806223333311
 21
13992.653137999971
 31
0.0
  0
TEXT
  5
463E
  8
2-0
  6
CONTINUOUS
 62
     7
 10
7141.5258990000002
 20
20013.929900999981
 30
0.0
 40
160.0
  1
屋根
 72
     4
 11
7312.1925656666663
 21
20093.929900999981
 31
0.0
  0
TEXT
  5
463F
  8
2-0
  6
CONTINUOUS
 62
     7
 10
6051.9533430000001
 20
20733.930296999992
 30
0.0
 40
160.0
  1
鼻隠し後
 50
359.99982299999999
 72
     4
 11
6414.6202568035587
 21
20813.929176637848
 31
0.0
  0
TEXT
  5
4640
  8
2-0
  6
CONTINUOUS
 62
     7
 10
5490.5485120000021
 20
20013.929900999981
 30
0.0
 40
160.0
  1
桁（後）
 50
0.000177
 72
     4
 11
5810.5482648598518
 21
20093.930889554089
 31
0.0
  0
TEXT
  5
4641
  8
2-0
  6
CONTINUOUS
 62
     7
 10
6500.615189000001
 20
17353.02341399997
 30
0.0
 40
160.0
  1
桁（中）
 50
359.99946799999998
 72
     4
 11
6820.6159317983356
 21
17433.020442748009
 31
0.0
  0
TEXT
  5
4642
  8
2-0
  6
CONTINUOUS
 62
     7
 10
6462.6524770000024
 20
14447.26271099997
 30
0.0
 40
160.0
  1
桁（前）
 50
359.99973399999988
 72
     4
 11
6782.6528484026167
 21
14527.26122537485
 31
0.0
  0
TEXT
  5
4643
  8
2-0
  6
CONTINUOUS
 62
     7
 10
7370.169697999997
 20
13083.43478399999
 30
0.0
 40
160.0
  1
鼻隠し前
 50
0.000266
 72
     4
 11
7732.8359932566909
 21
13163.436467706621
 31
0.0
  0
TEXT
  5
4644
  8
2-0
  6
CONTINUOUS
 62
     7
 10
3402.9778300000021
 20
12683.438412999991
 30
0.0
 40
160.0
  1
ケラバ 左
 50
359.99952699999972
 72
     4
 11
3818.9784904184162
 21
12763.4349787478
 31
0.0
  0
TEXT
  5
4645
  8
2-0
  6
CONTINUOUS
 62
     7
 10
5393.9034660000007
 20
18140.048328999968
 30
0.0
 40
160.0
  1
上枠
 50
359.99964599999993
 72
     4
 11
5564.5706269406537
 21
18220.04727454032
 31
0.0
  0
TEXT
  5
4646
  8
2-0
  6
CONTINUOUS
 62
     7
 10
6594.172681
 20
16486.48611999998
 30
0.0
 40
160.0
  1
ブレース
 50
0.000532
 72
     4
 11
6956.838555318096
 21
16571.82282074463
 31
0.0
  0
TEXT
  5
4647
  8
2-0
  6
CONTINUOUS
 62
     7
 10
12438.660217000001
 20
20733.930296999999
 30
0.0
 40
160.0
  1
鼻隠しコーナー後
 50
359.999911
 72
     4
 11
13185.327007933211
 21
20813.929137170431
 31
0.0
  0
TEXT
  5
4648
  8
2-0
  6
CONTINUOUS
 62
     7
 10
7855.1928260000032
 20
15639.269982999969
 30
0.0
 40
160.0
  1
梁
 50
359.99787299999991
 72
     4
 11
7929.862462467474
 21
15719.267211082741
 31
0.0
  0
TEXT
  5
4649
  8
2-0
  6
CONTINUOUS
 62
     7
 10
8361.8377400000027
 20
20828.13954700001
 30
0.0
 40
160.0
  1
2
 50
359.998582
 72
     4
 11
8415.1730532185029
 21
20908.13822704117
 31
0.0
  0
TEXT
  5
464A
  8
2-0
  6
CONTINUOUS
 62
     7
 10
11160.750379086099
 20
20860.42577309097
 30
0.0
 40
140.0
  1
n-1
 72
     4
 11
11324.08371241944
 21
20930.42577309097
 31
0.0
  0
TEXT
  5
464B
  8
2-0
  6
CONTINUOUS
 62
     7
 10
14537.976373
 20
20855.575673999989
 30
0.0
 40
160.0
  1
n
 50
359.998582
 72
     4
 11
14591.31102625134
 21
20908.90768738266
 31
0.0
  0
TEXT
  5
464C
  8
2-0
  6
CONTINUOUS
 62
     7
 10
8734.0550319999984
 20
11875.46722199999
 30
0.0
 40
160.0
  1
小 屋 伏 図
 72
     4
 11
9235.3883653333323
 21
11955.46722199999
 31
0.0
  0
TEXT
  5
4656
  8
0-3
  6
CONTINUOUS
 62
     7
 10
27544.4346805186
 20
3658.1200421350532
 30
0.0
 40
160.0
  1
連結する場合は強度上、下記間口寸法に一ヶ所
  0
TEXT
  5
4657
  8
0-3
  6
CONTINUOUS
 62
     7
 10
27544.4346805186
 20
3451.291530856121
 30
0.0
 40
160.0
  1
中間ブレース、もしくは間仕切りが必要になります。
  0
TEXT
  5
4658
  8
0-3
  6
CONTINUOUS
 62
     7
 10
27544.4346805186
 20
3124.142197938243
 30
0.0
 40
160.0
  1
標準タイプ：間口寸法 10.57ｍ以内に一箇所
  0
TEXT
  5
4659
  8
0-3
  6
CONTINUOUS
 62
     7
 10
27571.745290429761
 20
2873.074148021421
 30
0.0
 40
160.0
  1
Hタイプ　：間口寸法 9.21ｍ以内に一箇所
  0
TEXT
  5
465A
  8
2-0
  6
CONTINUOUS
 62
     7
 10
10586.88055047094
 20
11902.66259099998
 30
0.0
 40
160.0
  1
1
 72
     4
 11
10613.54721713761
 21
11982.66259099998
 31
0.0
  0
TEXT
  5
465B
  8
2-0
  6
CONTINUOUS
 62
     7
 10
10829.96926772165
 20
11822.66405899999
 30
0.0
 40
160.0
  1
80
 72
     4
 11
10949.96926772165
 21
11902.66405899999
 31
0.0
  0
TEXT
  5
465C
  8
2-0
  6
CONTINUOUS
 62
     7
 10
10087.882516470951
 20
11875.46722199999
 30
0.0
 40
160.0
  1
(S=  /   )
 72
     4
 11
10647.882516470951
 21
11955.46722199999
 31
0.0
  0
LINE
  5
465D
  8
0-1
  6
CONTINUOUS
 62
     3
 10
6676.1499280000071
 20
7795.5489240000006
 30
0.0
 11
12206.648344999991
 21
7795.5489240000006
 31
0.0
  0
LINE
  5
465E
  8
0-1
  6
CONTINUOUS
 62
     3
 10
5966.1490700000022
 20
5784.5030450000013
 30
0.0
 11
12239.148147
 21
5784.5030450000013
 31
0.0
  0
LINE
  5
465F
  8
0-1
  6
CONTINUOUS
 62
     3
 10
6771.1490040000053
 20
5934.5030449999986
 30
0.0
 11
9193.6482790000045
 21
5934.5030449999986
 31
0.0
  0
LINE
  5
4660
  8
0-1
  6
CONTINUOUS
 62
     3
 10
6648.6481469999999
 20
5884.5028800000018
 30
0.0
 11
12239.148147
 21
5884.5028800000018
 31
0.0
  0
LINE
  5
4661
  8
0-1
  6
CONTINUOUS
 62
     3
 10
6771.1490040000053
 20
7795.5489240000006
 30
0.0
 11
6771.1490040000053
 21
5884.5028800000018
 31
0.0
  0
LINE
  5
4662
  8
0-1
  6
CONTINUOUS
 62
     3
 10
6656.1488720000061
 20
7917.5169609999957
 30
0.0
 11
6656.1488720000061
 21
5884.5028800000018
 31
0.0
  0
LINE
  5
4663
  8
0-1
  6
CONTINUOUS
 62
     3
 10
6676.1499280000071
 20
7918.1721820000021
 30
0.0
 11
6676.1499280000071
 21
5884.5028800000018
 31
0.0
  0
LINE
  5
4664
  8
0-1
  6
CONTINUOUS
 62
     3
 10
6648.6481469999999
 20
5784.5030450000013
 30
0.0
 11
6648.6481469999999
 21
5884.5028800000018
 31
0.0
  0
LINE
  5
4665
  8
0-1
  6
CONTINUOUS
 62
     3
 10
12301.782029
 20
8101.992256999999
 30
0.0
 11
12297.522105
 21
8231.9219180000018
 31
0.0
  0
LINE
  5
4666
  8
0-1
  6
CONTINUOUS
 62
     3
 10
9338.6480150000025
 20
5934.5030449999986
 30
0.0
 11
12111.648278999999
 21
5934.5030449999986
 31
0.0
  0
LINE
  5
4667
  8
0-1
  6
CONTINUOUS
 62
     3
 10
8802.1480009999905
 20
5934.5030449999986
 30
0.0
 11
8802.1480009999905
 21
7795.5489240000006
 31
0.0
  0
LINE
  5
4668
  8
0-1
  6
CONTINUOUS
 62
     3
 10
8669.1490970000032
 20
5934.5030449999986
 30
0.0
 11
8669.1490970000032
 21
7795.5489240000006
 31
0.0
  0
LINE
  5
4669
  8
0-1
  6
CONTINUOUS
 62
     3
 10
8654.1473150000002
 20
5934.5030449999986
 30
0.0
 11
8654.1473150000002
 21
7795.5489240000006
 31
0.0
  0
LINE
  5
466A
  8
0-1
  6
CONTINUOUS
 62
     3
 10
8852.1496509999888
 20
5934.5030449999986
 30
0.0
 11
8852.1496509999888
 21
7795.5489240000006
 31
0.0
  0
LINE
  5
466B
  8
0-1
  6
CONTINUOUS
 62
     3
 10
8872.1487269999998
 20
5934.5030449999986
 30
0.0
 11
8872.1487269999998
 21
7795.5489240000006
 31
0.0
  0
LINE
  5
466C
  8
0-1
  6
CONTINUOUS
 62
     3
 10
8922.1493870000013
 20
5934.5030449999986
 30
0.0
 11
8922.1493870000013
 21
7795.5489240000006
 31
0.0
  0
LINE
  5
466D
  8
0-1
  6
CONTINUOUS
 62
     3
 10
9055.1482919999999
 20
5934.5030449999986
 30
0.0
 11
9055.1482919999999
 21
7795.5489240000006
 31
0.0
  0
LINE
  5
466E
  8
0-1
  6
CONTINUOUS
 62
     3
 10
9070.1471040000033
 20
5934.5030449999986
 30
0.0
 11
9070.1471040000033
 21
7795.5489240000006
 31
0.0
  0
LINE
  5
466F
  8
0-1
  6
CONTINUOUS
 62
     3
 10
9338.6480150000025
 20
7795.5489240000006
 30
0.0
 11
9338.6480150000025
 21
5884.5028800000018
 31
0.0
  0
LINE
  5
4670
  8
0-1
  6
CONTINUOUS
 62
     3
 10
9193.6482790000045
 20
7795.5489240000006
 30
0.0
 11
9193.6482790000045
 21
5884.5028800000018
 31
0.0
  0
LINE
  5
4671
  8
0-1
  6
CONTINUOUS
 62
     3
 10
9462.1472099999955
 20
5934.5030449999986
 30
0.0
 11
9462.1472099999955
 21
7795.5489240000006
 31
0.0
  0
LINE
  5
4672
  8
0-1
  6
CONTINUOUS
 62
     3
 10
9477.1489909999982
 20
5934.5030449999986
 30
0.0
 11
9477.1489909999982
 21
7795.5489240000006
 31
0.0
  0
LINE
  5
4673
  8
0-1
  6
CONTINUOUS
 62
     3
 10
9610.1478960000022
 20
5934.5030449999986
 30
0.0
 11
9610.1478960000022
 21
7795.5489240000006
 31
0.0
  0
LINE
  5
4674
  8
0-1
  6
CONTINUOUS
 62
     3
 10
9660.1485559999965
 20
5934.5030449999986
 30
0.0
 11
9660.1485559999965
 21
7795.5489240000006
 31
0.0
  0
LINE
  5
4675
  8
0-1
  6
CONTINUOUS
 62
     3
 10
9680.1476320000002
 20
5934.5030449999986
 30
0.0
 11
9680.1476320000002
 21
7795.5489240000006
 31
0.0
  0
LINE
  5
4676
  8
0-1
  6
CONTINUOUS
 62
     3
 10
7452.1480009999868
 20
5934.5030449999986
 30
0.0
 11
7452.1480009999868
 21
7795.5489240000006
 31
0.0
  0
LINE
  5
4677
  8
0-1
  6
CONTINUOUS
 62
     3
 10
7472.1500470000028
 20
5934.5030449999986
 30
0.0
 11
7472.1500470000028
 21
7795.5489240000006
 31
0.0
  0
LINE
  5
4678
  8
0-1
  6
CONTINUOUS
 62
     3
 10
7402.1473419999893
 20
5934.5030449999986
 30
0.0
 11
7402.1473419999893
 21
7795.5489240000006
 31
0.0
  0
LINE
  5
4679
  8
0-1
  6
CONTINUOUS
 62
     3
 10
7522.1477379999978
 20
5934.5030449999986
 30
0.0
 11
7522.1477379999978
 21
7795.5489240000006
 31
0.0
  0
LINE
  5
467A
  8
0-1
  6
CONTINUOUS
 62
     3
 10
7655.1476320000029
 20
5934.5030449999986
 30
0.0
 11
7655.1476320000029
 21
7795.5489240000006
 31
0.0
  0
LINE
  5
467B
  8
0-1
  6
CONTINUOUS
 62
     3
 10
7670.1494139999977
 20
5934.5030449999986
 30
0.0
 11
7670.1494139999977
 21
7795.5489240000006
 31
0.0
  0
LINE
  5
467C
  8
0-1
  6
CONTINUOUS
 62
     3
 10
7259.6486610000075
 20
5934.5030449999986
 30
0.0
 11
7259.6486610000075
 21
7795.5489240000006
 31
0.0
  0
LINE
  5
467D
  8
0-1
  6
CONTINUOUS
 62
     3
 10
7244.6498490000049
 20
5934.5030449999986
 30
0.0
 11
7244.6498490000049
 21
7795.5489240000006
 31
0.0
  0
LINE
  5
467E
  8
0-1
  6
CONTINUOUS
 62
     3
 10
7954.1479749999889
 20
5934.5030449999986
 30
0.0
 11
7954.1479749999889
 21
7795.5489240000006
 31
0.0
  0
LINE
  5
467F
  8
0-1
  6
CONTINUOUS
 62
     3
 10
7969.1467869999906
 20
5934.5030449999986
 30
0.0
 11
7969.1467869999906
 21
7795.5489240000006
 31
0.0
  0
LINE
  5
4680
  8
0-1
  6
CONTINUOUS
 62
     3
 10
8370.1487540000016
 20
5934.5030449999986
 30
0.0
 11
8370.1487540000016
 21
7795.5489240000006
 31
0.0
  0
LINE
  5
4681
  8
0-1
  6
CONTINUOUS
 62
     3
 10
8355.1469720000023
 20
5934.5030449999986
 30
0.0
 11
8355.1469720000023
 21
7795.5489240000006
 31
0.0
  0
LINE
  5
4682
  8
0-1
  6
CONTINUOUS
 62
     3
 10
8222.1470779999909
 20
5934.5030449999986
 30
0.0
 11
8222.1470779999909
 21
7795.5489240000006
 31
0.0
  0
LINE
  5
4683
  8
0-1
  6
CONTINUOUS
 62
     3
 10
8102.148661000002
 20
5934.5030449999986
 30
0.0
 11
8102.148661000002
 21
7795.5489240000006
 31
0.0
  0
LINE
  5
4684
  8
0-1
  6
CONTINUOUS
 62
     3
 10
8172.1493869999904
 20
5934.5030449999986
 30
0.0
 11
8172.1493869999904
 21
7795.5489240000006
 31
0.0
  0
LINE
  5
4685
  8
0-1
  6
CONTINUOUS
 62
     3
 10
8152.1473419999902
 20
5934.5030449999986
 30
0.0
 11
8152.1473419999902
 21
7795.5489240000006
 31
0.0
  0
LINE
  5
4686
  8
0-1
  6
CONTINUOUS
 62
     3
 10
8493.6489380000057
 20
7795.5489240000006
 30
0.0
 11
8493.6489380000057
 21
5934.5030449999986
 31
0.0
  0
LINE
  5
4687
  8
0-1
  6
CONTINUOUS
 62
     3
 10
8530.6471310000015
 20
7795.5489240000006
 30
0.0
 11
8530.6471310000015
 21
5934.5030449999986
 31
0.0
  0
LINE
  5
4688
  8
0-1
  6
CONTINUOUS
 62
     3
 10
7084.1485030000067
 20
7795.5489240000006
 30
0.0
 11
7084.1485030000067
 21
5934.5030449999986
 31
0.0
  0
LINE
  5
4689
  8
0-1
  6
CONTINUOUS
 62
     3
 10
7121.1486740000073
 20
7795.5489240000006
 30
0.0
 11
7121.1486740000073
 21
5934.5030449999986
 31
0.0
  0
LINE
  5
468A
  8
0-1
  6
CONTINUOUS
 62
     3
 10
7793.6495980000027
 20
7795.5489240000006
 30
0.0
 11
7793.6495980000027
 21
5934.5030449999986
 31
0.0
  0
LINE
  5
468B
  8
0-1
  6
CONTINUOUS
 62
     3
 10
7830.64778999999
 20
7795.5489240000006
 30
0.0
 11
7830.64778999999
 21
5934.5030449999986
 31
0.0
  0
LINE
  5
468C
  8
0-1
  6
CONTINUOUS
 62
     3
 10
9266.1481469999999
 20
8002.7847239999974
 30
0.0
 11
9261.8872330000013
 21
8132.7143850000029
 31
0.0
  0
LINE
  5
468D
  8
0-1
  6
CONTINUOUS
 62
     3
 10
9266.1481469999999
 20
8002.7847239999974
 30
0.0
 11
9266.1481469999999
 21
7795.5489240000006
 31
0.0
  0
LINE
  5
468E
  8
0-1
  6
CONTINUOUS
 62
     3
 10
12111.648278999999
 20
7795.5489240000006
 30
0.0
 11
12111.648278999999
 21
5884.5028800000018
 31
0.0
  0
LINE
  5
468F
  8
0-1
  6
CONTINUOUS
 62
     3
 10
12226.647421
 20
8099.5287460000018
 30
0.0
 11
12226.647421
 21
5884.5028800000018
 31
0.0
  0
LINE
  5
4690
  8
0-1
  6
CONTINUOUS
 62
     3
 10
12206.648344999991
 20
8098.8725359999999
 30
0.0
 11
12206.648344999991
 21
5884.5028800000018
 31
0.0
  0
LINE
  5
4691
  8
0-1
  6
CONTINUOUS
 62
     3
 10
10701.648502999969
 20
7795.5489240000006
 30
0.0
 11
10701.648502999969
 21
5934.5030449999986
 31
0.0
  0
LINE
  5
4692
  8
0-1
  6
CONTINUOUS
 62
     3
 10
10738.647684999991
 20
7795.5489240000006
 30
0.0
 11
10738.647684999991
 21
5934.5030449999986
 31
0.0
  0
LINE
  5
4693
  8
0-1
  6
CONTINUOUS
 62
     3
 10
11411.648939000001
 20
7795.5489240000006
 30
0.0
 11
11411.648939000001
 21
5934.5030449999986
 31
0.0
  0
LINE
  5
4694
  8
0-1
  6
CONTINUOUS
 62
     3
 10
11448.647131
 20
7795.5489240000006
 30
0.0
 11
11448.647131
 21
5934.5030449999986
 31
0.0
  0
LINE
  5
4695
  8
0-1
  6
CONTINUOUS
 62
     3
 10
10001.64718299999
 20
7795.5489240000006
 30
0.0
 11
10001.64718299999
 21
5934.5030449999986
 31
0.0
  0
LINE
  5
4696
  8
0-1
  6
CONTINUOUS
 62
     3
 10
10038.64834499998
 20
7795.5489240000006
 30
0.0
 11
10038.64834499998
 21
5934.5030449999986
 31
0.0
  0
LINE
  5
4697
  8
0-1
  6
CONTINUOUS
 62
     3
 10
10380.146972
 20
5934.5030449999986
 30
0.0
 11
10380.146972
 21
7795.5489240000006
 31
0.0
  0
LINE
  5
4698
  8
0-1
  6
CONTINUOUS
 62
     3
 10
10360.14789599998
 20
5934.5030449999986
 30
0.0
 11
10360.14789599998
 21
7795.5489240000006
 31
0.0
  0
LINE
  5
4699
  8
0-1
  6
CONTINUOUS
 62
     3
 10
10430.147631999989
 20
5934.5030449999986
 30
0.0
 11
10430.147631999989
 21
7795.5489240000006
 31
0.0
  0
LINE
  5
469A
  8
0-1
  6
CONTINUOUS
 62
     3
 10
10310.147236000001
 20
5934.5030449999986
 30
0.0
 11
10310.147236000001
 21
7795.5489240000006
 31
0.0
  0
LINE
  5
469B
  8
0-1
  6
CONTINUOUS
 62
     3
 10
10177.147342
 20
5934.5030449999986
 30
0.0
 11
10177.147342
 21
7795.5489240000006
 31
0.0
  0
LINE
  5
469C
  8
0-1
  6
CONTINUOUS
 62
     3
 10
10162.148529
 20
5934.5030449999986
 30
0.0
 11
10162.148529
 21
7795.5489240000006
 31
0.0
  0
LINE
  5
469D
  8
0-1
  6
CONTINUOUS
 62
     3
 10
10563.14752599997
 20
5934.5030449999986
 30
0.0
 11
10563.14752599997
 21
7795.5489240000006
 31
0.0
  0
LINE
  5
469E
  8
0-1
  6
CONTINUOUS
 62
     3
 10
10578.149307999989
 20
5934.5030449999986
 30
0.0
 11
10578.149307999989
 21
7795.5489240000006
 31
0.0
  0
LINE
  5
469F
  8
0-1
  6
CONTINUOUS
 62
     3
 10
11278.14864799998
 20
5934.5030449999986
 30
0.0
 11
11278.14864799998
 21
7795.5489240000006
 31
0.0
  0
LINE
  5
46A0
  8
0-1
  6
CONTINUOUS
 62
     3
 10
11263.146866999999
 20
5934.5030449999986
 30
0.0
 11
11263.146866999999
 21
7795.5489240000006
 31
0.0
  0
LINE
  5
46A1
  8
0-1
  6
CONTINUOUS
 62
     3
 10
10862.147870000001
 20
5934.5030449999986
 30
0.0
 11
10862.147870000001
 21
7795.5489240000006
 31
0.0
  0
LINE
  5
46A2
  8
0-1
  6
CONTINUOUS
 62
     3
 10
10877.148660999999
 20
5934.5030449999986
 30
0.0
 11
10877.148660999999
 21
7795.5489240000006
 31
0.0
  0
LINE
  5
46A3
  8
0-1
  6
CONTINUOUS
 62
     3
 10
11010.14954599999
 20
5934.5030449999986
 30
0.0
 11
11010.14954599999
 21
7795.5489240000006
 31
0.0
  0
LINE
  5
46A4
  8
0-1
  6
CONTINUOUS
 62
     3
 10
11130.146972
 20
5934.5030449999986
 30
0.0
 11
11130.146972
 21
7795.5489240000006
 31
0.0
  0
LINE
  5
46A5
  8
0-1
  6
CONTINUOUS
 62
     3
 10
11060.147236000001
 20
5934.5030449999986
 30
0.0
 11
11060.147236000001
 21
7795.5489240000006
 31
0.0
  0
LINE
  5
46A6
  8
0-1
  6
CONTINUOUS
 62
     3
 10
11080.14928199998
 20
5934.5030449999986
 30
0.0
 11
11080.14928199998
 21
7795.5489240000006
 31
0.0
  0
LINE
  5
46A7
  8
0-1
  6
CONTINUOUS
 62
     3
 10
11790.148728
 20
5934.5030449999986
 30
0.0
 11
11790.148728
 21
7795.5489240000006
 31
0.0
  0
LINE
  5
46A8
  8
0-1
  6
CONTINUOUS
 62
     3
 10
11770.149652
 20
5934.5030449999986
 30
0.0
 11
11770.149652
 21
7795.5489240000006
 31
0.0
  0
LINE
  5
46A9
  8
0-1
  6
CONTINUOUS
 62
     3
 10
11840.149387999991
 20
5934.5030449999986
 30
0.0
 11
11840.149387999991
 21
7795.5489240000006
 31
0.0
  0
LINE
  5
46AA
  8
0-1
  6
CONTINUOUS
 62
     3
 10
11720.148992
 20
5934.5030449999986
 30
0.0
 11
11720.148992
 21
7795.5489240000006
 31
0.0
  0
LINE
  5
46AB
  8
0-1
  6
CONTINUOUS
 62
     3
 10
11587.149097
 20
5934.5030449999986
 30
0.0
 11
11587.149097
 21
7795.5489240000006
 31
0.0
  0
LINE
  5
46AC
  8
0-1
  6
CONTINUOUS
 62
     3
 10
11572.14731599998
 20
5934.5030449999986
 30
0.0
 11
11572.14731599998
 21
7795.5489240000006
 31
0.0
  0
LINE
  5
46AD
  8
0-1
  6
CONTINUOUS
 62
     3
 10
11973.149281999989
 20
5934.5030449999986
 30
0.0
 11
11973.149281999989
 21
7795.5489240000006
 31
0.0
  0
LINE
  5
46AE
  8
0-1
  6
CONTINUOUS
 62
     3
 10
11988.148093999969
 20
5934.5030449999986
 30
0.0
 11
11988.148093999969
 21
7795.5489240000006
 31
0.0
  0
LINE
  5
46AF
  8
0-1
  6
CONTINUOUS
 62
     3
 10
9878.1469990000005
 20
5934.5030449999986
 30
0.0
 11
9878.1469990000005
 21
7795.5489240000006
 31
0.0
  0
LINE
  5
46B0
  8
0-1
  6
CONTINUOUS
 62
     3
 10
9863.1481860000022
 20
5934.5030449999986
 30
0.0
 11
9863.1481860000022
 21
7795.5489240000006
 31
0.0
  0
LINE
  5
46B1
  8
0-1
  6
CONTINUOUS
 62
     3
 10
9730.1492820000021
 20
5934.5030449999986
 30
0.0
 11
9730.1492820000021
 21
7795.5489240000006
 31
0.0
  0
LINE
  5
46B2
  8
0-1
  6
CONTINUOUS
 62
     3
 10
12239.148147
 20
5884.5028800000018
 30
0.0
 11
12239.148147
 21
5784.5030450000013
 31
0.0
  0
LINE
  5
46B3
  8
0-1
  6
CONTINUOUS
 62
     3
 10
6478.8364650000067
 20
7959.728215000001
 30
0.0
 11
6477.7219960000084
 21
7993.7106109999968
 31
0.0
  0
LINE
  5
46B4
  8
0-1
  6
CONTINUOUS
 62
     3
 10
6480.6219910000063
 20
7996.8065780000006
 30
0.0
 11
12310.989759
 21
8187.3392000000022
 31
0.0
  0
LINE
  5
46B5
  8
0-1
  6
CONTINUOUS
 62
     3
 10
12312.30118999998
 20
8147.3608429999986
 30
0.0
 11
6481.9344110000056
 21
7956.8282210000016
 31
0.0
  0
LINE
  5
46B6
  8
0-1
  6
CONTINUOUS
 62
     3
 10
6479.1977269999979
 20
7948.7339690000017
 30
0.0
 11
6479.1947580000051
 21
7948.7992930000028
 31
0.0
  0
LINE
  5
46B7
  8
0-1
  6
CONTINUOUS
 62
     3
 10
6479.1947580000051
 20
7948.7992930000028
 30
0.0
 11
6480.245882000002
 21
7916.7518770000024
 31
0.0
  0
LINE
  5
46B8
  8
0-1
  6
CONTINUOUS
 62
     3
 10
6485.4064869999966
 20
7911.9188830000021
 30
0.0
 11
12334.74596199999
 21
8103.0730740000017
 31
0.0
  0
LINE
  5
46B9
  8
0-1
  6
CONTINUOUS
 62
     3
 10
12330.485048
 20
8233.0027350000037
 30
0.0
 11
6481.1475530000034
 21
8041.8485440000022
 31
0.0
  0
LINE
  5
46BA
  8
0-1
  6
CONTINUOUS
 62
     3
 10
6476.3125790000049
 20
8036.6869489999981
 30
0.0
 11
6477.3627130000023
 21
8004.7048569999979
 31
0.0
  0
LINE
  5
46BB
  8
0-1
  6
CONTINUOUS
 62
     3
 10
6480.4586800000043
 20
8001.8048619999981
 30
0.0
 11
12310.827439000001
 21
8192.3374850000018
 31
0.0
  0
LINE
  5
46BC
  8
0-1
  6
CONTINUOUS
 62
     3
 10
12312.463511
 20
8142.3645380000016
 30
0.0
 11
6482.0967320000054
 21
7951.8309260000033
 31
0.0
  0
LINE
  5
46BD
  8
0-1
  6
CONTINUOUS
 62
     3
 10
6493.6393050000052
 20
8042.258304
 30
0.0
 11
6497.9002180000016
 21
7912.3276530000021
 31
0.0
  0
LINE
  5
46BE
  8
0-5
  6
CONTINUOUS
 62
     4
 10
12319.148411
 20
5884.5028800000018
 30
0.0
 11
14036.608359
 21
5884.5028800000018
 31
0.0
  0
LINE
  5
46BF
  8
0-5
  6
CONTINUOUS
 62
     4
 10
14064.234519999991
 20
6092.3488670000024
 30
0.0
 11
13824.23273899999
 21
6092.3488670000024
 31
0.0
  0
LINE
  5
46C0
  8
0-5
  6
CONTINUOUS
 62
     4
 10
13944.232144999991
 20
5884.5028800000018
 30
0.0
 11
14064.234519999991
 21
6092.3488670000024
 31
0.0
  0
LINE
  5
46C1
  8
0-5
  6
CONTINUOUS
 62
     4
 10
13824.23273899999
 20
6092.3488670000024
 30
0.0
 11
13944.232144999991
 21
5884.5028800000018
 31
0.0
  0
LINE
  5
46C2
  8
2-0
  6
CENTER2
 62
     6
 10
6698.6481469999999
 20
5521.8496330000035
 30
0.0
 11
6698.6481469999999
 21
6578.9927249999982
 31
0.0
  0
LINE
  5
46C3
  8
2-0
  6
CENTER2
 62
     6
 10
9266.1481469999999
 20
5521.8496330000035
 30
0.0
 11
9266.1481469999999
 21
6578.9927249999982
 31
0.0
  0
LINE
  5
46C4
  8
2-0
  6
CENTER2
 62
     6
 10
12184.148147
 20
5521.8496330000035
 30
0.0
 11
12184.148147
 21
6578.9927249999982
 31
0.0
  0
ARC
  5
46C5
  8
0-1
  6
CONTINUOUS
 62
     3
 10
6482.0393260000046
 20
7999.3542180000022
 30
0.0
 40
2.5
 50
271.87799100002042
 51
91.877991000020657
  0
ARC
  5
46C6
  8
0-1
  6
CONTINUOUS
 62
     3
 10
6483.5140670000046
 20
7954.3795560000017
 30
0.0
 40
2.5
 50
271.87799100002042
 51
91.877991000020657
  0
ARC
  5
46C7
  8
0-1
  6
CONTINUOUS
 62
     3
 10
6480.7199770000043
 20
7993.8085970000011
 30
0.0
 40
3.0
 50
91.877991000020657
 51
181.87799100002039
  0
ARC
  5
46C8
  8
0-1
  6
CONTINUOUS
 62
     3
 10
12311.64597
 20
8167.3500219999987
 30
0.0
 40
20.0
 50
271.87799100002042
 51
91.877991000020657
  0
ARC
  5
46C9
  8
0-1
  6
CONTINUOUS
 62
     3
 10
6481.8344460000053
 20
7959.8271909999976
 30
0.0
 40
3.0
 50
181.87799100002039
 51
271.87799100002042
  0
ARC
  5
46CA
  8
0-1
  6
CONTINUOUS
 62
     3
 10
6482.1947180000061
 20
7948.8329450000028
 30
0.0
 40
3.0
 50
91.877991000020657
 51
181.87799100002039
  0
ARC
  5
46CB
  8
0-1
  6
CONTINUOUS
 62
     3
 10
6485.2431770000039
 20
7916.9151880000027
 30
0.0
 40
5.0
 50
181.87799100002039
 51
271.87799100002042
  0
ARC
  5
46CC
  8
0-1
  6
CONTINUOUS
 62
     3
 10
12306.647685
 20
8167.1867120000006
 30
0.0
 40
69.999999000000003
 50
293.66478000014621
 51
70.09120200017675
  0
ARC
  5
46CD
  8
0-1
  6
CONTINUOUS
 62
     3
 10
6481.3098730000056
 20
8036.851249000003
 30
0.0
 40
5.0
 50
91.877991000020657
 51
181.87799100002039
  0
ARC
  5
46CE
  8
0-1
  6
CONTINUOUS
 62
     3
 10
6480.3597040000031
 20
8004.8028430000031
 30
0.0
 40
3.0
 50
181.87799100002039
 51
271.87799100002042
  0
ARC
  5
46CF
  8
0-1
  6
CONTINUOUS
 62
     3
 10
12311.64597
 20
8167.3500219999987
 30
0.0
 40
24.999998999999999
 50
271.87799100002042
 51
91.877991000020657
  0
TEXT
  5
46D0
  8
0-0
  6
CONTINUOUS
 62
     7
 10
13485.141205999989
 20
6172.3491309999972
 30
0.0
 40
160.0
  1
布基礎天端
 72
     4
 11
13943.807872666661
 21
6252.3491309999981
 31
0.0
  0
TEXT
  5
46D1
  8
2-0
  6
CONTINUOUS
 62
     7
 10
7785.557326000001
 20
2907.3829785833759
 30
0.0
 40
160.0
  1
側 面 立 面 図
 72
     4
 11
8430.890659333334
 21
2987.3829785833759
 31
0.0
  0
TEXT
  5
46D2
  8
2-0
  6
CONTINUOUS
 62
     7
 10
9782.3828444709598
 20
2934.5783475833759
 30
0.0
 40
160.0
  1
1
 72
     4
 11
9809.0495111376258
 21
3014.5783475833759
 31
0.0
  0
TEXT
  5
46D3
  8
2-0
  6
CONTINUOUS
 62
     7
 10
10025.47156172165
 20
2854.5798155833741
 30
0.0
 40
160.0
  1
80
 72
     4
 11
10145.47156172165
 21
2934.5798155833741
 31
0.0
  0
TEXT
  5
46D4
  8
2-0
  6
CONTINUOUS
 62
     7
 10
9283.3848104709577
 20
2907.3829785833759
 30
0.0
 40
160.0
  1
(S=  /   )
 72
     4
 11
9843.3848104709577
 21
2987.3829785833759
 31
0.0
  0
LINE
  5
46D5
  8
0-1
  6
CONTINUOUS
 62
     3
 10
6951.1486080000213
 20
5934.5030449999986
 30
0.0
 11
6951.1486080000213
 21
7795.5489240000006
 31
0.0
  0
LINE
  5
46D6
  8
0-1
  6
CONTINUOUS
 62
     3
 10
6936.1497960000197
 20
5934.5030449999986
 30
0.0
 11
6936.1497960000197
 21
7795.5489240000006
 31
0.0
  0
LINE
  5
46D7
  8
0-5
  6
CONTINUOUS
 62
     4
 10
12184.148147
 20
4104.5034410000017
 30
0.0
 11
12184.148147
 21
3944.503903000003
 31
0.0
  0
LINE
  5
46D8
  8
0-5
  6
CONTINUOUS
 62
     4
 10
9266.1481469999999
 20
4104.5034410000017
 30
0.0
 11
9266.1481469999999
 21
3944.503903000003
 31
0.0
  0
LINE
  5
46D9
  8
0-5
  6
CONTINUOUS
 62
     4
 10
6698.6481469999999
 20
4104.5034410000017
 30
0.0
 11
6698.6481469999999
 21
3944.503903000003
 31
0.0
  0
CIRCLE
  5
46DA
  8
0-5
  6
CONTINUOUS
 62
     4
 10
9266.1481469999999
 20
3744.502748000004
 30
0.0
 40
199.9999949999999
  0
CIRCLE
  5
46DB
  8
0-5
  6
CONTINUOUS
 62
     4
 10
12184.148147
 20
3744.502748000004
 30
0.0
 40
199.9999949999999
  0
CIRCLE
  5
46DC
  8
0-5
  6
CONTINUOUS
 62
     4
 10
6698.6481469999999
 20
3744.502748000004
 30
0.0
 40
199.9999949999999
  0
TEXT
  5
46DD
  8
0-5
  6
CONTINUOUS
 62
     7
 10
12137.191987
 20
3661.291952000005
 30
0.0
 40
160.0
  1
A
 72
     4
 11
12190.52532033333
 21
3741.291952000005
 31
0.0
  0
TEXT
  5
46DE
  8
0-5
  6
CONTINUOUS
 62
     7
 10
9219.1919869999983
 20
3661.291952000005
 30
0.0
 40
160.0
  1
B
 72
     4
 11
9272.5253203333323
 21
3741.291952000005
 31
0.0
  0
TEXT
  5
46DF
  8
0-5
  6
CONTINUOUS
 62
     7
 10
6651.6919870000047
 20
3661.291952000005
 30
0.0
 40
160.0
  1
C
 72
     4
 11
6705.0253203333377
 21
3741.291952000005
 31
0.0
  0
LINE
  5
46E0
  8
SUNPOU
  6
CONTINUOUS
 10
6476.1481469999999
 20
9032.5045560000017
 30
0.0
 11
5940.0225054121402
 21
9032.5045560000017
 31
0.0
  0
LINE
  5
46E1
  8
0-5
  6
CONTINUOUS
 62
     4
 10
12319.14890700001
 20
5784.5025500000047
 30
0.0
 11
17234.043068999999
 21
5784.5025500000047
 31
0.0
  0
LINE
  5
46EC
  8
0-1
  6
CONTINUOUS
 62
     3
 10
26451.049930999961
 20
5884.5023850000016
 30
0.0
 11
26351.05058999997
 21
5884.5023850000016
 31
0.0
  0
LINE
  5
46ED
  8
0-1
  6
CONTINUOUS
 62
     3
 10
26351.05058999997
 20
5884.5023850000016
 30
0.0
 11
26351.05058999997
 21
5784.5025500000047
 31
0.0
  0
LINE
  5
46EE
  8
0-1
  6
CONTINUOUS
 62
     3
 10
26451.049930999961
 20
5784.5025500000047
 30
0.0
 11
26451.049930999961
 21
5884.5023850000016
 31
0.0
  0
LINE
  5
46EF
  8
0-1
  6
CONTINUOUS
 62
     3
 10
26423.550457999962
 20
8233.0027340000088
 30
0.0
 11
26423.550457999962
 21
5884.5023850000016
 31
0.0
  0
LINE
  5
46F0
  8
0-1
  6
CONTINUOUS
 62
     3
 10
26443.549534999958
 20
8103.0018110000028
 30
0.0
 11
26443.549534999958
 21
5884.5023850000016
 31
0.0
  0
LINE
  5
46F1
  8
0-1
  6
CONTINUOUS
 62
     3
 10
26313.550589999952
 20
7792.5024439999988
 30
0.0
 11
26313.550589999952
 21
5784.5025500000047
 31
0.0
  0
LINE
  5
46F2
  8
0-1
  6
CONTINUOUS
 62
     3
 10
26358.550985999958
 20
8103.0018110000028
 30
0.0
 11
26358.550985999958
 21
5884.5023850000016
 31
0.0
  0
LINE
  5
46FD
  8
0-1
  6
CONTINUOUS
 62
     3
 10
22287.500706999988
 20
7218.2188650000007
 30
0.0
 11
22041.656375999992
 21
7403.6596710000031
 31
0.0
  0
LINE
  5
46FE
  8
0-1
  6
CONTINUOUS
 62
     3
 10
21899.532880999988
 20
7135.086508000004
 30
0.0
 11
21741.656375999992
 21
7254.175830000002
 31
0.0
  0
LINE
  5
46FF
  8
0-1
  6
CONTINUOUS
 62
     3
 10
21681.55027399999
 20
6605.406431000004
 30
0.0
 11
22287.500706999988
 21
7218.2188650000007
 31
0.0
  0
LINE
  5
4706
  8
0-1
  6
CONTINUOUS
 62
     3
 10
21735.777205999992
 20
6564.5026490000037
 30
0.0
 11
23045.050590999988
 21
6564.5026490000037
 31
0.0
  0
LINE
  5
4707
  8
0-1
  6
CONTINUOUS
 62
     3
 10
21705.375759999999
 20
6629.5026160000052
 30
0.0
 11
23045.050590999988
 21
6629.5026160000052
 31
0.0
  0
LINE
  5
4708
  8
0-1
  6
CONTINUOUS
 62
     3
 10
21769.648747999989
 20
6694.5025830000022
 30
0.0
 11
23045.050590999988
 21
6694.5025830000022
 31
0.0
  0
LINE
  5
4709
  8
0-1
  6
CONTINUOUS
 62
     3
 10
21833.921736999971
 20
6759.5030450000049
 30
0.0
 11
23045.050590999988
 21
6759.5030450000049
 31
0.0
  0
LINE
  5
470A
  8
0-1
  6
CONTINUOUS
 62
     3
 10
21898.19274599999
 20
6824.5020220000033
 30
0.0
 11
23045.050590999988
 21
6824.5020220000033
 31
0.0
  0
LINE
  5
470B
  8
0-1
  6
CONTINUOUS
 62
     3
 10
21962.46573499998
 20
6889.5024840000024
 30
0.0
 11
23045.050590999988
 21
6889.5024840000024
 31
0.0
  0
LINE
  5
470C
  8
0-1
  6
CONTINUOUS
 62
     3
 10
22026.736744999969
 20
6954.5024510000021
 30
0.0
 11
23045.050590999988
 21
6954.5024510000021
 31
0.0
  0
LINE
  5
470D
  8
0-1
  6
CONTINUOUS
 62
     3
 10
22091.009732999992
 20
7019.5029130000021
 30
0.0
 11
23045.050590999988
 21
7019.5029130000021
 31
0.0
  0
LINE
  5
470E
  8
0-1
  6
CONTINUOUS
 62
     3
 10
22155.280742999981
 20
7084.5018900000023
 30
0.0
 11
23045.050590999988
 21
7084.5018900000023
 31
0.0
  0
LINE
  5
470F
  8
0-1
  6
CONTINUOUS
 62
     3
 10
22219.553730999982
 20
7149.5023520000068
 30
0.0
 11
23045.050590999988
 21
7149.5023520000068
 31
0.0
  0
LINE
  5
4710
  8
0-1
  6
CONTINUOUS
 62
     3
 10
22283.824741
 20
7214.5023190000011
 30
0.0
 11
23045.050590999988
 21
7214.5023190000011
 31
0.0
  0
LINE
  5
4711
  8
0-1
  6
CONTINUOUS
 62
     3
 10
22206.25532599997
 20
7279.5022860000063
 30
0.0
 11
23045.050590999988
 21
7279.5022860000063
 31
0.0
  0
LINE
  5
4712
  8
0-1
  6
CONTINUOUS
 62
     3
 10
22120.080942999979
 20
7344.502748000009
 30
0.0
 11
23045.050590999988
 21
7344.502748000009
 31
0.0
  0
LINE
  5
4713
  8
0-1
  6
CONTINUOUS
 62
     3
 10
22041.656375999992
 20
7409.5027150000051
 30
0.0
 11
23045.050590999988
 21
7409.5027150000051
 31
0.0
  0
LINE
  5
4714
  8
0-1
  6
CONTINUOUS
 62
     3
 10
22041.656375999992
 20
7474.5031770000023
 30
0.0
 11
23045.050590999988
 21
7474.5031770000023
 31
0.0
  0
LINE
  5
4715
  8
0-1
  6
CONTINUOUS
 62
     3
 10
22041.656375999992
 20
7539.5021539999998
 30
0.0
 11
23045.050590999988
 21
7539.5021539999998
 31
0.0
  0
LINE
  5
4716
  8
0-1
  6
CONTINUOUS
 62
     3
 10
22041.656375999992
 20
7604.5026160000107
 30
0.0
 11
23045.050590999988
 21
7604.5026160000107
 31
0.0
  0
LINE
  5
4717
  8
0-1
  6
CONTINUOUS
 62
     3
 10
22041.656375999992
 20
7669.5025830000022
 30
0.0
 11
23045.050590999988
 21
7669.5025830000022
 31
0.0
  0
LINE
  5
4718
  8
0-1
  6
CONTINUOUS
 62
     3
 10
22041.656375999992
 20
7723.9621080000024
 30
0.0
 11
23045.050590999988
 21
7723.9621080000024
 31
0.0
  0
LINE
  5
4719
  8
0-1
  6
CONTINUOUS
 62
     3
 10
22041.656375999992
 20
7792.5024439999988
 30
0.0
 11
23848.044282999988
 21
7792.5024439999988
 31
0.0
  0
LINE
  5
471C
  8
0-1
  6
CONTINUOUS
 62
     3
 10
22041.656375999992
 20
6333.7768910000023
 30
0.0
 11
22041.656375999992
 21
5367.1433260000031
 31
0.0
  0
LINE
  5
471D
  8
0-1
  6
CONTINUOUS
 62
     3
 10
21741.656375999992
 20
6184.2910710000042
 30
0.0
 11
21741.656375999992
 21
5367.1433260000031
 31
0.0
  0
LINE
  5
471E
  8
0-1
  6
CONTINUOUS
 62
     3
 10
22041.656375999992
 20
5849.5020220000024
 30
0.0
 11
23045.050590999988
 21
5849.5020220000024
 31
0.0
  0
LINE
  5
471F
  8
0-1
  6
CONTINUOUS
 62
     3
 10
22041.656375999992
 20
5914.5029790000053
 30
0.0
 11
23045.050590999988
 21
5914.5029790000053
 31
0.0
  0
LINE
  5
4720
  8
0-1
  6
CONTINUOUS
 62
     3
 10
22041.656375999992
 20
5979.5019560000028
 30
0.0
 11
23045.050590999988
 21
5979.5019560000028
 31
0.0
  0
LINE
  5
4721
  8
0-1
  6
CONTINUOUS
 62
     3
 10
22041.656375999992
 20
6109.5023850000061
 30
0.0
 11
23045.050590999988
 21
6109.5023850000061
 31
0.0
  0
LINE
  5
4722
  8
0-1
  6
CONTINUOUS
 62
     3
 10
22041.656375999992
 20
6044.5029130000039
 30
0.0
 11
23045.050590999988
 21
6044.5029130000039
 31
0.0
  0
LINE
  5
4723
  8
0-1
  6
CONTINUOUS
 62
     3
 10
22041.656375999992
 20
6174.5023520000022
 30
0.0
 11
23045.050590999988
 21
6174.5023520000022
 31
0.0
  0
LINE
  5
4724
  8
0-1
  6
CONTINUOUS
 62
     3
 10
22041.656375999992
 20
6239.5023190000038
 30
0.0
 11
23045.050590999988
 21
6239.5023190000038
 31
0.0
  0
LINE
  5
4725
  8
0-1
  6
CONTINUOUS
 62
     3
 10
22041.656375999992
 20
6304.5017910000033
 30
0.0
 11
23045.050590999988
 21
6304.5017910000033
 31
0.0
  0
LINE
  5
4726
  8
0-1
  6
CONTINUOUS
 62
     3
 10
21994.294414999989
 20
6369.5032430000037
 30
0.0
 11
23045.050590999988
 21
6369.5032430000037
 31
0.0
  0
LINE
  5
4727
  8
0-1
  6
CONTINUOUS
 62
     3
 10
21908.120031999992
 20
6434.5022200000049
 30
0.0
 11
23045.050590999988
 21
6434.5022200000049
 31
0.0
  0
LINE
  5
4728
  8
0-1
  6
CONTINUOUS
 62
     3
 10
21821.947628999998
 20
6499.5026820000021
 30
0.0
 11
23045.050590999988
 21
6499.5026820000021
 31
0.0
  0
LINE
  5
4729
  8
0-1
  6
CONTINUOUS
 62
     3
 10
23090.050986999981
 20
8103.0018110000028
 30
0.0
 11
23090.050986999981
 21
5784.5025500000047
 31
0.0
  0
LINE
  5
472A
  8
0-1
  6
CONTINUOUS
 62
     3
 10
23175.04755499999
 20
8103.0018110000028
 30
0.0
 11
23175.04755499999
 21
5784.5025500000047
 31
0.0
  0
LINE
  5
472B
  8
0-1
  6
CONTINUOUS
 62
     3
 10
23220.047950999979
 20
7792.5024439999988
 30
0.0
 11
23220.047950999979
 21
5784.5025500000047
 31
0.0
  0
LINE
  5
472C
  8
0-1
  6
CONTINUOUS
 62
     3
 10
23045.050590999988
 20
7792.5024439999988
 30
0.0
 11
23045.050590999988
 21
5784.5025500000047
 31
0.0
  0
LINE
  5
472D
  8
0-1
  6
CONTINUOUS
 62
     3
 10
22041.656375999992
 20
6333.7768910000023
 30
0.0
 11
21681.55027399999
 21
6605.406431000004
 31
0.0
  0
LINE
  5
4730
  8
0-1
  6
CONTINUOUS
 62
     3
 10
23220.047950999979
 20
7723.9621080000024
 30
0.0
 11
26313.550589999952
 21
7723.9621080000024
 31
0.0
  0
LINE
  5
4731
  8
0-1
  6
CONTINUOUS
 62
     3
 10
23220.047950999979
 20
6369.5032430000037
 30
0.0
 11
26313.550589999952
 21
6369.5032430000037
 31
0.0
  0
LINE
  5
4732
  8
0-1
  6
CONTINUOUS
 62
     3
 10
23220.047950999979
 20
6434.5022200000049
 30
0.0
 11
26313.550589999952
 21
6434.5022200000049
 31
0.0
  0
LINE
  5
4733
  8
0-1
  6
CONTINUOUS
 62
     3
 10
23220.047950999979
 20
6499.5026820000021
 30
0.0
 11
26313.550589999952
 21
6499.5026820000021
 31
0.0
  0
LINE
  5
4734
  8
0-1
  6
CONTINUOUS
 62
     3
 10
23220.047950999979
 20
6564.5026490000037
 30
0.0
 11
26313.550589999952
 21
6564.5026490000037
 31
0.0
  0
LINE
  5
4735
  8
0-1
  6
CONTINUOUS
 62
     3
 10
23220.047950999979
 20
6629.5026160000052
 30
0.0
 11
26313.550589999952
 21
6629.5026160000052
 31
0.0
  0
LINE
  5
4736
  8
0-1
  6
CONTINUOUS
 62
     3
 10
23220.047950999979
 20
6694.5025830000022
 30
0.0
 11
26313.550589999952
 21
6694.5025830000022
 31
0.0
  0
LINE
  5
4737
  8
0-1
  6
CONTINUOUS
 62
     3
 10
23220.047950999979
 20
6759.5030450000049
 30
0.0
 11
26313.550589999952
 21
6759.5030450000049
 31
0.0
  0
LINE
  5
4738
  8
0-1
  6
CONTINUOUS
 62
     3
 10
23220.047950999979
 20
6824.5020220000033
 30
0.0
 11
26313.550589999952
 21
6824.5020220000033
 31
0.0
  0
LINE
  5
4739
  8
0-1
  6
CONTINUOUS
 62
     3
 10
23220.047950999979
 20
6889.5024840000024
 30
0.0
 11
26313.550589999952
 21
6889.5024840000024
 31
0.0
  0
LINE
  5
473A
  8
0-1
  6
CONTINUOUS
 62
     3
 10
23220.047950999979
 20
6954.5024510000021
 30
0.0
 11
26313.550589999952
 21
6954.5024510000021
 31
0.0
  0
LINE
  5
473B
  8
0-1
  6
CONTINUOUS
 62
     3
 10
23220.047950999979
 20
7019.5029130000021
 30
0.0
 11
26313.550589999952
 21
7019.5029130000021
 31
0.0
  0
LINE
  5
473C
  8
0-1
  6
CONTINUOUS
 62
     3
 10
23220.047950999979
 20
7084.5018900000023
 30
0.0
 11
26313.550589999952
 21
7084.5018900000023
 31
0.0
  0
LINE
  5
473D
  8
0-1
  6
CONTINUOUS
 62
     3
 10
23220.047950999979
 20
7149.5023520000068
 30
0.0
 11
26313.550589999952
 21
7149.5023520000068
 31
0.0
  0
LINE
  5
473E
  8
0-1
  6
CONTINUOUS
 62
     3
 10
23220.047950999979
 20
7214.5023190000011
 30
0.0
 11
26313.550589999952
 21
7214.5023190000011
 31
0.0
  0
LINE
  5
473F
  8
0-1
  6
CONTINUOUS
 62
     3
 10
23220.047950999979
 20
7279.5022860000063
 30
0.0
 11
26313.550589999952
 21
7279.5022860000063
 31
0.0
  0
LINE
  5
4740
  8
0-1
  6
CONTINUOUS
 62
     3
 10
23220.047950999979
 20
7344.502748000009
 30
0.0
 11
26313.550589999952
 21
7344.502748000009
 31
0.0
  0
LINE
  5
4741
  8
0-1
  6
CONTINUOUS
 62
     3
 10
23220.047950999979
 20
7409.5027150000051
 30
0.0
 11
26313.550589999952
 21
7409.5027150000051
 31
0.0
  0
LINE
  5
4742
  8
0-1
  6
CONTINUOUS
 62
     3
 10
23220.047950999979
 20
7474.5031770000023
 30
0.0
 11
26313.550589999952
 21
7474.5031770000023
 31
0.0
  0
LINE
  5
4743
  8
0-1
  6
CONTINUOUS
 62
     3
 10
23220.047950999979
 20
7539.5021539999998
 30
0.0
 11
26313.550589999952
 21
7539.5021539999998
 31
0.0
  0
LINE
  5
4744
  8
0-1
  6
CONTINUOUS
 62
     3
 10
23220.047950999979
 20
7604.5026160000107
 30
0.0
 11
26313.550589999952
 21
7604.5026160000107
 31
0.0
  0
LINE
  5
4745
  8
0-1
  6
CONTINUOUS
 62
     3
 10
23220.047950999979
 20
7669.5025830000022
 30
0.0
 11
26313.550589999952
 21
7669.5025830000022
 31
0.0
  0
LINE
  5
4746
  8
0-1
  6
CONTINUOUS
 62
     3
 10
23220.047950999979
 20
5849.5020220000024
 30
0.0
 11
26313.550589999952
 21
5849.5020220000024
 31
0.0
  0
LINE
  5
4747
  8
0-1
  6
CONTINUOUS
 62
     3
 10
23220.047950999979
 20
5914.5029790000053
 30
0.0
 11
26313.550589999952
 21
5914.5029790000053
 31
0.0
  0
LINE
  5
4748
  8
0-1
  6
CONTINUOUS
 62
     3
 10
23220.047950999979
 20
5979.5019560000028
 30
0.0
 11
26313.550589999952
 21
5979.5019560000028
 31
0.0
  0
LINE
  5
4749
  8
0-1
  6
CONTINUOUS
 62
     3
 10
23220.047950999979
 20
6044.5029130000039
 30
0.0
 11
26313.550589999952
 21
6044.5029130000039
 31
0.0
  0
LINE
  5
474A
  8
0-1
  6
CONTINUOUS
 62
     3
 10
23220.047950999979
 20
6109.5023850000061
 30
0.0
 11
26313.550589999952
 21
6109.5023850000061
 31
0.0
  0
LINE
  5
474B
  8
0-1
  6
CONTINUOUS
 62
     3
 10
23220.047950999979
 20
6174.5023520000022
 30
0.0
 11
26313.550589999952
 21
6174.5023520000022
 31
0.0
  0
LINE
  5
474C
  8
0-1
  6
CONTINUOUS
 62
     3
 10
23220.047950999979
 20
6239.5023190000038
 30
0.0
 11
26313.550589999952
 21
6239.5023190000038
 31
0.0
  0
LINE
  5
474D
  8
0-1
  6
CONTINUOUS
 62
     3
 10
23220.047950999979
 20
6304.5017910000033
 30
0.0
 11
26313.550589999952
 21
6304.5017910000033
 31
0.0
  0
LINE
  5
474F
  8
0-1
  6
CONTINUOUS
 62
     3
 10
23175.04755499999
 20
7792.5024439999988
 30
0.0
 11
26358.550985999958
 21
7792.5024439999988
 31
0.0
  0
LINE
  5
4750
  8
0-1
  6
CONTINUOUS
 62
     3
 10
22041.656375999992
 20
5784.5025500000047
 30
0.0
 11
26451.049930999961
 21
5784.5025500000047
 31
0.0
  0
LINE
  5
4752
  8
0-1
  6
CONTINUOUS
 62
     3
 10
22041.656375999992
 20
7403.6596710000031
 30
0.0
 11
22041.656375999992
 21
8607.6820520000038
 31
0.0
  0
LINE
  5
4753
  8
0-1
  6
CONTINUOUS
 62
     3
 10
21741.656375999992
 20
7254.175830000002
 30
0.0
 11
21741.656375999992
 21
8607.6820520000038
 31
0.0
  0
LINE
  5
475D
  8
0-1
  6
CONTINUOUS
 62
     3
 10
20720.042673
 20
6564.5026490000037
 30
0.0
 11
21335.340391999969
 21
6564.5026490000037
 31
0.0
  0
LINE
  5
475E
  8
0-1
  6
CONTINUOUS
 62
     3
 10
20720.042673
 20
6629.5026160000052
 30
0.0
 11
21399.611400999958
 21
6629.5026160000052
 31
0.0
  0
LINE
  5
475F
  8
0-1
  6
CONTINUOUS
 62
     3
 10
20720.042673
 20
6694.5025830000022
 30
0.0
 11
21463.884389999981
 21
6694.5025830000022
 31
0.0
  0
LINE
  5
4760
  8
0-1
  6
CONTINUOUS
 62
     3
 10
20720.042673
 20
6759.5030450000049
 30
0.0
 11
21528.155399999981
 21
6759.5030450000049
 31
0.0
  0
LINE
  5
4761
  8
0-1
  6
CONTINUOUS
 62
     3
 10
20720.042673
 20
6824.5020220000033
 30
0.0
 11
21592.428388
 21
6824.5020220000033
 31
0.0
  0
LINE
  5
4762
  8
0-1
  6
CONTINUOUS
 62
     3
 10
20720.042673
 20
6889.5024840000024
 30
0.0
 11
21656.699397999979
 21
6889.5024840000024
 31
0.0
  0
LINE
  5
476A
  8
0-1
  6
CONTINUOUS
 62
     3
 10
20720.042673
 20
6369.5032430000037
 30
0.0
 11
21496.118870999991
 21
6369.5032430000037
 31
0.0
  0
LINE
  5
476B
  8
0-1
  6
CONTINUOUS
 62
     3
 10
20720.042673
 20
6434.5022200000049
 30
0.0
 11
21409.946467999991
 21
6434.5022200000049
 31
0.0
  0
LINE
  5
476C
  8
0-1
  6
CONTINUOUS
 62
     3
 10
20720.042673
 20
6499.5026820000021
 30
0.0
 11
21323.77208599999
 21
6499.5026820000021
 31
0.0
  0
LINE
  5
476D
  8
0-1
  6
CONTINUOUS
 62
     3
 10
20720.042673
 20
6304.5017910000033
 30
0.0
 11
21582.28731499999
 21
6304.5017910000033
 31
0.0
  0
LINE
  5
476E
  8
0-1
  6
CONTINUOUS
 62
     3
 10
20590.04372799999
 20
8103.0018110000028
 30
0.0
 11
20590.04372799999
 21
5784.5025500000047
 31
0.0
  0
LINE
  5
476F
  8
0-1
  6
CONTINUOUS
 62
     3
 10
20545.045311999958
 20
7792.5024439999988
 30
0.0
 11
20545.045311999958
 21
5784.5025500000047
 31
0.0
  0
LINE
  5
4770
  8
0-1
  6
CONTINUOUS
 62
     3
 10
20675.046235999958
 20
8103.0018110000028
 30
0.0
 11
20675.046235999958
 21
5784.5025500000047
 31
0.0
  0
LINE
  5
4771
  8
0-1
  6
CONTINUOUS
 62
     3
 10
20720.042673
 20
7792.5024439999988
 30
0.0
 11
20720.042673
 21
5784.5025500000047
 31
0.0
  0
LINE
  5
4772
  8
0-1
  6
CONTINUOUS
 62
     3
 10
20720.042673
 20
7792.5024439999988
 30
0.0
 11
20720.042673
 21
5784.5025500000047
 31
0.0
  0
LINE
  5
477D
  8
0-1
  6
CONTINUOUS
 62
     3
 10
17414.044652
 20
5884.5023850000016
 30
0.0
 11
17414.044652
 21
5784.5025500000047
 31
0.0
  0
LINE
  5
477E
  8
0-1
  6
CONTINUOUS
 62
     3
 10
17314.043333000001
 20
5784.5025500000047
 30
0.0
 11
17314.043333000001
 21
5884.5023850000016
 31
0.0
  0
LINE
  5
477F
  8
0-1
  6
CONTINUOUS
 62
     3
 10
17314.043333000001
 20
5884.5023850000016
 30
0.0
 11
17414.044652
 21
5884.5023850000016
 31
0.0
  0
LINE
  5
4780
  8
0-1
  6
CONTINUOUS
 62
     3
 10
17451.544652
 20
7792.5024439999988
 30
0.0
 11
17451.544652
 21
5784.5025500000047
 31
0.0
  0
LINE
  5
4781
  8
0-1
  6
CONTINUOUS
 62
     3
 10
17406.542277
 20
8103.0018110000028
 30
0.0
 11
17406.542277
 21
5884.5023850000016
 31
0.0
  0
LINE
  5
4782
  8
0-1
  6
CONTINUOUS
 62
     3
 10
17341.544783999991
 20
8233.0027340000088
 30
0.0
 11
17341.544783999991
 21
5884.5023850000016
 31
0.0
  0
LINE
  5
4783
  8
0-1
  6
CONTINUOUS
 62
     3
 10
17321.541748999982
 20
8103.0018110000028
 30
0.0
 11
17321.541748999982
 21
5884.5023850000016
 31
0.0
  0
LINE
  5
4784
  8
0-1
  6
CONTINUOUS
 62
     3
 10
17406.542277
 20
7792.5024439999988
 30
0.0
 11
20590.04372799999
 21
7792.5024439999988
 31
0.0
  0
LINE
  5
4786
  8
0-1
  6
CONTINUOUS
 62
     3
 10
17451.544652
 20
6304.5017910000033
 30
0.0
 11
20545.045311999958
 21
6304.5017910000033
 31
0.0
  0
LINE
  5
4787
  8
0-1
  6
CONTINUOUS
 62
     3
 10
17451.544652
 20
6239.5023190000038
 30
0.0
 11
20545.045311999958
 21
6239.5023190000038
 31
0.0
  0
LINE
  5
4788
  8
0-1
  6
CONTINUOUS
 62
     3
 10
17451.544652
 20
6174.5023520000022
 30
0.0
 11
20545.045311999958
 21
6174.5023520000022
 31
0.0
  0
LINE
  5
4789
  8
0-1
  6
CONTINUOUS
 62
     3
 10
17451.544652
 20
6109.5023850000061
 30
0.0
 11
20545.045311999958
 21
6109.5023850000061
 31
0.0
  0
LINE
  5
478A
  8
0-1
  6
CONTINUOUS
 62
     3
 10
17451.544652
 20
6044.5029130000039
 30
0.0
 11
20545.045311999958
 21
6044.5029130000039
 31
0.0
  0
LINE
  5
478B
  8
0-1
  6
CONTINUOUS
 62
     3
 10
17451.544652
 20
5979.5019560000028
 30
0.0
 11
20545.045311999958
 21
5979.5019560000028
 31
0.0
  0
LINE
  5
478C
  8
0-1
  6
CONTINUOUS
 62
     3
 10
17451.544652
 20
5914.5029790000053
 30
0.0
 11
20545.045311999958
 21
5914.5029790000053
 31
0.0
  0
LINE
  5
478D
  8
0-1
  6
CONTINUOUS
 62
     3
 10
17451.544652
 20
5849.5020220000024
 30
0.0
 11
20545.045311999958
 21
5849.5020220000024
 31
0.0
  0
LINE
  5
478E
  8
0-1
  6
CONTINUOUS
 62
     3
 10
17451.544652
 20
7669.5025830000022
 30
0.0
 11
20545.045311999958
 21
7669.5025830000022
 31
0.0
  0
LINE
  5
478F
  8
0-1
  6
CONTINUOUS
 62
     3
 10
17451.544652
 20
7604.5026160000107
 30
0.0
 11
20545.045311999958
 21
7604.5026160000107
 31
0.0
  0
LINE
  5
4790
  8
0-1
  6
CONTINUOUS
 62
     3
 10
17451.544652
 20
7539.5021539999998
 30
0.0
 11
20545.045311999958
 21
7539.5021539999998
 31
0.0
  0
LINE
  5
4791
  8
0-1
  6
CONTINUOUS
 62
     3
 10
17451.544652
 20
7474.5031770000023
 30
0.0
 11
20545.045311999958
 21
7474.5031770000023
 31
0.0
  0
LINE
  5
4792
  8
0-1
  6
CONTINUOUS
 62
     3
 10
17451.544652
 20
7409.5027150000051
 30
0.0
 11
20545.045311999958
 21
7409.5027150000051
 31
0.0
  0
LINE
  5
4793
  8
0-1
  6
CONTINUOUS
 62
     3
 10
17451.544652
 20
7344.502748000009
 30
0.0
 11
20545.045311999958
 21
7344.502748000009
 31
0.0
  0
LINE
  5
4794
  8
0-1
  6
CONTINUOUS
 62
     3
 10
17451.544652
 20
7279.5022860000063
 30
0.0
 11
20545.045311999958
 21
7279.5022860000063
 31
0.0
  0
LINE
  5
4795
  8
0-1
  6
CONTINUOUS
 62
     3
 10
17451.544652
 20
7214.5023190000011
 30
0.0
 11
20545.045311999958
 21
7214.5023190000011
 31
0.0
  0
LINE
  5
4796
  8
0-1
  6
CONTINUOUS
 62
     3
 10
17451.544652
 20
7149.5023520000068
 30
0.0
 11
20545.045311999958
 21
7149.5023520000068
 31
0.0
  0
LINE
  5
4797
  8
0-1
  6
CONTINUOUS
 62
     3
 10
17451.544652
 20
7084.5018900000023
 30
0.0
 11
20545.045311999958
 21
7084.5018900000023
 31
0.0
  0
LINE
  5
4798
  8
0-1
  6
CONTINUOUS
 62
     3
 10
17451.544652
 20
7019.5029130000021
 30
0.0
 11
20545.045311999958
 21
7019.5029130000021
 31
0.0
  0
LINE
  5
4799
  8
0-1
  6
CONTINUOUS
 62
     3
 10
17451.544652
 20
6954.5024510000021
 30
0.0
 11
20545.045311999958
 21
6954.5024510000021
 31
0.0
  0
LINE
  5
479A
  8
0-1
  6
CONTINUOUS
 62
     3
 10
17451.544652
 20
6889.5024840000024
 30
0.0
 11
20545.045311999958
 21
6889.5024840000024
 31
0.0
  0
LINE
  5
479B
  8
0-1
  6
CONTINUOUS
 62
     3
 10
17451.544652
 20
6824.5020220000033
 30
0.0
 11
20545.045311999958
 21
6824.5020220000033
 31
0.0
  0
LINE
  5
479C
  8
0-1
  6
CONTINUOUS
 62
     3
 10
17451.544652
 20
6759.5030450000049
 30
0.0
 11
20545.045311999958
 21
6759.5030450000049
 31
0.0
  0
LINE
  5
479D
  8
0-1
  6
CONTINUOUS
 62
     3
 10
17451.544652
 20
6694.5025830000022
 30
0.0
 11
20545.045311999958
 21
6694.5025830000022
 31
0.0
  0
LINE
  5
479E
  8
0-1
  6
CONTINUOUS
 62
     3
 10
17451.544652
 20
6629.5026160000052
 30
0.0
 11
20545.045311999958
 21
6629.5026160000052
 31
0.0
  0
LINE
  5
479F
  8
0-1
  6
CONTINUOUS
 62
     3
 10
17451.544652
 20
6564.5026490000037
 30
0.0
 11
20545.045311999958
 21
6564.5026490000037
 31
0.0
  0
LINE
  5
47A0
  8
0-1
  6
CONTINUOUS
 62
     3
 10
17451.544652
 20
6499.5026820000021
 30
0.0
 11
20545.045311999958
 21
6499.5026820000021
 31
0.0
  0
LINE
  5
47A1
  8
0-1
  6
CONTINUOUS
 62
     3
 10
17451.544652
 20
6434.5022200000049
 30
0.0
 11
20545.045311999958
 21
6434.5022200000049
 31
0.0
  0
LINE
  5
47A2
  8
0-1
  6
CONTINUOUS
 62
     3
 10
17451.544652
 20
6369.5032430000037
 30
0.0
 11
20545.045311999958
 21
6369.5032430000037
 31
0.0
  0
LINE
  5
47A3
  8
0-1
  6
CONTINUOUS
 62
     3
 10
17451.544652
 20
7723.9621080000024
 30
0.0
 11
20545.045311999958
 21
7723.9621080000024
 31
0.0
  0
LINE
  5
47A6
  8
0-1
  6
CONTINUOUS
 62
     3
 10
17314.043333000001
 20
5784.5025500000047
 30
0.0
 11
21741.656375999992
 21
5784.5025500000047
 31
0.0
  0
LINE
  5
47A9
  8
0-1
  6
CONTINUOUS
 62
     3
 10
20720.042673
 20
7723.9621080000024
 30
0.0
 11
21741.656375999992
 21
7723.9621080000024
 31
0.0
  0
LINE
  5
47AA
  8
0-1
  6
CONTINUOUS
 62
     3
 10
20720.042673
 20
6954.5024510000021
 30
0.0
 11
21720.97238599999
 21
6954.5024510000021
 31
0.0
  0
LINE
  5
47AB
  8
0-1
  6
CONTINUOUS
 62
     3
 10
20720.042673
 20
7019.5029130000021
 30
0.0
 11
21785.24339599998
 21
7019.5029130000021
 31
0.0
  0
LINE
  5
47AC
  8
0-1
  6
CONTINUOUS
 62
     3
 10
20720.042673
 20
7084.5018900000023
 30
0.0
 11
21849.516384999992
 21
7084.5018900000023
 31
0.0
  0
LINE
  5
47AD
  8
0-1
  6
CONTINUOUS
 62
     3
 10
20720.042673
 20
7149.5023520000068
 30
0.0
 11
21880.420628999989
 21
7149.5023520000068
 31
0.0
  0
LINE
  5
47AE
  8
0-1
  6
CONTINUOUS
 62
     3
 10
20720.042673
 20
7214.5023190000011
 30
0.0
 11
21794.252184999961
 21
7214.5023190000011
 31
0.0
  0
LINE
  5
47AF
  8
0-1
  6
CONTINUOUS
 62
     3
 10
20720.042673
 20
7279.5022860000063
 30
0.0
 11
21741.656375999992
 21
7279.5022860000063
 31
0.0
  0
LINE
  5
47B0
  8
0-1
  6
CONTINUOUS
 62
     3
 10
20720.042673
 20
7344.502748000009
 30
0.0
 11
21741.656375999992
 21
7344.502748000009
 31
0.0
  0
LINE
  5
47B1
  8
0-1
  6
CONTINUOUS
 62
     3
 10
20720.042673
 20
7409.5027150000051
 30
0.0
 11
21741.656375999992
 21
7409.5027150000051
 31
0.0
  0
LINE
  5
47B2
  8
0-1
  6
CONTINUOUS
 62
     3
 10
20720.042673
 20
7474.5031770000023
 30
0.0
 11
21741.656375999992
 21
7474.5031770000023
 31
0.0
  0
LINE
  5
47B3
  8
0-1
  6
CONTINUOUS
 62
     3
 10
20720.042673
 20
7539.5021539999998
 30
0.0
 11
21741.656375999992
 21
7539.5021539999998
 31
0.0
  0
LINE
  5
47B4
  8
0-1
  6
CONTINUOUS
 62
     3
 10
20720.042673
 20
7604.5026160000107
 30
0.0
 11
21741.656375999992
 21
7604.5026160000107
 31
0.0
  0
LINE
  5
47B5
  8
0-1
  6
CONTINUOUS
 62
     3
 10
20720.042673
 20
7669.5025830000022
 30
0.0
 11
21741.656375999992
 21
7669.5025830000022
 31
0.0
  0
LINE
  5
47B6
  8
0-1
  6
CONTINUOUS
 62
     3
 10
20720.042673
 20
5849.5020220000024
 30
0.0
 11
21741.656375999992
 21
5849.5020220000024
 31
0.0
  0
LINE
  5
47B7
  8
0-1
  6
CONTINUOUS
 62
     3
 10
20720.042673
 20
5914.5029790000053
 30
0.0
 11
21741.656375999992
 21
5914.5029790000053
 31
0.0
  0
LINE
  5
47B8
  8
0-1
  6
CONTINUOUS
 62
     3
 10
20720.042673
 20
5979.5019560000028
 30
0.0
 11
21741.656375999992
 21
5979.5019560000028
 31
0.0
  0
LINE
  5
47B9
  8
0-1
  6
CONTINUOUS
 62
     3
 10
20720.042673
 20
6044.5029130000039
 30
0.0
 11
21741.656375999992
 21
6044.5029130000039
 31
0.0
  0
LINE
  5
47BA
  8
0-1
  6
CONTINUOUS
 62
     3
 10
20720.042673
 20
6109.5023850000061
 30
0.0
 11
21741.656375999992
 21
6109.5023850000061
 31
0.0
  0
LINE
  5
47BB
  8
0-1
  6
CONTINUOUS
 62
     3
 10
20720.042673
 20
6174.5023520000022
 30
0.0
 11
21741.656375999992
 21
6174.5023520000022
 31
0.0
  0
LINE
  5
47BC
  8
0-1
  6
CONTINUOUS
 62
     3
 10
20720.042673
 20
6239.5023190000038
 30
0.0
 11
21668.459717999991
 21
6239.5023190000038
 31
0.0
  0
LINE
  5
47BD
  8
0-1
  6
CONTINUOUS
 62
     3
 10
20675.046235999958
 20
7792.5024439999988
 30
0.0
 11
21741.656375999992
 21
7792.5024439999988
 31
0.0
  0
LINE
  5
47BE
  8
0-1
  6
CONTINUOUS
 62
     3
 10
21741.656375999992
 20
6184.2910710000042
 30
0.0
 11
21293.58442699998
 21
6522.2740740000008
 31
0.0
  0
LINE
  5
47BF
  8
0-1
  6
CONTINUOUS
 62
     3
 10
21899.532880999988
 20
7135.086508000004
 30
0.0
 11
21293.58442699998
 21
6522.2740740000008
 31
0.0
  0
LINE
  5
47C3
  8
0-2
  6
CONTINUOUS
 62
     4
 10
25130.491270999981
 20
6531.7282540000042
 30
0.0
 11
25030.491930999971
 21
6531.7282540000042
 31
0.0
  0
LINE
  5
47C4
  8
0-2
  6
CONTINUOUS
 62
     4
 10
24403.105290999989
 20
6531.7282540000042
 30
0.0
 11
24503.10463199997
 21
6531.7282540000042
 31
0.0
  0
LINE
  5
47C5
  8
0-2
  6
CONTINUOUS
 62
     4
 10
19361.985002500001
 20
6531.7282540000042
 30
0.0
 11
19261.985662499988
 21
6531.7282540000042
 31
0.0
  0
LINE
  5
47C6
  8
0-2
  6
CONTINUOUS
 62
     4
 10
18634.60100150001
 20
6531.7282540000042
 30
0.0
 11
18734.598362500001
 21
6531.7282540000042
 31
0.0
  0
LINE
  5
47C7
  8
0-5
  6
CONTINUOUS
 62
     4
 10
26401.049270999949
 20
4104.5024510000003
 30
0.0
 11
26401.049270999949
 21
3944.5024180000041
 31
0.0
  0
LINE
  5
47C8
  8
0-5
  6
CONTINUOUS
 62
     4
 10
23132.54927099996
 20
4104.5024510000003
 30
0.0
 11
23132.54927099996
 21
3944.5024180000041
 31
0.0
  0
LINE
  5
47C9
  8
0-5
  6
CONTINUOUS
 62
     4
 10
20632.543991999992
 20
4104.5024510000003
 30
0.0
 11
20632.543991999992
 21
3944.5024180000041
 31
0.0
  0
LINE
  5
47CA
  8
0-5
  6
CONTINUOUS
 62
     4
 10
17364.043991999992
 20
4104.5024510000003
 30
0.0
 11
17364.043991999992
 21
3944.5024180000041
 31
0.0
  0
LINE
  5
47CB
  8
2-0
  6
CENTER2
 62
     6
 10
26401.049270999949
 20
5521.8501270000033
 30
0.0
 11
26401.049270999949
 21
6558.992164000002
 31
0.0
  0
LINE
  5
47CC
  8
2-0
  6
CENTER2
 62
     6
 10
23132.54927099996
 20
5521.8501270000033
 30
0.0
 11
23132.54927099996
 21
6558.992164000002
 31
0.0
  0
LINE
  5
47CD
  8
2-0
  6
CENTER2
 62
     6
 10
20632.543991999992
 20
5521.8501270000033
 30
0.0
 11
20632.543991999992
 21
6558.992164000002
 31
0.0
  0
LINE
  5
47CE
  8
2-0
  6
CENTER2
 62
     6
 10
17364.043991999992
 20
5521.8501270000033
 30
0.0
 11
17364.043991999992
 21
6558.992164000002
 31
0.0
  0
CIRCLE
  5
47E7
  8
0-5
  6
CONTINUOUS
 62
     4
 10
26401.049270999949
 20
3744.502748000004
 30
0.0
 40
199.9999949999999
  0
CIRCLE
  5
47E8
  8
0-5
  6
CONTINUOUS
 62
     4
 10
23132.54927099996
 20
3744.502748000004
 30
0.0
 40
199.9999949999999
  0
CIRCLE
  5
47E9
  8
0-5
  6
CONTINUOUS
 62
     4
 10
20632.543991999992
 20
3744.502748000004
 30
0.0
 40
199.9999949999999
  0
CIRCLE
  5
47EA
  8
0-5
  6
CONTINUOUS
 62
     4
 10
17364.043991999992
 20
3744.502748000004
 30
0.0
 40
199.9999949999999
  0
TEXT
  5
47EB
  8
0-5
  6
CONTINUOUS
 62
     7
 10
26349.114620999961
 20
3660.001801000004
 30
0.0
 40
160.0
  1
n
 72
     4
 11
26402.447954333289
 21
3713.3351343333379
 31
0.0
  0
TEXT
  5
47EC
  8
0-5
  6
CONTINUOUS
 62
     7
 10
22966.424157175232
 20
3674.5189094394018
 30
0.0
 40
140.0
  1
n-1
 72
     4
 11
23129.75749050856
 21
3744.5189094394018
 31
0.0
  0
TEXT
  5
47ED
  8
0-5
  6
CONTINUOUS
 62
     7
 10
16745.868052999991
 20
6513.8627967420016
 30
0.0
 40
160.0
  1
(2131.5)
 50
90.0
 72
     4
 11
16665.868052999991
 21
6967.1961300753346
 31
0.0
  0
TEXT
  5
47EE
  8
0-5
  6
CONTINUOUS
 62
     7
 10
20585.61554499999
 20
3657.9727940000048
 30
0.0
 40
160.0
  1
2
 72
     4
 11
20638.948878333322
 21
3737.9727940000039
 31
0.0
  0
TEXT
  5
47EF
  8
0-5
  6
CONTINUOUS
 62
     7
 10
17317.111585999981
 20
3657.9727940000048
 30
0.0
 40
160.0
  1
1
 72
     4
 11
17343.778252666649
 21
3737.9727940000039
 31
0.0
  0
TEXT
  5
47F0
  8
2-0
  6
CONTINUOUS
 62
     7
 10
20257.241046999981
 20
2926.063367000002
 30
0.0
 40
160.0
  1
正 面 立 面 図
 72
     4
 11
20902.57438033331
 21
3006.063367000002
 31
0.0
  0
CIRCLE
  5
47F1
  8
0-4
  6
CONTINUOUS
 62
     4
 10
18998.293991999992
 20
6270.5584910000016
 30
0.0
 40
18.487504999999981
  0
CIRCLE
  5
47F2
  8
0-4
  6
CONTINUOUS
 62
     4
 10
24766.79927099996
 20
6270.5584910000016
 30
0.0
 40
18.487504999999981
  0
TEXT
  5
47F3
  8
2-0
  6
CONTINUOUS
 62
     7
 10
22254.066565470959
 20
2953.258736000002
 30
0.0
 40
160.0
  1
1
 72
     4
 11
22280.733232137631
 21
3033.258736000002
 31
0.0
  0
TEXT
  5
47F4
  8
2-0
  6
CONTINUOUS
 62
     7
 10
22497.155282721651
 20
2873.260204000002
 30
0.0
 40
160.0
  1
80
 72
     4
 11
22617.155282721651
 21
2953.260204000002
 31
0.0
  0
TEXT
  5
47F5
  8
2-0
  6
CONTINUOUS
 62
     7
 10
21755.068531470952
 20
2926.063367000002
 30
0.0
 40
160.0
  1
(S=  /   )
 72
     4
 11
22315.068531470952
 21
3006.063367000002
 31
0.0
  0
LINE
  5
47F6
  8
SUNPOU
  6
CONTINUOUS
 10
17081.543991999992
 20
4584.5025500000056
 30
0.0
 11
16723.58898527889
 21
4584.5025500000056
 31
0.0
  0
LINE
  5
47F7
  8
SUNPOU
  6
CONTINUOUS
 10
26683.553229999969
 20
4584.5025500000056
 30
0.0
 11
27041.508236721082
 21
4584.5025500000056
 31
0.0
  0
LINE
  5
47F8
  8
0-5
  6
CONTINUOUS
 62
     4
 10
15142.17493199998
 20
5992.3480420000051
 30
0.0
 11
15262.171368999991
 21
5784.5025500000083
 31
0.0
  0
LINE
  5
47F9
  8
0-5
  6
CONTINUOUS
 62
     4
 10
15262.171368999991
 20
5784.5025500000083
 30
0.0
 11
15382.17176499999
 21
5992.3480420000051
 31
0.0
  0
LINE
  5
47FA
  8
0-5
  6
CONTINUOUS
 62
     4
 10
15382.17176499999
 20
5992.3480420000051
 30
0.0
 11
15142.17493199998
 21
5992.3480420000051
 31
0.0
  0
TEXT
  5
47FB
  8
0-5
  6
CONTINUOUS
 62
     7
 10
15142.17493199998
 20
6072.3488000000016
 30
0.0
 40
160.0
  1
G.L
 72
     4
 11
15302.17493199998
 21
6152.3488000000034
 31
0.0
  0
LINE
  5
47FC
  8
2-0
  6
CONTINUOUS
 62
     6
 10
24717.89035499996
 20
13355.934321999979
 30
0.0
 11
25717.883756999941
 21
13355.934321999979
 31
0.0
  0
LINE
  5
47FD
  8
2-0
  6
CONTINUOUS
 62
     6
 10
26185.824133999959
 20
13826.355035999981
 30
0.0
 11
25717.883756999941
 21
13355.934321999979
 31
0.0
  0
LINE
  5
47FE
  8
2-0
  6
CONTINUOUS
 62
     6
 10
26147.183930999949
 20
17017.962683000002
 30
0.0
 11
25842.488512999949
 21
17121.616213999991
 31
0.0
  0
LINE
  5
47FF
  8
2-0
  6
CONTINUOUS
 62
     6
 10
26302.205969999941
 20
16528.340638999991
 30
0.0
 11
25842.488512999949
 21
16284.427327999991
 31
0.0
  0
LINE
  5
4800
  8
2-0
  6
CONTINUOUS
 62
     6
 10
24922.485477999959
 20
16284.427327999991
 30
0.0
 11
25842.488512999949
 21
16284.427327999991
 31
0.0
  0
LINE
  5
4801
  8
2-0
  6
CONTINUOUS
 62
     6
 10
24642.494450999959
 20
17121.616213999991
 30
0.0
 11
25842.488512999949
 21
17121.616213999991
 31
0.0
  0
LINE
  5
4802
  8
2-0
  6
CONTINUOUS
 62
     6
 10
26218.383254999961
 20
14148.038681999949
 30
0.0
 11
25842.488512999949
 21
14328.98251699998
 31
0.0
  0
LINE
  5
4803
  8
2-0
  6
CONTINUOUS
 62
     6
 10
25322.486796999961
 20
14328.98251699998
 30
0.0
 11
25842.488512999949
 21
14328.98251699998
 31
0.0
  0
LINE
  5
4804
  8
2-0
  6
CONTINUOUS
 62
     4
 10
23132.54927099996
 20
19603.93597200001
 30
0.0
 11
23132.54927099996
 21
20333.932937000001
 31
0.0
  0
LINE
  5
4805
  8
2-0
  6
CONTINUOUS
 62
     3
 10
26413.549930999961
 20
19414.933518000002
 30
0.0
 11
26413.549930999961
 21
19408.937556000012
 31
0.0
  0
LINE
  5
4806
  8
2-0
  6
CONTINUOUS
 62
     3
 10
26413.549930999961
 20
19408.937556000012
 30
0.0
 11
26443.547554999961
 21
19408.937556000012
 31
0.0
  0
LINE
  5
4807
  8
2-0
  6
CONTINUOUS
 62
     3
 10
26443.547554999961
 20
19438.93715999999
 30
0.0
 11
26362.545654999962
 21
19438.93715999999
 31
0.0
  0
LINE
  5
4808
  8
2-0
  6
CONTINUOUS
 62
     3
 10
26413.549930999961
 20
19398.64009999999
 30
0.0
 11
26443.547554999961
 21
19398.64009999999
 31
0.0
  0
LINE
  5
4809
  8
2-0
  6
CONTINUOUS
 62
     3
 10
26413.549930999961
 20
19416.64184199999
 30
0.0
 11
26413.549930999961
 21
19398.64009999999
 31
0.0
  0
LINE
  5
480A
  8
2-0
  6
CONTINUOUS
 62
     3
 10
26438.547290999959
 20
19416.64184199999
 30
0.0
 11
26413.549930999961
 21
19416.64184199999
 31
0.0
  0
LINE
  5
480B
  8
2-0
  6
CONTINUOUS
 62
     3
 10
26438.547290999959
 20
19411.63366000001
 30
0.0
 11
26438.547290999959
 21
19416.64184199999
 31
0.0
  0
LINE
  5
480C
  8
2-0
  6
CONTINUOUS
 62
     3
 10
26431.54573399997
 20
19411.63366000001
 30
0.0
 11
26438.547290999959
 21
19411.63366000001
 31
0.0
  0
LINE
  5
480D
  8
2-0
  6
CONTINUOUS
 62
     3
 10
26331.249465999961
 20
19511.93388700001
 30
0.0
 11
26331.249465999961
 21
19518.939403
 31
0.0
  0
LINE
  5
480E
  8
2-0
  6
CONTINUOUS
 62
     3
 10
26331.249465999961
 20
19518.939403
 30
0.0
 11
26336.249729999941
 21
19518.939403
 31
0.0
  0
LINE
  5
480F
  8
2-0
  6
CONTINUOUS
 62
     3
 10
26336.249729999941
 20
19518.939403
 30
0.0
 11
26336.249729999941
 21
19493.930165999998
 31
0.0
  0
LINE
  5
4810
  8
2-0
  6
CONTINUOUS
 62
     3
 10
26336.249729999941
 20
19493.930165999998
 30
0.0
 11
26318.247987999941
 21
19493.930165999998
 31
0.0
  0
LINE
  5
4811
  8
2-0
  6
CONTINUOUS
 62
     3
 10
26318.247987999941
 20
19493.930165999998
 30
0.0
 11
26318.247987999941
 21
19523.933729000011
 31
0.0
  0
LINE
  5
4812
  8
2-0
  6
CONTINUOUS
 62
     3
 10
26328.54544399997
 20
19523.933729000011
 30
0.0
 11
26443.547554999961
 21
19523.933729000011
 31
0.0
  0
LINE
  5
4813
  8
2-0
  6
CONTINUOUS
 62
     3
 10
26328.54544399997
 20
19493.930165999998
 30
0.0
 11
26328.54544399997
 21
19523.933729000011
 31
0.0
  0
LINE
  5
4814
  8
2-0
  6
CONTINUOUS
 62
     3
 10
26334.547343999959
 20
19493.930165999998
 30
0.0
 11
26328.54544399997
 21
19493.930165999998
 31
0.0
  0
LINE
  5
4815
  8
2-0
  6
CONTINUOUS
 62
     3
 10
26431.54573399997
 20
19058.336837499981
 30
0.0
 11
26438.547290999959
 21
19058.336837499981
 31
0.0
  0
LINE
  5
4816
  8
2-0
  6
CONTINUOUS
 62
     3
 10
26438.547290999959
 20
19058.336837499981
 30
0.0
 11
26438.547290999959
 21
19063.33710149999
 31
0.0
  0
LINE
  5
4817
  8
2-0
  6
CONTINUOUS
 62
     3
 10
26438.547290999959
 20
19063.33710149999
 30
0.0
 11
26413.549930999961
 21
19063.33710149999
 31
0.0
  0
LINE
  5
4818
  8
2-0
  6
CONTINUOUS
 62
     3
 10
26413.549930999961
 20
19063.33710149999
 30
0.0
 11
26413.549930999961
 21
19045.341297499981
 31
0.0
  0
LINE
  5
4819
  8
2-0
  6
CONTINUOUS
 62
     3
 10
26413.549930999961
 20
19045.341297499981
 30
0.0
 11
26443.547554999961
 21
19045.341297499981
 31
0.0
  0
LINE
  5
481A
  8
2-0
  6
CONTINUOUS
 62
     3
 10
26413.549930999961
 20
19061.432804499949
 30
0.0
 11
26413.549930999961
 21
19055.434863499991
 31
0.0
  0
LINE
  5
481B
  8
2-0
  6
CONTINUOUS
 62
     3
 10
26413.549930999961
 20
19055.434863499991
 30
0.0
 11
26443.547554999961
 21
19055.434863499991
 31
0.0
  0
LINE
  5
481C
  8
2-0
  6
CONTINUOUS
 62
     3
 10
26443.547554999961
 20
19055.434863499991
 30
0.0
 11
26443.547554999961
 21
19092.436024499992
 31
0.0
  0
LINE
  5
481D
  8
2-0
  6
CONTINUOUS
 62
     3
 10
26413.549930999961
 20
19092.436024499992
 30
0.0
 11
26443.547554999961
 21
19092.436024499992
 31
0.0
  0
LINE
  5
481E
  8
2-0
  6
CONTINUOUS
 62
     3
 10
26413.549930999961
 20
19086.43214449998
 30
0.0
 11
26413.549930999961
 21
19092.436024499992
 31
0.0
  0
LINE
  5
481F
  8
2-0
  6
CONTINUOUS
 62
     3
 10
26413.549930999961
 20
19102.531569499981
 30
0.0
 11
26443.547554999961
 21
19102.531569499981
 31
0.0
  0
LINE
  5
4820
  8
2-0
  6
CONTINUOUS
 62
     3
 10
26413.549930999961
 20
19084.529827499991
 30
0.0
 11
26413.549930999961
 21
19102.531569499981
 31
0.0
  0
LINE
  5
4821
  8
2-0
  6
CONTINUOUS
 62
     3
 10
26438.547290999959
 20
19084.529827499991
 30
0.0
 11
26413.549930999961
 21
19084.529827499991
 31
0.0
  0
LINE
  5
4822
  8
2-0
  6
CONTINUOUS
 62
     3
 10
26438.547290999959
 20
19089.53009149995
 30
0.0
 11
26438.547290999959
 21
19084.529827499991
 31
0.0
  0
LINE
  5
4823
  8
2-0
  6
CONTINUOUS
 62
     3
 10
26431.54573399997
 20
19089.53009149995
 30
0.0
 11
26438.547290999959
 21
19089.53009149995
 31
0.0
  0
LINE
  5
4824
  8
2-0
  6
CONTINUOUS
 62
     3
 10
26431.54573399997
 20
18357.335847999992
 30
0.0
 11
26438.547290999959
 21
18357.335847999992
 31
0.0
  0
LINE
  5
4825
  8
2-0
  6
CONTINUOUS
 62
     3
 10
26438.547290999959
 20
18357.335847999992
 30
0.0
 11
26438.547290999959
 21
18362.342049999981
 31
0.0
  0
LINE
  5
4826
  8
2-0
  6
CONTINUOUS
 62
     3
 10
26438.547290999959
 20
18362.342049999981
 30
0.0
 11
26413.549930999961
 21
18362.342049999981
 31
0.0
  0
LINE
  5
4827
  8
2-0
  6
CONTINUOUS
 62
     3
 10
26413.549930999961
 20
18362.342049999981
 30
0.0
 11
26413.549930999961
 21
18344.340307999992
 31
0.0
  0
LINE
  5
4828
  8
2-0
  6
CONTINUOUS
 62
     3
 10
26413.549930999961
 20
18344.340307999992
 30
0.0
 11
26443.547554999961
 21
18344.340307999992
 31
0.0
  0
LINE
  5
4829
  8
2-0
  6
CONTINUOUS
 62
     3
 10
26413.549930999961
 20
18360.431814999982
 30
0.0
 11
26413.549930999961
 21
18354.435852999992
 31
0.0
  0
LINE
  5
482A
  8
2-0
  6
CONTINUOUS
 62
     3
 10
26413.549930999961
 20
18354.435852999992
 30
0.0
 11
26443.547554999961
 21
18354.435852999992
 31
0.0
  0
LINE
  5
482B
  8
2-0
  6
CONTINUOUS
 62
     3
 10
26443.547554999961
 20
18354.435852999992
 30
0.0
 11
26443.547554999961
 21
18391.435034999991
 31
0.0
  0
LINE
  5
482C
  8
2-0
  6
CONTINUOUS
 62
     3
 10
26413.549930999961
 20
18391.435034999991
 30
0.0
 11
26443.547554999961
 21
18391.435034999991
 31
0.0
  0
LINE
  5
482D
  8
2-0
  6
CONTINUOUS
 62
     3
 10
26413.549930999961
 20
18385.43907299999
 30
0.0
 11
26413.549930999961
 21
18391.435034999991
 31
0.0
  0
LINE
  5
482E
  8
2-0
  6
CONTINUOUS
 62
     3
 10
26413.549930999961
 20
18401.530579999991
 30
0.0
 11
26443.547554999961
 21
18401.530579999991
 31
0.0
  0
LINE
  5
482F
  8
2-0
  6
CONTINUOUS
 62
     3
 10
26413.549930999961
 20
18383.528837999991
 30
0.0
 11
26413.549930999961
 21
18401.530579999991
 31
0.0
  0
LINE
  5
4830
  8
2-0
  6
CONTINUOUS
 62
     3
 10
26438.547290999959
 20
18383.528837999991
 30
0.0
 11
26413.549930999961
 21
18383.528837999991
 31
0.0
  0
LINE
  5
4831
  8
2-0
  6
CONTINUOUS
 62
     3
 10
26438.547290999959
 20
18388.535039999992
 30
0.0
 11
26438.547290999959
 21
18383.528837999991
 31
0.0
  0
LINE
  5
4832
  8
2-0
  6
CONTINUOUS
 62
     3
 10
26431.54573399997
 20
18388.535039999992
 30
0.0
 11
26438.547290999959
 21
18388.535039999992
 31
0.0
  0
LINE
  5
4833
  8
2-0
  6
CONTINUOUS
 62
     3
 10
26431.54573399997
 20
17687.52910199999
 30
0.0
 11
26438.547290999959
 21
17687.52910199999
 31
0.0
  0
LINE
  5
4834
  8
2-0
  6
CONTINUOUS
 62
     3
 10
26438.547290999959
 20
17687.52910199999
 30
0.0
 11
26438.547290999959
 21
17682.540714999981
 31
0.0
  0
LINE
  5
4835
  8
2-0
  6
CONTINUOUS
 62
     3
 10
26438.547290999959
 20
17682.540714999981
 30
0.0
 11
26413.549930999961
 21
17682.540714999981
 31
0.0
  0
LINE
  5
4836
  8
2-0
  6
CONTINUOUS
 62
     3
 10
26413.549930999961
 20
17682.540714999981
 30
0.0
 11
26413.549930999961
 21
17700.53651799999
 31
0.0
  0
LINE
  5
4837
  8
2-0
  6
CONTINUOUS
 62
     3
 10
26413.549930999961
 20
17700.53651799999
 30
0.0
 11
26443.547554999961
 21
17700.53651799999
 31
0.0
  0
LINE
  5
4838
  8
2-0
  6
CONTINUOUS
 62
     3
 10
26413.549930999961
 20
17684.43907299999
 30
0.0
 11
26413.549930999961
 21
17690.43503499998
 31
0.0
  0
LINE
  5
4839
  8
2-0
  6
CONTINUOUS
 62
     3
 10
26413.549930999961
 20
17690.43503499998
 30
0.0
 11
26443.547554999961
 21
17690.43503499998
 31
0.0
  0
LINE
  5
483A
  8
2-0
  6
CONTINUOUS
 62
     3
 10
26443.547554999961
 20
17690.43503499998
 30
0.0
 11
26443.547554999961
 21
17653.435852999992
 31
0.0
  0
LINE
  5
483B
  8
2-0
  6
CONTINUOUS
 62
     3
 10
26413.549930999961
 20
17653.435852999992
 30
0.0
 11
26443.547554999961
 21
17653.435852999992
 31
0.0
  0
LINE
  5
483C
  8
2-0
  6
CONTINUOUS
 62
     3
 10
26413.549930999961
 20
17659.43775399998
 30
0.0
 11
26413.549930999961
 21
17653.435852999992
 31
0.0
  0
LINE
  5
483D
  8
2-0
  6
CONTINUOUS
 62
     3
 10
26413.549930999961
 20
17643.34624699999
 30
0.0
 11
26443.547554999961
 21
17643.34624699999
 31
0.0
  0
LINE
  5
483E
  8
2-0
  6
CONTINUOUS
 62
     3
 10
26413.549930999961
 20
17661.342049999981
 30
0.0
 11
26413.549930999961
 21
17643.34624699999
 31
0.0
  0
LINE
  5
483F
  8
2-0
  6
CONTINUOUS
 62
     3
 10
26438.547290999959
 20
17661.342049999981
 30
0.0
 11
26413.549930999961
 21
17661.342049999981
 31
0.0
  0
LINE
  5
4840
  8
2-0
  6
CONTINUOUS
 62
     3
 10
26438.547290999959
 20
17656.34178699999
 30
0.0
 11
26438.547290999959
 21
17661.342049999981
 31
0.0
  0
LINE
  5
4841
  8
2-0
  6
CONTINUOUS
 62
     3
 10
26431.54573399997
 20
17656.34178699999
 30
0.0
 11
26438.547290999959
 21
17656.34178699999
 31
0.0
  0
LINE
  5
4842
  8
2-0
  6
CONTINUOUS
 62
     3
 10
26440.66141699997
 20
16936.432672999981
 30
0.0
 11
26440.66141699997
 21
16956.433727999982
 31
0.0
  0
LINE
  5
4843
  8
2-0
  6
CONTINUOUS
 62
     3
 10
26440.66141699997
 20
16956.433727999982
 30
0.0
 11
26355.66484799996
 21
16956.433727999982
 31
0.0
  0
LINE
  5
4844
  8
2-0
  6
CONTINUOUS
 62
     3
 10
26431.54573399997
 20
16983.040437999982
 30
0.0
 11
26438.547290999959
 21
16983.040437999982
 31
0.0
  0
LINE
  5
4845
  8
2-0
  6
CONTINUOUS
 62
     3
 10
26438.547290999959
 20
16983.040437999982
 30
0.0
 11
26438.547290999959
 21
16978.046112
 31
0.0
  0
LINE
  5
4846
  8
2-0
  6
CONTINUOUS
 62
     3
 10
26438.547290999959
 20
16978.046112
 30
0.0
 11
26413.549930999961
 21
16978.046112
 31
0.0
  0
LINE
  5
4847
  8
2-0
  6
CONTINUOUS
 62
     3
 10
26413.549930999961
 20
16978.046112
 30
0.0
 11
26413.549930999961
 21
16996.041915999991
 31
0.0
  0
LINE
  5
4848
  8
2-0
  6
CONTINUOUS
 62
     3
 10
26413.549930999961
 20
16996.041915999991
 30
0.0
 11
26443.547554999961
 21
16996.041915999991
 31
0.0
  0
LINE
  5
4849
  8
2-0
  6
CONTINUOUS
 62
     3
 10
26413.549930999961
 20
16986.43333199995
 30
0.0
 11
26413.549930999961
 21
16980.43143199999
 31
0.0
  0
LINE
  5
484A
  8
2-0
  6
CONTINUOUS
 62
     3
 10
26443.547554999961
 20
16986.43333199995
 30
0.0
 11
26413.549930999961
 21
16986.43333199995
 31
0.0
  0
LINE
  5
484B
  8
2-0
  6
CONTINUOUS
 62
     3
 10
26443.547554999961
 20
16996.041915999991
 30
0.0
 11
26443.547554999961
 21
17643.34624699999
 31
0.0
  0
LINE
  5
484C
  8
2-0
  6
CONTINUOUS
 62
     3
 10
26443.547554999961
 20
17700.53651799999
 30
0.0
 11
26443.547554999961
 21
18344.340307999992
 31
0.0
  0
LINE
  5
484D
  8
2-0
  6
CONTINUOUS
 62
     3
 10
26443.547554999961
 20
16841.431616999991
 30
0.0
 11
26413.549930999961
 21
16841.431616999991
 31
0.0
  0
LINE
  5
484E
  8
2-0
  6
CONTINUOUS
 62
     3
 10
26413.549930999961
 20
16841.431616999991
 30
0.0
 11
26413.549930999961
 21
16847.43351699999
 31
0.0
  0
LINE
  5
484F
  8
2-0
  6
CONTINUOUS
 62
     3
 10
26355.66484799996
 20
16871.43715999999
 30
0.0
 11
26440.66141699997
 21
16871.43715999999
 31
0.0
  0
LINE
  5
4850
  8
2-0
  6
CONTINUOUS
 62
     3
 10
26440.66141699997
 20
16871.43715999999
 30
0.0
 11
26440.66141699997
 21
16891.432276999982
 31
0.0
  0
LINE
  5
4851
  8
2-0
  6
CONTINUOUS
 62
     3
 10
26413.549930999961
 20
16831.82303399999
 30
0.0
 11
26443.547554999961
 21
16831.82303399999
 31
0.0
  0
LINE
  5
4852
  8
2-0
  6
CONTINUOUS
 62
     3
 10
26413.549930999961
 20
16849.818836999981
 30
0.0
 11
26413.549930999961
 21
16831.82303399999
 31
0.0
  0
LINE
  5
4853
  8
2-0
  6
CONTINUOUS
 62
     3
 10
26438.547290999959
 20
16849.818836999981
 30
0.0
 11
26413.549930999961
 21
16849.818836999981
 31
0.0
  0
LINE
  5
4854
  8
2-0
  6
CONTINUOUS
 62
     3
 10
26438.547290999959
 20
16844.81857299999
 30
0.0
 11
26438.547290999959
 21
16849.818836999981
 31
0.0
  0
LINE
  5
4855
  8
2-0
  6
CONTINUOUS
 62
     3
 10
26431.54573399997
 20
16844.81857299999
 30
0.0
 11
26438.547290999959
 21
16844.81857299999
 31
0.0
  0
LINE
  5
4856
  8
2-0
  6
CONTINUOUS
 62
     3
 10
26431.54573399997
 20
16140.33634249995
 30
0.0
 11
26438.547290999959
 21
16140.33634249995
 31
0.0
  0
LINE
  5
4857
  8
2-0
  6
CONTINUOUS
 62
     3
 10
26438.547290999959
 20
16140.33634249995
 30
0.0
 11
26438.547290999959
 21
16145.336606499979
 31
0.0
  0
LINE
  5
4858
  8
2-0
  6
CONTINUOUS
 62
     3
 10
26438.547290999959
 20
16145.336606499979
 30
0.0
 11
26413.549930999961
 21
16145.336606499979
 31
0.0
  0
LINE
  5
4859
  8
2-0
  6
CONTINUOUS
 62
     3
 10
26413.549930999961
 20
16145.336606499979
 30
0.0
 11
26413.549930999961
 21
16127.334864499981
 31
0.0
  0
LINE
  5
485A
  8
2-0
  6
CONTINUOUS
 62
     3
 10
26413.549930999961
 20
16127.334864499981
 30
0.0
 11
26443.547554999961
 21
16127.334864499981
 31
0.0
  0
LINE
  5
485B
  8
2-0
  6
CONTINUOUS
 62
     3
 10
26413.549930999961
 20
16143.432309499991
 30
0.0
 11
26413.549930999961
 21
16137.435358499981
 31
0.0
  0
LINE
  5
485C
  8
2-0
  6
CONTINUOUS
 62
     3
 10
26413.549930999961
 20
16137.435358499981
 30
0.0
 11
26443.547554999961
 21
16137.435358499981
 31
0.0
  0
LINE
  5
485D
  8
2-0
  6
CONTINUOUS
 62
     3
 10
26443.547554999961
 20
16137.435358499981
 30
0.0
 11
26443.547554999961
 21
16174.43552949999
 31
0.0
  0
LINE
  5
485E
  8
2-0
  6
CONTINUOUS
 62
     3
 10
26413.549930999961
 20
16174.43552949999
 30
0.0
 11
26443.547554999961
 21
16174.43552949999
 31
0.0
  0
LINE
  5
485F
  8
2-0
  6
CONTINUOUS
 62
     3
 10
26413.549930999961
 20
16168.432639499981
 30
0.0
 11
26413.549930999961
 21
16174.43552949999
 31
0.0
  0
LINE
  5
4860
  8
2-0
  6
CONTINUOUS
 62
     3
 10
26413.549930999961
 20
16184.531074499981
 30
0.0
 11
26443.547554999961
 21
16184.531074499981
 31
0.0
  0
LINE
  5
4861
  8
2-0
  6
CONTINUOUS
 62
     3
 10
26413.549930999961
 20
16166.523393499991
 30
0.0
 11
26413.549930999961
 21
16184.531074499981
 31
0.0
  0
LINE
  5
4862
  8
2-0
  6
CONTINUOUS
 62
     3
 10
26438.547290999959
 20
16166.523393499991
 30
0.0
 11
26413.549930999961
 21
16166.523393499991
 31
0.0
  0
LINE
  5
4863
  8
2-0
  6
CONTINUOUS
 62
     3
 10
26438.547290999959
 20
16171.52959649998
 30
0.0
 11
26438.547290999959
 21
16166.523393499991
 31
0.0
  0
LINE
  5
4864
  8
2-0
  6
CONTINUOUS
 62
     3
 10
26431.54573399997
 20
16171.52959649998
 30
0.0
 11
26438.547290999959
 21
16171.52959649998
 31
0.0
  0
LINE
  5
4865
  8
2-0
  6
CONTINUOUS
 62
     3
 10
26431.54573399997
 20
15470.76961299998
 30
0.0
 11
26438.547290999959
 21
15470.76961299998
 31
0.0
  0
LINE
  5
4866
  8
2-0
  6
CONTINUOUS
 62
     3
 10
26438.547290999959
 20
15470.76961299998
 30
0.0
 11
26438.547290999959
 21
15465.77528799999
 31
0.0
  0
LINE
  5
4867
  8
2-0
  6
CONTINUOUS
 62
     3
 10
26438.547290999959
 20
15465.77528799999
 30
0.0
 11
26413.549930999961
 21
15465.77528799999
 31
0.0
  0
LINE
  5
4868
  8
2-0
  6
CONTINUOUS
 62
     3
 10
26413.549930999961
 20
15465.77528799999
 30
0.0
 11
26413.549930999961
 21
15483.771091000001
 31
0.0
  0
LINE
  5
4869
  8
2-0
  6
CONTINUOUS
 62
     3
 10
26413.549930999961
 20
15483.771091000001
 30
0.0
 11
26443.547554999961
 21
15483.771091000001
 31
0.0
  0
LINE
  5
486A
  8
2-0
  6
CONTINUOUS
 62
     3
 10
26413.549930999961
 20
15467.67364599999
 30
0.0
 11
26413.549930999961
 21
15473.675546
 31
0.0
  0
LINE
  5
486B
  8
2-0
  6
CONTINUOUS
 62
     3
 10
26413.549930999961
 20
15473.675546
 30
0.0
 11
26443.547554999961
 21
15473.675546
 31
0.0
  0
LINE
  5
486C
  8
2-0
  6
CONTINUOUS
 62
     3
 10
26443.547554999961
 20
15436.67636499999
 30
0.0
 11
26443.547554999961
 21
15473.675546
 31
0.0
  0
LINE
  5
486D
  8
2-0
  6
CONTINUOUS
 62
     3
 10
26413.549930999961
 20
15436.67636499999
 30
0.0
 11
26443.547554999961
 21
15436.67636499999
 31
0.0
  0
LINE
  5
486E
  8
2-0
  6
CONTINUOUS
 62
     3
 10
26413.549930999961
 20
15442.67331599998
 30
0.0
 11
26413.549930999961
 21
15436.67636499999
 31
0.0
  0
LINE
  5
486F
  8
2-0
  6
CONTINUOUS
 62
     3
 10
26413.549930999961
 20
15426.57488099998
 30
0.0
 11
26443.547554999961
 21
15426.57488099998
 31
0.0
  0
LINE
  5
4870
  8
2-0
  6
CONTINUOUS
 62
     3
 10
26413.549930999961
 20
15444.582561999991
 30
0.0
 11
26413.549930999961
 21
15426.57488099998
 31
0.0
  0
LINE
  5
4871
  8
2-0
  6
CONTINUOUS
 62
     3
 10
26438.547290999959
 20
15444.582561999991
 30
0.0
 11
26413.549930999961
 21
15444.582561999991
 31
0.0
  0
LINE
  5
4872
  8
2-0
  6
CONTINUOUS
 62
     3
 10
26438.547290999959
 20
15439.582297999999
 30
0.0
 11
26438.547290999959
 21
15444.582561999991
 31
0.0
  0
LINE
  5
4873
  8
2-0
  6
CONTINUOUS
 62
     3
 10
26431.54573399997
 20
15439.582297999999
 30
0.0
 11
26438.547290999959
 21
15439.582297999999
 31
0.0
  0
LINE
  5
4874
  8
2-0
  6
CONTINUOUS
 62
     3
 10
26443.547554999961
 20
16831.82303399999
 30
0.0
 11
26443.547554999961
 21
16184.531074499981
 31
0.0
  0
LINE
  5
4875
  8
2-0
  6
CONTINUOUS
 62
     3
 10
26443.547554999961
 20
16986.43333199995
 30
0.0
 11
26443.547554999961
 21
16841.431616999991
 31
0.0
  0
LINE
  5
4876
  8
2-0
  6
CONTINUOUS
 62
     3
 10
26355.66484799996
 20
16956.433727999982
 30
0.0
 11
26355.66484799996
 21
16871.43715999999
 31
0.0
  0
LINE
  5
4877
  8
2-0
  6
CONTINUOUS
 62
     6
 10
24817.456180999961
 20
18724.88099349997
 30
0.0
 11
25842.488512999949
 21
18724.88099349997
 31
0.0
  0
LINE
  5
4878
  8
2-0
  6
CONTINUOUS
 62
     3
 10
26431.54573399997
 20
14738.34129099999
 30
0.0
 11
26438.547290999959
 21
14738.34129099999
 31
0.0
  0
LINE
  5
4879
  8
2-0
  6
CONTINUOUS
 62
     3
 10
26438.547290999959
 20
14738.34129099999
 30
0.0
 11
26438.547290999959
 21
14743.33561699999
 31
0.0
  0
LINE
  5
487A
  8
2-0
  6
CONTINUOUS
 62
     3
 10
26438.547290999959
 20
14743.33561699999
 30
0.0
 11
26413.549930999961
 21
14743.33561699999
 31
0.0
  0
LINE
  5
487B
  8
2-0
  6
CONTINUOUS
 62
     3
 10
26413.549930999961
 20
14743.33561699999
 30
0.0
 11
26413.549930999961
 21
14725.33981299999
 31
0.0
  0
LINE
  5
487C
  8
2-0
  6
CONTINUOUS
 62
     3
 10
26413.549930999961
 20
14725.33981299999
 30
0.0
 11
26443.547554999961
 21
14725.33981299999
 31
0.0
  0
LINE
  5
487D
  8
2-0
  6
CONTINUOUS
 62
     3
 10
26413.549930999961
 20
14741.43824799998
 30
0.0
 11
26413.549930999961
 21
14735.43535799999
 31
0.0
  0
LINE
  5
487E
  8
2-0
  6
CONTINUOUS
 62
     3
 10
26413.549930999961
 20
14735.43535799999
 30
0.0
 11
26443.547554999961
 21
14735.43535799999
 31
0.0
  0
LINE
  5
487F
  8
2-0
  6
CONTINUOUS
 62
     3
 10
26443.547554999961
 20
14735.43535799999
 30
0.0
 11
26443.547554999961
 21
14772.435529999981
 31
0.0
  0
LINE
  5
4880
  8
2-0
  6
CONTINUOUS
 62
     3
 10
26413.549930999961
 20
14772.435529999981
 30
0.0
 11
26443.547554999961
 21
14772.435529999981
 31
0.0
  0
LINE
  5
4881
  8
2-0
  6
CONTINUOUS
 62
     3
 10
26413.549930999961
 20
14766.438577999979
 30
0.0
 11
26413.549930999961
 21
14772.435529999981
 31
0.0
  0
LINE
  5
4882
  8
2-0
  6
CONTINUOUS
 62
     3
 10
26413.549930999961
 20
14782.536022999981
 30
0.0
 11
26443.547554999961
 21
14782.536022999981
 31
0.0
  0
LINE
  5
4883
  8
2-0
  6
CONTINUOUS
 62
     3
 10
26413.549930999961
 20
14764.52933199998
 30
0.0
 11
26413.549930999961
 21
14782.536022999981
 31
0.0
  0
LINE
  5
4884
  8
2-0
  6
CONTINUOUS
 62
     3
 10
26438.547290999959
 20
14764.52933199998
 30
0.0
 11
26413.549930999961
 21
14764.52933199998
 31
0.0
  0
LINE
  5
4885
  8
2-0
  6
CONTINUOUS
 62
     3
 10
26438.547290999959
 20
14769.53454499998
 30
0.0
 11
26438.547290999959
 21
14764.52933199998
 31
0.0
  0
LINE
  5
4886
  8
2-0
  6
CONTINUOUS
 62
     3
 10
26431.54573399997
 20
14769.53454499998
 30
0.0
 11
26438.547290999959
 21
14769.53454499998
 31
0.0
  0
LINE
  5
4887
  8
2-0
  6
CONTINUOUS
 62
     3
 10
26413.549930999961
 20
14062.43737099998
 30
0.0
 11
26413.549930999961
 21
14068.44223999998
 31
0.0
  0
LINE
  5
4888
  8
2-0
  6
CONTINUOUS
 62
     3
 10
26413.549930999961
 20
14068.44223999998
 30
0.0
 11
26443.547554999961
 21
14068.44223999998
 31
0.0
  0
LINE
  5
4889
  8
2-0
  6
CONTINUOUS
 62
     3
 10
26443.547554999961
 20
14068.44223999998
 30
0.0
 11
26443.547554999961
 21
13953.438148999991
 31
0.0
  0
LINE
  5
488A
  8
2-0
  6
CONTINUOUS
 62
     3
 10
26443.547554999961
 20
13953.438148999991
 30
0.0
 11
26358.549006999961
 21
13953.438148999991
 31
0.0
  0
LINE
  5
488B
  8
2-0
  6
CONTINUOUS
 62
     3
 10
26358.549006999961
 20
13953.438148999991
 30
0.0
 11
26358.549006999961
 21
14038.43372799998
 31
0.0
  0
LINE
  5
488C
  8
2-0
  6
CONTINUOUS
 62
     3
 10
26358.549006999961
 20
14038.43372799998
 30
0.0
 11
26390.547924999959
 21
14038.43372799998
 31
0.0
  0
LINE
  5
488D
  8
2-0
  6
CONTINUOUS
 62
     3
 10
26431.54573399997
 20
14065.471972999991
 30
0.0
 11
26438.547290999959
 21
14065.471972999991
 31
0.0
  0
LINE
  5
488E
  8
2-0
  6
CONTINUOUS
 62
     3
 10
26438.547290999959
 20
14065.471972999991
 30
0.0
 11
26438.547290999959
 21
14060.47467799995
 31
0.0
  0
LINE
  5
488F
  8
2-0
  6
CONTINUOUS
 62
     3
 10
26438.547290999959
 20
14060.47467799995
 30
0.0
 11
26413.549930999961
 21
14060.47467799995
 31
0.0
  0
LINE
  5
4890
  8
2-0
  6
CONTINUOUS
 62
     3
 10
26413.549930999961
 20
14060.47467799995
 30
0.0
 11
26413.549930999961
 21
14078.473450999991
 31
0.0
  0
LINE
  5
4891
  8
2-0
  6
CONTINUOUS
 62
     3
 10
26413.549930999961
 20
14078.473450999991
 30
0.0
 11
26443.547554999961
 21
14078.473450999991
 31
0.0
  0
LINE
  5
4892
  8
2-0
  6
CENTER2
 62
     6
 10
26401.049270999949
 20
13755.94059099997
 30
0.0
 11
26401.049270999949
 21
14911.809348999999
 31
0.0
  0
LINE
  5
4893
  8
2-0
  6
CONTINUOUS
 62
     3
 10
26443.547554999961
 20
18401.530579999991
 30
0.0
 11
26443.547554999961
 21
19045.341297499981
 31
0.0
  0
LINE
  5
4894
  8
2-0
  6
CONTINUOUS
 62
     6
 10
27136.052437999959
 20
20253.936632000001
 30
0.0
 11
28336.046499999931
 21
20253.936632000001
 31
0.0
  0
LINE
  5
4895
  8
2-0
  6
CONTINUOUS
 62
     3
 10
23205.05111899996
 20
19523.933729000011
 30
0.0
 11
23205.05111899996
 21
19493.930165999998
 31
0.0
  0
LINE
  5
4896
  8
2-0
  6
CONTINUOUS
 62
     3
 10
23205.05111899996
 20
19493.930165999998
 30
0.0
 11
23199.053176999962
 21
19493.930165999998
 31
0.0
  0
LINE
  5
4897
  8
2-0
  6
CONTINUOUS
 62
     3
 10
23214.667619999971
 20
19493.930165999998
 30
0.0
 11
23214.667619999971
 21
19523.933729000011
 31
0.0
  0
LINE
  5
4898
  8
2-0
  6
CONTINUOUS
 62
     3
 10
23196.66587799996
 20
19493.930165999998
 30
0.0
 11
23214.667619999971
 21
19493.930165999998
 31
0.0
  0
LINE
  5
4899
  8
2-0
  6
CONTINUOUS
 62
     3
 10
23196.66587799996
 20
19518.939403
 30
0.0
 11
23196.66587799996
 21
19493.930165999998
 31
0.0
  0
LINE
  5
489A
  8
2-0
  6
CONTINUOUS
 62
     3
 10
23201.666141999958
 20
19518.939403
 30
0.0
 11
23196.66587799996
 21
19518.939403
 31
0.0
  0
LINE
  5
489B
  8
2-0
  6
CONTINUOUS
 62
     3
 10
23201.666141999958
 20
19511.93388700001
 30
0.0
 11
23201.666141999958
 21
19518.939403
 31
0.0
  0
LINE
  5
489C
  8
2-0
  6
CONTINUOUS
 62
     3
 10
23175.04953499998
 20
19521.041652
 30
0.0
 11
23175.04953499998
 21
19436.043104000011
 31
0.0
  0
LINE
  5
489D
  8
2-0
  6
CONTINUOUS
 62
     3
 10
23155.052437999981
 20
19521.041652
 30
0.0
 11
23175.04953499998
 21
19521.041652
 31
0.0
  0
LINE
  5
489E
  8
2-0
  6
CONTINUOUS
 62
     3
 10
23063.43833899996
 20
19511.93388700001
 30
0.0
 11
23063.43833899996
 21
19518.939403
 31
0.0
  0
LINE
  5
489F
  8
2-0
  6
CONTINUOUS
 62
     3
 10
23063.43833899996
 20
19518.939403
 30
0.0
 11
23068.43860299997
 21
19518.939403
 31
0.0
  0
LINE
  5
48A0
  8
2-0
  6
CONTINUOUS
 62
     3
 10
23068.43860299997
 20
19518.939403
 30
0.0
 11
23068.43860299997
 21
19493.930165999998
 31
0.0
  0
LINE
  5
48A1
  8
2-0
  6
CONTINUOUS
 62
     3
 10
23068.43860299997
 20
19493.930165999998
 30
0.0
 11
23050.436860999958
 21
19493.930165999998
 31
0.0
  0
LINE
  5
48A2
  8
2-0
  6
CONTINUOUS
 62
     3
 10
23050.436860999958
 20
19493.930165999998
 30
0.0
 11
23050.436860999958
 21
19523.933729000011
 31
0.0
  0
LINE
  5
48A3
  8
2-0
  6
CONTINUOUS
 62
     3
 10
23090.05692499995
 20
19521.041652
 30
0.0
 11
23110.05204199997
 21
19521.041652
 31
0.0
  0
LINE
  5
48A4
  8
2-0
  6
CONTINUOUS
 62
     3
 10
23090.05692499995
 20
19436.043104000011
 30
0.0
 11
23090.05692499995
 21
19521.041652
 31
0.0
  0
LINE
  5
48A5
  8
2-0
  6
CONTINUOUS
 62
     3
 10
23060.059300999968
 20
19493.930165999998
 30
0.0
 11
23066.055261999962
 21
19493.930165999998
 31
0.0
  0
LINE
  5
48A6
  8
2-0
  6
CONTINUOUS
 62
     3
 10
23060.059300999968
 20
19523.933729000011
 30
0.0
 11
23060.059300999968
 21
19493.930165999998
 31
0.0
  0
LINE
  5
48A7
  8
2-0
  6
CONTINUOUS
 62
     3
 10
23175.04953499998
 20
19436.043104000011
 30
0.0
 11
23090.05692499995
 21
19436.043104000011
 31
0.0
  0
LINE
  5
48A8
  8
2-0
  6
CONTINUOUS
 62
     3
 10
23205.05111899996
 20
19523.933729000011
 30
0.0
 11
23060.059300999968
 21
19523.933729000011
 31
0.0
  0
LINE
  5
48A9
  8
2-0
  6
CONTINUOUS
 62
     6
 10
26274.019604999961
 20
18967.035501499991
 30
0.0
 11
25842.488512999949
 21
18724.88099349997
 31
0.0
  0
LINE
  5
48AA
  8
2-0
  6
CONTINUOUS
 62
     6
 10
26595.588438999941
 20
19666.613469
 30
0.0
 11
27136.052437999959
 21
20253.936632000001
 31
0.0
  0
LINE
  5
48AB
  8
2-0
  6
CONTINUOUS
 62
     6
 10
23175.04953499998
 20
14038.43372799998
 30
0.0
 11
23451.639747999969
 21
14493.778427999971
 31
0.0
  0
LINE
  5
48AC
  8
2-0
  6
CONTINUOUS
 62
     6
 10
23451.639747999969
 20
14493.778427999971
 30
0.0
 11
24481.989066999959
 21
14493.778427999971
 31
0.0
  0
LINE
  5
48AD
  8
2-0
  6
CONTINUOUS
 62
     3
 10
26443.547554999961
 20
16127.334864499981
 30
0.0
 11
26443.547554999961
 21
15483.771091000001
 31
0.0
  0
LINE
  5
48AE
  8
2-0
  6
CONTINUOUS
 62
     6
 10
23235.327854999981
 20
14189.029562999969
 30
0.0
 11
23175.04953499998
 21
14038.43372799998
 31
0.0
  0
LINE
  5
48AF
  8
2-0
  6
CONTINUOUS
 62
     6
 10
23175.04953499998
 20
14038.43372799998
 30
0.0
 11
23280.908249999931
 21
14161.34203699998
 31
0.0
  0
LINE
  5
48B0
  8
2-0
  6
CONTINUOUS
 62
     6
 10
23235.327854999981
 20
14189.029562999969
 30
0.0
 11
23280.908249999931
 21
14161.34203699998
 31
0.0
  0
LINE
  5
48B1
  8
2-0
  6
CONTINUOUS
 62
     6
 10
23280.908249999931
 20
14161.34203699998
 30
0.0
 11
23175.04953499998
 21
14038.43372799998
 31
0.0
  0
LINE
  5
48B2
  8
2-0
  6
CONTINUOUS
 62
     6
 10
23175.04953499998
 20
14038.43372799998
 30
0.0
 11
23235.327854999981
 21
14189.029562999969
 31
0.0
  0
LINE
  5
48B3
  8
2-0
  6
CONTINUOUS
 62
     6
 10
23235.327854999981
 20
14189.029562999969
 30
0.0
 11
23175.04953499998
 21
14038.43372799998
 31
0.0
  0
LINE
  5
48B4
  8
2-0
  6
CONTINUOUS
 62
     6
 10
23280.908249999931
 20
14161.34203699998
 30
0.0
 11
23175.04953499998
 21
14038.43372799998
 31
0.0
  0
LINE
  5
48B5
  8
2-0
  6
CONTINUOUS
 62
     6
 10
23280.908249999931
 20
14161.34203699998
 30
0.0
 11
23235.327854999981
 21
14189.029562999969
 31
0.0
  0
LINE
  5
48B6
  8
2-0
  6
CONTINUOUS
 62
     6
 10
26260.962699999971
 20
18990.29484549995
 30
0.0
 11
26413.549930999961
 21
19045.341297499981
 31
0.0
  0
LINE
  5
48B7
  8
2-0
  6
CONTINUOUS
 62
     6
 10
26413.549930999961
 20
19045.341297499981
 30
0.0
 11
26287.06859099997
 21
18943.782097499981
 31
0.0
  0
LINE
  5
48B8
  8
2-0
  6
CONTINUOUS
 62
     6
 10
26260.962699999971
 20
18990.29484549995
 30
0.0
 11
26287.06859099997
 21
18943.782097499981
 31
0.0
  0
LINE
  5
48B9
  8
2-0
  6
CONTINUOUS
 62
     6
 10
26287.06859099997
 20
18943.782097499981
 30
0.0
 11
26413.549930999961
 21
19045.341297499981
 31
0.0
  0
LINE
  5
48BA
  8
2-0
  6
CONTINUOUS
 62
     6
 10
26413.549930999961
 20
19045.341297499981
 30
0.0
 11
26260.962699999971
 21
18990.29484549995
 31
0.0
  0
LINE
  5
48BB
  8
2-0
  6
CONTINUOUS
 62
     6
 10
26260.962699999971
 20
18990.29484549995
 30
0.0
 11
26413.549930999961
 21
19045.341297499981
 31
0.0
  0
LINE
  5
48BC
  8
2-0
  6
CONTINUOUS
 62
     6
 10
26287.06859099997
 20
18943.782097499981
 30
0.0
 11
26413.549930999961
 21
19045.341297499981
 31
0.0
  0
LINE
  5
48BD
  8
2-0
  6
CONTINUOUS
 62
     6
 10
26287.06859099997
 20
18943.782097499981
 30
0.0
 11
26260.962699999971
 21
18990.29484549995
 31
0.0
  0
LINE
  5
48BE
  8
2-0
  6
CONTINUOUS
 62
     6
 10
26615.20546799996
 20
19648.552341999999
 30
0.0
 11
26487.243447999961
 21
19548.869724
 31
0.0
  0
LINE
  5
48BF
  8
2-0
  6
CONTINUOUS
 62
     6
 10
26487.243447999961
 20
19548.869724
 30
0.0
 11
26575.95755299996
 21
19684.666678999991
 31
0.0
  0
LINE
  5
48C0
  8
2-0
  6
CONTINUOUS
 62
     6
 10
26615.20546799996
 20
19648.552341999999
 30
0.0
 11
26575.95755299996
 21
19684.666678999991
 31
0.0
  0
LINE
  5
48C1
  8
2-0
  6
CONTINUOUS
 62
     6
 10
26575.95755299996
 20
19684.666678999991
 30
0.0
 11
26487.243447999961
 21
19548.869724
 31
0.0
  0
LINE
  5
48C2
  8
2-0
  6
CONTINUOUS
 62
     6
 10
26487.243447999961
 20
19548.869724
 30
0.0
 11
26615.20546799996
 21
19648.552341999999
 31
0.0
  0
LINE
  5
48C3
  8
2-0
  6
CONTINUOUS
 62
     6
 10
26615.20546799996
 20
19648.552341999999
 30
0.0
 11
26487.243447999961
 21
19548.869724
 31
0.0
  0
LINE
  5
48C4
  8
2-0
  6
CONTINUOUS
 62
     6
 10
26575.95755299996
 20
19684.666678999991
 30
0.0
 11
26487.243447999961
 21
19548.869724
 31
0.0
  0
LINE
  5
48C5
  8
2-0
  6
CONTINUOUS
 62
     6
 10
26575.95755299996
 20
19684.666678999991
 30
0.0
 11
26615.20546799996
 21
19648.552341999999
 31
0.0
  0
LINE
  5
48C6
  8
2-0
  6
CONTINUOUS
 62
     6
 10
19256.47967099999
 20
19276.161347000001
 30
0.0
 11
19388.41260399999
 21
18806.815512000001
 31
0.0
  0
LINE
  5
48C7
  8
2-0
  6
CONTINUOUS
 62
     6
 10
19388.41260399999
 20
18806.815512000001
 30
0.0
 11
20413.450874999991
 21
18806.815512000001
 31
0.0
  0
LINE
  5
48C8
  8
2-0
  6
CONTINUOUS
 62
     6
 10
19213.18562
 20
19430.189666999999
 30
0.0
 11
19230.807293999991
 21
19268.944022
 31
0.0
  0
LINE
  5
48C9
  8
2-0
  6
CONTINUOUS
 62
     6
 10
19282.152047
 20
19283.382631
 30
0.0
 11
19230.807293999991
 21
19268.944022
 31
0.0
  0
LINE
  5
48CA
  8
2-0
  6
CONTINUOUS
 62
     6
 10
19230.807293999991
 20
19268.944022
 30
0.0
 11
19213.18562
 21
19430.189666999999
 31
0.0
  0
LINE
  5
48CB
  8
2-0
  6
CONTINUOUS
 62
     6
 10
19213.18562
 20
19430.189666999999
 30
0.0
 11
19282.152047
 21
19283.382631
 31
0.0
  0
LINE
  5
48CC
  8
2-0
  6
CONTINUOUS
 62
     6
 10
19282.152047
 20
19283.382631
 30
0.0
 11
19213.18562
 21
19430.189666999999
 31
0.0
  0
LINE
  5
48CD
  8
2-0
  6
CONTINUOUS
 62
     6
 10
19230.807293999991
 20
19268.944022
 30
0.0
 11
19213.18562
 21
19430.189666999999
 31
0.0
  0
LINE
  5
48CE
  8
2-0
  6
CONTINUOUS
 62
     6
 10
19230.807293999991
 20
19268.944022
 30
0.0
 11
19282.152047
 21
19283.382631
 31
0.0
  0
LINE
  5
48CF
  8
2-0
  6
CONTINUOUS
 62
     6
 10
23173.972676999969
 20
19405.182409000001
 30
0.0
 11
23322.842371999981
 21
18875.560233
 31
0.0
  0
LINE
  5
48D0
  8
2-0
  6
CONTINUOUS
 62
     6
 10
23322.842371999981
 20
18875.560233
 30
0.0
 11
24347.886580999959
 21
18875.560233
 31
0.0
  0
LINE
  5
48D1
  8
2-0
  6
CONTINUOUS
 62
     6
 10
23191.59633099995
 20
19243.936763999991
 30
0.0
 11
23242.947021999971
 21
19258.37141399999
 31
0.0
  0
LINE
  5
48D2
  8
2-0
  6
CONTINUOUS
 62
     6
 10
23242.947021999971
 20
19258.37141399999
 30
0.0
 11
23191.59633099995
 21
19243.936763999991
 31
0.0
  0
LINE
  5
48D3
  8
2-0
  6
CONTINUOUS
 62
     6
 10
23191.59633099995
 20
19243.936763999991
 30
0.0
 11
23173.972676999969
 21
19405.182409000001
 31
0.0
  0
LINE
  5
48D4
  8
2-0
  6
CONTINUOUS
 62
     6
 10
23173.972676999969
 20
19405.182409000001
 30
0.0
 11
23242.947021999971
 21
19258.37141399999
 31
0.0
  0
LINE
  5
48D5
  8
2-0
  6
CONTINUOUS
 62
     6
 10
23242.947021999971
 20
19258.37141399999
 30
0.0
 11
23173.972676999969
 21
19405.182409000001
 31
0.0
  0
LINE
  5
48D6
  8
2-0
  6
CONTINUOUS
 62
     6
 10
23191.59633099995
 20
19243.936763999991
 30
0.0
 11
23173.972676999969
 21
19405.182409000001
 31
0.0
  0
LINE
  5
48D7
  8
2-0
  6
CONTINUOUS
 62
     6
 10
23242.947021999971
 20
19258.37141399999
 30
0.0
 11
23173.972676999969
 21
19405.182409000001
 31
0.0
  0
LINE
  5
48D8
  8
2-0
  6
CONTINUOUS
 62
     6
 10
23173.972676999969
 20
19405.182409000001
 30
0.0
 11
23191.59633099995
 21
19243.936763999991
 31
0.0
  0
LINE
  5
48D9
  8
2-0
  6
CONTINUOUS
 62
     4
 10
23132.54927099996
 20
19603.93597200001
 30
0.0
 11
23132.54927099996
 21
20333.932937000001
 31
0.0
  0
LINE
  5
48DA
  8
2-0
  6
CONTINUOUS
 62
     6
 10
26166.909833999958
 20
13845.16541099998
 30
0.0
 11
26298.65669299995
 21
13939.792337999979
 31
0.0
  0
LINE
  5
48DB
  8
2-0
  6
CONTINUOUS
 62
     6
 10
26298.65669299995
 20
13939.792337999979
 30
0.0
 11
26204.726556999962
 21
13807.55356799997
 31
0.0
  0
LINE
  5
48DC
  8
2-0
  6
CONTINUOUS
 62
     6
 10
26166.909833999958
 20
13845.16541099998
 30
0.0
 11
26204.726556999962
 21
13807.55356799997
 31
0.0
  0
LINE
  5
48DD
  8
2-0
  6
CONTINUOUS
 62
     6
 10
26204.726556999962
 20
13807.55356799997
 30
0.0
 11
26298.65669299995
 21
13939.792337999979
 31
0.0
  0
LINE
  5
48DE
  8
2-0
  6
CONTINUOUS
 62
     6
 10
26298.65669299995
 20
13939.792337999979
 30
0.0
 11
26166.909833999958
 21
13845.16541099998
 31
0.0
  0
LINE
  5
48DF
  8
2-0
  6
CONTINUOUS
 62
     6
 10
26166.909833999958
 20
13845.16541099998
 30
0.0
 11
26298.65669299995
 21
13939.792337999979
 31
0.0
  0
LINE
  5
48E0
  8
2-0
  6
CONTINUOUS
 62
     6
 10
26204.726556999962
 20
13807.55356799997
 30
0.0
 11
26298.65669299995
 21
13939.792337999979
 31
0.0
  0
LINE
  5
48E1
  8
2-0
  6
CONTINUOUS
 62
     6
 10
26204.726556999962
 20
13807.55356799997
 30
0.0
 11
26166.909833999958
 21
13845.16541099998
 31
0.0
  0
LINE
  5
48E2
  8
2-0
  6
CONTINUOUS
 62
     6
 10
26229.94562299996
 20
14172.07003799996
 30
0.0
 11
26362.545654999962
 21
14078.641709999971
 31
0.0
  0
LINE
  5
48E3
  8
2-0
  6
CONTINUOUS
 62
     6
 10
26362.545654999962
 20
14078.641709999971
 30
0.0
 11
26206.812968999959
 21
14124.017223999979
 31
0.0
  0
LINE
  5
48E4
  8
2-0
  6
CONTINUOUS
 62
     6
 10
26229.94562299996
 20
14172.07003799996
 30
0.0
 11
26206.812968999959
 21
14124.017223999979
 31
0.0
  0
LINE
  5
48E5
  8
2-0
  6
CONTINUOUS
 62
     6
 10
26206.812968999959
 20
14124.017223999979
 30
0.0
 11
26362.545654999962
 21
14078.641709999971
 31
0.0
  0
LINE
  5
48E6
  8
2-0
  6
CONTINUOUS
 62
     6
 10
26362.545654999962
 20
14078.641709999971
 30
0.0
 11
26229.94562299996
 21
14172.07003799996
 31
0.0
  0
LINE
  5
48E7
  8
2-0
  6
CONTINUOUS
 62
     6
 10
26229.94562299996
 20
14172.07003799996
 30
0.0
 11
26362.545654999962
 21
14078.641709999971
 31
0.0
  0
LINE
  5
48E8
  8
2-0
  6
CONTINUOUS
 62
     6
 10
26206.812968999959
 20
14124.017223999979
 30
0.0
 11
26362.545654999962
 21
14078.641709999971
 31
0.0
  0
LINE
  5
48E9
  8
2-0
  6
CONTINUOUS
 62
     6
 10
26206.812968999959
 20
14124.017223999979
 30
0.0
 11
26229.94562299996
 21
14172.07003799996
 31
0.0
  0
LINE
  5
48EA
  8
2-0
  6
CONTINUOUS
 62
     6
 10
26289.70926899997
 20
16551.890971000001
 30
0.0
 11
26443.547554999961
 21
16603.32480200001
 31
0.0
  0
LINE
  5
48EB
  8
2-0
  6
CONTINUOUS
 62
     6
 10
26443.547554999961
 20
16603.32480200001
 30
0.0
 11
26314.712567999952
 21
16504.784367
 31
0.0
  0
LINE
  5
48EC
  8
2-0
  6
CONTINUOUS
 62
     6
 10
26289.70926899997
 20
16551.890971000001
 30
0.0
 11
26314.712567999952
 21
16504.784367
 31
0.0
  0
LINE
  5
48ED
  8
2-0
  6
CONTINUOUS
 62
     6
 10
26314.712567999952
 20
16504.784367
 30
0.0
 11
26443.547554999961
 21
16603.32480200001
 31
0.0
  0
LINE
  5
48EE
  8
2-0
  6
CONTINUOUS
 62
     6
 10
26443.547554999961
 20
16603.32480200001
 30
0.0
 11
26289.70926899997
 21
16551.890971000001
 31
0.0
  0
LINE
  5
48EF
  8
2-0
  6
CONTINUOUS
 62
     6
 10
26289.70926899997
 20
16551.890971000001
 30
0.0
 11
26443.547554999961
 21
16603.32480200001
 31
0.0
  0
LINE
  5
48F0
  8
2-0
  6
CONTINUOUS
 62
     6
 10
26314.712567999952
 20
16504.784367
 30
0.0
 11
26443.547554999961
 21
16603.32480200001
 31
0.0
  0
LINE
  5
48F1
  8
2-0
  6
CONTINUOUS
 62
     6
 10
26314.712567999952
 20
16504.784367
 30
0.0
 11
26289.70926899997
 21
16551.890971000001
 31
0.0
  0
LINE
  5
48F2
  8
2-0
  6
CONTINUOUS
 62
     6
 10
26155.77306199996
 20
17043.209462999999
 30
0.0
 11
26298.65669299995
 21
16966.433833999981
 31
0.0
  0
LINE
  5
48F3
  8
2-0
  6
CONTINUOUS
 62
     6
 10
26298.65669299995
 20
16966.433833999981
 30
0.0
 11
26138.594799999959
 21
16992.715903000011
 31
0.0
  0
LINE
  5
48F4
  8
2-0
  6
CONTINUOUS
 62
     6
 10
26155.77306199996
 20
17043.209462999999
 30
0.0
 11
26138.594799999959
 21
16992.715903000011
 31
0.0
  0
LINE
  5
48F5
  8
2-0
  6
CONTINUOUS
 62
     6
 10
26138.594799999959
 20
16992.715903000011
 30
0.0
 11
26298.65669299995
 21
16966.433833999981
 31
0.0
  0
LINE
  5
48F6
  8
2-0
  6
CONTINUOUS
 62
     6
 10
26298.65669299995
 20
16966.433833999981
 30
0.0
 11
26155.77306199996
 21
17043.209462999999
 31
0.0
  0
LINE
  5
48F7
  8
2-0
  6
CONTINUOUS
 62
     6
 10
26155.77306199996
 20
17043.209462999999
 30
0.0
 11
26298.65669299995
 21
16966.433833999981
 31
0.0
  0
LINE
  5
48F8
  8
2-0
  6
CONTINUOUS
 62
     6
 10
26138.594799999959
 20
16992.715903000011
 30
0.0
 11
26298.65669299995
 21
16966.433833999981
 31
0.0
  0
LINE
  5
48F9
  8
2-0
  6
CONTINUOUS
 62
     6
 10
26138.594799999959
 20
16992.715903000011
 30
0.0
 11
26155.77306199996
 21
17043.209462999999
 31
0.0
  0
LINE
  5
48FA
  8
2-0
  6
CONTINUOUS
 62
     3
 10
19893.044572999981
 20
19523.933729000011
 30
0.0
 11
19856.043410999991
 21
19523.933729000011
 31
0.0
  0
LINE
  5
48FB
  8
2-0
  6
CONTINUOUS
 62
     3
 10
19893.044572999981
 20
19493.930165999998
 30
0.0
 11
19893.044572999981
 21
19523.933729000011
 31
0.0
  0
LINE
  5
48FC
  8
2-0
  6
CONTINUOUS
 62
     3
 10
19887.04465199995
 20
19493.930165999998
 30
0.0
 11
19893.044572999981
 21
19493.930165999998
 31
0.0
  0
LINE
  5
48FD
  8
2-0
  6
CONTINUOUS
 62
     3
 10
19903.142096999989
 20
19493.930165999998
 30
0.0
 11
19903.142096999989
 21
19523.933729000011
 31
0.0
  0
LINE
  5
48FE
  8
2-0
  6
CONTINUOUS
 62
     3
 10
19885.138375999992
 20
19493.930165999998
 30
0.0
 11
19903.142096999989
 21
19493.930165999998
 31
0.0
  0
LINE
  5
48FF
  8
2-0
  6
CONTINUOUS
 62
     3
 10
19885.138375999992
 20
19518.939403
 30
0.0
 11
19885.138375999992
 21
19493.930165999998
 31
0.0
  0
LINE
  5
4900
  8
2-0
  6
CONTINUOUS
 62
     3
 10
19890.138639999968
 20
19518.939403
 30
0.0
 11
19885.138375999992
 21
19518.939403
 31
0.0
  0
LINE
  5
4901
  8
2-0
  6
CONTINUOUS
 62
     3
 10
19890.138639999968
 20
19511.93388700001
 30
0.0
 11
19890.138639999968
 21
19518.939403
 31
0.0
  0
LINE
  5
4902
  8
2-0
  6
CONTINUOUS
 62
     3
 10
19858.949344999972
 20
19511.93388700001
 30
0.0
 11
19858.949344999972
 21
19518.939403
 31
0.0
  0
LINE
  5
4903
  8
2-0
  6
CONTINUOUS
 62
     3
 10
19858.949344999972
 20
19518.939403
 30
0.0
 11
19863.949608999981
 21
19518.939403
 31
0.0
  0
LINE
  5
4904
  8
2-0
  6
CONTINUOUS
 62
     3
 10
19863.949608999981
 20
19518.939403
 30
0.0
 11
19863.949608999981
 21
19493.930165999998
 31
0.0
  0
LINE
  5
4905
  8
2-0
  6
CONTINUOUS
 62
     3
 10
19863.949608999981
 20
19493.930165999998
 30
0.0
 11
19845.949845999989
 21
19493.930165999998
 31
0.0
  0
LINE
  5
4906
  8
2-0
  6
CONTINUOUS
 62
     3
 10
19845.949845999989
 20
19493.930165999998
 30
0.0
 11
19845.949845999989
 21
19523.933729000011
 31
0.0
  0
LINE
  5
4907
  8
2-0
  6
CONTINUOUS
 62
     3
 10
19862.04333199999
 20
19493.930165999998
 30
0.0
 11
19856.043410999991
 21
19493.930165999998
 31
0.0
  0
LINE
  5
4908
  8
2-0
  6
CONTINUOUS
 62
     3
 10
19856.043410999991
 20
19493.930165999998
 30
0.0
 11
19856.043410999991
 21
19523.933729000011
 31
0.0
  0
LINE
  5
4909
  8
2-0
  6
CONTINUOUS
 62
     3
 10
17351.545311999991
 20
19414.933518000002
 30
0.0
 11
17351.545311999991
 21
19408.937556000012
 31
0.0
  0
LINE
  5
490A
  8
2-0
  6
CONTINUOUS
 62
     3
 10
17351.545311999991
 20
19408.937556000012
 30
0.0
 11
17321.547686999991
 21
19408.937556000012
 31
0.0
  0
LINE
  5
490B
  8
2-0
  6
CONTINUOUS
 62
     3
 10
17321.547686999991
 20
19408.937556000012
 30
0.0
 11
17321.547686999991
 21
19523.933729000011
 31
0.0
  0
LINE
  5
490C
  8
2-0
  6
CONTINUOUS
 62
     3
 10
17321.547686999991
 20
19438.93715999999
 30
0.0
 11
17402.545627999982
 21
19438.93715999999
 31
0.0
  0
LINE
  5
490D
  8
2-0
  6
CONTINUOUS
 62
     3
 10
17351.545311999991
 20
19398.64009999999
 30
0.0
 11
17321.547686999991
 21
19398.64009999999
 31
0.0
  0
LINE
  5
490E
  8
2-0
  6
CONTINUOUS
 62
     3
 10
17351.545311999991
 20
19416.64184199999
 30
0.0
 11
17351.545311999991
 21
19398.64009999999
 31
0.0
  0
LINE
  5
490F
  8
2-0
  6
CONTINUOUS
 62
     3
 10
17326.551909999991
 20
19416.64184199999
 30
0.0
 11
17351.545311999991
 21
19416.64184199999
 31
0.0
  0
LINE
  5
4910
  8
2-0
  6
CONTINUOUS
 62
     3
 10
17326.551909999991
 20
19411.63366000001
 30
0.0
 11
17326.551909999991
 21
19416.64184199999
 31
0.0
  0
LINE
  5
4911
  8
2-0
  6
CONTINUOUS
 62
     3
 10
17333.54950799996
 20
19411.63366000001
 30
0.0
 11
17326.551909999991
 21
19411.63366000001
 31
0.0
  0
LINE
  5
4912
  8
2-0
  6
CONTINUOUS
 62
     3
 10
17433.843796999969
 20
19511.93388700001
 30
0.0
 11
17433.843796999969
 21
19518.939403
 31
0.0
  0
LINE
  5
4913
  8
2-0
  6
CONTINUOUS
 62
     3
 10
17433.843796999969
 20
19518.939403
 30
0.0
 11
17428.841552999991
 21
19518.939403
 31
0.0
  0
LINE
  5
4914
  8
2-0
  6
CONTINUOUS
 62
     3
 10
17428.841552999991
 20
19518.939403
 30
0.0
 11
17428.841552999991
 21
19493.930165999998
 31
0.0
  0
LINE
  5
4915
  8
2-0
  6
CONTINUOUS
 62
     3
 10
17428.841552999991
 20
19493.930165999998
 30
0.0
 11
17446.84923399999
 21
19493.930165999998
 31
0.0
  0
LINE
  5
4916
  8
2-0
  6
CONTINUOUS
 62
     3
 10
17446.84923399999
 20
19493.930165999998
 30
0.0
 11
17446.84923399999
 21
19523.933729000011
 31
0.0
  0
LINE
  5
4917
  8
2-0
  6
CONTINUOUS
 62
     3
 10
17436.549797999978
 20
19523.933729000011
 30
0.0
 11
17321.547686999991
 21
19523.933729000011
 31
0.0
  0
LINE
  5
4918
  8
2-0
  6
CONTINUOUS
 62
     3
 10
17436.549797999978
 20
19493.930165999998
 30
0.0
 11
17436.549797999978
 21
19523.933729000011
 31
0.0
  0
LINE
  5
4919
  8
2-0
  6
CONTINUOUS
 62
     3
 10
17430.545918999978
 20
19493.930165999998
 30
0.0
 11
17436.549797999978
 21
19493.930165999998
 31
0.0
  0
LINE
  5
491A
  8
2-0
  6
CONTINUOUS
 62
     3
 10
18488.133690499992
 20
19511.93388700001
 30
0.0
 11
18488.133690499992
 21
19518.939403
 31
0.0
  0
LINE
  5
491B
  8
2-0
  6
CONTINUOUS
 62
     3
 10
18488.133690499992
 20
19518.939403
 30
0.0
 11
18483.13342649999
 21
19518.939403
 31
0.0
  0
LINE
  5
491C
  8
2-0
  6
CONTINUOUS
 62
     3
 10
18483.13342649999
 20
19518.939403
 30
0.0
 11
18483.13342649999
 21
19493.930165999998
 31
0.0
  0
LINE
  5
491D
  8
2-0
  6
CONTINUOUS
 62
     3
 10
18483.13342649999
 20
19493.930165999998
 30
0.0
 11
18501.139127499991
 21
19493.930165999998
 31
0.0
  0
LINE
  5
491E
  8
2-0
  6
CONTINUOUS
 62
     3
 10
18501.139127499991
 20
19493.930165999998
 30
0.0
 11
18501.139127499991
 21
19523.933729000011
 31
0.0
  0
LINE
  5
491F
  8
2-0
  6
CONTINUOUS
 62
     3
 10
18485.041682499981
 20
19493.930165999998
 30
0.0
 11
18491.043582499991
 21
19493.930165999998
 31
0.0
  0
LINE
  5
4920
  8
2-0
  6
CONTINUOUS
 62
     3
 10
18491.043582499991
 20
19493.930165999998
 30
0.0
 11
18491.043582499991
 21
19523.933729000011
 31
0.0
  0
LINE
  5
4921
  8
2-0
  6
CONTINUOUS
 62
     3
 10
18454.044401499981
 20
19523.933729000011
 30
0.0
 11
18491.043582499991
 21
19523.933729000011
 31
0.0
  0
LINE
  5
4922
  8
2-0
  6
CONTINUOUS
 62
     3
 10
18454.044401499981
 20
19493.930165999998
 30
0.0
 11
18454.044401499981
 21
19523.933729000011
 31
0.0
  0
LINE
  5
4923
  8
2-0
  6
CONTINUOUS
 62
     3
 10
18460.038383499981
 20
19493.930165999998
 30
0.0
 11
18454.044401499981
 21
19493.930165999998
 31
0.0
  0
LINE
  5
4924
  8
2-0
  6
CONTINUOUS
 62
     3
 10
18443.948856499981
 20
19493.930165999998
 30
0.0
 11
18443.948856499981
 21
19523.933729000011
 31
0.0
  0
LINE
  5
4925
  8
2-0
  6
CONTINUOUS
 62
     3
 10
18461.94465949999
 20
19493.930165999998
 30
0.0
 11
18443.948856499981
 21
19493.930165999998
 31
0.0
  0
LINE
  5
4926
  8
2-0
  6
CONTINUOUS
 62
     3
 10
18461.94465949999
 20
19518.939403
 30
0.0
 11
18461.94465949999
 21
19493.930165999998
 31
0.0
  0
LINE
  5
4927
  8
2-0
  6
CONTINUOUS
 62
     3
 10
18456.944395499992
 20
19518.939403
 30
0.0
 11
18461.94465949999
 21
19518.939403
 31
0.0
  0
LINE
  5
4928
  8
2-0
  6
CONTINUOUS
 62
     3
 10
18456.944395499992
 20
19511.93388700001
 30
0.0
 11
18456.944395499992
 21
19518.939403
 31
0.0
  0
LINE
  5
4929
  8
2-0
  6
CONTINUOUS
 62
     3
 10
19157.943406499991
 20
19511.93388700001
 30
0.0
 11
19157.943406499991
 21
19518.939403
 31
0.0
  0
LINE
  5
492A
  8
2-0
  6
CONTINUOUS
 62
     3
 10
19157.943406499991
 20
19518.939403
 30
0.0
 11
19162.943669499979
 21
19518.939403
 31
0.0
  0
LINE
  5
492B
  8
2-0
  6
CONTINUOUS
 62
     3
 10
19162.943669499979
 20
19518.939403
 30
0.0
 11
19162.943669499979
 21
19493.930165999998
 31
0.0
  0
LINE
  5
492C
  8
2-0
  6
CONTINUOUS
 62
     3
 10
19162.943669499979
 20
19493.930165999998
 30
0.0
 11
19144.949846499982
 21
19493.930165999998
 31
0.0
  0
LINE
  5
492D
  8
2-0
  6
CONTINUOUS
 62
     3
 10
19144.949846499982
 20
19493.930165999998
 30
0.0
 11
19144.949846499982
 21
19523.933729000011
 31
0.0
  0
LINE
  5
492E
  8
2-0
  6
CONTINUOUS
 62
     3
 10
19161.041352499949
 20
19493.930165999998
 30
0.0
 11
19155.043411499992
 21
19493.930165999998
 31
0.0
  0
LINE
  5
492F
  8
2-0
  6
CONTINUOUS
 62
     3
 10
19155.043411499992
 20
19493.930165999998
 30
0.0
 11
19155.043411499992
 21
19523.933729000011
 31
0.0
  0
LINE
  5
4930
  8
2-0
  6
CONTINUOUS
 62
     3
 10
19192.044572499992
 20
19523.933729000011
 30
0.0
 11
19155.043411499992
 21
19523.933729000011
 31
0.0
  0
LINE
  5
4931
  8
2-0
  6
CONTINUOUS
 62
     3
 10
19192.044572499992
 20
19493.930165999998
 30
0.0
 11
19192.044572499992
 21
19523.933729000011
 31
0.0
  0
LINE
  5
4932
  8
2-0
  6
CONTINUOUS
 62
     3
 10
19186.038713499991
 20
19493.930165999998
 30
0.0
 11
19192.044572499992
 21
19493.930165999998
 31
0.0
  0
LINE
  5
4933
  8
2-0
  6
CONTINUOUS
 62
     3
 10
19202.138137499991
 20
19493.930165999998
 30
0.0
 11
19202.138137499991
 21
19523.933729000011
 31
0.0
  0
LINE
  5
4934
  8
2-0
  6
CONTINUOUS
 62
     3
 10
19184.142334499971
 20
19493.930165999998
 30
0.0
 11
19202.138137499991
 21
19493.930165999998
 31
0.0
  0
LINE
  5
4935
  8
2-0
  6
CONTINUOUS
 62
     3
 10
19184.142334499971
 20
19518.939403
 30
0.0
 11
19184.142334499971
 21
19493.930165999998
 31
0.0
  0
LINE
  5
4936
  8
2-0
  6
CONTINUOUS
 62
     3
 10
19189.132700499991
 20
19518.939403
 30
0.0
 11
19184.142334499971
 21
19518.939403
 31
0.0
  0
LINE
  5
4937
  8
2-0
  6
CONTINUOUS
 62
     3
 10
19189.132700499991
 20
19511.93388700001
 30
0.0
 11
19189.132700499991
 21
19518.939403
 31
0.0
  0
LINE
  5
4938
  8
2-0
  6
CONTINUOUS
 62
     3
 10
18501.139127499991
 20
19523.933729000011
 30
0.0
 11
19144.949846499982
 21
19523.933729000011
 31
0.0
  0
LINE
  5
4939
  8
2-0
  6
CONTINUOUS
 62
     3
 10
17800.343017999981
 20
19523.933729000011
 30
0.0
 11
18443.948856499981
 21
19523.933729000011
 31
0.0
  0
LINE
  5
493A
  8
2-0
  6
CONTINUOUS
 62
     3
 10
20560.044124
 20
19523.933729000011
 30
0.0
 11
20560.044124
 21
19493.930165999998
 31
0.0
  0
LINE
  5
493B
  8
2-0
  6
CONTINUOUS
 62
     3
 10
20560.044124
 20
19493.930165999998
 30
0.0
 11
20566.048003000011
 21
19493.930165999998
 31
0.0
  0
LINE
  5
493C
  8
2-0
  6
CONTINUOUS
 62
     3
 10
20550.427621999981
 20
19493.930165999998
 30
0.0
 11
20550.427621999981
 21
19523.933729000011
 31
0.0
  0
LINE
  5
493D
  8
2-0
  6
CONTINUOUS
 62
     3
 10
20568.435302999998
 20
19493.930165999998
 30
0.0
 11
20550.427621999981
 21
19493.930165999998
 31
0.0
  0
LINE
  5
493E
  8
2-0
  6
CONTINUOUS
 62
     3
 10
20568.435302999998
 20
19518.939403
 30
0.0
 11
20568.435302999998
 21
19493.930165999998
 31
0.0
  0
LINE
  5
493F
  8
2-0
  6
CONTINUOUS
 62
     3
 10
20563.429100000001
 20
19518.939403
 30
0.0
 11
20568.435302999998
 21
19518.939403
 31
0.0
  0
LINE
  5
4940
  8
2-0
  6
CONTINUOUS
 62
     3
 10
20563.429100000001
 20
19511.93388700001
 30
0.0
 11
20563.429100000001
 21
19518.939403
 31
0.0
  0
LINE
  5
4941
  8
2-0
  6
CONTINUOUS
 62
     3
 10
20590.047686999991
 20
19521.041652
 30
0.0
 11
20590.047686999991
 21
19436.043104000011
 31
0.0
  0
LINE
  5
4942
  8
2-0
  6
CONTINUOUS
 62
     3
 10
20610.046762999998
 20
19521.041652
 30
0.0
 11
20590.047686999991
 21
19521.041652
 31
0.0
  0
LINE
  5
4943
  8
2-0
  6
CONTINUOUS
 62
     3
 10
20701.66086199999
 20
19511.93388700001
 30
0.0
 11
20701.66086199999
 21
19518.939403
 31
0.0
  0
LINE
  5
4944
  8
2-0
  6
CONTINUOUS
 62
     3
 10
20701.66086199999
 20
19518.939403
 30
0.0
 11
20696.658618999991
 21
19518.939403
 31
0.0
  0
LINE
  5
4945
  8
2-0
  6
CONTINUOUS
 62
     3
 10
20696.658618999991
 20
19518.939403
 30
0.0
 11
20696.658618999991
 21
19493.930165999998
 31
0.0
  0
LINE
  5
4946
  8
2-0
  6
CONTINUOUS
 62
     3
 10
20696.658618999991
 20
19493.930165999998
 30
0.0
 11
20714.662339999992
 21
19493.930165999998
 31
0.0
  0
LINE
  5
4947
  8
2-0
  6
CONTINUOUS
 62
     3
 10
20714.662339999992
 20
19493.930165999998
 30
0.0
 11
20714.662339999992
 21
19523.933729000011
 31
0.0
  0
LINE
  5
4948
  8
2-0
  6
CONTINUOUS
 62
     3
 10
20675.046235000002
 20
19521.041652
 30
0.0
 11
20655.0432
 21
19521.041652
 31
0.0
  0
LINE
  5
4949
  8
2-0
  6
CONTINUOUS
 62
     3
 10
20675.046235000002
 20
19436.043104000011
 30
0.0
 11
20675.046235000002
 21
19521.041652
 31
0.0
  0
LINE
  5
494A
  8
2-0
  6
CONTINUOUS
 62
     3
 10
20705.045838999999
 20
19493.930165999998
 30
0.0
 11
20699.045917999982
 21
19493.930165999998
 31
0.0
  0
LINE
  5
494B
  8
2-0
  6
CONTINUOUS
 62
     3
 10
20705.045838999999
 20
19523.933729000011
 30
0.0
 11
20705.045838999999
 21
19493.930165999998
 31
0.0
  0
LINE
  5
494C
  8
2-0
  6
CONTINUOUS
 62
     3
 10
20590.047686999991
 20
19436.043104000011
 30
0.0
 11
20675.046235000002
 21
19436.043104000011
 31
0.0
  0
LINE
  5
494D
  8
2-0
  6
CONTINUOUS
 62
     3
 10
20560.044124
 20
19523.933729000011
 30
0.0
 11
20705.045838999999
 21
19523.933729000011
 31
0.0
  0
LINE
  5
494E
  8
2-0
  6
CONTINUOUS
 62
     3
 10
20550.427621999981
 20
19523.933729000011
 30
0.0
 11
19903.142096999989
 21
19523.933729000011
 31
0.0
  0
LINE
  5
494F
  8
2-0
  6
CONTINUOUS
 62
     3
 10
19845.949845999989
 20
19523.933729000011
 30
0.0
 11
19202.138137499991
 21
19523.933729000011
 31
0.0
  0
LINE
  5
4950
  8
2-0
  6
CONTINUOUS
 62
     3
 10
17351.545311999991
 20
19414.933518000002
 30
0.0
 11
17351.545311999991
 21
19408.937556000012
 31
0.0
  0
LINE
  5
4951
  8
2-0
  6
CONTINUOUS
 62
     3
 10
17351.545311999991
 20
19408.937556000012
 30
0.0
 11
17321.547686999991
 21
19408.937556000012
 31
0.0
  0
LINE
  5
4952
  8
2-0
  6
CONTINUOUS
 62
     3
 10
17321.547686999991
 20
19408.937556000012
 30
0.0
 11
17321.547686999991
 21
19523.933729000011
 31
0.0
  0
LINE
  5
4953
  8
2-0
  6
CONTINUOUS
 62
     3
 10
17321.547686999991
 20
19438.93715999999
 30
0.0
 11
17402.545627999982
 21
19438.93715999999
 31
0.0
  0
LINE
  5
4954
  8
2-0
  6
CONTINUOUS
 62
     3
 10
17351.545311999991
 20
19398.64009999999
 30
0.0
 11
17321.547686999991
 21
19398.64009999999
 31
0.0
  0
LINE
  5
4955
  8
2-0
  6
CONTINUOUS
 62
     3
 10
17351.545311999991
 20
19416.64184199999
 30
0.0
 11
17351.545311999991
 21
19398.64009999999
 31
0.0
  0
LINE
  5
4956
  8
2-0
  6
CONTINUOUS
 62
     3
 10
17326.551909999991
 20
19416.64184199999
 30
0.0
 11
17351.545311999991
 21
19416.64184199999
 31
0.0
  0
LINE
  5
4957
  8
2-0
  6
CONTINUOUS
 62
     3
 10
17326.551909999991
 20
19411.63366000001
 30
0.0
 11
17326.551909999991
 21
19416.64184199999
 31
0.0
  0
LINE
  5
4958
  8
2-0
  6
CONTINUOUS
 62
     3
 10
17333.54950799996
 20
19411.63366000001
 30
0.0
 11
17326.551909999991
 21
19411.63366000001
 31
0.0
  0
LINE
  5
4959
  8
2-0
  6
CONTINUOUS
 62
     3
 10
17333.54950799996
 20
19058.336837499981
 30
0.0
 11
17326.551909999991
 21
19058.336837499981
 31
0.0
  0
LINE
  5
495A
  8
2-0
  6
CONTINUOUS
 62
     3
 10
17326.551909999991
 20
19058.336837499981
 30
0.0
 11
17326.551909999991
 21
19063.33710149999
 31
0.0
  0
LINE
  5
495B
  8
2-0
  6
CONTINUOUS
 62
     3
 10
17326.551909999991
 20
19063.33710149999
 30
0.0
 11
17351.545311999991
 21
19063.33710149999
 31
0.0
  0
LINE
  5
495C
  8
2-0
  6
CONTINUOUS
 62
     3
 10
17351.545311999991
 20
19063.33710149999
 30
0.0
 11
17351.545311999991
 21
19045.341297499981
 31
0.0
  0
LINE
  5
495D
  8
2-0
  6
CONTINUOUS
 62
     3
 10
17351.545311999991
 20
19045.341297499981
 30
0.0
 11
17321.547686999991
 21
19045.341297499981
 31
0.0
  0
LINE
  5
495E
  8
2-0
  6
CONTINUOUS
 62
     3
 10
17351.545311999991
 20
19061.432804499949
 30
0.0
 11
17351.545311999991
 21
19055.434863499991
 31
0.0
  0
LINE
  5
495F
  8
2-0
  6
CONTINUOUS
 62
     3
 10
17351.545311999991
 20
19055.434863499991
 30
0.0
 11
17321.547686999991
 21
19055.434863499991
 31
0.0
  0
LINE
  5
4960
  8
2-0
  6
CONTINUOUS
 62
     3
 10
17321.547686999991
 20
19055.434863499991
 30
0.0
 11
17321.547686999991
 21
19092.436024499992
 31
0.0
  0
LINE
  5
4961
  8
2-0
  6
CONTINUOUS
 62
     3
 10
17351.545311999991
 20
19092.436024499992
 30
0.0
 11
17321.547686999991
 21
19092.436024499992
 31
0.0
  0
LINE
  5
4962
  8
2-0
  6
CONTINUOUS
 62
     3
 10
17351.545311999991
 20
19086.43214449998
 30
0.0
 11
17351.545311999991
 21
19092.436024499992
 31
0.0
  0
LINE
  5
4963
  8
2-0
  6
CONTINUOUS
 62
     3
 10
17351.545311999991
 20
19102.531569499981
 30
0.0
 11
17321.547686999991
 21
19102.531569499981
 31
0.0
  0
LINE
  5
4964
  8
2-0
  6
CONTINUOUS
 62
     3
 10
17351.545311999991
 20
19084.529827499991
 30
0.0
 11
17351.545311999991
 21
19102.531569499981
 31
0.0
  0
LINE
  5
4965
  8
2-0
  6
CONTINUOUS
 62
     3
 10
17326.551909999991
 20
19084.529827499991
 30
0.0
 11
17351.545311999991
 21
19084.529827499991
 31
0.0
  0
LINE
  5
4966
  8
2-0
  6
CONTINUOUS
 62
     3
 10
17326.551909999991
 20
19089.53009149995
 30
0.0
 11
17326.551909999991
 21
19084.529827499991
 31
0.0
  0
LINE
  5
4967
  8
2-0
  6
CONTINUOUS
 62
     3
 10
17333.54950799996
 20
19089.53009149995
 30
0.0
 11
17326.551909999991
 21
19089.53009149995
 31
0.0
  0
LINE
  5
4968
  8
2-0
  6
CONTINUOUS
 62
     3
 10
17333.54950799996
 20
18357.336837999981
 30
0.0
 11
17326.551909999991
 21
18357.336837999981
 31
0.0
  0
LINE
  5
4969
  8
2-0
  6
CONTINUOUS
 62
     3
 10
17326.551909999991
 20
18357.336837999981
 30
0.0
 11
17326.551909999991
 21
18362.343039999982
 31
0.0
  0
LINE
  5
496A
  8
2-0
  6
CONTINUOUS
 62
     3
 10
17326.551909999991
 20
18362.343039999982
 30
0.0
 11
17351.545311999991
 21
18362.343039999982
 31
0.0
  0
LINE
  5
496B
  8
2-0
  6
CONTINUOUS
 62
     3
 10
17351.545311999991
 20
18362.343039999982
 30
0.0
 11
17351.545311999991
 21
18344.341297999981
 31
0.0
  0
LINE
  5
496C
  8
2-0
  6
CONTINUOUS
 62
     3
 10
17351.545311999991
 20
18344.341297999981
 30
0.0
 11
17321.547686999991
 21
18344.341297999981
 31
0.0
  0
LINE
  5
496D
  8
2-0
  6
CONTINUOUS
 62
     3
 10
17351.545311999991
 20
18360.432804999949
 30
0.0
 11
17351.545311999991
 21
18354.436842999989
 31
0.0
  0
LINE
  5
496E
  8
2-0
  6
CONTINUOUS
 62
     3
 10
17351.545311999991
 20
18354.436842999989
 30
0.0
 11
17321.547686999991
 21
18354.436842999989
 31
0.0
  0
LINE
  5
496F
  8
2-0
  6
CONTINUOUS
 62
     3
 10
17321.547686999991
 20
18354.436842999989
 30
0.0
 11
17321.547686999991
 21
18391.436024999992
 31
0.0
  0
LINE
  5
4970
  8
2-0
  6
CONTINUOUS
 62
     3
 10
17351.545311999991
 20
18391.436024999992
 30
0.0
 11
17321.547686999991
 21
18391.436024999992
 31
0.0
  0
LINE
  5
4971
  8
2-0
  6
CONTINUOUS
 62
     3
 10
17351.545311999991
 20
18385.440062999991
 30
0.0
 11
17351.545311999991
 21
18391.436024999992
 31
0.0
  0
LINE
  5
4972
  8
2-0
  6
CONTINUOUS
 62
     3
 10
17351.545311999991
 20
18401.531569999981
 30
0.0
 11
17321.547686999991
 21
18401.531569999981
 31
0.0
  0
LINE
  5
4973
  8
2-0
  6
CONTINUOUS
 62
     3
 10
17351.545311999991
 20
18383.529827999992
 30
0.0
 11
17351.545311999991
 21
18401.531569999981
 31
0.0
  0
LINE
  5
4974
  8
2-0
  6
CONTINUOUS
 62
     3
 10
17326.551909999991
 20
18383.529827999992
 30
0.0
 11
17351.545311999991
 21
18383.529827999992
 31
0.0
  0
LINE
  5
4975
  8
2-0
  6
CONTINUOUS
 62
     3
 10
17326.551909999991
 20
18388.536029999981
 30
0.0
 11
17326.551909999991
 21
18383.529827999992
 31
0.0
  0
LINE
  5
4976
  8
2-0
  6
CONTINUOUS
 62
     3
 10
17333.54950799996
 20
18388.536029999981
 30
0.0
 11
17326.551909999991
 21
18388.536029999981
 31
0.0
  0
LINE
  5
4977
  8
2-0
  6
CONTINUOUS
 62
     3
 10
17333.54950799996
 20
17687.52910199999
 30
0.0
 11
17326.551909999991
 21
17687.52910199999
 31
0.0
  0
LINE
  5
4978
  8
2-0
  6
CONTINUOUS
 62
     3
 10
17326.551909999991
 20
17687.52910199999
 30
0.0
 11
17326.551909999991
 21
17682.540714999981
 31
0.0
  0
LINE
  5
4979
  8
2-0
  6
CONTINUOUS
 62
     3
 10
17326.551909999991
 20
17682.540714999981
 30
0.0
 11
17351.545311999991
 21
17682.540714999981
 31
0.0
  0
LINE
  5
497A
  8
2-0
  6
CONTINUOUS
 62
     3
 10
17351.545311999991
 20
17682.540714999981
 30
0.0
 11
17351.545311999991
 21
17700.53651799999
 31
0.0
  0
LINE
  5
497B
  8
2-0
  6
CONTINUOUS
 62
     3
 10
17351.545311999991
 20
17700.53651799999
 30
0.0
 11
17321.547686999991
 21
17700.53651799999
 31
0.0
  0
LINE
  5
497C
  8
2-0
  6
CONTINUOUS
 62
     3
 10
17351.545311999991
 20
17684.43907299999
 30
0.0
 11
17351.545311999991
 21
17690.43503499998
 31
0.0
  0
LINE
  5
497D
  8
2-0
  6
CONTINUOUS
 62
     3
 10
17351.545311999991
 20
17690.43503499998
 30
0.0
 11
17321.547686999991
 21
17690.43503499998
 31
0.0
  0
LINE
  5
497E
  8
2-0
  6
CONTINUOUS
 62
     3
 10
17321.547686999991
 20
17690.43503499998
 30
0.0
 11
17321.547686999991
 21
17653.435852999992
 31
0.0
  0
LINE
  5
497F
  8
2-0
  6
CONTINUOUS
 62
     3
 10
17351.545311999991
 20
17653.435852999992
 30
0.0
 11
17321.547686999991
 21
17653.435852999992
 31
0.0
  0
LINE
  5
4980
  8
2-0
  6
CONTINUOUS
 62
     3
 10
17351.545311999991
 20
17659.43775399998
 30
0.0
 11
17351.545311999991
 21
17653.435852999992
 31
0.0
  0
LINE
  5
4981
  8
2-0
  6
CONTINUOUS
 62
     3
 10
17351.545311999991
 20
17643.34624699999
 30
0.0
 11
17321.547686999991
 21
17643.34624699999
 31
0.0
  0
LINE
  5
4982
  8
2-0
  6
CONTINUOUS
 62
     3
 10
17351.545311999991
 20
17661.342049999981
 30
0.0
 11
17351.545311999991
 21
17643.34624699999
 31
0.0
  0
LINE
  5
4983
  8
2-0
  6
CONTINUOUS
 62
     3
 10
17326.551909999991
 20
17661.342049999981
 30
0.0
 11
17351.545311999991
 21
17661.342049999981
 31
0.0
  0
LINE
  5
4984
  8
2-0
  6
CONTINUOUS
 62
     3
 10
17326.551909999991
 20
17656.34178699999
 30
0.0
 11
17326.551909999991
 21
17661.342049999981
 31
0.0
  0
LINE
  5
4985
  8
2-0
  6
CONTINUOUS
 62
     3
 10
17333.54950799996
 20
17656.34178699999
 30
0.0
 11
17326.551909999991
 21
17656.34178699999
 31
0.0
  0
LINE
  5
4986
  8
2-0
  6
CONTINUOUS
 62
     3
 10
17324.433824999978
 20
16936.432672999981
 30
0.0
 11
17324.433824999978
 21
16956.433727999982
 31
0.0
  0
LINE
  5
4987
  8
2-0
  6
CONTINUOUS
 62
     3
 10
17324.433824999978
 20
16956.433727999982
 30
0.0
 11
17409.43435299999
 21
16956.433727999982
 31
0.0
  0
LINE
  5
4988
  8
2-0
  6
CONTINUOUS
 62
     3
 10
17333.54950799996
 20
16983.040437999982
 30
0.0
 11
17326.551909999991
 21
16983.040437999982
 31
0.0
  0
LINE
  5
4989
  8
2-0
  6
CONTINUOUS
 62
     3
 10
17326.551909999991
 20
16983.040437999982
 30
0.0
 11
17326.551909999991
 21
16978.046112
 31
0.0
  0
LINE
  5
498A
  8
2-0
  6
CONTINUOUS
 62
     3
 10
17326.551909999991
 20
16978.046112
 30
0.0
 11
17351.545311999991
 21
16978.046112
 31
0.0
  0
LINE
  5
498B
  8
2-0
  6
CONTINUOUS
 62
     3
 10
17351.545311999991
 20
16978.046112
 30
0.0
 11
17351.545311999991
 21
16996.041915999991
 31
0.0
  0
LINE
  5
498C
  8
2-0
  6
CONTINUOUS
 62
     3
 10
17351.545311999991
 20
16996.041915999991
 30
0.0
 11
17321.547686999991
 21
16996.041915999991
 31
0.0
  0
LINE
  5
498D
  8
2-0
  6
CONTINUOUS
 62
     3
 10
17351.545311999991
 20
16986.43333199995
 30
0.0
 11
17351.545311999991
 21
16980.43143199999
 31
0.0
  0
LINE
  5
498E
  8
2-0
  6
CONTINUOUS
 62
     3
 10
17321.547686999991
 20
16986.43333199995
 30
0.0
 11
17351.545311999991
 21
16986.43333199995
 31
0.0
  0
LINE
  5
498F
  8
2-0
  6
CONTINUOUS
 62
     3
 10
17321.547686999991
 20
16996.041915999991
 30
0.0
 11
17321.547686999991
 21
17643.34624699999
 31
0.0
  0
LINE
  5
4990
  8
2-0
  6
CONTINUOUS
 62
     3
 10
17321.547686999991
 20
17700.53651799999
 30
0.0
 11
17321.547686999991
 21
18344.341297999981
 31
0.0
  0
LINE
  5
4991
  8
2-0
  6
CONTINUOUS
 62
     3
 10
17321.547686999991
 20
16841.431616999991
 30
0.0
 11
17351.545311999991
 21
16841.431616999991
 31
0.0
  0
LINE
  5
4992
  8
2-0
  6
CONTINUOUS
 62
     3
 10
17351.545311999991
 20
16841.431616999991
 30
0.0
 11
17351.545311999991
 21
16847.43351699999
 31
0.0
  0
LINE
  5
4993
  8
2-0
  6
CONTINUOUS
 62
     3
 10
17409.43435299999
 20
16871.43715999999
 30
0.0
 11
17324.433824999978
 21
16871.43715999999
 31
0.0
  0
LINE
  5
4994
  8
2-0
  6
CONTINUOUS
 62
     3
 10
17324.433824999978
 20
16871.43715999999
 30
0.0
 11
17324.433824999978
 21
16891.432276999982
 31
0.0
  0
LINE
  5
4995
  8
2-0
  6
CONTINUOUS
 62
     3
 10
17351.545311999991
 20
16831.82303399999
 30
0.0
 11
17321.547686999991
 21
16831.82303399999
 31
0.0
  0
LINE
  5
4996
  8
2-0
  6
CONTINUOUS
 62
     3
 10
17351.545311999991
 20
16849.818836999981
 30
0.0
 11
17351.545311999991
 21
16831.82303399999
 31
0.0
  0
LINE
  5
4997
  8
2-0
  6
CONTINUOUS
 62
     3
 10
17326.551909999991
 20
16849.818836999981
 30
0.0
 11
17351.545311999991
 21
16849.818836999981
 31
0.0
  0
LINE
  5
4998
  8
2-0
  6
CONTINUOUS
 62
     3
 10
17326.551909999991
 20
16844.81857299999
 30
0.0
 11
17326.551909999991
 21
16849.818836999981
 31
0.0
  0
LINE
  5
4999
  8
2-0
  6
CONTINUOUS
 62
     3
 10
17333.54950799996
 20
16844.81857299999
 30
0.0
 11
17326.551909999991
 21
16844.81857299999
 31
0.0
  0
LINE
  5
499A
  8
2-0
  6
CONTINUOUS
 62
     3
 10
17333.54950799996
 20
16140.33634249995
 30
0.0
 11
17326.551909999991
 21
16140.33634249995
 31
0.0
  0
LINE
  5
499B
  8
2-0
  6
CONTINUOUS
 62
     3
 10
17326.551909999991
 20
16140.33634249995
 30
0.0
 11
17326.551909999991
 21
16145.336606499979
 31
0.0
  0
LINE
  5
499C
  8
2-0
  6
CONTINUOUS
 62
     3
 10
17326.551909999991
 20
16145.336606499979
 30
0.0
 11
17351.545311999991
 21
16145.336606499979
 31
0.0
  0
LINE
  5
499D
  8
2-0
  6
CONTINUOUS
 62
     3
 10
17351.545311999991
 20
16145.336606499979
 30
0.0
 11
17351.545311999991
 21
16127.334864499981
 31
0.0
  0
LINE
  5
499E
  8
2-0
  6
CONTINUOUS
 62
     3
 10
17351.545311999991
 20
16127.334864499981
 30
0.0
 11
17321.547686999991
 21
16127.334864499981
 31
0.0
  0
LINE
  5
499F
  8
2-0
  6
CONTINUOUS
 62
     3
 10
17351.545311999991
 20
16143.432309499991
 30
0.0
 11
17351.545311999991
 21
16137.435358499981
 31
0.0
  0
LINE
  5
49A0
  8
2-0
  6
CONTINUOUS
 62
     3
 10
17351.545311999991
 20
16137.435358499981
 30
0.0
 11
17321.547686999991
 21
16137.435358499981
 31
0.0
  0
LINE
  5
49A1
  8
2-0
  6
CONTINUOUS
 62
     3
 10
17321.547686999991
 20
16137.435358499981
 30
0.0
 11
17321.547686999991
 21
16174.43552949999
 31
0.0
  0
LINE
  5
49A2
  8
2-0
  6
CONTINUOUS
 62
     3
 10
17351.545311999991
 20
16174.43552949999
 30
0.0
 11
17321.547686999991
 21
16174.43552949999
 31
0.0
  0
LINE
  5
49A3
  8
2-0
  6
CONTINUOUS
 62
     3
 10
17351.545311999991
 20
16168.432639499981
 30
0.0
 11
17351.545311999991
 21
16174.43552949999
 31
0.0
  0
LINE
  5
49A4
  8
2-0
  6
CONTINUOUS
 62
     3
 10
17351.545311999991
 20
16184.531074499981
 30
0.0
 11
17321.547686999991
 21
16184.531074499981
 31
0.0
  0
LINE
  5
49A5
  8
2-0
  6
CONTINUOUS
 62
     3
 10
17351.545311999991
 20
16166.523393499991
 30
0.0
 11
17351.545311999991
 21
16184.531074499981
 31
0.0
  0
LINE
  5
49A6
  8
2-0
  6
CONTINUOUS
 62
     3
 10
17326.551909999991
 20
16166.523393499991
 30
0.0
 11
17351.545311999991
 21
16166.523393499991
 31
0.0
  0
LINE
  5
49A7
  8
2-0
  6
CONTINUOUS
 62
     3
 10
17326.551909999991
 20
16171.52959649998
 30
0.0
 11
17326.551909999991
 21
16166.523393499991
 31
0.0
  0
LINE
  5
49A8
  8
2-0
  6
CONTINUOUS
 62
     3
 10
17333.54950799996
 20
16171.52959649998
 30
0.0
 11
17326.551909999991
 21
16171.52959649998
 31
0.0
  0
LINE
  5
49A9
  8
2-0
  6
CONTINUOUS
 62
     3
 10
17333.54950799996
 20
15470.76961299998
 30
0.0
 11
17326.551909999991
 21
15470.76961299998
 31
0.0
  0
LINE
  5
49AA
  8
2-0
  6
CONTINUOUS
 62
     3
 10
17326.551909999991
 20
15470.76961299998
 30
0.0
 11
17326.551909999991
 21
15465.77528799999
 31
0.0
  0
LINE
  5
49AB
  8
2-0
  6
CONTINUOUS
 62
     3
 10
17326.551909999991
 20
15465.77528799999
 30
0.0
 11
17351.545311999991
 21
15465.77528799999
 31
0.0
  0
LINE
  5
49AC
  8
2-0
  6
CONTINUOUS
 62
     3
 10
17351.545311999991
 20
15465.77528799999
 30
0.0
 11
17351.545311999991
 21
15483.771091000001
 31
0.0
  0
LINE
  5
49AD
  8
2-0
  6
CONTINUOUS
 62
     3
 10
17351.545311999991
 20
15483.771091000001
 30
0.0
 11
17321.547686999991
 21
15483.771091000001
 31
0.0
  0
LINE
  5
49AE
  8
2-0
  6
CONTINUOUS
 62
     3
 10
17351.545311999991
 20
15467.67364599999
 30
0.0
 11
17351.545311999991
 21
15473.675546
 31
0.0
  0
LINE
  5
49AF
  8
2-0
  6
CONTINUOUS
 62
     3
 10
17351.545311999991
 20
15473.675546
 30
0.0
 11
17321.547686999991
 21
15473.675546
 31
0.0
  0
LINE
  5
49B0
  8
2-0
  6
CONTINUOUS
 62
     3
 10
17321.547686999991
 20
15436.67636499999
 30
0.0
 11
17321.547686999991
 21
15473.675546
 31
0.0
  0
LINE
  5
49B1
  8
2-0
  6
CONTINUOUS
 62
     3
 10
17351.545311999991
 20
15436.67636499999
 30
0.0
 11
17321.547686999991
 21
15436.67636499999
 31
0.0
  0
LINE
  5
49B2
  8
2-0
  6
CONTINUOUS
 62
     3
 10
17351.545311999991
 20
15442.67331599998
 30
0.0
 11
17351.545311999991
 21
15436.67636499999
 31
0.0
  0
LINE
  5
49B3
  8
2-0
  6
CONTINUOUS
 62
     3
 10
17351.545311999991
 20
15426.57488099998
 30
0.0
 11
17321.547686999991
 21
15426.57488099998
 31
0.0
  0
LINE
  5
49B4
  8
2-0
  6
CONTINUOUS
 62
     3
 10
17351.545311999991
 20
15444.582561999991
 30
0.0
 11
17351.545311999991
 21
15426.57488099998
 31
0.0
  0
LINE
  5
49B5
  8
2-0
  6
CONTINUOUS
 62
     3
 10
17326.551909999991
 20
15444.582561999991
 30
0.0
 11
17351.545311999991
 21
15444.582561999991
 31
0.0
  0
LINE
  5
49B6
  8
2-0
  6
CONTINUOUS
 62
     3
 10
17326.551909999991
 20
15439.58229800001
 30
0.0
 11
17326.551909999991
 21
15444.582561999991
 31
0.0
  0
LINE
  5
49B7
  8
2-0
  6
CONTINUOUS
 62
     3
 10
17333.54950799996
 20
15439.58229800001
 30
0.0
 11
17326.551909999991
 21
15439.58229800001
 31
0.0
  0
LINE
  5
49B8
  8
2-0
  6
CONTINUOUS
 62
     3
 10
17321.547686999991
 20
16831.82303399999
 30
0.0
 11
17321.547686999991
 21
16184.531074499981
 31
0.0
  0
LINE
  5
49B9
  8
2-0
  6
CONTINUOUS
 62
     3
 10
17321.547686999991
 20
16986.43333199995
 30
0.0
 11
17321.547686999991
 21
16841.431616999991
 31
0.0
  0
LINE
  5
49BA
  8
2-0
  6
CONTINUOUS
 62
     3
 10
17409.43435299999
 20
16956.433727999982
 30
0.0
 11
17409.43435299999
 21
16871.43715999999
 31
0.0
  0
LINE
  5
49BB
  8
2-0
  6
CONTINUOUS
 62
     3
 10
17333.54950799996
 20
14738.34129099999
 30
0.0
 11
17326.551909999991
 21
14738.34129099999
 31
0.0
  0
LINE
  5
49BC
  8
2-0
  6
CONTINUOUS
 62
     3
 10
17326.551909999991
 20
14738.34129099999
 30
0.0
 11
17326.551909999991
 21
14743.33561699999
 31
0.0
  0
LINE
  5
49BD
  8
2-0
  6
CONTINUOUS
 62
     3
 10
17326.551909999991
 20
14743.33561699999
 30
0.0
 11
17351.545311999991
 21
14743.33561699999
 31
0.0
  0
LINE
  5
49BE
  8
2-0
  6
CONTINUOUS
 62
     3
 10
17351.545311999991
 20
14743.33561699999
 30
0.0
 11
17351.545311999991
 21
14725.33981299999
 31
0.0
  0
LINE
  5
49BF
  8
2-0
  6
CONTINUOUS
 62
     3
 10
17351.545311999991
 20
14725.33981299999
 30
0.0
 11
17321.547686999991
 21
14725.33981299999
 31
0.0
  0
LINE
  5
49C0
  8
2-0
  6
CONTINUOUS
 62
     3
 10
17351.545311999991
 20
14741.43824799998
 30
0.0
 11
17351.545311999991
 21
14735.43535799999
 31
0.0
  0
LINE
  5
49C1
  8
2-0
  6
CONTINUOUS
 62
     3
 10
17351.545311999991
 20
14735.43535799999
 30
0.0
 11
17321.547686999991
 21
14735.43535799999
 31
0.0
  0
LINE
  5
49C2
  8
2-0
  6
CONTINUOUS
 62
     3
 10
17321.547686999991
 20
14735.43535799999
 30
0.0
 11
17321.547686999991
 21
14772.435529999981
 31
0.0
  0
LINE
  5
49C3
  8
2-0
  6
CONTINUOUS
 62
     3
 10
17351.545311999991
 20
14772.435529999981
 30
0.0
 11
17321.547686999991
 21
14772.435529999981
 31
0.0
  0
LINE
  5
49C4
  8
2-0
  6
CONTINUOUS
 62
     3
 10
17351.545311999991
 20
14766.438577999979
 30
0.0
 11
17351.545311999991
 21
14772.435529999981
 31
0.0
  0
LINE
  5
49C5
  8
2-0
  6
CONTINUOUS
 62
     3
 10
17351.545311999991
 20
14782.536022999981
 30
0.0
 11
17321.547686999991
 21
14782.536022999981
 31
0.0
  0
LINE
  5
49C6
  8
2-0
  6
CONTINUOUS
 62
     3
 10
17351.545311999991
 20
14764.52933199998
 30
0.0
 11
17351.545311999991
 21
14782.536022999981
 31
0.0
  0
LINE
  5
49C7
  8
2-0
  6
CONTINUOUS
 62
     3
 10
17326.551909999991
 20
14764.52933199998
 30
0.0
 11
17351.545311999991
 21
14764.52933199998
 31
0.0
  0
LINE
  5
49C8
  8
2-0
  6
CONTINUOUS
 62
     3
 10
17326.551909999991
 20
14769.53454499998
 30
0.0
 11
17326.551909999991
 21
14764.52933199998
 31
0.0
  0
LINE
  5
49C9
  8
2-0
  6
CONTINUOUS
 62
     3
 10
17333.54950799996
 20
14769.53454499998
 30
0.0
 11
17326.551909999991
 21
14769.53454499998
 31
0.0
  0
LINE
  5
49CA
  8
2-0
  6
CONTINUOUS
 62
     3
 10
17351.545311999991
 20
14062.43737099998
 30
0.0
 11
17351.545311999991
 21
14068.44223999998
 31
0.0
  0
LINE
  5
49CB
  8
2-0
  6
CONTINUOUS
 62
     3
 10
17351.545311999991
 20
14068.44223999998
 30
0.0
 11
17321.547686999991
 21
14068.44223999998
 31
0.0
  0
LINE
  5
49CC
  8
2-0
  6
CONTINUOUS
 62
     3
 10
17321.547686999991
 20
14068.44223999998
 30
0.0
 11
17321.547686999991
 21
13953.438148999991
 31
0.0
  0
LINE
  5
49CD
  8
2-0
  6
CONTINUOUS
 62
     3
 10
17321.547686999991
 20
13953.438148999991
 30
0.0
 11
17406.546234999991
 21
13953.438148999991
 31
0.0
  0
LINE
  5
49CE
  8
2-0
  6
CONTINUOUS
 62
     3
 10
17406.546234999991
 20
13953.438148999991
 30
0.0
 11
17406.546234999991
 21
14038.43372799998
 31
0.0
  0
LINE
  5
49CF
  8
2-0
  6
CONTINUOUS
 62
     3
 10
17406.546234999991
 20
14038.43372799998
 30
0.0
 11
17374.549296999969
 21
14038.43372799998
 31
0.0
  0
LINE
  5
49D0
  8
2-0
  6
CONTINUOUS
 62
     3
 10
17333.54950799996
 20
14065.471972999991
 30
0.0
 11
17326.551909999991
 21
14065.471972999991
 31
0.0
  0
LINE
  5
49D1
  8
2-0
  6
CONTINUOUS
 62
     3
 10
17326.551909999991
 20
14065.471972999991
 30
0.0
 11
17326.551909999991
 21
14060.47467799995
 31
0.0
  0
LINE
  5
49D2
  8
2-0
  6
CONTINUOUS
 62
     3
 10
17326.551909999991
 20
14060.47467799995
 30
0.0
 11
17351.545311999991
 21
14060.47467799995
 31
0.0
  0
LINE
  5
49D3
  8
2-0
  6
CONTINUOUS
 62
     3
 10
17351.545311999991
 20
14060.47467799995
 30
0.0
 11
17351.545311999991
 21
14078.473450999991
 31
0.0
  0
LINE
  5
49D4
  8
2-0
  6
CONTINUOUS
 62
     3
 10
17351.545311999991
 20
14078.473450999991
 30
0.0
 11
17321.547686999991
 21
14078.473450999991
 31
0.0
  0
LINE
  5
49D5
  8
2-0
  6
CONTINUOUS
 62
     3
 10
17321.547686999991
 20
14782.536022999981
 30
0.0
 11
17321.547686999991
 21
15426.57488099998
 31
0.0
  0
LINE
  5
49D6
  8
2-0
  6
CONTINUOUS
 62
     3
 10
17321.547686999991
 20
18401.531569999981
 30
0.0
 11
17321.547686999991
 21
19045.341297499981
 31
0.0
  0
LINE
  5
49D7
  8
2-0
  6
CONTINUOUS
 62
     3
 10
17321.547686999991
 20
16127.334864499981
 30
0.0
 11
17321.547686999991
 21
15483.771091000001
 31
0.0
  0
LINE
  5
49D8
  8
2-0
  6
CONTINUOUS
 62
     3
 10
26443.547554999961
 20
19408.937556000012
 30
0.0
 11
26443.547554999961
 21
19523.933729000011
 31
0.0
  0
LINE
  5
49D9
  8
2-0
  6
CONTINUOUS
 62
     3
 10
22112.509284
 20
17177.646487000002
 30
0.0
 11
21954.628820999991
 21
17296.730366000011
 31
0.0
  0
LINE
  5
49DA
  8
2-0
  6
CONTINUOUS
 62
     3
 10
22500.471172000001
 20
17260.77834999999
 30
0.0
 11
22254.628820999991
 21
17446.213712000012
 31
0.0
  0
LINE
  5
49DB
  8
2-0
  6
CONTINUOUS
 62
     3
 10
22254.628820999991
 20
16376.333407
 30
0.0
 11
21894.520739
 21
16647.960966999992
 31
0.0
  0
LINE
  5
49DC
  8
2-0
  6
CONTINUOUS
 62
     3
 10
21894.520739
 20
16647.960966999992
 30
0.0
 11
22500.471172000001
 21
17260.77834999999
 31
0.0
  0
LINE
  5
49DD
  8
2-0
  6
CONTINUOUS
 62
     3
 10
21954.628820999991
 20
16226.851050999991
 30
0.0
 11
21506.55687199999
 21
16564.83108399999
 31
0.0
  0
LINE
  5
49DE
  8
2-0
  6
CONTINUOUS
 62
     3
 10
22112.509284
 20
17177.646487000002
 30
0.0
 11
21506.55687199999
 21
16564.83108399999
 31
0.0
  0
LINE
  5
49DF
  8
2-0
  6
CONTINUOUS
 62
     3
 10
22254.628820999991
 20
19630.655513999991
 30
0.0
 11
22254.628820999991
 21
19825.14123500001
 31
0.0
  0
LINE
  5
49E0
  8
2-0
  6
CENTER2
 62
     6
 10
16034.589414999969
 20
19481.435443999981
 30
0.0
 11
27293.548874999949
 21
19481.435443999981
 31
0.0
  0
LINE
  5
49E1
  8
2-0
  6
CENTER2
 62
     6
 10
16034.589414999969
 20
16913.935443999992
 30
0.0
 11
27293.548874999949
 21
16913.935443999992
 31
0.0
  0
LINE
  5
49E2
  8
2-0
  6
CENTER2
 62
     6
 10
16034.589414999969
 20
13995.935443999981
 30
0.0
 11
27293.548874999949
 21
13995.935443999981
 31
0.0
  0
LINE
  5
49E3
  8
2-0
  6
CONTINUOUS
 62
     3
 10
17787.135669999981
 20
19511.93388700001
 30
0.0
 11
17787.135669999981
 21
19518.939403
 31
0.0
  0
LINE
  5
49E4
  8
2-0
  6
CONTINUOUS
 62
     3
 10
17787.135669999981
 20
19518.939403
 30
0.0
 11
17782.13540599999
 21
19518.939403
 31
0.0
  0
LINE
  5
49E5
  8
2-0
  6
CONTINUOUS
 62
     3
 10
17782.13540599999
 20
19518.939403
 30
0.0
 11
17782.13540599999
 21
19493.930165999998
 31
0.0
  0
LINE
  5
49E6
  8
2-0
  6
CONTINUOUS
 62
     3
 10
17782.13540599999
 20
19493.930165999998
 30
0.0
 11
17800.137147999991
 21
19493.930165999998
 31
0.0
  0
LINE
  5
49E7
  8
2-0
  6
CONTINUOUS
 62
     3
 10
17800.137147999991
 20
19493.930165999998
 30
0.0
 11
17800.137147999991
 21
19523.933729000011
 31
0.0
  0
LINE
  5
49E8
  8
2-0
  6
CONTINUOUS
 62
     3
 10
17784.03772299999
 20
19493.930165999998
 30
0.0
 11
17790.041602999991
 21
19493.930165999998
 31
0.0
  0
LINE
  5
49E9
  8
2-0
  6
CONTINUOUS
 62
     3
 10
17790.041602999991
 20
19493.930165999998
 30
0.0
 11
17790.041602999991
 21
19523.933729000011
 31
0.0
  0
LINE
  5
49EA
  8
2-0
  6
CONTINUOUS
 62
     3
 10
17753.04638099996
 20
19523.933729000011
 30
0.0
 11
17790.041602999991
 21
19523.933729000011
 31
0.0
  0
LINE
  5
49EB
  8
2-0
  6
CONTINUOUS
 62
     3
 10
17753.04638099996
 20
19493.930165999998
 30
0.0
 11
17753.04638099996
 21
19523.933729000011
 31
0.0
  0
LINE
  5
49EC
  8
2-0
  6
CONTINUOUS
 62
     3
 10
17759.040363
 20
19493.930165999998
 30
0.0
 11
17753.04638099996
 21
19493.930165999998
 31
0.0
  0
LINE
  5
49ED
  8
2-0
  6
CONTINUOUS
 62
     3
 10
17742.950836
 20
19493.930165999998
 30
0.0
 11
17742.950836
 21
19523.933729000011
 31
0.0
  0
LINE
  5
49EE
  8
2-0
  6
CONTINUOUS
 62
     3
 10
17760.946638999991
 20
19493.930165999998
 30
0.0
 11
17742.950836
 21
19493.930165999998
 31
0.0
  0
LINE
  5
49EF
  8
2-0
  6
CONTINUOUS
 62
     3
 10
17760.946638999991
 20
19518.939403
 30
0.0
 11
17760.946638999991
 21
19493.930165999998
 31
0.0
  0
LINE
  5
49F0
  8
2-0
  6
CONTINUOUS
 62
     3
 10
17755.948355
 20
19518.939403
 30
0.0
 11
17760.946638999991
 21
19518.939403
 31
0.0
  0
LINE
  5
49F1
  8
2-0
  6
CONTINUOUS
 62
     3
 10
17755.948355
 20
19511.93388700001
 30
0.0
 11
17755.948355
 21
19518.939403
 31
0.0
  0
LINE
  5
49F2
  8
2-0
  6
CONTINUOUS
 62
     3
 10
17446.84923399999
 20
19523.933729000011
 30
0.0
 11
17742.950836
 21
19523.933729000011
 31
0.0
  0
LINE
  5
49F3
  8
2-0
  6
CONTINUOUS
 62
     3
 10
21954.628820999991
 20
19438.93715999999
 30
0.0
 11
17321.547686999991
 21
19438.93715999999
 31
0.0
  0
LINE
  5
49F4
  8
2-0
  6
CONTINUOUS
 62
     3
 10
22254.628820999991
 20
19438.93715999999
 30
0.0
 11
26362.545654999962
 21
19438.93715999999
 31
0.0
  0
LINE
  5
49F5
  8
2-0
  6
CONTINUOUS
 62
     3
 10
17321.547686999991
 20
14078.473450999991
 30
0.0
 11
17321.547686999991
 21
14725.33981299999
 31
0.0
  0
LINE
  5
49F6
  8
2-0
  6
CENTER2
 62
     6
 10
17364.043991999992
 20
20723.933729000011
 30
0.0
 11
17364.043991999992
 21
13370.17200999998
 31
0.0
  0
LINE
  5
49F7
  8
2-0
  6
CENTER2
 62
     6
 10
26401.049270999949
 20
20723.933729000011
 30
0.0
 11
26401.049270999949
 21
13370.17200999998
 31
0.0
  0
LINE
  5
49F8
  8
2-0
  6
CONTINUOUS
 62
     3
 10
26443.547554999961
 20
19398.64009999999
 30
0.0
 11
26443.547554999961
 21
19102.531569499981
 31
0.0
  0
LINE
  5
49F9
  8
2-0
  6
CONTINUOUS
 62
     3
 10
21954.628820999991
 20
17296.730366000011
 30
0.0
 11
21954.628820999991
 21
19825.14123500001
 31
0.0
  0
LINE
  5
49FA
  8
2-0
  6
CONTINUOUS
 62
     3
 10
22254.628820999991
 20
17446.213712000012
 30
0.0
 11
22254.628820999991
 21
19630.655513999991
 31
0.0
  0
LINE
  5
49FB
  8
2-0
  6
CONTINUOUS
 62
     3
 10
17321.547686999991
 20
19398.64009999999
 30
0.0
 11
17321.547686999991
 21
19102.531569499981
 31
0.0
  0
LINE
  5
49FC
  8
2-0
  6
CONTINUOUS
 62
     3
 10
21954.628820999991
 20
16226.851050999991
 30
0.0
 11
21954.628820999991
 21
13804.53084299998
 31
0.0
  0
LINE
  5
49FD
  8
2-0
  6
CONTINUOUS
 62
     3
 10
22254.628820999991
 20
16376.333407
 30
0.0
 11
22254.628820999991
 21
13804.53084299998
 31
0.0
  0
LINE
  5
49FE
  8
2-0
  6
CENTER2
 62
     6
 10
23132.54927099996
 20
20723.933729000011
 30
0.0
 11
23132.54927099996
 21
13804.53084299998
 31
0.0
  0
LINE
  5
49FF
  8
2-0
  6
CENTER2
 62
     6
 10
20632.543991999992
 20
20723.933729000011
 30
0.0
 11
20632.543991999992
 21
13804.53084299998
 31
0.0
  0
LINE
  5
4A00
  8
2-0
  6
CONTINUOUS
 62
     3
 10
17402.545627999982
 20
14038.43372799998
 30
0.0
 11
17402.545627999982
 21
19523.933729000011
 31
0.0
  0
LINE
  5
4A01
  8
2-0
  6
CONTINUOUS
 62
     3
 10
26362.545654999962
 20
14038.43372799998
 30
0.0
 11
26362.545654999962
 21
19523.933729000011
 31
0.0
  0
CIRCLE
  5
4A02
  8
2-0
  6
CONTINUOUS
 62
     4
 10
15834.591724999969
 20
19481.435443999981
 30
0.0
 40
200.00001
  0
CIRCLE
  5
4A03
  8
2-0
  6
CONTINUOUS
 62
     4
 10
15834.591724999969
 20
16913.935443999992
 30
0.0
 40
200.00001
  0
CIRCLE
  5
4A04
  8
2-0
  6
CONTINUOUS
 62
     4
 10
15834.591724999969
 20
13995.935443999981
 30
0.0
 40
200.00001
  0
CIRCLE
  5
4A05
  8
2-0
  6
CONTINUOUS
 62
     4
 10
20632.543991999992
 20
20923.938348
 30
0.0
 40
200.00001
  0
CIRCLE
  5
4A06
  8
2-0
  6
CONTINUOUS
 62
     4
 10
17364.043991999992
 20
20923.938348
 30
0.0
 40
200.00001
  0
CIRCLE
  5
4A07
  8
2-0
  6
CONTINUOUS
 62
     4
 10
23132.54927099996
 20
20923.938348
 30
0.0
 40
200.00001
  0
CIRCLE
  5
4A08
  8
2-0
  6
CONTINUOUS
 62
     4
 10
26401.049270999949
 20
20923.938348
 30
0.0
 40
200.00001
  0
TEXT
  5
4A09
  8
2-0
  6
CONTINUOUS
 62
     7
 10
24797.894577999959
 20
13435.93656599998
 30
0.0
 40
160.0
  1
前柱（右）
 50
0.000213
 72
     4
 11
25213.89428059298
 21
13515.938112500769
 31
0.0
  0
TEXT
  5
4A0A
  8
2-0
  6
CONTINUOUS
 62
     7
 10
25002.489700999951
 20
16364.42858199999
 30
0.0
 40
160.0
  1
壁パネル
 50
359.99982299999999
 72
     4
 11
25365.156614803509
 21
16444.427461637861
 31
0.0
  0
TEXT
  5
4A0B
  8
2-0
  6
CONTINUOUS
 62
     7
 10
24722.48679699994
 20
17201.616478
 30
0.0
 40
160.0
  1
中柱（左右）
 50
0.000354
 72
     4
 11
25239.819636046159
 21
17281.619674324651
 31
0.0
  0
TEXT
  5
4A0C
  8
2-0
  6
CONTINUOUS
 62
     7
 10
25402.489040999961
 20
14408.97783199996
 30
0.0
 40
160.0
  1
下枠
 50
0.001063
 72
     4
 11
25573.154223409259
 21
14488.98099833925
 31
0.0
  0
TEXT
  5
4A0D
  8
2-0
  6
CONTINUOUS
 62
     7
 10
24897.454464999959
 20
18804.885216499981
 30
0.0
 40
160.0
  1
間柱（側）
 72
     4
 11
25318.787798333291
 21
18884.885216499981
 31
0.0
  0
TEXT
  5
4A0E
  8
2-0
  6
CONTINUOUS
 62
     7
 10
27216.044783999969
 20
20333.932937000001
 30
0.0
 40
160.0
  1
後柱（左右）
 50
0.000354
 72
     4
 11
27728.044289712961
 21
20413.936100372841
 31
0.0
  0
TEXT
  5
4A0F
  8
2-0
  6
CONTINUOUS
 62
     7
 10
23531.638032999959
 20
14573.773743999949
 30
0.0
 40
160.0
  1
前柱（中）
 72
     4
 11
23947.638032999959
 21
14653.773743999949
 31
0.0
  0
TEXT
  5
4A10
  8
2-0
  6
CONTINUOUS
 62
     7
 10
19468.412867999981
 20
18886.815775999999
 30
0.0
 40
160.0
  1
間柱（後）
 72
     4
 11
19889.74620133331
 21
18966.815775999999
 31
0.0
  0
TEXT
  5
4A11
  8
2-0
  6
CONTINUOUS
 62
     7
 10
23402.842635999968
 20
18955.560496999991
 30
0.0
 40
160.0
  1
後柱（中）
 72
     4
 11
23818.842635999968
 21
19035.560496999991
 31
0.0
  0
TEXT
  5
4A12
  8
2-0
  6
CONTINUOUS
 62
     7
 10
15786.59235799998
 20
19386.955001999992
 30
0.0
 40
160.0
  1
C
 72
     4
 11
15839.92569133331
 21
19466.955001999992
 31
0.0
  0
TEXT
  5
4A13
  8
2-0
  6
CONTINUOUS
 62
     7
 10
15786.813073999971
 20
16843.541362
 30
0.0
 40
160.0
  1
B
 72
     4
 11
15840.14640733331
 21
16923.541362
 31
0.0
  0
TEXT
  5
4A14
  8
2-0
  6
CONTINUOUS
 62
     7
 10
15786.85563399999
 20
13907.32823299998
 30
0.0
 40
160.0
  1
A
 72
     4
 11
15840.18896733333
 21
13987.32823299998
 31
0.0
  0
TEXT
  5
4A15
  8
2-0
  6
CONTINUOUS
 62
     7
 10
20580.912208999991
 20
20828.412719
 30
0.0
 40
160.0
  1
2
 72
     4
 11
20634.245542333319
 21
20908.412719
 31
0.0
  0
TEXT
  5
4A16
  8
2-0
  6
CONTINUOUS
 62
     7
 10
17319.83738299998
 20
20835.170795999999
 30
0.0
 40
160.0
  1
1
 72
     4
 11
17346.504049666652
 21
20915.170795999999
 31
0.0
  0
TEXT
  5
4A17
  8
2-0
  6
CONTINUOUS
 62
     7
 10
26349.643152999972
 20
20843.550098
 30
0.0
 40
160.0
  1
n
 72
     4
 11
26402.9764863333
 21
20896.883431333328
 31
0.0
  0
TEXT
  5
4A18
  8
2-0
  6
CONTINUOUS
 62
     7
 10
22972.594271999969
 20
20856.046798999989
 30
0.0
 40
140.0
  1
n-1
 72
     4
 11
23135.927605333301
 21
20926.046798999989
 31
0.0
  0
TEXT
  5
4A19
  8
2-0
  6
CONTINUOUS
 62
     7
 10
21060.802859999989
 20
11889.06122300001
 30
0.0
 40
160.0
  1
平 面 図
 50
0.000266
 72
     4
 11
21418.13584668381
 21
11963.729548612961
 31
0.0
  0
TEXT
  5
4A1A
  8
2-0
  6
CONTINUOUS
 62
     7
 10
22769.628031821441
 20
11910.92491761294
 30
0.0
 40
160.0
  1
1
 72
     4
 11
22796.294698488098
 21
11990.92491761294
 31
0.0
  0
TEXT
  5
4A1B
  8
2-0
  6
CONTINUOUS
 62
     7
 10
23012.716749072129
 20
11830.92638561294
 30
0.0
 40
160.0
  1
80
 72
     4
 11
23132.716749072129
 21
11910.92638561294
 31
0.0
  0
TEXT
  5
4A1C
  8
2-0
  6
CONTINUOUS
 62
     7
 10
22270.629997821441
 20
11883.729548612961
 30
0.0
 40
160.0
  1
(S=  /   )
 72
     4
 11
22830.629997821441
 21
11963.729548612961
 31
0.0
  0
LINE
  5
4A1D
  8
2-0
  6
CONTINUOUS
 62
     3
 10
25661.54985199996
 20
19523.933729000011
 30
0.0
 11
25624.54868999996
 21
19523.933729000011
 31
0.0
  0
LINE
  5
4A1E
  8
2-0
  6
CONTINUOUS
 62
     3
 10
25661.54985199996
 20
19493.930165999998
 30
0.0
 11
25661.54985199996
 21
19523.933729000011
 31
0.0
  0
LINE
  5
4A1F
  8
2-0
  6
CONTINUOUS
 62
     3
 10
25655.54993099995
 20
19493.930165999998
 30
0.0
 11
25661.54985199996
 21
19493.930165999998
 31
0.0
  0
LINE
  5
4A20
  8
2-0
  6
CONTINUOUS
 62
     3
 10
25671.647375999961
 20
19493.930165999998
 30
0.0
 11
25671.647375999961
 21
19523.933729000011
 31
0.0
  0
LINE
  5
4A21
  8
2-0
  6
CONTINUOUS
 62
     3
 10
25653.64365499996
 20
19493.930165999998
 30
0.0
 11
25671.647375999961
 21
19493.930165999998
 31
0.0
  0
LINE
  5
4A22
  8
2-0
  6
CONTINUOUS
 62
     3
 10
25653.64365499996
 20
19518.939403
 30
0.0
 11
25653.64365499996
 21
19493.930165999998
 31
0.0
  0
LINE
  5
4A23
  8
2-0
  6
CONTINUOUS
 62
     3
 10
25658.643918999958
 20
19518.939403
 30
0.0
 11
25653.64365499996
 21
19518.939403
 31
0.0
  0
LINE
  5
4A24
  8
2-0
  6
CONTINUOUS
 62
     3
 10
25658.643918999958
 20
19511.93388700001
 30
0.0
 11
25658.643918999958
 21
19518.939403
 31
0.0
  0
LINE
  5
4A25
  8
2-0
  6
CONTINUOUS
 62
     3
 10
25627.454623999962
 20
19511.93388700001
 30
0.0
 11
25627.454623999962
 21
19518.939403
 31
0.0
  0
LINE
  5
4A26
  8
2-0
  6
CONTINUOUS
 62
     3
 10
25627.454623999962
 20
19518.939403
 30
0.0
 11
25632.45488799996
 21
19518.939403
 31
0.0
  0
LINE
  5
4A27
  8
2-0
  6
CONTINUOUS
 62
     3
 10
25632.45488799996
 20
19518.939403
 30
0.0
 11
25632.45488799996
 21
19493.930165999998
 31
0.0
  0
LINE
  5
4A28
  8
2-0
  6
CONTINUOUS
 62
     3
 10
25632.45488799996
 20
19493.930165999998
 30
0.0
 11
25614.45512499996
 21
19493.930165999998
 31
0.0
  0
LINE
  5
4A29
  8
2-0
  6
CONTINUOUS
 62
     3
 10
25614.45512499996
 20
19493.930165999998
 30
0.0
 11
25614.45512499996
 21
19523.933729000011
 31
0.0
  0
LINE
  5
4A2A
  8
2-0
  6
CONTINUOUS
 62
     3
 10
25630.548610999958
 20
19493.930165999998
 30
0.0
 11
25624.54868999996
 21
19493.930165999998
 31
0.0
  0
LINE
  5
4A2B
  8
2-0
  6
CONTINUOUS
 62
     3
 10
25624.54868999996
 20
19493.930165999998
 30
0.0
 11
25624.54868999996
 21
19523.933729000011
 31
0.0
  0
LINE
  5
4A2C
  8
2-0
  6
CONTINUOUS
 62
     3
 10
24256.63896949996
 20
19511.93388700001
 30
0.0
 11
24256.63896949996
 21
19518.939403
 31
0.0
  0
LINE
  5
4A2D
  8
2-0
  6
CONTINUOUS
 62
     3
 10
24256.63896949996
 20
19518.939403
 30
0.0
 11
24251.638705499961
 21
19518.939403
 31
0.0
  0
LINE
  5
4A2E
  8
2-0
  6
CONTINUOUS
 62
     3
 10
24251.638705499961
 20
19518.939403
 30
0.0
 11
24251.638705499961
 21
19493.930165999998
 31
0.0
  0
LINE
  5
4A2F
  8
2-0
  6
CONTINUOUS
 62
     3
 10
24251.638705499961
 20
19493.930165999998
 30
0.0
 11
24269.644406499949
 21
19493.930165999998
 31
0.0
  0
LINE
  5
4A30
  8
2-0
  6
CONTINUOUS
 62
     3
 10
24269.644406499949
 20
19493.930165999998
 30
0.0
 11
24269.644406499949
 21
19523.933729000011
 31
0.0
  0
LINE
  5
4A31
  8
2-0
  6
CONTINUOUS
 62
     3
 10
24253.54696149996
 20
19493.930165999998
 30
0.0
 11
24259.54886149997
 21
19493.930165999998
 31
0.0
  0
LINE
  5
4A32
  8
2-0
  6
CONTINUOUS
 62
     3
 10
24259.54886149997
 20
19493.930165999998
 30
0.0
 11
24259.54886149997
 21
19523.933729000011
 31
0.0
  0
LINE
  5
4A33
  8
2-0
  6
CONTINUOUS
 62
     3
 10
24222.54968049996
 20
19523.933729000011
 30
0.0
 11
24259.54886149997
 21
19523.933729000011
 31
0.0
  0
LINE
  5
4A34
  8
2-0
  6
CONTINUOUS
 62
     3
 10
24222.54968049996
 20
19493.930165999998
 30
0.0
 11
24222.54968049996
 21
19523.933729000011
 31
0.0
  0
LINE
  5
4A35
  8
2-0
  6
CONTINUOUS
 62
     3
 10
24228.543662499971
 20
19493.930165999998
 30
0.0
 11
24222.54968049996
 21
19493.930165999998
 31
0.0
  0
LINE
  5
4A36
  8
2-0
  6
CONTINUOUS
 62
     3
 10
24212.45413549996
 20
19493.930165999998
 30
0.0
 11
24212.45413549996
 21
19523.933729000011
 31
0.0
  0
LINE
  5
4A37
  8
2-0
  6
CONTINUOUS
 62
     3
 10
24230.449938499962
 20
19493.930165999998
 30
0.0
 11
24212.45413549996
 21
19493.930165999998
 31
0.0
  0
LINE
  5
4A38
  8
2-0
  6
CONTINUOUS
 62
     3
 10
24230.449938499962
 20
19518.939403
 30
0.0
 11
24230.449938499962
 21
19493.930165999998
 31
0.0
  0
LINE
  5
4A39
  8
2-0
  6
CONTINUOUS
 62
     3
 10
24225.449674499949
 20
19518.939403
 30
0.0
 11
24230.449938499962
 21
19518.939403
 31
0.0
  0
LINE
  5
4A3A
  8
2-0
  6
CONTINUOUS
 62
     3
 10
24225.449674499949
 20
19511.93388700001
 30
0.0
 11
24225.449674499949
 21
19518.939403
 31
0.0
  0
LINE
  5
4A3B
  8
2-0
  6
CONTINUOUS
 62
     3
 10
24926.44868549996
 20
19511.93388700001
 30
0.0
 11
24926.44868549996
 21
19518.939403
 31
0.0
  0
LINE
  5
4A3C
  8
2-0
  6
CONTINUOUS
 62
     3
 10
24926.44868549996
 20
19518.939403
 30
0.0
 11
24931.448948499961
 21
19518.939403
 31
0.0
  0
LINE
  5
4A3D
  8
2-0
  6
CONTINUOUS
 62
     3
 10
24931.448948499961
 20
19518.939403
 30
0.0
 11
24931.448948499961
 21
19493.930165999998
 31
0.0
  0
LINE
  5
4A3E
  8
2-0
  6
CONTINUOUS
 62
     3
 10
24931.448948499961
 20
19493.930165999998
 30
0.0
 11
24913.45512549995
 21
19493.930165999998
 31
0.0
  0
LINE
  5
4A3F
  8
2-0
  6
CONTINUOUS
 62
     3
 10
24913.45512549995
 20
19493.930165999998
 30
0.0
 11
24913.45512549995
 21
19523.933729000011
 31
0.0
  0
LINE
  5
4A40
  8
2-0
  6
CONTINUOUS
 62
     3
 10
24929.546631499961
 20
19493.930165999998
 30
0.0
 11
24923.548690499971
 21
19493.930165999998
 31
0.0
  0
LINE
  5
4A41
  8
2-0
  6
CONTINUOUS
 62
     3
 10
24923.548690499971
 20
19493.930165999998
 30
0.0
 11
24923.548690499971
 21
19523.933729000011
 31
0.0
  0
LINE
  5
4A42
  8
2-0
  6
CONTINUOUS
 62
     3
 10
24960.54985149996
 20
19523.933729000011
 30
0.0
 11
24923.548690499971
 21
19523.933729000011
 31
0.0
  0
LINE
  5
4A43
  8
2-0
  6
CONTINUOUS
 62
     3
 10
24960.54985149996
 20
19493.930165999998
 30
0.0
 11
24960.54985149996
 21
19523.933729000011
 31
0.0
  0
LINE
  5
4A44
  8
2-0
  6
CONTINUOUS
 62
     3
 10
24954.54399249997
 20
19493.930165999998
 30
0.0
 11
24960.54985149996
 21
19493.930165999998
 31
0.0
  0
LINE
  5
4A45
  8
2-0
  6
CONTINUOUS
 62
     3
 10
24970.64341649997
 20
19493.930165999998
 30
0.0
 11
24970.64341649997
 21
19523.933729000011
 31
0.0
  0
LINE
  5
4A46
  8
2-0
  6
CONTINUOUS
 62
     3
 10
24952.647613499961
 20
19493.930165999998
 30
0.0
 11
24970.64341649997
 21
19493.930165999998
 31
0.0
  0
LINE
  5
4A47
  8
2-0
  6
CONTINUOUS
 62
     3
 10
24952.647613499961
 20
19518.939403
 30
0.0
 11
24952.647613499961
 21
19493.930165999998
 31
0.0
  0
LINE
  5
4A48
  8
2-0
  6
CONTINUOUS
 62
     3
 10
24957.63797949997
 20
19518.939403
 30
0.0
 11
24952.647613499961
 21
19518.939403
 31
0.0
  0
LINE
  5
4A49
  8
2-0
  6
CONTINUOUS
 62
     3
 10
24957.63797949997
 20
19511.93388700001
 30
0.0
 11
24957.63797949997
 21
19518.939403
 31
0.0
  0
LINE
  5
4A4A
  8
2-0
  6
CONTINUOUS
 62
     3
 10
24269.644406499949
 20
19523.933729000011
 30
0.0
 11
24913.45512549995
 21
19523.933729000011
 31
0.0
  0
LINE
  5
4A4B
  8
2-0
  6
CONTINUOUS
 62
     3
 10
23568.848296999971
 20
19523.933729000011
 30
0.0
 11
24212.45413549996
 21
19523.933729000011
 31
0.0
  0
LINE
  5
4A4C
  8
2-0
  6
CONTINUOUS
 62
     3
 10
26318.93290099996
 20
19523.933729000011
 30
0.0
 11
25671.647375999961
 21
19523.933729000011
 31
0.0
  0
LINE
  5
4A4D
  8
2-0
  6
CONTINUOUS
 62
     3
 10
25614.45512499996
 20
19523.933729000011
 30
0.0
 11
24970.64341649997
 21
19523.933729000011
 31
0.0
  0
LINE
  5
4A4E
  8
2-0
  6
CONTINUOUS
 62
     3
 10
23555.640948999961
 20
19511.93388700001
 30
0.0
 11
23555.640948999961
 21
19518.939403
 31
0.0
  0
LINE
  5
4A4F
  8
2-0
  6
CONTINUOUS
 62
     3
 10
23555.640948999961
 20
19518.939403
 30
0.0
 11
23550.640684999958
 21
19518.939403
 31
0.0
  0
LINE
  5
4A50
  8
2-0
  6
CONTINUOUS
 62
     3
 10
23550.640684999958
 20
19518.939403
 30
0.0
 11
23550.640684999958
 21
19493.930165999998
 31
0.0
  0
LINE
  5
4A51
  8
2-0
  6
CONTINUOUS
 62
     3
 10
23550.640684999958
 20
19493.930165999998
 30
0.0
 11
23568.642426999981
 21
19493.930165999998
 31
0.0
  0
LINE
  5
4A52
  8
2-0
  6
CONTINUOUS
 62
     3
 10
23568.642426999981
 20
19493.930165999998
 30
0.0
 11
23568.642426999981
 21
19523.933729000011
 31
0.0
  0
LINE
  5
4A53
  8
2-0
  6
CONTINUOUS
 62
     3
 10
23552.54300199998
 20
19493.930165999998
 30
0.0
 11
23558.546881999959
 21
19493.930165999998
 31
0.0
  0
LINE
  5
4A54
  8
2-0
  6
CONTINUOUS
 62
     3
 10
23558.546881999959
 20
19493.930165999998
 30
0.0
 11
23558.546881999959
 21
19523.933729000011
 31
0.0
  0
LINE
  5
4A55
  8
2-0
  6
CONTINUOUS
 62
     3
 10
23521.551659999961
 20
19523.933729000011
 30
0.0
 11
23558.546881999959
 21
19523.933729000011
 31
0.0
  0
LINE
  5
4A56
  8
2-0
  6
CONTINUOUS
 62
     3
 10
23521.551659999961
 20
19493.930165999998
 30
0.0
 11
23521.551659999961
 21
19523.933729000011
 31
0.0
  0
LINE
  5
4A57
  8
2-0
  6
CONTINUOUS
 62
     3
 10
23527.545641999968
 20
19493.930165999998
 30
0.0
 11
23521.551659999961
 21
19493.930165999998
 31
0.0
  0
LINE
  5
4A58
  8
2-0
  6
CONTINUOUS
 62
     3
 10
23511.456114999961
 20
19493.930165999998
 30
0.0
 11
23511.456114999961
 21
19523.933729000011
 31
0.0
  0
LINE
  5
4A59
  8
2-0
  6
CONTINUOUS
 62
     3
 10
23529.451917999981
 20
19493.930165999998
 30
0.0
 11
23511.456114999961
 21
19493.930165999998
 31
0.0
  0
LINE
  5
4A5A
  8
2-0
  6
CONTINUOUS
 62
     3
 10
23529.451917999981
 20
19518.939403
 30
0.0
 11
23529.451917999981
 21
19493.930165999998
 31
0.0
  0
LINE
  5
4A5B
  8
2-0
  6
CONTINUOUS
 62
     3
 10
23524.453633999961
 20
19518.939403
 30
0.0
 11
23529.451917999981
 21
19518.939403
 31
0.0
  0
LINE
  5
4A5C
  8
2-0
  6
CONTINUOUS
 62
     3
 10
23524.453633999961
 20
19511.93388700001
 30
0.0
 11
23524.453633999961
 21
19518.939403
 31
0.0
  0
LINE
  5
4A5D
  8
2-0
  6
CONTINUOUS
 62
     3
 10
23215.354512999958
 20
19523.933729000011
 30
0.0
 11
23511.456114999961
 21
19523.933729000011
 31
0.0
  0
LINE
  5
4A5E
  8
2-0
  6
CONTINUOUS
 62
     3
 10
22393.738724999981
 20
19523.933729000011
 30
0.0
 11
22356.73756299997
 21
19523.933729000011
 31
0.0
  0
LINE
  5
4A5F
  8
2-0
  6
CONTINUOUS
 62
     3
 10
22393.738724999981
 20
19493.930165999998
 30
0.0
 11
22393.738724999981
 21
19523.933729000011
 31
0.0
  0
LINE
  5
4A60
  8
2-0
  6
CONTINUOUS
 62
     3
 10
22387.738803999961
 20
19493.930165999998
 30
0.0
 11
22393.738724999981
 21
19493.930165999998
 31
0.0
  0
LINE
  5
4A61
  8
2-0
  6
CONTINUOUS
 62
     3
 10
22403.836248999982
 20
19493.930165999998
 30
0.0
 11
22403.836248999982
 21
19523.933729000011
 31
0.0
  0
LINE
  5
4A62
  8
2-0
  6
CONTINUOUS
 62
     3
 10
22385.832527999981
 20
19493.930165999998
 30
0.0
 11
22403.836248999982
 21
19493.930165999998
 31
0.0
  0
LINE
  5
4A63
  8
2-0
  6
CONTINUOUS
 62
     3
 10
22385.832527999981
 20
19518.939403
 30
0.0
 11
22385.832527999981
 21
19493.930165999998
 31
0.0
  0
LINE
  5
4A64
  8
2-0
  6
CONTINUOUS
 62
     3
 10
22390.832791999968
 20
19518.939403
 30
0.0
 11
22385.832527999981
 21
19518.939403
 31
0.0
  0
LINE
  5
4A65
  8
2-0
  6
CONTINUOUS
 62
     3
 10
22390.832791999968
 20
19511.93388700001
 30
0.0
 11
22390.832791999968
 21
19518.939403
 31
0.0
  0
LINE
  5
4A66
  8
2-0
  6
CONTINUOUS
 62
     3
 10
22359.643496999961
 20
19511.93388700001
 30
0.0
 11
22359.643496999961
 21
19518.939403
 31
0.0
  0
LINE
  5
4A67
  8
2-0
  6
CONTINUOUS
 62
     3
 10
22359.643496999961
 20
19518.939403
 30
0.0
 11
22364.643760999981
 21
19518.939403
 31
0.0
  0
LINE
  5
4A68
  8
2-0
  6
CONTINUOUS
 62
     3
 10
22364.643760999981
 20
19518.939403
 30
0.0
 11
22364.643760999981
 21
19493.930165999998
 31
0.0
  0
LINE
  5
4A69
  8
2-0
  6
CONTINUOUS
 62
     3
 10
22364.643760999981
 20
19493.930165999998
 30
0.0
 11
22346.643997999981
 21
19493.930165999998
 31
0.0
  0
LINE
  5
4A6A
  8
2-0
  6
CONTINUOUS
 62
     3
 10
22346.643997999981
 20
19493.930165999998
 30
0.0
 11
22346.643997999981
 21
19523.933729000011
 31
0.0
  0
LINE
  5
4A6B
  8
2-0
  6
CONTINUOUS
 62
     3
 10
22362.737483999968
 20
19493.930165999998
 30
0.0
 11
22356.73756299997
 21
19493.930165999998
 31
0.0
  0
LINE
  5
4A6C
  8
2-0
  6
CONTINUOUS
 62
     3
 10
22356.73756299997
 20
19493.930165999998
 30
0.0
 11
22356.73756299997
 21
19523.933729000011
 31
0.0
  0
LINE
  5
4A6D
  8
2-0
  6
CONTINUOUS
 62
     3
 10
23051.121773999981
 20
19523.933729000011
 30
0.0
 11
22403.836248999982
 21
19523.933729000011
 31
0.0
  0
LINE
  5
4A6E
  8
2-0
  6
CONTINUOUS
 62
     3
 10
22346.643997999981
 20
19523.933729000011
 30
0.0
 11
22254.628820999991
 21
19523.933729000011
 31
0.0
  0
LINE
  5
4A6F
  8
2-0
  6
CONTINUOUS
 62
     3
 10
21755.946796499989
 20
19511.93388700001
 30
0.0
 11
21755.946796499989
 21
19518.939403
 31
0.0
  0
LINE
  5
4A70
  8
2-0
  6
CONTINUOUS
 62
     3
 10
21755.946796499989
 20
19518.939403
 30
0.0
 11
21750.946532499991
 21
19518.939403
 31
0.0
  0
LINE
  5
4A71
  8
2-0
  6
CONTINUOUS
 62
     3
 10
21750.946532499991
 20
19518.939403
 30
0.0
 11
21750.946532499991
 21
19493.930165999998
 31
0.0
  0
LINE
  5
4A72
  8
2-0
  6
CONTINUOUS
 62
     3
 10
21750.946532499991
 20
19493.930165999998
 30
0.0
 11
21768.952233499978
 21
19493.930165999998
 31
0.0
  0
LINE
  5
4A73
  8
2-0
  6
CONTINUOUS
 62
     3
 10
21768.952233499978
 20
19493.930165999998
 30
0.0
 11
21768.952233499978
 21
19523.933729000011
 31
0.0
  0
LINE
  5
4A74
  8
2-0
  6
CONTINUOUS
 62
     3
 10
21752.854788499979
 20
19493.930165999998
 30
0.0
 11
21758.856688499989
 21
19493.930165999998
 31
0.0
  0
LINE
  5
4A75
  8
2-0
  6
CONTINUOUS
 62
     3
 10
21758.856688499989
 20
19493.930165999998
 30
0.0
 11
21758.856688499989
 21
19523.933729000011
 31
0.0
  0
LINE
  5
4A76
  8
2-0
  6
CONTINUOUS
 62
     3
 10
21721.857507499972
 20
19523.933729000011
 30
0.0
 11
21758.856688499989
 21
19523.933729000011
 31
0.0
  0
LINE
  5
4A77
  8
2-0
  6
CONTINUOUS
 62
     3
 10
21721.857507499972
 20
19493.930165999998
 30
0.0
 11
21721.857507499972
 21
19523.933729000011
 31
0.0
  0
LINE
  5
4A78
  8
2-0
  6
CONTINUOUS
 62
     3
 10
21727.85148949999
 20
19493.930165999998
 30
0.0
 11
21721.857507499972
 21
19493.930165999998
 31
0.0
  0
LINE
  5
4A79
  8
2-0
  6
CONTINUOUS
 62
     3
 10
21711.761962499979
 20
19493.930165999998
 30
0.0
 11
21711.761962499979
 21
19523.933729000011
 31
0.0
  0
LINE
  5
4A7A
  8
2-0
  6
CONTINUOUS
 62
     3
 10
21729.757765499991
 20
19493.930165999998
 30
0.0
 11
21711.761962499979
 21
19493.930165999998
 31
0.0
  0
LINE
  5
4A7B
  8
2-0
  6
CONTINUOUS
 62
     3
 10
21729.757765499991
 20
19518.939403
 30
0.0
 11
21729.757765499991
 21
19493.930165999998
 31
0.0
  0
LINE
  5
4A7C
  8
2-0
  6
CONTINUOUS
 62
     3
 10
21724.757501499978
 20
19518.939403
 30
0.0
 11
21729.757765499991
 21
19518.939403
 31
0.0
  0
LINE
  5
4A7D
  8
2-0
  6
CONTINUOUS
 62
     3
 10
21724.757501499978
 20
19511.93388700001
 30
0.0
 11
21724.757501499978
 21
19518.939403
 31
0.0
  0
LINE
  5
4A7E
  8
2-0
  6
CONTINUOUS
 62
     3
 10
21068.156124000001
 20
19523.933729000011
 30
0.0
 11
21711.761962499979
 21
19523.933729000011
 31
0.0
  0
LINE
  5
4A7F
  8
2-0
  6
CONTINUOUS
 62
     3
 10
21054.94877599999
 20
19511.93388700001
 30
0.0
 11
21054.94877599999
 21
19518.939403
 31
0.0
  0
LINE
  5
4A80
  8
2-0
  6
CONTINUOUS
 62
     3
 10
21054.94877599999
 20
19518.939403
 30
0.0
 11
21049.948511999992
 21
19518.939403
 31
0.0
  0
LINE
  5
4A81
  8
2-0
  6
CONTINUOUS
 62
     3
 10
21049.948511999992
 20
19518.939403
 30
0.0
 11
21049.948511999992
 21
19493.930165999998
 31
0.0
  0
LINE
  5
4A82
  8
2-0
  6
CONTINUOUS
 62
     3
 10
21049.948511999992
 20
19493.930165999998
 30
0.0
 11
21067.950253999981
 21
19493.930165999998
 31
0.0
  0
LINE
  5
4A83
  8
2-0
  6
CONTINUOUS
 62
     3
 10
21067.950253999981
 20
19493.930165999998
 30
0.0
 11
21067.950253999981
 21
19523.933729000011
 31
0.0
  0
LINE
  5
4A84
  8
2-0
  6
CONTINUOUS
 62
     3
 10
21051.850828999992
 20
19493.930165999998
 30
0.0
 11
21057.854708999988
 21
19493.930165999998
 31
0.0
  0
LINE
  5
4A85
  8
2-0
  6
CONTINUOUS
 62
     3
 10
21057.854708999988
 20
19493.930165999998
 30
0.0
 11
21057.854708999988
 21
19523.933729000011
 31
0.0
  0
LINE
  5
4A86
  8
2-0
  6
CONTINUOUS
 62
     3
 10
21020.859487000002
 20
19523.933729000011
 30
0.0
 11
21057.854708999988
 21
19523.933729000011
 31
0.0
  0
LINE
  5
4A87
  8
2-0
  6
CONTINUOUS
 62
     3
 10
21020.859487000002
 20
19493.930165999998
 30
0.0
 11
21020.859487000002
 21
19523.933729000011
 31
0.0
  0
LINE
  5
4A88
  8
2-0
  6
CONTINUOUS
 62
     3
 10
21026.853469000001
 20
19493.930165999998
 30
0.0
 11
21020.859487000002
 21
19493.930165999998
 31
0.0
  0
LINE
  5
4A89
  8
2-0
  6
CONTINUOUS
 62
     3
 10
21010.76394199999
 20
19493.930165999998
 30
0.0
 11
21010.76394199999
 21
19523.933729000011
 31
0.0
  0
LINE
  5
4A8A
  8
2-0
  6
CONTINUOUS
 62
     3
 10
21028.759744999981
 20
19493.930165999998
 30
0.0
 11
21010.76394199999
 21
19493.930165999998
 31
0.0
  0
LINE
  5
4A8B
  8
2-0
  6
CONTINUOUS
 62
     3
 10
21028.759744999981
 20
19518.939403
 30
0.0
 11
21028.759744999981
 21
19493.930165999998
 31
0.0
  0
LINE
  5
4A8C
  8
2-0
  6
CONTINUOUS
 62
     3
 10
21023.761460999998
 20
19518.939403
 30
0.0
 11
21028.759744999981
 21
19518.939403
 31
0.0
  0
LINE
  5
4A8D
  8
2-0
  6
CONTINUOUS
 62
     3
 10
21023.761460999998
 20
19511.93388700001
 30
0.0
 11
21023.761460999998
 21
19518.939403
 31
0.0
  0
LINE
  5
4A8E
  8
2-0
  6
CONTINUOUS
 62
     3
 10
20714.662339999992
 20
19523.933729000011
 30
0.0
 11
21010.76394199999
 21
19523.933729000011
 31
0.0
  0
LINE
  5
4A8F
  8
2-0
  6
CONTINUOUS
 62
     3
 10
21954.628820999991
 20
19523.933729000011
 30
0.0
 11
21768.952233499978
 21
19523.933729000011
 31
0.0
  0
LINE
  5
4A90
  8
2-0
  6
CONTINUOUS
 62
     3
 10
26443.547554999961
 20
15426.57488099998
 30
0.0
 11
26443.547554999961
 21
14782.536022999981
 31
0.0
  0
LINE
  5
4A91
  8
2-0
  6
CONTINUOUS
 62
     3
 10
26443.547554999961
 20
14725.33981299999
 30
0.0
 11
26443.547554999961
 21
14078.473450999991
 31
0.0
  0
LINE
  5
4A92
  8
SUNPOU
  6
CONTINUOUS
 10
4209.3787680000041
 20
19703.931353
 30
0.0
 11
4209.3787680000041
 21
20500.898620778451
 31
0.0
  0
LINE
  5
4A93
  8
SUNPOU
  6
CONTINUOUS
 10
4209.3787680000032
 20
13803.44012899999
 30
0.0
 11
4209.3787680000032
 21
13128.01401318961
 31
0.0
  0
LINE
  5
4A96
  8
WAKUSEN-01
 10
868.00000000000193
 20
22484.000000000011
 30
0.0
 11
32764.000000000011
 21
22484.000000000011
 31
0.0
  0
LINE
  5
4A99
  8
WAKUSEN-01
 10
20560.0
 20
2484.0
 30
0.0
 11
32764.0
 21
2484.0
 31
0.0
  0
LINE
  5
4A9A
  8
WAKUSEN-02
 10
20560.0
 20
1655.9999999999991
 30
0.0
 11
26868.0
 21
1655.9999999999991
 31
0.0
  0
TEXT
  5
4A9B
  8
WAKUMOJI-01
 10
20670.26025996275
 20
2125.9030093393221
 30
0.0
 40
240.0
  1
名　称
  7
WAKUMOJI
  0
TEXT
  5
4A9C
  8
WAKUMOJI-01
 10
20656.505485091919
 20
1319.12897497982
 30
0.0
 40
240.0
  1
機種名
  7
WAKUMOJI
  0
LINE
  5
4A9F
  8
YODOROGO
 10
29977.604341291921
 20
1995.7494964292871
 30
0.0
 11
29829.604341291921
 21
1995.7494964292871
 31
0.0
1001
AUTOCAD_POSTSCRIPT_FIGURE
1002
{
1000
PSFILL
1000
Grayscale
1000
Grayscale
1070
    25
1002
}
  0
LINE
  5
4AA0
  8
YODOROGO
 10
29829.604341291921
 20
1947.749496429288
 30
0.0
 11
29977.604341291921
 21
1947.749496429288
 31
0.0
1001
AUTOCAD_POSTSCRIPT_FIGURE
1002
{
1000
PSFILL
1000
Grayscale
1000
Grayscale
1070
    25
1002
}
  0
LINE
  5
4AA1
  8
YODOROGO
 10
29977.604341291921
 20
1907.7494964292871
 30
0.0
 11
29829.604341291921
 21
1907.7494964292871
 31
0.0
1001
AUTOCAD_POSTSCRIPT_FIGURE
1002
{
1000
PSFILL
1000
Grayscale
1000
Grayscale
1070
    25
1002
}
  0
LINE
  5
4AA2
  8
YODOROGO
 10
29829.604341291921
 20
1859.749496429288
 30
0.0
 11
29977.604341291921
 21
1859.749496429288
 31
0.0
1001
AUTOCAD_POSTSCRIPT_FIGURE
1002
{
1000
PSFILL
1000
Grayscale
1000
Grayscale
1070
    25
1002
}
  0
LINE
  5
4AA3
  8
YODOROGO
 10
29977.604341291921
 20
1819.7494964292871
 30
0.0
 11
29829.604341291921
 21
1819.7494964292871
 31
0.0
1001
AUTOCAD_POSTSCRIPT_FIGURE
1002
{
1000
PSFILL
1000
Grayscale
1000
Grayscale
1070
    25
1002
}
  0
LINE
  5
4AA4
  8
YODOROGO
 10
29921.60434129191
 20
1707.749496429288
 30
0.0
 11
29977.604341291921
 21
1707.749496429288
 31
0.0
1001
AUTOCAD_POSTSCRIPT_FIGURE
1002
{
1000
PSFILL
1000
Grayscale
1000
Grayscale
1070
    25
1002
}
  0
LINE
  5
4AA5
  8
YODOROGO
 10
29737.604341291921
 20
1427.749496429288
 30
0.0
 11
29937.604341291932
 21
1481.339334915509
 31
0.0
  0
LINE
  5
4AA6
  8
YODOROGO
 10
29949.60434129191
 20
1707.749496429288
 30
0.0
 11
29885.604341291921
 21
1707.749496429288
 31
0.0
  0
ARC
  5
4AA7
  8
YODOROGO
 10
30254.34774982791
 20
1807.864609233261
 30
0.0
 40
381.88686420564721
 50
213.9611167766783
 51
264.47872074317792
  0
ARC
  5
4AA8
  8
YODOROGO
 10
30254.347749827921
 20
1807.864609233302
 30
0.0
 40
381.8868642056816
 50
208.14114420486601
 51
212.9210361185994
  0
LINE
  5
4AA9
  8
YODOROGO
 10
29771.409872985321
 20
1556.807661346234
 30
0.0
 11
29933.78413250855
 21
1600.3157130570869
 31
0.0
  0
LINE
  5
4AAA
  8
YODOROGO
 10
29737.604341291921
 20
1427.749496429288
 30
0.0
 11
29937.604341291932
 21
1481.339334915509
 31
0.0
  0
LINE
  5
4AAB
  8
YODOROGO
 10
29949.60434129191
 20
1707.749496429288
 30
0.0
 11
29885.604341291921
 21
1707.749496429288
 31
0.0
  0
ARC
  5
4AAC
  8
YODOROGO
 10
30254.34774982791
 20
1807.864609233261
 30
0.0
 40
381.88686420564721
 50
213.9611167766783
 51
264.47872074317792
  0
LINE
  5
4AAD
  8
YODOROGO
 10
28793.60434129191
 20
1819.7494964292871
 30
0.0
 11
28433.60434129191
 21
1819.7494964292871
 31
0.0
  0
LINE
  5
4AAE
  8
YODOROGO
 10
28513.60434129191
 20
1427.749496429288
 30
0.0
 11
28793.60434129191
 21
1427.749496429288
 31
0.0
  0
LINE
  5
4AAF
  8
YODOROGO
 10
28729.604341291921
 20
1923.7494964292871
 30
0.0
 11
28497.60434129191
 21
1923.7494964292871
 31
0.0
  0
LINE
  5
4AB0
  8
YODOROGO
 10
28585.604341291921
 20
2027.749496429288
 30
0.0
 11
28657.604341291921
 21
2027.749496429288
 31
0.0
  0
LINE
  5
4AB1
  8
YODOROGO
 10
28433.60434129191
 20
1707.749496429288
 30
0.0
 11
28433.60434129191
 21
1507.749496429288
 31
0.0
  0
LINE
  5
4AB2
  8
YODOROGO
 10
28497.60434129191
 20
1563.7494964292871
 30
0.0
 11
28497.60434129191
 21
1707.749496429288
 31
0.0
  0
LINE
  5
4AB3
  8
YODOROGO
 10
28585.604341291921
 20
1747.74949642929
 30
0.0
 11
28585.604341291921
 21
1547.749496429288
 31
0.0
  0
LINE
  5
4AB4
  8
YODOROGO
 10
27857.604341291921
 20
1683.749496429288
 30
0.0
 11
27777.604341291921
 21
1619.9724140445701
 31
0.0
  0
LINE
  5
4AB5
  8
YODOROGO
 10
27937.604341291921
 20
1619.9724140445701
 30
0.0
 11
27857.604341291921
 21
1683.749496429288
 31
0.0
  0
LINE
  5
4AB6
  8
YODOROGO
 10
27857.604341291921
 20
1707.749496429288
 30
0.0
 11
27937.604341291921
 21
1643.9724140445701
 31
0.0
  0
LINE
  5
4AB7
  8
YODOROGO
 10
27777.604341291921
 20
1643.9724140445701
 30
0.0
 11
27857.604341291921
 21
1707.749496429288
 31
0.0
  0
LINE
  5
4AB8
  8
YODOROGO
 10
28040.913204016881
 20
1659.749496429288
 30
0.0
 11
28040.913204016881
 21
1683.7494964292871
 31
0.0
  0
LINE
  5
4AB9
  8
YODOROGO
 10
27977.604341291921
 20
1683.7494964292871
 30
0.0
 11
27977.604341291921
 21
1667.749496429285
 31
0.0
  0
LINE
  5
4ABA
  8
YODOROGO
 10
28098.135520230931
 20
1707.749496429288
 30
0.0
 11
28098.135520230931
 21
1655.5036372746561
 31
0.0
1001
AUTOCAD_POSTSCRIPT_FIGURE
1002
{
1000
PSFILL
1000
Grayscale
1000
Grayscale
1070
   100
1002
}
  0
LINE
  5
4ABB
  8
YODOROGO
 10
28082.135520230921
 20
1655.5036372746561
 30
0.0
 11
28082.135520230921
 21
1707.749496429288
 31
0.0
1001
AUTOCAD_POSTSCRIPT_FIGURE
1002
{
1000
PSFILL
1000
Grayscale
1000
Grayscale
1070
   100
1002
}
  0
LINE
  5
4ABC
  8
YODOROGO
 10
27809.604341291921
 20
1608.771904043258
 30
0.0
 11
27809.604341291921
 21
1632.771904043258
 31
0.0
  0
LINE
  5
4ABD
  8
YODOROGO
 10
27905.604341291921
 20
1608.771904043258
 30
0.0
 11
27809.604341291921
 21
1608.771904043258
 31
0.0
  0
LINE
  5
4ABE
  8
YODOROGO
 10
27905.604341291921
 20
1632.771904043258
 30
0.0
 11
27905.604341291921
 21
1608.771904043258
 31
0.0
  0
LINE
  5
4ABF
  8
YODOROGO
 10
27809.604341291921
 20
1632.771904043258
 30
0.0
 11
27905.604341291921
 21
1632.771904043258
 31
0.0
  0
LINE
  5
4AC0
  8
YODOROGO
 10
27824.509588915738
 20
1568.502857370474
 30
0.0
 11
27785.604341291921
 21
1475.7494964292871
 31
0.0
1001
AUTOCAD_POSTSCRIPT_FIGURE
1002
{
1000
PSFILL
1000
Grayscale
1000
Grayscale
1070
   100
1002
}
  0
LINE
  5
4AC1
  8
YODOROGO
 10
27777.604341291921
 20
1568.502857370474
 30
0.0
 11
27824.509588915738
 21
1568.502857370474
 31
0.0
1001
AUTOCAD_POSTSCRIPT_FIGURE
1002
{
1000
PSFILL
1000
Grayscale
1000
Grayscale
1070
   100
1002
}
  0
LINE
  5
4AC2
  8
YODOROGO
 10
27777.604341291921
 20
1588.5028573704751
 30
0.0
 11
27777.604341291921
 21
1568.502857370474
 31
0.0
1001
AUTOCAD_POSTSCRIPT_FIGURE
1002
{
1000
PSFILL
1000
Grayscale
1000
Grayscale
1070
   100
1002
}
  0
LINE
  5
4AC3
  8
YODOROGO
 10
27937.604341291921
 20
1588.5028573704751
 30
0.0
 11
27777.604341291921
 21
1588.5028573704751
 31
0.0
1001
AUTOCAD_POSTSCRIPT_FIGURE
1002
{
1000
PSFILL
1000
Grayscale
1000
Grayscale
1070
   100
1002
}
  0
LINE
  5
4AC4
  8
YODOROGO
 10
27937.604341291921
 20
1568.502857370474
 30
0.0
 11
27937.604341291921
 21
1588.5028573704751
 31
0.0
1001
AUTOCAD_POSTSCRIPT_FIGURE
1002
{
1000
PSFILL
1000
Grayscale
1000
Grayscale
1070
   100
1002
}
  0
LINE
  5
4AC5
  8
YODOROGO
 10
27844.509588915738
 20
1568.502857370474
 30
0.0
 11
27937.604341291921
 21
1568.502857370474
 31
0.0
1001
AUTOCAD_POSTSCRIPT_FIGURE
1002
{
1000
PSFILL
1000
Grayscale
1000
Grayscale
1070
   100
1002
}
  0
LINE
  5
4AC6
  8
YODOROGO
 10
27815.546718284771
 20
1495.7494964292871
 30
0.0
 11
27844.509588915738
 21
1568.502857370474
 31
0.0
1001
AUTOCAD_POSTSCRIPT_FIGURE
1002
{
1000
PSFILL
1000
Grayscale
1000
Grayscale
1070
   100
1002
}
  0
LINE
  5
4AC7
  8
YODOROGO
 10
27902.054790808648
 20
1495.7494964292871
 30
0.0
 11
27815.546718284771
 21
1495.7494964292871
 31
0.0
1001
AUTOCAD_POSTSCRIPT_FIGURE
1002
{
1000
PSFILL
1000
Grayscale
1000
Grayscale
1070
   100
1002
}
  0
LINE
  5
4AC8
  8
YODOROGO
 10
27885.065004790951
 20
1536.2338106976929
 30
0.0
 11
27902.054790808648
 21
1495.7494964292871
 31
0.0
1001
AUTOCAD_POSTSCRIPT_FIGURE
1002
{
1000
PSFILL
1000
Grayscale
1000
Grayscale
1070
   100
1002
}
  0
LINE
  5
4AC9
  8
YODOROGO
 10
27901.065004790951
 20
1536.2338106976929
 30
0.0
 11
27885.065004790951
 21
1536.2338106976929
 31
0.0
1001
AUTOCAD_POSTSCRIPT_FIGURE
1002
{
1000
PSFILL
1000
Grayscale
1000
Grayscale
1070
   100
1002
}
  0
LINE
  5
4ACA
  8
YODOROGO
 10
27929.604341291921
 20
1475.7494964292871
 30
0.0
 11
27901.065004790951
 21
1536.2338106976929
 31
0.0
1001
AUTOCAD_POSTSCRIPT_FIGURE
1002
{
1000
PSFILL
1000
Grayscale
1000
Grayscale
1070
   100
1002
}
  0
LINE
  5
4ACB
  8
YODOROGO
 10
27785.604341291921
 20
1475.7494964292871
 30
0.0
 11
27929.604341291921
 21
1475.7494964292871
 31
0.0
1001
AUTOCAD_POSTSCRIPT_FIGURE
1002
{
1000
PSFILL
1000
Grayscale
1000
Grayscale
1070
   100
1002
}
  0
LINE
  5
4ACC
  8
YODOROGO
 10
27777.604341291921
 20
1619.9724140445701
 30
0.0
 11
27777.604341291921
 21
1643.9724140445701
 31
0.0
  0
LINE
  5
4ACD
  8
YODOROGO
 10
27937.604341291921
 20
1643.9724140445701
 30
0.0
 11
27937.604341291921
 21
1619.9724140445701
 31
0.0
  0
ARC
  5
4ACE
  8
YODOROGO
 10
28225.940442146959
 20
1600.877765325326
 30
0.0
 40
175.9999999999998
 50
280.3644312771313
 51
3.5414836592180561
  0
ARC
  5
4ACF
  8
YODOROGO
 10
28235.756030759301
 20
1633.5978069619041
 30
0.0
 40
111.9999999999982
 50
281.24905825041549
 51
348.75094174958321
  0
LINE
  5
4AD0
  8
YODOROGO
 10
28257.604341291921
 20
1523.7494964292871
 30
0.0
 11
28257.604341291921
 21
1427.749496429288
 31
0.0
  0
LINE
  5
4AD1
  8
YODOROGO
 10
28020.088903736909
 20
1610.650565061914
 30
0.0
 11
28040.913204016881
 21
1659.749496429288
 31
0.0
  0
LINE
  5
4AD2
  8
YODOROGO
 10
28041.604341291921
 20
1583.120489948401
 30
0.0
 11
28020.088903736909
 21
1610.650565061914
 31
0.0
  0
LINE
  5
4AD3
  8
YODOROGO
 10
28041.604341291921
 20
1563.120489948398
 30
0.0
 11
28041.604341291921
 21
1583.120489948401
 31
0.0
  0
LINE
  5
4AD4
  8
YODOROGO
 10
28017.604341291921
 20
1585.2370637495301
 30
0.0
 11
28041.604341291921
 21
1563.120489948398
 31
0.0
  0
LINE
  5
4AD5
  8
YODOROGO
 10
28017.604341291921
 20
1475.7494964292871
 30
0.0
 11
28017.604341291921
 21
1585.2370637495301
 31
0.0
  0
LINE
  5
4AD6
  8
YODOROGO
 10
28001.604341291921
 20
1475.7494964292871
 30
0.0
 11
28017.604341291921
 21
1475.7494964292871
 31
0.0
  0
LINE
  5
4AD7
  8
YODOROGO
 10
28001.604341291921
 20
1580.0053496897469
 30
0.0
 11
28001.604341291921
 21
1475.7494964292871
 31
0.0
  0
LINE
  5
4AD8
  8
YODOROGO
 10
27977.604341291921
 20
1532.7680790334291
 30
0.0
 11
28001.604341291921
 21
1580.0053496897469
 31
0.0
  0
LINE
  5
4AD9
  8
YODOROGO
 10
27977.604341291921
 20
1556.76807903343
 30
0.0
 11
27977.604341291921
 21
1532.7680790334291
 31
0.0
  0
LINE
  5
4ADA
  8
YODOROGO
 10
28025.828774291342
 20
1667.749496429285
 30
0.0
 11
27977.604341291921
 21
1556.76807903343
 31
0.0
  0
LINE
  5
4ADB
  8
YODOROGO
 10
27977.604341291921
 20
1667.749496429285
 30
0.0
 11
28025.828774291342
 21
1667.749496429285
 31
0.0
  0
LINE
  5
4ADC
  8
YODOROGO
 10
28050.135520230899
 20
1655.5036372746561
 30
0.0
 11
28082.135520230921
 21
1655.5036372746561
 31
0.0
1001
AUTOCAD_POSTSCRIPT_FIGURE
1002
{
1000
PSFILL
1000
Grayscale
1000
Grayscale
1070
   100
1002
}
  0
LINE
  5
4ADD
  8
YODOROGO
 10
28050.135520230899
 20
1631.5036372746561
 30
0.0
 11
28050.135520230899
 21
1655.5036372746561
 31
0.0
1001
AUTOCAD_POSTSCRIPT_FIGURE
1002
{
1000
PSFILL
1000
Grayscale
1000
Grayscale
1070
   100
1002
}
  0
LINE
  5
4ADE
  8
YODOROGO
 10
28082.135520230921
 20
1631.5036372746561
 30
0.0
 11
28050.135520230899
 21
1631.5036372746561
 31
0.0
1001
AUTOCAD_POSTSCRIPT_FIGURE
1002
{
1000
PSFILL
1000
Grayscale
1000
Grayscale
1070
   100
1002
}
  0
LINE
  5
4ADF
  8
YODOROGO
 10
28082.135520230921
 20
1499.749496429288
 30
0.0
 11
28082.135520230921
 21
1631.5036372746561
 31
0.0
1001
AUTOCAD_POSTSCRIPT_FIGURE
1002
{
1000
PSFILL
1000
Grayscale
1000
Grayscale
1070
   100
1002
}
  0
LINE
  5
4AE0
  8
YODOROGO
 10
28050.13552023091
 20
1499.749496429288
 30
0.0
 11
28082.135520230921
 21
1499.749496429288
 31
0.0
1001
AUTOCAD_POSTSCRIPT_FIGURE
1002
{
1000
PSFILL
1000
Grayscale
1000
Grayscale
1070
   100
1002
}
  0
LINE
  5
4AE1
  8
YODOROGO
 10
28050.13552023091
 20
1475.7494964292871
 30
0.0
 11
28050.13552023091
 21
1499.749496429288
 31
0.0
1001
AUTOCAD_POSTSCRIPT_FIGURE
1002
{
1000
PSFILL
1000
Grayscale
1000
Grayscale
1070
   100
1002
}
  0
LINE
  5
4AE2
  8
YODOROGO
 10
28137.604341291921
 20
1475.7494964292871
 30
0.0
 11
28050.13552023091
 21
1475.7494964292871
 31
0.0
1001
AUTOCAD_POSTSCRIPT_FIGURE
1002
{
1000
PSFILL
1000
Grayscale
1000
Grayscale
1070
   100
1002
}
  0
LINE
  5
4AE3
  8
YODOROGO
 10
28137.604341291921
 20
1499.749496429288
 30
0.0
 11
28137.604341291921
 21
1475.7494964292871
 31
0.0
1001
AUTOCAD_POSTSCRIPT_FIGURE
1002
{
1000
PSFILL
1000
Grayscale
1000
Grayscale
1070
   100
1002
}
  0
LINE
  5
4AE4
  8
YODOROGO
 10
28098.135520230931
 20
1499.749496429288
 30
0.0
 11
28137.604341291921
 21
1499.749496429288
 31
0.0
1001
AUTOCAD_POSTSCRIPT_FIGURE
1002
{
1000
PSFILL
1000
Grayscale
1000
Grayscale
1070
   100
1002
}
  0
LINE
  5
4AE5
  8
YODOROGO
 10
28098.135520230931
 20
1631.5036372746561
 30
0.0
 11
28098.135520230931
 21
1499.749496429288
 31
0.0
1001
AUTOCAD_POSTSCRIPT_FIGURE
1002
{
1000
PSFILL
1000
Grayscale
1000
Grayscale
1070
   100
1002
}
  0
LINE
  5
4AE6
  8
YODOROGO
 10
28137.604341291921
 20
1631.5036372746561
 30
0.0
 11
28098.135520230931
 21
1631.5036372746561
 31
0.0
1001
AUTOCAD_POSTSCRIPT_FIGURE
1002
{
1000
PSFILL
1000
Grayscale
1000
Grayscale
1070
   100
1002
}
  0
LINE
  5
4AE7
  8
YODOROGO
 10
28137.604341291921
 20
1655.5036372746561
 30
0.0
 11
28137.604341291921
 21
1631.5036372746561
 31
0.0
1001
AUTOCAD_POSTSCRIPT_FIGURE
1002
{
1000
PSFILL
1000
Grayscale
1000
Grayscale
1070
   100
1002
}
  0
LINE
  5
4AE8
  8
YODOROGO
 10
28098.135520230931
 20
1655.5036372746561
 30
0.0
 11
28137.604341291921
 21
1655.5036372746561
 31
0.0
1001
AUTOCAD_POSTSCRIPT_FIGURE
1002
{
1000
PSFILL
1000
Grayscale
1000
Grayscale
1070
   100
1002
}
  0
LINE
  5
4AE9
  8
YODOROGO
 10
28401.60434129191
 20
1667.749496429288
 30
0.0
 11
28345.604341291921
 21
1667.749496429288
 31
0.0
  0
LINE
  5
4AEA
  8
YODOROGO
 10
28401.60434129191
 20
1611.749496429288
 30
0.0
 11
28401.60434129191
 21
1667.749496429288
 31
0.0
  0
LINE
  5
4AEB
  8
YODOROGO
 10
28345.604341291921
 20
1667.749496429288
 30
0.0
 11
28345.604341291921
 21
1611.749496429288
 31
0.0
  0
ARC
  5
4AEC
  8
YODOROGO
 10
28513.60434129191
 20
1507.749496429288
 30
0.0
 40
80.0
 50
180.0
 51
270.0
  0
ARC
  5
4AED
  8
YODOROGO
 10
28537.604341291921
 20
1563.7494964292871
 30
0.0
 40
40.0
 50
180.0
 51
270.0
  0
LINE
  5
4AEE
  8
YODOROGO
 10
28561.604341291932
 20
1523.7494964292871
 30
0.0
 11
28537.604341291921
 21
1523.7494964292871
 31
0.0
  0
ARC
  5
4AEF
  8
YODOROGO
 10
28561.604341291932
 20
1547.749496429285
 30
0.0
 40
23.999999999996358
 50
270.0
 51
0.0000000000054281
  0
LINE
  5
4AF0
  8
YODOROGO
 10
27801.604341291921
 20
1890.786580793706
 30
0.0
 11
27777.604341291921
 21
1843.776747951672
 31
0.0
1001
AUTOCAD_POSTSCRIPT_FIGURE
1002
{
1000
PSFILL
1000
Grayscale
1000
Grayscale
1070
   100
1002
}
  0
LINE
  5
4AF1
  8
YODOROGO
 10
27801.604341291921
 20
1747.749496429285
 30
0.0
 11
27801.604341291921
 21
1890.786580793706
 31
0.0
1001
AUTOCAD_POSTSCRIPT_FIGURE
1002
{
1000
PSFILL
1000
Grayscale
1000
Grayscale
1070
   100
1002
}
  0
LINE
  5
4AF2
  8
YODOROGO
 10
27817.604341291921
 20
1747.749496429285
 30
0.0
 11
27801.604341291921
 21
1747.749496429285
 31
0.0
1001
AUTOCAD_POSTSCRIPT_FIGURE
1002
{
1000
PSFILL
1000
Grayscale
1000
Grayscale
1070
   100
1002
}
  0
LINE
  5
4AF3
  8
YODOROGO
 10
27817.604341291921
 20
1893.7713320852661
 30
0.0
 11
27817.604341291921
 21
1747.749496429285
 31
0.0
1001
AUTOCAD_POSTSCRIPT_FIGURE
1002
{
1000
PSFILL
1000
Grayscale
1000
Grayscale
1070
   100
1002
}
  0
LINE
  5
4AF4
  8
YODOROGO
 10
27841.604341291921
 20
1867.6547582841361
 30
0.0
 11
27817.604341291921
 21
1893.7713320852661
 31
0.0
1001
AUTOCAD_POSTSCRIPT_FIGURE
1002
{
1000
PSFILL
1000
Grayscale
1000
Grayscale
1070
   100
1002
}
  0
LINE
  5
4AF5
  8
YODOROGO
 10
27841.604341291921
 20
1883.6547582841361
 30
0.0
 11
27841.604341291921
 21
1867.6547582841361
 31
0.0
1001
AUTOCAD_POSTSCRIPT_FIGURE
1002
{
1000
PSFILL
1000
Grayscale
1000
Grayscale
1070
   100
1002
}
  0
LINE
  5
4AF6
  8
YODOROGO
 10
27817.604341291921
 20
1917.7713320852649
 30
0.0
 11
27841.604341291921
 21
1883.6547582841361
 31
0.0
1001
AUTOCAD_POSTSCRIPT_FIGURE
1002
{
1000
PSFILL
1000
Grayscale
1000
Grayscale
1070
   100
1002
}
  0
LINE
  5
4AF7
  8
YODOROGO
 10
27817.604341291921
 20
1939.749496429288
 30
0.0
 11
27817.604341291921
 21
1917.7713320852649
 31
0.0
1001
AUTOCAD_POSTSCRIPT_FIGURE
1002
{
1000
PSFILL
1000
Grayscale
1000
Grayscale
1070
   100
1002
}
  0
LINE
  5
4AF8
  8
YODOROGO
 10
27889.604341291921
 20
1939.749496429288
 30
0.0
 11
27817.604341291921
 21
1939.749496429288
 31
0.0
1001
AUTOCAD_POSTSCRIPT_FIGURE
1002
{
1000
PSFILL
1000
Grayscale
1000
Grayscale
1070
   100
1002
}
  0
LINE
  5
4AF9
  8
YODOROGO
 10
27889.604341291921
 20
1900.5683489363
 30
0.0
 11
27889.604341291921
 21
1939.749496429288
 31
0.0
1001
AUTOCAD_POSTSCRIPT_FIGURE
1002
{
1000
PSFILL
1000
Grayscale
1000
Grayscale
1070
   100
1002
}
  0
LINE
  5
4AFA
  8
YODOROGO
 10
27857.604341291921
 20
1900.5683489363
 30
0.0
 11
27889.604341291921
 21
1900.5683489363
 31
0.0
1001
AUTOCAD_POSTSCRIPT_FIGURE
1002
{
1000
PSFILL
1000
Grayscale
1000
Grayscale
1070
   100
1002
}
  0
LINE
  5
4AFB
  8
YODOROGO
 10
27857.604341291921
 20
1884.568348936298
 30
0.0
 11
27857.604341291921
 21
1900.5683489363
 31
0.0
1001
AUTOCAD_POSTSCRIPT_FIGURE
1002
{
1000
PSFILL
1000
Grayscale
1000
Grayscale
1070
   100
1002
}
  0
LINE
  5
4AFC
  8
YODOROGO
 10
27889.604341291921
 20
1884.568348936298
 30
0.0
 11
27857.604341291921
 21
1884.568348936298
 31
0.0
1001
AUTOCAD_POSTSCRIPT_FIGURE
1002
{
1000
PSFILL
1000
Grayscale
1000
Grayscale
1070
   100
1002
}
  0
LINE
  5
4AFD
  8
YODOROGO
 10
27889.604341291921
 20
1879.6191779644371
 30
0.0
 11
27889.604341291921
 21
1884.568348936298
 31
0.0
1001
AUTOCAD_POSTSCRIPT_FIGURE
1002
{
1000
PSFILL
1000
Grayscale
1000
Grayscale
1070
   100
1002
}
  0
LINE
  5
4AFE
  8
YODOROGO
 10
27849.604341291921
 20
1812.974981161417
 30
0.0
 11
27889.604341291921
 21
1879.6191779644371
 31
0.0
1001
AUTOCAD_POSTSCRIPT_FIGURE
1002
{
1000
PSFILL
1000
Grayscale
1000
Grayscale
1070
   100
1002
}
  0
LINE
  5
4AFF
  8
YODOROGO
 10
27849.604341291921
 20
1796.9749811614161
 30
0.0
 11
27849.604341291921
 21
1812.974981161417
 31
0.0
1001
AUTOCAD_POSTSCRIPT_FIGURE
1002
{
1000
PSFILL
1000
Grayscale
1000
Grayscale
1070
   100
1002
}
  0
LINE
  5
4B00
  8
YODOROGO
 10
27889.604341291921
 20
1847.619177964435
 30
0.0
 11
27849.604341291921
 21
1796.9749811614161
 31
0.0
1001
AUTOCAD_POSTSCRIPT_FIGURE
1002
{
1000
PSFILL
1000
Grayscale
1000
Grayscale
1070
   100
1002
}
  0
LINE
  5
4B01
  8
YODOROGO
 10
27889.604341291921
 20
1747.749496429285
 30
0.0
 11
27889.604341291921
 21
1847.619177964435
 31
0.0
1001
AUTOCAD_POSTSCRIPT_FIGURE
1002
{
1000
PSFILL
1000
Grayscale
1000
Grayscale
1070
   100
1002
}
  0
LINE
  5
4B02
  8
YODOROGO
 10
27905.604341291921
 20
1747.749496429285
 30
0.0
 11
27889.604341291921
 21
1747.749496429285
 31
0.0
1001
AUTOCAD_POSTSCRIPT_FIGURE
1002
{
1000
PSFILL
1000
Grayscale
1000
Grayscale
1070
   100
1002
}
  0
LINE
  5
4B03
  8
YODOROGO
 10
27905.604341291921
 20
1849.409012158806
 30
0.0
 11
27905.604341291921
 21
1747.749496429285
 31
0.0
1001
AUTOCAD_POSTSCRIPT_FIGURE
1002
{
1000
PSFILL
1000
Grayscale
1000
Grayscale
1070
   100
1002
}
  0
LINE
  5
4B04
  8
YODOROGO
 10
27937.604341291921
 20
1796.9749811614161
 30
0.0
 11
27905.604341291921
 21
1849.409012158806
 31
0.0
1001
AUTOCAD_POSTSCRIPT_FIGURE
1002
{
1000
PSFILL
1000
Grayscale
1000
Grayscale
1070
   100
1002
}
  0
LINE
  5
4B05
  8
YODOROGO
 10
27937.604341291921
 20
1812.974981161417
 30
0.0
 11
27937.604341291921
 21
1796.9749811614161
 31
0.0
1001
AUTOCAD_POSTSCRIPT_FIGURE
1002
{
1000
PSFILL
1000
Grayscale
1000
Grayscale
1070
   100
1002
}
  0
LINE
  5
4B06
  8
YODOROGO
 10
27905.604341291921
 20
1881.4090121588081
 30
0.0
 11
27937.604341291921
 21
1812.974981161417
 31
0.0
1001
AUTOCAD_POSTSCRIPT_FIGURE
1002
{
1000
PSFILL
1000
Grayscale
1000
Grayscale
1070
   100
1002
}
  0
LINE
  5
4B07
  8
YODOROGO
 10
27905.604341291921
 20
1884.5683489363
 30
0.0
 11
27905.604341291921
 21
1881.4090121588081
 31
0.0
1001
AUTOCAD_POSTSCRIPT_FIGURE
1002
{
1000
PSFILL
1000
Grayscale
1000
Grayscale
1070
   100
1002
}
  0
LINE
  5
4B08
  8
YODOROGO
 10
27937.604341291921
 20
1884.568348936298
 30
0.0
 11
27905.604341291921
 21
1884.5683489363
 31
0.0
1001
AUTOCAD_POSTSCRIPT_FIGURE
1002
{
1000
PSFILL
1000
Grayscale
1000
Grayscale
1070
   100
1002
}
  0
LINE
  5
4B09
  8
YODOROGO
 10
27937.604341291921
 20
1900.5683489363
 30
0.0
 11
27937.604341291921
 21
1884.568348936298
 31
0.0
1001
AUTOCAD_POSTSCRIPT_FIGURE
1002
{
1000
PSFILL
1000
Grayscale
1000
Grayscale
1070
   100
1002
}
  0
LINE
  5
4B0A
  8
YODOROGO
 10
27905.604341291921
 20
1900.5683489363
 30
0.0
 11
27937.604341291921
 21
1900.5683489363
 31
0.0
1001
AUTOCAD_POSTSCRIPT_FIGURE
1002
{
1000
PSFILL
1000
Grayscale
1000
Grayscale
1070
   100
1002
}
  0
LINE
  5
4B0B
  8
YODOROGO
 10
27905.604341291921
 20
1939.749496429288
 30
0.0
 11
27905.604341291921
 21
1900.5683489363
 31
0.0
1001
AUTOCAD_POSTSCRIPT_FIGURE
1002
{
1000
PSFILL
1000
Grayscale
1000
Grayscale
1070
   100
1002
}
  0
LINE
  5
4B0C
  8
YODOROGO
 10
27937.604341291921
 20
1939.749496429288
 30
0.0
 11
27905.604341291921
 21
1939.749496429288
 31
0.0
1001
AUTOCAD_POSTSCRIPT_FIGURE
1002
{
1000
PSFILL
1000
Grayscale
1000
Grayscale
1070
   100
1002
}
  0
LINE
  5
4B0D
  8
YODOROGO
 10
27937.604341291921
 20
1955.7494964292871
 30
0.0
 11
27937.604341291921
 21
1939.749496429288
 31
0.0
1001
AUTOCAD_POSTSCRIPT_FIGURE
1002
{
1000
PSFILL
1000
Grayscale
1000
Grayscale
1070
   100
1002
}
  0
LINE
  5
4B0E
  8
YODOROGO
 10
27905.604341291921
 20
1955.7494964292871
 30
0.0
 11
27937.604341291921
 21
1955.7494964292871
 31
0.0
1001
AUTOCAD_POSTSCRIPT_FIGURE
1002
{
1000
PSFILL
1000
Grayscale
1000
Grayscale
1070
   100
1002
}
  0
LINE
  5
4B0F
  8
YODOROGO
 10
27905.604341291921
 20
1979.749496429288
 30
0.0
 11
27905.604341291921
 21
1955.7494964292871
 31
0.0
1001
AUTOCAD_POSTSCRIPT_FIGURE
1002
{
1000
PSFILL
1000
Grayscale
1000
Grayscale
1070
   100
1002
}
  0
LINE
  5
4B10
  8
YODOROGO
 10
27889.604341291921
 20
1979.749496429288
 30
0.0
 11
27905.604341291921
 21
1979.749496429288
 31
0.0
1001
AUTOCAD_POSTSCRIPT_FIGURE
1002
{
1000
PSFILL
1000
Grayscale
1000
Grayscale
1070
   100
1002
}
  0
LINE
  5
4B11
  8
YODOROGO
 10
27889.604341291921
 20
1955.7494964292871
 30
0.0
 11
27889.604341291921
 21
1979.749496429288
 31
0.0
1001
AUTOCAD_POSTSCRIPT_FIGURE
1002
{
1000
PSFILL
1000
Grayscale
1000
Grayscale
1070
   100
1002
}
  0
LINE
  5
4B12
  8
YODOROGO
 10
27865.604341291921
 20
1955.7494964292871
 30
0.0
 11
27889.604341291921
 21
1955.7494964292871
 31
0.0
1001
AUTOCAD_POSTSCRIPT_FIGURE
1002
{
1000
PSFILL
1000
Grayscale
1000
Grayscale
1070
   100
1002
}
  0
LINE
  5
4B13
  8
YODOROGO
 10
27865.604341291921
 20
1979.749496429288
 30
0.0
 11
27865.604341291921
 21
1955.7494964292871
 31
0.0
1001
AUTOCAD_POSTSCRIPT_FIGURE
1002
{
1000
PSFILL
1000
Grayscale
1000
Grayscale
1070
   100
1002
}
  0
LINE
  5
4B14
  8
YODOROGO
 10
27849.604341291921
 20
1979.749496429288
 30
0.0
 11
27865.604341291921
 21
1979.749496429288
 31
0.0
1001
AUTOCAD_POSTSCRIPT_FIGURE
1002
{
1000
PSFILL
1000
Grayscale
1000
Grayscale
1070
   100
1002
}
  0
LINE
  5
4B15
  8
YODOROGO
 10
27849.604341291921
 20
1955.7494964292871
 30
0.0
 11
27849.604341291921
 21
1979.749496429288
 31
0.0
1001
AUTOCAD_POSTSCRIPT_FIGURE
1002
{
1000
PSFILL
1000
Grayscale
1000
Grayscale
1070
   100
1002
}
  0
LINE
  5
4B16
  8
YODOROGO
 10
27817.604341291921
 20
1955.7494964292871
 30
0.0
 11
27849.604341291921
 21
1955.7494964292871
 31
0.0
1001
AUTOCAD_POSTSCRIPT_FIGURE
1002
{
1000
PSFILL
1000
Grayscale
1000
Grayscale
1070
   100
1002
}
  0
LINE
  5
4B17
  8
YODOROGO
 10
27817.604341291921
 20
1979.749496429288
 30
0.0
 11
27817.604341291921
 21
1955.7494964292871
 31
0.0
1001
AUTOCAD_POSTSCRIPT_FIGURE
1002
{
1000
PSFILL
1000
Grayscale
1000
Grayscale
1070
   100
1002
}
  0
LINE
  5
4B18
  8
YODOROGO
 10
27801.604341291921
 20
1979.749496429288
 30
0.0
 11
27817.604341291921
 21
1979.749496429288
 31
0.0
1001
AUTOCAD_POSTSCRIPT_FIGURE
1002
{
1000
PSFILL
1000
Grayscale
1000
Grayscale
1070
   100
1002
}
  0
LINE
  5
4B19
  8
YODOROGO
 10
27801.604341291921
 20
1955.7494964292871
 30
0.0
 11
27801.604341291921
 21
1979.749496429288
 31
0.0
1001
AUTOCAD_POSTSCRIPT_FIGURE
1002
{
1000
PSFILL
1000
Grayscale
1000
Grayscale
1070
   100
1002
}
  0
LINE
  5
4B1A
  8
YODOROGO
 10
27777.604341291921
 20
1955.7494964292871
 30
0.0
 11
27801.604341291921
 21
1955.7494964292871
 31
0.0
1001
AUTOCAD_POSTSCRIPT_FIGURE
1002
{
1000
PSFILL
1000
Grayscale
1000
Grayscale
1070
   100
1002
}
  0
LINE
  5
4B1B
  8
YODOROGO
 10
27777.604341291921
 20
1939.749496429288
 30
0.0
 11
27777.604341291921
 21
1955.7494964292871
 31
0.0
1001
AUTOCAD_POSTSCRIPT_FIGURE
1002
{
1000
PSFILL
1000
Grayscale
1000
Grayscale
1070
   100
1002
}
  0
LINE
  5
4B1C
  8
YODOROGO
 10
27801.604341291921
 20
1939.749496429288
 30
0.0
 11
27777.604341291921
 21
1939.749496429288
 31
0.0
1001
AUTOCAD_POSTSCRIPT_FIGURE
1002
{
1000
PSFILL
1000
Grayscale
1000
Grayscale
1070
   100
1002
}
  0
LINE
  5
4B1D
  8
YODOROGO
 10
27801.604341291921
 20
1914.7865807937051
 30
0.0
 11
27801.604341291921
 21
1939.749496429288
 31
0.0
1001
AUTOCAD_POSTSCRIPT_FIGURE
1002
{
1000
PSFILL
1000
Grayscale
1000
Grayscale
1070
   100
1002
}
  0
LINE
  5
4B1E
  8
YODOROGO
 10
27777.604341291921
 20
1859.776747951671
 30
0.0
 11
27801.604341291921
 21
1914.7865807937051
 31
0.0
1001
AUTOCAD_POSTSCRIPT_FIGURE
1002
{
1000
PSFILL
1000
Grayscale
1000
Grayscale
1070
   100
1002
}
  0
LINE
  5
4B1F
  8
YODOROGO
 10
27777.604341291921
 20
1843.776747951672
 30
0.0
 11
27777.604341291921
 21
1859.776747951671
 31
0.0
1001
AUTOCAD_POSTSCRIPT_FIGURE
1002
{
1000
PSFILL
1000
Grayscale
1000
Grayscale
1070
   100
1002
}
  0
LINE
  5
4B20
  8
YODOROGO
 10
28257.604341291921
 20
1867.7494964292871
 30
0.0
 11
28401.60434129191
 21
1824.877625640306
 31
0.0
1001
AUTOCAD_POSTSCRIPT_FIGURE
1002
{
1000
PSFILL
1000
Grayscale
1000
Grayscale
1070
   100
1002
}
  0
LINE
  5
4B21
  8
YODOROGO
 10
28401.60434129191
 20
1752.877625640306
 30
0.0
 11
28257.604341291921
 21
1795.7494964292871
 31
0.0
1001
AUTOCAD_POSTSCRIPT_FIGURE
1002
{
1000
PSFILL
1000
Grayscale
1000
Grayscale
1070
   100
1002
}
  0
LINE
  5
4B22
  8
YODOROGO
 10
28401.60434129191
 20
1984.877625640306
 30
0.0
 11
28257.604341291921
 21
2027.749496429288
 31
0.0
1001
AUTOCAD_POSTSCRIPT_FIGURE
1002
{
1000
PSFILL
1000
Grayscale
1000
Grayscale
1070
   100
1002
}
  0
LINE
  5
4B23
  8
YODOROGO
 10
28257.604341291921
 20
1959.749496429288
 30
0.0
 11
28401.60434129191
 21
1916.8776256403071
 31
0.0
1001
AUTOCAD_POSTSCRIPT_FIGURE
1002
{
1000
PSFILL
1000
Grayscale
1000
Grayscale
1070
   100
1002
}
  0
LINE
  5
4B24
  8
YODOROGO
 10
28257.604341291921
 20
1795.7494964292871
 30
0.0
 11
28257.604341291921
 21
1867.7494964292871
 31
0.0
1001
AUTOCAD_POSTSCRIPT_FIGURE
1002
{
1000
PSFILL
1000
Grayscale
1000
Grayscale
1070
   100
1002
}
  0
LINE
  5
4B25
  8
YODOROGO
 10
28257.604341291921
 20
2027.749496429288
 30
0.0
 11
28257.604341291921
 21
1959.749496429288
 31
0.0
1001
AUTOCAD_POSTSCRIPT_FIGURE
1002
{
1000
PSFILL
1000
Grayscale
1000
Grayscale
1070
   100
1002
}
  0
LINE
  5
4B26
  8
YODOROGO
 10
28080.236320206739
 20
1939.749496429288
 30
0.0
 11
28129.60434129191
 21
1747.749496429285
 31
0.0
1001
AUTOCAD_POSTSCRIPT_FIGURE
1002
{
1000
PSFILL
1000
Grayscale
1000
Grayscale
1070
   100
1002
}
  0
LINE
  5
4B27
  8
YODOROGO
 10
27977.604341291921
 20
1939.749496429288
 30
0.0
 11
28080.236320206739
 21
1939.749496429288
 31
0.0
1001
AUTOCAD_POSTSCRIPT_FIGURE
1002
{
1000
PSFILL
1000
Grayscale
1000
Grayscale
1070
   100
1002
}
  0
LINE
  5
4B28
  8
YODOROGO
 10
27977.604341291921
 20
1955.7494964292871
 30
0.0
 11
27977.604341291921
 21
1939.749496429288
 31
0.0
1001
AUTOCAD_POSTSCRIPT_FIGURE
1002
{
1000
PSFILL
1000
Grayscale
1000
Grayscale
1070
   100
1002
}
  0
LINE
  5
4B29
  8
YODOROGO
 10
28076.606878519899
 20
1955.7494964292871
 30
0.0
 11
27977.604341291921
 21
1955.7494964292871
 31
0.0
1001
AUTOCAD_POSTSCRIPT_FIGURE
1002
{
1000
PSFILL
1000
Grayscale
1000
Grayscale
1070
   100
1002
}
  0
LINE
  5
4B2A
  8
YODOROGO
 10
28071.162715989711
 20
1979.749496429288
 30
0.0
 11
28076.606878519899
 21
1955.7494964292871
 31
0.0
1001
AUTOCAD_POSTSCRIPT_FIGURE
1002
{
1000
PSFILL
1000
Grayscale
1000
Grayscale
1070
   100
1002
}
  0
LINE
  5
4B2B
  8
YODOROGO
 10
28091.1627159897
 20
1979.749496429288
 30
0.0
 11
28071.162715989711
 21
1979.749496429288
 31
0.0
1001
AUTOCAD_POSTSCRIPT_FIGURE
1002
{
1000
PSFILL
1000
Grayscale
1000
Grayscale
1070
   100
1002
}
  0
LINE
  5
4B2C
  8
YODOROGO
 10
28095.806878519939
 20
1955.7494964292871
 30
0.0
 11
28091.1627159897
 21
1979.749496429288
 31
0.0
1001
AUTOCAD_POSTSCRIPT_FIGURE
1002
{
1000
PSFILL
1000
Grayscale
1000
Grayscale
1070
   100
1002
}
  0
LINE
  5
4B2D
  8
YODOROGO
 10
28121.604341291921
 20
1955.7494964292871
 30
0.0
 11
28095.806878519939
 21
1955.7494964292871
 31
0.0
1001
AUTOCAD_POSTSCRIPT_FIGURE
1002
{
1000
PSFILL
1000
Grayscale
1000
Grayscale
1070
   100
1002
}
  0
LINE
  5
4B2E
  8
YODOROGO
 10
28121.604341291921
 20
1979.749496429288
 30
0.0
 11
28121.604341291921
 21
1955.7494964292871
 31
0.0
1001
AUTOCAD_POSTSCRIPT_FIGURE
1002
{
1000
PSFILL
1000
Grayscale
1000
Grayscale
1070
   100
1002
}
  0
LINE
  5
4B2F
  8
YODOROGO
 10
28137.604341291921
 20
1979.749496429288
 30
0.0
 11
28121.604341291921
 21
1979.749496429288
 31
0.0
1001
AUTOCAD_POSTSCRIPT_FIGURE
1002
{
1000
PSFILL
1000
Grayscale
1000
Grayscale
1070
   100
1002
}
  0
LINE
  5
4B30
  8
YODOROGO
 10
28137.604341291921
 20
1955.7494964292871
 30
0.0
 11
28137.604341291921
 21
1979.749496429288
 31
0.0
1001
AUTOCAD_POSTSCRIPT_FIGURE
1002
{
1000
PSFILL
1000
Grayscale
1000
Grayscale
1070
   100
1002
}
  0
LINE
  5
4B31
  8
YODOROGO
 10
28137.604341291921
 20
1939.749496429288
 30
0.0
 11
28137.604341291921
 21
1955.7494964292871
 31
0.0
1001
AUTOCAD_POSTSCRIPT_FIGURE
1002
{
1000
PSFILL
1000
Grayscale
1000
Grayscale
1070
   100
1002
}
  0
LINE
  5
4B32
  8
YODOROGO
 10
28098.9029868734
 20
1939.749496429288
 30
0.0
 11
28137.604341291921
 21
1939.749496429288
 31
0.0
1001
AUTOCAD_POSTSCRIPT_FIGURE
1002
{
1000
PSFILL
1000
Grayscale
1000
Grayscale
1070
   100
1002
}
  0
LINE
  5
4B33
  8
YODOROGO
 10
28137.604341291921
 20
1747.749496429285
 30
0.0
 11
28098.9029868734
 21
1939.749496429288
 31
0.0
1001
AUTOCAD_POSTSCRIPT_FIGURE
1002
{
1000
PSFILL
1000
Grayscale
1000
Grayscale
1070
   100
1002
}
  0
LINE
  5
4B34
  8
YODOROGO
 10
28129.60434129191
 20
1747.749496429285
 30
0.0
 11
28137.604341291921
 21
1747.749496429285
 31
0.0
1001
AUTOCAD_POSTSCRIPT_FIGURE
1002
{
1000
PSFILL
1000
Grayscale
1000
Grayscale
1070
   100
1002
}
  0
LINE
  5
4B35
  8
YODOROGO
 10
28078.06921993379
 20
1775.7407762987939
 30
0.0
 11
27977.604341291921
 21
1747.749496429285
 31
0.0
  0
LINE
  5
4B36
  8
YODOROGO
 10
28078.06921993379
 20
1798.6689795290731
 30
0.0
 11
28078.06921993379
 21
1775.7407762987939
 31
0.0
  0
LINE
  5
4B37
  8
YODOROGO
 10
28033.83678061287
 20
1786.816933133767
 30
0.0
 11
28078.06921993379
 21
1798.6689795290731
 31
0.0
  0
LINE
  5
4B38
  8
YODOROGO
 10
28033.83678061287
 20
1872.5683489362989
 30
0.0
 11
28033.83678061287
 21
1786.816933133767
 31
0.0
  0
LINE
  5
4B39
  8
YODOROGO
 10
28078.06921993379
 20
1872.5683489362989
 30
0.0
 11
28033.83678061287
 21
1872.5683489362989
 31
0.0
  0
LINE
  5
4B3A
  8
YODOROGO
 10
28078.06921993379
 20
1892.568348936298
 30
0.0
 11
28078.06921993379
 21
1872.5683489362989
 31
0.0
  0
LINE
  5
4B3B
  8
YODOROGO
 10
27977.604341291921
 20
1892.568348936298
 30
0.0
 11
28078.06921993379
 21
1892.568348936298
 31
0.0
  0
LINE
  5
4B3C
  8
YODOROGO
 10
27977.604341291921
 20
1872.5683489362989
 30
0.0
 11
27977.604341291921
 21
1892.568348936298
 31
0.0
  0
LINE
  5
4B3D
  8
YODOROGO
 10
28021.836780612852
 20
1872.5683489362989
 30
0.0
 11
27977.604341291921
 21
1872.5683489362989
 31
0.0
  0
LINE
  5
4B3E
  8
YODOROGO
 10
28021.836780612852
 20
1784.673339594317
 30
0.0
 11
28021.836780612852
 21
1872.5683489362989
 31
0.0
  0
LINE
  5
4B3F
  8
YODOROGO
 10
27977.604341291921
 20
1771.749496429286
 30
0.0
 11
28021.836780612852
 21
1784.673339594317
 31
0.0
  0
LINE
  5
4B40
  8
YODOROGO
 10
27977.604341291921
 20
1747.749496429285
 30
0.0
 11
27977.604341291921
 21
1771.749496429286
 31
0.0
  0
LINE
  5
4B41
  8
YODOROGO
 10
28001.604341291921
 20
1707.749496429288
 30
0.0
 11
28001.604341291921
 21
1683.7494964292871
 31
0.0
  0
LINE
  5
4B42
  8
YODOROGO
 10
28017.604341291921
 20
1707.749496429288
 30
0.0
 11
28001.604341291921
 21
1707.749496429288
 31
0.0
  0
LINE
  5
4B43
  8
YODOROGO
 10
28017.604341291921
 20
1683.7494964292871
 30
0.0
 11
28017.604341291921
 21
1707.749496429288
 31
0.0
  0
LINE
  5
4B44
  8
YODOROGO
 10
28040.913204016881
 20
1683.7494964292871
 30
0.0
 11
28017.604341291921
 21
1683.7494964292871
 31
0.0
  0
LINE
  5
4B45
  8
YODOROGO
 10
28001.604341291921
 20
1683.7494964292871
 30
0.0
 11
27977.604341291921
 21
1683.7494964292871
 31
0.0
  0
LINE
  5
4B46
  8
YODOROGO
 10
28082.135520230921
 20
1707.749496429288
 30
0.0
 11
28098.135520230931
 21
1707.749496429288
 31
0.0
1001
AUTOCAD_POSTSCRIPT_FIGURE
1002
{
1000
PSFILL
1000
Grayscale
1000
Grayscale
1070
   100
1002
}
  0
LINE
  5
4B47
  8
YODOROGO
 10
28401.60434129191
 20
1824.877625640306
 30
0.0
 11
28401.60434129191
 21
1752.877625640306
 31
0.0
1001
AUTOCAD_POSTSCRIPT_FIGURE
1002
{
1000
PSFILL
1000
Grayscale
1000
Grayscale
1070
   100
1002
}
  0
LINE
  5
4B48
  8
YODOROGO
 10
28401.60434129191
 20
1916.8776256403071
 30
0.0
 11
28401.60434129191
 21
1984.877625640306
 31
0.0
1001
AUTOCAD_POSTSCRIPT_FIGURE
1002
{
1000
PSFILL
1000
Grayscale
1000
Grayscale
1070
   100
1002
}
  0
LINE
  5
4B49
  8
YODOROGO
 10
28433.60434129191
 20
1819.7494964292871
 30
0.0
 11
28433.60434129191
 21
1747.74949642929
 31
0.0
  0
LINE
  5
4B4A
  8
YODOROGO
 10
28497.60434129191
 20
1707.749496429288
 30
0.0
 11
28433.60434129191
 21
1707.749496429288
 31
0.0
  0
LINE
  5
4B4B
  8
YODOROGO
 10
28433.60434129191
 20
1747.74949642929
 30
0.0
 11
28585.604341291921
 21
1747.74949642929
 31
0.0
  0
LINE
  5
4B4C
  8
YODOROGO
 10
28497.60434129191
 20
1867.7494964292871
 30
0.0
 11
28433.60434129191
 21
1867.7494964292871
 31
0.0
  0
LINE
  5
4B4D
  8
YODOROGO
 10
28497.60434129191
 20
1923.7494964292871
 30
0.0
 11
28497.60434129191
 21
1867.7494964292871
 31
0.0
  0
LINE
  5
4B4E
  8
YODOROGO
 10
28585.604341291921
 20
1987.7494964292871
 30
0.0
 11
28585.604341291921
 21
2027.749496429288
 31
0.0
  0
LINE
  5
4B4F
  8
YODOROGO
 10
28433.60434129191
 20
1987.7494964292871
 30
0.0
 11
28585.604341291921
 21
1987.7494964292871
 31
0.0
  0
LINE
  5
4B50
  8
YODOROGO
 10
28433.60434129191
 20
1867.7494964292871
 30
0.0
 11
28433.60434129191
 21
1987.7494964292871
 31
0.0
  0
LINE
  5
4B51
  8
YODOROGO
 10
29001.60434129191
 20
2027.749496429288
 30
0.0
 11
29001.60434129191
 21
1619.749496429288
 31
0.0
  0
LINE
  5
4B52
  8
YODOROGO
 10
29073.604341291921
 20
1579.749496429288
 30
0.0
 11
29073.604341291921
 21
2027.749496429288
 31
0.0
  0
LINE
  5
4B53
  8
YODOROGO
 10
29261.604341291921
 20
1491.749496429286
 30
0.0
 11
29261.604341291921
 21
2007.749496429288
 31
0.0
  0
LINE
  5
4B54
  8
YODOROGO
 10
29197.604341291921
 20
2007.749496429288
 30
0.0
 11
29197.604341291921
 21
1491.749496429286
 31
0.0
  0
LINE
  5
4B55
  8
YODOROGO
 10
29385.604341291921
 20
2027.749496429288
 30
0.0
 11
29385.604341291921
 21
1427.749496429288
 31
0.0
  0
LINE
  5
4B56
  8
YODOROGO
 10
29457.604341291921
 20
1427.749496429288
 30
0.0
 11
29457.604341291921
 21
2027.749496429288
 31
0.0
  0
LINE
  5
4B57
  8
YODOROGO
 10
28657.604341291921
 20
1667.749496429288
 30
0.0
 11
28657.604341291921
 21
1747.74949642929
 31
0.0
  0
LINE
  5
4B58
  8
YODOROGO
 10
29885.604341291921
 20
1707.749496429288
 30
0.0
 11
29885.604341291921
 21
1667.749496429288
 31
0.0
  0
LINE
  5
4B59
  8
YODOROGO
 10
29885.604341291921
 20
1707.749496429288
 30
0.0
 11
29885.604341291921
 21
1667.749496429288
 31
0.0
  0
ARC
  5
4B5A
  8
YODOROGO
 10
28906.911576186831
 20
1618.217864442272
 30
0.0
 40
94.705151178741644
 50
274.05244162907098
 51
0.9266642149310712
  0
ARC
  5
4B5B
  8
YODOROGO
 10
28909.186170719819
 20
1592.61072861044
 30
0.0
 40
164.92042356085511
 50
271.5351210653775
 51
355.52727750585052
  0
LINE
  5
4B5C
  8
YODOROGO
 10
28913.604341291921
 20
1523.7494964292871
 30
0.0
 11
28913.604341291921
 21
1427.749496429288
 31
0.0
  0
LINE
  5
4B5D
  8
YODOROGO
 10
28793.60434129191
 20
1667.749496429288
 30
0.0
 11
28657.604341291921
 21
1667.749496429288
 31
0.0
  0
LINE
  5
4B5E
  8
YODOROGO
 10
28793.60434129191
 20
1603.7494964292871
 30
0.0
 11
28793.60434129191
 21
1667.749496429288
 31
0.0
  0
LINE
  5
4B5F
  8
YODOROGO
 10
28657.604341291921
 20
1603.7494964292871
 30
0.0
 11
28793.60434129191
 21
1603.7494964292871
 31
0.0
  0
LINE
  5
4B60
  8
YODOROGO
 10
28657.604341291921
 20
1523.7494964292871
 30
0.0
 11
28657.604341291921
 21
1603.7494964292871
 31
0.0
  0
LINE
  5
4B61
  8
YODOROGO
 10
28793.60434129191
 20
1523.7494964292871
 30
0.0
 11
28657.604341291921
 21
1523.7494964292871
 31
0.0
  0
LINE
  5
4B62
  8
YODOROGO
 10
28793.60434129191
 20
1427.749496429288
 30
0.0
 11
28793.60434129191
 21
1523.7494964292871
 31
0.0
  0
LINE
  5
4B63
  8
YODOROGO
 10
29197.604341291921
 20
1491.749496429286
 30
0.0
 11
29261.604341291921
 21
1491.749496429286
 31
0.0
  0
LINE
  5
4B64
  8
YODOROGO
 10
29385.604341291921
 20
1427.749496429288
 30
0.0
 11
29457.604341291921
 21
1427.749496429288
 31
0.0
  0
LINE
  5
4B65
  8
YODOROGO
 10
29737.604341291921
 20
1528.4414521705639
 30
0.0
 11
29737.604341291921
 21
1427.749496429288
 31
0.0
  0
LINE
  5
4B66
  8
YODOROGO
 10
29617.604341291921
 20
1427.749496429288
 30
0.0
 11
29737.604341291921
 21
1528.4414521705639
 31
0.0
  0
LINE
  5
4B67
  8
YODOROGO
 10
29617.604341291921
 20
1547.749496429288
 30
0.0
 11
29617.604341291921
 21
1427.749496429288
 31
0.0
  0
LINE
  5
4B68
  8
YODOROGO
 10
29712.94462869945
 20
1627.749496429288
 30
0.0
 11
29617.604341291921
 21
1547.749496429288
 31
0.0
  0
LINE
  5
4B69
  8
YODOROGO
 10
29617.604341291921
 20
1627.749496429288
 30
0.0
 11
29712.94462869945
 21
1627.749496429288
 31
0.0
  0
LINE
  5
4B6A
  8
YODOROGO
 10
29617.604341291921
 20
1667.749496429288
 30
0.0
 11
29617.604341291921
 21
1627.749496429288
 31
0.0
  0
LINE
  5
4B6B
  8
YODOROGO
 10
29885.604341291921
 20
1667.749496429288
 30
0.0
 11
29617.604341291921
 21
1667.749496429288
 31
0.0
  0
LINE
  5
4B6C
  8
YODOROGO
 10
29917.604341291921
 20
1627.749496429288
 30
0.0
 11
29777.604341291921
 21
1627.749496429288
 31
0.0
  0
LINE
  5
4B6D
  8
YODOROGO
 10
29777.604341291921
 20
1562.005437417655
 30
0.0
 11
29771.409872985321
 21
1556.807661346234
 31
0.0
  0
LINE
  5
4B6E
  8
YODOROGO
 10
29777.604341291921
 20
1627.749496429288
 30
0.0
 11
29777.604341291921
 21
1562.005437417655
 31
0.0
  0
LINE
  5
4B6F
  8
YODOROGO
 10
29737.604341291921
 20
1528.4414521705639
 30
0.0
 11
29737.604341291921
 21
1427.749496429288
 31
0.0
  0
LINE
  5
4B70
  8
YODOROGO
 10
29617.604341291921
 20
1427.749496429288
 30
0.0
 11
29737.604341291921
 21
1528.4414521705639
 31
0.0
  0
LINE
  5
4B71
  8
YODOROGO
 10
29617.604341291921
 20
1547.749496429288
 30
0.0
 11
29617.604341291921
 21
1427.749496429288
 31
0.0
  0
LINE
  5
4B72
  8
YODOROGO
 10
29712.94462869945
 20
1627.749496429288
 30
0.0
 11
29617.604341291921
 21
1547.749496429288
 31
0.0
  0
LINE
  5
4B73
  8
YODOROGO
 10
29617.604341291921
 20
1627.749496429288
 30
0.0
 11
29712.94462869945
 21
1627.749496429288
 31
0.0
  0
LINE
  5
4B74
  8
YODOROGO
 10
29617.604341291921
 20
1667.749496429288
 30
0.0
 11
29617.604341291921
 21
1627.749496429288
 31
0.0
  0
LINE
  5
4B75
  8
YODOROGO
 10
29885.604341291921
 20
1667.749496429288
 30
0.0
 11
29617.604341291921
 21
1667.749496429288
 31
0.0
  0
LINE
  5
4B76
  8
YODOROGO
 10
28793.60434129191
 20
1747.74949642929
 30
0.0
 11
28793.60434129191
 21
1819.7494964292871
 31
0.0
  0
LINE
  5
4B77
  8
YODOROGO
 10
28657.604341291921
 20
1747.74949642929
 30
0.0
 11
28793.60434129191
 21
1747.74949642929
 31
0.0
  0
LINE
  5
4B78
  8
YODOROGO
 10
28729.604341291921
 20
1867.7494964292871
 30
0.0
 11
28729.604341291921
 21
1923.7494964292871
 31
0.0
  0
LINE
  5
4B79
  8
YODOROGO
 10
28793.60434129191
 20
1867.7494964292871
 30
0.0
 11
28729.604341291921
 21
1867.7494964292871
 31
0.0
  0
LINE
  5
4B7A
  8
YODOROGO
 10
28793.60434129191
 20
1947.749496429288
 30
0.0
 11
28793.60434129191
 21
1867.7494964292871
 31
0.0
  0
ARC
  5
4B7B
  8
YODOROGO
 10
28753.60434129191
 20
1947.749496429288
 30
0.0
 40
40.0
 50
0.0
 51
90.0
  0
LINE
  5
4B7C
  8
YODOROGO
 10
28657.604341291921
 20
1987.7494964292871
 30
0.0
 11
28753.60434129191
 21
1987.7494964292871
 31
0.0
  0
LINE
  5
4B7D
  8
YODOROGO
 10
28657.604341291921
 20
2027.749496429288
 30
0.0
 11
28657.604341291921
 21
1987.7494964292871
 31
0.0
  0
LINE
  5
4B7E
  8
YODOROGO
 10
29073.604341291921
 20
2027.749496429288
 30
0.0
 11
29001.60434129191
 21
2027.749496429288
 31
0.0
  0
LINE
  5
4B7F
  8
YODOROGO
 10
29261.604341291921
 20
2007.749496429288
 30
0.0
 11
29197.604341291921
 21
2007.749496429288
 31
0.0
  0
LINE
  5
4B80
  8
YODOROGO
 10
29457.604341291921
 20
2027.749496429288
 30
0.0
 11
29385.604341291921
 21
2027.749496429288
 31
0.0
  0
LINE
  5
4B81
  8
YODOROGO
 10
29673.604341291921
 20
1707.749496429288
 30
0.0
 11
29673.604341291921
 21
1771.7494964292871
 31
0.0
1001
AUTOCAD_POSTSCRIPT_FIGURE
1002
{
1000
PSFILL
1000
Grayscale
1000
Grayscale
1070
    25
1002
}
  0
LINE
  5
4B82
  8
YODOROGO
 10
29617.604341291921
 20
1707.749496429288
 30
0.0
 11
29673.604341291921
 21
1707.749496429288
 31
0.0
1001
AUTOCAD_POSTSCRIPT_FIGURE
1002
{
1000
PSFILL
1000
Grayscale
1000
Grayscale
1070
    25
1002
}
  0
LINE
  5
4B83
  8
YODOROGO
 10
29617.604341291921
 20
1819.7494964292871
 30
0.0
 11
29617.604341291921
 21
1707.749496429288
 31
0.0
1001
AUTOCAD_POSTSCRIPT_FIGURE
1002
{
1000
PSFILL
1000
Grayscale
1000
Grayscale
1070
    25
1002
}
  0
LINE
  5
4B84
  8
YODOROGO
 10
29765.604341291921
 20
1819.7494964292871
 30
0.0
 11
29617.604341291921
 21
1819.7494964292871
 31
0.0
1001
AUTOCAD_POSTSCRIPT_FIGURE
1002
{
1000
PSFILL
1000
Grayscale
1000
Grayscale
1070
    25
1002
}
  0
LINE
  5
4B85
  8
YODOROGO
 10
29765.604341291921
 20
1859.749496429288
 30
0.0
 11
29765.604341291921
 21
1819.7494964292871
 31
0.0
1001
AUTOCAD_POSTSCRIPT_FIGURE
1002
{
1000
PSFILL
1000
Grayscale
1000
Grayscale
1070
    25
1002
}
  0
LINE
  5
4B86
  8
YODOROGO
 10
29617.604341291921
 20
1859.749496429288
 30
0.0
 11
29765.604341291921
 21
1859.749496429288
 31
0.0
1001
AUTOCAD_POSTSCRIPT_FIGURE
1002
{
1000
PSFILL
1000
Grayscale
1000
Grayscale
1070
    25
1002
}
  0
LINE
  5
4B87
  8
YODOROGO
 10
29617.604341291921
 20
1907.7494964292871
 30
0.0
 11
29617.604341291921
 21
1859.749496429288
 31
0.0
1001
AUTOCAD_POSTSCRIPT_FIGURE
1002
{
1000
PSFILL
1000
Grayscale
1000
Grayscale
1070
    25
1002
}
  0
LINE
  5
4B88
  8
YODOROGO
 10
29765.604341291921
 20
1907.7494964292871
 30
0.0
 11
29617.604341291921
 21
1907.7494964292871
 31
0.0
1001
AUTOCAD_POSTSCRIPT_FIGURE
1002
{
1000
PSFILL
1000
Grayscale
1000
Grayscale
1070
    25
1002
}
  0
LINE
  5
4B89
  8
YODOROGO
 10
29765.604341291921
 20
1947.749496429288
 30
0.0
 11
29765.604341291921
 21
1907.7494964292871
 31
0.0
1001
AUTOCAD_POSTSCRIPT_FIGURE
1002
{
1000
PSFILL
1000
Grayscale
1000
Grayscale
1070
    25
1002
}
  0
LINE
  5
4B8A
  8
YODOROGO
 10
29617.604341291921
 20
1947.749496429288
 30
0.0
 11
29765.604341291921
 21
1947.749496429288
 31
0.0
1001
AUTOCAD_POSTSCRIPT_FIGURE
1002
{
1000
PSFILL
1000
Grayscale
1000
Grayscale
1070
    25
1002
}
  0
LINE
  5
4B8B
  8
YODOROGO
 10
29617.604341291921
 20
2027.749496429288
 30
0.0
 11
29617.604341291921
 21
1947.749496429288
 31
0.0
1001
AUTOCAD_POSTSCRIPT_FIGURE
1002
{
1000
PSFILL
1000
Grayscale
1000
Grayscale
1070
    25
1002
}
  0
LINE
  5
4B8C
  8
YODOROGO
 10
29665.604341291921
 20
2027.749496429288
 30
0.0
 11
29617.604341291921
 21
2027.749496429288
 31
0.0
1001
AUTOCAD_POSTSCRIPT_FIGURE
1002
{
1000
PSFILL
1000
Grayscale
1000
Grayscale
1070
    25
1002
}
  0
LINE
  5
4B8D
  8
YODOROGO
 10
29665.604341291921
 20
1995.7494964292871
 30
0.0
 11
29665.604341291921
 21
2027.749496429288
 31
0.0
1001
AUTOCAD_POSTSCRIPT_FIGURE
1002
{
1000
PSFILL
1000
Grayscale
1000
Grayscale
1070
    25
1002
}
  0
LINE
  5
4B8E
  8
YODOROGO
 10
29765.604341291921
 20
1995.7494964292871
 30
0.0
 11
29665.604341291921
 21
1995.7494964292871
 31
0.0
1001
AUTOCAD_POSTSCRIPT_FIGURE
1002
{
1000
PSFILL
1000
Grayscale
1000
Grayscale
1070
    25
1002
}
  0
LINE
  5
4B8F
  8
YODOROGO
 10
29765.604341291921
 20
2027.749496429288
 30
0.0
 11
29765.604341291921
 21
1995.7494964292871
 31
0.0
1001
AUTOCAD_POSTSCRIPT_FIGURE
1002
{
1000
PSFILL
1000
Grayscale
1000
Grayscale
1070
    25
1002
}
  0
LINE
  5
4B90
  8
YODOROGO
 10
29829.604341291921
 20
2027.749496429288
 30
0.0
 11
29765.604341291921
 21
2027.749496429288
 31
0.0
1001
AUTOCAD_POSTSCRIPT_FIGURE
1002
{
1000
PSFILL
1000
Grayscale
1000
Grayscale
1070
    25
1002
}
  0
LINE
  5
4B91
  8
YODOROGO
 10
29829.604341291921
 20
1995.7494964292871
 30
0.0
 11
29829.604341291921
 21
2027.749496429288
 31
0.0
1001
AUTOCAD_POSTSCRIPT_FIGURE
1002
{
1000
PSFILL
1000
Grayscale
1000
Grayscale
1070
    25
1002
}
  0
LINE
  5
4B92
  8
YODOROGO
 10
29829.604341291921
 20
1907.7494964292871
 30
0.0
 11
29829.604341291921
 21
1947.749496429288
 31
0.0
1001
AUTOCAD_POSTSCRIPT_FIGURE
1002
{
1000
PSFILL
1000
Grayscale
1000
Grayscale
1070
    25
1002
}
  0
LINE
  5
4B93
  8
YODOROGO
 10
29829.604341291921
 20
1819.7494964292871
 30
0.0
 11
29829.604341291921
 21
1859.749496429288
 31
0.0
1001
AUTOCAD_POSTSCRIPT_FIGURE
1002
{
1000
PSFILL
1000
Grayscale
1000
Grayscale
1070
    25
1002
}
  0
LINE
  5
4B94
  8
YODOROGO
 10
29921.60434129191
 20
1771.7494964292871
 30
0.0
 11
29921.60434129191
 21
1707.749496429288
 31
0.0
1001
AUTOCAD_POSTSCRIPT_FIGURE
1002
{
1000
PSFILL
1000
Grayscale
1000
Grayscale
1070
    25
1002
}
  0
LINE
  5
4B95
  8
YODOROGO
 10
29829.604341291921
 20
1771.7494964292871
 30
0.0
 11
29921.60434129191
 21
1771.7494964292871
 31
0.0
1001
AUTOCAD_POSTSCRIPT_FIGURE
1002
{
1000
PSFILL
1000
Grayscale
1000
Grayscale
1070
    25
1002
}
  0
LINE
  5
4B96
  8
YODOROGO
 10
29829.604341291921
 20
1707.749496429288
 30
0.0
 11
29829.604341291921
 21
1771.7494964292871
 31
0.0
1001
AUTOCAD_POSTSCRIPT_FIGURE
1002
{
1000
PSFILL
1000
Grayscale
1000
Grayscale
1070
    25
1002
}
  0
LINE
  5
4B97
  8
YODOROGO
 10
29765.604341291921
 20
1707.749496429288
 30
0.0
 11
29829.604341291921
 21
1707.749496429288
 31
0.0
1001
AUTOCAD_POSTSCRIPT_FIGURE
1002
{
1000
PSFILL
1000
Grayscale
1000
Grayscale
1070
    25
1002
}
  0
LINE
  5
4B98
  8
YODOROGO
 10
29765.604341291921
 20
1771.7494964292871
 30
0.0
 11
29765.604341291921
 21
1707.749496429288
 31
0.0
1001
AUTOCAD_POSTSCRIPT_FIGURE
1002
{
1000
PSFILL
1000
Grayscale
1000
Grayscale
1070
    25
1002
}
  0
LINE
  5
4B99
  8
YODOROGO
 10
29673.604341291921
 20
1771.7494964292871
 30
0.0
 11
29765.604341291921
 21
1771.7494964292871
 31
0.0
1001
AUTOCAD_POSTSCRIPT_FIGURE
1002
{
1000
PSFILL
1000
Grayscale
1000
Grayscale
1070
    25
1002
}
  0
ARC
  5
4B9A
  8
YODOROGO
 10
31059.517893357912
 20
1602.6807375155761
 30
0.0
 40
178.22128111072141
 50
281.02627495425338
 51
357.77113575573799
  0
LINE
  5
4B9B
  8
YODOROGO
 10
31413.604341291921
 20
1907.7494964292871
 30
0.0
 11
31165.604341291921
 21
1907.7494964292871
 31
0.0
  0
LINE
  5
4B9C
  8
YODOROGO
 10
31413.604341291921
 20
2027.749496429288
 30
0.0
 11
31165.604341291921
 21
2027.749496429288
 31
0.0
  0
LINE
  5
4B9D
  8
YODOROGO
 10
31165.604341291921
 20
1963.749496429286
 30
0.0
 11
31413.604341291921
 21
1963.749496429286
 31
0.0
  0
LINE
  5
4B9E
  8
YODOROGO
 10
30791.604341291921
 20
1563.7494964292871
 30
0.0
 11
30791.604341291921
 21
1755.7494964292871
 31
0.0
  0
LINE
  5
4B9F
  8
YODOROGO
 10
30763.604341291921
 20
1691.749496429288
 30
0.0
 11
30763.604341291921
 21
1563.7494964292871
 31
0.0
  0
LINE
  5
4BA0
  8
YODOROGO
 10
30723.604341291921
 20
1491.749496429288
 30
0.0
 11
30723.604341291921
 21
1691.749496429288
 31
0.0
  0
LINE
  5
4BA1
  8
YODOROGO
 10
30899.604341291932
 20
1691.749496429288
 30
0.0
 11
30899.604341291932
 21
1491.749496429288
 31
0.0
  0
LINE
  5
4BA2
  8
YODOROGO
 10
30859.604341291932
 20
1563.7494964292871
 30
0.0
 11
30859.604341291932
 21
1691.749496429288
 31
0.0
  0
LINE
  5
4BA3
  8
YODOROGO
 10
30831.604341291921
 20
1755.7494964292871
 30
0.0
 11
30831.604341291921
 21
1563.7494964292871
 31
0.0
  0
LINE
  5
4BA4
  8
YODOROGO
 10
30973.604341291921
 20
2027.749496429288
 30
0.0
 11
30973.604341291921
 21
1467.749496429288
 31
0.0
  0
LINE
  5
4BA5
  8
YODOROGO
 10
30645.604341291921
 20
1427.749496429288
 30
0.0
 11
30645.604341291921
 21
2027.749496429288
 31
0.0
  0
LINE
  5
4BA6
  8
YODOROGO
 10
30697.604341291932
 20
1963.749496429286
 30
0.0
 11
30697.604341291932
 21
1427.749496429288
 31
0.0
  0
LINE
  5
4BA7
  8
YODOROGO
 10
30925.604341291921
 20
1547.749496429288
 30
0.0
 11
30925.604341291921
 21
1963.749496429286
 31
0.0
  0
LINE
  5
4BA8
  8
YODOROGO
 10
30381.604341291932
 20
1627.749496429288
 30
0.0
 11
30381.604341291932
 21
1679.749496429288
 31
0.0
  0
LINE
  5
4BA9
  8
YODOROGO
 10
30617.604341291921
 20
1679.749496429288
 30
0.0
 11
30617.604341291921
 21
1627.749496429288
 31
0.0
  0
LINE
  5
4BAA
  8
YODOROGO
 10
31165.604341291921
 20
1907.7494964292871
 30
0.0
 11
31165.604341291921
 21
1635.7494964292871
 31
0.0
  0
LINE
  5
4BAB
  8
YODOROGO
 10
29949.60434129191
 20
1667.749496429288
 30
0.0
 11
29949.60434129191
 21
1707.749496429288
 31
0.0
  0
LINE
  5
4BAC
  8
YODOROGO
 10
29949.60434129191
 20
1667.749496429288
 30
0.0
 11
29949.60434129191
 21
1707.749496429288
 31
0.0
  0
ARC
  5
4BAD
  8
YODOROGO
 10
30537.604341291921
 20
1507.749496429288
 30
0.0
 40
80.0
 50
270.0
 51
0.0
  0
LINE
  5
4BAE
  8
YODOROGO
 10
30569.604341291921
 20
1599.7494964292871
 30
0.0
 11
30617.604341291921
 21
1599.7494964292871
 31
0.0
  0
LINE
  5
4BAF
  8
YODOROGO
 10
30617.604341291921
 20
1627.749496429288
 30
0.0
 11
30529.604341291939
 21
1627.749496429288
 31
0.0
  0
LINE
  5
4BB0
  8
YODOROGO
 10
30217.604341291921
 20
1667.749496429288
 30
0.0
 11
29949.60434129191
 21
1667.749496429288
 31
0.0
  0
LINE
  5
4BB1
  8
YODOROGO
 10
30217.604341291921
 20
1627.749496429288
 30
0.0
 11
30217.604341291921
 21
1667.749496429288
 31
0.0
  0
LINE
  5
4BB2
  8
YODOROGO
 10
30017.604341291921
 20
1627.749496429288
 30
0.0
 11
30217.604341291921
 21
1627.749496429288
 31
0.0
  0
ARC
  5
4BB3
  8
YODOROGO
 10
30230.05882870136
 20
1868.885714952901
 30
0.0
 40
321.37763628522822
 50
228.6181454618993
 51
245.660289248906
  0
LINE
  5
4BB4
  8
YODOROGO
 10
30105.604341291921
 20
1603.7494964292871
 30
0.0
 11
30097.60434129195
 21
1576.0728158699001
 31
0.0
  0
LINE
  5
4BB5
  8
YODOROGO
 10
30189.604341291921
 20
1603.7494964292871
 30
0.0
 11
30105.604341291921
 21
1603.7494964292871
 31
0.0
  0
LINE
  5
4BB6
  8
YODOROGO
 10
30177.604341291921
 20
1551.817722473427
 30
0.0
 11
30189.604341291921
 21
1603.7494964292871
 31
0.0
  0
ARC
  5
4BB7
  8
YODOROGO
 10
30230.05882870045
 20
1868.885714953002
 30
0.0
 40
321.37763628529069
 50
260.60629297969911
 51
267.7790355655585
  0
LINE
  5
4BB8
  8
YODOROGO
 10
30217.604341291921
 20
1427.749496429285
 30
0.0
 11
30217.604341291921
 21
1547.749496429288
 31
0.0
  0
LINE
  5
4BB9
  8
YODOROGO
 10
29937.604341291932
 20
1481.339334915509
 30
0.0
 11
29937.604341291921
 21
1594.531090531141
 31
0.0
  0
LINE
  5
4BBA
  8
YODOROGO
 10
30217.604341291921
 20
1667.749496429288
 30
0.0
 11
29949.60434129191
 21
1667.749496429288
 31
0.0
  0
LINE
  5
4BBB
  8
YODOROGO
 10
30217.604341291921
 20
1627.749496429288
 30
0.0
 11
30217.604341291921
 21
1667.749496429288
 31
0.0
  0
LINE
  5
4BBC
  8
YODOROGO
 10
30017.604341291921
 20
1627.749496429288
 30
0.0
 11
30217.604341291921
 21
1627.749496429288
 31
0.0
  0
ARC
  5
4BBD
  8
YODOROGO
 10
30230.05882870136
 20
1868.885714952901
 30
0.0
 40
321.37763628522822
 50
228.6181454618993
 51
245.660289248906
  0
LINE
  5
4BBE
  8
YODOROGO
 10
30105.604341291921
 20
1603.7494964292871
 30
0.0
 11
30097.60434129195
 21
1576.0728158699001
 31
0.0
  0
LINE
  5
4BBF
  8
YODOROGO
 10
30189.604341291921
 20
1603.7494964292871
 30
0.0
 11
30105.604341291921
 21
1603.7494964292871
 31
0.0
  0
LINE
  5
4BC0
  8
YODOROGO
 10
30177.604341291921
 20
1551.817722473427
 30
0.0
 11
30189.604341291921
 21
1603.7494964292871
 31
0.0
  0
ARC
  5
4BC1
  8
YODOROGO
 10
30230.05882870045
 20
1868.885714953002
 30
0.0
 40
321.37763628529069
 50
260.60629297969911
 51
267.7790355655585
  0
LINE
  5
4BC2
  8
YODOROGO
 10
30217.604341291921
 20
1427.749496429285
 30
0.0
 11
30217.604341291921
 21
1547.749496429288
 31
0.0
  0
LINE
  5
4BC3
  8
YODOROGO
 10
29937.604341291932
 20
1481.339334915509
 30
0.0
 11
29937.604341291921
 21
1594.531090531141
 31
0.0
  0
LINE
  5
4BC4
  8
YODOROGO
 10
30433.604341291921
 20
1573.749496429288
 30
0.0
 11
30381.604341291932
 21
1573.749496429288
 31
0.0
  0
LINE
  5
4BC5
  8
YODOROGO
 10
30433.604341291921
 20
1601.749496429285
 30
0.0
 11
30433.604341291921
 21
1573.749496429288
 31
0.0
  0
LINE
  5
4BC6
  8
YODOROGO
 10
30381.604341291932
 20
1601.749496429285
 30
0.0
 11
30433.604341291921
 21
1601.749496429285
 31
0.0
  0
LINE
  5
4BC7
  8
YODOROGO
 10
30381.604341291932
 20
1573.749496429288
 30
0.0
 11
30381.604341291932
 21
1601.749496429285
 31
0.0
  0
LINE
  5
4BC8
  8
YODOROGO
 10
30429.604341291921
 20
1577.7494964292871
 30
0.0
 11
30385.604341291921
 21
1577.7494964292871
 31
0.0
  0
LINE
  5
4BC9
  8
YODOROGO
 10
30429.604341291921
 20
1597.749496429288
 30
0.0
 11
30429.604341291921
 21
1577.7494964292871
 31
0.0
  0
LINE
  5
4BCA
  8
YODOROGO
 10
30385.604341291921
 20
1597.749496429288
 30
0.0
 11
30429.604341291921
 21
1597.749496429288
 31
0.0
  0
LINE
  5
4BCB
  8
YODOROGO
 10
30385.604341291921
 20
1577.7494964292871
 30
0.0
 11
30385.604341291921
 21
1597.749496429288
 31
0.0
  0
LINE
  5
4BCC
  8
YODOROGO
 10
30425.604341291921
 20
1581.749496429286
 30
0.0
 11
30389.604341291921
 21
1581.749496429286
 31
0.0
  0
LINE
  5
4BCD
  8
YODOROGO
 10
30425.604341291921
 20
1593.749496429288
 30
0.0
 11
30425.604341291921
 21
1581.749496429286
 31
0.0
  0
LINE
  5
4BCE
  8
YODOROGO
 10
30389.604341291921
 20
1593.749496429288
 30
0.0
 11
30425.604341291921
 21
1593.749496429288
 31
0.0
  0
LINE
  5
4BCF
  8
YODOROGO
 10
30389.604341291921
 20
1581.749496429286
 30
0.0
 11
30389.604341291921
 21
1593.749496429288
 31
0.0
  0
LINE
  5
4BD0
  8
YODOROGO
 10
30421.604341291932
 20
1585.7494964292871
 30
0.0
 11
30393.604341291921
 21
1585.7494964292871
 31
0.0
  0
LINE
  5
4BD1
  8
YODOROGO
 10
30421.604341291932
 20
1589.749496429288
 30
0.0
 11
30421.604341291932
 21
1585.7494964292871
 31
0.0
  0
LINE
  5
4BD2
  8
YODOROGO
 10
30393.604341291921
 20
1589.749496429288
 30
0.0
 11
30421.604341291932
 21
1589.749496429288
 31
0.0
  0
LINE
  5
4BD3
  8
YODOROGO
 10
30393.604341291921
 20
1585.7494964292871
 30
0.0
 11
30393.604341291921
 21
1589.749496429288
 31
0.0
  0
LINE
  5
4BD4
  8
YODOROGO
 10
30465.604341291921
 20
1627.749496429288
 30
0.0
 11
30381.604341291932
 21
1627.749496429288
 31
0.0
  0
LINE
  5
4BD5
  8
YODOROGO
 10
30465.604341291921
 20
1547.749496429288
 30
0.0
 11
30465.604341291921
 21
1627.749496429288
 31
0.0
  0
LINE
  5
4BD6
  8
YODOROGO
 10
30381.604341291932
 20
1547.749496429288
 30
0.0
 11
30465.604341291921
 21
1547.749496429288
 31
0.0
  0
LINE
  5
4BD7
  8
YODOROGO
 10
30381.604341291932
 20
1427.749496429288
 30
0.0
 11
30381.604341291932
 21
1547.749496429288
 31
0.0
  0
LINE
  5
4BD8
  8
YODOROGO
 10
30537.604341291921
 20
1427.749496429288
 30
0.0
 11
30381.604341291932
 21
1427.749496429288
 31
0.0
  0
LINE
  5
4BD9
  8
YODOROGO
 10
30569.604341291921
 20
1571.749496429285
 30
0.0
 11
30569.604341291921
 21
1599.7494964292871
 31
0.0
  0
ARC
  5
4BDA
  8
YODOROGO
 10
30545.604341291921
 20
1571.749496429291
 30
0.0
 40
24.000000000003752
 50
270.0
 51
359.99999999998772
  0
LINE
  5
4BDB
  8
YODOROGO
 10
30529.604341291939
 20
1547.749496429288
 30
0.0
 11
30545.604341291921
 21
1547.749496429288
 31
0.0
  0
LINE
  5
4BDC
  8
YODOROGO
 10
30529.604341291939
 20
1627.749496429288
 30
0.0
 11
30529.604341291939
 21
1547.749496429288
 31
0.0
  0
LINE
  5
4BDD
  8
YODOROGO
 10
30899.604341291932
 20
1547.749496429288
 30
0.0
 11
30925.604341291921
 21
1547.749496429288
 31
0.0
  0
LINE
  5
4BDE
  8
YODOROGO
 10
30933.604341291921
 20
1427.749496429288
 30
0.0
 11
30899.604341291932
 21
1427.749496429288
 31
0.0
  0
LINE
  5
4BDF
  8
YODOROGO
 10
30763.604341291921
 20
1563.7494964292871
 30
0.0
 11
30791.604341291921
 21
1563.7494964292871
 31
0.0
  0
LINE
  5
4BE0
  8
YODOROGO
 10
30899.604341291932
 20
1491.749496429288
 30
0.0
 11
30723.604341291921
 21
1491.749496429288
 31
0.0
  0
LINE
  5
4BE1
  8
YODOROGO
 10
30831.604341291921
 20
1563.7494964292871
 30
0.0
 11
30859.604341291932
 21
1563.7494964292871
 31
0.0
  0
LINE
  5
4BE2
  8
YODOROGO
 10
30899.604341291932
 20
1427.749496429288
 30
0.0
 11
30899.604341291932
 21
1547.749496429288
 31
0.0
  0
LINE
  5
4BE3
  8
YODOROGO
 10
30697.604341291932
 20
1427.749496429288
 30
0.0
 11
30645.604341291921
 21
1427.749496429288
 31
0.0
  0
LINE
  5
4BE4
  8
YODOROGO
 10
30617.604341291921
 20
1599.7494964292871
 30
0.0
 11
30617.604341291921
 21
1507.749496429288
 31
0.0
  0
ARC
  5
4BE5
  8
YODOROGO
 10
30933.604341291921
 20
1467.749496429288
 30
0.0
 40
40.0
 50
270.0
 51
0.0
  0
LINE
  5
4BE6
  8
YODOROGO
 10
31093.604341291921
 20
1523.7494964292871
 30
0.0
 11
31093.604341291921
 21
1427.749496429288
 31
0.0
  0
ARC
  5
4BE7
  8
YODOROGO
 10
31039.721395566768
 20
1637.5313901097329
 30
0.0
 40
125.8955565916754
 50
295.34052442160112
 51
359.18902303418679
  0
LINE
  5
4BE8
  8
YODOROGO
 10
30617.604341291921
 20
1859.749496429288
 30
0.0
 11
30497.604341291921
 21
1939.749496429288
 31
0.0
  0
LINE
  5
4BE9
  8
YODOROGO
 10
30497.604341291921
 20
2027.749496429288
 30
0.0
 11
30617.604341291921
 21
1947.749496429288
 31
0.0
  0
LINE
  5
4BEA
  8
YODOROGO
 10
30529.604341291939
 20
1679.749496429288
 30
0.0
 11
30617.604341291921
 21
1679.749496429288
 31
0.0
  0
LINE
  5
4BEB
  8
YODOROGO
 10
30617.604341291921
 20
1735.7494964292871
 30
0.0
 11
30529.604341291939
 21
1735.7494964292871
 31
0.0
  0
LINE
  5
4BEC
  8
YODOROGO
 10
30381.604341291932
 20
1795.7494964292871
 30
0.0
 11
30617.604341291921
 21
1795.7494964292871
 31
0.0
  0
LINE
  5
4BED
  8
YODOROGO
 10
30081.604341291921
 20
2027.749496429288
 30
0.0
 11
30021.604341291921
 21
2027.749496429288
 31
0.0
  0
LINE
  5
4BEE
  8
YODOROGO
 10
30081.604341291921
 20
1827.7494964292871
 30
0.0
 11
30081.604341291921
 21
2027.749496429288
 31
0.0
  0
LINE
  5
4BEF
  8
YODOROGO
 10
30021.604341291921
 20
1827.7494964292871
 30
0.0
 11
30081.604341291921
 21
1827.7494964292871
 31
0.0
  0
LINE
  5
4BF0
  8
YODOROGO
 10
30021.604341291921
 20
2027.749496429288
 30
0.0
 11
30021.604341291921
 21
1827.7494964292871
 31
0.0
  0
LINE
  5
4BF1
  8
YODOROGO
 10
30161.604341291921
 20
2027.749496429288
 30
0.0
 11
30217.604341291921
 21
2027.749496429288
 31
0.0
  0
LINE
  5
4BF2
  8
YODOROGO
 10
30161.604341291921
 20
1811.749496429288
 30
0.0
 11
30161.604341291921
 21
2027.749496429288
 31
0.0
  0
ARC
  5
4BF3
  8
YODOROGO
 10
30121.604341291921
 20
1811.749496429288
 30
0.0
 40
40.0
 50
270.0
 51
0.0
  0
LINE
  5
4BF4
  8
YODOROGO
 10
30021.604341291921
 20
1771.7494964292871
 30
0.0
 11
30121.604341291921
 21
1771.7494964292871
 31
0.0
  0
LINE
  5
4BF5
  8
YODOROGO
 10
30021.604341291921
 20
1707.749496429288
 30
0.0
 11
30021.604341291921
 21
1771.7494964292871
 31
0.0
  0
LINE
  5
4BF6
  8
YODOROGO
 10
30137.604341291921
 20
1707.749496429288
 30
0.0
 11
30021.604341291921
 21
1707.749496429288
 31
0.0
  0
ARC
  5
4BF7
  8
YODOROGO
 10
30137.604341291921
 20
1787.7494964292871
 30
0.0
 40
80.0
 50
270.0
 51
0.0
  0
LINE
  5
4BF8
  8
YODOROGO
 10
30217.604341291921
 20
2027.749496429288
 30
0.0
 11
30217.604341291921
 21
1787.7494964292871
 31
0.0
  0
LINE
  5
4BF9
  8
YODOROGO
 10
29977.604341291921
 20
1947.749496429288
 30
0.0
 11
29977.604341291921
 21
1995.7494964292871
 31
0.0
1001
AUTOCAD_POSTSCRIPT_FIGURE
1002
{
1000
PSFILL
1000
Grayscale
1000
Grayscale
1070
    25
1002
}
  0
LINE
  5
4BFA
  8
YODOROGO
 10
29977.604341291921
 20
1859.749496429288
 30
0.0
 11
29977.604341291921
 21
1907.7494964292871
 31
0.0
1001
AUTOCAD_POSTSCRIPT_FIGURE
1002
{
1000
PSFILL
1000
Grayscale
1000
Grayscale
1070
    25
1002
}
  0
LINE
  5
4BFB
  8
YODOROGO
 10
29977.604341291921
 20
1707.749496429288
 30
0.0
 11
29977.604341291921
 21
1819.7494964292871
 31
0.0
1001
AUTOCAD_POSTSCRIPT_FIGURE
1002
{
1000
PSFILL
1000
Grayscale
1000
Grayscale
1070
    25
1002
}
  0
LINE
  5
4BFC
  8
YODOROGO
 10
30381.604341291932
 20
1907.7494964292871
 30
0.0
 11
30497.604341291921
 21
2027.749496429288
 31
0.0
  0
LINE
  5
4BFD
  8
YODOROGO
 10
30381.604341291932
 20
1819.7494964292871
 30
0.0
 11
30381.604341291932
 21
1907.7494964292871
 31
0.0
  0
LINE
  5
4BFE
  8
YODOROGO
 10
30497.604341291921
 20
1939.749496429288
 30
0.0
 11
30381.604341291932
 21
1819.7494964292871
 31
0.0
  0
LINE
  5
4BFF
  8
YODOROGO
 10
30465.604341291921
 20
1679.749496429288
 30
0.0
 11
30465.604341291921
 21
1735.7494964292871
 31
0.0
  0
LINE
  5
4C00
  8
YODOROGO
 10
30381.604341291932
 20
1679.749496429288
 30
0.0
 11
30465.604341291921
 21
1679.749496429288
 31
0.0
  0
LINE
  5
4C01
  8
YODOROGO
 10
30529.604341291939
 20
1735.7494964292871
 30
0.0
 11
30529.604341291939
 21
1679.749496429288
 31
0.0
  0
LINE
  5
4C02
  8
YODOROGO
 10
30381.604341291932
 20
1735.7494964292871
 30
0.0
 11
30381.604341291932
 21
1795.7494964292871
 31
0.0
  0
LINE
  5
4C03
  8
YODOROGO
 10
30465.604341291921
 20
1735.7494964292871
 30
0.0
 11
30381.604341291932
 21
1735.7494964292871
 31
0.0
  0
LINE
  5
4C04
  8
YODOROGO
 10
30645.604341291921
 20
2027.749496429288
 30
0.0
 11
30973.604341291921
 21
2027.749496429288
 31
0.0
  0
LINE
  5
4C05
  8
YODOROGO
 10
30925.604341291921
 20
1963.749496429286
 30
0.0
 11
30697.604341291932
 21
1963.749496429286
 31
0.0
  0
LINE
  5
4C06
  8
YODOROGO
 10
30873.604341291921
 20
1819.7494964292871
 30
0.0
 11
30899.604341291932
 21
1819.7494964292871
 31
0.0
  0
LINE
  5
4C07
  8
YODOROGO
 10
30899.604341291932
 20
1939.749496429288
 30
0.0
 11
30873.604341291921
 21
1819.7494964292871
 31
0.0
  0
LINE
  5
4C08
  8
YODOROGO
 10
30851.604341291939
 20
1939.749496429288
 30
0.0
 11
30899.604341291932
 21
1939.749496429288
 31
0.0
  0
LINE
  5
4C09
  8
YODOROGO
 10
30825.604341291921
 20
1819.7494964292871
 30
0.0
 11
30851.604341291939
 21
1939.749496429288
 31
0.0
  0
LINE
  5
4C0A
  8
YODOROGO
 10
30797.604341291921
 20
1819.7494964292871
 30
0.0
 11
30825.604341291921
 21
1819.7494964292871
 31
0.0
  0
LINE
  5
4C0B
  8
YODOROGO
 10
30771.604341291939
 20
1939.749496429288
 30
0.0
 11
30797.604341291921
 21
1819.7494964292871
 31
0.0
  0
LINE
  5
4C0C
  8
YODOROGO
 10
30723.604341291921
 20
1939.749496429288
 30
0.0
 11
30771.604341291939
 21
1939.749496429288
 31
0.0
  0
LINE
  5
4C0D
  8
YODOROGO
 10
30749.604341291921
 20
1819.7494964292871
 30
0.0
 11
30723.604341291921
 21
1939.749496429288
 31
0.0
  0
LINE
  5
4C0E
  8
YODOROGO
 10
30723.604341291921
 20
1819.7494964292871
 30
0.0
 11
30749.604341291921
 21
1819.7494964292871
 31
0.0
  0
LINE
  5
4C0F
  8
YODOROGO
 10
30723.604341291921
 20
1755.7494964292871
 30
0.0
 11
30723.604341291921
 21
1819.7494964292871
 31
0.0
  0
LINE
  5
4C10
  8
YODOROGO
 10
30899.604341291932
 20
1755.7494964292871
 30
0.0
 11
30723.604341291921
 21
1755.7494964292871
 31
0.0
  0
LINE
  5
4C11
  8
YODOROGO
 10
30899.604341291932
 20
1819.7494964292871
 30
0.0
 11
30899.604341291932
 21
1755.7494964292871
 31
0.0
  0
LINE
  5
4C12
  8
YODOROGO
 10
30617.604341291921
 20
1947.749496429288
 30
0.0
 11
30617.604341291921
 21
1859.749496429288
 31
0.0
  0
LINE
  5
4C13
  8
YODOROGO
 10
30791.604341291921
 20
1755.7494964292871
 30
0.0
 11
30831.604341291921
 21
1755.7494964292871
 31
0.0
  0
LINE
  5
4C14
  8
YODOROGO
 10
30723.604341291921
 20
1691.749496429288
 30
0.0
 11
30763.604341291921
 21
1691.749496429288
 31
0.0
  0
LINE
  5
4C15
  8
YODOROGO
 10
30859.604341291932
 20
1691.749496429288
 30
0.0
 11
30899.604341291932
 21
1691.749496429288
 31
0.0
  0
LINE
  5
4C16
  8
YODOROGO
 10
30617.604341291921
 20
1795.7494964292871
 30
0.0
 11
30617.604341291921
 21
1735.7494964292871
 31
0.0
  0
LINE
  5
4C17
  8
YODOROGO
 10
31165.604341291921
 20
2027.749496429288
 30
0.0
 11
31165.604341291921
 21
1963.749496429286
 31
0.0
  0
LINE
  5
4C18
  8
YODOROGO
 10
31533.604341291921
 20
1595.7494964292871
 30
0.0
 11
31533.60434129191
 21
1811.749496429288
 31
0.0
  0
LINE
  5
4C19
  8
YODOROGO
 10
31461.60434129191
 20
1987.7494964292871
 30
0.0
 11
31461.60434129191
 21
1635.7494964292871
 31
0.0
  0
LINE
  5
4C1A
  8
YODOROGO
 10
31653.604341291921
 20
1427.749496429288
 30
0.0
 11
31653.60434129191
 21
1811.749496429288
 31
0.0
  0
LINE
  5
4C1B
  8
YODOROGO
 10
31589.604341291921
 20
1811.749496429288
 30
0.0
 11
31589.604341291921
 21
1427.749496429288
 31
0.0
  0
LINE
  5
4C1C
  8
YODOROGO
 10
31237.604341291921
 20
1595.7494964292871
 30
0.0
 11
31237.604341291921
 21
1707.749496429288
 31
0.0
  0
ARC
  5
4C1D
  8
YODOROGO
 10
31353.914865116069
 20
1607.790351288558
 30
0.0
 40
180.09244857598841
 50
268.62849102169793
 51
356.16638457330322
  0
LINE
  5
4C1E
  8
YODOROGO
 10
31349.604341291939
 20
1527.749496429288
 30
0.0
 11
31349.604341291939
 21
1427.749496429288
 31
0.0
  0
ARC
  5
4C1F
  8
YODOROGO
 10
31351.518075724562
 20
1637.838957017655
 30
0.0
 40
110.1060929836122
 50
269.00410209305932
 51
358.91264455492478
  0
LINE
  5
4C20
  8
YODOROGO
 10
31589.604341291921
 20
1427.749496429288
 30
0.0
 11
31653.604341291921
 21
1427.749496429288
 31
0.0
  0
LINE
  5
4C21
  8
YODOROGO
 10
31533.60434129191
 20
1811.749496429288
 30
0.0
 11
31589.604341291921
 21
1811.749496429288
 31
0.0
  0
LINE
  5
4C22
  8
YODOROGO
 10
31621.604341291939
 20
1987.7494964292871
 30
0.0
 11
31461.60434129191
 21
1987.7494964292871
 31
0.0
  0
LINE
  5
4C23
  8
YODOROGO
 10
31533.60434129191
 20
1915.7494964292871
 30
0.0
 11
31661.604341291939
 21
1915.7494964292871
 31
0.0
  0
LINE
  5
4C24
  8
YODOROGO
 10
31701.604341291939
 20
1875.7494964292871
 30
0.0
 11
31533.60434129191
 21
1875.7494964292871
 31
0.0
  0
LINE
  5
4C25
  8
YODOROGO
 10
31237.604341291921
 20
1779.749496429288
 30
0.0
 11
31349.604341291939
 21
1779.749496429288
 31
0.0
  0
LINE
  5
4C26
  8
YODOROGO
 10
31237.604341291921
 20
1835.7494964292871
 30
0.0
 11
31237.604341291921
 21
1779.749496429288
 31
0.0
  0
LINE
  5
4C27
  8
YODOROGO
 10
31349.604341291939
 20
1835.7494964292871
 30
0.0
 11
31237.604341291921
 21
1835.7494964292871
 31
0.0
  0
LINE
  5
4C28
  8
YODOROGO
 10
31349.604341291939
 20
1779.749496429288
 30
0.0
 11
31349.604341291939
 21
1835.7494964292871
 31
0.0
  0
LINE
  5
4C29
  8
YODOROGO
 10
31533.60434129191
 20
1875.7494964292871
 30
0.0
 11
31533.60434129191
 21
1915.7494964292871
 31
0.0
  0
LINE
  5
4C2A
  8
YODOROGO
 10
31413.604341291921
 20
1707.749496429288
 30
0.0
 11
31413.604341291921
 21
1907.7494964292871
 31
0.0
  0
LINE
  5
4C2B
  8
YODOROGO
 10
31237.604341291921
 20
1707.749496429288
 30
0.0
 11
31413.604341291921
 21
1707.749496429288
 31
0.0
  0
LINE
  5
4C2C
  8
YODOROGO
 10
31413.604341291921
 20
1963.749496429286
 30
0.0
 11
31413.604341291921
 21
2027.749496429288
 31
0.0
  0
ARC
  5
4C2D
  8
YODOROGO
 10
31621.604341291939
 20
2003.749496429285
 30
0.0
 40
15.999999999994539
 50
270.0
 51
0.0000000000081422
  0
LINE
  5
4C2E
  8
YODOROGO
 10
31637.604341291921
 20
2027.749496429288
 30
0.0
 11
31637.604341291921
 21
2003.7494964292871
 31
0.0
  0
LINE
  5
4C2F
  8
YODOROGO
 10
31701.604341291939
 20
2027.749496429288
 30
0.0
 11
31637.604341291921
 21
2027.749496429288
 31
0.0
  0
LINE
  5
4C30
  8
YODOROGO
 10
31701.604341291939
 20
1955.7494964292871
 30
0.0
 11
31701.604341291939
 21
2027.749496429288
 31
0.0
  0
ARC
  5
4C31
  8
YODOROGO
 10
31661.604341291939
 20
1955.7494964292871
 30
0.0
 40
40.0
 50
270.0
 51
0.0
  0
LINE
  5
4C32
  8
YODOROGO
 10
31701.604341291939
 20
1811.749496429288
 30
0.0
 11
31701.604341291939
 21
1875.7494964292871
 31
0.0
  0
LINE
  5
4C33
  8
YODOROGO
 10
31653.60434129191
 20
1811.749496429288
 30
0.0
 11
31701.604341291939
 21
1811.749496429288
 31
0.0
  0
LINE
  5
4C34
  8
SUNPOU
  6
CONTINUOUS
 62
     4
 10
5138.878544000002
 20
13723.437159999979
 30
0.0
 11
5138.878544000002
 21
12544.487359999979
 31
0.0
  0
LINE
  5
4C35
  8
SUNPOU
  6
CONTINUOUS
 62
     4
 10
14583.878438999989
 20
13723.437159999979
 30
0.0
 11
14583.878438999989
 21
12544.487359999979
 31
0.0
  0
LINE
  5
4C36
  8
SUNPOU
  6
CONTINUOUS
 62
     4
 10
5138.878544000002
 20
12624.487359999979
 30
0.0
 11
14583.878438999989
 21
12624.487359999979
 31
0.0
  0
LINE
  5
4C37
  8
SUNPOU
  6
CONTINUOUS
 62
     4
 10
4209.3787680000014
 20
13995.935443999981
 30
0.0
 11
4209.3787680000032
 21
16913.935443999992
 31
0.0
  0
LINE
  5
4C38
  8
SUNPOU
  6
CONTINUOUS
 62
     4
 10
4976.3741890000019
 20
19693.931352999982
 30
0.0
 11
4529.3787680000014
 21
19693.931352999982
 31
0.0
  0
LINE
  5
4C39
  8
SUNPOU
  6
CONTINUOUS
 62
     4
 10
4976.378544000002
 20
19703.931353
 30
0.0
 11
4529.3787680000014
 21
19703.931353
 31
0.0
  0
LINE
  5
4C3A
  8
SUNPOU
  6
CONTINUOUS
 62
     4
 10
4609.3787680000014
 20
19693.931352999982
 30
0.0
 11
4609.3787680000014
 21
19453.931352999989
 31
0.0
  0
LINE
  5
4C3B
  8
SUNPOU
  6
CONTINUOUS
 62
     4
 10
4609.3787680000014
 20
19703.931353
 30
0.0
 11
4609.3787680000014
 21
19943.931353
 31
0.0
  0
LINE
  5
4C3C
  8
SUNPOU
  6
CONTINUOUS
 62
     4
 10
4609.3787680000014
 20
19693.931352999982
 30
0.0
 11
4609.3787680000014
 21
19703.931353
 31
0.0
  0
LINE
  5
4C3D
  8
SUNPOU
  6
CONTINUOUS
 62
     4
 10
4976.378544000002
 20
19703.931353
 30
0.0
 11
4129.3787680000041
 21
19703.931353
 31
0.0
  0
LINE
  5
4C3E
  8
SUNPOU
  6
CONTINUOUS
 62
     4
 10
4209.3787680000041
 20
19481.435443999981
 30
0.0
 11
4209.3787680000041
 21
19703.931353
 31
0.0
  0
LINE
  5
4C3F
  8
SUNPOU
  6
CONTINUOUS
 62
     4
 10
4209.3787680000032
 20
16913.935443999992
 30
0.0
 11
4209.3787680000041
 21
19481.435443999981
 31
0.0
  0
LINE
  5
4C40
  8
SUNPOU
  6
CONTINUOUS
 62
     4
 10
4976.3741890000019
 20
13803.44012899999
 30
0.0
 11
4129.3787680000014
 21
13803.44012899999
 31
0.0
  0
LINE
  5
4C41
  8
SUNPOU
  6
CONTINUOUS
 62
     4
 10
4209.3787680000032
 20
13995.935443999981
 30
0.0
 11
4209.3787680000032
 21
13803.44012899999
 31
0.0
  0
LINE
  5
4C42
  8
SUNPOU
  6
CONTINUOUS
 62
     4
 10
5053.3785440000001
 20
19783.931353
 30
0.0
 11
5053.3785440000001
 21
20333.936632000001
 31
0.0
  0
LINE
  5
4C43
  8
SUNPOU
  6
CONTINUOUS
 62
     4
 10
5138.878544000002
 20
20253.936632000001
 30
0.0
 11
5378.878544000002
 21
20253.936632000001
 31
0.0
  0
LINE
  5
4C44
  8
SUNPOU
  6
CONTINUOUS
 62
     4
 10
5056.3785440000011
 20
20253.936632000001
 30
0.0
 11
4816.378544000002
 21
20253.936632000001
 31
0.0
  0
LINE
  5
4C45
  8
SUNPOU
  6
CONTINUOUS
 62
     4
 10
5138.878544000002
 20
20253.936632000001
 30
0.0
 11
5056.3785440000011
 21
20253.936632000001
 31
0.0
  0
LINE
  5
4C46
  8
SUNPOU
  6
CONTINUOUS
 62
     4
 10
8407.3785440000029
 20
20253.936632000001
 30
0.0
 11
5138.878544000002
 21
20253.936632000001
 31
0.0
  0
LINE
  5
4C47
  8
SUNPOU
  6
CONTINUOUS
 62
     4
 10
11315.378439
 20
20253.936632000001
 30
0.0
 11
8407.3785440000029
 21
20253.936632000001
 31
0.0
  0
LINE
  5
4C48
  8
SUNPOU
  6
CONTINUOUS
 62
     4
 10
14669.378438999989
 20
19783.931353
 30
0.0
 11
14669.378438999989
 21
20333.936632000001
 31
0.0
  0
LINE
  5
4C49
  8
SUNPOU
  6
CONTINUOUS
 62
     4
 10
14583.878438999989
 20
20253.936632000001
 30
0.0
 11
14343.878438999989
 21
20253.936632000001
 31
0.0
  0
LINE
  5
4C4A
  8
SUNPOU
  6
CONTINUOUS
 62
     4
 10
14666.378438999989
 20
20253.936632000001
 30
0.0
 11
14906.378438999989
 21
20253.936632000001
 31
0.0
  0
LINE
  5
4C4B
  8
SUNPOU
  6
CONTINUOUS
 62
     4
 10
14583.878438999989
 20
20253.936632000001
 30
0.0
 11
14666.378438999989
 21
20253.936632000001
 31
0.0
  0
LINE
  5
4C4C
  8
SUNPOU
  6
CONTINUOUS
 62
     4
 10
11315.378439
 20
20253.936632000001
 30
0.0
 11
14583.878438999989
 21
20253.936632000001
 31
0.0
  0
LINE
  5
4C4D
  8
SUNPOU
  6
CONTINUOUS
 62
     4
 10
26523.54755499995
 20
19073.935443999992
 30
0.0
 11
27573.54887499996
 21
19073.935443999992
 31
0.0
  0
LINE
  5
4C4E
  8
SUNPOU
  6
CONTINUOUS
 62
     4
 10
27373.54887499996
 20
19481.435443999992
 30
0.0
 11
27573.54887499996
 21
19481.435443999992
 31
0.0
  0
LINE
  5
4C4F
  8
SUNPOU
  6
CONTINUOUS
 62
     4
 10
27493.54887499996
 20
19073.935443999992
 30
0.0
 11
27493.54887499996
 21
19481.435443999992
 31
0.0
  0
LINE
  5
4C50
  8
2-0
  6
CONTINUOUS
 62
     3
 10
23090.04927099996
 20
13953.43544399999
 30
0.0
 11
23175.049270999949
 21
13953.43544399999
 31
0.0
  0
LINE
  5
4C51
  8
2-0
  6
CONTINUOUS
 62
     3
 10
23175.049270999949
 20
13953.43544399999
 30
0.0
 11
23175.049270999949
 21
14038.43544399999
 31
0.0
  0
LINE
  5
4C52
  8
2-0
  6
CONTINUOUS
 62
     3
 10
23175.049270999949
 20
14038.43544399999
 30
0.0
 11
23090.04927099996
 21
14038.43544399999
 31
0.0
  0
LINE
  5
4C53
  8
2-0
  6
CONTINUOUS
 62
     3
 10
23090.04927099996
 20
14038.43544399999
 30
0.0
 11
23090.04927099996
 21
13953.43544399999
 31
0.0
  0
LINE
  5
4C54
  8
2-0
  6
CONTINUOUS
 62
     3
 10
20590.043991999992
 20
13953.43544399999
 30
0.0
 11
20675.043991999992
 21
13953.43544399999
 31
0.0
  0
LINE
  5
4C55
  8
2-0
  6
CONTINUOUS
 62
     3
 10
20675.043991999992
 20
13953.43544399999
 30
0.0
 11
20675.043991999992
 21
14038.43544399999
 31
0.0
  0
LINE
  5
4C56
  8
2-0
  6
CONTINUOUS
 62
     3
 10
20675.043991999992
 20
14038.43544399999
 30
0.0
 11
20590.043991999992
 21
14038.43544399999
 31
0.0
  0
LINE
  5
4C57
  8
2-0
  6
CONTINUOUS
 62
     3
 10
20590.043991999992
 20
14038.43544399999
 30
0.0
 11
20590.043991999992
 21
13953.43544399999
 31
0.0
  0
LINE
  5
4C58
  8
SUNPOU
  6
CONTINUOUS
 62
     4
 10
26401.049270999949
 20
13290.17200999998
 30
0.0
 11
26401.049270999949
 21
12944.487359999979
 31
0.0
  0
LINE
  5
4C59
  8
SUNPOU
  6
CONTINUOUS
 62
     4
 10
26358.547027999961
 20
13873.438148999991
 30
0.0
 11
26358.547027999961
 21
12944.487359999979
 31
0.0
  0
LINE
  5
4C5A
  8
SUNPOU
  6
CONTINUOUS
 62
     4
 10
26401.049270999949
 20
13024.487359999979
 30
0.0
 11
26641.049270999949
 21
13024.487359999979
 31
0.0
  0
LINE
  5
4C5B
  8
SUNPOU
  6
CONTINUOUS
 62
     4
 10
26358.547027999961
 20
13024.487359999979
 30
0.0
 11
26118.547027999961
 21
13024.487359999979
 31
0.0
  0
LINE
  5
4C5C
  8
SUNPOU
  6
CONTINUOUS
 62
     4
 10
26401.049270999949
 20
13024.487359999979
 30
0.0
 11
26358.547027999961
 21
13024.487359999979
 31
0.0
  0
LINE
  5
4C5D
  8
SUNPOU
  6
CONTINUOUS
 62
     4
 10
17364.043991999992
 20
13290.17200999998
 30
0.0
 11
17364.043991999992
 21
12944.487359999979
 31
0.0
  0
LINE
  5
4C5E
  8
SUNPOU
  6
CONTINUOUS
 62
     4
 10
17406.546234999991
 20
13873.438148999991
 30
0.0
 11
17406.546234999991
 21
12944.487359999979
 31
0.0
  0
LINE
  5
4C5F
  8
SUNPOU
  6
CONTINUOUS
 62
     4
 10
17364.043991999992
 20
13024.487359999979
 30
0.0
 11
17124.043991999992
 21
13024.487359999979
 31
0.0
  0
LINE
  5
4C60
  8
SUNPOU
  6
CONTINUOUS
 62
     4
 10
17406.546234999991
 20
13024.487359999979
 30
0.0
 11
17646.54623499998
 21
13024.487359999979
 31
0.0
  0
LINE
  5
4C61
  8
SUNPOU
  6
CONTINUOUS
 62
     4
 10
17364.043991999992
 20
13024.487359999979
 30
0.0
 11
17406.546234999991
 21
13024.487359999979
 31
0.0
  0
LINE
  5
4C62
  8
SUNPOU
  6
CONTINUOUS
 62
     4
 10
17364.043991999992
 20
13290.17200999998
 30
0.0
 11
17364.043991999992
 21
12544.487359999979
 31
0.0
  0
LINE
  5
4C63
  8
SUNPOU
  6
CONTINUOUS
 62
     4
 10
26401.049270999949
 20
13290.17200999998
 30
0.0
 11
26401.049270999949
 21
12544.487359999979
 31
0.0
  0
LINE
  5
4C64
  8
SUNPOU
  6
CONTINUOUS
 62
     4
 10
17364.043991999992
 20
12624.487359999979
 30
0.0
 11
26401.049270999949
 21
12624.487359999979
 31
0.0
  0
LINE
  5
4C65
  8
SUNPOU
  6
CONTINUOUS
 62
     4
 10
26523.547554999961
 20
14753.93544399999
 30
0.0
 11
27573.54887499996
 21
14753.93544399999
 31
0.0
  0
LINE
  5
4C66
  8
SUNPOU
  6
CONTINUOUS
 62
     4
 10
27373.54887499996
 20
13995.935443999981
 30
0.0
 11
27573.54887499996
 21
13995.935443999981
 31
0.0
  0
LINE
  5
4C67
  8
SUNPOU
  6
CONTINUOUS
 62
     4
 10
27493.54887499996
 20
14753.93544399999
 30
0.0
 11
27493.54887499996
 21
13995.935443999981
 31
0.0
  0
LINE
  5
4C68
  8
SUNPOU
  6
CONTINUOUS
 62
     4
 10
26523.547554999961
 20
15455.175955500001
 30
0.0
 11
27573.54887499996
 21
15455.175955500001
 31
0.0
  0
LINE
  5
4C69
  8
SUNPOU
  6
CONTINUOUS
 62
     4
 10
26523.547554999961
 20
14753.93544399999
 30
0.0
 11
27573.54887499996
 21
14753.93544399999
 31
0.0
  0
LINE
  5
4C6A
  8
SUNPOU
  6
CONTINUOUS
 62
     4
 10
27493.54887499996
 20
15455.175955500001
 30
0.0
 11
27493.54887499996
 21
14753.93544399999
 31
0.0
  0
LINE
  5
4C6B
  8
SUNPOU
  6
CONTINUOUS
 62
     4
 10
26523.547554999961
 20
16155.93544399999
 30
0.0
 11
27573.54887499996
 21
16155.93544399999
 31
0.0
  0
LINE
  5
4C6C
  8
SUNPOU
  6
CONTINUOUS
 62
     4
 10
26523.547554999961
 20
15455.175955500001
 30
0.0
 11
27573.54887499996
 21
15455.175955500001
 31
0.0
  0
LINE
  5
4C6D
  8
SUNPOU
  6
CONTINUOUS
 62
     4
 10
27493.54887499996
 20
16155.93544399999
 30
0.0
 11
27493.54887499996
 21
15455.175955500001
 31
0.0
  0
LINE
  5
4C6E
  8
SUNPOU
  6
CONTINUOUS
 62
     4
 10
27373.54887499996
 20
16913.935443999992
 30
0.0
 11
27573.54887499996
 21
16913.935443999992
 31
0.0
  0
LINE
  5
4C6F
  8
SUNPOU
  6
CONTINUOUS
 62
     4
 10
26523.547554999961
 20
16155.93544399999
 30
0.0
 11
27573.54887499996
 21
16155.93544399999
 31
0.0
  0
LINE
  5
4C70
  8
SUNPOU
  6
CONTINUOUS
 62
     4
 10
27493.54887499996
 20
16913.935443999992
 30
0.0
 11
27493.54887499996
 21
16155.93544399999
 31
0.0
  0
LINE
  5
4C71
  8
SUNPOU
  6
CONTINUOUS
 62
     4
 10
26523.547554999961
 20
17671.935443999992
 30
0.0
 11
27573.54887499996
 21
17671.935443999992
 31
0.0
  0
LINE
  5
4C72
  8
SUNPOU
  6
CONTINUOUS
 62
     4
 10
27373.54887499996
 20
16913.935443999992
 30
0.0
 11
27573.54887499996
 21
16913.935443999992
 31
0.0
  0
LINE
  5
4C73
  8
SUNPOU
  6
CONTINUOUS
 62
     4
 10
27493.54887499996
 20
17671.935443999992
 30
0.0
 11
27493.54887499996
 21
16913.935443999992
 31
0.0
  0
LINE
  5
4C74
  8
SUNPOU
  6
CONTINUOUS
 62
     4
 10
26523.547554999961
 20
18372.935443999992
 30
0.0
 11
27573.54887499996
 21
18372.935443999992
 31
0.0
  0
LINE
  5
4C75
  8
SUNPOU
  6
CONTINUOUS
 62
     4
 10
26523.547554999961
 20
17671.935443999992
 30
0.0
 11
27573.54887499996
 21
17671.935443999992
 31
0.0
  0
LINE
  5
4C76
  8
SUNPOU
  6
CONTINUOUS
 62
     4
 10
27493.54887499996
 20
18372.935443999992
 30
0.0
 11
27493.54887499996
 21
17671.935443999992
 31
0.0
  0
LINE
  5
4C77
  8
SUNPOU
  6
CONTINUOUS
 62
     4
 10
26523.547554999961
 20
19073.935443999992
 30
0.0
 11
27573.54887499996
 21
19073.935443999992
 31
0.0
  0
LINE
  5
4C78
  8
SUNPOU
  6
CONTINUOUS
 62
     4
 10
26523.547554999961
 20
18372.935443999992
 30
0.0
 11
27573.54887499996
 21
18372.935443999992
 31
0.0
  0
LINE
  5
4C79
  8
SUNPOU
  6
CONTINUOUS
 62
     4
 10
27493.54887499996
 20
19073.935443999992
 30
0.0
 11
27493.54887499996
 21
18372.935443999992
 31
0.0
  0
LINE
  5
4C7A
  8
SUNPOU
  6
CONTINUOUS
 62
     4
 10
27373.54887499996
 20
16913.935443999992
 30
0.0
 11
27973.54887499996
 21
16913.935443999992
 31
0.0
  0
LINE
  5
4C7B
  8
SUNPOU
  6
CONTINUOUS
 62
     4
 10
27373.54887499996
 20
19481.435443999981
 30
0.0
 11
27973.54887499996
 21
19481.435443999981
 31
0.0
  0
LINE
  5
4C7C
  8
SUNPOU
  6
CONTINUOUS
 62
     4
 10
27893.54887499996
 20
16913.935443999992
 30
0.0
 11
27893.54887499996
 21
19481.435443999981
 31
0.0
  0
LINE
  5
4C7D
  8
SUNPOU
  6
CONTINUOUS
 62
     4
 10
27373.54887499996
 20
13995.935443999981
 30
0.0
 11
27973.54887499996
 21
13995.935443999981
 31
0.0
  0
LINE
  5
4C7E
  8
SUNPOU
  6
CONTINUOUS
 62
     4
 10
27373.54887499996
 20
16913.935443999992
 30
0.0
 11
27973.54887499996
 21
16913.935443999992
 31
0.0
  0
LINE
  5
4C7F
  8
SUNPOU
  6
CONTINUOUS
 62
     4
 10
27893.54887499996
 20
13995.935443999981
 30
0.0
 11
27893.54887499996
 21
16913.935443999992
 31
0.0
  0
LINE
  5
4C80
  8
SUNPOU
  6
CONTINUOUS
 62
     4
 10
26523.547554999961
 20
19523.932738999982
 30
0.0
 11
28373.54887499996
 21
19523.932738999982
 31
0.0
  0
LINE
  5
4C81
  8
SUNPOU
  6
CONTINUOUS
 62
     4
 10
26523.547554999961
 20
13953.438148999991
 30
0.0
 11
28373.54887499996
 21
13953.438148999991
 31
0.0
  0
LINE
  5
4C82
  8
SUNPOU
  6
CONTINUOUS
 62
     4
 10
28293.548874999949
 20
19523.932738999982
 30
0.0
 11
28293.548874999949
 21
13953.438148999991
 31
0.0
  0
LINE
  5
4C83
  8
SUNPOU
  6
CONTINUOUS
 62
     4
 10
27373.54887499996
 20
19481.435443999981
 30
0.0
 11
27973.54887499996
 21
19481.435443999981
 31
0.0
  0
LINE
  5
4C84
  8
SUNPOU
  6
CONTINUOUS
 62
     4
 10
26523.547554999961
 20
19523.932738999982
 30
0.0
 11
27973.54887499996
 21
19523.932738999982
 31
0.0
  0
LINE
  5
4C85
  8
SUNPOU
  6
CONTINUOUS
 62
     4
 10
27893.54887499996
 20
19481.435443999981
 30
0.0
 11
27893.54887499996
 21
19241.435443999981
 31
0.0
  0
LINE
  5
4C86
  8
SUNPOU
  6
CONTINUOUS
 62
     4
 10
27893.54887499996
 20
19523.932738999982
 30
0.0
 11
27893.54887499996
 21
19763.932738999989
 31
0.0
  0
LINE
  5
4C87
  8
SUNPOU
  6
CONTINUOUS
 62
     4
 10
27893.54887499996
 20
19481.435443999981
 30
0.0
 11
27893.54887499996
 21
19523.932738999982
 31
0.0
  0
LINE
  5
4C88
  8
SUNPOU
  6
CONTINUOUS
 62
     4
 10
27373.54887499996
 20
13995.935443999981
 30
0.0
 11
27973.54887499996
 21
13995.935443999981
 31
0.0
  0
LINE
  5
4C89
  8
SUNPOU
  6
CONTINUOUS
 62
     4
 10
26523.547554999961
 20
13953.438148999991
 30
0.0
 11
27973.54887499996
 21
13953.438148999991
 31
0.0
  0
LINE
  5
4C8A
  8
SUNPOU
  6
CONTINUOUS
 62
     4
 10
27893.54887499996
 20
13995.935443999981
 30
0.0
 11
27893.54887499996
 21
14235.93544399999
 31
0.0
  0
LINE
  5
4C8B
  8
SUNPOU
  6
CONTINUOUS
 62
     4
 10
27893.54887499996
 20
13953.438148999991
 30
0.0
 11
27893.54887499996
 21
13713.438148999991
 31
0.0
  0
LINE
  5
4C8C
  8
SUNPOU
  6
CONTINUOUS
 62
     4
 10
27893.54887499996
 20
13995.935443999981
 30
0.0
 11
27893.54887499996
 21
13953.438148999991
 31
0.0
  0
LINE
  5
4C8D
  8
SUNPOU
  6
CONTINUOUS
 62
     4
 10
20632.544981499999
 20
19603.933729
 30
0.0
 11
20632.544981499999
 21
20333.936632000001
 31
0.0
  0
LINE
  5
4C8E
  8
SUNPOU
  6
CONTINUOUS
 62
     4
 10
23132.54927099996
 20
19603.933729
 30
0.0
 11
23132.54927099996
 21
20333.936632000001
 31
0.0
  0
LINE
  5
4C8F
  8
SUNPOU
  6
CONTINUOUS
 62
     4
 10
20632.544981499999
 20
20253.936632000001
 30
0.0
 11
23132.54927099996
 21
20253.936632000001
 31
0.0
  0
LINE
  5
4C90
  8
SUNPOU
  6
CONTINUOUS
 62
     4
 10
23132.54927099996
 20
19603.933729
 30
0.0
 11
23132.54927099996
 21
20333.936632000001
 31
0.0
  0
LINE
  5
4C91
  8
SUNPOU
  6
CONTINUOUS
 62
     4
 10
23540.04927099996
 20
19603.933729
 30
0.0
 11
23540.04927099996
 21
20333.936632000001
 31
0.0
  0
LINE
  5
4C92
  8
SUNPOU
  6
CONTINUOUS
 62
     4
 10
23132.54927099996
 20
20253.936632000001
 30
0.0
 11
23540.04927099996
 21
20253.936632000001
 31
0.0
  0
LINE
  5
4C93
  8
SUNPOU
  6
CONTINUOUS
 62
     4
 10
25643.04927099996
 20
19603.933729
 30
0.0
 11
25643.04927099996
 21
20333.936632000001
 31
0.0
  0
LINE
  5
4C94
  8
SUNPOU
  6
CONTINUOUS
 62
     4
 10
26401.05026049996
 20
19603.933729
 30
0.0
 11
26401.05026049996
 21
20333.936632000001
 31
0.0
  0
LINE
  5
4C95
  8
SUNPOU
  6
CONTINUOUS
 62
     4
 10
25643.04927099996
 20
20253.936632000001
 30
0.0
 11
26401.05026049996
 21
20253.936632000001
 31
0.0
  0
LINE
  5
4C96
  8
SUNPOU
  6
CONTINUOUS
 62
     4
 10
24942.04927099996
 20
19603.933729
 30
0.0
 11
24942.04927099996
 21
20333.936632000001
 31
0.0
  0
LINE
  5
4C97
  8
SUNPOU
  6
CONTINUOUS
 62
     4
 10
25643.04927099996
 20
19603.933729
 30
0.0
 11
25643.04927099996
 21
20333.936632000001
 31
0.0
  0
LINE
  5
4C98
  8
SUNPOU
  6
CONTINUOUS
 62
     4
 10
24942.04927099996
 20
20253.936632000001
 30
0.0
 11
25643.04927099996
 21
20253.936632000001
 31
0.0
  0
LINE
  5
4C99
  8
SUNPOU
  6
CONTINUOUS
 62
     4
 10
24241.049270999971
 20
19603.933729
 30
0.0
 11
24241.049270999971
 21
20333.936632000001
 31
0.0
  0
LINE
  5
4C9A
  8
SUNPOU
  6
CONTINUOUS
 62
     4
 10
24942.04927099996
 20
19603.933729
 30
0.0
 11
24942.04927099996
 21
20333.936632000001
 31
0.0
  0
LINE
  5
4C9B
  8
SUNPOU
  6
CONTINUOUS
 62
     4
 10
24241.049270999971
 20
20253.936632000001
 30
0.0
 11
24942.04927099996
 21
20253.936632000001
 31
0.0
  0
LINE
  5
4C9C
  8
SUNPOU
  6
CONTINUOUS
 62
     4
 10
23540.04927099996
 20
19603.933729
 30
0.0
 11
23540.04927099996
 21
20333.936632000001
 31
0.0
  0
LINE
  5
4C9D
  8
SUNPOU
  6
CONTINUOUS
 62
     4
 10
24241.049270999971
 20
19603.933729
 30
0.0
 11
24241.049270999971
 21
20333.936632000001
 31
0.0
  0
LINE
  5
4C9E
  8
SUNPOU
  6
CONTINUOUS
 62
     4
 10
23540.04927099996
 20
20253.936632000001
 30
0.0
 11
24241.049270999971
 21
20253.936632000001
 31
0.0
  0
LINE
  5
4C9F
  8
SUNPOU
  6
CONTINUOUS
 62
     4
 10
26401.049270999949
 20
19603.933729
 30
0.0
 11
26401.049270999949
 21
20333.936632000001
 31
0.0
  0
LINE
  5
4CA0
  8
SUNPOU
  6
CONTINUOUS
 62
     4
 10
26443.54557599996
 20
19603.933729
 30
0.0
 11
26443.54557599996
 21
20333.936632000001
 31
0.0
  0
LINE
  5
4CA1
  8
SUNPOU
  6
CONTINUOUS
 62
     4
 10
26401.049270999949
 20
20253.936632000001
 30
0.0
 11
26161.04927099996
 21
20253.936632000001
 31
0.0
  0
LINE
  5
4CA2
  8
SUNPOU
  6
CONTINUOUS
 62
     4
 10
26443.54557599996
 20
20253.936632000001
 30
0.0
 11
26683.54557599996
 21
20253.936632000001
 31
0.0
  0
LINE
  5
4CA3
  8
SUNPOU
  6
CONTINUOUS
 62
     4
 10
26401.049270999949
 20
20253.936632000001
 30
0.0
 11
26443.54557599996
 21
20253.936632000001
 31
0.0
  0
LINE
  5
4CA4
  8
SUNPOU
  6
CONTINUOUS
 62
     4
 10
17364.043991999992
 20
19603.933729
 30
0.0
 11
17364.043991999992
 21
20333.936632000001
 31
0.0
  0
LINE
  5
4CA5
  8
SUNPOU
  6
CONTINUOUS
 62
     4
 10
17771.543991999992
 20
19603.933729
 30
0.0
 11
17771.543991999992
 21
20333.936632000001
 31
0.0
  0
LINE
  5
4CA6
  8
SUNPOU
  6
CONTINUOUS
 62
     4
 10
17364.043991999992
 20
20253.936632000001
 30
0.0
 11
17771.543991999992
 21
20253.936632000001
 31
0.0
  0
LINE
  5
4CA7
  8
SUNPOU
  6
CONTINUOUS
 62
     4
 10
17364.043991999992
 20
19603.933729
 30
0.0
 11
17364.043991999992
 21
20333.936632000001
 31
0.0
  0
LINE
  5
4CA8
  8
SUNPOU
  6
CONTINUOUS
 62
     4
 10
17321.547686999991
 20
19603.933729
 30
0.0
 11
17321.547686999991
 21
20333.936632000001
 31
0.0
  0
LINE
  5
4CA9
  8
SUNPOU
  6
CONTINUOUS
 62
     4
 10
17364.043991999992
 20
20253.936632000001
 30
0.0
 11
17604.043991999992
 21
20253.936632000001
 31
0.0
  0
LINE
  5
4CAA
  8
SUNPOU
  6
CONTINUOUS
 62
     4
 10
17321.547686999991
 20
20253.936632000001
 30
0.0
 11
17081.547686999991
 21
20253.936632000001
 31
0.0
  0
LINE
  5
4CAB
  8
SUNPOU
  6
CONTINUOUS
 62
     4
 10
17364.043991999992
 20
20253.936632000001
 30
0.0
 11
17321.547686999991
 21
20253.936632000001
 31
0.0
  0
LINE
  5
4CAC
  8
SUNPOU
  6
CONTINUOUS
 62
     4
 10
19874.543991999992
 20
19603.933729
 30
0.0
 11
19874.543991999992
 21
20333.936632000001
 31
0.0
  0
LINE
  5
4CAD
  8
SUNPOU
  6
CONTINUOUS
 62
     4
 10
20632.544981499999
 20
19603.933729
 30
0.0
 11
20632.544981499999
 21
20333.936632000001
 31
0.0
  0
LINE
  5
4CAE
  8
SUNPOU
  6
CONTINUOUS
 62
     4
 10
19874.543991999992
 20
20253.936632000001
 30
0.0
 11
20632.544981499999
 21
20253.936632000001
 31
0.0
  0
LINE
  5
4CAF
  8
SUNPOU
  6
CONTINUOUS
 62
     4
 10
19173.543991999992
 20
19603.933729
 30
0.0
 11
19173.543991999992
 21
20333.936632000001
 31
0.0
  0
LINE
  5
4CB0
  8
SUNPOU
  6
CONTINUOUS
 62
     4
 10
19874.543991999992
 20
19603.933729
 30
0.0
 11
19874.543991999992
 21
20333.936632000001
 31
0.0
  0
LINE
  5
4CB1
  8
SUNPOU
  6
CONTINUOUS
 62
     4
 10
19173.543991999992
 20
20253.936632000001
 30
0.0
 11
19874.543991999992
 21
20253.936632000001
 31
0.0
  0
LINE
  5
4CB2
  8
SUNPOU
  6
CONTINUOUS
 62
     4
 10
18472.543991999992
 20
19603.933729
 30
0.0
 11
18472.543991999992
 21
20333.936632000001
 31
0.0
  0
LINE
  5
4CB3
  8
SUNPOU
  6
CONTINUOUS
 62
     4
 10
19173.543991999992
 20
19603.933729
 30
0.0
 11
19173.543991999992
 21
20333.936632000001
 31
0.0
  0
LINE
  5
4CB4
  8
SUNPOU
  6
CONTINUOUS
 62
     4
 10
18472.543991999992
 20
20253.936632000001
 30
0.0
 11
19173.543991999992
 21
20253.936632000001
 31
0.0
  0
LINE
  5
4CB5
  8
SUNPOU
  6
CONTINUOUS
 62
     4
 10
17771.543991999992
 20
19603.933729
 30
0.0
 11
17771.543991999992
 21
20333.936632000001
 31
0.0
  0
LINE
  5
4CB6
  8
SUNPOU
  6
CONTINUOUS
 62
     4
 10
18472.543991999992
 20
19603.933729
 30
0.0
 11
18472.543991999992
 21
20333.936632000001
 31
0.0
  0
LINE
  5
4CB7
  8
SUNPOU
  6
CONTINUOUS
 62
     4
 10
17771.543991999992
 20
20253.936632000001
 30
0.0
 11
18472.543991999992
 21
20253.936632000001
 31
0.0
  0
LINE
  5
4CB8
  8
SUNPOU
  6
CONTINUOUS
 62
     4
 10
17234.043333000001
 20
5884.5023850000016
 30
0.0
 11
16434.04465199999
 21
5884.5023850000016
 31
0.0
  0
LINE
  5
4CB9
  8
SUNPOU
  6
CONTINUOUS
 62
     4
 10
17234.043333000001
 20
7776.0023850000016
 30
0.0
 11
16434.04465199999
 21
7776.0023850000016
 31
0.0
  0
LINE
  5
4CBA
  8
SUNPOU
  6
CONTINUOUS
 62
     4
 10
16514.04465199999
 20
5884.5023850000016
 30
0.0
 11
16514.04465199999
 21
7776.0023850000016
 31
0.0
  0
LINE
  5
4CBB
  8
SUNPOU
  6
CONTINUOUS
 62
     4
 10
17234.043333000001
 20
5884.5023850000016
 30
0.0
 11
16034.04234299999
 21
5884.5023850000016
 31
0.0
  0
LINE
  5
4CBC
  8
SUNPOU
  6
CONTINUOUS
 62
     4
 10
17201.543596999982
 20
8233.0018899999941
 30
0.0
 11
16034.04234299999
 21
8233.0018899999941
 31
0.0
  0
LINE
  5
4CBD
  8
SUNPOU
  6
CONTINUOUS
 62
     4
 10
16114.04234299999
 20
5884.5023850000016
 30
0.0
 11
16114.04234299999
 21
8233.0018899999941
 31
0.0
  0
LINE
  5
4CCE
  8
SUNPOU
  6
CONTINUOUS
 62
     4
 10
17458.043991999992
 20
5704.5025500000083
 30
0.0
 11
17458.043991999992
 21
4904.5025500000093
 31
0.0
  0
LINE
  5
4CCF
  8
SUNPOU
  6
CONTINUOUS
 62
     4
 10
20538.543991999992
 20
5704.5025500000083
 30
0.0
 11
20538.543991999992
 21
4904.5025500000093
 31
0.0
  0
LINE
  5
4CD0
  8
SUNPOU
  6
CONTINUOUS
 62
     4
 10
17458.043991999992
 20
4984.5025500000093
 30
0.0
 11
20538.543991999992
 21
4984.5025500000093
 31
0.0
  0
LINE
  5
4CD1
  8
SUNPOU
  6
CONTINUOUS
 62
     4
 10
23226.549270999949
 20
5704.5025500000083
 30
0.0
 11
23226.549270999949
 21
4904.5025500000093
 31
0.0
  0
LINE
  5
4CD2
  8
SUNPOU
  6
CONTINUOUS
 62
     4
 10
26307.04927099996
 20
5704.5025500000083
 30
0.0
 11
26307.04927099996
 21
4904.5025500000093
 31
0.0
  0
LINE
  5
4CD3
  8
SUNPOU
  6
CONTINUOUS
 62
     4
 10
23226.549270999949
 20
4984.5025500000093
 30
0.0
 11
26307.04927099996
 21
4984.5025500000093
 31
0.0
  0
LINE
  5
4CD4
  8
SUNPOU
  6
CONTINUOUS
 62
     4
 10
23132.54927099996
 20
5441.8501270000033
 30
0.0
 11
23132.54927099996
 21
4504.5025500000047
 31
0.0
  0
LINE
  5
4CD5
  8
SUNPOU
  6
CONTINUOUS
 62
     4
 10
26401.049270999949
 20
5441.8501270000033
 30
0.0
 11
26401.049270999949
 21
4504.5025500000047
 31
0.0
  0
LINE
  5
4CD6
  8
SUNPOU
  6
CONTINUOUS
 62
     4
 10
23132.54927099996
 20
4584.5025500000056
 30
0.0
 11
26401.049270999949
 21
4584.5025500000056
 31
0.0
  0
LINE
  5
4CD7
  8
SUNPOU
  6
CONTINUOUS
 62
     4
 10
20632.543991999992
 20
5441.8501270000033
 30
0.0
 11
20632.543991999992
 21
4504.5025500000047
 31
0.0
  0
LINE
  5
4CD8
  8
SUNPOU
  6
CONTINUOUS
 62
     4
 10
23132.54927099996
 20
5441.8501270000033
 30
0.0
 11
23132.54927099996
 21
4504.5025500000047
 31
0.0
  0
LINE
  5
4CD9
  8
SUNPOU
  6
CONTINUOUS
 62
     4
 10
20632.543991999992
 20
4584.5025500000056
 30
0.0
 11
23132.54927099996
 21
4584.5025500000056
 31
0.0
  0
LINE
  5
4CDA
  8
SUNPOU
  6
CONTINUOUS
 62
     4
 10
17364.043991999992
 20
5441.8501270000033
 30
0.0
 11
17364.043991999992
 21
4504.5025500000047
 31
0.0
  0
LINE
  5
4CDB
  8
SUNPOU
  6
CONTINUOUS
 62
     4
 10
20632.543991999992
 20
5441.8501270000033
 30
0.0
 11
20632.543991999992
 21
4504.5025500000047
 31
0.0
  0
LINE
  5
4CDC
  8
SUNPOU
  6
CONTINUOUS
 62
     4
 10
17364.043991999992
 20
4584.5025500000056
 30
0.0
 11
20632.543991999992
 21
4584.5025500000056
 31
0.0
  0
LINE
  5
4CDD
  8
SUNPOU
  6
CONTINUOUS
 62
     4
 10
26401.05322999998
 20
5441.8501270000033
 30
0.0
 11
26401.05322999998
 21
4504.5025500000047
 31
0.0
  0
LINE
  5
4CDE
  8
SUNPOU
  6
CONTINUOUS
 62
     4
 10
26443.553229999969
 20
5704.5025500000083
 30
0.0
 11
26443.553229999969
 21
4504.5025500000047
 31
0.0
  0
LINE
  5
4CDF
  8
SUNPOU
  6
CONTINUOUS
 62
     4
 10
26401.05322999998
 20
4584.5025500000056
 30
0.0
 11
26161.053229999961
 21
4584.5025500000056
 31
0.0
  0
LINE
  5
4CE0
  8
SUNPOU
  6
CONTINUOUS
 62
     4
 10
26443.553229999969
 20
4584.5025500000056
 30
0.0
 11
26683.553229999969
 21
4584.5025500000056
 31
0.0
  0
LINE
  5
4CE1
  8
SUNPOU
  6
CONTINUOUS
 62
     4
 10
26401.05322999998
 20
4584.5025500000056
 30
0.0
 11
26443.553229999969
 21
4584.5025500000056
 31
0.0
  0
LINE
  5
4CE2
  8
SUNPOU
  6
CONTINUOUS
 62
     4
 10
17364.043991999992
 20
5441.8501270000033
 30
0.0
 11
17364.043991999992
 21
4504.5025500000047
 31
0.0
  0
LINE
  5
4CE3
  8
SUNPOU
  6
CONTINUOUS
 62
     4
 10
17321.543991999992
 20
5704.5025500000083
 30
0.0
 11
17321.543991999992
 21
4504.5025500000047
 31
0.0
  0
LINE
  5
4CE4
  8
SUNPOU
  6
CONTINUOUS
 62
     4
 10
17364.043991999992
 20
4584.5025500000056
 30
0.0
 11
17604.043991999992
 21
4584.5025500000056
 31
0.0
  0
LINE
  5
4CE5
  8
SUNPOU
  6
CONTINUOUS
 62
     4
 10
17321.543991999992
 20
4584.5025500000056
 30
0.0
 11
17081.543991999992
 21
4584.5025500000056
 31
0.0
  0
LINE
  5
4CE6
  8
SUNPOU
  6
CONTINUOUS
 62
     4
 10
17364.043991999992
 20
4584.5025500000056
 30
0.0
 11
17321.543991999992
 21
4584.5025500000056
 31
0.0
  0
LINE
  5
4CE7
  8
SUNPOU
  6
CONTINUOUS
 62
     4
 10
17321.543991999992
 20
5704.5025500000083
 30
0.0
 11
17321.543991999992
 21
4104.5027150000033
 31
0.0
  0
LINE
  5
4CE8
  8
SUNPOU
  6
CONTINUOUS
 62
     4
 10
26443.54927099996
 20
5704.5025500000083
 30
0.0
 11
26443.54927099996
 21
4104.5027150000033
 31
0.0
  0
LINE
  5
4CE9
  8
SUNPOU
  6
CONTINUOUS
 62
     4
 10
17321.543991999992
 20
4184.5027150000033
 30
0.0
 11
26443.54927099996
 21
4184.5027150000033
 31
0.0
  0
LINE
  5
4CEA
  8
SUNPOU
  6
CONTINUOUS
 62
     4
 10
6656.1481469999999
 20
7991.688655683809
 30
0.0
 11
6656.1481469999999
 21
9112.5045560000017
 31
0.0
  0
LINE
  5
4CEB
  8
SUNPOU
  6
CONTINUOUS
 62
     4
 10
6476.1481469999999
 20
8121.5028800000064
 30
0.0
 11
6476.1481469999999
 21
9112.5045560000017
 31
0.0
  0
LINE
  5
4CEC
  8
SUNPOU
  6
CONTINUOUS
 62
     4
 10
6656.1481469999999
 20
9032.5045560000017
 30
0.0
 11
6476.1481469999999
 21
9032.5045560000017
 31
0.0
  0
LINE
  5
4CED
  8
SUNPOU
  6
CONTINUOUS
 62
     4
 10
12319.148147
 20
5884.5028800000018
 30
0.0
 11
13396.64656299998
 21
5884.5028800000018
 31
0.0
  0
LINE
  5
4CEE
  8
SUNPOU
  6
CONTINUOUS
 62
     4
 10
12411.45342659937
 20
8233.0028800000018
 30
0.0
 11
13396.64656299998
 21
8233.0028800000018
 31
0.0
  0
LINE
  5
4CEF
  8
SUNPOU
  6
CONTINUOUS
 62
     4
 10
13316.64656299998
 20
5884.5028800000018
 30
0.0
 11
13316.64656299998
 21
8233.0028800000018
 31
0.0
  0
LINE
  5
4CF0
  8
SUNPOU
  6
CONTINUOUS
 62
     4
 10
6568.6481470000008
 20
5884.5028800000018
 30
0.0
 11
5486.1497290000079
 21
5884.5028800000018
 31
0.0
  0
LINE
  5
4CF1
  8
SUNPOU
  6
CONTINUOUS
 62
     4
 10
6396.1501250000038
 20
8040.5028800000027
 30
0.0
 11
5486.1497290000079
 21
8040.5028800000073
 31
0.0
  0
LINE
  5
4CF2
  8
SUNPOU
  6
CONTINUOUS
 62
     4
 10
5566.149729000007
 20
5884.5028800000018
 30
0.0
 11
5566.1497290000088
 21
8040.5028800000073
 31
0.0
  0
LINE
  5
4CF3
  8
SUNPOU
  6
CONTINUOUS
 62
     4
 10
6476.1481469999999
 20
8121.5028800000064
 30
0.0
 11
6476.1481469999999
 21
9512.5029059999997
 31
0.0
  0
LINE
  5
4CF4
  8
SUNPOU
  6
CONTINUOUS
 62
     4
 10
12376.648147
 20
8253.3927034124335
 30
0.0
 11
12376.648147
 21
9512.5029059999997
 31
0.0
  0
LINE
  5
4CF5
  8
SUNPOU
  6
CONTINUOUS
 62
     4
 10
6476.1481469999999
 20
9432.5029060000015
 30
0.0
 11
12376.648147
 21
9432.5029060000015
 31
0.0
  0
LINE
  5
4CF6
  8
SUNPOU
  6
CONTINUOUS
 62
     4
 10
12226.648147
 20
8179.4129440000024
 30
0.0
 11
12226.648147
 21
9112.5045560000017
 31
0.0
  0
LINE
  5
4CF7
  8
SUNPOU
  6
CONTINUOUS
 62
     4
 10
12376.648147
 20
8253.3927034124335
 30
0.0
 11
12376.648147
 21
9112.5045560000017
 31
0.0
  0
LINE
  5
4CF8
  8
SUNPOU
  6
CONTINUOUS
 62
     4
 10
12226.648147
 20
9032.5045560000017
 30
0.0
 11
11986.648147
 21
9032.5045560000017
 31
0.0
  0
LINE
  5
4CF9
  8
SUNPOU
  6
CONTINUOUS
 62
     4
 10
12376.648147
 20
9032.5045560000017
 30
0.0
 11
12616.648147
 21
9032.5045560000017
 31
0.0
  0
LINE
  5
4CFA
  8
SUNPOU
  6
CONTINUOUS
 62
     4
 10
12226.648147
 20
9032.5045560000017
 30
0.0
 11
12376.648147
 21
9032.5045560000017
 31
0.0
  0
LINE
  5
4CFB
  8
SUNPOU
  6
CONTINUOUS
 62
     4
 10
6656.1481469999999
 20
7991.688655683809
 30
0.0
 11
6656.1481469999999
 21
9112.5045560000017
 31
0.0
  0
LINE
  5
4CFC
  8
SUNPOU
  6
CONTINUOUS
 62
     4
 10
12226.648147
 20
8179.4129440000024
 30
0.0
 11
12226.648147
 21
9112.5045560000017
 31
0.0
  0
LINE
  5
4CFD
  8
SUNPOU
  6
CONTINUOUS
 62
     4
 10
6656.1481469999999
 20
9032.5045560000017
 30
0.0
 11
12226.648147
 21
9032.5045560000017
 31
0.0
  0
LINE
  5
4CFE
  8
SUNPOU
  6
CONTINUOUS
 62
     4
 10
6656.1481469999999
 20
5804.5028800000036
 30
0.0
 11
6656.1481469999999
 21
4104.5032100000062
 31
0.0
  0
LINE
  5
4CFF
  8
SUNPOU
  6
CONTINUOUS
 62
     4
 10
12226.648147
 20
5804.5028800000036
 30
0.0
 11
12226.648147
 21
4104.5032100000062
 31
0.0
  0
LINE
  5
4D00
  8
SUNPOU
  6
CONTINUOUS
 62
     4
 10
6656.1481469999999
 20
4184.5032100000053
 30
0.0
 11
12226.648147
 21
4184.5032100000053
 31
0.0
  0
LINE
  5
4D01
  8
SUNPOU
  6
CONTINUOUS
 62
     4
 10
12184.148147
 20
5441.8506220000036
 30
0.0
 11
12184.148147
 21
4504.5030450000031
 31
0.0
  0
LINE
  5
4D02
  8
SUNPOU
  6
CONTINUOUS
 62
     4
 10
12226.648147
 20
5804.5028800000036
 30
0.0
 11
12226.648147
 21
4504.5030450000031
 31
0.0
  0
LINE
  5
4D03
  8
SUNPOU
  6
CONTINUOUS
 62
     4
 10
12184.148147
 20
4584.5030450000031
 30
0.0
 11
11944.148146999991
 21
4584.5030450000031
 31
0.0
  0
LINE
  5
4D04
  8
SUNPOU
  6
CONTINUOUS
 62
     4
 10
12226.648147
 20
4584.5030450000031
 30
0.0
 11
12466.648147
 21
4584.5030450000031
 31
0.0
  0
LINE
  5
4D05
  8
SUNPOU
  6
CONTINUOUS
 62
     4
 10
12184.148147
 20
4584.5030450000031
 30
0.0
 11
12226.648147
 21
4584.5030450000031
 31
0.0
  0
LINE
  5
4D06
  8
SUNPOU
  6
CONTINUOUS
 62
     4
 10
6698.6481469999999
 20
5441.8506220000036
 30
0.0
 11
6698.6481469999999
 21
4504.5030450000031
 31
0.0
  0
LINE
  5
4D07
  8
SUNPOU
  6
CONTINUOUS
 62
     4
 10
6656.1481469999999
 20
5804.5028800000036
 30
0.0
 11
6656.1481469999999
 21
4504.5030450000031
 31
0.0
  0
LINE
  5
4D08
  8
SUNPOU
  6
CONTINUOUS
 62
     4
 10
6698.6481469999999
 20
4584.5030450000031
 30
0.0
 11
6938.6481470000008
 21
4584.5030450000031
 31
0.0
  0
LINE
  5
4D09
  8
SUNPOU
  6
CONTINUOUS
 62
     4
 10
6656.1481469999999
 20
4584.5030450000031
 30
0.0
 11
6416.1481469999999
 21
4584.5030450000031
 31
0.0
  0
LINE
  5
4D0A
  8
SUNPOU
  6
CONTINUOUS
 62
     4
 10
6698.6481469999999
 20
4584.5030450000031
 30
0.0
 11
6656.1481469999999
 21
4584.5030450000031
 31
0.0
  0
LINE
  5
4D0B
  8
SUNPOU
  6
CONTINUOUS
 62
     4
 10
9266.1481469999999
 20
5441.8506220000036
 30
0.0
 11
9266.1481469999999
 21
4504.5030450000031
 31
0.0
  0
LINE
  5
4D0C
  8
SUNPOU
  6
CONTINUOUS
 62
     4
 10
6698.6481469999999
 20
5441.8506220000036
 30
0.0
 11
6698.6481469999999
 21
4504.5030450000031
 31
0.0
  0
LINE
  5
4D0D
  8
SUNPOU
  6
CONTINUOUS
 62
     4
 10
9266.1481469999999
 20
4584.5030450000031
 30
0.0
 11
6698.6481469999999
 21
4584.5030450000031
 31
0.0
  0
LINE
  5
4D0E
  8
SUNPOU
  6
CONTINUOUS
 62
     4
 10
9266.1481469999999
 20
5441.8506220000036
 30
0.0
 11
9266.1481469999999
 21
4504.5030450000031
 31
0.0
  0
LINE
  5
4D0F
  8
SUNPOU
  6
CONTINUOUS
 62
     4
 10
12184.148147
 20
5441.8506220000036
 30
0.0
 11
12184.148147
 21
4504.5030450000031
 31
0.0
  0
LINE
  5
4D10
  8
SUNPOU
  6
CONTINUOUS
 62
     4
 10
9266.1481469999999
 20
4584.5030450000031
 30
0.0
 11
12184.148147
 21
4584.5030450000031
 31
0.0
  0
LINE
  5
4D11
  8
0
  6
CONTINUOUS
 10
27320.61169951249
 20
4013.2342825977748
 30
0.0
 11
32662.906701964599
 21
4013.2342825977748
 31
0.0
  0
LINE
  5
4D12
  8
0
  6
CONTINUOUS
 10
32662.906701964599
 20
4013.2342825977748
 30
0.0
 11
32662.906701964599
 21
2658.9883116968108
 31
0.0
  0
LINE
  5
4D13
  8
0
  6
CONTINUOUS
 10
32662.906701964599
 20
2658.9883116968108
 30
0.0
 11
27320.61169951249
 21
2658.9883116968108
 31
0.0
  0
LINE
  5
4D14
  8
0
  6
CONTINUOUS
 10
27320.61169951249
 20
2658.9883116968108
 30
0.0
 11
27320.61169951249
 21
4013.2342825977748
 31
0.0
  0
TEXT
  5
4D15
  8
0
  6
CONTINUOUS
 62
     7
 10
10458.48148033333
 20
4664.5030450000022
 30
0.0
 40
160.0
  1
2918
  0
TEXT
  5
4D16
  8
0
  6
CONTINUOUS
 62
     7
 10
7582.3981470000008
 20
4664.5030450000022
 30
0.0
 40
160.0
  1
2567.5
  0
TEXT
  5
4D17
  8
0
  6
CONTINUOUS
 62
     7
 10
6058.974437903692
 20
4664.5030450000022
 30
0.0
 40
160.0
  1
42.5
  0
TEXT
  5
4D18
  8
0
  6
CONTINUOUS
 62
     7
 10
12364.96678430982
 20
4664.5030450000022
 30
0.0
 40
160.0
  1
42.5
  0
TEXT
  5
4D19
  8
0
  6
CONTINUOUS
 62
     7
 10
9054.731480333332
 20
4264.5032100000053
 30
0.0
 40
160.0
  1
5570.5
  0
TEXT
  5
4D1A
  8
0
  6
CONTINUOUS
 62
     7
 10
9054.731480333332
 20
9112.5045560000017
 30
0.0
 40
160.0
  1
5570.5
  0
TEXT
  5
4D1B
  8
0
  6
CONTINUOUS
 62
     7
 10
12443.31481366666
 20
9112.5045560000017
 30
0.0
 40
160.0
  1
150
  0
TEXT
  5
4D1C
  8
0
  6
CONTINUOUS
 62
     7
 10
9053.0648136666623
 20
9512.5029059999997
 30
0.0
 40
160.0
  1
5900.5
  0
TEXT
  5
4D1D
  8
0
  6
CONTINUOUS
 62
     7
 10
5486.1497290000061
 20
6183.8362133333367
 30
0.0
 40
160.0
  1
2156（2396）
 50
90.0
  0
TEXT
  5
4D1E
  8
0
  6
CONTINUOUS
 62
     7
 10
13236.64656299998
 20
6040.0862133333376
 30
0.0
 40
160.0
  1
2348.5（2588.5）
 50
90.0
  0
TEXT
  5
4D1F
  8
0
  6
CONTINUOUS
 62
     7
 10
6015.1947763486342
 20
9112.5045560000017
 30
0.0
 40
160.0
  1
180
  0
TEXT
  5
4D20
  8
0
  6
CONTINUOUS
 62
     7
 10
20842.546631499961
 20
4264.5027150000033
 30
0.0
 40
160.0
  1
3268.5 \U+00D7 ｎ ＋ 85
  0
TEXT
  5
4D21
  8
0
  6
CONTINUOUS
 62
     7
 10
16755.505001741141
 20
4664.5025500000074
 30
0.0
 40
160.0
  1
42.5
  0
TEXT
  5
4D22
  8
0
  6
CONTINUOUS
 62
     7
 10
26529.592220258819
 20
4664.5025500000074
 30
0.0
 40
160.0
  1
42.5
  0
TEXT
  5
4D23
  8
0
  6
CONTINUOUS
 62
     7
 10
18598.293991999992
 20
4664.5025500000074
 30
0.0
 40
160.0
  1
3268.5
  0
TEXT
  5
4D24
  8
0
  6
CONTINUOUS
 62
     7
 10
20778.546631499968
 20
4664.5025500000074
 30
0.0
 40
160.0
  1
3268.5 \U+00D7（ｎ － 2）
  0
TEXT
  5
4D25
  8
0
  6
CONTINUOUS
 62
     7
 10
24366.799270999971
 20
4664.5025500000074
 30
0.0
 40
160.0
  1
3268.5
  0
TEXT
  5
4D26
  8
0
  6
CONTINUOUS
 62
     7
 10
23865.465937666631
 20
5064.5025500000102
 30
0.0
 40
160.0
  1
有効開口巾 3080.5
  0
TEXT
  5
4D27
  8
0
  6
CONTINUOUS
 62
     7
 10
18096.96065866666
 20
5064.5025500000102
 30
0.0
 40
160.0
  1
有効開口巾 3080.5
  0
TEXT
  5
4D2C
  8
0
  6
CONTINUOUS
 62
     7
 10
16034.04234299999
 20
6040.0854708333363
 30
0.0
 40
160.0
  1
2348.5（2588.5）
 50
90.0
  0
TEXT
  5
4D2D
  8
0
  6
CONTINUOUS
 62
     7
 10
16434.04465199999
 20
5948.4816232912772
 30
0.0
 40
160.0
  1
有効開口高サ 1891.5
 50
90.0
  0
TEXT
  5
4D2E
  8
0
  6
CONTINUOUS
 62
     7
 10
17948.71065866666
 20
20013.936632000001
 30
0.0
 40
160.0
  1
701
  0
TEXT
  5
4D2F
  8
0
  6
CONTINUOUS
 62
     7
 10
18649.710658666641
 20
20333.936632000001
 30
0.0
 40
160.0
  1
701
  0
TEXT
  5
4D30
  8
0
  6
CONTINUOUS
 62
     7
 10
19350.71065866666
 20
20333.936632000001
 30
0.0
 40
160.0
  1
701
  0
TEXT
  5
4D31
  8
0
  6
CONTINUOUS
 62
     7
 10
20040.211153416669
 20
20333.936632000001
 30
0.0
 40
160.0
  1
758
  0
TEXT
  5
4D32
  8
0
  6
CONTINUOUS
 62
     7
 10
16761.232012471191
 20
20333.936632000001
 30
0.0
 40
160.0
  1
42.5
  0
TEXT
  5
4D33
  8
0
  6
CONTINUOUS
 62
     7
 10
17464.877325333309
 20
20333.936632000001
 30
0.0
 40
160.0
  1
407.5
  0
TEXT
  5
4D34
  8
0
  6
CONTINUOUS
 62
     7
 10
26523.861250528771
 20
20333.936632000001
 30
0.0
 40
160.0
  1
42.5
  0
TEXT
  5
4D35
  8
0
  6
CONTINUOUS
 62
     7
 10
23717.215937666639
 20
20013.936632000001
 30
0.0
 40
160.0
  1
701
  0
TEXT
  5
4D36
  8
0
  6
CONTINUOUS
 62
     7
 10
24418.215937666631
 20
20333.936632000001
 30
0.0
 40
160.0
  1
701
  0
TEXT
  5
4D37
  8
0
  6
CONTINUOUS
 62
     7
 10
25119.215937666631
 20
20333.936632000001
 30
0.0
 40
160.0
  1
701
  0
TEXT
  5
4D38
  8
0
  6
CONTINUOUS
 62
     7
 10
25808.716432416641
 20
20333.936632000001
 30
0.0
 40
160.0
  1
758
  0
TEXT
  5
4D39
  8
0
  6
CONTINUOUS
 62
     7
 10
23233.382604333288
 20
20333.936632000001
 30
0.0
 40
160.0
  1
407.5
  0
TEXT
  5
4D3A
  8
0
  6
CONTINUOUS
 62
     7
 10
20778.547126249981
 20
20333.936632000001
 30
0.0
 40
160.0
  1
3268.5 \U+00D7（ｎ － 2）
  0
TEXT
  5
4D3B
  8
0
  6
CONTINUOUS
 62
     7
 10
27813.54887499996
 20
13379.88191260319
 30
0.0
 40
160.0
  1
42.5
 50
90.0
  0
TEXT
  5
4D3C
  8
0
  6
CONTINUOUS
 62
     7
 10
27813.54887499996
 20
19617.48897539678
 30
0.0
 40
160.0
  1
42.5
 50
90.0
  0
TEXT
  5
4D3D
  8
0
  6
CONTINUOUS
 62
     7
 10
28213.54887499996
 20
16352.018777333309
 30
0.0
 40
160.0
  1
5570.5
 50
90.0
  0
TEXT
  5
4D3E
  8
0
  6
CONTINUOUS
 62
     7
 10
27813.54887499996
 20
15188.268777333309
 30
0.0
 40
160.0
  1
2918
 50
90.0
  0
TEXT
  5
4D3F
  8
0
  6
CONTINUOUS
 62
     7
 10
27813.54887499996
 20
17797.685443999992
 30
0.0
 40
160.0
  1
2567.5
 50
90.0
  0
TEXT
  5
4D40
  8
0
  6
CONTINUOUS
 62
     7
 10
27413.54887499996
 20
18550.102110666649
 30
0.0
 40
160.0
  1
701
 50
90.0
  0
TEXT
  5
4D41
  8
0
  6
CONTINUOUS
 62
     7
 10
27413.54887499996
 20
17849.102110666649
 30
0.0
 40
160.0
  1
701
 50
90.0
  0
TEXT
  5
4D42
  8
0
  6
CONTINUOUS
 62
     7
 10
27413.54887499996
 20
17079.602110666659
 30
0.0
 40
160.0
  1
758
 50
90.0
  0
TEXT
  5
4D43
  8
0
  6
CONTINUOUS
 62
     7
 10
27413.54887499996
 20
16321.602110666659
 30
0.0
 40
160.0
  1
758
 50
90.0
  0
TEXT
  5
4D44
  8
0
  6
CONTINUOUS
 62
     7
 10
27413.54887499996
 20
15632.22236641665
 30
0.0
 40
160.0
  1
701
 50
90.0
  0
TEXT
  5
4D45
  8
0
  6
CONTINUOUS
 62
     7
 10
27413.54887499996
 20
14931.222366416659
 30
0.0
 40
160.0
  1
701
 50
90.0
  0
TEXT
  5
4D46
  8
0
  6
CONTINUOUS
 62
     7
 10
27413.54887499996
 20
14161.602110666659
 30
0.0
 40
160.0
  1
758
 50
90.0
  0
TEXT
  5
4D47
  8
0
  6
CONTINUOUS
 62
     7
 10
21226.546631499961
 20
12704.487359999979
 30
0.0
 40
160.0
  1
3268.5 x n
  0
TEXT
  5
4D48
  8
0
  6
CONTINUOUS
 62
     7
 10
17482.09766438208
 20
13104.487359999979
 30
0.0
 40
160.0
  1
42.5
  0
TEXT
  5
4D49
  8
0
  6
CONTINUOUS
 62
     7
 10
25802.995598617879
 20
13104.487359999979
 30
0.0
 40
160.0
  1
42.5
  0
TEXT
  5
4D4A
  8
0
  6
CONTINUOUS
 62
     7
 10
27773.54887499996
 20
18783.313411643201
 30
0.0
 40
160.0
  1
407.5
 50
90.0
  0
TEXT
  5
4D4B
  8
0
  6
CONTINUOUS
 62
     7
 10
12549.628439
 20
20333.936632000001
 30
0.0
 40
160.0
  1
3268.5
  0
TEXT
  5
4D4C
  8
0
  6
CONTINUOUS
 62
     7
 10
14720.37514502327
 20
20333.936632000001
 30
0.0
 40
160.0
  1
85.5
  0
TEXT
  5
4D4D
  8
0
  6
CONTINUOUS
 62
     7
 10
8757.3784915000033
 20
20333.936632000001
 30
0.0
 40
160.0
  1
3268.5 \U+00D7（ｎ － 2）
  0
TEXT
  5
4D4E
  8
0
  6
CONTINUOUS
 62
     7
 10
6373.1285440000029
 20
20333.936632000001
 30
0.0
 40
160.0
  1
3268.5
  0
TEXT
  5
4D4F
  8
0
  6
CONTINUOUS
 62
     7
 10
4522.3818379767399
 20
20333.936632000001
 30
0.0
 40
160.0
  1
85.5
  0
TEXT
  5
4D50
  8
0
  6
CONTINUOUS
 62
     7
 10
4129.3787679999969
 20
13187.9824337026
 30
0.0
 40
160.0
  1
192.5
 50
90.0
  0
TEXT
  5
4D51
  8
0
  6
CONTINUOUS
 62
     7
 10
4129.3787680000014
 20
17797.685443999992
 30
0.0
 40
160.0
  1
2567.5
 50
90.0
  0
TEXT
  5
4D52
  8
0
  6
CONTINUOUS
 62
     7
 10
4129.3787680000014
 20
19792.890628807651
 30
0.0
 40
160.0
  1
222.5
 50
90.0
  0
TEXT
  5
4D53
  8
0
  6
CONTINUOUS
 62
     7
 10
4529.3787680000014
 20
19850.598019666671
 30
0.0
 40
160.0
  1
10
 50
90.0
  0
TEXT
  5
4D54
  8
0
  6
CONTINUOUS
 62
     7
 10
4129.3787679999969
 20
15188.268777333309
 30
0.0
 40
160.0
  1
2918
 50
90.0
  0
TEXT
  5
4D55
  8
0
  6
CONTINUOUS
 62
     7
 10
9093.3784915000015
 20
12704.487359999979
 30
0.0
 40
160.0
  1
3268.5  \U+00D7　n
  0
ARC
  5
4D56
  8
0
  6
BYBLOCK
 62
     0
 10
14583.878438999989
 20
12624.487359999979
 30
0.0
 40
15.0
 50
180.0
 51
0.0
  0
ARC
  5
4D57
  8
0
  6
BYBLOCK
 62
     0
 10
14583.878438999989
 20
12624.487359999979
 30
0.0
 40
15.0
 50
0.0
 51
180.0
  0
ARC
  5
4D58
  8
0
  6
BYBLOCK
 62
     0
 10
11315.378439
 20
20253.936632000001
 30
0.0
 40
15.0
 50
180.0
 51
0.0
  0
ARC
  5
4D59
  8
0
  6
BYBLOCK
 62
     0
 10
11315.378439
 20
20253.936632000001
 30
0.0
 40
15.0
 50
0.0
 51
180.0
  0
ARC
  5
4D5A
  8
0
  6
BYBLOCK
 62
     0
 10
14583.878438999989
 20
20253.936632000001
 30
0.0
 40
15.0
 50
180.0
 51
0.0
  0
ARC
  5
4D5B
  8
0
  6
BYBLOCK
 62
     0
 10
14583.878438999989
 20
20253.936632000001
 30
0.0
 40
15.0
 50
0.0
 51
180.0
  0
ARC
  5
4D5C
  8
0
  6
BYBLOCK
 62
     0
 10
14669.378438999989
 20
20253.936632000001
 30
0.0
 40
15.0
 50
0.0
 51
180.0
  0
ARC
  5
4D5D
  8
0
  6
BYBLOCK
 62
     0
 10
14669.378438999989
 20
20253.936632000001
 30
0.0
 40
15.0
 50
180.0
 51
0.0
  0
ARC
  5
4D5E
  8
0
  6
BYBLOCK
 62
     0
 10
11315.378439
 20
20253.936632000001
 30
0.0
 40
15.0
 50
0.0
 51
180.0
  0
ARC
  5
4D5F
  8
0
  6
BYBLOCK
 62
     0
 10
11315.378439
 20
20253.936632000001
 30
0.0
 40
15.0
 50
180.0
 51
0.0
  0
ARC
  5
4D60
  8
0
  6
BYBLOCK
 62
     0
 10
14583.878438999989
 20
20253.936632000001
 30
0.0
 40
15.0
 50
180.0
 51
0.0
  0
ARC
  5
4D61
  8
0
  6
BYBLOCK
 62
     0
 10
14583.878438999989
 20
20253.936632000001
 30
0.0
 40
15.0
 50
0.0
 51
180.0
  0
ARC
  5
4D62
  8
0
  6
BYBLOCK
 62
     0
 10
27493.54887499996
 20
19073.935443999992
 30
0.0
 40
15.0
 50
90.0
 51
270.0
  0
ARC
  5
4D63
  8
0
  6
BYBLOCK
 62
     0
 10
27493.54887499996
 20
19073.935443999992
 30
0.0
 40
15.0
 50
270.0
 51
90.0
  0
ARC
  5
4D64
  8
0
  6
BYBLOCK
 62
     0
 10
27493.54887499996
 20
19481.435443999992
 30
0.0
 40
15.0
 50
270.0
 51
90.0
  0
ARC
  5
4D65
  8
0
  6
BYBLOCK
 62
     0
 10
27493.54887499996
 20
19481.435443999992
 30
0.0
 40
15.0
 50
90.0
 51
270.0
  0
ARC
  5
4D66
  8
0
  6
BYBLOCK
 62
     0
 10
26401.049270999949
 20
13024.487359999979
 30
0.0
 40
15.0
 50
0.0
 51
180.0
  0
ARC
  5
4D67
  8
0
  6
BYBLOCK
 62
     0
 10
26401.049270999949
 20
13024.487359999979
 30
0.0
 40
15.0
 50
180.0
 51
0.0
  0
ARC
  5
4D68
  8
0
  6
BYBLOCK
 62
     0
 10
26358.547027999961
 20
13024.487359999979
 30
0.0
 40
15.0
 50
180.0
 51
0.0
  0
ARC
  5
4D69
  8
0
  6
BYBLOCK
 62
     0
 10
26358.547027999961
 20
13024.487359999979
 30
0.0
 40
15.0
 50
0.0
 51
180.0
  0
ARC
  5
4D6A
  8
0
  6
BYBLOCK
 62
     0
 10
17364.043991999992
 20
13024.487359999979
 30
0.0
 40
15.0
 50
180.0
 51
0.0
  0
ARC
  5
4D6B
  8
0
  6
BYBLOCK
 62
     0
 10
17364.043991999992
 20
13024.487359999979
 30
0.0
 40
15.0
 50
0.0
 51
180.0
  0
ARC
  5
4D6C
  8
0
  6
BYBLOCK
 62
     0
 10
17406.546234999991
 20
13024.487359999979
 30
0.0
 40
15.0
 50
0.0
 51
180.0
  0
ARC
  5
4D6D
  8
0
  6
BYBLOCK
 62
     0
 10
17406.546234999991
 20
13024.487359999979
 30
0.0
 40
15.0
 50
180.0
 51
0.0
  0
ARC
  5
4D6E
  8
0
  6
BYBLOCK
 62
     0
 10
17364.043991999992
 20
12624.487359999979
 30
0.0
 40
15.0
 50
0.0
 51
180.0
  0
ARC
  5
4D6F
  8
0
  6
BYBLOCK
 62
     0
 10
17364.043991999992
 20
12624.487359999979
 30
0.0
 40
15.0
 50
180.0
 51
0.0
  0
ARC
  5
4D70
  8
0
  6
BYBLOCK
 62
     0
 10
26401.049270999949
 20
12624.487359999979
 30
0.0
 40
15.0
 50
180.0
 51
0.0
  0
ARC
  5
4D71
  8
0
  6
BYBLOCK
 62
     0
 10
26401.049270999949
 20
12624.487359999979
 30
0.0
 40
15.0
 50
0.0
 51
180.0
  0
ARC
  5
4D72
  8
0
  6
BYBLOCK
 62
     0
 10
27493.54887499996
 20
14753.93544399999
 30
0.0
 40
15.0
 50
270.0
 51
90.0
  0
ARC
  5
4D73
  8
0
  6
BYBLOCK
 62
     0
 10
27493.54887499996
 20
14753.93544399999
 30
0.0
 40
15.0
 50
90.0
 51
270.0
  0
ARC
  5
4D74
  8
0
  6
BYBLOCK
 62
     0
 10
27493.54887499996
 20
13995.935443999981
 30
0.0
 40
15.0
 50
90.0
 51
270.0
  0
ARC
  5
4D75
  8
0
  6
BYBLOCK
 62
     0
 10
27493.54887499996
 20
13995.935443999981
 30
0.0
 40
15.0
 50
270.0
 51
90.0
  0
ARC
  5
4D76
  8
0
  6
BYBLOCK
 62
     0
 10
27493.54887499996
 20
15455.175955500001
 30
0.0
 40
15.0
 50
270.0
 51
90.0
  0
ARC
  5
4D77
  8
0
  6
BYBLOCK
 62
     0
 10
27493.54887499996
 20
15455.175955500001
 30
0.0
 40
15.0
 50
90.0
 51
270.0
  0
ARC
  5
4D78
  8
0
  6
BYBLOCK
 62
     0
 10
27493.54887499996
 20
14753.93544399999
 30
0.0
 40
15.0
 50
90.0
 51
270.0
  0
ARC
  5
4D79
  8
0
  6
BYBLOCK
 62
     0
 10
27493.54887499996
 20
14753.93544399999
 30
0.0
 40
15.0
 50
270.0
 51
90.0
  0
ARC
  5
4D7A
  8
0
  6
BYBLOCK
 62
     0
 10
27493.54887499996
 20
16155.93544399999
 30
0.0
 40
15.0
 50
270.0
 51
90.0
  0
ARC
  5
4D7B
  8
0
  6
BYBLOCK
 62
     0
 10
27493.54887499996
 20
16155.93544399999
 30
0.0
 40
15.0
 50
90.0
 51
270.0
  0
ARC
  5
4D7C
  8
0
  6
BYBLOCK
 62
     0
 10
27493.54887499996
 20
15455.175955500001
 30
0.0
 40
15.0
 50
90.0
 51
270.0
  0
ARC
  5
4D7D
  8
0
  6
BYBLOCK
 62
     0
 10
27493.54887499996
 20
15455.175955500001
 30
0.0
 40
15.0
 50
270.0
 51
90.0
  0
ARC
  5
4D7E
  8
0
  6
BYBLOCK
 62
     0
 10
27493.54887499996
 20
16913.935443999992
 30
0.0
 40
15.0
 50
270.0
 51
90.0
  0
ARC
  5
4D7F
  8
0
  6
BYBLOCK
 62
     0
 10
27493.54887499996
 20
16913.935443999992
 30
0.0
 40
15.0
 50
90.0
 51
270.0
  0
ARC
  5
4D80
  8
0
  6
BYBLOCK
 62
     0
 10
27493.54887499996
 20
16155.93544399999
 30
0.0
 40
15.0
 50
90.0
 51
270.0
  0
ARC
  5
4D81
  8
0
  6
BYBLOCK
 62
     0
 10
27493.54887499996
 20
16155.93544399999
 30
0.0
 40
15.0
 50
270.0
 51
90.0
  0
ARC
  5
4D82
  8
0
  6
BYBLOCK
 62
     0
 10
27493.54887499996
 20
17671.935443999992
 30
0.0
 40
15.0
 50
270.0
 51
90.0
  0
ARC
  5
4D83
  8
0
  6
BYBLOCK
 62
     0
 10
27493.54887499996
 20
17671.935443999992
 30
0.0
 40
15.0
 50
90.0
 51
270.0
  0
ARC
  5
4D84
  8
0
  6
BYBLOCK
 62
     0
 10
27493.54887499996
 20
16913.935443999992
 30
0.0
 40
15.0
 50
90.0
 51
270.0
  0
ARC
  5
4D85
  8
0
  6
BYBLOCK
 62
     0
 10
27493.54887499996
 20
16913.935443999992
 30
0.0
 40
15.0
 50
270.0
 51
90.0
  0
ARC
  5
4D86
  8
0
  6
BYBLOCK
 62
     0
 10
27493.54887499996
 20
18372.935443999992
 30
0.0
 40
15.0
 50
270.0
 51
90.0
  0
ARC
  5
4D87
  8
0
  6
BYBLOCK
 62
     0
 10
27493.54887499996
 20
18372.935443999992
 30
0.0
 40
15.0
 50
90.0
 51
270.0
  0
ARC
  5
4D88
  8
0
  6
BYBLOCK
 62
     0
 10
27493.54887499996
 20
17671.935443999992
 30
0.0
 40
15.0
 50
90.0
 51
270.0
  0
ARC
  5
4D89
  8
0
  6
BYBLOCK
 62
     0
 10
27493.54887499996
 20
17671.935443999992
 30
0.0
 40
15.0
 50
270.0
 51
90.0
  0
ARC
  5
4D8A
  8
0
  6
BYBLOCK
 62
     0
 10
27493.54887499996
 20
19073.935443999992
 30
0.0
 40
15.0
 50
270.0
 51
90.0
  0
ARC
  5
4D8B
  8
0
  6
BYBLOCK
 62
     0
 10
27493.54887499996
 20
19073.935443999992
 30
0.0
 40
15.0
 50
90.0
 51
270.0
  0
ARC
  5
4D8C
  8
0
  6
BYBLOCK
 62
     0
 10
27493.54887499996
 20
18372.935443999992
 30
0.0
 40
15.0
 50
90.0
 51
270.0
  0
ARC
  5
4D8D
  8
0
  6
BYBLOCK
 62
     0
 10
27493.54887499996
 20
18372.935443999992
 30
0.0
 40
15.0
 50
270.0
 51
90.0
  0
ARC
  5
4D8E
  8
0
  6
BYBLOCK
 62
     0
 10
27893.54887499996
 20
16913.935443999992
 30
0.0
 40
15.0
 50
90.0
 51
270.0
  0
ARC
  5
4D8F
  8
0
  6
BYBLOCK
 62
     0
 10
27893.54887499996
 20
16913.935443999992
 30
0.0
 40
15.0
 50
270.0
 51
90.0
  0
ARC
  5
4D90
  8
0
  6
BYBLOCK
 62
     0
 10
27893.54887499996
 20
19481.435443999981
 30
0.0
 40
15.0
 50
270.0
 51
90.0
  0
ARC
  5
4D91
  8
0
  6
BYBLOCK
 62
     0
 10
27893.54887499996
 20
19481.435443999981
 30
0.0
 40
15.0
 50
90.0
 51
270.0
  0
ARC
  5
4D92
  8
0
  6
BYBLOCK
 62
     0
 10
27893.54887499996
 20
13995.935443999981
 30
0.0
 40
15.0
 50
90.0
 51
270.0
  0
ARC
  5
4D93
  8
0
  6
BYBLOCK
 62
     0
 10
27893.54887499996
 20
13995.935443999981
 30
0.0
 40
15.0
 50
270.0
 51
90.0
  0
ARC
  5
4D94
  8
0
  6
BYBLOCK
 62
     0
 10
27893.54887499996
 20
16913.935443999992
 30
0.0
 40
15.0
 50
270.0
 51
90.0
  0
ARC
  5
4D95
  8
0
  6
BYBLOCK
 62
     0
 10
27893.54887499996
 20
16913.935443999992
 30
0.0
 40
15.0
 50
90.0
 51
270.0
  0
ARC
  5
4D96
  8
0
  6
BYBLOCK
 62
     0
 10
28293.548874999949
 20
19523.932738999982
 30
0.0
 40
15.0
 50
270.0
 51
90.0
  0
ARC
  5
4D97
  8
0
  6
BYBLOCK
 62
     0
 10
28293.548874999949
 20
19523.932738999982
 30
0.0
 40
15.0
 50
90.0
 51
270.0
  0
ARC
  5
4D98
  8
0
  6
BYBLOCK
 62
     0
 10
28293.548874999949
 20
13953.438148999991
 30
0.0
 40
15.0
 50
90.0
 51
270.0
  0
ARC
  5
4D99
  8
0
  6
BYBLOCK
 62
     0
 10
28293.548874999949
 20
13953.438148999991
 30
0.0
 40
15.0
 50
270.0
 51
90.0
  0
ARC
  5
4D9A
  8
0
  6
BYBLOCK
 62
     0
 10
27893.54887499996
 20
19481.435443999981
 30
0.0
 40
15.0
 50
270.0
 51
90.0
  0
ARC
  5
4D9B
  8
0
  6
BYBLOCK
 62
     0
 10
27893.54887499996
 20
19481.435443999981
 30
0.0
 40
15.0
 50
90.0
 51
270.0
  0
ARC
  5
4D9C
  8
0
  6
BYBLOCK
 62
     0
 10
27893.54887499996
 20
19523.932738999982
 30
0.0
 40
15.0
 50
90.0
 51
270.0
  0
ARC
  5
4D9D
  8
0
  6
BYBLOCK
 62
     0
 10
27893.54887499996
 20
19523.932738999982
 30
0.0
 40
15.0
 50
270.0
 51
90.0
  0
ARC
  5
4D9E
  8
0
  6
BYBLOCK
 62
     0
 10
27893.54887499996
 20
13995.935443999981
 30
0.0
 40
15.0
 50
90.0
 51
270.0
  0
ARC
  5
4D9F
  8
0
  6
BYBLOCK
 62
     0
 10
27893.54887499996
 20
13995.935443999981
 30
0.0
 40
15.0
 50
270.0
 51
90.0
  0
ARC
  5
4DA0
  8
0
  6
BYBLOCK
 62
     0
 10
27893.54887499996
 20
13953.438148999991
 30
0.0
 40
15.0
 50
270.0
 51
90.0
  0
ARC
  5
4DA1
  8
0
  6
BYBLOCK
 62
     0
 10
27893.54887499996
 20
13953.438148999991
 30
0.0
 40
15.0
 50
90.0
 51
270.0
  0
ARC
  5
4DA2
  8
0
  6
BYBLOCK
 62
     0
 10
20632.544981499999
 20
20253.936632000001
 30
0.0
 40
15.0
 50
0.0
 51
180.0
  0
ARC
  5
4DA3
  8
0
  6
BYBLOCK
 62
     0
 10
20632.544981499999
 20
20253.936632000001
 30
0.0
 40
15.0
 50
180.0
 51
0.0
  0
ARC
  5
4DA4
  8
0
  6
BYBLOCK
 62
     0
 10
23132.54927099996
 20
20253.936632000001
 30
0.0
 40
15.0
 50
180.0
 51
0.0
  0
ARC
  5
4DA5
  8
0
  6
BYBLOCK
 62
     0
 10
23132.54927099996
 20
20253.936632000001
 30
0.0
 40
15.0
 50
0.0
 51
180.0
  0
ARC
  5
4DA6
  8
0
  6
BYBLOCK
 62
     0
 10
23132.54927099996
 20
20253.936632000001
 30
0.0
 40
15.0
 50
0.0
 51
180.0
  0
ARC
  5
4DA7
  8
0
  6
BYBLOCK
 62
     0
 10
23132.54927099996
 20
20253.936632000001
 30
0.0
 40
15.0
 50
180.0
 51
0.0
  0
ARC
  5
4DA8
  8
0
  6
BYBLOCK
 62
     0
 10
23540.04927099996
 20
20253.936632000001
 30
0.0
 40
15.0
 50
180.0
 51
0.0
  0
ARC
  5
4DA9
  8
0
  6
BYBLOCK
 62
     0
 10
23540.04927099996
 20
20253.936632000001
 30
0.0
 40
15.0
 50
0.0
 51
180.0
  0
ARC
  5
4DAA
  8
0
  6
BYBLOCK
 62
     0
 10
25643.04927099996
 20
20253.936632000001
 30
0.0
 40
15.0
 50
0.0
 51
180.0
  0
ARC
  5
4DAB
  8
0
  6
BYBLOCK
 62
     0
 10
25643.04927099996
 20
20253.936632000001
 30
0.0
 40
15.0
 50
180.0
 51
0.0
  0
ARC
  5
4DAC
  8
0
  6
BYBLOCK
 62
     0
 10
26401.05026049996
 20
20253.936632000001
 30
0.0
 40
15.0
 50
180.0
 51
0.0
  0
ARC
  5
4DAD
  8
0
  6
BYBLOCK
 62
     0
 10
26401.05026049996
 20
20253.936632000001
 30
0.0
 40
15.0
 50
0.0
 51
180.0
  0
ARC
  5
4DAE
  8
0
  6
BYBLOCK
 62
     0
 10
24942.04927099996
 20
20253.936632000001
 30
0.0
 40
15.0
 50
0.0
 51
180.0
  0
ARC
  5
4DAF
  8
0
  6
BYBLOCK
 62
     0
 10
24942.04927099996
 20
20253.936632000001
 30
0.0
 40
15.0
 50
180.0
 51
0.0
  0
ARC
  5
4DB0
  8
0
  6
BYBLOCK
 62
     0
 10
25643.04927099996
 20
20253.936632000001
 30
0.0
 40
15.0
 50
180.0
 51
0.0
  0
ARC
  5
4DB1
  8
0
  6
BYBLOCK
 62
     0
 10
25643.04927099996
 20
20253.936632000001
 30
0.0
 40
15.0
 50
0.0
 51
180.0
  0
ARC
  5
4DB2
  8
0
  6
BYBLOCK
 62
     0
 10
24241.049270999971
 20
20253.936632000001
 30
0.0
 40
15.0
 50
0.0
 51
180.0
  0
ARC
  5
4DB3
  8
0
  6
BYBLOCK
 62
     0
 10
24241.049270999971
 20
20253.936632000001
 30
0.0
 40
15.0
 50
180.0
 51
0.0
  0
ARC
  5
4DB4
  8
0
  6
BYBLOCK
 62
     0
 10
24942.04927099996
 20
20253.936632000001
 30
0.0
 40
15.0
 50
180.0
 51
0.0
  0
ARC
  5
4DB5
  8
0
  6
BYBLOCK
 62
     0
 10
24942.04927099996
 20
20253.936632000001
 30
0.0
 40
15.0
 50
0.0
 51
180.0
  0
ARC
  5
4DB6
  8
0
  6
BYBLOCK
 62
     0
 10
23540.04927099996
 20
20253.936632000001
 30
0.0
 40
15.0
 50
0.0
 51
180.0
  0
ARC
  5
4DB7
  8
0
  6
BYBLOCK
 62
     0
 10
23540.04927099996
 20
20253.936632000001
 30
0.0
 40
15.0
 50
180.0
 51
0.0
  0
ARC
  5
4DB8
  8
0
  6
BYBLOCK
 62
     0
 10
24241.049270999971
 20
20253.936632000001
 30
0.0
 40
15.0
 50
180.0
 51
0.0
  0
ARC
  5
4DB9
  8
0
  6
BYBLOCK
 62
     0
 10
24241.049270999971
 20
20253.936632000001
 30
0.0
 40
15.0
 50
0.0
 51
180.0
  0
ARC
  5
4DBA
  8
0
  6
BYBLOCK
 62
     0
 10
26401.049270999949
 20
20253.936632000001
 30
0.0
 40
15.0
 50
180.0
 51
0.0
  0
ARC
  5
4DBB
  8
0
  6
BYBLOCK
 62
     0
 10
26401.049270999949
 20
20253.936632000001
 30
0.0
 40
15.0
 50
0.0
 51
180.0
  0
ARC
  5
4DBC
  8
0
  6
BYBLOCK
 62
     0
 10
26443.54557599996
 20
20253.936632000001
 30
0.0
 40
15.0
 50
0.0
 51
180.0
  0
ARC
  5
4DBD
  8
0
  6
BYBLOCK
 62
     0
 10
26443.54557599996
 20
20253.936632000001
 30
0.0
 40
15.0
 50
180.0
 51
0.0
  0
ARC
  5
4DBE
  8
0
  6
BYBLOCK
 62
     0
 10
17364.043991999992
 20
20253.936632000001
 30
0.0
 40
15.0
 50
0.0
 51
180.0
  0
ARC
  5
4DBF
  8
0
  6
BYBLOCK
 62
     0
 10
17364.043991999992
 20
20253.936632000001
 30
0.0
 40
15.0
 50
180.0
 51
0.0
  0
ARC
  5
4DC0
  8
0
  6
BYBLOCK
 62
     0
 10
17771.543991999992
 20
20253.936632000001
 30
0.0
 40
15.0
 50
180.0
 51
0.0
  0
ARC
  5
4DC1
  8
0
  6
BYBLOCK
 62
     0
 10
17771.543991999992
 20
20253.936632000001
 30
0.0
 40
15.0
 50
0.0
 51
180.0
  0
ARC
  5
4DC2
  8
0
  6
BYBLOCK
 62
     0
 10
17364.043991999992
 20
20253.936632000001
 30
0.0
 40
15.0
 50
0.0
 51
180.0
  0
ARC
  5
4DC3
  8
0
  6
BYBLOCK
 62
     0
 10
17364.043991999992
 20
20253.936632000001
 30
0.0
 40
15.0
 50
180.0
 51
0.0
  0
ARC
  5
4DC4
  8
0
  6
BYBLOCK
 62
     0
 10
17321.547686999991
 20
20253.936632000001
 30
0.0
 40
15.0
 50
180.0
 51
0.0
  0
ARC
  5
4DC5
  8
0
  6
BYBLOCK
 62
     0
 10
17321.547686999991
 20
20253.936632000001
 30
0.0
 40
15.0
 50
0.0
 51
180.0
  0
ARC
  5
4DC6
  8
0
  6
BYBLOCK
 62
     0
 10
19874.543991999992
 20
20253.936632000001
 30
0.0
 40
15.0
 50
0.0
 51
180.0
  0
ARC
  5
4DC7
  8
0
  6
BYBLOCK
 62
     0
 10
19874.543991999992
 20
20253.936632000001
 30
0.0
 40
15.0
 50
180.0
 51
0.0
  0
ARC
  5
4DC8
  8
0
  6
BYBLOCK
 62
     0
 10
20632.544981499999
 20
20253.936632000001
 30
0.0
 40
15.0
 50
180.0
 51
0.0
  0
ARC
  5
4DC9
  8
0
  6
BYBLOCK
 62
     0
 10
20632.544981499999
 20
20253.936632000001
 30
0.0
 40
15.0
 50
0.0
 51
180.0
  0
ARC
  5
4DCA
  8
0
  6
BYBLOCK
 62
     0
 10
19173.543991999992
 20
20253.936632000001
 30
0.0
 40
15.0
 50
0.0
 51
180.0
  0
ARC
  5
4DCB
  8
0
  6
BYBLOCK
 62
     0
 10
19173.543991999992
 20
20253.936632000001
 30
0.0
 40
15.0
 50
180.0
 51
0.0
  0
ARC
  5
4DCC
  8
0
  6
BYBLOCK
 62
     0
 10
19874.543991999992
 20
20253.936632000001
 30
0.0
 40
15.0
 50
180.0
 51
0.0
  0
ARC
  5
4DCD
  8
0
  6
BYBLOCK
 62
     0
 10
19874.543991999992
 20
20253.936632000001
 30
0.0
 40
15.0
 50
0.0
 51
180.0
  0
ARC
  5
4DCE
  8
0
  6
BYBLOCK
 62
     0
 10
18472.543991999992
 20
20253.936632000001
 30
0.0
 40
15.0
 50
0.0
 51
180.0
  0
ARC
  5
4DCF
  8
0
  6
BYBLOCK
 62
     0
 10
18472.543991999992
 20
20253.936632000001
 30
0.0
 40
15.0
 50
180.0
 51
0.0
  0
ARC
  5
4DD0
  8
0
  6
BYBLOCK
 62
     0
 10
19173.543991999992
 20
20253.936632000001
 30
0.0
 40
15.0
 50
180.0
 51
0.0
  0
ARC
  5
4DD1
  8
0
  6
BYBLOCK
 62
     0
 10
19173.543991999992
 20
20253.936632000001
 30
0.0
 40
15.0
 50
0.0
 51
180.0
  0
ARC
  5
4DD2
  8
0
  6
BYBLOCK
 62
     0
 10
17771.543991999992
 20
20253.936632000001
 30
0.0
 40
15.0
 50
0.0
 51
180.0
  0
ARC
  5
4DD3
  8
0
  6
BYBLOCK
 62
     0
 10
17771.543991999992
 20
20253.936632000001
 30
0.0
 40
15.0
 50
180.0
 51
0.0
  0
ARC
  5
4DD4
  8
0
  6
BYBLOCK
 62
     0
 10
18472.543991999992
 20
20253.936632000001
 30
0.0
 40
15.0
 50
180.0
 51
0.0
  0
ARC
  5
4DD5
  8
0
  6
BYBLOCK
 62
     0
 10
18472.543991999992
 20
20253.936632000001
 30
0.0
 40
15.0
 50
0.0
 51
180.0
  0
ARC
  5
4DD6
  8
0
  6
BYBLOCK
 62
     0
 10
16514.04465199999
 20
5884.5023850000016
 30
0.0
 40
15.0
 50
90.0
 51
270.0
  0
ARC
  5
4DD7
  8
0
  6
BYBLOCK
 62
     0
 10
16514.04465199999
 20
5884.5023850000016
 30
0.0
 40
15.0
 50
270.0
 51
90.0
  0
ARC
  5
4DD8
  8
0
  6
BYBLOCK
 62
     0
 10
16514.04465199999
 20
7776.0023850000016
 30
0.0
 40
15.0
 50
270.0
 51
90.0
  0
ARC
  5
4DD9
  8
0
  6
BYBLOCK
 62
     0
 10
16514.04465199999
 20
7776.0023850000016
 30
0.0
 40
15.0
 50
90.0
 51
270.0
  0
ARC
  5
4DDA
  8
0
  6
BYBLOCK
 62
     0
 10
16114.04234299999
 20
5884.5023850000016
 30
0.0
 40
15.0
 50
90.0
 51
270.0
  0
ARC
  5
4DDB
  8
0
  6
BYBLOCK
 62
     0
 10
16114.04234299999
 20
5884.5023850000016
 30
0.0
 40
15.0
 50
270.0
 51
90.0
  0
ARC
  5
4DDC
  8
0
  6
BYBLOCK
 62
     0
 10
16114.04234299999
 20
8233.0018899999941
 30
0.0
 40
15.0
 50
270.0
 51
90.0
  0
ARC
  5
4DDD
  8
0
  6
BYBLOCK
 62
     0
 10
16114.04234299999
 20
8233.0018899999941
 30
0.0
 40
15.0
 50
90.0
 51
270.0
  0
ARC
  5
4DEE
  8
0
  6
BYBLOCK
 62
     0
 10
17458.043991999992
 20
4984.5025500000093
 30
0.0
 40
15.0
 50
0.0
 51
180.0
  0
ARC
  5
4DEF
  8
0
  6
BYBLOCK
 62
     0
 10
17458.043991999992
 20
4984.5025500000093
 30
0.0
 40
15.0
 50
180.0
 51
0.0
  0
ARC
  5
4DF0
  8
0
  6
BYBLOCK
 62
     0
 10
20538.543991999992
 20
4984.5025500000093
 30
0.0
 40
15.0
 50
180.0
 51
0.0
  0
ARC
  5
4DF1
  8
0
  6
BYBLOCK
 62
     0
 10
20538.543991999992
 20
4984.5025500000093
 30
0.0
 40
15.0
 50
0.0
 51
180.0
  0
ARC
  5
4DF2
  8
0
  6
BYBLOCK
 62
     0
 10
23226.549270999949
 20
4984.5025500000093
 30
0.0
 40
15.0
 50
0.0
 51
180.0
  0
ARC
  5
4DF3
  8
0
  6
BYBLOCK
 62
     0
 10
23226.549270999949
 20
4984.5025500000093
 30
0.0
 40
15.0
 50
180.0
 51
0.0
  0
ARC
  5
4DF4
  8
0
  6
BYBLOCK
 62
     0
 10
26307.04927099996
 20
4984.5025500000093
 30
0.0
 40
15.0
 50
180.0
 51
0.0
  0
ARC
  5
4DF5
  8
0
  6
BYBLOCK
 62
     0
 10
26307.04927099996
 20
4984.5025500000093
 30
0.0
 40
15.0
 50
0.0
 51
180.0
  0
ARC
  5
4DF6
  8
0
  6
BYBLOCK
 62
     0
 10
23132.54927099996
 20
4584.5025500000056
 30
0.0
 40
15.0
 50
0.0
 51
180.0
  0
ARC
  5
4DF7
  8
0
  6
BYBLOCK
 62
     0
 10
23132.54927099996
 20
4584.5025500000056
 30
0.0
 40
15.0
 50
180.0
 51
0.0
  0
ARC
  5
4DF8
  8
0
  6
BYBLOCK
 62
     0
 10
26401.049270999949
 20
4584.5025500000056
 30
0.0
 40
15.0
 50
180.0
 51
0.0
  0
ARC
  5
4DF9
  8
0
  6
BYBLOCK
 62
     0
 10
26401.049270999949
 20
4584.5025500000056
 30
0.0
 40
15.0
 50
0.0
 51
180.0
  0
ARC
  5
4DFA
  8
0
  6
BYBLOCK
 62
     0
 10
20632.543991999992
 20
4584.5025500000056
 30
0.0
 40
15.0
 50
0.0
 51
180.0
  0
ARC
  5
4DFB
  8
0
  6
BYBLOCK
 62
     0
 10
20632.543991999992
 20
4584.5025500000056
 30
0.0
 40
15.0
 50
180.0
 51
0.0
  0
ARC
  5
4DFC
  8
0
  6
BYBLOCK
 62
     0
 10
23132.54927099996
 20
4584.5025500000056
 30
0.0
 40
15.0
 50
180.0
 51
0.0
  0
ARC
  5
4DFD
  8
0
  6
BYBLOCK
 62
     0
 10
23132.54927099996
 20
4584.5025500000056
 30
0.0
 40
15.0
 50
0.0
 51
180.0
  0
ARC
  5
4DFE
  8
0
  6
BYBLOCK
 62
     0
 10
17364.043991999992
 20
4584.5025500000056
 30
0.0
 40
15.0
 50
0.0
 51
180.0
  0
ARC
  5
4DFF
  8
0
  6
BYBLOCK
 62
     0
 10
17364.043991999992
 20
4584.5025500000056
 30
0.0
 40
15.0
 50
180.0
 51
0.0
  0
ARC
  5
4E00
  8
0
  6
BYBLOCK
 62
     0
 10
20632.543991999992
 20
4584.5025500000056
 30
0.0
 40
15.0
 50
180.0
 51
0.0
  0
ARC
  5
4E01
  8
0
  6
BYBLOCK
 62
     0
 10
20632.543991999992
 20
4584.5025500000056
 30
0.0
 40
15.0
 50
0.0
 51
180.0
  0
ARC
  5
4E02
  8
0
  6
BYBLOCK
 62
     0
 10
26401.05322999998
 20
4584.5025500000056
 30
0.0
 40
15.0
 50
180.0
 51
0.0
  0
ARC
  5
4E03
  8
0
  6
BYBLOCK
 62
     0
 10
26401.05322999998
 20
4584.5025500000056
 30
0.0
 40
15.0
 50
0.0
 51
180.0
  0
ARC
  5
4E04
  8
0
  6
BYBLOCK
 62
     0
 10
26443.553229999969
 20
4584.5025500000056
 30
0.0
 40
15.0
 50
0.0
 51
180.0
  0
ARC
  5
4E05
  8
0
  6
BYBLOCK
 62
     0
 10
26443.553229999969
 20
4584.5025500000056
 30
0.0
 40
15.0
 50
180.0
 51
0.0
  0
ARC
  5
4E06
  8
0
  6
BYBLOCK
 62
     0
 10
17364.043991999992
 20
4584.5025500000056
 30
0.0
 40
15.0
 50
0.0
 51
180.0
  0
ARC
  5
4E07
  8
0
  6
BYBLOCK
 62
     0
 10
17364.043991999992
 20
4584.5025500000056
 30
0.0
 40
15.0
 50
180.0
 51
0.0
  0
ARC
  5
4E08
  8
0
  6
BYBLOCK
 62
     0
 10
17321.543991999992
 20
4584.5025500000056
 30
0.0
 40
15.0
 50
180.0
 51
0.0
  0
ARC
  5
4E09
  8
0
  6
BYBLOCK
 62
     0
 10
17321.543991999992
 20
4584.5025500000056
 30
0.0
 40
15.0
 50
0.0
 51
180.0
  0
ARC
  5
4E0A
  8
0
  6
BYBLOCK
 62
     0
 10
17321.543991999992
 20
4184.5027150000033
 30
0.0
 40
15.0
 50
0.0
 51
180.0
  0
ARC
  5
4E0B
  8
0
  6
BYBLOCK
 62
     0
 10
17321.543991999992
 20
4184.5027150000033
 30
0.0
 40
15.0
 50
180.0
 51
0.0
  0
ARC
  5
4E0C
  8
0
  6
BYBLOCK
 62
     0
 10
26443.54927099996
 20
4184.5027150000033
 30
0.0
 40
15.0
 50
180.0
 51
0.0
  0
ARC
  5
4E0D
  8
0
  6
BYBLOCK
 62
     0
 10
26443.54927099996
 20
4184.5027150000033
 30
0.0
 40
15.0
 50
0.0
 51
180.0
  0
ARC
  5
4E0E
  8
0
  6
BYBLOCK
 62
     0
 10
13316.64656299998
 20
5884.5028800000018
 30
0.0
 40
15.0
 50
90.0
 51
270.0
  0
ARC
  5
4E0F
  8
0
  6
BYBLOCK
 62
     0
 10
13316.64656299998
 20
5884.5028800000018
 30
0.0
 40
15.0
 50
270.0
 51
90.0
  0
ARC
  5
4E10
  8
0
  6
BYBLOCK
 62
     0
 10
13316.64656299998
 20
8233.0028800000018
 30
0.0
 40
15.0
 50
270.0
 51
90.0
  0
ARC
  5
4E11
  8
0
  6
BYBLOCK
 62
     0
 10
13316.64656299998
 20
8233.0028800000018
 30
0.0
 40
15.0
 50
90.0
 51
270.0
  0
ARC
  5
4E12
  8
0
  6
BYBLOCK
 62
     0
 10
12376.648147
 20
9432.5029060000015
 30
0.0
 40
15.0
 50
180.0
 51
0.0
  0
ARC
  5
4E13
  8
0
  6
BYBLOCK
 62
     0
 10
12376.648147
 20
9432.5029060000015
 30
0.0
 40
15.0
 50
0.0
 51
180.0
  0
ARC
  5
4E14
  8
0
  6
BYBLOCK
 62
     0
 10
12226.648147
 20
9032.5045560000017
 30
0.0
 40
15.0
 50
180.0
 51
0.0
  0
ARC
  5
4E15
  8
0
  6
BYBLOCK
 62
     0
 10
12226.648147
 20
9032.5045560000017
 30
0.0
 40
15.0
 50
0.0
 51
180.0
  0
ARC
  5
4E16
  8
0
  6
BYBLOCK
 62
     0
 10
12376.648147
 20
9032.5045560000017
 30
0.0
 40
15.0
 50
0.0
 51
180.0
  0
ARC
  5
4E17
  8
0
  6
BYBLOCK
 62
     0
 10
12376.648147
 20
9032.5045560000017
 30
0.0
 40
15.0
 50
180.0
 51
0.0
  0
ARC
  5
4E18
  8
0
  6
BYBLOCK
 62
     0
 10
12226.648147
 20
9032.5045560000017
 30
0.0
 40
15.0
 50
180.0
 51
0.0
  0
ARC
  5
4E19
  8
0
  6
BYBLOCK
 62
     0
 10
12226.648147
 20
9032.5045560000017
 30
0.0
 40
15.0
 50
0.0
 51
180.0
  0
ARC
  5
4E1A
  8
0
  6
BYBLOCK
 62
     0
 10
12226.648147
 20
4184.5032100000053
 30
0.0
 40
15.0
 50
180.0
 51
0.0
  0
ARC
  5
4E1B
  8
0
  6
BYBLOCK
 62
     0
 10
12226.648147
 20
4184.5032100000053
 30
0.0
 40
15.0
 50
0.0
 51
180.0
  0
ARC
  5
4E1C
  8
0
  6
BYBLOCK
 62
     0
 10
12184.148147
 20
4584.5030450000031
 30
0.0
 40
15.0
 50
180.0
 51
0.0
  0
ARC
  5
4E1D
  8
0
  6
BYBLOCK
 62
     0
 10
12184.148147
 20
4584.5030450000031
 30
0.0
 40
15.0
 50
0.0
 51
180.0
  0
ARC
  5
4E1E
  8
0
  6
BYBLOCK
 62
     0
 10
12226.648147
 20
4584.5030450000031
 30
0.0
 40
15.0
 50
0.0
 51
180.0
  0
ARC
  5
4E1F
  8
0
  6
BYBLOCK
 62
     0
 10
12226.648147
 20
4584.5030450000031
 30
0.0
 40
15.0
 50
180.0
 51
0.0
  0
ARC
  5
4E20
  8
0
  6
BYBLOCK
 62
     0
 10
12184.148147
 20
4584.5030450000031
 30
0.0
 40
15.0
 50
180.0
 51
0.0
  0
ARC
  5
4E21
  8
0
  6
BYBLOCK
 62
     0
 10
12184.148147
 20
4584.5030450000031
 30
0.0
 40
15.0
 50
0.0
 51
180.0
  0
ARC
  5
4E22
  8
0
  6
BYBLOCK
 62
     0
 10
5138.878544000002
 20
12624.487359999979
 30
0.0
 40
15.0
 50
0.0
 51
180.0
  0
ARC
  5
4E23
  8
0
  6
BYBLOCK
 62
     0
 10
5138.878544000002
 20
12624.487359999979
 30
0.0
 40
15.0
 50
180.0
 51
0.0
  0
ARC
  5
4E24
  8
0
  6
BYBLOCK
 62
     0
 10
4209.3787680000014
 20
13995.935443999981
 30
0.0
 40
15.0
 50
90.0
 51
270.0
  0
ARC
  5
4E25
  8
0
  6
BYBLOCK
 62
     0
 10
4209.3787680000014
 20
13995.935443999981
 30
0.0
 40
15.0
 50
270.0
 51
90.0
  0
ARC
  5
4E26
  8
0
  6
BYBLOCK
 62
     0
 10
4209.3787680000032
 20
16913.935443999992
 30
0.0
 40
15.0
 50
270.0
 51
90.0
  0
ARC
  5
4E27
  8
0
  6
BYBLOCK
 62
     0
 10
4209.3787680000032
 20
16913.935443999992
 30
0.0
 40
15.0
 50
90.0
 51
270.0
  0
ARC
  5
4E28
  8
0
  6
BYBLOCK
 62
     0
 10
4609.3787680000014
 20
19693.931352999982
 30
0.0
 40
15.0
 50
270.0
 51
90.0
  0
ARC
  5
4E29
  8
0
  6
BYBLOCK
 62
     0
 10
4609.3787680000014
 20
19693.931352999982
 30
0.0
 40
15.0
 50
90.0
 51
270.0
  0
ARC
  5
4E2A
  8
0
  6
BYBLOCK
 62
     0
 10
4609.3787680000014
 20
19703.931353
 30
0.0
 40
15.0
 50
90.0
 51
270.0
  0
ARC
  5
4E2B
  8
0
  6
BYBLOCK
 62
     0
 10
4609.3787680000014
 20
19703.931353
 30
0.0
 40
15.0
 50
270.0
 51
90.0
  0
ARC
  5
4E2C
  8
0
  6
BYBLOCK
 62
     0
 10
4209.3787680000041
 20
19481.435443999981
 30
0.0
 40
15.0
 50
90.0
 51
270.0
  0
ARC
  5
4E2D
  8
0
  6
BYBLOCK
 62
     0
 10
4209.3787680000041
 20
19481.435443999981
 30
0.0
 40
15.0
 50
270.0
 51
90.0
  0
ARC
  5
4E2E
  8
0
  6
BYBLOCK
 62
     0
 10
4209.3787680000041
 20
19703.931353
 30
0.0
 40
15.0
 50
270.0
 51
90.0
  0
ARC
  5
4E2F
  8
0
  6
BYBLOCK
 62
     0
 10
4209.3787680000041
 20
19703.931353
 30
0.0
 40
15.0
 50
90.0
 51
270.0
  0
ARC
  5
4E30
  8
0
  6
BYBLOCK
 62
     0
 10
4209.3787680000032
 20
16913.935443999992
 30
0.0
 40
15.0
 50
90.0
 51
270.0
  0
ARC
  5
4E31
  8
0
  6
BYBLOCK
 62
     0
 10
4209.3787680000032
 20
16913.935443999992
 30
0.0
 40
15.0
 50
270.0
 51
90.0
  0
ARC
  5
4E32
  8
0
  6
BYBLOCK
 62
     0
 10
4209.3787680000041
 20
19481.435443999981
 30
0.0
 40
15.0
 50
270.0
 51
90.0
  0
ARC
  5
4E33
  8
0
  6
BYBLOCK
 62
     0
 10
4209.3787680000041
 20
19481.435443999981
 30
0.0
 40
15.0
 50
90.0
 51
270.0
  0
ARC
  5
4E34
  8
0
  6
BYBLOCK
 62
     0
 10
4209.3787680000032
 20
13995.935443999981
 30
0.0
 40
15.0
 50
270.0
 51
90.0
  0
ARC
  5
4E35
  8
0
  6
BYBLOCK
 62
     0
 10
4209.3787680000032
 20
13995.935443999981
 30
0.0
 40
15.0
 50
90.0
 51
270.0
  0
ARC
  5
4E36
  8
0
  6
BYBLOCK
 62
     0
 10
4209.3787680000032
 20
13803.44012899999
 30
0.0
 40
15.0
 50
90.0
 51
270.0
  0
ARC
  5
4E37
  8
0
  6
BYBLOCK
 62
     0
 10
4209.3787680000032
 20
13803.44012899999
 30
0.0
 40
15.0
 50
270.0
 51
90.0
  0
ARC
  5
4E38
  8
0
  6
BYBLOCK
 62
     0
 10
5138.878544000002
 20
20253.936632000001
 30
0.0
 40
15.0
 50
0.0
 51
180.0
  0
ARC
  5
4E39
  8
0
  6
BYBLOCK
 62
     0
 10
5138.878544000002
 20
20253.936632000001
 30
0.0
 40
15.0
 50
180.0
 51
0.0
  0
ARC
  5
4E3A
  8
0
  6
BYBLOCK
 62
     0
 10
5053.3785440000001
 20
20253.936632000001
 30
0.0
 40
15.0
 50
180.0
 51
0.0
  0
ARC
  5
4E3B
  8
0
  6
BYBLOCK
 62
     0
 10
5053.3785440000001
 20
20253.936632000001
 30
0.0
 40
15.0
 50
0.0
 51
180.0
  0
ARC
  5
4E3C
  8
0
  6
BYBLOCK
 62
     0
 10
8407.3785440000029
 20
20253.936632000001
 30
0.0
 40
15.0
 50
180.0
 51
0.0
  0
ARC
  5
4E3D
  8
0
  6
BYBLOCK
 62
     0
 10
8407.3785440000029
 20
20253.936632000001
 30
0.0
 40
15.0
 50
0.0
 51
180.0
  0
ARC
  5
4E3E
  8
0
  6
BYBLOCK
 62
     0
 10
5138.878544000002
 20
20253.936632000001
 30
0.0
 40
15.0
 50
0.0
 51
180.0
  0
ARC
  5
4E3F
  8
0
  6
BYBLOCK
 62
     0
 10
5138.878544000002
 20
20253.936632000001
 30
0.0
 40
15.0
 50
180.0
 51
0.0
  0
ARC
  5
4E40
  8
0
  6
BYBLOCK
 62
     0
 10
8407.3785440000029
 20
20253.936632000001
 30
0.0
 40
15.0
 50
0.0
 51
180.0
  0
ARC
  5
4E41
  8
0
  6
BYBLOCK
 62
     0
 10
8407.3785440000029
 20
20253.936632000001
 30
0.0
 40
15.0
 50
180.0
 51
0.0
  0
ARC
  5
4E42
  8
0
  6
BYBLOCK
 62
     0
 10
6656.1481469999999
 20
9032.5045560000017
 30
0.0
 40
15.0
 50
180.0
 51
0.0
  0
ARC
  5
4E43
  8
0
  6
BYBLOCK
 62
     0
 10
6656.1481469999999
 20
9032.5045560000017
 30
0.0
 40
15.0
 50
0.0
 51
180.0
  0
ARC
  5
4E44
  8
0
  6
BYBLOCK
 62
     0
 10
6476.1481469999999
 20
9032.5045560000017
 30
0.0
 40
15.0
 50
0.0
 51
180.0
  0
ARC
  5
4E45
  8
0
  6
BYBLOCK
 62
     0
 10
6476.1481469999999
 20
9032.5045560000017
 30
0.0
 40
15.0
 50
180.0
 51
0.0
  0
ARC
  5
4E46
  8
0
  6
BYBLOCK
 62
     0
 10
5566.149729000007
 20
5884.5028800000018
 30
0.0
 40
15.0
 50
90.0
 51
270.0
  0
ARC
  5
4E47
  8
0
  6
BYBLOCK
 62
     0
 10
5566.149729000007
 20
5884.5028800000018
 30
0.0
 40
15.0
 50
270.0
 51
90.0
  0
ARC
  5
4E48
  8
0
  6
BYBLOCK
 62
     0
 10
5566.1497290000088
 20
8040.5028800000073
 30
0.0
 40
15.0
 50
270.0
 51
90.0
  0
ARC
  5
4E49
  8
0
  6
BYBLOCK
 62
     0
 10
5566.1497290000088
 20
8040.5028800000073
 30
0.0
 40
15.0
 50
90.0
 51
270.0
  0
ARC
  5
4E4A
  8
0
  6
BYBLOCK
 62
     0
 10
6476.1481469999999
 20
9432.5029060000015
 30
0.0
 40
15.0
 50
0.0
 51
180.0
  0
ARC
  5
4E4B
  8
0
  6
BYBLOCK
 62
     0
 10
6476.1481469999999
 20
9432.5029060000015
 30
0.0
 40
15.0
 50
180.0
 51
0.0
  0
ARC
  5
4E4C
  8
0
  6
BYBLOCK
 62
     0
 10
6656.1481469999999
 20
9032.5045560000017
 30
0.0
 40
15.0
 50
0.0
 51
180.0
  0
ARC
  5
4E4D
  8
0
  6
BYBLOCK
 62
     0
 10
6656.1481469999999
 20
9032.5045560000017
 30
0.0
 40
15.0
 50
180.0
 51
0.0
  0
ARC
  5
4E4E
  8
0
  6
BYBLOCK
 62
     0
 10
6656.1481469999999
 20
4184.5032100000053
 30
0.0
 40
15.0
 50
0.0
 51
180.0
  0
ARC
  5
4E4F
  8
0
  6
BYBLOCK
 62
     0
 10
6656.1481469999999
 20
4184.5032100000053
 30
0.0
 40
15.0
 50
180.0
 51
0.0
  0
ARC
  5
4E50
  8
0
  6
BYBLOCK
 62
     0
 10
6698.6481469999999
 20
4584.5030450000031
 30
0.0
 40
15.0
 50
0.0
 51
180.0
  0
ARC
  5
4E51
  8
0
  6
BYBLOCK
 62
     0
 10
6698.6481469999999
 20
4584.5030450000031
 30
0.0
 40
15.0
 50
180.0
 51
0.0
  0
ARC
  5
4E52
  8
0
  6
BYBLOCK
 62
     0
 10
6656.1481469999999
 20
4584.5030450000031
 30
0.0
 40
15.0
 50
180.0
 51
0.0
  0
ARC
  5
4E53
  8
0
  6
BYBLOCK
 62
     0
 10
6656.1481469999999
 20
4584.5030450000031
 30
0.0
 40
15.0
 50
0.0
 51
180.0
  0
ARC
  5
4E54
  8
0
  6
BYBLOCK
 62
     0
 10
9266.1481469999999
 20
4584.5030450000031
 30
0.0
 40
15.0
 50
180.0
 51
0.0
  0
ARC
  5
4E55
  8
0
  6
BYBLOCK
 62
     0
 10
9266.1481469999999
 20
4584.5030450000031
 30
0.0
 40
15.0
 50
0.0
 51
180.0
  0
ARC
  5
4E56
  8
0
  6
BYBLOCK
 62
     0
 10
6698.6481469999999
 20
4584.5030450000031
 30
0.0
 40
15.0
 50
0.0
 51
180.0
  0
ARC
  5
4E57
  8
0
  6
BYBLOCK
 62
     0
 10
6698.6481469999999
 20
4584.5030450000031
 30
0.0
 40
15.0
 50
180.0
 51
0.0
  0
ARC
  5
4E58
  8
0
  6
BYBLOCK
 62
     0
 10
9266.1481469999999
 20
4584.5030450000031
 30
0.0
 40
15.0
 50
0.0
 51
180.0
  0
ARC
  5
4E59
  8
0
  6
BYBLOCK
 62
     0
 10
9266.1481469999999
 20
4584.5030450000031
 30
0.0
 40
15.0
 50
180.0
 51
0.0
  0
LINE
  5
4FA2
  8
0-1
  6
CONTINUOUS
 62
     3
 10
26337.552252999969
 20
7983.0024050000065
 30
0.0
 11
26337.552252999969
 21
8015.0023120000051
 31
0.0
  0
LINE
  5
4FA3
  8
0-1
  6
CONTINUOUS
 62
     3
 10
26486.55164599996
 20
7906.8156830000089
 30
0.0
 11
26443.549534999958
 21
7906.8156830000089
 31
0.0
  0
LINE
  5
4FA4
  8
0-1
  6
CONTINUOUS
 62
     3
 10
26486.55164599996
 20
8233.0027340000088
 30
0.0
 11
26486.55164599996
 21
7906.8156830000089
 31
0.0
  0
LINE
  5
4FA5
  8
0-1
  6
CONTINUOUS
 62
     3
 10
26051.585059999969
 20
7979.4669840000051
 30
0.0
 11
26019.58614299996
 21
8011.4668920000013
 31
0.0
  0
LINE
  5
4FA6
  8
0-1
  6
CONTINUOUS
 62
     3
 10
26332.55198899996
 20
8020.002576000008
 30
0.0
 11
26023.121562999961
 21
8020.002576000008
 31
0.0
  0
LINE
  5
4FA7
  8
0-1
  6
CONTINUOUS
 62
     3
 10
26337.552252999969
 20
8011.6034790000058
 30
0.0
 11
26019.455493999969
 21
8011.6034790000058
 31
0.0
  0
LINE
  5
4FA8
  8
0-1
  6
CONTINUOUS
 62
     3
 10
26332.55198899996
 20
7978.002141000009
 30
0.0
 11
26055.122459999959
 21
7978.002141000009
 31
0.0
  0
LINE
  5
4FA9
  8
0-1
  6
CONTINUOUS
 62
     3
 10
26337.552252999969
 20
7986.4022280000008
 30
0.0
 11
26044.650806999962
 21
7986.4022280000008
 31
0.0
  0
LINE
  5
4FAA
  8
0-1
  6
CONTINUOUS
 62
     3
 10
26337.552252999969
 20
7994.8023150000035
 30
0.0
 11
26036.25170899996
 21
7994.8023150000035
 31
0.0
  0
LINE
  5
4FAB
  8
0-1
  6
CONTINUOUS
 62
     3
 10
26337.552252999969
 20
8003.2033920000076
 30
0.0
 11
26027.850632999962
 21
8003.2033920000076
 31
0.0
  0
LINE
  5
4FAC
  8
0-1
  6
CONTINUOUS
 62
     3
 10
23482.015460999992
 20
7979.4669840000051
 30
0.0
 11
23514.012398999988
 21
8011.4668920000013
 31
0.0
  0
LINE
  5
4FAD
  8
0-1
  6
CONTINUOUS
 62
     3
 10
23196.050246999981
 20
7983.0024050000065
 30
0.0
 11
23196.050246999981
 21
8015.0023120000051
 31
0.0
  0
LINE
  5
4FAE
  8
0-1
  6
CONTINUOUS
 62
     3
 10
23069.048293999989
 20
7983.0024050000065
 30
0.0
 11
23069.048293999989
 21
8015.0023120000051
 31
0.0
  0
LINE
  5
4FAF
  8
0-1
  6
CONTINUOUS
 62
     3
 10
23196.050246999981
 20
7986.4022280000008
 30
0.0
 11
23488.94773499998
 21
7986.4022280000008
 31
0.0
  0
LINE
  5
4FB0
  8
0-1
  6
CONTINUOUS
 62
     3
 10
23196.050246999981
 20
7994.8023150000035
 30
0.0
 11
23497.348811999989
 21
7994.8023150000035
 31
0.0
  0
LINE
  5
4FB1
  8
0-1
  6
CONTINUOUS
 62
     3
 10
23201.050510999979
 20
7978.002141000009
 30
0.0
 11
23478.47806099998
 21
7978.002141000009
 31
0.0
  0
LINE
  5
4FB2
  8
0-1
  6
CONTINUOUS
 62
     3
 10
23196.050246999981
 20
8003.2033920000076
 30
0.0
 11
23505.747908999991
 21
8003.2033920000076
 31
0.0
  0
LINE
  5
4FB3
  8
0-1
  6
CONTINUOUS
 62
     3
 10
23196.050246999981
 20
8011.6034790000058
 30
0.0
 11
23514.14502699998
 21
8011.6034790000058
 31
0.0
  0
LINE
  5
4FB4
  8
0-1
  6
CONTINUOUS
 62
     3
 10
23201.050510999979
 20
8020.002576000008
 30
0.0
 11
23510.478958
 21
8020.002576000008
 31
0.0
  0
LINE
  5
4FB5
  8
0-1
  6
CONTINUOUS
 62
     3
 10
22783.08308099999
 20
7979.4669840000051
 30
0.0
 11
22751.086142999979
 21
8011.4668920000013
 31
0.0
  0
LINE
  5
4FB6
  8
0-1
  6
CONTINUOUS
 62
     3
 10
23064.050009999992
 20
7978.002141000009
 30
0.0
 11
22786.61850099999
 21
7978.002141000009
 31
0.0
  0
LINE
  5
4FB7
  8
0-1
  6
CONTINUOUS
 62
     3
 10
23064.050009999992
 20
8020.002576000008
 30
0.0
 11
22754.619582999971
 21
8020.002576000008
 31
0.0
  0
LINE
  5
4FB8
  8
0-1
  6
CONTINUOUS
 62
     3
 10
23069.048293999989
 20
7986.4022280000008
 30
0.0
 11
22776.15080699998
 21
7986.4022280000008
 31
0.0
  0
LINE
  5
4FB9
  8
0-1
  6
CONTINUOUS
 62
     3
 10
23069.048293999989
 20
7994.8023150000035
 30
0.0
 11
22767.74972999997
 21
7994.8023150000035
 31
0.0
  0
LINE
  5
4FBA
  8
0-1
  6
CONTINUOUS
 62
     3
 10
23069.048293999989
 20
8003.2033920000076
 30
0.0
 11
22759.35063299998
 21
8003.2033920000076
 31
0.0
  0
LINE
  5
4FBB
  8
0-1
  6
CONTINUOUS
 62
     3
 10
23069.048293999989
 20
8011.6034790000058
 30
0.0
 11
22750.95549499998
 21
8011.6034790000058
 31
0.0
  0
LINE
  5
4FBC
  8
0-1
  6
CONTINUOUS
 62
     3
 10
22041.656375999992
 20
7969.0022590000062
 30
0.0
 11
23090.05098699997
 21
7969.0022590000062
 31
0.0
  0
LINE
  5
4FBD
  8
0-1
  6
CONTINUOUS
 62
     3
 10
22041.656375999992
 20
8029.0024570000069
 30
0.0
 11
23090.05098699997
 21
8029.0024570000069
 31
0.0
  0
LINE
  5
4FBE
  8
0-1
  6
CONTINUOUS
 62
     3
 10
26486.55164599996
 20
8103.0018110000028
 30
0.0
 11
22041.656375999992
 21
8103.0018110000028
 31
0.0
  0
LINE
  5
4FBF
  8
0-1
  6
CONTINUOUS
 62
     3
 10
23175.04755499999
 20
8029.0024570000069
 30
0.0
 11
26358.550985999958
 21
8029.0024570000069
 31
0.0
  0
LINE
  5
4FC0
  8
0-1
  6
CONTINUOUS
 62
     3
 10
23175.04755499999
 20
7969.0022590000062
 30
0.0
 11
26358.550985999958
 21
7969.0022590000062
 31
0.0
  0
LINE
  5
4FC1
  8
0-1
  6
CONTINUOUS
 62
     3
 10
22041.656375999992
 20
8233.0027340000088
 30
0.0
 11
26486.55164599996
 21
8233.0027340000088
 31
0.0
  0
LINE
  5
4FC2
  8
0-1
  6
CONTINUOUS
 62
     3
 10
20696.044968999991
 20
7986.4022280000008
 30
0.0
 11
20988.946414999991
 21
7986.4022280000008
 31
0.0
  0
LINE
  5
4FC3
  8
0-1
  6
CONTINUOUS
 62
     3
 10
20696.044968999991
 20
7994.8023150000035
 30
0.0
 11
20997.343532999988
 21
7994.8023150000035
 31
0.0
  0
LINE
  5
4FC4
  8
0-1
  6
CONTINUOUS
 62
     3
 10
20701.045232999972
 20
7978.002141000009
 30
0.0
 11
20978.47476199998
 21
7978.002141000009
 31
0.0
  0
LINE
  5
4FC5
  8
0-1
  6
CONTINUOUS
 62
     3
 10
20696.044968999991
 20
8003.2033920000076
 30
0.0
 11
21005.746588999991
 21
8003.2033920000076
 31
0.0
  0
LINE
  5
4FC6
  8
0-1
  6
CONTINUOUS
 62
     3
 10
20701.045232999972
 20
8020.002576000008
 30
0.0
 11
21010.47367999997
 21
8020.002576000008
 31
0.0
  0
LINE
  5
4FC7
  8
0-1
  6
CONTINUOUS
 62
     3
 10
20696.044968999991
 20
7983.0024050000065
 30
0.0
 11
20696.044968999991
 21
8015.0023120000051
 31
0.0
  0
LINE
  5
4FC8
  8
0-1
  6
CONTINUOUS
 62
     3
 10
20569.043015999989
 20
7983.0024050000065
 30
0.0
 11
20569.043015999989
 21
8015.0023120000051
 31
0.0
  0
LINE
  5
4FC9
  8
0-1
  6
CONTINUOUS
 62
     3
 10
20696.044968999991
 20
8011.6034790000058
 30
0.0
 11
21014.13974799998
 21
8011.6034790000058
 31
0.0
  0
LINE
  5
4FCA
  8
0-1
  6
CONTINUOUS
 62
     3
 10
20982.01018199998
 20
7979.4669840000051
 30
0.0
 11
21014.007119999991
 21
8011.4668920000013
 31
0.0
  0
LINE
  5
4FCB
  8
0-1
  6
CONTINUOUS
 62
     3
 10
20283.081760999979
 20
7979.4669840000051
 30
0.0
 11
20251.080863999989
 21
8011.4668920000013
 31
0.0
  0
LINE
  5
4FCC
  8
0-1
  6
CONTINUOUS
 62
     3
 10
20569.043015999989
 20
8011.6034790000058
 30
0.0
 11
20250.95021599999
 21
8011.6034790000058
 31
0.0
  0
LINE
  5
4FCD
  8
0-1
  6
CONTINUOUS
 62
     3
 10
20569.043015999989
 20
8003.2033920000076
 30
0.0
 11
20259.34535399999
 21
8003.2033920000076
 31
0.0
  0
LINE
  5
4FCE
  8
0-1
  6
CONTINUOUS
 62
     3
 10
20569.043015999989
 20
7994.8023150000035
 30
0.0
 11
20267.74445099998
 21
7994.8023150000035
 31
0.0
  0
LINE
  5
4FCF
  8
0-1
  6
CONTINUOUS
 62
     3
 10
20569.043015999989
 20
7986.4022280000008
 30
0.0
 11
20276.143548999989
 21
7986.4022280000008
 31
0.0
  0
LINE
  5
4FD0
  8
0-1
  6
CONTINUOUS
 62
     3
 10
20564.044730999991
 20
8020.002576000008
 30
0.0
 11
20254.614304999981
 21
8020.002576000008
 31
0.0
  0
LINE
  5
4FD1
  8
0-1
  6
CONTINUOUS
 62
     3
 10
20564.044730999991
 20
7978.002141000009
 30
0.0
 11
20286.61718199998
 21
7978.002141000009
 31
0.0
  0
LINE
  5
4FD2
  8
0-1
  6
CONTINUOUS
 62
     3
 10
17432.543252999989
 20
7978.002141000009
 30
0.0
 11
17709.97278299999
 21
7978.002141000009
 31
0.0
  0
LINE
  5
4FD3
  8
0-1
  6
CONTINUOUS
 62
     3
 10
17427.544968999991
 20
7983.0024050000065
 30
0.0
 11
17427.544968999991
 21
8015.0023120000051
 31
0.0
  0
LINE
  5
4FD4
  8
0-1
  6
CONTINUOUS
 62
     3
 10
17278.543596999982
 20
7906.8156830000089
 30
0.0
 11
17321.541749
 21
7906.8156830000089
 31
0.0
  0
LINE
  5
4FD5
  8
0-1
  6
CONTINUOUS
 62
     3
 10
17278.543596999982
 20
7906.8156830000089
 30
0.0
 11
17278.543596999982
 21
8233.0027340000088
 31
0.0
  0
LINE
  5
4FD6
  8
0-1
  6
CONTINUOUS
 62
     3
 10
17432.543252999989
 20
8020.002576000008
 30
0.0
 11
17741.973679999999
 21
8020.002576000008
 31
0.0
  0
LINE
  5
4FD7
  8
0-1
  6
CONTINUOUS
 62
     3
 10
17713.506222999989
 20
7979.4669840000051
 30
0.0
 11
17745.507120999991
 21
8011.4668920000013
 31
0.0
  0
LINE
  5
4FD8
  8
0-1
  6
CONTINUOUS
 62
     3
 10
17427.544968999991
 20
8011.6034790000058
 30
0.0
 11
17745.639748000001
 21
8011.6034790000058
 31
0.0
  0
LINE
  5
4FD9
  8
0-1
  6
CONTINUOUS
 62
     3
 10
17427.544968999991
 20
8003.2033920000076
 30
0.0
 11
17737.24263099999
 21
8003.2033920000076
 31
0.0
  0
LINE
  5
4FDA
  8
0-1
  6
CONTINUOUS
 62
     3
 10
17427.544968999991
 20
7994.8023150000035
 30
0.0
 11
17728.843532999999
 21
7994.8023150000035
 31
0.0
  0
LINE
  5
4FDB
  8
0-1
  6
CONTINUOUS
 62
     3
 10
17427.544968999991
 20
7986.4022280000008
 30
0.0
 11
17720.444436000002
 21
7986.4022280000008
 31
0.0
  0
LINE
  5
4FDC
  8
0-1
  6
CONTINUOUS
 62
     3
 10
17406.54227699999
 20
7969.0022590000062
 30
0.0
 11
20590.04372799999
 21
7969.0022590000062
 31
0.0
  0
LINE
  5
4FDD
  8
0-1
  6
CONTINUOUS
 62
     3
 10
17406.54227699999
 20
8029.0024570000069
 30
0.0
 11
20590.04372799999
 21
8029.0024570000069
 31
0.0
  0
LINE
  5
4FDE
  8
0-1
  6
CONTINUOUS
 62
     3
 10
17278.543596999982
 20
8233.0027340000088
 30
0.0
 11
21741.656375999999
 21
8233.0027340000088
 31
0.0
  0
LINE
  5
4FDF
  8
0-1
  6
CONTINUOUS
 62
     3
 10
20675.04623599998
 20
8029.0024570000069
 30
0.0
 11
21741.656375999999
 21
8029.0024570000069
 31
0.0
  0
LINE
  5
4FE0
  8
0-1
  6
CONTINUOUS
 62
     3
 10
20675.04623599998
 20
7969.0022590000062
 30
0.0
 11
21741.656375999999
 21
7969.0022590000062
 31
0.0
  0
LINE
  5
4FE1
  8
0-1
  6
CONTINUOUS
 62
     3
 10
21741.656375999999
 20
8103.0018110000028
 30
0.0
 11
17278.543596999982
 21
8103.0018110000028
 31
0.0
  0
LINE
  5
4FE2
  8
0-1
  6
CONTINUOUS
 62
     3
 10
20632.543991999992
 20
8103.0018110000028
 30
0.0
 11
20632.543991999992
 21
8233.0027340000088
 31
0.0
  0
LINE
  5
4FE3
  8
0-1
  6
CONTINUOUS
 62
     3
 10
23132.54927099996
 20
8103.0018110000028
 30
0.0
 11
23132.54927099996
 21
8233.0027340000088
 31
0.0
  0
ARC
  5
4FE4
  8
0-1
  6
CONTINUOUS
 62
     3
 10
26332.55198899996
 20
8015.0023120000051
 30
0.0
 40
5.0
 50
0.0
 51
90.0
  0
ARC
  5
4FE5
  8
0-1
  6
CONTINUOUS
 62
     3
 10
26332.55198899996
 20
7983.0024050000065
 30
0.0
 40
5.0
 50
269.9999850001808
 51
0.0
  0
ARC
  5
4FE6
  8
0-1
  6
CONTINUOUS
 62
     3
 10
26023.121562999961
 20
8015.0023120000051
 30
0.0
 40
5.0
 50
90.0
 51
224.99998499997989
  0
ARC
  5
4FE7
  8
0-1
  6
CONTINUOUS
 62
     3
 10
26055.122459999959
 20
7983.0024050000065
 30
0.0
 40
5.0
 50
224.99998499997989
 51
269.9999850001808
  0
ARC
  5
4FE8
  8
0-1
  6
CONTINUOUS
 62
     3
 10
23510.478958
 20
8015.0023120000051
 30
0.0
 40
5.0
 50
314.99998500027471
 51
90.0
  0
ARC
  5
4FE9
  8
0-1
  6
CONTINUOUS
 62
     3
 10
23478.47806099998
 20
7983.0024050000065
 30
0.0
 40
5.0
 50
269.9999850001808
 51
314.99998500027471
  0
ARC
  5
4FEA
  8
0-1
  6
CONTINUOUS
 62
     3
 10
23201.050510999979
 20
7983.0024050000065
 30
0.0
 40
5.0
 50
180.0
 51
269.9999850001808
  0
ARC
  5
4FEB
  8
0-1
  6
CONTINUOUS
 62
     3
 10
23201.050510999979
 20
8015.0023120000051
 30
0.0
 40
5.0
 50
90.0
 51
180.0
  0
ARC
  5
4FEC
  8
0-1
  6
CONTINUOUS
 62
     3
 10
23064.050009999992
 20
8015.0023120000051
 30
0.0
 40
5.0
 50
0.0
 51
90.0
  0
ARC
  5
4FED
  8
0-1
  6
CONTINUOUS
 62
     3
 10
23064.050009999992
 20
7983.0024050000065
 30
0.0
 40
5.0
 50
269.9999850001808
 51
0.0
  0
ARC
  5
4FEE
  8
0-1
  6
CONTINUOUS
 62
     3
 10
22786.61850099999
 20
7983.0024050000065
 30
0.0
 40
5.0
 50
224.99998499997989
 51
269.9999850001808
  0
ARC
  5
4FEF
  8
0-1
  6
CONTINUOUS
 62
     3
 10
22754.619582999971
 20
8015.0023120000051
 30
0.0
 40
5.0
 50
90.0
 51
224.99998499997989
  0
ARC
  5
4FF0
  8
0-1
  6
CONTINUOUS
 62
     3
 10
20701.045232999972
 20
7983.0024050000065
 30
0.0
 40
5.0
 50
180.0
 51
269.9999850001808
  0
ARC
  5
4FF1
  8
0-1
  6
CONTINUOUS
 62
     3
 10
20701.045232999972
 20
8015.0023120000051
 30
0.0
 40
5.0
 50
90.0
 51
180.0
  0
ARC
  5
4FF2
  8
0-1
  6
CONTINUOUS
 62
     3
 10
20978.47476199998
 20
7983.0024050000065
 30
0.0
 40
5.0
 50
269.9999850001808
 51
314.99998500027471
  0
ARC
  5
4FF3
  8
0-1
  6
CONTINUOUS
 62
     3
 10
20564.044730999991
 20
7983.0024050000065
 30
0.0
 40
5.0
 50
269.9999850001808
 51
0.0
  0
ARC
  5
4FF4
  8
0-1
  6
CONTINUOUS
 62
     3
 10
20564.044730999991
 20
8015.0023120000051
 30
0.0
 40
5.0
 50
0.0
 51
90.0
  0
ARC
  5
4FF5
  8
0-1
  6
CONTINUOUS
 62
     3
 10
21010.47367999997
 20
8015.0023120000051
 30
0.0
 40
5.0
 50
314.99998500027471
 51
90.0
  0
ARC
  5
4FF6
  8
0-1
  6
CONTINUOUS
 62
     3
 10
20254.614304999981
 20
8015.0023120000051
 30
0.0
 40
5.0
 50
90.0
 51
224.99998499997989
  0
ARC
  5
4FF7
  8
0-1
  6
CONTINUOUS
 62
     3
 10
20286.61718199998
 20
7983.0024050000065
 30
0.0
 40
5.0
 50
224.99998499997989
 51
269.9999850001808
  0
ARC
  5
4FF8
  8
0-1
  6
CONTINUOUS
 62
     3
 10
17741.973679999999
 20
8015.0023120000051
 30
0.0
 40
5.0
 50
314.99998500027471
 51
90.0
  0
ARC
  5
4FF9
  8
0-1
  6
CONTINUOUS
 62
     3
 10
17432.543252999989
 20
8015.0023120000051
 30
0.0
 40
5.0
 50
90.0
 51
180.0
  0
ARC
  5
4FFA
  8
0-1
  6
CONTINUOUS
 62
     3
 10
17432.543252999989
 20
7983.0024050000065
 30
0.0
 40
5.0
 50
180.0
 51
269.9999850001808
  0
ARC
  5
4FFB
  8
0-1
  6
CONTINUOUS
 62
     3
 10
17709.97278299999
 20
7983.0024050000065
 30
0.0
 40
5.0
 50
269.9999850001808
 51
314.99998500027471
  0
LINE
  5
4FFC
  8
SUNPOU
  6
CONTINUOUS
 62
     4
 10
17278.541616999981
 20
8313.0027340000051
 30
0.0
 11
17278.541616999981
 21
9512.4603460000017
 31
0.0
  0
LINE
  5
4FFD
  8
SUNPOU
  6
CONTINUOUS
 62
     4
 10
26486.55164599996
 20
8313.0027340000051
 30
0.0
 11
26486.55164599996
 21
9512.4603460000017
 31
0.0
  0
LINE
  5
4FFE
  8
SUNPOU
  6
CONTINUOUS
 62
     4
 10
17281.541616999981
 20
9432.4603460000035
 30
0.0
 11
26483.55164599996
 21
9432.4603460000035
 31
0.0
  0
LINE
  5
4FFF
  8
SUNPOU
  6
CONTINUOUS
 62
     4
 10
17321.54372799999
 20
8313.0027340000051
 30
0.0
 11
17321.54372799999
 21
9112.5025760000099
 31
0.0
  0
LINE
  5
5000
  8
SUNPOU
  6
CONTINUOUS
 62
     4
 10
26443.549534999958
 20
8313.0027340000051
 30
0.0
 11
26443.549534999958
 21
9112.5025760000099
 31
0.0
  0
LINE
  5
5001
  8
SUNPOU
  6
CONTINUOUS
 62
     4
 10
17321.54372799999
 20
9032.5025759999971
 30
0.0
 11
26443.549534999958
 21
9032.5025759999971
 31
0.0
  0
LINE
  5
5002
  8
SUNPOU
  6
CONTINUOUS
 62
     4
 10
17321.54372799999
 20
8313.0027340000051
 30
0.0
 11
17321.54372799999
 21
9112.5025760000099
 31
0.0
  0
LINE
  5
5003
  8
SUNPOU
  6
CONTINUOUS
 62
     4
 10
17278.541616999981
 20
8313.0027340000051
 30
0.0
 11
17278.541616999981
 21
9112.5025760000099
 31
0.0
  0
LINE
  5
5004
  8
SUNPOU
  6
CONTINUOUS
 62
     4
 10
17321.54372799999
 20
9032.5025759999971
 30
0.0
 11
17561.54372799999
 21
9032.5025759999971
 31
0.0
  0
LINE
  5
5005
  8
SUNPOU
  6
CONTINUOUS
 62
     4
 10
17281.541616999981
 20
9032.5025759999971
 30
0.0
 11
17041.541616999981
 21
9032.5025759999971
 31
0.0
  0
LINE
  5
5006
  8
SUNPOU
  6
CONTINUOUS
 62
     4
 10
17321.54372799999
 20
9032.5025759999971
 30
0.0
 11
17281.541616999981
 21
9032.5025759999971
 31
0.0
  0
LINE
  5
5007
  8
SUNPOU
  6
CONTINUOUS
 62
     4
 10
26443.549534999958
 20
8313.0027340000051
 30
0.0
 11
26443.549534999958
 21
9112.5025760000099
 31
0.0
  0
LINE
  5
5008
  8
SUNPOU
  6
CONTINUOUS
 62
     4
 10
26486.55164599996
 20
8313.0027340000051
 30
0.0
 11
26486.55164599996
 21
9112.5025760000099
 31
0.0
  0
LINE
  5
5009
  8
SUNPOU
  6
CONTINUOUS
 62
     4
 10
26443.549534999958
 20
9032.5025759999971
 30
0.0
 11
26203.549534999958
 21
9032.5025759999971
 31
0.0
  0
LINE
  5
500A
  8
SUNPOU
  6
CONTINUOUS
 62
     4
 10
26483.55164599996
 20
9032.5025759999971
 30
0.0
 11
26723.55164599996
 21
9032.5025759999971
 31
0.0
  0
LINE
  5
500B
  8
SUNPOU
  6
CONTINUOUS
 62
     4
 10
26443.549534999958
 20
9032.5025759999971
 30
0.0
 11
26483.55164599996
 21
9032.5025759999971
 31
0.0
  0
TEXT
  5
500C
  8
0
  6
CONTINUOUS
 62
     7
 10
26603.55164599996
 20
9112.5025760000099
 30
0.0
 40
160.0
  1
43
  0
TEXT
  5
500D
  8
0
  6
CONTINUOUS
 62
     7
 10
16921.54161699997
 20
9112.5025760000099
 30
0.0
 40
160.0
  1
43
  0
TEXT
  5
500E
  8
0
  6
CONTINUOUS
 62
     7
 10
20842.546631499979
 20
9112.5025760000099
 30
0.0
 40
160.0
  1
3268.5 \U+00D7 ｎ ＋ 85
  0
TEXT
  5
500F
  8
0
  6
CONTINUOUS
 62
     7
 10
20789.213298166651
 20
9512.4603460000017
 30
0.0
 40
160.0
  1
3268.5 \U+00D7 ｎ ＋ 171
  0
ARC
  5
5010
  8
0
  6
BYBLOCK
 62
     0
 10
17278.541616999981
 20
9432.4603460000035
 30
0.0
 40
15.0
 50
0.0
 51
180.0
  0
ARC
  5
5011
  8
0
  6
BYBLOCK
 62
     0
 10
17278.541616999981
 20
9432.4603460000035
 30
0.0
 40
15.0
 50
180.0
 51
0.0
  0
ARC
  5
5012
  8
0
  6
BYBLOCK
 62
     0
 10
26486.55164599996
 20
9432.4603460000035
 30
0.0
 40
15.0
 50
180.0
 51
0.0
  0
ARC
  5
5013
  8
0
  6
BYBLOCK
 62
     0
 10
26486.55164599996
 20
9432.4603460000035
 30
0.0
 40
15.0
 50
0.0
 51
180.0
  0
ARC
  5
5014
  8
0
  6
BYBLOCK
 62
     0
 10
17321.54372799999
 20
9032.5025759999971
 30
0.0
 40
15.0
 50
0.0
 51
180.0
  0
ARC
  5
5015
  8
0
  6
BYBLOCK
 62
     0
 10
17321.54372799999
 20
9032.5025759999971
 30
0.0
 40
15.0
 50
180.0
 51
0.0
  0
ARC
  5
5016
  8
0
  6
BYBLOCK
 62
     0
 10
26443.549534999958
 20
9032.5025759999971
 30
0.0
 40
15.0
 50
180.0
 51
0.0
  0
ARC
  5
5017
  8
0
  6
BYBLOCK
 62
     0
 10
26443.549534999958
 20
9032.5025759999971
 30
0.0
 40
15.0
 50
0.0
 51
180.0
  0
ARC
  5
5018
  8
0
  6
BYBLOCK
 62
     0
 10
17321.54372799999
 20
9032.5025759999971
 30
0.0
 40
15.0
 50
0.0
 51
180.0
  0
ARC
  5
5019
  8
0
  6
BYBLOCK
 62
     0
 10
17321.54372799999
 20
9032.5025759999971
 30
0.0
 40
15.0
 50
180.0
 51
0.0
  0
ARC
  5
501A
  8
0
  6
BYBLOCK
 62
     0
 10
17278.541616999981
 20
9032.5025759999971
 30
0.0
 40
15.0
 50
180.0
 51
0.0
  0
ARC
  5
501B
  8
0
  6
BYBLOCK
 62
     0
 10
17278.541616999981
 20
9032.5025759999971
 30
0.0
 40
15.0
 50
0.0
 51
180.0
  0
ARC
  5
501C
  8
0
  6
BYBLOCK
 62
     0
 10
26443.549534999958
 20
9032.5025759999971
 30
0.0
 40
15.0
 50
180.0
 51
0.0
  0
ARC
  5
501D
  8
0
  6
BYBLOCK
 62
     0
 10
26443.549534999958
 20
9032.5025759999971
 30
0.0
 40
15.0
 50
0.0
 51
180.0
  0
ARC
  5
501E
  8
0
  6
BYBLOCK
 62
     0
 10
26486.55164599996
 20
9032.5025759999971
 30
0.0
 40
15.0
 50
0.0
 51
180.0
  0
ARC
  5
501F
  8
0
  6
BYBLOCK
 62
     0
 10
26486.55164599996
 20
9032.5025759999971
 30
0.0
 40
15.0
 50
180.0
 51
0.0
  0
TEXT
  5
5076
  8
NAME
 10
24033.05354655402
 20
1076.0
 30
0.0
 40
360.0
  1
H
 41
0.6700000000000002
  7
00
  0
TEXT
  5
5077
  8
NAME
 10
23657.2215619737
 20
1076.0
 30
0.0
 40
360.0
  1
（ ）
  7
01
  0
TEXT
  5
5078
  8
NAME
 10
24557.214549256751
 20
1076.0
 30
0.0
 40
360.0
  1
型（ 連棟）
  7
01
  0
TEXT
  5
5079
  8
NAME
 10
21816.089515848402
 20
1076.6369801169251
 30
0.0
 40
360.0
  1
VGC-3355
 41
0.6700000000000002
  0
TEXT
  5
507A
  8
NAME
 10
25322.399158861332
 20
1076.0
 30
0.0
 40
360.0
  1
n
 41
0.6700000000000002
  7
00
  0
TEXT
  5
507C
  8
NAME
 10
21933.552716389018
 20
1876.0
 30
0.0
 40
360.0
  1
ヨドガレージ ラヴィージュ
 41
0.75
  7
01
  0
LINE
  5
507D
  8
NAME
  6
CONTINUOUS
 10
26067.886878884321
 20
2236.0
 30
0.0
 11
26067.886878884321
 21
1876.0
 31
0.0
  0
LINE
  5
507E
  8
NAME
  6
CONTINUOUS
 10
26167.886878884321
 20
2236.0
 30
0.0
 11
26167.886878884321
 21
1876.0
 31
0.0
  0
LINE
  5
507F
  8
NAME
  6
CONTINUOUS
 10
26267.886878884321
 20
2236.0
 30
0.0
 11
26267.886878884321
 21
1876.0
 31
0.0
  0
LINE
  5
5080
  8
NAME
  6
CONTINUOUS
 10
26007.886878884321
 20
2236.0
 30
0.0
 11
26327.886878884321
 21
2236.0
 31
0.0
  0
LINE
  5
5081
  8
NAME
  6
CONTINUOUS
 10
26327.886878884321
 20
1876.0
 30
0.0
 11
26007.886878884321
 21
1876.0
 31
0.0
  0
LINE
  5
50DB
  8
2-0
  6
CONTINUOUS
 62
     3
 10
23090.049006999961
 20
16871.438149500002
 30
0.0
 11
23175.049534999958
 21
16871.438149500002
 31
0.0
  0
LINE
  5
50DC
  8
2-0
  6
CONTINUOUS
 62
     3
 10
23175.049534999958
 20
16956.432738499981
 30
0.0
 11
23090.049006999961
 21
16956.432738499981
 31
0.0
  0
LINE
  5
50DD
  8
2-0
  6
CONTINUOUS
 62
     3
 10
23090.049006999961
 20
16956.432738499981
 30
0.0
 11
23090.049006999961
 21
16871.438149500002
 31
0.0
  0
LINE
  5
50DE
  8
2-0
  6
CONTINUOUS
 62
     3
 10
23175.049534999958
 20
16871.438149500002
 30
0.0
 11
23175.049534999958
 21
16956.432738499981
 31
0.0
  0
LINE
  5
50DF
  8
2-0
  6
CONTINUOUS
 62
     6
 10
24653.129593286449
 20
16119.33530049999
 30
0.0
 11
23622.780274286481
 21
16119.33530049999
 31
0.0
  0
LINE
  5
50E0
  8
2-0
  6
CONTINUOUS
 62
     6
 10
23171.482442
 20
16862.297511000012
 30
0.0
 11
23622.780274286481
 21
16119.33530049999
 31
0.0
  0
LINE
  5
50E1
  8
2-0
  6
CONTINUOUS
 62
     6
 10
23231.76076199998
 20
16711.701676000019
 30
0.0
 11
23171.482442
 21
16862.297511000012
 31
0.0
  0
LINE
  5
50E2
  8
2-0
  6
CONTINUOUS
 62
     6
 10
23171.482442
 20
16862.297511000012
 30
0.0
 11
23277.341156999999
 21
16739.389202999981
 31
0.0
  0
LINE
  5
50E3
  8
2-0
  6
CONTINUOUS
 62
     6
 10
23231.76076199998
 20
16711.701676000019
 30
0.0
 11
23277.341156999999
 21
16739.389202999981
 31
0.0
  0
LINE
  5
50E4
  8
2-0
  6
CONTINUOUS
 62
     6
 10
23277.341156999999
 20
16739.389202999981
 30
0.0
 11
23171.482442
 21
16862.297511000012
 31
0.0
  0
LINE
  5
50E5
  8
2-0
  6
CONTINUOUS
 62
     6
 10
23171.482442
 20
16862.297511000012
 30
0.0
 11
23231.76076199998
 21
16711.701676000019
 31
0.0
  0
LINE
  5
50E6
  8
2-0
  6
CONTINUOUS
 62
     6
 10
23231.76076199998
 20
16711.701676000019
 30
0.0
 11
23171.482442
 21
16862.297511000012
 31
0.0
  0
LINE
  5
50E7
  8
2-0
  6
CONTINUOUS
 62
     6
 10
23277.341156999999
 20
16739.389202999981
 30
0.0
 11
23171.482442
 21
16862.297511000012
 31
0.0
  0
LINE
  5
50E8
  8
2-0
  6
CONTINUOUS
 62
     6
 10
23277.341156999999
 20
16739.389202999981
 30
0.0
 11
23231.76076199998
 21
16711.701676000019
 31
0.0
  0
TEXT
  5
50E9
  8
2-0
  6
CONTINUOUS
 62
     7
 10
23686.09550161982
 20
16192.335987499981
 30
0.0
 40
160.0
  1
中柱（中）
 72
     4
 11
24107.428834953149
 21
16272.335987499981
 31
0.0
  0
TEXT
  5
5142
  8
FILENAME
  6
CONTINUOUS
 10
28737.333333333328
 20
348.0
 30
0.0
 40
200.0
  1
＜VGC-3355-N-A_0.DXF ＞
  7
FILENAME
 72
     2
 11
32764.0
 21
348.0
 31
0.0
  0
LINE
  5
5148
  8
WAKUSEN-01
 10
868.00000000000193
 20
827.99999999999955
 30
0.0
 11
32764.000000000011
 21
827.99999999999943
 31
0.0
  0
LINE
  5
5149
  8
WAKUSEN-01
 10
868.00000000000193
 20
827.99999999999955
 30
0.0
 11
868.00000000000193
 21
22484.000000000011
 31
0.0
  0
LINE
  5
514A
  8
WAKUSEN-01
 10
32764.000000000011
 20
827.99999999999943
 30
0.0
 11
32764.000000000011
 21
22484.000000000011
 31
0.0
  0
LINE
  5
514B
  8
WAKUSEN-01
 10
20560.0
 20
827.99999999999716
 30
0.0
 11
20560.0
 21
2484.0
 31
0.0
  0
LINE
  5
514C
  8
WAKUSEN-02
 10
26868.0
 20
827.99999999999261
 30
0.0
 11
26868.0
 21
2484.0
 31
0.0
  0
ENDSEC
  0
EOF
