  0
SECTION
  2
HEADER
  9
$ACADVER
  1
AC1009
  9
$INSBASE
 10
0.0
 20
0.0
 30
0.0
  9
$EXTMIN
 10
867.99324330406671
 20
327.38164749855792
 30
-0.0000000000000053
  9
$EXTMAX
 10
32765.33210850941
 20
22484.553276491992
 30
0.0000000000000099
  9
$LIMMIN
 10
0.0
 20
0.0
  9
$LIMMAX
 10
33600.0
 20
23760.0
  9
$ORTHOMODE
 70
     1
  9
$REGENMODE
 70
     1
  9
$FILLMODE
 70
     1
  9
$QTEXTMODE
 70
     0
  9
$MIRRTEXT
 70
     1
  9
$DRAGMODE
 70
     2
  9
$LTSCALE
 40
80.0
  9
$OSMODE
 70
  3071
  9
$ATTMODE
 70
     1
  9
$TEXTSIZE
 40
0.2
  9
$TRACEWID
 40
0.05
  9
$TEXTSTYLE
  7
00
  9
$CLAYER
  8
0
  9
$CELTYPE
  6
BYLAYER
  9
$CECOLOR
 62
   256
  9
$DIMSCALE
 40
80.0
  9
$DIMASZ
 40
3.0
  9
$DIMEXO
 40
1.0
  9
$DIMDLI
 40
0.38
  9
$DIMRND
 40
0.5
  9
$DIMDLE
 40
0.0
  9
$DIMEXE
 40
1.0
  9
$DIMTP
 40
0.0
  9
$DIMTM
 40
0.0
  9
$DIMTXT
 40
2.0
  9
$DIMCEN
 40
0.09
  9
$DIMTSZ
 40
0.0
  9
$DIMTOL
 70
     0
  9
$DIMLIM
 70
     0
  9
$DIMTIH
 70
     0
  9
$DIMTOH
 70
     0
  9
$DIMSE1
 70
     0
  9
$DIMSE2
 70
     0
  9
$DIMTAD
 70
     1
  9
$DIMZIN
 70
     8
  9
$DIMBLK
  1
DOTSMALL
  9
$DIMASO
 70
     1
  9
$DIMSHO
 70
     1
  9
$DIMPOST
  1

  9
$DIMAPOST
  1

  9
$DIMALT
 70
     0
  9
$DIMALTD
 70
     2
  9
$DIMALTF
 40
25.399999999999999
  9
$DIMLFAC
 40
1.0
  9
$DIMTOFL
 70
     1
  9
$DIMTVP
 40
0.0
  9
$DIMTIX
 70
     0
  9
$DIMSOXD
 70
     0
  9
$DIMSAH
 70
     0
  9
$DIMBLK1
  1

  9
$DIMBLK2
  1

  9
$DIMSTYLE
  2
SUNPOU
  9
$DIMCLRD
 70
     4
  9
$DIMCLRE
 70
     4
  9
$DIMCLRT
 70
     7
  9
$DIMTFAC
 40
1.0
  9
$DIMGAP
 40
1.0
  9
$LUNITS
 70
     2
  9
$LUPREC
 70
     4
  9
$SKETCHINC
 40
0.1
  9
$FILLETRAD
 40
0.0
  9
$AUNITS
 70
     0
  9
$AUPREC
 70
     0
  9
$MENU
  1
acad
  9
$ELEVATION
 40
0.0
  9
$PELEVATION
 40
0.0
  9
$THICKNESS
 40
0.0
  9
$LIMCHECK
 70
     0
  9
$BLIPMODE
 70
     1
  9
$CHAMFERA
 40
0.0
  9
$CHAMFERB
 40
0.0
  9
$SKPOLY
 70
     0
  9
$TDCREATE
 40
2311940.074926944
  9
$TDUPDATE
 40
2458942.4300695369
  9
$TDINDWG
 40
0.040256088
  9
$TDUSRTIMER
 40
0.0402551852
  9
$USRTIMER
 70
     1
  9
$ANGBASE
 50
0.0
  9
$ANGDIR
 70
     0
  9
$PDMODE
 70
     0
  9
$PDSIZE
 40
0.0
  9
$PLINEWID
 40
0.0
  9
$COORDS
 70
     1
  9
$SPLFRAME
 70
     0
  9
$SPLINETYPE
 70
     6
  9
$SPLINESEGS
 70
     8
  9
$ATTDIA
 70
     1
  9
$ATTREQ
 70
     1
  9
$HANDLING
 70
     1
  9
$HANDSEED
  5
50F7
  9
$SURFTAB1
 70
     6
  9
$SURFTAB2
 70
     6
  9
$SURFTYPE
 70
     6
  9
$SURFU
 70
     6
  9
$SURFV
 70
     6
  9
$UCSNAME
  2

  9
$UCSORG
 10
0.0
 20
0.0
 30
0.0
  9
$UCSXDIR
 10
1.0
 20
0.0
 30
0.0
  9
$UCSYDIR
 10
0.0
 20
1.0
 30
0.0
  9
$PUCSNAME
  2

  9
$PUCSORG
 10
0.0
 20
0.0
 30
0.0
  9
$PUCSXDIR
 10
1.0
 20
0.0
 30
0.0
  9
$PUCSYDIR
 10
0.0
 20
1.0
 30
0.0
  9
$USERI1
 70
     0
  9
$USERI2
 70
     0
  9
$USERI3
 70
     0
  9
$USERI4
 70
     0
  9
$USERI5
 70
     0
  9
$USERR1
 40
0.0
  9
$USERR2
 40
0.0
  9
$USERR3
 40
0.0
  9
$USERR4
 40
0.0
  9
$USERR5
 40
0.0
  9
$WORLDVIEW
 70
     1
  9
$SHADEDGE
 70
     3
  9
$SHADEDIF
 70
    70
  9
$TILEMODE
 70
     1
  9
$MAXACTVP
 70
    16
  9
$PLIMCHECK
 70
     0
  9
$PEXTMIN
 10
1.0000000000000000E+020
 20
1.0000000000000000E+020
 30
1.0000000000000000E+020
  9
$PEXTMAX
 10
-1.0000000000000000E+020
 20
-1.0000000000000000E+020
 30
-1.0000000000000000E+020
  9
$PLIMMIN
 10
0.0
 20
0.0
  9
$PLIMMAX
 10
12.0
 20
9.0
  9
$UNITMODE
 70
     0
  9
$VISRETAIN
 70
     0
  9
$PLINEGEN
 70
     1
  9
$PSLTSCALE
 70
     0
  0
ENDSEC
  0
SECTION
  2
TABLES
  0
TABLE
  2
VPORT
 70
     1
  0
VPORT
  2
*ACTIVE
 70
     0
 10
0.0
 20
0.0
 11
1.0
 21
1.0
 12
16800.0
 22
11880.0
 13
0.0
 23
0.0
 14
1.0
 24
1.0
 15
0.0
 25
0.0
 16
0.0
 26
0.0
 36
1.0
 17
0.0
 27
0.0
 37
0.0
 40
23981.023255813951
 41
2.195652173913043
 42
50.0
 43
0.0
 44
0.0
 50
0.0
 51
0.0
 71
     0
 72
 10000
 73
     1
 74
     1
 75
     0
 76
     0
 77
     0
 78
     0
  0
ENDTAB
  0
TABLE
  2
LTYPE
 70
     3
  0
LTYPE
  2
CONTINUOUS
 70
     0
  3
Solid line
 72
    65
 73
     0
 40
0.0
  0
LTYPE
  2
DASHED3
 70
     0
  3
------  ------  ------  ------  
 72
    65
 73
     2
 40
5.0
 49
3.75
 49
-1.25
  0
LTYPE
  2
CENTER2
 70
     0
  3
----------  --  ----------  --  
 72
    65
 73
     4
 40
20.0
 49
12.5
 49
-2.5
 49
2.5
 49
-2.5
  0
ENDTAB
  0
TABLE
  2
LAYER
 70
    18
  0
LAYER
  2
0
 70
     0
 62
     7
  6
CONTINUOUS
  0
LAYER
  2
SUNPOU
 70
     0
 62
     4
  6
CONTINUOUS
  0
LAYER
  2
0-1
 70
     0
 62
     7
  6
CONTINUOUS
  0
LAYER
  2
0-2
 70
     0
 62
     7
  6
CONTINUOUS
  0
LAYER
  2
0-5
 70
     0
 62
     7
  6
CONTINUOUS
  0
LAYER
  2
2-0
 70
     0
 62
     7
  6
CONTINUOUS
  0
LAYER
  2
2-1
 70
     0
 62
     7
  6
CONTINUOUS
  0
LAYER
  2
0-3
 70
     0
 62
     7
  6
CONTINUOUS
  0
LAYER
  2
YODOROGO
 70
     0
 62
   130
  6
CONTINUOUS
  0
LAYER
  2
WAKUSEN-01
 70
     0
 62
    50
  6
CONTINUOUS
  0
LAYER
  2
WAKUSEN-02
 70
     0
 62
   130
  6
CONTINUOUS
  0
LAYER
  2
WAKUMOJI-01
 70
     0
 62
   130
  6
CONTINUOUS
  0
LAYER
  2
FILENAME
 70
     0
 62
     7
  6
CONTINUOUS
  0
LAYER
  2
NAME
 70
     0
 62
    20
  6
CONTINUOUS
  0
LAYER
  2
0-4
 70
     0
 62
     7
  6
CONTINUOUS
  0
LAYER
  2
0-0
 70
     0
 62
     7
  6
CONTINUOUS
  0
ENDTAB
  0
TABLE
  2
STYLE
 70
     5
  0
STYLE
  2
STANDARD
 70
     0
 40
0.0
 41
1.0
 50
0.0
 71
     0
 42
0.0
  3
txt
  4
BIGFONT
  0
STYLE
  2
00
 70
     0
 40
0.0
 41
0.6666666666666666
 50
0.0
 71
     0
 42
0.2
  3
ROMANS
  4
BIGFONT
  0
STYLE
  2
01
 70
     0
 40
3.0
 41
1.0
 50
0.0
 71
     0
 42
0.2
  3
ROMANS
  4
BIGFONT
  0
STYLE
  2
WAKUMOJI
 70
     0
 40
3.0
 41
1.0
 50
0.0
 71
     0
 42
3.0
  3
SIMPLEX
  4
BIGFONT
  0
STYLE
  2
FILENAME
 70
     0
 40
200.0
 41
1.0
 50
0.0
 71
     0
 42
200.0
  3
romans
  4
bigfont
  0
ENDTAB
  0
TABLE
  2
VIEW
 70
     0
  0
ENDTAB
  0
TABLE
  2
UCS
 70
     0
  0
ENDTAB
  0
TABLE
  2
APPID
 70
    14
  0
APPID
  2
ACAD
 70
     0
  0
APPID
  2
ACADANNOTATIVE
 70
     0
  0
APPID
  2
ACAD_PSEXT
 70
     0
  0
APPID
  2
DCO15
 70
     0
  0
APPID
  2
ACAD_MLEADERVER
 70
     0
  0
APPID
  2
AUTOCAD_POSTSCRIPT_FIGURE
 70
     0
  0
APPID
  2
ACLAYERTOOLS
 70
     0
  0
APPID
  2
ACAD_EXEMPT_FROM_CAD_STANDARDS
 70
     0
  0
APPID
  2
ACAD_DSTYLE_DIMJAG
 70
     0
  0
APPID
  2
ACAD_DSTYLE_DIMTALN
 70
     0
  0
APPID
  2
ACAD_DSTYLE_DIM_LINETYPE
 70
     0
  0
APPID
  2
ACAD_DSTYLE_DIM_EXT1_LINETYPE
 70
     0
  0
APPID
  2
ACAD_DSTYLE_DIM_EXT2_LINETYPE
 70
     0
  0
APPID
  2
ACAD_NAV_VCDISPLAY
 70
     0
  0
ENDTAB
  0
TABLE
  2
DIMSTYLE
 70
     2
  0
DIMSTYLE
  2
SUNPOU
 70
     0
  3

  4

  5

  6

  7

 40
80.0
 41
3.0
 42
1.0
 43
0.38
 44
1.0
 45
0.5
 46
0.0
 47
0.0
 48
0.0
140
2.0
141
0.09
142
0.0
143
25.399999999999999
144
1.0
145
0.0
146
1.0
147
1.0
 71
     0
 72
     0
 73
     0
 74
     0
 75
     0
 76
     0
 77
     1
 78
     8
170
     0
171
     2
172
     1
173
     0
174
     0
175
     0
176
     4
177
     4
178
     7
  0
ENDTAB
  0
ENDSEC
  0
SECTION
  2
BLOCKS
  0
BLOCK
  8
0
  2
$MODEL_SPACE
 70
     0
 10
0.0
 20
0.0
 30
0.0
  3
$MODEL_SPACE
  1

  0
ENDBLK
  5
44F3
  8
0
  0
BLOCK
 67
     1
  8
0
  2
$PAPER_SPACE
 70
     0
 10
0.0
 20
0.0
 30
0.0
  3
$PAPER_SPACE
  1

  0
ENDBLK
  5
44EF
 67
     1
  8
0
  0
BLOCK
  8
0
  2
_DOTSMALL
 70
     0
 10
0.0
 20
0.0
 30
0.0
  3
_DOTSMALL
  1

  0
POLYLINE
  5
4524
  8
0
  6
BYBLOCK
 62
     0
 66
     1
 10
0.0
 20
0.0
 30
0.0
 70
     1
 40
0.5
 41
0.5
  0
VERTEX
  5
50BF
  8
0
  6
BYBLOCK
 62
     0
 10
-0.0625
 20
0.0
 30
0.0
 42
1.0
  0
VERTEX
  5
50C0
  8
0
  6
BYBLOCK
 62
     0
 10
0.0625
 20
0.0
 30
0.0
 42
1.0
  0
SEQEND
  5
50C1
  8
0
  6
BYBLOCK
 62
     0
  0
ENDBLK
  5
4528
  8
0
  0
ENDSEC
  0
SECTION
  2
ENTITIES
  0
LINE
  5
4529
  8
2-0
  6
CONTINUOUS
 62
     3
 10
7165.8461189664449
 20
18229.865272999989
 30
0.0
 11
7292.5902389664479
 21
18445.353685999991
 31
0.0
  0
LINE
  5
452A
  8
2-0
  6
CONTINUOUS
 62
     3
 10
7901.068517966447
 20
17507.396416999982
 30
0.0
 11
8027.81263796645
 21
17722.89076899998
 31
0.0
  0
LINE
  5
452B
  8
2-0
  6
CONTINUOUS
 62
     3
 10
7901.068517966447
 20
17507.396416999982
 30
0.0
 11
7292.5902389664479
 21
18445.353685999991
 31
0.0
  0
LINE
  5
452C
  8
2-0
  6
CONTINUOUS
 62
     3
 10
4330.8201079664468
 20
14108.315441999979
 30
0.0
 11
4330.8201079664468
 21
19369.759170999991
 31
0.0
  0
LINE
  5
452D
  8
2-0
  6
CONTINUOUS
 62
     3
 10
4263.317494966449
 20
19812.314200999961
 30
0.0
 11
4313.8219429664468
 21
19812.314200999961
 31
0.0
  0
LINE
  5
452E
  8
2-0
  6
CONTINUOUS
 62
     3
 10
4263.317494966449
 20
19834.815388999981
 30
0.0
 11
4245.3157529664531
 21
19834.815388999981
 31
0.0
  0
LINE
  5
452F
  8
2-0
  6
CONTINUOUS
 62
     3
 10
4313.8219429664468
 20
19852.30839499996
 30
0.0
 11
4250.3214609664492
 21
19852.30839499996
 31
0.0
  0
LINE
  5
4530
  8
2-0
  6
CONTINUOUS
 62
     3
 10
4318.8167629664476
 20
19817.310505999991
 30
0.0
 11
4318.8167629664476
 21
19847.308130999991
 31
0.0
  0
LINE
  5
4531
  8
2-0
  6
CONTINUOUS
 62
     3
 10
13792.816683966441
 20
19852.30839499996
 30
0.0
 11
13856.32161996644
 21
19852.30839499996
 31
0.0
  0
LINE
  5
4532
  8
2-0
  6
CONTINUOUS
 62
     3
 10
13843.32014196642
 20
19812.314200999961
 30
0.0
 11
13792.816683966441
 21
19812.314200999961
 31
0.0
  0
LINE
  5
4533
  8
2-0
  6
CONTINUOUS
 62
     3
 10
13787.822358966439
 20
19817.310505999991
 30
0.0
 11
13787.822358966439
 21
19847.308130999991
 31
0.0
  0
LINE
  5
4534
  8
2-0
  6
CONTINUOUS
 62
     3
 10
13843.32014196642
 20
19834.815388999981
 30
0.0
 11
13861.319903966431
 21
19834.815388999981
 31
0.0
  0
LINE
  5
4535
  8
2-0
  6
CONTINUOUS
 62
     3
 10
7599.3201079664468
 20
14537.310769999969
 30
0.0
 11
7599.3201079664468
 21
14458.31511199996
 31
0.0
  0
LINE
  5
4536
  8
2-0
  6
CONTINUOUS
 62
     3
 10
7656.3218299664477
 20
17096.316655999981
 30
0.0
 11
7656.3218299664477
 21
17884.67484299999
 31
0.0
  0
LINE
  5
4537
  8
2-0
  6
CONTINUOUS
 62
     3
 10
7542.3164059664468
 20
17096.316655999981
 30
0.0
 11
7542.3164059664468
 21
18060.402645999991
 31
0.0
  0
LINE
  5
4538
  8
2-0
  6
CONTINUOUS
 62
     3
 10
7599.3201079664468
 20
17096.316655999981
 30
0.0
 11
7599.3201079664468
 21
17972.535774999978
 31
0.0
  0
LINE
  5
4539
  8
2-0
  6
CONTINUOUS
 62
     3
 10
7599.3201079664468
 20
17017.316048999979
 30
0.0
 11
7599.3201079664468
 21
17096.316655999981
 31
0.0
  0
LINE
  5
453A
  8
2-0
  6
CONTINUOUS
 62
     3
 10
7514.3161159664469
 20
19794.306520999991
 30
0.0
 11
7514.3161159664469
 21
19842.313804999991
 31
0.0
  0
LINE
  5
453B
  8
2-0
  6
CONTINUOUS
 62
     3
 10
7599.3201079664468
 20
14458.31511199996
 30
0.0
 11
7599.3201079664468
 21
14302.318159999981
 31
0.0
  0
LINE
  5
453C
  8
2-0
  6
CONTINUOUS
 62
     6
 10
6473.708436966449
 20
17250.145044999979
 30
0.0
 11
6412.5581379664491
 21
17421.41008899999
 31
0.0
  0
LINE
  5
453D
  8
2-0
  6
CONTINUOUS
 62
     6
 10
6109.5621369664477
 20
19570.03498299999
 30
0.0
 11
6253.4647249664476
 21
20082.310637999981
 31
0.0
  0
LINE
  5
453E
  8
2-0
  6
CONTINUOUS
 62
     6
 10
5696.4163189664496
 20
19675.81253799998
 30
0.0
 11
5402.4914619664478
 21
20082.310637999981
 31
0.0
  0
LINE
  5
453F
  8
2-0
  6
CONTINUOUS
 62
     6
 10
6253.4647249664476
 20
20082.310637999981
 30
0.0
 11
6771.1538679664482
 21
20082.310637999981
 31
0.0
  0
LINE
  5
4540
  8
2-0
  6
CONTINUOUS
 62
     6
 10
5643.156381966448
 20
19972.215752999989
 30
0.0
 11
5433.9618479664487
 21
20334.548813999991
 31
0.0
  0
LINE
  5
4541
  8
2-0
  6
CONTINUOUS
 62
     6
 10
5359.9511129664497
 20
20462.73253899999
 30
0.0
 11
5163.8951389664471
 21
20802.318951999991
 31
0.0
  0
LINE
  5
4542
  8
2-0
  6
CONTINUOUS
 62
     6
 10
5163.8951389664471
 20
20802.318951999991
 30
0.0
 11
6006.3351919664492
 21
20802.318951999991
 31
0.0
  0
LINE
  5
4543
  8
2-0
  6
CONTINUOUS
 62
     6
 10
4602.4957509664428
 20
20082.310637999981
 30
0.0
 11
5402.4914619664478
 21
20082.310637999981
 31
0.0
  0
LINE
  5
4544
  8
2-0
  6
CONTINUOUS
 62
     6
 10
5611.9883669664487
 20
17421.41008899999
 30
0.0
 11
6412.5581379664491
 21
17421.41008899999
 31
0.0
  0
LINE
  5
4545
  8
2-0
  6
CONTINUOUS
 62
     6
 10
4495.3472999664482
 20
18208.433024999991
 30
0.0
 11
5025.8464819664478
 21
18208.433024999991
 31
0.0
  0
LINE
  5
4546
  8
2-0
  6
CONTINUOUS
 62
     6
 10
5491.7009409664506
 20
14689.20912799998
 30
0.0
 11
5574.5913019664513
 21
14875.64421299998
 31
0.0
  0
LINE
  5
4547
  8
2-0
  6
CONTINUOUS
 62
     6
 10
5574.5913019664513
 20
14875.64421299998
 30
0.0
 11
6374.589486966448
 21
14875.64421299998
 31
0.0
  0
LINE
  5
4548
  8
2-0
  6
CONTINUOUS
 62
     6
 10
6482.1114929664463
 20
13502.31354099997
 30
0.0
 11
7344.6946329664506
 21
13502.31354099997
 31
0.0
  0
LINE
  5
4549
  8
2-0
  6
CONTINUOUS
 62
     6
 10
6076.0008839664479
 20
14165.84618999998
 30
0.0
 11
6482.1114929664463
 21
13502.31354099997
 31
0.0
  0
LINE
  5
454A
  8
2-0
  6
CONTINUOUS
 62
     6
 10
2514.9178929664522
 20
13102.31716999996
 30
0.0
 11
3594.9187339664509
 21
13102.31716999996
 31
0.0
  0
LINE
  5
454B
  8
2-0
  6
CONTINUOUS
 62
     6
 10
4153.4260459664492
 20
14892.08510499996
 30
0.0
 11
3594.9187339664509
 21
13102.31716999996
 31
0.0
  0
LINE
  5
454C
  8
2-0
  6
CONTINUOUS
 62
     6
 10
4396.3085209664478
 20
18429.224568999991
 30
0.0
 11
4495.3472999664482
 21
18208.433024999991
 31
0.0
  0
LINE
  5
454D
  8
2-0
  6
CONTINUOUS
 62
     6
 10
5706.1169499664502
 20
16554.868835999961
 30
0.0
 11
6586.1139149664477
 21
16554.868835999961
 31
0.0
  0
LINE
  5
454E
  8
2-0
  6
CONTINUOUS
 62
     6
 10
5494.84738596645
 20
16352.804527999981
 30
0.0
 11
5706.1169499664502
 21
16554.868835999961
 31
0.0
  0
LINE
  5
454F
  8
2-0
  6
CONTINUOUS
 62
     6
 10
11550.603990966451
 20
20802.318951999991
 30
0.0
 11
13225.60135096645
 21
20802.318951999991
 31
0.0
  0
LINE
  5
4550
  8
2-0
  6
CONTINUOUS
 62
     6
 10
13426.385979966441
 20
20472.727128999981
 30
0.0
 11
13225.60135096645
 21
20802.318951999991
 31
0.0
  0
LINE
  5
4551
  8
2-0
  6
CONTINUOUS
 62
     6
 10
13709.585805966441
 20
19982.224198999989
 30
0.0
 11
13500.398200966431
 21
20344.54538299999
 31
0.0
  0
LINE
  5
4552
  8
2-0
  6
CONTINUOUS
 62
     6
 10
7542.3164059664468
 20
15338.68924099998
 30
0.0
 11
7277.1306939664501
 21
15707.64379099998
 31
0.0
  0
LINE
  5
4553
  8
2-0
  6
CONTINUOUS
 62
     6
 10
7030.8968929664488
 20
15707.64379099998
 30
0.0
 11
7277.1306939664501
 21
15707.64379099998
 31
0.0
  0
LINE
  5
4554
  8
2-0
  6
CONTINUOUS
 62
     6
 10
4178.8687979664492
 20
14884.104675999981
 30
0.0
 11
4201.321486966448
 21
15044.748546999979
 31
0.0
  0
LINE
  5
4555
  8
2-0
  6
CONTINUOUS
 62
     6
 10
4201.321486966448
 20
15044.748546999979
 30
0.0
 11
4127.9832929664499
 21
14900.069492999981
 31
0.0
  0
LINE
  5
4556
  8
2-0
  6
CONTINUOUS
 62
     6
 10
4201.321486966448
 20
15044.748546999979
 30
0.0
 11
4178.8687979664492
 21
14884.104675999981
 31
0.0
  0
LINE
  5
4557
  8
2-0
  6
CONTINUOUS
 62
     6
 10
4178.8687979664492
 20
14884.104675999981
 30
0.0
 11
4127.9832929664499
 21
14900.069492999981
 31
0.0
  0
LINE
  5
4558
  8
2-0
  6
CONTINUOUS
 62
     6
 10
4127.9832929664499
 20
14900.069492999981
 30
0.0
 11
4201.321486966448
 21
15044.748546999979
 31
0.0
  0
LINE
  5
4559
  8
2-0
  6
CONTINUOUS
 62
     6
 10
4127.9832929664499
 20
14900.069492999981
 30
0.0
 11
4178.8687979664492
 21
14884.104675999981
 31
0.0
  0
LINE
  5
455A
  8
2-0
  6
CONTINUOUS
 62
     6
 10
5467.5542779664502
 20
14700.516138999979
 30
0.0
 11
5423.8296819664502
 21
14544.315296999979
 31
0.0
  0
LINE
  5
455B
  8
2-0
  6
CONTINUOUS
 62
     6
 10
5423.8296819664502
 20
14544.315296999979
 30
0.0
 11
5515.85007796645
 21
14677.897168999971
 31
0.0
  0
LINE
  5
455C
  8
2-0
  6
CONTINUOUS
 62
     6
 10
5423.8296819664502
 20
14544.315296999979
 30
0.0
 11
5467.5542779664502
 21
14700.516138999979
 31
0.0
  0
LINE
  5
455D
  8
2-0
  6
CONTINUOUS
 62
     6
 10
5467.5542779664502
 20
14700.516138999979
 30
0.0
 11
5515.85007796645
 21
14677.897168999971
 31
0.0
  0
LINE
  5
455E
  8
2-0
  6
CONTINUOUS
 62
     6
 10
5515.85007796645
 20
14677.897168999971
 30
0.0
 11
5423.8296819664502
 21
14544.315296999979
 31
0.0
  0
LINE
  5
455F
  8
2-0
  6
CONTINUOUS
 62
     6
 10
5515.85007796645
 20
14677.897168999971
 30
0.0
 11
5467.5542779664502
 21
14700.516138999979
 31
0.0
  0
LINE
  5
4560
  8
2-0
  6
CONTINUOUS
 62
     6
 10
6098.7445629664498
 20
14179.770123999961
 30
0.0
 11
5992.4716329664479
 21
14302.318159999981
 31
0.0
  0
LINE
  5
4561
  8
2-0
  6
CONTINUOUS
 62
     6
 10
5992.4716329664479
 20
14302.318159999981
 30
0.0
 11
6053.2567099664466
 21
14151.926215999971
 31
0.0
  0
LINE
  5
4562
  8
2-0
  6
CONTINUOUS
 62
     6
 10
5992.4716329664479
 20
14302.318159999981
 30
0.0
 11
6098.7445629664498
 21
14179.770123999961
 31
0.0
  0
LINE
  5
4563
  8
2-0
  6
CONTINUOUS
 62
     6
 10
6098.7445629664498
 20
14179.770123999961
 30
0.0
 11
6053.2567099664466
 21
14151.926215999971
 31
0.0
  0
LINE
  5
4564
  8
2-0
  6
CONTINUOUS
 62
     6
 10
6053.2567099664466
 20
14151.926215999971
 30
0.0
 11
5992.4716329664479
 21
14302.318159999981
 31
0.0
  0
LINE
  5
4565
  8
2-0
  6
CONTINUOUS
 62
     6
 10
6053.2567099664466
 20
14151.926215999971
 30
0.0
 11
6098.7445629664498
 21
14179.770123999961
 31
0.0
  0
LINE
  5
4566
  8
2-0
  6
CONTINUOUS
 62
     6
 10
7469.940752966445
 20
15483.85327699996
 30
0.0
 11
7542.3164059664468
 21
15338.68924099998
 31
0.0
  0
LINE
  5
4567
  8
2-0
  6
CONTINUOUS
 62
     6
 10
7542.3164059664468
 20
15338.68924099998
 30
0.0
 11
7426.7709169664467
 21
15452.53333399998
 31
0.0
  0
LINE
  5
4568
  8
2-0
  6
CONTINUOUS
 62
     6
 10
7542.3164059664468
 20
15338.68924099998
 30
0.0
 11
7469.940752966445
 21
15483.85327699996
 31
0.0
  0
LINE
  5
4569
  8
2-0
  6
CONTINUOUS
 62
     6
 10
7469.940752966445
 20
15483.85327699996
 30
0.0
 11
7426.7709169664467
 21
15452.53333399998
 31
0.0
  0
LINE
  5
456A
  8
2-0
  6
CONTINUOUS
 62
     6
 10
7426.7709169664467
 20
15452.53333399998
 30
0.0
 11
7542.3164059664468
 21
15338.68924099998
 31
0.0
  0
LINE
  5
456B
  8
2-0
  6
CONTINUOUS
 62
     6
 10
7426.7709169664467
 20
15452.53333399998
 30
0.0
 11
7469.940752966445
 21
15483.85327699996
 31
0.0
  0
LINE
  5
456C
  8
2-0
  6
CONTINUOUS
 62
     6
 10
5476.4121289664481
 20
16372.079099999981
 30
0.0
 11
5379.21826196645
 21
16242.219711999969
 31
0.0
  0
LINE
  5
456D
  8
2-0
  6
CONTINUOUS
 62
     6
 10
5379.21826196645
 20
16242.219711999969
 30
0.0
 11
5513.2801679664481
 21
16333.53886299998
 31
0.0
  0
LINE
  5
456E
  8
2-0
  6
CONTINUOUS
 62
     6
 10
5379.21826196645
 20
16242.219711999969
 30
0.0
 11
5476.4121289664481
 21
16372.079099999981
 31
0.0
  0
LINE
  5
456F
  8
2-0
  6
CONTINUOUS
 62
     6
 10
5476.4121289664481
 20
16372.079099999981
 30
0.0
 11
5513.2801679664481
 21
16333.53886299998
 31
0.0
  0
LINE
  5
4570
  8
2-0
  6
CONTINUOUS
 62
     6
 10
5513.2801679664481
 20
16333.53886299998
 30
0.0
 11
5379.21826196645
 21
16242.219711999969
 31
0.0
  0
LINE
  5
4571
  8
2-0
  6
CONTINUOUS
 62
     6
 10
5513.2801679664481
 20
16333.53886299998
 30
0.0
 11
5476.4121289664481
 21
16372.079099999981
 31
0.0
  0
LINE
  5
4572
  8
2-0
  6
CONTINUOUS
 62
     6
 10
6499.3417179664502
 20
17257.475201999961
 30
0.0
 11
6517.7057109664493
 21
17096.316655999981
 31
0.0
  0
LINE
  5
4573
  8
2-0
  6
CONTINUOUS
 62
     6
 10
6517.7057109664493
 20
17096.316655999981
 30
0.0
 11
6448.06674296645
 21
17242.808948999969
 31
0.0
  0
LINE
  5
4574
  8
2-0
  6
CONTINUOUS
 62
     6
 10
6517.7057109664493
 20
17096.316655999981
 30
0.0
 11
6499.3417179664502
 21
17257.475201999961
 31
0.0
  0
LINE
  5
4575
  8
2-0
  6
CONTINUOUS
 62
     6
 10
6499.3417179664502
 20
17257.475201999961
 30
0.0
 11
6448.06674296645
 21
17242.808948999969
 31
0.0
  0
LINE
  5
4576
  8
2-0
  6
CONTINUOUS
 62
     6
 10
6448.06674296645
 20
17242.808948999969
 30
0.0
 11
6517.7057109664493
 21
17096.316655999981
 31
0.0
  0
LINE
  5
4577
  8
2-0
  6
CONTINUOUS
 62
     6
 10
6448.06674296645
 20
17242.808948999969
 30
0.0
 11
6499.3417179664502
 21
17257.475201999961
 31
0.0
  0
LINE
  5
4578
  8
2-0
  6
CONTINUOUS
 62
     6
 10
4420.6372999664491
 20
18440.13765499998
 30
0.0
 11
4330.8201079664468
 21
18575.208124999961
 31
0.0
  0
LINE
  5
4579
  8
2-0
  6
CONTINUOUS
 62
     6
 10
4330.8201079664468
 20
18575.208124999961
 30
0.0
 11
4371.9688559664492
 21
18418.309502999979
 31
0.0
  0
LINE
  5
457A
  8
2-0
  6
CONTINUOUS
 62
     6
 10
4330.8201079664468
 20
18575.208124999961
 30
0.0
 11
4420.6372999664491
 21
18440.13765499998
 31
0.0
  0
LINE
  5
457B
  8
2-0
  6
CONTINUOUS
 62
     6
 10
4420.6372999664491
 20
18440.13765499998
 30
0.0
 11
4371.9688559664492
 21
18418.309502999979
 31
0.0
  0
LINE
  5
457C
  8
2-0
  6
CONTINUOUS
 62
     6
 10
4371.9688559664492
 20
18418.309502999979
 30
0.0
 11
4330.8201079664468
 21
18575.208124999961
 31
0.0
  0
LINE
  5
457D
  8
2-0
  6
CONTINUOUS
 62
     6
 10
4371.9688559664492
 20
18418.309502999979
 30
0.0
 11
4420.6372999664491
 21
18440.13765499998
 31
0.0
  0
LINE
  5
457E
  8
2-0
  6
CONTINUOUS
 62
     6
 10
5621.5073769664477
 20
19959.719051999989
 30
0.0
 11
5718.1524229664474
 21
19842.313804999991
 31
0.0
  0
LINE
  5
457F
  8
2-0
  6
CONTINUOUS
 62
     6
 10
5718.1524229664474
 20
19842.313804999991
 30
0.0
 11
5664.8029129664474
 21
19984.716412999991
 31
0.0
  0
LINE
  5
4580
  8
2-0
  6
CONTINUOUS
 62
     6
 10
5718.1524229664474
 20
19842.313804999991
 30
0.0
 11
5621.5073769664477
 21
19959.719051999989
 31
0.0
  0
LINE
  5
4581
  8
2-0
  6
CONTINUOUS
 62
     6
 10
5621.5073769664477
 20
19959.719051999989
 30
0.0
 11
5664.8029129664474
 21
19984.716412999991
 31
0.0
  0
LINE
  5
4582
  8
2-0
  6
CONTINUOUS
 62
     6
 10
5664.8029129664474
 20
19984.716412999991
 30
0.0
 11
5718.1524229664474
 21
19842.313804999991
 31
0.0
  0
LINE
  5
4583
  8
2-0
  6
CONTINUOUS
 62
     6
 10
5664.8029129664474
 20
19984.716412999991
 30
0.0
 11
5621.5073769664477
 21
19959.719051999989
 31
0.0
  0
LINE
  5
4584
  8
2-0
  6
CONTINUOUS
 62
     6
 10
5589.7202679664479
 20
19797.984465999991
 30
0.0
 11
5696.4163189664496
 21
19675.81253799998
 31
0.0
  0
LINE
  5
4585
  8
2-0
  6
CONTINUOUS
 62
     6
 10
5696.4163189664496
 20
19675.81253799998
 30
0.0
 11
5635.1131029664502
 21
19825.986735999992
 31
0.0
  0
LINE
  5
4586
  8
2-0
  6
CONTINUOUS
 62
     6
 10
5696.4163189664496
 20
19675.81253799998
 30
0.0
 11
5589.7202679664479
 21
19797.984465999991
 31
0.0
  0
LINE
  5
4587
  8
2-0
  6
CONTINUOUS
 62
     6
 10
5589.7202679664479
 20
19797.984465999991
 30
0.0
 11
5635.1131029664502
 21
19825.986735999992
 31
0.0
  0
LINE
  5
4588
  8
2-0
  6
CONTINUOUS
 62
     6
 10
5635.1131029664502
 20
19825.986735999992
 30
0.0
 11
5696.4163189664496
 21
19675.81253799998
 31
0.0
  0
LINE
  5
4589
  8
2-0
  6
CONTINUOUS
 62
     6
 10
5635.1131029664502
 20
19825.986735999992
 30
0.0
 11
5589.7202679664479
 21
19797.984465999991
 31
0.0
  0
LINE
  5
458A
  8
2-0
  6
CONTINUOUS
 62
     6
 10
6083.6769629664486
 20
19576.434766999992
 30
0.0
 11
6071.1767979664473
 21
19414.710078999949
 31
0.0
  0
LINE
  5
458B
  8
2-0
  6
CONTINUOUS
 62
     6
 10
6071.1767979664473
 20
19414.710078999949
 30
0.0
 11
6135.4532509664486
 21
19563.641137999992
 31
0.0
  0
LINE
  5
458C
  8
2-0
  6
CONTINUOUS
 62
     6
 10
6071.1767979664473
 20
19414.710078999949
 30
0.0
 11
6083.6769629664486
 21
19576.434766999992
 31
0.0
  0
LINE
  5
458D
  8
2-0
  6
CONTINUOUS
 62
     6
 10
6083.6769629664486
 20
19576.434766999992
 30
0.0
 11
6135.4532509664486
 21
19563.641137999992
 31
0.0
  0
LINE
  5
458E
  8
2-0
  6
CONTINUOUS
 62
     6
 10
6135.4532509664486
 20
19563.641137999992
 30
0.0
 11
6071.1767979664473
 21
19414.710078999949
 31
0.0
  0
LINE
  5
458F
  8
2-0
  6
CONTINUOUS
 62
     6
 10
6135.4532509664486
 20
19563.641137999992
 30
0.0
 11
6083.6769629664486
 21
19576.434766999992
 31
0.0
  0
LINE
  5
4590
  8
2-0
  6
CONTINUOUS
 62
     6
 10
13687.937790966431
 20
19969.71760099996
 30
0.0
 11
13784.58580596643
 21
19852.30839499996
 31
0.0
  0
LINE
  5
4591
  8
2-0
  6
CONTINUOUS
 62
     6
 10
13784.58580596643
 20
19852.30839499996
 30
0.0
 11
13731.233820966439
 21
19994.720899999989
 31
0.0
  0
LINE
  5
4592
  8
2-0
  6
CONTINUOUS
 62
     6
 10
13784.58580596643
 20
19852.30839499996
 30
0.0
 11
13687.937790966431
 21
19969.71760099996
 31
0.0
  0
LINE
  5
4593
  8
2-0
  6
CONTINUOUS
 62
     6
 10
13687.937790966431
 20
19969.71760099996
 30
0.0
 11
13731.233820966439
 21
19994.720899999989
 31
0.0
  0
LINE
  5
4594
  8
2-0
  6
CONTINUOUS
 62
     6
 10
13731.233820966439
 20
19994.720899999989
 30
0.0
 11
13784.58580596643
 21
19852.30839499996
 31
0.0
  0
LINE
  5
4595
  8
2-0
  6
CONTINUOUS
 62
     6
 10
13731.233820966439
 20
19994.720899999989
 30
0.0
 11
13687.937790966431
 21
19969.71760099996
 31
0.0
  0
LINE
  5
4596
  8
2-0
  6
DASHED3
 62
     6
 10
4330.8201079664468
 20
19719.759829999992
 30
0.0
 11
4330.8201079664468
 21
20025.813197999989
 31
0.0
  0
LINE
  5
4597
  8
2-0
  6
DASHED3
 62
     6
 10
13775.81851796644
 20
16571.205802999979
 30
0.0
 11
13775.81851796644
 21
19675.81253799998
 31
0.0
  0
LINE
  5
4598
  8
2-0
  6
DASHED3
 62
     6
 10
10133.68537496643
 20
16743.322963999981
 30
0.0
 11
10437.31779196645
 21
17062.316444999979
 31
0.0
  0
LINE
  5
4599
  8
2-0
  6
DASHED3
 62
     6
 10
7599.3201079664468
 20
17972.535774999978
 30
0.0
 11
7599.3201079664468
 21
19794.308499999981
 31
0.0
  0
LINE
  5
459A
  8
2-0
  6
CONTINUOUS
 62
     3
 10
10507.318517966431
 20
14537.310769999969
 30
0.0
 11
10507.318517966431
 21
14458.31511199996
 31
0.0
  0
LINE
  5
459B
  8
2-0
  6
DASHED3
 62
     6
 10
10450.315310966431
 20
17017.316048999979
 30
0.0
 11
10450.315310966431
 21
16597.466095999978
 31
0.0
  0
LINE
  5
459C
  8
2-0
  6
DASHED3
 62
     6
 10
10564.321723966439
 20
17017.316048999979
 30
0.0
 11
10564.321723966439
 21
16544.951447999982
 31
0.0
  0
LINE
  5
459D
  8
2-0
  6
CONTINUOUS
 62
     3
 10
13775.81851796644
 20
14108.315441999979
 30
0.0
 11
13775.81851796644
 21
15231.640834999969
 31
0.0
  0
LINE
  5
459E
  8
2-0
  6
DASHED3
 62
     6
 10
13775.81851796644
 20
15231.640834999969
 30
0.0
 11
13775.81851796644
 21
16571.205802999979
 31
0.0
  0
LINE
  5
459F
  8
2-0
  6
CONTINUOUS
 62
     3
 10
9457.3145589664473
 20
17339.876621999982
 30
0.0
 11
9211.4741869664504
 21
17534.816708999992
 31
0.0
  0
LINE
  5
45A0
  8
2-0
  6
CONTINUOUS
 62
     3
 10
9211.4741869664504
 20
16455.435637999959
 30
0.0
 11
8851.3670949664483
 21
16727.065177999979
 31
0.0
  0
LINE
  5
45A1
  8
2-0
  6
CONTINUOUS
 62
     3
 10
9069.3497019664501
 20
17256.746738999969
 30
0.0
 11
8911.4741869664413
 21
17385.333362999969
 31
0.0
  0
LINE
  5
45A2
  8
2-0
  6
CONTINUOUS
 62
     3
 10
8911.4741869664413
 20
16305.952291999971
 30
0.0
 11
8463.4002579664539
 21
16643.931335999961
 31
0.0
  0
LINE
  5
45A3
  8
2-0
  6
CONTINUOUS
 62
     3
 10
8851.3670949664483
 20
16727.065177999979
 30
0.0
 11
9457.3145589664473
 21
17339.876621999982
 31
0.0
  0
LINE
  5
45A4
  8
2-0
  6
CONTINUOUS
 62
     3
 10
9069.3497019664501
 20
17256.746738999969
 30
0.0
 11
8463.4002579664539
 21
16643.931335999961
 31
0.0
  0
LINE
  5
45A5
  8
2-0
  6
CONTINUOUS
 62
     3
 10
8911.4741869664413
 20
16305.952291999971
 30
0.0
 11
8911.4741869664413
 21
13824.996844999971
 31
0.0
  0
LINE
  5
45A6
  8
2-0
  6
CONTINUOUS
 62
     3
 10
9211.4741869664504
 20
16455.435637999959
 30
0.0
 11
9211.4741869664504
 21
13824.996844999971
 31
0.0
  0
LINE
  5
45A7
  8
2-0
  6
CONTINUOUS
 62
     3
 10
9053.6313339664484
 20
17240.84724599995
 30
0.0
 11
8027.81263796645
 21
17722.89076899998
 31
0.0
  0
LINE
  5
45A8
  8
2-0
  6
CONTINUOUS
 62
     3
 10
9216.4823689664481
 20
17096.316655999981
 30
0.0
 11
9367.3909679664503
 21
17096.316655999981
 31
0.0
  0
LINE
  5
45A9
  8
2-0
  6
CONTINUOUS
 62
     3
 10
9138.3666069664487
 20
17017.316048999979
 30
0.0
 11
9538.8905189664529
 21
17017.316048999979
 31
0.0
  0
LINE
  5
45AA
  8
2-0
  6
CONTINUOUS
 62
     3
 10
7165.8461189664449
 20
18229.865272999989
 30
0.0
 11
4210.6890639664516
 21
19586.316523999991
 31
0.0
  0
LINE
  5
45AB
  8
2-0
  6
DASHED3
 62
     6
 10
4330.8201079664468
 20
19590.812010999991
 30
0.0
 11
8911.4741869664413
 21
19590.812010999991
 31
0.0
  0
LINE
  5
45AC
  8
2-0
  6
DASHED3
 62
     6
 10
4288.3223189664459
 20
19675.81253799998
 30
0.0
 11
8911.4741869664413
 21
19675.81253799998
 31
0.0
  0
LINE
  5
45AD
  8
2-0
  6
CONTINUOUS
 62
     3
 10
4318.8167629664476
 20
19842.313804999991
 30
0.0
 11
8911.4741869664413
 21
19842.313804999991
 31
0.0
  0
LINE
  5
45AE
  8
2-0
  6
CONTINUOUS
 62
     3
 10
4383.8167689664497
 20
17096.316655999981
 30
0.0
 11
8910.7180109664478
 21
17096.316655999981
 31
0.0
  0
LINE
  5
45AF
  8
2-0
  6
CONTINUOUS
 62
     3
 10
4383.8167689664497
 20
17017.316048999979
 30
0.0
 11
8832.6032379664466
 21
17017.316048999979
 31
0.0
  0
LINE
  5
45B0
  8
2-0
  6
CONTINUOUS
 62
     3
 10
4383.8167689664497
 20
14537.310769999969
 30
0.0
 11
8911.4741869664413
 21
14537.310769999969
 31
0.0
  0
LINE
  5
45B1
  8
2-0
  6
CONTINUOUS
 62
     3
 10
4288.3223189664459
 20
14458.31511199996
 30
0.0
 11
8911.4741869664413
 21
14458.31511199996
 31
0.0
  0
LINE
  5
45B2
  8
2-0
  6
CONTINUOUS
 62
     3
 10
4245.3157529664531
 20
14302.318159999981
 30
0.0
 11
8911.4741869664413
 21
14302.318159999981
 31
0.0
  0
LINE
  5
45B3
  8
2-0
  6
CONTINUOUS
 62
     3
 10
4245.3157529664531
 20
14334.319057999979
 30
0.0
 11
8911.4741869664413
 21
14334.319057999979
 31
0.0
  0
LINE
  5
45B4
  8
2-0
  6
CONTINUOUS
 62
     3
 10
4263.317494966449
 20
19794.306520999991
 30
0.0
 11
8911.4741869664413
 21
19794.306520999991
 31
0.0
  0
LINE
  5
45B5
  8
2-0
  6
CENTER2
 62
     6
 10
3001.3214869664471
 20
19629.816444999949
 30
0.0
 11
5008.3183389664473
 21
19629.816444999949
 31
0.0
  0
LINE
  5
45B6
  8
2-0
  6
CENTER2
 62
     6
 10
3001.3214869664471
 20
17062.316444999979
 30
0.0
 11
5008.3183389664473
 21
17062.316444999979
 31
0.0
  0
LINE
  5
45B7
  8
2-0
  6
CENTER2
 62
     6
 10
3001.3214869664471
 20
14494.81644499998
 30
0.0
 11
5008.3183389664473
 21
14494.81644499998
 31
0.0
  0
LINE
  5
45B8
  8
2-0
  6
CONTINUOUS
 62
     3
 10
8911.4741869664413
 20
17385.333362999969
 30
0.0
 11
8911.4741869664413
 21
19973.524214999961
 31
0.0
  0
LINE
  5
45B9
  8
2-0
  6
CONTINUOUS
 62
     3
 10
9211.4741869664504
 20
17534.816708999992
 30
0.0
 11
9211.4741869664504
 21
19973.524214999961
 31
0.0
  0
LINE
  5
45BA
  8
2-0
  6
DASHED3
 62
     6
 10
10437.31779196645
 20
17062.314464999981
 30
0.0
 11
9211.4741869664504
 21
18359.658346999979
 31
0.0
  0
LINE
  5
45BB
  8
2-0
  6
DASHED3
 62
     6
 10
8911.4741869664413
 20
18324.832676999991
 30
0.0
 11
7669.3188539664479
 21
19629.816444999949
 31
0.0
  0
LINE
  5
45BC
  8
2-0
  6
CONTINUOUS
 62
     3
 10
7669.3188539664479
 20
17062.314464999981
 30
0.0
 11
8209.4191169664482
 21
17639.232354999989
 31
0.0
  0
LINE
  5
45BD
  8
2-0
  6
DASHED3
 62
     6
 10
8209.4191169664482
 20
17639.23433399999
 30
0.0
 11
8911.4741869664413
 21
18376.79503899999
 31
0.0
  0
LINE
  5
45BE
  8
2-0
  6
DASHED3
 62
     6
 10
9211.4741869664504
 20
18341.971348999989
 30
0.0
 11
10442.91685996645
 21
19635.69561499999
 31
0.0
  0
LINE
  5
45BF
  8
2-0
  6
CONTINUOUS
 62
     3
 10
9211.4741869664504
 20
19842.313804999991
 30
0.0
 11
13787.822358966439
 21
19842.313804999991
 31
0.0
  0
LINE
  5
45C0
  8
2-0
  6
CONTINUOUS
 62
     3
 10
9211.4741869664504
 20
19794.306520999991
 30
0.0
 11
13843.32014196642
 21
19794.306520999991
 31
0.0
  0
LINE
  5
45C1
  8
2-0
  6
DASHED3
 62
     6
 10
9211.4741869664504
 20
19675.81253799998
 30
0.0
 11
13818.31977196644
 21
19675.81253799998
 31
0.0
  0
LINE
  5
45C2
  8
2-0
  6
DASHED3
 62
     6
 10
9211.4741869664504
 20
19590.812010999991
 30
0.0
 11
13775.81851796644
 21
19590.812010999991
 31
0.0
  0
LINE
  5
45C3
  8
2-0
  6
DASHED3
 62
     6
 10
9367.3909679664503
 20
17096.316655999981
 30
0.0
 11
13775.81851796644
 21
17096.316655999981
 31
0.0
  0
LINE
  5
45C4
  8
2-0
  6
DASHED3
 62
     6
 10
9538.8905189664529
 20
17017.316048999979
 30
0.0
 11
13775.81851796644
 21
17017.316048999979
 31
0.0
  0
LINE
  5
45C5
  8
2-0
  6
CENTER2
 62
     7
 10
13098.32127596644
 20
17062.316444999979
 30
0.0
 11
14012.180954966439
 21
17062.316444999979
 31
0.0
  0
LINE
  5
45C6
  8
2-0
  6
CENTER2
 62
     7
 10
13098.32127596644
 20
14494.81644499998
 30
0.0
 11
14008.184306966439
 21
14494.81644499998
 31
0.0
  0
LINE
  5
45C7
  8
2-0
  6
CONTINUOUS
 62
     3
 10
9211.4741869664504
 20
14458.31511199996
 30
0.0
 11
13818.31977196644
 21
14458.31511199996
 31
0.0
  0
LINE
  5
45C8
  8
2-0
  6
CONTINUOUS
 62
     3
 10
9211.4741869664504
 20
14537.310769999969
 30
0.0
 11
13775.81851796644
 21
14537.310769999969
 31
0.0
  0
LINE
  5
45C9
  8
2-0
  6
CONTINUOUS
 62
     3
 10
9211.4741869664504
 20
14334.319057999979
 30
0.0
 11
13861.319903966431
 21
14334.319057999979
 31
0.0
  0
LINE
  5
45CA
  8
2-0
  6
CONTINUOUS
 62
     3
 10
9211.4741869664504
 20
14302.318159999981
 30
0.0
 11
13861.319903966431
 21
14302.318159999981
 31
0.0
  0
LINE
  5
45CB
  8
2-0
  6
CONTINUOUS
 62
     3
 10
11580.812433966439
 20
16076.703255999961
 30
0.0
 11
11580.812433966439
 21
16192.027038999981
 31
0.0
  0
LINE
  5
45CC
  8
2-0
  6
CONTINUOUS
 62
     3
 10
13970.188437966441
 20
14980.87344099998
 30
0.0
 11
9263.7047739664486
 21
17144.076499999981
 31
0.0
  0
LINE
  5
45CD
  8
2-0
  6
DASHED3
 62
     6
 10
13818.31977196644
 20
15050.830617999971
 30
0.0
 11
13818.31977196644
 21
16551.630342999972
 31
0.0
  0
LINE
  5
45CE
  8
2-0
  6
CONTINUOUS
 62
     3
 10
4263.317494966449
 20
19560.693634999989
 30
0.0
 11
4263.317494966449
 21
19834.815388999981
 31
0.0
  0
LINE
  5
45CF
  8
2-0
  6
CONTINUOUS
 62
     3
 10
4245.3157529664531
 20
19834.815388999981
 30
0.0
 11
4245.3157529664531
 21
19847.308130999991
 31
0.0
  0
LINE
  5
45D0
  8
2-0
  6
DASHED3
 62
     6
 10
4288.3223189664459
 20
19550.55652099998
 30
0.0
 11
4288.3223189664459
 21
19675.81253799998
 31
0.0
  0
LINE
  5
45D1
  8
2-0
  6
CONTINUOUS
 62
     3
 10
4407.3280069664506
 20
19495.737712999991
 30
0.0
 11
4407.3280069664506
 21
19794.306520999991
 31
0.0
  0
LINE
  5
45D2
  8
2-0
  6
CONTINUOUS
 62
     3
 10
4570.3265149664512
 20
19420.650613999991
 30
0.0
 11
4570.3265149664512
 21
19794.306520999991
 31
0.0
  0
LINE
  5
45D3
  8
2-0
  6
CONTINUOUS
 62
     3
 10
4607.3232229664482
 20
19403.60893799999
 30
0.0
 11
4607.3232229664482
 21
19794.306520999991
 31
0.0
  0
LINE
  5
45D4
  8
2-0
  6
CONTINUOUS
 62
     3
 10
4780.82513596645
 20
19328.52381899998
 30
0.0
 11
4780.82513596645
 21
19794.306520999991
 31
0.0
  0
LINE
  5
45D5
  8
2-0
  6
CONTINUOUS
 62
     3
 10
4817.8248119664449
 20
19311.478184999989
 30
0.0
 11
4817.8248119664449
 21
19794.306520999991
 31
0.0
  0
LINE
  5
45D6
  8
2-0
  6
CONTINUOUS
 62
     3
 10
5617.8200289664492
 20
18942.959127999991
 30
0.0
 11
5617.8200289664492
 21
19794.306520999991
 31
0.0
  0
LINE
  5
45D7
  8
2-0
  6
CONTINUOUS
 62
     3
 10
5017.8229979664502
 20
19219.353368999979
 30
0.0
 11
5017.8229979664502
 21
19794.306520999991
 31
0.0
  0
LINE
  5
45D8
  8
2-0
  6
CONTINUOUS
 62
     3
 10
4980.8173829664474
 20
19236.399003999992
 30
0.0
 11
4980.8173829664474
 21
19794.306520999991
 31
0.0
  0
LINE
  5
45D9
  8
2-0
  6
CONTINUOUS
 62
     3
 10
5217.8182139664514
 20
19127.224594999989
 30
0.0
 11
5217.8182139664514
 21
19794.306520999991
 31
0.0
  0
LINE
  5
45DA
  8
2-0
  6
CONTINUOUS
 62
     3
 10
5180.8215069664511
 20
19144.27220899997
 30
0.0
 11
5180.8215069664511
 21
19794.306520999991
 31
0.0
  0
LINE
  5
45DB
  8
2-0
  6
CONTINUOUS
 62
     3
 10
5380.8196919664479
 20
19052.14145499999
 30
0.0
 11
5380.8196919664479
 21
19794.306520999991
 31
0.0
  0
LINE
  5
45DC
  8
2-0
  6
CONTINUOUS
 62
     3
 10
5417.8193689664477
 20
19035.087902999989
 30
0.0
 11
5417.8193689664477
 21
19794.306520999991
 31
0.0
  0
LINE
  5
45DD
  8
2-0
  6
CONTINUOUS
 62
     3
 10
5580.8203519664503
 20
18960.002782999982
 30
0.0
 11
5580.8203519664503
 21
19794.306520999991
 31
0.0
  0
LINE
  5
45DE
  8
2-0
  6
CONTINUOUS
 62
     3
 10
7380.8208469664478
 20
18309.350861999981
 30
0.0
 11
7380.8208469664478
 21
19794.306520999991
 31
0.0
  0
LINE
  5
45DF
  8
2-0
  6
CONTINUOUS
 62
     3
 10
7417.82052296645
 20
18252.318951999991
 30
0.0
 11
7417.82052296645
 21
19794.306520999991
 31
0.0
  0
LINE
  5
45E0
  8
2-0
  6
CONTINUOUS
 62
     3
 10
7217.8183789664463
 20
18318.229002999989
 30
0.0
 11
7217.8183789664463
 21
19794.306520999991
 31
0.0
  0
LINE
  5
45E1
  8
2-0
  6
CONTINUOUS
 62
     3
 10
7180.822660966448
 20
18255.321881999978
 30
0.0
 11
7180.822660966448
 21
19794.306520999991
 31
0.0
  0
LINE
  5
45E2
  8
2-0
  6
CONTINUOUS
 62
     3
 10
7017.8157399664478
 20
18298.055728999982
 30
0.0
 11
7017.8157399664478
 21
19794.306520999991
 31
0.0
  0
LINE
  5
45E3
  8
2-0
  6
CONTINUOUS
 62
     3
 10
6980.816062966448
 20
18315.09938399999
 30
0.0
 11
6980.816062966448
 21
19794.306520999991
 31
0.0
  0
LINE
  5
45E4
  8
2-0
  6
CONTINUOUS
 62
     3
 10
6817.8121109664498
 20
18390.182523999982
 30
0.0
 11
6817.8121109664498
 21
19794.306520999991
 31
0.0
  0
LINE
  5
45E5
  8
2-0
  6
CONTINUOUS
 62
     3
 10
6780.8208469664523
 20
18407.232116999981
 30
0.0
 11
6780.8208469664523
 21
19794.306520999991
 31
0.0
  0
LINE
  5
45E6
  8
2-0
  6
CONTINUOUS
 62
     3
 10
6617.8178839664506
 20
18482.31327699999
 30
0.0
 11
6617.8178839664506
 21
19794.306520999991
 31
0.0
  0
LINE
  5
45E7
  8
2-0
  6
CONTINUOUS
 62
     3
 10
6580.8226609664489
 20
18499.35693199997
 30
0.0
 11
6580.8226609664489
 21
19794.306520999991
 31
0.0
  0
LINE
  5
45E8
  8
2-0
  6
CONTINUOUS
 62
     3
 10
6417.8211829664497
 20
18574.43809299999
 30
0.0
 11
6417.8211829664497
 21
19794.306520999991
 31
0.0
  0
LINE
  5
45E9
  8
2-0
  6
CONTINUOUS
 62
     3
 10
6380.821506966452
 20
18591.487685999989
 30
0.0
 11
6380.821506966452
 21
19794.306520999991
 31
0.0
  0
LINE
  5
45EA
  8
2-0
  6
CONTINUOUS
 62
     3
 10
5817.8211829664524
 20
18850.836292999978
 30
0.0
 11
5817.8211829664524
 21
19794.306520999991
 31
0.0
  0
LINE
  5
45EB
  8
2-0
  6
CONTINUOUS
 62
     3
 10
5780.8185369664488
 20
18867.875988999978
 30
0.0
 11
5780.8185369664488
 21
19794.306520999991
 31
0.0
  0
LINE
  5
45EC
  8
2-0
  6
CONTINUOUS
 62
     3
 10
5980.8196919664479
 20
18775.74523499998
 30
0.0
 11
5980.8196919664479
 21
19794.306520999991
 31
0.0
  0
LINE
  5
45ED
  8
2-0
  6
CONTINUOUS
 62
     3
 10
6017.8193689664458
 20
18758.701579999979
 30
0.0
 11
6017.8193689664458
 21
19794.306520999991
 31
0.0
  0
LINE
  5
45EE
  8
2-0
  6
CONTINUOUS
 62
     3
 10
6180.8208469664514
 20
18683.618439999991
 30
0.0
 11
6180.8208469664514
 21
19794.306520999991
 31
0.0
  0
LINE
  5
45EF
  8
2-0
  6
CONTINUOUS
 62
     3
 10
6217.8175539664471
 20
18666.578743999991
 30
0.0
 11
6217.8175539664471
 21
19794.306520999991
 31
0.0
  0
LINE
  5
45F0
  8
2-0
  6
DASHED3
 62
     6
 10
7542.3164059664468
 20
18060.402645999991
 30
0.0
 11
7542.3164059664468
 21
19590.812010999991
 31
0.0
  0
LINE
  5
45F1
  8
2-0
  6
DASHED3
 62
     6
 10
7656.3218299664477
 20
17884.67484299999
 30
0.0
 11
7656.3218299664477
 21
19590.812010999991
 31
0.0
  0
LINE
  5
45F2
  8
2-0
  6
CONTINUOUS
 62
     3
 10
7580.8165579664465
 20
18001.050739999991
 30
0.0
 11
7580.8165579664465
 21
19794.306520999991
 31
0.0
  0
LINE
  5
45F3
  8
2-0
  6
CONTINUOUS
 62
     3
 10
7617.8201939664477
 20
17944.022789999992
 30
0.0
 11
7617.8201939664477
 21
19794.306520999991
 31
0.0
  0
LINE
  5
45F4
  8
2-0
  6
CONTINUOUS
 62
     3
 10
7817.8168939664502
 20
17635.724647999981
 30
0.0
 11
7817.8168939664502
 21
19794.306520999991
 31
0.0
  0
LINE
  5
45F5
  8
2-0
  6
CONTINUOUS
 62
     3
 10
10217.81788396644
 20
16704.563989999981
 30
0.0
 11
10217.81788396644
 21
19794.306520999991
 31
0.0
  0
LINE
  5
45F6
  8
2-0
  6
CONTINUOUS
 62
     3
 10
10180.819691966441
 20
16721.60764499996
 30
0.0
 11
10180.819691966441
 21
19794.306520999991
 31
0.0
  0
LINE
  5
45F7
  8
2-0
  6
CONTINUOUS
 62
     3
 10
10017.82019396644
 20
16796.692763999981
 30
0.0
 11
10017.82019396644
 21
19794.306520999991
 31
0.0
  0
LINE
  5
45F8
  8
2-0
  6
CONTINUOUS
 62
     3
 10
9980.8180419664386
 20
16813.736418999979
 30
0.0
 11
9980.8180419664386
 21
19794.306520999991
 31
0.0
  0
LINE
  5
45F9
  8
2-0
  6
CONTINUOUS
 62
     3
 10
9780.8183719664485
 20
16905.86519299998
 30
0.0
 11
9780.8183719664485
 21
19794.306520999991
 31
0.0
  0
LINE
  5
45FA
  8
2-0
  6
CONTINUOUS
 62
     3
 10
9817.8165639664385
 20
16888.823517999979
 30
0.0
 11
9817.8165639664385
 21
19794.306520999991
 31
0.0
  0
LINE
  5
45FB
  8
2-0
  6
CONTINUOUS
 62
     3
 10
9617.8188739664492
 20
16980.952291999962
 30
0.0
 11
9617.8188739664492
 21
19794.306520999991
 31
0.0
  0
LINE
  5
45FC
  8
2-0
  6
CONTINUOUS
 62
     3
 10
9580.8187019664474
 20
16997.999905999972
 30
0.0
 11
9580.8187019664474
 21
19794.306520999991
 31
0.0
  0
LINE
  5
45FD
  8
2-0
  6
CONTINUOUS
 62
     3
 10
9380.8180419664477
 20
17090.126700999968
 30
0.0
 11
9380.8180419664477
 21
19794.306520999991
 31
0.0
  0
LINE
  5
45FE
  8
2-0
  6
CONTINUOUS
 62
     3
 10
9417.8182139664477
 20
17073.087004999961
 30
0.0
 11
9417.8182139664477
 21
19794.306520999991
 31
0.0
  0
LINE
  5
45FF
  8
2-0
  6
CONTINUOUS
 62
     3
 10
8780.8170529664458
 20
17376.01378899999
 30
0.0
 11
8780.8170529664458
 21
19794.306520999991
 31
0.0
  0
LINE
  5
4600
  8
2-0
  6
CONTINUOUS
 62
     3
 10
8817.8192039664427
 20
17349.475306999972
 30
0.0
 11
8817.8192039664427
 21
19794.306520999991
 31
0.0
  0
LINE
  5
4601
  8
2-0
  6
CONTINUOUS
 62
     3
 10
8617.8225029664445
 20
17451.104846999991
 30
0.0
 11
8617.8225029664445
 21
19794.306520999991
 31
0.0
  0
LINE
  5
4602
  8
2-0
  6
CONTINUOUS
 62
     3
 10
8417.8198639664479
 20
17543.233621999989
 30
0.0
 11
8417.8198639664479
 21
19794.306520999991
 31
0.0
  0
LINE
  5
4603
  8
2-0
  6
CONTINUOUS
 62
     3
 10
8380.81573296645
 20
17560.275296999978
 30
0.0
 11
8380.81573296645
 21
19794.306520999991
 31
0.0
  0
LINE
  5
4604
  8
2-0
  6
CONTINUOUS
 62
     3
 10
8217.8192039664464
 20
17635.366354999991
 30
0.0
 11
8217.8192039664464
 21
19794.306520999991
 31
0.0
  0
LINE
  5
4605
  8
2-0
  6
CONTINUOUS
 62
     3
 10
8017.8150799664509
 20
17705.910458999992
 30
0.0
 11
8017.8150799664509
 21
19794.306520999991
 31
0.0
  0
LINE
  5
4606
  8
2-0
  6
CONTINUOUS
 62
     3
 10
7980.8223309664463
 20
17650.638340999991
 30
0.0
 11
7980.8223309664463
 21
19794.306520999991
 31
0.0
  0
LINE
  5
4607
  8
2-0
  6
CONTINUOUS
 62
     3
 10
7780.8187019664474
 20
17692.760516999959
 30
0.0
 11
7780.8187019664474
 21
19794.306520999991
 31
0.0
  0
LINE
  5
4608
  8
2-0
  6
CONTINUOUS
 62
     3
 10
10380.81837196645
 20
16629.480849999982
 30
0.0
 11
10380.81837196645
 21
19794.306520999991
 31
0.0
  0
LINE
  5
4609
  8
2-0
  6
CONTINUOUS
 62
     3
 10
10417.81557496644
 20
16612.43719499998
 30
0.0
 11
10417.81557496644
 21
19794.306520999991
 31
0.0
  0
LINE
  5
460A
  8
2-0
  6
CONTINUOUS
 62
     3
 10
9217.8205229664527
 20
17530.03023299999
 30
0.0
 11
9217.8205229664527
 21
19794.306520999991
 31
0.0
  0
LINE
  5
460B
  8
2-0
  6
CONTINUOUS
 62
     3
 10
8580.8223309664463
 20
17468.146522999981
 30
0.0
 11
8580.8223309664463
 21
19794.306520999991
 31
0.0
  0
LINE
  5
460C
  8
2-0
  6
CONTINUOUS
 62
     3
 10
8180.82101196645
 20
17652.406050999991
 30
0.0
 11
8180.82101196645
 21
19794.306520999991
 31
0.0
  0
LINE
  5
460D
  8
2-0
  6
DASHED3
 62
     6
 10
10450.315310966431
 20
17096.316655999981
 30
0.0
 11
10450.315310966431
 21
19590.812010999991
 31
0.0
  0
LINE
  5
460E
  8
2-0
  6
DASHED3
 62
     6
 10
10564.321723966439
 20
17096.316655999981
 30
0.0
 11
10564.321723966439
 21
19590.812010999991
 31
0.0
  0
LINE
  5
460F
  8
2-0
  6
DASHED3
 62
     6
 10
10507.318517966431
 20
16571.205802999979
 30
0.0
 11
10507.318517966431
 21
19590.812010999991
 31
0.0
  0
LINE
  5
4610
  8
2-0
  6
CONTINUOUS
 62
     3
 10
10817.81590496645
 20
16428.177666999982
 30
0.0
 11
10817.81590496645
 21
19794.306520999991
 31
0.0
  0
LINE
  5
4611
  8
2-0
  6
CONTINUOUS
 62
     3
 10
10780.81771296644
 20
16445.22330199998
 30
0.0
 11
10780.81771296644
 21
19794.306520999991
 31
0.0
  0
LINE
  5
4612
  8
2-0
  6
CONTINUOUS
 62
     3
 10
11017.81260496645
 20
16336.04988299998
 30
0.0
 11
11017.81260496645
 21
19794.306520999991
 31
0.0
  0
LINE
  5
4613
  8
2-0
  6
CONTINUOUS
 62
     3
 10
10980.81342396644
 20
16353.09551699998
 30
0.0
 11
10980.81342396644
 21
19794.306520999991
 31
0.0
  0
LINE
  5
4614
  8
2-0
  6
CONTINUOUS
 62
     3
 10
11217.81227496644
 20
16243.919128999971
 30
0.0
 11
11217.81227496644
 21
19794.306520999991
 31
0.0
  0
LINE
  5
4615
  8
2-0
  6
CONTINUOUS
 62
     3
 10
11417.808975966451
 20
16151.791343999979
 30
0.0
 11
11417.808975966451
 21
19794.306520999991
 31
0.0
  0
LINE
  5
4616
  8
2-0
  6
CONTINUOUS
 62
     3
 10
11380.81375396644
 20
16168.83202999997
 30
0.0
 11
11380.81375396644
 21
19794.306520999991
 31
0.0
  0
LINE
  5
4617
  8
2-0
  6
CONTINUOUS
 62
     3
 10
11617.808645966439
 20
16059.66256999996
 30
0.0
 11
11617.808645966439
 21
19794.306520999991
 31
0.0
  0
LINE
  5
4618
  8
2-0
  6
CONTINUOUS
 62
     3
 10
11780.810123966439
 20
15984.57151199996
 30
0.0
 11
11780.810123966439
 21
19794.306520999991
 31
0.0
  0
LINE
  5
4619
  8
2-0
  6
CONTINUOUS
 62
     3
 10
12017.80501696644
 20
15875.400072999981
 30
0.0
 11
12017.80501696644
 21
19794.306520999991
 31
0.0
  0
LINE
  5
461A
  8
2-0
  6
CONTINUOUS
 62
     3
 10
11980.80880496644
 20
15892.44273799998
 30
0.0
 11
11980.80880496644
 21
19794.306520999991
 31
0.0
  0
LINE
  5
461B
  8
2-0
  6
CONTINUOUS
 62
     3
 10
12217.803697966439
 20
15783.27030899997
 30
0.0
 11
12217.803697966439
 21
19794.306520999991
 31
0.0
  0
LINE
  5
461C
  8
2-0
  6
CONTINUOUS
 62
     3
 10
12180.80649496644
 20
15800.314952999979
 30
0.0
 11
12180.80649496644
 21
19794.306520999991
 31
0.0
  0
LINE
  5
461D
  8
2-0
  6
CONTINUOUS
 62
     3
 10
12417.80435696645
 20
15691.142523999981
 30
0.0
 11
12417.80435696645
 21
19794.306520999991
 31
0.0
  0
LINE
  5
461E
  8
2-0
  6
CONTINUOUS
 62
     3
 10
12380.80517596645
 20
15708.18617899998
 30
0.0
 11
12380.80517596645
 21
19794.306520999991
 31
0.0
  0
LINE
  5
461F
  8
2-0
  6
CONTINUOUS
 62
     3
 10
12617.804026966451
 20
15599.014739999981
 30
0.0
 11
12617.804026966451
 21
19794.306520999991
 31
0.0
  0
LINE
  5
4620
  8
2-0
  6
CONTINUOUS
 62
     3
 10
12580.802865966451
 20
15616.05839399998
 30
0.0
 11
12580.802865966451
 21
19794.306520999991
 31
0.0
  0
LINE
  5
4621
  8
2-0
  6
CONTINUOUS
 62
     3
 10
12817.80171796644
 20
15506.884974999981
 30
0.0
 11
12817.80171796644
 21
19794.306520999991
 31
0.0
  0
LINE
  5
4622
  8
2-0
  6
CONTINUOUS
 62
     3
 10
12780.80550596644
 20
15523.929619999981
 30
0.0
 11
12780.80550596644
 21
19794.306520999991
 31
0.0
  0
LINE
  5
4623
  8
2-0
  6
CONTINUOUS
 62
     3
 10
13017.80039796643
 20
15414.75422199997
 30
0.0
 11
13017.80039796643
 21
19794.306520999991
 31
0.0
  0
LINE
  5
4624
  8
2-0
  6
CONTINUOUS
 62
     3
 10
12980.80319596644
 20
15431.798865999979
 30
0.0
 11
12980.80319596644
 21
19794.306520999991
 31
0.0
  0
LINE
  5
4625
  8
2-0
  6
CONTINUOUS
 62
     3
 10
13217.801057966441
 20
15322.626436999961
 30
0.0
 11
13217.801057966441
 21
19794.306520999991
 31
0.0
  0
LINE
  5
4626
  8
2-0
  6
CONTINUOUS
 62
     3
 10
13180.79989696644
 20
15339.669101999971
 30
0.0
 11
13180.79989696644
 21
19794.306520999991
 31
0.0
  0
LINE
  5
4627
  8
2-0
  6
CONTINUOUS
 62
     3
 10
10580.81705296644
 20
16537.352075999959
 30
0.0
 11
10580.81705296644
 21
19794.306520999991
 31
0.0
  0
LINE
  5
4628
  8
2-0
  6
CONTINUOUS
 62
     3
 10
10617.816234966451
 20
16520.306440999972
 30
0.0
 11
10617.816234966451
 21
19794.306520999991
 31
0.0
  0
LINE
  5
4629
  8
2-0
  6
CONTINUOUS
 62
     3
 10
11180.81408296645
 20
16260.966742999961
 30
0.0
 11
11180.81408296645
 21
19794.306520999991
 31
0.0
  0
LINE
  5
462A
  8
2-0
  6
CONTINUOUS
 62
     3
 10
11817.80732696644
 20
15967.527856999979
 30
0.0
 11
11817.80732696644
 21
19794.306520999991
 31
0.0
  0
LINE
  5
462B
  8
2-0
  6
CONTINUOUS
 62
     3
 10
11580.812433966439
 20
16192.027038999981
 30
0.0
 11
11580.812433966439
 21
19794.306520999991
 31
0.0
  0
LINE
  5
462C
  8
2-0
  6
CONTINUOUS
 62
     3
 10
13391.30396196644
 20
15247.536368999979
 30
0.0
 11
13391.30396196644
 21
19794.306520999991
 31
0.0
  0
LINE
  5
462D
  8
2-0
  6
CONTINUOUS
 62
     3
 10
13428.304133966431
 20
15230.49172399995
 30
0.0
 11
13428.304133966431
 21
19794.306520999991
 31
0.0
  0
LINE
  5
462E
  8
2-0
  6
CONTINUOUS
 62
     3
 10
13591.305611966431
 20
15155.405614999971
 30
0.0
 11
13591.305611966431
 21
19794.306520999991
 31
0.0
  0
LINE
  5
462F
  8
2-0
  6
CONTINUOUS
 62
     3
 10
13628.304793966439
 20
15138.36195999998
 30
0.0
 11
13628.304793966439
 21
19794.306520999991
 31
0.0
  0
LINE
  5
4630
  8
2-0
  6
CONTINUOUS
 62
     3
 10
13741.300662966431
 20
15086.310518999981
 30
0.0
 11
13741.300662966431
 21
19794.306520999991
 31
0.0
  0
LINE
  5
4631
  8
2-0
  6
CONTINUOUS
 62
     3
 10
13778.298854966441
 20
15069.265873999961
 30
0.0
 11
13778.298854966441
 21
19794.306520999991
 31
0.0
  0
LINE
  5
4632
  8
2-0
  6
CONTINUOUS
 62
     3
 10
13861.319903966431
 20
19847.308130999991
 30
0.0
 11
13861.319903966431
 21
19812.314200999961
 31
0.0
  0
LINE
  5
4633
  8
2-0
  6
CENTER2
 62
     6
 10
4330.8201079664468
 20
20872.314729999998
 30
0.0
 11
4330.8201079664468
 21
13952.31947999998
 31
0.0
  0
LINE
  5
4634
  8
2-0
  6
CENTER2
 62
     6
 10
7599.3201079664468
 20
20872.314729999998
 30
0.0
 11
7599.3201079664468
 21
13952.31947999998
 31
0.0
  0
LINE
  5
4635
  8
2-0
  6
CENTER2
 62
     6
 10
10507.318517966431
 20
20872.314729999998
 30
0.0
 11
10507.318517966431
 21
13952.31947999998
 31
0.0
  0
LINE
  5
4636
  8
2-0
  6
CENTER2
 62
     6
 10
13775.81851796644
 20
20872.314729999998
 30
0.0
 11
13775.81851796644
 21
13952.31947999998
 31
0.0
  0
LINE
  5
4637
  8
2-0
  6
CONTINUOUS
 62
     3
 10
4288.3223189664459
 20
14458.31511199996
 30
0.0
 11
4288.3223189664459
 21
19550.55652099998
 31
0.0
  0
LINE
  5
4638
  8
2-0
  6
CONTINUOUS
 62
     3
 10
4245.3157529664531
 20
14302.318159999981
 30
0.0
 11
4245.3157529664531
 21
19834.815388999981
 31
0.0
  0
LINE
  5
4639
  8
2-0
  6
CONTINUOUS
 62
     3
 10
4380.8167689664497
 20
14334.319057999979
 30
0.0
 11
4380.8167689664497
 21
19794.306520999991
 31
0.0
  0
LINE
  5
463A
  8
2-0
  6
CONTINUOUS
 62
     3
 10
7542.3164059664468
 20
14537.310769999969
 30
0.0
 11
7542.3164059664468
 21
17017.316048999979
 31
0.0
  0
LINE
  5
463B
  8
2-0
  6
CONTINUOUS
 62
     3
 10
7656.3218299664477
 20
14537.310769999969
 30
0.0
 11
7656.3218299664477
 21
17017.316048999979
 31
0.0
  0
LINE
  5
463C
  8
2-0
  6
CONTINUOUS
 62
     3
 10
7599.3201079664468
 20
14302.318159999981
 30
0.0
 11
7599.3201079664468
 21
17017.316048999979
 31
0.0
  0
LINE
  5
463D
  8
2-0
  6
CONTINUOUS
 62
     3
 10
10450.315310966431
 20
14537.310769999969
 30
0.0
 11
10450.315310966431
 21
16597.466095999978
 31
0.0
  0
LINE
  5
463E
  8
2-0
  6
CONTINUOUS
 62
     3
 10
10564.321723966439
 20
14537.310769999969
 30
0.0
 11
10564.321723966439
 21
16544.951447999982
 31
0.0
  0
LINE
  5
463F
  8
2-0
  6
CONTINUOUS
 62
     3
 10
10507.318517966431
 20
14458.31511199996
 30
0.0
 11
10507.318517966431
 21
14302.318159999981
 31
0.0
  0
LINE
  5
4640
  8
2-0
  6
CONTINUOUS
 62
     3
 10
10507.318517966431
 20
14302.318159999981
 30
0.0
 11
10507.318517966431
 21
16571.205802999979
 31
0.0
  0
LINE
  5
4641
  8
2-0
  6
CONTINUOUS
 62
     3
 10
13818.31977196644
 20
14458.31511199996
 30
0.0
 11
13818.31977196644
 21
15050.830617999971
 31
0.0
  0
LINE
  5
4642
  8
2-0
  6
CONTINUOUS
 62
     3
 10
13843.32014196642
 20
14334.319057999979
 30
0.0
 11
13843.32014196642
 21
19834.815388999981
 31
0.0
  0
LINE
  5
4643
  8
2-0
  6
CONTINUOUS
 62
     3
 10
13861.319903966431
 20
14302.318159999981
 30
0.0
 11
13861.319903966431
 21
19834.815388999981
 31
0.0
  0
LINE
  5
4644
  8
0-1
  6
CONTINUOUS
 62
     3
 10
4400.82132896645
 20
14494.81644499998
 30
0.0
 11
7529.323340966449
 21
17062.314464999981
 31
0.0
  0
LINE
  5
4645
  8
0-1
  6
CONTINUOUS
 62
     3
 10
7529.323340966449
 20
14494.81644499998
 30
0.0
 11
4400.82132896645
 21
17062.314464999981
 31
0.0
  0
LINE
  5
4646
  8
2-0
  6
DASHED3
 62
     6
 10
4775.6991719664511
 20
19330.88340499999
 30
0.0
 11
4400.82132896645
 21
19629.814464999989
 31
0.0
  0
LINE
  5
4647
  8
2-0
  6
DASHED3
 62
     6
 10
6305.8031959664513
 20
18626.042162999969
 30
0.0
 11
7529.323340966449
 21
19629.814464999989
 31
0.0
  0
LINE
  5
4648
  8
0-1
  6
CONTINUOUS
 62
     3
 10
4400.82132896645
 20
17062.314464999981
 30
0.0
 11
6305.8031959664513
 21
18626.042162999969
 31
0.0
  0
LINE
  5
4649
  8
0-1
  6
CONTINUOUS
 62
     3
 10
7529.323340966449
 20
17062.314464999981
 30
0.0
 11
4775.704615966446
 21
19330.881425999989
 31
0.0
  0
LINE
  5
464A
  8
2-0
  6
DASHED3
 62
     6
 10
10941.69417696645
 20
19330.88340499999
 30
0.0
 11
10577.31924296645
 21
19629.814464999989
 31
0.0
  0
LINE
  5
464B
  8
2-0
  6
DASHED3
 62
     6
 10
12471.80166496645
 20
18626.042162999969
 30
0.0
 11
13705.821751966439
 21
19629.814464999989
 31
0.0
  0
LINE
  5
464C
  8
2-0
  6
DASHED3
 62
     6
 10
10577.31924296645
 20
17062.314464999981
 30
0.0
 11
12471.80166496645
 21
18626.042162999969
 31
0.0
  0
LINE
  5
464D
  8
2-0
  6
DASHED3
 62
     6
 10
13705.821751966439
 20
17062.314464999981
 30
0.0
 11
10941.70110596644
 21
19330.881425999989
 31
0.0
  0
LINE
  5
464E
  8
2-0
  6
CONTINUOUS
 62
     3
 10
10437.31779196645
 20
14494.81545499998
 30
0.0
 11
9211.4741869664504
 21
15792.159336999959
 31
0.0
  0
LINE
  5
464F
  8
2-0
  6
CONTINUOUS
 62
     3
 10
8911.4741869664413
 20
15757.33366599998
 30
0.0
 11
7669.3188539664479
 21
17062.316444999979
 31
0.0
  0
LINE
  5
4650
  8
2-0
  6
CONTINUOUS
 62
     3
 10
7669.3188539664479
 20
14494.81545499998
 30
0.0
 11
8209.4191169664482
 21
15071.73235499998
 31
0.0
  0
LINE
  5
4651
  8
2-0
  6
CONTINUOUS
 62
     3
 10
8209.4191169664482
 20
15071.734333999961
 30
0.0
 11
8911.4741869664413
 21
15809.296028999979
 31
0.0
  0
LINE
  5
4652
  8
2-0
  6
CONTINUOUS
 62
     3
 10
9211.4741869664504
 20
15774.471347999979
 30
0.0
 11
10133.68339596644
 21
16743.322963999981
 31
0.0
  0
LINE
  5
4653
  8
2-0
  6
DASHED3
 62
     6
 10
12032.10109996645
 20
15868.81520399998
 30
0.0
 11
10577.31924296645
 21
17062.314464999981
 31
0.0
  0
LINE
  5
4654
  8
2-0
  6
DASHED3
 62
     6
 10
12165.586966966441
 20
15807.326407999981
 30
0.0
 11
13705.821751966439
 21
17062.314464999981
 31
0.0
  0
LINE
  5
4655
  8
0-1
  6
CONTINUOUS
 62
     3
 10
10577.31924296645
 20
14494.81644499998
 30
0.0
 11
12165.586966966441
 21
15807.326407999981
 31
0.0
  0
LINE
  5
4656
  8
0-1
  6
CONTINUOUS
 62
     3
 10
13705.821751966439
 20
14494.81644499998
 30
0.0
 11
12032.10109996645
 21
15868.81520399998
 31
0.0
  0
LINE
  5
4657
  8
2-0
  6
DASHED3
 62
     6
 10
13818.31977196644
 20
16551.630342999972
 30
0.0
 11
13818.31977196644
 21
19675.81253799998
 31
0.0
  0
CIRCLE
  5
4658
  8
0-5
  6
CONTINUOUS
 62
     4
 10
15128.713709
 20
1375.9997339999991
 30
0.0
 40
20.0
  0
ARC
  5
4659
  8
0-5
  6
CONTINUOUS
 62
     4
 10
15128.713709
 20
1375.9997339999991
 30
0.0
 40
20.0
 50
180.0
 51
0.0
  0
ARC
  5
465A
  8
0-5
  6
CONTINUOUS
 62
     4
 10
15128.713709
 20
1375.9997339999991
 30
0.0
 40
20.0
 50
0.0
 51
179.99998500000001
  0
CIRCLE
  5
465B
  8
0-5
  6
CONTINUOUS
 62
     4
 10
15128.713709
 20
1775.9996929999991
 30
0.0
 40
20.0
  0
ARC
  5
465C
  8
0-5
  6
CONTINUOUS
 62
     4
 10
15128.713709
 20
1775.9996929999991
 30
0.0
 40
20.0
 50
180.0
 51
0.0
  0
ARC
  5
465D
  8
0-5
  6
CONTINUOUS
 62
     4
 10
15128.713709
 20
1775.9996929999991
 30
0.0
 40
20.0
 50
0.0
 51
179.99998500000001
  0
CIRCLE
  5
465E
  8
2-0
  6
CONTINUOUS
 62
     4
 10
4330.8201079664468
 20
21072.315389999982
 30
0.0
 40
200.00001
  0
CIRCLE
  5
465F
  8
2-0
  6
CONTINUOUS
 62
     4
 10
2801.317610966446
 20
19629.816444999949
 30
0.0
 40
200.00001
  0
CIRCLE
  5
4660
  8
2-0
  6
CONTINUOUS
 62
     4
 10
2801.317610966446
 20
17062.316444999979
 30
0.0
 40
200.00001
  0
CIRCLE
  5
4661
  8
2-0
  6
CONTINUOUS
 62
     4
 10
2801.317610966446
 20
14494.81644499998
 30
0.0
 40
200.00001
  0
ARC
  5
4662
  8
2-0
  6
CONTINUOUS
 62
     3
 10
4250.3214609664492
 20
19847.308130999991
 30
0.0
 40
5.0
 50
90.0
 51
180.0
  0
ARC
  5
4663
  8
2-0
  6
CONTINUOUS
 62
     3
 10
4313.8219429664468
 20
19847.308130999991
 30
0.0
 40
5.0
 50
0.0
 51
90.0
  0
ARC
  5
4664
  8
2-0
  6
CONTINUOUS
 62
     3
 10
4313.8219429664468
 20
19817.310505999991
 30
0.0
 40
5.0
 50
269.9999850001808
 51
0.0
  0
ARC
  5
4665
  8
2-0
  6
CONTINUOUS
 62
     3
 10
13792.816683966441
 20
19817.310505999991
 30
0.0
 40
5.0
 50
180.0
 51
269.9999850001808
  0
ARC
  5
4666
  8
2-0
  6
CONTINUOUS
 62
     3
 10
13792.816683966441
 20
19847.308130999991
 30
0.0
 40
5.0
 50
90.0
 51
180.0
  0
ARC
  5
4667
  8
2-0
  6
CONTINUOUS
 62
     3
 10
13856.32161996644
 20
19847.308130999991
 30
0.0
 40
5.0
 50
0.0
 51
90.0
  0
CIRCLE
  5
4668
  8
2-0
  6
CONTINUOUS
 62
     4
 10
7599.3201079664468
 20
21072.31539
 30
0.0
 40
200.00001
  0
CIRCLE
  5
4669
  8
2-0
  6
CONTINUOUS
 62
     4
 10
10507.318517966431
 20
21072.31539
 30
0.0
 40
200.00001
  0
CIRCLE
  5
466A
  8
2-0
  6
CONTINUOUS
 62
     4
 10
13775.81851796644
 20
21072.31539
 30
0.0
 40
200.00001
  0
TEXT
  5
466B
  8
0-5
  6
CONTINUOUS
 62
     7
 10
16689.954074999991
 20
1652.486269999999
 30
0.0
 40
160.0
  1
H
  0
TEXT
  5
466C
  8
0-5
  6
CONTINUOUS
 62
     7
 10
15176.145943
 20
1655.999791999998
 30
0.0
 40
160.0
  1
（ ）内寸法ハ、  タ イプヲ示ス。
  0
TEXT
  5
466D
  8
0-5
  6
CONTINUOUS
 62
     7
 10
15288.71225699999
 20
1255.999832999998
 30
0.0
 40
160.0
  1
有効高サハ、基礎高サヲ含ミマセン。
  0
TEXT
  5
466E
  8
2-0
  6
CONTINUOUS
 62
     7
 10
4282.2387629664463
 20
20985.568927
 30
0.0
 40
160.0
  1
1
 72
     4
 11
4308.9054296331133
 21
21065.568927
 31
0.0
  0
TEXT
  5
466F
  8
2-0
  6
CONTINUOUS
 62
     7
 10
2755.297762966446
 20
19544.140900999992
 30
0.0
 40
160.0
  1
C
 72
     4
 11
2808.6310962997791
 21
19624.140900999992
 31
0.0
  0
TEXT
  5
4670
  8
2-0
  6
CONTINUOUS
 62
     7
 10
2754.8414839664479
 20
16977.230796999971
 30
0.0
 40
160.0
  1
B
 72
     4
 11
2808.1748172997809
 21
17057.230796999971
 31
0.0
  0
TEXT
  5
4671
  8
2-0
  6
CONTINUOUS
 62
     7
 10
2751.691821966449
 20
14411.534138999979
 30
0.0
 40
160.0
  1
A
 50
359.99929100000003
 72
     4
 11
2805.0261452464511
 21
14491.53347902669
 31
0.0
  0
TEXT
  5
4672
  8
2-0
  6
CONTINUOUS
 62
     7
 10
6333.4704329664492
 20
20162.314860999999
 30
0.0
 40
160.0
  1
屋根
 50
0.000354
 72
     4
 11
6504.1366053526153
 21
20242.315915456591
 31
0.0
  0
TEXT
  5
4673
  8
2-0
  6
CONTINUOUS
 62
     7
 10
5243.8963919664484
 20
20882.31327699999
 30
0.0
 40
160.0
  1
鼻隠し後
 50
359.99982299999999
 72
     4
 11
5606.563305770007
 21
20962.31215663785
 31
0.0
  0
TEXT
  5
4674
  8
2-0
  6
CONTINUOUS
 62
     7
 10
4682.4915609664486
 20
20162.314860999981
 30
0.0
 40
160.0
  1
桁（後）
 50
0.000177
 72
     4
 11
5002.4913138263
 21
20242.315849554088
 31
0.0
  0
TEXT
  5
4675
  8
2-0
  6
CONTINUOUS
 62
     7
 10
5692.555762966449
 20
17501.406393999991
 30
0.0
 40
160.0
  1
桁（中）
 50
359.99964599999993
 72
     4
 11
6012.5562572375848
 21
17581.40441688948
 31
0.0
  0
TEXT
  5
4676
  8
2-0
  6
CONTINUOUS
 62
     7
 10
5654.5930499664491
 20
14955.642497999959
 30
0.0
 40
160.0
  1
桁（前）
 50
359.99964599999993
 72
     4
 11
5974.5935442375858
 21
15035.640520889459
 31
0.0
  0
TEXT
  5
4677
  8
2-0
  6
CONTINUOUS
 62
     7
 10
6562.1112619664509
 20
13582.31479499998
 30
0.0
 40
160.0
  1
鼻隠し前
 50
0.000354
 72
     4
 11
6924.7774343489518
 21
13662.317035721961
 31
0.0
  0
TEXT
  5
4678
  8
2-0
  6
CONTINUOUS
 62
     7
 10
2594.9196419664481
 20
13182.31842399997
 30
0.0
 40
160.0
  1
ケラバ 左
 50
359.99976400000008
 72
     4
 11
3010.919971481082
 21
13262.316710504851
 31
0.0
  0
TEXT
  5
4679
  8
2-0
  6
CONTINUOUS
 62
     7
 10
4585.8435449664503
 20
18288.431309999989
 30
0.0
 40
160.0
  1
上枠
 50
359.99964599999993
 72
     4
 11
4756.5107059071033
 21
18368.430255540341
 31
0.0
  0
TEXT
  5
467A
  8
2-0
  6
CONTINUOUS
 62
     7
 10
5786.1127599664478
 20
16634.867119999981
 30
0.0
 40
160.0
  1
ブレース
 50
0.000354
 72
     4
 11
6148.7788993971317
 21
16720.202694055191
 31
0.0
  0
TEXT
  5
467B
  8
2-0
  6
CONTINUOUS
 62
     7
 10
11630.60029496644
 20
20882.313277000001
 30
0.0
 40
160.0
  1
鼻隠しコーナー後
 50
359.999911
 72
     4
 11
12377.26708589965
 21
20962.31211717043
 31
0.0
  0
TEXT
  5
467C
  8
2-0
  6
CONTINUOUS
 62
     7
 10
7047.1348839664488
 20
15787.64801399996
 30
0.0
 40
160.0
  1
梁
 50
359.998582
 72
     4
 11
7121.8035305117519
 21
15867.64616606739
 31
0.0
  0
TEXT
  5
467D
  8
2-0
  6
CONTINUOUS
 62
     7
 10
7553.7778189664459
 20
20976.524506000002
 30
0.0
 40
160.0
  1
2
 50
359.998582
 72
     4
 11
7607.1131321849498
 21
21056.523186041159
 31
0.0
  0
TEXT
  5
467E
  8
2-0
  6
CONTINUOUS
 62
     7
 10
10356.570447845141
 20
21009.67291945366
 30
0.0
 40
140.0
  1
n-1
 72
     4
 11
10519.90378117848
 21
21079.67291945366
 31
0.0
  0
TEXT
  5
467F
  8
2-0
  6
CONTINUOUS
 62
     7
 10
13729.916451966439
 20
21003.958653999998
 30
0.0
 40
160.0
  1
n
 50
359.998582
 72
     4
 11
13783.25110521778
 21
21057.290667382669
 31
0.0
  0
TEXT
  5
4680
  8
2-1
  6
CONTINUOUS
 62
     7
 10
7925.9951099664422
 20
12374.34822299997
 30
0.0
 40
160.0
  1
小 屋 伏 図
 72
     4
 11
8427.3284432997752
 21
12454.34822299997
 31
0.0
  0
TEXT
  5
4688
  8
0-3
  6
CONTINUOUS
 62
     7
 10
27544.4346805186
 20
3658.1200421350532
 30
0.0
 40
160.0
  1
連結する場合は強度上、下記間口寸法に一ヶ所
  0
TEXT
  5
4689
  8
0-3
  6
CONTINUOUS
 62
     7
 10
27544.4346805186
 20
3451.291530856121
 30
0.0
 40
160.0
  1
中間ブレース、もしくは間仕切りが必要になります。
  0
TEXT
  5
468A
  8
0-3
  6
CONTINUOUS
 62
     7
 10
27544.4346805186
 20
3124.142197938243
 30
0.0
 40
160.0
  1
標準タイプ：間口寸法 10.57ｍ以内に一箇所
  0
TEXT
  5
468B
  8
0-3
  6
CONTINUOUS
 62
     7
 10
27571.745290429761
 20
2873.074148021421
 30
0.0
 40
160.0
  1
Hタイプ　：間口寸法 9.21ｍ以内に一箇所
  0
TEXT
  5
468C
  8
2-0
  6
CONTINUOUS
 62
     7
 10
9778.8206284374101
 20
12401.543591999971
 30
0.0
 40
160.0
  1
1
 72
     4
 11
9805.4872951040761
 21
12481.543591999971
 31
0.0
  0
TEXT
  5
468D
  8
2-0
  6
CONTINUOUS
 62
     7
 10
10021.9093456881
 20
12321.545059999949
 30
0.0
 40
160.0
  1
80
 72
     4
 11
10141.9093456881
 21
12401.545059999949
 31
0.0
  0
TEXT
  5
468E
  8
2-0
  6
CONTINUOUS
 62
     7
 10
9279.822594437408
 20
12374.34822299997
 30
0.0
 40
160.0
  1
(S=  /   )
 72
     4
 11
9839.8225944374062
 21
12454.34822299997
 31
0.0
  0
LINE
  5
4690
  8
0-1
  6
CONTINUOUS
 62
     3
 10
7866.8833139999879
 20
8123.7741370000031
 30
0.0
 11
13046.885688999981
 21
8123.7741370000031
 31
0.0
  0
LINE
  5
4691
  8
0-1
  6
CONTINUOUS
 62
     3
 10
7156.8834459999889
 20
6112.7287530000021
 30
0.0
 11
13079.38450099999
 21
6112.7287530000021
 31
0.0
  0
LINE
  5
4692
  8
0-1
  6
CONTINUOUS
 62
     3
 10
7839.3845009999868
 20
6212.7285880000036
 30
0.0
 11
13079.38450099999
 21
6212.7285880000036
 31
0.0
  0
LINE
  5
4693
  8
0-1
  6
CONTINUOUS
 62
     3
 10
7846.8852269999879
 20
8245.7560310000008
 30
0.0
 11
7846.8852269999879
 21
6212.7285880000036
 31
0.0
  0
LINE
  5
4694
  8
0-1
  6
CONTINUOUS
 62
     3
 10
7866.8833139999879
 20
8246.4567800000023
 30
0.0
 11
7866.8833139999879
 21
6212.7285880000036
 31
0.0
  0
LINE
  5
4695
  8
0-1
  6
CONTINUOUS
 62
     3
 10
7839.3845009999868
 20
6112.7287530000021
 30
0.0
 11
7839.3845009999868
 21
6212.7285880000036
 31
0.0
  0
LINE
  5
4696
  8
0-1
  6
CONTINUOUS
 62
     3
 10
13142.16486699999
 20
8430.6529640000081
 30
0.0
 11
13137.61296399998
 21
8560.5737170000066
 31
0.0
  0
LINE
  5
4697
  8
0-1
  6
CONTINUOUS
 62
     3
 10
10529.384368999979
 20
6262.7287530000021
 30
0.0
 11
12951.884632999991
 21
6262.7287530000021
 31
0.0
  0
LINE
  5
4698
  8
0-1
  6
CONTINUOUS
 62
     3
 10
10042.884025999991
 20
6262.7287530000021
 30
0.0
 11
10042.884025999991
 21
8123.7741370000031
 31
0.0
  0
LINE
  5
4699
  8
0-1
  6
CONTINUOUS
 62
     3
 10
10062.885081999981
 20
6262.7287530000021
 30
0.0
 11
10062.885081999981
 21
8123.7741370000031
 31
0.0
  0
LINE
  5
469A
  8
0-1
  6
CONTINUOUS
 62
     3
 10
9992.8853449999879
 20
6262.7287530000021
 30
0.0
 11
9992.8853449999879
 21
8123.7741370000031
 31
0.0
  0
LINE
  5
469B
  8
0-1
  6
CONTINUOUS
 62
     3
 10
10112.88376199999
 20
6262.7287530000021
 30
0.0
 11
10112.88376199999
 21
8123.7741370000031
 31
0.0
  0
LINE
  5
469C
  8
0-1
  6
CONTINUOUS
 62
     3
 10
10245.88266599999
 20
6262.7287530000021
 30
0.0
 11
10245.88266599999
 21
8123.7741370000031
 31
0.0
  0
LINE
  5
469D
  8
0-1
  6
CONTINUOUS
 62
     3
 10
10260.884447999981
 20
6262.7287530000021
 30
0.0
 11
10260.884447999981
 21
8123.7741370000031
 31
0.0
  0
LINE
  5
469E
  8
0-1
  6
CONTINUOUS
 62
     3
 10
9859.8834709999846
 20
6262.7287530000021
 30
0.0
 11
9859.8834709999846
 21
8123.7741370000031
 31
0.0
  0
LINE
  5
469F
  8
0-1
  6
CONTINUOUS
 62
     3
 10
9844.8846589999812
 20
6262.7287530000021
 30
0.0
 11
9844.8846589999812
 21
8123.7741370000031
 31
0.0
  0
LINE
  5
46A0
  8
0-1
  6
CONTINUOUS
 62
     3
 10
7961.882389999987
 20
8123.7741370000031
 30
0.0
 11
7961.882389999987
 21
6212.7285880000036
 31
0.0
  0
LINE
  5
46A1
  8
0-1
  6
CONTINUOUS
 62
     3
 10
10529.384368999979
 20
8123.7741370000031
 30
0.0
 11
10529.384368999979
 21
6212.7285880000036
 31
0.0
  0
LINE
  5
46A2
  8
0-1
  6
CONTINUOUS
 62
     3
 10
10384.384632999991
 20
8123.7741370000031
 30
0.0
 11
10384.384632999991
 21
6212.7285880000036
 31
0.0
  0
LINE
  5
46A3
  8
0-1
  6
CONTINUOUS
 62
     3
 10
8642.8843559999877
 20
6262.7287530000021
 30
0.0
 11
8642.8843559999877
 21
8123.7741370000031
 31
0.0
  0
LINE
  5
46A4
  8
0-1
  6
CONTINUOUS
 62
     3
 10
8662.884421999981
 20
6262.7287530000021
 30
0.0
 11
8662.884421999981
 21
8123.7741370000031
 31
0.0
  0
LINE
  5
46A5
  8
0-1
  6
CONTINUOUS
 62
     3
 10
8592.884685999983
 20
6262.7287530000021
 30
0.0
 11
8592.884685999983
 21
8123.7741370000031
 31
0.0
  0
LINE
  5
46A6
  8
0-1
  6
CONTINUOUS
 62
     3
 10
8712.8840919999948
 20
6262.7287530000021
 30
0.0
 11
8712.8840919999948
 21
8123.7741370000031
 31
0.0
  0
LINE
  5
46A7
  8
0-1
  6
CONTINUOUS
 62
     3
 10
8845.8849759999903
 20
6262.7287530000021
 30
0.0
 11
8845.8849759999903
 21
8123.7741370000031
 31
0.0
  0
LINE
  5
46A8
  8
0-1
  6
CONTINUOUS
 62
     3
 10
8860.8837879999937
 20
6262.7287530000021
 30
0.0
 11
8860.8837879999937
 21
8123.7741370000031
 31
0.0
  0
LINE
  5
46A9
  8
0-1
  6
CONTINUOUS
 62
     3
 10
8459.8838009999909
 20
6262.7287530000021
 30
0.0
 11
8459.8838009999909
 21
8123.7741370000031
 31
0.0
  0
LINE
  5
46AA
  8
0-1
  6
CONTINUOUS
 62
     3
 10
8444.8830099999905
 20
6262.7287530000021
 30
0.0
 11
8444.8830099999905
 21
8123.7741370000031
 31
0.0
  0
LINE
  5
46AB
  8
0-1
  6
CONTINUOUS
 62
     3
 10
9144.8843289999913
 20
6262.7287530000021
 30
0.0
 11
9144.8843289999913
 21
8123.7741370000031
 31
0.0
  0
LINE
  5
46AC
  8
0-1
  6
CONTINUOUS
 62
     3
 10
9159.8831419999915
 20
6262.7287530000021
 30
0.0
 11
9159.8831419999915
 21
8123.7741370000031
 31
0.0
  0
LINE
  5
46AD
  8
0-1
  6
CONTINUOUS
 62
     3
 10
9560.8851079999913
 20
6262.7287530000021
 30
0.0
 11
9560.8851079999913
 21
8123.7741370000031
 31
0.0
  0
LINE
  5
46AE
  8
0-1
  6
CONTINUOUS
 62
     3
 10
9545.8843159999742
 20
6262.7287530000021
 30
0.0
 11
9545.8843159999742
 21
8123.7741370000031
 31
0.0
  0
LINE
  5
46AF
  8
0-1
  6
CONTINUOUS
 62
     3
 10
9412.8834319999805
 20
6262.7287530000021
 30
0.0
 11
9412.8834319999805
 21
8123.7741370000031
 31
0.0
  0
LINE
  5
46B0
  8
0-1
  6
CONTINUOUS
 62
     3
 10
9292.8840259999943
 20
6262.7287530000021
 30
0.0
 11
9292.8840259999943
 21
8123.7741370000031
 31
0.0
  0
LINE
  5
46B1
  8
0-1
  6
CONTINUOUS
 62
     3
 10
9362.8837619999904
 20
6262.7287530000021
 30
0.0
 11
9362.8837619999904
 21
8123.7741370000031
 31
0.0
  0
LINE
  5
46B2
  8
0-1
  6
CONTINUOUS
 62
     3
 10
9342.8846859999885
 20
6262.7287530000021
 30
0.0
 11
9342.8846859999885
 21
8123.7741370000031
 31
0.0
  0
LINE
  5
46B3
  8
0-1
  6
CONTINUOUS
 62
     3
 10
9684.3843029999916
 20
8123.7741370000031
 30
0.0
 11
9684.3843029999916
 21
6262.7287530000021
 31
0.0
  0
LINE
  5
46B4
  8
0-1
  6
CONTINUOUS
 62
     3
 10
9721.3844739999804
 20
8123.7741370000031
 30
0.0
 11
9721.3844739999804
 21
6262.7287530000021
 31
0.0
  0
LINE
  5
46B5
  8
0-1
  6
CONTINUOUS
 62
     3
 10
8284.3836429999865
 20
8123.7741370000031
 30
0.0
 11
8284.3836429999865
 21
6262.7287530000021
 31
0.0
  0
LINE
  5
46B6
  8
0-1
  6
CONTINUOUS
 62
     3
 10
8321.3848039999903
 20
8123.7741370000031
 30
0.0
 11
8321.3848039999903
 21
6262.7287530000021
 31
0.0
  0
LINE
  5
46B7
  8
0-1
  6
CONTINUOUS
 62
     3
 10
8984.3829829999868
 20
8123.7741370000031
 30
0.0
 11
8984.3829829999868
 21
6262.7287530000021
 31
0.0
  0
LINE
  5
46B8
  8
0-1
  6
CONTINUOUS
 62
     3
 10
9021.3851339999874
 20
8123.7741370000031
 30
0.0
 11
9021.3851339999874
 21
6262.7287530000021
 31
0.0
  0
LINE
  5
46B9
  8
0-1
  6
CONTINUOUS
 62
     3
 10
7961.882389999987
 20
6262.7287530000021
 30
0.0
 11
10384.384632999991
 21
6262.7287530000021
 31
0.0
  0
LINE
  5
46BA
  8
0-1
  6
CONTINUOUS
 62
     3
 10
10456.88450099999
 20
8336.8871270000054
 30
0.0
 11
10452.33061799998
 21
8466.8059010000015
 31
0.0
  0
LINE
  5
46BB
  8
0-1
  6
CONTINUOUS
 62
     3
 10
10456.88450099999
 20
8336.8871270000054
 30
0.0
 11
10456.88450099999
 21
8123.7741370000031
 31
0.0
  0
LINE
  5
46BC
  8
0-1
  6
CONTINUOUS
 62
     3
 10
12951.884632999991
 20
8123.7741370000031
 30
0.0
 11
12951.884632999991
 21
6212.7285880000036
 31
0.0
  0
LINE
  5
46BD
  8
0-1
  6
CONTINUOUS
 62
     3
 10
13066.88476499999
 20
8428.0152550000057
 30
0.0
 11
13066.88476499999
 21
6212.7285880000036
 31
0.0
  0
LINE
  5
46BE
  8
0-1
  6
CONTINUOUS
 62
     3
 10
13046.885688999981
 20
8427.3145060000024
 30
0.0
 11
13046.885688999981
 21
6212.7285880000036
 31
0.0
  0
LINE
  5
46BF
  8
0-1
  6
CONTINUOUS
 62
     3
 10
11892.38287799998
 20
8123.7741370000031
 30
0.0
 11
11892.38287799998
 21
6262.7287530000021
 31
0.0
  0
LINE
  5
46C0
  8
0-1
  6
CONTINUOUS
 62
     3
 10
11929.38403899999
 20
8123.7741370000031
 30
0.0
 11
11929.38403899999
 21
6262.7287530000021
 31
0.0
  0
LINE
  5
46C1
  8
0-1
  6
CONTINUOUS
 62
     3
 10
12592.38518699998
 20
8123.7741370000031
 30
0.0
 11
12592.38518699998
 21
6262.7287530000021
 31
0.0
  0
LINE
  5
46C2
  8
0-1
  6
CONTINUOUS
 62
     3
 10
12629.383378999981
 20
8123.7741370000031
 30
0.0
 11
12629.383378999981
 21
6262.7287530000021
 31
0.0
  0
LINE
  5
46C3
  8
0-1
  6
CONTINUOUS
 62
     3
 10
11192.383536999991
 20
8123.7741370000031
 30
0.0
 11
11192.383536999991
 21
6262.7287530000021
 31
0.0
  0
LINE
  5
46C4
  8
0-1
  6
CONTINUOUS
 62
     3
 10
11229.383708999991
 20
8123.7741370000031
 30
0.0
 11
11229.383708999991
 21
6262.7287530000021
 31
0.0
  0
LINE
  5
46C5
  8
0-1
  6
CONTINUOUS
 62
     3
 10
11570.883325999979
 20
6262.7287530000021
 30
0.0
 11
11570.883325999979
 21
8123.7741370000031
 31
0.0
  0
LINE
  5
46C6
  8
0-1
  6
CONTINUOUS
 62
     3
 10
11550.884249999979
 20
6262.7287530000021
 30
0.0
 11
11550.884249999979
 21
8123.7741370000031
 31
0.0
  0
LINE
  5
46C7
  8
0-1
  6
CONTINUOUS
 62
     3
 10
11620.884975999979
 20
6262.7287530000021
 30
0.0
 11
11620.884975999979
 21
8123.7741370000031
 31
0.0
  0
LINE
  5
46C8
  8
0-1
  6
CONTINUOUS
 62
     3
 10
11500.883589999979
 20
6262.7287530000021
 30
0.0
 11
11500.883589999979
 21
8123.7741370000031
 31
0.0
  0
LINE
  5
46C9
  8
0-1
  6
CONTINUOUS
 62
     3
 10
11367.88468599999
 20
6262.7287530000021
 30
0.0
 11
11367.88468599999
 21
8123.7741370000031
 31
0.0
  0
LINE
  5
46CA
  8
0-1
  6
CONTINUOUS
 62
     3
 10
11352.883893999981
 20
6262.7287530000021
 30
0.0
 11
11352.883893999981
 21
8123.7741370000031
 31
0.0
  0
LINE
  5
46CB
  8
0-1
  6
CONTINUOUS
 62
     3
 10
11753.883880999991
 20
6262.7287530000021
 30
0.0
 11
11753.883880999991
 21
8123.7741370000031
 31
0.0
  0
LINE
  5
46CC
  8
0-1
  6
CONTINUOUS
 62
     3
 10
11768.88269299999
 20
6262.7287530000021
 30
0.0
 11
11768.88269299999
 21
8123.7741370000031
 31
0.0
  0
LINE
  5
46CD
  8
0-1
  6
CONTINUOUS
 62
     3
 10
12468.885001999981
 20
6262.7287530000021
 30
0.0
 11
12468.885001999981
 21
8123.7741370000031
 31
0.0
  0
LINE
  5
46CE
  8
0-1
  6
CONTINUOUS
 62
     3
 10
12453.88322099998
 20
6262.7287530000021
 30
0.0
 11
12453.88322099998
 21
8123.7741370000031
 31
0.0
  0
LINE
  5
46CF
  8
0-1
  6
CONTINUOUS
 62
     3
 10
12052.88422399999
 20
6262.7287530000021
 30
0.0
 11
12052.88422399999
 21
8123.7741370000031
 31
0.0
  0
LINE
  5
46D0
  8
0-1
  6
CONTINUOUS
 62
     3
 10
12067.88303599999
 20
6262.7287530000021
 30
0.0
 11
12067.88303599999
 21
8123.7741370000031
 31
0.0
  0
LINE
  5
46D1
  8
0-1
  6
CONTINUOUS
 62
     3
 10
12200.882929999991
 20
6262.7287530000021
 30
0.0
 11
12200.882929999991
 21
8123.7741370000031
 31
0.0
  0
LINE
  5
46D2
  8
0-1
  6
CONTINUOUS
 62
     3
 10
12320.88332599999
 20
6262.7287530000021
 30
0.0
 11
12320.88332599999
 21
8123.7741370000031
 31
0.0
  0
LINE
  5
46D3
  8
0-1
  6
CONTINUOUS
 62
     3
 10
12250.88358999999
 20
6262.7287530000021
 30
0.0
 11
12250.88358999999
 21
8123.7741370000031
 31
0.0
  0
LINE
  5
46D4
  8
0-1
  6
CONTINUOUS
 62
     3
 10
12270.88266599999
 20
6262.7287530000021
 30
0.0
 11
12270.88266599999
 21
8123.7741370000031
 31
0.0
  0
LINE
  5
46D5
  8
0-1
  6
CONTINUOUS
 62
     3
 10
11068.883352999979
 20
6262.7287530000021
 30
0.0
 11
11068.883352999979
 21
8123.7741370000031
 31
0.0
  0
LINE
  5
46D6
  8
0-1
  6
CONTINUOUS
 62
     3
 10
11053.883550999981
 20
6262.7287530000021
 30
0.0
 11
11053.883550999981
 21
8123.7741370000031
 31
0.0
  0
LINE
  5
46D7
  8
0-1
  6
CONTINUOUS
 62
     3
 10
10652.884553999969
 20
6262.7287530000021
 30
0.0
 11
10652.884553999969
 21
8123.7741370000031
 31
0.0
  0
LINE
  5
46D8
  8
0-1
  6
CONTINUOUS
 62
     3
 10
10667.885344999981
 20
6262.7287530000021
 30
0.0
 11
10667.885344999981
 21
8123.7741370000031
 31
0.0
  0
LINE
  5
46D9
  8
0-1
  6
CONTINUOUS
 62
     3
 10
10800.88424999999
 20
6262.7287530000021
 30
0.0
 11
10800.88424999999
 21
8123.7741370000031
 31
0.0
  0
LINE
  5
46DA
  8
0-1
  6
CONTINUOUS
 62
     3
 10
10920.883655999991
 20
6262.7287530000021
 30
0.0
 11
10920.883655999991
 21
8123.7741370000031
 31
0.0
  0
LINE
  5
46DB
  8
0-1
  6
CONTINUOUS
 62
     3
 10
10850.883919999969
 20
6262.7287530000021
 30
0.0
 11
10850.883919999969
 21
8123.7741370000031
 31
0.0
  0
LINE
  5
46DC
  8
0-1
  6
CONTINUOUS
 62
     3
 10
10870.883985999981
 20
6262.7287530000021
 30
0.0
 11
10870.883985999981
 21
8123.7741370000031
 31
0.0
  0
LINE
  5
46DD
  8
0-1
  6
CONTINUOUS
 62
     3
 10
13079.38450099999
 20
6212.7285880000036
 30
0.0
 11
13079.38450099999
 21
6112.7287530000021
 31
0.0
  0
LINE
  5
46DE
  8
0-1
  6
CONTINUOUS
 62
     3
 10
7669.7569149999899
 20
8287.5792990000027
 30
0.0
 11
7668.5642549999893
 21
8321.5567460000057
 31
0.0
  0
LINE
  5
46DF
  8
0-1
  6
CONTINUOUS
 62
     3
 10
7671.4583109999912
 20
8324.6606310000025
 30
0.0
 11
13151.18256399999
 21
8516.0206920000037
 31
0.0
  0
LINE
  5
46E0
  8
0-1
  6
CONTINUOUS
 62
     3
 10
13152.582083999991
 20
8476.0472840000057
 30
0.0
 11
7672.8588209999898
 21
8284.6852430000054
 31
0.0
  0
LINE
  5
46E1
  8
0-1
  6
CONTINUOUS
 62
     3
 10
7670.1419309999928
 20
8276.5850530000062
 30
0.0
 11
7670.13896199999
 21
8276.6503770000054
 31
0.0
  0
LINE
  5
46E2
  8
0-1
  6
CONTINUOUS
 62
     3
 10
7670.13896199999
 20
8276.6503770000054
 30
0.0
 11
7671.2623389999917
 21
8244.6059300000052
 31
0.0
  0
LINE
  5
46E3
  8
0-1
  6
CONTINUOUS
 62
     3
 10
7676.4338309999894
 20
8239.7828330000029
 30
0.0
 11
13175.12583099997
 21
8431.8080130000053
 31
0.0
  0
LINE
  5
46E4
  8
0-1
  6
CONTINUOUS
 62
     3
 10
13170.57392799998
 20
8561.7277760000106
 30
0.0
 11
7671.8819279999898
 21
8369.7035870000018
 31
0.0
  0
LINE
  5
46E5
  8
0-1
  6
CONTINUOUS
 62
     3
 10
7667.0588309999903
 20
8364.5311040000051
 30
0.0
 11
7668.1792389999891
 21
8332.5519820000027
 31
0.0
  0
LINE
  5
46E6
  8
0-1
  6
CONTINUOUS
 62
     3
 10
7671.2841139999919
 20
8329.6579260000017
 30
0.0
 11
13151.00638699999
 21
8521.0179870000047
 31
0.0
  0
LINE
  5
46E7
  8
0-1
  6
CONTINUOUS
 62
     3
 10
13152.75727099998
 20
8471.0499890000065
 30
0.0
 11
7673.0340079999924
 21
8279.6879480000025
 31
0.0
  0
LINE
  5
46E8
  8
0-1
  6
CONTINUOUS
 62
     3
 10
7684.373679999987
 20
8370.1410600000017
 30
0.0
 11
7688.9265729999879
 21
8240.2203070000032
 31
0.0
  0
LINE
  5
46E9
  8
0-5
  6
CONTINUOUS
 62
     4
 10
7889.3845009999868
 20
4432.7286540000014
 30
0.0
 11
7889.3845009999868
 21
4272.728621000002
 31
0.0
  0
LINE
  5
46EA
  8
0-5
  6
CONTINUOUS
 62
     4
 10
10456.88450099999
 20
4432.7286540000014
 30
0.0
 11
10456.88450099999
 21
4272.728621000002
 31
0.0
  0
LINE
  5
46EB
  8
0-5
  6
CONTINUOUS
 62
     4
 10
13024.38450099999
 20
4432.7286540000014
 30
0.0
 11
13024.38450099999
 21
4272.728621000002
 31
0.0
  0
LINE
  5
46EC
  8
2-0
  6
CENTER2
 62
     6
 10
7889.3845009999868
 20
5850.0753400000012
 30
0.0
 11
7889.3845009999868
 21
6907.2184330000036
 31
0.0
  0
LINE
  5
46ED
  8
2-0
  6
CENTER2
 62
     6
 10
10456.88450099999
 20
5850.0753400000012
 30
0.0
 11
10456.88450099999
 21
6907.2184330000036
 31
0.0
  0
LINE
  5
46EE
  8
2-0
  6
CENTER2
 62
     6
 10
13024.38450099999
 20
5850.0753400000012
 30
0.0
 11
13024.38450099999
 21
6907.2184330000036
 31
0.0
  0
ARC
  5
46EF
  8
0-1
  6
CONTINUOUS
 62
     3
 10
7674.4454049999867
 20
8282.239548000005
 30
0.0
 40
2.5
 50
272.00698899981808
 51
92.006988999818205
  0
ARC
  5
46F0
  8
0-1
  6
CONTINUOUS
 62
     3
 10
7672.8706979999979
 20
8327.2132200000069
 30
0.0
 40
2.5
 50
272.00698899981808
 51
92.006988999818205
  0
ARC
  5
46F1
  8
0-1
  6
CONTINUOUS
 62
     3
 10
7671.5632259999929
 20
8321.6616600000052
 30
0.0
 40
3.0
 50
92.006988999818205
 51
182.0069889999746
  0
ARC
  5
46F2
  8
0-1
  6
CONTINUOUS
 62
     3
 10
13151.881333999991
 20
8496.0334929999954
 30
0.0
 40
20.0
 50
272.00698899981808
 51
92.006988999818205
  0
ARC
  5
46F3
  8
0-1
  6
CONTINUOUS
 62
     3
 10
7672.753905999989
 20
8287.6842140000062
 30
0.0
 40
3.0
 50
182.0069889999746
 51
272.00698899981808
  0
ARC
  5
46F4
  8
0-1
  6
CONTINUOUS
 62
     3
 10
7673.1389219999919
 20
8276.6909570000025
 30
0.0
 40
3.0
 50
92.006988999818205
 51
182.0069889999746
  0
ARC
  5
46F5
  8
0-1
  6
CONTINUOUS
 62
     3
 10
7676.259632999986
 20
8244.7801280000076
 30
0.0
 40
5.0
 50
182.0069889999746
 51
272.00698899981808
  0
ARC
  5
46F6
  8
0-1
  6
CONTINUOUS
 62
     3
 10
13146.88502899999
 20
8495.8592950000057
 30
0.0
 40
69.999999000000003
 50
293.79377700003289
 51
70.220199999983819
  0
ARC
  5
46F7
  8
0-1
  6
CONTINUOUS
 62
     3
 10
7672.0561259999931
 20
8364.7062920000026
 30
0.0
 40
5.0
 50
92.006988999818205
 51
182.0069889999746
  0
ARC
  5
46F8
  8
0-1
  6
CONTINUOUS
 62
     3
 10
7671.1772199999914
 20
8332.6559070000058
 30
0.0
 40
3.0
 50
182.0069889999746
 51
272.00698899981808
  0
ARC
  5
46F9
  8
0-1
  6
CONTINUOUS
 62
     3
 10
13151.881333999991
 20
8496.0334929999954
 30
0.0
 40
24.999998999999999
 50
272.00698899981808
 51
92.006988999818205
  0
CIRCLE
  5
46FA
  8
0-5
  6
CONTINUOUS
 62
     4
 10
7889.3845009999868
 20
4072.727961000001
 30
0.0
 40
199.9999949999999
  0
CIRCLE
  5
46FB
  8
0-5
  6
CONTINUOUS
 62
     4
 10
13024.38450099999
 20
4072.727961000001
 30
0.0
 40
199.9999949999999
  0
CIRCLE
  5
46FC
  8
0-5
  6
CONTINUOUS
 62
     4
 10
10456.88450099999
 20
4072.727961000001
 30
0.0
 40
199.9999949999999
  0
TEXT
  5
46FD
  8
0-5
  6
CONTINUOUS
 62
     7
 10
7835.1885248541957
 20
3985.4740166382039
 30
0.0
 40
160.0
  1
C
 72
     4
 11
7888.5218581875288
 21
4065.4740166382039
 31
0.0
  0
TEXT
  5
46FE
  8
0-5
  6
CONTINUOUS
 62
     7
 10
10402.68753385417
 20
3985.4740166382039
 30
0.0
 40
160.0
  1
B
 72
     4
 11
10456.02086718751
 21
4065.4740166382039
 31
0.0
  0
TEXT
  5
46FF
  8
0-5
  6
CONTINUOUS
 62
     7
 10
12970.18654485419
 20
3985.4740166382039
 30
0.0
 40
160.0
  1
A
 72
     4
 11
13023.51987818753
 21
4065.4740166382039
 31
0.0
  0
TEXT
  5
4700
  8
2-0
  6
CONTINUOUS
 62
     7
 10
8987.9362189999865
 20
3325.5611470000022
 30
0.0
 40
160.0
  1
側 面 立 面 図
 72
     4
 11
9633.2695523333205
 21
3405.5611470000022
 31
0.0
  0
TEXT
  5
4701
  8
2-0
  6
CONTINUOUS
 62
     7
 10
10984.761737470941
 20
3352.7565160000031
 30
0.0
 40
160.0
  1
1
 72
     4
 11
11011.42840413761
 21
3432.7565160000031
 31
0.0
  0
TEXT
  5
4702
  8
2-0
  6
CONTINUOUS
 62
     7
 10
11227.850454721631
 20
3272.7579840000039
 30
0.0
 40
160.0
  1
80
 72
     4
 11
11347.850454721631
 21
3352.757984000003
 31
0.0
  0
TEXT
  5
4703
  8
2-0
  6
CONTINUOUS
 62
     7
 10
10485.763703470941
 20
3325.5611470000022
 30
0.0
 40
160.0
  1
(S=  /   )
 72
     4
 11
11045.763703470941
 21
3405.5611470000022
 31
0.0
  0
LINE
  5
4704
  8
0-1
  6
CONTINUOUS
 62
     3
 10
8151.3827579999979
 20
6262.7287530000021
 30
0.0
 11
8151.3827579999979
 21
8123.7741370000031
 31
0.0
  0
LINE
  5
4705
  8
0-1
  6
CONTINUOUS
 62
     3
 10
8136.3819669999984
 20
6262.7287530000021
 30
0.0
 11
8136.3819669999984
 21
8123.7741370000031
 31
0.0
  0
LINE
  5
4706
  8
0-1
  6
CONTINUOUS
 62
     3
 10
12777.38505499999
 20
6262.7287530000021
 30
0.0
 11
12777.38505499999
 21
8123.7741370000031
 31
0.0
  0
LINE
  5
4707
  8
0-1
  6
CONTINUOUS
 62
     3
 10
12762.383273999971
 20
6262.7287530000021
 30
0.0
 11
12762.383273999971
 21
8123.7741370000031
 31
0.0
  0
LINE
  5
4708
  8
0-5
  6
CONTINUOUS
 62
     4
 10
13159.38476500001
 20
6212.7285880000036
 30
0.0
 11
14876.844713
 21
6212.7285880000036
 31
0.0
  0
LINE
  5
4709
  8
0-5
  6
CONTINUOUS
 62
     4
 10
14904.470874000001
 20
6420.5745750000024
 30
0.0
 11
14664.469092999991
 21
6420.5745750000024
 31
0.0
  0
LINE
  5
470A
  8
0-5
  6
CONTINUOUS
 62
     4
 10
14784.468499000001
 20
6212.7285880000036
 30
0.0
 11
14904.470874000001
 21
6420.5745750000024
 31
0.0
  0
LINE
  5
470B
  8
0-5
  6
CONTINUOUS
 62
     4
 10
14664.469092999991
 20
6420.5745750000024
 30
0.0
 11
14784.468499000001
 21
6212.7285880000036
 31
0.0
  0
TEXT
  5
470C
  8
0-0
  6
CONTINUOUS
 62
     7
 10
14325.377559999981
 20
6500.574838999999
 30
0.0
 40
160.0
  1
布基礎天端
 72
     4
 11
14784.044226666651
 21
6580.574838999999
 31
0.0
  0
LINE
  5
470D
  8
0-1
  6
CONTINUOUS
 62
     3
 10
26200.17910599997
 20
8311.2286080000031
 30
0.0
 11
26200.17910599997
 21
8343.2285150000007
 31
0.0
  0
LINE
  5
470E
  8
0-1
  6
CONTINUOUS
 62
     3
 10
26349.178498999961
 20
8235.0418860000027
 30
0.0
 11
26306.17638799996
 21
8235.0418860000027
 31
0.0
  0
LINE
  5
470F
  8
0-1
  6
CONTINUOUS
 62
     3
 10
26349.178498999961
 20
8561.2289369999999
 30
0.0
 11
26349.178498999961
 21
8235.0418860000027
 31
0.0
  0
LINE
  5
4710
  8
0-1
  6
CONTINUOUS
 62
     3
 10
25914.21191299997
 20
8307.6931870000008
 30
0.0
 11
25882.212995999958
 21
8339.6930949999969
 31
0.0
  0
LINE
  5
4711
  8
0-1
  6
CONTINUOUS
 62
     3
 10
26195.178841999961
 20
8348.2287790000028
 30
0.0
 11
25885.748415999959
 21
8348.2287790000028
 31
0.0
  0
LINE
  5
4712
  8
0-1
  6
CONTINUOUS
 62
     3
 10
26200.17910599997
 20
8339.8296820000032
 30
0.0
 11
25882.08234699997
 21
8339.8296820000032
 31
0.0
  0
LINE
  5
4713
  8
0-1
  6
CONTINUOUS
 62
     3
 10
26195.178841999961
 20
8306.2283440000028
 30
0.0
 11
25917.74931299996
 21
8306.2283440000028
 31
0.0
  0
LINE
  5
4714
  8
0-1
  6
CONTINUOUS
 62
     3
 10
26200.17910599997
 20
8314.6284309999974
 30
0.0
 11
25907.27765999996
 21
8314.6284309999974
 31
0.0
  0
LINE
  5
4715
  8
0-1
  6
CONTINUOUS
 62
     3
 10
26200.17910599997
 20
8323.0285179999992
 30
0.0
 11
25898.878561999962
 21
8323.0285179999992
 31
0.0
  0
LINE
  5
4716
  8
0-1
  6
CONTINUOUS
 62
     3
 10
26200.17910599997
 20
8331.4295950000032
 30
0.0
 11
25890.47748599996
 21
8331.4295950000032
 31
0.0
  0
LINE
  5
4717
  8
0-1
  6
CONTINUOUS
 62
     3
 10
26313.67678399997
 20
6212.7285879999999
 30
0.0
 11
26213.67744299996
 21
6212.7285879999999
 31
0.0
  0
LINE
  5
4718
  8
0-1
  6
CONTINUOUS
 62
     3
 10
26213.67744299996
 20
6212.7285879999999
 30
0.0
 11
26213.67744299996
 21
6112.7287530000012
 31
0.0
  0
LINE
  5
4719
  8
0-1
  6
CONTINUOUS
 62
     3
 10
26313.67678399997
 20
6112.7287530000012
 30
0.0
 11
26313.67678399997
 21
6212.7285879999999
 31
0.0
  0
LINE
  5
471A
  8
0-1
  6
CONTINUOUS
 62
     3
 10
26286.17731099997
 20
8561.2289369999999
 30
0.0
 11
26286.17731099997
 21
6212.7285879999999
 31
0.0
  0
LINE
  5
471B
  8
0-1
  6
CONTINUOUS
 62
     3
 10
26306.17638799996
 20
8431.2280139999984
 30
0.0
 11
26306.17638799996
 21
6212.7285879999999
 31
0.0
  0
LINE
  5
471C
  8
0-1
  6
CONTINUOUS
 62
     3
 10
26176.17744299995
 20
8120.7286469999981
 30
0.0
 11
26176.17744299995
 21
6112.7287530000012
 31
0.0
  0
LINE
  5
471D
  8
0-1
  6
CONTINUOUS
 62
     3
 10
26221.17783899996
 20
8431.2280139999984
 30
0.0
 11
26221.17783899996
 21
6212.7285879999999
 31
0.0
  0
LINE
  5
471E
  8
0-1
  6
CONTINUOUS
 62
     3
 10
23344.64231399999
 20
8307.6931870000008
 30
0.0
 11
23376.63925199999
 21
8339.6930949999969
 31
0.0
  0
LINE
  5
471F
  8
0-1
  6
CONTINUOUS
 62
     3
 10
23058.677099999979
 20
8311.2286080000031
 30
0.0
 11
23058.677099999979
 21
8343.2285150000007
 31
0.0
  0
LINE
  5
4720
  8
0-1
  6
CONTINUOUS
 62
     3
 10
22931.675146999991
 20
8311.2286080000031
 30
0.0
 11
22931.675146999991
 21
8343.2285150000007
 31
0.0
  0
LINE
  5
4721
  8
0-1
  6
CONTINUOUS
 62
     3
 10
23058.677099999979
 20
8314.6284309999974
 30
0.0
 11
23351.574587999981
 21
8314.6284309999974
 31
0.0
  0
LINE
  5
4722
  8
0-1
  6
CONTINUOUS
 62
     3
 10
23058.677099999979
 20
8323.0285179999992
 30
0.0
 11
23359.975664999991
 21
8323.0285179999992
 31
0.0
  0
LINE
  5
4723
  8
0-1
  6
CONTINUOUS
 62
     3
 10
23063.677363999981
 20
8306.2283440000028
 30
0.0
 11
23341.104913999981
 21
8306.2283440000028
 31
0.0
  0
LINE
  5
4724
  8
0-1
  6
CONTINUOUS
 62
     3
 10
23058.677099999979
 20
8331.4295950000032
 30
0.0
 11
23368.374761999989
 21
8331.4295950000032
 31
0.0
  0
LINE
  5
4725
  8
0-1
  6
CONTINUOUS
 62
     3
 10
23058.677099999979
 20
8339.8296820000032
 30
0.0
 11
23376.771879999978
 21
8339.8296820000032
 31
0.0
  0
LINE
  5
4726
  8
0-1
  6
CONTINUOUS
 62
     3
 10
23063.677363999981
 20
8348.2287790000028
 30
0.0
 11
23373.105811000001
 21
8348.2287790000028
 31
0.0
  0
LINE
  5
4727
  8
0-1
  6
CONTINUOUS
 62
     3
 10
22645.709933999991
 20
8307.6931870000008
 30
0.0
 11
22613.71299599998
 21
8339.6930949999969
 31
0.0
  0
LINE
  5
4728
  8
0-1
  6
CONTINUOUS
 62
     3
 10
22150.12755999999
 20
7546.4450679999973
 30
0.0
 11
21904.28322899999
 21
7731.8858739999978
 31
0.0
  0
LINE
  5
4729
  8
0-1
  6
CONTINUOUS
 62
     3
 10
21762.15973399999
 20
7463.3127109999969
 30
0.0
 11
21604.283229000001
 21
7582.4020330000021
 31
0.0
  0
LINE
  5
472A
  8
0-1
  6
CONTINUOUS
 62
     3
 10
21544.177126999981
 20
6933.6326340000023
 30
0.0
 11
22150.12755999999
 21
7546.4450679999973
 31
0.0
  0
LINE
  5
472B
  8
0-1
  6
CONTINUOUS
 62
     3
 10
22926.67686299999
 20
8306.2283440000028
 30
0.0
 11
22649.245353999991
 21
8306.2283440000028
 31
0.0
  0
LINE
  5
472C
  8
0-1
  6
CONTINUOUS
 62
     3
 10
22926.67686299999
 20
8348.2287790000028
 30
0.0
 11
22617.246435999969
 21
8348.2287790000028
 31
0.0
  0
LINE
  5
472D
  8
0-1
  6
CONTINUOUS
 62
     3
 10
22931.675146999991
 20
8314.6284309999974
 30
0.0
 11
22638.777659999982
 21
8314.6284309999974
 31
0.0
  0
LINE
  5
472E
  8
0-1
  6
CONTINUOUS
 62
     3
 10
22931.675146999991
 20
8323.0285179999992
 30
0.0
 11
22630.376582999968
 21
8323.0285179999992
 31
0.0
  0
LINE
  5
472F
  8
0-1
  6
CONTINUOUS
 62
     3
 10
22931.675146999991
 20
8331.4295950000032
 30
0.0
 11
22621.977485999982
 21
8331.4295950000032
 31
0.0
  0
LINE
  5
4730
  8
0-1
  6
CONTINUOUS
 62
     3
 10
22931.675146999991
 20
8339.8296820000032
 30
0.0
 11
22613.582347999982
 21
8339.8296820000032
 31
0.0
  0
LINE
  5
4731
  8
0-1
  6
CONTINUOUS
 62
     3
 10
21598.404058999979
 20
6892.728852000002
 30
0.0
 11
22907.677444000001
 21
6892.728852000002
 31
0.0
  0
LINE
  5
4732
  8
0-1
  6
CONTINUOUS
 62
     3
 10
21568.00261299999
 20
6957.7288190000027
 30
0.0
 11
22907.677444000001
 21
6957.7288190000027
 31
0.0
  0
LINE
  5
4733
  8
0-1
  6
CONTINUOUS
 62
     3
 10
21632.27560099999
 20
7022.7287859999997
 30
0.0
 11
22907.677444000001
 21
7022.7287859999997
 31
0.0
  0
LINE
  5
4734
  8
0-1
  6
CONTINUOUS
 62
     3
 10
21696.548589999991
 20
7087.7292480000024
 30
0.0
 11
22907.677444000001
 21
7087.7292480000024
 31
0.0
  0
LINE
  5
4735
  8
0-1
  6
CONTINUOUS
 62
     3
 10
21760.81959899998
 20
7152.7282250000007
 30
0.0
 11
22907.677444000001
 21
7152.7282250000007
 31
0.0
  0
LINE
  5
4736
  8
0-1
  6
CONTINUOUS
 62
     3
 10
21825.092587999981
 20
7217.7286870000007
 30
0.0
 11
22907.677444000001
 21
7217.7286870000007
 31
0.0
  0
LINE
  5
4737
  8
0-1
  6
CONTINUOUS
 62
     3
 10
21889.363597999982
 20
7282.7286539999968
 30
0.0
 11
22907.677444000001
 21
7282.7286539999968
 31
0.0
  0
LINE
  5
4738
  8
0-1
  6
CONTINUOUS
 62
     3
 10
21953.636585999979
 20
7347.7291160000004
 30
0.0
 11
22907.677444000001
 21
7347.7291160000004
 31
0.0
  0
LINE
  5
4739
  8
0-1
  6
CONTINUOUS
 62
     3
 10
22017.90759599999
 20
7412.7280929999979
 30
0.0
 11
22907.677444000001
 21
7412.7280929999979
 31
0.0
  0
LINE
  5
473A
  8
0-1
  6
CONTINUOUS
 62
     3
 10
22082.180583999991
 20
7477.7285550000033
 30
0.0
 11
22907.677444000001
 21
7477.7285550000033
 31
0.0
  0
LINE
  5
473B
  8
0-1
  6
CONTINUOUS
 62
     3
 10
22146.451593999991
 20
7542.7285220000031
 30
0.0
 11
22907.677444000001
 21
7542.7285220000031
 31
0.0
  0
LINE
  5
473C
  8
0-1
  6
CONTINUOUS
 62
     3
 10
22068.882178999971
 20
7607.7284890000019
 30
0.0
 11
22907.677444000001
 21
7607.7284890000019
 31
0.0
  0
LINE
  5
473D
  8
0-1
  6
CONTINUOUS
 62
     3
 10
21982.707795999992
 20
7672.7289510000028
 30
0.0
 11
22907.677444000001
 21
7672.7289510000028
 31
0.0
  0
LINE
  5
473E
  8
0-1
  6
CONTINUOUS
 62
     3
 10
21904.28322899999
 20
7737.7289180000007
 30
0.0
 11
22907.677444000001
 21
7737.7289180000007
 31
0.0
  0
LINE
  5
473F
  8
0-1
  6
CONTINUOUS
 62
     3
 10
21904.28322899999
 20
7802.7293799999989
 30
0.0
 11
22907.677444000001
 21
7802.7293799999989
 31
0.0
  0
LINE
  5
4740
  8
0-1
  6
CONTINUOUS
 62
     3
 10
21904.28322899999
 20
7867.7283569999972
 30
0.0
 11
22907.677444000001
 21
7867.7283569999972
 31
0.0
  0
LINE
  5
4741
  8
0-1
  6
CONTINUOUS
 62
     3
 10
21904.28322899999
 20
7932.7288190000027
 30
0.0
 11
22907.677444000001
 21
7932.7288190000027
 31
0.0
  0
LINE
  5
4742
  8
0-1
  6
CONTINUOUS
 62
     3
 10
21904.28322899999
 20
7997.7287859999969
 30
0.0
 11
22907.677444000001
 21
7997.7287859999969
 31
0.0
  0
LINE
  5
4743
  8
0-1
  6
CONTINUOUS
 62
     3
 10
21904.28322899999
 20
8052.1883109999999
 30
0.0
 11
22907.677444000001
 21
8052.1883109999999
 31
0.0
  0
LINE
  5
4744
  8
0-1
  6
CONTINUOUS
 62
     3
 10
21904.28322899999
 20
8120.7286469999981
 30
0.0
 11
23710.67113599999
 21
8120.7286469999981
 31
0.0
  0
LINE
  5
4745
  8
0-1
  6
CONTINUOUS
 62
     3
 10
21904.28322899999
 20
8297.2284620000028
 30
0.0
 11
22952.677839999971
 21
8297.2284620000028
 31
0.0
  0
LINE
  5
4746
  8
0-1
  6
CONTINUOUS
 62
     3
 10
21904.28322899999
 20
8357.2286600000025
 30
0.0
 11
22952.677839999971
 21
8357.2286600000025
 31
0.0
  0
LINE
  5
4747
  8
0-1
  6
CONTINUOUS
 62
     3
 10
21904.28322899999
 20
6662.0030939999988
 30
0.0
 11
21904.28322899999
 21
5695.3695289999996
 31
0.0
  0
LINE
  5
4748
  8
0-1
  6
CONTINUOUS
 62
     3
 10
21604.283229000001
 20
6512.5172739999998
 30
0.0
 11
21604.283229000001
 21
5695.3695289999996
 31
0.0
  0
LINE
  5
4749
  8
0-1
  6
CONTINUOUS
 62
     3
 10
21904.28322899999
 20
6177.7282249999998
 30
0.0
 11
22907.677444000001
 21
6177.7282249999998
 31
0.0
  0
LINE
  5
474A
  8
0-1
  6
CONTINUOUS
 62
     3
 10
21904.28322899999
 20
6242.7291820000009
 30
0.0
 11
22907.677444000001
 21
6242.7291820000009
 31
0.0
  0
LINE
  5
474B
  8
0-1
  6
CONTINUOUS
 62
     3
 10
21904.28322899999
 20
6307.7281590000002
 30
0.0
 11
22907.677444000001
 21
6307.7281590000002
 31
0.0
  0
LINE
  5
474C
  8
0-1
  6
CONTINUOUS
 62
     3
 10
21904.28322899999
 20
6437.7285880000027
 30
0.0
 11
22907.677444000001
 21
6437.7285880000027
 31
0.0
  0
LINE
  5
474D
  8
0-1
  6
CONTINUOUS
 62
     3
 10
21904.28322899999
 20
6372.7291160000023
 30
0.0
 11
22907.677444000001
 21
6372.7291160000023
 31
0.0
  0
LINE
  5
474E
  8
0-1
  6
CONTINUOUS
 62
     3
 10
21904.28322899999
 20
6502.7285549999997
 30
0.0
 11
22907.677444000001
 21
6502.7285549999997
 31
0.0
  0
LINE
  5
474F
  8
0-1
  6
CONTINUOUS
 62
     3
 10
21904.28322899999
 20
6567.7285220000022
 30
0.0
 11
22907.677444000001
 21
6567.7285220000022
 31
0.0
  0
LINE
  5
4750
  8
0-1
  6
CONTINUOUS
 62
     3
 10
21904.28322899999
 20
6632.7279940000008
 30
0.0
 11
22907.677444000001
 21
6632.7279940000008
 31
0.0
  0
LINE
  5
4751
  8
0-1
  6
CONTINUOUS
 62
     3
 10
21856.92126799998
 20
6697.7294460000012
 30
0.0
 11
22907.677444000001
 21
6697.7294460000012
 31
0.0
  0
LINE
  5
4752
  8
0-1
  6
CONTINUOUS
 62
     3
 10
21770.746884999979
 20
6762.7284230000032
 30
0.0
 11
22907.677444000001
 21
6762.7284230000032
 31
0.0
  0
LINE
  5
4753
  8
0-1
  6
CONTINUOUS
 62
     3
 10
21684.574481999982
 20
6827.7288849999986
 30
0.0
 11
22907.677444000001
 21
6827.7288849999986
 31
0.0
  0
LINE
  5
4754
  8
0-1
  6
CONTINUOUS
 62
     3
 10
22952.677839999971
 20
8431.2280139999984
 30
0.0
 11
22952.677839999971
 21
6112.7287530000012
 31
0.0
  0
LINE
  5
4755
  8
0-1
  6
CONTINUOUS
 62
     3
 10
23037.674407999992
 20
8431.2280139999984
 30
0.0
 11
23037.674407999992
 21
6112.7287530000012
 31
0.0
  0
LINE
  5
4756
  8
0-1
  6
CONTINUOUS
 62
     3
 10
23082.674803999998
 20
8120.7286469999981
 30
0.0
 11
23082.674803999998
 21
6112.7287530000012
 31
0.0
  0
LINE
  5
4757
  8
0-1
  6
CONTINUOUS
 62
     3
 10
22907.677444000001
 20
8120.7286469999981
 30
0.0
 11
22907.677444000001
 21
6112.7287530000012
 31
0.0
  0
LINE
  5
4758
  8
0-1
  6
CONTINUOUS
 62
     3
 10
21904.28322899999
 20
6662.0030939999988
 30
0.0
 11
21544.177126999981
 21
6933.6326340000023
 31
0.0
  0
LINE
  5
4759
  8
0-1
  6
CONTINUOUS
 62
     3
 10
26349.178498999961
 20
8431.2280139999984
 30
0.0
 11
21904.28322899999
 21
8431.2280139999984
 31
0.0
  0
LINE
  5
475A
  8
0-1
  6
CONTINUOUS
 62
     3
 10
23037.674407999992
 20
8357.2286600000025
 30
0.0
 11
26221.17783899996
 21
8357.2286600000025
 31
0.0
  0
LINE
  5
475B
  8
0-1
  6
CONTINUOUS
 62
     3
 10
23082.674803999998
 20
8052.1883109999999
 30
0.0
 11
26176.17744299995
 21
8052.1883109999999
 31
0.0
  0
LINE
  5
475C
  8
0-1
  6
CONTINUOUS
 62
     3
 10
23082.674803999998
 20
6697.7294460000012
 30
0.0
 11
26176.17744299995
 21
6697.7294460000012
 31
0.0
  0
LINE
  5
475D
  8
0-1
  6
CONTINUOUS
 62
     3
 10
23082.674803999998
 20
6762.7284230000032
 30
0.0
 11
26176.17744299995
 21
6762.7284230000032
 31
0.0
  0
LINE
  5
475E
  8
0-1
  6
CONTINUOUS
 62
     3
 10
23082.674803999998
 20
6827.7288849999986
 30
0.0
 11
26176.17744299995
 21
6827.7288849999986
 31
0.0
  0
LINE
  5
475F
  8
0-1
  6
CONTINUOUS
 62
     3
 10
23082.674803999998
 20
6892.728852000002
 30
0.0
 11
26176.17744299995
 21
6892.728852000002
 31
0.0
  0
LINE
  5
4760
  8
0-1
  6
CONTINUOUS
 62
     3
 10
23082.674803999998
 20
6957.7288190000027
 30
0.0
 11
26176.17744299995
 21
6957.7288190000027
 31
0.0
  0
LINE
  5
4761
  8
0-1
  6
CONTINUOUS
 62
     3
 10
23082.674803999998
 20
7022.7287859999997
 30
0.0
 11
26176.17744299995
 21
7022.7287859999997
 31
0.0
  0
LINE
  5
4762
  8
0-1
  6
CONTINUOUS
 62
     3
 10
23082.674803999998
 20
7087.7292480000024
 30
0.0
 11
26176.17744299995
 21
7087.7292480000024
 31
0.0
  0
LINE
  5
4763
  8
0-1
  6
CONTINUOUS
 62
     3
 10
23082.674803999998
 20
7152.7282250000007
 30
0.0
 11
26176.17744299995
 21
7152.7282250000007
 31
0.0
  0
LINE
  5
4764
  8
0-1
  6
CONTINUOUS
 62
     3
 10
23082.674803999998
 20
7217.7286870000007
 30
0.0
 11
26176.17744299995
 21
7217.7286870000007
 31
0.0
  0
LINE
  5
4765
  8
0-1
  6
CONTINUOUS
 62
     3
 10
23082.674803999998
 20
7282.7286539999968
 30
0.0
 11
26176.17744299995
 21
7282.7286539999968
 31
0.0
  0
LINE
  5
4766
  8
0-1
  6
CONTINUOUS
 62
     3
 10
23082.674803999998
 20
7347.7291160000004
 30
0.0
 11
26176.17744299995
 21
7347.7291160000004
 31
0.0
  0
LINE
  5
4767
  8
0-1
  6
CONTINUOUS
 62
     3
 10
23082.674803999998
 20
7412.7280929999979
 30
0.0
 11
26176.17744299995
 21
7412.7280929999979
 31
0.0
  0
LINE
  5
4768
  8
0-1
  6
CONTINUOUS
 62
     3
 10
23082.674803999998
 20
7477.7285550000033
 30
0.0
 11
26176.17744299995
 21
7477.7285550000033
 31
0.0
  0
LINE
  5
4769
  8
0-1
  6
CONTINUOUS
 62
     3
 10
23082.674803999998
 20
7542.7285220000031
 30
0.0
 11
26176.17744299995
 21
7542.7285220000031
 31
0.0
  0
LINE
  5
476A
  8
0-1
  6
CONTINUOUS
 62
     3
 10
23082.674803999998
 20
7607.7284890000019
 30
0.0
 11
26176.17744299995
 21
7607.7284890000019
 31
0.0
  0
LINE
  5
476B
  8
0-1
  6
CONTINUOUS
 62
     3
 10
23082.674803999998
 20
7672.7289510000028
 30
0.0
 11
26176.17744299995
 21
7672.7289510000028
 31
0.0
  0
LINE
  5
476C
  8
0-1
  6
CONTINUOUS
 62
     3
 10
23082.674803999998
 20
7737.7289180000007
 30
0.0
 11
26176.17744299995
 21
7737.7289180000007
 31
0.0
  0
LINE
  5
476D
  8
0-1
  6
CONTINUOUS
 62
     3
 10
23082.674803999998
 20
7802.7293799999989
 30
0.0
 11
26176.17744299995
 21
7802.7293799999989
 31
0.0
  0
LINE
  5
476E
  8
0-1
  6
CONTINUOUS
 62
     3
 10
23082.674803999998
 20
7867.7283569999972
 30
0.0
 11
26176.17744299995
 21
7867.7283569999972
 31
0.0
  0
LINE
  5
476F
  8
0-1
  6
CONTINUOUS
 62
     3
 10
23082.674803999998
 20
7932.7288190000027
 30
0.0
 11
26176.17744299995
 21
7932.7288190000027
 31
0.0
  0
LINE
  5
4770
  8
0-1
  6
CONTINUOUS
 62
     3
 10
23082.674803999998
 20
7997.7287859999969
 30
0.0
 11
26176.17744299995
 21
7997.7287859999969
 31
0.0
  0
LINE
  5
4771
  8
0-1
  6
CONTINUOUS
 62
     3
 10
23082.674803999998
 20
6177.7282249999998
 30
0.0
 11
26176.17744299995
 21
6177.7282249999998
 31
0.0
  0
LINE
  5
4772
  8
0-1
  6
CONTINUOUS
 62
     3
 10
23082.674803999998
 20
6242.7291820000009
 30
0.0
 11
26176.17744299995
 21
6242.7291820000009
 31
0.0
  0
LINE
  5
4773
  8
0-1
  6
CONTINUOUS
 62
     3
 10
23082.674803999998
 20
6307.7281590000002
 30
0.0
 11
26176.17744299995
 21
6307.7281590000002
 31
0.0
  0
LINE
  5
4774
  8
0-1
  6
CONTINUOUS
 62
     3
 10
23082.674803999998
 20
6372.7291160000023
 30
0.0
 11
26176.17744299995
 21
6372.7291160000023
 31
0.0
  0
LINE
  5
4775
  8
0-1
  6
CONTINUOUS
 62
     3
 10
23082.674803999998
 20
6437.7285880000027
 30
0.0
 11
26176.17744299995
 21
6437.7285880000027
 31
0.0
  0
LINE
  5
4776
  8
0-1
  6
CONTINUOUS
 62
     3
 10
23082.674803999998
 20
6502.7285549999997
 30
0.0
 11
26176.17744299995
 21
6502.7285549999997
 31
0.0
  0
LINE
  5
4777
  8
0-1
  6
CONTINUOUS
 62
     3
 10
23082.674803999998
 20
6567.7285220000022
 30
0.0
 11
26176.17744299995
 21
6567.7285220000022
 31
0.0
  0
LINE
  5
4778
  8
0-1
  6
CONTINUOUS
 62
     3
 10
23082.674803999998
 20
6632.7279940000008
 30
0.0
 11
26176.17744299995
 21
6632.7279940000008
 31
0.0
  0
LINE
  5
4779
  8
0-1
  6
CONTINUOUS
 62
     3
 10
23037.674407999992
 20
8297.2284620000028
 30
0.0
 11
26221.17783899996
 21
8297.2284620000028
 31
0.0
  0
LINE
  5
477A
  8
0-1
  6
CONTINUOUS
 62
     3
 10
23037.674407999992
 20
8120.7286469999981
 30
0.0
 11
26221.17783899996
 21
8120.7286469999981
 31
0.0
  0
LINE
  5
477B
  8
0-1
  6
CONTINUOUS
 62
     3
 10
21904.28322899999
 20
6112.7287530000012
 30
0.0
 11
26313.67678399997
 21
6112.7287530000012
 31
0.0
  0
LINE
  5
477C
  8
0-1
  6
CONTINUOUS
 62
     3
 10
21904.28322899999
 20
8561.2289369999999
 30
0.0
 11
26349.178498999961
 21
8561.2289369999999
 31
0.0
  0
LINE
  5
477D
  8
0-1
  6
CONTINUOUS
 62
     3
 10
21904.28322899999
 20
7731.8858739999978
 30
0.0
 11
21904.28322899999
 21
8935.9082550000021
 31
0.0
  0
LINE
  5
477E
  8
0-1
  6
CONTINUOUS
 62
     3
 10
21604.283229000001
 20
7582.4020330000021
 30
0.0
 11
21604.283229000001
 21
8935.9082550000021
 31
0.0
  0
LINE
  5
477F
  8
0-1
  6
CONTINUOUS
 62
     3
 10
20558.671821999989
 20
8314.6284309999974
 30
0.0
 11
20851.573267999989
 21
8314.6284309999974
 31
0.0
  0
LINE
  5
4780
  8
0-1
  6
CONTINUOUS
 62
     3
 10
20558.671821999989
 20
8323.0285179999992
 30
0.0
 11
20859.97038599999
 21
8323.0285179999992
 31
0.0
  0
LINE
  5
4781
  8
0-1
  6
CONTINUOUS
 62
     3
 10
20563.67208599997
 20
8306.2283440000028
 30
0.0
 11
20841.101614999981
 21
8306.2283440000028
 31
0.0
  0
LINE
  5
4782
  8
0-1
  6
CONTINUOUS
 62
     3
 10
20558.671821999989
 20
8331.4295950000032
 30
0.0
 11
20868.373441999989
 21
8331.4295950000032
 31
0.0
  0
LINE
  5
4783
  8
0-1
  6
CONTINUOUS
 62
     3
 10
20563.67208599997
 20
8348.2287790000028
 30
0.0
 11
20873.100532999972
 21
8348.2287790000028
 31
0.0
  0
LINE
  5
4784
  8
0-1
  6
CONTINUOUS
 62
     3
 10
20558.671821999989
 20
8311.2286080000031
 30
0.0
 11
20558.671821999989
 21
8343.2285150000007
 31
0.0
  0
LINE
  5
4785
  8
0-1
  6
CONTINUOUS
 62
     3
 10
20431.66986899999
 20
8311.2286080000031
 30
0.0
 11
20431.66986899999
 21
8343.2285150000007
 31
0.0
  0
LINE
  5
4786
  8
0-1
  6
CONTINUOUS
 62
     3
 10
20558.671821999989
 20
8339.8296820000032
 30
0.0
 11
20876.766600999981
 21
8339.8296820000032
 31
0.0
  0
LINE
  5
4787
  8
0-1
  6
CONTINUOUS
 62
     3
 10
20844.637034999982
 20
8307.6931870000008
 30
0.0
 11
20876.633972999989
 21
8339.6930949999969
 31
0.0
  0
LINE
  5
4788
  8
0-1
  6
CONTINUOUS
 62
     3
 10
20582.669525999991
 20
6892.728852000002
 30
0.0
 11
21197.967244999982
 21
6892.728852000002
 31
0.0
  0
LINE
  5
4789
  8
0-1
  6
CONTINUOUS
 62
     3
 10
20582.669525999991
 20
6957.7288190000027
 30
0.0
 11
21262.238253999982
 21
6957.7288190000027
 31
0.0
  0
LINE
  5
478A
  8
0-1
  6
CONTINUOUS
 62
     3
 10
20582.669525999991
 20
7022.7287859999997
 30
0.0
 11
21326.51124299999
 21
7022.7287859999997
 31
0.0
  0
LINE
  5
478B
  8
0-1
  6
CONTINUOUS
 62
     3
 10
20582.669525999991
 20
7087.7292480000024
 30
0.0
 11
21390.782252999968
 21
7087.7292480000024
 31
0.0
  0
LINE
  5
478C
  8
0-1
  6
CONTINUOUS
 62
     3
 10
20582.669525999991
 20
7152.7282250000007
 30
0.0
 11
21455.055240999991
 21
7152.7282250000007
 31
0.0
  0
LINE
  5
478D
  8
0-1
  6
CONTINUOUS
 62
     3
 10
20582.669525999991
 20
7217.7286870000007
 30
0.0
 11
21519.326250999991
 21
7217.7286870000007
 31
0.0
  0
LINE
  5
478E
  8
0-1
  6
CONTINUOUS
 62
     3
 10
20145.708613999981
 20
8307.6931870000008
 30
0.0
 11
20113.70771699999
 21
8339.6930949999969
 31
0.0
  0
LINE
  5
478F
  8
0-1
  6
CONTINUOUS
 62
     3
 10
20431.66986899999
 20
8339.8296820000032
 30
0.0
 11
20113.577068999992
 21
8339.8296820000032
 31
0.0
  0
LINE
  5
4790
  8
0-1
  6
CONTINUOUS
 62
     3
 10
20431.66986899999
 20
8331.4295950000032
 30
0.0
 11
20121.972206999992
 21
8331.4295950000032
 31
0.0
  0
LINE
  5
4791
  8
0-1
  6
CONTINUOUS
 62
     3
 10
20431.66986899999
 20
8323.0285179999992
 30
0.0
 11
20130.371303999978
 21
8323.0285179999992
 31
0.0
  0
LINE
  5
4792
  8
0-1
  6
CONTINUOUS
 62
     3
 10
20431.66986899999
 20
8314.6284309999974
 30
0.0
 11
20138.770401999991
 21
8314.6284309999974
 31
0.0
  0
LINE
  5
4793
  8
0-1
  6
CONTINUOUS
 62
     3
 10
20426.671583999989
 20
8348.2287790000028
 30
0.0
 11
20117.241157999979
 21
8348.2287790000028
 31
0.0
  0
LINE
  5
4794
  8
0-1
  6
CONTINUOUS
 62
     3
 10
20426.671583999989
 20
8306.2283440000028
 30
0.0
 11
20149.244034999982
 21
8306.2283440000028
 31
0.0
  0
LINE
  5
4795
  8
0-1
  6
CONTINUOUS
 62
     3
 10
20582.669525999991
 20
6697.7294460000012
 30
0.0
 11
21358.745723999989
 21
6697.7294460000012
 31
0.0
  0
LINE
  5
4796
  8
0-1
  6
CONTINUOUS
 62
     3
 10
20582.669525999991
 20
6762.7284230000032
 30
0.0
 11
21272.573320999982
 21
6762.7284230000032
 31
0.0
  0
LINE
  5
4797
  8
0-1
  6
CONTINUOUS
 62
     3
 10
20582.669525999991
 20
6827.7288849999986
 30
0.0
 11
21186.398938999992
 21
6827.7288849999986
 31
0.0
  0
LINE
  5
4798
  8
0-1
  6
CONTINUOUS
 62
     3
 10
20582.669525999991
 20
6632.7279940000008
 30
0.0
 11
21444.914167999981
 21
6632.7279940000008
 31
0.0
  0
LINE
  5
4799
  8
0-1
  6
CONTINUOUS
 62
     3
 10
20452.670580999991
 20
8431.2280139999984
 30
0.0
 11
20452.670580999991
 21
6112.7287530000012
 31
0.0
  0
LINE
  5
479A
  8
0-1
  6
CONTINUOUS
 62
     3
 10
20407.672164999982
 20
8120.7286469999981
 30
0.0
 11
20407.672164999982
 21
6112.7287530000012
 31
0.0
  0
LINE
  5
479B
  8
0-1
  6
CONTINUOUS
 62
     3
 10
20537.673088999982
 20
8431.2280139999984
 30
0.0
 11
20537.673088999982
 21
6112.7287530000012
 31
0.0
  0
LINE
  5
479C
  8
0-1
  6
CONTINUOUS
 62
     3
 10
20582.669525999991
 20
8120.7286469999981
 30
0.0
 11
20582.669525999991
 21
6112.7287530000012
 31
0.0
  0
LINE
  5
479D
  8
0-1
  6
CONTINUOUS
 62
     3
 10
20582.669525999991
 20
8120.7286469999981
 30
0.0
 11
20582.669525999991
 21
6112.7287530000012
 31
0.0
  0
LINE
  5
479E
  8
0-1
  6
CONTINUOUS
 62
     3
 10
17295.17010599999
 20
8306.2283440000028
 30
0.0
 11
17572.599635999992
 21
8306.2283440000028
 31
0.0
  0
LINE
  5
479F
  8
0-1
  6
CONTINUOUS
 62
     3
 10
17290.171821999989
 20
8311.2286080000031
 30
0.0
 11
17290.171821999989
 21
8343.2285150000007
 31
0.0
  0
LINE
  5
47A0
  8
0-1
  6
CONTINUOUS
 62
     3
 10
17141.17044999998
 20
8235.0418860000027
 30
0.0
 11
17184.168602000002
 21
8235.0418860000027
 31
0.0
  0
LINE
  5
47A1
  8
0-1
  6
CONTINUOUS
 62
     3
 10
17141.17044999998
 20
8235.0418860000027
 30
0.0
 11
17141.17044999998
 21
8561.2289369999999
 31
0.0
  0
LINE
  5
47A2
  8
0-1
  6
CONTINUOUS
 62
     3
 10
17295.17010599999
 20
8348.2287790000028
 30
0.0
 11
17604.600533000001
 21
8348.2287790000028
 31
0.0
  0
LINE
  5
47A3
  8
0-1
  6
CONTINUOUS
 62
     3
 10
17576.133075999991
 20
8307.6931870000008
 30
0.0
 11
17608.133973999989
 21
8339.6930949999969
 31
0.0
  0
LINE
  5
47A4
  8
0-1
  6
CONTINUOUS
 62
     3
 10
17290.171821999989
 20
8339.8296820000032
 30
0.0
 11
17608.266600999999
 21
8339.8296820000032
 31
0.0
  0
LINE
  5
47A5
  8
0-1
  6
CONTINUOUS
 62
     3
 10
17290.171821999989
 20
8331.4295950000032
 30
0.0
 11
17599.869483999992
 21
8331.4295950000032
 31
0.0
  0
LINE
  5
47A6
  8
0-1
  6
CONTINUOUS
 62
     3
 10
17290.171821999989
 20
8323.0285179999992
 30
0.0
 11
17591.470386000001
 21
8323.0285179999992
 31
0.0
  0
LINE
  5
47A7
  8
0-1
  6
CONTINUOUS
 62
     3
 10
17290.171821999989
 20
8314.6284309999974
 30
0.0
 11
17583.071289
 21
8314.6284309999974
 31
0.0
  0
LINE
  5
47A8
  8
0-1
  6
CONTINUOUS
 62
     3
 10
17276.671504999991
 20
6212.7285879999999
 30
0.0
 11
17276.671504999991
 21
6112.7287530000012
 31
0.0
  0
LINE
  5
47A9
  8
0-1
  6
CONTINUOUS
 62
     3
 10
17176.670185999999
 20
6112.7287530000012
 30
0.0
 11
17176.670185999999
 21
6212.7285879999999
 31
0.0
  0
LINE
  5
47AA
  8
0-1
  6
CONTINUOUS
 62
     3
 10
17176.670185999999
 20
6212.7285879999999
 30
0.0
 11
17276.671504999991
 21
6212.7285879999999
 31
0.0
  0
LINE
  5
47AB
  8
0-1
  6
CONTINUOUS
 62
     3
 10
17314.171504999998
 20
8120.7286469999981
 30
0.0
 11
17314.171504999998
 21
6112.7287530000012
 31
0.0
  0
LINE
  5
47AC
  8
0-1
  6
CONTINUOUS
 62
     3
 10
17269.169129999991
 20
8431.2280139999984
 30
0.0
 11
17269.169129999991
 21
6212.7285879999999
 31
0.0
  0
LINE
  5
47AD
  8
0-1
  6
CONTINUOUS
 62
     3
 10
17204.171636999981
 20
8561.2289369999999
 30
0.0
 11
17204.171636999981
 21
6212.7285879999999
 31
0.0
  0
LINE
  5
47AE
  8
0-1
  6
CONTINUOUS
 62
     3
 10
17184.168602000002
 20
8431.2280139999984
 30
0.0
 11
17184.168602000002
 21
6212.7285879999999
 31
0.0
  0
LINE
  5
47AF
  8
0-1
  6
CONTINUOUS
 62
     3
 10
17269.169129999991
 20
8120.7286469999981
 30
0.0
 11
20452.670580999991
 21
8120.7286469999981
 31
0.0
  0
LINE
  5
47B0
  8
0-1
  6
CONTINUOUS
 62
     3
 10
17269.169129999991
 20
8297.2284620000028
 30
0.0
 11
20452.670580999991
 21
8297.2284620000028
 31
0.0
  0
LINE
  5
47B1
  8
0-1
  6
CONTINUOUS
 62
     3
 10
17314.171504999998
 20
6632.7279940000008
 30
0.0
 11
20407.672164999982
 21
6632.7279940000008
 31
0.0
  0
LINE
  5
47B2
  8
0-1
  6
CONTINUOUS
 62
     3
 10
17314.171504999998
 20
6567.7285220000022
 30
0.0
 11
20407.672164999982
 21
6567.7285220000022
 31
0.0
  0
LINE
  5
47B3
  8
0-1
  6
CONTINUOUS
 62
     3
 10
17314.171504999998
 20
6502.7285549999997
 30
0.0
 11
20407.672164999982
 21
6502.7285549999997
 31
0.0
  0
LINE
  5
47B4
  8
0-1
  6
CONTINUOUS
 62
     3
 10
17314.171504999998
 20
6437.7285880000027
 30
0.0
 11
20407.672164999982
 21
6437.7285880000027
 31
0.0
  0
LINE
  5
47B5
  8
0-1
  6
CONTINUOUS
 62
     3
 10
17314.171504999998
 20
6372.7291160000023
 30
0.0
 11
20407.672164999982
 21
6372.7291160000023
 31
0.0
  0
LINE
  5
47B6
  8
0-1
  6
CONTINUOUS
 62
     3
 10
17314.171504999998
 20
6307.7281590000002
 30
0.0
 11
20407.672164999982
 21
6307.7281590000002
 31
0.0
  0
LINE
  5
47B7
  8
0-1
  6
CONTINUOUS
 62
     3
 10
17314.171504999998
 20
6242.7291820000009
 30
0.0
 11
20407.672164999982
 21
6242.7291820000009
 31
0.0
  0
LINE
  5
47B8
  8
0-1
  6
CONTINUOUS
 62
     3
 10
17314.171504999998
 20
6177.7282249999998
 30
0.0
 11
20407.672164999982
 21
6177.7282249999998
 31
0.0
  0
LINE
  5
47B9
  8
0-1
  6
CONTINUOUS
 62
     3
 10
17314.171504999998
 20
7997.7287859999969
 30
0.0
 11
20407.672164999982
 21
7997.7287859999969
 31
0.0
  0
LINE
  5
47BA
  8
0-1
  6
CONTINUOUS
 62
     3
 10
17314.171504999998
 20
7932.7288190000027
 30
0.0
 11
20407.672164999982
 21
7932.7288190000027
 31
0.0
  0
LINE
  5
47BB
  8
0-1
  6
CONTINUOUS
 62
     3
 10
17314.171504999998
 20
7867.7283569999972
 30
0.0
 11
20407.672164999982
 21
7867.7283569999972
 31
0.0
  0
LINE
  5
47BC
  8
0-1
  6
CONTINUOUS
 62
     3
 10
17314.171504999998
 20
7802.7293799999989
 30
0.0
 11
20407.672164999982
 21
7802.7293799999989
 31
0.0
  0
LINE
  5
47BD
  8
0-1
  6
CONTINUOUS
 62
     3
 10
17314.171504999998
 20
7737.7289180000007
 30
0.0
 11
20407.672164999982
 21
7737.7289180000007
 31
0.0
  0
LINE
  5
47BE
  8
0-1
  6
CONTINUOUS
 62
     3
 10
17314.171504999998
 20
7672.7289510000028
 30
0.0
 11
20407.672164999982
 21
7672.7289510000028
 31
0.0
  0
LINE
  5
47BF
  8
0-1
  6
CONTINUOUS
 62
     3
 10
17314.171504999998
 20
7607.7284890000019
 30
0.0
 11
20407.672164999982
 21
7607.7284890000019
 31
0.0
  0
LINE
  5
47C0
  8
0-1
  6
CONTINUOUS
 62
     3
 10
17314.171504999998
 20
7542.7285220000031
 30
0.0
 11
20407.672164999982
 21
7542.7285220000031
 31
0.0
  0
LINE
  5
47C1
  8
0-1
  6
CONTINUOUS
 62
     3
 10
17314.171504999998
 20
7477.7285550000033
 30
0.0
 11
20407.672164999982
 21
7477.7285550000033
 31
0.0
  0
LINE
  5
47C2
  8
0-1
  6
CONTINUOUS
 62
     3
 10
17314.171504999998
 20
7412.7280929999979
 30
0.0
 11
20407.672164999982
 21
7412.7280929999979
 31
0.0
  0
LINE
  5
47C3
  8
0-1
  6
CONTINUOUS
 62
     3
 10
17314.171504999998
 20
7347.7291160000004
 30
0.0
 11
20407.672164999982
 21
7347.7291160000004
 31
0.0
  0
LINE
  5
47C4
  8
0-1
  6
CONTINUOUS
 62
     3
 10
17314.171504999998
 20
7282.7286539999968
 30
0.0
 11
20407.672164999982
 21
7282.7286539999968
 31
0.0
  0
LINE
  5
47C5
  8
0-1
  6
CONTINUOUS
 62
     3
 10
17314.171504999998
 20
7217.7286870000007
 30
0.0
 11
20407.672164999982
 21
7217.7286870000007
 31
0.0
  0
LINE
  5
47C6
  8
0-1
  6
CONTINUOUS
 62
     3
 10
17314.171504999998
 20
7152.7282250000007
 30
0.0
 11
20407.672164999982
 21
7152.7282250000007
 31
0.0
  0
LINE
  5
47C7
  8
0-1
  6
CONTINUOUS
 62
     3
 10
17314.171504999998
 20
7087.7292480000024
 30
0.0
 11
20407.672164999982
 21
7087.7292480000024
 31
0.0
  0
LINE
  5
47C8
  8
0-1
  6
CONTINUOUS
 62
     3
 10
17314.171504999998
 20
7022.7287859999997
 30
0.0
 11
20407.672164999982
 21
7022.7287859999997
 31
0.0
  0
LINE
  5
47C9
  8
0-1
  6
CONTINUOUS
 62
     3
 10
17314.171504999998
 20
6957.7288190000027
 30
0.0
 11
20407.672164999982
 21
6957.7288190000027
 31
0.0
  0
LINE
  5
47CA
  8
0-1
  6
CONTINUOUS
 62
     3
 10
17314.171504999998
 20
6892.728852000002
 30
0.0
 11
20407.672164999982
 21
6892.728852000002
 31
0.0
  0
LINE
  5
47CB
  8
0-1
  6
CONTINUOUS
 62
     3
 10
17314.171504999998
 20
6827.7288849999986
 30
0.0
 11
20407.672164999982
 21
6827.7288849999986
 31
0.0
  0
LINE
  5
47CC
  8
0-1
  6
CONTINUOUS
 62
     3
 10
17314.171504999998
 20
6762.7284230000032
 30
0.0
 11
20407.672164999982
 21
6762.7284230000032
 31
0.0
  0
LINE
  5
47CD
  8
0-1
  6
CONTINUOUS
 62
     3
 10
17314.171504999998
 20
6697.7294460000012
 30
0.0
 11
20407.672164999982
 21
6697.7294460000012
 31
0.0
  0
LINE
  5
47CE
  8
0-1
  6
CONTINUOUS
 62
     3
 10
17314.171504999998
 20
8052.1883109999999
 30
0.0
 11
20407.672164999982
 21
8052.1883109999999
 31
0.0
  0
LINE
  5
47CF
  8
0-1
  6
CONTINUOUS
 62
     3
 10
17269.169129999991
 20
8357.2286600000025
 30
0.0
 11
20452.670580999991
 21
8357.2286600000025
 31
0.0
  0
LINE
  5
47D0
  8
0-1
  6
CONTINUOUS
 62
     3
 10
17141.17044999998
 20
8561.2289369999999
 30
0.0
 11
21604.283229000001
 21
8561.2289369999999
 31
0.0
  0
LINE
  5
47D1
  8
0-1
  6
CONTINUOUS
 62
     3
 10
17176.670185999999
 20
6112.7287530000012
 30
0.0
 11
21604.283229000001
 21
6112.7287530000012
 31
0.0
  0
LINE
  5
47D2
  8
0-1
  6
CONTINUOUS
 62
     3
 10
20537.673088999982
 20
8357.2286600000025
 30
0.0
 11
21604.283229000001
 21
8357.2286600000025
 31
0.0
  0
LINE
  5
47D3
  8
0-1
  6
CONTINUOUS
 62
     3
 10
20537.673088999982
 20
8297.2284620000028
 30
0.0
 11
21604.283229000001
 21
8297.2284620000028
 31
0.0
  0
LINE
  5
47D4
  8
0-1
  6
CONTINUOUS
 62
     3
 10
20582.669525999991
 20
8052.1883109999999
 30
0.0
 11
21604.283229000001
 21
8052.1883109999999
 31
0.0
  0
LINE
  5
47D5
  8
0-1
  6
CONTINUOUS
 62
     3
 10
20582.669525999991
 20
7282.7286539999968
 30
0.0
 11
21583.599238999981
 21
7282.7286539999968
 31
0.0
  0
LINE
  5
47D6
  8
0-1
  6
CONTINUOUS
 62
     3
 10
20582.669525999991
 20
7347.7291160000004
 30
0.0
 11
21647.870248999981
 21
7347.7291160000004
 31
0.0
  0
LINE
  5
47D7
  8
0-1
  6
CONTINUOUS
 62
     3
 10
20582.669525999991
 20
7412.7280929999979
 30
0.0
 11
21712.14323799999
 21
7412.7280929999979
 31
0.0
  0
LINE
  5
47D8
  8
0-1
  6
CONTINUOUS
 62
     3
 10
20582.669525999991
 20
7477.7285550000033
 30
0.0
 11
21743.047481999991
 21
7477.7285550000033
 31
0.0
  0
LINE
  5
47D9
  8
0-1
  6
CONTINUOUS
 62
     3
 10
20582.669525999991
 20
7542.7285220000031
 30
0.0
 11
21656.879037999981
 21
7542.7285220000031
 31
0.0
  0
LINE
  5
47DA
  8
0-1
  6
CONTINUOUS
 62
     3
 10
20582.669525999991
 20
7607.7284890000019
 30
0.0
 11
21604.283229000001
 21
7607.7284890000019
 31
0.0
  0
LINE
  5
47DB
  8
0-1
  6
CONTINUOUS
 62
     3
 10
20582.669525999991
 20
7672.7289510000028
 30
0.0
 11
21604.283229000001
 21
7672.7289510000028
 31
0.0
  0
LINE
  5
47DC
  8
0-1
  6
CONTINUOUS
 62
     3
 10
20582.669525999991
 20
7737.7289180000007
 30
0.0
 11
21604.283229000001
 21
7737.7289180000007
 31
0.0
  0
LINE
  5
47DD
  8
0-1
  6
CONTINUOUS
 62
     3
 10
20582.669525999991
 20
7802.7293799999989
 30
0.0
 11
21604.283229000001
 21
7802.7293799999989
 31
0.0
  0
LINE
  5
47DE
  8
0-1
  6
CONTINUOUS
 62
     3
 10
20582.669525999991
 20
7867.7283569999972
 30
0.0
 11
21604.283229000001
 21
7867.7283569999972
 31
0.0
  0
LINE
  5
47DF
  8
0-1
  6
CONTINUOUS
 62
     3
 10
20582.669525999991
 20
7932.7288190000027
 30
0.0
 11
21604.283229000001
 21
7932.7288190000027
 31
0.0
  0
LINE
  5
47E0
  8
0-1
  6
CONTINUOUS
 62
     3
 10
20582.669525999991
 20
7997.7287859999969
 30
0.0
 11
21604.283229000001
 21
7997.7287859999969
 31
0.0
  0
LINE
  5
47E1
  8
0-1
  6
CONTINUOUS
 62
     3
 10
20582.669525999991
 20
6177.7282249999998
 30
0.0
 11
21604.283229000001
 21
6177.7282249999998
 31
0.0
  0
LINE
  5
47E2
  8
0-1
  6
CONTINUOUS
 62
     3
 10
20582.669525999991
 20
6242.7291820000009
 30
0.0
 11
21604.283229000001
 21
6242.7291820000009
 31
0.0
  0
LINE
  5
47E3
  8
0-1
  6
CONTINUOUS
 62
     3
 10
20582.669525999991
 20
6307.7281590000002
 30
0.0
 11
21604.283229000001
 21
6307.7281590000002
 31
0.0
  0
LINE
  5
47E4
  8
0-1
  6
CONTINUOUS
 62
     3
 10
20582.669525999991
 20
6372.7291160000023
 30
0.0
 11
21604.283229000001
 21
6372.7291160000023
 31
0.0
  0
LINE
  5
47E5
  8
0-1
  6
CONTINUOUS
 62
     3
 10
20582.669525999991
 20
6437.7285880000027
 30
0.0
 11
21604.283229000001
 21
6437.7285880000027
 31
0.0
  0
LINE
  5
47E6
  8
0-1
  6
CONTINUOUS
 62
     3
 10
20582.669525999991
 20
6502.7285549999997
 30
0.0
 11
21604.283229000001
 21
6502.7285549999997
 31
0.0
  0
LINE
  5
47E7
  8
0-1
  6
CONTINUOUS
 62
     3
 10
20582.669525999991
 20
6567.7285220000022
 30
0.0
 11
21531.086570999982
 21
6567.7285220000022
 31
0.0
  0
LINE
  5
47E8
  8
0-1
  6
CONTINUOUS
 62
     3
 10
20537.673088999982
 20
8120.7286469999981
 30
0.0
 11
21604.283229000001
 21
8120.7286469999981
 31
0.0
  0
LINE
  5
47E9
  8
0-1
  6
CONTINUOUS
 62
     3
 10
21604.283229000001
 20
6512.5172739999998
 30
0.0
 11
21156.211279999981
 21
6850.5002769999983
 31
0.0
  0
LINE
  5
47EA
  8
0-1
  6
CONTINUOUS
 62
     3
 10
21762.15973399999
 20
7463.3127109999969
 30
0.0
 11
21156.211279999981
 21
6850.5002769999983
 31
0.0
  0
LINE
  5
47EB
  8
0-1
  6
CONTINUOUS
 62
     3
 10
21604.283229000001
 20
8431.2280139999984
 30
0.0
 11
17141.17044999998
 21
8431.2280139999984
 31
0.0
  0
LINE
  5
47EC
  8
0-1
  6
CONTINUOUS
 62
     3
 10
20495.17084499999
 20
8431.2280139999984
 30
0.0
 11
20495.17084499999
 21
8561.2289369999999
 31
0.0
  0
LINE
  5
47ED
  8
0-1
  6
CONTINUOUS
 62
     3
 10
22995.176123999961
 20
8431.2280139999984
 30
0.0
 11
22995.176123999961
 21
8561.2289369999999
 31
0.0
  0
LINE
  5
47EE
  8
0-2
  6
CONTINUOUS
 62
     4
 10
24993.118123999971
 20
6859.9544569999989
 30
0.0
 11
24893.11878399998
 21
6859.9544569999989
 31
0.0
  0
LINE
  5
47EF
  8
0-2
  6
CONTINUOUS
 62
     4
 10
24265.73214399998
 20
6859.9544569999989
 30
0.0
 11
24365.73148499996
 21
6859.9544569999989
 31
0.0
  0
LINE
  5
47F0
  8
0-2
  6
CONTINUOUS
 62
     4
 10
19224.611855499999
 20
6859.9544569999989
 30
0.0
 11
19124.612515500001
 21
6859.9544569999989
 31
0.0
  0
LINE
  5
47F1
  8
0-2
  6
CONTINUOUS
 62
     4
 10
18497.227854500001
 20
6859.9544569999989
 30
0.0
 11
18597.225215499991
 21
6859.9544569999989
 31
0.0
  0
LINE
  5
47F2
  8
0-5
  6
CONTINUOUS
 62
     4
 10
13159.382786
 20
6112.7287530000021
 30
0.0
 11
17096.669922000001
 21
6112.7287530000012
 31
0.0
  0
LINE
  5
47F3
  8
0-5
  6
CONTINUOUS
 62
     4
 10
26263.676123999961
 20
4432.7286539999977
 30
0.0
 11
26263.676123999961
 21
4272.7286210000002
 31
0.0
  0
LINE
  5
47F4
  8
0-5
  6
CONTINUOUS
 62
     4
 10
22995.176123999961
 20
4432.7286539999977
 30
0.0
 11
22995.176123999961
 21
4272.7286210000002
 31
0.0
  0
LINE
  5
47F5
  8
0-5
  6
CONTINUOUS
 62
     4
 10
20495.17084499999
 20
4432.7286539999977
 30
0.0
 11
20495.17084499999
 21
4272.7286210000002
 31
0.0
  0
LINE
  5
47F6
  8
0-5
  6
CONTINUOUS
 62
     4
 10
17226.670844999979
 20
4432.7286539999977
 30
0.0
 11
17226.670844999979
 21
4272.7286210000002
 31
0.0
  0
LINE
  5
47F7
  8
0-5
  6
CONTINUOUS
 62
     4
 10
15344.79003899999
 20
6320.5742450000034
 30
0.0
 11
15464.787466
 21
6112.7287530000012
 31
0.0
  0
LINE
  5
47F8
  8
0-5
  6
CONTINUOUS
 62
     4
 10
15464.787466
 20
6112.7287530000012
 30
0.0
 11
15584.786872000001
 21
6320.5742450000034
 31
0.0
  0
LINE
  5
47F9
  8
0-5
  6
CONTINUOUS
 62
     4
 10
15584.786872000001
 20
6320.5742450000034
 30
0.0
 11
15344.79003899999
 21
6320.5742450000034
 31
0.0
  0
LINE
  5
47FA
  8
0-5
  6
CONTINUOUS
 62
     4
 10
13159.382786
 20
6112.7287530000021
 30
0.0
 11
17096.669922000001
 21
6112.7287530000012
 31
0.0
  0
LINE
  5
47FB
  8
2-0
  6
CENTER2
 62
     6
 10
26263.676123999961
 20
5850.0763299999999
 30
0.0
 11
26263.676123999961
 21
6887.2183670000013
 31
0.0
  0
LINE
  5
47FC
  8
2-0
  6
CENTER2
 62
     6
 10
22995.176123999961
 20
5850.0763299999999
 30
0.0
 11
22995.176123999961
 21
6887.2183670000013
 31
0.0
  0
LINE
  5
47FD
  8
2-0
  6
CENTER2
 62
     6
 10
20495.17084499999
 20
5850.0763299999999
 30
0.0
 11
20495.17084499999
 21
6887.2183670000013
 31
0.0
  0
LINE
  5
47FE
  8
2-0
  6
CENTER2
 62
     6
 10
17226.670844999979
 20
5850.0763299999999
 30
0.0
 11
17226.670844999979
 21
6887.2183670000013
 31
0.0
  0
LINE
  5
47FF
  8
2-0
  6
CONTINUOUS
 62
     6
 10
24580.517207999961
 20
13854.815322999981
 30
0.0
 11
25580.510609999928
 21
13854.815322999981
 31
0.0
  0
LINE
  5
4800
  8
2-0
  6
CONTINUOUS
 62
     6
 10
26048.45098699996
 20
14325.236036999981
 30
0.0
 11
25580.510609999928
 21
13854.815322999981
 31
0.0
  0
LINE
  5
4801
  8
2-0
  6
CONTINUOUS
 62
     6
 10
24597.22830399996
 20
18183.435387999969
 30
0.0
 11
25615.20365199996
 21
18183.435387999969
 31
0.0
  0
LINE
  5
4802
  8
2-0
  6
CONTINUOUS
 62
     6
 10
26071.62916999996
 20
18408.150336999981
 30
0.0
 11
25615.20365199996
 21
18183.435387999969
 31
0.0
  0
LINE
  5
4803
  8
2-0
  6
CONTINUOUS
 62
     6
 10
26009.810783999961
 20
17166.343683999981
 30
0.0
 11
25705.115365999962
 21
17269.997214999989
 31
0.0
  0
LINE
  5
4804
  8
2-0
  6
CONTINUOUS
 62
     6
 10
26164.832822999932
 20
16676.72164
 30
0.0
 11
25705.115365999962
 21
16432.808328999989
 31
0.0
  0
LINE
  5
4805
  8
2-0
  6
CONTINUOUS
 62
     6
 10
24785.11233099996
 20
16432.808328999989
 30
0.0
 11
25705.115365999962
 21
16432.808328999989
 31
0.0
  0
LINE
  5
4806
  8
2-0
  6
CONTINUOUS
 62
     6
 10
24505.121303999949
 20
17269.997214999989
 30
0.0
 11
25705.115365999962
 21
17269.997214999989
 31
0.0
  0
LINE
  5
4807
  8
2-0
  6
CONTINUOUS
 62
     6
 10
26081.010107999959
 20
14646.919682999949
 30
0.0
 11
25705.115365999962
 21
14827.86351799998
 31
0.0
  0
LINE
  5
4808
  8
2-0
  6
CONTINUOUS
 62
     6
 10
24597.22830399996
 20
15265.672930000001
 30
0.0
 11
25615.20365199996
 21
15265.672930000001
 31
0.0
  0
LINE
  5
4809
  8
2-0
  6
CONTINUOUS
 62
     6
 10
25185.11364999997
 20
14827.86351799998
 30
0.0
 11
25705.115365999962
 21
14827.86351799998
 31
0.0
  0
LINE
  5
480A
  8
2-0
  6
CONTINUOUS
 62
     6
 10
26071.62916999996
 20
15490.385899999999
 30
0.0
 11
25615.20365199996
 21
15265.672930000001
 31
0.0
  0
LINE
  5
480B
  8
2-0
  6
CONTINUOUS
 62
     4
 10
22995.176123999961
 20
19752.316973000001
 30
0.0
 11
22995.176123999961
 21
20482.313937999981
 31
0.0
  0
LINE
  5
480C
  8
2-0
  6
CONTINUOUS
 62
     3
 10
26276.176783999959
 20
19563.314518999981
 30
0.0
 11
26276.176783999959
 21
19557.318556999991
 31
0.0
  0
LINE
  5
480D
  8
2-0
  6
CONTINUOUS
 62
     3
 10
26276.176783999959
 20
19557.318556999991
 30
0.0
 11
26306.174407999959
 21
19557.318556999991
 31
0.0
  0
LINE
  5
480E
  8
2-0
  6
CONTINUOUS
 62
     3
 10
26306.174407999959
 20
19587.318160999981
 30
0.0
 11
26225.17250799996
 21
19587.318160999981
 31
0.0
  0
LINE
  5
480F
  8
2-0
  6
CONTINUOUS
 62
     3
 10
26276.176783999959
 20
19547.021100999991
 30
0.0
 11
26306.174407999959
 21
19547.021100999991
 31
0.0
  0
LINE
  5
4810
  8
2-0
  6
CONTINUOUS
 62
     3
 10
26276.176783999959
 20
19565.022842999992
 30
0.0
 11
26276.176783999959
 21
19547.021100999991
 31
0.0
  0
LINE
  5
4811
  8
2-0
  6
CONTINUOUS
 62
     3
 10
26301.174143999971
 20
19565.022842999992
 30
0.0
 11
26276.176783999959
 21
19565.022842999992
 31
0.0
  0
LINE
  5
4812
  8
2-0
  6
CONTINUOUS
 62
     3
 10
26301.174143999971
 20
19560.014661000001
 30
0.0
 11
26301.174143999971
 21
19565.022842999992
 31
0.0
  0
LINE
  5
4813
  8
2-0
  6
CONTINUOUS
 62
     3
 10
26294.172586999961
 20
19560.014661000001
 30
0.0
 11
26301.174143999971
 21
19560.014661000001
 31
0.0
  0
LINE
  5
4814
  8
2-0
  6
CONTINUOUS
 62
     3
 10
26193.876318999959
 20
19660.314888000001
 30
0.0
 11
26193.876318999959
 21
19667.320403999991
 31
0.0
  0
LINE
  5
4815
  8
2-0
  6
CONTINUOUS
 62
     3
 10
26193.876318999959
 20
19667.320403999991
 30
0.0
 11
26198.876582999961
 21
19667.320403999991
 31
0.0
  0
LINE
  5
4816
  8
2-0
  6
CONTINUOUS
 62
     3
 10
26198.876582999961
 20
19667.320403999991
 30
0.0
 11
26198.876582999961
 21
19642.311166999989
 31
0.0
  0
LINE
  5
4817
  8
2-0
  6
CONTINUOUS
 62
     3
 10
26198.876582999961
 20
19642.311166999989
 30
0.0
 11
26180.87484099995
 21
19642.311166999989
 31
0.0
  0
LINE
  5
4818
  8
2-0
  6
CONTINUOUS
 62
     3
 10
26180.87484099995
 20
19642.311166999989
 30
0.0
 11
26180.87484099995
 21
19672.314729999998
 31
0.0
  0
LINE
  5
4819
  8
2-0
  6
CONTINUOUS
 62
     3
 10
26191.172296999961
 20
19672.314729999998
 30
0.0
 11
26306.174407999959
 21
19672.314729999998
 31
0.0
  0
LINE
  5
481A
  8
2-0
  6
CONTINUOUS
 62
     3
 10
26191.172296999961
 20
19642.311166999989
 30
0.0
 11
26191.172296999961
 21
19672.314729999998
 31
0.0
  0
LINE
  5
481B
  8
2-0
  6
CONTINUOUS
 62
     3
 10
26197.174196999971
 20
19642.311166999989
 30
0.0
 11
26191.172296999961
 21
19642.311166999989
 31
0.0
  0
LINE
  5
481C
  8
2-0
  6
CONTINUOUS
 62
     3
 10
26294.172586999961
 20
19206.717838499961
 30
0.0
 11
26301.174143999971
 21
19206.717838499961
 31
0.0
  0
LINE
  5
481D
  8
2-0
  6
CONTINUOUS
 62
     3
 10
26301.174143999971
 20
19206.717838499961
 30
0.0
 11
26301.174143999971
 21
19211.718102499981
 31
0.0
  0
LINE
  5
481E
  8
2-0
  6
CONTINUOUS
 62
     3
 10
26301.174143999971
 20
19211.718102499981
 30
0.0
 11
26276.176783999959
 21
19211.718102499981
 31
0.0
  0
LINE
  5
481F
  8
2-0
  6
CONTINUOUS
 62
     3
 10
26276.176783999959
 20
19211.718102499981
 30
0.0
 11
26276.176783999959
 21
19193.722298499961
 31
0.0
  0
LINE
  5
4820
  8
2-0
  6
CONTINUOUS
 62
     3
 10
26276.176783999959
 20
19193.722298499961
 30
0.0
 11
26306.174407999959
 21
19193.722298499961
 31
0.0
  0
LINE
  5
4821
  8
2-0
  6
CONTINUOUS
 62
     3
 10
26276.176783999959
 20
19209.813805499962
 30
0.0
 11
26276.176783999959
 21
19203.81586449996
 31
0.0
  0
LINE
  5
4822
  8
2-0
  6
CONTINUOUS
 62
     3
 10
26276.176783999959
 20
19203.81586449996
 30
0.0
 11
26306.174407999959
 21
19203.81586449996
 31
0.0
  0
LINE
  5
4823
  8
2-0
  6
CONTINUOUS
 62
     3
 10
26306.174407999959
 20
19203.81586449996
 30
0.0
 11
26306.174407999959
 21
19240.81702549995
 31
0.0
  0
LINE
  5
4824
  8
2-0
  6
CONTINUOUS
 62
     3
 10
26276.176783999959
 20
19240.81702549995
 30
0.0
 11
26306.174407999959
 21
19240.81702549995
 31
0.0
  0
LINE
  5
4825
  8
2-0
  6
CONTINUOUS
 62
     3
 10
26276.176783999959
 20
19234.813145499971
 30
0.0
 11
26276.176783999959
 21
19240.81702549995
 31
0.0
  0
LINE
  5
4826
  8
2-0
  6
CONTINUOUS
 62
     3
 10
26276.176783999959
 20
19250.912570499971
 30
0.0
 11
26306.174407999959
 21
19250.912570499971
 31
0.0
  0
LINE
  5
4827
  8
2-0
  6
CONTINUOUS
 62
     3
 10
26276.176783999959
 20
19232.91082849996
 30
0.0
 11
26276.176783999959
 21
19250.912570499971
 31
0.0
  0
LINE
  5
4828
  8
2-0
  6
CONTINUOUS
 62
     3
 10
26301.174143999971
 20
19232.91082849996
 30
0.0
 11
26276.176783999959
 21
19232.91082849996
 31
0.0
  0
LINE
  5
4829
  8
2-0
  6
CONTINUOUS
 62
     3
 10
26301.174143999971
 20
19237.91109249998
 30
0.0
 11
26301.174143999971
 21
19232.91082849996
 31
0.0
  0
LINE
  5
482A
  8
2-0
  6
CONTINUOUS
 62
     3
 10
26294.172586999961
 20
19237.91109249998
 30
0.0
 11
26301.174143999971
 21
19237.91109249998
 31
0.0
  0
LINE
  5
482B
  8
2-0
  6
CONTINUOUS
 62
     3
 10
26294.172586999961
 20
18505.716848999989
 30
0.0
 11
26301.174143999971
 21
18505.716848999989
 31
0.0
  0
LINE
  5
482C
  8
2-0
  6
CONTINUOUS
 62
     3
 10
26301.174143999971
 20
18505.716848999989
 30
0.0
 11
26301.174143999971
 21
18510.723050999961
 31
0.0
  0
LINE
  5
482D
  8
2-0
  6
CONTINUOUS
 62
     3
 10
26301.174143999971
 20
18510.723050999961
 30
0.0
 11
26276.176783999959
 21
18510.723050999961
 31
0.0
  0
LINE
  5
482E
  8
2-0
  6
CONTINUOUS
 62
     3
 10
26276.176783999959
 20
18510.723050999961
 30
0.0
 11
26276.176783999959
 21
18492.72130899999
 31
0.0
  0
LINE
  5
482F
  8
2-0
  6
CONTINUOUS
 62
     3
 10
26276.176783999959
 20
18492.72130899999
 30
0.0
 11
26306.174407999959
 21
18492.72130899999
 31
0.0
  0
LINE
  5
4830
  8
2-0
  6
CONTINUOUS
 62
     3
 10
26276.176783999959
 20
18508.812815999951
 30
0.0
 11
26276.176783999959
 21
18502.81685399995
 31
0.0
  0
LINE
  5
4831
  8
2-0
  6
CONTINUOUS
 62
     3
 10
26276.176783999959
 20
18502.81685399995
 30
0.0
 11
26306.174407999959
 21
18502.81685399995
 31
0.0
  0
LINE
  5
4832
  8
2-0
  6
CONTINUOUS
 62
     3
 10
26306.174407999959
 20
18502.81685399995
 30
0.0
 11
26306.174407999959
 21
18539.816035999989
 31
0.0
  0
LINE
  5
4833
  8
2-0
  6
CONTINUOUS
 62
     3
 10
26276.176783999959
 20
18539.816035999989
 30
0.0
 11
26306.174407999959
 21
18539.816035999989
 31
0.0
  0
LINE
  5
4834
  8
2-0
  6
CONTINUOUS
 62
     3
 10
26276.176783999959
 20
18533.820073999981
 30
0.0
 11
26276.176783999959
 21
18539.816035999989
 31
0.0
  0
LINE
  5
4835
  8
2-0
  6
CONTINUOUS
 62
     3
 10
26276.176783999959
 20
18549.911580999978
 30
0.0
 11
26306.174407999959
 21
18549.911580999978
 31
0.0
  0
LINE
  5
4836
  8
2-0
  6
CONTINUOUS
 62
     3
 10
26276.176783999959
 20
18531.909838999989
 30
0.0
 11
26276.176783999959
 21
18549.911580999978
 31
0.0
  0
LINE
  5
4837
  8
2-0
  6
CONTINUOUS
 62
     3
 10
26301.174143999971
 20
18531.909838999989
 30
0.0
 11
26276.176783999959
 21
18531.909838999989
 31
0.0
  0
LINE
  5
4838
  8
2-0
  6
CONTINUOUS
 62
     3
 10
26301.174143999971
 20
18536.91604099996
 30
0.0
 11
26301.174143999971
 21
18531.909838999989
 31
0.0
  0
LINE
  5
4839
  8
2-0
  6
CONTINUOUS
 62
     3
 10
26294.172586999961
 20
18536.91604099996
 30
0.0
 11
26301.174143999971
 21
18536.91604099996
 31
0.0
  0
LINE
  5
483A
  8
2-0
  6
CONTINUOUS
 62
     3
 10
26294.172586999961
 20
17835.910102999991
 30
0.0
 11
26301.174143999971
 21
17835.910102999991
 31
0.0
  0
LINE
  5
483B
  8
2-0
  6
CONTINUOUS
 62
     3
 10
26301.174143999971
 20
17835.910102999991
 30
0.0
 11
26301.174143999971
 21
17830.921715999972
 31
0.0
  0
LINE
  5
483C
  8
2-0
  6
CONTINUOUS
 62
     3
 10
26301.174143999971
 20
17830.921715999972
 30
0.0
 11
26276.176783999959
 21
17830.921715999972
 31
0.0
  0
LINE
  5
483D
  8
2-0
  6
CONTINUOUS
 62
     3
 10
26276.176783999959
 20
17830.921715999972
 30
0.0
 11
26276.176783999959
 21
17848.917518999991
 31
0.0
  0
LINE
  5
483E
  8
2-0
  6
CONTINUOUS
 62
     3
 10
26276.176783999959
 20
17848.917518999991
 30
0.0
 11
26306.174407999959
 21
17848.917518999991
 31
0.0
  0
LINE
  5
483F
  8
2-0
  6
CONTINUOUS
 62
     3
 10
26276.176783999959
 20
17832.820073999981
 30
0.0
 11
26276.176783999959
 21
17838.816035999971
 31
0.0
  0
LINE
  5
4840
  8
2-0
  6
CONTINUOUS
 62
     3
 10
26276.176783999959
 20
17838.816035999971
 30
0.0
 11
26306.174407999959
 21
17838.816035999971
 31
0.0
  0
LINE
  5
4841
  8
2-0
  6
CONTINUOUS
 62
     3
 10
26306.174407999959
 20
17838.816035999971
 30
0.0
 11
26306.174407999959
 21
17801.816853999961
 31
0.0
  0
LINE
  5
4842
  8
2-0
  6
CONTINUOUS
 62
     3
 10
26276.176783999959
 20
17801.816853999961
 30
0.0
 11
26306.174407999959
 21
17801.816853999961
 31
0.0
  0
LINE
  5
4843
  8
2-0
  6
CONTINUOUS
 62
     3
 10
26276.176783999959
 20
17807.818754999978
 30
0.0
 11
26276.176783999959
 21
17801.816853999961
 31
0.0
  0
LINE
  5
4844
  8
2-0
  6
CONTINUOUS
 62
     3
 10
26276.176783999959
 20
17791.727247999981
 30
0.0
 11
26306.174407999959
 21
17791.727247999981
 31
0.0
  0
LINE
  5
4845
  8
2-0
  6
CONTINUOUS
 62
     3
 10
26276.176783999959
 20
17809.723050999972
 30
0.0
 11
26276.176783999959
 21
17791.727247999981
 31
0.0
  0
LINE
  5
4846
  8
2-0
  6
CONTINUOUS
 62
     3
 10
26301.174143999971
 20
17809.723050999972
 30
0.0
 11
26276.176783999959
 21
17809.723050999972
 31
0.0
  0
LINE
  5
4847
  8
2-0
  6
CONTINUOUS
 62
     3
 10
26301.174143999971
 20
17804.722787999981
 30
0.0
 11
26301.174143999971
 21
17809.723050999972
 31
0.0
  0
LINE
  5
4848
  8
2-0
  6
CONTINUOUS
 62
     3
 10
26294.172586999961
 20
17804.722787999981
 30
0.0
 11
26301.174143999971
 21
17804.722787999981
 31
0.0
  0
LINE
  5
4849
  8
2-0
  6
CONTINUOUS
 62
     3
 10
26303.288269999961
 20
17084.813673999972
 30
0.0
 11
26303.288269999961
 21
17104.814728999969
 31
0.0
  0
LINE
  5
484A
  8
2-0
  6
CONTINUOUS
 62
     3
 10
26303.288269999961
 20
17104.814728999969
 30
0.0
 11
26218.291700999958
 21
17104.814728999969
 31
0.0
  0
LINE
  5
484B
  8
2-0
  6
CONTINUOUS
 62
     3
 10
26294.172586999961
 20
17131.421438999991
 30
0.0
 11
26301.174143999971
 21
17131.421438999991
 31
0.0
  0
LINE
  5
484C
  8
2-0
  6
CONTINUOUS
 62
     3
 10
26301.174143999971
 20
17131.421438999991
 30
0.0
 11
26301.174143999971
 21
17126.427112999991
 31
0.0
  0
LINE
  5
484D
  8
2-0
  6
CONTINUOUS
 62
     3
 10
26301.174143999971
 20
17126.427112999991
 30
0.0
 11
26276.176783999959
 21
17126.427112999991
 31
0.0
  0
LINE
  5
484E
  8
2-0
  6
CONTINUOUS
 62
     3
 10
26276.176783999959
 20
17126.427112999991
 30
0.0
 11
26276.176783999959
 21
17144.422916999989
 31
0.0
  0
LINE
  5
484F
  8
2-0
  6
CONTINUOUS
 62
     3
 10
26276.176783999959
 20
17144.422916999989
 30
0.0
 11
26306.174407999959
 21
17144.422916999989
 31
0.0
  0
LINE
  5
4850
  8
2-0
  6
CONTINUOUS
 62
     3
 10
26276.176783999959
 20
17134.81433299998
 30
0.0
 11
26276.176783999959
 21
17128.812432999981
 31
0.0
  0
LINE
  5
4851
  8
2-0
  6
CONTINUOUS
 62
     3
 10
26306.174407999959
 20
17134.81433299998
 30
0.0
 11
26276.176783999959
 21
17134.81433299998
 31
0.0
  0
LINE
  5
4852
  8
2-0
  6
CONTINUOUS
 62
     3
 10
26306.174407999959
 20
17144.422916999989
 30
0.0
 11
26306.174407999959
 21
17791.727247999981
 31
0.0
  0
LINE
  5
4853
  8
2-0
  6
CONTINUOUS
 62
     3
 10
26306.174407999959
 20
17848.917518999991
 30
0.0
 11
26306.174407999959
 21
18492.72130899999
 31
0.0
  0
LINE
  5
4854
  8
2-0
  6
CONTINUOUS
 62
     3
 10
26306.174407999959
 20
16989.812617999989
 30
0.0
 11
26276.176783999959
 21
16989.812617999989
 31
0.0
  0
LINE
  5
4855
  8
2-0
  6
CONTINUOUS
 62
     3
 10
26276.176783999959
 20
16989.812617999989
 30
0.0
 11
26276.176783999959
 21
16995.814517999981
 31
0.0
  0
LINE
  5
4856
  8
2-0
  6
CONTINUOUS
 62
     3
 10
26218.291700999958
 20
17019.818160999981
 30
0.0
 11
26303.288269999961
 21
17019.818160999981
 31
0.0
  0
LINE
  5
4857
  8
2-0
  6
CONTINUOUS
 62
     3
 10
26303.288269999961
 20
17019.818160999981
 30
0.0
 11
26303.288269999961
 21
17039.813277999991
 31
0.0
  0
LINE
  5
4858
  8
2-0
  6
CONTINUOUS
 62
     3
 10
26276.176783999959
 20
16980.204034999992
 30
0.0
 11
26306.174407999959
 21
16980.204034999992
 31
0.0
  0
LINE
  5
4859
  8
2-0
  6
CONTINUOUS
 62
     3
 10
26276.176783999959
 20
16998.199837999979
 30
0.0
 11
26276.176783999959
 21
16980.204034999992
 31
0.0
  0
LINE
  5
485A
  8
2-0
  6
CONTINUOUS
 62
     3
 10
26301.174143999971
 20
16998.199837999979
 30
0.0
 11
26276.176783999959
 21
16998.199837999979
 31
0.0
  0
LINE
  5
485B
  8
2-0
  6
CONTINUOUS
 62
     3
 10
26301.174143999971
 20
16993.199573999991
 30
0.0
 11
26301.174143999971
 21
16998.199837999979
 31
0.0
  0
LINE
  5
485C
  8
2-0
  6
CONTINUOUS
 62
     3
 10
26294.172586999961
 20
16993.199573999991
 30
0.0
 11
26301.174143999971
 21
16993.199573999991
 31
0.0
  0
LINE
  5
485D
  8
2-0
  6
CONTINUOUS
 62
     3
 10
26294.172586999961
 20
16288.717343499949
 30
0.0
 11
26301.174143999971
 21
16288.717343499949
 31
0.0
  0
LINE
  5
485E
  8
2-0
  6
CONTINUOUS
 62
     3
 10
26301.174143999971
 20
16288.717343499949
 30
0.0
 11
26301.174143999971
 21
16293.717607499961
 31
0.0
  0
LINE
  5
485F
  8
2-0
  6
CONTINUOUS
 62
     3
 10
26301.174143999971
 20
16293.717607499961
 30
0.0
 11
26276.176783999959
 21
16293.717607499961
 31
0.0
  0
LINE
  5
4860
  8
2-0
  6
CONTINUOUS
 62
     3
 10
26276.176783999959
 20
16293.717607499961
 30
0.0
 11
26276.176783999959
 21
16275.71586549998
 31
0.0
  0
LINE
  5
4861
  8
2-0
  6
CONTINUOUS
 62
     3
 10
26276.176783999959
 20
16275.71586549998
 30
0.0
 11
26306.174407999959
 21
16275.71586549998
 31
0.0
  0
LINE
  5
4862
  8
2-0
  6
CONTINUOUS
 62
     3
 10
26276.176783999959
 20
16291.81331049998
 30
0.0
 11
26276.176783999959
 21
16285.816359499981
 31
0.0
  0
LINE
  5
4863
  8
2-0
  6
CONTINUOUS
 62
     3
 10
26276.176783999959
 20
16285.816359499981
 30
0.0
 11
26306.174407999959
 21
16285.816359499981
 31
0.0
  0
LINE
  5
4864
  8
2-0
  6
CONTINUOUS
 62
     3
 10
26306.174407999959
 20
16285.816359499981
 30
0.0
 11
26306.174407999959
 21
16322.81653049998
 31
0.0
  0
LINE
  5
4865
  8
2-0
  6
CONTINUOUS
 62
     3
 10
26276.176783999959
 20
16322.81653049998
 30
0.0
 11
26306.174407999959
 21
16322.81653049998
 31
0.0
  0
LINE
  5
4866
  8
2-0
  6
CONTINUOUS
 62
     3
 10
26276.176783999959
 20
16316.81364049998
 30
0.0
 11
26276.176783999959
 21
16322.81653049998
 31
0.0
  0
LINE
  5
4867
  8
2-0
  6
CONTINUOUS
 62
     3
 10
26276.176783999959
 20
16332.91207549998
 30
0.0
 11
26306.174407999959
 21
16332.91207549998
 31
0.0
  0
LINE
  5
4868
  8
2-0
  6
CONTINUOUS
 62
     3
 10
26276.176783999959
 20
16314.904394499979
 30
0.0
 11
26276.176783999959
 21
16332.91207549998
 31
0.0
  0
LINE
  5
4869
  8
2-0
  6
CONTINUOUS
 62
     3
 10
26301.174143999971
 20
16314.904394499979
 30
0.0
 11
26276.176783999959
 21
16314.904394499979
 31
0.0
  0
LINE
  5
486A
  8
2-0
  6
CONTINUOUS
 62
     3
 10
26301.174143999971
 20
16319.91059749998
 30
0.0
 11
26301.174143999971
 21
16314.904394499979
 31
0.0
  0
LINE
  5
486B
  8
2-0
  6
CONTINUOUS
 62
     3
 10
26294.172586999961
 20
16319.91059749998
 30
0.0
 11
26301.174143999971
 21
16319.91059749998
 31
0.0
  0
LINE
  5
486C
  8
2-0
  6
CONTINUOUS
 62
     3
 10
26294.172586999961
 20
15619.15061399998
 30
0.0
 11
26301.174143999971
 21
15619.15061399998
 31
0.0
  0
LINE
  5
486D
  8
2-0
  6
CONTINUOUS
 62
     3
 10
26301.174143999971
 20
15619.15061399998
 30
0.0
 11
26301.174143999971
 21
15614.15628899998
 31
0.0
  0
LINE
  5
486E
  8
2-0
  6
CONTINUOUS
 62
     3
 10
26301.174143999971
 20
15614.15628899998
 30
0.0
 11
26276.176783999959
 21
15614.15628899998
 31
0.0
  0
LINE
  5
486F
  8
2-0
  6
CONTINUOUS
 62
     3
 10
26276.176783999959
 20
15614.15628899998
 30
0.0
 11
26276.176783999959
 21
15632.152092
 31
0.0
  0
LINE
  5
4870
  8
2-0
  6
CONTINUOUS
 62
     3
 10
26276.176783999959
 20
15632.152092
 30
0.0
 11
26306.174407999959
 21
15632.152092
 31
0.0
  0
LINE
  5
4871
  8
2-0
  6
CONTINUOUS
 62
     3
 10
26276.176783999959
 20
15616.05464699999
 30
0.0
 11
26276.176783999959
 21
15622.056547
 31
0.0
  0
LINE
  5
4872
  8
2-0
  6
CONTINUOUS
 62
     3
 10
26276.176783999959
 20
15622.056547
 30
0.0
 11
26306.174407999959
 21
15622.056547
 31
0.0
  0
LINE
  5
4873
  8
2-0
  6
CONTINUOUS
 62
     3
 10
26306.174407999959
 20
15585.05736599999
 30
0.0
 11
26306.174407999959
 21
15622.056547
 31
0.0
  0
LINE
  5
4874
  8
2-0
  6
CONTINUOUS
 62
     3
 10
26276.176783999959
 20
15585.05736599999
 30
0.0
 11
26306.174407999959
 21
15585.05736599999
 31
0.0
  0
LINE
  5
4875
  8
2-0
  6
CONTINUOUS
 62
     3
 10
26276.176783999959
 20
15591.05431699998
 30
0.0
 11
26276.176783999959
 21
15585.05736599999
 31
0.0
  0
LINE
  5
4876
  8
2-0
  6
CONTINUOUS
 62
     3
 10
26276.176783999959
 20
15574.95588199998
 30
0.0
 11
26306.174407999959
 21
15574.95588199998
 31
0.0
  0
LINE
  5
4877
  8
2-0
  6
CONTINUOUS
 62
     3
 10
26276.176783999959
 20
15592.963562999979
 30
0.0
 11
26276.176783999959
 21
15574.95588199998
 31
0.0
  0
LINE
  5
4878
  8
2-0
  6
CONTINUOUS
 62
     3
 10
26301.174143999971
 20
15592.963562999979
 30
0.0
 11
26276.176783999959
 21
15592.963562999979
 31
0.0
  0
LINE
  5
4879
  8
2-0
  6
CONTINUOUS
 62
     3
 10
26301.174143999971
 20
15587.963298999999
 30
0.0
 11
26301.174143999971
 21
15592.963562999979
 31
0.0
  0
LINE
  5
487A
  8
2-0
  6
CONTINUOUS
 62
     3
 10
26294.172586999961
 20
15587.963298999999
 30
0.0
 11
26301.174143999971
 21
15587.963298999999
 31
0.0
  0
LINE
  5
487B
  8
2-0
  6
CONTINUOUS
 62
     3
 10
26306.174407999959
 20
16980.204034999992
 30
0.0
 11
26306.174407999959
 21
16332.91207549998
 31
0.0
  0
LINE
  5
487C
  8
2-0
  6
CONTINUOUS
 62
     3
 10
26306.174407999959
 20
17134.81433299998
 30
0.0
 11
26306.174407999959
 21
16989.812617999989
 31
0.0
  0
LINE
  5
487D
  8
2-0
  6
CONTINUOUS
 62
     3
 10
26218.291700999958
 20
17104.814728999969
 30
0.0
 11
26218.291700999958
 21
17019.818160999981
 31
0.0
  0
LINE
  5
487E
  8
2-0
  6
CONTINUOUS
 62
     6
 10
24680.083033999948
 20
18873.26199449995
 30
0.0
 11
25705.115365999962
 21
18873.26199449995
 31
0.0
  0
LINE
  5
487F
  8
2-0
  6
CONTINUOUS
 62
     3
 10
26294.172586999961
 20
14886.72229199998
 30
0.0
 11
26301.174143999971
 21
14886.72229199998
 31
0.0
  0
LINE
  5
4880
  8
2-0
  6
CONTINUOUS
 62
     3
 10
26301.174143999971
 20
14886.72229199998
 30
0.0
 11
26301.174143999971
 21
14891.71661799998
 31
0.0
  0
LINE
  5
4881
  8
2-0
  6
CONTINUOUS
 62
     3
 10
26301.174143999971
 20
14891.71661799998
 30
0.0
 11
26276.176783999959
 21
14891.71661799998
 31
0.0
  0
LINE
  5
4882
  8
2-0
  6
CONTINUOUS
 62
     3
 10
26276.176783999959
 20
14891.71661799998
 30
0.0
 11
26276.176783999959
 21
14873.720813999969
 31
0.0
  0
LINE
  5
4883
  8
2-0
  6
CONTINUOUS
 62
     3
 10
26276.176783999959
 20
14873.720813999969
 30
0.0
 11
26306.174407999959
 21
14873.720813999969
 31
0.0
  0
LINE
  5
4884
  8
2-0
  6
CONTINUOUS
 62
     3
 10
26276.176783999959
 20
14889.81924899998
 30
0.0
 11
26276.176783999959
 21
14883.81635899998
 31
0.0
  0
LINE
  5
4885
  8
2-0
  6
CONTINUOUS
 62
     3
 10
26276.176783999959
 20
14883.81635899998
 30
0.0
 11
26306.174407999959
 21
14883.81635899998
 31
0.0
  0
LINE
  5
4886
  8
2-0
  6
CONTINUOUS
 62
     3
 10
26306.174407999959
 20
14883.81635899998
 30
0.0
 11
26306.174407999959
 21
14920.816530999949
 31
0.0
  0
LINE
  5
4887
  8
2-0
  6
CONTINUOUS
 62
     3
 10
26276.176783999959
 20
14920.816530999949
 30
0.0
 11
26306.174407999959
 21
14920.816530999949
 31
0.0
  0
LINE
  5
4888
  8
2-0
  6
CONTINUOUS
 62
     3
 10
26276.176783999959
 20
14914.819578999981
 30
0.0
 11
26276.176783999959
 21
14920.816530999949
 31
0.0
  0
LINE
  5
4889
  8
2-0
  6
CONTINUOUS
 62
     3
 10
26276.176783999959
 20
14930.91702399998
 30
0.0
 11
26306.174407999959
 21
14930.91702399998
 31
0.0
  0
LINE
  5
488A
  8
2-0
  6
CONTINUOUS
 62
     3
 10
26276.176783999959
 20
14912.910332999991
 30
0.0
 11
26276.176783999959
 21
14930.91702399998
 31
0.0
  0
LINE
  5
488B
  8
2-0
  6
CONTINUOUS
 62
     3
 10
26301.174143999971
 20
14912.910332999991
 30
0.0
 11
26276.176783999959
 21
14912.910332999991
 31
0.0
  0
LINE
  5
488C
  8
2-0
  6
CONTINUOUS
 62
     3
 10
26301.174143999971
 20
14917.91554599998
 30
0.0
 11
26301.174143999971
 21
14912.910332999991
 31
0.0
  0
LINE
  5
488D
  8
2-0
  6
CONTINUOUS
 62
     3
 10
26294.172586999961
 20
14917.91554599998
 30
0.0
 11
26301.174143999971
 21
14917.91554599998
 31
0.0
  0
LINE
  5
488E
  8
2-0
  6
CONTINUOUS
 62
     3
 10
26276.176783999959
 20
14561.31837199998
 30
0.0
 11
26276.176783999959
 21
14567.32324099998
 31
0.0
  0
LINE
  5
488F
  8
2-0
  6
CONTINUOUS
 62
     3
 10
26276.176783999959
 20
14567.32324099998
 30
0.0
 11
26306.174407999959
 21
14567.32324099998
 31
0.0
  0
LINE
  5
4890
  8
2-0
  6
CONTINUOUS
 62
     3
 10
26306.174407999959
 20
14567.32324099998
 30
0.0
 11
26306.174407999959
 21
14452.319149999979
 31
0.0
  0
LINE
  5
4891
  8
2-0
  6
CONTINUOUS
 62
     3
 10
26306.174407999959
 20
14452.319149999979
 30
0.0
 11
26221.17585999997
 21
14452.319149999979
 31
0.0
  0
LINE
  5
4892
  8
2-0
  6
CONTINUOUS
 62
     3
 10
26221.17585999997
 20
14452.319149999979
 30
0.0
 11
26221.17585999997
 21
14537.314728999971
 31
0.0
  0
LINE
  5
4893
  8
2-0
  6
CONTINUOUS
 62
     3
 10
26221.17585999997
 20
14537.314728999971
 30
0.0
 11
26253.17477799996
 21
14537.314728999971
 31
0.0
  0
LINE
  5
4894
  8
2-0
  6
CONTINUOUS
 62
     3
 10
26294.172586999961
 20
14564.352973999979
 30
0.0
 11
26301.174143999971
 21
14564.352973999979
 31
0.0
  0
LINE
  5
4895
  8
2-0
  6
CONTINUOUS
 62
     3
 10
26301.174143999971
 20
14564.352973999979
 30
0.0
 11
26301.174143999971
 21
14559.355678999949
 31
0.0
  0
LINE
  5
4896
  8
2-0
  6
CONTINUOUS
 62
     3
 10
26301.174143999971
 20
14559.355678999949
 30
0.0
 11
26276.176783999959
 21
14559.355678999949
 31
0.0
  0
LINE
  5
4897
  8
2-0
  6
CONTINUOUS
 62
     3
 10
26276.176783999959
 20
14559.355678999949
 30
0.0
 11
26276.176783999959
 21
14577.35445199998
 31
0.0
  0
LINE
  5
4898
  8
2-0
  6
CONTINUOUS
 62
     3
 10
26276.176783999959
 20
14577.35445199998
 30
0.0
 11
26306.174407999959
 21
14577.35445199998
 31
0.0
  0
LINE
  5
4899
  8
2-0
  6
CENTER2
 62
     6
 10
26263.676123999961
 20
14254.82159199996
 30
0.0
 11
26263.676123999961
 21
15060.190350000001
 31
0.0
  0
LINE
  5
489A
  8
2-0
  6
CONTINUOUS
 62
     3
 10
26306.174407999959
 20
18549.911580999978
 30
0.0
 11
26306.174407999959
 21
19193.722298499961
 31
0.0
  0
LINE
  5
489B
  8
2-0
  6
CONTINUOUS
 62
     6
 10
26998.67929099996
 20
20402.317632999999
 30
0.0
 11
28198.673352999951
 21
20402.317632999999
 31
0.0
  0
LINE
  5
489C
  8
2-0
  6
CONTINUOUS
 62
     3
 10
23067.677971999969
 20
19672.314729999998
 30
0.0
 11
23067.677971999969
 21
19642.311166999989
 31
0.0
  0
LINE
  5
489D
  8
2-0
  6
CONTINUOUS
 62
     3
 10
23067.677971999969
 20
19642.311166999989
 30
0.0
 11
23061.68002999996
 21
19642.311166999989
 31
0.0
  0
LINE
  5
489E
  8
2-0
  6
CONTINUOUS
 62
     3
 10
23077.29447299998
 20
19642.311166999989
 30
0.0
 11
23077.29447299998
 21
19672.314729999998
 31
0.0
  0
LINE
  5
489F
  8
2-0
  6
CONTINUOUS
 62
     3
 10
23059.292730999961
 20
19642.311166999989
 30
0.0
 11
23077.29447299998
 21
19642.311166999989
 31
0.0
  0
LINE
  5
48A0
  8
2-0
  6
CONTINUOUS
 62
     3
 10
23059.292730999961
 20
19667.320403999991
 30
0.0
 11
23059.292730999961
 21
19642.311166999989
 31
0.0
  0
LINE
  5
48A1
  8
2-0
  6
CONTINUOUS
 62
     3
 10
23064.292994999989
 20
19667.320403999991
 30
0.0
 11
23059.292730999961
 21
19667.320403999991
 31
0.0
  0
LINE
  5
48A2
  8
2-0
  6
CONTINUOUS
 62
     3
 10
23064.292994999989
 20
19660.314888000001
 30
0.0
 11
23064.292994999989
 21
19667.320403999991
 31
0.0
  0
LINE
  5
48A3
  8
2-0
  6
CONTINUOUS
 62
     3
 10
23037.676387999982
 20
19669.422653000001
 30
0.0
 11
23037.676387999982
 21
19584.424104999998
 31
0.0
  0
LINE
  5
48A4
  8
2-0
  6
CONTINUOUS
 62
     3
 10
23017.679290999971
 20
19669.422653000001
 30
0.0
 11
23037.676387999982
 21
19669.422653000001
 31
0.0
  0
LINE
  5
48A5
  8
2-0
  6
CONTINUOUS
 62
     3
 10
22926.06519199998
 20
19660.314888000001
 30
0.0
 11
22926.06519199998
 21
19667.320403999991
 31
0.0
  0
LINE
  5
48A6
  8
2-0
  6
CONTINUOUS
 62
     3
 10
22926.06519199998
 20
19667.320403999991
 30
0.0
 11
22931.065455999971
 21
19667.320403999991
 31
0.0
  0
LINE
  5
48A7
  8
2-0
  6
CONTINUOUS
 62
     3
 10
22931.065455999971
 20
19667.320403999991
 30
0.0
 11
22931.065455999971
 21
19642.311166999989
 31
0.0
  0
LINE
  5
48A8
  8
2-0
  6
CONTINUOUS
 62
     3
 10
22931.065455999971
 20
19642.311166999989
 30
0.0
 11
22913.063713999971
 21
19642.311166999989
 31
0.0
  0
LINE
  5
48A9
  8
2-0
  6
CONTINUOUS
 62
     3
 10
22913.063713999971
 20
19642.311166999989
 30
0.0
 11
22913.063713999971
 21
19672.314729999998
 31
0.0
  0
LINE
  5
48AA
  8
2-0
  6
CONTINUOUS
 62
     3
 10
22952.68377799997
 20
19669.422653000001
 30
0.0
 11
22972.678894999972
 21
19669.422653000001
 31
0.0
  0
LINE
  5
48AB
  8
2-0
  6
CONTINUOUS
 62
     3
 10
22952.68377799997
 20
19584.424104999998
 30
0.0
 11
22952.68377799997
 21
19669.422653000001
 31
0.0
  0
LINE
  5
48AC
  8
2-0
  6
CONTINUOUS
 62
     3
 10
22922.686153999981
 20
19642.311166999989
 30
0.0
 11
22928.68211499996
 21
19642.311166999989
 31
0.0
  0
LINE
  5
48AD
  8
2-0
  6
CONTINUOUS
 62
     3
 10
22922.686153999981
 20
19672.314729999998
 30
0.0
 11
22922.686153999981
 21
19642.311166999989
 31
0.0
  0
LINE
  5
48AE
  8
2-0
  6
CONTINUOUS
 62
     3
 10
23037.676387999982
 20
19584.424104999998
 30
0.0
 11
22952.68377799997
 21
19584.424104999998
 31
0.0
  0
LINE
  5
48AF
  8
2-0
  6
CONTINUOUS
 62
     3
 10
23067.677971999969
 20
19672.314729999998
 30
0.0
 11
22922.686153999981
 21
19672.314729999998
 31
0.0
  0
LINE
  5
48B0
  8
2-0
  6
CONTINUOUS
 62
     6
 10
26136.646457999959
 20
19115.41650249996
 30
0.0
 11
25705.115365999962
 21
18873.26199449995
 31
0.0
  0
LINE
  5
48B1
  8
2-0
  6
CONTINUOUS
 62
     6
 10
26458.215291999932
 20
19814.994470000001
 30
0.0
 11
26998.67929099996
 21
20402.317632999999
 31
0.0
  0
LINE
  5
48B2
  8
2-0
  6
CONTINUOUS
 62
     6
 10
23037.676387999982
 20
14537.314728999971
 30
0.0
 11
23314.266600999981
 21
14992.659428999979
 31
0.0
  0
LINE
  5
48B3
  8
2-0
  6
CONTINUOUS
 62
     6
 10
23314.266600999981
 20
14992.659428999979
 30
0.0
 11
24344.61591999996
 21
14992.659428999979
 31
0.0
  0
LINE
  5
48B4
  8
2-0
  6
CONTINUOUS
 62
     3
 10
26215.170000999959
 20
18478.815190999961
 30
0.0
 11
26262.17564899995
 21
18478.815190999961
 31
0.0
  0
LINE
  5
48B5
  8
2-0
  6
CONTINUOUS
 62
     3
 10
26262.17564899995
 20
18563.815718999991
 30
0.0
 11
26215.170000999959
 21
18563.815718999991
 31
0.0
  0
LINE
  5
48B6
  8
2-0
  6
CONTINUOUS
 62
     3
 10
26262.17564899995
 20
18478.815190999961
 30
0.0
 11
26262.17564899995
 21
18503.818489999991
 31
0.0
  0
LINE
  5
48B7
  8
2-0
  6
CONTINUOUS
 62
     3
 10
26262.17564899995
 20
18538.814398999992
 30
0.0
 11
26262.17564899995
 21
18563.815718999991
 31
0.0
  0
LINE
  5
48B8
  8
2-0
  6
CONTINUOUS
 62
     3
 10
26215.170000999959
 20
18563.815718999991
 30
0.0
 11
26215.170000999959
 21
18478.815190999961
 31
0.0
  0
LINE
  5
48B9
  8
2-0
  6
CONTINUOUS
 62
     3
 10
26306.174407999959
 20
16275.71586549998
 30
0.0
 11
26306.174407999959
 21
15632.152092
 31
0.0
  0
LINE
  5
48BA
  8
2-0
  6
CONTINUOUS
 62
     3
 10
26215.170000999959
 20
15560.81816099999
 30
0.0
 11
26262.17564899995
 21
15560.81816099999
 31
0.0
  0
LINE
  5
48BB
  8
2-0
  6
CONTINUOUS
 62
     3
 10
26262.17564899995
 20
15645.814728999971
 30
0.0
 11
26215.170000999959
 21
15645.814728999971
 31
0.0
  0
LINE
  5
48BC
  8
2-0
  6
CONTINUOUS
 62
     3
 10
26262.17564899995
 20
15560.81816099999
 30
0.0
 11
26262.17564899995
 21
15585.813541999991
 31
0.0
  0
LINE
  5
48BD
  8
2-0
  6
CONTINUOUS
 62
     3
 10
26262.17564899995
 20
15620.813409999981
 30
0.0
 11
26262.17564899995
 21
15645.814728999971
 31
0.0
  0
LINE
  5
48BE
  8
2-0
  6
CONTINUOUS
 62
     3
 10
26215.170000999959
 20
15645.814728999971
 30
0.0
 11
26215.170000999959
 21
15560.81816099999
 31
0.0
  0
LINE
  5
48BF
  8
2-0
  6
CONTINUOUS
 62
     6
 10
23097.954707999961
 20
14687.910563999971
 30
0.0
 11
23037.676387999982
 21
14537.314728999971
 31
0.0
  0
LINE
  5
48C0
  8
2-0
  6
CONTINUOUS
 62
     6
 10
23037.676387999982
 20
14537.314728999971
 30
0.0
 11
23143.535102999929
 21
14660.22303799998
 31
0.0
  0
LINE
  5
48C1
  8
2-0
  6
CONTINUOUS
 62
     6
 10
23097.954707999961
 20
14687.910563999971
 30
0.0
 11
23143.535102999929
 21
14660.22303799998
 31
0.0
  0
LINE
  5
48C2
  8
2-0
  6
CONTINUOUS
 62
     6
 10
23143.535102999929
 20
14660.22303799998
 30
0.0
 11
23037.676387999982
 21
14537.314728999971
 31
0.0
  0
LINE
  5
48C3
  8
2-0
  6
CONTINUOUS
 62
     6
 10
23037.676387999982
 20
14537.314728999971
 30
0.0
 11
23097.954707999961
 21
14687.910563999971
 31
0.0
  0
LINE
  5
48C4
  8
2-0
  6
CONTINUOUS
 62
     6
 10
23097.954707999961
 20
14687.910563999971
 30
0.0
 11
23037.676387999982
 21
14537.314728999971
 31
0.0
  0
LINE
  5
48C5
  8
2-0
  6
CONTINUOUS
 62
     6
 10
23143.535102999929
 20
14660.22303799998
 30
0.0
 11
23037.676387999982
 21
14537.314728999971
 31
0.0
  0
LINE
  5
48C6
  8
2-0
  6
CONTINUOUS
 62
     6
 10
23143.535102999929
 20
14660.22303799998
 30
0.0
 11
23097.954707999961
 21
14687.910563999971
 31
0.0
  0
LINE
  5
48C7
  8
2-0
  6
CONTINUOUS
 62
     6
 10
26123.589552999962
 20
19138.67584649998
 30
0.0
 11
26276.176783999959
 21
19193.722298499961
 31
0.0
  0
LINE
  5
48C8
  8
2-0
  6
CONTINUOUS
 62
     6
 10
26276.176783999959
 20
19193.722298499961
 30
0.0
 11
26149.695443999961
 21
19092.163098499968
 31
0.0
  0
LINE
  5
48C9
  8
2-0
  6
CONTINUOUS
 62
     6
 10
26123.589552999962
 20
19138.67584649998
 30
0.0
 11
26149.695443999961
 21
19092.163098499968
 31
0.0
  0
LINE
  5
48CA
  8
2-0
  6
CONTINUOUS
 62
     6
 10
26149.695443999961
 20
19092.163098499968
 30
0.0
 11
26276.176783999959
 21
19193.722298499961
 31
0.0
  0
LINE
  5
48CB
  8
2-0
  6
CONTINUOUS
 62
     6
 10
26276.176783999959
 20
19193.722298499961
 30
0.0
 11
26123.589552999962
 21
19138.67584649998
 31
0.0
  0
LINE
  5
48CC
  8
2-0
  6
CONTINUOUS
 62
     6
 10
26123.589552999962
 20
19138.67584649998
 30
0.0
 11
26276.176783999959
 21
19193.722298499961
 31
0.0
  0
LINE
  5
48CD
  8
2-0
  6
CONTINUOUS
 62
     6
 10
26149.695443999961
 20
19092.163098499968
 30
0.0
 11
26276.176783999959
 21
19193.722298499961
 31
0.0
  0
LINE
  5
48CE
  8
2-0
  6
CONTINUOUS
 62
     6
 10
26149.695443999961
 20
19092.163098499968
 30
0.0
 11
26123.589552999962
 21
19138.67584649998
 31
0.0
  0
LINE
  5
48CF
  8
2-0
  6
CONTINUOUS
 62
     6
 10
26477.832320999962
 20
19796.933343000001
 30
0.0
 11
26349.870300999959
 21
19697.250725000002
 31
0.0
  0
LINE
  5
48D0
  8
2-0
  6
CONTINUOUS
 62
     6
 10
26349.870300999959
 20
19697.250725000002
 30
0.0
 11
26438.584405999962
 21
19833.047679999989
 31
0.0
  0
LINE
  5
48D1
  8
2-0
  6
CONTINUOUS
 62
     6
 10
26477.832320999962
 20
19796.933343000001
 30
0.0
 11
26438.584405999962
 21
19833.047679999989
 31
0.0
  0
LINE
  5
48D2
  8
2-0
  6
CONTINUOUS
 62
     6
 10
26438.584405999962
 20
19833.047679999989
 30
0.0
 11
26349.870300999959
 21
19697.250725000002
 31
0.0
  0
LINE
  5
48D3
  8
2-0
  6
CONTINUOUS
 62
     6
 10
26349.870300999959
 20
19697.250725000002
 30
0.0
 11
26477.832320999962
 21
19796.933343000001
 31
0.0
  0
LINE
  5
48D4
  8
2-0
  6
CONTINUOUS
 62
     6
 10
26477.832320999962
 20
19796.933343000001
 30
0.0
 11
26349.870300999959
 21
19697.250725000002
 31
0.0
  0
LINE
  5
48D5
  8
2-0
  6
CONTINUOUS
 62
     6
 10
26438.584405999962
 20
19833.047679999989
 30
0.0
 11
26349.870300999959
 21
19697.250725000002
 31
0.0
  0
LINE
  5
48D6
  8
2-0
  6
CONTINUOUS
 62
     6
 10
26438.584405999962
 20
19833.047679999989
 30
0.0
 11
26477.832320999962
 21
19796.933343000001
 31
0.0
  0
LINE
  5
48D7
  8
2-0
  6
CONTINUOUS
 62
     6
 10
19119.106523999992
 20
19424.542347999992
 30
0.0
 11
19251.039456999999
 21
18955.196512999992
 31
0.0
  0
LINE
  5
48D8
  8
2-0
  6
CONTINUOUS
 62
     6
 10
19251.039456999999
 20
18955.196512999992
 30
0.0
 11
20276.077727999978
 21
18955.196512999992
 31
0.0
  0
LINE
  5
48D9
  8
2-0
  6
CONTINUOUS
 62
     6
 10
19075.812473000002
 20
19578.570668
 30
0.0
 11
19093.434146999982
 21
19417.325023000001
 31
0.0
  0
LINE
  5
48DA
  8
2-0
  6
CONTINUOUS
 62
     6
 10
19144.778900000001
 20
19431.763631999991
 30
0.0
 11
19093.434146999982
 21
19417.325023000001
 31
0.0
  0
LINE
  5
48DB
  8
2-0
  6
CONTINUOUS
 62
     6
 10
19093.434146999982
 20
19417.325023000001
 30
0.0
 11
19075.812473000002
 21
19578.570668
 31
0.0
  0
LINE
  5
48DC
  8
2-0
  6
CONTINUOUS
 62
     6
 10
19075.812473000002
 20
19578.570668
 30
0.0
 11
19144.778900000001
 21
19431.763631999991
 31
0.0
  0
LINE
  5
48DD
  8
2-0
  6
CONTINUOUS
 62
     6
 10
19144.778900000001
 20
19431.763631999991
 30
0.0
 11
19075.812473000002
 21
19578.570668
 31
0.0
  0
LINE
  5
48DE
  8
2-0
  6
CONTINUOUS
 62
     6
 10
19093.434146999982
 20
19417.325023000001
 30
0.0
 11
19075.812473000002
 21
19578.570668
 31
0.0
  0
LINE
  5
48DF
  8
2-0
  6
CONTINUOUS
 62
     6
 10
19093.434146999982
 20
19417.325023000001
 30
0.0
 11
19144.778900000001
 21
19431.763631999991
 31
0.0
  0
LINE
  5
48E0
  8
2-0
  6
CONTINUOUS
 62
     6
 10
23036.599529999981
 20
19553.563409999992
 30
0.0
 11
23185.469224999972
 21
19023.941234000002
 31
0.0
  0
LINE
  5
48E1
  8
2-0
  6
CONTINUOUS
 62
     6
 10
23185.469224999972
 20
19023.941234000002
 30
0.0
 11
24210.51343399996
 21
19023.941234000002
 31
0.0
  0
LINE
  5
48E2
  8
2-0
  6
CONTINUOUS
 62
     6
 10
23054.223183999951
 20
19392.317764999989
 30
0.0
 11
23105.57387499998
 21
19406.752414999992
 31
0.0
  0
LINE
  5
48E3
  8
2-0
  6
CONTINUOUS
 62
     6
 10
23105.57387499998
 20
19406.752414999992
 30
0.0
 11
23054.223183999951
 21
19392.317764999989
 31
0.0
  0
LINE
  5
48E4
  8
2-0
  6
CONTINUOUS
 62
     6
 10
23054.223183999951
 20
19392.317764999989
 30
0.0
 11
23036.599529999981
 21
19553.563409999992
 31
0.0
  0
LINE
  5
48E5
  8
2-0
  6
CONTINUOUS
 62
     6
 10
23036.599529999981
 20
19553.563409999992
 30
0.0
 11
23105.57387499998
 21
19406.752414999992
 31
0.0
  0
LINE
  5
48E6
  8
2-0
  6
CONTINUOUS
 62
     6
 10
23105.57387499998
 20
19406.752414999992
 30
0.0
 11
23036.599529999981
 21
19553.563409999992
 31
0.0
  0
LINE
  5
48E7
  8
2-0
  6
CONTINUOUS
 62
     6
 10
23054.223183999951
 20
19392.317764999989
 30
0.0
 11
23036.599529999981
 21
19553.563409999992
 31
0.0
  0
LINE
  5
48E8
  8
2-0
  6
CONTINUOUS
 62
     6
 10
23105.57387499998
 20
19406.752414999992
 30
0.0
 11
23036.599529999981
 21
19553.563409999992
 31
0.0
  0
LINE
  5
48E9
  8
2-0
  6
CONTINUOUS
 62
     6
 10
23036.599529999981
 20
19553.563409999992
 30
0.0
 11
23054.223183999951
 21
19392.317764999989
 31
0.0
  0
LINE
  5
48EA
  8
2-0
  6
CONTINUOUS
 62
     4
 10
22995.176123999961
 20
19752.316973000001
 30
0.0
 11
22995.176123999961
 21
20482.313937999981
 31
0.0
  0
LINE
  5
48EB
  8
2-0
  6
CONTINUOUS
 62
     6
 10
26059.851033999959
 20
15514.31135099998
 30
0.0
 11
26215.170000999959
 21
15561.058671999979
 31
0.0
  0
LINE
  5
48EC
  8
2-0
  6
CONTINUOUS
 62
     6
 10
26215.170000999959
 20
15561.058671999979
 30
0.0
 11
26083.409284999962
 21
15466.46638699998
 31
0.0
  0
LINE
  5
48ED
  8
2-0
  6
CONTINUOUS
 62
     6
 10
26059.851033999959
 20
15514.31135099998
 30
0.0
 11
26083.409284999962
 21
15466.46638699998
 31
0.0
  0
LINE
  5
48EE
  8
2-0
  6
CONTINUOUS
 62
     6
 10
26083.409284999962
 20
15466.46638699998
 30
0.0
 11
26215.170000999959
 21
15561.058671999979
 31
0.0
  0
LINE
  5
48EF
  8
2-0
  6
CONTINUOUS
 62
     6
 10
26215.170000999959
 20
15561.058671999979
 30
0.0
 11
26059.851033999959
 21
15514.31135099998
 31
0.0
  0
LINE
  5
48F0
  8
2-0
  6
CONTINUOUS
 62
     6
 10
26059.851033999959
 20
15514.31135099998
 30
0.0
 11
26215.170000999959
 21
15561.058671999979
 31
0.0
  0
LINE
  5
48F1
  8
2-0
  6
CONTINUOUS
 62
     6
 10
26083.409284999962
 20
15466.46638699998
 30
0.0
 11
26215.170000999959
 21
15561.058671999979
 31
0.0
  0
LINE
  5
48F2
  8
2-0
  6
CONTINUOUS
 62
     6
 10
26083.409284999962
 20
15466.46638699998
 30
0.0
 11
26059.851033999959
 21
15514.31135099998
 31
0.0
  0
LINE
  5
48F3
  8
2-0
  6
CONTINUOUS
 62
     6
 10
26029.536686999971
 20
14344.046411999971
 30
0.0
 11
26161.28354599997
 21
14438.673338999981
 31
0.0
  0
LINE
  5
48F4
  8
2-0
  6
CONTINUOUS
 62
     6
 10
26161.28354599997
 20
14438.673338999981
 30
0.0
 11
26067.35340999996
 21
14306.434568999961
 31
0.0
  0
LINE
  5
48F5
  8
2-0
  6
CONTINUOUS
 62
     6
 10
26029.536686999971
 20
14344.046411999971
 30
0.0
 11
26067.35340999996
 21
14306.434568999961
 31
0.0
  0
LINE
  5
48F6
  8
2-0
  6
CONTINUOUS
 62
     6
 10
26067.35340999996
 20
14306.434568999961
 30
0.0
 11
26161.28354599997
 21
14438.673338999981
 31
0.0
  0
LINE
  5
48F7
  8
2-0
  6
CONTINUOUS
 62
     6
 10
26161.28354599997
 20
14438.673338999981
 30
0.0
 11
26029.536686999971
 21
14344.046411999971
 31
0.0
  0
LINE
  5
48F8
  8
2-0
  6
CONTINUOUS
 62
     6
 10
26029.536686999971
 20
14344.046411999971
 30
0.0
 11
26161.28354599997
 21
14438.673338999981
 31
0.0
  0
LINE
  5
48F9
  8
2-0
  6
CONTINUOUS
 62
     6
 10
26067.35340999996
 20
14306.434568999961
 30
0.0
 11
26161.28354599997
 21
14438.673338999981
 31
0.0
  0
LINE
  5
48FA
  8
2-0
  6
CONTINUOUS
 62
     6
 10
26067.35340999996
 20
14306.434568999961
 30
0.0
 11
26029.536686999971
 21
14344.046411999971
 31
0.0
  0
LINE
  5
48FB
  8
2-0
  6
CONTINUOUS
 62
     6
 10
26092.572475999961
 20
14670.95103899995
 30
0.0
 11
26225.17250799996
 21
14577.522710999971
 31
0.0
  0
LINE
  5
48FC
  8
2-0
  6
CONTINUOUS
 62
     6
 10
26225.17250799996
 20
14577.522710999971
 30
0.0
 11
26069.43982199996
 21
14622.898224999981
 31
0.0
  0
LINE
  5
48FD
  8
2-0
  6
CONTINUOUS
 62
     6
 10
26092.572475999961
 20
14670.95103899995
 30
0.0
 11
26069.43982199996
 21
14622.898224999981
 31
0.0
  0
LINE
  5
48FE
  8
2-0
  6
CONTINUOUS
 62
     6
 10
26069.43982199996
 20
14622.898224999981
 30
0.0
 11
26225.17250799996
 21
14577.522710999971
 31
0.0
  0
LINE
  5
48FF
  8
2-0
  6
CONTINUOUS
 62
     6
 10
26225.17250799996
 20
14577.522710999971
 30
0.0
 11
26092.572475999961
 21
14670.95103899995
 31
0.0
  0
LINE
  5
4900
  8
2-0
  6
CONTINUOUS
 62
     6
 10
26092.572475999961
 20
14670.95103899995
 30
0.0
 11
26225.17250799996
 21
14577.522710999971
 31
0.0
  0
LINE
  5
4901
  8
2-0
  6
CONTINUOUS
 62
     6
 10
26069.43982199996
 20
14622.898224999981
 30
0.0
 11
26225.17250799996
 21
14577.522710999971
 31
0.0
  0
LINE
  5
4902
  8
2-0
  6
CONTINUOUS
 62
     6
 10
26069.43982199996
 20
14622.898224999981
 30
0.0
 11
26092.572475999961
 21
14670.95103899995
 31
0.0
  0
LINE
  5
4903
  8
2-0
  6
CONTINUOUS
 62
     6
 10
26152.336121999961
 20
16700.271971999999
 30
0.0
 11
26306.174407999959
 21
16751.705803000001
 31
0.0
  0
LINE
  5
4904
  8
2-0
  6
CONTINUOUS
 62
     6
 10
26306.174407999959
 20
16751.705803000001
 30
0.0
 11
26177.339420999961
 21
16653.165368000002
 31
0.0
  0
LINE
  5
4905
  8
2-0
  6
CONTINUOUS
 62
     6
 10
26152.336121999961
 20
16700.271971999999
 30
0.0
 11
26177.339420999961
 21
16653.165368000002
 31
0.0
  0
LINE
  5
4906
  8
2-0
  6
CONTINUOUS
 62
     6
 10
26177.339420999961
 20
16653.165368000002
 30
0.0
 11
26306.174407999959
 21
16751.705803000001
 31
0.0
  0
LINE
  5
4907
  8
2-0
  6
CONTINUOUS
 62
     6
 10
26306.174407999959
 20
16751.705803000001
 30
0.0
 11
26152.336121999961
 21
16700.271971999999
 31
0.0
  0
LINE
  5
4908
  8
2-0
  6
CONTINUOUS
 62
     6
 10
26152.336121999961
 20
16700.271971999999
 30
0.0
 11
26306.174407999959
 21
16751.705803000001
 31
0.0
  0
LINE
  5
4909
  8
2-0
  6
CONTINUOUS
 62
     6
 10
26177.339420999961
 20
16653.165368000002
 30
0.0
 11
26306.174407999959
 21
16751.705803000001
 31
0.0
  0
LINE
  5
490A
  8
2-0
  6
CONTINUOUS
 62
     6
 10
26177.339420999961
 20
16653.165368000002
 30
0.0
 11
26152.336121999961
 21
16700.271971999999
 31
0.0
  0
LINE
  5
490B
  8
2-0
  6
CONTINUOUS
 62
     6
 10
26018.399914999962
 20
17191.59046399999
 30
0.0
 11
26161.28354599997
 21
17114.81483499999
 31
0.0
  0
LINE
  5
490C
  8
2-0
  6
CONTINUOUS
 62
     6
 10
26161.28354599997
 20
17114.81483499999
 30
0.0
 11
26001.22165299996
 21
17141.096904000002
 31
0.0
  0
LINE
  5
490D
  8
2-0
  6
CONTINUOUS
 62
     6
 10
26018.399914999962
 20
17191.59046399999
 30
0.0
 11
26001.22165299996
 21
17141.096904000002
 31
0.0
  0
LINE
  5
490E
  8
2-0
  6
CONTINUOUS
 62
     6
 10
26001.22165299996
 20
17141.096904000002
 30
0.0
 11
26161.28354599997
 21
17114.81483499999
 31
0.0
  0
LINE
  5
490F
  8
2-0
  6
CONTINUOUS
 62
     6
 10
26161.28354599997
 20
17114.81483499999
 30
0.0
 11
26018.399914999962
 21
17191.59046399999
 31
0.0
  0
LINE
  5
4910
  8
2-0
  6
CONTINUOUS
 62
     6
 10
26018.399914999962
 20
17191.59046399999
 30
0.0
 11
26161.28354599997
 21
17114.81483499999
 31
0.0
  0
LINE
  5
4911
  8
2-0
  6
CONTINUOUS
 62
     6
 10
26001.22165299996
 20
17141.096904000002
 30
0.0
 11
26161.28354599997
 21
17114.81483499999
 31
0.0
  0
LINE
  5
4912
  8
2-0
  6
CONTINUOUS
 62
     6
 10
26001.22165299996
 20
17141.096904000002
 30
0.0
 11
26018.399914999962
 21
17191.59046399999
 31
0.0
  0
LINE
  5
4913
  8
2-0
  6
CONTINUOUS
 62
     6
 10
26059.851033999959
 20
18432.070838999982
 30
0.0
 11
26215.170000999959
 21
18478.815190999961
 31
0.0
  0
LINE
  5
4914
  8
2-0
  6
CONTINUOUS
 62
     6
 10
26215.170000999959
 20
18478.815190999961
 30
0.0
 11
26083.409284999962
 21
18384.219936999991
 31
0.0
  0
LINE
  5
4915
  8
2-0
  6
CONTINUOUS
 62
     6
 10
26059.851033999959
 20
18432.070838999982
 30
0.0
 11
26083.409284999962
 21
18384.219936999991
 31
0.0
  0
LINE
  5
4916
  8
2-0
  6
CONTINUOUS
 62
     6
 10
26083.409284999962
 20
18384.219936999991
 30
0.0
 11
26215.170000999959
 21
18478.815190999961
 31
0.0
  0
LINE
  5
4917
  8
2-0
  6
CONTINUOUS
 62
     6
 10
26215.170000999959
 20
18478.815190999961
 30
0.0
 11
26059.851033999959
 21
18432.070838999982
 31
0.0
  0
LINE
  5
4918
  8
2-0
  6
CONTINUOUS
 62
     6
 10
26059.851033999959
 20
18432.070838999982
 30
0.0
 11
26215.170000999959
 21
18478.815190999961
 31
0.0
  0
LINE
  5
4919
  8
2-0
  6
CONTINUOUS
 62
     6
 10
26083.409284999962
 20
18384.219936999991
 30
0.0
 11
26215.170000999959
 21
18478.815190999961
 31
0.0
  0
LINE
  5
491A
  8
2-0
  6
CONTINUOUS
 62
     6
 10
26083.409284999962
 20
18384.219936999991
 30
0.0
 11
26059.851033999959
 21
18432.070838999982
 31
0.0
  0
LINE
  5
491B
  8
2-0
  6
CONTINUOUS
 62
     3
 10
19755.67142599999
 20
19672.314729999998
 30
0.0
 11
19718.670263999989
 21
19672.314729999998
 31
0.0
  0
LINE
  5
491C
  8
2-0
  6
CONTINUOUS
 62
     3
 10
19755.67142599999
 20
19642.311166999989
 30
0.0
 11
19755.67142599999
 21
19672.314729999998
 31
0.0
  0
LINE
  5
491D
  8
2-0
  6
CONTINUOUS
 62
     3
 10
19749.671504999969
 20
19642.311166999989
 30
0.0
 11
19755.67142599999
 21
19642.311166999989
 31
0.0
  0
LINE
  5
491E
  8
2-0
  6
CONTINUOUS
 62
     3
 10
19765.768949999991
 20
19642.311166999989
 30
0.0
 11
19765.768949999991
 21
19672.314729999998
 31
0.0
  0
LINE
  5
491F
  8
2-0
  6
CONTINUOUS
 62
     3
 10
19747.76522899999
 20
19642.311166999989
 30
0.0
 11
19765.768949999991
 21
19642.311166999989
 31
0.0
  0
LINE
  5
4920
  8
2-0
  6
CONTINUOUS
 62
     3
 10
19747.76522899999
 20
19667.320403999991
 30
0.0
 11
19747.76522899999
 21
19642.311166999989
 31
0.0
  0
LINE
  5
4921
  8
2-0
  6
CONTINUOUS
 62
     3
 10
19752.765492999992
 20
19667.320403999991
 30
0.0
 11
19747.76522899999
 21
19667.320403999991
 31
0.0
  0
LINE
  5
4922
  8
2-0
  6
CONTINUOUS
 62
     3
 10
19752.765492999992
 20
19660.314888000001
 30
0.0
 11
19752.765492999992
 21
19667.320403999991
 31
0.0
  0
LINE
  5
4923
  8
2-0
  6
CONTINUOUS
 62
     3
 10
19721.576197999981
 20
19660.314888000001
 30
0.0
 11
19721.576197999981
 21
19667.320403999991
 31
0.0
  0
LINE
  5
4924
  8
2-0
  6
CONTINUOUS
 62
     3
 10
19721.576197999981
 20
19667.320403999991
 30
0.0
 11
19726.57646199999
 21
19667.320403999991
 31
0.0
  0
LINE
  5
4925
  8
2-0
  6
CONTINUOUS
 62
     3
 10
19726.57646199999
 20
19667.320403999991
 30
0.0
 11
19726.57646199999
 21
19642.311166999989
 31
0.0
  0
LINE
  5
4926
  8
2-0
  6
CONTINUOUS
 62
     3
 10
19726.57646199999
 20
19642.311166999989
 30
0.0
 11
19708.57669899999
 21
19642.311166999989
 31
0.0
  0
LINE
  5
4927
  8
2-0
  6
CONTINUOUS
 62
     3
 10
19708.57669899999
 20
19642.311166999989
 30
0.0
 11
19708.57669899999
 21
19672.314729999998
 31
0.0
  0
LINE
  5
4928
  8
2-0
  6
CONTINUOUS
 62
     3
 10
19724.670184999992
 20
19642.311166999989
 30
0.0
 11
19718.670263999989
 21
19642.311166999989
 31
0.0
  0
LINE
  5
4929
  8
2-0
  6
CONTINUOUS
 62
     3
 10
19718.670263999989
 20
19642.311166999989
 30
0.0
 11
19718.670263999989
 21
19672.314729999998
 31
0.0
  0
LINE
  5
492A
  8
2-0
  6
CONTINUOUS
 62
     3
 10
17214.172164999989
 20
19563.314518999981
 30
0.0
 11
17214.172164999989
 21
19557.318556999991
 31
0.0
  0
LINE
  5
492B
  8
2-0
  6
CONTINUOUS
 62
     3
 10
17214.172164999989
 20
19557.318556999991
 30
0.0
 11
17184.174539999989
 21
19557.318556999991
 31
0.0
  0
LINE
  5
492C
  8
2-0
  6
CONTINUOUS
 62
     3
 10
17184.174539999989
 20
19557.318556999991
 30
0.0
 11
17184.174539999989
 21
19672.314729999998
 31
0.0
  0
LINE
  5
492D
  8
2-0
  6
CONTINUOUS
 62
     3
 10
17184.174539999989
 20
19587.318160999981
 30
0.0
 11
17265.172480999991
 21
19587.318160999981
 31
0.0
  0
LINE
  5
492E
  8
2-0
  6
CONTINUOUS
 62
     3
 10
17214.172164999989
 20
19547.021100999991
 30
0.0
 11
17184.174539999989
 21
19547.021100999991
 31
0.0
  0
LINE
  5
492F
  8
2-0
  6
CONTINUOUS
 62
     3
 10
17214.172164999989
 20
19565.022842999992
 30
0.0
 11
17214.172164999989
 21
19547.021100999991
 31
0.0
  0
LINE
  5
4930
  8
2-0
  6
CONTINUOUS
 62
     3
 10
17189.178762999989
 20
19565.022842999992
 30
0.0
 11
17214.172164999989
 21
19565.022842999992
 31
0.0
  0
LINE
  5
4931
  8
2-0
  6
CONTINUOUS
 62
     3
 10
17189.178762999989
 20
19560.014661000001
 30
0.0
 11
17189.178762999989
 21
19565.022842999992
 31
0.0
  0
LINE
  5
4932
  8
2-0
  6
CONTINUOUS
 62
     3
 10
17196.176360999969
 20
19560.014661000001
 30
0.0
 11
17189.178762999989
 21
19560.014661000001
 31
0.0
  0
LINE
  5
4933
  8
2-0
  6
CONTINUOUS
 62
     3
 10
17296.470649999981
 20
19660.314888000001
 30
0.0
 11
17296.470649999981
 21
19667.320403999991
 31
0.0
  0
LINE
  5
4934
  8
2-0
  6
CONTINUOUS
 62
     3
 10
17296.470649999981
 20
19667.320403999991
 30
0.0
 11
17291.468405999989
 21
19667.320403999991
 31
0.0
  0
LINE
  5
4935
  8
2-0
  6
CONTINUOUS
 62
     3
 10
17291.468405999989
 20
19667.320403999991
 30
0.0
 11
17291.468405999989
 21
19642.311166999989
 31
0.0
  0
LINE
  5
4936
  8
2-0
  6
CONTINUOUS
 62
     3
 10
17291.468405999989
 20
19642.311166999989
 30
0.0
 11
17309.476086999981
 21
19642.311166999989
 31
0.0
  0
LINE
  5
4937
  8
2-0
  6
CONTINUOUS
 62
     3
 10
17309.476086999981
 20
19642.311166999989
 30
0.0
 11
17309.476086999981
 21
19672.314729999998
 31
0.0
  0
LINE
  5
4938
  8
2-0
  6
CONTINUOUS
 62
     3
 10
17299.176650999991
 20
19672.314729999998
 30
0.0
 11
17184.174539999989
 21
19672.314729999998
 31
0.0
  0
LINE
  5
4939
  8
2-0
  6
CONTINUOUS
 62
     3
 10
17299.176650999991
 20
19642.311166999989
 30
0.0
 11
17299.176650999991
 21
19672.314729999998
 31
0.0
  0
LINE
  5
493A
  8
2-0
  6
CONTINUOUS
 62
     3
 10
17293.172771999991
 20
19642.311166999989
 30
0.0
 11
17299.176650999991
 21
19642.311166999989
 31
0.0
  0
LINE
  5
493B
  8
2-0
  6
CONTINUOUS
 62
     3
 10
18350.76054349999
 20
19660.314888000001
 30
0.0
 11
18350.76054349999
 21
19667.320403999991
 31
0.0
  0
LINE
  5
493C
  8
2-0
  6
CONTINUOUS
 62
     3
 10
18350.76054349999
 20
19667.320403999991
 30
0.0
 11
18345.760279499991
 21
19667.320403999991
 31
0.0
  0
LINE
  5
493D
  8
2-0
  6
CONTINUOUS
 62
     3
 10
18345.760279499991
 20
19667.320403999991
 30
0.0
 11
18345.760279499991
 21
19642.311166999989
 31
0.0
  0
LINE
  5
493E
  8
2-0
  6
CONTINUOUS
 62
     3
 10
18345.760279499991
 20
19642.311166999989
 30
0.0
 11
18363.765980499989
 21
19642.311166999989
 31
0.0
  0
LINE
  5
493F
  8
2-0
  6
CONTINUOUS
 62
     3
 10
18363.765980499989
 20
19642.311166999989
 30
0.0
 11
18363.765980499989
 21
19672.314729999998
 31
0.0
  0
LINE
  5
4940
  8
2-0
  6
CONTINUOUS
 62
     3
 10
18347.668535499961
 20
19642.311166999989
 30
0.0
 11
18353.670435499978
 21
19642.311166999989
 31
0.0
  0
LINE
  5
4941
  8
2-0
  6
CONTINUOUS
 62
     3
 10
18353.670435499978
 20
19642.311166999989
 30
0.0
 11
18353.670435499978
 21
19672.314729999998
 31
0.0
  0
LINE
  5
4942
  8
2-0
  6
CONTINUOUS
 62
     3
 10
18316.671254499961
 20
19672.314729999998
 30
0.0
 11
18353.670435499978
 21
19672.314729999998
 31
0.0
  0
LINE
  5
4943
  8
2-0
  6
CONTINUOUS
 62
     3
 10
18316.671254499961
 20
19642.311166999989
 30
0.0
 11
18316.671254499961
 21
19672.314729999998
 31
0.0
  0
LINE
  5
4944
  8
2-0
  6
CONTINUOUS
 62
     3
 10
18322.66523649999
 20
19642.311166999989
 30
0.0
 11
18316.671254499961
 21
19642.311166999989
 31
0.0
  0
LINE
  5
4945
  8
2-0
  6
CONTINUOUS
 62
     3
 10
18306.575709499979
 20
19642.311166999989
 30
0.0
 11
18306.575709499979
 21
19672.314729999998
 31
0.0
  0
LINE
  5
4946
  8
2-0
  6
CONTINUOUS
 62
     3
 10
18324.571512499992
 20
19642.311166999989
 30
0.0
 11
18306.575709499979
 21
19642.311166999989
 31
0.0
  0
LINE
  5
4947
  8
2-0
  6
CONTINUOUS
 62
     3
 10
18324.571512499992
 20
19667.320403999991
 30
0.0
 11
18324.571512499992
 21
19642.311166999989
 31
0.0
  0
LINE
  5
4948
  8
2-0
  6
CONTINUOUS
 62
     3
 10
18319.571248499989
 20
19667.320403999991
 30
0.0
 11
18324.571512499992
 21
19667.320403999991
 31
0.0
  0
LINE
  5
4949
  8
2-0
  6
CONTINUOUS
 62
     3
 10
18319.571248499989
 20
19660.314888000001
 30
0.0
 11
18319.571248499989
 21
19667.320403999991
 31
0.0
  0
LINE
  5
494A
  8
2-0
  6
CONTINUOUS
 62
     3
 10
19020.570259499978
 20
19660.314888000001
 30
0.0
 11
19020.570259499978
 21
19667.320403999991
 31
0.0
  0
LINE
  5
494B
  8
2-0
  6
CONTINUOUS
 62
     3
 10
19020.570259499978
 20
19667.320403999991
 30
0.0
 11
19025.570522499991
 21
19667.320403999991
 31
0.0
  0
LINE
  5
494C
  8
2-0
  6
CONTINUOUS
 62
     3
 10
19025.570522499991
 20
19667.320403999991
 30
0.0
 11
19025.570522499991
 21
19642.311166999989
 31
0.0
  0
LINE
  5
494D
  8
2-0
  6
CONTINUOUS
 62
     3
 10
19025.570522499991
 20
19642.311166999989
 30
0.0
 11
19007.576699499961
 21
19642.311166999989
 31
0.0
  0
LINE
  5
494E
  8
2-0
  6
CONTINUOUS
 62
     3
 10
19007.576699499961
 20
19642.311166999989
 30
0.0
 11
19007.576699499961
 21
19672.314729999998
 31
0.0
  0
LINE
  5
494F
  8
2-0
  6
CONTINUOUS
 62
     3
 10
19023.66820549998
 20
19642.311166999989
 30
0.0
 11
19017.67026449999
 21
19642.311166999989
 31
0.0
  0
LINE
  5
4950
  8
2-0
  6
CONTINUOUS
 62
     3
 10
19017.67026449999
 20
19642.311166999989
 30
0.0
 11
19017.67026449999
 21
19672.314729999998
 31
0.0
  0
LINE
  5
4951
  8
2-0
  6
CONTINUOUS
 62
     3
 10
19054.67142549999
 20
19672.314729999998
 30
0.0
 11
19017.67026449999
 21
19672.314729999998
 31
0.0
  0
LINE
  5
4952
  8
2-0
  6
CONTINUOUS
 62
     3
 10
19054.67142549999
 20
19642.311166999989
 30
0.0
 11
19054.67142549999
 21
19672.314729999998
 31
0.0
  0
LINE
  5
4953
  8
2-0
  6
CONTINUOUS
 62
     3
 10
19048.665566499982
 20
19642.311166999989
 30
0.0
 11
19054.67142549999
 21
19642.311166999989
 31
0.0
  0
LINE
  5
4954
  8
2-0
  6
CONTINUOUS
 62
     3
 10
19064.764990499982
 20
19642.311166999989
 30
0.0
 11
19064.764990499982
 21
19672.314729999998
 31
0.0
  0
LINE
  5
4955
  8
2-0
  6
CONTINUOUS
 62
     3
 10
19046.769187499991
 20
19642.311166999989
 30
0.0
 11
19064.764990499982
 21
19642.311166999989
 31
0.0
  0
LINE
  5
4956
  8
2-0
  6
CONTINUOUS
 62
     3
 10
19046.769187499991
 20
19667.320403999991
 30
0.0
 11
19046.769187499991
 21
19642.311166999989
 31
0.0
  0
LINE
  5
4957
  8
2-0
  6
CONTINUOUS
 62
     3
 10
19051.759553499978
 20
19667.320403999991
 30
0.0
 11
19046.769187499991
 21
19667.320403999991
 31
0.0
  0
LINE
  5
4958
  8
2-0
  6
CONTINUOUS
 62
     3
 10
19051.759553499978
 20
19660.314888000001
 30
0.0
 11
19051.759553499978
 21
19667.320403999991
 31
0.0
  0
LINE
  5
4959
  8
2-0
  6
CONTINUOUS
 62
     3
 10
18363.765980499989
 20
19672.314729999998
 30
0.0
 11
19007.576699499961
 21
19672.314729999998
 31
0.0
  0
LINE
  5
495A
  8
2-0
  6
CONTINUOUS
 62
     3
 10
17662.969871000001
 20
19672.314729999998
 30
0.0
 11
18306.575709499979
 21
19672.314729999998
 31
0.0
  0
LINE
  5
495B
  8
2-0
  6
CONTINUOUS
 62
     3
 10
20422.670977000002
 20
19672.314729999998
 30
0.0
 11
20422.670977000002
 21
19642.311166999989
 31
0.0
  0
LINE
  5
495C
  8
2-0
  6
CONTINUOUS
 62
     3
 10
20422.670977000002
 20
19642.311166999989
 30
0.0
 11
20428.674856000001
 21
19642.311166999989
 31
0.0
  0
LINE
  5
495D
  8
2-0
  6
CONTINUOUS
 62
     3
 10
20413.05447499999
 20
19642.311166999989
 30
0.0
 11
20413.05447499999
 21
19672.314729999998
 31
0.0
  0
LINE
  5
495E
  8
2-0
  6
CONTINUOUS
 62
     3
 10
20431.062155999989
 20
19642.311166999989
 30
0.0
 11
20413.05447499999
 21
19642.311166999989
 31
0.0
  0
LINE
  5
495F
  8
2-0
  6
CONTINUOUS
 62
     3
 10
20431.062155999989
 20
19667.320403999991
 30
0.0
 11
20431.062155999989
 21
19642.311166999989
 31
0.0
  0
LINE
  5
4960
  8
2-0
  6
CONTINUOUS
 62
     3
 10
20426.055952999988
 20
19667.320403999991
 30
0.0
 11
20431.062155999989
 21
19667.320403999991
 31
0.0
  0
LINE
  5
4961
  8
2-0
  6
CONTINUOUS
 62
     3
 10
20426.055952999988
 20
19660.314888000001
 30
0.0
 11
20426.055952999988
 21
19667.320403999991
 31
0.0
  0
LINE
  5
4962
  8
2-0
  6
CONTINUOUS
 62
     3
 10
20452.67454
 20
19669.422653000001
 30
0.0
 11
20452.67454
 21
19584.424104999998
 31
0.0
  0
LINE
  5
4963
  8
2-0
  6
CONTINUOUS
 62
     3
 10
20472.673615999989
 20
19669.422653000001
 30
0.0
 11
20452.67454
 21
19669.422653000001
 31
0.0
  0
LINE
  5
4964
  8
2-0
  6
CONTINUOUS
 62
     3
 10
20564.287714999999
 20
19660.314888000001
 30
0.0
 11
20564.287714999999
 21
19667.320403999991
 31
0.0
  0
LINE
  5
4965
  8
2-0
  6
CONTINUOUS
 62
     3
 10
20564.287714999999
 20
19667.320403999991
 30
0.0
 11
20559.28547200001
 21
19667.320403999991
 31
0.0
  0
LINE
  5
4966
  8
2-0
  6
CONTINUOUS
 62
     3
 10
20559.28547200001
 20
19667.320403999991
 30
0.0
 11
20559.28547200001
 21
19642.311166999989
 31
0.0
  0
LINE
  5
4967
  8
2-0
  6
CONTINUOUS
 62
     3
 10
20559.28547200001
 20
19642.311166999989
 30
0.0
 11
20577.28919299999
 21
19642.311166999989
 31
0.0
  0
LINE
  5
4968
  8
2-0
  6
CONTINUOUS
 62
     3
 10
20577.28919299999
 20
19642.311166999989
 30
0.0
 11
20577.28919299999
 21
19672.314729999998
 31
0.0
  0
LINE
  5
4969
  8
2-0
  6
CONTINUOUS
 62
     3
 10
20537.673087999989
 20
19669.422653000001
 30
0.0
 11
20517.670053000002
 21
19669.422653000001
 31
0.0
  0
LINE
  5
496A
  8
2-0
  6
CONTINUOUS
 62
     3
 10
20537.673087999989
 20
19584.424104999998
 30
0.0
 11
20537.673087999989
 21
19669.422653000001
 31
0.0
  0
LINE
  5
496B
  8
2-0
  6
CONTINUOUS
 62
     3
 10
20567.672692
 20
19642.311166999989
 30
0.0
 11
20561.67277099999
 21
19642.311166999989
 31
0.0
  0
LINE
  5
496C
  8
2-0
  6
CONTINUOUS
 62
     3
 10
20567.672692
 20
19672.314729999998
 30
0.0
 11
20567.672692
 21
19642.311166999989
 31
0.0
  0
LINE
  5
496D
  8
2-0
  6
CONTINUOUS
 62
     3
 10
20452.67454
 20
19584.424104999998
 30
0.0
 11
20537.673087999989
 21
19584.424104999998
 31
0.0
  0
LINE
  5
496E
  8
2-0
  6
CONTINUOUS
 62
     3
 10
20422.670977000002
 20
19672.314729999998
 30
0.0
 11
20567.672692
 21
19672.314729999998
 31
0.0
  0
LINE
  5
496F
  8
2-0
  6
CONTINUOUS
 62
     3
 10
20413.05447499999
 20
19672.314729999998
 30
0.0
 11
19765.768949999991
 21
19672.314729999998
 31
0.0
  0
LINE
  5
4970
  8
2-0
  6
CONTINUOUS
 62
     3
 10
19708.57669899999
 20
19672.314729999998
 30
0.0
 11
19064.764990499982
 21
19672.314729999998
 31
0.0
  0
LINE
  5
4971
  8
2-0
  6
CONTINUOUS
 62
     3
 10
17214.172164999989
 20
19563.314518999981
 30
0.0
 11
17214.172164999989
 21
19557.318556999991
 31
0.0
  0
LINE
  5
4972
  8
2-0
  6
CONTINUOUS
 62
     3
 10
17214.172164999989
 20
19557.318556999991
 30
0.0
 11
17184.174539999989
 21
19557.318556999991
 31
0.0
  0
LINE
  5
4973
  8
2-0
  6
CONTINUOUS
 62
     3
 10
17184.174539999989
 20
19557.318556999991
 30
0.0
 11
17184.174539999989
 21
19672.314729999998
 31
0.0
  0
LINE
  5
4974
  8
2-0
  6
CONTINUOUS
 62
     3
 10
17184.174539999989
 20
19587.318160999981
 30
0.0
 11
17265.172480999991
 21
19587.318160999981
 31
0.0
  0
LINE
  5
4975
  8
2-0
  6
CONTINUOUS
 62
     3
 10
17214.172164999989
 20
19547.021100999991
 30
0.0
 11
17184.174539999989
 21
19547.021100999991
 31
0.0
  0
LINE
  5
4976
  8
2-0
  6
CONTINUOUS
 62
     3
 10
17214.172164999989
 20
19565.022842999992
 30
0.0
 11
17214.172164999989
 21
19547.021100999991
 31
0.0
  0
LINE
  5
4977
  8
2-0
  6
CONTINUOUS
 62
     3
 10
17189.178762999989
 20
19565.022842999992
 30
0.0
 11
17214.172164999989
 21
19565.022842999992
 31
0.0
  0
LINE
  5
4978
  8
2-0
  6
CONTINUOUS
 62
     3
 10
17189.178762999989
 20
19560.014661000001
 30
0.0
 11
17189.178762999989
 21
19565.022842999992
 31
0.0
  0
LINE
  5
4979
  8
2-0
  6
CONTINUOUS
 62
     3
 10
17196.176360999969
 20
19560.014661000001
 30
0.0
 11
17189.178762999989
 21
19560.014661000001
 31
0.0
  0
LINE
  5
497A
  8
2-0
  6
CONTINUOUS
 62
     3
 10
17196.176360999969
 20
19206.717838499961
 30
0.0
 11
17189.178762999989
 21
19206.717838499961
 31
0.0
  0
LINE
  5
497B
  8
2-0
  6
CONTINUOUS
 62
     3
 10
17189.178762999989
 20
19206.717838499961
 30
0.0
 11
17189.178762999989
 21
19211.718102499981
 31
0.0
  0
LINE
  5
497C
  8
2-0
  6
CONTINUOUS
 62
     3
 10
17189.178762999989
 20
19211.718102499981
 30
0.0
 11
17214.172164999989
 21
19211.718102499981
 31
0.0
  0
LINE
  5
497D
  8
2-0
  6
CONTINUOUS
 62
     3
 10
17214.172164999989
 20
19211.718102499981
 30
0.0
 11
17214.172164999989
 21
19193.722298499961
 31
0.0
  0
LINE
  5
497E
  8
2-0
  6
CONTINUOUS
 62
     3
 10
17214.172164999989
 20
19193.722298499961
 30
0.0
 11
17184.174539999989
 21
19193.722298499961
 31
0.0
  0
LINE
  5
497F
  8
2-0
  6
CONTINUOUS
 62
     3
 10
17214.172164999989
 20
19209.813805499962
 30
0.0
 11
17214.172164999989
 21
19203.81586449996
 31
0.0
  0
LINE
  5
4980
  8
2-0
  6
CONTINUOUS
 62
     3
 10
17214.172164999989
 20
19203.81586449996
 30
0.0
 11
17184.174539999989
 21
19203.81586449996
 31
0.0
  0
LINE
  5
4981
  8
2-0
  6
CONTINUOUS
 62
     3
 10
17184.174539999989
 20
19203.81586449996
 30
0.0
 11
17184.174539999989
 21
19240.81702549995
 31
0.0
  0
LINE
  5
4982
  8
2-0
  6
CONTINUOUS
 62
     3
 10
17214.172164999989
 20
19240.81702549995
 30
0.0
 11
17184.174539999989
 21
19240.81702549995
 31
0.0
  0
LINE
  5
4983
  8
2-0
  6
CONTINUOUS
 62
     3
 10
17214.172164999989
 20
19234.813145499971
 30
0.0
 11
17214.172164999989
 21
19240.81702549995
 31
0.0
  0
LINE
  5
4984
  8
2-0
  6
CONTINUOUS
 62
     3
 10
17214.172164999989
 20
19250.912570499971
 30
0.0
 11
17184.174539999989
 21
19250.912570499971
 31
0.0
  0
LINE
  5
4985
  8
2-0
  6
CONTINUOUS
 62
     3
 10
17214.172164999989
 20
19232.91082849996
 30
0.0
 11
17214.172164999989
 21
19250.912570499971
 31
0.0
  0
LINE
  5
4986
  8
2-0
  6
CONTINUOUS
 62
     3
 10
17189.178762999989
 20
19232.91082849996
 30
0.0
 11
17214.172164999989
 21
19232.91082849996
 31
0.0
  0
LINE
  5
4987
  8
2-0
  6
CONTINUOUS
 62
     3
 10
17189.178762999989
 20
19237.91109249998
 30
0.0
 11
17189.178762999989
 21
19232.91082849996
 31
0.0
  0
LINE
  5
4988
  8
2-0
  6
CONTINUOUS
 62
     3
 10
17196.176360999969
 20
19237.91109249998
 30
0.0
 11
17189.178762999989
 21
19237.91109249998
 31
0.0
  0
LINE
  5
4989
  8
2-0
  6
CONTINUOUS
 62
     3
 10
17196.176360999969
 20
18505.71783899999
 30
0.0
 11
17189.178762999989
 21
18505.71783899999
 31
0.0
  0
LINE
  5
498A
  8
2-0
  6
CONTINUOUS
 62
     3
 10
17189.178762999989
 20
18505.71783899999
 30
0.0
 11
17189.178762999989
 21
18510.724040999969
 31
0.0
  0
LINE
  5
498B
  8
2-0
  6
CONTINUOUS
 62
     3
 10
17189.178762999989
 20
18510.724040999969
 30
0.0
 11
17214.172164999989
 21
18510.724040999969
 31
0.0
  0
LINE
  5
498C
  8
2-0
  6
CONTINUOUS
 62
     3
 10
17214.172164999989
 20
18510.724040999969
 30
0.0
 11
17214.172164999989
 21
18492.722298999979
 31
0.0
  0
LINE
  5
498D
  8
2-0
  6
CONTINUOUS
 62
     3
 10
17214.172164999989
 20
18492.722298999979
 30
0.0
 11
17184.174539999989
 21
18492.722298999979
 31
0.0
  0
LINE
  5
498E
  8
2-0
  6
CONTINUOUS
 62
     3
 10
17214.172164999989
 20
18508.813805999969
 30
0.0
 11
17214.172164999989
 21
18502.817843999968
 31
0.0
  0
LINE
  5
498F
  8
2-0
  6
CONTINUOUS
 62
     3
 10
17214.172164999989
 20
18502.817843999968
 30
0.0
 11
17184.174539999989
 21
18502.817843999968
 31
0.0
  0
LINE
  5
4990
  8
2-0
  6
CONTINUOUS
 62
     3
 10
17184.174539999989
 20
18502.817843999968
 30
0.0
 11
17184.174539999989
 21
18539.817025999961
 31
0.0
  0
LINE
  5
4991
  8
2-0
  6
CONTINUOUS
 62
     3
 10
17214.172164999989
 20
18539.817025999961
 30
0.0
 11
17184.174539999989
 21
18539.817025999961
 31
0.0
  0
LINE
  5
4992
  8
2-0
  6
CONTINUOUS
 62
     3
 10
17214.172164999989
 20
18533.821063999982
 30
0.0
 11
17214.172164999989
 21
18539.817025999961
 31
0.0
  0
LINE
  5
4993
  8
2-0
  6
CONTINUOUS
 62
     3
 10
17214.172164999989
 20
18549.91257099999
 30
0.0
 11
17184.174539999989
 21
18549.91257099999
 31
0.0
  0
LINE
  5
4994
  8
2-0
  6
CONTINUOUS
 62
     3
 10
17214.172164999989
 20
18531.91082899996
 30
0.0
 11
17214.172164999989
 21
18549.91257099999
 31
0.0
  0
LINE
  5
4995
  8
2-0
  6
CONTINUOUS
 62
     3
 10
17189.178762999989
 20
18531.91082899996
 30
0.0
 11
17214.172164999989
 21
18531.91082899996
 31
0.0
  0
LINE
  5
4996
  8
2-0
  6
CONTINUOUS
 62
     3
 10
17189.178762999989
 20
18536.91703099995
 30
0.0
 11
17189.178762999989
 21
18531.91082899996
 31
0.0
  0
LINE
  5
4997
  8
2-0
  6
CONTINUOUS
 62
     3
 10
17196.176360999969
 20
18536.91703099995
 30
0.0
 11
17189.178762999989
 21
18536.91703099995
 31
0.0
  0
LINE
  5
4998
  8
2-0
  6
CONTINUOUS
 62
     3
 10
17196.176360999969
 20
17835.910102999991
 30
0.0
 11
17189.178762999989
 21
17835.910102999991
 31
0.0
  0
LINE
  5
4999
  8
2-0
  6
CONTINUOUS
 62
     3
 10
17189.178762999989
 20
17835.910102999991
 30
0.0
 11
17189.178762999989
 21
17830.921715999972
 31
0.0
  0
LINE
  5
499A
  8
2-0
  6
CONTINUOUS
 62
     3
 10
17189.178762999989
 20
17830.921715999972
 30
0.0
 11
17214.172164999989
 21
17830.921715999972
 31
0.0
  0
LINE
  5
499B
  8
2-0
  6
CONTINUOUS
 62
     3
 10
17214.172164999989
 20
17830.921715999972
 30
0.0
 11
17214.172164999989
 21
17848.917518999991
 31
0.0
  0
LINE
  5
499C
  8
2-0
  6
CONTINUOUS
 62
     3
 10
17214.172164999989
 20
17848.917518999991
 30
0.0
 11
17184.174539999989
 21
17848.917518999991
 31
0.0
  0
LINE
  5
499D
  8
2-0
  6
CONTINUOUS
 62
     3
 10
17214.172164999989
 20
17832.820073999981
 30
0.0
 11
17214.172164999989
 21
17838.816035999971
 31
0.0
  0
LINE
  5
499E
  8
2-0
  6
CONTINUOUS
 62
     3
 10
17214.172164999989
 20
17838.816035999971
 30
0.0
 11
17184.174539999989
 21
17838.816035999971
 31
0.0
  0
LINE
  5
499F
  8
2-0
  6
CONTINUOUS
 62
     3
 10
17184.174539999989
 20
17838.816035999971
 30
0.0
 11
17184.174539999989
 21
17801.816853999961
 31
0.0
  0
LINE
  5
49A0
  8
2-0
  6
CONTINUOUS
 62
     3
 10
17214.172164999989
 20
17801.816853999961
 30
0.0
 11
17184.174539999989
 21
17801.816853999961
 31
0.0
  0
LINE
  5
49A1
  8
2-0
  6
CONTINUOUS
 62
     3
 10
17214.172164999989
 20
17807.818754999978
 30
0.0
 11
17214.172164999989
 21
17801.816853999961
 31
0.0
  0
LINE
  5
49A2
  8
2-0
  6
CONTINUOUS
 62
     3
 10
17214.172164999989
 20
17791.727247999981
 30
0.0
 11
17184.174539999989
 21
17791.727247999981
 31
0.0
  0
LINE
  5
49A3
  8
2-0
  6
CONTINUOUS
 62
     3
 10
17214.172164999989
 20
17809.723050999972
 30
0.0
 11
17214.172164999989
 21
17791.727247999981
 31
0.0
  0
LINE
  5
49A4
  8
2-0
  6
CONTINUOUS
 62
     3
 10
17189.178762999989
 20
17809.723050999972
 30
0.0
 11
17214.172164999989
 21
17809.723050999972
 31
0.0
  0
LINE
  5
49A5
  8
2-0
  6
CONTINUOUS
 62
     3
 10
17189.178762999989
 20
17804.722787999981
 30
0.0
 11
17189.178762999989
 21
17809.723050999972
 31
0.0
  0
LINE
  5
49A6
  8
2-0
  6
CONTINUOUS
 62
     3
 10
17196.176360999969
 20
17804.722787999981
 30
0.0
 11
17189.178762999989
 21
17804.722787999981
 31
0.0
  0
LINE
  5
49A7
  8
2-0
  6
CONTINUOUS
 62
     3
 10
17187.060677999991
 20
17084.813673999972
 30
0.0
 11
17187.060677999991
 21
17104.814728999969
 31
0.0
  0
LINE
  5
49A8
  8
2-0
  6
CONTINUOUS
 62
     3
 10
17187.060677999991
 20
17104.814728999969
 30
0.0
 11
17272.061205999991
 21
17104.814728999969
 31
0.0
  0
LINE
  5
49A9
  8
2-0
  6
CONTINUOUS
 62
     3
 10
17196.176360999969
 20
17131.421438999991
 30
0.0
 11
17189.178762999989
 21
17131.421438999991
 31
0.0
  0
LINE
  5
49AA
  8
2-0
  6
CONTINUOUS
 62
     3
 10
17189.178762999989
 20
17131.421438999991
 30
0.0
 11
17189.178762999989
 21
17126.427112999991
 31
0.0
  0
LINE
  5
49AB
  8
2-0
  6
CONTINUOUS
 62
     3
 10
17189.178762999989
 20
17126.427112999991
 30
0.0
 11
17214.172164999989
 21
17126.427112999991
 31
0.0
  0
LINE
  5
49AC
  8
2-0
  6
CONTINUOUS
 62
     3
 10
17214.172164999989
 20
17126.427112999991
 30
0.0
 11
17214.172164999989
 21
17144.422916999989
 31
0.0
  0
LINE
  5
49AD
  8
2-0
  6
CONTINUOUS
 62
     3
 10
17214.172164999989
 20
17144.422916999989
 30
0.0
 11
17184.174539999989
 21
17144.422916999989
 31
0.0
  0
LINE
  5
49AE
  8
2-0
  6
CONTINUOUS
 62
     3
 10
17214.172164999989
 20
17134.81433299998
 30
0.0
 11
17214.172164999989
 21
17128.812432999981
 31
0.0
  0
LINE
  5
49AF
  8
2-0
  6
CONTINUOUS
 62
     3
 10
17184.174539999989
 20
17134.81433299998
 30
0.0
 11
17214.172164999989
 21
17134.81433299998
 31
0.0
  0
LINE
  5
49B0
  8
2-0
  6
CONTINUOUS
 62
     3
 10
17184.174539999989
 20
17144.422916999989
 30
0.0
 11
17184.174539999989
 21
17791.727247999981
 31
0.0
  0
LINE
  5
49B1
  8
2-0
  6
CONTINUOUS
 62
     3
 10
17184.174539999989
 20
17848.917518999991
 30
0.0
 11
17184.174539999989
 21
18492.722298999979
 31
0.0
  0
LINE
  5
49B2
  8
2-0
  6
CONTINUOUS
 62
     3
 10
17184.174539999989
 20
16989.812617999989
 30
0.0
 11
17214.172164999989
 21
16989.812617999989
 31
0.0
  0
LINE
  5
49B3
  8
2-0
  6
CONTINUOUS
 62
     3
 10
17214.172164999989
 20
16989.812617999989
 30
0.0
 11
17214.172164999989
 21
16995.814517999981
 31
0.0
  0
LINE
  5
49B4
  8
2-0
  6
CONTINUOUS
 62
     3
 10
17272.061205999991
 20
17019.818160999981
 30
0.0
 11
17187.060677999991
 21
17019.818160999981
 31
0.0
  0
LINE
  5
49B5
  8
2-0
  6
CONTINUOUS
 62
     3
 10
17187.060677999991
 20
17019.818160999981
 30
0.0
 11
17187.060677999991
 21
17039.813277999991
 31
0.0
  0
LINE
  5
49B6
  8
2-0
  6
CONTINUOUS
 62
     3
 10
17214.172164999989
 20
16980.204034999992
 30
0.0
 11
17184.174539999989
 21
16980.204034999992
 31
0.0
  0
LINE
  5
49B7
  8
2-0
  6
CONTINUOUS
 62
     3
 10
17214.172164999989
 20
16998.199837999979
 30
0.0
 11
17214.172164999989
 21
16980.204034999992
 31
0.0
  0
LINE
  5
49B8
  8
2-0
  6
CONTINUOUS
 62
     3
 10
17189.178762999989
 20
16998.199837999979
 30
0.0
 11
17214.172164999989
 21
16998.199837999979
 31
0.0
  0
LINE
  5
49B9
  8
2-0
  6
CONTINUOUS
 62
     3
 10
17189.178762999989
 20
16993.199573999991
 30
0.0
 11
17189.178762999989
 21
16998.199837999979
 31
0.0
  0
LINE
  5
49BA
  8
2-0
  6
CONTINUOUS
 62
     3
 10
17196.176360999969
 20
16993.199573999991
 30
0.0
 11
17189.178762999989
 21
16993.199573999991
 31
0.0
  0
LINE
  5
49BB
  8
2-0
  6
CONTINUOUS
 62
     3
 10
17196.176360999969
 20
16288.717343499949
 30
0.0
 11
17189.178762999989
 21
16288.717343499949
 31
0.0
  0
LINE
  5
49BC
  8
2-0
  6
CONTINUOUS
 62
     3
 10
17189.178762999989
 20
16288.717343499949
 30
0.0
 11
17189.178762999989
 21
16293.717607499961
 31
0.0
  0
LINE
  5
49BD
  8
2-0
  6
CONTINUOUS
 62
     3
 10
17189.178762999989
 20
16293.717607499961
 30
0.0
 11
17214.172164999989
 21
16293.717607499961
 31
0.0
  0
LINE
  5
49BE
  8
2-0
  6
CONTINUOUS
 62
     3
 10
17214.172164999989
 20
16293.717607499961
 30
0.0
 11
17214.172164999989
 21
16275.71586549998
 31
0.0
  0
LINE
  5
49BF
  8
2-0
  6
CONTINUOUS
 62
     3
 10
17214.172164999989
 20
16275.71586549998
 30
0.0
 11
17184.174539999989
 21
16275.71586549998
 31
0.0
  0
LINE
  5
49C0
  8
2-0
  6
CONTINUOUS
 62
     3
 10
17214.172164999989
 20
16291.81331049998
 30
0.0
 11
17214.172164999989
 21
16285.816359499981
 31
0.0
  0
LINE
  5
49C1
  8
2-0
  6
CONTINUOUS
 62
     3
 10
17214.172164999989
 20
16285.816359499981
 30
0.0
 11
17184.174539999989
 21
16285.816359499981
 31
0.0
  0
LINE
  5
49C2
  8
2-0
  6
CONTINUOUS
 62
     3
 10
17184.174539999989
 20
16285.816359499981
 30
0.0
 11
17184.174539999989
 21
16322.81653049998
 31
0.0
  0
LINE
  5
49C3
  8
2-0
  6
CONTINUOUS
 62
     3
 10
17214.172164999989
 20
16322.81653049998
 30
0.0
 11
17184.174539999989
 21
16322.81653049998
 31
0.0
  0
LINE
  5
49C4
  8
2-0
  6
CONTINUOUS
 62
     3
 10
17214.172164999989
 20
16316.81364049998
 30
0.0
 11
17214.172164999989
 21
16322.81653049998
 31
0.0
  0
LINE
  5
49C5
  8
2-0
  6
CONTINUOUS
 62
     3
 10
17214.172164999989
 20
16332.91207549998
 30
0.0
 11
17184.174539999989
 21
16332.91207549998
 31
0.0
  0
LINE
  5
49C6
  8
2-0
  6
CONTINUOUS
 62
     3
 10
17214.172164999989
 20
16314.904394499979
 30
0.0
 11
17214.172164999989
 21
16332.91207549998
 31
0.0
  0
LINE
  5
49C7
  8
2-0
  6
CONTINUOUS
 62
     3
 10
17189.178762999989
 20
16314.904394499979
 30
0.0
 11
17214.172164999989
 21
16314.904394499979
 31
0.0
  0
LINE
  5
49C8
  8
2-0
  6
CONTINUOUS
 62
     3
 10
17189.178762999989
 20
16319.91059749998
 30
0.0
 11
17189.178762999989
 21
16314.904394499979
 31
0.0
  0
LINE
  5
49C9
  8
2-0
  6
CONTINUOUS
 62
     3
 10
17196.176360999969
 20
16319.91059749998
 30
0.0
 11
17189.178762999989
 21
16319.91059749998
 31
0.0
  0
LINE
  5
49CA
  8
2-0
  6
CONTINUOUS
 62
     3
 10
17196.176360999969
 20
15619.15061399998
 30
0.0
 11
17189.178762999989
 21
15619.15061399998
 31
0.0
  0
LINE
  5
49CB
  8
2-0
  6
CONTINUOUS
 62
     3
 10
17189.178762999989
 20
15619.15061399998
 30
0.0
 11
17189.178762999989
 21
15614.15628899999
 31
0.0
  0
LINE
  5
49CC
  8
2-0
  6
CONTINUOUS
 62
     3
 10
17189.178762999989
 20
15614.15628899999
 30
0.0
 11
17214.172164999989
 21
15614.15628899999
 31
0.0
  0
LINE
  5
49CD
  8
2-0
  6
CONTINUOUS
 62
     3
 10
17214.172164999989
 20
15614.15628899999
 30
0.0
 11
17214.172164999989
 21
15632.152092
 31
0.0
  0
LINE
  5
49CE
  8
2-0
  6
CONTINUOUS
 62
     3
 10
17214.172164999989
 20
15632.152092
 30
0.0
 11
17184.174539999989
 21
15632.152092
 31
0.0
  0
LINE
  5
49CF
  8
2-0
  6
CONTINUOUS
 62
     3
 10
17214.172164999989
 20
15616.05464699999
 30
0.0
 11
17214.172164999989
 21
15622.056547
 31
0.0
  0
LINE
  5
49D0
  8
2-0
  6
CONTINUOUS
 62
     3
 10
17214.172164999989
 20
15622.056547
 30
0.0
 11
17184.174539999989
 21
15622.056547
 31
0.0
  0
LINE
  5
49D1
  8
2-0
  6
CONTINUOUS
 62
     3
 10
17184.174539999989
 20
15585.05736599999
 30
0.0
 11
17184.174539999989
 21
15622.056547
 31
0.0
  0
LINE
  5
49D2
  8
2-0
  6
CONTINUOUS
 62
     3
 10
17214.172164999989
 20
15585.05736599999
 30
0.0
 11
17184.174539999989
 21
15585.05736599999
 31
0.0
  0
LINE
  5
49D3
  8
2-0
  6
CONTINUOUS
 62
     3
 10
17214.172164999989
 20
15591.05431699998
 30
0.0
 11
17214.172164999989
 21
15585.05736599999
 31
0.0
  0
LINE
  5
49D4
  8
2-0
  6
CONTINUOUS
 62
     3
 10
17214.172164999989
 20
15574.95588199998
 30
0.0
 11
17184.174539999989
 21
15574.95588199998
 31
0.0
  0
LINE
  5
49D5
  8
2-0
  6
CONTINUOUS
 62
     3
 10
17214.172164999989
 20
15592.963562999979
 30
0.0
 11
17214.172164999989
 21
15574.95588199998
 31
0.0
  0
LINE
  5
49D6
  8
2-0
  6
CONTINUOUS
 62
     3
 10
17189.178762999989
 20
15592.963562999979
 30
0.0
 11
17214.172164999989
 21
15592.963562999979
 31
0.0
  0
LINE
  5
49D7
  8
2-0
  6
CONTINUOUS
 62
     3
 10
17189.178762999989
 20
15587.963298999999
 30
0.0
 11
17189.178762999989
 21
15592.963562999979
 31
0.0
  0
LINE
  5
49D8
  8
2-0
  6
CONTINUOUS
 62
     3
 10
17196.176360999969
 20
15587.963298999999
 30
0.0
 11
17189.178762999989
 21
15587.963298999999
 31
0.0
  0
LINE
  5
49D9
  8
2-0
  6
CONTINUOUS
 62
     3
 10
17184.174539999989
 20
16980.204034999992
 30
0.0
 11
17184.174539999989
 21
16332.91207549998
 31
0.0
  0
LINE
  5
49DA
  8
2-0
  6
CONTINUOUS
 62
     3
 10
17184.174539999989
 20
17134.81433299998
 30
0.0
 11
17184.174539999989
 21
16989.812617999989
 31
0.0
  0
LINE
  5
49DB
  8
2-0
  6
CONTINUOUS
 62
     3
 10
17272.061205999991
 20
17104.814728999969
 30
0.0
 11
17272.061205999991
 21
17019.818160999981
 31
0.0
  0
LINE
  5
49DC
  8
2-0
  6
CONTINUOUS
 62
     3
 10
17196.176360999969
 20
14886.72229199998
 30
0.0
 11
17189.178762999989
 21
14886.72229199998
 31
0.0
  0
LINE
  5
49DD
  8
2-0
  6
CONTINUOUS
 62
     3
 10
17189.178762999989
 20
14886.72229199998
 30
0.0
 11
17189.178762999989
 21
14891.71661799998
 31
0.0
  0
LINE
  5
49DE
  8
2-0
  6
CONTINUOUS
 62
     3
 10
17189.178762999989
 20
14891.71661799998
 30
0.0
 11
17214.172164999989
 21
14891.71661799998
 31
0.0
  0
LINE
  5
49DF
  8
2-0
  6
CONTINUOUS
 62
     3
 10
17214.172164999989
 20
14891.71661799998
 30
0.0
 11
17214.172164999989
 21
14873.720813999969
 31
0.0
  0
LINE
  5
49E0
  8
2-0
  6
CONTINUOUS
 62
     3
 10
17214.172164999989
 20
14873.720813999969
 30
0.0
 11
17184.174539999989
 21
14873.720813999969
 31
0.0
  0
LINE
  5
49E1
  8
2-0
  6
CONTINUOUS
 62
     3
 10
17214.172164999989
 20
14889.81924899998
 30
0.0
 11
17214.172164999989
 21
14883.81635899998
 31
0.0
  0
LINE
  5
49E2
  8
2-0
  6
CONTINUOUS
 62
     3
 10
17214.172164999989
 20
14883.81635899998
 30
0.0
 11
17184.174539999989
 21
14883.81635899998
 31
0.0
  0
LINE
  5
49E3
  8
2-0
  6
CONTINUOUS
 62
     3
 10
17184.174539999989
 20
14883.81635899998
 30
0.0
 11
17184.174539999989
 21
14920.816530999949
 31
0.0
  0
LINE
  5
49E4
  8
2-0
  6
CONTINUOUS
 62
     3
 10
17214.172164999989
 20
14920.816530999949
 30
0.0
 11
17184.174539999989
 21
14920.816530999949
 31
0.0
  0
LINE
  5
49E5
  8
2-0
  6
CONTINUOUS
 62
     3
 10
17214.172164999989
 20
14914.819578999981
 30
0.0
 11
17214.172164999989
 21
14920.816530999949
 31
0.0
  0
LINE
  5
49E6
  8
2-0
  6
CONTINUOUS
 62
     3
 10
17214.172164999989
 20
14930.91702399998
 30
0.0
 11
17184.174539999989
 21
14930.91702399998
 31
0.0
  0
LINE
  5
49E7
  8
2-0
  6
CONTINUOUS
 62
     3
 10
17214.172164999989
 20
14912.910332999991
 30
0.0
 11
17214.172164999989
 21
14930.91702399998
 31
0.0
  0
LINE
  5
49E8
  8
2-0
  6
CONTINUOUS
 62
     3
 10
17189.178762999989
 20
14912.910332999991
 30
0.0
 11
17214.172164999989
 21
14912.910332999991
 31
0.0
  0
LINE
  5
49E9
  8
2-0
  6
CONTINUOUS
 62
     3
 10
17189.178762999989
 20
14917.91554599998
 30
0.0
 11
17189.178762999989
 21
14912.910332999991
 31
0.0
  0
LINE
  5
49EA
  8
2-0
  6
CONTINUOUS
 62
     3
 10
17196.176360999969
 20
14917.91554599998
 30
0.0
 11
17189.178762999989
 21
14917.91554599998
 31
0.0
  0
LINE
  5
49EB
  8
2-0
  6
CONTINUOUS
 62
     3
 10
17214.172164999989
 20
14561.31837199998
 30
0.0
 11
17214.172164999989
 21
14567.32324099998
 31
0.0
  0
LINE
  5
49EC
  8
2-0
  6
CONTINUOUS
 62
     3
 10
17214.172164999989
 20
14567.32324099998
 30
0.0
 11
17184.174539999989
 21
14567.32324099998
 31
0.0
  0
LINE
  5
49ED
  8
2-0
  6
CONTINUOUS
 62
     3
 10
17184.174539999989
 20
14567.32324099998
 30
0.0
 11
17184.174539999989
 21
14452.319149999979
 31
0.0
  0
LINE
  5
49EE
  8
2-0
  6
CONTINUOUS
 62
     3
 10
17184.174539999989
 20
14452.319149999979
 30
0.0
 11
17269.173087999981
 21
14452.319149999979
 31
0.0
  0
LINE
  5
49EF
  8
2-0
  6
CONTINUOUS
 62
     3
 10
17269.173087999981
 20
14452.319149999979
 30
0.0
 11
17269.173087999981
 21
14537.314728999971
 31
0.0
  0
LINE
  5
49F0
  8
2-0
  6
CONTINUOUS
 62
     3
 10
17269.173087999981
 20
14537.314728999971
 30
0.0
 11
17237.176149999981
 21
14537.314728999971
 31
0.0
  0
LINE
  5
49F1
  8
2-0
  6
CONTINUOUS
 62
     3
 10
17196.176360999969
 20
14564.352973999979
 30
0.0
 11
17189.178762999989
 21
14564.352973999979
 31
0.0
  0
LINE
  5
49F2
  8
2-0
  6
CONTINUOUS
 62
     3
 10
17189.178762999989
 20
14564.352973999979
 30
0.0
 11
17189.178762999989
 21
14559.355678999949
 31
0.0
  0
LINE
  5
49F3
  8
2-0
  6
CONTINUOUS
 62
     3
 10
17189.178762999989
 20
14559.355678999949
 30
0.0
 11
17214.172164999989
 21
14559.355678999949
 31
0.0
  0
LINE
  5
49F4
  8
2-0
  6
CONTINUOUS
 62
     3
 10
17214.172164999989
 20
14559.355678999949
 30
0.0
 11
17214.172164999989
 21
14577.35445199998
 31
0.0
  0
LINE
  5
49F5
  8
2-0
  6
CONTINUOUS
 62
     3
 10
17214.172164999989
 20
14577.35445199998
 30
0.0
 11
17184.174539999989
 21
14577.35445199998
 31
0.0
  0
LINE
  5
49F6
  8
2-0
  6
CONTINUOUS
 62
     3
 10
17184.174539999989
 20
14930.91702399998
 30
0.0
 11
17184.174539999989
 21
15574.95588199998
 31
0.0
  0
LINE
  5
49F7
  8
2-0
  6
CONTINUOUS
 62
     3
 10
17184.174539999989
 20
18549.91257099999
 30
0.0
 11
17184.174539999989
 21
19193.722298499961
 31
0.0
  0
LINE
  5
49F8
  8
2-0
  6
CONTINUOUS
 62
     3
 10
17275.176967999982
 20
18478.816180999969
 30
0.0
 11
17228.173298999991
 21
18478.816180999969
 31
0.0
  0
LINE
  5
49F9
  8
2-0
  6
CONTINUOUS
 62
     3
 10
17228.173298999991
 20
18563.816708999992
 30
0.0
 11
17275.176967999982
 21
18563.816708999992
 31
0.0
  0
LINE
  5
49FA
  8
2-0
  6
CONTINUOUS
 62
     3
 10
17228.173298999991
 20
18478.816180999969
 30
0.0
 11
17228.173298999991
 21
18503.819479999991
 31
0.0
  0
LINE
  5
49FB
  8
2-0
  6
CONTINUOUS
 62
     3
 10
17228.173298999991
 20
18538.815388999981
 30
0.0
 11
17228.173298999991
 21
18563.816708999992
 31
0.0
  0
LINE
  5
49FC
  8
2-0
  6
CONTINUOUS
 62
     3
 10
17275.176967999982
 20
18563.816708999992
 30
0.0
 11
17275.176967999982
 21
18478.816180999969
 31
0.0
  0
LINE
  5
49FD
  8
2-0
  6
CONTINUOUS
 62
     3
 10
17184.174539999989
 20
16275.71586549998
 30
0.0
 11
17184.174539999989
 21
15632.152092
 31
0.0
  0
LINE
  5
49FE
  8
2-0
  6
CONTINUOUS
 62
     3
 10
17275.176967999982
 20
15561.058672499999
 30
0.0
 11
17228.173298999991
 21
15561.058672499999
 31
0.0
  0
LINE
  5
49FF
  8
2-0
  6
CONTINUOUS
 62
     3
 10
17228.173298999991
 20
15646.055240499991
 30
0.0
 11
17275.176967999982
 21
15646.055240499991
 31
0.0
  0
LINE
  5
4A00
  8
2-0
  6
CONTINUOUS
 62
     3
 10
17228.173298999991
 20
15561.058672499999
 30
0.0
 11
17228.173298999991
 21
15586.054053499989
 31
0.0
  0
LINE
  5
4A01
  8
2-0
  6
CONTINUOUS
 62
     3
 10
17228.173298999991
 20
15621.05392150001
 30
0.0
 11
17228.173298999991
 21
15646.055240499991
 31
0.0
  0
LINE
  5
4A02
  8
2-0
  6
CONTINUOUS
 62
     3
 10
17275.176967999982
 20
15646.055240499991
 30
0.0
 11
17275.176967999982
 21
15561.058672499999
 31
0.0
  0
LINE
  5
4A03
  8
2-0
  6
CONTINUOUS
 62
     3
 10
26306.174407999959
 20
19557.318556999991
 30
0.0
 11
26306.174407999959
 21
19672.314729999998
 31
0.0
  0
LINE
  5
4A04
  8
2-0
  6
CONTINUOUS
 62
     3
 10
21975.136137000001
 20
17326.027487999982
 30
0.0
 11
21817.255674
 21
17445.111367000001
 31
0.0
  0
LINE
  5
4A05
  8
2-0
  6
CONTINUOUS
 62
     3
 10
22363.098024999999
 20
17409.159350999991
 30
0.0
 11
22117.255674
 21
17594.594712999999
 31
0.0
  0
LINE
  5
4A06
  8
2-0
  6
CONTINUOUS
 62
     3
 10
22117.255674
 20
16524.714408
 30
0.0
 11
21757.147592000001
 21
16796.341968000001
 31
0.0
  0
LINE
  5
4A07
  8
2-0
  6
CONTINUOUS
 62
     3
 10
21757.147592000001
 20
16796.341968000001
 30
0.0
 11
22363.098024999999
 21
17409.159350999991
 31
0.0
  0
LINE
  5
4A08
  8
2-0
  6
CONTINUOUS
 62
     3
 10
21817.255674
 20
16375.23205199999
 30
0.0
 11
21369.183724999992
 21
16713.212084999981
 31
0.0
  0
LINE
  5
4A09
  8
2-0
  6
CONTINUOUS
 62
     3
 10
21975.136137000001
 20
17326.027487999982
 30
0.0
 11
21369.183724999992
 21
16713.212084999981
 31
0.0
  0
LINE
  5
4A0A
  8
2-0
  6
CONTINUOUS
 62
     3
 10
22117.255674
 20
19779.036514999989
 30
0.0
 11
22117.255674
 21
19973.522236000001
 31
0.0
  0
LINE
  5
4A0B
  8
2-0
  6
CENTER2
 62
     6
 10
15897.21626799998
 20
19629.816444999949
 30
0.0
 11
27156.175727999958
 21
19629.816444999949
 31
0.0
  0
LINE
  5
4A0C
  8
2-0
  6
CENTER2
 62
     6
 10
15897.21626799998
 20
17062.316444999979
 30
0.0
 11
27156.175727999958
 21
17062.316444999979
 31
0.0
  0
LINE
  5
4A0D
  8
2-0
  6
CENTER2
 62
     6
 10
15897.21626799998
 20
14494.81644499998
 30
0.0
 11
27156.175727999958
 21
14494.81644499998
 31
0.0
  0
LINE
  5
4A0E
  8
2-0
  6
CONTINUOUS
 62
     3
 10
17649.762523000001
 20
19660.314888000001
 30
0.0
 11
17649.762523000001
 21
19667.320403999991
 31
0.0
  0
LINE
  5
4A0F
  8
2-0
  6
CONTINUOUS
 62
     3
 10
17649.762523000001
 20
19667.320403999991
 30
0.0
 11
17644.762258999981
 21
19667.320403999991
 31
0.0
  0
LINE
  5
4A10
  8
2-0
  6
CONTINUOUS
 62
     3
 10
17644.762258999981
 20
19667.320403999991
 30
0.0
 11
17644.762258999981
 21
19642.311166999989
 31
0.0
  0
LINE
  5
4A11
  8
2-0
  6
CONTINUOUS
 62
     3
 10
17644.762258999981
 20
19642.311166999989
 30
0.0
 11
17662.764000999989
 21
19642.311166999989
 31
0.0
  0
LINE
  5
4A12
  8
2-0
  6
CONTINUOUS
 62
     3
 10
17662.764000999989
 20
19642.311166999989
 30
0.0
 11
17662.764000999989
 21
19672.314729999998
 31
0.0
  0
LINE
  5
4A13
  8
2-0
  6
CONTINUOUS
 62
     3
 10
17646.664575999988
 20
19642.311166999989
 30
0.0
 11
17652.668455999981
 21
19642.311166999989
 31
0.0
  0
LINE
  5
4A14
  8
2-0
  6
CONTINUOUS
 62
     3
 10
17652.668455999981
 20
19642.311166999989
 30
0.0
 11
17652.668455999981
 21
19672.314729999998
 31
0.0
  0
LINE
  5
4A15
  8
2-0
  6
CONTINUOUS
 62
     3
 10
17615.673233999991
 20
19672.314729999998
 30
0.0
 11
17652.668455999981
 21
19672.314729999998
 31
0.0
  0
LINE
  5
4A16
  8
2-0
  6
CONTINUOUS
 62
     3
 10
17615.673233999991
 20
19642.311166999989
 30
0.0
 11
17615.673233999991
 21
19672.314729999998
 31
0.0
  0
LINE
  5
4A17
  8
2-0
  6
CONTINUOUS
 62
     3
 10
17621.667216000002
 20
19642.311166999989
 30
0.0
 11
17615.673233999991
 21
19642.311166999989
 31
0.0
  0
LINE
  5
4A18
  8
2-0
  6
CONTINUOUS
 62
     3
 10
17605.577689000002
 20
19642.311166999989
 30
0.0
 11
17605.577689000002
 21
19672.314729999998
 31
0.0
  0
LINE
  5
4A19
  8
2-0
  6
CONTINUOUS
 62
     3
 10
17623.573492
 20
19642.311166999989
 30
0.0
 11
17605.577689000002
 21
19642.311166999989
 31
0.0
  0
LINE
  5
4A1A
  8
2-0
  6
CONTINUOUS
 62
     3
 10
17623.573492
 20
19667.320403999991
 30
0.0
 11
17623.573492
 21
19642.311166999989
 31
0.0
  0
LINE
  5
4A1B
  8
2-0
  6
CONTINUOUS
 62
     3
 10
17618.575207999998
 20
19667.320403999991
 30
0.0
 11
17623.573492
 21
19667.320403999991
 31
0.0
  0
LINE
  5
4A1C
  8
2-0
  6
CONTINUOUS
 62
     3
 10
17618.575207999998
 20
19660.314888000001
 30
0.0
 11
17618.575207999998
 21
19667.320403999991
 31
0.0
  0
LINE
  5
4A1D
  8
2-0
  6
CONTINUOUS
 62
     3
 10
17309.476086999981
 20
19672.314729999998
 30
0.0
 11
17605.577689000002
 21
19672.314729999998
 31
0.0
  0
LINE
  5
4A1E
  8
2-0
  6
CONTINUOUS
 62
     3
 10
21817.255674
 20
19587.318160999981
 30
0.0
 11
17184.174539999989
 21
19587.318160999981
 31
0.0
  0
LINE
  5
4A1F
  8
2-0
  6
CONTINUOUS
 62
     3
 10
22117.255674
 20
19587.318160999981
 30
0.0
 11
26225.17250799996
 21
19587.318160999981
 31
0.0
  0
LINE
  5
4A20
  8
2-0
  6
CENTER2
 62
     6
 10
17226.670844999979
 20
20872.314729999998
 30
0.0
 11
17226.670844999979
 21
13869.05301099998
 31
0.0
  0
LINE
  5
4A21
  8
2-0
  6
CENTER2
 62
     6
 10
26263.676123999961
 20
20872.314729999998
 30
0.0
 11
26263.676123999961
 21
13869.05301099998
 31
0.0
  0
LINE
  5
4A22
  8
2-0
  6
CONTINUOUS
 62
     3
 10
26306.174407999959
 20
19547.021100999991
 30
0.0
 11
26306.174407999959
 21
19250.912570499971
 31
0.0
  0
LINE
  5
4A23
  8
2-0
  6
CONTINUOUS
 62
     3
 10
21817.255674
 20
17445.111367000001
 30
0.0
 11
21817.255674
 21
19973.522236000001
 31
0.0
  0
LINE
  5
4A24
  8
2-0
  6
CONTINUOUS
 62
     3
 10
22117.255674
 20
17594.594712999999
 30
0.0
 11
22117.255674
 21
19779.036514999989
 31
0.0
  0
LINE
  5
4A25
  8
2-0
  6
CONTINUOUS
 62
     3
 10
17184.174539999989
 20
19547.021100999991
 30
0.0
 11
17184.174539999989
 21
19250.912570499971
 31
0.0
  0
LINE
  5
4A26
  8
2-0
  6
CONTINUOUS
 62
     3
 10
21817.255674
 20
16375.23205199999
 30
0.0
 11
21817.255674
 21
14303.411843999969
 31
0.0
  0
LINE
  5
4A27
  8
2-0
  6
CONTINUOUS
 62
     3
 10
22117.255674
 20
16524.714408
 30
0.0
 11
22117.255674
 21
14303.411843999969
 31
0.0
  0
LINE
  5
4A28
  8
2-0
  6
CENTER2
 62
     6
 10
22995.176123999961
 20
20872.314729999998
 30
0.0
 11
22995.176123999961
 21
14303.411843999969
 31
0.0
  0
LINE
  5
4A29
  8
2-0
  6
CENTER2
 62
     6
 10
20495.17084499999
 20
20872.314729999998
 30
0.0
 11
20495.17084499999
 21
14303.411843999969
 31
0.0
  0
LINE
  5
4A2A
  8
2-0
  6
CONTINUOUS
 62
     3
 10
17184.174539999989
 20
14577.35445199998
 30
0.0
 11
17184.174539999989
 21
14873.720813999969
 31
0.0
  0
LINE
  5
4A2B
  8
2-0
  6
CONTINUOUS
 62
     3
 10
17265.172480999991
 20
14537.314728999971
 30
0.0
 11
17265.172480999991
 21
19672.314729999998
 31
0.0
  0
LINE
  5
4A2C
  8
2-0
  6
CONTINUOUS
 62
     3
 10
26306.174407999959
 20
14577.35445199998
 30
0.0
 11
26306.174407999959
 21
14873.720813999969
 31
0.0
  0
LINE
  5
4A2D
  8
2-0
  6
CONTINUOUS
 62
     3
 10
26225.17250799996
 20
14537.314728999971
 30
0.0
 11
26225.17250799996
 21
19672.314729999998
 31
0.0
  0
ARC
  5
4A2E
  8
0-1
  6
CONTINUOUS
 62
     3
 10
26195.178841999961
 20
8343.2285150000007
 30
0.0
 40
5.0
 50
0.0
 51
90.0
  0
ARC
  5
4A2F
  8
0-1
  6
CONTINUOUS
 62
     3
 10
26195.178841999961
 20
8311.2286080000031
 30
0.0
 40
5.0
 50
269.9999850001808
 51
0.0
  0
ARC
  5
4A30
  8
0-1
  6
CONTINUOUS
 62
     3
 10
25885.748415999959
 20
8343.2285150000007
 30
0.0
 40
5.0
 50
90.0
 51
224.9999849999752
  0
ARC
  5
4A31
  8
0-1
  6
CONTINUOUS
 62
     3
 10
25917.74931299996
 20
8311.2286080000031
 30
0.0
 40
5.0
 50
224.9999849999752
 51
269.9999850001808
  0
ARC
  5
4A32
  8
0-1
  6
CONTINUOUS
 62
     3
 10
23373.105811000001
 20
8343.2285150000007
 30
0.0
 40
5.0
 50
314.99998500021468
 51
90.0
  0
ARC
  5
4A33
  8
0-1
  6
CONTINUOUS
 62
     3
 10
23341.104913999981
 20
8311.2286080000031
 30
0.0
 40
5.0
 50
269.9999850001808
 51
314.99998500021468
  0
ARC
  5
4A34
  8
0-1
  6
CONTINUOUS
 62
     3
 10
23063.677363999981
 20
8311.2286080000031
 30
0.0
 40
5.0
 50
180.0
 51
269.9999850001808
  0
ARC
  5
4A35
  8
0-1
  6
CONTINUOUS
 62
     3
 10
23063.677363999981
 20
8343.2285150000007
 30
0.0
 40
5.0
 50
90.0
 51
180.0
  0
ARC
  5
4A36
  8
0-1
  6
CONTINUOUS
 62
     3
 10
22926.67686299999
 20
8343.2285150000007
 30
0.0
 40
5.0
 50
0.0
 51
90.0
  0
ARC
  5
4A37
  8
0-1
  6
CONTINUOUS
 62
     3
 10
22926.67686299999
 20
8311.2286080000031
 30
0.0
 40
5.0
 50
269.9999850001808
 51
0.0
  0
ARC
  5
4A38
  8
0-1
  6
CONTINUOUS
 62
     3
 10
22649.245353999991
 20
8311.2286080000031
 30
0.0
 40
5.0
 50
224.9999849999752
 51
269.9999850001808
  0
ARC
  5
4A39
  8
0-1
  6
CONTINUOUS
 62
     3
 10
22617.246435999969
 20
8343.2285150000007
 30
0.0
 40
5.0
 50
90.0
 51
224.9999849999752
  0
ARC
  5
4A3A
  8
0-1
  6
CONTINUOUS
 62
     3
 10
20563.67208599997
 20
8311.2286080000031
 30
0.0
 40
5.0
 50
180.0
 51
269.9999850001808
  0
ARC
  5
4A3B
  8
0-1
  6
CONTINUOUS
 62
     3
 10
20563.67208599997
 20
8343.2285150000007
 30
0.0
 40
5.0
 50
90.0
 51
180.0
  0
ARC
  5
4A3C
  8
0-1
  6
CONTINUOUS
 62
     3
 10
20841.101614999981
 20
8311.2286080000031
 30
0.0
 40
5.0
 50
269.9999850001808
 51
314.99998500021468
  0
ARC
  5
4A3D
  8
0-1
  6
CONTINUOUS
 62
     3
 10
20426.671583999989
 20
8311.2286080000031
 30
0.0
 40
5.0
 50
269.9999850001808
 51
0.0
  0
ARC
  5
4A3E
  8
0-1
  6
CONTINUOUS
 62
     3
 10
20426.671583999989
 20
8343.2285150000007
 30
0.0
 40
5.0
 50
0.0
 51
90.0
  0
ARC
  5
4A3F
  8
0-1
  6
CONTINUOUS
 62
     3
 10
20873.100532999972
 20
8343.2285150000007
 30
0.0
 40
5.0
 50
314.99998500021468
 51
90.0
  0
ARC
  5
4A40
  8
0-1
  6
CONTINUOUS
 62
     3
 10
20117.241157999979
 20
8343.2285150000007
 30
0.0
 40
5.0
 50
90.0
 51
224.9999849999752
  0
ARC
  5
4A41
  8
0-1
  6
CONTINUOUS
 62
     3
 10
20149.244034999982
 20
8311.2286080000031
 30
0.0
 40
5.0
 50
224.9999849999752
 51
269.9999850001808
  0
ARC
  5
4A42
  8
0-1
  6
CONTINUOUS
 62
     3
 10
17604.600533000001
 20
8343.2285150000007
 30
0.0
 40
5.0
 50
314.99998500021468
 51
90.0
  0
ARC
  5
4A43
  8
0-1
  6
CONTINUOUS
 62
     3
 10
17295.17010599999
 20
8343.2285150000007
 30
0.0
 40
5.0
 50
90.0
 51
180.0
  0
ARC
  5
4A44
  8
0-1
  6
CONTINUOUS
 62
     3
 10
17295.17010599999
 20
8311.2286080000031
 30
0.0
 40
5.0
 50
180.0
 51
269.9999850001808
  0
ARC
  5
4A45
  8
0-1
  6
CONTINUOUS
 62
     3
 10
17572.599635999992
 20
8311.2286080000031
 30
0.0
 40
5.0
 50
269.9999850001808
 51
314.99998500021468
  0
CIRCLE
  5
4A46
  8
0-5
  6
CONTINUOUS
 62
     4
 10
26263.676123999961
 20
4072.7289510000001
 30
0.0
 40
199.9999949999999
  0
CIRCLE
  5
4A47
  8
0-5
  6
CONTINUOUS
 62
     4
 10
22995.176123999961
 20
4072.7289510000001
 30
0.0
 40
199.9999949999999
  0
CIRCLE
  5
4A48
  8
0-5
  6
CONTINUOUS
 62
     4
 10
20495.17084499999
 20
4072.7289510000001
 30
0.0
 40
199.9999949999999
  0
CIRCLE
  5
4A49
  8
0-5
  6
CONTINUOUS
 62
     4
 10
17226.670844999979
 20
4072.7289510000001
 30
0.0
 40
199.9999949999999
  0
CIRCLE
  5
4A4A
  8
2-0
  6
CONTINUOUS
 62
     4
 10
15697.218577999991
 20
19629.816444999949
 30
0.0
 40
200.00001
  0
CIRCLE
  5
4A4B
  8
2-0
  6
CONTINUOUS
 62
     4
 10
15697.218577999991
 20
17062.316444999979
 30
0.0
 40
200.00001
  0
CIRCLE
  5
4A4C
  8
2-0
  6
CONTINUOUS
 62
     4
 10
15697.218577999991
 20
14494.81644499998
 30
0.0
 40
200.00001
  0
CIRCLE
  5
4A4D
  8
2-0
  6
CONTINUOUS
 62
     4
 10
20495.17084499999
 20
21072.319349000001
 30
0.0
 40
200.00001
  0
CIRCLE
  5
4A4E
  8
2-0
  6
CONTINUOUS
 62
     4
 10
17226.670844999979
 20
21072.319349000001
 30
0.0
 40
200.00001
  0
CIRCLE
  5
4A4F
  8
2-0
  6
CONTINUOUS
 62
     4
 10
22995.176123999961
 20
21072.319349000001
 30
0.0
 40
200.00001
  0
CIRCLE
  5
4A50
  8
2-0
  6
CONTINUOUS
 62
     4
 10
26263.676123999961
 20
21072.319349000001
 30
0.0
 40
200.00001
  0
TEXT
  5
4A51
  8
0-5
  6
CONTINUOUS
 62
     7
 10
26211.741473999969
 20
3988.2280040000001
 30
0.0
 40
160.0
  1
n
 72
     4
 11
26265.074807333302
 21
4041.5613373333331
 31
0.0
  0
TEXT
  5
4A52
  8
0-5
  6
CONTINUOUS
 62
     7
 10
22829.05101017523
 20
4002.745112439397
 30
0.0
 40
140.0
  1
n-1
 72
     4
 11
22992.384343508558
 21
4072.745112439397
 31
0.0
  0
TEXT
  5
4A53
  8
0-5
  6
CONTINUOUS
 62
     7
 10
16608.494905999989
 20
6842.0889997419981
 30
0.0
 40
160.0
  1
(2131.5)
 50
90.0
 72
     4
 11
16528.494905999989
 21
7295.4223330753312
 31
0.0
  0
TEXT
  5
4A54
  8
0-5
  6
CONTINUOUS
 62
     7
 10
20448.24239799998
 20
3986.1989969999981
 30
0.0
 40
160.0
  1
2
 72
     4
 11
20501.575731333309
 21
4066.1989969999981
 31
0.0
  0
TEXT
  5
4A55
  8
0-5
  6
CONTINUOUS
 62
     7
 10
17179.73843899999
 20
3986.1989969999981
 30
0.0
 40
160.0
  1
1
 72
     4
 11
17206.405105666661
 21
4066.1989969999981
 31
0.0
  0
TEXT
  5
4A56
  8
0-5
  6
CONTINUOUS
 62
     7
 10
15344.79003899999
 20
6400.5750029999999
 30
0.0
 40
160.0
  1
G.L
 72
     4
 11
15504.79003899999
 21
6480.5750029999999
 31
0.0
  0
TEXT
  5
4A57
  8
2-0
  6
CONTINUOUS
 62
     7
 10
24660.521430999968
 20
13934.817566999969
 30
0.0
 40
160.0
  1
前柱（右）
 50
0.000213
 72
     4
 11
25076.521133592989
 21
14014.81911350076
 31
0.0
  0
TEXT
  5
4A58
  8
2-0
  6
CONTINUOUS
 62
     7
 10
24677.220649999959
 20
18263.439610999991
 30
0.0
 40
160.0
  1
補強柱 後
 50
359.99984199999989
 72
     4
 11
25087.887537274681
 21
18343.43847853698
 31
0.0
  0
TEXT
  5
4A59
  8
2-0
  6
CONTINUOUS
 62
     7
 10
24865.116553999971
 20
16512.809582999991
 30
0.0
 40
160.0
  1
壁パネル
 50
359.99982299999999
 72
     4
 11
25227.783467803521
 21
16592.808462637859
 31
0.0
  0
TEXT
  5
4A5A
  8
2-0
  6
CONTINUOUS
 62
     7
 10
24585.113649999948
 20
17349.997479000001
 30
0.0
 40
160.0
  1
中柱（左右）
 50
0.000354
 72
     4
 11
25102.446489046171
 21
17430.000675324649
 31
0.0
  0
TEXT
  5
4A5B
  8
2-0
  6
CONTINUOUS
 62
     7
 10
25265.115893999959
 20
14907.858832999969
 30
0.0
 40
160.0
  1
下枠
 50
0.001063
 72
     4
 11
25435.781076409261
 21
14987.86199933926
 31
0.0
  0
TEXT
  5
4A5C
  8
2-0
  6
CONTINUOUS
 62
     7
 10
24677.220649999959
 20
15345.68012199998
 30
0.0
 40
160.0
  1
補強柱 前
 50
359.99937
 72
     4
 11
25087.888196287749
 21
15425.67560647931
 31
0.0
  0
TEXT
  5
4A5D
  8
2-0
  6
CONTINUOUS
 62
     7
 10
24760.081317999971
 20
18953.26621749996
 30
0.0
 40
160.0
  1
間柱（側）
 72
     4
 11
25181.4146513333
 21
19033.26621749996
 31
0.0
  0
TEXT
  5
4A5E
  8
2-0
  6
CONTINUOUS
 62
     7
 10
27078.671636999959
 20
20482.313937999999
 30
0.0
 40
160.0
  1
後柱（左右）
 50
0.000354
 72
     4
 11
27590.671142712948
 21
20562.317101372832
 31
0.0
  0
TEXT
  5
4A5F
  8
2-0
  6
CONTINUOUS
 62
     7
 10
23394.264885999972
 20
15072.654744999951
 30
0.0
 40
160.0
  1
前柱（中）
 72
     4
 11
23810.264885999972
 21
15152.654744999951
 31
0.0
  0
TEXT
  5
4A60
  8
2-0
  6
CONTINUOUS
 62
     7
 10
19331.039721000008
 20
19035.196777000001
 30
0.0
 40
160.0
  1
間柱（後）
 72
     4
 11
19752.37305433334
 21
19115.196777000001
 31
0.0
  0
TEXT
  5
4A61
  8
2-0
  6
CONTINUOUS
 62
     7
 10
23265.46948899997
 20
19103.941498
 30
0.0
 40
160.0
  1
後柱（中）
 72
     4
 11
23681.46948899997
 21
19183.941498
 31
0.0
  0
TEXT
  5
4A62
  8
2-0
  6
CONTINUOUS
 62
     7
 10
15649.21921099996
 20
19535.336003
 30
0.0
 40
160.0
  1
C
 72
     4
 11
15702.552544333301
 21
19615.336003
 31
0.0
  0
TEXT
  5
4A63
  8
2-0
  6
CONTINUOUS
 62
     7
 10
15649.43992699997
 20
16991.922363000001
 30
0.0
 40
160.0
  1
B
 72
     4
 11
15702.77326033331
 21
17071.922363000001
 31
0.0
  0
TEXT
  5
4A64
  8
2-0
  6
CONTINUOUS
 62
     7
 10
15649.482486999979
 20
14406.20923399998
 30
0.0
 40
160.0
  1
A
 72
     4
 11
15702.815820333321
 21
14486.20923399998
 31
0.0
  0
TEXT
  5
4A65
  8
2-0
  6
CONTINUOUS
 62
     7
 10
20443.539061999989
 20
20976.793720000001
 30
0.0
 40
160.0
  1
2
 72
     4
 11
20496.872395333321
 21
21056.793720000001
 31
0.0
  0
TEXT
  5
4A66
  8
2-0
  6
CONTINUOUS
 62
     7
 10
17182.464235999989
 20
20983.551796999989
 30
0.0
 40
160.0
  1
1
 72
     4
 11
17209.13090266666
 21
21063.551796999989
 31
0.0
  0
TEXT
  5
4A67
  8
2-0
  6
CONTINUOUS
 62
     7
 10
26212.270005999952
 20
20991.931099000009
 30
0.0
 40
160.0
  1
n
 72
     4
 11
26265.60333933328
 21
21045.264432333341
 31
0.0
  0
TEXT
  5
4A68
  8
2-0
  6
CONTINUOUS
 62
     7
 10
22835.221124999978
 20
21004.427800000001
 30
0.0
 40
140.0
  1
n-1
 72
     4
 11
22998.55445833331
 21
21074.427800000001
 31
0.0
  0
TEXT
  5
4A69
  8
2-0
  6
CONTINUOUS
 62
     7
 10
20923.42971299999
 20
12387.942223999989
 30
0.0
 40
160.0
  1
平 面 図
 50
0.000266
 72
     4
 11
21280.762699683812
 21
12462.61054961294
 31
0.0
  0
TEXT
  5
4A6A
  8
2-0
  6
CONTINUOUS
 62
     7
 10
20119.867900000001
 20
3254.289569999999
 30
0.0
 40
160.0
  1
正 面 立 面 図
 72
     4
 11
20765.20123333333
 21
3334.289569999999
 31
0.0
  0
CIRCLE
  5
4A6B
  8
0-4
  6
CONTINUOUS
 62
     4
 10
18860.92084499999
 20
6598.784693999999
 30
0.0
 40
18.487504999999981
  0
CIRCLE
  5
4A6C
  8
0-4
  6
CONTINUOUS
 62
     4
 10
24629.426123999961
 20
6598.784693999999
 30
0.0
 40
18.487504999999981
  0
TEXT
  5
4A6D
  8
2-0
  6
CONTINUOUS
 62
     7
 10
22116.69341847095
 20
3281.4849389999981
 30
0.0
 40
160.0
  1
1
 72
     4
 11
22143.360085137621
 21
3361.484938999999
 31
0.0
  0
TEXT
  5
4A6E
  8
2-0
  6
CONTINUOUS
 62
     7
 10
22359.782135721649
 20
3201.486406999999
 30
0.0
 40
160.0
  1
80
 72
     4
 11
22479.782135721649
 21
3281.486406999999
 31
0.0
  0
TEXT
  5
4A6F
  8
2-0
  6
CONTINUOUS
 62
     7
 10
21617.695384470961
 20
3254.289569999999
 30
0.0
 40
160.0
  1
(S=  /   )
 72
     4
 11
22177.695384470961
 21
3334.289569999999
 31
0.0
  0
TEXT
  5
4A70
  8
2-0
  6
CONTINUOUS
 62
     7
 10
22632.254884821439
 20
12409.805918612939
 30
0.0
 40
160.0
  1
1
 72
     4
 11
22658.921551488111
 21
12489.805918612939
 31
0.0
  0
TEXT
  5
4A71
  8
2-0
  6
CONTINUOUS
 62
     7
 10
22875.34360207212
 20
12329.807386612951
 30
0.0
 40
160.0
  1
80
 72
     4
 11
22995.34360207212
 21
12409.807386612951
 31
0.0
  0
TEXT
  5
4A72
  8
2-0
  6
CONTINUOUS
 62
     7
 10
22133.256850821439
 20
12382.61054961294
 30
0.0
 40
160.0
  1
(S=  /   )
 72
     4
 11
22693.256850821439
 21
12462.61054961294
 31
0.0
  0
LINE
  5
4A73
  8
SUNPOU
  6
CONTINUOUS
 10
16944.17084499999
 20
4912.7287530000031
 30
0.0
 11
16586.215838278891
 21
4912.7287530000031
 31
0.0
  0
LINE
  5
4A74
  8
SUNPOU
  6
CONTINUOUS
 10
26546.180082999981
 20
4912.7287530000031
 30
0.0
 11
26904.135089721069
 21
4912.7287530000031
 31
0.0
  0
LINE
  5
4A75
  8
2-0
  6
CONTINUOUS
 62
     3
 10
25524.176704999962
 20
19672.314729999998
 30
0.0
 11
25487.175542999961
 21
19672.314729999998
 31
0.0
  0
LINE
  5
4A76
  8
2-0
  6
CONTINUOUS
 62
     3
 10
25524.176704999962
 20
19642.311166999989
 30
0.0
 11
25524.176704999962
 21
19672.314729999998
 31
0.0
  0
LINE
  5
4A77
  8
2-0
  6
CONTINUOUS
 62
     3
 10
25518.176783999941
 20
19642.311166999989
 30
0.0
 11
25524.176704999962
 21
19642.311166999989
 31
0.0
  0
LINE
  5
4A78
  8
2-0
  6
CONTINUOUS
 62
     3
 10
25534.274228999959
 20
19642.311166999989
 30
0.0
 11
25534.274228999959
 21
19672.314729999998
 31
0.0
  0
LINE
  5
4A79
  8
2-0
  6
CONTINUOUS
 62
     3
 10
25516.270507999961
 20
19642.311166999989
 30
0.0
 11
25534.274228999959
 21
19642.311166999989
 31
0.0
  0
LINE
  5
4A7A
  8
2-0
  6
CONTINUOUS
 62
     3
 10
25516.270507999961
 20
19667.320403999991
 30
0.0
 11
25516.270507999961
 21
19642.311166999989
 31
0.0
  0
LINE
  5
4A7B
  8
2-0
  6
CONTINUOUS
 62
     3
 10
25521.27077199996
 20
19667.320403999991
 30
0.0
 11
25516.270507999961
 21
19667.320403999991
 31
0.0
  0
LINE
  5
4A7C
  8
2-0
  6
CONTINUOUS
 62
     3
 10
25521.27077199996
 20
19660.314888000001
 30
0.0
 11
25521.27077199996
 21
19667.320403999991
 31
0.0
  0
LINE
  5
4A7D
  8
2-0
  6
CONTINUOUS
 62
     3
 10
25490.081476999942
 20
19660.314888000001
 30
0.0
 11
25490.081476999942
 21
19667.320403999991
 31
0.0
  0
LINE
  5
4A7E
  8
2-0
  6
CONTINUOUS
 62
     3
 10
25490.081476999942
 20
19667.320403999991
 30
0.0
 11
25495.081740999962
 21
19667.320403999991
 31
0.0
  0
LINE
  5
4A7F
  8
2-0
  6
CONTINUOUS
 62
     3
 10
25495.081740999962
 20
19667.320403999991
 30
0.0
 11
25495.081740999962
 21
19642.311166999989
 31
0.0
  0
LINE
  5
4A80
  8
2-0
  6
CONTINUOUS
 62
     3
 10
25495.081740999962
 20
19642.311166999989
 30
0.0
 11
25477.081977999958
 21
19642.311166999989
 31
0.0
  0
LINE
  5
4A81
  8
2-0
  6
CONTINUOUS
 62
     3
 10
25477.081977999958
 20
19642.311166999989
 30
0.0
 11
25477.081977999958
 21
19672.314729999998
 31
0.0
  0
LINE
  5
4A82
  8
2-0
  6
CONTINUOUS
 62
     3
 10
25493.17546399996
 20
19642.311166999989
 30
0.0
 11
25487.175542999961
 21
19642.311166999989
 31
0.0
  0
LINE
  5
4A83
  8
2-0
  6
CONTINUOUS
 62
     3
 10
25487.175542999961
 20
19642.311166999989
 30
0.0
 11
25487.175542999961
 21
19672.314729999998
 31
0.0
  0
LINE
  5
4A84
  8
2-0
  6
CONTINUOUS
 62
     3
 10
24119.265822499961
 20
19660.314888000001
 30
0.0
 11
24119.265822499961
 21
19667.320403999991
 31
0.0
  0
LINE
  5
4A85
  8
2-0
  6
CONTINUOUS
 62
     3
 10
24119.265822499961
 20
19667.320403999991
 30
0.0
 11
24114.26555849997
 21
19667.320403999991
 31
0.0
  0
LINE
  5
4A86
  8
2-0
  6
CONTINUOUS
 62
     3
 10
24114.26555849997
 20
19667.320403999991
 30
0.0
 11
24114.26555849997
 21
19642.311166999989
 31
0.0
  0
LINE
  5
4A87
  8
2-0
  6
CONTINUOUS
 62
     3
 10
24114.26555849997
 20
19642.311166999989
 30
0.0
 11
24132.271259499961
 21
19642.311166999989
 31
0.0
  0
LINE
  5
4A88
  8
2-0
  6
CONTINUOUS
 62
     3
 10
24132.271259499961
 20
19642.311166999989
 30
0.0
 11
24132.271259499961
 21
19672.314729999998
 31
0.0
  0
LINE
  5
4A89
  8
2-0
  6
CONTINUOUS
 62
     3
 10
24116.173814499962
 20
19642.311166999989
 30
0.0
 11
24122.175714499961
 21
19642.311166999989
 31
0.0
  0
LINE
  5
4A8A
  8
2-0
  6
CONTINUOUS
 62
     3
 10
24122.175714499961
 20
19642.311166999989
 30
0.0
 11
24122.175714499961
 21
19672.314729999998
 31
0.0
  0
LINE
  5
4A8B
  8
2-0
  6
CONTINUOUS
 62
     3
 10
24085.176533499962
 20
19672.314729999998
 30
0.0
 11
24122.175714499961
 21
19672.314729999998
 31
0.0
  0
LINE
  5
4A8C
  8
2-0
  6
CONTINUOUS
 62
     3
 10
24085.176533499962
 20
19642.311166999989
 30
0.0
 11
24085.176533499962
 21
19672.314729999998
 31
0.0
  0
LINE
  5
4A8D
  8
2-0
  6
CONTINUOUS
 62
     3
 10
24091.170515499962
 20
19642.311166999989
 30
0.0
 11
24085.176533499962
 21
19642.311166999989
 31
0.0
  0
LINE
  5
4A8E
  8
2-0
  6
CONTINUOUS
 62
     3
 10
24075.080988499962
 20
19642.311166999989
 30
0.0
 11
24075.080988499962
 21
19672.314729999998
 31
0.0
  0
LINE
  5
4A8F
  8
2-0
  6
CONTINUOUS
 62
     3
 10
24093.07679149996
 20
19642.311166999989
 30
0.0
 11
24075.080988499962
 21
19642.311166999989
 31
0.0
  0
LINE
  5
4A90
  8
2-0
  6
CONTINUOUS
 62
     3
 10
24093.07679149996
 20
19667.320403999991
 30
0.0
 11
24093.07679149996
 21
19642.311166999989
 31
0.0
  0
LINE
  5
4A91
  8
2-0
  6
CONTINUOUS
 62
     3
 10
24088.076527499961
 20
19667.320403999991
 30
0.0
 11
24093.07679149996
 21
19667.320403999991
 31
0.0
  0
LINE
  5
4A92
  8
2-0
  6
CONTINUOUS
 62
     3
 10
24088.076527499961
 20
19660.314888000001
 30
0.0
 11
24088.076527499961
 21
19667.320403999991
 31
0.0
  0
LINE
  5
4A93
  8
2-0
  6
CONTINUOUS
 62
     3
 10
24789.075538499961
 20
19660.314888000001
 30
0.0
 11
24789.075538499961
 21
19667.320403999991
 31
0.0
  0
LINE
  5
4A94
  8
2-0
  6
CONTINUOUS
 62
     3
 10
24789.075538499961
 20
19667.320403999991
 30
0.0
 11
24794.07580149997
 21
19667.320403999991
 31
0.0
  0
LINE
  5
4A95
  8
2-0
  6
CONTINUOUS
 62
     3
 10
24794.07580149997
 20
19667.320403999991
 30
0.0
 11
24794.07580149997
 21
19642.311166999989
 31
0.0
  0
LINE
  5
4A96
  8
2-0
  6
CONTINUOUS
 62
     3
 10
24794.07580149997
 20
19642.311166999989
 30
0.0
 11
24776.081978499951
 21
19642.311166999989
 31
0.0
  0
LINE
  5
4A97
  8
2-0
  6
CONTINUOUS
 62
     3
 10
24776.081978499951
 20
19642.311166999989
 30
0.0
 11
24776.081978499951
 21
19672.314729999998
 31
0.0
  0
LINE
  5
4A98
  8
2-0
  6
CONTINUOUS
 62
     3
 10
24792.173484499959
 20
19642.311166999989
 30
0.0
 11
24786.175543499961
 21
19642.311166999989
 31
0.0
  0
LINE
  5
4A99
  8
2-0
  6
CONTINUOUS
 62
     3
 10
24786.175543499961
 20
19642.311166999989
 30
0.0
 11
24786.175543499961
 21
19672.314729999998
 31
0.0
  0
LINE
  5
4A9A
  8
2-0
  6
CONTINUOUS
 62
     3
 10
24823.176704499961
 20
19672.314729999998
 30
0.0
 11
24786.175543499961
 21
19672.314729999998
 31
0.0
  0
LINE
  5
4A9B
  8
2-0
  6
CONTINUOUS
 62
     3
 10
24823.176704499961
 20
19642.311166999989
 30
0.0
 11
24823.176704499961
 21
19672.314729999998
 31
0.0
  0
LINE
  5
4A9C
  8
2-0
  6
CONTINUOUS
 62
     3
 10
24817.170845499961
 20
19642.311166999989
 30
0.0
 11
24823.176704499961
 21
19642.311166999989
 31
0.0
  0
LINE
  5
4A9D
  8
2-0
  6
CONTINUOUS
 62
     3
 10
24833.270269499961
 20
19642.311166999989
 30
0.0
 11
24833.270269499961
 21
19672.314729999998
 31
0.0
  0
LINE
  5
4A9E
  8
2-0
  6
CONTINUOUS
 62
     3
 10
24815.274466499959
 20
19642.311166999989
 30
0.0
 11
24833.270269499961
 21
19642.311166999989
 31
0.0
  0
LINE
  5
4A9F
  8
2-0
  6
CONTINUOUS
 62
     3
 10
24815.274466499959
 20
19667.320403999991
 30
0.0
 11
24815.274466499959
 21
19642.311166999989
 31
0.0
  0
LINE
  5
4AA0
  8
2-0
  6
CONTINUOUS
 62
     3
 10
24820.264832499961
 20
19667.320403999991
 30
0.0
 11
24815.274466499959
 21
19667.320403999991
 31
0.0
  0
LINE
  5
4AA1
  8
2-0
  6
CONTINUOUS
 62
     3
 10
24820.264832499961
 20
19660.314888000001
 30
0.0
 11
24820.264832499961
 21
19667.320403999991
 31
0.0
  0
LINE
  5
4AA2
  8
2-0
  6
CONTINUOUS
 62
     3
 10
24132.271259499961
 20
19672.314729999998
 30
0.0
 11
24776.081978499951
 21
19672.314729999998
 31
0.0
  0
LINE
  5
4AA3
  8
2-0
  6
CONTINUOUS
 62
     3
 10
23431.47514999998
 20
19672.314729999998
 30
0.0
 11
24075.080988499962
 21
19672.314729999998
 31
0.0
  0
LINE
  5
4AA4
  8
2-0
  6
CONTINUOUS
 62
     3
 10
26181.559753999962
 20
19672.314729999998
 30
0.0
 11
25534.274228999959
 21
19672.314729999998
 31
0.0
  0
LINE
  5
4AA5
  8
2-0
  6
CONTINUOUS
 62
     3
 10
25477.081977999958
 20
19672.314729999998
 30
0.0
 11
24833.270269499961
 21
19672.314729999998
 31
0.0
  0
LINE
  5
4AA6
  8
2-0
  6
CONTINUOUS
 62
     3
 10
23418.267801999958
 20
19660.314888000001
 30
0.0
 11
23418.267801999958
 21
19667.320403999991
 31
0.0
  0
LINE
  5
4AA7
  8
2-0
  6
CONTINUOUS
 62
     3
 10
23418.267801999958
 20
19667.320403999991
 30
0.0
 11
23413.26753799996
 21
19667.320403999991
 31
0.0
  0
LINE
  5
4AA8
  8
2-0
  6
CONTINUOUS
 62
     3
 10
23413.26753799996
 20
19667.320403999991
 30
0.0
 11
23413.26753799996
 21
19642.311166999989
 31
0.0
  0
LINE
  5
4AA9
  8
2-0
  6
CONTINUOUS
 62
     3
 10
23413.26753799996
 20
19642.311166999989
 30
0.0
 11
23431.26927999996
 21
19642.311166999989
 31
0.0
  0
LINE
  5
4AAA
  8
2-0
  6
CONTINUOUS
 62
     3
 10
23431.26927999996
 20
19642.311166999989
 30
0.0
 11
23431.26927999996
 21
19672.314729999998
 31
0.0
  0
LINE
  5
4AAB
  8
2-0
  6
CONTINUOUS
 62
     3
 10
23415.16985499996
 20
19642.311166999989
 30
0.0
 11
23421.17373499996
 21
19642.311166999989
 31
0.0
  0
LINE
  5
4AAC
  8
2-0
  6
CONTINUOUS
 62
     3
 10
23421.17373499996
 20
19642.311166999989
 30
0.0
 11
23421.17373499996
 21
19672.314729999998
 31
0.0
  0
LINE
  5
4AAD
  8
2-0
  6
CONTINUOUS
 62
     3
 10
23384.178512999959
 20
19672.314729999998
 30
0.0
 11
23421.17373499996
 21
19672.314729999998
 31
0.0
  0
LINE
  5
4AAE
  8
2-0
  6
CONTINUOUS
 62
     3
 10
23384.178512999959
 20
19642.311166999989
 30
0.0
 11
23384.178512999959
 21
19672.314729999998
 31
0.0
  0
LINE
  5
4AAF
  8
2-0
  6
CONTINUOUS
 62
     3
 10
23390.172494999981
 20
19642.311166999989
 30
0.0
 11
23384.178512999959
 21
19642.311166999989
 31
0.0
  0
LINE
  5
4AB0
  8
2-0
  6
CONTINUOUS
 62
     3
 10
23374.082967999959
 20
19642.311166999989
 30
0.0
 11
23374.082967999959
 21
19672.314729999998
 31
0.0
  0
LINE
  5
4AB1
  8
2-0
  6
CONTINUOUS
 62
     3
 10
23392.078770999971
 20
19642.311166999989
 30
0.0
 11
23374.082967999959
 21
19642.311166999989
 31
0.0
  0
LINE
  5
4AB2
  8
2-0
  6
CONTINUOUS
 62
     3
 10
23392.078770999971
 20
19667.320403999991
 30
0.0
 11
23392.078770999971
 21
19642.311166999989
 31
0.0
  0
LINE
  5
4AB3
  8
2-0
  6
CONTINUOUS
 62
     3
 10
23387.080486999981
 20
19667.320403999991
 30
0.0
 11
23392.078770999971
 21
19667.320403999991
 31
0.0
  0
LINE
  5
4AB4
  8
2-0
  6
CONTINUOUS
 62
     3
 10
23387.080486999981
 20
19660.314888000001
 30
0.0
 11
23387.080486999981
 21
19667.320403999991
 31
0.0
  0
LINE
  5
4AB5
  8
2-0
  6
CONTINUOUS
 62
     3
 10
23077.98136599996
 20
19672.314729999998
 30
0.0
 11
23374.082967999959
 21
19672.314729999998
 31
0.0
  0
LINE
  5
4AB6
  8
2-0
  6
CONTINUOUS
 62
     3
 10
22256.365577999961
 20
19672.314729999998
 30
0.0
 11
22219.364415999971
 21
19672.314729999998
 31
0.0
  0
LINE
  5
4AB7
  8
2-0
  6
CONTINUOUS
 62
     3
 10
22256.365577999961
 20
19642.311166999989
 30
0.0
 11
22256.365577999961
 21
19672.314729999998
 31
0.0
  0
LINE
  5
4AB8
  8
2-0
  6
CONTINUOUS
 62
     3
 10
22250.365656999958
 20
19642.311166999989
 30
0.0
 11
22256.365577999961
 21
19642.311166999989
 31
0.0
  0
LINE
  5
4AB9
  8
2-0
  6
CONTINUOUS
 62
     3
 10
22266.46310199998
 20
19642.311166999989
 30
0.0
 11
22266.46310199998
 21
19672.314729999998
 31
0.0
  0
LINE
  5
4ABA
  8
2-0
  6
CONTINUOUS
 62
     3
 10
22248.459380999961
 20
19642.311166999989
 30
0.0
 11
22266.46310199998
 21
19642.311166999989
 31
0.0
  0
LINE
  5
4ABB
  8
2-0
  6
CONTINUOUS
 62
     3
 10
22248.459380999961
 20
19667.320403999991
 30
0.0
 11
22248.459380999961
 21
19642.311166999989
 31
0.0
  0
LINE
  5
4ABC
  8
2-0
  6
CONTINUOUS
 62
     3
 10
22253.45964499997
 20
19667.320403999991
 30
0.0
 11
22248.459380999961
 21
19667.320403999991
 31
0.0
  0
LINE
  5
4ABD
  8
2-0
  6
CONTINUOUS
 62
     3
 10
22253.45964499997
 20
19660.314888000001
 30
0.0
 11
22253.45964499997
 21
19667.320403999991
 31
0.0
  0
LINE
  5
4ABE
  8
2-0
  6
CONTINUOUS
 62
     3
 10
22222.27034999997
 20
19660.314888000001
 30
0.0
 11
22222.27034999997
 21
19667.320403999991
 31
0.0
  0
LINE
  5
4ABF
  8
2-0
  6
CONTINUOUS
 62
     3
 10
22222.27034999997
 20
19667.320403999991
 30
0.0
 11
22227.270613999968
 21
19667.320403999991
 31
0.0
  0
LINE
  5
4AC0
  8
2-0
  6
CONTINUOUS
 62
     3
 10
22227.270613999968
 20
19667.320403999991
 30
0.0
 11
22227.270613999968
 21
19642.311166999989
 31
0.0
  0
LINE
  5
4AC1
  8
2-0
  6
CONTINUOUS
 62
     3
 10
22227.270613999968
 20
19642.311166999989
 30
0.0
 11
22209.270850999968
 21
19642.311166999989
 31
0.0
  0
LINE
  5
4AC2
  8
2-0
  6
CONTINUOUS
 62
     3
 10
22209.270850999968
 20
19642.311166999989
 30
0.0
 11
22209.270850999968
 21
19672.314729999998
 31
0.0
  0
LINE
  5
4AC3
  8
2-0
  6
CONTINUOUS
 62
     3
 10
22225.36433699997
 20
19642.311166999989
 30
0.0
 11
22219.364415999971
 21
19642.311166999989
 31
0.0
  0
LINE
  5
4AC4
  8
2-0
  6
CONTINUOUS
 62
     3
 10
22219.364415999971
 20
19642.311166999989
 30
0.0
 11
22219.364415999971
 21
19672.314729999998
 31
0.0
  0
LINE
  5
4AC5
  8
2-0
  6
CONTINUOUS
 62
     3
 10
22913.748626999961
 20
19672.314729999998
 30
0.0
 11
22266.46310199998
 21
19672.314729999998
 31
0.0
  0
LINE
  5
4AC6
  8
2-0
  6
CONTINUOUS
 62
     3
 10
22209.270850999968
 20
19672.314729999998
 30
0.0
 11
22117.255674
 21
19672.314729999998
 31
0.0
  0
LINE
  5
4AC7
  8
2-0
  6
CONTINUOUS
 62
     3
 10
21618.573649499991
 20
19660.314888000001
 30
0.0
 11
21618.573649499991
 21
19667.320403999991
 31
0.0
  0
LINE
  5
4AC8
  8
2-0
  6
CONTINUOUS
 62
     3
 10
21618.573649499991
 20
19667.320403999991
 30
0.0
 11
21613.573385499982
 21
19667.320403999991
 31
0.0
  0
LINE
  5
4AC9
  8
2-0
  6
CONTINUOUS
 62
     3
 10
21613.573385499982
 20
19667.320403999991
 30
0.0
 11
21613.573385499982
 21
19642.311166999989
 31
0.0
  0
LINE
  5
4ACA
  8
2-0
  6
CONTINUOUS
 62
     3
 10
21613.573385499982
 20
19642.311166999989
 30
0.0
 11
21631.579086500002
 21
19642.311166999989
 31
0.0
  0
LINE
  5
4ACB
  8
2-0
  6
CONTINUOUS
 62
     3
 10
21631.579086500002
 20
19642.311166999989
 30
0.0
 11
21631.579086500002
 21
19672.314729999998
 31
0.0
  0
LINE
  5
4ACC
  8
2-0
  6
CONTINUOUS
 62
     3
 10
21615.481641499991
 20
19642.311166999989
 30
0.0
 11
21621.483541500002
 21
19642.311166999989
 31
0.0
  0
LINE
  5
4ACD
  8
2-0
  6
CONTINUOUS
 62
     3
 10
21621.483541500002
 20
19642.311166999989
 30
0.0
 11
21621.483541500002
 21
19672.314729999998
 31
0.0
  0
LINE
  5
4ACE
  8
2-0
  6
CONTINUOUS
 62
     3
 10
21584.484360499991
 20
19672.314729999998
 30
0.0
 11
21621.483541500002
 21
19672.314729999998
 31
0.0
  0
LINE
  5
4ACF
  8
2-0
  6
CONTINUOUS
 62
     3
 10
21584.484360499991
 20
19642.311166999989
 30
0.0
 11
21584.484360499991
 21
19672.314729999998
 31
0.0
  0
LINE
  5
4AD0
  8
2-0
  6
CONTINUOUS
 62
     3
 10
21590.478342499991
 20
19642.311166999989
 30
0.0
 11
21584.484360499991
 21
19642.311166999989
 31
0.0
  0
LINE
  5
4AD1
  8
2-0
  6
CONTINUOUS
 62
     3
 10
21574.388815499999
 20
19642.311166999989
 30
0.0
 11
21574.388815499999
 21
19672.314729999998
 31
0.0
  0
LINE
  5
4AD2
  8
2-0
  6
CONTINUOUS
 62
     3
 10
21592.384618499978
 20
19642.311166999989
 30
0.0
 11
21574.388815499999
 21
19642.311166999989
 31
0.0
  0
LINE
  5
4AD3
  8
2-0
  6
CONTINUOUS
 62
     3
 10
21592.384618499978
 20
19667.320403999991
 30
0.0
 11
21592.384618499978
 21
19642.311166999989
 31
0.0
  0
LINE
  5
4AD4
  8
2-0
  6
CONTINUOUS
 62
     3
 10
21587.384354499991
 20
19667.320403999991
 30
0.0
 11
21592.384618499978
 21
19667.320403999991
 31
0.0
  0
LINE
  5
4AD5
  8
2-0
  6
CONTINUOUS
 62
     3
 10
21587.384354499991
 20
19660.314888000001
 30
0.0
 11
21587.384354499991
 21
19667.320403999991
 31
0.0
  0
LINE
  5
4AD6
  8
2-0
  6
CONTINUOUS
 62
     3
 10
20930.782976999992
 20
19672.314729999998
 30
0.0
 11
21574.388815499999
 21
19672.314729999998
 31
0.0
  0
LINE
  5
4AD7
  8
2-0
  6
CONTINUOUS
 62
     3
 10
20917.575628999992
 20
19660.314888000001
 30
0.0
 11
20917.575628999992
 21
19667.320403999991
 31
0.0
  0
LINE
  5
4AD8
  8
2-0
  6
CONTINUOUS
 62
     3
 10
20917.575628999992
 20
19667.320403999991
 30
0.0
 11
20912.57536499999
 21
19667.320403999991
 31
0.0
  0
LINE
  5
4AD9
  8
2-0
  6
CONTINUOUS
 62
     3
 10
20912.57536499999
 20
19667.320403999991
 30
0.0
 11
20912.57536499999
 21
19642.311166999989
 31
0.0
  0
LINE
  5
4ADA
  8
2-0
  6
CONTINUOUS
 62
     3
 10
20912.57536499999
 20
19642.311166999989
 30
0.0
 11
20930.577107000008
 21
19642.311166999989
 31
0.0
  0
LINE
  5
4ADB
  8
2-0
  6
CONTINUOUS
 62
     3
 10
20930.577107000008
 20
19642.311166999989
 30
0.0
 11
20930.577107000008
 21
19672.314729999998
 31
0.0
  0
LINE
  5
4ADC
  8
2-0
  6
CONTINUOUS
 62
     3
 10
20914.477682000012
 20
19642.311166999989
 30
0.0
 11
20920.48156199999
 21
19642.311166999989
 31
0.0
  0
LINE
  5
4ADD
  8
2-0
  6
CONTINUOUS
 62
     3
 10
20920.48156199999
 20
19642.311166999989
 30
0.0
 11
20920.48156199999
 21
19672.314729999998
 31
0.0
  0
LINE
  5
4ADE
  8
2-0
  6
CONTINUOUS
 62
     3
 10
20883.486339999989
 20
19672.314729999998
 30
0.0
 11
20920.48156199999
 21
19672.314729999998
 31
0.0
  0
LINE
  5
4ADF
  8
2-0
  6
CONTINUOUS
 62
     3
 10
20883.486339999989
 20
19642.311166999989
 30
0.0
 11
20883.486339999989
 21
19672.314729999998
 31
0.0
  0
LINE
  5
4AE0
  8
2-0
  6
CONTINUOUS
 62
     3
 10
20889.480321999999
 20
19642.311166999989
 30
0.0
 11
20883.486339999989
 21
19642.311166999989
 31
0.0
  0
LINE
  5
4AE1
  8
2-0
  6
CONTINUOUS
 62
     3
 10
20873.390794999988
 20
19642.311166999989
 30
0.0
 11
20873.390794999988
 21
19672.314729999998
 31
0.0
  0
LINE
  5
4AE2
  8
2-0
  6
CONTINUOUS
 62
     3
 10
20891.386598000008
 20
19642.311166999989
 30
0.0
 11
20873.390794999988
 21
19642.311166999989
 31
0.0
  0
LINE
  5
4AE3
  8
2-0
  6
CONTINUOUS
 62
     3
 10
20891.386598000008
 20
19667.320403999991
 30
0.0
 11
20891.386598000008
 21
19642.311166999989
 31
0.0
  0
LINE
  5
4AE4
  8
2-0
  6
CONTINUOUS
 62
     3
 10
20886.388313999989
 20
19667.320403999991
 30
0.0
 11
20891.386598000008
 21
19667.320403999991
 31
0.0
  0
LINE
  5
4AE5
  8
2-0
  6
CONTINUOUS
 62
     3
 10
20886.388313999989
 20
19660.314888000001
 30
0.0
 11
20886.388313999989
 21
19667.320403999991
 31
0.0
  0
LINE
  5
4AE6
  8
2-0
  6
CONTINUOUS
 62
     3
 10
20577.28919299999
 20
19672.314729999998
 30
0.0
 11
20873.390794999988
 21
19672.314729999998
 31
0.0
  0
LINE
  5
4AE7
  8
2-0
  6
CONTINUOUS
 62
     3
 10
21817.255674
 20
19672.314729999998
 30
0.0
 11
21631.579086500002
 21
19672.314729999998
 31
0.0
  0
LINE
  5
4AE8
  8
2-0
  6
CONTINUOUS
 62
     3
 10
26306.174407999959
 20
15574.95588199998
 30
0.0
 11
26306.174407999959
 21
14930.91702399998
 31
0.0
  0
LINE
  5
4AE9
  8
SUNPOU
  6
CONTINUOUS
 10
3401.3224659664438
 20
19852.312354000002
 30
0.0
 11
3401.3224659664438
 21
20649.27962177846
 31
0.0
  0
LINE
  5
4AEA
  8
SUNPOU
  6
CONTINUOUS
 10
3401.3224659664438
 20
14302.32112999998
 30
0.0
 11
3401.3224659664438
 21
13626.8950141896
 31
0.0
  0
LINE
  5
4AEB
  8
SUNPOU
  6
CONTINUOUS
 10
7666.8845009999914
 20
9360.7302629999976
 30
0.0
 11
7191.5953883597576
 21
9360.7302629999976
 31
0.0
  0
LINE
  5
4AEC
  8
SUNPOU
  6
CONTINUOUS
 10
27356.175727999958
 20
19629.816444999949
 30
0.0
 11
27356.175727999958
 21
20331.188877142398
 31
0.0
  0
LINE
  5
4AED
  8
SUNPOU
  6
CONTINUOUS
 10
27356.175727999958
 20
14494.81644499998
 30
0.0
 11
27356.175727999958
 21
13693.820980239299
 31
0.0
  0
LINE
  5
4AF0
  8
WAKUSEN-01
 10
868.00000000000193
 20
22484.000000000011
 30
0.0
 11
32764.000000000011
 21
22484.000000000011
 31
0.0
  0
LINE
  5
4AF3
  8
WAKUSEN-01
 10
20560.0
 20
2484.0
 30
0.0
 11
32764.0
 21
2484.0
 31
0.0
  0
LINE
  5
4AF4
  8
WAKUSEN-02
 10
20560.0
 20
1655.9999999999991
 30
0.0
 11
26868.0
 21
1655.9999999999991
 31
0.0
  0
TEXT
  5
4AF5
  8
WAKUMOJI-01
 10
20670.260259962761
 20
2125.9030093393221
 30
0.0
 40
240.0
  1
名　称
  7
WAKUMOJI
  0
TEXT
  5
4AF6
  8
WAKUMOJI-01
 10
20656.505485091919
 20
1319.12897497982
 30
0.0
 40
240.0
  1
機種名
  7
WAKUMOJI
  0
LINE
  5
4AF9
  8
YODOROGO
 10
29977.604341291921
 20
1995.7494964292871
 30
0.0
 11
29829.604341291921
 21
1995.7494964292871
 31
0.0
1001
AUTOCAD_POSTSCRIPT_FIGURE
1002
{
1000
PSFILL
1000
Grayscale
1000
Grayscale
1070
    25
1002
}
  0
LINE
  5
4AFA
  8
YODOROGO
 10
29829.604341291921
 20
1947.749496429288
 30
0.0
 11
29977.604341291921
 21
1947.749496429288
 31
0.0
1001
AUTOCAD_POSTSCRIPT_FIGURE
1002
{
1000
PSFILL
1000
Grayscale
1000
Grayscale
1070
    25
1002
}
  0
LINE
  5
4AFB
  8
YODOROGO
 10
29977.604341291921
 20
1907.7494964292871
 30
0.0
 11
29829.604341291921
 21
1907.7494964292871
 31
0.0
1001
AUTOCAD_POSTSCRIPT_FIGURE
1002
{
1000
PSFILL
1000
Grayscale
1000
Grayscale
1070
    25
1002
}
  0
LINE
  5
4AFC
  8
YODOROGO
 10
29829.604341291921
 20
1859.749496429288
 30
0.0
 11
29977.604341291921
 21
1859.749496429288
 31
0.0
1001
AUTOCAD_POSTSCRIPT_FIGURE
1002
{
1000
PSFILL
1000
Grayscale
1000
Grayscale
1070
    25
1002
}
  0
LINE
  5
4AFD
  8
YODOROGO
 10
29977.604341291921
 20
1819.7494964292871
 30
0.0
 11
29829.604341291921
 21
1819.7494964292871
 31
0.0
1001
AUTOCAD_POSTSCRIPT_FIGURE
1002
{
1000
PSFILL
1000
Grayscale
1000
Grayscale
1070
    25
1002
}
  0
LINE
  5
4AFE
  8
YODOROGO
 10
29921.60434129191
 20
1707.749496429288
 30
0.0
 11
29977.604341291921
 21
1707.749496429288
 31
0.0
1001
AUTOCAD_POSTSCRIPT_FIGURE
1002
{
1000
PSFILL
1000
Grayscale
1000
Grayscale
1070
    25
1002
}
  0
LINE
  5
4AFF
  8
YODOROGO
 10
29737.604341291921
 20
1427.749496429288
 30
0.0
 11
29937.604341291932
 21
1481.3393349155101
 31
0.0
  0
LINE
  5
4B00
  8
YODOROGO
 10
29949.60434129191
 20
1707.749496429288
 30
0.0
 11
29885.604341291921
 21
1707.749496429288
 31
0.0
  0
ARC
  5
4B01
  8
YODOROGO
 10
30254.34774982791
 20
1807.864609233261
 30
0.0
 40
381.88686420564721
 50
213.96111677667841
 51
264.47872074317792
  0
ARC
  5
4B02
  8
YODOROGO
 10
30254.347749827921
 20
1807.864609233302
 30
0.0
 40
381.8868642056816
 50
208.14114420486601
 51
212.9210361185994
  0
LINE
  5
4B03
  8
YODOROGO
 10
29771.409872985321
 20
1556.807661346234
 30
0.0
 11
29933.78413250855
 21
1600.3157130570869
 31
0.0
  0
LINE
  5
4B04
  8
YODOROGO
 10
29737.604341291921
 20
1427.749496429288
 30
0.0
 11
29937.604341291932
 21
1481.3393349155101
 31
0.0
  0
LINE
  5
4B05
  8
YODOROGO
 10
29949.60434129191
 20
1707.749496429288
 30
0.0
 11
29885.604341291921
 21
1707.749496429288
 31
0.0
  0
ARC
  5
4B06
  8
YODOROGO
 10
30254.34774982791
 20
1807.864609233261
 30
0.0
 40
381.88686420564721
 50
213.96111677667841
 51
264.47872074317792
  0
LINE
  5
4B07
  8
YODOROGO
 10
28793.60434129191
 20
1819.7494964292871
 30
0.0
 11
28433.60434129191
 21
1819.7494964292871
 31
0.0
  0
LINE
  5
4B08
  8
YODOROGO
 10
28513.60434129191
 20
1427.749496429288
 30
0.0
 11
28793.60434129191
 21
1427.749496429288
 31
0.0
  0
LINE
  5
4B09
  8
YODOROGO
 10
28729.604341291921
 20
1923.7494964292871
 30
0.0
 11
28497.60434129191
 21
1923.7494964292871
 31
0.0
  0
LINE
  5
4B0A
  8
YODOROGO
 10
28585.604341291921
 20
2027.749496429288
 30
0.0
 11
28657.604341291921
 21
2027.749496429288
 31
0.0
  0
LINE
  5
4B0B
  8
YODOROGO
 10
28433.60434129191
 20
1707.749496429288
 30
0.0
 11
28433.60434129191
 21
1507.749496429288
 31
0.0
  0
LINE
  5
4B0C
  8
YODOROGO
 10
28497.60434129191
 20
1563.7494964292871
 30
0.0
 11
28497.60434129191
 21
1707.749496429288
 31
0.0
  0
LINE
  5
4B0D
  8
YODOROGO
 10
28585.604341291921
 20
1747.74949642929
 30
0.0
 11
28585.604341291921
 21
1547.749496429288
 31
0.0
  0
LINE
  5
4B0E
  8
YODOROGO
 10
27857.604341291921
 20
1683.749496429288
 30
0.0
 11
27777.604341291921
 21
1619.9724140445701
 31
0.0
  0
LINE
  5
4B0F
  8
YODOROGO
 10
27937.604341291921
 20
1619.9724140445701
 30
0.0
 11
27857.604341291921
 21
1683.749496429288
 31
0.0
  0
LINE
  5
4B10
  8
YODOROGO
 10
27857.604341291921
 20
1707.749496429288
 30
0.0
 11
27937.604341291921
 21
1643.9724140445701
 31
0.0
  0
LINE
  5
4B11
  8
YODOROGO
 10
27777.604341291921
 20
1643.9724140445701
 30
0.0
 11
27857.604341291921
 21
1707.749496429288
 31
0.0
  0
LINE
  5
4B12
  8
YODOROGO
 10
28040.913204016892
 20
1659.749496429288
 30
0.0
 11
28040.913204016892
 21
1683.7494964292871
 31
0.0
  0
LINE
  5
4B13
  8
YODOROGO
 10
27977.604341291921
 20
1683.7494964292871
 30
0.0
 11
27977.604341291921
 21
1667.749496429285
 31
0.0
  0
LINE
  5
4B14
  8
YODOROGO
 10
28098.135520230931
 20
1707.749496429288
 30
0.0
 11
28098.135520230931
 21
1655.5036372746561
 31
0.0
1001
AUTOCAD_POSTSCRIPT_FIGURE
1002
{
1000
PSFILL
1000
Grayscale
1000
Grayscale
1070
   100
1002
}
  0
LINE
  5
4B15
  8
YODOROGO
 10
28082.135520230921
 20
1655.5036372746561
 30
0.0
 11
28082.135520230921
 21
1707.749496429288
 31
0.0
1001
AUTOCAD_POSTSCRIPT_FIGURE
1002
{
1000
PSFILL
1000
Grayscale
1000
Grayscale
1070
   100
1002
}
  0
LINE
  5
4B16
  8
YODOROGO
 10
27809.604341291921
 20
1608.771904043258
 30
0.0
 11
27809.604341291921
 21
1632.771904043258
 31
0.0
  0
LINE
  5
4B17
  8
YODOROGO
 10
27905.604341291921
 20
1608.771904043258
 30
0.0
 11
27809.604341291921
 21
1608.771904043258
 31
0.0
  0
LINE
  5
4B18
  8
YODOROGO
 10
27905.604341291921
 20
1632.771904043258
 30
0.0
 11
27905.604341291921
 21
1608.771904043258
 31
0.0
  0
LINE
  5
4B19
  8
YODOROGO
 10
27809.604341291921
 20
1632.771904043258
 30
0.0
 11
27905.604341291921
 21
1632.771904043258
 31
0.0
  0
LINE
  5
4B1A
  8
YODOROGO
 10
27824.509588915738
 20
1568.5028573704751
 30
0.0
 11
27785.604341291921
 21
1475.7494964292871
 31
0.0
1001
AUTOCAD_POSTSCRIPT_FIGURE
1002
{
1000
PSFILL
1000
Grayscale
1000
Grayscale
1070
   100
1002
}
  0
LINE
  5
4B1B
  8
YODOROGO
 10
27777.604341291921
 20
1568.5028573704751
 30
0.0
 11
27824.509588915738
 21
1568.5028573704751
 31
0.0
1001
AUTOCAD_POSTSCRIPT_FIGURE
1002
{
1000
PSFILL
1000
Grayscale
1000
Grayscale
1070
   100
1002
}
  0
LINE
  5
4B1C
  8
YODOROGO
 10
27777.604341291921
 20
1588.5028573704751
 30
0.0
 11
27777.604341291921
 21
1568.5028573704751
 31
0.0
1001
AUTOCAD_POSTSCRIPT_FIGURE
1002
{
1000
PSFILL
1000
Grayscale
1000
Grayscale
1070
   100
1002
}
  0
LINE
  5
4B1D
  8
YODOROGO
 10
27937.604341291921
 20
1588.5028573704751
 30
0.0
 11
27777.604341291921
 21
1588.5028573704751
 31
0.0
1001
AUTOCAD_POSTSCRIPT_FIGURE
1002
{
1000
PSFILL
1000
Grayscale
1000
Grayscale
1070
   100
1002
}
  0
LINE
  5
4B1E
  8
YODOROGO
 10
27937.604341291921
 20
1568.5028573704751
 30
0.0
 11
27937.604341291921
 21
1588.5028573704751
 31
0.0
1001
AUTOCAD_POSTSCRIPT_FIGURE
1002
{
1000
PSFILL
1000
Grayscale
1000
Grayscale
1070
   100
1002
}
  0
LINE
  5
4B1F
  8
YODOROGO
 10
27844.509588915738
 20
1568.5028573704751
 30
0.0
 11
27937.604341291921
 21
1568.5028573704751
 31
0.0
1001
AUTOCAD_POSTSCRIPT_FIGURE
1002
{
1000
PSFILL
1000
Grayscale
1000
Grayscale
1070
   100
1002
}
  0
LINE
  5
4B20
  8
YODOROGO
 10
27815.546718284771
 20
1495.7494964292871
 30
0.0
 11
27844.509588915738
 21
1568.5028573704751
 31
0.0
1001
AUTOCAD_POSTSCRIPT_FIGURE
1002
{
1000
PSFILL
1000
Grayscale
1000
Grayscale
1070
   100
1002
}
  0
LINE
  5
4B21
  8
YODOROGO
 10
27902.054790808648
 20
1495.7494964292871
 30
0.0
 11
27815.546718284771
 21
1495.7494964292871
 31
0.0
1001
AUTOCAD_POSTSCRIPT_FIGURE
1002
{
1000
PSFILL
1000
Grayscale
1000
Grayscale
1070
   100
1002
}
  0
LINE
  5
4B22
  8
YODOROGO
 10
27885.065004790951
 20
1536.2338106976929
 30
0.0
 11
27902.054790808648
 21
1495.7494964292871
 31
0.0
1001
AUTOCAD_POSTSCRIPT_FIGURE
1002
{
1000
PSFILL
1000
Grayscale
1000
Grayscale
1070
   100
1002
}
  0
LINE
  5
4B23
  8
YODOROGO
 10
27901.065004790951
 20
1536.2338106976929
 30
0.0
 11
27885.065004790951
 21
1536.2338106976929
 31
0.0
1001
AUTOCAD_POSTSCRIPT_FIGURE
1002
{
1000
PSFILL
1000
Grayscale
1000
Grayscale
1070
   100
1002
}
  0
LINE
  5
4B24
  8
YODOROGO
 10
27929.604341291921
 20
1475.7494964292871
 30
0.0
 11
27901.065004790951
 21
1536.2338106976929
 31
0.0
1001
AUTOCAD_POSTSCRIPT_FIGURE
1002
{
1000
PSFILL
1000
Grayscale
1000
Grayscale
1070
   100
1002
}
  0
LINE
  5
4B25
  8
YODOROGO
 10
27785.604341291921
 20
1475.7494964292871
 30
0.0
 11
27929.604341291921
 21
1475.7494964292871
 31
0.0
1001
AUTOCAD_POSTSCRIPT_FIGURE
1002
{
1000
PSFILL
1000
Grayscale
1000
Grayscale
1070
   100
1002
}
  0
LINE
  5
4B26
  8
YODOROGO
 10
27777.604341291921
 20
1619.9724140445701
 30
0.0
 11
27777.604341291921
 21
1643.9724140445701
 31
0.0
  0
LINE
  5
4B27
  8
YODOROGO
 10
27937.604341291921
 20
1643.9724140445701
 30
0.0
 11
27937.604341291921
 21
1619.9724140445701
 31
0.0
  0
ARC
  5
4B28
  8
YODOROGO
 10
28225.940442146959
 20
1600.877765325326
 30
0.0
 40
175.9999999999998
 50
280.3644312771313
 51
3.5414836592180561
  0
ARC
  5
4B29
  8
YODOROGO
 10
28235.756030759301
 20
1633.5978069619041
 30
0.0
 40
111.9999999999982
 50
281.24905825041549
 51
348.75094174958321
  0
LINE
  5
4B2A
  8
YODOROGO
 10
28257.604341291921
 20
1523.7494964292871
 30
0.0
 11
28257.604341291921
 21
1427.749496429288
 31
0.0
  0
LINE
  5
4B2B
  8
YODOROGO
 10
28020.088903736909
 20
1610.650565061914
 30
0.0
 11
28040.913204016892
 21
1659.749496429288
 31
0.0
  0
LINE
  5
4B2C
  8
YODOROGO
 10
28041.604341291921
 20
1583.120489948401
 30
0.0
 11
28020.088903736909
 21
1610.650565061914
 31
0.0
  0
LINE
  5
4B2D
  8
YODOROGO
 10
28041.604341291921
 20
1563.120489948398
 30
0.0
 11
28041.604341291921
 21
1583.120489948401
 31
0.0
  0
LINE
  5
4B2E
  8
YODOROGO
 10
28017.604341291921
 20
1585.2370637495301
 30
0.0
 11
28041.604341291921
 21
1563.120489948398
 31
0.0
  0
LINE
  5
4B2F
  8
YODOROGO
 10
28017.604341291921
 20
1475.7494964292871
 30
0.0
 11
28017.604341291921
 21
1585.2370637495301
 31
0.0
  0
LINE
  5
4B30
  8
YODOROGO
 10
28001.604341291921
 20
1475.7494964292871
 30
0.0
 11
28017.604341291921
 21
1475.7494964292871
 31
0.0
  0
LINE
  5
4B31
  8
YODOROGO
 10
28001.604341291921
 20
1580.0053496897469
 30
0.0
 11
28001.604341291921
 21
1475.7494964292871
 31
0.0
  0
LINE
  5
4B32
  8
YODOROGO
 10
27977.604341291921
 20
1532.7680790334291
 30
0.0
 11
28001.604341291921
 21
1580.0053496897469
 31
0.0
  0
LINE
  5
4B33
  8
YODOROGO
 10
27977.604341291921
 20
1556.76807903343
 30
0.0
 11
27977.604341291921
 21
1532.7680790334291
 31
0.0
  0
LINE
  5
4B34
  8
YODOROGO
 10
28025.828774291349
 20
1667.749496429285
 30
0.0
 11
27977.604341291921
 21
1556.76807903343
 31
0.0
  0
LINE
  5
4B35
  8
YODOROGO
 10
27977.604341291921
 20
1667.749496429285
 30
0.0
 11
28025.828774291349
 21
1667.749496429285
 31
0.0
  0
LINE
  5
4B36
  8
YODOROGO
 10
28050.135520230899
 20
1655.5036372746561
 30
0.0
 11
28082.135520230921
 21
1655.5036372746561
 31
0.0
1001
AUTOCAD_POSTSCRIPT_FIGURE
1002
{
1000
PSFILL
1000
Grayscale
1000
Grayscale
1070
   100
1002
}
  0
LINE
  5
4B37
  8
YODOROGO
 10
28050.135520230899
 20
1631.5036372746561
 30
0.0
 11
28050.135520230899
 21
1655.5036372746561
 31
0.0
1001
AUTOCAD_POSTSCRIPT_FIGURE
1002
{
1000
PSFILL
1000
Grayscale
1000
Grayscale
1070
   100
1002
}
  0
LINE
  5
4B38
  8
YODOROGO
 10
28082.135520230921
 20
1631.5036372746561
 30
0.0
 11
28050.135520230899
 21
1631.5036372746561
 31
0.0
1001
AUTOCAD_POSTSCRIPT_FIGURE
1002
{
1000
PSFILL
1000
Grayscale
1000
Grayscale
1070
   100
1002
}
  0
LINE
  5
4B39
  8
YODOROGO
 10
28082.135520230921
 20
1499.749496429288
 30
0.0
 11
28082.135520230921
 21
1631.5036372746561
 31
0.0
1001
AUTOCAD_POSTSCRIPT_FIGURE
1002
{
1000
PSFILL
1000
Grayscale
1000
Grayscale
1070
   100
1002
}
  0
LINE
  5
4B3A
  8
YODOROGO
 10
28050.135520230921
 20
1499.749496429288
 30
0.0
 11
28082.135520230921
 21
1499.749496429288
 31
0.0
1001
AUTOCAD_POSTSCRIPT_FIGURE
1002
{
1000
PSFILL
1000
Grayscale
1000
Grayscale
1070
   100
1002
}
  0
LINE
  5
4B3B
  8
YODOROGO
 10
28050.135520230921
 20
1475.7494964292871
 30
0.0
 11
28050.135520230921
 21
1499.749496429288
 31
0.0
1001
AUTOCAD_POSTSCRIPT_FIGURE
1002
{
1000
PSFILL
1000
Grayscale
1000
Grayscale
1070
   100
1002
}
  0
LINE
  5
4B3C
  8
YODOROGO
 10
28137.604341291921
 20
1475.7494964292871
 30
0.0
 11
28050.135520230921
 21
1475.7494964292871
 31
0.0
1001
AUTOCAD_POSTSCRIPT_FIGURE
1002
{
1000
PSFILL
1000
Grayscale
1000
Grayscale
1070
   100
1002
}
  0
LINE
  5
4B3D
  8
YODOROGO
 10
28137.604341291921
 20
1499.749496429288
 30
0.0
 11
28137.604341291921
 21
1475.7494964292871
 31
0.0
1001
AUTOCAD_POSTSCRIPT_FIGURE
1002
{
1000
PSFILL
1000
Grayscale
1000
Grayscale
1070
   100
1002
}
  0
LINE
  5
4B3E
  8
YODOROGO
 10
28098.135520230931
 20
1499.749496429288
 30
0.0
 11
28137.604341291921
 21
1499.749496429288
 31
0.0
1001
AUTOCAD_POSTSCRIPT_FIGURE
1002
{
1000
PSFILL
1000
Grayscale
1000
Grayscale
1070
   100
1002
}
  0
LINE
  5
4B3F
  8
YODOROGO
 10
28098.135520230931
 20
1631.5036372746561
 30
0.0
 11
28098.135520230931
 21
1499.749496429288
 31
0.0
1001
AUTOCAD_POSTSCRIPT_FIGURE
1002
{
1000
PSFILL
1000
Grayscale
1000
Grayscale
1070
   100
1002
}
  0
LINE
  5
4B40
  8
YODOROGO
 10
28137.604341291921
 20
1631.5036372746561
 30
0.0
 11
28098.135520230931
 21
1631.5036372746561
 31
0.0
1001
AUTOCAD_POSTSCRIPT_FIGURE
1002
{
1000
PSFILL
1000
Grayscale
1000
Grayscale
1070
   100
1002
}
  0
LINE
  5
4B41
  8
YODOROGO
 10
28137.604341291921
 20
1655.5036372746561
 30
0.0
 11
28137.604341291921
 21
1631.5036372746561
 31
0.0
1001
AUTOCAD_POSTSCRIPT_FIGURE
1002
{
1000
PSFILL
1000
Grayscale
1000
Grayscale
1070
   100
1002
}
  0
LINE
  5
4B42
  8
YODOROGO
 10
28098.135520230931
 20
1655.5036372746561
 30
0.0
 11
28137.604341291921
 21
1655.5036372746561
 31
0.0
1001
AUTOCAD_POSTSCRIPT_FIGURE
1002
{
1000
PSFILL
1000
Grayscale
1000
Grayscale
1070
   100
1002
}
  0
LINE
  5
4B43
  8
YODOROGO
 10
28401.60434129191
 20
1667.749496429288
 30
0.0
 11
28345.604341291921
 21
1667.749496429288
 31
0.0
  0
LINE
  5
4B44
  8
YODOROGO
 10
28401.60434129191
 20
1611.749496429288
 30
0.0
 11
28401.60434129191
 21
1667.749496429288
 31
0.0
  0
LINE
  5
4B45
  8
YODOROGO
 10
28345.604341291921
 20
1667.749496429288
 30
0.0
 11
28345.604341291921
 21
1611.749496429288
 31
0.0
  0
ARC
  5
4B46
  8
YODOROGO
 10
28513.60434129191
 20
1507.749496429288
 30
0.0
 40
80.0
 50
180.0
 51
270.0
  0
ARC
  5
4B47
  8
YODOROGO
 10
28537.604341291921
 20
1563.7494964292871
 30
0.0
 40
40.0
 50
180.0
 51
270.0
  0
LINE
  5
4B48
  8
YODOROGO
 10
28561.604341291932
 20
1523.7494964292871
 30
0.0
 11
28537.604341291921
 21
1523.7494964292871
 31
0.0
  0
ARC
  5
4B49
  8
YODOROGO
 10
28561.604341291932
 20
1547.749496429285
 30
0.0
 40
23.999999999996358
 50
270.0
 51
0.0000000000054281
  0
LINE
  5
4B4A
  8
YODOROGO
 10
27801.604341291921
 20
1890.786580793706
 30
0.0
 11
27777.604341291921
 21
1843.776747951672
 31
0.0
1001
AUTOCAD_POSTSCRIPT_FIGURE
1002
{
1000
PSFILL
1000
Grayscale
1000
Grayscale
1070
   100
1002
}
  0
LINE
  5
4B4B
  8
YODOROGO
 10
27801.604341291921
 20
1747.749496429286
 30
0.0
 11
27801.604341291921
 21
1890.786580793706
 31
0.0
1001
AUTOCAD_POSTSCRIPT_FIGURE
1002
{
1000
PSFILL
1000
Grayscale
1000
Grayscale
1070
   100
1002
}
  0
LINE
  5
4B4C
  8
YODOROGO
 10
27817.604341291921
 20
1747.749496429286
 30
0.0
 11
27801.604341291921
 21
1747.749496429286
 31
0.0
1001
AUTOCAD_POSTSCRIPT_FIGURE
1002
{
1000
PSFILL
1000
Grayscale
1000
Grayscale
1070
   100
1002
}
  0
LINE
  5
4B4D
  8
YODOROGO
 10
27817.604341291921
 20
1893.7713320852661
 30
0.0
 11
27817.604341291921
 21
1747.749496429286
 31
0.0
1001
AUTOCAD_POSTSCRIPT_FIGURE
1002
{
1000
PSFILL
1000
Grayscale
1000
Grayscale
1070
   100
1002
}
  0
LINE
  5
4B4E
  8
YODOROGO
 10
27841.604341291921
 20
1867.6547582841361
 30
0.0
 11
27817.604341291921
 21
1893.7713320852661
 31
0.0
1001
AUTOCAD_POSTSCRIPT_FIGURE
1002
{
1000
PSFILL
1000
Grayscale
1000
Grayscale
1070
   100
1002
}
  0
LINE
  5
4B4F
  8
YODOROGO
 10
27841.604341291921
 20
1883.6547582841361
 30
0.0
 11
27841.604341291921
 21
1867.6547582841361
 31
0.0
1001
AUTOCAD_POSTSCRIPT_FIGURE
1002
{
1000
PSFILL
1000
Grayscale
1000
Grayscale
1070
   100
1002
}
  0
LINE
  5
4B50
  8
YODOROGO
 10
27817.604341291921
 20
1917.7713320852649
 30
0.0
 11
27841.604341291921
 21
1883.6547582841361
 31
0.0
1001
AUTOCAD_POSTSCRIPT_FIGURE
1002
{
1000
PSFILL
1000
Grayscale
1000
Grayscale
1070
   100
1002
}
  0
LINE
  5
4B51
  8
YODOROGO
 10
27817.604341291921
 20
1939.749496429288
 30
0.0
 11
27817.604341291921
 21
1917.7713320852649
 31
0.0
1001
AUTOCAD_POSTSCRIPT_FIGURE
1002
{
1000
PSFILL
1000
Grayscale
1000
Grayscale
1070
   100
1002
}
  0
LINE
  5
4B52
  8
YODOROGO
 10
27889.604341291921
 20
1939.749496429288
 30
0.0
 11
27817.604341291921
 21
1939.749496429288
 31
0.0
1001
AUTOCAD_POSTSCRIPT_FIGURE
1002
{
1000
PSFILL
1000
Grayscale
1000
Grayscale
1070
   100
1002
}
  0
LINE
  5
4B53
  8
YODOROGO
 10
27889.604341291921
 20
1900.5683489363
 30
0.0
 11
27889.604341291921
 21
1939.749496429288
 31
0.0
1001
AUTOCAD_POSTSCRIPT_FIGURE
1002
{
1000
PSFILL
1000
Grayscale
1000
Grayscale
1070
   100
1002
}
  0
LINE
  5
4B54
  8
YODOROGO
 10
27857.604341291921
 20
1900.5683489363
 30
0.0
 11
27889.604341291921
 21
1900.5683489363
 31
0.0
1001
AUTOCAD_POSTSCRIPT_FIGURE
1002
{
1000
PSFILL
1000
Grayscale
1000
Grayscale
1070
   100
1002
}
  0
LINE
  5
4B55
  8
YODOROGO
 10
27857.604341291921
 20
1884.568348936298
 30
0.0
 11
27857.604341291921
 21
1900.5683489363
 31
0.0
1001
AUTOCAD_POSTSCRIPT_FIGURE
1002
{
1000
PSFILL
1000
Grayscale
1000
Grayscale
1070
   100
1002
}
  0
LINE
  5
4B56
  8
YODOROGO
 10
27889.604341291921
 20
1884.568348936298
 30
0.0
 11
27857.604341291921
 21
1884.568348936298
 31
0.0
1001
AUTOCAD_POSTSCRIPT_FIGURE
1002
{
1000
PSFILL
1000
Grayscale
1000
Grayscale
1070
   100
1002
}
  0
LINE
  5
4B57
  8
YODOROGO
 10
27889.604341291921
 20
1879.6191779644371
 30
0.0
 11
27889.604341291921
 21
1884.568348936298
 31
0.0
1001
AUTOCAD_POSTSCRIPT_FIGURE
1002
{
1000
PSFILL
1000
Grayscale
1000
Grayscale
1070
   100
1002
}
  0
LINE
  5
4B58
  8
YODOROGO
 10
27849.604341291921
 20
1812.974981161417
 30
0.0
 11
27889.604341291921
 21
1879.6191779644371
 31
0.0
1001
AUTOCAD_POSTSCRIPT_FIGURE
1002
{
1000
PSFILL
1000
Grayscale
1000
Grayscale
1070
   100
1002
}
  0
LINE
  5
4B59
  8
YODOROGO
 10
27849.604341291921
 20
1796.9749811614161
 30
0.0
 11
27849.604341291921
 21
1812.974981161417
 31
0.0
1001
AUTOCAD_POSTSCRIPT_FIGURE
1002
{
1000
PSFILL
1000
Grayscale
1000
Grayscale
1070
   100
1002
}
  0
LINE
  5
4B5A
  8
YODOROGO
 10
27889.604341291921
 20
1847.6191779644359
 30
0.0
 11
27849.604341291921
 21
1796.9749811614161
 31
0.0
1001
AUTOCAD_POSTSCRIPT_FIGURE
1002
{
1000
PSFILL
1000
Grayscale
1000
Grayscale
1070
   100
1002
}
  0
LINE
  5
4B5B
  8
YODOROGO
 10
27889.604341291921
 20
1747.749496429286
 30
0.0
 11
27889.604341291921
 21
1847.6191779644359
 31
0.0
1001
AUTOCAD_POSTSCRIPT_FIGURE
1002
{
1000
PSFILL
1000
Grayscale
1000
Grayscale
1070
   100
1002
}
  0
LINE
  5
4B5C
  8
YODOROGO
 10
27905.604341291921
 20
1747.749496429286
 30
0.0
 11
27889.604341291921
 21
1747.749496429286
 31
0.0
1001
AUTOCAD_POSTSCRIPT_FIGURE
1002
{
1000
PSFILL
1000
Grayscale
1000
Grayscale
1070
   100
1002
}
  0
LINE
  5
4B5D
  8
YODOROGO
 10
27905.604341291921
 20
1849.409012158806
 30
0.0
 11
27905.604341291921
 21
1747.749496429286
 31
0.0
1001
AUTOCAD_POSTSCRIPT_FIGURE
1002
{
1000
PSFILL
1000
Grayscale
1000
Grayscale
1070
   100
1002
}
  0
LINE
  5
4B5E
  8
YODOROGO
 10
27937.604341291921
 20
1796.9749811614161
 30
0.0
 11
27905.604341291921
 21
1849.409012158806
 31
0.0
1001
AUTOCAD_POSTSCRIPT_FIGURE
1002
{
1000
PSFILL
1000
Grayscale
1000
Grayscale
1070
   100
1002
}
  0
LINE
  5
4B5F
  8
YODOROGO
 10
27937.604341291921
 20
1812.974981161417
 30
0.0
 11
27937.604341291921
 21
1796.9749811614161
 31
0.0
1001
AUTOCAD_POSTSCRIPT_FIGURE
1002
{
1000
PSFILL
1000
Grayscale
1000
Grayscale
1070
   100
1002
}
  0
LINE
  5
4B60
  8
YODOROGO
 10
27905.604341291921
 20
1881.4090121588081
 30
0.0
 11
27937.604341291921
 21
1812.974981161417
 31
0.0
1001
AUTOCAD_POSTSCRIPT_FIGURE
1002
{
1000
PSFILL
1000
Grayscale
1000
Grayscale
1070
   100
1002
}
  0
LINE
  5
4B61
  8
YODOROGO
 10
27905.604341291921
 20
1884.5683489363
 30
0.0
 11
27905.604341291921
 21
1881.4090121588081
 31
0.0
1001
AUTOCAD_POSTSCRIPT_FIGURE
1002
{
1000
PSFILL
1000
Grayscale
1000
Grayscale
1070
   100
1002
}
  0
LINE
  5
4B62
  8
YODOROGO
 10
27937.604341291921
 20
1884.568348936298
 30
0.0
 11
27905.604341291921
 21
1884.5683489363
 31
0.0
1001
AUTOCAD_POSTSCRIPT_FIGURE
1002
{
1000
PSFILL
1000
Grayscale
1000
Grayscale
1070
   100
1002
}
  0
LINE
  5
4B63
  8
YODOROGO
 10
27937.604341291921
 20
1900.5683489363
 30
0.0
 11
27937.604341291921
 21
1884.568348936298
 31
0.0
1001
AUTOCAD_POSTSCRIPT_FIGURE
1002
{
1000
PSFILL
1000
Grayscale
1000
Grayscale
1070
   100
1002
}
  0
LINE
  5
4B64
  8
YODOROGO
 10
27905.604341291921
 20
1900.5683489363
 30
0.0
 11
27937.604341291921
 21
1900.5683489363
 31
0.0
1001
AUTOCAD_POSTSCRIPT_FIGURE
1002
{
1000
PSFILL
1000
Grayscale
1000
Grayscale
1070
   100
1002
}
  0
LINE
  5
4B65
  8
YODOROGO
 10
27905.604341291921
 20
1939.749496429288
 30
0.0
 11
27905.604341291921
 21
1900.5683489363
 31
0.0
1001
AUTOCAD_POSTSCRIPT_FIGURE
1002
{
1000
PSFILL
1000
Grayscale
1000
Grayscale
1070
   100
1002
}
  0
LINE
  5
4B66
  8
YODOROGO
 10
27937.604341291921
 20
1939.749496429288
 30
0.0
 11
27905.604341291921
 21
1939.749496429288
 31
0.0
1001
AUTOCAD_POSTSCRIPT_FIGURE
1002
{
1000
PSFILL
1000
Grayscale
1000
Grayscale
1070
   100
1002
}
  0
LINE
  5
4B67
  8
YODOROGO
 10
27937.604341291921
 20
1955.7494964292871
 30
0.0
 11
27937.604341291921
 21
1939.749496429288
 31
0.0
1001
AUTOCAD_POSTSCRIPT_FIGURE
1002
{
1000
PSFILL
1000
Grayscale
1000
Grayscale
1070
   100
1002
}
  0
LINE
  5
4B68
  8
YODOROGO
 10
27905.604341291921
 20
1955.7494964292871
 30
0.0
 11
27937.604341291921
 21
1955.7494964292871
 31
0.0
1001
AUTOCAD_POSTSCRIPT_FIGURE
1002
{
1000
PSFILL
1000
Grayscale
1000
Grayscale
1070
   100
1002
}
  0
LINE
  5
4B69
  8
YODOROGO
 10
27905.604341291921
 20
1979.749496429288
 30
0.0
 11
27905.604341291921
 21
1955.7494964292871
 31
0.0
1001
AUTOCAD_POSTSCRIPT_FIGURE
1002
{
1000
PSFILL
1000
Grayscale
1000
Grayscale
1070
   100
1002
}
  0
LINE
  5
4B6A
  8
YODOROGO
 10
27889.604341291921
 20
1979.749496429288
 30
0.0
 11
27905.604341291921
 21
1979.749496429288
 31
0.0
1001
AUTOCAD_POSTSCRIPT_FIGURE
1002
{
1000
PSFILL
1000
Grayscale
1000
Grayscale
1070
   100
1002
}
  0
LINE
  5
4B6B
  8
YODOROGO
 10
27889.604341291921
 20
1955.7494964292871
 30
0.0
 11
27889.604341291921
 21
1979.749496429288
 31
0.0
1001
AUTOCAD_POSTSCRIPT_FIGURE
1002
{
1000
PSFILL
1000
Grayscale
1000
Grayscale
1070
   100
1002
}
  0
LINE
  5
4B6C
  8
YODOROGO
 10
27865.604341291921
 20
1955.7494964292871
 30
0.0
 11
27889.604341291921
 21
1955.7494964292871
 31
0.0
1001
AUTOCAD_POSTSCRIPT_FIGURE
1002
{
1000
PSFILL
1000
Grayscale
1000
Grayscale
1070
   100
1002
}
  0
LINE
  5
4B6D
  8
YODOROGO
 10
27865.604341291921
 20
1979.749496429288
 30
0.0
 11
27865.604341291921
 21
1955.7494964292871
 31
0.0
1001
AUTOCAD_POSTSCRIPT_FIGURE
1002
{
1000
PSFILL
1000
Grayscale
1000
Grayscale
1070
   100
1002
}
  0
LINE
  5
4B6E
  8
YODOROGO
 10
27849.604341291921
 20
1979.749496429288
 30
0.0
 11
27865.604341291921
 21
1979.749496429288
 31
0.0
1001
AUTOCAD_POSTSCRIPT_FIGURE
1002
{
1000
PSFILL
1000
Grayscale
1000
Grayscale
1070
   100
1002
}
  0
LINE
  5
4B6F
  8
YODOROGO
 10
27849.604341291921
 20
1955.7494964292871
 30
0.0
 11
27849.604341291921
 21
1979.749496429288
 31
0.0
1001
AUTOCAD_POSTSCRIPT_FIGURE
1002
{
1000
PSFILL
1000
Grayscale
1000
Grayscale
1070
   100
1002
}
  0
LINE
  5
4B70
  8
YODOROGO
 10
27817.604341291921
 20
1955.7494964292871
 30
0.0
 11
27849.604341291921
 21
1955.7494964292871
 31
0.0
1001
AUTOCAD_POSTSCRIPT_FIGURE
1002
{
1000
PSFILL
1000
Grayscale
1000
Grayscale
1070
   100
1002
}
  0
LINE
  5
4B71
  8
YODOROGO
 10
27817.604341291921
 20
1979.749496429288
 30
0.0
 11
27817.604341291921
 21
1955.7494964292871
 31
0.0
1001
AUTOCAD_POSTSCRIPT_FIGURE
1002
{
1000
PSFILL
1000
Grayscale
1000
Grayscale
1070
   100
1002
}
  0
LINE
  5
4B72
  8
YODOROGO
 10
27801.604341291921
 20
1979.749496429288
 30
0.0
 11
27817.604341291921
 21
1979.749496429288
 31
0.0
1001
AUTOCAD_POSTSCRIPT_FIGURE
1002
{
1000
PSFILL
1000
Grayscale
1000
Grayscale
1070
   100
1002
}
  0
LINE
  5
4B73
  8
YODOROGO
 10
27801.604341291921
 20
1955.7494964292871
 30
0.0
 11
27801.604341291921
 21
1979.749496429288
 31
0.0
1001
AUTOCAD_POSTSCRIPT_FIGURE
1002
{
1000
PSFILL
1000
Grayscale
1000
Grayscale
1070
   100
1002
}
  0
LINE
  5
4B74
  8
YODOROGO
 10
27777.604341291921
 20
1955.7494964292871
 30
0.0
 11
27801.604341291921
 21
1955.7494964292871
 31
0.0
1001
AUTOCAD_POSTSCRIPT_FIGURE
1002
{
1000
PSFILL
1000
Grayscale
1000
Grayscale
1070
   100
1002
}
  0
LINE
  5
4B75
  8
YODOROGO
 10
27777.604341291921
 20
1939.749496429288
 30
0.0
 11
27777.604341291921
 21
1955.7494964292871
 31
0.0
1001
AUTOCAD_POSTSCRIPT_FIGURE
1002
{
1000
PSFILL
1000
Grayscale
1000
Grayscale
1070
   100
1002
}
  0
LINE
  5
4B76
  8
YODOROGO
 10
27801.604341291921
 20
1939.749496429288
 30
0.0
 11
27777.604341291921
 21
1939.749496429288
 31
0.0
1001
AUTOCAD_POSTSCRIPT_FIGURE
1002
{
1000
PSFILL
1000
Grayscale
1000
Grayscale
1070
   100
1002
}
  0
LINE
  5
4B77
  8
YODOROGO
 10
27801.604341291921
 20
1914.7865807937051
 30
0.0
 11
27801.604341291921
 21
1939.749496429288
 31
0.0
1001
AUTOCAD_POSTSCRIPT_FIGURE
1002
{
1000
PSFILL
1000
Grayscale
1000
Grayscale
1070
   100
1002
}
  0
LINE
  5
4B78
  8
YODOROGO
 10
27777.604341291921
 20
1859.776747951671
 30
0.0
 11
27801.604341291921
 21
1914.7865807937051
 31
0.0
1001
AUTOCAD_POSTSCRIPT_FIGURE
1002
{
1000
PSFILL
1000
Grayscale
1000
Grayscale
1070
   100
1002
}
  0
LINE
  5
4B79
  8
YODOROGO
 10
27777.604341291921
 20
1843.776747951672
 30
0.0
 11
27777.604341291921
 21
1859.776747951671
 31
0.0
1001
AUTOCAD_POSTSCRIPT_FIGURE
1002
{
1000
PSFILL
1000
Grayscale
1000
Grayscale
1070
   100
1002
}
  0
LINE
  5
4B7A
  8
YODOROGO
 10
28257.604341291921
 20
1867.7494964292871
 30
0.0
 11
28401.60434129191
 21
1824.877625640306
 31
0.0
1001
AUTOCAD_POSTSCRIPT_FIGURE
1002
{
1000
PSFILL
1000
Grayscale
1000
Grayscale
1070
   100
1002
}
  0
LINE
  5
4B7B
  8
YODOROGO
 10
28401.60434129191
 20
1752.877625640306
 30
0.0
 11
28257.604341291921
 21
1795.7494964292871
 31
0.0
1001
AUTOCAD_POSTSCRIPT_FIGURE
1002
{
1000
PSFILL
1000
Grayscale
1000
Grayscale
1070
   100
1002
}
  0
LINE
  5
4B7C
  8
YODOROGO
 10
28401.60434129191
 20
1984.877625640306
 30
0.0
 11
28257.604341291921
 21
2027.749496429288
 31
0.0
1001
AUTOCAD_POSTSCRIPT_FIGURE
1002
{
1000
PSFILL
1000
Grayscale
1000
Grayscale
1070
   100
1002
}
  0
LINE
  5
4B7D
  8
YODOROGO
 10
28257.604341291921
 20
1959.749496429288
 30
0.0
 11
28401.60434129191
 21
1916.8776256403071
 31
0.0
1001
AUTOCAD_POSTSCRIPT_FIGURE
1002
{
1000
PSFILL
1000
Grayscale
1000
Grayscale
1070
   100
1002
}
  0
LINE
  5
4B7E
  8
YODOROGO
 10
28257.604341291921
 20
1795.7494964292871
 30
0.0
 11
28257.604341291921
 21
1867.7494964292871
 31
0.0
1001
AUTOCAD_POSTSCRIPT_FIGURE
1002
{
1000
PSFILL
1000
Grayscale
1000
Grayscale
1070
   100
1002
}
  0
LINE
  5
4B7F
  8
YODOROGO
 10
28257.604341291921
 20
2027.749496429288
 30
0.0
 11
28257.604341291921
 21
1959.749496429288
 31
0.0
1001
AUTOCAD_POSTSCRIPT_FIGURE
1002
{
1000
PSFILL
1000
Grayscale
1000
Grayscale
1070
   100
1002
}
  0
LINE
  5
4B80
  8
YODOROGO
 10
28080.236320206739
 20
1939.749496429288
 30
0.0
 11
28129.60434129191
 21
1747.749496429286
 31
0.0
1001
AUTOCAD_POSTSCRIPT_FIGURE
1002
{
1000
PSFILL
1000
Grayscale
1000
Grayscale
1070
   100
1002
}
  0
LINE
  5
4B81
  8
YODOROGO
 10
27977.604341291921
 20
1939.749496429288
 30
0.0
 11
28080.236320206739
 21
1939.749496429288
 31
0.0
1001
AUTOCAD_POSTSCRIPT_FIGURE
1002
{
1000
PSFILL
1000
Grayscale
1000
Grayscale
1070
   100
1002
}
  0
LINE
  5
4B82
  8
YODOROGO
 10
27977.604341291921
 20
1955.7494964292871
 30
0.0
 11
27977.604341291921
 21
1939.749496429288
 31
0.0
1001
AUTOCAD_POSTSCRIPT_FIGURE
1002
{
1000
PSFILL
1000
Grayscale
1000
Grayscale
1070
   100
1002
}
  0
LINE
  5
4B83
  8
YODOROGO
 10
28076.60687851991
 20
1955.7494964292871
 30
0.0
 11
27977.604341291921
 21
1955.7494964292871
 31
0.0
1001
AUTOCAD_POSTSCRIPT_FIGURE
1002
{
1000
PSFILL
1000
Grayscale
1000
Grayscale
1070
   100
1002
}
  0
LINE
  5
4B84
  8
YODOROGO
 10
28071.162715989711
 20
1979.749496429288
 30
0.0
 11
28076.60687851991
 21
1955.7494964292871
 31
0.0
1001
AUTOCAD_POSTSCRIPT_FIGURE
1002
{
1000
PSFILL
1000
Grayscale
1000
Grayscale
1070
   100
1002
}
  0
LINE
  5
4B85
  8
YODOROGO
 10
28091.162715989711
 20
1979.749496429288
 30
0.0
 11
28071.162715989711
 21
1979.749496429288
 31
0.0
1001
AUTOCAD_POSTSCRIPT_FIGURE
1002
{
1000
PSFILL
1000
Grayscale
1000
Grayscale
1070
   100
1002
}
  0
LINE
  5
4B86
  8
YODOROGO
 10
28095.806878519939
 20
1955.7494964292871
 30
0.0
 11
28091.162715989711
 21
1979.749496429288
 31
0.0
1001
AUTOCAD_POSTSCRIPT_FIGURE
1002
{
1000
PSFILL
1000
Grayscale
1000
Grayscale
1070
   100
1002
}
  0
LINE
  5
4B87
  8
YODOROGO
 10
28121.604341291921
 20
1955.7494964292871
 30
0.0
 11
28095.806878519939
 21
1955.7494964292871
 31
0.0
1001
AUTOCAD_POSTSCRIPT_FIGURE
1002
{
1000
PSFILL
1000
Grayscale
1000
Grayscale
1070
   100
1002
}
  0
LINE
  5
4B88
  8
YODOROGO
 10
28121.604341291921
 20
1979.749496429288
 30
0.0
 11
28121.604341291921
 21
1955.7494964292871
 31
0.0
1001
AUTOCAD_POSTSCRIPT_FIGURE
1002
{
1000
PSFILL
1000
Grayscale
1000
Grayscale
1070
   100
1002
}
  0
LINE
  5
4B89
  8
YODOROGO
 10
28137.604341291921
 20
1979.749496429288
 30
0.0
 11
28121.604341291921
 21
1979.749496429288
 31
0.0
1001
AUTOCAD_POSTSCRIPT_FIGURE
1002
{
1000
PSFILL
1000
Grayscale
1000
Grayscale
1070
   100
1002
}
  0
LINE
  5
4B8A
  8
YODOROGO
 10
28137.604341291921
 20
1955.7494964292871
 30
0.0
 11
28137.604341291921
 21
1979.749496429288
 31
0.0
1001
AUTOCAD_POSTSCRIPT_FIGURE
1002
{
1000
PSFILL
1000
Grayscale
1000
Grayscale
1070
   100
1002
}
  0
LINE
  5
4B8B
  8
YODOROGO
 10
28137.604341291921
 20
1939.749496429288
 30
0.0
 11
28137.604341291921
 21
1955.7494964292871
 31
0.0
1001
AUTOCAD_POSTSCRIPT_FIGURE
1002
{
1000
PSFILL
1000
Grayscale
1000
Grayscale
1070
   100
1002
}
  0
LINE
  5
4B8C
  8
YODOROGO
 10
28098.902986873411
 20
1939.749496429288
 30
0.0
 11
28137.604341291921
 21
1939.749496429288
 31
0.0
1001
AUTOCAD_POSTSCRIPT_FIGURE
1002
{
1000
PSFILL
1000
Grayscale
1000
Grayscale
1070
   100
1002
}
  0
LINE
  5
4B8D
  8
YODOROGO
 10
28137.604341291921
 20
1747.749496429286
 30
0.0
 11
28098.902986873411
 21
1939.749496429288
 31
0.0
1001
AUTOCAD_POSTSCRIPT_FIGURE
1002
{
1000
PSFILL
1000
Grayscale
1000
Grayscale
1070
   100
1002
}
  0
LINE
  5
4B8E
  8
YODOROGO
 10
28129.60434129191
 20
1747.749496429286
 30
0.0
 11
28137.604341291921
 21
1747.749496429286
 31
0.0
1001
AUTOCAD_POSTSCRIPT_FIGURE
1002
{
1000
PSFILL
1000
Grayscale
1000
Grayscale
1070
   100
1002
}
  0
LINE
  5
4B8F
  8
YODOROGO
 10
28078.06921993379
 20
1775.7407762987939
 30
0.0
 11
27977.604341291921
 21
1747.749496429286
 31
0.0
  0
LINE
  5
4B90
  8
YODOROGO
 10
28078.06921993379
 20
1798.6689795290731
 30
0.0
 11
28078.06921993379
 21
1775.7407762987939
 31
0.0
  0
LINE
  5
4B91
  8
YODOROGO
 10
28033.83678061287
 20
1786.816933133767
 30
0.0
 11
28078.06921993379
 21
1798.6689795290731
 31
0.0
  0
LINE
  5
4B92
  8
YODOROGO
 10
28033.83678061287
 20
1872.5683489362989
 30
0.0
 11
28033.83678061287
 21
1786.816933133767
 31
0.0
  0
LINE
  5
4B93
  8
YODOROGO
 10
28078.06921993379
 20
1872.5683489362989
 30
0.0
 11
28033.83678061287
 21
1872.5683489362989
 31
0.0
  0
LINE
  5
4B94
  8
YODOROGO
 10
28078.06921993379
 20
1892.568348936298
 30
0.0
 11
28078.06921993379
 21
1872.5683489362989
 31
0.0
  0
LINE
  5
4B95
  8
YODOROGO
 10
27977.604341291921
 20
1892.568348936298
 30
0.0
 11
28078.06921993379
 21
1892.568348936298
 31
0.0
  0
LINE
  5
4B96
  8
YODOROGO
 10
27977.604341291921
 20
1872.5683489362989
 30
0.0
 11
27977.604341291921
 21
1892.568348936298
 31
0.0
  0
LINE
  5
4B97
  8
YODOROGO
 10
28021.836780612852
 20
1872.5683489362989
 30
0.0
 11
27977.604341291921
 21
1872.5683489362989
 31
0.0
  0
LINE
  5
4B98
  8
YODOROGO
 10
28021.836780612852
 20
1784.673339594317
 30
0.0
 11
28021.836780612852
 21
1872.5683489362989
 31
0.0
  0
LINE
  5
4B99
  8
YODOROGO
 10
27977.604341291921
 20
1771.749496429286
 30
0.0
 11
28021.836780612852
 21
1784.673339594317
 31
0.0
  0
LINE
  5
4B9A
  8
YODOROGO
 10
27977.604341291921
 20
1747.749496429286
 30
0.0
 11
27977.604341291921
 21
1771.749496429286
 31
0.0
  0
LINE
  5
4B9B
  8
YODOROGO
 10
28001.604341291921
 20
1707.749496429288
 30
0.0
 11
28001.604341291921
 21
1683.7494964292871
 31
0.0
  0
LINE
  5
4B9C
  8
YODOROGO
 10
28017.604341291921
 20
1707.749496429288
 30
0.0
 11
28001.604341291921
 21
1707.749496429288
 31
0.0
  0
LINE
  5
4B9D
  8
YODOROGO
 10
28017.604341291921
 20
1683.7494964292871
 30
0.0
 11
28017.604341291921
 21
1707.749496429288
 31
0.0
  0
LINE
  5
4B9E
  8
YODOROGO
 10
28040.913204016892
 20
1683.7494964292871
 30
0.0
 11
28017.604341291921
 21
1683.7494964292871
 31
0.0
  0
LINE
  5
4B9F
  8
YODOROGO
 10
28001.604341291921
 20
1683.7494964292871
 30
0.0
 11
27977.604341291921
 21
1683.7494964292871
 31
0.0
  0
LINE
  5
4BA0
  8
YODOROGO
 10
28082.135520230921
 20
1707.749496429288
 30
0.0
 11
28098.135520230931
 21
1707.749496429288
 31
0.0
1001
AUTOCAD_POSTSCRIPT_FIGURE
1002
{
1000
PSFILL
1000
Grayscale
1000
Grayscale
1070
   100
1002
}
  0
LINE
  5
4BA1
  8
YODOROGO
 10
28401.60434129191
 20
1824.877625640306
 30
0.0
 11
28401.60434129191
 21
1752.877625640306
 31
0.0
1001
AUTOCAD_POSTSCRIPT_FIGURE
1002
{
1000
PSFILL
1000
Grayscale
1000
Grayscale
1070
   100
1002
}
  0
LINE
  5
4BA2
  8
YODOROGO
 10
28401.60434129191
 20
1916.8776256403071
 30
0.0
 11
28401.60434129191
 21
1984.877625640306
 31
0.0
1001
AUTOCAD_POSTSCRIPT_FIGURE
1002
{
1000
PSFILL
1000
Grayscale
1000
Grayscale
1070
   100
1002
}
  0
LINE
  5
4BA3
  8
YODOROGO
 10
28433.60434129191
 20
1819.7494964292871
 30
0.0
 11
28433.60434129191
 21
1747.74949642929
 31
0.0
  0
LINE
  5
4BA4
  8
YODOROGO
 10
28497.60434129191
 20
1707.749496429288
 30
0.0
 11
28433.60434129191
 21
1707.749496429288
 31
0.0
  0
LINE
  5
4BA5
  8
YODOROGO
 10
28433.60434129191
 20
1747.74949642929
 30
0.0
 11
28585.604341291921
 21
1747.74949642929
 31
0.0
  0
LINE
  5
4BA6
  8
YODOROGO
 10
28497.60434129191
 20
1867.7494964292871
 30
0.0
 11
28433.60434129191
 21
1867.7494964292871
 31
0.0
  0
LINE
  5
4BA7
  8
YODOROGO
 10
28497.60434129191
 20
1923.7494964292871
 30
0.0
 11
28497.60434129191
 21
1867.7494964292871
 31
0.0
  0
LINE
  5
4BA8
  8
YODOROGO
 10
28585.604341291921
 20
1987.7494964292871
 30
0.0
 11
28585.604341291921
 21
2027.749496429288
 31
0.0
  0
LINE
  5
4BA9
  8
YODOROGO
 10
28433.60434129191
 20
1987.7494964292871
 30
0.0
 11
28585.604341291921
 21
1987.7494964292871
 31
0.0
  0
LINE
  5
4BAA
  8
YODOROGO
 10
28433.60434129191
 20
1867.7494964292871
 30
0.0
 11
28433.60434129191
 21
1987.7494964292871
 31
0.0
  0
LINE
  5
4BAB
  8
YODOROGO
 10
29001.60434129191
 20
2027.749496429288
 30
0.0
 11
29001.60434129191
 21
1619.749496429288
 31
0.0
  0
LINE
  5
4BAC
  8
YODOROGO
 10
29073.604341291921
 20
1579.749496429288
 30
0.0
 11
29073.604341291921
 21
2027.749496429288
 31
0.0
  0
LINE
  5
4BAD
  8
YODOROGO
 10
29261.604341291921
 20
1491.749496429286
 30
0.0
 11
29261.604341291921
 21
2007.749496429288
 31
0.0
  0
LINE
  5
4BAE
  8
YODOROGO
 10
29197.604341291921
 20
2007.749496429288
 30
0.0
 11
29197.604341291921
 21
1491.749496429286
 31
0.0
  0
LINE
  5
4BAF
  8
YODOROGO
 10
29385.604341291921
 20
2027.749496429288
 30
0.0
 11
29385.604341291921
 21
1427.749496429288
 31
0.0
  0
LINE
  5
4BB0
  8
YODOROGO
 10
29457.604341291921
 20
1427.749496429288
 30
0.0
 11
29457.604341291921
 21
2027.749496429288
 31
0.0
  0
LINE
  5
4BB1
  8
YODOROGO
 10
28657.604341291921
 20
1667.749496429288
 30
0.0
 11
28657.604341291921
 21
1747.74949642929
 31
0.0
  0
LINE
  5
4BB2
  8
YODOROGO
 10
29885.604341291921
 20
1707.749496429288
 30
0.0
 11
29885.604341291921
 21
1667.749496429288
 31
0.0
  0
LINE
  5
4BB3
  8
YODOROGO
 10
29885.604341291921
 20
1707.749496429288
 30
0.0
 11
29885.604341291921
 21
1667.749496429288
 31
0.0
  0
ARC
  5
4BB4
  8
YODOROGO
 10
28906.911576186842
 20
1618.217864442272
 30
0.0
 40
94.705151178741644
 50
274.05244162907098
 51
0.9266642149310712
  0
ARC
  5
4BB5
  8
YODOROGO
 10
28909.186170719819
 20
1592.61072861044
 30
0.0
 40
164.92042356085511
 50
271.5351210653775
 51
355.52727750585052
  0
LINE
  5
4BB6
  8
YODOROGO
 10
28913.604341291921
 20
1523.7494964292871
 30
0.0
 11
28913.604341291921
 21
1427.749496429288
 31
0.0
  0
LINE
  5
4BB7
  8
YODOROGO
 10
28793.60434129191
 20
1667.749496429288
 30
0.0
 11
28657.604341291921
 21
1667.749496429288
 31
0.0
  0
LINE
  5
4BB8
  8
YODOROGO
 10
28793.60434129191
 20
1603.7494964292871
 30
0.0
 11
28793.60434129191
 21
1667.749496429288
 31
0.0
  0
LINE
  5
4BB9
  8
YODOROGO
 10
28657.604341291921
 20
1603.7494964292871
 30
0.0
 11
28793.60434129191
 21
1603.7494964292871
 31
0.0
  0
LINE
  5
4BBA
  8
YODOROGO
 10
28657.604341291921
 20
1523.7494964292871
 30
0.0
 11
28657.604341291921
 21
1603.7494964292871
 31
0.0
  0
LINE
  5
4BBB
  8
YODOROGO
 10
28793.60434129191
 20
1523.7494964292871
 30
0.0
 11
28657.604341291921
 21
1523.7494964292871
 31
0.0
  0
LINE
  5
4BBC
  8
YODOROGO
 10
28793.60434129191
 20
1427.749496429288
 30
0.0
 11
28793.60434129191
 21
1523.7494964292871
 31
0.0
  0
LINE
  5
4BBD
  8
YODOROGO
 10
29197.604341291921
 20
1491.749496429286
 30
0.0
 11
29261.604341291921
 21
1491.749496429286
 31
0.0
  0
LINE
  5
4BBE
  8
YODOROGO
 10
29385.604341291921
 20
1427.749496429288
 30
0.0
 11
29457.604341291921
 21
1427.749496429288
 31
0.0
  0
LINE
  5
4BBF
  8
YODOROGO
 10
29737.604341291921
 20
1528.4414521705639
 30
0.0
 11
29737.604341291921
 21
1427.749496429288
 31
0.0
  0
LINE
  5
4BC0
  8
YODOROGO
 10
29617.604341291921
 20
1427.749496429288
 30
0.0
 11
29737.604341291921
 21
1528.4414521705639
 31
0.0
  0
LINE
  5
4BC1
  8
YODOROGO
 10
29617.604341291921
 20
1547.749496429288
 30
0.0
 11
29617.604341291921
 21
1427.749496429288
 31
0.0
  0
LINE
  5
4BC2
  8
YODOROGO
 10
29712.94462869945
 20
1627.749496429288
 30
0.0
 11
29617.604341291921
 21
1547.749496429288
 31
0.0
  0
LINE
  5
4BC3
  8
YODOROGO
 10
29617.604341291921
 20
1627.749496429288
 30
0.0
 11
29712.94462869945
 21
1627.749496429288
 31
0.0
  0
LINE
  5
4BC4
  8
YODOROGO
 10
29617.604341291921
 20
1667.749496429288
 30
0.0
 11
29617.604341291921
 21
1627.749496429288
 31
0.0
  0
LINE
  5
4BC5
  8
YODOROGO
 10
29885.604341291921
 20
1667.749496429288
 30
0.0
 11
29617.604341291921
 21
1667.749496429288
 31
0.0
  0
LINE
  5
4BC6
  8
YODOROGO
 10
29917.604341291921
 20
1627.749496429288
 30
0.0
 11
29777.604341291921
 21
1627.749496429288
 31
0.0
  0
LINE
  5
4BC7
  8
YODOROGO
 10
29777.604341291921
 20
1562.0054374176559
 30
0.0
 11
29771.409872985321
 21
1556.807661346234
 31
0.0
  0
LINE
  5
4BC8
  8
YODOROGO
 10
29777.604341291921
 20
1627.749496429288
 30
0.0
 11
29777.604341291921
 21
1562.0054374176559
 31
0.0
  0
LINE
  5
4BC9
  8
YODOROGO
 10
29737.604341291921
 20
1528.4414521705639
 30
0.0
 11
29737.604341291921
 21
1427.749496429288
 31
0.0
  0
LINE
  5
4BCA
  8
YODOROGO
 10
29617.604341291921
 20
1427.749496429288
 30
0.0
 11
29737.604341291921
 21
1528.4414521705639
 31
0.0
  0
LINE
  5
4BCB
  8
YODOROGO
 10
29617.604341291921
 20
1547.749496429288
 30
0.0
 11
29617.604341291921
 21
1427.749496429288
 31
0.0
  0
LINE
  5
4BCC
  8
YODOROGO
 10
29712.94462869945
 20
1627.749496429288
 30
0.0
 11
29617.604341291921
 21
1547.749496429288
 31
0.0
  0
LINE
  5
4BCD
  8
YODOROGO
 10
29617.604341291921
 20
1627.749496429288
 30
0.0
 11
29712.94462869945
 21
1627.749496429288
 31
0.0
  0
LINE
  5
4BCE
  8
YODOROGO
 10
29617.604341291921
 20
1667.749496429288
 30
0.0
 11
29617.604341291921
 21
1627.749496429288
 31
0.0
  0
LINE
  5
4BCF
  8
YODOROGO
 10
29885.604341291921
 20
1667.749496429288
 30
0.0
 11
29617.604341291921
 21
1667.749496429288
 31
0.0
  0
LINE
  5
4BD0
  8
YODOROGO
 10
28793.60434129191
 20
1747.74949642929
 30
0.0
 11
28793.60434129191
 21
1819.7494964292871
 31
0.0
  0
LINE
  5
4BD1
  8
YODOROGO
 10
28657.604341291921
 20
1747.74949642929
 30
0.0
 11
28793.60434129191
 21
1747.74949642929
 31
0.0
  0
LINE
  5
4BD2
  8
YODOROGO
 10
28729.604341291921
 20
1867.7494964292871
 30
0.0
 11
28729.604341291921
 21
1923.7494964292871
 31
0.0
  0
LINE
  5
4BD3
  8
YODOROGO
 10
28793.60434129191
 20
1867.7494964292871
 30
0.0
 11
28729.604341291921
 21
1867.7494964292871
 31
0.0
  0
LINE
  5
4BD4
  8
YODOROGO
 10
28793.60434129191
 20
1947.749496429288
 30
0.0
 11
28793.60434129191
 21
1867.7494964292871
 31
0.0
  0
ARC
  5
4BD5
  8
YODOROGO
 10
28753.60434129191
 20
1947.749496429288
 30
0.0
 40
40.0
 50
0.0
 51
90.0
  0
LINE
  5
4BD6
  8
YODOROGO
 10
28657.604341291921
 20
1987.7494964292871
 30
0.0
 11
28753.60434129191
 21
1987.7494964292871
 31
0.0
  0
LINE
  5
4BD7
  8
YODOROGO
 10
28657.604341291921
 20
2027.749496429288
 30
0.0
 11
28657.604341291921
 21
1987.7494964292871
 31
0.0
  0
LINE
  5
4BD8
  8
YODOROGO
 10
29073.604341291921
 20
2027.749496429288
 30
0.0
 11
29001.60434129191
 21
2027.749496429288
 31
0.0
  0
LINE
  5
4BD9
  8
YODOROGO
 10
29261.604341291921
 20
2007.749496429288
 30
0.0
 11
29197.604341291921
 21
2007.749496429288
 31
0.0
  0
LINE
  5
4BDA
  8
YODOROGO
 10
29457.604341291921
 20
2027.749496429288
 30
0.0
 11
29385.604341291921
 21
2027.749496429288
 31
0.0
  0
LINE
  5
4BDB
  8
YODOROGO
 10
29673.604341291921
 20
1707.749496429288
 30
0.0
 11
29673.604341291921
 21
1771.7494964292871
 31
0.0
1001
AUTOCAD_POSTSCRIPT_FIGURE
1002
{
1000
PSFILL
1000
Grayscale
1000
Grayscale
1070
    25
1002
}
  0
LINE
  5
4BDC
  8
YODOROGO
 10
29617.604341291921
 20
1707.749496429288
 30
0.0
 11
29673.604341291921
 21
1707.749496429288
 31
0.0
1001
AUTOCAD_POSTSCRIPT_FIGURE
1002
{
1000
PSFILL
1000
Grayscale
1000
Grayscale
1070
    25
1002
}
  0
LINE
  5
4BDD
  8
YODOROGO
 10
29617.604341291921
 20
1819.7494964292871
 30
0.0
 11
29617.604341291921
 21
1707.749496429288
 31
0.0
1001
AUTOCAD_POSTSCRIPT_FIGURE
1002
{
1000
PSFILL
1000
Grayscale
1000
Grayscale
1070
    25
1002
}
  0
LINE
  5
4BDE
  8
YODOROGO
 10
29765.604341291921
 20
1819.7494964292871
 30
0.0
 11
29617.604341291921
 21
1819.7494964292871
 31
0.0
1001
AUTOCAD_POSTSCRIPT_FIGURE
1002
{
1000
PSFILL
1000
Grayscale
1000
Grayscale
1070
    25
1002
}
  0
LINE
  5
4BDF
  8
YODOROGO
 10
29765.604341291921
 20
1859.749496429288
 30
0.0
 11
29765.604341291921
 21
1819.7494964292871
 31
0.0
1001
AUTOCAD_POSTSCRIPT_FIGURE
1002
{
1000
PSFILL
1000
Grayscale
1000
Grayscale
1070
    25
1002
}
  0
LINE
  5
4BE0
  8
YODOROGO
 10
29617.604341291921
 20
1859.749496429288
 30
0.0
 11
29765.604341291921
 21
1859.749496429288
 31
0.0
1001
AUTOCAD_POSTSCRIPT_FIGURE
1002
{
1000
PSFILL
1000
Grayscale
1000
Grayscale
1070
    25
1002
}
  0
LINE
  5
4BE1
  8
YODOROGO
 10
29617.604341291921
 20
1907.7494964292871
 30
0.0
 11
29617.604341291921
 21
1859.749496429288
 31
0.0
1001
AUTOCAD_POSTSCRIPT_FIGURE
1002
{
1000
PSFILL
1000
Grayscale
1000
Grayscale
1070
    25
1002
}
  0
LINE
  5
4BE2
  8
YODOROGO
 10
29765.604341291921
 20
1907.7494964292871
 30
0.0
 11
29617.604341291921
 21
1907.7494964292871
 31
0.0
1001
AUTOCAD_POSTSCRIPT_FIGURE
1002
{
1000
PSFILL
1000
Grayscale
1000
Grayscale
1070
    25
1002
}
  0
LINE
  5
4BE3
  8
YODOROGO
 10
29765.604341291921
 20
1947.749496429288
 30
0.0
 11
29765.604341291921
 21
1907.7494964292871
 31
0.0
1001
AUTOCAD_POSTSCRIPT_FIGURE
1002
{
1000
PSFILL
1000
Grayscale
1000
Grayscale
1070
    25
1002
}
  0
LINE
  5
4BE4
  8
YODOROGO
 10
29617.604341291921
 20
1947.749496429288
 30
0.0
 11
29765.604341291921
 21
1947.749496429288
 31
0.0
1001
AUTOCAD_POSTSCRIPT_FIGURE
1002
{
1000
PSFILL
1000
Grayscale
1000
Grayscale
1070
    25
1002
}
  0
LINE
  5
4BE5
  8
YODOROGO
 10
29617.604341291921
 20
2027.749496429288
 30
0.0
 11
29617.604341291921
 21
1947.749496429288
 31
0.0
1001
AUTOCAD_POSTSCRIPT_FIGURE
1002
{
1000
PSFILL
1000
Grayscale
1000
Grayscale
1070
    25
1002
}
  0
LINE
  5
4BE6
  8
YODOROGO
 10
29665.604341291921
 20
2027.749496429288
 30
0.0
 11
29617.604341291921
 21
2027.749496429288
 31
0.0
1001
AUTOCAD_POSTSCRIPT_FIGURE
1002
{
1000
PSFILL
1000
Grayscale
1000
Grayscale
1070
    25
1002
}
  0
LINE
  5
4BE7
  8
YODOROGO
 10
29665.604341291921
 20
1995.7494964292871
 30
0.0
 11
29665.604341291921
 21
2027.749496429288
 31
0.0
1001
AUTOCAD_POSTSCRIPT_FIGURE
1002
{
1000
PSFILL
1000
Grayscale
1000
Grayscale
1070
    25
1002
}
  0
LINE
  5
4BE8
  8
YODOROGO
 10
29765.604341291921
 20
1995.7494964292871
 30
0.0
 11
29665.604341291921
 21
1995.7494964292871
 31
0.0
1001
AUTOCAD_POSTSCRIPT_FIGURE
1002
{
1000
PSFILL
1000
Grayscale
1000
Grayscale
1070
    25
1002
}
  0
LINE
  5
4BE9
  8
YODOROGO
 10
29765.604341291921
 20
2027.749496429288
 30
0.0
 11
29765.604341291921
 21
1995.7494964292871
 31
0.0
1001
AUTOCAD_POSTSCRIPT_FIGURE
1002
{
1000
PSFILL
1000
Grayscale
1000
Grayscale
1070
    25
1002
}
  0
LINE
  5
4BEA
  8
YODOROGO
 10
29829.604341291921
 20
2027.749496429288
 30
0.0
 11
29765.604341291921
 21
2027.749496429288
 31
0.0
1001
AUTOCAD_POSTSCRIPT_FIGURE
1002
{
1000
PSFILL
1000
Grayscale
1000
Grayscale
1070
    25
1002
}
  0
LINE
  5
4BEB
  8
YODOROGO
 10
29829.604341291921
 20
1995.7494964292871
 30
0.0
 11
29829.604341291921
 21
2027.749496429288
 31
0.0
1001
AUTOCAD_POSTSCRIPT_FIGURE
1002
{
1000
PSFILL
1000
Grayscale
1000
Grayscale
1070
    25
1002
}
  0
LINE
  5
4BEC
  8
YODOROGO
 10
29829.604341291921
 20
1907.7494964292871
 30
0.0
 11
29829.604341291921
 21
1947.749496429288
 31
0.0
1001
AUTOCAD_POSTSCRIPT_FIGURE
1002
{
1000
PSFILL
1000
Grayscale
1000
Grayscale
1070
    25
1002
}
  0
LINE
  5
4BED
  8
YODOROGO
 10
29829.604341291921
 20
1819.7494964292871
 30
0.0
 11
29829.604341291921
 21
1859.749496429288
 31
0.0
1001
AUTOCAD_POSTSCRIPT_FIGURE
1002
{
1000
PSFILL
1000
Grayscale
1000
Grayscale
1070
    25
1002
}
  0
LINE
  5
4BEE
  8
YODOROGO
 10
29921.60434129191
 20
1771.7494964292871
 30
0.0
 11
29921.60434129191
 21
1707.749496429288
 31
0.0
1001
AUTOCAD_POSTSCRIPT_FIGURE
1002
{
1000
PSFILL
1000
Grayscale
1000
Grayscale
1070
    25
1002
}
  0
LINE
  5
4BEF
  8
YODOROGO
 10
29829.604341291921
 20
1771.7494964292871
 30
0.0
 11
29921.60434129191
 21
1771.7494964292871
 31
0.0
1001
AUTOCAD_POSTSCRIPT_FIGURE
1002
{
1000
PSFILL
1000
Grayscale
1000
Grayscale
1070
    25
1002
}
  0
LINE
  5
4BF0
  8
YODOROGO
 10
29829.604341291921
 20
1707.749496429288
 30
0.0
 11
29829.604341291921
 21
1771.7494964292871
 31
0.0
1001
AUTOCAD_POSTSCRIPT_FIGURE
1002
{
1000
PSFILL
1000
Grayscale
1000
Grayscale
1070
    25
1002
}
  0
LINE
  5
4BF1
  8
YODOROGO
 10
29765.604341291921
 20
1707.749496429288
 30
0.0
 11
29829.604341291921
 21
1707.749496429288
 31
0.0
1001
AUTOCAD_POSTSCRIPT_FIGURE
1002
{
1000
PSFILL
1000
Grayscale
1000
Grayscale
1070
    25
1002
}
  0
LINE
  5
4BF2
  8
YODOROGO
 10
29765.604341291921
 20
1771.7494964292871
 30
0.0
 11
29765.604341291921
 21
1707.749496429288
 31
0.0
1001
AUTOCAD_POSTSCRIPT_FIGURE
1002
{
1000
PSFILL
1000
Grayscale
1000
Grayscale
1070
    25
1002
}
  0
LINE
  5
4BF3
  8
YODOROGO
 10
29673.604341291921
 20
1771.7494964292871
 30
0.0
 11
29765.604341291921
 21
1771.7494964292871
 31
0.0
1001
AUTOCAD_POSTSCRIPT_FIGURE
1002
{
1000
PSFILL
1000
Grayscale
1000
Grayscale
1070
    25
1002
}
  0
ARC
  5
4BF4
  8
YODOROGO
 10
31059.517893357912
 20
1602.6807375155761
 30
0.0
 40
178.22128111072141
 50
281.02627495425338
 51
357.77113575573799
  0
LINE
  5
4BF5
  8
YODOROGO
 10
31413.604341291921
 20
1907.7494964292871
 30
0.0
 11
31165.604341291921
 21
1907.7494964292871
 31
0.0
  0
LINE
  5
4BF6
  8
YODOROGO
 10
31413.604341291921
 20
2027.749496429288
 30
0.0
 11
31165.604341291921
 21
2027.749496429288
 31
0.0
  0
LINE
  5
4BF7
  8
YODOROGO
 10
31165.604341291921
 20
1963.749496429286
 30
0.0
 11
31413.604341291921
 21
1963.749496429286
 31
0.0
  0
LINE
  5
4BF8
  8
YODOROGO
 10
30791.604341291921
 20
1563.7494964292871
 30
0.0
 11
30791.604341291921
 21
1755.7494964292871
 31
0.0
  0
LINE
  5
4BF9
  8
YODOROGO
 10
30763.604341291921
 20
1691.749496429288
 30
0.0
 11
30763.604341291921
 21
1563.7494964292871
 31
0.0
  0
LINE
  5
4BFA
  8
YODOROGO
 10
30723.604341291921
 20
1491.749496429288
 30
0.0
 11
30723.604341291921
 21
1691.749496429288
 31
0.0
  0
LINE
  5
4BFB
  8
YODOROGO
 10
30899.604341291932
 20
1691.749496429288
 30
0.0
 11
30899.604341291932
 21
1491.749496429288
 31
0.0
  0
LINE
  5
4BFC
  8
YODOROGO
 10
30859.604341291932
 20
1563.7494964292871
 30
0.0
 11
30859.604341291932
 21
1691.749496429288
 31
0.0
  0
LINE
  5
4BFD
  8
YODOROGO
 10
30831.604341291921
 20
1755.7494964292871
 30
0.0
 11
30831.604341291921
 21
1563.7494964292871
 31
0.0
  0
LINE
  5
4BFE
  8
YODOROGO
 10
30973.604341291921
 20
2027.749496429288
 30
0.0
 11
30973.604341291921
 21
1467.749496429288
 31
0.0
  0
LINE
  5
4BFF
  8
YODOROGO
 10
30645.604341291921
 20
1427.749496429288
 30
0.0
 11
30645.604341291921
 21
2027.749496429288
 31
0.0
  0
LINE
  5
4C00
  8
YODOROGO
 10
30697.604341291932
 20
1963.749496429286
 30
0.0
 11
30697.604341291932
 21
1427.749496429288
 31
0.0
  0
LINE
  5
4C01
  8
YODOROGO
 10
30925.604341291921
 20
1547.749496429288
 30
0.0
 11
30925.604341291921
 21
1963.749496429286
 31
0.0
  0
LINE
  5
4C02
  8
YODOROGO
 10
30381.604341291932
 20
1627.749496429288
 30
0.0
 11
30381.604341291932
 21
1679.749496429288
 31
0.0
  0
LINE
  5
4C03
  8
YODOROGO
 10
30617.604341291921
 20
1679.749496429288
 30
0.0
 11
30617.604341291921
 21
1627.749496429288
 31
0.0
  0
LINE
  5
4C04
  8
YODOROGO
 10
31165.604341291921
 20
1907.7494964292871
 30
0.0
 11
31165.604341291921
 21
1635.7494964292871
 31
0.0
  0
LINE
  5
4C05
  8
YODOROGO
 10
29949.60434129191
 20
1667.749496429288
 30
0.0
 11
29949.60434129191
 21
1707.749496429288
 31
0.0
  0
LINE
  5
4C06
  8
YODOROGO
 10
29949.60434129191
 20
1667.749496429288
 30
0.0
 11
29949.60434129191
 21
1707.749496429288
 31
0.0
  0
ARC
  5
4C07
  8
YODOROGO
 10
30537.604341291921
 20
1507.749496429288
 30
0.0
 40
80.0
 50
270.0
 51
0.0
  0
LINE
  5
4C08
  8
YODOROGO
 10
30569.604341291921
 20
1599.7494964292871
 30
0.0
 11
30617.604341291921
 21
1599.7494964292871
 31
0.0
  0
LINE
  5
4C09
  8
YODOROGO
 10
30617.604341291921
 20
1627.749496429288
 30
0.0
 11
30529.604341291939
 21
1627.749496429288
 31
0.0
  0
LINE
  5
4C0A
  8
YODOROGO
 10
30217.604341291921
 20
1667.749496429288
 30
0.0
 11
29949.60434129191
 21
1667.749496429288
 31
0.0
  0
LINE
  5
4C0B
  8
YODOROGO
 10
30217.604341291921
 20
1627.749496429288
 30
0.0
 11
30217.604341291921
 21
1667.749496429288
 31
0.0
  0
LINE
  5
4C0C
  8
YODOROGO
 10
30017.604341291921
 20
1627.749496429288
 30
0.0
 11
30217.604341291921
 21
1627.749496429288
 31
0.0
  0
ARC
  5
4C0D
  8
YODOROGO
 10
30230.05882870136
 20
1868.885714952901
 30
0.0
 40
321.37763628522822
 50
228.6181454618993
 51
245.660289248906
  0
LINE
  5
4C0E
  8
YODOROGO
 10
30105.604341291921
 20
1603.7494964292871
 30
0.0
 11
30097.60434129195
 21
1576.0728158699001
 31
0.0
  0
LINE
  5
4C0F
  8
YODOROGO
 10
30189.604341291921
 20
1603.7494964292871
 30
0.0
 11
30105.604341291921
 21
1603.7494964292871
 31
0.0
  0
LINE
  5
4C10
  8
YODOROGO
 10
30177.604341291921
 20
1551.817722473427
 30
0.0
 11
30189.604341291921
 21
1603.7494964292871
 31
0.0
  0
ARC
  5
4C11
  8
YODOROGO
 10
30230.05882870045
 20
1868.885714953002
 30
0.0
 40
321.37763628529081
 50
260.60629297969911
 51
267.77903556555862
  0
LINE
  5
4C12
  8
YODOROGO
 10
30217.604341291921
 20
1427.749496429285
 30
0.0
 11
30217.604341291921
 21
1547.749496429288
 31
0.0
  0
LINE
  5
4C13
  8
YODOROGO
 10
29937.604341291932
 20
1481.3393349155101
 30
0.0
 11
29937.604341291921
 21
1594.531090531141
 31
0.0
  0
LINE
  5
4C14
  8
YODOROGO
 10
30217.604341291921
 20
1667.749496429288
 30
0.0
 11
29949.60434129191
 21
1667.749496429288
 31
0.0
  0
LINE
  5
4C15
  8
YODOROGO
 10
30217.604341291921
 20
1627.749496429288
 30
0.0
 11
30217.604341291921
 21
1667.749496429288
 31
0.0
  0
LINE
  5
4C16
  8
YODOROGO
 10
30017.604341291921
 20
1627.749496429288
 30
0.0
 11
30217.604341291921
 21
1627.749496429288
 31
0.0
  0
ARC
  5
4C17
  8
YODOROGO
 10
30230.05882870136
 20
1868.885714952901
 30
0.0
 40
321.37763628522822
 50
228.6181454618993
 51
245.660289248906
  0
LINE
  5
4C18
  8
YODOROGO
 10
30105.604341291921
 20
1603.7494964292871
 30
0.0
 11
30097.60434129195
 21
1576.0728158699001
 31
0.0
  0
LINE
  5
4C19
  8
YODOROGO
 10
30189.604341291921
 20
1603.7494964292871
 30
0.0
 11
30105.604341291921
 21
1603.7494964292871
 31
0.0
  0
LINE
  5
4C1A
  8
YODOROGO
 10
30177.604341291921
 20
1551.817722473427
 30
0.0
 11
30189.604341291921
 21
1603.7494964292871
 31
0.0
  0
ARC
  5
4C1B
  8
YODOROGO
 10
30230.05882870045
 20
1868.885714953002
 30
0.0
 40
321.37763628529081
 50
260.60629297969911
 51
267.77903556555862
  0
LINE
  5
4C1C
  8
YODOROGO
 10
30217.604341291921
 20
1427.749496429285
 30
0.0
 11
30217.604341291921
 21
1547.749496429288
 31
0.0
  0
LINE
  5
4C1D
  8
YODOROGO
 10
29937.604341291932
 20
1481.3393349155101
 30
0.0
 11
29937.604341291921
 21
1594.531090531141
 31
0.0
  0
LINE
  5
4C1E
  8
YODOROGO
 10
30433.604341291921
 20
1573.749496429288
 30
0.0
 11
30381.604341291932
 21
1573.749496429288
 31
0.0
  0
LINE
  5
4C1F
  8
YODOROGO
 10
30433.604341291921
 20
1601.749496429285
 30
0.0
 11
30433.604341291921
 21
1573.749496429288
 31
0.0
  0
LINE
  5
4C20
  8
YODOROGO
 10
30381.604341291932
 20
1601.749496429285
 30
0.0
 11
30433.604341291921
 21
1601.749496429285
 31
0.0
  0
LINE
  5
4C21
  8
YODOROGO
 10
30381.604341291932
 20
1573.749496429288
 30
0.0
 11
30381.604341291932
 21
1601.749496429285
 31
0.0
  0
LINE
  5
4C22
  8
YODOROGO
 10
30429.604341291921
 20
1577.7494964292871
 30
0.0
 11
30385.604341291921
 21
1577.7494964292871
 31
0.0
  0
LINE
  5
4C23
  8
YODOROGO
 10
30429.604341291921
 20
1597.749496429288
 30
0.0
 11
30429.604341291921
 21
1577.7494964292871
 31
0.0
  0
LINE
  5
4C24
  8
YODOROGO
 10
30385.604341291921
 20
1597.749496429288
 30
0.0
 11
30429.604341291921
 21
1597.749496429288
 31
0.0
  0
LINE
  5
4C25
  8
YODOROGO
 10
30385.604341291921
 20
1577.7494964292871
 30
0.0
 11
30385.604341291921
 21
1597.749496429288
 31
0.0
  0
LINE
  5
4C26
  8
YODOROGO
 10
30425.604341291921
 20
1581.749496429286
 30
0.0
 11
30389.604341291921
 21
1581.749496429286
 31
0.0
  0
LINE
  5
4C27
  8
YODOROGO
 10
30425.604341291921
 20
1593.749496429288
 30
0.0
 11
30425.604341291921
 21
1581.749496429286
 31
0.0
  0
LINE
  5
4C28
  8
YODOROGO
 10
30389.604341291921
 20
1593.749496429288
 30
0.0
 11
30425.604341291921
 21
1593.749496429288
 31
0.0
  0
LINE
  5
4C29
  8
YODOROGO
 10
30389.604341291921
 20
1581.749496429286
 30
0.0
 11
30389.604341291921
 21
1593.749496429288
 31
0.0
  0
LINE
  5
4C2A
  8
YODOROGO
 10
30421.604341291932
 20
1585.7494964292871
 30
0.0
 11
30393.604341291921
 21
1585.7494964292871
 31
0.0
  0
LINE
  5
4C2B
  8
YODOROGO
 10
30421.604341291932
 20
1589.749496429288
 30
0.0
 11
30421.604341291932
 21
1585.7494964292871
 31
0.0
  0
LINE
  5
4C2C
  8
YODOROGO
 10
30393.604341291921
 20
1589.749496429288
 30
0.0
 11
30421.604341291932
 21
1589.749496429288
 31
0.0
  0
LINE
  5
4C2D
  8
YODOROGO
 10
30393.604341291921
 20
1585.7494964292871
 30
0.0
 11
30393.604341291921
 21
1589.749496429288
 31
0.0
  0
LINE
  5
4C2E
  8
YODOROGO
 10
30465.604341291921
 20
1627.749496429288
 30
0.0
 11
30381.604341291932
 21
1627.749496429288
 31
0.0
  0
LINE
  5
4C2F
  8
YODOROGO
 10
30465.604341291921
 20
1547.749496429288
 30
0.0
 11
30465.604341291921
 21
1627.749496429288
 31
0.0
  0
LINE
  5
4C30
  8
YODOROGO
 10
30381.604341291932
 20
1547.749496429288
 30
0.0
 11
30465.604341291921
 21
1547.749496429288
 31
0.0
  0
LINE
  5
4C31
  8
YODOROGO
 10
30381.604341291932
 20
1427.749496429288
 30
0.0
 11
30381.604341291932
 21
1547.749496429288
 31
0.0
  0
LINE
  5
4C32
  8
YODOROGO
 10
30537.604341291921
 20
1427.749496429288
 30
0.0
 11
30381.604341291932
 21
1427.749496429288
 31
0.0
  0
LINE
  5
4C33
  8
YODOROGO
 10
30569.604341291921
 20
1571.749496429285
 30
0.0
 11
30569.604341291921
 21
1599.7494964292871
 31
0.0
  0
ARC
  5
4C34
  8
YODOROGO
 10
30545.604341291921
 20
1571.749496429291
 30
0.0
 40
24.000000000003752
 50
270.0
 51
359.99999999998772
  0
LINE
  5
4C35
  8
YODOROGO
 10
30529.604341291939
 20
1547.749496429288
 30
0.0
 11
30545.604341291921
 21
1547.749496429288
 31
0.0
  0
LINE
  5
4C36
  8
YODOROGO
 10
30529.604341291939
 20
1627.749496429288
 30
0.0
 11
30529.604341291939
 21
1547.749496429288
 31
0.0
  0
LINE
  5
4C37
  8
YODOROGO
 10
30899.604341291932
 20
1547.749496429288
 30
0.0
 11
30925.604341291921
 21
1547.749496429288
 31
0.0
  0
LINE
  5
4C38
  8
YODOROGO
 10
30933.604341291921
 20
1427.749496429288
 30
0.0
 11
30899.604341291932
 21
1427.749496429288
 31
0.0
  0
LINE
  5
4C39
  8
YODOROGO
 10
30763.604341291921
 20
1563.7494964292871
 30
0.0
 11
30791.604341291921
 21
1563.7494964292871
 31
0.0
  0
LINE
  5
4C3A
  8
YODOROGO
 10
30899.604341291932
 20
1491.749496429288
 30
0.0
 11
30723.604341291921
 21
1491.749496429288
 31
0.0
  0
LINE
  5
4C3B
  8
YODOROGO
 10
30831.604341291921
 20
1563.7494964292871
 30
0.0
 11
30859.604341291932
 21
1563.7494964292871
 31
0.0
  0
LINE
  5
4C3C
  8
YODOROGO
 10
30899.604341291932
 20
1427.749496429288
 30
0.0
 11
30899.604341291932
 21
1547.749496429288
 31
0.0
  0
LINE
  5
4C3D
  8
YODOROGO
 10
30697.604341291932
 20
1427.749496429288
 30
0.0
 11
30645.604341291921
 21
1427.749496429288
 31
0.0
  0
LINE
  5
4C3E
  8
YODOROGO
 10
30617.604341291921
 20
1599.7494964292871
 30
0.0
 11
30617.604341291921
 21
1507.749496429288
 31
0.0
  0
ARC
  5
4C3F
  8
YODOROGO
 10
30933.604341291921
 20
1467.749496429288
 30
0.0
 40
40.0
 50
270.0
 51
0.0
  0
LINE
  5
4C40
  8
YODOROGO
 10
31093.604341291921
 20
1523.7494964292871
 30
0.0
 11
31093.604341291921
 21
1427.749496429288
 31
0.0
  0
ARC
  5
4C41
  8
YODOROGO
 10
31039.721395566768
 20
1637.5313901097329
 30
0.0
 40
125.8955565916754
 50
295.34052442160112
 51
359.18902303418679
  0
LINE
  5
4C42
  8
YODOROGO
 10
30617.604341291921
 20
1859.749496429288
 30
0.0
 11
30497.604341291921
 21
1939.749496429288
 31
0.0
  0
LINE
  5
4C43
  8
YODOROGO
 10
30497.604341291921
 20
2027.749496429288
 30
0.0
 11
30617.604341291921
 21
1947.749496429288
 31
0.0
  0
LINE
  5
4C44
  8
YODOROGO
 10
30529.604341291939
 20
1679.749496429288
 30
0.0
 11
30617.604341291921
 21
1679.749496429288
 31
0.0
  0
LINE
  5
4C45
  8
YODOROGO
 10
30617.604341291921
 20
1735.7494964292871
 30
0.0
 11
30529.604341291939
 21
1735.7494964292871
 31
0.0
  0
LINE
  5
4C46
  8
YODOROGO
 10
30381.604341291932
 20
1795.7494964292871
 30
0.0
 11
30617.604341291921
 21
1795.7494964292871
 31
0.0
  0
LINE
  5
4C47
  8
YODOROGO
 10
30081.604341291921
 20
2027.749496429288
 30
0.0
 11
30021.604341291921
 21
2027.749496429288
 31
0.0
  0
LINE
  5
4C48
  8
YODOROGO
 10
30081.604341291921
 20
1827.7494964292871
 30
0.0
 11
30081.604341291921
 21
2027.749496429288
 31
0.0
  0
LINE
  5
4C49
  8
YODOROGO
 10
30021.604341291921
 20
1827.7494964292871
 30
0.0
 11
30081.604341291921
 21
1827.7494964292871
 31
0.0
  0
LINE
  5
4C4A
  8
YODOROGO
 10
30021.604341291921
 20
2027.749496429288
 30
0.0
 11
30021.604341291921
 21
1827.7494964292871
 31
0.0
  0
LINE
  5
4C4B
  8
YODOROGO
 10
30161.604341291921
 20
2027.749496429288
 30
0.0
 11
30217.604341291921
 21
2027.749496429288
 31
0.0
  0
LINE
  5
4C4C
  8
YODOROGO
 10
30161.604341291921
 20
1811.749496429288
 30
0.0
 11
30161.604341291921
 21
2027.749496429288
 31
0.0
  0
ARC
  5
4C4D
  8
YODOROGO
 10
30121.604341291921
 20
1811.749496429288
 30
0.0
 40
40.0
 50
270.0
 51
0.0
  0
LINE
  5
4C4E
  8
YODOROGO
 10
30021.604341291921
 20
1771.7494964292871
 30
0.0
 11
30121.604341291921
 21
1771.7494964292871
 31
0.0
  0
LINE
  5
4C4F
  8
YODOROGO
 10
30021.604341291921
 20
1707.749496429288
 30
0.0
 11
30021.604341291921
 21
1771.7494964292871
 31
0.0
  0
LINE
  5
4C50
  8
YODOROGO
 10
30137.604341291921
 20
1707.749496429288
 30
0.0
 11
30021.604341291921
 21
1707.749496429288
 31
0.0
  0
ARC
  5
4C51
  8
YODOROGO
 10
30137.604341291921
 20
1787.7494964292871
 30
0.0
 40
80.0
 50
270.0
 51
0.0
  0
LINE
  5
4C52
  8
YODOROGO
 10
30217.604341291921
 20
2027.749496429288
 30
0.0
 11
30217.604341291921
 21
1787.7494964292871
 31
0.0
  0
LINE
  5
4C53
  8
YODOROGO
 10
29977.604341291921
 20
1947.749496429288
 30
0.0
 11
29977.604341291921
 21
1995.7494964292871
 31
0.0
1001
AUTOCAD_POSTSCRIPT_FIGURE
1002
{
1000
PSFILL
1000
Grayscale
1000
Grayscale
1070
    25
1002
}
  0
LINE
  5
4C54
  8
YODOROGO
 10
29977.604341291921
 20
1859.749496429288
 30
0.0
 11
29977.604341291921
 21
1907.7494964292871
 31
0.0
1001
AUTOCAD_POSTSCRIPT_FIGURE
1002
{
1000
PSFILL
1000
Grayscale
1000
Grayscale
1070
    25
1002
}
  0
LINE
  5
4C55
  8
YODOROGO
 10
29977.604341291921
 20
1707.749496429288
 30
0.0
 11
29977.604341291921
 21
1819.7494964292871
 31
0.0
1001
AUTOCAD_POSTSCRIPT_FIGURE
1002
{
1000
PSFILL
1000
Grayscale
1000
Grayscale
1070
    25
1002
}
  0
LINE
  5
4C56
  8
YODOROGO
 10
30381.604341291932
 20
1907.7494964292871
 30
0.0
 11
30497.604341291921
 21
2027.749496429288
 31
0.0
  0
LINE
  5
4C57
  8
YODOROGO
 10
30381.604341291932
 20
1819.7494964292871
 30
0.0
 11
30381.604341291932
 21
1907.7494964292871
 31
0.0
  0
LINE
  5
4C58
  8
YODOROGO
 10
30497.604341291921
 20
1939.749496429288
 30
0.0
 11
30381.604341291932
 21
1819.7494964292871
 31
0.0
  0
LINE
  5
4C59
  8
YODOROGO
 10
30465.604341291921
 20
1679.749496429288
 30
0.0
 11
30465.604341291921
 21
1735.7494964292871
 31
0.0
  0
LINE
  5
4C5A
  8
YODOROGO
 10
30381.604341291932
 20
1679.749496429288
 30
0.0
 11
30465.604341291921
 21
1679.749496429288
 31
0.0
  0
LINE
  5
4C5B
  8
YODOROGO
 10
30529.604341291939
 20
1735.7494964292871
 30
0.0
 11
30529.604341291939
 21
1679.749496429288
 31
0.0
  0
LINE
  5
4C5C
  8
YODOROGO
 10
30381.604341291932
 20
1735.7494964292871
 30
0.0
 11
30381.604341291932
 21
1795.7494964292871
 31
0.0
  0
LINE
  5
4C5D
  8
YODOROGO
 10
30465.604341291921
 20
1735.7494964292871
 30
0.0
 11
30381.604341291932
 21
1735.7494964292871
 31
0.0
  0
LINE
  5
4C5E
  8
YODOROGO
 10
30645.604341291921
 20
2027.749496429288
 30
0.0
 11
30973.604341291921
 21
2027.749496429288
 31
0.0
  0
LINE
  5
4C5F
  8
YODOROGO
 10
30925.604341291921
 20
1963.749496429286
 30
0.0
 11
30697.604341291932
 21
1963.749496429286
 31
0.0
  0
LINE
  5
4C60
  8
YODOROGO
 10
30873.604341291921
 20
1819.7494964292871
 30
0.0
 11
30899.604341291932
 21
1819.7494964292871
 31
0.0
  0
LINE
  5
4C61
  8
YODOROGO
 10
30899.604341291932
 20
1939.749496429288
 30
0.0
 11
30873.604341291921
 21
1819.7494964292871
 31
0.0
  0
LINE
  5
4C62
  8
YODOROGO
 10
30851.604341291939
 20
1939.749496429288
 30
0.0
 11
30899.604341291932
 21
1939.749496429288
 31
0.0
  0
LINE
  5
4C63
  8
YODOROGO
 10
30825.604341291921
 20
1819.7494964292871
 30
0.0
 11
30851.604341291939
 21
1939.749496429288
 31
0.0
  0
LINE
  5
4C64
  8
YODOROGO
 10
30797.604341291921
 20
1819.7494964292871
 30
0.0
 11
30825.604341291921
 21
1819.7494964292871
 31
0.0
  0
LINE
  5
4C65
  8
YODOROGO
 10
30771.604341291939
 20
1939.749496429288
 30
0.0
 11
30797.604341291921
 21
1819.7494964292871
 31
0.0
  0
LINE
  5
4C66
  8
YODOROGO
 10
30723.604341291921
 20
1939.749496429288
 30
0.0
 11
30771.604341291939
 21
1939.749496429288
 31
0.0
  0
LINE
  5
4C67
  8
YODOROGO
 10
30749.604341291921
 20
1819.7494964292871
 30
0.0
 11
30723.604341291921
 21
1939.749496429288
 31
0.0
  0
LINE
  5
4C68
  8
YODOROGO
 10
30723.604341291921
 20
1819.7494964292871
 30
0.0
 11
30749.604341291921
 21
1819.7494964292871
 31
0.0
  0
LINE
  5
4C69
  8
YODOROGO
 10
30723.604341291921
 20
1755.7494964292871
 30
0.0
 11
30723.604341291921
 21
1819.7494964292871
 31
0.0
  0
LINE
  5
4C6A
  8
YODOROGO
 10
30899.604341291932
 20
1755.7494964292871
 30
0.0
 11
30723.604341291921
 21
1755.7494964292871
 31
0.0
  0
LINE
  5
4C6B
  8
YODOROGO
 10
30899.604341291932
 20
1819.7494964292871
 30
0.0
 11
30899.604341291932
 21
1755.7494964292871
 31
0.0
  0
LINE
  5
4C6C
  8
YODOROGO
 10
30617.604341291921
 20
1947.749496429288
 30
0.0
 11
30617.604341291921
 21
1859.749496429288
 31
0.0
  0
LINE
  5
4C6D
  8
YODOROGO
 10
30791.604341291921
 20
1755.7494964292871
 30
0.0
 11
30831.604341291921
 21
1755.7494964292871
 31
0.0
  0
LINE
  5
4C6E
  8
YODOROGO
 10
30723.604341291921
 20
1691.749496429288
 30
0.0
 11
30763.604341291921
 21
1691.749496429288
 31
0.0
  0
LINE
  5
4C6F
  8
YODOROGO
 10
30859.604341291932
 20
1691.749496429288
 30
0.0
 11
30899.604341291932
 21
1691.749496429288
 31
0.0
  0
LINE
  5
4C70
  8
YODOROGO
 10
30617.604341291921
 20
1795.7494964292871
 30
0.0
 11
30617.604341291921
 21
1735.7494964292871
 31
0.0
  0
LINE
  5
4C71
  8
YODOROGO
 10
31165.604341291921
 20
2027.749496429288
 30
0.0
 11
31165.604341291921
 21
1963.749496429286
 31
0.0
  0
LINE
  5
4C72
  8
YODOROGO
 10
31533.604341291921
 20
1595.7494964292871
 30
0.0
 11
31533.60434129191
 21
1811.749496429288
 31
0.0
  0
LINE
  5
4C73
  8
YODOROGO
 10
31461.60434129191
 20
1987.7494964292871
 30
0.0
 11
31461.60434129191
 21
1635.7494964292871
 31
0.0
  0
LINE
  5
4C74
  8
YODOROGO
 10
31653.604341291921
 20
1427.749496429288
 30
0.0
 11
31653.60434129191
 21
1811.749496429288
 31
0.0
  0
LINE
  5
4C75
  8
YODOROGO
 10
31589.604341291921
 20
1811.749496429288
 30
0.0
 11
31589.604341291921
 21
1427.749496429288
 31
0.0
  0
LINE
  5
4C76
  8
YODOROGO
 10
31237.604341291921
 20
1595.7494964292871
 30
0.0
 11
31237.604341291921
 21
1707.749496429288
 31
0.0
  0
ARC
  5
4C77
  8
YODOROGO
 10
31353.914865116069
 20
1607.790351288558
 30
0.0
 40
180.0924485759885
 50
268.62849102169793
 51
356.16638457330322
  0
LINE
  5
4C78
  8
YODOROGO
 10
31349.604341291939
 20
1527.749496429288
 30
0.0
 11
31349.604341291939
 21
1427.749496429288
 31
0.0
  0
ARC
  5
4C79
  8
YODOROGO
 10
31351.518075724562
 20
1637.838957017655
 30
0.0
 40
110.1060929836122
 50
269.00410209305932
 51
358.91264455492478
  0
LINE
  5
4C7A
  8
YODOROGO
 10
31589.604341291921
 20
1427.749496429288
 30
0.0
 11
31653.604341291921
 21
1427.749496429288
 31
0.0
  0
LINE
  5
4C7B
  8
YODOROGO
 10
31533.60434129191
 20
1811.749496429288
 30
0.0
 11
31589.604341291921
 21
1811.749496429288
 31
0.0
  0
LINE
  5
4C7C
  8
YODOROGO
 10
31621.604341291939
 20
1987.7494964292871
 30
0.0
 11
31461.60434129191
 21
1987.7494964292871
 31
0.0
  0
LINE
  5
4C7D
  8
YODOROGO
 10
31533.60434129191
 20
1915.7494964292871
 30
0.0
 11
31661.604341291939
 21
1915.7494964292871
 31
0.0
  0
LINE
  5
4C7E
  8
YODOROGO
 10
31701.604341291939
 20
1875.7494964292871
 30
0.0
 11
31533.60434129191
 21
1875.7494964292871
 31
0.0
  0
LINE
  5
4C7F
  8
YODOROGO
 10
31237.604341291921
 20
1779.749496429288
 30
0.0
 11
31349.604341291939
 21
1779.749496429288
 31
0.0
  0
LINE
  5
4C80
  8
YODOROGO
 10
31237.604341291921
 20
1835.7494964292871
 30
0.0
 11
31237.604341291921
 21
1779.749496429288
 31
0.0
  0
LINE
  5
4C81
  8
YODOROGO
 10
31349.604341291939
 20
1835.7494964292871
 30
0.0
 11
31237.604341291921
 21
1835.7494964292871
 31
0.0
  0
LINE
  5
4C82
  8
YODOROGO
 10
31349.604341291939
 20
1779.749496429288
 30
0.0
 11
31349.604341291939
 21
1835.7494964292871
 31
0.0
  0
LINE
  5
4C83
  8
YODOROGO
 10
31533.60434129191
 20
1875.7494964292871
 30
0.0
 11
31533.60434129191
 21
1915.7494964292871
 31
0.0
  0
LINE
  5
4C84
  8
YODOROGO
 10
31413.604341291921
 20
1707.749496429288
 30
0.0
 11
31413.604341291921
 21
1907.7494964292871
 31
0.0
  0
LINE
  5
4C85
  8
YODOROGO
 10
31237.604341291921
 20
1707.749496429288
 30
0.0
 11
31413.604341291921
 21
1707.749496429288
 31
0.0
  0
LINE
  5
4C86
  8
YODOROGO
 10
31413.604341291921
 20
1963.749496429286
 30
0.0
 11
31413.604341291921
 21
2027.749496429288
 31
0.0
  0
ARC
  5
4C87
  8
YODOROGO
 10
31621.604341291939
 20
2003.749496429285
 30
0.0
 40
15.999999999994539
 50
270.0
 51
0.0000000000081422
  0
LINE
  5
4C88
  8
YODOROGO
 10
31637.604341291921
 20
2027.749496429288
 30
0.0
 11
31637.604341291921
 21
2003.7494964292871
 31
0.0
  0
LINE
  5
4C89
  8
YODOROGO
 10
31701.604341291939
 20
2027.749496429288
 30
0.0
 11
31637.604341291921
 21
2027.749496429288
 31
0.0
  0
LINE
  5
4C8A
  8
YODOROGO
 10
31701.604341291939
 20
1955.7494964292871
 30
0.0
 11
31701.604341291939
 21
2027.749496429288
 31
0.0
  0
ARC
  5
4C8B
  8
YODOROGO
 10
31661.604341291939
 20
1955.7494964292871
 30
0.0
 40
40.0
 50
270.0
 51
0.0
  0
LINE
  5
4C8C
  8
YODOROGO
 10
31701.604341291939
 20
1811.749496429288
 30
0.0
 11
31701.604341291939
 21
1875.7494964292871
 31
0.0
  0
LINE
  5
4C8D
  8
YODOROGO
 10
31653.60434129191
 20
1811.749496429288
 30
0.0
 11
31701.604341291939
 21
1811.749496429288
 31
0.0
  0
LINE
  5
4C8E
  8
SUNPOU
  6
CONTINUOUS
 62
     4
 10
27236.175727999958
 20
19629.816444999949
 30
0.0
 11
27436.175727999958
 21
19629.816444999949
 31
0.0
  0
LINE
  5
4C8F
  8
SUNPOU
  6
CONTINUOUS
 62
     4
 10
26386.174407999959
 20
19222.31644499996
 30
0.0
 11
27436.175727999958
 21
19222.31644499996
 31
0.0
  0
LINE
  5
4C90
  8
SUNPOU
  6
CONTINUOUS
 62
     4
 10
27356.175727999958
 20
19629.816444999949
 30
0.0
 11
27356.175727999958
 21
19869.816444999949
 31
0.0
  0
LINE
  5
4C91
  8
SUNPOU
  6
CONTINUOUS
 62
     4
 10
27356.175727999958
 20
19222.31644499996
 30
0.0
 11
27356.175727999958
 21
18982.316444999971
 31
0.0
  0
LINE
  5
4C92
  8
SUNPOU
  6
CONTINUOUS
 62
     4
 10
27356.175727999958
 20
19629.816444999949
 30
0.0
 11
27356.175727999958
 21
19222.31644499996
 31
0.0
  0
LINE
  5
4C93
  8
SUNPOU
  6
CONTINUOUS
 62
     4
 10
4330.8201079664468
 20
13872.31947999998
 30
0.0
 11
4330.8201079664468
 21
13043.368360999981
 31
0.0
  0
LINE
  5
4C94
  8
SUNPOU
  6
CONTINUOUS
 62
     4
 10
13775.81851796644
 20
13872.31947999998
 30
0.0
 11
13775.81851796644
 21
13043.368360999981
 31
0.0
  0
LINE
  5
4C95
  8
SUNPOU
  6
CONTINUOUS
 62
     4
 10
4330.8201079664468
 20
13123.368360999981
 30
0.0
 11
13775.81851796644
 21
13123.368360999981
 31
0.0
  0
LINE
  5
4C96
  8
SUNPOU
  6
CONTINUOUS
 62
     4
 10
4168.3178869664443
 20
14302.32112999998
 30
0.0
 11
3321.3224659664438
 21
14302.32112999998
 31
0.0
  0
LINE
  5
4C97
  8
SUNPOU
  6
CONTINUOUS
 62
     4
 10
3401.3224659664438
 20
14494.81644499998
 30
0.0
 11
3401.3224659664438
 21
14734.81644499998
 31
0.0
  0
LINE
  5
4C98
  8
SUNPOU
  6
CONTINUOUS
 62
     4
 10
3401.3224659664438
 20
14302.32112999998
 30
0.0
 11
3401.3224659664438
 21
14062.32112999998
 31
0.0
  0
LINE
  5
4C99
  8
SUNPOU
  6
CONTINUOUS
 62
     4
 10
3401.3224659664438
 20
14494.81644499998
 30
0.0
 11
3401.3224659664438
 21
14302.32112999998
 31
0.0
  0
LINE
  5
4C9A
  8
SUNPOU
  6
CONTINUOUS
 62
     4
 10
3401.3224659664438
 20
17062.316444999979
 30
0.0
 11
3401.3224659664438
 21
14494.81644499998
 31
0.0
  0
LINE
  5
4C9B
  8
SUNPOU
  6
CONTINUOUS
 62
     4
 10
4168.3178869664443
 20
19842.312354000002
 30
0.0
 11
3721.3224659664438
 21
19842.312354000002
 31
0.0
  0
LINE
  5
4C9C
  8
SUNPOU
  6
CONTINUOUS
 62
     4
 10
4168.3222419664417
 20
19852.312354000002
 30
0.0
 11
3721.3224659664438
 21
19852.312354000002
 31
0.0
  0
LINE
  5
4C9D
  8
SUNPOU
  6
CONTINUOUS
 62
     4
 10
3801.3224659664452
 20
19842.312354000002
 30
0.0
 11
3801.3224659664452
 21
19602.312354000002
 31
0.0
  0
LINE
  5
4C9E
  8
SUNPOU
  6
CONTINUOUS
 62
     4
 10
3801.3224659664452
 20
19852.312354000002
 30
0.0
 11
3801.3224659664452
 21
20092.312354000002
 31
0.0
  0
LINE
  5
4C9F
  8
SUNPOU
  6
CONTINUOUS
 62
     4
 10
3801.3224659664452
 20
19842.312354000002
 30
0.0
 11
3801.3224659664452
 21
19852.312354000002
 31
0.0
  0
LINE
  5
4CA0
  8
SUNPOU
  6
CONTINUOUS
 62
     4
 10
4168.3222419664417
 20
19852.312354000002
 30
0.0
 11
3321.3224659664438
 21
19852.312354000002
 31
0.0
  0
LINE
  5
4CA1
  8
SUNPOU
  6
CONTINUOUS
 62
     4
 10
3401.3224659664438
 20
19629.816444999949
 30
0.0
 11
3401.3224659664438
 21
19389.816444999949
 31
0.0
  0
LINE
  5
4CA2
  8
SUNPOU
  6
CONTINUOUS
 62
     4
 10
3401.3224659664438
 20
19852.312354000002
 30
0.0
 11
3401.3224659664438
 21
20092.312354000002
 31
0.0
  0
LINE
  5
4CA3
  8
SUNPOU
  6
CONTINUOUS
 62
     4
 10
3401.3224659664438
 20
19629.816444999949
 30
0.0
 11
3401.3224659664438
 21
19852.312354000002
 31
0.0
  0
LINE
  5
4CA4
  8
SUNPOU
  6
CONTINUOUS
 62
     4
 10
3401.3224659664438
 20
17062.316444999979
 30
0.0
 11
3401.3224659664438
 21
19629.816444999949
 31
0.0
  0
LINE
  5
4CA5
  8
SUNPOU
  6
CONTINUOUS
 62
     4
 10
4245.320107966445
 20
19932.312354000002
 30
0.0
 11
4245.320107966445
 21
20482.317632999999
 31
0.0
  0
LINE
  5
4CA6
  8
SUNPOU
  6
CONTINUOUS
 62
     4
 10
4330.8201079664468
 20
20402.317632999999
 30
0.0
 11
4570.8201079664459
 21
20402.317632999999
 31
0.0
  0
LINE
  5
4CA7
  8
SUNPOU
  6
CONTINUOUS
 62
     4
 10
4248.320107966445
 20
20402.317632999999
 30
0.0
 11
4008.320107966445
 21
20402.317632999999
 31
0.0
  0
LINE
  5
4CA8
  8
SUNPOU
  6
CONTINUOUS
 62
     4
 10
4330.8201079664468
 20
20402.317632999999
 30
0.0
 11
4248.320107966445
 21
20402.317632999999
 31
0.0
  0
LINE
  5
4CA9
  8
SUNPOU
  6
CONTINUOUS
 62
     4
 10
7599.3201079664468
 20
20402.317632999999
 30
0.0
 11
4330.8201079664468
 21
20402.317632999999
 31
0.0
  0
LINE
  5
4CAA
  8
SUNPOU
  6
CONTINUOUS
 62
     4
 10
10507.318517966431
 20
20402.317632999999
 30
0.0
 11
7599.3201079664468
 21
20402.317632999999
 31
0.0
  0
LINE
  5
4CAB
  8
SUNPOU
  6
CONTINUOUS
 62
     4
 10
13861.31851796644
 20
19932.312354000002
 30
0.0
 11
13861.31851796644
 21
20482.317632999999
 31
0.0
  0
LINE
  5
4CAC
  8
SUNPOU
  6
CONTINUOUS
 62
     4
 10
13775.81851796644
 20
20402.317632999999
 30
0.0
 11
13535.81851796644
 21
20402.317632999999
 31
0.0
  0
LINE
  5
4CAD
  8
SUNPOU
  6
CONTINUOUS
 62
     4
 10
13858.31851796644
 20
20402.317632999999
 30
0.0
 11
14098.318517966431
 21
20402.317632999999
 31
0.0
  0
LINE
  5
4CAE
  8
SUNPOU
  6
CONTINUOUS
 62
     4
 10
13775.81851796644
 20
20402.317632999999
 30
0.0
 11
13858.31851796644
 21
20402.317632999999
 31
0.0
  0
LINE
  5
4CAF
  8
SUNPOU
  6
CONTINUOUS
 62
     4
 10
10507.318517966431
 20
20402.317632999999
 30
0.0
 11
13775.81851796644
 21
20402.317632999999
 31
0.0
  0
LINE
  5
4CB0
  8
2-0
  6
CONTINUOUS
 62
     3
 10
22952.676123999961
 20
14452.31644499998
 30
0.0
 11
23037.676123999961
 21
14452.31644499998
 31
0.0
  0
LINE
  5
4CB1
  8
2-0
  6
CONTINUOUS
 62
     3
 10
23037.676123999961
 20
14452.31644499998
 30
0.0
 11
23037.676123999961
 21
14537.31644499998
 31
0.0
  0
LINE
  5
4CB2
  8
2-0
  6
CONTINUOUS
 62
     3
 10
23037.676123999961
 20
14537.31644499998
 30
0.0
 11
22952.676123999961
 21
14537.31644499998
 31
0.0
  0
LINE
  5
4CB3
  8
2-0
  6
CONTINUOUS
 62
     3
 10
22952.676123999961
 20
14537.31644499998
 30
0.0
 11
22952.676123999961
 21
14452.31644499998
 31
0.0
  0
LINE
  5
4CB4
  8
2-0
  6
CONTINUOUS
 62
     3
 10
20452.670844999979
 20
14452.31644499998
 30
0.0
 11
20537.670845000001
 21
14452.31644499998
 31
0.0
  0
LINE
  5
4CB5
  8
2-0
  6
CONTINUOUS
 62
     3
 10
20537.670845000001
 20
14452.31644499998
 30
0.0
 11
20537.670845000001
 21
14537.31644499998
 31
0.0
  0
LINE
  5
4CB6
  8
2-0
  6
CONTINUOUS
 62
     3
 10
20537.670845000001
 20
14537.31644499998
 30
0.0
 11
20452.670844999979
 21
14537.31644499998
 31
0.0
  0
LINE
  5
4CB7
  8
2-0
  6
CONTINUOUS
 62
     3
 10
20452.670844999979
 20
14537.31644499998
 30
0.0
 11
20452.670844999979
 21
14452.31644499998
 31
0.0
  0
LINE
  5
4CB8
  8
SUNPOU
  6
CONTINUOUS
 62
     4
 10
26263.676123999961
 20
13789.05301099998
 30
0.0
 11
26263.676123999961
 21
13443.368360999981
 31
0.0
  0
LINE
  5
4CB9
  8
SUNPOU
  6
CONTINUOUS
 62
     4
 10
26221.17388099997
 20
14372.319149999979
 30
0.0
 11
26221.17388099997
 21
13443.368360999981
 31
0.0
  0
LINE
  5
4CBA
  8
SUNPOU
  6
CONTINUOUS
 62
     4
 10
26263.676123999961
 20
13523.368360999981
 30
0.0
 11
26503.676123999961
 21
13523.368360999981
 31
0.0
  0
LINE
  5
4CBB
  8
SUNPOU
  6
CONTINUOUS
 62
     4
 10
26221.17388099997
 20
13523.368360999981
 30
0.0
 11
25981.17388099997
 21
13523.368360999981
 31
0.0
  0
LINE
  5
4CBC
  8
SUNPOU
  6
CONTINUOUS
 62
     4
 10
26263.676123999961
 20
13523.368360999981
 30
0.0
 11
26221.17388099997
 21
13523.368360999981
 31
0.0
  0
LINE
  5
4CBD
  8
SUNPOU
  6
CONTINUOUS
 62
     4
 10
17226.670844999979
 20
13789.05301099998
 30
0.0
 11
17226.670844999979
 21
13443.368360999981
 31
0.0
  0
LINE
  5
4CBE
  8
SUNPOU
  6
CONTINUOUS
 62
     4
 10
17269.173087999981
 20
14372.319149999979
 30
0.0
 11
17269.173087999981
 21
13443.368360999981
 31
0.0
  0
LINE
  5
4CBF
  8
SUNPOU
  6
CONTINUOUS
 62
     4
 10
17226.670844999979
 20
13523.368360999981
 30
0.0
 11
16986.67084499999
 21
13523.368360999981
 31
0.0
  0
LINE
  5
4CC0
  8
SUNPOU
  6
CONTINUOUS
 62
     4
 10
17269.173087999981
 20
13523.368360999981
 30
0.0
 11
17509.173087999989
 21
13523.368360999981
 31
0.0
  0
LINE
  5
4CC1
  8
SUNPOU
  6
CONTINUOUS
 62
     4
 10
17226.670844999979
 20
13523.368360999981
 30
0.0
 11
17269.173087999981
 21
13523.368360999981
 31
0.0
  0
LINE
  5
4CC2
  8
SUNPOU
  6
CONTINUOUS
 62
     4
 10
17226.670844999979
 20
13789.05301099998
 30
0.0
 11
17226.670844999979
 21
13043.368360999981
 31
0.0
  0
LINE
  5
4CC3
  8
SUNPOU
  6
CONTINUOUS
 62
     4
 10
26263.676123999961
 20
13789.05301099998
 30
0.0
 11
26263.676123999961
 21
13043.368360999981
 31
0.0
  0
LINE
  5
4CC4
  8
SUNPOU
  6
CONTINUOUS
 62
     4
 10
17226.670844999979
 20
13123.368360999981
 30
0.0
 11
26263.676123999961
 21
13123.368360999981
 31
0.0
  0
LINE
  5
4CC5
  8
SUNPOU
  6
CONTINUOUS
 62
     4
 10
26386.174407999959
 20
14902.31644499998
 30
0.0
 11
27436.175727999958
 21
14902.31644499998
 31
0.0
  0
LINE
  5
4CC6
  8
SUNPOU
  6
CONTINUOUS
 62
     4
 10
27236.175727999958
 20
14494.81644499998
 30
0.0
 11
27436.175727999958
 21
14494.81644499998
 31
0.0
  0
LINE
  5
4CC7
  8
SUNPOU
  6
CONTINUOUS
 62
     4
 10
27356.175727999958
 20
14902.31644499998
 30
0.0
 11
27356.175727999958
 21
15142.31644499998
 31
0.0
  0
LINE
  5
4CC8
  8
SUNPOU
  6
CONTINUOUS
 62
     4
 10
27356.175727999958
 20
14494.81644499998
 30
0.0
 11
27356.175727999958
 21
14254.816444999969
 31
0.0
  0
LINE
  5
4CC9
  8
SUNPOU
  6
CONTINUOUS
 62
     4
 10
27356.175727999958
 20
14902.31644499998
 30
0.0
 11
27356.175727999958
 21
14494.81644499998
 31
0.0
  0
LINE
  5
4CCA
  8
SUNPOU
  6
CONTINUOUS
 62
     4
 10
26386.174407999959
 20
15603.556956500001
 30
0.0
 11
27436.175727999958
 21
15603.556956500001
 31
0.0
  0
LINE
  5
4CCB
  8
SUNPOU
  6
CONTINUOUS
 62
     4
 10
26386.174407999959
 20
14902.31644499998
 30
0.0
 11
27436.175727999958
 21
14902.31644499998
 31
0.0
  0
LINE
  5
4CCC
  8
SUNPOU
  6
CONTINUOUS
 62
     4
 10
27356.175727999958
 20
15603.556956500001
 30
0.0
 11
27356.175727999958
 21
14902.31644499998
 31
0.0
  0
LINE
  5
4CCD
  8
SUNPOU
  6
CONTINUOUS
 62
     4
 10
26386.174407999959
 20
16304.31644499998
 30
0.0
 11
27436.175727999958
 21
16304.31644499998
 31
0.0
  0
LINE
  5
4CCE
  8
SUNPOU
  6
CONTINUOUS
 62
     4
 10
26386.174407999959
 20
15603.556956500001
 30
0.0
 11
27436.175727999958
 21
15603.556956500001
 31
0.0
  0
LINE
  5
4CCF
  8
SUNPOU
  6
CONTINUOUS
 62
     4
 10
27356.175727999958
 20
16304.31644499998
 30
0.0
 11
27356.175727999958
 21
15603.556956500001
 31
0.0
  0
LINE
  5
4CD0
  8
SUNPOU
  6
CONTINUOUS
 62
     4
 10
27236.175727999958
 20
17062.316444999979
 30
0.0
 11
27436.175727999958
 21
17062.316444999979
 31
0.0
  0
LINE
  5
4CD1
  8
SUNPOU
  6
CONTINUOUS
 62
     4
 10
26386.174407999959
 20
16304.31644499998
 30
0.0
 11
27436.175727999958
 21
16304.31644499998
 31
0.0
  0
LINE
  5
4CD2
  8
SUNPOU
  6
CONTINUOUS
 62
     4
 10
27356.175727999958
 20
17062.316444999979
 30
0.0
 11
27356.175727999958
 21
16304.31644499998
 31
0.0
  0
LINE
  5
4CD3
  8
SUNPOU
  6
CONTINUOUS
 62
     4
 10
26386.174407999959
 20
17820.316444999979
 30
0.0
 11
27436.175727999958
 21
17820.316444999979
 31
0.0
  0
LINE
  5
4CD4
  8
SUNPOU
  6
CONTINUOUS
 62
     4
 10
27236.175727999958
 20
17062.316444999979
 30
0.0
 11
27436.175727999958
 21
17062.316444999979
 31
0.0
  0
LINE
  5
4CD5
  8
SUNPOU
  6
CONTINUOUS
 62
     4
 10
27356.175727999958
 20
17820.316444999979
 30
0.0
 11
27356.175727999958
 21
17062.316444999979
 31
0.0
  0
LINE
  5
4CD6
  8
SUNPOU
  6
CONTINUOUS
 62
     4
 10
26386.174407999959
 20
18521.31644499996
 30
0.0
 11
27436.175727999958
 21
18521.31644499996
 31
0.0
  0
LINE
  5
4CD7
  8
SUNPOU
  6
CONTINUOUS
 62
     4
 10
26386.174407999959
 20
17820.316444999979
 30
0.0
 11
27436.175727999958
 21
17820.316444999979
 31
0.0
  0
LINE
  5
4CD8
  8
SUNPOU
  6
CONTINUOUS
 62
     4
 10
27356.175727999958
 20
18521.31644499996
 30
0.0
 11
27356.175727999958
 21
17820.316444999979
 31
0.0
  0
LINE
  5
4CD9
  8
SUNPOU
  6
CONTINUOUS
 62
     4
 10
26386.174407999959
 20
19222.31644499996
 30
0.0
 11
27436.175727999958
 21
19222.31644499996
 31
0.0
  0
LINE
  5
4CDA
  8
SUNPOU
  6
CONTINUOUS
 62
     4
 10
26386.174407999959
 20
18521.31644499996
 30
0.0
 11
27436.175727999958
 21
18521.31644499996
 31
0.0
  0
LINE
  5
4CDB
  8
SUNPOU
  6
CONTINUOUS
 62
     4
 10
27356.175727999958
 20
19222.31644499996
 30
0.0
 11
27356.175727999958
 21
18521.31644499996
 31
0.0
  0
LINE
  5
4CDC
  8
SUNPOU
  6
CONTINUOUS
 62
     4
 10
27236.175727999958
 20
17062.316444999979
 30
0.0
 11
27836.175727999958
 21
17062.316444999979
 31
0.0
  0
LINE
  5
4CDD
  8
SUNPOU
  6
CONTINUOUS
 62
     4
 10
27236.175727999958
 20
19629.816444999949
 30
0.0
 11
27836.175727999958
 21
19629.816444999949
 31
0.0
  0
LINE
  5
4CDE
  8
SUNPOU
  6
CONTINUOUS
 62
     4
 10
27756.175727999958
 20
17062.316444999979
 30
0.0
 11
27756.175727999958
 21
19629.816444999949
 31
0.0
  0
LINE
  5
4CDF
  8
SUNPOU
  6
CONTINUOUS
 62
     4
 10
27236.175727999958
 20
14494.81644499998
 30
0.0
 11
27836.175727999958
 21
14494.81644499998
 31
0.0
  0
LINE
  5
4CE0
  8
SUNPOU
  6
CONTINUOUS
 62
     4
 10
27236.175727999958
 20
17062.316444999979
 30
0.0
 11
27836.175727999958
 21
17062.316444999979
 31
0.0
  0
LINE
  5
4CE1
  8
SUNPOU
  6
CONTINUOUS
 62
     4
 10
27756.175727999958
 20
14494.81644499998
 30
0.0
 11
27756.175727999958
 21
17062.316444999979
 31
0.0
  0
LINE
  5
4CE2
  8
SUNPOU
  6
CONTINUOUS
 62
     4
 10
26386.174407999959
 20
19672.31373999998
 30
0.0
 11
28236.175727999958
 21
19672.31373999998
 31
0.0
  0
LINE
  5
4CE3
  8
SUNPOU
  6
CONTINUOUS
 62
     4
 10
26386.174407999959
 20
14452.319149999979
 30
0.0
 11
28236.175727999958
 21
14452.319149999979
 31
0.0
  0
LINE
  5
4CE4
  8
SUNPOU
  6
CONTINUOUS
 62
     4
 10
28156.175727999958
 20
19672.31373999998
 30
0.0
 11
28156.175727999958
 21
14452.319149999979
 31
0.0
  0
LINE
  5
4CE5
  8
SUNPOU
  6
CONTINUOUS
 62
     4
 10
27236.175727999958
 20
19629.816444999949
 30
0.0
 11
27836.175727999958
 21
19629.816444999949
 31
0.0
  0
LINE
  5
4CE6
  8
SUNPOU
  6
CONTINUOUS
 62
     4
 10
26386.174407999959
 20
19672.31373999998
 30
0.0
 11
27836.175727999958
 21
19672.31373999998
 31
0.0
  0
LINE
  5
4CE7
  8
SUNPOU
  6
CONTINUOUS
 62
     4
 10
27756.175727999958
 20
19629.816444999949
 30
0.0
 11
27756.175727999958
 21
19389.816444999949
 31
0.0
  0
LINE
  5
4CE8
  8
SUNPOU
  6
CONTINUOUS
 62
     4
 10
27756.175727999958
 20
19672.31373999998
 30
0.0
 11
27756.175727999958
 21
19912.31373999998
 31
0.0
  0
LINE
  5
4CE9
  8
SUNPOU
  6
CONTINUOUS
 62
     4
 10
27756.175727999958
 20
19629.816444999949
 30
0.0
 11
27756.175727999958
 21
19672.31373999998
 31
0.0
  0
LINE
  5
4CEA
  8
SUNPOU
  6
CONTINUOUS
 62
     4
 10
27236.175727999958
 20
14494.81644499998
 30
0.0
 11
27836.175727999958
 21
14494.81644499998
 31
0.0
  0
LINE
  5
4CEB
  8
SUNPOU
  6
CONTINUOUS
 62
     4
 10
26386.174407999959
 20
14452.319149999979
 30
0.0
 11
27836.175727999958
 21
14452.319149999979
 31
0.0
  0
LINE
  5
4CEC
  8
SUNPOU
  6
CONTINUOUS
 62
     4
 10
27756.175727999958
 20
14494.81644499998
 30
0.0
 11
27756.175727999958
 21
14734.81644499998
 31
0.0
  0
LINE
  5
4CED
  8
SUNPOU
  6
CONTINUOUS
 62
     4
 10
27756.175727999958
 20
14452.319149999979
 30
0.0
 11
27756.175727999958
 21
14212.319149999979
 31
0.0
  0
LINE
  5
4CEE
  8
SUNPOU
  6
CONTINUOUS
 62
     4
 10
27756.175727999958
 20
14494.81644499998
 30
0.0
 11
27756.175727999958
 21
14452.319149999979
 31
0.0
  0
LINE
  5
4CEF
  8
SUNPOU
  6
CONTINUOUS
 62
     4
 10
20495.171834500001
 20
19752.314729999998
 30
0.0
 11
20495.171834500001
 21
20482.317632999999
 31
0.0
  0
LINE
  5
4CF0
  8
SUNPOU
  6
CONTINUOUS
 62
     4
 10
22995.176123999961
 20
19752.314729999998
 30
0.0
 11
22995.176123999961
 21
20482.317632999999
 31
0.0
  0
LINE
  5
4CF1
  8
SUNPOU
  6
CONTINUOUS
 62
     4
 10
20495.171834500001
 20
20402.317632999999
 30
0.0
 11
22995.176123999961
 21
20402.317632999999
 31
0.0
  0
LINE
  5
4CF2
  8
SUNPOU
  6
CONTINUOUS
 62
     4
 10
22995.176123999961
 20
19752.314729999998
 30
0.0
 11
22995.176123999961
 21
20482.317632999999
 31
0.0
  0
LINE
  5
4CF3
  8
SUNPOU
  6
CONTINUOUS
 62
     4
 10
23402.676123999961
 20
19752.314729999998
 30
0.0
 11
23402.676123999961
 21
20482.317632999999
 31
0.0
  0
LINE
  5
4CF4
  8
SUNPOU
  6
CONTINUOUS
 62
     4
 10
22995.176123999961
 20
20402.317632999999
 30
0.0
 11
22755.176123999961
 21
20402.317632999999
 31
0.0
  0
LINE
  5
4CF5
  8
SUNPOU
  6
CONTINUOUS
 62
     4
 10
23402.676123999961
 20
20402.317632999999
 30
0.0
 11
23642.676123999961
 21
20402.317632999999
 31
0.0
  0
LINE
  5
4CF6
  8
SUNPOU
  6
CONTINUOUS
 62
     4
 10
22995.176123999961
 20
20402.317632999999
 30
0.0
 11
23402.676123999961
 21
20402.317632999999
 31
0.0
  0
LINE
  5
4CF7
  8
SUNPOU
  6
CONTINUOUS
 62
     4
 10
25505.676123999961
 20
19752.314729999998
 30
0.0
 11
25505.676123999961
 21
20482.317632999999
 31
0.0
  0
LINE
  5
4CF8
  8
SUNPOU
  6
CONTINUOUS
 62
     4
 10
26263.67711349998
 20
19752.314729999998
 30
0.0
 11
26263.67711349998
 21
20482.317632999999
 31
0.0
  0
LINE
  5
4CF9
  8
SUNPOU
  6
CONTINUOUS
 62
     4
 10
25505.676123999961
 20
20402.317632999999
 30
0.0
 11
26263.67711349998
 21
20402.317632999999
 31
0.0
  0
LINE
  5
4CFA
  8
SUNPOU
  6
CONTINUOUS
 62
     4
 10
24804.676123999961
 20
19752.314729999998
 30
0.0
 11
24804.676123999961
 21
20482.317632999999
 31
0.0
  0
LINE
  5
4CFB
  8
SUNPOU
  6
CONTINUOUS
 62
     4
 10
25505.676123999961
 20
19752.314729999998
 30
0.0
 11
25505.676123999961
 21
20482.317632999999
 31
0.0
  0
LINE
  5
4CFC
  8
SUNPOU
  6
CONTINUOUS
 62
     4
 10
24804.676123999961
 20
20402.317632999999
 30
0.0
 11
25505.676123999961
 21
20402.317632999999
 31
0.0
  0
LINE
  5
4CFD
  8
SUNPOU
  6
CONTINUOUS
 62
     4
 10
24103.676123999961
 20
19752.314729999998
 30
0.0
 11
24103.676123999961
 21
20482.317632999999
 31
0.0
  0
LINE
  5
4CFE
  8
SUNPOU
  6
CONTINUOUS
 62
     4
 10
24804.676123999961
 20
19752.314729999998
 30
0.0
 11
24804.676123999961
 21
20482.317632999999
 31
0.0
  0
LINE
  5
4CFF
  8
SUNPOU
  6
CONTINUOUS
 62
     4
 10
24103.676123999961
 20
20402.317632999999
 30
0.0
 11
24804.676123999961
 21
20402.317632999999
 31
0.0
  0
LINE
  5
4D00
  8
SUNPOU
  6
CONTINUOUS
 62
     4
 10
23402.676123999961
 20
19752.314729999998
 30
0.0
 11
23402.676123999961
 21
20482.317632999999
 31
0.0
  0
LINE
  5
4D01
  8
SUNPOU
  6
CONTINUOUS
 62
     4
 10
24103.676123999961
 20
19752.314729999998
 30
0.0
 11
24103.676123999961
 21
20482.317632999999
 31
0.0
  0
LINE
  5
4D02
  8
SUNPOU
  6
CONTINUOUS
 62
     4
 10
23402.676123999961
 20
20402.317632999999
 30
0.0
 11
24103.676123999961
 21
20402.317632999999
 31
0.0
  0
LINE
  5
4D03
  8
SUNPOU
  6
CONTINUOUS
 62
     4
 10
26263.676123999961
 20
19752.314729999998
 30
0.0
 11
26263.676123999961
 21
20482.317632999999
 31
0.0
  0
LINE
  5
4D04
  8
SUNPOU
  6
CONTINUOUS
 62
     4
 10
26306.172428999958
 20
19752.314729999998
 30
0.0
 11
26306.172428999958
 21
20482.317632999999
 31
0.0
  0
LINE
  5
4D05
  8
SUNPOU
  6
CONTINUOUS
 62
     4
 10
26263.676123999961
 20
20402.317632999999
 30
0.0
 11
26023.676123999961
 21
20402.317632999999
 31
0.0
  0
LINE
  5
4D06
  8
SUNPOU
  6
CONTINUOUS
 62
     4
 10
26306.172428999958
 20
20402.317632999999
 30
0.0
 11
26546.172428999958
 21
20402.317632999999
 31
0.0
  0
LINE
  5
4D07
  8
SUNPOU
  6
CONTINUOUS
 62
     4
 10
26263.676123999961
 20
20402.317632999999
 30
0.0
 11
26306.172428999958
 21
20402.317632999999
 31
0.0
  0
LINE
  5
4D08
  8
SUNPOU
  6
CONTINUOUS
 62
     4
 10
17226.670844999979
 20
19752.314729999998
 30
0.0
 11
17226.670844999979
 21
20482.317632999999
 31
0.0
  0
LINE
  5
4D09
  8
SUNPOU
  6
CONTINUOUS
 62
     4
 10
17634.17084499999
 20
19752.314729999998
 30
0.0
 11
17634.17084499999
 21
20482.317632999999
 31
0.0
  0
LINE
  5
4D0A
  8
SUNPOU
  6
CONTINUOUS
 62
     4
 10
17226.670844999979
 20
20402.317632999999
 30
0.0
 11
16986.67084499999
 21
20402.317632999999
 31
0.0
  0
LINE
  5
4D0B
  8
SUNPOU
  6
CONTINUOUS
 62
     4
 10
17634.17084499999
 20
20402.317632999999
 30
0.0
 11
17874.17084499999
 21
20402.317632999999
 31
0.0
  0
LINE
  5
4D0C
  8
SUNPOU
  6
CONTINUOUS
 62
     4
 10
17226.670844999979
 20
20402.317632999999
 30
0.0
 11
17634.17084499999
 21
20402.317632999999
 31
0.0
  0
LINE
  5
4D0D
  8
SUNPOU
  6
CONTINUOUS
 62
     4
 10
17226.670844999979
 20
19752.314729999998
 30
0.0
 11
17226.670844999979
 21
20482.317632999999
 31
0.0
  0
LINE
  5
4D0E
  8
SUNPOU
  6
CONTINUOUS
 62
     4
 10
17184.174539999989
 20
19752.314729999998
 30
0.0
 11
17184.174539999989
 21
20482.317632999999
 31
0.0
  0
LINE
  5
4D0F
  8
SUNPOU
  6
CONTINUOUS
 62
     4
 10
17226.670844999979
 20
20402.317632999999
 30
0.0
 11
17466.670844999979
 21
20402.317632999999
 31
0.0
  0
LINE
  5
4D10
  8
SUNPOU
  6
CONTINUOUS
 62
     4
 10
17184.174539999989
 20
20402.317632999999
 30
0.0
 11
16944.174539999982
 21
20402.317632999999
 31
0.0
  0
LINE
  5
4D11
  8
SUNPOU
  6
CONTINUOUS
 62
     4
 10
17226.670844999979
 20
20402.317632999999
 30
0.0
 11
17184.174539999989
 21
20402.317632999999
 31
0.0
  0
LINE
  5
4D12
  8
SUNPOU
  6
CONTINUOUS
 62
     4
 10
19737.17084499999
 20
19752.314729999998
 30
0.0
 11
19737.17084499999
 21
20482.317632999999
 31
0.0
  0
LINE
  5
4D13
  8
SUNPOU
  6
CONTINUOUS
 62
     4
 10
20495.171834500001
 20
19752.314729999998
 30
0.0
 11
20495.171834500001
 21
20482.317632999999
 31
0.0
  0
LINE
  5
4D14
  8
SUNPOU
  6
CONTINUOUS
 62
     4
 10
19737.17084499999
 20
20402.317632999999
 30
0.0
 11
20495.171834500001
 21
20402.317632999999
 31
0.0
  0
LINE
  5
4D15
  8
SUNPOU
  6
CONTINUOUS
 62
     4
 10
19036.17084499999
 20
19752.314729999998
 30
0.0
 11
19036.17084499999
 21
20482.317632999999
 31
0.0
  0
LINE
  5
4D16
  8
SUNPOU
  6
CONTINUOUS
 62
     4
 10
19737.17084499999
 20
19752.314729999998
 30
0.0
 11
19737.17084499999
 21
20482.317632999999
 31
0.0
  0
LINE
  5
4D17
  8
SUNPOU
  6
CONTINUOUS
 62
     4
 10
19036.17084499999
 20
20402.317632999999
 30
0.0
 11
19737.17084499999
 21
20402.317632999999
 31
0.0
  0
LINE
  5
4D18
  8
SUNPOU
  6
CONTINUOUS
 62
     4
 10
18335.170844999979
 20
19752.314729999998
 30
0.0
 11
18335.170844999979
 21
20482.317632999999
 31
0.0
  0
LINE
  5
4D19
  8
SUNPOU
  6
CONTINUOUS
 62
     4
 10
19036.17084499999
 20
19752.314729999998
 30
0.0
 11
19036.17084499999
 21
20482.317632999999
 31
0.0
  0
LINE
  5
4D1A
  8
SUNPOU
  6
CONTINUOUS
 62
     4
 10
18335.170844999979
 20
20402.317632999999
 30
0.0
 11
19036.17084499999
 21
20402.317632999999
 31
0.0
  0
LINE
  5
4D1B
  8
SUNPOU
  6
CONTINUOUS
 62
     4
 10
17634.17084499999
 20
19752.314729999998
 30
0.0
 11
17634.17084499999
 21
20482.317632999999
 31
0.0
  0
LINE
  5
4D1C
  8
SUNPOU
  6
CONTINUOUS
 62
     4
 10
18335.170844999979
 20
19752.314729999998
 30
0.0
 11
18335.170844999979
 21
20482.317632999999
 31
0.0
  0
LINE
  5
4D1D
  8
SUNPOU
  6
CONTINUOUS
 62
     4
 10
17634.17084499999
 20
20402.317632999999
 30
0.0
 11
18335.170844999979
 21
20402.317632999999
 31
0.0
  0
LINE
  5
4D1E
  8
SUNPOU
  6
CONTINUOUS
 62
     4
 10
17096.670185999999
 20
6212.7285879999999
 30
0.0
 11
16296.67150499998
 21
6212.7285879999999
 31
0.0
  0
LINE
  5
4D1F
  8
SUNPOU
  6
CONTINUOUS
 62
     4
 10
17096.670185999999
 20
8104.228587999999
 30
0.0
 11
16296.67150499998
 21
8104.228587999999
 31
0.0
  0
LINE
  5
4D20
  8
SUNPOU
  6
CONTINUOUS
 62
     4
 10
16376.67150499998
 20
6212.7285879999999
 30
0.0
 11
16376.67150499998
 21
8104.228587999999
 31
0.0
  0
LINE
  5
4D21
  8
SUNPOU
  6
CONTINUOUS
 62
     4
 10
17096.670185999999
 20
6212.7285879999999
 30
0.0
 11
15896.66919599999
 21
6212.7285879999999
 31
0.0
  0
LINE
  5
4D22
  8
SUNPOU
  6
CONTINUOUS
 62
     4
 10
17064.17044999998
 20
8561.7285880000018
 30
0.0
 11
15896.66919599999
 21
8561.7285880000018
 31
0.0
  0
LINE
  5
4D23
  8
SUNPOU
  6
CONTINUOUS
 62
     4
 10
15976.66919599999
 20
6212.7285879999999
 30
0.0
 11
15976.66919599999
 21
8561.7285880000018
 31
0.0
  0
LINE
  5
4D24
  8
SUNPOU
  6
CONTINUOUS
 62
     4
 10
17141.168469999979
 20
8641.2289370000017
 30
0.0
 11
17141.168469999979
 21
9840.686549
 31
0.0
  0
LINE
  5
4D25
  8
SUNPOU
  6
CONTINUOUS
 62
     4
 10
26349.178498999961
 20
8641.2289370000017
 30
0.0
 11
26349.178498999961
 21
9840.686549
 31
0.0
  0
LINE
  5
4D26
  8
SUNPOU
  6
CONTINUOUS
 62
     4
 10
17144.168469999979
 20
9760.686549
 30
0.0
 11
26346.178498999961
 21
9760.686549
 31
0.0
  0
LINE
  5
4D27
  8
SUNPOU
  6
CONTINUOUS
 62
     4
 10
17184.170580999991
 20
8641.2289370000017
 30
0.0
 11
17184.170580999991
 21
9440.7287790000028
 31
0.0
  0
LINE
  5
4D28
  8
SUNPOU
  6
CONTINUOUS
 62
     4
 10
26306.17638799996
 20
8641.2289370000017
 30
0.0
 11
26306.17638799996
 21
9440.7287790000028
 31
0.0
  0
LINE
  5
4D29
  8
SUNPOU
  6
CONTINUOUS
 62
     4
 10
17184.170580999991
 20
9360.7287789999955
 30
0.0
 11
26306.17638799996
 21
9360.7287789999955
 31
0.0
  0
LINE
  5
4D2A
  8
SUNPOU
  6
CONTINUOUS
 62
     4
 10
17184.170580999991
 20
8641.2289370000017
 30
0.0
 11
17184.170580999991
 21
9440.7287790000028
 31
0.0
  0
LINE
  5
4D2B
  8
SUNPOU
  6
CONTINUOUS
 62
     4
 10
17141.168469999979
 20
8641.2289370000017
 30
0.0
 11
17141.168469999979
 21
9440.7287790000028
 31
0.0
  0
LINE
  5
4D2C
  8
SUNPOU
  6
CONTINUOUS
 62
     4
 10
17184.170580999991
 20
9360.7287789999955
 30
0.0
 11
17424.170580999991
 21
9360.7287789999955
 31
0.0
  0
LINE
  5
4D2D
  8
SUNPOU
  6
CONTINUOUS
 62
     4
 10
17144.168469999979
 20
9360.7287789999955
 30
0.0
 11
16904.168469999979
 21
9360.7287789999955
 31
0.0
  0
LINE
  5
4D2E
  8
SUNPOU
  6
CONTINUOUS
 62
     4
 10
17184.170580999991
 20
9360.7287789999955
 30
0.0
 11
17144.168469999979
 21
9360.7287789999955
 31
0.0
  0
LINE
  5
4D2F
  8
SUNPOU
  6
CONTINUOUS
 62
     4
 10
26306.17638799996
 20
8641.2289370000017
 30
0.0
 11
26306.17638799996
 21
9440.7287790000028
 31
0.0
  0
LINE
  5
4D30
  8
SUNPOU
  6
CONTINUOUS
 62
     4
 10
26349.178498999961
 20
8641.2289370000017
 30
0.0
 11
26349.178498999961
 21
9440.7287790000028
 31
0.0
  0
LINE
  5
4D31
  8
SUNPOU
  6
CONTINUOUS
 62
     4
 10
26306.17638799996
 20
9360.7287789999955
 30
0.0
 11
26066.17638799996
 21
9360.7287789999955
 31
0.0
  0
LINE
  5
4D32
  8
SUNPOU
  6
CONTINUOUS
 62
     4
 10
26346.178498999961
 20
9360.7287789999955
 30
0.0
 11
26586.178498999961
 21
9360.7287789999955
 31
0.0
  0
LINE
  5
4D33
  8
SUNPOU
  6
CONTINUOUS
 62
     4
 10
26306.17638799996
 20
9360.7287789999955
 30
0.0
 11
26346.178498999961
 21
9360.7287789999955
 31
0.0
  0
LINE
  5
4D34
  8
SUNPOU
  6
CONTINUOUS
 62
     4
 10
17320.670844999979
 20
6032.728753000004
 30
0.0
 11
17320.670844999979
 21
5232.7287530000031
 31
0.0
  0
LINE
  5
4D35
  8
SUNPOU
  6
CONTINUOUS
 62
     4
 10
20401.170844999979
 20
6032.728753000004
 30
0.0
 11
20401.170844999979
 21
5232.7287530000031
 31
0.0
  0
LINE
  5
4D36
  8
SUNPOU
  6
CONTINUOUS
 62
     4
 10
17320.670844999979
 20
5312.7287530000031
 30
0.0
 11
20401.170844999979
 21
5312.7287530000031
 31
0.0
  0
LINE
  5
4D37
  8
SUNPOU
  6
CONTINUOUS
 62
     4
 10
23089.176123999961
 20
6032.728753000004
 30
0.0
 11
23089.176123999961
 21
5232.7287530000031
 31
0.0
  0
LINE
  5
4D38
  8
SUNPOU
  6
CONTINUOUS
 62
     4
 10
26169.676123999961
 20
6032.728753000004
 30
0.0
 11
26169.676123999961
 21
5232.7287530000031
 31
0.0
  0
LINE
  5
4D39
  8
SUNPOU
  6
CONTINUOUS
 62
     4
 10
23089.176123999961
 20
5312.7287530000031
 30
0.0
 11
26169.676123999961
 21
5312.7287530000031
 31
0.0
  0
LINE
  5
4D3A
  8
SUNPOU
  6
CONTINUOUS
 62
     4
 10
22995.176123999961
 20
5770.0763299999999
 30
0.0
 11
22995.176123999961
 21
4832.7287530000021
 31
0.0
  0
LINE
  5
4D3B
  8
SUNPOU
  6
CONTINUOUS
 62
     4
 10
26263.676123999961
 20
5770.0763299999999
 30
0.0
 11
26263.676123999961
 21
4832.7287530000021
 31
0.0
  0
LINE
  5
4D3C
  8
SUNPOU
  6
CONTINUOUS
 62
     4
 10
22995.176123999961
 20
4912.7287530000031
 30
0.0
 11
26263.676123999961
 21
4912.7287530000031
 31
0.0
  0
LINE
  5
4D3D
  8
SUNPOU
  6
CONTINUOUS
 62
     4
 10
20495.17084499999
 20
5770.0763299999999
 30
0.0
 11
20495.17084499999
 21
4832.7287530000021
 31
0.0
  0
LINE
  5
4D3E
  8
SUNPOU
  6
CONTINUOUS
 62
     4
 10
22995.176123999961
 20
5770.0763299999999
 30
0.0
 11
22995.176123999961
 21
4832.7287530000021
 31
0.0
  0
LINE
  5
4D3F
  8
SUNPOU
  6
CONTINUOUS
 62
     4
 10
20495.17084499999
 20
4912.7287530000031
 30
0.0
 11
22995.176123999961
 21
4912.7287530000031
 31
0.0
  0
LINE
  5
4D40
  8
SUNPOU
  6
CONTINUOUS
 62
     4
 10
17226.670844999979
 20
5770.0763299999999
 30
0.0
 11
17226.670844999979
 21
4832.7287530000021
 31
0.0
  0
LINE
  5
4D41
  8
SUNPOU
  6
CONTINUOUS
 62
     4
 10
20495.17084499999
 20
5770.0763299999999
 30
0.0
 11
20495.17084499999
 21
4832.7287530000021
 31
0.0
  0
LINE
  5
4D42
  8
SUNPOU
  6
CONTINUOUS
 62
     4
 10
17226.670844999979
 20
4912.7287530000031
 30
0.0
 11
20495.17084499999
 21
4912.7287530000031
 31
0.0
  0
LINE
  5
4D43
  8
SUNPOU
  6
CONTINUOUS
 62
     4
 10
26263.680082999981
 20
5770.0763299999999
 30
0.0
 11
26263.680082999981
 21
4832.7287530000021
 31
0.0
  0
LINE
  5
4D44
  8
SUNPOU
  6
CONTINUOUS
 62
     4
 10
26306.180082999981
 20
6032.728753000004
 30
0.0
 11
26306.180082999981
 21
4832.7287530000021
 31
0.0
  0
LINE
  5
4D45
  8
SUNPOU
  6
CONTINUOUS
 62
     4
 10
26263.680082999981
 20
4912.7287530000031
 30
0.0
 11
26023.680082999981
 21
4912.7287530000031
 31
0.0
  0
LINE
  5
4D46
  8
SUNPOU
  6
CONTINUOUS
 62
     4
 10
26306.180082999981
 20
4912.7287530000031
 30
0.0
 11
26546.180082999981
 21
4912.7287530000031
 31
0.0
  0
LINE
  5
4D47
  8
SUNPOU
  6
CONTINUOUS
 62
     4
 10
26263.680082999981
 20
4912.7287530000031
 30
0.0
 11
26306.180082999981
 21
4912.7287530000031
 31
0.0
  0
LINE
  5
4D48
  8
SUNPOU
  6
CONTINUOUS
 62
     4
 10
17226.670844999979
 20
5770.0763299999999
 30
0.0
 11
17226.670844999979
 21
4832.7287530000021
 31
0.0
  0
LINE
  5
4D49
  8
SUNPOU
  6
CONTINUOUS
 62
     4
 10
17184.17084499999
 20
6032.728753000004
 30
0.0
 11
17184.17084499999
 21
4832.7287530000021
 31
0.0
  0
LINE
  5
4D4A
  8
SUNPOU
  6
CONTINUOUS
 62
     4
 10
17226.670844999979
 20
4912.7287530000031
 30
0.0
 11
17466.670844999979
 21
4912.7287530000031
 31
0.0
  0
LINE
  5
4D4B
  8
SUNPOU
  6
CONTINUOUS
 62
     4
 10
17184.17084499999
 20
4912.7287530000031
 30
0.0
 11
16944.17084499999
 21
4912.7287530000031
 31
0.0
  0
LINE
  5
4D4C
  8
SUNPOU
  6
CONTINUOUS
 62
     4
 10
17226.670844999979
 20
4912.7287530000031
 30
0.0
 11
17184.17084499999
 21
4912.7287530000031
 31
0.0
  0
LINE
  5
4D4D
  8
SUNPOU
  6
CONTINUOUS
 62
     4
 10
17184.17084499999
 20
6032.728753000004
 30
0.0
 11
17184.17084499999
 21
4432.7289179999998
 31
0.0
  0
LINE
  5
4D4E
  8
SUNPOU
  6
CONTINUOUS
 62
     4
 10
26306.176123999961
 20
6032.728753000004
 30
0.0
 11
26306.176123999961
 21
4432.7289179999998
 31
0.0
  0
LINE
  5
4D4F
  8
SUNPOU
  6
CONTINUOUS
 62
     4
 10
17184.17084499999
 20
4512.7289179999989
 30
0.0
 11
26306.176123999961
 21
4512.7289179999989
 31
0.0
  0
LINE
  5
4D50
  8
SUNPOU
  6
CONTINUOUS
 62
     4
 10
13159.38450099999
 20
6212.7285880000036
 30
0.0
 11
14236.88291699999
 21
6212.7285880000036
 31
0.0
  0
LINE
  5
4D51
  8
SUNPOU
  6
CONTINUOUS
 62
     4
 10
13251.68978059937
 20
8561.7285880000018
 30
0.0
 11
14236.88291699999
 21
8561.7285880000018
 31
0.0
  0
LINE
  5
4D52
  8
SUNPOU
  6
CONTINUOUS
 62
     4
 10
14156.88291699999
 20
6212.7285880000036
 30
0.0
 11
14156.88291699999
 21
8561.7285880000018
 31
0.0
  0
LINE
  5
4D53
  8
SUNPOU
  6
CONTINUOUS
 62
     4
 10
7759.3845009999868
 20
6212.7285880000036
 30
0.0
 11
6676.8841049999919
 21
6212.7285880000036
 31
0.0
  0
LINE
  5
4D54
  8
SUNPOU
  6
CONTINUOUS
 62
     4
 10
7586.884500999985
 20
8368.2285880000054
 30
0.0
 11
6676.8841049999919
 21
8368.2285880000054
 31
0.0
  0
LINE
  5
4D55
  8
SUNPOU
  6
CONTINUOUS
 62
     4
 10
6756.8841049999901
 20
6212.7285880000036
 30
0.0
 11
6756.8841049999901
 21
8368.2285880000054
 31
0.0
  0
LINE
  5
4D56
  8
SUNPOU
  6
CONTINUOUS
 62
     4
 10
13066.88450099999
 20
8507.6386510000048
 30
0.0
 11
13066.88450099999
 21
9440.7302629999976
 31
0.0
  0
LINE
  5
4D57
  8
SUNPOU
  6
CONTINUOUS
 62
     4
 10
13216.88450099999
 20
8581.618410412435
 30
0.0
 11
13216.88450099999
 21
9440.7302629999976
 31
0.0
  0
LINE
  5
4D58
  8
SUNPOU
  6
CONTINUOUS
 62
     4
 10
13066.88450099999
 20
9360.7302629999976
 30
0.0
 11
12826.88450099999
 21
9360.7302629999976
 31
0.0
  0
LINE
  5
4D59
  8
SUNPOU
  6
CONTINUOUS
 62
     4
 10
13216.88450099999
 20
9360.7302629999976
 30
0.0
 11
13456.88450099999
 21
9360.7302629999976
 31
0.0
  0
LINE
  5
4D5A
  8
SUNPOU
  6
CONTINUOUS
 62
     4
 10
13066.88450099999
 20
9360.7302629999976
 30
0.0
 11
13216.88450099999
 21
9360.7302629999976
 31
0.0
  0
LINE
  5
4D5B
  8
SUNPOU
  6
CONTINUOUS
 62
     4
 10
7666.8845009999914
 20
8449.7285870000087
 30
0.0
 11
7666.8845009999914
 21
9840.7286129999993
 31
0.0
  0
LINE
  5
4D5C
  8
SUNPOU
  6
CONTINUOUS
 62
     4
 10
13216.88450099999
 20
8581.618410412435
 30
0.0
 11
13216.88450099999
 21
9840.7286129999993
 31
0.0
  0
LINE
  5
4D5D
  8
SUNPOU
  6
CONTINUOUS
 62
     4
 10
7666.8845009999914
 20
9760.7286129999993
 30
0.0
 11
13216.88450099999
 21
9760.7286129999993
 31
0.0
  0
LINE
  5
4D5E
  8
SUNPOU
  6
CONTINUOUS
 62
     4
 10
7846.8845009999914
 20
8319.9143626838086
 30
0.0
 11
7846.8845009999914
 21
9440.7302629999976
 31
0.0
  0
LINE
  5
4D5F
  8
SUNPOU
  6
CONTINUOUS
 62
     4
 10
13066.88450099999
 20
8507.6386510000048
 30
0.0
 11
13066.88450099999
 21
9440.7302629999976
 31
0.0
  0
LINE
  5
4D60
  8
SUNPOU
  6
CONTINUOUS
 62
     4
 10
7846.8845009999914
 20
9360.7302629999976
 30
0.0
 11
13066.88450099999
 21
9360.7302629999976
 31
0.0
  0
LINE
  5
4D61
  8
SUNPOU
  6
CONTINUOUS
 62
     4
 10
7666.8845009999914
 20
8449.7285870000087
 30
0.0
 11
7666.8845009999914
 21
9440.7302629999976
 31
0.0
  0
LINE
  5
4D62
  8
SUNPOU
  6
CONTINUOUS
 62
     4
 10
7846.8845009999914
 20
8319.9143626838086
 30
0.0
 11
7846.8845009999914
 21
9440.7302629999976
 31
0.0
  0
LINE
  5
4D63
  8
SUNPOU
  6
CONTINUOUS
 62
     4
 10
7666.8845009999914
 20
9360.7302629999976
 30
0.0
 11
7426.8845009999859
 21
9360.7302629999976
 31
0.0
  0
LINE
  5
4D64
  8
SUNPOU
  6
CONTINUOUS
 62
     4
 10
7846.8845009999914
 20
9360.7302629999976
 30
0.0
 11
8086.8845009999914
 21
9360.7302629999976
 31
0.0
  0
LINE
  5
4D65
  8
SUNPOU
  6
CONTINUOUS
 62
     4
 10
7666.8845009999914
 20
9360.7302629999976
 30
0.0
 11
7846.8845009999914
 21
9360.7302629999976
 31
0.0
  0
LINE
  5
4D66
  8
SUNPOU
  6
CONTINUOUS
 62
     4
 10
13024.382521999971
 20
5770.0763290000023
 30
0.0
 11
13024.382521999971
 21
4832.7287519999991
 31
0.0
  0
LINE
  5
4D67
  8
SUNPOU
  6
CONTINUOUS
 62
     4
 10
13066.88252199998
 20
6132.7285870000023
 30
0.0
 11
13066.88252199998
 21
4832.7287519999991
 31
0.0
  0
LINE
  5
4D68
  8
SUNPOU
  6
CONTINUOUS
 62
     4
 10
13024.382521999971
 20
4912.7287519999991
 30
0.0
 11
12784.382521999971
 21
4912.7287519999991
 31
0.0
  0
LINE
  5
4D69
  8
SUNPOU
  6
CONTINUOUS
 62
     4
 10
13066.88252199998
 20
4912.7287519999991
 30
0.0
 11
13306.88252199998
 21
4912.7287519999991
 31
0.0
  0
LINE
  5
4D6A
  8
SUNPOU
  6
CONTINUOUS
 62
     4
 10
13024.382521999971
 20
4912.7287519999991
 30
0.0
 11
13066.88252199998
 21
4912.7287519999991
 31
0.0
  0
LINE
  5
4D6B
  8
SUNPOU
  6
CONTINUOUS
 62
     4
 10
10456.88450099999
 20
5770.0753400000012
 30
0.0
 11
10456.88450099999
 21
4832.728753000004
 31
0.0
  0
LINE
  5
4D6C
  8
SUNPOU
  6
CONTINUOUS
 62
     4
 10
13024.38450099999
 20
5770.0753400000012
 30
0.0
 11
13024.38450099999
 21
4832.728753000004
 31
0.0
  0
LINE
  5
4D6D
  8
SUNPOU
  6
CONTINUOUS
 62
     4
 10
10456.88450099999
 20
4912.7287530000031
 30
0.0
 11
13024.38450099999
 21
4912.7287530000031
 31
0.0
  0
LINE
  5
4D6E
  8
SUNPOU
  6
CONTINUOUS
 62
     4
 10
7846.8845009999914
 20
6132.7285870000023
 30
0.0
 11
7846.8845009999914
 21
4432.7289170000013
 31
0.0
  0
LINE
  5
4D6F
  8
SUNPOU
  6
CONTINUOUS
 62
     4
 10
13066.88252199998
 20
6132.7285870000023
 30
0.0
 11
13066.88252199998
 21
4432.7289170000013
 31
0.0
  0
LINE
  5
4D70
  8
SUNPOU
  6
CONTINUOUS
 62
     4
 10
7846.8845009999914
 20
4512.7289170000004
 30
0.0
 11
13066.88252199998
 21
4512.7289170000004
 31
0.0
  0
LINE
  5
4D71
  8
SUNPOU
  6
CONTINUOUS
 62
     4
 10
7889.3845009999868
 20
5770.0763290000023
 30
0.0
 11
7889.3845009999868
 21
4832.7287519999991
 31
0.0
  0
LINE
  5
4D72
  8
SUNPOU
  6
CONTINUOUS
 62
     4
 10
7846.8845009999914
 20
6132.7285870000023
 30
0.0
 11
7846.8845009999914
 21
4832.7287519999991
 31
0.0
  0
LINE
  5
4D73
  8
SUNPOU
  6
CONTINUOUS
 62
     4
 10
7889.3845009999868
 20
4912.7287519999991
 30
0.0
 11
8129.3845009999877
 21
4912.7287519999991
 31
0.0
  0
LINE
  5
4D74
  8
SUNPOU
  6
CONTINUOUS
 62
     4
 10
7846.8845009999914
 20
4912.7287519999991
 30
0.0
 11
7606.8845009999877
 21
4912.7287519999991
 31
0.0
  0
LINE
  5
4D75
  8
SUNPOU
  6
CONTINUOUS
 62
     4
 10
7889.3845009999868
 20
4912.7287519999991
 30
0.0
 11
7846.8845009999914
 21
4912.7287519999991
 31
0.0
  0
LINE
  5
4D76
  8
SUNPOU
  6
CONTINUOUS
 62
     4
 10
10456.88450099999
 20
5770.0763290000023
 30
0.0
 11
10456.88450099999
 21
4832.7287519999991
 31
0.0
  0
LINE
  5
4D77
  8
SUNPOU
  6
CONTINUOUS
 62
     4
 10
7889.3845009999868
 20
5770.0763290000023
 30
0.0
 11
7889.3845009999868
 21
4832.7287519999991
 31
0.0
  0
LINE
  5
4D78
  8
SUNPOU
  6
CONTINUOUS
 62
     4
 10
10456.88450099999
 20
4912.7287519999991
 30
0.0
 11
7889.3845009999868
 21
4912.7287519999991
 31
0.0
  0
LINE
  5
4D79
  8
0
  6
CONTINUOUS
 10
27320.61169951249
 20
4013.2342825977748
 30
0.0
 11
32662.906701964599
 21
4013.2342825977748
 31
0.0
  0
LINE
  5
4D7A
  8
0
  6
CONTINUOUS
 10
32662.906701964599
 20
4013.2342825977748
 30
0.0
 11
32662.906701964599
 21
2658.9883116968108
 31
0.0
  0
LINE
  5
4D7B
  8
0
  6
CONTINUOUS
 10
32662.906701964599
 20
2658.9883116968108
 30
0.0
 11
27320.61169951249
 21
2658.9883116968108
 31
0.0
  0
LINE
  5
4D7C
  8
0
  6
CONTINUOUS
 10
27320.61169951249
 20
2658.9883116968108
 30
0.0
 11
27320.61169951249
 21
4013.2342825977748
 31
0.0
  0
TEXT
  5
4D7D
  8
0
  6
CONTINUOUS
 62
     7
 10
8773.1345009999895
 20
4992.7287519999991
 30
0.0
 40
160.0
  1
2567.5
  0
TEXT
  5
4D7E
  8
0
  6
CONTINUOUS
 62
     7
 10
7249.7107919036816
 20
4992.7287519999991
 30
0.0
 40
160.0
  1
42.5
  0
TEXT
  5
4D7F
  8
0
  6
CONTINUOUS
 62
     7
 10
10176.88351149998
 20
4592.7289170000004
 30
0.0
 40
160.0
  1
5220
  0
TEXT
  5
4D80
  8
0
  6
CONTINUOUS
 62
     7
 10
11340.63450099999
 20
4992.7287530000031
 30
0.0
 40
160.0
  1
2567.5
  0
TEXT
  5
4D81
  8
0
  6
CONTINUOUS
 62
     7
 10
13184.056231096291
 20
4992.7287519999991
 30
0.0
 40
160.0
  1
42.5
  0
TEXT
  5
4D82
  8
0
  6
CONTINUOUS
 62
     7
 10
7253.5511676666574
 20
9440.7302629999976
 30
0.0
 40
160.0
  1
180
  0
TEXT
  5
4D83
  8
0
  6
CONTINUOUS
 62
     7
 10
10176.88450099998
 20
9440.7302629999976
 30
0.0
 40
160.0
  1
5220
  0
TEXT
  5
4D84
  8
0
  6
CONTINUOUS
 62
     7
 10
10161.88450099998
 20
9840.7286129999993
 30
0.0
 40
160.0
  1
5550
  0
TEXT
  5
4D85
  8
0
  6
CONTINUOUS
 62
     7
 10
13283.55116766665
 20
9440.7302629999976
 30
0.0
 40
160.0
  1
150
  0
TEXT
  5
4D86
  8
0
  6
CONTINUOUS
 62
     7
 10
6676.8841049999883
 20
6298.4785880000081
 30
0.0
 40
160.0
  1
2155.5（2395.5）
 50
90.0
  0
TEXT
  5
4D87
  8
0
  6
CONTINUOUS
 62
     7
 10
14076.882916999981
 20
6581.8952546666724
 30
0.0
 40
160.0
  1
2349（2589）
 50
90.0
  0
TEXT
  5
4D88
  8
0
  6
CONTINUOUS
 62
     7
 10
20705.173484499981
 20
4592.7289179999971
 30
0.0
 40
160.0
  1
3268.5 \U+00D7 ｎ ＋ 85
  0
TEXT
  5
4D89
  8
0
  6
CONTINUOUS
 62
     7
 10
16618.13185474115
 20
4992.7287530000021
 30
0.0
 40
160.0
  1
42.5
  0
TEXT
  5
4D8A
  8
0
  6
CONTINUOUS
 62
     7
 10
26392.219073258821
 20
4992.7287530000021
 30
0.0
 40
160.0
  1
42.5
  0
TEXT
  5
4D8B
  8
0
  6
CONTINUOUS
 62
     7
 10
18460.920844999979
 20
4992.7287530000021
 30
0.0
 40
160.0
  1
3268.5
  0
TEXT
  5
4D8C
  8
0
  6
CONTINUOUS
 62
     7
 10
20641.173484499981
 20
4992.7287530000021
 30
0.0
 40
160.0
  1
3268.5 \U+00D7（ｎ － 2）
  0
TEXT
  5
4D8D
  8
0
  6
CONTINUOUS
 62
     7
 10
24229.426123999961
 20
4992.7287530000021
 30
0.0
 40
160.0
  1
3268.5
  0
TEXT
  5
4D8E
  8
0
  6
CONTINUOUS
 62
     7
 10
23728.09279066664
 20
5392.7287530000031
 30
0.0
 40
160.0
  1
有効開口巾 3080.5
  0
TEXT
  5
4D8F
  8
0
  6
CONTINUOUS
 62
     7
 10
17959.587511666661
 20
5392.7287530000031
 30
0.0
 40
160.0
  1
有効開口巾 3080.5
  0
TEXT
  5
4D90
  8
0
  6
CONTINUOUS
 62
     7
 10
26466.178498999961
 20
9440.7287790000028
 30
0.0
 40
160.0
  1
43
  0
TEXT
  5
4D91
  8
0
  6
CONTINUOUS
 62
     7
 10
16784.168469999979
 20
9440.7287790000028
 30
0.0
 40
160.0
  1
43
  0
TEXT
  5
4D92
  8
0
  6
CONTINUOUS
 62
     7
 10
20705.173484499981
 20
9440.7287790000028
 30
0.0
 40
160.0
  1
3268.5 \U+00D7 ｎ ＋ 85
  0
TEXT
  5
4D93
  8
0
  6
CONTINUOUS
 62
     7
 10
20651.840151166649
 20
9840.686549
 30
0.0
 40
160.0
  1
3268.5 \U+00D7 ｎ ＋ 171
  0
TEXT
  5
4D94
  8
0
  6
CONTINUOUS
 62
     7
 10
15896.66919599999
 20
6581.8952546666687
 30
0.0
 40
160.0
  1
2349（2589）
 50
90.0
  0
TEXT
  5
4D95
  8
0
  6
CONTINUOUS
 62
     7
 10
16296.67150499998
 20
6276.7078262912746
 30
0.0
 40
160.0
  1
有効開口高サ 1891.5
 50
90.0
  0
TEXT
  5
4D96
  8
0
  6
CONTINUOUS
 62
     7
 10
17811.337511666661
 20
20162.317632999991
 30
0.0
 40
160.0
  1
701
  0
TEXT
  5
4D97
  8
0
  6
CONTINUOUS
 62
     7
 10
18512.337511666661
 20
20482.317632999999
 30
0.0
 40
160.0
  1
701
  0
TEXT
  5
4D98
  8
0
  6
CONTINUOUS
 62
     7
 10
19213.337511666661
 20
20482.317632999999
 30
0.0
 40
160.0
  1
701
  0
TEXT
  5
4D99
  8
0
  6
CONTINUOUS
 62
     7
 10
19902.838006416641
 20
20482.317632999999
 30
0.0
 40
160.0
  1
758
  0
TEXT
  5
4D9A
  8
0
  6
CONTINUOUS
 62
     7
 10
16623.858865471189
 20
20482.317632999999
 30
0.0
 40
160.0
  1
42.5
  0
TEXT
  5
4D9B
  8
0
  6
CONTINUOUS
 62
     7
 10
17327.504178333322
 20
20482.317632999999
 30
0.0
 40
160.0
  1
407.5
  0
TEXT
  5
4D9C
  8
0
  6
CONTINUOUS
 62
     7
 10
26386.488103528769
 20
20482.317632999999
 30
0.0
 40
160.0
  1
42.5
  0
TEXT
  5
4D9D
  8
0
  6
CONTINUOUS
 62
     7
 10
23579.84279066664
 20
20162.317632999991
 30
0.0
 40
160.0
  1
701
  0
TEXT
  5
4D9E
  8
0
  6
CONTINUOUS
 62
     7
 10
24280.84279066664
 20
20482.317632999999
 30
0.0
 40
160.0
  1
701
  0
TEXT
  5
4D9F
  8
0
  6
CONTINUOUS
 62
     7
 10
24981.84279066664
 20
20482.317632999999
 30
0.0
 40
160.0
  1
701
  0
TEXT
  5
4DA0
  8
0
  6
CONTINUOUS
 62
     7
 10
25671.343285416639
 20
20482.317632999999
 30
0.0
 40
160.0
  1
758
  0
TEXT
  5
4DA1
  8
0
  6
CONTINUOUS
 62
     7
 10
23096.009457333301
 20
20482.317632999999
 30
0.0
 40
160.0
  1
407.5
  0
TEXT
  5
4DA2
  8
0
  6
CONTINUOUS
 62
     7
 10
20641.17397924999
 20
20482.317632999999
 30
0.0
 40
160.0
  1
3268.5 \U+00D7（ｎ － 2）
  0
TEXT
  5
4DA3
  8
0
  6
CONTINUOUS
 62
     7
 10
27676.175727999958
 20
13878.76291360319
 30
0.0
 40
160.0
  1
42.5
 50
90.0
  0
TEXT
  5
4DA4
  8
0
  6
CONTINUOUS
 62
     7
 10
27676.175727999958
 20
19765.86997639676
 30
0.0
 40
160.0
  1
42.5
 50
90.0
  0
TEXT
  5
4DA5
  8
0
  6
CONTINUOUS
 62
     7
 10
28076.175727999958
 20
16782.316444999979
 30
0.0
 40
160.0
  1
5220
 50
90.0
  0
TEXT
  5
4DA6
  8
0
  6
CONTINUOUS
 62
     7
 10
27676.175727999958
 20
15378.56644499998
 30
0.0
 40
160.0
  1
2567.5
 50
90.0
  0
TEXT
  5
4DA7
  8
0
  6
CONTINUOUS
 62
     7
 10
27676.175727999958
 20
17946.066444999989
 30
0.0
 40
160.0
  1
2567.5
 50
90.0
  0
TEXT
  5
4DA8
  8
0
  6
CONTINUOUS
 62
     7
 10
27276.175727999958
 20
18698.48311166665
 30
0.0
 40
160.0
  1
701
 50
90.0
  0
TEXT
  5
4DA9
  8
0
  6
CONTINUOUS
 62
     7
 10
27276.175727999958
 20
17997.483111666661
 30
0.0
 40
160.0
  1
701
 50
90.0
  0
TEXT
  5
4DAA
  8
0
  6
CONTINUOUS
 62
     7
 10
27276.175727999958
 20
17227.98311166665
 30
0.0
 40
160.0
  1
758
 50
90.0
  0
TEXT
  5
4DAB
  8
0
  6
CONTINUOUS
 62
     7
 10
27276.175727999958
 20
16469.98311166665
 30
0.0
 40
160.0
  1
758
 50
90.0
  0
TEXT
  5
4DAC
  8
0
  6
CONTINUOUS
 62
     7
 10
27276.175727999958
 20
15780.603367416659
 30
0.0
 40
160.0
  1
701
 50
90.0
  0
TEXT
  5
4DAD
  8
0
  6
CONTINUOUS
 62
     7
 10
27276.175727999958
 20
15079.603367416659
 30
0.0
 40
160.0
  1
701
 50
90.0
  0
TEXT
  5
4DAE
  8
0
  6
CONTINUOUS
 62
     7
 10
27295.29948162684
 20
13714.96668106946
 30
0.0
 40
160.0
  1
407.5
 50
90.0
  0
TEXT
  5
4DAF
  8
0
  6
CONTINUOUS
 62
     7
 10
21089.173484499981
 20
13203.368360999981
 30
0.0
 40
160.0
  1
3268.5 x n
  0
TEXT
  5
4DB0
  8
0
  6
CONTINUOUS
 62
     7
 10
17344.724517382081
 20
13603.368360999981
 30
0.0
 40
160.0
  1
42.5
  0
TEXT
  5
4DB1
  8
0
  6
CONTINUOUS
 62
     7
 10
25665.62245161787
 20
13603.368360999981
 30
0.0
 40
160.0
  1
42.5
  0
TEXT
  5
4DB2
  8
0
  6
CONTINUOUS
 62
     7
 10
11741.56851796644
 20
20482.317632999999
 30
0.0
 40
160.0
  1
3268.5
  0
TEXT
  5
4DB3
  8
0
  6
CONTINUOUS
 62
     7
 10
13912.31522398969
 20
20482.317632999999
 30
0.0
 40
160.0
  1
85.5
  0
TEXT
  5
4DB4
  8
0
  6
CONTINUOUS
 62
     7
 10
7949.3193129664432
 20
20482.317632999999
 30
0.0
 40
160.0
  1
3268.5 \U+00D7（ｎ － 2）
  0
TEXT
  5
4DB5
  8
0
  6
CONTINUOUS
 62
     7
 10
5565.0701079664468
 20
20482.317632999999
 30
0.0
 40
160.0
  1
3268.5
  0
TEXT
  5
4DB6
  8
0
  6
CONTINUOUS
 62
     7
 10
3714.3234019431852
 20
20482.317632999999
 30
0.0
 40
160.0
  1
85.5
  0
TEXT
  5
4DB7
  8
0
  6
CONTINUOUS
 62
     7
 10
3321.3224659664411
 20
17946.066444999979
 30
0.0
 40
160.0
  1
2567.5
 50
90.0
  0
TEXT
  5
4DB8
  8
0
  6
CONTINUOUS
 62
     7
 10
3321.3224659664411
 20
19941.271629807641
 30
0.0
 40
160.0
  1
222.5
 50
90.0
  0
TEXT
  5
4DB9
  8
0
  6
CONTINUOUS
 62
     7
 10
3721.3224659664438
 20
19998.979020666651
 30
0.0
 40
160.0
  1
10
 50
90.0
  0
TEXT
  5
4DBA
  8
0
  6
CONTINUOUS
 62
     7
 10
3321.3224659664429
 20
15378.56644499998
 30
0.0
 40
160.0
  1
2567.5
 50
90.0
  0
TEXT
  5
4DBB
  8
0
  6
CONTINUOUS
 62
     7
 10
3321.3224659664438
 20
13686.863434702611
 30
0.0
 40
160.0
  1
192.5
 50
90.0
  0
TEXT
  5
4DBC
  8
0
  6
CONTINUOUS
 62
     7
 10
8285.3193129664432
 20
13203.368360999981
 30
0.0
 40
160.0
  1
3268.5  \U+00D7　n
  0
TEXT
  5
4DBD
  8
0
  6
CONTINUOUS
 62
     7
 10
27277.95130221112
 20
19743.431328143841
 30
0.0
 40
160.0
  1
407.5
 50
90.0
  0
ARC
  5
4DBE
  8
0
  6
BYBLOCK
 62
     0
 10
27356.175727999958
 20
19629.816444999949
 30
0.0
 40
15.0
 50
90.0
 51
270.0
  0
ARC
  5
4DBF
  8
0
  6
BYBLOCK
 62
     0
 10
27356.175727999958
 20
19629.816444999949
 30
0.0
 40
15.0
 50
270.0
 51
90.0
  0
ARC
  5
4DC0
  8
0
  6
BYBLOCK
 62
     0
 10
27356.175727999958
 20
19222.31644499996
 30
0.0
 40
15.0
 50
270.0
 51
90.0
  0
ARC
  5
4DC1
  8
0
  6
BYBLOCK
 62
     0
 10
27356.175727999958
 20
19222.31644499996
 30
0.0
 40
15.0
 50
90.0
 51
270.0
  0
ARC
  5
4DC2
  8
0
  6
BYBLOCK
 62
     0
 10
4330.8201079664468
 20
13123.368360999981
 30
0.0
 40
15.0
 50
0.0
 51
180.0
  0
ARC
  5
4DC3
  8
0
  6
BYBLOCK
 62
     0
 10
4330.8201079664468
 20
13123.368360999981
 30
0.0
 40
15.0
 50
180.0
 51
0.0
  0
ARC
  5
4DC4
  8
0
  6
BYBLOCK
 62
     0
 10
13775.81851796644
 20
13123.368360999981
 30
0.0
 40
15.0
 50
180.0
 51
0.0
  0
ARC
  5
4DC5
  8
0
  6
BYBLOCK
 62
     0
 10
13775.81851796644
 20
13123.368360999981
 30
0.0
 40
15.0
 50
0.0
 51
180.0
  0
ARC
  5
4DC6
  8
0
  6
BYBLOCK
 62
     0
 10
3401.3224659664438
 20
14494.81644499998
 30
0.0
 40
15.0
 50
90.0
 51
270.0
  0
ARC
  5
4DC7
  8
0
  6
BYBLOCK
 62
     0
 10
3401.3224659664438
 20
14494.81644499998
 30
0.0
 40
15.0
 50
270.0
 51
90.0
  0
ARC
  5
4DC8
  8
0
  6
BYBLOCK
 62
     0
 10
3401.3224659664438
 20
14302.32112999998
 30
0.0
 40
15.0
 50
270.0
 51
90.0
  0
ARC
  5
4DC9
  8
0
  6
BYBLOCK
 62
     0
 10
3401.3224659664438
 20
14302.32112999998
 30
0.0
 40
15.0
 50
90.0
 51
270.0
  0
ARC
  5
4DCA
  8
0
  6
BYBLOCK
 62
     0
 10
3401.3224659664438
 20
17062.316444999979
 30
0.0
 40
15.0
 50
270.0
 51
90.0
  0
ARC
  5
4DCB
  8
0
  6
BYBLOCK
 62
     0
 10
3401.3224659664438
 20
17062.316444999979
 30
0.0
 40
15.0
 50
90.0
 51
270.0
  0
ARC
  5
4DCC
  8
0
  6
BYBLOCK
 62
     0
 10
3401.3224659664438
 20
14494.81644499998
 30
0.0
 40
15.0
 50
90.0
 51
270.0
  0
ARC
  5
4DCD
  8
0
  6
BYBLOCK
 62
     0
 10
3401.3224659664438
 20
14494.81644499998
 30
0.0
 40
15.0
 50
270.0
 51
90.0
  0
ARC
  5
4DCE
  8
0
  6
BYBLOCK
 62
     0
 10
3801.3224659664452
 20
19842.312354000002
 30
0.0
 40
15.0
 50
270.0
 51
90.0
  0
ARC
  5
4DCF
  8
0
  6
BYBLOCK
 62
     0
 10
3801.3224659664452
 20
19842.312354000002
 30
0.0
 40
15.0
 50
90.0
 51
270.0
  0
ARC
  5
4DD0
  8
0
  6
BYBLOCK
 62
     0
 10
3801.3224659664452
 20
19852.312354000002
 30
0.0
 40
15.0
 50
90.0
 51
270.0
  0
ARC
  5
4DD1
  8
0
  6
BYBLOCK
 62
     0
 10
3801.3224659664452
 20
19852.312354000002
 30
0.0
 40
15.0
 50
270.0
 51
90.0
  0
ARC
  5
4DD2
  8
0
  6
BYBLOCK
 62
     0
 10
3401.3224659664438
 20
19629.816444999949
 30
0.0
 40
15.0
 50
270.0
 51
90.0
  0
ARC
  5
4DD3
  8
0
  6
BYBLOCK
 62
     0
 10
3401.3224659664438
 20
19629.816444999949
 30
0.0
 40
15.0
 50
90.0
 51
270.0
  0
ARC
  5
4DD4
  8
0
  6
BYBLOCK
 62
     0
 10
3401.3224659664438
 20
19852.312354000002
 30
0.0
 40
15.0
 50
90.0
 51
270.0
  0
ARC
  5
4DD5
  8
0
  6
BYBLOCK
 62
     0
 10
3401.3224659664438
 20
19852.312354000002
 30
0.0
 40
15.0
 50
270.0
 51
90.0
  0
ARC
  5
4DD6
  8
0
  6
BYBLOCK
 62
     0
 10
3401.3224659664438
 20
17062.316444999979
 30
0.0
 40
15.0
 50
90.0
 51
270.0
  0
ARC
  5
4DD7
  8
0
  6
BYBLOCK
 62
     0
 10
3401.3224659664438
 20
17062.316444999979
 30
0.0
 40
15.0
 50
270.0
 51
90.0
  0
ARC
  5
4DD8
  8
0
  6
BYBLOCK
 62
     0
 10
3401.3224659664438
 20
19629.816444999949
 30
0.0
 40
15.0
 50
270.0
 51
90.0
  0
ARC
  5
4DD9
  8
0
  6
BYBLOCK
 62
     0
 10
3401.3224659664438
 20
19629.816444999949
 30
0.0
 40
15.0
 50
90.0
 51
270.0
  0
ARC
  5
4DDA
  8
0
  6
BYBLOCK
 62
     0
 10
4330.8201079664468
 20
20402.317632999999
 30
0.0
 40
15.0
 50
0.0
 51
180.0
  0
ARC
  5
4DDB
  8
0
  6
BYBLOCK
 62
     0
 10
4330.8201079664468
 20
20402.317632999999
 30
0.0
 40
15.0
 50
180.0
 51
0.0
  0
ARC
  5
4DDC
  8
0
  6
BYBLOCK
 62
     0
 10
4245.320107966445
 20
20402.317632999999
 30
0.0
 40
15.0
 50
180.0
 51
0.0
  0
ARC
  5
4DDD
  8
0
  6
BYBLOCK
 62
     0
 10
4245.320107966445
 20
20402.317632999999
 30
0.0
 40
15.0
 50
0.0
 51
180.0
  0
ARC
  5
4DDE
  8
0
  6
BYBLOCK
 62
     0
 10
7599.3201079664468
 20
20402.317632999999
 30
0.0
 40
15.0
 50
180.0
 51
0.0
  0
ARC
  5
4DDF
  8
0
  6
BYBLOCK
 62
     0
 10
7599.3201079664468
 20
20402.317632999999
 30
0.0
 40
15.0
 50
0.0
 51
180.0
  0
ARC
  5
4DE0
  8
0
  6
BYBLOCK
 62
     0
 10
4330.8201079664468
 20
20402.317632999999
 30
0.0
 40
15.0
 50
0.0
 51
180.0
  0
ARC
  5
4DE1
  8
0
  6
BYBLOCK
 62
     0
 10
4330.8201079664468
 20
20402.317632999999
 30
0.0
 40
15.0
 50
180.0
 51
0.0
  0
ARC
  5
4DE2
  8
0
  6
BYBLOCK
 62
     0
 10
10507.318517966431
 20
20402.317632999999
 30
0.0
 40
15.0
 50
180.0
 51
0.0
  0
ARC
  5
4DE3
  8
0
  6
BYBLOCK
 62
     0
 10
10507.318517966431
 20
20402.317632999999
 30
0.0
 40
15.0
 50
0.0
 51
180.0
  0
ARC
  5
4DE4
  8
0
  6
BYBLOCK
 62
     0
 10
7599.3201079664468
 20
20402.317632999999
 30
0.0
 40
15.0
 50
0.0
 51
180.0
  0
ARC
  5
4DE5
  8
0
  6
BYBLOCK
 62
     0
 10
7599.3201079664468
 20
20402.317632999999
 30
0.0
 40
15.0
 50
180.0
 51
0.0
  0
ARC
  5
4DE6
  8
0
  6
BYBLOCK
 62
     0
 10
13775.81851796644
 20
20402.317632999999
 30
0.0
 40
15.0
 50
180.0
 51
0.0
  0
ARC
  5
4DE7
  8
0
  6
BYBLOCK
 62
     0
 10
13775.81851796644
 20
20402.317632999999
 30
0.0
 40
15.0
 50
0.0
 51
180.0
  0
ARC
  5
4DE8
  8
0
  6
BYBLOCK
 62
     0
 10
13861.31851796644
 20
20402.317632999999
 30
0.0
 40
15.0
 50
0.0
 51
180.0
  0
ARC
  5
4DE9
  8
0
  6
BYBLOCK
 62
     0
 10
13861.31851796644
 20
20402.317632999999
 30
0.0
 40
15.0
 50
180.0
 51
0.0
  0
ARC
  5
4DEA
  8
0
  6
BYBLOCK
 62
     0
 10
10507.318517966431
 20
20402.317632999999
 30
0.0
 40
15.0
 50
0.0
 51
180.0
  0
ARC
  5
4DEB
  8
0
  6
BYBLOCK
 62
     0
 10
10507.318517966431
 20
20402.317632999999
 30
0.0
 40
15.0
 50
180.0
 51
0.0
  0
ARC
  5
4DEC
  8
0
  6
BYBLOCK
 62
     0
 10
13775.81851796644
 20
20402.317632999999
 30
0.0
 40
15.0
 50
180.0
 51
0.0
  0
ARC
  5
4DED
  8
0
  6
BYBLOCK
 62
     0
 10
13775.81851796644
 20
20402.317632999999
 30
0.0
 40
15.0
 50
0.0
 51
180.0
  0
ARC
  5
4DEE
  8
0
  6
BYBLOCK
 62
     0
 10
26263.676123999961
 20
13523.368360999981
 30
0.0
 40
15.0
 50
0.0
 51
180.0
  0
ARC
  5
4DEF
  8
0
  6
BYBLOCK
 62
     0
 10
26263.676123999961
 20
13523.368360999981
 30
0.0
 40
15.0
 50
180.0
 51
0.0
  0
ARC
  5
4DF0
  8
0
  6
BYBLOCK
 62
     0
 10
26221.17388099997
 20
13523.368360999981
 30
0.0
 40
15.0
 50
180.0
 51
0.0
  0
ARC
  5
4DF1
  8
0
  6
BYBLOCK
 62
     0
 10
26221.17388099997
 20
13523.368360999981
 30
0.0
 40
15.0
 50
0.0
 51
180.0
  0
ARC
  5
4DF2
  8
0
  6
BYBLOCK
 62
     0
 10
17226.670844999979
 20
13523.368360999981
 30
0.0
 40
15.0
 50
180.0
 51
0.0
  0
ARC
  5
4DF3
  8
0
  6
BYBLOCK
 62
     0
 10
17226.670844999979
 20
13523.368360999981
 30
0.0
 40
15.0
 50
0.0
 51
180.0
  0
ARC
  5
4DF4
  8
0
  6
BYBLOCK
 62
     0
 10
17269.173087999981
 20
13523.368360999981
 30
0.0
 40
15.0
 50
0.0
 51
180.0
  0
ARC
  5
4DF5
  8
0
  6
BYBLOCK
 62
     0
 10
17269.173087999981
 20
13523.368360999981
 30
0.0
 40
15.0
 50
180.0
 51
0.0
  0
ARC
  5
4DF6
  8
0
  6
BYBLOCK
 62
     0
 10
17226.670844999979
 20
13123.368360999981
 30
0.0
 40
15.0
 50
0.0
 51
180.0
  0
ARC
  5
4DF7
  8
0
  6
BYBLOCK
 62
     0
 10
17226.670844999979
 20
13123.368360999981
 30
0.0
 40
15.0
 50
180.0
 51
0.0
  0
ARC
  5
4DF8
  8
0
  6
BYBLOCK
 62
     0
 10
26263.676123999961
 20
13123.368360999981
 30
0.0
 40
15.0
 50
180.0
 51
0.0
  0
ARC
  5
4DF9
  8
0
  6
BYBLOCK
 62
     0
 10
26263.676123999961
 20
13123.368360999981
 30
0.0
 40
15.0
 50
0.0
 51
180.0
  0
ARC
  5
4DFA
  8
0
  6
BYBLOCK
 62
     0
 10
27356.175727999958
 20
14902.31644499998
 30
0.0
 40
15.0
 50
90.0
 51
270.0
  0
ARC
  5
4DFB
  8
0
  6
BYBLOCK
 62
     0
 10
27356.175727999958
 20
14902.31644499998
 30
0.0
 40
15.0
 50
270.0
 51
90.0
  0
ARC
  5
4DFC
  8
0
  6
BYBLOCK
 62
     0
 10
27356.175727999958
 20
14494.81644499998
 30
0.0
 40
15.0
 50
270.0
 51
90.0
  0
ARC
  5
4DFD
  8
0
  6
BYBLOCK
 62
     0
 10
27356.175727999958
 20
14494.81644499998
 30
0.0
 40
15.0
 50
90.0
 51
270.0
  0
ARC
  5
4DFE
  8
0
  6
BYBLOCK
 62
     0
 10
27356.175727999958
 20
15603.556956500001
 30
0.0
 40
15.0
 50
270.0
 51
90.0
  0
ARC
  5
4DFF
  8
0
  6
BYBLOCK
 62
     0
 10
27356.175727999958
 20
15603.556956500001
 30
0.0
 40
15.0
 50
90.0
 51
270.0
  0
ARC
  5
4E00
  8
0
  6
BYBLOCK
 62
     0
 10
27356.175727999958
 20
14902.31644499998
 30
0.0
 40
15.0
 50
90.0
 51
270.0
  0
ARC
  5
4E01
  8
0
  6
BYBLOCK
 62
     0
 10
27356.175727999958
 20
14902.31644499998
 30
0.0
 40
15.0
 50
270.0
 51
90.0
  0
ARC
  5
4E02
  8
0
  6
BYBLOCK
 62
     0
 10
27356.175727999958
 20
16304.31644499998
 30
0.0
 40
15.0
 50
270.0
 51
90.0
  0
ARC
  5
4E03
  8
0
  6
BYBLOCK
 62
     0
 10
27356.175727999958
 20
16304.31644499998
 30
0.0
 40
15.0
 50
90.0
 51
270.0
  0
ARC
  5
4E04
  8
0
  6
BYBLOCK
 62
     0
 10
27356.175727999958
 20
15603.556956500001
 30
0.0
 40
15.0
 50
90.0
 51
270.0
  0
ARC
  5
4E05
  8
0
  6
BYBLOCK
 62
     0
 10
27356.175727999958
 20
15603.556956500001
 30
0.0
 40
15.0
 50
270.0
 51
90.0
  0
ARC
  5
4E06
  8
0
  6
BYBLOCK
 62
     0
 10
27356.175727999958
 20
17062.316444999979
 30
0.0
 40
15.0
 50
270.0
 51
90.0
  0
ARC
  5
4E07
  8
0
  6
BYBLOCK
 62
     0
 10
27356.175727999958
 20
17062.316444999979
 30
0.0
 40
15.0
 50
90.0
 51
270.0
  0
ARC
  5
4E08
  8
0
  6
BYBLOCK
 62
     0
 10
27356.175727999958
 20
16304.31644499998
 30
0.0
 40
15.0
 50
90.0
 51
270.0
  0
ARC
  5
4E09
  8
0
  6
BYBLOCK
 62
     0
 10
27356.175727999958
 20
16304.31644499998
 30
0.0
 40
15.0
 50
270.0
 51
90.0
  0
ARC
  5
4E0A
  8
0
  6
BYBLOCK
 62
     0
 10
27356.175727999958
 20
17820.316444999979
 30
0.0
 40
15.0
 50
270.0
 51
90.0
  0
ARC
  5
4E0B
  8
0
  6
BYBLOCK
 62
     0
 10
27356.175727999958
 20
17820.316444999979
 30
0.0
 40
15.0
 50
90.0
 51
270.0
  0
ARC
  5
4E0C
  8
0
  6
BYBLOCK
 62
     0
 10
27356.175727999958
 20
17062.316444999979
 30
0.0
 40
15.0
 50
90.0
 51
270.0
  0
ARC
  5
4E0D
  8
0
  6
BYBLOCK
 62
     0
 10
27356.175727999958
 20
17062.316444999979
 30
0.0
 40
15.0
 50
270.0
 51
90.0
  0
ARC
  5
4E0E
  8
0
  6
BYBLOCK
 62
     0
 10
27356.175727999958
 20
18521.31644499996
 30
0.0
 40
15.0
 50
270.0
 51
90.0
  0
ARC
  5
4E0F
  8
0
  6
BYBLOCK
 62
     0
 10
27356.175727999958
 20
18521.31644499996
 30
0.0
 40
15.0
 50
90.0
 51
270.0
  0
ARC
  5
4E10
  8
0
  6
BYBLOCK
 62
     0
 10
27356.175727999958
 20
17820.316444999979
 30
0.0
 40
15.0
 50
90.0
 51
270.0
  0
ARC
  5
4E11
  8
0
  6
BYBLOCK
 62
     0
 10
27356.175727999958
 20
17820.316444999979
 30
0.0
 40
15.0
 50
270.0
 51
90.0
  0
ARC
  5
4E12
  8
0
  6
BYBLOCK
 62
     0
 10
27356.175727999958
 20
19222.31644499996
 30
0.0
 40
15.0
 50
270.0
 51
90.0
  0
ARC
  5
4E13
  8
0
  6
BYBLOCK
 62
     0
 10
27356.175727999958
 20
19222.31644499996
 30
0.0
 40
15.0
 50
90.0
 51
270.0
  0
ARC
  5
4E14
  8
0
  6
BYBLOCK
 62
     0
 10
27356.175727999958
 20
18521.31644499996
 30
0.0
 40
15.0
 50
90.0
 51
270.0
  0
ARC
  5
4E15
  8
0
  6
BYBLOCK
 62
     0
 10
27356.175727999958
 20
18521.31644499996
 30
0.0
 40
15.0
 50
270.0
 51
90.0
  0
ARC
  5
4E16
  8
0
  6
BYBLOCK
 62
     0
 10
27756.175727999958
 20
17062.316444999979
 30
0.0
 40
15.0
 50
90.0
 51
270.0
  0
ARC
  5
4E17
  8
0
  6
BYBLOCK
 62
     0
 10
27756.175727999958
 20
17062.316444999979
 30
0.0
 40
15.0
 50
270.0
 51
90.0
  0
ARC
  5
4E18
  8
0
  6
BYBLOCK
 62
     0
 10
27756.175727999958
 20
19629.816444999949
 30
0.0
 40
15.0
 50
270.0
 51
90.0
  0
ARC
  5
4E19
  8
0
  6
BYBLOCK
 62
     0
 10
27756.175727999958
 20
19629.816444999949
 30
0.0
 40
15.0
 50
90.0
 51
270.0
  0
ARC
  5
4E1A
  8
0
  6
BYBLOCK
 62
     0
 10
27756.175727999958
 20
14494.81644499998
 30
0.0
 40
15.0
 50
90.0
 51
270.0
  0
ARC
  5
4E1B
  8
0
  6
BYBLOCK
 62
     0
 10
27756.175727999958
 20
14494.81644499998
 30
0.0
 40
15.0
 50
270.0
 51
90.0
  0
ARC
  5
4E1C
  8
0
  6
BYBLOCK
 62
     0
 10
27756.175727999958
 20
17062.316444999979
 30
0.0
 40
15.0
 50
270.0
 51
90.0
  0
ARC
  5
4E1D
  8
0
  6
BYBLOCK
 62
     0
 10
27756.175727999958
 20
17062.316444999979
 30
0.0
 40
15.0
 50
90.0
 51
270.0
  0
ARC
  5
4E1E
  8
0
  6
BYBLOCK
 62
     0
 10
28156.175727999958
 20
19672.31373999998
 30
0.0
 40
15.0
 50
270.0
 51
90.0
  0
ARC
  5
4E1F
  8
0
  6
BYBLOCK
 62
     0
 10
28156.175727999958
 20
19672.31373999998
 30
0.0
 40
15.0
 50
90.0
 51
270.0
  0
ARC
  5
4E20
  8
0
  6
BYBLOCK
 62
     0
 10
28156.175727999958
 20
14452.319149999979
 30
0.0
 40
15.0
 50
90.0
 51
270.0
  0
ARC
  5
4E21
  8
0
  6
BYBLOCK
 62
     0
 10
28156.175727999958
 20
14452.319149999979
 30
0.0
 40
15.0
 50
270.0
 51
90.0
  0
ARC
  5
4E22
  8
0
  6
BYBLOCK
 62
     0
 10
27756.175727999958
 20
19629.816444999949
 30
0.0
 40
15.0
 50
270.0
 51
90.0
  0
ARC
  5
4E23
  8
0
  6
BYBLOCK
 62
     0
 10
27756.175727999958
 20
19629.816444999949
 30
0.0
 40
15.0
 50
90.0
 51
270.0
  0
ARC
  5
4E24
  8
0
  6
BYBLOCK
 62
     0
 10
27756.175727999958
 20
19672.31373999998
 30
0.0
 40
15.0
 50
90.0
 51
270.0
  0
ARC
  5
4E25
  8
0
  6
BYBLOCK
 62
     0
 10
27756.175727999958
 20
19672.31373999998
 30
0.0
 40
15.0
 50
270.0
 51
90.0
  0
ARC
  5
4E26
  8
0
  6
BYBLOCK
 62
     0
 10
27756.175727999958
 20
14494.81644499998
 30
0.0
 40
15.0
 50
90.0
 51
270.0
  0
ARC
  5
4E27
  8
0
  6
BYBLOCK
 62
     0
 10
27756.175727999958
 20
14494.81644499998
 30
0.0
 40
15.0
 50
270.0
 51
90.0
  0
ARC
  5
4E28
  8
0
  6
BYBLOCK
 62
     0
 10
27756.175727999958
 20
14452.319149999979
 30
0.0
 40
15.0
 50
270.0
 51
90.0
  0
ARC
  5
4E29
  8
0
  6
BYBLOCK
 62
     0
 10
27756.175727999958
 20
14452.319149999979
 30
0.0
 40
15.0
 50
90.0
 51
270.0
  0
ARC
  5
4E2A
  8
0
  6
BYBLOCK
 62
     0
 10
20495.171834500001
 20
20402.317632999999
 30
0.0
 40
15.0
 50
0.0
 51
180.0
  0
ARC
  5
4E2B
  8
0
  6
BYBLOCK
 62
     0
 10
20495.171834500001
 20
20402.317632999999
 30
0.0
 40
15.0
 50
180.0
 51
0.0
  0
ARC
  5
4E2C
  8
0
  6
BYBLOCK
 62
     0
 10
22995.176123999961
 20
20402.317632999999
 30
0.0
 40
15.0
 50
180.0
 51
0.0
  0
ARC
  5
4E2D
  8
0
  6
BYBLOCK
 62
     0
 10
22995.176123999961
 20
20402.317632999999
 30
0.0
 40
15.0
 50
0.0
 51
180.0
  0
ARC
  5
4E2E
  8
0
  6
BYBLOCK
 62
     0
 10
22995.176123999961
 20
20402.317632999999
 30
0.0
 40
15.0
 50
180.0
 51
0.0
  0
ARC
  5
4E2F
  8
0
  6
BYBLOCK
 62
     0
 10
22995.176123999961
 20
20402.317632999999
 30
0.0
 40
15.0
 50
0.0
 51
180.0
  0
ARC
  5
4E30
  8
0
  6
BYBLOCK
 62
     0
 10
23402.676123999961
 20
20402.317632999999
 30
0.0
 40
15.0
 50
0.0
 51
180.0
  0
ARC
  5
4E31
  8
0
  6
BYBLOCK
 62
     0
 10
23402.676123999961
 20
20402.317632999999
 30
0.0
 40
15.0
 50
180.0
 51
0.0
  0
ARC
  5
4E32
  8
0
  6
BYBLOCK
 62
     0
 10
25505.676123999961
 20
20402.317632999999
 30
0.0
 40
15.0
 50
0.0
 51
180.0
  0
ARC
  5
4E33
  8
0
  6
BYBLOCK
 62
     0
 10
25505.676123999961
 20
20402.317632999999
 30
0.0
 40
15.0
 50
180.0
 51
0.0
  0
ARC
  5
4E34
  8
0
  6
BYBLOCK
 62
     0
 10
26263.67711349998
 20
20402.317632999999
 30
0.0
 40
15.0
 50
180.0
 51
0.0
  0
ARC
  5
4E35
  8
0
  6
BYBLOCK
 62
     0
 10
26263.67711349998
 20
20402.317632999999
 30
0.0
 40
15.0
 50
0.0
 51
180.0
  0
ARC
  5
4E36
  8
0
  6
BYBLOCK
 62
     0
 10
24804.676123999961
 20
20402.317632999999
 30
0.0
 40
15.0
 50
0.0
 51
180.0
  0
ARC
  5
4E37
  8
0
  6
BYBLOCK
 62
     0
 10
24804.676123999961
 20
20402.317632999999
 30
0.0
 40
15.0
 50
180.0
 51
0.0
  0
ARC
  5
4E38
  8
0
  6
BYBLOCK
 62
     0
 10
25505.676123999961
 20
20402.317632999999
 30
0.0
 40
15.0
 50
180.0
 51
0.0
  0
ARC
  5
4E39
  8
0
  6
BYBLOCK
 62
     0
 10
25505.676123999961
 20
20402.317632999999
 30
0.0
 40
15.0
 50
0.0
 51
180.0
  0
ARC
  5
4E3A
  8
0
  6
BYBLOCK
 62
     0
 10
24103.676123999961
 20
20402.317632999999
 30
0.0
 40
15.0
 50
0.0
 51
180.0
  0
ARC
  5
4E3B
  8
0
  6
BYBLOCK
 62
     0
 10
24103.676123999961
 20
20402.317632999999
 30
0.0
 40
15.0
 50
180.0
 51
0.0
  0
ARC
  5
4E3C
  8
0
  6
BYBLOCK
 62
     0
 10
24804.676123999961
 20
20402.317632999999
 30
0.0
 40
15.0
 50
180.0
 51
0.0
  0
ARC
  5
4E3D
  8
0
  6
BYBLOCK
 62
     0
 10
24804.676123999961
 20
20402.317632999999
 30
0.0
 40
15.0
 50
0.0
 51
180.0
  0
ARC
  5
4E3E
  8
0
  6
BYBLOCK
 62
     0
 10
23402.676123999961
 20
20402.317632999999
 30
0.0
 40
15.0
 50
0.0
 51
180.0
  0
ARC
  5
4E3F
  8
0
  6
BYBLOCK
 62
     0
 10
23402.676123999961
 20
20402.317632999999
 30
0.0
 40
15.0
 50
180.0
 51
0.0
  0
ARC
  5
4E40
  8
0
  6
BYBLOCK
 62
     0
 10
24103.676123999961
 20
20402.317632999999
 30
0.0
 40
15.0
 50
180.0
 51
0.0
  0
ARC
  5
4E41
  8
0
  6
BYBLOCK
 62
     0
 10
24103.676123999961
 20
20402.317632999999
 30
0.0
 40
15.0
 50
0.0
 51
180.0
  0
ARC
  5
4E42
  8
0
  6
BYBLOCK
 62
     0
 10
26263.676123999961
 20
20402.317632999999
 30
0.0
 40
15.0
 50
180.0
 51
0.0
  0
ARC
  5
4E43
  8
0
  6
BYBLOCK
 62
     0
 10
26263.676123999961
 20
20402.317632999999
 30
0.0
 40
15.0
 50
0.0
 51
180.0
  0
ARC
  5
4E44
  8
0
  6
BYBLOCK
 62
     0
 10
26306.172428999958
 20
20402.317632999999
 30
0.0
 40
15.0
 50
0.0
 51
180.0
  0
ARC
  5
4E45
  8
0
  6
BYBLOCK
 62
     0
 10
26306.172428999958
 20
20402.317632999999
 30
0.0
 40
15.0
 50
180.0
 51
0.0
  0
ARC
  5
4E46
  8
0
  6
BYBLOCK
 62
     0
 10
17226.670844999979
 20
20402.317632999999
 30
0.0
 40
15.0
 50
180.0
 51
0.0
  0
ARC
  5
4E47
  8
0
  6
BYBLOCK
 62
     0
 10
17226.670844999979
 20
20402.317632999999
 30
0.0
 40
15.0
 50
0.0
 51
180.0
  0
ARC
  5
4E48
  8
0
  6
BYBLOCK
 62
     0
 10
17634.17084499999
 20
20402.317632999999
 30
0.0
 40
15.0
 50
0.0
 51
180.0
  0
ARC
  5
4E49
  8
0
  6
BYBLOCK
 62
     0
 10
17634.17084499999
 20
20402.317632999999
 30
0.0
 40
15.0
 50
180.0
 51
0.0
  0
ARC
  5
4E4A
  8
0
  6
BYBLOCK
 62
     0
 10
17226.670844999979
 20
20402.317632999999
 30
0.0
 40
15.0
 50
0.0
 51
180.0
  0
ARC
  5
4E4B
  8
0
  6
BYBLOCK
 62
     0
 10
17226.670844999979
 20
20402.317632999999
 30
0.0
 40
15.0
 50
180.0
 51
0.0
  0
ARC
  5
4E4C
  8
0
  6
BYBLOCK
 62
     0
 10
17184.174539999989
 20
20402.317632999999
 30
0.0
 40
15.0
 50
180.0
 51
0.0
  0
ARC
  5
4E4D
  8
0
  6
BYBLOCK
 62
     0
 10
17184.174539999989
 20
20402.317632999999
 30
0.0
 40
15.0
 50
0.0
 51
180.0
  0
ARC
  5
4E4E
  8
0
  6
BYBLOCK
 62
     0
 10
19737.17084499999
 20
20402.317632999999
 30
0.0
 40
15.0
 50
0.0
 51
180.0
  0
ARC
  5
4E4F
  8
0
  6
BYBLOCK
 62
     0
 10
19737.17084499999
 20
20402.317632999999
 30
0.0
 40
15.0
 50
180.0
 51
0.0
  0
ARC
  5
4E50
  8
0
  6
BYBLOCK
 62
     0
 10
20495.171834500001
 20
20402.317632999999
 30
0.0
 40
15.0
 50
180.0
 51
0.0
  0
ARC
  5
4E51
  8
0
  6
BYBLOCK
 62
     0
 10
20495.171834500001
 20
20402.317632999999
 30
0.0
 40
15.0
 50
0.0
 51
180.0
  0
ARC
  5
4E52
  8
0
  6
BYBLOCK
 62
     0
 10
19036.17084499999
 20
20402.317632999999
 30
0.0
 40
15.0
 50
0.0
 51
180.0
  0
ARC
  5
4E53
  8
0
  6
BYBLOCK
 62
     0
 10
19036.17084499999
 20
20402.317632999999
 30
0.0
 40
15.0
 50
180.0
 51
0.0
  0
ARC
  5
4E54
  8
0
  6
BYBLOCK
 62
     0
 10
19737.17084499999
 20
20402.317632999999
 30
0.0
 40
15.0
 50
180.0
 51
0.0
  0
ARC
  5
4E55
  8
0
  6
BYBLOCK
 62
     0
 10
19737.17084499999
 20
20402.317632999999
 30
0.0
 40
15.0
 50
0.0
 51
180.0
  0
ARC
  5
4E56
  8
0
  6
BYBLOCK
 62
     0
 10
18335.170844999979
 20
20402.317632999999
 30
0.0
 40
15.0
 50
0.0
 51
180.0
  0
ARC
  5
4E57
  8
0
  6
BYBLOCK
 62
     0
 10
18335.170844999979
 20
20402.317632999999
 30
0.0
 40
15.0
 50
180.0
 51
0.0
  0
ARC
  5
4E58
  8
0
  6
BYBLOCK
 62
     0
 10
19036.17084499999
 20
20402.317632999999
 30
0.0
 40
15.0
 50
180.0
 51
0.0
  0
ARC
  5
4E59
  8
0
  6
BYBLOCK
 62
     0
 10
19036.17084499999
 20
20402.317632999999
 30
0.0
 40
15.0
 50
0.0
 51
180.0
  0
ARC
  5
4E5A
  8
0
  6
BYBLOCK
 62
     0
 10
17634.17084499999
 20
20402.317632999999
 30
0.0
 40
15.0
 50
0.0
 51
180.0
  0
ARC
  5
4E5B
  8
0
  6
BYBLOCK
 62
     0
 10
17634.17084499999
 20
20402.317632999999
 30
0.0
 40
15.0
 50
180.0
 51
0.0
  0
ARC
  5
4E5C
  8
0
  6
BYBLOCK
 62
     0
 10
18335.170844999979
 20
20402.317632999999
 30
0.0
 40
15.0
 50
180.0
 51
0.0
  0
ARC
  5
4E5D
  8
0
  6
BYBLOCK
 62
     0
 10
18335.170844999979
 20
20402.317632999999
 30
0.0
 40
15.0
 50
0.0
 51
180.0
  0
ARC
  5
4E5E
  8
0
  6
BYBLOCK
 62
     0
 10
16376.67150499998
 20
6212.7285879999999
 30
0.0
 40
15.0
 50
90.0
 51
270.0
  0
ARC
  5
4E5F
  8
0
  6
BYBLOCK
 62
     0
 10
16376.67150499998
 20
6212.7285879999999
 30
0.0
 40
15.0
 50
270.0
 51
90.0
  0
ARC
  5
4E60
  8
0
  6
BYBLOCK
 62
     0
 10
16376.67150499998
 20
8104.228587999999
 30
0.0
 40
15.0
 50
270.0
 51
90.0
  0
ARC
  5
4E61
  8
0
  6
BYBLOCK
 62
     0
 10
16376.67150499998
 20
8104.228587999999
 30
0.0
 40
15.0
 50
90.0
 51
270.0
  0
ARC
  5
4E62
  8
0
  6
BYBLOCK
 62
     0
 10
15976.66919599999
 20
6212.7285879999999
 30
0.0
 40
15.0
 50
90.0
 51
270.0
  0
ARC
  5
4E63
  8
0
  6
BYBLOCK
 62
     0
 10
15976.66919599999
 20
6212.7285879999999
 30
0.0
 40
15.0
 50
270.0
 51
90.0
  0
ARC
  5
4E64
  8
0
  6
BYBLOCK
 62
     0
 10
15976.66919599999
 20
8561.7285880000018
 30
0.0
 40
15.0
 50
270.0
 51
90.0
  0
ARC
  5
4E65
  8
0
  6
BYBLOCK
 62
     0
 10
15976.66919599999
 20
8561.7285880000018
 30
0.0
 40
15.0
 50
90.0
 51
270.0
  0
ARC
  5
4E66
  8
0
  6
BYBLOCK
 62
     0
 10
17141.168469999979
 20
9760.686549
 30
0.0
 40
15.0
 50
0.0
 51
180.0
  0
ARC
  5
4E67
  8
0
  6
BYBLOCK
 62
     0
 10
17141.168469999979
 20
9760.686549
 30
0.0
 40
15.0
 50
180.0
 51
0.0
  0
ARC
  5
4E68
  8
0
  6
BYBLOCK
 62
     0
 10
26349.178498999961
 20
9760.686549
 30
0.0
 40
15.0
 50
180.0
 51
0.0
  0
ARC
  5
4E69
  8
0
  6
BYBLOCK
 62
     0
 10
26349.178498999961
 20
9760.686549
 30
0.0
 40
15.0
 50
0.0
 51
180.0
  0
ARC
  5
4E6A
  8
0
  6
BYBLOCK
 62
     0
 10
17184.170580999991
 20
9360.7287789999955
 30
0.0
 40
15.0
 50
0.0
 51
180.0
  0
ARC
  5
4E6B
  8
0
  6
BYBLOCK
 62
     0
 10
17184.170580999991
 20
9360.7287789999955
 30
0.0
 40
15.0
 50
180.0
 51
0.0
  0
ARC
  5
4E6C
  8
0
  6
BYBLOCK
 62
     0
 10
26306.17638799996
 20
9360.7287789999955
 30
0.0
 40
15.0
 50
180.0
 51
0.0
  0
ARC
  5
4E6D
  8
0
  6
BYBLOCK
 62
     0
 10
26306.17638799996
 20
9360.7287789999955
 30
0.0
 40
15.0
 50
0.0
 51
180.0
  0
ARC
  5
4E6E
  8
0
  6
BYBLOCK
 62
     0
 10
17184.170580999991
 20
9360.7287789999955
 30
0.0
 40
15.0
 50
0.0
 51
180.0
  0
ARC
  5
4E6F
  8
0
  6
BYBLOCK
 62
     0
 10
17184.170580999991
 20
9360.7287789999955
 30
0.0
 40
15.0
 50
180.0
 51
0.0
  0
ARC
  5
4E70
  8
0
  6
BYBLOCK
 62
     0
 10
17141.168469999979
 20
9360.7287789999955
 30
0.0
 40
15.0
 50
180.0
 51
0.0
  0
ARC
  5
4E71
  8
0
  6
BYBLOCK
 62
     0
 10
17141.168469999979
 20
9360.7287789999955
 30
0.0
 40
15.0
 50
0.0
 51
180.0
  0
ARC
  5
4E72
  8
0
  6
BYBLOCK
 62
     0
 10
26306.17638799996
 20
9360.7287789999955
 30
0.0
 40
15.0
 50
180.0
 51
0.0
  0
ARC
  5
4E73
  8
0
  6
BYBLOCK
 62
     0
 10
26306.17638799996
 20
9360.7287789999955
 30
0.0
 40
15.0
 50
0.0
 51
180.0
  0
ARC
  5
4E74
  8
0
  6
BYBLOCK
 62
     0
 10
26349.178498999961
 20
9360.7287789999955
 30
0.0
 40
15.0
 50
0.0
 51
180.0
  0
ARC
  5
4E75
  8
0
  6
BYBLOCK
 62
     0
 10
26349.178498999961
 20
9360.7287789999955
 30
0.0
 40
15.0
 50
180.0
 51
0.0
  0
ARC
  5
4E76
  8
0
  6
BYBLOCK
 62
     0
 10
17320.670844999979
 20
5312.7287530000031
 30
0.0
 40
15.0
 50
0.0
 51
180.0
  0
ARC
  5
4E77
  8
0
  6
BYBLOCK
 62
     0
 10
17320.670844999979
 20
5312.7287530000031
 30
0.0
 40
15.0
 50
180.0
 51
0.0
  0
ARC
  5
4E78
  8
0
  6
BYBLOCK
 62
     0
 10
20401.170844999979
 20
5312.7287530000031
 30
0.0
 40
15.0
 50
180.0
 51
0.0
  0
ARC
  5
4E79
  8
0
  6
BYBLOCK
 62
     0
 10
20401.170844999979
 20
5312.7287530000031
 30
0.0
 40
15.0
 50
0.0
 51
180.0
  0
ARC
  5
4E7A
  8
0
  6
BYBLOCK
 62
     0
 10
23089.176123999961
 20
5312.7287530000031
 30
0.0
 40
15.0
 50
0.0
 51
180.0
  0
ARC
  5
4E7B
  8
0
  6
BYBLOCK
 62
     0
 10
23089.176123999961
 20
5312.7287530000031
 30
0.0
 40
15.0
 50
180.0
 51
0.0
  0
ARC
  5
4E7C
  8
0
  6
BYBLOCK
 62
     0
 10
26169.676123999961
 20
5312.7287530000031
 30
0.0
 40
15.0
 50
180.0
 51
0.0
  0
ARC
  5
4E7D
  8
0
  6
BYBLOCK
 62
     0
 10
26169.676123999961
 20
5312.7287530000031
 30
0.0
 40
15.0
 50
0.0
 51
180.0
  0
ARC
  5
4E7E
  8
0
  6
BYBLOCK
 62
     0
 10
22995.176123999961
 20
4912.7287530000031
 30
0.0
 40
15.0
 50
0.0
 51
180.0
  0
ARC
  5
4E7F
  8
0
  6
BYBLOCK
 62
     0
 10
22995.176123999961
 20
4912.7287530000031
 30
0.0
 40
15.0
 50
180.0
 51
0.0
  0
ARC
  5
4E80
  8
0
  6
BYBLOCK
 62
     0
 10
26263.676123999961
 20
4912.7287530000031
 30
0.0
 40
15.0
 50
180.0
 51
0.0
  0
ARC
  5
4E81
  8
0
  6
BYBLOCK
 62
     0
 10
26263.676123999961
 20
4912.7287530000031
 30
0.0
 40
15.0
 50
0.0
 51
180.0
  0
ARC
  5
4E82
  8
0
  6
BYBLOCK
 62
     0
 10
20495.17084499999
 20
4912.7287530000031
 30
0.0
 40
15.0
 50
0.0
 51
180.0
  0
ARC
  5
4E83
  8
0
  6
BYBLOCK
 62
     0
 10
20495.17084499999
 20
4912.7287530000031
 30
0.0
 40
15.0
 50
180.0
 51
0.0
  0
ARC
  5
4E84
  8
0
  6
BYBLOCK
 62
     0
 10
22995.176123999961
 20
4912.7287530000031
 30
0.0
 40
15.0
 50
180.0
 51
0.0
  0
ARC
  5
4E85
  8
0
  6
BYBLOCK
 62
     0
 10
22995.176123999961
 20
4912.7287530000031
 30
0.0
 40
15.0
 50
0.0
 51
180.0
  0
ARC
  5
4E86
  8
0
  6
BYBLOCK
 62
     0
 10
17226.670844999979
 20
4912.7287530000031
 30
0.0
 40
15.0
 50
0.0
 51
180.0
  0
ARC
  5
4E87
  8
0
  6
BYBLOCK
 62
     0
 10
17226.670844999979
 20
4912.7287530000031
 30
0.0
 40
15.0
 50
180.0
 51
0.0
  0
ARC
  5
4E88
  8
0
  6
BYBLOCK
 62
     0
 10
20495.17084499999
 20
4912.7287530000031
 30
0.0
 40
15.0
 50
180.0
 51
0.0
  0
ARC
  5
4E89
  8
0
  6
BYBLOCK
 62
     0
 10
20495.17084499999
 20
4912.7287530000031
 30
0.0
 40
15.0
 50
0.0
 51
180.0
  0
ARC
  5
4E8A
  8
0
  6
BYBLOCK
 62
     0
 10
26263.680082999981
 20
4912.7287530000031
 30
0.0
 40
15.0
 50
180.0
 51
0.0
  0
ARC
  5
4E8B
  8
0
  6
BYBLOCK
 62
     0
 10
26263.680082999981
 20
4912.7287530000031
 30
0.0
 40
15.0
 50
0.0
 51
180.0
  0
ARC
  5
4E8C
  8
0
  6
BYBLOCK
 62
     0
 10
26306.180082999981
 20
4912.7287530000031
 30
0.0
 40
15.0
 50
0.0
 51
180.0
  0
ARC
  5
4E8D
  8
0
  6
BYBLOCK
 62
     0
 10
26306.180082999981
 20
4912.7287530000031
 30
0.0
 40
15.0
 50
180.0
 51
0.0
  0
ARC
  5
4E8E
  8
0
  6
BYBLOCK
 62
     0
 10
17226.670844999979
 20
4912.7287530000031
 30
0.0
 40
15.0
 50
0.0
 51
180.0
  0
ARC
  5
4E8F
  8
0
  6
BYBLOCK
 62
     0
 10
17226.670844999979
 20
4912.7287530000031
 30
0.0
 40
15.0
 50
180.0
 51
0.0
  0
ARC
  5
4E90
  8
0
  6
BYBLOCK
 62
     0
 10
17184.17084499999
 20
4912.7287530000031
 30
0.0
 40
15.0
 50
180.0
 51
0.0
  0
ARC
  5
4E91
  8
0
  6
BYBLOCK
 62
     0
 10
17184.17084499999
 20
4912.7287530000031
 30
0.0
 40
15.0
 50
0.0
 51
180.0
  0
ARC
  5
4E92
  8
0
  6
BYBLOCK
 62
     0
 10
17184.17084499999
 20
4512.7289179999989
 30
0.0
 40
15.0
 50
0.0
 51
180.0
  0
ARC
  5
4E93
  8
0
  6
BYBLOCK
 62
     0
 10
17184.17084499999
 20
4512.7289179999989
 30
0.0
 40
15.0
 50
180.0
 51
0.0
  0
ARC
  5
4E94
  8
0
  6
BYBLOCK
 62
     0
 10
26306.176123999961
 20
4512.7289179999989
 30
0.0
 40
15.0
 50
180.0
 51
0.0
  0
ARC
  5
4E95
  8
0
  6
BYBLOCK
 62
     0
 10
26306.176123999961
 20
4512.7289179999989
 30
0.0
 40
15.0
 50
0.0
 51
180.0
  0
ARC
  5
4E96
  8
0
  6
BYBLOCK
 62
     0
 10
14156.88291699999
 20
6212.7285880000036
 30
0.0
 40
15.0
 50
90.0
 51
270.0
  0
ARC
  5
4E97
  8
0
  6
BYBLOCK
 62
     0
 10
14156.88291699999
 20
6212.7285880000036
 30
0.0
 40
15.0
 50
270.0
 51
90.0
  0
ARC
  5
4E98
  8
0
  6
BYBLOCK
 62
     0
 10
14156.88291699999
 20
8561.7285880000018
 30
0.0
 40
15.0
 50
270.0
 51
90.0
  0
ARC
  5
4E99
  8
0
  6
BYBLOCK
 62
     0
 10
14156.88291699999
 20
8561.7285880000018
 30
0.0
 40
15.0
 50
90.0
 51
270.0
  0
ARC
  5
4E9A
  8
0
  6
BYBLOCK
 62
     0
 10
6756.8841049999901
 20
6212.7285880000036
 30
0.0
 40
15.0
 50
90.0
 51
270.0
  0
ARC
  5
4E9B
  8
0
  6
BYBLOCK
 62
     0
 10
6756.8841049999901
 20
6212.7285880000036
 30
0.0
 40
15.0
 50
270.0
 51
90.0
  0
ARC
  5
4E9C
  8
0
  6
BYBLOCK
 62
     0
 10
6756.8841049999901
 20
8368.2285880000054
 30
0.0
 40
15.0
 50
270.0
 51
90.0
  0
ARC
  5
4E9D
  8
0
  6
BYBLOCK
 62
     0
 10
6756.8841049999901
 20
8368.2285880000054
 30
0.0
 40
15.0
 50
90.0
 51
270.0
  0
ARC
  5
4E9E
  8
0
  6
BYBLOCK
 62
     0
 10
13066.88450099999
 20
9360.7302629999976
 30
0.0
 40
15.0
 50
180.0
 51
0.0
  0
ARC
  5
4E9F
  8
0
  6
BYBLOCK
 62
     0
 10
13066.88450099999
 20
9360.7302629999976
 30
0.0
 40
15.0
 50
0.0
 51
180.0
  0
ARC
  5
4EA0
  8
0
  6
BYBLOCK
 62
     0
 10
13216.88450099999
 20
9360.7302629999976
 30
0.0
 40
15.0
 50
0.0
 51
180.0
  0
ARC
  5
4EA1
  8
0
  6
BYBLOCK
 62
     0
 10
13216.88450099999
 20
9360.7302629999976
 30
0.0
 40
15.0
 50
180.0
 51
0.0
  0
ARC
  5
4EA2
  8
0
  6
BYBLOCK
 62
     0
 10
7666.8845009999914
 20
9760.7286129999993
 30
0.0
 40
15.0
 50
0.0
 51
180.0
  0
ARC
  5
4EA3
  8
0
  6
BYBLOCK
 62
     0
 10
7666.8845009999914
 20
9760.7286129999993
 30
0.0
 40
15.0
 50
180.0
 51
0.0
  0
ARC
  5
4EA4
  8
0
  6
BYBLOCK
 62
     0
 10
13216.88450099999
 20
9760.7286129999993
 30
0.0
 40
15.0
 50
180.0
 51
0.0
  0
ARC
  5
4EA5
  8
0
  6
BYBLOCK
 62
     0
 10
13216.88450099999
 20
9760.7286129999993
 30
0.0
 40
15.0
 50
0.0
 51
180.0
  0
ARC
  5
4EA6
  8
0
  6
BYBLOCK
 62
     0
 10
7846.8845009999914
 20
9360.7302629999976
 30
0.0
 40
15.0
 50
0.0
 51
180.0
  0
ARC
  5
4EA7
  8
0
  6
BYBLOCK
 62
     0
 10
7846.8845009999914
 20
9360.7302629999976
 30
0.0
 40
15.0
 50
180.0
 51
0.0
  0
ARC
  5
4EA8
  8
0
  6
BYBLOCK
 62
     0
 10
13066.88450099999
 20
9360.7302629999976
 30
0.0
 40
15.0
 50
180.0
 51
0.0
  0
ARC
  5
4EA9
  8
0
  6
BYBLOCK
 62
     0
 10
13066.88450099999
 20
9360.7302629999976
 30
0.0
 40
15.0
 50
0.0
 51
180.0
  0
ARC
  5
4EAA
  8
0
  6
BYBLOCK
 62
     0
 10
7666.8845009999914
 20
9360.7302629999976
 30
0.0
 40
15.0
 50
180.0
 51
0.0
  0
ARC
  5
4EAB
  8
0
  6
BYBLOCK
 62
     0
 10
7666.8845009999914
 20
9360.7302629999976
 30
0.0
 40
15.0
 50
0.0
 51
180.0
  0
ARC
  5
4EAC
  8
0
  6
BYBLOCK
 62
     0
 10
7846.8845009999914
 20
9360.7302629999976
 30
0.0
 40
15.0
 50
0.0
 51
180.0
  0
ARC
  5
4EAD
  8
0
  6
BYBLOCK
 62
     0
 10
7846.8845009999914
 20
9360.7302629999976
 30
0.0
 40
15.0
 50
180.0
 51
0.0
  0
ARC
  5
4EAE
  8
0
  6
BYBLOCK
 62
     0
 10
13024.382521999971
 20
4912.7287519999991
 30
0.0
 40
15.0
 50
180.0
 51
0.0
  0
ARC
  5
4EAF
  8
0
  6
BYBLOCK
 62
     0
 10
13024.382521999971
 20
4912.7287519999991
 30
0.0
 40
15.0
 50
0.0
 51
180.0
  0
ARC
  5
4EB0
  8
0
  6
BYBLOCK
 62
     0
 10
13066.88252199998
 20
4912.7287519999991
 30
0.0
 40
15.0
 50
0.0
 51
180.0
  0
ARC
  5
4EB1
  8
0
  6
BYBLOCK
 62
     0
 10
13066.88252199998
 20
4912.7287519999991
 30
0.0
 40
15.0
 50
180.0
 51
0.0
  0
ARC
  5
4EB2
  8
0
  6
BYBLOCK
 62
     0
 10
10456.88450099999
 20
4912.7287530000031
 30
0.0
 40
15.0
 50
0.0
 51
180.0
  0
ARC
  5
4EB3
  8
0
  6
BYBLOCK
 62
     0
 10
10456.88450099999
 20
4912.7287530000031
 30
0.0
 40
15.0
 50
180.0
 51
0.0
  0
ARC
  5
4EB4
  8
0
  6
BYBLOCK
 62
     0
 10
13024.38450099999
 20
4912.7287530000031
 30
0.0
 40
15.0
 50
180.0
 51
0.0
  0
ARC
  5
4EB5
  8
0
  6
BYBLOCK
 62
     0
 10
13024.38450099999
 20
4912.7287530000031
 30
0.0
 40
15.0
 50
0.0
 51
180.0
  0
ARC
  5
4EB6
  8
0
  6
BYBLOCK
 62
     0
 10
7846.8845009999914
 20
4512.7289170000004
 30
0.0
 40
15.0
 50
0.0
 51
180.0
  0
ARC
  5
4EB7
  8
0
  6
BYBLOCK
 62
     0
 10
7846.8845009999914
 20
4512.7289170000004
 30
0.0
 40
15.0
 50
180.0
 51
0.0
  0
ARC
  5
4EB8
  8
0
  6
BYBLOCK
 62
     0
 10
13066.88252199998
 20
4512.7289170000004
 30
0.0
 40
15.0
 50
180.0
 51
0.0
  0
ARC
  5
4EB9
  8
0
  6
BYBLOCK
 62
     0
 10
13066.88252199998
 20
4512.7289170000004
 30
0.0
 40
15.0
 50
0.0
 51
180.0
  0
ARC
  5
4EBA
  8
0
  6
BYBLOCK
 62
     0
 10
7889.3845009999868
 20
4912.7287519999991
 30
0.0
 40
15.0
 50
0.0
 51
180.0
  0
ARC
  5
4EBB
  8
0
  6
BYBLOCK
 62
     0
 10
7889.3845009999868
 20
4912.7287519999991
 30
0.0
 40
15.0
 50
180.0
 51
0.0
  0
ARC
  5
4EBC
  8
0
  6
BYBLOCK
 62
     0
 10
7846.8845009999914
 20
4912.7287519999991
 30
0.0
 40
15.0
 50
180.0
 51
0.0
  0
ARC
  5
4EBD
  8
0
  6
BYBLOCK
 62
     0
 10
7846.8845009999914
 20
4912.7287519999991
 30
0.0
 40
15.0
 50
0.0
 51
180.0
  0
ARC
  5
4EBE
  8
0
  6
BYBLOCK
 62
     0
 10
10456.88450099999
 20
4912.7287519999991
 30
0.0
 40
15.0
 50
180.0
 51
0.0
  0
ARC
  5
4EBF
  8
0
  6
BYBLOCK
 62
     0
 10
10456.88450099999
 20
4912.7287519999991
 30
0.0
 40
15.0
 50
0.0
 51
180.0
  0
ARC
  5
4EC0
  8
0
  6
BYBLOCK
 62
     0
 10
7889.3845009999868
 20
4912.7287519999991
 30
0.0
 40
15.0
 50
0.0
 51
180.0
  0
ARC
  5
4EC1
  8
0
  6
BYBLOCK
 62
     0
 10
7889.3845009999868
 20
4912.7287519999991
 30
0.0
 40
15.0
 50
180.0
 51
0.0
  0
TEXT
  5
4FD8
  8
NAME
 10
24033.05354655402
 20
1076.0
 30
0.0
 40
360.0
  1
H
 41
0.6700000000000002
  7
00
  0
TEXT
  5
4FD9
  8
NAME
 10
23657.2215619737
 20
1076.0
 30
0.0
 40
360.0
  1
（ ）
  7
01
  0
TEXT
  5
4FDA
  8
NAME
 10
24557.214549256751
 20
1076.0
 30
0.0
 40
360.0
  1
型（ 連棟）
  7
01
  0
TEXT
  5
4FDB
  8
NAME
 10
21816.089515848402
 20
1076.6369801169251
 30
0.0
 40
360.0
  1
VGC-3352
 41
0.6700000000000002
  0
TEXT
  5
4FDC
  8
NAME
 10
25322.399158861332
 20
1076.0
 30
0.0
 40
360.0
  1
n
 41
0.6700000000000002
  7
00
  0
TEXT
  5
4FDE
  8
NAME
 10
21933.552716389018
 20
1876.0
 30
0.0
 40
360.0
  1
ヨドガレージ ラヴィージュ
 41
0.75
  7
01
  0
LINE
  5
4FDF
  8
NAME
  6
CONTINUOUS
 10
26067.886878884321
 20
2236.0
 30
0.0
 11
26067.886878884321
 21
1876.0
 31
0.0
  0
LINE
  5
4FE0
  8
NAME
  6
CONTINUOUS
 10
26167.886878884321
 20
2236.0
 30
0.0
 11
26167.886878884321
 21
1876.0
 31
0.0
  0
LINE
  5
4FE1
  8
NAME
  6
CONTINUOUS
 10
26267.886878884321
 20
2236.0
 30
0.0
 11
26267.886878884321
 21
1876.0
 31
0.0
  0
LINE
  5
4FE2
  8
NAME
  6
CONTINUOUS
 10
26007.886878884321
 20
2236.0
 30
0.0
 11
26327.886878884321
 21
2236.0
 31
0.0
  0
LINE
  5
4FE3
  8
NAME
  6
CONTINUOUS
 10
26327.886878884321
 20
1876.0
 30
0.0
 11
26007.886878884321
 21
1876.0
 31
0.0
  0
LINE
  5
5040
  8
2-0
  6
CONTINUOUS
 62
     3
 10
22952.67585999997
 20
17019.819150499989
 30
0.0
 11
23037.676387999971
 21
17019.819150499989
 31
0.0
  0
LINE
  5
5041
  8
2-0
  6
CONTINUOUS
 62
     3
 10
23037.676387999971
 20
17104.813739499969
 30
0.0
 11
22952.67585999997
 21
17104.813739499969
 31
0.0
  0
LINE
  5
5042
  8
2-0
  6
CONTINUOUS
 62
     3
 10
22952.67585999997
 20
17104.813739499969
 30
0.0
 11
22952.67585999997
 21
17019.819150499989
 31
0.0
  0
LINE
  5
5043
  8
2-0
  6
CONTINUOUS
 62
     3
 10
23037.676387999971
 20
17019.819150499989
 30
0.0
 11
23037.676387999971
 21
17104.813739499969
 31
0.0
  0
LINE
  5
5044
  8
2-0
  6
CONTINUOUS
 62
     6
 10
24515.756446286461
 20
16267.71630149999
 30
0.0
 11
23485.407127286478
 21
16267.71630149999
 31
0.0
  0
LINE
  5
5045
  8
2-0
  6
CONTINUOUS
 62
     6
 10
23034.109294999998
 20
17010.678511999999
 30
0.0
 11
23485.407127286478
 21
16267.71630149999
 31
0.0
  0
LINE
  5
5046
  8
2-0
  6
CONTINUOUS
 62
     6
 10
23094.387614999989
 20
16860.082677000009
 30
0.0
 11
23034.109294999998
 21
17010.678511999999
 31
0.0
  0
LINE
  5
5047
  8
2-0
  6
CONTINUOUS
 62
     6
 10
23034.109294999998
 20
17010.678511999999
 30
0.0
 11
23139.968010000001
 21
16887.770203999971
 31
0.0
  0
LINE
  5
5048
  8
2-0
  6
CONTINUOUS
 62
     6
 10
23094.387614999989
 20
16860.082677000009
 30
0.0
 11
23139.968010000001
 21
16887.770203999971
 31
0.0
  0
LINE
  5
5049
  8
2-0
  6
CONTINUOUS
 62
     6
 10
23139.968010000001
 20
16887.770203999971
 30
0.0
 11
23034.109294999998
 21
17010.678511999999
 31
0.0
  0
LINE
  5
504A
  8
2-0
  6
CONTINUOUS
 62
     6
 10
23034.109294999998
 20
17010.678511999999
 30
0.0
 11
23094.387614999989
 21
16860.082677000009
 31
0.0
  0
LINE
  5
504B
  8
2-0
  6
CONTINUOUS
 62
     6
 10
23094.387614999989
 20
16860.082677000009
 30
0.0
 11
23034.109294999998
 21
17010.678511999999
 31
0.0
  0
LINE
  5
504C
  8
2-0
  6
CONTINUOUS
 62
     6
 10
23139.968010000001
 20
16887.770203999971
 30
0.0
 11
23034.109294999998
 21
17010.678511999999
 31
0.0
  0
LINE
  5
504D
  8
2-0
  6
CONTINUOUS
 62
     6
 10
23139.968010000001
 20
16887.770203999971
 30
0.0
 11
23094.387614999989
 21
16860.082677000009
 31
0.0
  0
TEXT
  5
504E
  8
2-0
  6
CONTINUOUS
 62
     7
 10
23548.722354619818
 20
16340.716988499969
 30
0.0
 40
160.0
  1
中柱（中）
 72
     4
 11
23970.05568795315
 21
16420.716988499971
 31
0.0
  0
TEXT
  5
50A8
  8
FILENAME
  6
CONTINUOUS
 10
28737.333333333328
 20
348.0
 30
0.0
 40
200.0
  1
＜VGC-3352-N-A_0.DXF ＞
  7
FILENAME
 72
     2
 11
32764.0
 21
348.0
 31
0.0
  0
LINE
  5
50AE
  8
WAKUSEN-01
 10
868.00000000000193
 20
827.99999999999955
 30
0.0
 11
32764.000000000011
 21
827.99999999999943
 31
0.0
  0
LINE
  5
50AF
  8
WAKUSEN-01
 10
868.00000000000193
 20
827.99999999999955
 30
0.0
 11
868.00000000000193
 21
22484.000000000011
 31
0.0
  0
LINE
  5
50B0
  8
WAKUSEN-01
 10
32764.000000000011
 20
827.99999999999943
 30
0.0
 11
32764.000000000011
 21
22484.000000000011
 31
0.0
  0
LINE
  5
50B1
  8
WAKUSEN-01
 10
20560.0
 20
827.99999999999716
 30
0.0
 11
20560.0
 21
2484.0
 31
0.0
  0
LINE
  5
50B2
  8
WAKUSEN-02
 10
26868.0
 20
827.99999999999261
 30
0.0
 11
26868.0
 21
2484.0
 31
0.0
  0
ENDSEC
  0
EOF
