  0
SECTION
  2
HEADER
  9
$ACADVER
  1
AC1009
  9
$INSBASE
 10
0.0
 20
0.0
 30
0.0
  9
$EXTMIN
 10
867.99324330406671
 20
327.38164749855792
 30
-0.000000000000013
  9
$EXTMAX
 10
32765.33210850941
 20
22484.553276491992
 30
0.0000000000000023
  9
$LIMMIN
 10
0.0
 20
0.0
  9
$LIMMAX
 10
33600.0
 20
23760.0
  9
$ORTHOMODE
 70
     1
  9
$REGENMODE
 70
     1
  9
$FILLMODE
 70
     1
  9
$QTEXTMODE
 70
     0
  9
$MIRRTEXT
 70
     1
  9
$DRAGMODE
 70
     2
  9
$LTSCALE
 40
80.0
  9
$OSMODE
 70
  3071
  9
$ATTMODE
 70
     1
  9
$TEXTSIZE
 40
0.2
  9
$TRACEWID
 40
0.05
  9
$TEXTSTYLE
  7
00
  9
$CLAYER
  8
0
  9
$CELTYPE
  6
BYLAYER
  9
$CECOLOR
 62
   256
  9
$DIMSCALE
 40
80.0
  9
$DIMASZ
 40
3.0
  9
$DIMEXO
 40
1.0
  9
$DIMDLI
 40
0.38
  9
$DIMRND
 40
0.5
  9
$DIMDLE
 40
0.0
  9
$DIMEXE
 40
1.0
  9
$DIMTP
 40
0.0
  9
$DIMTM
 40
0.0
  9
$DIMTXT
 40
2.0
  9
$DIMCEN
 40
0.09
  9
$DIMTSZ
 40
0.0
  9
$DIMTOL
 70
     0
  9
$DIMLIM
 70
     0
  9
$DIMTIH
 70
     0
  9
$DIMTOH
 70
     0
  9
$DIMSE1
 70
     0
  9
$DIMSE2
 70
     0
  9
$DIMTAD
 70
     1
  9
$DIMZIN
 70
     8
  9
$DIMBLK
  1
DOTSMALL
  9
$DIMASO
 70
     1
  9
$DIMSHO
 70
     1
  9
$DIMPOST
  1

  9
$DIMAPOST
  1

  9
$DIMALT
 70
     0
  9
$DIMALTD
 70
     2
  9
$DIMALTF
 40
25.399999999999999
  9
$DIMLFAC
 40
1.0
  9
$DIMTOFL
 70
     1
  9
$DIMTVP
 40
0.0
  9
$DIMTIX
 70
     0
  9
$DIMSOXD
 70
     0
  9
$DIMSAH
 70
     0
  9
$DIMBLK1
  1

  9
$DIMBLK2
  1

  9
$DIMSTYLE
  2
SUNPOU
  9
$DIMCLRD
 70
     4
  9
$DIMCLRE
 70
     4
  9
$DIMCLRT
 70
     7
  9
$DIMTFAC
 40
1.0
  9
$DIMGAP
 40
1.0
  9
$LUNITS
 70
     2
  9
$LUPREC
 70
     4
  9
$SKETCHINC
 40
0.1
  9
$FILLETRAD
 40
0.0
  9
$AUNITS
 70
     0
  9
$AUPREC
 70
     0
  9
$MENU
  1
acad
  9
$ELEVATION
 40
0.0
  9
$PELEVATION
 40
0.0
  9
$THICKNESS
 40
0.0
  9
$LIMCHECK
 70
     0
  9
$BLIPMODE
 70
     1
  9
$CHAMFERA
 40
0.0
  9
$CHAMFERB
 40
0.0
  9
$SKPOLY
 70
     0
  9
$TDCREATE
 40
2440588.749988426
  9
$TDUPDATE
 40
2458942.4302258911
  9
$TDINDWG
 40
0.0411312037
  9
$TDUSRTIMER
 40
0.0411299306
  9
$USRTIMER
 70
     1
  9
$ANGBASE
 50
0.0
  9
$ANGDIR
 70
     0
  9
$PDMODE
 70
     0
  9
$PDSIZE
 40
0.0
  9
$PLINEWID
 40
0.0
  9
$COORDS
 70
     1
  9
$SPLFRAME
 70
     0
  9
$SPLINETYPE
 70
     6
  9
$SPLINESEGS
 70
     8
  9
$ATTDIA
 70
     1
  9
$ATTREQ
 70
     1
  9
$HANDLING
 70
     1
  9
$HANDSEED
  5
4275
  9
$SURFTAB1
 70
     6
  9
$SURFTAB2
 70
     6
  9
$SURFTYPE
 70
     6
  9
$SURFU
 70
     6
  9
$SURFV
 70
     6
  9
$UCSNAME
  2

  9
$UCSORG
 10
0.0
 20
0.0
 30
0.0
  9
$UCSXDIR
 10
1.0
 20
0.0
 30
0.0
  9
$UCSYDIR
 10
0.0
 20
1.0
 30
0.0
  9
$PUCSNAME
  2

  9
$PUCSORG
 10
0.0
 20
0.0
 30
0.0
  9
$PUCSXDIR
 10
1.0
 20
0.0
 30
0.0
  9
$PUCSYDIR
 10
0.0
 20
1.0
 30
0.0
  9
$USERI1
 70
     0
  9
$USERI2
 70
     0
  9
$USERI3
 70
     0
  9
$USERI4
 70
     0
  9
$USERI5
 70
     0
  9
$USERR1
 40
0.0
  9
$USERR2
 40
0.0
  9
$USERR3
 40
0.0
  9
$USERR4
 40
0.0
  9
$USERR5
 40
0.0
  9
$WORLDVIEW
 70
     1
  9
$SHADEDGE
 70
     3
  9
$SHADEDIF
 70
    70
  9
$TILEMODE
 70
     1
  9
$MAXACTVP
 70
    16
  9
$PLIMCHECK
 70
     0
  9
$PEXTMIN
 10
1.0000000000000000E+020
 20
1.0000000000000000E+020
 30
1.0000000000000000E+020
  9
$PEXTMAX
 10
-1.0000000000000000E+020
 20
-1.0000000000000000E+020
 30
-1.0000000000000000E+020
  9
$PLIMMIN
 10
0.0
 20
0.0
  9
$PLIMMAX
 10
12.0
 20
9.0
  9
$UNITMODE
 70
     0
  9
$VISRETAIN
 70
     0
  9
$PLINEGEN
 70
     1
  9
$PSLTSCALE
 70
     0
  0
ENDSEC
  0
SECTION
  2
TABLES
  0
TABLE
  2
VPORT
 70
     1
  0
VPORT
  2
*ACTIVE
 70
     0
 10
0.0
 20
0.0
 11
1.0
 21
1.0
 12
16800.0
 22
11880.0
 13
0.0
 23
0.0
 14
1.0
 24
1.0
 15
0.0
 25
0.0
 16
0.0
 26
0.0
 36
1.0
 17
0.0
 27
0.0
 37
0.0
 40
23981.023255813951
 41
2.195652173913043
 42
50.0
 43
0.0
 44
0.0
 50
0.0
 51
0.0
 71
     0
 72
 10000
 73
     1
 74
     1
 75
     0
 76
     0
 77
     0
 78
     0
  0
ENDTAB
  0
TABLE
  2
LTYPE
 70
     3
  0
LTYPE
  2
CONTINUOUS
 70
     0
  3
Solid line
 72
    65
 73
     0
 40
0.0
  0
LTYPE
  2
DASHED3
 70
     0
  3
------  ------  ------  ------  
 72
    65
 73
     2
 40
5.0
 49
3.75
 49
-1.25
  0
LTYPE
  2
CENTER2
 70
     0
  3
----------  --  ----------  --  
 72
    65
 73
     4
 40
20.0
 49
12.5
 49
-2.5
 49
2.5
 49
-2.5
  0
ENDTAB
  0
TABLE
  2
LAYER
 70
    17
  0
LAYER
  2
0
 70
     0
 62
     7
  6
CONTINUOUS
  0
LAYER
  2
SUNPOU
 70
     0
 62
     4
  6
CONTINUOUS
  0
LAYER
  2
0-1
 70
     0
 62
     7
  6
CONTINUOUS
  0
LAYER
  2
2-0
 70
     0
 62
     7
  6
CONTINUOUS
  0
LAYER
  2
0-2
 70
     0
 62
     7
  6
CONTINUOUS
  0
LAYER
  2
0-6
 70
     0
 62
     7
  6
CONTINUOUS
  0
LAYER
  2
0-5
 70
     0
 62
     7
  6
CONTINUOUS
  0
LAYER
  2
YODOROGO
 70
     0
 62
   130
  6
CONTINUOUS
  0
LAYER
  2
WAKUSEN-01
 70
     0
 62
    50
  6
CONTINUOUS
  0
LAYER
  2
WAKUSEN-02
 70
     0
 62
   130
  6
CONTINUOUS
  0
LAYER
  2
WAKUMOJI-01
 70
     0
 62
   130
  6
CONTINUOUS
  0
LAYER
  2
FILENAME
 70
     0
 62
     7
  6
CONTINUOUS
  0
LAYER
  2
NAME
 70
     0
 62
    20
  6
CONTINUOUS
  0
LAYER
  2
0-4
 70
     0
 62
     7
  6
CONTINUOUS
  0
LAYER
  2
0-0
 70
     0
 62
     7
  6
CONTINUOUS
  0
ENDTAB
  0
TABLE
  2
STYLE
 70
     6
  0
STYLE
  2
STANDARD
 70
     0
 40
0.0
 41
1.0
 50
0.0
 71
     0
 42
0.0
  3
txt
  4
BIGFONT
  0
STYLE
  2
00
 70
     0
 40
0.0
 41
0.6666666666666666
 50
0.0
 71
     0
 42
0.2
  3
ROMANS
  4
BIGFONT
  0
STYLE
  2
01
 70
     0
 40
3.0
 41
1.0
 50
0.0
 71
     0
 42
0.2
  3
ROMANS
  4
BIGFONT
  0
STYLE
  2
WAKUMOJI
 70
     0
 40
3.0
 41
1.0
 50
0.0
 71
     0
 42
3.0
  3
SIMPLEX
  4
BIGFONT
  0
STYLE
  2
FILENAME
 70
     0
 40
200.0
 41
1.0
 50
0.0
 71
     0
 42
200.0
  3
romans
  4
bigfont
  0
ENDTAB
  0
TABLE
  2
VIEW
 70
     0
  0
ENDTAB
  0
TABLE
  2
UCS
 70
     0
  0
ENDTAB
  0
TABLE
  2
APPID
 70
    13
  0
APPID
  2
ACAD
 70
     0
  0
APPID
  2
ACADANNOTATIVE
 70
     0
  0
APPID
  2
ACAD_PSEXT
 70
     0
  0
APPID
  2
DCO15
 70
     0
  0
APPID
  2
ACAD_MLEADERVER
 70
     0
  0
APPID
  2
AUTOCAD_POSTSCRIPT_FIGURE
 70
     0
  0
APPID
  2
ACAD_EXEMPT_FROM_CAD_STANDARDS
 70
     0
  0
APPID
  2
ACAD_DSTYLE_DIMJAG
 70
     0
  0
APPID
  2
ACAD_DSTYLE_DIMTALN
 70
     0
  0
APPID
  2
ACAD_DSTYLE_DIM_LINETYPE
 70
     0
  0
APPID
  2
ACAD_DSTYLE_DIM_EXT1_LINETYPE
 70
     0
  0
APPID
  2
ACAD_DSTYLE_DIM_EXT2_LINETYPE
 70
     0
  0
APPID
  2
ACAD_NAV_VCDISPLAY
 70
     0
  0
ENDTAB
  0
TABLE
  2
DIMSTYLE
 70
     3
  0
DIMSTYLE
  2
SUNPOU
 70
     0
  3

  4

  5

  6

  7

 40
80.0
 41
3.0
 42
1.0
 43
0.38
 44
1.0
 45
0.5
 46
0.0
 47
0.0
 48
0.0
140
2.0
141
0.09
142
0.0
143
25.399999999999999
144
1.0
145
0.0
146
1.0
147
1.0
 71
     0
 72
     0
 73
     0
 74
     0
 75
     0
 76
     0
 77
     1
 78
     8
170
     0
171
     2
172
     1
173
     0
174
     0
175
     0
176
     4
177
     4
178
     7
  0
ENDTAB
  0
ENDSEC
  0
SECTION
  2
BLOCKS
  0
BLOCK
  8
0
  2
$MODEL_SPACE
 70
     0
 10
0.0
 20
0.0
 30
0.0
  3
$MODEL_SPACE
  1

  0
ENDBLK
  5
41CE
  8
0
  0
BLOCK
 67
     1
  8
0
  2
$PAPER_SPACE
 70
     0
 10
0.0
 20
0.0
 30
0.0
  3
$PAPER_SPACE
  1

  0
ENDBLK
  5
41CA
 67
     1
  8
0
  0
BLOCK
  8
0
  2
_DOTSMALL
 70
     0
 10
0.0
 20
0.0
 30
0.0
  3
_DOTSMALL
  1

  0
POLYLINE
  5
36B3
  8
0
  6
BYBLOCK
 62
     0
 66
     1
 10
0.0
 20
0.0
 30
0.0
 70
     1
 40
0.5
 41
0.5
  0
VERTEX
  5
4232
  8
0
  6
BYBLOCK
 62
     0
 10
-0.0625
 20
0.0
 30
0.0
 42
1.0
  0
VERTEX
  5
4233
  8
0
  6
BYBLOCK
 62
     0
 10
0.0625
 20
0.0
 30
0.0
 42
1.0
  0
SEQEND
  5
4234
  8
0
  6
BYBLOCK
 62
     0
  0
ENDBLK
  5
36B7
  8
0
  0
ENDSEC
  0
SECTION
  2
ENTITIES
  0
LINE
  5
36B8
  8
0-2
  6
CONTINUOUS
 62
     3
 10
8498.5867659999658
 20
19144.59503
 30
0.0
 11
8498.5867659999658
 21
19807.539762
 31
0.0
  0
LINE
  5
36B9
  8
0-2
  6
CONTINUOUS
 62
     3
 10
8461.5885739999685
 20
19163.35096900001
 30
0.0
 11
8461.5885739999685
 21
19807.539762
 31
0.0
  0
LINE
  5
36BA
  8
0-2
  6
CONTINUOUS
 62
     3
 10
7940.5891019999726
 20
17109.538019000011
 30
0.0
 11
12665.838599999959
 21
17109.538019000011
 31
0.0
  0
LINE
  5
36BB
  8
0-2
  6
CONTINUOUS
 62
     3
 10
7990.5887319999738
 20
14347.53844200001
 30
0.0
 11
7990.5887319999738
 21
19807.539762
 31
0.0
  0
LINE
  5
36BC
  8
0-2
  6
CONTINUOUS
 62
     3
 10
7855.0887059999759
 20
14315.539524000011
 30
0.0
 11
7855.0887059999759
 21
19855.539128
 31
0.0
  0
LINE
  5
36BD
  8
0-2
  6
CONTINUOUS
 62
     3
 10
8049.0884939999742
 20
19367.108755000001
 30
0.0
 11
8049.0884939999742
 21
19807.539762
 31
0.0
  0
LINE
  5
36BE
  8
0-2
  6
CONTINUOUS
 62
     3
 10
8086.0891609999699
 20
19348.354796
 30
0.0
 11
8086.0891609999699
 21
19807.539762
 31
0.0
  0
LINE
  5
36BF
  8
0-2
  6
CONTINUOUS
 62
     3
 10
8249.0896489999686
 20
19265.735628999992
 30
0.0
 11
8249.0896489999686
 21
19807.539762
 31
0.0
  0
LINE
  5
36C0
  8
0-2
  6
CONTINUOUS
 62
     3
 10
8286.087840999975
 20
19246.983649000002
 30
0.0
 11
8286.087840999975
 21
19807.539762
 31
0.0
  0
LINE
  5
36C1
  8
0-2
  6
CONTINUOUS
 62
     3
 10
8661.588243999975
 20
19061.975863
 30
0.0
 11
8661.588243999975
 21
19807.539762
 31
0.0
  0
LINE
  5
36C2
  8
0-2
  6
CONTINUOUS
 62
     3
 10
8698.5884149999711
 20
19043.219924000001
 30
0.0
 11
8698.5884149999711
 21
19807.539762
 31
0.0
  0
LINE
  5
36C3
  8
0-2
  6
CONTINUOUS
 62
     3
 10
8861.5869239999774
 20
18960.600757
 30
0.0
 11
8861.5869239999774
 21
19807.539762
 31
0.0
  0
LINE
  5
36C4
  8
0-2
  6
CONTINUOUS
 62
     3
 10
8898.5880849999758
 20
18941.848778
 30
0.0
 11
8898.5880849999758
 21
19807.539762
 31
0.0
  0
LINE
  5
36C5
  8
0-2
  6
CONTINUOUS
 62
     3
 10
7928.588230999977
 20
19855.539128
 30
0.0
 11
14489.588983999951
 21
19855.539128
 31
0.0
  0
LINE
  5
36C6
  8
0-2
  6
CONTINUOUS
 62
     3
 10
10826.88563399996
 20
17964.453560000002
 30
0.0
 11
10989.123016999951
 21
18154.661542000002
 31
0.0
  0
LINE
  5
36C7
  8
0-2
  6
CONTINUOUS
 62
     3
 10
11425.47918599997
 20
17475.296702999982
 30
0.0
 11
11587.717558999961
 21
17665.504685000011
 31
0.0
  0
LINE
  5
36C8
  8
0-2
  6
CONTINUOUS
 62
     3
 10
11425.47918599997
 20
17475.296702999982
 30
0.0
 11
10989.123016999951
 21
18154.661542000002
 31
0.0
  0
LINE
  5
36C9
  8
0-2
  6
CONTINUOUS
 62
     3
 10
7940.5891019999726
 20
17030.54137100001
 30
0.0
 11
12821.695005999951
 21
17030.54137100001
 31
0.0
  0
LINE
  5
36CA
  8
0-2
  6
CONTINUOUS
 62
     3
 10
7898.0888379999751
 20
14471.538455000011
 30
0.0
 11
14520.08936599996
 21
14471.538455000011
 31
0.0
  0
LINE
  5
36CB
  8
0-2
  6
CONTINUOUS
 62
     3
 10
7940.5891019999726
 20
14550.539063
 30
0.0
 11
14477.589101999971
 21
14550.539063
 31
0.0
  0
LINE
  5
36CC
  8
0-2
  6
CONTINUOUS
 62
     3
 10
7855.088705999975
 20
14315.539524000011
 30
0.0
 11
14563.088508999959
 21
14315.539524
 31
0.0
  0
LINE
  5
36CD
  8
0-2
  6
CONTINUOUS
 62
     3
 10
7855.088705999975
 20
14347.53844200001
 30
0.0
 11
14563.088508999959
 21
14347.53844200001
 31
0.0
  0
LINE
  5
36CE
  8
0-2
  6
CONTINUOUS
 62
     3
 10
7940.5891019999726
 20
14471.538455000011
 30
0.0
 11
7940.5891019999726
 21
19422.105718999999
 31
0.0
  0
LINE
  5
36CF
  8
0-2
  6
CONTINUOUS
 62
     3
 10
7898.0888379999751
 20
14471.538455000011
 30
0.0
 11
7898.0888379999751
 21
19443.648819999991
 31
0.0
  0
LINE
  5
36D0
  8
0-2
  6
CONTINUOUS
 62
     3
 10
9061.5885739999721
 20
18859.229610999992
 30
0.0
 11
9061.5885739999721
 21
19807.539762
 31
0.0
  0
LINE
  5
36D1
  8
0-2
  6
CONTINUOUS
 62
     3
 10
9098.5867659999749
 20
18840.473672
 30
0.0
 11
9098.5867659999749
 21
19807.539762
 31
0.0
  0
LINE
  5
36D2
  8
0-2
  6
CONTINUOUS
 62
     3
 10
9261.5882439999714
 20
18757.854504999999
 30
0.0
 11
9261.5882439999714
 21
19807.539762
 31
0.0
  0
LINE
  5
36D3
  8
0-2
  6
CONTINUOUS
 62
     3
 10
9661.5885739999758
 20
18555.106274000002
 30
0.0
 11
9661.5885739999758
 21
19807.539762
 31
0.0
  0
LINE
  5
36D4
  8
0-2
  6
CONTINUOUS
 62
     3
 10
9698.5867659999767
 20
18536.354294000001
 30
0.0
 11
9698.5867659999767
 21
19807.539762
 31
0.0
  0
LINE
  5
36D5
  8
0-2
  6
CONTINUOUS
 62
     3
 10
9861.5882439999623
 20
18453.731167999998
 30
0.0
 11
9861.5882439999623
 21
19807.539762
 31
0.0
  0
LINE
  5
36D6
  8
0-2
  6
CONTINUOUS
 62
     3
 10
9898.5884149999747
 20
18434.979188999991
 30
0.0
 11
9898.5884149999747
 21
19807.539762
 31
0.0
  0
LINE
  5
36D7
  8
0-2
  6
CONTINUOUS
 62
     3
 10
10061.587913999971
 20
18352.360022000001
 30
0.0
 11
10061.587913999971
 21
19807.539762
 31
0.0
  0
LINE
  5
36D8
  8
0-2
  6
CONTINUOUS
 62
     3
 10
10098.58808499997
 20
18333.604082999991
 30
0.0
 11
10098.58808499997
 21
19807.539762
 31
0.0
  0
LINE
  5
36D9
  8
0-2
  6
CONTINUOUS
 62
     3
 10
10261.587583999961
 20
18250.984916000001
 30
0.0
 11
10261.587583999961
 21
19807.539762
 31
0.0
  0
LINE
  5
36DA
  8
0-2
  6
CONTINUOUS
 62
     3
 10
10298.58775599995
 20
18232.232936
 30
0.0
 11
10298.58775599995
 21
19807.539762
 31
0.0
  0
LINE
  5
36DB
  8
0-2
  6
CONTINUOUS
 62
     3
 10
10461.58923399995
 20
18149.613769
 30
0.0
 11
10461.58923399995
 21
19807.539762
 31
0.0
  0
LINE
  5
36DC
  8
0-2
  6
CONTINUOUS
 62
     3
 10
10498.587425999969
 20
18130.857831000001
 30
0.0
 11
10498.587425999969
 21
19807.539762
 31
0.0
  0
LINE
  5
36DD
  8
0-2
  6
CONTINUOUS
 62
     3
 10
10661.587913999971
 20
18048.238664
 30
0.0
 11
10661.587913999971
 21
19807.539762
 31
0.0
  0
LINE
  5
36DE
  8
0-2
  6
CONTINUOUS
 62
     3
 10
10698.58907499996
 20
18029.482725000002
 30
0.0
 11
10698.58907499996
 21
19807.539762
 31
0.0
  0
LINE
  5
36DF
  8
0-2
  6
CONTINUOUS
 62
     3
 10
10861.587583999961
 20
18005.140585000001
 30
0.0
 11
10861.587583999961
 21
19807.539762
 31
0.0
  0
LINE
  5
36E0
  8
0-2
  6
CONTINUOUS
 62
     3
 10
10898.587755999961
 20
18048.51777599999
 30
0.0
 11
10898.587755999961
 21
19807.539762
 31
0.0
  0
LINE
  5
36E1
  8
0-2
  6
CONTINUOUS
 62
     3
 10
11061.589233999959
 20
18041.84086
 30
0.0
 11
11061.589233999959
 21
19807.539762
 31
0.0
  0
LINE
  5
36E2
  8
0-2
  6
CONTINUOUS
 62
     3
 10
11098.587425999969
 20
17984.236868999978
 30
0.0
 11
11098.587425999969
 21
19807.539762
 31
0.0
  0
LINE
  5
36E3
  8
0-2
  6
CONTINUOUS
 62
     3
 10
9298.5884149999747
 20
18739.098567000001
 30
0.0
 11
9298.5884149999747
 21
19807.539762
 31
0.0
  0
LINE
  5
36E4
  8
0-2
  6
CONTINUOUS
 62
     3
 10
9461.5869239999702
 20
18656.4794
 30
0.0
 11
9461.5869239999702
 21
19807.539762
 31
0.0
  0
LINE
  5
36E5
  8
0-2
  6
CONTINUOUS
 62
     3
 10
9498.5880849999758
 20
18637.725440999991
 30
0.0
 11
9498.5880849999758
 21
19807.539762
 31
0.0
  0
LINE
  5
36E6
  8
0-2
  6
CONTINUOUS
 62
     3
 10
8010.5888379999733
 20
14508.039787999989
 30
0.0
 11
11139.089365999949
 21
17075.53978799998
 31
0.0
  0
LINE
  5
36E7
  8
0-2
  6
CONTINUOUS
 62
     3
 10
11139.089365999949
 20
14508.039787999989
 30
0.0
 11
8010.5888379999733
 21
17075.53978799998
 31
0.0
  0
LINE
  5
36E8
  8
0-2
  6
CONTINUOUS
 62
     3
 10
12298.58742599996
 20
17295.687988000001
 30
0.0
 11
12298.58742599996
 21
19807.539762
 31
0.0
  0
LINE
  5
36E9
  8
0-2
  6
CONTINUOUS
 62
     3
 10
12261.589233999959
 20
17314.439966999991
 30
0.0
 11
12261.589233999959
 21
19807.539762
 31
0.0
  0
LINE
  5
36EA
  8
0-2
  6
CONTINUOUS
 62
     3
 10
12098.587755999961
 20
17406.5599
 30
0.0
 11
12098.587755999961
 21
19807.539762
 31
0.0
  0
LINE
  5
36EB
  8
0-2
  6
CONTINUOUS
 62
     3
 10
12061.58857399997
 20
17425.315838999992
 30
0.0
 11
12061.58857399997
 21
19807.539762
 31
0.0
  0
LINE
  5
36EC
  8
0-2
  6
CONTINUOUS
 62
     3
 10
11898.58808499997
 20
17507.933025999992
 30
0.0
 11
11898.58808499997
 21
19807.539762
 31
0.0
  0
LINE
  5
36ED
  8
0-2
  6
CONTINUOUS
 62
     3
 10
11861.58692399997
 20
17526.688965000008
 30
0.0
 11
11861.58692399997
 21
19807.539762
 31
0.0
  0
LINE
  5
36EE
  8
0-2
  6
CONTINUOUS
 62
     3
 10
11698.58841499996
 20
17609.308131999991
 30
0.0
 11
11698.58841499996
 21
19807.539762
 31
0.0
  0
LINE
  5
36EF
  8
0-2
  6
CONTINUOUS
 62
     3
 10
11661.58923399997
 20
17628.062091
 30
0.0
 11
11661.58923399997
 21
19807.539762
 31
0.0
  0
LINE
  5
36F0
  8
0-2
  6
CONTINUOUS
 62
     3
 10
11498.58676599994
 20
17561.009858000001
 30
0.0
 11
11498.58676599994
 21
19807.539762
 31
0.0
  0
LINE
  5
36F1
  8
0-2
  6
CONTINUOUS
 62
     3
 10
11461.58857399997
 20
17517.628708000011
 30
0.0
 11
11461.58857399997
 21
19807.539762
 31
0.0
  0
LINE
  5
36F2
  8
0-2
  6
CONTINUOUS
 62
     3
 10
11298.589074999971
 20
17672.856617000001
 30
0.0
 11
11298.589074999971
 21
19807.539762
 31
0.0
  0
LINE
  5
36F3
  8
0-2
  6
CONTINUOUS
 62
     3
 10
11261.58692399997
 20
17730.462587000009
 30
0.0
 11
11261.58692399997
 21
19807.539762
 31
0.0
  0
LINE
  5
36F4
  8
0-2
  6
CONTINUOUS
 62
     3
 10
14407.58837699996
 20
14508.039787999989
 30
0.0
 11
11279.087847999959
 21
17075.53978799998
 31
0.0
  0
LINE
  5
36F5
  8
0-2
  6
CONTINUOUS
 62
     3
 10
11279.087847999959
 20
14508.039787999989
 30
0.0
 11
13853.503229999949
 21
16507.54860300001
 31
0.0
  0
LINE
  5
36F6
  8
0-2
  6
CONTINUOUS
 62
     3
 10
14520.08936599996
 20
14471.538455000011
 30
0.0
 11
14520.08936599996
 21
16174.999379000001
 31
0.0
  0
LINE
  5
36F7
  8
0-2
  6
CONTINUOUS
 62
     3
 10
14477.589101999971
 20
14471.538455000011
 30
0.0
 11
14477.589101999971
 21
16196.542479999989
 31
0.0
  0
LINE
  5
36F8
  8
0-2
  6
CONTINUOUS
 62
     3
 10
14563.088508999959
 20
14315.539524000011
 30
0.0
 11
14563.088508999959
 21
19855.539128
 31
0.0
  0
LINE
  5
36F9
  8
0-2
  6
CONTINUOUS
 62
     3
 10
14427.589471999951
 20
14347.53844200001
 30
0.0
 11
14427.589471999951
 21
19807.539762
 31
0.0
  0
LINE
  5
36FA
  8
0-2
  6
CONTINUOUS
 62
     3
 10
14332.090527999961
 20
16270.29142400001
 30
0.0
 11
14332.090527999961
 21
19807.539762
 31
0.0
  0
LINE
  5
36FB
  8
0-2
  6
CONTINUOUS
 62
     3
 10
14369.089708999971
 20
16251.53647500001
 30
0.0
 11
14369.089708999971
 21
19807.539762
 31
0.0
  0
LINE
  5
36FC
  8
0-2
  6
CONTINUOUS
 62
     3
 10
10826.88563399996
 20
17964.453560000002
 30
0.0
 11
7706.8930759999676
 21
19540.560110999999
 31
0.0
  0
LINE
  5
36FD
  8
0-2
  6
CONTINUOUS
 62
     3
 10
12498.58808499997
 20
17194.312881999991
 30
0.0
 11
12498.58808499997
 21
19807.539762
 31
0.0
  0
LINE
  5
36FE
  8
0-2
  6
CONTINUOUS
 62
     3
 10
12535.588256999959
 20
17175.556944000011
 30
0.0
 11
12535.588256999959
 21
19807.539762
 31
0.0
  0
LINE
  5
36FF
  8
0-2
  6
CONTINUOUS
 62
     3
 10
12698.587755999961
 20
17092.937775999992
 30
0.0
 11
12698.587755999961
 21
19807.539762
 31
0.0
  0
LINE
  5
3700
  8
0-2
  6
CONTINUOUS
 62
     3
 10
12735.58891699997
 20
17074.185796999991
 30
0.0
 11
12735.58891699997
 21
19807.539762
 31
0.0
  0
LINE
  5
3701
  8
0-2
  6
CONTINUOUS
 62
     3
 10
12898.587425999969
 20
16991.566630000001
 30
0.0
 11
12898.587425999969
 21
19807.539762
 31
0.0
  0
LINE
  5
3702
  8
0-2
  6
CONTINUOUS
 62
     3
 10
12935.587596999951
 20
16972.81069100001
 30
0.0
 11
12935.587596999951
 21
19807.539762
 31
0.0
  0
LINE
  5
3703
  8
0-2
  6
CONTINUOUS
 62
     3
 10
13572.587768999971
 20
16649.935375000001
 30
0.0
 11
13572.587768999971
 21
19807.539762
 31
0.0
  0
LINE
  5
3704
  8
0-2
  6
CONTINUOUS
 62
     3
 10
13535.587596999971
 20
16668.69131300001
 30
0.0
 11
13535.587596999971
 21
19807.539762
 31
0.0
  0
LINE
  5
3705
  8
0-2
  6
CONTINUOUS
 62
     3
 10
13372.58710899994
 20
16751.310480000011
 30
0.0
 11
13372.58710899994
 21
19807.539762
 31
0.0
  0
LINE
  5
3706
  8
0-2
  6
CONTINUOUS
 62
     3
 10
13335.588916999959
 20
16770.062460000001
 30
0.0
 11
13335.588916999959
 21
19807.539762
 31
0.0
  0
LINE
  5
3707
  8
0-2
  6
CONTINUOUS
 62
     3
 10
13172.58941799997
 20
16852.681627000002
 30
0.0
 11
13172.58941799997
 21
19807.539762
 31
0.0
  0
LINE
  5
3708
  8
0-2
  6
CONTINUOUS
 62
     3
 10
13135.58825699995
 20
16871.437565000011
 30
0.0
 11
13135.58825699995
 21
19807.539762
 31
0.0
  0
LINE
  5
3709
  8
0-2
  6
CONTINUOUS
 62
     3
 10
13772.58941799997
 20
16548.56422800001
 30
0.0
 11
13772.58941799997
 21
19807.539762
 31
0.0
  0
LINE
  5
370A
  8
0-2
  6
CONTINUOUS
 62
     3
 10
13809.58859999997
 20
16529.808290000012
 30
0.0
 11
13809.58859999997
 21
19807.539762
 31
0.0
  0
LINE
  5
370B
  8
0-2
  6
CONTINUOUS
 62
     3
 10
13972.58710899994
 20
16447.189123000011
 30
0.0
 11
13972.58710899994
 21
19807.539762
 31
0.0
  0
LINE
  5
370C
  8
0-2
  6
CONTINUOUS
 62
     3
 10
14009.58826999996
 20
16428.433184000001
 30
0.0
 11
14009.58826999996
 21
19807.539762
 31
0.0
  0
LINE
  5
370D
  8
0-2
  6
CONTINUOUS
 62
     3
 10
14172.588758999949
 20
16345.81401700001
 30
0.0
 11
14172.588758999949
 21
19807.539762
 31
0.0
  0
LINE
  5
370E
  8
0-2
  6
CONTINUOUS
 62
     3
 10
14209.58793999997
 20
16327.06005800001
 30
0.0
 11
14209.58793999997
 21
19807.539762
 31
0.0
  0
LINE
  5
370F
  8
0-2
  6
CONTINUOUS
 62
     3
 10
14776.353882999971
 20
16045.106339000011
 30
0.0
 11
11587.717558999961
 21
17665.504685000011
 31
0.0
  0
LINE
  5
3710
  8
0-2
  6
CONTINUOUS
 62
     3
 10
8010.5888379999733
 20
17075.53978799998
 30
0.0
 11
9755.1683349999712
 21
18507.675029000002
 31
0.0
  0
LINE
  5
3711
  8
0-2
  6
CONTINUOUS
 62
     3
 10
8838.9234159999687
 20
18972.087904
 30
0.0
 11
11139.089365999949
 21
17075.53978799998
 31
0.0
  0
LINE
  5
3712
  8
0-2
  6
CONTINUOUS
 62
     3
 10
11279.087847999959
 20
17075.53978799998
 30
0.0
 11
11834.289362999971
 21
17540.527779000011
 31
0.0
  0
LINE
  5
3713
  8
0-2
  6
CONTINUOUS
 62
     3
 10
7873.0899529999751
 20
19807.539762
 30
0.0
 11
14545.088745999959
 21
19807.539762
 31
0.0
  0
LINE
  5
3714
  8
0-2
  6
CONTINUOUS
 62
     3
 10
7873.0899529999733
 20
19825.541504000001
 30
0.0
 11
7923.5879669999777
 21
19825.541504000001
 31
0.0
  0
LINE
  5
3715
  8
0-2
  6
CONTINUOUS
 62
     3
 10
7873.0899529999733
 20
19848.040712000002
 30
0.0
 11
7855.0887059999759
 21
19848.040712000002
 31
0.0
  0
LINE
  5
3716
  8
0-2
  6
CONTINUOUS
 62
     3
 10
7923.5879669999777
 20
19865.539656000001
 30
0.0
 11
7860.0889699999743
 21
19865.539656000001
 31
0.0
  0
LINE
  5
3717
  8
0-2
  6
CONTINUOUS
 62
     3
 10
7855.0887059999759
 20
19860.539391999991
 30
0.0
 11
7855.0887059999759
 21
19825.541504000001
 31
0.0
  0
LINE
  5
3718
  8
0-2
  6
CONTINUOUS
 62
     3
 10
7928.588230999977
 20
19830.541767999981
 30
0.0
 11
7928.588230999977
 21
19860.539391999991
 31
0.0
  0
LINE
  5
3719
  8
0-2
  6
CONTINUOUS
 62
     3
 10
7873.0899529999733
 20
19454.799448000002
 30
0.0
 11
7873.0899529999733
 21
19848.040712000002
 31
0.0
  0
LINE
  5
371A
  8
0-2
  6
CONTINUOUS
 62
     3
 10
14494.58924799998
 20
19865.539656000001
 30
0.0
 11
14558.088244999961
 21
19865.539656000001
 31
0.0
  0
LINE
  5
371B
  8
0-2
  6
CONTINUOUS
 62
     3
 10
14563.088508999959
 20
19860.539391999991
 30
0.0
 11
14563.088508999959
 21
19825.541504000001
 31
0.0
  0
LINE
  5
371C
  8
0-2
  6
CONTINUOUS
 62
     3
 10
14545.088745999959
 20
19825.541504000001
 30
0.0
 11
14494.58924799998
 21
19825.541504000001
 31
0.0
  0
LINE
  5
371D
  8
0-2
  6
CONTINUOUS
 62
     3
 10
14489.588983999951
 20
19830.541767999981
 30
0.0
 11
14489.588983999951
 21
19860.539391999991
 31
0.0
  0
LINE
  5
371E
  8
0-2
  6
CONTINUOUS
 62
     3
 10
14545.088745999959
 20
19848.040712000002
 30
0.0
 11
14563.088508999959
 21
19848.040712000002
 31
0.0
  0
LINE
  5
371F
  8
0-2
  6
CONTINUOUS
 62
     3
 10
14545.088745999959
 20
16163.848751
 30
0.0
 11
14545.088745999959
 21
19848.040712000002
 31
0.0
  0
LINE
  5
3720
  8
0-2
  6
CONTINUOUS
 62
     3
 10
11152.087873999961
 20
14550.539063
 30
0.0
 11
11152.087873999961
 21
17030.54137100001
 31
0.0
  0
LINE
  5
3721
  8
0-2
  6
CONTINUOUS
 62
     3
 10
11266.089338999949
 20
14550.539063
 30
0.0
 11
11266.089338999949
 21
17030.54137100001
 31
0.0
  0
LINE
  5
3722
  8
0-2
  6
CONTINUOUS
 62
     3
 10
11209.089101999971
 20
14550.539063
 30
0.0
 11
11209.089101999971
 21
14471.538455000011
 31
0.0
  0
LINE
  5
3723
  8
0-2
  6
CONTINUOUS
 62
     3
 10
11209.089101999971
 20
14550.539063
 30
0.0
 11
11209.089101999971
 21
17030.54137100001
 31
0.0
  0
LINE
  5
3724
  8
0-2
  6
CONTINUOUS
 62
     3
 10
11152.087873999961
 20
17109.538019000011
 30
0.0
 11
11152.087873999961
 21
17900.940707000002
 31
0.0
  0
LINE
  5
3725
  8
0-2
  6
CONTINUOUS
 62
     3
 10
11266.089338999949
 20
17109.538019000011
 30
0.0
 11
11266.089338999949
 21
17723.455090999982
 31
0.0
  0
LINE
  5
3726
  8
0-2
  6
CONTINUOUS
 62
     3
 10
11209.089101999971
 20
17109.538019000011
 30
0.0
 11
11209.089101999971
 21
17812.196908999991
 31
0.0
  0
LINE
  5
3727
  8
0-2
  6
CONTINUOUS
 62
     3
 10
11209.089101999971
 20
17030.54137100001
 30
0.0
 11
11209.089101999971
 21
17109.538019000011
 31
0.0
  0
LINE
  5
3728
  8
0-2
  6
CONTINUOUS
 62
     3
 10
11124.087583999961
 20
19807.539762
 30
0.0
 11
11124.087583999961
 21
19855.539128
 31
0.0
  0
LINE
  5
3729
  8
0-2
  6
CONTINUOUS
 62
     3
 10
11209.089101999971
 20
14471.538455000011
 30
0.0
 11
11209.089101999971
 21
14315.539524000011
 31
0.0
  0
LINE
  5
372A
  8
0-6
  6
CONTINUOUS
 62
     6
 10
9783.8426519999757
 20
17263.368387999999
 30
0.0
 11
9722.694332999974
 21
17434.635412000011
 31
0.0
  0
LINE
  5
372B
  8
0-6
  6
CONTINUOUS
 62
     6
 10
9536.9749099999717
 20
19583.266244999992
 30
0.0
 11
9680.87601299997
 21
20095.539919999988
 31
0.0
  0
LINE
  5
372C
  8
0-6
  6
CONTINUOUS
 62
     6
 10
9123.8295869999747
 20
19689.039840999991
 30
0.0
 11
8829.9017599999734
 21
20095.539919999988
 31
0.0
  0
LINE
  5
372D
  8
0-6
  6
CONTINUOUS
 62
     6
 10
9680.87601299997
 20
20095.539919999988
 30
0.0
 11
10198.56565099997
 21
20095.539919999988
 31
0.0
  0
LINE
  5
372E
  8
0-6
  6
CONTINUOUS
 62
     6
 10
9070.5627209999711
 20
19985.44503499999
 30
0.0
 11
8861.3721459999706
 21
20347.774137
 31
0.0
  0
LINE
  5
372F
  8
0-6
  6
CONTINUOUS
 62
     6
 10
8787.3658649999761
 20
20475.959841999989
 30
0.0
 11
8591.3074159999687
 21
20815.540315999999
 31
0.0
  0
LINE
  5
3730
  8
0-6
  6
CONTINUOUS
 62
     6
 10
8591.3074159999687
 20
20815.540315999999
 30
0.0
 11
9433.7449949999718
 21
20815.540315999999
 31
0.0
  0
LINE
  5
3731
  8
0-6
  6
CONTINUOUS
 62
     6
 10
8019.4031389999718
 20
20095.539919999988
 30
0.0
 11
8829.9017599999734
 21
20095.539919999988
 31
0.0
  0
LINE
  5
3732
  8
0-6
  6
CONTINUOUS
 62
     6
 10
8922.1235719999713
 20
17434.635412000011
 30
0.0
 11
9722.694332999974
 21
17434.635412000011
 31
0.0
  0
LINE
  5
3733
  8
0-6
  6
CONTINUOUS
 62
     6
 10
8105.116787999973
 20
18297.980667
 30
0.0
 11
8635.6159699999735
 21
18297.980667
 31
0.0
  0
LINE
  5
3734
  8
0-6
  6
CONTINUOUS
 62
     6
 10
9101.4689449999751
 20
14702.42950300001
 30
0.0
 11
9184.3553469999715
 21
14888.866566999999
 31
0.0
  0
LINE
  5
3735
  8
0-6
  6
CONTINUOUS
 62
     6
 10
9184.3553469999715
 20
14888.866566999999
 30
0.0
 11
9984.356006999973
 21
14888.866566999999
 31
0.0
  0
LINE
  5
3736
  8
0-6
  6
CONTINUOUS
 62
     6
 10
10091.88246599995
 20
13515.539854000001
 30
0.0
 11
10954.461646999949
 21
13515.539854000001
 31
0.0
  0
LINE
  5
3737
  8
0-6
  6
CONTINUOUS
 62
     6
 10
9685.7674029999725
 20
14179.07151300001
 30
0.0
 11
10091.88246599995
 21
13515.539854000001
 31
0.0
  0
LINE
  5
3738
  8
0-6
  6
CONTINUOUS
 62
     6
 10
7763.1945439999763
 20
14905.31141700001
 30
0.0
 11
7204.6887169999736
 21
13115.538534999991
 31
0.0
  0
LINE
  5
3739
  8
0-6
  6
CONTINUOUS
 62
     6
 10
8006.073555999973
 20
18518.77419
 30
0.0
 11
8105.116787999973
 21
18297.980667
 31
0.0
  0
LINE
  5
373A
  8
0-6
  6
CONTINUOUS
 62
     6
 10
9233.6691139999712
 20
16562.153622999998
 30
0.0
 11
10113.669047999971
 21
16562.153622999998
 31
0.0
  0
LINE
  5
373B
  8
0-6
  6
CONTINUOUS
 62
     6
 10
9022.4040029999687
 20
16360.096244
 30
0.0
 11
9233.6691139999712
 21
16562.153622999998
 31
0.0
  0
LINE
  5
373C
  8
0-6
  6
CONTINUOUS
 62
     6
 10
6124.6915879999733
 20
13115.538534999991
 30
0.0
 11
7204.6887169999736
 21
13115.538534999991
 31
0.0
  0
LINE
  5
373D
  8
0-6
  6
CONTINUOUS
 62
     6
 10
12252.37160499994
 20
20815.540315999999
 30
0.0
 11
13927.370945999961
 21
20815.540315999999
 31
0.0
  0
LINE
  5
373E
  8
0-6
  6
CONTINUOUS
 62
     6
 10
14117.654148999951
 20
20485.95839
 30
0.0
 11
13927.370945999961
 21
20815.540315999999
 31
0.0
  0
LINE
  5
373F
  8
0-6
  6
CONTINUOUS
 62
     6
 10
14411.35539999994
 20
19995.445563000001
 30
0.0
 11
14191.660429999971
 21
20357.774665000001
 31
0.0
  0
LINE
  5
3740
  8
0-6
  6
CONTINUOUS
 62
     6
 10
11152.087873999961
 20
15701.911264
 30
0.0
 11
10886.89869799997
 21
16070.869773
 31
0.0
  0
LINE
  5
3741
  8
0-6
  6
CONTINUOUS
 62
     6
 10
10640.662422999971
 20
16070.869773
 30
0.0
 11
10886.89869799997
 21
16070.869773
 31
0.0
  0
LINE
  5
3742
  8
0-6
  6
CONTINUOUS
 62
     6
 10
7788.6387809999778
 20
14897.32999800001
 30
0.0
 11
7811.0889959999768
 21
15057.975849
 31
0.0
  0
LINE
  5
3743
  8
0-6
  6
CONTINUOUS
 62
     6
 10
7811.0889959999768
 20
15057.975849
 30
0.0
 11
7737.7517919999682
 21
14913.293825999999
 31
0.0
  0
LINE
  5
3744
  8
0-6
  6
CONTINUOUS
 62
     6
 10
7811.0889959999768
 20
15057.975849
 30
0.0
 11
7788.6387809999778
 21
14897.32999800001
 31
0.0
  0
LINE
  5
3745
  8
0-6
  6
CONTINUOUS
 62
     6
 10
7788.6387809999778
 20
14897.32999800001
 30
0.0
 11
7737.7517919999682
 21
14913.293825999999
 31
0.0
  0
LINE
  5
3746
  8
0-6
  6
CONTINUOUS
 62
     6
 10
7737.7517919999682
 20
14913.293825999999
 30
0.0
 11
7811.0889959999768
 21
15057.975849
 31
0.0
  0
LINE
  5
3747
  8
0-6
  6
CONTINUOUS
 62
     6
 10
7737.7517919999682
 20
14913.293825999999
 30
0.0
 11
7788.6387809999778
 21
14897.32999800001
 31
0.0
  0
LINE
  5
3748
  8
0-6
  6
CONTINUOUS
 62
     6
 10
9708.5120719999704
 20
14192.992478
 30
0.0
 11
9602.2435959999693
 21
14315.539524000011
 31
0.0
  0
LINE
  5
3749
  8
0-6
  6
CONTINUOUS
 62
     6
 10
9602.2435959999693
 20
14315.539524000011
 30
0.0
 11
9663.0227349999714
 21
14165.14955900001
 31
0.0
  0
LINE
  5
374A
  8
0-6
  6
CONTINUOUS
 62
     6
 10
9602.2435959999693
 20
14315.539524000011
 30
0.0
 11
9708.5120719999704
 21
14192.992478
 31
0.0
  0
LINE
  5
374B
  8
0-6
  6
CONTINUOUS
 62
     6
 10
9708.5120719999704
 20
14192.992478
 30
0.0
 11
9663.0227349999714
 21
14165.14955900001
 31
0.0
  0
LINE
  5
374C
  8
0-6
  6
CONTINUOUS
 62
     6
 10
9663.0227349999714
 20
14165.14955900001
 30
0.0
 11
9602.2435959999693
 21
14315.539524000011
 31
0.0
  0
LINE
  5
374D
  8
0-6
  6
CONTINUOUS
 62
     6
 10
9663.0227349999714
 20
14165.14955900001
 30
0.0
 11
9708.5120719999704
 21
14192.992478
 31
0.0
  0
LINE
  5
374E
  8
0-6
  6
CONTINUOUS
 62
     6
 10
9077.3217869999717
 20
14713.74245099998
 30
0.0
 11
9033.5952119999747
 21
14557.53963000001
 31
0.0
  0
LINE
  5
374F
  8
0-6
  6
CONTINUOUS
 62
     6
 10
9033.5952119999747
 20
14557.53963000001
 30
0.0
 11
9125.6170919999749
 21
14691.117544000001
 31
0.0
  0
LINE
  5
3750
  8
0-6
  6
CONTINUOUS
 62
     6
 10
9033.5952119999747
 20
14557.53963000001
 30
0.0
 11
9077.3217869999717
 21
14713.74245099998
 31
0.0
  0
LINE
  5
3751
  8
0-6
  6
CONTINUOUS
 62
     6
 10
9077.3217869999717
 20
14713.74245099998
 30
0.0
 11
9125.6170919999749
 21
14691.117544000001
 31
0.0
  0
LINE
  5
3752
  8
0-6
  6
CONTINUOUS
 62
     6
 10
9125.6170919999749
 20
14691.117544000001
 30
0.0
 11
9033.5952119999747
 21
14557.53963000001
 31
0.0
  0
LINE
  5
3753
  8
0-6
  6
CONTINUOUS
 62
     6
 10
9125.6170919999749
 20
14691.117544000001
 30
0.0
 11
9077.3217869999717
 21
14713.74245099998
 31
0.0
  0
LINE
  5
3754
  8
0-6
  6
CONTINUOUS
 62
     6
 10
9003.9707259999741
 20
16379.364877000011
 30
0.0
 11
8906.7733949999711
 21
16249.50449900001
 31
0.0
  0
LINE
  5
3755
  8
0-6
  6
CONTINUOUS
 62
     6
 10
8906.7733949999711
 20
16249.50449900001
 30
0.0
 11
9040.8343109999714
 21
16340.821671
 31
0.0
  0
LINE
  5
3756
  8
0-6
  6
CONTINUOUS
 62
     6
 10
8906.7733949999711
 20
16249.50449900001
 30
0.0
 11
9003.9707259999741
 21
16379.364877000011
 31
0.0
  0
LINE
  5
3757
  8
0-6
  6
CONTINUOUS
 62
     6
 10
9003.9707259999741
 20
16379.364877000011
 30
0.0
 11
9040.8343109999714
 21
16340.821671
 31
0.0
  0
LINE
  5
3758
  8
0-6
  6
CONTINUOUS
 62
     6
 10
9040.8343109999714
 20
16340.821671
 30
0.0
 11
8906.7733949999711
 21
16249.50449900001
 31
0.0
  0
LINE
  5
3759
  8
0-6
  6
CONTINUOUS
 62
     6
 10
9040.8343109999714
 20
16340.821671
 30
0.0
 11
9003.9707259999741
 21
16379.364877000011
 31
0.0
  0
LINE
  5
375A
  8
0-6
  6
CONTINUOUS
 62
     6
 10
8030.4057979999798
 20
18529.685296
 30
0.0
 11
7940.5891019999726
 21
18664.755766999991
 31
0.0
  0
LINE
  5
375B
  8
0-6
  6
CONTINUOUS
 62
     6
 10
7940.5891019999726
 20
18664.755766999991
 30
0.0
 11
7981.7432929999759
 21
18507.857145000002
 31
0.0
  0
LINE
  5
375C
  8
0-6
  6
CONTINUOUS
 62
     6
 10
7940.5891019999726
 20
18664.755766999991
 30
0.0
 11
8030.4057979999798
 21
18529.685296
 31
0.0
  0
LINE
  5
375D
  8
0-6
  6
CONTINUOUS
 62
     6
 10
8030.4057979999798
 20
18529.685296
 30
0.0
 11
7981.7432929999759
 21
18507.857145000002
 31
0.0
  0
LINE
  5
375E
  8
0-6
  6
CONTINUOUS
 62
     6
 10
7981.7432929999759
 20
18507.857145000002
 30
0.0
 11
7940.5891019999726
 21
18664.755766999991
 31
0.0
  0
LINE
  5
375F
  8
0-6
  6
CONTINUOUS
 62
     6
 10
7981.7432929999759
 20
18507.857145000002
 30
0.0
 11
8030.4057979999798
 21
18529.685296
 31
0.0
  0
LINE
  5
3760
  8
0-6
  6
CONTINUOUS
 62
     6
 10
9809.47939699997
 20
17270.704484000002
 30
0.0
 11
9827.84536999997
 21
17109.538019000011
 31
0.0
  0
LINE
  5
3761
  8
0-6
  6
CONTINUOUS
 62
     6
 10
9827.84536999997
 20
17109.538019000011
 30
0.0
 11
9758.2039269999768
 21
17256.034271000011
 31
0.0
  0
LINE
  5
3762
  8
0-6
  6
CONTINUOUS
 62
     6
 10
9827.84536999997
 20
17109.538019000011
 30
0.0
 11
9809.47939699997
 21
17270.704484000002
 31
0.0
  0
LINE
  5
3763
  8
0-6
  6
CONTINUOUS
 62
     6
 10
9809.47939699997
 20
17270.704484000002
 30
0.0
 11
9758.2039269999768
 21
17256.034271000011
 31
0.0
  0
LINE
  5
3764
  8
0-6
  6
CONTINUOUS
 62
     6
 10
9758.2039269999768
 20
17256.034271000011
 30
0.0
 11
9827.84536999997
 21
17109.538019000011
 31
0.0
  0
LINE
  5
3765
  8
0-6
  6
CONTINUOUS
 62
     6
 10
9758.2039269999768
 20
17256.034271000011
 30
0.0
 11
9809.47939699997
 21
17270.704484000002
 31
0.0
  0
LINE
  5
3766
  8
0-6
  6
CONTINUOUS
 62
     6
 10
11079.709746999961
 20
15847.073321000011
 30
0.0
 11
11152.087873999961
 21
15701.911264
 31
0.0
  0
LINE
  5
3767
  8
0-6
  6
CONTINUOUS
 62
     6
 10
11152.087873999961
 20
15701.911264
 30
0.0
 11
11036.54238499997
 21
15815.75436700001
 31
0.0
  0
LINE
  5
3768
  8
0-6
  6
CONTINUOUS
 62
     6
 10
11152.087873999961
 20
15701.911264
 30
0.0
 11
11079.709746999961
 21
15847.073321000011
 31
0.0
  0
LINE
  5
3769
  8
0-6
  6
CONTINUOUS
 62
     6
 10
11079.709746999961
 20
15847.073321000011
 30
0.0
 11
11036.54238499997
 21
15815.75436700001
 31
0.0
  0
LINE
  5
376A
  8
0-6
  6
CONTINUOUS
 62
     6
 10
11036.54238499997
 20
15815.75436700001
 30
0.0
 11
11152.087873999961
 21
15701.911264
 31
0.0
  0
LINE
  5
376B
  8
0-6
  6
CONTINUOUS
 62
     6
 10
11036.54238499997
 20
15815.75436700001
 30
0.0
 11
11079.709746999961
 21
15847.073321000011
 31
0.0
  0
LINE
  5
376C
  8
0-6
  6
CONTINUOUS
 62
     6
 10
9017.1335349999717
 20
19811.215727999999
 30
0.0
 11
9123.8295869999747
 21
19689.039840999991
 31
0.0
  0
LINE
  5
376D
  8
0-6
  6
CONTINUOUS
 62
     6
 10
9123.8295869999747
 20
19689.039840999991
 30
0.0
 11
9062.5258759999724
 21
19839.216017999999
 31
0.0
  0
LINE
  5
376E
  8
0-6
  6
CONTINUOUS
 62
     6
 10
9123.8295869999747
 20
19689.039840999991
 30
0.0
 11
9017.1335349999717
 21
19811.215727999999
 31
0.0
  0
LINE
  5
376F
  8
0-6
  6
CONTINUOUS
 62
     6
 10
9017.1335349999717
 20
19811.215727999999
 30
0.0
 11
9062.5258759999724
 21
19839.216017999999
 31
0.0
  0
LINE
  5
3770
  8
0-6
  6
CONTINUOUS
 62
     6
 10
9062.5258759999724
 20
19839.216017999999
 30
0.0
 11
9123.8295869999747
 21
19689.039840999991
 31
0.0
  0
LINE
  5
3771
  8
0-6
  6
CONTINUOUS
 62
     6
 10
9062.5258759999724
 20
19839.216017999999
 30
0.0
 11
9017.1335349999717
 21
19811.215727999999
 31
0.0
  0
LINE
  5
3772
  8
0-6
  6
CONTINUOUS
 62
     6
 10
9511.0867659999749
 20
19589.662069999991
 30
0.0
 11
9498.5880849999758
 21
19427.937380999982
 31
0.0
  0
LINE
  5
3773
  8
0-6
  6
CONTINUOUS
 62
     6
 10
9498.5880849999758
 20
19427.937380999982
 30
0.0
 11
9562.8640439999708
 21
19576.866462000002
 31
0.0
  0
LINE
  5
3774
  8
0-6
  6
CONTINUOUS
 62
     6
 10
9498.5880849999758
 20
19427.937380999982
 30
0.0
 11
9511.0867659999749
 21
19589.662069999991
 31
0.0
  0
LINE
  5
3775
  8
0-6
  6
CONTINUOUS
 62
     6
 10
9511.0867659999749
 20
19589.662069999991
 30
0.0
 11
9562.8640439999708
 21
19576.866462000002
 31
0.0
  0
LINE
  5
3776
  8
0-6
  6
CONTINUOUS
 62
     6
 10
9562.8640439999708
 20
19576.866462000002
 30
0.0
 11
9498.5880849999758
 21
19427.937380999982
 31
0.0
  0
LINE
  5
3777
  8
0-6
  6
CONTINUOUS
 62
     6
 10
9562.8640439999708
 20
19576.866462000002
 30
0.0
 11
9511.0867659999749
 21
19589.662069999991
 31
0.0
  0
LINE
  5
3778
  8
0-6
  6
CONTINUOUS
 62
     6
 10
9048.9127269999699
 20
19972.942395999999
 30
0.0
 11
9145.5627209999748
 21
19855.539128
 31
0.0
  0
LINE
  5
3779
  8
0-6
  6
CONTINUOUS
 62
     6
 10
9145.5627209999748
 20
19855.539128
 30
0.0
 11
9092.2156849999701
 21
19997.943716000002
 31
0.0
  0
LINE
  5
377A
  8
0-6
  6
CONTINUOUS
 62
     6
 10
9145.5627209999748
 20
19855.539128
 30
0.0
 11
9048.9127269999699
 21
19972.942395999999
 31
0.0
  0
LINE
  5
377B
  8
0-6
  6
CONTINUOUS
 62
     6
 10
9048.9127269999699
 20
19972.942395999999
 30
0.0
 11
9092.2156849999701
 21
19997.943716000002
 31
0.0
  0
LINE
  5
377C
  8
0-6
  6
CONTINUOUS
 62
     6
 10
9092.2156849999701
 20
19997.943716000002
 30
0.0
 11
9145.5627209999748
 21
19855.539128
 31
0.0
  0
LINE
  5
377D
  8
0-6
  6
CONTINUOUS
 62
     6
 10
9092.2156849999701
 20
19997.943716000002
 30
0.0
 11
9048.9127269999699
 21
19972.942395999999
 31
0.0
  0
LINE
  5
377E
  8
0-6
  6
CONTINUOUS
 62
     6
 10
14389.703425999949
 20
19982.944902999981
 30
0.0
 11
14486.35539999996
 21
19865.539656000001
 31
0.0
  0
LINE
  5
377F
  8
0-6
  6
CONTINUOUS
 62
     6
 10
14486.35539999996
 20
19865.539656000001
 30
0.0
 11
14433.006384999961
 21
20007.944243000002
 31
0.0
  0
LINE
  5
3780
  8
0-6
  6
CONTINUOUS
 62
     6
 10
14486.35539999996
 20
19865.539656000001
 30
0.0
 11
14389.703425999949
 21
19982.944902999981
 31
0.0
  0
LINE
  5
3781
  8
0-6
  6
CONTINUOUS
 62
     6
 10
14389.703425999949
 20
19982.944902999981
 30
0.0
 11
14433.006384999961
 21
20007.944243000002
 31
0.0
  0
LINE
  5
3782
  8
0-6
  6
CONTINUOUS
 62
     6
 10
14433.006384999961
 20
20007.944243000002
 30
0.0
 11
14486.35539999996
 21
19865.539656000001
 31
0.0
  0
LINE
  5
3783
  8
0-6
  6
CONTINUOUS
 62
     6
 10
14433.006384999961
 20
20007.944243000002
 30
0.0
 11
14389.703425999949
 21
19982.944902999981
 31
0.0
  0
LINE
  5
3784
  8
2-0
  6
DASHED3
 62
     6
 10
7940.5891019999726
 20
19604.039313000001
 30
0.0
 11
14477.589101999971
 21
19604.039313000001
 31
0.0
  0
LINE
  5
3785
  8
2-0
  6
DASHED3
 62
     6
 10
7898.0888379999751
 20
19443.648819999991
 30
0.0
 11
7898.0888379999751
 21
19689.039840999991
 31
0.0
  0
LINE
  5
3786
  8
2-0
  6
DASHED3
 62
     6
 10
7940.5891019999726
 20
19422.105718999999
 30
0.0
 11
7940.5891019999726
 21
19689.039840999991
 31
0.0
  0
LINE
  5
3787
  8
2-0
  6
DASHED3
 62
     6
 10
7898.0888379999751
 20
19689.039840999991
 30
0.0
 11
14520.08936599996
 21
19689.039840999991
 31
0.0
  0
LINE
  5
3788
  8
2-0
  6
DASHED3
 62
     6
 10
14407.58837699996
 20
17075.53978799998
 30
0.0
 11
11279.087847999959
 21
19643.039787999991
 31
0.0
  0
LINE
  5
3789
  8
2-0
  6
DASHED3
 62
     6
 10
12821.695005999951
 20
17030.54137100001
 30
0.0
 11
14477.589101999971
 21
17030.54137100001
 31
0.0
  0
LINE
  5
378A
  8
2-0
  6
DASHED3
 62
     6
 10
12665.838599999959
 20
17109.538019000011
 30
0.0
 11
14477.589101999971
 21
17109.538019000011
 31
0.0
  0
LINE
  5
378B
  8
2-0
  6
DASHED3
 62
     6
 10
14477.589101999971
 20
16196.542479999989
 30
0.0
 11
14477.589101999971
 21
19689.039840999991
 31
0.0
  0
LINE
  5
378C
  8
2-0
  6
DASHED3
 62
     6
 10
14520.08936599996
 20
16174.999379000001
 30
0.0
 11
14520.08936599996
 21
19689.039840999991
 31
0.0
  0
LINE
  5
378D
  8
2-0
  6
DASHED3
 62
     6
 10
13853.503229999949
 20
16507.54860300001
 30
0.0
 11
14407.58837699996
 21
17075.53978799998
 31
0.0
  0
LINE
  5
378E
  8
2-0
  6
DASHED3
 62
     6
 10
9755.1683349999712
 20
18507.675029000002
 30
0.0
 11
11139.089365999949
 21
19643.039787999991
 31
0.0
  0
LINE
  5
378F
  8
2-0
  6
DASHED3
 62
     6
 10
8010.5888379999733
 20
19643.039787999991
 30
0.0
 11
8838.9234159999687
 21
18972.087904
 31
0.0
  0
LINE
  5
3790
  8
2-0
  6
DASHED3
 62
     6
 10
11834.289362999971
 20
17540.527779000011
 30
0.0
 11
14407.58837699996
 21
19643.039787999991
 31
0.0
  0
LINE
  5
3791
  8
2-0
  6
CENTER2
 62
     6
 10
14477.589101999971
 20
20885.542032000008
 30
0.0
 11
14477.589101999971
 21
19935.539391999991
 31
0.0
  0
LINE
  5
3792
  8
2-0
  6
CENTER2
 62
     6
 10
11209.089101999971
 20
20885.538073000022
 30
0.0
 11
11209.089101999971
 21
19935.539391999991
 31
0.0
  0
LINE
  5
3793
  8
2-0
  6
CENTER2
 62
     6
 10
6611.0878369999746
 20
19643.039787999991
 30
0.0
 11
8257.5877219999747
 21
19643.039787999991
 31
0.0
  0
LINE
  5
3794
  8
2-0
  6
CENTER2
 62
     6
 10
7940.5891019999726
 20
20885.538073000022
 30
0.0
 11
7940.5891019999726
 21
19935.539391999991
 31
0.0
  0
LINE
  5
3795
  8
2-0
  6
CENTER2
 62
     6
 10
6611.0878369999746
 20
17075.53978799998
 30
0.0
 11
8257.5877219999747
 21
17075.53978799998
 31
0.0
  0
LINE
  5
3796
  8
2-0
  6
CENTER2
 62
     6
 10
6611.0878369999746
 20
14508.039787999989
 30
0.0
 11
8257.5877219999747
 21
14508.039787999989
 31
0.0
  0
LINE
  5
3797
  8
2-0
  6
DASHED3
 62
     6
 10
11152.087873999961
 20
17900.940707000002
 30
0.0
 11
11152.087873999961
 21
19604.039313000001
 31
0.0
  0
LINE
  5
3798
  8
2-0
  6
DASHED3
 62
     6
 10
11209.089101999971
 20
17812.196908999991
 30
0.0
 11
11209.089101999971
 21
19604.039313000001
 31
0.0
  0
LINE
  5
3799
  8
2-0
  6
DASHED3
 62
     6
 10
11266.089338999949
 20
17723.455090999982
 30
0.0
 11
11266.089338999949
 21
19604.039313000001
 31
0.0
  0
CIRCLE
  5
379A
  8
0-1
  6
CONTINUOUS
 62
     4
 10
11209.089101999971
 20
21085.536753000011
 30
0.0
 40
199.9999949999999
  0
CIRCLE
  5
379B
  8
0-1
  6
CONTINUOUS
 62
     4
 10
7940.5891019999726
 20
21085.536753000011
 30
0.0
 40
199.9999949999999
  0
CIRCLE
  5
379C
  8
0-1
  6
CONTINUOUS
 62
     4
 10
6411.0886609999852
 20
19643.039787999991
 30
0.0
 40
199.9999949999999
  0
CIRCLE
  5
379D
  8
0-1
  6
CONTINUOUS
 62
     4
 10
6411.0886609999852
 20
17075.53978799998
 30
0.0
 40
199.9999949999999
  0
CIRCLE
  5
379E
  8
0-1
  6
CONTINUOUS
 62
     4
 10
6411.0886609999852
 20
14508.039787999989
 30
0.0
 40
199.9999949999999
  0
CIRCLE
  5
379F
  8
0-1
  6
CONTINUOUS
 62
     4
 10
14477.589101999971
 20
21085.538733000001
 30
0.0
 40
199.9999949999999
  0
ARC
  5
37A0
  8
0-2
  6
CONTINUOUS
 62
     3
 10
7860.0889699999743
 20
19860.539391999991
 30
0.0
 40
5.0
 50
90.0
 51
180.0
  0
ARC
  5
37A1
  8
0-2
  6
CONTINUOUS
 62
     3
 10
7923.5879669999777
 20
19860.539391999991
 30
0.0
 40
5.0
 50
0.0
 51
90.0
  0
ARC
  5
37A2
  8
0-2
  6
CONTINUOUS
 62
     3
 10
7923.5879669999777
 20
19830.541767999981
 30
0.0
 40
5.0
 50
269.9999850001808
 51
0.0
  0
ARC
  5
37A3
  8
0-2
  6
CONTINUOUS
 62
     3
 10
14494.58924799998
 20
19830.541767999981
 30
0.0
 40
5.0
 50
180.0
 51
269.9999850001808
  0
ARC
  5
37A4
  8
0-2
  6
CONTINUOUS
 62
     3
 10
14494.58924799998
 20
19860.539391999991
 30
0.0
 40
5.0
 50
90.0
 51
180.0
  0
ARC
  5
37A5
  8
0-2
  6
CONTINUOUS
 62
     3
 10
14558.088244999961
 20
19860.539391999991
 30
0.0
 40
5.0
 50
0.0
 51
90.0
  0
CIRCLE
  5
37A6
  8
2-0
  6
CONTINUOUS
 62
     4
 10
14942.151010999991
 20
1285.2097329999999
 30
0.0
 40
20.000004000000001
  0
ARC
  5
37A7
  8
2-0
  6
CONTINUOUS
 62
     4
 10
14942.151010999991
 20
1285.2097329999999
 30
0.0
 40
20.000004000000001
 50
180.0
 51
0.0
  0
ARC
  5
37A8
  8
2-0
  6
CONTINUOUS
 62
     4
 10
14942.151010999991
 20
1285.2097329999999
 30
0.0
 40
20.000004000000001
 50
0.0
 51
179.99998500000001
  0
CIRCLE
  5
37A9
  8
2-0
  6
CONTINUOUS
 62
     4
 10
14942.151010999991
 20
1685.2089500000011
 30
0.0
 40
20.000004000000001
  0
ARC
  5
37AA
  8
2-0
  6
CONTINUOUS
 62
     4
 10
14942.151010999991
 20
1685.2089500000011
 30
0.0
 40
20.000004000000001
 50
180.0
 51
0.0
  0
ARC
  5
37AB
  8
2-0
  6
CONTINUOUS
 62
     4
 10
14942.151010999991
 20
1685.2089500000011
 30
0.0
 40
20.000004000000001
 50
0.0
 51
179.99998500000001
  0
TEXT
  5
37AC
  8
0-1
  6
CONTINUOUS
 62
     7
 10
14425.897933999961
 20
20991.262180999998
 30
0.0
 40
160.0
  1
3
 72
     4
 11
14479.2312673333
 21
21071.262180999998
 31
0.0
  0
TEXT
  5
37AD
  8
0-1
  6
CONTINUOUS
 62
     7
 10
11155.983566999959
 20
20995.939783000031
 30
0.0
 40
160.0
  1
2
 72
     4
 11
11209.316900333301
 21
21075.939783000031
 31
0.0
  0
TEXT
  5
37AE
  8
0-1
  6
CONTINUOUS
 62
     7
 10
7892.7179089999736
 20
20996.80285400002
 30
0.0
 40
160.0
  1
1
 72
     4
 11
7919.3845756666424
 21
21076.80285400002
 31
0.0
  0
TEXT
  5
37AF
  8
0-1
  6
CONTINUOUS
 62
     7
 10
6364.0008629999847
 20
19559.127995999999
 30
0.0
 40
160.0
  1
C
 72
     4
 11
6417.3341963333169
 21
19639.127995999999
 31
0.0
  0
TEXT
  5
37B0
  8
0-1
  6
CONTINUOUS
 62
     7
 10
6364.0008629999847
 20
16991.629975000011
 30
0.0
 40
160.0
  1
B
 72
     4
 11
6417.3341963333169
 21
17071.629975000011
 31
0.0
  0
TEXT
  5
37B1
  8
0-1
  6
CONTINUOUS
 62
     7
 10
6364.0008629999847
 20
14424.127006000001
 30
0.0
 40
160.0
  1
A
 72
     4
 11
6417.3341963333169
 21
14504.127006000001
 31
0.0
  0
TEXT
  5
37B2
  8
0-6
  6
CONTINUOUS
 62
     7
 10
9760.8772669999726
 20
20175.54216400001
 30
0.0
 40
160.0
  1
屋根
 72
     4
 11
9931.5439336666386
 21
20255.54216400001
 31
0.0
  0
TEXT
  5
37B3
  8
0-6
  6
CONTINUOUS
 62
     7
 10
8671.3076799999708
 20
20895.540580000001
 30
0.0
 40
160.0
  1
鼻隠し後
 72
     4
 11
9033.9743466666368
 21
20975.540580000001
 31
0.0
  0
TEXT
  5
37B4
  8
0-6
  6
CONTINUOUS
 62
     7
 10
8109.902353999968
 20
20175.54216400001
 30
0.0
 40
160.0
  1
桁（後）
 72
     4
 11
8429.9023539999689
 21
20255.54216400001
 31
0.0
  0
TEXT
  5
37B5
  8
0-6
  6
CONTINUOUS
 62
     7
 10
9002.6949269999714
 20
17514.635676000002
 30
0.0
 40
160.0
  1
桁（中）
 72
     4
 11
9322.6949269999714
 21
17594.635676000002
 31
0.0
  0
TEXT
  5
37B6
  8
0-6
  6
CONTINUOUS
 62
     7
 10
9264.3556109999718
 20
14968.86683100001
 30
0.0
 40
160.0
  1
桁（前）
 72
     4
 11
9584.3556109999718
 21
15048.86683100001
 31
0.0
  0
TEXT
  5
37B7
  8
0-6
  6
CONTINUOUS
 62
     7
 10
10171.881739999961
 20
13595.539128
 30
0.0
 40
160.0
  1
鼻隠し前
 72
     4
 11
10534.54840666663
 21
13675.539128
 31
0.0
  0
TEXT
  5
37B8
  8
0-6
  6
CONTINUOUS
 62
     7
 10
6204.6893769999724
 20
13195.538799000011
 30
0.0
 40
160.0
  1
ケラバ 左
 72
     4
 11
6620.6893769999733
 21
13275.538799000011
 31
0.0
  0
TEXT
  5
37B9
  8
0-6
  6
CONTINUOUS
 62
     7
 10
8185.1165569999703
 20
18377.980930999991
 30
0.0
 40
160.0
  1
上枠
 72
     4
 11
8355.7832236666363
 21
18457.980930999991
 31
0.0
  0
TEXT
  5
37BA
  8
0-6
  6
CONTINUOUS
 62
     7
 10
9313.6693779999714
 20
16642.153887000011
 30
0.0
 40
160.0
  1
ブレース
 72
     4
 11
9676.3360446666393
 21
16727.48722033334
 31
0.0
  0
TEXT
  5
37BB
  8
0-6
  6
CONTINUOUS
 62
     7
 10
12332.37285899997
 20
20895.540580000001
 30
0.0
 40
160.0
  1
鼻隠しコーナー後
 72
     4
 11
13079.03952566664
 21
20975.540580000001
 31
0.0
  0
TEXT
  5
37BC
  8
0-6
  6
CONTINUOUS
 62
     7
 10
10656.90140399996
 20
16150.87102700001
 30
0.0
 40
160.0
  1
梁
 72
     4
 11
10731.568070666621
 21
16230.87102700001
 31
0.0
  0
TEXT
  5
37BD
  8
2-0
  6
CONTINUOUS
 62
     7
 10
10090.226598999951
 20
12250.713374376221
 30
0.0
 40
160.0
  1
小 屋 伏 図
 72
     4
 11
10591.55993233329
 21
12330.713374376221
 31
0.0
  0
TEXT
  5
37BE
  8
2-0
  6
CONTINUOUS
 62
     7
 10
16478.398965
 20
1565.2095440000001
 30
0.0
 40
160.0
  1
H
  0
TEXT
  5
37BF
  8
2-0
  6
CONTINUOUS
 62
     7
 10
14989.583244999991
 20
1565.2095440000001
 30
0.0
 40
160.0
  1
（ ）内寸法ハ、  タ  イプヲ示ス。
  0
TEXT
  5
37C0
  8
2-0
  6
CONTINUOUS
 62
     7
 10
15102.14955899999
 20
1165.207543
 30
0.0
 40
160.0
  1
有効高サハ、基礎高サヲ含ミマセン。
  0
TEXT
  5
37C9
  8
2-0
  6
CONTINUOUS
 62
     7
 10
11943.052117470919
 20
12277.90874337622
 30
0.0
 40
160.0
  1
1
 72
     4
 11
11969.718784137591
 21
12357.90874337622
 31
0.0
  0
TEXT
  5
37CA
  8
2-0
  6
CONTINUOUS
 62
     7
 10
12186.14083472162
 20
12197.91021137622
 30
0.0
 40
160.0
  1
80
 72
     4
 11
12306.14083472162
 21
12277.91021137622
 31
0.0
  0
TEXT
  5
37CB
  8
2-0
  6
CONTINUOUS
 62
     7
 10
11444.054083470921
 20
12250.713374376221
 30
0.0
 40
160.0
  1
(S=  /   )
 72
     4
 11
12004.054083470921
 21
12330.713374376221
 31
0.0
  0
LINE
  5
37CC
  8
0-4
  6
CONTINUOUS
 62
     4
 10
14264.29067299999
 20
6267.088643000001
 30
0.0
 11
18816.546927999989
 21
6267.088643000001
 31
0.0
  0
LINE
  5
37CD
  8
0-1
  6
CONTINUOUS
 62
     3
 10
8971.7892219999976
 20
8278.1340270000055
 30
0.0
 11
14151.791596999999
 21
8278.1340270000055
 31
0.0
  0
LINE
  5
37CE
  8
0-1
  6
CONTINUOUS
 62
     3
 10
8261.7893540000005
 20
6267.088643000001
 30
0.0
 11
14184.29040899999
 21
6267.088643000001
 31
0.0
  0
LINE
  5
37CF
  8
0-1
  6
CONTINUOUS
 62
     3
 10
8944.2904090000011
 20
6367.0884780000006
 30
0.0
 11
14184.29040899999
 21
6367.0884780000006
 31
0.0
  0
LINE
  5
37D0
  8
0-1
  6
CONTINUOUS
 62
     3
 10
8951.7911349999977
 20
8400.1159209999969
 30
0.0
 11
8951.7911349999977
 21
6367.0884780000006
 31
0.0
  0
LINE
  5
37D1
  8
0-1
  6
CONTINUOUS
 62
     3
 10
8971.7892219999976
 20
8400.8166700000038
 30
0.0
 11
8971.7892219999976
 21
6367.0884780000006
 31
0.0
  0
LINE
  5
37D2
  8
0-1
  6
CONTINUOUS
 62
     3
 10
8944.2904090000011
 20
6267.088643000001
 30
0.0
 11
8944.2904090000011
 21
6367.0884780000006
 31
0.0
  0
LINE
  5
37D3
  8
0-1
  6
CONTINUOUS
 62
     3
 10
14247.070775
 20
8585.0128540000005
 30
0.0
 11
14242.518872000001
 21
8714.9336070000008
 31
0.0
  0
LINE
  5
37D4
  8
0-1
  6
CONTINUOUS
 62
     3
 10
11634.290277
 20
6417.088643000001
 30
0.0
 11
14056.790541
 21
6417.088643000001
 31
0.0
  0
LINE
  5
37D5
  8
0-1
  6
CONTINUOUS
 62
     3
 10
11147.789934
 20
6417.088643000001
 30
0.0
 11
11147.789934
 21
8278.1340270000055
 31
0.0
  0
LINE
  5
37D6
  8
0-1
  6
CONTINUOUS
 62
     3
 10
11167.79098999999
 20
6417.088643000001
 30
0.0
 11
11167.79098999999
 21
8278.1340270000055
 31
0.0
  0
LINE
  5
37D7
  8
0-1
  6
CONTINUOUS
 62
     3
 10
11097.791252999999
 20
6417.088643000001
 30
0.0
 11
11097.791252999999
 21
8278.1340270000055
 31
0.0
  0
LINE
  5
37D8
  8
0-1
  6
CONTINUOUS
 62
     3
 10
11217.78967
 20
6417.088643000001
 30
0.0
 11
11217.78967
 21
8278.1340270000055
 31
0.0
  0
LINE
  5
37D9
  8
0-1
  6
CONTINUOUS
 62
     3
 10
11350.788574
 20
6417.088643000001
 30
0.0
 11
11350.788574
 21
8278.1340270000055
 31
0.0
  0
LINE
  5
37DA
  8
0-1
  6
CONTINUOUS
 62
     3
 10
11365.790356
 20
6417.088643000001
 30
0.0
 11
11365.790356
 21
8278.1340270000055
 31
0.0
  0
LINE
  5
37DB
  8
0-1
  6
CONTINUOUS
 62
     3
 10
10964.789378999991
 20
6417.088643000001
 30
0.0
 11
10964.789378999991
 21
8278.1340270000055
 31
0.0
  0
LINE
  5
37DC
  8
0-1
  6
CONTINUOUS
 62
     3
 10
10949.79056699998
 20
6417.088643000001
 30
0.0
 11
10949.79056699998
 21
8278.1340270000055
 31
0.0
  0
LINE
  5
37DD
  8
0-1
  6
CONTINUOUS
 62
     3
 10
9066.7882980000031
 20
8278.1340270000055
 30
0.0
 11
9066.7882980000031
 21
6367.0884780000006
 31
0.0
  0
LINE
  5
37DE
  8
0-1
  6
CONTINUOUS
 62
     3
 10
11634.290277
 20
8278.1340270000055
 30
0.0
 11
11634.290277
 21
6367.0884780000006
 31
0.0
  0
LINE
  5
37DF
  8
0-1
  6
CONTINUOUS
 62
     3
 10
11489.290541
 20
8278.1340270000055
 30
0.0
 11
11489.290541
 21
6367.0884780000006
 31
0.0
  0
LINE
  5
37E0
  8
0-1
  6
CONTINUOUS
 62
     3
 10
9747.7902640000011
 20
6417.088643000001
 30
0.0
 11
9747.7902640000011
 21
8278.1340270000055
 31
0.0
  0
LINE
  5
37E1
  8
0-1
  6
CONTINUOUS
 62
     3
 10
9767.7903299999907
 20
6417.088643000001
 30
0.0
 11
9767.7903299999907
 21
8278.1340270000055
 31
0.0
  0
LINE
  5
37E2
  8
0-1
  6
CONTINUOUS
 62
     3
 10
9697.7905939999964
 20
6417.088643000001
 30
0.0
 11
9697.7905939999964
 21
8278.1340270000055
 31
0.0
  0
LINE
  5
37E3
  8
0-1
  6
CONTINUOUS
 62
     3
 10
9817.7900000000027
 20
6417.088643000001
 30
0.0
 11
9817.7900000000027
 21
8278.1340270000055
 31
0.0
  0
LINE
  5
37E4
  8
0-1
  6
CONTINUOUS
 62
     3
 10
9950.7908840000055
 20
6417.088643000001
 30
0.0
 11
9950.7908840000055
 21
8278.1340270000055
 31
0.0
  0
LINE
  5
37E5
  8
0-1
  6
CONTINUOUS
 62
     3
 10
9965.7896960000016
 20
6417.088643000001
 30
0.0
 11
9965.7896960000016
 21
8278.1340270000055
 31
0.0
  0
LINE
  5
37E6
  8
0-1
  6
CONTINUOUS
 62
     3
 10
9564.7897090000024
 20
6417.088643000001
 30
0.0
 11
9564.7897090000024
 21
8278.1340270000055
 31
0.0
  0
LINE
  5
37E7
  8
0-1
  6
CONTINUOUS
 62
     3
 10
9549.7889180000002
 20
6417.088643000001
 30
0.0
 11
9549.7889180000002
 21
8278.1340270000055
 31
0.0
  0
LINE
  5
37E8
  8
0-1
  6
CONTINUOUS
 62
     3
 10
10249.790236999999
 20
6417.088643000001
 30
0.0
 11
10249.790236999999
 21
8278.1340270000055
 31
0.0
  0
LINE
  5
37E9
  8
0-1
  6
CONTINUOUS
 62
     3
 10
10264.789049999999
 20
6417.088643000001
 30
0.0
 11
10264.789049999999
 21
8278.1340270000055
 31
0.0
  0
LINE
  5
37EA
  8
0-1
  6
CONTINUOUS
 62
     3
 10
10665.79101599999
 20
6417.088643000001
 30
0.0
 11
10665.79101599999
 21
8278.1340270000055
 31
0.0
  0
LINE
  5
37EB
  8
0-1
  6
CONTINUOUS
 62
     3
 10
10650.79022399998
 20
6417.088643000001
 30
0.0
 11
10650.79022399998
 21
8278.1340270000055
 31
0.0
  0
LINE
  5
37EC
  8
0-1
  6
CONTINUOUS
 62
     3
 10
10517.789339999979
 20
6417.088643000001
 30
0.0
 11
10517.789339999979
 21
8278.1340270000055
 31
0.0
  0
LINE
  5
37ED
  8
0-1
  6
CONTINUOUS
 62
     3
 10
10397.789934
 20
6417.088643000001
 30
0.0
 11
10397.789934
 21
8278.1340270000055
 31
0.0
  0
LINE
  5
37EE
  8
0-1
  6
CONTINUOUS
 62
     3
 10
10467.78967
 20
6417.088643000001
 30
0.0
 11
10467.78967
 21
8278.1340270000055
 31
0.0
  0
LINE
  5
37EF
  8
0-1
  6
CONTINUOUS
 62
     3
 10
10447.79059399998
 20
6417.088643000001
 30
0.0
 11
10447.79059399998
 21
8278.1340270000055
 31
0.0
  0
LINE
  5
37F0
  8
0-1
  6
CONTINUOUS
 62
     3
 10
10789.29021099999
 20
8278.1340270000055
 30
0.0
 11
10789.29021099999
 21
6417.088643000001
 31
0.0
  0
LINE
  5
37F1
  8
0-1
  6
CONTINUOUS
 62
     3
 10
10826.29038199999
 20
8278.1340270000055
 30
0.0
 11
10826.29038199999
 21
6417.088643000001
 31
0.0
  0
LINE
  5
37F2
  8
0-1
  6
CONTINUOUS
 62
     3
 10
9389.2895510000017
 20
8278.1340270000055
 30
0.0
 11
9389.2895510000017
 21
6417.088643000001
 31
0.0
  0
LINE
  5
37F3
  8
0-1
  6
CONTINUOUS
 62
     3
 10
9426.2907120000018
 20
8278.1340270000055
 30
0.0
 11
9426.2907120000018
 21
6417.088643000001
 31
0.0
  0
LINE
  5
37F4
  8
0-1
  6
CONTINUOUS
 62
     3
 10
10089.288891
 20
8278.1340270000055
 30
0.0
 11
10089.288891
 21
6417.088643000001
 31
0.0
  0
LINE
  5
37F5
  8
0-1
  6
CONTINUOUS
 62
     3
 10
10126.291042000001
 20
8278.1340270000055
 30
0.0
 11
10126.291042000001
 21
6417.088643000001
 31
0.0
  0
LINE
  5
37F6
  8
0-1
  6
CONTINUOUS
 62
     3
 10
9066.7882980000031
 20
6417.088643000001
 30
0.0
 11
11489.290541
 21
6417.088643000001
 31
0.0
  0
LINE
  5
37F7
  8
0-1
  6
CONTINUOUS
 62
     3
 10
11561.79040899999
 20
8491.2470170000033
 30
0.0
 11
11557.236525999981
 21
8621.1657910000013
 31
0.0
  0
LINE
  5
37F8
  8
0-1
  6
CONTINUOUS
 62
     3
 10
11561.79040899999
 20
8491.2470170000033
 30
0.0
 11
11561.79040899999
 21
8278.1340270000055
 31
0.0
  0
LINE
  5
37F9
  8
0-1
  6
CONTINUOUS
 62
     3
 10
14056.790541
 20
8278.1340270000055
 30
0.0
 11
14056.790541
 21
6367.0884780000006
 31
0.0
  0
LINE
  5
37FA
  8
0-1
  6
CONTINUOUS
 62
     3
 10
14171.790673
 20
8582.3751450000018
 30
0.0
 11
14171.790673
 21
6367.0884780000006
 31
0.0
  0
LINE
  5
37FB
  8
0-1
  6
CONTINUOUS
 62
     3
 10
14151.791596999999
 20
8581.6743959999967
 30
0.0
 11
14151.791596999999
 21
6367.0884780000006
 31
0.0
  0
LINE
  5
37FC
  8
0-1
  6
CONTINUOUS
 62
     3
 10
12997.288785999999
 20
8278.1340270000055
 30
0.0
 11
12997.288785999999
 21
6417.088643000001
 31
0.0
  0
LINE
  5
37FD
  8
0-1
  6
CONTINUOUS
 62
     3
 10
13034.28994699999
 20
8278.1340270000055
 30
0.0
 11
13034.28994699999
 21
6417.088643000001
 31
0.0
  0
LINE
  5
37FE
  8
0-1
  6
CONTINUOUS
 62
     3
 10
13697.29109499999
 20
8278.1340270000055
 30
0.0
 11
13697.29109499999
 21
6417.088643000001
 31
0.0
  0
LINE
  5
37FF
  8
0-1
  6
CONTINUOUS
 62
     3
 10
13734.289287
 20
8278.1340270000055
 30
0.0
 11
13734.289287
 21
6417.088643000001
 31
0.0
  0
LINE
  5
3800
  8
0-1
  6
CONTINUOUS
 62
     3
 10
12297.289445
 20
8278.1340270000055
 30
0.0
 11
12297.289445
 21
6417.088643000001
 31
0.0
  0
LINE
  5
3801
  8
0-1
  6
CONTINUOUS
 62
     3
 10
12334.289617
 20
8278.1340270000055
 30
0.0
 11
12334.289617
 21
6417.088643000001
 31
0.0
  0
LINE
  5
3802
  8
0-1
  6
CONTINUOUS
 62
     3
 10
12675.789234
 20
6417.088643000001
 30
0.0
 11
12675.789234
 21
8278.1340270000055
 31
0.0
  0
LINE
  5
3803
  8
0-1
  6
CONTINUOUS
 62
     3
 10
12655.790157999991
 20
6417.088643000001
 30
0.0
 11
12655.790157999991
 21
8278.1340270000055
 31
0.0
  0
LINE
  5
3804
  8
0-1
  6
CONTINUOUS
 62
     3
 10
12725.790884
 20
6417.088643000001
 30
0.0
 11
12725.790884
 21
8278.1340270000055
 31
0.0
  0
LINE
  5
3805
  8
0-1
  6
CONTINUOUS
 62
     3
 10
12605.78949799998
 20
6417.088643000001
 30
0.0
 11
12605.78949799998
 21
8278.1340270000055
 31
0.0
  0
LINE
  5
3806
  8
0-1
  6
CONTINUOUS
 62
     3
 10
12472.790594
 20
6417.088643000001
 30
0.0
 11
12472.790594
 21
8278.1340270000055
 31
0.0
  0
LINE
  5
3807
  8
0-1
  6
CONTINUOUS
 62
     3
 10
12457.789801999979
 20
6417.088643000001
 30
0.0
 11
12457.789801999979
 21
8278.1340270000055
 31
0.0
  0
LINE
  5
3808
  8
0-1
  6
CONTINUOUS
 62
     3
 10
12858.789789
 20
6417.088643000001
 30
0.0
 11
12858.789789
 21
8278.1340270000055
 31
0.0
  0
LINE
  5
3809
  8
0-1
  6
CONTINUOUS
 62
     3
 10
12873.788601
 20
6417.088643000001
 30
0.0
 11
12873.788601
 21
8278.1340270000055
 31
0.0
  0
LINE
  5
380A
  8
0-1
  6
CONTINUOUS
 62
     3
 10
13573.79091
 20
6417.088643000001
 30
0.0
 11
13573.79091
 21
8278.1340270000055
 31
0.0
  0
LINE
  5
380B
  8
0-1
  6
CONTINUOUS
 62
     3
 10
13558.789128999981
 20
6417.088643000001
 30
0.0
 11
13558.789128999981
 21
8278.1340270000055
 31
0.0
  0
LINE
  5
380C
  8
0-1
  6
CONTINUOUS
 62
     3
 10
13157.790132
 20
6417.088643000001
 30
0.0
 11
13157.790132
 21
8278.1340270000055
 31
0.0
  0
LINE
  5
380D
  8
0-1
  6
CONTINUOUS
 62
     3
 10
13172.788944
 20
6417.088643000001
 30
0.0
 11
13172.788944
 21
8278.1340270000055
 31
0.0
  0
LINE
  5
380E
  8
0-1
  6
CONTINUOUS
 62
     3
 10
13305.788838
 20
6417.088643000001
 30
0.0
 11
13305.788838
 21
8278.1340270000055
 31
0.0
  0
LINE
  5
380F
  8
0-1
  6
CONTINUOUS
 62
     3
 10
13425.789234
 20
6417.088643000001
 30
0.0
 11
13425.789234
 21
8278.1340270000055
 31
0.0
  0
LINE
  5
3810
  8
0-1
  6
CONTINUOUS
 62
     3
 10
13355.789498
 20
6417.088643000001
 30
0.0
 11
13355.789498
 21
8278.1340270000055
 31
0.0
  0
LINE
  5
3811
  8
0-1
  6
CONTINUOUS
 62
     3
 10
13375.788574
 20
6417.088643000001
 30
0.0
 11
13375.788574
 21
8278.1340270000055
 31
0.0
  0
LINE
  5
3812
  8
0-1
  6
CONTINUOUS
 62
     3
 10
12173.789261
 20
6417.088643000001
 30
0.0
 11
12173.789261
 21
8278.1340270000055
 31
0.0
  0
LINE
  5
3813
  8
0-1
  6
CONTINUOUS
 62
     3
 10
12158.789459
 20
6417.088643000001
 30
0.0
 11
12158.789459
 21
8278.1340270000055
 31
0.0
  0
LINE
  5
3814
  8
0-1
  6
CONTINUOUS
 62
     3
 10
11757.79046199999
 20
6417.088643000001
 30
0.0
 11
11757.79046199999
 21
8278.1340270000055
 31
0.0
  0
LINE
  5
3815
  8
0-1
  6
CONTINUOUS
 62
     3
 10
11772.79125299999
 20
6417.088643000001
 30
0.0
 11
11772.79125299999
 21
8278.1340270000055
 31
0.0
  0
LINE
  5
3816
  8
0-1
  6
CONTINUOUS
 62
     3
 10
11905.790158
 20
6417.088643000001
 30
0.0
 11
11905.790158
 21
8278.1340270000055
 31
0.0
  0
LINE
  5
3817
  8
0-1
  6
CONTINUOUS
 62
     3
 10
12025.789564000001
 20
6417.088643000001
 30
0.0
 11
12025.789564000001
 21
8278.1340270000055
 31
0.0
  0
LINE
  5
3818
  8
0-1
  6
CONTINUOUS
 62
     3
 10
11955.789828000001
 20
6417.088643000001
 30
0.0
 11
11955.789828000001
 21
8278.1340270000055
 31
0.0
  0
LINE
  5
3819
  8
0-1
  6
CONTINUOUS
 62
     3
 10
11975.78989399999
 20
6417.088643000001
 30
0.0
 11
11975.78989399999
 21
8278.1340270000055
 31
0.0
  0
LINE
  5
381A
  8
0-1
  6
CONTINUOUS
 62
     3
 10
14184.29040899999
 20
6367.0884780000006
 30
0.0
 11
14184.29040899999
 21
6267.088643000001
 31
0.0
  0
LINE
  5
381B
  8
0-1
  6
CONTINUOUS
 62
     3
 10
8774.6628230000024
 20
8441.9391889999988
 30
0.0
 11
8773.4701630000018
 21
8475.9166359999981
 31
0.0
  0
LINE
  5
381C
  8
0-1
  6
CONTINUOUS
 62
     3
 10
8776.364219000001
 20
8479.0205209999967
 30
0.0
 11
14256.08847199999
 21
8670.3805820000016
 31
0.0
  0
LINE
  5
381D
  8
0-1
  6
CONTINUOUS
 62
     3
 10
14257.487991999989
 20
8630.4071740000036
 30
0.0
 11
8777.7647290000023
 21
8439.0451330000033
 31
0.0
  0
LINE
  5
381E
  8
0-1
  6
CONTINUOUS
 62
     3
 10
8775.0478390000062
 20
8430.9449430000077
 30
0.0
 11
8775.0448700000015
 21
8431.0102670000033
 31
0.0
  0
LINE
  5
381F
  8
0-1
  6
CONTINUOUS
 62
     3
 10
8775.0448700000015
 20
8431.0102670000033
 30
0.0
 11
8776.1682470000032
 21
8398.9658199999994
 31
0.0
  0
LINE
  5
3820
  8
0-1
  6
CONTINUOUS
 62
     3
 10
8781.3397390000009
 20
8394.142722999999
 30
0.0
 11
14280.03173899998
 21
8586.1679030000032
 31
0.0
  0
LINE
  5
3821
  8
0-1
  6
CONTINUOUS
 62
     3
 10
14275.47983599999
 20
8716.0876660000031
 30
0.0
 11
8776.7878360000013
 21
8524.0634770000015
 31
0.0
  0
LINE
  5
3822
  8
0-1
  6
CONTINUOUS
 62
     3
 10
8771.9647390000027
 20
8518.890994000003
 30
0.0
 11
8773.0851470000016
 21
8486.9118720000006
 31
0.0
  0
LINE
  5
3823
  8
0-1
  6
CONTINUOUS
 62
     3
 10
8776.1900220000007
 20
8484.0178160000032
 30
0.0
 11
14255.91229499998
 21
8675.3778770000008
 31
0.0
  0
LINE
  5
3824
  8
0-1
  6
CONTINUOUS
 62
     3
 10
14257.66317899999
 20
8625.4098790000025
 30
0.0
 11
8777.9399160000012
 21
8434.0478379999968
 31
0.0
  0
LINE
  5
3825
  8
0-1
  6
CONTINUOUS
 62
     3
 10
8789.2795880000049
 20
8524.500949999996
 30
0.0
 11
8793.8324809999995
 21
8394.5801969999975
 31
0.0
  0
LINE
  5
3826
  8
0-5
  6
CONTINUOUS
 62
     4
 10
8994.2904090000029
 20
4587.0885440000002
 30
0.0
 11
8994.2904090000029
 21
4427.0885109999999
 31
0.0
  0
LINE
  5
3827
  8
0-5
  6
CONTINUOUS
 62
     4
 10
11561.79040899999
 20
4587.0885440000002
 30
0.0
 11
11561.79040899999
 21
4427.0885109999999
 31
0.0
  0
LINE
  5
3828
  8
0-5
  6
CONTINUOUS
 62
     4
 10
14129.29040899999
 20
4587.0885440000002
 30
0.0
 11
14129.29040899999
 21
4427.0885109999999
 31
0.0
  0
LINE
  5
3829
  8
2-0
  6
CENTER2
 62
     6
 10
8994.2904090000029
 20
6004.4352299999982
 30
0.0
 11
8994.2904090000029
 21
7061.5783230000015
 31
0.0
  0
LINE
  5
382A
  8
2-0
  6
CENTER2
 62
     6
 10
11561.79040899999
 20
6004.4352299999982
 30
0.0
 11
11561.79040899999
 21
7061.5783230000015
 31
0.0
  0
LINE
  5
382B
  8
2-0
  6
CENTER2
 62
     6
 10
14129.29040899999
 20
6004.4352299999982
 30
0.0
 11
14129.29040899999
 21
7061.5783230000015
 31
0.0
  0
ARC
  5
382C
  8
0-1
  6
CONTINUOUS
 62
     3
 10
8779.3513129999974
 20
8436.5994379999975
 30
0.0
 40
2.5
 50
272.00698899981808
 51
92.006988999818205
  0
ARC
  5
382D
  8
0-1
  6
CONTINUOUS
 62
     3
 10
8777.7766060000085
 20
8481.5731100000048
 30
0.0
 40
2.5
 50
272.00698899981808
 51
92.006988999818205
  0
ARC
  5
382E
  8
0-1
  6
CONTINUOUS
 62
     3
 10
8776.4691340000081
 20
8476.0215500000031
 30
0.0
 40
3.0
 50
92.006988999818205
 51
182.00698899997451
  0
ARC
  5
382F
  8
0-1
  6
CONTINUOUS
 62
     3
 10
14256.787241999989
 20
8650.3933829999987
 30
0.0
 40
20.0
 50
272.00698899981808
 51
92.006988999818205
  0
ARC
  5
3830
  8
0-1
  6
CONTINUOUS
 62
     3
 10
8777.6598139999987
 20
8442.0441040000005
 30
0.0
 40
3.0
 50
182.00698899997451
 51
272.00698899981808
  0
ARC
  5
3831
  8
0-1
  6
CONTINUOUS
 62
     3
 10
8778.0448300000044
 20
8431.0508469999986
 30
0.0
 40
3.0
 50
92.006988999818205
 51
182.00698899997451
  0
ARC
  5
3832
  8
0-1
  6
CONTINUOUS
 62
     3
 10
8781.1655409999985
 20
8399.1400180000037
 30
0.0
 40
5.0
 50
182.00698899997451
 51
272.00698899981808
  0
ARC
  5
3833
  8
0-1
  6
CONTINUOUS
 62
     3
 10
14251.790936999991
 20
8650.2191850000017
 30
0.0
 40
69.999999000000003
 50
293.7937770000417
 51
70.22019999997768
  0
ARC
  5
3834
  8
0-1
  6
CONTINUOUS
 62
     3
 10
8776.9620340000056
 20
8519.0661819999968
 30
0.0
 40
5.0
 50
92.006988999818205
 51
182.00698899997451
  0
ARC
  5
3835
  8
0-1
  6
CONTINUOUS
 62
     3
 10
8776.0831280000002
 20
8487.0157970000037
 30
0.0
 40
3.0
 50
182.00698899997451
 51
272.00698899981808
  0
ARC
  5
3836
  8
0-1
  6
CONTINUOUS
 62
     3
 10
14256.787241999989
 20
8650.3933829999987
 30
0.0
 40
24.999998999999999
 50
272.00698899981808
 51
92.006988999818205
  0
CIRCLE
  5
3837
  8
0-5
  6
CONTINUOUS
 62
     4
 10
8994.2904090000029
 20
4227.0878509999993
 30
0.0
 40
199.9999949999999
  0
CIRCLE
  5
3838
  8
0-5
  6
CONTINUOUS
 62
     4
 10
14129.29040899999
 20
4227.0878509999993
 30
0.0
 40
199.9999949999999
  0
CIRCLE
  5
3839
  8
0-5
  6
CONTINUOUS
 62
     4
 10
11561.79040899999
 20
4227.0878509999993
 30
0.0
 40
199.9999949999999
  0
TEXT
  5
383A
  8
0-5
  6
CONTINUOUS
 62
     7
 10
8940.0944328542064
 20
4139.8339066382023
 30
0.0
 40
160.0
  1
C
 72
     4
 11
8993.4277661875421
 21
4219.8339066382032
 31
0.0
  0
TEXT
  5
383B
  8
0-5
  6
CONTINUOUS
 62
     7
 10
11507.59344185418
 20
4139.8339066382023
 30
0.0
 40
160.0
  1
B
 72
     4
 11
11560.92677518752
 21
4219.8339066382032
 31
0.0
  0
TEXT
  5
383C
  8
0-5
  6
CONTINUOUS
 62
     7
 10
14075.092452854189
 20
4139.8339066382023
 30
0.0
 40
160.0
  1
A
 72
     4
 11
14128.42578618753
 21
4219.8339066382032
 31
0.0
  0
TEXT
  5
383D
  8
2-0
  6
CONTINUOUS
 62
     7
 10
10092.842126999991
 20
3479.9210370000019
 30
0.0
 40
160.0
  1
側 面 立 面 図
 72
     4
 11
10738.17546033333
 21
3559.9210370000019
 31
0.0
  0
TEXT
  5
383E
  8
2-0
  6
CONTINUOUS
 62
     7
 10
12089.66764547094
 20
3507.116406000001
 30
0.0
 40
160.0
  1
1
 72
     4
 11
12116.334312137609
 21
3587.1164060000019
 31
0.0
  0
TEXT
  5
383F
  8
2-0
  6
CONTINUOUS
 62
     7
 10
12332.75636272165
 20
3427.1178740000009
 30
0.0
 40
160.0
  1
80
 72
     4
 11
12452.75636272165
 21
3507.1178740000009
 31
0.0
  0
TEXT
  5
3840
  8
2-0
  6
CONTINUOUS
 62
     7
 10
11590.66961147095
 20
3479.9210370000019
 30
0.0
 40
160.0
  1
(S=  /   )
 72
     4
 11
12150.66961147095
 21
3559.9210370000019
 31
0.0
  0
LINE
  5
3841
  8
0-1
  6
CONTINUOUS
 62
     3
 10
9256.2886660000131
 20
6417.088643000001
 30
0.0
 11
9256.2886660000131
 21
8278.1340270000055
 31
0.0
  0
LINE
  5
3842
  8
0-1
  6
CONTINUOUS
 62
     3
 10
9241.2878750000127
 20
6417.088643000001
 30
0.0
 11
9241.2878750000127
 21
8278.1340270000055
 31
0.0
  0
LINE
  5
3843
  8
0-1
  6
CONTINUOUS
 62
     3
 10
13882.29096299999
 20
6417.088643000001
 30
0.0
 11
13882.29096299999
 21
8278.1340270000055
 31
0.0
  0
LINE
  5
3844
  8
0-1
  6
CONTINUOUS
 62
     3
 10
13867.28918199999
 20
6417.088643000001
 30
0.0
 11
13867.28918199999
 21
8278.1340270000055
 31
0.0
  0
LINE
  5
3845
  8
0-5
  6
CONTINUOUS
 62
     4
 10
14264.29067300001
 20
6367.0884780000006
 30
0.0
 11
15981.75062100001
 21
6367.0884780000006
 31
0.0
  0
LINE
  5
3846
  8
0-5
  6
CONTINUOUS
 62
     4
 10
16009.37678200001
 20
6574.9344650000003
 30
0.0
 11
15769.37500099998
 21
6574.9344650000003
 31
0.0
  0
LINE
  5
3847
  8
0-5
  6
CONTINUOUS
 62
     4
 10
15889.37440700001
 20
6367.0884780000006
 30
0.0
 11
16009.37678200001
 21
6574.9344650000003
 31
0.0
  0
LINE
  5
3848
  8
0-5
  6
CONTINUOUS
 62
     4
 10
15769.37500099998
 20
6574.9344650000003
 30
0.0
 11
15889.37440700001
 21
6367.0884780000006
 31
0.0
  0
TEXT
  5
3849
  8
0-0
  6
CONTINUOUS
 62
     7
 10
15430.283467999991
 20
6654.9347289999978
 30
0.0
 40
160.0
  1
布基礎天端
 72
     4
 11
15888.95013466666
 21
6734.9347289999987
 31
0.0
  0
LINE
  5
384A
  8
0-5
  6
CONTINUOUS
 62
     4
 10
16724.674830999971
 20
6474.9351249999991
 30
0.0
 11
16844.67324799997
 21
6267.088643000001
 31
0.0
  0
LINE
  5
384B
  8
0-5
  6
CONTINUOUS
 62
     4
 10
16844.67324799997
 20
6267.088643000001
 30
0.0
 11
16964.675622999981
 21
6474.9351249999991
 31
0.0
  0
LINE
  5
384C
  8
0-5
  6
CONTINUOUS
 62
     4
 10
16964.675622999981
 20
6474.9351249999991
 30
0.0
 11
16724.674830999971
 21
6474.9351249999991
 31
0.0
  0
TEXT
  5
384D
  8
0-0
  6
CONTINUOUS
 62
     7
 10
16724.674830999971
 20
6554.9348940000036
 30
0.0
 40
160.0
  1
G.L
 72
     4
 11
16884.674830999971
 21
6634.9348940000036
 31
0.0
  0
LINE
  5
384E
  8
0-1
  6
CONTINUOUS
 62
     3
 10
25420.048852999971
 20
8465.5884979999973
 30
0.0
 11
25420.048852999971
 21
8497.5884050000004
 31
0.0
  0
LINE
  5
384F
  8
0-1
  6
CONTINUOUS
 62
     3
 10
25569.04824599998
 20
8389.4017760000006
 30
0.0
 11
25526.046134999971
 21
8389.4017760000006
 31
0.0
  0
LINE
  5
3850
  8
0-1
  6
CONTINUOUS
 62
     3
 10
25569.04824599998
 20
8715.5888270000032
 30
0.0
 11
25569.04824599998
 21
8389.4017760000006
 31
0.0
  0
LINE
  5
3851
  8
0-1
  6
CONTINUOUS
 62
     3
 10
25134.081659999989
 20
8462.0530769999987
 30
0.0
 11
25102.082742999981
 21
8494.0529849999984
 31
0.0
  0
LINE
  5
3852
  8
0-1
  6
CONTINUOUS
 62
     3
 10
25415.048588999962
 20
8502.5886689999988
 30
0.0
 11
25105.618162999988
 21
8502.5886689999988
 31
0.0
  0
LINE
  5
3853
  8
0-1
  6
CONTINUOUS
 62
     3
 10
25420.048852999971
 20
8494.189572000003
 30
0.0
 11
25101.952093999971
 21
8494.189572000003
 31
0.0
  0
LINE
  5
3854
  8
0-1
  6
CONTINUOUS
 62
     3
 10
25415.048588999962
 20
8460.5882340000007
 30
0.0
 11
25137.619059999972
 21
8460.5882340000007
 31
0.0
  0
LINE
  5
3855
  8
0-1
  6
CONTINUOUS
 62
     3
 10
25420.048852999971
 20
8468.9883209999989
 30
0.0
 11
25127.147406999989
 21
8468.9883209999989
 31
0.0
  0
LINE
  5
3856
  8
0-1
  6
CONTINUOUS
 62
     3
 10
25420.048852999971
 20
8477.3884079999971
 30
0.0
 11
25118.748308999981
 21
8477.3884079999971
 31
0.0
  0
LINE
  5
3857
  8
0-1
  6
CONTINUOUS
 62
     3
 10
25420.048852999971
 20
8485.7894849999975
 30
0.0
 11
25110.34723299996
 21
8485.7894849999975
 31
0.0
  0
LINE
  5
3858
  8
0-1
  6
CONTINUOUS
 62
     3
 10
25533.546530999989
 20
6367.0884779999951
 30
0.0
 11
25433.547189999968
 21
6367.0884779999951
 31
0.0
  0
LINE
  5
3859
  8
0-1
  6
CONTINUOUS
 62
     3
 10
25433.547189999968
 20
6367.0884779999951
 30
0.0
 11
25433.547189999968
 21
6267.088643000001
 31
0.0
  0
LINE
  5
385A
  8
0-1
  6
CONTINUOUS
 62
     3
 10
25533.546530999989
 20
6267.088643000001
 30
0.0
 11
25533.546530999989
 21
6367.0884779999951
 31
0.0
  0
LINE
  5
385B
  8
0-1
  6
CONTINUOUS
 62
     3
 10
25506.04705799996
 20
8715.5888270000032
 30
0.0
 11
25506.04705799996
 21
6367.0884779999951
 31
0.0
  0
LINE
  5
385C
  8
0-1
  6
CONTINUOUS
 62
     3
 10
25526.046134999971
 20
8585.5879039999982
 30
0.0
 11
25526.046134999971
 21
6367.0884779999951
 31
0.0
  0
LINE
  5
385D
  8
0-1
  6
CONTINUOUS
 62
     3
 10
25396.047189999968
 20
8275.0885369999942
 30
0.0
 11
25396.047189999968
 21
6267.088643000001
 31
0.0
  0
LINE
  5
385E
  8
0-1
  6
CONTINUOUS
 62
     3
 10
25441.047585999971
 20
8585.5879039999982
 30
0.0
 11
25441.047585999971
 21
6367.0884779999951
 31
0.0
  0
LINE
  5
385F
  8
0-1
  6
CONTINUOUS
 62
     3
 10
22564.512061000001
 20
8462.0530769999987
 30
0.0
 11
22596.508999000001
 21
8494.0529849999984
 31
0.0
  0
LINE
  5
3860
  8
0-1
  6
CONTINUOUS
 62
     3
 10
22278.546847000001
 20
8465.5884979999973
 30
0.0
 11
22278.546847000001
 21
8497.5884050000004
 31
0.0
  0
LINE
  5
3861
  8
0-1
  6
CONTINUOUS
 62
     3
 10
22278.546847000001
 20
8468.9883209999989
 30
0.0
 11
22571.444334999971
 21
8468.9883209999989
 31
0.0
  0
LINE
  5
3862
  8
0-1
  6
CONTINUOUS
 62
     3
 10
22278.546847000001
 20
8477.3884079999971
 30
0.0
 11
22579.845411999991
 21
8477.3884079999971
 31
0.0
  0
LINE
  5
3863
  8
0-1
  6
CONTINUOUS
 62
     3
 10
22283.547110999989
 20
8460.5882340000007
 30
0.0
 11
22560.974660999989
 21
8460.5882340000007
 31
0.0
  0
LINE
  5
3864
  8
0-1
  6
CONTINUOUS
 62
     3
 10
22278.546847000001
 20
8485.7894849999975
 30
0.0
 11
22588.244509
 21
8485.7894849999975
 31
0.0
  0
LINE
  5
3865
  8
0-1
  6
CONTINUOUS
 62
     3
 10
22278.546847000001
 20
8494.189572000003
 30
0.0
 11
22596.641627000001
 21
8494.189572000003
 31
0.0
  0
LINE
  5
3866
  8
0-1
  6
CONTINUOUS
 62
     3
 10
22283.547110999989
 20
8502.5886689999988
 30
0.0
 11
22592.975558000009
 21
8502.5886689999988
 31
0.0
  0
LINE
  5
3867
  8
0-1
  6
CONTINUOUS
 62
     3
 10
22257.544154999989
 20
8585.5879039999982
 30
0.0
 11
22257.544154999989
 21
6267.088643000001
 31
0.0
  0
LINE
  5
3868
  8
0-1
  6
CONTINUOUS
 62
     3
 10
22302.54455100001
 20
8275.0885369999942
 30
0.0
 11
22302.54455100001
 21
6267.088643000001
 31
0.0
  0
LINE
  5
3869
  8
0-1
  6
CONTINUOUS
 62
     3
 10
25569.04824599998
 20
8585.5879039999982
 30
0.0
 11
22215.04587099998
 21
8585.5879039999982
 31
0.0
  0
LINE
  5
386A
  8
0-1
  6
CONTINUOUS
 62
     3
 10
22257.544154999989
 20
8511.5885500000004
 30
0.0
 11
25441.047585999971
 21
8511.5885500000004
 31
0.0
  0
LINE
  5
386B
  8
0-1
  6
CONTINUOUS
 62
     3
 10
22302.54455100001
 20
8206.5482009999978
 30
0.0
 11
25396.047189999968
 21
8206.5482009999978
 31
0.0
  0
LINE
  5
386C
  8
0-1
  6
CONTINUOUS
 62
     3
 10
22302.54455100001
 20
6852.0893359999973
 30
0.0
 11
25396.047189999968
 21
6852.0893359999973
 31
0.0
  0
LINE
  5
386D
  8
0-1
  6
CONTINUOUS
 62
     3
 10
22302.54455100001
 20
6917.0883130000002
 30
0.0
 11
25396.047189999968
 21
6917.0883130000002
 31
0.0
  0
LINE
  5
386E
  8
0-1
  6
CONTINUOUS
 62
     3
 10
22302.54455100001
 20
6982.0887749999983
 30
0.0
 11
25396.047189999968
 21
6982.0887749999983
 31
0.0
  0
LINE
  5
386F
  8
0-1
  6
CONTINUOUS
 62
     3
 10
22302.54455100001
 20
7047.0887419999972
 30
0.0
 11
25396.047189999968
 21
7047.0887419999972
 31
0.0
  0
LINE
  5
3870
  8
0-1
  6
CONTINUOUS
 62
     3
 10
22302.54455100001
 20
7112.0887089999969
 30
0.0
 11
25396.047189999968
 21
7112.0887089999969
 31
0.0
  0
LINE
  5
3871
  8
0-1
  6
CONTINUOUS
 62
     3
 10
22302.54455100001
 20
7177.0886759999976
 30
0.0
 11
25396.047189999968
 21
7177.0886759999976
 31
0.0
  0
LINE
  5
3872
  8
0-1
  6
CONTINUOUS
 62
     3
 10
22302.54455100001
 20
7242.089138000003
 30
0.0
 11
25396.047189999968
 21
7242.089138000003
 31
0.0
  0
LINE
  5
3873
  8
0-1
  6
CONTINUOUS
 62
     3
 10
22302.54455100001
 20
7307.0881149999977
 30
0.0
 11
25396.047189999968
 21
7307.0881149999977
 31
0.0
  0
LINE
  5
3874
  8
0-1
  6
CONTINUOUS
 62
     3
 10
22302.54455100001
 20
7372.0885769999977
 30
0.0
 11
25396.047189999968
 21
7372.0885769999977
 31
0.0
  0
LINE
  5
3875
  8
0-1
  6
CONTINUOUS
 62
     3
 10
22302.54455100001
 20
7437.0885439999984
 30
0.0
 11
25396.047189999968
 21
7437.0885439999984
 31
0.0
  0
LINE
  5
3876
  8
0-1
  6
CONTINUOUS
 62
     3
 10
22302.54455100001
 20
7502.0890059999974
 30
0.0
 11
25396.047189999968
 21
7502.0890059999974
 31
0.0
  0
LINE
  5
3877
  8
0-1
  6
CONTINUOUS
 62
     3
 10
22302.54455100001
 20
7567.0879829999967
 30
0.0
 11
25396.047189999968
 21
7567.0879829999967
 31
0.0
  0
LINE
  5
3878
  8
0-1
  6
CONTINUOUS
 62
     3
 10
22302.54455100001
 20
7632.0884449999976
 30
0.0
 11
25396.047189999968
 21
7632.0884449999976
 31
0.0
  0
LINE
  5
3879
  8
0-1
  6
CONTINUOUS
 62
     3
 10
22302.54455100001
 20
7697.0884119999992
 30
0.0
 11
25396.047189999968
 21
7697.0884119999992
 31
0.0
  0
LINE
  5
387A
  8
0-1
  6
CONTINUOUS
 62
     3
 10
22302.54455100001
 20
7762.0883789999989
 30
0.0
 11
25396.047189999968
 21
7762.0883789999989
 31
0.0
  0
LINE
  5
387B
  8
0-1
  6
CONTINUOUS
 62
     3
 10
22302.54455100001
 20
7827.0888410000007
 30
0.0
 11
25396.047189999968
 21
7827.0888410000007
 31
0.0
  0
LINE
  5
387C
  8
0-1
  6
CONTINUOUS
 62
     3
 10
22302.54455100001
 20
7892.0888079999977
 30
0.0
 11
25396.047189999968
 21
7892.0888079999977
 31
0.0
  0
LINE
  5
387D
  8
0-1
  6
CONTINUOUS
 62
     3
 10
22302.54455100001
 20
7957.0892699999968
 30
0.0
 11
25396.047189999968
 21
7957.0892699999968
 31
0.0
  0
LINE
  5
387E
  8
0-1
  6
CONTINUOUS
 62
     3
 10
22302.54455100001
 20
8022.0882469999933
 30
0.0
 11
25396.047189999968
 21
8022.0882469999933
 31
0.0
  0
LINE
  5
387F
  8
0-1
  6
CONTINUOUS
 62
     3
 10
22302.54455100001
 20
8087.0887089999969
 30
0.0
 11
25396.047189999968
 21
8087.0887089999969
 31
0.0
  0
LINE
  5
3880
  8
0-1
  6
CONTINUOUS
 62
     3
 10
22302.54455100001
 20
8152.0886759999976
 30
0.0
 11
25396.047189999968
 21
8152.0886759999976
 31
0.0
  0
LINE
  5
3881
  8
0-1
  6
CONTINUOUS
 62
     3
 10
22302.54455100001
 20
6332.0881149999968
 30
0.0
 11
25396.047189999968
 21
6332.0881149999968
 31
0.0
  0
LINE
  5
3882
  8
0-1
  6
CONTINUOUS
 62
     3
 10
22302.54455100001
 20
6397.0890719999979
 30
0.0
 11
25396.047189999968
 21
6397.0890719999979
 31
0.0
  0
LINE
  5
3883
  8
0-1
  6
CONTINUOUS
 62
     3
 10
22302.54455100001
 20
6462.088048999999
 30
0.0
 11
25396.047189999968
 21
6462.088048999999
 31
0.0
  0
LINE
  5
3884
  8
0-1
  6
CONTINUOUS
 62
     3
 10
22302.54455100001
 20
6527.0890059999974
 30
0.0
 11
25396.047189999968
 21
6527.0890059999974
 31
0.0
  0
LINE
  5
3885
  8
0-1
  6
CONTINUOUS
 62
     3
 10
22302.54455100001
 20
6592.0884779999988
 30
0.0
 11
25396.047189999968
 21
6592.0884779999988
 31
0.0
  0
LINE
  5
3886
  8
0-1
  6
CONTINUOUS
 62
     3
 10
22302.54455100001
 20
6657.0884450000012
 30
0.0
 11
25396.047189999968
 21
6657.0884450000012
 31
0.0
  0
LINE
  5
3887
  8
0-1
  6
CONTINUOUS
 62
     3
 10
22302.54455100001
 20
6722.0884119999992
 30
0.0
 11
25396.047189999968
 21
6722.0884119999992
 31
0.0
  0
LINE
  5
3888
  8
0-1
  6
CONTINUOUS
 62
     3
 10
22302.54455100001
 20
6787.0878839999987
 30
0.0
 11
25396.047189999968
 21
6787.0878839999987
 31
0.0
  0
LINE
  5
3889
  8
0-1
  6
CONTINUOUS
 62
     3
 10
22257.544154999989
 20
8451.5883519999988
 30
0.0
 11
25441.047585999971
 21
8451.5883519999988
 31
0.0
  0
LINE
  5
388A
  8
0-1
  6
CONTINUOUS
 62
     3
 10
22257.544154999989
 20
8275.0885369999942
 30
0.0
 11
25441.047585999971
 21
8275.0885369999942
 31
0.0
  0
LINE
  5
388B
  8
0-1
  6
CONTINUOUS
 62
     3
 10
18896.545211999979
 20
6267.088643000001
 30
0.0
 11
25533.546530999989
 21
6267.088643000001
 31
0.0
  0
LINE
  5
388C
  8
0-1
  6
CONTINUOUS
 62
     3
 10
22215.04587099998
 20
8715.5888270000032
 30
0.0
 11
25569.04824599998
 21
8715.5888270000032
 31
0.0
  0
LINE
  5
388D
  8
0-1
  6
CONTINUOUS
 62
     3
 10
22151.544894999981
 20
8465.5884979999973
 30
0.0
 11
22151.544894999981
 21
8497.5884050000004
 31
0.0
  0
LINE
  5
388E
  8
0-1
  6
CONTINUOUS
 62
     3
 10
21865.583639999972
 20
8462.0530769999987
 30
0.0
 11
21833.582742999981
 21
8494.0529849999984
 31
0.0
  0
LINE
  5
388F
  8
0-1
  6
CONTINUOUS
 62
     3
 10
22151.544894999981
 20
8494.189572000003
 30
0.0
 11
21833.452094999961
 21
8494.189572000003
 31
0.0
  0
LINE
  5
3890
  8
0-1
  6
CONTINUOUS
 62
     3
 10
22151.544894999981
 20
8485.7894849999975
 30
0.0
 11
21841.84723299996
 21
8485.7894849999975
 31
0.0
  0
LINE
  5
3891
  8
0-1
  6
CONTINUOUS
 62
     3
 10
22151.544894999981
 20
8477.3884079999971
 30
0.0
 11
21850.24632999998
 21
8477.3884079999971
 31
0.0
  0
LINE
  5
3892
  8
0-1
  6
CONTINUOUS
 62
     3
 10
22151.544894999981
 20
8468.9883209999989
 30
0.0
 11
21858.64542799996
 21
8468.9883209999989
 31
0.0
  0
LINE
  5
3893
  8
0-1
  6
CONTINUOUS
 62
     3
 10
22146.546609999968
 20
8502.5886689999988
 30
0.0
 11
21837.11618399998
 21
8502.5886689999988
 31
0.0
  0
LINE
  5
3894
  8
0-1
  6
CONTINUOUS
 62
     3
 10
22146.546609999968
 20
8460.5882340000007
 30
0.0
 11
21869.119060999968
 21
8460.5882340000007
 31
0.0
  0
LINE
  5
3895
  8
0-1
  6
CONTINUOUS
 62
     3
 10
22172.545606999971
 20
8585.5879039999982
 30
0.0
 11
22172.545606999971
 21
6267.088643000001
 31
0.0
  0
LINE
  5
3896
  8
0-1
  6
CONTINUOUS
 62
     3
 10
22127.547190999961
 20
8275.0885369999942
 30
0.0
 11
22127.547190999961
 21
6267.088643000001
 31
0.0
  0
LINE
  5
3897
  8
0-1
  6
CONTINUOUS
 62
     3
 10
19015.045131999981
 20
8460.5882340000007
 30
0.0
 11
19292.474661999961
 21
8460.5882340000007
 31
0.0
  0
LINE
  5
3898
  8
0-1
  6
CONTINUOUS
 62
     3
 10
19010.046847999969
 20
8465.5884979999973
 30
0.0
 11
19010.046847999969
 21
8497.5884050000004
 31
0.0
  0
LINE
  5
3899
  8
0-1
  6
CONTINUOUS
 62
     3
 10
18861.045475999959
 20
8389.4017760000006
 30
0.0
 11
18904.043627999981
 21
8389.4017760000006
 31
0.0
  0
LINE
  5
389A
  8
0-1
  6
CONTINUOUS
 62
     3
 10
18861.045475999959
 20
8389.4017760000006
 30
0.0
 11
18861.045475999959
 21
8715.5888270000032
 31
0.0
  0
LINE
  5
389B
  8
0-1
  6
CONTINUOUS
 62
     3
 10
19015.045131999981
 20
8502.5886689999988
 30
0.0
 11
19324.47555899998
 21
8502.5886689999988
 31
0.0
  0
LINE
  5
389C
  8
0-1
  6
CONTINUOUS
 62
     3
 10
19296.008101999982
 20
8462.0530769999987
 30
0.0
 11
19328.00899999998
 21
8494.0529849999984
 31
0.0
  0
LINE
  5
389D
  8
0-1
  6
CONTINUOUS
 62
     3
 10
19010.046847999969
 20
8494.189572000003
 30
0.0
 11
19328.14162699999
 21
8494.189572000003
 31
0.0
  0
LINE
  5
389E
  8
0-1
  6
CONTINUOUS
 62
     3
 10
19010.046847999969
 20
8485.7894849999975
 30
0.0
 11
19319.744509999971
 21
8485.7894849999975
 31
0.0
  0
LINE
  5
389F
  8
0-1
  6
CONTINUOUS
 62
     3
 10
19010.046847999969
 20
8477.3884079999971
 30
0.0
 11
19311.345411999991
 21
8477.3884079999971
 31
0.0
  0
LINE
  5
38A0
  8
0-1
  6
CONTINUOUS
 62
     3
 10
19010.046847999969
 20
8468.9883209999989
 30
0.0
 11
19302.946314999961
 21
8468.9883209999989
 31
0.0
  0
LINE
  5
38A1
  8
0-1
  6
CONTINUOUS
 62
     3
 10
18996.546530999982
 20
6367.0884779999951
 30
0.0
 11
18996.546530999982
 21
6267.088643000001
 31
0.0
  0
LINE
  5
38A2
  8
0-1
  6
CONTINUOUS
 62
     3
 10
18896.545211999979
 20
6267.088643000001
 30
0.0
 11
18896.545211999979
 21
6367.0884779999951
 31
0.0
  0
LINE
  5
38A3
  8
0-1
  6
CONTINUOUS
 62
     3
 10
18896.545211999979
 20
6367.0884779999951
 30
0.0
 11
18996.546530999982
 21
6367.0884779999951
 31
0.0
  0
LINE
  5
38A4
  8
0-1
  6
CONTINUOUS
 62
     3
 10
19034.046530999982
 20
8275.0885369999942
 30
0.0
 11
19034.046530999982
 21
6267.088643000001
 31
0.0
  0
LINE
  5
38A5
  8
0-1
  6
CONTINUOUS
 62
     3
 10
18989.044155999982
 20
8585.5879039999982
 30
0.0
 11
18989.044155999982
 21
6367.0884779999951
 31
0.0
  0
LINE
  5
38A6
  8
0-1
  6
CONTINUOUS
 62
     3
 10
18924.046662999961
 20
8715.5888270000032
 30
0.0
 11
18924.046662999961
 21
6367.0884779999951
 31
0.0
  0
LINE
  5
38A7
  8
0-1
  6
CONTINUOUS
 62
     3
 10
18904.043627999981
 20
8585.5879039999982
 30
0.0
 11
18904.043627999981
 21
6367.0884779999951
 31
0.0
  0
LINE
  5
38A8
  8
0-1
  6
CONTINUOUS
 62
     3
 10
18989.044155999982
 20
8275.0885369999942
 30
0.0
 11
22172.545606999971
 21
8275.0885369999942
 31
0.0
  0
LINE
  5
38A9
  8
0-1
  6
CONTINUOUS
 62
     3
 10
18989.044155999982
 20
8451.5883519999988
 30
0.0
 11
22172.545606999971
 21
8451.5883519999988
 31
0.0
  0
LINE
  5
38AA
  8
0-1
  6
CONTINUOUS
 62
     3
 10
19034.046530999982
 20
6787.0878839999987
 30
0.0
 11
22127.547190999961
 21
6787.0878839999987
 31
0.0
  0
LINE
  5
38AB
  8
0-1
  6
CONTINUOUS
 62
     3
 10
19034.046530999982
 20
6722.0884119999992
 30
0.0
 11
22127.547190999961
 21
6722.0884119999992
 31
0.0
  0
LINE
  5
38AC
  8
0-1
  6
CONTINUOUS
 62
     3
 10
19034.046530999982
 20
6657.0884450000012
 30
0.0
 11
22127.547190999961
 21
6657.0884450000012
 31
0.0
  0
LINE
  5
38AD
  8
0-1
  6
CONTINUOUS
 62
     3
 10
19034.046530999982
 20
6592.0884779999988
 30
0.0
 11
22127.547190999961
 21
6592.0884779999988
 31
0.0
  0
LINE
  5
38AE
  8
0-1
  6
CONTINUOUS
 62
     3
 10
19034.046530999982
 20
6527.0890059999974
 30
0.0
 11
22127.547190999961
 21
6527.0890059999974
 31
0.0
  0
LINE
  5
38AF
  8
0-1
  6
CONTINUOUS
 62
     3
 10
19034.046530999982
 20
6462.088048999999
 30
0.0
 11
22127.547190999961
 21
6462.088048999999
 31
0.0
  0
LINE
  5
38B0
  8
0-1
  6
CONTINUOUS
 62
     3
 10
19034.046530999982
 20
6397.0890719999979
 30
0.0
 11
22127.547190999961
 21
6397.0890719999979
 31
0.0
  0
LINE
  5
38B1
  8
0-1
  6
CONTINUOUS
 62
     3
 10
19034.046530999982
 20
6332.0881149999968
 30
0.0
 11
22127.547190999961
 21
6332.0881149999968
 31
0.0
  0
LINE
  5
38B2
  8
0-1
  6
CONTINUOUS
 62
     3
 10
19034.046530999982
 20
8152.0886759999976
 30
0.0
 11
22127.547190999961
 21
8152.0886759999976
 31
0.0
  0
LINE
  5
38B3
  8
0-1
  6
CONTINUOUS
 62
     3
 10
19034.046530999982
 20
8087.0887089999969
 30
0.0
 11
22127.547190999961
 21
8087.0887089999969
 31
0.0
  0
LINE
  5
38B4
  8
0-1
  6
CONTINUOUS
 62
     3
 10
19034.046530999982
 20
8022.0882469999933
 30
0.0
 11
22127.547190999961
 21
8022.0882469999933
 31
0.0
  0
LINE
  5
38B5
  8
0-1
  6
CONTINUOUS
 62
     3
 10
19034.046530999982
 20
7957.0892699999968
 30
0.0
 11
22127.547190999961
 21
7957.0892699999968
 31
0.0
  0
LINE
  5
38B6
  8
0-1
  6
CONTINUOUS
 62
     3
 10
19034.046530999982
 20
7892.0888079999977
 30
0.0
 11
22127.547190999961
 21
7892.0888079999977
 31
0.0
  0
LINE
  5
38B7
  8
0-1
  6
CONTINUOUS
 62
     3
 10
19034.046530999982
 20
7827.0888410000007
 30
0.0
 11
22127.547190999961
 21
7827.0888410000007
 31
0.0
  0
LINE
  5
38B8
  8
0-1
  6
CONTINUOUS
 62
     3
 10
19034.046530999982
 20
7762.0883789999989
 30
0.0
 11
22127.547190999961
 21
7762.0883789999989
 31
0.0
  0
LINE
  5
38B9
  8
0-1
  6
CONTINUOUS
 62
     3
 10
19034.046530999982
 20
7697.0884119999992
 30
0.0
 11
22127.547190999961
 21
7697.0884119999992
 31
0.0
  0
LINE
  5
38BA
  8
0-1
  6
CONTINUOUS
 62
     3
 10
19034.046530999982
 20
7632.0884449999976
 30
0.0
 11
22127.547190999961
 21
7632.0884449999976
 31
0.0
  0
LINE
  5
38BB
  8
0-1
  6
CONTINUOUS
 62
     3
 10
19034.046530999982
 20
7567.0879829999967
 30
0.0
 11
22127.547190999961
 21
7567.0879829999967
 31
0.0
  0
LINE
  5
38BC
  8
0-1
  6
CONTINUOUS
 62
     3
 10
19034.046530999982
 20
7502.0890059999974
 30
0.0
 11
22127.547190999961
 21
7502.0890059999974
 31
0.0
  0
LINE
  5
38BD
  8
0-1
  6
CONTINUOUS
 62
     3
 10
19034.046530999982
 20
7437.0885439999984
 30
0.0
 11
22127.547190999961
 21
7437.0885439999984
 31
0.0
  0
LINE
  5
38BE
  8
0-1
  6
CONTINUOUS
 62
     3
 10
19034.046530999982
 20
7372.0885769999977
 30
0.0
 11
22127.547190999961
 21
7372.0885769999977
 31
0.0
  0
LINE
  5
38BF
  8
0-1
  6
CONTINUOUS
 62
     3
 10
19034.046530999982
 20
7307.0881149999977
 30
0.0
 11
22127.547190999961
 21
7307.0881149999977
 31
0.0
  0
LINE
  5
38C0
  8
0-1
  6
CONTINUOUS
 62
     3
 10
19034.046530999982
 20
7242.089138000003
 30
0.0
 11
22127.547190999961
 21
7242.089138000003
 31
0.0
  0
LINE
  5
38C1
  8
0-1
  6
CONTINUOUS
 62
     3
 10
19034.046530999982
 20
7177.0886759999976
 30
0.0
 11
22127.547190999961
 21
7177.0886759999976
 31
0.0
  0
LINE
  5
38C2
  8
0-1
  6
CONTINUOUS
 62
     3
 10
19034.046530999982
 20
7112.0887089999969
 30
0.0
 11
22127.547190999961
 21
7112.0887089999969
 31
0.0
  0
LINE
  5
38C3
  8
0-1
  6
CONTINUOUS
 62
     3
 10
19034.046530999982
 20
7047.0887419999972
 30
0.0
 11
22127.547190999961
 21
7047.0887419999972
 31
0.0
  0
LINE
  5
38C4
  8
0-1
  6
CONTINUOUS
 62
     3
 10
19034.046530999982
 20
6982.0887749999983
 30
0.0
 11
22127.547190999961
 21
6982.0887749999983
 31
0.0
  0
LINE
  5
38C5
  8
0-1
  6
CONTINUOUS
 62
     3
 10
19034.046530999982
 20
6917.0883130000002
 30
0.0
 11
22127.547190999961
 21
6917.0883130000002
 31
0.0
  0
LINE
  5
38C6
  8
0-1
  6
CONTINUOUS
 62
     3
 10
19034.046530999982
 20
6852.0893359999973
 30
0.0
 11
22127.547190999961
 21
6852.0893359999973
 31
0.0
  0
LINE
  5
38C7
  8
0-1
  6
CONTINUOUS
 62
     3
 10
19034.046530999982
 20
8206.5482009999978
 30
0.0
 11
22127.547190999961
 21
8206.5482009999978
 31
0.0
  0
LINE
  5
38C8
  8
0-1
  6
CONTINUOUS
 62
     3
 10
18989.044155999982
 20
8511.5885500000004
 30
0.0
 11
22172.545606999971
 21
8511.5885500000004
 31
0.0
  0
LINE
  5
38C9
  8
0-1
  6
CONTINUOUS
 62
     3
 10
18861.045475999959
 20
8715.5888270000032
 30
0.0
 11
22215.04587099998
 21
8715.5888270000032
 31
0.0
  0
LINE
  5
38CA
  8
0-1
  6
CONTINUOUS
 62
     3
 10
22215.04587099998
 20
8585.5879039999982
 30
0.0
 11
18861.045475999959
 21
8585.5879039999982
 31
0.0
  0
LINE
  5
38CB
  8
0-1
  6
CONTINUOUS
 62
     3
 10
22215.04587099998
 20
8585.5879039999982
 30
0.0
 11
22215.04587099998
 21
8715.5888270000032
 31
0.0
  0
LINE
  5
38CC
  8
0-1
  6
CONTINUOUS
 62
     3
 10
22215.04587099998
 20
8585.5879039999982
 30
0.0
 11
22215.04587099998
 21
8715.5888270000032
 31
0.0
  0
LINE
  5
38CD
  8
0-2
  6
CONTINUOUS
 62
     4
 10
24212.98787099999
 20
7014.3143469999986
 30
0.0
 11
24112.988530999992
 21
7014.3143469999986
 31
0.0
  0
LINE
  5
38CE
  8
0-2
  6
CONTINUOUS
 62
     4
 10
23485.601890999991
 20
7014.3143469999986
 30
0.0
 11
23585.601231999961
 21
7014.3143469999986
 31
0.0
  0
LINE
  5
38CF
  8
0-2
  6
CONTINUOUS
 62
     4
 10
20944.48688149999
 20
7014.3143469999986
 30
0.0
 11
20844.487541499981
 21
7014.3143469999986
 31
0.0
  0
LINE
  5
38D0
  8
0-2
  6
CONTINUOUS
 62
     4
 10
20217.102880499991
 20
7014.3143469999986
 30
0.0
 11
20317.100241499989
 21
7014.3143469999986
 31
0.0
  0
LINE
  5
38D1
  8
0-5
  6
CONTINUOUS
 62
     4
 10
22215.04587099998
 20
4587.0885439999929
 30
0.0
 11
22215.04587099998
 21
4427.0885109999999
 31
0.0
  0
LINE
  5
38D2
  8
0-5
  6
CONTINUOUS
 62
     4
 10
18946.54587099998
 20
4587.0885439999929
 30
0.0
 11
18946.54587099998
 21
4427.0885109999999
 31
0.0
  0
LINE
  5
38D3
  8
2-0
  6
CENTER2
 62
     6
 10
25483.54587099998
 20
6004.4362199999978
 30
0.0
 11
25483.54587099998
 21
7041.5782569999992
 31
0.0
  0
LINE
  5
38D4
  8
2-0
  6
CENTER2
 62
     6
 10
22215.04587099998
 20
6004.4362199999978
 30
0.0
 11
22215.04587099998
 21
7041.5782569999992
 31
0.0
  0
LINE
  5
38D5
  8
2-0
  6
CENTER2
 62
     6
 10
18946.54587099998
 20
6004.4362199999978
 30
0.0
 11
18946.54587099998
 21
7041.5782569999992
 31
0.0
  0
ARC
  5
38D6
  8
0-1
  6
CONTINUOUS
 62
     3
 10
25415.048588999962
 20
8497.5884050000004
 30
0.0
 40
5.0
 50
0.0
 51
90.0
  0
ARC
  5
38D7
  8
0-1
  6
CONTINUOUS
 62
     3
 10
25415.048588999962
 20
8465.5884979999973
 30
0.0
 40
5.0
 50
269.9999850001808
 51
0.0
  0
ARC
  5
38D8
  8
0-1
  6
CONTINUOUS
 62
     3
 10
25105.618162999988
 20
8497.5884050000004
 30
0.0
 40
5.0
 50
90.0
 51
224.9999849999798
  0
ARC
  5
38D9
  8
0-1
  6
CONTINUOUS
 62
     3
 10
25137.619059999972
 20
8465.5884979999973
 30
0.0
 40
5.0
 50
224.9999849999798
 51
269.9999850001808
  0
ARC
  5
38DA
  8
0-1
  6
CONTINUOUS
 62
     3
 10
22592.975558000009
 20
8497.5884050000004
 30
0.0
 40
5.0
 50
314.99998500027471
 51
90.0
  0
ARC
  5
38DB
  8
0-1
  6
CONTINUOUS
 62
     3
 10
22560.974660999989
 20
8465.5884979999973
 30
0.0
 40
5.0
 50
269.9999850001808
 51
314.99998500027471
  0
ARC
  5
38DC
  8
0-1
  6
CONTINUOUS
 62
     3
 10
22283.547110999989
 20
8465.5884979999973
 30
0.0
 40
5.0
 50
180.0
 51
269.9999850001808
  0
ARC
  5
38DD
  8
0-1
  6
CONTINUOUS
 62
     3
 10
22283.547110999989
 20
8497.5884050000004
 30
0.0
 40
5.0
 50
90.0
 51
180.0
  0
ARC
  5
38DE
  8
0-1
  6
CONTINUOUS
 62
     3
 10
22146.546609999968
 20
8465.5884979999973
 30
0.0
 40
5.0
 50
269.9999850001808
 51
0.0
  0
ARC
  5
38DF
  8
0-1
  6
CONTINUOUS
 62
     3
 10
22146.546609999968
 20
8497.5884050000004
 30
0.0
 40
5.0
 50
0.0
 51
90.0
  0
ARC
  5
38E0
  8
0-1
  6
CONTINUOUS
 62
     3
 10
21837.11618399998
 20
8497.5884050000004
 30
0.0
 40
5.0
 50
90.0
 51
224.9999849999798
  0
ARC
  5
38E1
  8
0-1
  6
CONTINUOUS
 62
     3
 10
21869.119060999968
 20
8465.5884979999973
 30
0.0
 40
5.0
 50
224.9999849999798
 51
269.9999850001808
  0
ARC
  5
38E2
  8
0-1
  6
CONTINUOUS
 62
     3
 10
19324.47555899998
 20
8497.5884050000004
 30
0.0
 40
5.0
 50
314.99998500027471
 51
90.0
  0
ARC
  5
38E3
  8
0-1
  6
CONTINUOUS
 62
     3
 10
19015.045131999981
 20
8497.5884050000004
 30
0.0
 40
5.0
 50
90.0
 51
180.0
  0
ARC
  5
38E4
  8
0-1
  6
CONTINUOUS
 62
     3
 10
19015.045131999981
 20
8465.5884979999973
 30
0.0
 40
5.0
 50
180.0
 51
269.9999850001808
  0
ARC
  5
38E5
  8
0-1
  6
CONTINUOUS
 62
     3
 10
19292.474661999961
 20
8465.5884979999973
 30
0.0
 40
5.0
 50
269.9999850001808
 51
314.99998500027471
  0
CIRCLE
  5
38E6
  8
0-5
  6
CONTINUOUS
 62
     4
 10
22215.04587099998
 20
4227.0888409999989
 30
0.0
 40
199.9999949999999
  0
CIRCLE
  5
38E7
  8
0-5
  6
CONTINUOUS
 62
     4
 10
18946.54587099998
 20
4227.0888409999989
 30
0.0
 40
199.9999949999999
  0
TEXT
  5
38E8
  8
0-5
  6
CONTINUOUS
 62
     7
 10
18328.369931999991
 20
6996.4488897419951
 30
0.0
 40
160.0
  1
(2131.5)
 50
90.0
 72
     4
 11
18248.369931999991
 21
7449.7822230753281
 31
0.0
  0
TEXT
  5
38E9
  8
0-5
  6
CONTINUOUS
 62
     7
 10
22168.11742399996
 20
4140.5588870000001
 30
0.0
 40
160.0
  1
2
 72
     4
 11
22221.450757333299
 21
4220.5588869999992
 31
0.0
  0
TEXT
  5
38EA
  8
0-5
  6
CONTINUOUS
 62
     7
 10
18899.613464999969
 20
4140.5588870000001
 30
0.0
 40
160.0
  1
1
 72
     4
 11
18926.280131666641
 21
4220.5588869999992
 31
0.0
  0
CIRCLE
  5
38EB
  8
0-4
  6
CONTINUOUS
 62
     4
 10
20580.795870999991
 20
6753.144583999996
 30
0.0
 40
18.487504999999981
  0
CIRCLE
  5
38EC
  8
0-4
  6
CONTINUOUS
 62
     4
 10
23849.29587099998
 20
6753.144583999996
 30
0.0
 40
18.487504999999981
  0
LINE
  5
38ED
  8
SUNPOU
  6
CONTINUOUS
 10
18664.04587099998
 20
5067.088643000001
 30
0.0
 11
18306.090864278871
 21
5067.088643000001
 31
0.0
  0
LINE
  5
38EE
  8
SUNPOU
  6
CONTINUOUS
 10
25766.049829999982
 20
5067.088643000001
 30
0.0
 11
26124.004836721091
 21
5067.088643000001
 31
0.0
  0
LINE
  5
38EF
  8
0-5
  6
CONTINUOUS
 62
     4
 10
25526.04587099998
 20
4587.0885439999929
 30
0.0
 11
25526.04587099998
 21
4427.0885109999999
 31
0.0
  0
CIRCLE
  5
38F0
  8
0-5
  6
CONTINUOUS
 62
     4
 10
25526.04587099998
 20
4227.0888409999989
 30
0.0
 40
199.9999949999999
  0
TEXT
  5
38F1
  8
0-5
  6
CONTINUOUS
 62
     7
 10
25479.117423999971
 20
4140.5588870000001
 30
0.0
 40
160.0
  1
3
 72
     4
 11
25532.45075733331
 21
4220.5588869999992
 31
0.0
  0
TEXT
  5
38F2
  8
2-0
  6
CONTINUOUS
 62
     7
 10
20897.01212699998
 20
3389.967011000002
 30
0.0
 40
160.0
  1
正 面 立 面 図
 50
0.000139
 72
     4
 11
21542.345266250799
 21
3469.968576583376
 31
0.0
  0
TEXT
  5
38F3
  8
2-0
  6
CONTINUOUS
 62
     7
 10
22893.83745138843
 20
3417.1639455833761
 30
0.0
 40
160.0
  1
1
 72
     4
 11
22920.504118055102
 21
3497.163945583377
 31
0.0
  0
TEXT
  5
38F4
  8
2-0
  6
CONTINUOUS
 62
     7
 10
23136.926168639118
 20
3337.165413583376
 30
0.0
 40
160.0
  1
80
 72
     4
 11
23256.926168639118
 21
3417.165413583376
 31
0.0
  0
TEXT
  5
38F5
  8
2-0
  6
CONTINUOUS
 62
     7
 10
22394.839417388412
 20
3389.968576583376
 30
0.0
 40
160.0
  1
(S=  /   )
 72
     4
 11
22954.839417388412
 21
3469.968576583376
 31
0.0
  0
LINE
  5
38F6
  8
0-5
  6
CONTINUOUS
 62
     4
 10
16724.676810999961
 20
6474.9341350000013
 30
0.0
 11
16844.67324799997
 21
6267.088643000001
 31
0.0
  0
LINE
  5
38F7
  8
0-5
  6
CONTINUOUS
 62
     4
 10
16844.67324799997
 20
6267.088643000001
 30
0.0
 11
16964.673643999969
 21
6474.9341350000013
 31
0.0
  0
LINE
  5
38F8
  8
0-5
  6
CONTINUOUS
 62
     4
 10
16964.673643999969
 20
6474.9341350000013
 30
0.0
 11
16724.676810999961
 21
6474.9341350000013
 31
0.0
  0
TEXT
  5
38F9
  8
0-5
  6
CONTINUOUS
 62
     7
 10
16724.676810999968
 20
6554.9348929999987
 30
0.0
 40
160.0
  1
G.L
 72
     4
 11
16884.676810999968
 21
6634.9348929999987
 31
0.0
  0
TEXT
  5
38FA
  8
2-0
  6
CONTINUOUS
 62
     7
 10
21134.119773999999
 20
12256.04839299999
 30
0.0
 40
160.0
  1
平　面　図
 50
359.99978700000008
 72
     4
 11
21587.45338490736
 21
12330.713374376221
 31
0.0
  0
TEXT
  5
38FB
  8
2-0
  6
CONTINUOUS
 62
     7
 10
22938.94557004498
 20
12277.908743376231
 30
0.0
 40
160.0
  1
1
 72
     4
 11
22965.612236711651
 21
12357.908743376231
 31
0.0
  0
TEXT
  5
38FC
  8
2-0
  6
CONTINUOUS
 62
     7
 10
23182.034287295672
 20
12197.91021137622
 30
0.0
 40
160.0
  1
80
 72
     4
 11
23302.034287295672
 21
12277.91021137622
 31
0.0
  0
TEXT
  5
38FD
  8
2-0
  6
CONTINUOUS
 62
     7
 10
22439.94753604498
 20
12250.713374376221
 30
0.0
 40
160.0
  1
(S=  /   )
 72
     4
 11
22999.94753604498
 21
12330.713374376221
 31
0.0
  0
LINE
  5
38FE
  8
2-0
  6
CONTINUOUS
 62
     6
 10
23800.386954999969
 20
13868.038666
 30
0.0
 11
24800.380356999951
 21
13868.038666
 31
0.0
  0
LINE
  5
38FF
  8
2-0
  6
CONTINUOUS
 62
     6
 10
25268.320733999972
 20
14338.45938
 30
0.0
 11
24800.380356999951
 21
13868.038666
 31
0.0
  0
LINE
  5
3900
  8
2-0
  6
CONTINUOUS
 62
     6
 10
25229.680530999969
 20
17179.567027000001
 30
0.0
 11
24924.985112999992
 21
17283.220558000019
 31
0.0
  0
LINE
  5
3901
  8
2-0
  6
CONTINUOUS
 62
     6
 10
25384.702569999961
 20
16689.944983000001
 30
0.0
 11
24924.985112999992
 21
16446.031672000001
 31
0.0
  0
LINE
  5
3902
  8
2-0
  6
CONTINUOUS
 62
     6
 10
24004.982077999972
 20
16446.031672000001
 30
0.0
 11
24924.985112999992
 21
16446.031672000001
 31
0.0
  0
LINE
  5
3903
  8
2-0
  6
CONTINUOUS
 62
     6
 10
23724.991050999961
 20
17283.220558000019
 30
0.0
 11
24924.985112999992
 21
17283.220558000019
 31
0.0
  0
LINE
  5
3904
  8
2-0
  6
CONTINUOUS
 62
     6
 10
25300.879854999981
 20
14660.14302599998
 30
0.0
 11
24924.985112999992
 21
14841.086861
 31
0.0
  0
LINE
  5
3905
  8
2-0
  6
CONTINUOUS
 62
     6
 10
24404.983396999989
 20
14841.086861
 30
0.0
 11
24924.985112999992
 21
14841.086861
 31
0.0
  0
LINE
  5
3906
  8
2-0
  6
CONTINUOUS
 62
     4
 10
22215.04587099998
 20
19765.540316000021
 30
0.0
 11
22215.04587099998
 21
20495.537281000012
 31
0.0
  0
LINE
  5
3907
  8
2-0
  6
CONTINUOUS
 62
     3
 10
25496.04653099996
 20
19576.537862000001
 30
0.0
 11
25496.04653099996
 21
19570.5419
 31
0.0
  0
LINE
  5
3908
  8
2-0
  6
CONTINUOUS
 62
     3
 10
25496.04653099996
 20
19570.5419
 30
0.0
 11
25526.044154999981
 21
19570.5419
 31
0.0
  0
LINE
  5
3909
  8
2-0
  6
CONTINUOUS
 62
     3
 10
25526.044154999981
 20
19600.541504000001
 30
0.0
 11
25445.04225499996
 21
19600.541504000001
 31
0.0
  0
LINE
  5
390A
  8
2-0
  6
CONTINUOUS
 62
     3
 10
25496.04653099996
 20
19560.244444
 30
0.0
 11
25526.044154999981
 21
19560.244444
 31
0.0
  0
LINE
  5
390B
  8
2-0
  6
CONTINUOUS
 62
     3
 10
25496.04653099996
 20
19578.246186000011
 30
0.0
 11
25496.04653099996
 21
19560.244444
 31
0.0
  0
LINE
  5
390C
  8
2-0
  6
CONTINUOUS
 62
     3
 10
25521.04389099999
 20
19578.246186000011
 30
0.0
 11
25496.04653099996
 21
19578.246186000011
 31
0.0
  0
LINE
  5
390D
  8
2-0
  6
CONTINUOUS
 62
     3
 10
25521.04389099999
 20
19573.238004000021
 30
0.0
 11
25521.04389099999
 21
19578.246186000011
 31
0.0
  0
LINE
  5
390E
  8
2-0
  6
CONTINUOUS
 62
     3
 10
25514.042333999991
 20
19573.238004000021
 30
0.0
 11
25521.04389099999
 21
19573.238004000021
 31
0.0
  0
LINE
  5
390F
  8
2-0
  6
CONTINUOUS
 62
     3
 10
25413.746065999982
 20
19673.538230999999
 30
0.0
 11
25413.746065999982
 21
19680.543747000011
 31
0.0
  0
LINE
  5
3910
  8
2-0
  6
CONTINUOUS
 62
     3
 10
25413.746065999982
 20
19680.543747000011
 30
0.0
 11
25418.746329999969
 21
19680.543747000011
 31
0.0
  0
LINE
  5
3911
  8
2-0
  6
CONTINUOUS
 62
     3
 10
25418.746329999969
 20
19680.543747000011
 30
0.0
 11
25418.746329999969
 21
19655.534510000001
 31
0.0
  0
LINE
  5
3912
  8
2-0
  6
CONTINUOUS
 62
     3
 10
25418.746329999969
 20
19655.534510000001
 30
0.0
 11
25400.744587999961
 21
19655.534510000001
 31
0.0
  0
LINE
  5
3913
  8
2-0
  6
CONTINUOUS
 62
     3
 10
25400.744587999961
 20
19655.534510000001
 30
0.0
 11
25400.744587999961
 21
19685.538073000022
 31
0.0
  0
LINE
  5
3914
  8
2-0
  6
CONTINUOUS
 62
     3
 10
25411.042043999969
 20
19685.538073000022
 30
0.0
 11
25526.044154999981
 21
19685.538073000022
 31
0.0
  0
LINE
  5
3915
  8
2-0
  6
CONTINUOUS
 62
     3
 10
25411.042043999969
 20
19655.534510000001
 30
0.0
 11
25411.042043999969
 21
19685.538073000022
 31
0.0
  0
LINE
  5
3916
  8
2-0
  6
CONTINUOUS
 62
     3
 10
25417.043943999972
 20
19655.534510000001
 30
0.0
 11
25411.042043999969
 21
19655.534510000001
 31
0.0
  0
LINE
  5
3917
  8
2-0
  6
CONTINUOUS
 62
     3
 10
25514.042333999991
 20
19219.941181499991
 30
0.0
 11
25521.04389099999
 21
19219.941181499991
 31
0.0
  0
LINE
  5
3918
  8
2-0
  6
CONTINUOUS
 62
     3
 10
25521.04389099999
 20
19219.941181499991
 30
0.0
 11
25521.04389099999
 21
19224.941445500001
 31
0.0
  0
LINE
  5
3919
  8
2-0
  6
CONTINUOUS
 62
     3
 10
25521.04389099999
 20
19224.941445500001
 30
0.0
 11
25496.04653099996
 21
19224.941445500001
 31
0.0
  0
LINE
  5
391A
  8
2-0
  6
CONTINUOUS
 62
     3
 10
25496.04653099996
 20
19224.941445500001
 30
0.0
 11
25496.04653099996
 21
19206.945641499991
 31
0.0
  0
LINE
  5
391B
  8
2-0
  6
CONTINUOUS
 62
     3
 10
25496.04653099996
 20
19206.945641499991
 30
0.0
 11
25526.044154999981
 21
19206.945641499991
 31
0.0
  0
LINE
  5
391C
  8
2-0
  6
CONTINUOUS
 62
     3
 10
25496.04653099996
 20
19223.037148499981
 30
0.0
 11
25496.04653099996
 21
19217.039207500002
 31
0.0
  0
LINE
  5
391D
  8
2-0
  6
CONTINUOUS
 62
     3
 10
25496.04653099996
 20
19217.039207500002
 30
0.0
 11
25526.044154999981
 21
19217.039207500002
 31
0.0
  0
LINE
  5
391E
  8
2-0
  6
CONTINUOUS
 62
     3
 10
25526.044154999981
 20
19217.039207500002
 30
0.0
 11
25526.044154999981
 21
19254.040368499991
 31
0.0
  0
LINE
  5
391F
  8
2-0
  6
CONTINUOUS
 62
     3
 10
25496.04653099996
 20
19254.040368499991
 30
0.0
 11
25526.044154999981
 21
19254.040368499991
 31
0.0
  0
LINE
  5
3920
  8
2-0
  6
CONTINUOUS
 62
     3
 10
25496.04653099996
 20
19248.036488499991
 30
0.0
 11
25496.04653099996
 21
19254.040368499991
 31
0.0
  0
LINE
  5
3921
  8
2-0
  6
CONTINUOUS
 62
     3
 10
25496.04653099996
 20
19264.135913499991
 30
0.0
 11
25526.044154999981
 21
19264.135913499991
 31
0.0
  0
LINE
  5
3922
  8
2-0
  6
CONTINUOUS
 62
     3
 10
25496.04653099996
 20
19246.134171500002
 30
0.0
 11
25496.04653099996
 21
19264.135913499991
 31
0.0
  0
LINE
  5
3923
  8
2-0
  6
CONTINUOUS
 62
     3
 10
25521.04389099999
 20
19246.134171500002
 30
0.0
 11
25496.04653099996
 21
19246.134171500002
 31
0.0
  0
LINE
  5
3924
  8
2-0
  6
CONTINUOUS
 62
     3
 10
25521.04389099999
 20
19251.1344355
 30
0.0
 11
25521.04389099999
 21
19246.134171500002
 31
0.0
  0
LINE
  5
3925
  8
2-0
  6
CONTINUOUS
 62
     3
 10
25514.042333999991
 20
19251.1344355
 30
0.0
 11
25521.04389099999
 21
19251.1344355
 31
0.0
  0
LINE
  5
3926
  8
2-0
  6
CONTINUOUS
 62
     3
 10
25514.042333999991
 20
18518.940191999998
 30
0.0
 11
25521.04389099999
 21
18518.940191999998
 31
0.0
  0
LINE
  5
3927
  8
2-0
  6
CONTINUOUS
 62
     3
 10
25521.04389099999
 20
18518.940191999998
 30
0.0
 11
25521.04389099999
 21
18523.946393999991
 31
0.0
  0
LINE
  5
3928
  8
2-0
  6
CONTINUOUS
 62
     3
 10
25521.04389099999
 20
18523.946393999991
 30
0.0
 11
25496.04653099996
 21
18523.946393999991
 31
0.0
  0
LINE
  5
3929
  8
2-0
  6
CONTINUOUS
 62
     3
 10
25496.04653099996
 20
18523.946393999991
 30
0.0
 11
25496.04653099996
 21
18505.944651999998
 31
0.0
  0
LINE
  5
392A
  8
2-0
  6
CONTINUOUS
 62
     3
 10
25496.04653099996
 20
18505.944651999998
 30
0.0
 11
25526.044154999981
 21
18505.944651999998
 31
0.0
  0
LINE
  5
392B
  8
2-0
  6
CONTINUOUS
 62
     3
 10
25496.04653099996
 20
18522.036158999981
 30
0.0
 11
25496.04653099996
 21
18516.040196999991
 31
0.0
  0
LINE
  5
392C
  8
2-0
  6
CONTINUOUS
 62
     3
 10
25496.04653099996
 20
18516.040196999991
 30
0.0
 11
25526.044154999981
 21
18516.040196999991
 31
0.0
  0
LINE
  5
392D
  8
2-0
  6
CONTINUOUS
 62
     3
 10
25526.044154999981
 20
18516.040196999991
 30
0.0
 11
25526.044154999981
 21
18553.039379000002
 31
0.0
  0
LINE
  5
392E
  8
2-0
  6
CONTINUOUS
 62
     3
 10
25496.04653099996
 20
18553.039379000002
 30
0.0
 11
25526.044154999981
 21
18553.039379000002
 31
0.0
  0
LINE
  5
392F
  8
2-0
  6
CONTINUOUS
 62
     3
 10
25496.04653099996
 20
18547.043416999979
 30
0.0
 11
25496.04653099996
 21
18553.039379000002
 31
0.0
  0
LINE
  5
3930
  8
2-0
  6
CONTINUOUS
 62
     3
 10
25496.04653099996
 20
18563.134924000002
 30
0.0
 11
25526.044154999981
 21
18563.134924000002
 31
0.0
  0
LINE
  5
3931
  8
2-0
  6
CONTINUOUS
 62
     3
 10
25496.04653099996
 20
18545.133182000001
 30
0.0
 11
25496.04653099996
 21
18563.134924000002
 31
0.0
  0
LINE
  5
3932
  8
2-0
  6
CONTINUOUS
 62
     3
 10
25521.04389099999
 20
18545.133182000001
 30
0.0
 11
25496.04653099996
 21
18545.133182000001
 31
0.0
  0
LINE
  5
3933
  8
2-0
  6
CONTINUOUS
 62
     3
 10
25521.04389099999
 20
18550.139383999991
 30
0.0
 11
25521.04389099999
 21
18545.133182000001
 31
0.0
  0
LINE
  5
3934
  8
2-0
  6
CONTINUOUS
 62
     3
 10
25514.042333999991
 20
18550.139383999991
 30
0.0
 11
25521.04389099999
 21
18550.139383999991
 31
0.0
  0
LINE
  5
3935
  8
2-0
  6
CONTINUOUS
 62
     3
 10
25514.042333999991
 20
17849.133446
 30
0.0
 11
25521.04389099999
 21
17849.133446
 31
0.0
  0
LINE
  5
3936
  8
2-0
  6
CONTINUOUS
 62
     3
 10
25521.04389099999
 20
17849.133446
 30
0.0
 11
25521.04389099999
 21
17844.145058999991
 31
0.0
  0
LINE
  5
3937
  8
2-0
  6
CONTINUOUS
 62
     3
 10
25521.04389099999
 20
17844.145058999991
 30
0.0
 11
25496.04653099996
 21
17844.145058999991
 31
0.0
  0
LINE
  5
3938
  8
2-0
  6
CONTINUOUS
 62
     3
 10
25496.04653099996
 20
17844.145058999991
 30
0.0
 11
25496.04653099996
 21
17862.140862000011
 31
0.0
  0
LINE
  5
3939
  8
2-0
  6
CONTINUOUS
 62
     3
 10
25496.04653099996
 20
17862.140862000011
 30
0.0
 11
25526.044154999981
 21
17862.140862000011
 31
0.0
  0
LINE
  5
393A
  8
2-0
  6
CONTINUOUS
 62
     3
 10
25496.04653099996
 20
17846.043417000012
 30
0.0
 11
25496.04653099996
 21
17852.039379000002
 31
0.0
  0
LINE
  5
393B
  8
2-0
  6
CONTINUOUS
 62
     3
 10
25496.04653099996
 20
17852.039379000002
 30
0.0
 11
25526.044154999981
 21
17852.039379000002
 31
0.0
  0
LINE
  5
393C
  8
2-0
  6
CONTINUOUS
 62
     3
 10
25526.044154999981
 20
17852.039379000002
 30
0.0
 11
25526.044154999981
 21
17815.040196999991
 31
0.0
  0
LINE
  5
393D
  8
2-0
  6
CONTINUOUS
 62
     3
 10
25496.04653099996
 20
17815.040196999991
 30
0.0
 11
25526.044154999981
 21
17815.040196999991
 31
0.0
  0
LINE
  5
393E
  8
2-0
  6
CONTINUOUS
 62
     3
 10
25496.04653099996
 20
17821.042098000002
 30
0.0
 11
25496.04653099996
 21
17815.040196999991
 31
0.0
  0
LINE
  5
393F
  8
2-0
  6
CONTINUOUS
 62
     3
 10
25496.04653099996
 20
17804.950591000012
 30
0.0
 11
25526.044154999981
 21
17804.950591000012
 31
0.0
  0
LINE
  5
3940
  8
2-0
  6
CONTINUOUS
 62
     3
 10
25496.04653099996
 20
17822.946393999991
 30
0.0
 11
25496.04653099996
 21
17804.950591000012
 31
0.0
  0
LINE
  5
3941
  8
2-0
  6
CONTINUOUS
 62
     3
 10
25521.04389099999
 20
17822.946393999991
 30
0.0
 11
25496.04653099996
 21
17822.946393999991
 31
0.0
  0
LINE
  5
3942
  8
2-0
  6
CONTINUOUS
 62
     3
 10
25521.04389099999
 20
17817.946131000012
 30
0.0
 11
25521.04389099999
 21
17822.946393999991
 31
0.0
  0
LINE
  5
3943
  8
2-0
  6
CONTINUOUS
 62
     3
 10
25514.042333999991
 20
17817.946131000012
 30
0.0
 11
25521.04389099999
 21
17817.946131000012
 31
0.0
  0
LINE
  5
3944
  8
2-0
  6
CONTINUOUS
 62
     3
 10
25523.15801699998
 20
17098.037016999999
 30
0.0
 11
25523.15801699998
 21
17118.038071999988
 31
0.0
  0
LINE
  5
3945
  8
2-0
  6
CONTINUOUS
 62
     3
 10
25523.15801699998
 20
17118.038071999988
 30
0.0
 11
25438.161447999981
 21
17118.038071999988
 31
0.0
  0
LINE
  5
3946
  8
2-0
  6
CONTINUOUS
 62
     3
 10
25514.042333999991
 20
17144.64478200001
 30
0.0
 11
25521.04389099999
 21
17144.64478200001
 31
0.0
  0
LINE
  5
3947
  8
2-0
  6
CONTINUOUS
 62
     3
 10
25521.04389099999
 20
17144.64478200001
 30
0.0
 11
25521.04389099999
 21
17139.65045600001
 31
0.0
  0
LINE
  5
3948
  8
2-0
  6
CONTINUOUS
 62
     3
 10
25521.04389099999
 20
17139.65045600001
 30
0.0
 11
25496.04653099996
 21
17139.65045600001
 31
0.0
  0
LINE
  5
3949
  8
2-0
  6
CONTINUOUS
 62
     3
 10
25496.04653099996
 20
17139.65045600001
 30
0.0
 11
25496.04653099996
 21
17157.646260000001
 31
0.0
  0
LINE
  5
394A
  8
2-0
  6
CONTINUOUS
 62
     3
 10
25496.04653099996
 20
17157.646260000001
 30
0.0
 11
25526.044154999981
 21
17157.646260000001
 31
0.0
  0
LINE
  5
394B
  8
2-0
  6
CONTINUOUS
 62
     3
 10
25496.04653099996
 20
17148.037676
 30
0.0
 11
25496.04653099996
 21
17142.035776000001
 31
0.0
  0
LINE
  5
394C
  8
2-0
  6
CONTINUOUS
 62
     3
 10
25526.044154999981
 20
17148.037676
 30
0.0
 11
25496.04653099996
 21
17148.037676
 31
0.0
  0
LINE
  5
394D
  8
2-0
  6
CONTINUOUS
 62
     3
 10
25526.044154999981
 20
17157.646260000001
 30
0.0
 11
25526.044154999981
 21
17804.950591000012
 31
0.0
  0
LINE
  5
394E
  8
2-0
  6
CONTINUOUS
 62
     3
 10
25526.044154999981
 20
17862.140862000011
 30
0.0
 11
25526.044154999981
 21
18505.944651999998
 31
0.0
  0
LINE
  5
394F
  8
2-0
  6
CONTINUOUS
 62
     3
 10
25526.044154999981
 20
17003.035961000009
 30
0.0
 11
25496.04653099996
 21
17003.035961000009
 31
0.0
  0
LINE
  5
3950
  8
2-0
  6
CONTINUOUS
 62
     3
 10
25496.04653099996
 20
17003.035961000009
 30
0.0
 11
25496.04653099996
 21
17009.037861000012
 31
0.0
  0
LINE
  5
3951
  8
2-0
  6
CONTINUOUS
 62
     3
 10
25438.161447999981
 20
17033.041504000012
 30
0.0
 11
25523.15801699998
 21
17033.041504000012
 31
0.0
  0
LINE
  5
3952
  8
2-0
  6
CONTINUOUS
 62
     3
 10
25523.15801699998
 20
17033.041504000012
 30
0.0
 11
25523.15801699998
 21
17053.03662100001
 31
0.0
  0
LINE
  5
3953
  8
2-0
  6
CONTINUOUS
 62
     3
 10
25496.04653099996
 20
16993.427378000011
 30
0.0
 11
25526.044154999981
 21
16993.427378000011
 31
0.0
  0
LINE
  5
3954
  8
2-0
  6
CONTINUOUS
 62
     3
 10
25496.04653099996
 20
17011.423180999991
 30
0.0
 11
25496.04653099996
 21
16993.427378000011
 31
0.0
  0
LINE
  5
3955
  8
2-0
  6
CONTINUOUS
 62
     3
 10
25521.04389099999
 20
17011.423180999991
 30
0.0
 11
25496.04653099996
 21
17011.423180999991
 31
0.0
  0
LINE
  5
3956
  8
2-0
  6
CONTINUOUS
 62
     3
 10
25521.04389099999
 20
17006.422917000011
 30
0.0
 11
25521.04389099999
 21
17011.423180999991
 31
0.0
  0
LINE
  5
3957
  8
2-0
  6
CONTINUOUS
 62
     3
 10
25514.042333999991
 20
17006.422917000011
 30
0.0
 11
25521.04389099999
 21
17006.422917000011
 31
0.0
  0
LINE
  5
3958
  8
2-0
  6
CONTINUOUS
 62
     3
 10
25514.042333999991
 20
16301.94068649998
 30
0.0
 11
25521.04389099999
 21
16301.94068649998
 31
0.0
  0
LINE
  5
3959
  8
2-0
  6
CONTINUOUS
 62
     3
 10
25521.04389099999
 20
16301.94068649998
 30
0.0
 11
25521.04389099999
 21
16306.94095049998
 31
0.0
  0
LINE
  5
395A
  8
2-0
  6
CONTINUOUS
 62
     3
 10
25521.04389099999
 20
16306.94095049998
 30
0.0
 11
25496.04653099996
 21
16306.94095049998
 31
0.0
  0
LINE
  5
395B
  8
2-0
  6
CONTINUOUS
 62
     3
 10
25496.04653099996
 20
16306.94095049998
 30
0.0
 11
25496.04653099996
 21
16288.9392085
 31
0.0
  0
LINE
  5
395C
  8
2-0
  6
CONTINUOUS
 62
     3
 10
25496.04653099996
 20
16288.9392085
 30
0.0
 11
25526.044154999981
 21
16288.9392085
 31
0.0
  0
LINE
  5
395D
  8
2-0
  6
CONTINUOUS
 62
     3
 10
25496.04653099996
 20
16305.036653499999
 30
0.0
 11
25496.04653099996
 21
16299.0397025
 31
0.0
  0
LINE
  5
395E
  8
2-0
  6
CONTINUOUS
 62
     3
 10
25496.04653099996
 20
16299.0397025
 30
0.0
 11
25526.044154999981
 21
16299.0397025
 31
0.0
  0
LINE
  5
395F
  8
2-0
  6
CONTINUOUS
 62
     3
 10
25526.044154999981
 20
16299.0397025
 30
0.0
 11
25526.044154999981
 21
16336.0398735
 31
0.0
  0
LINE
  5
3960
  8
2-0
  6
CONTINUOUS
 62
     3
 10
25496.04653099996
 20
16336.0398735
 30
0.0
 11
25526.044154999981
 21
16336.0398735
 31
0.0
  0
LINE
  5
3961
  8
2-0
  6
CONTINUOUS
 62
     3
 10
25496.04653099996
 20
16330.0369835
 30
0.0
 11
25496.04653099996
 21
16336.0398735
 31
0.0
  0
LINE
  5
3962
  8
2-0
  6
CONTINUOUS
 62
     3
 10
25496.04653099996
 20
16346.135418499989
 30
0.0
 11
25526.044154999981
 21
16346.135418499989
 31
0.0
  0
LINE
  5
3963
  8
2-0
  6
CONTINUOUS
 62
     3
 10
25496.04653099996
 20
16328.127737500001
 30
0.0
 11
25496.04653099996
 21
16346.135418499989
 31
0.0
  0
LINE
  5
3964
  8
2-0
  6
CONTINUOUS
 62
     3
 10
25521.04389099999
 20
16328.127737500001
 30
0.0
 11
25496.04653099996
 21
16328.127737500001
 31
0.0
  0
LINE
  5
3965
  8
2-0
  6
CONTINUOUS
 62
     3
 10
25521.04389099999
 20
16333.133940499991
 30
0.0
 11
25521.04389099999
 21
16328.127737500001
 31
0.0
  0
LINE
  5
3966
  8
2-0
  6
CONTINUOUS
 62
     3
 10
25514.042333999991
 20
16333.133940499991
 30
0.0
 11
25521.04389099999
 21
16333.133940499991
 31
0.0
  0
LINE
  5
3967
  8
2-0
  6
CONTINUOUS
 62
     3
 10
25514.042333999991
 20
15632.373957
 30
0.0
 11
25521.04389099999
 21
15632.373957
 31
0.0
  0
LINE
  5
3968
  8
2-0
  6
CONTINUOUS
 62
     3
 10
25521.04389099999
 20
15632.373957
 30
0.0
 11
25521.04389099999
 21
15627.379632
 31
0.0
  0
LINE
  5
3969
  8
2-0
  6
CONTINUOUS
 62
     3
 10
25521.04389099999
 20
15627.379632
 30
0.0
 11
25496.04653099996
 21
15627.379632
 31
0.0
  0
LINE
  5
396A
  8
2-0
  6
CONTINUOUS
 62
     3
 10
25496.04653099996
 20
15627.379632
 30
0.0
 11
25496.04653099996
 21
15645.375435000011
 31
0.0
  0
LINE
  5
396B
  8
2-0
  6
CONTINUOUS
 62
     3
 10
25496.04653099996
 20
15645.375435000011
 30
0.0
 11
25526.044154999981
 21
15645.375435000011
 31
0.0
  0
LINE
  5
396C
  8
2-0
  6
CONTINUOUS
 62
     3
 10
25496.04653099996
 20
15629.277990000001
 30
0.0
 11
25496.04653099996
 21
15635.27989000002
 31
0.0
  0
LINE
  5
396D
  8
2-0
  6
CONTINUOUS
 62
     3
 10
25496.04653099996
 20
15635.27989000002
 30
0.0
 11
25526.044154999981
 21
15635.27989000002
 31
0.0
  0
LINE
  5
396E
  8
2-0
  6
CONTINUOUS
 62
     3
 10
25526.044154999981
 20
15598.280709000001
 30
0.0
 11
25526.044154999981
 21
15635.27989000002
 31
0.0
  0
LINE
  5
396F
  8
2-0
  6
CONTINUOUS
 62
     3
 10
25496.04653099996
 20
15598.280709000001
 30
0.0
 11
25526.044154999981
 21
15598.280709000001
 31
0.0
  0
LINE
  5
3970
  8
2-0
  6
CONTINUOUS
 62
     3
 10
25496.04653099996
 20
15604.27766
 30
0.0
 11
25496.04653099996
 21
15598.280709000001
 31
0.0
  0
LINE
  5
3971
  8
2-0
  6
CONTINUOUS
 62
     3
 10
25496.04653099996
 20
15588.179225
 30
0.0
 11
25526.044154999981
 21
15588.179225
 31
0.0
  0
LINE
  5
3972
  8
2-0
  6
CONTINUOUS
 62
     3
 10
25496.04653099996
 20
15606.186906000001
 30
0.0
 11
25496.04653099996
 21
15588.179225
 31
0.0
  0
LINE
  5
3973
  8
2-0
  6
CONTINUOUS
 62
     3
 10
25521.04389099999
 20
15606.186906000001
 30
0.0
 11
25496.04653099996
 21
15606.186906000001
 31
0.0
  0
LINE
  5
3974
  8
2-0
  6
CONTINUOUS
 62
     3
 10
25521.04389099999
 20
15601.186642000001
 30
0.0
 11
25521.04389099999
 21
15606.186906000001
 31
0.0
  0
LINE
  5
3975
  8
2-0
  6
CONTINUOUS
 62
     3
 10
25514.042333999991
 20
15601.186642000001
 30
0.0
 11
25521.04389099999
 21
15601.186642000001
 31
0.0
  0
LINE
  5
3976
  8
2-0
  6
CONTINUOUS
 62
     3
 10
25526.044154999981
 20
16993.427378000011
 30
0.0
 11
25526.044154999981
 21
16346.135418499989
 31
0.0
  0
LINE
  5
3977
  8
2-0
  6
CONTINUOUS
 62
     3
 10
25526.044154999981
 20
17148.037676
 30
0.0
 11
25526.044154999981
 21
17003.035961000009
 31
0.0
  0
LINE
  5
3978
  8
2-0
  6
CONTINUOUS
 62
     3
 10
25438.161447999981
 20
17118.038071999988
 30
0.0
 11
25438.161447999981
 21
17033.041504000012
 31
0.0
  0
LINE
  5
3979
  8
2-0
  6
CONTINUOUS
 62
     6
 10
23899.952780999971
 20
18886.485337499991
 30
0.0
 11
24924.985112999992
 21
18886.485337499991
 31
0.0
  0
LINE
  5
397A
  8
2-0
  6
CONTINUOUS
 62
     3
 10
25496.04653099996
 20
14574.541714999999
 30
0.0
 11
25496.04653099996
 21
14580.546584
 31
0.0
  0
LINE
  5
397B
  8
2-0
  6
CONTINUOUS
 62
     3
 10
25496.04653099996
 20
14580.546584
 30
0.0
 11
25526.044154999981
 21
14580.546584
 31
0.0
  0
LINE
  5
397C
  8
2-0
  6
CONTINUOUS
 62
     3
 10
25526.044154999981
 20
14580.546584
 30
0.0
 11
25526.044154999981
 21
14465.542493000001
 31
0.0
  0
LINE
  5
397D
  8
2-0
  6
CONTINUOUS
 62
     3
 10
25526.044154999981
 20
14465.542493000001
 30
0.0
 11
25441.045606999971
 21
14465.542493000001
 31
0.0
  0
LINE
  5
397E
  8
2-0
  6
CONTINUOUS
 62
     3
 10
25441.045606999971
 20
14465.542493000001
 30
0.0
 11
25441.045606999971
 21
14550.538071999999
 31
0.0
  0
LINE
  5
397F
  8
2-0
  6
CONTINUOUS
 62
     3
 10
25441.045606999971
 20
14550.538071999999
 30
0.0
 11
25473.044524999968
 21
14550.538071999999
 31
0.0
  0
LINE
  5
3980
  8
2-0
  6
CONTINUOUS
 62
     3
 10
25514.042333999991
 20
14577.576316999999
 30
0.0
 11
25521.04389099999
 21
14577.576316999999
 31
0.0
  0
LINE
  5
3981
  8
2-0
  6
CONTINUOUS
 62
     3
 10
25521.04389099999
 20
14577.576316999999
 30
0.0
 11
25521.04389099999
 21
14572.57902199998
 31
0.0
  0
LINE
  5
3982
  8
2-0
  6
CONTINUOUS
 62
     3
 10
25521.04389099999
 20
14572.57902199998
 30
0.0
 11
25496.04653099996
 21
14572.57902199998
 31
0.0
  0
LINE
  5
3983
  8
2-0
  6
CONTINUOUS
 62
     3
 10
25496.04653099996
 20
14572.57902199998
 30
0.0
 11
25496.04653099996
 21
14590.57779499999
 31
0.0
  0
LINE
  5
3984
  8
2-0
  6
CONTINUOUS
 62
     3
 10
25496.04653099996
 20
14590.57779499999
 30
0.0
 11
25526.044154999981
 21
14590.57779499999
 31
0.0
  0
LINE
  5
3985
  8
2-0
  6
CENTER2
 62
     6
 10
25483.54587099998
 20
14268.044934999991
 30
0.0
 11
25483.54587099998
 21
15073.41369300001
 31
0.0
  0
LINE
  5
3986
  8
2-0
  6
CONTINUOUS
 62
     3
 10
25526.044154999981
 20
18563.134924000002
 30
0.0
 11
25526.044154999981
 21
19206.945641499991
 31
0.0
  0
LINE
  5
3987
  8
2-0
  6
CONTINUOUS
 62
     6
 10
26218.549037999968
 20
20415.540976000011
 30
0.0
 11
27418.543099999959
 21
20415.540976000011
 31
0.0
  0
LINE
  5
3988
  8
2-0
  6
CONTINUOUS
 62
     3
 10
22287.547718999991
 20
19685.538073000022
 30
0.0
 11
22287.547718999991
 21
19655.534510000001
 31
0.0
  0
LINE
  5
3989
  8
2-0
  6
CONTINUOUS
 62
     3
 10
22287.547718999991
 20
19655.534510000001
 30
0.0
 11
22281.54977699996
 21
19655.534510000001
 31
0.0
  0
LINE
  5
398A
  8
2-0
  6
CONTINUOUS
 62
     3
 10
22297.164219999999
 20
19655.534510000001
 30
0.0
 11
22297.164219999999
 21
19685.538073000022
 31
0.0
  0
LINE
  5
398B
  8
2-0
  6
CONTINUOUS
 62
     3
 10
22279.16247799998
 20
19655.534510000001
 30
0.0
 11
22297.164219999999
 21
19655.534510000001
 31
0.0
  0
LINE
  5
398C
  8
2-0
  6
CONTINUOUS
 62
     3
 10
22279.16247799998
 20
19680.543747000011
 30
0.0
 11
22279.16247799998
 21
19655.534510000001
 31
0.0
  0
LINE
  5
398D
  8
2-0
  6
CONTINUOUS
 62
     3
 10
22284.162741999971
 20
19680.543747000011
 30
0.0
 11
22279.16247799998
 21
19680.543747000011
 31
0.0
  0
LINE
  5
398E
  8
2-0
  6
CONTINUOUS
 62
     3
 10
22284.162741999971
 20
19673.538230999999
 30
0.0
 11
22284.162741999971
 21
19680.543747000011
 31
0.0
  0
LINE
  5
398F
  8
2-0
  6
CONTINUOUS
 62
     3
 10
22257.54613499999
 20
19682.645996000021
 30
0.0
 11
22257.54613499999
 21
19597.647448000022
 31
0.0
  0
LINE
  5
3990
  8
2-0
  6
CONTINUOUS
 62
     3
 10
22237.549038000001
 20
19682.645996000021
 30
0.0
 11
22257.54613499999
 21
19682.645996000021
 31
0.0
  0
LINE
  5
3991
  8
2-0
  6
CONTINUOUS
 62
     3
 10
22145.934938999992
 20
19673.538230999999
 30
0.0
 11
22145.934938999992
 21
19680.543747000011
 31
0.0
  0
LINE
  5
3992
  8
2-0
  6
CONTINUOUS
 62
     3
 10
22145.934938999992
 20
19680.543747000011
 30
0.0
 11
22150.935202999961
 21
19680.543747000011
 31
0.0
  0
LINE
  5
3993
  8
2-0
  6
CONTINUOUS
 62
     3
 10
22150.935202999961
 20
19680.543747000011
 30
0.0
 11
22150.935202999961
 21
19655.534510000001
 31
0.0
  0
LINE
  5
3994
  8
2-0
  6
CONTINUOUS
 62
     3
 10
22150.935202999961
 20
19655.534510000001
 30
0.0
 11
22132.933460999961
 21
19655.534510000001
 31
0.0
  0
LINE
  5
3995
  8
2-0
  6
CONTINUOUS
 62
     3
 10
22132.933460999961
 20
19655.534510000001
 30
0.0
 11
22132.933460999961
 21
19685.538073000022
 31
0.0
  0
LINE
  5
3996
  8
2-0
  6
CONTINUOUS
 62
     3
 10
22172.553524999988
 20
19682.645996000021
 30
0.0
 11
22192.54864199998
 21
19682.645996000021
 31
0.0
  0
LINE
  5
3997
  8
2-0
  6
CONTINUOUS
 62
     3
 10
22172.553524999988
 20
19597.647448000022
 30
0.0
 11
22172.553524999988
 21
19682.645996000021
 31
0.0
  0
LINE
  5
3998
  8
2-0
  6
CONTINUOUS
 62
     3
 10
22142.555900999989
 20
19655.534510000001
 30
0.0
 11
22148.551861999971
 21
19655.534510000001
 31
0.0
  0
LINE
  5
3999
  8
2-0
  6
CONTINUOUS
 62
     3
 10
22142.555900999989
 20
19685.538073000022
 30
0.0
 11
22142.555900999989
 21
19655.534510000001
 31
0.0
  0
LINE
  5
399A
  8
2-0
  6
CONTINUOUS
 62
     3
 10
22257.54613499999
 20
19597.647448000022
 30
0.0
 11
22172.553524999988
 21
19597.647448000022
 31
0.0
  0
LINE
  5
399B
  8
2-0
  6
CONTINUOUS
 62
     3
 10
22287.547718999991
 20
19685.538073000022
 30
0.0
 11
22142.555900999989
 21
19685.538073000022
 31
0.0
  0
LINE
  5
399C
  8
2-0
  6
CONTINUOUS
 62
     6
 10
25356.51620499996
 20
19128.639845500002
 30
0.0
 11
24924.985112999992
 21
18886.485337499991
 31
0.0
  0
LINE
  5
399D
  8
2-0
  6
CONTINUOUS
 62
     6
 10
25678.08503899995
 20
19828.217813000021
 30
0.0
 11
26218.549037999968
 21
20415.540976000011
 31
0.0
  0
LINE
  5
399E
  8
2-0
  6
CONTINUOUS
 62
     6
 10
22257.54613499999
 20
14550.538071999999
 30
0.0
 11
22534.136347999982
 21
15005.882772000001
 31
0.0
  0
LINE
  5
399F
  8
2-0
  6
CONTINUOUS
 62
     6
 10
22534.136347999982
 20
15005.882772000001
 30
0.0
 11
23564.485666999961
 21
15005.882772000001
 31
0.0
  0
LINE
  5
39A0
  8
2-0
  6
CONTINUOUS
 62
     3
 10
25526.044154999981
 20
16288.9392085
 30
0.0
 11
25526.044154999981
 21
15645.375435000011
 31
0.0
  0
LINE
  5
39A1
  8
2-0
  6
CONTINUOUS
 62
     6
 10
22317.824454999991
 20
14701.13390699999
 30
0.0
 11
22257.54613499999
 21
14550.538071999999
 31
0.0
  0
LINE
  5
39A2
  8
2-0
  6
CONTINUOUS
 62
     6
 10
22257.54613499999
 20
14550.538071999999
 30
0.0
 11
22363.404849999952
 21
14673.446381
 31
0.0
  0
LINE
  5
39A3
  8
2-0
  6
CONTINUOUS
 62
     6
 10
22317.824454999991
 20
14701.13390699999
 30
0.0
 11
22363.404849999952
 21
14673.446381
 31
0.0
  0
LINE
  5
39A4
  8
2-0
  6
CONTINUOUS
 62
     6
 10
22363.404849999952
 20
14673.446381
 30
0.0
 11
22257.54613499999
 21
14550.538071999999
 31
0.0
  0
LINE
  5
39A5
  8
2-0
  6
CONTINUOUS
 62
     6
 10
22257.54613499999
 20
14550.538071999999
 30
0.0
 11
22317.824454999991
 21
14701.13390699999
 31
0.0
  0
LINE
  5
39A6
  8
2-0
  6
CONTINUOUS
 62
     6
 10
22317.824454999991
 20
14701.13390699999
 30
0.0
 11
22257.54613499999
 21
14550.538071999999
 31
0.0
  0
LINE
  5
39A7
  8
2-0
  6
CONTINUOUS
 62
     6
 10
22363.404849999952
 20
14673.446381
 30
0.0
 11
22257.54613499999
 21
14550.538071999999
 31
0.0
  0
LINE
  5
39A8
  8
2-0
  6
CONTINUOUS
 62
     6
 10
22363.404849999952
 20
14673.446381
 30
0.0
 11
22317.824454999991
 21
14701.13390699999
 31
0.0
  0
LINE
  5
39A9
  8
2-0
  6
CONTINUOUS
 62
     6
 10
25343.45929999997
 20
19151.8991895
 30
0.0
 11
25496.04653099996
 21
19206.945641499991
 31
0.0
  0
LINE
  5
39AA
  8
2-0
  6
CONTINUOUS
 62
     6
 10
25496.04653099996
 20
19206.945641499991
 30
0.0
 11
25369.565190999969
 21
19105.386441499992
 31
0.0
  0
LINE
  5
39AB
  8
2-0
  6
CONTINUOUS
 62
     6
 10
25343.45929999997
 20
19151.8991895
 30
0.0
 11
25369.565190999969
 21
19105.386441499992
 31
0.0
  0
LINE
  5
39AC
  8
2-0
  6
CONTINUOUS
 62
     6
 10
25369.565190999969
 20
19105.386441499992
 30
0.0
 11
25496.04653099996
 21
19206.945641499991
 31
0.0
  0
LINE
  5
39AD
  8
2-0
  6
CONTINUOUS
 62
     6
 10
25496.04653099996
 20
19206.945641499991
 30
0.0
 11
25343.45929999997
 21
19151.8991895
 31
0.0
  0
LINE
  5
39AE
  8
2-0
  6
CONTINUOUS
 62
     6
 10
25343.45929999997
 20
19151.8991895
 30
0.0
 11
25496.04653099996
 21
19206.945641499991
 31
0.0
  0
LINE
  5
39AF
  8
2-0
  6
CONTINUOUS
 62
     6
 10
25369.565190999969
 20
19105.386441499992
 30
0.0
 11
25496.04653099996
 21
19206.945641499991
 31
0.0
  0
LINE
  5
39B0
  8
2-0
  6
CONTINUOUS
 62
     6
 10
25369.565190999969
 20
19105.386441499992
 30
0.0
 11
25343.45929999997
 21
19151.8991895
 31
0.0
  0
LINE
  5
39B1
  8
2-0
  6
CONTINUOUS
 62
     6
 10
25697.70206799998
 20
19810.15668600002
 30
0.0
 11
25569.740047999981
 21
19710.47406800001
 31
0.0
  0
LINE
  5
39B2
  8
2-0
  6
CONTINUOUS
 62
     6
 10
25569.740047999981
 20
19710.47406800001
 30
0.0
 11
25658.454152999981
 21
19846.271023000001
 31
0.0
  0
LINE
  5
39B3
  8
2-0
  6
CONTINUOUS
 62
     6
 10
25697.70206799998
 20
19810.15668600002
 30
0.0
 11
25658.454152999981
 21
19846.271023000001
 31
0.0
  0
LINE
  5
39B4
  8
2-0
  6
CONTINUOUS
 62
     6
 10
25658.454152999981
 20
19846.271023000001
 30
0.0
 11
25569.740047999981
 21
19710.47406800001
 31
0.0
  0
LINE
  5
39B5
  8
2-0
  6
CONTINUOUS
 62
     6
 10
25569.740047999981
 20
19710.47406800001
 30
0.0
 11
25697.70206799998
 21
19810.15668600002
 31
0.0
  0
LINE
  5
39B6
  8
2-0
  6
CONTINUOUS
 62
     6
 10
25697.70206799998
 20
19810.15668600002
 30
0.0
 11
25569.740047999981
 21
19710.47406800001
 31
0.0
  0
LINE
  5
39B7
  8
2-0
  6
CONTINUOUS
 62
     6
 10
25658.454152999981
 20
19846.271023000001
 30
0.0
 11
25569.740047999981
 21
19710.47406800001
 31
0.0
  0
LINE
  5
39B8
  8
2-0
  6
CONTINUOUS
 62
     6
 10
25658.454152999981
 20
19846.271023000001
 30
0.0
 11
25697.70206799998
 21
19810.15668600002
 31
0.0
  0
LINE
  5
39B9
  8
2-0
  6
CONTINUOUS
 62
     6
 10
20838.981549999971
 20
19437.765691000011
 30
0.0
 11
20970.914483
 21
18968.419856
 31
0.0
  0
LINE
  5
39BA
  8
2-0
  6
CONTINUOUS
 62
     6
 10
20970.914483
 20
18968.419856
 30
0.0
 11
21995.952753999969
 21
18968.419856
 31
0.0
  0
LINE
  5
39BB
  8
2-0
  6
CONTINUOUS
 62
     6
 10
20795.687498999989
 20
19591.794011000009
 30
0.0
 11
20813.30917299998
 21
19430.548366000021
 31
0.0
  0
LINE
  5
39BC
  8
2-0
  6
CONTINUOUS
 62
     6
 10
20864.653925999999
 20
19444.986975000022
 30
0.0
 11
20813.30917299998
 21
19430.548366000021
 31
0.0
  0
LINE
  5
39BD
  8
2-0
  6
CONTINUOUS
 62
     6
 10
20813.30917299998
 20
19430.548366000021
 30
0.0
 11
20795.687498999989
 21
19591.794011000009
 31
0.0
  0
LINE
  5
39BE
  8
2-0
  6
CONTINUOUS
 62
     6
 10
20795.687498999989
 20
19591.794011000009
 30
0.0
 11
20864.653925999999
 21
19444.986975000022
 31
0.0
  0
LINE
  5
39BF
  8
2-0
  6
CONTINUOUS
 62
     6
 10
20864.653925999999
 20
19444.986975000022
 30
0.0
 11
20795.687498999989
 21
19591.794011000009
 31
0.0
  0
LINE
  5
39C0
  8
2-0
  6
CONTINUOUS
 62
     6
 10
20813.30917299998
 20
19430.548366000021
 30
0.0
 11
20795.687498999989
 21
19591.794011000009
 31
0.0
  0
LINE
  5
39C1
  8
2-0
  6
CONTINUOUS
 62
     6
 10
20813.30917299998
 20
19430.548366000021
 30
0.0
 11
20864.653925999999
 21
19444.986975000022
 31
0.0
  0
LINE
  5
39C2
  8
2-0
  6
CONTINUOUS
 62
     6
 10
22256.469276999971
 20
19566.786753000011
 30
0.0
 11
22405.338972000001
 21
19037.164577
 31
0.0
  0
LINE
  5
39C3
  8
2-0
  6
CONTINUOUS
 62
     6
 10
22405.338972000001
 20
19037.164577
 30
0.0
 11
23430.383180999968
 21
19037.164577
 31
0.0
  0
LINE
  5
39C4
  8
2-0
  6
CONTINUOUS
 62
     6
 10
22274.092930999959
 20
19405.541108000001
 30
0.0
 11
22325.443621999992
 21
19419.975758
 31
0.0
  0
LINE
  5
39C5
  8
2-0
  6
CONTINUOUS
 62
     6
 10
22325.443621999992
 20
19419.975758
 30
0.0
 11
22274.092930999959
 21
19405.541108000001
 31
0.0
  0
LINE
  5
39C6
  8
2-0
  6
CONTINUOUS
 62
     6
 10
22274.092930999959
 20
19405.541108000001
 30
0.0
 11
22256.469276999971
 21
19566.786753000011
 31
0.0
  0
LINE
  5
39C7
  8
2-0
  6
CONTINUOUS
 62
     6
 10
22256.469276999971
 20
19566.786753000011
 30
0.0
 11
22325.443621999992
 21
19419.975758
 31
0.0
  0
LINE
  5
39C8
  8
2-0
  6
CONTINUOUS
 62
     6
 10
22325.443621999992
 20
19419.975758
 30
0.0
 11
22256.469276999971
 21
19566.786753000011
 31
0.0
  0
LINE
  5
39C9
  8
2-0
  6
CONTINUOUS
 62
     6
 10
22274.092930999959
 20
19405.541108000001
 30
0.0
 11
22256.469276999971
 21
19566.786753000011
 31
0.0
  0
LINE
  5
39CA
  8
2-0
  6
CONTINUOUS
 62
     6
 10
22325.443621999992
 20
19419.975758
 30
0.0
 11
22256.469276999971
 21
19566.786753000011
 31
0.0
  0
LINE
  5
39CB
  8
2-0
  6
CONTINUOUS
 62
     6
 10
22256.469276999971
 20
19566.786753000011
 30
0.0
 11
22274.092930999959
 21
19405.541108000001
 31
0.0
  0
LINE
  5
39CC
  8
2-0
  6
CONTINUOUS
 62
     4
 10
22215.04587099998
 20
19765.540316000021
 30
0.0
 11
22215.04587099998
 21
20495.537281000012
 31
0.0
  0
LINE
  5
39CD
  8
2-0
  6
CONTINUOUS
 62
     6
 10
25249.406433999971
 20
14357.26975499999
 30
0.0
 11
25381.153292999988
 21
14451.896682000001
 31
0.0
  0
LINE
  5
39CE
  8
2-0
  6
CONTINUOUS
 62
     6
 10
25381.153292999988
 20
14451.896682000001
 30
0.0
 11
25287.22315699996
 21
14319.657911999981
 31
0.0
  0
LINE
  5
39CF
  8
2-0
  6
CONTINUOUS
 62
     6
 10
25249.406433999971
 20
14357.26975499999
 30
0.0
 11
25287.22315699996
 21
14319.657911999981
 31
0.0
  0
LINE
  5
39D0
  8
2-0
  6
CONTINUOUS
 62
     6
 10
25287.22315699996
 20
14319.657911999981
 30
0.0
 11
25381.153292999988
 21
14451.896682000001
 31
0.0
  0
LINE
  5
39D1
  8
2-0
  6
CONTINUOUS
 62
     6
 10
25381.153292999988
 20
14451.896682000001
 30
0.0
 11
25249.406433999971
 21
14357.26975499999
 31
0.0
  0
LINE
  5
39D2
  8
2-0
  6
CONTINUOUS
 62
     6
 10
25249.406433999971
 20
14357.26975499999
 30
0.0
 11
25381.153292999988
 21
14451.896682000001
 31
0.0
  0
LINE
  5
39D3
  8
2-0
  6
CONTINUOUS
 62
     6
 10
25287.22315699996
 20
14319.657911999981
 30
0.0
 11
25381.153292999988
 21
14451.896682000001
 31
0.0
  0
LINE
  5
39D4
  8
2-0
  6
CONTINUOUS
 62
     6
 10
25287.22315699996
 20
14319.657911999981
 30
0.0
 11
25249.406433999971
 21
14357.26975499999
 31
0.0
  0
LINE
  5
39D5
  8
2-0
  6
CONTINUOUS
 62
     6
 10
25312.44222299998
 20
14684.17438199999
 30
0.0
 11
25445.04225499996
 21
14590.746053999979
 31
0.0
  0
LINE
  5
39D6
  8
2-0
  6
CONTINUOUS
 62
     6
 10
25445.04225499996
 20
14590.746053999979
 30
0.0
 11
25289.309568999961
 21
14636.121568
 31
0.0
  0
LINE
  5
39D7
  8
2-0
  6
CONTINUOUS
 62
     6
 10
25312.44222299998
 20
14684.17438199999
 30
0.0
 11
25289.309568999961
 21
14636.121568
 31
0.0
  0
LINE
  5
39D8
  8
2-0
  6
CONTINUOUS
 62
     6
 10
25289.309568999961
 20
14636.121568
 30
0.0
 11
25445.04225499996
 21
14590.746053999979
 31
0.0
  0
LINE
  5
39D9
  8
2-0
  6
CONTINUOUS
 62
     6
 10
25445.04225499996
 20
14590.746053999979
 30
0.0
 11
25312.44222299998
 21
14684.17438199999
 31
0.0
  0
LINE
  5
39DA
  8
2-0
  6
CONTINUOUS
 62
     6
 10
25312.44222299998
 20
14684.17438199999
 30
0.0
 11
25445.04225499996
 21
14590.746053999979
 31
0.0
  0
LINE
  5
39DB
  8
2-0
  6
CONTINUOUS
 62
     6
 10
25289.309568999961
 20
14636.121568
 30
0.0
 11
25445.04225499996
 21
14590.746053999979
 31
0.0
  0
LINE
  5
39DC
  8
2-0
  6
CONTINUOUS
 62
     6
 10
25289.309568999961
 20
14636.121568
 30
0.0
 11
25312.44222299998
 21
14684.17438199999
 31
0.0
  0
LINE
  5
39DD
  8
2-0
  6
CONTINUOUS
 62
     6
 10
25372.205868999969
 20
16713.495315000011
 30
0.0
 11
25526.044154999981
 21
16764.92914600002
 31
0.0
  0
LINE
  5
39DE
  8
2-0
  6
CONTINUOUS
 62
     6
 10
25526.044154999981
 20
16764.92914600002
 30
0.0
 11
25397.209167999961
 21
16666.388711000011
 31
0.0
  0
LINE
  5
39DF
  8
2-0
  6
CONTINUOUS
 62
     6
 10
25372.205868999969
 20
16713.495315000011
 30
0.0
 11
25397.209167999961
 21
16666.388711000011
 31
0.0
  0
LINE
  5
39E0
  8
2-0
  6
CONTINUOUS
 62
     6
 10
25397.209167999961
 20
16666.388711000011
 30
0.0
 11
25526.044154999981
 21
16764.92914600002
 31
0.0
  0
LINE
  5
39E1
  8
2-0
  6
CONTINUOUS
 62
     6
 10
25526.044154999981
 20
16764.92914600002
 30
0.0
 11
25372.205868999969
 21
16713.495315000011
 31
0.0
  0
LINE
  5
39E2
  8
2-0
  6
CONTINUOUS
 62
     6
 10
25372.205868999969
 20
16713.495315000011
 30
0.0
 11
25526.044154999981
 21
16764.92914600002
 31
0.0
  0
LINE
  5
39E3
  8
2-0
  6
CONTINUOUS
 62
     6
 10
25397.209167999961
 20
16666.388711000011
 30
0.0
 11
25526.044154999981
 21
16764.92914600002
 31
0.0
  0
LINE
  5
39E4
  8
2-0
  6
CONTINUOUS
 62
     6
 10
25397.209167999961
 20
16666.388711000011
 30
0.0
 11
25372.205868999969
 21
16713.495315000011
 31
0.0
  0
LINE
  5
39E5
  8
2-0
  6
CONTINUOUS
 62
     6
 10
25238.269661999981
 20
17204.81380700002
 30
0.0
 11
25381.153292999988
 21
17128.038177999999
 31
0.0
  0
LINE
  5
39E6
  8
2-0
  6
CONTINUOUS
 62
     6
 10
25381.153292999988
 20
17128.038177999999
 30
0.0
 11
25221.091399999968
 21
17154.320247000011
 31
0.0
  0
LINE
  5
39E7
  8
2-0
  6
CONTINUOUS
 62
     6
 10
25238.269661999981
 20
17204.81380700002
 30
0.0
 11
25221.091399999968
 21
17154.320247000011
 31
0.0
  0
LINE
  5
39E8
  8
2-0
  6
CONTINUOUS
 62
     6
 10
25221.091399999968
 20
17154.320247000011
 30
0.0
 11
25381.153292999988
 21
17128.038177999999
 31
0.0
  0
LINE
  5
39E9
  8
2-0
  6
CONTINUOUS
 62
     6
 10
25381.153292999988
 20
17128.038177999999
 30
0.0
 11
25238.269661999981
 21
17204.81380700002
 31
0.0
  0
LINE
  5
39EA
  8
2-0
  6
CONTINUOUS
 62
     6
 10
25238.269661999981
 20
17204.81380700002
 30
0.0
 11
25381.153292999988
 21
17128.038177999999
 31
0.0
  0
LINE
  5
39EB
  8
2-0
  6
CONTINUOUS
 62
     6
 10
25221.091399999968
 20
17154.320247000011
 30
0.0
 11
25381.153292999988
 21
17128.038177999999
 31
0.0
  0
LINE
  5
39EC
  8
2-0
  6
CONTINUOUS
 62
     6
 10
25221.091399999968
 20
17154.320247000011
 30
0.0
 11
25238.269661999981
 21
17204.81380700002
 31
0.0
  0
LINE
  5
39ED
  8
2-0
  6
CONTINUOUS
 62
     3
 10
21475.546451999959
 20
19685.538073000022
 30
0.0
 11
21438.54528999998
 21
19685.538073000022
 31
0.0
  0
LINE
  5
39EE
  8
2-0
  6
CONTINUOUS
 62
     3
 10
21475.546451999959
 20
19655.534510000001
 30
0.0
 11
21475.546451999959
 21
19685.538073000022
 31
0.0
  0
LINE
  5
39EF
  8
2-0
  6
CONTINUOUS
 62
     3
 10
21469.546530999949
 20
19655.534510000001
 30
0.0
 11
21475.546451999959
 21
19655.534510000001
 31
0.0
  0
LINE
  5
39F0
  8
2-0
  6
CONTINUOUS
 62
     3
 10
21485.643975999981
 20
19655.534510000001
 30
0.0
 11
21485.643975999981
 21
19685.538073000022
 31
0.0
  0
LINE
  5
39F1
  8
2-0
  6
CONTINUOUS
 62
     3
 10
21467.640254999991
 20
19655.534510000001
 30
0.0
 11
21485.643975999981
 21
19655.534510000001
 31
0.0
  0
LINE
  5
39F2
  8
2-0
  6
CONTINUOUS
 62
     3
 10
21467.640254999991
 20
19680.543747000011
 30
0.0
 11
21467.640254999991
 21
19655.534510000001
 31
0.0
  0
LINE
  5
39F3
  8
2-0
  6
CONTINUOUS
 62
     3
 10
21472.640518999971
 20
19680.543747000011
 30
0.0
 11
21467.640254999991
 21
19680.543747000011
 31
0.0
  0
LINE
  5
39F4
  8
2-0
  6
CONTINUOUS
 62
     3
 10
21472.640518999971
 20
19673.538230999999
 30
0.0
 11
21472.640518999971
 21
19680.543747000011
 31
0.0
  0
LINE
  5
39F5
  8
2-0
  6
CONTINUOUS
 62
     3
 10
21441.45122399996
 20
19673.538230999999
 30
0.0
 11
21441.45122399996
 21
19680.543747000011
 31
0.0
  0
LINE
  5
39F6
  8
2-0
  6
CONTINUOUS
 62
     3
 10
21441.45122399996
 20
19680.543747000011
 30
0.0
 11
21446.451487999981
 21
19680.543747000011
 31
0.0
  0
LINE
  5
39F7
  8
2-0
  6
CONTINUOUS
 62
     3
 10
21446.451487999981
 20
19680.543747000011
 30
0.0
 11
21446.451487999981
 21
19655.534510000001
 31
0.0
  0
LINE
  5
39F8
  8
2-0
  6
CONTINUOUS
 62
     3
 10
21446.451487999981
 20
19655.534510000001
 30
0.0
 11
21428.451724999992
 21
19655.534510000001
 31
0.0
  0
LINE
  5
39F9
  8
2-0
  6
CONTINUOUS
 62
     3
 10
21428.451724999992
 20
19655.534510000001
 30
0.0
 11
21428.451724999992
 21
19685.538073000022
 31
0.0
  0
LINE
  5
39FA
  8
2-0
  6
CONTINUOUS
 62
     3
 10
21444.545210999971
 20
19655.534510000001
 30
0.0
 11
21438.54528999998
 21
19655.534510000001
 31
0.0
  0
LINE
  5
39FB
  8
2-0
  6
CONTINUOUS
 62
     3
 10
21438.54528999998
 20
19655.534510000001
 30
0.0
 11
21438.54528999998
 21
19685.538073000022
 31
0.0
  0
LINE
  5
39FC
  8
2-0
  6
CONTINUOUS
 62
     3
 10
18934.047190999961
 20
19576.537862000001
 30
0.0
 11
18934.047190999961
 21
19570.5419
 31
0.0
  0
LINE
  5
39FD
  8
2-0
  6
CONTINUOUS
 62
     3
 10
18934.047190999961
 20
19570.5419
 30
0.0
 11
18904.049565999969
 21
19570.5419
 31
0.0
  0
LINE
  5
39FE
  8
2-0
  6
CONTINUOUS
 62
     3
 10
18904.049565999969
 20
19570.5419
 30
0.0
 11
18904.049565999969
 21
19685.538073000022
 31
0.0
  0
LINE
  5
39FF
  8
2-0
  6
CONTINUOUS
 62
     3
 10
18904.049565999969
 20
19600.541504000001
 30
0.0
 11
18985.047506999981
 21
19600.541504000001
 31
0.0
  0
LINE
  5
3A00
  8
2-0
  6
CONTINUOUS
 62
     3
 10
18934.047190999961
 20
19560.244444
 30
0.0
 11
18904.049565999969
 21
19560.244444
 31
0.0
  0
LINE
  5
3A01
  8
2-0
  6
CONTINUOUS
 62
     3
 10
18934.047190999961
 20
19578.246186000011
 30
0.0
 11
18934.047190999961
 21
19560.244444
 31
0.0
  0
LINE
  5
3A02
  8
2-0
  6
CONTINUOUS
 62
     3
 10
18909.053788999969
 20
19578.246186000011
 30
0.0
 11
18934.047190999961
 21
19578.246186000011
 31
0.0
  0
LINE
  5
3A03
  8
2-0
  6
CONTINUOUS
 62
     3
 10
18909.053788999969
 20
19573.238004000021
 30
0.0
 11
18909.053788999969
 21
19578.246186000011
 31
0.0
  0
LINE
  5
3A04
  8
2-0
  6
CONTINUOUS
 62
     3
 10
18916.05138699996
 20
19573.238004000021
 30
0.0
 11
18909.053788999969
 21
19573.238004000021
 31
0.0
  0
LINE
  5
3A05
  8
2-0
  6
CONTINUOUS
 62
     3
 10
19016.34567599995
 20
19673.538230999999
 30
0.0
 11
19016.34567599995
 21
19680.543747000011
 31
0.0
  0
LINE
  5
3A06
  8
2-0
  6
CONTINUOUS
 62
     3
 10
19016.34567599995
 20
19680.543747000011
 30
0.0
 11
19011.343431999969
 21
19680.543747000011
 31
0.0
  0
LINE
  5
3A07
  8
2-0
  6
CONTINUOUS
 62
     3
 10
19011.343431999969
 20
19680.543747000011
 30
0.0
 11
19011.343431999969
 21
19655.534510000001
 31
0.0
  0
LINE
  5
3A08
  8
2-0
  6
CONTINUOUS
 62
     3
 10
19011.343431999969
 20
19655.534510000001
 30
0.0
 11
19029.351112999939
 21
19655.534510000001
 31
0.0
  0
LINE
  5
3A09
  8
2-0
  6
CONTINUOUS
 62
     3
 10
19029.351112999939
 20
19655.534510000001
 30
0.0
 11
19029.351112999939
 21
19685.538073000022
 31
0.0
  0
LINE
  5
3A0A
  8
2-0
  6
CONTINUOUS
 62
     3
 10
19019.051676999981
 20
19685.538073000022
 30
0.0
 11
18904.049565999969
 21
19685.538073000022
 31
0.0
  0
LINE
  5
3A0B
  8
2-0
  6
CONTINUOUS
 62
     3
 10
19019.051676999981
 20
19655.534510000001
 30
0.0
 11
19019.051676999981
 21
19685.538073000022
 31
0.0
  0
LINE
  5
3A0C
  8
2-0
  6
CONTINUOUS
 62
     3
 10
19013.047797999981
 20
19655.534510000001
 30
0.0
 11
19019.051676999981
 21
19655.534510000001
 31
0.0
  0
LINE
  5
3A0D
  8
2-0
  6
CONTINUOUS
 62
     3
 10
20070.63556949998
 20
19673.538230999999
 30
0.0
 11
20070.63556949998
 21
19680.543747000011
 31
0.0
  0
LINE
  5
3A0E
  8
2-0
  6
CONTINUOUS
 62
     3
 10
20070.63556949998
 20
19680.543747000011
 30
0.0
 11
20065.635305499982
 21
19680.543747000011
 31
0.0
  0
LINE
  5
3A0F
  8
2-0
  6
CONTINUOUS
 62
     3
 10
20065.635305499982
 20
19680.543747000011
 30
0.0
 11
20065.635305499982
 21
19655.534510000001
 31
0.0
  0
LINE
  5
3A10
  8
2-0
  6
CONTINUOUS
 62
     3
 10
20065.635305499982
 20
19655.534510000001
 30
0.0
 11
20083.641006499969
 21
19655.534510000001
 31
0.0
  0
LINE
  5
3A11
  8
2-0
  6
CONTINUOUS
 62
     3
 10
20083.641006499969
 20
19655.534510000001
 30
0.0
 11
20083.641006499969
 21
19685.538073000022
 31
0.0
  0
LINE
  5
3A12
  8
2-0
  6
CONTINUOUS
 62
     3
 10
20067.543561499959
 20
19655.534510000001
 30
0.0
 11
20073.545461499969
 21
19655.534510000001
 31
0.0
  0
LINE
  5
3A13
  8
2-0
  6
CONTINUOUS
 62
     3
 10
20073.545461499969
 20
19655.534510000001
 30
0.0
 11
20073.545461499969
 21
19685.538073000022
 31
0.0
  0
LINE
  5
3A14
  8
2-0
  6
CONTINUOUS
 62
     3
 10
20036.546280499959
 20
19685.538073000022
 30
0.0
 11
20073.545461499969
 21
19685.538073000022
 31
0.0
  0
LINE
  5
3A15
  8
2-0
  6
CONTINUOUS
 62
     3
 10
20036.546280499959
 20
19655.534510000001
 30
0.0
 11
20036.546280499959
 21
19685.538073000022
 31
0.0
  0
LINE
  5
3A16
  8
2-0
  6
CONTINUOUS
 62
     3
 10
20042.540262499981
 20
19655.534510000001
 30
0.0
 11
20036.546280499959
 21
19655.534510000001
 31
0.0
  0
LINE
  5
3A17
  8
2-0
  6
CONTINUOUS
 62
     3
 10
20026.450735499981
 20
19655.534510000001
 30
0.0
 11
20026.450735499981
 21
19685.538073000022
 31
0.0
  0
LINE
  5
3A18
  8
2-0
  6
CONTINUOUS
 62
     3
 10
20044.446538499971
 20
19655.534510000001
 30
0.0
 11
20026.450735499981
 21
19655.534510000001
 31
0.0
  0
LINE
  5
3A19
  8
2-0
  6
CONTINUOUS
 62
     3
 10
20044.446538499971
 20
19680.543747000011
 30
0.0
 11
20044.446538499971
 21
19655.534510000001
 31
0.0
  0
LINE
  5
3A1A
  8
2-0
  6
CONTINUOUS
 62
     3
 10
20039.446274499969
 20
19680.543747000011
 30
0.0
 11
20044.446538499971
 21
19680.543747000011
 31
0.0
  0
LINE
  5
3A1B
  8
2-0
  6
CONTINUOUS
 62
     3
 10
20039.446274499969
 20
19673.538230999999
 30
0.0
 11
20039.446274499969
 21
19680.543747000011
 31
0.0
  0
LINE
  5
3A1C
  8
2-0
  6
CONTINUOUS
 62
     3
 10
20740.44528549998
 20
19673.538230999999
 30
0.0
 11
20740.44528549998
 21
19680.543747000011
 31
0.0
  0
LINE
  5
3A1D
  8
2-0
  6
CONTINUOUS
 62
     3
 10
20740.44528549998
 20
19680.543747000011
 30
0.0
 11
20745.445548499982
 21
19680.543747000011
 31
0.0
  0
LINE
  5
3A1E
  8
2-0
  6
CONTINUOUS
 62
     3
 10
20745.445548499982
 20
19680.543747000011
 30
0.0
 11
20745.445548499982
 21
19655.534510000001
 31
0.0
  0
LINE
  5
3A1F
  8
2-0
  6
CONTINUOUS
 62
     3
 10
20745.445548499982
 20
19655.534510000001
 30
0.0
 11
20727.45172549997
 21
19655.534510000001
 31
0.0
  0
LINE
  5
3A20
  8
2-0
  6
CONTINUOUS
 62
     3
 10
20727.45172549997
 20
19655.534510000001
 30
0.0
 11
20727.45172549997
 21
19685.538073000022
 31
0.0
  0
LINE
  5
3A21
  8
2-0
  6
CONTINUOUS
 62
     3
 10
20743.543231499971
 20
19655.534510000001
 30
0.0
 11
20737.54529049998
 21
19655.534510000001
 31
0.0
  0
LINE
  5
3A22
  8
2-0
  6
CONTINUOUS
 62
     3
 10
20737.54529049998
 20
19655.534510000001
 30
0.0
 11
20737.54529049998
 21
19685.538073000022
 31
0.0
  0
LINE
  5
3A23
  8
2-0
  6
CONTINUOUS
 62
     3
 10
20774.54645149998
 20
19685.538073000022
 30
0.0
 11
20737.54529049998
 21
19685.538073000022
 31
0.0
  0
LINE
  5
3A24
  8
2-0
  6
CONTINUOUS
 62
     3
 10
20774.54645149998
 20
19655.534510000001
 30
0.0
 11
20774.54645149998
 21
19685.538073000022
 31
0.0
  0
LINE
  5
3A25
  8
2-0
  6
CONTINUOUS
 62
     3
 10
20768.54059249998
 20
19655.534510000001
 30
0.0
 11
20774.54645149998
 21
19655.534510000001
 31
0.0
  0
LINE
  5
3A26
  8
2-0
  6
CONTINUOUS
 62
     3
 10
20784.640016499969
 20
19655.534510000001
 30
0.0
 11
20784.640016499969
 21
19685.538073000022
 31
0.0
  0
LINE
  5
3A27
  8
2-0
  6
CONTINUOUS
 62
     3
 10
20766.644213499982
 20
19655.534510000001
 30
0.0
 11
20784.640016499969
 21
19655.534510000001
 31
0.0
  0
LINE
  5
3A28
  8
2-0
  6
CONTINUOUS
 62
     3
 10
20766.644213499982
 20
19680.543747000011
 30
0.0
 11
20766.644213499982
 21
19655.534510000001
 31
0.0
  0
LINE
  5
3A29
  8
2-0
  6
CONTINUOUS
 62
     3
 10
20771.63457949998
 20
19680.543747000011
 30
0.0
 11
20766.644213499982
 21
19680.543747000011
 31
0.0
  0
LINE
  5
3A2A
  8
2-0
  6
CONTINUOUS
 62
     3
 10
20771.63457949998
 20
19673.538230999999
 30
0.0
 11
20771.63457949998
 21
19680.543747000011
 31
0.0
  0
LINE
  5
3A2B
  8
2-0
  6
CONTINUOUS
 62
     3
 10
20083.641006499969
 20
19685.538073000022
 30
0.0
 11
20727.45172549997
 21
19685.538073000022
 31
0.0
  0
LINE
  5
3A2C
  8
2-0
  6
CONTINUOUS
 62
     3
 10
19382.844896999992
 20
19685.538073000022
 30
0.0
 11
20026.450735499981
 21
19685.538073000022
 31
0.0
  0
LINE
  5
3A2D
  8
2-0
  6
CONTINUOUS
 62
     3
 10
21428.451724999992
 20
19685.538073000022
 30
0.0
 11
20784.640016499969
 21
19685.538073000022
 31
0.0
  0
LINE
  5
3A2E
  8
2-0
  6
CONTINUOUS
 62
     3
 10
18934.047190999961
 20
19576.537862000001
 30
0.0
 11
18934.047190999961
 21
19570.5419
 31
0.0
  0
LINE
  5
3A2F
  8
2-0
  6
CONTINUOUS
 62
     3
 10
18934.047190999961
 20
19570.5419
 30
0.0
 11
18904.049565999969
 21
19570.5419
 31
0.0
  0
LINE
  5
3A30
  8
2-0
  6
CONTINUOUS
 62
     3
 10
18904.049565999969
 20
19570.5419
 30
0.0
 11
18904.049565999969
 21
19685.538073000022
 31
0.0
  0
LINE
  5
3A31
  8
2-0
  6
CONTINUOUS
 62
     3
 10
18904.049565999969
 20
19600.541504000001
 30
0.0
 11
18985.047506999981
 21
19600.541504000001
 31
0.0
  0
LINE
  5
3A32
  8
2-0
  6
CONTINUOUS
 62
     3
 10
18934.047190999961
 20
19560.244444
 30
0.0
 11
18904.049565999969
 21
19560.244444
 31
0.0
  0
LINE
  5
3A33
  8
2-0
  6
CONTINUOUS
 62
     3
 10
18934.047190999961
 20
19578.246186000011
 30
0.0
 11
18934.047190999961
 21
19560.244444
 31
0.0
  0
LINE
  5
3A34
  8
2-0
  6
CONTINUOUS
 62
     3
 10
18909.053788999969
 20
19578.246186000011
 30
0.0
 11
18934.047190999961
 21
19578.246186000011
 31
0.0
  0
LINE
  5
3A35
  8
2-0
  6
CONTINUOUS
 62
     3
 10
18909.053788999969
 20
19573.238004000021
 30
0.0
 11
18909.053788999969
 21
19578.246186000011
 31
0.0
  0
LINE
  5
3A36
  8
2-0
  6
CONTINUOUS
 62
     3
 10
18916.05138699996
 20
19573.238004000021
 30
0.0
 11
18909.053788999969
 21
19573.238004000021
 31
0.0
  0
LINE
  5
3A37
  8
2-0
  6
CONTINUOUS
 62
     3
 10
18916.05138699996
 20
19219.941181499991
 30
0.0
 11
18909.053788999969
 21
19219.941181499991
 31
0.0
  0
LINE
  5
3A38
  8
2-0
  6
CONTINUOUS
 62
     3
 10
18909.053788999969
 20
19219.941181499991
 30
0.0
 11
18909.053788999969
 21
19224.941445500001
 31
0.0
  0
LINE
  5
3A39
  8
2-0
  6
CONTINUOUS
 62
     3
 10
18909.053788999969
 20
19224.941445500001
 30
0.0
 11
18934.047190999961
 21
19224.941445500001
 31
0.0
  0
LINE
  5
3A3A
  8
2-0
  6
CONTINUOUS
 62
     3
 10
18934.047190999961
 20
19224.941445500001
 30
0.0
 11
18934.047190999961
 21
19206.945641499991
 31
0.0
  0
LINE
  5
3A3B
  8
2-0
  6
CONTINUOUS
 62
     3
 10
18934.047190999961
 20
19206.945641499991
 30
0.0
 11
18904.049565999969
 21
19206.945641499991
 31
0.0
  0
LINE
  5
3A3C
  8
2-0
  6
CONTINUOUS
 62
     3
 10
18934.047190999961
 20
19223.037148499981
 30
0.0
 11
18934.047190999961
 21
19217.039207500002
 31
0.0
  0
LINE
  5
3A3D
  8
2-0
  6
CONTINUOUS
 62
     3
 10
18934.047190999961
 20
19217.039207500002
 30
0.0
 11
18904.049565999969
 21
19217.039207500002
 31
0.0
  0
LINE
  5
3A3E
  8
2-0
  6
CONTINUOUS
 62
     3
 10
18904.049565999969
 20
19217.039207500002
 30
0.0
 11
18904.049565999969
 21
19254.040368499991
 31
0.0
  0
LINE
  5
3A3F
  8
2-0
  6
CONTINUOUS
 62
     3
 10
18934.047190999961
 20
19254.040368499991
 30
0.0
 11
18904.049565999969
 21
19254.040368499991
 31
0.0
  0
LINE
  5
3A40
  8
2-0
  6
CONTINUOUS
 62
     3
 10
18934.047190999961
 20
19248.036488499991
 30
0.0
 11
18934.047190999961
 21
19254.040368499991
 31
0.0
  0
LINE
  5
3A41
  8
2-0
  6
CONTINUOUS
 62
     3
 10
18934.047190999961
 20
19264.135913499991
 30
0.0
 11
18904.049565999969
 21
19264.135913499991
 31
0.0
  0
LINE
  5
3A42
  8
2-0
  6
CONTINUOUS
 62
     3
 10
18934.047190999961
 20
19246.134171500002
 30
0.0
 11
18934.047190999961
 21
19264.135913499991
 31
0.0
  0
LINE
  5
3A43
  8
2-0
  6
CONTINUOUS
 62
     3
 10
18909.053788999969
 20
19246.134171500002
 30
0.0
 11
18934.047190999961
 21
19246.134171500002
 31
0.0
  0
LINE
  5
3A44
  8
2-0
  6
CONTINUOUS
 62
     3
 10
18909.053788999969
 20
19251.134435499978
 30
0.0
 11
18909.053788999969
 21
19246.134171500002
 31
0.0
  0
LINE
  5
3A45
  8
2-0
  6
CONTINUOUS
 62
     3
 10
18916.05138699996
 20
19251.134435499978
 30
0.0
 11
18909.053788999969
 21
19251.134435499978
 31
0.0
  0
LINE
  5
3A46
  8
2-0
  6
CONTINUOUS
 62
     3
 10
18916.05138699996
 20
18518.940191999998
 30
0.0
 11
18909.053788999969
 21
18518.940191999998
 31
0.0
  0
LINE
  5
3A47
  8
2-0
  6
CONTINUOUS
 62
     3
 10
18909.053788999969
 20
18518.940191999998
 30
0.0
 11
18909.053788999969
 21
18523.946393999991
 31
0.0
  0
LINE
  5
3A48
  8
2-0
  6
CONTINUOUS
 62
     3
 10
18909.053788999969
 20
18523.946393999991
 30
0.0
 11
18934.047190999961
 21
18523.946393999991
 31
0.0
  0
LINE
  5
3A49
  8
2-0
  6
CONTINUOUS
 62
     3
 10
18934.047190999961
 20
18523.946393999991
 30
0.0
 11
18934.047190999961
 21
18505.944651999998
 31
0.0
  0
LINE
  5
3A4A
  8
2-0
  6
CONTINUOUS
 62
     3
 10
18934.047190999961
 20
18505.944651999998
 30
0.0
 11
18904.049565999969
 21
18505.944651999998
 31
0.0
  0
LINE
  5
3A4B
  8
2-0
  6
CONTINUOUS
 62
     3
 10
18934.047190999961
 20
18522.036158999981
 30
0.0
 11
18934.047190999961
 21
18516.040196999991
 31
0.0
  0
LINE
  5
3A4C
  8
2-0
  6
CONTINUOUS
 62
     3
 10
18934.047190999961
 20
18516.040196999991
 30
0.0
 11
18904.049565999969
 21
18516.040196999991
 31
0.0
  0
LINE
  5
3A4D
  8
2-0
  6
CONTINUOUS
 62
     3
 10
18904.049565999969
 20
18516.040196999991
 30
0.0
 11
18904.049565999969
 21
18553.039379000002
 31
0.0
  0
LINE
  5
3A4E
  8
2-0
  6
CONTINUOUS
 62
     3
 10
18934.047190999961
 20
18553.039379000002
 30
0.0
 11
18904.049565999969
 21
18553.039379000002
 31
0.0
  0
LINE
  5
3A4F
  8
2-0
  6
CONTINUOUS
 62
     3
 10
18934.047190999961
 20
18547.043416999979
 30
0.0
 11
18934.047190999961
 21
18553.039379000002
 31
0.0
  0
LINE
  5
3A50
  8
2-0
  6
CONTINUOUS
 62
     3
 10
18934.047190999961
 20
18563.134924000002
 30
0.0
 11
18904.049565999969
 21
18563.134924000002
 31
0.0
  0
LINE
  5
3A51
  8
2-0
  6
CONTINUOUS
 62
     3
 10
18934.047190999961
 20
18545.133182000001
 30
0.0
 11
18934.047190999961
 21
18563.134924000002
 31
0.0
  0
LINE
  5
3A52
  8
2-0
  6
CONTINUOUS
 62
     3
 10
18909.053788999969
 20
18545.133182000001
 30
0.0
 11
18934.047190999961
 21
18545.133182000001
 31
0.0
  0
LINE
  5
3A53
  8
2-0
  6
CONTINUOUS
 62
     3
 10
18909.053788999969
 20
18550.139383999991
 30
0.0
 11
18909.053788999969
 21
18545.133182000001
 31
0.0
  0
LINE
  5
3A54
  8
2-0
  6
CONTINUOUS
 62
     3
 10
18916.05138699996
 20
18550.139383999991
 30
0.0
 11
18909.053788999969
 21
18550.139383999991
 31
0.0
  0
LINE
  5
3A55
  8
2-0
  6
CONTINUOUS
 62
     3
 10
18916.05138699996
 20
17849.133446
 30
0.0
 11
18909.053788999969
 21
17849.133446
 31
0.0
  0
LINE
  5
3A56
  8
2-0
  6
CONTINUOUS
 62
     3
 10
18909.053788999969
 20
17849.133446
 30
0.0
 11
18909.053788999969
 21
17844.145058999991
 31
0.0
  0
LINE
  5
3A57
  8
2-0
  6
CONTINUOUS
 62
     3
 10
18909.053788999969
 20
17844.145058999991
 30
0.0
 11
18934.047190999961
 21
17844.145058999991
 31
0.0
  0
LINE
  5
3A58
  8
2-0
  6
CONTINUOUS
 62
     3
 10
18934.047190999961
 20
17844.145058999991
 30
0.0
 11
18934.047190999961
 21
17862.140862
 31
0.0
  0
LINE
  5
3A59
  8
2-0
  6
CONTINUOUS
 62
     3
 10
18934.047190999961
 20
17862.140862
 30
0.0
 11
18904.049565999969
 21
17862.140862
 31
0.0
  0
LINE
  5
3A5A
  8
2-0
  6
CONTINUOUS
 62
     3
 10
18934.047190999961
 20
17846.04341699999
 30
0.0
 11
18934.047190999961
 21
17852.039378999991
 31
0.0
  0
LINE
  5
3A5B
  8
2-0
  6
CONTINUOUS
 62
     3
 10
18934.047190999961
 20
17852.039378999991
 30
0.0
 11
18904.049565999969
 21
17852.039378999991
 31
0.0
  0
LINE
  5
3A5C
  8
2-0
  6
CONTINUOUS
 62
     3
 10
18904.049565999969
 20
17852.039378999991
 30
0.0
 11
18904.049565999969
 21
17815.040196999991
 31
0.0
  0
LINE
  5
3A5D
  8
2-0
  6
CONTINUOUS
 62
     3
 10
18934.047190999961
 20
17815.040196999991
 30
0.0
 11
18904.049565999969
 21
17815.040196999991
 31
0.0
  0
LINE
  5
3A5E
  8
2-0
  6
CONTINUOUS
 62
     3
 10
18934.047190999961
 20
17821.042097999991
 30
0.0
 11
18934.047190999961
 21
17815.040196999991
 31
0.0
  0
LINE
  5
3A5F
  8
2-0
  6
CONTINUOUS
 62
     3
 10
18934.047190999961
 20
17804.950591000001
 30
0.0
 11
18904.049565999969
 21
17804.950591000001
 31
0.0
  0
LINE
  5
3A60
  8
2-0
  6
CONTINUOUS
 62
     3
 10
18934.047190999961
 20
17822.946393999991
 30
0.0
 11
18934.047190999961
 21
17804.950591000001
 31
0.0
  0
LINE
  5
3A61
  8
2-0
  6
CONTINUOUS
 62
     3
 10
18909.053788999969
 20
17822.946393999991
 30
0.0
 11
18934.047190999961
 21
17822.946393999991
 31
0.0
  0
LINE
  5
3A62
  8
2-0
  6
CONTINUOUS
 62
     3
 10
18909.053788999969
 20
17817.946131000001
 30
0.0
 11
18909.053788999969
 21
17822.946393999991
 31
0.0
  0
LINE
  5
3A63
  8
2-0
  6
CONTINUOUS
 62
     3
 10
18916.05138699996
 20
17817.946131000001
 30
0.0
 11
18909.053788999969
 21
17817.946131000001
 31
0.0
  0
LINE
  5
3A64
  8
2-0
  6
CONTINUOUS
 62
     3
 10
18906.935703999981
 20
17098.037016999999
 30
0.0
 11
18906.935703999981
 21
17118.038071999988
 31
0.0
  0
LINE
  5
3A65
  8
2-0
  6
CONTINUOUS
 62
     3
 10
18906.935703999981
 20
17118.038071999988
 30
0.0
 11
18991.93623199996
 21
17118.038071999988
 31
0.0
  0
LINE
  5
3A66
  8
2-0
  6
CONTINUOUS
 62
     3
 10
18916.05138699996
 20
17144.64478200001
 30
0.0
 11
18909.053788999969
 21
17144.64478200001
 31
0.0
  0
LINE
  5
3A67
  8
2-0
  6
CONTINUOUS
 62
     3
 10
18909.053788999969
 20
17144.64478200001
 30
0.0
 11
18909.053788999969
 21
17139.65045600001
 31
0.0
  0
LINE
  5
3A68
  8
2-0
  6
CONTINUOUS
 62
     3
 10
18909.053788999969
 20
17139.65045600001
 30
0.0
 11
18934.047190999961
 21
17139.65045600001
 31
0.0
  0
LINE
  5
3A69
  8
2-0
  6
CONTINUOUS
 62
     3
 10
18934.047190999961
 20
17139.65045600001
 30
0.0
 11
18934.047190999961
 21
17157.646260000001
 31
0.0
  0
LINE
  5
3A6A
  8
2-0
  6
CONTINUOUS
 62
     3
 10
18934.047190999961
 20
17157.646260000001
 30
0.0
 11
18904.049565999969
 21
17157.646260000001
 31
0.0
  0
LINE
  5
3A6B
  8
2-0
  6
CONTINUOUS
 62
     3
 10
18934.047190999961
 20
17148.037676
 30
0.0
 11
18934.047190999961
 21
17142.035776000001
 31
0.0
  0
LINE
  5
3A6C
  8
2-0
  6
CONTINUOUS
 62
     3
 10
18904.049565999969
 20
17148.037676
 30
0.0
 11
18934.047190999961
 21
17148.037676
 31
0.0
  0
LINE
  5
3A6D
  8
2-0
  6
CONTINUOUS
 62
     3
 10
18904.049565999969
 20
17157.646260000001
 30
0.0
 11
18904.049565999969
 21
17804.950591000001
 31
0.0
  0
LINE
  5
3A6E
  8
2-0
  6
CONTINUOUS
 62
     3
 10
18904.049565999969
 20
17862.140862
 30
0.0
 11
18904.049565999969
 21
18505.944651999998
 31
0.0
  0
LINE
  5
3A6F
  8
2-0
  6
CONTINUOUS
 62
     3
 10
18904.049565999969
 20
17003.035961000009
 30
0.0
 11
18934.047190999961
 21
17003.035961000009
 31
0.0
  0
LINE
  5
3A70
  8
2-0
  6
CONTINUOUS
 62
     3
 10
18934.047190999961
 20
17003.035961000009
 30
0.0
 11
18934.047190999961
 21
17009.037861000012
 31
0.0
  0
LINE
  5
3A71
  8
2-0
  6
CONTINUOUS
 62
     3
 10
18991.93623199996
 20
17033.041504000012
 30
0.0
 11
18906.935703999981
 21
17033.041504000012
 31
0.0
  0
LINE
  5
3A72
  8
2-0
  6
CONTINUOUS
 62
     3
 10
18906.935703999981
 20
17033.041504000012
 30
0.0
 11
18906.935703999981
 21
17053.03662100001
 31
0.0
  0
LINE
  5
3A73
  8
2-0
  6
CONTINUOUS
 62
     3
 10
18934.047190999961
 20
16993.427378000011
 30
0.0
 11
18904.049565999969
 21
16993.427378000011
 31
0.0
  0
LINE
  5
3A74
  8
2-0
  6
CONTINUOUS
 62
     3
 10
18934.047190999961
 20
17011.423180999991
 30
0.0
 11
18934.047190999961
 21
16993.427378000011
 31
0.0
  0
LINE
  5
3A75
  8
2-0
  6
CONTINUOUS
 62
     3
 10
18909.053788999969
 20
17011.423180999991
 30
0.0
 11
18934.047190999961
 21
17011.423180999991
 31
0.0
  0
LINE
  5
3A76
  8
2-0
  6
CONTINUOUS
 62
     3
 10
18909.053788999969
 20
17006.422917000011
 30
0.0
 11
18909.053788999969
 21
17011.423180999991
 31
0.0
  0
LINE
  5
3A77
  8
2-0
  6
CONTINUOUS
 62
     3
 10
18916.05138699996
 20
17006.422917000011
 30
0.0
 11
18909.053788999969
 21
17006.422917000011
 31
0.0
  0
LINE
  5
3A78
  8
2-0
  6
CONTINUOUS
 62
     3
 10
18916.05138699996
 20
16301.94068649998
 30
0.0
 11
18909.053788999969
 21
16301.94068649998
 31
0.0
  0
LINE
  5
3A79
  8
2-0
  6
CONTINUOUS
 62
     3
 10
18909.053788999969
 20
16301.94068649998
 30
0.0
 11
18909.053788999969
 21
16306.94095049998
 31
0.0
  0
LINE
  5
3A7A
  8
2-0
  6
CONTINUOUS
 62
     3
 10
18909.053788999969
 20
16306.94095049998
 30
0.0
 11
18934.047190999961
 21
16306.94095049998
 31
0.0
  0
LINE
  5
3A7B
  8
2-0
  6
CONTINUOUS
 62
     3
 10
18934.047190999961
 20
16306.94095049998
 30
0.0
 11
18934.047190999961
 21
16288.9392085
 31
0.0
  0
LINE
  5
3A7C
  8
2-0
  6
CONTINUOUS
 62
     3
 10
18934.047190999961
 20
16288.9392085
 30
0.0
 11
18904.049565999969
 21
16288.9392085
 31
0.0
  0
LINE
  5
3A7D
  8
2-0
  6
CONTINUOUS
 62
     3
 10
18934.047190999961
 20
16305.036653499999
 30
0.0
 11
18934.047190999961
 21
16299.0397025
 31
0.0
  0
LINE
  5
3A7E
  8
2-0
  6
CONTINUOUS
 62
     3
 10
18934.047190999961
 20
16299.0397025
 30
0.0
 11
18904.049565999969
 21
16299.0397025
 31
0.0
  0
LINE
  5
3A7F
  8
2-0
  6
CONTINUOUS
 62
     3
 10
18904.049565999969
 20
16299.0397025
 30
0.0
 11
18904.049565999969
 21
16336.0398735
 31
0.0
  0
LINE
  5
3A80
  8
2-0
  6
CONTINUOUS
 62
     3
 10
18934.047190999961
 20
16336.0398735
 30
0.0
 11
18904.049565999969
 21
16336.0398735
 31
0.0
  0
LINE
  5
3A81
  8
2-0
  6
CONTINUOUS
 62
     3
 10
18934.047190999961
 20
16330.0369835
 30
0.0
 11
18934.047190999961
 21
16336.0398735
 31
0.0
  0
LINE
  5
3A82
  8
2-0
  6
CONTINUOUS
 62
     3
 10
18934.047190999961
 20
16346.135418499989
 30
0.0
 11
18904.049565999969
 21
16346.135418499989
 31
0.0
  0
LINE
  5
3A83
  8
2-0
  6
CONTINUOUS
 62
     3
 10
18934.047190999961
 20
16328.127737500001
 30
0.0
 11
18934.047190999961
 21
16346.135418499989
 31
0.0
  0
LINE
  5
3A84
  8
2-0
  6
CONTINUOUS
 62
     3
 10
18909.053788999969
 20
16328.127737500001
 30
0.0
 11
18934.047190999961
 21
16328.127737500001
 31
0.0
  0
LINE
  5
3A85
  8
2-0
  6
CONTINUOUS
 62
     3
 10
18909.053788999969
 20
16333.133940499991
 30
0.0
 11
18909.053788999969
 21
16328.127737500001
 31
0.0
  0
LINE
  5
3A86
  8
2-0
  6
CONTINUOUS
 62
     3
 10
18916.05138699996
 20
16333.133940499991
 30
0.0
 11
18909.053788999969
 21
16333.133940499991
 31
0.0
  0
LINE
  5
3A87
  8
2-0
  6
CONTINUOUS
 62
     3
 10
18916.05138699996
 20
15632.373957
 30
0.0
 11
18909.053788999969
 21
15632.373957
 31
0.0
  0
LINE
  5
3A88
  8
2-0
  6
CONTINUOUS
 62
     3
 10
18909.053788999969
 20
15632.373957
 30
0.0
 11
18909.053788999969
 21
15627.379632
 31
0.0
  0
LINE
  5
3A89
  8
2-0
  6
CONTINUOUS
 62
     3
 10
18909.053788999969
 20
15627.379632
 30
0.0
 11
18934.047190999961
 21
15627.379632
 31
0.0
  0
LINE
  5
3A8A
  8
2-0
  6
CONTINUOUS
 62
     3
 10
18934.047190999961
 20
15627.379632
 30
0.0
 11
18934.047190999961
 21
15645.375435000011
 31
0.0
  0
LINE
  5
3A8B
  8
2-0
  6
CONTINUOUS
 62
     3
 10
18934.047190999961
 20
15645.375435000011
 30
0.0
 11
18904.049565999969
 21
15645.375435000011
 31
0.0
  0
LINE
  5
3A8C
  8
2-0
  6
CONTINUOUS
 62
     3
 10
18934.047190999961
 20
15629.277990000001
 30
0.0
 11
18934.047190999961
 21
15635.27989000002
 31
0.0
  0
LINE
  5
3A8D
  8
2-0
  6
CONTINUOUS
 62
     3
 10
18934.047190999961
 20
15635.27989000002
 30
0.0
 11
18904.049565999969
 21
15635.27989000002
 31
0.0
  0
LINE
  5
3A8E
  8
2-0
  6
CONTINUOUS
 62
     3
 10
18904.049565999969
 20
15598.280709000001
 30
0.0
 11
18904.049565999969
 21
15635.27989000002
 31
0.0
  0
LINE
  5
3A8F
  8
2-0
  6
CONTINUOUS
 62
     3
 10
18934.047190999961
 20
15598.280709000001
 30
0.0
 11
18904.049565999969
 21
15598.280709000001
 31
0.0
  0
LINE
  5
3A90
  8
2-0
  6
CONTINUOUS
 62
     3
 10
18934.047190999961
 20
15604.27766
 30
0.0
 11
18934.047190999961
 21
15598.280709000001
 31
0.0
  0
LINE
  5
3A91
  8
2-0
  6
CONTINUOUS
 62
     3
 10
18934.047190999961
 20
15588.179225
 30
0.0
 11
18904.049565999969
 21
15588.179225
 31
0.0
  0
LINE
  5
3A92
  8
2-0
  6
CONTINUOUS
 62
     3
 10
18934.047190999961
 20
15606.186906000001
 30
0.0
 11
18934.047190999961
 21
15588.179225
 31
0.0
  0
LINE
  5
3A93
  8
2-0
  6
CONTINUOUS
 62
     3
 10
18909.053788999969
 20
15606.186906000001
 30
0.0
 11
18934.047190999961
 21
15606.186906000001
 31
0.0
  0
LINE
  5
3A94
  8
2-0
  6
CONTINUOUS
 62
     3
 10
18909.053788999969
 20
15601.186642000001
 30
0.0
 11
18909.053788999969
 21
15606.186906000001
 31
0.0
  0
LINE
  5
3A95
  8
2-0
  6
CONTINUOUS
 62
     3
 10
18916.05138699996
 20
15601.186642000001
 30
0.0
 11
18909.053788999969
 21
15601.186642000001
 31
0.0
  0
LINE
  5
3A96
  8
2-0
  6
CONTINUOUS
 62
     3
 10
18904.049565999969
 20
16993.427378000011
 30
0.0
 11
18904.049565999969
 21
16346.135418499989
 31
0.0
  0
LINE
  5
3A97
  8
2-0
  6
CONTINUOUS
 62
     3
 10
18904.049565999969
 20
17148.037676
 30
0.0
 11
18904.049565999969
 21
17003.035961000009
 31
0.0
  0
LINE
  5
3A98
  8
2-0
  6
CONTINUOUS
 62
     3
 10
18991.93623199996
 20
17118.038071999988
 30
0.0
 11
18991.93623199996
 21
17033.041504000012
 31
0.0
  0
LINE
  5
3A99
  8
2-0
  6
CONTINUOUS
 62
     3
 10
18934.047190999961
 20
14574.541714999999
 30
0.0
 11
18934.047190999961
 21
14580.546584
 31
0.0
  0
LINE
  5
3A9A
  8
2-0
  6
CONTINUOUS
 62
     3
 10
18934.047190999961
 20
14580.546584
 30
0.0
 11
18904.049565999969
 21
14580.546584
 31
0.0
  0
LINE
  5
3A9B
  8
2-0
  6
CONTINUOUS
 62
     3
 10
18904.049565999969
 20
14580.546584
 30
0.0
 11
18904.049565999969
 21
14465.542493000001
 31
0.0
  0
LINE
  5
3A9C
  8
2-0
  6
CONTINUOUS
 62
     3
 10
18904.049565999969
 20
14465.542493000001
 30
0.0
 11
18989.048113999961
 21
14465.542493000001
 31
0.0
  0
LINE
  5
3A9D
  8
2-0
  6
CONTINUOUS
 62
     3
 10
18989.048113999961
 20
14465.542493000001
 30
0.0
 11
18989.048113999961
 21
14550.538071999999
 31
0.0
  0
LINE
  5
3A9E
  8
2-0
  6
CONTINUOUS
 62
     3
 10
18989.048113999961
 20
14550.538071999999
 30
0.0
 11
18957.05117599995
 21
14550.538071999999
 31
0.0
  0
LINE
  5
3A9F
  8
2-0
  6
CONTINUOUS
 62
     3
 10
18916.05138699996
 20
14577.576316999999
 30
0.0
 11
18909.053788999969
 21
14577.576316999999
 31
0.0
  0
LINE
  5
3AA0
  8
2-0
  6
CONTINUOUS
 62
     3
 10
18909.053788999969
 20
14577.576316999999
 30
0.0
 11
18909.053788999969
 21
14572.57902199998
 31
0.0
  0
LINE
  5
3AA1
  8
2-0
  6
CONTINUOUS
 62
     3
 10
18909.053788999969
 20
14572.57902199998
 30
0.0
 11
18934.047190999961
 21
14572.57902199998
 31
0.0
  0
LINE
  5
3AA2
  8
2-0
  6
CONTINUOUS
 62
     3
 10
18934.047190999961
 20
14572.57902199998
 30
0.0
 11
18934.047190999961
 21
14590.57779499999
 31
0.0
  0
LINE
  5
3AA3
  8
2-0
  6
CONTINUOUS
 62
     3
 10
18934.047190999961
 20
14590.57779499999
 30
0.0
 11
18904.049565999969
 21
14590.57779499999
 31
0.0
  0
LINE
  5
3AA4
  8
2-0
  6
CONTINUOUS
 62
     3
 10
18904.049565999969
 20
14590.57779499999
 30
0.0
 11
18904.049565999969
 21
14887.179225
 31
0.0
  0
LINE
  5
3AA5
  8
2-0
  6
CONTINUOUS
 62
     3
 10
18904.049565999969
 20
18563.134924000002
 30
0.0
 11
18904.049565999969
 21
19206.945641499991
 31
0.0
  0
LINE
  5
3AA6
  8
2-0
  6
CONTINUOUS
 62
     3
 10
18904.049565999969
 20
16288.9392085
 30
0.0
 11
18904.049565999969
 21
15645.375435000011
 31
0.0
  0
LINE
  5
3AA7
  8
2-0
  6
CONTINUOUS
 62
     3
 10
25526.044154999981
 20
19570.5419
 30
0.0
 11
25526.044154999981
 21
19685.538073000022
 31
0.0
  0
LINE
  5
3AA8
  8
2-0
  6
CENTER2
 62
     6
 10
17617.09129399998
 20
19643.039787999991
 30
0.0
 11
26376.045474999992
 21
19643.039787999991
 31
0.0
  0
LINE
  5
3AA9
  8
2-0
  6
CENTER2
 62
     6
 10
17617.09129399998
 20
17075.53978799998
 30
0.0
 11
26376.045474999992
 21
17075.53978799998
 31
0.0
  0
LINE
  5
3AAA
  8
2-0
  6
CENTER2
 62
     6
 10
17617.09129399998
 20
14508.039787999989
 30
0.0
 11
26376.045474999992
 21
14508.039787999989
 31
0.0
  0
LINE
  5
3AAB
  8
2-0
  6
CONTINUOUS
 62
     3
 10
19369.637548999981
 20
19673.538230999999
 30
0.0
 11
19369.637548999981
 21
19680.543747000011
 31
0.0
  0
LINE
  5
3AAC
  8
2-0
  6
CONTINUOUS
 62
     3
 10
19369.637548999981
 20
19680.543747000011
 30
0.0
 11
19364.63728499995
 21
19680.543747000011
 31
0.0
  0
LINE
  5
3AAD
  8
2-0
  6
CONTINUOUS
 62
     3
 10
19364.63728499995
 20
19680.543747000011
 30
0.0
 11
19364.63728499995
 21
19655.534510000001
 31
0.0
  0
LINE
  5
3AAE
  8
2-0
  6
CONTINUOUS
 62
     3
 10
19364.63728499995
 20
19655.534510000001
 30
0.0
 11
19382.63902699999
 21
19655.534510000001
 31
0.0
  0
LINE
  5
3AAF
  8
2-0
  6
CONTINUOUS
 62
     3
 10
19382.63902699999
 20
19655.534510000001
 30
0.0
 11
19382.63902699999
 21
19685.538073000022
 31
0.0
  0
LINE
  5
3AB0
  8
2-0
  6
CONTINUOUS
 62
     3
 10
19366.53960199999
 20
19655.534510000001
 30
0.0
 11
19372.543481999961
 21
19655.534510000001
 31
0.0
  0
LINE
  5
3AB1
  8
2-0
  6
CONTINUOUS
 62
     3
 10
19372.543481999961
 20
19655.534510000001
 30
0.0
 11
19372.543481999961
 21
19685.538073000022
 31
0.0
  0
LINE
  5
3AB2
  8
2-0
  6
CONTINUOUS
 62
     3
 10
19335.54825999996
 20
19685.538073000022
 30
0.0
 11
19372.543481999961
 21
19685.538073000022
 31
0.0
  0
LINE
  5
3AB3
  8
2-0
  6
CONTINUOUS
 62
     3
 10
19335.54825999996
 20
19655.534510000001
 30
0.0
 11
19335.54825999996
 21
19685.538073000022
 31
0.0
  0
LINE
  5
3AB4
  8
2-0
  6
CONTINUOUS
 62
     3
 10
19341.542241999981
 20
19655.534510000001
 30
0.0
 11
19335.54825999996
 21
19655.534510000001
 31
0.0
  0
LINE
  5
3AB5
  8
2-0
  6
CONTINUOUS
 62
     3
 10
19325.45271499997
 20
19655.534510000001
 30
0.0
 11
19325.45271499997
 21
19685.538073000022
 31
0.0
  0
LINE
  5
3AB6
  8
2-0
  6
CONTINUOUS
 62
     3
 10
19343.448517999979
 20
19655.534510000001
 30
0.0
 11
19325.45271499997
 21
19655.534510000001
 31
0.0
  0
LINE
  5
3AB7
  8
2-0
  6
CONTINUOUS
 62
     3
 10
19343.448517999979
 20
19680.543747000011
 30
0.0
 11
19343.448517999979
 21
19655.534510000001
 31
0.0
  0
LINE
  5
3AB8
  8
2-0
  6
CONTINUOUS
 62
     3
 10
19338.450233999982
 20
19680.543747000011
 30
0.0
 11
19343.448517999979
 21
19680.543747000011
 31
0.0
  0
LINE
  5
3AB9
  8
2-0
  6
CONTINUOUS
 62
     3
 10
19338.450233999982
 20
19673.538230999999
 30
0.0
 11
19338.450233999982
 21
19680.543747000011
 31
0.0
  0
LINE
  5
3ABA
  8
2-0
  6
CONTINUOUS
 62
     3
 10
19029.351112999939
 20
19685.538073000022
 30
0.0
 11
19325.45271499997
 21
19685.538073000022
 31
0.0
  0
LINE
  5
3ABB
  8
2-0
  6
CONTINUOUS
 62
     3
 10
18904.049565999969
 20
19600.541504000001
 30
0.0
 11
25445.04225499996
 21
19600.541504000001
 31
0.0
  0
LINE
  5
3ABC
  8
2-0
  6
CENTER2
 62
     6
 10
18946.54587099998
 20
20885.538073000022
 30
0.0
 11
18946.54587099998
 21
13882.276354
 31
0.0
  0
LINE
  5
3ABD
  8
2-0
  6
CENTER2
 62
     6
 10
25483.54587099998
 20
20885.538073000022
 30
0.0
 11
25483.54587099998
 21
13882.276354
 31
0.0
  0
LINE
  5
3ABE
  8
2-0
  6
CONTINUOUS
 62
     3
 10
25526.044154999981
 20
19560.244444
 30
0.0
 11
25526.044154999981
 21
19264.135913499991
 31
0.0
  0
LINE
  5
3ABF
  8
2-0
  6
CONTINUOUS
 62
     3
 10
18904.049565999969
 20
19560.244444
 30
0.0
 11
18904.049565999969
 21
19264.135913499991
 31
0.0
  0
LINE
  5
3AC0
  8
2-0
  6
CENTER2
 62
     6
 10
22215.04587099998
 20
20885.538073000022
 30
0.0
 11
22215.04587099998
 21
14316.635186999991
 31
0.0
  0
LINE
  5
3AC1
  8
2-0
  6
CONTINUOUS
 62
     3
 10
18985.047506999981
 20
14550.538071999999
 30
0.0
 11
18985.047506999981
 21
19685.538073000022
 31
0.0
  0
LINE
  5
3AC2
  8
2-0
  6
CONTINUOUS
 62
     3
 10
25445.04225499996
 20
14550.538071999999
 30
0.0
 11
25445.04225499996
 21
19685.538073000022
 31
0.0
  0
CIRCLE
  5
3AC3
  8
2-0
  6
CONTINUOUS
 62
     4
 10
17417.09360399998
 20
19643.039787999991
 30
0.0
 40
200.00001
  0
CIRCLE
  5
3AC4
  8
2-0
  6
CONTINUOUS
 62
     4
 10
17417.09360399998
 20
17075.53978799998
 30
0.0
 40
200.00001
  0
CIRCLE
  5
3AC5
  8
2-0
  6
CONTINUOUS
 62
     4
 10
17417.09360399998
 20
14508.039787999989
 30
0.0
 40
200.00001
  0
CIRCLE
  5
3AC6
  8
2-0
  6
CONTINUOUS
 62
     4
 10
22215.04587099998
 20
21085.542692000021
 30
0.0
 40
200.00001
  0
CIRCLE
  5
3AC7
  8
2-0
  6
CONTINUOUS
 62
     4
 10
18946.54587099998
 20
21085.542692000021
 30
0.0
 40
200.00001
  0
TEXT
  5
3AC8
  8
2-0
  6
CONTINUOUS
 62
     7
 10
23880.391177999962
 20
13948.04091
 30
0.0
 40
160.0
  1
前柱（右）
 50
0.000213
 72
     4
 11
24296.39088059299
 21
14028.042456500791
 31
0.0
  0
TEXT
  5
3AC9
  8
2-0
  6
CONTINUOUS
 62
     7
 10
24084.986300999961
 20
16526.032926000022
 30
0.0
 40
160.0
  1
壁パネル
 50
359.99982299999999
 72
     4
 11
24447.653214803518
 21
16606.031805637889
 31
0.0
  0
TEXT
  5
3ACA
  8
2-0
  6
CONTINUOUS
 62
     7
 10
23804.983396999982
 20
17363.220822000021
 30
0.0
 40
160.0
  1
中柱（左右）
 50
0.000354
 72
     4
 11
24322.31623604619
 21
17443.224018324669
 31
0.0
  0
TEXT
  5
3ACB
  8
2-0
  6
CONTINUOUS
 62
     7
 10
24484.98564099997
 20
14921.082175999991
 30
0.0
 40
160.0
  1
下枠
 50
0.001063
 72
     4
 11
24655.650823409269
 21
15001.08534233928
 31
0.0
  0
TEXT
  5
3ACC
  8
2-0
  6
CONTINUOUS
 62
     7
 10
23979.951064999979
 20
18966.489560499991
 30
0.0
 40
160.0
  1
間柱（側）
 72
     4
 11
24401.284398333319
 21
19046.489560499991
 31
0.0
  0
TEXT
  5
3ACD
  8
2-0
  6
CONTINUOUS
 62
     7
 10
26298.541383999971
 20
20495.537281000012
 30
0.0
 40
160.0
  1
後柱（左右）
 50
0.000354
 72
     4
 11
26810.54088971296
 21
20575.540444372851
 31
0.0
  0
TEXT
  5
3ACE
  8
2-0
  6
CONTINUOUS
 62
     7
 10
22614.134632999991
 20
15085.878087999979
 30
0.0
 40
160.0
  1
前柱（中）
 72
     4
 11
23030.134632999991
 21
15165.878087999979
 31
0.0
  0
TEXT
  5
3ACF
  8
2-0
  6
CONTINUOUS
 62
     7
 10
21050.914746999981
 20
19048.420120000021
 30
0.0
 40
160.0
  1
間柱（後）
 72
     4
 11
21472.248080333309
 21
19128.420120000021
 31
0.0
  0
TEXT
  5
3AD0
  8
2-0
  6
CONTINUOUS
 62
     7
 10
22485.339236
 20
19117.164841000009
 30
0.0
 40
160.0
  1
後柱（中）
 72
     4
 11
22901.339236
 21
19197.164841000009
 31
0.0
  0
TEXT
  5
3AD1
  8
2-0
  6
CONTINUOUS
 62
     7
 10
17369.094236999968
 20
19548.55934600002
 30
0.0
 40
160.0
  1
C
 72
     4
 11
17422.427570333301
 21
19628.55934600002
 31
0.0
  0
TEXT
  5
3AD2
  8
2-0
  6
CONTINUOUS
 62
     7
 10
17369.314952999979
 20
17005.145706000021
 30
0.0
 40
160.0
  1
B
 72
     4
 11
17422.648286333311
 21
17085.145706000021
 31
0.0
  0
TEXT
  5
3AD3
  8
2-0
  6
CONTINUOUS
 62
     7
 10
17369.357512999981
 20
14419.432577
 30
0.0
 40
160.0
  1
A
 72
     4
 11
17422.690846333309
 21
14499.432577
 31
0.0
  0
TEXT
  5
3AD4
  8
2-0
  6
CONTINUOUS
 62
     7
 10
22163.41408799998
 20
20990.017063000021
 30
0.0
 40
160.0
  1
2
 72
     4
 11
22216.747421333312
 21
21070.017063000021
 31
0.0
  0
TEXT
  5
3AD5
  8
2-0
  6
CONTINUOUS
 62
     7
 10
18902.339261999969
 20
20996.775140000031
 30
0.0
 40
160.0
  1
1
 72
     4
 11
18929.00592866664
 21
21076.775140000031
 31
0.0
  0
LINE
  5
3AD6
  8
2-0
  6
CONTINUOUS
 62
     3
 10
24744.04645199997
 20
19685.538073000022
 30
0.0
 11
24707.04528999998
 21
19685.538073000022
 31
0.0
  0
LINE
  5
3AD7
  8
2-0
  6
CONTINUOUS
 62
     3
 10
24744.04645199997
 20
19655.534510000001
 30
0.0
 11
24744.04645199997
 21
19685.538073000022
 31
0.0
  0
LINE
  5
3AD8
  8
2-0
  6
CONTINUOUS
 62
     3
 10
24738.04653099996
 20
19655.534510000001
 30
0.0
 11
24744.04645199997
 21
19655.534510000001
 31
0.0
  0
LINE
  5
3AD9
  8
2-0
  6
CONTINUOUS
 62
     3
 10
24754.143975999981
 20
19655.534510000001
 30
0.0
 11
24754.143975999981
 21
19685.538073000022
 31
0.0
  0
LINE
  5
3ADA
  8
2-0
  6
CONTINUOUS
 62
     3
 10
24736.14025499998
 20
19655.534510000001
 30
0.0
 11
24754.143975999981
 21
19655.534510000001
 31
0.0
  0
LINE
  5
3ADB
  8
2-0
  6
CONTINUOUS
 62
     3
 10
24736.14025499998
 20
19680.543747000011
 30
0.0
 11
24736.14025499998
 21
19655.534510000001
 31
0.0
  0
LINE
  5
3ADC
  8
2-0
  6
CONTINUOUS
 62
     3
 10
24741.14051899996
 20
19680.543747000011
 30
0.0
 11
24736.14025499998
 21
19680.543747000011
 31
0.0
  0
LINE
  5
3ADD
  8
2-0
  6
CONTINUOUS
 62
     3
 10
24741.14051899996
 20
19673.538230999999
 30
0.0
 11
24741.14051899996
 21
19680.543747000011
 31
0.0
  0
LINE
  5
3ADE
  8
2-0
  6
CONTINUOUS
 62
     3
 10
24709.951223999971
 20
19673.538230999999
 30
0.0
 11
24709.951223999971
 21
19680.543747000011
 31
0.0
  0
LINE
  5
3ADF
  8
2-0
  6
CONTINUOUS
 62
     3
 10
24709.951223999971
 20
19680.543747000011
 30
0.0
 11
24714.951487999981
 21
19680.543747000011
 31
0.0
  0
LINE
  5
3AE0
  8
2-0
  6
CONTINUOUS
 62
     3
 10
24714.951487999981
 20
19680.543747000011
 30
0.0
 11
24714.951487999981
 21
19655.534510000001
 31
0.0
  0
LINE
  5
3AE1
  8
2-0
  6
CONTINUOUS
 62
     3
 10
24714.951487999981
 20
19655.534510000001
 30
0.0
 11
24696.951724999981
 21
19655.534510000001
 31
0.0
  0
LINE
  5
3AE2
  8
2-0
  6
CONTINUOUS
 62
     3
 10
24696.951724999981
 20
19655.534510000001
 30
0.0
 11
24696.951724999981
 21
19685.538073000022
 31
0.0
  0
LINE
  5
3AE3
  8
2-0
  6
CONTINUOUS
 62
     3
 10
24713.045210999971
 20
19655.534510000001
 30
0.0
 11
24707.04528999998
 21
19655.534510000001
 31
0.0
  0
LINE
  5
3AE4
  8
2-0
  6
CONTINUOUS
 62
     3
 10
24707.04528999998
 20
19655.534510000001
 30
0.0
 11
24707.04528999998
 21
19685.538073000022
 31
0.0
  0
LINE
  5
3AE5
  8
2-0
  6
CONTINUOUS
 62
     3
 10
23339.13556949998
 20
19673.538230999999
 30
0.0
 11
23339.13556949998
 21
19680.543747000011
 31
0.0
  0
LINE
  5
3AE6
  8
2-0
  6
CONTINUOUS
 62
     3
 10
23339.13556949998
 20
19680.543747000011
 30
0.0
 11
23334.135305499989
 21
19680.543747000011
 31
0.0
  0
LINE
  5
3AE7
  8
2-0
  6
CONTINUOUS
 62
     3
 10
23334.135305499989
 20
19680.543747000011
 30
0.0
 11
23334.135305499989
 21
19655.534510000001
 31
0.0
  0
LINE
  5
3AE8
  8
2-0
  6
CONTINUOUS
 62
     3
 10
23334.135305499989
 20
19655.534510000001
 30
0.0
 11
23352.141006499969
 21
19655.534510000001
 31
0.0
  0
LINE
  5
3AE9
  8
2-0
  6
CONTINUOUS
 62
     3
 10
23352.141006499969
 20
19655.534510000001
 30
0.0
 11
23352.141006499969
 21
19685.538073000022
 31
0.0
  0
LINE
  5
3AEA
  8
2-0
  6
CONTINUOUS
 62
     3
 10
23336.04356149997
 20
19655.534510000001
 30
0.0
 11
23342.04546149998
 21
19655.534510000001
 31
0.0
  0
LINE
  5
3AEB
  8
2-0
  6
CONTINUOUS
 62
     3
 10
23342.04546149998
 20
19655.534510000001
 30
0.0
 11
23342.04546149998
 21
19685.538073000022
 31
0.0
  0
LINE
  5
3AEC
  8
2-0
  6
CONTINUOUS
 62
     3
 10
23305.04628049997
 20
19685.538073000022
 30
0.0
 11
23342.04546149998
 21
19685.538073000022
 31
0.0
  0
LINE
  5
3AED
  8
2-0
  6
CONTINUOUS
 62
     3
 10
23305.04628049997
 20
19655.534510000001
 30
0.0
 11
23305.04628049997
 21
19685.538073000022
 31
0.0
  0
LINE
  5
3AEE
  8
2-0
  6
CONTINUOUS
 62
     3
 10
23311.040262499981
 20
19655.534510000001
 30
0.0
 11
23305.04628049997
 21
19655.534510000001
 31
0.0
  0
LINE
  5
3AEF
  8
2-0
  6
CONTINUOUS
 62
     3
 10
23294.950735499981
 20
19655.534510000001
 30
0.0
 11
23294.950735499981
 21
19685.538073000022
 31
0.0
  0
LINE
  5
3AF0
  8
2-0
  6
CONTINUOUS
 62
     3
 10
23312.946538499971
 20
19655.534510000001
 30
0.0
 11
23294.950735499981
 21
19655.534510000001
 31
0.0
  0
LINE
  5
3AF1
  8
2-0
  6
CONTINUOUS
 62
     3
 10
23312.946538499971
 20
19680.543747000011
 30
0.0
 11
23312.946538499971
 21
19655.534510000001
 31
0.0
  0
LINE
  5
3AF2
  8
2-0
  6
CONTINUOUS
 62
     3
 10
23307.946274499991
 20
19680.543747000011
 30
0.0
 11
23312.946538499971
 21
19680.543747000011
 31
0.0
  0
LINE
  5
3AF3
  8
2-0
  6
CONTINUOUS
 62
     3
 10
23307.946274499991
 20
19673.538230999999
 30
0.0
 11
23307.946274499991
 21
19680.543747000011
 31
0.0
  0
LINE
  5
3AF4
  8
2-0
  6
CONTINUOUS
 62
     3
 10
24008.94528549998
 20
19673.538230999999
 30
0.0
 11
24008.94528549998
 21
19680.543747000011
 31
0.0
  0
LINE
  5
3AF5
  8
2-0
  6
CONTINUOUS
 62
     3
 10
24008.94528549998
 20
19680.543747000011
 30
0.0
 11
24013.945548499989
 21
19680.543747000011
 31
0.0
  0
LINE
  5
3AF6
  8
2-0
  6
CONTINUOUS
 62
     3
 10
24013.945548499989
 20
19680.543747000011
 30
0.0
 11
24013.945548499989
 21
19655.534510000001
 31
0.0
  0
LINE
  5
3AF7
  8
2-0
  6
CONTINUOUS
 62
     3
 10
24013.945548499989
 20
19655.534510000001
 30
0.0
 11
23995.95172549997
 21
19655.534510000001
 31
0.0
  0
LINE
  5
3AF8
  8
2-0
  6
CONTINUOUS
 62
     3
 10
23995.95172549997
 20
19655.534510000001
 30
0.0
 11
23995.95172549997
 21
19685.538073000022
 31
0.0
  0
LINE
  5
3AF9
  8
2-0
  6
CONTINUOUS
 62
     3
 10
24012.04323149996
 20
19655.534510000001
 30
0.0
 11
24006.045290499969
 21
19655.534510000001
 31
0.0
  0
LINE
  5
3AFA
  8
2-0
  6
CONTINUOUS
 62
     3
 10
24006.045290499969
 20
19655.534510000001
 30
0.0
 11
24006.045290499969
 21
19685.538073000022
 31
0.0
  0
LINE
  5
3AFB
  8
2-0
  6
CONTINUOUS
 62
     3
 10
24043.04645149998
 20
19685.538073000022
 30
0.0
 11
24006.045290499969
 21
19685.538073000022
 31
0.0
  0
LINE
  5
3AFC
  8
2-0
  6
CONTINUOUS
 62
     3
 10
24043.04645149998
 20
19655.534510000001
 30
0.0
 11
24043.04645149998
 21
19685.538073000022
 31
0.0
  0
LINE
  5
3AFD
  8
2-0
  6
CONTINUOUS
 62
     3
 10
24037.040592499969
 20
19655.534510000001
 30
0.0
 11
24043.04645149998
 21
19655.534510000001
 31
0.0
  0
LINE
  5
3AFE
  8
2-0
  6
CONTINUOUS
 62
     3
 10
24053.14001649998
 20
19655.534510000001
 30
0.0
 11
24053.14001649998
 21
19685.538073000022
 31
0.0
  0
LINE
  5
3AFF
  8
2-0
  6
CONTINUOUS
 62
     3
 10
24035.144213499971
 20
19655.534510000001
 30
0.0
 11
24053.14001649998
 21
19655.534510000001
 31
0.0
  0
LINE
  5
3B00
  8
2-0
  6
CONTINUOUS
 62
     3
 10
24035.144213499971
 20
19680.543747000011
 30
0.0
 11
24035.144213499971
 21
19655.534510000001
 31
0.0
  0
LINE
  5
3B01
  8
2-0
  6
CONTINUOUS
 62
     3
 10
24040.134579499969
 20
19680.543747000011
 30
0.0
 11
24035.144213499971
 21
19680.543747000011
 31
0.0
  0
LINE
  5
3B02
  8
2-0
  6
CONTINUOUS
 62
     3
 10
24040.134579499969
 20
19673.538230999999
 30
0.0
 11
24040.134579499969
 21
19680.543747000011
 31
0.0
  0
LINE
  5
3B03
  8
2-0
  6
CONTINUOUS
 62
     3
 10
23352.141006499969
 20
19685.538073000022
 30
0.0
 11
23995.95172549997
 21
19685.538073000022
 31
0.0
  0
LINE
  5
3B04
  8
2-0
  6
CONTINUOUS
 62
     3
 10
22651.344896999999
 20
19685.538073000022
 30
0.0
 11
23294.950735499981
 21
19685.538073000022
 31
0.0
  0
LINE
  5
3B05
  8
2-0
  6
CONTINUOUS
 62
     3
 10
25401.429500999991
 20
19685.538073000022
 30
0.0
 11
24754.143975999981
 21
19685.538073000022
 31
0.0
  0
LINE
  5
3B06
  8
2-0
  6
CONTINUOUS
 62
     3
 10
24696.951724999981
 20
19685.538073000022
 30
0.0
 11
24053.14001649998
 21
19685.538073000022
 31
0.0
  0
LINE
  5
3B07
  8
2-0
  6
CONTINUOUS
 62
     3
 10
22638.137548999981
 20
19673.538230999999
 30
0.0
 11
22638.137548999981
 21
19680.543747000011
 31
0.0
  0
LINE
  5
3B08
  8
2-0
  6
CONTINUOUS
 62
     3
 10
22638.137548999981
 20
19680.543747000011
 30
0.0
 11
22633.137284999972
 21
19680.543747000011
 31
0.0
  0
LINE
  5
3B09
  8
2-0
  6
CONTINUOUS
 62
     3
 10
22633.137284999972
 20
19680.543747000011
 30
0.0
 11
22633.137284999972
 21
19655.534510000001
 31
0.0
  0
LINE
  5
3B0A
  8
2-0
  6
CONTINUOUS
 62
     3
 10
22633.137284999972
 20
19655.534510000001
 30
0.0
 11
22651.139027000001
 21
19655.534510000001
 31
0.0
  0
LINE
  5
3B0B
  8
2-0
  6
CONTINUOUS
 62
     3
 10
22651.139027000001
 20
19655.534510000001
 30
0.0
 11
22651.139027000001
 21
19685.538073000022
 31
0.0
  0
LINE
  5
3B0C
  8
2-0
  6
CONTINUOUS
 62
     3
 10
22635.03960199999
 20
19655.534510000001
 30
0.0
 11
22641.043481999968
 21
19655.534510000001
 31
0.0
  0
LINE
  5
3B0D
  8
2-0
  6
CONTINUOUS
 62
     3
 10
22641.043481999968
 20
19655.534510000001
 30
0.0
 11
22641.043481999968
 21
19685.538073000022
 31
0.0
  0
LINE
  5
3B0E
  8
2-0
  6
CONTINUOUS
 62
     3
 10
22604.048259999981
 20
19685.538073000022
 30
0.0
 11
22641.043481999968
 21
19685.538073000022
 31
0.0
  0
LINE
  5
3B0F
  8
2-0
  6
CONTINUOUS
 62
     3
 10
22604.048259999981
 20
19655.534510000001
 30
0.0
 11
22604.048259999981
 21
19685.538073000022
 31
0.0
  0
LINE
  5
3B10
  8
2-0
  6
CONTINUOUS
 62
     3
 10
22610.042241999981
 20
19655.534510000001
 30
0.0
 11
22604.048259999981
 21
19655.534510000001
 31
0.0
  0
LINE
  5
3B11
  8
2-0
  6
CONTINUOUS
 62
     3
 10
22593.952714999981
 20
19655.534510000001
 30
0.0
 11
22593.952714999981
 21
19685.538073000022
 31
0.0
  0
LINE
  5
3B12
  8
2-0
  6
CONTINUOUS
 62
     3
 10
22611.948518000001
 20
19655.534510000001
 30
0.0
 11
22593.952714999981
 21
19655.534510000001
 31
0.0
  0
LINE
  5
3B13
  8
2-0
  6
CONTINUOUS
 62
     3
 10
22611.948518000001
 20
19680.543747000011
 30
0.0
 11
22611.948518000001
 21
19655.534510000001
 31
0.0
  0
LINE
  5
3B14
  8
2-0
  6
CONTINUOUS
 62
     3
 10
22606.950233999982
 20
19680.543747000011
 30
0.0
 11
22611.948518000001
 21
19680.543747000011
 31
0.0
  0
LINE
  5
3B15
  8
2-0
  6
CONTINUOUS
 62
     3
 10
22606.950233999982
 20
19673.538230999999
 30
0.0
 11
22606.950233999982
 21
19680.543747000011
 31
0.0
  0
LINE
  5
3B16
  8
2-0
  6
CONTINUOUS
 62
     3
 10
22297.851112999972
 20
19685.538073000022
 30
0.0
 11
22593.952714999981
 21
19685.538073000022
 31
0.0
  0
LINE
  5
3B17
  8
2-0
  6
CONTINUOUS
 62
     3
 10
22133.618373999991
 20
19685.538073000022
 30
0.0
 11
21485.643975999981
 21
19685.538073000022
 31
0.0
  0
LINE
  5
3B18
  8
2-0
  6
CONTINUOUS
 62
     3
 10
25526.044154999981
 20
15588.179225
 30
0.0
 11
25526.044154999981
 21
14944.375435000011
 31
0.0
  0
CIRCLE
  5
3B19
  8
2-0
  6
CONTINUOUS
 62
     4
 10
25483.54587099998
 20
21085.542692000021
 30
0.0
 40
200.00001
  0
TEXT
  5
3B1A
  8
2-0
  6
CONTINUOUS
 62
     7
 10
25431.91408799999
 20
20990.017063000021
 30
0.0
 40
160.0
  1
3
 72
     4
 11
25485.247421333319
 21
21070.017063000021
 31
0.0
  0
LINE
  5
3B1B
  8
SUNPOU
  6
CONTINUOUS
 10
7011.0896509999811
 20
19865.53569700001
 30
0.0
 11
7011.0896509999811
 21
20662.50296477848
 31
0.0
  0
LINE
  5
3B1C
  8
SUNPOU
  6
CONTINUOUS
 10
7011.0896509999811
 20
14315.544472999991
 30
0.0
 11
7011.0896509999811
 21
13640.11835718962
 31
0.0
  0
LINE
  5
3B1D
  8
SUNPOU
  6
CONTINUOUS
 10
8771.7904090000011
 20
9515.0901529999974
 30
0.0
 11
8296.501296359771
 21
9515.0901529999974
 31
0.0
  0
LINE
  5
3B20
  8
WAKUSEN-01
 10
868.00000000000193
 20
22484.000000000011
 30
0.0
 11
32764.000000000011
 21
22484.000000000011
 31
0.0
  0
LINE
  5
3B23
  8
WAKUSEN-01
 10
20560.0
 20
2484.0
 30
0.0
 11
32764.0
 21
2484.0
 31
0.0
  0
LINE
  5
3B24
  8
WAKUSEN-02
 10
20560.0
 20
1655.999999999998
 30
0.0
 11
26868.0
 21
1655.999999999998
 31
0.0
  0
TEXT
  5
3B25
  8
WAKUMOJI-01
 10
20670.260259962761
 20
2125.9030093393221
 30
0.0
 40
240.0
  1
名　称
  7
WAKUMOJI
  0
TEXT
  5
3B26
  8
WAKUMOJI-01
 10
20656.505485091919
 20
1319.12897497982
 30
0.0
 40
240.0
  1
機種名
  7
WAKUMOJI
  0
LINE
  5
3B29
  8
YODOROGO
 10
29977.604341291921
 20
1995.7494964292871
 30
0.0
 11
29829.604341291921
 21
1995.7494964292871
 31
0.0
1001
AUTOCAD_POSTSCRIPT_FIGURE
1002
{
1000
PSFILL
1000
Grayscale
1000
Grayscale
1070
    25
1002
}
  0
LINE
  5
3B2A
  8
YODOROGO
 10
29829.604341291921
 20
1947.749496429288
 30
0.0
 11
29977.604341291921
 21
1947.749496429288
 31
0.0
1001
AUTOCAD_POSTSCRIPT_FIGURE
1002
{
1000
PSFILL
1000
Grayscale
1000
Grayscale
1070
    25
1002
}
  0
LINE
  5
3B2B
  8
YODOROGO
 10
29977.604341291921
 20
1907.7494964292871
 30
0.0
 11
29829.604341291921
 21
1907.7494964292871
 31
0.0
1001
AUTOCAD_POSTSCRIPT_FIGURE
1002
{
1000
PSFILL
1000
Grayscale
1000
Grayscale
1070
    25
1002
}
  0
LINE
  5
3B2C
  8
YODOROGO
 10
29829.604341291921
 20
1859.7494964292871
 30
0.0
 11
29977.604341291921
 21
1859.7494964292871
 31
0.0
1001
AUTOCAD_POSTSCRIPT_FIGURE
1002
{
1000
PSFILL
1000
Grayscale
1000
Grayscale
1070
    25
1002
}
  0
LINE
  5
3B2D
  8
YODOROGO
 10
29977.604341291921
 20
1819.7494964292871
 30
0.0
 11
29829.604341291921
 21
1819.7494964292871
 31
0.0
1001
AUTOCAD_POSTSCRIPT_FIGURE
1002
{
1000
PSFILL
1000
Grayscale
1000
Grayscale
1070
    25
1002
}
  0
LINE
  5
3B2E
  8
YODOROGO
 10
29921.60434129191
 20
1707.749496429288
 30
0.0
 11
29977.604341291921
 21
1707.749496429288
 31
0.0
1001
AUTOCAD_POSTSCRIPT_FIGURE
1002
{
1000
PSFILL
1000
Grayscale
1000
Grayscale
1070
    25
1002
}
  0
LINE
  5
3B2F
  8
YODOROGO
 10
29737.604341291921
 20
1427.749496429288
 30
0.0
 11
29937.604341291932
 21
1481.3393349155101
 31
0.0
  0
LINE
  5
3B30
  8
YODOROGO
 10
29949.60434129191
 20
1707.749496429288
 30
0.0
 11
29885.604341291921
 21
1707.749496429288
 31
0.0
  0
ARC
  5
3B31
  8
YODOROGO
 10
30254.34774982791
 20
1807.864609233261
 30
0.0
 40
381.88686420564721
 50
213.96111677667841
 51
264.47872074317792
  0
ARC
  5
3B32
  8
YODOROGO
 10
30254.347749827921
 20
1807.864609233302
 30
0.0
 40
381.8868642056816
 50
208.14114420486601
 51
212.9210361185994
  0
LINE
  5
3B33
  8
YODOROGO
 10
29771.409872985321
 20
1556.807661346234
 30
0.0
 11
29933.78413250855
 21
1600.315713057086
 31
0.0
  0
LINE
  5
3B34
  8
YODOROGO
 10
29737.604341291921
 20
1427.749496429288
 30
0.0
 11
29937.604341291932
 21
1481.3393349155101
 31
0.0
  0
LINE
  5
3B35
  8
YODOROGO
 10
29949.60434129191
 20
1707.749496429288
 30
0.0
 11
29885.604341291921
 21
1707.749496429288
 31
0.0
  0
ARC
  5
3B36
  8
YODOROGO
 10
30254.34774982791
 20
1807.864609233261
 30
0.0
 40
381.88686420564721
 50
213.96111677667841
 51
264.47872074317792
  0
LINE
  5
3B37
  8
YODOROGO
 10
28793.60434129191
 20
1819.7494964292871
 30
0.0
 11
28433.60434129191
 21
1819.7494964292871
 31
0.0
  0
LINE
  5
3B38
  8
YODOROGO
 10
28513.60434129191
 20
1427.749496429288
 30
0.0
 11
28793.60434129191
 21
1427.749496429288
 31
0.0
  0
LINE
  5
3B39
  8
YODOROGO
 10
28729.604341291921
 20
1923.7494964292871
 30
0.0
 11
28497.60434129191
 21
1923.7494964292871
 31
0.0
  0
LINE
  5
3B3A
  8
YODOROGO
 10
28585.604341291921
 20
2027.749496429288
 30
0.0
 11
28657.604341291921
 21
2027.749496429288
 31
0.0
  0
LINE
  5
3B3B
  8
YODOROGO
 10
28433.60434129191
 20
1707.749496429288
 30
0.0
 11
28433.60434129191
 21
1507.749496429288
 31
0.0
  0
LINE
  5
3B3C
  8
YODOROGO
 10
28497.60434129191
 20
1563.7494964292871
 30
0.0
 11
28497.60434129191
 21
1707.749496429288
 31
0.0
  0
LINE
  5
3B3D
  8
YODOROGO
 10
28585.604341291921
 20
1747.74949642929
 30
0.0
 11
28585.604341291921
 21
1547.749496429288
 31
0.0
  0
LINE
  5
3B3E
  8
YODOROGO
 10
27857.604341291921
 20
1683.749496429288
 30
0.0
 11
27777.604341291921
 21
1619.9724140445701
 31
0.0
  0
LINE
  5
3B3F
  8
YODOROGO
 10
27937.604341291921
 20
1619.9724140445701
 30
0.0
 11
27857.604341291921
 21
1683.749496429288
 31
0.0
  0
LINE
  5
3B40
  8
YODOROGO
 10
27857.604341291921
 20
1707.749496429288
 30
0.0
 11
27937.604341291921
 21
1643.9724140445701
 31
0.0
  0
LINE
  5
3B41
  8
YODOROGO
 10
27777.604341291921
 20
1643.9724140445701
 30
0.0
 11
27857.604341291921
 21
1707.749496429288
 31
0.0
  0
LINE
  5
3B42
  8
YODOROGO
 10
28040.913204016892
 20
1659.749496429288
 30
0.0
 11
28040.913204016892
 21
1683.7494964292871
 31
0.0
  0
LINE
  5
3B43
  8
YODOROGO
 10
27977.604341291921
 20
1683.7494964292871
 30
0.0
 11
27977.604341291921
 21
1667.749496429285
 31
0.0
  0
LINE
  5
3B44
  8
YODOROGO
 10
28098.135520230931
 20
1707.749496429288
 30
0.0
 11
28098.135520230931
 21
1655.5036372746561
 31
0.0
1001
AUTOCAD_POSTSCRIPT_FIGURE
1002
{
1000
PSFILL
1000
Grayscale
1000
Grayscale
1070
   100
1002
}
  0
LINE
  5
3B45
  8
YODOROGO
 10
28082.135520230921
 20
1655.5036372746561
 30
0.0
 11
28082.135520230921
 21
1707.749496429288
 31
0.0
1001
AUTOCAD_POSTSCRIPT_FIGURE
1002
{
1000
PSFILL
1000
Grayscale
1000
Grayscale
1070
   100
1002
}
  0
LINE
  5
3B46
  8
YODOROGO
 10
27809.604341291921
 20
1608.771904043258
 30
0.0
 11
27809.604341291921
 21
1632.771904043258
 31
0.0
  0
LINE
  5
3B47
  8
YODOROGO
 10
27905.604341291921
 20
1608.771904043258
 30
0.0
 11
27809.604341291921
 21
1608.771904043258
 31
0.0
  0
LINE
  5
3B48
  8
YODOROGO
 10
27905.604341291921
 20
1632.771904043258
 30
0.0
 11
27905.604341291921
 21
1608.771904043258
 31
0.0
  0
LINE
  5
3B49
  8
YODOROGO
 10
27809.604341291921
 20
1632.771904043258
 30
0.0
 11
27905.604341291921
 21
1632.771904043258
 31
0.0
  0
LINE
  5
3B4A
  8
YODOROGO
 10
27824.509588915738
 20
1568.5028573704751
 30
0.0
 11
27785.604341291921
 21
1475.7494964292871
 31
0.0
1001
AUTOCAD_POSTSCRIPT_FIGURE
1002
{
1000
PSFILL
1000
Grayscale
1000
Grayscale
1070
   100
1002
}
  0
LINE
  5
3B4B
  8
YODOROGO
 10
27777.604341291921
 20
1568.5028573704751
 30
0.0
 11
27824.509588915738
 21
1568.5028573704751
 31
0.0
1001
AUTOCAD_POSTSCRIPT_FIGURE
1002
{
1000
PSFILL
1000
Grayscale
1000
Grayscale
1070
   100
1002
}
  0
LINE
  5
3B4C
  8
YODOROGO
 10
27777.604341291921
 20
1588.5028573704751
 30
0.0
 11
27777.604341291921
 21
1568.5028573704751
 31
0.0
1001
AUTOCAD_POSTSCRIPT_FIGURE
1002
{
1000
PSFILL
1000
Grayscale
1000
Grayscale
1070
   100
1002
}
  0
LINE
  5
3B4D
  8
YODOROGO
 10
27937.604341291921
 20
1588.5028573704751
 30
0.0
 11
27777.604341291921
 21
1588.5028573704751
 31
0.0
1001
AUTOCAD_POSTSCRIPT_FIGURE
1002
{
1000
PSFILL
1000
Grayscale
1000
Grayscale
1070
   100
1002
}
  0
LINE
  5
3B4E
  8
YODOROGO
 10
27937.604341291921
 20
1568.5028573704751
 30
0.0
 11
27937.604341291921
 21
1588.5028573704751
 31
0.0
1001
AUTOCAD_POSTSCRIPT_FIGURE
1002
{
1000
PSFILL
1000
Grayscale
1000
Grayscale
1070
   100
1002
}
  0
LINE
  5
3B4F
  8
YODOROGO
 10
27844.509588915738
 20
1568.5028573704751
 30
0.0
 11
27937.604341291921
 21
1568.5028573704751
 31
0.0
1001
AUTOCAD_POSTSCRIPT_FIGURE
1002
{
1000
PSFILL
1000
Grayscale
1000
Grayscale
1070
   100
1002
}
  0
LINE
  5
3B50
  8
YODOROGO
 10
27815.546718284771
 20
1495.7494964292871
 30
0.0
 11
27844.509588915738
 21
1568.5028573704751
 31
0.0
1001
AUTOCAD_POSTSCRIPT_FIGURE
1002
{
1000
PSFILL
1000
Grayscale
1000
Grayscale
1070
   100
1002
}
  0
LINE
  5
3B51
  8
YODOROGO
 10
27902.054790808648
 20
1495.7494964292871
 30
0.0
 11
27815.546718284771
 21
1495.7494964292871
 31
0.0
1001
AUTOCAD_POSTSCRIPT_FIGURE
1002
{
1000
PSFILL
1000
Grayscale
1000
Grayscale
1070
   100
1002
}
  0
LINE
  5
3B52
  8
YODOROGO
 10
27885.065004790951
 20
1536.233810697692
 30
0.0
 11
27902.054790808648
 21
1495.7494964292871
 31
0.0
1001
AUTOCAD_POSTSCRIPT_FIGURE
1002
{
1000
PSFILL
1000
Grayscale
1000
Grayscale
1070
   100
1002
}
  0
LINE
  5
3B53
  8
YODOROGO
 10
27901.065004790951
 20
1536.233810697692
 30
0.0
 11
27885.065004790951
 21
1536.233810697692
 31
0.0
1001
AUTOCAD_POSTSCRIPT_FIGURE
1002
{
1000
PSFILL
1000
Grayscale
1000
Grayscale
1070
   100
1002
}
  0
LINE
  5
3B54
  8
YODOROGO
 10
27929.604341291921
 20
1475.7494964292871
 30
0.0
 11
27901.065004790951
 21
1536.233810697692
 31
0.0
1001
AUTOCAD_POSTSCRIPT_FIGURE
1002
{
1000
PSFILL
1000
Grayscale
1000
Grayscale
1070
   100
1002
}
  0
LINE
  5
3B55
  8
YODOROGO
 10
27785.604341291921
 20
1475.7494964292871
 30
0.0
 11
27929.604341291921
 21
1475.7494964292871
 31
0.0
1001
AUTOCAD_POSTSCRIPT_FIGURE
1002
{
1000
PSFILL
1000
Grayscale
1000
Grayscale
1070
   100
1002
}
  0
LINE
  5
3B56
  8
YODOROGO
 10
27777.604341291921
 20
1619.9724140445701
 30
0.0
 11
27777.604341291921
 21
1643.9724140445701
 31
0.0
  0
LINE
  5
3B57
  8
YODOROGO
 10
27937.604341291921
 20
1643.9724140445701
 30
0.0
 11
27937.604341291921
 21
1619.9724140445701
 31
0.0
  0
ARC
  5
3B58
  8
YODOROGO
 10
28225.940442146959
 20
1600.877765325326
 30
0.0
 40
175.9999999999998
 50
280.3644312771313
 51
3.5414836592180561
  0
ARC
  5
3B59
  8
YODOROGO
 10
28235.756030759301
 20
1633.5978069619041
 30
0.0
 40
111.9999999999982
 50
281.24905825041549
 51
348.75094174958332
  0
LINE
  5
3B5A
  8
YODOROGO
 10
28257.604341291921
 20
1523.7494964292871
 30
0.0
 11
28257.604341291921
 21
1427.749496429288
 31
0.0
  0
LINE
  5
3B5B
  8
YODOROGO
 10
28020.088903736909
 20
1610.650565061914
 30
0.0
 11
28040.913204016892
 21
1659.749496429288
 31
0.0
  0
LINE
  5
3B5C
  8
YODOROGO
 10
28041.604341291921
 20
1583.120489948401
 30
0.0
 11
28020.088903736909
 21
1610.650565061914
 31
0.0
  0
LINE
  5
3B5D
  8
YODOROGO
 10
28041.604341291921
 20
1563.120489948398
 30
0.0
 11
28041.604341291921
 21
1583.120489948401
 31
0.0
  0
LINE
  5
3B5E
  8
YODOROGO
 10
28017.604341291921
 20
1585.2370637495301
 30
0.0
 11
28041.604341291921
 21
1563.120489948398
 31
0.0
  0
LINE
  5
3B5F
  8
YODOROGO
 10
28017.604341291921
 20
1475.7494964292871
 30
0.0
 11
28017.604341291921
 21
1585.2370637495301
 31
0.0
  0
LINE
  5
3B60
  8
YODOROGO
 10
28001.604341291921
 20
1475.7494964292871
 30
0.0
 11
28017.604341291921
 21
1475.7494964292871
 31
0.0
  0
LINE
  5
3B61
  8
YODOROGO
 10
28001.604341291921
 20
1580.0053496897469
 30
0.0
 11
28001.604341291921
 21
1475.7494964292871
 31
0.0
  0
LINE
  5
3B62
  8
YODOROGO
 10
27977.604341291921
 20
1532.7680790334291
 30
0.0
 11
28001.604341291921
 21
1580.0053496897469
 31
0.0
  0
LINE
  5
3B63
  8
YODOROGO
 10
27977.604341291921
 20
1556.76807903343
 30
0.0
 11
27977.604341291921
 21
1532.7680790334291
 31
0.0
  0
LINE
  5
3B64
  8
YODOROGO
 10
28025.828774291349
 20
1667.749496429285
 30
0.0
 11
27977.604341291921
 21
1556.76807903343
 31
0.0
  0
LINE
  5
3B65
  8
YODOROGO
 10
27977.604341291921
 20
1667.749496429285
 30
0.0
 11
28025.828774291349
 21
1667.749496429285
 31
0.0
  0
LINE
  5
3B66
  8
YODOROGO
 10
28050.135520230899
 20
1655.5036372746561
 30
0.0
 11
28082.135520230921
 21
1655.5036372746561
 31
0.0
1001
AUTOCAD_POSTSCRIPT_FIGURE
1002
{
1000
PSFILL
1000
Grayscale
1000
Grayscale
1070
   100
1002
}
  0
LINE
  5
3B67
  8
YODOROGO
 10
28050.135520230899
 20
1631.5036372746561
 30
0.0
 11
28050.135520230899
 21
1655.5036372746561
 31
0.0
1001
AUTOCAD_POSTSCRIPT_FIGURE
1002
{
1000
PSFILL
1000
Grayscale
1000
Grayscale
1070
   100
1002
}
  0
LINE
  5
3B68
  8
YODOROGO
 10
28082.135520230921
 20
1631.5036372746561
 30
0.0
 11
28050.135520230899
 21
1631.5036372746561
 31
0.0
1001
AUTOCAD_POSTSCRIPT_FIGURE
1002
{
1000
PSFILL
1000
Grayscale
1000
Grayscale
1070
   100
1002
}
  0
LINE
  5
3B69
  8
YODOROGO
 10
28082.135520230921
 20
1499.749496429288
 30
0.0
 11
28082.135520230921
 21
1631.5036372746561
 31
0.0
1001
AUTOCAD_POSTSCRIPT_FIGURE
1002
{
1000
PSFILL
1000
Grayscale
1000
Grayscale
1070
   100
1002
}
  0
LINE
  5
3B6A
  8
YODOROGO
 10
28050.135520230921
 20
1499.749496429288
 30
0.0
 11
28082.135520230921
 21
1499.749496429288
 31
0.0
1001
AUTOCAD_POSTSCRIPT_FIGURE
1002
{
1000
PSFILL
1000
Grayscale
1000
Grayscale
1070
   100
1002
}
  0
LINE
  5
3B6B
  8
YODOROGO
 10
28050.135520230921
 20
1475.7494964292871
 30
0.0
 11
28050.135520230921
 21
1499.749496429288
 31
0.0
1001
AUTOCAD_POSTSCRIPT_FIGURE
1002
{
1000
PSFILL
1000
Grayscale
1000
Grayscale
1070
   100
1002
}
  0
LINE
  5
3B6C
  8
YODOROGO
 10
28137.604341291921
 20
1475.7494964292871
 30
0.0
 11
28050.135520230921
 21
1475.7494964292871
 31
0.0
1001
AUTOCAD_POSTSCRIPT_FIGURE
1002
{
1000
PSFILL
1000
Grayscale
1000
Grayscale
1070
   100
1002
}
  0
LINE
  5
3B6D
  8
YODOROGO
 10
28137.604341291921
 20
1499.749496429288
 30
0.0
 11
28137.604341291921
 21
1475.7494964292871
 31
0.0
1001
AUTOCAD_POSTSCRIPT_FIGURE
1002
{
1000
PSFILL
1000
Grayscale
1000
Grayscale
1070
   100
1002
}
  0
LINE
  5
3B6E
  8
YODOROGO
 10
28098.135520230931
 20
1499.749496429288
 30
0.0
 11
28137.604341291921
 21
1499.749496429288
 31
0.0
1001
AUTOCAD_POSTSCRIPT_FIGURE
1002
{
1000
PSFILL
1000
Grayscale
1000
Grayscale
1070
   100
1002
}
  0
LINE
  5
3B6F
  8
YODOROGO
 10
28098.135520230931
 20
1631.5036372746561
 30
0.0
 11
28098.135520230931
 21
1499.749496429288
 31
0.0
1001
AUTOCAD_POSTSCRIPT_FIGURE
1002
{
1000
PSFILL
1000
Grayscale
1000
Grayscale
1070
   100
1002
}
  0
LINE
  5
3B70
  8
YODOROGO
 10
28137.604341291921
 20
1631.5036372746561
 30
0.0
 11
28098.135520230931
 21
1631.5036372746561
 31
0.0
1001
AUTOCAD_POSTSCRIPT_FIGURE
1002
{
1000
PSFILL
1000
Grayscale
1000
Grayscale
1070
   100
1002
}
  0
LINE
  5
3B71
  8
YODOROGO
 10
28137.604341291921
 20
1655.5036372746561
 30
0.0
 11
28137.604341291921
 21
1631.5036372746561
 31
0.0
1001
AUTOCAD_POSTSCRIPT_FIGURE
1002
{
1000
PSFILL
1000
Grayscale
1000
Grayscale
1070
   100
1002
}
  0
LINE
  5
3B72
  8
YODOROGO
 10
28098.135520230931
 20
1655.5036372746561
 30
0.0
 11
28137.604341291921
 21
1655.5036372746561
 31
0.0
1001
AUTOCAD_POSTSCRIPT_FIGURE
1002
{
1000
PSFILL
1000
Grayscale
1000
Grayscale
1070
   100
1002
}
  0
LINE
  5
3B73
  8
YODOROGO
 10
28401.60434129191
 20
1667.749496429288
 30
0.0
 11
28345.604341291921
 21
1667.749496429288
 31
0.0
  0
LINE
  5
3B74
  8
YODOROGO
 10
28401.60434129191
 20
1611.7494964292871
 30
0.0
 11
28401.60434129191
 21
1667.749496429288
 31
0.0
  0
LINE
  5
3B75
  8
YODOROGO
 10
28345.604341291921
 20
1667.749496429288
 30
0.0
 11
28345.604341291921
 21
1611.7494964292871
 31
0.0
  0
ARC
  5
3B76
  8
YODOROGO
 10
28513.60434129191
 20
1507.749496429288
 30
0.0
 40
80.0
 50
180.0
 51
270.0
  0
ARC
  5
3B77
  8
YODOROGO
 10
28537.604341291921
 20
1563.7494964292871
 30
0.0
 40
40.0
 50
180.0
 51
270.0
  0
LINE
  5
3B78
  8
YODOROGO
 10
28561.604341291932
 20
1523.7494964292871
 30
0.0
 11
28537.604341291921
 21
1523.7494964292871
 31
0.0
  0
ARC
  5
3B79
  8
YODOROGO
 10
28561.604341291932
 20
1547.749496429285
 30
0.0
 40
23.999999999996358
 50
270.0
 51
0.0000000000054281
  0
LINE
  5
3B7A
  8
YODOROGO
 10
27801.604341291921
 20
1890.7865807937051
 30
0.0
 11
27777.604341291921
 21
1843.776747951672
 31
0.0
1001
AUTOCAD_POSTSCRIPT_FIGURE
1002
{
1000
PSFILL
1000
Grayscale
1000
Grayscale
1070
   100
1002
}
  0
LINE
  5
3B7B
  8
YODOROGO
 10
27801.604341291921
 20
1747.749496429286
 30
0.0
 11
27801.604341291921
 21
1890.7865807937051
 31
0.0
1001
AUTOCAD_POSTSCRIPT_FIGURE
1002
{
1000
PSFILL
1000
Grayscale
1000
Grayscale
1070
   100
1002
}
  0
LINE
  5
3B7C
  8
YODOROGO
 10
27817.604341291921
 20
1747.749496429286
 30
0.0
 11
27801.604341291921
 21
1747.749496429286
 31
0.0
1001
AUTOCAD_POSTSCRIPT_FIGURE
1002
{
1000
PSFILL
1000
Grayscale
1000
Grayscale
1070
   100
1002
}
  0
LINE
  5
3B7D
  8
YODOROGO
 10
27817.604341291921
 20
1893.7713320852661
 30
0.0
 11
27817.604341291921
 21
1747.749496429286
 31
0.0
1001
AUTOCAD_POSTSCRIPT_FIGURE
1002
{
1000
PSFILL
1000
Grayscale
1000
Grayscale
1070
   100
1002
}
  0
LINE
  5
3B7E
  8
YODOROGO
 10
27841.604341291921
 20
1867.6547582841361
 30
0.0
 11
27817.604341291921
 21
1893.7713320852661
 31
0.0
1001
AUTOCAD_POSTSCRIPT_FIGURE
1002
{
1000
PSFILL
1000
Grayscale
1000
Grayscale
1070
   100
1002
}
  0
LINE
  5
3B7F
  8
YODOROGO
 10
27841.604341291921
 20
1883.6547582841361
 30
0.0
 11
27841.604341291921
 21
1867.6547582841361
 31
0.0
1001
AUTOCAD_POSTSCRIPT_FIGURE
1002
{
1000
PSFILL
1000
Grayscale
1000
Grayscale
1070
   100
1002
}
  0
LINE
  5
3B80
  8
YODOROGO
 10
27817.604341291921
 20
1917.7713320852649
 30
0.0
 11
27841.604341291921
 21
1883.6547582841361
 31
0.0
1001
AUTOCAD_POSTSCRIPT_FIGURE
1002
{
1000
PSFILL
1000
Grayscale
1000
Grayscale
1070
   100
1002
}
  0
LINE
  5
3B81
  8
YODOROGO
 10
27817.604341291921
 20
1939.749496429288
 30
0.0
 11
27817.604341291921
 21
1917.7713320852649
 31
0.0
1001
AUTOCAD_POSTSCRIPT_FIGURE
1002
{
1000
PSFILL
1000
Grayscale
1000
Grayscale
1070
   100
1002
}
  0
LINE
  5
3B82
  8
YODOROGO
 10
27889.604341291921
 20
1939.749496429288
 30
0.0
 11
27817.604341291921
 21
1939.749496429288
 31
0.0
1001
AUTOCAD_POSTSCRIPT_FIGURE
1002
{
1000
PSFILL
1000
Grayscale
1000
Grayscale
1070
   100
1002
}
  0
LINE
  5
3B83
  8
YODOROGO
 10
27889.604341291921
 20
1900.5683489363
 30
0.0
 11
27889.604341291921
 21
1939.749496429288
 31
0.0
1001
AUTOCAD_POSTSCRIPT_FIGURE
1002
{
1000
PSFILL
1000
Grayscale
1000
Grayscale
1070
   100
1002
}
  0
LINE
  5
3B84
  8
YODOROGO
 10
27857.604341291921
 20
1900.5683489363
 30
0.0
 11
27889.604341291921
 21
1900.5683489363
 31
0.0
1001
AUTOCAD_POSTSCRIPT_FIGURE
1002
{
1000
PSFILL
1000
Grayscale
1000
Grayscale
1070
   100
1002
}
  0
LINE
  5
3B85
  8
YODOROGO
 10
27857.604341291921
 20
1884.568348936298
 30
0.0
 11
27857.604341291921
 21
1900.5683489363
 31
0.0
1001
AUTOCAD_POSTSCRIPT_FIGURE
1002
{
1000
PSFILL
1000
Grayscale
1000
Grayscale
1070
   100
1002
}
  0
LINE
  5
3B86
  8
YODOROGO
 10
27889.604341291921
 20
1884.568348936298
 30
0.0
 11
27857.604341291921
 21
1884.568348936298
 31
0.0
1001
AUTOCAD_POSTSCRIPT_FIGURE
1002
{
1000
PSFILL
1000
Grayscale
1000
Grayscale
1070
   100
1002
}
  0
LINE
  5
3B87
  8
YODOROGO
 10
27889.604341291921
 20
1879.6191779644371
 30
0.0
 11
27889.604341291921
 21
1884.568348936298
 31
0.0
1001
AUTOCAD_POSTSCRIPT_FIGURE
1002
{
1000
PSFILL
1000
Grayscale
1000
Grayscale
1070
   100
1002
}
  0
LINE
  5
3B88
  8
YODOROGO
 10
27849.604341291921
 20
1812.974981161417
 30
0.0
 11
27889.604341291921
 21
1879.6191779644371
 31
0.0
1001
AUTOCAD_POSTSCRIPT_FIGURE
1002
{
1000
PSFILL
1000
Grayscale
1000
Grayscale
1070
   100
1002
}
  0
LINE
  5
3B89
  8
YODOROGO
 10
27849.604341291921
 20
1796.9749811614149
 30
0.0
 11
27849.604341291921
 21
1812.974981161417
 31
0.0
1001
AUTOCAD_POSTSCRIPT_FIGURE
1002
{
1000
PSFILL
1000
Grayscale
1000
Grayscale
1070
   100
1002
}
  0
LINE
  5
3B8A
  8
YODOROGO
 10
27889.604341291921
 20
1847.6191779644359
 30
0.0
 11
27849.604341291921
 21
1796.9749811614149
 31
0.0
1001
AUTOCAD_POSTSCRIPT_FIGURE
1002
{
1000
PSFILL
1000
Grayscale
1000
Grayscale
1070
   100
1002
}
  0
LINE
  5
3B8B
  8
YODOROGO
 10
27889.604341291921
 20
1747.749496429286
 30
0.0
 11
27889.604341291921
 21
1847.6191779644359
 31
0.0
1001
AUTOCAD_POSTSCRIPT_FIGURE
1002
{
1000
PSFILL
1000
Grayscale
1000
Grayscale
1070
   100
1002
}
  0
LINE
  5
3B8C
  8
YODOROGO
 10
27905.604341291921
 20
1747.749496429286
 30
0.0
 11
27889.604341291921
 21
1747.749496429286
 31
0.0
1001
AUTOCAD_POSTSCRIPT_FIGURE
1002
{
1000
PSFILL
1000
Grayscale
1000
Grayscale
1070
   100
1002
}
  0
LINE
  5
3B8D
  8
YODOROGO
 10
27905.604341291921
 20
1849.409012158806
 30
0.0
 11
27905.604341291921
 21
1747.749496429286
 31
0.0
1001
AUTOCAD_POSTSCRIPT_FIGURE
1002
{
1000
PSFILL
1000
Grayscale
1000
Grayscale
1070
   100
1002
}
  0
LINE
  5
3B8E
  8
YODOROGO
 10
27937.604341291921
 20
1796.9749811614149
 30
0.0
 11
27905.604341291921
 21
1849.409012158806
 31
0.0
1001
AUTOCAD_POSTSCRIPT_FIGURE
1002
{
1000
PSFILL
1000
Grayscale
1000
Grayscale
1070
   100
1002
}
  0
LINE
  5
3B8F
  8
YODOROGO
 10
27937.604341291921
 20
1812.974981161417
 30
0.0
 11
27937.604341291921
 21
1796.9749811614149
 31
0.0
1001
AUTOCAD_POSTSCRIPT_FIGURE
1002
{
1000
PSFILL
1000
Grayscale
1000
Grayscale
1070
   100
1002
}
  0
LINE
  5
3B90
  8
YODOROGO
 10
27905.604341291921
 20
1881.4090121588081
 30
0.0
 11
27937.604341291921
 21
1812.974981161417
 31
0.0
1001
AUTOCAD_POSTSCRIPT_FIGURE
1002
{
1000
PSFILL
1000
Grayscale
1000
Grayscale
1070
   100
1002
}
  0
LINE
  5
3B91
  8
YODOROGO
 10
27905.604341291921
 20
1884.5683489363
 30
0.0
 11
27905.604341291921
 21
1881.4090121588081
 31
0.0
1001
AUTOCAD_POSTSCRIPT_FIGURE
1002
{
1000
PSFILL
1000
Grayscale
1000
Grayscale
1070
   100
1002
}
  0
LINE
  5
3B92
  8
YODOROGO
 10
27937.604341291921
 20
1884.568348936298
 30
0.0
 11
27905.604341291921
 21
1884.5683489363
 31
0.0
1001
AUTOCAD_POSTSCRIPT_FIGURE
1002
{
1000
PSFILL
1000
Grayscale
1000
Grayscale
1070
   100
1002
}
  0
LINE
  5
3B93
  8
YODOROGO
 10
27937.604341291921
 20
1900.5683489363
 30
0.0
 11
27937.604341291921
 21
1884.568348936298
 31
0.0
1001
AUTOCAD_POSTSCRIPT_FIGURE
1002
{
1000
PSFILL
1000
Grayscale
1000
Grayscale
1070
   100
1002
}
  0
LINE
  5
3B94
  8
YODOROGO
 10
27905.604341291921
 20
1900.5683489363
 30
0.0
 11
27937.604341291921
 21
1900.5683489363
 31
0.0
1001
AUTOCAD_POSTSCRIPT_FIGURE
1002
{
1000
PSFILL
1000
Grayscale
1000
Grayscale
1070
   100
1002
}
  0
LINE
  5
3B95
  8
YODOROGO
 10
27905.604341291921
 20
1939.749496429288
 30
0.0
 11
27905.604341291921
 21
1900.5683489363
 31
0.0
1001
AUTOCAD_POSTSCRIPT_FIGURE
1002
{
1000
PSFILL
1000
Grayscale
1000
Grayscale
1070
   100
1002
}
  0
LINE
  5
3B96
  8
YODOROGO
 10
27937.604341291921
 20
1939.749496429288
 30
0.0
 11
27905.604341291921
 21
1939.749496429288
 31
0.0
1001
AUTOCAD_POSTSCRIPT_FIGURE
1002
{
1000
PSFILL
1000
Grayscale
1000
Grayscale
1070
   100
1002
}
  0
LINE
  5
3B97
  8
YODOROGO
 10
27937.604341291921
 20
1955.7494964292871
 30
0.0
 11
27937.604341291921
 21
1939.749496429288
 31
0.0
1001
AUTOCAD_POSTSCRIPT_FIGURE
1002
{
1000
PSFILL
1000
Grayscale
1000
Grayscale
1070
   100
1002
}
  0
LINE
  5
3B98
  8
YODOROGO
 10
27905.604341291921
 20
1955.7494964292871
 30
0.0
 11
27937.604341291921
 21
1955.7494964292871
 31
0.0
1001
AUTOCAD_POSTSCRIPT_FIGURE
1002
{
1000
PSFILL
1000
Grayscale
1000
Grayscale
1070
   100
1002
}
  0
LINE
  5
3B99
  8
YODOROGO
 10
27905.604341291921
 20
1979.749496429288
 30
0.0
 11
27905.604341291921
 21
1955.7494964292871
 31
0.0
1001
AUTOCAD_POSTSCRIPT_FIGURE
1002
{
1000
PSFILL
1000
Grayscale
1000
Grayscale
1070
   100
1002
}
  0
LINE
  5
3B9A
  8
YODOROGO
 10
27889.604341291921
 20
1979.749496429288
 30
0.0
 11
27905.604341291921
 21
1979.749496429288
 31
0.0
1001
AUTOCAD_POSTSCRIPT_FIGURE
1002
{
1000
PSFILL
1000
Grayscale
1000
Grayscale
1070
   100
1002
}
  0
LINE
  5
3B9B
  8
YODOROGO
 10
27889.604341291921
 20
1955.7494964292871
 30
0.0
 11
27889.604341291921
 21
1979.749496429288
 31
0.0
1001
AUTOCAD_POSTSCRIPT_FIGURE
1002
{
1000
PSFILL
1000
Grayscale
1000
Grayscale
1070
   100
1002
}
  0
LINE
  5
3B9C
  8
YODOROGO
 10
27865.604341291921
 20
1955.7494964292871
 30
0.0
 11
27889.604341291921
 21
1955.7494964292871
 31
0.0
1001
AUTOCAD_POSTSCRIPT_FIGURE
1002
{
1000
PSFILL
1000
Grayscale
1000
Grayscale
1070
   100
1002
}
  0
LINE
  5
3B9D
  8
YODOROGO
 10
27865.604341291921
 20
1979.749496429288
 30
0.0
 11
27865.604341291921
 21
1955.7494964292871
 31
0.0
1001
AUTOCAD_POSTSCRIPT_FIGURE
1002
{
1000
PSFILL
1000
Grayscale
1000
Grayscale
1070
   100
1002
}
  0
LINE
  5
3B9E
  8
YODOROGO
 10
27849.604341291921
 20
1979.749496429288
 30
0.0
 11
27865.604341291921
 21
1979.749496429288
 31
0.0
1001
AUTOCAD_POSTSCRIPT_FIGURE
1002
{
1000
PSFILL
1000
Grayscale
1000
Grayscale
1070
   100
1002
}
  0
LINE
  5
3B9F
  8
YODOROGO
 10
27849.604341291921
 20
1955.7494964292871
 30
0.0
 11
27849.604341291921
 21
1979.749496429288
 31
0.0
1001
AUTOCAD_POSTSCRIPT_FIGURE
1002
{
1000
PSFILL
1000
Grayscale
1000
Grayscale
1070
   100
1002
}
  0
LINE
  5
3BA0
  8
YODOROGO
 10
27817.604341291921
 20
1955.7494964292871
 30
0.0
 11
27849.604341291921
 21
1955.7494964292871
 31
0.0
1001
AUTOCAD_POSTSCRIPT_FIGURE
1002
{
1000
PSFILL
1000
Grayscale
1000
Grayscale
1070
   100
1002
}
  0
LINE
  5
3BA1
  8
YODOROGO
 10
27817.604341291921
 20
1979.749496429288
 30
0.0
 11
27817.604341291921
 21
1955.7494964292871
 31
0.0
1001
AUTOCAD_POSTSCRIPT_FIGURE
1002
{
1000
PSFILL
1000
Grayscale
1000
Grayscale
1070
   100
1002
}
  0
LINE
  5
3BA2
  8
YODOROGO
 10
27801.604341291921
 20
1979.749496429288
 30
0.0
 11
27817.604341291921
 21
1979.749496429288
 31
0.0
1001
AUTOCAD_POSTSCRIPT_FIGURE
1002
{
1000
PSFILL
1000
Grayscale
1000
Grayscale
1070
   100
1002
}
  0
LINE
  5
3BA3
  8
YODOROGO
 10
27801.604341291921
 20
1955.7494964292871
 30
0.0
 11
27801.604341291921
 21
1979.749496429288
 31
0.0
1001
AUTOCAD_POSTSCRIPT_FIGURE
1002
{
1000
PSFILL
1000
Grayscale
1000
Grayscale
1070
   100
1002
}
  0
LINE
  5
3BA4
  8
YODOROGO
 10
27777.604341291921
 20
1955.7494964292871
 30
0.0
 11
27801.604341291921
 21
1955.7494964292871
 31
0.0
1001
AUTOCAD_POSTSCRIPT_FIGURE
1002
{
1000
PSFILL
1000
Grayscale
1000
Grayscale
1070
   100
1002
}
  0
LINE
  5
3BA5
  8
YODOROGO
 10
27777.604341291921
 20
1939.749496429288
 30
0.0
 11
27777.604341291921
 21
1955.7494964292871
 31
0.0
1001
AUTOCAD_POSTSCRIPT_FIGURE
1002
{
1000
PSFILL
1000
Grayscale
1000
Grayscale
1070
   100
1002
}
  0
LINE
  5
3BA6
  8
YODOROGO
 10
27801.604341291921
 20
1939.749496429288
 30
0.0
 11
27777.604341291921
 21
1939.749496429288
 31
0.0
1001
AUTOCAD_POSTSCRIPT_FIGURE
1002
{
1000
PSFILL
1000
Grayscale
1000
Grayscale
1070
   100
1002
}
  0
LINE
  5
3BA7
  8
YODOROGO
 10
27801.604341291921
 20
1914.7865807937051
 30
0.0
 11
27801.604341291921
 21
1939.749496429288
 31
0.0
1001
AUTOCAD_POSTSCRIPT_FIGURE
1002
{
1000
PSFILL
1000
Grayscale
1000
Grayscale
1070
   100
1002
}
  0
LINE
  5
3BA8
  8
YODOROGO
 10
27777.604341291921
 20
1859.776747951671
 30
0.0
 11
27801.604341291921
 21
1914.7865807937051
 31
0.0
1001
AUTOCAD_POSTSCRIPT_FIGURE
1002
{
1000
PSFILL
1000
Grayscale
1000
Grayscale
1070
   100
1002
}
  0
LINE
  5
3BA9
  8
YODOROGO
 10
27777.604341291921
 20
1843.776747951672
 30
0.0
 11
27777.604341291921
 21
1859.776747951671
 31
0.0
1001
AUTOCAD_POSTSCRIPT_FIGURE
1002
{
1000
PSFILL
1000
Grayscale
1000
Grayscale
1070
   100
1002
}
  0
LINE
  5
3BAA
  8
YODOROGO
 10
28257.604341291921
 20
1867.7494964292871
 30
0.0
 11
28401.60434129191
 21
1824.877625640306
 31
0.0
1001
AUTOCAD_POSTSCRIPT_FIGURE
1002
{
1000
PSFILL
1000
Grayscale
1000
Grayscale
1070
   100
1002
}
  0
LINE
  5
3BAB
  8
YODOROGO
 10
28401.60434129191
 20
1752.877625640306
 30
0.0
 11
28257.604341291921
 21
1795.7494964292871
 31
0.0
1001
AUTOCAD_POSTSCRIPT_FIGURE
1002
{
1000
PSFILL
1000
Grayscale
1000
Grayscale
1070
   100
1002
}
  0
LINE
  5
3BAC
  8
YODOROGO
 10
28401.60434129191
 20
1984.877625640305
 30
0.0
 11
28257.604341291921
 21
2027.749496429288
 31
0.0
1001
AUTOCAD_POSTSCRIPT_FIGURE
1002
{
1000
PSFILL
1000
Grayscale
1000
Grayscale
1070
   100
1002
}
  0
LINE
  5
3BAD
  8
YODOROGO
 10
28257.604341291921
 20
1959.749496429288
 30
0.0
 11
28401.60434129191
 21
1916.8776256403071
 31
0.0
1001
AUTOCAD_POSTSCRIPT_FIGURE
1002
{
1000
PSFILL
1000
Grayscale
1000
Grayscale
1070
   100
1002
}
  0
LINE
  5
3BAE
  8
YODOROGO
 10
28257.604341291921
 20
1795.7494964292871
 30
0.0
 11
28257.604341291921
 21
1867.7494964292871
 31
0.0
1001
AUTOCAD_POSTSCRIPT_FIGURE
1002
{
1000
PSFILL
1000
Grayscale
1000
Grayscale
1070
   100
1002
}
  0
LINE
  5
3BAF
  8
YODOROGO
 10
28257.604341291921
 20
2027.749496429288
 30
0.0
 11
28257.604341291921
 21
1959.749496429288
 31
0.0
1001
AUTOCAD_POSTSCRIPT_FIGURE
1002
{
1000
PSFILL
1000
Grayscale
1000
Grayscale
1070
   100
1002
}
  0
LINE
  5
3BB0
  8
YODOROGO
 10
28080.236320206739
 20
1939.749496429288
 30
0.0
 11
28129.60434129191
 21
1747.749496429286
 31
0.0
1001
AUTOCAD_POSTSCRIPT_FIGURE
1002
{
1000
PSFILL
1000
Grayscale
1000
Grayscale
1070
   100
1002
}
  0
LINE
  5
3BB1
  8
YODOROGO
 10
27977.604341291921
 20
1939.749496429288
 30
0.0
 11
28080.236320206739
 21
1939.749496429288
 31
0.0
1001
AUTOCAD_POSTSCRIPT_FIGURE
1002
{
1000
PSFILL
1000
Grayscale
1000
Grayscale
1070
   100
1002
}
  0
LINE
  5
3BB2
  8
YODOROGO
 10
27977.604341291921
 20
1955.7494964292871
 30
0.0
 11
27977.604341291921
 21
1939.749496429288
 31
0.0
1001
AUTOCAD_POSTSCRIPT_FIGURE
1002
{
1000
PSFILL
1000
Grayscale
1000
Grayscale
1070
   100
1002
}
  0
LINE
  5
3BB3
  8
YODOROGO
 10
28076.60687851991
 20
1955.7494964292871
 30
0.0
 11
27977.604341291921
 21
1955.7494964292871
 31
0.0
1001
AUTOCAD_POSTSCRIPT_FIGURE
1002
{
1000
PSFILL
1000
Grayscale
1000
Grayscale
1070
   100
1002
}
  0
LINE
  5
3BB4
  8
YODOROGO
 10
28071.162715989711
 20
1979.749496429288
 30
0.0
 11
28076.60687851991
 21
1955.7494964292871
 31
0.0
1001
AUTOCAD_POSTSCRIPT_FIGURE
1002
{
1000
PSFILL
1000
Grayscale
1000
Grayscale
1070
   100
1002
}
  0
LINE
  5
3BB5
  8
YODOROGO
 10
28091.162715989711
 20
1979.749496429288
 30
0.0
 11
28071.162715989711
 21
1979.749496429288
 31
0.0
1001
AUTOCAD_POSTSCRIPT_FIGURE
1002
{
1000
PSFILL
1000
Grayscale
1000
Grayscale
1070
   100
1002
}
  0
LINE
  5
3BB6
  8
YODOROGO
 10
28095.806878519939
 20
1955.7494964292871
 30
0.0
 11
28091.162715989711
 21
1979.749496429288
 31
0.0
1001
AUTOCAD_POSTSCRIPT_FIGURE
1002
{
1000
PSFILL
1000
Grayscale
1000
Grayscale
1070
   100
1002
}
  0
LINE
  5
3BB7
  8
YODOROGO
 10
28121.604341291921
 20
1955.7494964292871
 30
0.0
 11
28095.806878519939
 21
1955.7494964292871
 31
0.0
1001
AUTOCAD_POSTSCRIPT_FIGURE
1002
{
1000
PSFILL
1000
Grayscale
1000
Grayscale
1070
   100
1002
}
  0
LINE
  5
3BB8
  8
YODOROGO
 10
28121.604341291921
 20
1979.749496429288
 30
0.0
 11
28121.604341291921
 21
1955.7494964292871
 31
0.0
1001
AUTOCAD_POSTSCRIPT_FIGURE
1002
{
1000
PSFILL
1000
Grayscale
1000
Grayscale
1070
   100
1002
}
  0
LINE
  5
3BB9
  8
YODOROGO
 10
28137.604341291921
 20
1979.749496429288
 30
0.0
 11
28121.604341291921
 21
1979.749496429288
 31
0.0
1001
AUTOCAD_POSTSCRIPT_FIGURE
1002
{
1000
PSFILL
1000
Grayscale
1000
Grayscale
1070
   100
1002
}
  0
LINE
  5
3BBA
  8
YODOROGO
 10
28137.604341291921
 20
1955.7494964292871
 30
0.0
 11
28137.604341291921
 21
1979.749496429288
 31
0.0
1001
AUTOCAD_POSTSCRIPT_FIGURE
1002
{
1000
PSFILL
1000
Grayscale
1000
Grayscale
1070
   100
1002
}
  0
LINE
  5
3BBB
  8
YODOROGO
 10
28137.604341291921
 20
1939.749496429288
 30
0.0
 11
28137.604341291921
 21
1955.7494964292871
 31
0.0
1001
AUTOCAD_POSTSCRIPT_FIGURE
1002
{
1000
PSFILL
1000
Grayscale
1000
Grayscale
1070
   100
1002
}
  0
LINE
  5
3BBC
  8
YODOROGO
 10
28098.902986873411
 20
1939.749496429288
 30
0.0
 11
28137.604341291921
 21
1939.749496429288
 31
0.0
1001
AUTOCAD_POSTSCRIPT_FIGURE
1002
{
1000
PSFILL
1000
Grayscale
1000
Grayscale
1070
   100
1002
}
  0
LINE
  5
3BBD
  8
YODOROGO
 10
28137.604341291921
 20
1747.749496429286
 30
0.0
 11
28098.902986873411
 21
1939.749496429288
 31
0.0
1001
AUTOCAD_POSTSCRIPT_FIGURE
1002
{
1000
PSFILL
1000
Grayscale
1000
Grayscale
1070
   100
1002
}
  0
LINE
  5
3BBE
  8
YODOROGO
 10
28129.60434129191
 20
1747.749496429286
 30
0.0
 11
28137.604341291921
 21
1747.749496429286
 31
0.0
1001
AUTOCAD_POSTSCRIPT_FIGURE
1002
{
1000
PSFILL
1000
Grayscale
1000
Grayscale
1070
   100
1002
}
  0
LINE
  5
3BBF
  8
YODOROGO
 10
28078.069219933801
 20
1775.7407762987939
 30
0.0
 11
27977.604341291921
 21
1747.749496429286
 31
0.0
  0
LINE
  5
3BC0
  8
YODOROGO
 10
28078.069219933801
 20
1798.6689795290731
 30
0.0
 11
28078.069219933801
 21
1775.7407762987939
 31
0.0
  0
LINE
  5
3BC1
  8
YODOROGO
 10
28033.83678061287
 20
1786.816933133767
 30
0.0
 11
28078.069219933801
 21
1798.6689795290731
 31
0.0
  0
LINE
  5
3BC2
  8
YODOROGO
 10
28033.83678061287
 20
1872.5683489362989
 30
0.0
 11
28033.83678061287
 21
1786.816933133767
 31
0.0
  0
LINE
  5
3BC3
  8
YODOROGO
 10
28078.069219933801
 20
1872.5683489362989
 30
0.0
 11
28033.83678061287
 21
1872.5683489362989
 31
0.0
  0
LINE
  5
3BC4
  8
YODOROGO
 10
28078.069219933801
 20
1892.568348936298
 30
0.0
 11
28078.069219933801
 21
1872.5683489362989
 31
0.0
  0
LINE
  5
3BC5
  8
YODOROGO
 10
27977.604341291921
 20
1892.568348936298
 30
0.0
 11
28078.069219933801
 21
1892.568348936298
 31
0.0
  0
LINE
  5
3BC6
  8
YODOROGO
 10
27977.604341291921
 20
1872.5683489362989
 30
0.0
 11
27977.604341291921
 21
1892.568348936298
 31
0.0
  0
LINE
  5
3BC7
  8
YODOROGO
 10
28021.836780612852
 20
1872.5683489362989
 30
0.0
 11
27977.604341291921
 21
1872.5683489362989
 31
0.0
  0
LINE
  5
3BC8
  8
YODOROGO
 10
28021.836780612852
 20
1784.673339594317
 30
0.0
 11
28021.836780612852
 21
1872.5683489362989
 31
0.0
  0
LINE
  5
3BC9
  8
YODOROGO
 10
27977.604341291921
 20
1771.749496429286
 30
0.0
 11
28021.836780612852
 21
1784.673339594317
 31
0.0
  0
LINE
  5
3BCA
  8
YODOROGO
 10
27977.604341291921
 20
1747.749496429286
 30
0.0
 11
27977.604341291921
 21
1771.749496429286
 31
0.0
  0
LINE
  5
3BCB
  8
YODOROGO
 10
28001.604341291921
 20
1707.749496429288
 30
0.0
 11
28001.604341291921
 21
1683.7494964292871
 31
0.0
  0
LINE
  5
3BCC
  8
YODOROGO
 10
28017.604341291921
 20
1707.749496429288
 30
0.0
 11
28001.604341291921
 21
1707.749496429288
 31
0.0
  0
LINE
  5
3BCD
  8
YODOROGO
 10
28017.604341291921
 20
1683.7494964292871
 30
0.0
 11
28017.604341291921
 21
1707.749496429288
 31
0.0
  0
LINE
  5
3BCE
  8
YODOROGO
 10
28040.913204016892
 20
1683.7494964292871
 30
0.0
 11
28017.604341291921
 21
1683.7494964292871
 31
0.0
  0
LINE
  5
3BCF
  8
YODOROGO
 10
28001.604341291921
 20
1683.7494964292871
 30
0.0
 11
27977.604341291921
 21
1683.7494964292871
 31
0.0
  0
LINE
  5
3BD0
  8
YODOROGO
 10
28082.135520230921
 20
1707.749496429288
 30
0.0
 11
28098.135520230931
 21
1707.749496429288
 31
0.0
1001
AUTOCAD_POSTSCRIPT_FIGURE
1002
{
1000
PSFILL
1000
Grayscale
1000
Grayscale
1070
   100
1002
}
  0
LINE
  5
3BD1
  8
YODOROGO
 10
28401.60434129191
 20
1824.877625640306
 30
0.0
 11
28401.60434129191
 21
1752.877625640306
 31
0.0
1001
AUTOCAD_POSTSCRIPT_FIGURE
1002
{
1000
PSFILL
1000
Grayscale
1000
Grayscale
1070
   100
1002
}
  0
LINE
  5
3BD2
  8
YODOROGO
 10
28401.60434129191
 20
1916.8776256403071
 30
0.0
 11
28401.60434129191
 21
1984.877625640305
 31
0.0
1001
AUTOCAD_POSTSCRIPT_FIGURE
1002
{
1000
PSFILL
1000
Grayscale
1000
Grayscale
1070
   100
1002
}
  0
LINE
  5
3BD3
  8
YODOROGO
 10
28433.60434129191
 20
1819.7494964292871
 30
0.0
 11
28433.60434129191
 21
1747.74949642929
 31
0.0
  0
LINE
  5
3BD4
  8
YODOROGO
 10
28497.60434129191
 20
1707.749496429288
 30
0.0
 11
28433.60434129191
 21
1707.749496429288
 31
0.0
  0
LINE
  5
3BD5
  8
YODOROGO
 10
28433.60434129191
 20
1747.74949642929
 30
0.0
 11
28585.604341291921
 21
1747.74949642929
 31
0.0
  0
LINE
  5
3BD6
  8
YODOROGO
 10
28497.60434129191
 20
1867.7494964292871
 30
0.0
 11
28433.60434129191
 21
1867.7494964292871
 31
0.0
  0
LINE
  5
3BD7
  8
YODOROGO
 10
28497.60434129191
 20
1923.7494964292871
 30
0.0
 11
28497.60434129191
 21
1867.7494964292871
 31
0.0
  0
LINE
  5
3BD8
  8
YODOROGO
 10
28585.604341291921
 20
1987.7494964292871
 30
0.0
 11
28585.604341291921
 21
2027.749496429288
 31
0.0
  0
LINE
  5
3BD9
  8
YODOROGO
 10
28433.60434129191
 20
1987.7494964292871
 30
0.0
 11
28585.604341291921
 21
1987.7494964292871
 31
0.0
  0
LINE
  5
3BDA
  8
YODOROGO
 10
28433.60434129191
 20
1867.7494964292871
 30
0.0
 11
28433.60434129191
 21
1987.7494964292871
 31
0.0
  0
LINE
  5
3BDB
  8
YODOROGO
 10
29001.60434129191
 20
2027.749496429288
 30
0.0
 11
29001.60434129191
 21
1619.749496429288
 31
0.0
  0
LINE
  5
3BDC
  8
YODOROGO
 10
29073.604341291921
 20
1579.749496429288
 30
0.0
 11
29073.604341291921
 21
2027.749496429288
 31
0.0
  0
LINE
  5
3BDD
  8
YODOROGO
 10
29261.604341291921
 20
1491.749496429286
 30
0.0
 11
29261.604341291921
 21
2007.749496429288
 31
0.0
  0
LINE
  5
3BDE
  8
YODOROGO
 10
29197.604341291921
 20
2007.749496429288
 30
0.0
 11
29197.604341291921
 21
1491.749496429286
 31
0.0
  0
LINE
  5
3BDF
  8
YODOROGO
 10
29385.604341291921
 20
2027.749496429288
 30
0.0
 11
29385.604341291921
 21
1427.749496429288
 31
0.0
  0
LINE
  5
3BE0
  8
YODOROGO
 10
29457.604341291921
 20
1427.749496429288
 30
0.0
 11
29457.604341291921
 21
2027.749496429288
 31
0.0
  0
LINE
  5
3BE1
  8
YODOROGO
 10
28657.604341291921
 20
1667.749496429288
 30
0.0
 11
28657.604341291921
 21
1747.74949642929
 31
0.0
  0
LINE
  5
3BE2
  8
YODOROGO
 10
29885.604341291921
 20
1707.749496429288
 30
0.0
 11
29885.604341291921
 21
1667.749496429288
 31
0.0
  0
LINE
  5
3BE3
  8
YODOROGO
 10
29885.604341291921
 20
1707.749496429288
 30
0.0
 11
29885.604341291921
 21
1667.749496429288
 31
0.0
  0
ARC
  5
3BE4
  8
YODOROGO
 10
28906.911576186842
 20
1618.217864442272
 30
0.0
 40
94.705151178741616
 50
274.05244162907093
 51
0.9266642149310712
  0
ARC
  5
3BE5
  8
YODOROGO
 10
28909.186170719819
 20
1592.61072861044
 30
0.0
 40
164.92042356085511
 50
271.5351210653775
 51
355.52727750585052
  0
LINE
  5
3BE6
  8
YODOROGO
 10
28913.604341291921
 20
1523.7494964292871
 30
0.0
 11
28913.604341291921
 21
1427.749496429288
 31
0.0
  0
LINE
  5
3BE7
  8
YODOROGO
 10
28793.60434129191
 20
1667.749496429288
 30
0.0
 11
28657.604341291921
 21
1667.749496429288
 31
0.0
  0
LINE
  5
3BE8
  8
YODOROGO
 10
28793.60434129191
 20
1603.7494964292871
 30
0.0
 11
28793.60434129191
 21
1667.749496429288
 31
0.0
  0
LINE
  5
3BE9
  8
YODOROGO
 10
28657.604341291921
 20
1603.7494964292871
 30
0.0
 11
28793.60434129191
 21
1603.7494964292871
 31
0.0
  0
LINE
  5
3BEA
  8
YODOROGO
 10
28657.604341291921
 20
1523.7494964292871
 30
0.0
 11
28657.604341291921
 21
1603.7494964292871
 31
0.0
  0
LINE
  5
3BEB
  8
YODOROGO
 10
28793.60434129191
 20
1523.7494964292871
 30
0.0
 11
28657.604341291921
 21
1523.7494964292871
 31
0.0
  0
LINE
  5
3BEC
  8
YODOROGO
 10
28793.60434129191
 20
1427.749496429288
 30
0.0
 11
28793.60434129191
 21
1523.7494964292871
 31
0.0
  0
LINE
  5
3BED
  8
YODOROGO
 10
29197.604341291921
 20
1491.749496429286
 30
0.0
 11
29261.604341291921
 21
1491.749496429286
 31
0.0
  0
LINE
  5
3BEE
  8
YODOROGO
 10
29385.604341291921
 20
1427.749496429288
 30
0.0
 11
29457.604341291921
 21
1427.749496429288
 31
0.0
  0
LINE
  5
3BEF
  8
YODOROGO
 10
29737.604341291921
 20
1528.4414521705639
 30
0.0
 11
29737.604341291921
 21
1427.749496429288
 31
0.0
  0
LINE
  5
3BF0
  8
YODOROGO
 10
29617.604341291921
 20
1427.749496429288
 30
0.0
 11
29737.604341291921
 21
1528.4414521705639
 31
0.0
  0
LINE
  5
3BF1
  8
YODOROGO
 10
29617.604341291921
 20
1547.749496429288
 30
0.0
 11
29617.604341291921
 21
1427.749496429288
 31
0.0
  0
LINE
  5
3BF2
  8
YODOROGO
 10
29712.94462869945
 20
1627.749496429288
 30
0.0
 11
29617.604341291921
 21
1547.749496429288
 31
0.0
  0
LINE
  5
3BF3
  8
YODOROGO
 10
29617.604341291921
 20
1627.749496429288
 30
0.0
 11
29712.94462869945
 21
1627.749496429288
 31
0.0
  0
LINE
  5
3BF4
  8
YODOROGO
 10
29617.604341291921
 20
1667.749496429288
 30
0.0
 11
29617.604341291921
 21
1627.749496429288
 31
0.0
  0
LINE
  5
3BF5
  8
YODOROGO
 10
29885.604341291921
 20
1667.749496429288
 30
0.0
 11
29617.604341291921
 21
1667.749496429288
 31
0.0
  0
LINE
  5
3BF6
  8
YODOROGO
 10
29917.604341291921
 20
1627.749496429288
 30
0.0
 11
29777.604341291921
 21
1627.749496429288
 31
0.0
  0
LINE
  5
3BF7
  8
YODOROGO
 10
29777.604341291921
 20
1562.0054374176559
 30
0.0
 11
29771.409872985321
 21
1556.807661346234
 31
0.0
  0
LINE
  5
3BF8
  8
YODOROGO
 10
29777.604341291921
 20
1627.749496429288
 30
0.0
 11
29777.604341291921
 21
1562.0054374176559
 31
0.0
  0
LINE
  5
3BF9
  8
YODOROGO
 10
29737.604341291921
 20
1528.4414521705639
 30
0.0
 11
29737.604341291921
 21
1427.749496429288
 31
0.0
  0
LINE
  5
3BFA
  8
YODOROGO
 10
29617.604341291921
 20
1427.749496429288
 30
0.0
 11
29737.604341291921
 21
1528.4414521705639
 31
0.0
  0
LINE
  5
3BFB
  8
YODOROGO
 10
29617.604341291921
 20
1547.749496429288
 30
0.0
 11
29617.604341291921
 21
1427.749496429288
 31
0.0
  0
LINE
  5
3BFC
  8
YODOROGO
 10
29712.94462869945
 20
1627.749496429288
 30
0.0
 11
29617.604341291921
 21
1547.749496429288
 31
0.0
  0
LINE
  5
3BFD
  8
YODOROGO
 10
29617.604341291921
 20
1627.749496429288
 30
0.0
 11
29712.94462869945
 21
1627.749496429288
 31
0.0
  0
LINE
  5
3BFE
  8
YODOROGO
 10
29617.604341291921
 20
1667.749496429288
 30
0.0
 11
29617.604341291921
 21
1627.749496429288
 31
0.0
  0
LINE
  5
3BFF
  8
YODOROGO
 10
29885.604341291921
 20
1667.749496429288
 30
0.0
 11
29617.604341291921
 21
1667.749496429288
 31
0.0
  0
LINE
  5
3C00
  8
YODOROGO
 10
28793.60434129191
 20
1747.74949642929
 30
0.0
 11
28793.60434129191
 21
1819.7494964292871
 31
0.0
  0
LINE
  5
3C01
  8
YODOROGO
 10
28657.604341291921
 20
1747.74949642929
 30
0.0
 11
28793.60434129191
 21
1747.74949642929
 31
0.0
  0
LINE
  5
3C02
  8
YODOROGO
 10
28729.604341291921
 20
1867.7494964292871
 30
0.0
 11
28729.604341291921
 21
1923.7494964292871
 31
0.0
  0
LINE
  5
3C03
  8
YODOROGO
 10
28793.60434129191
 20
1867.7494964292871
 30
0.0
 11
28729.604341291921
 21
1867.7494964292871
 31
0.0
  0
LINE
  5
3C04
  8
YODOROGO
 10
28793.60434129191
 20
1947.749496429288
 30
0.0
 11
28793.60434129191
 21
1867.7494964292871
 31
0.0
  0
ARC
  5
3C05
  8
YODOROGO
 10
28753.60434129191
 20
1947.749496429288
 30
0.0
 40
40.0
 50
0.0
 51
90.0
  0
LINE
  5
3C06
  8
YODOROGO
 10
28657.604341291921
 20
1987.7494964292871
 30
0.0
 11
28753.60434129191
 21
1987.7494964292871
 31
0.0
  0
LINE
  5
3C07
  8
YODOROGO
 10
28657.604341291921
 20
2027.749496429288
 30
0.0
 11
28657.604341291921
 21
1987.7494964292871
 31
0.0
  0
LINE
  5
3C08
  8
YODOROGO
 10
29073.604341291921
 20
2027.749496429288
 30
0.0
 11
29001.60434129191
 21
2027.749496429288
 31
0.0
  0
LINE
  5
3C09
  8
YODOROGO
 10
29261.604341291921
 20
2007.749496429288
 30
0.0
 11
29197.604341291921
 21
2007.749496429288
 31
0.0
  0
LINE
  5
3C0A
  8
YODOROGO
 10
29457.604341291921
 20
2027.749496429288
 30
0.0
 11
29385.604341291921
 21
2027.749496429288
 31
0.0
  0
LINE
  5
3C0B
  8
YODOROGO
 10
29673.604341291921
 20
1707.749496429288
 30
0.0
 11
29673.604341291921
 21
1771.7494964292871
 31
0.0
1001
AUTOCAD_POSTSCRIPT_FIGURE
1002
{
1000
PSFILL
1000
Grayscale
1000
Grayscale
1070
    25
1002
}
  0
LINE
  5
3C0C
  8
YODOROGO
 10
29617.604341291921
 20
1707.749496429288
 30
0.0
 11
29673.604341291921
 21
1707.749496429288
 31
0.0
1001
AUTOCAD_POSTSCRIPT_FIGURE
1002
{
1000
PSFILL
1000
Grayscale
1000
Grayscale
1070
    25
1002
}
  0
LINE
  5
3C0D
  8
YODOROGO
 10
29617.604341291921
 20
1819.7494964292871
 30
0.0
 11
29617.604341291921
 21
1707.749496429288
 31
0.0
1001
AUTOCAD_POSTSCRIPT_FIGURE
1002
{
1000
PSFILL
1000
Grayscale
1000
Grayscale
1070
    25
1002
}
  0
LINE
  5
3C0E
  8
YODOROGO
 10
29765.604341291921
 20
1819.7494964292871
 30
0.0
 11
29617.604341291921
 21
1819.7494964292871
 31
0.0
1001
AUTOCAD_POSTSCRIPT_FIGURE
1002
{
1000
PSFILL
1000
Grayscale
1000
Grayscale
1070
    25
1002
}
  0
LINE
  5
3C0F
  8
YODOROGO
 10
29765.604341291921
 20
1859.7494964292871
 30
0.0
 11
29765.604341291921
 21
1819.7494964292871
 31
0.0
1001
AUTOCAD_POSTSCRIPT_FIGURE
1002
{
1000
PSFILL
1000
Grayscale
1000
Grayscale
1070
    25
1002
}
  0
LINE
  5
3C10
  8
YODOROGO
 10
29617.604341291921
 20
1859.7494964292871
 30
0.0
 11
29765.604341291921
 21
1859.7494964292871
 31
0.0
1001
AUTOCAD_POSTSCRIPT_FIGURE
1002
{
1000
PSFILL
1000
Grayscale
1000
Grayscale
1070
    25
1002
}
  0
LINE
  5
3C11
  8
YODOROGO
 10
29617.604341291921
 20
1907.7494964292871
 30
0.0
 11
29617.604341291921
 21
1859.7494964292871
 31
0.0
1001
AUTOCAD_POSTSCRIPT_FIGURE
1002
{
1000
PSFILL
1000
Grayscale
1000
Grayscale
1070
    25
1002
}
  0
LINE
  5
3C12
  8
YODOROGO
 10
29765.604341291921
 20
1907.7494964292871
 30
0.0
 11
29617.604341291921
 21
1907.7494964292871
 31
0.0
1001
AUTOCAD_POSTSCRIPT_FIGURE
1002
{
1000
PSFILL
1000
Grayscale
1000
Grayscale
1070
    25
1002
}
  0
LINE
  5
3C13
  8
YODOROGO
 10
29765.604341291921
 20
1947.749496429288
 30
0.0
 11
29765.604341291921
 21
1907.7494964292871
 31
0.0
1001
AUTOCAD_POSTSCRIPT_FIGURE
1002
{
1000
PSFILL
1000
Grayscale
1000
Grayscale
1070
    25
1002
}
  0
LINE
  5
3C14
  8
YODOROGO
 10
29617.604341291921
 20
1947.749496429288
 30
0.0
 11
29765.604341291921
 21
1947.749496429288
 31
0.0
1001
AUTOCAD_POSTSCRIPT_FIGURE
1002
{
1000
PSFILL
1000
Grayscale
1000
Grayscale
1070
    25
1002
}
  0
LINE
  5
3C15
  8
YODOROGO
 10
29617.604341291921
 20
2027.749496429288
 30
0.0
 11
29617.604341291921
 21
1947.749496429288
 31
0.0
1001
AUTOCAD_POSTSCRIPT_FIGURE
1002
{
1000
PSFILL
1000
Grayscale
1000
Grayscale
1070
    25
1002
}
  0
LINE
  5
3C16
  8
YODOROGO
 10
29665.604341291921
 20
2027.749496429288
 30
0.0
 11
29617.604341291921
 21
2027.749496429288
 31
0.0
1001
AUTOCAD_POSTSCRIPT_FIGURE
1002
{
1000
PSFILL
1000
Grayscale
1000
Grayscale
1070
    25
1002
}
  0
LINE
  5
3C17
  8
YODOROGO
 10
29665.604341291921
 20
1995.7494964292871
 30
0.0
 11
29665.604341291921
 21
2027.749496429288
 31
0.0
1001
AUTOCAD_POSTSCRIPT_FIGURE
1002
{
1000
PSFILL
1000
Grayscale
1000
Grayscale
1070
    25
1002
}
  0
LINE
  5
3C18
  8
YODOROGO
 10
29765.604341291921
 20
1995.7494964292871
 30
0.0
 11
29665.604341291921
 21
1995.7494964292871
 31
0.0
1001
AUTOCAD_POSTSCRIPT_FIGURE
1002
{
1000
PSFILL
1000
Grayscale
1000
Grayscale
1070
    25
1002
}
  0
LINE
  5
3C19
  8
YODOROGO
 10
29765.604341291921
 20
2027.749496429288
 30
0.0
 11
29765.604341291921
 21
1995.7494964292871
 31
0.0
1001
AUTOCAD_POSTSCRIPT_FIGURE
1002
{
1000
PSFILL
1000
Grayscale
1000
Grayscale
1070
    25
1002
}
  0
LINE
  5
3C1A
  8
YODOROGO
 10
29829.604341291921
 20
2027.749496429288
 30
0.0
 11
29765.604341291921
 21
2027.749496429288
 31
0.0
1001
AUTOCAD_POSTSCRIPT_FIGURE
1002
{
1000
PSFILL
1000
Grayscale
1000
Grayscale
1070
    25
1002
}
  0
LINE
  5
3C1B
  8
YODOROGO
 10
29829.604341291921
 20
1995.7494964292871
 30
0.0
 11
29829.604341291921
 21
2027.749496429288
 31
0.0
1001
AUTOCAD_POSTSCRIPT_FIGURE
1002
{
1000
PSFILL
1000
Grayscale
1000
Grayscale
1070
    25
1002
}
  0
LINE
  5
3C1C
  8
YODOROGO
 10
29829.604341291921
 20
1907.7494964292871
 30
0.0
 11
29829.604341291921
 21
1947.749496429288
 31
0.0
1001
AUTOCAD_POSTSCRIPT_FIGURE
1002
{
1000
PSFILL
1000
Grayscale
1000
Grayscale
1070
    25
1002
}
  0
LINE
  5
3C1D
  8
YODOROGO
 10
29829.604341291921
 20
1819.7494964292871
 30
0.0
 11
29829.604341291921
 21
1859.7494964292871
 31
0.0
1001
AUTOCAD_POSTSCRIPT_FIGURE
1002
{
1000
PSFILL
1000
Grayscale
1000
Grayscale
1070
    25
1002
}
  0
LINE
  5
3C1E
  8
YODOROGO
 10
29921.60434129191
 20
1771.7494964292871
 30
0.0
 11
29921.60434129191
 21
1707.749496429288
 31
0.0
1001
AUTOCAD_POSTSCRIPT_FIGURE
1002
{
1000
PSFILL
1000
Grayscale
1000
Grayscale
1070
    25
1002
}
  0
LINE
  5
3C1F
  8
YODOROGO
 10
29829.604341291921
 20
1771.7494964292871
 30
0.0
 11
29921.60434129191
 21
1771.7494964292871
 31
0.0
1001
AUTOCAD_POSTSCRIPT_FIGURE
1002
{
1000
PSFILL
1000
Grayscale
1000
Grayscale
1070
    25
1002
}
  0
LINE
  5
3C20
  8
YODOROGO
 10
29829.604341291921
 20
1707.749496429288
 30
0.0
 11
29829.604341291921
 21
1771.7494964292871
 31
0.0
1001
AUTOCAD_POSTSCRIPT_FIGURE
1002
{
1000
PSFILL
1000
Grayscale
1000
Grayscale
1070
    25
1002
}
  0
LINE
  5
3C21
  8
YODOROGO
 10
29765.604341291921
 20
1707.749496429288
 30
0.0
 11
29829.604341291921
 21
1707.749496429288
 31
0.0
1001
AUTOCAD_POSTSCRIPT_FIGURE
1002
{
1000
PSFILL
1000
Grayscale
1000
Grayscale
1070
    25
1002
}
  0
LINE
  5
3C22
  8
YODOROGO
 10
29765.604341291921
 20
1771.7494964292871
 30
0.0
 11
29765.604341291921
 21
1707.749496429288
 31
0.0
1001
AUTOCAD_POSTSCRIPT_FIGURE
1002
{
1000
PSFILL
1000
Grayscale
1000
Grayscale
1070
    25
1002
}
  0
LINE
  5
3C23
  8
YODOROGO
 10
29673.604341291921
 20
1771.7494964292871
 30
0.0
 11
29765.604341291921
 21
1771.7494964292871
 31
0.0
1001
AUTOCAD_POSTSCRIPT_FIGURE
1002
{
1000
PSFILL
1000
Grayscale
1000
Grayscale
1070
    25
1002
}
  0
ARC
  5
3C24
  8
YODOROGO
 10
31059.517893357912
 20
1602.6807375155761
 30
0.0
 40
178.22128111072141
 50
281.02627495425338
 51
357.77113575573799
  0
LINE
  5
3C25
  8
YODOROGO
 10
31413.604341291921
 20
1907.7494964292871
 30
0.0
 11
31165.604341291921
 21
1907.7494964292871
 31
0.0
  0
LINE
  5
3C26
  8
YODOROGO
 10
31413.604341291921
 20
2027.749496429288
 30
0.0
 11
31165.604341291921
 21
2027.749496429288
 31
0.0
  0
LINE
  5
3C27
  8
YODOROGO
 10
31165.604341291921
 20
1963.749496429286
 30
0.0
 11
31413.604341291921
 21
1963.749496429286
 31
0.0
  0
LINE
  5
3C28
  8
YODOROGO
 10
30791.604341291921
 20
1563.7494964292871
 30
0.0
 11
30791.604341291921
 21
1755.7494964292871
 31
0.0
  0
LINE
  5
3C29
  8
YODOROGO
 10
30763.604341291921
 20
1691.749496429288
 30
0.0
 11
30763.604341291921
 21
1563.7494964292871
 31
0.0
  0
LINE
  5
3C2A
  8
YODOROGO
 10
30723.604341291921
 20
1491.749496429288
 30
0.0
 11
30723.604341291921
 21
1691.749496429288
 31
0.0
  0
LINE
  5
3C2B
  8
YODOROGO
 10
30899.604341291932
 20
1691.749496429288
 30
0.0
 11
30899.604341291932
 21
1491.749496429288
 31
0.0
  0
LINE
  5
3C2C
  8
YODOROGO
 10
30859.604341291932
 20
1563.7494964292871
 30
0.0
 11
30859.604341291932
 21
1691.749496429288
 31
0.0
  0
LINE
  5
3C2D
  8
YODOROGO
 10
30831.604341291921
 20
1755.7494964292871
 30
0.0
 11
30831.604341291921
 21
1563.7494964292871
 31
0.0
  0
LINE
  5
3C2E
  8
YODOROGO
 10
30973.604341291921
 20
2027.749496429288
 30
0.0
 11
30973.604341291921
 21
1467.749496429288
 31
0.0
  0
LINE
  5
3C2F
  8
YODOROGO
 10
30645.604341291921
 20
1427.749496429288
 30
0.0
 11
30645.604341291921
 21
2027.749496429288
 31
0.0
  0
LINE
  5
3C30
  8
YODOROGO
 10
30697.604341291932
 20
1963.749496429286
 30
0.0
 11
30697.604341291932
 21
1427.749496429288
 31
0.0
  0
LINE
  5
3C31
  8
YODOROGO
 10
30925.604341291921
 20
1547.749496429288
 30
0.0
 11
30925.604341291921
 21
1963.749496429286
 31
0.0
  0
LINE
  5
3C32
  8
YODOROGO
 10
30381.604341291932
 20
1627.749496429288
 30
0.0
 11
30381.604341291932
 21
1679.749496429288
 31
0.0
  0
LINE
  5
3C33
  8
YODOROGO
 10
30617.604341291921
 20
1679.749496429288
 30
0.0
 11
30617.604341291921
 21
1627.749496429288
 31
0.0
  0
LINE
  5
3C34
  8
YODOROGO
 10
31165.604341291921
 20
1907.7494964292871
 30
0.0
 11
31165.604341291921
 21
1635.7494964292871
 31
0.0
  0
LINE
  5
3C35
  8
YODOROGO
 10
29949.60434129191
 20
1667.749496429288
 30
0.0
 11
29949.60434129191
 21
1707.749496429288
 31
0.0
  0
LINE
  5
3C36
  8
YODOROGO
 10
29949.60434129191
 20
1667.749496429288
 30
0.0
 11
29949.60434129191
 21
1707.749496429288
 31
0.0
  0
ARC
  5
3C37
  8
YODOROGO
 10
30537.604341291921
 20
1507.749496429288
 30
0.0
 40
80.0
 50
270.0
 51
0.0
  0
LINE
  5
3C38
  8
YODOROGO
 10
30569.604341291921
 20
1599.7494964292871
 30
0.0
 11
30617.604341291921
 21
1599.7494964292871
 31
0.0
  0
LINE
  5
3C39
  8
YODOROGO
 10
30617.604341291921
 20
1627.749496429288
 30
0.0
 11
30529.604341291939
 21
1627.749496429288
 31
0.0
  0
LINE
  5
3C3A
  8
YODOROGO
 10
30217.604341291921
 20
1667.749496429288
 30
0.0
 11
29949.60434129191
 21
1667.749496429288
 31
0.0
  0
LINE
  5
3C3B
  8
YODOROGO
 10
30217.604341291921
 20
1627.749496429288
 30
0.0
 11
30217.604341291921
 21
1667.749496429288
 31
0.0
  0
LINE
  5
3C3C
  8
YODOROGO
 10
30017.604341291921
 20
1627.749496429288
 30
0.0
 11
30217.604341291921
 21
1627.749496429288
 31
0.0
  0
ARC
  5
3C3D
  8
YODOROGO
 10
30230.05882870136
 20
1868.885714952901
 30
0.0
 40
321.37763628522822
 50
228.61814546189939
 51
245.660289248906
  0
LINE
  5
3C3E
  8
YODOROGO
 10
30105.604341291921
 20
1603.7494964292871
 30
0.0
 11
30097.60434129195
 21
1576.0728158699001
 31
0.0
  0
LINE
  5
3C3F
  8
YODOROGO
 10
30189.604341291921
 20
1603.7494964292871
 30
0.0
 11
30105.604341291921
 21
1603.7494964292871
 31
0.0
  0
LINE
  5
3C40
  8
YODOROGO
 10
30177.604341291921
 20
1551.817722473427
 30
0.0
 11
30189.604341291921
 21
1603.7494964292871
 31
0.0
  0
ARC
  5
3C41
  8
YODOROGO
 10
30230.05882870045
 20
1868.8857149530011
 30
0.0
 40
321.37763628529081
 50
260.60629297969911
 51
267.77903556555862
  0
LINE
  5
3C42
  8
YODOROGO
 10
30217.604341291921
 20
1427.749496429285
 30
0.0
 11
30217.604341291921
 21
1547.749496429288
 31
0.0
  0
LINE
  5
3C43
  8
YODOROGO
 10
29937.604341291932
 20
1481.3393349155101
 30
0.0
 11
29937.604341291921
 21
1594.5310905311401
 31
0.0
  0
LINE
  5
3C44
  8
YODOROGO
 10
30217.604341291921
 20
1667.749496429288
 30
0.0
 11
29949.60434129191
 21
1667.749496429288
 31
0.0
  0
LINE
  5
3C45
  8
YODOROGO
 10
30217.604341291921
 20
1627.749496429288
 30
0.0
 11
30217.604341291921
 21
1667.749496429288
 31
0.0
  0
LINE
  5
3C46
  8
YODOROGO
 10
30017.604341291921
 20
1627.749496429288
 30
0.0
 11
30217.604341291921
 21
1627.749496429288
 31
0.0
  0
ARC
  5
3C47
  8
YODOROGO
 10
30230.05882870136
 20
1868.885714952901
 30
0.0
 40
321.37763628522822
 50
228.61814546189939
 51
245.660289248906
  0
LINE
  5
3C48
  8
YODOROGO
 10
30105.604341291921
 20
1603.7494964292871
 30
0.0
 11
30097.60434129195
 21
1576.0728158699001
 31
0.0
  0
LINE
  5
3C49
  8
YODOROGO
 10
30189.604341291921
 20
1603.7494964292871
 30
0.0
 11
30105.604341291921
 21
1603.7494964292871
 31
0.0
  0
LINE
  5
3C4A
  8
YODOROGO
 10
30177.604341291921
 20
1551.817722473427
 30
0.0
 11
30189.604341291921
 21
1603.7494964292871
 31
0.0
  0
ARC
  5
3C4B
  8
YODOROGO
 10
30230.05882870045
 20
1868.8857149530011
 30
0.0
 40
321.37763628529081
 50
260.60629297969911
 51
267.77903556555862
  0
LINE
  5
3C4C
  8
YODOROGO
 10
30217.604341291921
 20
1427.749496429285
 30
0.0
 11
30217.604341291921
 21
1547.749496429288
 31
0.0
  0
LINE
  5
3C4D
  8
YODOROGO
 10
29937.604341291932
 20
1481.3393349155101
 30
0.0
 11
29937.604341291921
 21
1594.5310905311401
 31
0.0
  0
LINE
  5
3C4E
  8
YODOROGO
 10
30433.604341291921
 20
1573.749496429288
 30
0.0
 11
30381.604341291932
 21
1573.749496429288
 31
0.0
  0
LINE
  5
3C4F
  8
YODOROGO
 10
30433.604341291921
 20
1601.749496429285
 30
0.0
 11
30433.604341291921
 21
1573.749496429288
 31
0.0
  0
LINE
  5
3C50
  8
YODOROGO
 10
30381.604341291932
 20
1601.749496429285
 30
0.0
 11
30433.604341291921
 21
1601.749496429285
 31
0.0
  0
LINE
  5
3C51
  8
YODOROGO
 10
30381.604341291932
 20
1573.749496429288
 30
0.0
 11
30381.604341291932
 21
1601.749496429285
 31
0.0
  0
LINE
  5
3C52
  8
YODOROGO
 10
30429.604341291921
 20
1577.7494964292871
 30
0.0
 11
30385.604341291921
 21
1577.7494964292871
 31
0.0
  0
LINE
  5
3C53
  8
YODOROGO
 10
30429.604341291921
 20
1597.749496429288
 30
0.0
 11
30429.604341291921
 21
1577.7494964292871
 31
0.0
  0
LINE
  5
3C54
  8
YODOROGO
 10
30385.604341291921
 20
1597.749496429288
 30
0.0
 11
30429.604341291921
 21
1597.749496429288
 31
0.0
  0
LINE
  5
3C55
  8
YODOROGO
 10
30385.604341291921
 20
1577.7494964292871
 30
0.0
 11
30385.604341291921
 21
1597.749496429288
 31
0.0
  0
LINE
  5
3C56
  8
YODOROGO
 10
30425.604341291921
 20
1581.749496429286
 30
0.0
 11
30389.604341291921
 21
1581.749496429286
 31
0.0
  0
LINE
  5
3C57
  8
YODOROGO
 10
30425.604341291921
 20
1593.7494964292871
 30
0.0
 11
30425.604341291921
 21
1581.749496429286
 31
0.0
  0
LINE
  5
3C58
  8
YODOROGO
 10
30389.604341291921
 20
1593.7494964292871
 30
0.0
 11
30425.604341291921
 21
1593.7494964292871
 31
0.0
  0
LINE
  5
3C59
  8
YODOROGO
 10
30389.604341291921
 20
1581.749496429286
 30
0.0
 11
30389.604341291921
 21
1593.7494964292871
 31
0.0
  0
LINE
  5
3C5A
  8
YODOROGO
 10
30421.604341291932
 20
1585.7494964292871
 30
0.0
 11
30393.604341291921
 21
1585.7494964292871
 31
0.0
  0
LINE
  5
3C5B
  8
YODOROGO
 10
30421.604341291932
 20
1589.749496429288
 30
0.0
 11
30421.604341291932
 21
1585.7494964292871
 31
0.0
  0
LINE
  5
3C5C
  8
YODOROGO
 10
30393.604341291921
 20
1589.749496429288
 30
0.0
 11
30421.604341291932
 21
1589.749496429288
 31
0.0
  0
LINE
  5
3C5D
  8
YODOROGO
 10
30393.604341291921
 20
1585.7494964292871
 30
0.0
 11
30393.604341291921
 21
1589.749496429288
 31
0.0
  0
LINE
  5
3C5E
  8
YODOROGO
 10
30465.604341291921
 20
1627.749496429288
 30
0.0
 11
30381.604341291932
 21
1627.749496429288
 31
0.0
  0
LINE
  5
3C5F
  8
YODOROGO
 10
30465.604341291921
 20
1547.749496429288
 30
0.0
 11
30465.604341291921
 21
1627.749496429288
 31
0.0
  0
LINE
  5
3C60
  8
YODOROGO
 10
30381.604341291932
 20
1547.749496429288
 30
0.0
 11
30465.604341291921
 21
1547.749496429288
 31
0.0
  0
LINE
  5
3C61
  8
YODOROGO
 10
30381.604341291932
 20
1427.749496429288
 30
0.0
 11
30381.604341291932
 21
1547.749496429288
 31
0.0
  0
LINE
  5
3C62
  8
YODOROGO
 10
30537.604341291921
 20
1427.749496429288
 30
0.0
 11
30381.604341291932
 21
1427.749496429288
 31
0.0
  0
LINE
  5
3C63
  8
YODOROGO
 10
30569.604341291921
 20
1571.749496429285
 30
0.0
 11
30569.604341291921
 21
1599.7494964292871
 31
0.0
  0
ARC
  5
3C64
  8
YODOROGO
 10
30545.604341291921
 20
1571.749496429291
 30
0.0
 40
24.000000000003752
 50
270.0
 51
359.99999999998772
  0
LINE
  5
3C65
  8
YODOROGO
 10
30529.604341291939
 20
1547.749496429288
 30
0.0
 11
30545.604341291921
 21
1547.749496429288
 31
0.0
  0
LINE
  5
3C66
  8
YODOROGO
 10
30529.604341291939
 20
1627.749496429288
 30
0.0
 11
30529.604341291939
 21
1547.749496429288
 31
0.0
  0
LINE
  5
3C67
  8
YODOROGO
 10
30899.604341291932
 20
1547.749496429288
 30
0.0
 11
30925.604341291921
 21
1547.749496429288
 31
0.0
  0
LINE
  5
3C68
  8
YODOROGO
 10
30933.604341291921
 20
1427.749496429288
 30
0.0
 11
30899.604341291932
 21
1427.749496429288
 31
0.0
  0
LINE
  5
3C69
  8
YODOROGO
 10
30763.604341291921
 20
1563.7494964292871
 30
0.0
 11
30791.604341291921
 21
1563.7494964292871
 31
0.0
  0
LINE
  5
3C6A
  8
YODOROGO
 10
30899.604341291932
 20
1491.749496429288
 30
0.0
 11
30723.604341291921
 21
1491.749496429288
 31
0.0
  0
LINE
  5
3C6B
  8
YODOROGO
 10
30831.604341291921
 20
1563.7494964292871
 30
0.0
 11
30859.604341291932
 21
1563.7494964292871
 31
0.0
  0
LINE
  5
3C6C
  8
YODOROGO
 10
30899.604341291932
 20
1427.749496429288
 30
0.0
 11
30899.604341291932
 21
1547.749496429288
 31
0.0
  0
LINE
  5
3C6D
  8
YODOROGO
 10
30697.604341291932
 20
1427.749496429288
 30
0.0
 11
30645.604341291921
 21
1427.749496429288
 31
0.0
  0
LINE
  5
3C6E
  8
YODOROGO
 10
30617.604341291921
 20
1599.7494964292871
 30
0.0
 11
30617.604341291921
 21
1507.749496429288
 31
0.0
  0
ARC
  5
3C6F
  8
YODOROGO
 10
30933.604341291921
 20
1467.749496429288
 30
0.0
 40
40.0
 50
270.0
 51
0.0
  0
LINE
  5
3C70
  8
YODOROGO
 10
31093.604341291921
 20
1523.7494964292871
 30
0.0
 11
31093.604341291921
 21
1427.749496429288
 31
0.0
  0
ARC
  5
3C71
  8
YODOROGO
 10
31039.721395566768
 20
1637.5313901097329
 30
0.0
 40
125.8955565916754
 50
295.34052442160117
 51
359.18902303418679
  0
LINE
  5
3C72
  8
YODOROGO
 10
30617.604341291921
 20
1859.7494964292871
 30
0.0
 11
30497.604341291921
 21
1939.749496429288
 31
0.0
  0
LINE
  5
3C73
  8
YODOROGO
 10
30497.604341291921
 20
2027.749496429288
 30
0.0
 11
30617.604341291921
 21
1947.749496429288
 31
0.0
  0
LINE
  5
3C74
  8
YODOROGO
 10
30529.604341291939
 20
1679.749496429288
 30
0.0
 11
30617.604341291921
 21
1679.749496429288
 31
0.0
  0
LINE
  5
3C75
  8
YODOROGO
 10
30617.604341291921
 20
1735.7494964292871
 30
0.0
 11
30529.604341291939
 21
1735.7494964292871
 31
0.0
  0
LINE
  5
3C76
  8
YODOROGO
 10
30381.604341291932
 20
1795.7494964292871
 30
0.0
 11
30617.604341291921
 21
1795.7494964292871
 31
0.0
  0
LINE
  5
3C77
  8
YODOROGO
 10
30081.604341291921
 20
2027.749496429288
 30
0.0
 11
30021.604341291921
 21
2027.749496429288
 31
0.0
  0
LINE
  5
3C78
  8
YODOROGO
 10
30081.604341291921
 20
1827.7494964292871
 30
0.0
 11
30081.604341291921
 21
2027.749496429288
 31
0.0
  0
LINE
  5
3C79
  8
YODOROGO
 10
30021.604341291921
 20
1827.7494964292871
 30
0.0
 11
30081.604341291921
 21
1827.7494964292871
 31
0.0
  0
LINE
  5
3C7A
  8
YODOROGO
 10
30021.604341291921
 20
2027.749496429288
 30
0.0
 11
30021.604341291921
 21
1827.7494964292871
 31
0.0
  0
LINE
  5
3C7B
  8
YODOROGO
 10
30161.604341291921
 20
2027.749496429288
 30
0.0
 11
30217.604341291921
 21
2027.749496429288
 31
0.0
  0
LINE
  5
3C7C
  8
YODOROGO
 10
30161.604341291921
 20
1811.7494964292871
 30
0.0
 11
30161.604341291921
 21
2027.749496429288
 31
0.0
  0
ARC
  5
3C7D
  8
YODOROGO
 10
30121.604341291921
 20
1811.7494964292871
 30
0.0
 40
40.0
 50
270.0
 51
0.0
  0
LINE
  5
3C7E
  8
YODOROGO
 10
30021.604341291921
 20
1771.7494964292871
 30
0.0
 11
30121.604341291921
 21
1771.7494964292871
 31
0.0
  0
LINE
  5
3C7F
  8
YODOROGO
 10
30021.604341291921
 20
1707.749496429288
 30
0.0
 11
30021.604341291921
 21
1771.7494964292871
 31
0.0
  0
LINE
  5
3C80
  8
YODOROGO
 10
30137.604341291921
 20
1707.749496429288
 30
0.0
 11
30021.604341291921
 21
1707.749496429288
 31
0.0
  0
ARC
  5
3C81
  8
YODOROGO
 10
30137.604341291921
 20
1787.7494964292871
 30
0.0
 40
80.0
 50
270.0
 51
0.0
  0
LINE
  5
3C82
  8
YODOROGO
 10
30217.604341291921
 20
2027.749496429288
 30
0.0
 11
30217.604341291921
 21
1787.7494964292871
 31
0.0
  0
LINE
  5
3C83
  8
YODOROGO
 10
29977.604341291921
 20
1947.749496429288
 30
0.0
 11
29977.604341291921
 21
1995.7494964292871
 31
0.0
1001
AUTOCAD_POSTSCRIPT_FIGURE
1002
{
1000
PSFILL
1000
Grayscale
1000
Grayscale
1070
    25
1002
}
  0
LINE
  5
3C84
  8
YODOROGO
 10
29977.604341291921
 20
1859.7494964292871
 30
0.0
 11
29977.604341291921
 21
1907.7494964292871
 31
0.0
1001
AUTOCAD_POSTSCRIPT_FIGURE
1002
{
1000
PSFILL
1000
Grayscale
1000
Grayscale
1070
    25
1002
}
  0
LINE
  5
3C85
  8
YODOROGO
 10
29977.604341291921
 20
1707.749496429288
 30
0.0
 11
29977.604341291921
 21
1819.7494964292871
 31
0.0
1001
AUTOCAD_POSTSCRIPT_FIGURE
1002
{
1000
PSFILL
1000
Grayscale
1000
Grayscale
1070
    25
1002
}
  0
LINE
  5
3C86
  8
YODOROGO
 10
30381.604341291932
 20
1907.7494964292871
 30
0.0
 11
30497.604341291921
 21
2027.749496429288
 31
0.0
  0
LINE
  5
3C87
  8
YODOROGO
 10
30381.604341291932
 20
1819.7494964292871
 30
0.0
 11
30381.604341291932
 21
1907.7494964292871
 31
0.0
  0
LINE
  5
3C88
  8
YODOROGO
 10
30497.604341291921
 20
1939.749496429288
 30
0.0
 11
30381.604341291932
 21
1819.7494964292871
 31
0.0
  0
LINE
  5
3C89
  8
YODOROGO
 10
30465.604341291921
 20
1679.749496429288
 30
0.0
 11
30465.604341291921
 21
1735.7494964292871
 31
0.0
  0
LINE
  5
3C8A
  8
YODOROGO
 10
30381.604341291932
 20
1679.749496429288
 30
0.0
 11
30465.604341291921
 21
1679.749496429288
 31
0.0
  0
LINE
  5
3C8B
  8
YODOROGO
 10
30529.604341291939
 20
1735.7494964292871
 30
0.0
 11
30529.604341291939
 21
1679.749496429288
 31
0.0
  0
LINE
  5
3C8C
  8
YODOROGO
 10
30381.604341291932
 20
1735.7494964292871
 30
0.0
 11
30381.604341291932
 21
1795.7494964292871
 31
0.0
  0
LINE
  5
3C8D
  8
YODOROGO
 10
30465.604341291921
 20
1735.7494964292871
 30
0.0
 11
30381.604341291932
 21
1735.7494964292871
 31
0.0
  0
LINE
  5
3C8E
  8
YODOROGO
 10
30645.604341291921
 20
2027.749496429288
 30
0.0
 11
30973.604341291921
 21
2027.749496429288
 31
0.0
  0
LINE
  5
3C8F
  8
YODOROGO
 10
30925.604341291921
 20
1963.749496429286
 30
0.0
 11
30697.604341291932
 21
1963.749496429286
 31
0.0
  0
LINE
  5
3C90
  8
YODOROGO
 10
30873.604341291921
 20
1819.7494964292871
 30
0.0
 11
30899.604341291932
 21
1819.7494964292871
 31
0.0
  0
LINE
  5
3C91
  8
YODOROGO
 10
30899.604341291932
 20
1939.749496429288
 30
0.0
 11
30873.604341291921
 21
1819.7494964292871
 31
0.0
  0
LINE
  5
3C92
  8
YODOROGO
 10
30851.604341291939
 20
1939.749496429288
 30
0.0
 11
30899.604341291932
 21
1939.749496429288
 31
0.0
  0
LINE
  5
3C93
  8
YODOROGO
 10
30825.604341291921
 20
1819.7494964292871
 30
0.0
 11
30851.604341291939
 21
1939.749496429288
 31
0.0
  0
LINE
  5
3C94
  8
YODOROGO
 10
30797.604341291921
 20
1819.7494964292871
 30
0.0
 11
30825.604341291921
 21
1819.7494964292871
 31
0.0
  0
LINE
  5
3C95
  8
YODOROGO
 10
30771.604341291939
 20
1939.749496429288
 30
0.0
 11
30797.604341291921
 21
1819.7494964292871
 31
0.0
  0
LINE
  5
3C96
  8
YODOROGO
 10
30723.604341291921
 20
1939.749496429288
 30
0.0
 11
30771.604341291939
 21
1939.749496429288
 31
0.0
  0
LINE
  5
3C97
  8
YODOROGO
 10
30749.604341291921
 20
1819.7494964292871
 30
0.0
 11
30723.604341291921
 21
1939.749496429288
 31
0.0
  0
LINE
  5
3C98
  8
YODOROGO
 10
30723.604341291921
 20
1819.7494964292871
 30
0.0
 11
30749.604341291921
 21
1819.7494964292871
 31
0.0
  0
LINE
  5
3C99
  8
YODOROGO
 10
30723.604341291921
 20
1755.7494964292871
 30
0.0
 11
30723.604341291921
 21
1819.7494964292871
 31
0.0
  0
LINE
  5
3C9A
  8
YODOROGO
 10
30899.604341291932
 20
1755.7494964292871
 30
0.0
 11
30723.604341291921
 21
1755.7494964292871
 31
0.0
  0
LINE
  5
3C9B
  8
YODOROGO
 10
30899.604341291932
 20
1819.7494964292871
 30
0.0
 11
30899.604341291932
 21
1755.7494964292871
 31
0.0
  0
LINE
  5
3C9C
  8
YODOROGO
 10
30617.604341291921
 20
1947.749496429288
 30
0.0
 11
30617.604341291921
 21
1859.7494964292871
 31
0.0
  0
LINE
  5
3C9D
  8
YODOROGO
 10
30791.604341291921
 20
1755.7494964292871
 30
0.0
 11
30831.604341291921
 21
1755.7494964292871
 31
0.0
  0
LINE
  5
3C9E
  8
YODOROGO
 10
30723.604341291921
 20
1691.749496429288
 30
0.0
 11
30763.604341291921
 21
1691.749496429288
 31
0.0
  0
LINE
  5
3C9F
  8
YODOROGO
 10
30859.604341291932
 20
1691.749496429288
 30
0.0
 11
30899.604341291932
 21
1691.749496429288
 31
0.0
  0
LINE
  5
3CA0
  8
YODOROGO
 10
30617.604341291921
 20
1795.7494964292871
 30
0.0
 11
30617.604341291921
 21
1735.7494964292871
 31
0.0
  0
LINE
  5
3CA1
  8
YODOROGO
 10
31165.604341291921
 20
2027.749496429288
 30
0.0
 11
31165.604341291921
 21
1963.749496429286
 31
0.0
  0
LINE
  5
3CA2
  8
YODOROGO
 10
31533.604341291921
 20
1595.7494964292871
 30
0.0
 11
31533.60434129191
 21
1811.7494964292871
 31
0.0
  0
LINE
  5
3CA3
  8
YODOROGO
 10
31461.60434129191
 20
1987.7494964292871
 30
0.0
 11
31461.60434129191
 21
1635.7494964292871
 31
0.0
  0
LINE
  5
3CA4
  8
YODOROGO
 10
31653.604341291921
 20
1427.749496429288
 30
0.0
 11
31653.60434129191
 21
1811.7494964292871
 31
0.0
  0
LINE
  5
3CA5
  8
YODOROGO
 10
31589.604341291921
 20
1811.7494964292871
 30
0.0
 11
31589.604341291921
 21
1427.749496429288
 31
0.0
  0
LINE
  5
3CA6
  8
YODOROGO
 10
31237.604341291921
 20
1595.7494964292871
 30
0.0
 11
31237.604341291921
 21
1707.749496429288
 31
0.0
  0
ARC
  5
3CA7
  8
YODOROGO
 10
31353.914865116069
 20
1607.790351288558
 30
0.0
 40
180.09244857598841
 50
268.62849102169793
 51
356.16638457330322
  0
LINE
  5
3CA8
  8
YODOROGO
 10
31349.604341291939
 20
1527.749496429288
 30
0.0
 11
31349.604341291939
 21
1427.749496429288
 31
0.0
  0
ARC
  5
3CA9
  8
YODOROGO
 10
31351.518075724562
 20
1637.838957017655
 30
0.0
 40
110.1060929836122
 50
269.00410209305932
 51
358.91264455492478
  0
LINE
  5
3CAA
  8
YODOROGO
 10
31589.604341291921
 20
1427.749496429288
 30
0.0
 11
31653.604341291921
 21
1427.749496429288
 31
0.0
  0
LINE
  5
3CAB
  8
YODOROGO
 10
31533.60434129191
 20
1811.7494964292871
 30
0.0
 11
31589.604341291921
 21
1811.7494964292871
 31
0.0
  0
LINE
  5
3CAC
  8
YODOROGO
 10
31621.604341291939
 20
1987.7494964292871
 30
0.0
 11
31461.60434129191
 21
1987.7494964292871
 31
0.0
  0
LINE
  5
3CAD
  8
YODOROGO
 10
31533.60434129191
 20
1915.7494964292871
 30
0.0
 11
31661.604341291939
 21
1915.7494964292871
 31
0.0
  0
LINE
  5
3CAE
  8
YODOROGO
 10
31701.604341291939
 20
1875.7494964292871
 30
0.0
 11
31533.60434129191
 21
1875.7494964292871
 31
0.0
  0
LINE
  5
3CAF
  8
YODOROGO
 10
31237.604341291921
 20
1779.7494964292871
 30
0.0
 11
31349.604341291939
 21
1779.7494964292871
 31
0.0
  0
LINE
  5
3CB0
  8
YODOROGO
 10
31237.604341291921
 20
1835.7494964292871
 30
0.0
 11
31237.604341291921
 21
1779.7494964292871
 31
0.0
  0
LINE
  5
3CB1
  8
YODOROGO
 10
31349.604341291939
 20
1835.7494964292871
 30
0.0
 11
31237.604341291921
 21
1835.7494964292871
 31
0.0
  0
LINE
  5
3CB2
  8
YODOROGO
 10
31349.604341291939
 20
1779.7494964292871
 30
0.0
 11
31349.604341291939
 21
1835.7494964292871
 31
0.0
  0
LINE
  5
3CB3
  8
YODOROGO
 10
31533.60434129191
 20
1875.7494964292871
 30
0.0
 11
31533.60434129191
 21
1915.7494964292871
 31
0.0
  0
LINE
  5
3CB4
  8
YODOROGO
 10
31413.604341291921
 20
1707.749496429288
 30
0.0
 11
31413.604341291921
 21
1907.7494964292871
 31
0.0
  0
LINE
  5
3CB5
  8
YODOROGO
 10
31237.604341291921
 20
1707.749496429288
 30
0.0
 11
31413.604341291921
 21
1707.749496429288
 31
0.0
  0
LINE
  5
3CB6
  8
YODOROGO
 10
31413.604341291921
 20
1963.749496429286
 30
0.0
 11
31413.604341291921
 21
2027.749496429288
 31
0.0
  0
ARC
  5
3CB7
  8
YODOROGO
 10
31621.604341291939
 20
2003.749496429285
 30
0.0
 40
15.999999999994539
 50
270.0
 51
0.0000000000081422
  0
LINE
  5
3CB8
  8
YODOROGO
 10
31637.604341291921
 20
2027.749496429288
 30
0.0
 11
31637.604341291921
 21
2003.7494964292871
 31
0.0
  0
LINE
  5
3CB9
  8
YODOROGO
 10
31701.604341291939
 20
2027.749496429288
 30
0.0
 11
31637.604341291921
 21
2027.749496429288
 31
0.0
  0
LINE
  5
3CBA
  8
YODOROGO
 10
31701.604341291939
 20
1955.7494964292871
 30
0.0
 11
31701.604341291939
 21
2027.749496429288
 31
0.0
  0
ARC
  5
3CBB
  8
YODOROGO
 10
31661.604341291939
 20
1955.7494964292871
 30
0.0
 40
40.0
 50
270.0
 51
0.0
  0
LINE
  5
3CBC
  8
YODOROGO
 10
31701.604341291939
 20
1811.7494964292871
 30
0.0
 11
31701.604341291939
 21
1875.7494964292871
 31
0.0
  0
LINE
  5
3CBD
  8
YODOROGO
 10
31653.60434129191
 20
1811.7494964292871
 30
0.0
 11
31701.604341291939
 21
1811.7494964292871
 31
0.0
  0
LINE
  5
3CBE
  8
SUNPOU
  6
CONTINUOUS
 62
     4
 10
7855.0887059999759
 20
14235.539524000011
 30
0.0
 11
7855.0887059999759
 21
13035.538534999991
 31
0.0
  0
LINE
  5
3CBF
  8
SUNPOU
  6
CONTINUOUS
 62
     4
 10
14563.088508999959
 20
14235.539524000011
 30
0.0
 11
14563.088508999959
 21
13035.538534999991
 31
0.0
  0
LINE
  5
3CC0
  8
SUNPOU
  6
CONTINUOUS
 62
     4
 10
7855.0887059999759
 20
13115.538534999991
 30
0.0
 11
14563.088508999959
 21
13115.538534999991
 31
0.0
  0
LINE
  5
3CC1
  8
SUNPOU
  6
CONTINUOUS
 62
     4
 10
7778.085071999978
 20
19855.535697000021
 30
0.0
 11
7331.0896509999766
 21
19855.535697000021
 31
0.0
  0
LINE
  5
3CC2
  8
SUNPOU
  6
CONTINUOUS
 62
     4
 10
7778.0894269999753
 20
19865.53569700001
 30
0.0
 11
7331.0896509999766
 21
19865.53569700001
 31
0.0
  0
LINE
  5
3CC3
  8
SUNPOU
  6
CONTINUOUS
 62
     4
 10
7411.089650999982
 20
19855.535697000021
 30
0.0
 11
7411.089650999982
 21
19615.535697000021
 31
0.0
  0
LINE
  5
3CC4
  8
SUNPOU
  6
CONTINUOUS
 62
     4
 10
7411.089650999982
 20
19865.53569700001
 30
0.0
 11
7411.089650999982
 21
20105.535697000021
 31
0.0
  0
LINE
  5
3CC5
  8
SUNPOU
  6
CONTINUOUS
 62
     4
 10
7411.089650999982
 20
19855.535697000021
 30
0.0
 11
7411.089650999982
 21
19865.53569700001
 31
0.0
  0
LINE
  5
3CC6
  8
SUNPOU
  6
CONTINUOUS
 62
     4
 10
7778.0894269999753
 20
19865.53569700001
 30
0.0
 11
6931.0896509999757
 21
19865.53569700001
 31
0.0
  0
LINE
  5
3CC7
  8
SUNPOU
  6
CONTINUOUS
 62
     4
 10
7011.0896509999811
 20
19643.039787999991
 30
0.0
 11
7011.0896509999811
 21
19403.039787999991
 31
0.0
  0
LINE
  5
3CC8
  8
SUNPOU
  6
CONTINUOUS
 62
     4
 10
7011.0896509999811
 20
19865.53569700001
 30
0.0
 11
7011.0896509999811
 21
20105.535697000021
 31
0.0
  0
LINE
  5
3CC9
  8
SUNPOU
  6
CONTINUOUS
 62
     4
 10
7011.0896509999811
 20
19643.039787999991
 30
0.0
 11
7011.0896509999811
 21
19865.53569700001
 31
0.0
  0
LINE
  5
3CCA
  8
SUNPOU
  6
CONTINUOUS
 62
     4
 10
7011.0896509999757
 20
17075.53978799998
 30
0.0
 11
7011.0896509999811
 21
19643.039787999991
 31
0.0
  0
LINE
  5
3CCB
  8
SUNPOU
  6
CONTINUOUS
 62
     4
 10
7011.0896509999811
 20
14508.039787999989
 30
0.0
 11
7011.0896509999811
 21
17075.53978799998
 31
0.0
  0
LINE
  5
3CCC
  8
SUNPOU
  6
CONTINUOUS
 62
     4
 10
7778.085071999978
 20
14315.544472999991
 30
0.0
 11
6931.0896509999757
 21
14315.544472999991
 31
0.0
  0
LINE
  5
3CCD
  8
SUNPOU
  6
CONTINUOUS
 62
     4
 10
7011.0896509999811
 20
14508.039787999989
 30
0.0
 11
7011.0896509999811
 21
14748.03978799998
 31
0.0
  0
LINE
  5
3CCE
  8
SUNPOU
  6
CONTINUOUS
 62
     4
 10
7011.0896509999811
 20
14315.544472999991
 30
0.0
 11
7011.0896509999811
 21
14075.544472999991
 31
0.0
  0
LINE
  5
3CCF
  8
SUNPOU
  6
CONTINUOUS
 62
     4
 10
7011.0896509999811
 20
14508.039787999989
 30
0.0
 11
7011.0896509999811
 21
14315.544472999991
 31
0.0
  0
LINE
  5
3CD0
  8
SUNPOU
  6
CONTINUOUS
 62
     4
 10
7855.0891019999717
 20
19945.535697000021
 30
0.0
 11
7855.0891019999717
 21
20495.540976000011
 31
0.0
  0
LINE
  5
3CD1
  8
SUNPOU
  6
CONTINUOUS
 62
     4
 10
7940.5891019999726
 20
20415.540976000011
 30
0.0
 11
8180.5891019999744
 21
20415.540976000011
 31
0.0
  0
LINE
  5
3CD2
  8
SUNPOU
  6
CONTINUOUS
 62
     4
 10
7858.0891019999717
 20
20415.540976000011
 30
0.0
 11
7618.0891019999744
 21
20415.540976000011
 31
0.0
  0
LINE
  5
3CD3
  8
SUNPOU
  6
CONTINUOUS
 62
     4
 10
7940.5891019999726
 20
20415.540976000011
 30
0.0
 11
7858.0891019999717
 21
20415.540976000011
 31
0.0
  0
LINE
  5
3CD4
  8
SUNPOU
  6
CONTINUOUS
 62
     4
 10
11209.089101999971
 20
20415.540976000011
 30
0.0
 11
7940.5891019999726
 21
20415.540976000011
 31
0.0
  0
LINE
  5
3CD5
  8
SUNPOU
  6
CONTINUOUS
 62
     4
 10
14563.089101999971
 20
19945.535697000021
 30
0.0
 11
14563.089101999971
 21
20495.540976000011
 31
0.0
  0
LINE
  5
3CD6
  8
SUNPOU
  6
CONTINUOUS
 62
     4
 10
14477.589101999971
 20
20415.540976000011
 30
0.0
 11
14237.589101999971
 21
20415.540976000011
 31
0.0
  0
LINE
  5
3CD7
  8
SUNPOU
  6
CONTINUOUS
 62
     4
 10
14560.089101999971
 20
20415.540976000011
 30
0.0
 11
14800.089101999971
 21
20415.540976000011
 31
0.0
  0
LINE
  5
3CD8
  8
SUNPOU
  6
CONTINUOUS
 62
     4
 10
14477.589101999971
 20
20415.540976000011
 30
0.0
 11
14560.089101999971
 21
20415.540976000011
 31
0.0
  0
LINE
  5
3CD9
  8
SUNPOU
  6
CONTINUOUS
 62
     4
 10
11209.089101999971
 20
20415.540976000011
 30
0.0
 11
14477.589101999971
 21
20415.540976000011
 31
0.0
  0
LINE
  5
3CDA
  8
SUNPOU
  6
CONTINUOUS
 62
     4
 10
25606.04415499997
 20
14915.66004375
 30
0.0
 11
26656.045474999992
 21
14915.66004375
 31
0.0
  0
LINE
  5
3CDB
  8
SUNPOU
  6
CONTINUOUS
 62
     4
 10
26456.045474999992
 20
14508.16004375
 30
0.0
 11
26656.045474999992
 21
14508.16004375
 31
0.0
  0
LINE
  5
3CDC
  8
SUNPOU
  6
CONTINUOUS
 62
     4
 10
26576.045474999992
 20
14915.66004375
 30
0.0
 11
26576.045474999992
 21
14508.16004375
 31
0.0
  0
LINE
  5
3CDD
  8
SUNPOU
  6
CONTINUOUS
 62
     4
 10
25606.04415499997
 20
19235.539787999998
 30
0.0
 11
26656.045474999992
 21
19235.539787999998
 31
0.0
  0
LINE
  5
3CDE
  8
SUNPOU
  6
CONTINUOUS
 62
     4
 10
26456.045474999992
 20
19643.039787999991
 30
0.0
 11
26656.045474999992
 21
19643.039787999991
 31
0.0
  0
LINE
  5
3CDF
  8
SUNPOU
  6
CONTINUOUS
 62
     4
 10
26576.045474999992
 20
19235.539787999998
 30
0.0
 11
26576.045474999992
 21
19643.039787999991
 31
0.0
  0
LINE
  5
3CE0
  8
SUNPOU
  6
CONTINUOUS
 62
     4
 10
18946.54587099998
 20
13802.276354
 30
0.0
 11
18946.54587099998
 21
13456.591703999989
 31
0.0
  0
LINE
  5
3CE1
  8
SUNPOU
  6
CONTINUOUS
 62
     4
 10
18904.043627999981
 20
14385.542493000001
 30
0.0
 11
18904.043627999981
 21
13456.591703999989
 31
0.0
  0
LINE
  5
3CE2
  8
SUNPOU
  6
CONTINUOUS
 62
     4
 10
18946.54587099998
 20
13536.59170399998
 30
0.0
 11
19186.54587099998
 21
13536.59170399998
 31
0.0
  0
LINE
  5
3CE3
  8
SUNPOU
  6
CONTINUOUS
 62
     4
 10
18904.043627999981
 20
13536.59170399998
 30
0.0
 11
18664.043627999981
 21
13536.59170399998
 31
0.0
  0
LINE
  5
3CE4
  8
SUNPOU
  6
CONTINUOUS
 62
     4
 10
18946.54587099998
 20
13536.59170399998
 30
0.0
 11
18904.043627999981
 21
13536.59170399998
 31
0.0
  0
LINE
  5
3CE5
  8
SUNPOU
  6
CONTINUOUS
 62
     4
 10
25483.54587099998
 20
13802.276354
 30
0.0
 11
25483.54587099998
 21
13456.591703999989
 31
0.0
  0
LINE
  5
3CE6
  8
SUNPOU
  6
CONTINUOUS
 62
     4
 10
25526.048113999968
 20
14385.542493000001
 30
0.0
 11
25526.048113999968
 21
13456.591703999989
 31
0.0
  0
LINE
  5
3CE7
  8
SUNPOU
  6
CONTINUOUS
 62
     4
 10
25483.54587099998
 20
13536.59170399998
 30
0.0
 11
25243.54587099998
 21
13536.59170399998
 31
0.0
  0
LINE
  5
3CE8
  8
SUNPOU
  6
CONTINUOUS
 62
     4
 10
25526.048113999968
 20
13536.59170399998
 30
0.0
 11
25766.048113999968
 21
13536.59170399998
 31
0.0
  0
LINE
  5
3CE9
  8
SUNPOU
  6
CONTINUOUS
 62
     4
 10
25483.54587099998
 20
13536.59170399998
 30
0.0
 11
25526.048113999968
 21
13536.59170399998
 31
0.0
  0
LINE
  5
3CEA
  8
2-0
  6
CONTINUOUS
 62
     3
 10
22172.54587099998
 20
14465.539788
 30
0.0
 11
22257.54587099998
 21
14465.539788
 31
0.0
  0
LINE
  5
3CEB
  8
2-0
  6
CONTINUOUS
 62
     3
 10
22257.54587099998
 20
14465.539788
 30
0.0
 11
22257.54587099998
 21
14550.539788
 31
0.0
  0
LINE
  5
3CEC
  8
2-0
  6
CONTINUOUS
 62
     3
 10
22257.54587099998
 20
14550.539788
 30
0.0
 11
22172.54587099998
 21
14550.539788
 31
0.0
  0
LINE
  5
3CED
  8
2-0
  6
CONTINUOUS
 62
     3
 10
22172.54587099998
 20
14550.539788
 30
0.0
 11
22172.54587099998
 21
14465.539788
 31
0.0
  0
LINE
  5
3CEE
  8
SUNPOU
  6
CONTINUOUS
 62
     4
 10
25483.54587099998
 20
13802.276354
 30
0.0
 11
25483.54587099998
 21
13456.591703999989
 31
0.0
  0
LINE
  5
3CEF
  8
SUNPOU
  6
CONTINUOUS
 62
     4
 10
25441.043627999981
 20
14385.542493000001
 30
0.0
 11
25441.043627999981
 21
13456.591703999989
 31
0.0
  0
LINE
  5
3CF0
  8
SUNPOU
  6
CONTINUOUS
 62
     4
 10
25483.54587099998
 20
13536.59170399998
 30
0.0
 11
25723.54587099998
 21
13536.59170399998
 31
0.0
  0
LINE
  5
3CF1
  8
SUNPOU
  6
CONTINUOUS
 62
     4
 10
25441.043627999981
 20
13536.59170399998
 30
0.0
 11
25201.043627999981
 21
13536.59170399998
 31
0.0
  0
LINE
  5
3CF2
  8
SUNPOU
  6
CONTINUOUS
 62
     4
 10
25483.54587099998
 20
13536.59170399998
 30
0.0
 11
25441.043627999981
 21
13536.59170399998
 31
0.0
  0
LINE
  5
3CF3
  8
SUNPOU
  6
CONTINUOUS
 62
     4
 10
18946.54587099998
 20
13802.276354
 30
0.0
 11
18946.54587099998
 21
13456.591703999989
 31
0.0
  0
LINE
  5
3CF4
  8
SUNPOU
  6
CONTINUOUS
 62
     4
 10
18989.048113999961
 20
14385.542493000001
 30
0.0
 11
18989.048113999961
 21
13456.591703999989
 31
0.0
  0
LINE
  5
3CF5
  8
SUNPOU
  6
CONTINUOUS
 62
     4
 10
18946.54587099998
 20
13536.59170399998
 30
0.0
 11
18706.54587099998
 21
13536.59170399998
 31
0.0
  0
LINE
  5
3CF6
  8
SUNPOU
  6
CONTINUOUS
 62
     4
 10
18989.048113999961
 20
13536.59170399998
 30
0.0
 11
19229.048113999961
 21
13536.59170399998
 31
0.0
  0
LINE
  5
3CF7
  8
SUNPOU
  6
CONTINUOUS
 62
     4
 10
18946.54587099998
 20
13536.59170399998
 30
0.0
 11
18989.048113999961
 21
13536.59170399998
 31
0.0
  0
LINE
  5
3CF8
  8
SUNPOU
  6
CONTINUOUS
 62
     4
 10
18904.043627999981
 20
14385.542493000001
 30
0.0
 11
18904.043627999981
 21
13056.591704
 31
0.0
  0
LINE
  5
3CF9
  8
SUNPOU
  6
CONTINUOUS
 62
     4
 10
25526.048113999968
 20
14385.542493000001
 30
0.0
 11
25526.048113999968
 21
13056.591704
 31
0.0
  0
LINE
  5
3CFA
  8
SUNPOU
  6
CONTINUOUS
 62
     4
 10
18904.043627999981
 20
13136.591704
 30
0.0
 11
25526.048113999968
 21
13136.591704
 31
0.0
  0
LINE
  5
3CFB
  8
SUNPOU
  6
CONTINUOUS
 62
     4
 10
25606.044154999981
 20
15616.7802995
 30
0.0
 11
26656.045474999992
 21
15616.7802995
 31
0.0
  0
LINE
  5
3CFC
  8
SUNPOU
  6
CONTINUOUS
 62
     4
 10
25606.044154999981
 20
14915.539788
 30
0.0
 11
26656.045474999992
 21
14915.539788
 31
0.0
  0
LINE
  5
3CFD
  8
SUNPOU
  6
CONTINUOUS
 62
     4
 10
26576.045474999992
 20
15616.7802995
 30
0.0
 11
26576.045474999992
 21
14915.539788
 31
0.0
  0
LINE
  5
3CFE
  8
SUNPOU
  6
CONTINUOUS
 62
     4
 10
25606.044154999981
 20
16317.539788
 30
0.0
 11
26656.045474999992
 21
16317.539788
 31
0.0
  0
LINE
  5
3CFF
  8
SUNPOU
  6
CONTINUOUS
 62
     4
 10
25606.044154999981
 20
15616.7802995
 30
0.0
 11
26656.045474999992
 21
15616.7802995
 31
0.0
  0
LINE
  5
3D00
  8
SUNPOU
  6
CONTINUOUS
 62
     4
 10
26576.045474999992
 20
16317.539788
 30
0.0
 11
26576.045474999992
 21
15616.7802995
 31
0.0
  0
LINE
  5
3D01
  8
SUNPOU
  6
CONTINUOUS
 62
     4
 10
26456.045474999992
 20
17075.53978799998
 30
0.0
 11
26656.045474999992
 21
17075.53978799998
 31
0.0
  0
LINE
  5
3D02
  8
SUNPOU
  6
CONTINUOUS
 62
     4
 10
25606.044154999981
 20
16317.539788
 30
0.0
 11
26656.045474999992
 21
16317.539788
 31
0.0
  0
LINE
  5
3D03
  8
SUNPOU
  6
CONTINUOUS
 62
     4
 10
26576.045474999992
 20
17075.53978799998
 30
0.0
 11
26576.045474999992
 21
16317.539788
 31
0.0
  0
LINE
  5
3D04
  8
SUNPOU
  6
CONTINUOUS
 62
     4
 10
25606.044154999981
 20
17833.539787999991
 30
0.0
 11
26656.045474999992
 21
17833.539787999991
 31
0.0
  0
LINE
  5
3D05
  8
SUNPOU
  6
CONTINUOUS
 62
     4
 10
26456.045474999992
 20
17075.53978799998
 30
0.0
 11
26656.045474999992
 21
17075.53978799998
 31
0.0
  0
LINE
  5
3D06
  8
SUNPOU
  6
CONTINUOUS
 62
     4
 10
26576.045474999992
 20
17833.539787999991
 30
0.0
 11
26576.045474999992
 21
17075.53978799998
 31
0.0
  0
LINE
  5
3D07
  8
SUNPOU
  6
CONTINUOUS
 62
     4
 10
25606.044154999981
 20
18534.539787999998
 30
0.0
 11
26656.045474999992
 21
18534.539787999998
 31
0.0
  0
LINE
  5
3D08
  8
SUNPOU
  6
CONTINUOUS
 62
     4
 10
25606.044154999981
 20
17833.539787999991
 30
0.0
 11
26656.045474999992
 21
17833.539787999991
 31
0.0
  0
LINE
  5
3D09
  8
SUNPOU
  6
CONTINUOUS
 62
     4
 10
26576.045474999992
 20
18534.539787999998
 30
0.0
 11
26576.045474999992
 21
17833.539787999991
 31
0.0
  0
LINE
  5
3D0A
  8
SUNPOU
  6
CONTINUOUS
 62
     4
 10
25606.044154999981
 20
19235.539787999998
 30
0.0
 11
26656.045474999992
 21
19235.539787999998
 31
0.0
  0
LINE
  5
3D0B
  8
SUNPOU
  6
CONTINUOUS
 62
     4
 10
25606.044154999981
 20
18534.539787999998
 30
0.0
 11
26656.045474999992
 21
18534.539787999998
 31
0.0
  0
LINE
  5
3D0C
  8
SUNPOU
  6
CONTINUOUS
 62
     4
 10
26576.045474999992
 20
19235.539787999998
 30
0.0
 11
26576.045474999992
 21
18534.539787999998
 31
0.0
  0
LINE
  5
3D0D
  8
SUNPOU
  6
CONTINUOUS
 62
     4
 10
26456.045474999992
 20
17075.53978799998
 30
0.0
 11
27056.045474999992
 21
17075.53978799998
 31
0.0
  0
LINE
  5
3D0E
  8
SUNPOU
  6
CONTINUOUS
 62
     4
 10
26456.045474999992
 20
19643.039787999991
 30
0.0
 11
27056.045474999992
 21
19643.039787999991
 31
0.0
  0
LINE
  5
3D0F
  8
SUNPOU
  6
CONTINUOUS
 62
     4
 10
26976.045474999992
 20
17075.53978799998
 30
0.0
 11
26976.045474999992
 21
19643.039787999991
 31
0.0
  0
LINE
  5
3D10
  8
SUNPOU
  6
CONTINUOUS
 62
     4
 10
26456.045474999992
 20
14508.039787999989
 30
0.0
 11
27056.045474999992
 21
14508.039787999989
 31
0.0
  0
LINE
  5
3D11
  8
SUNPOU
  6
CONTINUOUS
 62
     4
 10
26456.045474999992
 20
17075.53978799998
 30
0.0
 11
27056.045474999992
 21
17075.53978799998
 31
0.0
  0
LINE
  5
3D12
  8
SUNPOU
  6
CONTINUOUS
 62
     4
 10
26976.045474999992
 20
14508.039787999989
 30
0.0
 11
26976.045474999992
 21
17075.53978799998
 31
0.0
  0
LINE
  5
3D13
  8
SUNPOU
  6
CONTINUOUS
 62
     4
 10
25606.044154999981
 20
19685.537082999988
 30
0.0
 11
27456.045474999981
 21
19685.537082999988
 31
0.0
  0
LINE
  5
3D14
  8
SUNPOU
  6
CONTINUOUS
 62
     4
 10
25606.044154999981
 20
14465.542493000001
 30
0.0
 11
27456.045474999981
 21
14465.542493000001
 31
0.0
  0
LINE
  5
3D15
  8
SUNPOU
  6
CONTINUOUS
 62
     4
 10
27376.045474999981
 20
19685.537082999988
 30
0.0
 11
27376.045474999981
 21
14465.542493000001
 31
0.0
  0
LINE
  5
3D16
  8
SUNPOU
  6
CONTINUOUS
 62
     4
 10
26456.045474999992
 20
19643.039787999991
 30
0.0
 11
27056.045474999992
 21
19643.039787999991
 31
0.0
  0
LINE
  5
3D17
  8
SUNPOU
  6
CONTINUOUS
 62
     4
 10
25606.044154999981
 20
19685.537082999988
 30
0.0
 11
27056.045474999992
 21
19685.537082999988
 31
0.0
  0
LINE
  5
3D18
  8
SUNPOU
  6
CONTINUOUS
 62
     4
 10
26976.045474999992
 20
19643.039787999991
 30
0.0
 11
26976.045474999992
 21
19403.039787999991
 31
0.0
  0
LINE
  5
3D19
  8
SUNPOU
  6
CONTINUOUS
 62
     4
 10
26976.045474999992
 20
19685.537082999988
 30
0.0
 11
26976.045474999992
 21
19925.537082999999
 31
0.0
  0
LINE
  5
3D1A
  8
SUNPOU
  6
CONTINUOUS
 62
     4
 10
26976.045474999992
 20
19643.039787999991
 30
0.0
 11
26976.045474999992
 21
19685.537082999988
 31
0.0
  0
LINE
  5
3D1B
  8
SUNPOU
  6
CONTINUOUS
 62
     4
 10
26456.045474999992
 20
14508.039787999989
 30
0.0
 11
27056.045474999992
 21
14508.039787999989
 31
0.0
  0
LINE
  5
3D1C
  8
SUNPOU
  6
CONTINUOUS
 62
     4
 10
25606.044154999981
 20
14465.542493000001
 30
0.0
 11
27056.045474999992
 21
14465.542493000001
 31
0.0
  0
LINE
  5
3D1D
  8
SUNPOU
  6
CONTINUOUS
 62
     4
 10
26976.045474999992
 20
14508.039787999989
 30
0.0
 11
26976.045474999992
 21
14748.03978799998
 31
0.0
  0
LINE
  5
3D1E
  8
SUNPOU
  6
CONTINUOUS
 62
     4
 10
26976.045474999992
 20
14465.542493000001
 30
0.0
 11
26976.045474999992
 21
14225.542493000001
 31
0.0
  0
LINE
  5
3D1F
  8
SUNPOU
  6
CONTINUOUS
 62
     4
 10
26976.045474999992
 20
14508.039787999989
 30
0.0
 11
26976.045474999992
 21
14465.542493000001
 31
0.0
  0
LINE
  5
3D20
  8
SUNPOU
  6
CONTINUOUS
 62
     4
 10
22215.04587099998
 20
19765.538073000022
 30
0.0
 11
22215.04587099998
 21
20495.540976000011
 31
0.0
  0
LINE
  5
3D21
  8
SUNPOU
  6
CONTINUOUS
 62
     4
 10
22622.545870999969
 20
19765.538073000022
 30
0.0
 11
22622.545870999969
 21
20495.540976000011
 31
0.0
  0
LINE
  5
3D22
  8
SUNPOU
  6
CONTINUOUS
 62
     4
 10
22215.04587099998
 20
20415.540976000011
 30
0.0
 11
21975.04587099998
 21
20415.540976000011
 31
0.0
  0
LINE
  5
3D23
  8
SUNPOU
  6
CONTINUOUS
 62
     4
 10
22622.545870999969
 20
20415.540976000011
 30
0.0
 11
22862.545870999969
 21
20415.540976000011
 31
0.0
  0
LINE
  5
3D24
  8
SUNPOU
  6
CONTINUOUS
 62
     4
 10
22215.04587099998
 20
20415.540976000011
 30
0.0
 11
22622.545870999969
 21
20415.540976000011
 31
0.0
  0
LINE
  5
3D25
  8
SUNPOU
  6
CONTINUOUS
 62
     4
 10
24725.54587099998
 20
19765.538073000022
 30
0.0
 11
24725.54587099998
 21
20495.540976000011
 31
0.0
  0
LINE
  5
3D26
  8
SUNPOU
  6
CONTINUOUS
 62
     4
 10
25483.546860499991
 20
19765.538073000022
 30
0.0
 11
25483.546860499991
 21
20495.540976000011
 31
0.0
  0
LINE
  5
3D27
  8
SUNPOU
  6
CONTINUOUS
 62
     4
 10
24725.54587099998
 20
20415.540976000011
 30
0.0
 11
25483.546860499991
 21
20415.540976000011
 31
0.0
  0
LINE
  5
3D28
  8
SUNPOU
  6
CONTINUOUS
 62
     4
 10
24024.54587099998
 20
19765.538073000022
 30
0.0
 11
24024.54587099998
 21
20495.540976000011
 31
0.0
  0
LINE
  5
3D29
  8
SUNPOU
  6
CONTINUOUS
 62
     4
 10
24725.54587099998
 20
19765.538073000022
 30
0.0
 11
24725.54587099998
 21
20495.540976000011
 31
0.0
  0
LINE
  5
3D2A
  8
SUNPOU
  6
CONTINUOUS
 62
     4
 10
24024.54587099998
 20
20415.540976000011
 30
0.0
 11
24725.54587099998
 21
20415.540976000011
 31
0.0
  0
LINE
  5
3D2B
  8
SUNPOU
  6
CONTINUOUS
 62
     4
 10
23323.545870999969
 20
19765.538073000022
 30
0.0
 11
23323.545870999969
 21
20495.540976000011
 31
0.0
  0
LINE
  5
3D2C
  8
SUNPOU
  6
CONTINUOUS
 62
     4
 10
24024.54587099998
 20
19765.538073000022
 30
0.0
 11
24024.54587099998
 21
20495.540976000011
 31
0.0
  0
LINE
  5
3D2D
  8
SUNPOU
  6
CONTINUOUS
 62
     4
 10
23323.545870999969
 20
20415.540976000011
 30
0.0
 11
24024.54587099998
 21
20415.540976000011
 31
0.0
  0
LINE
  5
3D2E
  8
SUNPOU
  6
CONTINUOUS
 62
     4
 10
22622.545870999969
 20
19765.538073000022
 30
0.0
 11
22622.545870999969
 21
20495.540976000011
 31
0.0
  0
LINE
  5
3D2F
  8
SUNPOU
  6
CONTINUOUS
 62
     4
 10
23323.545870999969
 20
19765.538073000022
 30
0.0
 11
23323.545870999969
 21
20495.540976000011
 31
0.0
  0
LINE
  5
3D30
  8
SUNPOU
  6
CONTINUOUS
 62
     4
 10
22622.545870999969
 20
20415.540976000011
 30
0.0
 11
23323.545870999969
 21
20415.540976000011
 31
0.0
  0
LINE
  5
3D31
  8
SUNPOU
  6
CONTINUOUS
 62
     4
 10
25483.54587099998
 20
19765.538073000022
 30
0.0
 11
25483.54587099998
 21
20495.540976000011
 31
0.0
  0
LINE
  5
3D32
  8
SUNPOU
  6
CONTINUOUS
 62
     4
 10
25526.042175999981
 20
19765.538073000022
 30
0.0
 11
25526.042175999981
 21
20495.540976000011
 31
0.0
  0
LINE
  5
3D33
  8
SUNPOU
  6
CONTINUOUS
 62
     4
 10
25483.54587099998
 20
20415.540976000011
 30
0.0
 11
25243.54587099998
 21
20415.540976000011
 31
0.0
  0
LINE
  5
3D34
  8
SUNPOU
  6
CONTINUOUS
 62
     4
 10
25526.042175999981
 20
20415.540976000011
 30
0.0
 11
25766.042175999981
 21
20415.540976000011
 31
0.0
  0
LINE
  5
3D35
  8
SUNPOU
  6
CONTINUOUS
 62
     4
 10
25483.54587099998
 20
20415.540976000011
 30
0.0
 11
25526.042175999981
 21
20415.540976000011
 31
0.0
  0
LINE
  5
3D36
  8
SUNPOU
  6
CONTINUOUS
 62
     4
 10
18946.54587099998
 20
19765.538073000022
 30
0.0
 11
18946.54587099998
 21
20495.540976000011
 31
0.0
  0
LINE
  5
3D37
  8
SUNPOU
  6
CONTINUOUS
 62
     4
 10
19354.04587099998
 20
19765.538073000022
 30
0.0
 11
19354.04587099998
 21
20495.540976000011
 31
0.0
  0
LINE
  5
3D38
  8
SUNPOU
  6
CONTINUOUS
 62
     4
 10
18946.54587099998
 20
20415.540976000011
 30
0.0
 11
18706.54587099998
 21
20415.540976000011
 31
0.0
  0
LINE
  5
3D39
  8
SUNPOU
  6
CONTINUOUS
 62
     4
 10
19354.04587099998
 20
20415.540976000011
 30
0.0
 11
19594.04587099998
 21
20415.540976000011
 31
0.0
  0
LINE
  5
3D3A
  8
SUNPOU
  6
CONTINUOUS
 62
     4
 10
18946.54587099998
 20
20415.540976000011
 30
0.0
 11
19354.04587099998
 21
20415.540976000011
 31
0.0
  0
LINE
  5
3D3B
  8
SUNPOU
  6
CONTINUOUS
 62
     4
 10
18946.54587099998
 20
19765.538073000022
 30
0.0
 11
18946.54587099998
 21
20495.540976000011
 31
0.0
  0
LINE
  5
3D3C
  8
SUNPOU
  6
CONTINUOUS
 62
     4
 10
18904.049565999969
 20
19765.538073000022
 30
0.0
 11
18904.049565999969
 21
20495.540976000011
 31
0.0
  0
LINE
  5
3D3D
  8
SUNPOU
  6
CONTINUOUS
 62
     4
 10
18946.54587099998
 20
20415.540976000011
 30
0.0
 11
19186.54587099998
 21
20415.540976000011
 31
0.0
  0
LINE
  5
3D3E
  8
SUNPOU
  6
CONTINUOUS
 62
     4
 10
18904.049565999969
 20
20415.540976000011
 30
0.0
 11
18664.049565999969
 21
20415.540976000011
 31
0.0
  0
LINE
  5
3D3F
  8
SUNPOU
  6
CONTINUOUS
 62
     4
 10
18946.54587099998
 20
20415.540976000011
 30
0.0
 11
18904.049565999969
 21
20415.540976000011
 31
0.0
  0
LINE
  5
3D40
  8
SUNPOU
  6
CONTINUOUS
 62
     4
 10
21457.04587099998
 20
19765.538073000022
 30
0.0
 11
21457.04587099998
 21
20495.540976000011
 31
0.0
  0
LINE
  5
3D41
  8
SUNPOU
  6
CONTINUOUS
 62
     4
 10
22215.046860499991
 20
19765.538073000022
 30
0.0
 11
22215.046860499991
 21
20495.540976000011
 31
0.0
  0
LINE
  5
3D42
  8
SUNPOU
  6
CONTINUOUS
 62
     4
 10
21457.04587099998
 20
20415.540976000011
 30
0.0
 11
22215.046860499991
 21
20415.540976000011
 31
0.0
  0
LINE
  5
3D43
  8
SUNPOU
  6
CONTINUOUS
 62
     4
 10
20756.04587099998
 20
19765.538073000022
 30
0.0
 11
20756.04587099998
 21
20495.540976000011
 31
0.0
  0
LINE
  5
3D44
  8
SUNPOU
  6
CONTINUOUS
 62
     4
 10
21457.04587099998
 20
19765.538073000022
 30
0.0
 11
21457.04587099998
 21
20495.540976000011
 31
0.0
  0
LINE
  5
3D45
  8
SUNPOU
  6
CONTINUOUS
 62
     4
 10
20756.04587099998
 20
20415.540976000011
 30
0.0
 11
21457.04587099998
 21
20415.540976000011
 31
0.0
  0
LINE
  5
3D46
  8
SUNPOU
  6
CONTINUOUS
 62
     4
 10
20055.04587099998
 20
19765.538073000022
 30
0.0
 11
20055.04587099998
 21
20495.540976000011
 31
0.0
  0
LINE
  5
3D47
  8
SUNPOU
  6
CONTINUOUS
 62
     4
 10
20756.04587099998
 20
19765.538073000022
 30
0.0
 11
20756.04587099998
 21
20495.540976000011
 31
0.0
  0
LINE
  5
3D48
  8
SUNPOU
  6
CONTINUOUS
 62
     4
 10
20055.04587099998
 20
20415.540976000011
 30
0.0
 11
20756.04587099998
 21
20415.540976000011
 31
0.0
  0
LINE
  5
3D49
  8
SUNPOU
  6
CONTINUOUS
 62
     4
 10
19354.04587099998
 20
19765.538073000022
 30
0.0
 11
19354.04587099998
 21
20495.540976000011
 31
0.0
  0
LINE
  5
3D4A
  8
SUNPOU
  6
CONTINUOUS
 62
     4
 10
20055.04587099998
 20
19765.538073000022
 30
0.0
 11
20055.04587099998
 21
20495.540976000011
 31
0.0
  0
LINE
  5
3D4B
  8
SUNPOU
  6
CONTINUOUS
 62
     4
 10
19354.04587099998
 20
20415.540976000011
 30
0.0
 11
20055.04587099998
 21
20415.540976000011
 31
0.0
  0
LINE
  5
3D4C
  8
SUNPOU
  6
CONTINUOUS
 62
     4
 10
18816.545211999979
 20
6367.0884779999951
 30
0.0
 11
18016.54653099996
 21
6367.0884779999969
 31
0.0
  0
LINE
  5
3D4D
  8
SUNPOU
  6
CONTINUOUS
 62
     4
 10
18816.545211999979
 20
8258.588477999996
 30
0.0
 11
18016.546530999982
 21
8258.588477999996
 31
0.0
  0
LINE
  5
3D4E
  8
SUNPOU
  6
CONTINUOUS
 62
     4
 10
18096.54653099996
 20
6367.0884779999969
 30
0.0
 11
18096.546530999982
 21
8258.588477999996
 31
0.0
  0
LINE
  5
3D4F
  8
SUNPOU
  6
CONTINUOUS
 62
     4
 10
18816.545211999979
 20
6367.0884779999951
 30
0.0
 11
17616.54422199995
 21
6367.0884779999969
 31
0.0
  0
LINE
  5
3D50
  8
SUNPOU
  6
CONTINUOUS
 62
     4
 10
18784.045475999959
 20
8715.5879829999976
 30
0.0
 11
17616.54422199995
 21
8715.5879829999976
 31
0.0
  0
LINE
  5
3D51
  8
SUNPOU
  6
CONTINUOUS
 62
     4
 10
17696.54422199995
 20
6367.0884779999969
 30
0.0
 11
17696.54422199995
 21
8715.5879829999976
 31
0.0
  0
LINE
  5
3D52
  8
SUNPOU
  6
CONTINUOUS
 62
     4
 10
18861.043495999958
 20
8795.5888270000032
 30
0.0
 11
18861.043495999958
 21
9995.0464389999997
 31
0.0
  0
LINE
  5
3D53
  8
SUNPOU
  6
CONTINUOUS
 62
     4
 10
25569.04824599998
 20
8795.5888270000032
 30
0.0
 11
25569.04824599998
 21
9995.0464389999997
 31
0.0
  0
LINE
  5
3D54
  8
SUNPOU
  6
CONTINUOUS
 62
     4
 10
18864.043495999958
 20
9915.0464390000016
 30
0.0
 11
25566.04824599998
 21
9915.0464390000016
 31
0.0
  0
LINE
  5
3D55
  8
SUNPOU
  6
CONTINUOUS
 62
     4
 10
18904.04560699996
 20
8795.5888270000032
 30
0.0
 11
18904.04560699996
 21
9595.0886689999988
 31
0.0
  0
LINE
  5
3D56
  8
SUNPOU
  6
CONTINUOUS
 62
     4
 10
25526.046134999971
 20
8795.5888270000032
 30
0.0
 11
25526.046134999971
 21
9595.0886689999988
 31
0.0
  0
LINE
  5
3D57
  8
SUNPOU
  6
CONTINUOUS
 62
     4
 10
18904.04560699996
 20
9515.0886689999988
 30
0.0
 11
25526.046134999971
 21
9515.0886689999988
 31
0.0
  0
LINE
  5
3D58
  8
SUNPOU
  6
CONTINUOUS
 62
     4
 10
18904.04560699996
 20
8795.5888270000032
 30
0.0
 11
18904.04560699996
 21
9595.0886689999988
 31
0.0
  0
LINE
  5
3D59
  8
SUNPOU
  6
CONTINUOUS
 62
     4
 10
18861.043495999958
 20
8795.5888270000032
 30
0.0
 11
18861.043495999958
 21
9595.0886689999988
 31
0.0
  0
LINE
  5
3D5A
  8
SUNPOU
  6
CONTINUOUS
 62
     4
 10
18904.04560699996
 20
9515.0886689999988
 30
0.0
 11
19144.04560699996
 21
9515.0886689999988
 31
0.0
  0
LINE
  5
3D5B
  8
SUNPOU
  6
CONTINUOUS
 62
     4
 10
18864.043495999958
 20
9515.0886689999988
 30
0.0
 11
18624.04349599998
 21
9515.0886689999988
 31
0.0
  0
LINE
  5
3D5C
  8
SUNPOU
  6
CONTINUOUS
 62
     4
 10
18904.04560699996
 20
9515.0886689999988
 30
0.0
 11
18864.043495999958
 21
9515.0886689999988
 31
0.0
  0
LINE
  5
3D5D
  8
SUNPOU
  6
CONTINUOUS
 62
     4
 10
25526.046134999971
 20
8795.5888270000032
 30
0.0
 11
25526.046134999971
 21
9595.0886689999988
 31
0.0
  0
LINE
  5
3D5E
  8
SUNPOU
  6
CONTINUOUS
 62
     4
 10
25569.04824599998
 20
8795.5888270000032
 30
0.0
 11
25569.04824599998
 21
9595.0886689999988
 31
0.0
  0
LINE
  5
3D5F
  8
SUNPOU
  6
CONTINUOUS
 62
     4
 10
25526.046134999971
 20
9515.0886689999988
 30
0.0
 11
25286.04613499996
 21
9515.0886689999988
 31
0.0
  0
LINE
  5
3D60
  8
SUNPOU
  6
CONTINUOUS
 62
     4
 10
25566.04824599998
 20
9515.0886689999988
 30
0.0
 11
25806.04824599998
 21
9515.0886689999988
 31
0.0
  0
LINE
  5
3D61
  8
SUNPOU
  6
CONTINUOUS
 62
     4
 10
25526.046134999971
 20
9515.0886689999988
 30
0.0
 11
25566.04824599998
 21
9515.0886689999988
 31
0.0
  0
LINE
  5
3D62
  8
SUNPOU
  6
CONTINUOUS
 62
     4
 10
19040.54587099998
 20
6187.088643000001
 30
0.0
 11
19040.54587099998
 21
5387.0886430000019
 31
0.0
  0
LINE
  5
3D63
  8
SUNPOU
  6
CONTINUOUS
 62
     4
 10
22121.04587099998
 20
6187.088643000001
 30
0.0
 11
22121.04587099998
 21
5387.0886430000019
 31
0.0
  0
LINE
  5
3D64
  8
SUNPOU
  6
CONTINUOUS
 62
     4
 10
19040.54587099998
 20
5467.088643000001
 30
0.0
 11
22121.04587099998
 21
5467.088643000001
 31
0.0
  0
LINE
  5
3D65
  8
SUNPOU
  6
CONTINUOUS
 62
     4
 10
22309.04587099998
 20
6187.088643000001
 30
0.0
 11
22309.04587099998
 21
5387.0886430000019
 31
0.0
  0
LINE
  5
3D66
  8
SUNPOU
  6
CONTINUOUS
 62
     4
 10
25389.54587099998
 20
6187.088643000001
 30
0.0
 11
25389.54587099998
 21
5387.0886430000019
 31
0.0
  0
LINE
  5
3D67
  8
SUNPOU
  6
CONTINUOUS
 62
     4
 10
22309.04587099998
 20
5467.088643000001
 30
0.0
 11
25389.54587099998
 21
5467.088643000001
 31
0.0
  0
LINE
  5
3D68
  8
SUNPOU
  6
CONTINUOUS
 62
     4
 10
22215.04587099998
 20
5924.4362199999969
 30
0.0
 11
22215.04587099998
 21
4987.088643000001
 31
0.0
  0
LINE
  5
3D69
  8
SUNPOU
  6
CONTINUOUS
 62
     4
 10
25483.54587099998
 20
5924.4362199999969
 30
0.0
 11
25483.54587099998
 21
4987.088643000001
 31
0.0
  0
LINE
  5
3D6A
  8
SUNPOU
  6
CONTINUOUS
 62
     4
 10
22215.04587099998
 20
5067.088643000001
 30
0.0
 11
25483.54587099998
 21
5067.088643000001
 31
0.0
  0
LINE
  5
3D6B
  8
SUNPOU
  6
CONTINUOUS
 62
     4
 10
18946.54587099998
 20
5924.4362199999969
 30
0.0
 11
18946.54587099998
 21
4987.088643000001
 31
0.0
  0
LINE
  5
3D6C
  8
SUNPOU
  6
CONTINUOUS
 62
     4
 10
22215.04587099998
 20
5924.4362199999969
 30
0.0
 11
22215.04587099998
 21
4987.088643000001
 31
0.0
  0
LINE
  5
3D6D
  8
SUNPOU
  6
CONTINUOUS
 62
     4
 10
18946.54587099998
 20
5067.088643000001
 30
0.0
 11
22215.04587099998
 21
5067.088643000001
 31
0.0
  0
LINE
  5
3D6E
  8
SUNPOU
  6
CONTINUOUS
 62
     4
 10
25483.549829999982
 20
5924.4362199999969
 30
0.0
 11
25483.549829999982
 21
4987.088643000001
 31
0.0
  0
LINE
  5
3D6F
  8
SUNPOU
  6
CONTINUOUS
 62
     4
 10
25526.049829999982
 20
6187.088643000001
 30
0.0
 11
25526.049829999982
 21
4987.088643000001
 31
0.0
  0
LINE
  5
3D70
  8
SUNPOU
  6
CONTINUOUS
 62
     4
 10
25483.549829999982
 20
5067.088643000001
 30
0.0
 11
25243.549829999982
 21
5067.088643000001
 31
0.0
  0
LINE
  5
3D71
  8
SUNPOU
  6
CONTINUOUS
 62
     4
 10
25526.049829999982
 20
5067.088643000001
 30
0.0
 11
25766.049829999982
 21
5067.088643000001
 31
0.0
  0
LINE
  5
3D72
  8
SUNPOU
  6
CONTINUOUS
 62
     4
 10
25483.549829999982
 20
5067.088643000001
 30
0.0
 11
25526.049829999982
 21
5067.088643000001
 31
0.0
  0
LINE
  5
3D73
  8
SUNPOU
  6
CONTINUOUS
 62
     4
 10
18946.54587099998
 20
5924.4362199999969
 30
0.0
 11
18946.54587099998
 21
4987.088643000001
 31
0.0
  0
LINE
  5
3D74
  8
SUNPOU
  6
CONTINUOUS
 62
     4
 10
18904.04587099998
 20
6187.088643000001
 30
0.0
 11
18904.04587099998
 21
4987.088643000001
 31
0.0
  0
LINE
  5
3D75
  8
SUNPOU
  6
CONTINUOUS
 62
     4
 10
18946.54587099998
 20
5067.088643000001
 30
0.0
 11
19186.54587099998
 21
5067.088643000001
 31
0.0
  0
LINE
  5
3D76
  8
SUNPOU
  6
CONTINUOUS
 62
     4
 10
18904.04587099998
 20
5067.088643000001
 30
0.0
 11
18664.04587099998
 21
5067.088643000001
 31
0.0
  0
LINE
  5
3D77
  8
SUNPOU
  6
CONTINUOUS
 62
     4
 10
18946.54587099998
 20
5067.088643000001
 30
0.0
 11
18904.04587099998
 21
5067.088643000001
 31
0.0
  0
LINE
  5
3D78
  8
SUNPOU
  6
CONTINUOUS
 62
     4
 10
18904.04587099998
 20
6187.088643000001
 30
0.0
 11
18904.04587099998
 21
4587.0888079999977
 31
0.0
  0
LINE
  5
3D79
  8
SUNPOU
  6
CONTINUOUS
 62
     4
 10
25526.04587099998
 20
6187.088643000001
 30
0.0
 11
25526.04587099998
 21
4587.0888079999977
 31
0.0
  0
LINE
  5
3D7A
  8
SUNPOU
  6
CONTINUOUS
 62
     4
 10
18904.04587099998
 20
4667.0888079999986
 30
0.0
 11
25526.04587099998
 21
4667.0888079999986
 31
0.0
  0
LINE
  5
3D7B
  8
SUNPOU
  6
CONTINUOUS
 62
     4
 10
14264.290408999999
 20
6367.0884780000006
 30
0.0
 11
15341.788825
 21
6367.0884780000006
 31
0.0
  0
LINE
  5
3D7C
  8
SUNPOU
  6
CONTINUOUS
 62
     4
 10
14356.59568859938
 20
8716.0884780000033
 30
0.0
 11
15341.788825
 21
8716.0884780000033
 31
0.0
  0
LINE
  5
3D7D
  8
SUNPOU
  6
CONTINUOUS
 62
     4
 10
15261.788825
 20
6367.0884780000006
 30
0.0
 11
15261.788825
 21
8716.0884780000033
 31
0.0
  0
LINE
  5
3D7E
  8
SUNPOU
  6
CONTINUOUS
 62
     4
 10
8864.2904090000047
 20
6367.0884780000006
 30
0.0
 11
7781.7900129999998
 21
6367.0884780000006
 31
0.0
  0
LINE
  5
3D7F
  8
SUNPOU
  6
CONTINUOUS
 62
     4
 10
8691.7904089999975
 20
8522.5884780000015
 30
0.0
 11
7781.7900129999998
 21
8522.5884780000015
 31
0.0
  0
LINE
  5
3D80
  8
SUNPOU
  6
CONTINUOUS
 62
     4
 10
7861.7900130000007
 20
6367.0884780000006
 30
0.0
 11
7861.7900130000007
 21
8522.5884780000015
 31
0.0
  0
LINE
  5
3D81
  8
SUNPOU
  6
CONTINUOUS
 62
     4
 10
14171.79040899999
 20
8661.9985410000008
 30
0.0
 11
14171.79040899999
 21
9595.0901529999992
 31
0.0
  0
LINE
  5
3D82
  8
SUNPOU
  6
CONTINUOUS
 62
     4
 10
14321.79040899999
 20
8735.9783004124274
 30
0.0
 11
14321.79040899999
 21
9595.0901529999992
 31
0.0
  0
LINE
  5
3D83
  8
SUNPOU
  6
CONTINUOUS
 62
     4
 10
14171.79040899999
 20
9515.0901529999974
 30
0.0
 11
13931.79040899999
 21
9515.0901529999974
 31
0.0
  0
LINE
  5
3D84
  8
SUNPOU
  6
CONTINUOUS
 62
     4
 10
14321.79040899999
 20
9515.0901529999974
 30
0.0
 11
14561.79040899999
 21
9515.0901529999974
 31
0.0
  0
LINE
  5
3D85
  8
SUNPOU
  6
CONTINUOUS
 62
     4
 10
14171.79040899999
 20
9515.0901529999974
 30
0.0
 11
14321.79040899999
 21
9515.0901529999974
 31
0.0
  0
LINE
  5
3D86
  8
SUNPOU
  6
CONTINUOUS
 62
     4
 10
8771.7904090000011
 20
8604.088477000003
 30
0.0
 11
8771.7904090000011
 21
9995.088502999999
 31
0.0
  0
LINE
  5
3D87
  8
SUNPOU
  6
CONTINUOUS
 62
     4
 10
14321.79040899999
 20
8735.9783004124274
 30
0.0
 11
14321.79040899999
 21
9995.088502999999
 31
0.0
  0
LINE
  5
3D88
  8
SUNPOU
  6
CONTINUOUS
 62
     4
 10
8771.7904090000011
 20
9915.088502999999
 30
0.0
 11
14321.79040899999
 21
9915.088502999999
 31
0.0
  0
LINE
  5
3D89
  8
SUNPOU
  6
CONTINUOUS
 62
     4
 10
8951.7904090000011
 20
8474.2742526838028
 30
0.0
 11
8951.7904090000011
 21
9595.0901529999992
 31
0.0
  0
LINE
  5
3D8A
  8
SUNPOU
  6
CONTINUOUS
 62
     4
 10
14171.79040899999
 20
8661.9985410000008
 30
0.0
 11
14171.79040899999
 21
9595.0901529999992
 31
0.0
  0
LINE
  5
3D8B
  8
SUNPOU
  6
CONTINUOUS
 62
     4
 10
8951.7904090000011
 20
9515.0901529999974
 30
0.0
 11
14171.79040899999
 21
9515.0901529999974
 31
0.0
  0
LINE
  5
3D8C
  8
SUNPOU
  6
CONTINUOUS
 62
     4
 10
8771.7904090000011
 20
8604.088477000003
 30
0.0
 11
8771.7904090000011
 21
9595.0901529999992
 31
0.0
  0
LINE
  5
3D8D
  8
SUNPOU
  6
CONTINUOUS
 62
     4
 10
8951.7904090000011
 20
8474.2742526838028
 30
0.0
 11
8951.7904090000011
 21
9595.0901529999992
 31
0.0
  0
LINE
  5
3D8E
  8
SUNPOU
  6
CONTINUOUS
 62
     4
 10
8771.7904090000011
 20
9515.0901529999974
 30
0.0
 11
8531.7904089999975
 21
9515.0901529999974
 31
0.0
  0
LINE
  5
3D8F
  8
SUNPOU
  6
CONTINUOUS
 62
     4
 10
8951.7904090000011
 20
9515.0901529999974
 30
0.0
 11
9191.7904089999993
 21
9515.0901529999974
 31
0.0
  0
LINE
  5
3D90
  8
SUNPOU
  6
CONTINUOUS
 62
     4
 10
8771.7904090000011
 20
9515.0901529999974
 30
0.0
 11
8951.7904090000011
 21
9515.0901529999974
 31
0.0
  0
LINE
  5
3D91
  8
SUNPOU
  6
CONTINUOUS
 62
     4
 10
14129.28842999999
 20
5924.4362189999974
 30
0.0
 11
14129.28842999999
 21
4987.0886419999961
 31
0.0
  0
LINE
  5
3D92
  8
SUNPOU
  6
CONTINUOUS
 62
     4
 10
14171.788430000001
 20
6287.0884770000011
 30
0.0
 11
14171.788430000001
 21
4987.0886419999961
 31
0.0
  0
LINE
  5
3D93
  8
SUNPOU
  6
CONTINUOUS
 62
     4
 10
14129.28842999999
 20
5067.0886419999961
 30
0.0
 11
13889.28842999999
 21
5067.0886419999961
 31
0.0
  0
LINE
  5
3D94
  8
SUNPOU
  6
CONTINUOUS
 62
     4
 10
14171.788430000001
 20
5067.0886419999961
 30
0.0
 11
14411.788429999981
 21
5067.0886419999961
 31
0.0
  0
LINE
  5
3D95
  8
SUNPOU
  6
CONTINUOUS
 62
     4
 10
14129.28842999999
 20
5067.0886419999961
 30
0.0
 11
14171.788430000001
 21
5067.0886419999961
 31
0.0
  0
LINE
  5
3D96
  8
SUNPOU
  6
CONTINUOUS
 62
     4
 10
11561.79040899999
 20
5924.43523
 30
0.0
 11
11561.79040899999
 21
4987.088643000001
 31
0.0
  0
LINE
  5
3D97
  8
SUNPOU
  6
CONTINUOUS
 62
     4
 10
14129.29040899999
 20
5924.43523
 30
0.0
 11
14129.29040899999
 21
4987.088643000001
 31
0.0
  0
LINE
  5
3D98
  8
SUNPOU
  6
CONTINUOUS
 62
     4
 10
11561.79040899999
 20
5067.088643000001
 30
0.0
 11
14129.29040899999
 21
5067.088643000001
 31
0.0
  0
LINE
  5
3D99
  8
SUNPOU
  6
CONTINUOUS
 62
     4
 10
8951.7904090000011
 20
6287.0884770000011
 30
0.0
 11
8951.7904090000011
 21
4587.0888069999992
 31
0.0
  0
LINE
  5
3D9A
  8
SUNPOU
  6
CONTINUOUS
 62
     4
 10
14171.788430000001
 20
6287.0884770000011
 30
0.0
 11
14171.788430000001
 21
4587.0888069999992
 31
0.0
  0
LINE
  5
3D9B
  8
SUNPOU
  6
CONTINUOUS
 62
     4
 10
8951.7904090000011
 20
4667.0888069999983
 30
0.0
 11
14171.788430000001
 21
4667.0888069999983
 31
0.0
  0
LINE
  5
3D9C
  8
SUNPOU
  6
CONTINUOUS
 62
     4
 10
8994.2904090000029
 20
5924.4362189999974
 30
0.0
 11
8994.2904090000029
 21
4987.0886419999961
 31
0.0
  0
LINE
  5
3D9D
  8
SUNPOU
  6
CONTINUOUS
 62
     4
 10
8951.7904090000011
 20
6287.0884770000011
 30
0.0
 11
8951.7904090000011
 21
4987.0886419999961
 31
0.0
  0
LINE
  5
3D9E
  8
SUNPOU
  6
CONTINUOUS
 62
     4
 10
8994.2904090000029
 20
5067.0886419999961
 30
0.0
 11
9234.2904089999993
 21
5067.0886419999961
 31
0.0
  0
LINE
  5
3D9F
  8
SUNPOU
  6
CONTINUOUS
 62
     4
 10
8951.7904090000011
 20
5067.0886419999961
 30
0.0
 11
8711.7904089999975
 21
5067.0886419999961
 31
0.0
  0
LINE
  5
3DA0
  8
SUNPOU
  6
CONTINUOUS
 62
     4
 10
8994.2904090000029
 20
5067.0886419999961
 30
0.0
 11
8951.7904090000011
 21
5067.0886419999961
 31
0.0
  0
LINE
  5
3DA1
  8
SUNPOU
  6
CONTINUOUS
 62
     4
 10
11561.79040899999
 20
5924.4362189999974
 30
0.0
 11
11561.79040899999
 21
4987.0886419999961
 31
0.0
  0
LINE
  5
3DA2
  8
SUNPOU
  6
CONTINUOUS
 62
     4
 10
8994.2904090000029
 20
5924.4362189999974
 30
0.0
 11
8994.2904090000029
 21
4987.0886419999961
 31
0.0
  0
LINE
  5
3DA3
  8
SUNPOU
  6
CONTINUOUS
 62
     4
 10
11561.79040899999
 20
5067.0886419999961
 30
0.0
 11
8994.2904090000029
 21
5067.0886419999961
 31
0.0
  0
TEXT
  5
3DA4
  8
0
  6
CONTINUOUS
 62
     7
 10
9878.0404090000047
 20
5147.0886419999961
 30
0.0
 40
160.0
  1
2567.5
  0
TEXT
  5
3DA5
  8
0
  6
CONTINUOUS
 62
     7
 10
8354.6166999036941
 20
5147.0886419999961
 30
0.0
 40
160.0
  1
42.5
  0
TEXT
  5
3DA6
  8
0
  6
CONTINUOUS
 62
     7
 10
11281.78941949999
 20
4747.0888069999992
 30
0.0
 40
160.0
  1
5220
  0
TEXT
  5
3DA7
  8
0
  6
CONTINUOUS
 62
     7
 10
12445.54040899999
 20
5147.088643
 30
0.0
 40
160.0
  1
2567.5
  0
TEXT
  5
3DA8
  8
0
  6
CONTINUOUS
 62
     7
 10
14288.962139096289
 20
5147.0886419999961
 30
0.0
 40
160.0
  1
42.5
  0
TEXT
  5
3DA9
  8
0
  6
CONTINUOUS
 62
     7
 10
8358.4570756666672
 20
9595.0901529999992
 30
0.0
 40
160.0
  1
180
  0
TEXT
  5
3DAA
  8
0
  6
CONTINUOUS
 62
     7
 10
11281.79040899999
 20
9595.0901529999992
 30
0.0
 40
160.0
  1
5220
  0
TEXT
  5
3DAB
  8
0
  6
CONTINUOUS
 62
     7
 10
11266.790408999999
 20
9995.088502999999
 30
0.0
 40
160.0
  1
5550
  0
TEXT
  5
3DAC
  8
0
  6
CONTINUOUS
 62
     7
 10
14388.457075666671
 20
9595.0901529999992
 30
0.0
 40
160.0
  1
150
  0
TEXT
  5
3DAD
  8
0
  6
CONTINUOUS
 62
     7
 10
7781.7900129999998
 20
6452.8384780000006
 30
0.0
 40
160.0
  1
2155.5（2395.5）
 50
90.0
  0
TEXT
  5
3DAE
  8
0
  6
CONTINUOUS
 62
     7
 10
15181.788824999991
 20
6736.2551446666657
 30
0.0
 40
160.0
  1
2349（2589）
 50
90.0
  0
TEXT
  5
3DAF
  8
0
  6
CONTINUOUS
 62
     7
 10
21921.712537666652
 20
4747.0888079999986
 30
0.0
 40
160.0
  1
6622
  0
TEXT
  5
3DB0
  8
0
  6
CONTINUOUS
 62
     7
 10
18338.006880741141
 20
5147.088643
 30
0.0
 40
160.0
  1
42.5
  0
TEXT
  5
3DB1
  8
0
  6
CONTINUOUS
 62
     7
 10
25612.088820258828
 20
5147.088643
 30
0.0
 40
160.0
  1
42.5
  0
TEXT
  5
3DB2
  8
0
  6
CONTINUOUS
 62
     7
 10
20180.795870999991
 20
5147.088643
 30
0.0
 40
160.0
  1
3268.5
  0
TEXT
  5
3DB3
  8
0
  6
CONTINUOUS
 62
     7
 10
23449.295870999969
 20
5147.088643
 30
0.0
 40
160.0
  1
3268.5
  0
TEXT
  5
3DB4
  8
0
  6
CONTINUOUS
 62
     7
 10
22947.962537666652
 20
5547.088643000001
 30
0.0
 40
160.0
  1
有効開口巾 3080.5
  0
TEXT
  5
3DB5
  8
0
  6
CONTINUOUS
 62
     7
 10
19679.462537666641
 20
5547.088643000001
 30
0.0
 40
160.0
  1
有効開口巾 3080.5
  0
TEXT
  5
3DB6
  8
0
  6
CONTINUOUS
 62
     7
 10
25686.04824599998
 20
9595.0886689999988
 30
0.0
 40
160.0
  1
43
  0
TEXT
  5
3DB7
  8
0
  6
CONTINUOUS
 62
     7
 10
18504.043495999969
 20
9595.0886689999988
 30
0.0
 40
160.0
  1
43
  0
TEXT
  5
3DB8
  8
0
  6
CONTINUOUS
 62
     7
 10
21921.712537666652
 20
9595.0886689999988
 30
0.0
 40
160.0
  1
6622
  0
TEXT
  5
3DB9
  8
0
  6
CONTINUOUS
 62
     7
 10
21935.04587099998
 20
9995.0464389999997
 30
0.0
 40
160.0
  1
6708
  0
TEXT
  5
3DBA
  8
0
  6
CONTINUOUS
 62
     7
 10
17616.54422199995
 20
6522.6715638333326
 30
0.0
 40
160.0
  1
2348.5（2588.5）
 50
90.0
  0
TEXT
  5
3DBB
  8
0
  6
CONTINUOUS
 62
     7
 10
18016.546530999982
 20
6431.0677162912707
 30
0.0
 40
160.0
  1
有効開口高サ 1891.5
 50
90.0
  0
TEXT
  5
3DBC
  8
0
  6
CONTINUOUS
 62
     7
 10
19531.212537666641
 20
20175.540976000011
 30
0.0
 40
160.0
  1
701
  0
TEXT
  5
3DBD
  8
0
  6
CONTINUOUS
 62
     7
 10
20232.212537666641
 20
20495.540976000011
 30
0.0
 40
160.0
  1
701
  0
TEXT
  5
3DBE
  8
0
  6
CONTINUOUS
 62
     7
 10
20933.212537666652
 20
20495.540976000011
 30
0.0
 40
160.0
  1
701
  0
TEXT
  5
3DBF
  8
0
  6
CONTINUOUS
 62
     7
 10
21622.713032416661
 20
20495.540976000011
 30
0.0
 40
160.0
  1
758
  0
TEXT
  5
3DC0
  8
0
  6
CONTINUOUS
 62
     7
 10
18343.733891471169
 20
20495.540976000011
 30
0.0
 40
160.0
  1
42.5
  0
TEXT
  5
3DC1
  8
0
  6
CONTINUOUS
 62
     7
 10
19047.379204333309
 20
20495.540976000011
 30
0.0
 40
160.0
  1
407.5
  0
TEXT
  5
3DC2
  8
0
  6
CONTINUOUS
 62
     7
 10
25606.357850528781
 20
20495.540976000011
 30
0.0
 40
160.0
  1
42.5
  0
TEXT
  5
3DC3
  8
0
  6
CONTINUOUS
 62
     7
 10
22799.712537666652
 20
20175.540976000011
 30
0.0
 40
160.0
  1
701
  0
TEXT
  5
3DC4
  8
0
  6
CONTINUOUS
 62
     7
 10
23500.712537666652
 20
20495.540976000011
 30
0.0
 40
160.0
  1
701
  0
TEXT
  5
3DC5
  8
0
  6
CONTINUOUS
 62
     7
 10
24201.712537666652
 20
20495.540976000011
 30
0.0
 40
160.0
  1
701
  0
TEXT
  5
3DC6
  8
0
  6
CONTINUOUS
 62
     7
 10
24891.21303241665
 20
20495.540976000011
 30
0.0
 40
160.0
  1
758
  0
TEXT
  5
3DC7
  8
0
  6
CONTINUOUS
 62
     7
 10
22315.879204333291
 20
20495.540976000011
 30
0.0
 40
160.0
  1
407.5
  0
TEXT
  5
3DC8
  8
0
  6
CONTINUOUS
 62
     7
 10
26896.045474999992
 20
13891.98625660321
 30
0.0
 40
160.0
  1
42.5
 50
90.0
  0
TEXT
  5
3DC9
  8
0
  6
CONTINUOUS
 62
     7
 10
26896.045474999992
 20
19779.09331939679
 30
0.0
 40
160.0
  1
42.5
 50
90.0
  0
TEXT
  5
3DCA
  8
0
  6
CONTINUOUS
 62
     7
 10
27296.04547499997
 20
16795.539787999998
 30
0.0
 40
160.0
  1
5220
 50
90.0
  0
TEXT
  5
3DCB
  8
0
  6
CONTINUOUS
 62
     7
 10
26896.04547499997
 20
15391.789788
 30
0.0
 40
160.0
  1
2567.5
 50
90.0
  0
TEXT
  5
3DCC
  8
0
  6
CONTINUOUS
 62
     7
 10
26896.04547499997
 20
17959.289787999998
 30
0.0
 40
160.0
  1
2567.5
 50
90.0
  0
TEXT
  5
3DCD
  8
0
  6
CONTINUOUS
 62
     7
 10
26496.045474999959
 20
18711.706454666681
 30
0.0
 40
160.0
  1
701
 50
90.0
  0
TEXT
  5
3DCE
  8
0
  6
CONTINUOUS
 62
     7
 10
26496.045474999959
 20
18010.706454666681
 30
0.0
 40
160.0
  1
701
 50
90.0
  0
TEXT
  5
3DCF
  8
0
  6
CONTINUOUS
 62
     7
 10
26496.045474999959
 20
17241.20645466667
 30
0.0
 40
160.0
  1
758
 50
90.0
  0
TEXT
  5
3DD0
  8
0
  6
CONTINUOUS
 62
     7
 10
26496.045474999959
 20
16483.206454666659
 30
0.0
 40
160.0
  1
758
 50
90.0
  0
TEXT
  5
3DD1
  8
0
  6
CONTINUOUS
 62
     7
 10
26496.045474999959
 20
15793.826710416681
 30
0.0
 40
160.0
  1
701
 50
90.0
  0
TEXT
  5
3DD2
  8
0
  6
CONTINUOUS
 62
     7
 10
26496.045474999959
 20
15092.826710416681
 30
0.0
 40
160.0
  1
701
 50
90.0
  0
TEXT
  5
3DD3
  8
0
  6
CONTINUOUS
 62
     7
 10
21921.712537666652
 20
13216.591704
 30
0.0
 40
160.0
  1
6622
  0
TEXT
  5
3DD4
  8
0
  6
CONTINUOUS
 62
     7
 10
19064.599543382061
 20
13616.59170399998
 30
0.0
 40
160.0
  1
42.5
  0
TEXT
  5
3DD5
  8
0
  6
CONTINUOUS
 62
     7
 10
24885.492198617882
 20
13616.59170399998
 30
0.0
 40
160.0
  1
42.5
  0
TEXT
  5
3DD6
  8
0
  6
CONTINUOUS
 62
     7
 10
25601.599543382079
 20
13616.59170399998
 30
0.0
 40
160.0
  1
42.5
  0
TEXT
  5
3DD7
  8
0
  6
CONTINUOUS
 62
     7
 10
18348.492198617889
 20
13616.59170399998
 30
0.0
 40
160.0
  1
42.5
  0
TEXT
  5
3DD8
  8
0
  6
CONTINUOUS
 62
     7
 10
26856.045474999992
 20
18944.917755643201
 30
0.0
 40
160.0
  1
407.5
 50
90.0
  0
TEXT
  5
3DD9
  8
0
  6
CONTINUOUS
 62
     7
 10
26856.045474999992
 20
14580.98045795355
 30
0.0
 40
160.0
  1
407.5
 50
90.0
  0
TEXT
  5
3DDA
  8
0
  6
CONTINUOUS
 62
     7
 10
12443.339101999971
 20
20495.540976000011
 30
0.0
 40
160.0
  1
3268.5
  0
TEXT
  5
3DDB
  8
0
  6
CONTINUOUS
 62
     7
 10
14614.085808023239
 20
20495.540976000011
 30
0.0
 40
160.0
  1
85.5
  0
TEXT
  5
3DDC
  8
0
  6
CONTINUOUS
 62
     7
 10
9174.8391019999726
 20
20495.540976000011
 30
0.0
 40
160.0
  1
3268.5
  0
TEXT
  5
3DDD
  8
0
  6
CONTINUOUS
 62
     7
 10
7324.0923959767051
 20
20495.540976000011
 30
0.0
 40
160.0
  1
85.5
  0
TEXT
  5
3DDE
  8
0
  6
CONTINUOUS
 62
     7
 10
6931.089650999972
 20
13700.086777702631
 30
0.0
 40
160.0
  1
192.5
 50
90.0
  0
TEXT
  5
3DDF
  8
0
  6
CONTINUOUS
 62
     7
 10
6931.0896509999757
 20
15391.789788
 30
0.0
 40
160.0
  1
2567.5
 50
90.0
  0
TEXT
  5
3DE0
  8
0
  6
CONTINUOUS
 62
     7
 10
6931.0896509999757
 20
17959.289787999991
 30
0.0
 40
160.0
  1
2567.5
 50
90.0
  0
TEXT
  5
3DE1
  8
0
  6
CONTINUOUS
 62
     7
 10
6931.089650999972
 20
19954.494972807679
 30
0.0
 40
160.0
  1
222.5
 50
90.0
  0
TEXT
  5
3DE2
  8
0
  6
CONTINUOUS
 62
     7
 10
7331.0896509999766
 20
20012.202363666682
 30
0.0
 40
160.0
  1
10
 50
90.0
  0
TEXT
  5
3DE3
  8
0
  6
CONTINUOUS
 62
     7
 10
10406.42194083329
 20
13195.538534999991
 30
0.0
 40
160.0
  1
ケラバ外寸 6708
  0
ARC
  5
3DE4
  8
0
  6
BYBLOCK
 62
     0
 10
7855.0887059999759
 20
13115.538534999991
 30
0.0
 40
15.0
 50
0.0
 51
180.0
  0
ARC
  5
3DE5
  8
0
  6
BYBLOCK
 62
     0
 10
7855.0887059999759
 20
13115.538534999991
 30
0.0
 40
15.0
 50
180.0
 51
0.0
  0
ARC
  5
3DE6
  8
0
  6
BYBLOCK
 62
     0
 10
14563.088508999959
 20
13115.538534999991
 30
0.0
 40
15.0
 50
180.0
 51
0.0
  0
ARC
  5
3DE7
  8
0
  6
BYBLOCK
 62
     0
 10
14563.088508999959
 20
13115.538534999991
 30
0.0
 40
15.0
 50
0.0
 51
180.0
  0
ARC
  5
3DE8
  8
0
  6
BYBLOCK
 62
     0
 10
7411.089650999982
 20
19855.535697000021
 30
0.0
 40
15.0
 50
270.0
 51
90.0
  0
ARC
  5
3DE9
  8
0
  6
BYBLOCK
 62
     0
 10
7411.089650999982
 20
19855.535697000021
 30
0.0
 40
15.0
 50
90.0
 51
270.0
  0
ARC
  5
3DEA
  8
0
  6
BYBLOCK
 62
     0
 10
7411.089650999982
 20
19865.53569700001
 30
0.0
 40
15.0
 50
90.0
 51
270.0
  0
ARC
  5
3DEB
  8
0
  6
BYBLOCK
 62
     0
 10
7411.089650999982
 20
19865.53569700001
 30
0.0
 40
15.0
 50
270.0
 51
90.0
  0
ARC
  5
3DEC
  8
0
  6
BYBLOCK
 62
     0
 10
7011.0896509999811
 20
19643.039787999991
 30
0.0
 40
15.0
 50
270.0
 51
90.0
  0
ARC
  5
3DED
  8
0
  6
BYBLOCK
 62
     0
 10
7011.0896509999811
 20
19643.039787999991
 30
0.0
 40
15.0
 50
90.0
 51
270.0
  0
ARC
  5
3DEE
  8
0
  6
BYBLOCK
 62
     0
 10
7011.0896509999811
 20
19865.53569700001
 30
0.0
 40
15.0
 50
90.0
 51
270.0
  0
ARC
  5
3DEF
  8
0
  6
BYBLOCK
 62
     0
 10
7011.0896509999811
 20
19865.53569700001
 30
0.0
 40
15.0
 50
270.0
 51
90.0
  0
ARC
  5
3DF0
  8
0
  6
BYBLOCK
 62
     0
 10
7011.0896509999757
 20
17075.53978799998
 30
0.0
 40
15.0
 50
90.0
 51
270.0
  0
ARC
  5
3DF1
  8
0
  6
BYBLOCK
 62
     0
 10
7011.0896509999757
 20
17075.53978799998
 30
0.0
 40
15.0
 50
270.0
 51
90.0
  0
ARC
  5
3DF2
  8
0
  6
BYBLOCK
 62
     0
 10
7011.0896509999811
 20
19643.039787999991
 30
0.0
 40
15.0
 50
270.0
 51
90.0
  0
ARC
  5
3DF3
  8
0
  6
BYBLOCK
 62
     0
 10
7011.0896509999811
 20
19643.039787999991
 30
0.0
 40
15.0
 50
90.0
 51
270.0
  0
ARC
  5
3DF4
  8
0
  6
BYBLOCK
 62
     0
 10
7011.0896509999811
 20
14508.039787999989
 30
0.0
 40
15.0
 50
90.0
 51
270.0
  0
ARC
  5
3DF5
  8
0
  6
BYBLOCK
 62
     0
 10
7011.0896509999811
 20
14508.039787999989
 30
0.0
 40
15.0
 50
270.0
 51
90.0
  0
ARC
  5
3DF6
  8
0
  6
BYBLOCK
 62
     0
 10
7011.0896509999811
 20
17075.53978799998
 30
0.0
 40
15.0
 50
270.0
 51
90.0
  0
ARC
  5
3DF7
  8
0
  6
BYBLOCK
 62
     0
 10
7011.0896509999811
 20
17075.53978799998
 30
0.0
 40
15.0
 50
90.0
 51
270.0
  0
ARC
  5
3DF8
  8
0
  6
BYBLOCK
 62
     0
 10
7011.0896509999811
 20
14508.039787999989
 30
0.0
 40
15.0
 50
90.0
 51
270.0
  0
ARC
  5
3DF9
  8
0
  6
BYBLOCK
 62
     0
 10
7011.0896509999811
 20
14508.039787999989
 30
0.0
 40
15.0
 50
270.0
 51
90.0
  0
ARC
  5
3DFA
  8
0
  6
BYBLOCK
 62
     0
 10
7011.0896509999811
 20
14315.544472999991
 30
0.0
 40
15.0
 50
270.0
 51
90.0
  0
ARC
  5
3DFB
  8
0
  6
BYBLOCK
 62
     0
 10
7011.0896509999811
 20
14315.544472999991
 30
0.0
 40
15.0
 50
90.0
 51
270.0
  0
ARC
  5
3DFC
  8
0
  6
BYBLOCK
 62
     0
 10
7940.5891019999726
 20
20415.540976000011
 30
0.0
 40
15.0
 50
0.0
 51
180.0
  0
ARC
  5
3DFD
  8
0
  6
BYBLOCK
 62
     0
 10
7940.5891019999726
 20
20415.540976000011
 30
0.0
 40
15.0
 50
180.0
 51
0.0
  0
ARC
  5
3DFE
  8
0
  6
BYBLOCK
 62
     0
 10
7855.0891019999717
 20
20415.540976000011
 30
0.0
 40
15.0
 50
180.0
 51
0.0
  0
ARC
  5
3DFF
  8
0
  6
BYBLOCK
 62
     0
 10
7855.0891019999717
 20
20415.540976000011
 30
0.0
 40
15.0
 50
0.0
 51
180.0
  0
ARC
  5
3E00
  8
0
  6
BYBLOCK
 62
     0
 10
11209.089101999971
 20
20415.540976000011
 30
0.0
 40
15.0
 50
180.0
 51
0.0
  0
ARC
  5
3E01
  8
0
  6
BYBLOCK
 62
     0
 10
11209.089101999971
 20
20415.540976000011
 30
0.0
 40
15.0
 50
0.0
 51
180.0
  0
ARC
  5
3E02
  8
0
  6
BYBLOCK
 62
     0
 10
7940.5891019999726
 20
20415.540976000011
 30
0.0
 40
15.0
 50
0.0
 51
180.0
  0
ARC
  5
3E03
  8
0
  6
BYBLOCK
 62
     0
 10
7940.5891019999726
 20
20415.540976000011
 30
0.0
 40
15.0
 50
180.0
 51
0.0
  0
ARC
  5
3E04
  8
0
  6
BYBLOCK
 62
     0
 10
14477.589101999971
 20
20415.540976000011
 30
0.0
 40
15.0
 50
180.0
 51
0.0
  0
ARC
  5
3E05
  8
0
  6
BYBLOCK
 62
     0
 10
14477.589101999971
 20
20415.540976000011
 30
0.0
 40
15.0
 50
0.0
 51
180.0
  0
ARC
  5
3E06
  8
0
  6
BYBLOCK
 62
     0
 10
14563.089101999971
 20
20415.540976000011
 30
0.0
 40
15.0
 50
0.0
 51
180.0
  0
ARC
  5
3E07
  8
0
  6
BYBLOCK
 62
     0
 10
14563.089101999971
 20
20415.540976000011
 30
0.0
 40
15.0
 50
180.0
 51
0.0
  0
ARC
  5
3E08
  8
0
  6
BYBLOCK
 62
     0
 10
11209.089101999971
 20
20415.540976000011
 30
0.0
 40
15.0
 50
0.0
 51
180.0
  0
ARC
  5
3E09
  8
0
  6
BYBLOCK
 62
     0
 10
11209.089101999971
 20
20415.540976000011
 30
0.0
 40
15.0
 50
180.0
 51
0.0
  0
ARC
  5
3E0A
  8
0
  6
BYBLOCK
 62
     0
 10
14477.589101999971
 20
20415.540976000011
 30
0.0
 40
15.0
 50
180.0
 51
0.0
  0
ARC
  5
3E0B
  8
0
  6
BYBLOCK
 62
     0
 10
14477.589101999971
 20
20415.540976000011
 30
0.0
 40
15.0
 50
0.0
 51
180.0
  0
ARC
  5
3E0C
  8
0
  6
BYBLOCK
 62
     0
 10
26576.045474999992
 20
14915.66004375
 30
0.0
 40
15.0
 50
270.0
 51
90.0
  0
ARC
  5
3E0D
  8
0
  6
BYBLOCK
 62
     0
 10
26576.045474999992
 20
14915.66004375
 30
0.0
 40
15.0
 50
90.0
 51
270.0
  0
ARC
  5
3E0E
  8
0
  6
BYBLOCK
 62
     0
 10
26576.045474999992
 20
14508.16004375
 30
0.0
 40
15.0
 50
90.0
 51
270.0
  0
ARC
  5
3E0F
  8
0
  6
BYBLOCK
 62
     0
 10
26576.045474999992
 20
14508.16004375
 30
0.0
 40
15.0
 50
270.0
 51
90.0
  0
ARC
  5
3E10
  8
0
  6
BYBLOCK
 62
     0
 10
26576.045474999992
 20
19235.539787999998
 30
0.0
 40
15.0
 50
90.0
 51
270.0
  0
ARC
  5
3E11
  8
0
  6
BYBLOCK
 62
     0
 10
26576.045474999992
 20
19235.539787999998
 30
0.0
 40
15.0
 50
270.0
 51
90.0
  0
ARC
  5
3E12
  8
0
  6
BYBLOCK
 62
     0
 10
26576.045474999992
 20
19643.039787999991
 30
0.0
 40
15.0
 50
270.0
 51
90.0
  0
ARC
  5
3E13
  8
0
  6
BYBLOCK
 62
     0
 10
26576.045474999992
 20
19643.039787999991
 30
0.0
 40
15.0
 50
90.0
 51
270.0
  0
ARC
  5
3E14
  8
0
  6
BYBLOCK
 62
     0
 10
18946.54587099998
 20
13536.59170399998
 30
0.0
 40
15.0
 50
0.0
 51
180.0
  0
ARC
  5
3E15
  8
0
  6
BYBLOCK
 62
     0
 10
18946.54587099998
 20
13536.59170399998
 30
0.0
 40
15.0
 50
180.0
 51
0.0
  0
ARC
  5
3E16
  8
0
  6
BYBLOCK
 62
     0
 10
18904.043627999981
 20
13536.59170399998
 30
0.0
 40
15.0
 50
180.0
 51
0.0
  0
ARC
  5
3E17
  8
0
  6
BYBLOCK
 62
     0
 10
18904.043627999981
 20
13536.59170399998
 30
0.0
 40
15.0
 50
0.0
 51
180.0
  0
ARC
  5
3E18
  8
0
  6
BYBLOCK
 62
     0
 10
25483.54587099998
 20
13536.59170399998
 30
0.0
 40
15.0
 50
180.0
 51
0.0
  0
ARC
  5
3E19
  8
0
  6
BYBLOCK
 62
     0
 10
25483.54587099998
 20
13536.59170399998
 30
0.0
 40
15.0
 50
0.0
 51
180.0
  0
ARC
  5
3E1A
  8
0
  6
BYBLOCK
 62
     0
 10
25526.048113999968
 20
13536.59170399998
 30
0.0
 40
15.0
 50
0.0
 51
180.0
  0
ARC
  5
3E1B
  8
0
  6
BYBLOCK
 62
     0
 10
25526.048113999968
 20
13536.59170399998
 30
0.0
 40
15.0
 50
180.0
 51
0.0
  0
ARC
  5
3E1C
  8
0
  6
BYBLOCK
 62
     0
 10
25483.54587099998
 20
13536.59170399998
 30
0.0
 40
15.0
 50
0.0
 51
180.0
  0
ARC
  5
3E1D
  8
0
  6
BYBLOCK
 62
     0
 10
25483.54587099998
 20
13536.59170399998
 30
0.0
 40
15.0
 50
180.0
 51
0.0
  0
ARC
  5
3E1E
  8
0
  6
BYBLOCK
 62
     0
 10
25441.043627999981
 20
13536.59170399998
 30
0.0
 40
15.0
 50
180.0
 51
0.0
  0
ARC
  5
3E1F
  8
0
  6
BYBLOCK
 62
     0
 10
25441.043627999981
 20
13536.59170399998
 30
0.0
 40
15.0
 50
0.0
 51
180.0
  0
ARC
  5
3E20
  8
0
  6
BYBLOCK
 62
     0
 10
18946.54587099998
 20
13536.59170399998
 30
0.0
 40
15.0
 50
180.0
 51
0.0
  0
ARC
  5
3E21
  8
0
  6
BYBLOCK
 62
     0
 10
18946.54587099998
 20
13536.59170399998
 30
0.0
 40
15.0
 50
0.0
 51
180.0
  0
ARC
  5
3E22
  8
0
  6
BYBLOCK
 62
     0
 10
18989.048113999961
 20
13536.59170399998
 30
0.0
 40
15.0
 50
0.0
 51
180.0
  0
ARC
  5
3E23
  8
0
  6
BYBLOCK
 62
     0
 10
18989.048113999961
 20
13536.59170399998
 30
0.0
 40
15.0
 50
180.0
 51
0.0
  0
ARC
  5
3E24
  8
0
  6
BYBLOCK
 62
     0
 10
18904.043627999981
 20
13136.591704
 30
0.0
 40
15.0
 50
0.0
 51
180.0
  0
ARC
  5
3E25
  8
0
  6
BYBLOCK
 62
     0
 10
18904.043627999981
 20
13136.591704
 30
0.0
 40
15.0
 50
180.0
 51
0.0
  0
ARC
  5
3E26
  8
0
  6
BYBLOCK
 62
     0
 10
25526.048113999968
 20
13136.591704
 30
0.0
 40
15.0
 50
180.0
 51
0.0
  0
ARC
  5
3E27
  8
0
  6
BYBLOCK
 62
     0
 10
25526.048113999968
 20
13136.591704
 30
0.0
 40
15.0
 50
0.0
 51
180.0
  0
ARC
  5
3E28
  8
0
  6
BYBLOCK
 62
     0
 10
26576.045474999992
 20
15616.7802995
 30
0.0
 40
15.0
 50
270.0
 51
90.0
  0
ARC
  5
3E29
  8
0
  6
BYBLOCK
 62
     0
 10
26576.045474999992
 20
15616.7802995
 30
0.0
 40
15.0
 50
90.0
 51
270.0
  0
ARC
  5
3E2A
  8
0
  6
BYBLOCK
 62
     0
 10
26576.045474999992
 20
14915.539788
 30
0.0
 40
15.0
 50
90.0
 51
270.0
  0
ARC
  5
3E2B
  8
0
  6
BYBLOCK
 62
     0
 10
26576.045474999992
 20
14915.539788
 30
0.0
 40
15.0
 50
270.0
 51
90.0
  0
ARC
  5
3E2C
  8
0
  6
BYBLOCK
 62
     0
 10
26576.045474999992
 20
16317.539788
 30
0.0
 40
15.0
 50
270.0
 51
90.0
  0
ARC
  5
3E2D
  8
0
  6
BYBLOCK
 62
     0
 10
26576.045474999992
 20
16317.539788
 30
0.0
 40
15.0
 50
90.0
 51
270.0
  0
ARC
  5
3E2E
  8
0
  6
BYBLOCK
 62
     0
 10
26576.045474999992
 20
15616.7802995
 30
0.0
 40
15.0
 50
90.0
 51
270.0
  0
ARC
  5
3E2F
  8
0
  6
BYBLOCK
 62
     0
 10
26576.045474999992
 20
15616.7802995
 30
0.0
 40
15.0
 50
270.0
 51
90.0
  0
ARC
  5
3E30
  8
0
  6
BYBLOCK
 62
     0
 10
26576.045474999992
 20
17075.53978799998
 30
0.0
 40
15.0
 50
270.0
 51
90.0
  0
ARC
  5
3E31
  8
0
  6
BYBLOCK
 62
     0
 10
26576.045474999992
 20
17075.53978799998
 30
0.0
 40
15.0
 50
90.0
 51
270.0
  0
ARC
  5
3E32
  8
0
  6
BYBLOCK
 62
     0
 10
26576.045474999992
 20
16317.539788
 30
0.0
 40
15.0
 50
90.0
 51
270.0
  0
ARC
  5
3E33
  8
0
  6
BYBLOCK
 62
     0
 10
26576.045474999992
 20
16317.539788
 30
0.0
 40
15.0
 50
270.0
 51
90.0
  0
ARC
  5
3E34
  8
0
  6
BYBLOCK
 62
     0
 10
26576.045474999992
 20
17833.539787999991
 30
0.0
 40
15.0
 50
270.0
 51
90.0
  0
ARC
  5
3E35
  8
0
  6
BYBLOCK
 62
     0
 10
26576.045474999992
 20
17833.539787999991
 30
0.0
 40
15.0
 50
90.0
 51
270.0
  0
ARC
  5
3E36
  8
0
  6
BYBLOCK
 62
     0
 10
26576.045474999992
 20
17075.53978799998
 30
0.0
 40
15.0
 50
90.0
 51
270.0
  0
ARC
  5
3E37
  8
0
  6
BYBLOCK
 62
     0
 10
26576.045474999992
 20
17075.53978799998
 30
0.0
 40
15.0
 50
270.0
 51
90.0
  0
ARC
  5
3E38
  8
0
  6
BYBLOCK
 62
     0
 10
26576.045474999992
 20
18534.539787999998
 30
0.0
 40
15.0
 50
270.0
 51
90.0
  0
ARC
  5
3E39
  8
0
  6
BYBLOCK
 62
     0
 10
26576.045474999992
 20
18534.539787999998
 30
0.0
 40
15.0
 50
90.0
 51
270.0
  0
ARC
  5
3E3A
  8
0
  6
BYBLOCK
 62
     0
 10
26576.045474999992
 20
17833.539787999991
 30
0.0
 40
15.0
 50
90.0
 51
270.0
  0
ARC
  5
3E3B
  8
0
  6
BYBLOCK
 62
     0
 10
26576.045474999992
 20
17833.539787999991
 30
0.0
 40
15.0
 50
270.0
 51
90.0
  0
ARC
  5
3E3C
  8
0
  6
BYBLOCK
 62
     0
 10
26576.045474999992
 20
19235.539787999998
 30
0.0
 40
15.0
 50
270.0
 51
90.0
  0
ARC
  5
3E3D
  8
0
  6
BYBLOCK
 62
     0
 10
26576.045474999992
 20
19235.539787999998
 30
0.0
 40
15.0
 50
90.0
 51
270.0
  0
ARC
  5
3E3E
  8
0
  6
BYBLOCK
 62
     0
 10
26576.045474999992
 20
18534.539787999998
 30
0.0
 40
15.0
 50
90.0
 51
270.0
  0
ARC
  5
3E3F
  8
0
  6
BYBLOCK
 62
     0
 10
26576.045474999992
 20
18534.539787999998
 30
0.0
 40
15.0
 50
270.0
 51
90.0
  0
ARC
  5
3E40
  8
0
  6
BYBLOCK
 62
     0
 10
26976.045474999992
 20
17075.53978799998
 30
0.0
 40
15.0
 50
90.0
 51
270.0
  0
ARC
  5
3E41
  8
0
  6
BYBLOCK
 62
     0
 10
26976.045474999992
 20
17075.53978799998
 30
0.0
 40
15.0
 50
270.0
 51
90.0
  0
ARC
  5
3E42
  8
0
  6
BYBLOCK
 62
     0
 10
26976.045474999992
 20
19643.039787999991
 30
0.0
 40
15.0
 50
270.0
 51
90.0
  0
ARC
  5
3E43
  8
0
  6
BYBLOCK
 62
     0
 10
26976.045474999992
 20
19643.039787999991
 30
0.0
 40
15.0
 50
90.0
 51
270.0
  0
ARC
  5
3E44
  8
0
  6
BYBLOCK
 62
     0
 10
26976.045474999992
 20
14508.039787999989
 30
0.0
 40
15.0
 50
90.0
 51
270.0
  0
ARC
  5
3E45
  8
0
  6
BYBLOCK
 62
     0
 10
26976.045474999992
 20
14508.039787999989
 30
0.0
 40
15.0
 50
270.0
 51
90.0
  0
ARC
  5
3E46
  8
0
  6
BYBLOCK
 62
     0
 10
26976.045474999992
 20
17075.53978799998
 30
0.0
 40
15.0
 50
270.0
 51
90.0
  0
ARC
  5
3E47
  8
0
  6
BYBLOCK
 62
     0
 10
26976.045474999992
 20
17075.53978799998
 30
0.0
 40
15.0
 50
90.0
 51
270.0
  0
ARC
  5
3E48
  8
0
  6
BYBLOCK
 62
     0
 10
27376.045474999981
 20
19685.537082999988
 30
0.0
 40
15.0
 50
270.0
 51
90.0
  0
ARC
  5
3E49
  8
0
  6
BYBLOCK
 62
     0
 10
27376.045474999981
 20
19685.537082999988
 30
0.0
 40
15.0
 50
90.0
 51
270.0
  0
ARC
  5
3E4A
  8
0
  6
BYBLOCK
 62
     0
 10
27376.045474999981
 20
14465.542493000001
 30
0.0
 40
15.0
 50
90.0
 51
270.0
  0
ARC
  5
3E4B
  8
0
  6
BYBLOCK
 62
     0
 10
27376.045474999981
 20
14465.542493000001
 30
0.0
 40
15.0
 50
270.0
 51
90.0
  0
ARC
  5
3E4C
  8
0
  6
BYBLOCK
 62
     0
 10
26976.045474999992
 20
19643.039787999991
 30
0.0
 40
15.0
 50
270.0
 51
90.0
  0
ARC
  5
3E4D
  8
0
  6
BYBLOCK
 62
     0
 10
26976.045474999992
 20
19643.039787999991
 30
0.0
 40
15.0
 50
90.0
 51
270.0
  0
ARC
  5
3E4E
  8
0
  6
BYBLOCK
 62
     0
 10
26976.045474999992
 20
19685.537082999988
 30
0.0
 40
15.0
 50
90.0
 51
270.0
  0
ARC
  5
3E4F
  8
0
  6
BYBLOCK
 62
     0
 10
26976.045474999992
 20
19685.537082999988
 30
0.0
 40
15.0
 50
270.0
 51
90.0
  0
ARC
  5
3E50
  8
0
  6
BYBLOCK
 62
     0
 10
26976.045474999992
 20
14508.039787999989
 30
0.0
 40
15.0
 50
90.0
 51
270.0
  0
ARC
  5
3E51
  8
0
  6
BYBLOCK
 62
     0
 10
26976.045474999992
 20
14508.039787999989
 30
0.0
 40
15.0
 50
270.0
 51
90.0
  0
ARC
  5
3E52
  8
0
  6
BYBLOCK
 62
     0
 10
26976.045474999992
 20
14465.542493000001
 30
0.0
 40
15.0
 50
270.0
 51
90.0
  0
ARC
  5
3E53
  8
0
  6
BYBLOCK
 62
     0
 10
26976.045474999992
 20
14465.542493000001
 30
0.0
 40
15.0
 50
90.0
 51
270.0
  0
ARC
  5
3E54
  8
0
  6
BYBLOCK
 62
     0
 10
22215.04587099998
 20
20415.540976000011
 30
0.0
 40
15.0
 50
180.0
 51
0.0
  0
ARC
  5
3E55
  8
0
  6
BYBLOCK
 62
     0
 10
22215.04587099998
 20
20415.540976000011
 30
0.0
 40
15.0
 50
0.0
 51
180.0
  0
ARC
  5
3E56
  8
0
  6
BYBLOCK
 62
     0
 10
22622.545870999969
 20
20415.540976000011
 30
0.0
 40
15.0
 50
0.0
 51
180.0
  0
ARC
  5
3E57
  8
0
  6
BYBLOCK
 62
     0
 10
22622.545870999969
 20
20415.540976000011
 30
0.0
 40
15.0
 50
180.0
 51
0.0
  0
ARC
  5
3E58
  8
0
  6
BYBLOCK
 62
     0
 10
24725.54587099998
 20
20415.540976000011
 30
0.0
 40
15.0
 50
0.0
 51
180.0
  0
ARC
  5
3E59
  8
0
  6
BYBLOCK
 62
     0
 10
24725.54587099998
 20
20415.540976000011
 30
0.0
 40
15.0
 50
180.0
 51
0.0
  0
ARC
  5
3E5A
  8
0
  6
BYBLOCK
 62
     0
 10
25483.546860499991
 20
20415.540976000011
 30
0.0
 40
15.0
 50
180.0
 51
0.0
  0
ARC
  5
3E5B
  8
0
  6
BYBLOCK
 62
     0
 10
25483.546860499991
 20
20415.540976000011
 30
0.0
 40
15.0
 50
0.0
 51
180.0
  0
ARC
  5
3E5C
  8
0
  6
BYBLOCK
 62
     0
 10
24024.54587099998
 20
20415.540976000011
 30
0.0
 40
15.0
 50
0.0
 51
180.0
  0
ARC
  5
3E5D
  8
0
  6
BYBLOCK
 62
     0
 10
24024.54587099998
 20
20415.540976000011
 30
0.0
 40
15.0
 50
180.0
 51
0.0
  0
ARC
  5
3E5E
  8
0
  6
BYBLOCK
 62
     0
 10
24725.54587099998
 20
20415.540976000011
 30
0.0
 40
15.0
 50
180.0
 51
0.0
  0
ARC
  5
3E5F
  8
0
  6
BYBLOCK
 62
     0
 10
24725.54587099998
 20
20415.540976000011
 30
0.0
 40
15.0
 50
0.0
 51
180.0
  0
ARC
  5
3E60
  8
0
  6
BYBLOCK
 62
     0
 10
23323.545870999969
 20
20415.540976000011
 30
0.0
 40
15.0
 50
0.0
 51
180.0
  0
ARC
  5
3E61
  8
0
  6
BYBLOCK
 62
     0
 10
23323.545870999969
 20
20415.540976000011
 30
0.0
 40
15.0
 50
180.0
 51
0.0
  0
ARC
  5
3E62
  8
0
  6
BYBLOCK
 62
     0
 10
24024.54587099998
 20
20415.540976000011
 30
0.0
 40
15.0
 50
180.0
 51
0.0
  0
ARC
  5
3E63
  8
0
  6
BYBLOCK
 62
     0
 10
24024.54587099998
 20
20415.540976000011
 30
0.0
 40
15.0
 50
0.0
 51
180.0
  0
ARC
  5
3E64
  8
0
  6
BYBLOCK
 62
     0
 10
22622.545870999969
 20
20415.540976000011
 30
0.0
 40
15.0
 50
0.0
 51
180.0
  0
ARC
  5
3E65
  8
0
  6
BYBLOCK
 62
     0
 10
22622.545870999969
 20
20415.540976000011
 30
0.0
 40
15.0
 50
180.0
 51
0.0
  0
ARC
  5
3E66
  8
0
  6
BYBLOCK
 62
     0
 10
23323.545870999969
 20
20415.540976000011
 30
0.0
 40
15.0
 50
180.0
 51
0.0
  0
ARC
  5
3E67
  8
0
  6
BYBLOCK
 62
     0
 10
23323.545870999969
 20
20415.540976000011
 30
0.0
 40
15.0
 50
0.0
 51
180.0
  0
ARC
  5
3E68
  8
0
  6
BYBLOCK
 62
     0
 10
25483.54587099998
 20
20415.540976000011
 30
0.0
 40
15.0
 50
180.0
 51
0.0
  0
ARC
  5
3E69
  8
0
  6
BYBLOCK
 62
     0
 10
25483.54587099998
 20
20415.540976000011
 30
0.0
 40
15.0
 50
0.0
 51
180.0
  0
ARC
  5
3E6A
  8
0
  6
BYBLOCK
 62
     0
 10
25526.042175999981
 20
20415.540976000011
 30
0.0
 40
15.0
 50
0.0
 51
180.0
  0
ARC
  5
3E6B
  8
0
  6
BYBLOCK
 62
     0
 10
25526.042175999981
 20
20415.540976000011
 30
0.0
 40
15.0
 50
180.0
 51
0.0
  0
ARC
  5
3E6C
  8
0
  6
BYBLOCK
 62
     0
 10
18946.54587099998
 20
20415.540976000011
 30
0.0
 40
15.0
 50
180.0
 51
0.0
  0
ARC
  5
3E6D
  8
0
  6
BYBLOCK
 62
     0
 10
18946.54587099998
 20
20415.540976000011
 30
0.0
 40
15.0
 50
0.0
 51
180.0
  0
ARC
  5
3E6E
  8
0
  6
BYBLOCK
 62
     0
 10
19354.04587099998
 20
20415.540976000011
 30
0.0
 40
15.0
 50
0.0
 51
180.0
  0
ARC
  5
3E6F
  8
0
  6
BYBLOCK
 62
     0
 10
19354.04587099998
 20
20415.540976000011
 30
0.0
 40
15.0
 50
180.0
 51
0.0
  0
ARC
  5
3E70
  8
0
  6
BYBLOCK
 62
     0
 10
18946.54587099998
 20
20415.540976000011
 30
0.0
 40
15.0
 50
0.0
 51
180.0
  0
ARC
  5
3E71
  8
0
  6
BYBLOCK
 62
     0
 10
18946.54587099998
 20
20415.540976000011
 30
0.0
 40
15.0
 50
180.0
 51
0.0
  0
ARC
  5
3E72
  8
0
  6
BYBLOCK
 62
     0
 10
18904.049565999969
 20
20415.540976000011
 30
0.0
 40
15.0
 50
180.0
 51
0.0
  0
ARC
  5
3E73
  8
0
  6
BYBLOCK
 62
     0
 10
18904.049565999969
 20
20415.540976000011
 30
0.0
 40
15.0
 50
0.0
 51
180.0
  0
ARC
  5
3E74
  8
0
  6
BYBLOCK
 62
     0
 10
21457.04587099998
 20
20415.540976000011
 30
0.0
 40
15.0
 50
0.0
 51
180.0
  0
ARC
  5
3E75
  8
0
  6
BYBLOCK
 62
     0
 10
21457.04587099998
 20
20415.540976000011
 30
0.0
 40
15.0
 50
180.0
 51
0.0
  0
ARC
  5
3E76
  8
0
  6
BYBLOCK
 62
     0
 10
22215.046860499991
 20
20415.540976000011
 30
0.0
 40
15.0
 50
180.0
 51
0.0
  0
ARC
  5
3E77
  8
0
  6
BYBLOCK
 62
     0
 10
22215.046860499991
 20
20415.540976000011
 30
0.0
 40
15.0
 50
0.0
 51
180.0
  0
ARC
  5
3E78
  8
0
  6
BYBLOCK
 62
     0
 10
20756.04587099998
 20
20415.540976000011
 30
0.0
 40
15.0
 50
0.0
 51
180.0
  0
ARC
  5
3E79
  8
0
  6
BYBLOCK
 62
     0
 10
20756.04587099998
 20
20415.540976000011
 30
0.0
 40
15.0
 50
180.0
 51
0.0
  0
ARC
  5
3E7A
  8
0
  6
BYBLOCK
 62
     0
 10
21457.04587099998
 20
20415.540976000011
 30
0.0
 40
15.0
 50
180.0
 51
0.0
  0
ARC
  5
3E7B
  8
0
  6
BYBLOCK
 62
     0
 10
21457.04587099998
 20
20415.540976000011
 30
0.0
 40
15.0
 50
0.0
 51
180.0
  0
ARC
  5
3E7C
  8
0
  6
BYBLOCK
 62
     0
 10
20055.04587099998
 20
20415.540976000011
 30
0.0
 40
15.0
 50
0.0
 51
180.0
  0
ARC
  5
3E7D
  8
0
  6
BYBLOCK
 62
     0
 10
20055.04587099998
 20
20415.540976000011
 30
0.0
 40
15.0
 50
180.0
 51
0.0
  0
ARC
  5
3E7E
  8
0
  6
BYBLOCK
 62
     0
 10
20756.04587099998
 20
20415.540976000011
 30
0.0
 40
15.0
 50
180.0
 51
0.0
  0
ARC
  5
3E7F
  8
0
  6
BYBLOCK
 62
     0
 10
20756.04587099998
 20
20415.540976000011
 30
0.0
 40
15.0
 50
0.0
 51
180.0
  0
ARC
  5
3E80
  8
0
  6
BYBLOCK
 62
     0
 10
19354.04587099998
 20
20415.540976000011
 30
0.0
 40
15.0
 50
0.0
 51
180.0
  0
ARC
  5
3E81
  8
0
  6
BYBLOCK
 62
     0
 10
19354.04587099998
 20
20415.540976000011
 30
0.0
 40
15.0
 50
180.0
 51
0.0
  0
ARC
  5
3E82
  8
0
  6
BYBLOCK
 62
     0
 10
20055.04587099998
 20
20415.540976000011
 30
0.0
 40
15.0
 50
180.0
 51
0.0
  0
ARC
  5
3E83
  8
0
  6
BYBLOCK
 62
     0
 10
20055.04587099998
 20
20415.540976000011
 30
0.0
 40
15.0
 50
0.0
 51
180.0
  0
ARC
  5
3E84
  8
0
  6
BYBLOCK
 62
     0
 10
18096.54653099996
 20
6367.0884779999969
 30
0.0
 40
15.0
 50
90.0
 51
270.0
  0
ARC
  5
3E85
  8
0
  6
BYBLOCK
 62
     0
 10
18096.54653099996
 20
6367.0884779999969
 30
0.0
 40
15.0
 50
270.0
 51
90.0
  0
ARC
  5
3E86
  8
0
  6
BYBLOCK
 62
     0
 10
18096.546530999982
 20
8258.588477999996
 30
0.0
 40
15.0
 50
270.0
 51
90.0
  0
ARC
  5
3E87
  8
0
  6
BYBLOCK
 62
     0
 10
18096.546530999982
 20
8258.588477999996
 30
0.0
 40
15.0
 50
90.0
 51
270.0
  0
ARC
  5
3E88
  8
0
  6
BYBLOCK
 62
     0
 10
17696.54422199995
 20
6367.0884779999969
 30
0.0
 40
15.0
 50
90.0
 51
270.0
  0
ARC
  5
3E89
  8
0
  6
BYBLOCK
 62
     0
 10
17696.54422199995
 20
6367.0884779999969
 30
0.0
 40
15.0
 50
270.0
 51
90.0
  0
ARC
  5
3E8A
  8
0
  6
BYBLOCK
 62
     0
 10
17696.54422199995
 20
8715.5879829999976
 30
0.0
 40
15.0
 50
270.0
 51
90.0
  0
ARC
  5
3E8B
  8
0
  6
BYBLOCK
 62
     0
 10
17696.54422199995
 20
8715.5879829999976
 30
0.0
 40
15.0
 50
90.0
 51
270.0
  0
ARC
  5
3E8C
  8
0
  6
BYBLOCK
 62
     0
 10
18861.043495999958
 20
9915.0464390000016
 30
0.0
 40
15.0
 50
0.0
 51
180.0
  0
ARC
  5
3E8D
  8
0
  6
BYBLOCK
 62
     0
 10
18861.043495999958
 20
9915.0464390000016
 30
0.0
 40
15.0
 50
180.0
 51
0.0
  0
ARC
  5
3E8E
  8
0
  6
BYBLOCK
 62
     0
 10
25569.04824599998
 20
9915.0464390000016
 30
0.0
 40
15.0
 50
180.0
 51
0.0
  0
ARC
  5
3E8F
  8
0
  6
BYBLOCK
 62
     0
 10
25569.04824599998
 20
9915.0464390000016
 30
0.0
 40
15.0
 50
0.0
 51
180.0
  0
ARC
  5
3E90
  8
0
  6
BYBLOCK
 62
     0
 10
18904.04560699996
 20
9515.0886689999988
 30
0.0
 40
15.0
 50
0.0
 51
180.0
  0
ARC
  5
3E91
  8
0
  6
BYBLOCK
 62
     0
 10
18904.04560699996
 20
9515.0886689999988
 30
0.0
 40
15.0
 50
180.0
 51
0.0
  0
ARC
  5
3E92
  8
0
  6
BYBLOCK
 62
     0
 10
25526.046134999971
 20
9515.0886689999988
 30
0.0
 40
15.0
 50
180.0
 51
0.0
  0
ARC
  5
3E93
  8
0
  6
BYBLOCK
 62
     0
 10
25526.046134999971
 20
9515.0886689999988
 30
0.0
 40
15.0
 50
0.0
 51
180.0
  0
ARC
  5
3E94
  8
0
  6
BYBLOCK
 62
     0
 10
18904.04560699996
 20
9515.0886689999988
 30
0.0
 40
15.0
 50
0.0
 51
180.0
  0
ARC
  5
3E95
  8
0
  6
BYBLOCK
 62
     0
 10
18904.04560699996
 20
9515.0886689999988
 30
0.0
 40
15.0
 50
180.0
 51
0.0
  0
ARC
  5
3E96
  8
0
  6
BYBLOCK
 62
     0
 10
18861.043495999958
 20
9515.0886689999988
 30
0.0
 40
15.0
 50
180.0
 51
0.0
  0
ARC
  5
3E97
  8
0
  6
BYBLOCK
 62
     0
 10
18861.043495999958
 20
9515.0886689999988
 30
0.0
 40
15.0
 50
0.0
 51
180.0
  0
ARC
  5
3E98
  8
0
  6
BYBLOCK
 62
     0
 10
25526.046134999971
 20
9515.0886689999988
 30
0.0
 40
15.0
 50
180.0
 51
0.0
  0
ARC
  5
3E99
  8
0
  6
BYBLOCK
 62
     0
 10
25526.046134999971
 20
9515.0886689999988
 30
0.0
 40
15.0
 50
0.0
 51
180.0
  0
ARC
  5
3E9A
  8
0
  6
BYBLOCK
 62
     0
 10
25569.04824599998
 20
9515.0886689999988
 30
0.0
 40
15.0
 50
0.0
 51
180.0
  0
ARC
  5
3E9B
  8
0
  6
BYBLOCK
 62
     0
 10
25569.04824599998
 20
9515.0886689999988
 30
0.0
 40
15.0
 50
180.0
 51
0.0
  0
ARC
  5
3E9C
  8
0
  6
BYBLOCK
 62
     0
 10
19040.54587099998
 20
5467.088643000001
 30
0.0
 40
15.0
 50
0.0
 51
180.0
  0
ARC
  5
3E9D
  8
0
  6
BYBLOCK
 62
     0
 10
19040.54587099998
 20
5467.088643000001
 30
0.0
 40
15.0
 50
180.0
 51
0.0
  0
ARC
  5
3E9E
  8
0
  6
BYBLOCK
 62
     0
 10
22121.04587099998
 20
5467.088643000001
 30
0.0
 40
15.0
 50
180.0
 51
0.0
  0
ARC
  5
3E9F
  8
0
  6
BYBLOCK
 62
     0
 10
22121.04587099998
 20
5467.088643000001
 30
0.0
 40
15.0
 50
0.0
 51
180.0
  0
ARC
  5
3EA0
  8
0
  6
BYBLOCK
 62
     0
 10
22309.04587099998
 20
5467.088643000001
 30
0.0
 40
15.0
 50
0.0
 51
180.0
  0
ARC
  5
3EA1
  8
0
  6
BYBLOCK
 62
     0
 10
22309.04587099998
 20
5467.088643000001
 30
0.0
 40
15.0
 50
180.0
 51
0.0
  0
ARC
  5
3EA2
  8
0
  6
BYBLOCK
 62
     0
 10
25389.54587099998
 20
5467.088643000001
 30
0.0
 40
15.0
 50
180.0
 51
0.0
  0
ARC
  5
3EA3
  8
0
  6
BYBLOCK
 62
     0
 10
25389.54587099998
 20
5467.088643000001
 30
0.0
 40
15.0
 50
0.0
 51
180.0
  0
ARC
  5
3EA4
  8
0
  6
BYBLOCK
 62
     0
 10
22215.04587099998
 20
5067.088643000001
 30
0.0
 40
15.0
 50
0.0
 51
180.0
  0
ARC
  5
3EA5
  8
0
  6
BYBLOCK
 62
     0
 10
22215.04587099998
 20
5067.088643000001
 30
0.0
 40
15.0
 50
180.0
 51
0.0
  0
ARC
  5
3EA6
  8
0
  6
BYBLOCK
 62
     0
 10
25483.54587099998
 20
5067.088643000001
 30
0.0
 40
15.0
 50
180.0
 51
0.0
  0
ARC
  5
3EA7
  8
0
  6
BYBLOCK
 62
     0
 10
25483.54587099998
 20
5067.088643000001
 30
0.0
 40
15.0
 50
0.0
 51
180.0
  0
ARC
  5
3EA8
  8
0
  6
BYBLOCK
 62
     0
 10
18946.54587099998
 20
5067.088643000001
 30
0.0
 40
15.0
 50
0.0
 51
180.0
  0
ARC
  5
3EA9
  8
0
  6
BYBLOCK
 62
     0
 10
18946.54587099998
 20
5067.088643000001
 30
0.0
 40
15.0
 50
180.0
 51
0.0
  0
ARC
  5
3EAA
  8
0
  6
BYBLOCK
 62
     0
 10
22215.04587099998
 20
5067.088643000001
 30
0.0
 40
15.0
 50
180.0
 51
0.0
  0
ARC
  5
3EAB
  8
0
  6
BYBLOCK
 62
     0
 10
22215.04587099998
 20
5067.088643000001
 30
0.0
 40
15.0
 50
0.0
 51
180.0
  0
ARC
  5
3EAC
  8
0
  6
BYBLOCK
 62
     0
 10
25483.549829999982
 20
5067.088643000001
 30
0.0
 40
15.0
 50
180.0
 51
0.0
  0
ARC
  5
3EAD
  8
0
  6
BYBLOCK
 62
     0
 10
25483.549829999982
 20
5067.088643000001
 30
0.0
 40
15.0
 50
0.0
 51
180.0
  0
ARC
  5
3EAE
  8
0
  6
BYBLOCK
 62
     0
 10
25526.049829999982
 20
5067.088643000001
 30
0.0
 40
15.0
 50
0.0
 51
180.0
  0
ARC
  5
3EAF
  8
0
  6
BYBLOCK
 62
     0
 10
25526.049829999982
 20
5067.088643000001
 30
0.0
 40
15.0
 50
180.0
 51
0.0
  0
ARC
  5
3EB0
  8
0
  6
BYBLOCK
 62
     0
 10
18946.54587099998
 20
5067.088643000001
 30
0.0
 40
15.0
 50
0.0
 51
180.0
  0
ARC
  5
3EB1
  8
0
  6
BYBLOCK
 62
     0
 10
18946.54587099998
 20
5067.088643000001
 30
0.0
 40
15.0
 50
180.0
 51
0.0
  0
ARC
  5
3EB2
  8
0
  6
BYBLOCK
 62
     0
 10
18904.04587099998
 20
5067.088643000001
 30
0.0
 40
15.0
 50
180.0
 51
0.0
  0
ARC
  5
3EB3
  8
0
  6
BYBLOCK
 62
     0
 10
18904.04587099998
 20
5067.088643000001
 30
0.0
 40
15.0
 50
0.0
 51
180.0
  0
ARC
  5
3EB4
  8
0
  6
BYBLOCK
 62
     0
 10
18904.04587099998
 20
4667.0888079999986
 30
0.0
 40
15.0
 50
0.0
 51
180.0
  0
ARC
  5
3EB5
  8
0
  6
BYBLOCK
 62
     0
 10
18904.04587099998
 20
4667.0888079999986
 30
0.0
 40
15.0
 50
180.0
 51
0.0
  0
ARC
  5
3EB6
  8
0
  6
BYBLOCK
 62
     0
 10
25526.04587099998
 20
4667.0888079999986
 30
0.0
 40
15.0
 50
180.0
 51
0.0
  0
ARC
  5
3EB7
  8
0
  6
BYBLOCK
 62
     0
 10
25526.04587099998
 20
4667.0888079999986
 30
0.0
 40
15.0
 50
0.0
 51
180.0
  0
ARC
  5
3EB8
  8
0
  6
BYBLOCK
 62
     0
 10
15261.788825
 20
6367.0884780000006
 30
0.0
 40
15.0
 50
90.0
 51
270.0
  0
ARC
  5
3EB9
  8
0
  6
BYBLOCK
 62
     0
 10
15261.788825
 20
6367.0884780000006
 30
0.0
 40
15.0
 50
270.0
 51
90.0
  0
ARC
  5
3EBA
  8
0
  6
BYBLOCK
 62
     0
 10
15261.788825
 20
8716.0884780000033
 30
0.0
 40
15.0
 50
270.0
 51
90.0
  0
ARC
  5
3EBB
  8
0
  6
BYBLOCK
 62
     0
 10
15261.788825
 20
8716.0884780000033
 30
0.0
 40
15.0
 50
90.0
 51
270.0
  0
ARC
  5
3EBC
  8
0
  6
BYBLOCK
 62
     0
 10
7861.7900130000007
 20
6367.0884780000006
 30
0.0
 40
15.0
 50
90.0
 51
270.0
  0
ARC
  5
3EBD
  8
0
  6
BYBLOCK
 62
     0
 10
7861.7900130000007
 20
6367.0884780000006
 30
0.0
 40
15.0
 50
270.0
 51
90.0
  0
ARC
  5
3EBE
  8
0
  6
BYBLOCK
 62
     0
 10
7861.7900130000007
 20
8522.5884780000015
 30
0.0
 40
15.0
 50
270.0
 51
90.0
  0
ARC
  5
3EBF
  8
0
  6
BYBLOCK
 62
     0
 10
7861.7900130000007
 20
8522.5884780000015
 30
0.0
 40
15.0
 50
90.0
 51
270.0
  0
ARC
  5
3EC0
  8
0
  6
BYBLOCK
 62
     0
 10
14171.79040899999
 20
9515.0901529999974
 30
0.0
 40
15.0
 50
180.0
 51
0.0
  0
ARC
  5
3EC1
  8
0
  6
BYBLOCK
 62
     0
 10
14171.79040899999
 20
9515.0901529999974
 30
0.0
 40
15.0
 50
0.0
 51
180.0
  0
ARC
  5
3EC2
  8
0
  6
BYBLOCK
 62
     0
 10
14321.79040899999
 20
9515.0901529999974
 30
0.0
 40
15.0
 50
0.0
 51
180.0
  0
ARC
  5
3EC3
  8
0
  6
BYBLOCK
 62
     0
 10
14321.79040899999
 20
9515.0901529999974
 30
0.0
 40
15.0
 50
180.0
 51
0.0
  0
ARC
  5
3EC4
  8
0
  6
BYBLOCK
 62
     0
 10
8771.7904090000011
 20
9915.088502999999
 30
0.0
 40
15.0
 50
0.0
 51
180.0
  0
ARC
  5
3EC5
  8
0
  6
BYBLOCK
 62
     0
 10
8771.7904090000011
 20
9915.088502999999
 30
0.0
 40
15.0
 50
180.0
 51
0.0
  0
ARC
  5
3EC6
  8
0
  6
BYBLOCK
 62
     0
 10
14321.79040899999
 20
9915.088502999999
 30
0.0
 40
15.0
 50
180.0
 51
0.0
  0
ARC
  5
3EC7
  8
0
  6
BYBLOCK
 62
     0
 10
14321.79040899999
 20
9915.088502999999
 30
0.0
 40
15.0
 50
0.0
 51
180.0
  0
ARC
  5
3EC8
  8
0
  6
BYBLOCK
 62
     0
 10
8951.7904090000011
 20
9515.0901529999974
 30
0.0
 40
15.0
 50
0.0
 51
180.0
  0
ARC
  5
3EC9
  8
0
  6
BYBLOCK
 62
     0
 10
8951.7904090000011
 20
9515.0901529999974
 30
0.0
 40
15.0
 50
180.0
 51
0.0
  0
ARC
  5
3ECA
  8
0
  6
BYBLOCK
 62
     0
 10
14171.79040899999
 20
9515.0901529999974
 30
0.0
 40
15.0
 50
180.0
 51
0.0
  0
ARC
  5
3ECB
  8
0
  6
BYBLOCK
 62
     0
 10
14171.79040899999
 20
9515.0901529999974
 30
0.0
 40
15.0
 50
0.0
 51
180.0
  0
ARC
  5
3ECC
  8
0
  6
BYBLOCK
 62
     0
 10
8771.7904090000011
 20
9515.0901529999974
 30
0.0
 40
15.0
 50
180.0
 51
0.0
  0
ARC
  5
3ECD
  8
0
  6
BYBLOCK
 62
     0
 10
8771.7904090000011
 20
9515.0901529999974
 30
0.0
 40
15.0
 50
0.0
 51
180.0
  0
ARC
  5
3ECE
  8
0
  6
BYBLOCK
 62
     0
 10
8951.7904090000011
 20
9515.0901529999974
 30
0.0
 40
15.0
 50
0.0
 51
180.0
  0
ARC
  5
3ECF
  8
0
  6
BYBLOCK
 62
     0
 10
8951.7904090000011
 20
9515.0901529999974
 30
0.0
 40
15.0
 50
180.0
 51
0.0
  0
ARC
  5
3ED0
  8
0
  6
BYBLOCK
 62
     0
 10
14129.28842999999
 20
5067.0886419999961
 30
0.0
 40
15.0
 50
180.0
 51
0.0
  0
ARC
  5
3ED1
  8
0
  6
BYBLOCK
 62
     0
 10
14129.28842999999
 20
5067.0886419999961
 30
0.0
 40
15.0
 50
0.0
 51
180.0
  0
ARC
  5
3ED2
  8
0
  6
BYBLOCK
 62
     0
 10
14171.788430000001
 20
5067.0886419999961
 30
0.0
 40
15.0
 50
0.0
 51
180.0
  0
ARC
  5
3ED3
  8
0
  6
BYBLOCK
 62
     0
 10
14171.788430000001
 20
5067.0886419999961
 30
0.0
 40
15.0
 50
180.0
 51
0.0
  0
ARC
  5
3ED4
  8
0
  6
BYBLOCK
 62
     0
 10
11561.79040899999
 20
5067.088643000001
 30
0.0
 40
15.0
 50
0.0
 51
180.0
  0
ARC
  5
3ED5
  8
0
  6
BYBLOCK
 62
     0
 10
11561.79040899999
 20
5067.088643000001
 30
0.0
 40
15.0
 50
180.0
 51
0.0
  0
ARC
  5
3ED6
  8
0
  6
BYBLOCK
 62
     0
 10
14129.29040899999
 20
5067.088643000001
 30
0.0
 40
15.0
 50
180.0
 51
0.0
  0
ARC
  5
3ED7
  8
0
  6
BYBLOCK
 62
     0
 10
14129.29040899999
 20
5067.088643000001
 30
0.0
 40
15.0
 50
0.0
 51
180.0
  0
ARC
  5
3ED8
  8
0
  6
BYBLOCK
 62
     0
 10
8951.7904090000011
 20
4667.0888069999983
 30
0.0
 40
15.0
 50
0.0
 51
180.0
  0
ARC
  5
3ED9
  8
0
  6
BYBLOCK
 62
     0
 10
8951.7904090000011
 20
4667.0888069999983
 30
0.0
 40
15.0
 50
180.0
 51
0.0
  0
ARC
  5
3EDA
  8
0
  6
BYBLOCK
 62
     0
 10
14171.788430000001
 20
4667.0888069999983
 30
0.0
 40
15.0
 50
180.0
 51
0.0
  0
ARC
  5
3EDB
  8
0
  6
BYBLOCK
 62
     0
 10
14171.788430000001
 20
4667.0888069999983
 30
0.0
 40
15.0
 50
0.0
 51
180.0
  0
ARC
  5
3EDC
  8
0
  6
BYBLOCK
 62
     0
 10
8994.2904090000029
 20
5067.0886419999961
 30
0.0
 40
15.0
 50
0.0
 51
180.0
  0
ARC
  5
3EDD
  8
0
  6
BYBLOCK
 62
     0
 10
8994.2904090000029
 20
5067.0886419999961
 30
0.0
 40
15.0
 50
180.0
 51
0.0
  0
ARC
  5
3EDE
  8
0
  6
BYBLOCK
 62
     0
 10
8951.7904090000011
 20
5067.0886419999961
 30
0.0
 40
15.0
 50
180.0
 51
0.0
  0
ARC
  5
3EDF
  8
0
  6
BYBLOCK
 62
     0
 10
8951.7904090000011
 20
5067.0886419999961
 30
0.0
 40
15.0
 50
0.0
 51
180.0
  0
ARC
  5
3EE0
  8
0
  6
BYBLOCK
 62
     0
 10
11561.79040899999
 20
5067.0886419999961
 30
0.0
 40
15.0
 50
180.0
 51
0.0
  0
ARC
  5
3EE1
  8
0
  6
BYBLOCK
 62
     0
 10
11561.79040899999
 20
5067.0886419999961
 30
0.0
 40
15.0
 50
0.0
 51
180.0
  0
ARC
  5
3EE2
  8
0
  6
BYBLOCK
 62
     0
 10
8994.2904090000029
 20
5067.0886419999961
 30
0.0
 40
15.0
 50
0.0
 51
180.0
  0
ARC
  5
3EE3
  8
0
  6
BYBLOCK
 62
     0
 10
8994.2904090000029
 20
5067.0886419999961
 30
0.0
 40
15.0
 50
180.0
 51
0.0
  0
TEXT
  5
4006
  8
NAME
 10
24033.053546554009
 20
1076.0
 30
0.0
 40
360.0
  1
H
 41
0.6700000000000002
  7
00
  0
TEXT
  5
4007
  8
NAME
 10
23657.221561973682
 20
1076.0
 30
0.0
 40
360.0
  1
（ ）
  7
01
  0
TEXT
  5
4009
  8
NAME
 10
21933.552716389011
 20
1876.0
 30
0.0
 40
360.0
  1
ヨドガレージ ラヴィージュ
 41
0.75
  7
01
  0
TEXT
  5
400A
  8
NAME
 10
21816.089515848402
 20
1076.6369801169251
 30
0.0
 40
360.0
  1
VGC-3352
 41
0.6700000000000002
  0
LINE
  5
400B
  8
NAME
  6
CONTINUOUS
 10
26067.886878884299
 20
2236.0
 30
0.0
 11
26067.886878884299
 21
1876.0
 31
0.0
  0
LINE
  5
400C
  8
NAME
  6
CONTINUOUS
 10
26167.886878884299
 20
2236.0
 30
0.0
 11
26167.886878884299
 21
1876.0
 31
0.0
  0
LINE
  5
400D
  8
NAME
  6
CONTINUOUS
 10
26267.88687888431
 20
2236.0
 30
0.0
 11
26267.88687888431
 21
1876.0
 31
0.0
  0
LINE
  5
400E
  8
NAME
  6
CONTINUOUS
 10
26007.886878884299
 20
2236.0
 30
0.0
 11
26327.886878884299
 21
2236.0
 31
0.0
  0
LINE
  5
400F
  8
NAME
  6
CONTINUOUS
 10
26327.886878884299
 20
1876.0
 30
0.0
 11
26007.886878884299
 21
1876.0
 31
0.0
  0
TEXT
  5
4010
  8
NAME
 10
25346.041792426669
 20
1076.0
 30
0.0
 40
360.0
  1
2
 41
0.6700000000000002
  7
00
  0
TEXT
  5
405A
  8
NAME
 10
24557.214549256729
 20
1076.0
 30
0.0
 40
360.0
  1
型（ 連棟）
  7
01
  0
LINE
  5
40B2
  8
2-0
  6
CONTINUOUS
 62
     3
 10
25514.042333999991
 20
14931.373957
 30
0.0
 11
25521.04389099999
 21
14931.373957
 31
0.0
  0
LINE
  5
40B3
  8
2-0
  6
CONTINUOUS
 62
     3
 10
25521.04389099999
 20
14931.373957
 30
0.0
 11
25521.04389099999
 21
14926.379632
 31
0.0
  0
LINE
  5
40B4
  8
2-0
  6
CONTINUOUS
 62
     3
 10
25521.04389099999
 20
14926.379632
 30
0.0
 11
25496.04653099996
 21
14926.379632
 31
0.0
  0
LINE
  5
40B5
  8
2-0
  6
CONTINUOUS
 62
     3
 10
25496.04653099996
 20
14926.379632
 30
0.0
 11
25496.04653099996
 21
14944.375435000011
 31
0.0
  0
LINE
  5
40B6
  8
2-0
  6
CONTINUOUS
 62
     3
 10
25496.04653099996
 20
14944.375435000011
 30
0.0
 11
25526.044154999981
 21
14944.375435000011
 31
0.0
  0
LINE
  5
40B7
  8
2-0
  6
CONTINUOUS
 62
     3
 10
25496.04653099996
 20
14928.277990000001
 30
0.0
 11
25496.04653099996
 21
14934.27989000002
 31
0.0
  0
LINE
  5
40B8
  8
2-0
  6
CONTINUOUS
 62
     3
 10
25496.04653099996
 20
14934.27989000002
 30
0.0
 11
25526.044154999981
 21
14934.27989000002
 31
0.0
  0
LINE
  5
40B9
  8
2-0
  6
CONTINUOUS
 62
     3
 10
25526.044154999981
 20
14897.28070900001
 30
0.0
 11
25526.044154999981
 21
14934.27989000002
 31
0.0
  0
LINE
  5
40BA
  8
2-0
  6
CONTINUOUS
 62
     3
 10
25496.04653099996
 20
14897.28070900001
 30
0.0
 11
25526.044154999981
 21
14897.28070900001
 31
0.0
  0
LINE
  5
40BB
  8
2-0
  6
CONTINUOUS
 62
     3
 10
25496.04653099996
 20
14903.27766
 30
0.0
 11
25496.04653099996
 21
14897.28070900001
 31
0.0
  0
LINE
  5
40BC
  8
2-0
  6
CONTINUOUS
 62
     3
 10
25496.04653099996
 20
14887.179225
 30
0.0
 11
25526.044154999981
 21
14887.179225
 31
0.0
  0
LINE
  5
40BD
  8
2-0
  6
CONTINUOUS
 62
     3
 10
25496.04653099996
 20
14905.186906000001
 30
0.0
 11
25496.04653099996
 21
14887.179225
 31
0.0
  0
LINE
  5
40BE
  8
2-0
  6
CONTINUOUS
 62
     3
 10
25521.04389099999
 20
14905.186906000001
 30
0.0
 11
25496.04653099996
 21
14905.186906000001
 31
0.0
  0
LINE
  5
40BF
  8
2-0
  6
CONTINUOUS
 62
     3
 10
25521.04389099999
 20
14900.186642000001
 30
0.0
 11
25521.04389099999
 21
14905.186906000001
 31
0.0
  0
LINE
  5
40C0
  8
2-0
  6
CONTINUOUS
 62
     3
 10
25514.042333999991
 20
14900.186642000001
 30
0.0
 11
25521.04389099999
 21
14900.186642000001
 31
0.0
  0
LINE
  5
40C1
  8
2-0
  6
CONTINUOUS
 62
     3
 10
18916.05138699996
 20
14931.373957
 30
0.0
 11
18909.053788999969
 21
14931.373957
 31
0.0
  0
LINE
  5
40C2
  8
2-0
  6
CONTINUOUS
 62
     3
 10
18909.053788999969
 20
14931.373957
 30
0.0
 11
18909.053788999969
 21
14926.379632
 31
0.0
  0
LINE
  5
40C3
  8
2-0
  6
CONTINUOUS
 62
     3
 10
18909.053788999969
 20
14926.379632
 30
0.0
 11
18934.047190999961
 21
14926.379632
 31
0.0
  0
LINE
  5
40C4
  8
2-0
  6
CONTINUOUS
 62
     3
 10
18934.047190999961
 20
14926.379632
 30
0.0
 11
18934.047190999961
 21
14944.375435000011
 31
0.0
  0
LINE
  5
40C5
  8
2-0
  6
CONTINUOUS
 62
     3
 10
18934.047190999961
 20
14944.375435000011
 30
0.0
 11
18904.049565999969
 21
14944.375435000011
 31
0.0
  0
LINE
  5
40C6
  8
2-0
  6
CONTINUOUS
 62
     3
 10
18934.047190999961
 20
14928.277990000001
 30
0.0
 11
18934.047190999961
 21
14934.27989000002
 31
0.0
  0
LINE
  5
40C7
  8
2-0
  6
CONTINUOUS
 62
     3
 10
18934.047190999961
 20
14934.27989000002
 30
0.0
 11
18904.049565999969
 21
14934.27989000002
 31
0.0
  0
LINE
  5
40C8
  8
2-0
  6
CONTINUOUS
 62
     3
 10
18904.049565999969
 20
14897.28070900001
 30
0.0
 11
18904.049565999969
 21
14934.27989000002
 31
0.0
  0
LINE
  5
40C9
  8
2-0
  6
CONTINUOUS
 62
     3
 10
18934.047190999961
 20
14897.28070900001
 30
0.0
 11
18904.049565999969
 21
14897.28070900001
 31
0.0
  0
LINE
  5
40CA
  8
2-0
  6
CONTINUOUS
 62
     3
 10
18934.047190999961
 20
14903.27766
 30
0.0
 11
18934.047190999961
 21
14897.28070900001
 31
0.0
  0
LINE
  5
40CB
  8
2-0
  6
CONTINUOUS
 62
     3
 10
18934.047190999961
 20
14887.179225
 30
0.0
 11
18904.049565999969
 21
14887.179225
 31
0.0
  0
LINE
  5
40CC
  8
2-0
  6
CONTINUOUS
 62
     3
 10
18934.047190999961
 20
14905.186906000001
 30
0.0
 11
18934.047190999961
 21
14887.179225
 31
0.0
  0
LINE
  5
40CD
  8
2-0
  6
CONTINUOUS
 62
     3
 10
18909.053788999969
 20
14905.186906000001
 30
0.0
 11
18934.047190999961
 21
14905.186906000001
 31
0.0
  0
LINE
  5
40CE
  8
2-0
  6
CONTINUOUS
 62
     3
 10
18909.053788999969
 20
14900.186642000001
 30
0.0
 11
18909.053788999969
 21
14905.186906000001
 31
0.0
  0
LINE
  5
40CF
  8
2-0
  6
CONTINUOUS
 62
     3
 10
18916.05138699996
 20
14900.186642000001
 30
0.0
 11
18909.053788999969
 21
14900.186642000001
 31
0.0
  0
LINE
  5
40D0
  8
2-0
  6
CONTINUOUS
 62
     3
 10
18904.049565999969
 20
14897.28070900001
 30
0.0
 11
18904.049565999969
 21
14934.27989000002
 31
0.0
  0
LINE
  5
40D3
  8
2-0
  6
CONTINUOUS
 62
     3
 10
18904.049565999969
 20
14944.375435000011
 30
0.0
 11
18904.049565999969
 21
15588.179225
 31
0.0
  0
LINE
  5
40D4
  8
2-0
  6
CONTINUOUS
 62
     3
 10
25526.044154999981
 20
14887.179225
 30
0.0
 11
25526.044154999981
 21
14590.57779499999
 31
0.0
  0
LINE
  5
40D5
  8
2-0
  6
CONTINUOUS
 62
     3
 10
25526.044154999981
 20
14934.27989000002
 30
0.0
 11
25526.044154999981
 21
14897.28070900001
 31
0.0
  0
TEXT
  5
41FC
  8
FILENAME
  6
CONTINUOUS
 10
28756.38095238095
 20
348.0
 30
0.0
 40
200.0
  1
＜VGC-3352-2-A_0.DXF ＞
  7
FILENAME
 72
     2
 11
32764.0
 21
348.0
 31
0.0
  0
LINE
  5
4201
  8
WAKUSEN-01
 10
868.00000000000193
 20
827.99999999999955
 30
0.0
 11
32764.000000000011
 21
827.99999999999943
 31
0.0
  0
LINE
  5
4202
  8
WAKUSEN-01
 10
868.00000000000193
 20
827.99999999999955
 30
0.0
 11
868.00000000000193
 21
22484.000000000011
 31
0.0
  0
LINE
  5
4203
  8
WAKUSEN-01
 10
32764.000000000011
 20
827.99999999999943
 30
0.0
 11
32764.000000000011
 21
22484.000000000011
 31
0.0
  0
LINE
  5
4204
  8
WAKUSEN-01
 10
20560.0
 20
827.99999999999716
 30
0.0
 11
20560.0
 21
2484.0
 31
0.0
  0
LINE
  5
4205
  8
WAKUSEN-02
 10
26868.0
 20
827.99999999999261
 30
0.0
 11
26868.0
 21
2484.0
 31
0.0
  0
ENDSEC
  0
EOF
