  0
SECTION
  2
HEADER
  9
$ACADVER
  1
AC1009
  9
$INSBASE
 10
0.0
 20
0.0
 30
0.0
  9
$EXTMIN
 10
867.99324330406671
 20
327.38164749855792
 30
-0.000000000000013
  9
$EXTMAX
 10
32765.33210850941
 20
22484.553276491992
 30
0.0000000000000023
  9
$LIMMIN
 10
0.0
 20
0.0
  9
$LIMMAX
 10
33600.0
 20
23760.0
  9
$ORTHOMODE
 70
     1
  9
$REGENMODE
 70
     1
  9
$FILLMODE
 70
     1
  9
$QTEXTMODE
 70
     0
  9
$MIRRTEXT
 70
     1
  9
$DRAGMODE
 70
     2
  9
$LTSCALE
 40
80.0
  9
$OSMODE
 70
  3071
  9
$ATTMODE
 70
     1
  9
$TEXTSIZE
 40
0.2
  9
$TRACEWID
 40
0.05
  9
$TEXTSTYLE
  7
00
  9
$CLAYER
  8
0
  9
$CELTYPE
  6
BYLAYER
  9
$CECOLOR
 62
   256
  9
$DIMSCALE
 40
80.0
  9
$DIMASZ
 40
3.0
  9
$DIMEXO
 40
1.0
  9
$DIMDLI
 40
0.38
  9
$DIMRND
 40
0.5
  9
$DIMDLE
 40
0.0
  9
$DIMEXE
 40
1.0
  9
$DIMTP
 40
0.0
  9
$DIMTM
 40
0.0
  9
$DIMTXT
 40
2.0
  9
$DIMCEN
 40
0.09
  9
$DIMTSZ
 40
0.0
  9
$DIMTOL
 70
     0
  9
$DIMLIM
 70
     0
  9
$DIMTIH
 70
     0
  9
$DIMTOH
 70
     0
  9
$DIMSE1
 70
     0
  9
$DIMSE2
 70
     0
  9
$DIMTAD
 70
     1
  9
$DIMZIN
 70
     8
  9
$DIMBLK
  1
DOTSMALL
  9
$DIMASO
 70
     1
  9
$DIMSHO
 70
     1
  9
$DIMPOST
  1

  9
$DIMAPOST
  1

  9
$DIMALT
 70
     0
  9
$DIMALTD
 70
     2
  9
$DIMALTF
 40
25.399999999999999
  9
$DIMLFAC
 40
1.0
  9
$DIMTOFL
 70
     1
  9
$DIMTVP
 40
0.0
  9
$DIMTIX
 70
     0
  9
$DIMSOXD
 70
     0
  9
$DIMSAH
 70
     0
  9
$DIMBLK1
  1

  9
$DIMBLK2
  1

  9
$DIMSTYLE
  2
SUNPOU
  9
$DIMCLRD
 70
     4
  9
$DIMCLRE
 70
     4
  9
$DIMCLRT
 70
     7
  9
$DIMTFAC
 40
1.0
  9
$DIMGAP
 40
1.0
  9
$LUNITS
 70
     2
  9
$LUPREC
 70
     4
  9
$SKETCHINC
 40
0.1
  9
$FILLETRAD
 40
0.0
  9
$AUNITS
 70
     0
  9
$AUPREC
 70
     0
  9
$MENU
  1
acad
  9
$ELEVATION
 40
0.0
  9
$PELEVATION
 40
0.0
  9
$THICKNESS
 40
0.0
  9
$LIMCHECK
 70
     0
  9
$BLIPMODE
 70
     1
  9
$CHAMFERA
 40
0.0
  9
$CHAMFERB
 40
0.0
  9
$SKPOLY
 70
     0
  9
$TDCREATE
 40
2311940.0749268518
  9
$TDUPDATE
 40
2458942.4262376968
  9
$TDINDWG
 40
0.0389089699
  9
$TDUSRTIMER
 40
0.0389082292
  9
$USRTIMER
 70
     1
  9
$ANGBASE
 50
0.0
  9
$ANGDIR
 70
     0
  9
$PDMODE
 70
     0
  9
$PDSIZE
 40
0.0
  9
$PLINEWID
 40
0.0
  9
$COORDS
 70
     1
  9
$SPLFRAME
 70
     0
  9
$SPLINETYPE
 70
     6
  9
$SPLINESEGS
 70
     8
  9
$ATTDIA
 70
     1
  9
$ATTREQ
 70
     1
  9
$HANDLING
 70
     1
  9
$HANDSEED
  5
427F
  9
$SURFTAB1
 70
     6
  9
$SURFTAB2
 70
     6
  9
$SURFTYPE
 70
     6
  9
$SURFU
 70
     6
  9
$SURFV
 70
     6
  9
$UCSNAME
  2

  9
$UCSORG
 10
0.0
 20
0.0
 30
0.0
  9
$UCSXDIR
 10
1.0
 20
0.0
 30
0.0
  9
$UCSYDIR
 10
0.0
 20
1.0
 30
0.0
  9
$PUCSNAME
  2

  9
$PUCSORG
 10
0.0
 20
0.0
 30
0.0
  9
$PUCSXDIR
 10
1.0
 20
0.0
 30
0.0
  9
$PUCSYDIR
 10
0.0
 20
1.0
 30
0.0
  9
$USERI1
 70
     0
  9
$USERI2
 70
     0
  9
$USERI3
 70
     0
  9
$USERI4
 70
     0
  9
$USERI5
 70
     0
  9
$USERR1
 40
0.0
  9
$USERR2
 40
0.0
  9
$USERR3
 40
0.0
  9
$USERR4
 40
0.0
  9
$USERR5
 40
0.0
  9
$WORLDVIEW
 70
     1
  9
$SHADEDGE
 70
     3
  9
$SHADEDIF
 70
    70
  9
$TILEMODE
 70
     1
  9
$MAXACTVP
 70
    16
  9
$PLIMCHECK
 70
     0
  9
$PEXTMIN
 10
1.0000000000000000E+020
 20
1.0000000000000000E+020
 30
1.0000000000000000E+020
  9
$PEXTMAX
 10
-1.0000000000000000E+020
 20
-1.0000000000000000E+020
 30
-1.0000000000000000E+020
  9
$PLIMMIN
 10
0.0
 20
0.0
  9
$PLIMMAX
 10
12.0
 20
9.0
  9
$UNITMODE
 70
     0
  9
$VISRETAIN
 70
     0
  9
$PLINEGEN
 70
     1
  9
$PSLTSCALE
 70
     0
  0
ENDSEC
  0
SECTION
  2
TABLES
  0
TABLE
  2
VPORT
 70
     1
  0
VPORT
  2
*ACTIVE
 70
     0
 10
0.0
 20
0.0
 11
1.0
 21
1.0
 12
16800.0
 22
11880.0
 13
0.0
 23
0.0
 14
1.0
 24
1.0
 15
0.0
 25
0.0
 16
0.0
 26
0.0
 36
1.0
 17
0.0
 27
0.0
 37
0.0
 40
23981.023255813951
 41
2.195652173913043
 42
50.0
 43
0.0
 44
0.0
 50
0.0
 51
0.0
 71
     0
 72
 10000
 73
     1
 74
     1
 75
     0
 76
     0
 77
     0
 78
     0
  0
ENDTAB
  0
TABLE
  2
LTYPE
 70
     3
  0
LTYPE
  2
CONTINUOUS
 70
     0
  3
Solid line
 72
    65
 73
     0
 40
0.0
  0
LTYPE
  2
DASHED3
 70
     0
  3
------  ------  ------  ------  
 72
    65
 73
     2
 40
5.0
 49
3.75
 49
-1.25
  0
LTYPE
  2
CENTER2
 70
     0
  3
----------  --  ----------  --  
 72
    65
 73
     4
 40
20.0
 49
12.5
 49
-2.5
 49
2.5
 49
-2.5
  0
ENDTAB
  0
TABLE
  2
LAYER
 70
    16
  0
LAYER
  2
0
 70
     0
 62
     7
  6
CONTINUOUS
  0
LAYER
  2
SUNPOU
 70
     0
 62
     4
  6
CONTINUOUS
  0
LAYER
  2
0-1
 70
     0
 62
     7
  6
CONTINUOUS
  0
LAYER
  2
0-2
 70
     0
 62
     7
  6
CONTINUOUS
  0
LAYER
  2
0-6
 70
     0
 62
     7
  6
CONTINUOUS
  0
LAYER
  2
2-0
 70
     0
 62
     7
  6
CONTINUOUS
  0
LAYER
  2
0-5
 70
     0
 62
     7
  6
CONTINUOUS
  0
LAYER
  2
YODOROGO
 70
     0
 62
   130
  6
CONTINUOUS
  0
LAYER
  2
WAKUSEN-01
 70
     0
 62
    50
  6
CONTINUOUS
  0
LAYER
  2
WAKUSEN-02
 70
     0
 62
   130
  6
CONTINUOUS
  0
LAYER
  2
WAKUMOJI-01
 70
     0
 62
   130
  6
CONTINUOUS
  0
LAYER
  2
FILENAME
 70
     0
 62
     7
  6
CONTINUOUS
  0
LAYER
  2
NAME
 70
     0
 62
    20
  6
CONTINUOUS
  0
LAYER
  2
0-4
 70
     0
 62
     7
  6
CONTINUOUS
  0
ENDTAB
  0
TABLE
  2
STYLE
 70
     5
  0
STYLE
  2
STANDARD
 70
     0
 40
0.0
 41
1.0
 50
0.0
 71
     0
 42
0.0
  3
txt
  4
BIGFONT
  0
STYLE
  2
00
 70
     0
 40
0.0
 41
0.6666666666666666
 50
0.0
 71
     0
 42
0.2
  3
ROMANS
  4
BIGFONT
  0
STYLE
  2
01
 70
     0
 40
3.0
 41
1.0
 50
0.0
 71
     0
 42
0.2
  3
ROMANS
  4
BIGFONT
  0
STYLE
  2
WAKUMOJI
 70
     0
 40
3.0
 41
1.0
 50
0.0
 71
     0
 42
3.0
  3
SIMPLEX
  4
BIGFONT
  0
STYLE
  2
FILENAME
 70
     0
 40
200.0
 41
1.0
 50
0.0
 71
     0
 42
200.0
  3
romans
  4
bigfont
  0
ENDTAB
  0
TABLE
  2
VIEW
 70
     0
  0
ENDTAB
  0
TABLE
  2
UCS
 70
     0
  0
ENDTAB
  0
TABLE
  2
APPID
 70
    13
  0
APPID
  2
ACAD
 70
     0
  0
APPID
  2
ACADANNOTATIVE
 70
     0
  0
APPID
  2
ACAD_PSEXT
 70
     0
  0
APPID
  2
DCO15
 70
     0
  0
APPID
  2
ACAD_MLEADERVER
 70
     0
  0
APPID
  2
AUTOCAD_POSTSCRIPT_FIGURE
 70
     0
  0
APPID
  2
ACAD_EXEMPT_FROM_CAD_STANDARDS
 70
     0
  0
APPID
  2
ACAD_DSTYLE_DIMJAG
 70
     0
  0
APPID
  2
ACAD_DSTYLE_DIMTALN
 70
     0
  0
APPID
  2
ACAD_DSTYLE_DIM_LINETYPE
 70
     0
  0
APPID
  2
ACAD_DSTYLE_DIM_EXT1_LINETYPE
 70
     0
  0
APPID
  2
ACAD_DSTYLE_DIM_EXT2_LINETYPE
 70
     0
  0
APPID
  2
ACAD_NAV_VCDISPLAY
 70
     0
  0
ENDTAB
  0
TABLE
  2
DIMSTYLE
 70
     2
  0
DIMSTYLE
  2
SUNPOU
 70
     0
  3

  4

  5

  6

  7

 40
80.0
 41
3.0
 42
1.0
 43
0.38
 44
1.0
 45
0.5
 46
0.0
 47
0.0
 48
0.0
140
2.0
141
0.09
142
0.0
143
25.399999999999999
144
1.0
145
0.0
146
1.0
147
1.0
 71
     0
 72
     0
 73
     0
 74
     0
 75
     0
 76
     0
 77
     1
 78
     8
170
     0
171
     2
172
     1
173
     0
174
     0
175
     0
176
     4
177
     4
178
     7
  0
ENDTAB
  0
ENDSEC
  0
SECTION
  2
BLOCKS
  0
BLOCK
  8
0
  2
$MODEL_SPACE
 70
     0
 10
0.0
 20
0.0
 30
0.0
  3
$MODEL_SPACE
  1

  0
ENDBLK
  5
368D
  8
0
  0
BLOCK
 67
     1
  8
0
  2
$PAPER_SPACE
 70
     0
 10
0.0
 20
0.0
 30
0.0
  3
$PAPER_SPACE
  1

  0
ENDBLK
  5
3689
 67
     1
  8
0
  0
BLOCK
  8
0
  2
_DOTSMALL
 70
     0
 10
0.0
 20
0.0
 30
0.0
  3
_DOTSMALL
  1

  0
POLYLINE
  5
36BB
  8
0
  6
BYBLOCK
 62
     0
 66
     1
 10
0.0
 20
0.0
 30
0.0
 70
     1
 40
0.5
 41
0.5
  0
VERTEX
  5
4247
  8
0
  6
BYBLOCK
 62
     0
 10
-0.0625
 20
0.0
 30
0.0
 42
1.0
  0
VERTEX
  5
4248
  8
0
  6
BYBLOCK
 62
     0
 10
0.0625
 20
0.0
 30
0.0
 42
1.0
  0
SEQEND
  5
4249
  8
0
  6
BYBLOCK
 62
     0
  0
ENDBLK
  5
36BF
  8
0
  0
ENDSEC
  0
SECTION
  2
ENTITIES
  0
LINE
  5
36C0
  8
0-2
  6
CONTINUOUS
 62
     3
 10
8258.8532920000143
 20
19583.519870999979
 30
0.0
 11
8258.8532920000143
 21
20056.228908000001
 31
0.0
  0
LINE
  5
36C1
  8
0-2
  6
CONTINUOUS
 62
     3
 10
8221.8541100000166
 20
19604.653212000001
 30
0.0
 11
8221.8541100000166
 21
20056.228908000001
 31
0.0
  0
LINE
  5
36C2
  8
0-2
  6
CONTINUOUS
 62
     3
 10
8132.3541360000099
 20
17007.731124999991
 30
0.0
 11
12385.755187000021
 21
17007.731124999991
 31
0.0
  0
LINE
  5
36C3
  8
0-2
  6
CONTINUOUS
 62
     3
 10
8182.3537670000142
 20
13544.73055799999
 30
0.0
 11
8182.3537670000142
 21
20056.228908000001
 31
0.0
  0
LINE
  5
36C4
  8
0-2
  6
CONTINUOUS
 62
     3
 10
8046.8517610000108
 20
13512.731639999991
 30
0.0
 11
8046.8517610000108
 21
20104.228274999969
 31
0.0
  0
LINE
  5
36C5
  8
0-2
  6
CONTINUOUS
 62
     3
 10
8421.8508110000112
 20
19490.419152999999
 30
0.0
 11
8421.8508110000112
 21
20056.228908000001
 31
0.0
  0
LINE
  5
36C6
  8
0-2
  6
CONTINUOUS
 62
     3
 10
8468.8560370000287
 20
19469.289771999989
 30
0.0
 11
8468.8560370000287
 21
20056.228908000001
 31
0.0
  0
LINE
  5
36C7
  8
0-2
  6
CONTINUOUS
 62
     3
 10
8631.8575150000288
 20
19376.189053999991
 30
0.0
 11
8631.8575150000288
 21
20056.228908000001
 31
0.0
  0
LINE
  5
36C8
  8
0-2
  6
CONTINUOUS
 62
     3
 10
8668.8566970000302
 20
19355.055713999998
 30
0.0
 11
8668.8566970000302
 21
20056.228908000001
 31
0.0
  0
LINE
  5
36C9
  8
0-2
  6
CONTINUOUS
 62
     3
 10
8120.3532650000097
 20
20104.228274999969
 30
0.0
 11
13980.35500700002
 21
20104.228274999969
 31
0.0
  0
LINE
  5
36CA
  8
0-2
  6
CONTINUOUS
 62
     3
 10
10668.15660700001
 20
18213.142706999992
 30
0.0
 11
10830.393991000021
 21
18403.350687999991
 31
0.0
  0
LINE
  5
36CB
  8
0-2
  6
CONTINUOUS
 62
     3
 10
11266.74719000002
 20
17373.985189999999
 30
0.0
 11
11428.98457400002
 21
17564.193171999988
 31
0.0
  0
LINE
  5
36CC
  8
0-2
  6
CONTINUOUS
 62
     3
 10
11266.74719000002
 20
17373.985189999999
 30
0.0
 11
10830.393991000021
 21
18403.350687999991
 31
0.0
  0
LINE
  5
36CD
  8
0-2
  6
CONTINUOUS
 62
     3
 10
8132.3541360000099
 20
16928.730518
 30
0.0
 11
12524.07008900001
 21
16928.730518
 31
0.0
  0
LINE
  5
36CE
  8
0-2
  6
CONTINUOUS
 62
     3
 10
8089.8518930000137
 20
13668.732550000001
 30
0.0
 11
14010.852421000011
 21
13668.732550000001
 31
0.0
  0
LINE
  5
36CF
  8
0-2
  6
CONTINUOUS
 62
     3
 10
8132.3541360000099
 20
13747.732168
 30
0.0
 11
13968.354136000011
 21
13747.732168
 31
0.0
  0
LINE
  5
36D0
  8
0-2
  6
CONTINUOUS
 62
     3
 10
8046.8517610000108
 20
13512.731639999991
 30
0.0
 11
14053.854532000019
 21
13512.731639999991
 31
0.0
  0
LINE
  5
36D1
  8
0-2
  6
CONTINUOUS
 62
     3
 10
8046.8517610000108
 20
13544.73055799999
 30
0.0
 11
14053.854532000019
 21
13544.73055799999
 31
0.0
  0
LINE
  5
36D2
  8
0-2
  6
CONTINUOUS
 62
     3
 10
8132.3541360000099
 20
13668.732550000001
 30
0.0
 11
8132.3541360000099
 21
19655.772300000001
 31
0.0
  0
LINE
  5
36D3
  8
0-2
  6
CONTINUOUS
 62
     3
 10
8089.8518930000137
 20
13668.732550000001
 30
0.0
 11
8089.8518930000137
 21
19680.045156
 31
0.0
  0
LINE
  5
36D4
  8
0-2
  6
CONTINUOUS
 62
     3
 10
8831.8561950000258
 20
19261.958954999991
 30
0.0
 11
8831.8561950000258
 21
20056.228908000001
 31
0.0
  0
LINE
  5
36D5
  8
0-2
  6
CONTINUOUS
 62
     3
 10
8868.8573570000262
 20
19240.825615000002
 30
0.0
 11
8868.8573570000262
 21
20056.228908000001
 31
0.0
  0
LINE
  5
36D6
  8
0-2
  6
CONTINUOUS
 62
     3
 10
9031.8568550000309
 20
19147.724896999989
 30
0.0
 11
9031.8568550000309
 21
20056.228908000001
 31
0.0
  0
LINE
  5
36D7
  8
0-2
  6
CONTINUOUS
 62
     3
 10
9431.8561950000276
 20
18919.264697999992
 30
0.0
 11
9431.8561950000276
 21
20056.228908000001
 31
0.0
  0
LINE
  5
36D8
  8
0-2
  6
CONTINUOUS
 62
     3
 10
9468.8573570000317
 20
18898.131357999991
 30
0.0
 11
9468.8573570000317
 21
20056.228908000001
 31
0.0
  0
LINE
  5
36D9
  8
0-2
  6
CONTINUOUS
 62
     3
 10
9631.8568550000273
 20
18805.030640000001
 30
0.0
 11
9631.8568550000273
 21
20056.228908000001
 31
0.0
  0
LINE
  5
36DA
  8
0-2
  6
CONTINUOUS
 62
     3
 10
9668.8560370000268
 20
18783.901258999998
 30
0.0
 11
9668.8560370000268
 21
20056.228908000001
 31
0.0
  0
LINE
  5
36DB
  8
0-2
  6
CONTINUOUS
 62
     3
 10
9068.8560370000287
 20
19126.591555999988
 30
0.0
 11
9068.8560370000287
 21
20056.228908000001
 31
0.0
  0
LINE
  5
36DC
  8
0-2
  6
CONTINUOUS
 62
     3
 10
9231.8575150000288
 20
19033.49875599999
 30
0.0
 11
9231.8575150000288
 21
20056.228908000001
 31
0.0
  0
LINE
  5
36DD
  8
0-2
  6
CONTINUOUS
 62
     3
 10
9268.8566970000247
 20
19012.361456999999
 30
0.0
 11
9268.8566970000247
 21
20056.228908000001
 31
0.0
  0
LINE
  5
36DE
  8
0-2
  6
CONTINUOUS
 62
     3
 10
8202.3518930000137
 20
13705.230913999991
 30
0.0
 11
10980.356380000019
 21
16973.730914
 31
0.0
  0
LINE
  5
36DF
  8
0-2
  6
CONTINUOUS
 62
     3
 10
10980.356380000019
 20
13705.230913999991
 30
0.0
 11
8202.3518930000137
 21
16973.730914
 31
0.0
  0
LINE
  5
36E0
  8
0-2
  6
CONTINUOUS
 62
     3
 10
13898.35440000002
 20
13705.230913999991
 30
0.0
 11
11120.35585200003
 21
16973.730914
 31
0.0
  0
LINE
  5
36E1
  8
0-2
  6
CONTINUOUS
 62
     3
 10
14010.852421000011
 20
13668.732550000001
 30
0.0
 11
14010.852421000011
 21
16073.191494999999
 31
0.0
  0
LINE
  5
36E2
  8
0-2
  6
CONTINUOUS
 62
     3
 10
13968.354136000011
 20
13668.732550000001
 30
0.0
 11
13968.354136000011
 21
16094.73261599999
 31
0.0
  0
LINE
  5
36E3
  8
0-2
  6
CONTINUOUS
 62
     3
 10
14053.854532000019
 20
13512.731639999991
 30
0.0
 11
14053.854532000019
 21
20104.228274999969
 31
0.0
  0
LINE
  5
36E4
  8
0-2
  6
CONTINUOUS
 62
     3
 10
13918.35648500002
 20
13544.73055799999
 30
0.0
 11
13918.35648500002
 21
20056.228908000001
 31
0.0
  0
LINE
  5
36E5
  8
0-2
  6
CONTINUOUS
 62
     3
 10
10668.15660700001
 20
18213.142706999992
 30
0.0
 11
7898.6561310000079
 21
19789.247277999992
 31
0.0
  0
LINE
  5
36E6
  8
0-2
  6
CONTINUOUS
 62
     3
 10
10668.85735700001
 20
18213.966187000002
 30
0.0
 11
10668.85735700001
 21
20056.228908000001
 31
0.0
  0
LINE
  5
36E7
  8
0-2
  6
CONTINUOUS
 62
     3
 10
10631.85619500002
 20
18233.87618499999
 30
0.0
 11
10631.85619500002
 21
20056.228908000001
 31
0.0
  0
LINE
  5
36E8
  8
0-2
  6
CONTINUOUS
 62
     3
 10
10468.858676000031
 20
18326.97294399999
 30
0.0
 11
10468.858676000031
 21
20056.228908000001
 31
0.0
  0
LINE
  5
36E9
  8
0-2
  6
CONTINUOUS
 62
     3
 10
10431.857515000031
 20
18348.106284000001
 30
0.0
 11
10431.857515000031
 21
20056.228908000001
 31
0.0
  0
LINE
  5
36EA
  8
0-2
  6
CONTINUOUS
 62
     3
 10
10268.85603700002
 20
18441.207001999988
 30
0.0
 11
10268.85603700002
 21
20056.228908000001
 31
0.0
  0
LINE
  5
36EB
  8
0-2
  6
CONTINUOUS
 62
     3
 10
10231.85685500002
 20
18462.336383000002
 30
0.0
 11
10231.85685500002
 21
20056.228908000001
 31
0.0
  0
LINE
  5
36EC
  8
0-2
  6
CONTINUOUS
 62
     3
 10
10068.857357000021
 20
18555.437101
 30
0.0
 11
10068.857357000021
 21
20056.228908000001
 31
0.0
  0
LINE
  5
36ED
  8
0-2
  6
CONTINUOUS
 62
     3
 10
10031.85619500002
 20
18576.570440999989
 30
0.0
 11
10031.85619500002
 21
20056.228908000001
 31
0.0
  0
LINE
  5
36EE
  8
0-2
  6
CONTINUOUS
 62
     3
 10
9868.8566970000338
 20
18669.667199999989
 30
0.0
 11
9868.8566970000338
 21
20056.228908000001
 31
0.0
  0
LINE
  5
36EF
  8
0-2
  6
CONTINUOUS
 62
     3
 10
9831.8575150000288
 20
18690.804499999991
 30
0.0
 11
9831.8575150000288
 21
20056.228908000001
 31
0.0
  0
LINE
  5
36F0
  8
0-2
  6
CONTINUOUS
 62
     3
 10
10831.85685500002
 20
18399.894448999999
 30
0.0
 11
10831.85685500002
 21
20056.228908000001
 31
0.0
  0
LINE
  5
36F1
  8
0-2
  6
CONTINUOUS
 62
     3
 10
10868.85603700002
 20
18312.61351599999
 30
0.0
 11
10868.85603700002
 21
20056.228908000001
 31
0.0
  0
LINE
  5
36F2
  8
0-2
  6
CONTINUOUS
 62
     3
 10
11031.857515000031
 20
17928.095989999991
 30
0.0
 11
11031.857515000031
 21
20056.228908000001
 31
0.0
  0
LINE
  5
36F3
  8
0-2
  6
CONTINUOUS
 62
     3
 10
11068.858676000031
 20
17840.815057
 30
0.0
 11
11068.858676000031
 21
20056.228908000001
 31
0.0
  0
LINE
  5
36F4
  8
0-2
  6
CONTINUOUS
 62
     3
 10
11231.85619500002
 20
17456.297531999979
 30
0.0
 11
11231.85619500002
 21
20056.228908000001
 31
0.0
  0
LINE
  5
36F5
  8
0-2
  6
CONTINUOUS
 62
     3
 10
11268.85735700003
 20
17376.455629
 30
0.0
 11
11268.85735700003
 21
20056.228908000001
 31
0.0
  0
LINE
  5
36F6
  8
0-2
  6
CONTINUOUS
 62
     3
 10
11431.85685500002
 20
17562.55413
 30
0.0
 11
11431.85685500002
 21
20056.228908000001
 31
0.0
  0
LINE
  5
36F7
  8
0-2
  6
CONTINUOUS
 62
     3
 10
11468.85603700001
 20
17541.420789999971
 30
0.0
 11
11468.85603700001
 21
20056.228908000001
 31
0.0
  0
LINE
  5
36F8
  8
0-2
  6
CONTINUOUS
 62
     3
 10
11631.857515000031
 20
17448.324031
 30
0.0
 11
11631.857515000031
 21
20056.228908000001
 31
0.0
  0
LINE
  5
36F9
  8
0-2
  6
CONTINUOUS
 62
     3
 10
11668.858676000031
 20
17427.190691
 30
0.0
 11
11668.858676000031
 21
20056.228908000001
 31
0.0
  0
LINE
  5
36FA
  8
0-2
  6
CONTINUOUS
 62
     3
 10
13668.85735700003
 20
16274.87771499999
 30
0.0
 11
13668.85735700003
 21
20056.228908000001
 31
0.0
  0
LINE
  5
36FB
  8
0-2
  6
CONTINUOUS
 62
     3
 10
13631.85619500002
 20
16296.011055000001
 30
0.0
 11
13631.85619500002
 21
20056.228908000001
 31
0.0
  0
LINE
  5
36FC
  8
0-2
  6
CONTINUOUS
 62
     3
 10
13468.85669700003
 20
16389.109794
 30
0.0
 11
13468.85669700003
 21
20056.228908000001
 31
0.0
  0
LINE
  5
36FD
  8
0-2
  6
CONTINUOUS
 62
     3
 10
13431.857515000031
 20
16410.239174999992
 30
0.0
 11
13431.857515000031
 21
20056.228908000001
 31
0.0
  0
LINE
  5
36FE
  8
0-2
  6
CONTINUOUS
 62
     3
 10
13268.85603700002
 20
16503.339893
 30
0.0
 11
13268.85603700002
 21
20056.228908000001
 31
0.0
  0
LINE
  5
36FF
  8
0-2
  6
CONTINUOUS
 62
     3
 10
13231.85487600001
 20
16524.473233000001
 30
0.0
 11
13231.85487600001
 21
20056.228908000001
 31
0.0
  0
LINE
  5
3700
  8
0-2
  6
CONTINUOUS
 62
     3
 10
13068.85735700001
 20
16617.571972000002
 30
0.0
 11
13068.85735700001
 21
20056.228908000001
 31
0.0
  0
LINE
  5
3701
  8
0-2
  6
CONTINUOUS
 62
     3
 10
13031.85619500002
 20
16638.705311999991
 30
0.0
 11
13031.85619500002
 21
20056.228908000001
 31
0.0
  0
LINE
  5
3702
  8
0-2
  6
CONTINUOUS
 62
     3
 10
12868.858676000031
 20
16731.802070999991
 30
0.0
 11
12868.858676000031
 21
20056.228908000001
 31
0.0
  0
LINE
  5
3703
  8
0-2
  6
CONTINUOUS
 62
     3
 10
12831.857515000031
 20
16752.935410999991
 30
0.0
 11
12831.857515000031
 21
20056.228908000001
 31
0.0
  0
LINE
  5
3704
  8
0-2
  6
CONTINUOUS
 62
     3
 10
11831.85619500002
 20
17334.089972999991
 30
0.0
 11
11831.85619500002
 21
20056.228908000001
 31
0.0
  0
LINE
  5
3705
  8
0-2
  6
CONTINUOUS
 62
     3
 10
11868.85735700003
 20
17312.960590999988
 30
0.0
 11
11868.85735700003
 21
20056.228908000001
 31
0.0
  0
LINE
  5
3706
  8
0-2
  6
CONTINUOUS
 62
     3
 10
12031.85685500002
 20
17209.859767000002
 30
0.0
 11
12031.85685500002
 21
20056.228908000001
 31
0.0
  0
LINE
  5
3707
  8
0-2
  6
CONTINUOUS
 62
     3
 10
12068.85603700001
 20
17188.726427000001
 30
0.0
 11
12068.85603700001
 21
20056.228908000001
 31
0.0
  0
LINE
  5
3708
  8
0-2
  6
CONTINUOUS
 62
     3
 10
12231.857515000031
 20
17095.629668000001
 30
0.0
 11
12231.857515000031
 21
20056.228908000001
 31
0.0
  0
LINE
  5
3709
  8
0-2
  6
CONTINUOUS
 62
     3
 10
12268.858676000031
 20
17074.500286999999
 30
0.0
 11
12268.858676000031
 21
20056.228908000001
 31
0.0
  0
LINE
  5
370A
  8
0-2
  6
CONTINUOUS
 62
     3
 10
12431.85619500002
 20
16981.399569000001
 30
0.0
 11
12431.85619500002
 21
20056.228908000001
 31
0.0
  0
LINE
  5
370B
  8
0-2
  6
CONTINUOUS
 62
     3
 10
12468.857357000021
 20
16960.266229000001
 30
0.0
 11
12468.857357000021
 21
20056.228908000001
 31
0.0
  0
LINE
  5
370C
  8
0-2
  6
CONTINUOUS
 62
     3
 10
12631.85685500002
 20
16867.16749
 30
0.0
 11
12631.85685500002
 21
20056.228908000001
 31
0.0
  0
LINE
  5
370D
  8
0-2
  6
CONTINUOUS
 62
     3
 10
12668.85603700002
 20
16846.034149999981
 30
0.0
 11
12668.85603700002
 21
20056.228908000001
 31
0.0
  0
LINE
  5
370E
  8
0-2
  6
CONTINUOUS
 62
     3
 10
13841.85696100001
 20
16181.776997000001
 30
0.0
 11
13841.85696100001
 21
20056.228908000001
 31
0.0
  0
LINE
  5
370F
  8
0-2
  6
CONTINUOUS
 62
     3
 10
13878.85416300002
 20
16160.64563599999
 30
0.0
 11
13878.85416300002
 21
20056.228908000001
 31
0.0
  0
LINE
  5
3710
  8
0-2
  6
CONTINUOUS
 62
     3
 10
14198.47911000002
 20
15978.091463000001
 30
0.0
 11
11428.98457400002
 21
17564.193171999988
 31
0.0
  0
LINE
  5
3711
  8
0-2
  6
CONTINUOUS
 62
     3
 10
11120.35585200003
 20
13705.230913999991
 30
0.0
 11
13416.88443600002
 21
16418.794653999968
 31
0.0
  0
LINE
  5
3712
  8
0-2
  6
CONTINUOUS
 62
     3
 10
8787.9267190000319
 20
19287.047373000001
 30
0.0
 11
10980.356380000019
 21
16973.730914
 31
0.0
  0
LINE
  5
3713
  8
0-2
  6
CONTINUOUS
 62
     3
 10
9835.3493860000326
 20
18688.809144999999
 30
0.0
 11
8202.3518930000137
 21
16973.730914
 31
0.0
  0
LINE
  5
3714
  8
0-2
  6
CONTINUOUS
 62
     3
 10
11586.98182900002
 20
17473.95483799998
 30
0.0
 11
11120.35585200003
 21
16973.730914
 31
0.0
  0
LINE
  5
3715
  8
0-2
  6
CONTINUOUS
 62
     3
 10
8064.8535030000139
 20
20056.228908000008
 30
0.0
 11
14035.85674900002
 21
20056.228908000008
 31
0.0
  0
LINE
  5
3716
  8
0-2
  6
CONTINUOUS
 62
     3
 10
8064.8535030000139
 20
20074.23064999998
 30
0.0
 11
8115.353001000014
 21
20074.23064999998
 31
0.0
  0
LINE
  5
3717
  8
0-2
  6
CONTINUOUS
 62
     3
 10
8064.8535030000139
 20
20096.729858999988
 30
0.0
 11
8046.8517610000108
 21
20096.729858999988
 31
0.0
  0
LINE
  5
3718
  8
0-2
  6
CONTINUOUS
 62
     3
 10
8115.353001000014
 20
20114.228803000002
 30
0.0
 11
8051.8520250000138
 21
20114.228803000002
 31
0.0
  0
LINE
  5
3719
  8
0-2
  6
CONTINUOUS
 62
     3
 10
8046.8517610000108
 20
20109.228538999989
 30
0.0
 11
8046.8517610000108
 21
20074.23064999998
 31
0.0
  0
LINE
  5
371A
  8
0-2
  6
CONTINUOUS
 62
     3
 10
8120.3532650000097
 20
20079.230913999989
 30
0.0
 11
8120.3532650000097
 21
20109.228538999989
 31
0.0
  0
LINE
  5
371B
  8
0-2
  6
CONTINUOUS
 62
     3
 10
8064.8535030000139
 20
19692.611140000001
 30
0.0
 11
8064.8535030000139
 21
20096.729858999988
 31
0.0
  0
LINE
  5
371C
  8
0-2
  6
CONTINUOUS
 62
     3
 10
13985.35527100002
 20
20114.228803000002
 30
0.0
 11
14048.85426800001
 21
20114.228803000002
 31
0.0
  0
LINE
  5
371D
  8
0-2
  6
CONTINUOUS
 62
     3
 10
14053.854532000019
 20
20109.228538999989
 30
0.0
 11
14053.854532000019
 21
20074.23064999998
 31
0.0
  0
LINE
  5
371E
  8
0-2
  6
CONTINUOUS
 62
     3
 10
14035.85674900002
 20
20074.23064999998
 30
0.0
 11
13985.35527100002
 21
20074.23064999998
 31
0.0
  0
LINE
  5
371F
  8
0-2
  6
CONTINUOUS
 62
     3
 10
13980.35500700002
 20
20079.230913999989
 30
0.0
 11
13980.35500700002
 21
20109.228538999989
 31
0.0
  0
LINE
  5
3720
  8
0-2
  6
CONTINUOUS
 62
     3
 10
14035.85674900002
 20
20096.729858999988
 30
0.0
 11
14053.854532000019
 21
20096.729858999988
 31
0.0
  0
LINE
  5
3721
  8
0-2
  6
CONTINUOUS
 62
     3
 10
14035.85674900002
 20
16072.68869699999
 30
0.0
 11
14035.85674900002
 21
20096.729858999988
 31
0.0
  0
LINE
  5
3722
  8
0-2
  6
CONTINUOUS
 62
     3
 10
10993.35587800002
 20
13747.732168
 30
0.0
 11
10993.35587800002
 21
16928.730518
 31
0.0
  0
LINE
  5
3723
  8
0-2
  6
CONTINUOUS
 62
     3
 10
11107.35437400002
 20
13747.732168
 30
0.0
 11
11107.35437400002
 21
16928.730518
 31
0.0
  0
LINE
  5
3724
  8
0-2
  6
CONTINUOUS
 62
     3
 10
11050.354136000011
 20
13747.732168
 30
0.0
 11
11050.354136000011
 21
13668.732550000001
 31
0.0
  0
LINE
  5
3725
  8
0-2
  6
CONTINUOUS
 62
     3
 10
11050.354136000011
 20
13747.732168
 30
0.0
 11
11050.354136000011
 21
16928.730518
 31
0.0
  0
LINE
  5
3726
  8
0-2
  6
CONTINUOUS
 62
     3
 10
10993.35587800002
 20
17007.731124999991
 30
0.0
 11
10993.35587800002
 21
18018.916302999991
 31
0.0
  0
LINE
  5
3727
  8
0-2
  6
CONTINUOUS
 62
     3
 10
11107.35437400002
 20
17007.731124999991
 30
0.0
 11
11107.35437400002
 21
17749.990785999991
 31
0.0
  0
LINE
  5
3728
  8
0-2
  6
CONTINUOUS
 62
     3
 10
11050.354136000011
 20
17007.731124999991
 30
0.0
 11
11050.354136000011
 21
17884.455524000001
 31
0.0
  0
LINE
  5
3729
  8
0-2
  6
CONTINUOUS
 62
     3
 10
11050.354136000011
 20
16928.730518
 30
0.0
 11
11050.354136000011
 21
17007.731124999991
 31
0.0
  0
LINE
  5
372A
  8
0-2
  6
CONTINUOUS
 62
     3
 10
10965.357568000019
 20
20056.228908000001
 30
0.0
 11
10965.357568000019
 21
20104.228274999969
 31
0.0
  0
LINE
  5
372B
  8
0-2
  6
CONTINUOUS
 62
     3
 10
11050.354136000011
 20
13668.732550000001
 30
0.0
 11
11050.354136000011
 21
13512.731639999991
 31
0.0
  0
LINE
  5
372C
  8
0-6
  6
CONTINUOUS
 62
     6
 10
9923.0143460000309
 20
17161.55951399999
 30
0.0
 11
9861.867017000026
 21
17333.325878
 31
0.0
  0
LINE
  5
372D
  8
0-6
  6
CONTINUOUS
 62
     6
 10
9813.1787780000323
 20
19831.953411999999
 30
0.0
 11
9957.0818600000293
 21
20344.229067
 31
0.0
  0
LINE
  5
372E
  8
0-6
  6
CONTINUOUS
 62
     6
 10
9345.6679560000266
 20
19937.730967
 30
0.0
 11
9051.7371600000261
 21
20344.229067
 31
0.0
  0
LINE
  5
372F
  8
0-6
  6
CONTINUOUS
 62
     6
 10
9957.0818600000293
 20
20344.229067
 30
0.0
 11
10474.76951900001
 21
20344.229067
 31
0.0
  0
LINE
  5
3730
  8
0-6
  6
CONTINUOUS
 62
     6
 10
9346.7685690000308
 20
20234.132202000001
 30
0.0
 11
9137.5750240000252
 21
20596.463283000001
 31
0.0
  0
LINE
  5
3731
  8
0-6
  6
CONTINUOUS
 62
     6
 10
9063.5707220000259
 20
20724.648989000001
 30
0.0
 11
8867.5112840000238
 21
21064.231441999978
 31
0.0
  0
LINE
  5
3732
  8
0-6
  6
CONTINUOUS
 62
     6
 10
8867.5112840000238
 20
21064.231441999978
 30
0.0
 11
9709.9488630000287
 21
21064.231441999978
 31
0.0
  0
LINE
  5
3733
  8
0-6
  6
CONTINUOUS
 62
     6
 10
8241.7344150000117
 20
20344.229067
 30
0.0
 11
9051.7371600000261
 21
20344.229067
 31
0.0
  0
LINE
  5
3734
  8
0-6
  6
CONTINUOUS
 62
     6
 10
9061.2982350000293
 20
17333.325878
 30
0.0
 11
9861.867017000026
 21
17333.325878
 31
0.0
  0
LINE
  5
3735
  8
0-6
  6
CONTINUOUS
 62
     6
 10
8296.8798430000115
 20
18345.334957999999
 30
0.0
 11
8821.9922540000262
 21
18345.334957999999
 31
0.0
  0
LINE
  5
3736
  8
0-6
  6
CONTINUOUS
 62
     6
 10
8942.7389290000265
 20
13899.62161799999
 30
0.0
 11
9025.6233510000238
 21
14087.05934199999
 31
0.0
  0
LINE
  5
3737
  8
0-6
  6
CONTINUOUS
 62
     6
 10
9025.6233510000238
 20
14087.05934199999
 30
0.0
 11
9825.6259900000277
 21
14087.05934199999
 31
0.0
  0
LINE
  5
3738
  8
0-6
  6
CONTINUOUS
 62
     6
 10
9933.1494810000295
 20
12712.731970000001
 30
0.0
 11
10795.72866100001
 21
12712.731970000001
 31
0.0
  0
LINE
  5
3739
  8
0-6
  6
CONTINUOUS
 62
     6
 10
9527.0354080000252
 20
13376.26362899999
 30
0.0
 11
9933.1494810000295
 21
12712.731970000001
 31
0.0
  0
LINE
  5
373A
  8
0-6
  6
CONTINUOUS
 62
     6
 10
6316.45464300001
 20
12312.73164
 30
0.0
 11
7396.4542470000097
 21
12312.73164
 31
0.0
  0
LINE
  5
373B
  8
0-6
  6
CONTINUOUS
 62
     6
 10
7954.9595780000109
 20
14103.501224
 30
0.0
 11
7396.4542470000097
 21
12312.73164
 31
0.0
  0
LINE
  5
373C
  8
0-6
  6
CONTINUOUS
 62
     6
 10
8197.8385900000139
 20
18566.126500999992
 30
0.0
 11
8296.8798430000115
 21
18345.334957999999
 31
0.0
  0
LINE
  5
373D
  8
0-6
  6
CONTINUOUS
 62
     6
 10
9262.3975280000323
 20
16435.21674099996
 30
0.0
 11
10142.40043100002
 21
16435.21674099996
 31
0.0
  0
LINE
  5
373E
  8
0-6
  6
CONTINUOUS
 62
     6
 10
9051.1353860000327
 20
16233.157381000001
 30
0.0
 11
9262.3975280000323
 21
16435.21674099996
 31
0.0
  0
LINE
  5
373F
  8
0-6
  6
CONTINUOUS
 62
     6
 10
11743.640929000019
 20
21064.231441999978
 30
0.0
 11
13418.64224900001
 21
21064.231441999978
 31
0.0
  0
LINE
  5
3740
  8
0-6
  6
CONTINUOUS
 62
     6
 10
13608.92347200002
 20
20734.649517000002
 30
0.0
 11
13418.64224900001
 21
21064.231441999978
 31
0.0
  0
LINE
  5
3741
  8
0-6
  6
CONTINUOUS
 62
     6
 10
13902.121424000021
 20
20244.132730000001
 30
0.0
 11
13682.92975400001
 21
20606.467769999999
 31
0.0
  0
LINE
  5
3742
  8
0-6
  6
CONTINUOUS
 62
     6
 10
10993.35587800002
 20
14900.10205999999
 30
0.0
 11
10728.16769200001
 21
15269.062549
 31
0.0
  0
LINE
  5
3743
  8
0-6
  6
CONTINUOUS
 62
     6
 10
10481.931417000031
 20
15269.062549
 30
0.0
 11
10728.16769200001
 21
15269.062549
 31
0.0
  0
LINE
  5
3744
  8
0-6
  6
CONTINUOUS
 62
     6
 10
9549.7840350000261
 20
13390.184593
 30
0.0
 11
9443.5116010000274
 21
13512.731639999991
 31
0.0
  0
LINE
  5
3745
  8
0-6
  6
CONTINUOUS
 62
     6
 10
9443.5116010000274
 20
13512.731639999991
 30
0.0
 11
9504.2927190000282
 21
13362.342663999991
 31
0.0
  0
LINE
  5
3746
  8
0-6
  6
CONTINUOUS
 62
     6
 10
9443.5116010000274
 20
13512.731639999991
 30
0.0
 11
9549.7840350000261
 21
13390.184593
 31
0.0
  0
LINE
  5
3747
  8
0-6
  6
CONTINUOUS
 62
     6
 10
9549.7840350000261
 20
13390.184593
 30
0.0
 11
9504.2927190000282
 21
13362.342663999991
 31
0.0
  0
LINE
  5
3748
  8
0-6
  6
CONTINUOUS
 62
     6
 10
9504.2927190000282
 20
13362.342663999991
 30
0.0
 11
9443.5116010000274
 21
13512.731639999991
 31
0.0
  0
LINE
  5
3749
  8
0-6
  6
CONTINUOUS
 62
     6
 10
9504.2927190000282
 20
13362.342663999991
 30
0.0
 11
9549.7840350000261
 21
13390.184593
 31
0.0
  0
LINE
  5
374A
  8
0-6
  6
CONTINUOUS
 62
     6
 10
7980.4023310000139
 20
14095.520794999989
 30
0.0
 11
8002.8520510000126
 21
14256.166646
 31
0.0
  0
LINE
  5
374B
  8
0-6
  6
CONTINUOUS
 62
     6
 10
8002.8520510000126
 20
14256.166646
 30
0.0
 11
7929.5128670000131
 21
14111.484622
 31
0.0
  0
LINE
  5
374C
  8
0-6
  6
CONTINUOUS
 62
     6
 10
8002.8520510000126
 20
14256.166646
 30
0.0
 11
7980.4023310000139
 21
14095.520794999989
 31
0.0
  0
LINE
  5
374D
  8
0-6
  6
CONTINUOUS
 62
     6
 10
7980.4023310000139
 20
14095.520794999989
 30
0.0
 11
7929.5128670000131
 21
14111.484622
 31
0.0
  0
LINE
  5
374E
  8
0-6
  6
CONTINUOUS
 62
     6
 10
7929.5128670000131
 20
14111.484622
 30
0.0
 11
8002.8520510000126
 21
14256.166646
 31
0.0
  0
LINE
  5
374F
  8
0-6
  6
CONTINUOUS
 62
     6
 10
7929.5128670000131
 20
14111.484622
 30
0.0
 11
7980.4023310000139
 21
14095.520794999989
 31
0.0
  0
LINE
  5
3750
  8
0-6
  6
CONTINUOUS
 62
     6
 10
8918.5907810000299
 20
13910.934566999989
 30
0.0
 11
8874.8671750000285
 21
13754.730756000001
 31
0.0
  0
LINE
  5
3751
  8
0-6
  6
CONTINUOUS
 62
     6
 10
8874.8671750000285
 20
13754.730756000001
 30
0.0
 11
8966.8890550000287
 21
13888.308669
 31
0.0
  0
LINE
  5
3752
  8
0-6
  6
CONTINUOUS
 62
     6
 10
8874.8671750000285
 20
13754.730756000001
 30
0.0
 11
8918.5907810000299
 21
13910.934566999989
 31
0.0
  0
LINE
  5
3753
  8
0-6
  6
CONTINUOUS
 62
     6
 10
8918.5907810000299
 20
13910.934566999989
 30
0.0
 11
8966.8890550000287
 21
13888.308669
 31
0.0
  0
LINE
  5
3754
  8
0-6
  6
CONTINUOUS
 62
     6
 10
8966.8890550000287
 20
13888.308669
 30
0.0
 11
8874.8671750000285
 21
13754.730756000001
 31
0.0
  0
LINE
  5
3755
  8
0-6
  6
CONTINUOUS
 62
     6
 10
8966.8890550000287
 20
13888.308669
 30
0.0
 11
8918.5907810000299
 21
13910.934566999989
 31
0.0
  0
LINE
  5
3756
  8
0-6
  6
CONTINUOUS
 62
     6
 10
10920.98072000002
 20
15045.265106999979
 30
0.0
 11
10993.35587800002
 21
14900.10205999999
 31
0.0
  0
LINE
  5
3757
  8
0-6
  6
CONTINUOUS
 62
     6
 10
10993.35587800002
 20
14900.10205999999
 30
0.0
 11
10877.81137900003
 21
15013.94417399998
 31
0.0
  0
LINE
  5
3758
  8
0-6
  6
CONTINUOUS
 62
     6
 10
10993.35587800002
 20
14900.10205999999
 30
0.0
 11
10920.98072000002
 21
15045.265106999979
 31
0.0
  0
LINE
  5
3759
  8
0-6
  6
CONTINUOUS
 62
     6
 10
10920.98072000002
 20
15045.265106999979
 30
0.0
 11
10877.81137900003
 21
15013.94417399998
 31
0.0
  0
LINE
  5
375A
  8
0-6
  6
CONTINUOUS
 62
     6
 10
10877.81137900003
 20
15013.94417399998
 30
0.0
 11
10993.35587800002
 21
14900.10205999999
 31
0.0
  0
LINE
  5
375B
  8
0-6
  6
CONTINUOUS
 62
     6
 10
10877.81137900003
 20
15013.94417399998
 30
0.0
 11
10920.98072000002
 21
15045.265106999979
 31
0.0
  0
LINE
  5
375C
  8
0-6
  6
CONTINUOUS
 62
     6
 10
9032.7021090000326
 20
16252.429974000001
 30
0.0
 11
8935.5037880000327
 21
16122.567617000001
 31
0.0
  0
LINE
  5
375D
  8
0-6
  6
CONTINUOUS
 62
     6
 10
8935.5037880000327
 20
16122.567617000001
 30
0.0
 11
9069.5647040000258
 21
16213.886768
 31
0.0
  0
LINE
  5
375E
  8
0-6
  6
CONTINUOUS
 62
     6
 10
8935.5037880000327
 20
16122.567617000001
 30
0.0
 11
9032.7021090000326
 21
16252.429974000001
 31
0.0
  0
LINE
  5
375F
  8
0-6
  6
CONTINUOUS
 62
     6
 10
9032.7021090000326
 20
16252.429974000001
 30
0.0
 11
9069.5647040000258
 21
16213.886768
 31
0.0
  0
LINE
  5
3760
  8
0-6
  6
CONTINUOUS
 62
     6
 10
9069.5647040000258
 20
16213.886768
 30
0.0
 11
8935.5037880000327
 21
16122.567617000001
 31
0.0
  0
LINE
  5
3761
  8
0-6
  6
CONTINUOUS
 62
     6
 10
9069.5647040000258
 20
16213.886768
 30
0.0
 11
9032.7021090000326
 21
16252.429974000001
 31
0.0
  0
LINE
  5
3762
  8
0-6
  6
CONTINUOUS
 62
     6
 10
9948.6530700000276
 20
17168.891650999991
 30
0.0
 11
9967.0190440000297
 21
17007.731124999991
 31
0.0
  0
LINE
  5
3763
  8
0-6
  6
CONTINUOUS
 62
     6
 10
9967.0190440000297
 20
17007.731124999991
 30
0.0
 11
9897.3756210000302
 21
17154.227376999981
 31
0.0
  0
LINE
  5
3764
  8
0-6
  6
CONTINUOUS
 62
     6
 10
9967.0190440000297
 20
17007.731124999991
 30
0.0
 11
9948.6530700000276
 21
17168.891650999991
 31
0.0
  0
LINE
  5
3765
  8
0-6
  6
CONTINUOUS
 62
     6
 10
9948.6530700000276
 20
17168.891650999991
 30
0.0
 11
9897.3756210000302
 21
17154.227376999981
 31
0.0
  0
LINE
  5
3766
  8
0-6
  6
CONTINUOUS
 62
     6
 10
9897.3756210000302
 20
17154.227376999981
 30
0.0
 11
9967.0190440000297
 21
17007.731124999991
 31
0.0
  0
LINE
  5
3767
  8
0-6
  6
CONTINUOUS
 62
     6
 10
9897.3756210000302
 20
17154.227376999981
 30
0.0
 11
9948.6530700000276
 21
17168.891650999991
 31
0.0
  0
LINE
  5
3768
  8
0-6
  6
CONTINUOUS
 62
     6
 10
8222.1668740000114
 20
18577.041567
 30
0.0
 11
8132.3541360000099
 21
18712.112037999988
 31
0.0
  0
LINE
  5
3769
  8
0-6
  6
CONTINUOUS
 62
     6
 10
8132.3541360000099
 20
18712.112037999988
 30
0.0
 11
8173.5083270000086
 21
18555.211436000001
 31
0.0
  0
LINE
  5
376A
  8
0-6
  6
CONTINUOUS
 62
     6
 10
8132.3541360000099
 20
18712.112037999988
 30
0.0
 11
8222.1668740000114
 21
18577.041567
 31
0.0
  0
LINE
  5
376B
  8
0-6
  6
CONTINUOUS
 62
     6
 10
8222.1668740000114
 20
18577.041567
 30
0.0
 11
8173.5083270000086
 21
18555.211436000001
 31
0.0
  0
LINE
  5
376C
  8
0-6
  6
CONTINUOUS
 62
     6
 10
8173.5083270000086
 20
18555.211436000001
 30
0.0
 11
8132.3541360000099
 21
18712.112037999988
 31
0.0
  0
LINE
  5
376D
  8
0-6
  6
CONTINUOUS
 62
     6
 10
8173.5083270000086
 20
18555.211436000001
 30
0.0
 11
8222.1668740000114
 21
18577.041567
 31
0.0
  0
LINE
  5
376E
  8
0-6
  6
CONTINUOUS
 62
     6
 10
9238.9719050000313
 20
20059.906854000001
 30
0.0
 11
9345.6679560000266
 21
19937.730967
 31
0.0
  0
LINE
  5
376F
  8
0-6
  6
CONTINUOUS
 62
     6
 10
9345.6679560000266
 20
19937.730967
 30
0.0
 11
9284.3622660000365
 21
20087.905164999989
 31
0.0
  0
LINE
  5
3770
  8
0-6
  6
CONTINUOUS
 62
     6
 10
9345.6679560000266
 20
19937.730967
 30
0.0
 11
9238.9719050000313
 21
20059.906854000001
 31
0.0
  0
LINE
  5
3771
  8
0-6
  6
CONTINUOUS
 62
     6
 10
9238.9719050000313
 20
20059.906854000001
 30
0.0
 11
9284.3622660000365
 21
20087.905164999989
 31
0.0
  0
LINE
  5
3772
  8
0-6
  6
CONTINUOUS
 62
     6
 10
9284.3622660000365
 20
20087.905164999989
 30
0.0
 11
9345.6679560000266
 21
19937.730967
 31
0.0
  0
LINE
  5
3773
  8
0-6
  6
CONTINUOUS
 62
     6
 10
9284.3622660000365
 20
20087.905164999989
 30
0.0
 11
9238.9719050000313
 21
20059.906854000001
 31
0.0
  0
LINE
  5
3774
  8
0-6
  6
CONTINUOUS
 62
     6
 10
9787.2906340000281
 20
19838.351215999981
 30
0.0
 11
9774.7899740000285
 21
19676.628507000001
 31
0.0
  0
LINE
  5
3775
  8
0-6
  6
CONTINUOUS
 62
     6
 10
9774.7899740000285
 20
19676.628507000001
 30
0.0
 11
9839.0669220000291
 21
19825.555607999991
 31
0.0
  0
LINE
  5
3776
  8
0-6
  6
CONTINUOUS
 62
     6
 10
9774.7899740000285
 20
19676.628507000001
 30
0.0
 11
9787.2906340000281
 21
19838.351215999981
 31
0.0
  0
LINE
  5
3777
  8
0-6
  6
CONTINUOUS
 62
     6
 10
9787.2906340000281
 20
19838.351215999981
 30
0.0
 11
9839.0669220000291
 21
19825.555607999991
 31
0.0
  0
LINE
  5
3778
  8
0-6
  6
CONTINUOUS
 62
     6
 10
9839.0669220000291
 20
19825.555607999991
 30
0.0
 11
9774.7899740000285
 21
19676.628507000001
 31
0.0
  0
LINE
  5
3779
  8
0-6
  6
CONTINUOUS
 62
     6
 10
9839.0669220000291
 20
19825.555607999991
 30
0.0
 11
9787.2906340000281
 21
19838.351215999981
 31
0.0
  0
LINE
  5
377A
  8
0-6
  6
CONTINUOUS
 62
     6
 10
9325.1146150000277
 20
20221.633522
 30
0.0
 11
9421.7646090000253
 21
20104.228274999969
 31
0.0
  0
LINE
  5
377B
  8
0-6
  6
CONTINUOUS
 62
     6
 10
9421.7646090000253
 20
20104.228274999969
 30
0.0
 11
9368.4165840000278
 21
20246.634841999989
 31
0.0
  0
LINE
  5
377C
  8
0-6
  6
CONTINUOUS
 62
     6
 10
9421.7646090000253
 20
20104.228274999969
 30
0.0
 11
9325.1146150000277
 21
20221.633522
 31
0.0
  0
LINE
  5
377D
  8
0-6
  6
CONTINUOUS
 62
     6
 10
9325.1146150000277
 20
20221.633522
 30
0.0
 11
9368.4165840000278
 21
20246.634841999989
 31
0.0
  0
LINE
  5
377E
  8
0-6
  6
CONTINUOUS
 62
     6
 10
9368.4165840000278
 20
20246.634841999989
 30
0.0
 11
9421.7646090000253
 21
20104.228274999969
 31
0.0
  0
LINE
  5
377F
  8
0-6
  6
CONTINUOUS
 62
     6
 10
9368.4165840000278
 20
20246.634841999989
 30
0.0
 11
9325.1146150000277
 21
20221.633522
 31
0.0
  0
LINE
  5
3780
  8
0-6
  6
CONTINUOUS
 62
     6
 10
13880.46945000001
 20
20231.634050000001
 30
0.0
 11
13977.121424000021
 21
20114.228803000002
 31
0.0
  0
LINE
  5
3781
  8
0-6
  6
CONTINUOUS
 62
     6
 10
13977.121424000021
 20
20114.228803000002
 30
0.0
 11
13923.769438999991
 21
20256.631410999991
 31
0.0
  0
LINE
  5
3782
  8
0-6
  6
CONTINUOUS
 62
     6
 10
13977.121424000021
 20
20114.228803000002
 30
0.0
 11
13880.46945000001
 21
20231.634050000001
 31
0.0
  0
LINE
  5
3783
  8
0-6
  6
CONTINUOUS
 62
     6
 10
13880.46945000001
 20
20231.634050000001
 30
0.0
 11
13923.769438999991
 21
20256.631410999991
 31
0.0
  0
LINE
  5
3784
  8
0-6
  6
CONTINUOUS
 62
     6
 10
13923.769438999991
 20
20256.631410999991
 30
0.0
 11
13977.121424000021
 21
20114.228803000002
 31
0.0
  0
LINE
  5
3785
  8
0-6
  6
CONTINUOUS
 62
     6
 10
13923.769438999991
 20
20256.631410999991
 30
0.0
 11
13880.46945000001
 21
20231.634050000001
 31
0.0
  0
LINE
  5
3786
  8
2-0
  6
DASHED3
 62
     6
 10
8132.3541360000099
 20
19852.730438999992
 30
0.0
 11
13968.354136000011
 21
19852.730438999992
 31
0.0
  0
LINE
  5
3787
  8
2-0
  6
DASHED3
 62
     6
 10
8089.8518930000137
 20
19680.045156
 30
0.0
 11
8089.8518930000137
 21
19937.730967
 31
0.0
  0
LINE
  5
3788
  8
2-0
  6
DASHED3
 62
     6
 10
8132.3541360000099
 20
19655.772300000001
 30
0.0
 11
8132.3541360000099
 21
19937.730967
 31
0.0
  0
LINE
  5
3789
  8
2-0
  6
DASHED3
 62
     6
 10
8089.8518930000137
 20
19937.730967
 30
0.0
 11
14010.852421000011
 21
19937.730967
 31
0.0
  0
LINE
  5
378A
  8
2-0
  6
DASHED3
 62
     6
 10
12524.07008900001
 20
16928.730518
 30
0.0
 11
13968.354136000011
 21
16928.730518
 31
0.0
  0
LINE
  5
378B
  8
2-0
  6
DASHED3
 62
     6
 10
12385.755187000021
 20
17007.731124999991
 30
0.0
 11
13968.354136000011
 21
17007.731124999991
 31
0.0
  0
LINE
  5
378C
  8
2-0
  6
DASHED3
 62
     6
 10
13968.354136000011
 20
16094.73261599999
 30
0.0
 11
13968.354136000011
 21
19937.730967
 31
0.0
  0
LINE
  5
378D
  8
2-0
  6
DASHED3
 62
     6
 10
14010.852421000011
 20
16073.191494999999
 30
0.0
 11
14010.852421000011
 21
19937.730967
 31
0.0
  0
LINE
  5
378E
  8
2-0
  6
DASHED3
 62
     6
 10
13416.88443600002
 20
16418.794653999968
 30
0.0
 11
13898.35440000002
 21
16973.730914
 31
0.0
  0
LINE
  5
378F
  8
2-0
  6
DASHED3
 62
     6
 10
10980.356380000019
 20
19891.730914
 30
0.0
 11
9835.3493860000326
 21
18688.809144999999
 31
0.0
  0
LINE
  5
3790
  8
2-0
  6
DASHED3
 62
     6
 10
8202.3518930000137
 20
19891.730914
 30
0.0
 11
8787.9267190000319
 21
19287.047373000001
 31
0.0
  0
LINE
  5
3791
  8
2-0
  6
DASHED3
 62
     6
 10
13898.35440000002
 20
16973.730914
 30
0.0
 11
11120.35585200003
 21
19891.730914
 31
0.0
  0
LINE
  5
3792
  8
2-0
  6
DASHED3
 62
     6
 10
13898.35440000002
 20
19891.730914
 30
0.0
 11
11586.98182900002
 21
17473.95483799998
 31
0.0
  0
LINE
  5
3793
  8
2-0
  6
CENTER2
 62
     6
 10
13968.354136000011
 20
21134.231178000002
 30
0.0
 11
13968.354136000011
 21
20184.228539
 31
0.0
  0
LINE
  5
3794
  8
2-0
  6
CENTER2
 62
     6
 10
11050.354136000011
 20
21134.229199000009
 30
0.0
 11
11050.354136000011
 21
20184.228539
 31
0.0
  0
LINE
  5
3795
  8
2-0
  6
CENTER2
 62
     6
 10
6802.855360000005
 20
19891.730914
 30
0.0
 11
8459.3563270000286
 21
19891.730914
 31
0.0
  0
LINE
  5
3796
  8
2-0
  6
CENTER2
 62
     6
 10
8132.3541360000099
 20
21134.229199000009
 30
0.0
 11
8132.3541360000099
 21
20184.228539
 31
0.0
  0
LINE
  5
3797
  8
2-0
  6
CENTER2
 62
     6
 10
6802.855360000005
 20
16973.730914
 30
0.0
 11
8459.3563270000286
 21
16973.730914
 31
0.0
  0
LINE
  5
3798
  8
2-0
  6
CENTER2
 62
     6
 10
6802.855360000005
 20
13705.230913999991
 30
0.0
 11
8459.3563270000286
 21
13705.230913999991
 31
0.0
  0
LINE
  5
3799
  8
2-0
  6
CENTER2
 62
     6
 10
13641.357884000019
 20
16973.730914
 30
0.0
 11
14267.11693700001
 21
16973.730914
 31
0.0
  0
LINE
  5
379A
  8
2-0
  6
CENTER2
 62
     6
 10
13641.357884000019
 20
13705.230913999991
 30
0.0
 11
14267.11693700001
 21
13705.230913999991
 31
0.0
  0
LINE
  5
379B
  8
2-0
  6
DASHED3
 62
     6
 10
10993.35587800002
 20
18018.916302999991
 30
0.0
 11
10993.35587800002
 21
19852.730438999992
 31
0.0
  0
LINE
  5
379C
  8
2-0
  6
DASHED3
 62
     6
 10
11050.354136000011
 20
17884.455524000001
 30
0.0
 11
11050.354136000011
 21
19852.730438999992
 31
0.0
  0
LINE
  5
379D
  8
2-0
  6
DASHED3
 62
     6
 10
11107.35437400002
 20
17749.990785999991
 30
0.0
 11
11107.35437400002
 21
19852.730438999992
 31
0.0
  0
CIRCLE
  5
379E
  8
0-1
  6
CONTINUOUS
 62
     4
 10
11050.354136000011
 20
21334.227880000031
 30
0.0
 40
199.9999949999999
  0
CIRCLE
  5
379F
  8
0-1
  6
CONTINUOUS
 62
     4
 10
8132.3541360000099
 20
21334.227880000031
 30
0.0
 40
199.9999949999999
  0
CIRCLE
  5
37A0
  8
0-1
  6
CONTINUOUS
 62
     4
 10
6602.8547000000026
 20
19891.730914
 30
0.0
 40
199.9999949999999
  0
CIRCLE
  5
37A1
  8
0-1
  6
CONTINUOUS
 62
     4
 10
6602.8547000000026
 20
16973.730914
 30
0.0
 40
199.9999949999999
  0
CIRCLE
  5
37A2
  8
0-1
  6
CONTINUOUS
 62
     4
 10
6602.8547000000026
 20
13705.230913999991
 30
0.0
 40
199.9999949999999
  0
CIRCLE
  5
37A3
  8
0-1
  6
CONTINUOUS
 62
     4
 10
13968.354136000011
 20
21334.229858999981
 30
0.0
 40
199.9999949999999
  0
ARC
  5
37A4
  8
0-2
  6
CONTINUOUS
 62
     3
 10
8051.8520250000138
 20
20109.228538999989
 30
0.0
 40
5.0
 50
90.0
 51
180.0
  0
ARC
  5
37A5
  8
0-2
  6
CONTINUOUS
 62
     3
 10
8115.353001000014
 20
20109.228538999989
 30
0.0
 40
5.0
 50
0.0
 51
90.0
  0
ARC
  5
37A6
  8
0-2
  6
CONTINUOUS
 62
     3
 10
8115.353001000014
 20
20079.230913999989
 30
0.0
 40
5.0
 50
269.9999850001808
 51
0.0
  0
ARC
  5
37A7
  8
0-2
  6
CONTINUOUS
 62
     3
 10
13985.35527100002
 20
20079.230913999989
 30
0.0
 40
5.0
 50
180.0
 51
269.9999850001808
  0
ARC
  5
37A8
  8
0-2
  6
CONTINUOUS
 62
     3
 10
13985.35527100002
 20
20109.228538999989
 30
0.0
 40
5.0
 50
90.0
 51
180.0
  0
ARC
  5
37A9
  8
0-2
  6
CONTINUOUS
 62
     3
 10
14048.85426800001
 20
20109.228538999989
 30
0.0
 40
5.0
 50
0.0
 51
90.0
  0
CIRCLE
  5
37AA
  8
2-0
  6
CONTINUOUS
 62
     4
 10
15524.904456
 20
1435.1069220000011
 30
0.0
 40
20.0
  0
ARC
  5
37AB
  8
2-0
  6
CONTINUOUS
 62
     4
 10
15524.904456
 20
1435.1069220000011
 30
0.0
 40
20.0
 50
180.0
 51
0.0
  0
ARC
  5
37AC
  8
2-0
  6
CONTINUOUS
 62
     4
 10
15524.904456
 20
1435.1069220000011
 30
0.0
 40
20.0
 50
0.0
 51
179.99998500000001
  0
CIRCLE
  5
37AD
  8
2-0
  6
CONTINUOUS
 62
     4
 10
15524.904456
 20
1835.1075000000001
 30
0.0
 40
20.0
  0
ARC
  5
37AE
  8
2-0
  6
CONTINUOUS
 62
     4
 10
15524.904456
 20
1835.1075000000001
 30
0.0
 40
20.0
 50
180.0
 51
0.0
  0
ARC
  5
37AF
  8
2-0
  6
CONTINUOUS
 62
     4
 10
15524.904456
 20
1835.1075000000001
 30
0.0
 40
20.0
 50
0.0
 51
179.99998500000001
  0
TEXT
  5
37B0
  8
0-1
  6
CONTINUOUS
 62
     7
 10
13915.75634800001
 20
21249.79151399999
 30
0.0
 40
160.0
  1
3
 72
     4
 11
13969.08968133334
 21
21329.79151399999
 31
0.0
  0
TEXT
  5
37B1
  8
0-1
  6
CONTINUOUS
 62
     7
 10
11002.879342
 20
21249.20755700002
 30
0.0
 40
160.0
  1
2
 72
     4
 11
11056.21267533334
 21
21329.20755700002
 31
0.0
  0
TEXT
  5
37B2
  8
0-1
  6
CONTINUOUS
 62
     7
 10
8085.6137430000117
 20
21248.764144000012
 30
0.0
 40
160.0
  1
1
 72
     4
 11
8112.2804096666787
 21
21328.764144000012
 31
0.0
  0
TEXT
  5
37B3
  8
0-1
  6
CONTINUOUS
 62
     7
 10
6554.6356070000029
 20
19803.911552000001
 30
0.0
 40
160.0
  1
C
 72
     4
 11
6607.9689403333359
 21
19883.911552000001
 31
0.0
  0
TEXT
  5
37B4
  8
0-1
  6
CONTINUOUS
 62
     7
 10
6554.6356070000029
 20
16885.911552000001
 30
0.0
 40
160.0
  1
B
 72
     4
 11
6607.9689403333359
 21
16965.911552000001
 31
0.0
  0
TEXT
  5
37B5
  8
0-1
  6
CONTINUOUS
 62
     7
 10
6554.6356070000029
 20
13617.411552
 30
0.0
 40
160.0
  1
A
 72
     4
 11
6607.9689403333359
 21
13697.411552
 31
0.0
  0
TEXT
  5
37B6
  8
0-6
  6
CONTINUOUS
 62
     7
 10
10037.080145000031
 20
20424.229330999999
 30
0.0
 40
160.0
  1
屋根
 72
     4
 11
10207.746811666701
 21
20504.229330999999
 31
0.0
  0
TEXT
  5
37B7
  8
0-6
  6
CONTINUOUS
 62
     7
 10
8947.5115480000259
 20
21144.227747000001
 30
0.0
 40
160.0
  1
鼻隠し後
 72
     4
 11
9310.1782146666919
 21
21224.227747000001
 31
0.0
  0
TEXT
  5
37B8
  8
0-6
  6
CONTINUOUS
 62
     7
 10
8331.7367640000248
 20
20424.229330999999
 30
0.0
 40
160.0
  1
桁（後）
 72
     4
 11
8651.7367640000248
 21
20504.229330999999
 31
0.0
  0
TEXT
  5
37B9
  8
0-6
  6
CONTINUOUS
 62
     7
 10
9141.8686000000289
 20
17413.326142000002
 30
0.0
 40
160.0
  1
桁（中）
 72
     4
 11
9461.8686000000289
 21
17493.326142000002
 31
0.0
  0
TEXT
  5
37BA
  8
0-6
  6
CONTINUOUS
 62
     7
 10
9105.6255940000283
 20
14167.059605999981
 30
0.0
 40
160.0
  1
桁（前）
 72
     4
 11
9425.6255940000283
 21
14247.059605999981
 31
0.0
  0
TEXT
  5
37BB
  8
0-6
  6
CONTINUOUS
 62
     7
 10
10013.149745000021
 20
12792.73223399999
 30
0.0
 40
160.0
  1
鼻隠し前
 72
     4
 11
10375.81641166669
 21
12872.73223399999
 31
0.0
  0
TEXT
  5
37BC
  8
0-6
  6
CONTINUOUS
 62
     7
 10
6396.4529270000112
 20
12392.730914
 30
0.0
 40
160.0
  1
ケラバ 左
 72
     4
 11
6812.4529270000112
 21
12472.730914
 31
0.0
  0
TEXT
  5
37BD
  8
0-6
  6
CONTINUOUS
 62
     7
 10
8386.8841720000255
 20
18425.335221999991
 30
0.0
 40
160.0
  1
上枠
 72
     4
 11
8557.5508386666897
 21
18505.335221999991
 31
0.0
  0
TEXT
  5
37BE
  8
0-6
  6
CONTINUOUS
 62
     7
 10
9342.3997710000258
 20
16515.21898399997
 30
0.0
 40
160.0
  1
ブレース
 72
     4
 11
9705.0664376666919
 21
16600.552317333309
 31
0.0
  0
TEXT
  5
37BF
  8
0-6
  6
CONTINUOUS
 62
     7
 10
11823.64119300001
 20
21144.227747000001
 30
0.0
 40
160.0
  1
鼻隠しコーナー後
 72
     4
 11
12570.30785966668
 21
21224.227747000001
 31
0.0
  0
TEXT
  5
37C0
  8
0-6
  6
CONTINUOUS
 62
     7
 10
10498.171387
 20
15349.06281299999
 30
0.0
 40
160.0
  1
梁
 72
     4
 11
10572.83805366667
 21
15429.06281299999
 31
0.0
  0
TEXT
  5
37C1
  8
2-0
  6
CONTINUOUS
 62
     7
 10
17057.208218999989
 20
1715.1079699999991
 30
0.0
 40
160.0
  1
H
  0
TEXT
  5
37C2
  8
2-0
  6
CONTINUOUS
 62
     7
 10
15572.333721000001
 20
1715.1079699999991
 30
0.0
 40
160.0
  1
（ ）内寸法ハ、  タ  イプヲ示ス。
  0
TEXT
  5
37C3
  8
2-0
  6
CONTINUOUS
 62
     7
 10
15684.903004000011
 20
1315.107393
 30
0.0
 40
160.0
  1
有効高サハ、基礎高サヲ含ミマセン。
  0
LINE
  5
37CC
  8
0-4
  6
CONTINUOUS
 62
     4
 10
17962.43860899999
 20
6384.4362370000017
 30
0.0
 11
18082.44098399999
 21
6176.5902500000011
 31
0.0
  0
LINE
  5
37CD
  8
0-4
  6
CONTINUOUS
 62
     4
 10
15426.53135600001
 20
6176.5902500000002
 30
0.0
 11
19714.320470999999
 21
6176.5902500000011
 31
0.0
  0
LINE
  5
37CE
  8
0-4
  6
CONTINUOUS
 62
     4
 10
18082.44098399999
 20
6176.5902500000011
 30
0.0
 11
18202.439400999989
 21
6384.4362370000017
 31
0.0
  0
LINE
  5
37CF
  8
0-4
  6
CONTINUOUS
 62
     4
 10
18202.439400999989
 20
6384.4362370000017
 30
0.0
 11
17962.43860899999
 21
6384.4362370000017
 31
0.0
  0
TEXT
  5
37D0
  8
0-4
  6
CONTINUOUS
 62
     7
 10
17962.43860899999
 20
6464.4365009999983
 30
0.0
 40
160.0
  1
G.L
 72
     4
 11
18122.43860899999
 21
6544.4365009999992
 31
0.0
  0
TEXT
  5
37D1
  8
2-0
  6
CONTINUOUS
 62
     7
 10
21681.395296999988
 20
11453.23951899999
 30
0.0
 40
160.0
  1
平　面　図
 50
359.99978700000008
 72
     4
 11
22134.72890790736
 21
11527.90450037622
 31
0.0
  0
TEXT
  5
37D2
  8
2-0
  6
CONTINUOUS
 62
     7
 10
23486.22109304498
 20
11475.09986937623
 30
0.0
 40
160.0
  1
1
 72
     4
 11
23512.887759711652
 21
11555.09986937623
 31
0.0
  0
TEXT
  5
37D3
  8
2-0
  6
CONTINUOUS
 62
     7
 10
23729.309810295679
 20
11395.101337376231
 30
0.0
 40
160.0
  1
80
 72
     4
 11
23849.309810295679
 21
11475.101337376231
 31
0.0
  0
TEXT
  5
37D4
  8
2-0
  6
CONTINUOUS
 62
     7
 10
22987.223059044991
 20
11447.90450037622
 30
0.0
 40
160.0
  1
(S=  /   )
 72
     4
 11
23547.223059044991
 21
11527.90450037622
 31
0.0
  0
LINE
  5
37D5
  8
0-1
  6
CONTINUOUS
 62
     3
 10
9509.0335860000068
 20
6326.5902500000011
 30
0.0
 11
9509.0335860000068
 21
8187.6361290000032
 31
0.0
  0
LINE
  5
37D6
  8
0-1
  6
CONTINUOUS
 62
     3
 10
9529.0346419999969
 20
6326.5902500000011
 30
0.0
 11
9529.0346419999969
 21
8187.6361290000032
 31
0.0
  0
LINE
  5
37D7
  8
0-1
  6
CONTINUOUS
 62
     3
 10
9459.0339160000131
 20
6326.5902500000011
 30
0.0
 11
9459.0339160000131
 21
8187.6361290000032
 31
0.0
  0
LINE
  5
37D8
  8
0-1
  6
CONTINUOUS
 62
     3
 10
9579.0333220000066
 20
6326.5902500000011
 30
0.0
 11
9579.0333220000066
 21
8187.6361290000032
 31
0.0
  0
LINE
  5
37D9
  8
0-1
  6
CONTINUOUS
 62
     3
 10
9712.0342059999984
 20
6326.5902500000011
 30
0.0
 11
9712.0342059999984
 21
8187.6361290000032
 31
0.0
  0
LINE
  5
37DA
  8
0-1
  6
CONTINUOUS
 62
     3
 10
9727.0340080000115
 20
6326.5902500000011
 30
0.0
 11
9727.0340080000115
 21
8187.6361290000032
 31
0.0
  0
LINE
  5
37DB
  8
0-1
  6
CONTINUOUS
 62
     3
 10
9326.0340210000086
 20
6326.5902500000011
 30
0.0
 11
9326.0340210000086
 21
8187.6361290000032
 31
0.0
  0
LINE
  5
37DC
  8
0-1
  6
CONTINUOUS
 62
     3
 10
9311.0342190000083
 20
6326.5902500000011
 30
0.0
 11
9311.0342190000083
 21
8187.6361290000032
 31
0.0
  0
LINE
  5
37DD
  8
0-1
  6
CONTINUOUS
 62
     3
 10
10587.533705000011
 20
8187.6361290000032
 30
0.0
 11
10587.533705000011
 21
6326.5902500000011
 31
0.0
  0
LINE
  5
37DE
  8
0-1
  6
CONTINUOUS
 62
     3
 10
10550.535513000001
 20
8187.6361290000032
 30
0.0
 11
10550.535513000001
 21
6326.5902500000011
 31
0.0
  0
LINE
  5
37DF
  8
0-1
  6
CONTINUOUS
 62
     3
 10
9887.5343640000083
 20
8187.6361290000032
 30
0.0
 11
9887.5343640000083
 21
6326.5902500000011
 31
0.0
  0
LINE
  5
37E0
  8
0-1
  6
CONTINUOUS
 62
     3
 10
9850.534192999994
 20
8187.6361290000032
 30
0.0
 11
9850.534192999994
 21
6326.5902500000011
 31
0.0
  0
LINE
  5
37E1
  8
0-1
  6
CONTINUOUS
 62
     3
 10
11287.53304499998
 20
8187.6361290000032
 30
0.0
 11
11287.53304499998
 21
6326.5902500000011
 31
0.0
  0
LINE
  5
37E2
  8
0-1
  6
CONTINUOUS
 62
     3
 10
11250.534852999999
 20
8187.6361290000032
 30
0.0
 11
11250.534852999999
 21
6326.5902500000011
 31
0.0
  0
LINE
  5
37E3
  8
0-1
  6
CONTINUOUS
 62
     3
 10
10909.033255999981
 20
6326.5902500000011
 30
0.0
 11
10909.033255999981
 21
8187.6361290000032
 31
0.0
  0
LINE
  5
37E4
  8
0-1
  6
CONTINUOUS
 62
     3
 10
10929.034312
 20
6326.5902500000011
 30
0.0
 11
10929.034312
 21
8187.6361290000032
 31
0.0
  0
LINE
  5
37E5
  8
0-1
  6
CONTINUOUS
 62
     3
 10
10859.034575999989
 20
6326.5902500000011
 30
0.0
 11
10859.034575999989
 21
8187.6361290000032
 31
0.0
  0
LINE
  5
37E6
  8
0-1
  6
CONTINUOUS
 62
     3
 10
10979.03398200001
 20
6326.5902500000011
 30
0.0
 11
10979.03398200001
 21
8187.6361290000032
 31
0.0
  0
LINE
  5
37E7
  8
0-1
  6
CONTINUOUS
 62
     3
 10
11112.03387599999
 20
6326.5902500000011
 30
0.0
 11
11112.03387599999
 21
8187.6361290000032
 31
0.0
  0
LINE
  5
37E8
  8
0-1
  6
CONTINUOUS
 62
     3
 10
11127.033678
 20
6326.5902500000011
 30
0.0
 11
11127.033678
 21
8187.6361290000032
 31
0.0
  0
LINE
  5
37E9
  8
0-1
  6
CONTINUOUS
 62
     3
 10
10726.033691000001
 20
6326.5902500000011
 30
0.0
 11
10726.033691000001
 21
8187.6361290000032
 31
0.0
  0
LINE
  5
37EA
  8
0-1
  6
CONTINUOUS
 62
     3
 10
10711.034879000001
 20
6326.5902500000011
 30
0.0
 11
10711.034879000001
 21
8187.6361290000032
 31
0.0
  0
LINE
  5
37EB
  8
0-1
  6
CONTINUOUS
 62
     3
 10
10011.03355899999
 20
6326.5902500000011
 30
0.0
 11
10011.03355899999
 21
8187.6361290000032
 31
0.0
  0
LINE
  5
37EC
  8
0-1
  6
CONTINUOUS
 62
     3
 10
10026.03435099998
 20
6326.5902500000011
 30
0.0
 11
10026.03435099998
 21
8187.6361290000032
 31
0.0
  0
LINE
  5
37ED
  8
0-1
  6
CONTINUOUS
 62
     3
 10
10427.034337999999
 20
6326.5902500000011
 30
0.0
 11
10427.034337999999
 21
8187.6361290000032
 31
0.0
  0
LINE
  5
37EE
  8
0-1
  6
CONTINUOUS
 62
     3
 10
10412.033546000001
 20
6326.5902500000011
 30
0.0
 11
10412.033546000001
 21
8187.6361290000032
 31
0.0
  0
LINE
  5
37EF
  8
0-1
  6
CONTINUOUS
 62
     3
 10
10279.034642000001
 20
6326.5902500000011
 30
0.0
 11
10279.034642000001
 21
8187.6361290000032
 31
0.0
  0
LINE
  5
37F0
  8
0-1
  6
CONTINUOUS
 62
     3
 10
10159.033256000001
 20
6326.5902500000011
 30
0.0
 11
10159.033256000001
 21
8187.6361290000032
 31
0.0
  0
LINE
  5
37F1
  8
0-1
  6
CONTINUOUS
 62
     3
 10
10229.035961000011
 20
6326.5902500000011
 30
0.0
 11
10229.035961000011
 21
8187.6361290000032
 31
0.0
  0
LINE
  5
37F2
  8
0-1
  6
CONTINUOUS
 62
     3
 10
10209.034906000001
 20
6326.5902500000011
 30
0.0
 11
10209.034906000001
 21
8187.6361290000032
 31
0.0
  0
LINE
  5
37F3
  8
0-1
  6
CONTINUOUS
 62
     3
 10
11411.033229999999
 20
6326.5902500000011
 30
0.0
 11
11411.033229999999
 21
8187.6361290000032
 31
0.0
  0
LINE
  5
37F4
  8
0-1
  6
CONTINUOUS
 62
     3
 10
11426.03402099999
 20
6326.5902500000011
 30
0.0
 11
11426.03402099999
 21
8187.6361290000032
 31
0.0
  0
LINE
  5
37F5
  8
0-1
  6
CONTINUOUS
 62
     3
 10
11559.034906000001
 20
6326.5902500000011
 30
0.0
 11
11559.034906000001
 21
8187.6361290000032
 31
0.0
  0
LINE
  5
37F6
  8
0-1
  6
CONTINUOUS
 62
     3
 10
11827.034008000001
 20
6326.5902500000011
 30
0.0
 11
11827.034008000001
 21
8187.6361290000032
 31
0.0
  0
LINE
  5
37F7
  8
0-1
  6
CONTINUOUS
 62
     3
 10
11812.035196000001
 20
6326.5902500000011
 30
0.0
 11
11812.035196000001
 21
8187.6361290000032
 31
0.0
  0
LINE
  5
37F8
  8
0-1
  6
CONTINUOUS
 62
     3
 10
11679.034311999991
 20
6326.5902500000011
 30
0.0
 11
11679.034311999991
 21
8187.6361290000032
 31
0.0
  0
LINE
  5
37F9
  8
0-1
  6
CONTINUOUS
 62
     3
 10
11629.034642000001
 20
6326.5902500000011
 30
0.0
 11
11629.034642000001
 21
8187.6361290000032
 31
0.0
  0
LINE
  5
37FA
  8
0-1
  6
CONTINUOUS
 62
     3
 10
11609.035565
 20
6326.5902500000011
 30
0.0
 11
11609.035565
 21
8187.6361290000032
 31
0.0
  0
LINE
  5
37FB
  8
0-1
  6
CONTINUOUS
 62
     3
 10
12437.034535999999
 20
6326.5902500000011
 30
0.0
 11
12437.034535999999
 21
8187.6361290000032
 31
0.0
  0
LINE
  5
37FC
  8
0-1
  6
CONTINUOUS
 62
     3
 10
12417.03545999999
 20
6326.5902500000011
 30
0.0
 11
12417.03545999999
 21
8187.6361290000032
 31
0.0
  0
LINE
  5
37FD
  8
0-1
  6
CONTINUOUS
 62
     3
 10
12487.035196000001
 20
6326.5902500000011
 30
0.0
 11
12487.035196000001
 21
8187.6361290000032
 31
0.0
  0
LINE
  5
37FE
  8
0-1
  6
CONTINUOUS
 62
     3
 10
12367.03480000001
 20
6326.5902500000011
 30
0.0
 11
12367.03480000001
 21
8187.6361290000032
 31
0.0
  0
LINE
  5
37FF
  8
0-1
  6
CONTINUOUS
 62
     3
 10
12234.03490599999
 20
6326.5902500000011
 30
0.0
 11
12234.03490599999
 21
8187.6361290000032
 31
0.0
  0
LINE
  5
3800
  8
0-1
  6
CONTINUOUS
 62
     3
 10
12219.03312399999
 20
6326.5902500000011
 30
0.0
 11
12219.03312399999
 21
8187.6361290000032
 31
0.0
  0
LINE
  5
3801
  8
0-1
  6
CONTINUOUS
 62
     3
 10
12620.03508999999
 20
6326.5902500000011
 30
0.0
 11
12620.03508999999
 21
8187.6361290000032
 31
0.0
  0
LINE
  5
3802
  8
0-1
  6
CONTINUOUS
 62
     3
 10
12635.03390300001
 20
6326.5902500000011
 30
0.0
 11
12635.03390300001
 21
8187.6361290000032
 31
0.0
  0
LINE
  5
3803
  8
0-1
  6
CONTINUOUS
 62
     3
 10
14735.03390300001
 20
6326.5902500000011
 30
0.0
 11
14735.03390300001
 21
8187.6361290000032
 31
0.0
  0
LINE
  5
3804
  8
0-1
  6
CONTINUOUS
 62
     3
 10
14720.03509000001
 20
6326.5902500000011
 30
0.0
 11
14720.03509000001
 21
8187.6361290000032
 31
0.0
  0
LINE
  5
3805
  8
0-1
  6
CONTINUOUS
 62
     3
 10
14319.03411399998
 20
6326.5902500000011
 30
0.0
 11
14319.03411399998
 21
8187.6361290000032
 31
0.0
  0
LINE
  5
3806
  8
0-1
  6
CONTINUOUS
 62
     3
 10
14334.033916
 20
6326.5902500000011
 30
0.0
 11
14334.033916
 21
8187.6361290000032
 31
0.0
  0
LINE
  5
3807
  8
0-1
  6
CONTINUOUS
 62
     3
 10
14467.03480000001
 20
6326.5902500000011
 30
0.0
 11
14467.03480000001
 21
8187.6361290000032
 31
0.0
  0
LINE
  5
3808
  8
0-1
  6
CONTINUOUS
 62
     3
 10
14587.034206
 20
6326.5902500000011
 30
0.0
 11
14587.034206
 21
8187.6361290000032
 31
0.0
  0
LINE
  5
3809
  8
0-1
  6
CONTINUOUS
 62
     3
 10
14517.035459999999
 20
6326.5902500000011
 30
0.0
 11
14517.035459999999
 21
8187.6361290000032
 31
0.0
  0
LINE
  5
380A
  8
0-1
  6
CONTINUOUS
 62
     3
 10
14537.034535999999
 20
6326.5902500000011
 30
0.0
 11
14537.034535999999
 21
8187.6361290000032
 31
0.0
  0
LINE
  5
380B
  8
0-1
  6
CONTINUOUS
 62
     3
 10
13837.035196000001
 20
6326.5902500000011
 30
0.0
 11
13837.035196000001
 21
8187.6361290000032
 31
0.0
  0
LINE
  5
380C
  8
0-1
  6
CONTINUOUS
 62
     3
 10
13817.034140000011
 20
6326.5902500000011
 30
0.0
 11
13817.034140000011
 21
8187.6361290000032
 31
0.0
  0
LINE
  5
380D
  8
0-1
  6
CONTINUOUS
 62
     3
 10
13887.03387600001
 20
6326.5902500000011
 30
0.0
 11
13887.03387600001
 21
8187.6361290000032
 31
0.0
  0
LINE
  5
380E
  8
0-1
  6
CONTINUOUS
 62
     3
 10
13767.03545999999
 20
6326.5902500000011
 30
0.0
 11
13767.03545999999
 21
8187.6361290000032
 31
0.0
  0
LINE
  5
380F
  8
0-1
  6
CONTINUOUS
 62
     3
 10
13634.034575999989
 20
6326.5902500000011
 30
0.0
 11
13634.034575999989
 21
8187.6361290000032
 31
0.0
  0
LINE
  5
3810
  8
0-1
  6
CONTINUOUS
 62
     3
 10
13619.034773999991
 20
6326.5902500000011
 30
0.0
 11
13619.034773999991
 21
8187.6361290000032
 31
0.0
  0
LINE
  5
3811
  8
0-1
  6
CONTINUOUS
 62
     3
 10
14020.032781000011
 20
6326.5902500000011
 30
0.0
 11
14020.032781000011
 21
8187.6361290000032
 31
0.0
  0
LINE
  5
3812
  8
0-1
  6
CONTINUOUS
 62
     3
 10
14035.03456200001
 20
6326.5902500000011
 30
0.0
 11
14035.03456200001
 21
8187.6361290000032
 31
0.0
  0
LINE
  5
3813
  8
0-1
  6
CONTINUOUS
 62
     3
 10
13335.035222
 20
6326.5902500000011
 30
0.0
 11
13335.035222
 21
8187.6361290000032
 31
0.0
  0
LINE
  5
3814
  8
0-1
  6
CONTINUOUS
 62
     3
 10
13320.033441
 20
6326.5902500000011
 30
0.0
 11
13320.033441
 21
8187.6361290000032
 31
0.0
  0
LINE
  5
3815
  8
0-1
  6
CONTINUOUS
 62
     3
 10
12919.03543299999
 20
6326.5902500000011
 30
0.0
 11
12919.03543299999
 21
8187.6361290000032
 31
0.0
  0
LINE
  5
3816
  8
0-1
  6
CONTINUOUS
 62
     3
 10
12934.03424599999
 20
6326.5902500000011
 30
0.0
 11
12934.03424599999
 21
8187.6361290000032
 31
0.0
  0
LINE
  5
3817
  8
0-1
  6
CONTINUOUS
 62
     3
 10
13067.03315000001
 20
6326.5902500000011
 30
0.0
 11
13067.03315000001
 21
8187.6361290000032
 31
0.0
  0
LINE
  5
3818
  8
0-1
  6
CONTINUOUS
 62
     3
 10
13187.03453599999
 20
6326.5902500000011
 30
0.0
 11
13187.03453599999
 21
8187.6361290000032
 31
0.0
  0
LINE
  5
3819
  8
0-1
  6
CONTINUOUS
 62
     3
 10
13117.03479999999
 20
6326.5902500000011
 30
0.0
 11
13117.03479999999
 21
8187.6361290000032
 31
0.0
  0
LINE
  5
381A
  8
0-1
  6
CONTINUOUS
 62
     3
 10
13137.03387600001
 20
6326.5902500000011
 30
0.0
 11
13137.03387600001
 21
8187.6361290000032
 31
0.0
  0
LINE
  5
381B
  8
0-1
  6
CONTINUOUS
 62
     3
 10
12795.53524899999
 20
8187.6361290000032
 30
0.0
 11
12795.53524899999
 21
6326.5902500000011
 31
0.0
  0
LINE
  5
381C
  8
0-1
  6
CONTINUOUS
 62
     3
 10
12758.534087
 20
8187.6361290000032
 30
0.0
 11
12758.534087
 21
6326.5902500000011
 31
0.0
  0
LINE
  5
381D
  8
0-1
  6
CONTINUOUS
 62
     3
 10
14195.532939000001
 20
8187.6361290000032
 30
0.0
 11
14195.532939000001
 21
6326.5902500000011
 31
0.0
  0
LINE
  5
381E
  8
0-1
  6
CONTINUOUS
 62
     3
 10
14158.533756999999
 20
8187.6361290000032
 30
0.0
 11
14158.533756999999
 21
6326.5902500000011
 31
0.0
  0
LINE
  5
381F
  8
0-1
  6
CONTINUOUS
 62
     3
 10
13495.53458899999
 20
8187.6361290000032
 30
0.0
 11
13495.53458899999
 21
6326.5902500000011
 31
0.0
  0
LINE
  5
3820
  8
0-1
  6
CONTINUOUS
 62
     3
 10
13458.534417000001
 20
8187.6361290000032
 30
0.0
 11
13458.534417000001
 21
6326.5902500000011
 31
0.0
  0
LINE
  5
3821
  8
0-1
  6
CONTINUOUS
 62
     3
 10
14895.53524899998
 20
8187.6361290000032
 30
0.0
 11
14895.53524899998
 21
6326.5902500000011
 31
0.0
  0
LINE
  5
3822
  8
0-1
  6
CONTINUOUS
 62
     3
 10
14858.534087
 20
8187.6361290000032
 30
0.0
 11
14858.534087
 21
6326.5902500000011
 31
0.0
  0
LINE
  5
3823
  8
0-1
  6
CONTINUOUS
 62
     3
 10
15346.534061
 20
6276.5900850000025
 30
0.0
 11
15346.534061
 21
6176.5902500000002
 31
0.0
  0
LINE
  5
3824
  8
0-1
  6
CONTINUOUS
 62
     3
 10
15314.033269999991
 20
8490.9191600000013
 30
0.0
 11
15314.033269999991
 21
6276.5900850000025
 31
0.0
  0
LINE
  5
3825
  8
0-1
  6
CONTINUOUS
 62
     3
 10
15334.034061
 20
8491.5001490000031
 30
0.0
 11
15334.034061
 21
6276.5900850000025
 31
0.0
  0
LINE
  5
3826
  8
0-1
  6
CONTINUOUS
 62
     3
 10
15219.03419299999
 20
8187.6361290000032
 30
0.0
 11
15219.03419299999
 21
6276.5900850000025
 31
0.0
  0
LINE
  5
3827
  8
0-1
  6
CONTINUOUS
 62
     3
 10
12023.034061
 20
8392.3915919999999
 30
0.0
 11
12023.034061
 21
8187.6361290000032
 31
0.0
  0
LINE
  5
3828
  8
0-1
  6
CONTINUOUS
 62
     3
 10
11950.534193
 20
8187.6361290000032
 30
0.0
 11
11950.534193
 21
6276.5900850000025
 31
0.0
  0
LINE
  5
3829
  8
0-1
  6
CONTINUOUS
 62
     3
 10
12095.53293899999
 20
8187.6361290000032
 30
0.0
 11
12095.53293899999
 21
6276.5900850000025
 31
0.0
  0
LINE
  5
382A
  8
0-1
  6
CONTINUOUS
 62
     3
 10
12095.53293899999
 20
6326.5902500000011
 30
0.0
 11
15219.03419299999
 21
6326.5902500000011
 31
0.0
  0
LINE
  5
382B
  8
0-1
  6
CONTINUOUS
 62
     3
 10
9055.0340609999967
 20
6176.5902500000002
 30
0.0
 11
9055.0340609999967
 21
6276.5900850000025
 31
0.0
  0
LINE
  5
382C
  8
0-1
  6
CONTINUOUS
 62
     3
 10
9082.5338630000006
 20
8304.3925880000043
 30
0.0
 11
9082.5338630000006
 21
6276.5900850000025
 31
0.0
  0
LINE
  5
382D
  8
0-1
  6
CONTINUOUS
 62
     3
 10
9062.5340609999967
 20
8303.7758606838124
 30
0.0
 11
9062.5340609999967
 21
6276.5900850000025
 31
0.0
  0
LINE
  5
382E
  8
0-1
  6
CONTINUOUS
 62
     3
 10
9177.5329400000046
 20
8187.6361290000032
 30
0.0
 11
9177.5329400000046
 21
6276.5900850000025
 31
0.0
  0
LINE
  5
382F
  8
0-1
  6
CONTINUOUS
 62
     3
 10
9055.0340609999967
 20
6276.5900850000025
 30
0.0
 11
15346.534061
 21
6276.5900850000025
 31
0.0
  0
LINE
  5
3830
  8
0-1
  6
CONTINUOUS
 62
     3
 10
9177.5329400000046
 20
6326.5902500000011
 30
0.0
 11
11950.534193
 21
6326.5902500000011
 31
0.0
  0
LINE
  5
3831
  8
0-1
  6
CONTINUOUS
 62
     3
 10
8372.5330059999978
 20
6176.5902500000011
 30
0.0
 11
15346.534061
 21
6176.5902500000002
 31
0.0
  0
LINE
  5
3832
  8
0-1
  6
CONTINUOUS
 62
     3
 10
9082.5338630000006
 20
8187.6361290000032
 30
0.0
 11
15314.033269999991
 21
8187.6361290000032
 31
0.0
  0
LINE
  5
3833
  8
0-1
  6
CONTINUOUS
 62
     3
 10
8888.2322370000002
 20
8338.5754100000013
 30
0.0
 11
15419.723725999989
 21
8534.0914710000015
 31
0.0
  0
LINE
  5
3834
  8
0-1
  6
CONTINUOUS
 62
     3
 10
15418.223250999999
 20
8584.0703560000038
 30
0.0
 11
8886.7327519999981
 21
8388.553305999998
 31
0.0
  0
LINE
  5
3835
  8
0-1
  6
CONTINUOUS
 62
     3
 10
8883.642724000003
 20
8391.4622080000008
 30
0.0
 11
8882.6826569999976
 21
8423.4477640000005
 31
0.0
  0
LINE
  5
3836
  8
0-1
  6
CONTINUOUS
 62
     3
 10
8887.5314879999987
 20
8428.5950069999999
 30
0.0
 11
15437.992703
 21
8624.682159
 31
0.0
  0
LINE
  5
3837
  8
0-1
  6
CONTINUOUS
 62
     3
 10
15441.897303
 20
8494.7406210000008
 30
0.0
 11
8891.4321290000007
 21
8298.6539639999974
 31
0.0
  0
LINE
  5
3838
  8
0-1
  6
CONTINUOUS
 62
     3
 10
8886.2843910000029
 20
8303.5013100000033
 30
0.0
 11
8885.3253140000033
 21
8335.4873609999977
 31
0.0
  0
LINE
  5
3839
  8
0-1
  6
CONTINUOUS
 62
     3
 10
8884.9937449999998
 20
8346.4821019999981
 30
0.0
 11
8883.9733030000007
 21
8380.4664770000054
 31
0.0
  0
LINE
  5
383A
  8
0-1
  6
CONTINUOUS
 62
     3
 10
8886.882206000002
 20
8383.5555159999967
 30
0.0
 11
15418.374683999989
 21
8579.0730610000028
 31
0.0
  0
LINE
  5
383B
  8
0-1
  6
CONTINUOUS
 62
     3
 10
15419.574272
 20
8539.0897550000045
 30
0.0
 11
8888.0837740000006
 21
8343.5736950000028
 31
0.0
  0
LINE
  5
383C
  8
0-1
  6
CONTINUOUS
 62
     3
 10
12023.034061
 20
8392.3915919999999
 30
0.0
 11
12019.13143999999
 21
8522.3331300000027
 31
0.0
  0
LINE
  5
383D
  8
0-1
  6
CONTINUOUS
 62
     3
 10
15408.930401
 20
8493.7498720000003
 30
0.0
 11
15405.02876999999
 21
8623.6914100000049
 31
0.0
  0
LINE
  5
383E
  8
0-1
  6
CONTINUOUS
 62
     3
 10
8900.0242299999973
 20
8428.9701260000002
 30
0.0
 11
8903.9268509999984
 21
8299.0290830000049
 31
0.0
  0
LINE
  5
383F
  8
0-5
  6
CONTINUOUS
 62
     4
 10
17051.61904899999
 20
6276.5900850000025
 30
0.0
 11
17171.619444999989
 21
6484.4370620000009
 31
0.0
  0
LINE
  5
3840
  8
0-5
  6
CONTINUOUS
 62
     4
 10
16931.620631999991
 20
6484.4370620000009
 30
0.0
 11
17051.61904899999
 21
6276.5900850000025
 31
0.0
  0
LINE
  5
3841
  8
0-5
  6
CONTINUOUS
 62
     4
 10
17171.619444999989
 20
6484.4370620000009
 30
0.0
 11
16931.620631999991
 21
6484.4370620000009
 31
0.0
  0
LINE
  5
3842
  8
0-5
  6
CONTINUOUS
 62
     4
 10
15426.53135600001
 20
6276.5900850000025
 30
0.0
 11
17143.99724199999
 21
6276.5900850000025
 31
0.0
  0
LINE
  5
3843
  8
0-5
  6
CONTINUOUS
 62
     4
 10
15291.534061
 20
4496.5906459999997
 30
0.0
 11
15291.534061
 21
4336.5911079999987
 31
0.0
  0
LINE
  5
3844
  8
0-5
  6
CONTINUOUS
 62
     4
 10
12023.034061
 20
4496.5906459999997
 30
0.0
 11
12023.034061
 21
4336.5911079999987
 31
0.0
  0
LINE
  5
3845
  8
0-5
  6
CONTINUOUS
 62
     4
 10
9105.0340609999967
 20
4496.5906459999997
 30
0.0
 11
9105.0340609999967
 21
4336.5911079999987
 31
0.0
  0
LINE
  5
3846
  8
2-0
  6
CENTER2
 62
     6
 10
15291.534061
 20
5913.9378270000043
 30
0.0
 11
15291.534061
 21
6971.0804250000019
 31
0.0
  0
LINE
  5
3847
  8
2-0
  6
CENTER2
 62
     6
 10
12023.034061
 20
5913.9378270000043
 30
0.0
 11
12023.034061
 21
6971.0804250000019
 31
0.0
  0
LINE
  5
3848
  8
2-0
  6
CENTER2
 62
     6
 10
9105.0340609999967
 20
5913.9378270000043
 30
0.0
 11
9105.0340609999967
 21
6971.0804250000019
 31
0.0
  0
ARC
  5
3849
  8
0-1
  6
CONTINUOUS
 62
     3
 10
15418.973487999991
 20
8559.0819030000021
 30
0.0
 40
24.999998999999999
 50
271.71998600002598
 51
91.719986000025997
  0
ARC
  5
384A
  8
0-1
  6
CONTINUOUS
 62
     3
 10
8886.6426839999986
 20
8391.552276000004
 30
0.0
 40
3.0
 50
181.7199859999738
 51
271.71998600002598
  0
ARC
  5
384B
  8
0-1
  6
CONTINUOUS
 62
     3
 10
8887.6799519999968
 20
8423.5972180000026
 30
0.0
 40
5.0
 50
91.719986000025997
 51
181.7199859999738
  0
ARC
  5
384C
  8
0-1
  6
CONTINUOUS
 62
     3
 10
15413.976193999981
 20
8558.9314600000016
 30
0.0
 40
69.999999000000003
 50
293.50677499977832
 51
69.933196999913747
  0
ARC
  5
384D
  8
0-1
  6
CONTINUOUS
 62
     3
 10
8891.2836650000027
 20
8303.6517540000023
 30
0.0
 40
5.0
 50
181.7199859999738
 51
271.71998600002598
  0
ARC
  5
384E
  8
0-1
  6
CONTINUOUS
 62
     3
 10
8888.3223060000018
 20
8335.5769340000006
 30
0.0
 40
3.0
 50
91.719986000025997
 51
181.7199859999738
  0
ARC
  5
384F
  8
0-1
  6
CONTINUOUS
 62
     3
 10
8888.3064689999974
 20
8386.0996919999998
 30
0.0
 40
2.5
 50
271.71998600002598
 51
91.719986000025997
  0
ARC
  5
3850
  8
0-1
  6
CONTINUOUS
 62
     3
 10
8889.6565009999977
 20
8341.1195860000007
 30
0.0
 40
2.5
 50
271.71998600002598
 51
91.719986000025997
  0
ARC
  5
3851
  8
0-1
  6
CONTINUOUS
 62
     3
 10
8886.9722739999997
 20
8380.5570399999979
 30
0.0
 40
3.0
 50
91.719986000025997
 51
181.7199859999738
  0
ARC
  5
3852
  8
0-1
  6
CONTINUOUS
 62
     3
 10
15418.973487999991
 20
8559.0819030000021
 30
0.0
 40
20.0
 50
271.71998600002598
 51
91.719986000025997
  0
ARC
  5
3853
  8
0-1
  6
CONTINUOUS
 62
     3
 10
8887.992715999997
 20
8346.5716750000029
 30
0.0
 40
3.0
 50
181.7199859999738
 51
271.71998600002598
  0
CIRCLE
  5
3854
  8
0-5
  6
CONTINUOUS
 62
     4
 10
12023.034061
 20
4136.5899530000006
 30
0.0
 40
199.9999949999999
  0
CIRCLE
  5
3855
  8
0-5
  6
CONTINUOUS
 62
     4
 10
15291.534061
 20
4136.5899530000006
 30
0.0
 40
199.9999949999999
  0
CIRCLE
  5
3856
  8
0-5
  6
CONTINUOUS
 62
     4
 10
9105.0340609999967
 20
4136.5899530000006
 30
0.0
 40
199.9999949999999
  0
TEXT
  5
3857
  8
0-5
  6
CONTINUOUS
 62
     7
 10
16592.527119999992
 20
6564.4363360000034
 30
0.0
 40
160.0
  1
布基礎天端
 72
     4
 11
17051.193786666659
 21
6644.4363360000016
 31
0.0
  0
TEXT
  5
3858
  8
0-5
  6
CONTINUOUS
 62
     7
 10
15244.577901000001
 20
4053.3791570000012
 30
0.0
 40
160.0
  1
A
 72
     4
 11
15297.911234333331
 21
4133.3791570000012
 31
0.0
  0
TEXT
  5
3859
  8
0-5
  6
CONTINUOUS
 62
     7
 10
11976.07790099999
 20
4053.3791570000012
 30
0.0
 40
160.0
  1
B
 72
     4
 11
12029.411234333331
 21
4133.3791570000012
 31
0.0
  0
TEXT
  5
385A
  8
0-5
  6
CONTINUOUS
 62
     7
 10
9058.0779010000024
 20
4053.3791570000012
 30
0.0
 40
160.0
  1
C
 72
     4
 11
9111.4112343333363
 21
4133.3791570000012
 31
0.0
  0
TEXT
  5
385B
  8
2-0
  6
CONTINUOUS
 62
     7
 10
10705.000317
 20
3299.4686180000022
 30
0.0
 40
160.0
  1
側 面 立 面 図
 50
0.000139
 72
     4
 11
11350.333456250821
 21
3379.4701835833762
 31
0.0
  0
TEXT
  5
385C
  8
2-0
  6
CONTINUOUS
 62
     7
 10
12701.825641388439
 20
3326.6655525833762
 30
0.0
 40
160.0
  1
1
 72
     4
 11
12728.492308055111
 21
3406.6655525833762
 31
0.0
  0
TEXT
  5
385D
  8
2-0
  6
CONTINUOUS
 62
     7
 10
12944.91435863914
 20
3246.6670205833748
 30
0.0
 40
160.0
  1
80
 72
     4
 11
13064.91435863914
 21
3326.6670205833748
 31
0.0
  0
TEXT
  5
385E
  8
2-0
  6
CONTINUOUS
 62
     7
 10
12202.827607388441
 20
3299.4701835833762
 30
0.0
 40
160.0
  1
(S=  /   )
 72
     4
 11
12762.827607388441
 21
3379.4701835833762
 31
0.0
  0
LINE
  5
385F
  8
0-1
  6
CONTINUOUS
 62
     3
 10
15019.03642399998
 20
6326.5902500000011
 30
0.0
 11
15019.03642399998
 21
8187.6361290000032
 31
0.0
  0
LINE
  5
3860
  8
0-1
  6
CONTINUOUS
 62
     3
 10
15034.036225999989
 20
6326.5902500000011
 30
0.0
 11
15034.036225999989
 21
8187.6361290000032
 31
0.0
  0
LINE
  5
386B
  8
0-1
  6
CONTINUOUS
 62
     3
 10
25730.322053999989
 20
6276.5900849999962
 30
0.0
 11
25630.32271299999
 21
6276.5900849999962
 31
0.0
  0
LINE
  5
386C
  8
0-1
  6
CONTINUOUS
 62
     3
 10
25630.32271299999
 20
6276.5900849999962
 30
0.0
 11
25630.32271299999
 21
6176.5902500000002
 31
0.0
  0
LINE
  5
386D
  8
0-1
  6
CONTINUOUS
 62
     3
 10
25730.322053999989
 20
6176.5902500000002
 30
0.0
 11
25730.322053999989
 21
6276.5900849999962
 31
0.0
  0
LINE
  5
386E
  8
0-1
  6
CONTINUOUS
 62
     3
 10
25702.822580999979
 20
8625.0904339999979
 30
0.0
 11
25702.822580999979
 21
6276.5900849999962
 31
0.0
  0
LINE
  5
386F
  8
0-1
  6
CONTINUOUS
 62
     3
 10
25722.82165799999
 20
8495.0895109999983
 30
0.0
 11
25722.82165799999
 21
6276.5900849999962
 31
0.0
  0
LINE
  5
3870
  8
0-1
  6
CONTINUOUS
 62
     3
 10
25592.822712999961
 20
8184.5901439999952
 30
0.0
 11
25592.822712999961
 21
6176.5902500000002
 31
0.0
  0
LINE
  5
3871
  8
0-1
  6
CONTINUOUS
 62
     3
 10
25637.82310899999
 20
8495.0895109999983
 30
0.0
 11
25637.82310899999
 21
6276.5900849999962
 31
0.0
  0
LINE
  5
387A
  8
0-1
  6
CONTINUOUS
 62
     3
 10
22804.819678000011
 20
8495.0895109999983
 30
0.0
 11
22804.819678000011
 21
6176.5902500000002
 31
0.0
  0
LINE
  5
387B
  8
0-1
  6
CONTINUOUS
 62
     3
 10
22849.820074000021
 20
8184.5901439999952
 30
0.0
 11
22849.820074000021
 21
6176.5902500000002
 31
0.0
  0
LINE
  5
387E
  8
0-1
  6
CONTINUOUS
 62
     3
 10
22849.820074000021
 20
8116.049807999997
 30
0.0
 11
25592.822712999961
 21
8116.049807999997
 31
0.0
  0
LINE
  5
387F
  8
0-1
  6
CONTINUOUS
 62
     3
 10
22849.820074000021
 20
6761.5909429999983
 30
0.0
 11
25592.822712999961
 21
6761.5909429999983
 31
0.0
  0
LINE
  5
3880
  8
0-1
  6
CONTINUOUS
 62
     3
 10
22849.820074000021
 20
6826.5899200000003
 30
0.0
 11
25592.822712999961
 21
6826.5899200000003
 31
0.0
  0
LINE
  5
3881
  8
0-1
  6
CONTINUOUS
 62
     3
 10
22849.820074000021
 20
6891.5903819999958
 30
0.0
 11
25592.822712999961
 21
6891.5903819999958
 31
0.0
  0
LINE
  5
3882
  8
0-1
  6
CONTINUOUS
 62
     3
 10
22849.820074000021
 20
6956.5903489999973
 30
0.0
 11
25592.822712999961
 21
6956.5903489999973
 31
0.0
  0
LINE
  5
3883
  8
0-1
  6
CONTINUOUS
 62
     3
 10
22849.820074000021
 20
7021.590315999998
 30
0.0
 11
25592.822712999961
 21
7021.590315999998
 31
0.0
  0
LINE
  5
3884
  8
0-1
  6
CONTINUOUS
 62
     3
 10
22849.820074000021
 20
7086.5902829999959
 30
0.0
 11
25592.822712999961
 21
7086.5902829999959
 31
0.0
  0
LINE
  5
3885
  8
0-1
  6
CONTINUOUS
 62
     3
 10
22849.820074000021
 20
7151.5907450000004
 30
0.0
 11
25592.822712999961
 21
7151.5907450000004
 31
0.0
  0
LINE
  5
3886
  8
0-1
  6
CONTINUOUS
 62
     3
 10
22849.820074000021
 20
7216.5897219999979
 30
0.0
 11
25592.822712999961
 21
7216.5897219999979
 31
0.0
  0
LINE
  5
3887
  8
0-1
  6
CONTINUOUS
 62
     3
 10
22849.820074000021
 20
7281.5901839999979
 30
0.0
 11
25592.822712999961
 21
7281.5901839999979
 31
0.0
  0
LINE
  5
3888
  8
0-1
  6
CONTINUOUS
 62
     3
 10
22849.820074000021
 20
7346.5901509999949
 30
0.0
 11
25592.822712999961
 21
7346.5901509999949
 31
0.0
  0
LINE
  5
3889
  8
0-1
  6
CONTINUOUS
 62
     3
 10
22849.820074000021
 20
7411.5906129999948
 30
0.0
 11
25592.822712999961
 21
7411.5906129999948
 31
0.0
  0
LINE
  5
388A
  8
0-1
  6
CONTINUOUS
 62
     3
 10
22849.820074000021
 20
7476.5895899999969
 30
0.0
 11
25592.822712999961
 21
7476.5895899999969
 31
0.0
  0
LINE
  5
388B
  8
0-1
  6
CONTINUOUS
 62
     3
 10
22849.820074000021
 20
7541.5900519999977
 30
0.0
 11
25592.822712999961
 21
7541.5900519999977
 31
0.0
  0
LINE
  5
388C
  8
0-1
  6
CONTINUOUS
 62
     3
 10
22849.820074000021
 20
7606.5900189999984
 30
0.0
 11
25592.822712999961
 21
7606.5900189999984
 31
0.0
  0
LINE
  5
388D
  8
0-1
  6
CONTINUOUS
 62
     3
 10
22849.820074000021
 20
7671.589985999999
 30
0.0
 11
25592.822712999961
 21
7671.589985999999
 31
0.0
  0
LINE
  5
388E
  8
0-1
  6
CONTINUOUS
 62
     3
 10
22849.820074000021
 20
7736.5904480000008
 30
0.0
 11
25592.822712999961
 21
7736.5904480000008
 31
0.0
  0
LINE
  5
388F
  8
0-1
  6
CONTINUOUS
 62
     3
 10
22849.820074000021
 20
7801.5904149999978
 30
0.0
 11
25592.822712999961
 21
7801.5904149999978
 31
0.0
  0
LINE
  5
3890
  8
0-1
  6
CONTINUOUS
 62
     3
 10
22849.820074000021
 20
7866.5908769999969
 30
0.0
 11
25592.822712999961
 21
7866.5908769999969
 31
0.0
  0
LINE
  5
3891
  8
0-1
  6
CONTINUOUS
 62
     3
 10
22849.820074000021
 20
7931.5898539999944
 30
0.0
 11
25592.822712999961
 21
7931.5898539999944
 31
0.0
  0
LINE
  5
3892
  8
0-1
  6
CONTINUOUS
 62
     3
 10
22849.820074000021
 20
7996.5903159999989
 30
0.0
 11
25592.822712999961
 21
7996.5903159999989
 31
0.0
  0
LINE
  5
3893
  8
0-1
  6
CONTINUOUS
 62
     3
 10
22849.820074000021
 20
8061.5902829999986
 30
0.0
 11
25592.822712999961
 21
8061.5902829999986
 31
0.0
  0
LINE
  5
3894
  8
0-1
  6
CONTINUOUS
 62
     3
 10
22849.820074000021
 20
6241.5897219999961
 30
0.0
 11
25592.822712999961
 21
6241.5897219999961
 31
0.0
  0
LINE
  5
3895
  8
0-1
  6
CONTINUOUS
 62
     3
 10
22849.820074000021
 20
6306.5906789999972
 30
0.0
 11
25592.822712999961
 21
6306.5906789999972
 31
0.0
  0
LINE
  5
3896
  8
0-1
  6
CONTINUOUS
 62
     3
 10
22849.820074000021
 20
6371.5896559999974
 30
0.0
 11
25592.822712999961
 21
6371.5896559999974
 31
0.0
  0
LINE
  5
3897
  8
0-1
  6
CONTINUOUS
 62
     3
 10
22849.820074000021
 20
6436.5906129999967
 30
0.0
 11
25592.822712999961
 21
6436.5906129999967
 31
0.0
  0
LINE
  5
3898
  8
0-1
  6
CONTINUOUS
 62
     3
 10
22849.820074000021
 20
6501.590084999998
 30
0.0
 11
25592.822712999961
 21
6501.590084999998
 31
0.0
  0
LINE
  5
3899
  8
0-1
  6
CONTINUOUS
 62
     3
 10
22849.820074000021
 20
6566.5900519999977
 30
0.0
 11
25592.822712999961
 21
6566.5900519999977
 31
0.0
  0
LINE
  5
389A
  8
0-1
  6
CONTINUOUS
 62
     3
 10
22849.820074000021
 20
6631.5900189999984
 30
0.0
 11
25592.822712999961
 21
6631.5900189999984
 31
0.0
  0
LINE
  5
389B
  8
0-1
  6
CONTINUOUS
 62
     3
 10
22849.820074000021
 20
6696.589490999997
 30
0.0
 11
25592.822712999961
 21
6696.589490999997
 31
0.0
  0
LINE
  5
389D
  8
0-1
  6
CONTINUOUS
 62
     3
 10
22804.819678000011
 20
8184.5901439999952
 30
0.0
 11
25637.82310899999
 21
8184.5901439999952
 31
0.0
  0
LINE
  5
389E
  8
0-1
  6
CONTINUOUS
 62
     3
 10
19794.320735000001
 20
6176.5902500000002
 30
0.0
 11
25730.322053999989
 21
6176.5902500000002
 31
0.0
  0
LINE
  5
38A8
  8
0-1
  6
CONTINUOUS
 62
     3
 10
22719.821129999989
 20
8495.0895109999983
 30
0.0
 11
22719.821129999989
 21
6176.5902500000002
 31
0.0
  0
LINE
  5
38A9
  8
0-1
  6
CONTINUOUS
 62
     3
 10
22674.822713999962
 20
8184.5901439999952
 30
0.0
 11
22674.822713999962
 21
6176.5902500000002
 31
0.0
  0
LINE
  5
38B4
  8
0-1
  6
CONTINUOUS
 62
     3
 10
19894.322053999989
 20
6276.5900849999962
 30
0.0
 11
19894.322053999989
 21
6176.5902500000002
 31
0.0
  0
LINE
  5
38B5
  8
0-1
  6
CONTINUOUS
 62
     3
 10
19794.320735000001
 20
6176.5902500000002
 30
0.0
 11
19794.320735000001
 21
6276.5900849999962
 31
0.0
  0
LINE
  5
38B6
  8
0-1
  6
CONTINUOUS
 62
     3
 10
19794.320735000001
 20
6276.5900849999962
 30
0.0
 11
19894.322053999989
 21
6276.5900849999962
 31
0.0
  0
LINE
  5
38B7
  8
0-1
  6
CONTINUOUS
 62
     3
 10
19931.822053999989
 20
8184.5901439999952
 30
0.0
 11
19931.822053999989
 21
6176.5902500000002
 31
0.0
  0
LINE
  5
38B8
  8
0-1
  6
CONTINUOUS
 62
     3
 10
19886.819679
 20
8495.0895109999983
 30
0.0
 11
19886.819679
 21
6276.5900849999962
 31
0.0
  0
LINE
  5
38B9
  8
0-1
  6
CONTINUOUS
 62
     3
 10
19821.82218599999
 20
8625.0904339999979
 30
0.0
 11
19821.82218599999
 21
6276.5900849999962
 31
0.0
  0
LINE
  5
38BA
  8
0-1
  6
CONTINUOUS
 62
     3
 10
19801.819151
 20
8495.0895109999983
 30
0.0
 11
19801.819151
 21
6276.5900849999962
 31
0.0
  0
LINE
  5
38BB
  8
0-1
  6
CONTINUOUS
 62
     3
 10
19886.819679
 20
8184.5901439999952
 30
0.0
 11
22719.821129999989
 21
8184.5901439999952
 31
0.0
  0
LINE
  5
38BD
  8
0-1
  6
CONTINUOUS
 62
     3
 10
19931.822053999989
 20
6696.589490999997
 30
0.0
 11
22674.822713999962
 21
6696.589490999997
 31
0.0
  0
LINE
  5
38BE
  8
0-1
  6
CONTINUOUS
 62
     3
 10
19931.822053999989
 20
6631.5900189999984
 30
0.0
 11
22674.822713999962
 21
6631.5900189999984
 31
0.0
  0
LINE
  5
38BF
  8
0-1
  6
CONTINUOUS
 62
     3
 10
19931.822053999989
 20
6566.5900519999977
 30
0.0
 11
22674.822713999962
 21
6566.5900519999977
 31
0.0
  0
LINE
  5
38C0
  8
0-1
  6
CONTINUOUS
 62
     3
 10
19931.822053999989
 20
6501.590084999998
 30
0.0
 11
22674.822713999962
 21
6501.590084999998
 31
0.0
  0
LINE
  5
38C1
  8
0-1
  6
CONTINUOUS
 62
     3
 10
19931.822053999989
 20
6436.5906129999967
 30
0.0
 11
22674.822713999962
 21
6436.5906129999967
 31
0.0
  0
LINE
  5
38C2
  8
0-1
  6
CONTINUOUS
 62
     3
 10
19931.822053999989
 20
6371.5896559999974
 30
0.0
 11
22674.822713999962
 21
6371.5896559999974
 31
0.0
  0
LINE
  5
38C3
  8
0-1
  6
CONTINUOUS
 62
     3
 10
19931.822053999989
 20
6306.5906789999972
 30
0.0
 11
22674.822713999962
 21
6306.5906789999972
 31
0.0
  0
LINE
  5
38C4
  8
0-1
  6
CONTINUOUS
 62
     3
 10
19931.822053999989
 20
6241.5897219999961
 30
0.0
 11
22674.822713999962
 21
6241.5897219999961
 31
0.0
  0
LINE
  5
38C5
  8
0-1
  6
CONTINUOUS
 62
     3
 10
19931.822053999989
 20
8061.5902829999986
 30
0.0
 11
22674.822713999962
 21
8061.5902829999986
 31
0.0
  0
LINE
  5
38C6
  8
0-1
  6
CONTINUOUS
 62
     3
 10
19931.822053999989
 20
7996.5903159999989
 30
0.0
 11
22674.822713999962
 21
7996.5903159999989
 31
0.0
  0
LINE
  5
38C7
  8
0-1
  6
CONTINUOUS
 62
     3
 10
19931.822053999989
 20
7931.5898539999944
 30
0.0
 11
22674.822713999962
 21
7931.5898539999944
 31
0.0
  0
LINE
  5
38C8
  8
0-1
  6
CONTINUOUS
 62
     3
 10
19931.822053999989
 20
7866.5908769999969
 30
0.0
 11
22674.822713999962
 21
7866.5908769999969
 31
0.0
  0
LINE
  5
38C9
  8
0-1
  6
CONTINUOUS
 62
     3
 10
19931.822053999989
 20
7801.5904149999978
 30
0.0
 11
22674.822713999962
 21
7801.5904149999978
 31
0.0
  0
LINE
  5
38CA
  8
0-1
  6
CONTINUOUS
 62
     3
 10
19931.822053999989
 20
7736.5904480000008
 30
0.0
 11
22674.822713999962
 21
7736.5904480000008
 31
0.0
  0
LINE
  5
38CB
  8
0-1
  6
CONTINUOUS
 62
     3
 10
19931.822053999989
 20
7671.589985999999
 30
0.0
 11
22674.822713999962
 21
7671.589985999999
 31
0.0
  0
LINE
  5
38CC
  8
0-1
  6
CONTINUOUS
 62
     3
 10
19931.822053999989
 20
7606.5900189999984
 30
0.0
 11
22674.822713999962
 21
7606.5900189999984
 31
0.0
  0
LINE
  5
38CD
  8
0-1
  6
CONTINUOUS
 62
     3
 10
19931.822053999989
 20
7541.5900519999977
 30
0.0
 11
22674.822713999962
 21
7541.5900519999977
 31
0.0
  0
LINE
  5
38CE
  8
0-1
  6
CONTINUOUS
 62
     3
 10
19931.822053999989
 20
7476.5895899999969
 30
0.0
 11
22674.822713999962
 21
7476.5895899999969
 31
0.0
  0
LINE
  5
38CF
  8
0-1
  6
CONTINUOUS
 62
     3
 10
19931.822053999989
 20
7411.5906129999948
 30
0.0
 11
22674.822713999962
 21
7411.5906129999948
 31
0.0
  0
LINE
  5
38D0
  8
0-1
  6
CONTINUOUS
 62
     3
 10
19931.822053999989
 20
7346.5901509999949
 30
0.0
 11
22674.822713999962
 21
7346.5901509999949
 31
0.0
  0
LINE
  5
38D1
  8
0-1
  6
CONTINUOUS
 62
     3
 10
19931.822053999989
 20
7281.5901839999979
 30
0.0
 11
22674.822713999962
 21
7281.5901839999979
 31
0.0
  0
LINE
  5
38D2
  8
0-1
  6
CONTINUOUS
 62
     3
 10
19931.822053999989
 20
7216.5897219999979
 30
0.0
 11
22674.822713999962
 21
7216.5897219999979
 31
0.0
  0
LINE
  5
38D3
  8
0-1
  6
CONTINUOUS
 62
     3
 10
19931.822053999989
 20
7151.5907450000004
 30
0.0
 11
22674.822713999962
 21
7151.5907450000004
 31
0.0
  0
LINE
  5
38D4
  8
0-1
  6
CONTINUOUS
 62
     3
 10
19931.822053999989
 20
7086.5902829999959
 30
0.0
 11
22674.822713999962
 21
7086.5902829999959
 31
0.0
  0
LINE
  5
38D5
  8
0-1
  6
CONTINUOUS
 62
     3
 10
19931.822053999989
 20
7021.590315999998
 30
0.0
 11
22674.822713999962
 21
7021.590315999998
 31
0.0
  0
LINE
  5
38D6
  8
0-1
  6
CONTINUOUS
 62
     3
 10
19931.822053999989
 20
6956.5903489999973
 30
0.0
 11
22674.822713999962
 21
6956.5903489999973
 31
0.0
  0
LINE
  5
38D7
  8
0-1
  6
CONTINUOUS
 62
     3
 10
19931.822053999989
 20
6891.5903819999958
 30
0.0
 11
22674.822713999962
 21
6891.5903819999958
 31
0.0
  0
LINE
  5
38D8
  8
0-1
  6
CONTINUOUS
 62
     3
 10
19931.822053999989
 20
6826.5899200000003
 30
0.0
 11
22674.822713999962
 21
6826.5899200000003
 31
0.0
  0
LINE
  5
38D9
  8
0-1
  6
CONTINUOUS
 62
     3
 10
19931.822053999989
 20
6761.5909429999983
 30
0.0
 11
22674.822713999962
 21
6761.5909429999983
 31
0.0
  0
LINE
  5
38DA
  8
0-1
  6
CONTINUOUS
 62
     3
 10
19931.822053999989
 20
8116.049807999997
 30
0.0
 11
22674.822713999962
 21
8116.049807999997
 31
0.0
  0
LINE
  5
38E0
  8
0-2
  6
CONTINUOUS
 62
     4
 10
24585.013394000001
 20
6923.8159539999951
 30
0.0
 11
24485.014053999999
 21
6923.8159539999951
 31
0.0
  0
LINE
  5
38E1
  8
0-2
  6
CONTINUOUS
 62
     4
 10
23857.627413999991
 20
6923.8159539999951
 30
0.0
 11
23957.626754999979
 21
6923.8159539999951
 31
0.0
  0
LINE
  5
38E2
  8
0-2
  6
CONTINUOUS
 62
     4
 10
21667.012404500008
 20
6923.8159539999951
 30
0.0
 11
21567.013064499999
 21
6923.8159539999951
 31
0.0
  0
LINE
  5
38E3
  8
0-2
  6
CONTINUOUS
 62
     4
 10
20939.628403499999
 20
6923.8159539999951
 30
0.0
 11
21039.625764500001
 21
6923.8159539999951
 31
0.0
  0
LINE
  5
38E4
  8
0-5
  6
CONTINUOUS
 62
     4
 10
22762.321393999991
 20
4496.5901509999949
 30
0.0
 11
22762.321393999991
 21
4336.5901179999992
 31
0.0
  0
LINE
  5
38E5
  8
0-5
  6
CONTINUOUS
 62
     4
 10
19844.321393999991
 20
4496.5901509999949
 30
0.0
 11
19844.321393999991
 21
4336.5901179999992
 31
0.0
  0
LINE
  5
38E6
  8
2-0
  6
CENTER2
 62
     6
 10
25680.321393999991
 20
5913.9378269999979
 30
0.0
 11
25680.321393999991
 21
6951.0798639999966
 31
0.0
  0
LINE
  5
38E7
  8
2-0
  6
CENTER2
 62
     6
 10
22762.321393999991
 20
5913.9378269999979
 30
0.0
 11
22762.321393999991
 21
6951.0798639999966
 31
0.0
  0
LINE
  5
38E8
  8
2-0
  6
CENTER2
 62
     6
 10
19844.321393999991
 20
5913.9378269999979
 30
0.0
 11
19844.321393999991
 21
6951.0798639999966
 31
0.0
  0
CIRCLE
  5
38F9
  8
0-5
  6
CONTINUOUS
 62
     4
 10
22762.321393999991
 20
4136.5904479999972
 30
0.0
 40
199.9999949999999
  0
CIRCLE
  5
38FA
  8
0-5
  6
CONTINUOUS
 62
     4
 10
19844.321393999991
 20
4136.5904479999972
 30
0.0
 40
199.9999949999999
  0
TEXT
  5
38FB
  8
0-5
  6
CONTINUOUS
 62
     7
 10
19226.145455000002
 20
6905.9504967419953
 30
0.0
 40
160.0
  1
(2131.5)
 50
90.0
 72
     4
 11
19146.145455000002
 21
7359.2838300753283
 31
0.0
  0
TEXT
  5
38FC
  8
0-5
  6
CONTINUOUS
 62
     7
 10
22715.392946999989
 20
4050.0604939999939
 30
0.0
 40
160.0
  1
2
 72
     4
 11
22768.726280333321
 21
4130.0604939999939
 31
0.0
  0
TEXT
  5
38FD
  8
0-5
  6
CONTINUOUS
 62
     7
 10
19797.388987999981
 20
4050.0604939999939
 30
0.0
 40
160.0
  1
1
 72
     4
 11
19824.055654666648
 21
4130.0604939999939
 31
0.0
  0
CIRCLE
  5
38FE
  8
0-4
  6
CONTINUOUS
 62
     4
 10
21303.321393999991
 20
6662.6461909999962
 30
0.0
 40
18.487504999999981
  0
CIRCLE
  5
38FF
  8
0-4
  6
CONTINUOUS
 62
     4
 10
24221.321393999991
 20
6662.6461909999962
 30
0.0
 40
18.487504999999981
  0
LINE
  5
3900
  8
SUNPOU
  6
CONTINUOUS
 10
19561.821393999991
 20
4976.5902500000002
 30
0.0
 11
19203.866387278878
 21
4976.5902500000002
 31
0.0
  0
LINE
  5
3901
  8
SUNPOU
  6
CONTINUOUS
 10
25962.825353
 20
4976.5902500000002
 30
0.0
 11
26320.780359721091
 21
4976.5902500000002
 31
0.0
  0
LINE
  5
3902
  8
0-5
  6
CONTINUOUS
 62
     4
 10
25722.821393999991
 20
4496.5901509999949
 30
0.0
 11
25722.821393999991
 21
4336.5901179999992
 31
0.0
  0
CIRCLE
  5
3903
  8
0-5
  6
CONTINUOUS
 62
     4
 10
25722.821393999991
 20
4136.5904479999972
 30
0.0
 40
199.9999949999999
  0
TEXT
  5
3904
  8
0-5
  6
CONTINUOUS
 62
     7
 10
25675.892946999989
 20
4050.0604939999939
 30
0.0
 40
160.0
  1
3
 72
     4
 11
25729.226280333321
 21
4130.0604939999939
 31
0.0
  0
TEXT
  5
3905
  8
2-0
  6
CONTINUOUS
 62
     7
 10
21444.287649999998
 20
3299.4686180000022
 30
0.0
 40
160.0
  1
正 面 立 面 図
 50
0.000139
 72
     4
 11
22089.620789250821
 21
3379.4701835833762
 31
0.0
  0
TEXT
  5
3906
  8
2-0
  6
CONTINUOUS
 62
     7
 10
23441.11297438843
 20
3326.6655525833762
 30
0.0
 40
160.0
  1
1
 72
     4
 11
23467.779641055098
 21
3406.6655525833762
 31
0.0
  0
TEXT
  5
3907
  8
2-0
  6
CONTINUOUS
 62
     7
 10
23684.201691639129
 20
3246.6670205833748
 30
0.0
 40
160.0
  1
80
 72
     4
 11
23804.201691639129
 21
3326.6670205833748
 31
0.0
  0
TEXT
  5
3908
  8
2-0
  6
CONTINUOUS
 62
     7
 10
22942.114940388441
 20
3299.4701835833762
 30
0.0
 40
160.0
  1
(S=  /   )
 72
     4
 11
23502.114940388441
 21
3379.4701835833762
 31
0.0
  0
LINE
  5
3909
  8
2-0
  6
CONTINUOUS
 62
     6
 10
23997.162477999991
 20
13065.229792
 30
0.0
 11
24997.155879999958
 21
13065.229792
 31
0.0
  0
LINE
  5
390A
  8
2-0
  6
CONTINUOUS
 62
     6
 10
25465.09625699999
 20
13535.650506
 30
0.0
 11
24997.155879999958
 21
13065.229792
 31
0.0
  0
LINE
  5
390B
  8
2-0
  6
CONTINUOUS
 62
     6
 10
25426.456053999991
 20
17077.75815300001
 30
0.0
 11
25121.760635999992
 21
17181.411684000021
 31
0.0
  0
LINE
  5
390C
  8
2-0
  6
CONTINUOUS
 62
     6
 10
25581.478092999962
 20
16588.136109000021
 30
0.0
 11
25121.760635999992
 21
16344.222798000001
 31
0.0
  0
LINE
  5
390D
  8
2-0
  6
CONTINUOUS
 62
     6
 10
24201.75760099999
 20
16344.222798000001
 30
0.0
 11
25121.760635999992
 21
16344.222798000001
 31
0.0
  0
LINE
  5
390E
  8
2-0
  6
CONTINUOUS
 62
     6
 10
23921.766573999979
 20
17181.411684000021
 30
0.0
 11
25121.760635999992
 21
17181.411684000021
 31
0.0
  0
LINE
  5
390F
  8
2-0
  6
CONTINUOUS
 62
     6
 10
25497.655377999989
 20
13857.334151999979
 30
0.0
 11
25121.760635999992
 21
14038.277986999999
 31
0.0
  0
LINE
  5
3910
  8
2-0
  6
CONTINUOUS
 62
     6
 10
24601.758919999989
 20
14038.277986999999
 30
0.0
 11
25121.760635999992
 21
14038.277986999999
 31
0.0
  0
LINE
  5
3911
  8
2-0
  6
CONTINUOUS
 62
     4
 10
22762.321393999991
 20
20014.231442000018
 30
0.0
 11
22762.321393999991
 21
20744.228406999999
 31
0.0
  0
LINE
  5
3912
  8
2-0
  6
CONTINUOUS
 62
     3
 10
25692.822053999971
 20
19825.228987999999
 30
0.0
 11
25692.822053999971
 21
19819.23302600002
 31
0.0
  0
LINE
  5
3913
  8
2-0
  6
CONTINUOUS
 62
     3
 10
25692.822053999971
 20
19819.23302600002
 30
0.0
 11
25722.819677999989
 21
19819.23302600002
 31
0.0
  0
LINE
  5
3914
  8
2-0
  6
CONTINUOUS
 62
     3
 10
25722.819677999989
 20
19849.23263000001
 30
0.0
 11
25641.817777999971
 21
19849.23263000001
 31
0.0
  0
LINE
  5
3915
  8
2-0
  6
CONTINUOUS
 62
     3
 10
25692.822053999971
 20
19808.935570000001
 30
0.0
 11
25722.819677999989
 21
19808.935570000001
 31
0.0
  0
LINE
  5
3916
  8
2-0
  6
CONTINUOUS
 62
     3
 10
25692.822053999971
 20
19826.93731200002
 30
0.0
 11
25692.822053999971
 21
19808.935570000001
 31
0.0
  0
LINE
  5
3917
  8
2-0
  6
CONTINUOUS
 62
     3
 10
25717.819414000001
 20
19826.93731200002
 30
0.0
 11
25692.822053999971
 21
19826.93731200002
 31
0.0
  0
LINE
  5
3918
  8
2-0
  6
CONTINUOUS
 62
     3
 10
25717.819414000001
 20
19821.929130000019
 30
0.0
 11
25717.819414000001
 21
19826.93731200002
 31
0.0
  0
LINE
  5
3919
  8
2-0
  6
CONTINUOUS
 62
     3
 10
25710.817856999998
 20
19821.929130000019
 30
0.0
 11
25717.819414000001
 21
19821.929130000019
 31
0.0
  0
LINE
  5
391A
  8
2-0
  6
CONTINUOUS
 62
     3
 10
25610.521588999989
 20
19922.229357000011
 30
0.0
 11
25610.521588999989
 21
19929.234873000001
 31
0.0
  0
LINE
  5
391B
  8
2-0
  6
CONTINUOUS
 62
     3
 10
25610.521588999989
 20
19929.234873000001
 30
0.0
 11
25615.52185299998
 21
19929.234873000001
 31
0.0
  0
LINE
  5
391C
  8
2-0
  6
CONTINUOUS
 62
     3
 10
25615.52185299998
 20
19929.234873000001
 30
0.0
 11
25615.52185299998
 21
19904.22563600001
 31
0.0
  0
LINE
  5
391D
  8
2-0
  6
CONTINUOUS
 62
     3
 10
25615.52185299998
 20
19904.22563600001
 30
0.0
 11
25597.52011099998
 21
19904.22563600001
 31
0.0
  0
LINE
  5
391E
  8
2-0
  6
CONTINUOUS
 62
     3
 10
25597.52011099998
 20
19904.22563600001
 30
0.0
 11
25597.52011099998
 21
19934.229199000009
 31
0.0
  0
LINE
  5
391F
  8
2-0
  6
CONTINUOUS
 62
     3
 10
25607.817566999991
 20
19934.229199000009
 30
0.0
 11
25722.819677999989
 21
19934.229199000009
 31
0.0
  0
LINE
  5
3920
  8
2-0
  6
CONTINUOUS
 62
     3
 10
25607.817566999991
 20
19904.22563600001
 30
0.0
 11
25607.817566999991
 21
19934.229199000009
 31
0.0
  0
LINE
  5
3921
  8
2-0
  6
CONTINUOUS
 62
     3
 10
25613.81946699999
 20
19904.22563600001
 30
0.0
 11
25607.817566999991
 21
19904.22563600001
 31
0.0
  0
LINE
  5
3922
  8
2-0
  6
CONTINUOUS
 62
     3
 10
25710.817856999998
 20
19118.132307499989
 30
0.0
 11
25717.819414000001
 21
19118.132307499989
 31
0.0
  0
LINE
  5
3923
  8
2-0
  6
CONTINUOUS
 62
     3
 10
25717.819414000001
 20
19118.132307499989
 30
0.0
 11
25717.819414000001
 21
19123.132571499991
 31
0.0
  0
LINE
  5
3924
  8
2-0
  6
CONTINUOUS
 62
     3
 10
25717.819414000001
 20
19123.132571499991
 30
0.0
 11
25692.822053999971
 21
19123.132571499991
 31
0.0
  0
LINE
  5
3925
  8
2-0
  6
CONTINUOUS
 62
     3
 10
25692.822053999971
 20
19123.132571499991
 30
0.0
 11
25692.822053999971
 21
19105.1367675
 31
0.0
  0
LINE
  5
3926
  8
2-0
  6
CONTINUOUS
 62
     3
 10
25692.822053999971
 20
19105.1367675
 30
0.0
 11
25722.819677999989
 21
19105.1367675
 31
0.0
  0
LINE
  5
3927
  8
2-0
  6
CONTINUOUS
 62
     3
 10
25692.822053999971
 20
19121.22827449995
 30
0.0
 11
25692.822053999971
 21
19115.230333499989
 31
0.0
  0
LINE
  5
3928
  8
2-0
  6
CONTINUOUS
 62
     3
 10
25692.822053999971
 20
19115.230333499989
 30
0.0
 11
25722.819677999989
 21
19115.230333499989
 31
0.0
  0
LINE
  5
3929
  8
2-0
  6
CONTINUOUS
 62
     3
 10
25722.819677999989
 20
19115.230333499989
 30
0.0
 11
25722.819677999989
 21
19152.2314945
 31
0.0
  0
LINE
  5
392A
  8
2-0
  6
CONTINUOUS
 62
     3
 10
25692.822053999971
 20
19152.2314945
 30
0.0
 11
25722.819677999989
 21
19152.2314945
 31
0.0
  0
LINE
  5
392B
  8
2-0
  6
CONTINUOUS
 62
     3
 10
25692.822053999971
 20
19146.227614499981
 30
0.0
 11
25692.822053999971
 21
19152.2314945
 31
0.0
  0
LINE
  5
392C
  8
2-0
  6
CONTINUOUS
 62
     3
 10
25692.822053999971
 20
19162.327039499982
 30
0.0
 11
25722.819677999989
 21
19162.327039499982
 31
0.0
  0
LINE
  5
392D
  8
2-0
  6
CONTINUOUS
 62
     3
 10
25692.822053999971
 20
19144.3252975
 30
0.0
 11
25692.822053999971
 21
19162.327039499982
 31
0.0
  0
LINE
  5
392E
  8
2-0
  6
CONTINUOUS
 62
     3
 10
25717.819414000001
 20
19144.3252975
 30
0.0
 11
25692.822053999971
 21
19144.3252975
 31
0.0
  0
LINE
  5
392F
  8
2-0
  6
CONTINUOUS
 62
     3
 10
25717.819414000001
 20
19149.325561500002
 30
0.0
 11
25717.819414000001
 21
19144.3252975
 31
0.0
  0
LINE
  5
3930
  8
2-0
  6
CONTINUOUS
 62
     3
 10
25710.817856999998
 20
19149.325561500002
 30
0.0
 11
25717.819414000001
 21
19149.325561500002
 31
0.0
  0
LINE
  5
3931
  8
2-0
  6
CONTINUOUS
 62
     3
 10
25710.817856999998
 20
18417.131317999989
 30
0.0
 11
25717.819414000001
 21
18417.131317999989
 31
0.0
  0
LINE
  5
3932
  8
2-0
  6
CONTINUOUS
 62
     3
 10
25717.819414000001
 20
18417.131317999989
 30
0.0
 11
25717.819414000001
 21
18422.13752
 31
0.0
  0
LINE
  5
3933
  8
2-0
  6
CONTINUOUS
 62
     3
 10
25717.819414000001
 20
18422.13752
 30
0.0
 11
25692.822053999971
 21
18422.13752
 31
0.0
  0
LINE
  5
3934
  8
2-0
  6
CONTINUOUS
 62
     3
 10
25692.822053999971
 20
18422.13752
 30
0.0
 11
25692.822053999971
 21
18404.135778
 31
0.0
  0
LINE
  5
3935
  8
2-0
  6
CONTINUOUS
 62
     3
 10
25692.822053999971
 20
18404.135778
 30
0.0
 11
25722.819677999989
 21
18404.135778
 31
0.0
  0
LINE
  5
3936
  8
2-0
  6
CONTINUOUS
 62
     3
 10
25692.822053999971
 20
18420.22728499999
 30
0.0
 11
25692.822053999971
 21
18414.231323
 31
0.0
  0
LINE
  5
3937
  8
2-0
  6
CONTINUOUS
 62
     3
 10
25692.822053999971
 20
18414.231323
 30
0.0
 11
25722.819677999989
 21
18414.231323
 31
0.0
  0
LINE
  5
3938
  8
2-0
  6
CONTINUOUS
 62
     3
 10
25722.819677999989
 20
18414.231323
 30
0.0
 11
25722.819677999989
 21
18451.230504999989
 31
0.0
  0
LINE
  5
3939
  8
2-0
  6
CONTINUOUS
 62
     3
 10
25692.822053999971
 20
18451.230504999989
 30
0.0
 11
25722.819677999989
 21
18451.230504999989
 31
0.0
  0
LINE
  5
393A
  8
2-0
  6
CONTINUOUS
 62
     3
 10
25692.822053999971
 20
18445.23454300001
 30
0.0
 11
25692.822053999971
 21
18451.230504999989
 31
0.0
  0
LINE
  5
393B
  8
2-0
  6
CONTINUOUS
 62
     3
 10
25692.822053999971
 20
18461.32605
 30
0.0
 11
25722.819677999989
 21
18461.32605
 31
0.0
  0
LINE
  5
393C
  8
2-0
  6
CONTINUOUS
 62
     3
 10
25692.822053999971
 20
18443.324307999988
 30
0.0
 11
25692.822053999971
 21
18461.32605
 31
0.0
  0
LINE
  5
393D
  8
2-0
  6
CONTINUOUS
 62
     3
 10
25717.819414000001
 20
18443.324307999988
 30
0.0
 11
25692.822053999971
 21
18443.324307999988
 31
0.0
  0
LINE
  5
393E
  8
2-0
  6
CONTINUOUS
 62
     3
 10
25717.819414000001
 20
18448.33051
 30
0.0
 11
25717.819414000001
 21
18443.324307999988
 31
0.0
  0
LINE
  5
393F
  8
2-0
  6
CONTINUOUS
 62
     3
 10
25710.817856999998
 20
18448.33051
 30
0.0
 11
25717.819414000001
 21
18448.33051
 31
0.0
  0
LINE
  5
3940
  8
2-0
  6
CONTINUOUS
 62
     3
 10
25710.817856999998
 20
17747.324572000001
 30
0.0
 11
25717.819414000001
 21
17747.324572000001
 31
0.0
  0
LINE
  5
3941
  8
2-0
  6
CONTINUOUS
 62
     3
 10
25717.819414000001
 20
17747.324572000001
 30
0.0
 11
25717.819414000001
 21
17742.336185
 31
0.0
  0
LINE
  5
3942
  8
2-0
  6
CONTINUOUS
 62
     3
 10
25717.819414000001
 20
17742.336185
 30
0.0
 11
25692.822053999971
 21
17742.336185
 31
0.0
  0
LINE
  5
3943
  8
2-0
  6
CONTINUOUS
 62
     3
 10
25692.822053999971
 20
17742.336185
 30
0.0
 11
25692.822053999971
 21
17760.331988000002
 31
0.0
  0
LINE
  5
3944
  8
2-0
  6
CONTINUOUS
 62
     3
 10
25692.822053999971
 20
17760.331988000002
 30
0.0
 11
25722.819677999989
 21
17760.331988000002
 31
0.0
  0
LINE
  5
3945
  8
2-0
  6
CONTINUOUS
 62
     3
 10
25692.822053999971
 20
17744.234542999991
 30
0.0
 11
25692.822053999971
 21
17750.230504999989
 31
0.0
  0
LINE
  5
3946
  8
2-0
  6
CONTINUOUS
 62
     3
 10
25692.822053999971
 20
17750.230504999989
 30
0.0
 11
25722.819677999989
 21
17750.230504999989
 31
0.0
  0
LINE
  5
3947
  8
2-0
  6
CONTINUOUS
 62
     3
 10
25722.819677999989
 20
17750.230504999989
 30
0.0
 11
25722.819677999989
 21
17713.231323
 31
0.0
  0
LINE
  5
3948
  8
2-0
  6
CONTINUOUS
 62
     3
 10
25692.822053999971
 20
17713.231323
 30
0.0
 11
25722.819677999989
 21
17713.231323
 31
0.0
  0
LINE
  5
3949
  8
2-0
  6
CONTINUOUS
 62
     3
 10
25692.822053999971
 20
17719.233223999989
 30
0.0
 11
25692.822053999971
 21
17713.231323
 31
0.0
  0
LINE
  5
394A
  8
2-0
  6
CONTINUOUS
 62
     3
 10
25692.822053999971
 20
17703.141716999991
 30
0.0
 11
25722.819677999989
 21
17703.141716999991
 31
0.0
  0
LINE
  5
394B
  8
2-0
  6
CONTINUOUS
 62
     3
 10
25692.822053999971
 20
17721.13752
 30
0.0
 11
25692.822053999971
 21
17703.141716999991
 31
0.0
  0
LINE
  5
394C
  8
2-0
  6
CONTINUOUS
 62
     3
 10
25717.819414000001
 20
17721.13752
 30
0.0
 11
25692.822053999971
 21
17721.13752
 31
0.0
  0
LINE
  5
394D
  8
2-0
  6
CONTINUOUS
 62
     3
 10
25717.819414000001
 20
17716.137256999991
 30
0.0
 11
25717.819414000001
 21
17721.13752
 31
0.0
  0
LINE
  5
394E
  8
2-0
  6
CONTINUOUS
 62
     3
 10
25710.817856999998
 20
17716.137256999991
 30
0.0
 11
25717.819414000001
 21
17716.137256999991
 31
0.0
  0
LINE
  5
394F
  8
2-0
  6
CONTINUOUS
 62
     3
 10
25719.933539999991
 20
16996.228143
 30
0.0
 11
25719.933539999991
 21
17016.229198000001
 31
0.0
  0
LINE
  5
3950
  8
2-0
  6
CONTINUOUS
 62
     3
 10
25719.933539999991
 20
17016.229198000001
 30
0.0
 11
25634.936970999988
 21
17016.229198000001
 31
0.0
  0
LINE
  5
3951
  8
2-0
  6
CONTINUOUS
 62
     3
 10
25710.817856999998
 20
17042.835908000001
 30
0.0
 11
25717.819414000001
 21
17042.835908000001
 31
0.0
  0
LINE
  5
3952
  8
2-0
  6
CONTINUOUS
 62
     3
 10
25717.819414000001
 20
17042.835908000001
 30
0.0
 11
25717.819414000001
 21
17037.841582000001
 31
0.0
  0
LINE
  5
3953
  8
2-0
  6
CONTINUOUS
 62
     3
 10
25717.819414000001
 20
17037.841582000001
 30
0.0
 11
25692.822053999971
 21
17037.841582000001
 31
0.0
  0
LINE
  5
3954
  8
2-0
  6
CONTINUOUS
 62
     3
 10
25692.822053999971
 20
17037.841582000001
 30
0.0
 11
25692.822053999971
 21
17055.83738600001
 31
0.0
  0
LINE
  5
3955
  8
2-0
  6
CONTINUOUS
 62
     3
 10
25692.822053999971
 20
17055.83738600001
 30
0.0
 11
25722.819677999989
 21
17055.83738600001
 31
0.0
  0
LINE
  5
3956
  8
2-0
  6
CONTINUOUS
 62
     3
 10
25692.822053999971
 20
17046.228802000001
 30
0.0
 11
25692.822053999971
 21
17040.226901999991
 31
0.0
  0
LINE
  5
3957
  8
2-0
  6
CONTINUOUS
 62
     3
 10
25722.819677999989
 20
17046.228802000001
 30
0.0
 11
25692.822053999971
 21
17046.228802000001
 31
0.0
  0
LINE
  5
3958
  8
2-0
  6
CONTINUOUS
 62
     3
 10
25722.819677999989
 20
17055.83738600001
 30
0.0
 11
25722.819677999989
 21
17703.141716999991
 31
0.0
  0
LINE
  5
3959
  8
2-0
  6
CONTINUOUS
 62
     3
 10
25722.819677999989
 20
17760.331988000002
 30
0.0
 11
25722.819677999989
 21
18404.135778
 31
0.0
  0
LINE
  5
395A
  8
2-0
  6
CONTINUOUS
 62
     3
 10
25722.819677999989
 20
16901.22708700001
 30
0.0
 11
25692.822053999971
 21
16901.22708700001
 31
0.0
  0
LINE
  5
395B
  8
2-0
  6
CONTINUOUS
 62
     3
 10
25692.822053999971
 20
16901.22708700001
 30
0.0
 11
25692.822053999971
 21
16907.22898700001
 31
0.0
  0
LINE
  5
395C
  8
2-0
  6
CONTINUOUS
 62
     3
 10
25634.936970999988
 20
16931.232629999991
 30
0.0
 11
25719.933539999991
 21
16931.232629999991
 31
0.0
  0
LINE
  5
395D
  8
2-0
  6
CONTINUOUS
 62
     3
 10
25719.933539999991
 20
16931.232629999991
 30
0.0
 11
25719.933539999991
 21
16951.227747000012
 31
0.0
  0
LINE
  5
395E
  8
2-0
  6
CONTINUOUS
 62
     3
 10
25692.822053999971
 20
16891.618503999998
 30
0.0
 11
25722.819677999989
 21
16891.618503999998
 31
0.0
  0
LINE
  5
395F
  8
2-0
  6
CONTINUOUS
 62
     3
 10
25692.822053999971
 20
16909.614306999982
 30
0.0
 11
25692.822053999971
 21
16891.618503999998
 31
0.0
  0
LINE
  5
3960
  8
2-0
  6
CONTINUOUS
 62
     3
 10
25717.819414000001
 20
16909.614306999982
 30
0.0
 11
25692.822053999971
 21
16909.614306999982
 31
0.0
  0
LINE
  5
3961
  8
2-0
  6
CONTINUOUS
 62
     3
 10
25717.819414000001
 20
16904.614043000009
 30
0.0
 11
25717.819414000001
 21
16909.614306999982
 31
0.0
  0
LINE
  5
3962
  8
2-0
  6
CONTINUOUS
 62
     3
 10
25710.817856999998
 20
16904.614043000009
 30
0.0
 11
25717.819414000001
 21
16904.614043000009
 31
0.0
  0
LINE
  5
3963
  8
2-0
  6
CONTINUOUS
 62
     3
 10
25710.817856999998
 20
16200.131812499991
 30
0.0
 11
25717.819414000001
 21
16200.131812499991
 31
0.0
  0
LINE
  5
3964
  8
2-0
  6
CONTINUOUS
 62
     3
 10
25717.819414000001
 20
16200.131812499991
 30
0.0
 11
25717.819414000001
 21
16205.13207649998
 31
0.0
  0
LINE
  5
3965
  8
2-0
  6
CONTINUOUS
 62
     3
 10
25717.819414000001
 20
16205.13207649998
 30
0.0
 11
25692.822053999971
 21
16205.13207649998
 31
0.0
  0
LINE
  5
3966
  8
2-0
  6
CONTINUOUS
 62
     3
 10
25692.822053999971
 20
16205.13207649998
 30
0.0
 11
25692.822053999971
 21
16187.130334499991
 31
0.0
  0
LINE
  5
3967
  8
2-0
  6
CONTINUOUS
 62
     3
 10
25692.822053999971
 20
16187.130334499991
 30
0.0
 11
25722.819677999989
 21
16187.130334499991
 31
0.0
  0
LINE
  5
3968
  8
2-0
  6
CONTINUOUS
 62
     3
 10
25692.822053999971
 20
16203.227779500001
 30
0.0
 11
25692.822053999971
 21
16197.2308285
 31
0.0
  0
LINE
  5
3969
  8
2-0
  6
CONTINUOUS
 62
     3
 10
25692.822053999971
 20
16197.2308285
 30
0.0
 11
25722.819677999989
 21
16197.2308285
 31
0.0
  0
LINE
  5
396A
  8
2-0
  6
CONTINUOUS
 62
     3
 10
25722.819677999989
 20
16197.2308285
 30
0.0
 11
25722.819677999989
 21
16234.2309995
 31
0.0
  0
LINE
  5
396B
  8
2-0
  6
CONTINUOUS
 62
     3
 10
25692.822053999971
 20
16234.2309995
 30
0.0
 11
25722.819677999989
 21
16234.2309995
 31
0.0
  0
LINE
  5
396C
  8
2-0
  6
CONTINUOUS
 62
     3
 10
25692.822053999971
 20
16228.228109499991
 30
0.0
 11
25692.822053999971
 21
16234.2309995
 31
0.0
  0
LINE
  5
396D
  8
2-0
  6
CONTINUOUS
 62
     3
 10
25692.822053999971
 20
16244.3265445
 30
0.0
 11
25722.819677999989
 21
16244.3265445
 31
0.0
  0
LINE
  5
396E
  8
2-0
  6
CONTINUOUS
 62
     3
 10
25692.822053999971
 20
16226.318863500001
 30
0.0
 11
25692.822053999971
 21
16244.3265445
 31
0.0
  0
LINE
  5
396F
  8
2-0
  6
CONTINUOUS
 62
     3
 10
25717.819414000001
 20
16226.318863500001
 30
0.0
 11
25692.822053999971
 21
16226.318863500001
 31
0.0
  0
LINE
  5
3970
  8
2-0
  6
CONTINUOUS
 62
     3
 10
25717.819414000001
 20
16231.3250665
 30
0.0
 11
25717.819414000001
 21
16226.318863500001
 31
0.0
  0
LINE
  5
3971
  8
2-0
  6
CONTINUOUS
 62
     3
 10
25710.817856999998
 20
16231.3250665
 30
0.0
 11
25717.819414000001
 21
16231.3250665
 31
0.0
  0
LINE
  5
3972
  8
2-0
  6
CONTINUOUS
 62
     3
 10
25710.817856999998
 20
15530.565083
 30
0.0
 11
25717.819414000001
 21
15530.565083
 31
0.0
  0
LINE
  5
3973
  8
2-0
  6
CONTINUOUS
 62
     3
 10
25717.819414000001
 20
15530.565083
 30
0.0
 11
25717.819414000001
 21
15525.570758000011
 31
0.0
  0
LINE
  5
3974
  8
2-0
  6
CONTINUOUS
 62
     3
 10
25717.819414000001
 20
15525.570758000011
 30
0.0
 11
25692.822053999971
 21
15525.570758000011
 31
0.0
  0
LINE
  5
3975
  8
2-0
  6
CONTINUOUS
 62
     3
 10
25692.822053999971
 20
15525.570758000011
 30
0.0
 11
25692.822053999971
 21
15543.566561000011
 31
0.0
  0
LINE
  5
3976
  8
2-0
  6
CONTINUOUS
 62
     3
 10
25692.822053999971
 20
15543.566561000011
 30
0.0
 11
25722.819677999989
 21
15543.566561000011
 31
0.0
  0
LINE
  5
3977
  8
2-0
  6
CONTINUOUS
 62
     3
 10
25692.822053999971
 20
15527.469116
 30
0.0
 11
25692.822053999971
 21
15533.47101600001
 31
0.0
  0
LINE
  5
3978
  8
2-0
  6
CONTINUOUS
 62
     3
 10
25692.822053999971
 20
15533.47101600001
 30
0.0
 11
25722.819677999989
 21
15533.47101600001
 31
0.0
  0
LINE
  5
3979
  8
2-0
  6
CONTINUOUS
 62
     3
 10
25722.819677999989
 20
15496.471835
 30
0.0
 11
25722.819677999989
 21
15533.47101600001
 31
0.0
  0
LINE
  5
397A
  8
2-0
  6
CONTINUOUS
 62
     3
 10
25692.822053999971
 20
15496.471835
 30
0.0
 11
25722.819677999989
 21
15496.471835
 31
0.0
  0
LINE
  5
397B
  8
2-0
  6
CONTINUOUS
 62
     3
 10
25692.822053999971
 20
15502.46878600001
 30
0.0
 11
25692.822053999971
 21
15496.471835
 31
0.0
  0
LINE
  5
397C
  8
2-0
  6
CONTINUOUS
 62
     3
 10
25692.822053999971
 20
15486.370351
 30
0.0
 11
25722.819677999989
 21
15486.370351
 31
0.0
  0
LINE
  5
397D
  8
2-0
  6
CONTINUOUS
 62
     3
 10
25692.822053999971
 20
15504.378032000001
 30
0.0
 11
25692.822053999971
 21
15486.370351
 31
0.0
  0
LINE
  5
397E
  8
2-0
  6
CONTINUOUS
 62
     3
 10
25717.819414000001
 20
15504.378032000001
 30
0.0
 11
25692.822053999971
 21
15504.378032000001
 31
0.0
  0
LINE
  5
397F
  8
2-0
  6
CONTINUOUS
 62
     3
 10
25717.819414000001
 20
15499.377768000009
 30
0.0
 11
25717.819414000001
 21
15504.378032000001
 31
0.0
  0
LINE
  5
3980
  8
2-0
  6
CONTINUOUS
 62
     3
 10
25710.817856999998
 20
15499.377768000009
 30
0.0
 11
25717.819414000001
 21
15499.377768000009
 31
0.0
  0
LINE
  5
3981
  8
2-0
  6
CONTINUOUS
 62
     3
 10
25722.819677999989
 20
16891.618503999998
 30
0.0
 11
25722.819677999989
 21
16244.3265445
 31
0.0
  0
LINE
  5
3982
  8
2-0
  6
CONTINUOUS
 62
     3
 10
25722.819677999989
 20
17046.228802000001
 30
0.0
 11
25722.819677999989
 21
16901.22708700001
 31
0.0
  0
LINE
  5
3983
  8
2-0
  6
CONTINUOUS
 62
     3
 10
25634.936970999988
 20
17016.229198000001
 30
0.0
 11
25634.936970999988
 21
16931.232629999991
 31
0.0
  0
LINE
  5
3984
  8
2-0
  6
CONTINUOUS
 62
     6
 10
24096.728303999971
 20
18784.676463499982
 30
0.0
 11
25121.760635999992
 21
18784.676463499982
 31
0.0
  0
LINE
  5
3985
  8
2-0
  6
CONTINUOUS
 62
     3
 10
25710.817856999998
 20
14798.136761
 30
0.0
 11
25717.819414000001
 21
14798.136761
 31
0.0
  0
LINE
  5
3986
  8
2-0
  6
CONTINUOUS
 62
     3
 10
25717.819414000001
 20
14798.136761
 30
0.0
 11
25717.819414000001
 21
14803.131087
 31
0.0
  0
LINE
  5
3987
  8
2-0
  6
CONTINUOUS
 62
     3
 10
25717.819414000001
 20
14803.131087
 30
0.0
 11
25692.822053999971
 21
14803.131087
 31
0.0
  0
LINE
  5
3988
  8
2-0
  6
CONTINUOUS
 62
     3
 10
25692.822053999971
 20
14803.131087
 30
0.0
 11
25692.822053999971
 21
14785.135283
 31
0.0
  0
LINE
  5
3989
  8
2-0
  6
CONTINUOUS
 62
     3
 10
25692.822053999971
 20
14785.135283
 30
0.0
 11
25722.819677999989
 21
14785.135283
 31
0.0
  0
LINE
  5
398A
  8
2-0
  6
CONTINUOUS
 62
     3
 10
25692.822053999971
 20
14801.23371800001
 30
0.0
 11
25692.822053999971
 21
14795.230828000011
 31
0.0
  0
LINE
  5
398B
  8
2-0
  6
CONTINUOUS
 62
     3
 10
25692.822053999971
 20
14795.230828000011
 30
0.0
 11
25722.819677999989
 21
14795.230828000011
 31
0.0
  0
LINE
  5
398C
  8
2-0
  6
CONTINUOUS
 62
     3
 10
25722.819677999989
 20
14795.230828000011
 30
0.0
 11
25722.819677999989
 21
14832.230999999991
 31
0.0
  0
LINE
  5
398D
  8
2-0
  6
CONTINUOUS
 62
     3
 10
25692.822053999971
 20
14832.230999999991
 30
0.0
 11
25722.819677999989
 21
14832.230999999991
 31
0.0
  0
LINE
  5
398E
  8
2-0
  6
CONTINUOUS
 62
     3
 10
25692.822053999971
 20
14826.23404799998
 30
0.0
 11
25692.822053999971
 21
14832.230999999991
 31
0.0
  0
LINE
  5
398F
  8
2-0
  6
CONTINUOUS
 62
     3
 10
25692.822053999971
 20
14842.331493000011
 30
0.0
 11
25722.819677999989
 21
14842.331493000011
 31
0.0
  0
LINE
  5
3990
  8
2-0
  6
CONTINUOUS
 62
     3
 10
25692.822053999971
 20
14824.32480200001
 30
0.0
 11
25692.822053999971
 21
14842.331493000011
 31
0.0
  0
LINE
  5
3991
  8
2-0
  6
CONTINUOUS
 62
     3
 10
25717.819414000001
 20
14824.32480200001
 30
0.0
 11
25692.822053999971
 21
14824.32480200001
 31
0.0
  0
LINE
  5
3992
  8
2-0
  6
CONTINUOUS
 62
     3
 10
25717.819414000001
 20
14829.33001500001
 30
0.0
 11
25717.819414000001
 21
14824.32480200001
 31
0.0
  0
LINE
  5
3993
  8
2-0
  6
CONTINUOUS
 62
     3
 10
25710.817856999998
 20
14829.33001500001
 30
0.0
 11
25717.819414000001
 21
14829.33001500001
 31
0.0
  0
LINE
  5
3994
  8
2-0
  6
CONTINUOUS
 62
     3
 10
25692.822053999971
 20
13771.73284099999
 30
0.0
 11
25692.822053999971
 21
13777.73770999999
 31
0.0
  0
LINE
  5
3995
  8
2-0
  6
CONTINUOUS
 62
     3
 10
25692.822053999971
 20
13777.73770999999
 30
0.0
 11
25722.819677999989
 21
13777.73770999999
 31
0.0
  0
LINE
  5
3996
  8
2-0
  6
CONTINUOUS
 62
     3
 10
25722.819677999989
 20
13777.73770999999
 30
0.0
 11
25722.819677999989
 21
13662.733619000001
 31
0.0
  0
LINE
  5
3997
  8
2-0
  6
CONTINUOUS
 62
     3
 10
25722.819677999989
 20
13662.733619000001
 30
0.0
 11
25637.821129999978
 21
13662.733619000001
 31
0.0
  0
LINE
  5
3998
  8
2-0
  6
CONTINUOUS
 62
     3
 10
25637.821129999978
 20
13662.733619000001
 30
0.0
 11
25637.821129999978
 21
13747.729198000001
 31
0.0
  0
LINE
  5
3999
  8
2-0
  6
CONTINUOUS
 62
     3
 10
25637.821129999978
 20
13747.729198000001
 30
0.0
 11
25669.82004799999
 21
13747.729198000001
 31
0.0
  0
LINE
  5
399A
  8
2-0
  6
CONTINUOUS
 62
     3
 10
25710.817856999998
 20
13774.767443000001
 30
0.0
 11
25717.819414000001
 21
13774.767443000001
 31
0.0
  0
LINE
  5
399B
  8
2-0
  6
CONTINUOUS
 62
     3
 10
25717.819414000001
 20
13774.767443000001
 30
0.0
 11
25717.819414000001
 21
13769.77014799998
 31
0.0
  0
LINE
  5
399C
  8
2-0
  6
CONTINUOUS
 62
     3
 10
25717.819414000001
 20
13769.77014799998
 30
0.0
 11
25692.822053999971
 21
13769.77014799998
 31
0.0
  0
LINE
  5
399D
  8
2-0
  6
CONTINUOUS
 62
     3
 10
25692.822053999971
 20
13769.77014799998
 30
0.0
 11
25692.822053999971
 21
13787.768921000001
 31
0.0
  0
LINE
  5
399E
  8
2-0
  6
CONTINUOUS
 62
     3
 10
25692.822053999971
 20
13787.768921000001
 30
0.0
 11
25722.819677999989
 21
13787.768921000001
 31
0.0
  0
LINE
  5
399F
  8
2-0
  6
CENTER2
 62
     6
 10
25680.321393999991
 20
13465.236060999991
 30
0.0
 11
25680.321393999991
 21
14971.60481900002
 31
0.0
  0
LINE
  5
39A0
  8
2-0
  6
CONTINUOUS
 62
     3
 10
25722.819677999989
 20
18461.32605
 30
0.0
 11
25722.819677999989
 21
19105.1367675
 31
0.0
  0
LINE
  5
39A1
  8
2-0
  6
CONTINUOUS
 62
     6
 10
26415.32456099999
 20
20664.232102000031
 30
0.0
 11
27615.31862299997
 21
20664.232102000031
 31
0.0
  0
LINE
  5
39A2
  8
2-0
  6
CONTINUOUS
 62
     3
 10
22834.823241999991
 20
19934.229199000009
 30
0.0
 11
22834.823241999991
 21
19904.22563600001
 31
0.0
  0
LINE
  5
39A3
  8
2-0
  6
CONTINUOUS
 62
     3
 10
22834.823241999991
 20
19904.22563600001
 30
0.0
 11
22828.82529999996
 21
19904.22563600001
 31
0.0
  0
LINE
  5
39A4
  8
2-0
  6
CONTINUOUS
 62
     3
 10
22844.439742999992
 20
19904.22563600001
 30
0.0
 11
22844.439742999992
 21
19934.229199000009
 31
0.0
  0
LINE
  5
39A5
  8
2-0
  6
CONTINUOUS
 62
     3
 10
22826.438000999991
 20
19904.22563600001
 30
0.0
 11
22844.439742999992
 21
19904.22563600001
 31
0.0
  0
LINE
  5
39A6
  8
2-0
  6
CONTINUOUS
 62
     3
 10
22826.438000999991
 20
19929.234873000001
 30
0.0
 11
22826.438000999991
 21
19904.22563600001
 31
0.0
  0
LINE
  5
39A7
  8
2-0
  6
CONTINUOUS
 62
     3
 10
22831.438265000001
 20
19929.234873000001
 30
0.0
 11
22826.438000999991
 21
19929.234873000001
 31
0.0
  0
LINE
  5
39A8
  8
2-0
  6
CONTINUOUS
 62
     3
 10
22831.438265000001
 20
19922.229357000011
 30
0.0
 11
22831.438265000001
 21
19929.234873000001
 31
0.0
  0
LINE
  5
39A9
  8
2-0
  6
CONTINUOUS
 62
     3
 10
22804.821658000001
 20
19931.337122000001
 30
0.0
 11
22804.821658000001
 21
19846.338574000009
 31
0.0
  0
LINE
  5
39AA
  8
2-0
  6
CONTINUOUS
 62
     3
 10
22784.824561000001
 20
19931.337122000001
 30
0.0
 11
22804.821658000001
 21
19931.337122000001
 31
0.0
  0
LINE
  5
39AB
  8
2-0
  6
CONTINUOUS
 62
     3
 10
22693.210461999988
 20
19922.229357000011
 30
0.0
 11
22693.210461999988
 21
19929.234873000001
 31
0.0
  0
LINE
  5
39AC
  8
2-0
  6
CONTINUOUS
 62
     3
 10
22693.210461999988
 20
19929.234873000001
 30
0.0
 11
22698.21072599999
 21
19929.234873000001
 31
0.0
  0
LINE
  5
39AD
  8
2-0
  6
CONTINUOUS
 62
     3
 10
22698.21072599999
 20
19929.234873000001
 30
0.0
 11
22698.21072599999
 21
19904.22563600001
 31
0.0
  0
LINE
  5
39AE
  8
2-0
  6
CONTINUOUS
 62
     3
 10
22698.21072599999
 20
19904.22563600001
 30
0.0
 11
22680.20898399999
 21
19904.22563600001
 31
0.0
  0
LINE
  5
39AF
  8
2-0
  6
CONTINUOUS
 62
     3
 10
22680.20898399999
 20
19904.22563600001
 30
0.0
 11
22680.20898399999
 21
19934.229199000009
 31
0.0
  0
LINE
  5
39B0
  8
2-0
  6
CONTINUOUS
 62
     3
 10
22719.829047999981
 20
19931.337122000001
 30
0.0
 11
22739.824165000002
 21
19931.337122000001
 31
0.0
  0
LINE
  5
39B1
  8
2-0
  6
CONTINUOUS
 62
     3
 10
22719.829047999981
 20
19846.338574000009
 30
0.0
 11
22719.829047999981
 21
19931.337122000001
 31
0.0
  0
LINE
  5
39B2
  8
2-0
  6
CONTINUOUS
 62
     3
 10
22689.831424000011
 20
19904.22563600001
 30
0.0
 11
22695.82738499999
 21
19904.22563600001
 31
0.0
  0
LINE
  5
39B3
  8
2-0
  6
CONTINUOUS
 62
     3
 10
22689.831424000011
 20
19934.229199000009
 30
0.0
 11
22689.831424000011
 21
19904.22563600001
 31
0.0
  0
LINE
  5
39B4
  8
2-0
  6
CONTINUOUS
 62
     3
 10
22804.821658000001
 20
19846.338574000009
 30
0.0
 11
22719.829047999981
 21
19846.338574000009
 31
0.0
  0
LINE
  5
39B5
  8
2-0
  6
CONTINUOUS
 62
     3
 10
22834.823241999991
 20
19934.229199000009
 30
0.0
 11
22689.831424000011
 21
19934.229199000009
 31
0.0
  0
LINE
  5
39B6
  8
2-0
  6
CONTINUOUS
 62
     6
 10
25553.29172799996
 20
19026.830971499989
 30
0.0
 11
25121.760635999992
 21
18784.676463499982
 31
0.0
  0
LINE
  5
39B7
  8
2-0
  6
CONTINUOUS
 62
     6
 10
25874.860561999962
 20
20076.908939000012
 30
0.0
 11
26415.32456099999
 21
20664.232102000031
 31
0.0
  0
LINE
  5
39B8
  8
2-0
  6
CONTINUOUS
 62
     6
 10
22804.821658000001
 20
13747.729198000001
 30
0.0
 11
23081.411870999989
 21
14203.073898000001
 31
0.0
  0
LINE
  5
39B9
  8
2-0
  6
CONTINUOUS
 62
     6
 10
23081.411870999989
 20
14203.073898000001
 30
0.0
 11
24111.761189999979
 21
14203.073898000001
 31
0.0
  0
LINE
  5
39BA
  8
2-0
  6
CONTINUOUS
 62
     3
 10
25722.819677999989
 20
16187.130334499991
 30
0.0
 11
25722.819677999989
 21
15543.566561000011
 31
0.0
  0
LINE
  5
39BB
  8
2-0
  6
CONTINUOUS
 62
     6
 10
22865.099977999998
 20
13898.325032999979
 30
0.0
 11
22804.821658000001
 21
13747.729198000001
 31
0.0
  0
LINE
  5
39BC
  8
2-0
  6
CONTINUOUS
 62
     6
 10
22804.821658000001
 20
13747.729198000001
 30
0.0
 11
22910.680372999959
 21
13870.637506999999
 31
0.0
  0
LINE
  5
39BD
  8
2-0
  6
CONTINUOUS
 62
     6
 10
22865.099977999998
 20
13898.325032999979
 30
0.0
 11
22910.680372999959
 21
13870.637506999999
 31
0.0
  0
LINE
  5
39BE
  8
2-0
  6
CONTINUOUS
 62
     6
 10
22910.680372999959
 20
13870.637506999999
 30
0.0
 11
22804.821658000001
 21
13747.729198000001
 31
0.0
  0
LINE
  5
39BF
  8
2-0
  6
CONTINUOUS
 62
     6
 10
22804.821658000001
 20
13747.729198000001
 30
0.0
 11
22865.099977999998
 21
13898.325032999979
 31
0.0
  0
LINE
  5
39C0
  8
2-0
  6
CONTINUOUS
 62
     6
 10
22865.099977999998
 20
13898.325032999979
 30
0.0
 11
22804.821658000001
 21
13747.729198000001
 31
0.0
  0
LINE
  5
39C1
  8
2-0
  6
CONTINUOUS
 62
     6
 10
22910.680372999959
 20
13870.637506999999
 30
0.0
 11
22804.821658000001
 21
13747.729198000001
 31
0.0
  0
LINE
  5
39C2
  8
2-0
  6
CONTINUOUS
 62
     6
 10
22910.680372999959
 20
13870.637506999999
 30
0.0
 11
22865.099977999998
 21
13898.325032999979
 31
0.0
  0
LINE
  5
39C3
  8
2-0
  6
CONTINUOUS
 62
     6
 10
25540.234822999992
 20
19050.090315500001
 30
0.0
 11
25692.822053999971
 21
19105.1367675
 31
0.0
  0
LINE
  5
39C4
  8
2-0
  6
CONTINUOUS
 62
     6
 10
25692.822053999971
 20
19105.1367675
 30
0.0
 11
25566.340713999991
 21
19003.57756749999
 31
0.0
  0
LINE
  5
39C5
  8
2-0
  6
CONTINUOUS
 62
     6
 10
25540.234822999992
 20
19050.090315500001
 30
0.0
 11
25566.340713999991
 21
19003.57756749999
 31
0.0
  0
LINE
  5
39C6
  8
2-0
  6
CONTINUOUS
 62
     6
 10
25566.340713999991
 20
19003.57756749999
 30
0.0
 11
25692.822053999971
 21
19105.1367675
 31
0.0
  0
LINE
  5
39C7
  8
2-0
  6
CONTINUOUS
 62
     6
 10
25692.822053999971
 20
19105.1367675
 30
0.0
 11
25540.234822999992
 21
19050.090315500001
 31
0.0
  0
LINE
  5
39C8
  8
2-0
  6
CONTINUOUS
 62
     6
 10
25540.234822999992
 20
19050.090315500001
 30
0.0
 11
25692.822053999971
 21
19105.1367675
 31
0.0
  0
LINE
  5
39C9
  8
2-0
  6
CONTINUOUS
 62
     6
 10
25566.340713999991
 20
19003.57756749999
 30
0.0
 11
25692.822053999971
 21
19105.1367675
 31
0.0
  0
LINE
  5
39CA
  8
2-0
  6
CONTINUOUS
 62
     6
 10
25566.340713999991
 20
19003.57756749999
 30
0.0
 11
25540.234822999992
 21
19050.090315500001
 31
0.0
  0
LINE
  5
39CB
  8
2-0
  6
CONTINUOUS
 62
     6
 10
25894.477590999992
 20
20058.847812000022
 30
0.0
 11
25766.515570999989
 21
19959.165194000008
 31
0.0
  0
LINE
  5
39CC
  8
2-0
  6
CONTINUOUS
 62
     6
 10
25766.515570999989
 20
19959.165194000008
 30
0.0
 11
25855.229675999992
 21
20094.962149000021
 31
0.0
  0
LINE
  5
39CD
  8
2-0
  6
CONTINUOUS
 62
     6
 10
25894.477590999992
 20
20058.847812000022
 30
0.0
 11
25855.229675999992
 21
20094.962149000021
 31
0.0
  0
LINE
  5
39CE
  8
2-0
  6
CONTINUOUS
 62
     6
 10
25855.229675999992
 20
20094.962149000021
 30
0.0
 11
25766.515570999989
 21
19959.165194000008
 31
0.0
  0
LINE
  5
39CF
  8
2-0
  6
CONTINUOUS
 62
     6
 10
25766.515570999989
 20
19959.165194000008
 30
0.0
 11
25894.477590999992
 21
20058.847812000022
 31
0.0
  0
LINE
  5
39D0
  8
2-0
  6
CONTINUOUS
 62
     6
 10
25894.477590999992
 20
20058.847812000022
 30
0.0
 11
25766.515570999989
 21
19959.165194000008
 31
0.0
  0
LINE
  5
39D1
  8
2-0
  6
CONTINUOUS
 62
     6
 10
25855.229675999992
 20
20094.962149000021
 30
0.0
 11
25766.515570999989
 21
19959.165194000008
 31
0.0
  0
LINE
  5
39D2
  8
2-0
  6
CONTINUOUS
 62
     6
 10
25855.229675999992
 20
20094.962149000021
 30
0.0
 11
25894.477590999992
 21
20058.847812000022
 31
0.0
  0
LINE
  5
39D3
  8
2-0
  6
CONTINUOUS
 62
     6
 10
21386.25707299999
 20
19686.45681700002
 30
0.0
 11
21518.190006000012
 21
19217.110981999998
 31
0.0
  0
LINE
  5
39D4
  8
2-0
  6
CONTINUOUS
 62
     6
 10
21518.190006000012
 20
19217.110981999998
 30
0.0
 11
22543.228276999991
 21
19217.110981999998
 31
0.0
  0
LINE
  5
39D5
  8
2-0
  6
CONTINUOUS
 62
     6
 10
21342.963022
 20
19840.485137000011
 30
0.0
 11
21360.584696000002
 21
19679.239492000019
 31
0.0
  0
LINE
  5
39D6
  8
2-0
  6
CONTINUOUS
 62
     6
 10
21411.929448999999
 20
19693.67810100002
 30
0.0
 11
21360.584696000002
 21
19679.239492000019
 31
0.0
  0
LINE
  5
39D7
  8
2-0
  6
CONTINUOUS
 62
     6
 10
21360.584696000002
 20
19679.239492000019
 30
0.0
 11
21342.963022
 21
19840.485137000011
 31
0.0
  0
LINE
  5
39D8
  8
2-0
  6
CONTINUOUS
 62
     6
 10
21342.963022
 20
19840.485137000011
 30
0.0
 11
21411.929448999999
 21
19693.67810100002
 31
0.0
  0
LINE
  5
39D9
  8
2-0
  6
CONTINUOUS
 62
     6
 10
21411.929448999999
 20
19693.67810100002
 30
0.0
 11
21342.963022
 21
19840.485137000011
 31
0.0
  0
LINE
  5
39DA
  8
2-0
  6
CONTINUOUS
 62
     6
 10
21360.584696000002
 20
19679.239492000019
 30
0.0
 11
21342.963022
 21
19840.485137000011
 31
0.0
  0
LINE
  5
39DB
  8
2-0
  6
CONTINUOUS
 62
     6
 10
21360.584696000002
 20
19679.239492000019
 30
0.0
 11
21411.929448999999
 21
19693.67810100002
 31
0.0
  0
LINE
  5
39DC
  8
2-0
  6
CONTINUOUS
 62
     6
 10
22803.7448
 20
19815.47787900002
 30
0.0
 11
22952.614495000002
 21
19285.855703000001
 31
0.0
  0
LINE
  5
39DD
  8
2-0
  6
CONTINUOUS
 62
     6
 10
22952.614495000002
 20
19285.855703000001
 30
0.0
 11
23977.65870399999
 21
19285.855703000001
 31
0.0
  0
LINE
  5
39DE
  8
2-0
  6
CONTINUOUS
 62
     6
 10
22821.36845399997
 20
19654.23223400001
 30
0.0
 11
22872.719144999999
 21
19668.66688400002
 31
0.0
  0
LINE
  5
39DF
  8
2-0
  6
CONTINUOUS
 62
     6
 10
22872.719144999999
 20
19668.66688400002
 30
0.0
 11
22821.36845399997
 21
19654.23223400001
 31
0.0
  0
LINE
  5
39E0
  8
2-0
  6
CONTINUOUS
 62
     6
 10
22821.36845399997
 20
19654.23223400001
 30
0.0
 11
22803.7448
 21
19815.47787900002
 31
0.0
  0
LINE
  5
39E1
  8
2-0
  6
CONTINUOUS
 62
     6
 10
22803.7448
 20
19815.47787900002
 30
0.0
 11
22872.719144999999
 21
19668.66688400002
 31
0.0
  0
LINE
  5
39E2
  8
2-0
  6
CONTINUOUS
 62
     6
 10
22872.719144999999
 20
19668.66688400002
 30
0.0
 11
22803.7448
 21
19815.47787900002
 31
0.0
  0
LINE
  5
39E3
  8
2-0
  6
CONTINUOUS
 62
     6
 10
22821.36845399997
 20
19654.23223400001
 30
0.0
 11
22803.7448
 21
19815.47787900002
 31
0.0
  0
LINE
  5
39E4
  8
2-0
  6
CONTINUOUS
 62
     6
 10
22872.719144999999
 20
19668.66688400002
 30
0.0
 11
22803.7448
 21
19815.47787900002
 31
0.0
  0
LINE
  5
39E5
  8
2-0
  6
CONTINUOUS
 62
     6
 10
22803.7448
 20
19815.47787900002
 30
0.0
 11
22821.36845399997
 21
19654.23223400001
 31
0.0
  0
LINE
  5
39E6
  8
2-0
  6
CONTINUOUS
 62
     4
 10
22762.321393999991
 20
20014.231442000018
 30
0.0
 11
22762.321393999991
 21
20744.228406999999
 31
0.0
  0
LINE
  5
39E7
  8
2-0
  6
CONTINUOUS
 62
     6
 10
25446.18195699999
 20
13554.46088099999
 30
0.0
 11
25577.928815999981
 21
13649.087808
 31
0.0
  0
LINE
  5
39E8
  8
2-0
  6
CONTINUOUS
 62
     6
 10
25577.928815999981
 20
13649.087808
 30
0.0
 11
25483.99867999999
 21
13516.84903799998
 31
0.0
  0
LINE
  5
39E9
  8
2-0
  6
CONTINUOUS
 62
     6
 10
25446.18195699999
 20
13554.46088099999
 30
0.0
 11
25483.99867999999
 21
13516.84903799998
 31
0.0
  0
LINE
  5
39EA
  8
2-0
  6
CONTINUOUS
 62
     6
 10
25483.99867999999
 20
13516.84903799998
 30
0.0
 11
25577.928815999981
 21
13649.087808
 31
0.0
  0
LINE
  5
39EB
  8
2-0
  6
CONTINUOUS
 62
     6
 10
25577.928815999981
 20
13649.087808
 30
0.0
 11
25446.18195699999
 21
13554.46088099999
 31
0.0
  0
LINE
  5
39EC
  8
2-0
  6
CONTINUOUS
 62
     6
 10
25446.18195699999
 20
13554.46088099999
 30
0.0
 11
25577.928815999981
 21
13649.087808
 31
0.0
  0
LINE
  5
39ED
  8
2-0
  6
CONTINUOUS
 62
     6
 10
25483.99867999999
 20
13516.84903799998
 30
0.0
 11
25577.928815999981
 21
13649.087808
 31
0.0
  0
LINE
  5
39EE
  8
2-0
  6
CONTINUOUS
 62
     6
 10
25483.99867999999
 20
13516.84903799998
 30
0.0
 11
25446.18195699999
 21
13554.46088099999
 31
0.0
  0
LINE
  5
39EF
  8
2-0
  6
CONTINUOUS
 62
     6
 10
25509.217745999991
 20
13881.365507999981
 30
0.0
 11
25641.817777999971
 21
13787.937179999981
 31
0.0
  0
LINE
  5
39F0
  8
2-0
  6
CONTINUOUS
 62
     6
 10
25641.817777999971
 20
13787.937179999981
 30
0.0
 11
25486.08509199999
 21
13833.312694
 31
0.0
  0
LINE
  5
39F1
  8
2-0
  6
CONTINUOUS
 62
     6
 10
25509.217745999991
 20
13881.365507999981
 30
0.0
 11
25486.08509199999
 21
13833.312694
 31
0.0
  0
LINE
  5
39F2
  8
2-0
  6
CONTINUOUS
 62
     6
 10
25486.08509199999
 20
13833.312694
 30
0.0
 11
25641.817777999971
 21
13787.937179999981
 31
0.0
  0
LINE
  5
39F3
  8
2-0
  6
CONTINUOUS
 62
     6
 10
25641.817777999971
 20
13787.937179999981
 30
0.0
 11
25509.217745999991
 21
13881.365507999981
 31
0.0
  0
LINE
  5
39F4
  8
2-0
  6
CONTINUOUS
 62
     6
 10
25509.217745999991
 20
13881.365507999981
 30
0.0
 11
25641.817777999971
 21
13787.937179999981
 31
0.0
  0
LINE
  5
39F5
  8
2-0
  6
CONTINUOUS
 62
     6
 10
25486.08509199999
 20
13833.312694
 30
0.0
 11
25641.817777999971
 21
13787.937179999981
 31
0.0
  0
LINE
  5
39F6
  8
2-0
  6
CONTINUOUS
 62
     6
 10
25486.08509199999
 20
13833.312694
 30
0.0
 11
25509.217745999991
 21
13881.365507999981
 31
0.0
  0
LINE
  5
39F7
  8
2-0
  6
CONTINUOUS
 62
     6
 10
25568.98139199998
 20
16611.686441000009
 30
0.0
 11
25722.819677999989
 21
16663.120272000011
 31
0.0
  0
LINE
  5
39F8
  8
2-0
  6
CONTINUOUS
 62
     6
 10
25722.819677999989
 20
16663.120272000011
 30
0.0
 11
25593.98469099998
 21
16564.579837000008
 31
0.0
  0
LINE
  5
39F9
  8
2-0
  6
CONTINUOUS
 62
     6
 10
25568.98139199998
 20
16611.686441000009
 30
0.0
 11
25593.98469099998
 21
16564.579837000008
 31
0.0
  0
LINE
  5
39FA
  8
2-0
  6
CONTINUOUS
 62
     6
 10
25593.98469099998
 20
16564.579837000008
 30
0.0
 11
25722.819677999989
 21
16663.120272000011
 31
0.0
  0
LINE
  5
39FB
  8
2-0
  6
CONTINUOUS
 62
     6
 10
25722.819677999989
 20
16663.120272000011
 30
0.0
 11
25568.98139199998
 21
16611.686441000009
 31
0.0
  0
LINE
  5
39FC
  8
2-0
  6
CONTINUOUS
 62
     6
 10
25568.98139199998
 20
16611.686441000009
 30
0.0
 11
25722.819677999989
 21
16663.120272000011
 31
0.0
  0
LINE
  5
39FD
  8
2-0
  6
CONTINUOUS
 62
     6
 10
25593.98469099998
 20
16564.579837000008
 30
0.0
 11
25722.819677999989
 21
16663.120272000011
 31
0.0
  0
LINE
  5
39FE
  8
2-0
  6
CONTINUOUS
 62
     6
 10
25593.98469099998
 20
16564.579837000008
 30
0.0
 11
25568.98139199998
 21
16611.686441000009
 31
0.0
  0
LINE
  5
39FF
  8
2-0
  6
CONTINUOUS
 62
     6
 10
25435.045184999992
 20
17103.004933000011
 30
0.0
 11
25577.928815999981
 21
17026.229304000011
 31
0.0
  0
LINE
  5
3A00
  8
2-0
  6
CONTINUOUS
 62
     6
 10
25577.928815999981
 20
17026.229304000011
 30
0.0
 11
25417.86692299999
 21
17052.511373000019
 31
0.0
  0
LINE
  5
3A01
  8
2-0
  6
CONTINUOUS
 62
     6
 10
25435.045184999992
 20
17103.004933000011
 30
0.0
 11
25417.86692299999
 21
17052.511373000019
 31
0.0
  0
LINE
  5
3A02
  8
2-0
  6
CONTINUOUS
 62
     6
 10
25417.86692299999
 20
17052.511373000019
 30
0.0
 11
25577.928815999981
 21
17026.229304000011
 31
0.0
  0
LINE
  5
3A03
  8
2-0
  6
CONTINUOUS
 62
     6
 10
25577.928815999981
 20
17026.229304000011
 30
0.0
 11
25435.045184999992
 21
17103.004933000011
 31
0.0
  0
LINE
  5
3A04
  8
2-0
  6
CONTINUOUS
 62
     6
 10
25435.045184999992
 20
17103.004933000011
 30
0.0
 11
25577.928815999981
 21
17026.229304000011
 31
0.0
  0
LINE
  5
3A05
  8
2-0
  6
CONTINUOUS
 62
     6
 10
25417.86692299999
 20
17052.511373000019
 30
0.0
 11
25577.928815999981
 21
17026.229304000011
 31
0.0
  0
LINE
  5
3A06
  8
2-0
  6
CONTINUOUS
 62
     6
 10
25417.86692299999
 20
17052.511373000019
 30
0.0
 11
25435.045184999992
 21
17103.004933000011
 31
0.0
  0
LINE
  5
3A07
  8
2-0
  6
CONTINUOUS
 62
     3
 10
22022.82197499997
 20
19934.229199000009
 30
0.0
 11
21985.820812999991
 21
19934.229199000009
 31
0.0
  0
LINE
  5
3A08
  8
2-0
  6
CONTINUOUS
 62
     3
 10
22022.82197499997
 20
19904.22563600001
 30
0.0
 11
22022.82197499997
 21
19934.229199000009
 31
0.0
  0
LINE
  5
3A09
  8
2-0
  6
CONTINUOUS
 62
     3
 10
22016.82205399996
 20
19904.22563600001
 30
0.0
 11
22022.82197499997
 21
19904.22563600001
 31
0.0
  0
LINE
  5
3A0A
  8
2-0
  6
CONTINUOUS
 62
     3
 10
22032.919498999981
 20
19904.22563600001
 30
0.0
 11
22032.919498999981
 21
19934.229199000009
 31
0.0
  0
LINE
  5
3A0B
  8
2-0
  6
CONTINUOUS
 62
     3
 10
22014.915777999991
 20
19904.22563600001
 30
0.0
 11
22032.919498999981
 21
19904.22563600001
 31
0.0
  0
LINE
  5
3A0C
  8
2-0
  6
CONTINUOUS
 62
     3
 10
22014.915777999991
 20
19929.234873000001
 30
0.0
 11
22014.915777999991
 21
19904.22563600001
 31
0.0
  0
LINE
  5
3A0D
  8
2-0
  6
CONTINUOUS
 62
     3
 10
22019.916041999979
 20
19929.234873000001
 30
0.0
 11
22014.915777999991
 21
19929.234873000001
 31
0.0
  0
LINE
  5
3A0E
  8
2-0
  6
CONTINUOUS
 62
     3
 10
22019.916041999979
 20
19922.229357000011
 30
0.0
 11
22019.916041999979
 21
19929.234873000001
 31
0.0
  0
LINE
  5
3A0F
  8
2-0
  6
CONTINUOUS
 62
     3
 10
21988.726746999972
 20
19922.229357000011
 30
0.0
 11
21988.726746999972
 21
19929.234873000001
 31
0.0
  0
LINE
  5
3A10
  8
2-0
  6
CONTINUOUS
 62
     3
 10
21988.726746999972
 20
19929.234873000001
 30
0.0
 11
21993.727010999992
 21
19929.234873000001
 31
0.0
  0
LINE
  5
3A11
  8
2-0
  6
CONTINUOUS
 62
     3
 10
21993.727010999992
 20
19929.234873000001
 30
0.0
 11
21993.727010999992
 21
19904.22563600001
 31
0.0
  0
LINE
  5
3A12
  8
2-0
  6
CONTINUOUS
 62
     3
 10
21993.727010999992
 20
19904.22563600001
 30
0.0
 11
21975.727247999981
 21
19904.22563600001
 31
0.0
  0
LINE
  5
3A13
  8
2-0
  6
CONTINUOUS
 62
     3
 10
21975.727247999981
 20
19904.22563600001
 30
0.0
 11
21975.727247999981
 21
19934.229199000009
 31
0.0
  0
LINE
  5
3A14
  8
2-0
  6
CONTINUOUS
 62
     3
 10
21991.820733999979
 20
19904.22563600001
 30
0.0
 11
21985.820812999991
 21
19904.22563600001
 31
0.0
  0
LINE
  5
3A15
  8
2-0
  6
CONTINUOUS
 62
     3
 10
21985.820812999991
 20
19904.22563600001
 30
0.0
 11
21985.820812999991
 21
19934.229199000009
 31
0.0
  0
LINE
  5
3A16
  8
2-0
  6
CONTINUOUS
 62
     3
 10
19831.822713999991
 20
19825.228987999999
 30
0.0
 11
19831.822713999991
 21
19819.23302600002
 31
0.0
  0
LINE
  5
3A17
  8
2-0
  6
CONTINUOUS
 62
     3
 10
19831.822713999991
 20
19819.23302600002
 30
0.0
 11
19801.825088999991
 21
19819.23302600002
 31
0.0
  0
LINE
  5
3A18
  8
2-0
  6
CONTINUOUS
 62
     3
 10
19801.825088999991
 20
19819.23302600002
 30
0.0
 11
19801.825088999991
 21
19934.229199000009
 31
0.0
  0
LINE
  5
3A19
  8
2-0
  6
CONTINUOUS
 62
     3
 10
19801.825088999991
 20
19849.23263000001
 30
0.0
 11
19882.823029999989
 21
19849.23263000001
 31
0.0
  0
LINE
  5
3A1A
  8
2-0
  6
CONTINUOUS
 62
     3
 10
19831.822713999991
 20
19808.935570000001
 30
0.0
 11
19801.825088999991
 21
19808.935570000001
 31
0.0
  0
LINE
  5
3A1B
  8
2-0
  6
CONTINUOUS
 62
     3
 10
19831.822713999991
 20
19826.93731200002
 30
0.0
 11
19831.822713999991
 21
19808.935570000001
 31
0.0
  0
LINE
  5
3A1C
  8
2-0
  6
CONTINUOUS
 62
     3
 10
19806.829311999991
 20
19826.93731200002
 30
0.0
 11
19831.822713999991
 21
19826.93731200002
 31
0.0
  0
LINE
  5
3A1D
  8
2-0
  6
CONTINUOUS
 62
     3
 10
19806.829311999991
 20
19821.929130000019
 30
0.0
 11
19806.829311999991
 21
19826.93731200002
 31
0.0
  0
LINE
  5
3A1E
  8
2-0
  6
CONTINUOUS
 62
     3
 10
19813.82690999996
 20
19821.929130000019
 30
0.0
 11
19806.829311999991
 21
19821.929130000019
 31
0.0
  0
LINE
  5
3A1F
  8
2-0
  6
CONTINUOUS
 62
     3
 10
19914.121198999968
 20
19922.229357000011
 30
0.0
 11
19914.121198999968
 21
19929.234873000001
 31
0.0
  0
LINE
  5
3A20
  8
2-0
  6
CONTINUOUS
 62
     3
 10
19914.121198999968
 20
19929.234873000001
 30
0.0
 11
19909.118954999991
 21
19929.234873000001
 31
0.0
  0
LINE
  5
3A21
  8
2-0
  6
CONTINUOUS
 62
     3
 10
19909.118954999991
 20
19929.234873000001
 30
0.0
 11
19909.118954999991
 21
19904.22563600001
 31
0.0
  0
LINE
  5
3A22
  8
2-0
  6
CONTINUOUS
 62
     3
 10
19909.118954999991
 20
19904.22563600001
 30
0.0
 11
19927.126635999972
 21
19904.22563600001
 31
0.0
  0
LINE
  5
3A23
  8
2-0
  6
CONTINUOUS
 62
     3
 10
19927.126635999972
 20
19904.22563600001
 30
0.0
 11
19927.126635999972
 21
19934.229199000009
 31
0.0
  0
LINE
  5
3A24
  8
2-0
  6
CONTINUOUS
 62
     3
 10
19916.827199999982
 20
19934.229199000009
 30
0.0
 11
19801.825088999991
 21
19934.229199000009
 31
0.0
  0
LINE
  5
3A25
  8
2-0
  6
CONTINUOUS
 62
     3
 10
19916.827199999982
 20
19904.22563600001
 30
0.0
 11
19916.827199999982
 21
19934.229199000009
 31
0.0
  0
LINE
  5
3A26
  8
2-0
  6
CONTINUOUS
 62
     3
 10
19910.823320999989
 20
19904.22563600001
 30
0.0
 11
19916.827199999982
 21
19904.22563600001
 31
0.0
  0
LINE
  5
3A27
  8
2-0
  6
CONTINUOUS
 62
     3
 10
20617.911092499991
 20
19922.229357000011
 30
0.0
 11
20617.911092499991
 21
19929.234873000001
 31
0.0
  0
LINE
  5
3A28
  8
2-0
  6
CONTINUOUS
 62
     3
 10
20617.911092499991
 20
19929.234873000001
 30
0.0
 11
20612.910828499989
 21
19929.234873000001
 31
0.0
  0
LINE
  5
3A29
  8
2-0
  6
CONTINUOUS
 62
     3
 10
20612.910828499989
 20
19929.234873000001
 30
0.0
 11
20612.910828499989
 21
19904.22563600001
 31
0.0
  0
LINE
  5
3A2A
  8
2-0
  6
CONTINUOUS
 62
     3
 10
20612.910828499989
 20
19904.22563600001
 30
0.0
 11
20630.916529499991
 21
19904.22563600001
 31
0.0
  0
LINE
  5
3A2B
  8
2-0
  6
CONTINUOUS
 62
     3
 10
20630.916529499991
 20
19904.22563600001
 30
0.0
 11
20630.916529499991
 21
19934.229199000009
 31
0.0
  0
LINE
  5
3A2C
  8
2-0
  6
CONTINUOUS
 62
     3
 10
20614.819084499981
 20
19904.22563600001
 30
0.0
 11
20620.820984499991
 21
19904.22563600001
 31
0.0
  0
LINE
  5
3A2D
  8
2-0
  6
CONTINUOUS
 62
     3
 10
20620.820984499991
 20
19904.22563600001
 30
0.0
 11
20620.820984499991
 21
19934.229199000009
 31
0.0
  0
LINE
  5
3A2E
  8
2-0
  6
CONTINUOUS
 62
     3
 10
20583.82180349997
 20
19934.229199000009
 30
0.0
 11
20620.820984499991
 21
19934.229199000009
 31
0.0
  0
LINE
  5
3A2F
  8
2-0
  6
CONTINUOUS
 62
     3
 10
20583.82180349997
 20
19904.22563600001
 30
0.0
 11
20583.82180349997
 21
19934.229199000009
 31
0.0
  0
LINE
  5
3A30
  8
2-0
  6
CONTINUOUS
 62
     3
 10
20589.815785499992
 20
19904.22563600001
 30
0.0
 11
20583.82180349997
 21
19904.22563600001
 31
0.0
  0
LINE
  5
3A31
  8
2-0
  6
CONTINUOUS
 62
     3
 10
20573.726258499992
 20
19904.22563600001
 30
0.0
 11
20573.726258499992
 21
19934.229199000009
 31
0.0
  0
LINE
  5
3A32
  8
2-0
  6
CONTINUOUS
 62
     3
 10
20591.72206149999
 20
19904.22563600001
 30
0.0
 11
20573.726258499992
 21
19904.22563600001
 31
0.0
  0
LINE
  5
3A33
  8
2-0
  6
CONTINUOUS
 62
     3
 10
20591.72206149999
 20
19929.234873000001
 30
0.0
 11
20591.72206149999
 21
19904.22563600001
 31
0.0
  0
LINE
  5
3A34
  8
2-0
  6
CONTINUOUS
 62
     3
 10
20586.721797499991
 20
19929.234873000001
 30
0.0
 11
20591.72206149999
 21
19929.234873000001
 31
0.0
  0
LINE
  5
3A35
  8
2-0
  6
CONTINUOUS
 62
     3
 10
20586.721797499991
 20
19922.229357000011
 30
0.0
 11
20586.721797499991
 21
19929.234873000001
 31
0.0
  0
LINE
  5
3A36
  8
2-0
  6
CONTINUOUS
 62
     3
 10
21287.720808499991
 20
19922.229357000011
 30
0.0
 11
21287.720808499991
 21
19929.234873000001
 31
0.0
  0
LINE
  5
3A37
  8
2-0
  6
CONTINUOUS
 62
     3
 10
21287.720808499991
 20
19929.234873000001
 30
0.0
 11
21292.721071499978
 21
19929.234873000001
 31
0.0
  0
LINE
  5
3A38
  8
2-0
  6
CONTINUOUS
 62
     3
 10
21292.721071499978
 20
19929.234873000001
 30
0.0
 11
21292.721071499978
 21
19904.22563600001
 31
0.0
  0
LINE
  5
3A39
  8
2-0
  6
CONTINUOUS
 62
     3
 10
21292.721071499978
 20
19904.22563600001
 30
0.0
 11
21274.727248499981
 21
19904.22563600001
 31
0.0
  0
LINE
  5
3A3A
  8
2-0
  6
CONTINUOUS
 62
     3
 10
21274.727248499981
 20
19904.22563600001
 30
0.0
 11
21274.727248499981
 21
19934.229199000009
 31
0.0
  0
LINE
  5
3A3B
  8
2-0
  6
CONTINUOUS
 62
     3
 10
21290.818754499971
 20
19904.22563600001
 30
0.0
 11
21284.820813499991
 21
19904.22563600001
 31
0.0
  0
LINE
  5
3A3C
  8
2-0
  6
CONTINUOUS
 62
     3
 10
21284.820813499991
 20
19904.22563600001
 30
0.0
 11
21284.820813499991
 21
19934.229199000009
 31
0.0
  0
LINE
  5
3A3D
  8
2-0
  6
CONTINUOUS
 62
     3
 10
21321.821974499991
 20
19934.229199000009
 30
0.0
 11
21284.820813499991
 21
19934.229199000009
 31
0.0
  0
LINE
  5
3A3E
  8
2-0
  6
CONTINUOUS
 62
     3
 10
21321.821974499991
 20
19904.22563600001
 30
0.0
 11
21321.821974499991
 21
19934.229199000009
 31
0.0
  0
LINE
  5
3A3F
  8
2-0
  6
CONTINUOUS
 62
     3
 10
21315.816115500002
 20
19904.22563600001
 30
0.0
 11
21321.821974499991
 21
19904.22563600001
 31
0.0
  0
LINE
  5
3A40
  8
2-0
  6
CONTINUOUS
 62
     3
 10
21331.915539500002
 20
19904.22563600001
 30
0.0
 11
21331.915539500002
 21
19934.229199000009
 31
0.0
  0
LINE
  5
3A41
  8
2-0
  6
CONTINUOUS
 62
     3
 10
21313.919736499989
 20
19904.22563600001
 30
0.0
 11
21331.915539500002
 21
19904.22563600001
 31
0.0
  0
LINE
  5
3A42
  8
2-0
  6
CONTINUOUS
 62
     3
 10
21313.919736499989
 20
19929.234873000001
 30
0.0
 11
21313.919736499989
 21
19904.22563600001
 31
0.0
  0
LINE
  5
3A43
  8
2-0
  6
CONTINUOUS
 62
     3
 10
21318.910102499991
 20
19929.234873000001
 30
0.0
 11
21313.919736499989
 21
19929.234873000001
 31
0.0
  0
LINE
  5
3A44
  8
2-0
  6
CONTINUOUS
 62
     3
 10
21318.910102499991
 20
19922.229357000011
 30
0.0
 11
21318.910102499991
 21
19929.234873000001
 31
0.0
  0
LINE
  5
3A45
  8
2-0
  6
CONTINUOUS
 62
     3
 10
20630.916529499991
 20
19934.229199000009
 30
0.0
 11
21274.727248499981
 21
19934.229199000009
 31
0.0
  0
LINE
  5
3A46
  8
2-0
  6
CONTINUOUS
 62
     3
 10
19927.126635999972
 20
19934.229199000009
 30
0.0
 11
20573.726258499992
 21
19934.229199000009
 31
0.0
  0
LINE
  5
3A47
  8
2-0
  6
CONTINUOUS
 62
     3
 10
21975.727247999981
 20
19934.229199000009
 30
0.0
 11
21331.915539500002
 21
19934.229199000009
 31
0.0
  0
LINE
  5
3A48
  8
2-0
  6
CONTINUOUS
 62
     3
 10
19831.822713999991
 20
19825.228987999999
 30
0.0
 11
19831.822713999991
 21
19819.23302600002
 31
0.0
  0
LINE
  5
3A49
  8
2-0
  6
CONTINUOUS
 62
     3
 10
19831.822713999991
 20
19819.23302600002
 30
0.0
 11
19801.825088999991
 21
19819.23302600002
 31
0.0
  0
LINE
  5
3A4A
  8
2-0
  6
CONTINUOUS
 62
     3
 10
19801.825088999991
 20
19819.23302600002
 30
0.0
 11
19801.825088999991
 21
19934.229199000009
 31
0.0
  0
LINE
  5
3A4B
  8
2-0
  6
CONTINUOUS
 62
     3
 10
19801.825088999991
 20
19849.23263000001
 30
0.0
 11
19882.823029999989
 21
19849.23263000001
 31
0.0
  0
LINE
  5
3A4C
  8
2-0
  6
CONTINUOUS
 62
     3
 10
19831.822713999991
 20
19808.935570000001
 30
0.0
 11
19801.825088999991
 21
19808.935570000001
 31
0.0
  0
LINE
  5
3A4D
  8
2-0
  6
CONTINUOUS
 62
     3
 10
19831.822713999991
 20
19826.93731200002
 30
0.0
 11
19831.822713999991
 21
19808.935570000001
 31
0.0
  0
LINE
  5
3A4E
  8
2-0
  6
CONTINUOUS
 62
     3
 10
19806.829311999991
 20
19826.93731200002
 30
0.0
 11
19831.822713999991
 21
19826.93731200002
 31
0.0
  0
LINE
  5
3A4F
  8
2-0
  6
CONTINUOUS
 62
     3
 10
19806.829311999991
 20
19821.929130000019
 30
0.0
 11
19806.829311999991
 21
19826.93731200002
 31
0.0
  0
LINE
  5
3A50
  8
2-0
  6
CONTINUOUS
 62
     3
 10
19813.82690999996
 20
19821.929130000019
 30
0.0
 11
19806.829311999991
 21
19821.929130000019
 31
0.0
  0
LINE
  5
3A51
  8
2-0
  6
CONTINUOUS
 62
     3
 10
19813.82690999996
 20
19118.132307499989
 30
0.0
 11
19806.829311999991
 21
19118.132307499989
 31
0.0
  0
LINE
  5
3A52
  8
2-0
  6
CONTINUOUS
 62
     3
 10
19806.829311999991
 20
19118.132307499989
 30
0.0
 11
19806.829311999991
 21
19123.132571499991
 31
0.0
  0
LINE
  5
3A53
  8
2-0
  6
CONTINUOUS
 62
     3
 10
19806.829311999991
 20
19123.132571499991
 30
0.0
 11
19831.822713999991
 21
19123.132571499991
 31
0.0
  0
LINE
  5
3A54
  8
2-0
  6
CONTINUOUS
 62
     3
 10
19831.822713999991
 20
19123.132571499991
 30
0.0
 11
19831.822713999991
 21
19105.136767499989
 31
0.0
  0
LINE
  5
3A55
  8
2-0
  6
CONTINUOUS
 62
     3
 10
19831.822713999991
 20
19105.136767499989
 30
0.0
 11
19801.825088999991
 21
19105.136767499989
 31
0.0
  0
LINE
  5
3A56
  8
2-0
  6
CONTINUOUS
 62
     3
 10
19831.822713999991
 20
19121.22827449995
 30
0.0
 11
19831.822713999991
 21
19115.230333499989
 31
0.0
  0
LINE
  5
3A57
  8
2-0
  6
CONTINUOUS
 62
     3
 10
19831.822713999991
 20
19115.230333499989
 30
0.0
 11
19801.825088999991
 21
19115.230333499989
 31
0.0
  0
LINE
  5
3A58
  8
2-0
  6
CONTINUOUS
 62
     3
 10
19801.825088999991
 20
19115.230333499989
 30
0.0
 11
19801.825088999991
 21
19152.2314945
 31
0.0
  0
LINE
  5
3A59
  8
2-0
  6
CONTINUOUS
 62
     3
 10
19831.822713999991
 20
19152.2314945
 30
0.0
 11
19801.825088999991
 21
19152.2314945
 31
0.0
  0
LINE
  5
3A5A
  8
2-0
  6
CONTINUOUS
 62
     3
 10
19831.822713999991
 20
19146.227614499981
 30
0.0
 11
19831.822713999991
 21
19152.2314945
 31
0.0
  0
LINE
  5
3A5B
  8
2-0
  6
CONTINUOUS
 62
     3
 10
19831.822713999991
 20
19162.327039499982
 30
0.0
 11
19801.825088999991
 21
19162.327039499982
 31
0.0
  0
LINE
  5
3A5C
  8
2-0
  6
CONTINUOUS
 62
     3
 10
19831.822713999991
 20
19144.3252975
 30
0.0
 11
19831.822713999991
 21
19162.327039499982
 31
0.0
  0
LINE
  5
3A5D
  8
2-0
  6
CONTINUOUS
 62
     3
 10
19806.829311999991
 20
19144.3252975
 30
0.0
 11
19831.822713999991
 21
19144.3252975
 31
0.0
  0
LINE
  5
3A5E
  8
2-0
  6
CONTINUOUS
 62
     3
 10
19806.829311999991
 20
19149.325561500002
 30
0.0
 11
19806.829311999991
 21
19144.3252975
 31
0.0
  0
LINE
  5
3A5F
  8
2-0
  6
CONTINUOUS
 62
     3
 10
19813.82690999996
 20
19149.325561500002
 30
0.0
 11
19806.829311999991
 21
19149.325561500002
 31
0.0
  0
LINE
  5
3A60
  8
2-0
  6
CONTINUOUS
 62
     3
 10
19813.82690999996
 20
18417.131317999989
 30
0.0
 11
19806.829311999991
 21
18417.131317999989
 31
0.0
  0
LINE
  5
3A61
  8
2-0
  6
CONTINUOUS
 62
     3
 10
19806.829311999991
 20
18417.131317999989
 30
0.0
 11
19806.829311999991
 21
18422.13752
 31
0.0
  0
LINE
  5
3A62
  8
2-0
  6
CONTINUOUS
 62
     3
 10
19806.829311999991
 20
18422.13752
 30
0.0
 11
19831.822713999991
 21
18422.13752
 31
0.0
  0
LINE
  5
3A63
  8
2-0
  6
CONTINUOUS
 62
     3
 10
19831.822713999991
 20
18422.13752
 30
0.0
 11
19831.822713999991
 21
18404.135778
 31
0.0
  0
LINE
  5
3A64
  8
2-0
  6
CONTINUOUS
 62
     3
 10
19831.822713999991
 20
18404.135778
 30
0.0
 11
19801.825088999991
 21
18404.135778
 31
0.0
  0
LINE
  5
3A65
  8
2-0
  6
CONTINUOUS
 62
     3
 10
19831.822713999991
 20
18420.22728499999
 30
0.0
 11
19831.822713999991
 21
18414.231322999989
 31
0.0
  0
LINE
  5
3A66
  8
2-0
  6
CONTINUOUS
 62
     3
 10
19831.822713999991
 20
18414.231322999989
 30
0.0
 11
19801.825088999991
 21
18414.231322999989
 31
0.0
  0
LINE
  5
3A67
  8
2-0
  6
CONTINUOUS
 62
     3
 10
19801.825088999991
 20
18414.231322999989
 30
0.0
 11
19801.825088999991
 21
18451.230504999989
 31
0.0
  0
LINE
  5
3A68
  8
2-0
  6
CONTINUOUS
 62
     3
 10
19831.822713999991
 20
18451.230504999989
 30
0.0
 11
19801.825088999991
 21
18451.230504999989
 31
0.0
  0
LINE
  5
3A69
  8
2-0
  6
CONTINUOUS
 62
     3
 10
19831.822713999991
 20
18445.23454300001
 30
0.0
 11
19831.822713999991
 21
18451.230504999989
 31
0.0
  0
LINE
  5
3A6A
  8
2-0
  6
CONTINUOUS
 62
     3
 10
19831.822713999991
 20
18461.32605
 30
0.0
 11
19801.825088999991
 21
18461.32605
 31
0.0
  0
LINE
  5
3A6B
  8
2-0
  6
CONTINUOUS
 62
     3
 10
19831.822713999991
 20
18443.324307999988
 30
0.0
 11
19831.822713999991
 21
18461.32605
 31
0.0
  0
LINE
  5
3A6C
  8
2-0
  6
CONTINUOUS
 62
     3
 10
19806.829311999991
 20
18443.324307999988
 30
0.0
 11
19831.822713999991
 21
18443.324307999988
 31
0.0
  0
LINE
  5
3A6D
  8
2-0
  6
CONTINUOUS
 62
     3
 10
19806.829311999991
 20
18448.330509999989
 30
0.0
 11
19806.829311999991
 21
18443.324307999988
 31
0.0
  0
LINE
  5
3A6E
  8
2-0
  6
CONTINUOUS
 62
     3
 10
19813.82690999996
 20
18448.330509999989
 30
0.0
 11
19806.829311999991
 21
18448.330509999989
 31
0.0
  0
LINE
  5
3A6F
  8
2-0
  6
CONTINUOUS
 62
     3
 10
19813.82690999996
 20
17747.324572000001
 30
0.0
 11
19806.829311999991
 21
17747.324572000001
 31
0.0
  0
LINE
  5
3A70
  8
2-0
  6
CONTINUOUS
 62
     3
 10
19806.829311999991
 20
17747.324572000001
 30
0.0
 11
19806.829311999991
 21
17742.336185
 31
0.0
  0
LINE
  5
3A71
  8
2-0
  6
CONTINUOUS
 62
     3
 10
19806.829311999991
 20
17742.336185
 30
0.0
 11
19831.822713999991
 21
17742.336185
 31
0.0
  0
LINE
  5
3A72
  8
2-0
  6
CONTINUOUS
 62
     3
 10
19831.822713999991
 20
17742.336185
 30
0.0
 11
19831.822713999991
 21
17760.331988000002
 31
0.0
  0
LINE
  5
3A73
  8
2-0
  6
CONTINUOUS
 62
     3
 10
19831.822713999991
 20
17760.331988000002
 30
0.0
 11
19801.825088999991
 21
17760.331988000002
 31
0.0
  0
LINE
  5
3A74
  8
2-0
  6
CONTINUOUS
 62
     3
 10
19831.822713999991
 20
17744.234542999991
 30
0.0
 11
19831.822713999991
 21
17750.230504999981
 31
0.0
  0
LINE
  5
3A75
  8
2-0
  6
CONTINUOUS
 62
     3
 10
19831.822713999991
 20
17750.230504999981
 30
0.0
 11
19801.825088999991
 21
17750.230504999981
 31
0.0
  0
LINE
  5
3A76
  8
2-0
  6
CONTINUOUS
 62
     3
 10
19801.825088999991
 20
17750.230504999981
 30
0.0
 11
19801.825088999991
 21
17713.231323
 31
0.0
  0
LINE
  5
3A77
  8
2-0
  6
CONTINUOUS
 62
     3
 10
19831.822713999991
 20
17713.231323
 30
0.0
 11
19801.825088999991
 21
17713.231323
 31
0.0
  0
LINE
  5
3A78
  8
2-0
  6
CONTINUOUS
 62
     3
 10
19831.822713999991
 20
17719.233223999989
 30
0.0
 11
19831.822713999991
 21
17713.231323
 31
0.0
  0
LINE
  5
3A79
  8
2-0
  6
CONTINUOUS
 62
     3
 10
19831.822713999991
 20
17703.141716999991
 30
0.0
 11
19801.825088999991
 21
17703.141716999991
 31
0.0
  0
LINE
  5
3A7A
  8
2-0
  6
CONTINUOUS
 62
     3
 10
19831.822713999991
 20
17721.13752
 30
0.0
 11
19831.822713999991
 21
17703.141716999991
 31
0.0
  0
LINE
  5
3A7B
  8
2-0
  6
CONTINUOUS
 62
     3
 10
19806.829311999991
 20
17721.13752
 30
0.0
 11
19831.822713999991
 21
17721.13752
 31
0.0
  0
LINE
  5
3A7C
  8
2-0
  6
CONTINUOUS
 62
     3
 10
19806.829311999991
 20
17716.137256999991
 30
0.0
 11
19806.829311999991
 21
17721.13752
 31
0.0
  0
LINE
  5
3A7D
  8
2-0
  6
CONTINUOUS
 62
     3
 10
19813.82690999996
 20
17716.137256999991
 30
0.0
 11
19806.829311999991
 21
17716.137256999991
 31
0.0
  0
LINE
  5
3A7E
  8
2-0
  6
CONTINUOUS
 62
     3
 10
19804.711226999982
 20
16996.228143
 30
0.0
 11
19804.711226999982
 21
17016.229198000001
 31
0.0
  0
LINE
  5
3A7F
  8
2-0
  6
CONTINUOUS
 62
     3
 10
19804.711226999982
 20
17016.229198000001
 30
0.0
 11
19889.711754999978
 21
17016.229198000001
 31
0.0
  0
LINE
  5
3A80
  8
2-0
  6
CONTINUOUS
 62
     3
 10
19813.82690999996
 20
17042.835908000001
 30
0.0
 11
19806.829311999991
 21
17042.835908000001
 31
0.0
  0
LINE
  5
3A81
  8
2-0
  6
CONTINUOUS
 62
     3
 10
19806.829311999991
 20
17042.835908000001
 30
0.0
 11
19806.829311999991
 21
17037.841582000001
 31
0.0
  0
LINE
  5
3A82
  8
2-0
  6
CONTINUOUS
 62
     3
 10
19806.829311999991
 20
17037.841582000001
 30
0.0
 11
19831.822713999991
 21
17037.841582000001
 31
0.0
  0
LINE
  5
3A83
  8
2-0
  6
CONTINUOUS
 62
     3
 10
19831.822713999991
 20
17037.841582000001
 30
0.0
 11
19831.822713999991
 21
17055.83738600001
 31
0.0
  0
LINE
  5
3A84
  8
2-0
  6
CONTINUOUS
 62
     3
 10
19831.822713999991
 20
17055.83738600001
 30
0.0
 11
19801.825088999991
 21
17055.83738600001
 31
0.0
  0
LINE
  5
3A85
  8
2-0
  6
CONTINUOUS
 62
     3
 10
19831.822713999991
 20
17046.228802000001
 30
0.0
 11
19831.822713999991
 21
17040.226901999991
 31
0.0
  0
LINE
  5
3A86
  8
2-0
  6
CONTINUOUS
 62
     3
 10
19801.825088999991
 20
17046.228802000001
 30
0.0
 11
19831.822713999991
 21
17046.228802000001
 31
0.0
  0
LINE
  5
3A87
  8
2-0
  6
CONTINUOUS
 62
     3
 10
19801.825088999991
 20
17055.83738600001
 30
0.0
 11
19801.825088999991
 21
17703.141716999991
 31
0.0
  0
LINE
  5
3A88
  8
2-0
  6
CONTINUOUS
 62
     3
 10
19801.825088999991
 20
17760.331988000002
 30
0.0
 11
19801.825088999991
 21
18404.135778
 31
0.0
  0
LINE
  5
3A89
  8
2-0
  6
CONTINUOUS
 62
     3
 10
19801.825088999991
 20
16901.22708700001
 30
0.0
 11
19831.822713999991
 21
16901.22708700001
 31
0.0
  0
LINE
  5
3A8A
  8
2-0
  6
CONTINUOUS
 62
     3
 10
19831.822713999991
 20
16901.22708700001
 30
0.0
 11
19831.822713999991
 21
16907.22898700001
 31
0.0
  0
LINE
  5
3A8B
  8
2-0
  6
CONTINUOUS
 62
     3
 10
19889.711754999978
 20
16931.232629999991
 30
0.0
 11
19804.711226999982
 21
16931.232629999991
 31
0.0
  0
LINE
  5
3A8C
  8
2-0
  6
CONTINUOUS
 62
     3
 10
19804.711226999982
 20
16931.232629999991
 30
0.0
 11
19804.711226999982
 21
16951.227747000012
 31
0.0
  0
LINE
  5
3A8D
  8
2-0
  6
CONTINUOUS
 62
     3
 10
19831.822713999991
 20
16891.618503999998
 30
0.0
 11
19801.825088999991
 21
16891.618503999998
 31
0.0
  0
LINE
  5
3A8E
  8
2-0
  6
CONTINUOUS
 62
     3
 10
19831.822713999991
 20
16909.614306999982
 30
0.0
 11
19831.822713999991
 21
16891.618503999998
 31
0.0
  0
LINE
  5
3A8F
  8
2-0
  6
CONTINUOUS
 62
     3
 10
19806.829311999991
 20
16909.614306999982
 30
0.0
 11
19831.822713999991
 21
16909.614306999982
 31
0.0
  0
LINE
  5
3A90
  8
2-0
  6
CONTINUOUS
 62
     3
 10
19806.829311999991
 20
16904.614043000009
 30
0.0
 11
19806.829311999991
 21
16909.614306999982
 31
0.0
  0
LINE
  5
3A91
  8
2-0
  6
CONTINUOUS
 62
     3
 10
19813.82690999996
 20
16904.614043000009
 30
0.0
 11
19806.829311999991
 21
16904.614043000009
 31
0.0
  0
LINE
  5
3A92
  8
2-0
  6
CONTINUOUS
 62
     3
 10
19813.82690999996
 20
16200.131812499991
 30
0.0
 11
19806.829311999991
 21
16200.131812499991
 31
0.0
  0
LINE
  5
3A93
  8
2-0
  6
CONTINUOUS
 62
     3
 10
19806.829311999991
 20
16200.131812499991
 30
0.0
 11
19806.829311999991
 21
16205.13207649998
 31
0.0
  0
LINE
  5
3A94
  8
2-0
  6
CONTINUOUS
 62
     3
 10
19806.829311999991
 20
16205.13207649998
 30
0.0
 11
19831.822713999991
 21
16205.13207649998
 31
0.0
  0
LINE
  5
3A95
  8
2-0
  6
CONTINUOUS
 62
     3
 10
19831.822713999991
 20
16205.13207649998
 30
0.0
 11
19831.822713999991
 21
16187.130334499991
 31
0.0
  0
LINE
  5
3A96
  8
2-0
  6
CONTINUOUS
 62
     3
 10
19831.822713999991
 20
16187.130334499991
 30
0.0
 11
19801.825088999991
 21
16187.130334499991
 31
0.0
  0
LINE
  5
3A97
  8
2-0
  6
CONTINUOUS
 62
     3
 10
19831.822713999991
 20
16203.227779500001
 30
0.0
 11
19831.822713999991
 21
16197.2308285
 31
0.0
  0
LINE
  5
3A98
  8
2-0
  6
CONTINUOUS
 62
     3
 10
19831.822713999991
 20
16197.2308285
 30
0.0
 11
19801.825088999991
 21
16197.2308285
 31
0.0
  0
LINE
  5
3A99
  8
2-0
  6
CONTINUOUS
 62
     3
 10
19801.825088999991
 20
16197.2308285
 30
0.0
 11
19801.825088999991
 21
16234.2309995
 31
0.0
  0
LINE
  5
3A9A
  8
2-0
  6
CONTINUOUS
 62
     3
 10
19831.822713999991
 20
16234.2309995
 30
0.0
 11
19801.825088999991
 21
16234.2309995
 31
0.0
  0
LINE
  5
3A9B
  8
2-0
  6
CONTINUOUS
 62
     3
 10
19831.822713999991
 20
16228.228109499991
 30
0.0
 11
19831.822713999991
 21
16234.2309995
 31
0.0
  0
LINE
  5
3A9C
  8
2-0
  6
CONTINUOUS
 62
     3
 10
19831.822713999991
 20
16244.3265445
 30
0.0
 11
19801.825088999991
 21
16244.3265445
 31
0.0
  0
LINE
  5
3A9D
  8
2-0
  6
CONTINUOUS
 62
     3
 10
19831.822713999991
 20
16226.318863500001
 30
0.0
 11
19831.822713999991
 21
16244.3265445
 31
0.0
  0
LINE
  5
3A9E
  8
2-0
  6
CONTINUOUS
 62
     3
 10
19806.829311999991
 20
16226.318863500001
 30
0.0
 11
19831.822713999991
 21
16226.318863500001
 31
0.0
  0
LINE
  5
3A9F
  8
2-0
  6
CONTINUOUS
 62
     3
 10
19806.829311999991
 20
16231.3250665
 30
0.0
 11
19806.829311999991
 21
16226.318863500001
 31
0.0
  0
LINE
  5
3AA0
  8
2-0
  6
CONTINUOUS
 62
     3
 10
19813.82690999996
 20
16231.3250665
 30
0.0
 11
19806.829311999991
 21
16231.3250665
 31
0.0
  0
LINE
  5
3AA1
  8
2-0
  6
CONTINUOUS
 62
     3
 10
19813.82690999996
 20
15530.565083
 30
0.0
 11
19806.829311999991
 21
15530.565083
 31
0.0
  0
LINE
  5
3AA2
  8
2-0
  6
CONTINUOUS
 62
     3
 10
19806.829311999991
 20
15530.565083
 30
0.0
 11
19806.829311999991
 21
15525.570758000011
 31
0.0
  0
LINE
  5
3AA3
  8
2-0
  6
CONTINUOUS
 62
     3
 10
19806.829311999991
 20
15525.570758000011
 30
0.0
 11
19831.822713999991
 21
15525.570758000011
 31
0.0
  0
LINE
  5
3AA4
  8
2-0
  6
CONTINUOUS
 62
     3
 10
19831.822713999991
 20
15525.570758000011
 30
0.0
 11
19831.822713999991
 21
15543.566561000011
 31
0.0
  0
LINE
  5
3AA5
  8
2-0
  6
CONTINUOUS
 62
     3
 10
19831.822713999991
 20
15543.566561000011
 30
0.0
 11
19801.825088999991
 21
15543.566561000011
 31
0.0
  0
LINE
  5
3AA6
  8
2-0
  6
CONTINUOUS
 62
     3
 10
19831.822713999991
 20
15527.469116
 30
0.0
 11
19831.822713999991
 21
15533.47101600001
 31
0.0
  0
LINE
  5
3AA7
  8
2-0
  6
CONTINUOUS
 62
     3
 10
19831.822713999991
 20
15533.47101600001
 30
0.0
 11
19801.825088999991
 21
15533.47101600001
 31
0.0
  0
LINE
  5
3AA8
  8
2-0
  6
CONTINUOUS
 62
     3
 10
19801.825088999991
 20
15496.471835
 30
0.0
 11
19801.825088999991
 21
15533.47101600001
 31
0.0
  0
LINE
  5
3AA9
  8
2-0
  6
CONTINUOUS
 62
     3
 10
19831.822713999991
 20
15496.471835
 30
0.0
 11
19801.825088999991
 21
15496.471835
 31
0.0
  0
LINE
  5
3AAA
  8
2-0
  6
CONTINUOUS
 62
     3
 10
19831.822713999991
 20
15502.468785999999
 30
0.0
 11
19831.822713999991
 21
15496.471835
 31
0.0
  0
LINE
  5
3AAB
  8
2-0
  6
CONTINUOUS
 62
     3
 10
19831.822713999991
 20
15486.370351
 30
0.0
 11
19801.825088999991
 21
15486.370351
 31
0.0
  0
LINE
  5
3AAC
  8
2-0
  6
CONTINUOUS
 62
     3
 10
19831.822713999991
 20
15504.378032000001
 30
0.0
 11
19831.822713999991
 21
15486.370351
 31
0.0
  0
LINE
  5
3AAD
  8
2-0
  6
CONTINUOUS
 62
     3
 10
19806.829311999991
 20
15504.378032000001
 30
0.0
 11
19831.822713999991
 21
15504.378032000001
 31
0.0
  0
LINE
  5
3AAE
  8
2-0
  6
CONTINUOUS
 62
     3
 10
19806.829311999991
 20
15499.377768000009
 30
0.0
 11
19806.829311999991
 21
15504.378032000001
 31
0.0
  0
LINE
  5
3AAF
  8
2-0
  6
CONTINUOUS
 62
     3
 10
19813.82690999996
 20
15499.377768000009
 30
0.0
 11
19806.829311999991
 21
15499.377768000009
 31
0.0
  0
LINE
  5
3AB0
  8
2-0
  6
CONTINUOUS
 62
     3
 10
19801.825088999991
 20
16891.618503999998
 30
0.0
 11
19801.825088999991
 21
16244.3265445
 31
0.0
  0
LINE
  5
3AB1
  8
2-0
  6
CONTINUOUS
 62
     3
 10
19801.825088999991
 20
17046.228802000001
 30
0.0
 11
19801.825088999991
 21
16901.22708700001
 31
0.0
  0
LINE
  5
3AB2
  8
2-0
  6
CONTINUOUS
 62
     3
 10
19889.711754999978
 20
17016.229198000001
 30
0.0
 11
19889.711754999978
 21
16931.232629999991
 31
0.0
  0
LINE
  5
3AB3
  8
2-0
  6
CONTINUOUS
 62
     3
 10
19813.82690999996
 20
14798.136761
 30
0.0
 11
19806.829311999991
 21
14798.136761
 31
0.0
  0
LINE
  5
3AB4
  8
2-0
  6
CONTINUOUS
 62
     3
 10
19806.829311999991
 20
14798.136761
 30
0.0
 11
19806.829311999991
 21
14803.131087000011
 31
0.0
  0
LINE
  5
3AB5
  8
2-0
  6
CONTINUOUS
 62
     3
 10
19806.829311999991
 20
14803.131087000011
 30
0.0
 11
19831.822713999991
 21
14803.131087000011
 31
0.0
  0
LINE
  5
3AB6
  8
2-0
  6
CONTINUOUS
 62
     3
 10
19831.822713999991
 20
14803.131087000011
 30
0.0
 11
19831.822713999991
 21
14785.135283000011
 31
0.0
  0
LINE
  5
3AB7
  8
2-0
  6
CONTINUOUS
 62
     3
 10
19831.822713999991
 20
14785.135283000011
 30
0.0
 11
19801.825088999991
 21
14785.135283000011
 31
0.0
  0
LINE
  5
3AB8
  8
2-0
  6
CONTINUOUS
 62
     3
 10
19831.822713999991
 20
14801.23371800001
 30
0.0
 11
19831.822713999991
 21
14795.230828000011
 31
0.0
  0
LINE
  5
3AB9
  8
2-0
  6
CONTINUOUS
 62
     3
 10
19831.822713999991
 20
14795.230828000011
 30
0.0
 11
19801.825088999991
 21
14795.230828000011
 31
0.0
  0
LINE
  5
3ABA
  8
2-0
  6
CONTINUOUS
 62
     3
 10
19801.825088999991
 20
14795.230828000011
 30
0.0
 11
19801.825088999991
 21
14832.231
 31
0.0
  0
LINE
  5
3ABB
  8
2-0
  6
CONTINUOUS
 62
     3
 10
19831.822713999991
 20
14832.231
 30
0.0
 11
19801.825088999991
 21
14832.231
 31
0.0
  0
LINE
  5
3ABC
  8
2-0
  6
CONTINUOUS
 62
     3
 10
19831.822713999991
 20
14826.234047999989
 30
0.0
 11
19831.822713999991
 21
14832.231
 31
0.0
  0
LINE
  5
3ABD
  8
2-0
  6
CONTINUOUS
 62
     3
 10
19831.822713999991
 20
14842.331493000011
 30
0.0
 11
19801.825088999991
 21
14842.331493000011
 31
0.0
  0
LINE
  5
3ABE
  8
2-0
  6
CONTINUOUS
 62
     3
 10
19831.822713999991
 20
14824.32480200001
 30
0.0
 11
19831.822713999991
 21
14842.331493000011
 31
0.0
  0
LINE
  5
3ABF
  8
2-0
  6
CONTINUOUS
 62
     3
 10
19806.829311999991
 20
14824.32480200001
 30
0.0
 11
19831.822713999991
 21
14824.32480200001
 31
0.0
  0
LINE
  5
3AC0
  8
2-0
  6
CONTINUOUS
 62
     3
 10
19806.829311999991
 20
14829.33001500001
 30
0.0
 11
19806.829311999991
 21
14824.32480200001
 31
0.0
  0
LINE
  5
3AC1
  8
2-0
  6
CONTINUOUS
 62
     3
 10
19813.82690999996
 20
14829.33001500001
 30
0.0
 11
19806.829311999991
 21
14829.33001500001
 31
0.0
  0
LINE
  5
3AC2
  8
2-0
  6
CONTINUOUS
 62
     3
 10
19831.822713999991
 20
13771.73284099999
 30
0.0
 11
19831.822713999991
 21
13777.73770999999
 31
0.0
  0
LINE
  5
3AC3
  8
2-0
  6
CONTINUOUS
 62
     3
 10
19831.822713999991
 20
13777.73770999999
 30
0.0
 11
19801.825088999991
 21
13777.73770999999
 31
0.0
  0
LINE
  5
3AC4
  8
2-0
  6
CONTINUOUS
 62
     3
 10
19801.825088999991
 20
13777.73770999999
 30
0.0
 11
19801.825088999991
 21
13662.733619000001
 31
0.0
  0
LINE
  5
3AC5
  8
2-0
  6
CONTINUOUS
 62
     3
 10
19801.825088999991
 20
13662.733619000001
 30
0.0
 11
19886.82363699999
 21
13662.733619000001
 31
0.0
  0
LINE
  5
3AC6
  8
2-0
  6
CONTINUOUS
 62
     3
 10
19886.82363699999
 20
13662.733619000001
 30
0.0
 11
19886.82363699999
 21
13747.729198000001
 31
0.0
  0
LINE
  5
3AC7
  8
2-0
  6
CONTINUOUS
 62
     3
 10
19886.82363699999
 20
13747.729198000001
 30
0.0
 11
19854.826698999961
 21
13747.729198000001
 31
0.0
  0
LINE
  5
3AC8
  8
2-0
  6
CONTINUOUS
 62
     3
 10
19813.82690999996
 20
13774.767443000001
 30
0.0
 11
19806.829311999991
 21
13774.767443000001
 31
0.0
  0
LINE
  5
3AC9
  8
2-0
  6
CONTINUOUS
 62
     3
 10
19806.829311999991
 20
13774.767443000001
 30
0.0
 11
19806.829311999991
 21
13769.77014799998
 31
0.0
  0
LINE
  5
3ACA
  8
2-0
  6
CONTINUOUS
 62
     3
 10
19806.829311999991
 20
13769.77014799998
 30
0.0
 11
19831.822713999991
 21
13769.77014799998
 31
0.0
  0
LINE
  5
3ACB
  8
2-0
  6
CONTINUOUS
 62
     3
 10
19831.822713999991
 20
13769.77014799998
 30
0.0
 11
19831.822713999991
 21
13787.768921000001
 31
0.0
  0
LINE
  5
3ACC
  8
2-0
  6
CONTINUOUS
 62
     3
 10
19831.822713999991
 20
13787.768921000001
 30
0.0
 11
19801.825088999991
 21
13787.768921000001
 31
0.0
  0
LINE
  5
3ACD
  8
2-0
  6
CONTINUOUS
 62
     3
 10
19801.825088999991
 20
14842.331493000011
 30
0.0
 11
19801.825088999991
 21
15486.370351
 31
0.0
  0
LINE
  5
3ACE
  8
2-0
  6
CONTINUOUS
 62
     3
 10
19801.825088999991
 20
18461.32605
 30
0.0
 11
19801.825088999991
 21
19105.136767499989
 31
0.0
  0
LINE
  5
3ACF
  8
2-0
  6
CONTINUOUS
 62
     3
 10
19801.825088999991
 20
16187.130334499991
 30
0.0
 11
19801.825088999991
 21
15543.566561000011
 31
0.0
  0
LINE
  5
3AD0
  8
2-0
  6
CONTINUOUS
 62
     3
 10
25722.819677999989
 20
19819.23302600002
 30
0.0
 11
25722.819677999989
 21
19934.229199000009
 31
0.0
  0
LINE
  5
3AD1
  8
2-0
  6
CENTER2
 62
     6
 10
18514.866816999991
 20
19891.730914
 30
0.0
 11
26572.820997999988
 21
19891.730914
 31
0.0
  0
LINE
  5
3AD2
  8
2-0
  6
CENTER2
 62
     6
 10
18514.866816999991
 20
16973.730914
 30
0.0
 11
26572.820997999988
 21
16973.730914
 31
0.0
  0
LINE
  5
3AD3
  8
2-0
  6
CENTER2
 62
     6
 10
18514.866816999991
 20
13705.230913999991
 30
0.0
 11
26572.820997999988
 21
13705.230913999991
 31
0.0
  0
LINE
  5
3AD4
  8
2-0
  6
CONTINUOUS
 62
     3
 10
19801.825088999991
 20
19849.23263000001
 30
0.0
 11
25641.817777999971
 21
19849.23263000001
 31
0.0
  0
LINE
  5
3AD5
  8
2-0
  6
CONTINUOUS
 62
     3
 10
19801.825088999991
 20
14141.268644000011
 30
0.0
 11
19801.825088999991
 21
14785.135283000011
 31
0.0
  0
LINE
  5
3AD6
  8
2-0
  6
CENTER2
 62
     6
 10
19844.321393999991
 20
21134.229199000009
 30
0.0
 11
19844.321393999991
 21
13079.46747999999
 31
0.0
  0
LINE
  5
3AD7
  8
2-0
  6
CENTER2
 62
     6
 10
25680.321393999991
 20
21134.229199000009
 30
0.0
 11
25680.321393999991
 21
13079.46747999999
 31
0.0
  0
LINE
  5
3AD8
  8
2-0
  6
CONTINUOUS
 62
     3
 10
25722.819677999989
 20
19808.935570000001
 30
0.0
 11
25722.819677999989
 21
19162.327039499982
 31
0.0
  0
LINE
  5
3AD9
  8
2-0
  6
CONTINUOUS
 62
     3
 10
19801.825088999991
 20
19808.935570000001
 30
0.0
 11
19801.825088999991
 21
19162.327039499982
 31
0.0
  0
LINE
  5
3ADA
  8
2-0
  6
CENTER2
 62
     6
 10
22762.321393999991
 20
21134.229199000009
 30
0.0
 11
22762.321393999991
 21
13513.82631299999
 31
0.0
  0
LINE
  5
3ADB
  8
2-0
  6
CONTINUOUS
 62
     3
 10
19813.82690999996
 20
14097.13725600002
 30
0.0
 11
19806.829311999991
 21
14097.13725600002
 31
0.0
  0
LINE
  5
3ADC
  8
2-0
  6
CONTINUOUS
 62
     3
 10
19806.829311999991
 20
14097.13725600002
 30
0.0
 11
19806.829311999991
 21
14102.131582000011
 31
0.0
  0
LINE
  5
3ADD
  8
2-0
  6
CONTINUOUS
 62
     3
 10
19806.829311999991
 20
14102.131582000011
 30
0.0
 11
19831.822713999991
 21
14102.131582000011
 31
0.0
  0
LINE
  5
3ADE
  8
2-0
  6
CONTINUOUS
 62
     3
 10
19831.822713999991
 20
14102.131582000011
 30
0.0
 11
19831.822713999991
 21
14084.135778000011
 31
0.0
  0
LINE
  5
3ADF
  8
2-0
  6
CONTINUOUS
 62
     3
 10
19831.822713999991
 20
14084.135778000011
 30
0.0
 11
19801.825088999991
 21
14084.135778000011
 31
0.0
  0
LINE
  5
3AE0
  8
2-0
  6
CONTINUOUS
 62
     3
 10
19831.822713999991
 20
14100.23322400002
 30
0.0
 11
19831.822713999991
 21
14094.231323000011
 31
0.0
  0
LINE
  5
3AE1
  8
2-0
  6
CONTINUOUS
 62
     3
 10
19831.822713999991
 20
14094.231323000011
 30
0.0
 11
19801.825088999991
 21
14094.231323000011
 31
0.0
  0
LINE
  5
3AE2
  8
2-0
  6
CONTINUOUS
 62
     3
 10
19801.825088999991
 20
14094.231323000011
 30
0.0
 11
19801.825088999991
 21
14131.230505
 31
0.0
  0
LINE
  5
3AE3
  8
2-0
  6
CONTINUOUS
 62
     3
 10
19831.822713999991
 20
14131.230505
 30
0.0
 11
19801.825088999991
 21
14131.230505
 31
0.0
  0
LINE
  5
3AE4
  8
2-0
  6
CONTINUOUS
 62
     3
 10
19831.822713999991
 20
14125.23454300002
 30
0.0
 11
19831.822713999991
 21
14131.230505
 31
0.0
  0
LINE
  5
3AE5
  8
2-0
  6
CONTINUOUS
 62
     3
 10
19831.822713999991
 20
14141.331988
 30
0.0
 11
19801.825088999991
 21
14141.331988
 31
0.0
  0
LINE
  5
3AE6
  8
2-0
  6
CONTINUOUS
 62
     3
 10
19831.822713999991
 20
14123.324307999999
 30
0.0
 11
19831.822713999991
 21
14141.331988
 31
0.0
  0
LINE
  5
3AE7
  8
2-0
  6
CONTINUOUS
 62
     3
 10
19806.829311999991
 20
14123.324307999999
 30
0.0
 11
19831.822713999991
 21
14123.324307999999
 31
0.0
  0
LINE
  5
3AE8
  8
2-0
  6
CONTINUOUS
 62
     3
 10
19806.829311999991
 20
14128.330510000011
 30
0.0
 11
19806.829311999991
 21
14123.324307999999
 31
0.0
  0
LINE
  5
3AE9
  8
2-0
  6
CONTINUOUS
 62
     3
 10
19813.82690999996
 20
14128.330510000011
 30
0.0
 11
19806.829311999991
 21
14128.330510000011
 31
0.0
  0
LINE
  5
3AEA
  8
2-0
  6
CONTINUOUS
 62
     3
 10
19801.825088999991
 20
13787.768921000001
 30
0.0
 11
19801.825088999991
 21
14084.135778000011
 31
0.0
  0
LINE
  5
3AEB
  8
2-0
  6
CONTINUOUS
 62
     3
 10
19882.823029999989
 20
13747.729198000001
 30
0.0
 11
19882.823029999989
 21
19934.229199000009
 31
0.0
  0
LINE
  5
3AEC
  8
2-0
  6
CONTINUOUS
 62
     3
 10
25710.817856999998
 20
14097.137256000011
 30
0.0
 11
25717.819414000001
 21
14097.137256000011
 31
0.0
  0
LINE
  5
3AED
  8
2-0
  6
CONTINUOUS
 62
     3
 10
25717.819414000001
 20
14097.137256000011
 30
0.0
 11
25717.819414000001
 21
14102.131582000011
 31
0.0
  0
LINE
  5
3AEE
  8
2-0
  6
CONTINUOUS
 62
     3
 10
25717.819414000001
 20
14102.131582000011
 30
0.0
 11
25692.822053999971
 21
14102.131582000011
 31
0.0
  0
LINE
  5
3AEF
  8
2-0
  6
CONTINUOUS
 62
     3
 10
25692.822053999971
 20
14102.131582000011
 30
0.0
 11
25692.822053999971
 21
14084.135778000011
 31
0.0
  0
LINE
  5
3AF0
  8
2-0
  6
CONTINUOUS
 62
     3
 10
25692.822053999971
 20
14084.135778000011
 30
0.0
 11
25722.819677999989
 21
14084.135778000011
 31
0.0
  0
LINE
  5
3AF1
  8
2-0
  6
CONTINUOUS
 62
     3
 10
25692.822053999971
 20
14100.233224000011
 30
0.0
 11
25692.822053999971
 21
14094.231322999991
 31
0.0
  0
LINE
  5
3AF2
  8
2-0
  6
CONTINUOUS
 62
     3
 10
25692.822053999971
 20
14094.231322999991
 30
0.0
 11
25722.819677999989
 21
14094.231322999991
 31
0.0
  0
LINE
  5
3AF3
  8
2-0
  6
CONTINUOUS
 62
     3
 10
25722.819677999989
 20
14094.231322999991
 30
0.0
 11
25722.819677999989
 21
14131.230505
 31
0.0
  0
LINE
  5
3AF4
  8
2-0
  6
CONTINUOUS
 62
     3
 10
25692.822053999971
 20
14131.230505
 30
0.0
 11
25722.819677999989
 21
14131.230505
 31
0.0
  0
LINE
  5
3AF5
  8
2-0
  6
CONTINUOUS
 62
     3
 10
25692.822053999971
 20
14125.23454300002
 30
0.0
 11
25692.822053999971
 21
14131.230505
 31
0.0
  0
LINE
  5
3AF6
  8
2-0
  6
CONTINUOUS
 62
     3
 10
25692.822053999971
 20
14141.331988
 30
0.0
 11
25722.819677999989
 21
14141.331988
 31
0.0
  0
LINE
  5
3AF7
  8
2-0
  6
CONTINUOUS
 62
     3
 10
25692.822053999971
 20
14123.32430799999
 30
0.0
 11
25692.822053999971
 21
14141.331988
 31
0.0
  0
LINE
  5
3AF8
  8
2-0
  6
CONTINUOUS
 62
     3
 10
25717.819414000001
 20
14123.32430799999
 30
0.0
 11
25692.822053999971
 21
14123.32430799999
 31
0.0
  0
LINE
  5
3AF9
  8
2-0
  6
CONTINUOUS
 62
     3
 10
25717.819414000001
 20
14128.330509999991
 30
0.0
 11
25717.819414000001
 21
14123.32430799999
 31
0.0
  0
LINE
  5
3AFA
  8
2-0
  6
CONTINUOUS
 62
     3
 10
25710.817856999998
 20
14128.330509999991
 30
0.0
 11
25717.819414000001
 21
14128.330509999991
 31
0.0
  0
LINE
  5
3AFB
  8
2-0
  6
CONTINUOUS
 62
     3
 10
25722.819677999989
 20
13787.768921000001
 30
0.0
 11
25722.819677999989
 21
14084.135778000011
 31
0.0
  0
LINE
  5
3AFC
  8
2-0
  6
CONTINUOUS
 62
     3
 10
25641.817777999971
 20
13747.729198000001
 30
0.0
 11
25641.817777999971
 21
19934.229199000009
 31
0.0
  0
LINE
  5
3AFD
  8
2-0
  6
CONTINUOUS
 62
     3
 10
22719.829047999981
 20
19091.233619499999
 30
0.0
 11
22804.821658000001
 21
19091.233619499999
 31
0.0
  0
LINE
  5
3AFE
  8
2-0
  6
CONTINUOUS
 62
     3
 10
22804.821658000001
 20
19176.228208500001
 30
0.0
 11
22719.829047999981
 21
19176.228208500001
 31
0.0
  0
LINE
  5
3AFF
  8
2-0
  6
CONTINUOUS
 62
     3
 10
22719.829047999981
 20
19176.228208500001
 30
0.0
 11
22719.829047999981
 21
19091.233619499999
 31
0.0
  0
LINE
  5
3B00
  8
2-0
  6
CONTINUOUS
 62
     3
 10
22804.821658000001
 20
19091.233619499999
 30
0.0
 11
22804.821658000001
 21
19176.228208500001
 31
0.0
  0
LINE
  5
3B01
  8
2-0
  6
CONTINUOUS
 62
     6
 10
22801.256544999989
 20
19082.092981000009
 30
0.0
 11
23077.846758
 21
18626.748281
 31
0.0
  0
LINE
  5
3B02
  8
2-0
  6
CONTINUOUS
 62
     6
 10
23077.846758
 20
18626.748281
 30
0.0
 11
24108.196077000001
 21
18626.748281
 31
0.0
  0
LINE
  5
3B03
  8
2-0
  6
CONTINUOUS
 62
     6
 10
22861.534865000001
 20
18931.497146000009
 30
0.0
 11
22801.256544999989
 21
19082.092981000009
 31
0.0
  0
LINE
  5
3B04
  8
2-0
  6
CONTINUOUS
 62
     6
 10
22801.256544999989
 20
19082.092981000009
 30
0.0
 11
22907.115259999991
 21
18959.184672999989
 31
0.0
  0
LINE
  5
3B05
  8
2-0
  6
CONTINUOUS
 62
     6
 10
22861.534865000001
 20
18931.497146000009
 30
0.0
 11
22907.115259999991
 21
18959.184672999989
 31
0.0
  0
LINE
  5
3B06
  8
2-0
  6
CONTINUOUS
 62
     6
 10
22907.115259999991
 20
18959.184672999989
 30
0.0
 11
22801.256544999989
 21
19082.092981000009
 31
0.0
  0
LINE
  5
3B07
  8
2-0
  6
CONTINUOUS
 62
     6
 10
22801.256544999989
 20
19082.092981000009
 30
0.0
 11
22861.534865000001
 21
18931.497146000009
 31
0.0
  0
LINE
  5
3B08
  8
2-0
  6
CONTINUOUS
 62
     6
 10
22861.534865000001
 20
18931.497146000009
 30
0.0
 11
22801.256544999989
 21
19082.092981000009
 31
0.0
  0
LINE
  5
3B09
  8
2-0
  6
CONTINUOUS
 62
     6
 10
22907.115259999991
 20
18959.184672999989
 30
0.0
 11
22801.256544999989
 21
19082.092981000009
 31
0.0
  0
LINE
  5
3B0A
  8
2-0
  6
CONTINUOUS
 62
     6
 10
22907.115259999991
 20
18959.184672999989
 30
0.0
 11
22861.534865000001
 21
18931.497146000009
 31
0.0
  0
CIRCLE
  5
3B0B
  8
2-0
  6
CONTINUOUS
 62
     4
 10
18314.869126999991
 20
19891.730914
 30
0.0
 40
200.00001
  0
CIRCLE
  5
3B0C
  8
2-0
  6
CONTINUOUS
 62
     4
 10
18314.869126999991
 20
16973.730914
 30
0.0
 40
200.00001
  0
CIRCLE
  5
3B0D
  8
2-0
  6
CONTINUOUS
 62
     4
 10
18314.869126999991
 20
13705.230913999991
 30
0.0
 40
200.00001
  0
CIRCLE
  5
3B0E
  8
2-0
  6
CONTINUOUS
 62
     4
 10
22762.321393999991
 20
21334.233818000012
 30
0.0
 40
200.00001
  0
CIRCLE
  5
3B0F
  8
2-0
  6
CONTINUOUS
 62
     4
 10
19844.321393999991
 20
21334.233818000012
 30
0.0
 40
200.00001
  0
TEXT
  5
3B10
  8
2-0
  6
CONTINUOUS
 62
     7
 10
24077.16670099998
 20
13145.232035999999
 30
0.0
 40
160.0
  1
前柱（右）
 50
0.000213
 72
     4
 11
24493.166403593001
 21
13225.23358250079
 31
0.0
  0
TEXT
  5
3B11
  8
2-0
  6
CONTINUOUS
 62
     7
 10
24281.761824000001
 20
16424.22405200002
 30
0.0
 40
160.0
  1
壁パネル
 50
359.99982299999999
 72
     4
 11
24644.428737803551
 21
16504.222931637891
 31
0.0
  0
TEXT
  5
3B12
  8
2-0
  6
CONTINUOUS
 62
     7
 10
24001.758919999989
 20
17261.411948000012
 30
0.0
 40
160.0
  1
中柱（左右）
 50
0.000354
 72
     4
 11
24519.091759046201
 21
17341.415144324659
 31
0.0
  0
TEXT
  5
3B13
  8
2-0
  6
CONTINUOUS
 62
     7
 10
24681.761164
 20
14118.273302
 30
0.0
 40
160.0
  1
下枠
 50
0.001063
 72
     4
 11
24852.426346409291
 21
14198.276468339291
 31
0.0
  0
TEXT
  5
3B14
  8
2-0
  6
CONTINUOUS
 62
     7
 10
24176.726588000001
 20
18864.680686499989
 30
0.0
 40
160.0
  1
間柱（側）
 72
     4
 11
24598.05992133333
 21
18944.680686499989
 31
0.0
  0
TEXT
  5
3B15
  8
2-0
  6
CONTINUOUS
 62
     7
 10
26495.316906999979
 20
20744.228406999999
 30
0.0
 40
160.0
  1
後柱（左右）
 50
0.000354
 72
     4
 11
27007.31641271296
 21
20824.231570372842
 31
0.0
  0
TEXT
  5
3B16
  8
2-0
  6
CONTINUOUS
 62
     7
 10
23161.410156000002
 20
14283.069213999979
 30
0.0
 40
160.0
  1
前柱（中）
 72
     4
 11
23577.410156000002
 21
14363.069213999979
 31
0.0
  0
TEXT
  5
3B17
  8
2-0
  6
CONTINUOUS
 62
     7
 10
21598.190269999999
 20
19297.111246000011
 30
0.0
 40
160.0
  1
間柱（後）
 72
     4
 11
22019.523603333331
 21
19377.111246000011
 31
0.0
  0
TEXT
  5
3B18
  8
2-0
  6
CONTINUOUS
 62
     7
 10
23032.614759000011
 20
19365.855967000021
 30
0.0
 40
160.0
  1
後柱（中）
 72
     4
 11
23448.614759000011
 21
19445.855967000021
 31
0.0
  0
TEXT
  5
3B19
  8
2-0
  6
CONTINUOUS
 62
     7
 10
18266.86975999998
 20
19797.250472000022
 30
0.0
 40
160.0
  1
C
 72
     4
 11
18320.203093333312
 21
19877.250472000022
 31
0.0
  0
TEXT
  5
3B1A
  8
2-0
  6
CONTINUOUS
 62
     7
 10
18267.090475999979
 20
16903.336832000019
 30
0.0
 40
160.0
  1
B
 72
     4
 11
18320.423809333319
 21
16983.336832000019
 31
0.0
  0
TEXT
  5
3B1B
  8
2-0
  6
CONTINUOUS
 62
     7
 10
18267.133035999981
 20
13616.62370299999
 30
0.0
 40
160.0
  1
A
 72
     4
 11
18320.46636933331
 21
13696.62370299999
 31
0.0
  0
TEXT
  5
3B1C
  8
2-0
  6
CONTINUOUS
 62
     7
 10
22710.689611000002
 20
21238.708189000012
 30
0.0
 40
160.0
  1
2
 72
     4
 11
22764.02294433333
 21
21318.708189000012
 31
0.0
  0
TEXT
  5
3B1D
  8
2-0
  6
CONTINUOUS
 62
     7
 10
19800.114784999969
 20
21245.466266000029
 30
0.0
 40
160.0
  1
1
 72
     4
 11
19826.78145166664
 21
21325.466266000029
 31
0.0
  0
TEXT
  5
3B1E
  8
2-0
  6
CONTINUOUS
 62
     7
 10
23199.828652
 20
18699.748967999989
 30
0.0
 40
160.0
  1
梁補助柱
 72
     4
 11
23562.495318666672
 21
18779.748967999989
 31
0.0
  0
LINE
  5
3B1F
  8
2-0
  6
CONTINUOUS
 62
     3
 10
24940.821974999992
 20
19934.229199000009
 30
0.0
 11
24903.820812999991
 21
19934.229199000009
 31
0.0
  0
LINE
  5
3B20
  8
2-0
  6
CONTINUOUS
 62
     3
 10
24940.821974999992
 20
19904.22563600001
 30
0.0
 11
24940.821974999992
 21
19934.229199000009
 31
0.0
  0
LINE
  5
3B21
  8
2-0
  6
CONTINUOUS
 62
     3
 10
24934.822053999971
 20
19904.22563600001
 30
0.0
 11
24940.821974999992
 21
19904.22563600001
 31
0.0
  0
LINE
  5
3B22
  8
2-0
  6
CONTINUOUS
 62
     3
 10
24950.919498999989
 20
19904.22563600001
 30
0.0
 11
24950.919498999989
 21
19934.229199000009
 31
0.0
  0
LINE
  5
3B23
  8
2-0
  6
CONTINUOUS
 62
     3
 10
24932.915777999991
 20
19904.22563600001
 30
0.0
 11
24950.919498999989
 21
19904.22563600001
 31
0.0
  0
LINE
  5
3B24
  8
2-0
  6
CONTINUOUS
 62
     3
 10
24932.915777999991
 20
19929.234873000001
 30
0.0
 11
24932.915777999991
 21
19904.22563600001
 31
0.0
  0
LINE
  5
3B25
  8
2-0
  6
CONTINUOUS
 62
     3
 10
24937.91604199999
 20
19929.234873000001
 30
0.0
 11
24932.915777999991
 21
19929.234873000001
 31
0.0
  0
LINE
  5
3B26
  8
2-0
  6
CONTINUOUS
 62
     3
 10
24937.91604199999
 20
19922.229357000011
 30
0.0
 11
24937.91604199999
 21
19929.234873000001
 31
0.0
  0
LINE
  5
3B27
  8
2-0
  6
CONTINUOUS
 62
     3
 10
24906.726746999972
 20
19922.229357000011
 30
0.0
 11
24906.726746999972
 21
19929.234873000001
 31
0.0
  0
LINE
  5
3B28
  8
2-0
  6
CONTINUOUS
 62
     3
 10
24906.726746999972
 20
19929.234873000001
 30
0.0
 11
24911.727010999992
 21
19929.234873000001
 31
0.0
  0
LINE
  5
3B29
  8
2-0
  6
CONTINUOUS
 62
     3
 10
24911.727010999992
 20
19929.234873000001
 30
0.0
 11
24911.727010999992
 21
19904.22563600001
 31
0.0
  0
LINE
  5
3B2A
  8
2-0
  6
CONTINUOUS
 62
     3
 10
24911.727010999992
 20
19904.22563600001
 30
0.0
 11
24893.727247999988
 21
19904.22563600001
 31
0.0
  0
LINE
  5
3B2B
  8
2-0
  6
CONTINUOUS
 62
     3
 10
24893.727247999988
 20
19904.22563600001
 30
0.0
 11
24893.727247999988
 21
19934.229199000009
 31
0.0
  0
LINE
  5
3B2C
  8
2-0
  6
CONTINUOUS
 62
     3
 10
24909.82073399999
 20
19904.22563600001
 30
0.0
 11
24903.820812999991
 21
19904.22563600001
 31
0.0
  0
LINE
  5
3B2D
  8
2-0
  6
CONTINUOUS
 62
     3
 10
24903.820812999991
 20
19904.22563600001
 30
0.0
 11
24903.820812999991
 21
19934.229199000009
 31
0.0
  0
LINE
  5
3B2E
  8
2-0
  6
CONTINUOUS
 62
     3
 10
23535.911092499991
 20
19922.229357000011
 30
0.0
 11
23535.911092499991
 21
19929.234873000001
 31
0.0
  0
LINE
  5
3B2F
  8
2-0
  6
CONTINUOUS
 62
     3
 10
23535.911092499991
 20
19929.234873000001
 30
0.0
 11
23530.910828499978
 21
19929.234873000001
 31
0.0
  0
LINE
  5
3B30
  8
2-0
  6
CONTINUOUS
 62
     3
 10
23530.910828499978
 20
19929.234873000001
 30
0.0
 11
23530.910828499978
 21
19904.22563600001
 31
0.0
  0
LINE
  5
3B31
  8
2-0
  6
CONTINUOUS
 62
     3
 10
23530.910828499978
 20
19904.22563600001
 30
0.0
 11
23548.916529499991
 21
19904.22563600001
 31
0.0
  0
LINE
  5
3B32
  8
2-0
  6
CONTINUOUS
 62
     3
 10
23548.916529499991
 20
19904.22563600001
 30
0.0
 11
23548.916529499991
 21
19934.229199000009
 31
0.0
  0
LINE
  5
3B33
  8
2-0
  6
CONTINUOUS
 62
     3
 10
23532.819084499992
 20
19904.22563600001
 30
0.0
 11
23538.820984499991
 21
19904.22563600001
 31
0.0
  0
LINE
  5
3B34
  8
2-0
  6
CONTINUOUS
 62
     3
 10
23538.820984499991
 20
19904.22563600001
 30
0.0
 11
23538.820984499991
 21
19934.229199000009
 31
0.0
  0
LINE
  5
3B35
  8
2-0
  6
CONTINUOUS
 62
     3
 10
23501.821803499981
 20
19934.229199000009
 30
0.0
 11
23538.820984499991
 21
19934.229199000009
 31
0.0
  0
LINE
  5
3B36
  8
2-0
  6
CONTINUOUS
 62
     3
 10
23501.821803499981
 20
19904.22563600001
 30
0.0
 11
23501.821803499981
 21
19934.229199000009
 31
0.0
  0
LINE
  5
3B37
  8
2-0
  6
CONTINUOUS
 62
     3
 10
23507.815785499992
 20
19904.22563600001
 30
0.0
 11
23501.821803499981
 21
19904.22563600001
 31
0.0
  0
LINE
  5
3B38
  8
2-0
  6
CONTINUOUS
 62
     3
 10
23491.726258499992
 20
19904.22563600001
 30
0.0
 11
23491.726258499992
 21
19934.229199000009
 31
0.0
  0
LINE
  5
3B39
  8
2-0
  6
CONTINUOUS
 62
     3
 10
23509.722061499979
 20
19904.22563600001
 30
0.0
 11
23491.726258499992
 21
19904.22563600001
 31
0.0
  0
LINE
  5
3B3A
  8
2-0
  6
CONTINUOUS
 62
     3
 10
23509.722061499979
 20
19929.234873000001
 30
0.0
 11
23509.722061499979
 21
19904.22563600001
 31
0.0
  0
LINE
  5
3B3B
  8
2-0
  6
CONTINUOUS
 62
     3
 10
23504.721797499991
 20
19929.234873000001
 30
0.0
 11
23509.722061499979
 21
19929.234873000001
 31
0.0
  0
LINE
  5
3B3C
  8
2-0
  6
CONTINUOUS
 62
     3
 10
23504.721797499991
 20
19922.229357000011
 30
0.0
 11
23504.721797499991
 21
19929.234873000001
 31
0.0
  0
LINE
  5
3B3D
  8
2-0
  6
CONTINUOUS
 62
     3
 10
24205.720808499991
 20
19922.229357000011
 30
0.0
 11
24205.720808499991
 21
19929.234873000001
 31
0.0
  0
LINE
  5
3B3E
  8
2-0
  6
CONTINUOUS
 62
     3
 10
24205.720808499991
 20
19929.234873000001
 30
0.0
 11
24210.721071499989
 21
19929.234873000001
 31
0.0
  0
LINE
  5
3B3F
  8
2-0
  6
CONTINUOUS
 62
     3
 10
24210.721071499989
 20
19929.234873000001
 30
0.0
 11
24210.721071499989
 21
19904.22563600001
 31
0.0
  0
LINE
  5
3B40
  8
2-0
  6
CONTINUOUS
 62
     3
 10
24210.721071499989
 20
19904.22563600001
 30
0.0
 11
24192.727248499981
 21
19904.22563600001
 31
0.0
  0
LINE
  5
3B41
  8
2-0
  6
CONTINUOUS
 62
     3
 10
24192.727248499981
 20
19904.22563600001
 30
0.0
 11
24192.727248499981
 21
19934.229199000009
 31
0.0
  0
LINE
  5
3B42
  8
2-0
  6
CONTINUOUS
 62
     3
 10
24208.818754499971
 20
19904.22563600001
 30
0.0
 11
24202.820813499991
 21
19904.22563600001
 31
0.0
  0
LINE
  5
3B43
  8
2-0
  6
CONTINUOUS
 62
     3
 10
24202.820813499991
 20
19904.22563600001
 30
0.0
 11
24202.820813499991
 21
19934.229199000009
 31
0.0
  0
LINE
  5
3B44
  8
2-0
  6
CONTINUOUS
 62
     3
 10
24239.821974499991
 20
19934.229199000009
 30
0.0
 11
24202.820813499991
 21
19934.229199000009
 31
0.0
  0
LINE
  5
3B45
  8
2-0
  6
CONTINUOUS
 62
     3
 10
24239.821974499991
 20
19904.22563600001
 30
0.0
 11
24239.821974499991
 21
19934.229199000009
 31
0.0
  0
LINE
  5
3B46
  8
2-0
  6
CONTINUOUS
 62
     3
 10
24233.816115499991
 20
19904.22563600001
 30
0.0
 11
24239.821974499991
 21
19904.22563600001
 31
0.0
  0
LINE
  5
3B47
  8
2-0
  6
CONTINUOUS
 62
     3
 10
24249.915539499991
 20
19904.22563600001
 30
0.0
 11
24249.915539499991
 21
19934.229199000009
 31
0.0
  0
LINE
  5
3B48
  8
2-0
  6
CONTINUOUS
 62
     3
 10
24231.919736499982
 20
19904.22563600001
 30
0.0
 11
24249.915539499991
 21
19904.22563600001
 31
0.0
  0
LINE
  5
3B49
  8
2-0
  6
CONTINUOUS
 62
     3
 10
24231.919736499982
 20
19929.234873000001
 30
0.0
 11
24231.919736499982
 21
19904.22563600001
 31
0.0
  0
LINE
  5
3B4A
  8
2-0
  6
CONTINUOUS
 62
     3
 10
24236.910102499991
 20
19929.234873000001
 30
0.0
 11
24231.919736499982
 21
19929.234873000001
 31
0.0
  0
LINE
  5
3B4B
  8
2-0
  6
CONTINUOUS
 62
     3
 10
24236.910102499991
 20
19922.229357000011
 30
0.0
 11
24236.910102499991
 21
19929.234873000001
 31
0.0
  0
LINE
  5
3B4C
  8
2-0
  6
CONTINUOUS
 62
     3
 10
23548.916529499991
 20
19934.229199000009
 30
0.0
 11
24192.727248499981
 21
19934.229199000009
 31
0.0
  0
LINE
  5
3B4D
  8
2-0
  6
CONTINUOUS
 62
     3
 10
22844.439742999992
 20
19934.229199000009
 30
0.0
 11
23491.726258499992
 21
19934.229199000009
 31
0.0
  0
LINE
  5
3B4E
  8
2-0
  6
CONTINUOUS
 62
     3
 10
25598.205023999992
 20
19934.229199000009
 30
0.0
 11
24950.919498999989
 21
19934.229199000009
 31
0.0
  0
LINE
  5
3B4F
  8
2-0
  6
CONTINUOUS
 62
     3
 10
24893.727247999988
 20
19934.229199000009
 30
0.0
 11
24249.915539499991
 21
19934.229199000009
 31
0.0
  0
LINE
  5
3B50
  8
2-0
  6
CONTINUOUS
 62
     3
 10
22680.893897000002
 20
19934.229199000009
 30
0.0
 11
22032.919498999981
 21
19934.229199000009
 31
0.0
  0
LINE
  5
3B51
  8
2-0
  6
CONTINUOUS
 62
     3
 10
25722.819677999989
 20
15486.370351
 30
0.0
 11
25722.819677999989
 21
14842.331493000011
 31
0.0
  0
LINE
  5
3B52
  8
2-0
  6
CONTINUOUS
 62
     3
 10
25722.819677999989
 20
14785.135283
 30
0.0
 11
25722.819677999989
 21
14141.331988
 31
0.0
  0
CIRCLE
  5
3B53
  8
2-0
  6
CONTINUOUS
 62
     4
 10
25680.321393999991
 20
21334.233818000012
 30
0.0
 40
200.00001
  0
TEXT
  5
3B54
  8
2-0
  6
CONTINUOUS
 62
     7
 10
25628.689611000002
 20
21238.708189000012
 30
0.0
 40
160.0
  1
3
 72
     4
 11
25682.02294433333
 21
21318.708189000012
 31
0.0
  0
LINE
  5
3B55
  8
SUNPOU
  6
CONTINUOUS
 10
7202.8589990000009
 20
20114.226823000001
 30
0.0
 11
7202.8589990000009
 21
20911.19409077847
 31
0.0
  0
LINE
  5
3B56
  8
SUNPOU
  6
CONTINUOUS
 10
7202.8589989999991
 20
13512.735599
 30
0.0
 11
7202.8589989999991
 21
12837.309483189631
 31
0.0
  0
TEXT
  5
3B57
  8
2-0
  6
CONTINUOUS
 62
     7
 10
9884.7257545000066
 20
11447.902811642631
 30
0.0
 40
160.0
  1
小 屋 伏 図
 50
0.000193
 72
     4
 11
10386.058818351659
 21
11527.90450037622
 31
0.0
  0
TEXT
  5
3B58
  8
2-0
  6
CONTINUOUS
 62
     7
 10
11737.55100348927
 20
11475.09986937623
 30
0.0
 40
160.0
  1
1
 72
     4
 11
11764.21767015594
 21
11555.09986937623
 31
0.0
  0
TEXT
  5
3B59
  8
2-0
  6
CONTINUOUS
 62
     7
 10
11980.63972073998
 20
11395.101337376231
 30
0.0
 40
160.0
  1
80
 72
     4
 11
12100.63972073998
 21
11475.101337376231
 31
0.0
  0
TEXT
  5
3B5A
  8
2-0
  6
CONTINUOUS
 62
     7
 10
11238.55296948927
 20
11447.90450037622
 30
0.0
 40
160.0
  1
(S=  /   )
 72
     4
 11
11798.55296948927
 21
11527.90450037622
 31
0.0
  0
LINE
  5
3B5B
  8
SUNPOU
  6
CONTINUOUS
 10
8882.5340609999967
 20
9424.5917609999997
 30
0.0
 11
8407.2449483597666
 21
9424.5917609999997
 31
0.0
  0
LINE
  5
3B5E
  8
WAKUSEN-01
 10
868.00000000000193
 20
22484.000000000011
 30
0.0
 11
32764.000000000011
 21
22484.000000000011
 31
0.0
  0
LINE
  5
3B61
  8
WAKUSEN-01
 10
20560.0
 20
2484.0
 30
0.0
 11
32764.0
 21
2484.0
 31
0.0
  0
LINE
  5
3B62
  8
WAKUSEN-02
 10
20560.0
 20
1655.9999999999991
 30
0.0
 11
26868.0
 21
1655.9999999999991
 31
0.0
  0
TEXT
  5
3B63
  8
WAKUMOJI-01
 10
20670.260259962761
 20
2125.9030093393221
 30
0.0
 40
240.0
  1
名　称
  7
WAKUMOJI
  0
TEXT
  5
3B64
  8
WAKUMOJI-01
 10
20656.505485091919
 20
1319.12897497982
 30
0.0
 40
240.0
  1
機種名
  7
WAKUMOJI
  0
LINE
  5
3B67
  8
YODOROGO
 10
29977.604341291921
 20
1995.7494964292871
 30
0.0
 11
29829.604341291921
 21
1995.7494964292871
 31
0.0
1001
AUTOCAD_POSTSCRIPT_FIGURE
1002
{
1000
PSFILL
1000
Grayscale
1000
Grayscale
1070
    25
1002
}
  0
LINE
  5
3B68
  8
YODOROGO
 10
29829.604341291921
 20
1947.749496429288
 30
0.0
 11
29977.604341291921
 21
1947.749496429288
 31
0.0
1001
AUTOCAD_POSTSCRIPT_FIGURE
1002
{
1000
PSFILL
1000
Grayscale
1000
Grayscale
1070
    25
1002
}
  0
LINE
  5
3B69
  8
YODOROGO
 10
29977.604341291921
 20
1907.7494964292871
 30
0.0
 11
29829.604341291921
 21
1907.7494964292871
 31
0.0
1001
AUTOCAD_POSTSCRIPT_FIGURE
1002
{
1000
PSFILL
1000
Grayscale
1000
Grayscale
1070
    25
1002
}
  0
LINE
  5
3B6A
  8
YODOROGO
 10
29829.604341291921
 20
1859.749496429288
 30
0.0
 11
29977.604341291921
 21
1859.749496429288
 31
0.0
1001
AUTOCAD_POSTSCRIPT_FIGURE
1002
{
1000
PSFILL
1000
Grayscale
1000
Grayscale
1070
    25
1002
}
  0
LINE
  5
3B6B
  8
YODOROGO
 10
29977.604341291921
 20
1819.7494964292871
 30
0.0
 11
29829.604341291921
 21
1819.7494964292871
 31
0.0
1001
AUTOCAD_POSTSCRIPT_FIGURE
1002
{
1000
PSFILL
1000
Grayscale
1000
Grayscale
1070
    25
1002
}
  0
LINE
  5
3B6C
  8
YODOROGO
 10
29921.60434129191
 20
1707.749496429288
 30
0.0
 11
29977.604341291921
 21
1707.749496429288
 31
0.0
1001
AUTOCAD_POSTSCRIPT_FIGURE
1002
{
1000
PSFILL
1000
Grayscale
1000
Grayscale
1070
    25
1002
}
  0
LINE
  5
3B6D
  8
YODOROGO
 10
29737.604341291921
 20
1427.749496429288
 30
0.0
 11
29937.604341291932
 21
1481.3393349155101
 31
0.0
  0
LINE
  5
3B6E
  8
YODOROGO
 10
29949.60434129191
 20
1707.749496429288
 30
0.0
 11
29885.604341291921
 21
1707.749496429288
 31
0.0
  0
ARC
  5
3B6F
  8
YODOROGO
 10
30254.34774982791
 20
1807.864609233261
 30
0.0
 40
381.88686420564721
 50
213.96111677667841
 51
264.47872074317792
  0
ARC
  5
3B70
  8
YODOROGO
 10
30254.347749827921
 20
1807.864609233302
 30
0.0
 40
381.8868642056816
 50
208.14114420486601
 51
212.9210361185994
  0
LINE
  5
3B71
  8
YODOROGO
 10
29771.409872985321
 20
1556.807661346234
 30
0.0
 11
29933.78413250855
 21
1600.3157130570869
 31
0.0
  0
LINE
  5
3B72
  8
YODOROGO
 10
29737.604341291921
 20
1427.749496429288
 30
0.0
 11
29937.604341291932
 21
1481.3393349155101
 31
0.0
  0
LINE
  5
3B73
  8
YODOROGO
 10
29949.60434129191
 20
1707.749496429288
 30
0.0
 11
29885.604341291921
 21
1707.749496429288
 31
0.0
  0
ARC
  5
3B74
  8
YODOROGO
 10
30254.34774982791
 20
1807.864609233261
 30
0.0
 40
381.88686420564721
 50
213.96111677667841
 51
264.47872074317792
  0
LINE
  5
3B75
  8
YODOROGO
 10
28793.60434129191
 20
1819.7494964292871
 30
0.0
 11
28433.60434129191
 21
1819.7494964292871
 31
0.0
  0
LINE
  5
3B76
  8
YODOROGO
 10
28513.60434129191
 20
1427.749496429288
 30
0.0
 11
28793.60434129191
 21
1427.749496429288
 31
0.0
  0
LINE
  5
3B77
  8
YODOROGO
 10
28729.604341291921
 20
1923.7494964292871
 30
0.0
 11
28497.60434129191
 21
1923.7494964292871
 31
0.0
  0
LINE
  5
3B78
  8
YODOROGO
 10
28585.604341291921
 20
2027.749496429288
 30
0.0
 11
28657.604341291921
 21
2027.749496429288
 31
0.0
  0
LINE
  5
3B79
  8
YODOROGO
 10
28433.60434129191
 20
1707.749496429288
 30
0.0
 11
28433.60434129191
 21
1507.749496429288
 31
0.0
  0
LINE
  5
3B7A
  8
YODOROGO
 10
28497.60434129191
 20
1563.7494964292871
 30
0.0
 11
28497.60434129191
 21
1707.749496429288
 31
0.0
  0
LINE
  5
3B7B
  8
YODOROGO
 10
28585.604341291921
 20
1747.74949642929
 30
0.0
 11
28585.604341291921
 21
1547.749496429288
 31
0.0
  0
LINE
  5
3B7C
  8
YODOROGO
 10
27857.604341291921
 20
1683.749496429288
 30
0.0
 11
27777.604341291921
 21
1619.9724140445701
 31
0.0
  0
LINE
  5
3B7D
  8
YODOROGO
 10
27937.604341291921
 20
1619.9724140445701
 30
0.0
 11
27857.604341291921
 21
1683.749496429288
 31
0.0
  0
LINE
  5
3B7E
  8
YODOROGO
 10
27857.604341291921
 20
1707.749496429288
 30
0.0
 11
27937.604341291921
 21
1643.9724140445701
 31
0.0
  0
LINE
  5
3B7F
  8
YODOROGO
 10
27777.604341291921
 20
1643.9724140445701
 30
0.0
 11
27857.604341291921
 21
1707.749496429288
 31
0.0
  0
LINE
  5
3B80
  8
YODOROGO
 10
28040.913204016892
 20
1659.749496429288
 30
0.0
 11
28040.913204016892
 21
1683.7494964292871
 31
0.0
  0
LINE
  5
3B81
  8
YODOROGO
 10
27977.604341291921
 20
1683.7494964292871
 30
0.0
 11
27977.604341291921
 21
1667.749496429285
 31
0.0
  0
LINE
  5
3B82
  8
YODOROGO
 10
28098.135520230931
 20
1707.749496429288
 30
0.0
 11
28098.135520230931
 21
1655.5036372746561
 31
0.0
1001
AUTOCAD_POSTSCRIPT_FIGURE
1002
{
1000
PSFILL
1000
Grayscale
1000
Grayscale
1070
   100
1002
}
  0
LINE
  5
3B83
  8
YODOROGO
 10
28082.135520230921
 20
1655.5036372746561
 30
0.0
 11
28082.135520230921
 21
1707.749496429288
 31
0.0
1001
AUTOCAD_POSTSCRIPT_FIGURE
1002
{
1000
PSFILL
1000
Grayscale
1000
Grayscale
1070
   100
1002
}
  0
LINE
  5
3B84
  8
YODOROGO
 10
27809.604341291921
 20
1608.771904043258
 30
0.0
 11
27809.604341291921
 21
1632.771904043258
 31
0.0
  0
LINE
  5
3B85
  8
YODOROGO
 10
27905.604341291921
 20
1608.771904043258
 30
0.0
 11
27809.604341291921
 21
1608.771904043258
 31
0.0
  0
LINE
  5
3B86
  8
YODOROGO
 10
27905.604341291921
 20
1632.771904043258
 30
0.0
 11
27905.604341291921
 21
1608.771904043258
 31
0.0
  0
LINE
  5
3B87
  8
YODOROGO
 10
27809.604341291921
 20
1632.771904043258
 30
0.0
 11
27905.604341291921
 21
1632.771904043258
 31
0.0
  0
LINE
  5
3B88
  8
YODOROGO
 10
27824.509588915738
 20
1568.5028573704751
 30
0.0
 11
27785.604341291921
 21
1475.7494964292871
 31
0.0
1001
AUTOCAD_POSTSCRIPT_FIGURE
1002
{
1000
PSFILL
1000
Grayscale
1000
Grayscale
1070
   100
1002
}
  0
LINE
  5
3B89
  8
YODOROGO
 10
27777.604341291921
 20
1568.5028573704751
 30
0.0
 11
27824.509588915738
 21
1568.5028573704751
 31
0.0
1001
AUTOCAD_POSTSCRIPT_FIGURE
1002
{
1000
PSFILL
1000
Grayscale
1000
Grayscale
1070
   100
1002
}
  0
LINE
  5
3B8A
  8
YODOROGO
 10
27777.604341291921
 20
1588.5028573704751
 30
0.0
 11
27777.604341291921
 21
1568.5028573704751
 31
0.0
1001
AUTOCAD_POSTSCRIPT_FIGURE
1002
{
1000
PSFILL
1000
Grayscale
1000
Grayscale
1070
   100
1002
}
  0
LINE
  5
3B8B
  8
YODOROGO
 10
27937.604341291921
 20
1588.5028573704751
 30
0.0
 11
27777.604341291921
 21
1588.5028573704751
 31
0.0
1001
AUTOCAD_POSTSCRIPT_FIGURE
1002
{
1000
PSFILL
1000
Grayscale
1000
Grayscale
1070
   100
1002
}
  0
LINE
  5
3B8C
  8
YODOROGO
 10
27937.604341291921
 20
1568.5028573704751
 30
0.0
 11
27937.604341291921
 21
1588.5028573704751
 31
0.0
1001
AUTOCAD_POSTSCRIPT_FIGURE
1002
{
1000
PSFILL
1000
Grayscale
1000
Grayscale
1070
   100
1002
}
  0
LINE
  5
3B8D
  8
YODOROGO
 10
27844.509588915738
 20
1568.5028573704751
 30
0.0
 11
27937.604341291921
 21
1568.5028573704751
 31
0.0
1001
AUTOCAD_POSTSCRIPT_FIGURE
1002
{
1000
PSFILL
1000
Grayscale
1000
Grayscale
1070
   100
1002
}
  0
LINE
  5
3B8E
  8
YODOROGO
 10
27815.546718284771
 20
1495.7494964292871
 30
0.0
 11
27844.509588915738
 21
1568.5028573704751
 31
0.0
1001
AUTOCAD_POSTSCRIPT_FIGURE
1002
{
1000
PSFILL
1000
Grayscale
1000
Grayscale
1070
   100
1002
}
  0
LINE
  5
3B8F
  8
YODOROGO
 10
27902.054790808648
 20
1495.7494964292871
 30
0.0
 11
27815.546718284771
 21
1495.7494964292871
 31
0.0
1001
AUTOCAD_POSTSCRIPT_FIGURE
1002
{
1000
PSFILL
1000
Grayscale
1000
Grayscale
1070
   100
1002
}
  0
LINE
  5
3B90
  8
YODOROGO
 10
27885.065004790951
 20
1536.2338106976929
 30
0.0
 11
27902.054790808648
 21
1495.7494964292871
 31
0.0
1001
AUTOCAD_POSTSCRIPT_FIGURE
1002
{
1000
PSFILL
1000
Grayscale
1000
Grayscale
1070
   100
1002
}
  0
LINE
  5
3B91
  8
YODOROGO
 10
27901.065004790951
 20
1536.2338106976929
 30
0.0
 11
27885.065004790951
 21
1536.2338106976929
 31
0.0
1001
AUTOCAD_POSTSCRIPT_FIGURE
1002
{
1000
PSFILL
1000
Grayscale
1000
Grayscale
1070
   100
1002
}
  0
LINE
  5
3B92
  8
YODOROGO
 10
27929.604341291921
 20
1475.7494964292871
 30
0.0
 11
27901.065004790951
 21
1536.2338106976929
 31
0.0
1001
AUTOCAD_POSTSCRIPT_FIGURE
1002
{
1000
PSFILL
1000
Grayscale
1000
Grayscale
1070
   100
1002
}
  0
LINE
  5
3B93
  8
YODOROGO
 10
27785.604341291921
 20
1475.7494964292871
 30
0.0
 11
27929.604341291921
 21
1475.7494964292871
 31
0.0
1001
AUTOCAD_POSTSCRIPT_FIGURE
1002
{
1000
PSFILL
1000
Grayscale
1000
Grayscale
1070
   100
1002
}
  0
LINE
  5
3B94
  8
YODOROGO
 10
27777.604341291921
 20
1619.9724140445701
 30
0.0
 11
27777.604341291921
 21
1643.9724140445701
 31
0.0
  0
LINE
  5
3B95
  8
YODOROGO
 10
27937.604341291921
 20
1643.9724140445701
 30
0.0
 11
27937.604341291921
 21
1619.9724140445701
 31
0.0
  0
ARC
  5
3B96
  8
YODOROGO
 10
28225.940442146959
 20
1600.877765325326
 30
0.0
 40
175.9999999999998
 50
280.3644312771313
 51
3.5414836592180561
  0
ARC
  5
3B97
  8
YODOROGO
 10
28235.756030759301
 20
1633.5978069619041
 30
0.0
 40
111.9999999999982
 50
281.24905825041549
 51
348.75094174958321
  0
LINE
  5
3B98
  8
YODOROGO
 10
28257.604341291921
 20
1523.7494964292871
 30
0.0
 11
28257.604341291921
 21
1427.749496429288
 31
0.0
  0
LINE
  5
3B99
  8
YODOROGO
 10
28020.088903736909
 20
1610.650565061914
 30
0.0
 11
28040.913204016892
 21
1659.749496429288
 31
0.0
  0
LINE
  5
3B9A
  8
YODOROGO
 10
28041.604341291921
 20
1583.120489948401
 30
0.0
 11
28020.088903736909
 21
1610.650565061914
 31
0.0
  0
LINE
  5
3B9B
  8
YODOROGO
 10
28041.604341291921
 20
1563.120489948398
 30
0.0
 11
28041.604341291921
 21
1583.120489948401
 31
0.0
  0
LINE
  5
3B9C
  8
YODOROGO
 10
28017.604341291921
 20
1585.2370637495301
 30
0.0
 11
28041.604341291921
 21
1563.120489948398
 31
0.0
  0
LINE
  5
3B9D
  8
YODOROGO
 10
28017.604341291921
 20
1475.7494964292871
 30
0.0
 11
28017.604341291921
 21
1585.2370637495301
 31
0.0
  0
LINE
  5
3B9E
  8
YODOROGO
 10
28001.604341291921
 20
1475.7494964292871
 30
0.0
 11
28017.604341291921
 21
1475.7494964292871
 31
0.0
  0
LINE
  5
3B9F
  8
YODOROGO
 10
28001.604341291921
 20
1580.0053496897469
 30
0.0
 11
28001.604341291921
 21
1475.7494964292871
 31
0.0
  0
LINE
  5
3BA0
  8
YODOROGO
 10
27977.604341291921
 20
1532.7680790334291
 30
0.0
 11
28001.604341291921
 21
1580.0053496897469
 31
0.0
  0
LINE
  5
3BA1
  8
YODOROGO
 10
27977.604341291921
 20
1556.76807903343
 30
0.0
 11
27977.604341291921
 21
1532.7680790334291
 31
0.0
  0
LINE
  5
3BA2
  8
YODOROGO
 10
28025.828774291349
 20
1667.749496429285
 30
0.0
 11
27977.604341291921
 21
1556.76807903343
 31
0.0
  0
LINE
  5
3BA3
  8
YODOROGO
 10
27977.604341291921
 20
1667.749496429285
 30
0.0
 11
28025.828774291349
 21
1667.749496429285
 31
0.0
  0
LINE
  5
3BA4
  8
YODOROGO
 10
28050.135520230899
 20
1655.5036372746561
 30
0.0
 11
28082.135520230921
 21
1655.5036372746561
 31
0.0
1001
AUTOCAD_POSTSCRIPT_FIGURE
1002
{
1000
PSFILL
1000
Grayscale
1000
Grayscale
1070
   100
1002
}
  0
LINE
  5
3BA5
  8
YODOROGO
 10
28050.135520230899
 20
1631.5036372746561
 30
0.0
 11
28050.135520230899
 21
1655.5036372746561
 31
0.0
1001
AUTOCAD_POSTSCRIPT_FIGURE
1002
{
1000
PSFILL
1000
Grayscale
1000
Grayscale
1070
   100
1002
}
  0
LINE
  5
3BA6
  8
YODOROGO
 10
28082.135520230921
 20
1631.5036372746561
 30
0.0
 11
28050.135520230899
 21
1631.5036372746561
 31
0.0
1001
AUTOCAD_POSTSCRIPT_FIGURE
1002
{
1000
PSFILL
1000
Grayscale
1000
Grayscale
1070
   100
1002
}
  0
LINE
  5
3BA7
  8
YODOROGO
 10
28082.135520230921
 20
1499.749496429288
 30
0.0
 11
28082.135520230921
 21
1631.5036372746561
 31
0.0
1001
AUTOCAD_POSTSCRIPT_FIGURE
1002
{
1000
PSFILL
1000
Grayscale
1000
Grayscale
1070
   100
1002
}
  0
LINE
  5
3BA8
  8
YODOROGO
 10
28050.135520230921
 20
1499.749496429288
 30
0.0
 11
28082.135520230921
 21
1499.749496429288
 31
0.0
1001
AUTOCAD_POSTSCRIPT_FIGURE
1002
{
1000
PSFILL
1000
Grayscale
1000
Grayscale
1070
   100
1002
}
  0
LINE
  5
3BA9
  8
YODOROGO
 10
28050.135520230921
 20
1475.7494964292871
 30
0.0
 11
28050.135520230921
 21
1499.749496429288
 31
0.0
1001
AUTOCAD_POSTSCRIPT_FIGURE
1002
{
1000
PSFILL
1000
Grayscale
1000
Grayscale
1070
   100
1002
}
  0
LINE
  5
3BAA
  8
YODOROGO
 10
28137.604341291921
 20
1475.7494964292871
 30
0.0
 11
28050.135520230921
 21
1475.7494964292871
 31
0.0
1001
AUTOCAD_POSTSCRIPT_FIGURE
1002
{
1000
PSFILL
1000
Grayscale
1000
Grayscale
1070
   100
1002
}
  0
LINE
  5
3BAB
  8
YODOROGO
 10
28137.604341291921
 20
1499.749496429288
 30
0.0
 11
28137.604341291921
 21
1475.7494964292871
 31
0.0
1001
AUTOCAD_POSTSCRIPT_FIGURE
1002
{
1000
PSFILL
1000
Grayscale
1000
Grayscale
1070
   100
1002
}
  0
LINE
  5
3BAC
  8
YODOROGO
 10
28098.135520230931
 20
1499.749496429288
 30
0.0
 11
28137.604341291921
 21
1499.749496429288
 31
0.0
1001
AUTOCAD_POSTSCRIPT_FIGURE
1002
{
1000
PSFILL
1000
Grayscale
1000
Grayscale
1070
   100
1002
}
  0
LINE
  5
3BAD
  8
YODOROGO
 10
28098.135520230931
 20
1631.5036372746561
 30
0.0
 11
28098.135520230931
 21
1499.749496429288
 31
0.0
1001
AUTOCAD_POSTSCRIPT_FIGURE
1002
{
1000
PSFILL
1000
Grayscale
1000
Grayscale
1070
   100
1002
}
  0
LINE
  5
3BAE
  8
YODOROGO
 10
28137.604341291921
 20
1631.5036372746561
 30
0.0
 11
28098.135520230931
 21
1631.5036372746561
 31
0.0
1001
AUTOCAD_POSTSCRIPT_FIGURE
1002
{
1000
PSFILL
1000
Grayscale
1000
Grayscale
1070
   100
1002
}
  0
LINE
  5
3BAF
  8
YODOROGO
 10
28137.604341291921
 20
1655.5036372746561
 30
0.0
 11
28137.604341291921
 21
1631.5036372746561
 31
0.0
1001
AUTOCAD_POSTSCRIPT_FIGURE
1002
{
1000
PSFILL
1000
Grayscale
1000
Grayscale
1070
   100
1002
}
  0
LINE
  5
3BB0
  8
YODOROGO
 10
28098.135520230931
 20
1655.5036372746561
 30
0.0
 11
28137.604341291921
 21
1655.5036372746561
 31
0.0
1001
AUTOCAD_POSTSCRIPT_FIGURE
1002
{
1000
PSFILL
1000
Grayscale
1000
Grayscale
1070
   100
1002
}
  0
LINE
  5
3BB1
  8
YODOROGO
 10
28401.60434129191
 20
1667.749496429288
 30
0.0
 11
28345.604341291921
 21
1667.749496429288
 31
0.0
  0
LINE
  5
3BB2
  8
YODOROGO
 10
28401.60434129191
 20
1611.749496429288
 30
0.0
 11
28401.60434129191
 21
1667.749496429288
 31
0.0
  0
LINE
  5
3BB3
  8
YODOROGO
 10
28345.604341291921
 20
1667.749496429288
 30
0.0
 11
28345.604341291921
 21
1611.749496429288
 31
0.0
  0
ARC
  5
3BB4
  8
YODOROGO
 10
28513.60434129191
 20
1507.749496429288
 30
0.0
 40
80.0
 50
180.0
 51
270.0
  0
ARC
  5
3BB5
  8
YODOROGO
 10
28537.604341291921
 20
1563.7494964292871
 30
0.0
 40
40.0
 50
180.0
 51
270.0
  0
LINE
  5
3BB6
  8
YODOROGO
 10
28561.604341291932
 20
1523.7494964292871
 30
0.0
 11
28537.604341291921
 21
1523.7494964292871
 31
0.0
  0
ARC
  5
3BB7
  8
YODOROGO
 10
28561.604341291932
 20
1547.749496429285
 30
0.0
 40
23.999999999996358
 50
270.0
 51
0.0000000000054281
  0
LINE
  5
3BB8
  8
YODOROGO
 10
27801.604341291921
 20
1890.786580793706
 30
0.0
 11
27777.604341291921
 21
1843.776747951672
 31
0.0
1001
AUTOCAD_POSTSCRIPT_FIGURE
1002
{
1000
PSFILL
1000
Grayscale
1000
Grayscale
1070
   100
1002
}
  0
LINE
  5
3BB9
  8
YODOROGO
 10
27801.604341291921
 20
1747.749496429286
 30
0.0
 11
27801.604341291921
 21
1890.786580793706
 31
0.0
1001
AUTOCAD_POSTSCRIPT_FIGURE
1002
{
1000
PSFILL
1000
Grayscale
1000
Grayscale
1070
   100
1002
}
  0
LINE
  5
3BBA
  8
YODOROGO
 10
27817.604341291921
 20
1747.749496429286
 30
0.0
 11
27801.604341291921
 21
1747.749496429286
 31
0.0
1001
AUTOCAD_POSTSCRIPT_FIGURE
1002
{
1000
PSFILL
1000
Grayscale
1000
Grayscale
1070
   100
1002
}
  0
LINE
  5
3BBB
  8
YODOROGO
 10
27817.604341291921
 20
1893.7713320852661
 30
0.0
 11
27817.604341291921
 21
1747.749496429286
 31
0.0
1001
AUTOCAD_POSTSCRIPT_FIGURE
1002
{
1000
PSFILL
1000
Grayscale
1000
Grayscale
1070
   100
1002
}
  0
LINE
  5
3BBC
  8
YODOROGO
 10
27841.604341291921
 20
1867.6547582841361
 30
0.0
 11
27817.604341291921
 21
1893.7713320852661
 31
0.0
1001
AUTOCAD_POSTSCRIPT_FIGURE
1002
{
1000
PSFILL
1000
Grayscale
1000
Grayscale
1070
   100
1002
}
  0
LINE
  5
3BBD
  8
YODOROGO
 10
27841.604341291921
 20
1883.6547582841361
 30
0.0
 11
27841.604341291921
 21
1867.6547582841361
 31
0.0
1001
AUTOCAD_POSTSCRIPT_FIGURE
1002
{
1000
PSFILL
1000
Grayscale
1000
Grayscale
1070
   100
1002
}
  0
LINE
  5
3BBE
  8
YODOROGO
 10
27817.604341291921
 20
1917.7713320852649
 30
0.0
 11
27841.604341291921
 21
1883.6547582841361
 31
0.0
1001
AUTOCAD_POSTSCRIPT_FIGURE
1002
{
1000
PSFILL
1000
Grayscale
1000
Grayscale
1070
   100
1002
}
  0
LINE
  5
3BBF
  8
YODOROGO
 10
27817.604341291921
 20
1939.749496429288
 30
0.0
 11
27817.604341291921
 21
1917.7713320852649
 31
0.0
1001
AUTOCAD_POSTSCRIPT_FIGURE
1002
{
1000
PSFILL
1000
Grayscale
1000
Grayscale
1070
   100
1002
}
  0
LINE
  5
3BC0
  8
YODOROGO
 10
27889.604341291921
 20
1939.749496429288
 30
0.0
 11
27817.604341291921
 21
1939.749496429288
 31
0.0
1001
AUTOCAD_POSTSCRIPT_FIGURE
1002
{
1000
PSFILL
1000
Grayscale
1000
Grayscale
1070
   100
1002
}
  0
LINE
  5
3BC1
  8
YODOROGO
 10
27889.604341291921
 20
1900.5683489363
 30
0.0
 11
27889.604341291921
 21
1939.749496429288
 31
0.0
1001
AUTOCAD_POSTSCRIPT_FIGURE
1002
{
1000
PSFILL
1000
Grayscale
1000
Grayscale
1070
   100
1002
}
  0
LINE
  5
3BC2
  8
YODOROGO
 10
27857.604341291921
 20
1900.5683489363
 30
0.0
 11
27889.604341291921
 21
1900.5683489363
 31
0.0
1001
AUTOCAD_POSTSCRIPT_FIGURE
1002
{
1000
PSFILL
1000
Grayscale
1000
Grayscale
1070
   100
1002
}
  0
LINE
  5
3BC3
  8
YODOROGO
 10
27857.604341291921
 20
1884.568348936298
 30
0.0
 11
27857.604341291921
 21
1900.5683489363
 31
0.0
1001
AUTOCAD_POSTSCRIPT_FIGURE
1002
{
1000
PSFILL
1000
Grayscale
1000
Grayscale
1070
   100
1002
}
  0
LINE
  5
3BC4
  8
YODOROGO
 10
27889.604341291921
 20
1884.568348936298
 30
0.0
 11
27857.604341291921
 21
1884.568348936298
 31
0.0
1001
AUTOCAD_POSTSCRIPT_FIGURE
1002
{
1000
PSFILL
1000
Grayscale
1000
Grayscale
1070
   100
1002
}
  0
LINE
  5
3BC5
  8
YODOROGO
 10
27889.604341291921
 20
1879.6191779644371
 30
0.0
 11
27889.604341291921
 21
1884.568348936298
 31
0.0
1001
AUTOCAD_POSTSCRIPT_FIGURE
1002
{
1000
PSFILL
1000
Grayscale
1000
Grayscale
1070
   100
1002
}
  0
LINE
  5
3BC6
  8
YODOROGO
 10
27849.604341291921
 20
1812.974981161417
 30
0.0
 11
27889.604341291921
 21
1879.6191779644371
 31
0.0
1001
AUTOCAD_POSTSCRIPT_FIGURE
1002
{
1000
PSFILL
1000
Grayscale
1000
Grayscale
1070
   100
1002
}
  0
LINE
  5
3BC7
  8
YODOROGO
 10
27849.604341291921
 20
1796.9749811614161
 30
0.0
 11
27849.604341291921
 21
1812.974981161417
 31
0.0
1001
AUTOCAD_POSTSCRIPT_FIGURE
1002
{
1000
PSFILL
1000
Grayscale
1000
Grayscale
1070
   100
1002
}
  0
LINE
  5
3BC8
  8
YODOROGO
 10
27889.604341291921
 20
1847.6191779644359
 30
0.0
 11
27849.604341291921
 21
1796.9749811614161
 31
0.0
1001
AUTOCAD_POSTSCRIPT_FIGURE
1002
{
1000
PSFILL
1000
Grayscale
1000
Grayscale
1070
   100
1002
}
  0
LINE
  5
3BC9
  8
YODOROGO
 10
27889.604341291921
 20
1747.749496429286
 30
0.0
 11
27889.604341291921
 21
1847.6191779644359
 31
0.0
1001
AUTOCAD_POSTSCRIPT_FIGURE
1002
{
1000
PSFILL
1000
Grayscale
1000
Grayscale
1070
   100
1002
}
  0
LINE
  5
3BCA
  8
YODOROGO
 10
27905.604341291921
 20
1747.749496429286
 30
0.0
 11
27889.604341291921
 21
1747.749496429286
 31
0.0
1001
AUTOCAD_POSTSCRIPT_FIGURE
1002
{
1000
PSFILL
1000
Grayscale
1000
Grayscale
1070
   100
1002
}
  0
LINE
  5
3BCB
  8
YODOROGO
 10
27905.604341291921
 20
1849.409012158806
 30
0.0
 11
27905.604341291921
 21
1747.749496429286
 31
0.0
1001
AUTOCAD_POSTSCRIPT_FIGURE
1002
{
1000
PSFILL
1000
Grayscale
1000
Grayscale
1070
   100
1002
}
  0
LINE
  5
3BCC
  8
YODOROGO
 10
27937.604341291921
 20
1796.9749811614161
 30
0.0
 11
27905.604341291921
 21
1849.409012158806
 31
0.0
1001
AUTOCAD_POSTSCRIPT_FIGURE
1002
{
1000
PSFILL
1000
Grayscale
1000
Grayscale
1070
   100
1002
}
  0
LINE
  5
3BCD
  8
YODOROGO
 10
27937.604341291921
 20
1812.974981161417
 30
0.0
 11
27937.604341291921
 21
1796.9749811614161
 31
0.0
1001
AUTOCAD_POSTSCRIPT_FIGURE
1002
{
1000
PSFILL
1000
Grayscale
1000
Grayscale
1070
   100
1002
}
  0
LINE
  5
3BCE
  8
YODOROGO
 10
27905.604341291921
 20
1881.4090121588081
 30
0.0
 11
27937.604341291921
 21
1812.974981161417
 31
0.0
1001
AUTOCAD_POSTSCRIPT_FIGURE
1002
{
1000
PSFILL
1000
Grayscale
1000
Grayscale
1070
   100
1002
}
  0
LINE
  5
3BCF
  8
YODOROGO
 10
27905.604341291921
 20
1884.5683489363
 30
0.0
 11
27905.604341291921
 21
1881.4090121588081
 31
0.0
1001
AUTOCAD_POSTSCRIPT_FIGURE
1002
{
1000
PSFILL
1000
Grayscale
1000
Grayscale
1070
   100
1002
}
  0
LINE
  5
3BD0
  8
YODOROGO
 10
27937.604341291921
 20
1884.568348936298
 30
0.0
 11
27905.604341291921
 21
1884.5683489363
 31
0.0
1001
AUTOCAD_POSTSCRIPT_FIGURE
1002
{
1000
PSFILL
1000
Grayscale
1000
Grayscale
1070
   100
1002
}
  0
LINE
  5
3BD1
  8
YODOROGO
 10
27937.604341291921
 20
1900.5683489363
 30
0.0
 11
27937.604341291921
 21
1884.568348936298
 31
0.0
1001
AUTOCAD_POSTSCRIPT_FIGURE
1002
{
1000
PSFILL
1000
Grayscale
1000
Grayscale
1070
   100
1002
}
  0
LINE
  5
3BD2
  8
YODOROGO
 10
27905.604341291921
 20
1900.5683489363
 30
0.0
 11
27937.604341291921
 21
1900.5683489363
 31
0.0
1001
AUTOCAD_POSTSCRIPT_FIGURE
1002
{
1000
PSFILL
1000
Grayscale
1000
Grayscale
1070
   100
1002
}
  0
LINE
  5
3BD3
  8
YODOROGO
 10
27905.604341291921
 20
1939.749496429288
 30
0.0
 11
27905.604341291921
 21
1900.5683489363
 31
0.0
1001
AUTOCAD_POSTSCRIPT_FIGURE
1002
{
1000
PSFILL
1000
Grayscale
1000
Grayscale
1070
   100
1002
}
  0
LINE
  5
3BD4
  8
YODOROGO
 10
27937.604341291921
 20
1939.749496429288
 30
0.0
 11
27905.604341291921
 21
1939.749496429288
 31
0.0
1001
AUTOCAD_POSTSCRIPT_FIGURE
1002
{
1000
PSFILL
1000
Grayscale
1000
Grayscale
1070
   100
1002
}
  0
LINE
  5
3BD5
  8
YODOROGO
 10
27937.604341291921
 20
1955.7494964292871
 30
0.0
 11
27937.604341291921
 21
1939.749496429288
 31
0.0
1001
AUTOCAD_POSTSCRIPT_FIGURE
1002
{
1000
PSFILL
1000
Grayscale
1000
Grayscale
1070
   100
1002
}
  0
LINE
  5
3BD6
  8
YODOROGO
 10
27905.604341291921
 20
1955.7494964292871
 30
0.0
 11
27937.604341291921
 21
1955.7494964292871
 31
0.0
1001
AUTOCAD_POSTSCRIPT_FIGURE
1002
{
1000
PSFILL
1000
Grayscale
1000
Grayscale
1070
   100
1002
}
  0
LINE
  5
3BD7
  8
YODOROGO
 10
27905.604341291921
 20
1979.749496429288
 30
0.0
 11
27905.604341291921
 21
1955.7494964292871
 31
0.0
1001
AUTOCAD_POSTSCRIPT_FIGURE
1002
{
1000
PSFILL
1000
Grayscale
1000
Grayscale
1070
   100
1002
}
  0
LINE
  5
3BD8
  8
YODOROGO
 10
27889.604341291921
 20
1979.749496429288
 30
0.0
 11
27905.604341291921
 21
1979.749496429288
 31
0.0
1001
AUTOCAD_POSTSCRIPT_FIGURE
1002
{
1000
PSFILL
1000
Grayscale
1000
Grayscale
1070
   100
1002
}
  0
LINE
  5
3BD9
  8
YODOROGO
 10
27889.604341291921
 20
1955.7494964292871
 30
0.0
 11
27889.604341291921
 21
1979.749496429288
 31
0.0
1001
AUTOCAD_POSTSCRIPT_FIGURE
1002
{
1000
PSFILL
1000
Grayscale
1000
Grayscale
1070
   100
1002
}
  0
LINE
  5
3BDA
  8
YODOROGO
 10
27865.604341291921
 20
1955.7494964292871
 30
0.0
 11
27889.604341291921
 21
1955.7494964292871
 31
0.0
1001
AUTOCAD_POSTSCRIPT_FIGURE
1002
{
1000
PSFILL
1000
Grayscale
1000
Grayscale
1070
   100
1002
}
  0
LINE
  5
3BDB
  8
YODOROGO
 10
27865.604341291921
 20
1979.749496429288
 30
0.0
 11
27865.604341291921
 21
1955.7494964292871
 31
0.0
1001
AUTOCAD_POSTSCRIPT_FIGURE
1002
{
1000
PSFILL
1000
Grayscale
1000
Grayscale
1070
   100
1002
}
  0
LINE
  5
3BDC
  8
YODOROGO
 10
27849.604341291921
 20
1979.749496429288
 30
0.0
 11
27865.604341291921
 21
1979.749496429288
 31
0.0
1001
AUTOCAD_POSTSCRIPT_FIGURE
1002
{
1000
PSFILL
1000
Grayscale
1000
Grayscale
1070
   100
1002
}
  0
LINE
  5
3BDD
  8
YODOROGO
 10
27849.604341291921
 20
1955.7494964292871
 30
0.0
 11
27849.604341291921
 21
1979.749496429288
 31
0.0
1001
AUTOCAD_POSTSCRIPT_FIGURE
1002
{
1000
PSFILL
1000
Grayscale
1000
Grayscale
1070
   100
1002
}
  0
LINE
  5
3BDE
  8
YODOROGO
 10
27817.604341291921
 20
1955.7494964292871
 30
0.0
 11
27849.604341291921
 21
1955.7494964292871
 31
0.0
1001
AUTOCAD_POSTSCRIPT_FIGURE
1002
{
1000
PSFILL
1000
Grayscale
1000
Grayscale
1070
   100
1002
}
  0
LINE
  5
3BDF
  8
YODOROGO
 10
27817.604341291921
 20
1979.749496429288
 30
0.0
 11
27817.604341291921
 21
1955.7494964292871
 31
0.0
1001
AUTOCAD_POSTSCRIPT_FIGURE
1002
{
1000
PSFILL
1000
Grayscale
1000
Grayscale
1070
   100
1002
}
  0
LINE
  5
3BE0
  8
YODOROGO
 10
27801.604341291921
 20
1979.749496429288
 30
0.0
 11
27817.604341291921
 21
1979.749496429288
 31
0.0
1001
AUTOCAD_POSTSCRIPT_FIGURE
1002
{
1000
PSFILL
1000
Grayscale
1000
Grayscale
1070
   100
1002
}
  0
LINE
  5
3BE1
  8
YODOROGO
 10
27801.604341291921
 20
1955.7494964292871
 30
0.0
 11
27801.604341291921
 21
1979.749496429288
 31
0.0
1001
AUTOCAD_POSTSCRIPT_FIGURE
1002
{
1000
PSFILL
1000
Grayscale
1000
Grayscale
1070
   100
1002
}
  0
LINE
  5
3BE2
  8
YODOROGO
 10
27777.604341291921
 20
1955.7494964292871
 30
0.0
 11
27801.604341291921
 21
1955.7494964292871
 31
0.0
1001
AUTOCAD_POSTSCRIPT_FIGURE
1002
{
1000
PSFILL
1000
Grayscale
1000
Grayscale
1070
   100
1002
}
  0
LINE
  5
3BE3
  8
YODOROGO
 10
27777.604341291921
 20
1939.749496429288
 30
0.0
 11
27777.604341291921
 21
1955.7494964292871
 31
0.0
1001
AUTOCAD_POSTSCRIPT_FIGURE
1002
{
1000
PSFILL
1000
Grayscale
1000
Grayscale
1070
   100
1002
}
  0
LINE
  5
3BE4
  8
YODOROGO
 10
27801.604341291921
 20
1939.749496429288
 30
0.0
 11
27777.604341291921
 21
1939.749496429288
 31
0.0
1001
AUTOCAD_POSTSCRIPT_FIGURE
1002
{
1000
PSFILL
1000
Grayscale
1000
Grayscale
1070
   100
1002
}
  0
LINE
  5
3BE5
  8
YODOROGO
 10
27801.604341291921
 20
1914.7865807937051
 30
0.0
 11
27801.604341291921
 21
1939.749496429288
 31
0.0
1001
AUTOCAD_POSTSCRIPT_FIGURE
1002
{
1000
PSFILL
1000
Grayscale
1000
Grayscale
1070
   100
1002
}
  0
LINE
  5
3BE6
  8
YODOROGO
 10
27777.604341291921
 20
1859.776747951671
 30
0.0
 11
27801.604341291921
 21
1914.7865807937051
 31
0.0
1001
AUTOCAD_POSTSCRIPT_FIGURE
1002
{
1000
PSFILL
1000
Grayscale
1000
Grayscale
1070
   100
1002
}
  0
LINE
  5
3BE7
  8
YODOROGO
 10
27777.604341291921
 20
1843.776747951672
 30
0.0
 11
27777.604341291921
 21
1859.776747951671
 31
0.0
1001
AUTOCAD_POSTSCRIPT_FIGURE
1002
{
1000
PSFILL
1000
Grayscale
1000
Grayscale
1070
   100
1002
}
  0
LINE
  5
3BE8
  8
YODOROGO
 10
28257.604341291921
 20
1867.7494964292871
 30
0.0
 11
28401.60434129191
 21
1824.877625640306
 31
0.0
1001
AUTOCAD_POSTSCRIPT_FIGURE
1002
{
1000
PSFILL
1000
Grayscale
1000
Grayscale
1070
   100
1002
}
  0
LINE
  5
3BE9
  8
YODOROGO
 10
28401.60434129191
 20
1752.877625640306
 30
0.0
 11
28257.604341291921
 21
1795.7494964292871
 31
0.0
1001
AUTOCAD_POSTSCRIPT_FIGURE
1002
{
1000
PSFILL
1000
Grayscale
1000
Grayscale
1070
   100
1002
}
  0
LINE
  5
3BEA
  8
YODOROGO
 10
28401.60434129191
 20
1984.877625640306
 30
0.0
 11
28257.604341291921
 21
2027.749496429288
 31
0.0
1001
AUTOCAD_POSTSCRIPT_FIGURE
1002
{
1000
PSFILL
1000
Grayscale
1000
Grayscale
1070
   100
1002
}
  0
LINE
  5
3BEB
  8
YODOROGO
 10
28257.604341291921
 20
1959.749496429288
 30
0.0
 11
28401.60434129191
 21
1916.8776256403071
 31
0.0
1001
AUTOCAD_POSTSCRIPT_FIGURE
1002
{
1000
PSFILL
1000
Grayscale
1000
Grayscale
1070
   100
1002
}
  0
LINE
  5
3BEC
  8
YODOROGO
 10
28257.604341291921
 20
1795.7494964292871
 30
0.0
 11
28257.604341291921
 21
1867.7494964292871
 31
0.0
1001
AUTOCAD_POSTSCRIPT_FIGURE
1002
{
1000
PSFILL
1000
Grayscale
1000
Grayscale
1070
   100
1002
}
  0
LINE
  5
3BED
  8
YODOROGO
 10
28257.604341291921
 20
2027.749496429288
 30
0.0
 11
28257.604341291921
 21
1959.749496429288
 31
0.0
1001
AUTOCAD_POSTSCRIPT_FIGURE
1002
{
1000
PSFILL
1000
Grayscale
1000
Grayscale
1070
   100
1002
}
  0
LINE
  5
3BEE
  8
YODOROGO
 10
28080.236320206739
 20
1939.749496429288
 30
0.0
 11
28129.60434129191
 21
1747.749496429286
 31
0.0
1001
AUTOCAD_POSTSCRIPT_FIGURE
1002
{
1000
PSFILL
1000
Grayscale
1000
Grayscale
1070
   100
1002
}
  0
LINE
  5
3BEF
  8
YODOROGO
 10
27977.604341291921
 20
1939.749496429288
 30
0.0
 11
28080.236320206739
 21
1939.749496429288
 31
0.0
1001
AUTOCAD_POSTSCRIPT_FIGURE
1002
{
1000
PSFILL
1000
Grayscale
1000
Grayscale
1070
   100
1002
}
  0
LINE
  5
3BF0
  8
YODOROGO
 10
27977.604341291921
 20
1955.7494964292871
 30
0.0
 11
27977.604341291921
 21
1939.749496429288
 31
0.0
1001
AUTOCAD_POSTSCRIPT_FIGURE
1002
{
1000
PSFILL
1000
Grayscale
1000
Grayscale
1070
   100
1002
}
  0
LINE
  5
3BF1
  8
YODOROGO
 10
28076.60687851991
 20
1955.7494964292871
 30
0.0
 11
27977.604341291921
 21
1955.7494964292871
 31
0.0
1001
AUTOCAD_POSTSCRIPT_FIGURE
1002
{
1000
PSFILL
1000
Grayscale
1000
Grayscale
1070
   100
1002
}
  0
LINE
  5
3BF2
  8
YODOROGO
 10
28071.162715989711
 20
1979.749496429288
 30
0.0
 11
28076.60687851991
 21
1955.7494964292871
 31
0.0
1001
AUTOCAD_POSTSCRIPT_FIGURE
1002
{
1000
PSFILL
1000
Grayscale
1000
Grayscale
1070
   100
1002
}
  0
LINE
  5
3BF3
  8
YODOROGO
 10
28091.162715989711
 20
1979.749496429288
 30
0.0
 11
28071.162715989711
 21
1979.749496429288
 31
0.0
1001
AUTOCAD_POSTSCRIPT_FIGURE
1002
{
1000
PSFILL
1000
Grayscale
1000
Grayscale
1070
   100
1002
}
  0
LINE
  5
3BF4
  8
YODOROGO
 10
28095.806878519939
 20
1955.7494964292871
 30
0.0
 11
28091.162715989711
 21
1979.749496429288
 31
0.0
1001
AUTOCAD_POSTSCRIPT_FIGURE
1002
{
1000
PSFILL
1000
Grayscale
1000
Grayscale
1070
   100
1002
}
  0
LINE
  5
3BF5
  8
YODOROGO
 10
28121.604341291921
 20
1955.7494964292871
 30
0.0
 11
28095.806878519939
 21
1955.7494964292871
 31
0.0
1001
AUTOCAD_POSTSCRIPT_FIGURE
1002
{
1000
PSFILL
1000
Grayscale
1000
Grayscale
1070
   100
1002
}
  0
LINE
  5
3BF6
  8
YODOROGO
 10
28121.604341291921
 20
1979.749496429288
 30
0.0
 11
28121.604341291921
 21
1955.7494964292871
 31
0.0
1001
AUTOCAD_POSTSCRIPT_FIGURE
1002
{
1000
PSFILL
1000
Grayscale
1000
Grayscale
1070
   100
1002
}
  0
LINE
  5
3BF7
  8
YODOROGO
 10
28137.604341291921
 20
1979.749496429288
 30
0.0
 11
28121.604341291921
 21
1979.749496429288
 31
0.0
1001
AUTOCAD_POSTSCRIPT_FIGURE
1002
{
1000
PSFILL
1000
Grayscale
1000
Grayscale
1070
   100
1002
}
  0
LINE
  5
3BF8
  8
YODOROGO
 10
28137.604341291921
 20
1955.7494964292871
 30
0.0
 11
28137.604341291921
 21
1979.749496429288
 31
0.0
1001
AUTOCAD_POSTSCRIPT_FIGURE
1002
{
1000
PSFILL
1000
Grayscale
1000
Grayscale
1070
   100
1002
}
  0
LINE
  5
3BF9
  8
YODOROGO
 10
28137.604341291921
 20
1939.749496429288
 30
0.0
 11
28137.604341291921
 21
1955.7494964292871
 31
0.0
1001
AUTOCAD_POSTSCRIPT_FIGURE
1002
{
1000
PSFILL
1000
Grayscale
1000
Grayscale
1070
   100
1002
}
  0
LINE
  5
3BFA
  8
YODOROGO
 10
28098.902986873411
 20
1939.749496429288
 30
0.0
 11
28137.604341291921
 21
1939.749496429288
 31
0.0
1001
AUTOCAD_POSTSCRIPT_FIGURE
1002
{
1000
PSFILL
1000
Grayscale
1000
Grayscale
1070
   100
1002
}
  0
LINE
  5
3BFB
  8
YODOROGO
 10
28137.604341291921
 20
1747.749496429286
 30
0.0
 11
28098.902986873411
 21
1939.749496429288
 31
0.0
1001
AUTOCAD_POSTSCRIPT_FIGURE
1002
{
1000
PSFILL
1000
Grayscale
1000
Grayscale
1070
   100
1002
}
  0
LINE
  5
3BFC
  8
YODOROGO
 10
28129.60434129191
 20
1747.749496429286
 30
0.0
 11
28137.604341291921
 21
1747.749496429286
 31
0.0
1001
AUTOCAD_POSTSCRIPT_FIGURE
1002
{
1000
PSFILL
1000
Grayscale
1000
Grayscale
1070
   100
1002
}
  0
LINE
  5
3BFD
  8
YODOROGO
 10
28078.06921993379
 20
1775.7407762987939
 30
0.0
 11
27977.604341291921
 21
1747.749496429286
 31
0.0
  0
LINE
  5
3BFE
  8
YODOROGO
 10
28078.06921993379
 20
1798.6689795290731
 30
0.0
 11
28078.06921993379
 21
1775.7407762987939
 31
0.0
  0
LINE
  5
3BFF
  8
YODOROGO
 10
28033.83678061287
 20
1786.816933133767
 30
0.0
 11
28078.06921993379
 21
1798.6689795290731
 31
0.0
  0
LINE
  5
3C00
  8
YODOROGO
 10
28033.83678061287
 20
1872.5683489362989
 30
0.0
 11
28033.83678061287
 21
1786.816933133767
 31
0.0
  0
LINE
  5
3C01
  8
YODOROGO
 10
28078.06921993379
 20
1872.5683489362989
 30
0.0
 11
28033.83678061287
 21
1872.5683489362989
 31
0.0
  0
LINE
  5
3C02
  8
YODOROGO
 10
28078.06921993379
 20
1892.568348936298
 30
0.0
 11
28078.06921993379
 21
1872.5683489362989
 31
0.0
  0
LINE
  5
3C03
  8
YODOROGO
 10
27977.604341291921
 20
1892.568348936298
 30
0.0
 11
28078.06921993379
 21
1892.568348936298
 31
0.0
  0
LINE
  5
3C04
  8
YODOROGO
 10
27977.604341291921
 20
1872.5683489362989
 30
0.0
 11
27977.604341291921
 21
1892.568348936298
 31
0.0
  0
LINE
  5
3C05
  8
YODOROGO
 10
28021.836780612852
 20
1872.5683489362989
 30
0.0
 11
27977.604341291921
 21
1872.5683489362989
 31
0.0
  0
LINE
  5
3C06
  8
YODOROGO
 10
28021.836780612852
 20
1784.673339594317
 30
0.0
 11
28021.836780612852
 21
1872.5683489362989
 31
0.0
  0
LINE
  5
3C07
  8
YODOROGO
 10
27977.604341291921
 20
1771.749496429286
 30
0.0
 11
28021.836780612852
 21
1784.673339594317
 31
0.0
  0
LINE
  5
3C08
  8
YODOROGO
 10
27977.604341291921
 20
1747.749496429286
 30
0.0
 11
27977.604341291921
 21
1771.749496429286
 31
0.0
  0
LINE
  5
3C09
  8
YODOROGO
 10
28001.604341291921
 20
1707.749496429288
 30
0.0
 11
28001.604341291921
 21
1683.7494964292871
 31
0.0
  0
LINE
  5
3C0A
  8
YODOROGO
 10
28017.604341291921
 20
1707.749496429288
 30
0.0
 11
28001.604341291921
 21
1707.749496429288
 31
0.0
  0
LINE
  5
3C0B
  8
YODOROGO
 10
28017.604341291921
 20
1683.7494964292871
 30
0.0
 11
28017.604341291921
 21
1707.749496429288
 31
0.0
  0
LINE
  5
3C0C
  8
YODOROGO
 10
28040.913204016892
 20
1683.7494964292871
 30
0.0
 11
28017.604341291921
 21
1683.7494964292871
 31
0.0
  0
LINE
  5
3C0D
  8
YODOROGO
 10
28001.604341291921
 20
1683.7494964292871
 30
0.0
 11
27977.604341291921
 21
1683.7494964292871
 31
0.0
  0
LINE
  5
3C0E
  8
YODOROGO
 10
28082.135520230921
 20
1707.749496429288
 30
0.0
 11
28098.135520230931
 21
1707.749496429288
 31
0.0
1001
AUTOCAD_POSTSCRIPT_FIGURE
1002
{
1000
PSFILL
1000
Grayscale
1000
Grayscale
1070
   100
1002
}
  0
LINE
  5
3C0F
  8
YODOROGO
 10
28401.60434129191
 20
1824.877625640306
 30
0.0
 11
28401.60434129191
 21
1752.877625640306
 31
0.0
1001
AUTOCAD_POSTSCRIPT_FIGURE
1002
{
1000
PSFILL
1000
Grayscale
1000
Grayscale
1070
   100
1002
}
  0
LINE
  5
3C10
  8
YODOROGO
 10
28401.60434129191
 20
1916.8776256403071
 30
0.0
 11
28401.60434129191
 21
1984.877625640306
 31
0.0
1001
AUTOCAD_POSTSCRIPT_FIGURE
1002
{
1000
PSFILL
1000
Grayscale
1000
Grayscale
1070
   100
1002
}
  0
LINE
  5
3C11
  8
YODOROGO
 10
28433.60434129191
 20
1819.7494964292871
 30
0.0
 11
28433.60434129191
 21
1747.74949642929
 31
0.0
  0
LINE
  5
3C12
  8
YODOROGO
 10
28497.60434129191
 20
1707.749496429288
 30
0.0
 11
28433.60434129191
 21
1707.749496429288
 31
0.0
  0
LINE
  5
3C13
  8
YODOROGO
 10
28433.60434129191
 20
1747.74949642929
 30
0.0
 11
28585.604341291921
 21
1747.74949642929
 31
0.0
  0
LINE
  5
3C14
  8
YODOROGO
 10
28497.60434129191
 20
1867.7494964292871
 30
0.0
 11
28433.60434129191
 21
1867.7494964292871
 31
0.0
  0
LINE
  5
3C15
  8
YODOROGO
 10
28497.60434129191
 20
1923.7494964292871
 30
0.0
 11
28497.60434129191
 21
1867.7494964292871
 31
0.0
  0
LINE
  5
3C16
  8
YODOROGO
 10
28585.604341291921
 20
1987.7494964292871
 30
0.0
 11
28585.604341291921
 21
2027.749496429288
 31
0.0
  0
LINE
  5
3C17
  8
YODOROGO
 10
28433.60434129191
 20
1987.7494964292871
 30
0.0
 11
28585.604341291921
 21
1987.7494964292871
 31
0.0
  0
LINE
  5
3C18
  8
YODOROGO
 10
28433.60434129191
 20
1867.7494964292871
 30
0.0
 11
28433.60434129191
 21
1987.7494964292871
 31
0.0
  0
LINE
  5
3C19
  8
YODOROGO
 10
29001.60434129191
 20
2027.749496429288
 30
0.0
 11
29001.60434129191
 21
1619.749496429288
 31
0.0
  0
LINE
  5
3C1A
  8
YODOROGO
 10
29073.604341291921
 20
1579.749496429288
 30
0.0
 11
29073.604341291921
 21
2027.749496429288
 31
0.0
  0
LINE
  5
3C1B
  8
YODOROGO
 10
29261.604341291921
 20
1491.749496429286
 30
0.0
 11
29261.604341291921
 21
2007.749496429288
 31
0.0
  0
LINE
  5
3C1C
  8
YODOROGO
 10
29197.604341291921
 20
2007.749496429288
 30
0.0
 11
29197.604341291921
 21
1491.749496429286
 31
0.0
  0
LINE
  5
3C1D
  8
YODOROGO
 10
29385.604341291921
 20
2027.749496429288
 30
0.0
 11
29385.604341291921
 21
1427.749496429288
 31
0.0
  0
LINE
  5
3C1E
  8
YODOROGO
 10
29457.604341291921
 20
1427.749496429288
 30
0.0
 11
29457.604341291921
 21
2027.749496429288
 31
0.0
  0
LINE
  5
3C1F
  8
YODOROGO
 10
28657.604341291921
 20
1667.749496429288
 30
0.0
 11
28657.604341291921
 21
1747.74949642929
 31
0.0
  0
LINE
  5
3C20
  8
YODOROGO
 10
29885.604341291921
 20
1707.749496429288
 30
0.0
 11
29885.604341291921
 21
1667.749496429288
 31
0.0
  0
LINE
  5
3C21
  8
YODOROGO
 10
29885.604341291921
 20
1707.749496429288
 30
0.0
 11
29885.604341291921
 21
1667.749496429288
 31
0.0
  0
ARC
  5
3C22
  8
YODOROGO
 10
28906.911576186842
 20
1618.217864442272
 30
0.0
 40
94.705151178741644
 50
274.05244162907098
 51
0.9266642149310712
  0
ARC
  5
3C23
  8
YODOROGO
 10
28909.186170719819
 20
1592.61072861044
 30
0.0
 40
164.92042356085511
 50
271.5351210653775
 51
355.52727750585052
  0
LINE
  5
3C24
  8
YODOROGO
 10
28913.604341291921
 20
1523.7494964292871
 30
0.0
 11
28913.604341291921
 21
1427.749496429288
 31
0.0
  0
LINE
  5
3C25
  8
YODOROGO
 10
28793.60434129191
 20
1667.749496429288
 30
0.0
 11
28657.604341291921
 21
1667.749496429288
 31
0.0
  0
LINE
  5
3C26
  8
YODOROGO
 10
28793.60434129191
 20
1603.7494964292871
 30
0.0
 11
28793.60434129191
 21
1667.749496429288
 31
0.0
  0
LINE
  5
3C27
  8
YODOROGO
 10
28657.604341291921
 20
1603.7494964292871
 30
0.0
 11
28793.60434129191
 21
1603.7494964292871
 31
0.0
  0
LINE
  5
3C28
  8
YODOROGO
 10
28657.604341291921
 20
1523.7494964292871
 30
0.0
 11
28657.604341291921
 21
1603.7494964292871
 31
0.0
  0
LINE
  5
3C29
  8
YODOROGO
 10
28793.60434129191
 20
1523.7494964292871
 30
0.0
 11
28657.604341291921
 21
1523.7494964292871
 31
0.0
  0
LINE
  5
3C2A
  8
YODOROGO
 10
28793.60434129191
 20
1427.749496429288
 30
0.0
 11
28793.60434129191
 21
1523.7494964292871
 31
0.0
  0
LINE
  5
3C2B
  8
YODOROGO
 10
29197.604341291921
 20
1491.749496429286
 30
0.0
 11
29261.604341291921
 21
1491.749496429286
 31
0.0
  0
LINE
  5
3C2C
  8
YODOROGO
 10
29385.604341291921
 20
1427.749496429288
 30
0.0
 11
29457.604341291921
 21
1427.749496429288
 31
0.0
  0
LINE
  5
3C2D
  8
YODOROGO
 10
29737.604341291921
 20
1528.4414521705639
 30
0.0
 11
29737.604341291921
 21
1427.749496429288
 31
0.0
  0
LINE
  5
3C2E
  8
YODOROGO
 10
29617.604341291921
 20
1427.749496429288
 30
0.0
 11
29737.604341291921
 21
1528.4414521705639
 31
0.0
  0
LINE
  5
3C2F
  8
YODOROGO
 10
29617.604341291921
 20
1547.749496429288
 30
0.0
 11
29617.604341291921
 21
1427.749496429288
 31
0.0
  0
LINE
  5
3C30
  8
YODOROGO
 10
29712.94462869945
 20
1627.749496429288
 30
0.0
 11
29617.604341291921
 21
1547.749496429288
 31
0.0
  0
LINE
  5
3C31
  8
YODOROGO
 10
29617.604341291921
 20
1627.749496429288
 30
0.0
 11
29712.94462869945
 21
1627.749496429288
 31
0.0
  0
LINE
  5
3C32
  8
YODOROGO
 10
29617.604341291921
 20
1667.749496429288
 30
0.0
 11
29617.604341291921
 21
1627.749496429288
 31
0.0
  0
LINE
  5
3C33
  8
YODOROGO
 10
29885.604341291921
 20
1667.749496429288
 30
0.0
 11
29617.604341291921
 21
1667.749496429288
 31
0.0
  0
LINE
  5
3C34
  8
YODOROGO
 10
29917.604341291921
 20
1627.749496429288
 30
0.0
 11
29777.604341291921
 21
1627.749496429288
 31
0.0
  0
LINE
  5
3C35
  8
YODOROGO
 10
29777.604341291921
 20
1562.0054374176559
 30
0.0
 11
29771.409872985321
 21
1556.807661346234
 31
0.0
  0
LINE
  5
3C36
  8
YODOROGO
 10
29777.604341291921
 20
1627.749496429288
 30
0.0
 11
29777.604341291921
 21
1562.0054374176559
 31
0.0
  0
LINE
  5
3C37
  8
YODOROGO
 10
29737.604341291921
 20
1528.4414521705639
 30
0.0
 11
29737.604341291921
 21
1427.749496429288
 31
0.0
  0
LINE
  5
3C38
  8
YODOROGO
 10
29617.604341291921
 20
1427.749496429288
 30
0.0
 11
29737.604341291921
 21
1528.4414521705639
 31
0.0
  0
LINE
  5
3C39
  8
YODOROGO
 10
29617.604341291921
 20
1547.749496429288
 30
0.0
 11
29617.604341291921
 21
1427.749496429288
 31
0.0
  0
LINE
  5
3C3A
  8
YODOROGO
 10
29712.94462869945
 20
1627.749496429288
 30
0.0
 11
29617.604341291921
 21
1547.749496429288
 31
0.0
  0
LINE
  5
3C3B
  8
YODOROGO
 10
29617.604341291921
 20
1627.749496429288
 30
0.0
 11
29712.94462869945
 21
1627.749496429288
 31
0.0
  0
LINE
  5
3C3C
  8
YODOROGO
 10
29617.604341291921
 20
1667.749496429288
 30
0.0
 11
29617.604341291921
 21
1627.749496429288
 31
0.0
  0
LINE
  5
3C3D
  8
YODOROGO
 10
29885.604341291921
 20
1667.749496429288
 30
0.0
 11
29617.604341291921
 21
1667.749496429288
 31
0.0
  0
LINE
  5
3C3E
  8
YODOROGO
 10
28793.60434129191
 20
1747.74949642929
 30
0.0
 11
28793.60434129191
 21
1819.7494964292871
 31
0.0
  0
LINE
  5
3C3F
  8
YODOROGO
 10
28657.604341291921
 20
1747.74949642929
 30
0.0
 11
28793.60434129191
 21
1747.74949642929
 31
0.0
  0
LINE
  5
3C40
  8
YODOROGO
 10
28729.604341291921
 20
1867.7494964292871
 30
0.0
 11
28729.604341291921
 21
1923.7494964292871
 31
0.0
  0
LINE
  5
3C41
  8
YODOROGO
 10
28793.60434129191
 20
1867.7494964292871
 30
0.0
 11
28729.604341291921
 21
1867.7494964292871
 31
0.0
  0
LINE
  5
3C42
  8
YODOROGO
 10
28793.60434129191
 20
1947.749496429288
 30
0.0
 11
28793.60434129191
 21
1867.7494964292871
 31
0.0
  0
ARC
  5
3C43
  8
YODOROGO
 10
28753.60434129191
 20
1947.749496429288
 30
0.0
 40
40.0
 50
0.0
 51
90.0
  0
LINE
  5
3C44
  8
YODOROGO
 10
28657.604341291921
 20
1987.7494964292871
 30
0.0
 11
28753.60434129191
 21
1987.7494964292871
 31
0.0
  0
LINE
  5
3C45
  8
YODOROGO
 10
28657.604341291921
 20
2027.749496429288
 30
0.0
 11
28657.604341291921
 21
1987.7494964292871
 31
0.0
  0
LINE
  5
3C46
  8
YODOROGO
 10
29073.604341291921
 20
2027.749496429288
 30
0.0
 11
29001.60434129191
 21
2027.749496429288
 31
0.0
  0
LINE
  5
3C47
  8
YODOROGO
 10
29261.604341291921
 20
2007.749496429288
 30
0.0
 11
29197.604341291921
 21
2007.749496429288
 31
0.0
  0
LINE
  5
3C48
  8
YODOROGO
 10
29457.604341291921
 20
2027.749496429288
 30
0.0
 11
29385.604341291921
 21
2027.749496429288
 31
0.0
  0
LINE
  5
3C49
  8
YODOROGO
 10
29673.604341291921
 20
1707.749496429288
 30
0.0
 11
29673.604341291921
 21
1771.7494964292871
 31
0.0
1001
AUTOCAD_POSTSCRIPT_FIGURE
1002
{
1000
PSFILL
1000
Grayscale
1000
Grayscale
1070
    25
1002
}
  0
LINE
  5
3C4A
  8
YODOROGO
 10
29617.604341291921
 20
1707.749496429288
 30
0.0
 11
29673.604341291921
 21
1707.749496429288
 31
0.0
1001
AUTOCAD_POSTSCRIPT_FIGURE
1002
{
1000
PSFILL
1000
Grayscale
1000
Grayscale
1070
    25
1002
}
  0
LINE
  5
3C4B
  8
YODOROGO
 10
29617.604341291921
 20
1819.7494964292871
 30
0.0
 11
29617.604341291921
 21
1707.749496429288
 31
0.0
1001
AUTOCAD_POSTSCRIPT_FIGURE
1002
{
1000
PSFILL
1000
Grayscale
1000
Grayscale
1070
    25
1002
}
  0
LINE
  5
3C4C
  8
YODOROGO
 10
29765.604341291921
 20
1819.7494964292871
 30
0.0
 11
29617.604341291921
 21
1819.7494964292871
 31
0.0
1001
AUTOCAD_POSTSCRIPT_FIGURE
1002
{
1000
PSFILL
1000
Grayscale
1000
Grayscale
1070
    25
1002
}
  0
LINE
  5
3C4D
  8
YODOROGO
 10
29765.604341291921
 20
1859.749496429288
 30
0.0
 11
29765.604341291921
 21
1819.7494964292871
 31
0.0
1001
AUTOCAD_POSTSCRIPT_FIGURE
1002
{
1000
PSFILL
1000
Grayscale
1000
Grayscale
1070
    25
1002
}
  0
LINE
  5
3C4E
  8
YODOROGO
 10
29617.604341291921
 20
1859.749496429288
 30
0.0
 11
29765.604341291921
 21
1859.749496429288
 31
0.0
1001
AUTOCAD_POSTSCRIPT_FIGURE
1002
{
1000
PSFILL
1000
Grayscale
1000
Grayscale
1070
    25
1002
}
  0
LINE
  5
3C4F
  8
YODOROGO
 10
29617.604341291921
 20
1907.7494964292871
 30
0.0
 11
29617.604341291921
 21
1859.749496429288
 31
0.0
1001
AUTOCAD_POSTSCRIPT_FIGURE
1002
{
1000
PSFILL
1000
Grayscale
1000
Grayscale
1070
    25
1002
}
  0
LINE
  5
3C50
  8
YODOROGO
 10
29765.604341291921
 20
1907.7494964292871
 30
0.0
 11
29617.604341291921
 21
1907.7494964292871
 31
0.0
1001
AUTOCAD_POSTSCRIPT_FIGURE
1002
{
1000
PSFILL
1000
Grayscale
1000
Grayscale
1070
    25
1002
}
  0
LINE
  5
3C51
  8
YODOROGO
 10
29765.604341291921
 20
1947.749496429288
 30
0.0
 11
29765.604341291921
 21
1907.7494964292871
 31
0.0
1001
AUTOCAD_POSTSCRIPT_FIGURE
1002
{
1000
PSFILL
1000
Grayscale
1000
Grayscale
1070
    25
1002
}
  0
LINE
  5
3C52
  8
YODOROGO
 10
29617.604341291921
 20
1947.749496429288
 30
0.0
 11
29765.604341291921
 21
1947.749496429288
 31
0.0
1001
AUTOCAD_POSTSCRIPT_FIGURE
1002
{
1000
PSFILL
1000
Grayscale
1000
Grayscale
1070
    25
1002
}
  0
LINE
  5
3C53
  8
YODOROGO
 10
29617.604341291921
 20
2027.749496429288
 30
0.0
 11
29617.604341291921
 21
1947.749496429288
 31
0.0
1001
AUTOCAD_POSTSCRIPT_FIGURE
1002
{
1000
PSFILL
1000
Grayscale
1000
Grayscale
1070
    25
1002
}
  0
LINE
  5
3C54
  8
YODOROGO
 10
29665.604341291921
 20
2027.749496429288
 30
0.0
 11
29617.604341291921
 21
2027.749496429288
 31
0.0
1001
AUTOCAD_POSTSCRIPT_FIGURE
1002
{
1000
PSFILL
1000
Grayscale
1000
Grayscale
1070
    25
1002
}
  0
LINE
  5
3C55
  8
YODOROGO
 10
29665.604341291921
 20
1995.7494964292871
 30
0.0
 11
29665.604341291921
 21
2027.749496429288
 31
0.0
1001
AUTOCAD_POSTSCRIPT_FIGURE
1002
{
1000
PSFILL
1000
Grayscale
1000
Grayscale
1070
    25
1002
}
  0
LINE
  5
3C56
  8
YODOROGO
 10
29765.604341291921
 20
1995.7494964292871
 30
0.0
 11
29665.604341291921
 21
1995.7494964292871
 31
0.0
1001
AUTOCAD_POSTSCRIPT_FIGURE
1002
{
1000
PSFILL
1000
Grayscale
1000
Grayscale
1070
    25
1002
}
  0
LINE
  5
3C57
  8
YODOROGO
 10
29765.604341291921
 20
2027.749496429288
 30
0.0
 11
29765.604341291921
 21
1995.7494964292871
 31
0.0
1001
AUTOCAD_POSTSCRIPT_FIGURE
1002
{
1000
PSFILL
1000
Grayscale
1000
Grayscale
1070
    25
1002
}
  0
LINE
  5
3C58
  8
YODOROGO
 10
29829.604341291921
 20
2027.749496429288
 30
0.0
 11
29765.604341291921
 21
2027.749496429288
 31
0.0
1001
AUTOCAD_POSTSCRIPT_FIGURE
1002
{
1000
PSFILL
1000
Grayscale
1000
Grayscale
1070
    25
1002
}
  0
LINE
  5
3C59
  8
YODOROGO
 10
29829.604341291921
 20
1995.7494964292871
 30
0.0
 11
29829.604341291921
 21
2027.749496429288
 31
0.0
1001
AUTOCAD_POSTSCRIPT_FIGURE
1002
{
1000
PSFILL
1000
Grayscale
1000
Grayscale
1070
    25
1002
}
  0
LINE
  5
3C5A
  8
YODOROGO
 10
29829.604341291921
 20
1907.7494964292871
 30
0.0
 11
29829.604341291921
 21
1947.749496429288
 31
0.0
1001
AUTOCAD_POSTSCRIPT_FIGURE
1002
{
1000
PSFILL
1000
Grayscale
1000
Grayscale
1070
    25
1002
}
  0
LINE
  5
3C5B
  8
YODOROGO
 10
29829.604341291921
 20
1819.7494964292871
 30
0.0
 11
29829.604341291921
 21
1859.749496429288
 31
0.0
1001
AUTOCAD_POSTSCRIPT_FIGURE
1002
{
1000
PSFILL
1000
Grayscale
1000
Grayscale
1070
    25
1002
}
  0
LINE
  5
3C5C
  8
YODOROGO
 10
29921.60434129191
 20
1771.7494964292871
 30
0.0
 11
29921.60434129191
 21
1707.749496429288
 31
0.0
1001
AUTOCAD_POSTSCRIPT_FIGURE
1002
{
1000
PSFILL
1000
Grayscale
1000
Grayscale
1070
    25
1002
}
  0
LINE
  5
3C5D
  8
YODOROGO
 10
29829.604341291921
 20
1771.7494964292871
 30
0.0
 11
29921.60434129191
 21
1771.7494964292871
 31
0.0
1001
AUTOCAD_POSTSCRIPT_FIGURE
1002
{
1000
PSFILL
1000
Grayscale
1000
Grayscale
1070
    25
1002
}
  0
LINE
  5
3C5E
  8
YODOROGO
 10
29829.604341291921
 20
1707.749496429288
 30
0.0
 11
29829.604341291921
 21
1771.7494964292871
 31
0.0
1001
AUTOCAD_POSTSCRIPT_FIGURE
1002
{
1000
PSFILL
1000
Grayscale
1000
Grayscale
1070
    25
1002
}
  0
LINE
  5
3C5F
  8
YODOROGO
 10
29765.604341291921
 20
1707.749496429288
 30
0.0
 11
29829.604341291921
 21
1707.749496429288
 31
0.0
1001
AUTOCAD_POSTSCRIPT_FIGURE
1002
{
1000
PSFILL
1000
Grayscale
1000
Grayscale
1070
    25
1002
}
  0
LINE
  5
3C60
  8
YODOROGO
 10
29765.604341291921
 20
1771.7494964292871
 30
0.0
 11
29765.604341291921
 21
1707.749496429288
 31
0.0
1001
AUTOCAD_POSTSCRIPT_FIGURE
1002
{
1000
PSFILL
1000
Grayscale
1000
Grayscale
1070
    25
1002
}
  0
LINE
  5
3C61
  8
YODOROGO
 10
29673.604341291921
 20
1771.7494964292871
 30
0.0
 11
29765.604341291921
 21
1771.7494964292871
 31
0.0
1001
AUTOCAD_POSTSCRIPT_FIGURE
1002
{
1000
PSFILL
1000
Grayscale
1000
Grayscale
1070
    25
1002
}
  0
ARC
  5
3C62
  8
YODOROGO
 10
31059.517893357912
 20
1602.6807375155761
 30
0.0
 40
178.22128111072141
 50
281.02627495425338
 51
357.77113575573799
  0
LINE
  5
3C63
  8
YODOROGO
 10
31413.604341291921
 20
1907.7494964292871
 30
0.0
 11
31165.604341291921
 21
1907.7494964292871
 31
0.0
  0
LINE
  5
3C64
  8
YODOROGO
 10
31413.604341291921
 20
2027.749496429288
 30
0.0
 11
31165.604341291921
 21
2027.749496429288
 31
0.0
  0
LINE
  5
3C65
  8
YODOROGO
 10
31165.604341291921
 20
1963.749496429286
 30
0.0
 11
31413.604341291921
 21
1963.749496429286
 31
0.0
  0
LINE
  5
3C66
  8
YODOROGO
 10
30791.604341291921
 20
1563.7494964292871
 30
0.0
 11
30791.604341291921
 21
1755.7494964292871
 31
0.0
  0
LINE
  5
3C67
  8
YODOROGO
 10
30763.604341291921
 20
1691.749496429288
 30
0.0
 11
30763.604341291921
 21
1563.7494964292871
 31
0.0
  0
LINE
  5
3C68
  8
YODOROGO
 10
30723.604341291921
 20
1491.749496429288
 30
0.0
 11
30723.604341291921
 21
1691.749496429288
 31
0.0
  0
LINE
  5
3C69
  8
YODOROGO
 10
30899.604341291932
 20
1691.749496429288
 30
0.0
 11
30899.604341291932
 21
1491.749496429288
 31
0.0
  0
LINE
  5
3C6A
  8
YODOROGO
 10
30859.604341291932
 20
1563.7494964292871
 30
0.0
 11
30859.604341291932
 21
1691.749496429288
 31
0.0
  0
LINE
  5
3C6B
  8
YODOROGO
 10
30831.604341291921
 20
1755.7494964292871
 30
0.0
 11
30831.604341291921
 21
1563.7494964292871
 31
0.0
  0
LINE
  5
3C6C
  8
YODOROGO
 10
30973.604341291921
 20
2027.749496429288
 30
0.0
 11
30973.604341291921
 21
1467.749496429288
 31
0.0
  0
LINE
  5
3C6D
  8
YODOROGO
 10
30645.604341291921
 20
1427.749496429288
 30
0.0
 11
30645.604341291921
 21
2027.749496429288
 31
0.0
  0
LINE
  5
3C6E
  8
YODOROGO
 10
30697.604341291932
 20
1963.749496429286
 30
0.0
 11
30697.604341291932
 21
1427.749496429288
 31
0.0
  0
LINE
  5
3C6F
  8
YODOROGO
 10
30925.604341291921
 20
1547.749496429288
 30
0.0
 11
30925.604341291921
 21
1963.749496429286
 31
0.0
  0
LINE
  5
3C70
  8
YODOROGO
 10
30381.604341291932
 20
1627.749496429288
 30
0.0
 11
30381.604341291932
 21
1679.749496429288
 31
0.0
  0
LINE
  5
3C71
  8
YODOROGO
 10
30617.604341291921
 20
1679.749496429288
 30
0.0
 11
30617.604341291921
 21
1627.749496429288
 31
0.0
  0
LINE
  5
3C72
  8
YODOROGO
 10
31165.604341291921
 20
1907.7494964292871
 30
0.0
 11
31165.604341291921
 21
1635.7494964292871
 31
0.0
  0
LINE
  5
3C73
  8
YODOROGO
 10
29949.60434129191
 20
1667.749496429288
 30
0.0
 11
29949.60434129191
 21
1707.749496429288
 31
0.0
  0
LINE
  5
3C74
  8
YODOROGO
 10
29949.60434129191
 20
1667.749496429288
 30
0.0
 11
29949.60434129191
 21
1707.749496429288
 31
0.0
  0
ARC
  5
3C75
  8
YODOROGO
 10
30537.604341291921
 20
1507.749496429288
 30
0.0
 40
80.0
 50
270.0
 51
0.0
  0
LINE
  5
3C76
  8
YODOROGO
 10
30569.604341291921
 20
1599.7494964292871
 30
0.0
 11
30617.604341291921
 21
1599.7494964292871
 31
0.0
  0
LINE
  5
3C77
  8
YODOROGO
 10
30617.604341291921
 20
1627.749496429288
 30
0.0
 11
30529.604341291939
 21
1627.749496429288
 31
0.0
  0
LINE
  5
3C78
  8
YODOROGO
 10
30217.604341291921
 20
1667.749496429288
 30
0.0
 11
29949.60434129191
 21
1667.749496429288
 31
0.0
  0
LINE
  5
3C79
  8
YODOROGO
 10
30217.604341291921
 20
1627.749496429288
 30
0.0
 11
30217.604341291921
 21
1667.749496429288
 31
0.0
  0
LINE
  5
3C7A
  8
YODOROGO
 10
30017.604341291921
 20
1627.749496429288
 30
0.0
 11
30217.604341291921
 21
1627.749496429288
 31
0.0
  0
ARC
  5
3C7B
  8
YODOROGO
 10
30230.05882870136
 20
1868.885714952901
 30
0.0
 40
321.37763628522822
 50
228.6181454618993
 51
245.660289248906
  0
LINE
  5
3C7C
  8
YODOROGO
 10
30105.604341291921
 20
1603.7494964292871
 30
0.0
 11
30097.60434129195
 21
1576.0728158699001
 31
0.0
  0
LINE
  5
3C7D
  8
YODOROGO
 10
30189.604341291921
 20
1603.7494964292871
 30
0.0
 11
30105.604341291921
 21
1603.7494964292871
 31
0.0
  0
LINE
  5
3C7E
  8
YODOROGO
 10
30177.604341291921
 20
1551.817722473427
 30
0.0
 11
30189.604341291921
 21
1603.7494964292871
 31
0.0
  0
ARC
  5
3C7F
  8
YODOROGO
 10
30230.05882870045
 20
1868.885714953002
 30
0.0
 40
321.37763628529081
 50
260.60629297969911
 51
267.77903556555862
  0
LINE
  5
3C80
  8
YODOROGO
 10
30217.604341291921
 20
1427.749496429285
 30
0.0
 11
30217.604341291921
 21
1547.749496429288
 31
0.0
  0
LINE
  5
3C81
  8
YODOROGO
 10
29937.604341291932
 20
1481.3393349155101
 30
0.0
 11
29937.604341291921
 21
1594.531090531141
 31
0.0
  0
LINE
  5
3C82
  8
YODOROGO
 10
30217.604341291921
 20
1667.749496429288
 30
0.0
 11
29949.60434129191
 21
1667.749496429288
 31
0.0
  0
LINE
  5
3C83
  8
YODOROGO
 10
30217.604341291921
 20
1627.749496429288
 30
0.0
 11
30217.604341291921
 21
1667.749496429288
 31
0.0
  0
LINE
  5
3C84
  8
YODOROGO
 10
30017.604341291921
 20
1627.749496429288
 30
0.0
 11
30217.604341291921
 21
1627.749496429288
 31
0.0
  0
ARC
  5
3C85
  8
YODOROGO
 10
30230.05882870136
 20
1868.885714952901
 30
0.0
 40
321.37763628522822
 50
228.6181454618993
 51
245.660289248906
  0
LINE
  5
3C86
  8
YODOROGO
 10
30105.604341291921
 20
1603.7494964292871
 30
0.0
 11
30097.60434129195
 21
1576.0728158699001
 31
0.0
  0
LINE
  5
3C87
  8
YODOROGO
 10
30189.604341291921
 20
1603.7494964292871
 30
0.0
 11
30105.604341291921
 21
1603.7494964292871
 31
0.0
  0
LINE
  5
3C88
  8
YODOROGO
 10
30177.604341291921
 20
1551.817722473427
 30
0.0
 11
30189.604341291921
 21
1603.7494964292871
 31
0.0
  0
ARC
  5
3C89
  8
YODOROGO
 10
30230.05882870045
 20
1868.885714953002
 30
0.0
 40
321.37763628529081
 50
260.60629297969911
 51
267.77903556555862
  0
LINE
  5
3C8A
  8
YODOROGO
 10
30217.604341291921
 20
1427.749496429285
 30
0.0
 11
30217.604341291921
 21
1547.749496429288
 31
0.0
  0
LINE
  5
3C8B
  8
YODOROGO
 10
29937.604341291932
 20
1481.3393349155101
 30
0.0
 11
29937.604341291921
 21
1594.531090531141
 31
0.0
  0
LINE
  5
3C8C
  8
YODOROGO
 10
30433.604341291921
 20
1573.749496429288
 30
0.0
 11
30381.604341291932
 21
1573.749496429288
 31
0.0
  0
LINE
  5
3C8D
  8
YODOROGO
 10
30433.604341291921
 20
1601.749496429285
 30
0.0
 11
30433.604341291921
 21
1573.749496429288
 31
0.0
  0
LINE
  5
3C8E
  8
YODOROGO
 10
30381.604341291932
 20
1601.749496429285
 30
0.0
 11
30433.604341291921
 21
1601.749496429285
 31
0.0
  0
LINE
  5
3C8F
  8
YODOROGO
 10
30381.604341291932
 20
1573.749496429288
 30
0.0
 11
30381.604341291932
 21
1601.749496429285
 31
0.0
  0
LINE
  5
3C90
  8
YODOROGO
 10
30429.604341291921
 20
1577.7494964292871
 30
0.0
 11
30385.604341291921
 21
1577.7494964292871
 31
0.0
  0
LINE
  5
3C91
  8
YODOROGO
 10
30429.604341291921
 20
1597.749496429288
 30
0.0
 11
30429.604341291921
 21
1577.7494964292871
 31
0.0
  0
LINE
  5
3C92
  8
YODOROGO
 10
30385.604341291921
 20
1597.749496429288
 30
0.0
 11
30429.604341291921
 21
1597.749496429288
 31
0.0
  0
LINE
  5
3C93
  8
YODOROGO
 10
30385.604341291921
 20
1577.7494964292871
 30
0.0
 11
30385.604341291921
 21
1597.749496429288
 31
0.0
  0
LINE
  5
3C94
  8
YODOROGO
 10
30425.604341291921
 20
1581.749496429286
 30
0.0
 11
30389.604341291921
 21
1581.749496429286
 31
0.0
  0
LINE
  5
3C95
  8
YODOROGO
 10
30425.604341291921
 20
1593.749496429288
 30
0.0
 11
30425.604341291921
 21
1581.749496429286
 31
0.0
  0
LINE
  5
3C96
  8
YODOROGO
 10
30389.604341291921
 20
1593.749496429288
 30
0.0
 11
30425.604341291921
 21
1593.749496429288
 31
0.0
  0
LINE
  5
3C97
  8
YODOROGO
 10
30389.604341291921
 20
1581.749496429286
 30
0.0
 11
30389.604341291921
 21
1593.749496429288
 31
0.0
  0
LINE
  5
3C98
  8
YODOROGO
 10
30421.604341291932
 20
1585.7494964292871
 30
0.0
 11
30393.604341291921
 21
1585.7494964292871
 31
0.0
  0
LINE
  5
3C99
  8
YODOROGO
 10
30421.604341291932
 20
1589.749496429288
 30
0.0
 11
30421.604341291932
 21
1585.7494964292871
 31
0.0
  0
LINE
  5
3C9A
  8
YODOROGO
 10
30393.604341291921
 20
1589.749496429288
 30
0.0
 11
30421.604341291932
 21
1589.749496429288
 31
0.0
  0
LINE
  5
3C9B
  8
YODOROGO
 10
30393.604341291921
 20
1585.7494964292871
 30
0.0
 11
30393.604341291921
 21
1589.749496429288
 31
0.0
  0
LINE
  5
3C9C
  8
YODOROGO
 10
30465.604341291921
 20
1627.749496429288
 30
0.0
 11
30381.604341291932
 21
1627.749496429288
 31
0.0
  0
LINE
  5
3C9D
  8
YODOROGO
 10
30465.604341291921
 20
1547.749496429288
 30
0.0
 11
30465.604341291921
 21
1627.749496429288
 31
0.0
  0
LINE
  5
3C9E
  8
YODOROGO
 10
30381.604341291932
 20
1547.749496429288
 30
0.0
 11
30465.604341291921
 21
1547.749496429288
 31
0.0
  0
LINE
  5
3C9F
  8
YODOROGO
 10
30381.604341291932
 20
1427.749496429288
 30
0.0
 11
30381.604341291932
 21
1547.749496429288
 31
0.0
  0
LINE
  5
3CA0
  8
YODOROGO
 10
30537.604341291921
 20
1427.749496429288
 30
0.0
 11
30381.604341291932
 21
1427.749496429288
 31
0.0
  0
LINE
  5
3CA1
  8
YODOROGO
 10
30569.604341291921
 20
1571.749496429285
 30
0.0
 11
30569.604341291921
 21
1599.7494964292871
 31
0.0
  0
ARC
  5
3CA2
  8
YODOROGO
 10
30545.604341291921
 20
1571.749496429291
 30
0.0
 40
24.000000000003752
 50
270.0
 51
359.99999999998772
  0
LINE
  5
3CA3
  8
YODOROGO
 10
30529.604341291939
 20
1547.749496429288
 30
0.0
 11
30545.604341291921
 21
1547.749496429288
 31
0.0
  0
LINE
  5
3CA4
  8
YODOROGO
 10
30529.604341291939
 20
1627.749496429288
 30
0.0
 11
30529.604341291939
 21
1547.749496429288
 31
0.0
  0
LINE
  5
3CA5
  8
YODOROGO
 10
30899.604341291932
 20
1547.749496429288
 30
0.0
 11
30925.604341291921
 21
1547.749496429288
 31
0.0
  0
LINE
  5
3CA6
  8
YODOROGO
 10
30933.604341291921
 20
1427.749496429288
 30
0.0
 11
30899.604341291932
 21
1427.749496429288
 31
0.0
  0
LINE
  5
3CA7
  8
YODOROGO
 10
30763.604341291921
 20
1563.7494964292871
 30
0.0
 11
30791.604341291921
 21
1563.7494964292871
 31
0.0
  0
LINE
  5
3CA8
  8
YODOROGO
 10
30899.604341291932
 20
1491.749496429288
 30
0.0
 11
30723.604341291921
 21
1491.749496429288
 31
0.0
  0
LINE
  5
3CA9
  8
YODOROGO
 10
30831.604341291921
 20
1563.7494964292871
 30
0.0
 11
30859.604341291932
 21
1563.7494964292871
 31
0.0
  0
LINE
  5
3CAA
  8
YODOROGO
 10
30899.604341291932
 20
1427.749496429288
 30
0.0
 11
30899.604341291932
 21
1547.749496429288
 31
0.0
  0
LINE
  5
3CAB
  8
YODOROGO
 10
30697.604341291932
 20
1427.749496429288
 30
0.0
 11
30645.604341291921
 21
1427.749496429288
 31
0.0
  0
LINE
  5
3CAC
  8
YODOROGO
 10
30617.604341291921
 20
1599.7494964292871
 30
0.0
 11
30617.604341291921
 21
1507.749496429288
 31
0.0
  0
ARC
  5
3CAD
  8
YODOROGO
 10
30933.604341291921
 20
1467.749496429288
 30
0.0
 40
40.0
 50
270.0
 51
0.0
  0
LINE
  5
3CAE
  8
YODOROGO
 10
31093.604341291921
 20
1523.7494964292871
 30
0.0
 11
31093.604341291921
 21
1427.749496429288
 31
0.0
  0
ARC
  5
3CAF
  8
YODOROGO
 10
31039.721395566768
 20
1637.5313901097329
 30
0.0
 40
125.8955565916754
 50
295.34052442160112
 51
359.18902303418679
  0
LINE
  5
3CB0
  8
YODOROGO
 10
30617.604341291921
 20
1859.749496429288
 30
0.0
 11
30497.604341291921
 21
1939.749496429288
 31
0.0
  0
LINE
  5
3CB1
  8
YODOROGO
 10
30497.604341291921
 20
2027.749496429288
 30
0.0
 11
30617.604341291921
 21
1947.749496429288
 31
0.0
  0
LINE
  5
3CB2
  8
YODOROGO
 10
30529.604341291939
 20
1679.749496429288
 30
0.0
 11
30617.604341291921
 21
1679.749496429288
 31
0.0
  0
LINE
  5
3CB3
  8
YODOROGO
 10
30617.604341291921
 20
1735.7494964292871
 30
0.0
 11
30529.604341291939
 21
1735.7494964292871
 31
0.0
  0
LINE
  5
3CB4
  8
YODOROGO
 10
30381.604341291932
 20
1795.7494964292871
 30
0.0
 11
30617.604341291921
 21
1795.7494964292871
 31
0.0
  0
LINE
  5
3CB5
  8
YODOROGO
 10
30081.604341291921
 20
2027.749496429288
 30
0.0
 11
30021.604341291921
 21
2027.749496429288
 31
0.0
  0
LINE
  5
3CB6
  8
YODOROGO
 10
30081.604341291921
 20
1827.7494964292871
 30
0.0
 11
30081.604341291921
 21
2027.749496429288
 31
0.0
  0
LINE
  5
3CB7
  8
YODOROGO
 10
30021.604341291921
 20
1827.7494964292871
 30
0.0
 11
30081.604341291921
 21
1827.7494964292871
 31
0.0
  0
LINE
  5
3CB8
  8
YODOROGO
 10
30021.604341291921
 20
2027.749496429288
 30
0.0
 11
30021.604341291921
 21
1827.7494964292871
 31
0.0
  0
LINE
  5
3CB9
  8
YODOROGO
 10
30161.604341291921
 20
2027.749496429288
 30
0.0
 11
30217.604341291921
 21
2027.749496429288
 31
0.0
  0
LINE
  5
3CBA
  8
YODOROGO
 10
30161.604341291921
 20
1811.749496429288
 30
0.0
 11
30161.604341291921
 21
2027.749496429288
 31
0.0
  0
ARC
  5
3CBB
  8
YODOROGO
 10
30121.604341291921
 20
1811.749496429288
 30
0.0
 40
40.0
 50
270.0
 51
0.0
  0
LINE
  5
3CBC
  8
YODOROGO
 10
30021.604341291921
 20
1771.7494964292871
 30
0.0
 11
30121.604341291921
 21
1771.7494964292871
 31
0.0
  0
LINE
  5
3CBD
  8
YODOROGO
 10
30021.604341291921
 20
1707.749496429288
 30
0.0
 11
30021.604341291921
 21
1771.7494964292871
 31
0.0
  0
LINE
  5
3CBE
  8
YODOROGO
 10
30137.604341291921
 20
1707.749496429288
 30
0.0
 11
30021.604341291921
 21
1707.749496429288
 31
0.0
  0
ARC
  5
3CBF
  8
YODOROGO
 10
30137.604341291921
 20
1787.7494964292871
 30
0.0
 40
80.0
 50
270.0
 51
0.0
  0
LINE
  5
3CC0
  8
YODOROGO
 10
30217.604341291921
 20
2027.749496429288
 30
0.0
 11
30217.604341291921
 21
1787.7494964292871
 31
0.0
  0
LINE
  5
3CC1
  8
YODOROGO
 10
29977.604341291921
 20
1947.749496429288
 30
0.0
 11
29977.604341291921
 21
1995.7494964292871
 31
0.0
1001
AUTOCAD_POSTSCRIPT_FIGURE
1002
{
1000
PSFILL
1000
Grayscale
1000
Grayscale
1070
    25
1002
}
  0
LINE
  5
3CC2
  8
YODOROGO
 10
29977.604341291921
 20
1859.749496429288
 30
0.0
 11
29977.604341291921
 21
1907.7494964292871
 31
0.0
1001
AUTOCAD_POSTSCRIPT_FIGURE
1002
{
1000
PSFILL
1000
Grayscale
1000
Grayscale
1070
    25
1002
}
  0
LINE
  5
3CC3
  8
YODOROGO
 10
29977.604341291921
 20
1707.749496429288
 30
0.0
 11
29977.604341291921
 21
1819.7494964292871
 31
0.0
1001
AUTOCAD_POSTSCRIPT_FIGURE
1002
{
1000
PSFILL
1000
Grayscale
1000
Grayscale
1070
    25
1002
}
  0
LINE
  5
3CC4
  8
YODOROGO
 10
30381.604341291932
 20
1907.7494964292871
 30
0.0
 11
30497.604341291921
 21
2027.749496429288
 31
0.0
  0
LINE
  5
3CC5
  8
YODOROGO
 10
30381.604341291932
 20
1819.7494964292871
 30
0.0
 11
30381.604341291932
 21
1907.7494964292871
 31
0.0
  0
LINE
  5
3CC6
  8
YODOROGO
 10
30497.604341291921
 20
1939.749496429288
 30
0.0
 11
30381.604341291932
 21
1819.7494964292871
 31
0.0
  0
LINE
  5
3CC7
  8
YODOROGO
 10
30465.604341291921
 20
1679.749496429288
 30
0.0
 11
30465.604341291921
 21
1735.7494964292871
 31
0.0
  0
LINE
  5
3CC8
  8
YODOROGO
 10
30381.604341291932
 20
1679.749496429288
 30
0.0
 11
30465.604341291921
 21
1679.749496429288
 31
0.0
  0
LINE
  5
3CC9
  8
YODOROGO
 10
30529.604341291939
 20
1735.7494964292871
 30
0.0
 11
30529.604341291939
 21
1679.749496429288
 31
0.0
  0
LINE
  5
3CCA
  8
YODOROGO
 10
30381.604341291932
 20
1735.7494964292871
 30
0.0
 11
30381.604341291932
 21
1795.7494964292871
 31
0.0
  0
LINE
  5
3CCB
  8
YODOROGO
 10
30465.604341291921
 20
1735.7494964292871
 30
0.0
 11
30381.604341291932
 21
1735.7494964292871
 31
0.0
  0
LINE
  5
3CCC
  8
YODOROGO
 10
30645.604341291921
 20
2027.749496429288
 30
0.0
 11
30973.604341291921
 21
2027.749496429288
 31
0.0
  0
LINE
  5
3CCD
  8
YODOROGO
 10
30925.604341291921
 20
1963.749496429286
 30
0.0
 11
30697.604341291932
 21
1963.749496429286
 31
0.0
  0
LINE
  5
3CCE
  8
YODOROGO
 10
30873.604341291921
 20
1819.7494964292871
 30
0.0
 11
30899.604341291932
 21
1819.7494964292871
 31
0.0
  0
LINE
  5
3CCF
  8
YODOROGO
 10
30899.604341291932
 20
1939.749496429288
 30
0.0
 11
30873.604341291921
 21
1819.7494964292871
 31
0.0
  0
LINE
  5
3CD0
  8
YODOROGO
 10
30851.604341291939
 20
1939.749496429288
 30
0.0
 11
30899.604341291932
 21
1939.749496429288
 31
0.0
  0
LINE
  5
3CD1
  8
YODOROGO
 10
30825.604341291921
 20
1819.7494964292871
 30
0.0
 11
30851.604341291939
 21
1939.749496429288
 31
0.0
  0
LINE
  5
3CD2
  8
YODOROGO
 10
30797.604341291921
 20
1819.7494964292871
 30
0.0
 11
30825.604341291921
 21
1819.7494964292871
 31
0.0
  0
LINE
  5
3CD3
  8
YODOROGO
 10
30771.604341291939
 20
1939.749496429288
 30
0.0
 11
30797.604341291921
 21
1819.7494964292871
 31
0.0
  0
LINE
  5
3CD4
  8
YODOROGO
 10
30723.604341291921
 20
1939.749496429288
 30
0.0
 11
30771.604341291939
 21
1939.749496429288
 31
0.0
  0
LINE
  5
3CD5
  8
YODOROGO
 10
30749.604341291921
 20
1819.7494964292871
 30
0.0
 11
30723.604341291921
 21
1939.749496429288
 31
0.0
  0
LINE
  5
3CD6
  8
YODOROGO
 10
30723.604341291921
 20
1819.7494964292871
 30
0.0
 11
30749.604341291921
 21
1819.7494964292871
 31
0.0
  0
LINE
  5
3CD7
  8
YODOROGO
 10
30723.604341291921
 20
1755.7494964292871
 30
0.0
 11
30723.604341291921
 21
1819.7494964292871
 31
0.0
  0
LINE
  5
3CD8
  8
YODOROGO
 10
30899.604341291932
 20
1755.7494964292871
 30
0.0
 11
30723.604341291921
 21
1755.7494964292871
 31
0.0
  0
LINE
  5
3CD9
  8
YODOROGO
 10
30899.604341291932
 20
1819.7494964292871
 30
0.0
 11
30899.604341291932
 21
1755.7494964292871
 31
0.0
  0
LINE
  5
3CDA
  8
YODOROGO
 10
30617.604341291921
 20
1947.749496429288
 30
0.0
 11
30617.604341291921
 21
1859.749496429288
 31
0.0
  0
LINE
  5
3CDB
  8
YODOROGO
 10
30791.604341291921
 20
1755.7494964292871
 30
0.0
 11
30831.604341291921
 21
1755.7494964292871
 31
0.0
  0
LINE
  5
3CDC
  8
YODOROGO
 10
30723.604341291921
 20
1691.749496429288
 30
0.0
 11
30763.604341291921
 21
1691.749496429288
 31
0.0
  0
LINE
  5
3CDD
  8
YODOROGO
 10
30859.604341291932
 20
1691.749496429288
 30
0.0
 11
30899.604341291932
 21
1691.749496429288
 31
0.0
  0
LINE
  5
3CDE
  8
YODOROGO
 10
30617.604341291921
 20
1795.7494964292871
 30
0.0
 11
30617.604341291921
 21
1735.7494964292871
 31
0.0
  0
LINE
  5
3CDF
  8
YODOROGO
 10
31165.604341291921
 20
2027.749496429288
 30
0.0
 11
31165.604341291921
 21
1963.749496429286
 31
0.0
  0
LINE
  5
3CE0
  8
YODOROGO
 10
31533.604341291921
 20
1595.7494964292871
 30
0.0
 11
31533.60434129191
 21
1811.749496429288
 31
0.0
  0
LINE
  5
3CE1
  8
YODOROGO
 10
31461.60434129191
 20
1987.7494964292871
 30
0.0
 11
31461.60434129191
 21
1635.7494964292871
 31
0.0
  0
LINE
  5
3CE2
  8
YODOROGO
 10
31653.604341291921
 20
1427.749496429288
 30
0.0
 11
31653.60434129191
 21
1811.749496429288
 31
0.0
  0
LINE
  5
3CE3
  8
YODOROGO
 10
31589.604341291921
 20
1811.749496429288
 30
0.0
 11
31589.604341291921
 21
1427.749496429288
 31
0.0
  0
LINE
  5
3CE4
  8
YODOROGO
 10
31237.604341291921
 20
1595.7494964292871
 30
0.0
 11
31237.604341291921
 21
1707.749496429288
 31
0.0
  0
ARC
  5
3CE5
  8
YODOROGO
 10
31353.914865116069
 20
1607.790351288558
 30
0.0
 40
180.0924485759885
 50
268.62849102169793
 51
356.16638457330322
  0
LINE
  5
3CE6
  8
YODOROGO
 10
31349.604341291939
 20
1527.749496429288
 30
0.0
 11
31349.604341291939
 21
1427.749496429288
 31
0.0
  0
ARC
  5
3CE7
  8
YODOROGO
 10
31351.518075724562
 20
1637.838957017655
 30
0.0
 40
110.1060929836122
 50
269.00410209305932
 51
358.91264455492478
  0
LINE
  5
3CE8
  8
YODOROGO
 10
31589.604341291921
 20
1427.749496429288
 30
0.0
 11
31653.604341291921
 21
1427.749496429288
 31
0.0
  0
LINE
  5
3CE9
  8
YODOROGO
 10
31533.60434129191
 20
1811.749496429288
 30
0.0
 11
31589.604341291921
 21
1811.749496429288
 31
0.0
  0
LINE
  5
3CEA
  8
YODOROGO
 10
31621.604341291939
 20
1987.7494964292871
 30
0.0
 11
31461.60434129191
 21
1987.7494964292871
 31
0.0
  0
LINE
  5
3CEB
  8
YODOROGO
 10
31533.60434129191
 20
1915.7494964292871
 30
0.0
 11
31661.604341291939
 21
1915.7494964292871
 31
0.0
  0
LINE
  5
3CEC
  8
YODOROGO
 10
31701.604341291939
 20
1875.7494964292871
 30
0.0
 11
31533.60434129191
 21
1875.7494964292871
 31
0.0
  0
LINE
  5
3CED
  8
YODOROGO
 10
31237.604341291921
 20
1779.749496429288
 30
0.0
 11
31349.604341291939
 21
1779.749496429288
 31
0.0
  0
LINE
  5
3CEE
  8
YODOROGO
 10
31237.604341291921
 20
1835.7494964292871
 30
0.0
 11
31237.604341291921
 21
1779.749496429288
 31
0.0
  0
LINE
  5
3CEF
  8
YODOROGO
 10
31349.604341291939
 20
1835.7494964292871
 30
0.0
 11
31237.604341291921
 21
1835.7494964292871
 31
0.0
  0
LINE
  5
3CF0
  8
YODOROGO
 10
31349.604341291939
 20
1779.749496429288
 30
0.0
 11
31349.604341291939
 21
1835.7494964292871
 31
0.0
  0
LINE
  5
3CF1
  8
YODOROGO
 10
31533.60434129191
 20
1875.7494964292871
 30
0.0
 11
31533.60434129191
 21
1915.7494964292871
 31
0.0
  0
LINE
  5
3CF2
  8
YODOROGO
 10
31413.604341291921
 20
1707.749496429288
 30
0.0
 11
31413.604341291921
 21
1907.7494964292871
 31
0.0
  0
LINE
  5
3CF3
  8
YODOROGO
 10
31237.604341291921
 20
1707.749496429288
 30
0.0
 11
31413.604341291921
 21
1707.749496429288
 31
0.0
  0
LINE
  5
3CF4
  8
YODOROGO
 10
31413.604341291921
 20
1963.749496429286
 30
0.0
 11
31413.604341291921
 21
2027.749496429288
 31
0.0
  0
ARC
  5
3CF5
  8
YODOROGO
 10
31621.604341291939
 20
2003.749496429285
 30
0.0
 40
15.999999999994539
 50
270.0
 51
0.0000000000081422
  0
LINE
  5
3CF6
  8
YODOROGO
 10
31637.604341291921
 20
2027.749496429288
 30
0.0
 11
31637.604341291921
 21
2003.7494964292871
 31
0.0
  0
LINE
  5
3CF7
  8
YODOROGO
 10
31701.604341291939
 20
2027.749496429288
 30
0.0
 11
31637.604341291921
 21
2027.749496429288
 31
0.0
  0
LINE
  5
3CF8
  8
YODOROGO
 10
31701.604341291939
 20
1955.7494964292871
 30
0.0
 11
31701.604341291939
 21
2027.749496429288
 31
0.0
  0
ARC
  5
3CF9
  8
YODOROGO
 10
31661.604341291939
 20
1955.7494964292871
 30
0.0
 40
40.0
 50
270.0
 51
0.0
  0
LINE
  5
3CFA
  8
YODOROGO
 10
31701.604341291939
 20
1811.749496429288
 30
0.0
 11
31701.604341291939
 21
1875.7494964292871
 31
0.0
  0
LINE
  5
3CFB
  8
YODOROGO
 10
31653.60434129191
 20
1811.749496429288
 30
0.0
 11
31701.604341291939
 21
1811.749496429288
 31
0.0
  0
LINE
  5
3CFF
  8
SUNPOU
  6
CONTINUOUS
 62
     4
 10
8046.8585895000342
 20
20194.224844
 30
0.0
 11
8046.8585895000342
 21
20744.230123000001
 31
0.0
  0
LINE
  5
3D00
  8
SUNPOU
  6
CONTINUOUS
 62
     4
 10
8132.3585895000342
 20
20664.230123000001
 30
0.0
 11
8372.3585895000342
 21
20664.230123000001
 31
0.0
  0
LINE
  5
3D01
  8
SUNPOU
  6
CONTINUOUS
 62
     4
 10
8049.8585895000342
 20
20664.230123000001
 30
0.0
 11
7809.8585895000342
 21
20664.230123000001
 31
0.0
  0
LINE
  5
3D02
  8
SUNPOU
  6
CONTINUOUS
 62
     4
 10
8132.3585895000342
 20
20664.230123000001
 30
0.0
 11
8049.8585895000342
 21
20664.230123000001
 31
0.0
  0
LINE
  5
3D03
  8
SUNPOU
  6
CONTINUOUS
 62
     4
 10
11050.354136000011
 20
20664.230123000001
 30
0.0
 11
8132.3585895000342
 21
20664.230123000001
 31
0.0
  0
LINE
  5
3D04
  8
SUNPOU
  6
CONTINUOUS
 62
     4
 10
14053.84968249998
 20
20194.224844
 30
0.0
 11
14053.84968249998
 21
20744.230123000001
 31
0.0
  0
LINE
  5
3D05
  8
SUNPOU
  6
CONTINUOUS
 62
     4
 10
13968.34968249998
 20
20664.230123000001
 30
0.0
 11
13728.34968249998
 21
20664.230123000001
 31
0.0
  0
LINE
  5
3D06
  8
SUNPOU
  6
CONTINUOUS
 62
     4
 10
14050.84968249998
 20
20664.230123000001
 30
0.0
 11
14290.849682499969
 21
20664.230123000001
 31
0.0
  0
LINE
  5
3D07
  8
SUNPOU
  6
CONTINUOUS
 62
     4
 10
13968.34968249998
 20
20664.230123000001
 30
0.0
 11
14050.84968249998
 21
20664.230123000001
 31
0.0
  0
LINE
  5
3D08
  8
SUNPOU
  6
CONTINUOUS
 62
     4
 10
11050.354136000011
 20
20664.230123000001
 30
0.0
 11
13968.34968249998
 21
20664.230123000001
 31
0.0
  0
LINE
  5
3D09
  8
SUNPOU
  6
CONTINUOUS
 62
     4
 10
7202.8589990000009
 20
16973.730914
 30
0.0
 11
7202.8589989999991
 21
13705.230913999991
 31
0.0
  0
LINE
  5
3D0A
  8
SUNPOU
  6
CONTINUOUS
 62
     4
 10
7969.8544199999978
 20
13512.735599
 30
0.0
 11
7122.8589989999991
 21
13512.735599
 31
0.0
  0
LINE
  5
3D0B
  8
SUNPOU
  6
CONTINUOUS
 62
     4
 10
7202.8589989999991
 20
13705.230913999991
 30
0.0
 11
7202.8589989999991
 21
13512.735599
 31
0.0
  0
LINE
  5
3D0C
  8
SUNPOU
  6
CONTINUOUS
 62
     4
 10
7969.8544199999978
 20
20104.226823000012
 30
0.0
 11
7522.8589989999973
 21
20104.226823000012
 31
0.0
  0
LINE
  5
3D0D
  8
SUNPOU
  6
CONTINUOUS
 62
     4
 10
7969.8587749999979
 20
20114.226823000001
 30
0.0
 11
7522.8589989999973
 21
20114.226823000001
 31
0.0
  0
LINE
  5
3D0E
  8
SUNPOU
  6
CONTINUOUS
 62
     4
 10
7602.8589989999973
 20
20104.226823000012
 30
0.0
 11
7602.8589989999973
 21
19864.22682299999
 31
0.0
  0
LINE
  5
3D0F
  8
SUNPOU
  6
CONTINUOUS
 62
     4
 10
7602.8589989999973
 20
20114.226823000001
 30
0.0
 11
7602.8589989999973
 21
20354.226823000012
 31
0.0
  0
LINE
  5
3D10
  8
SUNPOU
  6
CONTINUOUS
 62
     4
 10
7602.8589989999973
 20
20104.226823000012
 30
0.0
 11
7602.8589989999973
 21
20114.226823000001
 31
0.0
  0
LINE
  5
3D11
  8
SUNPOU
  6
CONTINUOUS
 62
     4
 10
7969.8587749999979
 20
20114.226823000001
 30
0.0
 11
7122.8589990000009
 21
20114.226823000001
 31
0.0
  0
LINE
  5
3D12
  8
SUNPOU
  6
CONTINUOUS
 62
     4
 10
7202.8589990000009
 20
19891.730914
 30
0.0
 11
7202.8589990000009
 21
20114.226823000001
 31
0.0
  0
LINE
  5
3D13
  8
SUNPOU
  6
CONTINUOUS
 62
     4
 10
7202.8589990000009
 20
16973.730914
 30
0.0
 11
7202.8589990000009
 21
19891.730914
 31
0.0
  0
LINE
  5
3D14
  8
SUNPOU
  6
CONTINUOUS
 62
     4
 10
22762.322383499992
 20
20014.229199000009
 30
0.0
 11
22762.322383499992
 21
20744.232102000031
 31
0.0
  0
LINE
  5
3D15
  8
SUNPOU
  6
CONTINUOUS
 62
     4
 10
23520.321393999991
 20
20014.229199000009
 30
0.0
 11
23520.321393999991
 21
20744.232102000031
 31
0.0
  0
LINE
  5
3D16
  8
SUNPOU
  6
CONTINUOUS
 62
     4
 10
22762.322383499992
 20
20664.232102000031
 30
0.0
 11
23520.321393999991
 21
20664.232102000031
 31
0.0
  0
LINE
  5
3D17
  8
SUNPOU
  6
CONTINUOUS
 62
     4
 10
19844.321393999991
 20
20014.229199000009
 30
0.0
 11
19844.321393999991
 21
20744.232102000031
 31
0.0
  0
LINE
  5
3D18
  8
SUNPOU
  6
CONTINUOUS
 62
     4
 10
20602.321393999991
 20
20014.229199000009
 30
0.0
 11
20602.321393999991
 21
20744.232102000031
 31
0.0
  0
LINE
  5
3D19
  8
SUNPOU
  6
CONTINUOUS
 62
     4
 10
19844.321393999991
 20
20664.232102000031
 30
0.0
 11
20602.321393999991
 21
20664.232102000031
 31
0.0
  0
LINE
  5
3D1A
  8
SUNPOU
  6
CONTINUOUS
 62
     4
 10
19844.321393999991
 20
12999.46747999999
 30
0.0
 11
19844.321393999991
 21
12653.782829999989
 31
0.0
  0
LINE
  5
3D1B
  8
SUNPOU
  6
CONTINUOUS
 62
     4
 10
19801.819151
 20
13582.733619000001
 30
0.0
 11
19801.819151
 21
12653.782829999989
 31
0.0
  0
LINE
  5
3D1C
  8
SUNPOU
  6
CONTINUOUS
 62
     4
 10
19844.321393999991
 20
12733.782829999989
 30
0.0
 11
20084.321393999991
 21
12733.782829999989
 31
0.0
  0
LINE
  5
3D1D
  8
SUNPOU
  6
CONTINUOUS
 62
     4
 10
19801.819151
 20
12733.782829999989
 30
0.0
 11
19561.819150999989
 21
12733.782829999989
 31
0.0
  0
LINE
  5
3D1E
  8
SUNPOU
  6
CONTINUOUS
 62
     4
 10
19844.321393999991
 20
12733.782829999989
 30
0.0
 11
19801.819151
 21
12733.782829999989
 31
0.0
  0
LINE
  5
3D1F
  8
SUNPOU
  6
CONTINUOUS
 62
     4
 10
25680.321393999991
 20
12999.46747999999
 30
0.0
 11
25680.321393999991
 21
12653.782829999989
 31
0.0
  0
LINE
  5
3D20
  8
SUNPOU
  6
CONTINUOUS
 62
     4
 10
25722.823636999979
 20
13582.733619000001
 30
0.0
 11
25722.823636999979
 21
12653.782829999989
 31
0.0
  0
LINE
  5
3D21
  8
SUNPOU
  6
CONTINUOUS
 62
     4
 10
25680.321393999991
 20
12733.782829999989
 30
0.0
 11
25440.321393999991
 21
12733.782829999989
 31
0.0
  0
LINE
  5
3D22
  8
SUNPOU
  6
CONTINUOUS
 62
     4
 10
25722.823636999979
 20
12733.782829999989
 30
0.0
 11
25962.823636999979
 21
12733.782829999989
 31
0.0
  0
LINE
  5
3D23
  8
SUNPOU
  6
CONTINUOUS
 62
     4
 10
25680.321393999991
 20
12733.782829999989
 30
0.0
 11
25722.823636999979
 21
12733.782829999989
 31
0.0
  0
LINE
  5
3D24
  8
2-0
  6
CONTINUOUS
 62
     3
 10
22719.821393999991
 20
13662.730913999991
 30
0.0
 11
22804.821393999991
 21
13662.730913999991
 31
0.0
  0
LINE
  5
3D25
  8
2-0
  6
CONTINUOUS
 62
     3
 10
22804.821393999991
 20
13662.730913999991
 30
0.0
 11
22804.821393999991
 21
13747.730913999991
 31
0.0
  0
LINE
  5
3D26
  8
2-0
  6
CONTINUOUS
 62
     3
 10
22804.821393999991
 20
13747.730913999991
 30
0.0
 11
22719.821393999991
 21
13747.730913999991
 31
0.0
  0
LINE
  5
3D27
  8
2-0
  6
CONTINUOUS
 62
     3
 10
22719.821393999991
 20
13747.730913999991
 30
0.0
 11
22719.821393999991
 21
13662.730913999991
 31
0.0
  0
LINE
  5
3D28
  8
SUNPOU
  6
CONTINUOUS
 62
     4
 10
25680.321393999991
 20
12999.46747999999
 30
0.0
 11
25680.321393999991
 21
12653.782829999989
 31
0.0
  0
LINE
  5
3D29
  8
SUNPOU
  6
CONTINUOUS
 62
     4
 10
25637.819150999982
 20
13582.733619000001
 30
0.0
 11
25637.819150999982
 21
12653.782829999989
 31
0.0
  0
LINE
  5
3D2A
  8
SUNPOU
  6
CONTINUOUS
 62
     4
 10
25680.321393999991
 20
12733.782829999989
 30
0.0
 11
25920.321393999991
 21
12733.782829999989
 31
0.0
  0
LINE
  5
3D2B
  8
SUNPOU
  6
CONTINUOUS
 62
     4
 10
25637.819150999982
 20
12733.782829999989
 30
0.0
 11
25397.819150999982
 21
12733.782829999989
 31
0.0
  0
LINE
  5
3D2C
  8
SUNPOU
  6
CONTINUOUS
 62
     4
 10
25680.321393999991
 20
12733.782829999989
 30
0.0
 11
25637.819150999982
 21
12733.782829999989
 31
0.0
  0
LINE
  5
3D2D
  8
SUNPOU
  6
CONTINUOUS
 62
     4
 10
19844.321393999991
 20
12999.46747999999
 30
0.0
 11
19844.321393999991
 21
12653.782829999989
 31
0.0
  0
LINE
  5
3D2E
  8
SUNPOU
  6
CONTINUOUS
 62
     4
 10
19886.82363699999
 20
13582.733619000001
 30
0.0
 11
19886.82363699999
 21
12653.782829999989
 31
0.0
  0
LINE
  5
3D2F
  8
SUNPOU
  6
CONTINUOUS
 62
     4
 10
19844.321393999991
 20
12733.782829999989
 30
0.0
 11
19604.321393999991
 21
12733.782829999989
 31
0.0
  0
LINE
  5
3D30
  8
SUNPOU
  6
CONTINUOUS
 62
     4
 10
19886.82363699999
 20
12733.782829999989
 30
0.0
 11
20126.82363699999
 21
12733.782829999989
 31
0.0
  0
LINE
  5
3D31
  8
SUNPOU
  6
CONTINUOUS
 62
     4
 10
19844.321393999991
 20
12733.782829999989
 30
0.0
 11
19886.82363699999
 21
12733.782829999989
 31
0.0
  0
LINE
  5
3D32
  8
SUNPOU
  6
CONTINUOUS
 62
     4
 10
19801.819151
 20
13582.733619000001
 30
0.0
 11
19801.819151
 21
12253.78283
 31
0.0
  0
LINE
  5
3D33
  8
SUNPOU
  6
CONTINUOUS
 62
     4
 10
25722.823636999979
 20
13582.733619000001
 30
0.0
 11
25722.823636999979
 21
12253.78283
 31
0.0
  0
LINE
  5
3D34
  8
SUNPOU
  6
CONTINUOUS
 62
     4
 10
19801.819151
 20
12333.782829999989
 30
0.0
 11
25722.823636999979
 21
12333.782829999989
 31
0.0
  0
LINE
  5
3D35
  8
SUNPOU
  6
CONTINUOUS
 62
     4
 10
25802.819677999989
 20
14112.730913999991
 30
0.0
 11
26852.820997999988
 21
14112.730913999991
 31
0.0
  0
LINE
  5
3D36
  8
SUNPOU
  6
CONTINUOUS
 62
     4
 10
26652.820997999988
 20
13705.230913999991
 30
0.0
 11
26852.820997999988
 21
13705.230913999991
 31
0.0
  0
LINE
  5
3D37
  8
SUNPOU
  6
CONTINUOUS
 62
     4
 10
26772.820997999988
 20
14112.730913999991
 30
0.0
 11
26772.820997999988
 21
13705.230913999991
 31
0.0
  0
LINE
  5
3D38
  8
SUNPOU
  6
CONTINUOUS
 62
     4
 10
25802.819677999989
 20
14813.730913999991
 30
0.0
 11
26852.820997999988
 21
14813.730913999991
 31
0.0
  0
LINE
  5
3D39
  8
SUNPOU
  6
CONTINUOUS
 62
     4
 10
25802.819677999989
 20
14112.730913999991
 30
0.0
 11
26852.820997999988
 21
14112.730913999991
 31
0.0
  0
LINE
  5
3D3A
  8
SUNPOU
  6
CONTINUOUS
 62
     4
 10
26772.820997999988
 20
14813.730913999991
 30
0.0
 11
26772.820997999988
 21
14112.730913999991
 31
0.0
  0
LINE
  5
3D3B
  8
SUNPOU
  6
CONTINUOUS
 62
     4
 10
25802.819677999989
 20
15514.971425500011
 30
0.0
 11
26852.820997999988
 21
15514.971425500011
 31
0.0
  0
LINE
  5
3D3C
  8
SUNPOU
  6
CONTINUOUS
 62
     4
 10
25802.819677999989
 20
14813.730913999991
 30
0.0
 11
26852.820997999988
 21
14813.730913999991
 31
0.0
  0
LINE
  5
3D3D
  8
SUNPOU
  6
CONTINUOUS
 62
     4
 10
26772.820997999988
 20
15514.971425500011
 30
0.0
 11
26772.820997999988
 21
14813.730913999991
 31
0.0
  0
LINE
  5
3D3E
  8
SUNPOU
  6
CONTINUOUS
 62
     4
 10
25802.819677999989
 20
16215.730913999991
 30
0.0
 11
26852.820997999988
 21
16215.730913999991
 31
0.0
  0
LINE
  5
3D3F
  8
SUNPOU
  6
CONTINUOUS
 62
     4
 10
25802.819677999989
 20
15514.971425500011
 30
0.0
 11
26852.820997999988
 21
15514.971425500011
 31
0.0
  0
LINE
  5
3D40
  8
SUNPOU
  6
CONTINUOUS
 62
     4
 10
26772.820997999988
 20
16215.730913999991
 30
0.0
 11
26772.820997999988
 21
15514.971425500011
 31
0.0
  0
LINE
  5
3D41
  8
SUNPOU
  6
CONTINUOUS
 62
     4
 10
26652.820997999988
 20
16973.730914
 30
0.0
 11
26852.820997999988
 21
16973.730914
 31
0.0
  0
LINE
  5
3D42
  8
SUNPOU
  6
CONTINUOUS
 62
     4
 10
25802.819677999989
 20
16215.730913999991
 30
0.0
 11
26852.820997999988
 21
16215.730913999991
 31
0.0
  0
LINE
  5
3D43
  8
SUNPOU
  6
CONTINUOUS
 62
     4
 10
26772.820997999988
 20
16973.730914
 30
0.0
 11
26772.820997999988
 21
16215.730913999991
 31
0.0
  0
LINE
  5
3D44
  8
SUNPOU
  6
CONTINUOUS
 62
     4
 10
25802.819677999989
 20
17731.730914
 30
0.0
 11
26852.820997999988
 21
17731.730914
 31
0.0
  0
LINE
  5
3D45
  8
SUNPOU
  6
CONTINUOUS
 62
     4
 10
26652.820997999988
 20
16973.730914
 30
0.0
 11
26852.820997999988
 21
16973.730914
 31
0.0
  0
LINE
  5
3D46
  8
SUNPOU
  6
CONTINUOUS
 62
     4
 10
26772.820997999988
 20
17731.730914
 30
0.0
 11
26772.820997999988
 21
16973.730914
 31
0.0
  0
LINE
  5
3D47
  8
SUNPOU
  6
CONTINUOUS
 62
     4
 10
25802.819677999989
 20
18432.730914
 30
0.0
 11
26852.820997999988
 21
18432.730914
 31
0.0
  0
LINE
  5
3D48
  8
SUNPOU
  6
CONTINUOUS
 62
     4
 10
25802.819677999989
 20
17731.730914
 30
0.0
 11
26852.820997999988
 21
17731.730914
 31
0.0
  0
LINE
  5
3D49
  8
SUNPOU
  6
CONTINUOUS
 62
     4
 10
26772.820997999988
 20
18432.730914
 30
0.0
 11
26772.820997999988
 21
17731.730914
 31
0.0
  0
LINE
  5
3D4A
  8
SUNPOU
  6
CONTINUOUS
 62
     4
 10
25802.819677999989
 20
19133.730914
 30
0.0
 11
26852.820997999988
 21
19133.730914
 31
0.0
  0
LINE
  5
3D4B
  8
SUNPOU
  6
CONTINUOUS
 62
     4
 10
25802.819677999989
 20
18432.730914
 30
0.0
 11
26852.820997999988
 21
18432.730914
 31
0.0
  0
LINE
  5
3D4C
  8
SUNPOU
  6
CONTINUOUS
 62
     4
 10
26772.820997999988
 20
19133.730914
 30
0.0
 11
26772.820997999988
 21
18432.730914
 31
0.0
  0
LINE
  5
3D4D
  8
SUNPOU
  6
CONTINUOUS
 62
     4
 10
26652.820997999988
 20
19891.730914
 30
0.0
 11
26852.820997999988
 21
19891.730914
 31
0.0
  0
LINE
  5
3D4E
  8
SUNPOU
  6
CONTINUOUS
 62
     4
 10
25802.819677999989
 20
19133.730914
 30
0.0
 11
26852.820997999988
 21
19133.730914
 31
0.0
  0
LINE
  5
3D4F
  8
SUNPOU
  6
CONTINUOUS
 62
     4
 10
26772.820997999988
 20
19891.730914
 30
0.0
 11
26772.820997999988
 21
19133.730914
 31
0.0
  0
LINE
  5
3D50
  8
SUNPOU
  6
CONTINUOUS
 62
     4
 10
26652.820997999988
 20
16973.730914
 30
0.0
 11
27252.820997999988
 21
16973.730914
 31
0.0
  0
LINE
  5
3D51
  8
SUNPOU
  6
CONTINUOUS
 62
     4
 10
26652.820997999988
 20
19891.730914
 30
0.0
 11
27252.820997999988
 21
19891.730914
 31
0.0
  0
LINE
  5
3D52
  8
SUNPOU
  6
CONTINUOUS
 62
     4
 10
27172.820997999988
 20
16973.730914
 30
0.0
 11
27172.820997999988
 21
19891.730914
 31
0.0
  0
LINE
  5
3D53
  8
SUNPOU
  6
CONTINUOUS
 62
     4
 10
26652.820997999988
 20
13705.230913999991
 30
0.0
 11
27252.820997999988
 21
13705.230913999991
 31
0.0
  0
LINE
  5
3D54
  8
SUNPOU
  6
CONTINUOUS
 62
     4
 10
26652.820997999988
 20
16973.730914
 30
0.0
 11
27252.820997999988
 21
16973.730914
 31
0.0
  0
LINE
  5
3D55
  8
SUNPOU
  6
CONTINUOUS
 62
     4
 10
27172.820997999988
 20
13705.230913999991
 30
0.0
 11
27172.820997999988
 21
16973.730914
 31
0.0
  0
LINE
  5
3D56
  8
SUNPOU
  6
CONTINUOUS
 62
     4
 10
25802.819677999989
 20
19934.228209000001
 30
0.0
 11
27652.820997999988
 21
19934.228209000001
 31
0.0
  0
LINE
  5
3D57
  8
SUNPOU
  6
CONTINUOUS
 62
     4
 10
25802.819677999989
 20
13662.733619000001
 30
0.0
 11
27652.820997999988
 21
13662.733619000001
 31
0.0
  0
LINE
  5
3D58
  8
SUNPOU
  6
CONTINUOUS
 62
     4
 10
27572.820997999988
 20
19934.228209000001
 30
0.0
 11
27572.820997999988
 21
13662.733619000001
 31
0.0
  0
LINE
  5
3D59
  8
SUNPOU
  6
CONTINUOUS
 62
     4
 10
26652.820997999988
 20
19891.730914
 30
0.0
 11
27252.820997999988
 21
19891.730914
 31
0.0
  0
LINE
  5
3D5A
  8
SUNPOU
  6
CONTINUOUS
 62
     4
 10
25802.819677999989
 20
19934.228209000001
 30
0.0
 11
27252.820997999988
 21
19934.228209000001
 31
0.0
  0
LINE
  5
3D5B
  8
SUNPOU
  6
CONTINUOUS
 62
     4
 10
27172.820997999988
 20
19891.730914
 30
0.0
 11
27172.820997999988
 21
19651.730914
 31
0.0
  0
LINE
  5
3D5C
  8
SUNPOU
  6
CONTINUOUS
 62
     4
 10
27172.820997999988
 20
19934.228209000001
 30
0.0
 11
27172.820997999988
 21
20174.228209000001
 31
0.0
  0
LINE
  5
3D5D
  8
SUNPOU
  6
CONTINUOUS
 62
     4
 10
27172.820997999988
 20
19891.730914
 30
0.0
 11
27172.820997999988
 21
19934.228209000001
 31
0.0
  0
LINE
  5
3D5E
  8
SUNPOU
  6
CONTINUOUS
 62
     4
 10
26652.820997999988
 20
13705.230913999991
 30
0.0
 11
27252.820997999988
 21
13705.230913999991
 31
0.0
  0
LINE
  5
3D5F
  8
SUNPOU
  6
CONTINUOUS
 62
     4
 10
25802.819677999989
 20
13662.733619000001
 30
0.0
 11
27252.820997999988
 21
13662.733619000001
 31
0.0
  0
LINE
  5
3D60
  8
SUNPOU
  6
CONTINUOUS
 62
     4
 10
27172.820997999988
 20
13705.230913999991
 30
0.0
 11
27172.820997999988
 21
13945.230913999991
 31
0.0
  0
LINE
  5
3D61
  8
SUNPOU
  6
CONTINUOUS
 62
     4
 10
27172.820997999988
 20
13662.733619000001
 30
0.0
 11
27172.820997999988
 21
13422.733619000001
 31
0.0
  0
LINE
  5
3D62
  8
SUNPOU
  6
CONTINUOUS
 62
     4
 10
27172.820997999988
 20
13705.230913999991
 30
0.0
 11
27172.820997999988
 21
13662.733619000001
 31
0.0
  0
LINE
  5
3D63
  8
SUNPOU
  6
CONTINUOUS
 62
     4
 10
24922.321393999991
 20
20014.229199000009
 30
0.0
 11
24922.321393999991
 21
20744.232102000031
 31
0.0
  0
LINE
  5
3D64
  8
SUNPOU
  6
CONTINUOUS
 62
     4
 10
25680.322383499992
 20
20014.229199000009
 30
0.0
 11
25680.322383499992
 21
20744.232102000031
 31
0.0
  0
LINE
  5
3D65
  8
SUNPOU
  6
CONTINUOUS
 62
     4
 10
24922.321393999991
 20
20664.232102000031
 30
0.0
 11
25680.322383499992
 21
20664.232102000031
 31
0.0
  0
LINE
  5
3D66
  8
SUNPOU
  6
CONTINUOUS
 62
     4
 10
24221.321393999991
 20
20014.229199000009
 30
0.0
 11
24221.321393999991
 21
20744.232102000031
 31
0.0
  0
LINE
  5
3D67
  8
SUNPOU
  6
CONTINUOUS
 62
     4
 10
24922.321393999991
 20
20014.229199000009
 30
0.0
 11
24922.321393999991
 21
20744.232102000031
 31
0.0
  0
LINE
  5
3D68
  8
SUNPOU
  6
CONTINUOUS
 62
     4
 10
24221.321393999991
 20
20664.232102000031
 30
0.0
 11
24922.321393999991
 21
20664.232102000031
 31
0.0
  0
LINE
  5
3D69
  8
SUNPOU
  6
CONTINUOUS
 62
     4
 10
23520.321393999991
 20
20014.229199000009
 30
0.0
 11
23520.321393999991
 21
20744.232102000031
 31
0.0
  0
LINE
  5
3D6A
  8
SUNPOU
  6
CONTINUOUS
 62
     4
 10
24221.321393999991
 20
20014.229199000009
 30
0.0
 11
24221.321393999991
 21
20744.232102000031
 31
0.0
  0
LINE
  5
3D6B
  8
SUNPOU
  6
CONTINUOUS
 62
     4
 10
23520.321393999991
 20
20664.232102000031
 30
0.0
 11
24221.321393999991
 21
20664.232102000031
 31
0.0
  0
LINE
  5
3D6C
  8
SUNPOU
  6
CONTINUOUS
 62
     4
 10
25680.321393999991
 20
20014.229199000009
 30
0.0
 11
25680.321393999991
 21
20744.232102000031
 31
0.0
  0
LINE
  5
3D6D
  8
SUNPOU
  6
CONTINUOUS
 62
     4
 10
25722.817698999988
 20
20014.229199000009
 30
0.0
 11
25722.817698999988
 21
20744.232102000031
 31
0.0
  0
LINE
  5
3D6E
  8
SUNPOU
  6
CONTINUOUS
 62
     4
 10
25680.321393999991
 20
20664.232102000031
 30
0.0
 11
25440.321393999991
 21
20664.232102000031
 31
0.0
  0
LINE
  5
3D6F
  8
SUNPOU
  6
CONTINUOUS
 62
     4
 10
25722.817698999988
 20
20664.232102000031
 30
0.0
 11
25962.817698999988
 21
20664.232102000031
 31
0.0
  0
LINE
  5
3D70
  8
SUNPOU
  6
CONTINUOUS
 62
     4
 10
25680.321393999991
 20
20664.232102000031
 30
0.0
 11
25722.817698999988
 21
20664.232102000031
 31
0.0
  0
LINE
  5
3D71
  8
SUNPOU
  6
CONTINUOUS
 62
     4
 10
19844.321393999991
 20
20014.229199000009
 30
0.0
 11
19844.321393999991
 21
20744.232102000031
 31
0.0
  0
LINE
  5
3D72
  8
SUNPOU
  6
CONTINUOUS
 62
     4
 10
19801.825088999991
 20
20014.229199000009
 30
0.0
 11
19801.825088999991
 21
20744.232102000031
 31
0.0
  0
LINE
  5
3D73
  8
SUNPOU
  6
CONTINUOUS
 62
     4
 10
19844.321393999991
 20
20664.232102000031
 30
0.0
 11
20084.321393999991
 21
20664.232102000031
 31
0.0
  0
LINE
  5
3D74
  8
SUNPOU
  6
CONTINUOUS
 62
     4
 10
19801.825088999991
 20
20664.232102000031
 30
0.0
 11
19561.825088999991
 21
20664.232102000031
 31
0.0
  0
LINE
  5
3D75
  8
SUNPOU
  6
CONTINUOUS
 62
     4
 10
19844.321393999991
 20
20664.232102000031
 30
0.0
 11
19801.825088999991
 21
20664.232102000031
 31
0.0
  0
LINE
  5
3D76
  8
SUNPOU
  6
CONTINUOUS
 62
     4
 10
22004.321393999991
 20
20014.229199000009
 30
0.0
 11
22004.321393999991
 21
20744.232102000031
 31
0.0
  0
LINE
  5
3D77
  8
SUNPOU
  6
CONTINUOUS
 62
     4
 10
22762.322383499992
 20
20014.229199000009
 30
0.0
 11
22762.322383499992
 21
20744.232102000031
 31
0.0
  0
LINE
  5
3D78
  8
SUNPOU
  6
CONTINUOUS
 62
     4
 10
22004.321393999991
 20
20664.232102000031
 30
0.0
 11
22762.322383499992
 21
20664.232102000031
 31
0.0
  0
LINE
  5
3D79
  8
SUNPOU
  6
CONTINUOUS
 62
     4
 10
21303.321393999991
 20
20014.229199000009
 30
0.0
 11
21303.321393999991
 21
20744.232102000031
 31
0.0
  0
LINE
  5
3D7A
  8
SUNPOU
  6
CONTINUOUS
 62
     4
 10
22004.321393999991
 20
20014.229199000009
 30
0.0
 11
22004.321393999991
 21
20744.232102000031
 31
0.0
  0
LINE
  5
3D7B
  8
SUNPOU
  6
CONTINUOUS
 62
     4
 10
21303.321393999991
 20
20664.232102000031
 30
0.0
 11
22004.321393999991
 21
20664.232102000031
 31
0.0
  0
LINE
  5
3D7C
  8
SUNPOU
  6
CONTINUOUS
 62
     4
 10
20602.321393999991
 20
20014.229199000009
 30
0.0
 11
20602.321393999991
 21
20744.232102000031
 31
0.0
  0
LINE
  5
3D7D
  8
SUNPOU
  6
CONTINUOUS
 62
     4
 10
21303.321393999991
 20
20014.229199000009
 30
0.0
 11
21303.321393999991
 21
20744.232102000031
 31
0.0
  0
LINE
  5
3D7E
  8
SUNPOU
  6
CONTINUOUS
 62
     4
 10
20602.321393999991
 20
20664.232102000031
 30
0.0
 11
21303.321393999991
 21
20664.232102000031
 31
0.0
  0
LINE
  5
3D7F
  8
SUNPOU
  6
CONTINUOUS
 62
     4
 10
19714.320735000001
 20
6276.5900849999962
 30
0.0
 11
18914.322053999989
 21
6276.5900849999962
 31
0.0
  0
LINE
  5
3D80
  8
SUNPOU
  6
CONTINUOUS
 62
     4
 10
19714.320735000001
 20
8168.0900849999953
 30
0.0
 11
18914.322053999989
 21
8168.0900849999953
 31
0.0
  0
LINE
  5
3D81
  8
SUNPOU
  6
CONTINUOUS
 62
     4
 10
18994.322053999989
 20
6276.5900849999962
 30
0.0
 11
18994.322053999989
 21
8168.0900849999953
 31
0.0
  0
LINE
  5
3D82
  8
SUNPOU
  6
CONTINUOUS
 62
     4
 10
19714.320735000001
 20
6276.5900849999962
 30
0.0
 11
18514.319744999979
 21
6276.5900849999962
 31
0.0
  0
LINE
  5
3D83
  8
SUNPOU
  6
CONTINUOUS
 62
     4
 10
19681.820998999981
 20
8624.5900850000016
 30
0.0
 11
18514.319744999979
 21
8624.5900850000016
 31
0.0
  0
LINE
  5
3D84
  8
SUNPOU
  6
CONTINUOUS
 62
     4
 10
18594.319744999979
 20
6276.5900849999962
 30
0.0
 11
18594.319744999979
 21
8624.5900850000016
 31
0.0
  0
LINE
  5
3D95
  8
SUNPOU
  6
CONTINUOUS
 62
     4
 10
19938.321393999991
 20
6096.5902499999984
 30
0.0
 11
19938.321393999991
 21
5296.5902499999984
 31
0.0
  0
LINE
  5
3D96
  8
SUNPOU
  6
CONTINUOUS
 62
     4
 10
22668.321393999991
 20
6096.5902499999984
 30
0.0
 11
22668.321393999991
 21
5296.5902499999984
 31
0.0
  0
LINE
  5
3D97
  8
SUNPOU
  6
CONTINUOUS
 62
     4
 10
19938.321393999991
 20
5376.5902499999984
 30
0.0
 11
22668.321393999991
 21
5376.5902499999984
 31
0.0
  0
LINE
  5
3D98
  8
SUNPOU
  6
CONTINUOUS
 62
     4
 10
22856.321393999991
 20
6096.5902499999984
 30
0.0
 11
22856.321393999991
 21
5296.5902499999984
 31
0.0
  0
LINE
  5
3D99
  8
SUNPOU
  6
CONTINUOUS
 62
     4
 10
25586.321393999991
 20
6096.5902499999984
 30
0.0
 11
25586.321393999991
 21
5296.5902499999984
 31
0.0
  0
LINE
  5
3D9A
  8
SUNPOU
  6
CONTINUOUS
 62
     4
 10
22856.321393999991
 20
5376.5902499999984
 30
0.0
 11
25586.321393999991
 21
5376.5902499999984
 31
0.0
  0
LINE
  5
3D9B
  8
SUNPOU
  6
CONTINUOUS
 62
     4
 10
22762.321393999991
 20
5833.9378269999979
 30
0.0
 11
22762.321393999991
 21
4896.5902499999993
 31
0.0
  0
LINE
  5
3D9C
  8
SUNPOU
  6
CONTINUOUS
 62
     4
 10
25680.321393999991
 20
5833.9378269999979
 30
0.0
 11
25680.321393999991
 21
4896.5902499999993
 31
0.0
  0
LINE
  5
3D9D
  8
SUNPOU
  6
CONTINUOUS
 62
     4
 10
22762.321393999991
 20
4976.5902500000002
 30
0.0
 11
25680.321393999991
 21
4976.5902500000002
 31
0.0
  0
LINE
  5
3D9E
  8
SUNPOU
  6
CONTINUOUS
 62
     4
 10
19844.321393999991
 20
5833.9378269999979
 30
0.0
 11
19844.321393999991
 21
4896.5902499999993
 31
0.0
  0
LINE
  5
3D9F
  8
SUNPOU
  6
CONTINUOUS
 62
     4
 10
22762.321393999991
 20
5833.9378269999979
 30
0.0
 11
22762.321393999991
 21
4896.5902499999993
 31
0.0
  0
LINE
  5
3DA0
  8
SUNPOU
  6
CONTINUOUS
 62
     4
 10
19844.321393999991
 20
4976.5902500000002
 30
0.0
 11
22762.321393999991
 21
4976.5902500000002
 31
0.0
  0
LINE
  5
3DA1
  8
SUNPOU
  6
CONTINUOUS
 62
     4
 10
25680.325352999989
 20
5833.9378269999979
 30
0.0
 11
25680.325352999989
 21
4896.5902499999993
 31
0.0
  0
LINE
  5
3DA2
  8
SUNPOU
  6
CONTINUOUS
 62
     4
 10
25722.825353
 20
6096.5902499999984
 30
0.0
 11
25722.825353
 21
4896.5902499999993
 31
0.0
  0
LINE
  5
3DA3
  8
SUNPOU
  6
CONTINUOUS
 62
     4
 10
25680.325352999989
 20
4976.5902500000002
 30
0.0
 11
25440.325352999989
 21
4976.5902500000002
 31
0.0
  0
LINE
  5
3DA4
  8
SUNPOU
  6
CONTINUOUS
 62
     4
 10
25722.825353
 20
4976.5902500000002
 30
0.0
 11
25962.825353
 21
4976.5902500000002
 31
0.0
  0
LINE
  5
3DA5
  8
SUNPOU
  6
CONTINUOUS
 62
     4
 10
25680.325352999989
 20
4976.5902500000002
 30
0.0
 11
25722.825353
 21
4976.5902500000002
 31
0.0
  0
LINE
  5
3DA6
  8
SUNPOU
  6
CONTINUOUS
 62
     4
 10
19844.321393999991
 20
5833.9378269999979
 30
0.0
 11
19844.321393999991
 21
4896.5902499999993
 31
0.0
  0
LINE
  5
3DA7
  8
SUNPOU
  6
CONTINUOUS
 62
     4
 10
19801.821393999991
 20
6096.5902499999984
 30
0.0
 11
19801.821393999991
 21
4896.5902499999993
 31
0.0
  0
LINE
  5
3DA8
  8
SUNPOU
  6
CONTINUOUS
 62
     4
 10
19844.321393999991
 20
4976.5902500000002
 30
0.0
 11
20084.321393999991
 21
4976.5902500000002
 31
0.0
  0
LINE
  5
3DA9
  8
SUNPOU
  6
CONTINUOUS
 62
     4
 10
19801.821393999991
 20
4976.5902500000002
 30
0.0
 11
19561.821393999991
 21
4976.5902500000002
 31
0.0
  0
LINE
  5
3DAA
  8
SUNPOU
  6
CONTINUOUS
 62
     4
 10
19844.321393999991
 20
4976.5902500000002
 30
0.0
 11
19801.821393999991
 21
4976.5902500000002
 31
0.0
  0
LINE
  5
3DAB
  8
SUNPOU
  6
CONTINUOUS
 62
     4
 10
19801.821393999991
 20
6096.5902499999984
 30
0.0
 11
19801.821393999991
 21
4496.5904149999969
 31
0.0
  0
LINE
  5
3DAC
  8
SUNPOU
  6
CONTINUOUS
 62
     4
 10
25722.821393999991
 20
6096.5902499999984
 30
0.0
 11
25722.821393999991
 21
4496.5904149999969
 31
0.0
  0
LINE
  5
3DAD
  8
SUNPOU
  6
CONTINUOUS
 62
     4
 10
19801.821393999991
 20
4576.5904149999969
 30
0.0
 11
25722.821393999991
 21
4576.5904149999969
 31
0.0
  0
LINE
  5
3DAE
  8
SUNPOU
  6
CONTINUOUS
 62
     4
 10
8882.5340609999967
 20
8513.5900850000016
 30
0.0
 11
8882.5340609999967
 21
9904.5901109999977
 31
0.0
  0
LINE
  5
3DAF
  8
SUNPOU
  6
CONTINUOUS
 62
     4
 10
15484.034061
 20
8645.4799084124334
 30
0.0
 11
15484.034061
 21
9904.5901109999977
 31
0.0
  0
LINE
  5
3DB0
  8
SUNPOU
  6
CONTINUOUS
 62
     4
 10
8882.5340609999967
 20
9824.5901109999995
 30
0.0
 11
15484.034061
 21
9824.5901109999995
 31
0.0
  0
LINE
  5
3DB1
  8
SUNPOU
  6
CONTINUOUS
 62
     4
 10
15334.034061
 20
8571.5001490000031
 30
0.0
 11
15334.034061
 21
9504.5917609999997
 31
0.0
  0
LINE
  5
3DB2
  8
SUNPOU
  6
CONTINUOUS
 62
     4
 10
15484.034061
 20
8645.4799084124334
 30
0.0
 11
15484.034061
 21
9504.5917609999997
 31
0.0
  0
LINE
  5
3DB3
  8
SUNPOU
  6
CONTINUOUS
 62
     4
 10
15334.034061
 20
9424.5917609999997
 30
0.0
 11
15094.034061
 21
9424.5917609999997
 31
0.0
  0
LINE
  5
3DB4
  8
SUNPOU
  6
CONTINUOUS
 62
     4
 10
15484.034061
 20
9424.5917609999997
 30
0.0
 11
15724.034061
 21
9424.5917609999997
 31
0.0
  0
LINE
  5
3DB5
  8
SUNPOU
  6
CONTINUOUS
 62
     4
 10
15334.034061
 20
9424.5917609999997
 30
0.0
 11
15484.034061
 21
9424.5917609999997
 31
0.0
  0
LINE
  5
3DB6
  8
SUNPOU
  6
CONTINUOUS
 62
     4
 10
9062.5340609999967
 20
8383.7758606838106
 30
0.0
 11
9062.5340609999967
 21
9504.5917609999997
 31
0.0
  0
LINE
  5
3DB7
  8
SUNPOU
  6
CONTINUOUS
 62
     4
 10
15334.034061
 20
8571.5001490000031
 30
0.0
 11
15334.034061
 21
9504.5917609999997
 31
0.0
  0
LINE
  5
3DB8
  8
SUNPOU
  6
CONTINUOUS
 62
     4
 10
9062.5340609999967
 20
9424.5917609999997
 30
0.0
 11
15334.034061
 21
9424.5917609999997
 31
0.0
  0
LINE
  5
3DB9
  8
SUNPOU
  6
CONTINUOUS
 62
     4
 10
8882.5340609999967
 20
8513.5900850000016
 30
0.0
 11
8882.5340609999967
 21
9504.5917609999997
 31
0.0
  0
LINE
  5
3DBA
  8
SUNPOU
  6
CONTINUOUS
 62
     4
 10
9062.5340609999967
 20
8383.7758606838106
 30
0.0
 11
9062.5340609999967
 21
9504.5917609999997
 31
0.0
  0
LINE
  5
3DBB
  8
SUNPOU
  6
CONTINUOUS
 62
     4
 10
8882.5340609999967
 20
9424.5917609999997
 30
0.0
 11
9062.5340609999967
 21
9424.5917609999997
 31
0.0
  0
LINE
  5
3DBC
  8
SUNPOU
  6
CONTINUOUS
 62
     4
 10
15426.534061
 20
6276.5900850000025
 30
0.0
 11
16504.034456999991
 21
6276.5900850000025
 31
0.0
  0
LINE
  5
3DBD
  8
SUNPOU
  6
CONTINUOUS
 62
     4
 10
15518.84132059936
 20
8624.5900850000016
 30
0.0
 11
16504.034457000002
 21
8624.5900850000016
 31
0.0
  0
LINE
  5
3DBE
  8
SUNPOU
  6
CONTINUOUS
 62
     4
 10
16424.034456999991
 20
6276.5900850000025
 30
0.0
 11
16424.034457000002
 21
8624.5900850000016
 31
0.0
  0
LINE
  5
3DBF
  8
SUNPOU
  6
CONTINUOUS
 62
     4
 10
8975.0340609999967
 20
6276.5900850000025
 30
0.0
 11
7892.5336650000027
 21
6276.5900850000025
 31
0.0
  0
LINE
  5
3DC0
  8
SUNPOU
  6
CONTINUOUS
 62
     4
 10
8802.5340609999967
 20
8433.5900850000016
 30
0.0
 11
7892.5336650000027
 21
8433.5900850000016
 31
0.0
  0
LINE
  5
3DC1
  8
SUNPOU
  6
CONTINUOUS
 62
     4
 10
7972.5336650000027
 20
6276.5900850000025
 30
0.0
 11
7972.5336650000027
 21
8433.5900850000016
 31
0.0
  0
LINE
  5
3DC2
  8
SUNPOU
  6
CONTINUOUS
 62
     4
 10
9062.5340609999967
 20
6196.5900850000025
 30
0.0
 11
9062.5340609999967
 21
4496.5904150000006
 31
0.0
  0
LINE
  5
3DC3
  8
SUNPOU
  6
CONTINUOUS
 62
     4
 10
15334.034061
 20
6196.5900850000025
 30
0.0
 11
15334.034061
 21
4496.5904150000006
 31
0.0
  0
LINE
  5
3DC4
  8
SUNPOU
  6
CONTINUOUS
 62
     4
 10
9062.5340609999967
 20
4576.5904150000006
 30
0.0
 11
15334.034061
 21
4576.5904150000006
 31
0.0
  0
LINE
  5
3DC5
  8
SUNPOU
  6
CONTINUOUS
 62
     4
 10
15291.534061
 20
5833.9378270000034
 30
0.0
 11
15291.534061
 21
4896.5902500000011
 31
0.0
  0
LINE
  5
3DC6
  8
SUNPOU
  6
CONTINUOUS
 62
     4
 10
15334.034061
 20
6196.5900850000025
 30
0.0
 11
15334.034061
 21
4896.5902500000011
 31
0.0
  0
LINE
  5
3DC7
  8
SUNPOU
  6
CONTINUOUS
 62
     4
 10
15291.534061
 20
4976.5902500000002
 30
0.0
 11
15051.53406099998
 21
4976.5902500000002
 31
0.0
  0
LINE
  5
3DC8
  8
SUNPOU
  6
CONTINUOUS
 62
     4
 10
15334.034061
 20
4976.5902500000002
 30
0.0
 11
15574.034061
 21
4976.5902500000002
 31
0.0
  0
LINE
  5
3DC9
  8
SUNPOU
  6
CONTINUOUS
 62
     4
 10
15291.534061
 20
4976.5902500000002
 30
0.0
 11
15334.034061
 21
4976.5902500000002
 31
0.0
  0
LINE
  5
3DCA
  8
SUNPOU
  6
CONTINUOUS
 62
     4
 10
9105.0340609999967
 20
5833.9378270000034
 30
0.0
 11
9105.0340609999967
 21
4896.5902500000011
 31
0.0
  0
LINE
  5
3DCB
  8
SUNPOU
  6
CONTINUOUS
 62
     4
 10
9062.5340609999967
 20
6196.5900850000025
 30
0.0
 11
9062.5340609999967
 21
4896.5902500000011
 31
0.0
  0
LINE
  5
3DCC
  8
SUNPOU
  6
CONTINUOUS
 62
     4
 10
9105.0340609999967
 20
4976.5902500000002
 30
0.0
 11
9345.0340609999985
 21
4976.5902500000002
 31
0.0
  0
LINE
  5
3DCD
  8
SUNPOU
  6
CONTINUOUS
 62
     4
 10
9062.5340609999967
 20
4976.5902500000002
 30
0.0
 11
8822.5340609999967
 21
4976.5902500000002
 31
0.0
  0
LINE
  5
3DCE
  8
SUNPOU
  6
CONTINUOUS
 62
     4
 10
9105.0340609999967
 20
4976.5902500000002
 30
0.0
 11
9062.5340609999967
 21
4976.5902500000002
 31
0.0
  0
LINE
  5
3DCF
  8
SUNPOU
  6
CONTINUOUS
 62
     4
 10
12023.034061
 20
5833.9378270000034
 30
0.0
 11
12023.034061
 21
4896.5902500000011
 31
0.0
  0
LINE
  5
3DD0
  8
SUNPOU
  6
CONTINUOUS
 62
     4
 10
9105.0340609999967
 20
5833.9378270000034
 30
0.0
 11
9105.0340609999967
 21
4896.5902500000011
 31
0.0
  0
LINE
  5
3DD1
  8
SUNPOU
  6
CONTINUOUS
 62
     4
 10
12023.034061
 20
4976.5902500000002
 30
0.0
 11
9105.0340609999967
 21
4976.5902500000002
 31
0.0
  0
LINE
  5
3DD2
  8
SUNPOU
  6
CONTINUOUS
 62
     4
 10
12023.034061
 20
5833.9378270000034
 30
0.0
 11
12023.034061
 21
4896.590250000002
 31
0.0
  0
LINE
  5
3DD3
  8
SUNPOU
  6
CONTINUOUS
 62
     4
 10
15291.534061
 20
5833.9378270000034
 30
0.0
 11
15291.534061
 21
4896.590250000002
 31
0.0
  0
LINE
  5
3DD4
  8
SUNPOU
  6
CONTINUOUS
 62
     4
 10
12023.034061
 20
4976.590250000002
 30
0.0
 11
15291.534061
 21
4976.590250000002
 31
0.0
  0
TEXT
  5
3DD5
  8
0
  6
CONTINUOUS
 62
     7
 10
13257.284061
 20
5056.590250000002
 30
0.0
 40
160.0
  1
3268.5
  0
TEXT
  5
3DD6
  8
0
  6
CONTINUOUS
 62
     7
 10
10297.367394333331
 20
5056.5902500000011
 30
0.0
 40
160.0
  1
2918
  0
TEXT
  5
3DD7
  8
0
  6
CONTINUOUS
 62
     7
 10
8465.3603519036915
 20
5056.5902500000011
 30
0.0
 40
160.0
  1
42.5
  0
TEXT
  5
3DD8
  8
0
  6
CONTINUOUS
 62
     7
 10
15472.35269830982
 20
5056.5902500000011
 30
0.0
 40
160.0
  1
42.5
  0
TEXT
  5
3DD9
  8
0
  6
CONTINUOUS
 62
     7
 10
11824.950727666661
 20
4656.5904150000006
 30
0.0
 40
160.0
  1
6271.5
  0
TEXT
  5
3DDA
  8
0
  6
CONTINUOUS
 62
     7
 10
7892.5336650000008
 20
6576.4234183333374
 30
0.0
 40
160.0
  1
2157（2397）
 50
90.0
  0
TEXT
  5
3DDB
  8
0
  6
CONTINUOUS
 62
     7
 10
16344.034456999991
 20
6645.2567516666686
 30
0.0
 40
160.0
  1
2348（2588）
 50
90.0
  0
TEXT
  5
3DDC
  8
0
  6
CONTINUOUS
 62
     7
 10
8469.2007276666645
 20
9504.5917609999997
 30
0.0
 40
160.0
  1
180
  0
TEXT
  5
3DDD
  8
0
  6
CONTINUOUS
 62
     7
 10
11824.950727666661
 20
9504.5917609999997
 30
0.0
 40
160.0
  1
6271.5
  0
TEXT
  5
3DDE
  8
0
  6
CONTINUOUS
 62
     7
 10
15550.700727666661
 20
9504.5917609999997
 30
0.0
 40
160.0
  1
150
  0
TEXT
  5
3DDF
  8
0
  6
CONTINUOUS
 62
     7
 10
11823.284061
 20
9904.5901109999977
 30
0.0
 40
160.0
  1
6601.5
  0
TEXT
  5
3DE0
  8
0
  6
CONTINUOUS
 62
     7
 10
22495.65472733332
 20
4656.5904149999969
 30
0.0
 40
160.0
  1
5921
  0
TEXT
  5
3DE1
  8
0
  6
CONTINUOUS
 62
     7
 10
19235.782403741141
 20
5056.5902499999993
 30
0.0
 40
160.0
  1
42.5
  0
TEXT
  5
3DE2
  8
0
  6
CONTINUOUS
 62
     7
 10
25808.864343258851
 20
5056.5902499999993
 30
0.0
 40
160.0
  1
42.5
  0
TEXT
  5
3DE3
  8
0
  6
CONTINUOUS
 62
     7
 10
21036.654727333309
 20
5056.5902499999993
 30
0.0
 40
160.0
  1
2918
  0
TEXT
  5
3DE4
  8
0
  6
CONTINUOUS
 62
     7
 10
23954.654727333331
 20
5056.5902499999993
 30
0.0
 40
160.0
  1
2918
  0
TEXT
  5
3DE5
  8
0
  6
CONTINUOUS
 62
     7
 10
23413.321393999991
 20
5456.5902499999984
 30
0.0
 40
160.0
  1
有効開口巾 2730
  0
TEXT
  5
3DE6
  8
0
  6
CONTINUOUS
 62
     7
 10
20495.321393999991
 20
5456.5902499999984
 30
0.0
 40
160.0
  1
有効開口巾 2730
  0
TEXT
  5
3DEB
  8
0
  6
CONTINUOUS
 62
     7
 10
18514.319744999979
 20
6645.2567516666686
 30
0.0
 40
160.0
  1
2348（2588）
 50
90.0
  0
TEXT
  5
3DEC
  8
0
  6
CONTINUOUS
 62
     7
 10
18914.322053999989
 20
6340.5693232912718
 30
0.0
 40
160.0
  1
有効開口高サ 1891.5
 50
90.0
  0
TEXT
  5
3DED
  8
0
  6
CONTINUOUS
 62
     7
 10
20779.488060666648
 20
20744.232102000031
 30
0.0
 40
160.0
  1
701
  0
TEXT
  5
3DEE
  8
0
  6
CONTINUOUS
 62
     7
 10
21480.488060666648
 20
20744.232102000031
 30
0.0
 40
160.0
  1
701
  0
TEXT
  5
3DEF
  8
0
  6
CONTINUOUS
 62
     7
 10
22169.988555416669
 20
20744.232102000031
 30
0.0
 40
160.0
  1
758
  0
TEXT
  5
3DF0
  8
0
  6
CONTINUOUS
 62
     7
 10
19241.509414471191
 20
20744.232102000031
 30
0.0
 40
160.0
  1
42.5
  0
TEXT
  5
3DF1
  8
0
  6
CONTINUOUS
 62
     7
 10
25803.133373528799
 20
20744.232102000031
 30
0.0
 40
160.0
  1
42.5
  0
TEXT
  5
3DF2
  8
0
  6
CONTINUOUS
 62
     7
 10
23697.488060666648
 20
20744.232102000031
 30
0.0
 40
160.0
  1
701
  0
TEXT
  5
3DF3
  8
0
  6
CONTINUOUS
 62
     7
 10
24398.488060666648
 20
20744.232102000031
 30
0.0
 40
160.0
  1
701
  0
TEXT
  5
3DF4
  8
0
  6
CONTINUOUS
 62
     7
 10
25087.988555416661
 20
20744.232102000031
 30
0.0
 40
160.0
  1
758
  0
TEXT
  5
3DF5
  8
0
  6
CONTINUOUS
 62
     7
 10
27092.820997999988
 20
13089.1773826032
 30
0.0
 40
160.0
  1
42.5
 50
90.0
  0
TEXT
  5
3DF6
  8
0
  6
CONTINUOUS
 62
     7
 10
27092.820997999988
 20
20027.784445396788
 30
0.0
 40
160.0
  1
42.5
 50
90.0
  0
TEXT
  5
3DF7
  8
0
  6
CONTINUOUS
 62
     7
 10
27492.820997999981
 20
16425.147580666671
 30
0.0
 40
160.0
  1
6271.5
 50
90.0
  0
TEXT
  5
3DF8
  8
0
  6
CONTINUOUS
 62
     7
 10
27092.820997999981
 20
14939.480913999991
 30
0.0
 40
160.0
  1
3268.5
 50
90.0
  0
TEXT
  5
3DF9
  8
0
  6
CONTINUOUS
 62
     7
 10
27092.820997999981
 20
18166.064247333321
 30
0.0
 40
160.0
  1
2918
 50
90.0
  0
TEXT
  5
3DFA
  8
0
  6
CONTINUOUS
 62
     7
 10
26692.820997999981
 20
19299.397580666671
 30
0.0
 40
160.0
  1
758
 50
90.0
  0
TEXT
  5
3DFB
  8
0
  6
CONTINUOUS
 62
     7
 10
26692.820997999981
 20
18609.897580666671
 30
0.0
 40
160.0
  1
701
 50
90.0
  0
TEXT
  5
3DFC
  8
0
  6
CONTINUOUS
 62
     7
 10
26692.820997999981
 20
17908.897580666671
 30
0.0
 40
160.0
  1
701
 50
90.0
  0
TEXT
  5
3DFD
  8
0
  6
CONTINUOUS
 62
     7
 10
26692.820997999981
 20
17139.397580666671
 30
0.0
 40
160.0
  1
758
 50
90.0
  0
TEXT
  5
3DFE
  8
0
  6
CONTINUOUS
 62
     7
 10
26692.820997999981
 20
16381.39758066666
 30
0.0
 40
160.0
  1
758
 50
90.0
  0
TEXT
  5
3DFF
  8
0
  6
CONTINUOUS
 62
     7
 10
26692.820997999981
 20
15692.01783641668
 30
0.0
 40
160.0
  1
701
 50
90.0
  0
TEXT
  5
3E00
  8
0
  6
CONTINUOUS
 62
     7
 10
26692.820997999981
 20
14991.01783641668
 30
0.0
 40
160.0
  1
701
 50
90.0
  0
TEXT
  5
3E01
  8
0
  6
CONTINUOUS
 62
     7
 10
26692.820997999981
 20
14289.89758066666
 30
0.0
 40
160.0
  1
701
 50
90.0
  0
TEXT
  5
3E02
  8
0
  6
CONTINUOUS
 62
     7
 10
27052.820997999999
 20
13778.051328203541
 30
0.0
 40
160.0
  1
407.5
 50
90.0
  0
TEXT
  5
3E03
  8
0
  6
CONTINUOUS
 62
     7
 10
22495.654727333331
 20
12413.782829999989
 30
0.0
 40
160.0
  1
5921
  0
TEXT
  5
3E04
  8
0
  6
CONTINUOUS
 62
     7
 10
19962.375066382079
 20
12813.78283
 30
0.0
 40
160.0
  1
42.5
  0
TEXT
  5
3E05
  8
0
  6
CONTINUOUS
 62
     7
 10
25082.2677216179
 20
12813.78283
 30
0.0
 40
160.0
  1
42.5
  0
TEXT
  5
3E06
  8
0
  6
CONTINUOUS
 62
     7
 10
25798.375066382079
 20
12813.78283
 30
0.0
 40
160.0
  1
42.5
  0
TEXT
  5
3E07
  8
0
  6
CONTINUOUS
 62
     7
 10
19246.2677216179
 20
12813.78283
 30
0.0
 40
160.0
  1
42.5
  0
TEXT
  5
3E08
  8
0
  6
CONTINUOUS
 62
     7
 10
20009.988060666648
 20
20744.232102000031
 30
0.0
 40
160.0
  1
758
  0
TEXT
  5
3E09
  8
0
  6
CONTINUOUS
 62
     7
 10
22927.988555416669
 20
20744.232102000031
 30
0.0
 40
160.0
  1
758
  0
TEXT
  5
3E0A
  8
0
  6
CONTINUOUS
 62
     7
 10
7122.8589989999991
 20
18166.064247333321
 30
0.0
 40
160.0
  1
2918
 50
90.0
  0
TEXT
  5
3E0B
  8
0
  6
CONTINUOUS
 62
     7
 10
7122.8589989999991
 20
20203.186098807681
 30
0.0
 40
160.0
  1
222.5
 50
90.0
  0
TEXT
  5
3E0C
  8
0
  6
CONTINUOUS
 62
     7
 10
7522.8589989999973
 20
20260.89348966668
 30
0.0
 40
160.0
  1
10
 50
90.0
  0
TEXT
  5
3E0D
  8
0
  6
CONTINUOUS
 62
     7
 10
7122.8589989999982
 20
12897.27790370263
 30
0.0
 40
160.0
  1
192.5
 50
90.0
  0
TEXT
  5
3E0E
  8
0
  6
CONTINUOUS
 62
     7
 10
7122.8589989999991
 20
14939.480913999991
 30
0.0
 40
160.0
  1
3268.5
 50
90.0
  0
TEXT
  5
3E0F
  8
0
  6
CONTINUOUS
 62
     7
 10
12242.68524258332
 20
20744.230123000001
 30
0.0
 40
160.0
  1
2918
  0
TEXT
  5
3E10
  8
0
  6
CONTINUOUS
 62
     7
 10
14104.84638852324
 20
20744.230123000001
 30
0.0
 40
160.0
  1
85.5
  0
TEXT
  5
3E11
  8
0
  6
CONTINUOUS
 62
     7
 10
9324.6896960833565
 20
20744.230123000001
 30
0.0
 40
160.0
  1
2918
  0
TEXT
  5
3E12
  8
0
  6
CONTINUOUS
 62
     7
 10
7515.8618834767703
 20
20744.230123000001
 30
0.0
 40
160.0
  1
85.5
  0
ARC
  5
3E18
  8
0
  6
BYBLOCK
 62
     0
 10
8132.3585895000342
 20
20664.230123000001
 30
0.0
 40
15.0
 50
0.0
 51
180.0
  0
ARC
  5
3E19
  8
0
  6
BYBLOCK
 62
     0
 10
8132.3585895000342
 20
20664.230123000001
 30
0.0
 40
15.0
 50
180.0
 51
0.0
  0
ARC
  5
3E1A
  8
0
  6
BYBLOCK
 62
     0
 10
8046.8585895000342
 20
20664.230123000001
 30
0.0
 40
15.0
 50
180.0
 51
0.0
  0
ARC
  5
3E1B
  8
0
  6
BYBLOCK
 62
     0
 10
8046.8585895000342
 20
20664.230123000001
 30
0.0
 40
15.0
 50
0.0
 51
180.0
  0
ARC
  5
3E1C
  8
0
  6
BYBLOCK
 62
     0
 10
11050.354136000011
 20
20664.230123000001
 30
0.0
 40
15.0
 50
180.0
 51
0.0
  0
ARC
  5
3E1D
  8
0
  6
BYBLOCK
 62
     0
 10
11050.354136000011
 20
20664.230123000001
 30
0.0
 40
15.0
 50
0.0
 51
180.0
  0
ARC
  5
3E1E
  8
0
  6
BYBLOCK
 62
     0
 10
8132.3585895000342
 20
20664.230123000001
 30
0.0
 40
15.0
 50
0.0
 51
180.0
  0
ARC
  5
3E1F
  8
0
  6
BYBLOCK
 62
     0
 10
8132.3585895000342
 20
20664.230123000001
 30
0.0
 40
15.0
 50
180.0
 51
0.0
  0
ARC
  5
3E20
  8
0
  6
BYBLOCK
 62
     0
 10
13968.34968249998
 20
20664.230123000001
 30
0.0
 40
15.0
 50
180.0
 51
0.0
  0
ARC
  5
3E21
  8
0
  6
BYBLOCK
 62
     0
 10
13968.34968249998
 20
20664.230123000001
 30
0.0
 40
15.0
 50
0.0
 51
180.0
  0
ARC
  5
3E22
  8
0
  6
BYBLOCK
 62
     0
 10
14053.84968249998
 20
20664.230123000001
 30
0.0
 40
15.0
 50
0.0
 51
180.0
  0
ARC
  5
3E23
  8
0
  6
BYBLOCK
 62
     0
 10
14053.84968249998
 20
20664.230123000001
 30
0.0
 40
15.0
 50
180.0
 51
0.0
  0
ARC
  5
3E24
  8
0
  6
BYBLOCK
 62
     0
 10
11050.354136000011
 20
20664.230123000001
 30
0.0
 40
15.0
 50
0.0
 51
180.0
  0
ARC
  5
3E25
  8
0
  6
BYBLOCK
 62
     0
 10
11050.354136000011
 20
20664.230123000001
 30
0.0
 40
15.0
 50
180.0
 51
0.0
  0
ARC
  5
3E26
  8
0
  6
BYBLOCK
 62
     0
 10
13968.34968249998
 20
20664.230123000001
 30
0.0
 40
15.0
 50
180.0
 51
0.0
  0
ARC
  5
3E27
  8
0
  6
BYBLOCK
 62
     0
 10
13968.34968249998
 20
20664.230123000001
 30
0.0
 40
15.0
 50
0.0
 51
180.0
  0
ARC
  5
3E28
  8
0
  6
BYBLOCK
 62
     0
 10
7202.8589990000009
 20
16973.730914
 30
0.0
 40
15.0
 50
270.0
 51
90.0
  0
ARC
  5
3E29
  8
0
  6
BYBLOCK
 62
     0
 10
7202.8589990000009
 20
16973.730914
 30
0.0
 40
15.0
 50
90.0
 51
270.0
  0
ARC
  5
3E2A
  8
0
  6
BYBLOCK
 62
     0
 10
7202.8589989999991
 20
13705.230913999991
 30
0.0
 40
15.0
 50
90.0
 51
270.0
  0
ARC
  5
3E2B
  8
0
  6
BYBLOCK
 62
     0
 10
7202.8589989999991
 20
13705.230913999991
 30
0.0
 40
15.0
 50
270.0
 51
90.0
  0
ARC
  5
3E2C
  8
0
  6
BYBLOCK
 62
     0
 10
7202.8589989999991
 20
13705.230913999991
 30
0.0
 40
15.0
 50
270.0
 51
90.0
  0
ARC
  5
3E2D
  8
0
  6
BYBLOCK
 62
     0
 10
7202.8589989999991
 20
13705.230913999991
 30
0.0
 40
15.0
 50
90.0
 51
270.0
  0
ARC
  5
3E2E
  8
0
  6
BYBLOCK
 62
     0
 10
7202.8589989999991
 20
13512.735599
 30
0.0
 40
15.0
 50
90.0
 51
270.0
  0
ARC
  5
3E2F
  8
0
  6
BYBLOCK
 62
     0
 10
7202.8589989999991
 20
13512.735599
 30
0.0
 40
15.0
 50
270.0
 51
90.0
  0
ARC
  5
3E30
  8
0
  6
BYBLOCK
 62
     0
 10
7602.8589989999973
 20
20104.226823000012
 30
0.0
 40
15.0
 50
270.0
 51
90.0
  0
ARC
  5
3E31
  8
0
  6
BYBLOCK
 62
     0
 10
7602.8589989999973
 20
20104.226823000012
 30
0.0
 40
15.0
 50
90.0
 51
270.0
  0
ARC
  5
3E32
  8
0
  6
BYBLOCK
 62
     0
 10
7602.8589989999973
 20
20114.226823000001
 30
0.0
 40
15.0
 50
90.0
 51
270.0
  0
ARC
  5
3E33
  8
0
  6
BYBLOCK
 62
     0
 10
7602.8589989999973
 20
20114.226823000001
 30
0.0
 40
15.0
 50
270.0
 51
90.0
  0
ARC
  5
3E34
  8
0
  6
BYBLOCK
 62
     0
 10
7202.8589990000009
 20
19891.730914
 30
0.0
 40
15.0
 50
90.0
 51
270.0
  0
ARC
  5
3E35
  8
0
  6
BYBLOCK
 62
     0
 10
7202.8589990000009
 20
19891.730914
 30
0.0
 40
15.0
 50
270.0
 51
90.0
  0
ARC
  5
3E36
  8
0
  6
BYBLOCK
 62
     0
 10
7202.8589990000009
 20
20114.226823000001
 30
0.0
 40
15.0
 50
270.0
 51
90.0
  0
ARC
  5
3E37
  8
0
  6
BYBLOCK
 62
     0
 10
7202.8589990000009
 20
20114.226823000001
 30
0.0
 40
15.0
 50
90.0
 51
270.0
  0
ARC
  5
3E38
  8
0
  6
BYBLOCK
 62
     0
 10
7202.8589990000009
 20
16973.730914
 30
0.0
 40
15.0
 50
90.0
 51
270.0
  0
ARC
  5
3E39
  8
0
  6
BYBLOCK
 62
     0
 10
7202.8589990000009
 20
16973.730914
 30
0.0
 40
15.0
 50
270.0
 51
90.0
  0
ARC
  5
3E3A
  8
0
  6
BYBLOCK
 62
     0
 10
7202.8589990000009
 20
19891.730914
 30
0.0
 40
15.0
 50
270.0
 51
90.0
  0
ARC
  5
3E3B
  8
0
  6
BYBLOCK
 62
     0
 10
7202.8589990000009
 20
19891.730914
 30
0.0
 40
15.0
 50
90.0
 51
270.0
  0
ARC
  5
3E3C
  8
0
  6
BYBLOCK
 62
     0
 10
22762.322383499992
 20
20664.232102000031
 30
0.0
 40
15.0
 50
0.0
 51
180.0
  0
ARC
  5
3E3D
  8
0
  6
BYBLOCK
 62
     0
 10
22762.322383499992
 20
20664.232102000031
 30
0.0
 40
15.0
 50
180.0
 51
0.0
  0
ARC
  5
3E3E
  8
0
  6
BYBLOCK
 62
     0
 10
23520.321393999991
 20
20664.232102000031
 30
0.0
 40
15.0
 50
180.0
 51
0.0
  0
ARC
  5
3E3F
  8
0
  6
BYBLOCK
 62
     0
 10
23520.321393999991
 20
20664.232102000031
 30
0.0
 40
15.0
 50
0.0
 51
180.0
  0
ARC
  5
3E40
  8
0
  6
BYBLOCK
 62
     0
 10
19844.321393999991
 20
20664.232102000031
 30
0.0
 40
15.0
 50
0.0
 51
180.0
  0
ARC
  5
3E41
  8
0
  6
BYBLOCK
 62
     0
 10
19844.321393999991
 20
20664.232102000031
 30
0.0
 40
15.0
 50
180.0
 51
0.0
  0
ARC
  5
3E42
  8
0
  6
BYBLOCK
 62
     0
 10
20602.321393999991
 20
20664.232102000031
 30
0.0
 40
15.0
 50
180.0
 51
0.0
  0
ARC
  5
3E43
  8
0
  6
BYBLOCK
 62
     0
 10
20602.321393999991
 20
20664.232102000031
 30
0.0
 40
15.0
 50
0.0
 51
180.0
  0
ARC
  5
3E44
  8
0
  6
BYBLOCK
 62
     0
 10
19844.321393999991
 20
12733.782829999989
 30
0.0
 40
15.0
 50
0.0
 51
180.0
  0
ARC
  5
3E45
  8
0
  6
BYBLOCK
 62
     0
 10
19844.321393999991
 20
12733.782829999989
 30
0.0
 40
15.0
 50
180.0
 51
0.0
  0
ARC
  5
3E46
  8
0
  6
BYBLOCK
 62
     0
 10
19801.819151
 20
12733.782829999989
 30
0.0
 40
15.0
 50
180.0
 51
0.0
  0
ARC
  5
3E47
  8
0
  6
BYBLOCK
 62
     0
 10
19801.819151
 20
12733.782829999989
 30
0.0
 40
15.0
 50
0.0
 51
180.0
  0
ARC
  5
3E48
  8
0
  6
BYBLOCK
 62
     0
 10
25680.321393999991
 20
12733.782829999989
 30
0.0
 40
15.0
 50
180.0
 51
0.0
  0
ARC
  5
3E49
  8
0
  6
BYBLOCK
 62
     0
 10
25680.321393999991
 20
12733.782829999989
 30
0.0
 40
15.0
 50
0.0
 51
180.0
  0
ARC
  5
3E4A
  8
0
  6
BYBLOCK
 62
     0
 10
25722.823636999979
 20
12733.782829999989
 30
0.0
 40
15.0
 50
0.0
 51
180.0
  0
ARC
  5
3E4B
  8
0
  6
BYBLOCK
 62
     0
 10
25722.823636999979
 20
12733.782829999989
 30
0.0
 40
15.0
 50
180.0
 51
0.0
  0
ARC
  5
3E4C
  8
0
  6
BYBLOCK
 62
     0
 10
25680.321393999991
 20
12733.782829999989
 30
0.0
 40
15.0
 50
0.0
 51
180.0
  0
ARC
  5
3E4D
  8
0
  6
BYBLOCK
 62
     0
 10
25680.321393999991
 20
12733.782829999989
 30
0.0
 40
15.0
 50
180.0
 51
0.0
  0
ARC
  5
3E4E
  8
0
  6
BYBLOCK
 62
     0
 10
25637.819150999982
 20
12733.782829999989
 30
0.0
 40
15.0
 50
180.0
 51
0.0
  0
ARC
  5
3E4F
  8
0
  6
BYBLOCK
 62
     0
 10
25637.819150999982
 20
12733.782829999989
 30
0.0
 40
15.0
 50
0.0
 51
180.0
  0
ARC
  5
3E50
  8
0
  6
BYBLOCK
 62
     0
 10
19844.321393999991
 20
12733.782829999989
 30
0.0
 40
15.0
 50
180.0
 51
0.0
  0
ARC
  5
3E51
  8
0
  6
BYBLOCK
 62
     0
 10
19844.321393999991
 20
12733.782829999989
 30
0.0
 40
15.0
 50
0.0
 51
180.0
  0
ARC
  5
3E52
  8
0
  6
BYBLOCK
 62
     0
 10
19886.82363699999
 20
12733.782829999989
 30
0.0
 40
15.0
 50
0.0
 51
180.0
  0
ARC
  5
3E53
  8
0
  6
BYBLOCK
 62
     0
 10
19886.82363699999
 20
12733.782829999989
 30
0.0
 40
15.0
 50
180.0
 51
0.0
  0
ARC
  5
3E54
  8
0
  6
BYBLOCK
 62
     0
 10
19801.819151
 20
12333.782829999989
 30
0.0
 40
15.0
 50
0.0
 51
180.0
  0
ARC
  5
3E55
  8
0
  6
BYBLOCK
 62
     0
 10
19801.819151
 20
12333.782829999989
 30
0.0
 40
15.0
 50
180.0
 51
0.0
  0
ARC
  5
3E56
  8
0
  6
BYBLOCK
 62
     0
 10
25722.823636999979
 20
12333.782829999989
 30
0.0
 40
15.0
 50
180.0
 51
0.0
  0
ARC
  5
3E57
  8
0
  6
BYBLOCK
 62
     0
 10
25722.823636999979
 20
12333.782829999989
 30
0.0
 40
15.0
 50
0.0
 51
180.0
  0
ARC
  5
3E58
  8
0
  6
BYBLOCK
 62
     0
 10
26772.820997999988
 20
14112.730913999991
 30
0.0
 40
15.0
 50
270.0
 51
90.0
  0
ARC
  5
3E59
  8
0
  6
BYBLOCK
 62
     0
 10
26772.820997999988
 20
14112.730913999991
 30
0.0
 40
15.0
 50
90.0
 51
270.0
  0
ARC
  5
3E5A
  8
0
  6
BYBLOCK
 62
     0
 10
26772.820997999988
 20
13705.230913999991
 30
0.0
 40
15.0
 50
90.0
 51
270.0
  0
ARC
  5
3E5B
  8
0
  6
BYBLOCK
 62
     0
 10
26772.820997999988
 20
13705.230913999991
 30
0.0
 40
15.0
 50
270.0
 51
90.0
  0
ARC
  5
3E5C
  8
0
  6
BYBLOCK
 62
     0
 10
26772.820997999988
 20
14813.730913999991
 30
0.0
 40
15.0
 50
270.0
 51
90.0
  0
ARC
  5
3E5D
  8
0
  6
BYBLOCK
 62
     0
 10
26772.820997999988
 20
14813.730913999991
 30
0.0
 40
15.0
 50
90.0
 51
270.0
  0
ARC
  5
3E5E
  8
0
  6
BYBLOCK
 62
     0
 10
26772.820997999988
 20
14112.730913999991
 30
0.0
 40
15.0
 50
90.0
 51
270.0
  0
ARC
  5
3E5F
  8
0
  6
BYBLOCK
 62
     0
 10
26772.820997999988
 20
14112.730913999991
 30
0.0
 40
15.0
 50
270.0
 51
90.0
  0
ARC
  5
3E60
  8
0
  6
BYBLOCK
 62
     0
 10
26772.820997999988
 20
15514.971425500011
 30
0.0
 40
15.0
 50
270.0
 51
90.0
  0
ARC
  5
3E61
  8
0
  6
BYBLOCK
 62
     0
 10
26772.820997999988
 20
15514.971425500011
 30
0.0
 40
15.0
 50
90.0
 51
270.0
  0
ARC
  5
3E62
  8
0
  6
BYBLOCK
 62
     0
 10
26772.820997999988
 20
14813.730913999991
 30
0.0
 40
15.0
 50
90.0
 51
270.0
  0
ARC
  5
3E63
  8
0
  6
BYBLOCK
 62
     0
 10
26772.820997999988
 20
14813.730913999991
 30
0.0
 40
15.0
 50
270.0
 51
90.0
  0
ARC
  5
3E64
  8
0
  6
BYBLOCK
 62
     0
 10
26772.820997999988
 20
16215.730913999991
 30
0.0
 40
15.0
 50
270.0
 51
90.0
  0
ARC
  5
3E65
  8
0
  6
BYBLOCK
 62
     0
 10
26772.820997999988
 20
16215.730913999991
 30
0.0
 40
15.0
 50
90.0
 51
270.0
  0
ARC
  5
3E66
  8
0
  6
BYBLOCK
 62
     0
 10
26772.820997999988
 20
15514.971425500011
 30
0.0
 40
15.0
 50
90.0
 51
270.0
  0
ARC
  5
3E67
  8
0
  6
BYBLOCK
 62
     0
 10
26772.820997999988
 20
15514.971425500011
 30
0.0
 40
15.0
 50
270.0
 51
90.0
  0
ARC
  5
3E68
  8
0
  6
BYBLOCK
 62
     0
 10
26772.820997999988
 20
16973.730914
 30
0.0
 40
15.0
 50
270.0
 51
90.0
  0
ARC
  5
3E69
  8
0
  6
BYBLOCK
 62
     0
 10
26772.820997999988
 20
16973.730914
 30
0.0
 40
15.0
 50
90.0
 51
270.0
  0
ARC
  5
3E6A
  8
0
  6
BYBLOCK
 62
     0
 10
26772.820997999988
 20
16215.730913999991
 30
0.0
 40
15.0
 50
90.0
 51
270.0
  0
ARC
  5
3E6B
  8
0
  6
BYBLOCK
 62
     0
 10
26772.820997999988
 20
16215.730913999991
 30
0.0
 40
15.0
 50
270.0
 51
90.0
  0
ARC
  5
3E6C
  8
0
  6
BYBLOCK
 62
     0
 10
26772.820997999988
 20
17731.730914
 30
0.0
 40
15.0
 50
270.0
 51
90.0
  0
ARC
  5
3E6D
  8
0
  6
BYBLOCK
 62
     0
 10
26772.820997999988
 20
17731.730914
 30
0.0
 40
15.0
 50
90.0
 51
270.0
  0
ARC
  5
3E6E
  8
0
  6
BYBLOCK
 62
     0
 10
26772.820997999988
 20
16973.730914
 30
0.0
 40
15.0
 50
90.0
 51
270.0
  0
ARC
  5
3E6F
  8
0
  6
BYBLOCK
 62
     0
 10
26772.820997999988
 20
16973.730914
 30
0.0
 40
15.0
 50
270.0
 51
90.0
  0
ARC
  5
3E70
  8
0
  6
BYBLOCK
 62
     0
 10
26772.820997999988
 20
18432.730914
 30
0.0
 40
15.0
 50
270.0
 51
90.0
  0
ARC
  5
3E71
  8
0
  6
BYBLOCK
 62
     0
 10
26772.820997999988
 20
18432.730914
 30
0.0
 40
15.0
 50
90.0
 51
270.0
  0
ARC
  5
3E72
  8
0
  6
BYBLOCK
 62
     0
 10
26772.820997999988
 20
17731.730914
 30
0.0
 40
15.0
 50
90.0
 51
270.0
  0
ARC
  5
3E73
  8
0
  6
BYBLOCK
 62
     0
 10
26772.820997999988
 20
17731.730914
 30
0.0
 40
15.0
 50
270.0
 51
90.0
  0
ARC
  5
3E74
  8
0
  6
BYBLOCK
 62
     0
 10
26772.820997999988
 20
19133.730914
 30
0.0
 40
15.0
 50
270.0
 51
90.0
  0
ARC
  5
3E75
  8
0
  6
BYBLOCK
 62
     0
 10
26772.820997999988
 20
19133.730914
 30
0.0
 40
15.0
 50
90.0
 51
270.0
  0
ARC
  5
3E76
  8
0
  6
BYBLOCK
 62
     0
 10
26772.820997999988
 20
18432.730914
 30
0.0
 40
15.0
 50
90.0
 51
270.0
  0
ARC
  5
3E77
  8
0
  6
BYBLOCK
 62
     0
 10
26772.820997999988
 20
18432.730914
 30
0.0
 40
15.0
 50
270.0
 51
90.0
  0
ARC
  5
3E78
  8
0
  6
BYBLOCK
 62
     0
 10
26772.820997999988
 20
19891.730914
 30
0.0
 40
15.0
 50
270.0
 51
90.0
  0
ARC
  5
3E79
  8
0
  6
BYBLOCK
 62
     0
 10
26772.820997999988
 20
19891.730914
 30
0.0
 40
15.0
 50
90.0
 51
270.0
  0
ARC
  5
3E7A
  8
0
  6
BYBLOCK
 62
     0
 10
26772.820997999988
 20
19133.730914
 30
0.0
 40
15.0
 50
90.0
 51
270.0
  0
ARC
  5
3E7B
  8
0
  6
BYBLOCK
 62
     0
 10
26772.820997999988
 20
19133.730914
 30
0.0
 40
15.0
 50
270.0
 51
90.0
  0
ARC
  5
3E7C
  8
0
  6
BYBLOCK
 62
     0
 10
27172.820997999988
 20
16973.730914
 30
0.0
 40
15.0
 50
90.0
 51
270.0
  0
ARC
  5
3E7D
  8
0
  6
BYBLOCK
 62
     0
 10
27172.820997999988
 20
16973.730914
 30
0.0
 40
15.0
 50
270.0
 51
90.0
  0
ARC
  5
3E7E
  8
0
  6
BYBLOCK
 62
     0
 10
27172.820997999988
 20
19891.730914
 30
0.0
 40
15.0
 50
270.0
 51
90.0
  0
ARC
  5
3E7F
  8
0
  6
BYBLOCK
 62
     0
 10
27172.820997999988
 20
19891.730914
 30
0.0
 40
15.0
 50
90.0
 51
270.0
  0
ARC
  5
3E80
  8
0
  6
BYBLOCK
 62
     0
 10
27172.820997999988
 20
13705.230913999991
 30
0.0
 40
15.0
 50
90.0
 51
270.0
  0
ARC
  5
3E81
  8
0
  6
BYBLOCK
 62
     0
 10
27172.820997999988
 20
13705.230913999991
 30
0.0
 40
15.0
 50
270.0
 51
90.0
  0
ARC
  5
3E82
  8
0
  6
BYBLOCK
 62
     0
 10
27172.820997999988
 20
16973.730914
 30
0.0
 40
15.0
 50
270.0
 51
90.0
  0
ARC
  5
3E83
  8
0
  6
BYBLOCK
 62
     0
 10
27172.820997999988
 20
16973.730914
 30
0.0
 40
15.0
 50
90.0
 51
270.0
  0
ARC
  5
3E84
  8
0
  6
BYBLOCK
 62
     0
 10
27572.820997999988
 20
19934.228209000001
 30
0.0
 40
15.0
 50
270.0
 51
90.0
  0
ARC
  5
3E85
  8
0
  6
BYBLOCK
 62
     0
 10
27572.820997999988
 20
19934.228209000001
 30
0.0
 40
15.0
 50
90.0
 51
270.0
  0
ARC
  5
3E86
  8
0
  6
BYBLOCK
 62
     0
 10
27572.820997999988
 20
13662.733619000001
 30
0.0
 40
15.0
 50
90.0
 51
270.0
  0
ARC
  5
3E87
  8
0
  6
BYBLOCK
 62
     0
 10
27572.820997999988
 20
13662.733619000001
 30
0.0
 40
15.0
 50
270.0
 51
90.0
  0
ARC
  5
3E88
  8
0
  6
BYBLOCK
 62
     0
 10
27172.820997999988
 20
19891.730914
 30
0.0
 40
15.0
 50
270.0
 51
90.0
  0
ARC
  5
3E89
  8
0
  6
BYBLOCK
 62
     0
 10
27172.820997999988
 20
19891.730914
 30
0.0
 40
15.0
 50
90.0
 51
270.0
  0
ARC
  5
3E8A
  8
0
  6
BYBLOCK
 62
     0
 10
27172.820997999988
 20
19934.228209000001
 30
0.0
 40
15.0
 50
90.0
 51
270.0
  0
ARC
  5
3E8B
  8
0
  6
BYBLOCK
 62
     0
 10
27172.820997999988
 20
19934.228209000001
 30
0.0
 40
15.0
 50
270.0
 51
90.0
  0
ARC
  5
3E8C
  8
0
  6
BYBLOCK
 62
     0
 10
27172.820997999988
 20
13705.230913999991
 30
0.0
 40
15.0
 50
90.0
 51
270.0
  0
ARC
  5
3E8D
  8
0
  6
BYBLOCK
 62
     0
 10
27172.820997999988
 20
13705.230913999991
 30
0.0
 40
15.0
 50
270.0
 51
90.0
  0
ARC
  5
3E8E
  8
0
  6
BYBLOCK
 62
     0
 10
27172.820997999988
 20
13662.733619000001
 30
0.0
 40
15.0
 50
270.0
 51
90.0
  0
ARC
  5
3E8F
  8
0
  6
BYBLOCK
 62
     0
 10
27172.820997999988
 20
13662.733619000001
 30
0.0
 40
15.0
 50
90.0
 51
270.0
  0
ARC
  5
3E90
  8
0
  6
BYBLOCK
 62
     0
 10
24922.321393999991
 20
20664.232102000031
 30
0.0
 40
15.0
 50
0.0
 51
180.0
  0
ARC
  5
3E91
  8
0
  6
BYBLOCK
 62
     0
 10
24922.321393999991
 20
20664.232102000031
 30
0.0
 40
15.0
 50
180.0
 51
0.0
  0
ARC
  5
3E92
  8
0
  6
BYBLOCK
 62
     0
 10
25680.322383499992
 20
20664.232102000031
 30
0.0
 40
15.0
 50
180.0
 51
0.0
  0
ARC
  5
3E93
  8
0
  6
BYBLOCK
 62
     0
 10
25680.322383499992
 20
20664.232102000031
 30
0.0
 40
15.0
 50
0.0
 51
180.0
  0
ARC
  5
3E94
  8
0
  6
BYBLOCK
 62
     0
 10
24221.321393999991
 20
20664.232102000031
 30
0.0
 40
15.0
 50
0.0
 51
180.0
  0
ARC
  5
3E95
  8
0
  6
BYBLOCK
 62
     0
 10
24221.321393999991
 20
20664.232102000031
 30
0.0
 40
15.0
 50
180.0
 51
0.0
  0
ARC
  5
3E96
  8
0
  6
BYBLOCK
 62
     0
 10
24922.321393999991
 20
20664.232102000031
 30
0.0
 40
15.0
 50
180.0
 51
0.0
  0
ARC
  5
3E97
  8
0
  6
BYBLOCK
 62
     0
 10
24922.321393999991
 20
20664.232102000031
 30
0.0
 40
15.0
 50
0.0
 51
180.0
  0
ARC
  5
3E98
  8
0
  6
BYBLOCK
 62
     0
 10
23520.321393999991
 20
20664.232102000031
 30
0.0
 40
15.0
 50
0.0
 51
180.0
  0
ARC
  5
3E99
  8
0
  6
BYBLOCK
 62
     0
 10
23520.321393999991
 20
20664.232102000031
 30
0.0
 40
15.0
 50
180.0
 51
0.0
  0
ARC
  5
3E9A
  8
0
  6
BYBLOCK
 62
     0
 10
24221.321393999991
 20
20664.232102000031
 30
0.0
 40
15.0
 50
180.0
 51
0.0
  0
ARC
  5
3E9B
  8
0
  6
BYBLOCK
 62
     0
 10
24221.321393999991
 20
20664.232102000031
 30
0.0
 40
15.0
 50
0.0
 51
180.0
  0
ARC
  5
3E9C
  8
0
  6
BYBLOCK
 62
     0
 10
25680.321393999991
 20
20664.232102000031
 30
0.0
 40
15.0
 50
180.0
 51
0.0
  0
ARC
  5
3E9D
  8
0
  6
BYBLOCK
 62
     0
 10
25680.321393999991
 20
20664.232102000031
 30
0.0
 40
15.0
 50
0.0
 51
180.0
  0
ARC
  5
3E9E
  8
0
  6
BYBLOCK
 62
     0
 10
25722.817698999988
 20
20664.232102000031
 30
0.0
 40
15.0
 50
0.0
 51
180.0
  0
ARC
  5
3E9F
  8
0
  6
BYBLOCK
 62
     0
 10
25722.817698999988
 20
20664.232102000031
 30
0.0
 40
15.0
 50
180.0
 51
0.0
  0
ARC
  5
3EA0
  8
0
  6
BYBLOCK
 62
     0
 10
19844.321393999991
 20
20664.232102000031
 30
0.0
 40
15.0
 50
0.0
 51
180.0
  0
ARC
  5
3EA1
  8
0
  6
BYBLOCK
 62
     0
 10
19844.321393999991
 20
20664.232102000031
 30
0.0
 40
15.0
 50
180.0
 51
0.0
  0
ARC
  5
3EA2
  8
0
  6
BYBLOCK
 62
     0
 10
19801.825088999991
 20
20664.232102000031
 30
0.0
 40
15.0
 50
180.0
 51
0.0
  0
ARC
  5
3EA3
  8
0
  6
BYBLOCK
 62
     0
 10
19801.825088999991
 20
20664.232102000031
 30
0.0
 40
15.0
 50
0.0
 51
180.0
  0
ARC
  5
3EA4
  8
0
  6
BYBLOCK
 62
     0
 10
22004.321393999991
 20
20664.232102000031
 30
0.0
 40
15.0
 50
0.0
 51
180.0
  0
ARC
  5
3EA5
  8
0
  6
BYBLOCK
 62
     0
 10
22004.321393999991
 20
20664.232102000031
 30
0.0
 40
15.0
 50
180.0
 51
0.0
  0
ARC
  5
3EA6
  8
0
  6
BYBLOCK
 62
     0
 10
22762.322383499992
 20
20664.232102000031
 30
0.0
 40
15.0
 50
180.0
 51
0.0
  0
ARC
  5
3EA7
  8
0
  6
BYBLOCK
 62
     0
 10
22762.322383499992
 20
20664.232102000031
 30
0.0
 40
15.0
 50
0.0
 51
180.0
  0
ARC
  5
3EA8
  8
0
  6
BYBLOCK
 62
     0
 10
21303.321393999991
 20
20664.232102000031
 30
0.0
 40
15.0
 50
0.0
 51
180.0
  0
ARC
  5
3EA9
  8
0
  6
BYBLOCK
 62
     0
 10
21303.321393999991
 20
20664.232102000031
 30
0.0
 40
15.0
 50
180.0
 51
0.0
  0
ARC
  5
3EAA
  8
0
  6
BYBLOCK
 62
     0
 10
22004.321393999991
 20
20664.232102000031
 30
0.0
 40
15.0
 50
180.0
 51
0.0
  0
ARC
  5
3EAB
  8
0
  6
BYBLOCK
 62
     0
 10
22004.321393999991
 20
20664.232102000031
 30
0.0
 40
15.0
 50
0.0
 51
180.0
  0
ARC
  5
3EAC
  8
0
  6
BYBLOCK
 62
     0
 10
20602.321393999991
 20
20664.232102000031
 30
0.0
 40
15.0
 50
0.0
 51
180.0
  0
ARC
  5
3EAD
  8
0
  6
BYBLOCK
 62
     0
 10
20602.321393999991
 20
20664.232102000031
 30
0.0
 40
15.0
 50
180.0
 51
0.0
  0
ARC
  5
3EAE
  8
0
  6
BYBLOCK
 62
     0
 10
21303.321393999991
 20
20664.232102000031
 30
0.0
 40
15.0
 50
180.0
 51
0.0
  0
ARC
  5
3EAF
  8
0
  6
BYBLOCK
 62
     0
 10
21303.321393999991
 20
20664.232102000031
 30
0.0
 40
15.0
 50
0.0
 51
180.0
  0
ARC
  5
3EB0
  8
0
  6
BYBLOCK
 62
     0
 10
18994.322053999989
 20
6276.5900849999962
 30
0.0
 40
15.0
 50
90.0
 51
270.0
  0
ARC
  5
3EB1
  8
0
  6
BYBLOCK
 62
     0
 10
18994.322053999989
 20
6276.5900849999962
 30
0.0
 40
15.0
 50
270.0
 51
90.0
  0
ARC
  5
3EB2
  8
0
  6
BYBLOCK
 62
     0
 10
18994.322053999989
 20
8168.0900849999953
 30
0.0
 40
15.0
 50
270.0
 51
90.0
  0
ARC
  5
3EB3
  8
0
  6
BYBLOCK
 62
     0
 10
18994.322053999989
 20
8168.0900849999953
 30
0.0
 40
15.0
 50
90.0
 51
270.0
  0
ARC
  5
3EB4
  8
0
  6
BYBLOCK
 62
     0
 10
18594.319744999979
 20
6276.5900849999962
 30
0.0
 40
15.0
 50
90.0
 51
270.0
  0
ARC
  5
3EB5
  8
0
  6
BYBLOCK
 62
     0
 10
18594.319744999979
 20
6276.5900849999962
 30
0.0
 40
15.0
 50
270.0
 51
90.0
  0
ARC
  5
3EB6
  8
0
  6
BYBLOCK
 62
     0
 10
18594.319744999979
 20
8624.5900850000016
 30
0.0
 40
15.0
 50
270.0
 51
90.0
  0
ARC
  5
3EB7
  8
0
  6
BYBLOCK
 62
     0
 10
18594.319744999979
 20
8624.5900850000016
 30
0.0
 40
15.0
 50
90.0
 51
270.0
  0
ARC
  5
3EC8
  8
0
  6
BYBLOCK
 62
     0
 10
19938.321393999991
 20
5376.5902499999984
 30
0.0
 40
15.0
 50
0.0
 51
180.0
  0
ARC
  5
3EC9
  8
0
  6
BYBLOCK
 62
     0
 10
19938.321393999991
 20
5376.5902499999984
 30
0.0
 40
15.0
 50
180.0
 51
0.0
  0
ARC
  5
3ECA
  8
0
  6
BYBLOCK
 62
     0
 10
22668.321393999991
 20
5376.5902499999984
 30
0.0
 40
15.0
 50
180.0
 51
0.0
  0
ARC
  5
3ECB
  8
0
  6
BYBLOCK
 62
     0
 10
22668.321393999991
 20
5376.5902499999984
 30
0.0
 40
15.0
 50
0.0
 51
180.0
  0
ARC
  5
3ECC
  8
0
  6
BYBLOCK
 62
     0
 10
22856.321393999991
 20
5376.5902499999984
 30
0.0
 40
15.0
 50
0.0
 51
180.0
  0
ARC
  5
3ECD
  8
0
  6
BYBLOCK
 62
     0
 10
22856.321393999991
 20
5376.5902499999984
 30
0.0
 40
15.0
 50
180.0
 51
0.0
  0
ARC
  5
3ECE
  8
0
  6
BYBLOCK
 62
     0
 10
25586.321393999991
 20
5376.5902499999984
 30
0.0
 40
15.0
 50
180.0
 51
0.0
  0
ARC
  5
3ECF
  8
0
  6
BYBLOCK
 62
     0
 10
25586.321393999991
 20
5376.5902499999984
 30
0.0
 40
15.0
 50
0.0
 51
180.0
  0
ARC
  5
3ED0
  8
0
  6
BYBLOCK
 62
     0
 10
22762.321393999991
 20
4976.5902500000002
 30
0.0
 40
15.0
 50
0.0
 51
180.0
  0
ARC
  5
3ED1
  8
0
  6
BYBLOCK
 62
     0
 10
22762.321393999991
 20
4976.5902500000002
 30
0.0
 40
15.0
 50
180.0
 51
0.0
  0
ARC
  5
3ED2
  8
0
  6
BYBLOCK
 62
     0
 10
25680.321393999991
 20
4976.5902500000002
 30
0.0
 40
15.0
 50
180.0
 51
0.0
  0
ARC
  5
3ED3
  8
0
  6
BYBLOCK
 62
     0
 10
25680.321393999991
 20
4976.5902500000002
 30
0.0
 40
15.0
 50
0.0
 51
180.0
  0
ARC
  5
3ED4
  8
0
  6
BYBLOCK
 62
     0
 10
19844.321393999991
 20
4976.5902500000002
 30
0.0
 40
15.0
 50
0.0
 51
180.0
  0
ARC
  5
3ED5
  8
0
  6
BYBLOCK
 62
     0
 10
19844.321393999991
 20
4976.5902500000002
 30
0.0
 40
15.0
 50
180.0
 51
0.0
  0
ARC
  5
3ED6
  8
0
  6
BYBLOCK
 62
     0
 10
22762.321393999991
 20
4976.5902500000002
 30
0.0
 40
15.0
 50
180.0
 51
0.0
  0
ARC
  5
3ED7
  8
0
  6
BYBLOCK
 62
     0
 10
22762.321393999991
 20
4976.5902500000002
 30
0.0
 40
15.0
 50
0.0
 51
180.0
  0
ARC
  5
3ED8
  8
0
  6
BYBLOCK
 62
     0
 10
25680.325352999989
 20
4976.5902500000002
 30
0.0
 40
15.0
 50
180.0
 51
0.0
  0
ARC
  5
3ED9
  8
0
  6
BYBLOCK
 62
     0
 10
25680.325352999989
 20
4976.5902500000002
 30
0.0
 40
15.0
 50
0.0
 51
180.0
  0
ARC
  5
3EDA
  8
0
  6
BYBLOCK
 62
     0
 10
25722.825353
 20
4976.5902500000002
 30
0.0
 40
15.0
 50
0.0
 51
180.0
  0
ARC
  5
3EDB
  8
0
  6
BYBLOCK
 62
     0
 10
25722.825353
 20
4976.5902500000002
 30
0.0
 40
15.0
 50
180.0
 51
0.0
  0
ARC
  5
3EDC
  8
0
  6
BYBLOCK
 62
     0
 10
19844.321393999991
 20
4976.5902500000002
 30
0.0
 40
15.0
 50
0.0
 51
180.0
  0
ARC
  5
3EDD
  8
0
  6
BYBLOCK
 62
     0
 10
19844.321393999991
 20
4976.5902500000002
 30
0.0
 40
15.0
 50
180.0
 51
0.0
  0
ARC
  5
3EDE
  8
0
  6
BYBLOCK
 62
     0
 10
19801.821393999991
 20
4976.5902500000002
 30
0.0
 40
15.0
 50
180.0
 51
0.0
  0
ARC
  5
3EDF
  8
0
  6
BYBLOCK
 62
     0
 10
19801.821393999991
 20
4976.5902500000002
 30
0.0
 40
15.0
 50
0.0
 51
180.0
  0
ARC
  5
3EE0
  8
0
  6
BYBLOCK
 62
     0
 10
19801.821393999991
 20
4576.5904149999969
 30
0.0
 40
15.0
 50
0.0
 51
180.0
  0
ARC
  5
3EE1
  8
0
  6
BYBLOCK
 62
     0
 10
19801.821393999991
 20
4576.5904149999969
 30
0.0
 40
15.0
 50
180.0
 51
0.0
  0
ARC
  5
3EE2
  8
0
  6
BYBLOCK
 62
     0
 10
25722.821393999991
 20
4576.5904149999969
 30
0.0
 40
15.0
 50
180.0
 51
0.0
  0
ARC
  5
3EE3
  8
0
  6
BYBLOCK
 62
     0
 10
25722.821393999991
 20
4576.5904149999969
 30
0.0
 40
15.0
 50
0.0
 51
180.0
  0
ARC
  5
3EE4
  8
0
  6
BYBLOCK
 62
     0
 10
8882.5340609999967
 20
9824.5901109999995
 30
0.0
 40
15.0
 50
0.0
 51
180.0
  0
ARC
  5
3EE5
  8
0
  6
BYBLOCK
 62
     0
 10
8882.5340609999967
 20
9824.5901109999995
 30
0.0
 40
15.0
 50
180.0
 51
0.0
  0
ARC
  5
3EE6
  8
0
  6
BYBLOCK
 62
     0
 10
15484.034061
 20
9824.5901109999995
 30
0.0
 40
15.0
 50
180.0
 51
0.0
  0
ARC
  5
3EE7
  8
0
  6
BYBLOCK
 62
     0
 10
15484.034061
 20
9824.5901109999995
 30
0.0
 40
15.0
 50
0.0
 51
180.0
  0
ARC
  5
3EE8
  8
0
  6
BYBLOCK
 62
     0
 10
15334.034061
 20
9424.5917609999997
 30
0.0
 40
15.0
 50
180.0
 51
0.0
  0
ARC
  5
3EE9
  8
0
  6
BYBLOCK
 62
     0
 10
15334.034061
 20
9424.5917609999997
 30
0.0
 40
15.0
 50
0.0
 51
180.0
  0
ARC
  5
3EEA
  8
0
  6
BYBLOCK
 62
     0
 10
15484.034061
 20
9424.5917609999997
 30
0.0
 40
15.0
 50
0.0
 51
180.0
  0
ARC
  5
3EEB
  8
0
  6
BYBLOCK
 62
     0
 10
15484.034061
 20
9424.5917609999997
 30
0.0
 40
15.0
 50
180.0
 51
0.0
  0
ARC
  5
3EEC
  8
0
  6
BYBLOCK
 62
     0
 10
9062.5340609999967
 20
9424.5917609999997
 30
0.0
 40
15.0
 50
0.0
 51
180.0
  0
ARC
  5
3EED
  8
0
  6
BYBLOCK
 62
     0
 10
9062.5340609999967
 20
9424.5917609999997
 30
0.0
 40
15.0
 50
180.0
 51
0.0
  0
ARC
  5
3EEE
  8
0
  6
BYBLOCK
 62
     0
 10
15334.034061
 20
9424.5917609999997
 30
0.0
 40
15.0
 50
180.0
 51
0.0
  0
ARC
  5
3EEF
  8
0
  6
BYBLOCK
 62
     0
 10
15334.034061
 20
9424.5917609999997
 30
0.0
 40
15.0
 50
0.0
 51
180.0
  0
ARC
  5
3EF0
  8
0
  6
BYBLOCK
 62
     0
 10
8882.5340609999967
 20
9424.5917609999997
 30
0.0
 40
15.0
 50
0.0
 51
180.0
  0
ARC
  5
3EF1
  8
0
  6
BYBLOCK
 62
     0
 10
8882.5340609999967
 20
9424.5917609999997
 30
0.0
 40
15.0
 50
180.0
 51
0.0
  0
ARC
  5
3EF2
  8
0
  6
BYBLOCK
 62
     0
 10
9062.5340609999967
 20
9424.5917609999997
 30
0.0
 40
15.0
 50
180.0
 51
0.0
  0
ARC
  5
3EF3
  8
0
  6
BYBLOCK
 62
     0
 10
9062.5340609999967
 20
9424.5917609999997
 30
0.0
 40
15.0
 50
0.0
 51
180.0
  0
ARC
  5
3EF4
  8
0
  6
BYBLOCK
 62
     0
 10
16424.034456999991
 20
6276.5900850000025
 30
0.0
 40
15.0
 50
90.0
 51
270.0
  0
ARC
  5
3EF5
  8
0
  6
BYBLOCK
 62
     0
 10
16424.034456999991
 20
6276.5900850000025
 30
0.0
 40
15.0
 50
270.0
 51
90.0
  0
ARC
  5
3EF6
  8
0
  6
BYBLOCK
 62
     0
 10
16424.034457000002
 20
8624.5900850000016
 30
0.0
 40
15.0
 50
270.0
 51
90.0
  0
ARC
  5
3EF7
  8
0
  6
BYBLOCK
 62
     0
 10
16424.034457000002
 20
8624.5900850000016
 30
0.0
 40
15.0
 50
90.0
 51
270.0
  0
ARC
  5
3EF8
  8
0
  6
BYBLOCK
 62
     0
 10
7972.5336650000027
 20
6276.5900850000025
 30
0.0
 40
15.0
 50
90.0
 51
270.0
  0
ARC
  5
3EF9
  8
0
  6
BYBLOCK
 62
     0
 10
7972.5336650000027
 20
6276.5900850000025
 30
0.0
 40
15.0
 50
270.0
 51
90.0
  0
ARC
  5
3EFA
  8
0
  6
BYBLOCK
 62
     0
 10
7972.5336650000027
 20
8433.5900850000016
 30
0.0
 40
15.0
 50
270.0
 51
90.0
  0
ARC
  5
3EFB
  8
0
  6
BYBLOCK
 62
     0
 10
7972.5336650000027
 20
8433.5900850000016
 30
0.0
 40
15.0
 50
90.0
 51
270.0
  0
ARC
  5
3EFC
  8
0
  6
BYBLOCK
 62
     0
 10
9062.5340609999967
 20
4576.5904150000006
 30
0.0
 40
15.0
 50
0.0
 51
180.0
  0
ARC
  5
3EFD
  8
0
  6
BYBLOCK
 62
     0
 10
9062.5340609999967
 20
4576.5904150000006
 30
0.0
 40
15.0
 50
180.0
 51
0.0
  0
ARC
  5
3EFE
  8
0
  6
BYBLOCK
 62
     0
 10
15334.034061
 20
4576.5904150000006
 30
0.0
 40
15.0
 50
180.0
 51
0.0
  0
ARC
  5
3EFF
  8
0
  6
BYBLOCK
 62
     0
 10
15334.034061
 20
4576.5904150000006
 30
0.0
 40
15.0
 50
0.0
 51
180.0
  0
ARC
  5
3F00
  8
0
  6
BYBLOCK
 62
     0
 10
15291.534061
 20
4976.5902500000002
 30
0.0
 40
15.0
 50
180.0
 51
0.0
  0
ARC
  5
3F01
  8
0
  6
BYBLOCK
 62
     0
 10
15291.534061
 20
4976.5902500000002
 30
0.0
 40
15.0
 50
0.0
 51
180.0
  0
ARC
  5
3F02
  8
0
  6
BYBLOCK
 62
     0
 10
15334.034061
 20
4976.5902500000002
 30
0.0
 40
15.0
 50
0.0
 51
180.0
  0
ARC
  5
3F03
  8
0
  6
BYBLOCK
 62
     0
 10
15334.034061
 20
4976.5902500000002
 30
0.0
 40
15.0
 50
180.0
 51
0.0
  0
ARC
  5
3F04
  8
0
  6
BYBLOCK
 62
     0
 10
9105.0340609999967
 20
4976.5902500000002
 30
0.0
 40
15.0
 50
0.0
 51
180.0
  0
ARC
  5
3F05
  8
0
  6
BYBLOCK
 62
     0
 10
9105.0340609999967
 20
4976.5902500000002
 30
0.0
 40
15.0
 50
180.0
 51
0.0
  0
ARC
  5
3F06
  8
0
  6
BYBLOCK
 62
     0
 10
9062.5340609999967
 20
4976.5902500000002
 30
0.0
 40
15.0
 50
180.0
 51
0.0
  0
ARC
  5
3F07
  8
0
  6
BYBLOCK
 62
     0
 10
9062.5340609999967
 20
4976.5902500000002
 30
0.0
 40
15.0
 50
0.0
 51
180.0
  0
ARC
  5
3F08
  8
0
  6
BYBLOCK
 62
     0
 10
12023.034061
 20
4976.5902500000002
 30
0.0
 40
15.0
 50
180.0
 51
0.0
  0
ARC
  5
3F09
  8
0
  6
BYBLOCK
 62
     0
 10
12023.034061
 20
4976.5902500000002
 30
0.0
 40
15.0
 50
0.0
 51
180.0
  0
ARC
  5
3F0A
  8
0
  6
BYBLOCK
 62
     0
 10
9105.0340609999967
 20
4976.5902500000002
 30
0.0
 40
15.0
 50
0.0
 51
180.0
  0
ARC
  5
3F0B
  8
0
  6
BYBLOCK
 62
     0
 10
9105.0340609999967
 20
4976.5902500000002
 30
0.0
 40
15.0
 50
180.0
 51
0.0
  0
ARC
  5
3F0C
  8
0
  6
BYBLOCK
 62
     0
 10
12023.034061
 20
4976.590250000002
 30
0.0
 40
15.0
 50
0.0
 51
180.0
  0
ARC
  5
3F0D
  8
0
  6
BYBLOCK
 62
     0
 10
12023.034061
 20
4976.590250000002
 30
0.0
 40
15.0
 50
180.0
 51
0.0
  0
ARC
  5
3F0E
  8
0
  6
BYBLOCK
 62
     0
 10
15291.534061
 20
4976.590250000002
 30
0.0
 40
15.0
 50
180.0
 51
0.0
  0
ARC
  5
3F0F
  8
0
  6
BYBLOCK
 62
     0
 10
15291.534061
 20
4976.590250000002
 30
0.0
 40
15.0
 50
0.0
 51
180.0
  0
LINE
  5
4033
  8
0-1
  6
CONTINUOUS
 62
     3
 10
25616.824376
 20
8375.0901049999975
 30
0.0
 11
25616.824376
 21
8407.0900120000006
 31
0.0
  0
LINE
  5
4034
  8
0-1
  6
CONTINUOUS
 62
     3
 10
25765.823768999999
 20
8298.9033830000008
 30
0.0
 11
25722.82165799999
 21
8298.9033830000008
 31
0.0
  0
LINE
  5
4035
  8
0-1
  6
CONTINUOUS
 62
     3
 10
25765.823768999999
 20
8625.0904340000034
 30
0.0
 11
25765.823768999999
 21
8298.9033830000008
 31
0.0
  0
LINE
  5
4036
  8
0-1
  6
CONTINUOUS
 62
     3
 10
25330.857183000011
 20
8371.554683999997
 30
0.0
 11
25298.85826600001
 21
8403.5545919999968
 31
0.0
  0
LINE
  5
4037
  8
0-1
  6
CONTINUOUS
 62
     3
 10
25611.824111999991
 20
8412.0902760000008
 30
0.0
 11
25302.39368600001
 21
8412.0902760000008
 31
0.0
  0
LINE
  5
4038
  8
0-1
  6
CONTINUOUS
 62
     3
 10
25616.824376
 20
8403.6911790000031
 30
0.0
 11
25298.727617
 21
8403.6911790000031
 31
0.0
  0
LINE
  5
4039
  8
0-1
  6
CONTINUOUS
 62
     3
 10
25611.824111999991
 20
8370.0898410000009
 30
0.0
 11
25334.394583000001
 21
8370.0898410000009
 31
0.0
  0
LINE
  5
403A
  8
0-1
  6
CONTINUOUS
 62
     3
 10
25616.824376
 20
8378.4899280000009
 30
0.0
 11
25323.922930000001
 21
8378.4899280000009
 31
0.0
  0
LINE
  5
403B
  8
0-1
  6
CONTINUOUS
 62
     3
 10
25616.824376
 20
8386.8900149999954
 30
0.0
 11
25315.523831999999
 21
8386.8900149999954
 31
0.0
  0
LINE
  5
403C
  8
0-1
  6
CONTINUOUS
 62
     3
 10
25616.824376
 20
8395.2910919999995
 30
0.0
 11
25307.122756000001
 21
8395.2910919999995
 31
0.0
  0
LINE
  5
403D
  8
0-1
  6
CONTINUOUS
 62
     3
 10
23111.78758400002
 20
8371.554683999997
 30
0.0
 11
23143.78452200002
 21
8403.5545919999968
 31
0.0
  0
LINE
  5
403E
  8
0-1
  6
CONTINUOUS
 62
     3
 10
22825.82237000002
 20
8375.0901049999975
 30
0.0
 11
22825.82237000002
 21
8407.0900120000006
 31
0.0
  0
LINE
  5
403F
  8
0-1
  6
CONTINUOUS
 62
     3
 10
22825.82237000002
 20
8378.4899280000009
 30
0.0
 11
23118.719858
 21
8378.4899280000009
 31
0.0
  0
LINE
  5
4040
  8
0-1
  6
CONTINUOUS
 62
     3
 10
22825.82237000002
 20
8386.8900149999954
 30
0.0
 11
23127.12093500001
 21
8386.8900149999954
 31
0.0
  0
LINE
  5
4041
  8
0-1
  6
CONTINUOUS
 62
     3
 10
22830.822634
 20
8370.0898410000009
 30
0.0
 11
23108.250184000011
 21
8370.0898410000009
 31
0.0
  0
LINE
  5
4042
  8
0-1
  6
CONTINUOUS
 62
     3
 10
22825.82237000002
 20
8395.2910919999995
 30
0.0
 11
23135.520032000019
 21
8395.2910919999995
 31
0.0
  0
LINE
  5
4043
  8
0-1
  6
CONTINUOUS
 62
     3
 10
22825.82237000002
 20
8403.6911790000031
 30
0.0
 11
23143.917150000019
 21
8403.6911790000031
 31
0.0
  0
LINE
  5
4044
  8
0-1
  6
CONTINUOUS
 62
     3
 10
22830.822634
 20
8412.0902760000008
 30
0.0
 11
23140.251081000031
 21
8412.0902760000008
 31
0.0
  0
LINE
  5
4045
  8
0-1
  6
CONTINUOUS
 62
     3
 10
25765.823768999999
 20
8495.0895109999983
 30
0.0
 11
22762.321393999999
 21
8495.0895109999983
 31
0.0
  0
LINE
  5
4046
  8
0-1
  6
CONTINUOUS
 62
     3
 10
22804.819678000011
 20
8421.0901570000005
 30
0.0
 11
25637.82310899999
 21
8421.0901570000005
 31
0.0
  0
LINE
  5
4047
  8
0-1
  6
CONTINUOUS
 62
     3
 10
22804.819678000011
 20
8361.089958999999
 30
0.0
 11
25637.82310899999
 21
8361.089958999999
 31
0.0
  0
LINE
  5
4048
  8
0-1
  6
CONTINUOUS
 62
     3
 10
22762.321393999999
 20
8625.0904340000034
 30
0.0
 11
25765.823768999999
 21
8625.0904340000034
 31
0.0
  0
LINE
  5
4049
  8
0-1
  6
CONTINUOUS
 62
     3
 10
22698.820417999999
 20
8375.0901049999975
 30
0.0
 11
22698.820417999999
 21
8407.0900120000006
 31
0.0
  0
LINE
  5
404A
  8
0-1
  6
CONTINUOUS
 62
     3
 10
22412.85916299999
 20
8371.554683999997
 30
0.0
 11
22380.858265999999
 21
8403.5545919999968
 31
0.0
  0
LINE
  5
404B
  8
0-1
  6
CONTINUOUS
 62
     3
 10
22698.820417999999
 20
8403.6911790000031
 30
0.0
 11
22380.727617999979
 21
8403.6911790000031
 31
0.0
  0
LINE
  5
404C
  8
0-1
  6
CONTINUOUS
 62
     3
 10
22698.820417999999
 20
8395.2910919999995
 30
0.0
 11
22389.12275599999
 21
8395.2910919999995
 31
0.0
  0
LINE
  5
404D
  8
0-1
  6
CONTINUOUS
 62
     3
 10
22698.820417999999
 20
8386.8900149999954
 30
0.0
 11
22397.521852999998
 21
8386.8900149999954
 31
0.0
  0
LINE
  5
404E
  8
0-1
  6
CONTINUOUS
 62
     3
 10
22698.820417999999
 20
8378.4899280000009
 30
0.0
 11
22405.920950999978
 21
8378.4899280000009
 31
0.0
  0
LINE
  5
404F
  8
0-1
  6
CONTINUOUS
 62
     3
 10
22693.822133000001
 20
8412.0902760000008
 30
0.0
 11
22384.391706999999
 21
8412.0902760000008
 31
0.0
  0
LINE
  5
4050
  8
0-1
  6
CONTINUOUS
 62
     3
 10
22693.822133000001
 20
8370.0898410000009
 30
0.0
 11
22416.394583999991
 21
8370.0898410000009
 31
0.0
  0
LINE
  5
4051
  8
0-1
  6
CONTINUOUS
 62
     3
 10
19912.820655
 20
8370.0898410000009
 30
0.0
 11
20190.250184999972
 21
8370.0898410000009
 31
0.0
  0
LINE
  5
4052
  8
0-1
  6
CONTINUOUS
 62
     3
 10
19907.822370999998
 20
8375.0901049999975
 30
0.0
 11
19907.822370999998
 21
8407.0900120000006
 31
0.0
  0
LINE
  5
4053
  8
0-1
  6
CONTINUOUS
 62
     3
 10
19758.820998999981
 20
8298.9033830000008
 30
0.0
 11
19801.819151
 21
8298.9033830000008
 31
0.0
  0
LINE
  5
4054
  8
0-1
  6
CONTINUOUS
 62
     3
 10
19758.820998999981
 20
8298.9033830000008
 30
0.0
 11
19758.820998999981
 21
8625.0904340000034
 31
0.0
  0
LINE
  5
4055
  8
0-1
  6
CONTINUOUS
 62
     3
 10
19912.820655
 20
8412.0902760000008
 30
0.0
 11
20222.251081999999
 21
8412.0902760000008
 31
0.0
  0
LINE
  5
4056
  8
0-1
  6
CONTINUOUS
 62
     3
 10
20193.783625
 20
8371.554683999997
 30
0.0
 11
20225.784522999998
 21
8403.5545919999968
 31
0.0
  0
LINE
  5
4057
  8
0-1
  6
CONTINUOUS
 62
     3
 10
19907.822370999998
 20
8403.6911790000031
 30
0.0
 11
20225.917150000008
 21
8403.6911790000031
 31
0.0
  0
LINE
  5
4058
  8
0-1
  6
CONTINUOUS
 62
     3
 10
19907.822370999998
 20
8395.2910919999995
 30
0.0
 11
20217.520033000001
 21
8395.2910919999995
 31
0.0
  0
LINE
  5
4059
  8
0-1
  6
CONTINUOUS
 62
     3
 10
19907.822370999998
 20
8386.8900149999954
 30
0.0
 11
20209.120935000021
 21
8386.8900149999954
 31
0.0
  0
LINE
  5
405A
  8
0-1
  6
CONTINUOUS
 62
     3
 10
19907.822370999998
 20
8378.4899280000009
 30
0.0
 11
20200.721837999979
 21
8378.4899280000009
 31
0.0
  0
LINE
  5
405B
  8
0-1
  6
CONTINUOUS
 62
     3
 10
19886.819679
 20
8361.089958999999
 30
0.0
 11
22719.821129999989
 21
8361.089958999999
 31
0.0
  0
LINE
  5
405C
  8
0-1
  6
CONTINUOUS
 62
     3
 10
19886.819679
 20
8421.0901570000005
 30
0.0
 11
22719.821129999989
 21
8421.0901570000005
 31
0.0
  0
LINE
  5
405D
  8
0-1
  6
CONTINUOUS
 62
     3
 10
19758.820998999981
 20
8625.0904340000034
 30
0.0
 11
22762.321393999999
 21
8625.0904340000034
 31
0.0
  0
LINE
  5
405E
  8
0-1
  6
CONTINUOUS
 62
     3
 10
22762.321393999999
 20
8495.0895109999983
 30
0.0
 11
19758.820998999981
 21
8495.0895109999983
 31
0.0
  0
LINE
  5
405F
  8
0-1
  6
CONTINUOUS
 62
     3
 10
22762.321393999999
 20
8495.0895109999983
 30
0.0
 11
22762.321393999999
 21
8625.0904340000034
 31
0.0
  0
LINE
  5
4060
  8
0-1
  6
CONTINUOUS
 62
     3
 10
22762.321393999999
 20
8495.0895109999983
 30
0.0
 11
22762.321393999999
 21
8625.0904340000034
 31
0.0
  0
ARC
  5
4061
  8
0-1
  6
CONTINUOUS
 62
     3
 10
25611.824111999991
 20
8407.0900120000006
 30
0.0
 40
5.0
 50
0.0
 51
90.0
  0
ARC
  5
4062
  8
0-1
  6
CONTINUOUS
 62
     3
 10
25611.824111999991
 20
8375.0901049999975
 30
0.0
 40
5.0
 50
269.9999850001808
 51
0.0
  0
ARC
  5
4063
  8
0-1
  6
CONTINUOUS
 62
     3
 10
25302.39368600001
 20
8407.0900120000006
 30
0.0
 40
5.0
 50
90.0
 51
224.99998499997989
  0
ARC
  5
4064
  8
0-1
  6
CONTINUOUS
 62
     3
 10
25334.394583000001
 20
8375.0901049999975
 30
0.0
 40
5.0
 50
224.99998499997989
 51
269.9999850001808
  0
ARC
  5
4065
  8
0-1
  6
CONTINUOUS
 62
     3
 10
23140.251081000031
 20
8407.0900120000006
 30
0.0
 40
5.0
 50
314.99998500027471
 51
90.0
  0
ARC
  5
4066
  8
0-1
  6
CONTINUOUS
 62
     3
 10
23108.250184000011
 20
8375.0901049999975
 30
0.0
 40
5.0
 50
269.9999850001808
 51
314.99998500027471
  0
ARC
  5
4067
  8
0-1
  6
CONTINUOUS
 62
     3
 10
22830.822634
 20
8375.0901049999975
 30
0.0
 40
5.0
 50
180.0
 51
269.9999850001808
  0
ARC
  5
4068
  8
0-1
  6
CONTINUOUS
 62
     3
 10
22830.822634
 20
8407.0900120000006
 30
0.0
 40
5.0
 50
90.0
 51
180.0
  0
ARC
  5
4069
  8
0-1
  6
CONTINUOUS
 62
     3
 10
22693.822133000001
 20
8375.0901049999975
 30
0.0
 40
5.0
 50
269.9999850001808
 51
0.0
  0
ARC
  5
406A
  8
0-1
  6
CONTINUOUS
 62
     3
 10
22693.822133000001
 20
8407.0900120000006
 30
0.0
 40
5.0
 50
0.0
 51
90.0
  0
ARC
  5
406B
  8
0-1
  6
CONTINUOUS
 62
     3
 10
22384.391706999999
 20
8407.0900120000006
 30
0.0
 40
5.0
 50
90.0
 51
224.99998499997989
  0
ARC
  5
406C
  8
0-1
  6
CONTINUOUS
 62
     3
 10
22416.394583999991
 20
8375.0901049999975
 30
0.0
 40
5.0
 50
224.99998499997989
 51
269.9999850001808
  0
ARC
  5
406D
  8
0-1
  6
CONTINUOUS
 62
     3
 10
20222.251081999999
 20
8407.0900120000006
 30
0.0
 40
5.0
 50
314.99998500027471
 51
90.0
  0
ARC
  5
406E
  8
0-1
  6
CONTINUOUS
 62
     3
 10
19912.820655
 20
8407.0900120000006
 30
0.0
 40
5.0
 50
90.0
 51
180.0
  0
ARC
  5
406F
  8
0-1
  6
CONTINUOUS
 62
     3
 10
19912.820655
 20
8375.0901049999975
 30
0.0
 40
5.0
 50
180.0
 51
269.9999850001808
  0
ARC
  5
4070
  8
0-1
  6
CONTINUOUS
 62
     3
 10
20190.250184999972
 20
8375.0901049999975
 30
0.0
 40
5.0
 50
269.9999850001808
 51
314.99998500027471
  0
LINE
  5
4071
  8
SUNPOU
  6
CONTINUOUS
 62
     4
 10
19758.81901899998
 20
8705.0904340000034
 30
0.0
 11
19758.81901899998
 21
9904.5480460000017
 31
0.0
  0
LINE
  5
4072
  8
SUNPOU
  6
CONTINUOUS
 62
     4
 10
25765.823768999999
 20
8705.0904340000034
 30
0.0
 11
25765.823768999999
 21
9904.5480460000017
 31
0.0
  0
LINE
  5
4073
  8
SUNPOU
  6
CONTINUOUS
 62
     4
 10
19761.81901899998
 20
9824.5480459999999
 30
0.0
 11
25762.823768999999
 21
9824.5480459999999
 31
0.0
  0
LINE
  5
4074
  8
SUNPOU
  6
CONTINUOUS
 62
     4
 10
19801.821129999978
 20
8705.0904340000034
 30
0.0
 11
19801.821129999978
 21
9504.5902760000008
 31
0.0
  0
LINE
  5
4075
  8
SUNPOU
  6
CONTINUOUS
 62
     4
 10
25722.82165799999
 20
8705.0904340000034
 30
0.0
 11
25722.82165799999
 21
9504.5902760000008
 31
0.0
  0
LINE
  5
4076
  8
SUNPOU
  6
CONTINUOUS
 62
     4
 10
19801.821129999978
 20
9424.5902760000008
 30
0.0
 11
25722.82165799999
 21
9424.5902760000008
 31
0.0
  0
LINE
  5
4077
  8
SUNPOU
  6
CONTINUOUS
 62
     4
 10
19801.821129999978
 20
8705.0904340000034
 30
0.0
 11
19801.821129999978
 21
9504.5902760000008
 31
0.0
  0
LINE
  5
4078
  8
SUNPOU
  6
CONTINUOUS
 62
     4
 10
19758.81901899998
 20
8705.0904340000034
 30
0.0
 11
19758.81901899998
 21
9504.5902760000008
 31
0.0
  0
LINE
  5
4079
  8
SUNPOU
  6
CONTINUOUS
 62
     4
 10
19801.821129999978
 20
9424.5902760000008
 30
0.0
 11
20041.821129999978
 21
9424.5902760000008
 31
0.0
  0
LINE
  5
407A
  8
SUNPOU
  6
CONTINUOUS
 62
     4
 10
19761.81901899998
 20
9424.5902760000008
 30
0.0
 11
19521.819018999999
 21
9424.5902760000008
 31
0.0
  0
LINE
  5
407B
  8
SUNPOU
  6
CONTINUOUS
 62
     4
 10
19801.821129999978
 20
9424.5902760000008
 30
0.0
 11
19761.81901899998
 21
9424.5902760000008
 31
0.0
  0
LINE
  5
407C
  8
SUNPOU
  6
CONTINUOUS
 62
     4
 10
25722.82165799999
 20
8705.0904340000034
 30
0.0
 11
25722.82165799999
 21
9504.5902760000008
 31
0.0
  0
LINE
  5
407D
  8
SUNPOU
  6
CONTINUOUS
 62
     4
 10
25765.823768999999
 20
8705.0904340000034
 30
0.0
 11
25765.823768999999
 21
9504.5902760000008
 31
0.0
  0
LINE
  5
407E
  8
SUNPOU
  6
CONTINUOUS
 62
     4
 10
25722.82165799999
 20
9424.5902760000008
 30
0.0
 11
25482.821657999979
 21
9424.5902760000008
 31
0.0
  0
LINE
  5
407F
  8
SUNPOU
  6
CONTINUOUS
 62
     4
 10
25762.823768999999
 20
9424.5902760000008
 30
0.0
 11
26002.823768999999
 21
9424.5902760000008
 31
0.0
  0
LINE
  5
4080
  8
SUNPOU
  6
CONTINUOUS
 62
     4
 10
25722.82165799999
 20
9424.5902760000008
 30
0.0
 11
25762.823768999999
 21
9424.5902760000008
 31
0.0
  0
TEXT
  5
4081
  8
0
  6
CONTINUOUS
 62
     7
 10
25882.823768999999
 20
9504.5902760000008
 30
0.0
 40
160.0
  1
43
  0
TEXT
  5
4082
  8
0
  6
CONTINUOUS
 62
     7
 10
19401.819018999999
 20
9504.5902760000008
 30
0.0
 40
160.0
  1
43
  0
TEXT
  5
4083
  8
0
  6
CONTINUOUS
 62
     7
 10
22495.654727333331
 20
9504.5902760000008
 30
0.0
 40
160.0
  1
5921
  0
TEXT
  5
4084
  8
0
  6
CONTINUOUS
 62
     7
 10
22522.321393999999
 20
9904.5480460000017
 30
0.0
 40
160.0
  1
6007
  0
ARC
  5
4085
  8
0
  6
BYBLOCK
 62
     0
 10
19758.81901899998
 20
9824.5480459999999
 30
0.0
 40
15.0
 50
0.0
 51
180.0
  0
ARC
  5
4086
  8
0
  6
BYBLOCK
 62
     0
 10
19758.81901899998
 20
9824.5480459999999
 30
0.0
 40
15.0
 50
180.0
 51
0.0
  0
ARC
  5
4087
  8
0
  6
BYBLOCK
 62
     0
 10
25765.823768999999
 20
9824.5480459999999
 30
0.0
 40
15.0
 50
180.0
 51
0.0
  0
ARC
  5
4088
  8
0
  6
BYBLOCK
 62
     0
 10
25765.823768999999
 20
9824.5480459999999
 30
0.0
 40
15.0
 50
0.0
 51
180.0
  0
ARC
  5
4089
  8
0
  6
BYBLOCK
 62
     0
 10
19801.821129999978
 20
9424.5902760000008
 30
0.0
 40
15.0
 50
0.0
 51
180.0
  0
ARC
  5
408A
  8
0
  6
BYBLOCK
 62
     0
 10
19801.821129999978
 20
9424.5902760000008
 30
0.0
 40
15.0
 50
180.0
 51
0.0
  0
ARC
  5
408B
  8
0
  6
BYBLOCK
 62
     0
 10
25722.82165799999
 20
9424.5902760000008
 30
0.0
 40
15.0
 50
180.0
 51
0.0
  0
ARC
  5
408C
  8
0
  6
BYBLOCK
 62
     0
 10
25722.82165799999
 20
9424.5902760000008
 30
0.0
 40
15.0
 50
0.0
 51
180.0
  0
ARC
  5
408D
  8
0
  6
BYBLOCK
 62
     0
 10
19801.821129999978
 20
9424.5902760000008
 30
0.0
 40
15.0
 50
0.0
 51
180.0
  0
ARC
  5
408E
  8
0
  6
BYBLOCK
 62
     0
 10
19801.821129999978
 20
9424.5902760000008
 30
0.0
 40
15.0
 50
180.0
 51
0.0
  0
ARC
  5
408F
  8
0
  6
BYBLOCK
 62
     0
 10
19758.81901899998
 20
9424.5902760000008
 30
0.0
 40
15.0
 50
180.0
 51
0.0
  0
ARC
  5
4090
  8
0
  6
BYBLOCK
 62
     0
 10
19758.81901899998
 20
9424.5902760000008
 30
0.0
 40
15.0
 50
0.0
 51
180.0
  0
ARC
  5
4091
  8
0
  6
BYBLOCK
 62
     0
 10
25722.82165799999
 20
9424.5902760000008
 30
0.0
 40
15.0
 50
180.0
 51
0.0
  0
ARC
  5
4092
  8
0
  6
BYBLOCK
 62
     0
 10
25722.82165799999
 20
9424.5902760000008
 30
0.0
 40
15.0
 50
0.0
 51
180.0
  0
ARC
  5
4093
  8
0
  6
BYBLOCK
 62
     0
 10
25765.823768999999
 20
9424.5902760000008
 30
0.0
 40
15.0
 50
0.0
 51
180.0
  0
ARC
  5
4094
  8
0
  6
BYBLOCK
 62
     0
 10
25765.823768999999
 20
9424.5902760000008
 30
0.0
 40
15.0
 50
180.0
 51
0.0
  0
LINE
  5
40A2
  8
SUNPOU
  6
CONTINUOUS
 62
     4
 10
8046.8537400000168
 20
13432.731639999991
 30
0.0
 11
8046.8537400000168
 21
12253.78381999999
 31
0.0
  0
LINE
  5
40A3
  8
SUNPOU
  6
CONTINUOUS
 62
     4
 10
14053.85453199999
 20
13432.731639999991
 30
0.0
 11
14053.85453199999
 21
12253.78381999999
 31
0.0
  0
LINE
  5
40A4
  8
SUNPOU
  6
CONTINUOUS
 62
     4
 10
8046.8537400000168
 20
12333.78381999999
 30
0.0
 11
14053.85453199999
 21
12333.78381999999
 31
0.0
  0
TEXT
  5
40A5
  8
0
  6
CONTINUOUS
 62
     7
 10
10287.687469333339
 20
12413.78381999999
 30
0.0
 40
160.0
  1
ケラバ外寸 6007
  0
ARC
  5
40A6
  8
0
  6
BYBLOCK
 62
     0
 10
8046.8537400000168
 20
12333.78381999999
 30
0.0
 40
15.0
 50
0.0
 51
180.0
  0
ARC
  5
40A7
  8
0
  6
BYBLOCK
 62
     0
 10
8046.8537400000168
 20
12333.78381999999
 30
0.0
 40
15.0
 50
180.0
 51
0.0
  0
ARC
  5
40A8
  8
0
  6
BYBLOCK
 62
     0
 10
14053.85453199999
 20
12333.78381999999
 30
0.0
 40
15.0
 50
180.0
 51
0.0
  0
ARC
  5
40A9
  8
0
  6
BYBLOCK
 62
     0
 10
14053.85453199999
 20
12333.78381999999
 30
0.0
 40
15.0
 50
0.0
 51
180.0
  0
TEXT
  5
4143
  8
NAME
 10
24033.053546554009
 20
1076.0
 30
0.0
 40
360.0
  1
H
 41
0.6700000000000002
  7
00
  0
TEXT
  5
4144
  8
NAME
 10
23657.221561973682
 20
1076.0
 30
0.0
 40
360.0
  1
（ ）
  7
01
  0
TEXT
  5
4146
  8
NAME
 10
21933.552716389011
 20
1876.0
 30
0.0
 40
360.0
  1
ヨドガレージ ラヴィージュ
 41
0.75
  7
01
  0
TEXT
  5
4147
  8
NAME
 10
21816.089515848391
 20
1076.6369801169251
 30
0.0
 40
360.0
  1
VGC-3062
 41
0.6700000000000002
  0
LINE
  5
4148
  8
NAME
  6
CONTINUOUS
 10
26067.886878884299
 20
2236.0
 30
0.0
 11
26067.886878884299
 21
1876.0
 31
0.0
  0
LINE
  5
4149
  8
NAME
  6
CONTINUOUS
 10
26167.886878884299
 20
2236.0
 30
0.0
 11
26167.886878884299
 21
1876.0
 31
0.0
  0
LINE
  5
414A
  8
NAME
  6
CONTINUOUS
 10
26267.88687888431
 20
2236.0
 30
0.0
 11
26267.88687888431
 21
1876.0
 31
0.0
  0
LINE
  5
414B
  8
NAME
  6
CONTINUOUS
 10
26007.886878884299
 20
2236.0
 30
0.0
 11
26327.886878884299
 21
2236.0
 31
0.0
  0
LINE
  5
414C
  8
NAME
  6
CONTINUOUS
 10
26327.886878884299
 20
1876.0
 30
0.0
 11
26007.886878884299
 21
1876.0
 31
0.0
  0
TEXT
  5
414D
  8
NAME
 10
25346.041792426669
 20
1076.0
 30
0.0
 40
360.0
  1
2
 41
0.6700000000000002
  7
00
  0
TEXT
  5
4197
  8
NAME
 10
24557.214549256729
 20
1076.0
 30
0.0
 40
360.0
  1
型（ 連棟）
  7
01
  0
TEXT
  5
4230
  8
FILENAME
  6
CONTINUOUS
 10
28756.38095238095
 20
348.0
 30
0.0
 40
200.0
  1
＜VGC-3062-2-A_0.DXF ＞
  7
FILENAME
 72
     2
 11
32764.0
 21
348.0
 31
0.0
  0
LINE
  5
4236
  8
WAKUSEN-01
 10
868.00000000000193
 20
827.99999999999955
 30
0.0
 11
32764.000000000011
 21
827.99999999999943
 31
0.0
  0
LINE
  5
4237
  8
WAKUSEN-01
 10
868.00000000000193
 20
827.99999999999955
 30
0.0
 11
868.00000000000193
 21
22484.000000000011
 31
0.0
  0
LINE
  5
4238
  8
WAKUSEN-01
 10
32764.000000000011
 20
827.99999999999943
 30
0.0
 11
32764.000000000011
 21
22484.000000000011
 31
0.0
  0
LINE
  5
4239
  8
WAKUSEN-01
 10
20560.0
 20
827.99999999999716
 30
0.0
 11
20560.0
 21
2484.0
 31
0.0
  0
LINE
  5
423A
  8
WAKUSEN-02
 10
26868.0
 20
827.99999999999261
 30
0.0
 11
26868.0
 21
2484.0
 31
0.0
  0
ENDSEC
  0
EOF
