  0
SECTION
  2
HEADER
  9
$ACADVER
  1
AC1009
  9
$INSBASE
 10
0.0
 20
0.0
 30
0.0
  9
$EXTMIN
 10
867.99324330406671
 20
327.38164749855792
 30
-0.000000000000013
  9
$EXTMAX
 10
32765.33210850941
 20
22484.553276491992
 30
0.0000000000000023
  9
$LIMMIN
 10
0.0
 20
0.0
  9
$LIMMAX
 10
33600.0
 20
23760.0
  9
$ORTHOMODE
 70
     1
  9
$REGENMODE
 70
     1
  9
$FILLMODE
 70
     1
  9
$QTEXTMODE
 70
     0
  9
$MIRRTEXT
 70
     1
  9
$DRAGMODE
 70
     2
  9
$LTSCALE
 40
80.0
  9
$OSMODE
 70
  3071
  9
$ATTMODE
 70
     1
  9
$TEXTSIZE
 40
0.2
  9
$TRACEWID
 40
0.05
  9
$TEXTSTYLE
  7
00
  9
$CLAYER
  8
0
  9
$CELTYPE
  6
BYLAYER
  9
$CECOLOR
 62
   256
  9
$DIMSCALE
 40
80.0
  9
$DIMASZ
 40
3.0
  9
$DIMEXO
 40
1.0
  9
$DIMDLI
 40
0.38
  9
$DIMRND
 40
0.5
  9
$DIMDLE
 40
0.0
  9
$DIMEXE
 40
1.0
  9
$DIMTP
 40
0.0
  9
$DIMTM
 40
0.0
  9
$DIMTXT
 40
2.0
  9
$DIMCEN
 40
0.09
  9
$DIMTSZ
 40
0.0
  9
$DIMTOL
 70
     0
  9
$DIMLIM
 70
     0
  9
$DIMTIH
 70
     0
  9
$DIMTOH
 70
     0
  9
$DIMSE1
 70
     0
  9
$DIMSE2
 70
     0
  9
$DIMTAD
 70
     1
  9
$DIMZIN
 70
     8
  9
$DIMBLK
  1
DOTSMALL
  9
$DIMASO
 70
     1
  9
$DIMSHO
 70
     1
  9
$DIMPOST
  1

  9
$DIMAPOST
  1

  9
$DIMALT
 70
     0
  9
$DIMALTD
 70
     2
  9
$DIMALTF
 40
25.399999999999999
  9
$DIMLFAC
 40
1.0
  9
$DIMTOFL
 70
     1
  9
$DIMTVP
 40
0.0
  9
$DIMTIX
 70
     0
  9
$DIMSOXD
 70
     0
  9
$DIMSAH
 70
     0
  9
$DIMBLK1
  1

  9
$DIMBLK2
  1

  9
$DIMSTYLE
  2
SUNPOU
  9
$DIMCLRD
 70
     4
  9
$DIMCLRE
 70
     4
  9
$DIMCLRT
 70
     7
  9
$DIMTFAC
 40
1.0
  9
$DIMGAP
 40
1.0
  9
$LUNITS
 70
     2
  9
$LUPREC
 70
     4
  9
$SKETCHINC
 40
0.1
  9
$FILLETRAD
 40
0.0
  9
$AUNITS
 70
     0
  9
$AUPREC
 70
     0
  9
$MENU
  1
acad
  9
$ELEVATION
 40
0.0
  9
$PELEVATION
 40
0.0
  9
$THICKNESS
 40
0.0
  9
$LIMCHECK
 70
     0
  9
$BLIPMODE
 70
     1
  9
$CHAMFERA
 40
0.0
  9
$CHAMFERB
 40
0.0
  9
$SKPOLY
 70
     0
  9
$TDCREATE
 40
2311940.0749269091
  9
$TDUPDATE
 40
2458942.4266036688
  9
$TDINDWG
 40
0.0742081713
  9
$TDUSRTIMER
 40
0.0742065394
  9
$USRTIMER
 70
     1
  9
$ANGBASE
 50
0.0
  9
$ANGDIR
 70
     0
  9
$PDMODE
 70
     0
  9
$PDSIZE
 40
0.0
  9
$PLINEWID
 40
0.0
  9
$COORDS
 70
     1
  9
$SPLFRAME
 70
     0
  9
$SPLINETYPE
 70
     6
  9
$SPLINESEGS
 70
     8
  9
$ATTDIA
 70
     1
  9
$ATTREQ
 70
     1
  9
$HANDLING
 70
     1
  9
$HANDSEED
  5
483D
  9
$SURFTAB1
 70
     6
  9
$SURFTAB2
 70
     6
  9
$SURFTYPE
 70
     6
  9
$SURFU
 70
     6
  9
$SURFV
 70
     6
  9
$UCSNAME
  2

  9
$UCSORG
 10
0.0
 20
0.0
 30
0.0
  9
$UCSXDIR
 10
1.0
 20
0.0
 30
0.0
  9
$UCSYDIR
 10
0.0
 20
1.0
 30
0.0
  9
$PUCSNAME
  2

  9
$PUCSORG
 10
0.0
 20
0.0
 30
0.0
  9
$PUCSXDIR
 10
1.0
 20
0.0
 30
0.0
  9
$PUCSYDIR
 10
0.0
 20
1.0
 30
0.0
  9
$USERI1
 70
     0
  9
$USERI2
 70
     0
  9
$USERI3
 70
     0
  9
$USERI4
 70
     0
  9
$USERI5
 70
     0
  9
$USERR1
 40
0.0
  9
$USERR2
 40
0.0
  9
$USERR3
 40
0.0
  9
$USERR4
 40
0.0
  9
$USERR5
 40
0.0
  9
$WORLDVIEW
 70
     1
  9
$SHADEDGE
 70
     3
  9
$SHADEDIF
 70
    70
  9
$TILEMODE
 70
     1
  9
$MAXACTVP
 70
    16
  9
$PLIMCHECK
 70
     0
  9
$PEXTMIN
 10
1.0000000000000000E+020
 20
1.0000000000000000E+020
 30
1.0000000000000000E+020
  9
$PEXTMAX
 10
-1.0000000000000000E+020
 20
-1.0000000000000000E+020
 30
-1.0000000000000000E+020
  9
$PLIMMIN
 10
0.0
 20
0.0
  9
$PLIMMAX
 10
12.0
 20
9.0
  9
$UNITMODE
 70
     0
  9
$VISRETAIN
 70
     0
  9
$PLINEGEN
 70
     1
  9
$PSLTSCALE
 70
     0
  0
ENDSEC
  0
SECTION
  2
TABLES
  0
TABLE
  2
VPORT
 70
     1
  0
VPORT
  2
*ACTIVE
 70
     0
 10
0.0
 20
0.0
 11
1.0
 21
1.0
 12
16800.0
 22
11880.0
 13
0.0
 23
0.0
 14
1.0
 24
1.0
 15
0.0
 25
0.0
 16
0.0
 26
0.0
 36
1.0
 17
0.0
 27
0.0
 37
0.0
 40
23981.023255813951
 41
2.195652173913043
 42
50.0
 43
0.0
 44
0.0
 50
0.0
 51
0.0
 71
     0
 72
 10000
 73
     1
 74
     1
 75
     0
 76
     0
 77
     0
 78
     0
  0
ENDTAB
  0
TABLE
  2
LTYPE
 70
     3
  0
LTYPE
  2
CONTINUOUS
 70
     0
  3
Solid line
 72
    65
 73
     0
 40
0.0
  0
LTYPE
  2
DASHED3
 70
     0
  3
------  ------  ------  ------  
 72
    65
 73
     2
 40
5.0
 49
3.75
 49
-1.25
  0
LTYPE
  2
CENTER2
 70
     0
  3
----------  --  ----------  --  
 72
    65
 73
     4
 40
20.0
 49
12.5
 49
-2.5
 49
2.5
 49
-2.5
  0
ENDTAB
  0
TABLE
  2
LAYER
 70
    17
  0
LAYER
  2
0
 70
     0
 62
     7
  6
CONTINUOUS
  0
LAYER
  2
SUNPOU
 70
     0
 62
     4
  6
CONTINUOUS
  0
LAYER
  2
0-1
 70
     0
 62
     7
  6
CONTINUOUS
  0
LAYER
  2
0-2
 70
     0
 62
     7
  6
CONTINUOUS
  0
LAYER
  2
0-5
 70
     0
 62
     7
  6
CONTINUOUS
  0
LAYER
  2
2-1
 70
     0
 62
     7
  6
CONTINUOUS
  0
LAYER
  2
2-0
 70
     0
 62
     7
  6
CONTINUOUS
  0
LAYER
  2
0-3
 70
     0
 62
     7
  6
CONTINUOUS
  0
LAYER
  2
YODOROGO
 70
     0
 62
   130
  6
CONTINUOUS
  0
LAYER
  2
WAKUSEN-01
 70
     0
 62
    50
  6
CONTINUOUS
  0
LAYER
  2
WAKUSEN-02
 70
     0
 62
   130
  6
CONTINUOUS
  0
LAYER
  2
WAKUMOJI-01
 70
     0
 62
   130
  6
CONTINUOUS
  0
LAYER
  2
FILENAME
 70
     0
 62
     7
  6
CONTINUOUS
  0
LAYER
  2
NAME
 70
     0
 62
    20
  6
CONTINUOUS
  0
LAYER
  2
0-4
 70
     0
 62
     7
  6
CONTINUOUS
  0
ENDTAB
  0
TABLE
  2
STYLE
 70
     5
  0
STYLE
  2
STANDARD
 70
     0
 40
0.0
 41
1.0
 50
0.0
 71
     0
 42
0.0
  3
txt
  4
BIGFONT
  0
STYLE
  2
00
 70
     0
 40
0.0
 41
0.6666666666666666
 50
0.0
 71
     0
 42
0.2
  3
ROMANS
  4
BIGFONT
  0
STYLE
  2
01
 70
     0
 40
3.0
 41
1.0
 50
0.0
 71
     0
 42
0.2
  3
ROMANS
  4
BIGFONT
  0
STYLE
  2
WAKUMOJI
 70
     0
 40
3.0
 41
1.0
 50
0.0
 71
     0
 42
3.0
  3
SIMPLEX
  4
BIGFONT
  0
STYLE
  2
FILENAME
 70
     0
 40
200.0
 41
1.0
 50
0.0
 71
     0
 42
200.0
  3
romans
  4
bigfont
  0
ENDTAB
  0
TABLE
  2
VIEW
 70
     0
  0
ENDTAB
  0
TABLE
  2
UCS
 70
     0
  0
ENDTAB
  0
TABLE
  2
APPID
 70
    13
  0
APPID
  2
ACAD
 70
     0
  0
APPID
  2
ACADANNOTATIVE
 70
     0
  0
APPID
  2
ACAD_PSEXT
 70
     0
  0
APPID
  2
DCO15
 70
     0
  0
APPID
  2
ACAD_MLEADERVER
 70
     0
  0
APPID
  2
ACAD_EXEMPT_FROM_CAD_STANDARDS
 70
     0
  0
APPID
  2
AUTOCAD_POSTSCRIPT_FIGURE
 70
     0
  0
APPID
  2
ACAD_DSTYLE_DIMJAG
 70
     0
  0
APPID
  2
ACAD_DSTYLE_DIMTALN
 70
     0
  0
APPID
  2
ACAD_DSTYLE_DIM_LINETYPE
 70
     0
  0
APPID
  2
ACAD_DSTYLE_DIM_EXT1_LINETYPE
 70
     0
  0
APPID
  2
ACAD_DSTYLE_DIM_EXT2_LINETYPE
 70
     0
  0
APPID
  2
ACAD_NAV_VCDISPLAY
 70
     0
  0
ENDTAB
  0
TABLE
  2
DIMSTYLE
 70
     2
  0
DIMSTYLE
  2
SUNPOU
 70
     0
  3

  4

  5

  6

  7

 40
80.0
 41
3.0
 42
1.0
 43
0.38
 44
1.0
 45
0.5
 46
0.0
 47
0.0
 48
0.0
140
2.0
141
0.09
142
0.0
143
25.399999999999999
144
1.0
145
0.0
146
1.0
147
1.0
 71
     0
 72
     0
 73
     0
 74
     0
 75
     0
 76
     0
 77
     1
 78
     8
170
     0
171
     2
172
     1
173
     0
174
     0
175
     0
176
     4
177
     4
178
     7
  0
ENDTAB
  0
ENDSEC
  0
SECTION
  2
BLOCKS
  0
BLOCK
  8
0
  2
$MODEL_SPACE
 70
     0
 10
0.0
 20
0.0
 30
0.0
  3
$MODEL_SPACE
  1

  0
ENDBLK
  5
3BAD
  8
0
  0
BLOCK
 67
     1
  8
0
  2
$PAPER_SPACE
 70
     0
 10
0.0
 20
0.0
 30
0.0
  3
$PAPER_SPACE
  1

  0
ENDBLK
  5
3BA9
 67
     1
  8
0
  0
BLOCK
  8
0
  2
_DOTSMALL
 70
     0
 10
0.0
 20
0.0
 30
0.0
  3
_DOTSMALL
  1

  0
POLYLINE
  5
3BDC
  8
0
  6
BYBLOCK
 62
     0
 66
     1
 10
0.0
 20
0.0
 30
0.0
 70
     1
 40
0.5
 41
0.5
  0
VERTEX
  5
4805
  8
0
  6
BYBLOCK
 62
     0
 10
-0.0625
 20
0.0
 30
0.0
 42
1.0
  0
VERTEX
  5
4806
  8
0
  6
BYBLOCK
 62
     0
 10
0.0625
 20
0.0
 30
0.0
 42
1.0
  0
SEQEND
  5
4807
  8
0
  6
BYBLOCK
 62
     0
  0
ENDBLK
  5
3BE0
  8
0
  0
ENDSEC
  0
SECTION
  2
ENTITIES
  0
LINE
  5
3BE1
  8
2-0
  6
CONTINUOUS
 62
     3
 10
7858.0293000000311
 20
18230.368571999981
 30
0.0
 11
7984.769957000025
 21
18445.860944999949
 31
0.0
  0
LINE
  5
3BE2
  8
2-0
  6
CONTINUOUS
 62
     3
 10
8593.2502140000252
 20
17507.897736999981
 30
0.0
 11
8719.996809000022
 21
17723.394068999991
 31
0.0
  0
LINE
  5
3BE3
  8
2-0
  6
CONTINUOUS
 62
     3
 10
8593.2502140000252
 20
17507.897736999981
 30
0.0
 11
7984.769957000025
 21
18445.860944999949
 31
0.0
  0
LINE
  5
3BE4
  8
2-0
  6
CONTINUOUS
 62
     3
 10
5373.5032890000221
 20
14107.81610199999
 30
0.0
 11
5373.5032890000221
 21
19370.262469999991
 31
0.0
  0
LINE
  5
3BE5
  8
2-0
  6
CONTINUOUS
 62
     3
 10
7858.0293000000311
 20
18230.368571999981
 30
0.0
 11
5139.8062740000241
 21
19477.906710999989
 31
0.0
  0
LINE
  5
3BE6
  8
2-0
  6
CONTINUOUS
 62
     3
 10
5306.0031510000226
 20
20162.81420199999
 30
0.0
 11
5356.5051240000248
 21
20162.81420199999
 31
0.0
  0
LINE
  5
3BE7
  8
2-0
  6
CONTINUOUS
 62
     3
 10
5306.0031510000226
 20
20185.317368999989
 30
0.0
 11
5288.0014090000222
 21
20185.317368999989
 31
0.0
  0
LINE
  5
3BE8
  8
2-0
  6
CONTINUOUS
 62
     3
 10
5356.5051240000248
 20
20202.816312999988
 30
0.0
 11
5293.0071160000243
 21
20202.816312999988
 31
0.0
  0
LINE
  5
3BE9
  8
2-0
  6
CONTINUOUS
 62
     3
 10
5288.0014090000222
 20
20197.812089999989
 30
0.0
 11
5288.0014090000222
 21
20162.81420199999
 31
0.0
  0
LINE
  5
3BEA
  8
2-0
  6
CONTINUOUS
 62
     3
 10
5361.5053880000232
 20
20167.818424999969
 30
0.0
 11
5361.5053880000232
 21
20197.812089999989
 31
0.0
  0
LINE
  5
3BEB
  8
2-0
  6
CONTINUOUS
 62
     3
 10
14134.498380000019
 20
20202.816312999988
 30
0.0
 11
14198.00331500002
 21
20202.816312999988
 31
0.0
  0
LINE
  5
3BEC
  8
2-0
  6
CONTINUOUS
 62
     3
 10
14202.99566100001
 20
20197.812089999989
 30
0.0
 11
14202.99566100001
 21
20162.81420199999
 31
0.0
  0
LINE
  5
3BED
  8
2-0
  6
CONTINUOUS
 62
     3
 10
14185.001837000011
 20
20162.81420199999
 30
0.0
 11
14134.498380000019
 21
20162.81420199999
 31
0.0
  0
LINE
  5
3BEE
  8
2-0
  6
CONTINUOUS
 62
     3
 10
14129.501085000011
 20
20167.818424999969
 30
0.0
 11
14129.501085000011
 21
20197.812089999989
 31
0.0
  0
LINE
  5
3BEF
  8
2-0
  6
CONTINUOUS
 62
     3
 10
14185.001837000011
 20
20185.317368999989
 30
0.0
 11
14202.99566100001
 21
20185.317368999989
 31
0.0
  0
LINE
  5
3BF0
  8
2-0
  6
CONTINUOUS
 62
     3
 10
8291.5032890000221
 20
14186.808790999999
 30
0.0
 11
8291.5032890000221
 21
14107.817091000001
 31
0.0
  0
LINE
  5
3BF1
  8
2-0
  6
CONTINUOUS
 62
     3
 10
8348.5035270000262
 20
17096.314676999991
 30
0.0
 11
8348.5035270000262
 21
17885.17814299999
 31
0.0
  0
LINE
  5
3BF2
  8
2-0
  6
CONTINUOUS
 62
     3
 10
8234.5030520000219
 20
17096.314676999991
 30
0.0
 11
8234.5030520000219
 21
18060.903965999991
 31
0.0
  0
LINE
  5
3BF3
  8
2-0
  6
CONTINUOUS
 62
     3
 10
8291.5032890000221
 20
17096.314676999991
 30
0.0
 11
8291.5032890000221
 21
17973.03907499999
 31
0.0
  0
LINE
  5
3BF4
  8
2-0
  6
CONTINUOUS
 62
     3
 10
8291.5032890000221
 20
17017.318028999991
 30
0.0
 11
8291.5032890000221
 21
17096.314676999991
 31
0.0
  0
LINE
  5
3BF5
  8
2-0
  6
CONTINUOUS
 62
     3
 10
8206.4958330000263
 20
20144.808500999989
 30
0.0
 11
8206.4958330000263
 21
20192.817764999982
 31
0.0
  0
LINE
  5
3BF6
  8
2-0
  6
CONTINUOUS
 62
     6
 10
7165.888154000022
 20
17250.14504499999
 30
0.0
 11
7104.7393400000255
 21
17421.91338899999
 31
0.0
  0
LINE
  5
3BF7
  8
2-0
  6
CONTINUOUS
 62
     6
 10
7001.7420190000257
 20
19920.540921999989
 30
0.0
 11
7145.6416380000264
 21
20432.812617999982
 31
0.0
  0
LINE
  5
3BF8
  8
2-0
  6
CONTINUOUS
 62
     6
 10
6588.5957060000246
 20
20026.314517999981
 30
0.0
 11
6294.6738180000239
 21
20432.812617999982
 31
0.0
  0
LINE
  5
3BF9
  8
2-0
  6
CONTINUOUS
 62
     6
 10
7145.6416380000264
 20
20432.812617999982
 30
0.0
 11
7663.3391940000247
 21
20432.812617999982
 31
0.0
  0
LINE
  5
3BFA
  8
2-0
  6
CONTINUOUS
 62
     6
 10
6535.3362640000223
 20
20322.719712999991
 30
0.0
 11
6326.1442040000247
 21
20685.050793999992
 31
0.0
  0
LINE
  5
3BFB
  8
2-0
  6
CONTINUOUS
 62
     6
 10
6252.1334690000258
 20
20813.238477999981
 30
0.0
 11
6056.0745250000236
 21
21152.818951999961
 31
0.0
  0
LINE
  5
3BFC
  8
2-0
  6
CONTINUOUS
 62
     6
 10
6056.0745250000236
 20
21152.818951999961
 30
0.0
 11
6898.5175480000253
 21
21152.818951999961
 31
0.0
  0
LINE
  5
3BFD
  8
2-0
  6
CONTINUOUS
 62
     6
 10
5484.6784970000226
 20
20432.812617999982
 30
0.0
 11
6294.6738180000239
 21
20432.812617999982
 31
0.0
  0
LINE
  5
3BFE
  8
2-0
  6
CONTINUOUS
 62
     6
 10
6304.1725380000244
 20
17421.91338899999
 30
0.0
 11
7104.7393400000255
 21
17421.91338899999
 31
0.0
  0
LINE
  5
3BFF
  8
2-0
  6
CONTINUOUS
 62
     6
 10
5538.0329560000246
 20
18208.938303999981
 30
0.0
 11
6068.0318070000249
 21
18208.938303999981
 31
0.0
  0
LINE
  5
3C00
  8
2-0
  6
CONTINUOUS
 62
     6
 10
6183.8851120000263
 20
14338.70912799999
 30
0.0
 11
6266.7754730000242
 21
14525.64355399998
 31
0.0
  0
LINE
  5
3C01
  8
2-0
  6
CONTINUOUS
 62
     6
 10
6266.7754730000242
 20
14525.64355399998
 30
0.0
 11
7066.7741530000249
 21
14525.64355399998
 31
0.0
  0
LINE
  5
3C02
  8
2-0
  6
CONTINUOUS
 62
     6
 10
7174.2926950000247
 20
13151.811562000001
 30
0.0
 11
8036.8733600000241
 21
13151.811562000001
 31
0.0
  0
LINE
  5
3C03
  8
2-0
  6
CONTINUOUS
 62
     6
 10
6768.1820860000244
 20
13815.34816999999
 30
0.0
 11
7174.2926950000247
 21
13151.811562000001
 31
0.0
  0
LINE
  5
3C04
  8
2-0
  6
CONTINUOUS
 62
     6
 10
3557.6037960000231
 20
12751.817171000001
 30
0.0
 11
4637.6043900000232
 21
12751.817171000001
 31
0.0
  0
LINE
  5
3C05
  8
2-0
  6
CONTINUOUS
 62
     6
 10
5196.1146700000236
 20
14542.085434999981
 30
0.0
 11
4637.6043900000232
 21
12751.817171000001
 31
0.0
  0
LINE
  5
3C06
  8
2-0
  6
CONTINUOUS
 62
     6
 10
5438.9941770000223
 20
18429.729847999992
 30
0.0
 11
5538.0329560000246
 21
18208.938303999981
 31
0.0
  0
LINE
  5
3C07
  8
2-0
  6
CONTINUOUS
 62
     6
 10
6581.7173740000244
 20
16594.091017999981
 30
0.0
 11
7461.7168130000291
 21
16594.091017999981
 31
0.0
  0
LINE
  5
3C08
  8
2-0
  6
CONTINUOUS
 62
     6
 10
6370.4507790000243
 20
16392.02373999999
 30
0.0
 11
6581.7173740000244
 21
16594.091017999981
 31
0.0
  0
LINE
  5
3C09
  8
2-0
  6
CONTINUOUS
 62
     6
 10
11892.78898600002
 20
21152.818951999961
 30
0.0
 11
13567.78238800002
 21
21152.818951999961
 31
0.0
  0
LINE
  5
3C0A
  8
2-0
  6
CONTINUOUS
 62
     6
 10
13758.06955
 20
20823.23306799999
 30
0.0
 11
13567.78238800002
 21
21152.818951999961
 31
0.0
  0
LINE
  5
3C0B
  8
2-0
  6
CONTINUOUS
 62
     6
 10
14051.265522000011
 20
20332.726178999979
 30
0.0
 11
13832.077810999999
 21
20695.047362999961
 31
0.0
  0
LINE
  5
3C0C
  8
2-0
  6
CONTINUOUS
 62
     6
 10
8234.5030520000219
 20
15338.68924099998
 30
0.0
 11
7969.3133810000263
 21
15707.643791999981
 31
0.0
  0
LINE
  5
3C0D
  8
2-0
  6
CONTINUOUS
 62
     6
 10
7723.0825490000243
 20
15707.643791999981
 30
0.0
 11
7969.3133810000263
 21
15707.643791999981
 31
0.0
  0
LINE
  5
3C0E
  8
2-0
  6
CONTINUOUS
 62
     6
 10
5221.554453000027
 20
14534.106985999981
 30
0.0
 11
5244.0046680000232
 21
14694.747887999991
 31
0.0
  0
LINE
  5
3C0F
  8
2-0
  6
CONTINUOUS
 62
     6
 10
5244.0046680000232
 20
14694.747887999991
 30
0.0
 11
5170.6689490000199
 21
14550.066853999961
 31
0.0
  0
LINE
  5
3C10
  8
2-0
  6
CONTINUOUS
 62
     6
 10
5244.0046680000232
 20
14694.747887999991
 30
0.0
 11
5221.554453000027
 21
14534.106985999981
 31
0.0
  0
LINE
  5
3C11
  8
2-0
  6
CONTINUOUS
 62
     6
 10
5221.554453000027
 20
14534.106985999981
 30
0.0
 11
5170.6689490000199
 21
14550.066853999961
 31
0.0
  0
LINE
  5
3C12
  8
2-0
  6
CONTINUOUS
 62
     6
 10
5170.6689490000199
 20
14550.066853999961
 30
0.0
 11
5244.0046680000232
 21
14694.747887999991
 31
0.0
  0
LINE
  5
3C13
  8
2-0
  6
CONTINUOUS
 62
     6
 10
5170.6689490000199
 20
14550.066853999961
 30
0.0
 11
5221.554453000027
 21
14534.106985999981
 31
0.0
  0
LINE
  5
3C14
  8
2-0
  6
CONTINUOUS
 62
     6
 10
6159.7384490000259
 20
14350.017128
 30
0.0
 11
6116.0113790000241
 21
14193.818265999969
 31
0.0
  0
LINE
  5
3C15
  8
2-0
  6
CONTINUOUS
 62
     6
 10
6116.0113790000241
 20
14193.818265999969
 30
0.0
 11
6208.0317740000246
 21
14327.396179999991
 31
0.0
  0
LINE
  5
3C16
  8
2-0
  6
CONTINUOUS
 62
     6
 10
6116.0113790000241
 20
14193.818265999969
 30
0.0
 11
6159.7384490000259
 21
14350.017128
 31
0.0
  0
LINE
  5
3C17
  8
2-0
  6
CONTINUOUS
 62
     6
 10
6159.7384490000259
 20
14350.017128
 30
0.0
 11
6208.0317740000246
 21
14327.396179999991
 31
0.0
  0
LINE
  5
3C18
  8
2-0
  6
CONTINUOUS
 62
     6
 10
6208.0317740000246
 20
14327.396179999991
 30
0.0
 11
6116.0113790000241
 21
14193.818265999969
 31
0.0
  0
LINE
  5
3C19
  8
2-0
  6
CONTINUOUS
 62
     6
 10
6208.0317740000246
 20
14327.396179999991
 30
0.0
 11
6159.7384490000259
 21
14350.017128
 31
0.0
  0
LINE
  5
3C1A
  8
2-0
  6
CONTINUOUS
 62
     6
 10
6790.9262590000226
 20
13829.27111399999
 30
0.0
 11
6684.6587740000241
 21
13951.82112999998
 31
0.0
  0
LINE
  5
3C1B
  8
2-0
  6
CONTINUOUS
 62
     6
 10
6684.6587740000241
 20
13951.82112999998
 30
0.0
 11
6745.437912000024
 21
13801.426216
 31
0.0
  0
LINE
  5
3C1C
  8
2-0
  6
CONTINUOUS
 62
     6
 10
6684.6587740000241
 20
13951.82112999998
 30
0.0
 11
6790.9262590000226
 21
13829.27111399999
 31
0.0
  0
LINE
  5
3C1D
  8
2-0
  6
CONTINUOUS
 62
     6
 10
6790.9262590000226
 20
13829.27111399999
 30
0.0
 11
6745.437912000024
 21
13801.426216
 31
0.0
  0
LINE
  5
3C1E
  8
2-0
  6
CONTINUOUS
 62
     6
 10
6745.437912000024
 20
13801.426216
 30
0.0
 11
6684.6587740000241
 21
13951.82112999998
 31
0.0
  0
LINE
  5
3C1F
  8
2-0
  6
CONTINUOUS
 62
     6
 10
6745.437912000024
 20
13801.426216
 30
0.0
 11
6790.9262590000226
 21
13829.27111399999
 31
0.0
  0
LINE
  5
3C20
  8
2-0
  6
CONTINUOUS
 62
     6
 10
8162.1224490000213
 20
15483.854266999981
 30
0.0
 11
8234.5030520000219
 21
15338.68924099998
 31
0.0
  0
LINE
  5
3C21
  8
2-0
  6
CONTINUOUS
 62
     6
 10
8234.5030520000219
 20
15338.68924099998
 30
0.0
 11
8118.9580570000189
 21
15452.53531399999
 31
0.0
  0
LINE
  5
3C22
  8
2-0
  6
CONTINUOUS
 62
     6
 10
8234.5030520000219
 20
15338.68924099998
 30
0.0
 11
8162.1224490000213
 21
15483.854266999981
 31
0.0
  0
LINE
  5
3C23
  8
2-0
  6
CONTINUOUS
 62
     6
 10
8162.1224490000213
 20
15483.854266999981
 30
0.0
 11
8118.9580570000189
 21
15452.53531399999
 31
0.0
  0
LINE
  5
3C24
  8
2-0
  6
CONTINUOUS
 62
     6
 10
8118.9580570000189
 20
15452.53531399999
 30
0.0
 11
8234.5030520000219
 21
15338.68924099998
 31
0.0
  0
LINE
  5
3C25
  8
2-0
  6
CONTINUOUS
 62
     6
 10
8118.9580570000189
 20
15452.53531399999
 30
0.0
 11
8162.1224490000213
 21
15483.854266999981
 31
0.0
  0
LINE
  5
3C26
  8
2-0
  6
CONTINUOUS
 62
     6
 10
6352.0179970000254
 20
16411.299302999982
 30
0.0
 11
6254.8211600000241
 21
16281.43892499998
 31
0.0
  0
LINE
  5
3C27
  8
2-0
  6
CONTINUOUS
 62
     6
 10
6254.8211600000241
 20
16281.43892499998
 30
0.0
 11
6388.8830660000303
 21
16372.76005499999
 31
0.0
  0
LINE
  5
3C28
  8
2-0
  6
CONTINUOUS
 62
     6
 10
6254.8211600000241
 20
16281.43892499998
 30
0.0
 11
6352.0179970000254
 21
16411.299302999982
 31
0.0
  0
LINE
  5
3C29
  8
2-0
  6
CONTINUOUS
 62
     6
 10
6352.0179970000254
 20
16411.299302999982
 30
0.0
 11
6388.8830660000303
 21
16372.76005499999
 31
0.0
  0
LINE
  5
3C2A
  8
2-0
  6
CONTINUOUS
 62
     6
 10
6388.8830660000303
 20
16372.76005499999
 30
0.0
 11
6254.8211600000241
 21
16281.43892499998
 31
0.0
  0
LINE
  5
3C2B
  8
2-0
  6
CONTINUOUS
 62
     6
 10
6388.8830660000303
 20
16372.76005499999
 30
0.0
 11
6352.0179970000254
 21
16411.299302999982
 31
0.0
  0
LINE
  5
3C2C
  8
2-0
  6
CONTINUOUS
 62
     6
 10
7191.5273730000217
 20
17257.477181999991
 30
0.0
 11
7209.8923570000188
 21
17096.314676999991
 31
0.0
  0
LINE
  5
3C2D
  8
2-0
  6
CONTINUOUS
 62
     6
 10
7209.8923570000188
 20
17096.314676999991
 30
0.0
 11
7140.249429000025
 21
17242.806969999991
 31
0.0
  0
LINE
  5
3C2E
  8
2-0
  6
CONTINUOUS
 62
     6
 10
7209.8923570000188
 20
17096.314676999991
 30
0.0
 11
7191.5273730000217
 21
17257.477181999991
 31
0.0
  0
LINE
  5
3C2F
  8
2-0
  6
CONTINUOUS
 62
     6
 10
7191.5273730000217
 20
17257.477181999991
 30
0.0
 11
7140.249429000025
 21
17242.806969999991
 31
0.0
  0
LINE
  5
3C30
  8
2-0
  6
CONTINUOUS
 62
     6
 10
7140.249429000025
 20
17242.806969999991
 30
0.0
 11
7209.8923570000188
 21
17096.314676999991
 31
0.0
  0
LINE
  5
3C31
  8
2-0
  6
CONTINUOUS
 62
     6
 10
7140.249429000025
 20
17242.806969999991
 30
0.0
 11
7191.5273730000217
 21
17257.477181999991
 31
0.0
  0
LINE
  5
3C32
  8
2-0
  6
CONTINUOUS
 62
     6
 10
5463.3229550000206
 20
18440.642933999981
 30
0.0
 11
5373.5032890000221
 21
18575.71142499999
 31
0.0
  0
LINE
  5
3C33
  8
2-0
  6
CONTINUOUS
 62
     6
 10
5373.5032890000221
 20
18575.71142499999
 30
0.0
 11
5414.6574810000229
 21
18418.810822999982
 31
0.0
  0
LINE
  5
3C34
  8
2-0
  6
CONTINUOUS
 62
     6
 10
5373.5032890000221
 20
18575.71142499999
 30
0.0
 11
5463.3229550000206
 21
18440.642933999981
 31
0.0
  0
LINE
  5
3C35
  8
2-0
  6
CONTINUOUS
 62
     6
 10
5463.3229550000206
 20
18440.642933999981
 30
0.0
 11
5414.6574810000229
 21
18418.810822999982
 31
0.0
  0
LINE
  5
3C36
  8
2-0
  6
CONTINUOUS
 62
     6
 10
5414.6574810000229
 20
18418.810822999982
 30
0.0
 11
5373.5032890000221
 21
18575.71142499999
 31
0.0
  0
LINE
  5
3C37
  8
2-0
  6
CONTINUOUS
 62
     6
 10
5414.6574810000229
 20
18418.810822999982
 30
0.0
 11
5463.3229550000206
 21
18440.642933999981
 31
0.0
  0
LINE
  5
3C38
  8
2-0
  6
CONTINUOUS
 62
     6
 10
6513.6867640000228
 20
20310.223011999991
 30
0.0
 11
6610.3347790000244
 21
20192.817764999982
 31
0.0
  0
LINE
  5
3C39
  8
2-0
  6
CONTINUOUS
 62
     6
 10
6610.3347790000244
 20
20192.817764999982
 30
0.0
 11
6556.9827940000196
 21
20335.220371999989
 31
0.0
  0
LINE
  5
3C3A
  8
2-0
  6
CONTINUOUS
 62
     6
 10
6610.3347790000244
 20
20192.817764999982
 30
0.0
 11
6513.6867640000228
 21
20310.223011999991
 31
0.0
  0
LINE
  5
3C3B
  8
2-0
  6
CONTINUOUS
 62
     6
 10
6513.6867640000228
 20
20310.223011999991
 30
0.0
 11
6556.9827940000196
 21
20335.220371999989
 31
0.0
  0
LINE
  5
3C3C
  8
2-0
  6
CONTINUOUS
 62
     6
 10
6556.9827940000196
 20
20335.220371999989
 30
0.0
 11
6610.3347790000244
 21
20192.817764999982
 31
0.0
  0
LINE
  5
3C3D
  8
2-0
  6
CONTINUOUS
 62
     6
 10
6556.9827940000196
 20
20335.220371999989
 30
0.0
 11
6513.6867640000228
 21
20310.223011999991
 31
0.0
  0
LINE
  5
3C3E
  8
2-0
  6
CONTINUOUS
 62
     6
 10
6481.9031190000242
 20
20148.490404999971
 30
0.0
 11
6588.5957060000246
 21
20026.314517999981
 31
0.0
  0
LINE
  5
3C3F
  8
2-0
  6
CONTINUOUS
 62
     6
 10
6588.5957060000246
 20
20026.314517999981
 30
0.0
 11
6527.2954590000263
 21
20176.49069599999
 31
0.0
  0
LINE
  5
3C40
  8
2-0
  6
CONTINUOUS
 62
     6
 10
6588.5957060000246
 20
20026.314517999981
 30
0.0
 11
6481.9031190000242
 21
20148.490404999971
 31
0.0
  0
LINE
  5
3C41
  8
2-0
  6
CONTINUOUS
 62
     6
 10
6481.9031190000242
 20
20148.490404999971
 30
0.0
 11
6527.2954590000263
 21
20176.49069599999
 31
0.0
  0
LINE
  5
3C42
  8
2-0
  6
CONTINUOUS
 62
     6
 10
6527.2954590000263
 20
20176.49069599999
 30
0.0
 11
6588.5957060000246
 21
20026.314517999981
 31
0.0
  0
LINE
  5
3C43
  8
2-0
  6
CONTINUOUS
 62
     6
 10
6527.2954590000263
 20
20176.49069599999
 30
0.0
 11
6481.9031190000242
 21
20148.490404999971
 31
0.0
  0
LINE
  5
3C44
  8
2-0
  6
CONTINUOUS
 62
     6
 10
6975.8568440000226
 20
19926.936746999989
 30
0.0
 11
6963.3591540000234
 21
19765.21205799999
 31
0.0
  0
LINE
  5
3C45
  8
2-0
  6
CONTINUOUS
 62
     6
 10
6963.3591540000234
 20
19765.21205799999
 30
0.0
 11
7027.6356070000256
 21
19914.14509799999
 31
0.0
  0
LINE
  5
3C46
  8
2-0
  6
CONTINUOUS
 62
     6
 10
6963.3591540000234
 20
19765.21205799999
 30
0.0
 11
6975.8568440000226
 21
19926.936746999989
 31
0.0
  0
LINE
  5
3C47
  8
2-0
  6
CONTINUOUS
 62
     6
 10
6975.8568440000226
 20
19926.936746999989
 30
0.0
 11
7027.6356070000256
 21
19914.14509799999
 31
0.0
  0
LINE
  5
3C48
  8
2-0
  6
CONTINUOUS
 62
     6
 10
7027.6356070000256
 20
19914.14509799999
 30
0.0
 11
6963.3591540000234
 21
19765.21205799999
 31
0.0
  0
LINE
  5
3C49
  8
2-0
  6
CONTINUOUS
 62
     6
 10
7027.6356070000256
 20
19914.14509799999
 30
0.0
 11
6975.8568440000226
 21
19926.936746999989
 31
0.0
  0
LINE
  5
3C4A
  8
2-0
  6
CONTINUOUS
 62
     6
 10
14029.61651700002
 20
20320.21958099999
 30
0.0
 11
14126.26552200002
 21
20202.816312999988
 31
0.0
  0
LINE
  5
3C4B
  8
2-0
  6
CONTINUOUS
 62
     6
 10
14126.26552200002
 20
20202.816312999988
 30
0.0
 11
14072.91452700001
 21
20345.222879999979
 31
0.0
  0
LINE
  5
3C4C
  8
2-0
  6
CONTINUOUS
 62
     6
 10
14126.26552200002
 20
20202.816312999988
 30
0.0
 11
14029.61651700002
 21
20320.21958099999
 31
0.0
  0
LINE
  5
3C4D
  8
2-0
  6
CONTINUOUS
 62
     6
 10
14029.61651700002
 20
20320.21958099999
 30
0.0
 11
14072.91452700001
 21
20345.222879999979
 31
0.0
  0
LINE
  5
3C4E
  8
2-0
  6
CONTINUOUS
 62
     6
 10
14072.91452700001
 20
20345.222879999979
 30
0.0
 11
14126.26552200002
 21
20202.816312999988
 31
0.0
  0
LINE
  5
3C4F
  8
2-0
  6
CONTINUOUS
 62
     6
 10
14072.91452700001
 20
20345.222879999979
 30
0.0
 11
14029.61651700002
 21
20320.21958099999
 31
0.0
  0
LINE
  5
3C50
  8
2-0
  6
DASHED3
 62
     6
 10
8291.5032890000221
 20
17973.03907499999
 30
0.0
 11
8291.5032890000221
 21
19794.807840999991
 31
0.0
  0
LINE
  5
3C51
  8
2-0
  6
CENTER2
 62
     6
 10
4044.005008000016
 20
19980.316444999949
 30
0.0
 11
5700.5025100000239
 21
19980.316444999949
 31
0.0
  0
LINE
  5
3C52
  8
2-0
  6
CENTER2
 62
     6
 10
4044.005008000016
 20
17062.316444999979
 30
0.0
 11
5700.5025100000239
 21
17062.316444999979
 31
0.0
  0
LINE
  5
3C53
  8
2-0
  6
CENTER2
 62
     6
 10
4044.005008000016
 20
14144.316444999969
 30
0.0
 11
5700.5025100000239
 21
14144.316444999969
 31
0.0
  0
LINE
  5
3C54
  8
2-0
  6
CENTER2
 62
     6
 10
13790.50099300002
 20
17062.316444999979
 30
0.0
 11
14416.26697400002
 21
17062.316444999979
 31
0.0
  0
LINE
  5
3C55
  8
2-0
  6
CENTER2
 62
     6
 10
13790.50099300002
 20
14144.316444999969
 30
0.0
 11
14416.26697400002
 21
14144.316444999969
 31
0.0
  0
LINE
  5
3C56
  8
2-0
  6
CONTINUOUS
 62
     3
 10
11199.499224000019
 20
14186.808790999999
 30
0.0
 11
11199.499224000019
 21
14107.817091000001
 31
0.0
  0
LINE
  5
3C57
  8
2-0
  6
CONTINUOUS
 62
     3
 10
11199.499224000019
 20
14107.817091000001
 30
0.0
 11
11199.499224000019
 21
13951.82112999998
 31
0.0
  0
LINE
  5
3C58
  8
2-0
  6
DASHED3
 62
     6
 10
11199.499224000019
 20
16571.203823999971
 30
0.0
 11
11199.499224000019
 21
19794.807840999991
 31
0.0
  0
LINE
  5
3C59
  8
2-0
  6
DASHED3
 62
     6
 10
11142.498987000021
 20
17017.318028999991
 30
0.0
 11
11142.498987000021
 21
16597.464116999981
 31
0.0
  0
LINE
  5
3C5A
  8
2-0
  6
DASHED3
 62
     6
 10
11256.504411000031
 20
17017.318028999991
 30
0.0
 11
11256.504411000031
 21
16544.949468999981
 31
0.0
  0
LINE
  5
3C5B
  8
2-0
  6
DASHED3
 62
     6
 10
14160.00047800002
 20
15212.06042699998
 30
0.0
 11
14160.00047800002
 21
16551.629353999971
 31
0.0
  0
LINE
  5
3C5C
  8
2-0
  6
DASHED3
 62
     6
 10
14117.500214000011
 20
15231.63786599999
 30
0.0
 11
14117.500214000011
 21
16571.203823999971
 31
0.0
  0
LINE
  5
3C5D
  8
2-0
  6
DASHED3
 62
     6
 10
10059.573654000011
 20
17096.314676999991
 30
0.0
 11
14117.500214000011
 21
17096.314676999991
 31
0.0
  0
LINE
  5
3C5E
  8
2-0
  6
DASHED3
 62
     6
 10
10231.07122600002
 20
17017.318028999991
 30
0.0
 11
14117.500214000011
 21
17017.318028999991
 31
0.0
  0
LINE
  5
3C5F
  8
2-0
  6
CONTINUOUS
 62
     3
 10
10149.496255000009
 20
17349.876727999981
 30
0.0
 11
9903.6568730000236
 21
17535.318028999969
 31
0.0
  0
LINE
  5
3C60
  8
2-0
  6
CONTINUOUS
 62
     3
 10
9903.6568730000236
 20
16455.434648999992
 30
0.0
 11
9543.5497810000288
 21
16727.064188999979
 31
0.0
  0
LINE
  5
3C61
  8
2-0
  6
CONTINUOUS
 62
     3
 10
9761.5333780000237
 20
17256.748718999988
 30
0.0
 11
9603.6568730000254
 21
17385.834682999979
 31
0.0
  0
LINE
  5
3C62
  8
2-0
  6
CONTINUOUS
 62
     3
 10
9603.6568730000254
 20
16305.95229299998
 30
0.0
 11
9155.5819550000288
 21
16643.92935699999
 31
0.0
  0
LINE
  5
3C63
  8
2-0
  6
CONTINUOUS
 62
     3
 10
9543.5497810000288
 20
16727.064188999979
 30
0.0
 11
10149.496255000009
 21
17349.876727999981
 31
0.0
  0
LINE
  5
3C64
  8
2-0
  6
CONTINUOUS
 62
     3
 10
9761.5333780000237
 20
17256.748718999988
 30
0.0
 11
9155.5819550000288
 21
16643.92935699999
 31
0.0
  0
LINE
  5
3C65
  8
2-0
  6
CONTINUOUS
 62
     3
 10
9603.6568730000254
 20
16305.95229299998
 30
0.0
 11
9603.6568730000254
 21
13824.49849399999
 31
0.0
  0
LINE
  5
3C66
  8
2-0
  6
CONTINUOUS
 62
     3
 10
9903.6568730000236
 20
16455.434648999992
 30
0.0
 11
9903.6568730000236
 21
13824.49849399999
 31
0.0
  0
LINE
  5
3C67
  8
2-0
  6
CONTINUOUS
 62
     3
 10
9603.6568730000254
 20
17385.834682999979
 30
0.0
 11
9603.6568730000254
 21
20245.013710999989
 31
0.0
  0
LINE
  5
3C68
  8
2-0
  6
CONTINUOUS
 62
     3
 10
9903.6568730000236
 20
17535.318028999969
 30
0.0
 11
9903.6568730000236
 21
20245.013710999989
 31
0.0
  0
LINE
  5
3C69
  8
2-0
  6
CONTINUOUS
 62
     3
 10
5306.0031510000226
 20
20144.808500999989
 30
0.0
 11
9603.6568730000254
 21
20144.808500999989
 31
0.0
  0
LINE
  5
3C6A
  8
2-0
  6
CONTINUOUS
 62
     3
 10
5361.5053880000232
 20
20192.817764999982
 30
0.0
 11
9603.6568730000254
 21
20192.817764999982
 31
0.0
  0
LINE
  5
3C6B
  8
2-0
  6
DASHED3
 62
     6
 10
5331.0050050000209
 20
20026.314517999981
 30
0.0
 11
9603.6568730000254
 21
20026.314517999981
 31
0.0
  0
LINE
  5
3C6C
  8
2-0
  6
DASHED3
 62
     6
 10
5373.5032890000221
 20
19941.31794999999
 30
0.0
 11
9603.6568730000254
 21
19941.31794999999
 31
0.0
  0
LINE
  5
3C6D
  8
2-0
  6
CONTINUOUS
 62
     3
 10
9903.6568730000236
 20
20192.817764999982
 30
0.0
 11
14126.501085000011
 21
20192.817764999982
 31
0.0
  0
LINE
  5
3C6E
  8
2-0
  6
CONTINUOUS
 62
     3
 10
9903.6568730000236
 20
20144.808500999989
 30
0.0
 11
14182.001837000011
 21
20144.808500999989
 31
0.0
  0
LINE
  5
3C6F
  8
2-0
  6
DASHED3
 62
     6
 10
9903.6568730000236
 20
20026.314517999981
 30
0.0
 11
14160.00047800002
 21
20026.314517999981
 31
0.0
  0
LINE
  5
3C70
  8
2-0
  6
DASHED3
 62
     6
 10
9903.6568730000236
 20
19941.31794999999
 30
0.0
 11
14117.500214000011
 21
19941.31794999999
 31
0.0
  0
LINE
  5
3C71
  8
2-0
  6
CONTINUOUS
 62
     3
 10
9910.001230000029
 20
17530.53353199999
 30
0.0
 11
9910.001230000029
 21
19794.807840999991
 31
0.0
  0
LINE
  5
3C72
  8
2-0
  6
CONTINUOUS
 62
     3
 10
14416.44711000003
 20
15093.92572799998
 30
0.0
 11
9955.8874610000239
 21
17144.072541999991
 31
0.0
  0
LINE
  5
3C73
  8
2-0
  6
CONTINUOUS
 62
     3
 10
9745.8110510000297
 20
17240.84724599995
 30
0.0
 11
8719.996809000022
 21
17723.394068999991
 31
0.0
  0
LINE
  5
3C74
  8
2-0
  6
CONTINUOUS
 62
     3
 10
9908.6670350000277
 20
17096.314676999991
 30
0.0
 11
10059.573654000011
 21
17096.314676999991
 31
0.0
  0
LINE
  5
3C75
  8
2-0
  6
CONTINUOUS
 62
     3
 10
9830.5492930000255
 20
17017.318028999991
 30
0.0
 11
10231.07122600002
 21
17017.318028999991
 31
0.0
  0
LINE
  5
3C76
  8
2-0
  6
CONTINUOUS
 62
     3
 10
5373.5032890000221
 20
17096.314676999991
 30
0.0
 11
9602.8997070000241
 21
17096.314676999991
 31
0.0
  0
LINE
  5
3C77
  8
2-0
  6
CONTINUOUS
 62
     3
 10
5373.5032890000221
 20
17017.318028999991
 30
0.0
 11
9524.7839450000247
 21
17017.318028999991
 31
0.0
  0
LINE
  5
3C78
  8
2-0
  6
CONTINUOUS
 62
     3
 10
9903.6568730000236
 20
14107.817091000001
 30
0.0
 11
14160.00047800002
 21
14107.817091000001
 31
0.0
  0
LINE
  5
3C79
  8
2-0
  6
CONTINUOUS
 62
     3
 10
9903.6568730000236
 20
14186.808790999999
 30
0.0
 11
14117.500214000011
 21
14186.808790999999
 31
0.0
  0
LINE
  5
3C7A
  8
2-0
  6
CONTINUOUS
 62
     3
 10
9903.6568730000236
 20
13983.82004699999
 30
0.0
 11
14199.99566100001
 21
13983.82004699999
 31
0.0
  0
LINE
  5
3C7B
  8
2-0
  6
CONTINUOUS
 62
     3
 10
9903.6568730000236
 20
13951.82112999998
 30
0.0
 11
14199.99566100001
 21
13951.82112999998
 31
0.0
  0
LINE
  5
3C7C
  8
2-0
  6
CONTINUOUS
 62
     3
 10
5331.0050050000209
 20
14107.817091000001
 30
0.0
 11
9603.6568730000254
 21
14107.817091000001
 31
0.0
  0
LINE
  5
3C7D
  8
2-0
  6
CONTINUOUS
 62
     3
 10
5373.5032890000221
 20
14186.808790999999
 30
0.0
 11
9603.6568730000254
 21
14186.808790999999
 31
0.0
  0
LINE
  5
3C7E
  8
2-0
  6
CONTINUOUS
 62
     3
 10
5291.0014090000222
 20
13983.82004699999
 30
0.0
 11
9603.6568730000254
 21
13983.82004699999
 31
0.0
  0
LINE
  5
3C7F
  8
2-0
  6
CONTINUOUS
 62
     3
 10
5291.0014090000222
 20
13951.82112999998
 30
0.0
 11
9603.6568730000254
 21
13951.82112999998
 31
0.0
  0
LINE
  5
3C80
  8
2-0
  6
CONTINUOUS
 62
     3
 10
5331.0050050000209
 20
14107.817091000001
 30
0.0
 11
5331.0050050000209
 21
19389.83792899999
 31
0.0
  0
LINE
  5
3C81
  8
2-0
  6
CONTINUOUS
 62
     3
 10
8291.5032890000221
 20
14107.817091000001
 30
0.0
 11
8291.5032890000221
 21
13951.82112999998
 31
0.0
  0
LINE
  5
3C82
  8
2-0
  6
CONTINUOUS
 62
     3
 10
8291.5032890000221
 20
14186.808790999999
 30
0.0
 11
8291.5032890000221
 21
17017.318028999991
 31
0.0
  0
LINE
  5
3C83
  8
2-0
  6
CONTINUOUS
 62
     3
 10
8348.5035270000262
 20
14186.808790999999
 30
0.0
 11
8348.5035270000262
 21
17017.318028999991
 31
0.0
  0
LINE
  5
3C84
  8
2-0
  6
CONTINUOUS
 62
     3
 10
11142.498987000021
 20
14186.808790999999
 30
0.0
 11
11142.498987000021
 21
16597.464116999981
 31
0.0
  0
LINE
  5
3C85
  8
2-0
  6
CONTINUOUS
 62
     3
 10
11199.499224000019
 20
14186.808790999999
 30
0.0
 11
11199.499224000019
 21
16571.203823999971
 31
0.0
  0
LINE
  5
3C86
  8
2-0
  6
CONTINUOUS
 62
     3
 10
11256.504411000031
 20
14186.808790999999
 30
0.0
 11
11256.504411000031
 21
16544.949468999981
 31
0.0
  0
LINE
  5
3C87
  8
2-0
  6
CONTINUOUS
 62
     3
 10
14160.00047800002
 20
14107.817091000001
 30
0.0
 11
14160.00047800002
 21
15212.06042699998
 31
0.0
  0
LINE
  5
3C88
  8
2-0
  6
CONTINUOUS
 62
     3
 10
14117.500214000011
 20
14107.817091000001
 30
0.0
 11
14117.500214000011
 21
15231.63786599999
 31
0.0
  0
LINE
  5
3C89
  8
2-0
  6
CONTINUOUS
 62
     3
 10
5288.0014090000222
 20
13951.82112999998
 30
0.0
 11
5288.0014090000222
 21
20162.81420199999
 31
0.0
  0
LINE
  5
3C8A
  8
2-0
  6
CONTINUOUS
 62
     3
 10
5306.0031510000226
 20
19399.967125999989
 30
0.0
 11
5306.0031510000226
 21
20185.317368999989
 31
0.0
  0
LINE
  5
3C8B
  8
2-0
  6
DASHED3
 62
     6
 10
5331.0050050000209
 20
19389.831990999981
 30
0.0
 11
5331.0050050000209
 21
20026.314517999981
 31
0.0
  0
LINE
  5
3C8C
  8
2-0
  6
DASHED3
 62
     6
 10
5373.5032890000221
 20
19370.254551999991
 30
0.0
 11
5373.5032890000221
 21
20026.314517999981
 31
0.0
  0
LINE
  5
3C8D
  8
2-0
  6
CONTINUOUS
 62
     3
 10
14185.001837000011
 20
13983.82004699999
 30
0.0
 11
14185.001837000011
 21
20185.317368999989
 31
0.0
  0
LINE
  5
3C8E
  8
2-0
  6
CONTINUOUS
 62
     3
 10
14202.99566100001
 20
13951.82112999998
 30
0.0
 11
14202.99566100001
 21
20185.317368999989
 31
0.0
  0
LINE
  5
3C8F
  8
2-0
  6
CONTINUOUS
 62
     3
 10
14082.98136900003
 20
15247.542307999969
 30
0.0
 11
14082.98136900003
 21
20144.808500999989
 31
0.0
  0
LINE
  5
3C90
  8
2-0
  6
DASHED3
 62
     6
 10
14160.00047800002
 20
16551.629353999971
 30
0.0
 11
14160.00047800002
 21
20026.314517999981
 31
0.0
  0
LINE
  5
3C91
  8
2-0
  6
DASHED3
 62
     6
 10
14117.500214000011
 20
16571.203823999971
 30
0.0
 11
14117.500214000011
 21
20026.314517999981
 31
0.0
  0
LINE
  5
3C92
  8
2-0
  6
CONTINUOUS
 62
     3
 10
14119.979561
 20
15230.49568399999
 30
0.0
 11
14119.979561
 21
20144.808500999989
 31
0.0
  0
LINE
  5
3C93
  8
2-0
  6
DASHED3
 62
     6
 10
8234.5030520000219
 20
18060.903965999991
 30
0.0
 11
8234.5030520000219
 21
19941.31794999999
 31
0.0
  0
LINE
  5
3C94
  8
2-0
  6
DASHED3
 62
     6
 10
8348.5035270000262
 20
17885.17814299999
 30
0.0
 11
8348.5035270000262
 21
19941.31794999999
 31
0.0
  0
LINE
  5
3C95
  8
2-0
  6
DASHED3
 62
     6
 10
11142.498987000021
 20
17096.314676999991
 30
0.0
 11
11142.498987000021
 21
19941.31794999999
 31
0.0
  0
LINE
  5
3C96
  8
2-0
  6
DASHED3
 62
     6
 10
11256.504411000031
 20
17096.314676999991
 30
0.0
 11
11256.504411000031
 21
19941.31794999999
 31
0.0
  0
LINE
  5
3C97
  8
2-0
  6
CONTINUOUS
 62
     3
 10
8073.0050180000244
 20
18309.856140999989
 30
0.0
 11
8073.0050180000244
 21
20144.808500999989
 31
0.0
  0
LINE
  5
3C98
  8
2-0
  6
CONTINUOUS
 62
     3
 10
8109.9992510000257
 20
18252.822251999991
 30
0.0
 11
8109.9992510000257
 21
20144.808500999989
 31
0.0
  0
LINE
  5
3C99
  8
2-0
  6
CONTINUOUS
 62
     3
 10
7910.0040350000208
 20
18318.730322999982
 30
0.0
 11
7910.0040350000208
 21
20144.808500999989
 31
0.0
  0
LINE
  5
3C9A
  8
2-0
  6
CONTINUOUS
 62
     3
 10
7873.0068320000209
 20
18255.827160999961
 30
0.0
 11
7873.0068320000209
 21
20144.808500999989
 31
0.0
  0
LINE
  5
3C9B
  8
2-0
  6
CONTINUOUS
 62
     3
 10
7710.0028800000246
 20
18298.559027999981
 30
0.0
 11
7710.0028800000246
 21
20144.808500999989
 31
0.0
  0
LINE
  5
3C9C
  8
2-0
  6
CONTINUOUS
 62
     3
 10
7673.0032030000211
 20
18315.606642999981
 30
0.0
 11
7673.0032030000211
 21
20144.808500999989
 31
0.0
  0
LINE
  5
3C9D
  8
2-0
  6
CONTINUOUS
 62
     3
 10
7509.9933120000269
 20
18390.683843999981
 30
0.0
 11
7509.9933120000269
 21
20144.808500999989
 31
0.0
  0
LINE
  5
3C9E
  8
2-0
  6
CONTINUOUS
 62
     3
 10
7473.0050180000198
 20
18407.735416999989
 30
0.0
 11
7473.0050180000198
 21
20144.808500999989
 31
0.0
  0
LINE
  5
3C9F
  8
2-0
  6
CONTINUOUS
 62
     3
 10
7310.0010650000258
 20
18482.818556999991
 30
0.0
 11
7310.0010650000258
 21
20144.808500999989
 31
0.0
  0
LINE
  5
3CA0
  8
2-0
  6
CONTINUOUS
 62
     3
 10
7273.0068320000209
 20
18499.860231999992
 30
0.0
 11
7273.0068320000209
 21
20144.808500999989
 31
0.0
  0
LINE
  5
3CA1
  8
2-0
  6
CONTINUOUS
 62
     3
 10
7110.0028800000264
 20
18574.945350999991
 30
0.0
 11
7110.0028800000264
 21
20144.808500999989
 31
0.0
  0
LINE
  5
3CA2
  8
2-0
  6
CONTINUOUS
 62
     3
 10
7073.0032030000257
 20
18591.994944999991
 30
0.0
 11
7073.0032030000257
 21
20144.808500999989
 31
0.0
  0
LINE
  5
3CA3
  8
2-0
  6
CONTINUOUS
 62
     3
 10
6510.0053540000226
 20
18851.34157199995
 30
0.0
 11
6510.0053540000226
 21
20144.808500999989
 31
0.0
  0
LINE
  5
3CA4
  8
2-0
  6
CONTINUOUS
 62
     3
 10
6473.0027080000236
 20
18868.379287999978
 30
0.0
 11
6473.0027080000236
 21
20144.808500999989
 31
0.0
  0
LINE
  5
3CA5
  8
2-0
  6
CONTINUOUS
 62
     3
 10
6673.0038630000226
 20
18776.248533999991
 30
0.0
 11
6673.0038630000226
 21
20144.808500999989
 31
0.0
  0
LINE
  5
3CA6
  8
2-0
  6
CONTINUOUS
 62
     3
 10
6710.0005710000223
 20
18759.206858999991
 30
0.0
 11
6710.0005710000223
 21
20144.808500999989
 31
0.0
  0
LINE
  5
3CA7
  8
2-0
  6
CONTINUOUS
 62
     3
 10
6873.0020490000243
 20
18684.121739999991
 30
0.0
 11
6873.0020490000243
 21
20144.808500999989
 31
0.0
  0
LINE
  5
3CA8
  8
2-0
  6
CONTINUOUS
 62
     3
 10
6909.9987560000254
 20
18667.080063999991
 30
0.0
 11
6909.9987560000254
 21
20144.808500999989
 31
0.0
  0
LINE
  5
3CA9
  8
2-0
  6
CONTINUOUS
 62
     3
 10
6310.0042000000249
 20
18943.462427999992
 30
0.0
 11
6310.0042000000249
 21
20144.808500999989
 31
0.0
  0
LINE
  5
3CAA
  8
2-0
  6
CONTINUOUS
 62
     3
 10
5500.0059090000204
 20
19311.98544299999
 30
0.0
 11
5500.0059090000204
 21
20144.808500999989
 31
0.0
  0
LINE
  5
3CAB
  8
2-0
  6
CONTINUOUS
 62
     3
 10
5463.0067270000209
 20
19329.029097999992
 30
0.0
 11
5463.0067270000209
 21
20144.808500999989
 31
0.0
  0
LINE
  5
3CAC
  8
2-0
  6
CONTINUOUS
 62
     3
 10
5710.0042000000249
 20
19219.85666899999
 30
0.0
 11
5710.0042000000249
 21
20144.808500999989
 31
0.0
  0
LINE
  5
3CAD
  8
2-0
  6
CONTINUOUS
 62
     3
 10
5673.0045230000196
 20
19236.906261999949
 30
0.0
 11
5673.0045230000196
 21
20144.808500999989
 31
0.0
  0
LINE
  5
3CAE
  8
2-0
  6
CONTINUOUS
 62
     3
 10
5910.0023850000262
 20
19127.72987399995
 30
0.0
 11
5910.0023850000262
 21
20144.808500999989
 31
0.0
  0
LINE
  5
3CAF
  8
2-0
  6
CONTINUOUS
 62
     3
 10
5873.0056780000259
 20
19144.773528999991
 30
0.0
 11
5873.0056780000259
 21
20144.808500999989
 31
0.0
  0
LINE
  5
3CB0
  8
2-0
  6
CONTINUOUS
 62
     3
 10
6073.0038630000254
 20
19052.64475499999
 30
0.0
 11
6073.0038630000254
 21
20144.808500999989
 31
0.0
  0
LINE
  5
3CB1
  8
2-0
  6
CONTINUOUS
 62
     3
 10
6110.0035400000243
 20
19035.589222999992
 30
0.0
 11
6110.0035400000243
 21
20144.808500999989
 31
0.0
  0
LINE
  5
3CB2
  8
2-0
  6
CONTINUOUS
 62
     3
 10
6273.0020490000279
 20
18960.504102999981
 30
0.0
 11
6273.0020490000279
 21
20144.808500999989
 31
0.0
  0
LINE
  5
3CB3
  8
2-0
  6
CONTINUOUS
 62
     3
 10
5423.5053940000198
 20
13983.82004699999
 30
0.0
 11
5423.5053940000198
 21
20144.808500999989
 31
0.0
  0
LINE
  5
3CB4
  8
2-0
  6
CONTINUOUS
 62
     3
 10
8272.997760000022
 20
18001.557998999971
 30
0.0
 11
8272.997760000022
 21
20144.808500999989
 31
0.0
  0
LINE
  5
3CB5
  8
2-0
  6
CONTINUOUS
 62
     3
 10
8310.0058490000265
 20
17944.524109999991
 30
0.0
 11
8310.0058490000265
 21
20144.808500999989
 31
0.0
  0
LINE
  5
3CB6
  8
2-0
  6
CONTINUOUS
 62
     3
 10
8510.0015600000224
 20
17636.225967999992
 30
0.0
 11
8510.0015600000224
 21
20144.808500999989
 31
0.0
  0
LINE
  5
3CB7
  8
2-0
  6
CONTINUOUS
 62
     3
 10
9473.0007290000212
 20
17376.517088999979
 30
0.0
 11
9473.0007290000212
 21
20144.808500999989
 31
0.0
  0
LINE
  5
3CB8
  8
2-0
  6
CONTINUOUS
 62
     3
 10
9510.0018900000232
 20
17359.47739299999
 30
0.0
 11
9510.0018900000232
 21
20144.808500999989
 31
0.0
  0
LINE
  5
3CB9
  8
2-0
  6
CONTINUOUS
 62
     3
 10
9273.0050180000198
 20
17468.649821999981
 30
0.0
 11
9273.0050180000198
 21
20144.808500999989
 31
0.0
  0
LINE
  5
3CBA
  8
2-0
  6
CONTINUOUS
 62
     3
 10
9310.0061790000327
 20
17451.608146999992
 30
0.0
 11
9310.0061790000327
 21
20144.808500999989
 31
0.0
  0
LINE
  5
3CBB
  8
2-0
  6
CONTINUOUS
 62
     3
 10
9110.0015600000206
 20
17543.734941999981
 30
0.0
 11
9110.0015600000206
 21
20144.808500999989
 31
0.0
  0
LINE
  5
3CBC
  8
2-0
  6
CONTINUOUS
 62
     3
 10
9073.0013890000228
 20
17560.776616999981
 30
0.0
 11
9073.0013890000228
 21
20144.808500999989
 31
0.0
  0
LINE
  5
3CBD
  8
2-0
  6
CONTINUOUS
 62
     3
 10
8873.0007290000212
 20
17652.911329999992
 30
0.0
 11
8873.0007290000212
 21
20144.808500999989
 31
0.0
  0
LINE
  5
3CBE
  8
2-0
  6
CONTINUOUS
 62
     3
 10
8909.9979310000199
 20
17635.869654999991
 30
0.0
 11
8909.9979310000199
 21
20144.808500999989
 31
0.0
  0
LINE
  5
3CBF
  8
2-0
  6
CONTINUOUS
 62
     3
 10
8709.9992510000247
 20
17706.411778999991
 30
0.0
 11
8709.9992510000247
 21
20144.808500999989
 31
0.0
  0
LINE
  5
3CC0
  8
2-0
  6
CONTINUOUS
 62
     3
 10
8673.0050180000326
 20
17651.139660999961
 30
0.0
 11
8673.0050180000326
 21
20144.808500999989
 31
0.0
  0
LINE
  5
3CC1
  8
2-0
  6
CONTINUOUS
 62
     3
 10
8472.9984190000268
 20
17693.265795999981
 30
0.0
 11
8472.9984190000268
 21
20144.808500999989
 31
0.0
  0
LINE
  5
3CC2
  8
2-0
  6
CONTINUOUS
 62
     3
 10
10910.00156000001
 20
16704.565969999981
 30
0.0
 11
10910.00156000001
 21
20144.808500999989
 31
0.0
  0
LINE
  5
3CC3
  8
2-0
  6
CONTINUOUS
 62
     3
 10
10873.00039900001
 20
16721.607645999979
 30
0.0
 11
10873.00039900001
 21
20144.808500999989
 31
0.0
  0
LINE
  5
3CC4
  8
2-0
  6
CONTINUOUS
 62
     3
 10
10710.000900000019
 20
16796.690784999992
 30
0.0
 11
10710.000900000019
 21
20144.808500999989
 31
0.0
  0
LINE
  5
3CC5
  8
2-0
  6
CONTINUOUS
 62
     3
 10
10673.00072899999
 20
16813.734439999989
 30
0.0
 11
10673.00072899999
 21
20144.808500999989
 31
0.0
  0
LINE
  5
3CC6
  8
2-0
  6
CONTINUOUS
 62
     3
 10
10473.00303800001
 20
16905.86321499999
 30
0.0
 11
10473.00303800001
 21
20144.808500999989
 31
0.0
  0
LINE
  5
3CC7
  8
2-0
  6
CONTINUOUS
 62
     3
 10
10510.00222000002
 20
16888.825497999991
 30
0.0
 11
10510.00222000002
 21
20144.808500999989
 31
0.0
  0
LINE
  5
3CC8
  8
2-0
  6
CONTINUOUS
 62
     3
 10
10309.99859100002
 20
16980.954271999992
 30
0.0
 11
10309.99859100002
 21
20144.808500999989
 31
0.0
  0
LINE
  5
3CC9
  8
2-0
  6
CONTINUOUS
 62
     3
 10
10273.000399
 20
16997.997926999989
 30
0.0
 11
10273.000399
 21
20144.808500999989
 31
0.0
  0
LINE
  5
3CCA
  8
2-0
  6
CONTINUOUS
 62
     3
 10
10072.99973900001
 20
17090.126701999969
 30
0.0
 11
10072.99973900001
 21
20144.808500999989
 31
0.0
  0
LINE
  5
3CCB
  8
2-0
  6
CONTINUOUS
 62
     3
 10
10109.998921
 20
17073.087005999991
 30
0.0
 11
10109.998921
 21
20144.808500999989
 31
0.0
  0
LINE
  5
3CCC
  8
2-0
  6
CONTINUOUS
 62
     3
 10
11072.999078999999
 20
16629.480850999978
 30
0.0
 11
11072.999078999999
 21
20144.808500999989
 31
0.0
  0
LINE
  5
3CCD
  8
2-0
  6
CONTINUOUS
 62
     3
 10
11110.000241000011
 20
16612.436205999991
 30
0.0
 11
11110.000241000011
 21
20144.808500999989
 31
0.0
  0
LINE
  5
3CCE
  8
2-0
  6
CONTINUOUS
 62
     3
 10
11309.997931000011
 20
16520.304461999989
 30
0.0
 11
11309.997931000011
 21
20144.808500999989
 31
0.0
  0
LINE
  5
3CCF
  8
2-0
  6
CONTINUOUS
 62
     3
 10
11273.001719000011
 20
16537.34613799999
 30
0.0
 11
11273.001719000011
 21
20144.808500999989
 31
0.0
  0
LINE
  5
3CD0
  8
2-0
  6
CONTINUOUS
 62
     3
 10
11509.99760100001
 20
16428.177667999989
 30
0.0
 11
11509.99760100001
 21
20144.808500999989
 31
0.0
  0
LINE
  5
3CD1
  8
2-0
  6
CONTINUOUS
 62
     3
 10
11473.00039900001
 20
16445.227260999982
 30
0.0
 11
11473.00039900001
 21
20144.808500999989
 31
0.0
  0
LINE
  5
3CD2
  8
2-0
  6
CONTINUOUS
 62
     3
 10
11709.99628200002
 20
16336.04889299999
 30
0.0
 11
11709.99628200002
 21
20144.808500999989
 31
0.0
  0
LINE
  5
3CD3
  8
2-0
  6
CONTINUOUS
 62
     3
 10
11672.99512000002
 20
16353.09551799998
 30
0.0
 11
11672.99512000002
 21
20144.808500999989
 31
0.0
  0
LINE
  5
3CD4
  8
2-0
  6
CONTINUOUS
 62
     3
 10
11909.994962000001
 20
16243.919128999991
 30
0.0
 11
11909.994962000001
 21
20144.808500999989
 31
0.0
  0
LINE
  5
3CD5
  8
2-0
  6
CONTINUOUS
 62
     3
 10
12109.99265200001
 20
16151.78936499999
 30
0.0
 11
12109.99265200001
 21
20144.808500999989
 31
0.0
  0
LINE
  5
3CD6
  8
2-0
  6
CONTINUOUS
 62
     3
 10
12072.99545000002
 20
16168.83104099999
 30
0.0
 11
12072.99545000002
 21
20144.808500999989
 31
0.0
  0
LINE
  5
3CD7
  8
2-0
  6
CONTINUOUS
 62
     3
 10
12309.99331200001
 20
16059.66059099998
 30
0.0
 11
12309.99331200001
 21
20144.808500999989
 31
0.0
  0
LINE
  5
3CD8
  8
2-0
  6
CONTINUOUS
 62
     3
 10
12272.99512000002
 20
16076.704245999959
 30
0.0
 11
12272.99512000002
 21
20144.808500999989
 31
0.0
  0
LINE
  5
3CD9
  8
2-0
  6
CONTINUOUS
 62
     3
 10
12472.99281100002
 20
15984.574481999991
 30
0.0
 11
12472.99281100002
 21
20144.808500999989
 31
0.0
  0
LINE
  5
3CDA
  8
2-0
  6
CONTINUOUS
 62
     3
 10
12709.98968300002
 20
15875.40106299999
 30
0.0
 11
12709.98968300002
 21
20144.808500999989
 31
0.0
  0
LINE
  5
3CDB
  8
2-0
  6
CONTINUOUS
 62
     3
 10
12672.99149100001
 20
15892.445707999979
 30
0.0
 11
12672.99149100001
 21
20144.808500999989
 31
0.0
  0
LINE
  5
3CDC
  8
2-0
  6
CONTINUOUS
 62
     3
 10
12909.98935300001
 20
15783.27228899995
 30
0.0
 11
12909.98935300001
 21
20144.808500999989
 31
0.0
  0
LINE
  5
3CDD
  8
2-0
  6
CONTINUOUS
 62
     3
 10
12872.989182000019
 20
15800.315943999991
 30
0.0
 11
12872.989182000019
 21
20144.808500999989
 31
0.0
  0
LINE
  5
3CDE
  8
2-0
  6
CONTINUOUS
 62
     3
 10
13109.99001300001
 20
15691.14252499999
 30
0.0
 11
13109.99001300001
 21
20144.808500999989
 31
0.0
  0
LINE
  5
3CDF
  8
2-0
  6
CONTINUOUS
 62
     3
 10
13072.988852
 20
15708.186179999961
 30
0.0
 11
13072.988852
 21
20144.808500999989
 31
0.0
  0
LINE
  5
3CE0
  8
2-0
  6
CONTINUOUS
 62
     3
 10
13309.985724000009
 20
15599.01374999998
 30
0.0
 11
13309.985724000009
 21
20144.808500999989
 31
0.0
  0
LINE
  5
3CE1
  8
2-0
  6
CONTINUOUS
 62
     3
 10
13272.987532000019
 20
15616.05740499998
 30
0.0
 11
13272.987532000019
 21
20144.808500999989
 31
0.0
  0
LINE
  5
3CE2
  8
2-0
  6
CONTINUOUS
 62
     3
 10
13509.98341500003
 20
15506.88398599999
 30
0.0
 11
13509.98341500003
 21
20144.808500999989
 31
0.0
  0
LINE
  5
3CE3
  8
2-0
  6
CONTINUOUS
 62
     3
 10
13472.985223
 20
15523.92764099998
 30
0.0
 11
13472.985223
 21
20144.808500999989
 31
0.0
  0
LINE
  5
3CE4
  8
2-0
  6
CONTINUOUS
 62
     3
 10
13709.98308500002
 20
15414.75422199997
 30
0.0
 11
13709.98308500002
 21
20144.808500999989
 31
0.0
  0
LINE
  5
3CE5
  8
2-0
  6
CONTINUOUS
 62
     3
 10
13672.98687200003
 20
15431.79886699998
 30
0.0
 11
13672.98687200003
 21
20144.808500999989
 31
0.0
  0
LINE
  5
3CE6
  8
2-0
  6
CONTINUOUS
 62
     3
 10
13919.98187100002
 20
15322.62544799999
 30
0.0
 11
13919.98187100002
 21
20144.808500999989
 31
0.0
  0
LINE
  5
3CE7
  8
2-0
  6
CONTINUOUS
 62
     3
 10
13882.981699
 20
15339.66910299998
 30
0.0
 11
13882.981699
 21
20144.808500999989
 31
0.0
  0
LINE
  5
3CE8
  8
2-0
  6
CONTINUOUS
 62
     3
 10
11872.996770000011
 20
16260.968722999991
 30
0.0
 11
11872.996770000011
 21
20144.808500999989
 31
0.0
  0
LINE
  5
3CE9
  8
2-0
  6
CONTINUOUS
 62
     3
 10
12509.991003000019
 20
15967.52488799998
 30
0.0
 11
12509.991003000019
 21
20144.808500999989
 31
0.0
  0
LINE
  5
3CEA
  8
2-0
  6
CENTER2
 62
     6
 10
5373.5032890000221
 20
21222.814729999998
 30
0.0
 11
5373.5032890000221
 21
14467.812907999991
 31
0.0
  0
LINE
  5
3CEB
  8
2-0
  6
CENTER2
 62
     6
 10
8291.5032890000221
 20
21222.814729999998
 30
0.0
 11
8291.5032890000221
 21
14546.80460799998
 31
0.0
  0
LINE
  5
3CEC
  8
2-0
  6
CENTER2
 62
     6
 10
11199.499224000019
 20
21222.814729999998
 30
0.0
 11
11199.499224000019
 21
14186.808790999999
 31
0.0
  0
LINE
  5
3CED
  8
2-0
  6
CENTER2
 62
     6
 10
14117.50318300001
 20
21222.814729999998
 30
0.0
 11
14117.50318300001
 21
14107.817091000001
 31
0.0
  0
LINE
  5
3CEE
  8
2-0
  6
CONTINUOUS
 62
     3
 10
8234.5030520000219
 20
14186.808790999999
 30
0.0
 11
8234.5030520000219
 21
17017.318028999991
 31
0.0
  0
LINE
  5
3CEF
  8
2-1
  6
CONTINUOUS
 62
     3
 10
5443.5030250000236
 20
14144.316444999969
 30
0.0
 11
8221.5030580000202
 21
17062.316444999979
 31
0.0
  0
LINE
  5
3CF0
  8
2-1
  6
CONTINUOUS
 62
     3
 10
5443.5030250000236
 20
17062.316444999979
 30
0.0
 11
8221.5030580000202
 21
14144.316444999969
 31
0.0
  0
LINE
  5
3CF1
  8
2-1
  6
DASHED3
 62
     6
 10
11269.49995000001
 20
17062.312485999992
 30
0.0
 11
14047.50146800002
 21
19980.31842499999
 31
0.0
  0
LINE
  5
3CF2
  8
2-1
  6
DASHED3
 62
     6
 10
11269.49995000001
 20
19980.31842499999
 30
0.0
 11
14047.50146800002
 21
17062.312485999992
 31
0.0
  0
LINE
  5
3CF3
  8
2-1
  6
DASHED3
 62
     6
 10
9903.6568730000236
 20
18692.471348999981
 30
0.0
 11
11129.50344700001
 21
19980.31842499999
 31
0.0
  0
LINE
  5
3CF4
  8
2-1
  6
DASHED3
 62
     6
 10
9903.6568730000236
 20
18360.16164699999
 30
0.0
 11
11129.50344700001
 21
17062.312485999992
 31
0.0
  0
LINE
  5
3CF5
  8
2-1
  6
DASHED3
 62
     6
 10
8361.5000560000226
 20
19980.31842499999
 30
0.0
 11
9603.6568730000254
 21
18675.336635999982
 31
0.0
  0
LINE
  5
3CF6
  8
2-1
  6
CONTINUOUS
 62
     3
 10
9903.6568730000236
 20
15442.159666999991
 30
0.0
 11
11129.50344700001
 21
14144.316444999969
 31
0.0
  0
LINE
  5
3CF7
  8
2-1
  6
CONTINUOUS
 62
     3
 10
8361.5000560000226
 20
14144.316444999969
 30
0.0
 11
9603.6568730000254
 21
15459.294379999979
 31
0.0
  0
LINE
  5
3CF8
  8
2-1
  6
CONTINUOUS
 62
     3
 10
8361.5000560000226
 20
17062.316444999979
 30
0.0
 11
9603.6568730000254
 21
15757.333666999981
 31
0.0
  0
LINE
  5
3CF9
  8
2-1
  6
DASHED3
 62
     6
 10
6952.7434900000262
 20
18647.387812999961
 30
0.0
 11
8221.5030580000202
 21
19980.31842499999
 31
0.0
  0
LINE
  5
3CFA
  8
2-1
  6
DASHED3
 62
     6
 10
5443.5030250000236
 20
19980.31842499999
 30
0.0
 11
6542.2868480000243
 21
18836.46350999999
 31
0.0
  0
LINE
  5
3CFB
  8
2-1
  6
CONTINUOUS
 62
     3
 10
6542.2868480000243
 20
18836.46350999999
 30
0.0
 11
8221.5030580000202
 21
17062.312485999992
 31
0.0
  0
LINE
  5
3CFC
  8
2-1
  6
CONTINUOUS
 62
     3
 10
5443.5030250000236
 20
17062.312485999992
 30
0.0
 11
6952.7434900000262
 21
18647.387812999961
 31
0.0
  0
LINE
  5
3CFD
  8
2-1
  6
CONTINUOUS
 62
     3
 10
8361.5000560000226
 20
17062.312485999992
 30
0.0
 11
8901.6037830000241
 21
17639.73763399999
 31
0.0
  0
LINE
  5
3CFE
  8
2-1
  6
DASHED3
 62
     6
 10
8901.6037830000241
 20
17639.73763399999
 30
0.0
 11
9603.6568730000254
 21
18377.298338999972
 31
0.0
  0
LINE
  5
3CFF
  8
2-1
  6
DASHED3
 62
     6
 10
11269.49995000001
 20
17062.316444999979
 30
0.0
 11
12156.65485400002
 21
16130.29179399999
 31
0.0
  0
LINE
  5
3D00
  8
2-1
  6
CONTINUOUS
 62
     3
 10
12156.65485400002
 20
16130.29179399999
 30
0.0
 11
14047.50146800002
 21
14144.316444999969
 31
0.0
  0
LINE
  5
3D01
  8
2-1
  6
DASHED3
 62
     6
 10
12847.453392000019
 20
15812.076263999979
 30
0.0
 11
14047.50146800002
 21
17062.316444999979
 31
0.0
  0
LINE
  5
3D02
  8
2-1
  6
CONTINUOUS
 62
     3
 10
11269.49995000001
 20
14144.316444999969
 30
0.0
 11
12847.454382000011
 21
15812.076263999979
 31
0.0
  0
LINE
  5
3D03
  8
2-1
  6
CONTINUOUS
 62
     3
 10
9903.6568730000236
 20
15774.46837999998
 30
0.0
 11
10825.86410300002
 21
16743.319994999991
 31
0.0
  0
LINE
  5
3D04
  8
2-1
  6
DASHED3
 62
     6
 10
10825.86410300002
 20
16743.319994999991
 30
0.0
 11
11129.50344700001
 21
17062.316444999979
 31
0.0
  0
CIRCLE
  5
3D05
  8
0-5
  6
CONTINUOUS
 62
     4
 10
15128.71667799999
 20
1375.999857999999
 30
0.0
 40
20.0
  0
ARC
  5
3D06
  8
0-5
  6
CONTINUOUS
 62
     4
 10
15128.71667799999
 20
1375.999857999999
 30
0.0
 40
20.0
 50
180.0
 51
0.0
  0
ARC
  5
3D07
  8
0-5
  6
CONTINUOUS
 62
     4
 10
15128.71667799999
 20
1375.999857999999
 30
0.0
 40
20.0
 50
0.0
 51
179.99998500000001
  0
CIRCLE
  5
3D08
  8
0-5
  6
CONTINUOUS
 62
     4
 10
15128.71667799999
 20
1775.999940999998
 30
0.0
 40
20.0
  0
ARC
  5
3D09
  8
0-5
  6
CONTINUOUS
 62
     4
 10
15128.71667799999
 20
1775.999940999998
 30
0.0
 40
20.0
 50
180.0
 51
0.0
  0
ARC
  5
3D0A
  8
0-5
  6
CONTINUOUS
 62
     4
 10
15128.71667799999
 20
1775.999940999998
 30
0.0
 40
20.0
 50
0.0
 51
179.99998500000001
  0
CIRCLE
  5
3D0B
  8
2-0
  6
CONTINUOUS
 62
     4
 10
5373.5032890000221
 20
21422.81539
 30
0.0
 40
200.0000409999999
  0
CIRCLE
  5
3D0C
  8
2-0
  6
CONTINUOUS
 62
     4
 10
3844.0092970000192
 20
19980.316444999949
 30
0.0
 40
200.0000409999999
  0
CIRCLE
  5
3D0D
  8
2-0
  6
CONTINUOUS
 62
     4
 10
3844.0092970000192
 20
17062.316444999979
 30
0.0
 40
200.0000409999999
  0
CIRCLE
  5
3D0E
  8
2-0
  6
CONTINUOUS
 62
     4
 10
3844.0092970000192
 20
14144.316444999969
 30
0.0
 40
200.0000409999999
  0
ARC
  5
3D0F
  8
2-0
  6
CONTINUOUS
 62
     3
 10
5293.0071160000243
 20
20197.812089999989
 30
0.0
 40
5.0000010000000001
 50
90.0
 51
180.0
  0
ARC
  5
3D10
  8
2-0
  6
CONTINUOUS
 62
     3
 10
5356.5051240000248
 20
20197.812089999989
 30
0.0
 40
5.0000010000000001
 50
0.0
 51
90.0
  0
ARC
  5
3D11
  8
2-0
  6
CONTINUOUS
 62
     3
 10
5356.5051240000248
 20
20167.818424999969
 30
0.0
 40
5.0000010000000001
 50
269.9999850001808
 51
0.0
  0
ARC
  5
3D12
  8
2-0
  6
CONTINUOUS
 62
     3
 10
14134.498380000019
 20
20167.818424999969
 30
0.0
 40
5.0000010000000001
 50
180.0
 51
269.9999850001808
  0
ARC
  5
3D13
  8
2-0
  6
CONTINUOUS
 62
     3
 10
14134.498380000019
 20
20197.812089999989
 30
0.0
 40
5.0000010000000001
 50
90.0
 51
180.0
  0
ARC
  5
3D14
  8
2-0
  6
CONTINUOUS
 62
     3
 10
14198.00331500002
 20
20197.812089999989
 30
0.0
 40
5.0000010000000001
 50
0.0
 51
90.0
  0
CIRCLE
  5
3D15
  8
2-0
  6
CONTINUOUS
 62
     4
 10
8291.5032890000221
 20
21422.813411000021
 30
0.0
 40
200.0000409999999
  0
CIRCLE
  5
3D16
  8
2-0
  6
CONTINUOUS
 62
     4
 10
11199.499224000019
 20
21422.813411000021
 30
0.0
 40
200.0000409999999
  0
CIRCLE
  5
3D17
  8
2-0
  6
CONTINUOUS
 62
     4
 10
14117.500214000011
 20
21422.813411000021
 30
0.0
 40
200.0000409999999
  0
TEXT
  5
3D18
  8
0-5
  6
CONTINUOUS
 62
     7
 10
16624.615716133289
 20
1681.3651302157371
 30
0.0
 40
160.0
  1
H
  0
TEXT
  5
3D19
  8
0-5
  6
CONTINUOUS
 62
     7
 10
15176.146932999991
 20
1655.9999159999991
 30
0.0
 40
160.0
  1
（ ）内寸法ハ、  タ イプヲ示ス。
  0
TEXT
  5
3D1A
  8
0-5
  6
CONTINUOUS
 62
     7
 10
15288.716216000001
 20
1255.9999569999991
 30
0.0
 40
160.0
  1
有効高サハ、基礎高サヲ含ミマセン。
  0
TEXT
  5
3D1B
  8
2-0
  6
CONTINUOUS
 62
     7
 10
5325.2653910000217
 20
21328.96443500002
 30
0.0
 40
160.0
  1
1
 50
0.004253
 72
     4
 11
5351.9261192849808
 21
21408.966414215702
 31
0.0
  0
TEXT
  5
3D1C
  8
2-0
  6
CONTINUOUS
 62
     7
 10
3783.7789800000201
 20
19883.613002999991
 30
0.0
 40
160.0
  1
C
 50
0.005671
 72
     4
 11
3837.1043948623742
 21
19963.61828141462
 31
0.0
  0
TEXT
  5
3D1D
  8
2-0
  6
CONTINUOUS
 62
     7
 10
3794.78114400002
 20
16971.73169499998
 30
0.0
 40
160.0
  1
B
 50
359.998582
 72
     4
 11
3848.116457218523
 21
17051.730375041141
 31
0.0
  0
TEXT
  5
3D1E
  8
2-0
  6
CONTINUOUS
 62
     7
 10
3796.8809190000238
 20
14052.71323299998
 30
0.0
 40
160.0
  1
A
 72
     4
 11
3850.2142523333569
 21
14132.71323299998
 31
0.0
  0
TEXT
  5
3D1F
  8
2-0
  6
CONTINUOUS
 62
     7
 10
7225.6488300000201
 20
20512.816840999982
 30
0.0
 40
160.0
  1
屋根
 72
     4
 11
7396.3154966666862
 21
20592.816840999982
 31
0.0
  0
TEXT
  5
3D20
  8
2-0
  6
CONTINUOUS
 62
     7
 10
6136.0787480000226
 20
21232.81525699998
 30
0.0
 40
160.0
  1
鼻隠し後
 72
     4
 11
6498.7454146666887
 21
21312.81525699998
 31
0.0
  0
TEXT
  5
3D21
  8
2-0
  6
CONTINUOUS
 62
     7
 10
5574.6684730000243
 20
20512.816840999982
 30
0.0
 40
160.0
  1
桁（後）
 72
     4
 11
5894.6684730000243
 21
20592.816840999982
 31
0.0
  0
TEXT
  5
3D22
  8
2-0
  6
CONTINUOUS
 62
     7
 10
6384.7369650000264
 20
17501.91167299997
 30
0.0
 40
160.0
  1
桁（中）
 50
359.99946799999998
 72
     4
 11
6704.737707798362
 21
17581.908701748009
 31
0.0
  0
TEXT
  5
3D23
  8
2-0
  6
CONTINUOUS
 62
     7
 10
6346.7717780000266
 20
14605.64183799997
 30
0.0
 40
160.0
  1
桁（前）
 50
359.99973399999988
 72
     4
 11
6666.7721494026428
 21
14685.64035237485
 31
0.0
  0
TEXT
  5
3D24
  8
2-0
  6
CONTINUOUS
 62
     7
 10
7254.2944430000243
 20
13231.815785000001
 30
0.0
 40
160.0
  1
鼻隠し前
 50
0.000532
 72
     4
 11
7616.9603668389282
 21
13311.819152411539
 31
0.0
  0
TEXT
  5
3D25
  8
2-0
  6
CONTINUOUS
 62
     7
 10
3637.6080190000212
 20
12831.819414
 30
0.0
 40
160.0
  1
ケラバ 左
 50
359.99976400000008
 72
     4
 11
4053.6083485146551
 21
12911.81770050488
 31
0.0
  0
TEXT
  5
3D26
  8
2-0
  6
CONTINUOUS
 62
     7
 10
5628.0263970000206
 20
18288.934608999982
 30
0.0
 40
160.0
  1
上枠
 50
359.99964599999993
 72
     4
 11
5798.6935579406754
 21
18368.93355454033
 31
0.0
  0
TEXT
  5
3D27
  8
2-0
  6
CONTINUOUS
 62
     7
 10
6661.7161530000276
 20
16674.089301999978
 30
0.0
 40
160.0
  1
ブレース
 72
     4
 11
7024.3828196666946
 21
16759.422635333311
 31
0.0
  0
TEXT
  5
3D28
  8
2-0
  6
CONTINUOUS
 62
     7
 10
11972.785291
 20
21232.81525699998
 30
0.0
 40
160.0
  1
鼻隠しコーナー後
 72
     4
 11
12719.45195766667
 21
21312.81525699998
 31
0.0
  0
TEXT
  5
3D29
  8
2-0
  6
CONTINUOUS
 62
     7
 10
7739.3175710000214
 20
15787.64504499999
 30
0.0
 40
160.0
  1
梁
 50
359.99893700000001
 72
     4
 11
7813.9857218818324
 21
15867.64365970676
 31
0.0
  0
TEXT
  5
3D2A
  8
2-0
  6
CONTINUOUS
 62
     7
 10
8248.6511660000215
 20
21336.710291000021
 30
0.0
 40
160.0
  1
2
 72
     4
 11
8301.9844993333536
 21
21416.710291000021
 31
0.0
  0
TEXT
  5
3D2B
  8
2-0
  6
CONTINUOUS
 62
     7
 10
11035.991979000009
 20
21347.32051100002
 30
0.0
 40
140.0
  1
n-1
 50
359.99952699999972
 72
     4
 11
11199.32589020629
 21
21417.319162614429
 31
0.0
  0
TEXT
  5
3D2C
  8
2-0
  6
CONTINUOUS
 62
     7
 10
14080.971168000009
 20
21361.177141000018
 30
0.0
 40
160.0
  1
n
 72
     4
 11
14134.30450133335
 21
21414.51047433335
 31
0.0
  0
TEXT
  5
3D2D
  8
2-0
  6
CONTINUOUS
 62
     7
 10
8461.4786110000223
 20
12032.110549612949
 30
0.0
 40
160.0
  1
小 屋 伏 図
 72
     4
 11
8962.8119443333562
 21
12112.110549612949
 31
0.0
  0
TEXT
  5
3D36
  8
0-3
  6
CONTINUOUS
 62
     7
 10
27544.4346805186
 20
3658.1200421350532
 30
0.0
 40
160.0
  1
連結する場合は強度上、下記間口寸法に一ヶ所
  0
TEXT
  5
3D37
  8
0-3
  6
CONTINUOUS
 62
     7
 10
27544.4346805186
 20
3451.291530856121
 30
0.0
 40
160.0
  1
中間ブレース、もしくは間仕切りが必要になります。
  0
TEXT
  5
3D38
  8
0-3
  6
CONTINUOUS
 62
     7
 10
27544.4346805186
 20
3124.142197938243
 30
0.0
 40
160.0
  1
標準タイプ：間口寸法 10.57ｍ以内に一箇所
  0
TEXT
  5
3D39
  8
0-3
  6
CONTINUOUS
 62
     7
 10
27571.745290429761
 20
2873.074148021421
 30
0.0
 40
160.0
  1
Hタイプ　：間口寸法 9.21ｍ以内に一箇所
  0
TEXT
  5
3D3A
  8
2-0
  6
CONTINUOUS
 62
     7
 10
10314.304129470969
 20
12059.305918612939
 30
0.0
 40
160.0
  1
1
 72
     4
 11
10340.970796137641
 21
12139.305918612939
 31
0.0
  0
TEXT
  5
3D3B
  8
2-0
  6
CONTINUOUS
 62
     7
 10
10557.39284672167
 20
11979.307386612951
 30
0.0
 40
160.0
  1
80
 72
     4
 11
10677.39284672167
 21
12059.307386612951
 31
0.0
  0
TEXT
  5
3D3C
  8
2-0
  6
CONTINUOUS
 62
     7
 10
9815.3060954709727
 20
12032.110549612949
 30
0.0
 40
160.0
  1
(S=  /   )
 72
     4
 11
10375.306095470971
 21
12112.110549612949
 31
0.0
  0
LINE
  5
3D3D
  8
0-5
  6
CONTINUOUS
 62
     4
 10
12181.77477100002
 20
5932.883550999999
 30
0.0
 11
17447.169922000001
 21
5932.883550999999
 31
0.0
  0
LINE
  5
3D3E
  8
0-1
  6
CONTINUOUS
 62
     3
 10
6188.2762880000082
 20
7943.9289339999968
 30
0.0
 11
12069.275694
 21
7943.9289339999968
 31
0.0
  0
LINE
  5
3D3F
  8
0-1
  6
CONTINUOUS
 62
     3
 10
5478.2764190000089
 20
5932.883550999999
 30
0.0
 11
12101.775496
 21
5932.883550999999
 31
0.0
  0
LINE
  5
3D40
  8
0-1
  6
CONTINUOUS
 62
     3
 10
6283.2763540000078
 20
6082.8835509999981
 30
0.0
 11
9056.2756280000158
 21
6082.8835509999981
 31
0.0
  0
LINE
  5
3D41
  8
0-1
  6
CONTINUOUS
 62
     3
 10
6160.7754960000093
 20
6032.8828910000011
 30
0.0
 11
12101.775496
 21
6032.8828910000011
 31
0.0
  0
LINE
  5
3D42
  8
0-1
  6
CONTINUOUS
 62
     3
 10
6283.2763540000078
 20
7943.9289339999968
 30
0.0
 11
6283.2763540000078
 21
6032.8828910000011
 31
0.0
  0
LINE
  5
3D43
  8
0-1
  6
CONTINUOUS
 62
     3
 10
6168.2742420000059
 20
8065.9642749999966
 30
0.0
 11
6168.2742420000059
 21
6032.8828910000011
 31
0.0
  0
LINE
  5
3D44
  8
0-1
  6
CONTINUOUS
 62
     3
 10
6188.2762880000082
 20
8066.5818850000032
 30
0.0
 11
6188.2762880000082
 21
6032.8828910000011
 31
0.0
  0
LINE
  5
3D45
  8
0-1
  6
CONTINUOUS
 62
     3
 10
6406.7755480000087
 20
6082.8835509999981
 30
0.0
 11
6406.7755480000087
 21
7943.9289339999968
 31
0.0
  0
LINE
  5
3D46
  8
0-1
  6
CONTINUOUS
 62
     3
 10
6421.7753510000066
 20
6082.8835509999981
 30
0.0
 11
6421.7753510000066
 21
7943.9289339999968
 31
0.0
  0
LINE
  5
3D47
  8
0-1
  6
CONTINUOUS
 62
     3
 10
6822.774347999999
 20
6082.8835509999981
 30
0.0
 11
6822.774347999999
 21
7943.9289339999968
 31
0.0
  0
LINE
  5
3D48
  8
0-1
  6
CONTINUOUS
 62
     3
 10
6807.7745459999969
 20
6082.8835509999981
 30
0.0
 11
6807.7745459999969
 21
7943.9289339999968
 31
0.0
  0
LINE
  5
3D49
  8
0-1
  6
CONTINUOUS
 62
     3
 10
6674.7746510000097
 20
6082.8835509999981
 30
0.0
 11
6674.7746510000097
 21
7943.9289339999968
 31
0.0
  0
LINE
  5
3D4A
  8
0-1
  6
CONTINUOUS
 62
     3
 10
6554.7762350000103
 20
6082.8835509999981
 30
0.0
 11
6554.7762350000103
 21
7943.9289339999968
 31
0.0
  0
LINE
  5
3D4B
  8
0-1
  6
CONTINUOUS
 62
     3
 10
6624.7749810000132
 20
6082.8835509999981
 30
0.0
 11
6624.7749810000132
 21
7943.9289339999968
 31
0.0
  0
LINE
  5
3D4C
  8
0-1
  6
CONTINUOUS
 62
     3
 10
6604.7749150000091
 20
6082.8835509999981
 30
0.0
 11
6604.7749150000091
 21
7943.9289339999968
 31
0.0
  0
LINE
  5
3D4D
  8
0-1
  6
CONTINUOUS
 62
     3
 10
6160.7754960000093
 20
5932.883550999999
 30
0.0
 11
6160.7754960000093
 21
6032.8828910000011
 31
0.0
  0
LINE
  5
3D4E
  8
0-1
  6
CONTINUOUS
 62
     3
 10
12164.286647000001
 20
8250.4276939999982
 30
0.0
 11
12160.273173000011
 21
8380.3662629999999
 31
0.0
  0
LINE
  5
3D4F
  8
0-1
  6
CONTINUOUS
 62
     3
 10
9201.275364000021
 20
6082.8835509999981
 30
0.0
 11
11974.27562800001
 21
6082.8835509999981
 31
0.0
  0
LINE
  5
3D50
  8
0-1
  6
CONTINUOUS
 62
     3
 10
9201.275364000021
 20
7943.9289339999968
 30
0.0
 11
9201.275364000021
 21
6032.8828910000011
 31
0.0
  0
LINE
  5
3D51
  8
0-1
  6
CONTINUOUS
 62
     3
 10
9056.2756280000158
 20
7943.9289339999968
 30
0.0
 11
9056.2756280000158
 21
6032.8828910000011
 31
0.0
  0
LINE
  5
3D52
  8
0-1
  6
CONTINUOUS
 62
     3
 10
9324.7755490000072
 20
6082.8835509999981
 30
0.0
 11
9324.7755490000072
 21
7943.9289339999968
 31
0.0
  0
LINE
  5
3D53
  8
0-1
  6
CONTINUOUS
 62
     3
 10
9339.7763410000189
 20
6082.8835509999981
 30
0.0
 11
9339.7763410000189
 21
7943.9289339999968
 31
0.0
  0
LINE
  5
3D54
  8
0-1
  6
CONTINUOUS
 62
     3
 10
9472.7752450000207
 20
6082.8835509999981
 30
0.0
 11
9472.7752450000207
 21
7943.9289339999968
 31
0.0
  0
LINE
  5
3D55
  8
0-1
  6
CONTINUOUS
 62
     3
 10
9522.7768950000154
 20
6082.8835509999981
 30
0.0
 11
9522.7768950000154
 21
7943.9289339999968
 31
0.0
  0
LINE
  5
3D56
  8
0-1
  6
CONTINUOUS
 62
     3
 10
9542.7749810000078
 20
6082.8835509999981
 30
0.0
 11
9542.7749810000078
 21
7943.9289339999968
 31
0.0
  0
LINE
  5
3D57
  8
0-1
  6
CONTINUOUS
 62
     3
 10
8714.7770010000204
 20
6082.8835509999981
 30
0.0
 11
8714.7770010000204
 21
7943.9289339999968
 31
0.0
  0
LINE
  5
3D58
  8
0-1
  6
CONTINUOUS
 62
     3
 10
8734.7760770000095
 20
6082.8835509999981
 30
0.0
 11
8734.7760770000095
 21
7943.9289339999968
 31
0.0
  0
LINE
  5
3D59
  8
0-1
  6
CONTINUOUS
 62
     3
 10
8784.7767370000201
 20
6082.8835509999981
 30
0.0
 11
8784.7767370000201
 21
7943.9289339999968
 31
0.0
  0
LINE
  5
3D5A
  8
0-1
  6
CONTINUOUS
 62
     3
 10
8917.7766310000206
 20
6082.8835509999981
 30
0.0
 11
8917.7766310000206
 21
7943.9289339999968
 31
0.0
  0
LINE
  5
3D5B
  8
0-1
  6
CONTINUOUS
 62
     3
 10
8932.7754430000186
 20
6082.8835509999981
 30
0.0
 11
8932.7754430000186
 21
7943.9289339999968
 31
0.0
  0
LINE
  5
3D5C
  8
0-1
  6
CONTINUOUS
 62
     3
 10
8664.7763410000189
 20
6082.8835509999981
 30
0.0
 11
8664.7763410000189
 21
7943.9289339999968
 31
0.0
  0
LINE
  5
3D5D
  8
0-1
  6
CONTINUOUS
 62
     3
 10
8531.7764460000089
 20
6082.8835509999981
 30
0.0
 11
8531.7764460000089
 21
7943.9289339999968
 31
0.0
  0
LINE
  5
3D5E
  8
0-1
  6
CONTINUOUS
 62
     3
 10
8516.7756540000028
 20
6082.8835509999981
 30
0.0
 11
8516.7756540000028
 21
7943.9289339999968
 31
0.0
  0
LINE
  5
3D5F
  8
0-1
  6
CONTINUOUS
 62
     3
 10
7314.7753510000211
 20
6082.8835509999981
 30
0.0
 11
7314.7753510000211
 21
7943.9289339999968
 31
0.0
  0
LINE
  5
3D60
  8
0-1
  6
CONTINUOUS
 62
     3
 10
7334.7773960000059
 20
6082.8835509999981
 30
0.0
 11
7334.7773960000059
 21
7943.9289339999968
 31
0.0
  0
LINE
  5
3D61
  8
0-1
  6
CONTINUOUS
 62
     3
 10
7264.775681000021
 20
6082.8835509999981
 30
0.0
 11
7264.775681000021
 21
7943.9289339999968
 31
0.0
  0
LINE
  5
3D62
  8
0-1
  6
CONTINUOUS
 62
     3
 10
7384.7750870000191
 20
6082.8835509999981
 30
0.0
 11
7384.7750870000191
 21
7943.9289339999968
 31
0.0
  0
LINE
  5
3D63
  8
0-1
  6
CONTINUOUS
 62
     3
 10
7517.7759710000191
 20
6082.8835509999981
 30
0.0
 11
7517.7759710000191
 21
7943.9289339999968
 31
0.0
  0
LINE
  5
3D64
  8
0-1
  6
CONTINUOUS
 62
     3
 10
7532.7767630000189
 20
6082.8835509999981
 30
0.0
 11
7532.7767630000189
 21
7943.9289339999968
 31
0.0
  0
LINE
  5
3D65
  8
0-1
  6
CONTINUOUS
 62
     3
 10
7131.77479700001
 20
6082.8835509999981
 30
0.0
 11
7131.77479700001
 21
7943.9289339999968
 31
0.0
  0
LINE
  5
3D66
  8
0-1
  6
CONTINUOUS
 62
     3
 10
7116.7759840000181
 20
6082.8835509999981
 30
0.0
 11
7116.7759840000181
 21
7943.9289339999968
 31
0.0
  0
LINE
  5
3D67
  8
0-1
  6
CONTINUOUS
 62
     3
 10
7816.7753250000196
 20
6082.8835509999981
 30
0.0
 11
7816.7753250000196
 21
7943.9289339999968
 31
0.0
  0
LINE
  5
3D68
  8
0-1
  6
CONTINUOUS
 62
     3
 10
7831.7741370000222
 20
6082.8835509999981
 30
0.0
 11
7831.7741370000222
 21
7943.9289339999968
 31
0.0
  0
LINE
  5
3D69
  8
0-1
  6
CONTINUOUS
 62
     3
 10
8232.7761030000111
 20
6082.8835509999981
 30
0.0
 11
8232.7761030000111
 21
7943.9289339999968
 31
0.0
  0
LINE
  5
3D6A
  8
0-1
  6
CONTINUOUS
 62
     3
 10
8217.7753110000085
 20
6082.8835509999981
 30
0.0
 11
8217.7753110000085
 21
7943.9289339999968
 31
0.0
  0
LINE
  5
3D6B
  8
0-1
  6
CONTINUOUS
 62
     3
 10
8084.7744270000112
 20
6082.8835509999981
 30
0.0
 11
8084.7744270000112
 21
7943.9289339999968
 31
0.0
  0
LINE
  5
3D6C
  8
0-1
  6
CONTINUOUS
 62
     3
 10
7964.7770010000204
 20
6082.8835509999981
 30
0.0
 11
7964.7770010000204
 21
7943.9289339999968
 31
0.0
  0
LINE
  5
3D6D
  8
0-1
  6
CONTINUOUS
 62
     3
 10
8034.7767370000201
 20
6082.8835509999981
 30
0.0
 11
8034.7767370000201
 21
7943.9289339999968
 31
0.0
  0
LINE
  5
3D6E
  8
0-1
  6
CONTINUOUS
 62
     3
 10
8014.7766710000051
 20
6082.8835509999981
 30
0.0
 11
8014.7766710000051
 21
7943.9289339999968
 31
0.0
  0
LINE
  5
3D6F
  8
0-1
  6
CONTINUOUS
 62
     3
 10
8356.2762880000191
 20
7943.9289339999968
 30
0.0
 11
8356.2762880000191
 21
6082.8835509999981
 31
0.0
  0
LINE
  5
3D70
  8
0-1
  6
CONTINUOUS
 62
     3
 10
8393.2754700000114
 20
7943.9289339999968
 30
0.0
 11
8393.2754700000114
 21
6082.8835509999981
 31
0.0
  0
LINE
  5
3D71
  8
0-1
  6
CONTINUOUS
 62
     3
 10
6946.2745320000013
 20
7943.9289339999968
 30
0.0
 11
6946.2745320000013
 21
6082.8835509999981
 31
0.0
  0
LINE
  5
3D72
  8
0-1
  6
CONTINUOUS
 62
     3
 10
6983.2747040000067
 20
7943.9289339999968
 30
0.0
 11
6983.2747040000067
 21
6082.8835509999981
 31
0.0
  0
LINE
  5
3D73
  8
0-1
  6
CONTINUOUS
 62
     3
 10
7656.2769480000188
 20
7943.9289339999968
 30
0.0
 11
7656.2769480000188
 21
6082.8835509999981
 31
0.0
  0
LINE
  5
3D74
  8
0-1
  6
CONTINUOUS
 62
     3
 10
7693.2761300000211
 20
7943.9289339999968
 30
0.0
 11
7693.2761300000211
 21
6082.8835509999981
 31
0.0
  0
LINE
  5
3D75
  8
0-1
  6
CONTINUOUS
 62
     3
 10
9128.7240290000045
 20
8157.0369759999976
 30
0.0
 11
9124.7115440000089
 21
8286.9755449999975
 31
0.0
  0
LINE
  5
3D76
  8
0-1
  6
CONTINUOUS
 62
     3
 10
9128.7754960000093
 20
8157.0389560000003
 30
0.0
 11
9128.7754960000093
 21
7943.9289339999968
 31
0.0
  0
LINE
  5
3D77
  8
0-1
  6
CONTINUOUS
 62
     3
 10
11974.27562800001
 20
7943.9289339999968
 30
0.0
 11
11974.27562800001
 21
6032.8828910000011
 31
0.0
  0
LINE
  5
3D78
  8
0-1
  6
CONTINUOUS
 62
     3
 10
12089.27674900001
 20
8248.1126469999963
 30
0.0
 11
12089.27674900001
 21
6032.8828910000011
 31
0.0
  0
LINE
  5
3D79
  8
0-1
  6
CONTINUOUS
 62
     3
 10
12069.275694
 20
8247.4950370000006
 30
0.0
 11
12069.275694
 21
6032.8828910000011
 31
0.0
  0
LINE
  5
3D7A
  8
0-1
  6
CONTINUOUS
 62
     3
 10
10564.27684200001
 20
7943.9289339999968
 30
0.0
 11
10564.27684200001
 21
6082.8835509999981
 31
0.0
  0
LINE
  5
3D7B
  8
0-1
  6
CONTINUOUS
 62
     3
 10
10601.27701400001
 20
7943.9289339999968
 30
0.0
 11
10601.27701400001
 21
6082.8835509999981
 31
0.0
  0
LINE
  5
3D7C
  8
0-1
  6
CONTINUOUS
 62
     3
 10
11264.276182000011
 20
7943.9289339999968
 30
0.0
 11
11264.276182000011
 21
6082.8835509999981
 31
0.0
  0
LINE
  5
3D7D
  8
0-1
  6
CONTINUOUS
 62
     3
 10
11301.275363999999
 20
7943.9289339999968
 30
0.0
 11
11301.275363999999
 21
6082.8835509999981
 31
0.0
  0
LINE
  5
3D7E
  8
0-1
  6
CONTINUOUS
 62
     3
 10
9864.2745330000216
 20
7943.9289339999968
 30
0.0
 11
9864.2745330000216
 21
6082.8835509999981
 31
0.0
  0
LINE
  5
3D7F
  8
0-1
  6
CONTINUOUS
 62
     3
 10
9901.2756940000199
 20
7943.9289339999968
 30
0.0
 11
9901.2756940000199
 21
6082.8835509999981
 31
0.0
  0
LINE
  5
3D80
  8
0-1
  6
CONTINUOUS
 62
     3
 10
10242.77432200001
 20
6082.8835509999981
 30
0.0
 11
10242.77432200001
 21
7943.9289339999968
 31
0.0
  0
LINE
  5
3D81
  8
0-1
  6
CONTINUOUS
 62
     3
 10
10222.77524500001
 20
6082.8835509999981
 30
0.0
 11
10222.77524500001
 21
7943.9289339999968
 31
0.0
  0
LINE
  5
3D82
  8
0-1
  6
CONTINUOUS
 62
     3
 10
10292.77597100001
 20
6082.8835509999981
 30
0.0
 11
10292.77597100001
 21
7943.9289339999968
 31
0.0
  0
LINE
  5
3D83
  8
0-1
  6
CONTINUOUS
 62
     3
 10
10172.77656500002
 20
6082.8835509999981
 30
0.0
 11
10172.77656500002
 21
7943.9289339999968
 31
0.0
  0
LINE
  5
3D84
  8
0-1
  6
CONTINUOUS
 62
     3
 10
10039.775681000019
 20
6082.8835509999981
 30
0.0
 11
10039.775681000019
 21
7943.9289339999968
 31
0.0
  0
LINE
  5
3D85
  8
0-1
  6
CONTINUOUS
 62
     3
 10
10024.77587900001
 20
6082.8835509999981
 30
0.0
 11
10024.77587900001
 21
7943.9289339999968
 31
0.0
  0
LINE
  5
3D86
  8
0-1
  6
CONTINUOUS
 62
     3
 10
10425.776855000009
 20
6082.8835509999981
 30
0.0
 11
10425.776855000009
 21
7943.9289339999968
 31
0.0
  0
LINE
  5
3D87
  8
0-1
  6
CONTINUOUS
 62
     3
 10
10440.776657000009
 20
6082.8835509999981
 30
0.0
 11
10440.776657000009
 21
7943.9289339999968
 31
0.0
  0
LINE
  5
3D88
  8
0-1
  6
CONTINUOUS
 62
     3
 10
11140.77599799999
 20
6082.8835509999981
 30
0.0
 11
11140.77599799999
 21
7943.9289339999968
 31
0.0
  0
LINE
  5
3D89
  8
0-1
  6
CONTINUOUS
 62
     3
 10
11125.775206
 20
6082.8835509999981
 30
0.0
 11
11125.775206
 21
7943.9289339999968
 31
0.0
  0
LINE
  5
3D8A
  8
0-1
  6
CONTINUOUS
 62
     3
 10
10724.775219000019
 20
6082.8835509999981
 30
0.0
 11
10724.775219000019
 21
7943.9289339999968
 31
0.0
  0
LINE
  5
3D8B
  8
0-1
  6
CONTINUOUS
 62
     3
 10
10739.777001
 20
6082.8835509999981
 30
0.0
 11
10739.777001
 21
7943.9289339999968
 31
0.0
  0
LINE
  5
3D8C
  8
0-1
  6
CONTINUOUS
 62
     3
 10
10872.776895000001
 20
6082.8835509999981
 30
0.0
 11
10872.776895000001
 21
7943.9289339999968
 31
0.0
  0
LINE
  5
3D8D
  8
0-1
  6
CONTINUOUS
 62
     3
 10
10992.774322000019
 20
6082.8835509999981
 30
0.0
 11
10992.774322000019
 21
7943.9289339999968
 31
0.0
  0
LINE
  5
3D8E
  8
0-1
  6
CONTINUOUS
 62
     3
 10
10922.77458600001
 20
6082.8835509999981
 30
0.0
 11
10922.77458600001
 21
7943.9289339999968
 31
0.0
  0
LINE
  5
3D8F
  8
0-1
  6
CONTINUOUS
 62
     3
 10
10942.77663100001
 20
6082.8835509999981
 30
0.0
 11
10942.77663100001
 21
7943.9289339999968
 31
0.0
  0
LINE
  5
3D90
  8
0-1
  6
CONTINUOUS
 62
     3
 10
11642.77597100001
 20
6082.8835509999981
 30
0.0
 11
11642.77597100001
 21
7943.9289339999968
 31
0.0
  0
LINE
  5
3D91
  8
0-1
  6
CONTINUOUS
 62
     3
 10
11622.776895000001
 20
6082.8835509999981
 30
0.0
 11
11622.776895000001
 21
7943.9289339999968
 31
0.0
  0
LINE
  5
3D92
  8
0-1
  6
CONTINUOUS
 62
     3
 10
11692.77663100001
 20
6082.8835509999981
 30
0.0
 11
11692.77663100001
 21
7943.9289339999968
 31
0.0
  0
LINE
  5
3D93
  8
0-1
  6
CONTINUOUS
 62
     3
 10
11572.77623500001
 20
6082.8835509999981
 30
0.0
 11
11572.77623500001
 21
7943.9289339999968
 31
0.0
  0
LINE
  5
3D94
  8
0-1
  6
CONTINUOUS
 62
     3
 10
11439.77634100001
 20
6082.8835509999981
 30
0.0
 11
11439.77634100001
 21
7943.9289339999968
 31
0.0
  0
LINE
  5
3D95
  8
0-1
  6
CONTINUOUS
 62
     3
 10
11424.77455900001
 20
6082.8835509999981
 30
0.0
 11
11424.77455900001
 21
7943.9289339999968
 31
0.0
  0
LINE
  5
3D96
  8
0-1
  6
CONTINUOUS
 62
     3
 10
11835.77663
 20
6082.8835509999981
 30
0.0
 11
11835.77663
 21
7943.9289339999968
 31
0.0
  0
LINE
  5
3D97
  8
0-1
  6
CONTINUOUS
 62
     3
 10
11850.77544300001
 20
6082.8835509999981
 30
0.0
 11
11850.77544300001
 21
7943.9289339999968
 31
0.0
  0
LINE
  5
3D98
  8
0-1
  6
CONTINUOUS
 62
     3
 10
9740.774348000019
 20
6082.8835509999981
 30
0.0
 11
9740.774348000019
 21
7943.9289339999968
 31
0.0
  0
LINE
  5
3D99
  8
0-1
  6
CONTINUOUS
 62
     3
 10
9725.7755360000192
 20
6082.8835509999981
 30
0.0
 11
9725.7755360000192
 21
7943.9289339999968
 31
0.0
  0
LINE
  5
3D9A
  8
0-1
  6
CONTINUOUS
 62
     3
 10
9592.7766310000115
 20
6082.8835509999981
 30
0.0
 11
9592.7766310000115
 21
7943.9289339999968
 31
0.0
  0
LINE
  5
3D9B
  8
0-1
  6
CONTINUOUS
 62
     3
 10
12101.775496
 20
6032.8828910000011
 30
0.0
 11
12101.775496
 21
5932.883550999999
 31
0.0
  0
LINE
  5
3D9C
  8
0-1
  6
CONTINUOUS
 62
     3
 10
5990.8044630000068
 20
8108.5090779999973
 30
0.0
 11
5989.7572970000083
 21
8142.494442999996
 31
0.0
  0
LINE
  5
3D9D
  8
0-1
  6
CONTINUOUS
 62
     3
 10
5992.6632310000077
 20
8145.5844719999968
 30
0.0
 11
12173.65669800001
 21
8335.7578119999944
 31
0.0
  0
LINE
  5
3D9E
  8
0-1
  6
CONTINUOUS
 62
     3
 10
12174.889938
 20
8295.7764849999967
 30
0.0
 11
5993.8964710000091
 21
8105.6031450000028
 31
0.0
  0
LINE
  5
3D9F
  8
0-1
  6
CONTINUOUS
 62
     3
 10
5992.5098180000095
 20
8150.582755999998
 30
0.0
 11
12173.502296000001
 21
8340.7551060000005
 31
0.0
  0
LINE
  5
3DA0
  8
0-1
  6
CONTINUOUS
 62
     3
 10
12175.043351
 20
8290.7782009999974
 30
0.0
 11
5994.0488940000023
 21
8100.6058510000003
 31
0.0
  0
LINE
  5
3DA1
  8
0-1
  6
CONTINUOUS
 62
     3
 10
5991.1429600000083
 20
8097.5148319999989
 30
0.0
 11
5991.1429600000083
 21
8097.5801560000018
 31
0.0
  0
LINE
  5
3DA2
  8
0-1
  6
CONTINUOUS
 62
     3
 10
5991.1429600000083
 20
8097.5801560000018
 30
0.0
 11
5992.1327200000078
 21
8065.5307610000027
 31
0.0
  0
LINE
  5
3DA3
  8
0-1
  6
CONTINUOUS
 62
     3
 10
5997.2844170000126
 20
8060.6878690000021
 30
0.0
 11
12197.250580000011
 21
8251.4451660000032
 31
0.0
  0
LINE
  5
3DA4
  8
0-1
  6
CONTINUOUS
 62
     3
 10
12193.240075000011
 20
8381.3847249999999
 30
0.0
 11
5993.2739120000087
 21
8190.625447999998
 31
0.0
  0
LINE
  5
3DA5
  8
0-1
  6
CONTINUOUS
 62
     3
 10
5988.4290400000064
 20
8185.4727610000027
 30
0.0
 11
5989.4178100000081
 21
8153.4886889999971
 31
0.0
  0
LINE
  5
3DA6
  8
0-1
  6
CONTINUOUS
 62
     3
 10
6005.7686330000024
 20
8191.010463999999
 30
0.0
 11
6009.779138000009
 21
8061.0718950000028
 31
0.0
  0
LINE
  5
3DA7
  8
2-0
  6
CENTER2
 62
     6
 10
6210.7754960000084
 20
5670.2301380000026
 30
0.0
 11
6210.7754960000084
 21
6727.3727360000012
 31
0.0
  0
LINE
  5
3DA8
  8
2-0
  6
CENTER2
 62
     6
 10
9128.7754960000093
 20
5670.2301380000026
 30
0.0
 11
9128.7754960000093
 21
6727.3727360000012
 31
0.0
  0
LINE
  5
3DA9
  8
2-0
  6
CENTER2
 62
     6
 10
12046.775496
 20
5670.2301380000026
 30
0.0
 11
12046.775496
 21
6727.3727360000012
 31
0.0
  0
ARC
  5
3DAA
  8
0-1
  6
CONTINUOUS
 62
     3
 10
5995.4731570000113
 20
8103.1515109999982
 30
0.0
 40
2.5
 50
271.76798999988182
 51
91.767989999881877
  0
ARC
  5
3DAB
  8
0-1
  6
CONTINUOUS
 62
     3
 10
5994.0855150000079
 20
8148.1291430000028
 30
0.0
 40
2.5
 50
271.76798999988182
 51
91.767989999881877
  0
ARC
  5
3DAC
  8
0-1
  6
CONTINUOUS
 62
     3
 10
5992.7542880000083
 20
8142.5864909999973
 30
0.0
 40
3.0
 50
91.767989999881877
 51
181.7679899999863
  0
ARC
  5
3DAD
  8
0-1
  6
CONTINUOUS
 62
     3
 10
12174.27331800001
 20
8315.7666530000024
 30
0.0
 40
20.0
 50
271.76798999988182
 51
91.767989999881877
  0
ARC
  5
3DAE
  8
0-1
  6
CONTINUOUS
 62
     3
 10
5993.8044230000087
 20
8108.603105999995
 30
0.0
 40
3.0
 50
181.7679899999863
 51
271.76798999988182
  0
ARC
  5
3DAF
  8
0-1
  6
CONTINUOUS
 62
     3
 10
12174.27331800001
 20
8315.7666530000024
 30
0.0
 40
24.999998999999999
 50
271.76798999988182
 51
91.767989999881877
  0
ARC
  5
3DB0
  8
0-1
  6
CONTINUOUS
 62
     3
 10
5994.1449000000093
 20
8097.6078699999953
 30
0.0
 40
3.0
 50
91.767989999881877
 51
181.7679899999863
  0
ARC
  5
3DB1
  8
0-1
  6
CONTINUOUS
 62
     3
 10
5997.130014000013
 20
8065.6851629999974
 30
0.0
 40
5.0
 50
181.7679899999863
 51
271.76798999988182
  0
ARC
  5
3DB2
  8
0-1
  6
CONTINUOUS
 62
     3
 10
12169.276023
 20
8315.6122509999968
 30
0.0
 40
69.999999000000003
 50
293.55477900013489
 51
69.981200999902924
  0
ARC
  5
3DB3
  8
0-1
  6
CONTINUOUS
 62
     3
 10
5993.4283150000083
 20
8185.627163000001
 30
0.0
 40
5.0
 50
91.767989999881877
 51
181.7679899999863
  0
ARC
  5
3DB4
  8
0-1
  6
CONTINUOUS
 62
     3
 10
5992.4148010000099
 20
8153.5807370000002
 30
0.0
 40
3.0
 50
181.7679899999863
 51
271.76798999988182
  0
TEXT
  5
3DB5
  8
2-0
  6
CONTINUOUS
 62
     7
 10
7809.4520960000173
 20
2971.7328399999992
 30
0.0
 40
160.0
  1
側 面 立 面 図
 72
     4
 11
8454.7854293333494
 21
3051.7328400000001
 31
0.0
  0
TEXT
  5
3DB6
  8
2-0
  6
CONTINUOUS
 62
     7
 10
9806.2776144709787
 20
2998.9282089999988
 30
0.0
 40
160.0
  1
1
 72
     4
 11
9832.9442811376448
 21
3078.9282089999979
 31
0.0
  0
TEXT
  5
3DB7
  8
2-0
  6
CONTINUOUS
 62
     7
 10
10049.366331721671
 20
2918.9296769999992
 30
0.0
 40
160.0
  1
80
 72
     4
 11
10169.366331721671
 21
2998.9296769999992
 31
0.0
  0
TEXT
  5
3DB8
  8
2-0
  6
CONTINUOUS
 62
     7
 10
9307.2795804709767
 20
2971.7328399999992
 30
0.0
 40
160.0
  1
(S=  /   )
 72
     4
 11
9867.2795804709767
 21
3051.7328400000001
 31
0.0
  0
LINE
  5
3DB9
  8
0-5
  6
CONTINUOUS
 62
     4
 10
12046.775496
 20
4252.8829569999989
 30
0.0
 11
12046.775496
 21
4092.883418999998
 31
0.0
  0
LINE
  5
3DBA
  8
0-5
  6
CONTINUOUS
 62
     4
 10
9128.7754960000093
 20
4252.8829569999989
 30
0.0
 11
9128.7754960000093
 21
4092.883418999998
 31
0.0
  0
LINE
  5
3DBB
  8
0-5
  6
CONTINUOUS
 62
     4
 10
6210.7754960000084
 20
4252.8829569999989
 30
0.0
 11
6210.7754960000084
 21
4092.883418999998
 31
0.0
  0
CIRCLE
  5
3DBC
  8
0-5
  6
CONTINUOUS
 62
     4
 10
9128.7754960000093
 20
3892.8822640000021
 30
0.0
 40
199.9999949999999
  0
CIRCLE
  5
3DBD
  8
0-5
  6
CONTINUOUS
 62
     4
 10
12046.775496
 20
3892.8822640000021
 30
0.0
 40
199.9999949999999
  0
CIRCLE
  5
3DBE
  8
0-5
  6
CONTINUOUS
 62
     4
 10
6210.7754960000084
 20
3892.8822640000021
 30
0.0
 40
199.9999949999999
  0
TEXT
  5
3DBF
  8
0-5
  6
CONTINUOUS
 62
     7
 10
11999.819336
 20
3809.6714680000032
 30
0.0
 40
160.0
  1
A
 72
     4
 11
12053.15266933334
 21
3889.6714680000032
 31
0.0
  0
TEXT
  5
3DC0
  8
0-5
  6
CONTINUOUS
 62
     7
 10
9081.8193360000078
 20
3809.6714680000032
 30
0.0
 40
160.0
  1
B
 72
     4
 11
9135.1526693333417
 21
3889.6714680000032
 31
0.0
  0
TEXT
  5
3DC1
  8
0-5
  6
CONTINUOUS
 62
     7
 10
6163.819336000015
 20
3809.6714680000032
 30
0.0
 40
160.0
  1
C
 72
     4
 11
6217.1526693333481
 21
3889.6714680000032
 31
0.0
  0
LINE
  5
3DC2
  8
0-5
  6
CONTINUOUS
 62
     4
 10
13806.859493
 20
6032.8828909999984
 30
0.0
 11
13926.859888999999
 21
6240.7298679999976
 31
0.0
  0
LINE
  5
3DC3
  8
0-5
  6
CONTINUOUS
 62
     4
 10
13686.861075999999
 20
6240.7298679999976
 30
0.0
 11
13806.859493
 21
6032.8828909999984
 31
0.0
  0
LINE
  5
3DC4
  8
0-5
  6
CONTINUOUS
 62
     4
 10
13926.859888999999
 20
6240.7298679999976
 30
0.0
 11
13686.861075999999
 21
6240.7298679999976
 31
0.0
  0
LINE
  5
3DC5
  8
0-5
  6
CONTINUOUS
 62
     4
 10
12181.77279100001
 20
6032.8828909999984
 30
0.0
 11
13899.237686
 21
6032.8828909999984
 31
0.0
  0
TEXT
  5
3DC6
  8
0-5
  6
CONTINUOUS
 62
     7
 10
13347.767563999991
 20
6320.7291420000001
 30
0.0
 40
160.0
  1
布基礎天端
 72
     4
 11
13806.43423066666
 21
6400.7291419999992
 31
0.0
  0
LINE
  5
3DC7
  8
2-0
  6
CONTINUOUS
 62
     6
 10
24230.017207999961
 20
13504.315322999981
 30
0.0
 11
25230.010609999928
 21
13504.315322999981
 31
0.0
  0
LINE
  5
3DC8
  8
2-0
  6
CONTINUOUS
 62
     6
 10
25697.95098699996
 20
13974.736036999981
 30
0.0
 11
25230.010609999928
 21
13504.315322999981
 31
0.0
  0
LINE
  5
3DC9
  8
2-0
  6
CONTINUOUS
 62
     6
 10
25659.310783999961
 20
17166.343683999981
 30
0.0
 11
25354.615365999962
 21
17269.997214999989
 31
0.0
  0
LINE
  5
3DCA
  8
2-0
  6
CONTINUOUS
 62
     6
 10
25814.332822999932
 20
16676.72164
 30
0.0
 11
25354.615365999962
 21
16432.808328999989
 31
0.0
  0
LINE
  5
3DCB
  8
2-0
  6
CONTINUOUS
 62
     6
 10
24434.61233099996
 20
16432.808328999989
 30
0.0
 11
25354.615365999962
 21
16432.808328999989
 31
0.0
  0
LINE
  5
3DCC
  8
2-0
  6
CONTINUOUS
 62
     6
 10
24154.62130399996
 20
17269.997214999989
 30
0.0
 11
25354.615365999962
 21
17269.997214999989
 31
0.0
  0
LINE
  5
3DCD
  8
2-0
  6
CONTINUOUS
 62
     6
 10
25730.510107999959
 20
14296.419682999949
 30
0.0
 11
25354.615365999962
 21
14477.36351799998
 31
0.0
  0
LINE
  5
3DCE
  8
2-0
  6
CONTINUOUS
 62
     6
 10
24834.61364999997
 20
14477.36351799998
 30
0.0
 11
25354.615365999962
 21
14477.36351799998
 31
0.0
  0
LINE
  5
3DCF
  8
2-0
  6
CONTINUOUS
 62
     4
 10
22995.176123999961
 20
20102.816973000001
 30
0.0
 11
22995.176123999961
 21
20832.813937999981
 31
0.0
  0
LINE
  5
3DD0
  8
2-0
  6
CONTINUOUS
 62
     3
 10
25925.676783999959
 20
19913.814518999981
 30
0.0
 11
25925.676783999959
 21
19907.818556999991
 31
0.0
  0
LINE
  5
3DD1
  8
2-0
  6
CONTINUOUS
 62
     3
 10
25925.676783999959
 20
19907.818556999991
 30
0.0
 11
25955.674407999959
 21
19907.818556999991
 31
0.0
  0
LINE
  5
3DD2
  8
2-0
  6
CONTINUOUS
 62
     3
 10
25955.674407999959
 20
19937.818160999981
 30
0.0
 11
25874.67250799996
 21
19937.818160999981
 31
0.0
  0
LINE
  5
3DD3
  8
2-0
  6
CONTINUOUS
 62
     3
 10
25925.676783999959
 20
19897.521100999991
 30
0.0
 11
25955.674407999959
 21
19897.521100999991
 31
0.0
  0
LINE
  5
3DD4
  8
2-0
  6
CONTINUOUS
 62
     3
 10
25925.676783999959
 20
19915.522842999992
 30
0.0
 11
25925.676783999959
 21
19897.521100999991
 31
0.0
  0
LINE
  5
3DD5
  8
2-0
  6
CONTINUOUS
 62
     3
 10
25950.674143999971
 20
19915.522842999992
 30
0.0
 11
25925.676783999959
 21
19915.522842999992
 31
0.0
  0
LINE
  5
3DD6
  8
2-0
  6
CONTINUOUS
 62
     3
 10
25950.674143999971
 20
19910.514661000001
 30
0.0
 11
25950.674143999971
 21
19915.522842999992
 31
0.0
  0
LINE
  5
3DD7
  8
2-0
  6
CONTINUOUS
 62
     3
 10
25943.672586999961
 20
19910.514661000001
 30
0.0
 11
25950.674143999971
 21
19910.514661000001
 31
0.0
  0
LINE
  5
3DD8
  8
2-0
  6
CONTINUOUS
 62
     3
 10
25843.37631899997
 20
20010.814888000001
 30
0.0
 11
25843.37631899997
 21
20017.820403999991
 31
0.0
  0
LINE
  5
3DD9
  8
2-0
  6
CONTINUOUS
 62
     3
 10
25843.37631899997
 20
20017.820403999991
 30
0.0
 11
25848.376582999961
 21
20017.820403999991
 31
0.0
  0
LINE
  5
3DDA
  8
2-0
  6
CONTINUOUS
 62
     3
 10
25848.376582999961
 20
20017.820403999991
 30
0.0
 11
25848.376582999961
 21
19992.811166999989
 31
0.0
  0
LINE
  5
3DDB
  8
2-0
  6
CONTINUOUS
 62
     3
 10
25848.376582999961
 20
19992.811166999989
 30
0.0
 11
25830.374840999961
 21
19992.811166999989
 31
0.0
  0
LINE
  5
3DDC
  8
2-0
  6
CONTINUOUS
 62
     3
 10
25830.374840999961
 20
19992.811166999989
 30
0.0
 11
25830.374840999961
 21
20022.814729999998
 31
0.0
  0
LINE
  5
3DDD
  8
2-0
  6
CONTINUOUS
 62
     3
 10
25840.672296999961
 20
20022.814729999998
 30
0.0
 11
25955.674407999959
 21
20022.814729999998
 31
0.0
  0
LINE
  5
3DDE
  8
2-0
  6
CONTINUOUS
 62
     3
 10
25840.672296999961
 20
19992.811166999989
 30
0.0
 11
25840.672296999961
 21
20022.814729999998
 31
0.0
  0
LINE
  5
3DDF
  8
2-0
  6
CONTINUOUS
 62
     3
 10
25846.674196999971
 20
19992.811166999989
 30
0.0
 11
25840.672296999961
 21
19992.811166999989
 31
0.0
  0
LINE
  5
3DE0
  8
2-0
  6
CONTINUOUS
 62
     3
 10
25943.672586999961
 20
19206.717838499961
 30
0.0
 11
25950.674143999971
 21
19206.717838499961
 31
0.0
  0
LINE
  5
3DE1
  8
2-0
  6
CONTINUOUS
 62
     3
 10
25950.674143999971
 20
19206.717838499961
 30
0.0
 11
25950.674143999971
 21
19211.718102499981
 31
0.0
  0
LINE
  5
3DE2
  8
2-0
  6
CONTINUOUS
 62
     3
 10
25950.674143999971
 20
19211.718102499981
 30
0.0
 11
25925.676783999959
 21
19211.718102499981
 31
0.0
  0
LINE
  5
3DE3
  8
2-0
  6
CONTINUOUS
 62
     3
 10
25925.676783999959
 20
19211.718102499981
 30
0.0
 11
25925.676783999959
 21
19193.722298499961
 31
0.0
  0
LINE
  5
3DE4
  8
2-0
  6
CONTINUOUS
 62
     3
 10
25925.676783999959
 20
19193.722298499961
 30
0.0
 11
25955.674407999959
 21
19193.722298499961
 31
0.0
  0
LINE
  5
3DE5
  8
2-0
  6
CONTINUOUS
 62
     3
 10
25925.676783999959
 20
19209.813805499962
 30
0.0
 11
25925.676783999959
 21
19203.81586449996
 31
0.0
  0
LINE
  5
3DE6
  8
2-0
  6
CONTINUOUS
 62
     3
 10
25925.676783999959
 20
19203.81586449996
 30
0.0
 11
25955.674407999959
 21
19203.81586449996
 31
0.0
  0
LINE
  5
3DE7
  8
2-0
  6
CONTINUOUS
 62
     3
 10
25955.674407999959
 20
19203.81586449996
 30
0.0
 11
25955.674407999959
 21
19240.81702549995
 31
0.0
  0
LINE
  5
3DE8
  8
2-0
  6
CONTINUOUS
 62
     3
 10
25925.676783999959
 20
19240.81702549995
 30
0.0
 11
25955.674407999959
 21
19240.81702549995
 31
0.0
  0
LINE
  5
3DE9
  8
2-0
  6
CONTINUOUS
 62
     3
 10
25925.676783999959
 20
19234.813145499971
 30
0.0
 11
25925.676783999959
 21
19240.81702549995
 31
0.0
  0
LINE
  5
3DEA
  8
2-0
  6
CONTINUOUS
 62
     3
 10
25925.676783999959
 20
19250.912570499971
 30
0.0
 11
25955.674407999959
 21
19250.912570499971
 31
0.0
  0
LINE
  5
3DEB
  8
2-0
  6
CONTINUOUS
 62
     3
 10
25925.676783999959
 20
19232.91082849996
 30
0.0
 11
25925.676783999959
 21
19250.912570499971
 31
0.0
  0
LINE
  5
3DEC
  8
2-0
  6
CONTINUOUS
 62
     3
 10
25950.674143999971
 20
19232.91082849996
 30
0.0
 11
25925.676783999959
 21
19232.91082849996
 31
0.0
  0
LINE
  5
3DED
  8
2-0
  6
CONTINUOUS
 62
     3
 10
25950.674143999971
 20
19237.91109249998
 30
0.0
 11
25950.674143999971
 21
19232.91082849996
 31
0.0
  0
LINE
  5
3DEE
  8
2-0
  6
CONTINUOUS
 62
     3
 10
25943.672586999961
 20
19237.91109249998
 30
0.0
 11
25950.674143999971
 21
19237.91109249998
 31
0.0
  0
LINE
  5
3DEF
  8
2-0
  6
CONTINUOUS
 62
     3
 10
25943.672586999961
 20
18505.716848999989
 30
0.0
 11
25950.674143999971
 21
18505.716848999989
 31
0.0
  0
LINE
  5
3DF0
  8
2-0
  6
CONTINUOUS
 62
     3
 10
25950.674143999971
 20
18505.716848999989
 30
0.0
 11
25950.674143999971
 21
18510.723050999961
 31
0.0
  0
LINE
  5
3DF1
  8
2-0
  6
CONTINUOUS
 62
     3
 10
25950.674143999971
 20
18510.723050999961
 30
0.0
 11
25925.676783999959
 21
18510.723050999961
 31
0.0
  0
LINE
  5
3DF2
  8
2-0
  6
CONTINUOUS
 62
     3
 10
25925.676783999959
 20
18510.723050999961
 30
0.0
 11
25925.676783999959
 21
18492.72130899999
 31
0.0
  0
LINE
  5
3DF3
  8
2-0
  6
CONTINUOUS
 62
     3
 10
25925.676783999959
 20
18492.72130899999
 30
0.0
 11
25955.674407999959
 21
18492.72130899999
 31
0.0
  0
LINE
  5
3DF4
  8
2-0
  6
CONTINUOUS
 62
     3
 10
25925.676783999959
 20
18508.812815999951
 30
0.0
 11
25925.676783999959
 21
18502.81685399995
 31
0.0
  0
LINE
  5
3DF5
  8
2-0
  6
CONTINUOUS
 62
     3
 10
25925.676783999959
 20
18502.81685399995
 30
0.0
 11
25955.674407999959
 21
18502.81685399995
 31
0.0
  0
LINE
  5
3DF6
  8
2-0
  6
CONTINUOUS
 62
     3
 10
25955.674407999959
 20
18502.81685399995
 30
0.0
 11
25955.674407999959
 21
18539.816035999989
 31
0.0
  0
LINE
  5
3DF7
  8
2-0
  6
CONTINUOUS
 62
     3
 10
25925.676783999959
 20
18539.816035999989
 30
0.0
 11
25955.674407999959
 21
18539.816035999989
 31
0.0
  0
LINE
  5
3DF8
  8
2-0
  6
CONTINUOUS
 62
     3
 10
25925.676783999959
 20
18533.820073999981
 30
0.0
 11
25925.676783999959
 21
18539.816035999989
 31
0.0
  0
LINE
  5
3DF9
  8
2-0
  6
CONTINUOUS
 62
     3
 10
25925.676783999959
 20
18549.911580999978
 30
0.0
 11
25955.674407999959
 21
18549.911580999978
 31
0.0
  0
LINE
  5
3DFA
  8
2-0
  6
CONTINUOUS
 62
     3
 10
25925.676783999959
 20
18531.909838999989
 30
0.0
 11
25925.676783999959
 21
18549.911580999978
 31
0.0
  0
LINE
  5
3DFB
  8
2-0
  6
CONTINUOUS
 62
     3
 10
25950.674143999971
 20
18531.909838999989
 30
0.0
 11
25925.676783999959
 21
18531.909838999989
 31
0.0
  0
LINE
  5
3DFC
  8
2-0
  6
CONTINUOUS
 62
     3
 10
25950.674143999971
 20
18536.91604099996
 30
0.0
 11
25950.674143999971
 21
18531.909838999989
 31
0.0
  0
LINE
  5
3DFD
  8
2-0
  6
CONTINUOUS
 62
     3
 10
25943.672586999961
 20
18536.91604099996
 30
0.0
 11
25950.674143999971
 21
18536.91604099996
 31
0.0
  0
LINE
  5
3DFE
  8
2-0
  6
CONTINUOUS
 62
     3
 10
25943.672586999961
 20
17835.910102999991
 30
0.0
 11
25950.674143999971
 21
17835.910102999991
 31
0.0
  0
LINE
  5
3DFF
  8
2-0
  6
CONTINUOUS
 62
     3
 10
25950.674143999971
 20
17835.910102999991
 30
0.0
 11
25950.674143999971
 21
17830.921715999972
 31
0.0
  0
LINE
  5
3E00
  8
2-0
  6
CONTINUOUS
 62
     3
 10
25950.674143999971
 20
17830.921715999972
 30
0.0
 11
25925.676783999959
 21
17830.921715999972
 31
0.0
  0
LINE
  5
3E01
  8
2-0
  6
CONTINUOUS
 62
     3
 10
25925.676783999959
 20
17830.921715999972
 30
0.0
 11
25925.676783999959
 21
17848.917518999991
 31
0.0
  0
LINE
  5
3E02
  8
2-0
  6
CONTINUOUS
 62
     3
 10
25925.676783999959
 20
17848.917518999991
 30
0.0
 11
25955.674407999959
 21
17848.917518999991
 31
0.0
  0
LINE
  5
3E03
  8
2-0
  6
CONTINUOUS
 62
     3
 10
25925.676783999959
 20
17832.820073999981
 30
0.0
 11
25925.676783999959
 21
17838.816035999971
 31
0.0
  0
LINE
  5
3E04
  8
2-0
  6
CONTINUOUS
 62
     3
 10
25925.676783999959
 20
17838.816035999971
 30
0.0
 11
25955.674407999959
 21
17838.816035999971
 31
0.0
  0
LINE
  5
3E05
  8
2-0
  6
CONTINUOUS
 62
     3
 10
25955.674407999959
 20
17838.816035999971
 30
0.0
 11
25955.674407999959
 21
17801.816853999961
 31
0.0
  0
LINE
  5
3E06
  8
2-0
  6
CONTINUOUS
 62
     3
 10
25925.676783999959
 20
17801.816853999961
 30
0.0
 11
25955.674407999959
 21
17801.816853999961
 31
0.0
  0
LINE
  5
3E07
  8
2-0
  6
CONTINUOUS
 62
     3
 10
25925.676783999959
 20
17807.818754999978
 30
0.0
 11
25925.676783999959
 21
17801.816853999961
 31
0.0
  0
LINE
  5
3E08
  8
2-0
  6
CONTINUOUS
 62
     3
 10
25925.676783999959
 20
17791.727247999981
 30
0.0
 11
25955.674407999959
 21
17791.727247999981
 31
0.0
  0
LINE
  5
3E09
  8
2-0
  6
CONTINUOUS
 62
     3
 10
25925.676783999959
 20
17809.723050999972
 30
0.0
 11
25925.676783999959
 21
17791.727247999981
 31
0.0
  0
LINE
  5
3E0A
  8
2-0
  6
CONTINUOUS
 62
     3
 10
25950.674143999971
 20
17809.723050999972
 30
0.0
 11
25925.676783999959
 21
17809.723050999972
 31
0.0
  0
LINE
  5
3E0B
  8
2-0
  6
CONTINUOUS
 62
     3
 10
25950.674143999971
 20
17804.722787999981
 30
0.0
 11
25950.674143999971
 21
17809.723050999972
 31
0.0
  0
LINE
  5
3E0C
  8
2-0
  6
CONTINUOUS
 62
     3
 10
25943.672586999961
 20
17804.722787999981
 30
0.0
 11
25950.674143999971
 21
17804.722787999981
 31
0.0
  0
LINE
  5
3E0D
  8
2-0
  6
CONTINUOUS
 62
     3
 10
25952.788269999961
 20
17084.813673999972
 30
0.0
 11
25952.788269999961
 21
17104.814728999969
 31
0.0
  0
LINE
  5
3E0E
  8
2-0
  6
CONTINUOUS
 62
     3
 10
25952.788269999961
 20
17104.814728999969
 30
0.0
 11
25867.791700999958
 21
17104.814728999969
 31
0.0
  0
LINE
  5
3E0F
  8
2-0
  6
CONTINUOUS
 62
     3
 10
25943.672586999961
 20
17131.421438999991
 30
0.0
 11
25950.674143999971
 21
17131.421438999991
 31
0.0
  0
LINE
  5
3E10
  8
2-0
  6
CONTINUOUS
 62
     3
 10
25950.674143999971
 20
17131.421438999991
 30
0.0
 11
25950.674143999971
 21
17126.427112999991
 31
0.0
  0
LINE
  5
3E11
  8
2-0
  6
CONTINUOUS
 62
     3
 10
25950.674143999971
 20
17126.427112999991
 30
0.0
 11
25925.676783999959
 21
17126.427112999991
 31
0.0
  0
LINE
  5
3E12
  8
2-0
  6
CONTINUOUS
 62
     3
 10
25925.676783999959
 20
17126.427112999991
 30
0.0
 11
25925.676783999959
 21
17144.422916999989
 31
0.0
  0
LINE
  5
3E13
  8
2-0
  6
CONTINUOUS
 62
     3
 10
25925.676783999959
 20
17144.422916999989
 30
0.0
 11
25955.674407999959
 21
17144.422916999989
 31
0.0
  0
LINE
  5
3E14
  8
2-0
  6
CONTINUOUS
 62
     3
 10
25925.676783999959
 20
17134.81433299998
 30
0.0
 11
25925.676783999959
 21
17128.812432999981
 31
0.0
  0
LINE
  5
3E15
  8
2-0
  6
CONTINUOUS
 62
     3
 10
25955.674407999959
 20
17134.81433299998
 30
0.0
 11
25925.676783999959
 21
17134.81433299998
 31
0.0
  0
LINE
  5
3E16
  8
2-0
  6
CONTINUOUS
 62
     3
 10
25955.674407999959
 20
17144.422916999989
 30
0.0
 11
25955.674407999959
 21
17791.727247999981
 31
0.0
  0
LINE
  5
3E17
  8
2-0
  6
CONTINUOUS
 62
     3
 10
25955.674407999959
 20
17848.917518999991
 30
0.0
 11
25955.674407999959
 21
18492.72130899999
 31
0.0
  0
LINE
  5
3E18
  8
2-0
  6
CONTINUOUS
 62
     3
 10
25955.674407999959
 20
16989.812617999989
 30
0.0
 11
25925.676783999959
 21
16989.812617999989
 31
0.0
  0
LINE
  5
3E19
  8
2-0
  6
CONTINUOUS
 62
     3
 10
25925.676783999959
 20
16989.812617999989
 30
0.0
 11
25925.676783999959
 21
16995.814517999981
 31
0.0
  0
LINE
  5
3E1A
  8
2-0
  6
CONTINUOUS
 62
     3
 10
25867.791700999958
 20
17019.818160999981
 30
0.0
 11
25952.788269999961
 21
17019.818160999981
 31
0.0
  0
LINE
  5
3E1B
  8
2-0
  6
CONTINUOUS
 62
     3
 10
25952.788269999961
 20
17019.818160999981
 30
0.0
 11
25952.788269999961
 21
17039.813277999991
 31
0.0
  0
LINE
  5
3E1C
  8
2-0
  6
CONTINUOUS
 62
     3
 10
25925.676783999959
 20
16980.204034999992
 30
0.0
 11
25955.674407999959
 21
16980.204034999992
 31
0.0
  0
LINE
  5
3E1D
  8
2-0
  6
CONTINUOUS
 62
     3
 10
25925.676783999959
 20
16998.199837999979
 30
0.0
 11
25925.676783999959
 21
16980.204034999992
 31
0.0
  0
LINE
  5
3E1E
  8
2-0
  6
CONTINUOUS
 62
     3
 10
25950.674143999971
 20
16998.199837999979
 30
0.0
 11
25925.676783999959
 21
16998.199837999979
 31
0.0
  0
LINE
  5
3E1F
  8
2-0
  6
CONTINUOUS
 62
     3
 10
25950.674143999971
 20
16993.199573999991
 30
0.0
 11
25950.674143999971
 21
16998.199837999979
 31
0.0
  0
LINE
  5
3E20
  8
2-0
  6
CONTINUOUS
 62
     3
 10
25943.672586999961
 20
16993.199573999991
 30
0.0
 11
25950.674143999971
 21
16993.199573999991
 31
0.0
  0
LINE
  5
3E21
  8
2-0
  6
CONTINUOUS
 62
     3
 10
25943.672586999961
 20
16288.717343499949
 30
0.0
 11
25950.674143999971
 21
16288.717343499949
 31
0.0
  0
LINE
  5
3E22
  8
2-0
  6
CONTINUOUS
 62
     3
 10
25950.674143999971
 20
16288.717343499949
 30
0.0
 11
25950.674143999971
 21
16293.717607499961
 31
0.0
  0
LINE
  5
3E23
  8
2-0
  6
CONTINUOUS
 62
     3
 10
25950.674143999971
 20
16293.717607499961
 30
0.0
 11
25925.676783999959
 21
16293.717607499961
 31
0.0
  0
LINE
  5
3E24
  8
2-0
  6
CONTINUOUS
 62
     3
 10
25925.676783999959
 20
16293.717607499961
 30
0.0
 11
25925.676783999959
 21
16275.71586549998
 31
0.0
  0
LINE
  5
3E25
  8
2-0
  6
CONTINUOUS
 62
     3
 10
25925.676783999959
 20
16275.71586549998
 30
0.0
 11
25955.674407999959
 21
16275.71586549998
 31
0.0
  0
LINE
  5
3E26
  8
2-0
  6
CONTINUOUS
 62
     3
 10
25925.676783999959
 20
16291.81331049998
 30
0.0
 11
25925.676783999959
 21
16285.816359499981
 31
0.0
  0
LINE
  5
3E27
  8
2-0
  6
CONTINUOUS
 62
     3
 10
25925.676783999959
 20
16285.816359499981
 30
0.0
 11
25955.674407999959
 21
16285.816359499981
 31
0.0
  0
LINE
  5
3E28
  8
2-0
  6
CONTINUOUS
 62
     3
 10
25955.674407999959
 20
16285.816359499981
 30
0.0
 11
25955.674407999959
 21
16322.81653049998
 31
0.0
  0
LINE
  5
3E29
  8
2-0
  6
CONTINUOUS
 62
     3
 10
25925.676783999959
 20
16322.81653049998
 30
0.0
 11
25955.674407999959
 21
16322.81653049998
 31
0.0
  0
LINE
  5
3E2A
  8
2-0
  6
CONTINUOUS
 62
     3
 10
25925.676783999959
 20
16316.81364049998
 30
0.0
 11
25925.676783999959
 21
16322.81653049998
 31
0.0
  0
LINE
  5
3E2B
  8
2-0
  6
CONTINUOUS
 62
     3
 10
25925.676783999959
 20
16332.91207549998
 30
0.0
 11
25955.674407999959
 21
16332.91207549998
 31
0.0
  0
LINE
  5
3E2C
  8
2-0
  6
CONTINUOUS
 62
     3
 10
25925.676783999959
 20
16314.904394499979
 30
0.0
 11
25925.676783999959
 21
16332.91207549998
 31
0.0
  0
LINE
  5
3E2D
  8
2-0
  6
CONTINUOUS
 62
     3
 10
25950.674143999971
 20
16314.904394499979
 30
0.0
 11
25925.676783999959
 21
16314.904394499979
 31
0.0
  0
LINE
  5
3E2E
  8
2-0
  6
CONTINUOUS
 62
     3
 10
25950.674143999971
 20
16319.91059749998
 30
0.0
 11
25950.674143999971
 21
16314.904394499979
 31
0.0
  0
LINE
  5
3E2F
  8
2-0
  6
CONTINUOUS
 62
     3
 10
25943.672586999961
 20
16319.91059749998
 30
0.0
 11
25950.674143999971
 21
16319.91059749998
 31
0.0
  0
LINE
  5
3E30
  8
2-0
  6
CONTINUOUS
 62
     3
 10
25943.672586999961
 20
15619.15061399998
 30
0.0
 11
25950.674143999971
 21
15619.15061399998
 31
0.0
  0
LINE
  5
3E31
  8
2-0
  6
CONTINUOUS
 62
     3
 10
25950.674143999971
 20
15619.15061399998
 30
0.0
 11
25950.674143999971
 21
15614.15628899998
 31
0.0
  0
LINE
  5
3E32
  8
2-0
  6
CONTINUOUS
 62
     3
 10
25950.674143999971
 20
15614.15628899998
 30
0.0
 11
25925.676783999959
 21
15614.15628899998
 31
0.0
  0
LINE
  5
3E33
  8
2-0
  6
CONTINUOUS
 62
     3
 10
25925.676783999959
 20
15614.15628899998
 30
0.0
 11
25925.676783999959
 21
15632.152092
 31
0.0
  0
LINE
  5
3E34
  8
2-0
  6
CONTINUOUS
 62
     3
 10
25925.676783999959
 20
15632.152092
 30
0.0
 11
25955.674407999959
 21
15632.152092
 31
0.0
  0
LINE
  5
3E35
  8
2-0
  6
CONTINUOUS
 62
     3
 10
25925.676783999959
 20
15616.05464699999
 30
0.0
 11
25925.676783999959
 21
15622.056547
 31
0.0
  0
LINE
  5
3E36
  8
2-0
  6
CONTINUOUS
 62
     3
 10
25925.676783999959
 20
15622.056547
 30
0.0
 11
25955.674407999959
 21
15622.056547
 31
0.0
  0
LINE
  5
3E37
  8
2-0
  6
CONTINUOUS
 62
     3
 10
25955.674407999959
 20
15585.05736599999
 30
0.0
 11
25955.674407999959
 21
15622.056547
 31
0.0
  0
LINE
  5
3E38
  8
2-0
  6
CONTINUOUS
 62
     3
 10
25925.676783999959
 20
15585.05736599999
 30
0.0
 11
25955.674407999959
 21
15585.05736599999
 31
0.0
  0
LINE
  5
3E39
  8
2-0
  6
CONTINUOUS
 62
     3
 10
25925.676783999959
 20
15591.05431699998
 30
0.0
 11
25925.676783999959
 21
15585.05736599999
 31
0.0
  0
LINE
  5
3E3A
  8
2-0
  6
CONTINUOUS
 62
     3
 10
25925.676783999959
 20
15574.95588199998
 30
0.0
 11
25955.674407999959
 21
15574.95588199998
 31
0.0
  0
LINE
  5
3E3B
  8
2-0
  6
CONTINUOUS
 62
     3
 10
25925.676783999959
 20
15592.963562999979
 30
0.0
 11
25925.676783999959
 21
15574.95588199998
 31
0.0
  0
LINE
  5
3E3C
  8
2-0
  6
CONTINUOUS
 62
     3
 10
25950.674143999971
 20
15592.963562999979
 30
0.0
 11
25925.676783999959
 21
15592.963562999979
 31
0.0
  0
LINE
  5
3E3D
  8
2-0
  6
CONTINUOUS
 62
     3
 10
25950.674143999971
 20
15587.963298999999
 30
0.0
 11
25950.674143999971
 21
15592.963562999979
 31
0.0
  0
LINE
  5
3E3E
  8
2-0
  6
CONTINUOUS
 62
     3
 10
25943.672586999961
 20
15587.963298999999
 30
0.0
 11
25950.674143999971
 21
15587.963298999999
 31
0.0
  0
LINE
  5
3E3F
  8
2-0
  6
CONTINUOUS
 62
     3
 10
25955.674407999959
 20
16980.204034999992
 30
0.0
 11
25955.674407999959
 21
16332.91207549998
 31
0.0
  0
LINE
  5
3E40
  8
2-0
  6
CONTINUOUS
 62
     3
 10
25955.674407999959
 20
17134.81433299998
 30
0.0
 11
25955.674407999959
 21
16989.812617999989
 31
0.0
  0
LINE
  5
3E41
  8
2-0
  6
CONTINUOUS
 62
     3
 10
25867.791700999958
 20
17104.814728999969
 30
0.0
 11
25867.791700999958
 21
17019.818160999981
 31
0.0
  0
LINE
  5
3E42
  8
2-0
  6
CONTINUOUS
 62
     6
 10
24329.583033999948
 20
18873.26199449995
 30
0.0
 11
25354.615365999962
 21
18873.26199449995
 31
0.0
  0
LINE
  5
3E43
  8
2-0
  6
CONTINUOUS
 62
     3
 10
25943.672586999961
 20
14886.72229199998
 30
0.0
 11
25950.674143999971
 21
14886.72229199998
 31
0.0
  0
LINE
  5
3E44
  8
2-0
  6
CONTINUOUS
 62
     3
 10
25950.674143999971
 20
14886.72229199998
 30
0.0
 11
25950.674143999971
 21
14891.71661799998
 31
0.0
  0
LINE
  5
3E45
  8
2-0
  6
CONTINUOUS
 62
     3
 10
25950.674143999971
 20
14891.71661799998
 30
0.0
 11
25925.676783999959
 21
14891.71661799998
 31
0.0
  0
LINE
  5
3E46
  8
2-0
  6
CONTINUOUS
 62
     3
 10
25925.676783999959
 20
14891.71661799998
 30
0.0
 11
25925.676783999959
 21
14873.720813999969
 31
0.0
  0
LINE
  5
3E47
  8
2-0
  6
CONTINUOUS
 62
     3
 10
25925.676783999959
 20
14873.720813999969
 30
0.0
 11
25955.674407999959
 21
14873.720813999969
 31
0.0
  0
LINE
  5
3E48
  8
2-0
  6
CONTINUOUS
 62
     3
 10
25925.676783999959
 20
14889.81924899998
 30
0.0
 11
25925.676783999959
 21
14883.81635899998
 31
0.0
  0
LINE
  5
3E49
  8
2-0
  6
CONTINUOUS
 62
     3
 10
25925.676783999959
 20
14883.81635899998
 30
0.0
 11
25955.674407999959
 21
14883.81635899998
 31
0.0
  0
LINE
  5
3E4A
  8
2-0
  6
CONTINUOUS
 62
     3
 10
25955.674407999959
 20
14883.81635899998
 30
0.0
 11
25955.674407999959
 21
14920.816530999949
 31
0.0
  0
LINE
  5
3E4B
  8
2-0
  6
CONTINUOUS
 62
     3
 10
25925.676783999959
 20
14920.816530999949
 30
0.0
 11
25955.674407999959
 21
14920.816530999949
 31
0.0
  0
LINE
  5
3E4C
  8
2-0
  6
CONTINUOUS
 62
     3
 10
25925.676783999959
 20
14914.819578999981
 30
0.0
 11
25925.676783999959
 21
14920.816530999949
 31
0.0
  0
LINE
  5
3E4D
  8
2-0
  6
CONTINUOUS
 62
     3
 10
25925.676783999959
 20
14930.91702399998
 30
0.0
 11
25955.674407999959
 21
14930.91702399998
 31
0.0
  0
LINE
  5
3E4E
  8
2-0
  6
CONTINUOUS
 62
     3
 10
25925.676783999959
 20
14912.910332999991
 30
0.0
 11
25925.676783999959
 21
14930.91702399998
 31
0.0
  0
LINE
  5
3E4F
  8
2-0
  6
CONTINUOUS
 62
     3
 10
25950.674143999971
 20
14912.910332999991
 30
0.0
 11
25925.676783999959
 21
14912.910332999991
 31
0.0
  0
LINE
  5
3E50
  8
2-0
  6
CONTINUOUS
 62
     3
 10
25950.674143999971
 20
14917.91554599998
 30
0.0
 11
25950.674143999971
 21
14912.910332999991
 31
0.0
  0
LINE
  5
3E51
  8
2-0
  6
CONTINUOUS
 62
     3
 10
25943.672586999961
 20
14917.91554599998
 30
0.0
 11
25950.674143999971
 21
14917.91554599998
 31
0.0
  0
LINE
  5
3E52
  8
2-0
  6
CONTINUOUS
 62
     3
 10
25925.676783999959
 20
14210.81837199998
 30
0.0
 11
25925.676783999959
 21
14216.82324099998
 31
0.0
  0
LINE
  5
3E53
  8
2-0
  6
CONTINUOUS
 62
     3
 10
25925.676783999959
 20
14216.82324099998
 30
0.0
 11
25955.674407999959
 21
14216.82324099998
 31
0.0
  0
LINE
  5
3E54
  8
2-0
  6
CONTINUOUS
 62
     3
 10
25955.674407999959
 20
14216.82324099998
 30
0.0
 11
25955.674407999959
 21
14101.819149999979
 31
0.0
  0
LINE
  5
3E55
  8
2-0
  6
CONTINUOUS
 62
     3
 10
25955.674407999959
 20
14101.819149999979
 30
0.0
 11
25870.67585999997
 21
14101.819149999979
 31
0.0
  0
LINE
  5
3E56
  8
2-0
  6
CONTINUOUS
 62
     3
 10
25870.67585999997
 20
14101.819149999979
 30
0.0
 11
25870.67585999997
 21
14186.81472899998
 31
0.0
  0
LINE
  5
3E57
  8
2-0
  6
CONTINUOUS
 62
     3
 10
25870.67585999997
 20
14186.81472899998
 30
0.0
 11
25902.67477799996
 21
14186.81472899998
 31
0.0
  0
LINE
  5
3E58
  8
2-0
  6
CONTINUOUS
 62
     3
 10
25943.672586999961
 20
14213.852973999979
 30
0.0
 11
25950.674143999971
 21
14213.852973999979
 31
0.0
  0
LINE
  5
3E59
  8
2-0
  6
CONTINUOUS
 62
     3
 10
25950.674143999971
 20
14213.852973999979
 30
0.0
 11
25950.674143999971
 21
14208.855678999949
 31
0.0
  0
LINE
  5
3E5A
  8
2-0
  6
CONTINUOUS
 62
     3
 10
25950.674143999971
 20
14208.855678999949
 30
0.0
 11
25925.676783999959
 21
14208.855678999949
 31
0.0
  0
LINE
  5
3E5B
  8
2-0
  6
CONTINUOUS
 62
     3
 10
25925.676783999959
 20
14208.855678999949
 30
0.0
 11
25925.676783999959
 21
14226.85445199998
 31
0.0
  0
LINE
  5
3E5C
  8
2-0
  6
CONTINUOUS
 62
     3
 10
25925.676783999959
 20
14226.85445199998
 30
0.0
 11
25955.674407999959
 21
14226.85445199998
 31
0.0
  0
LINE
  5
3E5D
  8
2-0
  6
CENTER2
 62
     6
 10
25913.176123999961
 20
13904.32159199996
 30
0.0
 11
25913.176123999961
 21
15060.190350000001
 31
0.0
  0
LINE
  5
3E5E
  8
2-0
  6
CONTINUOUS
 62
     3
 10
25955.674407999959
 20
18549.911580999978
 30
0.0
 11
25955.674407999959
 21
19193.722298499961
 31
0.0
  0
LINE
  5
3E5F
  8
2-0
  6
CONTINUOUS
 62
     6
 10
26648.17929099996
 20
20752.817632999999
 30
0.0
 11
27848.173352999951
 21
20752.817632999999
 31
0.0
  0
LINE
  5
3E60
  8
2-0
  6
CONTINUOUS
 62
     3
 10
23067.677971999969
 20
20022.814729999998
 30
0.0
 11
23067.677971999969
 21
19992.811166999989
 31
0.0
  0
LINE
  5
3E61
  8
2-0
  6
CONTINUOUS
 62
     3
 10
23067.677971999969
 20
19992.811166999989
 30
0.0
 11
23061.68002999996
 21
19992.811166999989
 31
0.0
  0
LINE
  5
3E62
  8
2-0
  6
CONTINUOUS
 62
     3
 10
23077.29447299998
 20
19992.811166999989
 30
0.0
 11
23077.29447299998
 21
20022.814729999998
 31
0.0
  0
LINE
  5
3E63
  8
2-0
  6
CONTINUOUS
 62
     3
 10
23059.292730999961
 20
19992.811166999989
 30
0.0
 11
23077.29447299998
 21
19992.811166999989
 31
0.0
  0
LINE
  5
3E64
  8
2-0
  6
CONTINUOUS
 62
     3
 10
23059.292730999961
 20
20017.820403999991
 30
0.0
 11
23059.292730999961
 21
19992.811166999989
 31
0.0
  0
LINE
  5
3E65
  8
2-0
  6
CONTINUOUS
 62
     3
 10
23064.292994999989
 20
20017.820403999991
 30
0.0
 11
23059.292730999961
 21
20017.820403999991
 31
0.0
  0
LINE
  5
3E66
  8
2-0
  6
CONTINUOUS
 62
     3
 10
23064.292994999989
 20
20010.814888000001
 30
0.0
 11
23064.292994999989
 21
20017.820403999991
 31
0.0
  0
LINE
  5
3E67
  8
2-0
  6
CONTINUOUS
 62
     3
 10
23037.676387999982
 20
20019.922653000001
 30
0.0
 11
23037.676387999982
 21
19934.924104999991
 31
0.0
  0
LINE
  5
3E68
  8
2-0
  6
CONTINUOUS
 62
     3
 10
23017.679290999971
 20
20019.922653000001
 30
0.0
 11
23037.676387999982
 21
20019.922653000001
 31
0.0
  0
LINE
  5
3E69
  8
2-0
  6
CONTINUOUS
 62
     3
 10
22926.06519199998
 20
20010.814888000001
 30
0.0
 11
22926.06519199998
 21
20017.820403999991
 31
0.0
  0
LINE
  5
3E6A
  8
2-0
  6
CONTINUOUS
 62
     3
 10
22926.06519199998
 20
20017.820403999991
 30
0.0
 11
22931.065455999971
 21
20017.820403999991
 31
0.0
  0
LINE
  5
3E6B
  8
2-0
  6
CONTINUOUS
 62
     3
 10
22931.065455999971
 20
20017.820403999991
 30
0.0
 11
22931.065455999971
 21
19992.811166999989
 31
0.0
  0
LINE
  5
3E6C
  8
2-0
  6
CONTINUOUS
 62
     3
 10
22931.065455999971
 20
19992.811166999989
 30
0.0
 11
22913.063713999971
 21
19992.811166999989
 31
0.0
  0
LINE
  5
3E6D
  8
2-0
  6
CONTINUOUS
 62
     3
 10
22913.063713999971
 20
19992.811166999989
 30
0.0
 11
22913.063713999971
 21
20022.814729999998
 31
0.0
  0
LINE
  5
3E6E
  8
2-0
  6
CONTINUOUS
 62
     3
 10
22952.68377799997
 20
20019.922653000001
 30
0.0
 11
22972.678894999972
 21
20019.922653000001
 31
0.0
  0
LINE
  5
3E6F
  8
2-0
  6
CONTINUOUS
 62
     3
 10
22952.68377799997
 20
19934.924104999991
 30
0.0
 11
22952.68377799997
 21
20019.922653000001
 31
0.0
  0
LINE
  5
3E70
  8
2-0
  6
CONTINUOUS
 62
     3
 10
22922.686153999981
 20
19992.811166999989
 30
0.0
 11
22928.68211499996
 21
19992.811166999989
 31
0.0
  0
LINE
  5
3E71
  8
2-0
  6
CONTINUOUS
 62
     3
 10
22922.686153999981
 20
20022.814729999998
 30
0.0
 11
22922.686153999981
 21
19992.811166999989
 31
0.0
  0
LINE
  5
3E72
  8
2-0
  6
CONTINUOUS
 62
     3
 10
23037.676387999982
 20
19934.924104999991
 30
0.0
 11
22952.68377799997
 21
19934.924104999991
 31
0.0
  0
LINE
  5
3E73
  8
2-0
  6
CONTINUOUS
 62
     3
 10
23067.677971999969
 20
20022.814729999998
 30
0.0
 11
22922.686153999981
 21
20022.814729999998
 31
0.0
  0
LINE
  5
3E74
  8
2-0
  6
CONTINUOUS
 62
     6
 10
25786.146457999959
 20
19115.41650249996
 30
0.0
 11
25354.615365999962
 21
18873.26199449995
 31
0.0
  0
LINE
  5
3E75
  8
2-0
  6
CONTINUOUS
 62
     6
 10
26107.715291999932
 20
20165.494470000001
 30
0.0
 11
26648.17929099996
 21
20752.817632999999
 31
0.0
  0
LINE
  5
3E76
  8
2-0
  6
CONTINUOUS
 62
     6
 10
23037.676387999982
 20
14186.81472899998
 30
0.0
 11
23314.266600999981
 21
14642.159428999979
 31
0.0
  0
LINE
  5
3E77
  8
2-0
  6
CONTINUOUS
 62
     6
 10
23314.266600999981
 20
14642.159428999979
 30
0.0
 11
24344.61591999996
 21
14642.159428999979
 31
0.0
  0
LINE
  5
3E78
  8
2-0
  6
CONTINUOUS
 62
     3
 10
25955.674407999959
 20
16275.71586549998
 30
0.0
 11
25955.674407999959
 21
15632.152092
 31
0.0
  0
LINE
  5
3E79
  8
2-0
  6
CONTINUOUS
 62
     6
 10
23097.954707999961
 20
14337.410563999971
 30
0.0
 11
23037.676387999982
 21
14186.81472899998
 31
0.0
  0
LINE
  5
3E7A
  8
2-0
  6
CONTINUOUS
 62
     6
 10
23037.676387999982
 20
14186.81472899998
 30
0.0
 11
23143.535102999929
 21
14309.72303799998
 31
0.0
  0
LINE
  5
3E7B
  8
2-0
  6
CONTINUOUS
 62
     6
 10
23097.954707999961
 20
14337.410563999971
 30
0.0
 11
23143.535102999929
 21
14309.72303799998
 31
0.0
  0
LINE
  5
3E7C
  8
2-0
  6
CONTINUOUS
 62
     6
 10
23143.535102999929
 20
14309.72303799998
 30
0.0
 11
23037.676387999982
 21
14186.81472899998
 31
0.0
  0
LINE
  5
3E7D
  8
2-0
  6
CONTINUOUS
 62
     6
 10
23037.676387999982
 20
14186.81472899998
 30
0.0
 11
23097.954707999961
 21
14337.410563999971
 31
0.0
  0
LINE
  5
3E7E
  8
2-0
  6
CONTINUOUS
 62
     6
 10
23097.954707999961
 20
14337.410563999971
 30
0.0
 11
23037.676387999982
 21
14186.81472899998
 31
0.0
  0
LINE
  5
3E7F
  8
2-0
  6
CONTINUOUS
 62
     6
 10
23143.535102999929
 20
14309.72303799998
 30
0.0
 11
23037.676387999982
 21
14186.81472899998
 31
0.0
  0
LINE
  5
3E80
  8
2-0
  6
CONTINUOUS
 62
     6
 10
23143.535102999929
 20
14309.72303799998
 30
0.0
 11
23097.954707999961
 21
14337.410563999971
 31
0.0
  0
LINE
  5
3E81
  8
2-0
  6
CONTINUOUS
 62
     6
 10
25773.089552999962
 20
19138.67584649998
 30
0.0
 11
25925.676783999959
 21
19193.722298499961
 31
0.0
  0
LINE
  5
3E82
  8
2-0
  6
CONTINUOUS
 62
     6
 10
25925.676783999959
 20
19193.722298499961
 30
0.0
 11
25799.195443999961
 21
19092.163098499968
 31
0.0
  0
LINE
  5
3E83
  8
2-0
  6
CONTINUOUS
 62
     6
 10
25773.089552999962
 20
19138.67584649998
 30
0.0
 11
25799.195443999961
 21
19092.163098499968
 31
0.0
  0
LINE
  5
3E84
  8
2-0
  6
CONTINUOUS
 62
     6
 10
25799.195443999961
 20
19092.163098499968
 30
0.0
 11
25925.676783999959
 21
19193.722298499961
 31
0.0
  0
LINE
  5
3E85
  8
2-0
  6
CONTINUOUS
 62
     6
 10
25925.676783999959
 20
19193.722298499961
 30
0.0
 11
25773.089552999962
 21
19138.67584649998
 31
0.0
  0
LINE
  5
3E86
  8
2-0
  6
CONTINUOUS
 62
     6
 10
25773.089552999962
 20
19138.67584649998
 30
0.0
 11
25925.676783999959
 21
19193.722298499961
 31
0.0
  0
LINE
  5
3E87
  8
2-0
  6
CONTINUOUS
 62
     6
 10
25799.195443999961
 20
19092.163098499968
 30
0.0
 11
25925.676783999959
 21
19193.722298499961
 31
0.0
  0
LINE
  5
3E88
  8
2-0
  6
CONTINUOUS
 62
     6
 10
25799.195443999961
 20
19092.163098499968
 30
0.0
 11
25773.089552999962
 21
19138.67584649998
 31
0.0
  0
LINE
  5
3E89
  8
2-0
  6
CONTINUOUS
 62
     6
 10
26127.332320999962
 20
20147.433343000001
 30
0.0
 11
25999.37030099997
 21
20047.750725000002
 31
0.0
  0
LINE
  5
3E8A
  8
2-0
  6
CONTINUOUS
 62
     6
 10
25999.37030099997
 20
20047.750725000002
 30
0.0
 11
26088.084405999962
 21
20183.54768
 31
0.0
  0
LINE
  5
3E8B
  8
2-0
  6
CONTINUOUS
 62
     6
 10
26127.332320999962
 20
20147.433343000001
 30
0.0
 11
26088.084405999962
 21
20183.54768
 31
0.0
  0
LINE
  5
3E8C
  8
2-0
  6
CONTINUOUS
 62
     6
 10
26088.084405999962
 20
20183.54768
 30
0.0
 11
25999.37030099997
 21
20047.750725000002
 31
0.0
  0
LINE
  5
3E8D
  8
2-0
  6
CONTINUOUS
 62
     6
 10
25999.37030099997
 20
20047.750725000002
 30
0.0
 11
26127.332320999962
 21
20147.433343000001
 31
0.0
  0
LINE
  5
3E8E
  8
2-0
  6
CONTINUOUS
 62
     6
 10
26127.332320999962
 20
20147.433343000001
 30
0.0
 11
25999.37030099997
 21
20047.750725000002
 31
0.0
  0
LINE
  5
3E8F
  8
2-0
  6
CONTINUOUS
 62
     6
 10
26088.084405999962
 20
20183.54768
 30
0.0
 11
25999.37030099997
 21
20047.750725000002
 31
0.0
  0
LINE
  5
3E90
  8
2-0
  6
CONTINUOUS
 62
     6
 10
26088.084405999962
 20
20183.54768
 30
0.0
 11
26127.332320999962
 21
20147.433343000001
 31
0.0
  0
LINE
  5
3E91
  8
2-0
  6
CONTINUOUS
 62
     6
 10
19119.106523999992
 20
19775.042347999992
 30
0.0
 11
19251.039456999999
 21
19305.696512999992
 31
0.0
  0
LINE
  5
3E92
  8
2-0
  6
CONTINUOUS
 62
     6
 10
19251.039456999999
 20
19305.696512999992
 30
0.0
 11
20276.077727999978
 21
19305.696512999992
 31
0.0
  0
LINE
  5
3E93
  8
2-0
  6
CONTINUOUS
 62
     6
 10
19075.812473000002
 20
19929.070668
 30
0.0
 11
19093.434146999982
 21
19767.825023000001
 31
0.0
  0
LINE
  5
3E94
  8
2-0
  6
CONTINUOUS
 62
     6
 10
19144.778900000001
 20
19782.263631999991
 30
0.0
 11
19093.434146999982
 21
19767.825023000001
 31
0.0
  0
LINE
  5
3E95
  8
2-0
  6
CONTINUOUS
 62
     6
 10
19093.434146999982
 20
19767.825023000001
 30
0.0
 11
19075.812473000002
 21
19929.070668
 31
0.0
  0
LINE
  5
3E96
  8
2-0
  6
CONTINUOUS
 62
     6
 10
19075.812473000002
 20
19929.070668
 30
0.0
 11
19144.778900000001
 21
19782.263631999991
 31
0.0
  0
LINE
  5
3E97
  8
2-0
  6
CONTINUOUS
 62
     6
 10
19144.778900000001
 20
19782.263631999991
 30
0.0
 11
19075.812473000002
 21
19929.070668
 31
0.0
  0
LINE
  5
3E98
  8
2-0
  6
CONTINUOUS
 62
     6
 10
19093.434146999982
 20
19767.825023000001
 30
0.0
 11
19075.812473000002
 21
19929.070668
 31
0.0
  0
LINE
  5
3E99
  8
2-0
  6
CONTINUOUS
 62
     6
 10
19093.434146999982
 20
19767.825023000001
 30
0.0
 11
19144.778900000001
 21
19782.263631999991
 31
0.0
  0
LINE
  5
3E9A
  8
2-0
  6
CONTINUOUS
 62
     6
 10
23036.599529999981
 20
19904.063409999992
 30
0.0
 11
23185.469224999972
 21
19374.441234000002
 31
0.0
  0
LINE
  5
3E9B
  8
2-0
  6
CONTINUOUS
 62
     6
 10
23185.469224999972
 20
19374.441234000002
 30
0.0
 11
24210.51343399996
 21
19374.441234000002
 31
0.0
  0
LINE
  5
3E9C
  8
2-0
  6
CONTINUOUS
 62
     6
 10
23054.223183999951
 20
19742.817764999989
 30
0.0
 11
23105.57387499998
 21
19757.252414999992
 31
0.0
  0
LINE
  5
3E9D
  8
2-0
  6
CONTINUOUS
 62
     6
 10
23105.57387499998
 20
19757.252414999992
 30
0.0
 11
23054.223183999951
 21
19742.817764999989
 31
0.0
  0
LINE
  5
3E9E
  8
2-0
  6
CONTINUOUS
 62
     6
 10
23054.223183999951
 20
19742.817764999989
 30
0.0
 11
23036.599529999981
 21
19904.063409999992
 31
0.0
  0
LINE
  5
3E9F
  8
2-0
  6
CONTINUOUS
 62
     6
 10
23036.599529999981
 20
19904.063409999992
 30
0.0
 11
23105.57387499998
 21
19757.252414999992
 31
0.0
  0
LINE
  5
3EA0
  8
2-0
  6
CONTINUOUS
 62
     6
 10
23105.57387499998
 20
19757.252414999992
 30
0.0
 11
23036.599529999981
 21
19904.063409999992
 31
0.0
  0
LINE
  5
3EA1
  8
2-0
  6
CONTINUOUS
 62
     6
 10
23054.223183999951
 20
19742.817764999989
 30
0.0
 11
23036.599529999981
 21
19904.063409999992
 31
0.0
  0
LINE
  5
3EA2
  8
2-0
  6
CONTINUOUS
 62
     6
 10
23105.57387499998
 20
19757.252414999992
 30
0.0
 11
23036.599529999981
 21
19904.063409999992
 31
0.0
  0
LINE
  5
3EA3
  8
2-0
  6
CONTINUOUS
 62
     6
 10
23036.599529999981
 20
19904.063409999992
 30
0.0
 11
23054.223183999951
 21
19742.817764999989
 31
0.0
  0
LINE
  5
3EA4
  8
2-0
  6
CONTINUOUS
 62
     4
 10
22995.176123999961
 20
20102.816973000001
 30
0.0
 11
22995.176123999961
 21
20832.813937999981
 31
0.0
  0
LINE
  5
3EA5
  8
2-0
  6
CONTINUOUS
 62
     6
 10
25679.03668699996
 20
13993.546411999971
 30
0.0
 11
25810.78354599997
 21
14088.173338999981
 31
0.0
  0
LINE
  5
3EA6
  8
2-0
  6
CONTINUOUS
 62
     6
 10
25810.78354599997
 20
14088.173338999981
 30
0.0
 11
25716.85340999996
 21
13955.93456899997
 31
0.0
  0
LINE
  5
3EA7
  8
2-0
  6
CONTINUOUS
 62
     6
 10
25679.03668699996
 20
13993.546411999971
 30
0.0
 11
25716.85340999996
 21
13955.93456899997
 31
0.0
  0
LINE
  5
3EA8
  8
2-0
  6
CONTINUOUS
 62
     6
 10
25716.85340999996
 20
13955.93456899997
 30
0.0
 11
25810.78354599997
 21
14088.173338999981
 31
0.0
  0
LINE
  5
3EA9
  8
2-0
  6
CONTINUOUS
 62
     6
 10
25810.78354599997
 20
14088.173338999981
 30
0.0
 11
25679.03668699996
 21
13993.546411999971
 31
0.0
  0
LINE
  5
3EAA
  8
2-0
  6
CONTINUOUS
 62
     6
 10
25679.03668699996
 20
13993.546411999971
 30
0.0
 11
25810.78354599997
 21
14088.173338999981
 31
0.0
  0
LINE
  5
3EAB
  8
2-0
  6
CONTINUOUS
 62
     6
 10
25716.85340999996
 20
13955.93456899997
 30
0.0
 11
25810.78354599997
 21
14088.173338999981
 31
0.0
  0
LINE
  5
3EAC
  8
2-0
  6
CONTINUOUS
 62
     6
 10
25716.85340999996
 20
13955.93456899997
 30
0.0
 11
25679.03668699996
 21
13993.546411999971
 31
0.0
  0
LINE
  5
3EAD
  8
2-0
  6
CONTINUOUS
 62
     6
 10
25742.072475999961
 20
14320.45103899996
 30
0.0
 11
25874.67250799996
 21
14227.022710999971
 31
0.0
  0
LINE
  5
3EAE
  8
2-0
  6
CONTINUOUS
 62
     6
 10
25874.67250799996
 20
14227.022710999971
 30
0.0
 11
25718.939821999971
 21
14272.398224999981
 31
0.0
  0
LINE
  5
3EAF
  8
2-0
  6
CONTINUOUS
 62
     6
 10
25742.072475999961
 20
14320.45103899996
 30
0.0
 11
25718.939821999971
 21
14272.398224999981
 31
0.0
  0
LINE
  5
3EB0
  8
2-0
  6
CONTINUOUS
 62
     6
 10
25718.939821999971
 20
14272.398224999981
 30
0.0
 11
25874.67250799996
 21
14227.022710999971
 31
0.0
  0
LINE
  5
3EB1
  8
2-0
  6
CONTINUOUS
 62
     6
 10
25874.67250799996
 20
14227.022710999971
 30
0.0
 11
25742.072475999961
 21
14320.45103899996
 31
0.0
  0
LINE
  5
3EB2
  8
2-0
  6
CONTINUOUS
 62
     6
 10
25742.072475999961
 20
14320.45103899996
 30
0.0
 11
25874.67250799996
 21
14227.022710999971
 31
0.0
  0
LINE
  5
3EB3
  8
2-0
  6
CONTINUOUS
 62
     6
 10
25718.939821999971
 20
14272.398224999981
 30
0.0
 11
25874.67250799996
 21
14227.022710999971
 31
0.0
  0
LINE
  5
3EB4
  8
2-0
  6
CONTINUOUS
 62
     6
 10
25718.939821999971
 20
14272.398224999981
 30
0.0
 11
25742.072475999961
 21
14320.45103899996
 31
0.0
  0
LINE
  5
3EB5
  8
2-0
  6
CONTINUOUS
 62
     6
 10
25801.836121999961
 20
16700.271971999999
 30
0.0
 11
25955.674407999959
 21
16751.705803000001
 31
0.0
  0
LINE
  5
3EB6
  8
2-0
  6
CONTINUOUS
 62
     6
 10
25955.674407999959
 20
16751.705803000001
 30
0.0
 11
25826.839420999961
 21
16653.165368000002
 31
0.0
  0
LINE
  5
3EB7
  8
2-0
  6
CONTINUOUS
 62
     6
 10
25801.836121999961
 20
16700.271971999999
 30
0.0
 11
25826.839420999961
 21
16653.165368000002
 31
0.0
  0
LINE
  5
3EB8
  8
2-0
  6
CONTINUOUS
 62
     6
 10
25826.839420999961
 20
16653.165368000002
 30
0.0
 11
25955.674407999959
 21
16751.705803000001
 31
0.0
  0
LINE
  5
3EB9
  8
2-0
  6
CONTINUOUS
 62
     6
 10
25955.674407999959
 20
16751.705803000001
 30
0.0
 11
25801.836121999961
 21
16700.271971999999
 31
0.0
  0
LINE
  5
3EBA
  8
2-0
  6
CONTINUOUS
 62
     6
 10
25801.836121999961
 20
16700.271971999999
 30
0.0
 11
25955.674407999959
 21
16751.705803000001
 31
0.0
  0
LINE
  5
3EBB
  8
2-0
  6
CONTINUOUS
 62
     6
 10
25826.839420999961
 20
16653.165368000002
 30
0.0
 11
25955.674407999959
 21
16751.705803000001
 31
0.0
  0
LINE
  5
3EBC
  8
2-0
  6
CONTINUOUS
 62
     6
 10
25826.839420999961
 20
16653.165368000002
 30
0.0
 11
25801.836121999961
 21
16700.271971999999
 31
0.0
  0
LINE
  5
3EBD
  8
2-0
  6
CONTINUOUS
 62
     6
 10
25667.899914999962
 20
17191.59046399999
 30
0.0
 11
25810.78354599997
 21
17114.81483499999
 31
0.0
  0
LINE
  5
3EBE
  8
2-0
  6
CONTINUOUS
 62
     6
 10
25810.78354599997
 20
17114.81483499999
 30
0.0
 11
25650.72165299996
 21
17141.096904000002
 31
0.0
  0
LINE
  5
3EBF
  8
2-0
  6
CONTINUOUS
 62
     6
 10
25667.899914999962
 20
17191.59046399999
 30
0.0
 11
25650.72165299996
 21
17141.096904000002
 31
0.0
  0
LINE
  5
3EC0
  8
2-0
  6
CONTINUOUS
 62
     6
 10
25650.72165299996
 20
17141.096904000002
 30
0.0
 11
25810.78354599997
 21
17114.81483499999
 31
0.0
  0
LINE
  5
3EC1
  8
2-0
  6
CONTINUOUS
 62
     6
 10
25810.78354599997
 20
17114.81483499999
 30
0.0
 11
25667.899914999962
 21
17191.59046399999
 31
0.0
  0
LINE
  5
3EC2
  8
2-0
  6
CONTINUOUS
 62
     6
 10
25667.899914999962
 20
17191.59046399999
 30
0.0
 11
25810.78354599997
 21
17114.81483499999
 31
0.0
  0
LINE
  5
3EC3
  8
2-0
  6
CONTINUOUS
 62
     6
 10
25650.72165299996
 20
17141.096904000002
 30
0.0
 11
25810.78354599997
 21
17114.81483499999
 31
0.0
  0
LINE
  5
3EC4
  8
2-0
  6
CONTINUOUS
 62
     6
 10
25650.72165299996
 20
17141.096904000002
 30
0.0
 11
25667.899914999962
 21
17191.59046399999
 31
0.0
  0
LINE
  5
3EC5
  8
2-0
  6
CONTINUOUS
 62
     3
 10
19755.67142599999
 20
20022.814729999998
 30
0.0
 11
19718.670263999989
 21
20022.814729999998
 31
0.0
  0
LINE
  5
3EC6
  8
2-0
  6
CONTINUOUS
 62
     3
 10
19755.67142599999
 20
19992.811166999989
 30
0.0
 11
19755.67142599999
 21
20022.814729999998
 31
0.0
  0
LINE
  5
3EC7
  8
2-0
  6
CONTINUOUS
 62
     3
 10
19749.671504999969
 20
19992.811166999989
 30
0.0
 11
19755.67142599999
 21
19992.811166999989
 31
0.0
  0
LINE
  5
3EC8
  8
2-0
  6
CONTINUOUS
 62
     3
 10
19765.768949999991
 20
19992.811166999989
 30
0.0
 11
19765.768949999991
 21
20022.814729999998
 31
0.0
  0
LINE
  5
3EC9
  8
2-0
  6
CONTINUOUS
 62
     3
 10
19747.76522899999
 20
19992.811166999989
 30
0.0
 11
19765.768949999991
 21
19992.811166999989
 31
0.0
  0
LINE
  5
3ECA
  8
2-0
  6
CONTINUOUS
 62
     3
 10
19747.76522899999
 20
20017.820403999991
 30
0.0
 11
19747.76522899999
 21
19992.811166999989
 31
0.0
  0
LINE
  5
3ECB
  8
2-0
  6
CONTINUOUS
 62
     3
 10
19752.765492999992
 20
20017.820403999991
 30
0.0
 11
19747.76522899999
 21
20017.820403999991
 31
0.0
  0
LINE
  5
3ECC
  8
2-0
  6
CONTINUOUS
 62
     3
 10
19752.765492999992
 20
20010.814888000001
 30
0.0
 11
19752.765492999992
 21
20017.820403999991
 31
0.0
  0
LINE
  5
3ECD
  8
2-0
  6
CONTINUOUS
 62
     3
 10
19721.576197999981
 20
20010.814888000001
 30
0.0
 11
19721.576197999981
 21
20017.820403999991
 31
0.0
  0
LINE
  5
3ECE
  8
2-0
  6
CONTINUOUS
 62
     3
 10
19721.576197999981
 20
20017.820403999991
 30
0.0
 11
19726.57646199999
 21
20017.820403999991
 31
0.0
  0
LINE
  5
3ECF
  8
2-0
  6
CONTINUOUS
 62
     3
 10
19726.57646199999
 20
20017.820403999991
 30
0.0
 11
19726.57646199999
 21
19992.811166999989
 31
0.0
  0
LINE
  5
3ED0
  8
2-0
  6
CONTINUOUS
 62
     3
 10
19726.57646199999
 20
19992.811166999989
 30
0.0
 11
19708.57669899999
 21
19992.811166999989
 31
0.0
  0
LINE
  5
3ED1
  8
2-0
  6
CONTINUOUS
 62
     3
 10
19708.57669899999
 20
19992.811166999989
 30
0.0
 11
19708.57669899999
 21
20022.814729999998
 31
0.0
  0
LINE
  5
3ED2
  8
2-0
  6
CONTINUOUS
 62
     3
 10
19724.670184999992
 20
19992.811166999989
 30
0.0
 11
19718.670263999989
 21
19992.811166999989
 31
0.0
  0
LINE
  5
3ED3
  8
2-0
  6
CONTINUOUS
 62
     3
 10
19718.670263999989
 20
19992.811166999989
 30
0.0
 11
19718.670263999989
 21
20022.814729999998
 31
0.0
  0
LINE
  5
3ED4
  8
2-0
  6
CONTINUOUS
 62
     3
 10
17564.672164999989
 20
19913.814518999981
 30
0.0
 11
17564.672164999989
 21
19907.818556999991
 31
0.0
  0
LINE
  5
3ED5
  8
2-0
  6
CONTINUOUS
 62
     3
 10
17564.672164999989
 20
19907.818556999991
 30
0.0
 11
17534.674539999989
 21
19907.818556999991
 31
0.0
  0
LINE
  5
3ED6
  8
2-0
  6
CONTINUOUS
 62
     3
 10
17534.674539999989
 20
19907.818556999991
 30
0.0
 11
17534.674539999989
 21
20022.814729999998
 31
0.0
  0
LINE
  5
3ED7
  8
2-0
  6
CONTINUOUS
 62
     3
 10
17534.674539999989
 20
19937.818160999981
 30
0.0
 11
17615.672480999991
 21
19937.818160999981
 31
0.0
  0
LINE
  5
3ED8
  8
2-0
  6
CONTINUOUS
 62
     3
 10
17564.672164999989
 20
19897.521100999991
 30
0.0
 11
17534.674539999989
 21
19897.521100999991
 31
0.0
  0
LINE
  5
3ED9
  8
2-0
  6
CONTINUOUS
 62
     3
 10
17564.672164999989
 20
19915.522842999992
 30
0.0
 11
17564.672164999989
 21
19897.521100999991
 31
0.0
  0
LINE
  5
3EDA
  8
2-0
  6
CONTINUOUS
 62
     3
 10
17539.678762999989
 20
19915.522842999992
 30
0.0
 11
17564.672164999989
 21
19915.522842999992
 31
0.0
  0
LINE
  5
3EDB
  8
2-0
  6
CONTINUOUS
 62
     3
 10
17539.678762999989
 20
19910.514661000001
 30
0.0
 11
17539.678762999989
 21
19915.522842999992
 31
0.0
  0
LINE
  5
3EDC
  8
2-0
  6
CONTINUOUS
 62
     3
 10
17546.676360999962
 20
19910.514661000001
 30
0.0
 11
17539.678762999989
 21
19910.514661000001
 31
0.0
  0
LINE
  5
3EDD
  8
2-0
  6
CONTINUOUS
 62
     3
 10
17646.970649999981
 20
20010.814888000001
 30
0.0
 11
17646.970649999981
 21
20017.820403999991
 31
0.0
  0
LINE
  5
3EDE
  8
2-0
  6
CONTINUOUS
 62
     3
 10
17646.970649999981
 20
20017.820403999991
 30
0.0
 11
17641.968405999989
 21
20017.820403999991
 31
0.0
  0
LINE
  5
3EDF
  8
2-0
  6
CONTINUOUS
 62
     3
 10
17641.968405999989
 20
20017.820403999991
 30
0.0
 11
17641.968405999989
 21
19992.811166999989
 31
0.0
  0
LINE
  5
3EE0
  8
2-0
  6
CONTINUOUS
 62
     3
 10
17641.968405999989
 20
19992.811166999989
 30
0.0
 11
17659.976086999981
 21
19992.811166999989
 31
0.0
  0
LINE
  5
3EE1
  8
2-0
  6
CONTINUOUS
 62
     3
 10
17659.976086999981
 20
19992.811166999989
 30
0.0
 11
17659.976086999981
 21
20022.814729999998
 31
0.0
  0
LINE
  5
3EE2
  8
2-0
  6
CONTINUOUS
 62
     3
 10
17649.676650999991
 20
20022.814729999998
 30
0.0
 11
17534.674539999989
 21
20022.814729999998
 31
0.0
  0
LINE
  5
3EE3
  8
2-0
  6
CONTINUOUS
 62
     3
 10
17649.676650999991
 20
19992.811166999989
 30
0.0
 11
17649.676650999991
 21
20022.814729999998
 31
0.0
  0
LINE
  5
3EE4
  8
2-0
  6
CONTINUOUS
 62
     3
 10
17643.672771999991
 20
19992.811166999989
 30
0.0
 11
17649.676650999991
 21
19992.811166999989
 31
0.0
  0
LINE
  5
3EE5
  8
2-0
  6
CONTINUOUS
 62
     3
 10
18350.76054349999
 20
20010.814888000001
 30
0.0
 11
18350.76054349999
 21
20017.820403999991
 31
0.0
  0
LINE
  5
3EE6
  8
2-0
  6
CONTINUOUS
 62
     3
 10
18350.76054349999
 20
20017.820403999991
 30
0.0
 11
18345.760279499991
 21
20017.820403999991
 31
0.0
  0
LINE
  5
3EE7
  8
2-0
  6
CONTINUOUS
 62
     3
 10
18345.760279499991
 20
20017.820403999991
 30
0.0
 11
18345.760279499991
 21
19992.811166999989
 31
0.0
  0
LINE
  5
3EE8
  8
2-0
  6
CONTINUOUS
 62
     3
 10
18345.760279499991
 20
19992.811166999989
 30
0.0
 11
18363.765980499989
 21
19992.811166999989
 31
0.0
  0
LINE
  5
3EE9
  8
2-0
  6
CONTINUOUS
 62
     3
 10
18363.765980499989
 20
19992.811166999989
 30
0.0
 11
18363.765980499989
 21
20022.814729999998
 31
0.0
  0
LINE
  5
3EEA
  8
2-0
  6
CONTINUOUS
 62
     3
 10
18347.668535499961
 20
19992.811166999989
 30
0.0
 11
18353.670435499978
 21
19992.811166999989
 31
0.0
  0
LINE
  5
3EEB
  8
2-0
  6
CONTINUOUS
 62
     3
 10
18353.670435499978
 20
19992.811166999989
 30
0.0
 11
18353.670435499978
 21
20022.814729999998
 31
0.0
  0
LINE
  5
3EEC
  8
2-0
  6
CONTINUOUS
 62
     3
 10
18316.671254499961
 20
20022.814729999998
 30
0.0
 11
18353.670435499978
 21
20022.814729999998
 31
0.0
  0
LINE
  5
3EED
  8
2-0
  6
CONTINUOUS
 62
     3
 10
18316.671254499961
 20
19992.811166999989
 30
0.0
 11
18316.671254499961
 21
20022.814729999998
 31
0.0
  0
LINE
  5
3EEE
  8
2-0
  6
CONTINUOUS
 62
     3
 10
18322.66523649999
 20
19992.811166999989
 30
0.0
 11
18316.671254499961
 21
19992.811166999989
 31
0.0
  0
LINE
  5
3EEF
  8
2-0
  6
CONTINUOUS
 62
     3
 10
18306.575709499979
 20
19992.811166999989
 30
0.0
 11
18306.575709499979
 21
20022.814729999998
 31
0.0
  0
LINE
  5
3EF0
  8
2-0
  6
CONTINUOUS
 62
     3
 10
18324.571512499992
 20
19992.811166999989
 30
0.0
 11
18306.575709499979
 21
19992.811166999989
 31
0.0
  0
LINE
  5
3EF1
  8
2-0
  6
CONTINUOUS
 62
     3
 10
18324.571512499992
 20
20017.820403999991
 30
0.0
 11
18324.571512499992
 21
19992.811166999989
 31
0.0
  0
LINE
  5
3EF2
  8
2-0
  6
CONTINUOUS
 62
     3
 10
18319.571248499989
 20
20017.820403999991
 30
0.0
 11
18324.571512499992
 21
20017.820403999991
 31
0.0
  0
LINE
  5
3EF3
  8
2-0
  6
CONTINUOUS
 62
     3
 10
18319.571248499989
 20
20010.814888000001
 30
0.0
 11
18319.571248499989
 21
20017.820403999991
 31
0.0
  0
LINE
  5
3EF4
  8
2-0
  6
CONTINUOUS
 62
     3
 10
19020.570259499978
 20
20010.814888000001
 30
0.0
 11
19020.570259499978
 21
20017.820403999991
 31
0.0
  0
LINE
  5
3EF5
  8
2-0
  6
CONTINUOUS
 62
     3
 10
19020.570259499978
 20
20017.820403999991
 30
0.0
 11
19025.570522499991
 21
20017.820403999991
 31
0.0
  0
LINE
  5
3EF6
  8
2-0
  6
CONTINUOUS
 62
     3
 10
19025.570522499991
 20
20017.820403999991
 30
0.0
 11
19025.570522499991
 21
19992.811166999989
 31
0.0
  0
LINE
  5
3EF7
  8
2-0
  6
CONTINUOUS
 62
     3
 10
19025.570522499991
 20
19992.811166999989
 30
0.0
 11
19007.576699499961
 21
19992.811166999989
 31
0.0
  0
LINE
  5
3EF8
  8
2-0
  6
CONTINUOUS
 62
     3
 10
19007.576699499961
 20
19992.811166999989
 30
0.0
 11
19007.576699499961
 21
20022.814729999998
 31
0.0
  0
LINE
  5
3EF9
  8
2-0
  6
CONTINUOUS
 62
     3
 10
19023.66820549998
 20
19992.811166999989
 30
0.0
 11
19017.67026449999
 21
19992.811166999989
 31
0.0
  0
LINE
  5
3EFA
  8
2-0
  6
CONTINUOUS
 62
     3
 10
19017.67026449999
 20
19992.811166999989
 30
0.0
 11
19017.67026449999
 21
20022.814729999998
 31
0.0
  0
LINE
  5
3EFB
  8
2-0
  6
CONTINUOUS
 62
     3
 10
19054.67142549999
 20
20022.814729999998
 30
0.0
 11
19017.67026449999
 21
20022.814729999998
 31
0.0
  0
LINE
  5
3EFC
  8
2-0
  6
CONTINUOUS
 62
     3
 10
19054.67142549999
 20
19992.811166999989
 30
0.0
 11
19054.67142549999
 21
20022.814729999998
 31
0.0
  0
LINE
  5
3EFD
  8
2-0
  6
CONTINUOUS
 62
     3
 10
19048.665566499982
 20
19992.811166999989
 30
0.0
 11
19054.67142549999
 21
19992.811166999989
 31
0.0
  0
LINE
  5
3EFE
  8
2-0
  6
CONTINUOUS
 62
     3
 10
19064.764990499982
 20
19992.811166999989
 30
0.0
 11
19064.764990499982
 21
20022.814729999998
 31
0.0
  0
LINE
  5
3EFF
  8
2-0
  6
CONTINUOUS
 62
     3
 10
19046.769187499991
 20
19992.811166999989
 30
0.0
 11
19064.764990499982
 21
19992.811166999989
 31
0.0
  0
LINE
  5
3F00
  8
2-0
  6
CONTINUOUS
 62
     3
 10
19046.769187499991
 20
20017.820403999991
 30
0.0
 11
19046.769187499991
 21
19992.811166999989
 31
0.0
  0
LINE
  5
3F01
  8
2-0
  6
CONTINUOUS
 62
     3
 10
19051.759553499978
 20
20017.820403999991
 30
0.0
 11
19046.769187499991
 21
20017.820403999991
 31
0.0
  0
LINE
  5
3F02
  8
2-0
  6
CONTINUOUS
 62
     3
 10
19051.759553499978
 20
20010.814888000001
 30
0.0
 11
19051.759553499978
 21
20017.820403999991
 31
0.0
  0
LINE
  5
3F03
  8
2-0
  6
CONTINUOUS
 62
     3
 10
18363.765980499989
 20
20022.814729999998
 30
0.0
 11
19007.576699499961
 21
20022.814729999998
 31
0.0
  0
LINE
  5
3F04
  8
2-0
  6
CONTINUOUS
 62
     3
 10
17659.976086999981
 20
20022.814729999998
 30
0.0
 11
18306.575709499979
 21
20022.814729999998
 31
0.0
  0
LINE
  5
3F05
  8
2-0
  6
CONTINUOUS
 62
     3
 10
20422.670977000002
 20
20022.814729999998
 30
0.0
 11
20422.670977000002
 21
19992.811166999989
 31
0.0
  0
LINE
  5
3F06
  8
2-0
  6
CONTINUOUS
 62
     3
 10
20422.670977000002
 20
19992.811166999989
 30
0.0
 11
20428.674856000001
 21
19992.811166999989
 31
0.0
  0
LINE
  5
3F07
  8
2-0
  6
CONTINUOUS
 62
     3
 10
20413.05447499999
 20
19992.811166999989
 30
0.0
 11
20413.05447499999
 21
20022.814729999998
 31
0.0
  0
LINE
  5
3F08
  8
2-0
  6
CONTINUOUS
 62
     3
 10
20431.062155999989
 20
19992.811166999989
 30
0.0
 11
20413.05447499999
 21
19992.811166999989
 31
0.0
  0
LINE
  5
3F09
  8
2-0
  6
CONTINUOUS
 62
     3
 10
20431.062155999989
 20
20017.820403999991
 30
0.0
 11
20431.062155999989
 21
19992.811166999989
 31
0.0
  0
LINE
  5
3F0A
  8
2-0
  6
CONTINUOUS
 62
     3
 10
20426.055952999988
 20
20017.820403999991
 30
0.0
 11
20431.062155999989
 21
20017.820403999991
 31
0.0
  0
LINE
  5
3F0B
  8
2-0
  6
CONTINUOUS
 62
     3
 10
20426.055952999988
 20
20010.814888000001
 30
0.0
 11
20426.055952999988
 21
20017.820403999991
 31
0.0
  0
LINE
  5
3F0C
  8
2-0
  6
CONTINUOUS
 62
     3
 10
20452.67454
 20
20019.922653000001
 30
0.0
 11
20452.67454
 21
19934.924104999991
 31
0.0
  0
LINE
  5
3F0D
  8
2-0
  6
CONTINUOUS
 62
     3
 10
20472.673615999989
 20
20019.922653000001
 30
0.0
 11
20452.67454
 21
20019.922653000001
 31
0.0
  0
LINE
  5
3F0E
  8
2-0
  6
CONTINUOUS
 62
     3
 10
20564.287714999999
 20
20010.814888000001
 30
0.0
 11
20564.287714999999
 21
20017.820403999991
 31
0.0
  0
LINE
  5
3F0F
  8
2-0
  6
CONTINUOUS
 62
     3
 10
20564.287714999999
 20
20017.820403999991
 30
0.0
 11
20559.28547200001
 21
20017.820403999991
 31
0.0
  0
LINE
  5
3F10
  8
2-0
  6
CONTINUOUS
 62
     3
 10
20559.28547200001
 20
20017.820403999991
 30
0.0
 11
20559.28547200001
 21
19992.811166999989
 31
0.0
  0
LINE
  5
3F11
  8
2-0
  6
CONTINUOUS
 62
     3
 10
20559.28547200001
 20
19992.811166999989
 30
0.0
 11
20577.28919299999
 21
19992.811166999989
 31
0.0
  0
LINE
  5
3F12
  8
2-0
  6
CONTINUOUS
 62
     3
 10
20577.28919299999
 20
19992.811166999989
 30
0.0
 11
20577.28919299999
 21
20022.814729999998
 31
0.0
  0
LINE
  5
3F13
  8
2-0
  6
CONTINUOUS
 62
     3
 10
20537.673087999989
 20
20019.922653000001
 30
0.0
 11
20517.670053000002
 21
20019.922653000001
 31
0.0
  0
LINE
  5
3F14
  8
2-0
  6
CONTINUOUS
 62
     3
 10
20537.673087999989
 20
19934.924104999991
 30
0.0
 11
20537.673087999989
 21
20019.922653000001
 31
0.0
  0
LINE
  5
3F15
  8
2-0
  6
CONTINUOUS
 62
     3
 10
20567.672692
 20
19992.811166999989
 30
0.0
 11
20561.67277099999
 21
19992.811166999989
 31
0.0
  0
LINE
  5
3F16
  8
2-0
  6
CONTINUOUS
 62
     3
 10
20567.672692
 20
20022.814729999998
 30
0.0
 11
20567.672692
 21
19992.811166999989
 31
0.0
  0
LINE
  5
3F17
  8
2-0
  6
CONTINUOUS
 62
     3
 10
20452.67454
 20
19934.924104999991
 30
0.0
 11
20537.673087999989
 21
19934.924104999991
 31
0.0
  0
LINE
  5
3F18
  8
2-0
  6
CONTINUOUS
 62
     3
 10
20422.670977000002
 20
20022.814729999998
 30
0.0
 11
20567.672692
 21
20022.814729999998
 31
0.0
  0
LINE
  5
3F19
  8
2-0
  6
CONTINUOUS
 62
     3
 10
20413.05447499999
 20
20022.814729999998
 30
0.0
 11
19765.768949999991
 21
20022.814729999998
 31
0.0
  0
LINE
  5
3F1A
  8
2-0
  6
CONTINUOUS
 62
     3
 10
19708.57669899999
 20
20022.814729999998
 30
0.0
 11
19064.764990499982
 21
20022.814729999998
 31
0.0
  0
LINE
  5
3F1B
  8
2-0
  6
CONTINUOUS
 62
     3
 10
17564.672164999989
 20
19913.814518999981
 30
0.0
 11
17564.672164999989
 21
19907.818556999991
 31
0.0
  0
LINE
  5
3F1C
  8
2-0
  6
CONTINUOUS
 62
     3
 10
17564.672164999989
 20
19907.818556999991
 30
0.0
 11
17534.674539999989
 21
19907.818556999991
 31
0.0
  0
LINE
  5
3F1D
  8
2-0
  6
CONTINUOUS
 62
     3
 10
17534.674539999989
 20
19907.818556999991
 30
0.0
 11
17534.674539999989
 21
20022.814729999998
 31
0.0
  0
LINE
  5
3F1E
  8
2-0
  6
CONTINUOUS
 62
     3
 10
17534.674539999989
 20
19937.818160999981
 30
0.0
 11
17615.672480999991
 21
19937.818160999981
 31
0.0
  0
LINE
  5
3F1F
  8
2-0
  6
CONTINUOUS
 62
     3
 10
17564.672164999989
 20
19897.521100999991
 30
0.0
 11
17534.674539999989
 21
19897.521100999991
 31
0.0
  0
LINE
  5
3F20
  8
2-0
  6
CONTINUOUS
 62
     3
 10
17564.672164999989
 20
19915.522842999992
 30
0.0
 11
17564.672164999989
 21
19897.521100999991
 31
0.0
  0
LINE
  5
3F21
  8
2-0
  6
CONTINUOUS
 62
     3
 10
17539.678762999989
 20
19915.522842999992
 30
0.0
 11
17564.672164999989
 21
19915.522842999992
 31
0.0
  0
LINE
  5
3F22
  8
2-0
  6
CONTINUOUS
 62
     3
 10
17539.678762999989
 20
19910.514661000001
 30
0.0
 11
17539.678762999989
 21
19915.522842999992
 31
0.0
  0
LINE
  5
3F23
  8
2-0
  6
CONTINUOUS
 62
     3
 10
17546.676360999962
 20
19910.514661000001
 30
0.0
 11
17539.678762999989
 21
19910.514661000001
 31
0.0
  0
LINE
  5
3F24
  8
2-0
  6
CONTINUOUS
 62
     3
 10
17546.676360999962
 20
19206.717838499961
 30
0.0
 11
17539.678762999989
 21
19206.717838499961
 31
0.0
  0
LINE
  5
3F25
  8
2-0
  6
CONTINUOUS
 62
     3
 10
17539.678762999989
 20
19206.717838499961
 30
0.0
 11
17539.678762999989
 21
19211.718102499981
 31
0.0
  0
LINE
  5
3F26
  8
2-0
  6
CONTINUOUS
 62
     3
 10
17539.678762999989
 20
19211.718102499981
 30
0.0
 11
17564.672164999989
 21
19211.718102499981
 31
0.0
  0
LINE
  5
3F27
  8
2-0
  6
CONTINUOUS
 62
     3
 10
17564.672164999989
 20
19211.718102499981
 30
0.0
 11
17564.672164999989
 21
19193.722298499961
 31
0.0
  0
LINE
  5
3F28
  8
2-0
  6
CONTINUOUS
 62
     3
 10
17564.672164999989
 20
19193.722298499961
 30
0.0
 11
17534.674539999989
 21
19193.722298499961
 31
0.0
  0
LINE
  5
3F29
  8
2-0
  6
CONTINUOUS
 62
     3
 10
17564.672164999989
 20
19209.813805499962
 30
0.0
 11
17564.672164999989
 21
19203.81586449996
 31
0.0
  0
LINE
  5
3F2A
  8
2-0
  6
CONTINUOUS
 62
     3
 10
17564.672164999989
 20
19203.81586449996
 30
0.0
 11
17534.674539999989
 21
19203.81586449996
 31
0.0
  0
LINE
  5
3F2B
  8
2-0
  6
CONTINUOUS
 62
     3
 10
17534.674539999989
 20
19203.81586449996
 30
0.0
 11
17534.674539999989
 21
19240.81702549995
 31
0.0
  0
LINE
  5
3F2C
  8
2-0
  6
CONTINUOUS
 62
     3
 10
17564.672164999989
 20
19240.81702549995
 30
0.0
 11
17534.674539999989
 21
19240.81702549995
 31
0.0
  0
LINE
  5
3F2D
  8
2-0
  6
CONTINUOUS
 62
     3
 10
17564.672164999989
 20
19234.813145499971
 30
0.0
 11
17564.672164999989
 21
19240.81702549995
 31
0.0
  0
LINE
  5
3F2E
  8
2-0
  6
CONTINUOUS
 62
     3
 10
17564.672164999989
 20
19250.912570499971
 30
0.0
 11
17534.674539999989
 21
19250.912570499971
 31
0.0
  0
LINE
  5
3F2F
  8
2-0
  6
CONTINUOUS
 62
     3
 10
17564.672164999989
 20
19232.91082849996
 30
0.0
 11
17564.672164999989
 21
19250.912570499971
 31
0.0
  0
LINE
  5
3F30
  8
2-0
  6
CONTINUOUS
 62
     3
 10
17539.678762999989
 20
19232.91082849996
 30
0.0
 11
17564.672164999989
 21
19232.91082849996
 31
0.0
  0
LINE
  5
3F31
  8
2-0
  6
CONTINUOUS
 62
     3
 10
17539.678762999989
 20
19237.91109249998
 30
0.0
 11
17539.678762999989
 21
19232.91082849996
 31
0.0
  0
LINE
  5
3F32
  8
2-0
  6
CONTINUOUS
 62
     3
 10
17546.676360999962
 20
19237.91109249998
 30
0.0
 11
17539.678762999989
 21
19237.91109249998
 31
0.0
  0
LINE
  5
3F33
  8
2-0
  6
CONTINUOUS
 62
     3
 10
17546.676360999962
 20
18505.71783899999
 30
0.0
 11
17539.678762999989
 21
18505.71783899999
 31
0.0
  0
LINE
  5
3F34
  8
2-0
  6
CONTINUOUS
 62
     3
 10
17539.678762999989
 20
18505.71783899999
 30
0.0
 11
17539.678762999989
 21
18510.724040999969
 31
0.0
  0
LINE
  5
3F35
  8
2-0
  6
CONTINUOUS
 62
     3
 10
17539.678762999989
 20
18510.724040999969
 30
0.0
 11
17564.672164999989
 21
18510.724040999969
 31
0.0
  0
LINE
  5
3F36
  8
2-0
  6
CONTINUOUS
 62
     3
 10
17564.672164999989
 20
18510.724040999969
 30
0.0
 11
17564.672164999989
 21
18492.722298999979
 31
0.0
  0
LINE
  5
3F37
  8
2-0
  6
CONTINUOUS
 62
     3
 10
17564.672164999989
 20
18492.722298999979
 30
0.0
 11
17534.674539999989
 21
18492.722298999979
 31
0.0
  0
LINE
  5
3F38
  8
2-0
  6
CONTINUOUS
 62
     3
 10
17564.672164999989
 20
18508.813805999969
 30
0.0
 11
17564.672164999989
 21
18502.817843999968
 31
0.0
  0
LINE
  5
3F39
  8
2-0
  6
CONTINUOUS
 62
     3
 10
17564.672164999989
 20
18502.817843999968
 30
0.0
 11
17534.674539999989
 21
18502.817843999968
 31
0.0
  0
LINE
  5
3F3A
  8
2-0
  6
CONTINUOUS
 62
     3
 10
17534.674539999989
 20
18502.817843999968
 30
0.0
 11
17534.674539999989
 21
18539.817025999961
 31
0.0
  0
LINE
  5
3F3B
  8
2-0
  6
CONTINUOUS
 62
     3
 10
17564.672164999989
 20
18539.817025999961
 30
0.0
 11
17534.674539999989
 21
18539.817025999961
 31
0.0
  0
LINE
  5
3F3C
  8
2-0
  6
CONTINUOUS
 62
     3
 10
17564.672164999989
 20
18533.821063999982
 30
0.0
 11
17564.672164999989
 21
18539.817025999961
 31
0.0
  0
LINE
  5
3F3D
  8
2-0
  6
CONTINUOUS
 62
     3
 10
17564.672164999989
 20
18549.91257099999
 30
0.0
 11
17534.674539999989
 21
18549.91257099999
 31
0.0
  0
LINE
  5
3F3E
  8
2-0
  6
CONTINUOUS
 62
     3
 10
17564.672164999989
 20
18531.91082899996
 30
0.0
 11
17564.672164999989
 21
18549.91257099999
 31
0.0
  0
LINE
  5
3F3F
  8
2-0
  6
CONTINUOUS
 62
     3
 10
17539.678762999989
 20
18531.91082899996
 30
0.0
 11
17564.672164999989
 21
18531.91082899996
 31
0.0
  0
LINE
  5
3F40
  8
2-0
  6
CONTINUOUS
 62
     3
 10
17539.678762999989
 20
18536.91703099995
 30
0.0
 11
17539.678762999989
 21
18531.91082899996
 31
0.0
  0
LINE
  5
3F41
  8
2-0
  6
CONTINUOUS
 62
     3
 10
17546.676360999962
 20
18536.91703099995
 30
0.0
 11
17539.678762999989
 21
18536.91703099995
 31
0.0
  0
LINE
  5
3F42
  8
2-0
  6
CONTINUOUS
 62
     3
 10
17546.676360999962
 20
17835.910102999991
 30
0.0
 11
17539.678762999989
 21
17835.910102999991
 31
0.0
  0
LINE
  5
3F43
  8
2-0
  6
CONTINUOUS
 62
     3
 10
17539.678762999989
 20
17835.910102999991
 30
0.0
 11
17539.678762999989
 21
17830.921715999972
 31
0.0
  0
LINE
  5
3F44
  8
2-0
  6
CONTINUOUS
 62
     3
 10
17539.678762999989
 20
17830.921715999972
 30
0.0
 11
17564.672164999989
 21
17830.921715999972
 31
0.0
  0
LINE
  5
3F45
  8
2-0
  6
CONTINUOUS
 62
     3
 10
17564.672164999989
 20
17830.921715999972
 30
0.0
 11
17564.672164999989
 21
17848.917518999991
 31
0.0
  0
LINE
  5
3F46
  8
2-0
  6
CONTINUOUS
 62
     3
 10
17564.672164999989
 20
17848.917518999991
 30
0.0
 11
17534.674539999989
 21
17848.917518999991
 31
0.0
  0
LINE
  5
3F47
  8
2-0
  6
CONTINUOUS
 62
     3
 10
17564.672164999989
 20
17832.820073999981
 30
0.0
 11
17564.672164999989
 21
17838.816035999971
 31
0.0
  0
LINE
  5
3F48
  8
2-0
  6
CONTINUOUS
 62
     3
 10
17564.672164999989
 20
17838.816035999971
 30
0.0
 11
17534.674539999989
 21
17838.816035999971
 31
0.0
  0
LINE
  5
3F49
  8
2-0
  6
CONTINUOUS
 62
     3
 10
17534.674539999989
 20
17838.816035999971
 30
0.0
 11
17534.674539999989
 21
17801.816853999961
 31
0.0
  0
LINE
  5
3F4A
  8
2-0
  6
CONTINUOUS
 62
     3
 10
17564.672164999989
 20
17801.816853999961
 30
0.0
 11
17534.674539999989
 21
17801.816853999961
 31
0.0
  0
LINE
  5
3F4B
  8
2-0
  6
CONTINUOUS
 62
     3
 10
17564.672164999989
 20
17807.818754999978
 30
0.0
 11
17564.672164999989
 21
17801.816853999961
 31
0.0
  0
LINE
  5
3F4C
  8
2-0
  6
CONTINUOUS
 62
     3
 10
17564.672164999989
 20
17791.727247999981
 30
0.0
 11
17534.674539999989
 21
17791.727247999981
 31
0.0
  0
LINE
  5
3F4D
  8
2-0
  6
CONTINUOUS
 62
     3
 10
17564.672164999989
 20
17809.723050999972
 30
0.0
 11
17564.672164999989
 21
17791.727247999981
 31
0.0
  0
LINE
  5
3F4E
  8
2-0
  6
CONTINUOUS
 62
     3
 10
17539.678762999989
 20
17809.723050999972
 30
0.0
 11
17564.672164999989
 21
17809.723050999972
 31
0.0
  0
LINE
  5
3F4F
  8
2-0
  6
CONTINUOUS
 62
     3
 10
17539.678762999989
 20
17804.722787999981
 30
0.0
 11
17539.678762999989
 21
17809.723050999972
 31
0.0
  0
LINE
  5
3F50
  8
2-0
  6
CONTINUOUS
 62
     3
 10
17546.676360999962
 20
17804.722787999981
 30
0.0
 11
17539.678762999989
 21
17804.722787999981
 31
0.0
  0
LINE
  5
3F51
  8
2-0
  6
CONTINUOUS
 62
     3
 10
17537.560677999991
 20
17084.813673999972
 30
0.0
 11
17537.560677999991
 21
17104.814728999969
 31
0.0
  0
LINE
  5
3F52
  8
2-0
  6
CONTINUOUS
 62
     3
 10
17537.560677999991
 20
17104.814728999969
 30
0.0
 11
17622.561205999991
 21
17104.814728999969
 31
0.0
  0
LINE
  5
3F53
  8
2-0
  6
CONTINUOUS
 62
     3
 10
17546.676360999962
 20
17131.421438999991
 30
0.0
 11
17539.678762999989
 21
17131.421438999991
 31
0.0
  0
LINE
  5
3F54
  8
2-0
  6
CONTINUOUS
 62
     3
 10
17539.678762999989
 20
17131.421438999991
 30
0.0
 11
17539.678762999989
 21
17126.427112999991
 31
0.0
  0
LINE
  5
3F55
  8
2-0
  6
CONTINUOUS
 62
     3
 10
17539.678762999989
 20
17126.427112999991
 30
0.0
 11
17564.672164999989
 21
17126.427112999991
 31
0.0
  0
LINE
  5
3F56
  8
2-0
  6
CONTINUOUS
 62
     3
 10
17564.672164999989
 20
17126.427112999991
 30
0.0
 11
17564.672164999989
 21
17144.422916999989
 31
0.0
  0
LINE
  5
3F57
  8
2-0
  6
CONTINUOUS
 62
     3
 10
17564.672164999989
 20
17144.422916999989
 30
0.0
 11
17534.674539999989
 21
17144.422916999989
 31
0.0
  0
LINE
  5
3F58
  8
2-0
  6
CONTINUOUS
 62
     3
 10
17564.672164999989
 20
17134.81433299998
 30
0.0
 11
17564.672164999989
 21
17128.812432999981
 31
0.0
  0
LINE
  5
3F59
  8
2-0
  6
CONTINUOUS
 62
     3
 10
17534.674539999989
 20
17134.81433299998
 30
0.0
 11
17564.672164999989
 21
17134.81433299998
 31
0.0
  0
LINE
  5
3F5A
  8
2-0
  6
CONTINUOUS
 62
     3
 10
17534.674539999989
 20
17144.422916999989
 30
0.0
 11
17534.674539999989
 21
17791.727247999981
 31
0.0
  0
LINE
  5
3F5B
  8
2-0
  6
CONTINUOUS
 62
     3
 10
17534.674539999989
 20
17848.917518999991
 30
0.0
 11
17534.674539999989
 21
18492.722298999979
 31
0.0
  0
LINE
  5
3F5C
  8
2-0
  6
CONTINUOUS
 62
     3
 10
17534.674539999989
 20
16989.812617999989
 30
0.0
 11
17564.672164999989
 21
16989.812617999989
 31
0.0
  0
LINE
  5
3F5D
  8
2-0
  6
CONTINUOUS
 62
     3
 10
17564.672164999989
 20
16989.812617999989
 30
0.0
 11
17564.672164999989
 21
16995.814517999981
 31
0.0
  0
LINE
  5
3F5E
  8
2-0
  6
CONTINUOUS
 62
     3
 10
17622.561205999991
 20
17019.818160999981
 30
0.0
 11
17537.560677999991
 21
17019.818160999981
 31
0.0
  0
LINE
  5
3F5F
  8
2-0
  6
CONTINUOUS
 62
     3
 10
17537.560677999991
 20
17019.818160999981
 30
0.0
 11
17537.560677999991
 21
17039.813277999991
 31
0.0
  0
LINE
  5
3F60
  8
2-0
  6
CONTINUOUS
 62
     3
 10
17564.672164999989
 20
16980.204034999992
 30
0.0
 11
17534.674539999989
 21
16980.204034999992
 31
0.0
  0
LINE
  5
3F61
  8
2-0
  6
CONTINUOUS
 62
     3
 10
17564.672164999989
 20
16998.199837999979
 30
0.0
 11
17564.672164999989
 21
16980.204034999992
 31
0.0
  0
LINE
  5
3F62
  8
2-0
  6
CONTINUOUS
 62
     3
 10
17539.678762999989
 20
16998.199837999979
 30
0.0
 11
17564.672164999989
 21
16998.199837999979
 31
0.0
  0
LINE
  5
3F63
  8
2-0
  6
CONTINUOUS
 62
     3
 10
17539.678762999989
 20
16993.199573999991
 30
0.0
 11
17539.678762999989
 21
16998.199837999979
 31
0.0
  0
LINE
  5
3F64
  8
2-0
  6
CONTINUOUS
 62
     3
 10
17546.676360999962
 20
16993.199573999991
 30
0.0
 11
17539.678762999989
 21
16993.199573999991
 31
0.0
  0
LINE
  5
3F65
  8
2-0
  6
CONTINUOUS
 62
     3
 10
17546.676360999962
 20
16288.717343499949
 30
0.0
 11
17539.678762999989
 21
16288.717343499949
 31
0.0
  0
LINE
  5
3F66
  8
2-0
  6
CONTINUOUS
 62
     3
 10
17539.678762999989
 20
16288.717343499949
 30
0.0
 11
17539.678762999989
 21
16293.717607499961
 31
0.0
  0
LINE
  5
3F67
  8
2-0
  6
CONTINUOUS
 62
     3
 10
17539.678762999989
 20
16293.717607499961
 30
0.0
 11
17564.672164999989
 21
16293.717607499961
 31
0.0
  0
LINE
  5
3F68
  8
2-0
  6
CONTINUOUS
 62
     3
 10
17564.672164999989
 20
16293.717607499961
 30
0.0
 11
17564.672164999989
 21
16275.71586549998
 31
0.0
  0
LINE
  5
3F69
  8
2-0
  6
CONTINUOUS
 62
     3
 10
17564.672164999989
 20
16275.71586549998
 30
0.0
 11
17534.674539999989
 21
16275.71586549998
 31
0.0
  0
LINE
  5
3F6A
  8
2-0
  6
CONTINUOUS
 62
     3
 10
17564.672164999989
 20
16291.81331049998
 30
0.0
 11
17564.672164999989
 21
16285.816359499981
 31
0.0
  0
LINE
  5
3F6B
  8
2-0
  6
CONTINUOUS
 62
     3
 10
17564.672164999989
 20
16285.816359499981
 30
0.0
 11
17534.674539999989
 21
16285.816359499981
 31
0.0
  0
LINE
  5
3F6C
  8
2-0
  6
CONTINUOUS
 62
     3
 10
17534.674539999989
 20
16285.816359499981
 30
0.0
 11
17534.674539999989
 21
16322.81653049998
 31
0.0
  0
LINE
  5
3F6D
  8
2-0
  6
CONTINUOUS
 62
     3
 10
17564.672164999989
 20
16322.81653049998
 30
0.0
 11
17534.674539999989
 21
16322.81653049998
 31
0.0
  0
LINE
  5
3F6E
  8
2-0
  6
CONTINUOUS
 62
     3
 10
17564.672164999989
 20
16316.81364049998
 30
0.0
 11
17564.672164999989
 21
16322.81653049998
 31
0.0
  0
LINE
  5
3F6F
  8
2-0
  6
CONTINUOUS
 62
     3
 10
17564.672164999989
 20
16332.91207549998
 30
0.0
 11
17534.674539999989
 21
16332.91207549998
 31
0.0
  0
LINE
  5
3F70
  8
2-0
  6
CONTINUOUS
 62
     3
 10
17564.672164999989
 20
16314.904394499979
 30
0.0
 11
17564.672164999989
 21
16332.91207549998
 31
0.0
  0
LINE
  5
3F71
  8
2-0
  6
CONTINUOUS
 62
     3
 10
17539.678762999989
 20
16314.904394499979
 30
0.0
 11
17564.672164999989
 21
16314.904394499979
 31
0.0
  0
LINE
  5
3F72
  8
2-0
  6
CONTINUOUS
 62
     3
 10
17539.678762999989
 20
16319.91059749998
 30
0.0
 11
17539.678762999989
 21
16314.904394499979
 31
0.0
  0
LINE
  5
3F73
  8
2-0
  6
CONTINUOUS
 62
     3
 10
17546.676360999962
 20
16319.91059749998
 30
0.0
 11
17539.678762999989
 21
16319.91059749998
 31
0.0
  0
LINE
  5
3F74
  8
2-0
  6
CONTINUOUS
 62
     3
 10
17546.676360999962
 20
15619.15061399998
 30
0.0
 11
17539.678762999989
 21
15619.15061399998
 31
0.0
  0
LINE
  5
3F75
  8
2-0
  6
CONTINUOUS
 62
     3
 10
17539.678762999989
 20
15619.15061399998
 30
0.0
 11
17539.678762999989
 21
15614.15628899999
 31
0.0
  0
LINE
  5
3F76
  8
2-0
  6
CONTINUOUS
 62
     3
 10
17539.678762999989
 20
15614.15628899999
 30
0.0
 11
17564.672164999989
 21
15614.15628899999
 31
0.0
  0
LINE
  5
3F77
  8
2-0
  6
CONTINUOUS
 62
     3
 10
17564.672164999989
 20
15614.15628899999
 30
0.0
 11
17564.672164999989
 21
15632.152092
 31
0.0
  0
LINE
  5
3F78
  8
2-0
  6
CONTINUOUS
 62
     3
 10
17564.672164999989
 20
15632.152092
 30
0.0
 11
17534.674539999989
 21
15632.152092
 31
0.0
  0
LINE
  5
3F79
  8
2-0
  6
CONTINUOUS
 62
     3
 10
17564.672164999989
 20
15616.05464699999
 30
0.0
 11
17564.672164999989
 21
15622.056547
 31
0.0
  0
LINE
  5
3F7A
  8
2-0
  6
CONTINUOUS
 62
     3
 10
17564.672164999989
 20
15622.056547
 30
0.0
 11
17534.674539999989
 21
15622.056547
 31
0.0
  0
LINE
  5
3F7B
  8
2-0
  6
CONTINUOUS
 62
     3
 10
17534.674539999989
 20
15585.05736599999
 30
0.0
 11
17534.674539999989
 21
15622.056547
 31
0.0
  0
LINE
  5
3F7C
  8
2-0
  6
CONTINUOUS
 62
     3
 10
17564.672164999989
 20
15585.05736599999
 30
0.0
 11
17534.674539999989
 21
15585.05736599999
 31
0.0
  0
LINE
  5
3F7D
  8
2-0
  6
CONTINUOUS
 62
     3
 10
17564.672164999989
 20
15591.05431699998
 30
0.0
 11
17564.672164999989
 21
15585.05736599999
 31
0.0
  0
LINE
  5
3F7E
  8
2-0
  6
CONTINUOUS
 62
     3
 10
17564.672164999989
 20
15574.95588199998
 30
0.0
 11
17534.674539999989
 21
15574.95588199998
 31
0.0
  0
LINE
  5
3F7F
  8
2-0
  6
CONTINUOUS
 62
     3
 10
17564.672164999989
 20
15592.963562999979
 30
0.0
 11
17564.672164999989
 21
15574.95588199998
 31
0.0
  0
LINE
  5
3F80
  8
2-0
  6
CONTINUOUS
 62
     3
 10
17539.678762999989
 20
15592.963562999979
 30
0.0
 11
17564.672164999989
 21
15592.963562999979
 31
0.0
  0
LINE
  5
3F81
  8
2-0
  6
CONTINUOUS
 62
     3
 10
17539.678762999989
 20
15587.963298999999
 30
0.0
 11
17539.678762999989
 21
15592.963562999979
 31
0.0
  0
LINE
  5
3F82
  8
2-0
  6
CONTINUOUS
 62
     3
 10
17546.676360999962
 20
15587.963298999999
 30
0.0
 11
17539.678762999989
 21
15587.963298999999
 31
0.0
  0
LINE
  5
3F83
  8
2-0
  6
CONTINUOUS
 62
     3
 10
17534.674539999989
 20
16980.204034999992
 30
0.0
 11
17534.674539999989
 21
16332.91207549998
 31
0.0
  0
LINE
  5
3F84
  8
2-0
  6
CONTINUOUS
 62
     3
 10
17534.674539999989
 20
17134.81433299998
 30
0.0
 11
17534.674539999989
 21
16989.812617999989
 31
0.0
  0
LINE
  5
3F85
  8
2-0
  6
CONTINUOUS
 62
     3
 10
17622.561205999991
 20
17104.814728999969
 30
0.0
 11
17622.561205999991
 21
17019.818160999981
 31
0.0
  0
LINE
  5
3F86
  8
2-0
  6
CONTINUOUS
 62
     3
 10
17546.676360999962
 20
14886.72229199998
 30
0.0
 11
17539.678762999989
 21
14886.72229199998
 31
0.0
  0
LINE
  5
3F87
  8
2-0
  6
CONTINUOUS
 62
     3
 10
17539.678762999989
 20
14886.72229199998
 30
0.0
 11
17539.678762999989
 21
14891.71661799998
 31
0.0
  0
LINE
  5
3F88
  8
2-0
  6
CONTINUOUS
 62
     3
 10
17539.678762999989
 20
14891.71661799998
 30
0.0
 11
17564.672164999989
 21
14891.71661799998
 31
0.0
  0
LINE
  5
3F89
  8
2-0
  6
CONTINUOUS
 62
     3
 10
17564.672164999989
 20
14891.71661799998
 30
0.0
 11
17564.672164999989
 21
14873.720813999969
 31
0.0
  0
LINE
  5
3F8A
  8
2-0
  6
CONTINUOUS
 62
     3
 10
17564.672164999989
 20
14873.720813999969
 30
0.0
 11
17534.674539999989
 21
14873.720813999969
 31
0.0
  0
LINE
  5
3F8B
  8
2-0
  6
CONTINUOUS
 62
     3
 10
17564.672164999989
 20
14889.81924899998
 30
0.0
 11
17564.672164999989
 21
14883.81635899998
 31
0.0
  0
LINE
  5
3F8C
  8
2-0
  6
CONTINUOUS
 62
     3
 10
17564.672164999989
 20
14883.81635899998
 30
0.0
 11
17534.674539999989
 21
14883.81635899998
 31
0.0
  0
LINE
  5
3F8D
  8
2-0
  6
CONTINUOUS
 62
     3
 10
17534.674539999989
 20
14883.81635899998
 30
0.0
 11
17534.674539999989
 21
14920.816530999949
 31
0.0
  0
LINE
  5
3F8E
  8
2-0
  6
CONTINUOUS
 62
     3
 10
17564.672164999989
 20
14920.816530999949
 30
0.0
 11
17534.674539999989
 21
14920.816530999949
 31
0.0
  0
LINE
  5
3F8F
  8
2-0
  6
CONTINUOUS
 62
     3
 10
17564.672164999989
 20
14914.819578999981
 30
0.0
 11
17564.672164999989
 21
14920.816530999949
 31
0.0
  0
LINE
  5
3F90
  8
2-0
  6
CONTINUOUS
 62
     3
 10
17564.672164999989
 20
14930.91702399998
 30
0.0
 11
17534.674539999989
 21
14930.91702399998
 31
0.0
  0
LINE
  5
3F91
  8
2-0
  6
CONTINUOUS
 62
     3
 10
17564.672164999989
 20
14912.910332999991
 30
0.0
 11
17564.672164999989
 21
14930.91702399998
 31
0.0
  0
LINE
  5
3F92
  8
2-0
  6
CONTINUOUS
 62
     3
 10
17539.678762999989
 20
14912.910332999991
 30
0.0
 11
17564.672164999989
 21
14912.910332999991
 31
0.0
  0
LINE
  5
3F93
  8
2-0
  6
CONTINUOUS
 62
     3
 10
17539.678762999989
 20
14917.91554599998
 30
0.0
 11
17539.678762999989
 21
14912.910332999991
 31
0.0
  0
LINE
  5
3F94
  8
2-0
  6
CONTINUOUS
 62
     3
 10
17546.676360999962
 20
14917.91554599998
 30
0.0
 11
17539.678762999989
 21
14917.91554599998
 31
0.0
  0
LINE
  5
3F95
  8
2-0
  6
CONTINUOUS
 62
     3
 10
17564.672164999989
 20
14210.81837199998
 30
0.0
 11
17564.672164999989
 21
14216.82324099998
 31
0.0
  0
LINE
  5
3F96
  8
2-0
  6
CONTINUOUS
 62
     3
 10
17564.672164999989
 20
14216.82324099998
 30
0.0
 11
17534.674539999989
 21
14216.82324099998
 31
0.0
  0
LINE
  5
3F97
  8
2-0
  6
CONTINUOUS
 62
     3
 10
17534.674539999989
 20
14216.82324099998
 30
0.0
 11
17534.674539999989
 21
14101.819149999979
 31
0.0
  0
LINE
  5
3F98
  8
2-0
  6
CONTINUOUS
 62
     3
 10
17534.674539999989
 20
14101.819149999979
 30
0.0
 11
17619.673087999989
 21
14101.819149999979
 31
0.0
  0
LINE
  5
3F99
  8
2-0
  6
CONTINUOUS
 62
     3
 10
17619.673087999989
 20
14101.819149999979
 30
0.0
 11
17619.673087999989
 21
14186.81472899998
 31
0.0
  0
LINE
  5
3F9A
  8
2-0
  6
CONTINUOUS
 62
     3
 10
17619.673087999989
 20
14186.81472899998
 30
0.0
 11
17587.676149999981
 21
14186.81472899998
 31
0.0
  0
LINE
  5
3F9B
  8
2-0
  6
CONTINUOUS
 62
     3
 10
17546.676360999962
 20
14213.852973999979
 30
0.0
 11
17539.678762999989
 21
14213.852973999979
 31
0.0
  0
LINE
  5
3F9C
  8
2-0
  6
CONTINUOUS
 62
     3
 10
17539.678762999989
 20
14213.852973999979
 30
0.0
 11
17539.678762999989
 21
14208.855678999949
 31
0.0
  0
LINE
  5
3F9D
  8
2-0
  6
CONTINUOUS
 62
     3
 10
17539.678762999989
 20
14208.855678999949
 30
0.0
 11
17564.672164999989
 21
14208.855678999949
 31
0.0
  0
LINE
  5
3F9E
  8
2-0
  6
CONTINUOUS
 62
     3
 10
17564.672164999989
 20
14208.855678999949
 30
0.0
 11
17564.672164999989
 21
14226.85445199998
 31
0.0
  0
LINE
  5
3F9F
  8
2-0
  6
CONTINUOUS
 62
     3
 10
17564.672164999989
 20
14226.85445199998
 30
0.0
 11
17534.674539999989
 21
14226.85445199998
 31
0.0
  0
LINE
  5
3FA0
  8
2-0
  6
CONTINUOUS
 62
     3
 10
17534.674539999989
 20
14930.91702399998
 30
0.0
 11
17534.674539999989
 21
15574.95588199998
 31
0.0
  0
LINE
  5
3FA1
  8
2-0
  6
CONTINUOUS
 62
     3
 10
17534.674539999989
 20
18549.91257099999
 30
0.0
 11
17534.674539999989
 21
19193.722298499961
 31
0.0
  0
LINE
  5
3FA2
  8
2-0
  6
CONTINUOUS
 62
     3
 10
17534.674539999989
 20
16275.71586549998
 30
0.0
 11
17534.674539999989
 21
15632.152092
 31
0.0
  0
LINE
  5
3FA3
  8
2-0
  6
CONTINUOUS
 62
     3
 10
25955.674407999959
 20
19907.818556999991
 30
0.0
 11
25955.674407999959
 21
20022.814729999998
 31
0.0
  0
LINE
  5
3FA4
  8
2-0
  6
CONTINUOUS
 62
     3
 10
21975.136137000001
 20
17326.027487999982
 30
0.0
 11
21817.255674
 21
17445.111367000001
 31
0.0
  0
LINE
  5
3FA5
  8
2-0
  6
CONTINUOUS
 62
     3
 10
22363.098024999999
 20
17409.159350999991
 30
0.0
 11
22117.255674
 21
17594.594712999999
 31
0.0
  0
LINE
  5
3FA6
  8
2-0
  6
CONTINUOUS
 62
     3
 10
22117.255674
 20
16524.714408
 30
0.0
 11
21757.147592000001
 21
16796.341968000001
 31
0.0
  0
LINE
  5
3FA7
  8
2-0
  6
CONTINUOUS
 62
     3
 10
21757.147592000001
 20
16796.341968000001
 30
0.0
 11
22363.098024999999
 21
17409.159350999991
 31
0.0
  0
LINE
  5
3FA8
  8
2-0
  6
CONTINUOUS
 62
     3
 10
21817.255674
 20
16375.23205199999
 30
0.0
 11
21369.183724999992
 21
16713.212084999981
 31
0.0
  0
LINE
  5
3FA9
  8
2-0
  6
CONTINUOUS
 62
     3
 10
21975.136137000001
 20
17326.027487999982
 30
0.0
 11
21369.183724999992
 21
16713.212084999981
 31
0.0
  0
LINE
  5
3FAA
  8
2-0
  6
CONTINUOUS
 62
     3
 10
22117.255674
 20
20129.536514999982
 30
0.0
 11
22117.255674
 21
20324.022236000001
 31
0.0
  0
LINE
  5
3FAB
  8
2-0
  6
CENTER2
 62
     6
 10
16247.71626799998
 20
19980.316444999949
 30
0.0
 11
26805.675727999958
 21
19980.316444999949
 31
0.0
  0
LINE
  5
3FAC
  8
2-0
  6
CENTER2
 62
     6
 10
16247.71626799998
 20
17062.316444999979
 30
0.0
 11
26805.675727999958
 21
17062.316444999979
 31
0.0
  0
LINE
  5
3FAD
  8
2-0
  6
CENTER2
 62
     6
 10
16247.71626799998
 20
14144.316444999969
 30
0.0
 11
26805.675727999958
 21
14144.316444999969
 31
0.0
  0
LINE
  5
3FAE
  8
2-0
  6
CONTINUOUS
 62
     3
 10
21817.255674
 20
19937.818160999981
 30
0.0
 11
17534.674539999989
 21
19937.818160999981
 31
0.0
  0
LINE
  5
3FAF
  8
2-0
  6
CONTINUOUS
 62
     3
 10
22117.255674
 20
19937.818160999981
 30
0.0
 11
25874.67250799996
 21
19937.818160999981
 31
0.0
  0
LINE
  5
3FB0
  8
2-0
  6
CONTINUOUS
 62
     3
 10
17534.674539999989
 20
14226.85445199998
 30
0.0
 11
17534.674539999989
 21
14873.720813999969
 31
0.0
  0
LINE
  5
3FB1
  8
2-0
  6
CENTER2
 62
     6
 10
17577.170844999979
 20
21222.814729999998
 30
0.0
 11
17577.170844999979
 21
13518.55301099998
 31
0.0
  0
LINE
  5
3FB2
  8
2-0
  6
CENTER2
 62
     6
 10
25913.176123999961
 20
21222.814729999998
 30
0.0
 11
25913.176123999961
 21
13518.55301099998
 31
0.0
  0
LINE
  5
3FB3
  8
2-0
  6
CONTINUOUS
 62
     3
 10
25955.674407999959
 20
19897.521100999991
 30
0.0
 11
25955.674407999959
 21
19250.912570499971
 31
0.0
  0
LINE
  5
3FB4
  8
2-0
  6
CONTINUOUS
 62
     3
 10
21817.255674
 20
17445.111367000001
 30
0.0
 11
21817.255674
 21
20324.022236000001
 31
0.0
  0
LINE
  5
3FB5
  8
2-0
  6
CONTINUOUS
 62
     3
 10
22117.255674
 20
17594.594712999999
 30
0.0
 11
22117.255674
 21
20129.536514999982
 31
0.0
  0
LINE
  5
3FB6
  8
2-0
  6
CONTINUOUS
 62
     3
 10
17534.674539999989
 20
19897.521100999991
 30
0.0
 11
17534.674539999989
 21
19250.912570499971
 31
0.0
  0
LINE
  5
3FB7
  8
2-0
  6
CONTINUOUS
 62
     3
 10
21817.255674
 20
16375.23205199999
 30
0.0
 11
21817.255674
 21
13952.911843999969
 31
0.0
  0
LINE
  5
3FB8
  8
2-0
  6
CONTINUOUS
 62
     3
 10
22117.255674
 20
16524.714408
 30
0.0
 11
22117.255674
 21
13952.911843999969
 31
0.0
  0
LINE
  5
3FB9
  8
2-0
  6
CENTER2
 62
     6
 10
22995.176123999961
 20
21222.814729999998
 30
0.0
 11
22995.176123999961
 21
13952.911843999969
 31
0.0
  0
LINE
  5
3FBA
  8
2-0
  6
CENTER2
 62
     6
 10
20495.17084499999
 20
21222.814729999998
 30
0.0
 11
20495.17084499999
 21
13952.911843999969
 31
0.0
  0
LINE
  5
3FBB
  8
2-0
  6
CONTINUOUS
 62
     3
 10
17615.672480999991
 20
14186.81472899998
 30
0.0
 11
17615.672480999991
 21
20022.814729999998
 31
0.0
  0
LINE
  5
3FBC
  8
2-0
  6
CONTINUOUS
 62
     3
 10
25874.67250799996
 20
14186.81472899998
 30
0.0
 11
25874.67250799996
 21
20022.814729999998
 31
0.0
  0
CIRCLE
  5
3FBD
  8
2-0
  6
CONTINUOUS
 62
     4
 10
16047.718577999991
 20
19980.316444999949
 30
0.0
 40
200.00001
  0
CIRCLE
  5
3FBE
  8
2-0
  6
CONTINUOUS
 62
     4
 10
16047.718577999991
 20
17062.316444999979
 30
0.0
 40
200.00001
  0
CIRCLE
  5
3FBF
  8
2-0
  6
CONTINUOUS
 62
     4
 10
16047.718577999991
 20
14144.316444999969
 30
0.0
 40
200.00001
  0
CIRCLE
  5
3FC0
  8
2-0
  6
CONTINUOUS
 62
     4
 10
20495.17084499999
 20
21422.819349000001
 30
0.0
 40
200.00001
  0
CIRCLE
  5
3FC1
  8
2-0
  6
CONTINUOUS
 62
     4
 10
17577.170844999979
 20
21422.819349000001
 30
0.0
 40
200.00001
  0
CIRCLE
  5
3FC2
  8
2-0
  6
CONTINUOUS
 62
     4
 10
22995.176123999961
 20
21422.819349000001
 30
0.0
 40
200.00001
  0
CIRCLE
  5
3FC3
  8
2-0
  6
CONTINUOUS
 62
     4
 10
25913.176123999961
 20
21422.819349000001
 30
0.0
 40
200.00001
  0
TEXT
  5
3FC4
  8
2-0
  6
CONTINUOUS
 62
     7
 10
24310.021430999968
 20
13584.317566999969
 30
0.0
 40
160.0
  1
前柱（右）
 50
0.000213
 72
     4
 11
24726.021133592989
 21
13664.31911350076
 31
0.0
  0
TEXT
  5
3FC5
  8
2-0
  6
CONTINUOUS
 62
     7
 10
24514.616553999971
 20
16512.809582999991
 30
0.0
 40
160.0
  1
壁パネル
 50
359.99982299999999
 72
     4
 11
24877.283467803521
 21
16592.808462637859
 31
0.0
  0
TEXT
  5
3FC6
  8
2-0
  6
CONTINUOUS
 62
     7
 10
24234.613649999948
 20
17349.997479000001
 30
0.0
 40
160.0
  1
中柱（左右）
 50
0.000354
 72
     4
 11
24751.946489046171
 21
17430.000675324649
 31
0.0
  0
TEXT
  5
3FC7
  8
2-0
  6
CONTINUOUS
 62
     7
 10
24914.615893999959
 20
14557.358832999969
 30
0.0
 40
160.0
  1
下枠
 50
0.001063
 72
     4
 11
25085.281076409261
 21
14637.36199933926
 31
0.0
  0
TEXT
  5
3FC8
  8
2-0
  6
CONTINUOUS
 62
     7
 10
24409.581317999971
 20
18953.26621749996
 30
0.0
 40
160.0
  1
間柱（側）
 72
     4
 11
24830.9146513333
 21
19033.26621749996
 31
0.0
  0
TEXT
  5
3FC9
  8
2-0
  6
CONTINUOUS
 62
     7
 10
26728.171636999959
 20
20832.813937999999
 30
0.0
 40
160.0
  1
後柱（左右）
 50
0.000354
 72
     4
 11
27240.171142712948
 21
20912.817101372832
 31
0.0
  0
TEXT
  5
3FCA
  8
2-0
  6
CONTINUOUS
 62
     7
 10
23394.264885999972
 20
14722.154744999951
 30
0.0
 40
160.0
  1
前柱（中）
 72
     4
 11
23810.264885999972
 21
14802.154744999951
 31
0.0
  0
TEXT
  5
3FCB
  8
2-0
  6
CONTINUOUS
 62
     7
 10
19331.039721000008
 20
19385.696777000001
 30
0.0
 40
160.0
  1
間柱（後）
 72
     4
 11
19752.37305433334
 21
19465.696777000001
 31
0.0
  0
TEXT
  5
3FCC
  8
2-0
  6
CONTINUOUS
 62
     7
 10
23265.46948899997
 20
19454.441498
 30
0.0
 40
160.0
  1
後柱（中）
 72
     4
 11
23681.46948899997
 21
19534.441498
 31
0.0
  0
TEXT
  5
3FCD
  8
2-0
  6
CONTINUOUS
 62
     7
 10
15999.719210999971
 20
19885.836003
 30
0.0
 40
160.0
  1
C
 72
     4
 11
16053.05254433331
 21
19965.836003
 31
0.0
  0
TEXT
  5
3FCE
  8
2-0
  6
CONTINUOUS
 62
     7
 10
15999.939926999979
 20
16991.922363000001
 30
0.0
 40
160.0
  1
B
 72
     4
 11
16053.273260333321
 21
17071.922363000001
 31
0.0
  0
TEXT
  5
3FCF
  8
2-0
  6
CONTINUOUS
 62
     7
 10
15999.982486999979
 20
14055.70923399998
 30
0.0
 40
160.0
  1
A
 72
     4
 11
16053.315820333321
 21
14135.70923399998
 31
0.0
  0
TEXT
  5
3FD0
  8
2-0
  6
CONTINUOUS
 62
     7
 10
20443.539061999989
 20
21327.293720000001
 30
0.0
 40
160.0
  1
2
 72
     4
 11
20496.872395333321
 21
21407.293720000001
 31
0.0
  0
TEXT
  5
3FD1
  8
2-0
  6
CONTINUOUS
 62
     7
 10
17532.964235999989
 20
21334.051796999989
 30
0.0
 40
160.0
  1
1
 72
     4
 11
17559.63090266666
 21
21414.051796999989
 31
0.0
  0
TEXT
  5
3FD2
  8
2-0
  6
CONTINUOUS
 62
     7
 10
25861.770005999952
 20
21342.431099000001
 30
0.0
 40
160.0
  1
n
 72
     4
 11
25915.10333933328
 21
21395.76443233333
 31
0.0
  0
TEXT
  5
3FD3
  8
2-0
  6
CONTINUOUS
 62
     7
 10
22835.221124999978
 20
21354.927800000001
 30
0.0
 40
140.0
  1
n-1
 72
     4
 11
22998.55445833331
 21
21424.927800000001
 31
0.0
  0
TEXT
  5
3FD4
  8
2-0
  6
CONTINUOUS
 62
     7
 10
20923.42971299999
 20
12037.442224
 30
0.0
 40
160.0
  1
平 面 図
 50
0.000266
 72
     4
 11
21280.762699683812
 21
12112.110549612949
 31
0.0
  0
TEXT
  5
3FD5
  8
2-0
  6
CONTINUOUS
 62
     7
 10
22632.254884821439
 20
12059.305918612939
 30
0.0
 40
160.0
  1
1
 72
     4
 11
22658.921551488111
 21
12139.305918612939
 31
0.0
  0
TEXT
  5
3FD6
  8
2-0
  6
CONTINUOUS
 62
     7
 10
22875.34360207212
 20
11979.307386612951
 30
0.0
 40
160.0
  1
80
 72
     4
 11
22995.34360207212
 21
12059.307386612951
 31
0.0
  0
TEXT
  5
3FD7
  8
2-0
  6
CONTINUOUS
 62
     7
 10
22133.256850821439
 20
12032.110549612949
 30
0.0
 40
160.0
  1
(S=  /   )
 72
     4
 11
22693.256850821439
 21
12112.110549612949
 31
0.0
  0
LINE
  5
3FD8
  8
2-0
  6
CONTINUOUS
 62
     3
 10
25173.676704999962
 20
20022.814729999998
 30
0.0
 11
25136.675542999961
 21
20022.814729999998
 31
0.0
  0
LINE
  5
3FD9
  8
2-0
  6
CONTINUOUS
 62
     3
 10
25173.676704999962
 20
19992.811166999989
 30
0.0
 11
25173.676704999962
 21
20022.814729999998
 31
0.0
  0
LINE
  5
3FDA
  8
2-0
  6
CONTINUOUS
 62
     3
 10
25167.676783999941
 20
19992.811166999989
 30
0.0
 11
25173.676704999962
 21
19992.811166999989
 31
0.0
  0
LINE
  5
3FDB
  8
2-0
  6
CONTINUOUS
 62
     3
 10
25183.774228999959
 20
19992.811166999989
 30
0.0
 11
25183.774228999959
 21
20022.814729999998
 31
0.0
  0
LINE
  5
3FDC
  8
2-0
  6
CONTINUOUS
 62
     3
 10
25165.770507999961
 20
19992.811166999989
 30
0.0
 11
25183.774228999959
 21
19992.811166999989
 31
0.0
  0
LINE
  5
3FDD
  8
2-0
  6
CONTINUOUS
 62
     3
 10
25165.770507999961
 20
20017.820403999991
 30
0.0
 11
25165.770507999961
 21
19992.811166999989
 31
0.0
  0
LINE
  5
3FDE
  8
2-0
  6
CONTINUOUS
 62
     3
 10
25170.77077199996
 20
20017.820403999991
 30
0.0
 11
25165.770507999961
 21
20017.820403999991
 31
0.0
  0
LINE
  5
3FDF
  8
2-0
  6
CONTINUOUS
 62
     3
 10
25170.77077199996
 20
20010.814888000001
 30
0.0
 11
25170.77077199996
 21
20017.820403999991
 31
0.0
  0
LINE
  5
3FE0
  8
2-0
  6
CONTINUOUS
 62
     3
 10
25139.581476999949
 20
20010.814888000001
 30
0.0
 11
25139.581476999949
 21
20017.820403999991
 31
0.0
  0
LINE
  5
3FE1
  8
2-0
  6
CONTINUOUS
 62
     3
 10
25139.581476999949
 20
20017.820403999991
 30
0.0
 11
25144.581740999962
 21
20017.820403999991
 31
0.0
  0
LINE
  5
3FE2
  8
2-0
  6
CONTINUOUS
 62
     3
 10
25144.581740999962
 20
20017.820403999991
 30
0.0
 11
25144.581740999962
 21
19992.811166999989
 31
0.0
  0
LINE
  5
3FE3
  8
2-0
  6
CONTINUOUS
 62
     3
 10
25144.581740999962
 20
19992.811166999989
 30
0.0
 11
25126.581977999958
 21
19992.811166999989
 31
0.0
  0
LINE
  5
3FE4
  8
2-0
  6
CONTINUOUS
 62
     3
 10
25126.581977999958
 20
19992.811166999989
 30
0.0
 11
25126.581977999958
 21
20022.814729999998
 31
0.0
  0
LINE
  5
3FE5
  8
2-0
  6
CONTINUOUS
 62
     3
 10
25142.675463999971
 20
19992.811166999989
 30
0.0
 11
25136.675542999961
 21
19992.811166999989
 31
0.0
  0
LINE
  5
3FE6
  8
2-0
  6
CONTINUOUS
 62
     3
 10
25136.675542999961
 20
19992.811166999989
 30
0.0
 11
25136.675542999961
 21
20022.814729999998
 31
0.0
  0
LINE
  5
3FE7
  8
2-0
  6
CONTINUOUS
 62
     3
 10
23768.765822499961
 20
20010.814888000001
 30
0.0
 11
23768.765822499961
 21
20017.820403999991
 31
0.0
  0
LINE
  5
3FE8
  8
2-0
  6
CONTINUOUS
 62
     3
 10
23768.765822499961
 20
20017.820403999991
 30
0.0
 11
23763.76555849997
 21
20017.820403999991
 31
0.0
  0
LINE
  5
3FE9
  8
2-0
  6
CONTINUOUS
 62
     3
 10
23763.76555849997
 20
20017.820403999991
 30
0.0
 11
23763.76555849997
 21
19992.811166999989
 31
0.0
  0
LINE
  5
3FEA
  8
2-0
  6
CONTINUOUS
 62
     3
 10
23763.76555849997
 20
19992.811166999989
 30
0.0
 11
23781.771259499961
 21
19992.811166999989
 31
0.0
  0
LINE
  5
3FEB
  8
2-0
  6
CONTINUOUS
 62
     3
 10
23781.771259499961
 20
19992.811166999989
 30
0.0
 11
23781.771259499961
 21
20022.814729999998
 31
0.0
  0
LINE
  5
3FEC
  8
2-0
  6
CONTINUOUS
 62
     3
 10
23765.673814499962
 20
19992.811166999989
 30
0.0
 11
23771.675714499961
 21
19992.811166999989
 31
0.0
  0
LINE
  5
3FED
  8
2-0
  6
CONTINUOUS
 62
     3
 10
23771.675714499961
 20
19992.811166999989
 30
0.0
 11
23771.675714499961
 21
20022.814729999998
 31
0.0
  0
LINE
  5
3FEE
  8
2-0
  6
CONTINUOUS
 62
     3
 10
23734.676533499962
 20
20022.814729999998
 30
0.0
 11
23771.675714499961
 21
20022.814729999998
 31
0.0
  0
LINE
  5
3FEF
  8
2-0
  6
CONTINUOUS
 62
     3
 10
23734.676533499962
 20
19992.811166999989
 30
0.0
 11
23734.676533499962
 21
20022.814729999998
 31
0.0
  0
LINE
  5
3FF0
  8
2-0
  6
CONTINUOUS
 62
     3
 10
23740.670515499962
 20
19992.811166999989
 30
0.0
 11
23734.676533499962
 21
19992.811166999989
 31
0.0
  0
LINE
  5
3FF1
  8
2-0
  6
CONTINUOUS
 62
     3
 10
23724.580988499962
 20
19992.811166999989
 30
0.0
 11
23724.580988499962
 21
20022.814729999998
 31
0.0
  0
LINE
  5
3FF2
  8
2-0
  6
CONTINUOUS
 62
     3
 10
23742.57679149996
 20
19992.811166999989
 30
0.0
 11
23724.580988499962
 21
19992.811166999989
 31
0.0
  0
LINE
  5
3FF3
  8
2-0
  6
CONTINUOUS
 62
     3
 10
23742.57679149996
 20
20017.820403999991
 30
0.0
 11
23742.57679149996
 21
19992.811166999989
 31
0.0
  0
LINE
  5
3FF4
  8
2-0
  6
CONTINUOUS
 62
     3
 10
23737.576527499961
 20
20017.820403999991
 30
0.0
 11
23742.57679149996
 21
20017.820403999991
 31
0.0
  0
LINE
  5
3FF5
  8
2-0
  6
CONTINUOUS
 62
     3
 10
23737.576527499961
 20
20010.814888000001
 30
0.0
 11
23737.576527499961
 21
20017.820403999991
 31
0.0
  0
LINE
  5
3FF6
  8
2-0
  6
CONTINUOUS
 62
     3
 10
24438.575538499961
 20
20010.814888000001
 30
0.0
 11
24438.575538499961
 21
20017.820403999991
 31
0.0
  0
LINE
  5
3FF7
  8
2-0
  6
CONTINUOUS
 62
     3
 10
24438.575538499961
 20
20017.820403999991
 30
0.0
 11
24443.57580149997
 21
20017.820403999991
 31
0.0
  0
LINE
  5
3FF8
  8
2-0
  6
CONTINUOUS
 62
     3
 10
24443.57580149997
 20
20017.820403999991
 30
0.0
 11
24443.57580149997
 21
19992.811166999989
 31
0.0
  0
LINE
  5
3FF9
  8
2-0
  6
CONTINUOUS
 62
     3
 10
24443.57580149997
 20
19992.811166999989
 30
0.0
 11
24425.581978499951
 21
19992.811166999989
 31
0.0
  0
LINE
  5
3FFA
  8
2-0
  6
CONTINUOUS
 62
     3
 10
24425.581978499951
 20
19992.811166999989
 30
0.0
 11
24425.581978499951
 21
20022.814729999998
 31
0.0
  0
LINE
  5
3FFB
  8
2-0
  6
CONTINUOUS
 62
     3
 10
24441.673484499959
 20
19992.811166999989
 30
0.0
 11
24435.675543499961
 21
19992.811166999989
 31
0.0
  0
LINE
  5
3FFC
  8
2-0
  6
CONTINUOUS
 62
     3
 10
24435.675543499961
 20
19992.811166999989
 30
0.0
 11
24435.675543499961
 21
20022.814729999998
 31
0.0
  0
LINE
  5
3FFD
  8
2-0
  6
CONTINUOUS
 62
     3
 10
24472.676704499961
 20
20022.814729999998
 30
0.0
 11
24435.675543499961
 21
20022.814729999998
 31
0.0
  0
LINE
  5
3FFE
  8
2-0
  6
CONTINUOUS
 62
     3
 10
24472.676704499961
 20
19992.811166999989
 30
0.0
 11
24472.676704499961
 21
20022.814729999998
 31
0.0
  0
LINE
  5
3FFF
  8
2-0
  6
CONTINUOUS
 62
     3
 10
24466.670845499961
 20
19992.811166999989
 30
0.0
 11
24472.676704499961
 21
19992.811166999989
 31
0.0
  0
LINE
  5
4000
  8
2-0
  6
CONTINUOUS
 62
     3
 10
24482.770269499961
 20
19992.811166999989
 30
0.0
 11
24482.770269499961
 21
20022.814729999998
 31
0.0
  0
LINE
  5
4001
  8
2-0
  6
CONTINUOUS
 62
     3
 10
24464.774466499959
 20
19992.811166999989
 30
0.0
 11
24482.770269499961
 21
19992.811166999989
 31
0.0
  0
LINE
  5
4002
  8
2-0
  6
CONTINUOUS
 62
     3
 10
24464.774466499959
 20
20017.820403999991
 30
0.0
 11
24464.774466499959
 21
19992.811166999989
 31
0.0
  0
LINE
  5
4003
  8
2-0
  6
CONTINUOUS
 62
     3
 10
24469.764832499961
 20
20017.820403999991
 30
0.0
 11
24464.774466499959
 21
20017.820403999991
 31
0.0
  0
LINE
  5
4004
  8
2-0
  6
CONTINUOUS
 62
     3
 10
24469.764832499961
 20
20010.814888000001
 30
0.0
 11
24469.764832499961
 21
20017.820403999991
 31
0.0
  0
LINE
  5
4005
  8
2-0
  6
CONTINUOUS
 62
     3
 10
23781.771259499961
 20
20022.814729999998
 30
0.0
 11
24425.581978499951
 21
20022.814729999998
 31
0.0
  0
LINE
  5
4006
  8
2-0
  6
CONTINUOUS
 62
     3
 10
23077.29447299998
 20
20022.814729999998
 30
0.0
 11
23724.580988499962
 21
20022.814729999998
 31
0.0
  0
LINE
  5
4007
  8
2-0
  6
CONTINUOUS
 62
     3
 10
25831.059753999962
 20
20022.814729999998
 30
0.0
 11
25183.774228999959
 21
20022.814729999998
 31
0.0
  0
LINE
  5
4008
  8
2-0
  6
CONTINUOUS
 62
     3
 10
25126.581977999958
 20
20022.814729999998
 30
0.0
 11
24482.770269499961
 21
20022.814729999998
 31
0.0
  0
LINE
  5
4009
  8
2-0
  6
CONTINUOUS
 62
     3
 10
22256.365577999961
 20
20022.814729999998
 30
0.0
 11
22219.364415999971
 21
20022.814729999998
 31
0.0
  0
LINE
  5
400A
  8
2-0
  6
CONTINUOUS
 62
     3
 10
22256.365577999961
 20
19992.811166999989
 30
0.0
 11
22256.365577999961
 21
20022.814729999998
 31
0.0
  0
LINE
  5
400B
  8
2-0
  6
CONTINUOUS
 62
     3
 10
22250.365656999958
 20
19992.811166999989
 30
0.0
 11
22256.365577999961
 21
19992.811166999989
 31
0.0
  0
LINE
  5
400C
  8
2-0
  6
CONTINUOUS
 62
     3
 10
22266.46310199998
 20
19992.811166999989
 30
0.0
 11
22266.46310199998
 21
20022.814729999998
 31
0.0
  0
LINE
  5
400D
  8
2-0
  6
CONTINUOUS
 62
     3
 10
22248.459380999961
 20
19992.811166999989
 30
0.0
 11
22266.46310199998
 21
19992.811166999989
 31
0.0
  0
LINE
  5
400E
  8
2-0
  6
CONTINUOUS
 62
     3
 10
22248.459380999961
 20
20017.820403999991
 30
0.0
 11
22248.459380999961
 21
19992.811166999989
 31
0.0
  0
LINE
  5
400F
  8
2-0
  6
CONTINUOUS
 62
     3
 10
22253.45964499997
 20
20017.820403999991
 30
0.0
 11
22248.459380999961
 21
20017.820403999991
 31
0.0
  0
LINE
  5
4010
  8
2-0
  6
CONTINUOUS
 62
     3
 10
22253.45964499997
 20
20010.814888000001
 30
0.0
 11
22253.45964499997
 21
20017.820403999991
 31
0.0
  0
LINE
  5
4011
  8
2-0
  6
CONTINUOUS
 62
     3
 10
22222.27034999997
 20
20010.814888000001
 30
0.0
 11
22222.27034999997
 21
20017.820403999991
 31
0.0
  0
LINE
  5
4012
  8
2-0
  6
CONTINUOUS
 62
     3
 10
22222.27034999997
 20
20017.820403999991
 30
0.0
 11
22227.270613999968
 21
20017.820403999991
 31
0.0
  0
LINE
  5
4013
  8
2-0
  6
CONTINUOUS
 62
     3
 10
22227.270613999968
 20
20017.820403999991
 30
0.0
 11
22227.270613999968
 21
19992.811166999989
 31
0.0
  0
LINE
  5
4014
  8
2-0
  6
CONTINUOUS
 62
     3
 10
22227.270613999968
 20
19992.811166999989
 30
0.0
 11
22209.270850999968
 21
19992.811166999989
 31
0.0
  0
LINE
  5
4015
  8
2-0
  6
CONTINUOUS
 62
     3
 10
22209.270850999968
 20
19992.811166999989
 30
0.0
 11
22209.270850999968
 21
20022.814729999998
 31
0.0
  0
LINE
  5
4016
  8
2-0
  6
CONTINUOUS
 62
     3
 10
22225.36433699997
 20
19992.811166999989
 30
0.0
 11
22219.364415999971
 21
19992.811166999989
 31
0.0
  0
LINE
  5
4017
  8
2-0
  6
CONTINUOUS
 62
     3
 10
22219.364415999971
 20
19992.811166999989
 30
0.0
 11
22219.364415999971
 21
20022.814729999998
 31
0.0
  0
LINE
  5
4018
  8
2-0
  6
CONTINUOUS
 62
     3
 10
22913.748626999961
 20
20022.814729999998
 30
0.0
 11
22266.46310199998
 21
20022.814729999998
 31
0.0
  0
LINE
  5
4019
  8
2-0
  6
CONTINUOUS
 62
     3
 10
22209.270850999968
 20
20022.814729999998
 30
0.0
 11
22117.255674
 21
20022.814729999998
 31
0.0
  0
LINE
  5
401A
  8
2-0
  6
CONTINUOUS
 62
     3
 10
21268.073649499991
 20
20010.814888000001
 30
0.0
 11
21268.073649499991
 21
20017.820403999991
 31
0.0
  0
LINE
  5
401B
  8
2-0
  6
CONTINUOUS
 62
     3
 10
21268.073649499991
 20
20017.820403999991
 30
0.0
 11
21263.073385499982
 21
20017.820403999991
 31
0.0
  0
LINE
  5
401C
  8
2-0
  6
CONTINUOUS
 62
     3
 10
21263.073385499982
 20
20017.820403999991
 30
0.0
 11
21263.073385499982
 21
19992.811166999989
 31
0.0
  0
LINE
  5
401D
  8
2-0
  6
CONTINUOUS
 62
     3
 10
21263.073385499982
 20
19992.811166999989
 30
0.0
 11
21281.079086500002
 21
19992.811166999989
 31
0.0
  0
LINE
  5
401E
  8
2-0
  6
CONTINUOUS
 62
     3
 10
21281.079086500002
 20
19992.811166999989
 30
0.0
 11
21281.079086500002
 21
20022.814729999998
 31
0.0
  0
LINE
  5
401F
  8
2-0
  6
CONTINUOUS
 62
     3
 10
21264.981641499991
 20
19992.811166999989
 30
0.0
 11
21270.983541500002
 21
19992.811166999989
 31
0.0
  0
LINE
  5
4020
  8
2-0
  6
CONTINUOUS
 62
     3
 10
21270.983541500002
 20
19992.811166999989
 30
0.0
 11
21270.983541500002
 21
20022.814729999998
 31
0.0
  0
LINE
  5
4021
  8
2-0
  6
CONTINUOUS
 62
     3
 10
21233.984360499991
 20
20022.814729999998
 30
0.0
 11
21270.983541500002
 21
20022.814729999998
 31
0.0
  0
LINE
  5
4022
  8
2-0
  6
CONTINUOUS
 62
     3
 10
21233.984360499991
 20
19992.811166999989
 30
0.0
 11
21233.984360499991
 21
20022.814729999998
 31
0.0
  0
LINE
  5
4023
  8
2-0
  6
CONTINUOUS
 62
     3
 10
21239.978342499991
 20
19992.811166999989
 30
0.0
 11
21233.984360499991
 21
19992.811166999989
 31
0.0
  0
LINE
  5
4024
  8
2-0
  6
CONTINUOUS
 62
     3
 10
21223.888815499999
 20
19992.811166999989
 30
0.0
 11
21223.888815499999
 21
20022.814729999998
 31
0.0
  0
LINE
  5
4025
  8
2-0
  6
CONTINUOUS
 62
     3
 10
21241.884618499978
 20
19992.811166999989
 30
0.0
 11
21223.888815499999
 21
19992.811166999989
 31
0.0
  0
LINE
  5
4026
  8
2-0
  6
CONTINUOUS
 62
     3
 10
21241.884618499978
 20
20017.820403999991
 30
0.0
 11
21241.884618499978
 21
19992.811166999989
 31
0.0
  0
LINE
  5
4027
  8
2-0
  6
CONTINUOUS
 62
     3
 10
21236.884354499991
 20
20017.820403999991
 30
0.0
 11
21241.884618499978
 21
20017.820403999991
 31
0.0
  0
LINE
  5
4028
  8
2-0
  6
CONTINUOUS
 62
     3
 10
21236.884354499991
 20
20010.814888000001
 30
0.0
 11
21236.884354499991
 21
20017.820403999991
 31
0.0
  0
LINE
  5
4029
  8
2-0
  6
CONTINUOUS
 62
     3
 10
20577.28919299999
 20
20022.814729999998
 30
0.0
 11
21223.888815499999
 21
20022.814729999998
 31
0.0
  0
LINE
  5
402A
  8
2-0
  6
CONTINUOUS
 62
     3
 10
21817.255674
 20
20022.814729999998
 30
0.0
 11
21281.079086500002
 21
20022.814729999998
 31
0.0
  0
LINE
  5
402B
  8
2-0
  6
CONTINUOUS
 62
     3
 10
25955.674407999959
 20
15574.95588199998
 30
0.0
 11
25955.674407999959
 21
14930.91702399998
 31
0.0
  0
LINE
  5
402C
  8
2-0
  6
CONTINUOUS
 62
     3
 10
25955.674407999959
 20
14873.720813999969
 30
0.0
 11
25955.674407999959
 21
14226.85445199998
 31
0.0
  0
LINE
  5
4037
  8
0-1
  6
CONTINUOUS
 62
     3
 10
25963.17678399997
 20
6032.8833859999977
 30
0.0
 11
25863.17744299996
 21
6032.8833859999977
 31
0.0
  0
LINE
  5
4038
  8
0-1
  6
CONTINUOUS
 62
     3
 10
25863.17744299996
 20
6032.8833859999977
 30
0.0
 11
25863.17744299996
 21
5932.883550999999
 31
0.0
  0
LINE
  5
4039
  8
0-1
  6
CONTINUOUS
 62
     3
 10
25963.17678399997
 20
5932.883550999999
 30
0.0
 11
25963.17678399997
 21
6032.8833859999977
 31
0.0
  0
LINE
  5
403A
  8
0-1
  6
CONTINUOUS
 62
     3
 10
25935.67731099997
 20
8381.3837349999976
 30
0.0
 11
25935.67731099997
 21
6032.8833859999977
 31
0.0
  0
LINE
  5
403B
  8
0-1
  6
CONTINUOUS
 62
     3
 10
25955.67638799996
 20
8251.3828119999926
 30
0.0
 11
25955.67638799996
 21
6032.8833859999977
 31
0.0
  0
LINE
  5
403C
  8
0-1
  6
CONTINUOUS
 62
     3
 10
25825.67744299995
 20
7940.8834449999968
 30
0.0
 11
25825.67744299995
 21
5932.883550999999
 31
0.0
  0
LINE
  5
403D
  8
0-1
  6
CONTINUOUS
 62
     3
 10
25870.67783899996
 20
8251.3828119999926
 30
0.0
 11
25870.67783899996
 21
6032.8833859999977
 31
0.0
  0
LINE
  5
4048
  8
0-1
  6
CONTINUOUS
 62
     3
 10
22150.12755999999
 20
7366.5998659999977
 30
0.0
 11
21904.28322899999
 21
7552.0406719999937
 31
0.0
  0
LINE
  5
4049
  8
0-1
  6
CONTINUOUS
 62
     3
 10
21762.15973399999
 20
7283.4675089999973
 30
0.0
 11
21604.283229000001
 21
7402.5568309999971
 31
0.0
  0
LINE
  5
404A
  8
0-1
  6
CONTINUOUS
 62
     3
 10
21544.177126999981
 20
6753.7874319999992
 30
0.0
 11
22150.12755999999
 21
7366.5998659999977
 31
0.0
  0
LINE
  5
4051
  8
0-1
  6
CONTINUOUS
 62
     3
 10
21598.404058999979
 20
6712.8836500000007
 30
0.0
 11
22907.677444000001
 21
6712.8836500000007
 31
0.0
  0
LINE
  5
4052
  8
0-1
  6
CONTINUOUS
 62
     3
 10
21568.00261299999
 20
6777.8836169999986
 30
0.0
 11
22907.677444000001
 21
6777.8836169999986
 31
0.0
  0
LINE
  5
4053
  8
0-1
  6
CONTINUOUS
 62
     3
 10
21632.27560099999
 20
6842.8835839999983
 30
0.0
 11
22907.677444000001
 21
6842.8835839999983
 31
0.0
  0
LINE
  5
4054
  8
0-1
  6
CONTINUOUS
 62
     3
 10
21696.548589999991
 20
6907.8840459999992
 30
0.0
 11
22907.677444000001
 21
6907.8840459999992
 31
0.0
  0
LINE
  5
4055
  8
0-1
  6
CONTINUOUS
 62
     3
 10
21760.81959899998
 20
6972.8830229999967
 30
0.0
 11
22907.677444000001
 21
6972.8830229999967
 31
0.0
  0
LINE
  5
4056
  8
0-1
  6
CONTINUOUS
 62
     3
 10
21825.092587999981
 20
7037.8834849999994
 30
0.0
 11
22907.677444000001
 21
7037.8834849999994
 31
0.0
  0
LINE
  5
4057
  8
0-1
  6
CONTINUOUS
 62
     3
 10
21889.363597999982
 20
7102.8834519999973
 30
0.0
 11
22907.677444000001
 21
7102.8834519999973
 31
0.0
  0
LINE
  5
4058
  8
0-1
  6
CONTINUOUS
 62
     3
 10
21953.636585999979
 20
7167.8839139999982
 30
0.0
 11
22907.677444000001
 21
7167.8839139999982
 31
0.0
  0
LINE
  5
4059
  8
0-1
  6
CONTINUOUS
 62
     3
 10
22017.90759599999
 20
7232.8828909999966
 30
0.0
 11
22907.677444000001
 21
7232.8828909999966
 31
0.0
  0
LINE
  5
405A
  8
0-1
  6
CONTINUOUS
 62
     3
 10
22082.180583999991
 20
7297.883353000002
 30
0.0
 11
22907.677444000001
 21
7297.883353000002
 31
0.0
  0
LINE
  5
405B
  8
0-1
  6
CONTINUOUS
 62
     3
 10
22146.451593999991
 20
7362.883319999999
 30
0.0
 11
22907.677444000001
 21
7362.883319999999
 31
0.0
  0
LINE
  5
405C
  8
0-1
  6
CONTINUOUS
 62
     3
 10
22068.882178999971
 20
7427.8832869999969
 30
0.0
 11
22907.677444000001
 21
7427.8832869999969
 31
0.0
  0
LINE
  5
405D
  8
0-1
  6
CONTINUOUS
 62
     3
 10
21982.707795999992
 20
7492.8837489999969
 30
0.0
 11
22907.677444000001
 21
7492.8837489999969
 31
0.0
  0
LINE
  5
405E
  8
0-1
  6
CONTINUOUS
 62
     3
 10
21904.28322899999
 20
7557.8837159999975
 30
0.0
 11
22907.677444000001
 21
7557.8837159999975
 31
0.0
  0
LINE
  5
405F
  8
0-1
  6
CONTINUOUS
 62
     3
 10
21904.28322899999
 20
7622.8841779999984
 30
0.0
 11
22907.677444000001
 21
7622.8841779999984
 31
0.0
  0
LINE
  5
4060
  8
0-1
  6
CONTINUOUS
 62
     3
 10
21904.28322899999
 20
7687.8831549999968
 30
0.0
 11
22907.677444000001
 21
7687.8831549999968
 31
0.0
  0
LINE
  5
4061
  8
0-1
  6
CONTINUOUS
 62
     3
 10
21904.28322899999
 20
7752.8836170000013
 30
0.0
 11
22907.677444000001
 21
7752.8836170000013
 31
0.0
  0
LINE
  5
4062
  8
0-1
  6
CONTINUOUS
 62
     3
 10
21904.28322899999
 20
7817.8835839999974
 30
0.0
 11
22907.677444000001
 21
7817.8835839999974
 31
0.0
  0
LINE
  5
4063
  8
0-1
  6
CONTINUOUS
 62
     3
 10
21904.28322899999
 20
7872.3431089999976
 30
0.0
 11
22907.677444000001
 21
7872.3431089999976
 31
0.0
  0
LINE
  5
4064
  8
0-1
  6
CONTINUOUS
 62
     3
 10
21904.28322899999
 20
7940.8834449999968
 30
0.0
 11
23710.67113599999
 21
7940.8834449999968
 31
0.0
  0
LINE
  5
4067
  8
0-1
  6
CONTINUOUS
 62
     3
 10
21904.28322899999
 20
6482.1578919999984
 30
0.0
 11
21904.28322899999
 21
5515.5243269999974
 31
0.0
  0
LINE
  5
4068
  8
0-1
  6
CONTINUOUS
 62
     3
 10
21604.283229000001
 20
6332.6720719999967
 30
0.0
 11
21604.283229000001
 21
5515.5243269999974
 31
0.0
  0
LINE
  5
4069
  8
0-1
  6
CONTINUOUS
 62
     3
 10
21904.28322899999
 20
5997.8830229999994
 30
0.0
 11
22907.677444000001
 21
5997.8830229999994
 31
0.0
  0
LINE
  5
406A
  8
0-1
  6
CONTINUOUS
 62
     3
 10
21904.28322899999
 20
6062.8839799999978
 30
0.0
 11
22907.677444000001
 21
6062.8839799999978
 31
0.0
  0
LINE
  5
406B
  8
0-1
  6
CONTINUOUS
 62
     3
 10
21904.28322899999
 20
6127.8829569999971
 30
0.0
 11
22907.677444000001
 21
6127.8829569999971
 31
0.0
  0
LINE
  5
406C
  8
0-1
  6
CONTINUOUS
 62
     3
 10
21904.28322899999
 20
6257.8833859999986
 30
0.0
 11
22907.677444000001
 21
6257.8833859999986
 31
0.0
  0
LINE
  5
406D
  8
0-1
  6
CONTINUOUS
 62
     3
 10
21904.28322899999
 20
6192.8839139999991
 30
0.0
 11
22907.677444000001
 21
6192.8839139999991
 31
0.0
  0
LINE
  5
406E
  8
0-1
  6
CONTINUOUS
 62
     3
 10
21904.28322899999
 20
6322.8833529999984
 30
0.0
 11
22907.677444000001
 21
6322.8833529999984
 31
0.0
  0
LINE
  5
406F
  8
0-1
  6
CONTINUOUS
 62
     3
 10
21904.28322899999
 20
6387.883319999999
 30
0.0
 11
22907.677444000001
 21
6387.883319999999
 31
0.0
  0
LINE
  5
4070
  8
0-1
  6
CONTINUOUS
 62
     3
 10
21904.28322899999
 20
6452.8827919999976
 30
0.0
 11
22907.677444000001
 21
6452.8827919999976
 31
0.0
  0
LINE
  5
4071
  8
0-1
  6
CONTINUOUS
 62
     3
 10
21856.92126799998
 20
6517.8842439999999
 30
0.0
 11
22907.677444000001
 21
6517.8842439999999
 31
0.0
  0
LINE
  5
4072
  8
0-1
  6
CONTINUOUS
 62
     3
 10
21770.746884999979
 20
6582.883221
 30
0.0
 11
22907.677444000001
 21
6582.883221
 31
0.0
  0
LINE
  5
4073
  8
0-1
  6
CONTINUOUS
 62
     3
 10
21684.574481999982
 20
6647.8836829999982
 30
0.0
 11
22907.677444000001
 21
6647.8836829999982
 31
0.0
  0
LINE
  5
4074
  8
0-1
  6
CONTINUOUS
 62
     3
 10
22952.677839999971
 20
8251.3828119999926
 30
0.0
 11
22952.677839999971
 21
5932.883550999999
 31
0.0
  0
LINE
  5
4075
  8
0-1
  6
CONTINUOUS
 62
     3
 10
23037.674407999992
 20
8251.3828119999926
 30
0.0
 11
23037.674407999992
 21
5932.883550999999
 31
0.0
  0
LINE
  5
4076
  8
0-1
  6
CONTINUOUS
 62
     3
 10
23082.674803999998
 20
7940.8834449999968
 30
0.0
 11
23082.674803999998
 21
5932.883550999999
 31
0.0
  0
LINE
  5
4077
  8
0-1
  6
CONTINUOUS
 62
     3
 10
22907.677444000001
 20
7940.8834449999968
 30
0.0
 11
22907.677444000001
 21
5932.883550999999
 31
0.0
  0
LINE
  5
4078
  8
0-1
  6
CONTINUOUS
 62
     3
 10
21904.28322899999
 20
6482.1578919999984
 30
0.0
 11
21544.177126999981
 21
6753.7874319999992
 31
0.0
  0
LINE
  5
407B
  8
0-1
  6
CONTINUOUS
 62
     3
 10
23082.674803999998
 20
7872.3431089999976
 30
0.0
 11
25825.67744299995
 21
7872.3431089999976
 31
0.0
  0
LINE
  5
407C
  8
0-1
  6
CONTINUOUS
 62
     3
 10
23082.674803999998
 20
6517.8842439999999
 30
0.0
 11
25825.67744299995
 21
6517.8842439999999
 31
0.0
  0
LINE
  5
407D
  8
0-1
  6
CONTINUOUS
 62
     3
 10
23082.674803999998
 20
6582.883221
 30
0.0
 11
25825.67744299995
 21
6582.883221
 31
0.0
  0
LINE
  5
407E
  8
0-1
  6
CONTINUOUS
 62
     3
 10
23082.674803999998
 20
6647.8836829999982
 30
0.0
 11
25825.67744299995
 21
6647.8836829999982
 31
0.0
  0
LINE
  5
407F
  8
0-1
  6
CONTINUOUS
 62
     3
 10
23082.674803999998
 20
6712.8836500000007
 30
0.0
 11
25825.67744299995
 21
6712.8836500000007
 31
0.0
  0
LINE
  5
4080
  8
0-1
  6
CONTINUOUS
 62
     3
 10
23082.674803999998
 20
6777.8836169999986
 30
0.0
 11
25825.67744299995
 21
6777.8836169999986
 31
0.0
  0
LINE
  5
4081
  8
0-1
  6
CONTINUOUS
 62
     3
 10
23082.674803999998
 20
6842.8835839999983
 30
0.0
 11
25825.67744299995
 21
6842.8835839999983
 31
0.0
  0
LINE
  5
4082
  8
0-1
  6
CONTINUOUS
 62
     3
 10
23082.674803999998
 20
6907.8840459999992
 30
0.0
 11
25825.67744299995
 21
6907.8840459999992
 31
0.0
  0
LINE
  5
4083
  8
0-1
  6
CONTINUOUS
 62
     3
 10
23082.674803999998
 20
6972.8830229999967
 30
0.0
 11
25825.67744299995
 21
6972.8830229999967
 31
0.0
  0
LINE
  5
4084
  8
0-1
  6
CONTINUOUS
 62
     3
 10
23082.674803999998
 20
7037.8834849999994
 30
0.0
 11
25825.67744299995
 21
7037.8834849999994
 31
0.0
  0
LINE
  5
4085
  8
0-1
  6
CONTINUOUS
 62
     3
 10
23082.674803999998
 20
7102.8834519999973
 30
0.0
 11
25825.67744299995
 21
7102.8834519999973
 31
0.0
  0
LINE
  5
4086
  8
0-1
  6
CONTINUOUS
 62
     3
 10
23082.674803999998
 20
7167.8839139999982
 30
0.0
 11
25825.67744299995
 21
7167.8839139999982
 31
0.0
  0
LINE
  5
4087
  8
0-1
  6
CONTINUOUS
 62
     3
 10
23082.674803999998
 20
7232.8828909999966
 30
0.0
 11
25825.67744299995
 21
7232.8828909999966
 31
0.0
  0
LINE
  5
4088
  8
0-1
  6
CONTINUOUS
 62
     3
 10
23082.674803999998
 20
7297.883353000002
 30
0.0
 11
25825.67744299995
 21
7297.883353000002
 31
0.0
  0
LINE
  5
4089
  8
0-1
  6
CONTINUOUS
 62
     3
 10
23082.674803999998
 20
7362.883319999999
 30
0.0
 11
25825.67744299995
 21
7362.883319999999
 31
0.0
  0
LINE
  5
408A
  8
0-1
  6
CONTINUOUS
 62
     3
 10
23082.674803999998
 20
7427.8832869999969
 30
0.0
 11
25825.67744299995
 21
7427.8832869999969
 31
0.0
  0
LINE
  5
408B
  8
0-1
  6
CONTINUOUS
 62
     3
 10
23082.674803999998
 20
7492.8837489999969
 30
0.0
 11
25825.67744299995
 21
7492.8837489999969
 31
0.0
  0
LINE
  5
408C
  8
0-1
  6
CONTINUOUS
 62
     3
 10
23082.674803999998
 20
7557.8837159999975
 30
0.0
 11
25825.67744299995
 21
7557.8837159999975
 31
0.0
  0
LINE
  5
408D
  8
0-1
  6
CONTINUOUS
 62
     3
 10
23082.674803999998
 20
7622.8841779999984
 30
0.0
 11
25825.67744299995
 21
7622.8841779999984
 31
0.0
  0
LINE
  5
408E
  8
0-1
  6
CONTINUOUS
 62
     3
 10
23082.674803999998
 20
7687.8831549999968
 30
0.0
 11
25825.67744299995
 21
7687.8831549999968
 31
0.0
  0
LINE
  5
408F
  8
0-1
  6
CONTINUOUS
 62
     3
 10
23082.674803999998
 20
7752.8836170000013
 30
0.0
 11
25825.67744299995
 21
7752.8836170000013
 31
0.0
  0
LINE
  5
4090
  8
0-1
  6
CONTINUOUS
 62
     3
 10
23082.674803999998
 20
7817.8835839999974
 30
0.0
 11
25825.67744299995
 21
7817.8835839999974
 31
0.0
  0
LINE
  5
4091
  8
0-1
  6
CONTINUOUS
 62
     3
 10
23082.674803999998
 20
5997.8830229999994
 30
0.0
 11
25825.67744299995
 21
5997.8830229999994
 31
0.0
  0
LINE
  5
4092
  8
0-1
  6
CONTINUOUS
 62
     3
 10
23082.674803999998
 20
6062.8839799999978
 30
0.0
 11
25825.67744299995
 21
6062.8839799999978
 31
0.0
  0
LINE
  5
4093
  8
0-1
  6
CONTINUOUS
 62
     3
 10
23082.674803999998
 20
6127.8829569999971
 30
0.0
 11
25825.67744299995
 21
6127.8829569999971
 31
0.0
  0
LINE
  5
4094
  8
0-1
  6
CONTINUOUS
 62
     3
 10
23082.674803999998
 20
6192.8839139999991
 30
0.0
 11
25825.67744299995
 21
6192.8839139999991
 31
0.0
  0
LINE
  5
4095
  8
0-1
  6
CONTINUOUS
 62
     3
 10
23082.674803999998
 20
6257.8833859999986
 30
0.0
 11
25825.67744299995
 21
6257.8833859999986
 31
0.0
  0
LINE
  5
4096
  8
0-1
  6
CONTINUOUS
 62
     3
 10
23082.674803999998
 20
6322.8833529999984
 30
0.0
 11
25825.67744299995
 21
6322.8833529999984
 31
0.0
  0
LINE
  5
4097
  8
0-1
  6
CONTINUOUS
 62
     3
 10
23082.674803999998
 20
6387.883319999999
 30
0.0
 11
25825.67744299995
 21
6387.883319999999
 31
0.0
  0
LINE
  5
4098
  8
0-1
  6
CONTINUOUS
 62
     3
 10
23082.674803999998
 20
6452.8827919999976
 30
0.0
 11
25825.67744299995
 21
6452.8827919999976
 31
0.0
  0
LINE
  5
409A
  8
0-1
  6
CONTINUOUS
 62
     3
 10
23037.674407999992
 20
7940.8834449999968
 30
0.0
 11
25870.67783899996
 21
7940.8834449999968
 31
0.0
  0
LINE
  5
409B
  8
0-1
  6
CONTINUOUS
 62
     3
 10
21904.28322899999
 20
5932.883550999999
 30
0.0
 11
25963.17678399997
 21
5932.883550999999
 31
0.0
  0
LINE
  5
409D
  8
0-1
  6
CONTINUOUS
 62
     3
 10
21904.28322899999
 20
7552.0406719999937
 30
0.0
 11
21904.28322899999
 21
8756.063052999998
 31
0.0
  0
LINE
  5
409E
  8
0-1
  6
CONTINUOUS
 62
     3
 10
21604.283229000001
 20
7402.5568309999971
 30
0.0
 11
21604.283229000001
 21
8756.063052999998
 31
0.0
  0
LINE
  5
40A8
  8
0-1
  6
CONTINUOUS
 62
     3
 10
20582.669525999991
 20
6712.8836500000007
 30
0.0
 11
21197.967244999982
 21
6712.8836500000007
 31
0.0
  0
LINE
  5
40A9
  8
0-1
  6
CONTINUOUS
 62
     3
 10
20582.669525999991
 20
6777.8836169999986
 30
0.0
 11
21262.238253999982
 21
6777.8836169999986
 31
0.0
  0
LINE
  5
40AA
  8
0-1
  6
CONTINUOUS
 62
     3
 10
20582.669525999991
 20
6842.8835839999983
 30
0.0
 11
21326.51124299999
 21
6842.8835839999983
 31
0.0
  0
LINE
  5
40AB
  8
0-1
  6
CONTINUOUS
 62
     3
 10
20582.669525999991
 20
6907.8840459999992
 30
0.0
 11
21390.782252999968
 21
6907.8840459999992
 31
0.0
  0
LINE
  5
40AC
  8
0-1
  6
CONTINUOUS
 62
     3
 10
20582.669525999991
 20
6972.8830229999967
 30
0.0
 11
21455.055240999991
 21
6972.8830229999967
 31
0.0
  0
LINE
  5
40AD
  8
0-1
  6
CONTINUOUS
 62
     3
 10
20582.669525999991
 20
7037.8834849999994
 30
0.0
 11
21519.326250999991
 21
7037.8834849999994
 31
0.0
  0
LINE
  5
40B5
  8
0-1
  6
CONTINUOUS
 62
     3
 10
20582.669525999991
 20
6517.8842439999999
 30
0.0
 11
21358.745723999989
 21
6517.8842439999999
 31
0.0
  0
LINE
  5
40B6
  8
0-1
  6
CONTINUOUS
 62
     3
 10
20582.669525999991
 20
6582.883221
 30
0.0
 11
21272.573320999982
 21
6582.883221
 31
0.0
  0
LINE
  5
40B7
  8
0-1
  6
CONTINUOUS
 62
     3
 10
20582.669525999991
 20
6647.8836829999982
 30
0.0
 11
21186.398938999992
 21
6647.8836829999982
 31
0.0
  0
LINE
  5
40B8
  8
0-1
  6
CONTINUOUS
 62
     3
 10
20582.669525999991
 20
6452.8827919999976
 30
0.0
 11
21444.914167999981
 21
6452.8827919999976
 31
0.0
  0
LINE
  5
40B9
  8
0-1
  6
CONTINUOUS
 62
     3
 10
20452.670580999991
 20
8251.3828119999926
 30
0.0
 11
20452.670580999991
 21
5932.883550999999
 31
0.0
  0
LINE
  5
40BA
  8
0-1
  6
CONTINUOUS
 62
     3
 10
20407.672164999982
 20
7940.8834449999968
 30
0.0
 11
20407.672164999982
 21
5932.883550999999
 31
0.0
  0
LINE
  5
40BB
  8
0-1
  6
CONTINUOUS
 62
     3
 10
20537.673088999982
 20
8251.3828119999926
 30
0.0
 11
20537.673088999982
 21
5932.883550999999
 31
0.0
  0
LINE
  5
40BC
  8
0-1
  6
CONTINUOUS
 62
     3
 10
20582.669525999991
 20
7940.8834449999968
 30
0.0
 11
20582.669525999991
 21
5932.883550999999
 31
0.0
  0
LINE
  5
40BD
  8
0-1
  6
CONTINUOUS
 62
     3
 10
20582.669525999991
 20
7940.8834449999968
 30
0.0
 11
20582.669525999991
 21
5932.883550999999
 31
0.0
  0
LINE
  5
40C8
  8
0-1
  6
CONTINUOUS
 62
     3
 10
17627.171504999991
 20
6032.8833859999977
 30
0.0
 11
17627.171504999991
 21
5932.883550999999
 31
0.0
  0
LINE
  5
40C9
  8
0-1
  6
CONTINUOUS
 62
     3
 10
17527.170185999999
 20
5932.883550999999
 30
0.0
 11
17527.170185999999
 21
6032.8833859999977
 31
0.0
  0
LINE
  5
40CA
  8
0-1
  6
CONTINUOUS
 62
     3
 10
17527.170185999999
 20
6032.8833859999977
 30
0.0
 11
17627.171504999991
 21
6032.8833859999977
 31
0.0
  0
LINE
  5
40CB
  8
0-1
  6
CONTINUOUS
 62
     3
 10
17664.671504999998
 20
7940.8834449999968
 30
0.0
 11
17664.671504999998
 21
5932.883550999999
 31
0.0
  0
LINE
  5
40CC
  8
0-1
  6
CONTINUOUS
 62
     3
 10
17619.669129999998
 20
8251.3828119999926
 30
0.0
 11
17619.669129999998
 21
6032.8833859999977
 31
0.0
  0
LINE
  5
40CD
  8
0-1
  6
CONTINUOUS
 62
     3
 10
17554.671636999981
 20
8381.3837349999976
 30
0.0
 11
17554.671636999981
 21
6032.8833859999977
 31
0.0
  0
LINE
  5
40CE
  8
0-1
  6
CONTINUOUS
 62
     3
 10
17534.668602000002
 20
8251.3828119999926
 30
0.0
 11
17534.668602000002
 21
6032.8833859999977
 31
0.0
  0
LINE
  5
40CF
  8
0-1
  6
CONTINUOUS
 62
     3
 10
17619.669129999998
 20
7940.8834449999968
 30
0.0
 11
20452.670580999991
 21
7940.8834449999968
 31
0.0
  0
LINE
  5
40D1
  8
0-1
  6
CONTINUOUS
 62
     3
 10
17664.671504999998
 20
6452.8827919999976
 30
0.0
 11
20407.672164999982
 21
6452.8827919999976
 31
0.0
  0
LINE
  5
40D2
  8
0-1
  6
CONTINUOUS
 62
     3
 10
17664.671504999998
 20
6387.883319999999
 30
0.0
 11
20407.672164999982
 21
6387.883319999999
 31
0.0
  0
LINE
  5
40D3
  8
0-1
  6
CONTINUOUS
 62
     3
 10
17664.671504999998
 20
6322.8833529999984
 30
0.0
 11
20407.672164999982
 21
6322.8833529999984
 31
0.0
  0
LINE
  5
40D4
  8
0-1
  6
CONTINUOUS
 62
     3
 10
17664.671504999998
 20
6257.8833859999986
 30
0.0
 11
20407.672164999982
 21
6257.8833859999986
 31
0.0
  0
LINE
  5
40D5
  8
0-1
  6
CONTINUOUS
 62
     3
 10
17664.671504999998
 20
6192.8839139999991
 30
0.0
 11
20407.672164999982
 21
6192.8839139999991
 31
0.0
  0
LINE
  5
40D6
  8
0-1
  6
CONTINUOUS
 62
     3
 10
17664.671504999998
 20
6127.8829569999971
 30
0.0
 11
20407.672164999982
 21
6127.8829569999971
 31
0.0
  0
LINE
  5
40D7
  8
0-1
  6
CONTINUOUS
 62
     3
 10
17664.671504999998
 20
6062.8839799999978
 30
0.0
 11
20407.672164999982
 21
6062.8839799999978
 31
0.0
  0
LINE
  5
40D8
  8
0-1
  6
CONTINUOUS
 62
     3
 10
17664.671504999998
 20
5997.8830229999994
 30
0.0
 11
20407.672164999982
 21
5997.8830229999994
 31
0.0
  0
LINE
  5
40D9
  8
0-1
  6
CONTINUOUS
 62
     3
 10
17664.671504999998
 20
7817.8835839999974
 30
0.0
 11
20407.672164999982
 21
7817.8835839999974
 31
0.0
  0
LINE
  5
40DA
  8
0-1
  6
CONTINUOUS
 62
     3
 10
17664.671504999998
 20
7752.8836170000013
 30
0.0
 11
20407.672164999982
 21
7752.8836170000013
 31
0.0
  0
LINE
  5
40DB
  8
0-1
  6
CONTINUOUS
 62
     3
 10
17664.671504999998
 20
7687.8831549999968
 30
0.0
 11
20407.672164999982
 21
7687.8831549999968
 31
0.0
  0
LINE
  5
40DC
  8
0-1
  6
CONTINUOUS
 62
     3
 10
17664.671504999998
 20
7622.8841779999984
 30
0.0
 11
20407.672164999982
 21
7622.8841779999984
 31
0.0
  0
LINE
  5
40DD
  8
0-1
  6
CONTINUOUS
 62
     3
 10
17664.671504999998
 20
7557.8837159999975
 30
0.0
 11
20407.672164999982
 21
7557.8837159999975
 31
0.0
  0
LINE
  5
40DE
  8
0-1
  6
CONTINUOUS
 62
     3
 10
17664.671504999998
 20
7492.8837489999969
 30
0.0
 11
20407.672164999982
 21
7492.8837489999969
 31
0.0
  0
LINE
  5
40DF
  8
0-1
  6
CONTINUOUS
 62
     3
 10
17664.671504999998
 20
7427.8832869999969
 30
0.0
 11
20407.672164999982
 21
7427.8832869999969
 31
0.0
  0
LINE
  5
40E0
  8
0-1
  6
CONTINUOUS
 62
     3
 10
17664.671504999998
 20
7362.883319999999
 30
0.0
 11
20407.672164999982
 21
7362.883319999999
 31
0.0
  0
LINE
  5
40E1
  8
0-1
  6
CONTINUOUS
 62
     3
 10
17664.671504999998
 20
7297.883353000002
 30
0.0
 11
20407.672164999982
 21
7297.883353000002
 31
0.0
  0
LINE
  5
40E2
  8
0-1
  6
CONTINUOUS
 62
     3
 10
17664.671504999998
 20
7232.8828909999966
 30
0.0
 11
20407.672164999982
 21
7232.8828909999966
 31
0.0
  0
LINE
  5
40E3
  8
0-1
  6
CONTINUOUS
 62
     3
 10
17664.671504999998
 20
7167.8839139999982
 30
0.0
 11
20407.672164999982
 21
7167.8839139999982
 31
0.0
  0
LINE
  5
40E4
  8
0-1
  6
CONTINUOUS
 62
     3
 10
17664.671504999998
 20
7102.8834519999973
 30
0.0
 11
20407.672164999982
 21
7102.8834519999973
 31
0.0
  0
LINE
  5
40E5
  8
0-1
  6
CONTINUOUS
 62
     3
 10
17664.671504999998
 20
7037.8834849999994
 30
0.0
 11
20407.672164999982
 21
7037.8834849999994
 31
0.0
  0
LINE
  5
40E6
  8
0-1
  6
CONTINUOUS
 62
     3
 10
17664.671504999998
 20
6972.8830229999967
 30
0.0
 11
20407.672164999982
 21
6972.8830229999967
 31
0.0
  0
LINE
  5
40E7
  8
0-1
  6
CONTINUOUS
 62
     3
 10
17664.671504999998
 20
6907.8840459999992
 30
0.0
 11
20407.672164999982
 21
6907.8840459999992
 31
0.0
  0
LINE
  5
40E8
  8
0-1
  6
CONTINUOUS
 62
     3
 10
17664.671504999998
 20
6842.8835839999983
 30
0.0
 11
20407.672164999982
 21
6842.8835839999983
 31
0.0
  0
LINE
  5
40E9
  8
0-1
  6
CONTINUOUS
 62
     3
 10
17664.671504999998
 20
6777.8836169999986
 30
0.0
 11
20407.672164999982
 21
6777.8836169999986
 31
0.0
  0
LINE
  5
40EA
  8
0-1
  6
CONTINUOUS
 62
     3
 10
17664.671504999998
 20
6712.8836500000007
 30
0.0
 11
20407.672164999982
 21
6712.8836500000007
 31
0.0
  0
LINE
  5
40EB
  8
0-1
  6
CONTINUOUS
 62
     3
 10
17664.671504999998
 20
6647.8836829999982
 30
0.0
 11
20407.672164999982
 21
6647.8836829999982
 31
0.0
  0
LINE
  5
40EC
  8
0-1
  6
CONTINUOUS
 62
     3
 10
17664.671504999998
 20
6582.883221
 30
0.0
 11
20407.672164999982
 21
6582.883221
 31
0.0
  0
LINE
  5
40ED
  8
0-1
  6
CONTINUOUS
 62
     3
 10
17664.671504999998
 20
6517.8842439999999
 30
0.0
 11
20407.672164999982
 21
6517.8842439999999
 31
0.0
  0
LINE
  5
40EE
  8
0-1
  6
CONTINUOUS
 62
     3
 10
17664.671504999998
 20
7872.3431089999976
 30
0.0
 11
20407.672164999982
 21
7872.3431089999976
 31
0.0
  0
LINE
  5
40F1
  8
0-1
  6
CONTINUOUS
 62
     3
 10
17527.170185999999
 20
5932.883550999999
 30
0.0
 11
21604.283229000001
 21
5932.883550999999
 31
0.0
  0
LINE
  5
40F4
  8
0-1
  6
CONTINUOUS
 62
     3
 10
20582.669525999991
 20
7872.3431089999976
 30
0.0
 11
21604.283229000001
 21
7872.3431089999976
 31
0.0
  0
LINE
  5
40F5
  8
0-1
  6
CONTINUOUS
 62
     3
 10
20582.669525999991
 20
7102.8834519999973
 30
0.0
 11
21583.599238999981
 21
7102.8834519999973
 31
0.0
  0
LINE
  5
40F6
  8
0-1
  6
CONTINUOUS
 62
     3
 10
20582.669525999991
 20
7167.8839139999982
 30
0.0
 11
21647.870248999981
 21
7167.8839139999982
 31
0.0
  0
LINE
  5
40F7
  8
0-1
  6
CONTINUOUS
 62
     3
 10
20582.669525999991
 20
7232.8828909999966
 30
0.0
 11
21712.14323799999
 21
7232.8828909999966
 31
0.0
  0
LINE
  5
40F8
  8
0-1
  6
CONTINUOUS
 62
     3
 10
20582.669525999991
 20
7297.883353000002
 30
0.0
 11
21743.047481999991
 21
7297.883353000002
 31
0.0
  0
LINE
  5
40F9
  8
0-1
  6
CONTINUOUS
 62
     3
 10
20582.669525999991
 20
7362.883319999999
 30
0.0
 11
21656.879037999981
 21
7362.883319999999
 31
0.0
  0
LINE
  5
40FA
  8
0-1
  6
CONTINUOUS
 62
     3
 10
20582.669525999991
 20
7427.8832869999969
 30
0.0
 11
21604.283229000001
 21
7427.8832869999969
 31
0.0
  0
LINE
  5
40FB
  8
0-1
  6
CONTINUOUS
 62
     3
 10
20582.669525999991
 20
7492.8837489999969
 30
0.0
 11
21604.283229000001
 21
7492.8837489999969
 31
0.0
  0
LINE
  5
40FC
  8
0-1
  6
CONTINUOUS
 62
     3
 10
20582.669525999991
 20
7557.8837159999975
 30
0.0
 11
21604.283229000001
 21
7557.8837159999975
 31
0.0
  0
LINE
  5
40FD
  8
0-1
  6
CONTINUOUS
 62
     3
 10
20582.669525999991
 20
7622.8841779999984
 30
0.0
 11
21604.283229000001
 21
7622.8841779999984
 31
0.0
  0
LINE
  5
40FE
  8
0-1
  6
CONTINUOUS
 62
     3
 10
20582.669525999991
 20
7687.8831549999968
 30
0.0
 11
21604.283229000001
 21
7687.8831549999968
 31
0.0
  0
LINE
  5
40FF
  8
0-1
  6
CONTINUOUS
 62
     3
 10
20582.669525999991
 20
7752.8836170000013
 30
0.0
 11
21604.283229000001
 21
7752.8836170000013
 31
0.0
  0
LINE
  5
4100
  8
0-1
  6
CONTINUOUS
 62
     3
 10
20582.669525999991
 20
7817.8835839999974
 30
0.0
 11
21604.283229000001
 21
7817.8835839999974
 31
0.0
  0
LINE
  5
4101
  8
0-1
  6
CONTINUOUS
 62
     3
 10
20582.669525999991
 20
5997.8830229999994
 30
0.0
 11
21604.283229000001
 21
5997.8830229999994
 31
0.0
  0
LINE
  5
4102
  8
0-1
  6
CONTINUOUS
 62
     3
 10
20582.669525999991
 20
6062.8839799999978
 30
0.0
 11
21604.283229000001
 21
6062.8839799999978
 31
0.0
  0
LINE
  5
4103
  8
0-1
  6
CONTINUOUS
 62
     3
 10
20582.669525999991
 20
6127.8829569999971
 30
0.0
 11
21604.283229000001
 21
6127.8829569999971
 31
0.0
  0
LINE
  5
4104
  8
0-1
  6
CONTINUOUS
 62
     3
 10
20582.669525999991
 20
6192.8839139999991
 30
0.0
 11
21604.283229000001
 21
6192.8839139999991
 31
0.0
  0
LINE
  5
4105
  8
0-1
  6
CONTINUOUS
 62
     3
 10
20582.669525999991
 20
6257.8833859999986
 30
0.0
 11
21604.283229000001
 21
6257.8833859999986
 31
0.0
  0
LINE
  5
4106
  8
0-1
  6
CONTINUOUS
 62
     3
 10
20582.669525999991
 20
6322.8833529999984
 30
0.0
 11
21604.283229000001
 21
6322.8833529999984
 31
0.0
  0
LINE
  5
4107
  8
0-1
  6
CONTINUOUS
 62
     3
 10
20582.669525999991
 20
6387.883319999999
 30
0.0
 11
21531.086570999982
 21
6387.883319999999
 31
0.0
  0
LINE
  5
4108
  8
0-1
  6
CONTINUOUS
 62
     3
 10
20537.673088999982
 20
7940.8834449999968
 30
0.0
 11
21604.283229000001
 21
7940.8834449999968
 31
0.0
  0
LINE
  5
4109
  8
0-1
  6
CONTINUOUS
 62
     3
 10
21604.283229000001
 20
6332.6720719999967
 30
0.0
 11
21156.211279999981
 21
6670.6550749999951
 31
0.0
  0
LINE
  5
410A
  8
0-1
  6
CONTINUOUS
 62
     3
 10
21762.15973399999
 20
7283.4675089999973
 30
0.0
 11
21156.211279999981
 21
6670.6550749999951
 31
0.0
  0
LINE
  5
410E
  8
0-2
  6
CONTINUOUS
 62
     4
 10
24817.868123999961
 20
6680.1092549999967
 30
0.0
 11
24717.86878399998
 21
6680.1092549999967
 31
0.0
  0
LINE
  5
410F
  8
0-2
  6
CONTINUOUS
 62
     4
 10
24090.48214399998
 20
6680.1092549999967
 30
0.0
 11
24190.48148499996
 21
6680.1092549999967
 31
0.0
  0
LINE
  5
4110
  8
0-2
  6
CONTINUOUS
 62
     4
 10
19399.861855499988
 20
6680.1092549999967
 30
0.0
 11
19299.862515500001
 21
6680.1092549999967
 31
0.0
  0
LINE
  5
4111
  8
0-2
  6
CONTINUOUS
 62
     4
 10
18672.477854500001
 20
6680.1092549999967
 30
0.0
 11
18772.475215499999
 21
6680.1092549999967
 31
0.0
  0
LINE
  5
4112
  8
0-5
  6
CONTINUOUS
 62
     4
 10
25913.176123999961
 20
4252.8834519999937
 30
0.0
 11
25913.176123999961
 21
4092.883418999998
 31
0.0
  0
LINE
  5
4113
  8
0-5
  6
CONTINUOUS
 62
     4
 10
22995.176123999961
 20
4252.8834519999937
 30
0.0
 11
22995.176123999961
 21
4092.883418999998
 31
0.0
  0
LINE
  5
4114
  8
0-5
  6
CONTINUOUS
 62
     4
 10
20495.17084499999
 20
4252.8834519999937
 30
0.0
 11
20495.17084499999
 21
4092.883418999998
 31
0.0
  0
LINE
  5
4115
  8
0-5
  6
CONTINUOUS
 62
     4
 10
17577.170844999979
 20
4252.8834519999937
 30
0.0
 11
17577.170844999979
 21
4092.883418999998
 31
0.0
  0
LINE
  5
4116
  8
2-0
  6
CENTER2
 62
     6
 10
25913.176123999961
 20
5670.2311279999967
 30
0.0
 11
25913.176123999961
 21
6707.3731649999972
 31
0.0
  0
LINE
  5
4117
  8
2-0
  6
CENTER2
 62
     6
 10
22995.176123999961
 20
5670.2311279999967
 30
0.0
 11
22995.176123999961
 21
6707.3731649999972
 31
0.0
  0
LINE
  5
4118
  8
2-0
  6
CENTER2
 62
     6
 10
20495.17084499999
 20
5670.2311279999967
 30
0.0
 11
20495.17084499999
 21
6707.3731649999972
 31
0.0
  0
LINE
  5
4119
  8
2-0
  6
CENTER2
 62
     6
 10
17577.170844999979
 20
5670.2311279999967
 30
0.0
 11
17577.170844999979
 21
6707.3731649999972
 31
0.0
  0
CIRCLE
  5
4132
  8
0-5
  6
CONTINUOUS
 62
     4
 10
25913.176123999961
 20
3892.8837489999969
 30
0.0
 40
199.9999949999999
  0
CIRCLE
  5
4133
  8
0-5
  6
CONTINUOUS
 62
     4
 10
22995.176123999961
 20
3892.8837489999969
 30
0.0
 40
199.9999949999999
  0
CIRCLE
  5
4134
  8
0-5
  6
CONTINUOUS
 62
     4
 10
20495.17084499999
 20
3892.8837489999969
 30
0.0
 40
199.9999949999999
  0
CIRCLE
  5
4135
  8
0-5
  6
CONTINUOUS
 62
     4
 10
17577.170844999979
 20
3892.8837489999969
 30
0.0
 40
199.9999949999999
  0
TEXT
  5
4136
  8
0-5
  6
CONTINUOUS
 62
     7
 10
25861.241473999969
 20
3808.3828019999978
 30
0.0
 40
160.0
  1
n
 72
     4
 11
25914.574807333302
 21
3861.7161353333308
 31
0.0
  0
TEXT
  5
4137
  8
0-5
  6
CONTINUOUS
 62
     7
 10
22829.05101017523
 20
3822.8999104393961
 30
0.0
 40
140.0
  1
n-1
 72
     4
 11
22992.384343508558
 21
3892.8999104393961
 31
0.0
  0
TEXT
  5
4138
  8
0-5
  6
CONTINUOUS
 62
     7
 10
16958.994905999989
 20
6662.243797741995
 30
0.0
 40
160.0
  1
(2131.5)
 50
90.0
 72
     4
 11
16878.994905999989
 21
7115.577131075328
 31
0.0
  0
TEXT
  5
4139
  8
0-5
  6
CONTINUOUS
 62
     7
 10
20448.24239799998
 20
3806.3537949999982
 30
0.0
 40
160.0
  1
2
 72
     4
 11
20501.575731333309
 21
3886.3537949999982
 31
0.0
  0
TEXT
  5
413A
  8
0-5
  6
CONTINUOUS
 62
     7
 10
17530.23843899999
 20
3806.3537949999982
 30
0.0
 40
160.0
  1
1
 72
     4
 11
17556.905105666661
 21
3886.3537949999982
 31
0.0
  0
TEXT
  5
413B
  8
2-0
  6
CONTINUOUS
 62
     7
 10
20119.867900000001
 20
3074.4443679999958
 30
0.0
 40
160.0
  1
正 面 立 面 図
 72
     4
 11
20765.20123333333
 21
3154.4443679999958
 31
0.0
  0
CIRCLE
  5
413C
  8
0-4
  6
CONTINUOUS
 62
     4
 10
19036.17084499999
 20
6418.9394919999977
 30
0.0
 40
18.487504999999981
  0
CIRCLE
  5
413D
  8
0-4
  6
CONTINUOUS
 62
     4
 10
24454.176123999961
 20
6418.9394919999977
 30
0.0
 40
18.487504999999981
  0
TEXT
  5
413E
  8
2-0
  6
CONTINUOUS
 62
     7
 10
22116.69341847095
 20
3101.6397369999968
 30
0.0
 40
160.0
  1
1
 72
     4
 11
22143.360085137621
 21
3181.6397369999968
 31
0.0
  0
TEXT
  5
413F
  8
2-0
  6
CONTINUOUS
 62
     7
 10
22359.782135721649
 20
3021.6412049999958
 30
0.0
 40
160.0
  1
80
 72
     4
 11
22479.782135721649
 21
3101.6412049999958
 31
0.0
  0
TEXT
  5
4140
  8
2-0
  6
CONTINUOUS
 62
     7
 10
21617.695384470961
 20
3074.4443679999958
 30
0.0
 40
160.0
  1
(S=  /   )
 72
     4
 11
22177.695384470961
 21
3154.4443679999958
 31
0.0
  0
LINE
  5
4141
  8
SUNPOU
  6
CONTINUOUS
 10
17294.67084499999
 20
4732.883550999999
 30
0.0
 11
16936.715838278891
 21
4732.883550999999
 31
0.0
  0
LINE
  5
4142
  8
SUNPOU
  6
CONTINUOUS
 10
26195.680082999981
 20
4732.883550999999
 30
0.0
 11
26553.635089721069
 21
4732.883550999999
 31
0.0
  0
LINE
  5
4143
  8
0-5
  6
CONTINUOUS
 62
     4
 10
15004.801784999971
 20
6140.7290430000003
 30
0.0
 11
15124.79822199999
 21
5932.8835510000008
 31
0.0
  0
LINE
  5
4144
  8
0-5
  6
CONTINUOUS
 62
     4
 10
15124.79822199999
 20
5932.8835510000008
 30
0.0
 11
15244.79861799999
 21
6140.7290430000003
 31
0.0
  0
LINE
  5
4145
  8
0-5
  6
CONTINUOUS
 62
     4
 10
15244.79861799999
 20
6140.7290430000003
 30
0.0
 11
15004.801784999971
 21
6140.7290430000003
 31
0.0
  0
TEXT
  5
4146
  8
0-5
  6
CONTINUOUS
 62
     7
 10
15004.801784999971
 20
6220.7298009999977
 30
0.0
 40
160.0
  1
G.L
 72
     4
 11
15164.801784999971
 21
6300.7298009999977
 31
0.0
  0
LINE
  5
4147
  8
SUNPOU
  6
CONTINUOUS
 10
4444.0068220000176
 20
20202.812354000002
 30
0.0
 11
4444.0068220000176
 21
20999.77962177846
 31
0.0
  0
LINE
  5
4148
  8
SUNPOU
  6
CONTINUOUS
 10
4444.0068220000176
 20
13951.82112999998
 30
0.0
 11
4444.0068220000176
 21
13276.3950141896
 31
0.0
  0
LINE
  5
4149
  8
SUNPOU
  6
CONTINUOUS
 10
5988.2742420000086
 20
9180.8835769999969
 30
0.0
 11
5512.9851293597758
 21
9180.8835769999969
 31
0.0
  0
LINE
  5
414C
  8
WAKUSEN-01
 10
868.00000000000193
 20
22484.000000000011
 30
0.0
 11
32764.000000000011
 21
22484.000000000011
 31
0.0
  0
LINE
  5
414F
  8
WAKUSEN-01
 10
20560.0
 20
2484.0
 30
0.0
 11
32764.0
 21
2484.0
 31
0.0
  0
LINE
  5
4150
  8
WAKUSEN-02
 10
20560.0
 20
1655.9999999999991
 30
0.0
 11
26868.0
 21
1655.9999999999991
 31
0.0
  0
TEXT
  5
4151
  8
WAKUMOJI-01
 10
20670.260259962761
 20
2125.9030093393221
 30
0.0
 40
240.0
  1
名　称
  7
WAKUMOJI
  0
TEXT
  5
4152
  8
WAKUMOJI-01
 10
20656.505485091919
 20
1319.12897497982
 30
0.0
 40
240.0
  1
機種名
  7
WAKUMOJI
  0
LINE
  5
4155
  8
YODOROGO
 10
29977.604341291921
 20
1995.7494964292871
 30
0.0
 11
29829.604341291921
 21
1995.7494964292871
 31
0.0
1001
AUTOCAD_POSTSCRIPT_FIGURE
1002
{
1000
PSFILL
1000
Grayscale
1000
Grayscale
1070
    25
1002
}
  0
LINE
  5
4156
  8
YODOROGO
 10
29829.604341291921
 20
1947.749496429288
 30
0.0
 11
29977.604341291921
 21
1947.749496429288
 31
0.0
1001
AUTOCAD_POSTSCRIPT_FIGURE
1002
{
1000
PSFILL
1000
Grayscale
1000
Grayscale
1070
    25
1002
}
  0
LINE
  5
4157
  8
YODOROGO
 10
29977.604341291921
 20
1907.7494964292871
 30
0.0
 11
29829.604341291921
 21
1907.7494964292871
 31
0.0
1001
AUTOCAD_POSTSCRIPT_FIGURE
1002
{
1000
PSFILL
1000
Grayscale
1000
Grayscale
1070
    25
1002
}
  0
LINE
  5
4158
  8
YODOROGO
 10
29829.604341291921
 20
1859.749496429288
 30
0.0
 11
29977.604341291921
 21
1859.749496429288
 31
0.0
1001
AUTOCAD_POSTSCRIPT_FIGURE
1002
{
1000
PSFILL
1000
Grayscale
1000
Grayscale
1070
    25
1002
}
  0
LINE
  5
4159
  8
YODOROGO
 10
29977.604341291921
 20
1819.7494964292871
 30
0.0
 11
29829.604341291921
 21
1819.7494964292871
 31
0.0
1001
AUTOCAD_POSTSCRIPT_FIGURE
1002
{
1000
PSFILL
1000
Grayscale
1000
Grayscale
1070
    25
1002
}
  0
LINE
  5
415A
  8
YODOROGO
 10
29921.60434129191
 20
1707.749496429288
 30
0.0
 11
29977.604341291921
 21
1707.749496429288
 31
0.0
1001
AUTOCAD_POSTSCRIPT_FIGURE
1002
{
1000
PSFILL
1000
Grayscale
1000
Grayscale
1070
    25
1002
}
  0
LINE
  5
415B
  8
YODOROGO
 10
29737.604341291921
 20
1427.749496429288
 30
0.0
 11
29937.604341291932
 21
1481.3393349155101
 31
0.0
  0
LINE
  5
415C
  8
YODOROGO
 10
29949.60434129191
 20
1707.749496429288
 30
0.0
 11
29885.604341291921
 21
1707.749496429288
 31
0.0
  0
ARC
  5
415D
  8
YODOROGO
 10
30254.34774982791
 20
1807.864609233261
 30
0.0
 40
381.88686420564721
 50
213.96111677667841
 51
264.47872074317792
  0
ARC
  5
415E
  8
YODOROGO
 10
30254.347749827921
 20
1807.864609233302
 30
0.0
 40
381.8868642056816
 50
208.14114420486601
 51
212.9210361185994
  0
LINE
  5
415F
  8
YODOROGO
 10
29771.409872985321
 20
1556.807661346234
 30
0.0
 11
29933.78413250855
 21
1600.3157130570869
 31
0.0
  0
LINE
  5
4160
  8
YODOROGO
 10
29737.604341291921
 20
1427.749496429288
 30
0.0
 11
29937.604341291932
 21
1481.3393349155101
 31
0.0
  0
LINE
  5
4161
  8
YODOROGO
 10
29949.60434129191
 20
1707.749496429288
 30
0.0
 11
29885.604341291921
 21
1707.749496429288
 31
0.0
  0
ARC
  5
4162
  8
YODOROGO
 10
30254.34774982791
 20
1807.864609233261
 30
0.0
 40
381.88686420564721
 50
213.96111677667841
 51
264.47872074317792
  0
LINE
  5
4163
  8
YODOROGO
 10
28793.60434129191
 20
1819.7494964292871
 30
0.0
 11
28433.60434129191
 21
1819.7494964292871
 31
0.0
  0
LINE
  5
4164
  8
YODOROGO
 10
28513.60434129191
 20
1427.749496429288
 30
0.0
 11
28793.60434129191
 21
1427.749496429288
 31
0.0
  0
LINE
  5
4165
  8
YODOROGO
 10
28729.604341291921
 20
1923.7494964292871
 30
0.0
 11
28497.60434129191
 21
1923.7494964292871
 31
0.0
  0
LINE
  5
4166
  8
YODOROGO
 10
28585.604341291921
 20
2027.749496429288
 30
0.0
 11
28657.604341291921
 21
2027.749496429288
 31
0.0
  0
LINE
  5
4167
  8
YODOROGO
 10
28433.60434129191
 20
1707.749496429288
 30
0.0
 11
28433.60434129191
 21
1507.749496429288
 31
0.0
  0
LINE
  5
4168
  8
YODOROGO
 10
28497.60434129191
 20
1563.7494964292871
 30
0.0
 11
28497.60434129191
 21
1707.749496429288
 31
0.0
  0
LINE
  5
4169
  8
YODOROGO
 10
28585.604341291921
 20
1747.74949642929
 30
0.0
 11
28585.604341291921
 21
1547.749496429288
 31
0.0
  0
LINE
  5
416A
  8
YODOROGO
 10
27857.604341291921
 20
1683.749496429288
 30
0.0
 11
27777.604341291921
 21
1619.9724140445701
 31
0.0
  0
LINE
  5
416B
  8
YODOROGO
 10
27937.604341291921
 20
1619.9724140445701
 30
0.0
 11
27857.604341291921
 21
1683.749496429288
 31
0.0
  0
LINE
  5
416C
  8
YODOROGO
 10
27857.604341291921
 20
1707.749496429288
 30
0.0
 11
27937.604341291921
 21
1643.9724140445701
 31
0.0
  0
LINE
  5
416D
  8
YODOROGO
 10
27777.604341291921
 20
1643.9724140445701
 30
0.0
 11
27857.604341291921
 21
1707.749496429288
 31
0.0
  0
LINE
  5
416E
  8
YODOROGO
 10
28040.913204016892
 20
1659.749496429288
 30
0.0
 11
28040.913204016892
 21
1683.7494964292871
 31
0.0
  0
LINE
  5
416F
  8
YODOROGO
 10
27977.604341291921
 20
1683.7494964292871
 30
0.0
 11
27977.604341291921
 21
1667.749496429285
 31
0.0
  0
LINE
  5
4170
  8
YODOROGO
 10
28098.135520230931
 20
1707.749496429288
 30
0.0
 11
28098.135520230931
 21
1655.5036372746561
 31
0.0
1001
AUTOCAD_POSTSCRIPT_FIGURE
1002
{
1000
PSFILL
1000
Grayscale
1000
Grayscale
1070
   100
1002
}
  0
LINE
  5
4171
  8
YODOROGO
 10
28082.135520230921
 20
1655.5036372746561
 30
0.0
 11
28082.135520230921
 21
1707.749496429288
 31
0.0
1001
AUTOCAD_POSTSCRIPT_FIGURE
1002
{
1000
PSFILL
1000
Grayscale
1000
Grayscale
1070
   100
1002
}
  0
LINE
  5
4172
  8
YODOROGO
 10
27809.604341291921
 20
1608.771904043258
 30
0.0
 11
27809.604341291921
 21
1632.771904043258
 31
0.0
  0
LINE
  5
4173
  8
YODOROGO
 10
27905.604341291921
 20
1608.771904043258
 30
0.0
 11
27809.604341291921
 21
1608.771904043258
 31
0.0
  0
LINE
  5
4174
  8
YODOROGO
 10
27905.604341291921
 20
1632.771904043258
 30
0.0
 11
27905.604341291921
 21
1608.771904043258
 31
0.0
  0
LINE
  5
4175
  8
YODOROGO
 10
27809.604341291921
 20
1632.771904043258
 30
0.0
 11
27905.604341291921
 21
1632.771904043258
 31
0.0
  0
LINE
  5
4176
  8
YODOROGO
 10
27824.509588915738
 20
1568.5028573704751
 30
0.0
 11
27785.604341291921
 21
1475.7494964292871
 31
0.0
1001
AUTOCAD_POSTSCRIPT_FIGURE
1002
{
1000
PSFILL
1000
Grayscale
1000
Grayscale
1070
   100
1002
}
  0
LINE
  5
4177
  8
YODOROGO
 10
27777.604341291921
 20
1568.5028573704751
 30
0.0
 11
27824.509588915738
 21
1568.5028573704751
 31
0.0
1001
AUTOCAD_POSTSCRIPT_FIGURE
1002
{
1000
PSFILL
1000
Grayscale
1000
Grayscale
1070
   100
1002
}
  0
LINE
  5
4178
  8
YODOROGO
 10
27777.604341291921
 20
1588.5028573704751
 30
0.0
 11
27777.604341291921
 21
1568.5028573704751
 31
0.0
1001
AUTOCAD_POSTSCRIPT_FIGURE
1002
{
1000
PSFILL
1000
Grayscale
1000
Grayscale
1070
   100
1002
}
  0
LINE
  5
4179
  8
YODOROGO
 10
27937.604341291921
 20
1588.5028573704751
 30
0.0
 11
27777.604341291921
 21
1588.5028573704751
 31
0.0
1001
AUTOCAD_POSTSCRIPT_FIGURE
1002
{
1000
PSFILL
1000
Grayscale
1000
Grayscale
1070
   100
1002
}
  0
LINE
  5
417A
  8
YODOROGO
 10
27937.604341291921
 20
1568.5028573704751
 30
0.0
 11
27937.604341291921
 21
1588.5028573704751
 31
0.0
1001
AUTOCAD_POSTSCRIPT_FIGURE
1002
{
1000
PSFILL
1000
Grayscale
1000
Grayscale
1070
   100
1002
}
  0
LINE
  5
417B
  8
YODOROGO
 10
27844.509588915738
 20
1568.5028573704751
 30
0.0
 11
27937.604341291921
 21
1568.5028573704751
 31
0.0
1001
AUTOCAD_POSTSCRIPT_FIGURE
1002
{
1000
PSFILL
1000
Grayscale
1000
Grayscale
1070
   100
1002
}
  0
LINE
  5
417C
  8
YODOROGO
 10
27815.546718284771
 20
1495.7494964292871
 30
0.0
 11
27844.509588915738
 21
1568.5028573704751
 31
0.0
1001
AUTOCAD_POSTSCRIPT_FIGURE
1002
{
1000
PSFILL
1000
Grayscale
1000
Grayscale
1070
   100
1002
}
  0
LINE
  5
417D
  8
YODOROGO
 10
27902.054790808648
 20
1495.7494964292871
 30
0.0
 11
27815.546718284771
 21
1495.7494964292871
 31
0.0
1001
AUTOCAD_POSTSCRIPT_FIGURE
1002
{
1000
PSFILL
1000
Grayscale
1000
Grayscale
1070
   100
1002
}
  0
LINE
  5
417E
  8
YODOROGO
 10
27885.065004790951
 20
1536.2338106976929
 30
0.0
 11
27902.054790808648
 21
1495.7494964292871
 31
0.0
1001
AUTOCAD_POSTSCRIPT_FIGURE
1002
{
1000
PSFILL
1000
Grayscale
1000
Grayscale
1070
   100
1002
}
  0
LINE
  5
417F
  8
YODOROGO
 10
27901.065004790951
 20
1536.2338106976929
 30
0.0
 11
27885.065004790951
 21
1536.2338106976929
 31
0.0
1001
AUTOCAD_POSTSCRIPT_FIGURE
1002
{
1000
PSFILL
1000
Grayscale
1000
Grayscale
1070
   100
1002
}
  0
LINE
  5
4180
  8
YODOROGO
 10
27929.604341291921
 20
1475.7494964292871
 30
0.0
 11
27901.065004790951
 21
1536.2338106976929
 31
0.0
1001
AUTOCAD_POSTSCRIPT_FIGURE
1002
{
1000
PSFILL
1000
Grayscale
1000
Grayscale
1070
   100
1002
}
  0
LINE
  5
4181
  8
YODOROGO
 10
27785.604341291921
 20
1475.7494964292871
 30
0.0
 11
27929.604341291921
 21
1475.7494964292871
 31
0.0
1001
AUTOCAD_POSTSCRIPT_FIGURE
1002
{
1000
PSFILL
1000
Grayscale
1000
Grayscale
1070
   100
1002
}
  0
LINE
  5
4182
  8
YODOROGO
 10
27777.604341291921
 20
1619.9724140445701
 30
0.0
 11
27777.604341291921
 21
1643.9724140445701
 31
0.0
  0
LINE
  5
4183
  8
YODOROGO
 10
27937.604341291921
 20
1643.9724140445701
 30
0.0
 11
27937.604341291921
 21
1619.9724140445701
 31
0.0
  0
ARC
  5
4184
  8
YODOROGO
 10
28225.940442146959
 20
1600.877765325326
 30
0.0
 40
175.9999999999998
 50
280.3644312771313
 51
3.5414836592180561
  0
ARC
  5
4185
  8
YODOROGO
 10
28235.756030759301
 20
1633.5978069619041
 30
0.0
 40
111.9999999999982
 50
281.24905825041549
 51
348.75094174958321
  0
LINE
  5
4186
  8
YODOROGO
 10
28257.604341291921
 20
1523.7494964292871
 30
0.0
 11
28257.604341291921
 21
1427.749496429288
 31
0.0
  0
LINE
  5
4187
  8
YODOROGO
 10
28020.088903736909
 20
1610.650565061914
 30
0.0
 11
28040.913204016892
 21
1659.749496429288
 31
0.0
  0
LINE
  5
4188
  8
YODOROGO
 10
28041.604341291921
 20
1583.120489948401
 30
0.0
 11
28020.088903736909
 21
1610.650565061914
 31
0.0
  0
LINE
  5
4189
  8
YODOROGO
 10
28041.604341291921
 20
1563.120489948398
 30
0.0
 11
28041.604341291921
 21
1583.120489948401
 31
0.0
  0
LINE
  5
418A
  8
YODOROGO
 10
28017.604341291921
 20
1585.2370637495301
 30
0.0
 11
28041.604341291921
 21
1563.120489948398
 31
0.0
  0
LINE
  5
418B
  8
YODOROGO
 10
28017.604341291921
 20
1475.7494964292871
 30
0.0
 11
28017.604341291921
 21
1585.2370637495301
 31
0.0
  0
LINE
  5
418C
  8
YODOROGO
 10
28001.604341291921
 20
1475.7494964292871
 30
0.0
 11
28017.604341291921
 21
1475.7494964292871
 31
0.0
  0
LINE
  5
418D
  8
YODOROGO
 10
28001.604341291921
 20
1580.0053496897469
 30
0.0
 11
28001.604341291921
 21
1475.7494964292871
 31
0.0
  0
LINE
  5
418E
  8
YODOROGO
 10
27977.604341291921
 20
1532.7680790334291
 30
0.0
 11
28001.604341291921
 21
1580.0053496897469
 31
0.0
  0
LINE
  5
418F
  8
YODOROGO
 10
27977.604341291921
 20
1556.76807903343
 30
0.0
 11
27977.604341291921
 21
1532.7680790334291
 31
0.0
  0
LINE
  5
4190
  8
YODOROGO
 10
28025.828774291349
 20
1667.749496429285
 30
0.0
 11
27977.604341291921
 21
1556.76807903343
 31
0.0
  0
LINE
  5
4191
  8
YODOROGO
 10
27977.604341291921
 20
1667.749496429285
 30
0.0
 11
28025.828774291349
 21
1667.749496429285
 31
0.0
  0
LINE
  5
4192
  8
YODOROGO
 10
28050.135520230899
 20
1655.5036372746561
 30
0.0
 11
28082.135520230921
 21
1655.5036372746561
 31
0.0
1001
AUTOCAD_POSTSCRIPT_FIGURE
1002
{
1000
PSFILL
1000
Grayscale
1000
Grayscale
1070
   100
1002
}
  0
LINE
  5
4193
  8
YODOROGO
 10
28050.135520230899
 20
1631.5036372746561
 30
0.0
 11
28050.135520230899
 21
1655.5036372746561
 31
0.0
1001
AUTOCAD_POSTSCRIPT_FIGURE
1002
{
1000
PSFILL
1000
Grayscale
1000
Grayscale
1070
   100
1002
}
  0
LINE
  5
4194
  8
YODOROGO
 10
28082.135520230921
 20
1631.5036372746561
 30
0.0
 11
28050.135520230899
 21
1631.5036372746561
 31
0.0
1001
AUTOCAD_POSTSCRIPT_FIGURE
1002
{
1000
PSFILL
1000
Grayscale
1000
Grayscale
1070
   100
1002
}
  0
LINE
  5
4195
  8
YODOROGO
 10
28082.135520230921
 20
1499.749496429288
 30
0.0
 11
28082.135520230921
 21
1631.5036372746561
 31
0.0
1001
AUTOCAD_POSTSCRIPT_FIGURE
1002
{
1000
PSFILL
1000
Grayscale
1000
Grayscale
1070
   100
1002
}
  0
LINE
  5
4196
  8
YODOROGO
 10
28050.135520230921
 20
1499.749496429288
 30
0.0
 11
28082.135520230921
 21
1499.749496429288
 31
0.0
1001
AUTOCAD_POSTSCRIPT_FIGURE
1002
{
1000
PSFILL
1000
Grayscale
1000
Grayscale
1070
   100
1002
}
  0
LINE
  5
4197
  8
YODOROGO
 10
28050.135520230921
 20
1475.7494964292871
 30
0.0
 11
28050.135520230921
 21
1499.749496429288
 31
0.0
1001
AUTOCAD_POSTSCRIPT_FIGURE
1002
{
1000
PSFILL
1000
Grayscale
1000
Grayscale
1070
   100
1002
}
  0
LINE
  5
4198
  8
YODOROGO
 10
28137.604341291921
 20
1475.7494964292871
 30
0.0
 11
28050.135520230921
 21
1475.7494964292871
 31
0.0
1001
AUTOCAD_POSTSCRIPT_FIGURE
1002
{
1000
PSFILL
1000
Grayscale
1000
Grayscale
1070
   100
1002
}
  0
LINE
  5
4199
  8
YODOROGO
 10
28137.604341291921
 20
1499.749496429288
 30
0.0
 11
28137.604341291921
 21
1475.7494964292871
 31
0.0
1001
AUTOCAD_POSTSCRIPT_FIGURE
1002
{
1000
PSFILL
1000
Grayscale
1000
Grayscale
1070
   100
1002
}
  0
LINE
  5
419A
  8
YODOROGO
 10
28098.135520230931
 20
1499.749496429288
 30
0.0
 11
28137.604341291921
 21
1499.749496429288
 31
0.0
1001
AUTOCAD_POSTSCRIPT_FIGURE
1002
{
1000
PSFILL
1000
Grayscale
1000
Grayscale
1070
   100
1002
}
  0
LINE
  5
419B
  8
YODOROGO
 10
28098.135520230931
 20
1631.5036372746561
 30
0.0
 11
28098.135520230931
 21
1499.749496429288
 31
0.0
1001
AUTOCAD_POSTSCRIPT_FIGURE
1002
{
1000
PSFILL
1000
Grayscale
1000
Grayscale
1070
   100
1002
}
  0
LINE
  5
419C
  8
YODOROGO
 10
28137.604341291921
 20
1631.5036372746561
 30
0.0
 11
28098.135520230931
 21
1631.5036372746561
 31
0.0
1001
AUTOCAD_POSTSCRIPT_FIGURE
1002
{
1000
PSFILL
1000
Grayscale
1000
Grayscale
1070
   100
1002
}
  0
LINE
  5
419D
  8
YODOROGO
 10
28137.604341291921
 20
1655.5036372746561
 30
0.0
 11
28137.604341291921
 21
1631.5036372746561
 31
0.0
1001
AUTOCAD_POSTSCRIPT_FIGURE
1002
{
1000
PSFILL
1000
Grayscale
1000
Grayscale
1070
   100
1002
}
  0
LINE
  5
419E
  8
YODOROGO
 10
28098.135520230931
 20
1655.5036372746561
 30
0.0
 11
28137.604341291921
 21
1655.5036372746561
 31
0.0
1001
AUTOCAD_POSTSCRIPT_FIGURE
1002
{
1000
PSFILL
1000
Grayscale
1000
Grayscale
1070
   100
1002
}
  0
LINE
  5
419F
  8
YODOROGO
 10
28401.60434129191
 20
1667.749496429288
 30
0.0
 11
28345.604341291921
 21
1667.749496429288
 31
0.0
  0
LINE
  5
41A0
  8
YODOROGO
 10
28401.60434129191
 20
1611.749496429288
 30
0.0
 11
28401.60434129191
 21
1667.749496429288
 31
0.0
  0
LINE
  5
41A1
  8
YODOROGO
 10
28345.604341291921
 20
1667.749496429288
 30
0.0
 11
28345.604341291921
 21
1611.749496429288
 31
0.0
  0
ARC
  5
41A2
  8
YODOROGO
 10
28513.60434129191
 20
1507.749496429288
 30
0.0
 40
80.0
 50
180.0
 51
270.0
  0
ARC
  5
41A3
  8
YODOROGO
 10
28537.604341291921
 20
1563.7494964292871
 30
0.0
 40
40.0
 50
180.0
 51
270.0
  0
LINE
  5
41A4
  8
YODOROGO
 10
28561.604341291932
 20
1523.7494964292871
 30
0.0
 11
28537.604341291921
 21
1523.7494964292871
 31
0.0
  0
ARC
  5
41A5
  8
YODOROGO
 10
28561.604341291932
 20
1547.749496429285
 30
0.0
 40
23.999999999996358
 50
270.0
 51
0.0000000000054281
  0
LINE
  5
41A6
  8
YODOROGO
 10
27801.604341291921
 20
1890.786580793706
 30
0.0
 11
27777.604341291921
 21
1843.776747951672
 31
0.0
1001
AUTOCAD_POSTSCRIPT_FIGURE
1002
{
1000
PSFILL
1000
Grayscale
1000
Grayscale
1070
   100
1002
}
  0
LINE
  5
41A7
  8
YODOROGO
 10
27801.604341291921
 20
1747.749496429286
 30
0.0
 11
27801.604341291921
 21
1890.786580793706
 31
0.0
1001
AUTOCAD_POSTSCRIPT_FIGURE
1002
{
1000
PSFILL
1000
Grayscale
1000
Grayscale
1070
   100
1002
}
  0
LINE
  5
41A8
  8
YODOROGO
 10
27817.604341291921
 20
1747.749496429286
 30
0.0
 11
27801.604341291921
 21
1747.749496429286
 31
0.0
1001
AUTOCAD_POSTSCRIPT_FIGURE
1002
{
1000
PSFILL
1000
Grayscale
1000
Grayscale
1070
   100
1002
}
  0
LINE
  5
41A9
  8
YODOROGO
 10
27817.604341291921
 20
1893.7713320852661
 30
0.0
 11
27817.604341291921
 21
1747.749496429286
 31
0.0
1001
AUTOCAD_POSTSCRIPT_FIGURE
1002
{
1000
PSFILL
1000
Grayscale
1000
Grayscale
1070
   100
1002
}
  0
LINE
  5
41AA
  8
YODOROGO
 10
27841.604341291921
 20
1867.6547582841361
 30
0.0
 11
27817.604341291921
 21
1893.7713320852661
 31
0.0
1001
AUTOCAD_POSTSCRIPT_FIGURE
1002
{
1000
PSFILL
1000
Grayscale
1000
Grayscale
1070
   100
1002
}
  0
LINE
  5
41AB
  8
YODOROGO
 10
27841.604341291921
 20
1883.6547582841361
 30
0.0
 11
27841.604341291921
 21
1867.6547582841361
 31
0.0
1001
AUTOCAD_POSTSCRIPT_FIGURE
1002
{
1000
PSFILL
1000
Grayscale
1000
Grayscale
1070
   100
1002
}
  0
LINE
  5
41AC
  8
YODOROGO
 10
27817.604341291921
 20
1917.7713320852649
 30
0.0
 11
27841.604341291921
 21
1883.6547582841361
 31
0.0
1001
AUTOCAD_POSTSCRIPT_FIGURE
1002
{
1000
PSFILL
1000
Grayscale
1000
Grayscale
1070
   100
1002
}
  0
LINE
  5
41AD
  8
YODOROGO
 10
27817.604341291921
 20
1939.749496429288
 30
0.0
 11
27817.604341291921
 21
1917.7713320852649
 31
0.0
1001
AUTOCAD_POSTSCRIPT_FIGURE
1002
{
1000
PSFILL
1000
Grayscale
1000
Grayscale
1070
   100
1002
}
  0
LINE
  5
41AE
  8
YODOROGO
 10
27889.604341291921
 20
1939.749496429288
 30
0.0
 11
27817.604341291921
 21
1939.749496429288
 31
0.0
1001
AUTOCAD_POSTSCRIPT_FIGURE
1002
{
1000
PSFILL
1000
Grayscale
1000
Grayscale
1070
   100
1002
}
  0
LINE
  5
41AF
  8
YODOROGO
 10
27889.604341291921
 20
1900.5683489363
 30
0.0
 11
27889.604341291921
 21
1939.749496429288
 31
0.0
1001
AUTOCAD_POSTSCRIPT_FIGURE
1002
{
1000
PSFILL
1000
Grayscale
1000
Grayscale
1070
   100
1002
}
  0
LINE
  5
41B0
  8
YODOROGO
 10
27857.604341291921
 20
1900.5683489363
 30
0.0
 11
27889.604341291921
 21
1900.5683489363
 31
0.0
1001
AUTOCAD_POSTSCRIPT_FIGURE
1002
{
1000
PSFILL
1000
Grayscale
1000
Grayscale
1070
   100
1002
}
  0
LINE
  5
41B1
  8
YODOROGO
 10
27857.604341291921
 20
1884.568348936298
 30
0.0
 11
27857.604341291921
 21
1900.5683489363
 31
0.0
1001
AUTOCAD_POSTSCRIPT_FIGURE
1002
{
1000
PSFILL
1000
Grayscale
1000
Grayscale
1070
   100
1002
}
  0
LINE
  5
41B2
  8
YODOROGO
 10
27889.604341291921
 20
1884.568348936298
 30
0.0
 11
27857.604341291921
 21
1884.568348936298
 31
0.0
1001
AUTOCAD_POSTSCRIPT_FIGURE
1002
{
1000
PSFILL
1000
Grayscale
1000
Grayscale
1070
   100
1002
}
  0
LINE
  5
41B3
  8
YODOROGO
 10
27889.604341291921
 20
1879.6191779644371
 30
0.0
 11
27889.604341291921
 21
1884.568348936298
 31
0.0
1001
AUTOCAD_POSTSCRIPT_FIGURE
1002
{
1000
PSFILL
1000
Grayscale
1000
Grayscale
1070
   100
1002
}
  0
LINE
  5
41B4
  8
YODOROGO
 10
27849.604341291921
 20
1812.974981161417
 30
0.0
 11
27889.604341291921
 21
1879.6191779644371
 31
0.0
1001
AUTOCAD_POSTSCRIPT_FIGURE
1002
{
1000
PSFILL
1000
Grayscale
1000
Grayscale
1070
   100
1002
}
  0
LINE
  5
41B5
  8
YODOROGO
 10
27849.604341291921
 20
1796.9749811614161
 30
0.0
 11
27849.604341291921
 21
1812.974981161417
 31
0.0
1001
AUTOCAD_POSTSCRIPT_FIGURE
1002
{
1000
PSFILL
1000
Grayscale
1000
Grayscale
1070
   100
1002
}
  0
LINE
  5
41B6
  8
YODOROGO
 10
27889.604341291921
 20
1847.6191779644359
 30
0.0
 11
27849.604341291921
 21
1796.9749811614161
 31
0.0
1001
AUTOCAD_POSTSCRIPT_FIGURE
1002
{
1000
PSFILL
1000
Grayscale
1000
Grayscale
1070
   100
1002
}
  0
LINE
  5
41B7
  8
YODOROGO
 10
27889.604341291921
 20
1747.749496429286
 30
0.0
 11
27889.604341291921
 21
1847.6191779644359
 31
0.0
1001
AUTOCAD_POSTSCRIPT_FIGURE
1002
{
1000
PSFILL
1000
Grayscale
1000
Grayscale
1070
   100
1002
}
  0
LINE
  5
41B8
  8
YODOROGO
 10
27905.604341291921
 20
1747.749496429286
 30
0.0
 11
27889.604341291921
 21
1747.749496429286
 31
0.0
1001
AUTOCAD_POSTSCRIPT_FIGURE
1002
{
1000
PSFILL
1000
Grayscale
1000
Grayscale
1070
   100
1002
}
  0
LINE
  5
41B9
  8
YODOROGO
 10
27905.604341291921
 20
1849.409012158806
 30
0.0
 11
27905.604341291921
 21
1747.749496429286
 31
0.0
1001
AUTOCAD_POSTSCRIPT_FIGURE
1002
{
1000
PSFILL
1000
Grayscale
1000
Grayscale
1070
   100
1002
}
  0
LINE
  5
41BA
  8
YODOROGO
 10
27937.604341291921
 20
1796.9749811614161
 30
0.0
 11
27905.604341291921
 21
1849.409012158806
 31
0.0
1001
AUTOCAD_POSTSCRIPT_FIGURE
1002
{
1000
PSFILL
1000
Grayscale
1000
Grayscale
1070
   100
1002
}
  0
LINE
  5
41BB
  8
YODOROGO
 10
27937.604341291921
 20
1812.974981161417
 30
0.0
 11
27937.604341291921
 21
1796.9749811614161
 31
0.0
1001
AUTOCAD_POSTSCRIPT_FIGURE
1002
{
1000
PSFILL
1000
Grayscale
1000
Grayscale
1070
   100
1002
}
  0
LINE
  5
41BC
  8
YODOROGO
 10
27905.604341291921
 20
1881.4090121588081
 30
0.0
 11
27937.604341291921
 21
1812.974981161417
 31
0.0
1001
AUTOCAD_POSTSCRIPT_FIGURE
1002
{
1000
PSFILL
1000
Grayscale
1000
Grayscale
1070
   100
1002
}
  0
LINE
  5
41BD
  8
YODOROGO
 10
27905.604341291921
 20
1884.5683489363
 30
0.0
 11
27905.604341291921
 21
1881.4090121588081
 31
0.0
1001
AUTOCAD_POSTSCRIPT_FIGURE
1002
{
1000
PSFILL
1000
Grayscale
1000
Grayscale
1070
   100
1002
}
  0
LINE
  5
41BE
  8
YODOROGO
 10
27937.604341291921
 20
1884.568348936298
 30
0.0
 11
27905.604341291921
 21
1884.5683489363
 31
0.0
1001
AUTOCAD_POSTSCRIPT_FIGURE
1002
{
1000
PSFILL
1000
Grayscale
1000
Grayscale
1070
   100
1002
}
  0
LINE
  5
41BF
  8
YODOROGO
 10
27937.604341291921
 20
1900.5683489363
 30
0.0
 11
27937.604341291921
 21
1884.568348936298
 31
0.0
1001
AUTOCAD_POSTSCRIPT_FIGURE
1002
{
1000
PSFILL
1000
Grayscale
1000
Grayscale
1070
   100
1002
}
  0
LINE
  5
41C0
  8
YODOROGO
 10
27905.604341291921
 20
1900.5683489363
 30
0.0
 11
27937.604341291921
 21
1900.5683489363
 31
0.0
1001
AUTOCAD_POSTSCRIPT_FIGURE
1002
{
1000
PSFILL
1000
Grayscale
1000
Grayscale
1070
   100
1002
}
  0
LINE
  5
41C1
  8
YODOROGO
 10
27905.604341291921
 20
1939.749496429288
 30
0.0
 11
27905.604341291921
 21
1900.5683489363
 31
0.0
1001
AUTOCAD_POSTSCRIPT_FIGURE
1002
{
1000
PSFILL
1000
Grayscale
1000
Grayscale
1070
   100
1002
}
  0
LINE
  5
41C2
  8
YODOROGO
 10
27937.604341291921
 20
1939.749496429288
 30
0.0
 11
27905.604341291921
 21
1939.749496429288
 31
0.0
1001
AUTOCAD_POSTSCRIPT_FIGURE
1002
{
1000
PSFILL
1000
Grayscale
1000
Grayscale
1070
   100
1002
}
  0
LINE
  5
41C3
  8
YODOROGO
 10
27937.604341291921
 20
1955.7494964292871
 30
0.0
 11
27937.604341291921
 21
1939.749496429288
 31
0.0
1001
AUTOCAD_POSTSCRIPT_FIGURE
1002
{
1000
PSFILL
1000
Grayscale
1000
Grayscale
1070
   100
1002
}
  0
LINE
  5
41C4
  8
YODOROGO
 10
27905.604341291921
 20
1955.7494964292871
 30
0.0
 11
27937.604341291921
 21
1955.7494964292871
 31
0.0
1001
AUTOCAD_POSTSCRIPT_FIGURE
1002
{
1000
PSFILL
1000
Grayscale
1000
Grayscale
1070
   100
1002
}
  0
LINE
  5
41C5
  8
YODOROGO
 10
27905.604341291921
 20
1979.749496429288
 30
0.0
 11
27905.604341291921
 21
1955.7494964292871
 31
0.0
1001
AUTOCAD_POSTSCRIPT_FIGURE
1002
{
1000
PSFILL
1000
Grayscale
1000
Grayscale
1070
   100
1002
}
  0
LINE
  5
41C6
  8
YODOROGO
 10
27889.604341291921
 20
1979.749496429288
 30
0.0
 11
27905.604341291921
 21
1979.749496429288
 31
0.0
1001
AUTOCAD_POSTSCRIPT_FIGURE
1002
{
1000
PSFILL
1000
Grayscale
1000
Grayscale
1070
   100
1002
}
  0
LINE
  5
41C7
  8
YODOROGO
 10
27889.604341291921
 20
1955.7494964292871
 30
0.0
 11
27889.604341291921
 21
1979.749496429288
 31
0.0
1001
AUTOCAD_POSTSCRIPT_FIGURE
1002
{
1000
PSFILL
1000
Grayscale
1000
Grayscale
1070
   100
1002
}
  0
LINE
  5
41C8
  8
YODOROGO
 10
27865.604341291921
 20
1955.7494964292871
 30
0.0
 11
27889.604341291921
 21
1955.7494964292871
 31
0.0
1001
AUTOCAD_POSTSCRIPT_FIGURE
1002
{
1000
PSFILL
1000
Grayscale
1000
Grayscale
1070
   100
1002
}
  0
LINE
  5
41C9
  8
YODOROGO
 10
27865.604341291921
 20
1979.749496429288
 30
0.0
 11
27865.604341291921
 21
1955.7494964292871
 31
0.0
1001
AUTOCAD_POSTSCRIPT_FIGURE
1002
{
1000
PSFILL
1000
Grayscale
1000
Grayscale
1070
   100
1002
}
  0
LINE
  5
41CA
  8
YODOROGO
 10
27849.604341291921
 20
1979.749496429288
 30
0.0
 11
27865.604341291921
 21
1979.749496429288
 31
0.0
1001
AUTOCAD_POSTSCRIPT_FIGURE
1002
{
1000
PSFILL
1000
Grayscale
1000
Grayscale
1070
   100
1002
}
  0
LINE
  5
41CB
  8
YODOROGO
 10
27849.604341291921
 20
1955.7494964292871
 30
0.0
 11
27849.604341291921
 21
1979.749496429288
 31
0.0
1001
AUTOCAD_POSTSCRIPT_FIGURE
1002
{
1000
PSFILL
1000
Grayscale
1000
Grayscale
1070
   100
1002
}
  0
LINE
  5
41CC
  8
YODOROGO
 10
27817.604341291921
 20
1955.7494964292871
 30
0.0
 11
27849.604341291921
 21
1955.7494964292871
 31
0.0
1001
AUTOCAD_POSTSCRIPT_FIGURE
1002
{
1000
PSFILL
1000
Grayscale
1000
Grayscale
1070
   100
1002
}
  0
LINE
  5
41CD
  8
YODOROGO
 10
27817.604341291921
 20
1979.749496429288
 30
0.0
 11
27817.604341291921
 21
1955.7494964292871
 31
0.0
1001
AUTOCAD_POSTSCRIPT_FIGURE
1002
{
1000
PSFILL
1000
Grayscale
1000
Grayscale
1070
   100
1002
}
  0
LINE
  5
41CE
  8
YODOROGO
 10
27801.604341291921
 20
1979.749496429288
 30
0.0
 11
27817.604341291921
 21
1979.749496429288
 31
0.0
1001
AUTOCAD_POSTSCRIPT_FIGURE
1002
{
1000
PSFILL
1000
Grayscale
1000
Grayscale
1070
   100
1002
}
  0
LINE
  5
41CF
  8
YODOROGO
 10
27801.604341291921
 20
1955.7494964292871
 30
0.0
 11
27801.604341291921
 21
1979.749496429288
 31
0.0
1001
AUTOCAD_POSTSCRIPT_FIGURE
1002
{
1000
PSFILL
1000
Grayscale
1000
Grayscale
1070
   100
1002
}
  0
LINE
  5
41D0
  8
YODOROGO
 10
27777.604341291921
 20
1955.7494964292871
 30
0.0
 11
27801.604341291921
 21
1955.7494964292871
 31
0.0
1001
AUTOCAD_POSTSCRIPT_FIGURE
1002
{
1000
PSFILL
1000
Grayscale
1000
Grayscale
1070
   100
1002
}
  0
LINE
  5
41D1
  8
YODOROGO
 10
27777.604341291921
 20
1939.749496429288
 30
0.0
 11
27777.604341291921
 21
1955.7494964292871
 31
0.0
1001
AUTOCAD_POSTSCRIPT_FIGURE
1002
{
1000
PSFILL
1000
Grayscale
1000
Grayscale
1070
   100
1002
}
  0
LINE
  5
41D2
  8
YODOROGO
 10
27801.604341291921
 20
1939.749496429288
 30
0.0
 11
27777.604341291921
 21
1939.749496429288
 31
0.0
1001
AUTOCAD_POSTSCRIPT_FIGURE
1002
{
1000
PSFILL
1000
Grayscale
1000
Grayscale
1070
   100
1002
}
  0
LINE
  5
41D3
  8
YODOROGO
 10
27801.604341291921
 20
1914.7865807937051
 30
0.0
 11
27801.604341291921
 21
1939.749496429288
 31
0.0
1001
AUTOCAD_POSTSCRIPT_FIGURE
1002
{
1000
PSFILL
1000
Grayscale
1000
Grayscale
1070
   100
1002
}
  0
LINE
  5
41D4
  8
YODOROGO
 10
27777.604341291921
 20
1859.776747951671
 30
0.0
 11
27801.604341291921
 21
1914.7865807937051
 31
0.0
1001
AUTOCAD_POSTSCRIPT_FIGURE
1002
{
1000
PSFILL
1000
Grayscale
1000
Grayscale
1070
   100
1002
}
  0
LINE
  5
41D5
  8
YODOROGO
 10
27777.604341291921
 20
1843.776747951672
 30
0.0
 11
27777.604341291921
 21
1859.776747951671
 31
0.0
1001
AUTOCAD_POSTSCRIPT_FIGURE
1002
{
1000
PSFILL
1000
Grayscale
1000
Grayscale
1070
   100
1002
}
  0
LINE
  5
41D6
  8
YODOROGO
 10
28257.604341291921
 20
1867.7494964292871
 30
0.0
 11
28401.60434129191
 21
1824.877625640306
 31
0.0
1001
AUTOCAD_POSTSCRIPT_FIGURE
1002
{
1000
PSFILL
1000
Grayscale
1000
Grayscale
1070
   100
1002
}
  0
LINE
  5
41D7
  8
YODOROGO
 10
28401.60434129191
 20
1752.877625640306
 30
0.0
 11
28257.604341291921
 21
1795.7494964292871
 31
0.0
1001
AUTOCAD_POSTSCRIPT_FIGURE
1002
{
1000
PSFILL
1000
Grayscale
1000
Grayscale
1070
   100
1002
}
  0
LINE
  5
41D8
  8
YODOROGO
 10
28401.60434129191
 20
1984.877625640306
 30
0.0
 11
28257.604341291921
 21
2027.749496429288
 31
0.0
1001
AUTOCAD_POSTSCRIPT_FIGURE
1002
{
1000
PSFILL
1000
Grayscale
1000
Grayscale
1070
   100
1002
}
  0
LINE
  5
41D9
  8
YODOROGO
 10
28257.604341291921
 20
1959.749496429288
 30
0.0
 11
28401.60434129191
 21
1916.8776256403071
 31
0.0
1001
AUTOCAD_POSTSCRIPT_FIGURE
1002
{
1000
PSFILL
1000
Grayscale
1000
Grayscale
1070
   100
1002
}
  0
LINE
  5
41DA
  8
YODOROGO
 10
28257.604341291921
 20
1795.7494964292871
 30
0.0
 11
28257.604341291921
 21
1867.7494964292871
 31
0.0
1001
AUTOCAD_POSTSCRIPT_FIGURE
1002
{
1000
PSFILL
1000
Grayscale
1000
Grayscale
1070
   100
1002
}
  0
LINE
  5
41DB
  8
YODOROGO
 10
28257.604341291921
 20
2027.749496429288
 30
0.0
 11
28257.604341291921
 21
1959.749496429288
 31
0.0
1001
AUTOCAD_POSTSCRIPT_FIGURE
1002
{
1000
PSFILL
1000
Grayscale
1000
Grayscale
1070
   100
1002
}
  0
LINE
  5
41DC
  8
YODOROGO
 10
28080.236320206739
 20
1939.749496429288
 30
0.0
 11
28129.60434129191
 21
1747.749496429286
 31
0.0
1001
AUTOCAD_POSTSCRIPT_FIGURE
1002
{
1000
PSFILL
1000
Grayscale
1000
Grayscale
1070
   100
1002
}
  0
LINE
  5
41DD
  8
YODOROGO
 10
27977.604341291921
 20
1939.749496429288
 30
0.0
 11
28080.236320206739
 21
1939.749496429288
 31
0.0
1001
AUTOCAD_POSTSCRIPT_FIGURE
1002
{
1000
PSFILL
1000
Grayscale
1000
Grayscale
1070
   100
1002
}
  0
LINE
  5
41DE
  8
YODOROGO
 10
27977.604341291921
 20
1955.7494964292871
 30
0.0
 11
27977.604341291921
 21
1939.749496429288
 31
0.0
1001
AUTOCAD_POSTSCRIPT_FIGURE
1002
{
1000
PSFILL
1000
Grayscale
1000
Grayscale
1070
   100
1002
}
  0
LINE
  5
41DF
  8
YODOROGO
 10
28076.60687851991
 20
1955.7494964292871
 30
0.0
 11
27977.604341291921
 21
1955.7494964292871
 31
0.0
1001
AUTOCAD_POSTSCRIPT_FIGURE
1002
{
1000
PSFILL
1000
Grayscale
1000
Grayscale
1070
   100
1002
}
  0
LINE
  5
41E0
  8
YODOROGO
 10
28071.162715989711
 20
1979.749496429288
 30
0.0
 11
28076.60687851991
 21
1955.7494964292871
 31
0.0
1001
AUTOCAD_POSTSCRIPT_FIGURE
1002
{
1000
PSFILL
1000
Grayscale
1000
Grayscale
1070
   100
1002
}
  0
LINE
  5
41E1
  8
YODOROGO
 10
28091.162715989711
 20
1979.749496429288
 30
0.0
 11
28071.162715989711
 21
1979.749496429288
 31
0.0
1001
AUTOCAD_POSTSCRIPT_FIGURE
1002
{
1000
PSFILL
1000
Grayscale
1000
Grayscale
1070
   100
1002
}
  0
LINE
  5
41E2
  8
YODOROGO
 10
28095.806878519939
 20
1955.7494964292871
 30
0.0
 11
28091.162715989711
 21
1979.749496429288
 31
0.0
1001
AUTOCAD_POSTSCRIPT_FIGURE
1002
{
1000
PSFILL
1000
Grayscale
1000
Grayscale
1070
   100
1002
}
  0
LINE
  5
41E3
  8
YODOROGO
 10
28121.604341291921
 20
1955.7494964292871
 30
0.0
 11
28095.806878519939
 21
1955.7494964292871
 31
0.0
1001
AUTOCAD_POSTSCRIPT_FIGURE
1002
{
1000
PSFILL
1000
Grayscale
1000
Grayscale
1070
   100
1002
}
  0
LINE
  5
41E4
  8
YODOROGO
 10
28121.604341291921
 20
1979.749496429288
 30
0.0
 11
28121.604341291921
 21
1955.7494964292871
 31
0.0
1001
AUTOCAD_POSTSCRIPT_FIGURE
1002
{
1000
PSFILL
1000
Grayscale
1000
Grayscale
1070
   100
1002
}
  0
LINE
  5
41E5
  8
YODOROGO
 10
28137.604341291921
 20
1979.749496429288
 30
0.0
 11
28121.604341291921
 21
1979.749496429288
 31
0.0
1001
AUTOCAD_POSTSCRIPT_FIGURE
1002
{
1000
PSFILL
1000
Grayscale
1000
Grayscale
1070
   100
1002
}
  0
LINE
  5
41E6
  8
YODOROGO
 10
28137.604341291921
 20
1955.7494964292871
 30
0.0
 11
28137.604341291921
 21
1979.749496429288
 31
0.0
1001
AUTOCAD_POSTSCRIPT_FIGURE
1002
{
1000
PSFILL
1000
Grayscale
1000
Grayscale
1070
   100
1002
}
  0
LINE
  5
41E7
  8
YODOROGO
 10
28137.604341291921
 20
1939.749496429288
 30
0.0
 11
28137.604341291921
 21
1955.7494964292871
 31
0.0
1001
AUTOCAD_POSTSCRIPT_FIGURE
1002
{
1000
PSFILL
1000
Grayscale
1000
Grayscale
1070
   100
1002
}
  0
LINE
  5
41E8
  8
YODOROGO
 10
28098.902986873411
 20
1939.749496429288
 30
0.0
 11
28137.604341291921
 21
1939.749496429288
 31
0.0
1001
AUTOCAD_POSTSCRIPT_FIGURE
1002
{
1000
PSFILL
1000
Grayscale
1000
Grayscale
1070
   100
1002
}
  0
LINE
  5
41E9
  8
YODOROGO
 10
28137.604341291921
 20
1747.749496429286
 30
0.0
 11
28098.902986873411
 21
1939.749496429288
 31
0.0
1001
AUTOCAD_POSTSCRIPT_FIGURE
1002
{
1000
PSFILL
1000
Grayscale
1000
Grayscale
1070
   100
1002
}
  0
LINE
  5
41EA
  8
YODOROGO
 10
28129.60434129191
 20
1747.749496429286
 30
0.0
 11
28137.604341291921
 21
1747.749496429286
 31
0.0
1001
AUTOCAD_POSTSCRIPT_FIGURE
1002
{
1000
PSFILL
1000
Grayscale
1000
Grayscale
1070
   100
1002
}
  0
LINE
  5
41EB
  8
YODOROGO
 10
28078.06921993379
 20
1775.7407762987939
 30
0.0
 11
27977.604341291921
 21
1747.749496429286
 31
0.0
  0
LINE
  5
41EC
  8
YODOROGO
 10
28078.06921993379
 20
1798.6689795290731
 30
0.0
 11
28078.06921993379
 21
1775.7407762987939
 31
0.0
  0
LINE
  5
41ED
  8
YODOROGO
 10
28033.83678061287
 20
1786.816933133767
 30
0.0
 11
28078.06921993379
 21
1798.6689795290731
 31
0.0
  0
LINE
  5
41EE
  8
YODOROGO
 10
28033.83678061287
 20
1872.5683489362989
 30
0.0
 11
28033.83678061287
 21
1786.816933133767
 31
0.0
  0
LINE
  5
41EF
  8
YODOROGO
 10
28078.06921993379
 20
1872.5683489362989
 30
0.0
 11
28033.83678061287
 21
1872.5683489362989
 31
0.0
  0
LINE
  5
41F0
  8
YODOROGO
 10
28078.06921993379
 20
1892.568348936298
 30
0.0
 11
28078.06921993379
 21
1872.5683489362989
 31
0.0
  0
LINE
  5
41F1
  8
YODOROGO
 10
27977.604341291921
 20
1892.568348936298
 30
0.0
 11
28078.06921993379
 21
1892.568348936298
 31
0.0
  0
LINE
  5
41F2
  8
YODOROGO
 10
27977.604341291921
 20
1872.5683489362989
 30
0.0
 11
27977.604341291921
 21
1892.568348936298
 31
0.0
  0
LINE
  5
41F3
  8
YODOROGO
 10
28021.836780612852
 20
1872.5683489362989
 30
0.0
 11
27977.604341291921
 21
1872.5683489362989
 31
0.0
  0
LINE
  5
41F4
  8
YODOROGO
 10
28021.836780612852
 20
1784.673339594317
 30
0.0
 11
28021.836780612852
 21
1872.5683489362989
 31
0.0
  0
LINE
  5
41F5
  8
YODOROGO
 10
27977.604341291921
 20
1771.749496429286
 30
0.0
 11
28021.836780612852
 21
1784.673339594317
 31
0.0
  0
LINE
  5
41F6
  8
YODOROGO
 10
27977.604341291921
 20
1747.749496429286
 30
0.0
 11
27977.604341291921
 21
1771.749496429286
 31
0.0
  0
LINE
  5
41F7
  8
YODOROGO
 10
28001.604341291921
 20
1707.749496429288
 30
0.0
 11
28001.604341291921
 21
1683.7494964292871
 31
0.0
  0
LINE
  5
41F8
  8
YODOROGO
 10
28017.604341291921
 20
1707.749496429288
 30
0.0
 11
28001.604341291921
 21
1707.749496429288
 31
0.0
  0
LINE
  5
41F9
  8
YODOROGO
 10
28017.604341291921
 20
1683.7494964292871
 30
0.0
 11
28017.604341291921
 21
1707.749496429288
 31
0.0
  0
LINE
  5
41FA
  8
YODOROGO
 10
28040.913204016892
 20
1683.7494964292871
 30
0.0
 11
28017.604341291921
 21
1683.7494964292871
 31
0.0
  0
LINE
  5
41FB
  8
YODOROGO
 10
28001.604341291921
 20
1683.7494964292871
 30
0.0
 11
27977.604341291921
 21
1683.7494964292871
 31
0.0
  0
LINE
  5
41FC
  8
YODOROGO
 10
28082.135520230921
 20
1707.749496429288
 30
0.0
 11
28098.135520230931
 21
1707.749496429288
 31
0.0
1001
AUTOCAD_POSTSCRIPT_FIGURE
1002
{
1000
PSFILL
1000
Grayscale
1000
Grayscale
1070
   100
1002
}
  0
LINE
  5
41FD
  8
YODOROGO
 10
28401.60434129191
 20
1824.877625640306
 30
0.0
 11
28401.60434129191
 21
1752.877625640306
 31
0.0
1001
AUTOCAD_POSTSCRIPT_FIGURE
1002
{
1000
PSFILL
1000
Grayscale
1000
Grayscale
1070
   100
1002
}
  0
LINE
  5
41FE
  8
YODOROGO
 10
28401.60434129191
 20
1916.8776256403071
 30
0.0
 11
28401.60434129191
 21
1984.877625640306
 31
0.0
1001
AUTOCAD_POSTSCRIPT_FIGURE
1002
{
1000
PSFILL
1000
Grayscale
1000
Grayscale
1070
   100
1002
}
  0
LINE
  5
41FF
  8
YODOROGO
 10
28433.60434129191
 20
1819.7494964292871
 30
0.0
 11
28433.60434129191
 21
1747.74949642929
 31
0.0
  0
LINE
  5
4200
  8
YODOROGO
 10
28497.60434129191
 20
1707.749496429288
 30
0.0
 11
28433.60434129191
 21
1707.749496429288
 31
0.0
  0
LINE
  5
4201
  8
YODOROGO
 10
28433.60434129191
 20
1747.74949642929
 30
0.0
 11
28585.604341291921
 21
1747.74949642929
 31
0.0
  0
LINE
  5
4202
  8
YODOROGO
 10
28497.60434129191
 20
1867.7494964292871
 30
0.0
 11
28433.60434129191
 21
1867.7494964292871
 31
0.0
  0
LINE
  5
4203
  8
YODOROGO
 10
28497.60434129191
 20
1923.7494964292871
 30
0.0
 11
28497.60434129191
 21
1867.7494964292871
 31
0.0
  0
LINE
  5
4204
  8
YODOROGO
 10
28585.604341291921
 20
1987.7494964292871
 30
0.0
 11
28585.604341291921
 21
2027.749496429288
 31
0.0
  0
LINE
  5
4205
  8
YODOROGO
 10
28433.60434129191
 20
1987.7494964292871
 30
0.0
 11
28585.604341291921
 21
1987.7494964292871
 31
0.0
  0
LINE
  5
4206
  8
YODOROGO
 10
28433.60434129191
 20
1867.7494964292871
 30
0.0
 11
28433.60434129191
 21
1987.7494964292871
 31
0.0
  0
LINE
  5
4207
  8
YODOROGO
 10
29001.60434129191
 20
2027.749496429288
 30
0.0
 11
29001.60434129191
 21
1619.749496429288
 31
0.0
  0
LINE
  5
4208
  8
YODOROGO
 10
29073.604341291921
 20
1579.749496429288
 30
0.0
 11
29073.604341291921
 21
2027.749496429288
 31
0.0
  0
LINE
  5
4209
  8
YODOROGO
 10
29261.604341291921
 20
1491.749496429286
 30
0.0
 11
29261.604341291921
 21
2007.749496429288
 31
0.0
  0
LINE
  5
420A
  8
YODOROGO
 10
29197.604341291921
 20
2007.749496429288
 30
0.0
 11
29197.604341291921
 21
1491.749496429286
 31
0.0
  0
LINE
  5
420B
  8
YODOROGO
 10
29385.604341291921
 20
2027.749496429288
 30
0.0
 11
29385.604341291921
 21
1427.749496429288
 31
0.0
  0
LINE
  5
420C
  8
YODOROGO
 10
29457.604341291921
 20
1427.749496429288
 30
0.0
 11
29457.604341291921
 21
2027.749496429288
 31
0.0
  0
LINE
  5
420D
  8
YODOROGO
 10
28657.604341291921
 20
1667.749496429288
 30
0.0
 11
28657.604341291921
 21
1747.74949642929
 31
0.0
  0
LINE
  5
420E
  8
YODOROGO
 10
29885.604341291921
 20
1707.749496429288
 30
0.0
 11
29885.604341291921
 21
1667.749496429288
 31
0.0
  0
LINE
  5
420F
  8
YODOROGO
 10
29885.604341291921
 20
1707.749496429288
 30
0.0
 11
29885.604341291921
 21
1667.749496429288
 31
0.0
  0
ARC
  5
4210
  8
YODOROGO
 10
28906.911576186842
 20
1618.217864442272
 30
0.0
 40
94.705151178741644
 50
274.05244162907098
 51
0.9266642149310712
  0
ARC
  5
4211
  8
YODOROGO
 10
28909.186170719819
 20
1592.61072861044
 30
0.0
 40
164.92042356085511
 50
271.5351210653775
 51
355.52727750585052
  0
LINE
  5
4212
  8
YODOROGO
 10
28913.604341291921
 20
1523.7494964292871
 30
0.0
 11
28913.604341291921
 21
1427.749496429288
 31
0.0
  0
LINE
  5
4213
  8
YODOROGO
 10
28793.60434129191
 20
1667.749496429288
 30
0.0
 11
28657.604341291921
 21
1667.749496429288
 31
0.0
  0
LINE
  5
4214
  8
YODOROGO
 10
28793.60434129191
 20
1603.7494964292871
 30
0.0
 11
28793.60434129191
 21
1667.749496429288
 31
0.0
  0
LINE
  5
4215
  8
YODOROGO
 10
28657.604341291921
 20
1603.7494964292871
 30
0.0
 11
28793.60434129191
 21
1603.7494964292871
 31
0.0
  0
LINE
  5
4216
  8
YODOROGO
 10
28657.604341291921
 20
1523.7494964292871
 30
0.0
 11
28657.604341291921
 21
1603.7494964292871
 31
0.0
  0
LINE
  5
4217
  8
YODOROGO
 10
28793.60434129191
 20
1523.7494964292871
 30
0.0
 11
28657.604341291921
 21
1523.7494964292871
 31
0.0
  0
LINE
  5
4218
  8
YODOROGO
 10
28793.60434129191
 20
1427.749496429288
 30
0.0
 11
28793.60434129191
 21
1523.7494964292871
 31
0.0
  0
LINE
  5
4219
  8
YODOROGO
 10
29197.604341291921
 20
1491.749496429286
 30
0.0
 11
29261.604341291921
 21
1491.749496429286
 31
0.0
  0
LINE
  5
421A
  8
YODOROGO
 10
29385.604341291921
 20
1427.749496429288
 30
0.0
 11
29457.604341291921
 21
1427.749496429288
 31
0.0
  0
LINE
  5
421B
  8
YODOROGO
 10
29737.604341291921
 20
1528.4414521705639
 30
0.0
 11
29737.604341291921
 21
1427.749496429288
 31
0.0
  0
LINE
  5
421C
  8
YODOROGO
 10
29617.604341291921
 20
1427.749496429288
 30
0.0
 11
29737.604341291921
 21
1528.4414521705639
 31
0.0
  0
LINE
  5
421D
  8
YODOROGO
 10
29617.604341291921
 20
1547.749496429288
 30
0.0
 11
29617.604341291921
 21
1427.749496429288
 31
0.0
  0
LINE
  5
421E
  8
YODOROGO
 10
29712.94462869945
 20
1627.749496429288
 30
0.0
 11
29617.604341291921
 21
1547.749496429288
 31
0.0
  0
LINE
  5
421F
  8
YODOROGO
 10
29617.604341291921
 20
1627.749496429288
 30
0.0
 11
29712.94462869945
 21
1627.749496429288
 31
0.0
  0
LINE
  5
4220
  8
YODOROGO
 10
29617.604341291921
 20
1667.749496429288
 30
0.0
 11
29617.604341291921
 21
1627.749496429288
 31
0.0
  0
LINE
  5
4221
  8
YODOROGO
 10
29885.604341291921
 20
1667.749496429288
 30
0.0
 11
29617.604341291921
 21
1667.749496429288
 31
0.0
  0
LINE
  5
4222
  8
YODOROGO
 10
29917.604341291921
 20
1627.749496429288
 30
0.0
 11
29777.604341291921
 21
1627.749496429288
 31
0.0
  0
LINE
  5
4223
  8
YODOROGO
 10
29777.604341291921
 20
1562.0054374176559
 30
0.0
 11
29771.409872985321
 21
1556.807661346234
 31
0.0
  0
LINE
  5
4224
  8
YODOROGO
 10
29777.604341291921
 20
1627.749496429288
 30
0.0
 11
29777.604341291921
 21
1562.0054374176559
 31
0.0
  0
LINE
  5
4225
  8
YODOROGO
 10
29737.604341291921
 20
1528.4414521705639
 30
0.0
 11
29737.604341291921
 21
1427.749496429288
 31
0.0
  0
LINE
  5
4226
  8
YODOROGO
 10
29617.604341291921
 20
1427.749496429288
 30
0.0
 11
29737.604341291921
 21
1528.4414521705639
 31
0.0
  0
LINE
  5
4227
  8
YODOROGO
 10
29617.604341291921
 20
1547.749496429288
 30
0.0
 11
29617.604341291921
 21
1427.749496429288
 31
0.0
  0
LINE
  5
4228
  8
YODOROGO
 10
29712.94462869945
 20
1627.749496429288
 30
0.0
 11
29617.604341291921
 21
1547.749496429288
 31
0.0
  0
LINE
  5
4229
  8
YODOROGO
 10
29617.604341291921
 20
1627.749496429288
 30
0.0
 11
29712.94462869945
 21
1627.749496429288
 31
0.0
  0
LINE
  5
422A
  8
YODOROGO
 10
29617.604341291921
 20
1667.749496429288
 30
0.0
 11
29617.604341291921
 21
1627.749496429288
 31
0.0
  0
LINE
  5
422B
  8
YODOROGO
 10
29885.604341291921
 20
1667.749496429288
 30
0.0
 11
29617.604341291921
 21
1667.749496429288
 31
0.0
  0
LINE
  5
422C
  8
YODOROGO
 10
28793.60434129191
 20
1747.74949642929
 30
0.0
 11
28793.60434129191
 21
1819.7494964292871
 31
0.0
  0
LINE
  5
422D
  8
YODOROGO
 10
28657.604341291921
 20
1747.74949642929
 30
0.0
 11
28793.60434129191
 21
1747.74949642929
 31
0.0
  0
LINE
  5
422E
  8
YODOROGO
 10
28729.604341291921
 20
1867.7494964292871
 30
0.0
 11
28729.604341291921
 21
1923.7494964292871
 31
0.0
  0
LINE
  5
422F
  8
YODOROGO
 10
28793.60434129191
 20
1867.7494964292871
 30
0.0
 11
28729.604341291921
 21
1867.7494964292871
 31
0.0
  0
LINE
  5
4230
  8
YODOROGO
 10
28793.60434129191
 20
1947.749496429288
 30
0.0
 11
28793.60434129191
 21
1867.7494964292871
 31
0.0
  0
ARC
  5
4231
  8
YODOROGO
 10
28753.60434129191
 20
1947.749496429288
 30
0.0
 40
40.0
 50
0.0
 51
90.0
  0
LINE
  5
4232
  8
YODOROGO
 10
28657.604341291921
 20
1987.7494964292871
 30
0.0
 11
28753.60434129191
 21
1987.7494964292871
 31
0.0
  0
LINE
  5
4233
  8
YODOROGO
 10
28657.604341291921
 20
2027.749496429288
 30
0.0
 11
28657.604341291921
 21
1987.7494964292871
 31
0.0
  0
LINE
  5
4234
  8
YODOROGO
 10
29073.604341291921
 20
2027.749496429288
 30
0.0
 11
29001.60434129191
 21
2027.749496429288
 31
0.0
  0
LINE
  5
4235
  8
YODOROGO
 10
29261.604341291921
 20
2007.749496429288
 30
0.0
 11
29197.604341291921
 21
2007.749496429288
 31
0.0
  0
LINE
  5
4236
  8
YODOROGO
 10
29457.604341291921
 20
2027.749496429288
 30
0.0
 11
29385.604341291921
 21
2027.749496429288
 31
0.0
  0
LINE
  5
4237
  8
YODOROGO
 10
29673.604341291921
 20
1707.749496429288
 30
0.0
 11
29673.604341291921
 21
1771.7494964292871
 31
0.0
1001
AUTOCAD_POSTSCRIPT_FIGURE
1002
{
1000
PSFILL
1000
Grayscale
1000
Grayscale
1070
    25
1002
}
  0
LINE
  5
4238
  8
YODOROGO
 10
29617.604341291921
 20
1707.749496429288
 30
0.0
 11
29673.604341291921
 21
1707.749496429288
 31
0.0
1001
AUTOCAD_POSTSCRIPT_FIGURE
1002
{
1000
PSFILL
1000
Grayscale
1000
Grayscale
1070
    25
1002
}
  0
LINE
  5
4239
  8
YODOROGO
 10
29617.604341291921
 20
1819.7494964292871
 30
0.0
 11
29617.604341291921
 21
1707.749496429288
 31
0.0
1001
AUTOCAD_POSTSCRIPT_FIGURE
1002
{
1000
PSFILL
1000
Grayscale
1000
Grayscale
1070
    25
1002
}
  0
LINE
  5
423A
  8
YODOROGO
 10
29765.604341291921
 20
1819.7494964292871
 30
0.0
 11
29617.604341291921
 21
1819.7494964292871
 31
0.0
1001
AUTOCAD_POSTSCRIPT_FIGURE
1002
{
1000
PSFILL
1000
Grayscale
1000
Grayscale
1070
    25
1002
}
  0
LINE
  5
423B
  8
YODOROGO
 10
29765.604341291921
 20
1859.749496429288
 30
0.0
 11
29765.604341291921
 21
1819.7494964292871
 31
0.0
1001
AUTOCAD_POSTSCRIPT_FIGURE
1002
{
1000
PSFILL
1000
Grayscale
1000
Grayscale
1070
    25
1002
}
  0
LINE
  5
423C
  8
YODOROGO
 10
29617.604341291921
 20
1859.749496429288
 30
0.0
 11
29765.604341291921
 21
1859.749496429288
 31
0.0
1001
AUTOCAD_POSTSCRIPT_FIGURE
1002
{
1000
PSFILL
1000
Grayscale
1000
Grayscale
1070
    25
1002
}
  0
LINE
  5
423D
  8
YODOROGO
 10
29617.604341291921
 20
1907.7494964292871
 30
0.0
 11
29617.604341291921
 21
1859.749496429288
 31
0.0
1001
AUTOCAD_POSTSCRIPT_FIGURE
1002
{
1000
PSFILL
1000
Grayscale
1000
Grayscale
1070
    25
1002
}
  0
LINE
  5
423E
  8
YODOROGO
 10
29765.604341291921
 20
1907.7494964292871
 30
0.0
 11
29617.604341291921
 21
1907.7494964292871
 31
0.0
1001
AUTOCAD_POSTSCRIPT_FIGURE
1002
{
1000
PSFILL
1000
Grayscale
1000
Grayscale
1070
    25
1002
}
  0
LINE
  5
423F
  8
YODOROGO
 10
29765.604341291921
 20
1947.749496429288
 30
0.0
 11
29765.604341291921
 21
1907.7494964292871
 31
0.0
1001
AUTOCAD_POSTSCRIPT_FIGURE
1002
{
1000
PSFILL
1000
Grayscale
1000
Grayscale
1070
    25
1002
}
  0
LINE
  5
4240
  8
YODOROGO
 10
29617.604341291921
 20
1947.749496429288
 30
0.0
 11
29765.604341291921
 21
1947.749496429288
 31
0.0
1001
AUTOCAD_POSTSCRIPT_FIGURE
1002
{
1000
PSFILL
1000
Grayscale
1000
Grayscale
1070
    25
1002
}
  0
LINE
  5
4241
  8
YODOROGO
 10
29617.604341291921
 20
2027.749496429288
 30
0.0
 11
29617.604341291921
 21
1947.749496429288
 31
0.0
1001
AUTOCAD_POSTSCRIPT_FIGURE
1002
{
1000
PSFILL
1000
Grayscale
1000
Grayscale
1070
    25
1002
}
  0
LINE
  5
4242
  8
YODOROGO
 10
29665.604341291921
 20
2027.749496429288
 30
0.0
 11
29617.604341291921
 21
2027.749496429288
 31
0.0
1001
AUTOCAD_POSTSCRIPT_FIGURE
1002
{
1000
PSFILL
1000
Grayscale
1000
Grayscale
1070
    25
1002
}
  0
LINE
  5
4243
  8
YODOROGO
 10
29665.604341291921
 20
1995.7494964292871
 30
0.0
 11
29665.604341291921
 21
2027.749496429288
 31
0.0
1001
AUTOCAD_POSTSCRIPT_FIGURE
1002
{
1000
PSFILL
1000
Grayscale
1000
Grayscale
1070
    25
1002
}
  0
LINE
  5
4244
  8
YODOROGO
 10
29765.604341291921
 20
1995.7494964292871
 30
0.0
 11
29665.604341291921
 21
1995.7494964292871
 31
0.0
1001
AUTOCAD_POSTSCRIPT_FIGURE
1002
{
1000
PSFILL
1000
Grayscale
1000
Grayscale
1070
    25
1002
}
  0
LINE
  5
4245
  8
YODOROGO
 10
29765.604341291921
 20
2027.749496429288
 30
0.0
 11
29765.604341291921
 21
1995.7494964292871
 31
0.0
1001
AUTOCAD_POSTSCRIPT_FIGURE
1002
{
1000
PSFILL
1000
Grayscale
1000
Grayscale
1070
    25
1002
}
  0
LINE
  5
4246
  8
YODOROGO
 10
29829.604341291921
 20
2027.749496429288
 30
0.0
 11
29765.604341291921
 21
2027.749496429288
 31
0.0
1001
AUTOCAD_POSTSCRIPT_FIGURE
1002
{
1000
PSFILL
1000
Grayscale
1000
Grayscale
1070
    25
1002
}
  0
LINE
  5
4247
  8
YODOROGO
 10
29829.604341291921
 20
1995.7494964292871
 30
0.0
 11
29829.604341291921
 21
2027.749496429288
 31
0.0
1001
AUTOCAD_POSTSCRIPT_FIGURE
1002
{
1000
PSFILL
1000
Grayscale
1000
Grayscale
1070
    25
1002
}
  0
LINE
  5
4248
  8
YODOROGO
 10
29829.604341291921
 20
1907.7494964292871
 30
0.0
 11
29829.604341291921
 21
1947.749496429288
 31
0.0
1001
AUTOCAD_POSTSCRIPT_FIGURE
1002
{
1000
PSFILL
1000
Grayscale
1000
Grayscale
1070
    25
1002
}
  0
LINE
  5
4249
  8
YODOROGO
 10
29829.604341291921
 20
1819.7494964292871
 30
0.0
 11
29829.604341291921
 21
1859.749496429288
 31
0.0
1001
AUTOCAD_POSTSCRIPT_FIGURE
1002
{
1000
PSFILL
1000
Grayscale
1000
Grayscale
1070
    25
1002
}
  0
LINE
  5
424A
  8
YODOROGO
 10
29921.60434129191
 20
1771.7494964292871
 30
0.0
 11
29921.60434129191
 21
1707.749496429288
 31
0.0
1001
AUTOCAD_POSTSCRIPT_FIGURE
1002
{
1000
PSFILL
1000
Grayscale
1000
Grayscale
1070
    25
1002
}
  0
LINE
  5
424B
  8
YODOROGO
 10
29829.604341291921
 20
1771.7494964292871
 30
0.0
 11
29921.60434129191
 21
1771.7494964292871
 31
0.0
1001
AUTOCAD_POSTSCRIPT_FIGURE
1002
{
1000
PSFILL
1000
Grayscale
1000
Grayscale
1070
    25
1002
}
  0
LINE
  5
424C
  8
YODOROGO
 10
29829.604341291921
 20
1707.749496429288
 30
0.0
 11
29829.604341291921
 21
1771.7494964292871
 31
0.0
1001
AUTOCAD_POSTSCRIPT_FIGURE
1002
{
1000
PSFILL
1000
Grayscale
1000
Grayscale
1070
    25
1002
}
  0
LINE
  5
424D
  8
YODOROGO
 10
29765.604341291921
 20
1707.749496429288
 30
0.0
 11
29829.604341291921
 21
1707.749496429288
 31
0.0
1001
AUTOCAD_POSTSCRIPT_FIGURE
1002
{
1000
PSFILL
1000
Grayscale
1000
Grayscale
1070
    25
1002
}
  0
LINE
  5
424E
  8
YODOROGO
 10
29765.604341291921
 20
1771.7494964292871
 30
0.0
 11
29765.604341291921
 21
1707.749496429288
 31
0.0
1001
AUTOCAD_POSTSCRIPT_FIGURE
1002
{
1000
PSFILL
1000
Grayscale
1000
Grayscale
1070
    25
1002
}
  0
LINE
  5
424F
  8
YODOROGO
 10
29673.604341291921
 20
1771.7494964292871
 30
0.0
 11
29765.604341291921
 21
1771.7494964292871
 31
0.0
1001
AUTOCAD_POSTSCRIPT_FIGURE
1002
{
1000
PSFILL
1000
Grayscale
1000
Grayscale
1070
    25
1002
}
  0
ARC
  5
4250
  8
YODOROGO
 10
31059.517893357912
 20
1602.6807375155761
 30
0.0
 40
178.22128111072141
 50
281.02627495425338
 51
357.77113575573799
  0
LINE
  5
4251
  8
YODOROGO
 10
31413.604341291921
 20
1907.7494964292871
 30
0.0
 11
31165.604341291921
 21
1907.7494964292871
 31
0.0
  0
LINE
  5
4252
  8
YODOROGO
 10
31413.604341291921
 20
2027.749496429288
 30
0.0
 11
31165.604341291921
 21
2027.749496429288
 31
0.0
  0
LINE
  5
4253
  8
YODOROGO
 10
31165.604341291921
 20
1963.749496429286
 30
0.0
 11
31413.604341291921
 21
1963.749496429286
 31
0.0
  0
LINE
  5
4254
  8
YODOROGO
 10
30791.604341291921
 20
1563.7494964292871
 30
0.0
 11
30791.604341291921
 21
1755.7494964292871
 31
0.0
  0
LINE
  5
4255
  8
YODOROGO
 10
30763.604341291921
 20
1691.749496429288
 30
0.0
 11
30763.604341291921
 21
1563.7494964292871
 31
0.0
  0
LINE
  5
4256
  8
YODOROGO
 10
30723.604341291921
 20
1491.749496429288
 30
0.0
 11
30723.604341291921
 21
1691.749496429288
 31
0.0
  0
LINE
  5
4257
  8
YODOROGO
 10
30899.604341291932
 20
1691.749496429288
 30
0.0
 11
30899.604341291932
 21
1491.749496429288
 31
0.0
  0
LINE
  5
4258
  8
YODOROGO
 10
30859.604341291932
 20
1563.7494964292871
 30
0.0
 11
30859.604341291932
 21
1691.749496429288
 31
0.0
  0
LINE
  5
4259
  8
YODOROGO
 10
30831.604341291921
 20
1755.7494964292871
 30
0.0
 11
30831.604341291921
 21
1563.7494964292871
 31
0.0
  0
LINE
  5
425A
  8
YODOROGO
 10
30973.604341291921
 20
2027.749496429288
 30
0.0
 11
30973.604341291921
 21
1467.749496429288
 31
0.0
  0
LINE
  5
425B
  8
YODOROGO
 10
30645.604341291921
 20
1427.749496429288
 30
0.0
 11
30645.604341291921
 21
2027.749496429288
 31
0.0
  0
LINE
  5
425C
  8
YODOROGO
 10
30697.604341291932
 20
1963.749496429286
 30
0.0
 11
30697.604341291932
 21
1427.749496429288
 31
0.0
  0
LINE
  5
425D
  8
YODOROGO
 10
30925.604341291921
 20
1547.749496429288
 30
0.0
 11
30925.604341291921
 21
1963.749496429286
 31
0.0
  0
LINE
  5
425E
  8
YODOROGO
 10
30381.604341291932
 20
1627.749496429288
 30
0.0
 11
30381.604341291932
 21
1679.749496429288
 31
0.0
  0
LINE
  5
425F
  8
YODOROGO
 10
30617.604341291921
 20
1679.749496429288
 30
0.0
 11
30617.604341291921
 21
1627.749496429288
 31
0.0
  0
LINE
  5
4260
  8
YODOROGO
 10
31165.604341291921
 20
1907.7494964292871
 30
0.0
 11
31165.604341291921
 21
1635.7494964292871
 31
0.0
  0
LINE
  5
4261
  8
YODOROGO
 10
29949.60434129191
 20
1667.749496429288
 30
0.0
 11
29949.60434129191
 21
1707.749496429288
 31
0.0
  0
LINE
  5
4262
  8
YODOROGO
 10
29949.60434129191
 20
1667.749496429288
 30
0.0
 11
29949.60434129191
 21
1707.749496429288
 31
0.0
  0
ARC
  5
4263
  8
YODOROGO
 10
30537.604341291921
 20
1507.749496429288
 30
0.0
 40
80.0
 50
270.0
 51
0.0
  0
LINE
  5
4264
  8
YODOROGO
 10
30569.604341291921
 20
1599.7494964292871
 30
0.0
 11
30617.604341291921
 21
1599.7494964292871
 31
0.0
  0
LINE
  5
4265
  8
YODOROGO
 10
30617.604341291921
 20
1627.749496429288
 30
0.0
 11
30529.604341291939
 21
1627.749496429288
 31
0.0
  0
LINE
  5
4266
  8
YODOROGO
 10
30217.604341291921
 20
1667.749496429288
 30
0.0
 11
29949.60434129191
 21
1667.749496429288
 31
0.0
  0
LINE
  5
4267
  8
YODOROGO
 10
30217.604341291921
 20
1627.749496429288
 30
0.0
 11
30217.604341291921
 21
1667.749496429288
 31
0.0
  0
LINE
  5
4268
  8
YODOROGO
 10
30017.604341291921
 20
1627.749496429288
 30
0.0
 11
30217.604341291921
 21
1627.749496429288
 31
0.0
  0
ARC
  5
4269
  8
YODOROGO
 10
30230.05882870136
 20
1868.885714952901
 30
0.0
 40
321.37763628522822
 50
228.6181454618993
 51
245.660289248906
  0
LINE
  5
426A
  8
YODOROGO
 10
30105.604341291921
 20
1603.7494964292871
 30
0.0
 11
30097.60434129195
 21
1576.0728158699001
 31
0.0
  0
LINE
  5
426B
  8
YODOROGO
 10
30189.604341291921
 20
1603.7494964292871
 30
0.0
 11
30105.604341291921
 21
1603.7494964292871
 31
0.0
  0
LINE
  5
426C
  8
YODOROGO
 10
30177.604341291921
 20
1551.817722473427
 30
0.0
 11
30189.604341291921
 21
1603.7494964292871
 31
0.0
  0
ARC
  5
426D
  8
YODOROGO
 10
30230.05882870045
 20
1868.885714953002
 30
0.0
 40
321.37763628529081
 50
260.60629297969911
 51
267.77903556555862
  0
LINE
  5
426E
  8
YODOROGO
 10
30217.604341291921
 20
1427.749496429285
 30
0.0
 11
30217.604341291921
 21
1547.749496429288
 31
0.0
  0
LINE
  5
426F
  8
YODOROGO
 10
29937.604341291932
 20
1481.3393349155101
 30
0.0
 11
29937.604341291921
 21
1594.531090531141
 31
0.0
  0
LINE
  5
4270
  8
YODOROGO
 10
30217.604341291921
 20
1667.749496429288
 30
0.0
 11
29949.60434129191
 21
1667.749496429288
 31
0.0
  0
LINE
  5
4271
  8
YODOROGO
 10
30217.604341291921
 20
1627.749496429288
 30
0.0
 11
30217.604341291921
 21
1667.749496429288
 31
0.0
  0
LINE
  5
4272
  8
YODOROGO
 10
30017.604341291921
 20
1627.749496429288
 30
0.0
 11
30217.604341291921
 21
1627.749496429288
 31
0.0
  0
ARC
  5
4273
  8
YODOROGO
 10
30230.05882870136
 20
1868.885714952901
 30
0.0
 40
321.37763628522822
 50
228.6181454618993
 51
245.660289248906
  0
LINE
  5
4274
  8
YODOROGO
 10
30105.604341291921
 20
1603.7494964292871
 30
0.0
 11
30097.60434129195
 21
1576.0728158699001
 31
0.0
  0
LINE
  5
4275
  8
YODOROGO
 10
30189.604341291921
 20
1603.7494964292871
 30
0.0
 11
30105.604341291921
 21
1603.7494964292871
 31
0.0
  0
LINE
  5
4276
  8
YODOROGO
 10
30177.604341291921
 20
1551.817722473427
 30
0.0
 11
30189.604341291921
 21
1603.7494964292871
 31
0.0
  0
ARC
  5
4277
  8
YODOROGO
 10
30230.05882870045
 20
1868.885714953002
 30
0.0
 40
321.37763628529081
 50
260.60629297969911
 51
267.77903556555862
  0
LINE
  5
4278
  8
YODOROGO
 10
30217.604341291921
 20
1427.749496429285
 30
0.0
 11
30217.604341291921
 21
1547.749496429288
 31
0.0
  0
LINE
  5
4279
  8
YODOROGO
 10
29937.604341291932
 20
1481.3393349155101
 30
0.0
 11
29937.604341291921
 21
1594.531090531141
 31
0.0
  0
LINE
  5
427A
  8
YODOROGO
 10
30433.604341291921
 20
1573.749496429288
 30
0.0
 11
30381.604341291932
 21
1573.749496429288
 31
0.0
  0
LINE
  5
427B
  8
YODOROGO
 10
30433.604341291921
 20
1601.749496429285
 30
0.0
 11
30433.604341291921
 21
1573.749496429288
 31
0.0
  0
LINE
  5
427C
  8
YODOROGO
 10
30381.604341291932
 20
1601.749496429285
 30
0.0
 11
30433.604341291921
 21
1601.749496429285
 31
0.0
  0
LINE
  5
427D
  8
YODOROGO
 10
30381.604341291932
 20
1573.749496429288
 30
0.0
 11
30381.604341291932
 21
1601.749496429285
 31
0.0
  0
LINE
  5
427E
  8
YODOROGO
 10
30429.604341291921
 20
1577.7494964292871
 30
0.0
 11
30385.604341291921
 21
1577.7494964292871
 31
0.0
  0
LINE
  5
427F
  8
YODOROGO
 10
30429.604341291921
 20
1597.749496429288
 30
0.0
 11
30429.604341291921
 21
1577.7494964292871
 31
0.0
  0
LINE
  5
4280
  8
YODOROGO
 10
30385.604341291921
 20
1597.749496429288
 30
0.0
 11
30429.604341291921
 21
1597.749496429288
 31
0.0
  0
LINE
  5
4281
  8
YODOROGO
 10
30385.604341291921
 20
1577.7494964292871
 30
0.0
 11
30385.604341291921
 21
1597.749496429288
 31
0.0
  0
LINE
  5
4282
  8
YODOROGO
 10
30425.604341291921
 20
1581.749496429286
 30
0.0
 11
30389.604341291921
 21
1581.749496429286
 31
0.0
  0
LINE
  5
4283
  8
YODOROGO
 10
30425.604341291921
 20
1593.749496429288
 30
0.0
 11
30425.604341291921
 21
1581.749496429286
 31
0.0
  0
LINE
  5
4284
  8
YODOROGO
 10
30389.604341291921
 20
1593.749496429288
 30
0.0
 11
30425.604341291921
 21
1593.749496429288
 31
0.0
  0
LINE
  5
4285
  8
YODOROGO
 10
30389.604341291921
 20
1581.749496429286
 30
0.0
 11
30389.604341291921
 21
1593.749496429288
 31
0.0
  0
LINE
  5
4286
  8
YODOROGO
 10
30421.604341291932
 20
1585.7494964292871
 30
0.0
 11
30393.604341291921
 21
1585.7494964292871
 31
0.0
  0
LINE
  5
4287
  8
YODOROGO
 10
30421.604341291932
 20
1589.749496429288
 30
0.0
 11
30421.604341291932
 21
1585.7494964292871
 31
0.0
  0
LINE
  5
4288
  8
YODOROGO
 10
30393.604341291921
 20
1589.749496429288
 30
0.0
 11
30421.604341291932
 21
1589.749496429288
 31
0.0
  0
LINE
  5
4289
  8
YODOROGO
 10
30393.604341291921
 20
1585.7494964292871
 30
0.0
 11
30393.604341291921
 21
1589.749496429288
 31
0.0
  0
LINE
  5
428A
  8
YODOROGO
 10
30465.604341291921
 20
1627.749496429288
 30
0.0
 11
30381.604341291932
 21
1627.749496429288
 31
0.0
  0
LINE
  5
428B
  8
YODOROGO
 10
30465.604341291921
 20
1547.749496429288
 30
0.0
 11
30465.604341291921
 21
1627.749496429288
 31
0.0
  0
LINE
  5
428C
  8
YODOROGO
 10
30381.604341291932
 20
1547.749496429288
 30
0.0
 11
30465.604341291921
 21
1547.749496429288
 31
0.0
  0
LINE
  5
428D
  8
YODOROGO
 10
30381.604341291932
 20
1427.749496429288
 30
0.0
 11
30381.604341291932
 21
1547.749496429288
 31
0.0
  0
LINE
  5
428E
  8
YODOROGO
 10
30537.604341291921
 20
1427.749496429288
 30
0.0
 11
30381.604341291932
 21
1427.749496429288
 31
0.0
  0
LINE
  5
428F
  8
YODOROGO
 10
30569.604341291921
 20
1571.749496429285
 30
0.0
 11
30569.604341291921
 21
1599.7494964292871
 31
0.0
  0
ARC
  5
4290
  8
YODOROGO
 10
30545.604341291921
 20
1571.749496429291
 30
0.0
 40
24.000000000003752
 50
270.0
 51
359.99999999998772
  0
LINE
  5
4291
  8
YODOROGO
 10
30529.604341291939
 20
1547.749496429288
 30
0.0
 11
30545.604341291921
 21
1547.749496429288
 31
0.0
  0
LINE
  5
4292
  8
YODOROGO
 10
30529.604341291939
 20
1627.749496429288
 30
0.0
 11
30529.604341291939
 21
1547.749496429288
 31
0.0
  0
LINE
  5
4293
  8
YODOROGO
 10
30899.604341291932
 20
1547.749496429288
 30
0.0
 11
30925.604341291921
 21
1547.749496429288
 31
0.0
  0
LINE
  5
4294
  8
YODOROGO
 10
30933.604341291921
 20
1427.749496429288
 30
0.0
 11
30899.604341291932
 21
1427.749496429288
 31
0.0
  0
LINE
  5
4295
  8
YODOROGO
 10
30763.604341291921
 20
1563.7494964292871
 30
0.0
 11
30791.604341291921
 21
1563.7494964292871
 31
0.0
  0
LINE
  5
4296
  8
YODOROGO
 10
30899.604341291932
 20
1491.749496429288
 30
0.0
 11
30723.604341291921
 21
1491.749496429288
 31
0.0
  0
LINE
  5
4297
  8
YODOROGO
 10
30831.604341291921
 20
1563.7494964292871
 30
0.0
 11
30859.604341291932
 21
1563.7494964292871
 31
0.0
  0
LINE
  5
4298
  8
YODOROGO
 10
30899.604341291932
 20
1427.749496429288
 30
0.0
 11
30899.604341291932
 21
1547.749496429288
 31
0.0
  0
LINE
  5
4299
  8
YODOROGO
 10
30697.604341291932
 20
1427.749496429288
 30
0.0
 11
30645.604341291921
 21
1427.749496429288
 31
0.0
  0
LINE
  5
429A
  8
YODOROGO
 10
30617.604341291921
 20
1599.7494964292871
 30
0.0
 11
30617.604341291921
 21
1507.749496429288
 31
0.0
  0
ARC
  5
429B
  8
YODOROGO
 10
30933.604341291921
 20
1467.749496429288
 30
0.0
 40
40.0
 50
270.0
 51
0.0
  0
LINE
  5
429C
  8
YODOROGO
 10
31093.604341291921
 20
1523.7494964292871
 30
0.0
 11
31093.604341291921
 21
1427.749496429288
 31
0.0
  0
ARC
  5
429D
  8
YODOROGO
 10
31039.721395566768
 20
1637.5313901097329
 30
0.0
 40
125.8955565916754
 50
295.34052442160112
 51
359.18902303418679
  0
LINE
  5
429E
  8
YODOROGO
 10
30617.604341291921
 20
1859.749496429288
 30
0.0
 11
30497.604341291921
 21
1939.749496429288
 31
0.0
  0
LINE
  5
429F
  8
YODOROGO
 10
30497.604341291921
 20
2027.749496429288
 30
0.0
 11
30617.604341291921
 21
1947.749496429288
 31
0.0
  0
LINE
  5
42A0
  8
YODOROGO
 10
30529.604341291939
 20
1679.749496429288
 30
0.0
 11
30617.604341291921
 21
1679.749496429288
 31
0.0
  0
LINE
  5
42A1
  8
YODOROGO
 10
30617.604341291921
 20
1735.7494964292871
 30
0.0
 11
30529.604341291939
 21
1735.7494964292871
 31
0.0
  0
LINE
  5
42A2
  8
YODOROGO
 10
30381.604341291932
 20
1795.7494964292871
 30
0.0
 11
30617.604341291921
 21
1795.7494964292871
 31
0.0
  0
LINE
  5
42A3
  8
YODOROGO
 10
30081.604341291921
 20
2027.749496429288
 30
0.0
 11
30021.604341291921
 21
2027.749496429288
 31
0.0
  0
LINE
  5
42A4
  8
YODOROGO
 10
30081.604341291921
 20
1827.7494964292871
 30
0.0
 11
30081.604341291921
 21
2027.749496429288
 31
0.0
  0
LINE
  5
42A5
  8
YODOROGO
 10
30021.604341291921
 20
1827.7494964292871
 30
0.0
 11
30081.604341291921
 21
1827.7494964292871
 31
0.0
  0
LINE
  5
42A6
  8
YODOROGO
 10
30021.604341291921
 20
2027.749496429288
 30
0.0
 11
30021.604341291921
 21
1827.7494964292871
 31
0.0
  0
LINE
  5
42A7
  8
YODOROGO
 10
30161.604341291921
 20
2027.749496429288
 30
0.0
 11
30217.604341291921
 21
2027.749496429288
 31
0.0
  0
LINE
  5
42A8
  8
YODOROGO
 10
30161.604341291921
 20
1811.749496429288
 30
0.0
 11
30161.604341291921
 21
2027.749496429288
 31
0.0
  0
ARC
  5
42A9
  8
YODOROGO
 10
30121.604341291921
 20
1811.749496429288
 30
0.0
 40
40.0
 50
270.0
 51
0.0
  0
LINE
  5
42AA
  8
YODOROGO
 10
30021.604341291921
 20
1771.7494964292871
 30
0.0
 11
30121.604341291921
 21
1771.7494964292871
 31
0.0
  0
LINE
  5
42AB
  8
YODOROGO
 10
30021.604341291921
 20
1707.749496429288
 30
0.0
 11
30021.604341291921
 21
1771.7494964292871
 31
0.0
  0
LINE
  5
42AC
  8
YODOROGO
 10
30137.604341291921
 20
1707.749496429288
 30
0.0
 11
30021.604341291921
 21
1707.749496429288
 31
0.0
  0
ARC
  5
42AD
  8
YODOROGO
 10
30137.604341291921
 20
1787.7494964292871
 30
0.0
 40
80.0
 50
270.0
 51
0.0
  0
LINE
  5
42AE
  8
YODOROGO
 10
30217.604341291921
 20
2027.749496429288
 30
0.0
 11
30217.604341291921
 21
1787.7494964292871
 31
0.0
  0
LINE
  5
42AF
  8
YODOROGO
 10
29977.604341291921
 20
1947.749496429288
 30
0.0
 11
29977.604341291921
 21
1995.7494964292871
 31
0.0
1001
AUTOCAD_POSTSCRIPT_FIGURE
1002
{
1000
PSFILL
1000
Grayscale
1000
Grayscale
1070
    25
1002
}
  0
LINE
  5
42B0
  8
YODOROGO
 10
29977.604341291921
 20
1859.749496429288
 30
0.0
 11
29977.604341291921
 21
1907.7494964292871
 31
0.0
1001
AUTOCAD_POSTSCRIPT_FIGURE
1002
{
1000
PSFILL
1000
Grayscale
1000
Grayscale
1070
    25
1002
}
  0
LINE
  5
42B1
  8
YODOROGO
 10
29977.604341291921
 20
1707.749496429288
 30
0.0
 11
29977.604341291921
 21
1819.7494964292871
 31
0.0
1001
AUTOCAD_POSTSCRIPT_FIGURE
1002
{
1000
PSFILL
1000
Grayscale
1000
Grayscale
1070
    25
1002
}
  0
LINE
  5
42B2
  8
YODOROGO
 10
30381.604341291932
 20
1907.7494964292871
 30
0.0
 11
30497.604341291921
 21
2027.749496429288
 31
0.0
  0
LINE
  5
42B3
  8
YODOROGO
 10
30381.604341291932
 20
1819.7494964292871
 30
0.0
 11
30381.604341291932
 21
1907.7494964292871
 31
0.0
  0
LINE
  5
42B4
  8
YODOROGO
 10
30497.604341291921
 20
1939.749496429288
 30
0.0
 11
30381.604341291932
 21
1819.7494964292871
 31
0.0
  0
LINE
  5
42B5
  8
YODOROGO
 10
30465.604341291921
 20
1679.749496429288
 30
0.0
 11
30465.604341291921
 21
1735.7494964292871
 31
0.0
  0
LINE
  5
42B6
  8
YODOROGO
 10
30381.604341291932
 20
1679.749496429288
 30
0.0
 11
30465.604341291921
 21
1679.749496429288
 31
0.0
  0
LINE
  5
42B7
  8
YODOROGO
 10
30529.604341291939
 20
1735.7494964292871
 30
0.0
 11
30529.604341291939
 21
1679.749496429288
 31
0.0
  0
LINE
  5
42B8
  8
YODOROGO
 10
30381.604341291932
 20
1735.7494964292871
 30
0.0
 11
30381.604341291932
 21
1795.7494964292871
 31
0.0
  0
LINE
  5
42B9
  8
YODOROGO
 10
30465.604341291921
 20
1735.7494964292871
 30
0.0
 11
30381.604341291932
 21
1735.7494964292871
 31
0.0
  0
LINE
  5
42BA
  8
YODOROGO
 10
30645.604341291921
 20
2027.749496429288
 30
0.0
 11
30973.604341291921
 21
2027.749496429288
 31
0.0
  0
LINE
  5
42BB
  8
YODOROGO
 10
30925.604341291921
 20
1963.749496429286
 30
0.0
 11
30697.604341291932
 21
1963.749496429286
 31
0.0
  0
LINE
  5
42BC
  8
YODOROGO
 10
30873.604341291921
 20
1819.7494964292871
 30
0.0
 11
30899.604341291932
 21
1819.7494964292871
 31
0.0
  0
LINE
  5
42BD
  8
YODOROGO
 10
30899.604341291932
 20
1939.749496429288
 30
0.0
 11
30873.604341291921
 21
1819.7494964292871
 31
0.0
  0
LINE
  5
42BE
  8
YODOROGO
 10
30851.604341291939
 20
1939.749496429288
 30
0.0
 11
30899.604341291932
 21
1939.749496429288
 31
0.0
  0
LINE
  5
42BF
  8
YODOROGO
 10
30825.604341291921
 20
1819.7494964292871
 30
0.0
 11
30851.604341291939
 21
1939.749496429288
 31
0.0
  0
LINE
  5
42C0
  8
YODOROGO
 10
30797.604341291921
 20
1819.7494964292871
 30
0.0
 11
30825.604341291921
 21
1819.7494964292871
 31
0.0
  0
LINE
  5
42C1
  8
YODOROGO
 10
30771.604341291939
 20
1939.749496429288
 30
0.0
 11
30797.604341291921
 21
1819.7494964292871
 31
0.0
  0
LINE
  5
42C2
  8
YODOROGO
 10
30723.604341291921
 20
1939.749496429288
 30
0.0
 11
30771.604341291939
 21
1939.749496429288
 31
0.0
  0
LINE
  5
42C3
  8
YODOROGO
 10
30749.604341291921
 20
1819.7494964292871
 30
0.0
 11
30723.604341291921
 21
1939.749496429288
 31
0.0
  0
LINE
  5
42C4
  8
YODOROGO
 10
30723.604341291921
 20
1819.7494964292871
 30
0.0
 11
30749.604341291921
 21
1819.7494964292871
 31
0.0
  0
LINE
  5
42C5
  8
YODOROGO
 10
30723.604341291921
 20
1755.7494964292871
 30
0.0
 11
30723.604341291921
 21
1819.7494964292871
 31
0.0
  0
LINE
  5
42C6
  8
YODOROGO
 10
30899.604341291932
 20
1755.7494964292871
 30
0.0
 11
30723.604341291921
 21
1755.7494964292871
 31
0.0
  0
LINE
  5
42C7
  8
YODOROGO
 10
30899.604341291932
 20
1819.7494964292871
 30
0.0
 11
30899.604341291932
 21
1755.7494964292871
 31
0.0
  0
LINE
  5
42C8
  8
YODOROGO
 10
30617.604341291921
 20
1947.749496429288
 30
0.0
 11
30617.604341291921
 21
1859.749496429288
 31
0.0
  0
LINE
  5
42C9
  8
YODOROGO
 10
30791.604341291921
 20
1755.7494964292871
 30
0.0
 11
30831.604341291921
 21
1755.7494964292871
 31
0.0
  0
LINE
  5
42CA
  8
YODOROGO
 10
30723.604341291921
 20
1691.749496429288
 30
0.0
 11
30763.604341291921
 21
1691.749496429288
 31
0.0
  0
LINE
  5
42CB
  8
YODOROGO
 10
30859.604341291932
 20
1691.749496429288
 30
0.0
 11
30899.604341291932
 21
1691.749496429288
 31
0.0
  0
LINE
  5
42CC
  8
YODOROGO
 10
30617.604341291921
 20
1795.7494964292871
 30
0.0
 11
30617.604341291921
 21
1735.7494964292871
 31
0.0
  0
LINE
  5
42CD
  8
YODOROGO
 10
31165.604341291921
 20
2027.749496429288
 30
0.0
 11
31165.604341291921
 21
1963.749496429286
 31
0.0
  0
LINE
  5
42CE
  8
YODOROGO
 10
31533.604341291921
 20
1595.7494964292871
 30
0.0
 11
31533.60434129191
 21
1811.749496429288
 31
0.0
  0
LINE
  5
42CF
  8
YODOROGO
 10
31461.60434129191
 20
1987.7494964292871
 30
0.0
 11
31461.60434129191
 21
1635.7494964292871
 31
0.0
  0
LINE
  5
42D0
  8
YODOROGO
 10
31653.604341291921
 20
1427.749496429288
 30
0.0
 11
31653.60434129191
 21
1811.749496429288
 31
0.0
  0
LINE
  5
42D1
  8
YODOROGO
 10
31589.604341291921
 20
1811.749496429288
 30
0.0
 11
31589.604341291921
 21
1427.749496429288
 31
0.0
  0
LINE
  5
42D2
  8
YODOROGO
 10
31237.604341291921
 20
1595.7494964292871
 30
0.0
 11
31237.604341291921
 21
1707.749496429288
 31
0.0
  0
ARC
  5
42D3
  8
YODOROGO
 10
31353.914865116069
 20
1607.790351288558
 30
0.0
 40
180.0924485759885
 50
268.62849102169793
 51
356.16638457330322
  0
LINE
  5
42D4
  8
YODOROGO
 10
31349.604341291939
 20
1527.749496429288
 30
0.0
 11
31349.604341291939
 21
1427.749496429288
 31
0.0
  0
ARC
  5
42D5
  8
YODOROGO
 10
31351.518075724562
 20
1637.838957017655
 30
0.0
 40
110.1060929836122
 50
269.00410209305932
 51
358.91264455492478
  0
LINE
  5
42D6
  8
YODOROGO
 10
31589.604341291921
 20
1427.749496429288
 30
0.0
 11
31653.604341291921
 21
1427.749496429288
 31
0.0
  0
LINE
  5
42D7
  8
YODOROGO
 10
31533.60434129191
 20
1811.749496429288
 30
0.0
 11
31589.604341291921
 21
1811.749496429288
 31
0.0
  0
LINE
  5
42D8
  8
YODOROGO
 10
31621.604341291939
 20
1987.7494964292871
 30
0.0
 11
31461.60434129191
 21
1987.7494964292871
 31
0.0
  0
LINE
  5
42D9
  8
YODOROGO
 10
31533.60434129191
 20
1915.7494964292871
 30
0.0
 11
31661.604341291939
 21
1915.7494964292871
 31
0.0
  0
LINE
  5
42DA
  8
YODOROGO
 10
31701.604341291939
 20
1875.7494964292871
 30
0.0
 11
31533.60434129191
 21
1875.7494964292871
 31
0.0
  0
LINE
  5
42DB
  8
YODOROGO
 10
31237.604341291921
 20
1779.749496429288
 30
0.0
 11
31349.604341291939
 21
1779.749496429288
 31
0.0
  0
LINE
  5
42DC
  8
YODOROGO
 10
31237.604341291921
 20
1835.7494964292871
 30
0.0
 11
31237.604341291921
 21
1779.749496429288
 31
0.0
  0
LINE
  5
42DD
  8
YODOROGO
 10
31349.604341291939
 20
1835.7494964292871
 30
0.0
 11
31237.604341291921
 21
1835.7494964292871
 31
0.0
  0
LINE
  5
42DE
  8
YODOROGO
 10
31349.604341291939
 20
1779.749496429288
 30
0.0
 11
31349.604341291939
 21
1835.7494964292871
 31
0.0
  0
LINE
  5
42DF
  8
YODOROGO
 10
31533.60434129191
 20
1875.7494964292871
 30
0.0
 11
31533.60434129191
 21
1915.7494964292871
 31
0.0
  0
LINE
  5
42E0
  8
YODOROGO
 10
31413.604341291921
 20
1707.749496429288
 30
0.0
 11
31413.604341291921
 21
1907.7494964292871
 31
0.0
  0
LINE
  5
42E1
  8
YODOROGO
 10
31237.604341291921
 20
1707.749496429288
 30
0.0
 11
31413.604341291921
 21
1707.749496429288
 31
0.0
  0
LINE
  5
42E2
  8
YODOROGO
 10
31413.604341291921
 20
1963.749496429286
 30
0.0
 11
31413.604341291921
 21
2027.749496429288
 31
0.0
  0
ARC
  5
42E3
  8
YODOROGO
 10
31621.604341291939
 20
2003.749496429285
 30
0.0
 40
15.999999999994539
 50
270.0
 51
0.0000000000081422
  0
LINE
  5
42E4
  8
YODOROGO
 10
31637.604341291921
 20
2027.749496429288
 30
0.0
 11
31637.604341291921
 21
2003.7494964292871
 31
0.0
  0
LINE
  5
42E5
  8
YODOROGO
 10
31701.604341291939
 20
2027.749496429288
 30
0.0
 11
31637.604341291921
 21
2027.749496429288
 31
0.0
  0
LINE
  5
42E6
  8
YODOROGO
 10
31701.604341291939
 20
1955.7494964292871
 30
0.0
 11
31701.604341291939
 21
2027.749496429288
 31
0.0
  0
ARC
  5
42E7
  8
YODOROGO
 10
31661.604341291939
 20
1955.7494964292871
 30
0.0
 40
40.0
 50
270.0
 51
0.0
  0
LINE
  5
42E8
  8
YODOROGO
 10
31701.604341291939
 20
1811.749496429288
 30
0.0
 11
31701.604341291939
 21
1875.7494964292871
 31
0.0
  0
LINE
  5
42E9
  8
YODOROGO
 10
31653.60434129191
 20
1811.749496429288
 30
0.0
 11
31701.604341291939
 21
1811.749496429288
 31
0.0
  0
LINE
  5
42EA
  8
SUNPOU
  6
CONTINUOUS
 62
     4
 10
5373.5032890000221
 20
13871.82112999998
 30
0.0
 11
5373.5032890000221
 21
12692.868360999981
 31
0.0
  0
LINE
  5
42EB
  8
SUNPOU
  6
CONTINUOUS
 62
     4
 10
14117.50318300001
 20
13871.82112999998
 30
0.0
 11
14117.50318300001
 21
12692.868360999981
 31
0.0
  0
LINE
  5
42EC
  8
SUNPOU
  6
CONTINUOUS
 62
     4
 10
5373.5032890000221
 20
12772.868360999981
 30
0.0
 11
14117.50318300001
 21
12772.868360999981
 31
0.0
  0
LINE
  5
42ED
  8
SUNPOU
  6
CONTINUOUS
 62
     4
 10
5288.0032890000221
 20
20282.812354000002
 30
0.0
 11
5288.0032890000221
 21
20832.817632999991
 31
0.0
  0
LINE
  5
42EE
  8
SUNPOU
  6
CONTINUOUS
 62
     4
 10
5373.5032890000221
 20
20752.817632999991
 30
0.0
 11
5613.5032890000211
 21
20752.817632999991
 31
0.0
  0
LINE
  5
42EF
  8
SUNPOU
  6
CONTINUOUS
 62
     4
 10
5291.0032890000221
 20
20752.817632999991
 30
0.0
 11
5051.0032890000211
 21
20752.817632999991
 31
0.0
  0
LINE
  5
42F0
  8
SUNPOU
  6
CONTINUOUS
 62
     4
 10
5373.5032890000221
 20
20752.817632999991
 30
0.0
 11
5291.0032890000221
 21
20752.817632999991
 31
0.0
  0
LINE
  5
42F1
  8
SUNPOU
  6
CONTINUOUS
 62
     4
 10
8291.5032890000221
 20
20752.817632999991
 30
0.0
 11
5373.5032890000221
 21
20752.817632999991
 31
0.0
  0
LINE
  5
42F2
  8
SUNPOU
  6
CONTINUOUS
 62
     4
 10
11199.50318300001
 20
20752.817632999991
 30
0.0
 11
8291.5032890000221
 21
20752.817632999991
 31
0.0
  0
LINE
  5
42F3
  8
SUNPOU
  6
CONTINUOUS
 62
     4
 10
14203.003183000001
 20
20282.812354000002
 30
0.0
 11
14203.003183000001
 21
20832.817632999991
 31
0.0
  0
LINE
  5
42F4
  8
SUNPOU
  6
CONTINUOUS
 62
     4
 10
14117.50318300001
 20
20752.817632999991
 30
0.0
 11
13877.50318300001
 21
20752.817632999991
 31
0.0
  0
LINE
  5
42F5
  8
SUNPOU
  6
CONTINUOUS
 62
     4
 10
14200.003183000001
 20
20752.817632999991
 30
0.0
 11
14440.003183000001
 21
20752.817632999991
 31
0.0
  0
LINE
  5
42F6
  8
SUNPOU
  6
CONTINUOUS
 62
     4
 10
14117.50318300001
 20
20752.817632999991
 30
0.0
 11
14200.003183000001
 21
20752.817632999991
 31
0.0
  0
LINE
  5
42F7
  8
SUNPOU
  6
CONTINUOUS
 62
     4
 10
11199.50318300001
 20
20752.817632999991
 30
0.0
 11
14117.50318300001
 21
20752.817632999991
 31
0.0
  0
LINE
  5
42F8
  8
SUNPOU
  6
CONTINUOUS
 62
     4
 10
5211.0022430000172
 20
13951.82112999998
 30
0.0
 11
4364.0068220000167
 21
13951.82112999998
 31
0.0
  0
LINE
  5
42F9
  8
SUNPOU
  6
CONTINUOUS
 62
     4
 10
4444.0068220000176
 20
14144.316444999969
 30
0.0
 11
4444.0068220000194
 21
14384.31644499998
 31
0.0
  0
LINE
  5
42FA
  8
SUNPOU
  6
CONTINUOUS
 62
     4
 10
4444.0068220000176
 20
13951.82112999998
 30
0.0
 11
4444.0068220000176
 21
13711.82112999998
 31
0.0
  0
LINE
  5
42FB
  8
SUNPOU
  6
CONTINUOUS
 62
     4
 10
4444.0068220000176
 20
14144.316444999969
 30
0.0
 11
4444.0068220000176
 21
13951.82112999998
 31
0.0
  0
LINE
  5
42FC
  8
SUNPOU
  6
CONTINUOUS
 62
     4
 10
4444.0068220000194
 20
17062.316444999979
 30
0.0
 11
4444.0068220000176
 21
14144.316444999969
 31
0.0
  0
LINE
  5
42FD
  8
SUNPOU
  6
CONTINUOUS
 62
     4
 10
5211.0022430000172
 20
20192.812354000002
 30
0.0
 11
4764.0068220000148
 21
20192.812354000002
 31
0.0
  0
LINE
  5
42FE
  8
SUNPOU
  6
CONTINUOUS
 62
     4
 10
5211.0065980000181
 20
20202.812354000002
 30
0.0
 11
4764.0068220000148
 21
20202.812354000002
 31
0.0
  0
LINE
  5
42FF
  8
SUNPOU
  6
CONTINUOUS
 62
     4
 10
4844.0068220000176
 20
20192.812354000002
 30
0.0
 11
4844.0068220000176
 21
19952.812354000002
 31
0.0
  0
LINE
  5
4300
  8
SUNPOU
  6
CONTINUOUS
 62
     4
 10
4844.0068220000176
 20
20202.812354000002
 30
0.0
 11
4844.0068220000176
 21
20442.812354000002
 31
0.0
  0
LINE
  5
4301
  8
SUNPOU
  6
CONTINUOUS
 62
     4
 10
4844.0068220000176
 20
20192.812354000002
 30
0.0
 11
4844.0068220000176
 21
20202.812354000002
 31
0.0
  0
LINE
  5
4302
  8
SUNPOU
  6
CONTINUOUS
 62
     4
 10
5211.0065980000181
 20
20202.812354000002
 30
0.0
 11
4364.0068220000167
 21
20202.812354000002
 31
0.0
  0
LINE
  5
4303
  8
SUNPOU
  6
CONTINUOUS
 62
     4
 10
4444.0068220000176
 20
19980.316444999949
 30
0.0
 11
4444.0068220000176
 21
19740.316444999949
 31
0.0
  0
LINE
  5
4304
  8
SUNPOU
  6
CONTINUOUS
 62
     4
 10
4444.0068220000176
 20
20202.812354000002
 30
0.0
 11
4444.0068220000176
 21
20442.812354000002
 31
0.0
  0
LINE
  5
4305
  8
SUNPOU
  6
CONTINUOUS
 62
     4
 10
4444.0068220000176
 20
19980.316444999949
 30
0.0
 11
4444.0068220000176
 21
20202.812354000002
 31
0.0
  0
LINE
  5
4306
  8
SUNPOU
  6
CONTINUOUS
 62
     4
 10
4444.0068220000148
 20
17062.316444999979
 30
0.0
 11
4444.0068220000176
 21
19980.316444999949
 31
0.0
  0
LINE
  5
4307
  8
SUNPOU
  6
CONTINUOUS
 62
     4
 10
22995.176123999961
 20
20102.814729999998
 30
0.0
 11
22995.176123999961
 21
20832.817632999999
 31
0.0
  0
LINE
  5
4308
  8
SUNPOU
  6
CONTINUOUS
 62
     4
 10
23753.176123999961
 20
20102.814729999998
 30
0.0
 11
23753.176123999961
 21
20832.817632999999
 31
0.0
  0
LINE
  5
4309
  8
SUNPOU
  6
CONTINUOUS
 62
     4
 10
22995.176123999961
 20
20752.817632999999
 30
0.0
 11
23753.176123999961
 21
20752.817632999999
 31
0.0
  0
LINE
  5
430A
  8
SUNPOU
  6
CONTINUOUS
 62
     4
 10
17577.170844999979
 20
20102.814729999998
 30
0.0
 11
17577.170844999979
 21
20832.817632999999
 31
0.0
  0
LINE
  5
430B
  8
SUNPOU
  6
CONTINUOUS
 62
     4
 10
18335.170844999979
 20
20102.814729999998
 30
0.0
 11
18335.170844999979
 21
20832.817632999999
 31
0.0
  0
LINE
  5
430C
  8
SUNPOU
  6
CONTINUOUS
 62
     4
 10
17577.170844999979
 20
20752.817632999999
 30
0.0
 11
18335.170844999979
 21
20752.817632999999
 31
0.0
  0
LINE
  5
430D
  8
SUNPOU
  6
CONTINUOUS
 62
     4
 10
17447.170185999999
 20
6032.8833859999977
 30
0.0
 11
16647.171504999991
 21
6032.8833859999977
 31
0.0
  0
LINE
  5
430E
  8
SUNPOU
  6
CONTINUOUS
 62
     4
 10
17447.170185999999
 20
7924.3833859999977
 30
0.0
 11
16647.171504999991
 21
7924.3833859999977
 31
0.0
  0
LINE
  5
430F
  8
SUNPOU
  6
CONTINUOUS
 62
     4
 10
16727.171504999991
 20
6032.8833859999977
 30
0.0
 11
16727.171504999991
 21
7924.3833859999977
 31
0.0
  0
LINE
  5
4310
  8
SUNPOU
  6
CONTINUOUS
 62
     4
 10
17447.170185999999
 20
6032.8833859999977
 30
0.0
 11
16247.16919599999
 21
6032.8833859999977
 31
0.0
  0
LINE
  5
4311
  8
SUNPOU
  6
CONTINUOUS
 62
     4
 10
17414.67044999998
 20
8381.3828909999866
 30
0.0
 11
16247.16919599999
 21
8381.3828909999866
 31
0.0
  0
LINE
  5
4312
  8
SUNPOU
  6
CONTINUOUS
 62
     4
 10
16327.16919599999
 20
6032.8833859999977
 30
0.0
 11
16327.16919599999
 21
8381.3828909999866
 31
0.0
  0
LINE
  5
4323
  8
SUNPOU
  6
CONTINUOUS
 62
     4
 10
17671.17084499999
 20
5852.8835510000008
 30
0.0
 11
17671.17084499999
 21
5052.8835509999999
 31
0.0
  0
LINE
  5
4324
  8
SUNPOU
  6
CONTINUOUS
 62
     4
 10
20401.170844999979
 20
5852.8835510000008
 30
0.0
 11
20401.170844999979
 21
5052.8835509999999
 31
0.0
  0
LINE
  5
4325
  8
SUNPOU
  6
CONTINUOUS
 62
     4
 10
17671.17084499999
 20
5132.8835510000008
 30
0.0
 11
20401.170844999979
 21
5132.8835510000008
 31
0.0
  0
LINE
  5
4326
  8
SUNPOU
  6
CONTINUOUS
 62
     4
 10
23089.176123999961
 20
5852.8835510000008
 30
0.0
 11
23089.176123999961
 21
5052.8835509999999
 31
0.0
  0
LINE
  5
4327
  8
SUNPOU
  6
CONTINUOUS
 62
     4
 10
25819.176123999961
 20
5852.8835510000008
 30
0.0
 11
25819.176123999961
 21
5052.8835509999999
 31
0.0
  0
LINE
  5
4328
  8
SUNPOU
  6
CONTINUOUS
 62
     4
 10
23089.176123999961
 20
5132.8835510000008
 30
0.0
 11
25819.176123999961
 21
5132.8835510000008
 31
0.0
  0
LINE
  5
4329
  8
SUNPOU
  6
CONTINUOUS
 62
     4
 10
22995.176123999961
 20
5590.2311279999976
 30
0.0
 11
22995.176123999961
 21
4652.8835509999999
 31
0.0
  0
LINE
  5
432A
  8
SUNPOU
  6
CONTINUOUS
 62
     4
 10
25913.176123999961
 20
5590.2311279999976
 30
0.0
 11
25913.176123999961
 21
4652.8835509999999
 31
0.0
  0
LINE
  5
432B
  8
SUNPOU
  6
CONTINUOUS
 62
     4
 10
22995.176123999961
 20
4732.883550999999
 30
0.0
 11
25913.176123999961
 21
4732.883550999999
 31
0.0
  0
LINE
  5
432C
  8
SUNPOU
  6
CONTINUOUS
 62
     4
 10
20495.17084499999
 20
5590.2311279999976
 30
0.0
 11
20495.17084499999
 21
4652.8835509999999
 31
0.0
  0
LINE
  5
432D
  8
SUNPOU
  6
CONTINUOUS
 62
     4
 10
22995.176123999961
 20
5590.2311279999976
 30
0.0
 11
22995.176123999961
 21
4652.8835509999999
 31
0.0
  0
LINE
  5
432E
  8
SUNPOU
  6
CONTINUOUS
 62
     4
 10
20495.17084499999
 20
4732.883550999999
 30
0.0
 11
22995.176123999961
 21
4732.883550999999
 31
0.0
  0
LINE
  5
432F
  8
SUNPOU
  6
CONTINUOUS
 62
     4
 10
17577.170844999979
 20
5590.2311279999976
 30
0.0
 11
17577.170844999979
 21
4652.8835509999999
 31
0.0
  0
LINE
  5
4330
  8
SUNPOU
  6
CONTINUOUS
 62
     4
 10
20495.17084499999
 20
5590.2311279999976
 30
0.0
 11
20495.17084499999
 21
4652.8835509999999
 31
0.0
  0
LINE
  5
4331
  8
SUNPOU
  6
CONTINUOUS
 62
     4
 10
17577.170844999979
 20
4732.883550999999
 30
0.0
 11
20495.17084499999
 21
4732.883550999999
 31
0.0
  0
LINE
  5
4332
  8
SUNPOU
  6
CONTINUOUS
 62
     4
 10
25913.180082999981
 20
5590.2311279999976
 30
0.0
 11
25913.180082999981
 21
4652.8835509999999
 31
0.0
  0
LINE
  5
4333
  8
SUNPOU
  6
CONTINUOUS
 62
     4
 10
25955.680082999981
 20
5852.8835510000008
 30
0.0
 11
25955.680082999981
 21
4652.8835509999999
 31
0.0
  0
LINE
  5
4334
  8
SUNPOU
  6
CONTINUOUS
 62
     4
 10
25913.180082999981
 20
4732.883550999999
 30
0.0
 11
25673.180082999981
 21
4732.883550999999
 31
0.0
  0
LINE
  5
4335
  8
SUNPOU
  6
CONTINUOUS
 62
     4
 10
25955.680082999981
 20
4732.883550999999
 30
0.0
 11
26195.680082999981
 21
4732.883550999999
 31
0.0
  0
LINE
  5
4336
  8
SUNPOU
  6
CONTINUOUS
 62
     4
 10
25913.180082999981
 20
4732.883550999999
 30
0.0
 11
25955.680082999981
 21
4732.883550999999
 31
0.0
  0
LINE
  5
4337
  8
SUNPOU
  6
CONTINUOUS
 62
     4
 10
17577.170844999979
 20
5590.2311279999976
 30
0.0
 11
17577.170844999979
 21
4652.8835509999999
 31
0.0
  0
LINE
  5
4338
  8
SUNPOU
  6
CONTINUOUS
 62
     4
 10
17534.67084499999
 20
5852.8835510000008
 30
0.0
 11
17534.67084499999
 21
4652.8835509999999
 31
0.0
  0
LINE
  5
4339
  8
SUNPOU
  6
CONTINUOUS
 62
     4
 10
17577.170844999979
 20
4732.883550999999
 30
0.0
 11
17817.170844999979
 21
4732.883550999999
 31
0.0
  0
LINE
  5
433A
  8
SUNPOU
  6
CONTINUOUS
 62
     4
 10
17534.67084499999
 20
4732.883550999999
 30
0.0
 11
17294.67084499999
 21
4732.883550999999
 31
0.0
  0
LINE
  5
433B
  8
SUNPOU
  6
CONTINUOUS
 62
     4
 10
17577.170844999979
 20
4732.883550999999
 30
0.0
 11
17534.67084499999
 21
4732.883550999999
 31
0.0
  0
LINE
  5
433C
  8
SUNPOU
  6
CONTINUOUS
 62
     4
 10
17534.67084499999
 20
5852.8835510000008
 30
0.0
 11
17534.67084499999
 21
4252.8837159999948
 31
0.0
  0
LINE
  5
433D
  8
SUNPOU
  6
CONTINUOUS
 62
     4
 10
25955.676123999961
 20
5852.8835510000008
 30
0.0
 11
25955.676123999961
 21
4252.8837159999948
 31
0.0
  0
LINE
  5
433E
  8
SUNPOU
  6
CONTINUOUS
 62
     4
 10
17534.67084499999
 20
4332.8837159999948
 30
0.0
 11
25955.676123999961
 21
4332.8837159999948
 31
0.0
  0
LINE
  5
433F
  8
2-0
  6
CONTINUOUS
 62
     3
 10
22952.676123999961
 20
14101.81644499998
 30
0.0
 11
23037.676123999961
 21
14101.81644499998
 31
0.0
  0
LINE
  5
4340
  8
2-0
  6
CONTINUOUS
 62
     3
 10
23037.676123999961
 20
14101.81644499998
 30
0.0
 11
23037.676123999961
 21
14186.81644499998
 31
0.0
  0
LINE
  5
4341
  8
2-0
  6
CONTINUOUS
 62
     3
 10
23037.676123999961
 20
14186.81644499998
 30
0.0
 11
22952.676123999961
 21
14186.81644499998
 31
0.0
  0
LINE
  5
4342
  8
2-0
  6
CONTINUOUS
 62
     3
 10
22952.676123999961
 20
14186.81644499998
 30
0.0
 11
22952.676123999961
 21
14101.81644499998
 31
0.0
  0
LINE
  5
4343
  8
2-0
  6
CONTINUOUS
 62
     3
 10
20452.670844999979
 20
14101.81644499998
 30
0.0
 11
20537.670845000001
 21
14101.81644499998
 31
0.0
  0
LINE
  5
4344
  8
2-0
  6
CONTINUOUS
 62
     3
 10
20537.670845000001
 20
14101.81644499998
 30
0.0
 11
20537.670845000001
 21
14186.81644499998
 31
0.0
  0
LINE
  5
4345
  8
2-0
  6
CONTINUOUS
 62
     3
 10
20537.670845000001
 20
14186.81644499998
 30
0.0
 11
20452.670844999979
 21
14186.81644499998
 31
0.0
  0
LINE
  5
4346
  8
2-0
  6
CONTINUOUS
 62
     3
 10
20452.670844999979
 20
14186.81644499998
 30
0.0
 11
20452.670844999979
 21
14101.81644499998
 31
0.0
  0
LINE
  5
4347
  8
SUNPOU
  6
CONTINUOUS
 62
     4
 10
25913.176123999961
 20
13438.55301099998
 30
0.0
 11
25913.176123999961
 21
13092.868360999981
 31
0.0
  0
LINE
  5
4348
  8
SUNPOU
  6
CONTINUOUS
 62
     4
 10
25870.67388099997
 20
14021.819149999979
 30
0.0
 11
25870.67388099997
 21
13092.868360999981
 31
0.0
  0
LINE
  5
4349
  8
SUNPOU
  6
CONTINUOUS
 62
     4
 10
25913.176123999961
 20
13172.868360999981
 30
0.0
 11
26153.176123999961
 21
13172.868360999981
 31
0.0
  0
LINE
  5
434A
  8
SUNPOU
  6
CONTINUOUS
 62
     4
 10
25870.67388099997
 20
13172.868360999981
 30
0.0
 11
25630.67388099997
 21
13172.868360999981
 31
0.0
  0
LINE
  5
434B
  8
SUNPOU
  6
CONTINUOUS
 62
     4
 10
25913.176123999961
 20
13172.868360999981
 30
0.0
 11
25870.67388099997
 21
13172.868360999981
 31
0.0
  0
LINE
  5
434C
  8
SUNPOU
  6
CONTINUOUS
 62
     4
 10
17577.170844999979
 20
13438.55301099998
 30
0.0
 11
17577.170844999979
 21
13092.868360999981
 31
0.0
  0
LINE
  5
434D
  8
SUNPOU
  6
CONTINUOUS
 62
     4
 10
17619.673087999989
 20
14021.819149999979
 30
0.0
 11
17619.673087999989
 21
13092.868360999981
 31
0.0
  0
LINE
  5
434E
  8
SUNPOU
  6
CONTINUOUS
 62
     4
 10
17577.170844999979
 20
13172.868360999981
 30
0.0
 11
17337.170844999979
 21
13172.868360999981
 31
0.0
  0
LINE
  5
434F
  8
SUNPOU
  6
CONTINUOUS
 62
     4
 10
17619.673087999989
 20
13172.868360999981
 30
0.0
 11
17859.673087999989
 21
13172.868360999981
 31
0.0
  0
LINE
  5
4350
  8
SUNPOU
  6
CONTINUOUS
 62
     4
 10
17577.170844999979
 20
13172.868360999981
 30
0.0
 11
17619.673087999989
 21
13172.868360999981
 31
0.0
  0
LINE
  5
4351
  8
SUNPOU
  6
CONTINUOUS
 62
     4
 10
17577.170844999979
 20
13438.55301099998
 30
0.0
 11
17577.170844999979
 21
12692.868360999981
 31
0.0
  0
LINE
  5
4352
  8
SUNPOU
  6
CONTINUOUS
 62
     4
 10
25913.176123999961
 20
13438.55301099998
 30
0.0
 11
25913.176123999961
 21
12692.868360999981
 31
0.0
  0
LINE
  5
4353
  8
SUNPOU
  6
CONTINUOUS
 62
     4
 10
17577.170844999979
 20
12772.868360999981
 30
0.0
 11
25913.176123999961
 21
12772.868360999981
 31
0.0
  0
LINE
  5
4354
  8
SUNPOU
  6
CONTINUOUS
 62
     4
 10
26035.674407999959
 20
14902.31644499998
 30
0.0
 11
27085.675727999958
 21
14902.31644499998
 31
0.0
  0
LINE
  5
4355
  8
SUNPOU
  6
CONTINUOUS
 62
     4
 10
26885.675727999958
 20
14144.316444999969
 30
0.0
 11
27085.675727999958
 21
14144.316444999969
 31
0.0
  0
LINE
  5
4356
  8
SUNPOU
  6
CONTINUOUS
 62
     4
 10
27005.675727999958
 20
14902.31644499998
 30
0.0
 11
27005.675727999958
 21
14144.316444999969
 31
0.0
  0
LINE
  5
4357
  8
SUNPOU
  6
CONTINUOUS
 62
     4
 10
26035.674407999959
 20
15603.556956500001
 30
0.0
 11
27085.675727999958
 21
15603.556956500001
 31
0.0
  0
LINE
  5
4358
  8
SUNPOU
  6
CONTINUOUS
 62
     4
 10
26035.674407999959
 20
14902.31644499998
 30
0.0
 11
27085.675727999958
 21
14902.31644499998
 31
0.0
  0
LINE
  5
4359
  8
SUNPOU
  6
CONTINUOUS
 62
     4
 10
27005.675727999958
 20
15603.556956500001
 30
0.0
 11
27005.675727999958
 21
14902.31644499998
 31
0.0
  0
LINE
  5
435A
  8
SUNPOU
  6
CONTINUOUS
 62
     4
 10
26035.674407999959
 20
16304.31644499998
 30
0.0
 11
27085.675727999958
 21
16304.31644499998
 31
0.0
  0
LINE
  5
435B
  8
SUNPOU
  6
CONTINUOUS
 62
     4
 10
26035.674407999959
 20
15603.556956500001
 30
0.0
 11
27085.675727999958
 21
15603.556956500001
 31
0.0
  0
LINE
  5
435C
  8
SUNPOU
  6
CONTINUOUS
 62
     4
 10
27005.675727999958
 20
16304.31644499998
 30
0.0
 11
27005.675727999958
 21
15603.556956500001
 31
0.0
  0
LINE
  5
435D
  8
SUNPOU
  6
CONTINUOUS
 62
     4
 10
26885.675727999958
 20
17062.316444999979
 30
0.0
 11
27085.675727999958
 21
17062.316444999979
 31
0.0
  0
LINE
  5
435E
  8
SUNPOU
  6
CONTINUOUS
 62
     4
 10
26035.674407999959
 20
16304.31644499998
 30
0.0
 11
27085.675727999958
 21
16304.31644499998
 31
0.0
  0
LINE
  5
435F
  8
SUNPOU
  6
CONTINUOUS
 62
     4
 10
27005.675727999958
 20
17062.316444999979
 30
0.0
 11
27005.675727999958
 21
16304.31644499998
 31
0.0
  0
LINE
  5
4360
  8
SUNPOU
  6
CONTINUOUS
 62
     4
 10
26035.674407999959
 20
17820.316444999979
 30
0.0
 11
27085.675727999958
 21
17820.316444999979
 31
0.0
  0
LINE
  5
4361
  8
SUNPOU
  6
CONTINUOUS
 62
     4
 10
26885.675727999958
 20
17062.316444999979
 30
0.0
 11
27085.675727999958
 21
17062.316444999979
 31
0.0
  0
LINE
  5
4362
  8
SUNPOU
  6
CONTINUOUS
 62
     4
 10
27005.675727999958
 20
17820.316444999979
 30
0.0
 11
27005.675727999958
 21
17062.316444999979
 31
0.0
  0
LINE
  5
4363
  8
SUNPOU
  6
CONTINUOUS
 62
     4
 10
26035.674407999959
 20
18521.31644499996
 30
0.0
 11
27085.675727999958
 21
18521.31644499996
 31
0.0
  0
LINE
  5
4364
  8
SUNPOU
  6
CONTINUOUS
 62
     4
 10
26035.674407999959
 20
17820.316444999979
 30
0.0
 11
27085.675727999958
 21
17820.316444999979
 31
0.0
  0
LINE
  5
4365
  8
SUNPOU
  6
CONTINUOUS
 62
     4
 10
27005.675727999958
 20
18521.31644499996
 30
0.0
 11
27005.675727999958
 21
17820.316444999979
 31
0.0
  0
LINE
  5
4366
  8
SUNPOU
  6
CONTINUOUS
 62
     4
 10
26035.674407999959
 20
19222.31644499996
 30
0.0
 11
27085.675727999958
 21
19222.31644499996
 31
0.0
  0
LINE
  5
4367
  8
SUNPOU
  6
CONTINUOUS
 62
     4
 10
26035.674407999959
 20
18521.31644499996
 30
0.0
 11
27085.675727999958
 21
18521.31644499996
 31
0.0
  0
LINE
  5
4368
  8
SUNPOU
  6
CONTINUOUS
 62
     4
 10
27005.675727999958
 20
19222.31644499996
 30
0.0
 11
27005.675727999958
 21
18521.31644499996
 31
0.0
  0
LINE
  5
4369
  8
SUNPOU
  6
CONTINUOUS
 62
     4
 10
26885.675727999958
 20
19980.316444999949
 30
0.0
 11
27085.675727999958
 21
19980.316444999949
 31
0.0
  0
LINE
  5
436A
  8
SUNPOU
  6
CONTINUOUS
 62
     4
 10
26035.674407999959
 20
19222.31644499996
 30
0.0
 11
27085.675727999958
 21
19222.31644499996
 31
0.0
  0
LINE
  5
436B
  8
SUNPOU
  6
CONTINUOUS
 62
     4
 10
27005.675727999958
 20
19980.316444999949
 30
0.0
 11
27005.675727999958
 21
19222.31644499996
 31
0.0
  0
LINE
  5
436C
  8
SUNPOU
  6
CONTINUOUS
 62
     4
 10
26885.675727999958
 20
17062.316444999979
 30
0.0
 11
27485.675727999958
 21
17062.316444999979
 31
0.0
  0
LINE
  5
436D
  8
SUNPOU
  6
CONTINUOUS
 62
     4
 10
26885.675727999958
 20
19980.316444999949
 30
0.0
 11
27485.675727999958
 21
19980.316444999949
 31
0.0
  0
LINE
  5
436E
  8
SUNPOU
  6
CONTINUOUS
 62
     4
 10
27405.675727999958
 20
17062.316444999979
 30
0.0
 11
27405.675727999958
 21
19980.316444999949
 31
0.0
  0
LINE
  5
436F
  8
SUNPOU
  6
CONTINUOUS
 62
     4
 10
26885.675727999958
 20
14144.316444999969
 30
0.0
 11
27485.675727999958
 21
14144.316444999969
 31
0.0
  0
LINE
  5
4370
  8
SUNPOU
  6
CONTINUOUS
 62
     4
 10
26885.675727999958
 20
17062.316444999979
 30
0.0
 11
27485.675727999958
 21
17062.316444999979
 31
0.0
  0
LINE
  5
4371
  8
SUNPOU
  6
CONTINUOUS
 62
     4
 10
27405.675727999958
 20
14144.316444999969
 30
0.0
 11
27405.675727999958
 21
17062.316444999979
 31
0.0
  0
LINE
  5
4372
  8
SUNPOU
  6
CONTINUOUS
 62
     4
 10
26035.674407999959
 20
20022.81373999998
 30
0.0
 11
27885.675727999958
 21
20022.81373999998
 31
0.0
  0
LINE
  5
4373
  8
SUNPOU
  6
CONTINUOUS
 62
     4
 10
26035.674407999959
 20
14101.819149999979
 30
0.0
 11
27885.675727999958
 21
14101.819149999979
 31
0.0
  0
LINE
  5
4374
  8
SUNPOU
  6
CONTINUOUS
 62
     4
 10
27805.675727999958
 20
20022.81373999998
 30
0.0
 11
27805.675727999958
 21
14101.819149999979
 31
0.0
  0
LINE
  5
4375
  8
SUNPOU
  6
CONTINUOUS
 62
     4
 10
26885.675727999958
 20
19980.316444999949
 30
0.0
 11
27485.675727999958
 21
19980.316444999949
 31
0.0
  0
LINE
  5
4376
  8
SUNPOU
  6
CONTINUOUS
 62
     4
 10
26035.674407999959
 20
20022.81373999998
 30
0.0
 11
27485.675727999958
 21
20022.81373999998
 31
0.0
  0
LINE
  5
4377
  8
SUNPOU
  6
CONTINUOUS
 62
     4
 10
27405.675727999958
 20
19980.316444999949
 30
0.0
 11
27405.675727999958
 21
19740.316444999949
 31
0.0
  0
LINE
  5
4378
  8
SUNPOU
  6
CONTINUOUS
 62
     4
 10
27405.675727999958
 20
20022.81373999998
 30
0.0
 11
27405.675727999958
 21
20262.81373999998
 31
0.0
  0
LINE
  5
4379
  8
SUNPOU
  6
CONTINUOUS
 62
     4
 10
27405.675727999958
 20
19980.316444999949
 30
0.0
 11
27405.675727999958
 21
20022.81373999998
 31
0.0
  0
LINE
  5
437A
  8
SUNPOU
  6
CONTINUOUS
 62
     4
 10
26885.675727999958
 20
14144.316444999969
 30
0.0
 11
27485.675727999958
 21
14144.316444999969
 31
0.0
  0
LINE
  5
437B
  8
SUNPOU
  6
CONTINUOUS
 62
     4
 10
26035.674407999959
 20
14101.819149999979
 30
0.0
 11
27485.675727999958
 21
14101.819149999979
 31
0.0
  0
LINE
  5
437C
  8
SUNPOU
  6
CONTINUOUS
 62
     4
 10
27405.675727999958
 20
14144.316444999969
 30
0.0
 11
27405.675727999958
 21
14384.31644499998
 31
0.0
  0
LINE
  5
437D
  8
SUNPOU
  6
CONTINUOUS
 62
     4
 10
27405.675727999958
 20
14101.819149999979
 30
0.0
 11
27405.675727999958
 21
13861.819149999979
 31
0.0
  0
LINE
  5
437E
  8
SUNPOU
  6
CONTINUOUS
 62
     4
 10
27405.675727999958
 20
14144.316444999969
 30
0.0
 11
27405.675727999958
 21
14101.819149999979
 31
0.0
  0
LINE
  5
437F
  8
SUNPOU
  6
CONTINUOUS
 62
     4
 10
20495.171834500001
 20
20102.814729999998
 30
0.0
 11
20495.171834500001
 21
20832.817632999999
 31
0.0
  0
LINE
  5
4380
  8
SUNPOU
  6
CONTINUOUS
 62
     4
 10
22995.176123999961
 20
20102.814729999998
 30
0.0
 11
22995.176123999961
 21
20832.817632999999
 31
0.0
  0
LINE
  5
4381
  8
SUNPOU
  6
CONTINUOUS
 62
     4
 10
20495.171834500001
 20
20752.817632999999
 30
0.0
 11
22995.176123999961
 21
20752.817632999999
 31
0.0
  0
LINE
  5
4382
  8
SUNPOU
  6
CONTINUOUS
 62
     4
 10
25155.176123999961
 20
20102.814729999998
 30
0.0
 11
25155.176123999961
 21
20832.817632999999
 31
0.0
  0
LINE
  5
4383
  8
SUNPOU
  6
CONTINUOUS
 62
     4
 10
25913.17711349998
 20
20102.814729999998
 30
0.0
 11
25913.17711349998
 21
20832.817632999999
 31
0.0
  0
LINE
  5
4384
  8
SUNPOU
  6
CONTINUOUS
 62
     4
 10
25155.176123999961
 20
20752.817632999999
 30
0.0
 11
25913.17711349998
 21
20752.817632999999
 31
0.0
  0
LINE
  5
4385
  8
SUNPOU
  6
CONTINUOUS
 62
     4
 10
24454.176123999961
 20
20102.814729999998
 30
0.0
 11
24454.176123999961
 21
20832.817632999999
 31
0.0
  0
LINE
  5
4386
  8
SUNPOU
  6
CONTINUOUS
 62
     4
 10
25155.176123999961
 20
20102.814729999998
 30
0.0
 11
25155.176123999961
 21
20832.817632999999
 31
0.0
  0
LINE
  5
4387
  8
SUNPOU
  6
CONTINUOUS
 62
     4
 10
24454.176123999961
 20
20752.817632999999
 30
0.0
 11
25155.176123999961
 21
20752.817632999999
 31
0.0
  0
LINE
  5
4388
  8
SUNPOU
  6
CONTINUOUS
 62
     4
 10
23753.176123999961
 20
20102.814729999998
 30
0.0
 11
23753.176123999961
 21
20832.817632999999
 31
0.0
  0
LINE
  5
4389
  8
SUNPOU
  6
CONTINUOUS
 62
     4
 10
24454.176123999961
 20
20102.814729999998
 30
0.0
 11
24454.176123999961
 21
20832.817632999999
 31
0.0
  0
LINE
  5
438A
  8
SUNPOU
  6
CONTINUOUS
 62
     4
 10
23753.176123999961
 20
20752.817632999999
 30
0.0
 11
24454.176123999961
 21
20752.817632999999
 31
0.0
  0
LINE
  5
438B
  8
SUNPOU
  6
CONTINUOUS
 62
     4
 10
25913.176123999961
 20
20102.814729999998
 30
0.0
 11
25913.176123999961
 21
20832.817632999999
 31
0.0
  0
LINE
  5
438C
  8
SUNPOU
  6
CONTINUOUS
 62
     4
 10
25955.672428999958
 20
20102.814729999998
 30
0.0
 11
25955.672428999958
 21
20832.817632999999
 31
0.0
  0
LINE
  5
438D
  8
SUNPOU
  6
CONTINUOUS
 62
     4
 10
25913.176123999961
 20
20752.817632999999
 30
0.0
 11
25673.176123999961
 21
20752.817632999999
 31
0.0
  0
LINE
  5
438E
  8
SUNPOU
  6
CONTINUOUS
 62
     4
 10
25955.672428999958
 20
20752.817632999999
 30
0.0
 11
26195.672428999958
 21
20752.817632999999
 31
0.0
  0
LINE
  5
438F
  8
SUNPOU
  6
CONTINUOUS
 62
     4
 10
25913.176123999961
 20
20752.817632999999
 30
0.0
 11
25955.672428999958
 21
20752.817632999999
 31
0.0
  0
LINE
  5
4390
  8
SUNPOU
  6
CONTINUOUS
 62
     4
 10
17577.170844999979
 20
20102.814729999998
 30
0.0
 11
17577.170844999979
 21
20832.817632999999
 31
0.0
  0
LINE
  5
4391
  8
SUNPOU
  6
CONTINUOUS
 62
     4
 10
17534.674539999989
 20
20102.814729999998
 30
0.0
 11
17534.674539999989
 21
20832.817632999999
 31
0.0
  0
LINE
  5
4392
  8
SUNPOU
  6
CONTINUOUS
 62
     4
 10
17577.170844999979
 20
20752.817632999999
 30
0.0
 11
17817.170844999979
 21
20752.817632999999
 31
0.0
  0
LINE
  5
4393
  8
SUNPOU
  6
CONTINUOUS
 62
     4
 10
17534.674539999989
 20
20752.817632999999
 30
0.0
 11
17294.674539999989
 21
20752.817632999999
 31
0.0
  0
LINE
  5
4394
  8
SUNPOU
  6
CONTINUOUS
 62
     4
 10
17577.170844999979
 20
20752.817632999999
 30
0.0
 11
17534.674539999989
 21
20752.817632999999
 31
0.0
  0
LINE
  5
4395
  8
SUNPOU
  6
CONTINUOUS
 62
     4
 10
19737.17084499999
 20
20102.814729999998
 30
0.0
 11
19737.17084499999
 21
20832.817632999999
 31
0.0
  0
LINE
  5
4396
  8
SUNPOU
  6
CONTINUOUS
 62
     4
 10
20495.171834500001
 20
20102.814729999998
 30
0.0
 11
20495.171834500001
 21
20832.817632999999
 31
0.0
  0
LINE
  5
4397
  8
SUNPOU
  6
CONTINUOUS
 62
     4
 10
19737.17084499999
 20
20752.817632999999
 30
0.0
 11
20495.171834500001
 21
20752.817632999999
 31
0.0
  0
LINE
  5
4398
  8
SUNPOU
  6
CONTINUOUS
 62
     4
 10
19036.17084499999
 20
20102.814729999998
 30
0.0
 11
19036.17084499999
 21
20832.817632999999
 31
0.0
  0
LINE
  5
4399
  8
SUNPOU
  6
CONTINUOUS
 62
     4
 10
19737.17084499999
 20
20102.814729999998
 30
0.0
 11
19737.17084499999
 21
20832.817632999999
 31
0.0
  0
LINE
  5
439A
  8
SUNPOU
  6
CONTINUOUS
 62
     4
 10
19036.17084499999
 20
20752.817632999999
 30
0.0
 11
19737.17084499999
 21
20752.817632999999
 31
0.0
  0
LINE
  5
439B
  8
SUNPOU
  6
CONTINUOUS
 62
     4
 10
18335.170844999979
 20
20102.814729999998
 30
0.0
 11
18335.170844999979
 21
20832.817632999999
 31
0.0
  0
LINE
  5
439C
  8
SUNPOU
  6
CONTINUOUS
 62
     4
 10
19036.17084499999
 20
20102.814729999998
 30
0.0
 11
19036.17084499999
 21
20832.817632999999
 31
0.0
  0
LINE
  5
439D
  8
SUNPOU
  6
CONTINUOUS
 62
     4
 10
18335.170844999979
 20
20752.817632999999
 30
0.0
 11
19036.17084499999
 21
20752.817632999999
 31
0.0
  0
LINE
  5
439E
  8
SUNPOU
  6
CONTINUOUS
 62
     4
 10
5988.2754960000084
 20
8269.8819010000025
 30
0.0
 11
5988.2754960000084
 21
9660.8819269999985
 31
0.0
  0
LINE
  5
439F
  8
SUNPOU
  6
CONTINUOUS
 62
     4
 10
12239.275496
 20
8401.7717244124324
 30
0.0
 11
12239.275496
 21
9660.8819269999985
 31
0.0
  0
LINE
  5
43A0
  8
SUNPOU
  6
CONTINUOUS
 62
     4
 10
5988.2754960000084
 20
9580.8819269999985
 30
0.0
 11
12239.275496
 21
9580.8819269999985
 31
0.0
  0
LINE
  5
43A1
  8
SUNPOU
  6
CONTINUOUS
 62
     4
 10
12089.27674900001
 20
8328.1126469999981
 30
0.0
 11
12089.27674900001
 21
9260.8835770000005
 31
0.0
  0
LINE
  5
43A2
  8
SUNPOU
  6
CONTINUOUS
 62
     4
 10
12239.275496
 20
8401.7717244124324
 30
0.0
 11
12239.275496
 21
9260.8835770000005
 31
0.0
  0
LINE
  5
43A3
  8
SUNPOU
  6
CONTINUOUS
 62
     4
 10
12089.27674900001
 20
9180.8835770000005
 30
0.0
 11
11849.27674900001
 21
9180.8835770000005
 31
0.0
  0
LINE
  5
43A4
  8
SUNPOU
  6
CONTINUOUS
 62
     4
 10
12239.275496
 20
9180.8835770000005
 30
0.0
 11
12479.275496
 21
9180.8835770000005
 31
0.0
  0
LINE
  5
43A5
  8
SUNPOU
  6
CONTINUOUS
 62
     4
 10
12089.27674900001
 20
9180.8835770000005
 30
0.0
 11
12239.275496
 21
9180.8835770000005
 31
0.0
  0
LINE
  5
43A6
  8
SUNPOU
  6
CONTINUOUS
 62
     4
 10
6168.2742420000059
 20
8145.9642749999966
 30
0.0
 11
6168.2742420000059
 21
9260.8835770000005
 31
0.0
  0
LINE
  5
43A7
  8
SUNPOU
  6
CONTINUOUS
 62
     4
 10
12089.27674900001
 20
8328.1126469999981
 30
0.0
 11
12089.27674900001
 21
9260.8835770000005
 31
0.0
  0
LINE
  5
43A8
  8
SUNPOU
  6
CONTINUOUS
 62
     4
 10
6168.2742420000059
 20
9180.8835770000005
 30
0.0
 11
12089.27674900001
 21
9180.8835770000005
 31
0.0
  0
LINE
  5
43A9
  8
SUNPOU
  6
CONTINUOUS
 62
     4
 10
5988.2754960000084
 20
8269.8819010000025
 30
0.0
 11
5988.2754960000084
 21
9260.8835769999969
 31
0.0
  0
LINE
  5
43AA
  8
SUNPOU
  6
CONTINUOUS
 62
     4
 10
6168.2742420000059
 20
8145.9642749999966
 30
0.0
 11
6168.2742420000059
 21
9260.8835769999969
 31
0.0
  0
LINE
  5
43AB
  8
SUNPOU
  6
CONTINUOUS
 62
     4
 10
5988.2754960000084
 20
9180.8835769999969
 30
0.0
 11
5748.2754960000084
 21
9180.8835769999969
 31
0.0
  0
LINE
  5
43AC
  8
SUNPOU
  6
CONTINUOUS
 62
     4
 10
6168.2742420000059
 20
9180.8835769999969
 30
0.0
 11
6408.2742420000077
 21
9180.8835769999969
 31
0.0
  0
LINE
  5
43AD
  8
SUNPOU
  6
CONTINUOUS
 62
     4
 10
5988.2754960000084
 20
9180.8835769999969
 30
0.0
 11
6168.2742420000059
 21
9180.8835769999969
 31
0.0
  0
LINE
  5
43AE
  8
SUNPOU
  6
CONTINUOUS
 62
     4
 10
6080.7754960000084
 20
6032.8828909999984
 30
0.0
 11
4998.2770780000083
 21
6032.8828909999984
 31
0.0
  0
LINE
  5
43AF
  8
SUNPOU
  6
CONTINUOUS
 62
     4
 10
5908.2774740000023
 20
8189.3828909999993
 30
0.0
 11
4998.2770780000083
 21
8189.3828909999993
 31
0.0
  0
LINE
  5
43B0
  8
SUNPOU
  6
CONTINUOUS
 62
     4
 10
5078.2770780000064
 20
6032.8828909999984
 30
0.0
 11
5078.2770780000064
 21
8189.3828909999993
 31
0.0
  0
LINE
  5
43B1
  8
SUNPOU
  6
CONTINUOUS
 62
     4
 10
12181.775496
 20
6032.8828909999984
 30
0.0
 11
13259.274901000001
 21
6032.8828909999984
 31
0.0
  0
LINE
  5
43B2
  8
SUNPOU
  6
CONTINUOUS
 62
     4
 10
12274.081764599379
 20
8381.3828909999975
 30
0.0
 11
13259.274901000001
 21
8381.3828909999957
 31
0.0
  0
LINE
  5
43B3
  8
SUNPOU
  6
CONTINUOUS
 62
     4
 10
13179.274901000001
 20
6032.8828909999984
 30
0.0
 11
13179.274901000001
 21
8381.3828909999957
 31
0.0
  0
LINE
  5
43B4
  8
SUNPOU
  6
CONTINUOUS
 62
     4
 10
6168.2754960000102
 20
5952.8823960000027
 30
0.0
 11
6168.2754960000102
 21
4252.8827260000007
 31
0.0
  0
LINE
  5
43B5
  8
SUNPOU
  6
CONTINUOUS
 62
     4
 10
12089.275496
 20
5952.8823960000027
 30
0.0
 11
12089.275496
 21
4252.8827260000007
 31
0.0
  0
LINE
  5
43B6
  8
SUNPOU
  6
CONTINUOUS
 62
     4
 10
6168.2754960000102
 20
4332.8827260000016
 30
0.0
 11
12089.275496
 21
4332.8827260000016
 31
0.0
  0
LINE
  5
43B7
  8
SUNPOU
  6
CONTINUOUS
 62
     4
 10
12046.775496
 20
5590.2301380000008
 30
0.0
 11
12046.775496
 21
4652.8825610000013
 31
0.0
  0
LINE
  5
43B8
  8
SUNPOU
  6
CONTINUOUS
 62
     4
 10
12089.275496
 20
5952.8823960000027
 30
0.0
 11
12089.275496
 21
4652.8825610000013
 31
0.0
  0
LINE
  5
43B9
  8
SUNPOU
  6
CONTINUOUS
 62
     4
 10
12046.775496
 20
4732.8825610000004
 30
0.0
 11
11806.775496
 21
4732.8825610000004
 31
0.0
  0
LINE
  5
43BA
  8
SUNPOU
  6
CONTINUOUS
 62
     4
 10
12089.275496
 20
4732.8825610000004
 30
0.0
 11
12329.275496
 21
4732.8825610000004
 31
0.0
  0
LINE
  5
43BB
  8
SUNPOU
  6
CONTINUOUS
 62
     4
 10
12046.775496
 20
4732.8825610000004
 30
0.0
 11
12089.275496
 21
4732.8825610000004
 31
0.0
  0
LINE
  5
43BC
  8
SUNPOU
  6
CONTINUOUS
 62
     4
 10
6210.7754960000084
 20
5590.2301380000008
 30
0.0
 11
6210.7754960000084
 21
4652.8825610000013
 31
0.0
  0
LINE
  5
43BD
  8
SUNPOU
  6
CONTINUOUS
 62
     4
 10
6168.2754960000102
 20
5952.8823960000027
 30
0.0
 11
6168.2754960000102
 21
4652.8825610000013
 31
0.0
  0
LINE
  5
43BE
  8
SUNPOU
  6
CONTINUOUS
 62
     4
 10
6210.7754960000084
 20
4732.8825610000004
 30
0.0
 11
6450.7754960000102
 21
4732.8825610000004
 31
0.0
  0
LINE
  5
43BF
  8
SUNPOU
  6
CONTINUOUS
 62
     4
 10
6168.2754960000102
 20
4732.8825610000004
 30
0.0
 11
5928.2754960000084
 21
4732.8825610000004
 31
0.0
  0
LINE
  5
43C0
  8
SUNPOU
  6
CONTINUOUS
 62
     4
 10
6210.7754960000084
 20
4732.8825610000004
 30
0.0
 11
6168.2754960000102
 21
4732.8825610000004
 31
0.0
  0
LINE
  5
43C1
  8
SUNPOU
  6
CONTINUOUS
 62
     4
 10
9128.7754960000093
 20
5590.2301380000008
 30
0.0
 11
9128.7754960000093
 21
4652.8825610000013
 31
0.0
  0
LINE
  5
43C2
  8
SUNPOU
  6
CONTINUOUS
 62
     4
 10
6210.7754960000084
 20
5590.2301380000008
 30
0.0
 11
6210.7754960000084
 21
4652.8825610000013
 31
0.0
  0
LINE
  5
43C3
  8
SUNPOU
  6
CONTINUOUS
 62
     4
 10
9128.7754960000093
 20
4732.8825610000004
 30
0.0
 11
6210.7754960000084
 21
4732.8825610000004
 31
0.0
  0
LINE
  5
43C4
  8
SUNPOU
  6
CONTINUOUS
 62
     4
 10
9128.7754960000093
 20
5590.2301380000008
 30
0.0
 11
9128.7754960000093
 21
4652.8825610000013
 31
0.0
  0
LINE
  5
43C5
  8
SUNPOU
  6
CONTINUOUS
 62
     4
 10
12046.775496
 20
5590.2301380000008
 30
0.0
 11
12046.775496
 21
4652.8825610000013
 31
0.0
  0
LINE
  5
43C6
  8
SUNPOU
  6
CONTINUOUS
 62
     4
 10
9128.7754960000093
 20
4732.8825610000004
 30
0.0
 11
12046.775496
 21
4732.8825610000004
 31
0.0
  0
LINE
  5
43C7
  8
0
  6
CONTINUOUS
 10
27320.61169951249
 20
4013.2342825977748
 30
0.0
 11
32662.906701964599
 21
4013.2342825977748
 31
0.0
  0
LINE
  5
43C8
  8
0
  6
CONTINUOUS
 10
32662.906701964599
 20
4013.2342825977748
 30
0.0
 11
32662.906701964599
 21
2658.9883116968108
 31
0.0
  0
LINE
  5
43C9
  8
0
  6
CONTINUOUS
 10
32662.906701964599
 20
2658.9883116968108
 30
0.0
 11
27320.61169951249
 21
2658.9883116968108
 31
0.0
  0
LINE
  5
43CA
  8
0
  6
CONTINUOUS
 10
27320.61169951249
 20
2658.9883116968108
 30
0.0
 11
27320.61169951249
 21
4013.2342825977748
 31
0.0
  0
TEXT
  5
43CB
  8
0
  6
CONTINUOUS
 62
     7
 10
10321.10882933334
 20
4812.8825610000022
 30
0.0
 40
160.0
  1
2918
  0
TEXT
  5
43CC
  8
0
  6
CONTINUOUS
 62
     7
 10
7403.1088293333423
 20
4812.8825610000022
 30
0.0
 40
160.0
  1
2918
  0
TEXT
  5
43CD
  8
0
  6
CONTINUOUS
 62
     7
 10
5571.1017869037023
 20
4812.8825610000022
 30
0.0
 40
160.0
  1
42.5
  0
TEXT
  5
43CE
  8
0
  6
CONTINUOUS
 62
     7
 10
12227.594133309831
 20
4812.8825610000022
 30
0.0
 40
160.0
  1
42.5
  0
TEXT
  5
43CF
  8
0
  6
CONTINUOUS
 62
     7
 10
8862.1088293333414
 20
4412.8827260000016
 30
0.0
 40
160.0
  1
5921
  0
TEXT
  5
43D0
  8
0
  6
CONTINUOUS
 62
     7
 10
13099.274901000001
 20
6188.4662243333323
 30
0.0
 40
160.0
  1
2348.5（2588.5）
 50
90.0
  0
TEXT
  5
43D1
  8
0
  6
CONTINUOUS
 62
     7
 10
4998.2770780000037
 20
6119.1328909999966
 30
0.0
 40
160.0
  1
2156.5（2396.5）
 50
90.0
  0
TEXT
  5
43D2
  8
0
  6
CONTINUOUS
 62
     7
 10
5574.9421626666763
 20
9260.8835769999969
 30
0.0
 40
160.0
  1
180
  0
TEXT
  5
43D3
  8
0
  6
CONTINUOUS
 62
     7
 10
8862.1088288333467
 20
9260.8835770000005
 30
0.0
 40
160.0
  1
5921
  0
TEXT
  5
43D4
  8
0
  6
CONTINUOUS
 62
     7
 10
12305.942162666661
 20
9260.8835770000005
 30
0.0
 40
160.0
  1
150
  0
TEXT
  5
43D5
  8
0
  6
CONTINUOUS
 62
     7
 10
8847.1088293333414
 20
9660.8819269999985
 30
0.0
 40
160.0
  1
6251
  0
TEXT
  5
43D6
  8
0
  6
CONTINUOUS
 62
     7
 10
18512.337511666661
 20
20832.817632999999
 30
0.0
 40
160.0
  1
701
  0
TEXT
  5
43D7
  8
0
  6
CONTINUOUS
 62
     7
 10
19213.337511666661
 20
20832.817632999999
 30
0.0
 40
160.0
  1
701
  0
TEXT
  5
43D8
  8
0
  6
CONTINUOUS
 62
     7
 10
19902.838006416641
 20
20832.817632999999
 30
0.0
 40
160.0
  1
758
  0
TEXT
  5
43D9
  8
0
  6
CONTINUOUS
 62
     7
 10
16974.358865471189
 20
20832.817632999999
 30
0.0
 40
160.0
  1
42.5
  0
TEXT
  5
43DA
  8
0
  6
CONTINUOUS
 62
     7
 10
26035.988103528769
 20
20832.817632999999
 30
0.0
 40
160.0
  1
42.5
  0
TEXT
  5
43DB
  8
0
  6
CONTINUOUS
 62
     7
 10
23930.34279066664
 20
20832.817632999999
 30
0.0
 40
160.0
  1
701
  0
TEXT
  5
43DC
  8
0
  6
CONTINUOUS
 62
     7
 10
24631.34279066664
 20
20832.817632999999
 30
0.0
 40
160.0
  1
701
  0
TEXT
  5
43DD
  8
0
  6
CONTINUOUS
 62
     7
 10
25320.843285416639
 20
20832.817632999999
 30
0.0
 40
160.0
  1
758
  0
TEXT
  5
43DE
  8
0
  6
CONTINUOUS
 62
     7
 10
20774.507312583311
 20
20832.817632999999
 30
0.0
 40
160.0
  1
2918 \U+00D7（ｎ － 2）
  0
TEXT
  5
43DF
  8
0
  6
CONTINUOUS
 62
     7
 10
27325.675727999958
 20
13528.26291360319
 30
0.0
 40
160.0
  1
42.5
 50
90.0
  0
TEXT
  5
43E0
  8
0
  6
CONTINUOUS
 62
     7
 10
27325.675727999958
 20
20116.369976396789
 30
0.0
 40
160.0
  1
42.5
 50
90.0
  0
TEXT
  5
43E1
  8
0
  6
CONTINUOUS
 62
     7
 10
27725.675727999958
 20
16795.649778333322
 30
0.0
 40
160.0
  1
5921
 50
90.0
  0
TEXT
  5
43E2
  8
0
  6
CONTINUOUS
 62
     7
 10
27325.675727999958
 20
15336.649778333311
 30
0.0
 40
160.0
  1
2918
 50
90.0
  0
TEXT
  5
43E3
  8
0
  6
CONTINUOUS
 62
     7
 10
27325.675727999958
 20
18254.649778333322
 30
0.0
 40
160.0
  1
2918
 50
90.0
  0
TEXT
  5
43E4
  8
0
  6
CONTINUOUS
 62
     7
 10
26925.675727999958
 20
19387.983111666661
 30
0.0
 40
160.0
  1
758
 50
90.0
  0
TEXT
  5
43E5
  8
0
  6
CONTINUOUS
 62
     7
 10
26925.675727999958
 20
18698.48311166665
 30
0.0
 40
160.0
  1
701
 50
90.0
  0
TEXT
  5
43E6
  8
0
  6
CONTINUOUS
 62
     7
 10
26925.675727999958
 20
17997.483111666661
 30
0.0
 40
160.0
  1
701
 50
90.0
  0
TEXT
  5
43E7
  8
0
  6
CONTINUOUS
 62
     7
 10
26925.675727999958
 20
17227.98311166665
 30
0.0
 40
160.0
  1
758
 50
90.0
  0
TEXT
  5
43E8
  8
0
  6
CONTINUOUS
 62
     7
 10
26925.675727999958
 20
16469.98311166665
 30
0.0
 40
160.0
  1
758
 50
90.0
  0
TEXT
  5
43E9
  8
0
  6
CONTINUOUS
 62
     7
 10
26925.675727999958
 20
15780.603367416659
 30
0.0
 40
160.0
  1
701
 50
90.0
  0
TEXT
  5
43EA
  8
0
  6
CONTINUOUS
 62
     7
 10
26925.675727999958
 20
15079.603367416659
 30
0.0
 40
160.0
  1
701
 50
90.0
  0
TEXT
  5
43EB
  8
0
  6
CONTINUOUS
 62
     7
 10
26925.675727999958
 20
14309.98311166665
 30
0.0
 40
160.0
  1
758
 50
90.0
  0
TEXT
  5
43EC
  8
0
  6
CONTINUOUS
 62
     7
 10
21222.506817833299
 20
12852.868360999981
 30
0.0
 40
160.0
  1
2918 x n
  0
TEXT
  5
43ED
  8
0
  6
CONTINUOUS
 62
     7
 10
17695.224517382081
 20
13252.868360999981
 30
0.0
 40
160.0
  1
42.5
  0
TEXT
  5
43EE
  8
0
  6
CONTINUOUS
 62
     7
 10
25315.122451617881
 20
13252.868360999981
 30
0.0
 40
160.0
  1
42.5
  0
TEXT
  5
43EF
  8
0
  6
CONTINUOUS
 62
     7
 10
20838.506817833309
 20
4412.8837159999957
 30
0.0
 40
160.0
  1
2918 \U+00D7 ｎ ＋ 85
  0
TEXT
  5
43F0
  8
0
  6
CONTINUOUS
 62
     7
 10
16968.63185474115
 20
4812.8835509999999
 30
0.0
 40
160.0
  1
42.5
  0
TEXT
  5
43F1
  8
0
  6
CONTINUOUS
 62
     7
 10
26041.71907325881
 20
4812.8835509999999
 30
0.0
 40
160.0
  1
42.5
  0
TEXT
  5
43F2
  8
0
  6
CONTINUOUS
 62
     7
 10
18769.504178333322
 20
4812.8835509999999
 30
0.0
 40
160.0
  1
2918
  0
TEXT
  5
43F3
  8
0
  6
CONTINUOUS
 62
     7
 10
20774.506817833299
 20
4812.8835509999999
 30
0.0
 40
160.0
  1
2918 \U+00D7（ｎ － 2）
  0
TEXT
  5
43F4
  8
0
  6
CONTINUOUS
 62
     7
 10
24187.509457333301
 20
4812.8835509999999
 30
0.0
 40
160.0
  1
2918
  0
TEXT
  5
43F5
  8
0
  6
CONTINUOUS
 62
     7
 10
23646.176123999961
 20
5212.8835509999999
 30
0.0
 40
160.0
  1
有効開口巾 2730
  0
TEXT
  5
43F6
  8
0
  6
CONTINUOUS
 62
     7
 10
18228.17084499999
 20
5212.8835509999999
 30
0.0
 40
160.0
  1
有効開口巾 2730
  0
TEXT
  5
43FB
  8
0
  6
CONTINUOUS
 62
     7
 10
16247.16919599999
 20
6188.4664718333288
 30
0.0
 40
160.0
  1
2348.5（2588.5）
 50
90.0
  0
TEXT
  5
43FC
  8
0
  6
CONTINUOUS
 62
     7
 10
16647.171504999991
 20
6096.8626242912696
 30
0.0
 40
160.0
  1
有効開口高サ 1891.5
 50
90.0
  0
TEXT
  5
43FD
  8
0
  6
CONTINUOUS
 62
     7
 10
17742.837511666661
 20
20832.817632999999
 30
0.0
 40
160.0
  1
758
  0
TEXT
  5
43FE
  8
0
  6
CONTINUOUS
 62
     7
 10
23160.84279066664
 20
20832.817632999999
 30
0.0
 40
160.0
  1
758
  0
TEXT
  5
43FF
  8
0
  6
CONTINUOUS
 62
     7
 10
4364.006822000013
 20
18254.649778333311
 30
0.0
 40
160.0
  1
2918
 50
90.0
  0
TEXT
  5
4400
  8
0
  6
CONTINUOUS
 62
     7
 10
4364.0068220000167
 20
20291.771629807648
 30
0.0
 40
160.0
  1
222.5
 50
90.0
  0
TEXT
  5
4401
  8
0
  6
CONTINUOUS
 62
     7
 10
4764.0068220000148
 20
20349.479020666651
 30
0.0
 40
160.0
  1
10
 50
90.0
  0
TEXT
  5
4402
  8
0
  6
CONTINUOUS
 62
     7
 10
4364.0068220000157
 20
15336.649778333311
 30
0.0
 40
160.0
  1
2918
 50
90.0
  0
TEXT
  5
4403
  8
0
  6
CONTINUOUS
 62
     7
 10
4364.006822000013
 20
13336.363434702611
 30
0.0
 40
160.0
  1
192.5
 50
90.0
  0
TEXT
  5
4404
  8
0
  6
CONTINUOUS
 62
     7
 10
12391.83651633334
 20
20832.817632999991
 30
0.0
 40
160.0
  1
2918
  0
TEXT
  5
4405
  8
0
  6
CONTINUOUS
 62
     7
 10
14253.99988902326
 20
20832.817632999991
 30
0.0
 40
160.0
  1
85.5
  0
TEXT
  5
4406
  8
0
  6
CONTINUOUS
 62
     7
 10
8774.8365693333508
 20
20832.817632999991
 30
0.0
 40
160.0
  1
2918 \U+00D7（ｎ － 2）
  0
TEXT
  5
4407
  8
0
  6
CONTINUOUS
 62
     7
 10
6565.836622333356
 20
20832.817632999991
 30
0.0
 40
160.0
  1
2918
  0
TEXT
  5
4408
  8
0
  6
CONTINUOUS
 62
     7
 10
4757.0065829767591
 20
20832.817632999991
 30
0.0
 40
160.0
  1
85.5
  0
TEXT
  5
4409
  8
0
  6
CONTINUOUS
 62
     7
 10
9110.836569333349
 20
12852.868360999981
 30
0.0
 40
160.0
  1
2918  \U+00D7　n
  0
ARC
  5
440A
  8
0
  6
BYBLOCK
 62
     0
 10
5373.5032890000221
 20
12772.868360999981
 30
0.0
 40
15.0
 50
0.0
 51
180.0
  0
ARC
  5
440B
  8
0
  6
BYBLOCK
 62
     0
 10
5373.5032890000221
 20
12772.868360999981
 30
0.0
 40
15.0
 50
180.0
 51
0.0
  0
ARC
  5
440C
  8
0
  6
BYBLOCK
 62
     0
 10
14117.50318300001
 20
12772.868360999981
 30
0.0
 40
15.0
 50
180.0
 51
0.0
  0
ARC
  5
440D
  8
0
  6
BYBLOCK
 62
     0
 10
14117.50318300001
 20
12772.868360999981
 30
0.0
 40
15.0
 50
0.0
 51
180.0
  0
ARC
  5
440E
  8
0
  6
BYBLOCK
 62
     0
 10
5373.5032890000221
 20
20752.817632999991
 30
0.0
 40
15.0
 50
0.0
 51
180.0
  0
ARC
  5
440F
  8
0
  6
BYBLOCK
 62
     0
 10
5373.5032890000221
 20
20752.817632999991
 30
0.0
 40
15.0
 50
180.0
 51
0.0
  0
ARC
  5
4410
  8
0
  6
BYBLOCK
 62
     0
 10
5288.0032890000221
 20
20752.817632999991
 30
0.0
 40
15.0
 50
180.0
 51
0.0
  0
ARC
  5
4411
  8
0
  6
BYBLOCK
 62
     0
 10
5288.0032890000221
 20
20752.817632999991
 30
0.0
 40
15.0
 50
0.0
 51
180.0
  0
ARC
  5
4412
  8
0
  6
BYBLOCK
 62
     0
 10
8291.5032890000221
 20
20752.817632999991
 30
0.0
 40
15.0
 50
180.0
 51
0.0
  0
ARC
  5
4413
  8
0
  6
BYBLOCK
 62
     0
 10
8291.5032890000221
 20
20752.817632999991
 30
0.0
 40
15.0
 50
0.0
 51
180.0
  0
ARC
  5
4414
  8
0
  6
BYBLOCK
 62
     0
 10
5373.5032890000221
 20
20752.817632999991
 30
0.0
 40
15.0
 50
0.0
 51
180.0
  0
ARC
  5
4415
  8
0
  6
BYBLOCK
 62
     0
 10
5373.5032890000221
 20
20752.817632999991
 30
0.0
 40
15.0
 50
180.0
 51
0.0
  0
ARC
  5
4416
  8
0
  6
BYBLOCK
 62
     0
 10
11199.50318300001
 20
20752.817632999991
 30
0.0
 40
15.0
 50
180.0
 51
0.0
  0
ARC
  5
4417
  8
0
  6
BYBLOCK
 62
     0
 10
11199.50318300001
 20
20752.817632999991
 30
0.0
 40
15.0
 50
0.0
 51
180.0
  0
ARC
  5
4418
  8
0
  6
BYBLOCK
 62
     0
 10
8291.5032890000221
 20
20752.817632999991
 30
0.0
 40
15.0
 50
0.0
 51
180.0
  0
ARC
  5
4419
  8
0
  6
BYBLOCK
 62
     0
 10
8291.5032890000221
 20
20752.817632999991
 30
0.0
 40
15.0
 50
180.0
 51
0.0
  0
ARC
  5
441A
  8
0
  6
BYBLOCK
 62
     0
 10
14117.50318300001
 20
20752.817632999991
 30
0.0
 40
15.0
 50
180.0
 51
0.0
  0
ARC
  5
441B
  8
0
  6
BYBLOCK
 62
     0
 10
14117.50318300001
 20
20752.817632999991
 30
0.0
 40
15.0
 50
0.0
 51
180.0
  0
ARC
  5
441C
  8
0
  6
BYBLOCK
 62
     0
 10
14203.003183000001
 20
20752.817632999991
 30
0.0
 40
15.0
 50
0.0
 51
180.0
  0
ARC
  5
441D
  8
0
  6
BYBLOCK
 62
     0
 10
14203.003183000001
 20
20752.817632999991
 30
0.0
 40
15.0
 50
180.0
 51
0.0
  0
ARC
  5
441E
  8
0
  6
BYBLOCK
 62
     0
 10
11199.50318300001
 20
20752.817632999991
 30
0.0
 40
15.0
 50
0.0
 51
180.0
  0
ARC
  5
441F
  8
0
  6
BYBLOCK
 62
     0
 10
11199.50318300001
 20
20752.817632999991
 30
0.0
 40
15.0
 50
180.0
 51
0.0
  0
ARC
  5
4420
  8
0
  6
BYBLOCK
 62
     0
 10
14117.50318300001
 20
20752.817632999991
 30
0.0
 40
15.0
 50
180.0
 51
0.0
  0
ARC
  5
4421
  8
0
  6
BYBLOCK
 62
     0
 10
14117.50318300001
 20
20752.817632999991
 30
0.0
 40
15.0
 50
0.0
 51
180.0
  0
ARC
  5
4422
  8
0
  6
BYBLOCK
 62
     0
 10
4444.0068220000176
 20
14144.316444999969
 30
0.0
 40
15.0
 50
90.0
 51
270.0
  0
ARC
  5
4423
  8
0
  6
BYBLOCK
 62
     0
 10
4444.0068220000176
 20
14144.316444999969
 30
0.0
 40
15.0
 50
270.0
 51
90.0
  0
ARC
  5
4424
  8
0
  6
BYBLOCK
 62
     0
 10
4444.0068220000176
 20
13951.82112999998
 30
0.0
 40
15.0
 50
270.0
 51
90.0
  0
ARC
  5
4425
  8
0
  6
BYBLOCK
 62
     0
 10
4444.0068220000176
 20
13951.82112999998
 30
0.0
 40
15.0
 50
90.0
 51
270.0
  0
ARC
  5
4426
  8
0
  6
BYBLOCK
 62
     0
 10
4444.0068220000194
 20
17062.316444999979
 30
0.0
 40
15.0
 50
270.0
 51
90.0
  0
ARC
  5
4427
  8
0
  6
BYBLOCK
 62
     0
 10
4444.0068220000194
 20
17062.316444999979
 30
0.0
 40
15.0
 50
90.0
 51
270.0
  0
ARC
  5
4428
  8
0
  6
BYBLOCK
 62
     0
 10
4444.0068220000176
 20
14144.316444999969
 30
0.0
 40
15.0
 50
90.0
 51
270.0
  0
ARC
  5
4429
  8
0
  6
BYBLOCK
 62
     0
 10
4444.0068220000176
 20
14144.316444999969
 30
0.0
 40
15.0
 50
270.0
 51
90.0
  0
ARC
  5
442A
  8
0
  6
BYBLOCK
 62
     0
 10
4844.0068220000176
 20
20192.812354000002
 30
0.0
 40
15.0
 50
270.0
 51
90.0
  0
ARC
  5
442B
  8
0
  6
BYBLOCK
 62
     0
 10
4844.0068220000176
 20
20192.812354000002
 30
0.0
 40
15.0
 50
90.0
 51
270.0
  0
ARC
  5
442C
  8
0
  6
BYBLOCK
 62
     0
 10
4844.0068220000176
 20
20202.812354000002
 30
0.0
 40
15.0
 50
90.0
 51
270.0
  0
ARC
  5
442D
  8
0
  6
BYBLOCK
 62
     0
 10
4844.0068220000176
 20
20202.812354000002
 30
0.0
 40
15.0
 50
270.0
 51
90.0
  0
ARC
  5
442E
  8
0
  6
BYBLOCK
 62
     0
 10
4444.0068220000176
 20
19980.316444999949
 30
0.0
 40
15.0
 50
270.0
 51
90.0
  0
ARC
  5
442F
  8
0
  6
BYBLOCK
 62
     0
 10
4444.0068220000176
 20
19980.316444999949
 30
0.0
 40
15.0
 50
90.0
 51
270.0
  0
ARC
  5
4430
  8
0
  6
BYBLOCK
 62
     0
 10
4444.0068220000176
 20
20202.812354000002
 30
0.0
 40
15.0
 50
90.0
 51
270.0
  0
ARC
  5
4431
  8
0
  6
BYBLOCK
 62
     0
 10
4444.0068220000176
 20
20202.812354000002
 30
0.0
 40
15.0
 50
270.0
 51
90.0
  0
ARC
  5
4432
  8
0
  6
BYBLOCK
 62
     0
 10
4444.0068220000148
 20
17062.316444999979
 30
0.0
 40
15.0
 50
90.0
 51
270.0
  0
ARC
  5
4433
  8
0
  6
BYBLOCK
 62
     0
 10
4444.0068220000148
 20
17062.316444999979
 30
0.0
 40
15.0
 50
270.0
 51
90.0
  0
ARC
  5
4434
  8
0
  6
BYBLOCK
 62
     0
 10
4444.0068220000176
 20
19980.316444999949
 30
0.0
 40
15.0
 50
270.0
 51
90.0
  0
ARC
  5
4435
  8
0
  6
BYBLOCK
 62
     0
 10
4444.0068220000176
 20
19980.316444999949
 30
0.0
 40
15.0
 50
90.0
 51
270.0
  0
ARC
  5
4436
  8
0
  6
BYBLOCK
 62
     0
 10
22995.176123999961
 20
20752.817632999999
 30
0.0
 40
15.0
 50
0.0
 51
180.0
  0
ARC
  5
4437
  8
0
  6
BYBLOCK
 62
     0
 10
22995.176123999961
 20
20752.817632999999
 30
0.0
 40
15.0
 50
180.0
 51
0.0
  0
ARC
  5
4438
  8
0
  6
BYBLOCK
 62
     0
 10
23753.176123999961
 20
20752.817632999999
 30
0.0
 40
15.0
 50
180.0
 51
0.0
  0
ARC
  5
4439
  8
0
  6
BYBLOCK
 62
     0
 10
23753.176123999961
 20
20752.817632999999
 30
0.0
 40
15.0
 50
0.0
 51
180.0
  0
ARC
  5
443A
  8
0
  6
BYBLOCK
 62
     0
 10
17577.170844999979
 20
20752.817632999999
 30
0.0
 40
15.0
 50
0.0
 51
180.0
  0
ARC
  5
443B
  8
0
  6
BYBLOCK
 62
     0
 10
17577.170844999979
 20
20752.817632999999
 30
0.0
 40
15.0
 50
180.0
 51
0.0
  0
ARC
  5
443C
  8
0
  6
BYBLOCK
 62
     0
 10
18335.170844999979
 20
20752.817632999999
 30
0.0
 40
15.0
 50
180.0
 51
0.0
  0
ARC
  5
443D
  8
0
  6
BYBLOCK
 62
     0
 10
18335.170844999979
 20
20752.817632999999
 30
0.0
 40
15.0
 50
0.0
 51
180.0
  0
ARC
  5
443E
  8
0
  6
BYBLOCK
 62
     0
 10
16727.171504999991
 20
6032.8833859999977
 30
0.0
 40
15.0
 50
90.0
 51
270.0
  0
ARC
  5
443F
  8
0
  6
BYBLOCK
 62
     0
 10
16727.171504999991
 20
6032.8833859999977
 30
0.0
 40
15.0
 50
270.0
 51
90.0
  0
ARC
  5
4440
  8
0
  6
BYBLOCK
 62
     0
 10
16727.171504999991
 20
7924.3833859999977
 30
0.0
 40
15.0
 50
270.0
 51
90.0
  0
ARC
  5
4441
  8
0
  6
BYBLOCK
 62
     0
 10
16727.171504999991
 20
7924.3833859999977
 30
0.0
 40
15.0
 50
90.0
 51
270.0
  0
ARC
  5
4442
  8
0
  6
BYBLOCK
 62
     0
 10
16327.16919599999
 20
6032.8833859999977
 30
0.0
 40
15.0
 50
90.0
 51
270.0
  0
ARC
  5
4443
  8
0
  6
BYBLOCK
 62
     0
 10
16327.16919599999
 20
6032.8833859999977
 30
0.0
 40
15.0
 50
270.0
 51
90.0
  0
ARC
  5
4444
  8
0
  6
BYBLOCK
 62
     0
 10
16327.16919599999
 20
8381.3828909999866
 30
0.0
 40
15.0
 50
270.0
 51
90.0
  0
ARC
  5
4445
  8
0
  6
BYBLOCK
 62
     0
 10
16327.16919599999
 20
8381.3828909999866
 30
0.0
 40
15.0
 50
90.0
 51
270.0
  0
ARC
  5
4456
  8
0
  6
BYBLOCK
 62
     0
 10
17671.17084499999
 20
5132.8835510000008
 30
0.0
 40
15.0
 50
0.0
 51
180.0
  0
ARC
  5
4457
  8
0
  6
BYBLOCK
 62
     0
 10
17671.17084499999
 20
5132.8835510000008
 30
0.0
 40
15.0
 50
180.0
 51
0.0
  0
ARC
  5
4458
  8
0
  6
BYBLOCK
 62
     0
 10
20401.170844999979
 20
5132.8835510000008
 30
0.0
 40
15.0
 50
180.0
 51
0.0
  0
ARC
  5
4459
  8
0
  6
BYBLOCK
 62
     0
 10
20401.170844999979
 20
5132.8835510000008
 30
0.0
 40
15.0
 50
0.0
 51
180.0
  0
ARC
  5
445A
  8
0
  6
BYBLOCK
 62
     0
 10
23089.176123999961
 20
5132.8835510000008
 30
0.0
 40
15.0
 50
0.0
 51
180.0
  0
ARC
  5
445B
  8
0
  6
BYBLOCK
 62
     0
 10
23089.176123999961
 20
5132.8835510000008
 30
0.0
 40
15.0
 50
180.0
 51
0.0
  0
ARC
  5
445C
  8
0
  6
BYBLOCK
 62
     0
 10
25819.176123999961
 20
5132.8835510000008
 30
0.0
 40
15.0
 50
180.0
 51
0.0
  0
ARC
  5
445D
  8
0
  6
BYBLOCK
 62
     0
 10
25819.176123999961
 20
5132.8835510000008
 30
0.0
 40
15.0
 50
0.0
 51
180.0
  0
ARC
  5
445E
  8
0
  6
BYBLOCK
 62
     0
 10
22995.176123999961
 20
4732.883550999999
 30
0.0
 40
15.0
 50
0.0
 51
180.0
  0
ARC
  5
445F
  8
0
  6
BYBLOCK
 62
     0
 10
22995.176123999961
 20
4732.883550999999
 30
0.0
 40
15.0
 50
180.0
 51
0.0
  0
ARC
  5
4460
  8
0
  6
BYBLOCK
 62
     0
 10
25913.176123999961
 20
4732.883550999999
 30
0.0
 40
15.0
 50
180.0
 51
0.0
  0
ARC
  5
4461
  8
0
  6
BYBLOCK
 62
     0
 10
25913.176123999961
 20
4732.883550999999
 30
0.0
 40
15.0
 50
0.0
 51
180.0
  0
ARC
  5
4462
  8
0
  6
BYBLOCK
 62
     0
 10
20495.17084499999
 20
4732.883550999999
 30
0.0
 40
15.0
 50
0.0
 51
180.0
  0
ARC
  5
4463
  8
0
  6
BYBLOCK
 62
     0
 10
20495.17084499999
 20
4732.883550999999
 30
0.0
 40
15.0
 50
180.0
 51
0.0
  0
ARC
  5
4464
  8
0
  6
BYBLOCK
 62
     0
 10
22995.176123999961
 20
4732.883550999999
 30
0.0
 40
15.0
 50
180.0
 51
0.0
  0
ARC
  5
4465
  8
0
  6
BYBLOCK
 62
     0
 10
22995.176123999961
 20
4732.883550999999
 30
0.0
 40
15.0
 50
0.0
 51
180.0
  0
ARC
  5
4466
  8
0
  6
BYBLOCK
 62
     0
 10
17577.170844999979
 20
4732.883550999999
 30
0.0
 40
15.0
 50
0.0
 51
180.0
  0
ARC
  5
4467
  8
0
  6
BYBLOCK
 62
     0
 10
17577.170844999979
 20
4732.883550999999
 30
0.0
 40
15.0
 50
180.0
 51
0.0
  0
ARC
  5
4468
  8
0
  6
BYBLOCK
 62
     0
 10
20495.17084499999
 20
4732.883550999999
 30
0.0
 40
15.0
 50
180.0
 51
0.0
  0
ARC
  5
4469
  8
0
  6
BYBLOCK
 62
     0
 10
20495.17084499999
 20
4732.883550999999
 30
0.0
 40
15.0
 50
0.0
 51
180.0
  0
ARC
  5
446A
  8
0
  6
BYBLOCK
 62
     0
 10
25913.180082999981
 20
4732.883550999999
 30
0.0
 40
15.0
 50
180.0
 51
0.0
  0
ARC
  5
446B
  8
0
  6
BYBLOCK
 62
     0
 10
25913.180082999981
 20
4732.883550999999
 30
0.0
 40
15.0
 50
0.0
 51
180.0
  0
ARC
  5
446C
  8
0
  6
BYBLOCK
 62
     0
 10
25955.680082999981
 20
4732.883550999999
 30
0.0
 40
15.0
 50
0.0
 51
180.0
  0
ARC
  5
446D
  8
0
  6
BYBLOCK
 62
     0
 10
25955.680082999981
 20
4732.883550999999
 30
0.0
 40
15.0
 50
180.0
 51
0.0
  0
ARC
  5
446E
  8
0
  6
BYBLOCK
 62
     0
 10
17577.170844999979
 20
4732.883550999999
 30
0.0
 40
15.0
 50
0.0
 51
180.0
  0
ARC
  5
446F
  8
0
  6
BYBLOCK
 62
     0
 10
17577.170844999979
 20
4732.883550999999
 30
0.0
 40
15.0
 50
180.0
 51
0.0
  0
ARC
  5
4470
  8
0
  6
BYBLOCK
 62
     0
 10
17534.67084499999
 20
4732.883550999999
 30
0.0
 40
15.0
 50
180.0
 51
0.0
  0
ARC
  5
4471
  8
0
  6
BYBLOCK
 62
     0
 10
17534.67084499999
 20
4732.883550999999
 30
0.0
 40
15.0
 50
0.0
 51
180.0
  0
ARC
  5
4472
  8
0
  6
BYBLOCK
 62
     0
 10
17534.67084499999
 20
4332.8837159999948
 30
0.0
 40
15.0
 50
0.0
 51
180.0
  0
ARC
  5
4473
  8
0
  6
BYBLOCK
 62
     0
 10
17534.67084499999
 20
4332.8837159999948
 30
0.0
 40
15.0
 50
180.0
 51
0.0
  0
ARC
  5
4474
  8
0
  6
BYBLOCK
 62
     0
 10
25955.676123999961
 20
4332.8837159999948
 30
0.0
 40
15.0
 50
180.0
 51
0.0
  0
ARC
  5
4475
  8
0
  6
BYBLOCK
 62
     0
 10
25955.676123999961
 20
4332.8837159999948
 30
0.0
 40
15.0
 50
0.0
 51
180.0
  0
ARC
  5
4476
  8
0
  6
BYBLOCK
 62
     0
 10
25913.176123999961
 20
13172.868360999981
 30
0.0
 40
15.0
 50
0.0
 51
180.0
  0
ARC
  5
4477
  8
0
  6
BYBLOCK
 62
     0
 10
25913.176123999961
 20
13172.868360999981
 30
0.0
 40
15.0
 50
180.0
 51
0.0
  0
ARC
  5
4478
  8
0
  6
BYBLOCK
 62
     0
 10
25870.67388099997
 20
13172.868360999981
 30
0.0
 40
15.0
 50
180.0
 51
0.0
  0
ARC
  5
4479
  8
0
  6
BYBLOCK
 62
     0
 10
25870.67388099997
 20
13172.868360999981
 30
0.0
 40
15.0
 50
0.0
 51
180.0
  0
ARC
  5
447A
  8
0
  6
BYBLOCK
 62
     0
 10
17577.170844999979
 20
13172.868360999981
 30
0.0
 40
15.0
 50
180.0
 51
0.0
  0
ARC
  5
447B
  8
0
  6
BYBLOCK
 62
     0
 10
17577.170844999979
 20
13172.868360999981
 30
0.0
 40
15.0
 50
0.0
 51
180.0
  0
ARC
  5
447C
  8
0
  6
BYBLOCK
 62
     0
 10
17619.673087999989
 20
13172.868360999981
 30
0.0
 40
15.0
 50
0.0
 51
180.0
  0
ARC
  5
447D
  8
0
  6
BYBLOCK
 62
     0
 10
17619.673087999989
 20
13172.868360999981
 30
0.0
 40
15.0
 50
180.0
 51
0.0
  0
ARC
  5
447E
  8
0
  6
BYBLOCK
 62
     0
 10
17577.170844999979
 20
12772.868360999981
 30
0.0
 40
15.0
 50
0.0
 51
180.0
  0
ARC
  5
447F
  8
0
  6
BYBLOCK
 62
     0
 10
17577.170844999979
 20
12772.868360999981
 30
0.0
 40
15.0
 50
180.0
 51
0.0
  0
ARC
  5
4480
  8
0
  6
BYBLOCK
 62
     0
 10
25913.176123999961
 20
12772.868360999981
 30
0.0
 40
15.0
 50
180.0
 51
0.0
  0
ARC
  5
4481
  8
0
  6
BYBLOCK
 62
     0
 10
25913.176123999961
 20
12772.868360999981
 30
0.0
 40
15.0
 50
0.0
 51
180.0
  0
ARC
  5
4482
  8
0
  6
BYBLOCK
 62
     0
 10
27005.675727999958
 20
14902.31644499998
 30
0.0
 40
15.0
 50
270.0
 51
90.0
  0
ARC
  5
4483
  8
0
  6
BYBLOCK
 62
     0
 10
27005.675727999958
 20
14902.31644499998
 30
0.0
 40
15.0
 50
90.0
 51
270.0
  0
ARC
  5
4484
  8
0
  6
BYBLOCK
 62
     0
 10
27005.675727999958
 20
14144.316444999969
 30
0.0
 40
15.0
 50
90.0
 51
270.0
  0
ARC
  5
4485
  8
0
  6
BYBLOCK
 62
     0
 10
27005.675727999958
 20
14144.316444999969
 30
0.0
 40
15.0
 50
270.0
 51
90.0
  0
ARC
  5
4486
  8
0
  6
BYBLOCK
 62
     0
 10
27005.675727999958
 20
15603.556956500001
 30
0.0
 40
15.0
 50
270.0
 51
90.0
  0
ARC
  5
4487
  8
0
  6
BYBLOCK
 62
     0
 10
27005.675727999958
 20
15603.556956500001
 30
0.0
 40
15.0
 50
90.0
 51
270.0
  0
ARC
  5
4488
  8
0
  6
BYBLOCK
 62
     0
 10
27005.675727999958
 20
14902.31644499998
 30
0.0
 40
15.0
 50
90.0
 51
270.0
  0
ARC
  5
4489
  8
0
  6
BYBLOCK
 62
     0
 10
27005.675727999958
 20
14902.31644499998
 30
0.0
 40
15.0
 50
270.0
 51
90.0
  0
ARC
  5
448A
  8
0
  6
BYBLOCK
 62
     0
 10
27005.675727999958
 20
16304.31644499998
 30
0.0
 40
15.0
 50
270.0
 51
90.0
  0
ARC
  5
448B
  8
0
  6
BYBLOCK
 62
     0
 10
27005.675727999958
 20
16304.31644499998
 30
0.0
 40
15.0
 50
90.0
 51
270.0
  0
ARC
  5
448C
  8
0
  6
BYBLOCK
 62
     0
 10
27005.675727999958
 20
15603.556956500001
 30
0.0
 40
15.0
 50
90.0
 51
270.0
  0
ARC
  5
448D
  8
0
  6
BYBLOCK
 62
     0
 10
27005.675727999958
 20
15603.556956500001
 30
0.0
 40
15.0
 50
270.0
 51
90.0
  0
ARC
  5
448E
  8
0
  6
BYBLOCK
 62
     0
 10
27005.675727999958
 20
17062.316444999979
 30
0.0
 40
15.0
 50
270.0
 51
90.0
  0
ARC
  5
448F
  8
0
  6
BYBLOCK
 62
     0
 10
27005.675727999958
 20
17062.316444999979
 30
0.0
 40
15.0
 50
90.0
 51
270.0
  0
ARC
  5
4490
  8
0
  6
BYBLOCK
 62
     0
 10
27005.675727999958
 20
16304.31644499998
 30
0.0
 40
15.0
 50
90.0
 51
270.0
  0
ARC
  5
4491
  8
0
  6
BYBLOCK
 62
     0
 10
27005.675727999958
 20
16304.31644499998
 30
0.0
 40
15.0
 50
270.0
 51
90.0
  0
ARC
  5
4492
  8
0
  6
BYBLOCK
 62
     0
 10
27005.675727999958
 20
17820.316444999979
 30
0.0
 40
15.0
 50
270.0
 51
90.0
  0
ARC
  5
4493
  8
0
  6
BYBLOCK
 62
     0
 10
27005.675727999958
 20
17820.316444999979
 30
0.0
 40
15.0
 50
90.0
 51
270.0
  0
ARC
  5
4494
  8
0
  6
BYBLOCK
 62
     0
 10
27005.675727999958
 20
17062.316444999979
 30
0.0
 40
15.0
 50
90.0
 51
270.0
  0
ARC
  5
4495
  8
0
  6
BYBLOCK
 62
     0
 10
27005.675727999958
 20
17062.316444999979
 30
0.0
 40
15.0
 50
270.0
 51
90.0
  0
ARC
  5
4496
  8
0
  6
BYBLOCK
 62
     0
 10
27005.675727999958
 20
18521.31644499996
 30
0.0
 40
15.0
 50
270.0
 51
90.0
  0
ARC
  5
4497
  8
0
  6
BYBLOCK
 62
     0
 10
27005.675727999958
 20
18521.31644499996
 30
0.0
 40
15.0
 50
90.0
 51
270.0
  0
ARC
  5
4498
  8
0
  6
BYBLOCK
 62
     0
 10
27005.675727999958
 20
17820.316444999979
 30
0.0
 40
15.0
 50
90.0
 51
270.0
  0
ARC
  5
4499
  8
0
  6
BYBLOCK
 62
     0
 10
27005.675727999958
 20
17820.316444999979
 30
0.0
 40
15.0
 50
270.0
 51
90.0
  0
ARC
  5
449A
  8
0
  6
BYBLOCK
 62
     0
 10
27005.675727999958
 20
19222.31644499996
 30
0.0
 40
15.0
 50
270.0
 51
90.0
  0
ARC
  5
449B
  8
0
  6
BYBLOCK
 62
     0
 10
27005.675727999958
 20
19222.31644499996
 30
0.0
 40
15.0
 50
90.0
 51
270.0
  0
ARC
  5
449C
  8
0
  6
BYBLOCK
 62
     0
 10
27005.675727999958
 20
18521.31644499996
 30
0.0
 40
15.0
 50
90.0
 51
270.0
  0
ARC
  5
449D
  8
0
  6
BYBLOCK
 62
     0
 10
27005.675727999958
 20
18521.31644499996
 30
0.0
 40
15.0
 50
270.0
 51
90.0
  0
ARC
  5
449E
  8
0
  6
BYBLOCK
 62
     0
 10
27005.675727999958
 20
19980.316444999949
 30
0.0
 40
15.0
 50
270.0
 51
90.0
  0
ARC
  5
449F
  8
0
  6
BYBLOCK
 62
     0
 10
27005.675727999958
 20
19980.316444999949
 30
0.0
 40
15.0
 50
90.0
 51
270.0
  0
ARC
  5
44A0
  8
0
  6
BYBLOCK
 62
     0
 10
27005.675727999958
 20
19222.31644499996
 30
0.0
 40
15.0
 50
90.0
 51
270.0
  0
ARC
  5
44A1
  8
0
  6
BYBLOCK
 62
     0
 10
27005.675727999958
 20
19222.31644499996
 30
0.0
 40
15.0
 50
270.0
 51
90.0
  0
ARC
  5
44A2
  8
0
  6
BYBLOCK
 62
     0
 10
27405.675727999958
 20
17062.316444999979
 30
0.0
 40
15.0
 50
90.0
 51
270.0
  0
ARC
  5
44A3
  8
0
  6
BYBLOCK
 62
     0
 10
27405.675727999958
 20
17062.316444999979
 30
0.0
 40
15.0
 50
270.0
 51
90.0
  0
ARC
  5
44A4
  8
0
  6
BYBLOCK
 62
     0
 10
27405.675727999958
 20
19980.316444999949
 30
0.0
 40
15.0
 50
270.0
 51
90.0
  0
ARC
  5
44A5
  8
0
  6
BYBLOCK
 62
     0
 10
27405.675727999958
 20
19980.316444999949
 30
0.0
 40
15.0
 50
90.0
 51
270.0
  0
ARC
  5
44A6
  8
0
  6
BYBLOCK
 62
     0
 10
27405.675727999958
 20
14144.316444999969
 30
0.0
 40
15.0
 50
90.0
 51
270.0
  0
ARC
  5
44A7
  8
0
  6
BYBLOCK
 62
     0
 10
27405.675727999958
 20
14144.316444999969
 30
0.0
 40
15.0
 50
270.0
 51
90.0
  0
ARC
  5
44A8
  8
0
  6
BYBLOCK
 62
     0
 10
27405.675727999958
 20
17062.316444999979
 30
0.0
 40
15.0
 50
270.0
 51
90.0
  0
ARC
  5
44A9
  8
0
  6
BYBLOCK
 62
     0
 10
27405.675727999958
 20
17062.316444999979
 30
0.0
 40
15.0
 50
90.0
 51
270.0
  0
ARC
  5
44AA
  8
0
  6
BYBLOCK
 62
     0
 10
27805.675727999958
 20
20022.81373999998
 30
0.0
 40
15.0
 50
270.0
 51
90.0
  0
ARC
  5
44AB
  8
0
  6
BYBLOCK
 62
     0
 10
27805.675727999958
 20
20022.81373999998
 30
0.0
 40
15.0
 50
90.0
 51
270.0
  0
ARC
  5
44AC
  8
0
  6
BYBLOCK
 62
     0
 10
27805.675727999958
 20
14101.819149999979
 30
0.0
 40
15.0
 50
90.0
 51
270.0
  0
ARC
  5
44AD
  8
0
  6
BYBLOCK
 62
     0
 10
27805.675727999958
 20
14101.819149999979
 30
0.0
 40
15.0
 50
270.0
 51
90.0
  0
ARC
  5
44AE
  8
0
  6
BYBLOCK
 62
     0
 10
27405.675727999958
 20
19980.316444999949
 30
0.0
 40
15.0
 50
270.0
 51
90.0
  0
ARC
  5
44AF
  8
0
  6
BYBLOCK
 62
     0
 10
27405.675727999958
 20
19980.316444999949
 30
0.0
 40
15.0
 50
90.0
 51
270.0
  0
ARC
  5
44B0
  8
0
  6
BYBLOCK
 62
     0
 10
27405.675727999958
 20
20022.81373999998
 30
0.0
 40
15.0
 50
90.0
 51
270.0
  0
ARC
  5
44B1
  8
0
  6
BYBLOCK
 62
     0
 10
27405.675727999958
 20
20022.81373999998
 30
0.0
 40
15.0
 50
270.0
 51
90.0
  0
ARC
  5
44B2
  8
0
  6
BYBLOCK
 62
     0
 10
27405.675727999958
 20
14144.316444999969
 30
0.0
 40
15.0
 50
90.0
 51
270.0
  0
ARC
  5
44B3
  8
0
  6
BYBLOCK
 62
     0
 10
27405.675727999958
 20
14144.316444999969
 30
0.0
 40
15.0
 50
270.0
 51
90.0
  0
ARC
  5
44B4
  8
0
  6
BYBLOCK
 62
     0
 10
27405.675727999958
 20
14101.819149999979
 30
0.0
 40
15.0
 50
270.0
 51
90.0
  0
ARC
  5
44B5
  8
0
  6
BYBLOCK
 62
     0
 10
27405.675727999958
 20
14101.819149999979
 30
0.0
 40
15.0
 50
90.0
 51
270.0
  0
ARC
  5
44B6
  8
0
  6
BYBLOCK
 62
     0
 10
20495.171834500001
 20
20752.817632999999
 30
0.0
 40
15.0
 50
0.0
 51
180.0
  0
ARC
  5
44B7
  8
0
  6
BYBLOCK
 62
     0
 10
20495.171834500001
 20
20752.817632999999
 30
0.0
 40
15.0
 50
180.0
 51
0.0
  0
ARC
  5
44B8
  8
0
  6
BYBLOCK
 62
     0
 10
22995.176123999961
 20
20752.817632999999
 30
0.0
 40
15.0
 50
180.0
 51
0.0
  0
ARC
  5
44B9
  8
0
  6
BYBLOCK
 62
     0
 10
22995.176123999961
 20
20752.817632999999
 30
0.0
 40
15.0
 50
0.0
 51
180.0
  0
ARC
  5
44BA
  8
0
  6
BYBLOCK
 62
     0
 10
25155.176123999961
 20
20752.817632999999
 30
0.0
 40
15.0
 50
0.0
 51
180.0
  0
ARC
  5
44BB
  8
0
  6
BYBLOCK
 62
     0
 10
25155.176123999961
 20
20752.817632999999
 30
0.0
 40
15.0
 50
180.0
 51
0.0
  0
ARC
  5
44BC
  8
0
  6
BYBLOCK
 62
     0
 10
25913.17711349998
 20
20752.817632999999
 30
0.0
 40
15.0
 50
180.0
 51
0.0
  0
ARC
  5
44BD
  8
0
  6
BYBLOCK
 62
     0
 10
25913.17711349998
 20
20752.817632999999
 30
0.0
 40
15.0
 50
0.0
 51
180.0
  0
ARC
  5
44BE
  8
0
  6
BYBLOCK
 62
     0
 10
24454.176123999961
 20
20752.817632999999
 30
0.0
 40
15.0
 50
0.0
 51
180.0
  0
ARC
  5
44BF
  8
0
  6
BYBLOCK
 62
     0
 10
24454.176123999961
 20
20752.817632999999
 30
0.0
 40
15.0
 50
180.0
 51
0.0
  0
ARC
  5
44C0
  8
0
  6
BYBLOCK
 62
     0
 10
25155.176123999961
 20
20752.817632999999
 30
0.0
 40
15.0
 50
180.0
 51
0.0
  0
ARC
  5
44C1
  8
0
  6
BYBLOCK
 62
     0
 10
25155.176123999961
 20
20752.817632999999
 30
0.0
 40
15.0
 50
0.0
 51
180.0
  0
ARC
  5
44C2
  8
0
  6
BYBLOCK
 62
     0
 10
23753.176123999961
 20
20752.817632999999
 30
0.0
 40
15.0
 50
0.0
 51
180.0
  0
ARC
  5
44C3
  8
0
  6
BYBLOCK
 62
     0
 10
23753.176123999961
 20
20752.817632999999
 30
0.0
 40
15.0
 50
180.0
 51
0.0
  0
ARC
  5
44C4
  8
0
  6
BYBLOCK
 62
     0
 10
24454.176123999961
 20
20752.817632999999
 30
0.0
 40
15.0
 50
180.0
 51
0.0
  0
ARC
  5
44C5
  8
0
  6
BYBLOCK
 62
     0
 10
24454.176123999961
 20
20752.817632999999
 30
0.0
 40
15.0
 50
0.0
 51
180.0
  0
ARC
  5
44C6
  8
0
  6
BYBLOCK
 62
     0
 10
25913.176123999961
 20
20752.817632999999
 30
0.0
 40
15.0
 50
180.0
 51
0.0
  0
ARC
  5
44C7
  8
0
  6
BYBLOCK
 62
     0
 10
25913.176123999961
 20
20752.817632999999
 30
0.0
 40
15.0
 50
0.0
 51
180.0
  0
ARC
  5
44C8
  8
0
  6
BYBLOCK
 62
     0
 10
25955.672428999958
 20
20752.817632999999
 30
0.0
 40
15.0
 50
0.0
 51
180.0
  0
ARC
  5
44C9
  8
0
  6
BYBLOCK
 62
     0
 10
25955.672428999958
 20
20752.817632999999
 30
0.0
 40
15.0
 50
180.0
 51
0.0
  0
ARC
  5
44CA
  8
0
  6
BYBLOCK
 62
     0
 10
17577.170844999979
 20
20752.817632999999
 30
0.0
 40
15.0
 50
0.0
 51
180.0
  0
ARC
  5
44CB
  8
0
  6
BYBLOCK
 62
     0
 10
17577.170844999979
 20
20752.817632999999
 30
0.0
 40
15.0
 50
180.0
 51
0.0
  0
ARC
  5
44CC
  8
0
  6
BYBLOCK
 62
     0
 10
17534.674539999989
 20
20752.817632999999
 30
0.0
 40
15.0
 50
180.0
 51
0.0
  0
ARC
  5
44CD
  8
0
  6
BYBLOCK
 62
     0
 10
17534.674539999989
 20
20752.817632999999
 30
0.0
 40
15.0
 50
0.0
 51
180.0
  0
ARC
  5
44CE
  8
0
  6
BYBLOCK
 62
     0
 10
19737.17084499999
 20
20752.817632999999
 30
0.0
 40
15.0
 50
0.0
 51
180.0
  0
ARC
  5
44CF
  8
0
  6
BYBLOCK
 62
     0
 10
19737.17084499999
 20
20752.817632999999
 30
0.0
 40
15.0
 50
180.0
 51
0.0
  0
ARC
  5
44D0
  8
0
  6
BYBLOCK
 62
     0
 10
20495.171834500001
 20
20752.817632999999
 30
0.0
 40
15.0
 50
180.0
 51
0.0
  0
ARC
  5
44D1
  8
0
  6
BYBLOCK
 62
     0
 10
20495.171834500001
 20
20752.817632999999
 30
0.0
 40
15.0
 50
0.0
 51
180.0
  0
ARC
  5
44D2
  8
0
  6
BYBLOCK
 62
     0
 10
19036.17084499999
 20
20752.817632999999
 30
0.0
 40
15.0
 50
0.0
 51
180.0
  0
ARC
  5
44D3
  8
0
  6
BYBLOCK
 62
     0
 10
19036.17084499999
 20
20752.817632999999
 30
0.0
 40
15.0
 50
180.0
 51
0.0
  0
ARC
  5
44D4
  8
0
  6
BYBLOCK
 62
     0
 10
19737.17084499999
 20
20752.817632999999
 30
0.0
 40
15.0
 50
180.0
 51
0.0
  0
ARC
  5
44D5
  8
0
  6
BYBLOCK
 62
     0
 10
19737.17084499999
 20
20752.817632999999
 30
0.0
 40
15.0
 50
0.0
 51
180.0
  0
ARC
  5
44D6
  8
0
  6
BYBLOCK
 62
     0
 10
18335.170844999979
 20
20752.817632999999
 30
0.0
 40
15.0
 50
0.0
 51
180.0
  0
ARC
  5
44D7
  8
0
  6
BYBLOCK
 62
     0
 10
18335.170844999979
 20
20752.817632999999
 30
0.0
 40
15.0
 50
180.0
 51
0.0
  0
ARC
  5
44D8
  8
0
  6
BYBLOCK
 62
     0
 10
19036.17084499999
 20
20752.817632999999
 30
0.0
 40
15.0
 50
180.0
 51
0.0
  0
ARC
  5
44D9
  8
0
  6
BYBLOCK
 62
     0
 10
19036.17084499999
 20
20752.817632999999
 30
0.0
 40
15.0
 50
0.0
 51
180.0
  0
ARC
  5
44DA
  8
0
  6
BYBLOCK
 62
     0
 10
5988.2754960000084
 20
9580.8819269999985
 30
0.0
 40
15.0
 50
0.0
 51
180.0
  0
ARC
  5
44DB
  8
0
  6
BYBLOCK
 62
     0
 10
5988.2754960000084
 20
9580.8819269999985
 30
0.0
 40
15.0
 50
180.0
 51
0.0
  0
ARC
  5
44DC
  8
0
  6
BYBLOCK
 62
     0
 10
12239.275496
 20
9580.8819269999985
 30
0.0
 40
15.0
 50
180.0
 51
0.0
  0
ARC
  5
44DD
  8
0
  6
BYBLOCK
 62
     0
 10
12239.275496
 20
9580.8819269999985
 30
0.0
 40
15.0
 50
0.0
 51
180.0
  0
ARC
  5
44DE
  8
0
  6
BYBLOCK
 62
     0
 10
12089.27674900001
 20
9180.8835770000005
 30
0.0
 40
15.0
 50
180.0
 51
0.0
  0
ARC
  5
44DF
  8
0
  6
BYBLOCK
 62
     0
 10
12089.27674900001
 20
9180.8835770000005
 30
0.0
 40
15.0
 50
0.0
 51
180.0
  0
ARC
  5
44E0
  8
0
  6
BYBLOCK
 62
     0
 10
12239.275496
 20
9180.8835770000005
 30
0.0
 40
15.0
 50
0.0
 51
180.0
  0
ARC
  5
44E1
  8
0
  6
BYBLOCK
 62
     0
 10
12239.275496
 20
9180.8835770000005
 30
0.0
 40
15.0
 50
180.0
 51
0.0
  0
ARC
  5
44E2
  8
0
  6
BYBLOCK
 62
     0
 10
6168.2742420000059
 20
9180.8835770000005
 30
0.0
 40
15.0
 50
0.0
 51
180.0
  0
ARC
  5
44E3
  8
0
  6
BYBLOCK
 62
     0
 10
6168.2742420000059
 20
9180.8835770000005
 30
0.0
 40
15.0
 50
180.0
 51
0.0
  0
ARC
  5
44E4
  8
0
  6
BYBLOCK
 62
     0
 10
12089.27674900001
 20
9180.8835770000005
 30
0.0
 40
15.0
 50
180.0
 51
0.0
  0
ARC
  5
44E5
  8
0
  6
BYBLOCK
 62
     0
 10
12089.27674900001
 20
9180.8835770000005
 30
0.0
 40
15.0
 50
0.0
 51
180.0
  0
ARC
  5
44E6
  8
0
  6
BYBLOCK
 62
     0
 10
5988.2754960000084
 20
9180.8835769999969
 30
0.0
 40
15.0
 50
180.0
 51
0.0
  0
ARC
  5
44E7
  8
0
  6
BYBLOCK
 62
     0
 10
5988.2754960000084
 20
9180.8835769999969
 30
0.0
 40
15.0
 50
0.0
 51
180.0
  0
ARC
  5
44E8
  8
0
  6
BYBLOCK
 62
     0
 10
6168.2742420000059
 20
9180.8835769999969
 30
0.0
 40
15.0
 50
0.0
 51
180.0
  0
ARC
  5
44E9
  8
0
  6
BYBLOCK
 62
     0
 10
6168.2742420000059
 20
9180.8835769999969
 30
0.0
 40
15.0
 50
180.0
 51
0.0
  0
ARC
  5
44EA
  8
0
  6
BYBLOCK
 62
     0
 10
5078.2770780000064
 20
6032.8828909999984
 30
0.0
 40
15.0
 50
90.0
 51
270.0
  0
ARC
  5
44EB
  8
0
  6
BYBLOCK
 62
     0
 10
5078.2770780000064
 20
6032.8828909999984
 30
0.0
 40
15.0
 50
270.0
 51
90.0
  0
ARC
  5
44EC
  8
0
  6
BYBLOCK
 62
     0
 10
5078.2770780000064
 20
8189.3828909999993
 30
0.0
 40
15.0
 50
270.0
 51
90.0
  0
ARC
  5
44ED
  8
0
  6
BYBLOCK
 62
     0
 10
5078.2770780000064
 20
8189.3828909999993
 30
0.0
 40
15.0
 50
90.0
 51
270.0
  0
ARC
  5
44EE
  8
0
  6
BYBLOCK
 62
     0
 10
13179.274901000001
 20
6032.8828909999984
 30
0.0
 40
15.0
 50
90.0
 51
270.0
  0
ARC
  5
44EF
  8
0
  6
BYBLOCK
 62
     0
 10
13179.274901000001
 20
6032.8828909999984
 30
0.0
 40
15.0
 50
270.0
 51
90.0
  0
ARC
  5
44F0
  8
0
  6
BYBLOCK
 62
     0
 10
13179.274901000001
 20
8381.3828909999957
 30
0.0
 40
15.0
 50
270.0
 51
90.0
  0
ARC
  5
44F1
  8
0
  6
BYBLOCK
 62
     0
 10
13179.274901000001
 20
8381.3828909999957
 30
0.0
 40
15.0
 50
90.0
 51
270.0
  0
ARC
  5
44F2
  8
0
  6
BYBLOCK
 62
     0
 10
6168.2754960000102
 20
4332.8827260000016
 30
0.0
 40
15.0
 50
0.0
 51
180.0
  0
ARC
  5
44F3
  8
0
  6
BYBLOCK
 62
     0
 10
6168.2754960000102
 20
4332.8827260000016
 30
0.0
 40
15.0
 50
180.0
 51
0.0
  0
ARC
  5
44F4
  8
0
  6
BYBLOCK
 62
     0
 10
12089.275496
 20
4332.8827260000016
 30
0.0
 40
15.0
 50
180.0
 51
0.0
  0
ARC
  5
44F5
  8
0
  6
BYBLOCK
 62
     0
 10
12089.275496
 20
4332.8827260000016
 30
0.0
 40
15.0
 50
0.0
 51
180.0
  0
ARC
  5
44F6
  8
0
  6
BYBLOCK
 62
     0
 10
12046.775496
 20
4732.8825610000004
 30
0.0
 40
15.0
 50
180.0
 51
0.0
  0
ARC
  5
44F7
  8
0
  6
BYBLOCK
 62
     0
 10
12046.775496
 20
4732.8825610000004
 30
0.0
 40
15.0
 50
0.0
 51
180.0
  0
ARC
  5
44F8
  8
0
  6
BYBLOCK
 62
     0
 10
12089.275496
 20
4732.8825610000004
 30
0.0
 40
15.0
 50
0.0
 51
180.0
  0
ARC
  5
44F9
  8
0
  6
BYBLOCK
 62
     0
 10
12089.275496
 20
4732.8825610000004
 30
0.0
 40
15.0
 50
180.0
 51
0.0
  0
ARC
  5
44FA
  8
0
  6
BYBLOCK
 62
     0
 10
6210.7754960000084
 20
4732.8825610000004
 30
0.0
 40
15.0
 50
0.0
 51
180.0
  0
ARC
  5
44FB
  8
0
  6
BYBLOCK
 62
     0
 10
6210.7754960000084
 20
4732.8825610000004
 30
0.0
 40
15.0
 50
180.0
 51
0.0
  0
ARC
  5
44FC
  8
0
  6
BYBLOCK
 62
     0
 10
6168.2754960000102
 20
4732.8825610000004
 30
0.0
 40
15.0
 50
180.0
 51
0.0
  0
ARC
  5
44FD
  8
0
  6
BYBLOCK
 62
     0
 10
6168.2754960000102
 20
4732.8825610000004
 30
0.0
 40
15.0
 50
0.0
 51
180.0
  0
ARC
  5
44FE
  8
0
  6
BYBLOCK
 62
     0
 10
9128.7754960000093
 20
4732.8825610000004
 30
0.0
 40
15.0
 50
180.0
 51
0.0
  0
ARC
  5
44FF
  8
0
  6
BYBLOCK
 62
     0
 10
9128.7754960000093
 20
4732.8825610000004
 30
0.0
 40
15.0
 50
0.0
 51
180.0
  0
ARC
  5
4500
  8
0
  6
BYBLOCK
 62
     0
 10
6210.7754960000084
 20
4732.8825610000004
 30
0.0
 40
15.0
 50
0.0
 51
180.0
  0
ARC
  5
4501
  8
0
  6
BYBLOCK
 62
     0
 10
6210.7754960000084
 20
4732.8825610000004
 30
0.0
 40
15.0
 50
180.0
 51
0.0
  0
ARC
  5
4502
  8
0
  6
BYBLOCK
 62
     0
 10
9128.7754960000093
 20
4732.8825610000004
 30
0.0
 40
15.0
 50
0.0
 51
180.0
  0
ARC
  5
4503
  8
0
  6
BYBLOCK
 62
     0
 10
9128.7754960000093
 20
4732.8825610000004
 30
0.0
 40
15.0
 50
180.0
 51
0.0
  0
ARC
  5
4504
  8
0
  6
BYBLOCK
 62
     0
 10
12046.775496
 20
4732.8825610000004
 30
0.0
 40
15.0
 50
180.0
 51
0.0
  0
ARC
  5
4505
  8
0
  6
BYBLOCK
 62
     0
 10
12046.775496
 20
4732.8825610000004
 30
0.0
 40
15.0
 50
0.0
 51
180.0
  0
LINE
  5
464B
  8
0-1
  6
CONTINUOUS
 62
     3
 10
25849.67910599996
 20
8131.3834059999954
 30
0.0
 11
25849.67910599996
 21
8163.383312999993
 31
0.0
  0
LINE
  5
464C
  8
0-1
  6
CONTINUOUS
 62
     3
 10
25998.678498999961
 20
8055.1966839999941
 30
0.0
 11
25955.67638799996
 21
8055.1966839999941
 31
0.0
  0
LINE
  5
464D
  8
0-1
  6
CONTINUOUS
 62
     3
 10
25998.678498999961
 20
8381.3837349999922
 30
0.0
 11
25998.678498999961
 21
8055.1966839999941
 31
0.0
  0
LINE
  5
464E
  8
0-1
  6
CONTINUOUS
 62
     3
 10
25563.71191299997
 20
8127.8479849999931
 30
0.0
 11
25531.712995999958
 21
8159.8478929999892
 31
0.0
  0
LINE
  5
464F
  8
0-1
  6
CONTINUOUS
 62
     3
 10
25844.678841999961
 20
8168.383576999996
 30
0.0
 11
25535.248415999959
 21
8168.383576999996
 31
0.0
  0
LINE
  5
4650
  8
0-1
  6
CONTINUOUS
 62
     3
 10
25849.67910599996
 20
8159.9844799999964
 30
0.0
 11
25531.58234699997
 21
8159.9844799999964
 31
0.0
  0
LINE
  5
4651
  8
0-1
  6
CONTINUOUS
 62
     3
 10
25844.678841999961
 20
8126.383141999996
 30
0.0
 11
25567.24931299996
 21
8126.383141999996
 31
0.0
  0
LINE
  5
4652
  8
0-1
  6
CONTINUOUS
 62
     3
 10
25849.67910599996
 20
8134.7832289999906
 30
0.0
 11
25556.77765999996
 21
8134.7832289999906
 31
0.0
  0
LINE
  5
4653
  8
0-1
  6
CONTINUOUS
 62
     3
 10
25849.67910599996
 20
8143.1833159999906
 30
0.0
 11
25548.378561999962
 21
8143.1833159999906
 31
0.0
  0
LINE
  5
4654
  8
0-1
  6
CONTINUOUS
 62
     3
 10
25849.67910599996
 20
8151.5843929999965
 30
0.0
 11
25539.97748599996
 21
8151.5843929999965
 31
0.0
  0
LINE
  5
4655
  8
0-1
  6
CONTINUOUS
 62
     3
 10
23344.64231399999
 20
8127.8479849999931
 30
0.0
 11
23376.63925199999
 21
8159.8478929999892
 31
0.0
  0
LINE
  5
4656
  8
0-1
  6
CONTINUOUS
 62
     3
 10
23058.677099999979
 20
8131.3834059999954
 30
0.0
 11
23058.677099999979
 21
8163.383312999993
 31
0.0
  0
LINE
  5
4657
  8
0-1
  6
CONTINUOUS
 62
     3
 10
22931.675146999991
 20
8131.3834059999954
 30
0.0
 11
22931.675146999991
 21
8163.383312999993
 31
0.0
  0
LINE
  5
4658
  8
0-1
  6
CONTINUOUS
 62
     3
 10
23058.677099999979
 20
8134.7832289999906
 30
0.0
 11
23351.574587999981
 21
8134.7832289999906
 31
0.0
  0
LINE
  5
4659
  8
0-1
  6
CONTINUOUS
 62
     3
 10
23058.677099999979
 20
8143.1833159999906
 30
0.0
 11
23359.975664999991
 21
8143.1833159999906
 31
0.0
  0
LINE
  5
465A
  8
0-1
  6
CONTINUOUS
 62
     3
 10
23063.677363999981
 20
8126.383141999996
 30
0.0
 11
23341.104913999981
 21
8126.383141999996
 31
0.0
  0
LINE
  5
465B
  8
0-1
  6
CONTINUOUS
 62
     3
 10
23058.677099999979
 20
8151.5843929999965
 30
0.0
 11
23368.374761999989
 21
8151.5843929999965
 31
0.0
  0
LINE
  5
465C
  8
0-1
  6
CONTINUOUS
 62
     3
 10
23058.677099999979
 20
8159.9844799999964
 30
0.0
 11
23376.771879999978
 21
8159.9844799999964
 31
0.0
  0
LINE
  5
465D
  8
0-1
  6
CONTINUOUS
 62
     3
 10
23063.677363999981
 20
8168.383576999996
 30
0.0
 11
23373.105811000001
 21
8168.383576999996
 31
0.0
  0
LINE
  5
465E
  8
0-1
  6
CONTINUOUS
 62
     3
 10
22645.709933999991
 20
8127.8479849999931
 30
0.0
 11
22613.71299599998
 21
8159.8478929999892
 31
0.0
  0
LINE
  5
465F
  8
0-1
  6
CONTINUOUS
 62
     3
 10
22926.67686299999
 20
8126.383141999996
 30
0.0
 11
22649.245353999991
 21
8126.383141999996
 31
0.0
  0
LINE
  5
4660
  8
0-1
  6
CONTINUOUS
 62
     3
 10
22926.67686299999
 20
8168.383576999996
 30
0.0
 11
22617.246435999969
 21
8168.383576999996
 31
0.0
  0
LINE
  5
4661
  8
0-1
  6
CONTINUOUS
 62
     3
 10
22931.675146999991
 20
8134.7832289999906
 30
0.0
 11
22638.777659999982
 21
8134.7832289999906
 31
0.0
  0
LINE
  5
4662
  8
0-1
  6
CONTINUOUS
 62
     3
 10
22931.675146999991
 20
8143.1833159999906
 30
0.0
 11
22630.376582999968
 21
8143.1833159999906
 31
0.0
  0
LINE
  5
4663
  8
0-1
  6
CONTINUOUS
 62
     3
 10
22931.675146999991
 20
8151.5843929999965
 30
0.0
 11
22621.977485999982
 21
8151.5843929999965
 31
0.0
  0
LINE
  5
4664
  8
0-1
  6
CONTINUOUS
 62
     3
 10
22931.675146999991
 20
8159.9844799999964
 30
0.0
 11
22613.582347999982
 21
8159.9844799999964
 31
0.0
  0
LINE
  5
4665
  8
0-1
  6
CONTINUOUS
 62
     3
 10
21904.28322899999
 20
7940.8834449999904
 30
0.0
 11
23710.67113599999
 21
7940.8834449999904
 31
0.0
  0
LINE
  5
4666
  8
0-1
  6
CONTINUOUS
 62
     3
 10
21904.28322899999
 20
8117.3832599999951
 30
0.0
 11
22952.677839999971
 21
8117.3832599999951
 31
0.0
  0
LINE
  5
4667
  8
0-1
  6
CONTINUOUS
 62
     3
 10
21904.28322899999
 20
8177.3834579999948
 30
0.0
 11
22952.677839999971
 21
8177.3834579999948
 31
0.0
  0
LINE
  5
4668
  8
0-1
  6
CONTINUOUS
 62
     3
 10
25998.678498999961
 20
8251.3828119999926
 30
0.0
 11
21904.28322899999
 21
8251.3828119999926
 31
0.0
  0
LINE
  5
4669
  8
0-1
  6
CONTINUOUS
 62
     3
 10
23037.674407999992
 20
8177.3834579999948
 30
0.0
 11
25870.67783899996
 21
8177.3834579999948
 31
0.0
  0
LINE
  5
466A
  8
0-1
  6
CONTINUOUS
 62
     3
 10
23037.674407999992
 20
8117.3832599999951
 30
0.0
 11
25870.67783899996
 21
8117.3832599999951
 31
0.0
  0
LINE
  5
466B
  8
0-1
  6
CONTINUOUS
 62
     3
 10
23037.674407999992
 20
7940.8834449999904
 30
0.0
 11
25870.67783899996
 21
7940.8834449999904
 31
0.0
  0
LINE
  5
466C
  8
0-1
  6
CONTINUOUS
 62
     3
 10
21904.28322899999
 20
8381.3837349999922
 30
0.0
 11
25998.678498999961
 21
8381.3837349999922
 31
0.0
  0
LINE
  5
466D
  8
0-1
  6
CONTINUOUS
 62
     3
 10
20558.671821999989
 20
8134.7832289999906
 30
0.0
 11
20851.573267999989
 21
8134.7832289999906
 31
0.0
  0
LINE
  5
466E
  8
0-1
  6
CONTINUOUS
 62
     3
 10
20558.671821999989
 20
8143.1833159999906
 30
0.0
 11
20859.97038599999
 21
8143.1833159999906
 31
0.0
  0
LINE
  5
466F
  8
0-1
  6
CONTINUOUS
 62
     3
 10
20563.67208599997
 20
8126.383141999996
 30
0.0
 11
20841.101614999981
 21
8126.383141999996
 31
0.0
  0
LINE
  5
4670
  8
0-1
  6
CONTINUOUS
 62
     3
 10
20558.671821999989
 20
8151.5843929999965
 30
0.0
 11
20868.373441999989
 21
8151.5843929999965
 31
0.0
  0
LINE
  5
4671
  8
0-1
  6
CONTINUOUS
 62
     3
 10
20563.67208599997
 20
8168.383576999996
 30
0.0
 11
20873.100532999972
 21
8168.383576999996
 31
0.0
  0
LINE
  5
4672
  8
0-1
  6
CONTINUOUS
 62
     3
 10
20558.671821999989
 20
8131.3834059999954
 30
0.0
 11
20558.671821999989
 21
8163.383312999993
 31
0.0
  0
LINE
  5
4673
  8
0-1
  6
CONTINUOUS
 62
     3
 10
20431.66986899999
 20
8131.3834059999954
 30
0.0
 11
20431.66986899999
 21
8163.383312999993
 31
0.0
  0
LINE
  5
4674
  8
0-1
  6
CONTINUOUS
 62
     3
 10
20558.671821999989
 20
8159.9844799999964
 30
0.0
 11
20876.766600999981
 21
8159.9844799999964
 31
0.0
  0
LINE
  5
4675
  8
0-1
  6
CONTINUOUS
 62
     3
 10
20844.637034999982
 20
8127.8479849999931
 30
0.0
 11
20876.633972999989
 21
8159.8478929999892
 31
0.0
  0
LINE
  5
4676
  8
0-1
  6
CONTINUOUS
 62
     3
 10
20145.708613999981
 20
8127.8479849999931
 30
0.0
 11
20113.70771699999
 21
8159.8478929999892
 31
0.0
  0
LINE
  5
4677
  8
0-1
  6
CONTINUOUS
 62
     3
 10
20431.66986899999
 20
8159.9844799999964
 30
0.0
 11
20113.577068999992
 21
8159.9844799999964
 31
0.0
  0
LINE
  5
4678
  8
0-1
  6
CONTINUOUS
 62
     3
 10
20431.66986899999
 20
8151.5843929999965
 30
0.0
 11
20121.972206999992
 21
8151.5843929999965
 31
0.0
  0
LINE
  5
4679
  8
0-1
  6
CONTINUOUS
 62
     3
 10
20431.66986899999
 20
8143.1833159999906
 30
0.0
 11
20130.371303999978
 21
8143.1833159999906
 31
0.0
  0
LINE
  5
467A
  8
0-1
  6
CONTINUOUS
 62
     3
 10
20431.66986899999
 20
8134.7832289999906
 30
0.0
 11
20138.770401999991
 21
8134.7832289999906
 31
0.0
  0
LINE
  5
467B
  8
0-1
  6
CONTINUOUS
 62
     3
 10
20426.671583999989
 20
8168.383576999996
 30
0.0
 11
20117.241157999979
 21
8168.383576999996
 31
0.0
  0
LINE
  5
467C
  8
0-1
  6
CONTINUOUS
 62
     3
 10
20426.671583999989
 20
8126.383141999996
 30
0.0
 11
20149.244034999982
 21
8126.383141999996
 31
0.0
  0
LINE
  5
467D
  8
0-1
  6
CONTINUOUS
 62
     3
 10
17645.67010599999
 20
8126.383141999996
 30
0.0
 11
17923.099635999992
 21
8126.383141999996
 31
0.0
  0
LINE
  5
467E
  8
0-1
  6
CONTINUOUS
 62
     3
 10
17640.671821999978
 20
8131.3834059999954
 30
0.0
 11
17640.671821999978
 21
8163.383312999993
 31
0.0
  0
LINE
  5
467F
  8
0-1
  6
CONTINUOUS
 62
     3
 10
17491.67044999998
 20
8055.1966839999941
 30
0.0
 11
17534.668602000002
 21
8055.1966839999941
 31
0.0
  0
LINE
  5
4680
  8
0-1
  6
CONTINUOUS
 62
     3
 10
17491.67044999998
 20
8055.1966839999941
 30
0.0
 11
17491.67044999998
 21
8381.3837349999922
 31
0.0
  0
LINE
  5
4681
  8
0-1
  6
CONTINUOUS
 62
     3
 10
17645.67010599999
 20
8168.383576999996
 30
0.0
 11
17955.10053299999
 21
8168.383576999996
 31
0.0
  0
LINE
  5
4682
  8
0-1
  6
CONTINUOUS
 62
     3
 10
17926.633075999991
 20
8127.8479849999931
 30
0.0
 11
17958.633973999989
 21
8159.8478929999892
 31
0.0
  0
LINE
  5
4683
  8
0-1
  6
CONTINUOUS
 62
     3
 10
17640.671821999978
 20
8159.9844799999964
 30
0.0
 11
17958.766600999999
 21
8159.9844799999964
 31
0.0
  0
LINE
  5
4684
  8
0-1
  6
CONTINUOUS
 62
     3
 10
17640.671821999978
 20
8151.5843929999965
 30
0.0
 11
17950.369483999992
 21
8151.5843929999965
 31
0.0
  0
LINE
  5
4685
  8
0-1
  6
CONTINUOUS
 62
     3
 10
17640.671821999978
 20
8143.1833159999906
 30
0.0
 11
17941.970386000001
 21
8143.1833159999906
 31
0.0
  0
LINE
  5
4686
  8
0-1
  6
CONTINUOUS
 62
     3
 10
17640.671821999978
 20
8134.7832289999906
 30
0.0
 11
17933.571289
 21
8134.7832289999906
 31
0.0
  0
LINE
  5
4687
  8
0-1
  6
CONTINUOUS
 62
     3
 10
17619.669129999998
 20
7940.8834449999904
 30
0.0
 11
20452.670580999991
 21
7940.8834449999904
 31
0.0
  0
LINE
  5
4688
  8
0-1
  6
CONTINUOUS
 62
     3
 10
17619.669129999998
 20
8117.3832599999951
 30
0.0
 11
20452.670580999991
 21
8117.3832599999951
 31
0.0
  0
LINE
  5
4689
  8
0-1
  6
CONTINUOUS
 62
     3
 10
17619.669129999998
 20
8177.3834579999948
 30
0.0
 11
20452.670580999991
 21
8177.3834579999948
 31
0.0
  0
LINE
  5
468A
  8
0-1
  6
CONTINUOUS
 62
     3
 10
17491.67044999998
 20
8381.3837349999922
 30
0.0
 11
21604.283229000001
 21
8381.3837349999922
 31
0.0
  0
LINE
  5
468B
  8
0-1
  6
CONTINUOUS
 62
     3
 10
20537.673088999982
 20
8177.3834579999948
 30
0.0
 11
21604.283229000001
 21
8177.3834579999948
 31
0.0
  0
LINE
  5
468C
  8
0-1
  6
CONTINUOUS
 62
     3
 10
20537.673088999982
 20
8117.3832599999951
 30
0.0
 11
21604.283229000001
 21
8117.3832599999951
 31
0.0
  0
LINE
  5
468D
  8
0-1
  6
CONTINUOUS
 62
     3
 10
20537.673088999982
 20
7940.8834449999904
 30
0.0
 11
21604.283229000001
 21
7940.8834449999904
 31
0.0
  0
LINE
  5
468E
  8
0-1
  6
CONTINUOUS
 62
     3
 10
21604.283229000001
 20
8251.3828119999926
 30
0.0
 11
17491.67044999998
 21
8251.3828119999926
 31
0.0
  0
LINE
  5
468F
  8
0-1
  6
CONTINUOUS
 62
     3
 10
20495.17084499999
 20
8251.3828119999926
 30
0.0
 11
20495.17084499999
 21
8381.3837349999922
 31
0.0
  0
LINE
  5
4690
  8
0-1
  6
CONTINUOUS
 62
     3
 10
22995.176123999961
 20
8251.3828119999926
 30
0.0
 11
22995.176123999961
 21
8381.3837349999922
 31
0.0
  0
ARC
  5
4691
  8
0-1
  6
CONTINUOUS
 62
     3
 10
25844.678841999961
 20
8163.383312999993
 30
0.0
 40
5.0
 50
0.0
 51
90.0
  0
ARC
  5
4692
  8
0-1
  6
CONTINUOUS
 62
     3
 10
25844.678841999961
 20
8131.3834059999954
 30
0.0
 40
5.0
 50
269.9999850001808
 51
0.0
  0
ARC
  5
4693
  8
0-1
  6
CONTINUOUS
 62
     3
 10
25535.248415999959
 20
8163.383312999993
 30
0.0
 40
5.0
 50
90.0
 51
224.99998499997989
  0
ARC
  5
4694
  8
0-1
  6
CONTINUOUS
 62
     3
 10
25567.24931299996
 20
8131.3834059999954
 30
0.0
 40
5.0
 50
224.99998499997989
 51
269.9999850001808
  0
ARC
  5
4695
  8
0-1
  6
CONTINUOUS
 62
     3
 10
23373.105811000001
 20
8163.383312999993
 30
0.0
 40
5.0
 50
314.99998500027471
 51
90.0
  0
ARC
  5
4696
  8
0-1
  6
CONTINUOUS
 62
     3
 10
23341.104913999981
 20
8131.3834059999954
 30
0.0
 40
5.0
 50
269.9999850001808
 51
314.99998500027471
  0
ARC
  5
4697
  8
0-1
  6
CONTINUOUS
 62
     3
 10
23063.677363999981
 20
8131.3834059999954
 30
0.0
 40
5.0
 50
180.0
 51
269.9999850001808
  0
ARC
  5
4698
  8
0-1
  6
CONTINUOUS
 62
     3
 10
23063.677363999981
 20
8163.383312999993
 30
0.0
 40
5.0
 50
90.0
 51
180.0
  0
ARC
  5
4699
  8
0-1
  6
CONTINUOUS
 62
     3
 10
22926.67686299999
 20
8163.383312999993
 30
0.0
 40
5.0
 50
0.0
 51
90.0
  0
ARC
  5
469A
  8
0-1
  6
CONTINUOUS
 62
     3
 10
22926.67686299999
 20
8131.3834059999954
 30
0.0
 40
5.0
 50
269.9999850001808
 51
0.0
  0
ARC
  5
469B
  8
0-1
  6
CONTINUOUS
 62
     3
 10
22649.245353999991
 20
8131.3834059999954
 30
0.0
 40
5.0
 50
224.99998499997989
 51
269.9999850001808
  0
ARC
  5
469C
  8
0-1
  6
CONTINUOUS
 62
     3
 10
22617.246435999969
 20
8163.383312999993
 30
0.0
 40
5.0
 50
90.0
 51
224.99998499997989
  0
ARC
  5
469D
  8
0-1
  6
CONTINUOUS
 62
     3
 10
20563.67208599997
 20
8131.3834059999954
 30
0.0
 40
5.0
 50
180.0
 51
269.9999850001808
  0
ARC
  5
469E
  8
0-1
  6
CONTINUOUS
 62
     3
 10
20563.67208599997
 20
8163.383312999993
 30
0.0
 40
5.0
 50
90.0
 51
180.0
  0
ARC
  5
469F
  8
0-1
  6
CONTINUOUS
 62
     3
 10
20841.101614999981
 20
8131.3834059999954
 30
0.0
 40
5.0
 50
269.9999850001808
 51
314.99998500027471
  0
ARC
  5
46A0
  8
0-1
  6
CONTINUOUS
 62
     3
 10
20426.671583999989
 20
8131.3834059999954
 30
0.0
 40
5.0
 50
269.9999850001808
 51
0.0
  0
ARC
  5
46A1
  8
0-1
  6
CONTINUOUS
 62
     3
 10
20426.671583999989
 20
8163.383312999993
 30
0.0
 40
5.0
 50
0.0
 51
90.0
  0
ARC
  5
46A2
  8
0-1
  6
CONTINUOUS
 62
     3
 10
20873.100532999972
 20
8163.383312999993
 30
0.0
 40
5.0
 50
314.99998500027471
 51
90.0
  0
ARC
  5
46A3
  8
0-1
  6
CONTINUOUS
 62
     3
 10
20117.241157999979
 20
8163.383312999993
 30
0.0
 40
5.0
 50
90.0
 51
224.99998499997989
  0
ARC
  5
46A4
  8
0-1
  6
CONTINUOUS
 62
     3
 10
20149.244034999982
 20
8131.3834059999954
 30
0.0
 40
5.0
 50
224.99998499997989
 51
269.9999850001808
  0
ARC
  5
46A5
  8
0-1
  6
CONTINUOUS
 62
     3
 10
17955.10053299999
 20
8163.383312999993
 30
0.0
 40
5.0
 50
314.99998500027471
 51
90.0
  0
ARC
  5
46A6
  8
0-1
  6
CONTINUOUS
 62
     3
 10
17645.67010599999
 20
8163.383312999993
 30
0.0
 40
5.0
 50
90.0
 51
180.0
  0
ARC
  5
46A7
  8
0-1
  6
CONTINUOUS
 62
     3
 10
17645.67010599999
 20
8131.3834059999954
 30
0.0
 40
5.0
 50
180.0
 51
269.9999850001808
  0
ARC
  5
46A8
  8
0-1
  6
CONTINUOUS
 62
     3
 10
17923.099635999992
 20
8131.3834059999954
 30
0.0
 40
5.0
 50
269.9999850001808
 51
314.99998500027471
  0
LINE
  5
46A9
  8
SUNPOU
  6
CONTINUOUS
 62
     4
 10
17491.668469999979
 20
8461.383734999994
 30
0.0
 11
17491.668469999979
 21
9660.8413469999941
 31
0.0
  0
LINE
  5
46AA
  8
SUNPOU
  6
CONTINUOUS
 62
     4
 10
25998.678498999961
 20
8461.383734999994
 30
0.0
 11
25998.678498999961
 21
9660.8413469999941
 31
0.0
  0
LINE
  5
46AB
  8
SUNPOU
  6
CONTINUOUS
 62
     4
 10
17494.668469999979
 20
9580.8413469999923
 30
0.0
 11
25995.678498999961
 21
9580.8413469999923
 31
0.0
  0
LINE
  5
46AC
  8
SUNPOU
  6
CONTINUOUS
 62
     4
 10
17534.670580999991
 20
8461.383734999994
 30
0.0
 11
17534.670580999991
 21
9260.8835769999969
 31
0.0
  0
LINE
  5
46AD
  8
SUNPOU
  6
CONTINUOUS
 62
     4
 10
25955.67638799996
 20
8461.383734999994
 30
0.0
 11
25955.67638799996
 21
9260.8835769999969
 31
0.0
  0
LINE
  5
46AE
  8
SUNPOU
  6
CONTINUOUS
 62
     4
 10
17534.670580999991
 20
9180.8835769999878
 30
0.0
 11
25955.67638799996
 21
9180.8835769999878
 31
0.0
  0
LINE
  5
46AF
  8
SUNPOU
  6
CONTINUOUS
 62
     4
 10
17534.670580999991
 20
8461.383734999994
 30
0.0
 11
17534.670580999991
 21
9260.8835769999969
 31
0.0
  0
LINE
  5
46B0
  8
SUNPOU
  6
CONTINUOUS
 62
     4
 10
17491.668469999979
 20
8461.383734999994
 30
0.0
 11
17491.668469999979
 21
9260.8835769999969
 31
0.0
  0
LINE
  5
46B1
  8
SUNPOU
  6
CONTINUOUS
 62
     4
 10
17534.670580999991
 20
9180.8835769999878
 30
0.0
 11
17774.670580999991
 21
9180.8835769999878
 31
0.0
  0
LINE
  5
46B2
  8
SUNPOU
  6
CONTINUOUS
 62
     4
 10
17494.668469999979
 20
9180.8835769999878
 30
0.0
 11
17254.668469999979
 21
9180.8835769999878
 31
0.0
  0
LINE
  5
46B3
  8
SUNPOU
  6
CONTINUOUS
 62
     4
 10
17534.670580999991
 20
9180.8835769999878
 30
0.0
 11
17494.668469999979
 21
9180.8835769999878
 31
0.0
  0
LINE
  5
46B4
  8
SUNPOU
  6
CONTINUOUS
 62
     4
 10
25955.67638799996
 20
8461.383734999994
 30
0.0
 11
25955.67638799996
 21
9260.8835769999969
 31
0.0
  0
LINE
  5
46B5
  8
SUNPOU
  6
CONTINUOUS
 62
     4
 10
25998.678498999961
 20
8461.383734999994
 30
0.0
 11
25998.678498999961
 21
9260.8835769999969
 31
0.0
  0
LINE
  5
46B6
  8
SUNPOU
  6
CONTINUOUS
 62
     4
 10
25955.67638799996
 20
9180.8835769999878
 30
0.0
 11
25715.67638799996
 21
9180.8835769999878
 31
0.0
  0
LINE
  5
46B7
  8
SUNPOU
  6
CONTINUOUS
 62
     4
 10
25995.678498999961
 20
9180.8835769999878
 30
0.0
 11
26235.678498999961
 21
9180.8835769999878
 31
0.0
  0
LINE
  5
46B8
  8
SUNPOU
  6
CONTINUOUS
 62
     4
 10
25955.67638799996
 20
9180.8835769999878
 30
0.0
 11
25995.678498999961
 21
9180.8835769999878
 31
0.0
  0
TEXT
  5
46B9
  8
0
  6
CONTINUOUS
 62
     7
 10
26115.678498999961
 20
9260.8835769999969
 30
0.0
 40
160.0
  1
43
  0
TEXT
  5
46BA
  8
0
  6
CONTINUOUS
 62
     7
 10
17134.668469999979
 20
9260.8835769999969
 30
0.0
 40
160.0
  1
43
  0
TEXT
  5
46BB
  8
0
  6
CONTINUOUS
 62
     7
 10
20838.506817833309
 20
9260.8835769999969
 30
0.0
 40
160.0
  1
2918 \U+00D7 ｎ ＋ 85
  0
TEXT
  5
46BC
  8
0
  6
CONTINUOUS
 62
     7
 10
20785.173484499981
 20
9660.8413469999941
 30
0.0
 40
160.0
  1
2918 \U+00D7 ｎ ＋ 171
  0
ARC
  5
46BD
  8
0
  6
BYBLOCK
 62
     0
 10
17491.668469999979
 20
9580.8413469999923
 30
0.0
 40
15.0
 50
0.0
 51
180.0
  0
ARC
  5
46BE
  8
0
  6
BYBLOCK
 62
     0
 10
17491.668469999979
 20
9580.8413469999923
 30
0.0
 40
15.0
 50
180.0
 51
0.0
  0
ARC
  5
46BF
  8
0
  6
BYBLOCK
 62
     0
 10
25998.678498999961
 20
9580.8413469999923
 30
0.0
 40
15.0
 50
180.0
 51
0.0
  0
ARC
  5
46C0
  8
0
  6
BYBLOCK
 62
     0
 10
25998.678498999961
 20
9580.8413469999923
 30
0.0
 40
15.0
 50
0.0
 51
180.0
  0
ARC
  5
46C1
  8
0
  6
BYBLOCK
 62
     0
 10
17534.670580999991
 20
9180.8835769999878
 30
0.0
 40
15.0
 50
0.0
 51
180.0
  0
ARC
  5
46C2
  8
0
  6
BYBLOCK
 62
     0
 10
17534.670580999991
 20
9180.8835769999878
 30
0.0
 40
15.0
 50
180.0
 51
0.0
  0
ARC
  5
46C3
  8
0
  6
BYBLOCK
 62
     0
 10
25955.67638799996
 20
9180.8835769999878
 30
0.0
 40
15.0
 50
180.0
 51
0.0
  0
ARC
  5
46C4
  8
0
  6
BYBLOCK
 62
     0
 10
25955.67638799996
 20
9180.8835769999878
 30
0.0
 40
15.0
 50
0.0
 51
180.0
  0
ARC
  5
46C5
  8
0
  6
BYBLOCK
 62
     0
 10
17534.670580999991
 20
9180.8835769999878
 30
0.0
 40
15.0
 50
0.0
 51
180.0
  0
ARC
  5
46C6
  8
0
  6
BYBLOCK
 62
     0
 10
17534.670580999991
 20
9180.8835769999878
 30
0.0
 40
15.0
 50
180.0
 51
0.0
  0
ARC
  5
46C7
  8
0
  6
BYBLOCK
 62
     0
 10
17491.668469999979
 20
9180.8835769999878
 30
0.0
 40
15.0
 50
180.0
 51
0.0
  0
ARC
  5
46C8
  8
0
  6
BYBLOCK
 62
     0
 10
17491.668469999979
 20
9180.8835769999878
 30
0.0
 40
15.0
 50
0.0
 51
180.0
  0
ARC
  5
46C9
  8
0
  6
BYBLOCK
 62
     0
 10
25955.67638799996
 20
9180.8835769999878
 30
0.0
 40
15.0
 50
180.0
 51
0.0
  0
ARC
  5
46CA
  8
0
  6
BYBLOCK
 62
     0
 10
25955.67638799996
 20
9180.8835769999878
 30
0.0
 40
15.0
 50
0.0
 51
180.0
  0
ARC
  5
46CB
  8
0
  6
BYBLOCK
 62
     0
 10
25998.678498999961
 20
9180.8835769999878
 30
0.0
 40
15.0
 50
0.0
 51
180.0
  0
ARC
  5
46CC
  8
0
  6
BYBLOCK
 62
     0
 10
25998.678498999961
 20
9180.8835769999878
 30
0.0
 40
15.0
 50
180.0
 51
0.0
  0
TEXT
  5
4723
  8
NAME
 10
24033.05354655402
 20
1076.0
 30
0.0
 40
360.0
  1
H
 41
0.6700000000000002
  7
00
  0
TEXT
  5
4724
  8
NAME
 10
23657.2215619737
 20
1076.0
 30
0.0
 40
360.0
  1
（ ）
  7
01
  0
TEXT
  5
4725
  8
NAME
 10
24557.214549256751
 20
1076.0
 30
0.0
 40
360.0
  1
型（ 連棟）
  7
01
  0
TEXT
  5
4726
  8
NAME
 10
21816.089515848402
 20
1076.6369801169251
 30
0.0
 40
360.0
  1
VGC-3059
 41
0.6700000000000002
  0
TEXT
  5
4727
  8
NAME
 10
25322.399158861332
 20
1076.0
 30
0.0
 40
360.0
  1
n
 41
0.6700000000000002
  7
00
  0
TEXT
  5
4729
  8
NAME
 10
21933.552716389018
 20
1876.0
 30
0.0
 40
360.0
  1
ヨドガレージ ラヴィージュ
 41
0.75
  7
01
  0
LINE
  5
472A
  8
NAME
  6
CONTINUOUS
 10
26067.886878884321
 20
2236.0
 30
0.0
 11
26067.886878884321
 21
1876.0
 31
0.0
  0
LINE
  5
472B
  8
NAME
  6
CONTINUOUS
 10
26167.886878884321
 20
2236.0
 30
0.0
 11
26167.886878884321
 21
1876.0
 31
0.0
  0
LINE
  5
472C
  8
NAME
  6
CONTINUOUS
 10
26267.886878884321
 20
2236.0
 30
0.0
 11
26267.886878884321
 21
1876.0
 31
0.0
  0
LINE
  5
472D
  8
NAME
  6
CONTINUOUS
 10
26007.886878884321
 20
2236.0
 30
0.0
 11
26327.886878884321
 21
2236.0
 31
0.0
  0
LINE
  5
472E
  8
NAME
  6
CONTINUOUS
 10
26327.886878884321
 20
1876.0
 30
0.0
 11
26007.886878884321
 21
1876.0
 31
0.0
  0
LINE
  5
478A
  8
2-0
  6
CONTINUOUS
 62
     3
 10
22952.674869999981
 20
17019.819150499981
 30
0.0
 11
23037.675397999981
 21
17019.819150499981
 31
0.0
  0
LINE
  5
478B
  8
2-0
  6
CONTINUOUS
 62
     3
 10
23037.675397999981
 20
17104.813739499969
 30
0.0
 11
22952.674869999981
 21
17104.813739499969
 31
0.0
  0
LINE
  5
478C
  8
2-0
  6
CONTINUOUS
 62
     3
 10
22952.674869999981
 20
17104.813739499969
 30
0.0
 11
22952.674869999981
 21
17019.819150499981
 31
0.0
  0
LINE
  5
478D
  8
2-0
  6
CONTINUOUS
 62
     3
 10
23037.675397999981
 20
17019.819150499981
 30
0.0
 11
23037.675397999981
 21
17104.813739499969
 31
0.0
  0
LINE
  5
478E
  8
2-0
  6
CONTINUOUS
 62
     6
 10
24741.404372429719
 20
15896.235196249971
 30
0.0
 11
23711.05505342974
 21
15896.235196249971
 31
0.0
  0
LINE
  5
478F
  8
2-0
  6
CONTINUOUS
 62
     6
 10
23034.10830500002
 20
17010.678511999991
 30
0.0
 11
23711.05505342974
 21
15896.235196249971
 31
0.0
  0
LINE
  5
4790
  8
2-0
  6
CONTINUOUS
 62
     6
 10
23094.386624999999
 20
16860.082676999999
 30
0.0
 11
23034.10830500002
 21
17010.678511999991
 31
0.0
  0
LINE
  5
4791
  8
2-0
  6
CONTINUOUS
 62
     6
 10
23034.10830500002
 20
17010.678511999991
 30
0.0
 11
23139.967020000018
 21
16887.770203999971
 31
0.0
  0
LINE
  5
4792
  8
2-0
  6
CONTINUOUS
 62
     6
 10
23094.386624999999
 20
16860.082676999999
 30
0.0
 11
23139.967020000018
 21
16887.770203999971
 31
0.0
  0
LINE
  5
4793
  8
2-0
  6
CONTINUOUS
 62
     6
 10
23139.967020000018
 20
16887.770203999971
 30
0.0
 11
23034.10830500002
 21
17010.678511999991
 31
0.0
  0
LINE
  5
4794
  8
2-0
  6
CONTINUOUS
 62
     6
 10
23034.10830500002
 20
17010.678511999991
 30
0.0
 11
23094.386624999999
 21
16860.082676999999
 31
0.0
  0
LINE
  5
4795
  8
2-0
  6
CONTINUOUS
 62
     6
 10
23094.386624999999
 20
16860.082676999999
 30
0.0
 11
23034.10830500002
 21
17010.678511999991
 31
0.0
  0
LINE
  5
4796
  8
2-0
  6
CONTINUOUS
 62
     6
 10
23139.967020000018
 20
16887.770203999971
 30
0.0
 11
23034.10830500002
 21
17010.678511999991
 31
0.0
  0
LINE
  5
4797
  8
2-0
  6
CONTINUOUS
 62
     6
 10
23139.967020000018
 20
16887.770203999971
 30
0.0
 11
23094.386624999999
 21
16860.082676999999
 31
0.0
  0
TEXT
  5
4798
  8
2-0
  6
CONTINUOUS
 62
     7
 10
23774.37028076308
 20
15969.235883249959
 30
0.0
 40
160.0
  1
中柱（中）
 72
     4
 11
24195.703614096408
 21
16049.235883249959
 31
0.0
  0
TEXT
  5
47EE
  8
FILENAME
  6
CONTINUOUS
 10
28737.333333333328
 20
348.0
 30
0.0
 40
200.0
  1
＜VGC-3059-N-A_0.DXF ＞
  7
FILENAME
 72
     2
 11
32764.0
 21
348.0
 31
0.0
  0
LINE
  5
47F4
  8
WAKUSEN-01
 10
868.00000000000193
 20
827.99999999999955
 30
0.0
 11
32764.000000000011
 21
827.99999999999943
 31
0.0
  0
LINE
  5
47F5
  8
WAKUSEN-01
 10
868.00000000000193
 20
827.99999999999955
 30
0.0
 11
868.00000000000193
 21
22484.000000000011
 31
0.0
  0
LINE
  5
47F6
  8
WAKUSEN-01
 10
32764.000000000011
 20
827.99999999999943
 30
0.0
 11
32764.000000000011
 21
22484.000000000011
 31
0.0
  0
LINE
  5
47F7
  8
WAKUSEN-01
 10
20560.0
 20
827.99999999999716
 30
0.0
 11
20560.0
 21
2484.0
 31
0.0
  0
LINE
  5
47F8
  8
WAKUSEN-02
 10
26868.0
 20
827.99999999999261
 30
0.0
 11
26868.0
 21
2484.0
 31
0.0
  0
ENDSEC
  0
EOF
