  0
SECTION
  2
HEADER
  9
$ACADVER
  1
AC1009
  9
$INSBASE
 10
0.0
 20
0.0
 30
0.0
  9
$EXTMIN
 10
867.99324330406671
 20
327.38164749855792
 30
-0.000000000000013
  9
$EXTMAX
 10
32765.33210850941
 20
22484.553276491992
 30
0.0000000000000023
  9
$LIMMIN
 10
0.0
 20
0.0
  9
$LIMMAX
 10
33600.0
 20
23760.0
  9
$ORTHOMODE
 70
     1
  9
$REGENMODE
 70
     1
  9
$FILLMODE
 70
     1
  9
$QTEXTMODE
 70
     0
  9
$MIRRTEXT
 70
     1
  9
$DRAGMODE
 70
     2
  9
$LTSCALE
 40
80.0
  9
$OSMODE
 70
  3071
  9
$ATTMODE
 70
     1
  9
$TEXTSIZE
 40
0.2
  9
$TRACEWID
 40
0.05
  9
$TEXTSTYLE
  7
00
  9
$CLAYER
  8
0
  9
$CELTYPE
  6
BYLAYER
  9
$CECOLOR
 62
   256
  9
$DIMSCALE
 40
80.0
  9
$DIMASZ
 40
3.0
  9
$DIMEXO
 40
1.0
  9
$DIMDLI
 40
0.38
  9
$DIMRND
 40
0.5
  9
$DIMDLE
 40
0.0
  9
$DIMEXE
 40
1.0
  9
$DIMTP
 40
0.0
  9
$DIMTM
 40
0.0
  9
$DIMTXT
 40
2.0
  9
$DIMCEN
 40
0.09
  9
$DIMTSZ
 40
0.0
  9
$DIMTOL
 70
     0
  9
$DIMLIM
 70
     0
  9
$DIMTIH
 70
     0
  9
$DIMTOH
 70
     0
  9
$DIMSE1
 70
     0
  9
$DIMSE2
 70
     0
  9
$DIMTAD
 70
     1
  9
$DIMZIN
 70
     8
  9
$DIMBLK
  1
DOTSMALL
  9
$DIMASO
 70
     1
  9
$DIMSHO
 70
     1
  9
$DIMPOST
  1

  9
$DIMAPOST
  1

  9
$DIMALT
 70
     0
  9
$DIMALTD
 70
     2
  9
$DIMALTF
 40
25.399999999999999
  9
$DIMLFAC
 40
1.0
  9
$DIMTOFL
 70
     1
  9
$DIMTVP
 40
0.0
  9
$DIMTIX
 70
     0
  9
$DIMSOXD
 70
     0
  9
$DIMSAH
 70
     0
  9
$DIMBLK1
  1

  9
$DIMBLK2
  1

  9
$DIMSTYLE
  2
SUNPOU
  9
$DIMCLRD
 70
     4
  9
$DIMCLRE
 70
     4
  9
$DIMCLRT
 70
     7
  9
$DIMTFAC
 40
1.0
  9
$DIMGAP
 40
1.0
  9
$LUNITS
 70
     2
  9
$LUPREC
 70
     4
  9
$SKETCHINC
 40
0.1
  9
$FILLETRAD
 40
0.0
  9
$AUNITS
 70
     0
  9
$AUPREC
 70
     0
  9
$MENU
  1
acad
  9
$ELEVATION
 40
0.0
  9
$PELEVATION
 40
0.0
  9
$THICKNESS
 40
0.0
  9
$LIMCHECK
 70
     0
  9
$BLIPMODE
 70
     1
  9
$CHAMFERA
 40
0.0
  9
$CHAMFERB
 40
0.0
  9
$SKPOLY
 70
     0
  9
$TDCREATE
 40
2311940.0749270259
  9
$TDUPDATE
 40
2458942.4271765738
  9
$TDINDWG
 40
0.058213287
  9
$TDUSRTIMER
 40
0.0582116667
  9
$USRTIMER
 70
     1
  9
$ANGBASE
 50
0.0
  9
$ANGDIR
 70
     0
  9
$PDMODE
 70
     0
  9
$PDSIZE
 40
0.0
  9
$PLINEWID
 40
0.0
  9
$COORDS
 70
     1
  9
$SPLFRAME
 70
     0
  9
$SPLINETYPE
 70
     6
  9
$SPLINESEGS
 70
     8
  9
$ATTDIA
 70
     1
  9
$ATTREQ
 70
     1
  9
$HANDLING
 70
     1
  9
$HANDSEED
  5
470D
  9
$SURFTAB1
 70
     6
  9
$SURFTAB2
 70
     6
  9
$SURFTYPE
 70
     6
  9
$SURFU
 70
     6
  9
$SURFV
 70
     6
  9
$UCSNAME
  2

  9
$UCSORG
 10
0.0
 20
0.0
 30
0.0
  9
$UCSXDIR
 10
1.0
 20
0.0
 30
0.0
  9
$UCSYDIR
 10
0.0
 20
1.0
 30
0.0
  9
$PUCSNAME
  2

  9
$PUCSORG
 10
0.0
 20
0.0
 30
0.0
  9
$PUCSXDIR
 10
1.0
 20
0.0
 30
0.0
  9
$PUCSYDIR
 10
0.0
 20
1.0
 30
0.0
  9
$USERI1
 70
     0
  9
$USERI2
 70
     0
  9
$USERI3
 70
     0
  9
$USERI4
 70
     0
  9
$USERI5
 70
     0
  9
$USERR1
 40
0.0
  9
$USERR2
 40
0.0
  9
$USERR3
 40
0.0
  9
$USERR4
 40
0.0
  9
$USERR5
 40
0.0
  9
$WORLDVIEW
 70
     1
  9
$SHADEDGE
 70
     3
  9
$SHADEDIF
 70
    70
  9
$TILEMODE
 70
     1
  9
$MAXACTVP
 70
    16
  9
$PLIMCHECK
 70
     0
  9
$PEXTMIN
 10
1.0000000000000000E+020
 20
1.0000000000000000E+020
 30
1.0000000000000000E+020
  9
$PEXTMAX
 10
-1.0000000000000000E+020
 20
-1.0000000000000000E+020
 30
-1.0000000000000000E+020
  9
$PLIMMIN
 10
0.0
 20
0.0
  9
$PLIMMAX
 10
12.0
 20
9.0
  9
$UNITMODE
 70
     0
  9
$VISRETAIN
 70
     0
  9
$PLINEGEN
 70
     1
  9
$PSLTSCALE
 70
     0
  0
ENDSEC
  0
SECTION
  2
TABLES
  0
TABLE
  2
VPORT
 70
     1
  0
VPORT
  2
*ACTIVE
 70
     0
 10
0.0
 20
0.0
 11
1.0
 21
1.0
 12
16800.0
 22
11880.0
 13
0.0
 23
0.0
 14
1.0
 24
1.0
 15
0.0
 25
0.0
 16
0.0
 26
0.0
 36
1.0
 17
0.0
 27
0.0
 37
0.0
 40
23981.023255813951
 41
2.195652173913043
 42
50.0
 43
0.0
 44
0.0
 50
0.0
 51
0.0
 71
     0
 72
 10000
 73
     1
 74
     1
 75
     0
 76
     0
 77
     0
 78
     0
  0
ENDTAB
  0
TABLE
  2
LTYPE
 70
     3
  0
LTYPE
  2
CONTINUOUS
 70
     0
  3
Solid line
 72
    65
 73
     0
 40
0.0
  0
LTYPE
  2
DASHED3
 70
     0
  3
------  ------  ------  ------  
 72
    65
 73
     2
 40
5.0
 49
3.75
 49
-1.25
  0
LTYPE
  2
CENTER2
 70
     0
  3
----------  --  ----------  --  
 72
    65
 73
     4
 40
20.0
 49
12.5
 49
-2.5
 49
2.5
 49
-2.5
  0
ENDTAB
  0
TABLE
  2
LAYER
 70
    17
  0
LAYER
  2
0
 70
     0
 62
     7
  6
CONTINUOUS
  0
LAYER
  2
SUNPOU
 70
     0
 62
     4
  6
CONTINUOUS
  0
LAYER
  2
0-1
 70
     0
 62
     7
  6
CONTINUOUS
  0
LAYER
  2
0-2
 70
     0
 62
     7
  6
CONTINUOUS
  0
LAYER
  2
0-5
 70
     0
 62
     7
  6
CONTINUOUS
  0
LAYER
  2
2-0
 70
     0
 62
     7
  6
CONTINUOUS
  0
LAYER
  2
0-0
 70
     0
 62
     7
  6
CONTINUOUS
  0
LAYER
  2
0-3
 70
     0
 62
     7
  6
CONTINUOUS
  0
LAYER
  2
YODOROGO
 70
     0
 62
   130
  6
CONTINUOUS
  0
LAYER
  2
WAKUSEN-01
 70
     0
 62
    50
  6
CONTINUOUS
  0
LAYER
  2
WAKUSEN-02
 70
     0
 62
   130
  6
CONTINUOUS
  0
LAYER
  2
WAKUMOJI-01
 70
     0
 62
   130
  6
CONTINUOUS
  0
LAYER
  2
FILENAME
 70
     0
 62
     7
  6
CONTINUOUS
  0
LAYER
  2
NAME
 70
     0
 62
    20
  6
CONTINUOUS
  0
LAYER
  2
0-4
 70
     0
 62
     7
  6
CONTINUOUS
  0
ENDTAB
  0
TABLE
  2
STYLE
 70
     5
  0
STYLE
  2
STANDARD
 70
     0
 40
0.0
 41
1.0
 50
0.0
 71
     0
 42
0.0
  3
txt
  4
BIGFONT
  0
STYLE
  2
00
 70
     0
 40
0.0
 41
0.6666666666666666
 50
0.0
 71
     0
 42
0.2
  3
ROMANS
  4
BIGFONT
  0
STYLE
  2
01
 70
     0
 40
3.0
 41
1.0
 50
0.0
 71
     0
 42
0.2
  3
ROMANS
  4
BIGFONT
  0
STYLE
  2
WAKUMOJI
 70
     0
 40
3.0
 41
1.0
 50
0.0
 71
     0
 42
3.0
  3
SIMPLEX
  4
BIGFONT
  0
STYLE
  2
FILENAME
 70
     0
 40
200.0
 41
1.0
 50
0.0
 71
     0
 42
200.0
  3
romans
  4
bigfont
  0
ENDTAB
  0
TABLE
  2
VIEW
 70
     0
  0
ENDTAB
  0
TABLE
  2
UCS
 70
     0
  0
ENDTAB
  0
TABLE
  2
APPID
 70
    13
  0
APPID
  2
ACAD
 70
     0
  0
APPID
  2
ACADANNOTATIVE
 70
     0
  0
APPID
  2
ACAD_PSEXT
 70
     0
  0
APPID
  2
DCO15
 70
     0
  0
APPID
  2
ACAD_MLEADERVER
 70
     0
  0
APPID
  2
AUTOCAD_POSTSCRIPT_FIGURE
 70
     0
  0
APPID
  2
ACAD_EXEMPT_FROM_CAD_STANDARDS
 70
     0
  0
APPID
  2
ACAD_DSTYLE_DIMJAG
 70
     0
  0
APPID
  2
ACAD_DSTYLE_DIMTALN
 70
     0
  0
APPID
  2
ACAD_DSTYLE_DIM_LINETYPE
 70
     0
  0
APPID
  2
ACAD_DSTYLE_DIM_EXT1_LINETYPE
 70
     0
  0
APPID
  2
ACAD_DSTYLE_DIM_EXT2_LINETYPE
 70
     0
  0
APPID
  2
ACAD_NAV_VCDISPLAY
 70
     0
  0
ENDTAB
  0
TABLE
  2
DIMSTYLE
 70
     2
  0
DIMSTYLE
  2
SUNPOU
 70
     0
  3

  4

  5

  6

  7

 40
80.0
 41
3.0
 42
1.0
 43
0.38
 44
1.0
 45
0.5
 46
0.0
 47
0.0
 48
0.0
140
2.0
141
0.09
142
0.0
143
25.399999999999999
144
1.0
145
0.0
146
1.0
147
1.0
 71
     0
 72
     0
 73
     0
 74
     0
 75
     0
 76
     0
 77
     1
 78
     8
170
     0
171
     2
172
     1
173
     0
174
     0
175
     0
176
     4
177
     4
178
     7
  0
ENDTAB
  0
ENDSEC
  0
SECTION
  2
BLOCKS
  0
BLOCK
  8
0
  2
$MODEL_SPACE
 70
     0
 10
0.0
 20
0.0
 30
0.0
  3
$MODEL_SPACE
  1

  0
ENDBLK
  5
3A89
  8
0
  0
BLOCK
 67
     1
  8
0
  2
$PAPER_SPACE
 70
     0
 10
0.0
 20
0.0
 30
0.0
  3
$PAPER_SPACE
  1

  0
ENDBLK
  5
3A85
 67
     1
  8
0
  0
BLOCK
  8
0
  2
_DOTSMALL
 70
     0
 10
0.0
 20
0.0
 30
0.0
  3
_DOTSMALL
  1

  0
POLYLINE
  5
3AB8
  8
0
  6
BYBLOCK
 62
     0
 66
     1
 10
0.0
 20
0.0
 30
0.0
 70
     1
 40
0.5
 41
0.5
  0
VERTEX
  5
46D5
  8
0
  6
BYBLOCK
 62
     0
 10
-0.0625
 20
0.0
 30
0.0
 42
1.0
  0
VERTEX
  5
46D6
  8
0
  6
BYBLOCK
 62
     0
 10
0.0625
 20
0.0
 30
0.0
 42
1.0
  0
SEQEND
  5
46D7
  8
0
  6
BYBLOCK
 62
     0
  0
ENDBLK
  5
3ABC
  8
0
  0
ENDSEC
  0
SECTION
  2
ENTITIES
  0
LINE
  5
3ABD
  8
2-0
  6
CONTINUOUS
 62
     3
 10
5579.4442040000204
 20
13835.43706699999
 30
0.0
 11
5579.4442040000204
 21
19645.925519999972
 31
0.0
  0
LINE
  5
3ABE
  8
2-0
  6
CONTINUOUS
 62
     3
 10
5443.9421980000161
 20
13803.43814899998
 30
0.0
 11
5443.9421980000161
 21
19693.93478399999
 31
0.0
  0
LINE
  5
3ABF
  8
2-0
  6
CONTINUOUS
 62
     3
 10
8013.9735530000135
 20
18081.484272000002
 30
0.0
 11
8140.7161900000183
 21
18296.976643999991
 31
0.0
  0
LINE
  5
3AC0
  8
2-0
  6
CONTINUOUS
 62
     3
 10
8749.1924880000188
 20
17359.015416999981
 30
0.0
 11
8875.9390830000139
 21
17574.509767999989
 31
0.0
  0
LINE
  5
3AC1
  8
2-0
  6
CONTINUOUS
 62
     3
 10
8749.1924880000188
 20
17359.015416999981
 30
0.0
 11
8140.7161900000183
 21
18296.976643999991
 31
0.0
  0
LINE
  5
3AC2
  8
2-0
  6
CONTINUOUS
 62
     3
 10
5529.444573000017
 20
13959.43411099999
 30
0.0
 11
5529.444573000017
 21
19221.38014899999
 31
0.0
  0
LINE
  5
3AC3
  8
2-0
  6
CONTINUOUS
 62
     3
 10
5486.9443090000159
 20
13959.43411099999
 30
0.0
 11
5486.9443090000159
 21
19240.951649999992
 31
0.0
  0
LINE
  5
3AC4
  8
2-0
  6
CONTINUOUS
 62
     3
 10
5599.4423300000162
 20
13995.935443999981
 30
0.0
 11
8377.4468170000127
 21
16913.935443999992
 31
0.0
  0
LINE
  5
3AC5
  8
2-0
  6
CONTINUOUS
 62
     3
 10
8377.4468170000127
 20
13995.935443999981
 30
0.0
 11
5599.4423300000162
 21
16913.935443999992
 31
0.0
  0
LINE
  5
3AC6
  8
2-0
  6
CONTINUOUS
 62
     3
 10
14358.942884
 20
13803.43814899998
 30
0.0
 11
14358.942884
 21
19693.93478399999
 31
0.0
  0
LINE
  5
3AC7
  8
2-0
  6
CONTINUOUS
 62
     3
 10
8013.9735530000135
 20
18081.484272000002
 30
0.0
 11
5295.7465690000172
 21
19329.024389999991
 31
0.0
  0
LINE
  5
3AC8
  8
2-0
  6
CONTINUOUS
 62
     3
 10
8665.9438340000161
 20
17487.347605999981
 30
0.0
 11
8665.9438340000161
 21
19645.925519999972
 31
0.0
  0
LINE
  5
3AC9
  8
2-0
  6
CONTINUOUS
 62
     3
 10
11065.943834000011
 20
16556.18496899998
 30
0.0
 11
11065.943834000011
 21
19645.925519999972
 31
0.0
  0
LINE
  5
3ACA
  8
2-0
  6
CONTINUOUS
 62
     3
 10
11028.946631999999
 20
16573.228623999981
 30
0.0
 11
11028.946631999999
 21
19645.925519999972
 31
0.0
  0
LINE
  5
3ACB
  8
2-0
  6
CONTINUOUS
 62
     3
 10
10865.947133000011
 20
16648.313742999981
 30
0.0
 11
10865.947133000011
 21
19645.925519999972
 31
0.0
  0
LINE
  5
3ACC
  8
2-0
  6
CONTINUOUS
 62
     3
 10
10828.94597199999
 20
16665.357397999978
 30
0.0
 11
10828.94597199999
 21
19645.925519999972
 31
0.0
  0
LINE
  5
3ACD
  8
2-0
  6
CONTINUOUS
 62
     3
 10
10628.94729200001
 20
16757.484192999978
 30
0.0
 11
10628.94729200001
 21
19645.925519999972
 31
0.0
  0
LINE
  5
3ACE
  8
2-0
  6
CONTINUOUS
 62
     3
 10
10665.94449400001
 20
16740.444496999989
 30
0.0
 11
10665.94449400001
 21
19645.925519999972
 31
0.0
  0
LINE
  5
3ACF
  8
2-0
  6
CONTINUOUS
 62
     3
 10
10465.94581400001
 20
16832.573270999968
 30
0.0
 11
10465.94581400001
 21
19645.925519999972
 31
0.0
  0
LINE
  5
3AD0
  8
2-0
  6
CONTINUOUS
 62
     3
 10
10428.944652
 20
16849.618905999989
 30
0.0
 11
10428.944652
 21
19645.925519999972
 31
0.0
  0
LINE
  5
3AD1
  8
2-0
  6
CONTINUOUS
 62
     3
 10
10228.94399300001
 20
16941.745699999989
 30
0.0
 11
10228.94399300001
 21
19645.925519999972
 31
0.0
  0
LINE
  5
3AD2
  8
2-0
  6
CONTINUOUS
 62
     3
 10
10265.94515400001
 20
16924.707983999971
 30
0.0
 11
10265.94515400001
 21
19645.925519999972
 31
0.0
  0
LINE
  5
3AD3
  8
2-0
  6
CONTINUOUS
 62
     3
 10
9628.9439930000153
 20
17227.632788999981
 30
0.0
 11
9628.9439930000153
 21
19645.925519999972
 31
0.0
  0
LINE
  5
3AD4
  8
2-0
  6
CONTINUOUS
 62
     3
 10
9665.9471330000215
 20
17210.595071999978
 30
0.0
 11
9665.9471330000215
 21
19645.925519999972
 31
0.0
  0
LINE
  5
3AD5
  8
2-0
  6
CONTINUOUS
 62
     3
 10
9428.9492710000159
 20
17319.765522000002
 30
0.0
 11
9428.9492710000159
 21
19645.925519999972
 31
0.0
  0
LINE
  5
3AD6
  8
2-0
  6
CONTINUOUS
 62
     3
 10
9465.9504330000127
 20
17302.723847000001
 30
0.0
 11
9465.9504330000127
 21
19645.925519999972
 31
0.0
  0
LINE
  5
3AD7
  8
2-0
  6
CONTINUOUS
 62
     3
 10
9265.9497730000185
 20
17394.854599999991
 30
0.0
 11
9265.9497730000185
 21
19645.925519999972
 31
0.0
  0
LINE
  5
3AD8
  8
2-0
  6
CONTINUOUS
 62
     3
 10
9228.9466320000156
 20
17411.894295999991
 30
0.0
 11
9228.9466320000156
 21
19645.925519999972
 31
0.0
  0
LINE
  5
3AD9
  8
2-0
  6
CONTINUOUS
 62
     3
 10
9028.9459720000123
 20
17504.029009000002
 30
0.0
 11
9028.9459720000123
 21
19645.925519999972
 31
0.0
  0
LINE
  5
3ADA
  8
2-0
  6
CONTINUOUS
 62
     3
 10
9065.9451540000118
 20
17486.985353999989
 30
0.0
 11
9065.9451540000118
 21
19645.925519999972
 31
0.0
  0
LINE
  5
3ADB
  8
2-0
  6
CONTINUOUS
 62
     3
 10
8865.9425140000167
 20
17557.529458000001
 30
0.0
 11
8865.9425140000167
 21
19645.925519999972
 31
0.0
  0
LINE
  5
3ADC
  8
2-0
  6
CONTINUOUS
 62
     3
 10
8828.9472920000117
 20
17502.257339999978
 30
0.0
 11
8828.9472920000117
 21
19645.925519999972
 31
0.0
  0
LINE
  5
3ADD
  8
2-0
  6
CONTINUOUS
 62
     3
 10
8628.9446520000165
 20
17544.381495999991
 30
0.0
 11
8628.9446520000165
 21
19645.925519999972
 31
0.0
  0
LINE
  5
3ADE
  8
2-0
  6
CONTINUOUS
 62
     3
 10
8465.9491130000206
 20
17795.641789000001
 30
0.0
 11
8465.9491130000206
 21
19645.925519999972
 31
0.0
  0
LINE
  5
3ADF
  8
2-0
  6
CONTINUOUS
 62
     3
 10
8428.9420130000181
 20
17852.673698999981
 30
0.0
 11
8428.9420130000181
 21
19645.925519999972
 31
0.0
  0
LINE
  5
3AE0
  8
2-0
  6
CONTINUOUS
 62
     3
 10
8228.9472920000135
 20
18160.971840999991
 30
0.0
 11
8228.9472920000135
 21
19645.925519999972
 31
0.0
  0
LINE
  5
3AE1
  8
2-0
  6
CONTINUOUS
 62
     3
 10
8265.9444940000158
 20
18103.93993099999
 30
0.0
 11
8265.9444940000158
 21
19645.925519999972
 31
0.0
  0
LINE
  5
3AE2
  8
2-0
  6
CONTINUOUS
 62
     3
 10
8065.9458140000161
 20
18169.848001999992
 30
0.0
 11
8065.9458140000161
 21
19645.925519999972
 31
0.0
  0
LINE
  5
3AE3
  8
2-0
  6
CONTINUOUS
 62
     3
 10
8028.9486110000144
 20
18106.940880999991
 30
0.0
 11
8028.9486110000144
 21
19645.925519999972
 31
0.0
  0
LINE
  5
3AE4
  8
2-0
  6
CONTINUOUS
 62
     3
 10
7865.9451540000191
 20
18149.676707999992
 30
0.0
 11
7865.9451540000191
 21
19645.925519999972
 31
0.0
  0
LINE
  5
3AE5
  8
2-0
  6
CONTINUOUS
 62
     3
 10
7828.9459720000132
 20
18166.722341999961
 30
0.0
 11
7828.9459720000132
 21
19645.925519999972
 31
0.0
  0
LINE
  5
3AE6
  8
2-0
  6
CONTINUOUS
 62
     3
 10
7665.9405350000216
 20
18241.80152299998
 30
0.0
 11
7665.9405350000216
 21
19645.925519999972
 31
0.0
  0
LINE
  5
3AE7
  8
2-0
  6
CONTINUOUS
 62
     3
 10
7628.9472920000126
 20
18258.851116999991
 30
0.0
 11
7628.9472920000126
 21
19645.925519999972
 31
0.0
  0
LINE
  5
3AE8
  8
2-0
  6
CONTINUOUS
 62
     3
 10
7465.9438340000161
 20
18333.93425599999
 30
0.0
 11
7465.9438340000161
 21
19645.925519999972
 31
0.0
  0
LINE
  5
3AE9
  8
2-0
  6
CONTINUOUS
 62
     3
 10
7428.9505910000207
 20
18350.977910999991
 30
0.0
 11
7428.9505910000207
 21
19645.925519999972
 31
0.0
  0
LINE
  5
3AEA
  8
2-0
  6
CONTINUOUS
 62
     3
 10
7265.9451540000191
 20
18426.06105099999
 30
0.0
 11
7265.9451540000191
 21
19645.925519999972
 31
0.0
  0
LINE
  5
3AEB
  8
2-0
  6
CONTINUOUS
 62
     3
 10
7228.9459720000141
 20
18443.11064499999
 30
0.0
 11
7228.9459720000141
 21
19645.925519999972
 31
0.0
  0
LINE
  5
3AEC
  8
2-0
  6
CONTINUOUS
 62
     3
 10
6665.947133000016
 20
18702.457270999981
 30
0.0
 11
6665.947133000016
 21
19645.925519999972
 31
0.0
  0
LINE
  5
3AED
  8
2-0
  6
CONTINUOUS
 62
     3
 10
6628.9459720000168
 20
18719.496966999981
 30
0.0
 11
6628.9459720000168
 21
19645.925519999972
 31
0.0
  0
LINE
  5
3AEE
  8
2-0
  6
CONTINUOUS
 62
     3
 10
6828.9466320000183
 20
18627.366214000001
 30
0.0
 11
6828.9466320000183
 21
19645.925519999972
 31
0.0
  0
LINE
  5
3AEF
  8
2-0
  6
CONTINUOUS
 62
     3
 10
6865.943834000017
 20
18610.322558999978
 30
0.0
 11
6865.943834000017
 21
19645.925519999972
 31
0.0
  0
LINE
  5
3AF0
  8
2-0
  6
CONTINUOUS
 62
     3
 10
7028.9472920000153
 20
18535.235459999989
 30
0.0
 11
7028.9472920000153
 21
19645.925519999972
 31
0.0
  0
LINE
  5
3AF1
  8
2-0
  6
CONTINUOUS
 62
     3
 10
7065.9425140000203
 20
18518.19774299999
 30
0.0
 11
7065.9425140000203
 21
19645.925519999972
 31
0.0
  0
LINE
  5
3AF2
  8
2-0
  6
CONTINUOUS
 62
     3
 10
6465.946474000013
 20
18794.578128000001
 30
0.0
 11
6465.946474000013
 21
19645.925519999972
 31
0.0
  0
LINE
  5
3AF3
  8
2-0
  6
CONTINUOUS
 62
     3
 10
5655.9437290000169
 20
19163.101142999982
 30
0.0
 11
5655.9437290000169
 21
19645.925519999972
 31
0.0
  0
LINE
  5
3AF4
  8
2-0
  6
CONTINUOUS
 62
     3
 10
5618.9445470000173
 20
19180.144797999961
 30
0.0
 11
5618.9445470000173
 21
19645.925519999972
 31
0.0
  0
LINE
  5
3AF5
  8
2-0
  6
CONTINUOUS
 62
     3
 10
5855.9463680000163
 20
19070.972368999981
 30
0.0
 11
5855.9463680000163
 21
19645.925519999972
 31
0.0
  0
LINE
  5
3AF6
  8
2-0
  6
CONTINUOUS
 62
     3
 10
5818.9452070000134
 20
19088.021961999992
 30
0.0
 11
5818.9452070000134
 21
19645.925519999972
 31
0.0
  0
LINE
  5
3AF7
  8
2-0
  6
CONTINUOUS
 62
     3
 10
6065.9431740000182
 20
18978.845573999992
 30
0.0
 11
6065.9431740000182
 21
19645.925519999972
 31
0.0
  0
LINE
  5
3AF8
  8
2-0
  6
CONTINUOUS
 62
     3
 10
6028.9459720000159
 20
18995.89120799999
 30
0.0
 11
6028.9459720000159
 21
19645.925519999972
 31
0.0
  0
LINE
  5
3AF9
  8
2-0
  6
CONTINUOUS
 62
     3
 10
6228.9466320000192
 20
18903.760454999981
 30
0.0
 11
6228.9466320000192
 21
19645.925519999972
 31
0.0
  0
LINE
  5
3AFA
  8
2-0
  6
CONTINUOUS
 62
     3
 10
6265.945814000017
 20
18886.706902000002
 30
0.0
 11
6265.945814000017
 21
19645.925519999972
 31
0.0
  0
LINE
  5
3AFB
  8
2-0
  6
CONTINUOUS
 62
     3
 10
6428.9453120000126
 20
18811.621782999991
 30
0.0
 11
6428.9453120000126
 21
19645.925519999972
 31
0.0
  0
LINE
  5
3AFC
  8
2-0
  6
CONTINUOUS
 62
     3
 10
7245.585805000017
 20
18435.443969
 30
0.0
 11
5599.4423300000162
 21
16913.935443999992
 31
0.0
  0
LINE
  5
3AFD
  8
2-0
  6
CONTINUOUS
 62
     3
 10
6240.1111170000149
 20
18898.613705999949
 30
0.0
 11
8377.4468170000127
 21
16913.935443999992
 31
0.0
  0
LINE
  5
3AFE
  8
2-0
  6
CONTINUOUS
 62
     3
 10
9106.8677410000164
 20
17468.136377999981
 30
0.0
 11
8517.4443090000132
 21
16913.935443999992
 31
0.0
  0
LINE
  5
3AFF
  8
2-0
  6
CONTINUOUS
 62
     3
 10
5461.9380010000168
 20
19663.933200999989
 30
0.0
 11
5512.4454180000121
 21
19663.933200999989
 31
0.0
  0
LINE
  5
3B00
  8
2-0
  6
CONTINUOUS
 62
     3
 10
5461.9380010000168
 20
19686.434387999969
 30
0.0
 11
5443.9421980000161
 21
19686.434387999969
 31
0.0
  0
LINE
  5
3B01
  8
2-0
  6
CONTINUOUS
 62
     3
 10
5512.4454180000121
 20
19703.929372999992
 30
0.0
 11
5448.9484000000157
 21
19703.929372999992
 31
0.0
  0
LINE
  5
3B02
  8
2-0
  6
CONTINUOUS
 62
     3
 10
5443.9421980000161
 20
19698.929110000001
 30
0.0
 11
5443.9421980000161
 21
19663.933200999989
 31
0.0
  0
LINE
  5
3B03
  8
2-0
  6
CONTINUOUS
 62
     3
 10
5517.443702000015
 20
19668.931485000001
 30
0.0
 11
5517.443702000015
 21
19698.929110000001
 31
0.0
  0
LINE
  5
3B04
  8
2-0
  6
CONTINUOUS
 62
     3
 10
5461.9380010000168
 20
19251.08084599999
 30
0.0
 11
5461.9380010000168
 21
19686.434387999969
 31
0.0
  0
LINE
  5
3B05
  8
2-0
  6
CONTINUOUS
 62
     3
 10
14290.439664
 20
19703.929372999992
 30
0.0
 11
14353.94460000001
 21
19703.929372999992
 31
0.0
  0
LINE
  5
3B06
  8
2-0
  6
CONTINUOUS
 62
     3
 10
14358.942884
 20
19698.929110000001
 30
0.0
 11
14358.942884
 21
19663.933200999989
 31
0.0
  0
LINE
  5
3B07
  8
2-0
  6
CONTINUOUS
 62
     3
 10
14340.945100999999
 20
19663.933200999989
 30
0.0
 11
14290.439664
 21
19663.933200999989
 31
0.0
  0
LINE
  5
3B08
  8
2-0
  6
CONTINUOUS
 62
     3
 10
14285.445338999991
 20
19668.931485000001
 30
0.0
 11
14285.445338999991
 21
19698.929110000001
 31
0.0
  0
LINE
  5
3B09
  8
2-0
  6
CONTINUOUS
 62
     3
 10
14340.945100999999
 20
19686.434387999969
 30
0.0
 11
14358.942884
 21
19686.434387999969
 31
0.0
  0
LINE
  5
3B0A
  8
2-0
  6
CONTINUOUS
 62
     3
 10
8390.444336000015
 20
14038.427789999991
 30
0.0
 11
8390.444336000015
 21
16868.937027999989
 31
0.0
  0
LINE
  5
3B0B
  8
2-0
  6
CONTINUOUS
 62
     3
 10
8504.4507490000142
 20
14038.427789999991
 30
0.0
 11
8504.4507490000142
 21
16868.937027999989
 31
0.0
  0
LINE
  5
3B0C
  8
2-0
  6
CONTINUOUS
 62
     3
 10
8447.4445730000134
 20
14038.427789999991
 30
0.0
 11
8447.4445730000134
 21
13959.43411099999
 31
0.0
  0
LINE
  5
3B0D
  8
2-0
  6
CONTINUOUS
 62
     3
 10
8447.4445730000134
 20
14038.427789999991
 30
0.0
 11
8447.4445730000134
 21
16868.937027999989
 31
0.0
  0
LINE
  5
3B0E
  8
2-0
  6
CONTINUOUS
 62
     3
 10
8504.4507490000142
 20
16947.93763499998
 30
0.0
 11
8504.4507490000142
 21
17736.293841999981
 31
0.0
  0
LINE
  5
3B0F
  8
2-0
  6
CONTINUOUS
 62
     3
 10
8390.444336000015
 20
16947.93763499998
 30
0.0
 11
8390.444336000015
 21
17912.021644999972
 31
0.0
  0
LINE
  5
3B10
  8
2-0
  6
CONTINUOUS
 62
     3
 10
8447.4445730000134
 20
16947.93763499998
 30
0.0
 11
8447.4445730000134
 21
17824.156754
 31
0.0
  0
LINE
  5
3B11
  8
2-0
  6
CONTINUOUS
 62
     3
 10
8447.4445730000134
 20
16868.937027999989
 30
0.0
 11
8447.4445730000134
 21
16947.93763499998
 31
0.0
  0
LINE
  5
3B12
  8
2-0
  6
CONTINUOUS
 62
     3
 10
8362.4420660000142
 20
19645.925519999972
 30
0.0
 11
8362.4420660000142
 21
19693.93478399999
 31
0.0
  0
LINE
  5
3B13
  8
2-0
  6
CONTINUOUS
 62
     3
 10
8447.4445730000134
 20
13959.43411099999
 30
0.0
 11
8447.4445730000134
 21
13803.43814899998
 31
0.0
  0
LINE
  5
3B14
  8
2-0
  6
CONTINUOUS
 62
     6
 10
7321.8329020000183
 20
17101.76602399999
 30
0.0
 11
7260.6816140000165
 21
17273.029087999981
 31
0.0
  0
LINE
  5
3B15
  8
2-0
  6
CONTINUOUS
 62
     6
 10
7157.6872620000131
 20
19421.65596199999
 30
0.0
 11
7301.5883650000133
 21
19933.929637000001
 31
0.0
  0
LINE
  5
3B16
  8
2-0
  6
CONTINUOUS
 62
     6
 10
6744.5399600000146
 20
19527.429557999982
 30
0.0
 11
6450.6151020000134
 21
19933.929637000001
 31
0.0
  0
LINE
  5
3B17
  8
2-0
  6
CONTINUOUS
 62
     6
 10
7301.5883650000133
 20
19933.929637000001
 30
0.0
 11
7819.2799830000149
 21
19933.929637000001
 31
0.0
  0
LINE
  5
3B18
  8
2-0
  6
CONTINUOUS
 62
     6
 10
6691.2810120000167
 20
19823.834751999992
 30
0.0
 11
6482.0874680000161
 21
20186.165833999981
 31
0.0
  0
LINE
  5
3B19
  8
2-0
  6
CONTINUOUS
 62
     6
 10
6408.077227000017
 20
20314.351538999988
 30
0.0
 11
6212.0197690000168
 21
20653.937950999989
 31
0.0
  0
LINE
  5
3B1A
  8
2-0
  6
CONTINUOUS
 62
     6
 10
6212.0197690000168
 20
20653.937950999989
 30
0.0
 11
7054.459327000015
 21
20653.937950999989
 31
0.0
  0
LINE
  5
3B1B
  8
2-0
  6
CONTINUOUS
 62
     6
 10
5640.616316000016
 20
19933.929637000001
 30
0.0
 11
6450.6151020000134
 21
19933.929637000001
 31
0.0
  0
LINE
  5
3B1C
  8
2-0
  6
CONTINUOUS
 62
     6
 10
6460.1167910000149
 20
17273.029087999981
 30
0.0
 11
7260.6816140000165
 21
17273.029087999981
 31
0.0
  0
LINE
  5
3B1D
  8
2-0
  6
CONTINUOUS
 62
     6
 10
5693.9702810000163
 20
18060.054003999991
 30
0.0
 11
6223.9760610000158
 21
18060.054003999991
 31
0.0
  0
LINE
  5
3B1E
  8
2-0
  6
CONTINUOUS
 62
     6
 10
6339.8273860000172
 20
14190.32614799998
 30
0.0
 11
6422.717747000017
 21
14377.263542999979
 31
0.0
  0
LINE
  5
3B1F
  8
2-0
  6
CONTINUOUS
 62
     6
 10
6422.717747000017
 20
14377.263542999979
 30
0.0
 11
7222.7184070000194
 21
14377.263542999979
 31
0.0
  0
LINE
  5
3B20
  8
2-0
  6
CONTINUOUS
 62
     6
 10
7330.2379380000139
 20
13003.43056099999
 30
0.0
 11
8192.8190980000181
 21
13003.43056099999
 31
0.0
  0
LINE
  5
3B21
  8
2-0
  6
CONTINUOUS
 62
     6
 10
6924.1278240000183
 20
13666.96518899999
 30
0.0
 11
7330.2379380000139
 21
13003.43056099999
 31
0.0
  0
LINE
  5
3B22
  8
2-0
  6
CONTINUOUS
 62
     6
 10
3713.545080000014
 20
12603.43418999998
 30
0.0
 11
4793.5427050000171
 21
12603.43418999998
 31
0.0
  0
LINE
  5
3B23
  8
2-0
  6
CONTINUOUS
 62
     6
 10
5352.0519950000162
 20
14393.70542399998
 30
0.0
 11
4793.5427050000171
 21
12603.43418999998
 31
0.0
  0
LINE
  5
3B24
  8
2-0
  6
CONTINUOUS
 62
     6
 10
5594.9329870000183
 20
18280.845547000001
 30
0.0
 11
5693.9702810000163
 21
18060.054003999991
 31
0.0
  0
LINE
  5
3B25
  8
2-0
  6
CONTINUOUS
 62
     6
 10
6722.6088730000156
 20
16400.549278999981
 30
0.0
 11
7602.6078170000128
 21
16400.549278999981
 31
0.0
  0
LINE
  5
3B26
  8
2-0
  6
CONTINUOUS
 62
     6
 10
6511.3407940000116
 20
16198.483981999991
 30
0.0
 11
6722.6088730000156
 21
16400.549278999981
 31
0.0
  0
LINE
  5
3B27
  8
2-0
  6
CONTINUOUS
 62
     6
 10
12048.73324000001
 20
20653.937950999989
 30
0.0
 11
13723.72664100001
 21
20653.937950999989
 31
0.0
  0
LINE
  5
3B28
  8
2-0
  6
CONTINUOUS
 62
     6
 10
13914.013803999989
 20
20324.346128000001
 30
0.0
 11
13723.72664100001
 21
20653.937950999989
 31
0.0
  0
LINE
  5
3B29
  8
2-0
  6
CONTINUOUS
 62
     6
 10
14207.209776
 20
19833.84121899998
 30
0.0
 11
13998.018211000001
 21
20196.166361
 31
0.0
  0
LINE
  5
3B2A
  8
2-0
  6
CONTINUOUS
 62
     6
 10
8390.444336000015
 20
15190.30823999996
 30
0.0
 11
8125.2561490000207
 21
15559.26180099999
 31
0.0
  0
LINE
  5
3B2B
  8
2-0
  6
CONTINUOUS
 62
     6
 10
7879.0238330000129
 20
15559.26180099999
 30
0.0
 11
8125.2561490000207
 21
15559.26180099999
 31
0.0
  0
LINE
  5
3B2C
  8
2-0
  6
CONTINUOUS
 62
     6
 10
5377.4927680000128
 20
14385.726973999959
 30
0.0
 11
5399.9424880000151
 21
14546.36787599998
 31
0.0
  0
LINE
  5
3B2D
  8
2-0
  6
CONTINUOUS
 62
     6
 10
5399.9424880000151
 20
14546.36787599998
 30
0.0
 11
5326.6092430000172
 21
14401.689811999981
 31
0.0
  0
LINE
  5
3B2E
  8
2-0
  6
CONTINUOUS
 62
     6
 10
5399.9424880000151
 20
14546.36787599998
 30
0.0
 11
5377.4927680000128
 21
14385.726973999959
 31
0.0
  0
LINE
  5
3B2F
  8
2-0
  6
CONTINUOUS
 62
     6
 10
5377.4927680000128
 20
14385.726973999959
 30
0.0
 11
5326.6092430000172
 21
14401.689811999981
 31
0.0
  0
LINE
  5
3B30
  8
2-0
  6
CONTINUOUS
 62
     6
 10
5326.6092430000172
 20
14401.689811999981
 30
0.0
 11
5399.9424880000151
 21
14546.36787599998
 31
0.0
  0
LINE
  5
3B31
  8
2-0
  6
CONTINUOUS
 62
     6
 10
5326.6092430000172
 20
14401.689811999981
 30
0.0
 11
5377.4927680000128
 21
14385.726973999959
 31
0.0
  0
LINE
  5
3B32
  8
2-0
  6
CONTINUOUS
 62
     6
 10
6315.6792390000146
 20
14201.63414799999
 30
0.0
 11
6271.9556320000156
 21
14045.43231599998
 31
0.0
  0
LINE
  5
3B33
  8
2-0
  6
CONTINUOUS
 62
     6
 10
6271.9556320000156
 20
14045.43231599998
 30
0.0
 11
6363.9775120000149
 21
14179.016167999949
 31
0.0
  0
LINE
  5
3B34
  8
2-0
  6
CONTINUOUS
 62
     6
 10
6271.9556320000156
 20
14045.43231599998
 30
0.0
 11
6315.6792390000146
 21
14201.63414799999
 31
0.0
  0
LINE
  5
3B35
  8
2-0
  6
CONTINUOUS
 62
     6
 10
6315.6792390000146
 20
14201.63414799999
 30
0.0
 11
6363.9775120000149
 21
14179.016167999949
 31
0.0
  0
LINE
  5
3B36
  8
2-0
  6
CONTINUOUS
 62
     6
 10
6363.9775120000149
 20
14179.016167999949
 30
0.0
 11
6271.9556320000156
 21
14045.43231599998
 31
0.0
  0
LINE
  5
3B37
  8
2-0
  6
CONTINUOUS
 62
     6
 10
6363.9775120000149
 20
14179.016167999949
 30
0.0
 11
6315.6792390000146
 21
14201.63414799999
 31
0.0
  0
LINE
  5
3B38
  8
2-0
  6
CONTINUOUS
 62
     6
 10
6946.8685330000144
 20
13680.88813299998
 30
0.0
 11
6840.6000580000182
 21
13803.43814899998
 31
0.0
  0
LINE
  5
3B39
  8
2-0
  6
CONTINUOUS
 62
     6
 10
6840.6000580000182
 20
13803.43814899998
 30
0.0
 11
6901.383155000015
 21
13653.04620399998
 31
0.0
  0
LINE
  5
3B3A
  8
2-0
  6
CONTINUOUS
 62
     6
 10
6840.6000580000182
 20
13803.43814899998
 30
0.0
 11
6946.8685330000144
 21
13680.88813299998
 31
0.0
  0
LINE
  5
3B3B
  8
2-0
  6
CONTINUOUS
 62
     6
 10
6946.8685330000144
 20
13680.88813299998
 30
0.0
 11
6901.383155000015
 21
13653.04620399998
 31
0.0
  0
LINE
  5
3B3C
  8
2-0
  6
CONTINUOUS
 62
     6
 10
6901.383155000015
 20
13653.04620399998
 30
0.0
 11
6840.6000580000182
 21
13803.43814899998
 31
0.0
  0
LINE
  5
3B3D
  8
2-0
  6
CONTINUOUS
 62
     6
 10
6901.383155000015
 20
13653.04620399998
 30
0.0
 11
6946.8685330000144
 21
13680.88813299998
 31
0.0
  0
LINE
  5
3B3E
  8
2-0
  6
CONTINUOUS
 62
     6
 10
8318.0652180000125
 20
15335.47326599999
 30
0.0
 11
8390.444336000015
 21
15190.30823999996
 31
0.0
  0
LINE
  5
3B3F
  8
2-0
  6
CONTINUOUS
 62
     6
 10
8390.444336000015
 20
15190.30823999996
 30
0.0
 11
8274.8998360000187
 21
15304.15332299998
 31
0.0
  0
LINE
  5
3B40
  8
2-0
  6
CONTINUOUS
 62
     6
 10
8390.444336000015
 20
15190.30823999996
 30
0.0
 11
8318.0652180000125
 21
15335.47326599999
 31
0.0
  0
LINE
  5
3B41
  8
2-0
  6
CONTINUOUS
 62
     6
 10
8318.0652180000125
 20
15335.47326599999
 30
0.0
 11
8274.8998360000187
 21
15304.15332299998
 31
0.0
  0
LINE
  5
3B42
  8
2-0
  6
CONTINUOUS
 62
     6
 10
8274.8998360000187
 20
15304.15332299998
 30
0.0
 11
8390.444336000015
 21
15190.30823999996
 31
0.0
  0
LINE
  5
3B43
  8
2-0
  6
CONTINUOUS
 62
     6
 10
8274.8998360000187
 20
15304.15332299998
 30
0.0
 11
8318.0652180000125
 21
15335.47326599999
 31
0.0
  0
LINE
  5
3B44
  8
2-0
  6
CONTINUOUS
 62
     6
 10
6492.9055370000169
 20
16217.760533999981
 30
0.0
 11
6395.7091950000131
 21
16087.900155999991
 31
0.0
  0
LINE
  5
3B45
  8
2-0
  6
CONTINUOUS
 62
     6
 10
6395.7091950000131
 20
16087.900155999991
 30
0.0
 11
6529.774071000018
 21
16179.219306999979
 31
0.0
  0
LINE
  5
3B46
  8
2-0
  6
CONTINUOUS
 62
     6
 10
6395.7091950000131
 20
16087.900155999991
 30
0.0
 11
6492.9055370000169
 21
16217.760533999981
 31
0.0
  0
LINE
  5
3B47
  8
2-0
  6
CONTINUOUS
 62
     6
 10
6492.9055370000169
 20
16217.760533999981
 30
0.0
 11
6529.774071000018
 21
16179.219306999979
 31
0.0
  0
LINE
  5
3B48
  8
2-0
  6
CONTINUOUS
 62
     6
 10
6529.774071000018
 20
16179.219306999979
 30
0.0
 11
6395.7091950000131
 21
16087.900155999991
 31
0.0
  0
LINE
  5
3B49
  8
2-0
  6
CONTINUOUS
 62
     6
 10
6529.774071000018
 20
16179.219306999979
 30
0.0
 11
6492.9055370000169
 21
16217.760533999981
 31
0.0
  0
LINE
  5
3B4A
  8
2-0
  6
CONTINUOUS
 62
     6
 10
7347.4696470000181
 20
17109.096180999979
 30
0.0
 11
7365.8356200000189
 21
16947.93763499998
 31
0.0
  0
LINE
  5
3B4B
  8
2-0
  6
CONTINUOUS
 62
     6
 10
7365.8356200000189
 20
16947.93763499998
 30
0.0
 11
7296.1941770000194
 21
17094.42794799999
 31
0.0
  0
LINE
  5
3B4C
  8
2-0
  6
CONTINUOUS
 62
     6
 10
7365.8356200000189
 20
16947.93763499998
 30
0.0
 11
7347.4696470000181
 21
17109.096180999979
 31
0.0
  0
LINE
  5
3B4D
  8
2-0
  6
CONTINUOUS
 62
     6
 10
7347.4696470000181
 20
17109.096180999979
 30
0.0
 11
7296.1941770000194
 21
17094.42794799999
 31
0.0
  0
LINE
  5
3B4E
  8
2-0
  6
CONTINUOUS
 62
     6
 10
7296.1941770000194
 20
17094.42794799999
 30
0.0
 11
7365.8356200000189
 21
16947.93763499998
 31
0.0
  0
LINE
  5
3B4F
  8
2-0
  6
CONTINUOUS
 62
     6
 10
7296.1941770000194
 20
17094.42794799999
 30
0.0
 11
7347.4696470000181
 21
17109.096180999979
 31
0.0
  0
LINE
  5
3B50
  8
2-0
  6
CONTINUOUS
 62
     6
 10
5619.2632490000178
 20
18291.756654000001
 30
0.0
 11
5529.444573000017
 21
18426.827124999982
 31
0.0
  0
LINE
  5
3B51
  8
2-0
  6
CONTINUOUS
 62
     6
 10
5529.444573000017
 20
18426.827124999982
 30
0.0
 11
5570.5948060000137
 21
18269.928501999992
 31
0.0
  0
LINE
  5
3B52
  8
2-0
  6
CONTINUOUS
 62
     6
 10
5529.444573000017
 20
18426.827124999982
 30
0.0
 11
5619.2632490000178
 21
18291.756654000001
 31
0.0
  0
LINE
  5
3B53
  8
2-0
  6
CONTINUOUS
 62
     6
 10
5619.2632490000178
 20
18291.756654000001
 30
0.0
 11
5570.5948060000137
 21
18269.928501999992
 31
0.0
  0
LINE
  5
3B54
  8
2-0
  6
CONTINUOUS
 62
     6
 10
5570.5948060000137
 20
18269.928501999992
 30
0.0
 11
5529.444573000017
 21
18426.827124999982
 31
0.0
  0
LINE
  5
3B55
  8
2-0
  6
CONTINUOUS
 62
     6
 10
5570.5948060000137
 20
18269.928501999992
 30
0.0
 11
5619.2632490000178
 21
18291.756654000001
 31
0.0
  0
LINE
  5
3B56
  8
2-0
  6
CONTINUOUS
 62
     6
 10
6669.6290380000173
 20
19811.338051999981
 30
0.0
 11
6766.2770530000162
 21
19693.93478399999
 31
0.0
  0
LINE
  5
3B57
  8
2-0
  6
CONTINUOUS
 62
     6
 10
6766.2770530000162
 20
19693.93478399999
 30
0.0
 11
6712.9270480000159
 21
19836.335411999949
 31
0.0
  0
LINE
  5
3B58
  8
2-0
  6
CONTINUOUS
 62
     6
 10
6766.2770530000162
 20
19693.93478399999
 30
0.0
 11
6669.6290380000173
 21
19811.338051999981
 31
0.0
  0
LINE
  5
3B59
  8
2-0
  6
CONTINUOUS
 62
     6
 10
6669.6290380000173
 20
19811.338051999981
 30
0.0
 11
6712.9270480000159
 21
19836.335411999949
 31
0.0
  0
LINE
  5
3B5A
  8
2-0
  6
CONTINUOUS
 62
     6
 10
6712.9270480000159
 20
19836.335411999949
 30
0.0
 11
6766.2770530000162
 21
19693.93478399999
 31
0.0
  0
LINE
  5
3B5B
  8
2-0
  6
CONTINUOUS
 62
     6
 10
6712.9270480000159
 20
19836.335411999949
 30
0.0
 11
6669.6290380000173
 21
19811.338051999981
 31
0.0
  0
LINE
  5
3B5C
  8
2-0
  6
CONTINUOUS
 62
     6
 10
6637.847867000015
 20
19649.605445000001
 30
0.0
 11
6744.5399600000146
 21
19527.429557999982
 31
0.0
  0
LINE
  5
3B5D
  8
2-0
  6
CONTINUOUS
 62
     6
 10
6744.5399600000146
 20
19527.429557999982
 30
0.0
 11
6683.2382280000129
 21
19677.607714999991
 31
0.0
  0
LINE
  5
3B5E
  8
2-0
  6
CONTINUOUS
 62
     6
 10
6744.5399600000146
 20
19527.429557999982
 30
0.0
 11
6637.847867000015
 21
19649.605445000001
 31
0.0
  0
LINE
  5
3B5F
  8
2-0
  6
CONTINUOUS
 62
     6
 10
6637.847867000015
 20
19649.605445000001
 30
0.0
 11
6683.2382280000129
 21
19677.607714999991
 31
0.0
  0
LINE
  5
3B60
  8
2-0
  6
CONTINUOUS
 62
     6
 10
6683.2382280000129
 20
19677.607714999991
 30
0.0
 11
6744.5399600000146
 21
19527.429557999982
 31
0.0
  0
LINE
  5
3B61
  8
2-0
  6
CONTINUOUS
 62
     6
 10
6683.2382280000129
 20
19677.607714999991
 30
0.0
 11
6637.847867000015
 21
19649.605445000001
 31
0.0
  0
LINE
  5
3B62
  8
2-0
  6
CONTINUOUS
 62
     6
 10
7131.8010980000172
 20
19428.055745999991
 30
0.0
 11
7119.3043970000181
 21
19266.327097999991
 31
0.0
  0
LINE
  5
3B63
  8
2-0
  6
CONTINUOUS
 62
     6
 10
7119.3043970000181
 20
19266.327097999991
 30
0.0
 11
7183.5793650000151
 21
19415.262116999991
 31
0.0
  0
LINE
  5
3B64
  8
2-0
  6
CONTINUOUS
 62
     6
 10
7119.3043970000181
 20
19266.327097999991
 30
0.0
 11
7131.8010980000172
 21
19428.055745999991
 31
0.0
  0
LINE
  5
3B65
  8
2-0
  6
CONTINUOUS
 62
     6
 10
7131.8010980000172
 20
19428.055745999991
 30
0.0
 11
7183.5793650000151
 21
19415.262116999991
 31
0.0
  0
LINE
  5
3B66
  8
2-0
  6
CONTINUOUS
 62
     6
 10
7183.5793650000151
 20
19415.262116999991
 30
0.0
 11
7119.3043970000181
 21
19266.327097999991
 31
0.0
  0
LINE
  5
3B67
  8
2-0
  6
CONTINUOUS
 62
     6
 10
7183.5793650000151
 20
19415.262116999991
 30
0.0
 11
7131.8010980000172
 21
19428.055745999991
 31
0.0
  0
LINE
  5
3B68
  8
2-0
  6
CONTINUOUS
 62
     6
 10
14185.561761000001
 20
19821.338579999981
 30
0.0
 11
14282.209776000011
 21
19703.929372999992
 31
0.0
  0
LINE
  5
3B69
  8
2-0
  6
CONTINUOUS
 62
     6
 10
14282.209776000011
 20
19703.929372999992
 30
0.0
 11
14228.857791
 21
19846.339898999991
 31
0.0
  0
LINE
  5
3B6A
  8
2-0
  6
CONTINUOUS
 62
     6
 10
14282.209776000011
 20
19703.929372999992
 30
0.0
 11
14185.561761000001
 21
19821.338579999981
 31
0.0
  0
LINE
  5
3B6B
  8
2-0
  6
CONTINUOUS
 62
     6
 10
14185.561761000001
 20
19821.338579999981
 30
0.0
 11
14228.857791
 21
19846.339898999991
 31
0.0
  0
LINE
  5
3B6C
  8
2-0
  6
CONTINUOUS
 62
     6
 10
14228.857791
 20
19846.339898999991
 30
0.0
 11
14282.209776000011
 21
19703.929372999992
 31
0.0
  0
LINE
  5
3B6D
  8
2-0
  6
CONTINUOUS
 62
     6
 10
14228.857791
 20
19846.339898999991
 30
0.0
 11
14185.561761000001
 21
19821.338579999981
 31
0.0
  0
LINE
  5
3B6E
  8
2-0
  6
DASHED3
 62
     6
 10
5486.9443090000159
 20
19240.951649999992
 30
0.0
 11
5486.9443090000159
 21
19527.429557999982
 31
0.0
  0
LINE
  5
3B6F
  8
2-0
  6
DASHED3
 62
     6
 10
5529.444573000017
 20
19221.38014899999
 30
0.0
 11
5529.444573000017
 21
19527.429557999982
 31
0.0
  0
LINE
  5
3B70
  8
2-0
  6
DASHED3
 62
     6
 10
14273.444468000011
 20
16422.826781999989
 30
0.0
 11
14273.444468000011
 21
19527.429557999982
 31
0.0
  0
LINE
  5
3B71
  8
2-0
  6
DASHED3
 62
     6
 10
14315.944731000011
 20
16403.249342999981
 30
0.0
 11
14315.944731000011
 21
19527.429557999982
 31
0.0
  0
LINE
  5
3B72
  8
2-0
  6
DASHED3
 62
     6
 10
10981.81231500001
 20
16594.94196299999
 30
0.0
 11
11285.444732000011
 21
16913.935443999992
 31
0.0
  0
LINE
  5
3B73
  8
2-0
  6
DASHED3
 62
     6
 10
8377.4468170000127
 20
19481.435443999981
 30
0.0
 11
7245.585805000017
 21
18435.443969
 31
0.0
  0
LINE
  5
3B74
  8
2-0
  6
DASHED3
 62
     6
 10
5599.4423300000162
 20
19481.435443999981
 30
0.0
 11
6240.1111170000149
 21
18898.613705999949
 31
0.0
  0
LINE
  5
3B75
  8
2-0
  6
DASHED3
 62
     6
 10
8390.444336000015
 20
17912.021644999972
 30
0.0
 11
8390.444336000015
 21
19645.925519999972
 31
0.0
  0
LINE
  5
3B76
  8
2-0
  6
DASHED3
 62
     6
 10
8504.4507490000142
 20
17736.293841999981
 30
0.0
 11
8504.4507490000142
 21
19645.925519999972
 31
0.0
  0
LINE
  5
3B77
  8
2-0
  6
DASHED3
 62
     6
 10
8447.4445730000134
 20
17824.156754
 30
0.0
 11
8447.4445730000134
 21
19645.925519999972
 31
0.0
  0
LINE
  5
3B78
  8
2-0
  6
CENTER2
 62
     6
 10
4199.9375390000168
 20
19481.435443999981
 30
0.0
 11
5846.4426990000138
 21
19481.435443999981
 31
0.0
  0
LINE
  5
3B79
  8
2-0
  6
CENTER2
 62
     6
 10
4199.9448070000144
 20
16913.935443999992
 30
0.0
 11
5846.4426990000138
 21
16913.935443999992
 31
0.0
  0
LINE
  5
3B7A
  8
2-0
  6
CENTER2
 62
     6
 10
4199.9448070000144
 20
13995.935443999981
 30
0.0
 11
5846.4426990000138
 21
13995.935443999981
 31
0.0
  0
LINE
  5
3B7B
  8
2-0
  6
CENTER2
 62
     7
 10
13946.44623600002
 20
16913.935443999992
 30
0.0
 11
14572.209247999999
 21
16913.935443999992
 31
0.0
  0
LINE
  5
3B7C
  8
2-0
  6
CENTER2
 62
     7
 10
13946.44623600002
 20
13995.935443999981
 30
0.0
 11
14572.209247999999
 21
13995.935443999981
 31
0.0
  0
LINE
  5
3B7D
  8
2-0
  6
CONTINUOUS
 62
     3
 10
14340.945100999999
 20
13835.43706699999
 30
0.0
 11
14340.945100999999
 21
19686.434387999969
 31
0.0
  0
LINE
  5
3B7E
  8
2-0
  6
CONTINUOUS
 62
     3
 10
11355.444468000011
 20
14038.427789999991
 30
0.0
 11
11355.444468000011
 21
13959.43411099999
 31
0.0
  0
LINE
  5
3B7F
  8
2-0
  6
CONTINUOUS
 62
     3
 10
11355.444468000011
 20
13959.43411099999
 30
0.0
 11
11355.444468000011
 21
13803.43814899998
 31
0.0
  0
LINE
  5
3B80
  8
2-0
  6
DASHED3
 62
     6
 10
14203.44275199999
 20
16913.935443999992
 30
0.0
 11
11425.442224
 21
19481.435443999981
 31
0.0
  0
LINE
  5
3B81
  8
2-0
  6
DASHED3
 62
     6
 10
11298.44225100002
 20
16947.93763499998
 30
0.0
 11
11298.44225100002
 21
19645.925519999972
 31
0.0
  0
LINE
  5
3B82
  8
2-0
  6
DASHED3
 62
     6
 10
11412.44866400001
 20
16947.93763499998
 30
0.0
 11
11412.44866400001
 21
19645.925519999972
 31
0.0
  0
LINE
  5
3B83
  8
2-0
  6
CONTINUOUS
 62
     3
 10
11355.444468000011
 20
14038.427789999991
 30
0.0
 11
11355.444468000011
 21
16422.826781999989
 31
0.0
  0
LINE
  5
3B84
  8
2-0
  6
CONTINUOUS
 62
     3
 10
11412.44866400001
 20
14038.427789999991
 30
0.0
 11
11412.44866400001
 21
16396.57044699998
 31
0.0
  0
LINE
  5
3B85
  8
2-0
  6
CONTINUOUS
 62
     3
 10
11298.44225100002
 20
14038.427789999991
 30
0.0
 11
11298.44225100002
 21
16449.087074999981
 31
0.0
  0
LINE
  5
3B86
  8
2-0
  6
DASHED3
 62
     6
 10
11355.444468000011
 20
16422.826781999989
 30
0.0
 11
11355.444468000011
 21
19645.925519999972
 31
0.0
  0
LINE
  5
3B87
  8
2-0
  6
DASHED3
 62
     6
 10
11298.44225100002
 20
16868.937027999989
 30
0.0
 11
11298.44225100002
 21
16449.087074999981
 31
0.0
  0
LINE
  5
3B88
  8
2-0
  6
DASHED3
 62
     6
 10
11412.44866400001
 20
16868.937027999989
 30
0.0
 11
11412.44866400001
 21
16396.57044699998
 31
0.0
  0
LINE
  5
3B89
  8
2-0
  6
DASHED3
 62
     6
 10
14203.44275199999
 20
19481.435443999981
 30
0.0
 11
11425.44618300002
 21
16913.929504999978
 31
0.0
  0
LINE
  5
3B8A
  8
2-0
  6
CONTINUOUS
 62
     3
 10
11665.94185500001
 20
16279.798645999979
 30
0.0
 11
11665.94185500001
 21
19645.925519999972
 31
0.0
  0
LINE
  5
3B8B
  8
2-0
  6
CONTINUOUS
 62
     3
 10
11628.944652
 20
16296.842300999981
 30
0.0
 11
11628.944652
 21
19645.925519999972
 31
0.0
  0
LINE
  5
3B8C
  8
2-0
  6
CONTINUOUS
 62
     3
 10
11865.940535000011
 20
16187.66987199998
 30
0.0
 11
11865.940535000011
 21
19645.925519999972
 31
0.0
  0
LINE
  5
3B8D
  8
2-0
  6
CONTINUOUS
 62
     3
 10
11828.94333300001
 20
16204.713526999991
 30
0.0
 11
11828.94333300001
 21
19645.925519999972
 31
0.0
  0
LINE
  5
3B8E
  8
2-0
  6
CONTINUOUS
 62
     3
 10
12065.939215
 20
16095.53812799998
 30
0.0
 11
12065.939215
 21
19645.925519999972
 31
0.0
  0
LINE
  5
3B8F
  8
2-0
  6
CONTINUOUS
 62
     3
 10
12265.937895999999
 20
16003.41133299998
 30
0.0
 11
12265.937895999999
 21
19645.925519999972
 31
0.0
  0
LINE
  5
3B90
  8
2-0
  6
CONTINUOUS
 62
     3
 10
12228.940693
 20
16020.45201899998
 30
0.0
 11
12228.940693
 21
19645.925519999972
 31
0.0
  0
LINE
  5
3B91
  8
2-0
  6
CONTINUOUS
 62
     3
 10
12465.93657600002
 20
15911.281568999981
 30
0.0
 11
12465.93657600002
 21
19645.925519999972
 31
0.0
  0
LINE
  5
3B92
  8
2-0
  6
CONTINUOUS
 62
     3
 10
12428.939374000011
 20
15928.32324499998
 30
0.0
 11
12428.939374000011
 21
19645.925519999972
 31
0.0
  0
LINE
  5
3B93
  8
2-0
  6
CONTINUOUS
 62
     3
 10
12628.93607400001
 20
15836.19348099998
 30
0.0
 11
12628.93607400001
 21
19645.925519999972
 31
0.0
  0
LINE
  5
3B94
  8
2-0
  6
CONTINUOUS
 62
     3
 10
12865.933937000011
 20
15727.02006199998
 30
0.0
 11
12865.933937000011
 21
19645.925519999972
 31
0.0
  0
LINE
  5
3B95
  8
2-0
  6
CONTINUOUS
 62
     3
 10
12828.934755
 20
15744.063716999981
 30
0.0
 11
12828.934755
 21
19645.925519999972
 31
0.0
  0
LINE
  5
3B96
  8
2-0
  6
CONTINUOUS
 62
     3
 10
13065.93261700002
 20
15634.89029799998
 30
0.0
 11
13065.93261700002
 21
19645.925519999972
 31
0.0
  0
LINE
  5
3B97
  8
2-0
  6
CONTINUOUS
 62
     3
 10
13028.93541500002
 20
15651.93494199998
 30
0.0
 11
13028.93541500002
 21
19645.925519999972
 31
0.0
  0
LINE
  5
3B98
  8
2-0
  6
CONTINUOUS
 62
     3
 10
13265.93129700001
 20
15542.761522999959
 30
0.0
 11
13265.93129700001
 21
19645.925519999972
 31
0.0
  0
LINE
  5
3B99
  8
2-0
  6
CONTINUOUS
 62
     3
 10
13228.93409500001
 20
15559.80517799999
 30
0.0
 11
13228.93409500001
 21
19645.925519999972
 31
0.0
  0
LINE
  5
3B9A
  8
2-0
  6
CONTINUOUS
 62
     3
 10
13465.929978000009
 20
15450.63472899999
 30
0.0
 11
13465.929978000009
 21
19645.925519999972
 31
0.0
  0
LINE
  5
3B9B
  8
2-0
  6
CONTINUOUS
 62
     3
 10
13428.93277500001
 20
15467.67838399999
 30
0.0
 11
13428.93277500001
 21
19645.925519999972
 31
0.0
  0
LINE
  5
3B9C
  8
2-0
  6
CONTINUOUS
 62
     3
 10
13665.92865800001
 20
15358.504964999969
 30
0.0
 11
13665.92865800001
 21
19645.925519999972
 31
0.0
  0
LINE
  5
3B9D
  8
2-0
  6
CONTINUOUS
 62
     3
 10
13628.931456
 20
15375.54960899998
 30
0.0
 11
13628.931456
 21
19645.925519999972
 31
0.0
  0
LINE
  5
3B9E
  8
2-0
  6
CONTINUOUS
 62
     3
 10
13865.92733800001
 20
15266.37322099998
 30
0.0
 11
13865.92733800001
 21
19645.925519999972
 31
0.0
  0
LINE
  5
3B9F
  8
2-0
  6
CONTINUOUS
 62
     3
 10
13828.93013600001
 20
15283.416875999979
 30
0.0
 11
13828.93013600001
 21
19645.925519999972
 31
0.0
  0
LINE
  5
3BA0
  8
2-0
  6
CONTINUOUS
 62
     3
 10
14075.924145000001
 20
15174.24642599998
 30
0.0
 11
14075.924145000001
 21
19645.925519999972
 31
0.0
  0
LINE
  5
3BA1
  8
2-0
  6
CONTINUOUS
 62
     3
 10
14038.926941999989
 20
15191.290080999959
 30
0.0
 11
14038.926941999989
 21
19645.925519999972
 31
0.0
  0
LINE
  5
3BA2
  8
2-0
  6
CONTINUOUS
 62
     3
 10
11228.94333299999
 20
16481.099849999991
 30
0.0
 11
11228.94333299999
 21
19645.925519999972
 31
0.0
  0
LINE
  5
3BA3
  8
2-0
  6
CONTINUOUS
 62
     3
 10
11265.94251400002
 20
16464.05619499999
 30
0.0
 11
11265.94251400002
 21
19645.925519999972
 31
0.0
  0
LINE
  5
3BA4
  8
2-0
  6
CONTINUOUS
 62
     3
 10
11428.94399300001
 20
16388.969095999972
 30
0.0
 11
11428.94399300001
 21
19645.925519999972
 31
0.0
  0
LINE
  5
3BA5
  8
2-0
  6
CONTINUOUS
 62
     3
 10
11465.943174000009
 20
16371.92544099999
 30
0.0
 11
11465.943174000009
 21
19645.925519999972
 31
0.0
  0
LINE
  5
3BA6
  8
2-0
  6
CONTINUOUS
 62
     3
 10
14238.925622999999
 20
15099.16130699998
 30
0.0
 11
14238.925622999999
 21
19645.925519999972
 31
0.0
  0
LINE
  5
3BA7
  8
2-0
  6
CONTINUOUS
 62
     3
 10
14275.922825000011
 20
15082.11666199998
 30
0.0
 11
14275.922825000011
 21
19645.925519999972
 31
0.0
  0
LINE
  5
3BA8
  8
2-0
  6
CONTINUOUS
 62
     3
 10
12028.942013
 20
16112.58772199998
 30
0.0
 11
12028.942013
 21
19645.925519999972
 31
0.0
  0
LINE
  5
3BA9
  8
2-0
  6
CONTINUOUS
 62
     3
 10
12665.935256000001
 20
15819.146855999979
 30
0.0
 11
12665.935256000001
 21
19645.925519999972
 31
0.0
  0
LINE
  5
3BAA
  8
2-0
  6
CONTINUOUS
 62
     3
 10
14273.444468000011
 20
13959.43411099999
 30
0.0
 11
14273.444468000011
 21
15083.258843999991
 31
0.0
  0
LINE
  5
3BAB
  8
2-0
  6
CONTINUOUS
 62
     3
 10
14315.944731000011
 20
13959.43411099999
 30
0.0
 11
14315.944731000011
 21
15063.67843599998
 31
0.0
  0
LINE
  5
3BAC
  8
2-0
  6
DASHED3
 62
     6
 10
14315.944731000011
 20
15063.67843599998
 30
0.0
 11
14315.944731000011
 21
16403.249342999981
 31
0.0
  0
LINE
  5
3BAD
  8
2-0
  6
DASHED3
 62
     6
 10
14273.444468000011
 20
15083.258843999991
 30
0.0
 11
14273.444468000011
 21
16422.826781999989
 31
0.0
  0
LINE
  5
3BAE
  8
2-0
  6
DASHED3
 62
     6
 10
10215.51691800001
 20
16947.93763499998
 30
0.0
 11
14273.444468000011
 21
16947.93763499998
 31
0.0
  0
LINE
  5
3BAF
  8
2-0
  6
DASHED3
 62
     6
 10
10387.016469
 20
16868.937027999989
 30
0.0
 11
14273.444468000011
 21
16868.937027999989
 31
0.0
  0
LINE
  5
3BB0
  8
2-0
  6
DASHED3
 62
     6
 10
13003.403584000011
 20
15663.696251999991
 30
0.0
 11
14203.44275199999
 21
16913.935443999992
 31
0.0
  0
LINE
  5
3BB1
  8
2-0
  6
CONTINUOUS
 62
     3
 10
11425.442224
 20
13995.935443999981
 30
0.0
 11
13003.40160400001
 21
15663.696251999991
 31
0.0
  0
LINE
  5
3BB2
  8
2-0
  6
DASHED3
 62
     6
 10
12312.58723000001
 20
15981.921679999959
 30
0.0
 11
11425.442224
 21
16913.935443999992
 31
0.0
  0
LINE
  5
3BB3
  8
2-0
  6
CONTINUOUS
 62
     3
 10
14203.44275199999
 20
13995.935443999981
 30
0.0
 11
12312.58723000001
 21
15981.921679999959
 31
0.0
  0
LINE
  5
3BB4
  8
2-0
  6
CONTINUOUS
 62
     3
 10
10305.44050900002
 20
17191.499579999982
 30
0.0
 11
10059.60013700001
 21
17386.435708000001
 31
0.0
  0
LINE
  5
3BB5
  8
2-0
  6
CONTINUOUS
 62
     3
 10
10059.60013700001
 20
16307.05661699998
 30
0.0
 11
9699.4960140000185
 21
16578.686156999989
 31
0.0
  0
LINE
  5
3BB6
  8
2-0
  6
CONTINUOUS
 62
     3
 10
9917.4786210000166
 20
17108.367717999969
 30
0.0
 11
9759.6001370000176
 21
17236.950382999981
 31
0.0
  0
LINE
  5
3BB7
  8
2-0
  6
CONTINUOUS
 62
     3
 10
9759.6001370000176
 20
16157.57129199999
 30
0.0
 11
9311.5262090000142
 21
16495.550334999982
 31
0.0
  0
LINE
  5
3BB8
  8
2-0
  6
CONTINUOUS
 62
     3
 10
9699.4960140000185
 20
16578.686156999989
 30
0.0
 11
10305.44050900002
 21
17191.499579999982
 31
0.0
  0
LINE
  5
3BB9
  8
2-0
  6
CONTINUOUS
 62
     3
 10
9917.4786210000166
 20
17108.367717999969
 30
0.0
 11
9311.5262090000142
 21
16495.550334999982
 31
0.0
  0
LINE
  5
3BBA
  8
2-0
  6
CONTINUOUS
 62
     3
 10
9759.6001370000176
 20
16157.57129199999
 30
0.0
 11
9759.6001370000176
 21
13676.117492999991
 31
0.0
  0
LINE
  5
3BBB
  8
2-0
  6
CONTINUOUS
 62
     3
 10
10059.60013700001
 20
16307.05661699998
 30
0.0
 11
10059.60013700001
 21
13676.117492999991
 31
0.0
  0
LINE
  5
3BBC
  8
2-0
  6
CONTINUOUS
 62
     3
 10
9759.6001370000176
 20
17236.950382999981
 30
0.0
 11
9759.6001370000176
 21
20096.127431000001
 31
0.0
  0
LINE
  5
3BBD
  8
2-0
  6
CONTINUOUS
 62
     3
 10
10059.60013700001
 20
17386.435708000001
 30
0.0
 11
10059.60013700001
 21
20096.127431000001
 31
0.0
  0
LINE
  5
3BBE
  8
2-0
  6
CONTINUOUS
 62
     3
 10
5461.9380010000168
 20
19645.92551999995
 30
0.0
 11
9759.6001370000176
 21
19645.925519999972
 31
0.0
  0
LINE
  5
3BBF
  8
2-0
  6
CONTINUOUS
 62
     3
 10
5517.443702000015
 20
19693.934783999979
 30
0.0
 11
9759.6001370000176
 21
19693.93478399999
 31
0.0
  0
LINE
  5
3BC0
  8
2-0
  6
DASHED3
 62
     6
 10
5486.9443090000159
 20
19527.429557999982
 30
0.0
 11
9759.6001370000176
 21
19527.429557999982
 31
0.0
  0
LINE
  5
3BC1
  8
2-0
  6
DASHED3
 62
     6
 10
5529.444573000017
 20
19442.431009999978
 30
0.0
 11
9759.6001370000176
 21
19442.431009999978
 31
0.0
  0
LINE
  5
3BC2
  8
2-0
  6
CONTINUOUS
 62
     3
 10
10059.60013700001
 20
19693.93478399999
 30
0.0
 11
14285.445338999991
 21
19693.93478399999
 31
0.0
  0
LINE
  5
3BC3
  8
2-0
  6
CONTINUOUS
 62
     3
 10
10059.60013700001
 20
19645.925519999972
 30
0.0
 11
14340.945100999999
 21
19645.925519999972
 31
0.0
  0
LINE
  5
3BC4
  8
2-0
  6
DASHED3
 62
     6
 10
10059.60013700001
 20
19527.429557999982
 30
0.0
 11
14315.944731000011
 21
19527.429557999982
 31
0.0
  0
LINE
  5
3BC5
  8
2-0
  6
DASHED3
 62
     6
 10
10059.60013700001
 20
19442.431009999978
 30
0.0
 11
14273.444468000011
 21
19442.431009999978
 31
0.0
  0
LINE
  5
3BC6
  8
2-0
  6
DASHED3
 62
     6
 10
11285.444732000011
 20
19481.435443999981
 30
0.0
 11
10059.60013700001
 21
18348.588631999992
 31
0.0
  0
LINE
  5
3BC7
  8
2-0
  6
DASHED3
 62
     6
 10
11285.444732000011
 20
16913.935443999992
 30
0.0
 11
10059.60013700001
 21
18056.277083000001
 31
0.0
  0
LINE
  5
3BC8
  8
2-0
  6
DASHED3
 62
     6
 10
9759.6001370000176
 20
18333.516577999992
 30
0.0
 11
8517.4443090000132
 21
19481.435443999981
 31
0.0
  0
LINE
  5
3BC9
  8
2-0
  6
DASHED3
 62
     6
 10
9759.6001370000176
 20
18071.351116999991
 30
0.0
 11
9106.8677410000164
 21
17468.136377999981
 31
0.0
  0
LINE
  5
3BCA
  8
2-0
  6
CONTINUOUS
 62
     3
 10
10065.944493999999
 20
17381.65121199999
 30
0.0
 11
10065.944493999999
 21
19645.925519999972
 31
0.0
  0
LINE
  5
3BCB
  8
2-0
  6
CONTINUOUS
 62
     3
 10
14572.39136400001
 20
14945.54670599999
 30
0.0
 11
10111.82973500001
 21
16995.697478999991
 31
0.0
  0
LINE
  5
3BCC
  8
2-0
  6
CONTINUOUS
 62
     3
 10
9901.7572840000194
 20
17092.466244999981
 30
0.0
 11
8875.9390830000139
 21
17574.509767999989
 31
0.0
  0
LINE
  5
3BCD
  8
2-0
  6
CONTINUOUS
 62
     3
 10
10064.61029800002
 20
16947.93763499998
 30
0.0
 11
10215.51691800001
 21
16947.93763499998
 31
0.0
  0
LINE
  5
3BCE
  8
2-0
  6
CONTINUOUS
 62
     3
 10
9986.4945360000165
 20
16868.937027999989
 30
0.0
 11
10387.016469
 21
16868.937027999989
 31
0.0
  0
LINE
  5
3BCF
  8
2-0
  6
CONTINUOUS
 62
     3
 10
5529.444573000017
 20
16947.93763499998
 30
0.0
 11
9758.8459400000156
 21
16947.93763499998
 31
0.0
  0
LINE
  5
3BD0
  8
2-0
  6
CONTINUOUS
 62
     3
 10
5529.444573000017
 20
16868.937027999989
 30
0.0
 11
9680.7281990000156
 21
16868.937027999989
 31
0.0
  0
LINE
  5
3BD1
  8
2-0
  6
CONTINUOUS
 62
     3
 10
10059.60013700001
 20
15626.09133799998
 30
0.0
 11
10981.81231500001
 21
16594.94196299999
 31
0.0
  0
LINE
  5
3BD2
  8
2-0
  6
CONTINUOUS
 62
     3
 10
11285.444732000011
 20
13995.935443999981
 30
0.0
 11
10059.60013700001
 21
15293.77866599998
 31
0.0
  0
LINE
  5
3BD3
  8
2-0
  6
CONTINUOUS
 62
     3
 10
8517.4443090000132
 20
13995.935443999981
 30
0.0
 11
9759.6001370000176
 21
15310.917337999979
 31
0.0
  0
LINE
  5
3BD4
  8
2-0
  6
CONTINUOUS
 62
     3
 10
9759.6001370000176
 20
15608.952665999979
 30
0.0
 11
8517.4443090000132
 21
16913.935443999992
 31
0.0
  0
LINE
  5
3BD5
  8
2-0
  6
CONTINUOUS
 62
     3
 10
10059.60013700001
 20
13959.43411099999
 30
0.0
 11
14315.944731000011
 21
13959.43411099999
 31
0.0
  0
LINE
  5
3BD6
  8
2-0
  6
CONTINUOUS
 62
     3
 10
10059.60013700001
 20
14038.427789999991
 30
0.0
 11
14273.444468000011
 21
14038.427789999991
 31
0.0
  0
LINE
  5
3BD7
  8
2-0
  6
CONTINUOUS
 62
     3
 10
10059.60013700001
 20
13835.43706699999
 30
0.0
 11
14358.942884
 21
13835.43706699999
 31
0.0
  0
LINE
  5
3BD8
  8
2-0
  6
CONTINUOUS
 62
     3
 10
10059.60013700001
 20
13803.43814899998
 30
0.0
 11
14358.942884
 21
13803.43814899998
 31
0.0
  0
LINE
  5
3BD9
  8
2-0
  6
CONTINUOUS
 62
     3
 10
5486.9443090000159
 20
13959.43411099999
 30
0.0
 11
9759.6001370000176
 21
13959.43411099999
 31
0.0
  0
LINE
  5
3BDA
  8
2-0
  6
CONTINUOUS
 62
     3
 10
5529.444573000017
 20
14038.427789999991
 30
0.0
 11
9759.6001370000176
 21
14038.427789999991
 31
0.0
  0
LINE
  5
3BDB
  8
2-0
  6
CONTINUOUS
 62
     3
 10
5443.9421980000161
 20
13835.43706699999
 30
0.0
 11
9759.6001370000176
 21
13835.43706699999
 31
0.0
  0
LINE
  5
3BDC
  8
2-0
  6
CONTINUOUS
 62
     3
 10
5443.9421980000161
 20
13803.43814899998
 30
0.0
 11
9759.6001370000176
 21
13803.43814899998
 31
0.0
  0
LINE
  5
3BDD
  8
2-0
  6
CENTER2
 62
     6
 10
5529.444573000017
 20
20723.933729000011
 30
0.0
 11
5529.444573000017
 21
13803.43814899998
 31
0.0
  0
LINE
  5
3BDE
  8
2-0
  6
CENTER2
 62
     6
 10
8447.4445730000134
 20
20723.933729000011
 30
0.0
 11
8447.4445730000134
 21
13803.43814899998
 31
0.0
  0
LINE
  5
3BDF
  8
2-0
  6
CENTER2
 62
     6
 10
11355.444468000011
 20
20723.933729000011
 30
0.0
 11
11355.444468000011
 21
13803.43814899998
 31
0.0
  0
LINE
  5
3BE0
  8
2-0
  6
CENTER2
 62
     6
 10
14273.444468000011
 20
20723.933729000011
 30
0.0
 11
14273.444468000011
 21
13803.43814899998
 31
0.0
  0
CIRCLE
  5
3BE1
  8
2-0
  6
CONTINUOUS
 62
     4
 10
5529.444573000017
 20
20923.928451
 30
0.0
 40
200.00001
  0
CIRCLE
  5
3BE2
  8
2-0
  6
CONTINUOUS
 62
     4
 10
3999.9447970000151
 20
19481.435443999981
 30
0.0
 40
200.00001
  0
CIRCLE
  5
3BE3
  8
2-0
  6
CONTINUOUS
 62
     4
 10
3999.9520650000122
 20
16913.935443999992
 30
0.0
 40
200.00001
  0
CIRCLE
  5
3BE4
  8
2-0
  6
CONTINUOUS
 62
     4
 10
3999.9520650000122
 20
13995.935443999981
 30
0.0
 40
200.00001
  0
ARC
  5
3BE5
  8
2-0
  6
CONTINUOUS
 62
     3
 10
5448.9484000000157
 20
19698.929110000001
 30
0.0
 40
5.0
 50
90.0
 51
180.0
  0
ARC
  5
3BE6
  8
2-0
  6
CONTINUOUS
 62
     3
 10
5512.4454180000121
 20
19698.929110000001
 30
0.0
 40
5.0
 50
0.0
 51
90.0
  0
ARC
  5
3BE7
  8
2-0
  6
CONTINUOUS
 62
     3
 10
5512.4454180000121
 20
19668.931485000001
 30
0.0
 40
5.0
 50
269.9999850001808
 51
0.0
  0
ARC
  5
3BE8
  8
2-0
  6
CONTINUOUS
 62
     3
 10
14290.439664
 20
19668.931485000001
 30
0.0
 40
5.0
 50
180.0
 51
269.9999850001808
  0
ARC
  5
3BE9
  8
2-0
  6
CONTINUOUS
 62
     3
 10
14290.439664
 20
19698.929110000001
 30
0.0
 40
5.0
 50
90.0
 51
180.0
  0
ARC
  5
3BEA
  8
2-0
  6
CONTINUOUS
 62
     3
 10
14353.94460000001
 20
19698.929110000001
 30
0.0
 40
5.0
 50
0.0
 51
90.0
  0
CIRCLE
  5
3BEB
  8
2-0
  6
CONTINUOUS
 62
     4
 10
8447.4445730000134
 20
20923.932410000001
 30
0.0
 40
200.00001
  0
CIRCLE
  5
3BEC
  8
2-0
  6
CONTINUOUS
 62
     4
 10
11355.444468000011
 20
20923.934389000009
 30
0.0
 40
200.00001
  0
CIRCLE
  5
3BED
  8
2-0
  6
CONTINUOUS
 62
     4
 10
14273.444468000011
 20
20923.934389000009
 30
0.0
 40
200.00001
  0
CIRCLE
  5
3BEE
  8
0-0
  6
CONTINUOUS
 62
     4
 10
15109.290673
 20
1421.769174
 30
0.0
 40
20.000004000000001
  0
ARC
  5
3BEF
  8
0-0
  6
CONTINUOUS
 62
     4
 10
15109.290673
 20
1421.769174
 30
0.0
 40
20.000004000000001
 50
180.0
 51
0.0
  0
ARC
  5
3BF0
  8
0-0
  6
CONTINUOUS
 62
     4
 10
15109.290673
 20
1421.769174
 30
0.0
 40
20.000004000000001
 50
0.0
 51
179.99998499999839
  0
CIRCLE
  5
3BF1
  8
0-0
  6
CONTINUOUS
 62
     4
 10
15109.290673
 20
1821.76839
 30
0.0
 40
20.000004000000001
  0
ARC
  5
3BF2
  8
0-0
  6
CONTINUOUS
 62
     4
 10
15109.290673
 20
1821.76839
 30
0.0
 40
20.000004000000001
 50
180.0
 51
0.0
  0
ARC
  5
3BF3
  8
0-0
  6
CONTINUOUS
 62
     4
 10
15109.290673
 20
1821.76839
 30
0.0
 40
20.000004000000001
 50
0.0
 51
179.99998499999839
  0
TEXT
  5
3BF4
  8
2-0
  6
CONTINUOUS
 62
     7
 10
5476.2687660000147
 20
20834.270115999981
 30
0.0
 40
160.0
  1
1
 50
0.001418
 72
     4
 11
5502.9334527570118
 21
20914.270775942648
 31
0.0
  0
TEXT
  5
3BF5
  8
2-0
  6
CONTINUOUS
 62
     7
 10
3939.7139850000108
 20
19384.737940999988
 30
0.0
 40
160.0
  1
C
 72
     4
 11
3993.0473183333438
 21
19464.737940999988
 31
0.0
  0
TEXT
  5
3BF6
  8
2-0
  6
CONTINUOUS
 62
     7
 10
3950.7234180000132
 20
16823.350693999979
 30
0.0
 40
160.0
  1
B
 72
     4
 11
4004.0567513333458
 21
16903.350693999979
 31
0.0
  0
TEXT
  5
3BF7
  8
2-0
  6
CONTINUOUS
 62
     7
 10
3952.8236870000092
 20
13904.33025199998
 30
0.0
 40
160.0
  1
A
 72
     4
 11
4006.1570203333422
 21
13984.33025199998
 31
0.0
  0
TEXT
  5
3BF8
  8
2-0
  6
CONTINUOUS
 62
     7
 10
7381.5925880000168
 20
20013.93385999999
 30
0.0
 40
160.0
  1
屋根
 50
359.99964599999993
 72
     4
 11
7552.2597489406699
 21
20093.932805540338
 31
0.0
  0
TEXT
  5
3BF9
  8
2-0
  6
CONTINUOUS
 62
     7
 10
6292.0220120000149
 20
20733.93425599999
 30
0.0
 40
160.0
  1
鼻隠し後
 72
     4
 11
6654.6886786666819
 21
20813.93425599999
 31
0.0
  0
TEXT
  5
3BFA
  8
2-0
  6
CONTINUOUS
 62
     7
 10
5730.6127270000197
 20
20013.93385999999
 30
0.0
 40
160.0
  1
桁（後）
 50
359.99982299999999
 72
     4
 11
6050.6129741371151
 21
20093.932871445119
 31
0.0
  0
TEXT
  5
3BFB
  8
2-0
  6
CONTINUOUS
 62
     7
 10
6540.6792390000173
 20
17353.027372999972
 30
0.0
 40
160.0
  1
桁（中）
 50
359.99946799999998
 72
     4
 11
6860.6799817983519
 21
17433.024401748
 31
0.0
  0
TEXT
  5
3BFC
  8
2-0
  6
CONTINUOUS
 62
     7
 10
6502.7160310000163
 20
14457.26182699996
 30
0.0
 40
160.0
  1
桁（前）
 50
359.99973399999988
 72
     4
 11
6822.7164024026324
 21
14537.26034137484
 31
0.0
  0
TEXT
  5
3BFD
  8
2-0
  6
CONTINUOUS
 62
     7
 10
7410.2382020000196
 20
13083.43280399998
 30
0.0
 40
160.0
  1
鼻隠し前
 50
0.000532
 72
     4
 11
7772.9041258389234
 21
13163.43617141152
 31
0.0
  0
TEXT
  5
3BFE
  8
2-0
  6
CONTINUOUS
 62
     7
 10
3793.543364000016
 20
12683.436432999981
 30
0.0
 40
160.0
  1
ケラバ 左
 50
359.99976400000008
 72
     4
 11
4209.5436935146499
 21
12763.434719504859
 31
0.0
  0
TEXT
  5
3BFF
  8
2-0
  6
CONTINUOUS
 62
     7
 10
5773.9665860000168
 20
18140.05228799997
 30
0.0
 40
160.0
  1
上枠
 50
359.99893700000001
 72
     4
 11
5944.6347368653078
 21
18220.04912163315
 31
0.0
  0
TEXT
  5
3C00
  8
2-0
  6
CONTINUOUS
 62
     7
 10
6802.607158000018
 20
16480.547563999979
 30
0.0
 40
160.0
  1
ブレース
 50
0.000177
 72
     4
 11
7165.2735610504233
 21
16565.882017694661
 31
0.0
  0
TEXT
  5
3C01
  8
2-0
  6
CONTINUOUS
 62
     7
 10
12128.72756500001
 20
20733.93425599999
 30
0.0
 40
160.0
  1
鼻隠しコーナー後
 72
     4
 11
12875.39423166668
 21
20813.93425599999
 31
0.0
  0
TEXT
  5
3C02
  8
2-0
  6
CONTINUOUS
 62
     7
 10
7895.2598450000141
 20
15639.26602399998
 30
0.0
 40
160.0
  1
梁
 50
359.99893700000001
 72
     4
 11
7969.9279958818261
 21
15719.264638706751
 31
0.0
  0
TEXT
  5
3C03
  8
2-0
  6
CONTINUOUS
 62
     7
 10
8403.4616500000175
 20
20840.464028999992
 30
0.0
 40
160.0
  1
2
 72
     4
 11
8456.7949833333514
 21
20920.464028999992
 31
0.0
  0
TEXT
  5
3C04
  8
2-0
  6
CONTINUOUS
 62
     7
 10
14236.91443199999
 20
20862.294160000019
 30
0.0
 40
160.0
  1
n
 72
     4
 11
14290.24776533333
 21
20915.627493333352
 31
0.0
  0
TEXT
  5
3C05
  8
0-5
  6
CONTINUOUS
 62
     7
 10
11194.41828595787
 20
20851.3277237236
 30
0.0
 40
140.0
  1
n-1
 72
     4
 11
11357.751619291201
 21
20921.3277237236
 31
0.0
  0
TEXT
  5
3C06
  8
0-0
  6
CONTINUOUS
 62
     7
 10
8464.1259760000103
 20
11883.729548612961
 30
0.0
 40
160.0
  1
小 屋 伏 図
 72
     4
 11
8965.4593093333442
 21
11963.729548612961
 31
0.0
  0
TEXT
  5
3C07
  8
0-0
  6
CONTINUOUS
 62
     7
 10
16574.684729000001
 20
1701.768736999999
 30
0.0
 40
160.0
  1
H
 50
0.002127
  0
TEXT
  5
3C08
  8
0-0
  6
CONTINUOUS
 62
     7
 10
15156.719938
 20
1701.768736999999
 30
0.0
 40
160.0
  1
（ ）内寸法ハ、  タ  イプヲ示ス。
  0
TEXT
  5
3C09
  8
0-0
  6
CONTINUOUS
 62
     7
 10
15269.289221000001
 20
1301.7696439999979
 30
0.0
 40
160.0
  1
有効高サハ、基礎高サヲ含ミマセン。
  0
TEXT
  5
3C12
  8
0-3
  6
CONTINUOUS
 62
     7
 10
27544.4346805186
 20
3658.1200421350532
 30
0.0
 40
160.0
  1
連結する場合は強度上、下記間口寸法に一ヶ所
  0
TEXT
  5
3C13
  8
0-3
  6
CONTINUOUS
 62
     7
 10
27544.4346805186
 20
3451.291530856121
 30
0.0
 40
160.0
  1
中間ブレース、もしくは間仕切りが必要になります。
  0
TEXT
  5
3C14
  8
0-3
  6
CONTINUOUS
 62
     7
 10
27544.4346805186
 20
3124.142197938243
 30
0.0
 40
160.0
  1
標準タイプ：間口寸法 10.57ｍ以内に一箇所
  0
TEXT
  5
3C15
  8
0-3
  6
CONTINUOUS
 62
     7
 10
27571.745290429761
 20
2873.074148021421
 30
0.0
 40
160.0
  1
Hタイプ　：間口寸法 9.21ｍ以内に一箇所
  0
TEXT
  5
3C16
  8
2-0
  6
CONTINUOUS
 62
     7
 10
10316.951494470961
 20
11910.924917612951
 30
0.0
 40
160.0
  1
1
 72
     4
 11
10343.618161137631
 21
11990.924917612951
 31
0.0
  0
TEXT
  5
3C17
  8
2-0
  6
CONTINUOUS
 62
     7
 10
10560.040211721651
 20
11830.92638561294
 30
0.0
 40
160.0
  1
80
 72
     4
 11
10680.040211721651
 21
11910.92638561294
 31
0.0
  0
TEXT
  5
3C18
  8
2-0
  6
CONTINUOUS
 62
     7
 10
9817.9534604709697
 20
11883.729548612961
 30
0.0
 40
160.0
  1
(S=  /   )
 72
     4
 11
10377.95346047097
 21
11963.729548612961
 31
0.0
  0
LINE
  5
3C19
  8
0-1
  6
CONTINUOUS
 62
     3
 10
6676.1499280000071
 20
7795.5489240000006
 30
0.0
 11
12206.648344999991
 21
7795.5489240000006
 31
0.0
  0
LINE
  5
3C1A
  8
0-1
  6
CONTINUOUS
 62
     3
 10
5966.1490700000022
 20
5784.5030450000013
 30
0.0
 11
12239.148147
 21
5784.5030450000013
 31
0.0
  0
LINE
  5
3C1B
  8
0-1
  6
CONTINUOUS
 62
     3
 10
6771.1490040000053
 20
5934.5030449999986
 30
0.0
 11
9193.6482790000045
 21
5934.5030449999986
 31
0.0
  0
LINE
  5
3C1C
  8
0-1
  6
CONTINUOUS
 62
     3
 10
6648.6481469999999
 20
5884.5028800000018
 30
0.0
 11
12239.148147
 21
5884.5028800000018
 31
0.0
  0
LINE
  5
3C1D
  8
0-1
  6
CONTINUOUS
 62
     3
 10
6771.1490040000053
 20
7795.5489240000006
 30
0.0
 11
6771.1490040000053
 21
5884.5028800000018
 31
0.0
  0
LINE
  5
3C1E
  8
0-1
  6
CONTINUOUS
 62
     3
 10
6656.1488720000061
 20
7917.5169609999957
 30
0.0
 11
6656.1488720000061
 21
5884.5028800000018
 31
0.0
  0
LINE
  5
3C1F
  8
0-1
  6
CONTINUOUS
 62
     3
 10
6676.1499280000071
 20
7918.1721820000021
 30
0.0
 11
6676.1499280000071
 21
5884.5028800000018
 31
0.0
  0
LINE
  5
3C20
  8
0-1
  6
CONTINUOUS
 62
     3
 10
6648.6481469999999
 20
5784.5030450000013
 30
0.0
 11
6648.6481469999999
 21
5884.5028800000018
 31
0.0
  0
LINE
  5
3C21
  8
0-1
  6
CONTINUOUS
 62
     3
 10
12301.782029
 20
8101.992256999999
 30
0.0
 11
12297.522105
 21
8231.9219180000018
 31
0.0
  0
LINE
  5
3C22
  8
0-1
  6
CONTINUOUS
 62
     3
 10
9338.6480150000025
 20
5934.5030449999986
 30
0.0
 11
12111.648278999999
 21
5934.5030449999986
 31
0.0
  0
LINE
  5
3C23
  8
0-1
  6
CONTINUOUS
 62
     3
 10
8802.1480009999905
 20
5934.5030449999986
 30
0.0
 11
8802.1480009999905
 21
7795.5489240000006
 31
0.0
  0
LINE
  5
3C24
  8
0-1
  6
CONTINUOUS
 62
     3
 10
8669.1490970000032
 20
5934.5030449999986
 30
0.0
 11
8669.1490970000032
 21
7795.5489240000006
 31
0.0
  0
LINE
  5
3C25
  8
0-1
  6
CONTINUOUS
 62
     3
 10
8654.1473150000002
 20
5934.5030449999986
 30
0.0
 11
8654.1473150000002
 21
7795.5489240000006
 31
0.0
  0
LINE
  5
3C26
  8
0-1
  6
CONTINUOUS
 62
     3
 10
8852.1496509999888
 20
5934.5030449999986
 30
0.0
 11
8852.1496509999888
 21
7795.5489240000006
 31
0.0
  0
LINE
  5
3C27
  8
0-1
  6
CONTINUOUS
 62
     3
 10
8872.1487269999998
 20
5934.5030449999986
 30
0.0
 11
8872.1487269999998
 21
7795.5489240000006
 31
0.0
  0
LINE
  5
3C28
  8
0-1
  6
CONTINUOUS
 62
     3
 10
8922.1493870000013
 20
5934.5030449999986
 30
0.0
 11
8922.1493870000013
 21
7795.5489240000006
 31
0.0
  0
LINE
  5
3C29
  8
0-1
  6
CONTINUOUS
 62
     3
 10
9055.1482919999999
 20
5934.5030449999986
 30
0.0
 11
9055.1482919999999
 21
7795.5489240000006
 31
0.0
  0
LINE
  5
3C2A
  8
0-1
  6
CONTINUOUS
 62
     3
 10
9070.1471040000033
 20
5934.5030449999986
 30
0.0
 11
9070.1471040000033
 21
7795.5489240000006
 31
0.0
  0
LINE
  5
3C2B
  8
0-1
  6
CONTINUOUS
 62
     3
 10
9338.6480150000025
 20
7795.5489240000006
 30
0.0
 11
9338.6480150000025
 21
5884.5028800000018
 31
0.0
  0
LINE
  5
3C2C
  8
0-1
  6
CONTINUOUS
 62
     3
 10
9193.6482790000045
 20
7795.5489240000006
 30
0.0
 11
9193.6482790000045
 21
5884.5028800000018
 31
0.0
  0
LINE
  5
3C2D
  8
0-1
  6
CONTINUOUS
 62
     3
 10
9462.1472099999955
 20
5934.5030449999986
 30
0.0
 11
9462.1472099999955
 21
7795.5489240000006
 31
0.0
  0
LINE
  5
3C2E
  8
0-1
  6
CONTINUOUS
 62
     3
 10
9477.1489909999982
 20
5934.5030449999986
 30
0.0
 11
9477.1489909999982
 21
7795.5489240000006
 31
0.0
  0
LINE
  5
3C2F
  8
0-1
  6
CONTINUOUS
 62
     3
 10
9610.1478960000022
 20
5934.5030449999986
 30
0.0
 11
9610.1478960000022
 21
7795.5489240000006
 31
0.0
  0
LINE
  5
3C30
  8
0-1
  6
CONTINUOUS
 62
     3
 10
9660.1485559999965
 20
5934.5030449999986
 30
0.0
 11
9660.1485559999965
 21
7795.5489240000006
 31
0.0
  0
LINE
  5
3C31
  8
0-1
  6
CONTINUOUS
 62
     3
 10
9680.1476320000002
 20
5934.5030449999986
 30
0.0
 11
9680.1476320000002
 21
7795.5489240000006
 31
0.0
  0
LINE
  5
3C32
  8
0-1
  6
CONTINUOUS
 62
     3
 10
7452.1480009999868
 20
5934.5030449999986
 30
0.0
 11
7452.1480009999868
 21
7795.5489240000006
 31
0.0
  0
LINE
  5
3C33
  8
0-1
  6
CONTINUOUS
 62
     3
 10
7472.1500470000028
 20
5934.5030449999986
 30
0.0
 11
7472.1500470000028
 21
7795.5489240000006
 31
0.0
  0
LINE
  5
3C34
  8
0-1
  6
CONTINUOUS
 62
     3
 10
7402.1473419999893
 20
5934.5030449999986
 30
0.0
 11
7402.1473419999893
 21
7795.5489240000006
 31
0.0
  0
LINE
  5
3C35
  8
0-1
  6
CONTINUOUS
 62
     3
 10
7522.1477379999978
 20
5934.5030449999986
 30
0.0
 11
7522.1477379999978
 21
7795.5489240000006
 31
0.0
  0
LINE
  5
3C36
  8
0-1
  6
CONTINUOUS
 62
     3
 10
7655.1476320000029
 20
5934.5030449999986
 30
0.0
 11
7655.1476320000029
 21
7795.5489240000006
 31
0.0
  0
LINE
  5
3C37
  8
0-1
  6
CONTINUOUS
 62
     3
 10
7670.1494139999977
 20
5934.5030449999986
 30
0.0
 11
7670.1494139999977
 21
7795.5489240000006
 31
0.0
  0
LINE
  5
3C38
  8
0-1
  6
CONTINUOUS
 62
     3
 10
7259.6486610000075
 20
5934.5030449999986
 30
0.0
 11
7259.6486610000075
 21
7795.5489240000006
 31
0.0
  0
LINE
  5
3C39
  8
0-1
  6
CONTINUOUS
 62
     3
 10
7244.6498490000049
 20
5934.5030449999986
 30
0.0
 11
7244.6498490000049
 21
7795.5489240000006
 31
0.0
  0
LINE
  5
3C3A
  8
0-1
  6
CONTINUOUS
 62
     3
 10
7954.1479749999889
 20
5934.5030449999986
 30
0.0
 11
7954.1479749999889
 21
7795.5489240000006
 31
0.0
  0
LINE
  5
3C3B
  8
0-1
  6
CONTINUOUS
 62
     3
 10
7969.1467869999906
 20
5934.5030449999986
 30
0.0
 11
7969.1467869999906
 21
7795.5489240000006
 31
0.0
  0
LINE
  5
3C3C
  8
0-1
  6
CONTINUOUS
 62
     3
 10
8370.1487540000016
 20
5934.5030449999986
 30
0.0
 11
8370.1487540000016
 21
7795.5489240000006
 31
0.0
  0
LINE
  5
3C3D
  8
0-1
  6
CONTINUOUS
 62
     3
 10
8355.1469720000023
 20
5934.5030449999986
 30
0.0
 11
8355.1469720000023
 21
7795.5489240000006
 31
0.0
  0
LINE
  5
3C3E
  8
0-1
  6
CONTINUOUS
 62
     3
 10
8222.1470779999909
 20
5934.5030449999986
 30
0.0
 11
8222.1470779999909
 21
7795.5489240000006
 31
0.0
  0
LINE
  5
3C3F
  8
0-1
  6
CONTINUOUS
 62
     3
 10
8102.148661000002
 20
5934.5030449999986
 30
0.0
 11
8102.148661000002
 21
7795.5489240000006
 31
0.0
  0
LINE
  5
3C40
  8
0-1
  6
CONTINUOUS
 62
     3
 10
8172.1493869999904
 20
5934.5030449999986
 30
0.0
 11
8172.1493869999904
 21
7795.5489240000006
 31
0.0
  0
LINE
  5
3C41
  8
0-1
  6
CONTINUOUS
 62
     3
 10
8152.1473419999902
 20
5934.5030449999986
 30
0.0
 11
8152.1473419999902
 21
7795.5489240000006
 31
0.0
  0
LINE
  5
3C42
  8
0-1
  6
CONTINUOUS
 62
     3
 10
8493.6489380000057
 20
7795.5489240000006
 30
0.0
 11
8493.6489380000057
 21
5934.5030449999986
 31
0.0
  0
LINE
  5
3C43
  8
0-1
  6
CONTINUOUS
 62
     3
 10
8530.6471310000015
 20
7795.5489240000006
 30
0.0
 11
8530.6471310000015
 21
5934.5030449999986
 31
0.0
  0
LINE
  5
3C44
  8
0-1
  6
CONTINUOUS
 62
     3
 10
7084.1485030000067
 20
7795.5489240000006
 30
0.0
 11
7084.1485030000067
 21
5934.5030449999986
 31
0.0
  0
LINE
  5
3C45
  8
0-1
  6
CONTINUOUS
 62
     3
 10
7121.1486740000073
 20
7795.5489240000006
 30
0.0
 11
7121.1486740000073
 21
5934.5030449999986
 31
0.0
  0
LINE
  5
3C46
  8
0-1
  6
CONTINUOUS
 62
     3
 10
7793.6495980000027
 20
7795.5489240000006
 30
0.0
 11
7793.6495980000027
 21
5934.5030449999986
 31
0.0
  0
LINE
  5
3C47
  8
0-1
  6
CONTINUOUS
 62
     3
 10
7830.64778999999
 20
7795.5489240000006
 30
0.0
 11
7830.64778999999
 21
5934.5030449999986
 31
0.0
  0
LINE
  5
3C48
  8
0-1
  6
CONTINUOUS
 62
     3
 10
9266.1481469999999
 20
8002.7847239999974
 30
0.0
 11
9261.8872330000013
 21
8132.7143850000029
 31
0.0
  0
LINE
  5
3C49
  8
0-1
  6
CONTINUOUS
 62
     3
 10
9266.1481469999999
 20
8002.7847239999974
 30
0.0
 11
9266.1481469999999
 21
7795.5489240000006
 31
0.0
  0
LINE
  5
3C4A
  8
0-1
  6
CONTINUOUS
 62
     3
 10
12111.648278999999
 20
7795.5489240000006
 30
0.0
 11
12111.648278999999
 21
5884.5028800000018
 31
0.0
  0
LINE
  5
3C4B
  8
0-1
  6
CONTINUOUS
 62
     3
 10
12226.647421
 20
8099.5287460000018
 30
0.0
 11
12226.647421
 21
5884.5028800000018
 31
0.0
  0
LINE
  5
3C4C
  8
0-1
  6
CONTINUOUS
 62
     3
 10
12206.648344999991
 20
8098.8725359999999
 30
0.0
 11
12206.648344999991
 21
5884.5028800000018
 31
0.0
  0
LINE
  5
3C4D
  8
0-1
  6
CONTINUOUS
 62
     3
 10
10701.648502999969
 20
7795.5489240000006
 30
0.0
 11
10701.648502999969
 21
5934.5030449999986
 31
0.0
  0
LINE
  5
3C4E
  8
0-1
  6
CONTINUOUS
 62
     3
 10
10738.647684999991
 20
7795.5489240000006
 30
0.0
 11
10738.647684999991
 21
5934.5030449999986
 31
0.0
  0
LINE
  5
3C4F
  8
0-1
  6
CONTINUOUS
 62
     3
 10
11411.648939000001
 20
7795.5489240000006
 30
0.0
 11
11411.648939000001
 21
5934.5030449999986
 31
0.0
  0
LINE
  5
3C50
  8
0-1
  6
CONTINUOUS
 62
     3
 10
11448.647131
 20
7795.5489240000006
 30
0.0
 11
11448.647131
 21
5934.5030449999986
 31
0.0
  0
LINE
  5
3C51
  8
0-1
  6
CONTINUOUS
 62
     3
 10
10001.64718299999
 20
7795.5489240000006
 30
0.0
 11
10001.64718299999
 21
5934.5030449999986
 31
0.0
  0
LINE
  5
3C52
  8
0-1
  6
CONTINUOUS
 62
     3
 10
10038.64834499998
 20
7795.5489240000006
 30
0.0
 11
10038.64834499998
 21
5934.5030449999986
 31
0.0
  0
LINE
  5
3C53
  8
0-1
  6
CONTINUOUS
 62
     3
 10
10380.146972
 20
5934.5030449999986
 30
0.0
 11
10380.146972
 21
7795.5489240000006
 31
0.0
  0
LINE
  5
3C54
  8
0-1
  6
CONTINUOUS
 62
     3
 10
10360.147895999989
 20
5934.5030449999986
 30
0.0
 11
10360.147895999989
 21
7795.5489240000006
 31
0.0
  0
LINE
  5
3C55
  8
0-1
  6
CONTINUOUS
 62
     3
 10
10430.147631999989
 20
5934.5030449999986
 30
0.0
 11
10430.147631999989
 21
7795.5489240000006
 31
0.0
  0
LINE
  5
3C56
  8
0-1
  6
CONTINUOUS
 62
     3
 10
10310.147236000001
 20
5934.5030449999986
 30
0.0
 11
10310.147236000001
 21
7795.5489240000006
 31
0.0
  0
LINE
  5
3C57
  8
0-1
  6
CONTINUOUS
 62
     3
 10
10177.147342
 20
5934.5030449999986
 30
0.0
 11
10177.147342
 21
7795.5489240000006
 31
0.0
  0
LINE
  5
3C58
  8
0-1
  6
CONTINUOUS
 62
     3
 10
10162.148529
 20
5934.5030449999986
 30
0.0
 11
10162.148529
 21
7795.5489240000006
 31
0.0
  0
LINE
  5
3C59
  8
0-1
  6
CONTINUOUS
 62
     3
 10
10563.147525999981
 20
5934.5030449999986
 30
0.0
 11
10563.147525999981
 21
7795.5489240000006
 31
0.0
  0
LINE
  5
3C5A
  8
0-1
  6
CONTINUOUS
 62
     3
 10
10578.149307999989
 20
5934.5030449999986
 30
0.0
 11
10578.149307999989
 21
7795.5489240000006
 31
0.0
  0
LINE
  5
3C5B
  8
0-1
  6
CONTINUOUS
 62
     3
 10
11278.14864799998
 20
5934.5030449999986
 30
0.0
 11
11278.14864799998
 21
7795.5489240000006
 31
0.0
  0
LINE
  5
3C5C
  8
0-1
  6
CONTINUOUS
 62
     3
 10
11263.146866999999
 20
5934.5030449999986
 30
0.0
 11
11263.146866999999
 21
7795.5489240000006
 31
0.0
  0
LINE
  5
3C5D
  8
0-1
  6
CONTINUOUS
 62
     3
 10
10862.147870000001
 20
5934.5030449999986
 30
0.0
 11
10862.147870000001
 21
7795.5489240000006
 31
0.0
  0
LINE
  5
3C5E
  8
0-1
  6
CONTINUOUS
 62
     3
 10
10877.148660999999
 20
5934.5030449999986
 30
0.0
 11
10877.148660999999
 21
7795.5489240000006
 31
0.0
  0
LINE
  5
3C5F
  8
0-1
  6
CONTINUOUS
 62
     3
 10
11010.149546000001
 20
5934.5030449999986
 30
0.0
 11
11010.149546000001
 21
7795.5489240000006
 31
0.0
  0
LINE
  5
3C60
  8
0-1
  6
CONTINUOUS
 62
     3
 10
11130.146972
 20
5934.5030449999986
 30
0.0
 11
11130.146972
 21
7795.5489240000006
 31
0.0
  0
LINE
  5
3C61
  8
0-1
  6
CONTINUOUS
 62
     3
 10
11060.147236000001
 20
5934.5030449999986
 30
0.0
 11
11060.147236000001
 21
7795.5489240000006
 31
0.0
  0
LINE
  5
3C62
  8
0-1
  6
CONTINUOUS
 62
     3
 10
11080.14928199998
 20
5934.5030449999986
 30
0.0
 11
11080.14928199998
 21
7795.5489240000006
 31
0.0
  0
LINE
  5
3C63
  8
0-1
  6
CONTINUOUS
 62
     3
 10
11790.148728
 20
5934.5030449999986
 30
0.0
 11
11790.148728
 21
7795.5489240000006
 31
0.0
  0
LINE
  5
3C64
  8
0-1
  6
CONTINUOUS
 62
     3
 10
11770.149652
 20
5934.5030449999986
 30
0.0
 11
11770.149652
 21
7795.5489240000006
 31
0.0
  0
LINE
  5
3C65
  8
0-1
  6
CONTINUOUS
 62
     3
 10
11840.149387999991
 20
5934.5030449999986
 30
0.0
 11
11840.149387999991
 21
7795.5489240000006
 31
0.0
  0
LINE
  5
3C66
  8
0-1
  6
CONTINUOUS
 62
     3
 10
11720.148992
 20
5934.5030449999986
 30
0.0
 11
11720.148992
 21
7795.5489240000006
 31
0.0
  0
LINE
  5
3C67
  8
0-1
  6
CONTINUOUS
 62
     3
 10
11587.149097
 20
5934.5030449999986
 30
0.0
 11
11587.149097
 21
7795.5489240000006
 31
0.0
  0
LINE
  5
3C68
  8
0-1
  6
CONTINUOUS
 62
     3
 10
11572.14731599998
 20
5934.5030449999986
 30
0.0
 11
11572.14731599998
 21
7795.5489240000006
 31
0.0
  0
LINE
  5
3C69
  8
0-1
  6
CONTINUOUS
 62
     3
 10
11973.149281999989
 20
5934.5030449999986
 30
0.0
 11
11973.149281999989
 21
7795.5489240000006
 31
0.0
  0
LINE
  5
3C6A
  8
0-1
  6
CONTINUOUS
 62
     3
 10
11988.14809399998
 20
5934.5030449999986
 30
0.0
 11
11988.14809399998
 21
7795.5489240000006
 31
0.0
  0
LINE
  5
3C6B
  8
0-1
  6
CONTINUOUS
 62
     3
 10
9878.1469990000005
 20
5934.5030449999986
 30
0.0
 11
9878.1469990000005
 21
7795.5489240000006
 31
0.0
  0
LINE
  5
3C6C
  8
0-1
  6
CONTINUOUS
 62
     3
 10
9863.1481860000022
 20
5934.5030449999986
 30
0.0
 11
9863.1481860000022
 21
7795.5489240000006
 31
0.0
  0
LINE
  5
3C6D
  8
0-1
  6
CONTINUOUS
 62
     3
 10
9730.1492820000021
 20
5934.5030449999986
 30
0.0
 11
9730.1492820000021
 21
7795.5489240000006
 31
0.0
  0
LINE
  5
3C6E
  8
0-1
  6
CONTINUOUS
 62
     3
 10
12239.148147
 20
5884.5028800000018
 30
0.0
 11
12239.148147
 21
5784.5030450000013
 31
0.0
  0
LINE
  5
3C6F
  8
0-1
  6
CONTINUOUS
 62
     3
 10
6478.8364650000067
 20
7959.728215000001
 30
0.0
 11
6477.7219960000084
 21
7993.7106109999968
 31
0.0
  0
LINE
  5
3C70
  8
0-1
  6
CONTINUOUS
 62
     3
 10
6480.6219910000063
 20
7996.8065780000006
 30
0.0
 11
12310.989759
 21
8187.3392000000022
 31
0.0
  0
LINE
  5
3C71
  8
0-1
  6
CONTINUOUS
 62
     3
 10
12312.30118999998
 20
8147.3608429999986
 30
0.0
 11
6481.9344110000056
 21
7956.8282210000016
 31
0.0
  0
LINE
  5
3C72
  8
0-1
  6
CONTINUOUS
 62
     3
 10
6479.1977269999979
 20
7948.7339690000017
 30
0.0
 11
6479.1947580000051
 21
7948.7992930000028
 31
0.0
  0
LINE
  5
3C73
  8
0-1
  6
CONTINUOUS
 62
     3
 10
6479.1947580000051
 20
7948.7992930000028
 30
0.0
 11
6480.245882000002
 21
7916.7518770000024
 31
0.0
  0
LINE
  5
3C74
  8
0-1
  6
CONTINUOUS
 62
     3
 10
6485.4064869999966
 20
7911.9188830000021
 30
0.0
 11
12334.74596199999
 21
8103.0730740000017
 31
0.0
  0
LINE
  5
3C75
  8
0-1
  6
CONTINUOUS
 62
     3
 10
12330.485048
 20
8233.0027350000037
 30
0.0
 11
6481.1475530000034
 21
8041.8485440000022
 31
0.0
  0
LINE
  5
3C76
  8
0-1
  6
CONTINUOUS
 62
     3
 10
6476.3125790000049
 20
8036.6869489999981
 30
0.0
 11
6477.3627130000023
 21
8004.7048569999979
 31
0.0
  0
LINE
  5
3C77
  8
0-1
  6
CONTINUOUS
 62
     3
 10
6480.4586800000043
 20
8001.8048619999981
 30
0.0
 11
12310.827439000001
 21
8192.3374850000018
 31
0.0
  0
LINE
  5
3C78
  8
0-1
  6
CONTINUOUS
 62
     3
 10
12312.463511
 20
8142.3645380000016
 30
0.0
 11
6482.0967320000054
 21
7951.8309260000033
 31
0.0
  0
LINE
  5
3C79
  8
0-1
  6
CONTINUOUS
 62
     3
 10
6493.6393050000052
 20
8042.258304
 30
0.0
 11
6497.9002180000016
 21
7912.3276530000021
 31
0.0
  0
LINE
  5
3C7A
  8
0-5
  6
CONTINUOUS
 62
     4
 10
12319.148411
 20
5884.5028800000018
 30
0.0
 11
14036.608359
 21
5884.5028800000018
 31
0.0
  0
LINE
  5
3C7B
  8
0-5
  6
CONTINUOUS
 62
     4
 10
14064.234519999991
 20
6092.3488670000024
 30
0.0
 11
13824.23273899999
 21
6092.3488670000024
 31
0.0
  0
LINE
  5
3C7C
  8
0-5
  6
CONTINUOUS
 62
     4
 10
13944.232144999991
 20
5884.5028800000018
 30
0.0
 11
14064.234519999991
 21
6092.3488670000024
 31
0.0
  0
LINE
  5
3C7D
  8
0-5
  6
CONTINUOUS
 62
     4
 10
13824.23273899999
 20
6092.3488670000024
 30
0.0
 11
13944.232144999991
 21
5884.5028800000018
 31
0.0
  0
LINE
  5
3C7E
  8
2-0
  6
CENTER2
 62
     6
 10
6698.6481469999999
 20
5521.8496330000035
 30
0.0
 11
6698.6481469999999
 21
6578.9927249999982
 31
0.0
  0
LINE
  5
3C7F
  8
2-0
  6
CENTER2
 62
     6
 10
9266.1481469999999
 20
5521.8496330000035
 30
0.0
 11
9266.1481469999999
 21
6578.9927249999982
 31
0.0
  0
LINE
  5
3C80
  8
2-0
  6
CENTER2
 62
     6
 10
12184.148147
 20
5521.8496330000035
 30
0.0
 11
12184.148147
 21
6578.9927249999982
 31
0.0
  0
ARC
  5
3C81
  8
0-1
  6
CONTINUOUS
 62
     3
 10
6482.0393260000046
 20
7999.3542180000022
 30
0.0
 40
2.5
 50
271.87799100002047
 51
91.877991000020657
  0
ARC
  5
3C82
  8
0-1
  6
CONTINUOUS
 62
     3
 10
6483.5140670000046
 20
7954.3795560000017
 30
0.0
 40
2.5
 50
271.87799100002047
 51
91.877991000020657
  0
ARC
  5
3C83
  8
0-1
  6
CONTINUOUS
 62
     3
 10
6480.7199770000043
 20
7993.8085970000011
 30
0.0
 40
3.0
 50
91.877991000020657
 51
181.87799100002039
  0
ARC
  5
3C84
  8
0-1
  6
CONTINUOUS
 62
     3
 10
12311.64597
 20
8167.3500219999987
 30
0.0
 40
20.0
 50
271.87799100002047
 51
91.877991000020657
  0
ARC
  5
3C85
  8
0-1
  6
CONTINUOUS
 62
     3
 10
6481.8344460000053
 20
7959.8271909999976
 30
0.0
 40
3.0
 50
181.87799100002039
 51
271.87799100002047
  0
ARC
  5
3C86
  8
0-1
  6
CONTINUOUS
 62
     3
 10
6482.1947180000061
 20
7948.8329450000028
 30
0.0
 40
3.0
 50
91.877991000020657
 51
181.87799100002039
  0
ARC
  5
3C87
  8
0-1
  6
CONTINUOUS
 62
     3
 10
6485.2431770000039
 20
7916.9151880000027
 30
0.0
 40
5.0
 50
181.87799100002039
 51
271.87799100002047
  0
ARC
  5
3C88
  8
0-1
  6
CONTINUOUS
 62
     3
 10
12306.647685
 20
8167.1867120000006
 30
0.0
 40
69.999999000000003
 50
293.66478000014621
 51
70.09120200017675
  0
ARC
  5
3C89
  8
0-1
  6
CONTINUOUS
 62
     3
 10
6481.3098730000056
 20
8036.851249000003
 30
0.0
 40
5.0
 50
91.877991000020657
 51
181.87799100002039
  0
ARC
  5
3C8A
  8
0-1
  6
CONTINUOUS
 62
     3
 10
6480.3597040000031
 20
8004.8028430000031
 30
0.0
 40
3.0
 50
181.87799100002039
 51
271.87799100002047
  0
ARC
  5
3C8B
  8
0-1
  6
CONTINUOUS
 62
     3
 10
12311.64597
 20
8167.3500219999987
 30
0.0
 40
24.999998999999999
 50
271.87799100002047
 51
91.877991000020657
  0
TEXT
  5
3C8C
  8
0-0
  6
CONTINUOUS
 62
     7
 10
13485.141205999989
 20
6172.3491309999972
 30
0.0
 40
160.0
  1
布基礎天端
 72
     4
 11
13943.807872666661
 21
6252.3491309999981
 31
0.0
  0
TEXT
  5
3C8D
  8
2-0
  6
CONTINUOUS
 62
     7
 10
7785.557326000001
 20
2907.3829785833759
 30
0.0
 40
160.0
  1
側 面 立 面 図
 72
     4
 11
8430.890659333334
 21
2987.3829785833759
 31
0.0
  0
TEXT
  5
3C8E
  8
2-0
  6
CONTINUOUS
 62
     7
 10
9782.3828444709598
 20
2934.5783475833759
 30
0.0
 40
160.0
  1
1
 72
     4
 11
9809.0495111376258
 21
3014.5783475833759
 31
0.0
  0
TEXT
  5
3C8F
  8
2-0
  6
CONTINUOUS
 62
     7
 10
10025.47156172165
 20
2854.5798155833741
 30
0.0
 40
160.0
  1
80
 72
     4
 11
10145.47156172165
 21
2934.5798155833741
 31
0.0
  0
TEXT
  5
3C90
  8
2-0
  6
CONTINUOUS
 62
     7
 10
9283.3848104709577
 20
2907.3829785833759
 30
0.0
 40
160.0
  1
(S=  /   )
 72
     4
 11
9843.3848104709577
 21
2987.3829785833759
 31
0.0
  0
LINE
  5
3C91
  8
0-1
  6
CONTINUOUS
 62
     3
 10
6951.1486080000213
 20
5934.5030449999986
 30
0.0
 11
6951.1486080000213
 21
7795.5489240000006
 31
0.0
  0
LINE
  5
3C92
  8
0-1
  6
CONTINUOUS
 62
     3
 10
6936.1497960000197
 20
5934.5030449999986
 30
0.0
 11
6936.1497960000197
 21
7795.5489240000006
 31
0.0
  0
LINE
  5
3C93
  8
0-5
  6
CONTINUOUS
 62
     4
 10
12184.148147
 20
4104.5034410000017
 30
0.0
 11
12184.148147
 21
3944.503903000003
 31
0.0
  0
LINE
  5
3C94
  8
0-5
  6
CONTINUOUS
 62
     4
 10
9266.1481469999999
 20
4104.5034410000017
 30
0.0
 11
9266.1481469999999
 21
3944.503903000003
 31
0.0
  0
LINE
  5
3C95
  8
0-5
  6
CONTINUOUS
 62
     4
 10
6698.6481469999999
 20
4104.5034410000017
 30
0.0
 11
6698.6481469999999
 21
3944.503903000003
 31
0.0
  0
CIRCLE
  5
3C96
  8
0-5
  6
CONTINUOUS
 62
     4
 10
9266.1481469999999
 20
3744.502748000004
 30
0.0
 40
199.9999949999999
  0
CIRCLE
  5
3C97
  8
0-5
  6
CONTINUOUS
 62
     4
 10
12184.148147
 20
3744.502748000004
 30
0.0
 40
199.9999949999999
  0
CIRCLE
  5
3C98
  8
0-5
  6
CONTINUOUS
 62
     4
 10
6698.6481469999999
 20
3744.502748000004
 30
0.0
 40
199.9999949999999
  0
TEXT
  5
3C99
  8
0-5
  6
CONTINUOUS
 62
     7
 10
12137.191987
 20
3661.291952000005
 30
0.0
 40
160.0
  1
A
 72
     4
 11
12190.52532033333
 21
3741.291952000005
 31
0.0
  0
TEXT
  5
3C9A
  8
0-5
  6
CONTINUOUS
 62
     7
 10
9219.1919869999983
 20
3661.291952000005
 30
0.0
 40
160.0
  1
B
 72
     4
 11
9272.5253203333323
 21
3741.291952000005
 31
0.0
  0
TEXT
  5
3C9B
  8
0-5
  6
CONTINUOUS
 62
     7
 10
6651.6919870000047
 20
3661.291952000005
 30
0.0
 40
160.0
  1
C
 72
     4
 11
6705.0253203333377
 21
3741.291952000005
 31
0.0
  0
LINE
  5
3C9C
  8
SUNPOU
  6
CONTINUOUS
 10
6476.1481469999999
 20
9032.5045560000017
 30
0.0
 11
5940.0225054121402
 21
9032.5045560000017
 31
0.0
  0
LINE
  5
3C9D
  8
0-5
  6
CONTINUOUS
 62
     4
 10
12319.14890700001
 20
5784.5025500000047
 30
0.0
 11
17584.543068999999
 21
5784.5025500000047
 31
0.0
  0
LINE
  5
3CA8
  8
0-1
  6
CONTINUOUS
 62
     3
 10
26100.549930999961
 20
5884.5023850000016
 30
0.0
 11
26000.55058999997
 21
5884.5023850000016
 31
0.0
  0
LINE
  5
3CA9
  8
0-1
  6
CONTINUOUS
 62
     3
 10
26000.55058999997
 20
5884.5023850000016
 30
0.0
 11
26000.55058999997
 21
5784.5025500000047
 31
0.0
  0
LINE
  5
3CAA
  8
0-1
  6
CONTINUOUS
 62
     3
 10
26100.549930999961
 20
5784.5025500000047
 30
0.0
 11
26100.549930999961
 21
5884.5023850000016
 31
0.0
  0
LINE
  5
3CAB
  8
0-1
  6
CONTINUOUS
 62
     3
 10
26073.050457999962
 20
8233.0027340000088
 30
0.0
 11
26073.050457999962
 21
5884.5023850000016
 31
0.0
  0
LINE
  5
3CAC
  8
0-1
  6
CONTINUOUS
 62
     3
 10
26093.049534999958
 20
8103.0018110000028
 30
0.0
 11
26093.049534999958
 21
5884.5023850000016
 31
0.0
  0
LINE
  5
3CAD
  8
0-1
  6
CONTINUOUS
 62
     3
 10
25963.050589999952
 20
7792.5024439999988
 30
0.0
 11
25963.050589999952
 21
5784.5025500000047
 31
0.0
  0
LINE
  5
3CAE
  8
0-1
  6
CONTINUOUS
 62
     3
 10
26008.050985999958
 20
8103.0018110000028
 30
0.0
 11
26008.050985999958
 21
5884.5023850000016
 31
0.0
  0
LINE
  5
3CB9
  8
0-1
  6
CONTINUOUS
 62
     3
 10
22287.500706999988
 20
7218.2188650000007
 30
0.0
 11
22041.656375999992
 21
7403.6596710000031
 31
0.0
  0
LINE
  5
3CBA
  8
0-1
  6
CONTINUOUS
 62
     3
 10
21899.532880999988
 20
7135.086508000004
 30
0.0
 11
21741.656375999992
 21
7254.175830000002
 31
0.0
  0
LINE
  5
3CBB
  8
0-1
  6
CONTINUOUS
 62
     3
 10
21681.55027399999
 20
6605.406431000004
 30
0.0
 11
22287.500706999988
 21
7218.2188650000007
 31
0.0
  0
LINE
  5
3CC2
  8
0-1
  6
CONTINUOUS
 62
     3
 10
21735.777205999992
 20
6564.5026490000037
 30
0.0
 11
23045.050590999988
 21
6564.5026490000037
 31
0.0
  0
LINE
  5
3CC3
  8
0-1
  6
CONTINUOUS
 62
     3
 10
21705.375759999999
 20
6629.5026160000052
 30
0.0
 11
23045.050590999988
 21
6629.5026160000052
 31
0.0
  0
LINE
  5
3CC4
  8
0-1
  6
CONTINUOUS
 62
     3
 10
21769.648747999989
 20
6694.5025830000022
 30
0.0
 11
23045.050590999988
 21
6694.5025830000022
 31
0.0
  0
LINE
  5
3CC5
  8
0-1
  6
CONTINUOUS
 62
     3
 10
21833.921736999971
 20
6759.5030450000049
 30
0.0
 11
23045.050590999988
 21
6759.5030450000049
 31
0.0
  0
LINE
  5
3CC6
  8
0-1
  6
CONTINUOUS
 62
     3
 10
21898.19274599999
 20
6824.5020220000033
 30
0.0
 11
23045.050590999988
 21
6824.5020220000033
 31
0.0
  0
LINE
  5
3CC7
  8
0-1
  6
CONTINUOUS
 62
     3
 10
21962.465734999991
 20
6889.5024840000024
 30
0.0
 11
23045.050590999988
 21
6889.5024840000024
 31
0.0
  0
LINE
  5
3CC8
  8
0-1
  6
CONTINUOUS
 62
     3
 10
22026.736744999969
 20
6954.5024510000021
 30
0.0
 11
23045.050590999988
 21
6954.5024510000021
 31
0.0
  0
LINE
  5
3CC9
  8
0-1
  6
CONTINUOUS
 62
     3
 10
22091.009732999992
 20
7019.5029130000021
 30
0.0
 11
23045.050590999988
 21
7019.5029130000021
 31
0.0
  0
LINE
  5
3CCA
  8
0-1
  6
CONTINUOUS
 62
     3
 10
22155.280742999988
 20
7084.5018900000023
 30
0.0
 11
23045.050590999988
 21
7084.5018900000023
 31
0.0
  0
LINE
  5
3CCB
  8
0-1
  6
CONTINUOUS
 62
     3
 10
22219.553730999982
 20
7149.5023520000068
 30
0.0
 11
23045.050590999988
 21
7149.5023520000068
 31
0.0
  0
LINE
  5
3CCC
  8
0-1
  6
CONTINUOUS
 62
     3
 10
22283.824741
 20
7214.5023190000011
 30
0.0
 11
23045.050590999988
 21
7214.5023190000011
 31
0.0
  0
LINE
  5
3CCD
  8
0-1
  6
CONTINUOUS
 62
     3
 10
22206.25532599997
 20
7279.5022860000063
 30
0.0
 11
23045.050590999988
 21
7279.5022860000063
 31
0.0
  0
LINE
  5
3CCE
  8
0-1
  6
CONTINUOUS
 62
     3
 10
22120.080942999979
 20
7344.502748000009
 30
0.0
 11
23045.050590999988
 21
7344.502748000009
 31
0.0
  0
LINE
  5
3CCF
  8
0-1
  6
CONTINUOUS
 62
     3
 10
22041.656375999992
 20
7409.5027150000051
 30
0.0
 11
23045.050590999988
 21
7409.5027150000051
 31
0.0
  0
LINE
  5
3CD0
  8
0-1
  6
CONTINUOUS
 62
     3
 10
22041.656375999992
 20
7474.5031770000023
 30
0.0
 11
23045.050590999988
 21
7474.5031770000023
 31
0.0
  0
LINE
  5
3CD1
  8
0-1
  6
CONTINUOUS
 62
     3
 10
22041.656375999992
 20
7539.5021539999998
 30
0.0
 11
23045.050590999988
 21
7539.5021539999998
 31
0.0
  0
LINE
  5
3CD2
  8
0-1
  6
CONTINUOUS
 62
     3
 10
22041.656375999992
 20
7604.5026160000107
 30
0.0
 11
23045.050590999988
 21
7604.5026160000107
 31
0.0
  0
LINE
  5
3CD3
  8
0-1
  6
CONTINUOUS
 62
     3
 10
22041.656375999992
 20
7669.5025830000022
 30
0.0
 11
23045.050590999988
 21
7669.5025830000022
 31
0.0
  0
LINE
  5
3CD4
  8
0-1
  6
CONTINUOUS
 62
     3
 10
22041.656375999992
 20
7723.9621080000024
 30
0.0
 11
23045.050590999988
 21
7723.9621080000024
 31
0.0
  0
LINE
  5
3CD5
  8
0-1
  6
CONTINUOUS
 62
     3
 10
22041.656375999992
 20
7792.5024439999988
 30
0.0
 11
23848.044282999988
 21
7792.5024439999988
 31
0.0
  0
LINE
  5
3CD8
  8
0-1
  6
CONTINUOUS
 62
     3
 10
22041.656375999992
 20
6333.7768910000023
 30
0.0
 11
22041.656375999992
 21
5367.1433260000031
 31
0.0
  0
LINE
  5
3CD9
  8
0-1
  6
CONTINUOUS
 62
     3
 10
21741.656375999992
 20
6184.2910710000042
 30
0.0
 11
21741.656375999992
 21
5367.1433260000031
 31
0.0
  0
LINE
  5
3CDA
  8
0-1
  6
CONTINUOUS
 62
     3
 10
22041.656375999992
 20
5849.5020220000024
 30
0.0
 11
23045.050590999988
 21
5849.5020220000024
 31
0.0
  0
LINE
  5
3CDB
  8
0-1
  6
CONTINUOUS
 62
     3
 10
22041.656375999992
 20
5914.5029790000053
 30
0.0
 11
23045.050590999988
 21
5914.5029790000053
 31
0.0
  0
LINE
  5
3CDC
  8
0-1
  6
CONTINUOUS
 62
     3
 10
22041.656375999992
 20
5979.5019560000028
 30
0.0
 11
23045.050590999988
 21
5979.5019560000028
 31
0.0
  0
LINE
  5
3CDD
  8
0-1
  6
CONTINUOUS
 62
     3
 10
22041.656375999992
 20
6109.5023850000061
 30
0.0
 11
23045.050590999988
 21
6109.5023850000061
 31
0.0
  0
LINE
  5
3CDE
  8
0-1
  6
CONTINUOUS
 62
     3
 10
22041.656375999992
 20
6044.5029130000039
 30
0.0
 11
23045.050590999988
 21
6044.5029130000039
 31
0.0
  0
LINE
  5
3CDF
  8
0-1
  6
CONTINUOUS
 62
     3
 10
22041.656375999992
 20
6174.5023520000022
 30
0.0
 11
23045.050590999988
 21
6174.5023520000022
 31
0.0
  0
LINE
  5
3CE0
  8
0-1
  6
CONTINUOUS
 62
     3
 10
22041.656375999992
 20
6239.5023190000038
 30
0.0
 11
23045.050590999988
 21
6239.5023190000038
 31
0.0
  0
LINE
  5
3CE1
  8
0-1
  6
CONTINUOUS
 62
     3
 10
22041.656375999992
 20
6304.5017910000033
 30
0.0
 11
23045.050590999988
 21
6304.5017910000033
 31
0.0
  0
LINE
  5
3CE2
  8
0-1
  6
CONTINUOUS
 62
     3
 10
21994.294414999989
 20
6369.5032430000037
 30
0.0
 11
23045.050590999988
 21
6369.5032430000037
 31
0.0
  0
LINE
  5
3CE3
  8
0-1
  6
CONTINUOUS
 62
     3
 10
21908.120031999992
 20
6434.5022200000049
 30
0.0
 11
23045.050590999988
 21
6434.5022200000049
 31
0.0
  0
LINE
  5
3CE4
  8
0-1
  6
CONTINUOUS
 62
     3
 10
21821.947628999998
 20
6499.5026820000021
 30
0.0
 11
23045.050590999988
 21
6499.5026820000021
 31
0.0
  0
LINE
  5
3CE5
  8
0-1
  6
CONTINUOUS
 62
     3
 10
23090.050986999981
 20
8103.0018110000028
 30
0.0
 11
23090.050986999981
 21
5784.5025500000047
 31
0.0
  0
LINE
  5
3CE6
  8
0-1
  6
CONTINUOUS
 62
     3
 10
23175.04755499999
 20
8103.0018110000028
 30
0.0
 11
23175.04755499999
 21
5784.5025500000047
 31
0.0
  0
LINE
  5
3CE7
  8
0-1
  6
CONTINUOUS
 62
     3
 10
23220.047950999979
 20
7792.5024439999988
 30
0.0
 11
23220.047950999979
 21
5784.5025500000047
 31
0.0
  0
LINE
  5
3CE8
  8
0-1
  6
CONTINUOUS
 62
     3
 10
23045.050590999988
 20
7792.5024439999988
 30
0.0
 11
23045.050590999988
 21
5784.5025500000047
 31
0.0
  0
LINE
  5
3CE9
  8
0-1
  6
CONTINUOUS
 62
     3
 10
22041.656375999992
 20
6333.7768910000023
 30
0.0
 11
21681.55027399999
 21
6605.406431000004
 31
0.0
  0
LINE
  5
3CEC
  8
0-1
  6
CONTINUOUS
 62
     3
 10
23220.047950999979
 20
7723.9621080000024
 30
0.0
 11
25963.050589999952
 21
7723.9621080000024
 31
0.0
  0
LINE
  5
3CED
  8
0-1
  6
CONTINUOUS
 62
     3
 10
23220.047950999979
 20
6369.5032430000037
 30
0.0
 11
25963.050589999952
 21
6369.5032430000037
 31
0.0
  0
LINE
  5
3CEE
  8
0-1
  6
CONTINUOUS
 62
     3
 10
23220.047950999979
 20
6434.5022200000049
 30
0.0
 11
25963.050589999952
 21
6434.5022200000049
 31
0.0
  0
LINE
  5
3CEF
  8
0-1
  6
CONTINUOUS
 62
     3
 10
23220.047950999979
 20
6499.5026820000021
 30
0.0
 11
25963.050589999952
 21
6499.5026820000021
 31
0.0
  0
LINE
  5
3CF0
  8
0-1
  6
CONTINUOUS
 62
     3
 10
23220.047950999979
 20
6564.5026490000037
 30
0.0
 11
25963.050589999952
 21
6564.5026490000037
 31
0.0
  0
LINE
  5
3CF1
  8
0-1
  6
CONTINUOUS
 62
     3
 10
23220.047950999979
 20
6629.5026160000052
 30
0.0
 11
25963.050589999952
 21
6629.5026160000052
 31
0.0
  0
LINE
  5
3CF2
  8
0-1
  6
CONTINUOUS
 62
     3
 10
23220.047950999979
 20
6694.5025830000022
 30
0.0
 11
25963.050589999952
 21
6694.5025830000022
 31
0.0
  0
LINE
  5
3CF3
  8
0-1
  6
CONTINUOUS
 62
     3
 10
23220.047950999979
 20
6759.5030450000049
 30
0.0
 11
25963.050589999952
 21
6759.5030450000049
 31
0.0
  0
LINE
  5
3CF4
  8
0-1
  6
CONTINUOUS
 62
     3
 10
23220.047950999979
 20
6824.5020220000033
 30
0.0
 11
25963.050589999952
 21
6824.5020220000033
 31
0.0
  0
LINE
  5
3CF5
  8
0-1
  6
CONTINUOUS
 62
     3
 10
23220.047950999979
 20
6889.5024840000024
 30
0.0
 11
25963.050589999952
 21
6889.5024840000024
 31
0.0
  0
LINE
  5
3CF6
  8
0-1
  6
CONTINUOUS
 62
     3
 10
23220.047950999979
 20
6954.5024510000021
 30
0.0
 11
25963.050589999952
 21
6954.5024510000021
 31
0.0
  0
LINE
  5
3CF7
  8
0-1
  6
CONTINUOUS
 62
     3
 10
23220.047950999979
 20
7019.5029130000021
 30
0.0
 11
25963.050589999952
 21
7019.5029130000021
 31
0.0
  0
LINE
  5
3CF8
  8
0-1
  6
CONTINUOUS
 62
     3
 10
23220.047950999979
 20
7084.5018900000023
 30
0.0
 11
25963.050589999952
 21
7084.5018900000023
 31
0.0
  0
LINE
  5
3CF9
  8
0-1
  6
CONTINUOUS
 62
     3
 10
23220.047950999979
 20
7149.5023520000068
 30
0.0
 11
25963.050589999952
 21
7149.5023520000068
 31
0.0
  0
LINE
  5
3CFA
  8
0-1
  6
CONTINUOUS
 62
     3
 10
23220.047950999979
 20
7214.5023190000011
 30
0.0
 11
25963.050589999952
 21
7214.5023190000011
 31
0.0
  0
LINE
  5
3CFB
  8
0-1
  6
CONTINUOUS
 62
     3
 10
23220.047950999979
 20
7279.5022860000063
 30
0.0
 11
25963.050589999952
 21
7279.5022860000063
 31
0.0
  0
LINE
  5
3CFC
  8
0-1
  6
CONTINUOUS
 62
     3
 10
23220.047950999979
 20
7344.502748000009
 30
0.0
 11
25963.050589999952
 21
7344.502748000009
 31
0.0
  0
LINE
  5
3CFD
  8
0-1
  6
CONTINUOUS
 62
     3
 10
23220.047950999979
 20
7409.5027150000051
 30
0.0
 11
25963.050589999952
 21
7409.5027150000051
 31
0.0
  0
LINE
  5
3CFE
  8
0-1
  6
CONTINUOUS
 62
     3
 10
23220.047950999979
 20
7474.5031770000023
 30
0.0
 11
25963.050589999952
 21
7474.5031770000023
 31
0.0
  0
LINE
  5
3CFF
  8
0-1
  6
CONTINUOUS
 62
     3
 10
23220.047950999979
 20
7539.5021539999998
 30
0.0
 11
25963.050589999952
 21
7539.5021539999998
 31
0.0
  0
LINE
  5
3D00
  8
0-1
  6
CONTINUOUS
 62
     3
 10
23220.047950999979
 20
7604.5026160000107
 30
0.0
 11
25963.050589999952
 21
7604.5026160000107
 31
0.0
  0
LINE
  5
3D01
  8
0-1
  6
CONTINUOUS
 62
     3
 10
23220.047950999979
 20
7669.5025830000022
 30
0.0
 11
25963.050589999952
 21
7669.5025830000022
 31
0.0
  0
LINE
  5
3D02
  8
0-1
  6
CONTINUOUS
 62
     3
 10
23220.047950999979
 20
5849.5020220000024
 30
0.0
 11
25963.050589999952
 21
5849.5020220000024
 31
0.0
  0
LINE
  5
3D03
  8
0-1
  6
CONTINUOUS
 62
     3
 10
23220.047950999979
 20
5914.5029790000053
 30
0.0
 11
25963.050589999952
 21
5914.5029790000053
 31
0.0
  0
LINE
  5
3D04
  8
0-1
  6
CONTINUOUS
 62
     3
 10
23220.047950999979
 20
5979.5019560000028
 30
0.0
 11
25963.050589999952
 21
5979.5019560000028
 31
0.0
  0
LINE
  5
3D05
  8
0-1
  6
CONTINUOUS
 62
     3
 10
23220.047950999979
 20
6044.5029130000039
 30
0.0
 11
25963.050589999952
 21
6044.5029130000039
 31
0.0
  0
LINE
  5
3D06
  8
0-1
  6
CONTINUOUS
 62
     3
 10
23220.047950999979
 20
6109.5023850000061
 30
0.0
 11
25963.050589999952
 21
6109.5023850000061
 31
0.0
  0
LINE
  5
3D07
  8
0-1
  6
CONTINUOUS
 62
     3
 10
23220.047950999979
 20
6174.5023520000022
 30
0.0
 11
25963.050589999952
 21
6174.5023520000022
 31
0.0
  0
LINE
  5
3D08
  8
0-1
  6
CONTINUOUS
 62
     3
 10
23220.047950999979
 20
6239.5023190000038
 30
0.0
 11
25963.050589999952
 21
6239.5023190000038
 31
0.0
  0
LINE
  5
3D09
  8
0-1
  6
CONTINUOUS
 62
     3
 10
23220.047950999979
 20
6304.5017910000033
 30
0.0
 11
25963.050589999952
 21
6304.5017910000033
 31
0.0
  0
LINE
  5
3D0B
  8
0-1
  6
CONTINUOUS
 62
     3
 10
23175.04755499999
 20
7792.5024439999988
 30
0.0
 11
26008.050985999958
 21
7792.5024439999988
 31
0.0
  0
LINE
  5
3D0C
  8
0-1
  6
CONTINUOUS
 62
     3
 10
22041.656375999992
 20
5784.5025500000047
 30
0.0
 11
26100.549930999961
 21
5784.5025500000047
 31
0.0
  0
LINE
  5
3D0E
  8
0-1
  6
CONTINUOUS
 62
     3
 10
22041.656375999992
 20
7403.6596710000031
 30
0.0
 11
22041.656375999992
 21
8607.6820520000038
 31
0.0
  0
LINE
  5
3D0F
  8
0-1
  6
CONTINUOUS
 62
     3
 10
21741.656375999992
 20
7254.175830000002
 30
0.0
 11
21741.656375999992
 21
8607.6820520000038
 31
0.0
  0
LINE
  5
3D19
  8
0-1
  6
CONTINUOUS
 62
     3
 10
20720.042673
 20
6564.5026490000037
 30
0.0
 11
21335.340391999969
 21
6564.5026490000037
 31
0.0
  0
LINE
  5
3D1A
  8
0-1
  6
CONTINUOUS
 62
     3
 10
20720.042673
 20
6629.5026160000052
 30
0.0
 11
21399.611400999958
 21
6629.5026160000052
 31
0.0
  0
LINE
  5
3D1B
  8
0-1
  6
CONTINUOUS
 62
     3
 10
20720.042673
 20
6694.5025830000022
 30
0.0
 11
21463.884389999981
 21
6694.5025830000022
 31
0.0
  0
LINE
  5
3D1C
  8
0-1
  6
CONTINUOUS
 62
     3
 10
20720.042673
 20
6759.5030450000049
 30
0.0
 11
21528.155399999981
 21
6759.5030450000049
 31
0.0
  0
LINE
  5
3D1D
  8
0-1
  6
CONTINUOUS
 62
     3
 10
20720.042673
 20
6824.5020220000033
 30
0.0
 11
21592.428388
 21
6824.5020220000033
 31
0.0
  0
LINE
  5
3D1E
  8
0-1
  6
CONTINUOUS
 62
     3
 10
20720.042673
 20
6889.5024840000024
 30
0.0
 11
21656.699397999979
 21
6889.5024840000024
 31
0.0
  0
LINE
  5
3D26
  8
0-1
  6
CONTINUOUS
 62
     3
 10
20720.042673
 20
6369.5032430000037
 30
0.0
 11
21496.118870999991
 21
6369.5032430000037
 31
0.0
  0
LINE
  5
3D27
  8
0-1
  6
CONTINUOUS
 62
     3
 10
20720.042673
 20
6434.5022200000049
 30
0.0
 11
21409.946467999991
 21
6434.5022200000049
 31
0.0
  0
LINE
  5
3D28
  8
0-1
  6
CONTINUOUS
 62
     3
 10
20720.042673
 20
6499.5026820000021
 30
0.0
 11
21323.77208599999
 21
6499.5026820000021
 31
0.0
  0
LINE
  5
3D29
  8
0-1
  6
CONTINUOUS
 62
     3
 10
20720.042673
 20
6304.5017910000033
 30
0.0
 11
21582.28731499999
 21
6304.5017910000033
 31
0.0
  0
LINE
  5
3D2A
  8
0-1
  6
CONTINUOUS
 62
     3
 10
20590.04372799999
 20
8103.0018110000028
 30
0.0
 11
20590.04372799999
 21
5784.5025500000047
 31
0.0
  0
LINE
  5
3D2B
  8
0-1
  6
CONTINUOUS
 62
     3
 10
20545.045311999958
 20
7792.5024439999988
 30
0.0
 11
20545.045311999958
 21
5784.5025500000047
 31
0.0
  0
LINE
  5
3D2C
  8
0-1
  6
CONTINUOUS
 62
     3
 10
20675.046235999958
 20
8103.0018110000028
 30
0.0
 11
20675.046235999958
 21
5784.5025500000047
 31
0.0
  0
LINE
  5
3D2D
  8
0-1
  6
CONTINUOUS
 62
     3
 10
20720.042673
 20
7792.5024439999988
 30
0.0
 11
20720.042673
 21
5784.5025500000047
 31
0.0
  0
LINE
  5
3D2E
  8
0-1
  6
CONTINUOUS
 62
     3
 10
20720.042673
 20
7792.5024439999988
 30
0.0
 11
20720.042673
 21
5784.5025500000047
 31
0.0
  0
LINE
  5
3D39
  8
0-1
  6
CONTINUOUS
 62
     3
 10
17764.544652
 20
5884.5023850000016
 30
0.0
 11
17764.544652
 21
5784.5025500000047
 31
0.0
  0
LINE
  5
3D3A
  8
0-1
  6
CONTINUOUS
 62
     3
 10
17664.543333000001
 20
5784.5025500000047
 30
0.0
 11
17664.543333000001
 21
5884.5023850000016
 31
0.0
  0
LINE
  5
3D3B
  8
0-1
  6
CONTINUOUS
 62
     3
 10
17664.543333000001
 20
5884.5023850000016
 30
0.0
 11
17764.544652
 21
5884.5023850000016
 31
0.0
  0
LINE
  5
3D3C
  8
0-1
  6
CONTINUOUS
 62
     3
 10
17802.044652
 20
7792.5024439999988
 30
0.0
 11
17802.044652
 21
5784.5025500000047
 31
0.0
  0
LINE
  5
3D3D
  8
0-1
  6
CONTINUOUS
 62
     3
 10
17757.042277
 20
8103.0018110000028
 30
0.0
 11
17757.042277
 21
5884.5023850000016
 31
0.0
  0
LINE
  5
3D3E
  8
0-1
  6
CONTINUOUS
 62
     3
 10
17692.044783999991
 20
8233.0027340000088
 30
0.0
 11
17692.044783999991
 21
5884.5023850000016
 31
0.0
  0
LINE
  5
3D3F
  8
0-1
  6
CONTINUOUS
 62
     3
 10
17672.041748999989
 20
8103.0018110000028
 30
0.0
 11
17672.041748999989
 21
5884.5023850000016
 31
0.0
  0
LINE
  5
3D40
  8
0-1
  6
CONTINUOUS
 62
     3
 10
17757.042277
 20
7792.5024439999988
 30
0.0
 11
20590.04372799999
 21
7792.5024439999988
 31
0.0
  0
LINE
  5
3D42
  8
0-1
  6
CONTINUOUS
 62
     3
 10
17802.044652
 20
6304.5017910000033
 30
0.0
 11
20545.045311999958
 21
6304.5017910000033
 31
0.0
  0
LINE
  5
3D43
  8
0-1
  6
CONTINUOUS
 62
     3
 10
17802.044652
 20
6239.5023190000038
 30
0.0
 11
20545.045311999958
 21
6239.5023190000038
 31
0.0
  0
LINE
  5
3D44
  8
0-1
  6
CONTINUOUS
 62
     3
 10
17802.044652
 20
6174.5023520000022
 30
0.0
 11
20545.045311999958
 21
6174.5023520000022
 31
0.0
  0
LINE
  5
3D45
  8
0-1
  6
CONTINUOUS
 62
     3
 10
17802.044652
 20
6109.5023850000061
 30
0.0
 11
20545.045311999958
 21
6109.5023850000061
 31
0.0
  0
LINE
  5
3D46
  8
0-1
  6
CONTINUOUS
 62
     3
 10
17802.044652
 20
6044.5029130000039
 30
0.0
 11
20545.045311999958
 21
6044.5029130000039
 31
0.0
  0
LINE
  5
3D47
  8
0-1
  6
CONTINUOUS
 62
     3
 10
17802.044652
 20
5979.5019560000028
 30
0.0
 11
20545.045311999958
 21
5979.5019560000028
 31
0.0
  0
LINE
  5
3D48
  8
0-1
  6
CONTINUOUS
 62
     3
 10
17802.044652
 20
5914.5029790000053
 30
0.0
 11
20545.045311999958
 21
5914.5029790000053
 31
0.0
  0
LINE
  5
3D49
  8
0-1
  6
CONTINUOUS
 62
     3
 10
17802.044652
 20
5849.5020220000024
 30
0.0
 11
20545.045311999958
 21
5849.5020220000024
 31
0.0
  0
LINE
  5
3D4A
  8
0-1
  6
CONTINUOUS
 62
     3
 10
17802.044652
 20
7669.5025830000022
 30
0.0
 11
20545.045311999958
 21
7669.5025830000022
 31
0.0
  0
LINE
  5
3D4B
  8
0-1
  6
CONTINUOUS
 62
     3
 10
17802.044652
 20
7604.5026160000107
 30
0.0
 11
20545.045311999958
 21
7604.5026160000107
 31
0.0
  0
LINE
  5
3D4C
  8
0-1
  6
CONTINUOUS
 62
     3
 10
17802.044652
 20
7539.5021539999998
 30
0.0
 11
20545.045311999958
 21
7539.5021539999998
 31
0.0
  0
LINE
  5
3D4D
  8
0-1
  6
CONTINUOUS
 62
     3
 10
17802.044652
 20
7474.5031770000023
 30
0.0
 11
20545.045311999958
 21
7474.5031770000023
 31
0.0
  0
LINE
  5
3D4E
  8
0-1
  6
CONTINUOUS
 62
     3
 10
17802.044652
 20
7409.5027150000051
 30
0.0
 11
20545.045311999958
 21
7409.5027150000051
 31
0.0
  0
LINE
  5
3D4F
  8
0-1
  6
CONTINUOUS
 62
     3
 10
17802.044652
 20
7344.502748000009
 30
0.0
 11
20545.045311999958
 21
7344.502748000009
 31
0.0
  0
LINE
  5
3D50
  8
0-1
  6
CONTINUOUS
 62
     3
 10
17802.044652
 20
7279.5022860000063
 30
0.0
 11
20545.045311999958
 21
7279.5022860000063
 31
0.0
  0
LINE
  5
3D51
  8
0-1
  6
CONTINUOUS
 62
     3
 10
17802.044652
 20
7214.5023190000011
 30
0.0
 11
20545.045311999958
 21
7214.5023190000011
 31
0.0
  0
LINE
  5
3D52
  8
0-1
  6
CONTINUOUS
 62
     3
 10
17802.044652
 20
7149.5023520000068
 30
0.0
 11
20545.045311999958
 21
7149.5023520000068
 31
0.0
  0
LINE
  5
3D53
  8
0-1
  6
CONTINUOUS
 62
     3
 10
17802.044652
 20
7084.5018900000023
 30
0.0
 11
20545.045311999958
 21
7084.5018900000023
 31
0.0
  0
LINE
  5
3D54
  8
0-1
  6
CONTINUOUS
 62
     3
 10
17802.044652
 20
7019.5029130000021
 30
0.0
 11
20545.045311999958
 21
7019.5029130000021
 31
0.0
  0
LINE
  5
3D55
  8
0-1
  6
CONTINUOUS
 62
     3
 10
17802.044652
 20
6954.5024510000021
 30
0.0
 11
20545.045311999958
 21
6954.5024510000021
 31
0.0
  0
LINE
  5
3D56
  8
0-1
  6
CONTINUOUS
 62
     3
 10
17802.044652
 20
6889.5024840000024
 30
0.0
 11
20545.045311999958
 21
6889.5024840000024
 31
0.0
  0
LINE
  5
3D57
  8
0-1
  6
CONTINUOUS
 62
     3
 10
17802.044652
 20
6824.5020220000033
 30
0.0
 11
20545.045311999958
 21
6824.5020220000033
 31
0.0
  0
LINE
  5
3D58
  8
0-1
  6
CONTINUOUS
 62
     3
 10
17802.044652
 20
6759.5030450000049
 30
0.0
 11
20545.045311999958
 21
6759.5030450000049
 31
0.0
  0
LINE
  5
3D59
  8
0-1
  6
CONTINUOUS
 62
     3
 10
17802.044652
 20
6694.5025830000022
 30
0.0
 11
20545.045311999958
 21
6694.5025830000022
 31
0.0
  0
LINE
  5
3D5A
  8
0-1
  6
CONTINUOUS
 62
     3
 10
17802.044652
 20
6629.5026160000052
 30
0.0
 11
20545.045311999958
 21
6629.5026160000052
 31
0.0
  0
LINE
  5
3D5B
  8
0-1
  6
CONTINUOUS
 62
     3
 10
17802.044652
 20
6564.5026490000037
 30
0.0
 11
20545.045311999958
 21
6564.5026490000037
 31
0.0
  0
LINE
  5
3D5C
  8
0-1
  6
CONTINUOUS
 62
     3
 10
17802.044652
 20
6499.5026820000021
 30
0.0
 11
20545.045311999958
 21
6499.5026820000021
 31
0.0
  0
LINE
  5
3D5D
  8
0-1
  6
CONTINUOUS
 62
     3
 10
17802.044652
 20
6434.5022200000049
 30
0.0
 11
20545.045311999958
 21
6434.5022200000049
 31
0.0
  0
LINE
  5
3D5E
  8
0-1
  6
CONTINUOUS
 62
     3
 10
17802.044652
 20
6369.5032430000037
 30
0.0
 11
20545.045311999958
 21
6369.5032430000037
 31
0.0
  0
LINE
  5
3D5F
  8
0-1
  6
CONTINUOUS
 62
     3
 10
17802.044652
 20
7723.9621080000024
 30
0.0
 11
20545.045311999958
 21
7723.9621080000024
 31
0.0
  0
LINE
  5
3D62
  8
0-1
  6
CONTINUOUS
 62
     3
 10
17664.543333000001
 20
5784.5025500000047
 30
0.0
 11
21741.656375999992
 21
5784.5025500000047
 31
0.0
  0
LINE
  5
3D65
  8
0-1
  6
CONTINUOUS
 62
     3
 10
20720.042673
 20
7723.9621080000024
 30
0.0
 11
21741.656375999992
 21
7723.9621080000024
 31
0.0
  0
LINE
  5
3D66
  8
0-1
  6
CONTINUOUS
 62
     3
 10
20720.042673
 20
6954.5024510000021
 30
0.0
 11
21720.97238599999
 21
6954.5024510000021
 31
0.0
  0
LINE
  5
3D67
  8
0-1
  6
CONTINUOUS
 62
     3
 10
20720.042673
 20
7019.5029130000021
 30
0.0
 11
21785.24339599998
 21
7019.5029130000021
 31
0.0
  0
LINE
  5
3D68
  8
0-1
  6
CONTINUOUS
 62
     3
 10
20720.042673
 20
7084.5018900000023
 30
0.0
 11
21849.516384999992
 21
7084.5018900000023
 31
0.0
  0
LINE
  5
3D69
  8
0-1
  6
CONTINUOUS
 62
     3
 10
20720.042673
 20
7149.5023520000068
 30
0.0
 11
21880.420628999989
 21
7149.5023520000068
 31
0.0
  0
LINE
  5
3D6A
  8
0-1
  6
CONTINUOUS
 62
     3
 10
20720.042673
 20
7214.5023190000011
 30
0.0
 11
21794.252184999968
 21
7214.5023190000011
 31
0.0
  0
LINE
  5
3D6B
  8
0-1
  6
CONTINUOUS
 62
     3
 10
20720.042673
 20
7279.5022860000063
 30
0.0
 11
21741.656375999992
 21
7279.5022860000063
 31
0.0
  0
LINE
  5
3D6C
  8
0-1
  6
CONTINUOUS
 62
     3
 10
20720.042673
 20
7344.502748000009
 30
0.0
 11
21741.656375999992
 21
7344.502748000009
 31
0.0
  0
LINE
  5
3D6D
  8
0-1
  6
CONTINUOUS
 62
     3
 10
20720.042673
 20
7409.5027150000051
 30
0.0
 11
21741.656375999992
 21
7409.5027150000051
 31
0.0
  0
LINE
  5
3D6E
  8
0-1
  6
CONTINUOUS
 62
     3
 10
20720.042673
 20
7474.5031770000023
 30
0.0
 11
21741.656375999992
 21
7474.5031770000023
 31
0.0
  0
LINE
  5
3D6F
  8
0-1
  6
CONTINUOUS
 62
     3
 10
20720.042673
 20
7539.5021539999998
 30
0.0
 11
21741.656375999992
 21
7539.5021539999998
 31
0.0
  0
LINE
  5
3D70
  8
0-1
  6
CONTINUOUS
 62
     3
 10
20720.042673
 20
7604.5026160000107
 30
0.0
 11
21741.656375999992
 21
7604.5026160000107
 31
0.0
  0
LINE
  5
3D71
  8
0-1
  6
CONTINUOUS
 62
     3
 10
20720.042673
 20
7669.5025830000022
 30
0.0
 11
21741.656375999992
 21
7669.5025830000022
 31
0.0
  0
LINE
  5
3D72
  8
0-1
  6
CONTINUOUS
 62
     3
 10
20720.042673
 20
5849.5020220000024
 30
0.0
 11
21741.656375999992
 21
5849.5020220000024
 31
0.0
  0
LINE
  5
3D73
  8
0-1
  6
CONTINUOUS
 62
     3
 10
20720.042673
 20
5914.5029790000053
 30
0.0
 11
21741.656375999992
 21
5914.5029790000053
 31
0.0
  0
LINE
  5
3D74
  8
0-1
  6
CONTINUOUS
 62
     3
 10
20720.042673
 20
5979.5019560000028
 30
0.0
 11
21741.656375999992
 21
5979.5019560000028
 31
0.0
  0
LINE
  5
3D75
  8
0-1
  6
CONTINUOUS
 62
     3
 10
20720.042673
 20
6044.5029130000039
 30
0.0
 11
21741.656375999992
 21
6044.5029130000039
 31
0.0
  0
LINE
  5
3D76
  8
0-1
  6
CONTINUOUS
 62
     3
 10
20720.042673
 20
6109.5023850000061
 30
0.0
 11
21741.656375999992
 21
6109.5023850000061
 31
0.0
  0
LINE
  5
3D77
  8
0-1
  6
CONTINUOUS
 62
     3
 10
20720.042673
 20
6174.5023520000022
 30
0.0
 11
21741.656375999992
 21
6174.5023520000022
 31
0.0
  0
LINE
  5
3D78
  8
0-1
  6
CONTINUOUS
 62
     3
 10
20720.042673
 20
6239.5023190000038
 30
0.0
 11
21668.459717999991
 21
6239.5023190000038
 31
0.0
  0
LINE
  5
3D79
  8
0-1
  6
CONTINUOUS
 62
     3
 10
20675.046235999958
 20
7792.5024439999988
 30
0.0
 11
21741.656375999992
 21
7792.5024439999988
 31
0.0
  0
LINE
  5
3D7A
  8
0-1
  6
CONTINUOUS
 62
     3
 10
21741.656375999992
 20
6184.2910710000042
 30
0.0
 11
21293.58442699998
 21
6522.2740740000008
 31
0.0
  0
LINE
  5
3D7B
  8
0-1
  6
CONTINUOUS
 62
     3
 10
21899.532880999988
 20
7135.086508000004
 30
0.0
 11
21293.58442699998
 21
6522.2740740000008
 31
0.0
  0
LINE
  5
3D7F
  8
0-2
  6
CONTINUOUS
 62
     4
 10
24955.241270999981
 20
6531.7282540000042
 30
0.0
 11
24855.241930999971
 21
6531.7282540000042
 31
0.0
  0
LINE
  5
3D80
  8
0-2
  6
CONTINUOUS
 62
     4
 10
24227.855290999989
 20
6531.7282540000042
 30
0.0
 11
24327.85463199997
 21
6531.7282540000042
 31
0.0
  0
LINE
  5
3D81
  8
0-2
  6
CONTINUOUS
 62
     4
 10
19537.235002500001
 20
6531.7282540000042
 30
0.0
 11
19437.235662499988
 21
6531.7282540000042
 31
0.0
  0
LINE
  5
3D82
  8
0-2
  6
CONTINUOUS
 62
     4
 10
18809.851001499999
 20
6531.7282540000042
 30
0.0
 11
18909.848362500001
 21
6531.7282540000042
 31
0.0
  0
LINE
  5
3D83
  8
0-5
  6
CONTINUOUS
 62
     4
 10
26050.54927099996
 20
4104.5024510000003
 30
0.0
 11
26050.54927099996
 21
3944.5024180000041
 31
0.0
  0
LINE
  5
3D84
  8
0-5
  6
CONTINUOUS
 62
     4
 10
23132.54927099996
 20
4104.5024510000003
 30
0.0
 11
23132.54927099996
 21
3944.5024180000041
 31
0.0
  0
LINE
  5
3D85
  8
0-5
  6
CONTINUOUS
 62
     4
 10
20632.543991999992
 20
4104.5024510000003
 30
0.0
 11
20632.543991999992
 21
3944.5024180000041
 31
0.0
  0
LINE
  5
3D86
  8
0-5
  6
CONTINUOUS
 62
     4
 10
17714.543991999992
 20
4104.5024510000003
 30
0.0
 11
17714.543991999992
 21
3944.5024180000041
 31
0.0
  0
LINE
  5
3D87
  8
2-0
  6
CENTER2
 62
     6
 10
26050.54927099996
 20
5521.8501270000033
 30
0.0
 11
26050.54927099996
 21
6558.992164000002
 31
0.0
  0
LINE
  5
3D88
  8
2-0
  6
CENTER2
 62
     6
 10
23132.54927099996
 20
5521.8501270000033
 30
0.0
 11
23132.54927099996
 21
6558.992164000002
 31
0.0
  0
LINE
  5
3D89
  8
2-0
  6
CENTER2
 62
     6
 10
20632.543991999992
 20
5521.8501270000033
 30
0.0
 11
20632.543991999992
 21
6558.992164000002
 31
0.0
  0
LINE
  5
3D8A
  8
2-0
  6
CENTER2
 62
     6
 10
17714.543991999992
 20
5521.8501270000033
 30
0.0
 11
17714.543991999992
 21
6558.992164000002
 31
0.0
  0
CIRCLE
  5
3DA3
  8
0-5
  6
CONTINUOUS
 62
     4
 10
26050.54927099996
 20
3744.502748000004
 30
0.0
 40
199.9999949999999
  0
CIRCLE
  5
3DA4
  8
0-5
  6
CONTINUOUS
 62
     4
 10
23132.54927099996
 20
3744.502748000004
 30
0.0
 40
199.9999949999999
  0
CIRCLE
  5
3DA5
  8
0-5
  6
CONTINUOUS
 62
     4
 10
20632.543991999992
 20
3744.502748000004
 30
0.0
 40
199.9999949999999
  0
CIRCLE
  5
3DA6
  8
0-5
  6
CONTINUOUS
 62
     4
 10
17714.543991999992
 20
3744.502748000004
 30
0.0
 40
199.9999949999999
  0
TEXT
  5
3DA7
  8
0-5
  6
CONTINUOUS
 62
     7
 10
25998.614620999972
 20
3660.001801000004
 30
0.0
 40
160.0
  1
n
 72
     4
 11
26051.9479543333
 21
3713.3351343333379
 31
0.0
  0
TEXT
  5
3DA8
  8
0-5
  6
CONTINUOUS
 62
     7
 10
22966.424157175232
 20
3674.5189094394018
 30
0.0
 40
140.0
  1
n-1
 72
     4
 11
23129.75749050856
 21
3744.5189094394018
 31
0.0
  0
TEXT
  5
3DA9
  8
0-5
  6
CONTINUOUS
 62
     7
 10
17096.368052999991
 20
6513.8627967420016
 30
0.0
 40
160.0
  1
(2131.5)
 50
90.0
 72
     4
 11
17016.368052999991
 21
6967.1961300753346
 31
0.0
  0
TEXT
  5
3DAA
  8
0-5
  6
CONTINUOUS
 62
     7
 10
20585.61554499999
 20
3657.9727940000048
 30
0.0
 40
160.0
  1
2
 72
     4
 11
20638.948878333322
 21
3737.9727940000039
 31
0.0
  0
TEXT
  5
3DAB
  8
0-5
  6
CONTINUOUS
 62
     7
 10
17667.611585999981
 20
3657.9727940000048
 30
0.0
 40
160.0
  1
1
 72
     4
 11
17694.278252666649
 21
3737.9727940000039
 31
0.0
  0
TEXT
  5
3DAC
  8
2-0
  6
CONTINUOUS
 62
     7
 10
20257.241046999989
 20
2926.063367000002
 30
0.0
 40
160.0
  1
正 面 立 面 図
 72
     4
 11
20902.574380333321
 21
3006.063367000002
 31
0.0
  0
CIRCLE
  5
3DAD
  8
0-4
  6
CONTINUOUS
 62
     4
 10
19173.543991999992
 20
6270.5584910000016
 30
0.0
 40
18.487504999999981
  0
CIRCLE
  5
3DAE
  8
0-4
  6
CONTINUOUS
 62
     4
 10
24591.54927099996
 20
6270.5584910000016
 30
0.0
 40
18.487504999999981
  0
TEXT
  5
3DAF
  8
2-0
  6
CONTINUOUS
 62
     7
 10
22254.066565470959
 20
2953.258736000002
 30
0.0
 40
160.0
  1
1
 72
     4
 11
22280.733232137631
 21
3033.258736000002
 31
0.0
  0
TEXT
  5
3DB0
  8
2-0
  6
CONTINUOUS
 62
     7
 10
22497.155282721651
 20
2873.260204000002
 30
0.0
 40
160.0
  1
80
 72
     4
 11
22617.155282721651
 21
2953.260204000002
 31
0.0
  0
TEXT
  5
3DB1
  8
2-0
  6
CONTINUOUS
 62
     7
 10
21755.068531470959
 20
2926.063367000002
 30
0.0
 40
160.0
  1
(S=  /   )
 72
     4
 11
22315.068531470959
 21
3006.063367000002
 31
0.0
  0
LINE
  5
3DB2
  8
SUNPOU
  6
CONTINUOUS
 10
17432.043991999992
 20
4584.5025500000056
 30
0.0
 11
17074.08898527889
 21
4584.5025500000056
 31
0.0
  0
LINE
  5
3DB3
  8
SUNPOU
  6
CONTINUOUS
 10
26333.053229999969
 20
4584.5025500000056
 30
0.0
 11
26691.008236721082
 21
4584.5025500000056
 31
0.0
  0
LINE
  5
3DB4
  8
0-5
  6
CONTINUOUS
 62
     4
 10
15492.67493199998
 20
5992.3480420000051
 30
0.0
 11
15612.671368999991
 21
5784.5025500000083
 31
0.0
  0
LINE
  5
3DB5
  8
0-5
  6
CONTINUOUS
 62
     4
 10
15612.671368999991
 20
5784.5025500000083
 30
0.0
 11
15732.67176499999
 21
5992.3480420000051
 31
0.0
  0
LINE
  5
3DB6
  8
0-5
  6
CONTINUOUS
 62
     4
 10
15732.67176499999
 20
5992.3480420000051
 30
0.0
 11
15492.67493199998
 21
5992.3480420000051
 31
0.0
  0
TEXT
  5
3DB7
  8
0-5
  6
CONTINUOUS
 62
     7
 10
15492.67493199998
 20
6072.3488000000016
 30
0.0
 40
160.0
  1
G.L
 72
     4
 11
15652.67493199998
 21
6152.3488000000034
 31
0.0
  0
LINE
  5
3DB8
  8
2-0
  6
CONTINUOUS
 62
     6
 10
24367.39035499997
 20
13355.934321999979
 30
0.0
 11
25367.383756999941
 21
13355.934321999979
 31
0.0
  0
LINE
  5
3DB9
  8
2-0
  6
CONTINUOUS
 62
     6
 10
25835.324133999959
 20
13826.355035999981
 30
0.0
 11
25367.383756999941
 21
13355.934321999979
 31
0.0
  0
LINE
  5
3DBA
  8
2-0
  6
CONTINUOUS
 62
     6
 10
25796.683930999949
 20
17017.962683000002
 30
0.0
 11
25491.98851299996
 21
17121.616214000001
 31
0.0
  0
LINE
  5
3DBB
  8
2-0
  6
CONTINUOUS
 62
     6
 10
25951.705969999941
 20
16528.340638999991
 30
0.0
 11
25491.98851299996
 21
16284.427327999991
 31
0.0
  0
LINE
  5
3DBC
  8
2-0
  6
CONTINUOUS
 62
     6
 10
24571.985477999959
 20
16284.427327999991
 30
0.0
 11
25491.98851299996
 21
16284.427327999991
 31
0.0
  0
LINE
  5
3DBD
  8
2-0
  6
CONTINUOUS
 62
     6
 10
24291.994450999959
 20
17121.616214000001
 30
0.0
 11
25491.98851299996
 21
17121.616214000001
 31
0.0
  0
LINE
  5
3DBE
  8
2-0
  6
CONTINUOUS
 62
     6
 10
25867.883254999961
 20
14148.03868199996
 30
0.0
 11
25491.98851299996
 21
14328.98251699998
 31
0.0
  0
LINE
  5
3DBF
  8
2-0
  6
CONTINUOUS
 62
     6
 10
24971.986796999961
 20
14328.98251699998
 30
0.0
 11
25491.98851299996
 21
14328.98251699998
 31
0.0
  0
LINE
  5
3DC0
  8
2-0
  6
CONTINUOUS
 62
     4
 10
23132.54927099996
 20
19603.93597200001
 30
0.0
 11
23132.54927099996
 21
20333.932937000001
 31
0.0
  0
LINE
  5
3DC1
  8
2-0
  6
CONTINUOUS
 62
     3
 10
26063.049930999961
 20
19414.933518000002
 30
0.0
 11
26063.049930999961
 21
19408.937556000012
 31
0.0
  0
LINE
  5
3DC2
  8
2-0
  6
CONTINUOUS
 62
     3
 10
26063.049930999961
 20
19408.937556000012
 30
0.0
 11
26093.047554999961
 21
19408.937556000012
 31
0.0
  0
LINE
  5
3DC3
  8
2-0
  6
CONTINUOUS
 62
     3
 10
26093.047554999961
 20
19438.937160000001
 30
0.0
 11
26012.045654999962
 21
19438.937160000001
 31
0.0
  0
LINE
  5
3DC4
  8
2-0
  6
CONTINUOUS
 62
     3
 10
26063.049930999961
 20
19398.64009999999
 30
0.0
 11
26093.047554999961
 21
19398.64009999999
 31
0.0
  0
LINE
  5
3DC5
  8
2-0
  6
CONTINUOUS
 62
     3
 10
26063.049930999961
 20
19416.641842000001
 30
0.0
 11
26063.049930999961
 21
19398.64009999999
 31
0.0
  0
LINE
  5
3DC6
  8
2-0
  6
CONTINUOUS
 62
     3
 10
26088.047290999959
 20
19416.641842000001
 30
0.0
 11
26063.049930999961
 21
19416.641842000001
 31
0.0
  0
LINE
  5
3DC7
  8
2-0
  6
CONTINUOUS
 62
     3
 10
26088.047290999959
 20
19411.63366000001
 30
0.0
 11
26088.047290999959
 21
19416.641842000001
 31
0.0
  0
LINE
  5
3DC8
  8
2-0
  6
CONTINUOUS
 62
     3
 10
26081.04573399997
 20
19411.63366000001
 30
0.0
 11
26088.047290999959
 21
19411.63366000001
 31
0.0
  0
LINE
  5
3DC9
  8
2-0
  6
CONTINUOUS
 62
     3
 10
25980.749465999961
 20
19511.93388700001
 30
0.0
 11
25980.749465999961
 21
19518.939403
 31
0.0
  0
LINE
  5
3DCA
  8
2-0
  6
CONTINUOUS
 62
     3
 10
25980.749465999961
 20
19518.939403
 30
0.0
 11
25985.749729999941
 21
19518.939403
 31
0.0
  0
LINE
  5
3DCB
  8
2-0
  6
CONTINUOUS
 62
     3
 10
25985.749729999941
 20
19518.939403
 30
0.0
 11
25985.749729999941
 21
19493.930165999998
 31
0.0
  0
LINE
  5
3DCC
  8
2-0
  6
CONTINUOUS
 62
     3
 10
25985.749729999941
 20
19493.930165999998
 30
0.0
 11
25967.747987999941
 21
19493.930165999998
 31
0.0
  0
LINE
  5
3DCD
  8
2-0
  6
CONTINUOUS
 62
     3
 10
25967.747987999941
 20
19493.930165999998
 30
0.0
 11
25967.747987999941
 21
19523.933729000011
 31
0.0
  0
LINE
  5
3DCE
  8
2-0
  6
CONTINUOUS
 62
     3
 10
25978.04544399997
 20
19523.933729000011
 30
0.0
 11
26093.047554999961
 21
19523.933729000011
 31
0.0
  0
LINE
  5
3DCF
  8
2-0
  6
CONTINUOUS
 62
     3
 10
25978.04544399997
 20
19493.930165999998
 30
0.0
 11
25978.04544399997
 21
19523.933729000011
 31
0.0
  0
LINE
  5
3DD0
  8
2-0
  6
CONTINUOUS
 62
     3
 10
25984.047343999959
 20
19493.930165999998
 30
0.0
 11
25978.04544399997
 21
19493.930165999998
 31
0.0
  0
LINE
  5
3DD1
  8
2-0
  6
CONTINUOUS
 62
     3
 10
26081.04573399997
 20
19058.336837499981
 30
0.0
 11
26088.047290999959
 21
19058.336837499981
 31
0.0
  0
LINE
  5
3DD2
  8
2-0
  6
CONTINUOUS
 62
     3
 10
26088.047290999959
 20
19058.336837499981
 30
0.0
 11
26088.047290999959
 21
19063.33710149999
 31
0.0
  0
LINE
  5
3DD3
  8
2-0
  6
CONTINUOUS
 62
     3
 10
26088.047290999959
 20
19063.33710149999
 30
0.0
 11
26063.049930999961
 21
19063.33710149999
 31
0.0
  0
LINE
  5
3DD4
  8
2-0
  6
CONTINUOUS
 62
     3
 10
26063.049930999961
 20
19063.33710149999
 30
0.0
 11
26063.049930999961
 21
19045.341297499981
 31
0.0
  0
LINE
  5
3DD5
  8
2-0
  6
CONTINUOUS
 62
     3
 10
26063.049930999961
 20
19045.341297499981
 30
0.0
 11
26093.047554999961
 21
19045.341297499981
 31
0.0
  0
LINE
  5
3DD6
  8
2-0
  6
CONTINUOUS
 62
     3
 10
26063.049930999961
 20
19061.43280449996
 30
0.0
 11
26063.049930999961
 21
19055.434863499991
 31
0.0
  0
LINE
  5
3DD7
  8
2-0
  6
CONTINUOUS
 62
     3
 10
26063.049930999961
 20
19055.434863499991
 30
0.0
 11
26093.047554999961
 21
19055.434863499991
 31
0.0
  0
LINE
  5
3DD8
  8
2-0
  6
CONTINUOUS
 62
     3
 10
26093.047554999961
 20
19055.434863499991
 30
0.0
 11
26093.047554999961
 21
19092.436024499992
 31
0.0
  0
LINE
  5
3DD9
  8
2-0
  6
CONTINUOUS
 62
     3
 10
26063.049930999961
 20
19092.436024499992
 30
0.0
 11
26093.047554999961
 21
19092.436024499992
 31
0.0
  0
LINE
  5
3DDA
  8
2-0
  6
CONTINUOUS
 62
     3
 10
26063.049930999961
 20
19086.43214449998
 30
0.0
 11
26063.049930999961
 21
19092.436024499992
 31
0.0
  0
LINE
  5
3DDB
  8
2-0
  6
CONTINUOUS
 62
     3
 10
26063.049930999961
 20
19102.531569499981
 30
0.0
 11
26093.047554999961
 21
19102.531569499981
 31
0.0
  0
LINE
  5
3DDC
  8
2-0
  6
CONTINUOUS
 62
     3
 10
26063.049930999961
 20
19084.529827499991
 30
0.0
 11
26063.049930999961
 21
19102.531569499981
 31
0.0
  0
LINE
  5
3DDD
  8
2-0
  6
CONTINUOUS
 62
     3
 10
26088.047290999959
 20
19084.529827499991
 30
0.0
 11
26063.049930999961
 21
19084.529827499991
 31
0.0
  0
LINE
  5
3DDE
  8
2-0
  6
CONTINUOUS
 62
     3
 10
26088.047290999959
 20
19089.53009149995
 30
0.0
 11
26088.047290999959
 21
19084.529827499991
 31
0.0
  0
LINE
  5
3DDF
  8
2-0
  6
CONTINUOUS
 62
     3
 10
26081.04573399997
 20
19089.53009149995
 30
0.0
 11
26088.047290999959
 21
19089.53009149995
 31
0.0
  0
LINE
  5
3DE0
  8
2-0
  6
CONTINUOUS
 62
     3
 10
26081.04573399997
 20
18357.335847999992
 30
0.0
 11
26088.047290999959
 21
18357.335847999992
 31
0.0
  0
LINE
  5
3DE1
  8
2-0
  6
CONTINUOUS
 62
     3
 10
26088.047290999959
 20
18357.335847999992
 30
0.0
 11
26088.047290999959
 21
18362.342049999981
 31
0.0
  0
LINE
  5
3DE2
  8
2-0
  6
CONTINUOUS
 62
     3
 10
26088.047290999959
 20
18362.342049999981
 30
0.0
 11
26063.049930999961
 21
18362.342049999981
 31
0.0
  0
LINE
  5
3DE3
  8
2-0
  6
CONTINUOUS
 62
     3
 10
26063.049930999961
 20
18362.342049999981
 30
0.0
 11
26063.049930999961
 21
18344.340307999992
 31
0.0
  0
LINE
  5
3DE4
  8
2-0
  6
CONTINUOUS
 62
     3
 10
26063.049930999961
 20
18344.340307999992
 30
0.0
 11
26093.047554999961
 21
18344.340307999992
 31
0.0
  0
LINE
  5
3DE5
  8
2-0
  6
CONTINUOUS
 62
     3
 10
26063.049930999961
 20
18360.431814999982
 30
0.0
 11
26063.049930999961
 21
18354.435852999992
 31
0.0
  0
LINE
  5
3DE6
  8
2-0
  6
CONTINUOUS
 62
     3
 10
26063.049930999961
 20
18354.435852999992
 30
0.0
 11
26093.047554999961
 21
18354.435852999992
 31
0.0
  0
LINE
  5
3DE7
  8
2-0
  6
CONTINUOUS
 62
     3
 10
26093.047554999961
 20
18354.435852999992
 30
0.0
 11
26093.047554999961
 21
18391.435034999991
 31
0.0
  0
LINE
  5
3DE8
  8
2-0
  6
CONTINUOUS
 62
     3
 10
26063.049930999961
 20
18391.435034999991
 30
0.0
 11
26093.047554999961
 21
18391.435034999991
 31
0.0
  0
LINE
  5
3DE9
  8
2-0
  6
CONTINUOUS
 62
     3
 10
26063.049930999961
 20
18385.439073000001
 30
0.0
 11
26063.049930999961
 21
18391.435034999991
 31
0.0
  0
LINE
  5
3DEA
  8
2-0
  6
CONTINUOUS
 62
     3
 10
26063.049930999961
 20
18401.530579999991
 30
0.0
 11
26093.047554999961
 21
18401.530579999991
 31
0.0
  0
LINE
  5
3DEB
  8
2-0
  6
CONTINUOUS
 62
     3
 10
26063.049930999961
 20
18383.528837999991
 30
0.0
 11
26063.049930999961
 21
18401.530579999991
 31
0.0
  0
LINE
  5
3DEC
  8
2-0
  6
CONTINUOUS
 62
     3
 10
26088.047290999959
 20
18383.528837999991
 30
0.0
 11
26063.049930999961
 21
18383.528837999991
 31
0.0
  0
LINE
  5
3DED
  8
2-0
  6
CONTINUOUS
 62
     3
 10
26088.047290999959
 20
18388.535039999992
 30
0.0
 11
26088.047290999959
 21
18383.528837999991
 31
0.0
  0
LINE
  5
3DEE
  8
2-0
  6
CONTINUOUS
 62
     3
 10
26081.04573399997
 20
18388.535039999992
 30
0.0
 11
26088.047290999959
 21
18388.535039999992
 31
0.0
  0
LINE
  5
3DEF
  8
2-0
  6
CONTINUOUS
 62
     3
 10
26081.04573399997
 20
17687.52910199999
 30
0.0
 11
26088.047290999959
 21
17687.52910199999
 31
0.0
  0
LINE
  5
3DF0
  8
2-0
  6
CONTINUOUS
 62
     3
 10
26088.047290999959
 20
17687.52910199999
 30
0.0
 11
26088.047290999959
 21
17682.540714999981
 31
0.0
  0
LINE
  5
3DF1
  8
2-0
  6
CONTINUOUS
 62
     3
 10
26088.047290999959
 20
17682.540714999981
 30
0.0
 11
26063.049930999961
 21
17682.540714999981
 31
0.0
  0
LINE
  5
3DF2
  8
2-0
  6
CONTINUOUS
 62
     3
 10
26063.049930999961
 20
17682.540714999981
 30
0.0
 11
26063.049930999961
 21
17700.53651799999
 31
0.0
  0
LINE
  5
3DF3
  8
2-0
  6
CONTINUOUS
 62
     3
 10
26063.049930999961
 20
17700.53651799999
 30
0.0
 11
26093.047554999961
 21
17700.53651799999
 31
0.0
  0
LINE
  5
3DF4
  8
2-0
  6
CONTINUOUS
 62
     3
 10
26063.049930999961
 20
17684.43907299999
 30
0.0
 11
26063.049930999961
 21
17690.43503499998
 31
0.0
  0
LINE
  5
3DF5
  8
2-0
  6
CONTINUOUS
 62
     3
 10
26063.049930999961
 20
17690.43503499998
 30
0.0
 11
26093.047554999961
 21
17690.43503499998
 31
0.0
  0
LINE
  5
3DF6
  8
2-0
  6
CONTINUOUS
 62
     3
 10
26093.047554999961
 20
17690.43503499998
 30
0.0
 11
26093.047554999961
 21
17653.435852999992
 31
0.0
  0
LINE
  5
3DF7
  8
2-0
  6
CONTINUOUS
 62
     3
 10
26063.049930999961
 20
17653.435852999992
 30
0.0
 11
26093.047554999961
 21
17653.435852999992
 31
0.0
  0
LINE
  5
3DF8
  8
2-0
  6
CONTINUOUS
 62
     3
 10
26063.049930999961
 20
17659.43775399998
 30
0.0
 11
26063.049930999961
 21
17653.435852999992
 31
0.0
  0
LINE
  5
3DF9
  8
2-0
  6
CONTINUOUS
 62
     3
 10
26063.049930999961
 20
17643.34624699999
 30
0.0
 11
26093.047554999961
 21
17643.34624699999
 31
0.0
  0
LINE
  5
3DFA
  8
2-0
  6
CONTINUOUS
 62
     3
 10
26063.049930999961
 20
17661.342049999981
 30
0.0
 11
26063.049930999961
 21
17643.34624699999
 31
0.0
  0
LINE
  5
3DFB
  8
2-0
  6
CONTINUOUS
 62
     3
 10
26088.047290999959
 20
17661.342049999981
 30
0.0
 11
26063.049930999961
 21
17661.342049999981
 31
0.0
  0
LINE
  5
3DFC
  8
2-0
  6
CONTINUOUS
 62
     3
 10
26088.047290999959
 20
17656.34178699999
 30
0.0
 11
26088.047290999959
 21
17661.342049999981
 31
0.0
  0
LINE
  5
3DFD
  8
2-0
  6
CONTINUOUS
 62
     3
 10
26081.04573399997
 20
17656.34178699999
 30
0.0
 11
26088.047290999959
 21
17656.34178699999
 31
0.0
  0
LINE
  5
3DFE
  8
2-0
  6
CONTINUOUS
 62
     3
 10
26090.16141699997
 20
16936.432672999981
 30
0.0
 11
26090.16141699997
 21
16956.433727999982
 31
0.0
  0
LINE
  5
3DFF
  8
2-0
  6
CONTINUOUS
 62
     3
 10
26090.16141699997
 20
16956.433727999982
 30
0.0
 11
26005.164847999949
 21
16956.433727999982
 31
0.0
  0
LINE
  5
3E00
  8
2-0
  6
CONTINUOUS
 62
     3
 10
26081.04573399997
 20
16983.040437999982
 30
0.0
 11
26088.047290999959
 21
16983.040437999982
 31
0.0
  0
LINE
  5
3E01
  8
2-0
  6
CONTINUOUS
 62
     3
 10
26088.047290999959
 20
16983.040437999982
 30
0.0
 11
26088.047290999959
 21
16978.046112
 31
0.0
  0
LINE
  5
3E02
  8
2-0
  6
CONTINUOUS
 62
     3
 10
26088.047290999959
 20
16978.046112
 30
0.0
 11
26063.049930999961
 21
16978.046112
 31
0.0
  0
LINE
  5
3E03
  8
2-0
  6
CONTINUOUS
 62
     3
 10
26063.049930999961
 20
16978.046112
 30
0.0
 11
26063.049930999961
 21
16996.041915999991
 31
0.0
  0
LINE
  5
3E04
  8
2-0
  6
CONTINUOUS
 62
     3
 10
26063.049930999961
 20
16996.041915999991
 30
0.0
 11
26093.047554999961
 21
16996.041915999991
 31
0.0
  0
LINE
  5
3E05
  8
2-0
  6
CONTINUOUS
 62
     3
 10
26063.049930999961
 20
16986.433331999971
 30
0.0
 11
26063.049930999961
 21
16980.43143199999
 31
0.0
  0
LINE
  5
3E06
  8
2-0
  6
CONTINUOUS
 62
     3
 10
26093.047554999961
 20
16986.433331999971
 30
0.0
 11
26063.049930999961
 21
16986.433331999971
 31
0.0
  0
LINE
  5
3E07
  8
2-0
  6
CONTINUOUS
 62
     3
 10
26093.047554999961
 20
16996.041915999991
 30
0.0
 11
26093.047554999961
 21
17643.34624699999
 31
0.0
  0
LINE
  5
3E08
  8
2-0
  6
CONTINUOUS
 62
     3
 10
26093.047554999961
 20
17700.53651799999
 30
0.0
 11
26093.047554999961
 21
18344.340307999992
 31
0.0
  0
LINE
  5
3E09
  8
2-0
  6
CONTINUOUS
 62
     3
 10
26093.047554999961
 20
16841.431616999991
 30
0.0
 11
26063.049930999961
 21
16841.431616999991
 31
0.0
  0
LINE
  5
3E0A
  8
2-0
  6
CONTINUOUS
 62
     3
 10
26063.049930999961
 20
16841.431616999991
 30
0.0
 11
26063.049930999961
 21
16847.433517000001
 31
0.0
  0
LINE
  5
3E0B
  8
2-0
  6
CONTINUOUS
 62
     3
 10
26005.164847999949
 20
16871.43715999999
 30
0.0
 11
26090.16141699997
 21
16871.43715999999
 31
0.0
  0
LINE
  5
3E0C
  8
2-0
  6
CONTINUOUS
 62
     3
 10
26090.16141699997
 20
16871.43715999999
 30
0.0
 11
26090.16141699997
 21
16891.432276999982
 31
0.0
  0
LINE
  5
3E0D
  8
2-0
  6
CONTINUOUS
 62
     3
 10
26063.049930999961
 20
16831.82303399999
 30
0.0
 11
26093.047554999961
 21
16831.82303399999
 31
0.0
  0
LINE
  5
3E0E
  8
2-0
  6
CONTINUOUS
 62
     3
 10
26063.049930999961
 20
16849.818836999981
 30
0.0
 11
26063.049930999961
 21
16831.82303399999
 31
0.0
  0
LINE
  5
3E0F
  8
2-0
  6
CONTINUOUS
 62
     3
 10
26088.047290999959
 20
16849.818836999981
 30
0.0
 11
26063.049930999961
 21
16849.818836999981
 31
0.0
  0
LINE
  5
3E10
  8
2-0
  6
CONTINUOUS
 62
     3
 10
26088.047290999959
 20
16844.81857299999
 30
0.0
 11
26088.047290999959
 21
16849.818836999981
 31
0.0
  0
LINE
  5
3E11
  8
2-0
  6
CONTINUOUS
 62
     3
 10
26081.04573399997
 20
16844.81857299999
 30
0.0
 11
26088.047290999959
 21
16844.81857299999
 31
0.0
  0
LINE
  5
3E12
  8
2-0
  6
CONTINUOUS
 62
     3
 10
26081.04573399997
 20
16140.336342499961
 30
0.0
 11
26088.047290999959
 21
16140.336342499961
 31
0.0
  0
LINE
  5
3E13
  8
2-0
  6
CONTINUOUS
 62
     3
 10
26088.047290999959
 20
16140.336342499961
 30
0.0
 11
26088.047290999959
 21
16145.336606499979
 31
0.0
  0
LINE
  5
3E14
  8
2-0
  6
CONTINUOUS
 62
     3
 10
26088.047290999959
 20
16145.336606499979
 30
0.0
 11
26063.049930999961
 21
16145.336606499979
 31
0.0
  0
LINE
  5
3E15
  8
2-0
  6
CONTINUOUS
 62
     3
 10
26063.049930999961
 20
16145.336606499979
 30
0.0
 11
26063.049930999961
 21
16127.334864499981
 31
0.0
  0
LINE
  5
3E16
  8
2-0
  6
CONTINUOUS
 62
     3
 10
26063.049930999961
 20
16127.334864499981
 30
0.0
 11
26093.047554999961
 21
16127.334864499981
 31
0.0
  0
LINE
  5
3E17
  8
2-0
  6
CONTINUOUS
 62
     3
 10
26063.049930999961
 20
16143.432309499991
 30
0.0
 11
26063.049930999961
 21
16137.435358499981
 31
0.0
  0
LINE
  5
3E18
  8
2-0
  6
CONTINUOUS
 62
     3
 10
26063.049930999961
 20
16137.435358499981
 30
0.0
 11
26093.047554999961
 21
16137.435358499981
 31
0.0
  0
LINE
  5
3E19
  8
2-0
  6
CONTINUOUS
 62
     3
 10
26093.047554999961
 20
16137.435358499981
 30
0.0
 11
26093.047554999961
 21
16174.43552949999
 31
0.0
  0
LINE
  5
3E1A
  8
2-0
  6
CONTINUOUS
 62
     3
 10
26063.049930999961
 20
16174.43552949999
 30
0.0
 11
26093.047554999961
 21
16174.43552949999
 31
0.0
  0
LINE
  5
3E1B
  8
2-0
  6
CONTINUOUS
 62
     3
 10
26063.049930999961
 20
16168.432639499981
 30
0.0
 11
26063.049930999961
 21
16174.43552949999
 31
0.0
  0
LINE
  5
3E1C
  8
2-0
  6
CONTINUOUS
 62
     3
 10
26063.049930999961
 20
16184.531074499981
 30
0.0
 11
26093.047554999961
 21
16184.531074499981
 31
0.0
  0
LINE
  5
3E1D
  8
2-0
  6
CONTINUOUS
 62
     3
 10
26063.049930999961
 20
16166.523393499991
 30
0.0
 11
26063.049930999961
 21
16184.531074499981
 31
0.0
  0
LINE
  5
3E1E
  8
2-0
  6
CONTINUOUS
 62
     3
 10
26088.047290999959
 20
16166.523393499991
 30
0.0
 11
26063.049930999961
 21
16166.523393499991
 31
0.0
  0
LINE
  5
3E1F
  8
2-0
  6
CONTINUOUS
 62
     3
 10
26088.047290999959
 20
16171.52959649998
 30
0.0
 11
26088.047290999959
 21
16166.523393499991
 31
0.0
  0
LINE
  5
3E20
  8
2-0
  6
CONTINUOUS
 62
     3
 10
26081.04573399997
 20
16171.52959649998
 30
0.0
 11
26088.047290999959
 21
16171.52959649998
 31
0.0
  0
LINE
  5
3E21
  8
2-0
  6
CONTINUOUS
 62
     3
 10
26081.04573399997
 20
15470.76961299998
 30
0.0
 11
26088.047290999959
 21
15470.76961299998
 31
0.0
  0
LINE
  5
3E22
  8
2-0
  6
CONTINUOUS
 62
     3
 10
26088.047290999959
 20
15470.76961299998
 30
0.0
 11
26088.047290999959
 21
15465.775288000001
 31
0.0
  0
LINE
  5
3E23
  8
2-0
  6
CONTINUOUS
 62
     3
 10
26088.047290999959
 20
15465.775288000001
 30
0.0
 11
26063.049930999961
 21
15465.775288000001
 31
0.0
  0
LINE
  5
3E24
  8
2-0
  6
CONTINUOUS
 62
     3
 10
26063.049930999961
 20
15465.775288000001
 30
0.0
 11
26063.049930999961
 21
15483.771091000001
 31
0.0
  0
LINE
  5
3E25
  8
2-0
  6
CONTINUOUS
 62
     3
 10
26063.049930999961
 20
15483.771091000001
 30
0.0
 11
26093.047554999961
 21
15483.771091000001
 31
0.0
  0
LINE
  5
3E26
  8
2-0
  6
CONTINUOUS
 62
     3
 10
26063.049930999961
 20
15467.67364599999
 30
0.0
 11
26063.049930999961
 21
15473.675546
 31
0.0
  0
LINE
  5
3E27
  8
2-0
  6
CONTINUOUS
 62
     3
 10
26063.049930999961
 20
15473.675546
 30
0.0
 11
26093.047554999961
 21
15473.675546
 31
0.0
  0
LINE
  5
3E28
  8
2-0
  6
CONTINUOUS
 62
     3
 10
26093.047554999961
 20
15436.67636499999
 30
0.0
 11
26093.047554999961
 21
15473.675546
 31
0.0
  0
LINE
  5
3E29
  8
2-0
  6
CONTINUOUS
 62
     3
 10
26063.049930999961
 20
15436.67636499999
 30
0.0
 11
26093.047554999961
 21
15436.67636499999
 31
0.0
  0
LINE
  5
3E2A
  8
2-0
  6
CONTINUOUS
 62
     3
 10
26063.049930999961
 20
15442.67331599998
 30
0.0
 11
26063.049930999961
 21
15436.67636499999
 31
0.0
  0
LINE
  5
3E2B
  8
2-0
  6
CONTINUOUS
 62
     3
 10
26063.049930999961
 20
15426.57488099998
 30
0.0
 11
26093.047554999961
 21
15426.57488099998
 31
0.0
  0
LINE
  5
3E2C
  8
2-0
  6
CONTINUOUS
 62
     3
 10
26063.049930999961
 20
15444.582561999991
 30
0.0
 11
26063.049930999961
 21
15426.57488099998
 31
0.0
  0
LINE
  5
3E2D
  8
2-0
  6
CONTINUOUS
 62
     3
 10
26088.047290999959
 20
15444.582561999991
 30
0.0
 11
26063.049930999961
 21
15444.582561999991
 31
0.0
  0
LINE
  5
3E2E
  8
2-0
  6
CONTINUOUS
 62
     3
 10
26088.047290999959
 20
15439.582297999999
 30
0.0
 11
26088.047290999959
 21
15444.582561999991
 31
0.0
  0
LINE
  5
3E2F
  8
2-0
  6
CONTINUOUS
 62
     3
 10
26081.04573399997
 20
15439.582297999999
 30
0.0
 11
26088.047290999959
 21
15439.582297999999
 31
0.0
  0
LINE
  5
3E30
  8
2-0
  6
CONTINUOUS
 62
     3
 10
26093.047554999961
 20
16831.82303399999
 30
0.0
 11
26093.047554999961
 21
16184.531074499981
 31
0.0
  0
LINE
  5
3E31
  8
2-0
  6
CONTINUOUS
 62
     3
 10
26093.047554999961
 20
16986.433331999971
 30
0.0
 11
26093.047554999961
 21
16841.431616999991
 31
0.0
  0
LINE
  5
3E32
  8
2-0
  6
CONTINUOUS
 62
     3
 10
26005.164847999949
 20
16956.433727999982
 30
0.0
 11
26005.164847999949
 21
16871.43715999999
 31
0.0
  0
LINE
  5
3E33
  8
2-0
  6
CONTINUOUS
 62
     6
 10
24466.956180999961
 20
18724.88099349997
 30
0.0
 11
25491.98851299996
 21
18724.88099349997
 31
0.0
  0
LINE
  5
3E34
  8
2-0
  6
CONTINUOUS
 62
     3
 10
26081.04573399997
 20
14738.34129099999
 30
0.0
 11
26088.047290999959
 21
14738.34129099999
 31
0.0
  0
LINE
  5
3E35
  8
2-0
  6
CONTINUOUS
 62
     3
 10
26088.047290999959
 20
14738.34129099999
 30
0.0
 11
26088.047290999959
 21
14743.33561699999
 31
0.0
  0
LINE
  5
3E36
  8
2-0
  6
CONTINUOUS
 62
     3
 10
26088.047290999959
 20
14743.33561699999
 30
0.0
 11
26063.049930999961
 21
14743.33561699999
 31
0.0
  0
LINE
  5
3E37
  8
2-0
  6
CONTINUOUS
 62
     3
 10
26063.049930999961
 20
14743.33561699999
 30
0.0
 11
26063.049930999961
 21
14725.33981299999
 31
0.0
  0
LINE
  5
3E38
  8
2-0
  6
CONTINUOUS
 62
     3
 10
26063.049930999961
 20
14725.33981299999
 30
0.0
 11
26093.047554999961
 21
14725.33981299999
 31
0.0
  0
LINE
  5
3E39
  8
2-0
  6
CONTINUOUS
 62
     3
 10
26063.049930999961
 20
14741.43824799998
 30
0.0
 11
26063.049930999961
 21
14735.43535799999
 31
0.0
  0
LINE
  5
3E3A
  8
2-0
  6
CONTINUOUS
 62
     3
 10
26063.049930999961
 20
14735.43535799999
 30
0.0
 11
26093.047554999961
 21
14735.43535799999
 31
0.0
  0
LINE
  5
3E3B
  8
2-0
  6
CONTINUOUS
 62
     3
 10
26093.047554999961
 20
14735.43535799999
 30
0.0
 11
26093.047554999961
 21
14772.435529999981
 31
0.0
  0
LINE
  5
3E3C
  8
2-0
  6
CONTINUOUS
 62
     3
 10
26063.049930999961
 20
14772.435529999981
 30
0.0
 11
26093.047554999961
 21
14772.435529999981
 31
0.0
  0
LINE
  5
3E3D
  8
2-0
  6
CONTINUOUS
 62
     3
 10
26063.049930999961
 20
14766.438577999979
 30
0.0
 11
26063.049930999961
 21
14772.435529999981
 31
0.0
  0
LINE
  5
3E3E
  8
2-0
  6
CONTINUOUS
 62
     3
 10
26063.049930999961
 20
14782.536022999981
 30
0.0
 11
26093.047554999961
 21
14782.536022999981
 31
0.0
  0
LINE
  5
3E3F
  8
2-0
  6
CONTINUOUS
 62
     3
 10
26063.049930999961
 20
14764.52933199998
 30
0.0
 11
26063.049930999961
 21
14782.536022999981
 31
0.0
  0
LINE
  5
3E40
  8
2-0
  6
CONTINUOUS
 62
     3
 10
26088.047290999959
 20
14764.52933199998
 30
0.0
 11
26063.049930999961
 21
14764.52933199998
 31
0.0
  0
LINE
  5
3E41
  8
2-0
  6
CONTINUOUS
 62
     3
 10
26088.047290999959
 20
14769.53454499998
 30
0.0
 11
26088.047290999959
 21
14764.52933199998
 31
0.0
  0
LINE
  5
3E42
  8
2-0
  6
CONTINUOUS
 62
     3
 10
26081.04573399997
 20
14769.53454499998
 30
0.0
 11
26088.047290999959
 21
14769.53454499998
 31
0.0
  0
LINE
  5
3E43
  8
2-0
  6
CONTINUOUS
 62
     3
 10
26063.049930999961
 20
14062.43737099998
 30
0.0
 11
26063.049930999961
 21
14068.44223999998
 31
0.0
  0
LINE
  5
3E44
  8
2-0
  6
CONTINUOUS
 62
     3
 10
26063.049930999961
 20
14068.44223999998
 30
0.0
 11
26093.047554999961
 21
14068.44223999998
 31
0.0
  0
LINE
  5
3E45
  8
2-0
  6
CONTINUOUS
 62
     3
 10
26093.047554999961
 20
14068.44223999998
 30
0.0
 11
26093.047554999961
 21
13953.438148999991
 31
0.0
  0
LINE
  5
3E46
  8
2-0
  6
CONTINUOUS
 62
     3
 10
26093.047554999961
 20
13953.438148999991
 30
0.0
 11
26008.049006999961
 21
13953.438148999991
 31
0.0
  0
LINE
  5
3E47
  8
2-0
  6
CONTINUOUS
 62
     3
 10
26008.049006999961
 20
13953.438148999991
 30
0.0
 11
26008.049006999961
 21
14038.43372799998
 31
0.0
  0
LINE
  5
3E48
  8
2-0
  6
CONTINUOUS
 62
     3
 10
26008.049006999961
 20
14038.43372799998
 30
0.0
 11
26040.047924999959
 21
14038.43372799998
 31
0.0
  0
LINE
  5
3E49
  8
2-0
  6
CONTINUOUS
 62
     3
 10
26081.04573399997
 20
14065.471972999991
 30
0.0
 11
26088.047290999959
 21
14065.471972999991
 31
0.0
  0
LINE
  5
3E4A
  8
2-0
  6
CONTINUOUS
 62
     3
 10
26088.047290999959
 20
14065.471972999991
 30
0.0
 11
26088.047290999959
 21
14060.47467799995
 31
0.0
  0
LINE
  5
3E4B
  8
2-0
  6
CONTINUOUS
 62
     3
 10
26088.047290999959
 20
14060.47467799995
 30
0.0
 11
26063.049930999961
 21
14060.47467799995
 31
0.0
  0
LINE
  5
3E4C
  8
2-0
  6
CONTINUOUS
 62
     3
 10
26063.049930999961
 20
14060.47467799995
 30
0.0
 11
26063.049930999961
 21
14078.473450999991
 31
0.0
  0
LINE
  5
3E4D
  8
2-0
  6
CONTINUOUS
 62
     3
 10
26063.049930999961
 20
14078.473450999991
 30
0.0
 11
26093.047554999961
 21
14078.473450999991
 31
0.0
  0
LINE
  5
3E4E
  8
2-0
  6
CENTER2
 62
     6
 10
26050.54927099996
 20
13755.94059099997
 30
0.0
 11
26050.54927099996
 21
14911.809348999999
 31
0.0
  0
LINE
  5
3E4F
  8
2-0
  6
CONTINUOUS
 62
     3
 10
26093.047554999961
 20
18401.530579999991
 30
0.0
 11
26093.047554999961
 21
19045.341297499981
 31
0.0
  0
LINE
  5
3E50
  8
2-0
  6
CONTINUOUS
 62
     6
 10
26785.552437999959
 20
20253.936632000001
 30
0.0
 11
27985.546499999939
 21
20253.936632000001
 31
0.0
  0
LINE
  5
3E51
  8
2-0
  6
CONTINUOUS
 62
     3
 10
23205.05111899996
 20
19523.933729000011
 30
0.0
 11
23205.05111899996
 21
19493.930165999998
 31
0.0
  0
LINE
  5
3E52
  8
2-0
  6
CONTINUOUS
 62
     3
 10
23205.05111899996
 20
19493.930165999998
 30
0.0
 11
23199.053176999962
 21
19493.930165999998
 31
0.0
  0
LINE
  5
3E53
  8
2-0
  6
CONTINUOUS
 62
     3
 10
23214.667619999971
 20
19493.930165999998
 30
0.0
 11
23214.667619999971
 21
19523.933729000011
 31
0.0
  0
LINE
  5
3E54
  8
2-0
  6
CONTINUOUS
 62
     3
 10
23196.66587799996
 20
19493.930165999998
 30
0.0
 11
23214.667619999971
 21
19493.930165999998
 31
0.0
  0
LINE
  5
3E55
  8
2-0
  6
CONTINUOUS
 62
     3
 10
23196.66587799996
 20
19518.939403
 30
0.0
 11
23196.66587799996
 21
19493.930165999998
 31
0.0
  0
LINE
  5
3E56
  8
2-0
  6
CONTINUOUS
 62
     3
 10
23201.666141999958
 20
19518.939403
 30
0.0
 11
23196.66587799996
 21
19518.939403
 31
0.0
  0
LINE
  5
3E57
  8
2-0
  6
CONTINUOUS
 62
     3
 10
23201.666141999958
 20
19511.93388700001
 30
0.0
 11
23201.666141999958
 21
19518.939403
 31
0.0
  0
LINE
  5
3E58
  8
2-0
  6
CONTINUOUS
 62
     3
 10
23175.04953499998
 20
19521.041652
 30
0.0
 11
23175.04953499998
 21
19436.043104000011
 31
0.0
  0
LINE
  5
3E59
  8
2-0
  6
CONTINUOUS
 62
     3
 10
23155.052437999981
 20
19521.041652
 30
0.0
 11
23175.04953499998
 21
19521.041652
 31
0.0
  0
LINE
  5
3E5A
  8
2-0
  6
CONTINUOUS
 62
     3
 10
23063.43833899996
 20
19511.93388700001
 30
0.0
 11
23063.43833899996
 21
19518.939403
 31
0.0
  0
LINE
  5
3E5B
  8
2-0
  6
CONTINUOUS
 62
     3
 10
23063.43833899996
 20
19518.939403
 30
0.0
 11
23068.43860299997
 21
19518.939403
 31
0.0
  0
LINE
  5
3E5C
  8
2-0
  6
CONTINUOUS
 62
     3
 10
23068.43860299997
 20
19518.939403
 30
0.0
 11
23068.43860299997
 21
19493.930165999998
 31
0.0
  0
LINE
  5
3E5D
  8
2-0
  6
CONTINUOUS
 62
     3
 10
23068.43860299997
 20
19493.930165999998
 30
0.0
 11
23050.436860999958
 21
19493.930165999998
 31
0.0
  0
LINE
  5
3E5E
  8
2-0
  6
CONTINUOUS
 62
     3
 10
23050.436860999958
 20
19493.930165999998
 30
0.0
 11
23050.436860999958
 21
19523.933729000011
 31
0.0
  0
LINE
  5
3E5F
  8
2-0
  6
CONTINUOUS
 62
     3
 10
23090.05692499995
 20
19521.041652
 30
0.0
 11
23110.05204199997
 21
19521.041652
 31
0.0
  0
LINE
  5
3E60
  8
2-0
  6
CONTINUOUS
 62
     3
 10
23090.05692499995
 20
19436.043104000011
 30
0.0
 11
23090.05692499995
 21
19521.041652
 31
0.0
  0
LINE
  5
3E61
  8
2-0
  6
CONTINUOUS
 62
     3
 10
23060.059300999968
 20
19493.930165999998
 30
0.0
 11
23066.055261999962
 21
19493.930165999998
 31
0.0
  0
LINE
  5
3E62
  8
2-0
  6
CONTINUOUS
 62
     3
 10
23060.059300999968
 20
19523.933729000011
 30
0.0
 11
23060.059300999968
 21
19493.930165999998
 31
0.0
  0
LINE
  5
3E63
  8
2-0
  6
CONTINUOUS
 62
     3
 10
23175.04953499998
 20
19436.043104000011
 30
0.0
 11
23090.05692499995
 21
19436.043104000011
 31
0.0
  0
LINE
  5
3E64
  8
2-0
  6
CONTINUOUS
 62
     3
 10
23205.05111899996
 20
19523.933729000011
 30
0.0
 11
23060.059300999968
 21
19523.933729000011
 31
0.0
  0
LINE
  5
3E65
  8
2-0
  6
CONTINUOUS
 62
     6
 10
25923.519604999961
 20
18967.035501499991
 30
0.0
 11
25491.98851299996
 21
18724.88099349997
 31
0.0
  0
LINE
  5
3E66
  8
2-0
  6
CONTINUOUS
 62
     6
 10
26245.088438999941
 20
19666.613469
 30
0.0
 11
26785.552437999959
 21
20253.936632000001
 31
0.0
  0
LINE
  5
3E67
  8
2-0
  6
CONTINUOUS
 62
     6
 10
23175.04953499998
 20
14038.43372799998
 30
0.0
 11
23451.639747999969
 21
14493.778427999971
 31
0.0
  0
LINE
  5
3E68
  8
2-0
  6
CONTINUOUS
 62
     6
 10
23451.639747999969
 20
14493.778427999971
 30
0.0
 11
24481.989066999959
 21
14493.778427999971
 31
0.0
  0
LINE
  5
3E69
  8
2-0
  6
CONTINUOUS
 62
     3
 10
26093.047554999961
 20
16127.334864499981
 30
0.0
 11
26093.047554999961
 21
15483.771091000001
 31
0.0
  0
LINE
  5
3E6A
  8
2-0
  6
CONTINUOUS
 62
     6
 10
23235.327854999981
 20
14189.029562999969
 30
0.0
 11
23175.04953499998
 21
14038.43372799998
 31
0.0
  0
LINE
  5
3E6B
  8
2-0
  6
CONTINUOUS
 62
     6
 10
23175.04953499998
 20
14038.43372799998
 30
0.0
 11
23280.908249999931
 21
14161.34203699998
 31
0.0
  0
LINE
  5
3E6C
  8
2-0
  6
CONTINUOUS
 62
     6
 10
23235.327854999981
 20
14189.029562999969
 30
0.0
 11
23280.908249999931
 21
14161.34203699998
 31
0.0
  0
LINE
  5
3E6D
  8
2-0
  6
CONTINUOUS
 62
     6
 10
23280.908249999931
 20
14161.34203699998
 30
0.0
 11
23175.04953499998
 21
14038.43372799998
 31
0.0
  0
LINE
  5
3E6E
  8
2-0
  6
CONTINUOUS
 62
     6
 10
23175.04953499998
 20
14038.43372799998
 30
0.0
 11
23235.327854999981
 21
14189.029562999969
 31
0.0
  0
LINE
  5
3E6F
  8
2-0
  6
CONTINUOUS
 62
     6
 10
23235.327854999981
 20
14189.029562999969
 30
0.0
 11
23175.04953499998
 21
14038.43372799998
 31
0.0
  0
LINE
  5
3E70
  8
2-0
  6
CONTINUOUS
 62
     6
 10
23280.908249999931
 20
14161.34203699998
 30
0.0
 11
23175.04953499998
 21
14038.43372799998
 31
0.0
  0
LINE
  5
3E71
  8
2-0
  6
CONTINUOUS
 62
     6
 10
23280.908249999931
 20
14161.34203699998
 30
0.0
 11
23235.327854999981
 21
14189.029562999969
 31
0.0
  0
LINE
  5
3E72
  8
2-0
  6
CONTINUOUS
 62
     6
 10
25910.46269999996
 20
18990.294845499961
 30
0.0
 11
26063.049930999961
 21
19045.341297499981
 31
0.0
  0
LINE
  5
3E73
  8
2-0
  6
CONTINUOUS
 62
     6
 10
26063.049930999961
 20
19045.341297499981
 30
0.0
 11
25936.56859099997
 21
18943.782097499981
 31
0.0
  0
LINE
  5
3E74
  8
2-0
  6
CONTINUOUS
 62
     6
 10
25910.46269999996
 20
18990.294845499961
 30
0.0
 11
25936.56859099997
 21
18943.782097499981
 31
0.0
  0
LINE
  5
3E75
  8
2-0
  6
CONTINUOUS
 62
     6
 10
25936.56859099997
 20
18943.782097499981
 30
0.0
 11
26063.049930999961
 21
19045.341297499981
 31
0.0
  0
LINE
  5
3E76
  8
2-0
  6
CONTINUOUS
 62
     6
 10
26063.049930999961
 20
19045.341297499981
 30
0.0
 11
25910.46269999996
 21
18990.294845499961
 31
0.0
  0
LINE
  5
3E77
  8
2-0
  6
CONTINUOUS
 62
     6
 10
25910.46269999996
 20
18990.294845499961
 30
0.0
 11
26063.049930999961
 21
19045.341297499981
 31
0.0
  0
LINE
  5
3E78
  8
2-0
  6
CONTINUOUS
 62
     6
 10
25936.56859099997
 20
18943.782097499981
 30
0.0
 11
26063.049930999961
 21
19045.341297499981
 31
0.0
  0
LINE
  5
3E79
  8
2-0
  6
CONTINUOUS
 62
     6
 10
25936.56859099997
 20
18943.782097499981
 30
0.0
 11
25910.46269999996
 21
18990.294845499961
 31
0.0
  0
LINE
  5
3E7A
  8
2-0
  6
CONTINUOUS
 62
     6
 10
26264.70546799996
 20
19648.552341999999
 30
0.0
 11
26136.743447999961
 21
19548.869724
 31
0.0
  0
LINE
  5
3E7B
  8
2-0
  6
CONTINUOUS
 62
     6
 10
26136.743447999961
 20
19548.869724
 30
0.0
 11
26225.45755299996
 21
19684.666678999991
 31
0.0
  0
LINE
  5
3E7C
  8
2-0
  6
CONTINUOUS
 62
     6
 10
26264.70546799996
 20
19648.552341999999
 30
0.0
 11
26225.45755299996
 21
19684.666678999991
 31
0.0
  0
LINE
  5
3E7D
  8
2-0
  6
CONTINUOUS
 62
     6
 10
26225.45755299996
 20
19684.666678999991
 30
0.0
 11
26136.743447999961
 21
19548.869724
 31
0.0
  0
LINE
  5
3E7E
  8
2-0
  6
CONTINUOUS
 62
     6
 10
26136.743447999961
 20
19548.869724
 30
0.0
 11
26264.70546799996
 21
19648.552341999999
 31
0.0
  0
LINE
  5
3E7F
  8
2-0
  6
CONTINUOUS
 62
     6
 10
26264.70546799996
 20
19648.552341999999
 30
0.0
 11
26136.743447999961
 21
19548.869724
 31
0.0
  0
LINE
  5
3E80
  8
2-0
  6
CONTINUOUS
 62
     6
 10
26225.45755299996
 20
19684.666678999991
 30
0.0
 11
26136.743447999961
 21
19548.869724
 31
0.0
  0
LINE
  5
3E81
  8
2-0
  6
CONTINUOUS
 62
     6
 10
26225.45755299996
 20
19684.666678999991
 30
0.0
 11
26264.70546799996
 21
19648.552341999999
 31
0.0
  0
LINE
  5
3E82
  8
2-0
  6
CONTINUOUS
 62
     6
 10
19256.47967099999
 20
19276.161347000001
 30
0.0
 11
19388.412604000001
 21
18806.815512000001
 31
0.0
  0
LINE
  5
3E83
  8
2-0
  6
CONTINUOUS
 62
     6
 10
19388.412604000001
 20
18806.815512000001
 30
0.0
 11
20413.450874999991
 21
18806.815512000001
 31
0.0
  0
LINE
  5
3E84
  8
2-0
  6
CONTINUOUS
 62
     6
 10
19213.18562
 20
19430.189666999999
 30
0.0
 11
19230.807293999991
 21
19268.944022
 31
0.0
  0
LINE
  5
3E85
  8
2-0
  6
CONTINUOUS
 62
     6
 10
19282.152047
 20
19283.382631
 30
0.0
 11
19230.807293999991
 21
19268.944022
 31
0.0
  0
LINE
  5
3E86
  8
2-0
  6
CONTINUOUS
 62
     6
 10
19230.807293999991
 20
19268.944022
 30
0.0
 11
19213.18562
 21
19430.189666999999
 31
0.0
  0
LINE
  5
3E87
  8
2-0
  6
CONTINUOUS
 62
     6
 10
19213.18562
 20
19430.189666999999
 30
0.0
 11
19282.152047
 21
19283.382631
 31
0.0
  0
LINE
  5
3E88
  8
2-0
  6
CONTINUOUS
 62
     6
 10
19282.152047
 20
19283.382631
 30
0.0
 11
19213.18562
 21
19430.189666999999
 31
0.0
  0
LINE
  5
3E89
  8
2-0
  6
CONTINUOUS
 62
     6
 10
19230.807293999991
 20
19268.944022
 30
0.0
 11
19213.18562
 21
19430.189666999999
 31
0.0
  0
LINE
  5
3E8A
  8
2-0
  6
CONTINUOUS
 62
     6
 10
19230.807293999991
 20
19268.944022
 30
0.0
 11
19282.152047
 21
19283.382631
 31
0.0
  0
LINE
  5
3E8B
  8
2-0
  6
CONTINUOUS
 62
     6
 10
23173.972676999969
 20
19405.182409000001
 30
0.0
 11
23322.842371999981
 21
18875.560233
 31
0.0
  0
LINE
  5
3E8C
  8
2-0
  6
CONTINUOUS
 62
     6
 10
23322.842371999981
 20
18875.560233
 30
0.0
 11
24347.886580999959
 21
18875.560233
 31
0.0
  0
LINE
  5
3E8D
  8
2-0
  6
CONTINUOUS
 62
     6
 10
23191.59633099995
 20
19243.936763999991
 30
0.0
 11
23242.947021999971
 21
19258.37141399999
 31
0.0
  0
LINE
  5
3E8E
  8
2-0
  6
CONTINUOUS
 62
     6
 10
23242.947021999971
 20
19258.37141399999
 30
0.0
 11
23191.59633099995
 21
19243.936763999991
 31
0.0
  0
LINE
  5
3E8F
  8
2-0
  6
CONTINUOUS
 62
     6
 10
23191.59633099995
 20
19243.936763999991
 30
0.0
 11
23173.972676999969
 21
19405.182409000001
 31
0.0
  0
LINE
  5
3E90
  8
2-0
  6
CONTINUOUS
 62
     6
 10
23173.972676999969
 20
19405.182409000001
 30
0.0
 11
23242.947021999971
 21
19258.37141399999
 31
0.0
  0
LINE
  5
3E91
  8
2-0
  6
CONTINUOUS
 62
     6
 10
23242.947021999971
 20
19258.37141399999
 30
0.0
 11
23173.972676999969
 21
19405.182409000001
 31
0.0
  0
LINE
  5
3E92
  8
2-0
  6
CONTINUOUS
 62
     6
 10
23191.59633099995
 20
19243.936763999991
 30
0.0
 11
23173.972676999969
 21
19405.182409000001
 31
0.0
  0
LINE
  5
3E93
  8
2-0
  6
CONTINUOUS
 62
     6
 10
23242.947021999971
 20
19258.37141399999
 30
0.0
 11
23173.972676999969
 21
19405.182409000001
 31
0.0
  0
LINE
  5
3E94
  8
2-0
  6
CONTINUOUS
 62
     6
 10
23173.972676999969
 20
19405.182409000001
 30
0.0
 11
23191.59633099995
 21
19243.936763999991
 31
0.0
  0
LINE
  5
3E95
  8
2-0
  6
CONTINUOUS
 62
     4
 10
23132.54927099996
 20
19603.93597200001
 30
0.0
 11
23132.54927099996
 21
20333.932937000001
 31
0.0
  0
LINE
  5
3E96
  8
2-0
  6
CONTINUOUS
 62
     6
 10
25816.409833999958
 20
13845.16541099998
 30
0.0
 11
25948.156692999961
 21
13939.792337999979
 31
0.0
  0
LINE
  5
3E97
  8
2-0
  6
CONTINUOUS
 62
     6
 10
25948.156692999961
 20
13939.792337999979
 30
0.0
 11
25854.226556999962
 21
13807.55356799997
 31
0.0
  0
LINE
  5
3E98
  8
2-0
  6
CONTINUOUS
 62
     6
 10
25816.409833999958
 20
13845.16541099998
 30
0.0
 11
25854.226556999962
 21
13807.55356799997
 31
0.0
  0
LINE
  5
3E99
  8
2-0
  6
CONTINUOUS
 62
     6
 10
25854.226556999962
 20
13807.55356799997
 30
0.0
 11
25948.156692999961
 21
13939.792337999979
 31
0.0
  0
LINE
  5
3E9A
  8
2-0
  6
CONTINUOUS
 62
     6
 10
25948.156692999961
 20
13939.792337999979
 30
0.0
 11
25816.409833999958
 21
13845.16541099998
 31
0.0
  0
LINE
  5
3E9B
  8
2-0
  6
CONTINUOUS
 62
     6
 10
25816.409833999958
 20
13845.16541099998
 30
0.0
 11
25948.156692999961
 21
13939.792337999979
 31
0.0
  0
LINE
  5
3E9C
  8
2-0
  6
CONTINUOUS
 62
     6
 10
25854.226556999962
 20
13807.55356799997
 30
0.0
 11
25948.156692999961
 21
13939.792337999979
 31
0.0
  0
LINE
  5
3E9D
  8
2-0
  6
CONTINUOUS
 62
     6
 10
25854.226556999962
 20
13807.55356799997
 30
0.0
 11
25816.409833999958
 21
13845.16541099998
 31
0.0
  0
LINE
  5
3E9E
  8
2-0
  6
CONTINUOUS
 62
     6
 10
25879.445622999971
 20
14172.070037999971
 30
0.0
 11
26012.045654999962
 21
14078.641709999971
 31
0.0
  0
LINE
  5
3E9F
  8
2-0
  6
CONTINUOUS
 62
     6
 10
26012.045654999962
 20
14078.641709999971
 30
0.0
 11
25856.312968999959
 21
14124.017223999979
 31
0.0
  0
LINE
  5
3EA0
  8
2-0
  6
CONTINUOUS
 62
     6
 10
25879.445622999971
 20
14172.070037999971
 30
0.0
 11
25856.312968999959
 21
14124.017223999979
 31
0.0
  0
LINE
  5
3EA1
  8
2-0
  6
CONTINUOUS
 62
     6
 10
25856.312968999959
 20
14124.017223999979
 30
0.0
 11
26012.045654999962
 21
14078.641709999971
 31
0.0
  0
LINE
  5
3EA2
  8
2-0
  6
CONTINUOUS
 62
     6
 10
26012.045654999962
 20
14078.641709999971
 30
0.0
 11
25879.445622999971
 21
14172.070037999971
 31
0.0
  0
LINE
  5
3EA3
  8
2-0
  6
CONTINUOUS
 62
     6
 10
25879.445622999971
 20
14172.070037999971
 30
0.0
 11
26012.045654999962
 21
14078.641709999971
 31
0.0
  0
LINE
  5
3EA4
  8
2-0
  6
CONTINUOUS
 62
     6
 10
25856.312968999959
 20
14124.017223999979
 30
0.0
 11
26012.045654999962
 21
14078.641709999971
 31
0.0
  0
LINE
  5
3EA5
  8
2-0
  6
CONTINUOUS
 62
     6
 10
25856.312968999959
 20
14124.017223999979
 30
0.0
 11
25879.445622999971
 21
14172.070037999971
 31
0.0
  0
LINE
  5
3EA6
  8
2-0
  6
CONTINUOUS
 62
     6
 10
25939.209268999959
 20
16551.890971000012
 30
0.0
 11
26093.047554999961
 21
16603.32480200001
 31
0.0
  0
LINE
  5
3EA7
  8
2-0
  6
CONTINUOUS
 62
     6
 10
26093.047554999961
 20
16603.32480200001
 30
0.0
 11
25964.212567999952
 21
16504.784367
 31
0.0
  0
LINE
  5
3EA8
  8
2-0
  6
CONTINUOUS
 62
     6
 10
25939.209268999959
 20
16551.890971000012
 30
0.0
 11
25964.212567999952
 21
16504.784367
 31
0.0
  0
LINE
  5
3EA9
  8
2-0
  6
CONTINUOUS
 62
     6
 10
25964.212567999952
 20
16504.784367
 30
0.0
 11
26093.047554999961
 21
16603.32480200001
 31
0.0
  0
LINE
  5
3EAA
  8
2-0
  6
CONTINUOUS
 62
     6
 10
26093.047554999961
 20
16603.32480200001
 30
0.0
 11
25939.209268999959
 21
16551.890971000012
 31
0.0
  0
LINE
  5
3EAB
  8
2-0
  6
CONTINUOUS
 62
     6
 10
25939.209268999959
 20
16551.890971000012
 30
0.0
 11
26093.047554999961
 21
16603.32480200001
 31
0.0
  0
LINE
  5
3EAC
  8
2-0
  6
CONTINUOUS
 62
     6
 10
25964.212567999952
 20
16504.784367
 30
0.0
 11
26093.047554999961
 21
16603.32480200001
 31
0.0
  0
LINE
  5
3EAD
  8
2-0
  6
CONTINUOUS
 62
     6
 10
25964.212567999952
 20
16504.784367
 30
0.0
 11
25939.209268999959
 21
16551.890971000012
 31
0.0
  0
LINE
  5
3EAE
  8
2-0
  6
CONTINUOUS
 62
     6
 10
25805.27306199996
 20
17043.209462999999
 30
0.0
 11
25948.156692999961
 21
16966.433833999981
 31
0.0
  0
LINE
  5
3EAF
  8
2-0
  6
CONTINUOUS
 62
     6
 10
25948.156692999961
 20
16966.433833999981
 30
0.0
 11
25788.094799999959
 21
16992.715903000011
 31
0.0
  0
LINE
  5
3EB0
  8
2-0
  6
CONTINUOUS
 62
     6
 10
25805.27306199996
 20
17043.209462999999
 30
0.0
 11
25788.094799999959
 21
16992.715903000011
 31
0.0
  0
LINE
  5
3EB1
  8
2-0
  6
CONTINUOUS
 62
     6
 10
25788.094799999959
 20
16992.715903000011
 30
0.0
 11
25948.156692999961
 21
16966.433833999981
 31
0.0
  0
LINE
  5
3EB2
  8
2-0
  6
CONTINUOUS
 62
     6
 10
25948.156692999961
 20
16966.433833999981
 30
0.0
 11
25805.27306199996
 21
17043.209462999999
 31
0.0
  0
LINE
  5
3EB3
  8
2-0
  6
CONTINUOUS
 62
     6
 10
25805.27306199996
 20
17043.209462999999
 30
0.0
 11
25948.156692999961
 21
16966.433833999981
 31
0.0
  0
LINE
  5
3EB4
  8
2-0
  6
CONTINUOUS
 62
     6
 10
25788.094799999959
 20
16992.715903000011
 30
0.0
 11
25948.156692999961
 21
16966.433833999981
 31
0.0
  0
LINE
  5
3EB5
  8
2-0
  6
CONTINUOUS
 62
     6
 10
25788.094799999959
 20
16992.715903000011
 30
0.0
 11
25805.27306199996
 21
17043.209462999999
 31
0.0
  0
LINE
  5
3EB6
  8
2-0
  6
CONTINUOUS
 62
     3
 10
19893.044572999981
 20
19523.933729000011
 30
0.0
 11
19856.043410999991
 21
19523.933729000011
 31
0.0
  0
LINE
  5
3EB7
  8
2-0
  6
CONTINUOUS
 62
     3
 10
19893.044572999981
 20
19493.930165999998
 30
0.0
 11
19893.044572999981
 21
19523.933729000011
 31
0.0
  0
LINE
  5
3EB8
  8
2-0
  6
CONTINUOUS
 62
     3
 10
19887.04465199995
 20
19493.930165999998
 30
0.0
 11
19893.044572999981
 21
19493.930165999998
 31
0.0
  0
LINE
  5
3EB9
  8
2-0
  6
CONTINUOUS
 62
     3
 10
19903.142096999989
 20
19493.930165999998
 30
0.0
 11
19903.142096999989
 21
19523.933729000011
 31
0.0
  0
LINE
  5
3EBA
  8
2-0
  6
CONTINUOUS
 62
     3
 10
19885.138375999992
 20
19493.930165999998
 30
0.0
 11
19903.142096999989
 21
19493.930165999998
 31
0.0
  0
LINE
  5
3EBB
  8
2-0
  6
CONTINUOUS
 62
     3
 10
19885.138375999992
 20
19518.939403
 30
0.0
 11
19885.138375999992
 21
19493.930165999998
 31
0.0
  0
LINE
  5
3EBC
  8
2-0
  6
CONTINUOUS
 62
     3
 10
19890.138639999979
 20
19518.939403
 30
0.0
 11
19885.138375999992
 21
19518.939403
 31
0.0
  0
LINE
  5
3EBD
  8
2-0
  6
CONTINUOUS
 62
     3
 10
19890.138639999979
 20
19511.93388700001
 30
0.0
 11
19890.138639999979
 21
19518.939403
 31
0.0
  0
LINE
  5
3EBE
  8
2-0
  6
CONTINUOUS
 62
     3
 10
19858.949344999972
 20
19511.93388700001
 30
0.0
 11
19858.949344999972
 21
19518.939403
 31
0.0
  0
LINE
  5
3EBF
  8
2-0
  6
CONTINUOUS
 62
     3
 10
19858.949344999972
 20
19518.939403
 30
0.0
 11
19863.949608999981
 21
19518.939403
 31
0.0
  0
LINE
  5
3EC0
  8
2-0
  6
CONTINUOUS
 62
     3
 10
19863.949608999981
 20
19518.939403
 30
0.0
 11
19863.949608999981
 21
19493.930165999998
 31
0.0
  0
LINE
  5
3EC1
  8
2-0
  6
CONTINUOUS
 62
     3
 10
19863.949608999981
 20
19493.930165999998
 30
0.0
 11
19845.949845999989
 21
19493.930165999998
 31
0.0
  0
LINE
  5
3EC2
  8
2-0
  6
CONTINUOUS
 62
     3
 10
19845.949845999989
 20
19493.930165999998
 30
0.0
 11
19845.949845999989
 21
19523.933729000011
 31
0.0
  0
LINE
  5
3EC3
  8
2-0
  6
CONTINUOUS
 62
     3
 10
19862.04333199999
 20
19493.930165999998
 30
0.0
 11
19856.043410999991
 21
19493.930165999998
 31
0.0
  0
LINE
  5
3EC4
  8
2-0
  6
CONTINUOUS
 62
     3
 10
19856.043410999991
 20
19493.930165999998
 30
0.0
 11
19856.043410999991
 21
19523.933729000011
 31
0.0
  0
LINE
  5
3EC5
  8
2-0
  6
CONTINUOUS
 62
     3
 10
17702.045311999991
 20
19414.933518000002
 30
0.0
 11
17702.045311999991
 21
19408.937556000012
 31
0.0
  0
LINE
  5
3EC6
  8
2-0
  6
CONTINUOUS
 62
     3
 10
17702.045311999991
 20
19408.937556000012
 30
0.0
 11
17672.047686999991
 21
19408.937556000012
 31
0.0
  0
LINE
  5
3EC7
  8
2-0
  6
CONTINUOUS
 62
     3
 10
17672.047686999991
 20
19408.937556000012
 30
0.0
 11
17672.047686999991
 21
19523.933729000011
 31
0.0
  0
LINE
  5
3EC8
  8
2-0
  6
CONTINUOUS
 62
     3
 10
17672.047686999991
 20
19438.937160000001
 30
0.0
 11
17753.045627999982
 21
19438.937160000001
 31
0.0
  0
LINE
  5
3EC9
  8
2-0
  6
CONTINUOUS
 62
     3
 10
17702.045311999991
 20
19398.64009999999
 30
0.0
 11
17672.047686999991
 21
19398.64009999999
 31
0.0
  0
LINE
  5
3ECA
  8
2-0
  6
CONTINUOUS
 62
     3
 10
17702.045311999991
 20
19416.641842000001
 30
0.0
 11
17702.045311999991
 21
19398.64009999999
 31
0.0
  0
LINE
  5
3ECB
  8
2-0
  6
CONTINUOUS
 62
     3
 10
17677.051909999991
 20
19416.641842000001
 30
0.0
 11
17702.045311999991
 21
19416.641842000001
 31
0.0
  0
LINE
  5
3ECC
  8
2-0
  6
CONTINUOUS
 62
     3
 10
17677.051909999991
 20
19411.63366000001
 30
0.0
 11
17677.051909999991
 21
19416.641842000001
 31
0.0
  0
LINE
  5
3ECD
  8
2-0
  6
CONTINUOUS
 62
     3
 10
17684.049507999971
 20
19411.63366000001
 30
0.0
 11
17677.051909999991
 21
19411.63366000001
 31
0.0
  0
LINE
  5
3ECE
  8
2-0
  6
CONTINUOUS
 62
     3
 10
17784.343796999969
 20
19511.93388700001
 30
0.0
 11
17784.343796999969
 21
19518.939403
 31
0.0
  0
LINE
  5
3ECF
  8
2-0
  6
CONTINUOUS
 62
     3
 10
17784.343796999969
 20
19518.939403
 30
0.0
 11
17779.341552999991
 21
19518.939403
 31
0.0
  0
LINE
  5
3ED0
  8
2-0
  6
CONTINUOUS
 62
     3
 10
17779.341552999991
 20
19518.939403
 30
0.0
 11
17779.341552999991
 21
19493.930165999998
 31
0.0
  0
LINE
  5
3ED1
  8
2-0
  6
CONTINUOUS
 62
     3
 10
17779.341552999991
 20
19493.930165999998
 30
0.0
 11
17797.34923399999
 21
19493.930165999998
 31
0.0
  0
LINE
  5
3ED2
  8
2-0
  6
CONTINUOUS
 62
     3
 10
17797.34923399999
 20
19493.930165999998
 30
0.0
 11
17797.34923399999
 21
19523.933729000011
 31
0.0
  0
LINE
  5
3ED3
  8
2-0
  6
CONTINUOUS
 62
     3
 10
17787.049797999978
 20
19523.933729000011
 30
0.0
 11
17672.047686999991
 21
19523.933729000011
 31
0.0
  0
LINE
  5
3ED4
  8
2-0
  6
CONTINUOUS
 62
     3
 10
17787.049797999978
 20
19493.930165999998
 30
0.0
 11
17787.049797999978
 21
19523.933729000011
 31
0.0
  0
LINE
  5
3ED5
  8
2-0
  6
CONTINUOUS
 62
     3
 10
17781.045918999978
 20
19493.930165999998
 30
0.0
 11
17787.049797999978
 21
19493.930165999998
 31
0.0
  0
LINE
  5
3ED6
  8
2-0
  6
CONTINUOUS
 62
     3
 10
18488.133690499992
 20
19511.93388700001
 30
0.0
 11
18488.133690499992
 21
19518.939403
 31
0.0
  0
LINE
  5
3ED7
  8
2-0
  6
CONTINUOUS
 62
     3
 10
18488.133690499992
 20
19518.939403
 30
0.0
 11
18483.13342649999
 21
19518.939403
 31
0.0
  0
LINE
  5
3ED8
  8
2-0
  6
CONTINUOUS
 62
     3
 10
18483.13342649999
 20
19518.939403
 30
0.0
 11
18483.13342649999
 21
19493.930165999998
 31
0.0
  0
LINE
  5
3ED9
  8
2-0
  6
CONTINUOUS
 62
     3
 10
18483.13342649999
 20
19493.930165999998
 30
0.0
 11
18501.139127499991
 21
19493.930165999998
 31
0.0
  0
LINE
  5
3EDA
  8
2-0
  6
CONTINUOUS
 62
     3
 10
18501.139127499991
 20
19493.930165999998
 30
0.0
 11
18501.139127499991
 21
19523.933729000011
 31
0.0
  0
LINE
  5
3EDB
  8
2-0
  6
CONTINUOUS
 62
     3
 10
18485.041682499981
 20
19493.930165999998
 30
0.0
 11
18491.043582499991
 21
19493.930165999998
 31
0.0
  0
LINE
  5
3EDC
  8
2-0
  6
CONTINUOUS
 62
     3
 10
18491.043582499991
 20
19493.930165999998
 30
0.0
 11
18491.043582499991
 21
19523.933729000011
 31
0.0
  0
LINE
  5
3EDD
  8
2-0
  6
CONTINUOUS
 62
     3
 10
18454.044401499981
 20
19523.933729000011
 30
0.0
 11
18491.043582499991
 21
19523.933729000011
 31
0.0
  0
LINE
  5
3EDE
  8
2-0
  6
CONTINUOUS
 62
     3
 10
18454.044401499981
 20
19493.930165999998
 30
0.0
 11
18454.044401499981
 21
19523.933729000011
 31
0.0
  0
LINE
  5
3EDF
  8
2-0
  6
CONTINUOUS
 62
     3
 10
18460.038383499981
 20
19493.930165999998
 30
0.0
 11
18454.044401499981
 21
19493.930165999998
 31
0.0
  0
LINE
  5
3EE0
  8
2-0
  6
CONTINUOUS
 62
     3
 10
18443.948856499981
 20
19493.930165999998
 30
0.0
 11
18443.948856499981
 21
19523.933729000011
 31
0.0
  0
LINE
  5
3EE1
  8
2-0
  6
CONTINUOUS
 62
     3
 10
18461.94465949999
 20
19493.930165999998
 30
0.0
 11
18443.948856499981
 21
19493.930165999998
 31
0.0
  0
LINE
  5
3EE2
  8
2-0
  6
CONTINUOUS
 62
     3
 10
18461.94465949999
 20
19518.939403
 30
0.0
 11
18461.94465949999
 21
19493.930165999998
 31
0.0
  0
LINE
  5
3EE3
  8
2-0
  6
CONTINUOUS
 62
     3
 10
18456.944395499992
 20
19518.939403
 30
0.0
 11
18461.94465949999
 21
19518.939403
 31
0.0
  0
LINE
  5
3EE4
  8
2-0
  6
CONTINUOUS
 62
     3
 10
18456.944395499992
 20
19511.93388700001
 30
0.0
 11
18456.944395499992
 21
19518.939403
 31
0.0
  0
LINE
  5
3EE5
  8
2-0
  6
CONTINUOUS
 62
     3
 10
19157.943406499991
 20
19511.93388700001
 30
0.0
 11
19157.943406499991
 21
19518.939403
 31
0.0
  0
LINE
  5
3EE6
  8
2-0
  6
CONTINUOUS
 62
     3
 10
19157.943406499991
 20
19518.939403
 30
0.0
 11
19162.943669499979
 21
19518.939403
 31
0.0
  0
LINE
  5
3EE7
  8
2-0
  6
CONTINUOUS
 62
     3
 10
19162.943669499979
 20
19518.939403
 30
0.0
 11
19162.943669499979
 21
19493.930165999998
 31
0.0
  0
LINE
  5
3EE8
  8
2-0
  6
CONTINUOUS
 62
     3
 10
19162.943669499979
 20
19493.930165999998
 30
0.0
 11
19144.949846499982
 21
19493.930165999998
 31
0.0
  0
LINE
  5
3EE9
  8
2-0
  6
CONTINUOUS
 62
     3
 10
19144.949846499982
 20
19493.930165999998
 30
0.0
 11
19144.949846499982
 21
19523.933729000011
 31
0.0
  0
LINE
  5
3EEA
  8
2-0
  6
CONTINUOUS
 62
     3
 10
19161.041352499949
 20
19493.930165999998
 30
0.0
 11
19155.043411499992
 21
19493.930165999998
 31
0.0
  0
LINE
  5
3EEB
  8
2-0
  6
CONTINUOUS
 62
     3
 10
19155.043411499992
 20
19493.930165999998
 30
0.0
 11
19155.043411499992
 21
19523.933729000011
 31
0.0
  0
LINE
  5
3EEC
  8
2-0
  6
CONTINUOUS
 62
     3
 10
19192.044572499992
 20
19523.933729000011
 30
0.0
 11
19155.043411499992
 21
19523.933729000011
 31
0.0
  0
LINE
  5
3EED
  8
2-0
  6
CONTINUOUS
 62
     3
 10
19192.044572499992
 20
19493.930165999998
 30
0.0
 11
19192.044572499992
 21
19523.933729000011
 31
0.0
  0
LINE
  5
3EEE
  8
2-0
  6
CONTINUOUS
 62
     3
 10
19186.038713499991
 20
19493.930165999998
 30
0.0
 11
19192.044572499992
 21
19493.930165999998
 31
0.0
  0
LINE
  5
3EEF
  8
2-0
  6
CONTINUOUS
 62
     3
 10
19202.138137499991
 20
19493.930165999998
 30
0.0
 11
19202.138137499991
 21
19523.933729000011
 31
0.0
  0
LINE
  5
3EF0
  8
2-0
  6
CONTINUOUS
 62
     3
 10
19184.142334499971
 20
19493.930165999998
 30
0.0
 11
19202.138137499991
 21
19493.930165999998
 31
0.0
  0
LINE
  5
3EF1
  8
2-0
  6
CONTINUOUS
 62
     3
 10
19184.142334499971
 20
19518.939403
 30
0.0
 11
19184.142334499971
 21
19493.930165999998
 31
0.0
  0
LINE
  5
3EF2
  8
2-0
  6
CONTINUOUS
 62
     3
 10
19189.132700499991
 20
19518.939403
 30
0.0
 11
19184.142334499971
 21
19518.939403
 31
0.0
  0
LINE
  5
3EF3
  8
2-0
  6
CONTINUOUS
 62
     3
 10
19189.132700499991
 20
19511.93388700001
 30
0.0
 11
19189.132700499991
 21
19518.939403
 31
0.0
  0
LINE
  5
3EF4
  8
2-0
  6
CONTINUOUS
 62
     3
 10
18501.139127499991
 20
19523.933729000011
 30
0.0
 11
19144.949846499982
 21
19523.933729000011
 31
0.0
  0
LINE
  5
3EF5
  8
2-0
  6
CONTINUOUS
 62
     3
 10
17797.34923399999
 20
19523.933729000011
 30
0.0
 11
18443.948856499981
 21
19523.933729000011
 31
0.0
  0
LINE
  5
3EF6
  8
2-0
  6
CONTINUOUS
 62
     3
 10
20560.044124
 20
19523.933729000011
 30
0.0
 11
20560.044124
 21
19493.930165999998
 31
0.0
  0
LINE
  5
3EF7
  8
2-0
  6
CONTINUOUS
 62
     3
 10
20560.044124
 20
19493.930165999998
 30
0.0
 11
20566.048003000011
 21
19493.930165999998
 31
0.0
  0
LINE
  5
3EF8
  8
2-0
  6
CONTINUOUS
 62
     3
 10
20550.427621999981
 20
19493.930165999998
 30
0.0
 11
20550.427621999981
 21
19523.933729000011
 31
0.0
  0
LINE
  5
3EF9
  8
2-0
  6
CONTINUOUS
 62
     3
 10
20568.435302999998
 20
19493.930165999998
 30
0.0
 11
20550.427621999981
 21
19493.930165999998
 31
0.0
  0
LINE
  5
3EFA
  8
2-0
  6
CONTINUOUS
 62
     3
 10
20568.435302999998
 20
19518.939403
 30
0.0
 11
20568.435302999998
 21
19493.930165999998
 31
0.0
  0
LINE
  5
3EFB
  8
2-0
  6
CONTINUOUS
 62
     3
 10
20563.429100000001
 20
19518.939403
 30
0.0
 11
20568.435302999998
 21
19518.939403
 31
0.0
  0
LINE
  5
3EFC
  8
2-0
  6
CONTINUOUS
 62
     3
 10
20563.429100000001
 20
19511.93388700001
 30
0.0
 11
20563.429100000001
 21
19518.939403
 31
0.0
  0
LINE
  5
3EFD
  8
2-0
  6
CONTINUOUS
 62
     3
 10
20590.047686999991
 20
19521.041652
 30
0.0
 11
20590.047686999991
 21
19436.043104000011
 31
0.0
  0
LINE
  5
3EFE
  8
2-0
  6
CONTINUOUS
 62
     3
 10
20610.046762999998
 20
19521.041652
 30
0.0
 11
20590.047686999991
 21
19521.041652
 31
0.0
  0
LINE
  5
3EFF
  8
2-0
  6
CONTINUOUS
 62
     3
 10
20701.66086199999
 20
19511.93388700001
 30
0.0
 11
20701.66086199999
 21
19518.939403
 31
0.0
  0
LINE
  5
3F00
  8
2-0
  6
CONTINUOUS
 62
     3
 10
20701.66086199999
 20
19518.939403
 30
0.0
 11
20696.658619000002
 21
19518.939403
 31
0.0
  0
LINE
  5
3F01
  8
2-0
  6
CONTINUOUS
 62
     3
 10
20696.658619000002
 20
19518.939403
 30
0.0
 11
20696.658619000002
 21
19493.930165999998
 31
0.0
  0
LINE
  5
3F02
  8
2-0
  6
CONTINUOUS
 62
     3
 10
20696.658619000002
 20
19493.930165999998
 30
0.0
 11
20714.662339999992
 21
19493.930165999998
 31
0.0
  0
LINE
  5
3F03
  8
2-0
  6
CONTINUOUS
 62
     3
 10
20714.662339999992
 20
19493.930165999998
 30
0.0
 11
20714.662339999992
 21
19523.933729000011
 31
0.0
  0
LINE
  5
3F04
  8
2-0
  6
CONTINUOUS
 62
     3
 10
20675.046235000002
 20
19521.041652
 30
0.0
 11
20655.0432
 21
19521.041652
 31
0.0
  0
LINE
  5
3F05
  8
2-0
  6
CONTINUOUS
 62
     3
 10
20675.046235000002
 20
19436.043104000011
 30
0.0
 11
20675.046235000002
 21
19521.041652
 31
0.0
  0
LINE
  5
3F06
  8
2-0
  6
CONTINUOUS
 62
     3
 10
20705.045838999999
 20
19493.930165999998
 30
0.0
 11
20699.045917999982
 21
19493.930165999998
 31
0.0
  0
LINE
  5
3F07
  8
2-0
  6
CONTINUOUS
 62
     3
 10
20705.045838999999
 20
19523.933729000011
 30
0.0
 11
20705.045838999999
 21
19493.930165999998
 31
0.0
  0
LINE
  5
3F08
  8
2-0
  6
CONTINUOUS
 62
     3
 10
20590.047686999991
 20
19436.043104000011
 30
0.0
 11
20675.046235000002
 21
19436.043104000011
 31
0.0
  0
LINE
  5
3F09
  8
2-0
  6
CONTINUOUS
 62
     3
 10
20560.044124
 20
19523.933729000011
 30
0.0
 11
20705.045838999999
 21
19523.933729000011
 31
0.0
  0
LINE
  5
3F0A
  8
2-0
  6
CONTINUOUS
 62
     3
 10
20550.427621999981
 20
19523.933729000011
 30
0.0
 11
19903.142096999989
 21
19523.933729000011
 31
0.0
  0
LINE
  5
3F0B
  8
2-0
  6
CONTINUOUS
 62
     3
 10
19845.949845999989
 20
19523.933729000011
 30
0.0
 11
19202.138137499991
 21
19523.933729000011
 31
0.0
  0
LINE
  5
3F0C
  8
2-0
  6
CONTINUOUS
 62
     3
 10
17702.045311999991
 20
19414.933518000002
 30
0.0
 11
17702.045311999991
 21
19408.937556000012
 31
0.0
  0
LINE
  5
3F0D
  8
2-0
  6
CONTINUOUS
 62
     3
 10
17702.045311999991
 20
19408.937556000012
 30
0.0
 11
17672.047686999991
 21
19408.937556000012
 31
0.0
  0
LINE
  5
3F0E
  8
2-0
  6
CONTINUOUS
 62
     3
 10
17672.047686999991
 20
19408.937556000012
 30
0.0
 11
17672.047686999991
 21
19523.933729000011
 31
0.0
  0
LINE
  5
3F0F
  8
2-0
  6
CONTINUOUS
 62
     3
 10
17672.047686999991
 20
19438.937160000001
 30
0.0
 11
17753.045627999982
 21
19438.937160000001
 31
0.0
  0
LINE
  5
3F10
  8
2-0
  6
CONTINUOUS
 62
     3
 10
17702.045311999991
 20
19398.64009999999
 30
0.0
 11
17672.047686999991
 21
19398.64009999999
 31
0.0
  0
LINE
  5
3F11
  8
2-0
  6
CONTINUOUS
 62
     3
 10
17702.045311999991
 20
19416.641842000001
 30
0.0
 11
17702.045311999991
 21
19398.64009999999
 31
0.0
  0
LINE
  5
3F12
  8
2-0
  6
CONTINUOUS
 62
     3
 10
17677.051909999991
 20
19416.641842000001
 30
0.0
 11
17702.045311999991
 21
19416.641842000001
 31
0.0
  0
LINE
  5
3F13
  8
2-0
  6
CONTINUOUS
 62
     3
 10
17677.051909999991
 20
19411.63366000001
 30
0.0
 11
17677.051909999991
 21
19416.641842000001
 31
0.0
  0
LINE
  5
3F14
  8
2-0
  6
CONTINUOUS
 62
     3
 10
17684.049507999971
 20
19411.63366000001
 30
0.0
 11
17677.051909999991
 21
19411.63366000001
 31
0.0
  0
LINE
  5
3F15
  8
2-0
  6
CONTINUOUS
 62
     3
 10
17684.049507999971
 20
19058.336837499981
 30
0.0
 11
17677.051909999991
 21
19058.336837499981
 31
0.0
  0
LINE
  5
3F16
  8
2-0
  6
CONTINUOUS
 62
     3
 10
17677.051909999991
 20
19058.336837499981
 30
0.0
 11
17677.051909999991
 21
19063.33710149999
 31
0.0
  0
LINE
  5
3F17
  8
2-0
  6
CONTINUOUS
 62
     3
 10
17677.051909999991
 20
19063.33710149999
 30
0.0
 11
17702.045311999991
 21
19063.33710149999
 31
0.0
  0
LINE
  5
3F18
  8
2-0
  6
CONTINUOUS
 62
     3
 10
17702.045311999991
 20
19063.33710149999
 30
0.0
 11
17702.045311999991
 21
19045.341297499981
 31
0.0
  0
LINE
  5
3F19
  8
2-0
  6
CONTINUOUS
 62
     3
 10
17702.045311999991
 20
19045.341297499981
 30
0.0
 11
17672.047686999991
 21
19045.341297499981
 31
0.0
  0
LINE
  5
3F1A
  8
2-0
  6
CONTINUOUS
 62
     3
 10
17702.045311999991
 20
19061.43280449996
 30
0.0
 11
17702.045311999991
 21
19055.434863499991
 31
0.0
  0
LINE
  5
3F1B
  8
2-0
  6
CONTINUOUS
 62
     3
 10
17702.045311999991
 20
19055.434863499991
 30
0.0
 11
17672.047686999991
 21
19055.434863499991
 31
0.0
  0
LINE
  5
3F1C
  8
2-0
  6
CONTINUOUS
 62
     3
 10
17672.047686999991
 20
19055.434863499991
 30
0.0
 11
17672.047686999991
 21
19092.436024499992
 31
0.0
  0
LINE
  5
3F1D
  8
2-0
  6
CONTINUOUS
 62
     3
 10
17702.045311999991
 20
19092.436024499992
 30
0.0
 11
17672.047686999991
 21
19092.436024499992
 31
0.0
  0
LINE
  5
3F1E
  8
2-0
  6
CONTINUOUS
 62
     3
 10
17702.045311999991
 20
19086.43214449998
 30
0.0
 11
17702.045311999991
 21
19092.436024499992
 31
0.0
  0
LINE
  5
3F1F
  8
2-0
  6
CONTINUOUS
 62
     3
 10
17702.045311999991
 20
19102.531569499981
 30
0.0
 11
17672.047686999991
 21
19102.531569499981
 31
0.0
  0
LINE
  5
3F20
  8
2-0
  6
CONTINUOUS
 62
     3
 10
17702.045311999991
 20
19084.529827499991
 30
0.0
 11
17702.045311999991
 21
19102.531569499981
 31
0.0
  0
LINE
  5
3F21
  8
2-0
  6
CONTINUOUS
 62
     3
 10
17677.051909999991
 20
19084.529827499991
 30
0.0
 11
17702.045311999991
 21
19084.529827499991
 31
0.0
  0
LINE
  5
3F22
  8
2-0
  6
CONTINUOUS
 62
     3
 10
17677.051909999991
 20
19089.53009149995
 30
0.0
 11
17677.051909999991
 21
19084.529827499991
 31
0.0
  0
LINE
  5
3F23
  8
2-0
  6
CONTINUOUS
 62
     3
 10
17684.049507999971
 20
19089.53009149995
 30
0.0
 11
17677.051909999991
 21
19089.53009149995
 31
0.0
  0
LINE
  5
3F24
  8
2-0
  6
CONTINUOUS
 62
     3
 10
17684.049507999971
 20
18357.336837999981
 30
0.0
 11
17677.051909999991
 21
18357.336837999981
 31
0.0
  0
LINE
  5
3F25
  8
2-0
  6
CONTINUOUS
 62
     3
 10
17677.051909999991
 20
18357.336837999981
 30
0.0
 11
17677.051909999991
 21
18362.343039999982
 31
0.0
  0
LINE
  5
3F26
  8
2-0
  6
CONTINUOUS
 62
     3
 10
17677.051909999991
 20
18362.343039999982
 30
0.0
 11
17702.045311999991
 21
18362.343039999982
 31
0.0
  0
LINE
  5
3F27
  8
2-0
  6
CONTINUOUS
 62
     3
 10
17702.045311999991
 20
18362.343039999982
 30
0.0
 11
17702.045311999991
 21
18344.341297999981
 31
0.0
  0
LINE
  5
3F28
  8
2-0
  6
CONTINUOUS
 62
     3
 10
17702.045311999991
 20
18344.341297999981
 30
0.0
 11
17672.047686999991
 21
18344.341297999981
 31
0.0
  0
LINE
  5
3F29
  8
2-0
  6
CONTINUOUS
 62
     3
 10
17702.045311999991
 20
18360.432804999949
 30
0.0
 11
17702.045311999991
 21
18354.436842999989
 31
0.0
  0
LINE
  5
3F2A
  8
2-0
  6
CONTINUOUS
 62
     3
 10
17702.045311999991
 20
18354.436842999989
 30
0.0
 11
17672.047686999991
 21
18354.436842999989
 31
0.0
  0
LINE
  5
3F2B
  8
2-0
  6
CONTINUOUS
 62
     3
 10
17672.047686999991
 20
18354.436842999989
 30
0.0
 11
17672.047686999991
 21
18391.436024999992
 31
0.0
  0
LINE
  5
3F2C
  8
2-0
  6
CONTINUOUS
 62
     3
 10
17702.045311999991
 20
18391.436024999992
 30
0.0
 11
17672.047686999991
 21
18391.436024999992
 31
0.0
  0
LINE
  5
3F2D
  8
2-0
  6
CONTINUOUS
 62
     3
 10
17702.045311999991
 20
18385.440062999991
 30
0.0
 11
17702.045311999991
 21
18391.436024999992
 31
0.0
  0
LINE
  5
3F2E
  8
2-0
  6
CONTINUOUS
 62
     3
 10
17702.045311999991
 20
18401.531569999981
 30
0.0
 11
17672.047686999991
 21
18401.531569999981
 31
0.0
  0
LINE
  5
3F2F
  8
2-0
  6
CONTINUOUS
 62
     3
 10
17702.045311999991
 20
18383.529827999992
 30
0.0
 11
17702.045311999991
 21
18401.531569999981
 31
0.0
  0
LINE
  5
3F30
  8
2-0
  6
CONTINUOUS
 62
     3
 10
17677.051909999991
 20
18383.529827999992
 30
0.0
 11
17702.045311999991
 21
18383.529827999992
 31
0.0
  0
LINE
  5
3F31
  8
2-0
  6
CONTINUOUS
 62
     3
 10
17677.051909999991
 20
18388.536029999981
 30
0.0
 11
17677.051909999991
 21
18383.529827999992
 31
0.0
  0
LINE
  5
3F32
  8
2-0
  6
CONTINUOUS
 62
     3
 10
17684.049507999971
 20
18388.536029999981
 30
0.0
 11
17677.051909999991
 21
18388.536029999981
 31
0.0
  0
LINE
  5
3F33
  8
2-0
  6
CONTINUOUS
 62
     3
 10
17684.049507999971
 20
17687.52910199999
 30
0.0
 11
17677.051909999991
 21
17687.52910199999
 31
0.0
  0
LINE
  5
3F34
  8
2-0
  6
CONTINUOUS
 62
     3
 10
17677.051909999991
 20
17687.52910199999
 30
0.0
 11
17677.051909999991
 21
17682.540714999981
 31
0.0
  0
LINE
  5
3F35
  8
2-0
  6
CONTINUOUS
 62
     3
 10
17677.051909999991
 20
17682.540714999981
 30
0.0
 11
17702.045311999991
 21
17682.540714999981
 31
0.0
  0
LINE
  5
3F36
  8
2-0
  6
CONTINUOUS
 62
     3
 10
17702.045311999991
 20
17682.540714999981
 30
0.0
 11
17702.045311999991
 21
17700.53651799999
 31
0.0
  0
LINE
  5
3F37
  8
2-0
  6
CONTINUOUS
 62
     3
 10
17702.045311999991
 20
17700.53651799999
 30
0.0
 11
17672.047686999991
 21
17700.53651799999
 31
0.0
  0
LINE
  5
3F38
  8
2-0
  6
CONTINUOUS
 62
     3
 10
17702.045311999991
 20
17684.43907299999
 30
0.0
 11
17702.045311999991
 21
17690.43503499998
 31
0.0
  0
LINE
  5
3F39
  8
2-0
  6
CONTINUOUS
 62
     3
 10
17702.045311999991
 20
17690.43503499998
 30
0.0
 11
17672.047686999991
 21
17690.43503499998
 31
0.0
  0
LINE
  5
3F3A
  8
2-0
  6
CONTINUOUS
 62
     3
 10
17672.047686999991
 20
17690.43503499998
 30
0.0
 11
17672.047686999991
 21
17653.435852999992
 31
0.0
  0
LINE
  5
3F3B
  8
2-0
  6
CONTINUOUS
 62
     3
 10
17702.045311999991
 20
17653.435852999992
 30
0.0
 11
17672.047686999991
 21
17653.435852999992
 31
0.0
  0
LINE
  5
3F3C
  8
2-0
  6
CONTINUOUS
 62
     3
 10
17702.045311999991
 20
17659.43775399998
 30
0.0
 11
17702.045311999991
 21
17653.435852999992
 31
0.0
  0
LINE
  5
3F3D
  8
2-0
  6
CONTINUOUS
 62
     3
 10
17702.045311999991
 20
17643.34624699999
 30
0.0
 11
17672.047686999991
 21
17643.34624699999
 31
0.0
  0
LINE
  5
3F3E
  8
2-0
  6
CONTINUOUS
 62
     3
 10
17702.045311999991
 20
17661.342049999981
 30
0.0
 11
17702.045311999991
 21
17643.34624699999
 31
0.0
  0
LINE
  5
3F3F
  8
2-0
  6
CONTINUOUS
 62
     3
 10
17677.051909999991
 20
17661.342049999981
 30
0.0
 11
17702.045311999991
 21
17661.342049999981
 31
0.0
  0
LINE
  5
3F40
  8
2-0
  6
CONTINUOUS
 62
     3
 10
17677.051909999991
 20
17656.34178699999
 30
0.0
 11
17677.051909999991
 21
17661.342049999981
 31
0.0
  0
LINE
  5
3F41
  8
2-0
  6
CONTINUOUS
 62
     3
 10
17684.049507999971
 20
17656.34178699999
 30
0.0
 11
17677.051909999991
 21
17656.34178699999
 31
0.0
  0
LINE
  5
3F42
  8
2-0
  6
CONTINUOUS
 62
     3
 10
17674.933824999978
 20
16936.432672999981
 30
0.0
 11
17674.933824999978
 21
16956.433727999982
 31
0.0
  0
LINE
  5
3F43
  8
2-0
  6
CONTINUOUS
 62
     3
 10
17674.933824999978
 20
16956.433727999982
 30
0.0
 11
17759.93435299999
 21
16956.433727999982
 31
0.0
  0
LINE
  5
3F44
  8
2-0
  6
CONTINUOUS
 62
     3
 10
17684.049507999971
 20
16983.040437999982
 30
0.0
 11
17677.051909999991
 21
16983.040437999982
 31
0.0
  0
LINE
  5
3F45
  8
2-0
  6
CONTINUOUS
 62
     3
 10
17677.051909999991
 20
16983.040437999982
 30
0.0
 11
17677.051909999991
 21
16978.046112
 31
0.0
  0
LINE
  5
3F46
  8
2-0
  6
CONTINUOUS
 62
     3
 10
17677.051909999991
 20
16978.046112
 30
0.0
 11
17702.045311999991
 21
16978.046112
 31
0.0
  0
LINE
  5
3F47
  8
2-0
  6
CONTINUOUS
 62
     3
 10
17702.045311999991
 20
16978.046112
 30
0.0
 11
17702.045311999991
 21
16996.041915999991
 31
0.0
  0
LINE
  5
3F48
  8
2-0
  6
CONTINUOUS
 62
     3
 10
17702.045311999991
 20
16996.041915999991
 30
0.0
 11
17672.047686999991
 21
16996.041915999991
 31
0.0
  0
LINE
  5
3F49
  8
2-0
  6
CONTINUOUS
 62
     3
 10
17702.045311999991
 20
16986.433331999971
 30
0.0
 11
17702.045311999991
 21
16980.43143199999
 31
0.0
  0
LINE
  5
3F4A
  8
2-0
  6
CONTINUOUS
 62
     3
 10
17672.047686999991
 20
16986.433331999971
 30
0.0
 11
17702.045311999991
 21
16986.433331999971
 31
0.0
  0
LINE
  5
3F4B
  8
2-0
  6
CONTINUOUS
 62
     3
 10
17672.047686999991
 20
16996.041915999991
 30
0.0
 11
17672.047686999991
 21
17643.34624699999
 31
0.0
  0
LINE
  5
3F4C
  8
2-0
  6
CONTINUOUS
 62
     3
 10
17672.047686999991
 20
17700.53651799999
 30
0.0
 11
17672.047686999991
 21
18344.341297999981
 31
0.0
  0
LINE
  5
3F4D
  8
2-0
  6
CONTINUOUS
 62
     3
 10
17672.047686999991
 20
16841.431616999991
 30
0.0
 11
17702.045311999991
 21
16841.431616999991
 31
0.0
  0
LINE
  5
3F4E
  8
2-0
  6
CONTINUOUS
 62
     3
 10
17702.045311999991
 20
16841.431616999991
 30
0.0
 11
17702.045311999991
 21
16847.433517000001
 31
0.0
  0
LINE
  5
3F4F
  8
2-0
  6
CONTINUOUS
 62
     3
 10
17759.93435299999
 20
16871.43715999999
 30
0.0
 11
17674.933824999978
 21
16871.43715999999
 31
0.0
  0
LINE
  5
3F50
  8
2-0
  6
CONTINUOUS
 62
     3
 10
17674.933824999978
 20
16871.43715999999
 30
0.0
 11
17674.933824999978
 21
16891.432276999982
 31
0.0
  0
LINE
  5
3F51
  8
2-0
  6
CONTINUOUS
 62
     3
 10
17702.045311999991
 20
16831.82303399999
 30
0.0
 11
17672.047686999991
 21
16831.82303399999
 31
0.0
  0
LINE
  5
3F52
  8
2-0
  6
CONTINUOUS
 62
     3
 10
17702.045311999991
 20
16849.818836999981
 30
0.0
 11
17702.045311999991
 21
16831.82303399999
 31
0.0
  0
LINE
  5
3F53
  8
2-0
  6
CONTINUOUS
 62
     3
 10
17677.051909999991
 20
16849.818836999981
 30
0.0
 11
17702.045311999991
 21
16849.818836999981
 31
0.0
  0
LINE
  5
3F54
  8
2-0
  6
CONTINUOUS
 62
     3
 10
17677.051909999991
 20
16844.81857299999
 30
0.0
 11
17677.051909999991
 21
16849.818836999981
 31
0.0
  0
LINE
  5
3F55
  8
2-0
  6
CONTINUOUS
 62
     3
 10
17684.049507999971
 20
16844.81857299999
 30
0.0
 11
17677.051909999991
 21
16844.81857299999
 31
0.0
  0
LINE
  5
3F56
  8
2-0
  6
CONTINUOUS
 62
     3
 10
17684.049507999971
 20
16140.336342499961
 30
0.0
 11
17677.051909999991
 21
16140.336342499961
 31
0.0
  0
LINE
  5
3F57
  8
2-0
  6
CONTINUOUS
 62
     3
 10
17677.051909999991
 20
16140.336342499961
 30
0.0
 11
17677.051909999991
 21
16145.336606499979
 31
0.0
  0
LINE
  5
3F58
  8
2-0
  6
CONTINUOUS
 62
     3
 10
17677.051909999991
 20
16145.336606499979
 30
0.0
 11
17702.045311999991
 21
16145.336606499979
 31
0.0
  0
LINE
  5
3F59
  8
2-0
  6
CONTINUOUS
 62
     3
 10
17702.045311999991
 20
16145.336606499979
 30
0.0
 11
17702.045311999991
 21
16127.334864499981
 31
0.0
  0
LINE
  5
3F5A
  8
2-0
  6
CONTINUOUS
 62
     3
 10
17702.045311999991
 20
16127.334864499981
 30
0.0
 11
17672.047686999991
 21
16127.334864499981
 31
0.0
  0
LINE
  5
3F5B
  8
2-0
  6
CONTINUOUS
 62
     3
 10
17702.045311999991
 20
16143.432309499991
 30
0.0
 11
17702.045311999991
 21
16137.435358499981
 31
0.0
  0
LINE
  5
3F5C
  8
2-0
  6
CONTINUOUS
 62
     3
 10
17702.045311999991
 20
16137.435358499981
 30
0.0
 11
17672.047686999991
 21
16137.435358499981
 31
0.0
  0
LINE
  5
3F5D
  8
2-0
  6
CONTINUOUS
 62
     3
 10
17672.047686999991
 20
16137.435358499981
 30
0.0
 11
17672.047686999991
 21
16174.43552949999
 31
0.0
  0
LINE
  5
3F5E
  8
2-0
  6
CONTINUOUS
 62
     3
 10
17702.045311999991
 20
16174.43552949999
 30
0.0
 11
17672.047686999991
 21
16174.43552949999
 31
0.0
  0
LINE
  5
3F5F
  8
2-0
  6
CONTINUOUS
 62
     3
 10
17702.045311999991
 20
16168.432639499981
 30
0.0
 11
17702.045311999991
 21
16174.43552949999
 31
0.0
  0
LINE
  5
3F60
  8
2-0
  6
CONTINUOUS
 62
     3
 10
17702.045311999991
 20
16184.531074499981
 30
0.0
 11
17672.047686999991
 21
16184.531074499981
 31
0.0
  0
LINE
  5
3F61
  8
2-0
  6
CONTINUOUS
 62
     3
 10
17702.045311999991
 20
16166.523393499991
 30
0.0
 11
17702.045311999991
 21
16184.531074499981
 31
0.0
  0
LINE
  5
3F62
  8
2-0
  6
CONTINUOUS
 62
     3
 10
17677.051909999991
 20
16166.523393499991
 30
0.0
 11
17702.045311999991
 21
16166.523393499991
 31
0.0
  0
LINE
  5
3F63
  8
2-0
  6
CONTINUOUS
 62
     3
 10
17677.051909999991
 20
16171.52959649998
 30
0.0
 11
17677.051909999991
 21
16166.523393499991
 31
0.0
  0
LINE
  5
3F64
  8
2-0
  6
CONTINUOUS
 62
     3
 10
17684.049507999971
 20
16171.52959649998
 30
0.0
 11
17677.051909999991
 21
16171.52959649998
 31
0.0
  0
LINE
  5
3F65
  8
2-0
  6
CONTINUOUS
 62
     3
 10
17684.049507999971
 20
15470.76961299998
 30
0.0
 11
17677.051909999991
 21
15470.76961299998
 31
0.0
  0
LINE
  5
3F66
  8
2-0
  6
CONTINUOUS
 62
     3
 10
17677.051909999991
 20
15470.76961299998
 30
0.0
 11
17677.051909999991
 21
15465.775288000001
 31
0.0
  0
LINE
  5
3F67
  8
2-0
  6
CONTINUOUS
 62
     3
 10
17677.051909999991
 20
15465.775288000001
 30
0.0
 11
17702.045311999991
 21
15465.775288000001
 31
0.0
  0
LINE
  5
3F68
  8
2-0
  6
CONTINUOUS
 62
     3
 10
17702.045311999991
 20
15465.775288000001
 30
0.0
 11
17702.045311999991
 21
15483.771091000001
 31
0.0
  0
LINE
  5
3F69
  8
2-0
  6
CONTINUOUS
 62
     3
 10
17702.045311999991
 20
15483.771091000001
 30
0.0
 11
17672.047686999991
 21
15483.771091000001
 31
0.0
  0
LINE
  5
3F6A
  8
2-0
  6
CONTINUOUS
 62
     3
 10
17702.045311999991
 20
15467.67364599999
 30
0.0
 11
17702.045311999991
 21
15473.675546
 31
0.0
  0
LINE
  5
3F6B
  8
2-0
  6
CONTINUOUS
 62
     3
 10
17702.045311999991
 20
15473.675546
 30
0.0
 11
17672.047686999991
 21
15473.675546
 31
0.0
  0
LINE
  5
3F6C
  8
2-0
  6
CONTINUOUS
 62
     3
 10
17672.047686999991
 20
15436.67636499999
 30
0.0
 11
17672.047686999991
 21
15473.675546
 31
0.0
  0
LINE
  5
3F6D
  8
2-0
  6
CONTINUOUS
 62
     3
 10
17702.045311999991
 20
15436.67636499999
 30
0.0
 11
17672.047686999991
 21
15436.67636499999
 31
0.0
  0
LINE
  5
3F6E
  8
2-0
  6
CONTINUOUS
 62
     3
 10
17702.045311999991
 20
15442.67331599998
 30
0.0
 11
17702.045311999991
 21
15436.67636499999
 31
0.0
  0
LINE
  5
3F6F
  8
2-0
  6
CONTINUOUS
 62
     3
 10
17702.045311999991
 20
15426.57488099998
 30
0.0
 11
17672.047686999991
 21
15426.57488099998
 31
0.0
  0
LINE
  5
3F70
  8
2-0
  6
CONTINUOUS
 62
     3
 10
17702.045311999991
 20
15444.582561999991
 30
0.0
 11
17702.045311999991
 21
15426.57488099998
 31
0.0
  0
LINE
  5
3F71
  8
2-0
  6
CONTINUOUS
 62
     3
 10
17677.051909999991
 20
15444.582561999991
 30
0.0
 11
17702.045311999991
 21
15444.582561999991
 31
0.0
  0
LINE
  5
3F72
  8
2-0
  6
CONTINUOUS
 62
     3
 10
17677.051909999991
 20
15439.58229800001
 30
0.0
 11
17677.051909999991
 21
15444.582561999991
 31
0.0
  0
LINE
  5
3F73
  8
2-0
  6
CONTINUOUS
 62
     3
 10
17684.049507999971
 20
15439.58229800001
 30
0.0
 11
17677.051909999991
 21
15439.58229800001
 31
0.0
  0
LINE
  5
3F74
  8
2-0
  6
CONTINUOUS
 62
     3
 10
17672.047686999991
 20
16831.82303399999
 30
0.0
 11
17672.047686999991
 21
16184.531074499981
 31
0.0
  0
LINE
  5
3F75
  8
2-0
  6
CONTINUOUS
 62
     3
 10
17672.047686999991
 20
16986.433331999971
 30
0.0
 11
17672.047686999991
 21
16841.431616999991
 31
0.0
  0
LINE
  5
3F76
  8
2-0
  6
CONTINUOUS
 62
     3
 10
17759.93435299999
 20
16956.433727999982
 30
0.0
 11
17759.93435299999
 21
16871.43715999999
 31
0.0
  0
LINE
  5
3F77
  8
2-0
  6
CONTINUOUS
 62
     3
 10
17684.049507999971
 20
14738.34129099999
 30
0.0
 11
17677.051909999991
 21
14738.34129099999
 31
0.0
  0
LINE
  5
3F78
  8
2-0
  6
CONTINUOUS
 62
     3
 10
17677.051909999991
 20
14738.34129099999
 30
0.0
 11
17677.051909999991
 21
14743.33561699999
 31
0.0
  0
LINE
  5
3F79
  8
2-0
  6
CONTINUOUS
 62
     3
 10
17677.051909999991
 20
14743.33561699999
 30
0.0
 11
17702.045311999991
 21
14743.33561699999
 31
0.0
  0
LINE
  5
3F7A
  8
2-0
  6
CONTINUOUS
 62
     3
 10
17702.045311999991
 20
14743.33561699999
 30
0.0
 11
17702.045311999991
 21
14725.33981299999
 31
0.0
  0
LINE
  5
3F7B
  8
2-0
  6
CONTINUOUS
 62
     3
 10
17702.045311999991
 20
14725.33981299999
 30
0.0
 11
17672.047686999991
 21
14725.33981299999
 31
0.0
  0
LINE
  5
3F7C
  8
2-0
  6
CONTINUOUS
 62
     3
 10
17702.045311999991
 20
14741.43824799998
 30
0.0
 11
17702.045311999991
 21
14735.43535799999
 31
0.0
  0
LINE
  5
3F7D
  8
2-0
  6
CONTINUOUS
 62
     3
 10
17702.045311999991
 20
14735.43535799999
 30
0.0
 11
17672.047686999991
 21
14735.43535799999
 31
0.0
  0
LINE
  5
3F7E
  8
2-0
  6
CONTINUOUS
 62
     3
 10
17672.047686999991
 20
14735.43535799999
 30
0.0
 11
17672.047686999991
 21
14772.435529999981
 31
0.0
  0
LINE
  5
3F7F
  8
2-0
  6
CONTINUOUS
 62
     3
 10
17702.045311999991
 20
14772.435529999981
 30
0.0
 11
17672.047686999991
 21
14772.435529999981
 31
0.0
  0
LINE
  5
3F80
  8
2-0
  6
CONTINUOUS
 62
     3
 10
17702.045311999991
 20
14766.438577999979
 30
0.0
 11
17702.045311999991
 21
14772.435529999981
 31
0.0
  0
LINE
  5
3F81
  8
2-0
  6
CONTINUOUS
 62
     3
 10
17702.045311999991
 20
14782.536022999981
 30
0.0
 11
17672.047686999991
 21
14782.536022999981
 31
0.0
  0
LINE
  5
3F82
  8
2-0
  6
CONTINUOUS
 62
     3
 10
17702.045311999991
 20
14764.52933199998
 30
0.0
 11
17702.045311999991
 21
14782.536022999981
 31
0.0
  0
LINE
  5
3F83
  8
2-0
  6
CONTINUOUS
 62
     3
 10
17677.051909999991
 20
14764.52933199998
 30
0.0
 11
17702.045311999991
 21
14764.52933199998
 31
0.0
  0
LINE
  5
3F84
  8
2-0
  6
CONTINUOUS
 62
     3
 10
17677.051909999991
 20
14769.53454499998
 30
0.0
 11
17677.051909999991
 21
14764.52933199998
 31
0.0
  0
LINE
  5
3F85
  8
2-0
  6
CONTINUOUS
 62
     3
 10
17684.049507999971
 20
14769.53454499998
 30
0.0
 11
17677.051909999991
 21
14769.53454499998
 31
0.0
  0
LINE
  5
3F86
  8
2-0
  6
CONTINUOUS
 62
     3
 10
17702.045311999991
 20
14062.43737099998
 30
0.0
 11
17702.045311999991
 21
14068.44223999998
 31
0.0
  0
LINE
  5
3F87
  8
2-0
  6
CONTINUOUS
 62
     3
 10
17702.045311999991
 20
14068.44223999998
 30
0.0
 11
17672.047686999991
 21
14068.44223999998
 31
0.0
  0
LINE
  5
3F88
  8
2-0
  6
CONTINUOUS
 62
     3
 10
17672.047686999991
 20
14068.44223999998
 30
0.0
 11
17672.047686999991
 21
13953.438148999991
 31
0.0
  0
LINE
  5
3F89
  8
2-0
  6
CONTINUOUS
 62
     3
 10
17672.047686999991
 20
13953.438148999991
 30
0.0
 11
17757.04623499998
 21
13953.438148999991
 31
0.0
  0
LINE
  5
3F8A
  8
2-0
  6
CONTINUOUS
 62
     3
 10
17757.04623499998
 20
13953.438148999991
 30
0.0
 11
17757.04623499998
 21
14038.43372799998
 31
0.0
  0
LINE
  5
3F8B
  8
2-0
  6
CONTINUOUS
 62
     3
 10
17757.04623499998
 20
14038.43372799998
 30
0.0
 11
17725.049296999969
 21
14038.43372799998
 31
0.0
  0
LINE
  5
3F8C
  8
2-0
  6
CONTINUOUS
 62
     3
 10
17684.049507999971
 20
14065.471972999991
 30
0.0
 11
17677.051909999991
 21
14065.471972999991
 31
0.0
  0
LINE
  5
3F8D
  8
2-0
  6
CONTINUOUS
 62
     3
 10
17677.051909999991
 20
14065.471972999991
 30
0.0
 11
17677.051909999991
 21
14060.47467799995
 31
0.0
  0
LINE
  5
3F8E
  8
2-0
  6
CONTINUOUS
 62
     3
 10
17677.051909999991
 20
14060.47467799995
 30
0.0
 11
17702.045311999991
 21
14060.47467799995
 31
0.0
  0
LINE
  5
3F8F
  8
2-0
  6
CONTINUOUS
 62
     3
 10
17702.045311999991
 20
14060.47467799995
 30
0.0
 11
17702.045311999991
 21
14078.473450999991
 31
0.0
  0
LINE
  5
3F90
  8
2-0
  6
CONTINUOUS
 62
     3
 10
17702.045311999991
 20
14078.473450999991
 30
0.0
 11
17672.047686999991
 21
14078.473450999991
 31
0.0
  0
LINE
  5
3F91
  8
2-0
  6
CONTINUOUS
 62
     3
 10
17672.047686999991
 20
14782.536022999981
 30
0.0
 11
17672.047686999991
 21
15426.57488099998
 31
0.0
  0
LINE
  5
3F92
  8
2-0
  6
CONTINUOUS
 62
     3
 10
17672.047686999991
 20
18401.531569999981
 30
0.0
 11
17672.047686999991
 21
19045.341297499981
 31
0.0
  0
LINE
  5
3F93
  8
2-0
  6
CONTINUOUS
 62
     3
 10
17672.047686999991
 20
16127.334864499981
 30
0.0
 11
17672.047686999991
 21
15483.771091000001
 31
0.0
  0
LINE
  5
3F94
  8
2-0
  6
CONTINUOUS
 62
     3
 10
26093.047554999961
 20
19408.937556000012
 30
0.0
 11
26093.047554999961
 21
19523.933729000011
 31
0.0
  0
LINE
  5
3F95
  8
2-0
  6
CONTINUOUS
 62
     3
 10
22112.509284
 20
17177.646487000002
 30
0.0
 11
21954.628820999991
 21
17296.730366000011
 31
0.0
  0
LINE
  5
3F96
  8
2-0
  6
CONTINUOUS
 62
     3
 10
22500.471172000001
 20
17260.77834999999
 30
0.0
 11
22254.628820999991
 21
17446.213712000012
 31
0.0
  0
LINE
  5
3F97
  8
2-0
  6
CONTINUOUS
 62
     3
 10
22254.628820999991
 20
16376.333407
 30
0.0
 11
21894.520739
 21
16647.960966999992
 31
0.0
  0
LINE
  5
3F98
  8
2-0
  6
CONTINUOUS
 62
     3
 10
21894.520739
 20
16647.960966999992
 30
0.0
 11
22500.471172000001
 21
17260.77834999999
 31
0.0
  0
LINE
  5
3F99
  8
2-0
  6
CONTINUOUS
 62
     3
 10
21954.628820999991
 20
16226.851050999991
 30
0.0
 11
21506.55687199999
 21
16564.83108399999
 31
0.0
  0
LINE
  5
3F9A
  8
2-0
  6
CONTINUOUS
 62
     3
 10
22112.509284
 20
17177.646487000002
 30
0.0
 11
21506.55687199999
 21
16564.83108399999
 31
0.0
  0
LINE
  5
3F9B
  8
2-0
  6
CONTINUOUS
 62
     3
 10
22254.628820999991
 20
19630.655513999991
 30
0.0
 11
22254.628820999991
 21
19825.14123500001
 31
0.0
  0
LINE
  5
3F9C
  8
2-0
  6
CENTER2
 62
     6
 10
16385.089414999991
 20
19481.435443999981
 30
0.0
 11
26943.048874999949
 21
19481.435443999981
 31
0.0
  0
LINE
  5
3F9D
  8
2-0
  6
CENTER2
 62
     6
 10
16385.089414999991
 20
16913.935443999992
 30
0.0
 11
26943.048874999949
 21
16913.935443999992
 31
0.0
  0
LINE
  5
3F9E
  8
2-0
  6
CENTER2
 62
     6
 10
16385.089414999991
 20
13995.935443999981
 30
0.0
 11
26943.048874999949
 21
13995.935443999981
 31
0.0
  0
LINE
  5
3F9F
  8
2-0
  6
CONTINUOUS
 62
     3
 10
21954.628820999991
 20
19438.937160000001
 30
0.0
 11
17672.047686999991
 21
19438.937160000001
 31
0.0
  0
LINE
  5
3FA0
  8
2-0
  6
CONTINUOUS
 62
     3
 10
22254.628820999991
 20
19438.937160000001
 30
0.0
 11
26012.045654999962
 21
19438.937160000001
 31
0.0
  0
LINE
  5
3FA1
  8
2-0
  6
CONTINUOUS
 62
     3
 10
17672.047686999991
 20
14078.473450999991
 30
0.0
 11
17672.047686999991
 21
14725.33981299999
 31
0.0
  0
LINE
  5
3FA2
  8
2-0
  6
CENTER2
 62
     6
 10
17714.543991999992
 20
20723.933729000011
 30
0.0
 11
17714.543991999992
 21
13370.17200999998
 31
0.0
  0
LINE
  5
3FA3
  8
2-0
  6
CENTER2
 62
     6
 10
26050.54927099996
 20
20723.933729000011
 30
0.0
 11
26050.54927099996
 21
13370.17200999998
 31
0.0
  0
LINE
  5
3FA4
  8
2-0
  6
CONTINUOUS
 62
     3
 10
26093.047554999961
 20
19398.64009999999
 30
0.0
 11
26093.047554999961
 21
19102.531569499981
 31
0.0
  0
LINE
  5
3FA5
  8
2-0
  6
CONTINUOUS
 62
     3
 10
21954.628820999991
 20
17296.730366000011
 30
0.0
 11
21954.628820999991
 21
19825.14123500001
 31
0.0
  0
LINE
  5
3FA6
  8
2-0
  6
CONTINUOUS
 62
     3
 10
22254.628820999991
 20
17446.213712000012
 30
0.0
 11
22254.628820999991
 21
19630.655513999991
 31
0.0
  0
LINE
  5
3FA7
  8
2-0
  6
CONTINUOUS
 62
     3
 10
17672.047686999991
 20
19398.64009999999
 30
0.0
 11
17672.047686999991
 21
19102.531569499981
 31
0.0
  0
LINE
  5
3FA8
  8
2-0
  6
CONTINUOUS
 62
     3
 10
21954.628820999991
 20
16226.851050999991
 30
0.0
 11
21954.628820999991
 21
13804.53084299998
 31
0.0
  0
LINE
  5
3FA9
  8
2-0
  6
CONTINUOUS
 62
     3
 10
22254.628820999991
 20
16376.333407
 30
0.0
 11
22254.628820999991
 21
13804.53084299998
 31
0.0
  0
LINE
  5
3FAA
  8
2-0
  6
CENTER2
 62
     6
 10
23132.54927099996
 20
20723.933729000011
 30
0.0
 11
23132.54927099996
 21
13804.53084299998
 31
0.0
  0
LINE
  5
3FAB
  8
2-0
  6
CENTER2
 62
     6
 10
20632.543991999992
 20
20723.933729000011
 30
0.0
 11
20632.543991999992
 21
13804.53084299998
 31
0.0
  0
LINE
  5
3FAC
  8
2-0
  6
CONTINUOUS
 62
     3
 10
17753.045627999982
 20
14038.43372799998
 30
0.0
 11
17753.045627999982
 21
19523.933729000011
 31
0.0
  0
LINE
  5
3FAD
  8
2-0
  6
CONTINUOUS
 62
     3
 10
26012.045654999962
 20
14038.43372799998
 30
0.0
 11
26012.045654999962
 21
19523.933729000011
 31
0.0
  0
CIRCLE
  5
3FAE
  8
2-0
  6
CONTINUOUS
 62
     4
 10
16185.09172499998
 20
19481.435443999981
 30
0.0
 40
200.00001
  0
CIRCLE
  5
3FAF
  8
2-0
  6
CONTINUOUS
 62
     4
 10
16185.09172499998
 20
16913.935443999992
 30
0.0
 40
200.00001
  0
CIRCLE
  5
3FB0
  8
2-0
  6
CONTINUOUS
 62
     4
 10
16185.09172499998
 20
13995.935443999981
 30
0.0
 40
200.00001
  0
CIRCLE
  5
3FB1
  8
2-0
  6
CONTINUOUS
 62
     4
 10
20632.543991999992
 20
20923.938348
 30
0.0
 40
200.00001
  0
CIRCLE
  5
3FB2
  8
2-0
  6
CONTINUOUS
 62
     4
 10
17714.543991999992
 20
20923.938348
 30
0.0
 40
200.00001
  0
CIRCLE
  5
3FB3
  8
2-0
  6
CONTINUOUS
 62
     4
 10
23132.54927099996
 20
20923.938348
 30
0.0
 40
200.00001
  0
CIRCLE
  5
3FB4
  8
2-0
  6
CONTINUOUS
 62
     4
 10
26050.54927099996
 20
20923.938348
 30
0.0
 40
200.00001
  0
TEXT
  5
3FB5
  8
2-0
  6
CONTINUOUS
 62
     7
 10
24447.394577999959
 20
13435.93656599998
 30
0.0
 40
160.0
  1
前柱（右）
 50
0.000213
 72
     4
 11
24863.39428059298
 21
13515.938112500769
 31
0.0
  0
TEXT
  5
3FB6
  8
2-0
  6
CONTINUOUS
 62
     7
 10
24651.989700999959
 20
16364.428582
 30
0.0
 40
160.0
  1
壁パネル
 50
359.99982299999999
 72
     4
 11
25014.65661480352
 21
16444.427461637872
 31
0.0
  0
TEXT
  5
3FB7
  8
2-0
  6
CONTINUOUS
 62
     7
 10
24371.98679699994
 20
17201.616478
 30
0.0
 40
160.0
  1
中柱（左右）
 50
0.000354
 72
     4
 11
24889.319636046159
 21
17281.619674324651
 31
0.0
  0
TEXT
  5
3FB8
  8
2-0
  6
CONTINUOUS
 62
     7
 10
25051.989040999961
 20
14408.97783199997
 30
0.0
 40
160.0
  1
下枠
 50
0.001063
 72
     4
 11
25222.654223409259
 21
14488.980998339261
 31
0.0
  0
TEXT
  5
3FB9
  8
2-0
  6
CONTINUOUS
 62
     7
 10
24546.954464999959
 20
18804.885216499981
 30
0.0
 40
160.0
  1
間柱（側）
 72
     4
 11
24968.287798333291
 21
18884.885216499981
 31
0.0
  0
TEXT
  5
3FBA
  8
2-0
  6
CONTINUOUS
 62
     7
 10
26865.544783999969
 20
20333.932937000001
 30
0.0
 40
160.0
  1
後柱（左右）
 50
0.000354
 72
     4
 11
27377.544289712961
 21
20413.936100372841
 31
0.0
  0
TEXT
  5
3FBB
  8
2-0
  6
CONTINUOUS
 62
     7
 10
23531.638032999959
 20
14573.77374399996
 30
0.0
 40
160.0
  1
前柱（中）
 72
     4
 11
23947.638032999959
 21
14653.77374399996
 31
0.0
  0
TEXT
  5
3FBC
  8
2-0
  6
CONTINUOUS
 62
     7
 10
19468.412867999981
 20
18886.815775999999
 30
0.0
 40
160.0
  1
間柱（後）
 72
     4
 11
19889.746201333321
 21
18966.815775999999
 31
0.0
  0
TEXT
  5
3FBD
  8
2-0
  6
CONTINUOUS
 62
     7
 10
23402.842635999968
 20
18955.560496999991
 30
0.0
 40
160.0
  1
後柱（中）
 72
     4
 11
23818.842635999968
 21
19035.560496999991
 31
0.0
  0
TEXT
  5
3FBE
  8
2-0
  6
CONTINUOUS
 62
     7
 10
16137.09235799996
 20
19386.955001999992
 30
0.0
 40
160.0
  1
C
 72
     4
 11
16190.425691333299
 21
19466.955001999992
 31
0.0
  0
TEXT
  5
3FBF
  8
2-0
  6
CONTINUOUS
 62
     7
 10
16137.31307399998
 20
16843.541362
 30
0.0
 40
160.0
  1
B
 72
     4
 11
16190.646407333321
 21
16923.541362
 31
0.0
  0
TEXT
  5
3FC0
  8
2-0
  6
CONTINUOUS
 62
     7
 10
16137.35563399999
 20
13907.32823299998
 30
0.0
 40
160.0
  1
A
 72
     4
 11
16190.68896733333
 21
13987.32823299998
 31
0.0
  0
TEXT
  5
3FC1
  8
2-0
  6
CONTINUOUS
 62
     7
 10
20580.912208999991
 20
20828.412719
 30
0.0
 40
160.0
  1
2
 72
     4
 11
20634.245542333319
 21
20908.412719
 31
0.0
  0
TEXT
  5
3FC2
  8
2-0
  6
CONTINUOUS
 62
     7
 10
17670.33738299998
 20
20835.170795999999
 30
0.0
 40
160.0
  1
1
 72
     4
 11
17697.004049666652
 21
20915.170795999999
 31
0.0
  0
TEXT
  5
3FC3
  8
2-0
  6
CONTINUOUS
 62
     7
 10
25999.143152999972
 20
20843.550098
 30
0.0
 40
160.0
  1
n
 72
     4
 11
26052.4764863333
 21
20896.883431333328
 31
0.0
  0
TEXT
  5
3FC4
  8
2-0
  6
CONTINUOUS
 62
     7
 10
22972.594271999969
 20
20856.046799
 30
0.0
 40
140.0
  1
n-1
 72
     4
 11
23135.927605333301
 21
20926.046799
 31
0.0
  0
TEXT
  5
3FC5
  8
2-0
  6
CONTINUOUS
 62
     7
 10
21060.80286
 20
11889.06122300001
 30
0.0
 40
160.0
  1
平 面 図
 50
0.000266
 72
     4
 11
21418.135846683821
 21
11963.729548612961
 31
0.0
  0
TEXT
  5
3FC6
  8
2-0
  6
CONTINUOUS
 62
     7
 10
22769.628031821441
 20
11910.924917612951
 30
0.0
 40
160.0
  1
1
 72
     4
 11
22796.294698488098
 21
11990.924917612951
 31
0.0
  0
TEXT
  5
3FC7
  8
2-0
  6
CONTINUOUS
 62
     7
 10
23012.716749072129
 20
11830.92638561294
 30
0.0
 40
160.0
  1
80
 72
     4
 11
23132.716749072129
 21
11910.92638561294
 31
0.0
  0
TEXT
  5
3FC8
  8
2-0
  6
CONTINUOUS
 62
     7
 10
22270.629997821441
 20
11883.729548612961
 30
0.0
 40
160.0
  1
(S=  /   )
 72
     4
 11
22830.629997821441
 21
11963.729548612961
 31
0.0
  0
LINE
  5
3FC9
  8
2-0
  6
CONTINUOUS
 62
     3
 10
25311.04985199996
 20
19523.933729000011
 30
0.0
 11
25274.04868999996
 21
19523.933729000011
 31
0.0
  0
LINE
  5
3FCA
  8
2-0
  6
CONTINUOUS
 62
     3
 10
25311.04985199996
 20
19493.930165999998
 30
0.0
 11
25311.04985199996
 21
19523.933729000011
 31
0.0
  0
LINE
  5
3FCB
  8
2-0
  6
CONTINUOUS
 62
     3
 10
25305.04993099995
 20
19493.930165999998
 30
0.0
 11
25311.04985199996
 21
19493.930165999998
 31
0.0
  0
LINE
  5
3FCC
  8
2-0
  6
CONTINUOUS
 62
     3
 10
25321.147375999961
 20
19493.930165999998
 30
0.0
 11
25321.147375999961
 21
19523.933729000011
 31
0.0
  0
LINE
  5
3FCD
  8
2-0
  6
CONTINUOUS
 62
     3
 10
25303.14365499996
 20
19493.930165999998
 30
0.0
 11
25321.147375999961
 21
19493.930165999998
 31
0.0
  0
LINE
  5
3FCE
  8
2-0
  6
CONTINUOUS
 62
     3
 10
25303.14365499996
 20
19518.939403
 30
0.0
 11
25303.14365499996
 21
19493.930165999998
 31
0.0
  0
LINE
  5
3FCF
  8
2-0
  6
CONTINUOUS
 62
     3
 10
25308.143918999958
 20
19518.939403
 30
0.0
 11
25303.14365499996
 21
19518.939403
 31
0.0
  0
LINE
  5
3FD0
  8
2-0
  6
CONTINUOUS
 62
     3
 10
25308.143918999958
 20
19511.93388700001
 30
0.0
 11
25308.143918999958
 21
19518.939403
 31
0.0
  0
LINE
  5
3FD1
  8
2-0
  6
CONTINUOUS
 62
     3
 10
25276.954623999962
 20
19511.93388700001
 30
0.0
 11
25276.954623999962
 21
19518.939403
 31
0.0
  0
LINE
  5
3FD2
  8
2-0
  6
CONTINUOUS
 62
     3
 10
25276.954623999962
 20
19518.939403
 30
0.0
 11
25281.95488799996
 21
19518.939403
 31
0.0
  0
LINE
  5
3FD3
  8
2-0
  6
CONTINUOUS
 62
     3
 10
25281.95488799996
 20
19518.939403
 30
0.0
 11
25281.95488799996
 21
19493.930165999998
 31
0.0
  0
LINE
  5
3FD4
  8
2-0
  6
CONTINUOUS
 62
     3
 10
25281.95488799996
 20
19493.930165999998
 30
0.0
 11
25263.95512499996
 21
19493.930165999998
 31
0.0
  0
LINE
  5
3FD5
  8
2-0
  6
CONTINUOUS
 62
     3
 10
25263.95512499996
 20
19493.930165999998
 30
0.0
 11
25263.95512499996
 21
19523.933729000011
 31
0.0
  0
LINE
  5
3FD6
  8
2-0
  6
CONTINUOUS
 62
     3
 10
25280.048610999958
 20
19493.930165999998
 30
0.0
 11
25274.04868999996
 21
19493.930165999998
 31
0.0
  0
LINE
  5
3FD7
  8
2-0
  6
CONTINUOUS
 62
     3
 10
25274.04868999996
 20
19493.930165999998
 30
0.0
 11
25274.04868999996
 21
19523.933729000011
 31
0.0
  0
LINE
  5
3FD8
  8
2-0
  6
CONTINUOUS
 62
     3
 10
23906.138969499971
 20
19511.93388700001
 30
0.0
 11
23906.138969499971
 21
19518.939403
 31
0.0
  0
LINE
  5
3FD9
  8
2-0
  6
CONTINUOUS
 62
     3
 10
23906.138969499971
 20
19518.939403
 30
0.0
 11
23901.138705499961
 21
19518.939403
 31
0.0
  0
LINE
  5
3FDA
  8
2-0
  6
CONTINUOUS
 62
     3
 10
23901.138705499961
 20
19518.939403
 30
0.0
 11
23901.138705499961
 21
19493.930165999998
 31
0.0
  0
LINE
  5
3FDB
  8
2-0
  6
CONTINUOUS
 62
     3
 10
23901.138705499961
 20
19493.930165999998
 30
0.0
 11
23919.14440649996
 21
19493.930165999998
 31
0.0
  0
LINE
  5
3FDC
  8
2-0
  6
CONTINUOUS
 62
     3
 10
23919.14440649996
 20
19493.930165999998
 30
0.0
 11
23919.14440649996
 21
19523.933729000011
 31
0.0
  0
LINE
  5
3FDD
  8
2-0
  6
CONTINUOUS
 62
     3
 10
23903.04696149996
 20
19493.930165999998
 30
0.0
 11
23909.04886149997
 21
19493.930165999998
 31
0.0
  0
LINE
  5
3FDE
  8
2-0
  6
CONTINUOUS
 62
     3
 10
23909.04886149997
 20
19493.930165999998
 30
0.0
 11
23909.04886149997
 21
19523.933729000011
 31
0.0
  0
LINE
  5
3FDF
  8
2-0
  6
CONTINUOUS
 62
     3
 10
23872.04968049996
 20
19523.933729000011
 30
0.0
 11
23909.04886149997
 21
19523.933729000011
 31
0.0
  0
LINE
  5
3FE0
  8
2-0
  6
CONTINUOUS
 62
     3
 10
23872.04968049996
 20
19493.930165999998
 30
0.0
 11
23872.04968049996
 21
19523.933729000011
 31
0.0
  0
LINE
  5
3FE1
  8
2-0
  6
CONTINUOUS
 62
     3
 10
23878.043662499971
 20
19493.930165999998
 30
0.0
 11
23872.04968049996
 21
19493.930165999998
 31
0.0
  0
LINE
  5
3FE2
  8
2-0
  6
CONTINUOUS
 62
     3
 10
23861.95413549996
 20
19493.930165999998
 30
0.0
 11
23861.95413549996
 21
19523.933729000011
 31
0.0
  0
LINE
  5
3FE3
  8
2-0
  6
CONTINUOUS
 62
     3
 10
23879.949938499962
 20
19493.930165999998
 30
0.0
 11
23861.95413549996
 21
19493.930165999998
 31
0.0
  0
LINE
  5
3FE4
  8
2-0
  6
CONTINUOUS
 62
     3
 10
23879.949938499962
 20
19518.939403
 30
0.0
 11
23879.949938499962
 21
19493.930165999998
 31
0.0
  0
LINE
  5
3FE5
  8
2-0
  6
CONTINUOUS
 62
     3
 10
23874.949674499949
 20
19518.939403
 30
0.0
 11
23879.949938499962
 21
19518.939403
 31
0.0
  0
LINE
  5
3FE6
  8
2-0
  6
CONTINUOUS
 62
     3
 10
23874.949674499949
 20
19511.93388700001
 30
0.0
 11
23874.949674499949
 21
19518.939403
 31
0.0
  0
LINE
  5
3FE7
  8
2-0
  6
CONTINUOUS
 62
     3
 10
24575.94868549997
 20
19511.93388700001
 30
0.0
 11
24575.94868549997
 21
19518.939403
 31
0.0
  0
LINE
  5
3FE8
  8
2-0
  6
CONTINUOUS
 62
     3
 10
24575.94868549997
 20
19518.939403
 30
0.0
 11
24580.948948499961
 21
19518.939403
 31
0.0
  0
LINE
  5
3FE9
  8
2-0
  6
CONTINUOUS
 62
     3
 10
24580.948948499961
 20
19518.939403
 30
0.0
 11
24580.948948499961
 21
19493.930165999998
 31
0.0
  0
LINE
  5
3FEA
  8
2-0
  6
CONTINUOUS
 62
     3
 10
24580.948948499961
 20
19493.930165999998
 30
0.0
 11
24562.95512549995
 21
19493.930165999998
 31
0.0
  0
LINE
  5
3FEB
  8
2-0
  6
CONTINUOUS
 62
     3
 10
24562.95512549995
 20
19493.930165999998
 30
0.0
 11
24562.95512549995
 21
19523.933729000011
 31
0.0
  0
LINE
  5
3FEC
  8
2-0
  6
CONTINUOUS
 62
     3
 10
24579.046631499961
 20
19493.930165999998
 30
0.0
 11
24573.048690499971
 21
19493.930165999998
 31
0.0
  0
LINE
  5
3FED
  8
2-0
  6
CONTINUOUS
 62
     3
 10
24573.048690499971
 20
19493.930165999998
 30
0.0
 11
24573.048690499971
 21
19523.933729000011
 31
0.0
  0
LINE
  5
3FEE
  8
2-0
  6
CONTINUOUS
 62
     3
 10
24610.04985149996
 20
19523.933729000011
 30
0.0
 11
24573.048690499971
 21
19523.933729000011
 31
0.0
  0
LINE
  5
3FEF
  8
2-0
  6
CONTINUOUS
 62
     3
 10
24610.04985149996
 20
19493.930165999998
 30
0.0
 11
24610.04985149996
 21
19523.933729000011
 31
0.0
  0
LINE
  5
3FF0
  8
2-0
  6
CONTINUOUS
 62
     3
 10
24604.04399249997
 20
19493.930165999998
 30
0.0
 11
24610.04985149996
 21
19493.930165999998
 31
0.0
  0
LINE
  5
3FF1
  8
2-0
  6
CONTINUOUS
 62
     3
 10
24620.14341649997
 20
19493.930165999998
 30
0.0
 11
24620.14341649997
 21
19523.933729000011
 31
0.0
  0
LINE
  5
3FF2
  8
2-0
  6
CONTINUOUS
 62
     3
 10
24602.147613499961
 20
19493.930165999998
 30
0.0
 11
24620.14341649997
 21
19493.930165999998
 31
0.0
  0
LINE
  5
3FF3
  8
2-0
  6
CONTINUOUS
 62
     3
 10
24602.147613499961
 20
19518.939403
 30
0.0
 11
24602.147613499961
 21
19493.930165999998
 31
0.0
  0
LINE
  5
3FF4
  8
2-0
  6
CONTINUOUS
 62
     3
 10
24607.13797949997
 20
19518.939403
 30
0.0
 11
24602.147613499961
 21
19518.939403
 31
0.0
  0
LINE
  5
3FF5
  8
2-0
  6
CONTINUOUS
 62
     3
 10
24607.13797949997
 20
19511.93388700001
 30
0.0
 11
24607.13797949997
 21
19518.939403
 31
0.0
  0
LINE
  5
3FF6
  8
2-0
  6
CONTINUOUS
 62
     3
 10
23919.14440649996
 20
19523.933729000011
 30
0.0
 11
24562.95512549995
 21
19523.933729000011
 31
0.0
  0
LINE
  5
3FF7
  8
2-0
  6
CONTINUOUS
 62
     3
 10
23214.667619999971
 20
19523.933729000011
 30
0.0
 11
23861.95413549996
 21
19523.933729000011
 31
0.0
  0
LINE
  5
3FF8
  8
2-0
  6
CONTINUOUS
 62
     3
 10
25968.43290099996
 20
19523.933729000011
 30
0.0
 11
25321.147375999961
 21
19523.933729000011
 31
0.0
  0
LINE
  5
3FF9
  8
2-0
  6
CONTINUOUS
 62
     3
 10
25263.95512499996
 20
19523.933729000011
 30
0.0
 11
24620.14341649997
 21
19523.933729000011
 31
0.0
  0
LINE
  5
3FFA
  8
2-0
  6
CONTINUOUS
 62
     3
 10
22393.738724999981
 20
19523.933729000011
 30
0.0
 11
22356.73756299997
 21
19523.933729000011
 31
0.0
  0
LINE
  5
3FFB
  8
2-0
  6
CONTINUOUS
 62
     3
 10
22393.738724999981
 20
19493.930165999998
 30
0.0
 11
22393.738724999981
 21
19523.933729000011
 31
0.0
  0
LINE
  5
3FFC
  8
2-0
  6
CONTINUOUS
 62
     3
 10
22387.738803999961
 20
19493.930165999998
 30
0.0
 11
22393.738724999981
 21
19493.930165999998
 31
0.0
  0
LINE
  5
3FFD
  8
2-0
  6
CONTINUOUS
 62
     3
 10
22403.836248999982
 20
19493.930165999998
 30
0.0
 11
22403.836248999982
 21
19523.933729000011
 31
0.0
  0
LINE
  5
3FFE
  8
2-0
  6
CONTINUOUS
 62
     3
 10
22385.832527999981
 20
19493.930165999998
 30
0.0
 11
22403.836248999982
 21
19493.930165999998
 31
0.0
  0
LINE
  5
3FFF
  8
2-0
  6
CONTINUOUS
 62
     3
 10
22385.832527999981
 20
19518.939403
 30
0.0
 11
22385.832527999981
 21
19493.930165999998
 31
0.0
  0
LINE
  5
4000
  8
2-0
  6
CONTINUOUS
 62
     3
 10
22390.832791999968
 20
19518.939403
 30
0.0
 11
22385.832527999981
 21
19518.939403
 31
0.0
  0
LINE
  5
4001
  8
2-0
  6
CONTINUOUS
 62
     3
 10
22390.832791999968
 20
19511.93388700001
 30
0.0
 11
22390.832791999968
 21
19518.939403
 31
0.0
  0
LINE
  5
4002
  8
2-0
  6
CONTINUOUS
 62
     3
 10
22359.643496999961
 20
19511.93388700001
 30
0.0
 11
22359.643496999961
 21
19518.939403
 31
0.0
  0
LINE
  5
4003
  8
2-0
  6
CONTINUOUS
 62
     3
 10
22359.643496999961
 20
19518.939403
 30
0.0
 11
22364.643760999981
 21
19518.939403
 31
0.0
  0
LINE
  5
4004
  8
2-0
  6
CONTINUOUS
 62
     3
 10
22364.643760999981
 20
19518.939403
 30
0.0
 11
22364.643760999981
 21
19493.930165999998
 31
0.0
  0
LINE
  5
4005
  8
2-0
  6
CONTINUOUS
 62
     3
 10
22364.643760999981
 20
19493.930165999998
 30
0.0
 11
22346.643997999981
 21
19493.930165999998
 31
0.0
  0
LINE
  5
4006
  8
2-0
  6
CONTINUOUS
 62
     3
 10
22346.643997999981
 20
19493.930165999998
 30
0.0
 11
22346.643997999981
 21
19523.933729000011
 31
0.0
  0
LINE
  5
4007
  8
2-0
  6
CONTINUOUS
 62
     3
 10
22362.737483999968
 20
19493.930165999998
 30
0.0
 11
22356.73756299997
 21
19493.930165999998
 31
0.0
  0
LINE
  5
4008
  8
2-0
  6
CONTINUOUS
 62
     3
 10
22356.73756299997
 20
19493.930165999998
 30
0.0
 11
22356.73756299997
 21
19523.933729000011
 31
0.0
  0
LINE
  5
4009
  8
2-0
  6
CONTINUOUS
 62
     3
 10
23051.121773999981
 20
19523.933729000011
 30
0.0
 11
22403.836248999982
 21
19523.933729000011
 31
0.0
  0
LINE
  5
400A
  8
2-0
  6
CONTINUOUS
 62
     3
 10
22346.643997999981
 20
19523.933729000011
 30
0.0
 11
22254.628820999991
 21
19523.933729000011
 31
0.0
  0
LINE
  5
400B
  8
2-0
  6
CONTINUOUS
 62
     3
 10
21755.946796499989
 20
19511.93388700001
 30
0.0
 11
21755.946796499989
 21
19518.939403
 31
0.0
  0
LINE
  5
400C
  8
2-0
  6
CONTINUOUS
 62
     3
 10
21755.946796499989
 20
19518.939403
 30
0.0
 11
21750.946532499991
 21
19518.939403
 31
0.0
  0
LINE
  5
400D
  8
2-0
  6
CONTINUOUS
 62
     3
 10
21750.946532499991
 20
19518.939403
 30
0.0
 11
21750.946532499991
 21
19493.930165999998
 31
0.0
  0
LINE
  5
400E
  8
2-0
  6
CONTINUOUS
 62
     3
 10
21750.946532499991
 20
19493.930165999998
 30
0.0
 11
21768.952233499978
 21
19493.930165999998
 31
0.0
  0
LINE
  5
400F
  8
2-0
  6
CONTINUOUS
 62
     3
 10
21768.952233499978
 20
19493.930165999998
 30
0.0
 11
21768.952233499978
 21
19523.933729000011
 31
0.0
  0
LINE
  5
4010
  8
2-0
  6
CONTINUOUS
 62
     3
 10
21752.854788499979
 20
19493.930165999998
 30
0.0
 11
21758.856688499989
 21
19493.930165999998
 31
0.0
  0
LINE
  5
4011
  8
2-0
  6
CONTINUOUS
 62
     3
 10
21758.856688499989
 20
19493.930165999998
 30
0.0
 11
21758.856688499989
 21
19523.933729000011
 31
0.0
  0
LINE
  5
4012
  8
2-0
  6
CONTINUOUS
 62
     3
 10
21721.857507499972
 20
19523.933729000011
 30
0.0
 11
21758.856688499989
 21
19523.933729000011
 31
0.0
  0
LINE
  5
4013
  8
2-0
  6
CONTINUOUS
 62
     3
 10
21721.857507499972
 20
19493.930165999998
 30
0.0
 11
21721.857507499972
 21
19523.933729000011
 31
0.0
  0
LINE
  5
4014
  8
2-0
  6
CONTINUOUS
 62
     3
 10
21727.85148949999
 20
19493.930165999998
 30
0.0
 11
21721.857507499972
 21
19493.930165999998
 31
0.0
  0
LINE
  5
4015
  8
2-0
  6
CONTINUOUS
 62
     3
 10
21711.761962499979
 20
19493.930165999998
 30
0.0
 11
21711.761962499979
 21
19523.933729000011
 31
0.0
  0
LINE
  5
4016
  8
2-0
  6
CONTINUOUS
 62
     3
 10
21729.757765499991
 20
19493.930165999998
 30
0.0
 11
21711.761962499979
 21
19493.930165999998
 31
0.0
  0
LINE
  5
4017
  8
2-0
  6
CONTINUOUS
 62
     3
 10
21729.757765499991
 20
19518.939403
 30
0.0
 11
21729.757765499991
 21
19493.930165999998
 31
0.0
  0
LINE
  5
4018
  8
2-0
  6
CONTINUOUS
 62
     3
 10
21724.757501499978
 20
19518.939403
 30
0.0
 11
21729.757765499991
 21
19518.939403
 31
0.0
  0
LINE
  5
4019
  8
2-0
  6
CONTINUOUS
 62
     3
 10
21724.757501499978
 20
19511.93388700001
 30
0.0
 11
21724.757501499978
 21
19518.939403
 31
0.0
  0
LINE
  5
401A
  8
2-0
  6
CONTINUOUS
 62
     3
 10
20714.662339999992
 20
19523.933729000011
 30
0.0
 11
21711.761962499979
 21
19523.933729000011
 31
0.0
  0
LINE
  5
401B
  8
2-0
  6
CONTINUOUS
 62
     3
 10
21954.628820999991
 20
19523.933729000011
 30
0.0
 11
21768.952233499978
 21
19523.933729000011
 31
0.0
  0
LINE
  5
401C
  8
2-0
  6
CONTINUOUS
 62
     3
 10
26093.047554999961
 20
15426.57488099998
 30
0.0
 11
26093.047554999961
 21
14782.536022999981
 31
0.0
  0
LINE
  5
401D
  8
2-0
  6
CONTINUOUS
 62
     3
 10
26093.047554999961
 20
14725.33981299999
 30
0.0
 11
26093.047554999961
 21
14078.473450999991
 31
0.0
  0
LINE
  5
401E
  8
SUNPOU
  6
CONTINUOUS
 10
4599.9375290000153
 20
19703.931353
 30
0.0
 11
4599.9375290000153
 21
20500.898620778451
 31
0.0
  0
LINE
  5
401F
  8
SUNPOU
  6
CONTINUOUS
 10
4599.9375290000153
 20
13803.44012899999
 30
0.0
 11
4599.9375290000153
 21
13128.01401318961
 31
0.0
  0
LINE
  5
4022
  8
WAKUSEN-01
 10
868.00000000000193
 20
22484.000000000011
 30
0.0
 11
32764.000000000011
 21
22484.000000000011
 31
0.0
  0
LINE
  5
4025
  8
WAKUSEN-01
 10
20560.0
 20
2484.0
 30
0.0
 11
32764.0
 21
2484.0
 31
0.0
  0
LINE
  5
4026
  8
WAKUSEN-02
 10
20560.0
 20
1655.9999999999991
 30
0.0
 11
26868.0
 21
1655.9999999999991
 31
0.0
  0
TEXT
  5
4027
  8
WAKUMOJI-01
 10
20670.260259962761
 20
2125.9030093393221
 30
0.0
 40
240.0
  1
名　称
  7
WAKUMOJI
  0
TEXT
  5
4028
  8
WAKUMOJI-01
 10
20656.505485091919
 20
1319.12897497982
 30
0.0
 40
240.0
  1
機種名
  7
WAKUMOJI
  0
LINE
  5
402B
  8
YODOROGO
 10
29977.604341291921
 20
1995.7494964292871
 30
0.0
 11
29829.604341291921
 21
1995.7494964292871
 31
0.0
1001
AUTOCAD_POSTSCRIPT_FIGURE
1002
{
1000
PSFILL
1000
Grayscale
1000
Grayscale
1070
    25
1002
}
  0
LINE
  5
402C
  8
YODOROGO
 10
29829.604341291921
 20
1947.749496429288
 30
0.0
 11
29977.604341291921
 21
1947.749496429288
 31
0.0
1001
AUTOCAD_POSTSCRIPT_FIGURE
1002
{
1000
PSFILL
1000
Grayscale
1000
Grayscale
1070
    25
1002
}
  0
LINE
  5
402D
  8
YODOROGO
 10
29977.604341291921
 20
1907.7494964292871
 30
0.0
 11
29829.604341291921
 21
1907.7494964292871
 31
0.0
1001
AUTOCAD_POSTSCRIPT_FIGURE
1002
{
1000
PSFILL
1000
Grayscale
1000
Grayscale
1070
    25
1002
}
  0
LINE
  5
402E
  8
YODOROGO
 10
29829.604341291921
 20
1859.749496429288
 30
0.0
 11
29977.604341291921
 21
1859.749496429288
 31
0.0
1001
AUTOCAD_POSTSCRIPT_FIGURE
1002
{
1000
PSFILL
1000
Grayscale
1000
Grayscale
1070
    25
1002
}
  0
LINE
  5
402F
  8
YODOROGO
 10
29977.604341291921
 20
1819.7494964292871
 30
0.0
 11
29829.604341291921
 21
1819.7494964292871
 31
0.0
1001
AUTOCAD_POSTSCRIPT_FIGURE
1002
{
1000
PSFILL
1000
Grayscale
1000
Grayscale
1070
    25
1002
}
  0
LINE
  5
4030
  8
YODOROGO
 10
29921.60434129191
 20
1707.749496429288
 30
0.0
 11
29977.604341291921
 21
1707.749496429288
 31
0.0
1001
AUTOCAD_POSTSCRIPT_FIGURE
1002
{
1000
PSFILL
1000
Grayscale
1000
Grayscale
1070
    25
1002
}
  0
LINE
  5
4031
  8
YODOROGO
 10
29737.604341291921
 20
1427.749496429288
 30
0.0
 11
29937.604341291932
 21
1481.3393349155101
 31
0.0
  0
LINE
  5
4032
  8
YODOROGO
 10
29949.60434129191
 20
1707.749496429288
 30
0.0
 11
29885.604341291921
 21
1707.749496429288
 31
0.0
  0
ARC
  5
4033
  8
YODOROGO
 10
30254.34774982791
 20
1807.864609233261
 30
0.0
 40
381.88686420564721
 50
213.96111677667841
 51
264.47872074317792
  0
ARC
  5
4034
  8
YODOROGO
 10
30254.347749827921
 20
1807.864609233302
 30
0.0
 40
381.8868642056816
 50
208.14114420486601
 51
212.9210361185994
  0
LINE
  5
4035
  8
YODOROGO
 10
29771.409872985321
 20
1556.807661346234
 30
0.0
 11
29933.78413250855
 21
1600.3157130570869
 31
0.0
  0
LINE
  5
4036
  8
YODOROGO
 10
29737.604341291921
 20
1427.749496429288
 30
0.0
 11
29937.604341291932
 21
1481.3393349155101
 31
0.0
  0
LINE
  5
4037
  8
YODOROGO
 10
29949.60434129191
 20
1707.749496429288
 30
0.0
 11
29885.604341291921
 21
1707.749496429288
 31
0.0
  0
ARC
  5
4038
  8
YODOROGO
 10
30254.34774982791
 20
1807.864609233261
 30
0.0
 40
381.88686420564721
 50
213.96111677667841
 51
264.47872074317792
  0
LINE
  5
4039
  8
YODOROGO
 10
28793.60434129191
 20
1819.7494964292871
 30
0.0
 11
28433.60434129191
 21
1819.7494964292871
 31
0.0
  0
LINE
  5
403A
  8
YODOROGO
 10
28513.60434129191
 20
1427.749496429288
 30
0.0
 11
28793.60434129191
 21
1427.749496429288
 31
0.0
  0
LINE
  5
403B
  8
YODOROGO
 10
28729.604341291921
 20
1923.7494964292871
 30
0.0
 11
28497.60434129191
 21
1923.7494964292871
 31
0.0
  0
LINE
  5
403C
  8
YODOROGO
 10
28585.604341291921
 20
2027.749496429288
 30
0.0
 11
28657.604341291921
 21
2027.749496429288
 31
0.0
  0
LINE
  5
403D
  8
YODOROGO
 10
28433.60434129191
 20
1707.749496429288
 30
0.0
 11
28433.60434129191
 21
1507.749496429288
 31
0.0
  0
LINE
  5
403E
  8
YODOROGO
 10
28497.60434129191
 20
1563.7494964292871
 30
0.0
 11
28497.60434129191
 21
1707.749496429288
 31
0.0
  0
LINE
  5
403F
  8
YODOROGO
 10
28585.604341291921
 20
1747.74949642929
 30
0.0
 11
28585.604341291921
 21
1547.749496429288
 31
0.0
  0
LINE
  5
4040
  8
YODOROGO
 10
27857.604341291921
 20
1683.749496429288
 30
0.0
 11
27777.604341291921
 21
1619.9724140445701
 31
0.0
  0
LINE
  5
4041
  8
YODOROGO
 10
27937.604341291921
 20
1619.9724140445701
 30
0.0
 11
27857.604341291921
 21
1683.749496429288
 31
0.0
  0
LINE
  5
4042
  8
YODOROGO
 10
27857.604341291921
 20
1707.749496429288
 30
0.0
 11
27937.604341291921
 21
1643.9724140445701
 31
0.0
  0
LINE
  5
4043
  8
YODOROGO
 10
27777.604341291921
 20
1643.9724140445701
 30
0.0
 11
27857.604341291921
 21
1707.749496429288
 31
0.0
  0
LINE
  5
4044
  8
YODOROGO
 10
28040.913204016892
 20
1659.749496429288
 30
0.0
 11
28040.913204016892
 21
1683.7494964292871
 31
0.0
  0
LINE
  5
4045
  8
YODOROGO
 10
27977.604341291921
 20
1683.7494964292871
 30
0.0
 11
27977.604341291921
 21
1667.749496429285
 31
0.0
  0
LINE
  5
4046
  8
YODOROGO
 10
28098.135520230931
 20
1707.749496429288
 30
0.0
 11
28098.135520230931
 21
1655.5036372746561
 31
0.0
1001
AUTOCAD_POSTSCRIPT_FIGURE
1002
{
1000
PSFILL
1000
Grayscale
1000
Grayscale
1070
   100
1002
}
  0
LINE
  5
4047
  8
YODOROGO
 10
28082.135520230921
 20
1655.5036372746561
 30
0.0
 11
28082.135520230921
 21
1707.749496429288
 31
0.0
1001
AUTOCAD_POSTSCRIPT_FIGURE
1002
{
1000
PSFILL
1000
Grayscale
1000
Grayscale
1070
   100
1002
}
  0
LINE
  5
4048
  8
YODOROGO
 10
27809.604341291921
 20
1608.771904043258
 30
0.0
 11
27809.604341291921
 21
1632.771904043258
 31
0.0
  0
LINE
  5
4049
  8
YODOROGO
 10
27905.604341291921
 20
1608.771904043258
 30
0.0
 11
27809.604341291921
 21
1608.771904043258
 31
0.0
  0
LINE
  5
404A
  8
YODOROGO
 10
27905.604341291921
 20
1632.771904043258
 30
0.0
 11
27905.604341291921
 21
1608.771904043258
 31
0.0
  0
LINE
  5
404B
  8
YODOROGO
 10
27809.604341291921
 20
1632.771904043258
 30
0.0
 11
27905.604341291921
 21
1632.771904043258
 31
0.0
  0
LINE
  5
404C
  8
YODOROGO
 10
27824.509588915738
 20
1568.5028573704751
 30
0.0
 11
27785.604341291921
 21
1475.7494964292871
 31
0.0
1001
AUTOCAD_POSTSCRIPT_FIGURE
1002
{
1000
PSFILL
1000
Grayscale
1000
Grayscale
1070
   100
1002
}
  0
LINE
  5
404D
  8
YODOROGO
 10
27777.604341291921
 20
1568.5028573704751
 30
0.0
 11
27824.509588915738
 21
1568.5028573704751
 31
0.0
1001
AUTOCAD_POSTSCRIPT_FIGURE
1002
{
1000
PSFILL
1000
Grayscale
1000
Grayscale
1070
   100
1002
}
  0
LINE
  5
404E
  8
YODOROGO
 10
27777.604341291921
 20
1588.5028573704751
 30
0.0
 11
27777.604341291921
 21
1568.5028573704751
 31
0.0
1001
AUTOCAD_POSTSCRIPT_FIGURE
1002
{
1000
PSFILL
1000
Grayscale
1000
Grayscale
1070
   100
1002
}
  0
LINE
  5
404F
  8
YODOROGO
 10
27937.604341291921
 20
1588.5028573704751
 30
0.0
 11
27777.604341291921
 21
1588.5028573704751
 31
0.0
1001
AUTOCAD_POSTSCRIPT_FIGURE
1002
{
1000
PSFILL
1000
Grayscale
1000
Grayscale
1070
   100
1002
}
  0
LINE
  5
4050
  8
YODOROGO
 10
27937.604341291921
 20
1568.5028573704751
 30
0.0
 11
27937.604341291921
 21
1588.5028573704751
 31
0.0
1001
AUTOCAD_POSTSCRIPT_FIGURE
1002
{
1000
PSFILL
1000
Grayscale
1000
Grayscale
1070
   100
1002
}
  0
LINE
  5
4051
  8
YODOROGO
 10
27844.509588915738
 20
1568.5028573704751
 30
0.0
 11
27937.604341291921
 21
1568.5028573704751
 31
0.0
1001
AUTOCAD_POSTSCRIPT_FIGURE
1002
{
1000
PSFILL
1000
Grayscale
1000
Grayscale
1070
   100
1002
}
  0
LINE
  5
4052
  8
YODOROGO
 10
27815.546718284771
 20
1495.7494964292871
 30
0.0
 11
27844.509588915738
 21
1568.5028573704751
 31
0.0
1001
AUTOCAD_POSTSCRIPT_FIGURE
1002
{
1000
PSFILL
1000
Grayscale
1000
Grayscale
1070
   100
1002
}
  0
LINE
  5
4053
  8
YODOROGO
 10
27902.054790808648
 20
1495.7494964292871
 30
0.0
 11
27815.546718284771
 21
1495.7494964292871
 31
0.0
1001
AUTOCAD_POSTSCRIPT_FIGURE
1002
{
1000
PSFILL
1000
Grayscale
1000
Grayscale
1070
   100
1002
}
  0
LINE
  5
4054
  8
YODOROGO
 10
27885.065004790951
 20
1536.2338106976929
 30
0.0
 11
27902.054790808648
 21
1495.7494964292871
 31
0.0
1001
AUTOCAD_POSTSCRIPT_FIGURE
1002
{
1000
PSFILL
1000
Grayscale
1000
Grayscale
1070
   100
1002
}
  0
LINE
  5
4055
  8
YODOROGO
 10
27901.065004790951
 20
1536.2338106976929
 30
0.0
 11
27885.065004790951
 21
1536.2338106976929
 31
0.0
1001
AUTOCAD_POSTSCRIPT_FIGURE
1002
{
1000
PSFILL
1000
Grayscale
1000
Grayscale
1070
   100
1002
}
  0
LINE
  5
4056
  8
YODOROGO
 10
27929.604341291921
 20
1475.7494964292871
 30
0.0
 11
27901.065004790951
 21
1536.2338106976929
 31
0.0
1001
AUTOCAD_POSTSCRIPT_FIGURE
1002
{
1000
PSFILL
1000
Grayscale
1000
Grayscale
1070
   100
1002
}
  0
LINE
  5
4057
  8
YODOROGO
 10
27785.604341291921
 20
1475.7494964292871
 30
0.0
 11
27929.604341291921
 21
1475.7494964292871
 31
0.0
1001
AUTOCAD_POSTSCRIPT_FIGURE
1002
{
1000
PSFILL
1000
Grayscale
1000
Grayscale
1070
   100
1002
}
  0
LINE
  5
4058
  8
YODOROGO
 10
27777.604341291921
 20
1619.9724140445701
 30
0.0
 11
27777.604341291921
 21
1643.9724140445701
 31
0.0
  0
LINE
  5
4059
  8
YODOROGO
 10
27937.604341291921
 20
1643.9724140445701
 30
0.0
 11
27937.604341291921
 21
1619.9724140445701
 31
0.0
  0
ARC
  5
405A
  8
YODOROGO
 10
28225.940442146959
 20
1600.877765325326
 30
0.0
 40
175.9999999999998
 50
280.3644312771313
 51
3.5414836592180561
  0
ARC
  5
405B
  8
YODOROGO
 10
28235.756030759301
 20
1633.5978069619041
 30
0.0
 40
111.9999999999982
 50
281.24905825041549
 51
348.75094174958321
  0
LINE
  5
405C
  8
YODOROGO
 10
28257.604341291921
 20
1523.7494964292871
 30
0.0
 11
28257.604341291921
 21
1427.749496429288
 31
0.0
  0
LINE
  5
405D
  8
YODOROGO
 10
28020.088903736909
 20
1610.650565061914
 30
0.0
 11
28040.913204016892
 21
1659.749496429288
 31
0.0
  0
LINE
  5
405E
  8
YODOROGO
 10
28041.604341291921
 20
1583.120489948401
 30
0.0
 11
28020.088903736909
 21
1610.650565061914
 31
0.0
  0
LINE
  5
405F
  8
YODOROGO
 10
28041.604341291921
 20
1563.120489948398
 30
0.0
 11
28041.604341291921
 21
1583.120489948401
 31
0.0
  0
LINE
  5
4060
  8
YODOROGO
 10
28017.604341291921
 20
1585.2370637495301
 30
0.0
 11
28041.604341291921
 21
1563.120489948398
 31
0.0
  0
LINE
  5
4061
  8
YODOROGO
 10
28017.604341291921
 20
1475.7494964292871
 30
0.0
 11
28017.604341291921
 21
1585.2370637495301
 31
0.0
  0
LINE
  5
4062
  8
YODOROGO
 10
28001.604341291921
 20
1475.7494964292871
 30
0.0
 11
28017.604341291921
 21
1475.7494964292871
 31
0.0
  0
LINE
  5
4063
  8
YODOROGO
 10
28001.604341291921
 20
1580.0053496897469
 30
0.0
 11
28001.604341291921
 21
1475.7494964292871
 31
0.0
  0
LINE
  5
4064
  8
YODOROGO
 10
27977.604341291921
 20
1532.7680790334291
 30
0.0
 11
28001.604341291921
 21
1580.0053496897469
 31
0.0
  0
LINE
  5
4065
  8
YODOROGO
 10
27977.604341291921
 20
1556.76807903343
 30
0.0
 11
27977.604341291921
 21
1532.7680790334291
 31
0.0
  0
LINE
  5
4066
  8
YODOROGO
 10
28025.828774291349
 20
1667.749496429285
 30
0.0
 11
27977.604341291921
 21
1556.76807903343
 31
0.0
  0
LINE
  5
4067
  8
YODOROGO
 10
27977.604341291921
 20
1667.749496429285
 30
0.0
 11
28025.828774291349
 21
1667.749496429285
 31
0.0
  0
LINE
  5
4068
  8
YODOROGO
 10
28050.135520230899
 20
1655.5036372746561
 30
0.0
 11
28082.135520230921
 21
1655.5036372746561
 31
0.0
1001
AUTOCAD_POSTSCRIPT_FIGURE
1002
{
1000
PSFILL
1000
Grayscale
1000
Grayscale
1070
   100
1002
}
  0
LINE
  5
4069
  8
YODOROGO
 10
28050.135520230899
 20
1631.5036372746561
 30
0.0
 11
28050.135520230899
 21
1655.5036372746561
 31
0.0
1001
AUTOCAD_POSTSCRIPT_FIGURE
1002
{
1000
PSFILL
1000
Grayscale
1000
Grayscale
1070
   100
1002
}
  0
LINE
  5
406A
  8
YODOROGO
 10
28082.135520230921
 20
1631.5036372746561
 30
0.0
 11
28050.135520230899
 21
1631.5036372746561
 31
0.0
1001
AUTOCAD_POSTSCRIPT_FIGURE
1002
{
1000
PSFILL
1000
Grayscale
1000
Grayscale
1070
   100
1002
}
  0
LINE
  5
406B
  8
YODOROGO
 10
28082.135520230921
 20
1499.749496429288
 30
0.0
 11
28082.135520230921
 21
1631.5036372746561
 31
0.0
1001
AUTOCAD_POSTSCRIPT_FIGURE
1002
{
1000
PSFILL
1000
Grayscale
1000
Grayscale
1070
   100
1002
}
  0
LINE
  5
406C
  8
YODOROGO
 10
28050.135520230921
 20
1499.749496429288
 30
0.0
 11
28082.135520230921
 21
1499.749496429288
 31
0.0
1001
AUTOCAD_POSTSCRIPT_FIGURE
1002
{
1000
PSFILL
1000
Grayscale
1000
Grayscale
1070
   100
1002
}
  0
LINE
  5
406D
  8
YODOROGO
 10
28050.135520230921
 20
1475.7494964292871
 30
0.0
 11
28050.135520230921
 21
1499.749496429288
 31
0.0
1001
AUTOCAD_POSTSCRIPT_FIGURE
1002
{
1000
PSFILL
1000
Grayscale
1000
Grayscale
1070
   100
1002
}
  0
LINE
  5
406E
  8
YODOROGO
 10
28137.604341291921
 20
1475.7494964292871
 30
0.0
 11
28050.135520230921
 21
1475.7494964292871
 31
0.0
1001
AUTOCAD_POSTSCRIPT_FIGURE
1002
{
1000
PSFILL
1000
Grayscale
1000
Grayscale
1070
   100
1002
}
  0
LINE
  5
406F
  8
YODOROGO
 10
28137.604341291921
 20
1499.749496429288
 30
0.0
 11
28137.604341291921
 21
1475.7494964292871
 31
0.0
1001
AUTOCAD_POSTSCRIPT_FIGURE
1002
{
1000
PSFILL
1000
Grayscale
1000
Grayscale
1070
   100
1002
}
  0
LINE
  5
4070
  8
YODOROGO
 10
28098.135520230931
 20
1499.749496429288
 30
0.0
 11
28137.604341291921
 21
1499.749496429288
 31
0.0
1001
AUTOCAD_POSTSCRIPT_FIGURE
1002
{
1000
PSFILL
1000
Grayscale
1000
Grayscale
1070
   100
1002
}
  0
LINE
  5
4071
  8
YODOROGO
 10
28098.135520230931
 20
1631.5036372746561
 30
0.0
 11
28098.135520230931
 21
1499.749496429288
 31
0.0
1001
AUTOCAD_POSTSCRIPT_FIGURE
1002
{
1000
PSFILL
1000
Grayscale
1000
Grayscale
1070
   100
1002
}
  0
LINE
  5
4072
  8
YODOROGO
 10
28137.604341291921
 20
1631.5036372746561
 30
0.0
 11
28098.135520230931
 21
1631.5036372746561
 31
0.0
1001
AUTOCAD_POSTSCRIPT_FIGURE
1002
{
1000
PSFILL
1000
Grayscale
1000
Grayscale
1070
   100
1002
}
  0
LINE
  5
4073
  8
YODOROGO
 10
28137.604341291921
 20
1655.5036372746561
 30
0.0
 11
28137.604341291921
 21
1631.5036372746561
 31
0.0
1001
AUTOCAD_POSTSCRIPT_FIGURE
1002
{
1000
PSFILL
1000
Grayscale
1000
Grayscale
1070
   100
1002
}
  0
LINE
  5
4074
  8
YODOROGO
 10
28098.135520230931
 20
1655.5036372746561
 30
0.0
 11
28137.604341291921
 21
1655.5036372746561
 31
0.0
1001
AUTOCAD_POSTSCRIPT_FIGURE
1002
{
1000
PSFILL
1000
Grayscale
1000
Grayscale
1070
   100
1002
}
  0
LINE
  5
4075
  8
YODOROGO
 10
28401.60434129191
 20
1667.749496429288
 30
0.0
 11
28345.604341291921
 21
1667.749496429288
 31
0.0
  0
LINE
  5
4076
  8
YODOROGO
 10
28401.60434129191
 20
1611.749496429288
 30
0.0
 11
28401.60434129191
 21
1667.749496429288
 31
0.0
  0
LINE
  5
4077
  8
YODOROGO
 10
28345.604341291921
 20
1667.749496429288
 30
0.0
 11
28345.604341291921
 21
1611.749496429288
 31
0.0
  0
ARC
  5
4078
  8
YODOROGO
 10
28513.60434129191
 20
1507.749496429288
 30
0.0
 40
80.0
 50
180.0
 51
270.0
  0
ARC
  5
4079
  8
YODOROGO
 10
28537.604341291921
 20
1563.7494964292871
 30
0.0
 40
40.0
 50
180.0
 51
270.0
  0
LINE
  5
407A
  8
YODOROGO
 10
28561.604341291932
 20
1523.7494964292871
 30
0.0
 11
28537.604341291921
 21
1523.7494964292871
 31
0.0
  0
ARC
  5
407B
  8
YODOROGO
 10
28561.604341291932
 20
1547.749496429285
 30
0.0
 40
23.999999999996358
 50
270.0
 51
0.0000000000054281
  0
LINE
  5
407C
  8
YODOROGO
 10
27801.604341291921
 20
1890.786580793706
 30
0.0
 11
27777.604341291921
 21
1843.776747951672
 31
0.0
1001
AUTOCAD_POSTSCRIPT_FIGURE
1002
{
1000
PSFILL
1000
Grayscale
1000
Grayscale
1070
   100
1002
}
  0
LINE
  5
407D
  8
YODOROGO
 10
27801.604341291921
 20
1747.749496429286
 30
0.0
 11
27801.604341291921
 21
1890.786580793706
 31
0.0
1001
AUTOCAD_POSTSCRIPT_FIGURE
1002
{
1000
PSFILL
1000
Grayscale
1000
Grayscale
1070
   100
1002
}
  0
LINE
  5
407E
  8
YODOROGO
 10
27817.604341291921
 20
1747.749496429286
 30
0.0
 11
27801.604341291921
 21
1747.749496429286
 31
0.0
1001
AUTOCAD_POSTSCRIPT_FIGURE
1002
{
1000
PSFILL
1000
Grayscale
1000
Grayscale
1070
   100
1002
}
  0
LINE
  5
407F
  8
YODOROGO
 10
27817.604341291921
 20
1893.7713320852661
 30
0.0
 11
27817.604341291921
 21
1747.749496429286
 31
0.0
1001
AUTOCAD_POSTSCRIPT_FIGURE
1002
{
1000
PSFILL
1000
Grayscale
1000
Grayscale
1070
   100
1002
}
  0
LINE
  5
4080
  8
YODOROGO
 10
27841.604341291921
 20
1867.6547582841361
 30
0.0
 11
27817.604341291921
 21
1893.7713320852661
 31
0.0
1001
AUTOCAD_POSTSCRIPT_FIGURE
1002
{
1000
PSFILL
1000
Grayscale
1000
Grayscale
1070
   100
1002
}
  0
LINE
  5
4081
  8
YODOROGO
 10
27841.604341291921
 20
1883.6547582841361
 30
0.0
 11
27841.604341291921
 21
1867.6547582841361
 31
0.0
1001
AUTOCAD_POSTSCRIPT_FIGURE
1002
{
1000
PSFILL
1000
Grayscale
1000
Grayscale
1070
   100
1002
}
  0
LINE
  5
4082
  8
YODOROGO
 10
27817.604341291921
 20
1917.7713320852649
 30
0.0
 11
27841.604341291921
 21
1883.6547582841361
 31
0.0
1001
AUTOCAD_POSTSCRIPT_FIGURE
1002
{
1000
PSFILL
1000
Grayscale
1000
Grayscale
1070
   100
1002
}
  0
LINE
  5
4083
  8
YODOROGO
 10
27817.604341291921
 20
1939.749496429288
 30
0.0
 11
27817.604341291921
 21
1917.7713320852649
 31
0.0
1001
AUTOCAD_POSTSCRIPT_FIGURE
1002
{
1000
PSFILL
1000
Grayscale
1000
Grayscale
1070
   100
1002
}
  0
LINE
  5
4084
  8
YODOROGO
 10
27889.604341291921
 20
1939.749496429288
 30
0.0
 11
27817.604341291921
 21
1939.749496429288
 31
0.0
1001
AUTOCAD_POSTSCRIPT_FIGURE
1002
{
1000
PSFILL
1000
Grayscale
1000
Grayscale
1070
   100
1002
}
  0
LINE
  5
4085
  8
YODOROGO
 10
27889.604341291921
 20
1900.5683489363
 30
0.0
 11
27889.604341291921
 21
1939.749496429288
 31
0.0
1001
AUTOCAD_POSTSCRIPT_FIGURE
1002
{
1000
PSFILL
1000
Grayscale
1000
Grayscale
1070
   100
1002
}
  0
LINE
  5
4086
  8
YODOROGO
 10
27857.604341291921
 20
1900.5683489363
 30
0.0
 11
27889.604341291921
 21
1900.5683489363
 31
0.0
1001
AUTOCAD_POSTSCRIPT_FIGURE
1002
{
1000
PSFILL
1000
Grayscale
1000
Grayscale
1070
   100
1002
}
  0
LINE
  5
4087
  8
YODOROGO
 10
27857.604341291921
 20
1884.568348936298
 30
0.0
 11
27857.604341291921
 21
1900.5683489363
 31
0.0
1001
AUTOCAD_POSTSCRIPT_FIGURE
1002
{
1000
PSFILL
1000
Grayscale
1000
Grayscale
1070
   100
1002
}
  0
LINE
  5
4088
  8
YODOROGO
 10
27889.604341291921
 20
1884.568348936298
 30
0.0
 11
27857.604341291921
 21
1884.568348936298
 31
0.0
1001
AUTOCAD_POSTSCRIPT_FIGURE
1002
{
1000
PSFILL
1000
Grayscale
1000
Grayscale
1070
   100
1002
}
  0
LINE
  5
4089
  8
YODOROGO
 10
27889.604341291921
 20
1879.6191779644371
 30
0.0
 11
27889.604341291921
 21
1884.568348936298
 31
0.0
1001
AUTOCAD_POSTSCRIPT_FIGURE
1002
{
1000
PSFILL
1000
Grayscale
1000
Grayscale
1070
   100
1002
}
  0
LINE
  5
408A
  8
YODOROGO
 10
27849.604341291921
 20
1812.974981161417
 30
0.0
 11
27889.604341291921
 21
1879.6191779644371
 31
0.0
1001
AUTOCAD_POSTSCRIPT_FIGURE
1002
{
1000
PSFILL
1000
Grayscale
1000
Grayscale
1070
   100
1002
}
  0
LINE
  5
408B
  8
YODOROGO
 10
27849.604341291921
 20
1796.9749811614161
 30
0.0
 11
27849.604341291921
 21
1812.974981161417
 31
0.0
1001
AUTOCAD_POSTSCRIPT_FIGURE
1002
{
1000
PSFILL
1000
Grayscale
1000
Grayscale
1070
   100
1002
}
  0
LINE
  5
408C
  8
YODOROGO
 10
27889.604341291921
 20
1847.6191779644359
 30
0.0
 11
27849.604341291921
 21
1796.9749811614161
 31
0.0
1001
AUTOCAD_POSTSCRIPT_FIGURE
1002
{
1000
PSFILL
1000
Grayscale
1000
Grayscale
1070
   100
1002
}
  0
LINE
  5
408D
  8
YODOROGO
 10
27889.604341291921
 20
1747.749496429286
 30
0.0
 11
27889.604341291921
 21
1847.6191779644359
 31
0.0
1001
AUTOCAD_POSTSCRIPT_FIGURE
1002
{
1000
PSFILL
1000
Grayscale
1000
Grayscale
1070
   100
1002
}
  0
LINE
  5
408E
  8
YODOROGO
 10
27905.604341291921
 20
1747.749496429286
 30
0.0
 11
27889.604341291921
 21
1747.749496429286
 31
0.0
1001
AUTOCAD_POSTSCRIPT_FIGURE
1002
{
1000
PSFILL
1000
Grayscale
1000
Grayscale
1070
   100
1002
}
  0
LINE
  5
408F
  8
YODOROGO
 10
27905.604341291921
 20
1849.409012158806
 30
0.0
 11
27905.604341291921
 21
1747.749496429286
 31
0.0
1001
AUTOCAD_POSTSCRIPT_FIGURE
1002
{
1000
PSFILL
1000
Grayscale
1000
Grayscale
1070
   100
1002
}
  0
LINE
  5
4090
  8
YODOROGO
 10
27937.604341291921
 20
1796.9749811614161
 30
0.0
 11
27905.604341291921
 21
1849.409012158806
 31
0.0
1001
AUTOCAD_POSTSCRIPT_FIGURE
1002
{
1000
PSFILL
1000
Grayscale
1000
Grayscale
1070
   100
1002
}
  0
LINE
  5
4091
  8
YODOROGO
 10
27937.604341291921
 20
1812.974981161417
 30
0.0
 11
27937.604341291921
 21
1796.9749811614161
 31
0.0
1001
AUTOCAD_POSTSCRIPT_FIGURE
1002
{
1000
PSFILL
1000
Grayscale
1000
Grayscale
1070
   100
1002
}
  0
LINE
  5
4092
  8
YODOROGO
 10
27905.604341291921
 20
1881.4090121588081
 30
0.0
 11
27937.604341291921
 21
1812.974981161417
 31
0.0
1001
AUTOCAD_POSTSCRIPT_FIGURE
1002
{
1000
PSFILL
1000
Grayscale
1000
Grayscale
1070
   100
1002
}
  0
LINE
  5
4093
  8
YODOROGO
 10
27905.604341291921
 20
1884.5683489363
 30
0.0
 11
27905.604341291921
 21
1881.4090121588081
 31
0.0
1001
AUTOCAD_POSTSCRIPT_FIGURE
1002
{
1000
PSFILL
1000
Grayscale
1000
Grayscale
1070
   100
1002
}
  0
LINE
  5
4094
  8
YODOROGO
 10
27937.604341291921
 20
1884.568348936298
 30
0.0
 11
27905.604341291921
 21
1884.5683489363
 31
0.0
1001
AUTOCAD_POSTSCRIPT_FIGURE
1002
{
1000
PSFILL
1000
Grayscale
1000
Grayscale
1070
   100
1002
}
  0
LINE
  5
4095
  8
YODOROGO
 10
27937.604341291921
 20
1900.5683489363
 30
0.0
 11
27937.604341291921
 21
1884.568348936298
 31
0.0
1001
AUTOCAD_POSTSCRIPT_FIGURE
1002
{
1000
PSFILL
1000
Grayscale
1000
Grayscale
1070
   100
1002
}
  0
LINE
  5
4096
  8
YODOROGO
 10
27905.604341291921
 20
1900.5683489363
 30
0.0
 11
27937.604341291921
 21
1900.5683489363
 31
0.0
1001
AUTOCAD_POSTSCRIPT_FIGURE
1002
{
1000
PSFILL
1000
Grayscale
1000
Grayscale
1070
   100
1002
}
  0
LINE
  5
4097
  8
YODOROGO
 10
27905.604341291921
 20
1939.749496429288
 30
0.0
 11
27905.604341291921
 21
1900.5683489363
 31
0.0
1001
AUTOCAD_POSTSCRIPT_FIGURE
1002
{
1000
PSFILL
1000
Grayscale
1000
Grayscale
1070
   100
1002
}
  0
LINE
  5
4098
  8
YODOROGO
 10
27937.604341291921
 20
1939.749496429288
 30
0.0
 11
27905.604341291921
 21
1939.749496429288
 31
0.0
1001
AUTOCAD_POSTSCRIPT_FIGURE
1002
{
1000
PSFILL
1000
Grayscale
1000
Grayscale
1070
   100
1002
}
  0
LINE
  5
4099
  8
YODOROGO
 10
27937.604341291921
 20
1955.7494964292871
 30
0.0
 11
27937.604341291921
 21
1939.749496429288
 31
0.0
1001
AUTOCAD_POSTSCRIPT_FIGURE
1002
{
1000
PSFILL
1000
Grayscale
1000
Grayscale
1070
   100
1002
}
  0
LINE
  5
409A
  8
YODOROGO
 10
27905.604341291921
 20
1955.7494964292871
 30
0.0
 11
27937.604341291921
 21
1955.7494964292871
 31
0.0
1001
AUTOCAD_POSTSCRIPT_FIGURE
1002
{
1000
PSFILL
1000
Grayscale
1000
Grayscale
1070
   100
1002
}
  0
LINE
  5
409B
  8
YODOROGO
 10
27905.604341291921
 20
1979.749496429288
 30
0.0
 11
27905.604341291921
 21
1955.7494964292871
 31
0.0
1001
AUTOCAD_POSTSCRIPT_FIGURE
1002
{
1000
PSFILL
1000
Grayscale
1000
Grayscale
1070
   100
1002
}
  0
LINE
  5
409C
  8
YODOROGO
 10
27889.604341291921
 20
1979.749496429288
 30
0.0
 11
27905.604341291921
 21
1979.749496429288
 31
0.0
1001
AUTOCAD_POSTSCRIPT_FIGURE
1002
{
1000
PSFILL
1000
Grayscale
1000
Grayscale
1070
   100
1002
}
  0
LINE
  5
409D
  8
YODOROGO
 10
27889.604341291921
 20
1955.7494964292871
 30
0.0
 11
27889.604341291921
 21
1979.749496429288
 31
0.0
1001
AUTOCAD_POSTSCRIPT_FIGURE
1002
{
1000
PSFILL
1000
Grayscale
1000
Grayscale
1070
   100
1002
}
  0
LINE
  5
409E
  8
YODOROGO
 10
27865.604341291921
 20
1955.7494964292871
 30
0.0
 11
27889.604341291921
 21
1955.7494964292871
 31
0.0
1001
AUTOCAD_POSTSCRIPT_FIGURE
1002
{
1000
PSFILL
1000
Grayscale
1000
Grayscale
1070
   100
1002
}
  0
LINE
  5
409F
  8
YODOROGO
 10
27865.604341291921
 20
1979.749496429288
 30
0.0
 11
27865.604341291921
 21
1955.7494964292871
 31
0.0
1001
AUTOCAD_POSTSCRIPT_FIGURE
1002
{
1000
PSFILL
1000
Grayscale
1000
Grayscale
1070
   100
1002
}
  0
LINE
  5
40A0
  8
YODOROGO
 10
27849.604341291921
 20
1979.749496429288
 30
0.0
 11
27865.604341291921
 21
1979.749496429288
 31
0.0
1001
AUTOCAD_POSTSCRIPT_FIGURE
1002
{
1000
PSFILL
1000
Grayscale
1000
Grayscale
1070
   100
1002
}
  0
LINE
  5
40A1
  8
YODOROGO
 10
27849.604341291921
 20
1955.7494964292871
 30
0.0
 11
27849.604341291921
 21
1979.749496429288
 31
0.0
1001
AUTOCAD_POSTSCRIPT_FIGURE
1002
{
1000
PSFILL
1000
Grayscale
1000
Grayscale
1070
   100
1002
}
  0
LINE
  5
40A2
  8
YODOROGO
 10
27817.604341291921
 20
1955.7494964292871
 30
0.0
 11
27849.604341291921
 21
1955.7494964292871
 31
0.0
1001
AUTOCAD_POSTSCRIPT_FIGURE
1002
{
1000
PSFILL
1000
Grayscale
1000
Grayscale
1070
   100
1002
}
  0
LINE
  5
40A3
  8
YODOROGO
 10
27817.604341291921
 20
1979.749496429288
 30
0.0
 11
27817.604341291921
 21
1955.7494964292871
 31
0.0
1001
AUTOCAD_POSTSCRIPT_FIGURE
1002
{
1000
PSFILL
1000
Grayscale
1000
Grayscale
1070
   100
1002
}
  0
LINE
  5
40A4
  8
YODOROGO
 10
27801.604341291921
 20
1979.749496429288
 30
0.0
 11
27817.604341291921
 21
1979.749496429288
 31
0.0
1001
AUTOCAD_POSTSCRIPT_FIGURE
1002
{
1000
PSFILL
1000
Grayscale
1000
Grayscale
1070
   100
1002
}
  0
LINE
  5
40A5
  8
YODOROGO
 10
27801.604341291921
 20
1955.7494964292871
 30
0.0
 11
27801.604341291921
 21
1979.749496429288
 31
0.0
1001
AUTOCAD_POSTSCRIPT_FIGURE
1002
{
1000
PSFILL
1000
Grayscale
1000
Grayscale
1070
   100
1002
}
  0
LINE
  5
40A6
  8
YODOROGO
 10
27777.604341291921
 20
1955.7494964292871
 30
0.0
 11
27801.604341291921
 21
1955.7494964292871
 31
0.0
1001
AUTOCAD_POSTSCRIPT_FIGURE
1002
{
1000
PSFILL
1000
Grayscale
1000
Grayscale
1070
   100
1002
}
  0
LINE
  5
40A7
  8
YODOROGO
 10
27777.604341291921
 20
1939.749496429288
 30
0.0
 11
27777.604341291921
 21
1955.7494964292871
 31
0.0
1001
AUTOCAD_POSTSCRIPT_FIGURE
1002
{
1000
PSFILL
1000
Grayscale
1000
Grayscale
1070
   100
1002
}
  0
LINE
  5
40A8
  8
YODOROGO
 10
27801.604341291921
 20
1939.749496429288
 30
0.0
 11
27777.604341291921
 21
1939.749496429288
 31
0.0
1001
AUTOCAD_POSTSCRIPT_FIGURE
1002
{
1000
PSFILL
1000
Grayscale
1000
Grayscale
1070
   100
1002
}
  0
LINE
  5
40A9
  8
YODOROGO
 10
27801.604341291921
 20
1914.7865807937051
 30
0.0
 11
27801.604341291921
 21
1939.749496429288
 31
0.0
1001
AUTOCAD_POSTSCRIPT_FIGURE
1002
{
1000
PSFILL
1000
Grayscale
1000
Grayscale
1070
   100
1002
}
  0
LINE
  5
40AA
  8
YODOROGO
 10
27777.604341291921
 20
1859.776747951671
 30
0.0
 11
27801.604341291921
 21
1914.7865807937051
 31
0.0
1001
AUTOCAD_POSTSCRIPT_FIGURE
1002
{
1000
PSFILL
1000
Grayscale
1000
Grayscale
1070
   100
1002
}
  0
LINE
  5
40AB
  8
YODOROGO
 10
27777.604341291921
 20
1843.776747951672
 30
0.0
 11
27777.604341291921
 21
1859.776747951671
 31
0.0
1001
AUTOCAD_POSTSCRIPT_FIGURE
1002
{
1000
PSFILL
1000
Grayscale
1000
Grayscale
1070
   100
1002
}
  0
LINE
  5
40AC
  8
YODOROGO
 10
28257.604341291921
 20
1867.7494964292871
 30
0.0
 11
28401.60434129191
 21
1824.877625640306
 31
0.0
1001
AUTOCAD_POSTSCRIPT_FIGURE
1002
{
1000
PSFILL
1000
Grayscale
1000
Grayscale
1070
   100
1002
}
  0
LINE
  5
40AD
  8
YODOROGO
 10
28401.60434129191
 20
1752.877625640306
 30
0.0
 11
28257.604341291921
 21
1795.7494964292871
 31
0.0
1001
AUTOCAD_POSTSCRIPT_FIGURE
1002
{
1000
PSFILL
1000
Grayscale
1000
Grayscale
1070
   100
1002
}
  0
LINE
  5
40AE
  8
YODOROGO
 10
28401.60434129191
 20
1984.877625640306
 30
0.0
 11
28257.604341291921
 21
2027.749496429288
 31
0.0
1001
AUTOCAD_POSTSCRIPT_FIGURE
1002
{
1000
PSFILL
1000
Grayscale
1000
Grayscale
1070
   100
1002
}
  0
LINE
  5
40AF
  8
YODOROGO
 10
28257.604341291921
 20
1959.749496429288
 30
0.0
 11
28401.60434129191
 21
1916.8776256403071
 31
0.0
1001
AUTOCAD_POSTSCRIPT_FIGURE
1002
{
1000
PSFILL
1000
Grayscale
1000
Grayscale
1070
   100
1002
}
  0
LINE
  5
40B0
  8
YODOROGO
 10
28257.604341291921
 20
1795.7494964292871
 30
0.0
 11
28257.604341291921
 21
1867.7494964292871
 31
0.0
1001
AUTOCAD_POSTSCRIPT_FIGURE
1002
{
1000
PSFILL
1000
Grayscale
1000
Grayscale
1070
   100
1002
}
  0
LINE
  5
40B1
  8
YODOROGO
 10
28257.604341291921
 20
2027.749496429288
 30
0.0
 11
28257.604341291921
 21
1959.749496429288
 31
0.0
1001
AUTOCAD_POSTSCRIPT_FIGURE
1002
{
1000
PSFILL
1000
Grayscale
1000
Grayscale
1070
   100
1002
}
  0
LINE
  5
40B2
  8
YODOROGO
 10
28080.236320206739
 20
1939.749496429288
 30
0.0
 11
28129.60434129191
 21
1747.749496429286
 31
0.0
1001
AUTOCAD_POSTSCRIPT_FIGURE
1002
{
1000
PSFILL
1000
Grayscale
1000
Grayscale
1070
   100
1002
}
  0
LINE
  5
40B3
  8
YODOROGO
 10
27977.604341291921
 20
1939.749496429288
 30
0.0
 11
28080.236320206739
 21
1939.749496429288
 31
0.0
1001
AUTOCAD_POSTSCRIPT_FIGURE
1002
{
1000
PSFILL
1000
Grayscale
1000
Grayscale
1070
   100
1002
}
  0
LINE
  5
40B4
  8
YODOROGO
 10
27977.604341291921
 20
1955.7494964292871
 30
0.0
 11
27977.604341291921
 21
1939.749496429288
 31
0.0
1001
AUTOCAD_POSTSCRIPT_FIGURE
1002
{
1000
PSFILL
1000
Grayscale
1000
Grayscale
1070
   100
1002
}
  0
LINE
  5
40B5
  8
YODOROGO
 10
28076.60687851991
 20
1955.7494964292871
 30
0.0
 11
27977.604341291921
 21
1955.7494964292871
 31
0.0
1001
AUTOCAD_POSTSCRIPT_FIGURE
1002
{
1000
PSFILL
1000
Grayscale
1000
Grayscale
1070
   100
1002
}
  0
LINE
  5
40B6
  8
YODOROGO
 10
28071.162715989711
 20
1979.749496429288
 30
0.0
 11
28076.60687851991
 21
1955.7494964292871
 31
0.0
1001
AUTOCAD_POSTSCRIPT_FIGURE
1002
{
1000
PSFILL
1000
Grayscale
1000
Grayscale
1070
   100
1002
}
  0
LINE
  5
40B7
  8
YODOROGO
 10
28091.162715989711
 20
1979.749496429288
 30
0.0
 11
28071.162715989711
 21
1979.749496429288
 31
0.0
1001
AUTOCAD_POSTSCRIPT_FIGURE
1002
{
1000
PSFILL
1000
Grayscale
1000
Grayscale
1070
   100
1002
}
  0
LINE
  5
40B8
  8
YODOROGO
 10
28095.806878519939
 20
1955.7494964292871
 30
0.0
 11
28091.162715989711
 21
1979.749496429288
 31
0.0
1001
AUTOCAD_POSTSCRIPT_FIGURE
1002
{
1000
PSFILL
1000
Grayscale
1000
Grayscale
1070
   100
1002
}
  0
LINE
  5
40B9
  8
YODOROGO
 10
28121.604341291921
 20
1955.7494964292871
 30
0.0
 11
28095.806878519939
 21
1955.7494964292871
 31
0.0
1001
AUTOCAD_POSTSCRIPT_FIGURE
1002
{
1000
PSFILL
1000
Grayscale
1000
Grayscale
1070
   100
1002
}
  0
LINE
  5
40BA
  8
YODOROGO
 10
28121.604341291921
 20
1979.749496429288
 30
0.0
 11
28121.604341291921
 21
1955.7494964292871
 31
0.0
1001
AUTOCAD_POSTSCRIPT_FIGURE
1002
{
1000
PSFILL
1000
Grayscale
1000
Grayscale
1070
   100
1002
}
  0
LINE
  5
40BB
  8
YODOROGO
 10
28137.604341291921
 20
1979.749496429288
 30
0.0
 11
28121.604341291921
 21
1979.749496429288
 31
0.0
1001
AUTOCAD_POSTSCRIPT_FIGURE
1002
{
1000
PSFILL
1000
Grayscale
1000
Grayscale
1070
   100
1002
}
  0
LINE
  5
40BC
  8
YODOROGO
 10
28137.604341291921
 20
1955.7494964292871
 30
0.0
 11
28137.604341291921
 21
1979.749496429288
 31
0.0
1001
AUTOCAD_POSTSCRIPT_FIGURE
1002
{
1000
PSFILL
1000
Grayscale
1000
Grayscale
1070
   100
1002
}
  0
LINE
  5
40BD
  8
YODOROGO
 10
28137.604341291921
 20
1939.749496429288
 30
0.0
 11
28137.604341291921
 21
1955.7494964292871
 31
0.0
1001
AUTOCAD_POSTSCRIPT_FIGURE
1002
{
1000
PSFILL
1000
Grayscale
1000
Grayscale
1070
   100
1002
}
  0
LINE
  5
40BE
  8
YODOROGO
 10
28098.902986873411
 20
1939.749496429288
 30
0.0
 11
28137.604341291921
 21
1939.749496429288
 31
0.0
1001
AUTOCAD_POSTSCRIPT_FIGURE
1002
{
1000
PSFILL
1000
Grayscale
1000
Grayscale
1070
   100
1002
}
  0
LINE
  5
40BF
  8
YODOROGO
 10
28137.604341291921
 20
1747.749496429286
 30
0.0
 11
28098.902986873411
 21
1939.749496429288
 31
0.0
1001
AUTOCAD_POSTSCRIPT_FIGURE
1002
{
1000
PSFILL
1000
Grayscale
1000
Grayscale
1070
   100
1002
}
  0
LINE
  5
40C0
  8
YODOROGO
 10
28129.60434129191
 20
1747.749496429286
 30
0.0
 11
28137.604341291921
 21
1747.749496429286
 31
0.0
1001
AUTOCAD_POSTSCRIPT_FIGURE
1002
{
1000
PSFILL
1000
Grayscale
1000
Grayscale
1070
   100
1002
}
  0
LINE
  5
40C1
  8
YODOROGO
 10
28078.06921993379
 20
1775.7407762987939
 30
0.0
 11
27977.604341291921
 21
1747.749496429286
 31
0.0
  0
LINE
  5
40C2
  8
YODOROGO
 10
28078.06921993379
 20
1798.6689795290731
 30
0.0
 11
28078.06921993379
 21
1775.7407762987939
 31
0.0
  0
LINE
  5
40C3
  8
YODOROGO
 10
28033.83678061287
 20
1786.816933133767
 30
0.0
 11
28078.06921993379
 21
1798.6689795290731
 31
0.0
  0
LINE
  5
40C4
  8
YODOROGO
 10
28033.83678061287
 20
1872.5683489362989
 30
0.0
 11
28033.83678061287
 21
1786.816933133767
 31
0.0
  0
LINE
  5
40C5
  8
YODOROGO
 10
28078.06921993379
 20
1872.5683489362989
 30
0.0
 11
28033.83678061287
 21
1872.5683489362989
 31
0.0
  0
LINE
  5
40C6
  8
YODOROGO
 10
28078.06921993379
 20
1892.568348936298
 30
0.0
 11
28078.06921993379
 21
1872.5683489362989
 31
0.0
  0
LINE
  5
40C7
  8
YODOROGO
 10
27977.604341291921
 20
1892.568348936298
 30
0.0
 11
28078.06921993379
 21
1892.568348936298
 31
0.0
  0
LINE
  5
40C8
  8
YODOROGO
 10
27977.604341291921
 20
1872.5683489362989
 30
0.0
 11
27977.604341291921
 21
1892.568348936298
 31
0.0
  0
LINE
  5
40C9
  8
YODOROGO
 10
28021.836780612852
 20
1872.5683489362989
 30
0.0
 11
27977.604341291921
 21
1872.5683489362989
 31
0.0
  0
LINE
  5
40CA
  8
YODOROGO
 10
28021.836780612852
 20
1784.673339594317
 30
0.0
 11
28021.836780612852
 21
1872.5683489362989
 31
0.0
  0
LINE
  5
40CB
  8
YODOROGO
 10
27977.604341291921
 20
1771.749496429286
 30
0.0
 11
28021.836780612852
 21
1784.673339594317
 31
0.0
  0
LINE
  5
40CC
  8
YODOROGO
 10
27977.604341291921
 20
1747.749496429286
 30
0.0
 11
27977.604341291921
 21
1771.749496429286
 31
0.0
  0
LINE
  5
40CD
  8
YODOROGO
 10
28001.604341291921
 20
1707.749496429288
 30
0.0
 11
28001.604341291921
 21
1683.7494964292871
 31
0.0
  0
LINE
  5
40CE
  8
YODOROGO
 10
28017.604341291921
 20
1707.749496429288
 30
0.0
 11
28001.604341291921
 21
1707.749496429288
 31
0.0
  0
LINE
  5
40CF
  8
YODOROGO
 10
28017.604341291921
 20
1683.7494964292871
 30
0.0
 11
28017.604341291921
 21
1707.749496429288
 31
0.0
  0
LINE
  5
40D0
  8
YODOROGO
 10
28040.913204016892
 20
1683.7494964292871
 30
0.0
 11
28017.604341291921
 21
1683.7494964292871
 31
0.0
  0
LINE
  5
40D1
  8
YODOROGO
 10
28001.604341291921
 20
1683.7494964292871
 30
0.0
 11
27977.604341291921
 21
1683.7494964292871
 31
0.0
  0
LINE
  5
40D2
  8
YODOROGO
 10
28082.135520230921
 20
1707.749496429288
 30
0.0
 11
28098.135520230931
 21
1707.749496429288
 31
0.0
1001
AUTOCAD_POSTSCRIPT_FIGURE
1002
{
1000
PSFILL
1000
Grayscale
1000
Grayscale
1070
   100
1002
}
  0
LINE
  5
40D3
  8
YODOROGO
 10
28401.60434129191
 20
1824.877625640306
 30
0.0
 11
28401.60434129191
 21
1752.877625640306
 31
0.0
1001
AUTOCAD_POSTSCRIPT_FIGURE
1002
{
1000
PSFILL
1000
Grayscale
1000
Grayscale
1070
   100
1002
}
  0
LINE
  5
40D4
  8
YODOROGO
 10
28401.60434129191
 20
1916.8776256403071
 30
0.0
 11
28401.60434129191
 21
1984.877625640306
 31
0.0
1001
AUTOCAD_POSTSCRIPT_FIGURE
1002
{
1000
PSFILL
1000
Grayscale
1000
Grayscale
1070
   100
1002
}
  0
LINE
  5
40D5
  8
YODOROGO
 10
28433.60434129191
 20
1819.7494964292871
 30
0.0
 11
28433.60434129191
 21
1747.74949642929
 31
0.0
  0
LINE
  5
40D6
  8
YODOROGO
 10
28497.60434129191
 20
1707.749496429288
 30
0.0
 11
28433.60434129191
 21
1707.749496429288
 31
0.0
  0
LINE
  5
40D7
  8
YODOROGO
 10
28433.60434129191
 20
1747.74949642929
 30
0.0
 11
28585.604341291921
 21
1747.74949642929
 31
0.0
  0
LINE
  5
40D8
  8
YODOROGO
 10
28497.60434129191
 20
1867.7494964292871
 30
0.0
 11
28433.60434129191
 21
1867.7494964292871
 31
0.0
  0
LINE
  5
40D9
  8
YODOROGO
 10
28497.60434129191
 20
1923.7494964292871
 30
0.0
 11
28497.60434129191
 21
1867.7494964292871
 31
0.0
  0
LINE
  5
40DA
  8
YODOROGO
 10
28585.604341291921
 20
1987.7494964292871
 30
0.0
 11
28585.604341291921
 21
2027.749496429288
 31
0.0
  0
LINE
  5
40DB
  8
YODOROGO
 10
28433.60434129191
 20
1987.7494964292871
 30
0.0
 11
28585.604341291921
 21
1987.7494964292871
 31
0.0
  0
LINE
  5
40DC
  8
YODOROGO
 10
28433.60434129191
 20
1867.7494964292871
 30
0.0
 11
28433.60434129191
 21
1987.7494964292871
 31
0.0
  0
LINE
  5
40DD
  8
YODOROGO
 10
29001.60434129191
 20
2027.749496429288
 30
0.0
 11
29001.60434129191
 21
1619.749496429288
 31
0.0
  0
LINE
  5
40DE
  8
YODOROGO
 10
29073.604341291921
 20
1579.749496429288
 30
0.0
 11
29073.604341291921
 21
2027.749496429288
 31
0.0
  0
LINE
  5
40DF
  8
YODOROGO
 10
29261.604341291921
 20
1491.749496429286
 30
0.0
 11
29261.604341291921
 21
2007.749496429288
 31
0.0
  0
LINE
  5
40E0
  8
YODOROGO
 10
29197.604341291921
 20
2007.749496429288
 30
0.0
 11
29197.604341291921
 21
1491.749496429286
 31
0.0
  0
LINE
  5
40E1
  8
YODOROGO
 10
29385.604341291921
 20
2027.749496429288
 30
0.0
 11
29385.604341291921
 21
1427.749496429288
 31
0.0
  0
LINE
  5
40E2
  8
YODOROGO
 10
29457.604341291921
 20
1427.749496429288
 30
0.0
 11
29457.604341291921
 21
2027.749496429288
 31
0.0
  0
LINE
  5
40E3
  8
YODOROGO
 10
28657.604341291921
 20
1667.749496429288
 30
0.0
 11
28657.604341291921
 21
1747.74949642929
 31
0.0
  0
LINE
  5
40E4
  8
YODOROGO
 10
29885.604341291921
 20
1707.749496429288
 30
0.0
 11
29885.604341291921
 21
1667.749496429288
 31
0.0
  0
LINE
  5
40E5
  8
YODOROGO
 10
29885.604341291921
 20
1707.749496429288
 30
0.0
 11
29885.604341291921
 21
1667.749496429288
 31
0.0
  0
ARC
  5
40E6
  8
YODOROGO
 10
28906.911576186842
 20
1618.217864442272
 30
0.0
 40
94.705151178741644
 50
274.05244162907098
 51
0.9266642149310712
  0
ARC
  5
40E7
  8
YODOROGO
 10
28909.186170719819
 20
1592.61072861044
 30
0.0
 40
164.92042356085511
 50
271.5351210653775
 51
355.52727750585052
  0
LINE
  5
40E8
  8
YODOROGO
 10
28913.604341291921
 20
1523.7494964292871
 30
0.0
 11
28913.604341291921
 21
1427.749496429288
 31
0.0
  0
LINE
  5
40E9
  8
YODOROGO
 10
28793.60434129191
 20
1667.749496429288
 30
0.0
 11
28657.604341291921
 21
1667.749496429288
 31
0.0
  0
LINE
  5
40EA
  8
YODOROGO
 10
28793.60434129191
 20
1603.7494964292871
 30
0.0
 11
28793.60434129191
 21
1667.749496429288
 31
0.0
  0
LINE
  5
40EB
  8
YODOROGO
 10
28657.604341291921
 20
1603.7494964292871
 30
0.0
 11
28793.60434129191
 21
1603.7494964292871
 31
0.0
  0
LINE
  5
40EC
  8
YODOROGO
 10
28657.604341291921
 20
1523.7494964292871
 30
0.0
 11
28657.604341291921
 21
1603.7494964292871
 31
0.0
  0
LINE
  5
40ED
  8
YODOROGO
 10
28793.60434129191
 20
1523.7494964292871
 30
0.0
 11
28657.604341291921
 21
1523.7494964292871
 31
0.0
  0
LINE
  5
40EE
  8
YODOROGO
 10
28793.60434129191
 20
1427.749496429288
 30
0.0
 11
28793.60434129191
 21
1523.7494964292871
 31
0.0
  0
LINE
  5
40EF
  8
YODOROGO
 10
29197.604341291921
 20
1491.749496429286
 30
0.0
 11
29261.604341291921
 21
1491.749496429286
 31
0.0
  0
LINE
  5
40F0
  8
YODOROGO
 10
29385.604341291921
 20
1427.749496429288
 30
0.0
 11
29457.604341291921
 21
1427.749496429288
 31
0.0
  0
LINE
  5
40F1
  8
YODOROGO
 10
29737.604341291921
 20
1528.4414521705639
 30
0.0
 11
29737.604341291921
 21
1427.749496429288
 31
0.0
  0
LINE
  5
40F2
  8
YODOROGO
 10
29617.604341291921
 20
1427.749496429288
 30
0.0
 11
29737.604341291921
 21
1528.4414521705639
 31
0.0
  0
LINE
  5
40F3
  8
YODOROGO
 10
29617.604341291921
 20
1547.749496429288
 30
0.0
 11
29617.604341291921
 21
1427.749496429288
 31
0.0
  0
LINE
  5
40F4
  8
YODOROGO
 10
29712.94462869945
 20
1627.749496429288
 30
0.0
 11
29617.604341291921
 21
1547.749496429288
 31
0.0
  0
LINE
  5
40F5
  8
YODOROGO
 10
29617.604341291921
 20
1627.749496429288
 30
0.0
 11
29712.94462869945
 21
1627.749496429288
 31
0.0
  0
LINE
  5
40F6
  8
YODOROGO
 10
29617.604341291921
 20
1667.749496429288
 30
0.0
 11
29617.604341291921
 21
1627.749496429288
 31
0.0
  0
LINE
  5
40F7
  8
YODOROGO
 10
29885.604341291921
 20
1667.749496429288
 30
0.0
 11
29617.604341291921
 21
1667.749496429288
 31
0.0
  0
LINE
  5
40F8
  8
YODOROGO
 10
29917.604341291921
 20
1627.749496429288
 30
0.0
 11
29777.604341291921
 21
1627.749496429288
 31
0.0
  0
LINE
  5
40F9
  8
YODOROGO
 10
29777.604341291921
 20
1562.0054374176559
 30
0.0
 11
29771.409872985321
 21
1556.807661346234
 31
0.0
  0
LINE
  5
40FA
  8
YODOROGO
 10
29777.604341291921
 20
1627.749496429288
 30
0.0
 11
29777.604341291921
 21
1562.0054374176559
 31
0.0
  0
LINE
  5
40FB
  8
YODOROGO
 10
29737.604341291921
 20
1528.4414521705639
 30
0.0
 11
29737.604341291921
 21
1427.749496429288
 31
0.0
  0
LINE
  5
40FC
  8
YODOROGO
 10
29617.604341291921
 20
1427.749496429288
 30
0.0
 11
29737.604341291921
 21
1528.4414521705639
 31
0.0
  0
LINE
  5
40FD
  8
YODOROGO
 10
29617.604341291921
 20
1547.749496429288
 30
0.0
 11
29617.604341291921
 21
1427.749496429288
 31
0.0
  0
LINE
  5
40FE
  8
YODOROGO
 10
29712.94462869945
 20
1627.749496429288
 30
0.0
 11
29617.604341291921
 21
1547.749496429288
 31
0.0
  0
LINE
  5
40FF
  8
YODOROGO
 10
29617.604341291921
 20
1627.749496429288
 30
0.0
 11
29712.94462869945
 21
1627.749496429288
 31
0.0
  0
LINE
  5
4100
  8
YODOROGO
 10
29617.604341291921
 20
1667.749496429288
 30
0.0
 11
29617.604341291921
 21
1627.749496429288
 31
0.0
  0
LINE
  5
4101
  8
YODOROGO
 10
29885.604341291921
 20
1667.749496429288
 30
0.0
 11
29617.604341291921
 21
1667.749496429288
 31
0.0
  0
LINE
  5
4102
  8
YODOROGO
 10
28793.60434129191
 20
1747.74949642929
 30
0.0
 11
28793.60434129191
 21
1819.7494964292871
 31
0.0
  0
LINE
  5
4103
  8
YODOROGO
 10
28657.604341291921
 20
1747.74949642929
 30
0.0
 11
28793.60434129191
 21
1747.74949642929
 31
0.0
  0
LINE
  5
4104
  8
YODOROGO
 10
28729.604341291921
 20
1867.7494964292871
 30
0.0
 11
28729.604341291921
 21
1923.7494964292871
 31
0.0
  0
LINE
  5
4105
  8
YODOROGO
 10
28793.60434129191
 20
1867.7494964292871
 30
0.0
 11
28729.604341291921
 21
1867.7494964292871
 31
0.0
  0
LINE
  5
4106
  8
YODOROGO
 10
28793.60434129191
 20
1947.749496429288
 30
0.0
 11
28793.60434129191
 21
1867.7494964292871
 31
0.0
  0
ARC
  5
4107
  8
YODOROGO
 10
28753.60434129191
 20
1947.749496429288
 30
0.0
 40
40.0
 50
0.0
 51
90.0
  0
LINE
  5
4108
  8
YODOROGO
 10
28657.604341291921
 20
1987.7494964292871
 30
0.0
 11
28753.60434129191
 21
1987.7494964292871
 31
0.0
  0
LINE
  5
4109
  8
YODOROGO
 10
28657.604341291921
 20
2027.749496429288
 30
0.0
 11
28657.604341291921
 21
1987.7494964292871
 31
0.0
  0
LINE
  5
410A
  8
YODOROGO
 10
29073.604341291921
 20
2027.749496429288
 30
0.0
 11
29001.60434129191
 21
2027.749496429288
 31
0.0
  0
LINE
  5
410B
  8
YODOROGO
 10
29261.604341291921
 20
2007.749496429288
 30
0.0
 11
29197.604341291921
 21
2007.749496429288
 31
0.0
  0
LINE
  5
410C
  8
YODOROGO
 10
29457.604341291921
 20
2027.749496429288
 30
0.0
 11
29385.604341291921
 21
2027.749496429288
 31
0.0
  0
LINE
  5
410D
  8
YODOROGO
 10
29673.604341291921
 20
1707.749496429288
 30
0.0
 11
29673.604341291921
 21
1771.7494964292871
 31
0.0
1001
AUTOCAD_POSTSCRIPT_FIGURE
1002
{
1000
PSFILL
1000
Grayscale
1000
Grayscale
1070
    25
1002
}
  0
LINE
  5
410E
  8
YODOROGO
 10
29617.604341291921
 20
1707.749496429288
 30
0.0
 11
29673.604341291921
 21
1707.749496429288
 31
0.0
1001
AUTOCAD_POSTSCRIPT_FIGURE
1002
{
1000
PSFILL
1000
Grayscale
1000
Grayscale
1070
    25
1002
}
  0
LINE
  5
410F
  8
YODOROGO
 10
29617.604341291921
 20
1819.7494964292871
 30
0.0
 11
29617.604341291921
 21
1707.749496429288
 31
0.0
1001
AUTOCAD_POSTSCRIPT_FIGURE
1002
{
1000
PSFILL
1000
Grayscale
1000
Grayscale
1070
    25
1002
}
  0
LINE
  5
4110
  8
YODOROGO
 10
29765.604341291921
 20
1819.7494964292871
 30
0.0
 11
29617.604341291921
 21
1819.7494964292871
 31
0.0
1001
AUTOCAD_POSTSCRIPT_FIGURE
1002
{
1000
PSFILL
1000
Grayscale
1000
Grayscale
1070
    25
1002
}
  0
LINE
  5
4111
  8
YODOROGO
 10
29765.604341291921
 20
1859.749496429288
 30
0.0
 11
29765.604341291921
 21
1819.7494964292871
 31
0.0
1001
AUTOCAD_POSTSCRIPT_FIGURE
1002
{
1000
PSFILL
1000
Grayscale
1000
Grayscale
1070
    25
1002
}
  0
LINE
  5
4112
  8
YODOROGO
 10
29617.604341291921
 20
1859.749496429288
 30
0.0
 11
29765.604341291921
 21
1859.749496429288
 31
0.0
1001
AUTOCAD_POSTSCRIPT_FIGURE
1002
{
1000
PSFILL
1000
Grayscale
1000
Grayscale
1070
    25
1002
}
  0
LINE
  5
4113
  8
YODOROGO
 10
29617.604341291921
 20
1907.7494964292871
 30
0.0
 11
29617.604341291921
 21
1859.749496429288
 31
0.0
1001
AUTOCAD_POSTSCRIPT_FIGURE
1002
{
1000
PSFILL
1000
Grayscale
1000
Grayscale
1070
    25
1002
}
  0
LINE
  5
4114
  8
YODOROGO
 10
29765.604341291921
 20
1907.7494964292871
 30
0.0
 11
29617.604341291921
 21
1907.7494964292871
 31
0.0
1001
AUTOCAD_POSTSCRIPT_FIGURE
1002
{
1000
PSFILL
1000
Grayscale
1000
Grayscale
1070
    25
1002
}
  0
LINE
  5
4115
  8
YODOROGO
 10
29765.604341291921
 20
1947.749496429288
 30
0.0
 11
29765.604341291921
 21
1907.7494964292871
 31
0.0
1001
AUTOCAD_POSTSCRIPT_FIGURE
1002
{
1000
PSFILL
1000
Grayscale
1000
Grayscale
1070
    25
1002
}
  0
LINE
  5
4116
  8
YODOROGO
 10
29617.604341291921
 20
1947.749496429288
 30
0.0
 11
29765.604341291921
 21
1947.749496429288
 31
0.0
1001
AUTOCAD_POSTSCRIPT_FIGURE
1002
{
1000
PSFILL
1000
Grayscale
1000
Grayscale
1070
    25
1002
}
  0
LINE
  5
4117
  8
YODOROGO
 10
29617.604341291921
 20
2027.749496429288
 30
0.0
 11
29617.604341291921
 21
1947.749496429288
 31
0.0
1001
AUTOCAD_POSTSCRIPT_FIGURE
1002
{
1000
PSFILL
1000
Grayscale
1000
Grayscale
1070
    25
1002
}
  0
LINE
  5
4118
  8
YODOROGO
 10
29665.604341291921
 20
2027.749496429288
 30
0.0
 11
29617.604341291921
 21
2027.749496429288
 31
0.0
1001
AUTOCAD_POSTSCRIPT_FIGURE
1002
{
1000
PSFILL
1000
Grayscale
1000
Grayscale
1070
    25
1002
}
  0
LINE
  5
4119
  8
YODOROGO
 10
29665.604341291921
 20
1995.7494964292871
 30
0.0
 11
29665.604341291921
 21
2027.749496429288
 31
0.0
1001
AUTOCAD_POSTSCRIPT_FIGURE
1002
{
1000
PSFILL
1000
Grayscale
1000
Grayscale
1070
    25
1002
}
  0
LINE
  5
411A
  8
YODOROGO
 10
29765.604341291921
 20
1995.7494964292871
 30
0.0
 11
29665.604341291921
 21
1995.7494964292871
 31
0.0
1001
AUTOCAD_POSTSCRIPT_FIGURE
1002
{
1000
PSFILL
1000
Grayscale
1000
Grayscale
1070
    25
1002
}
  0
LINE
  5
411B
  8
YODOROGO
 10
29765.604341291921
 20
2027.749496429288
 30
0.0
 11
29765.604341291921
 21
1995.7494964292871
 31
0.0
1001
AUTOCAD_POSTSCRIPT_FIGURE
1002
{
1000
PSFILL
1000
Grayscale
1000
Grayscale
1070
    25
1002
}
  0
LINE
  5
411C
  8
YODOROGO
 10
29829.604341291921
 20
2027.749496429288
 30
0.0
 11
29765.604341291921
 21
2027.749496429288
 31
0.0
1001
AUTOCAD_POSTSCRIPT_FIGURE
1002
{
1000
PSFILL
1000
Grayscale
1000
Grayscale
1070
    25
1002
}
  0
LINE
  5
411D
  8
YODOROGO
 10
29829.604341291921
 20
1995.7494964292871
 30
0.0
 11
29829.604341291921
 21
2027.749496429288
 31
0.0
1001
AUTOCAD_POSTSCRIPT_FIGURE
1002
{
1000
PSFILL
1000
Grayscale
1000
Grayscale
1070
    25
1002
}
  0
LINE
  5
411E
  8
YODOROGO
 10
29829.604341291921
 20
1907.7494964292871
 30
0.0
 11
29829.604341291921
 21
1947.749496429288
 31
0.0
1001
AUTOCAD_POSTSCRIPT_FIGURE
1002
{
1000
PSFILL
1000
Grayscale
1000
Grayscale
1070
    25
1002
}
  0
LINE
  5
411F
  8
YODOROGO
 10
29829.604341291921
 20
1819.7494964292871
 30
0.0
 11
29829.604341291921
 21
1859.749496429288
 31
0.0
1001
AUTOCAD_POSTSCRIPT_FIGURE
1002
{
1000
PSFILL
1000
Grayscale
1000
Grayscale
1070
    25
1002
}
  0
LINE
  5
4120
  8
YODOROGO
 10
29921.60434129191
 20
1771.7494964292871
 30
0.0
 11
29921.60434129191
 21
1707.749496429288
 31
0.0
1001
AUTOCAD_POSTSCRIPT_FIGURE
1002
{
1000
PSFILL
1000
Grayscale
1000
Grayscale
1070
    25
1002
}
  0
LINE
  5
4121
  8
YODOROGO
 10
29829.604341291921
 20
1771.7494964292871
 30
0.0
 11
29921.60434129191
 21
1771.7494964292871
 31
0.0
1001
AUTOCAD_POSTSCRIPT_FIGURE
1002
{
1000
PSFILL
1000
Grayscale
1000
Grayscale
1070
    25
1002
}
  0
LINE
  5
4122
  8
YODOROGO
 10
29829.604341291921
 20
1707.749496429288
 30
0.0
 11
29829.604341291921
 21
1771.7494964292871
 31
0.0
1001
AUTOCAD_POSTSCRIPT_FIGURE
1002
{
1000
PSFILL
1000
Grayscale
1000
Grayscale
1070
    25
1002
}
  0
LINE
  5
4123
  8
YODOROGO
 10
29765.604341291921
 20
1707.749496429288
 30
0.0
 11
29829.604341291921
 21
1707.749496429288
 31
0.0
1001
AUTOCAD_POSTSCRIPT_FIGURE
1002
{
1000
PSFILL
1000
Grayscale
1000
Grayscale
1070
    25
1002
}
  0
LINE
  5
4124
  8
YODOROGO
 10
29765.604341291921
 20
1771.7494964292871
 30
0.0
 11
29765.604341291921
 21
1707.749496429288
 31
0.0
1001
AUTOCAD_POSTSCRIPT_FIGURE
1002
{
1000
PSFILL
1000
Grayscale
1000
Grayscale
1070
    25
1002
}
  0
LINE
  5
4125
  8
YODOROGO
 10
29673.604341291921
 20
1771.7494964292871
 30
0.0
 11
29765.604341291921
 21
1771.7494964292871
 31
0.0
1001
AUTOCAD_POSTSCRIPT_FIGURE
1002
{
1000
PSFILL
1000
Grayscale
1000
Grayscale
1070
    25
1002
}
  0
ARC
  5
4126
  8
YODOROGO
 10
31059.517893357912
 20
1602.6807375155761
 30
0.0
 40
178.22128111072141
 50
281.02627495425338
 51
357.77113575573799
  0
LINE
  5
4127
  8
YODOROGO
 10
31413.604341291921
 20
1907.7494964292871
 30
0.0
 11
31165.604341291921
 21
1907.7494964292871
 31
0.0
  0
LINE
  5
4128
  8
YODOROGO
 10
31413.604341291921
 20
2027.749496429288
 30
0.0
 11
31165.604341291921
 21
2027.749496429288
 31
0.0
  0
LINE
  5
4129
  8
YODOROGO
 10
31165.604341291921
 20
1963.749496429286
 30
0.0
 11
31413.604341291921
 21
1963.749496429286
 31
0.0
  0
LINE
  5
412A
  8
YODOROGO
 10
30791.604341291921
 20
1563.7494964292871
 30
0.0
 11
30791.604341291921
 21
1755.7494964292871
 31
0.0
  0
LINE
  5
412B
  8
YODOROGO
 10
30763.604341291921
 20
1691.749496429288
 30
0.0
 11
30763.604341291921
 21
1563.7494964292871
 31
0.0
  0
LINE
  5
412C
  8
YODOROGO
 10
30723.604341291921
 20
1491.749496429288
 30
0.0
 11
30723.604341291921
 21
1691.749496429288
 31
0.0
  0
LINE
  5
412D
  8
YODOROGO
 10
30899.604341291932
 20
1691.749496429288
 30
0.0
 11
30899.604341291932
 21
1491.749496429288
 31
0.0
  0
LINE
  5
412E
  8
YODOROGO
 10
30859.604341291932
 20
1563.7494964292871
 30
0.0
 11
30859.604341291932
 21
1691.749496429288
 31
0.0
  0
LINE
  5
412F
  8
YODOROGO
 10
30831.604341291921
 20
1755.7494964292871
 30
0.0
 11
30831.604341291921
 21
1563.7494964292871
 31
0.0
  0
LINE
  5
4130
  8
YODOROGO
 10
30973.604341291921
 20
2027.749496429288
 30
0.0
 11
30973.604341291921
 21
1467.749496429288
 31
0.0
  0
LINE
  5
4131
  8
YODOROGO
 10
30645.604341291921
 20
1427.749496429288
 30
0.0
 11
30645.604341291921
 21
2027.749496429288
 31
0.0
  0
LINE
  5
4132
  8
YODOROGO
 10
30697.604341291932
 20
1963.749496429286
 30
0.0
 11
30697.604341291932
 21
1427.749496429288
 31
0.0
  0
LINE
  5
4133
  8
YODOROGO
 10
30925.604341291921
 20
1547.749496429288
 30
0.0
 11
30925.604341291921
 21
1963.749496429286
 31
0.0
  0
LINE
  5
4134
  8
YODOROGO
 10
30381.604341291932
 20
1627.749496429288
 30
0.0
 11
30381.604341291932
 21
1679.749496429288
 31
0.0
  0
LINE
  5
4135
  8
YODOROGO
 10
30617.604341291921
 20
1679.749496429288
 30
0.0
 11
30617.604341291921
 21
1627.749496429288
 31
0.0
  0
LINE
  5
4136
  8
YODOROGO
 10
31165.604341291921
 20
1907.7494964292871
 30
0.0
 11
31165.604341291921
 21
1635.7494964292871
 31
0.0
  0
LINE
  5
4137
  8
YODOROGO
 10
29949.60434129191
 20
1667.749496429288
 30
0.0
 11
29949.60434129191
 21
1707.749496429288
 31
0.0
  0
LINE
  5
4138
  8
YODOROGO
 10
29949.60434129191
 20
1667.749496429288
 30
0.0
 11
29949.60434129191
 21
1707.749496429288
 31
0.0
  0
ARC
  5
4139
  8
YODOROGO
 10
30537.604341291921
 20
1507.749496429288
 30
0.0
 40
80.0
 50
270.0
 51
0.0
  0
LINE
  5
413A
  8
YODOROGO
 10
30569.604341291921
 20
1599.7494964292871
 30
0.0
 11
30617.604341291921
 21
1599.7494964292871
 31
0.0
  0
LINE
  5
413B
  8
YODOROGO
 10
30617.604341291921
 20
1627.749496429288
 30
0.0
 11
30529.604341291939
 21
1627.749496429288
 31
0.0
  0
LINE
  5
413C
  8
YODOROGO
 10
30217.604341291921
 20
1667.749496429288
 30
0.0
 11
29949.60434129191
 21
1667.749496429288
 31
0.0
  0
LINE
  5
413D
  8
YODOROGO
 10
30217.604341291921
 20
1627.749496429288
 30
0.0
 11
30217.604341291921
 21
1667.749496429288
 31
0.0
  0
LINE
  5
413E
  8
YODOROGO
 10
30017.604341291921
 20
1627.749496429288
 30
0.0
 11
30217.604341291921
 21
1627.749496429288
 31
0.0
  0
ARC
  5
413F
  8
YODOROGO
 10
30230.05882870136
 20
1868.885714952901
 30
0.0
 40
321.37763628522822
 50
228.6181454618993
 51
245.660289248906
  0
LINE
  5
4140
  8
YODOROGO
 10
30105.604341291921
 20
1603.7494964292871
 30
0.0
 11
30097.60434129195
 21
1576.0728158699001
 31
0.0
  0
LINE
  5
4141
  8
YODOROGO
 10
30189.604341291921
 20
1603.7494964292871
 30
0.0
 11
30105.604341291921
 21
1603.7494964292871
 31
0.0
  0
LINE
  5
4142
  8
YODOROGO
 10
30177.604341291921
 20
1551.817722473427
 30
0.0
 11
30189.604341291921
 21
1603.7494964292871
 31
0.0
  0
ARC
  5
4143
  8
YODOROGO
 10
30230.05882870045
 20
1868.885714953002
 30
0.0
 40
321.37763628529081
 50
260.60629297969911
 51
267.77903556555862
  0
LINE
  5
4144
  8
YODOROGO
 10
30217.604341291921
 20
1427.749496429285
 30
0.0
 11
30217.604341291921
 21
1547.749496429288
 31
0.0
  0
LINE
  5
4145
  8
YODOROGO
 10
29937.604341291932
 20
1481.3393349155101
 30
0.0
 11
29937.604341291921
 21
1594.531090531141
 31
0.0
  0
LINE
  5
4146
  8
YODOROGO
 10
30217.604341291921
 20
1667.749496429288
 30
0.0
 11
29949.60434129191
 21
1667.749496429288
 31
0.0
  0
LINE
  5
4147
  8
YODOROGO
 10
30217.604341291921
 20
1627.749496429288
 30
0.0
 11
30217.604341291921
 21
1667.749496429288
 31
0.0
  0
LINE
  5
4148
  8
YODOROGO
 10
30017.604341291921
 20
1627.749496429288
 30
0.0
 11
30217.604341291921
 21
1627.749496429288
 31
0.0
  0
ARC
  5
4149
  8
YODOROGO
 10
30230.05882870136
 20
1868.885714952901
 30
0.0
 40
321.37763628522822
 50
228.6181454618993
 51
245.660289248906
  0
LINE
  5
414A
  8
YODOROGO
 10
30105.604341291921
 20
1603.7494964292871
 30
0.0
 11
30097.60434129195
 21
1576.0728158699001
 31
0.0
  0
LINE
  5
414B
  8
YODOROGO
 10
30189.604341291921
 20
1603.7494964292871
 30
0.0
 11
30105.604341291921
 21
1603.7494964292871
 31
0.0
  0
LINE
  5
414C
  8
YODOROGO
 10
30177.604341291921
 20
1551.817722473427
 30
0.0
 11
30189.604341291921
 21
1603.7494964292871
 31
0.0
  0
ARC
  5
414D
  8
YODOROGO
 10
30230.05882870045
 20
1868.885714953002
 30
0.0
 40
321.37763628529081
 50
260.60629297969911
 51
267.77903556555862
  0
LINE
  5
414E
  8
YODOROGO
 10
30217.604341291921
 20
1427.749496429285
 30
0.0
 11
30217.604341291921
 21
1547.749496429288
 31
0.0
  0
LINE
  5
414F
  8
YODOROGO
 10
29937.604341291932
 20
1481.3393349155101
 30
0.0
 11
29937.604341291921
 21
1594.531090531141
 31
0.0
  0
LINE
  5
4150
  8
YODOROGO
 10
30433.604341291921
 20
1573.749496429288
 30
0.0
 11
30381.604341291932
 21
1573.749496429288
 31
0.0
  0
LINE
  5
4151
  8
YODOROGO
 10
30433.604341291921
 20
1601.749496429285
 30
0.0
 11
30433.604341291921
 21
1573.749496429288
 31
0.0
  0
LINE
  5
4152
  8
YODOROGO
 10
30381.604341291932
 20
1601.749496429285
 30
0.0
 11
30433.604341291921
 21
1601.749496429285
 31
0.0
  0
LINE
  5
4153
  8
YODOROGO
 10
30381.604341291932
 20
1573.749496429288
 30
0.0
 11
30381.604341291932
 21
1601.749496429285
 31
0.0
  0
LINE
  5
4154
  8
YODOROGO
 10
30429.604341291921
 20
1577.7494964292871
 30
0.0
 11
30385.604341291921
 21
1577.7494964292871
 31
0.0
  0
LINE
  5
4155
  8
YODOROGO
 10
30429.604341291921
 20
1597.749496429288
 30
0.0
 11
30429.604341291921
 21
1577.7494964292871
 31
0.0
  0
LINE
  5
4156
  8
YODOROGO
 10
30385.604341291921
 20
1597.749496429288
 30
0.0
 11
30429.604341291921
 21
1597.749496429288
 31
0.0
  0
LINE
  5
4157
  8
YODOROGO
 10
30385.604341291921
 20
1577.7494964292871
 30
0.0
 11
30385.604341291921
 21
1597.749496429288
 31
0.0
  0
LINE
  5
4158
  8
YODOROGO
 10
30425.604341291921
 20
1581.749496429286
 30
0.0
 11
30389.604341291921
 21
1581.749496429286
 31
0.0
  0
LINE
  5
4159
  8
YODOROGO
 10
30425.604341291921
 20
1593.749496429288
 30
0.0
 11
30425.604341291921
 21
1581.749496429286
 31
0.0
  0
LINE
  5
415A
  8
YODOROGO
 10
30389.604341291921
 20
1593.749496429288
 30
0.0
 11
30425.604341291921
 21
1593.749496429288
 31
0.0
  0
LINE
  5
415B
  8
YODOROGO
 10
30389.604341291921
 20
1581.749496429286
 30
0.0
 11
30389.604341291921
 21
1593.749496429288
 31
0.0
  0
LINE
  5
415C
  8
YODOROGO
 10
30421.604341291932
 20
1585.7494964292871
 30
0.0
 11
30393.604341291921
 21
1585.7494964292871
 31
0.0
  0
LINE
  5
415D
  8
YODOROGO
 10
30421.604341291932
 20
1589.749496429288
 30
0.0
 11
30421.604341291932
 21
1585.7494964292871
 31
0.0
  0
LINE
  5
415E
  8
YODOROGO
 10
30393.604341291921
 20
1589.749496429288
 30
0.0
 11
30421.604341291932
 21
1589.749496429288
 31
0.0
  0
LINE
  5
415F
  8
YODOROGO
 10
30393.604341291921
 20
1585.7494964292871
 30
0.0
 11
30393.604341291921
 21
1589.749496429288
 31
0.0
  0
LINE
  5
4160
  8
YODOROGO
 10
30465.604341291921
 20
1627.749496429288
 30
0.0
 11
30381.604341291932
 21
1627.749496429288
 31
0.0
  0
LINE
  5
4161
  8
YODOROGO
 10
30465.604341291921
 20
1547.749496429288
 30
0.0
 11
30465.604341291921
 21
1627.749496429288
 31
0.0
  0
LINE
  5
4162
  8
YODOROGO
 10
30381.604341291932
 20
1547.749496429288
 30
0.0
 11
30465.604341291921
 21
1547.749496429288
 31
0.0
  0
LINE
  5
4163
  8
YODOROGO
 10
30381.604341291932
 20
1427.749496429288
 30
0.0
 11
30381.604341291932
 21
1547.749496429288
 31
0.0
  0
LINE
  5
4164
  8
YODOROGO
 10
30537.604341291921
 20
1427.749496429288
 30
0.0
 11
30381.604341291932
 21
1427.749496429288
 31
0.0
  0
LINE
  5
4165
  8
YODOROGO
 10
30569.604341291921
 20
1571.749496429285
 30
0.0
 11
30569.604341291921
 21
1599.7494964292871
 31
0.0
  0
ARC
  5
4166
  8
YODOROGO
 10
30545.604341291921
 20
1571.749496429291
 30
0.0
 40
24.000000000003752
 50
270.0
 51
359.99999999998772
  0
LINE
  5
4167
  8
YODOROGO
 10
30529.604341291939
 20
1547.749496429288
 30
0.0
 11
30545.604341291921
 21
1547.749496429288
 31
0.0
  0
LINE
  5
4168
  8
YODOROGO
 10
30529.604341291939
 20
1627.749496429288
 30
0.0
 11
30529.604341291939
 21
1547.749496429288
 31
0.0
  0
LINE
  5
4169
  8
YODOROGO
 10
30899.604341291932
 20
1547.749496429288
 30
0.0
 11
30925.604341291921
 21
1547.749496429288
 31
0.0
  0
LINE
  5
416A
  8
YODOROGO
 10
30933.604341291921
 20
1427.749496429288
 30
0.0
 11
30899.604341291932
 21
1427.749496429288
 31
0.0
  0
LINE
  5
416B
  8
YODOROGO
 10
30763.604341291921
 20
1563.7494964292871
 30
0.0
 11
30791.604341291921
 21
1563.7494964292871
 31
0.0
  0
LINE
  5
416C
  8
YODOROGO
 10
30899.604341291932
 20
1491.749496429288
 30
0.0
 11
30723.604341291921
 21
1491.749496429288
 31
0.0
  0
LINE
  5
416D
  8
YODOROGO
 10
30831.604341291921
 20
1563.7494964292871
 30
0.0
 11
30859.604341291932
 21
1563.7494964292871
 31
0.0
  0
LINE
  5
416E
  8
YODOROGO
 10
30899.604341291932
 20
1427.749496429288
 30
0.0
 11
30899.604341291932
 21
1547.749496429288
 31
0.0
  0
LINE
  5
416F
  8
YODOROGO
 10
30697.604341291932
 20
1427.749496429288
 30
0.0
 11
30645.604341291921
 21
1427.749496429288
 31
0.0
  0
LINE
  5
4170
  8
YODOROGO
 10
30617.604341291921
 20
1599.7494964292871
 30
0.0
 11
30617.604341291921
 21
1507.749496429288
 31
0.0
  0
ARC
  5
4171
  8
YODOROGO
 10
30933.604341291921
 20
1467.749496429288
 30
0.0
 40
40.0
 50
270.0
 51
0.0
  0
LINE
  5
4172
  8
YODOROGO
 10
31093.604341291921
 20
1523.7494964292871
 30
0.0
 11
31093.604341291921
 21
1427.749496429288
 31
0.0
  0
ARC
  5
4173
  8
YODOROGO
 10
31039.721395566768
 20
1637.5313901097329
 30
0.0
 40
125.8955565916754
 50
295.34052442160112
 51
359.18902303418679
  0
LINE
  5
4174
  8
YODOROGO
 10
30617.604341291921
 20
1859.749496429288
 30
0.0
 11
30497.604341291921
 21
1939.749496429288
 31
0.0
  0
LINE
  5
4175
  8
YODOROGO
 10
30497.604341291921
 20
2027.749496429288
 30
0.0
 11
30617.604341291921
 21
1947.749496429288
 31
0.0
  0
LINE
  5
4176
  8
YODOROGO
 10
30529.604341291939
 20
1679.749496429288
 30
0.0
 11
30617.604341291921
 21
1679.749496429288
 31
0.0
  0
LINE
  5
4177
  8
YODOROGO
 10
30617.604341291921
 20
1735.7494964292871
 30
0.0
 11
30529.604341291939
 21
1735.7494964292871
 31
0.0
  0
LINE
  5
4178
  8
YODOROGO
 10
30381.604341291932
 20
1795.7494964292871
 30
0.0
 11
30617.604341291921
 21
1795.7494964292871
 31
0.0
  0
LINE
  5
4179
  8
YODOROGO
 10
30081.604341291921
 20
2027.749496429288
 30
0.0
 11
30021.604341291921
 21
2027.749496429288
 31
0.0
  0
LINE
  5
417A
  8
YODOROGO
 10
30081.604341291921
 20
1827.7494964292871
 30
0.0
 11
30081.604341291921
 21
2027.749496429288
 31
0.0
  0
LINE
  5
417B
  8
YODOROGO
 10
30021.604341291921
 20
1827.7494964292871
 30
0.0
 11
30081.604341291921
 21
1827.7494964292871
 31
0.0
  0
LINE
  5
417C
  8
YODOROGO
 10
30021.604341291921
 20
2027.749496429288
 30
0.0
 11
30021.604341291921
 21
1827.7494964292871
 31
0.0
  0
LINE
  5
417D
  8
YODOROGO
 10
30161.604341291921
 20
2027.749496429288
 30
0.0
 11
30217.604341291921
 21
2027.749496429288
 31
0.0
  0
LINE
  5
417E
  8
YODOROGO
 10
30161.604341291921
 20
1811.749496429288
 30
0.0
 11
30161.604341291921
 21
2027.749496429288
 31
0.0
  0
ARC
  5
417F
  8
YODOROGO
 10
30121.604341291921
 20
1811.749496429288
 30
0.0
 40
40.0
 50
270.0
 51
0.0
  0
LINE
  5
4180
  8
YODOROGO
 10
30021.604341291921
 20
1771.7494964292871
 30
0.0
 11
30121.604341291921
 21
1771.7494964292871
 31
0.0
  0
LINE
  5
4181
  8
YODOROGO
 10
30021.604341291921
 20
1707.749496429288
 30
0.0
 11
30021.604341291921
 21
1771.7494964292871
 31
0.0
  0
LINE
  5
4182
  8
YODOROGO
 10
30137.604341291921
 20
1707.749496429288
 30
0.0
 11
30021.604341291921
 21
1707.749496429288
 31
0.0
  0
ARC
  5
4183
  8
YODOROGO
 10
30137.604341291921
 20
1787.7494964292871
 30
0.0
 40
80.0
 50
270.0
 51
0.0
  0
LINE
  5
4184
  8
YODOROGO
 10
30217.604341291921
 20
2027.749496429288
 30
0.0
 11
30217.604341291921
 21
1787.7494964292871
 31
0.0
  0
LINE
  5
4185
  8
YODOROGO
 10
29977.604341291921
 20
1947.749496429288
 30
0.0
 11
29977.604341291921
 21
1995.7494964292871
 31
0.0
1001
AUTOCAD_POSTSCRIPT_FIGURE
1002
{
1000
PSFILL
1000
Grayscale
1000
Grayscale
1070
    25
1002
}
  0
LINE
  5
4186
  8
YODOROGO
 10
29977.604341291921
 20
1859.749496429288
 30
0.0
 11
29977.604341291921
 21
1907.7494964292871
 31
0.0
1001
AUTOCAD_POSTSCRIPT_FIGURE
1002
{
1000
PSFILL
1000
Grayscale
1000
Grayscale
1070
    25
1002
}
  0
LINE
  5
4187
  8
YODOROGO
 10
29977.604341291921
 20
1707.749496429288
 30
0.0
 11
29977.604341291921
 21
1819.7494964292871
 31
0.0
1001
AUTOCAD_POSTSCRIPT_FIGURE
1002
{
1000
PSFILL
1000
Grayscale
1000
Grayscale
1070
    25
1002
}
  0
LINE
  5
4188
  8
YODOROGO
 10
30381.604341291932
 20
1907.7494964292871
 30
0.0
 11
30497.604341291921
 21
2027.749496429288
 31
0.0
  0
LINE
  5
4189
  8
YODOROGO
 10
30381.604341291932
 20
1819.7494964292871
 30
0.0
 11
30381.604341291932
 21
1907.7494964292871
 31
0.0
  0
LINE
  5
418A
  8
YODOROGO
 10
30497.604341291921
 20
1939.749496429288
 30
0.0
 11
30381.604341291932
 21
1819.7494964292871
 31
0.0
  0
LINE
  5
418B
  8
YODOROGO
 10
30465.604341291921
 20
1679.749496429288
 30
0.0
 11
30465.604341291921
 21
1735.7494964292871
 31
0.0
  0
LINE
  5
418C
  8
YODOROGO
 10
30381.604341291932
 20
1679.749496429288
 30
0.0
 11
30465.604341291921
 21
1679.749496429288
 31
0.0
  0
LINE
  5
418D
  8
YODOROGO
 10
30529.604341291939
 20
1735.7494964292871
 30
0.0
 11
30529.604341291939
 21
1679.749496429288
 31
0.0
  0
LINE
  5
418E
  8
YODOROGO
 10
30381.604341291932
 20
1735.7494964292871
 30
0.0
 11
30381.604341291932
 21
1795.7494964292871
 31
0.0
  0
LINE
  5
418F
  8
YODOROGO
 10
30465.604341291921
 20
1735.7494964292871
 30
0.0
 11
30381.604341291932
 21
1735.7494964292871
 31
0.0
  0
LINE
  5
4190
  8
YODOROGO
 10
30645.604341291921
 20
2027.749496429288
 30
0.0
 11
30973.604341291921
 21
2027.749496429288
 31
0.0
  0
LINE
  5
4191
  8
YODOROGO
 10
30925.604341291921
 20
1963.749496429286
 30
0.0
 11
30697.604341291932
 21
1963.749496429286
 31
0.0
  0
LINE
  5
4192
  8
YODOROGO
 10
30873.604341291921
 20
1819.7494964292871
 30
0.0
 11
30899.604341291932
 21
1819.7494964292871
 31
0.0
  0
LINE
  5
4193
  8
YODOROGO
 10
30899.604341291932
 20
1939.749496429288
 30
0.0
 11
30873.604341291921
 21
1819.7494964292871
 31
0.0
  0
LINE
  5
4194
  8
YODOROGO
 10
30851.604341291939
 20
1939.749496429288
 30
0.0
 11
30899.604341291932
 21
1939.749496429288
 31
0.0
  0
LINE
  5
4195
  8
YODOROGO
 10
30825.604341291921
 20
1819.7494964292871
 30
0.0
 11
30851.604341291939
 21
1939.749496429288
 31
0.0
  0
LINE
  5
4196
  8
YODOROGO
 10
30797.604341291921
 20
1819.7494964292871
 30
0.0
 11
30825.604341291921
 21
1819.7494964292871
 31
0.0
  0
LINE
  5
4197
  8
YODOROGO
 10
30771.604341291939
 20
1939.749496429288
 30
0.0
 11
30797.604341291921
 21
1819.7494964292871
 31
0.0
  0
LINE
  5
4198
  8
YODOROGO
 10
30723.604341291921
 20
1939.749496429288
 30
0.0
 11
30771.604341291939
 21
1939.749496429288
 31
0.0
  0
LINE
  5
4199
  8
YODOROGO
 10
30749.604341291921
 20
1819.7494964292871
 30
0.0
 11
30723.604341291921
 21
1939.749496429288
 31
0.0
  0
LINE
  5
419A
  8
YODOROGO
 10
30723.604341291921
 20
1819.7494964292871
 30
0.0
 11
30749.604341291921
 21
1819.7494964292871
 31
0.0
  0
LINE
  5
419B
  8
YODOROGO
 10
30723.604341291921
 20
1755.7494964292871
 30
0.0
 11
30723.604341291921
 21
1819.7494964292871
 31
0.0
  0
LINE
  5
419C
  8
YODOROGO
 10
30899.604341291932
 20
1755.7494964292871
 30
0.0
 11
30723.604341291921
 21
1755.7494964292871
 31
0.0
  0
LINE
  5
419D
  8
YODOROGO
 10
30899.604341291932
 20
1819.7494964292871
 30
0.0
 11
30899.604341291932
 21
1755.7494964292871
 31
0.0
  0
LINE
  5
419E
  8
YODOROGO
 10
30617.604341291921
 20
1947.749496429288
 30
0.0
 11
30617.604341291921
 21
1859.749496429288
 31
0.0
  0
LINE
  5
419F
  8
YODOROGO
 10
30791.604341291921
 20
1755.7494964292871
 30
0.0
 11
30831.604341291921
 21
1755.7494964292871
 31
0.0
  0
LINE
  5
41A0
  8
YODOROGO
 10
30723.604341291921
 20
1691.749496429288
 30
0.0
 11
30763.604341291921
 21
1691.749496429288
 31
0.0
  0
LINE
  5
41A1
  8
YODOROGO
 10
30859.604341291932
 20
1691.749496429288
 30
0.0
 11
30899.604341291932
 21
1691.749496429288
 31
0.0
  0
LINE
  5
41A2
  8
YODOROGO
 10
30617.604341291921
 20
1795.7494964292871
 30
0.0
 11
30617.604341291921
 21
1735.7494964292871
 31
0.0
  0
LINE
  5
41A3
  8
YODOROGO
 10
31165.604341291921
 20
2027.749496429288
 30
0.0
 11
31165.604341291921
 21
1963.749496429286
 31
0.0
  0
LINE
  5
41A4
  8
YODOROGO
 10
31533.604341291921
 20
1595.7494964292871
 30
0.0
 11
31533.60434129191
 21
1811.749496429288
 31
0.0
  0
LINE
  5
41A5
  8
YODOROGO
 10
31461.60434129191
 20
1987.7494964292871
 30
0.0
 11
31461.60434129191
 21
1635.7494964292871
 31
0.0
  0
LINE
  5
41A6
  8
YODOROGO
 10
31653.604341291921
 20
1427.749496429288
 30
0.0
 11
31653.60434129191
 21
1811.749496429288
 31
0.0
  0
LINE
  5
41A7
  8
YODOROGO
 10
31589.604341291921
 20
1811.749496429288
 30
0.0
 11
31589.604341291921
 21
1427.749496429288
 31
0.0
  0
LINE
  5
41A8
  8
YODOROGO
 10
31237.604341291921
 20
1595.7494964292871
 30
0.0
 11
31237.604341291921
 21
1707.749496429288
 31
0.0
  0
ARC
  5
41A9
  8
YODOROGO
 10
31353.914865116069
 20
1607.790351288558
 30
0.0
 40
180.0924485759885
 50
268.62849102169793
 51
356.16638457330322
  0
LINE
  5
41AA
  8
YODOROGO
 10
31349.604341291939
 20
1527.749496429288
 30
0.0
 11
31349.604341291939
 21
1427.749496429288
 31
0.0
  0
ARC
  5
41AB
  8
YODOROGO
 10
31351.518075724562
 20
1637.838957017655
 30
0.0
 40
110.1060929836122
 50
269.00410209305932
 51
358.91264455492478
  0
LINE
  5
41AC
  8
YODOROGO
 10
31589.604341291921
 20
1427.749496429288
 30
0.0
 11
31653.604341291921
 21
1427.749496429288
 31
0.0
  0
LINE
  5
41AD
  8
YODOROGO
 10
31533.60434129191
 20
1811.749496429288
 30
0.0
 11
31589.604341291921
 21
1811.749496429288
 31
0.0
  0
LINE
  5
41AE
  8
YODOROGO
 10
31621.604341291939
 20
1987.7494964292871
 30
0.0
 11
31461.60434129191
 21
1987.7494964292871
 31
0.0
  0
LINE
  5
41AF
  8
YODOROGO
 10
31533.60434129191
 20
1915.7494964292871
 30
0.0
 11
31661.604341291939
 21
1915.7494964292871
 31
0.0
  0
LINE
  5
41B0
  8
YODOROGO
 10
31701.604341291939
 20
1875.7494964292871
 30
0.0
 11
31533.60434129191
 21
1875.7494964292871
 31
0.0
  0
LINE
  5
41B1
  8
YODOROGO
 10
31237.604341291921
 20
1779.749496429288
 30
0.0
 11
31349.604341291939
 21
1779.749496429288
 31
0.0
  0
LINE
  5
41B2
  8
YODOROGO
 10
31237.604341291921
 20
1835.7494964292871
 30
0.0
 11
31237.604341291921
 21
1779.749496429288
 31
0.0
  0
LINE
  5
41B3
  8
YODOROGO
 10
31349.604341291939
 20
1835.7494964292871
 30
0.0
 11
31237.604341291921
 21
1835.7494964292871
 31
0.0
  0
LINE
  5
41B4
  8
YODOROGO
 10
31349.604341291939
 20
1779.749496429288
 30
0.0
 11
31349.604341291939
 21
1835.7494964292871
 31
0.0
  0
LINE
  5
41B5
  8
YODOROGO
 10
31533.60434129191
 20
1875.7494964292871
 30
0.0
 11
31533.60434129191
 21
1915.7494964292871
 31
0.0
  0
LINE
  5
41B6
  8
YODOROGO
 10
31413.604341291921
 20
1707.749496429288
 30
0.0
 11
31413.604341291921
 21
1907.7494964292871
 31
0.0
  0
LINE
  5
41B7
  8
YODOROGO
 10
31237.604341291921
 20
1707.749496429288
 30
0.0
 11
31413.604341291921
 21
1707.749496429288
 31
0.0
  0
LINE
  5
41B8
  8
YODOROGO
 10
31413.604341291921
 20
1963.749496429286
 30
0.0
 11
31413.604341291921
 21
2027.749496429288
 31
0.0
  0
ARC
  5
41B9
  8
YODOROGO
 10
31621.604341291939
 20
2003.749496429285
 30
0.0
 40
15.999999999994539
 50
270.0
 51
0.0000000000081422
  0
LINE
  5
41BA
  8
YODOROGO
 10
31637.604341291921
 20
2027.749496429288
 30
0.0
 11
31637.604341291921
 21
2003.7494964292871
 31
0.0
  0
LINE
  5
41BB
  8
YODOROGO
 10
31701.604341291939
 20
2027.749496429288
 30
0.0
 11
31637.604341291921
 21
2027.749496429288
 31
0.0
  0
LINE
  5
41BC
  8
YODOROGO
 10
31701.604341291939
 20
1955.7494964292871
 30
0.0
 11
31701.604341291939
 21
2027.749496429288
 31
0.0
  0
ARC
  5
41BD
  8
YODOROGO
 10
31661.604341291939
 20
1955.7494964292871
 30
0.0
 40
40.0
 50
270.0
 51
0.0
  0
LINE
  5
41BE
  8
YODOROGO
 10
31701.604341291939
 20
1811.749496429288
 30
0.0
 11
31701.604341291939
 21
1875.7494964292871
 31
0.0
  0
LINE
  5
41BF
  8
YODOROGO
 10
31653.60434129191
 20
1811.749496429288
 30
0.0
 11
31701.604341291939
 21
1811.749496429288
 31
0.0
  0
LINE
  5
41C0
  8
SUNPOU
  6
CONTINUOUS
 62
     4
 10
5529.444573000017
 20
13723.438148999971
 30
0.0
 11
5529.444573000017
 21
12443.43293599999
 31
0.0
  0
LINE
  5
41C1
  8
SUNPOU
  6
CONTINUOUS
 62
     4
 10
14273.444468000011
 20
13723.438148999971
 30
0.0
 11
14273.444468000011
 21
12443.43293599999
 31
0.0
  0
LINE
  5
41C2
  8
SUNPOU
  6
CONTINUOUS
 62
     4
 10
5529.444573000017
 20
12523.43293599999
 30
0.0
 11
14273.444468000011
 21
12523.43293599999
 31
0.0
  0
LINE
  5
41C3
  8
SUNPOU
  6
CONTINUOUS
 62
     4
 10
5443.9445730000198
 20
19783.931353
 30
0.0
 11
5443.9445730000198
 21
20333.936632000001
 31
0.0
  0
LINE
  5
41C4
  8
SUNPOU
  6
CONTINUOUS
 62
     4
 10
5529.4445730000243
 20
20253.936632000001
 30
0.0
 11
5769.4445730000216
 21
20253.936632000001
 31
0.0
  0
LINE
  5
41C5
  8
SUNPOU
  6
CONTINUOUS
 62
     4
 10
5446.9445730000198
 20
20253.936632000001
 30
0.0
 11
5206.9445730000216
 21
20253.936632000001
 31
0.0
  0
LINE
  5
41C6
  8
SUNPOU
  6
CONTINUOUS
 62
     4
 10
5529.4445730000243
 20
20253.936632000001
 30
0.0
 11
5446.9445730000198
 21
20253.936632000001
 31
0.0
  0
LINE
  5
41C7
  8
SUNPOU
  6
CONTINUOUS
 62
     4
 10
8447.4445730000225
 20
20253.936632000001
 30
0.0
 11
5529.4445730000243
 21
20253.936632000001
 31
0.0
  0
LINE
  5
41C8
  8
SUNPOU
  6
CONTINUOUS
 62
     4
 10
11355.444468000011
 20
20253.936632000001
 30
0.0
 11
8447.4445730000225
 21
20253.936632000001
 31
0.0
  0
LINE
  5
41C9
  8
SUNPOU
  6
CONTINUOUS
 62
     4
 10
14358.944468000011
 20
19783.931353
 30
0.0
 11
14358.944468000011
 21
20333.936632000001
 31
0.0
  0
LINE
  5
41CA
  8
SUNPOU
  6
CONTINUOUS
 62
     4
 10
14273.444468000011
 20
20253.936632000001
 30
0.0
 11
14033.444468000011
 21
20253.936632000001
 31
0.0
  0
LINE
  5
41CB
  8
SUNPOU
  6
CONTINUOUS
 62
     4
 10
14355.944468000011
 20
20253.936632000001
 30
0.0
 11
14595.944468000011
 21
20253.936632000001
 31
0.0
  0
LINE
  5
41CC
  8
SUNPOU
  6
CONTINUOUS
 62
     4
 10
14273.444468000011
 20
20253.936632000001
 30
0.0
 11
14355.944468000011
 21
20253.936632000001
 31
0.0
  0
LINE
  5
41CD
  8
SUNPOU
  6
CONTINUOUS
 62
     4
 10
11355.444468000011
 20
20253.936632000001
 30
0.0
 11
14273.444468000011
 21
20253.936632000001
 31
0.0
  0
LINE
  5
41CE
  8
SUNPOU
  6
CONTINUOUS
 62
     4
 10
5366.9329500000131
 20
13803.44012899999
 30
0.0
 11
4519.9375290000125
 21
13803.44012899999
 31
0.0
  0
LINE
  5
41CF
  8
SUNPOU
  6
CONTINUOUS
 62
     4
 10
4599.9375290000153
 20
13995.935443999981
 30
0.0
 11
4599.9375290000153
 21
13803.44012899999
 31
0.0
  0
LINE
  5
41D0
  8
SUNPOU
  6
CONTINUOUS
 62
     4
 10
4599.9375290000153
 20
16913.935443999992
 30
0.0
 11
4599.9375290000153
 21
13995.935443999981
 31
0.0
  0
LINE
  5
41D1
  8
SUNPOU
  6
CONTINUOUS
 62
     4
 10
5366.9329500000131
 20
19693.931352999989
 30
0.0
 11
4919.9375290000116
 21
19693.931352999989
 31
0.0
  0
LINE
  5
41D2
  8
SUNPOU
  6
CONTINUOUS
 62
     4
 10
5366.937305000014
 20
19703.931353
 30
0.0
 11
4919.9375290000116
 21
19703.931353
 31
0.0
  0
LINE
  5
41D3
  8
SUNPOU
  6
CONTINUOUS
 62
     4
 10
4999.9375290000144
 20
19693.931352999989
 30
0.0
 11
4999.9375290000144
 21
19453.931353
 31
0.0
  0
LINE
  5
41D4
  8
SUNPOU
  6
CONTINUOUS
 62
     4
 10
4999.9375290000144
 20
19703.931353
 30
0.0
 11
4999.9375290000144
 21
19943.931353
 31
0.0
  0
LINE
  5
41D5
  8
SUNPOU
  6
CONTINUOUS
 62
     4
 10
4999.9375290000144
 20
19693.931352999989
 30
0.0
 11
4999.9375290000144
 21
19703.931353
 31
0.0
  0
LINE
  5
41D6
  8
SUNPOU
  6
CONTINUOUS
 62
     4
 10
5366.937305000014
 20
19703.931353
 30
0.0
 11
4519.9375290000153
 21
19703.931353
 31
0.0
  0
LINE
  5
41D7
  8
SUNPOU
  6
CONTINUOUS
 62
     4
 10
4599.9375290000153
 20
19481.435443999981
 30
0.0
 11
4599.9375290000153
 21
19703.931353
 31
0.0
  0
LINE
  5
41D8
  8
SUNPOU
  6
CONTINUOUS
 62
     4
 10
4599.9375290000153
 20
16913.935443999992
 30
0.0
 11
4599.9375290000153
 21
19481.435443999981
 31
0.0
  0
LINE
  5
41D9
  8
SUNPOU
  6
CONTINUOUS
 62
     4
 10
18472.543991999992
 20
19603.933729
 30
0.0
 11
18472.543991999992
 21
20333.936632000001
 31
0.0
  0
LINE
  5
41DA
  8
SUNPOU
  6
CONTINUOUS
 62
     4
 10
17714.543991999992
 20
19603.933729
 30
0.0
 11
17714.543991999992
 21
20333.936632000001
 31
0.0
  0
LINE
  5
41DB
  8
SUNPOU
  6
CONTINUOUS
 62
     4
 10
18472.543991999992
 20
20253.936632000001
 30
0.0
 11
17714.543991999992
 21
20253.936632000001
 31
0.0
  0
LINE
  5
41DC
  8
SUNPOU
  6
CONTINUOUS
 62
     4
 10
23890.549270999971
 20
19603.933729
 30
0.0
 11
23890.549270999971
 21
20333.936632000001
 31
0.0
  0
LINE
  5
41DD
  8
SUNPOU
  6
CONTINUOUS
 62
     4
 10
23132.54927099996
 20
19603.933729
 30
0.0
 11
23132.54927099996
 21
20333.936632000001
 31
0.0
  0
LINE
  5
41DE
  8
SUNPOU
  6
CONTINUOUS
 62
     4
 10
23890.549270999971
 20
20253.936632000001
 30
0.0
 11
23132.54927099996
 21
20253.936632000001
 31
0.0
  0
LINE
  5
41DF
  8
SUNPOU
  6
CONTINUOUS
 62
     4
 10
26173.04755499995
 20
19073.935443999992
 30
0.0
 11
27223.048874999949
 21
19073.935443999992
 31
0.0
  0
LINE
  5
41E0
  8
SUNPOU
  6
CONTINUOUS
 62
     4
 10
27023.048874999949
 20
19481.435443999992
 30
0.0
 11
27223.048874999949
 21
19481.435443999992
 31
0.0
  0
LINE
  5
41E1
  8
SUNPOU
  6
CONTINUOUS
 62
     4
 10
27143.048874999949
 20
19073.935443999992
 30
0.0
 11
27143.048874999949
 21
19481.435443999992
 31
0.0
  0
LINE
  5
41E2
  8
2-0
  6
CONTINUOUS
 62
     3
 10
23090.04927099996
 20
13953.43544399999
 30
0.0
 11
23175.04927099996
 21
13953.43544399999
 31
0.0
  0
LINE
  5
41E3
  8
2-0
  6
CONTINUOUS
 62
     3
 10
23175.04927099996
 20
13953.43544399999
 30
0.0
 11
23175.04927099996
 21
14038.43544399999
 31
0.0
  0
LINE
  5
41E4
  8
2-0
  6
CONTINUOUS
 62
     3
 10
23175.04927099996
 20
14038.43544399999
 30
0.0
 11
23090.04927099996
 21
14038.43544399999
 31
0.0
  0
LINE
  5
41E5
  8
2-0
  6
CONTINUOUS
 62
     3
 10
23090.04927099996
 20
14038.43544399999
 30
0.0
 11
23090.04927099996
 21
13953.43544399999
 31
0.0
  0
LINE
  5
41E6
  8
2-0
  6
CONTINUOUS
 62
     3
 10
20590.043991999992
 20
13953.43544399999
 30
0.0
 11
20675.043991999992
 21
13953.43544399999
 31
0.0
  0
LINE
  5
41E7
  8
2-0
  6
CONTINUOUS
 62
     3
 10
20675.043991999992
 20
13953.43544399999
 30
0.0
 11
20675.043991999992
 21
14038.43544399999
 31
0.0
  0
LINE
  5
41E8
  8
2-0
  6
CONTINUOUS
 62
     3
 10
20675.043991999992
 20
14038.43544399999
 30
0.0
 11
20590.043991999992
 21
14038.43544399999
 31
0.0
  0
LINE
  5
41E9
  8
2-0
  6
CONTINUOUS
 62
     3
 10
20590.043991999992
 20
14038.43544399999
 30
0.0
 11
20590.043991999992
 21
13953.43544399999
 31
0.0
  0
LINE
  5
41EA
  8
SUNPOU
  6
CONTINUOUS
 62
     4
 10
26050.54927099996
 20
13290.17200999998
 30
0.0
 11
26050.54927099996
 21
12944.487359999979
 31
0.0
  0
LINE
  5
41EB
  8
SUNPOU
  6
CONTINUOUS
 62
     4
 10
26008.047027999961
 20
13873.438148999991
 30
0.0
 11
26008.047027999961
 21
12944.487359999979
 31
0.0
  0
LINE
  5
41EC
  8
SUNPOU
  6
CONTINUOUS
 62
     4
 10
26050.54927099996
 20
13024.487359999979
 30
0.0
 11
26290.54927099996
 21
13024.487359999979
 31
0.0
  0
LINE
  5
41ED
  8
SUNPOU
  6
CONTINUOUS
 62
     4
 10
26008.047027999961
 20
13024.487359999979
 30
0.0
 11
25768.047027999961
 21
13024.487359999979
 31
0.0
  0
LINE
  5
41EE
  8
SUNPOU
  6
CONTINUOUS
 62
     4
 10
26050.54927099996
 20
13024.487359999979
 30
0.0
 11
26008.047027999961
 21
13024.487359999979
 31
0.0
  0
LINE
  5
41EF
  8
SUNPOU
  6
CONTINUOUS
 62
     4
 10
17714.543991999992
 20
13290.17200999998
 30
0.0
 11
17714.543991999992
 21
12944.487359999979
 31
0.0
  0
LINE
  5
41F0
  8
SUNPOU
  6
CONTINUOUS
 62
     4
 10
17757.04623499998
 20
13873.438148999991
 30
0.0
 11
17757.04623499998
 21
12944.487359999979
 31
0.0
  0
LINE
  5
41F1
  8
SUNPOU
  6
CONTINUOUS
 62
     4
 10
17714.543991999992
 20
13024.487359999979
 30
0.0
 11
17474.543991999992
 21
13024.487359999979
 31
0.0
  0
LINE
  5
41F2
  8
SUNPOU
  6
CONTINUOUS
 62
     4
 10
17757.04623499998
 20
13024.487359999979
 30
0.0
 11
17997.04623499998
 21
13024.487359999979
 31
0.0
  0
LINE
  5
41F3
  8
SUNPOU
  6
CONTINUOUS
 62
     4
 10
17714.543991999992
 20
13024.487359999979
 30
0.0
 11
17757.04623499998
 21
13024.487359999979
 31
0.0
  0
LINE
  5
41F4
  8
SUNPOU
  6
CONTINUOUS
 62
     4
 10
17714.543991999992
 20
13290.17200999998
 30
0.0
 11
17714.543991999992
 21
12544.487359999979
 31
0.0
  0
LINE
  5
41F5
  8
SUNPOU
  6
CONTINUOUS
 62
     4
 10
26050.54927099996
 20
13290.17200999998
 30
0.0
 11
26050.54927099996
 21
12544.487359999979
 31
0.0
  0
LINE
  5
41F6
  8
SUNPOU
  6
CONTINUOUS
 62
     4
 10
17714.543991999992
 20
12624.487359999979
 30
0.0
 11
26050.54927099996
 21
12624.487359999979
 31
0.0
  0
LINE
  5
41F7
  8
SUNPOU
  6
CONTINUOUS
 62
     4
 10
26173.047554999961
 20
14753.93544399999
 30
0.0
 11
27223.048874999949
 21
14753.93544399999
 31
0.0
  0
LINE
  5
41F8
  8
SUNPOU
  6
CONTINUOUS
 62
     4
 10
27023.048874999949
 20
13995.935443999981
 30
0.0
 11
27223.048874999949
 21
13995.935443999981
 31
0.0
  0
LINE
  5
41F9
  8
SUNPOU
  6
CONTINUOUS
 62
     4
 10
27143.048874999949
 20
14753.93544399999
 30
0.0
 11
27143.048874999949
 21
13995.935443999981
 31
0.0
  0
LINE
  5
41FA
  8
SUNPOU
  6
CONTINUOUS
 62
     4
 10
26173.047554999961
 20
15455.175955500001
 30
0.0
 11
27223.048874999949
 21
15455.175955500001
 31
0.0
  0
LINE
  5
41FB
  8
SUNPOU
  6
CONTINUOUS
 62
     4
 10
26173.047554999961
 20
14753.93544399999
 30
0.0
 11
27223.048874999949
 21
14753.93544399999
 31
0.0
  0
LINE
  5
41FC
  8
SUNPOU
  6
CONTINUOUS
 62
     4
 10
27143.048874999949
 20
15455.175955500001
 30
0.0
 11
27143.048874999949
 21
14753.93544399999
 31
0.0
  0
LINE
  5
41FD
  8
SUNPOU
  6
CONTINUOUS
 62
     4
 10
26173.047554999961
 20
16155.93544399999
 30
0.0
 11
27223.048874999949
 21
16155.93544399999
 31
0.0
  0
LINE
  5
41FE
  8
SUNPOU
  6
CONTINUOUS
 62
     4
 10
26173.047554999961
 20
15455.175955500001
 30
0.0
 11
27223.048874999949
 21
15455.175955500001
 31
0.0
  0
LINE
  5
41FF
  8
SUNPOU
  6
CONTINUOUS
 62
     4
 10
27143.048874999949
 20
16155.93544399999
 30
0.0
 11
27143.048874999949
 21
15455.175955500001
 31
0.0
  0
LINE
  5
4200
  8
SUNPOU
  6
CONTINUOUS
 62
     4
 10
27023.048874999949
 20
16913.935443999992
 30
0.0
 11
27223.048874999949
 21
16913.935443999992
 31
0.0
  0
LINE
  5
4201
  8
SUNPOU
  6
CONTINUOUS
 62
     4
 10
26173.047554999961
 20
16155.93544399999
 30
0.0
 11
27223.048874999949
 21
16155.93544399999
 31
0.0
  0
LINE
  5
4202
  8
SUNPOU
  6
CONTINUOUS
 62
     4
 10
27143.048874999949
 20
16913.935443999992
 30
0.0
 11
27143.048874999949
 21
16155.93544399999
 31
0.0
  0
LINE
  5
4203
  8
SUNPOU
  6
CONTINUOUS
 62
     4
 10
26173.047554999961
 20
17671.935443999992
 30
0.0
 11
27223.048874999949
 21
17671.935443999992
 31
0.0
  0
LINE
  5
4204
  8
SUNPOU
  6
CONTINUOUS
 62
     4
 10
27023.048874999949
 20
16913.935443999992
 30
0.0
 11
27223.048874999949
 21
16913.935443999992
 31
0.0
  0
LINE
  5
4205
  8
SUNPOU
  6
CONTINUOUS
 62
     4
 10
27143.048874999949
 20
17671.935443999992
 30
0.0
 11
27143.048874999949
 21
16913.935443999992
 31
0.0
  0
LINE
  5
4206
  8
SUNPOU
  6
CONTINUOUS
 62
     4
 10
26173.047554999961
 20
18372.935443999992
 30
0.0
 11
27223.048874999949
 21
18372.935443999992
 31
0.0
  0
LINE
  5
4207
  8
SUNPOU
  6
CONTINUOUS
 62
     4
 10
26173.047554999961
 20
17671.935443999992
 30
0.0
 11
27223.048874999949
 21
17671.935443999992
 31
0.0
  0
LINE
  5
4208
  8
SUNPOU
  6
CONTINUOUS
 62
     4
 10
27143.048874999949
 20
18372.935443999992
 30
0.0
 11
27143.048874999949
 21
17671.935443999992
 31
0.0
  0
LINE
  5
4209
  8
SUNPOU
  6
CONTINUOUS
 62
     4
 10
26173.047554999961
 20
19073.935443999992
 30
0.0
 11
27223.048874999949
 21
19073.935443999992
 31
0.0
  0
LINE
  5
420A
  8
SUNPOU
  6
CONTINUOUS
 62
     4
 10
26173.047554999961
 20
18372.935443999992
 30
0.0
 11
27223.048874999949
 21
18372.935443999992
 31
0.0
  0
LINE
  5
420B
  8
SUNPOU
  6
CONTINUOUS
 62
     4
 10
27143.048874999949
 20
19073.935443999992
 30
0.0
 11
27143.048874999949
 21
18372.935443999992
 31
0.0
  0
LINE
  5
420C
  8
SUNPOU
  6
CONTINUOUS
 62
     4
 10
27023.048874999949
 20
16913.935443999992
 30
0.0
 11
27623.04887499996
 21
16913.935443999992
 31
0.0
  0
LINE
  5
420D
  8
SUNPOU
  6
CONTINUOUS
 62
     4
 10
27023.048874999949
 20
19481.435443999981
 30
0.0
 11
27623.04887499996
 21
19481.435443999981
 31
0.0
  0
LINE
  5
420E
  8
SUNPOU
  6
CONTINUOUS
 62
     4
 10
27543.04887499996
 20
16913.935443999992
 30
0.0
 11
27543.04887499996
 21
19481.435443999981
 31
0.0
  0
LINE
  5
420F
  8
SUNPOU
  6
CONTINUOUS
 62
     4
 10
27023.048874999949
 20
13995.935443999981
 30
0.0
 11
27623.04887499996
 21
13995.935443999981
 31
0.0
  0
LINE
  5
4210
  8
SUNPOU
  6
CONTINUOUS
 62
     4
 10
27023.048874999949
 20
16913.935443999992
 30
0.0
 11
27623.04887499996
 21
16913.935443999992
 31
0.0
  0
LINE
  5
4211
  8
SUNPOU
  6
CONTINUOUS
 62
     4
 10
27543.04887499996
 20
13995.935443999981
 30
0.0
 11
27543.04887499996
 21
16913.935443999992
 31
0.0
  0
LINE
  5
4212
  8
SUNPOU
  6
CONTINUOUS
 62
     4
 10
26173.047554999961
 20
19523.932738999982
 30
0.0
 11
28023.04887499996
 21
19523.932738999982
 31
0.0
  0
LINE
  5
4213
  8
SUNPOU
  6
CONTINUOUS
 62
     4
 10
26173.047554999961
 20
13953.438148999991
 30
0.0
 11
28023.04887499996
 21
13953.438148999991
 31
0.0
  0
LINE
  5
4214
  8
SUNPOU
  6
CONTINUOUS
 62
     4
 10
27943.04887499996
 20
19523.932738999982
 30
0.0
 11
27943.04887499996
 21
13953.438148999991
 31
0.0
  0
LINE
  5
4215
  8
SUNPOU
  6
CONTINUOUS
 62
     4
 10
27023.048874999949
 20
19481.435443999981
 30
0.0
 11
27623.04887499996
 21
19481.435443999981
 31
0.0
  0
LINE
  5
4216
  8
SUNPOU
  6
CONTINUOUS
 62
     4
 10
26173.047554999961
 20
19523.932738999982
 30
0.0
 11
27623.04887499996
 21
19523.932738999982
 31
0.0
  0
LINE
  5
4217
  8
SUNPOU
  6
CONTINUOUS
 62
     4
 10
27543.04887499996
 20
19481.435443999981
 30
0.0
 11
27543.04887499996
 21
19241.435443999981
 31
0.0
  0
LINE
  5
4218
  8
SUNPOU
  6
CONTINUOUS
 62
     4
 10
27543.04887499996
 20
19523.932738999982
 30
0.0
 11
27543.04887499996
 21
19763.932738999989
 31
0.0
  0
LINE
  5
4219
  8
SUNPOU
  6
CONTINUOUS
 62
     4
 10
27543.04887499996
 20
19481.435443999981
 30
0.0
 11
27543.04887499996
 21
19523.932738999982
 31
0.0
  0
LINE
  5
421A
  8
SUNPOU
  6
CONTINUOUS
 62
     4
 10
27023.048874999949
 20
13995.935443999981
 30
0.0
 11
27623.04887499996
 21
13995.935443999981
 31
0.0
  0
LINE
  5
421B
  8
SUNPOU
  6
CONTINUOUS
 62
     4
 10
26173.047554999961
 20
13953.438148999991
 30
0.0
 11
27623.04887499996
 21
13953.438148999991
 31
0.0
  0
LINE
  5
421C
  8
SUNPOU
  6
CONTINUOUS
 62
     4
 10
27543.04887499996
 20
13995.935443999981
 30
0.0
 11
27543.04887499996
 21
14235.93544399999
 31
0.0
  0
LINE
  5
421D
  8
SUNPOU
  6
CONTINUOUS
 62
     4
 10
27543.04887499996
 20
13953.438148999991
 30
0.0
 11
27543.04887499996
 21
13713.438148999991
 31
0.0
  0
LINE
  5
421E
  8
SUNPOU
  6
CONTINUOUS
 62
     4
 10
27543.04887499996
 20
13995.935443999981
 30
0.0
 11
27543.04887499996
 21
13953.438148999991
 31
0.0
  0
LINE
  5
421F
  8
SUNPOU
  6
CONTINUOUS
 62
     4
 10
20632.544981499999
 20
19603.933729
 30
0.0
 11
20632.544981499999
 21
20333.936632000001
 31
0.0
  0
LINE
  5
4220
  8
SUNPOU
  6
CONTINUOUS
 62
     4
 10
23132.54927099996
 20
19603.933729
 30
0.0
 11
23132.54927099996
 21
20333.936632000001
 31
0.0
  0
LINE
  5
4221
  8
SUNPOU
  6
CONTINUOUS
 62
     4
 10
20632.544981499999
 20
20253.936632000001
 30
0.0
 11
23132.54927099996
 21
20253.936632000001
 31
0.0
  0
LINE
  5
4222
  8
SUNPOU
  6
CONTINUOUS
 62
     4
 10
25292.54927099996
 20
19603.933729
 30
0.0
 11
25292.54927099996
 21
20333.936632000001
 31
0.0
  0
LINE
  5
4223
  8
SUNPOU
  6
CONTINUOUS
 62
     4
 10
26050.55026049996
 20
19603.933729
 30
0.0
 11
26050.55026049996
 21
20333.936632000001
 31
0.0
  0
LINE
  5
4224
  8
SUNPOU
  6
CONTINUOUS
 62
     4
 10
25292.54927099996
 20
20253.936632000001
 30
0.0
 11
26050.55026049996
 21
20253.936632000001
 31
0.0
  0
LINE
  5
4225
  8
SUNPOU
  6
CONTINUOUS
 62
     4
 10
24591.54927099996
 20
19603.933729
 30
0.0
 11
24591.54927099996
 21
20333.936632000001
 31
0.0
  0
LINE
  5
4226
  8
SUNPOU
  6
CONTINUOUS
 62
     4
 10
25292.54927099996
 20
19603.933729
 30
0.0
 11
25292.54927099996
 21
20333.936632000001
 31
0.0
  0
LINE
  5
4227
  8
SUNPOU
  6
CONTINUOUS
 62
     4
 10
24591.54927099996
 20
20253.936632000001
 30
0.0
 11
25292.54927099996
 21
20253.936632000001
 31
0.0
  0
LINE
  5
4228
  8
SUNPOU
  6
CONTINUOUS
 62
     4
 10
23890.549270999971
 20
19603.933729
 30
0.0
 11
23890.549270999971
 21
20333.936632000001
 31
0.0
  0
LINE
  5
4229
  8
SUNPOU
  6
CONTINUOUS
 62
     4
 10
24591.54927099996
 20
19603.933729
 30
0.0
 11
24591.54927099996
 21
20333.936632000001
 31
0.0
  0
LINE
  5
422A
  8
SUNPOU
  6
CONTINUOUS
 62
     4
 10
23890.549270999971
 20
20253.936632000001
 30
0.0
 11
24591.54927099996
 21
20253.936632000001
 31
0.0
  0
LINE
  5
422B
  8
SUNPOU
  6
CONTINUOUS
 62
     4
 10
26050.54927099996
 20
19603.933729
 30
0.0
 11
26050.54927099996
 21
20333.936632000001
 31
0.0
  0
LINE
  5
422C
  8
SUNPOU
  6
CONTINUOUS
 62
     4
 10
26093.04557599996
 20
19603.933729
 30
0.0
 11
26093.04557599996
 21
20333.936632000001
 31
0.0
  0
LINE
  5
422D
  8
SUNPOU
  6
CONTINUOUS
 62
     4
 10
26050.54927099996
 20
20253.936632000001
 30
0.0
 11
25810.54927099996
 21
20253.936632000001
 31
0.0
  0
LINE
  5
422E
  8
SUNPOU
  6
CONTINUOUS
 62
     4
 10
26093.04557599996
 20
20253.936632000001
 30
0.0
 11
26333.04557599996
 21
20253.936632000001
 31
0.0
  0
LINE
  5
422F
  8
SUNPOU
  6
CONTINUOUS
 62
     4
 10
26050.54927099996
 20
20253.936632000001
 30
0.0
 11
26093.04557599996
 21
20253.936632000001
 31
0.0
  0
LINE
  5
4230
  8
SUNPOU
  6
CONTINUOUS
 62
     4
 10
17714.543991999992
 20
19603.933729
 30
0.0
 11
17714.543991999992
 21
20333.936632000001
 31
0.0
  0
LINE
  5
4231
  8
SUNPOU
  6
CONTINUOUS
 62
     4
 10
17672.047686999991
 20
19603.933729
 30
0.0
 11
17672.047686999991
 21
20333.936632000001
 31
0.0
  0
LINE
  5
4232
  8
SUNPOU
  6
CONTINUOUS
 62
     4
 10
17714.543991999992
 20
20253.936632000001
 30
0.0
 11
17954.543991999992
 21
20253.936632000001
 31
0.0
  0
LINE
  5
4233
  8
SUNPOU
  6
CONTINUOUS
 62
     4
 10
17672.047686999991
 20
20253.936632000001
 30
0.0
 11
17432.047686999991
 21
20253.936632000001
 31
0.0
  0
LINE
  5
4234
  8
SUNPOU
  6
CONTINUOUS
 62
     4
 10
17714.543991999992
 20
20253.936632000001
 30
0.0
 11
17672.047686999991
 21
20253.936632000001
 31
0.0
  0
LINE
  5
4235
  8
SUNPOU
  6
CONTINUOUS
 62
     4
 10
19874.543991999992
 20
19603.933729
 30
0.0
 11
19874.543991999992
 21
20333.936632000001
 31
0.0
  0
LINE
  5
4236
  8
SUNPOU
  6
CONTINUOUS
 62
     4
 10
20632.544981499999
 20
19603.933729
 30
0.0
 11
20632.544981499999
 21
20333.936632000001
 31
0.0
  0
LINE
  5
4237
  8
SUNPOU
  6
CONTINUOUS
 62
     4
 10
19874.543991999992
 20
20253.936632000001
 30
0.0
 11
20632.544981499999
 21
20253.936632000001
 31
0.0
  0
LINE
  5
4238
  8
SUNPOU
  6
CONTINUOUS
 62
     4
 10
19173.543991999992
 20
19603.933729
 30
0.0
 11
19173.543991999992
 21
20333.936632000001
 31
0.0
  0
LINE
  5
4239
  8
SUNPOU
  6
CONTINUOUS
 62
     4
 10
19874.543991999992
 20
19603.933729
 30
0.0
 11
19874.543991999992
 21
20333.936632000001
 31
0.0
  0
LINE
  5
423A
  8
SUNPOU
  6
CONTINUOUS
 62
     4
 10
19173.543991999992
 20
20253.936632000001
 30
0.0
 11
19874.543991999992
 21
20253.936632000001
 31
0.0
  0
LINE
  5
423B
  8
SUNPOU
  6
CONTINUOUS
 62
     4
 10
18472.543991999992
 20
19603.933729
 30
0.0
 11
18472.543991999992
 21
20333.936632000001
 31
0.0
  0
LINE
  5
423C
  8
SUNPOU
  6
CONTINUOUS
 62
     4
 10
19173.543991999992
 20
19603.933729
 30
0.0
 11
19173.543991999992
 21
20333.936632000001
 31
0.0
  0
LINE
  5
423D
  8
SUNPOU
  6
CONTINUOUS
 62
     4
 10
18472.543991999992
 20
20253.936632000001
 30
0.0
 11
19173.543991999992
 21
20253.936632000001
 31
0.0
  0
LINE
  5
423E
  8
SUNPOU
  6
CONTINUOUS
 62
     4
 10
17584.543333000001
 20
5884.5023850000016
 30
0.0
 11
16784.54465199999
 21
5884.5023850000016
 31
0.0
  0
LINE
  5
423F
  8
SUNPOU
  6
CONTINUOUS
 62
     4
 10
17584.543333000001
 20
7776.0023850000016
 30
0.0
 11
16784.54465199999
 21
7776.0023850000016
 31
0.0
  0
LINE
  5
4240
  8
SUNPOU
  6
CONTINUOUS
 62
     4
 10
16864.54465199999
 20
5884.5023850000016
 30
0.0
 11
16864.54465199999
 21
7776.0023850000016
 31
0.0
  0
LINE
  5
4241
  8
SUNPOU
  6
CONTINUOUS
 62
     4
 10
17584.543333000001
 20
5884.5023850000016
 30
0.0
 11
16384.54234299999
 21
5884.5023850000016
 31
0.0
  0
LINE
  5
4242
  8
SUNPOU
  6
CONTINUOUS
 62
     4
 10
17552.043596999982
 20
8233.0018899999941
 30
0.0
 11
16384.54234299999
 21
8233.0018899999941
 31
0.0
  0
LINE
  5
4243
  8
SUNPOU
  6
CONTINUOUS
 62
     4
 10
16464.54234299999
 20
5884.5023850000016
 30
0.0
 11
16464.54234299999
 21
8233.0018899999941
 31
0.0
  0
LINE
  5
4254
  8
SUNPOU
  6
CONTINUOUS
 62
     4
 10
17808.543991999992
 20
5704.5025500000083
 30
0.0
 11
17808.543991999992
 21
4904.5025500000093
 31
0.0
  0
LINE
  5
4255
  8
SUNPOU
  6
CONTINUOUS
 62
     4
 10
20538.543991999992
 20
5704.5025500000083
 30
0.0
 11
20538.543991999992
 21
4904.5025500000093
 31
0.0
  0
LINE
  5
4256
  8
SUNPOU
  6
CONTINUOUS
 62
     4
 10
17808.543991999992
 20
4984.5025500000093
 30
0.0
 11
20538.543991999992
 21
4984.5025500000093
 31
0.0
  0
LINE
  5
4257
  8
SUNPOU
  6
CONTINUOUS
 62
     4
 10
23226.54927099996
 20
5704.5025500000083
 30
0.0
 11
23226.54927099996
 21
4904.5025500000093
 31
0.0
  0
LINE
  5
4258
  8
SUNPOU
  6
CONTINUOUS
 62
     4
 10
25956.54927099996
 20
5704.5025500000083
 30
0.0
 11
25956.54927099996
 21
4904.5025500000093
 31
0.0
  0
LINE
  5
4259
  8
SUNPOU
  6
CONTINUOUS
 62
     4
 10
23226.54927099996
 20
4984.5025500000093
 30
0.0
 11
25956.54927099996
 21
4984.5025500000093
 31
0.0
  0
LINE
  5
425A
  8
SUNPOU
  6
CONTINUOUS
 62
     4
 10
23132.54927099996
 20
5441.8501270000033
 30
0.0
 11
23132.54927099996
 21
4504.5025500000047
 31
0.0
  0
LINE
  5
425B
  8
SUNPOU
  6
CONTINUOUS
 62
     4
 10
26050.54927099996
 20
5441.8501270000033
 30
0.0
 11
26050.54927099996
 21
4504.5025500000047
 31
0.0
  0
LINE
  5
425C
  8
SUNPOU
  6
CONTINUOUS
 62
     4
 10
23132.54927099996
 20
4584.5025500000056
 30
0.0
 11
26050.54927099996
 21
4584.5025500000056
 31
0.0
  0
LINE
  5
425D
  8
SUNPOU
  6
CONTINUOUS
 62
     4
 10
20632.543991999992
 20
5441.8501270000033
 30
0.0
 11
20632.543991999992
 21
4504.5025500000047
 31
0.0
  0
LINE
  5
425E
  8
SUNPOU
  6
CONTINUOUS
 62
     4
 10
23132.54927099996
 20
5441.8501270000033
 30
0.0
 11
23132.54927099996
 21
4504.5025500000047
 31
0.0
  0
LINE
  5
425F
  8
SUNPOU
  6
CONTINUOUS
 62
     4
 10
20632.543991999992
 20
4584.5025500000056
 30
0.0
 11
23132.54927099996
 21
4584.5025500000056
 31
0.0
  0
LINE
  5
4260
  8
SUNPOU
  6
CONTINUOUS
 62
     4
 10
17714.543991999992
 20
5441.8501270000033
 30
0.0
 11
17714.543991999992
 21
4504.5025500000047
 31
0.0
  0
LINE
  5
4261
  8
SUNPOU
  6
CONTINUOUS
 62
     4
 10
20632.543991999992
 20
5441.8501270000033
 30
0.0
 11
20632.543991999992
 21
4504.5025500000047
 31
0.0
  0
LINE
  5
4262
  8
SUNPOU
  6
CONTINUOUS
 62
     4
 10
17714.543991999992
 20
4584.5025500000056
 30
0.0
 11
20632.543991999992
 21
4584.5025500000056
 31
0.0
  0
LINE
  5
4263
  8
SUNPOU
  6
CONTINUOUS
 62
     4
 10
26050.553229999961
 20
5441.8501270000033
 30
0.0
 11
26050.553229999961
 21
4504.5025500000047
 31
0.0
  0
LINE
  5
4264
  8
SUNPOU
  6
CONTINUOUS
 62
     4
 10
26093.05322999998
 20
5704.5025500000083
 30
0.0
 11
26093.05322999998
 21
4504.5025500000047
 31
0.0
  0
LINE
  5
4265
  8
SUNPOU
  6
CONTINUOUS
 62
     4
 10
26050.553229999961
 20
4584.5025500000056
 30
0.0
 11
25810.553229999961
 21
4584.5025500000056
 31
0.0
  0
LINE
  5
4266
  8
SUNPOU
  6
CONTINUOUS
 62
     4
 10
26093.05322999998
 20
4584.5025500000056
 30
0.0
 11
26333.053229999969
 21
4584.5025500000056
 31
0.0
  0
LINE
  5
4267
  8
SUNPOU
  6
CONTINUOUS
 62
     4
 10
26050.553229999961
 20
4584.5025500000056
 30
0.0
 11
26093.05322999998
 21
4584.5025500000056
 31
0.0
  0
LINE
  5
4268
  8
SUNPOU
  6
CONTINUOUS
 62
     4
 10
17714.543991999992
 20
5441.8501270000033
 30
0.0
 11
17714.543991999992
 21
4504.5025500000047
 31
0.0
  0
LINE
  5
4269
  8
SUNPOU
  6
CONTINUOUS
 62
     4
 10
17672.043991999992
 20
5704.5025500000083
 30
0.0
 11
17672.043991999992
 21
4504.5025500000047
 31
0.0
  0
LINE
  5
426A
  8
SUNPOU
  6
CONTINUOUS
 62
     4
 10
17714.543991999992
 20
4584.5025500000056
 30
0.0
 11
17954.543991999992
 21
4584.5025500000056
 31
0.0
  0
LINE
  5
426B
  8
SUNPOU
  6
CONTINUOUS
 62
     4
 10
17672.043991999992
 20
4584.5025500000056
 30
0.0
 11
17432.043991999992
 21
4584.5025500000056
 31
0.0
  0
LINE
  5
426C
  8
SUNPOU
  6
CONTINUOUS
 62
     4
 10
17714.543991999992
 20
4584.5025500000056
 30
0.0
 11
17672.043991999992
 21
4584.5025500000056
 31
0.0
  0
LINE
  5
426D
  8
SUNPOU
  6
CONTINUOUS
 62
     4
 10
17672.043991999992
 20
5704.5025500000083
 30
0.0
 11
17672.043991999992
 21
4104.5027150000033
 31
0.0
  0
LINE
  5
426E
  8
SUNPOU
  6
CONTINUOUS
 62
     4
 10
26093.04927099996
 20
5704.5025500000083
 30
0.0
 11
26093.04927099996
 21
4104.5027150000033
 31
0.0
  0
LINE
  5
426F
  8
SUNPOU
  6
CONTINUOUS
 62
     4
 10
17672.043991999992
 20
4184.5027150000033
 30
0.0
 11
26093.04927099996
 21
4184.5027150000033
 31
0.0
  0
LINE
  5
4270
  8
SUNPOU
  6
CONTINUOUS
 62
     4
 10
6656.1481469999999
 20
7991.688655683809
 30
0.0
 11
6656.1481469999999
 21
9112.5045560000017
 31
0.0
  0
LINE
  5
4271
  8
SUNPOU
  6
CONTINUOUS
 62
     4
 10
6476.1481469999999
 20
8121.5028800000064
 30
0.0
 11
6476.1481469999999
 21
9112.5045560000017
 31
0.0
  0
LINE
  5
4272
  8
SUNPOU
  6
CONTINUOUS
 62
     4
 10
6656.1481469999999
 20
9032.5045560000017
 30
0.0
 11
6476.1481469999999
 21
9032.5045560000017
 31
0.0
  0
LINE
  5
4273
  8
SUNPOU
  6
CONTINUOUS
 62
     4
 10
12319.148147
 20
5884.5028800000018
 30
0.0
 11
13396.64656299998
 21
5884.5028800000018
 31
0.0
  0
LINE
  5
4274
  8
SUNPOU
  6
CONTINUOUS
 62
     4
 10
12411.45342659937
 20
8233.0028800000018
 30
0.0
 11
13396.64656299998
 21
8233.0028800000018
 31
0.0
  0
LINE
  5
4275
  8
SUNPOU
  6
CONTINUOUS
 62
     4
 10
13316.64656299998
 20
5884.5028800000018
 30
0.0
 11
13316.64656299998
 21
8233.0028800000018
 31
0.0
  0
LINE
  5
4276
  8
SUNPOU
  6
CONTINUOUS
 62
     4
 10
6568.6481470000008
 20
5884.5028800000018
 30
0.0
 11
5486.1497290000079
 21
5884.5028800000018
 31
0.0
  0
LINE
  5
4277
  8
SUNPOU
  6
CONTINUOUS
 62
     4
 10
6396.1501250000038
 20
8040.5028800000027
 30
0.0
 11
5486.1497290000079
 21
8040.5028800000073
 31
0.0
  0
LINE
  5
4278
  8
SUNPOU
  6
CONTINUOUS
 62
     4
 10
5566.149729000007
 20
5884.5028800000018
 30
0.0
 11
5566.1497290000088
 21
8040.5028800000073
 31
0.0
  0
LINE
  5
4279
  8
SUNPOU
  6
CONTINUOUS
 62
     4
 10
6476.1481469999999
 20
8121.5028800000064
 30
0.0
 11
6476.1481469999999
 21
9512.5029059999997
 31
0.0
  0
LINE
  5
427A
  8
SUNPOU
  6
CONTINUOUS
 62
     4
 10
12376.648147
 20
8253.3927034124335
 30
0.0
 11
12376.648147
 21
9512.5029059999997
 31
0.0
  0
LINE
  5
427B
  8
SUNPOU
  6
CONTINUOUS
 62
     4
 10
6476.1481469999999
 20
9432.5029060000015
 30
0.0
 11
12376.648147
 21
9432.5029060000015
 31
0.0
  0
LINE
  5
427C
  8
SUNPOU
  6
CONTINUOUS
 62
     4
 10
12226.648147
 20
8179.4129440000024
 30
0.0
 11
12226.648147
 21
9112.5045560000017
 31
0.0
  0
LINE
  5
427D
  8
SUNPOU
  6
CONTINUOUS
 62
     4
 10
12376.648147
 20
8253.3927034124335
 30
0.0
 11
12376.648147
 21
9112.5045560000017
 31
0.0
  0
LINE
  5
427E
  8
SUNPOU
  6
CONTINUOUS
 62
     4
 10
12226.648147
 20
9032.5045560000017
 30
0.0
 11
11986.648147
 21
9032.5045560000017
 31
0.0
  0
LINE
  5
427F
  8
SUNPOU
  6
CONTINUOUS
 62
     4
 10
12376.648147
 20
9032.5045560000017
 30
0.0
 11
12616.648147
 21
9032.5045560000017
 31
0.0
  0
LINE
  5
4280
  8
SUNPOU
  6
CONTINUOUS
 62
     4
 10
12226.648147
 20
9032.5045560000017
 30
0.0
 11
12376.648147
 21
9032.5045560000017
 31
0.0
  0
LINE
  5
4281
  8
SUNPOU
  6
CONTINUOUS
 62
     4
 10
6656.1481469999999
 20
7991.688655683809
 30
0.0
 11
6656.1481469999999
 21
9112.5045560000017
 31
0.0
  0
LINE
  5
4282
  8
SUNPOU
  6
CONTINUOUS
 62
     4
 10
12226.648147
 20
8179.4129440000024
 30
0.0
 11
12226.648147
 21
9112.5045560000017
 31
0.0
  0
LINE
  5
4283
  8
SUNPOU
  6
CONTINUOUS
 62
     4
 10
6656.1481469999999
 20
9032.5045560000017
 30
0.0
 11
12226.648147
 21
9032.5045560000017
 31
0.0
  0
LINE
  5
4284
  8
SUNPOU
  6
CONTINUOUS
 62
     4
 10
6656.1481469999999
 20
5804.5028800000036
 30
0.0
 11
6656.1481469999999
 21
4104.5032100000062
 31
0.0
  0
LINE
  5
4285
  8
SUNPOU
  6
CONTINUOUS
 62
     4
 10
12226.648147
 20
5804.5028800000036
 30
0.0
 11
12226.648147
 21
4104.5032100000062
 31
0.0
  0
LINE
  5
4286
  8
SUNPOU
  6
CONTINUOUS
 62
     4
 10
6656.1481469999999
 20
4184.5032100000053
 30
0.0
 11
12226.648147
 21
4184.5032100000053
 31
0.0
  0
LINE
  5
4287
  8
SUNPOU
  6
CONTINUOUS
 62
     4
 10
12184.148147
 20
5441.8506220000036
 30
0.0
 11
12184.148147
 21
4504.5030450000031
 31
0.0
  0
LINE
  5
4288
  8
SUNPOU
  6
CONTINUOUS
 62
     4
 10
12226.648147
 20
5804.5028800000036
 30
0.0
 11
12226.648147
 21
4504.5030450000031
 31
0.0
  0
LINE
  5
4289
  8
SUNPOU
  6
CONTINUOUS
 62
     4
 10
12184.148147
 20
4584.5030450000031
 30
0.0
 11
11944.148146999991
 21
4584.5030450000031
 31
0.0
  0
LINE
  5
428A
  8
SUNPOU
  6
CONTINUOUS
 62
     4
 10
12226.648147
 20
4584.5030450000031
 30
0.0
 11
12466.648147
 21
4584.5030450000031
 31
0.0
  0
LINE
  5
428B
  8
SUNPOU
  6
CONTINUOUS
 62
     4
 10
12184.148147
 20
4584.5030450000031
 30
0.0
 11
12226.648147
 21
4584.5030450000031
 31
0.0
  0
LINE
  5
428C
  8
SUNPOU
  6
CONTINUOUS
 62
     4
 10
6698.6481469999999
 20
5441.8506220000036
 30
0.0
 11
6698.6481469999999
 21
4504.5030450000031
 31
0.0
  0
LINE
  5
428D
  8
SUNPOU
  6
CONTINUOUS
 62
     4
 10
6656.1481469999999
 20
5804.5028800000036
 30
0.0
 11
6656.1481469999999
 21
4504.5030450000031
 31
0.0
  0
LINE
  5
428E
  8
SUNPOU
  6
CONTINUOUS
 62
     4
 10
6698.6481469999999
 20
4584.5030450000031
 30
0.0
 11
6938.6481470000008
 21
4584.5030450000031
 31
0.0
  0
LINE
  5
428F
  8
SUNPOU
  6
CONTINUOUS
 62
     4
 10
6656.1481469999999
 20
4584.5030450000031
 30
0.0
 11
6416.1481469999999
 21
4584.5030450000031
 31
0.0
  0
LINE
  5
4290
  8
SUNPOU
  6
CONTINUOUS
 62
     4
 10
6698.6481469999999
 20
4584.5030450000031
 30
0.0
 11
6656.1481469999999
 21
4584.5030450000031
 31
0.0
  0
LINE
  5
4291
  8
SUNPOU
  6
CONTINUOUS
 62
     4
 10
9266.1481469999999
 20
5441.8506220000036
 30
0.0
 11
9266.1481469999999
 21
4504.5030450000031
 31
0.0
  0
LINE
  5
4292
  8
SUNPOU
  6
CONTINUOUS
 62
     4
 10
6698.6481469999999
 20
5441.8506220000036
 30
0.0
 11
6698.6481469999999
 21
4504.5030450000031
 31
0.0
  0
LINE
  5
4293
  8
SUNPOU
  6
CONTINUOUS
 62
     4
 10
9266.1481469999999
 20
4584.5030450000031
 30
0.0
 11
6698.6481469999999
 21
4584.5030450000031
 31
0.0
  0
LINE
  5
4294
  8
SUNPOU
  6
CONTINUOUS
 62
     4
 10
9266.1481469999999
 20
5441.8506220000036
 30
0.0
 11
9266.1481469999999
 21
4504.5030450000031
 31
0.0
  0
LINE
  5
4295
  8
SUNPOU
  6
CONTINUOUS
 62
     4
 10
12184.148147
 20
5441.8506220000036
 30
0.0
 11
12184.148147
 21
4504.5030450000031
 31
0.0
  0
LINE
  5
4296
  8
SUNPOU
  6
CONTINUOUS
 62
     4
 10
9266.1481469999999
 20
4584.5030450000031
 30
0.0
 11
12184.148147
 21
4584.5030450000031
 31
0.0
  0
LINE
  5
4297
  8
0
  6
CONTINUOUS
 10
27320.61169951249
 20
4013.2342825977748
 30
0.0
 11
32662.906701964599
 21
4013.2342825977748
 31
0.0
  0
LINE
  5
4298
  8
0
  6
CONTINUOUS
 10
32662.906701964599
 20
4013.2342825977748
 30
0.0
 11
32662.906701964599
 21
2658.9883116968108
 31
0.0
  0
LINE
  5
4299
  8
0
  6
CONTINUOUS
 10
32662.906701964599
 20
2658.9883116968108
 30
0.0
 11
27320.61169951249
 21
2658.9883116968108
 31
0.0
  0
LINE
  5
429A
  8
0
  6
CONTINUOUS
 10
27320.61169951249
 20
2658.9883116968108
 30
0.0
 11
27320.61169951249
 21
4013.2342825977748
 31
0.0
  0
TEXT
  5
429B
  8
0
  6
CONTINUOUS
 62
     7
 10
10458.48148033333
 20
4664.5030450000022
 30
0.0
 40
160.0
  1
2918
  0
TEXT
  5
429C
  8
0
  6
CONTINUOUS
 62
     7
 10
7582.3981470000008
 20
4664.5030450000022
 30
0.0
 40
160.0
  1
2567.5
  0
TEXT
  5
429D
  8
0
  6
CONTINUOUS
 62
     7
 10
6058.974437903692
 20
4664.5030450000022
 30
0.0
 40
160.0
  1
42.5
  0
TEXT
  5
429E
  8
0
  6
CONTINUOUS
 62
     7
 10
12364.96678430982
 20
4664.5030450000022
 30
0.0
 40
160.0
  1
42.5
  0
TEXT
  5
429F
  8
0
  6
CONTINUOUS
 62
     7
 10
9054.731480333332
 20
4264.5032100000053
 30
0.0
 40
160.0
  1
5570.5
  0
TEXT
  5
42A0
  8
0
  6
CONTINUOUS
 62
     7
 10
9054.731480333332
 20
9112.5045560000017
 30
0.0
 40
160.0
  1
5570.5
  0
TEXT
  5
42A1
  8
0
  6
CONTINUOUS
 62
     7
 10
12443.31481366666
 20
9112.5045560000017
 30
0.0
 40
160.0
  1
150
  0
TEXT
  5
42A2
  8
0
  6
CONTINUOUS
 62
     7
 10
9053.0648136666623
 20
9512.5029059999997
 30
0.0
 40
160.0
  1
5900.5
  0
TEXT
  5
42A3
  8
0
  6
CONTINUOUS
 62
     7
 10
5486.1497290000061
 20
6183.8362133333367
 30
0.0
 40
160.0
  1
2156（2396）
 50
90.0
  0
TEXT
  5
42A4
  8
0
  6
CONTINUOUS
 62
     7
 10
13236.64656299998
 20
6040.0862133333376
 30
0.0
 40
160.0
  1
2348.5（2588.5）
 50
90.0
  0
TEXT
  5
42A5
  8
0
  6
CONTINUOUS
 62
     7
 10
6015.1947763486342
 20
9112.5045560000017
 30
0.0
 40
160.0
  1
180
  0
TEXT
  5
42A6
  8
0
  6
CONTINUOUS
 62
     7
 10
20975.879964833312
 20
4264.5027150000033
 30
0.0
 40
160.0
  1
2918 \U+00D7 ｎ ＋ 85
  0
TEXT
  5
42A7
  8
0
  6
CONTINUOUS
 62
     7
 10
17106.005001741141
 20
4664.5025500000074
 30
0.0
 40
160.0
  1
42.5
  0
TEXT
  5
42A8
  8
0
  6
CONTINUOUS
 62
     7
 10
26179.092220258819
 20
4664.5025500000074
 30
0.0
 40
160.0
  1
42.5
  0
TEXT
  5
42A9
  8
0
  6
CONTINUOUS
 62
     7
 10
18906.877325333309
 20
4664.5025500000074
 30
0.0
 40
160.0
  1
2918
  0
TEXT
  5
42AA
  8
0
  6
CONTINUOUS
 62
     7
 10
20911.879964833312
 20
4664.5025500000074
 30
0.0
 40
160.0
  1
2918 \U+00D7（ｎ － 2）
  0
TEXT
  5
42AB
  8
0
  6
CONTINUOUS
 62
     7
 10
24324.882604333288
 20
4664.5025500000074
 30
0.0
 40
160.0
  1
2918
  0
TEXT
  5
42AC
  8
0
  6
CONTINUOUS
 62
     7
 10
23783.54927099996
 20
5064.5025500000102
 30
0.0
 40
160.0
  1
有効開口巾 2730
  0
TEXT
  5
42AD
  8
0
  6
CONTINUOUS
 62
     7
 10
18365.543991999992
 20
5064.5025500000102
 30
0.0
 40
160.0
  1
有効開口巾 2730
  0
TEXT
  5
42B2
  8
0
  6
CONTINUOUS
 62
     7
 10
16384.54234299999
 20
6040.0854708333363
 30
0.0
 40
160.0
  1
2348.5（2588.5）
 50
90.0
  0
TEXT
  5
42B3
  8
0
  6
CONTINUOUS
 62
     7
 10
16784.54465199999
 20
5948.4816232912772
 30
0.0
 40
160.0
  1
有効開口高サ 1891.5
 50
90.0
  0
TEXT
  5
42B4
  8
0
  6
CONTINUOUS
 62
     7
 10
18649.710658666649
 20
20333.936632000001
 30
0.0
 40
160.0
  1
701
  0
TEXT
  5
42B5
  8
0
  6
CONTINUOUS
 62
     7
 10
19350.71065866666
 20
20333.936632000001
 30
0.0
 40
160.0
  1
701
  0
TEXT
  5
42B6
  8
0
  6
CONTINUOUS
 62
     7
 10
20040.211153416669
 20
20333.936632000001
 30
0.0
 40
160.0
  1
758
  0
TEXT
  5
42B7
  8
0
  6
CONTINUOUS
 62
     7
 10
17111.732012471191
 20
20333.936632000001
 30
0.0
 40
160.0
  1
42.5
  0
TEXT
  5
42B8
  8
0
  6
CONTINUOUS
 62
     7
 10
26173.361250528771
 20
20333.936632000001
 30
0.0
 40
160.0
  1
42.5
  0
TEXT
  5
42B9
  8
0
  6
CONTINUOUS
 62
     7
 10
24067.715937666639
 20
20333.936632000001
 30
0.0
 40
160.0
  1
701
  0
TEXT
  5
42BA
  8
0
  6
CONTINUOUS
 62
     7
 10
24768.715937666631
 20
20333.936632000001
 30
0.0
 40
160.0
  1
701
  0
TEXT
  5
42BB
  8
0
  6
CONTINUOUS
 62
     7
 10
25458.216432416641
 20
20333.936632000001
 30
0.0
 40
160.0
  1
758
  0
TEXT
  5
42BC
  8
0
  6
CONTINUOUS
 62
     7
 10
20911.880459583321
 20
20333.936632000001
 30
0.0
 40
160.0
  1
2918 \U+00D7（ｎ － 2）
  0
TEXT
  5
42BD
  8
0
  6
CONTINUOUS
 62
     7
 10
27463.04887499996
 20
13379.88191260319
 30
0.0
 40
160.0
  1
42.5
 50
90.0
  0
TEXT
  5
42BE
  8
0
  6
CONTINUOUS
 62
     7
 10
27463.04887499996
 20
19617.48897539678
 30
0.0
 40
160.0
  1
42.5
 50
90.0
  0
TEXT
  5
42BF
  8
0
  6
CONTINUOUS
 62
     7
 10
27863.04887499996
 20
16352.01877733332
 30
0.0
 40
160.0
  1
5570.5
 50
90.0
  0
TEXT
  5
42C0
  8
0
  6
CONTINUOUS
 62
     7
 10
27463.04887499996
 20
15188.26877733332
 30
0.0
 40
160.0
  1
2918
 50
90.0
  0
TEXT
  5
42C1
  8
0
  6
CONTINUOUS
 62
     7
 10
27463.04887499996
 20
17797.685443999992
 30
0.0
 40
160.0
  1
2567.5
 50
90.0
  0
TEXT
  5
42C2
  8
0
  6
CONTINUOUS
 62
     7
 10
27063.048874999949
 20
18550.102110666649
 30
0.0
 40
160.0
  1
701
 50
90.0
  0
TEXT
  5
42C3
  8
0
  6
CONTINUOUS
 62
     7
 10
27063.048874999949
 20
17849.102110666649
 30
0.0
 40
160.0
  1
701
 50
90.0
  0
TEXT
  5
42C4
  8
0
  6
CONTINUOUS
 62
     7
 10
27063.048874999949
 20
17079.602110666659
 30
0.0
 40
160.0
  1
758
 50
90.0
  0
TEXT
  5
42C5
  8
0
  6
CONTINUOUS
 62
     7
 10
27063.048874999949
 20
16321.602110666659
 30
0.0
 40
160.0
  1
758
 50
90.0
  0
TEXT
  5
42C6
  8
0
  6
CONTINUOUS
 62
     7
 10
27063.048874999949
 20
15632.22236641665
 30
0.0
 40
160.0
  1
701
 50
90.0
  0
TEXT
  5
42C7
  8
0
  6
CONTINUOUS
 62
     7
 10
27063.048874999949
 20
14931.222366416659
 30
0.0
 40
160.0
  1
701
 50
90.0
  0
TEXT
  5
42C8
  8
0
  6
CONTINUOUS
 62
     7
 10
27063.048874999949
 20
14161.602110666659
 30
0.0
 40
160.0
  1
758
 50
90.0
  0
TEXT
  5
42C9
  8
0
  6
CONTINUOUS
 62
     7
 10
21359.879964833312
 20
12704.487359999979
 30
0.0
 40
160.0
  1
2918 x n
  0
TEXT
  5
42CA
  8
0
  6
CONTINUOUS
 62
     7
 10
17832.597664382069
 20
13104.487359999979
 30
0.0
 40
160.0
  1
42.5
  0
TEXT
  5
42CB
  8
0
  6
CONTINUOUS
 62
     7
 10
25452.495598617879
 20
13104.487359999979
 30
0.0
 40
160.0
  1
42.5
  0
TEXT
  5
42CC
  8
0
  6
CONTINUOUS
 62
     7
 10
27423.04887499996
 20
18783.313411643201
 30
0.0
 40
160.0
  1
407.5
 50
90.0
  0
TEXT
  5
42CD
  8
0
  6
CONTINUOUS
 62
     7
 10
23298.215937666639
 20
20333.936632000001
 30
0.0
 40
160.0
  1
758
  0
TEXT
  5
42CE
  8
0
  6
CONTINUOUS
 62
     7
 10
17880.210658666649
 20
20333.936632000001
 30
0.0
 40
160.0
  1
758
  0
TEXT
  5
42CF
  8
0
  6
CONTINUOUS
 62
     7
 10
4519.9375290000125
 20
17797.685443999992
 30
0.0
 40
160.0
  1
2567.5
 50
90.0
  0
TEXT
  5
42D0
  8
0
  6
CONTINUOUS
 62
     7
 10
4519.9375290000125
 20
19792.890628807661
 30
0.0
 40
160.0
  1
222.5
 50
90.0
  0
TEXT
  5
42D1
  8
0
  6
CONTINUOUS
 62
     7
 10
4919.9375290000116
 20
19850.598019666671
 30
0.0
 40
160.0
  1
10
 50
90.0
  0
TEXT
  5
42D2
  8
0
  6
CONTINUOUS
 62
     7
 10
4519.9375290000125
 20
15188.268777333309
 30
0.0
 40
160.0
  1
2918
 50
90.0
  0
TEXT
  5
42D3
  8
0
  6
CONTINUOUS
 62
     7
 10
4519.9375290000089
 20
13187.9824337026
 30
0.0
 40
160.0
  1
192.5
 50
90.0
  0
TEXT
  5
42D4
  8
0
  6
CONTINUOUS
 62
     7
 10
12547.77780133335
 20
20333.936632000001
 30
0.0
 40
160.0
  1
2918
  0
TEXT
  5
42D5
  8
0
  6
CONTINUOUS
 62
     7
 10
14409.94117402327
 20
20333.936632000001
 30
0.0
 40
160.0
  1
85.5
  0
TEXT
  5
42D6
  8
0
  6
CONTINUOUS
 62
     7
 10
8930.777853833355
 20
20333.936632000001
 30
0.0
 40
160.0
  1
2918 \U+00D7（ｎ － 2）
  0
TEXT
  5
42D7
  8
0
  6
CONTINUOUS
 62
     7
 10
6721.7779063333546
 20
20333.936632000001
 30
0.0
 40
160.0
  1
2918
  0
TEXT
  5
42D8
  8
0
  6
CONTINUOUS
 62
     7
 10
4912.9478669767568
 20
20333.936632000001
 30
0.0
 40
160.0
  1
85.5
  0
TEXT
  5
42D9
  8
0
  6
CONTINUOUS
 62
     7
 10
9266.7778538333459
 20
12603.432935999979
 30
0.0
 40
160.0
  1
2918  \U+00D7　n
  0
ARC
  5
42DA
  8
0
  6
BYBLOCK
 62
     0
 10
5529.444573000017
 20
12523.43293599999
 30
0.0
 40
15.0
 50
0.0
 51
180.0
  0
ARC
  5
42DB
  8
0
  6
BYBLOCK
 62
     0
 10
5529.444573000017
 20
12523.43293599999
 30
0.0
 40
15.0
 50
180.0
 51
0.0
  0
ARC
  5
42DC
  8
0
  6
BYBLOCK
 62
     0
 10
14273.444468000011
 20
12523.43293599999
 30
0.0
 40
15.0
 50
180.0
 51
0.0
  0
ARC
  5
42DD
  8
0
  6
BYBLOCK
 62
     0
 10
14273.444468000011
 20
12523.43293599999
 30
0.0
 40
15.0
 50
0.0
 51
180.0
  0
ARC
  5
42DE
  8
0
  6
BYBLOCK
 62
     0
 10
5529.4445730000243
 20
20253.936632000001
 30
0.0
 40
15.0
 50
0.0
 51
180.0
  0
ARC
  5
42DF
  8
0
  6
BYBLOCK
 62
     0
 10
5529.4445730000243
 20
20253.936632000001
 30
0.0
 40
15.0
 50
180.0
 51
0.0
  0
ARC
  5
42E0
  8
0
  6
BYBLOCK
 62
     0
 10
5443.9445730000198
 20
20253.936632000001
 30
0.0
 40
15.0
 50
180.0
 51
0.0
  0
ARC
  5
42E1
  8
0
  6
BYBLOCK
 62
     0
 10
5443.9445730000198
 20
20253.936632000001
 30
0.0
 40
15.0
 50
0.0
 51
180.0
  0
ARC
  5
42E2
  8
0
  6
BYBLOCK
 62
     0
 10
8447.4445730000225
 20
20253.936632000001
 30
0.0
 40
15.0
 50
180.0
 51
0.0
  0
ARC
  5
42E3
  8
0
  6
BYBLOCK
 62
     0
 10
8447.4445730000225
 20
20253.936632000001
 30
0.0
 40
15.0
 50
0.0
 51
180.0
  0
ARC
  5
42E4
  8
0
  6
BYBLOCK
 62
     0
 10
5529.4445730000243
 20
20253.936632000001
 30
0.0
 40
15.0
 50
0.0
 51
180.0
  0
ARC
  5
42E5
  8
0
  6
BYBLOCK
 62
     0
 10
5529.4445730000243
 20
20253.936632000001
 30
0.0
 40
15.0
 50
180.0
 51
0.0
  0
ARC
  5
42E6
  8
0
  6
BYBLOCK
 62
     0
 10
11355.444468000011
 20
20253.936632000001
 30
0.0
 40
15.0
 50
180.0
 51
0.0
  0
ARC
  5
42E7
  8
0
  6
BYBLOCK
 62
     0
 10
11355.444468000011
 20
20253.936632000001
 30
0.0
 40
15.0
 50
0.0
 51
180.0
  0
ARC
  5
42E8
  8
0
  6
BYBLOCK
 62
     0
 10
8447.4445730000225
 20
20253.936632000001
 30
0.0
 40
15.0
 50
0.0
 51
180.0
  0
ARC
  5
42E9
  8
0
  6
BYBLOCK
 62
     0
 10
8447.4445730000225
 20
20253.936632000001
 30
0.0
 40
15.0
 50
180.0
 51
0.0
  0
ARC
  5
42EA
  8
0
  6
BYBLOCK
 62
     0
 10
14273.444468000011
 20
20253.936632000001
 30
0.0
 40
15.0
 50
180.0
 51
0.0
  0
ARC
  5
42EB
  8
0
  6
BYBLOCK
 62
     0
 10
14273.444468000011
 20
20253.936632000001
 30
0.0
 40
15.0
 50
0.0
 51
180.0
  0
ARC
  5
42EC
  8
0
  6
BYBLOCK
 62
     0
 10
14358.944468000011
 20
20253.936632000001
 30
0.0
 40
15.0
 50
0.0
 51
180.0
  0
ARC
  5
42ED
  8
0
  6
BYBLOCK
 62
     0
 10
14358.944468000011
 20
20253.936632000001
 30
0.0
 40
15.0
 50
180.0
 51
0.0
  0
ARC
  5
42EE
  8
0
  6
BYBLOCK
 62
     0
 10
11355.444468000011
 20
20253.936632000001
 30
0.0
 40
15.0
 50
0.0
 51
180.0
  0
ARC
  5
42EF
  8
0
  6
BYBLOCK
 62
     0
 10
11355.444468000011
 20
20253.936632000001
 30
0.0
 40
15.0
 50
180.0
 51
0.0
  0
ARC
  5
42F0
  8
0
  6
BYBLOCK
 62
     0
 10
14273.444468000011
 20
20253.936632000001
 30
0.0
 40
15.0
 50
180.0
 51
0.0
  0
ARC
  5
42F1
  8
0
  6
BYBLOCK
 62
     0
 10
14273.444468000011
 20
20253.936632000001
 30
0.0
 40
15.0
 50
0.0
 51
180.0
  0
ARC
  5
42F2
  8
0
  6
BYBLOCK
 62
     0
 10
4599.9375290000153
 20
13995.935443999981
 30
0.0
 40
15.0
 50
270.0
 51
90.0
  0
ARC
  5
42F3
  8
0
  6
BYBLOCK
 62
     0
 10
4599.9375290000153
 20
13995.935443999981
 30
0.0
 40
15.0
 50
90.0
 51
270.0
  0
ARC
  5
42F4
  8
0
  6
BYBLOCK
 62
     0
 10
4599.9375290000153
 20
13803.44012899999
 30
0.0
 40
15.0
 50
90.0
 51
270.0
  0
ARC
  5
42F5
  8
0
  6
BYBLOCK
 62
     0
 10
4599.9375290000153
 20
13803.44012899999
 30
0.0
 40
15.0
 50
270.0
 51
90.0
  0
ARC
  5
42F6
  8
0
  6
BYBLOCK
 62
     0
 10
4599.9375290000153
 20
16913.935443999992
 30
0.0
 40
15.0
 50
270.0
 51
90.0
  0
ARC
  5
42F7
  8
0
  6
BYBLOCK
 62
     0
 10
4599.9375290000153
 20
16913.935443999992
 30
0.0
 40
15.0
 50
90.0
 51
270.0
  0
ARC
  5
42F8
  8
0
  6
BYBLOCK
 62
     0
 10
4599.9375290000153
 20
13995.935443999981
 30
0.0
 40
15.0
 50
90.0
 51
270.0
  0
ARC
  5
42F9
  8
0
  6
BYBLOCK
 62
     0
 10
4599.9375290000153
 20
13995.935443999981
 30
0.0
 40
15.0
 50
270.0
 51
90.0
  0
ARC
  5
42FA
  8
0
  6
BYBLOCK
 62
     0
 10
4999.9375290000144
 20
19693.931352999989
 30
0.0
 40
15.0
 50
270.0
 51
90.0
  0
ARC
  5
42FB
  8
0
  6
BYBLOCK
 62
     0
 10
4999.9375290000144
 20
19693.931352999989
 30
0.0
 40
15.0
 50
90.0
 51
270.0
  0
ARC
  5
42FC
  8
0
  6
BYBLOCK
 62
     0
 10
4999.9375290000144
 20
19703.931353
 30
0.0
 40
15.0
 50
90.0
 51
270.0
  0
ARC
  5
42FD
  8
0
  6
BYBLOCK
 62
     0
 10
4999.9375290000144
 20
19703.931353
 30
0.0
 40
15.0
 50
270.0
 51
90.0
  0
ARC
  5
42FE
  8
0
  6
BYBLOCK
 62
     0
 10
4599.9375290000153
 20
19481.435443999981
 30
0.0
 40
15.0
 50
90.0
 51
270.0
  0
ARC
  5
42FF
  8
0
  6
BYBLOCK
 62
     0
 10
4599.9375290000153
 20
19481.435443999981
 30
0.0
 40
15.0
 50
270.0
 51
90.0
  0
ARC
  5
4300
  8
0
  6
BYBLOCK
 62
     0
 10
4599.9375290000153
 20
19703.931353
 30
0.0
 40
15.0
 50
270.0
 51
90.0
  0
ARC
  5
4301
  8
0
  6
BYBLOCK
 62
     0
 10
4599.9375290000153
 20
19703.931353
 30
0.0
 40
15.0
 50
90.0
 51
270.0
  0
ARC
  5
4302
  8
0
  6
BYBLOCK
 62
     0
 10
4599.9375290000153
 20
16913.935443999992
 30
0.0
 40
15.0
 50
90.0
 51
270.0
  0
ARC
  5
4303
  8
0
  6
BYBLOCK
 62
     0
 10
4599.9375290000153
 20
16913.935443999992
 30
0.0
 40
15.0
 50
270.0
 51
90.0
  0
ARC
  5
4304
  8
0
  6
BYBLOCK
 62
     0
 10
4599.9375290000153
 20
19481.435443999981
 30
0.0
 40
15.0
 50
270.0
 51
90.0
  0
ARC
  5
4305
  8
0
  6
BYBLOCK
 62
     0
 10
4599.9375290000153
 20
19481.435443999981
 30
0.0
 40
15.0
 50
90.0
 51
270.0
  0
ARC
  5
4306
  8
0
  6
BYBLOCK
 62
     0
 10
18472.543991999992
 20
20253.936632000001
 30
0.0
 40
15.0
 50
180.0
 51
0.0
  0
ARC
  5
4307
  8
0
  6
BYBLOCK
 62
     0
 10
18472.543991999992
 20
20253.936632000001
 30
0.0
 40
15.0
 50
0.0
 51
180.0
  0
ARC
  5
4308
  8
0
  6
BYBLOCK
 62
     0
 10
17714.543991999992
 20
20253.936632000001
 30
0.0
 40
15.0
 50
0.0
 51
180.0
  0
ARC
  5
4309
  8
0
  6
BYBLOCK
 62
     0
 10
17714.543991999992
 20
20253.936632000001
 30
0.0
 40
15.0
 50
180.0
 51
0.0
  0
ARC
  5
430A
  8
0
  6
BYBLOCK
 62
     0
 10
23890.549270999971
 20
20253.936632000001
 30
0.0
 40
15.0
 50
180.0
 51
0.0
  0
ARC
  5
430B
  8
0
  6
BYBLOCK
 62
     0
 10
23890.549270999971
 20
20253.936632000001
 30
0.0
 40
15.0
 50
0.0
 51
180.0
  0
ARC
  5
430C
  8
0
  6
BYBLOCK
 62
     0
 10
23132.54927099996
 20
20253.936632000001
 30
0.0
 40
15.0
 50
0.0
 51
180.0
  0
ARC
  5
430D
  8
0
  6
BYBLOCK
 62
     0
 10
23132.54927099996
 20
20253.936632000001
 30
0.0
 40
15.0
 50
180.0
 51
0.0
  0
ARC
  5
430E
  8
0
  6
BYBLOCK
 62
     0
 10
27143.048874999949
 20
19073.935443999992
 30
0.0
 40
15.0
 50
90.0
 51
270.0
  0
ARC
  5
430F
  8
0
  6
BYBLOCK
 62
     0
 10
27143.048874999949
 20
19073.935443999992
 30
0.0
 40
15.0
 50
270.0
 51
90.0
  0
ARC
  5
4310
  8
0
  6
BYBLOCK
 62
     0
 10
27143.048874999949
 20
19481.435443999992
 30
0.0
 40
15.0
 50
270.0
 51
90.0
  0
ARC
  5
4311
  8
0
  6
BYBLOCK
 62
     0
 10
27143.048874999949
 20
19481.435443999992
 30
0.0
 40
15.0
 50
90.0
 51
270.0
  0
ARC
  5
4312
  8
0
  6
BYBLOCK
 62
     0
 10
26050.54927099996
 20
13024.487359999979
 30
0.0
 40
15.0
 50
0.0
 51
180.0
  0
ARC
  5
4313
  8
0
  6
BYBLOCK
 62
     0
 10
26050.54927099996
 20
13024.487359999979
 30
0.0
 40
15.0
 50
180.0
 51
0.0
  0
ARC
  5
4314
  8
0
  6
BYBLOCK
 62
     0
 10
26008.047027999961
 20
13024.487359999979
 30
0.0
 40
15.0
 50
180.0
 51
0.0
  0
ARC
  5
4315
  8
0
  6
BYBLOCK
 62
     0
 10
26008.047027999961
 20
13024.487359999979
 30
0.0
 40
15.0
 50
0.0
 51
180.0
  0
ARC
  5
4316
  8
0
  6
BYBLOCK
 62
     0
 10
17714.543991999992
 20
13024.487359999979
 30
0.0
 40
15.0
 50
180.0
 51
0.0
  0
ARC
  5
4317
  8
0
  6
BYBLOCK
 62
     0
 10
17714.543991999992
 20
13024.487359999979
 30
0.0
 40
15.0
 50
0.0
 51
180.0
  0
ARC
  5
4318
  8
0
  6
BYBLOCK
 62
     0
 10
17757.04623499998
 20
13024.487359999979
 30
0.0
 40
15.0
 50
0.0
 51
180.0
  0
ARC
  5
4319
  8
0
  6
BYBLOCK
 62
     0
 10
17757.04623499998
 20
13024.487359999979
 30
0.0
 40
15.0
 50
180.0
 51
0.0
  0
ARC
  5
431A
  8
0
  6
BYBLOCK
 62
     0
 10
17714.543991999992
 20
12624.487359999979
 30
0.0
 40
15.0
 50
0.0
 51
180.0
  0
ARC
  5
431B
  8
0
  6
BYBLOCK
 62
     0
 10
17714.543991999992
 20
12624.487359999979
 30
0.0
 40
15.0
 50
180.0
 51
0.0
  0
ARC
  5
431C
  8
0
  6
BYBLOCK
 62
     0
 10
26050.54927099996
 20
12624.487359999979
 30
0.0
 40
15.0
 50
180.0
 51
0.0
  0
ARC
  5
431D
  8
0
  6
BYBLOCK
 62
     0
 10
26050.54927099996
 20
12624.487359999979
 30
0.0
 40
15.0
 50
0.0
 51
180.0
  0
ARC
  5
431E
  8
0
  6
BYBLOCK
 62
     0
 10
27143.048874999949
 20
14753.93544399999
 30
0.0
 40
15.0
 50
270.0
 51
90.0
  0
ARC
  5
431F
  8
0
  6
BYBLOCK
 62
     0
 10
27143.048874999949
 20
14753.93544399999
 30
0.0
 40
15.0
 50
90.0
 51
270.0
  0
ARC
  5
4320
  8
0
  6
BYBLOCK
 62
     0
 10
27143.048874999949
 20
13995.935443999981
 30
0.0
 40
15.0
 50
90.0
 51
270.0
  0
ARC
  5
4321
  8
0
  6
BYBLOCK
 62
     0
 10
27143.048874999949
 20
13995.935443999981
 30
0.0
 40
15.0
 50
270.0
 51
90.0
  0
ARC
  5
4322
  8
0
  6
BYBLOCK
 62
     0
 10
27143.048874999949
 20
15455.175955500001
 30
0.0
 40
15.0
 50
270.0
 51
90.0
  0
ARC
  5
4323
  8
0
  6
BYBLOCK
 62
     0
 10
27143.048874999949
 20
15455.175955500001
 30
0.0
 40
15.0
 50
90.0
 51
270.0
  0
ARC
  5
4324
  8
0
  6
BYBLOCK
 62
     0
 10
27143.048874999949
 20
14753.93544399999
 30
0.0
 40
15.0
 50
90.0
 51
270.0
  0
ARC
  5
4325
  8
0
  6
BYBLOCK
 62
     0
 10
27143.048874999949
 20
14753.93544399999
 30
0.0
 40
15.0
 50
270.0
 51
90.0
  0
ARC
  5
4326
  8
0
  6
BYBLOCK
 62
     0
 10
27143.048874999949
 20
16155.93544399999
 30
0.0
 40
15.0
 50
270.0
 51
90.0
  0
ARC
  5
4327
  8
0
  6
BYBLOCK
 62
     0
 10
27143.048874999949
 20
16155.93544399999
 30
0.0
 40
15.0
 50
90.0
 51
270.0
  0
ARC
  5
4328
  8
0
  6
BYBLOCK
 62
     0
 10
27143.048874999949
 20
15455.175955500001
 30
0.0
 40
15.0
 50
90.0
 51
270.0
  0
ARC
  5
4329
  8
0
  6
BYBLOCK
 62
     0
 10
27143.048874999949
 20
15455.175955500001
 30
0.0
 40
15.0
 50
270.0
 51
90.0
  0
ARC
  5
432A
  8
0
  6
BYBLOCK
 62
     0
 10
27143.048874999949
 20
16913.935443999992
 30
0.0
 40
15.0
 50
270.0
 51
90.0
  0
ARC
  5
432B
  8
0
  6
BYBLOCK
 62
     0
 10
27143.048874999949
 20
16913.935443999992
 30
0.0
 40
15.0
 50
90.0
 51
270.0
  0
ARC
  5
432C
  8
0
  6
BYBLOCK
 62
     0
 10
27143.048874999949
 20
16155.93544399999
 30
0.0
 40
15.0
 50
90.0
 51
270.0
  0
ARC
  5
432D
  8
0
  6
BYBLOCK
 62
     0
 10
27143.048874999949
 20
16155.93544399999
 30
0.0
 40
15.0
 50
270.0
 51
90.0
  0
ARC
  5
432E
  8
0
  6
BYBLOCK
 62
     0
 10
27143.048874999949
 20
17671.935443999992
 30
0.0
 40
15.0
 50
270.0
 51
90.0
  0
ARC
  5
432F
  8
0
  6
BYBLOCK
 62
     0
 10
27143.048874999949
 20
17671.935443999992
 30
0.0
 40
15.0
 50
90.0
 51
270.0
  0
ARC
  5
4330
  8
0
  6
BYBLOCK
 62
     0
 10
27143.048874999949
 20
16913.935443999992
 30
0.0
 40
15.0
 50
90.0
 51
270.0
  0
ARC
  5
4331
  8
0
  6
BYBLOCK
 62
     0
 10
27143.048874999949
 20
16913.935443999992
 30
0.0
 40
15.0
 50
270.0
 51
90.0
  0
ARC
  5
4332
  8
0
  6
BYBLOCK
 62
     0
 10
27143.048874999949
 20
18372.935443999992
 30
0.0
 40
15.0
 50
270.0
 51
90.0
  0
ARC
  5
4333
  8
0
  6
BYBLOCK
 62
     0
 10
27143.048874999949
 20
18372.935443999992
 30
0.0
 40
15.0
 50
90.0
 51
270.0
  0
ARC
  5
4334
  8
0
  6
BYBLOCK
 62
     0
 10
27143.048874999949
 20
17671.935443999992
 30
0.0
 40
15.0
 50
90.0
 51
270.0
  0
ARC
  5
4335
  8
0
  6
BYBLOCK
 62
     0
 10
27143.048874999949
 20
17671.935443999992
 30
0.0
 40
15.0
 50
270.0
 51
90.0
  0
ARC
  5
4336
  8
0
  6
BYBLOCK
 62
     0
 10
27143.048874999949
 20
19073.935443999992
 30
0.0
 40
15.0
 50
270.0
 51
90.0
  0
ARC
  5
4337
  8
0
  6
BYBLOCK
 62
     0
 10
27143.048874999949
 20
19073.935443999992
 30
0.0
 40
15.0
 50
90.0
 51
270.0
  0
ARC
  5
4338
  8
0
  6
BYBLOCK
 62
     0
 10
27143.048874999949
 20
18372.935443999992
 30
0.0
 40
15.0
 50
90.0
 51
270.0
  0
ARC
  5
4339
  8
0
  6
BYBLOCK
 62
     0
 10
27143.048874999949
 20
18372.935443999992
 30
0.0
 40
15.0
 50
270.0
 51
90.0
  0
ARC
  5
433A
  8
0
  6
BYBLOCK
 62
     0
 10
27543.04887499996
 20
16913.935443999992
 30
0.0
 40
15.0
 50
90.0
 51
270.0
  0
ARC
  5
433B
  8
0
  6
BYBLOCK
 62
     0
 10
27543.04887499996
 20
16913.935443999992
 30
0.0
 40
15.0
 50
270.0
 51
90.0
  0
ARC
  5
433C
  8
0
  6
BYBLOCK
 62
     0
 10
27543.04887499996
 20
19481.435443999981
 30
0.0
 40
15.0
 50
270.0
 51
90.0
  0
ARC
  5
433D
  8
0
  6
BYBLOCK
 62
     0
 10
27543.04887499996
 20
19481.435443999981
 30
0.0
 40
15.0
 50
90.0
 51
270.0
  0
ARC
  5
433E
  8
0
  6
BYBLOCK
 62
     0
 10
27543.04887499996
 20
13995.935443999981
 30
0.0
 40
15.0
 50
90.0
 51
270.0
  0
ARC
  5
433F
  8
0
  6
BYBLOCK
 62
     0
 10
27543.04887499996
 20
13995.935443999981
 30
0.0
 40
15.0
 50
270.0
 51
90.0
  0
ARC
  5
4340
  8
0
  6
BYBLOCK
 62
     0
 10
27543.04887499996
 20
16913.935443999992
 30
0.0
 40
15.0
 50
270.0
 51
90.0
  0
ARC
  5
4341
  8
0
  6
BYBLOCK
 62
     0
 10
27543.04887499996
 20
16913.935443999992
 30
0.0
 40
15.0
 50
90.0
 51
270.0
  0
ARC
  5
4342
  8
0
  6
BYBLOCK
 62
     0
 10
27943.04887499996
 20
19523.932738999982
 30
0.0
 40
15.0
 50
270.0
 51
90.0
  0
ARC
  5
4343
  8
0
  6
BYBLOCK
 62
     0
 10
27943.04887499996
 20
19523.932738999982
 30
0.0
 40
15.0
 50
90.0
 51
270.0
  0
ARC
  5
4344
  8
0
  6
BYBLOCK
 62
     0
 10
27943.04887499996
 20
13953.438148999991
 30
0.0
 40
15.0
 50
90.0
 51
270.0
  0
ARC
  5
4345
  8
0
  6
BYBLOCK
 62
     0
 10
27943.04887499996
 20
13953.438148999991
 30
0.0
 40
15.0
 50
270.0
 51
90.0
  0
ARC
  5
4346
  8
0
  6
BYBLOCK
 62
     0
 10
27543.04887499996
 20
19481.435443999981
 30
0.0
 40
15.0
 50
270.0
 51
90.0
  0
ARC
  5
4347
  8
0
  6
BYBLOCK
 62
     0
 10
27543.04887499996
 20
19481.435443999981
 30
0.0
 40
15.0
 50
90.0
 51
270.0
  0
ARC
  5
4348
  8
0
  6
BYBLOCK
 62
     0
 10
27543.04887499996
 20
19523.932738999982
 30
0.0
 40
15.0
 50
90.0
 51
270.0
  0
ARC
  5
4349
  8
0
  6
BYBLOCK
 62
     0
 10
27543.04887499996
 20
19523.932738999982
 30
0.0
 40
15.0
 50
270.0
 51
90.0
  0
ARC
  5
434A
  8
0
  6
BYBLOCK
 62
     0
 10
27543.04887499996
 20
13995.935443999981
 30
0.0
 40
15.0
 50
90.0
 51
270.0
  0
ARC
  5
434B
  8
0
  6
BYBLOCK
 62
     0
 10
27543.04887499996
 20
13995.935443999981
 30
0.0
 40
15.0
 50
270.0
 51
90.0
  0
ARC
  5
434C
  8
0
  6
BYBLOCK
 62
     0
 10
27543.04887499996
 20
13953.438148999991
 30
0.0
 40
15.0
 50
270.0
 51
90.0
  0
ARC
  5
434D
  8
0
  6
BYBLOCK
 62
     0
 10
27543.04887499996
 20
13953.438148999991
 30
0.0
 40
15.0
 50
90.0
 51
270.0
  0
ARC
  5
434E
  8
0
  6
BYBLOCK
 62
     0
 10
20632.544981499999
 20
20253.936632000001
 30
0.0
 40
15.0
 50
0.0
 51
180.0
  0
ARC
  5
434F
  8
0
  6
BYBLOCK
 62
     0
 10
20632.544981499999
 20
20253.936632000001
 30
0.0
 40
15.0
 50
180.0
 51
0.0
  0
ARC
  5
4350
  8
0
  6
BYBLOCK
 62
     0
 10
23132.54927099996
 20
20253.936632000001
 30
0.0
 40
15.0
 50
180.0
 51
0.0
  0
ARC
  5
4351
  8
0
  6
BYBLOCK
 62
     0
 10
23132.54927099996
 20
20253.936632000001
 30
0.0
 40
15.0
 50
0.0
 51
180.0
  0
ARC
  5
4352
  8
0
  6
BYBLOCK
 62
     0
 10
25292.54927099996
 20
20253.936632000001
 30
0.0
 40
15.0
 50
0.0
 51
180.0
  0
ARC
  5
4353
  8
0
  6
BYBLOCK
 62
     0
 10
25292.54927099996
 20
20253.936632000001
 30
0.0
 40
15.0
 50
180.0
 51
0.0
  0
ARC
  5
4354
  8
0
  6
BYBLOCK
 62
     0
 10
26050.55026049996
 20
20253.936632000001
 30
0.0
 40
15.0
 50
180.0
 51
0.0
  0
ARC
  5
4355
  8
0
  6
BYBLOCK
 62
     0
 10
26050.55026049996
 20
20253.936632000001
 30
0.0
 40
15.0
 50
0.0
 51
180.0
  0
ARC
  5
4356
  8
0
  6
BYBLOCK
 62
     0
 10
24591.54927099996
 20
20253.936632000001
 30
0.0
 40
15.0
 50
0.0
 51
180.0
  0
ARC
  5
4357
  8
0
  6
BYBLOCK
 62
     0
 10
24591.54927099996
 20
20253.936632000001
 30
0.0
 40
15.0
 50
180.0
 51
0.0
  0
ARC
  5
4358
  8
0
  6
BYBLOCK
 62
     0
 10
25292.54927099996
 20
20253.936632000001
 30
0.0
 40
15.0
 50
180.0
 51
0.0
  0
ARC
  5
4359
  8
0
  6
BYBLOCK
 62
     0
 10
25292.54927099996
 20
20253.936632000001
 30
0.0
 40
15.0
 50
0.0
 51
180.0
  0
ARC
  5
435A
  8
0
  6
BYBLOCK
 62
     0
 10
23890.549270999971
 20
20253.936632000001
 30
0.0
 40
15.0
 50
0.0
 51
180.0
  0
ARC
  5
435B
  8
0
  6
BYBLOCK
 62
     0
 10
23890.549270999971
 20
20253.936632000001
 30
0.0
 40
15.0
 50
180.0
 51
0.0
  0
ARC
  5
435C
  8
0
  6
BYBLOCK
 62
     0
 10
24591.54927099996
 20
20253.936632000001
 30
0.0
 40
15.0
 50
180.0
 51
0.0
  0
ARC
  5
435D
  8
0
  6
BYBLOCK
 62
     0
 10
24591.54927099996
 20
20253.936632000001
 30
0.0
 40
15.0
 50
0.0
 51
180.0
  0
ARC
  5
435E
  8
0
  6
BYBLOCK
 62
     0
 10
26050.54927099996
 20
20253.936632000001
 30
0.0
 40
15.0
 50
180.0
 51
0.0
  0
ARC
  5
435F
  8
0
  6
BYBLOCK
 62
     0
 10
26050.54927099996
 20
20253.936632000001
 30
0.0
 40
15.0
 50
0.0
 51
180.0
  0
ARC
  5
4360
  8
0
  6
BYBLOCK
 62
     0
 10
26093.04557599996
 20
20253.936632000001
 30
0.0
 40
15.0
 50
0.0
 51
180.0
  0
ARC
  5
4361
  8
0
  6
BYBLOCK
 62
     0
 10
26093.04557599996
 20
20253.936632000001
 30
0.0
 40
15.0
 50
180.0
 51
0.0
  0
ARC
  5
4362
  8
0
  6
BYBLOCK
 62
     0
 10
17714.543991999992
 20
20253.936632000001
 30
0.0
 40
15.0
 50
0.0
 51
180.0
  0
ARC
  5
4363
  8
0
  6
BYBLOCK
 62
     0
 10
17714.543991999992
 20
20253.936632000001
 30
0.0
 40
15.0
 50
180.0
 51
0.0
  0
ARC
  5
4364
  8
0
  6
BYBLOCK
 62
     0
 10
17672.047686999991
 20
20253.936632000001
 30
0.0
 40
15.0
 50
180.0
 51
0.0
  0
ARC
  5
4365
  8
0
  6
BYBLOCK
 62
     0
 10
17672.047686999991
 20
20253.936632000001
 30
0.0
 40
15.0
 50
0.0
 51
180.0
  0
ARC
  5
4366
  8
0
  6
BYBLOCK
 62
     0
 10
19874.543991999992
 20
20253.936632000001
 30
0.0
 40
15.0
 50
0.0
 51
180.0
  0
ARC
  5
4367
  8
0
  6
BYBLOCK
 62
     0
 10
19874.543991999992
 20
20253.936632000001
 30
0.0
 40
15.0
 50
180.0
 51
0.0
  0
ARC
  5
4368
  8
0
  6
BYBLOCK
 62
     0
 10
20632.544981499999
 20
20253.936632000001
 30
0.0
 40
15.0
 50
180.0
 51
0.0
  0
ARC
  5
4369
  8
0
  6
BYBLOCK
 62
     0
 10
20632.544981499999
 20
20253.936632000001
 30
0.0
 40
15.0
 50
0.0
 51
180.0
  0
ARC
  5
436A
  8
0
  6
BYBLOCK
 62
     0
 10
19173.543991999992
 20
20253.936632000001
 30
0.0
 40
15.0
 50
0.0
 51
180.0
  0
ARC
  5
436B
  8
0
  6
BYBLOCK
 62
     0
 10
19173.543991999992
 20
20253.936632000001
 30
0.0
 40
15.0
 50
180.0
 51
0.0
  0
ARC
  5
436C
  8
0
  6
BYBLOCK
 62
     0
 10
19874.543991999992
 20
20253.936632000001
 30
0.0
 40
15.0
 50
180.0
 51
0.0
  0
ARC
  5
436D
  8
0
  6
BYBLOCK
 62
     0
 10
19874.543991999992
 20
20253.936632000001
 30
0.0
 40
15.0
 50
0.0
 51
180.0
  0
ARC
  5
436E
  8
0
  6
BYBLOCK
 62
     0
 10
18472.543991999992
 20
20253.936632000001
 30
0.0
 40
15.0
 50
0.0
 51
180.0
  0
ARC
  5
436F
  8
0
  6
BYBLOCK
 62
     0
 10
18472.543991999992
 20
20253.936632000001
 30
0.0
 40
15.0
 50
180.0
 51
0.0
  0
ARC
  5
4370
  8
0
  6
BYBLOCK
 62
     0
 10
19173.543991999992
 20
20253.936632000001
 30
0.0
 40
15.0
 50
180.0
 51
0.0
  0
ARC
  5
4371
  8
0
  6
BYBLOCK
 62
     0
 10
19173.543991999992
 20
20253.936632000001
 30
0.0
 40
15.0
 50
0.0
 51
180.0
  0
ARC
  5
4372
  8
0
  6
BYBLOCK
 62
     0
 10
16864.54465199999
 20
5884.5023850000016
 30
0.0
 40
15.0
 50
90.0
 51
270.0
  0
ARC
  5
4373
  8
0
  6
BYBLOCK
 62
     0
 10
16864.54465199999
 20
5884.5023850000016
 30
0.0
 40
15.0
 50
270.0
 51
90.0
  0
ARC
  5
4374
  8
0
  6
BYBLOCK
 62
     0
 10
16864.54465199999
 20
7776.0023850000016
 30
0.0
 40
15.0
 50
270.0
 51
90.0
  0
ARC
  5
4375
  8
0
  6
BYBLOCK
 62
     0
 10
16864.54465199999
 20
7776.0023850000016
 30
0.0
 40
15.0
 50
90.0
 51
270.0
  0
ARC
  5
4376
  8
0
  6
BYBLOCK
 62
     0
 10
16464.54234299999
 20
5884.5023850000016
 30
0.0
 40
15.0
 50
90.0
 51
270.0
  0
ARC
  5
4377
  8
0
  6
BYBLOCK
 62
     0
 10
16464.54234299999
 20
5884.5023850000016
 30
0.0
 40
15.0
 50
270.0
 51
90.0
  0
ARC
  5
4378
  8
0
  6
BYBLOCK
 62
     0
 10
16464.54234299999
 20
8233.0018899999941
 30
0.0
 40
15.0
 50
270.0
 51
90.0
  0
ARC
  5
4379
  8
0
  6
BYBLOCK
 62
     0
 10
16464.54234299999
 20
8233.0018899999941
 30
0.0
 40
15.0
 50
90.0
 51
270.0
  0
ARC
  5
438A
  8
0
  6
BYBLOCK
 62
     0
 10
17808.543991999992
 20
4984.5025500000093
 30
0.0
 40
15.0
 50
0.0
 51
180.0
  0
ARC
  5
438B
  8
0
  6
BYBLOCK
 62
     0
 10
17808.543991999992
 20
4984.5025500000093
 30
0.0
 40
15.0
 50
180.0
 51
0.0
  0
ARC
  5
438C
  8
0
  6
BYBLOCK
 62
     0
 10
20538.543991999992
 20
4984.5025500000093
 30
0.0
 40
15.0
 50
180.0
 51
0.0
  0
ARC
  5
438D
  8
0
  6
BYBLOCK
 62
     0
 10
20538.543991999992
 20
4984.5025500000093
 30
0.0
 40
15.0
 50
0.0
 51
180.0
  0
ARC
  5
438E
  8
0
  6
BYBLOCK
 62
     0
 10
23226.54927099996
 20
4984.5025500000093
 30
0.0
 40
15.0
 50
0.0
 51
180.0
  0
ARC
  5
438F
  8
0
  6
BYBLOCK
 62
     0
 10
23226.54927099996
 20
4984.5025500000093
 30
0.0
 40
15.0
 50
180.0
 51
0.0
  0
ARC
  5
4390
  8
0
  6
BYBLOCK
 62
     0
 10
25956.54927099996
 20
4984.5025500000093
 30
0.0
 40
15.0
 50
180.0
 51
0.0
  0
ARC
  5
4391
  8
0
  6
BYBLOCK
 62
     0
 10
25956.54927099996
 20
4984.5025500000093
 30
0.0
 40
15.0
 50
0.0
 51
180.0
  0
ARC
  5
4392
  8
0
  6
BYBLOCK
 62
     0
 10
23132.54927099996
 20
4584.5025500000056
 30
0.0
 40
15.0
 50
0.0
 51
180.0
  0
ARC
  5
4393
  8
0
  6
BYBLOCK
 62
     0
 10
23132.54927099996
 20
4584.5025500000056
 30
0.0
 40
15.0
 50
180.0
 51
0.0
  0
ARC
  5
4394
  8
0
  6
BYBLOCK
 62
     0
 10
26050.54927099996
 20
4584.5025500000056
 30
0.0
 40
15.0
 50
180.0
 51
0.0
  0
ARC
  5
4395
  8
0
  6
BYBLOCK
 62
     0
 10
26050.54927099996
 20
4584.5025500000056
 30
0.0
 40
15.0
 50
0.0
 51
180.0
  0
ARC
  5
4396
  8
0
  6
BYBLOCK
 62
     0
 10
20632.543991999992
 20
4584.5025500000056
 30
0.0
 40
15.0
 50
0.0
 51
180.0
  0
ARC
  5
4397
  8
0
  6
BYBLOCK
 62
     0
 10
20632.543991999992
 20
4584.5025500000056
 30
0.0
 40
15.0
 50
180.0
 51
0.0
  0
ARC
  5
4398
  8
0
  6
BYBLOCK
 62
     0
 10
23132.54927099996
 20
4584.5025500000056
 30
0.0
 40
15.0
 50
180.0
 51
0.0
  0
ARC
  5
4399
  8
0
  6
BYBLOCK
 62
     0
 10
23132.54927099996
 20
4584.5025500000056
 30
0.0
 40
15.0
 50
0.0
 51
180.0
  0
ARC
  5
439A
  8
0
  6
BYBLOCK
 62
     0
 10
17714.543991999992
 20
4584.5025500000056
 30
0.0
 40
15.0
 50
0.0
 51
180.0
  0
ARC
  5
439B
  8
0
  6
BYBLOCK
 62
     0
 10
17714.543991999992
 20
4584.5025500000056
 30
0.0
 40
15.0
 50
180.0
 51
0.0
  0
ARC
  5
439C
  8
0
  6
BYBLOCK
 62
     0
 10
20632.543991999992
 20
4584.5025500000056
 30
0.0
 40
15.0
 50
180.0
 51
0.0
  0
ARC
  5
439D
  8
0
  6
BYBLOCK
 62
     0
 10
20632.543991999992
 20
4584.5025500000056
 30
0.0
 40
15.0
 50
0.0
 51
180.0
  0
ARC
  5
439E
  8
0
  6
BYBLOCK
 62
     0
 10
26050.553229999961
 20
4584.5025500000056
 30
0.0
 40
15.0
 50
180.0
 51
0.0
  0
ARC
  5
439F
  8
0
  6
BYBLOCK
 62
     0
 10
26050.553229999961
 20
4584.5025500000056
 30
0.0
 40
15.0
 50
0.0
 51
180.0
  0
ARC
  5
43A0
  8
0
  6
BYBLOCK
 62
     0
 10
26093.05322999998
 20
4584.5025500000056
 30
0.0
 40
15.0
 50
0.0
 51
180.0
  0
ARC
  5
43A1
  8
0
  6
BYBLOCK
 62
     0
 10
26093.05322999998
 20
4584.5025500000056
 30
0.0
 40
15.0
 50
180.0
 51
0.0
  0
ARC
  5
43A2
  8
0
  6
BYBLOCK
 62
     0
 10
17714.543991999992
 20
4584.5025500000056
 30
0.0
 40
15.0
 50
0.0
 51
180.0
  0
ARC
  5
43A3
  8
0
  6
BYBLOCK
 62
     0
 10
17714.543991999992
 20
4584.5025500000056
 30
0.0
 40
15.0
 50
180.0
 51
0.0
  0
ARC
  5
43A4
  8
0
  6
BYBLOCK
 62
     0
 10
17672.043991999992
 20
4584.5025500000056
 30
0.0
 40
15.0
 50
180.0
 51
0.0
  0
ARC
  5
43A5
  8
0
  6
BYBLOCK
 62
     0
 10
17672.043991999992
 20
4584.5025500000056
 30
0.0
 40
15.0
 50
0.0
 51
180.0
  0
ARC
  5
43A6
  8
0
  6
BYBLOCK
 62
     0
 10
17672.043991999992
 20
4184.5027150000033
 30
0.0
 40
15.0
 50
0.0
 51
180.0
  0
ARC
  5
43A7
  8
0
  6
BYBLOCK
 62
     0
 10
17672.043991999992
 20
4184.5027150000033
 30
0.0
 40
15.0
 50
180.0
 51
0.0
  0
ARC
  5
43A8
  8
0
  6
BYBLOCK
 62
     0
 10
26093.04927099996
 20
4184.5027150000033
 30
0.0
 40
15.0
 50
180.0
 51
0.0
  0
ARC
  5
43A9
  8
0
  6
BYBLOCK
 62
     0
 10
26093.04927099996
 20
4184.5027150000033
 30
0.0
 40
15.0
 50
0.0
 51
180.0
  0
ARC
  5
43AA
  8
0
  6
BYBLOCK
 62
     0
 10
6656.1481469999999
 20
9032.5045560000017
 30
0.0
 40
15.0
 50
180.0
 51
0.0
  0
ARC
  5
43AB
  8
0
  6
BYBLOCK
 62
     0
 10
6656.1481469999999
 20
9032.5045560000017
 30
0.0
 40
15.0
 50
0.0
 51
180.0
  0
ARC
  5
43AC
  8
0
  6
BYBLOCK
 62
     0
 10
6476.1481469999999
 20
9032.5045560000017
 30
0.0
 40
15.0
 50
0.0
 51
180.0
  0
ARC
  5
43AD
  8
0
  6
BYBLOCK
 62
     0
 10
6476.1481469999999
 20
9032.5045560000017
 30
0.0
 40
15.0
 50
180.0
 51
0.0
  0
ARC
  5
43AE
  8
0
  6
BYBLOCK
 62
     0
 10
13316.64656299998
 20
5884.5028800000018
 30
0.0
 40
15.0
 50
90.0
 51
270.0
  0
ARC
  5
43AF
  8
0
  6
BYBLOCK
 62
     0
 10
13316.64656299998
 20
5884.5028800000018
 30
0.0
 40
15.0
 50
270.0
 51
90.0
  0
ARC
  5
43B0
  8
0
  6
BYBLOCK
 62
     0
 10
13316.64656299998
 20
8233.0028800000018
 30
0.0
 40
15.0
 50
270.0
 51
90.0
  0
ARC
  5
43B1
  8
0
  6
BYBLOCK
 62
     0
 10
13316.64656299998
 20
8233.0028800000018
 30
0.0
 40
15.0
 50
90.0
 51
270.0
  0
ARC
  5
43B2
  8
0
  6
BYBLOCK
 62
     0
 10
5566.149729000007
 20
5884.5028800000018
 30
0.0
 40
15.0
 50
90.0
 51
270.0
  0
ARC
  5
43B3
  8
0
  6
BYBLOCK
 62
     0
 10
5566.149729000007
 20
5884.5028800000018
 30
0.0
 40
15.0
 50
270.0
 51
90.0
  0
ARC
  5
43B4
  8
0
  6
BYBLOCK
 62
     0
 10
5566.1497290000088
 20
8040.5028800000073
 30
0.0
 40
15.0
 50
270.0
 51
90.0
  0
ARC
  5
43B5
  8
0
  6
BYBLOCK
 62
     0
 10
5566.1497290000088
 20
8040.5028800000073
 30
0.0
 40
15.0
 50
90.0
 51
270.0
  0
ARC
  5
43B6
  8
0
  6
BYBLOCK
 62
     0
 10
6476.1481469999999
 20
9432.5029060000015
 30
0.0
 40
15.0
 50
0.0
 51
180.0
  0
ARC
  5
43B7
  8
0
  6
BYBLOCK
 62
     0
 10
6476.1481469999999
 20
9432.5029060000015
 30
0.0
 40
15.0
 50
180.0
 51
0.0
  0
ARC
  5
43B8
  8
0
  6
BYBLOCK
 62
     0
 10
12376.648147
 20
9432.5029060000015
 30
0.0
 40
15.0
 50
180.0
 51
0.0
  0
ARC
  5
43B9
  8
0
  6
BYBLOCK
 62
     0
 10
12376.648147
 20
9432.5029060000015
 30
0.0
 40
15.0
 50
0.0
 51
180.0
  0
ARC
  5
43BA
  8
0
  6
BYBLOCK
 62
     0
 10
12226.648147
 20
9032.5045560000017
 30
0.0
 40
15.0
 50
180.0
 51
0.0
  0
ARC
  5
43BB
  8
0
  6
BYBLOCK
 62
     0
 10
12226.648147
 20
9032.5045560000017
 30
0.0
 40
15.0
 50
0.0
 51
180.0
  0
ARC
  5
43BC
  8
0
  6
BYBLOCK
 62
     0
 10
12376.648147
 20
9032.5045560000017
 30
0.0
 40
15.0
 50
0.0
 51
180.0
  0
ARC
  5
43BD
  8
0
  6
BYBLOCK
 62
     0
 10
12376.648147
 20
9032.5045560000017
 30
0.0
 40
15.0
 50
180.0
 51
0.0
  0
ARC
  5
43BE
  8
0
  6
BYBLOCK
 62
     0
 10
6656.1481469999999
 20
9032.5045560000017
 30
0.0
 40
15.0
 50
0.0
 51
180.0
  0
ARC
  5
43BF
  8
0
  6
BYBLOCK
 62
     0
 10
6656.1481469999999
 20
9032.5045560000017
 30
0.0
 40
15.0
 50
180.0
 51
0.0
  0
ARC
  5
43C0
  8
0
  6
BYBLOCK
 62
     0
 10
12226.648147
 20
9032.5045560000017
 30
0.0
 40
15.0
 50
180.0
 51
0.0
  0
ARC
  5
43C1
  8
0
  6
BYBLOCK
 62
     0
 10
12226.648147
 20
9032.5045560000017
 30
0.0
 40
15.0
 50
0.0
 51
180.0
  0
ARC
  5
43C2
  8
0
  6
BYBLOCK
 62
     0
 10
6656.1481469999999
 20
4184.5032100000053
 30
0.0
 40
15.0
 50
0.0
 51
180.0
  0
ARC
  5
43C3
  8
0
  6
BYBLOCK
 62
     0
 10
6656.1481469999999
 20
4184.5032100000053
 30
0.0
 40
15.0
 50
180.0
 51
0.0
  0
ARC
  5
43C4
  8
0
  6
BYBLOCK
 62
     0
 10
12226.648147
 20
4184.5032100000053
 30
0.0
 40
15.0
 50
180.0
 51
0.0
  0
ARC
  5
43C5
  8
0
  6
BYBLOCK
 62
     0
 10
12226.648147
 20
4184.5032100000053
 30
0.0
 40
15.0
 50
0.0
 51
180.0
  0
ARC
  5
43C6
  8
0
  6
BYBLOCK
 62
     0
 10
12184.148147
 20
4584.5030450000031
 30
0.0
 40
15.0
 50
180.0
 51
0.0
  0
ARC
  5
43C7
  8
0
  6
BYBLOCK
 62
     0
 10
12184.148147
 20
4584.5030450000031
 30
0.0
 40
15.0
 50
0.0
 51
180.0
  0
ARC
  5
43C8
  8
0
  6
BYBLOCK
 62
     0
 10
12226.648147
 20
4584.5030450000031
 30
0.0
 40
15.0
 50
0.0
 51
180.0
  0
ARC
  5
43C9
  8
0
  6
BYBLOCK
 62
     0
 10
12226.648147
 20
4584.5030450000031
 30
0.0
 40
15.0
 50
180.0
 51
0.0
  0
ARC
  5
43CA
  8
0
  6
BYBLOCK
 62
     0
 10
6698.6481469999999
 20
4584.5030450000031
 30
0.0
 40
15.0
 50
0.0
 51
180.0
  0
ARC
  5
43CB
  8
0
  6
BYBLOCK
 62
     0
 10
6698.6481469999999
 20
4584.5030450000031
 30
0.0
 40
15.0
 50
180.0
 51
0.0
  0
ARC
  5
43CC
  8
0
  6
BYBLOCK
 62
     0
 10
6656.1481469999999
 20
4584.5030450000031
 30
0.0
 40
15.0
 50
180.0
 51
0.0
  0
ARC
  5
43CD
  8
0
  6
BYBLOCK
 62
     0
 10
6656.1481469999999
 20
4584.5030450000031
 30
0.0
 40
15.0
 50
0.0
 51
180.0
  0
ARC
  5
43CE
  8
0
  6
BYBLOCK
 62
     0
 10
9266.1481469999999
 20
4584.5030450000031
 30
0.0
 40
15.0
 50
180.0
 51
0.0
  0
ARC
  5
43CF
  8
0
  6
BYBLOCK
 62
     0
 10
9266.1481469999999
 20
4584.5030450000031
 30
0.0
 40
15.0
 50
0.0
 51
180.0
  0
ARC
  5
43D0
  8
0
  6
BYBLOCK
 62
     0
 10
6698.6481469999999
 20
4584.5030450000031
 30
0.0
 40
15.0
 50
0.0
 51
180.0
  0
ARC
  5
43D1
  8
0
  6
BYBLOCK
 62
     0
 10
6698.6481469999999
 20
4584.5030450000031
 30
0.0
 40
15.0
 50
180.0
 51
0.0
  0
ARC
  5
43D2
  8
0
  6
BYBLOCK
 62
     0
 10
9266.1481469999999
 20
4584.5030450000031
 30
0.0
 40
15.0
 50
0.0
 51
180.0
  0
ARC
  5
43D3
  8
0
  6
BYBLOCK
 62
     0
 10
9266.1481469999999
 20
4584.5030450000031
 30
0.0
 40
15.0
 50
180.0
 51
0.0
  0
ARC
  5
43D4
  8
0
  6
BYBLOCK
 62
     0
 10
12184.148147
 20
4584.5030450000031
 30
0.0
 40
15.0
 50
180.0
 51
0.0
  0
ARC
  5
43D5
  8
0
  6
BYBLOCK
 62
     0
 10
12184.148147
 20
4584.5030450000031
 30
0.0
 40
15.0
 50
0.0
 51
180.0
  0
LINE
  5
451B
  8
0-1
  6
CONTINUOUS
 62
     3
 10
25987.052252999962
 20
7983.0024050000065
 30
0.0
 11
25987.052252999962
 21
8015.0023120000051
 31
0.0
  0
LINE
  5
451C
  8
0-1
  6
CONTINUOUS
 62
     3
 10
26136.05164599996
 20
7906.8156830000089
 30
0.0
 11
26093.049534999958
 21
7906.8156830000089
 31
0.0
  0
LINE
  5
451D
  8
0-1
  6
CONTINUOUS
 62
     3
 10
26136.05164599996
 20
8233.0027340000088
 30
0.0
 11
26136.05164599996
 21
7906.8156830000089
 31
0.0
  0
LINE
  5
451E
  8
0-1
  6
CONTINUOUS
 62
     3
 10
25701.085059999969
 20
7979.4669840000051
 30
0.0
 11
25669.08614299996
 21
8011.4668920000013
 31
0.0
  0
LINE
  5
451F
  8
0-1
  6
CONTINUOUS
 62
     3
 10
25982.05198899996
 20
8020.002576000008
 30
0.0
 11
25672.621562999961
 21
8020.002576000008
 31
0.0
  0
LINE
  5
4520
  8
0-1
  6
CONTINUOUS
 62
     3
 10
25987.052252999962
 20
8011.6034790000058
 30
0.0
 11
25668.955493999969
 21
8011.6034790000058
 31
0.0
  0
LINE
  5
4521
  8
0-1
  6
CONTINUOUS
 62
     3
 10
25982.05198899996
 20
7978.002141000009
 30
0.0
 11
25704.622459999959
 21
7978.002141000009
 31
0.0
  0
LINE
  5
4522
  8
0-1
  6
CONTINUOUS
 62
     3
 10
25987.052252999962
 20
7986.4022280000008
 30
0.0
 11
25694.150806999962
 21
7986.4022280000008
 31
0.0
  0
LINE
  5
4523
  8
0-1
  6
CONTINUOUS
 62
     3
 10
25987.052252999962
 20
7994.8023150000035
 30
0.0
 11
25685.75170899996
 21
7994.8023150000035
 31
0.0
  0
LINE
  5
4524
  8
0-1
  6
CONTINUOUS
 62
     3
 10
25987.052252999962
 20
8003.2033920000076
 30
0.0
 11
25677.350632999962
 21
8003.2033920000076
 31
0.0
  0
LINE
  5
4525
  8
0-1
  6
CONTINUOUS
 62
     3
 10
23482.015460999992
 20
7979.4669840000051
 30
0.0
 11
23514.012398999988
 21
8011.4668920000013
 31
0.0
  0
LINE
  5
4526
  8
0-1
  6
CONTINUOUS
 62
     3
 10
23196.050246999981
 20
7983.0024050000065
 30
0.0
 11
23196.050246999981
 21
8015.0023120000051
 31
0.0
  0
LINE
  5
4527
  8
0-1
  6
CONTINUOUS
 62
     3
 10
23069.048293999989
 20
7983.0024050000065
 30
0.0
 11
23069.048293999989
 21
8015.0023120000051
 31
0.0
  0
LINE
  5
4528
  8
0-1
  6
CONTINUOUS
 62
     3
 10
23196.050246999981
 20
7986.4022280000008
 30
0.0
 11
23488.94773499998
 21
7986.4022280000008
 31
0.0
  0
LINE
  5
4529
  8
0-1
  6
CONTINUOUS
 62
     3
 10
23196.050246999981
 20
7994.8023150000035
 30
0.0
 11
23497.348811999989
 21
7994.8023150000035
 31
0.0
  0
LINE
  5
452A
  8
0-1
  6
CONTINUOUS
 62
     3
 10
23201.050510999979
 20
7978.002141000009
 30
0.0
 11
23478.47806099998
 21
7978.002141000009
 31
0.0
  0
LINE
  5
452B
  8
0-1
  6
CONTINUOUS
 62
     3
 10
23196.050246999981
 20
8003.2033920000076
 30
0.0
 11
23505.747908999991
 21
8003.2033920000076
 31
0.0
  0
LINE
  5
452C
  8
0-1
  6
CONTINUOUS
 62
     3
 10
23196.050246999981
 20
8011.6034790000058
 30
0.0
 11
23514.14502699998
 21
8011.6034790000058
 31
0.0
  0
LINE
  5
452D
  8
0-1
  6
CONTINUOUS
 62
     3
 10
23201.050510999979
 20
8020.002576000008
 30
0.0
 11
23510.478958
 21
8020.002576000008
 31
0.0
  0
LINE
  5
452E
  8
0-1
  6
CONTINUOUS
 62
     3
 10
22783.08308099999
 20
7979.4669840000051
 30
0.0
 11
22751.086142999979
 21
8011.4668920000013
 31
0.0
  0
LINE
  5
452F
  8
0-1
  6
CONTINUOUS
 62
     3
 10
23064.050009999992
 20
7978.002141000009
 30
0.0
 11
22786.61850099999
 21
7978.002141000009
 31
0.0
  0
LINE
  5
4530
  8
0-1
  6
CONTINUOUS
 62
     3
 10
23064.050009999992
 20
8020.002576000008
 30
0.0
 11
22754.619582999971
 21
8020.002576000008
 31
0.0
  0
LINE
  5
4531
  8
0-1
  6
CONTINUOUS
 62
     3
 10
23069.048293999989
 20
7986.4022280000008
 30
0.0
 11
22776.15080699998
 21
7986.4022280000008
 31
0.0
  0
LINE
  5
4532
  8
0-1
  6
CONTINUOUS
 62
     3
 10
23069.048293999989
 20
7994.8023150000035
 30
0.0
 11
22767.74972999997
 21
7994.8023150000035
 31
0.0
  0
LINE
  5
4533
  8
0-1
  6
CONTINUOUS
 62
     3
 10
23069.048293999989
 20
8003.2033920000076
 30
0.0
 11
22759.35063299998
 21
8003.2033920000076
 31
0.0
  0
LINE
  5
4534
  8
0-1
  6
CONTINUOUS
 62
     3
 10
23069.048293999989
 20
8011.6034790000058
 30
0.0
 11
22750.95549499998
 21
8011.6034790000058
 31
0.0
  0
LINE
  5
4535
  8
0-1
  6
CONTINUOUS
 62
     3
 10
22041.656375999992
 20
7792.5024440000007
 30
0.0
 11
23848.044282999988
 21
7792.5024440000007
 31
0.0
  0
LINE
  5
4536
  8
0-1
  6
CONTINUOUS
 62
     3
 10
22041.656375999992
 20
7969.0022590000062
 30
0.0
 11
23090.05098699997
 21
7969.0022590000062
 31
0.0
  0
LINE
  5
4537
  8
0-1
  6
CONTINUOUS
 62
     3
 10
22041.656375999992
 20
8029.0024570000069
 30
0.0
 11
23090.05098699997
 21
8029.0024570000069
 31
0.0
  0
LINE
  5
4538
  8
0-1
  6
CONTINUOUS
 62
     3
 10
26136.05164599996
 20
8103.0018110000028
 30
0.0
 11
22041.656375999992
 21
8103.0018110000028
 31
0.0
  0
LINE
  5
4539
  8
0-1
  6
CONTINUOUS
 62
     3
 10
23175.04755499999
 20
8029.0024570000069
 30
0.0
 11
26008.050985999958
 21
8029.0024570000069
 31
0.0
  0
LINE
  5
453A
  8
0-1
  6
CONTINUOUS
 62
     3
 10
23175.04755499999
 20
7969.0022590000062
 30
0.0
 11
26008.050985999958
 21
7969.0022590000062
 31
0.0
  0
LINE
  5
453B
  8
0-1
  6
CONTINUOUS
 62
     3
 10
23175.04755499999
 20
7792.5024440000007
 30
0.0
 11
26008.050985999958
 21
7792.5024440000007
 31
0.0
  0
LINE
  5
453C
  8
0-1
  6
CONTINUOUS
 62
     3
 10
22041.656375999992
 20
8233.0027340000088
 30
0.0
 11
26136.05164599996
 21
8233.0027340000088
 31
0.0
  0
LINE
  5
453D
  8
0-1
  6
CONTINUOUS
 62
     3
 10
20696.044968999991
 20
7986.4022280000008
 30
0.0
 11
20988.946414999991
 21
7986.4022280000008
 31
0.0
  0
LINE
  5
453E
  8
0-1
  6
CONTINUOUS
 62
     3
 10
20696.044968999991
 20
7994.8023150000035
 30
0.0
 11
20997.343532999988
 21
7994.8023150000035
 31
0.0
  0
LINE
  5
453F
  8
0-1
  6
CONTINUOUS
 62
     3
 10
20701.045232999972
 20
7978.002141000009
 30
0.0
 11
20978.47476199998
 21
7978.002141000009
 31
0.0
  0
LINE
  5
4540
  8
0-1
  6
CONTINUOUS
 62
     3
 10
20696.044968999991
 20
8003.2033920000076
 30
0.0
 11
21005.746588999991
 21
8003.2033920000076
 31
0.0
  0
LINE
  5
4541
  8
0-1
  6
CONTINUOUS
 62
     3
 10
20701.045232999972
 20
8020.002576000008
 30
0.0
 11
21010.47367999997
 21
8020.002576000008
 31
0.0
  0
LINE
  5
4542
  8
0-1
  6
CONTINUOUS
 62
     3
 10
20696.044968999991
 20
7983.0024050000065
 30
0.0
 11
20696.044968999991
 21
8015.0023120000051
 31
0.0
  0
LINE
  5
4543
  8
0-1
  6
CONTINUOUS
 62
     3
 10
20569.043015999989
 20
7983.0024050000065
 30
0.0
 11
20569.043015999989
 21
8015.0023120000051
 31
0.0
  0
LINE
  5
4544
  8
0-1
  6
CONTINUOUS
 62
     3
 10
20696.044968999991
 20
8011.6034790000058
 30
0.0
 11
21014.13974799998
 21
8011.6034790000058
 31
0.0
  0
LINE
  5
4545
  8
0-1
  6
CONTINUOUS
 62
     3
 10
20982.01018199998
 20
7979.4669840000051
 30
0.0
 11
21014.007119999991
 21
8011.4668920000013
 31
0.0
  0
LINE
  5
4546
  8
0-1
  6
CONTINUOUS
 62
     3
 10
20283.081760999979
 20
7979.4669840000051
 30
0.0
 11
20251.080863999989
 21
8011.4668920000013
 31
0.0
  0
LINE
  5
4547
  8
0-1
  6
CONTINUOUS
 62
     3
 10
20569.043015999989
 20
8011.6034790000058
 30
0.0
 11
20250.95021599999
 21
8011.6034790000058
 31
0.0
  0
LINE
  5
4548
  8
0-1
  6
CONTINUOUS
 62
     3
 10
20569.043015999989
 20
8003.2033920000076
 30
0.0
 11
20259.34535399999
 21
8003.2033920000076
 31
0.0
  0
LINE
  5
4549
  8
0-1
  6
CONTINUOUS
 62
     3
 10
20569.043015999989
 20
7994.8023150000035
 30
0.0
 11
20267.74445099998
 21
7994.8023150000035
 31
0.0
  0
LINE
  5
454A
  8
0-1
  6
CONTINUOUS
 62
     3
 10
20569.043015999989
 20
7986.4022280000008
 30
0.0
 11
20276.143548999989
 21
7986.4022280000008
 31
0.0
  0
LINE
  5
454B
  8
0-1
  6
CONTINUOUS
 62
     3
 10
20564.044730999991
 20
8020.002576000008
 30
0.0
 11
20254.614304999981
 21
8020.002576000008
 31
0.0
  0
LINE
  5
454C
  8
0-1
  6
CONTINUOUS
 62
     3
 10
20564.044730999991
 20
7978.002141000009
 30
0.0
 11
20286.61718199998
 21
7978.002141000009
 31
0.0
  0
LINE
  5
454D
  8
0-1
  6
CONTINUOUS
 62
     3
 10
17783.043252999989
 20
7978.002141000009
 30
0.0
 11
18060.47278299999
 21
7978.002141000009
 31
0.0
  0
LINE
  5
454E
  8
0-1
  6
CONTINUOUS
 62
     3
 10
17778.04496899998
 20
7983.0024050000065
 30
0.0
 11
17778.04496899998
 21
8015.0023120000051
 31
0.0
  0
LINE
  5
454F
  8
0-1
  6
CONTINUOUS
 62
     3
 10
17629.043596999982
 20
7906.8156830000089
 30
0.0
 11
17672.041749
 21
7906.8156830000089
 31
0.0
  0
LINE
  5
4550
  8
0-1
  6
CONTINUOUS
 62
     3
 10
17629.043596999982
 20
7906.8156830000089
 30
0.0
 11
17629.043596999982
 21
8233.0027340000088
 31
0.0
  0
LINE
  5
4551
  8
0-1
  6
CONTINUOUS
 62
     3
 10
17783.043252999989
 20
8020.002576000008
 30
0.0
 11
18092.473679999988
 21
8020.002576000008
 31
0.0
  0
LINE
  5
4552
  8
0-1
  6
CONTINUOUS
 62
     3
 10
18064.006222999989
 20
7979.4669840000051
 30
0.0
 11
18096.007120999991
 21
8011.4668920000013
 31
0.0
  0
LINE
  5
4553
  8
0-1
  6
CONTINUOUS
 62
     3
 10
17778.04496899998
 20
8011.6034790000058
 30
0.0
 11
18096.139748000001
 21
8011.6034790000058
 31
0.0
  0
LINE
  5
4554
  8
0-1
  6
CONTINUOUS
 62
     3
 10
17778.04496899998
 20
8003.2033920000076
 30
0.0
 11
18087.74263099999
 21
8003.2033920000076
 31
0.0
  0
LINE
  5
4555
  8
0-1
  6
CONTINUOUS
 62
     3
 10
17778.04496899998
 20
7994.8023150000035
 30
0.0
 11
18079.343532999999
 21
7994.8023150000035
 31
0.0
  0
LINE
  5
4556
  8
0-1
  6
CONTINUOUS
 62
     3
 10
17778.04496899998
 20
7986.4022280000008
 30
0.0
 11
18070.944436000002
 21
7986.4022280000008
 31
0.0
  0
LINE
  5
4557
  8
0-1
  6
CONTINUOUS
 62
     3
 10
17757.042277
 20
7792.5024440000007
 30
0.0
 11
20590.04372799999
 21
7792.5024440000007
 31
0.0
  0
LINE
  5
4558
  8
0-1
  6
CONTINUOUS
 62
     3
 10
17757.042277
 20
7969.0022590000062
 30
0.0
 11
20590.04372799999
 21
7969.0022590000062
 31
0.0
  0
LINE
  5
4559
  8
0-1
  6
CONTINUOUS
 62
     3
 10
17757.042277
 20
8029.0024570000069
 30
0.0
 11
20590.04372799999
 21
8029.0024570000069
 31
0.0
  0
LINE
  5
455A
  8
0-1
  6
CONTINUOUS
 62
     3
 10
17629.043596999982
 20
8233.0027340000088
 30
0.0
 11
21741.656375999999
 21
8233.0027340000088
 31
0.0
  0
LINE
  5
455B
  8
0-1
  6
CONTINUOUS
 62
     3
 10
20675.04623599998
 20
8029.0024570000069
 30
0.0
 11
21741.656375999999
 21
8029.0024570000069
 31
0.0
  0
LINE
  5
455C
  8
0-1
  6
CONTINUOUS
 62
     3
 10
20675.04623599998
 20
7969.0022590000062
 30
0.0
 11
21741.656375999999
 21
7969.0022590000062
 31
0.0
  0
LINE
  5
455D
  8
0-1
  6
CONTINUOUS
 62
     3
 10
20675.04623599998
 20
7792.5024440000007
 30
0.0
 11
21741.656375999999
 21
7792.5024440000007
 31
0.0
  0
LINE
  5
455E
  8
0-1
  6
CONTINUOUS
 62
     3
 10
21741.656375999999
 20
8103.0018110000028
 30
0.0
 11
17629.043596999982
 21
8103.0018110000028
 31
0.0
  0
LINE
  5
455F
  8
0-1
  6
CONTINUOUS
 62
     3
 10
20632.543991999992
 20
8103.0018110000028
 30
0.0
 11
20632.543991999992
 21
8233.0027340000088
 31
0.0
  0
LINE
  5
4560
  8
0-1
  6
CONTINUOUS
 62
     3
 10
23132.54927099996
 20
8103.0018110000028
 30
0.0
 11
23132.54927099996
 21
8233.0027340000088
 31
0.0
  0
ARC
  5
4561
  8
0-1
  6
CONTINUOUS
 62
     3
 10
25982.05198899996
 20
8015.0023120000051
 30
0.0
 40
5.0
 50
0.0
 51
90.0
  0
ARC
  5
4562
  8
0-1
  6
CONTINUOUS
 62
     3
 10
25982.05198899996
 20
7983.0024050000065
 30
0.0
 40
5.0
 50
269.9999850001808
 51
0.0
  0
ARC
  5
4563
  8
0-1
  6
CONTINUOUS
 62
     3
 10
25672.621562999961
 20
8015.0023120000051
 30
0.0
 40
5.0
 50
90.0
 51
224.99998499997989
  0
ARC
  5
4564
  8
0-1
  6
CONTINUOUS
 62
     3
 10
25704.622459999959
 20
7983.0024050000065
 30
0.0
 40
5.0
 50
224.99998499997989
 51
269.9999850001808
  0
ARC
  5
4565
  8
0-1
  6
CONTINUOUS
 62
     3
 10
23510.478958
 20
8015.0023120000051
 30
0.0
 40
5.0
 50
314.99998500027471
 51
90.0
  0
ARC
  5
4566
  8
0-1
  6
CONTINUOUS
 62
     3
 10
23478.47806099998
 20
7983.0024050000065
 30
0.0
 40
5.0
 50
269.9999850001808
 51
314.99998500027471
  0
ARC
  5
4567
  8
0-1
  6
CONTINUOUS
 62
     3
 10
23201.050510999979
 20
7983.0024050000065
 30
0.0
 40
5.0
 50
180.0
 51
269.9999850001808
  0
ARC
  5
4568
  8
0-1
  6
CONTINUOUS
 62
     3
 10
23201.050510999979
 20
8015.0023120000051
 30
0.0
 40
5.0
 50
90.0
 51
180.0
  0
ARC
  5
4569
  8
0-1
  6
CONTINUOUS
 62
     3
 10
23064.050009999992
 20
8015.0023120000051
 30
0.0
 40
5.0
 50
0.0
 51
90.0
  0
ARC
  5
456A
  8
0-1
  6
CONTINUOUS
 62
     3
 10
23064.050009999992
 20
7983.0024050000065
 30
0.0
 40
5.0
 50
269.9999850001808
 51
0.0
  0
ARC
  5
456B
  8
0-1
  6
CONTINUOUS
 62
     3
 10
22786.61850099999
 20
7983.0024050000065
 30
0.0
 40
5.0
 50
224.99998499997989
 51
269.9999850001808
  0
ARC
  5
456C
  8
0-1
  6
CONTINUOUS
 62
     3
 10
22754.619582999971
 20
8015.0023120000051
 30
0.0
 40
5.0
 50
90.0
 51
224.99998499997989
  0
ARC
  5
456D
  8
0-1
  6
CONTINUOUS
 62
     3
 10
20701.045232999972
 20
7983.0024050000065
 30
0.0
 40
5.0
 50
180.0
 51
269.9999850001808
  0
ARC
  5
456E
  8
0-1
  6
CONTINUOUS
 62
     3
 10
20701.045232999972
 20
8015.0023120000051
 30
0.0
 40
5.0
 50
90.0
 51
180.0
  0
ARC
  5
456F
  8
0-1
  6
CONTINUOUS
 62
     3
 10
20978.47476199998
 20
7983.0024050000065
 30
0.0
 40
5.0
 50
269.9999850001808
 51
314.99998500027471
  0
ARC
  5
4570
  8
0-1
  6
CONTINUOUS
 62
     3
 10
20564.044730999991
 20
7983.0024050000065
 30
0.0
 40
5.0
 50
269.9999850001808
 51
0.0
  0
ARC
  5
4571
  8
0-1
  6
CONTINUOUS
 62
     3
 10
20564.044730999991
 20
8015.0023120000051
 30
0.0
 40
5.0
 50
0.0
 51
90.0
  0
ARC
  5
4572
  8
0-1
  6
CONTINUOUS
 62
     3
 10
21010.47367999997
 20
8015.0023120000051
 30
0.0
 40
5.0
 50
314.99998500027471
 51
90.0
  0
ARC
  5
4573
  8
0-1
  6
CONTINUOUS
 62
     3
 10
20254.614304999981
 20
8015.0023120000051
 30
0.0
 40
5.0
 50
90.0
 51
224.99998499997989
  0
ARC
  5
4574
  8
0-1
  6
CONTINUOUS
 62
     3
 10
20286.61718199998
 20
7983.0024050000065
 30
0.0
 40
5.0
 50
224.99998499997989
 51
269.9999850001808
  0
ARC
  5
4575
  8
0-1
  6
CONTINUOUS
 62
     3
 10
18092.473679999988
 20
8015.0023120000051
 30
0.0
 40
5.0
 50
314.99998500027471
 51
90.0
  0
ARC
  5
4576
  8
0-1
  6
CONTINUOUS
 62
     3
 10
17783.043252999989
 20
8015.0023120000051
 30
0.0
 40
5.0
 50
90.0
 51
180.0
  0
ARC
  5
4577
  8
0-1
  6
CONTINUOUS
 62
     3
 10
17783.043252999989
 20
7983.0024050000065
 30
0.0
 40
5.0
 50
180.0
 51
269.9999850001808
  0
ARC
  5
4578
  8
0-1
  6
CONTINUOUS
 62
     3
 10
18060.47278299999
 20
7983.0024050000065
 30
0.0
 40
5.0
 50
269.9999850001808
 51
314.99998500027471
  0
LINE
  5
4579
  8
SUNPOU
  6
CONTINUOUS
 62
     4
 10
17629.041616999981
 20
8313.0027340000051
 30
0.0
 11
17629.041616999981
 21
9512.4603460000017
 31
0.0
  0
LINE
  5
457A
  8
SUNPOU
  6
CONTINUOUS
 62
     4
 10
26136.05164599996
 20
8313.0027340000051
 30
0.0
 11
26136.05164599996
 21
9512.4603460000017
 31
0.0
  0
LINE
  5
457B
  8
SUNPOU
  6
CONTINUOUS
 62
     4
 10
17632.041616999981
 20
9432.4603460000035
 30
0.0
 11
26133.05164599996
 21
9432.4603460000035
 31
0.0
  0
LINE
  5
457C
  8
SUNPOU
  6
CONTINUOUS
 62
     4
 10
17672.04372799999
 20
8313.0027340000051
 30
0.0
 11
17672.04372799999
 21
9112.5025760000099
 31
0.0
  0
LINE
  5
457D
  8
SUNPOU
  6
CONTINUOUS
 62
     4
 10
26093.049534999958
 20
8313.0027340000051
 30
0.0
 11
26093.049534999958
 21
9112.5025760000099
 31
0.0
  0
LINE
  5
457E
  8
SUNPOU
  6
CONTINUOUS
 62
     4
 10
17672.04372799999
 20
9032.5025759999971
 30
0.0
 11
26093.049534999958
 21
9032.5025759999971
 31
0.0
  0
LINE
  5
457F
  8
SUNPOU
  6
CONTINUOUS
 62
     4
 10
17672.04372799999
 20
8313.0027340000051
 30
0.0
 11
17672.04372799999
 21
9112.5025760000099
 31
0.0
  0
LINE
  5
4580
  8
SUNPOU
  6
CONTINUOUS
 62
     4
 10
17629.041616999981
 20
8313.0027340000051
 30
0.0
 11
17629.041616999981
 21
9112.5025760000099
 31
0.0
  0
LINE
  5
4581
  8
SUNPOU
  6
CONTINUOUS
 62
     4
 10
17672.04372799999
 20
9032.5025759999971
 30
0.0
 11
17912.04372799999
 21
9032.5025759999971
 31
0.0
  0
LINE
  5
4582
  8
SUNPOU
  6
CONTINUOUS
 62
     4
 10
17632.041616999981
 20
9032.5025759999971
 30
0.0
 11
17392.041616999981
 21
9032.5025759999971
 31
0.0
  0
LINE
  5
4583
  8
SUNPOU
  6
CONTINUOUS
 62
     4
 10
17672.04372799999
 20
9032.5025759999971
 30
0.0
 11
17632.041616999981
 21
9032.5025759999971
 31
0.0
  0
LINE
  5
4584
  8
SUNPOU
  6
CONTINUOUS
 62
     4
 10
26093.049534999958
 20
8313.0027340000051
 30
0.0
 11
26093.049534999958
 21
9112.5025760000099
 31
0.0
  0
LINE
  5
4585
  8
SUNPOU
  6
CONTINUOUS
 62
     4
 10
26136.05164599996
 20
8313.0027340000051
 30
0.0
 11
26136.05164599996
 21
9112.5025760000099
 31
0.0
  0
LINE
  5
4586
  8
SUNPOU
  6
CONTINUOUS
 62
     4
 10
26093.049534999958
 20
9032.5025759999971
 30
0.0
 11
25853.049534999958
 21
9032.5025759999971
 31
0.0
  0
LINE
  5
4587
  8
SUNPOU
  6
CONTINUOUS
 62
     4
 10
26133.05164599996
 20
9032.5025759999971
 30
0.0
 11
26373.05164599996
 21
9032.5025759999971
 31
0.0
  0
LINE
  5
4588
  8
SUNPOU
  6
CONTINUOUS
 62
     4
 10
26093.049534999958
 20
9032.5025759999971
 30
0.0
 11
26133.05164599996
 21
9032.5025759999971
 31
0.0
  0
TEXT
  5
4589
  8
0
  6
CONTINUOUS
 62
     7
 10
26253.05164599996
 20
9112.5025760000099
 30
0.0
 40
160.0
  1
43
  0
TEXT
  5
458A
  8
0
  6
CONTINUOUS
 62
     7
 10
17272.04161699997
 20
9112.5025760000099
 30
0.0
 40
160.0
  1
43
  0
TEXT
  5
458B
  8
0
  6
CONTINUOUS
 62
     7
 10
20975.879964833312
 20
9112.5025760000099
 30
0.0
 40
160.0
  1
2918 \U+00D7 ｎ ＋ 85
  0
TEXT
  5
458C
  8
0
  6
CONTINUOUS
 62
     7
 10
20922.546631499979
 20
9512.4603460000017
 30
0.0
 40
160.0
  1
2918 \U+00D7 ｎ ＋ 171
  0
ARC
  5
458D
  8
0
  6
BYBLOCK
 62
     0
 10
17629.041616999981
 20
9432.4603460000035
 30
0.0
 40
15.0
 50
0.0
 51
180.0
  0
ARC
  5
458E
  8
0
  6
BYBLOCK
 62
     0
 10
17629.041616999981
 20
9432.4603460000035
 30
0.0
 40
15.0
 50
180.0
 51
0.0
  0
ARC
  5
458F
  8
0
  6
BYBLOCK
 62
     0
 10
26136.05164599996
 20
9432.4603460000035
 30
0.0
 40
15.0
 50
180.0
 51
0.0
  0
ARC
  5
4590
  8
0
  6
BYBLOCK
 62
     0
 10
26136.05164599996
 20
9432.4603460000035
 30
0.0
 40
15.0
 50
0.0
 51
180.0
  0
ARC
  5
4591
  8
0
  6
BYBLOCK
 62
     0
 10
17672.04372799999
 20
9032.5025759999971
 30
0.0
 40
15.0
 50
0.0
 51
180.0
  0
ARC
  5
4592
  8
0
  6
BYBLOCK
 62
     0
 10
17672.04372799999
 20
9032.5025759999971
 30
0.0
 40
15.0
 50
180.0
 51
0.0
  0
ARC
  5
4593
  8
0
  6
BYBLOCK
 62
     0
 10
26093.049534999958
 20
9032.5025759999971
 30
0.0
 40
15.0
 50
180.0
 51
0.0
  0
ARC
  5
4594
  8
0
  6
BYBLOCK
 62
     0
 10
26093.049534999958
 20
9032.5025759999971
 30
0.0
 40
15.0
 50
0.0
 51
180.0
  0
ARC
  5
4595
  8
0
  6
BYBLOCK
 62
     0
 10
17672.04372799999
 20
9032.5025759999971
 30
0.0
 40
15.0
 50
0.0
 51
180.0
  0
ARC
  5
4596
  8
0
  6
BYBLOCK
 62
     0
 10
17672.04372799999
 20
9032.5025759999971
 30
0.0
 40
15.0
 50
180.0
 51
0.0
  0
ARC
  5
4597
  8
0
  6
BYBLOCK
 62
     0
 10
17629.041616999981
 20
9032.5025759999971
 30
0.0
 40
15.0
 50
180.0
 51
0.0
  0
ARC
  5
4598
  8
0
  6
BYBLOCK
 62
     0
 10
17629.041616999981
 20
9032.5025759999971
 30
0.0
 40
15.0
 50
0.0
 51
180.0
  0
ARC
  5
4599
  8
0
  6
BYBLOCK
 62
     0
 10
26093.049534999958
 20
9032.5025759999971
 30
0.0
 40
15.0
 50
180.0
 51
0.0
  0
ARC
  5
459A
  8
0
  6
BYBLOCK
 62
     0
 10
26093.049534999958
 20
9032.5025759999971
 30
0.0
 40
15.0
 50
0.0
 51
180.0
  0
ARC
  5
459B
  8
0
  6
BYBLOCK
 62
     0
 10
26136.05164599996
 20
9032.5025759999971
 30
0.0
 40
15.0
 50
0.0
 51
180.0
  0
ARC
  5
459C
  8
0
  6
BYBLOCK
 62
     0
 10
26136.05164599996
 20
9032.5025759999971
 30
0.0
 40
15.0
 50
180.0
 51
0.0
  0
TEXT
  5
45F3
  8
NAME
 10
24033.053546554042
 20
1076.0
 30
0.0
 40
360.0
  1
H
 41
0.6700000000000002
  7
00
  0
TEXT
  5
45F4
  8
NAME
 10
23657.221561973711
 20
1076.0
 30
0.0
 40
360.0
  1
（ ）
  7
01
  0
TEXT
  5
45F5
  8
NAME
 10
24557.214549256762
 20
1076.0
 30
0.0
 40
360.0
  1
型（ 連棟）
  7
01
  0
TEXT
  5
45F6
  8
NAME
 10
21816.08951584842
 20
1076.6369801169251
 30
0.0
 40
360.0
  1
VGC-3055
 41
0.6700000000000002
  0
TEXT
  5
45F7
  8
NAME
 10
25322.39915886135
 20
1076.0
 30
0.0
 40
360.0
  1
n
 41
0.6700000000000002
  7
00
  0
TEXT
  5
45F9
  8
NAME
 10
21933.55271638904
 20
1876.0
 30
0.0
 40
360.0
  1
ヨドガレージ ラヴィージュ
 41
0.75
  7
01
  0
LINE
  5
45FA
  8
NAME
  6
CONTINUOUS
 10
26067.886878884328
 20
2236.0
 30
0.0
 11
26067.886878884328
 21
1876.0
 31
0.0
  0
LINE
  5
45FB
  8
NAME
  6
CONTINUOUS
 10
26167.886878884328
 20
2236.0
 30
0.0
 11
26167.886878884328
 21
1876.0
 31
0.0
  0
LINE
  5
45FC
  8
NAME
  6
CONTINUOUS
 10
26267.886878884328
 20
2236.0
 30
0.0
 11
26267.886878884328
 21
1876.0
 31
0.0
  0
LINE
  5
45FD
  8
NAME
  6
CONTINUOUS
 10
26007.886878884328
 20
2236.0
 30
0.0
 11
26327.886878884328
 21
2236.0
 31
0.0
  0
LINE
  5
45FE
  8
NAME
  6
CONTINUOUS
 10
26327.886878884328
 20
1876.0
 30
0.0
 11
26007.886878884328
 21
1876.0
 31
0.0
  0
LINE
  5
465A
  8
2-0
  6
CONTINUOUS
 62
     3
 10
23090.048016999979
 20
16871.438149499991
 30
0.0
 11
23175.04854499998
 21
16871.438149499991
 31
0.0
  0
LINE
  5
465B
  8
2-0
  6
CONTINUOUS
 62
     3
 10
23175.04854499998
 20
16956.432738499981
 30
0.0
 11
23090.048016999979
 21
16956.432738499981
 31
0.0
  0
LINE
  5
465C
  8
2-0
  6
CONTINUOUS
 62
     3
 10
23090.048016999979
 20
16956.432738499981
 30
0.0
 11
23090.048016999979
 21
16871.438149499991
 31
0.0
  0
LINE
  5
465D
  8
2-0
  6
CONTINUOUS
 62
     3
 10
23175.04854499998
 20
16871.438149499991
 30
0.0
 11
23175.04854499998
 21
16956.432738499981
 31
0.0
  0
LINE
  5
465E
  8
2-0
  6
CONTINUOUS
 62
     6
 10
24878.777519429721
 20
15747.85419524998
 30
0.0
 11
23848.428200429731
 21
15747.85419524998
 31
0.0
  0
LINE
  5
465F
  8
2-0
  6
CONTINUOUS
 62
     6
 10
23171.481452000022
 20
16862.297511000001
 30
0.0
 11
23848.428200429731
 21
15747.85419524998
 31
0.0
  0
LINE
  5
4660
  8
2-0
  6
CONTINUOUS
 62
     6
 10
23231.759772000001
 20
16711.701676000012
 30
0.0
 11
23171.481452000022
 21
16862.297511000001
 31
0.0
  0
LINE
  5
4661
  8
2-0
  6
CONTINUOUS
 62
     6
 10
23171.481452000022
 20
16862.297511000001
 30
0.0
 11
23277.34016700002
 21
16739.38920299997
 31
0.0
  0
LINE
  5
4662
  8
2-0
  6
CONTINUOUS
 62
     6
 10
23231.759772000001
 20
16711.701676000012
 30
0.0
 11
23277.34016700002
 21
16739.38920299997
 31
0.0
  0
LINE
  5
4663
  8
2-0
  6
CONTINUOUS
 62
     6
 10
23277.34016700002
 20
16739.38920299997
 30
0.0
 11
23171.481452000022
 21
16862.297511000001
 31
0.0
  0
LINE
  5
4664
  8
2-0
  6
CONTINUOUS
 62
     6
 10
23171.481452000022
 20
16862.297511000001
 30
0.0
 11
23231.759772000001
 21
16711.701676000012
 31
0.0
  0
LINE
  5
4665
  8
2-0
  6
CONTINUOUS
 62
     6
 10
23231.759772000001
 20
16711.701676000012
 30
0.0
 11
23171.481452000022
 21
16862.297511000001
 31
0.0
  0
LINE
  5
4666
  8
2-0
  6
CONTINUOUS
 62
     6
 10
23277.34016700002
 20
16739.38920299997
 30
0.0
 11
23171.481452000022
 21
16862.297511000001
 31
0.0
  0
LINE
  5
4667
  8
2-0
  6
CONTINUOUS
 62
     6
 10
23277.34016700002
 20
16739.38920299997
 30
0.0
 11
23231.759772000001
 21
16711.701676000012
 31
0.0
  0
TEXT
  5
4668
  8
2-0
  6
CONTINUOUS
 62
     7
 10
23911.743427763071
 20
15820.854882249971
 30
0.0
 40
160.0
  1
中柱（中）
 72
     4
 11
24333.076761096399
 21
15900.854882249971
 31
0.0
  0
TEXT
  5
46BE
  8
FILENAME
  6
CONTINUOUS
 10
28737.333333333328
 20
348.0
 30
0.0
 40
200.0
  1
＜VGC-3055-N-A_0.DXF ＞
  7
FILENAME
 72
     2
 11
32764.0
 21
348.0
 31
0.0
  0
LINE
  5
46C4
  8
WAKUSEN-01
 10
868.00000000000193
 20
827.99999999999955
 30
0.0
 11
32764.000000000011
 21
827.99999999999943
 31
0.0
  0
LINE
  5
46C5
  8
WAKUSEN-01
 10
868.00000000000193
 20
827.99999999999955
 30
0.0
 11
868.00000000000193
 21
22484.000000000011
 31
0.0
  0
LINE
  5
46C6
  8
WAKUSEN-01
 10
32764.000000000011
 20
827.99999999999943
 30
0.0
 11
32764.000000000011
 21
22484.000000000011
 31
0.0
  0
LINE
  5
46C7
  8
WAKUSEN-01
 10
20560.0
 20
827.99999999999716
 30
0.0
 11
20560.0
 21
2484.0
 31
0.0
  0
LINE
  5
46C8
  8
WAKUSEN-02
 10
26868.0
 20
827.99999999999261
 30
0.0
 11
26868.0
 21
2484.0
 31
0.0
  0
ENDSEC
  0
EOF
