  0
SECTION
  2
HEADER
  9
$ACADVER
  1
AC1009
  9
$INSBASE
 10
0.0
 20
0.0
 30
0.0
  9
$EXTMIN
 10
867.99324330406671
 20
327.38164749855792
 30
-0.000000000000013
  9
$EXTMAX
 10
32765.33210850941
 20
22484.553276491992
 30
0.0000000000000023
  9
$LIMMIN
 10
0.0
 20
0.0
  9
$LIMMAX
 10
33600.0
 20
23760.0
  9
$ORTHOMODE
 70
     1
  9
$REGENMODE
 70
     1
  9
$FILLMODE
 70
     1
  9
$QTEXTMODE
 70
     0
  9
$MIRRTEXT
 70
     1
  9
$DRAGMODE
 70
     2
  9
$LTSCALE
 40
80.0
  9
$OSMODE
 70
  3071
  9
$ATTMODE
 70
     1
  9
$TEXTSIZE
 40
0.2
  9
$TRACEWID
 40
0.05
  9
$TEXTSTYLE
  7
00
  9
$CLAYER
  8
0
  9
$CELTYPE
  6
BYLAYER
  9
$CECOLOR
 62
   256
  9
$DIMSCALE
 40
80.0
  9
$DIMASZ
 40
3.0
  9
$DIMEXO
 40
1.0
  9
$DIMDLI
 40
0.38
  9
$DIMRND
 40
0.5
  9
$DIMDLE
 40
0.0
  9
$DIMEXE
 40
1.0
  9
$DIMTP
 40
0.0
  9
$DIMTM
 40
0.0
  9
$DIMTXT
 40
2.0
  9
$DIMCEN
 40
0.09
  9
$DIMTSZ
 40
0.0
  9
$DIMTOL
 70
     0
  9
$DIMLIM
 70
     0
  9
$DIMTIH
 70
     0
  9
$DIMTOH
 70
     0
  9
$DIMSE1
 70
     0
  9
$DIMSE2
 70
     0
  9
$DIMTAD
 70
     1
  9
$DIMZIN
 70
     8
  9
$DIMBLK
  1
DOTSMALL
  9
$DIMASO
 70
     1
  9
$DIMSHO
 70
     1
  9
$DIMPOST
  1

  9
$DIMAPOST
  1

  9
$DIMALT
 70
     0
  9
$DIMALTD
 70
     2
  9
$DIMALTF
 40
25.399999999999999
  9
$DIMLFAC
 40
1.0
  9
$DIMTOFL
 70
     1
  9
$DIMTVP
 40
0.0
  9
$DIMTIX
 70
     0
  9
$DIMSOXD
 70
     0
  9
$DIMSAH
 70
     0
  9
$DIMBLK1
  1

  9
$DIMBLK2
  1

  9
$DIMSTYLE
  2
SUNPOU
  9
$DIMCLRD
 70
     4
  9
$DIMCLRE
 70
     4
  9
$DIMCLRT
 70
     7
  9
$DIMTFAC
 40
1.0
  9
$DIMGAP
 40
1.0
  9
$LUNITS
 70
     2
  9
$LUPREC
 70
     4
  9
$SKETCHINC
 40
0.1
  9
$FILLETRAD
 40
0.0
  9
$AUNITS
 70
     0
  9
$AUPREC
 70
     0
  9
$MENU
  1
acad
  9
$ELEVATION
 40
0.0
  9
$PELEVATION
 40
0.0
  9
$THICKNESS
 40
0.0
  9
$LIMCHECK
 70
     0
  9
$BLIPMODE
 70
     1
  9
$CHAMFERA
 40
0.0
  9
$CHAMFERB
 40
0.0
  9
$SKPOLY
 70
     0
  9
$TDCREATE
 40
2311940.075052246
  9
$TDUPDATE
 40
2458942.4276649421
  9
$TDINDWG
 40
0.0479401852
  9
$TDUSRTIMER
 40
0.047939456
  9
$USRTIMER
 70
     1
  9
$ANGBASE
 50
0.0
  9
$ANGDIR
 70
     0
  9
$PDMODE
 70
     0
  9
$PDSIZE
 40
0.0
  9
$PLINEWID
 40
0.0
  9
$COORDS
 70
     1
  9
$SPLFRAME
 70
     0
  9
$SPLINETYPE
 70
     6
  9
$SPLINESEGS
 70
     8
  9
$ATTDIA
 70
     1
  9
$ATTREQ
 70
     1
  9
$HANDLING
 70
     1
  9
$HANDSEED
  5
46F2
  9
$SURFTAB1
 70
     6
  9
$SURFTAB2
 70
     6
  9
$SURFTYPE
 70
     6
  9
$SURFU
 70
     6
  9
$SURFV
 70
     6
  9
$UCSNAME
  2

  9
$UCSORG
 10
0.0
 20
0.0
 30
0.0
  9
$UCSXDIR
 10
1.0
 20
0.0
 30
0.0
  9
$UCSYDIR
 10
0.0
 20
1.0
 30
0.0
  9
$PUCSNAME
  2

  9
$PUCSORG
 10
0.0
 20
0.0
 30
0.0
  9
$PUCSXDIR
 10
1.0
 20
0.0
 30
0.0
  9
$PUCSYDIR
 10
0.0
 20
1.0
 30
0.0
  9
$USERI1
 70
     0
  9
$USERI2
 70
     0
  9
$USERI3
 70
     0
  9
$USERI4
 70
     0
  9
$USERI5
 70
     0
  9
$USERR1
 40
0.0
  9
$USERR2
 40
0.0
  9
$USERR3
 40
0.0
  9
$USERR4
 40
0.0
  9
$USERR5
 40
0.0
  9
$WORLDVIEW
 70
     1
  9
$SHADEDGE
 70
     3
  9
$SHADEDIF
 70
    70
  9
$TILEMODE
 70
     1
  9
$MAXACTVP
 70
    16
  9
$PLIMCHECK
 70
     0
  9
$PEXTMIN
 10
1.0000000000000000E+020
 20
1.0000000000000000E+020
 30
1.0000000000000000E+020
  9
$PEXTMAX
 10
-1.0000000000000000E+020
 20
-1.0000000000000000E+020
 30
-1.0000000000000000E+020
  9
$PLIMMIN
 10
0.0
 20
0.0
  9
$PLIMMAX
 10
12.0
 20
9.0
  9
$UNITMODE
 70
     0
  9
$VISRETAIN
 70
     0
  9
$PLINEGEN
 70
     1
  9
$PSLTSCALE
 70
     0
  0
ENDSEC
  0
SECTION
  2
TABLES
  0
TABLE
  2
VPORT
 70
     1
  0
VPORT
  2
*ACTIVE
 70
     0
 10
0.0
 20
0.0
 11
1.0
 21
1.0
 12
16800.0
 22
11880.0
 13
0.0
 23
0.0
 14
1.0
 24
1.0
 15
0.0
 25
0.0
 16
0.0
 26
0.0
 36
1.0
 17
0.0
 27
0.0
 37
0.0
 40
23981.023255813951
 41
2.195652173913043
 42
50.0
 43
0.0
 44
0.0
 50
0.0
 51
0.0
 71
     0
 72
 10000
 73
     1
 74
     1
 75
     0
 76
     0
 77
     0
 78
     0
  0
ENDTAB
  0
TABLE
  2
LTYPE
 70
     3
  0
LTYPE
  2
CONTINUOUS
 70
     0
  3
Solid line
 72
    65
 73
     0
 40
0.0
  0
LTYPE
  2
DASHED3
 70
     0
  3
------  ------  ------  ------  
 72
    65
 73
     2
 40
5.0
 49
3.75
 49
-1.25
  0
LTYPE
  2
CENTER2
 70
     0
  3
----------  --  ----------  --  
 72
    65
 73
     4
 40
20.0
 49
12.5
 49
-2.5
 49
2.5
 49
-2.5
  0
ENDTAB
  0
TABLE
  2
LAYER
 70
    18
  0
LAYER
  2
0
 70
     0
 62
     7
  6
CONTINUOUS
  0
LAYER
  2
SUNPOU
 70
     0
 62
     4
  6
CONTINUOUS
  0
LAYER
  2
0-1
 70
     0
 62
     7
  6
CONTINUOUS
  0
LAYER
  2
0-2
 70
     0
 62
     7
  6
CONTINUOUS
  0
LAYER
  2
0-5
 70
     0
 62
     7
  6
CONTINUOUS
  0
LAYER
  2
2-1
 70
     0
 62
     7
  6
CONTINUOUS
  0
LAYER
  2
2-0
 70
     0
 62
     7
  6
CONTINUOUS
  0
LAYER
  2
0-3
 70
     0
 62
     7
  6
CONTINUOUS
  0
LAYER
  2
YODOROGO
 70
     0
 62
   130
  6
CONTINUOUS
  0
LAYER
  2
WAKUSEN-01
 70
     0
 62
    50
  6
CONTINUOUS
  0
LAYER
  2
WAKUSEN-02
 70
     0
 62
   130
  6
CONTINUOUS
  0
LAYER
  2
WAKUMOJI-01
 70
     0
 62
   130
  6
CONTINUOUS
  0
LAYER
  2
FILENAME
 70
     0
 62
     7
  6
CONTINUOUS
  0
LAYER
  2
NAME
 70
     0
 62
    20
  6
CONTINUOUS
  0
LAYER
  2
0-4
 70
     0
 62
     7
  6
CONTINUOUS
  0
LAYER
  2
0-0
 70
     0
 62
     7
  6
CONTINUOUS
  0
ENDTAB
  0
TABLE
  2
STYLE
 70
     5
  0
STYLE
  2
STANDARD
 70
     0
 40
0.0
 41
1.0
 50
0.0
 71
     0
 42
0.0
  3
txt
  4
BIGFONT
  0
STYLE
  2
00
 70
     0
 40
0.0
 41
0.6666666666666666
 50
0.0
 71
     0
 42
0.2
  3
ROMANS
  4
BIGFONT
  0
STYLE
  2
01
 70
     0
 40
3.0
 41
1.0
 50
0.0
 71
     0
 42
0.2
  3
ROMANS
  4
BIGFONT
  0
STYLE
  2
WAKUMOJI
 70
     0
 40
3.0
 41
1.0
 50
0.0
 71
     0
 42
3.0
  3
SIMPLEX
  4
BIGFONT
  0
STYLE
  2
FILENAME
 70
     0
 40
200.0
 41
1.0
 50
0.0
 71
     0
 42
200.0
  3
romans
  4
bigfont
  0
ENDTAB
  0
TABLE
  2
VIEW
 70
     0
  0
ENDTAB
  0
TABLE
  2
UCS
 70
     0
  0
ENDTAB
  0
TABLE
  2
APPID
 70
    13
  0
APPID
  2
ACAD
 70
     0
  0
APPID
  2
ACADANNOTATIVE
 70
     0
  0
APPID
  2
ACAD_PSEXT
 70
     0
  0
APPID
  2
DCO15
 70
     0
  0
APPID
  2
ACAD_MLEADERVER
 70
     0
  0
APPID
  2
AUTOCAD_POSTSCRIPT_FIGURE
 70
     0
  0
APPID
  2
ACAD_EXEMPT_FROM_CAD_STANDARDS
 70
     0
  0
APPID
  2
ACAD_DSTYLE_DIMJAG
 70
     0
  0
APPID
  2
ACAD_DSTYLE_DIMTALN
 70
     0
  0
APPID
  2
ACAD_DSTYLE_DIM_LINETYPE
 70
     0
  0
APPID
  2
ACAD_DSTYLE_DIM_EXT1_LINETYPE
 70
     0
  0
APPID
  2
ACAD_DSTYLE_DIM_EXT2_LINETYPE
 70
     0
  0
APPID
  2
ACAD_NAV_VCDISPLAY
 70
     0
  0
ENDTAB
  0
TABLE
  2
DIMSTYLE
 70
     2
  0
DIMSTYLE
  2
SUNPOU
 70
     0
  3

  4

  5

  6

  7

 40
80.0
 41
3.0
 42
1.0
 43
0.38
 44
1.0
 45
0.5
 46
0.0
 47
0.0
 48
0.0
140
2.0
141
0.09
142
0.0
143
25.399999999999999
144
1.0
145
0.0
146
1.0
147
1.0
 71
     0
 72
     0
 73
     0
 74
     0
 75
     0
 76
     0
 77
     1
 78
     8
170
     0
171
     2
172
     1
173
     0
174
     0
175
     0
176
     4
177
     4
178
     7
  0
ENDTAB
  0
ENDSEC
  0
SECTION
  2
BLOCKS
  0
BLOCK
  8
0
  2
$MODEL_SPACE
 70
     0
 10
0.0
 20
0.0
 30
0.0
  3
$MODEL_SPACE
  1

  0
ENDBLK
  5
3A6A
  8
0
  0
BLOCK
 67
     1
  8
0
  2
$PAPER_SPACE
 70
     0
 10
0.0
 20
0.0
 30
0.0
  3
$PAPER_SPACE
  1

  0
ENDBLK
  5
3A66
 67
     1
  8
0
  0
BLOCK
  8
0
  2
_DOTSMALL
 70
     0
 10
0.0
 20
0.0
 30
0.0
  3
_DOTSMALL
  1

  0
POLYLINE
  5
3A9A
  8
0
  6
BYBLOCK
 62
     0
 66
     1
 10
0.0
 20
0.0
 30
0.0
 70
     1
 40
0.5
 41
0.5
  0
VERTEX
  5
46BA
  8
0
  6
BYBLOCK
 62
     0
 10
-0.0625
 20
0.0
 30
0.0
 42
1.0
  0
VERTEX
  5
46BB
  8
0
  6
BYBLOCK
 62
     0
 10
0.0625
 20
0.0
 30
0.0
 42
1.0
  0
SEQEND
  5
46BC
  8
0
  6
BYBLOCK
 62
     0
  0
ENDBLK
  5
3A9E
  8
0
  0
ENDSEC
  0
SECTION
  2
ENTITIES
  0
LINE
  5
3A9F
  8
2-0
  6
CONTINUOUS
 62
     3
 10
7526.3482049664381
 20
18229.865272999989
 30
0.0
 11
7653.0903459664469
 21
18445.357644999978
 31
0.0
  0
LINE
  5
3AA0
  8
2-0
  6
CONTINUOUS
 62
     3
 10
8261.5696139664433
 20
17507.396416999989
 30
0.0
 11
8388.3142299664378
 21
17722.89076899998
 31
0.0
  0
LINE
  5
3AA1
  8
2-0
  6
CONTINUOUS
 62
     3
 10
8261.5696139664433
 20
17507.396416999989
 30
0.0
 11
7653.0903459664469
 21
18445.357644999978
 31
0.0
  0
LINE
  5
3AA2
  8
2-0
  6
CONTINUOUS
 62
     3
 10
5041.8197189664434
 20
14458.31511199998
 30
0.0
 11
5041.8197189664434
 21
19369.759170999991
 31
0.0
  0
LINE
  5
3AA3
  8
2-0
  6
CONTINUOUS
 62
     3
 10
7526.3482049664381
 20
18229.865272999989
 30
0.0
 11
4808.1227039664409
 21
19477.405390999989
 31
0.0
  0
LINE
  5
3AA4
  8
2-0
  6
CONTINUOUS
 62
     3
 10
8178.319969966441
 20
17635.724647999999
 30
0.0
 11
8178.319969966441
 21
19794.308499999981
 31
0.0
  0
LINE
  5
3AA5
  8
2-0
  6
CONTINUOUS
 62
     3
 10
10578.31799096642
 20
16704.565969999981
 30
0.0
 11
10578.31799096642
 21
19794.308499999981
 31
0.0
  0
LINE
  5
3AA6
  8
2-0
  6
CONTINUOUS
 62
     3
 10
10541.320787966421
 20
16721.609624999961
 30
0.0
 11
10541.320787966421
 21
19794.308499999981
 31
0.0
  0
LINE
  5
3AA7
  8
2-0
  6
CONTINUOUS
 62
     3
 10
10378.32128996643
 20
16796.692763999981
 30
0.0
 11
10378.32128996643
 21
19794.308499999981
 31
0.0
  0
LINE
  5
3AA8
  8
2-0
  6
CONTINUOUS
 62
     3
 10
10341.322107966431
 20
16813.736418999979
 30
0.0
 11
10341.322107966431
 21
19794.308499999981
 31
0.0
  0
LINE
  5
3AA9
  8
2-0
  6
CONTINUOUS
 62
     3
 10
10141.322437966421
 20
16905.865193999962
 30
0.0
 11
10141.322437966421
 21
19794.308499999981
 31
0.0
  0
LINE
  5
3AAA
  8
2-0
  6
CONTINUOUS
 62
     3
 10
10178.320629966431
 20
16888.825497999969
 30
0.0
 11
10178.320629966431
 21
19794.308499999981
 31
0.0
  0
LINE
  5
3AAB
  8
2-0
  6
CONTINUOUS
 62
     3
 10
9978.3189799664251
 20
16980.954271999981
 30
0.0
 11
9978.3189799664251
 21
19794.308499999981
 31
0.0
  0
LINE
  5
3AAC
  8
2-0
  6
CONTINUOUS
 62
     3
 10
9941.3207879664315
 20
16997.999905999972
 30
0.0
 11
9941.3207879664315
 21
19794.308499999981
 31
0.0
  0
LINE
  5
3AAD
  8
2-0
  6
CONTINUOUS
 62
     3
 10
9741.3201289664412
 20
17090.126700999968
 30
0.0
 11
9741.3201289664412
 21
19794.308499999981
 31
0.0
  0
LINE
  5
3AAE
  8
2-0
  6
CONTINUOUS
 62
     3
 10
9778.3193099664459
 20
17073.088984999958
 30
0.0
 11
9778.3193099664459
 21
19794.308499999981
 31
0.0
  0
LINE
  5
3AAF
  8
2-0
  6
CONTINUOUS
 62
     3
 10
9141.3201289664466
 20
17376.013790000001
 30
0.0
 11
9141.3201289664466
 21
19794.308499999981
 31
0.0
  0
LINE
  5
3AB0
  8
2-0
  6
CONTINUOUS
 62
     3
 10
9178.321289966445
 20
17358.976072999991
 30
0.0
 11
9178.321289966445
 21
19794.308499999981
 31
0.0
  0
LINE
  5
3AB1
  8
2-0
  6
CONTINUOUS
 62
     3
 10
8941.3234279664375
 20
17468.146522999981
 30
0.0
 11
8941.3234279664375
 21
19794.308499999981
 31
0.0
  0
LINE
  5
3AB2
  8
2-0
  6
CONTINUOUS
 62
     3
 10
8978.3255789664381
 20
17451.104846999991
 30
0.0
 11
8978.3255789664381
 21
19794.308499999981
 31
0.0
  0
LINE
  5
3AB3
  8
2-0
  6
CONTINUOUS
 62
     3
 10
8778.3229389664411
 20
17543.235600999989
 30
0.0
 11
8778.3229389664411
 21
19794.308499999981
 31
0.0
  0
LINE
  5
3AB4
  8
2-0
  6
CONTINUOUS
 62
     3
 10
8741.3217779664374
 20
17560.275296999978
 30
0.0
 11
8741.3217779664374
 21
19794.308499999981
 31
0.0
  0
LINE
  5
3AB5
  8
2-0
  6
CONTINUOUS
 62
     3
 10
8541.320128966443
 20
17652.410009999981
 30
0.0
 11
8541.320128966443
 21
19794.308499999981
 31
0.0
  0
LINE
  5
3AB6
  8
2-0
  6
CONTINUOUS
 62
     3
 10
8578.3193099664386
 20
17635.36635499998
 30
0.0
 11
8578.3193099664386
 21
19794.308499999981
 31
0.0
  0
LINE
  5
3AB7
  8
2-0
  6
CONTINUOUS
 62
     3
 10
8378.3166709664456
 20
17705.910458999992
 30
0.0
 11
8378.3166709664456
 21
19794.308499999981
 31
0.0
  0
LINE
  5
3AB8
  8
2-0
  6
CONTINUOUS
 62
     3
 10
8341.3234279664375
 20
17650.63834099998
 30
0.0
 11
8341.3234279664375
 21
19794.308499999981
 31
0.0
  0
LINE
  5
3AB9
  8
2-0
  6
CONTINUOUS
 62
     3
 10
8141.3188089664418
 20
17692.762495999981
 30
0.0
 11
8141.3188089664418
 21
19794.308499999981
 31
0.0
  0
LINE
  5
3ABA
  8
2-0
  6
CONTINUOUS
 62
     3
 10
7978.3232689664364
 20
17944.02278999997
 30
0.0
 11
7978.3232689664364
 21
19794.308499999981
 31
0.0
  0
LINE
  5
3ABB
  8
2-0
  6
CONTINUOUS
 62
     3
 10
7941.3181489664421
 20
18001.05469999999
 30
0.0
 11
7941.3181489664421
 21
19794.308499999981
 31
0.0
  0
LINE
  5
3ABC
  8
2-0
  6
CONTINUOUS
 62
     3
 10
7741.322437966438
 20
18309.352841999989
 30
0.0
 11
7741.322437966438
 21
19794.308499999981
 31
0.0
  0
LINE
  5
3ABD
  8
2-0
  6
CONTINUOUS
 62
     3
 10
7778.3196399664421
 20
18252.320931999991
 30
0.0
 11
7778.3196399664421
 21
19794.308499999981
 31
0.0
  0
LINE
  5
3ABE
  8
2-0
  6
CONTINUOUS
 62
     3
 10
7578.3214549664381
 20
18318.229002999989
 30
0.0
 11
7578.3214549664381
 21
19794.308499999981
 31
0.0
  0
LINE
  5
3ABF
  8
2-0
  6
CONTINUOUS
 62
     3
 10
7541.3232629664417
 20
18255.321882
 30
0.0
 11
7541.3232629664417
 21
19794.308499999981
 31
0.0
  0
LINE
  5
3AC0
  8
2-0
  6
CONTINUOUS
 62
     3
 10
7378.3193099664431
 20
18298.05770799996
 30
0.0
 11
7378.3193099664431
 21
19794.308499999981
 31
0.0
  0
LINE
  5
3AC1
  8
2-0
  6
CONTINUOUS
 62
     3
 10
7341.3211179664431
 20
18315.103342999992
 30
0.0
 11
7341.3211179664431
 21
19794.308499999981
 31
0.0
  0
LINE
  5
3AC2
  8
2-0
  6
CONTINUOUS
 62
     3
 10
7178.3151859664431
 20
18390.182523999982
 30
0.0
 11
7178.3151859664431
 21
19794.308499999981
 31
0.0
  0
LINE
  5
3AC3
  8
2-0
  6
CONTINUOUS
 62
     3
 10
7141.3214479664421
 20
18407.232116999981
 30
0.0
 11
7141.3214479664421
 21
19794.308499999981
 31
0.0
  0
LINE
  5
3AC4
  8
2-0
  6
CONTINUOUS
 62
     3
 10
6978.319969966441
 20
18482.31525699998
 30
0.0
 11
6978.319969966441
 21
19794.308499999981
 31
0.0
  0
LINE
  5
3AC5
  8
2-0
  6
CONTINUOUS
 62
     3
 10
6941.3257369664416
 20
18499.358911999989
 30
0.0
 11
6941.3257369664416
 21
19794.308499999981
 31
0.0
  0
LINE
  5
3AC6
  8
2-0
  6
CONTINUOUS
 62
     3
 10
6778.3217849664406
 20
18574.442051999991
 30
0.0
 11
6778.3217849664406
 21
19794.308499999981
 31
0.0
  0
LINE
  5
3AC7
  8
2-0
  6
CONTINUOUS
 62
     3
 10
6741.320622966442
 20
18591.49164499998
 30
0.0
 11
6741.320622966442
 21
19794.308499999981
 31
0.0
  0
LINE
  5
3AC8
  8
2-0
  6
CONTINUOUS
 62
     3
 10
6178.3232689664437
 20
18850.83827199999
 30
0.0
 11
6178.3232689664437
 21
19794.308499999981
 31
0.0
  0
LINE
  5
3AC9
  8
2-0
  6
CONTINUOUS
 62
     3
 10
6141.3221079664409
 20
18867.87994799998
 30
0.0
 11
6141.3221079664409
 21
19794.308499999981
 31
0.0
  0
LINE
  5
3ACA
  8
2-0
  6
CONTINUOUS
 62
     3
 10
6341.3217779664419
 20
18775.747213999992
 30
0.0
 11
6341.3217779664419
 21
19794.308499999981
 31
0.0
  0
LINE
  5
3ACB
  8
2-0
  6
CONTINUOUS
 62
     3
 10
6378.3199699664401
 20
18758.70355899999
 30
0.0
 11
6378.3199699664401
 21
19794.308499999981
 31
0.0
  0
LINE
  5
3ACC
  8
2-0
  6
CONTINUOUS
 62
     3
 10
6541.3239229664414
 20
18683.618439999991
 30
0.0
 11
6541.3239229664414
 21
19794.308499999981
 31
0.0
  0
LINE
  5
3ACD
  8
2-0
  6
CONTINUOUS
 62
     3
 10
6578.3181559664436
 20
18666.578743999991
 30
0.0
 11
6578.3181559664436
 21
19794.308499999981
 31
0.0
  0
LINE
  5
3ACE
  8
2-0
  6
CONTINUOUS
 62
     3
 10
5978.3221149664423
 20
18942.959127999991
 30
0.0
 11
5978.3221149664423
 21
19794.308499999981
 31
0.0
  0
LINE
  5
3ACF
  8
2-0
  6
CONTINUOUS
 62
     3
 10
5168.3198639664397
 20
19311.482143999991
 30
0.0
 11
5168.3198639664397
 21
19794.308499999981
 31
0.0
  0
LINE
  5
3AD0
  8
2-0
  6
CONTINUOUS
 62
     3
 10
5131.3201869664408
 20
19328.525798999981
 30
0.0
 11
5131.3201869664408
 21
19794.308499999981
 31
0.0
  0
LINE
  5
3AD1
  8
2-0
  6
CONTINUOUS
 62
     3
 10
5368.3220079664388
 20
19219.353369
 30
0.0
 11
5368.3220079664388
 21
19794.308499999981
 31
0.0
  0
LINE
  5
3AD2
  8
2-0
  6
CONTINUOUS
 62
     3
 10
5331.3228269664396
 20
19236.402962999979
 30
0.0
 11
5331.3228269664396
 21
19794.308499999981
 31
0.0
  0
LINE
  5
3AD3
  8
2-0
  6
CONTINUOUS
 62
     3
 10
5578.3202999664418
 20
19127.22657499999
 30
0.0
 11
5578.3202999664418
 21
19794.308499999981
 31
0.0
  0
LINE
  5
3AD4
  8
2-0
  6
CONTINUOUS
 62
     3
 10
5541.3221079664409
 20
19144.272208999992
 30
0.0
 11
5541.3221079664409
 21
19794.308499999981
 31
0.0
  0
LINE
  5
3AD5
  8
2-0
  6
CONTINUOUS
 62
     3
 10
5741.3212829664408
 20
19052.141455000001
 30
0.0
 11
5741.3212829664408
 21
19794.308499999981
 31
0.0
  0
LINE
  5
3AD6
  8
2-0
  6
CONTINUOUS
 62
     3
 10
5778.3209599664406
 20
19035.087902999989
 30
0.0
 11
5778.3209599664406
 21
19794.308499999981
 31
0.0
  0
LINE
  5
3AD7
  8
2-0
  6
CONTINUOUS
 62
     3
 10
5941.3194689664451
 20
18960.002782999982
 30
0.0
 11
5941.3194689664451
 21
19794.308499999981
 31
0.0
  0
LINE
  5
3AD8
  8
2-0
  6
CONTINUOUS
 62
     3
 10
6757.9604569664434
 20
18583.822989999979
 30
0.0
 11
5111.8194549664404
 21
17062.316444999979
 31
0.0
  0
LINE
  5
3AD9
  8
2-0
  6
CONTINUOUS
 62
     3
 10
5752.4877479664419
 20
19046.998665999981
 30
0.0
 11
7889.8209729664404
 21
17062.316444999979
 31
0.0
  0
LINE
  5
3ADA
  8
2-0
  6
CONTINUOUS
 62
     3
 10
8619.2409079664412
 20
17616.51737899999
 30
0.0
 11
8029.8194559664407
 21
17062.316444999979
 31
0.0
  0
LINE
  5
3ADB
  8
2-0
  6
CONTINUOUS
 62
     3
 10
4974.3180959664423
 20
19812.314200999961
 30
0.0
 11
5024.8215529664412
 21
19812.314200999961
 31
0.0
  0
LINE
  5
3ADC
  8
2-0
  6
CONTINUOUS
 62
     3
 10
4974.3180959664423
 20
19834.815388999981
 30
0.0
 11
4956.3183329664434
 21
19834.815388999981
 31
0.0
  0
LINE
  5
3ADD
  8
2-0
  6
CONTINUOUS
 62
     3
 10
5024.8215529664412
 20
19852.31037399999
 30
0.0
 11
4961.3225559664434
 21
19852.31037399999
 31
0.0
  0
LINE
  5
3ADE
  8
2-0
  6
CONTINUOUS
 62
     3
 10
4956.3183329664434
 20
19847.310109999991
 30
0.0
 11
4956.3183329664434
 21
19812.314200999961
 31
0.0
  0
LINE
  5
3ADF
  8
2-0
  6
CONTINUOUS
 62
     3
 10
5029.8188479664423
 20
19817.312485999992
 30
0.0
 11
5029.8188479664423
 21
19847.310109999991
 31
0.0
  0
LINE
  5
3AE0
  8
2-0
  6
CONTINUOUS
 62
     3
 10
4974.3180959664423
 20
19399.461846999991
 30
0.0
 11
4974.3180959664423
 21
19834.815388999981
 31
0.0
  0
LINE
  5
3AE1
  8
2-0
  6
CONTINUOUS
 62
     3
 10
13802.81579896642
 20
19852.31037399999
 30
0.0
 11
13866.320734966421
 21
19852.31037399999
 31
0.0
  0
LINE
  5
3AE2
  8
2-0
  6
CONTINUOUS
 62
     3
 10
13871.316049966421
 20
19847.310109999991
 30
0.0
 11
13871.316049966421
 21
19812.314200999961
 31
0.0
  0
LINE
  5
3AE3
  8
2-0
  6
CONTINUOUS
 62
     3
 10
13853.320245966421
 20
19812.314200999961
 30
0.0
 11
13802.81579896642
 21
19812.314200999961
 31
0.0
  0
LINE
  5
3AE4
  8
2-0
  6
CONTINUOUS
 62
     3
 10
13797.819493966401
 20
19817.312485999992
 30
0.0
 11
13797.819493966401
 21
19847.310109999991
 31
0.0
  0
LINE
  5
3AE5
  8
2-0
  6
CONTINUOUS
 62
     3
 10
13853.320245966421
 20
19834.815388999981
 30
0.0
 11
13871.316049966421
 21
19834.815388999981
 31
0.0
  0
LINE
  5
3AE6
  8
2-0
  6
CONTINUOUS
 62
     3
 10
7959.8197189664434
 20
14537.30878999999
 30
0.0
 11
7959.8197189664434
 21
14458.31511199998
 31
0.0
  0
LINE
  5
3AE7
  8
2-0
  6
CONTINUOUS
 62
     3
 10
8016.824905966444
 20
17096.316655999981
 30
0.0
 11
8016.824905966444
 21
17884.67484299999
 31
0.0
  0
LINE
  5
3AE8
  8
2-0
  6
CONTINUOUS
 62
     3
 10
7902.8194819664423
 20
17096.316655999981
 30
0.0
 11
7902.8194819664423
 21
18060.40264599997
 31
0.0
  0
LINE
  5
3AE9
  8
2-0
  6
CONTINUOUS
 62
     3
 10
7959.8197189664434
 20
17096.316655999981
 30
0.0
 11
7959.8197189664434
 21
17972.537754999968
 31
0.0
  0
LINE
  5
3AEA
  8
2-0
  6
CONTINUOUS
 62
     3
 10
7959.8197189664434
 20
17017.318027999961
 30
0.0
 11
7959.8197189664434
 21
17096.316655999981
 31
0.0
  0
LINE
  5
3AEB
  8
2-0
  6
CONTINUOUS
 62
     3
 10
7874.8182019664446
 20
19794.308499999981
 30
0.0
 11
7874.8182019664446
 21
19842.315784999981
 31
0.0
  0
LINE
  5
3AEC
  8
2-0
  6
CONTINUOUS
 62
     6
 10
6834.2075529664462
 20
17250.147023999962
 30
0.0
 11
6773.057254966443
 21
17421.41008899999
 31
0.0
  0
LINE
  5
3AED
  8
2-0
  6
CONTINUOUS
 62
     6
 10
6670.0609239664418
 20
19570.036962999991
 30
0.0
 11
6813.9635119664408
 21
20082.30865899998
 31
0.0
  0
LINE
  5
3AEE
  8
2-0
  6
CONTINUOUS
 62
     6
 10
6256.9151059664418
 20
19675.81055899999
 30
0.0
 11
5962.9902479664452
 21
20082.30865899998
 31
0.0
  0
LINE
  5
3AEF
  8
2-0
  6
CONTINUOUS
 62
     6
 10
6813.9635119664408
 20
20082.30865899998
 30
0.0
 11
7331.6551289664421
 21
20082.30865899998
 31
0.0
  0
LINE
  5
3AF0
  8
2-0
  6
CONTINUOUS
 62
     6
 10
6203.655168966442
 20
19972.217732999969
 30
0.0
 11
5994.4616249664396
 21
20334.546834000001
 31
0.0
  0
LINE
  5
3AF1
  8
2-0
  6
CONTINUOUS
 62
     6
 10
5920.4528679664418
 20
20462.732540000001
 30
0.0
 11
5724.3949149664404
 21
20802.318951999991
 31
0.0
  0
LINE
  5
3AF2
  8
2-0
  6
CONTINUOUS
 62
     6
 10
5724.3949149664404
 20
20802.318951999991
 30
0.0
 11
6566.8354629664391
 21
20802.318951999991
 31
0.0
  0
LINE
  5
3AF3
  8
2-0
  6
CONTINUOUS
 62
     6
 10
5152.9919569664426
 20
20082.30865899998
 30
0.0
 11
5962.9902479664452
 21
20082.30865899998
 31
0.0
  0
LINE
  5
3AF4
  8
2-0
  6
CONTINUOUS
 62
     6
 10
5972.4919379664416
 20
17421.41008899999
 30
0.0
 11
6773.057254966443
 21
17421.41008899999
 31
0.0
  0
LINE
  5
3AF5
  8
2-0
  6
CONTINUOUS
 62
     6
 10
5206.3483949664424
 20
18208.435004999981
 30
0.0
 11
5736.3507119664418
 21
18208.435004999981
 31
0.0
  0
LINE
  5
3AF6
  8
2-0
  6
CONTINUOUS
 62
     6
 10
5852.2025319664399
 20
14689.207148999991
 30
0.0
 11
5935.0933879664453
 21
14875.64421299998
 31
0.0
  0
LINE
  5
3AF7
  8
2-0
  6
CONTINUOUS
 62
     6
 10
5935.0933879664453
 20
14875.64421299998
 30
0.0
 11
6735.0930579664418
 21
14875.64421299998
 31
0.0
  0
LINE
  5
3AF8
  8
2-0
  6
CONTINUOUS
 62
     6
 10
6842.6120939664406
 20
13502.31255099999
 30
0.0
 11
7705.1942439664381
 21
13502.31255099999
 31
0.0
  0
LINE
  5
3AF9
  8
2-0
  6
CONTINUOUS
 62
     6
 10
6436.5009909664432
 20
14165.84618999998
 30
0.0
 11
6842.6120939664406
 21
13502.31255099999
 31
0.0
  0
LINE
  5
3AFA
  8
2-0
  6
CONTINUOUS
 62
     6
 10
3225.9202259664371
 20
13102.31618099998
 30
0.0
 11
4305.9198299664413
 21
13102.31618099998
 31
0.0
  0
LINE
  5
3AFB
  8
2-0
  6
CONTINUOUS
 62
     6
 10
4864.4281299664444
 20
14892.086094999981
 30
0.0
 11
4305.9198299664413
 21
13102.31618099998
 31
0.0
  0
LINE
  5
3AFC
  8
2-0
  6
CONTINUOUS
 62
     6
 10
5107.3081319664407
 20
18429.226547999991
 30
0.0
 11
5206.3483949664424
 21
18208.435004999981
 31
0.0
  0
LINE
  5
3AFD
  8
2-0
  6
CONTINUOUS
 62
     6
 10
6250.0362789664441
 20
16594.091016999981
 30
0.0
 11
7130.0347279664384
 21
16594.091016999981
 31
0.0
  0
LINE
  5
3AFE
  8
2-0
  6
CONTINUOUS
 62
     6
 10
6038.7696839664413
 20
16392.026708999962
 30
0.0
 11
6250.0362789664441
 21
16594.091016999981
 31
0.0
  0
LINE
  5
3AFF
  8
2-0
  6
CONTINUOUS
 62
     6
 10
11561.10640696643
 20
20802.318951999991
 30
0.0
 11
13236.10178796643
 21
20802.318951999991
 31
0.0
  0
LINE
  5
3B00
  8
2-0
  6
CONTINUOUS
 62
     6
 10
13436.38608496642
 20
20472.727128999992
 30
0.0
 11
13236.10178796643
 21
20802.318951999991
 31
0.0
  0
LINE
  5
3B01
  8
2-0
  6
CONTINUOUS
 62
     6
 10
13719.58492096643
 20
19982.222219999981
 30
0.0
 11
13510.394345966421
 21
20344.545383000001
 31
0.0
  0
LINE
  5
3B02
  8
2-0
  6
CONTINUOUS
 62
     6
 10
7902.8194819664423
 20
15338.68924099998
 30
0.0
 11
7637.6298109664422
 21
15707.64280099998
 31
0.0
  0
LINE
  5
3B03
  8
2-0
  6
CONTINUOUS
 62
     6
 10
7391.4004639664408
 20
15707.64280099998
 30
0.0
 11
7637.6298109664422
 21
15707.64280099998
 31
0.0
  0
LINE
  5
3B04
  8
2-0
  6
CONTINUOUS
 62
     6
 10
4889.8698929664433
 20
14884.107644999969
 30
0.0
 11
4912.319612966442
 21
15044.748546999959
 31
0.0
  0
LINE
  5
3B05
  8
2-0
  6
CONTINUOUS
 62
     6
 10
4912.319612966442
 20
15044.748546999959
 30
0.0
 11
4838.9838929664402
 21
14900.06751399998
 31
0.0
  0
LINE
  5
3B06
  8
2-0
  6
CONTINUOUS
 62
     6
 10
4912.319612966442
 20
15044.748546999959
 30
0.0
 11
4889.8698929664433
 21
14884.107644999969
 31
0.0
  0
LINE
  5
3B07
  8
2-0
  6
CONTINUOUS
 62
     6
 10
4889.8698929664433
 20
14884.107644999969
 30
0.0
 11
4838.9838929664402
 21
14900.06751399998
 31
0.0
  0
LINE
  5
3B08
  8
2-0
  6
CONTINUOUS
 62
     6
 10
4838.9838929664402
 20
14900.06751399998
 30
0.0
 11
4912.319612966442
 21
15044.748546999959
 31
0.0
  0
LINE
  5
3B09
  8
2-0
  6
CONTINUOUS
 62
     6
 10
4838.9838929664402
 20
14900.06751399998
 30
0.0
 11
4889.8698929664433
 21
14884.107644999969
 31
0.0
  0
LINE
  5
3B0A
  8
2-0
  6
CONTINUOUS
 62
     6
 10
5828.0558689664413
 20
14700.51514899999
 30
0.0
 11
5784.3317679664387
 21
14544.314306999981
 31
0.0
  0
LINE
  5
3B0B
  8
2-0
  6
CONTINUOUS
 62
     6
 10
5784.3317679664387
 20
14544.314306999981
 30
0.0
 11
5876.3521639664414
 21
14677.89419999999
 31
0.0
  0
LINE
  5
3B0C
  8
2-0
  6
CONTINUOUS
 62
     6
 10
5784.3317679664387
 20
14544.314306999981
 30
0.0
 11
5828.0558689664413
 21
14700.51514899999
 31
0.0
  0
LINE
  5
3B0D
  8
2-0
  6
CONTINUOUS
 62
     6
 10
5828.0558689664413
 20
14700.51514899999
 30
0.0
 11
5876.3521639664414
 21
14677.89419999999
 31
0.0
  0
LINE
  5
3B0E
  8
2-0
  6
CONTINUOUS
 62
     6
 10
5876.3521639664414
 20
14677.89419999999
 30
0.0
 11
5784.3317679664387
 21
14544.314306999981
 31
0.0
  0
LINE
  5
3B0F
  8
2-0
  6
CONTINUOUS
 62
     6
 10
5876.3521639664414
 20
14677.89419999999
 30
0.0
 11
5828.0558689664413
 21
14700.51514899999
 31
0.0
  0
LINE
  5
3B10
  8
2-0
  6
CONTINUOUS
 62
     6
 10
6459.2436799664401
 20
14179.76913399998
 30
0.0
 11
6352.9761939664413
 21
14302.31914999999
 31
0.0
  0
LINE
  5
3B11
  8
2-0
  6
CONTINUOUS
 62
     6
 10
6352.9761939664413
 20
14302.31914999999
 30
0.0
 11
6413.7573119664412
 21
14151.924235999961
 31
0.0
  0
LINE
  5
3B12
  8
2-0
  6
CONTINUOUS
 62
     6
 10
6352.9761939664413
 20
14302.31914999999
 30
0.0
 11
6459.2436799664401
 21
14179.76913399998
 31
0.0
  0
LINE
  5
3B13
  8
2-0
  6
CONTINUOUS
 62
     6
 10
6459.2436799664401
 20
14179.76913399998
 30
0.0
 11
6413.7573119664412
 21
14151.924235999961
 31
0.0
  0
LINE
  5
3B14
  8
2-0
  6
CONTINUOUS
 62
     6
 10
6413.7573119664412
 20
14151.924235999961
 30
0.0
 11
6352.9761939664413
 21
14302.31914999999
 31
0.0
  0
LINE
  5
3B15
  8
2-0
  6
CONTINUOUS
 62
     6
 10
6413.7573119664412
 20
14151.924235999961
 30
0.0
 11
6459.2436799664401
 21
14179.76913399998
 31
0.0
  0
LINE
  5
3B16
  8
2-0
  6
CONTINUOUS
 62
     6
 10
7830.4413539664383
 20
15483.854266999981
 30
0.0
 11
7902.8194819664423
 21
15338.68924099998
 31
0.0
  0
LINE
  5
3B17
  8
2-0
  6
CONTINUOUS
 62
     6
 10
7902.8194819664423
 20
15338.68924099998
 30
0.0
 11
7787.2739929664422
 21
15452.53531299998
 31
0.0
  0
LINE
  5
3B18
  8
2-0
  6
CONTINUOUS
 62
     6
 10
7902.8194819664423
 20
15338.68924099998
 30
0.0
 11
7830.4413539664383
 21
15483.854266999981
 31
0.0
  0
LINE
  5
3B19
  8
2-0
  6
CONTINUOUS
 62
     6
 10
7830.4413539664383
 20
15483.854266999981
 30
0.0
 11
7787.2739929664422
 21
15452.53531299998
 31
0.0
  0
LINE
  5
3B1A
  8
2-0
  6
CONTINUOUS
 62
     6
 10
7787.2739929664422
 20
15452.53531299998
 30
0.0
 11
7902.8194819664423
 21
15338.68924099998
 31
0.0
  0
LINE
  5
3B1B
  8
2-0
  6
CONTINUOUS
 62
     6
 10
7787.2739929664422
 20
15452.53531299998
 30
0.0
 11
7830.4413539664383
 21
15483.854266999981
 31
0.0
  0
LINE
  5
3B1C
  8
2-0
  6
CONTINUOUS
 62
     6
 10
6020.3344269664449
 20
16411.301281999979
 30
0.0
 11
5923.1390749664397
 21
16281.441892999979
 31
0.0
  0
LINE
  5
3B1D
  8
2-0
  6
CONTINUOUS
 62
     6
 10
5923.1390749664397
 20
16281.441892999979
 30
0.0
 11
6057.2024659664376
 21
16372.759064999949
 31
0.0
  0
LINE
  5
3B1E
  8
2-0
  6
CONTINUOUS
 62
     6
 10
5923.1390749664397
 20
16281.441892999979
 30
0.0
 11
6020.3344269664449
 21
16411.301281999979
 31
0.0
  0
LINE
  5
3B1F
  8
2-0
  6
CONTINUOUS
 62
     6
 10
6020.3344269664449
 20
16411.301281999979
 30
0.0
 11
6057.2024659664376
 21
16372.759064999949
 31
0.0
  0
LINE
  5
3B20
  8
2-0
  6
CONTINUOUS
 62
     6
 10
6057.2024659664376
 20
16372.759064999949
 30
0.0
 11
5923.1390749664397
 21
16281.441892999979
 31
0.0
  0
LINE
  5
3B21
  8
2-0
  6
CONTINUOUS
 62
     6
 10
6057.2024659664376
 20
16372.759064999949
 30
0.0
 11
6020.3344269664449
 21
16411.301281999979
 31
0.0
  0
LINE
  5
3B22
  8
2-0
  6
CONTINUOUS
 62
     6
 10
6859.8447929664399
 20
17257.477181999959
 30
0.0
 11
6878.2102719664454
 21
17096.316655999981
 31
0.0
  0
LINE
  5
3B23
  8
2-0
  6
CONTINUOUS
 62
     6
 10
6878.2102719664454
 20
17096.316655999981
 30
0.0
 11
6808.5703129664389
 21
17242.80894899998
 31
0.0
  0
LINE
  5
3B24
  8
2-0
  6
CONTINUOUS
 62
     6
 10
6878.2102719664454
 20
17096.316655999981
 30
0.0
 11
6859.8447929664399
 21
17257.477181999959
 31
0.0
  0
LINE
  5
3B25
  8
2-0
  6
CONTINUOUS
 62
     6
 10
6859.8447929664399
 20
17257.477181999959
 30
0.0
 11
6808.5703129664389
 21
17242.80894899998
 31
0.0
  0
LINE
  5
3B26
  8
2-0
  6
CONTINUOUS
 62
     6
 10
6808.5703129664389
 20
17242.80894899998
 30
0.0
 11
6878.2102719664454
 21
17096.316655999981
 31
0.0
  0
LINE
  5
3B27
  8
2-0
  6
CONTINUOUS
 62
     6
 10
6808.5703129664389
 20
17242.80894899998
 30
0.0
 11
6859.8447929664399
 21
17257.477181999959
 31
0.0
  0
LINE
  5
3B28
  8
2-0
  6
CONTINUOUS
 62
     6
 10
5131.6378999664403
 20
18440.13765499998
 30
0.0
 11
5041.8197189664434
 21
18575.20812599999
 31
0.0
  0
LINE
  5
3B29
  8
2-0
  6
CONTINUOUS
 62
     6
 10
5041.8197189664434
 20
18575.20812599999
 30
0.0
 11
5082.9724249664432
 21
18418.309502999979
 31
0.0
  0
LINE
  5
3B2A
  8
2-0
  6
CONTINUOUS
 62
     6
 10
5041.8197189664434
 20
18575.20812599999
 30
0.0
 11
5131.6378999664403
 21
18440.13765499998
 31
0.0
  0
LINE
  5
3B2B
  8
2-0
  6
CONTINUOUS
 62
     6
 10
5131.6378999664403
 20
18440.13765499998
 30
0.0
 11
5082.9724249664432
 21
18418.309502999979
 31
0.0
  0
LINE
  5
3B2C
  8
2-0
  6
CONTINUOUS
 62
     6
 10
5082.9724249664432
 20
18418.309502999979
 30
0.0
 11
5041.8197189664434
 21
18575.20812599999
 31
0.0
  0
LINE
  5
3B2D
  8
2-0
  6
CONTINUOUS
 62
     6
 10
5082.9724249664432
 20
18418.309502999979
 30
0.0
 11
5131.6378999664403
 21
18440.13765499998
 31
0.0
  0
LINE
  5
3B2E
  8
2-0
  6
CONTINUOUS
 62
     6
 10
6182.0046789664402
 20
19959.719051999989
 30
0.0
 11
6278.6536839664441
 21
19842.315784999981
 31
0.0
  0
LINE
  5
3B2F
  8
2-0
  6
CONTINUOUS
 62
     6
 10
6278.6536839664441
 20
19842.315784999981
 30
0.0
 11
6225.3031839664409
 21
19984.71641299998
 31
0.0
  0
LINE
  5
3B30
  8
2-0
  6
CONTINUOUS
 62
     6
 10
6278.6536839664441
 20
19842.315784999981
 30
0.0
 11
6182.0046789664402
 21
19959.719051999989
 31
0.0
  0
LINE
  5
3B31
  8
2-0
  6
CONTINUOUS
 62
     6
 10
6182.0046789664402
 20
19959.719051999989
 30
0.0
 11
6225.3031839664409
 21
19984.71641299998
 31
0.0
  0
LINE
  5
3B32
  8
2-0
  6
CONTINUOUS
 62
     6
 10
6225.3031839664409
 20
19984.71641299998
 30
0.0
 11
6278.6536839664441
 21
19842.315784999981
 31
0.0
  0
LINE
  5
3B33
  8
2-0
  6
CONTINUOUS
 62
     6
 10
6225.3031839664409
 20
19984.71641299998
 30
0.0
 11
6182.0046789664402
 21
19959.719051999989
 31
0.0
  0
LINE
  5
3B34
  8
2-0
  6
CONTINUOUS
 62
     6
 10
6150.2220239664384
 20
19797.986445999992
 30
0.0
 11
6256.9151059664418
 21
19675.81055899999
 31
0.0
  0
LINE
  5
3B35
  8
2-0
  6
CONTINUOUS
 62
     6
 10
6256.9151059664418
 20
19675.81055899999
 30
0.0
 11
6195.6148589664472
 21
19825.988715999982
 31
0.0
  0
LINE
  5
3B36
  8
2-0
  6
CONTINUOUS
 62
     6
 10
6256.9151059664418
 20
19675.81055899999
 30
0.0
 11
6150.2220239664384
 21
19797.986445999992
 31
0.0
  0
LINE
  5
3B37
  8
2-0
  6
CONTINUOUS
 62
     6
 10
6150.2220239664384
 20
19797.986445999992
 30
0.0
 11
6195.6148589664472
 21
19825.988715999982
 31
0.0
  0
LINE
  5
3B38
  8
2-0
  6
CONTINUOUS
 62
     6
 10
6195.6148589664472
 20
19825.988715999982
 30
0.0
 11
6256.9151059664418
 21
19675.81055899999
 31
0.0
  0
LINE
  5
3B39
  8
2-0
  6
CONTINUOUS
 62
     6
 10
6195.6148589664472
 20
19825.988715999982
 30
0.0
 11
6150.2220239664384
 21
19797.986445999992
 31
0.0
  0
LINE
  5
3B3A
  8
2-0
  6
CONTINUOUS
 62
     6
 10
6644.1772339664412
 20
19576.436746999989
 30
0.0
 11
6631.6785529664403
 21
19414.710078999989
 31
0.0
  0
LINE
  5
3B3B
  8
2-0
  6
CONTINUOUS
 62
     6
 10
6631.6785529664403
 20
19414.710078999989
 30
0.0
 11
6695.9545109664386
 21
19563.643117999982
 31
0.0
  0
LINE
  5
3B3C
  8
2-0
  6
CONTINUOUS
 62
     6
 10
6631.6785529664403
 20
19414.710078999989
 30
0.0
 11
6644.1772339664412
 21
19576.436746999989
 31
0.0
  0
LINE
  5
3B3D
  8
2-0
  6
CONTINUOUS
 62
     6
 10
6644.1772339664412
 20
19576.436746999989
 30
0.0
 11
6695.9545109664386
 21
19563.643117999982
 31
0.0
  0
LINE
  5
3B3E
  8
2-0
  6
CONTINUOUS
 62
     6
 10
6695.9545109664386
 20
19563.643117999982
 30
0.0
 11
6631.6785529664403
 21
19414.710078999989
 31
0.0
  0
LINE
  5
3B3F
  8
2-0
  6
CONTINUOUS
 62
     6
 10
6695.9545109664386
 20
19563.643117999982
 30
0.0
 11
6644.1772339664412
 21
19576.436746999989
 31
0.0
  0
LINE
  5
3B40
  8
2-0
  6
CONTINUOUS
 62
     6
 10
13697.9349259664
 20
19969.71957999999
 30
0.0
 11
13794.584920966419
 21
19852.31037399999
 31
0.0
  0
LINE
  5
3B41
  8
2-0
  6
CONTINUOUS
 62
     6
 10
13794.584920966419
 20
19852.31037399999
 30
0.0
 11
13741.232935966431
 21
19994.720899999989
 31
0.0
  0
LINE
  5
3B42
  8
2-0
  6
CONTINUOUS
 62
     6
 10
13794.584920966419
 20
19852.31037399999
 30
0.0
 11
13697.9349259664
 21
19969.71957999999
 31
0.0
  0
LINE
  5
3B43
  8
2-0
  6
CONTINUOUS
 62
     6
 10
13697.9349259664
 20
19969.71957999999
 30
0.0
 11
13741.232935966431
 21
19994.720899999989
 31
0.0
  0
LINE
  5
3B44
  8
2-0
  6
CONTINUOUS
 62
     6
 10
13741.232935966431
 20
19994.720899999989
 30
0.0
 11
13794.584920966419
 21
19852.31037399999
 31
0.0
  0
LINE
  5
3B45
  8
2-0
  6
CONTINUOUS
 62
     6
 10
13741.232935966431
 20
19994.720899999989
 30
0.0
 11
13697.9349259664
 21
19969.71957999999
 31
0.0
  0
LINE
  5
3B46
  8
2-0
  6
DASHED3
 62
     6
 10
4999.3204449664408
 20
19389.33265
 30
0.0
 11
4999.3204449664408
 21
19675.81055899999
 31
0.0
  0
LINE
  5
3B47
  8
2-0
  6
DASHED3
 62
     6
 10
5041.8197189664434
 20
19369.759170999991
 30
0.0
 11
5041.8197189664434
 21
19675.81055899999
 31
0.0
  0
LINE
  5
3B48
  8
2-0
  6
DASHED3
 62
     6
 10
13785.81763296642
 20
16571.205802999972
 30
0.0
 11
13785.81763296642
 21
19675.81055899999
 31
0.0
  0
LINE
  5
3B49
  8
2-0
  6
DASHED3
 62
     6
 10
13828.318886966421
 20
16551.63232299998
 30
0.0
 11
13828.318886966421
 21
19675.81055899999
 31
0.0
  0
LINE
  5
3B4A
  8
2-0
  6
DASHED3
 62
     6
 10
10494.18746096641
 20
16743.322963999981
 30
0.0
 11
10797.81987796644
 21
17062.316444999979
 31
0.0
  0
LINE
  5
3B4B
  8
2-0
  6
DASHED3
 62
     6
 10
7889.8209729664404
 20
19629.816444999949
 30
0.0
 11
6757.9604569664434
 21
18583.822989999979
 31
0.0
  0
LINE
  5
3B4C
  8
2-0
  6
DASHED3
 62
     6
 10
5111.8194549664404
 20
19629.816444999949
 30
0.0
 11
5752.4877479664419
 21
19046.998665999981
 31
0.0
  0
LINE
  5
3B4D
  8
2-0
  6
DASHED3
 62
     6
 10
7959.8197189664434
 20
17972.537754999968
 30
0.0
 11
7959.8197189664434
 21
19794.308499999981
 31
0.0
  0
LINE
  5
3B4E
  8
2-1
  6
CENTER2
 62
     6
 10
3712.3181279664459
 20
19629.816444999949
 30
0.0
 11
5358.8188349664424
 21
19629.816444999949
 31
0.0
  0
LINE
  5
3B4F
  8
2-1
  6
CENTER2
 62
     6
 10
3712.3181279664459
 20
17062.316444999979
 30
0.0
 11
5358.8188349664424
 21
17062.316444999979
 31
0.0
  0
LINE
  5
3B50
  8
2-1
  6
CENTER2
 62
     6
 10
3712.3181279664459
 20
14494.81644499998
 30
0.0
 11
5358.8188349664424
 21
14494.81644499998
 31
0.0
  0
LINE
  5
3B51
  8
2-1
  6
CENTER2
 62
     6
 10
13468.819506966431
 20
17062.316444999979
 30
0.0
 11
14084.584392966421
 21
17062.316444999979
 31
0.0
  0
LINE
  5
3B52
  8
2-1
  6
CENTER2
 62
     6
 10
13468.819506966431
 20
14494.81644499998
 30
0.0
 11
14084.584392966421
 21
14494.81644499998
 31
0.0
  0
LINE
  5
3B53
  8
2-0
  6
CONTINUOUS
 62
     3
 10
10867.81961396642
 20
14537.30878999999
 30
0.0
 11
10867.81961396642
 21
14458.31511199998
 31
0.0
  0
LINE
  5
3B54
  8
2-0
  6
CONTINUOUS
 62
     3
 10
10867.81961396642
 20
14458.31511199998
 30
0.0
 11
10867.81961396642
 21
14302.31914999999
 31
0.0
  0
LINE
  5
3B55
  8
2-0
  6
DASHED3
 62
     6
 10
13715.818886966421
 20
17062.316444999979
 30
0.0
 11
10937.81934996641
 21
19629.816444999949
 31
0.0
  0
LINE
  5
3B56
  8
2-0
  6
DASHED3
 62
     6
 10
10867.81961396642
 20
16571.205802999972
 30
0.0
 11
10867.81961396642
 21
19794.308499999981
 31
0.0
  0
LINE
  5
3B57
  8
2-0
  6
DASHED3
 62
     6
 10
10810.819375966419
 20
17017.318027999961
 30
0.0
 11
10810.819375966419
 21
16597.464116999981
 31
0.0
  0
LINE
  5
3B58
  8
2-0
  6
DASHED3
 62
     6
 10
10924.824799966431
 20
17017.318027999961
 30
0.0
 11
10924.824799966431
 21
16544.951447999982
 31
0.0
  0
LINE
  5
3B59
  8
2-0
  6
DASHED3
 62
     6
 10
13715.818886966421
 20
19629.816444999949
 30
0.0
 11
10937.81934996641
 21
17062.310505999962
 31
0.0
  0
LINE
  5
3B5A
  8
2-0
  6
CONTINUOUS
 62
     3
 10
11178.31700096643
 20
16428.179646999972
 30
0.0
 11
11178.31700096643
 21
19794.308499999981
 31
0.0
  0
LINE
  5
3B5B
  8
2-0
  6
CONTINUOUS
 62
     3
 10
11141.31979896642
 20
16445.225280999981
 30
0.0
 11
11141.31979896642
 21
19794.308499999981
 31
0.0
  0
LINE
  5
3B5C
  8
2-0
  6
CONTINUOUS
 62
     3
 10
11378.31469096643
 20
16336.050871999971
 30
0.0
 11
11378.31469096643
 21
19794.308499999981
 31
0.0
  0
LINE
  5
3B5D
  8
2-0
  6
CONTINUOUS
 62
     3
 10
11341.31649896642
 20
16353.094526999959
 30
0.0
 11
11341.31649896642
 21
19794.308499999981
 31
0.0
  0
LINE
  5
3B5E
  8
2-0
  6
CONTINUOUS
 62
     3
 10
11578.31337196642
 20
16243.919128999971
 30
0.0
 11
11578.31337196642
 21
19794.308499999981
 31
0.0
  0
LINE
  5
3B5F
  8
2-0
  6
CONTINUOUS
 62
     3
 10
11778.31106196642
 20
16151.79233399998
 30
0.0
 11
11778.31106196642
 21
19794.308499999981
 31
0.0
  0
LINE
  5
3B60
  8
2-0
  6
CONTINUOUS
 62
     3
 10
11741.31484996642
 20
16168.83301999998
 30
0.0
 11
11741.31484996642
 21
19794.308499999981
 31
0.0
  0
LINE
  5
3B61
  8
2-0
  6
CONTINUOUS
 62
     3
 10
11978.31271196643
 20
16059.66256999998
 30
0.0
 11
11978.31271196643
 21
19794.308499999981
 31
0.0
  0
LINE
  5
3B62
  8
2-0
  6
CONTINUOUS
 62
     3
 10
11941.31451996643
 20
16076.704245999979
 30
0.0
 11
11941.31451996643
 21
19794.308499999981
 31
0.0
  0
LINE
  5
3B63
  8
2-0
  6
CONTINUOUS
 62
     3
 10
12141.312209966431
 20
15984.574480999971
 30
0.0
 11
12141.312209966431
 21
19794.308499999981
 31
0.0
  0
LINE
  5
3B64
  8
2-0
  6
CONTINUOUS
 62
     3
 10
12378.309082966431
 20
15875.401061999981
 30
0.0
 11
12378.309082966431
 21
19794.308499999981
 31
0.0
  0
LINE
  5
3B65
  8
2-0
  6
CONTINUOUS
 62
     3
 10
12341.31089096643
 20
15892.44471699998
 30
0.0
 11
12341.31089096643
 21
19794.308499999981
 31
0.0
  0
LINE
  5
3B66
  8
2-0
  6
CONTINUOUS
 62
     3
 10
12578.30776296642
 20
15783.27129799998
 30
0.0
 11
12578.30776296642
 21
19794.308499999981
 31
0.0
  0
LINE
  5
3B67
  8
2-0
  6
CONTINUOUS
 62
     3
 10
12541.30858096643
 20
15800.31594299998
 30
0.0
 11
12541.30858096643
 21
19794.308499999981
 31
0.0
  0
LINE
  5
3B68
  8
2-0
  6
CONTINUOUS
 62
     3
 10
12778.30743296644
 20
15691.142523999981
 30
0.0
 11
12778.30743296644
 21
19794.308499999981
 31
0.0
  0
LINE
  5
3B69
  8
2-0
  6
CONTINUOUS
 62
     3
 10
12741.30825096642
 20
15708.18617899998
 30
0.0
 11
12741.30825096642
 21
19794.308499999981
 31
0.0
  0
LINE
  5
3B6A
  8
2-0
  6
CONTINUOUS
 62
     3
 10
12978.30413396642
 20
15599.015728999981
 30
0.0
 11
12978.30413396642
 21
19794.308499999981
 31
0.0
  0
LINE
  5
3B6B
  8
2-0
  6
CONTINUOUS
 62
     3
 10
12941.30594196643
 20
15616.05938399998
 30
0.0
 11
12941.30594196643
 21
19794.308499999981
 31
0.0
  0
LINE
  5
3B6C
  8
2-0
  6
CONTINUOUS
 62
     3
 10
13178.303803966421
 20
15506.885964999959
 30
0.0
 11
13178.303803966421
 21
19794.308499999981
 31
0.0
  0
LINE
  5
3B6D
  8
2-0
  6
CONTINUOUS
 62
     3
 10
13141.30561196642
 20
15523.930609999979
 30
0.0
 11
13141.30561196642
 21
19794.308499999981
 31
0.0
  0
LINE
  5
3B6E
  8
2-0
  6
CONTINUOUS
 62
     3
 10
13378.30248396643
 20
15414.75422199996
 30
0.0
 11
13378.30248396643
 21
19794.308499999981
 31
0.0
  0
LINE
  5
3B6F
  8
2-0
  6
CONTINUOUS
 62
     3
 10
13341.305281966421
 20
15431.797876999981
 30
0.0
 11
13341.305281966421
 21
19794.308499999981
 31
0.0
  0
LINE
  5
3B70
  8
2-0
  6
CONTINUOUS
 62
     3
 10
13588.300279966419
 20
15322.62445799996
 30
0.0
 11
13588.300279966419
 21
19794.308499999981
 31
0.0
  0
LINE
  5
3B71
  8
2-0
  6
CONTINUOUS
 62
     3
 10
13551.302086966431
 20
15339.671081999981
 30
0.0
 11
13551.302086966431
 21
19794.308499999981
 31
0.0
  0
LINE
  5
3B72
  8
2-0
  6
CONTINUOUS
 62
     3
 10
10741.319468966431
 20
16629.48084999996
 30
0.0
 11
10741.319468966431
 21
19794.308499999981
 31
0.0
  0
LINE
  5
3B73
  8
2-0
  6
CONTINUOUS
 62
     3
 10
10778.317660966421
 20
16612.437194999959
 30
0.0
 11
10778.317660966421
 21
19794.308499999981
 31
0.0
  0
LINE
  5
3B74
  8
2-0
  6
CONTINUOUS
 62
     3
 10
10941.320128966419
 20
16537.35009599998
 30
0.0
 11
10941.320128966419
 21
19794.308499999981
 31
0.0
  0
LINE
  5
3B75
  8
2-0
  6
CONTINUOUS
 62
     3
 10
10978.31733096642
 20
16520.30644099999
 30
0.0
 11
10978.31733096642
 21
19794.308499999981
 31
0.0
  0
LINE
  5
3B76
  8
2-0
  6
CONTINUOUS
 62
     3
 10
13751.29977796642
 20
15247.54230799998
 30
0.0
 11
13751.29977796642
 21
19794.308499999981
 31
0.0
  0
LINE
  5
3B77
  8
2-0
  6
CONTINUOUS
 62
     3
 10
13788.297969966419
 20
15230.498652999981
 30
0.0
 11
13788.297969966419
 21
19794.308499999981
 31
0.0
  0
LINE
  5
3B78
  8
2-0
  6
CONTINUOUS
 62
     3
 10
11541.31616996644
 20
16260.968721999971
 30
0.0
 11
11541.31616996644
 21
19794.308499999981
 31
0.0
  0
LINE
  5
3B79
  8
2-0
  6
CONTINUOUS
 62
     3
 10
12178.31040296643
 20
15967.527856999979
 30
0.0
 11
12178.31040296643
 21
19794.308499999981
 31
0.0
  0
LINE
  5
3B7A
  8
2-0
  6
DASHED3
 62
     6
 10
13828.318886966421
 20
15212.06042699998
 30
0.0
 11
13828.318886966421
 21
16551.63232299998
 31
0.0
  0
LINE
  5
3B7B
  8
2-1
  6
DASHED3
 62
     6
 10
13785.81763296642
 20
15231.640834999969
 30
0.0
 11
13785.81763296642
 21
16571.205802999972
 31
0.0
  0
LINE
  5
3B7C
  8
2-0
  6
DASHED3
 62
     6
 10
9727.8920639664448
 20
17096.316655999981
 30
0.0
 11
13785.81763296642
 21
17096.316655999981
 31
0.0
  0
LINE
  5
3B7D
  8
2-0
  6
DASHED3
 62
     6
 10
9899.3916159664223
 20
17017.318027999961
 30
0.0
 11
13785.81763296642
 21
17017.318027999961
 31
0.0
  0
LINE
  5
3B7E
  8
2-0
  6
CONTINUOUS
 62
     3
 10
9817.8146649664341
 20
17339.876621999971
 30
0.0
 11
9571.9762729664326
 21
17534.816708999992
 31
0.0
  0
LINE
  5
3B7F
  8
2-0
  6
CONTINUOUS
 62
     3
 10
9571.9762729664326
 20
16455.437617999982
 30
0.0
 11
9211.8701709664419
 21
16727.063197999982
 31
0.0
  0
LINE
  5
3B80
  8
2-0
  6
CONTINUOUS
 62
     3
 10
9429.8527769664433
 20
17256.748718999981
 30
0.0
 11
9271.9762729664435
 21
17385.33138399999
 31
0.0
  0
LINE
  5
3B81
  8
2-0
  6
CONTINUOUS
 62
     3
 10
9271.9762729664435
 20
16305.95229199998
 30
0.0
 11
8823.9023449664455
 21
16643.931335999961
 31
0.0
  0
LINE
  5
3B82
  8
2-0
  6
CONTINUOUS
 62
     3
 10
9211.8701709664419
 20
16727.063197999982
 30
0.0
 11
9817.8146649664341
 21
17339.876621999971
 31
0.0
  0
LINE
  5
3B83
  8
2-0
  6
CONTINUOUS
 62
     3
 10
9429.8527769664433
 20
17256.748718999981
 30
0.0
 11
8823.9023449664455
 21
16643.931335999961
 31
0.0
  0
LINE
  5
3B84
  8
2-0
  6
CONTINUOUS
 62
     3
 10
9271.9762729664435
 20
16305.95229199998
 30
0.0
 11
9271.9762729664435
 21
13824.99585499999
 31
0.0
  0
LINE
  5
3B85
  8
2-0
  6
CONTINUOUS
 62
     3
 10
9571.9762729664326
 20
16455.437617999982
 30
0.0
 11
9571.9762729664326
 21
13824.99585499999
 31
0.0
  0
LINE
  5
3B86
  8
2-0
  6
CONTINUOUS
 62
     3
 10
9271.9762729664435
 20
17385.33138399999
 30
0.0
 11
9271.9762729664435
 21
20244.508431999991
 31
0.0
  0
LINE
  5
3B87
  8
2-0
  6
CONTINUOUS
 62
     3
 10
9571.9762729664326
 20
17534.816708999992
 30
0.0
 11
9571.9762729664326
 21
20244.508431999991
 31
0.0
  0
LINE
  5
3B88
  8
2-0
  6
CONTINUOUS
 62
     3
 10
4974.3180959664423
 20
19794.308499999981
 30
0.0
 11
9271.9762729664435
 21
19794.308499999981
 31
0.0
  0
LINE
  5
3B89
  8
2-0
  6
CONTINUOUS
 62
     3
 10
5029.8188479664423
 20
19842.315784999981
 30
0.0
 11
9271.9762729664435
 21
19842.315784999981
 31
0.0
  0
LINE
  5
3B8A
  8
2-0
  6
DASHED3
 62
     6
 10
4999.3204449664408
 20
19675.81055899999
 30
0.0
 11
9271.9762729664435
 21
19675.81055899999
 31
0.0
  0
LINE
  5
3B8B
  8
2-0
  6
DASHED3
 62
     6
 10
5041.8197189664434
 20
19590.812010999991
 30
0.0
 11
9271.9762729664435
 21
19590.812010999991
 31
0.0
  0
LINE
  5
3B8C
  8
2-0
  6
CONTINUOUS
 62
     3
 10
9571.9762729664326
 20
19842.315784999981
 30
0.0
 11
13797.819493966401
 21
19842.315784999981
 31
0.0
  0
LINE
  5
3B8D
  8
2-0
  6
CONTINUOUS
 62
     3
 10
9571.9762729664326
 20
19794.308499999981
 30
0.0
 11
13853.320245966421
 21
19794.308499999981
 31
0.0
  0
LINE
  5
3B8E
  8
2-0
  6
DASHED3
 62
     6
 10
9571.9762729664326
 20
19675.81055899999
 30
0.0
 11
13828.318886966421
 21
19675.81055899999
 31
0.0
  0
LINE
  5
3B8F
  8
2-0
  6
DASHED3
 62
     6
 10
9571.9762729664326
 20
19590.812010999991
 30
0.0
 11
13785.81763296642
 21
19590.812010999991
 31
0.0
  0
LINE
  5
3B90
  8
2-0
  6
DASHED3
 62
     6
 10
10797.81987796644
 20
19629.816444999949
 30
0.0
 11
9571.9762729664326
 21
18496.96963299999
 31
0.0
  0
LINE
  5
3B91
  8
2-0
  6
DASHED3
 62
     6
 10
10797.81987796644
 20
17062.316444999979
 30
0.0
 11
9571.9762729664326
 21
18204.65808299998
 31
0.0
  0
LINE
  5
3B92
  8
2-0
  6
DASHED3
 62
     6
 10
9271.9762729664435
 20
18481.897578999989
 30
0.0
 11
8029.8194559664407
 21
19629.816444999949
 31
0.0
  0
LINE
  5
3B93
  8
2-0
  6
DASHED3
 62
     6
 10
9271.9762729664435
 20
18219.72815799998
 30
0.0
 11
8619.2409079664412
 21
17616.51737899999
 31
0.0
  0
LINE
  5
3B94
  8
2-0
  6
CONTINUOUS
 62
     3
 10
9578.3216199664439
 20
17530.03221199998
 30
0.0
 11
9578.3216199664439
 21
19794.308499999981
 31
0.0
  0
LINE
  5
3B95
  8
2-0
  6
CONTINUOUS
 62
     3
 10
14084.766508966421
 20
15093.927706999981
 30
0.0
 11
9624.2068599664417
 21
17144.076500999981
 31
0.0
  0
LINE
  5
3B96
  8
2-0
  6
CONTINUOUS
 62
     3
 10
9414.1314409664337
 20
17240.84724599995
 30
0.0
 11
8388.3142299664378
 21
17722.89076899998
 31
0.0
  0
LINE
  5
3B97
  8
2-0
  6
CONTINUOUS
 62
     3
 10
9576.9864349664349
 20
17096.316655999981
 30
0.0
 11
9727.8920639664448
 21
17096.316655999981
 31
0.0
  0
LINE
  5
3B98
  8
2-0
  6
CONTINUOUS
 62
     3
 10
9498.8686929664364
 20
17017.318027999961
 30
0.0
 11
9899.3916159664223
 21
17017.318027999961
 31
0.0
  0
LINE
  5
3B99
  8
2-0
  6
CONTINUOUS
 62
     3
 10
5041.8197189664434
 20
17096.316655999981
 30
0.0
 11
9271.2200969664409
 21
17096.316655999981
 31
0.0
  0
LINE
  5
3B9A
  8
2-0
  6
CONTINUOUS
 62
     3
 10
5041.8197189664434
 20
17017.318027999961
 30
0.0
 11
9193.1023549664387
 21
17017.318027999961
 31
0.0
  0
LINE
  5
3B9B
  8
2-0
  6
CONTINUOUS
 62
     3
 10
9571.9762729664326
 20
15774.47233799998
 30
0.0
 11
10494.18746096641
 21
16743.322963999981
 31
0.0
  0
LINE
  5
3B9C
  8
2-0
  6
CONTINUOUS
 62
     3
 10
10797.81987796644
 20
14494.81644499998
 30
0.0
 11
9571.9762729664326
 21
15792.159336999979
 31
0.0
  0
LINE
  5
3B9D
  8
2-0
  6
CONTINUOUS
 62
     3
 10
8029.8194559664407
 20
14494.81644499998
 30
0.0
 11
9271.9762729664435
 21
15809.295038999981
 31
0.0
  0
LINE
  5
3B9E
  8
2-0
  6
CONTINUOUS
 62
     3
 10
9271.9762729664435
 20
15757.33366599998
 30
0.0
 11
8029.8194559664407
 21
17062.316444999979
 31
0.0
  0
LINE
  5
3B9F
  8
2-0
  6
CONTINUOUS
 62
     3
 10
9571.9762729664326
 20
14458.31511199998
 30
0.0
 11
13828.318886966421
 21
14458.31511199998
 31
0.0
  0
LINE
  5
3BA0
  8
2-0
  6
CONTINUOUS
 62
     3
 10
9571.9762729664326
 20
14537.30878999999
 30
0.0
 11
13785.81763296642
 21
14537.30878999999
 31
0.0
  0
LINE
  5
3BA1
  8
2-0
  6
CONTINUOUS
 62
     3
 10
9571.9762729664326
 20
14334.31806799998
 30
0.0
 11
13871.316049966421
 21
14334.31806799998
 31
0.0
  0
LINE
  5
3BA2
  8
2-0
  6
CONTINUOUS
 62
     3
 10
9571.9762729664326
 20
14302.31914999999
 30
0.0
 11
13871.316049966421
 21
14302.31914999999
 31
0.0
  0
LINE
  5
3BA3
  8
2-0
  6
CONTINUOUS
 62
     3
 10
4999.3204449664408
 20
14458.31511199998
 30
0.0
 11
9271.9762729664435
 21
14458.31511199998
 31
0.0
  0
LINE
  5
3BA4
  8
2-0
  6
CONTINUOUS
 62
     3
 10
5041.8197189664434
 20
14537.30878999999
 30
0.0
 11
9271.9762729664435
 21
14537.30878999999
 31
0.0
  0
LINE
  5
3BA5
  8
2-0
  6
CONTINUOUS
 62
     3
 10
4956.3183329664434
 20
14334.31806799998
 30
0.0
 11
9271.9762729664435
 21
14334.31806799998
 31
0.0
  0
LINE
  5
3BA6
  8
2-0
  6
CONTINUOUS
 62
     3
 10
4956.3183329664434
 20
14302.31914999999
 30
0.0
 11
9271.9762729664435
 21
14302.31914999999
 31
0.0
  0
LINE
  5
3BA7
  8
2-1
  6
CENTER2
 62
     6
 10
13785.81961296643
 20
20872.314729999998
 30
0.0
 11
13785.81961296643
 21
13952.31947999998
 31
0.0
  0
LINE
  5
3BA8
  8
2-0
  6
CONTINUOUS
 62
     3
 10
4999.3204449664408
 20
14458.31511199998
 30
0.0
 11
4999.3204449664408
 21
19389.33265
 31
0.0
  0
LINE
  5
3BA9
  8
2-1
  6
CENTER2
 62
     6
 10
5041.8197189664434
 20
20872.314729999998
 30
0.0
 11
5041.8197189664434
 21
13952.31947999998
 31
0.0
  0
LINE
  5
3BAA
  8
2-0
  6
CONTINUOUS
 62
     3
 10
5091.8188539664397
 20
14334.31806799998
 30
0.0
 11
5091.8188539664397
 21
19794.308499999981
 31
0.0
  0
LINE
  5
3BAB
  8
2-0
  6
CONTINUOUS
 62
     3
 10
4956.3183329664434
 20
14302.31914999999
 30
0.0
 11
4956.3183329664434
 21
19842.315784999981
 31
0.0
  0
LINE
  5
3BAC
  8
2-0
  6
CONTINUOUS
 62
     3
 10
7902.8194819664423
 20
14537.30878999999
 30
0.0
 11
7902.8194819664423
 21
17017.318027999961
 31
0.0
  0
LINE
  5
3BAD
  8
2-0
  6
CONTINUOUS
 62
     3
 10
8016.824905966444
 20
14537.30878999999
 30
0.0
 11
8016.824905966444
 21
17017.318027999961
 31
0.0
  0
LINE
  5
3BAE
  8
2-0
  6
CONTINUOUS
 62
     3
 10
7959.8197189664434
 20
14458.31511199998
 30
0.0
 11
7959.8197189664434
 21
14334.31806799998
 31
0.0
  0
LINE
  5
3BAF
  8
2-0
  6
CONTINUOUS
 62
     3
 10
7959.8197189664434
 20
14302.31914999999
 30
0.0
 11
7959.8197189664434
 21
17017.318027999961
 31
0.0
  0
LINE
  5
3BB0
  8
2-0
  6
CONTINUOUS
 62
     3
 10
10810.819375966419
 20
14537.30878999999
 30
0.0
 11
10810.819375966419
 21
16597.464116999981
 31
0.0
  0
LINE
  5
3BB1
  8
2-0
  6
CONTINUOUS
 62
     3
 10
10924.824799966431
 20
14537.30878999999
 30
0.0
 11
10924.824799966431
 21
16544.951447999982
 31
0.0
  0
LINE
  5
3BB2
  8
2-1
  6
CENTER2
 62
     6
 10
10867.81961396642
 20
20872.314729999998
 30
0.0
 11
10867.81961396642
 21
14302.31914999999
 31
0.0
  0
LINE
  5
3BB3
  8
2-0
  6
CONTINUOUS
 62
     3
 10
10867.81961396642
 20
14302.31914999999
 30
0.0
 11
10867.81961396642
 21
16571.205802999972
 31
0.0
  0
LINE
  5
3BB4
  8
2-0
  6
DASHED3
 62
     6
 10
7902.8194819664423
 20
18060.40264599997
 30
0.0
 11
7902.8194819664423
 21
19590.812010999991
 31
0.0
  0
LINE
  5
3BB5
  8
2-0
  6
DASHED3
 62
     6
 10
8016.824905966444
 20
17884.67484299999
 30
0.0
 11
8016.824905966444
 21
19590.812010999991
 31
0.0
  0
LINE
  5
3BB6
  8
2-1
  6
CENTER2
 62
     6
 10
7959.8197189664434
 20
20872.314729999998
 30
0.0
 11
7959.8197189664434
 21
14537.30878999999
 31
0.0
  0
LINE
  5
3BB7
  8
2-0
  6
DASHED3
 62
     6
 10
10810.819375966419
 20
17096.316655999981
 30
0.0
 11
10810.819375966419
 21
19590.812010999991
 31
0.0
  0
LINE
  5
3BB8
  8
2-0
  6
DASHED3
 62
     6
 10
10924.824799966431
 20
17096.316655999981
 30
0.0
 11
10924.824799966431
 21
19590.812010999991
 31
0.0
  0
LINE
  5
3BB9
  8
2-0
  6
CONTINUOUS
 62
     3
 10
13785.81763296642
 20
14458.31511199998
 30
0.0
 11
13785.81763296642
 21
15231.640834999969
 31
0.0
  0
LINE
  5
3BBA
  8
2-0
  6
CONTINUOUS
 62
     3
 10
13828.318886966421
 20
14458.31511199998
 30
0.0
 11
13828.318886966421
 21
15212.06042699998
 31
0.0
  0
LINE
  5
3BBB
  8
2-0
  6
CONTINUOUS
 62
     3
 10
13853.320245966421
 20
14334.31806799998
 30
0.0
 11
13853.320245966421
 21
19834.815388999981
 31
0.0
  0
LINE
  5
3BBC
  8
2-0
  6
CONTINUOUS
 62
     3
 10
13871.316049966421
 20
14302.31914999999
 30
0.0
 11
13871.316049966421
 21
19842.315784999981
 31
0.0
  0
LINE
  5
3BBD
  8
0-1
  6
CONTINUOUS
 62
     3
 10
5111.8194549664404
 20
14494.81644499998
 30
0.0
 11
7889.8209729664404
 21
17062.316444999979
 31
0.0
  0
LINE
  5
3BBE
  8
0-1
  6
CONTINUOUS
 62
     3
 10
7889.8209729664404
 20
14494.81644499998
 30
0.0
 11
5111.8194549664404
 21
17062.316444999979
 31
0.0
  0
LINE
  5
3BBF
  8
0-1
  6
CONTINUOUS
 62
     3
 10
10937.821328966431
 20
14494.81644499998
 30
0.0
 11
12407.109098966421
 21
15862.13432899998
 31
0.0
  0
LINE
  5
3BC0
  8
0-1
  6
CONTINUOUS
 62
     3
 10
13715.818886966421
 20
14494.81644499998
 30
0.0
 11
12067.001082966421
 21
16018.805306999981
 31
0.0
  0
LINE
  5
3BC1
  8
2-1
  6
DASHED3
 62
     6
 10
12067.001082966421
 20
16018.80431699998
 30
0.0
 11
10937.821328966431
 21
17062.316444999979
 31
0.0
  0
LINE
  5
3BC2
  8
2-1
  6
DASHED3
 62
     6
 10
12407.109098966421
 20
15862.13432899998
 30
0.0
 11
13715.818886966421
 21
17062.316444999979
 31
0.0
  0
CIRCLE
  5
3BC3
  8
0-5
  6
CONTINUOUS
 62
     4
 10
15128.71469899998
 20
1375.9999199999991
 30
0.0
 40
20.0
  0
ARC
  5
3BC4
  8
0-5
  6
CONTINUOUS
 62
     4
 10
15128.71469899998
 20
1375.9999199999991
 30
0.0
 40
20.0
 50
180.0
 51
0.0
  0
ARC
  5
3BC5
  8
0-5
  6
CONTINUOUS
 62
     4
 10
15128.71469899998
 20
1375.9999199999991
 30
0.0
 40
20.0
 50
0.0
 51
179.99998500000001
  0
CIRCLE
  5
3BC6
  8
0-5
  6
CONTINUOUS
 62
     4
 10
15128.71469899998
 20
1775.999941
 30
0.0
 40
20.0
  0
ARC
  5
3BC7
  8
0-5
  6
CONTINUOUS
 62
     4
 10
15128.71469899998
 20
1775.999941
 30
0.0
 40
20.0
 50
180.0
 51
0.0
  0
ARC
  5
3BC8
  8
0-5
  6
CONTINUOUS
 62
     4
 10
15128.71469899998
 20
1775.999941
 30
0.0
 40
20.0
 50
0.0
 51
179.99998500000001
  0
CIRCLE
  5
3BC9
  8
2-0
  6
CONTINUOUS
 62
     4
 10
5041.8197189664434
 20
21072.311430999991
 30
0.0
 40
200.00001
  0
CIRCLE
  5
3BCA
  8
2-0
  6
CONTINUOUS
 62
     4
 10
3512.3258809664439
 20
19629.816444999949
 30
0.0
 40
200.00001
  0
CIRCLE
  5
3BCB
  8
2-0
  6
CONTINUOUS
 62
     4
 10
3512.3258809664439
 20
17062.316444999979
 30
0.0
 40
200.00001
  0
CIRCLE
  5
3BCC
  8
2-0
  6
CONTINUOUS
 62
     4
 10
3512.3258809664439
 20
14494.81644499998
 30
0.0
 40
200.00001
  0
ARC
  5
3BCD
  8
2-0
  6
CONTINUOUS
 62
     3
 10
4961.3225559664434
 20
19847.310109999991
 30
0.0
 40
5.0
 50
90.0
 51
180.0
  0
ARC
  5
3BCE
  8
2-0
  6
CONTINUOUS
 62
     3
 10
5024.8215529664412
 20
19847.310109999991
 30
0.0
 40
5.0
 50
0.0
 51
90.0
  0
ARC
  5
3BCF
  8
2-0
  6
CONTINUOUS
 62
     3
 10
5024.8215529664412
 20
19817.312485999992
 30
0.0
 40
5.0
 50
269.9999850001808
 51
0.0
  0
ARC
  5
3BD0
  8
2-0
  6
CONTINUOUS
 62
     3
 10
13802.81579896642
 20
19817.312485999992
 30
0.0
 40
5.0
 50
180.0
 51
269.9999850001808
  0
ARC
  5
3BD1
  8
2-0
  6
CONTINUOUS
 62
     3
 10
13802.81579896642
 20
19847.310109999991
 30
0.0
 40
5.0
 50
90.0
 51
180.0
  0
ARC
  5
3BD2
  8
2-0
  6
CONTINUOUS
 62
     3
 10
13866.320734966421
 20
19847.310109999991
 30
0.0
 40
5.0
 50
0.0
 51
90.0
  0
CIRCLE
  5
3BD3
  8
2-0
  6
CONTINUOUS
 62
     4
 10
7959.8197189664434
 20
21072.313409999992
 30
0.0
 40
200.00001
  0
CIRCLE
  5
3BD4
  8
2-0
  6
CONTINUOUS
 62
     4
 10
10867.81961396642
 20
21072.31539
 30
0.0
 40
200.00001
  0
CIRCLE
  5
3BD5
  8
2-0
  6
CONTINUOUS
 62
     4
 10
13785.81763296642
 20
21072.31539
 30
0.0
 40
200.00001
  0
TEXT
  5
3BD6
  8
0-5
  6
CONTINUOUS
 62
     7
 10
16594.10747497109
 20
1656.0000399999999
 30
0.0
 40
160.0
  1
H
  0
TEXT
  5
3BD7
  8
0-5
  6
CONTINUOUS
 62
     7
 10
15176.145943999991
 20
1656.0000399999999
 30
0.0
 40
160.0
  1
（ ）内寸法ハ、  タ イプヲ示ス。
  0
TEXT
  5
3BD8
  8
0-5
  6
CONTINUOUS
 62
     7
 10
15288.714237
 20
1255.999957
 30
0.0
 40
160.0
  1
有効高サハ、基礎高サヲ含ミマセン。
  0
TEXT
  5
3BD9
  8
2-0
  6
CONTINUOUS
 62
     7
 10
5003.5432529664367
 20
21001.589171
 30
0.0
 40
160.0
  1
1
 50
0.001418
 72
     4
 11
5030.2079397234338
 21
21081.58983094267
 31
0.0
  0
TEXT
  5
3BDA
  8
2-0
  6
CONTINUOUS
 62
     7
 10
3452.095069966449
 20
19533.114982999999
 30
0.0
 40
160.0
  1
C
 50
0.001418
 72
     4
 11
3505.4264233819449
 21
19613.116302909832
 31
0.0
  0
TEXT
  5
3BDB
  8
2-0
  6
CONTINUOUS
 62
     7
 10
3463.0972339664499
 20
16971.73169499998
 30
0.0
 40
160.0
  1
B
 72
     4
 11
3516.4305672997839
 21
17051.73169499998
 31
0.0
  0
TEXT
  5
3BDC
  8
2-0
  6
CONTINUOUS
 62
     7
 10
3465.1970079664452
 20
14403.211252999979
 30
0.0
 40
160.0
  1
A
 72
     4
 11
3518.5303412997778
 21
14483.211252999979
 31
0.0
  0
TEXT
  5
3BDD
  8
2-0
  6
CONTINUOUS
 62
     7
 10
6893.9677349664416
 20
20162.31486099997
 30
0.0
 40
160.0
  1
屋根
 50
359.99964599999993
 72
     4
 11
7064.6348959070956
 21
20242.313806540318
 31
0.0
  0
TEXT
  5
3BDE
  8
2-0
  6
CONTINUOUS
 62
     7
 10
5804.3981479664408
 20
20882.315256999991
 30
0.0
 40
160.0
  1
鼻隠し後
 72
     4
 11
6167.0648146331077
 21
20962.315256999991
 31
0.0
  0
TEXT
  5
3BDF
  8
2-0
  6
CONTINUOUS
 62
     7
 10
5242.9888629664438
 20
20162.314860999981
 30
0.0
 40
160.0
  1
桁（後）
 50
359.99982299999999
 72
     4
 11
5562.9891101035391
 21
20242.313872445109
 31
0.0
  0
TEXT
  5
3BE0
  8
2-0
  6
CONTINUOUS
 62
     7
 10
6053.0558689664394
 20
17501.40837399997
 30
0.0
 40
160.0
  1
桁（中）
 50
359.99946799999998
 72
     4
 11
6373.056611764775
 21
17581.405402748002
 31
0.0
  0
TEXT
  5
3BE1
  8
2-0
  6
CONTINUOUS
 62
     7
 10
6015.0906829664391
 20
14955.642497999979
 30
0.0
 40
160.0
  1
桁（前）
 50
359.99973399999988
 72
     4
 11
6335.0910543690552
 21
15035.641012374859
 31
0.0
  0
TEXT
  5
3BE2
  8
2-0
  6
CONTINUOUS
 62
     7
 10
6922.614832966442
 20
13582.31380499998
 30
0.0
 40
160.0
  1
鼻隠し前
 50
0.000532
 72
     4
 11
7285.2807568053458
 21
13662.31717241152
 31
0.0
  0
TEXT
  5
3BE3
  8
2-0
  6
CONTINUOUS
 62
     7
 10
3305.9217269664368
 20
13182.31743399998
 30
0.0
 40
160.0
  1
ケラバ 左
 50
359.99976400000008
 72
     4
 11
3721.9220564810712
 21
13262.315720504859
 31
0.0
  0
TEXT
  5
3BE4
  8
2-0
  6
CONTINUOUS
 62
     7
 10
5296.3453009664418
 20
18288.433288999971
 30
0.0
 40
160.0
  1
上枠
 50
359.99893700000001
 72
     4
 11
5467.0134518317318
 21
18368.430122633141
 31
0.0
  0
TEXT
  5
3BE5
  8
2-0
  6
CONTINUOUS
 62
     7
 10
6330.0350579664428
 20
16674.089300999982
 30
0.0
 40
160.0
  1
ブレース
 50
0.000177
 72
     4
 11
6692.701461016849
 21
16759.423754694661
 31
0.0
  0
TEXT
  5
3BE6
  8
2-0
  6
CONTINUOUS
 62
     7
 10
11641.102710966419
 20
20882.315256999991
 30
0.0
 40
160.0
  1
鼻隠しコーナー後
 72
     4
 11
12387.769377633091
 21
20962.315256999991
 31
0.0
  0
TEXT
  5
3BE7
  8
2-0
  6
CONTINUOUS
 62
     7
 10
7407.6364749664417
 20
15787.64801399998
 30
0.0
 40
160.0
  1
梁
 50
359.99893700000001
 72
     4
 11
7482.3046258482545
 21
15867.646628706751
 31
0.0
  0
TEXT
  5
3BE8
  8
2-0
  6
CONTINUOUS
 62
     7
 10
7922.19302996644
 20
21007.527725999989
 30
0.0
 40
160.0
  1
2
 72
     4
 11
7975.5263632997739
 21
21087.527725999989
 31
0.0
  0
TEXT
  5
3BE9
  8
2-0
  6
CONTINUOUS
 62
     7
 10
10703.80084262594
 20
21019.93915573406
 30
0.0
 40
140.0
  1
n-1
 72
     4
 11
10867.13417595928
 21
21089.93915573406
 31
0.0
  0
TEXT
  5
3BEA
  8
2-0
  6
CONTINUOUS
 62
     7
 10
13749.289576966419
 20
21010.675160999999
 30
0.0
 40
160.0
  1
n
 72
     4
 11
13802.62291029976
 21
21064.008494333331
 31
0.0
  0
TEXT
  5
3BEB
  8
2-1
  6
CONTINUOUS
 62
     7
 10
8129.7960495437828
 20
12382.61054961294
 30
0.0
 40
160.0
  1
小 屋 伏 図
 72
     4
 11
8631.1293828771159
 21
12462.61054961294
 31
0.0
  0
TEXT
  5
3BF4
  8
0-3
  6
CONTINUOUS
 62
     7
 10
27544.4346805186
 20
3658.1200421350532
 30
0.0
 40
160.0
  1
連結する場合は強度上、下記間口寸法に一ヶ所
  0
TEXT
  5
3BF5
  8
0-3
  6
CONTINUOUS
 62
     7
 10
27544.4346805186
 20
3451.291530856121
 30
0.0
 40
160.0
  1
中間ブレース、もしくは間仕切りが必要になります。
  0
TEXT
  5
3BF6
  8
0-3
  6
CONTINUOUS
 62
     7
 10
27544.4346805186
 20
3124.142197938243
 30
0.0
 40
160.0
  1
標準タイプ：間口寸法 10.57ｍ以内に一箇所
  0
TEXT
  5
3BF7
  8
0-3
  6
CONTINUOUS
 62
     7
 10
27571.745290429761
 20
2873.074148021421
 30
0.0
 40
160.0
  1
Hタイプ　：間口寸法 9.21ｍ以内に一箇所
  0
TEXT
  5
3BF8
  8
2-0
  6
CONTINUOUS
 62
     7
 10
9982.6215680147343
 20
12409.805918612939
 30
0.0
 40
160.0
  1
1
 72
     4
 11
10009.2882346814
 21
12489.805918612939
 31
0.0
  0
TEXT
  5
3BF9
  8
2-0
  6
CONTINUOUS
 62
     7
 10
10225.71028526543
 20
12329.807386612951
 30
0.0
 40
160.0
  1
80
 72
     4
 11
10345.71028526543
 21
12409.807386612951
 31
0.0
  0
TEXT
  5
3BFA
  8
2-0
  6
CONTINUOUS
 62
     7
 10
9483.6235340147414
 20
12382.61054961294
 30
0.0
 40
160.0
  1
(S=  /   )
 72
     4
 11
10043.62353401474
 21
12462.61054961294
 31
0.0
  0
LINE
  5
3BFB
  8
0-1
  6
CONTINUOUS
 62
     3
 10
7866.8833139999879
 20
8123.7741370000031
 30
0.0
 11
13046.885688999981
 21
8123.7741370000031
 31
0.0
  0
LINE
  5
3BFC
  8
0-1
  6
CONTINUOUS
 62
     3
 10
7156.8834459999889
 20
6112.7287530000021
 30
0.0
 11
13079.38450099999
 21
6112.7287530000021
 31
0.0
  0
LINE
  5
3BFD
  8
0-1
  6
CONTINUOUS
 62
     3
 10
7839.3845009999868
 20
6212.7285880000036
 30
0.0
 11
13079.38450099999
 21
6212.7285880000036
 31
0.0
  0
LINE
  5
3BFE
  8
0-1
  6
CONTINUOUS
 62
     3
 10
7846.8852269999879
 20
8245.7560310000008
 30
0.0
 11
7846.8852269999879
 21
6212.7285880000036
 31
0.0
  0
LINE
  5
3BFF
  8
0-1
  6
CONTINUOUS
 62
     3
 10
7866.8833139999879
 20
8246.4567800000023
 30
0.0
 11
7866.8833139999879
 21
6212.7285880000036
 31
0.0
  0
LINE
  5
3C00
  8
0-1
  6
CONTINUOUS
 62
     3
 10
7839.3845009999868
 20
6112.7287530000021
 30
0.0
 11
7839.3845009999868
 21
6212.7285880000036
 31
0.0
  0
LINE
  5
3C01
  8
0-1
  6
CONTINUOUS
 62
     3
 10
13142.16486699999
 20
8430.6529640000081
 30
0.0
 11
13137.61296399998
 21
8560.5737170000066
 31
0.0
  0
LINE
  5
3C02
  8
0-1
  6
CONTINUOUS
 62
     3
 10
10529.384368999979
 20
6262.7287530000021
 30
0.0
 11
12951.884632999991
 21
6262.7287530000021
 31
0.0
  0
LINE
  5
3C03
  8
0-1
  6
CONTINUOUS
 62
     3
 10
10042.884025999991
 20
6262.7287530000021
 30
0.0
 11
10042.884025999991
 21
8123.7741370000031
 31
0.0
  0
LINE
  5
3C04
  8
0-1
  6
CONTINUOUS
 62
     3
 10
10062.885081999981
 20
6262.7287530000021
 30
0.0
 11
10062.885081999981
 21
8123.7741370000031
 31
0.0
  0
LINE
  5
3C05
  8
0-1
  6
CONTINUOUS
 62
     3
 10
9992.8853449999879
 20
6262.7287530000021
 30
0.0
 11
9992.8853449999879
 21
8123.7741370000031
 31
0.0
  0
LINE
  5
3C06
  8
0-1
  6
CONTINUOUS
 62
     3
 10
10112.88376199999
 20
6262.7287530000021
 30
0.0
 11
10112.88376199999
 21
8123.7741370000031
 31
0.0
  0
LINE
  5
3C07
  8
0-1
  6
CONTINUOUS
 62
     3
 10
10245.88266599999
 20
6262.7287530000021
 30
0.0
 11
10245.88266599999
 21
8123.7741370000031
 31
0.0
  0
LINE
  5
3C08
  8
0-1
  6
CONTINUOUS
 62
     3
 10
10260.884447999981
 20
6262.7287530000021
 30
0.0
 11
10260.884447999981
 21
8123.7741370000031
 31
0.0
  0
LINE
  5
3C09
  8
0-1
  6
CONTINUOUS
 62
     3
 10
9859.8834709999846
 20
6262.7287530000021
 30
0.0
 11
9859.8834709999846
 21
8123.7741370000031
 31
0.0
  0
LINE
  5
3C0A
  8
0-1
  6
CONTINUOUS
 62
     3
 10
9844.8846589999812
 20
6262.7287530000021
 30
0.0
 11
9844.8846589999812
 21
8123.7741370000031
 31
0.0
  0
LINE
  5
3C0B
  8
0-1
  6
CONTINUOUS
 62
     3
 10
7961.882389999987
 20
8123.7741370000031
 30
0.0
 11
7961.882389999987
 21
6212.7285880000036
 31
0.0
  0
LINE
  5
3C0C
  8
0-1
  6
CONTINUOUS
 62
     3
 10
10529.384368999979
 20
8123.7741370000031
 30
0.0
 11
10529.384368999979
 21
6212.7285880000036
 31
0.0
  0
LINE
  5
3C0D
  8
0-1
  6
CONTINUOUS
 62
     3
 10
10384.384632999991
 20
8123.7741370000031
 30
0.0
 11
10384.384632999991
 21
6212.7285880000036
 31
0.0
  0
LINE
  5
3C0E
  8
0-1
  6
CONTINUOUS
 62
     3
 10
8642.8843559999877
 20
6262.7287530000021
 30
0.0
 11
8642.8843559999877
 21
8123.7741370000031
 31
0.0
  0
LINE
  5
3C0F
  8
0-1
  6
CONTINUOUS
 62
     3
 10
8662.884421999981
 20
6262.7287530000021
 30
0.0
 11
8662.884421999981
 21
8123.7741370000031
 31
0.0
  0
LINE
  5
3C10
  8
0-1
  6
CONTINUOUS
 62
     3
 10
8592.884685999983
 20
6262.7287530000021
 30
0.0
 11
8592.884685999983
 21
8123.7741370000031
 31
0.0
  0
LINE
  5
3C11
  8
0-1
  6
CONTINUOUS
 62
     3
 10
8712.8840919999948
 20
6262.7287530000021
 30
0.0
 11
8712.8840919999948
 21
8123.7741370000031
 31
0.0
  0
LINE
  5
3C12
  8
0-1
  6
CONTINUOUS
 62
     3
 10
8845.8849759999903
 20
6262.7287530000021
 30
0.0
 11
8845.8849759999903
 21
8123.7741370000031
 31
0.0
  0
LINE
  5
3C13
  8
0-1
  6
CONTINUOUS
 62
     3
 10
8860.8837879999937
 20
6262.7287530000021
 30
0.0
 11
8860.8837879999937
 21
8123.7741370000031
 31
0.0
  0
LINE
  5
3C14
  8
0-1
  6
CONTINUOUS
 62
     3
 10
8459.8838009999909
 20
6262.7287530000021
 30
0.0
 11
8459.8838009999909
 21
8123.7741370000031
 31
0.0
  0
LINE
  5
3C15
  8
0-1
  6
CONTINUOUS
 62
     3
 10
8444.8830099999905
 20
6262.7287530000021
 30
0.0
 11
8444.8830099999905
 21
8123.7741370000031
 31
0.0
  0
LINE
  5
3C16
  8
0-1
  6
CONTINUOUS
 62
     3
 10
9144.8843289999913
 20
6262.7287530000021
 30
0.0
 11
9144.8843289999913
 21
8123.7741370000031
 31
0.0
  0
LINE
  5
3C17
  8
0-1
  6
CONTINUOUS
 62
     3
 10
9159.8831419999915
 20
6262.7287530000021
 30
0.0
 11
9159.8831419999915
 21
8123.7741370000031
 31
0.0
  0
LINE
  5
3C18
  8
0-1
  6
CONTINUOUS
 62
     3
 10
9560.8851079999913
 20
6262.7287530000021
 30
0.0
 11
9560.8851079999913
 21
8123.7741370000031
 31
0.0
  0
LINE
  5
3C19
  8
0-1
  6
CONTINUOUS
 62
     3
 10
9545.8843159999742
 20
6262.7287530000021
 30
0.0
 11
9545.8843159999742
 21
8123.7741370000031
 31
0.0
  0
LINE
  5
3C1A
  8
0-1
  6
CONTINUOUS
 62
     3
 10
9412.8834319999805
 20
6262.7287530000021
 30
0.0
 11
9412.8834319999805
 21
8123.7741370000031
 31
0.0
  0
LINE
  5
3C1B
  8
0-1
  6
CONTINUOUS
 62
     3
 10
9292.8840259999943
 20
6262.7287530000021
 30
0.0
 11
9292.8840259999943
 21
8123.7741370000031
 31
0.0
  0
LINE
  5
3C1C
  8
0-1
  6
CONTINUOUS
 62
     3
 10
9362.8837619999904
 20
6262.7287530000021
 30
0.0
 11
9362.8837619999904
 21
8123.7741370000031
 31
0.0
  0
LINE
  5
3C1D
  8
0-1
  6
CONTINUOUS
 62
     3
 10
9342.8846859999885
 20
6262.7287530000021
 30
0.0
 11
9342.8846859999885
 21
8123.7741370000031
 31
0.0
  0
LINE
  5
3C1E
  8
0-1
  6
CONTINUOUS
 62
     3
 10
9684.3843029999916
 20
8123.7741370000031
 30
0.0
 11
9684.3843029999916
 21
6262.7287530000021
 31
0.0
  0
LINE
  5
3C1F
  8
0-1
  6
CONTINUOUS
 62
     3
 10
9721.3844739999804
 20
8123.7741370000031
 30
0.0
 11
9721.3844739999804
 21
6262.7287530000021
 31
0.0
  0
LINE
  5
3C20
  8
0-1
  6
CONTINUOUS
 62
     3
 10
8284.3836429999865
 20
8123.7741370000031
 30
0.0
 11
8284.3836429999865
 21
6262.7287530000021
 31
0.0
  0
LINE
  5
3C21
  8
0-1
  6
CONTINUOUS
 62
     3
 10
8321.3848039999903
 20
8123.7741370000031
 30
0.0
 11
8321.3848039999903
 21
6262.7287530000021
 31
0.0
  0
LINE
  5
3C22
  8
0-1
  6
CONTINUOUS
 62
     3
 10
8984.3829829999868
 20
8123.7741370000031
 30
0.0
 11
8984.3829829999868
 21
6262.7287530000021
 31
0.0
  0
LINE
  5
3C23
  8
0-1
  6
CONTINUOUS
 62
     3
 10
9021.3851339999874
 20
8123.7741370000031
 30
0.0
 11
9021.3851339999874
 21
6262.7287530000021
 31
0.0
  0
LINE
  5
3C24
  8
0-1
  6
CONTINUOUS
 62
     3
 10
7961.882389999987
 20
6262.7287530000021
 30
0.0
 11
10384.384632999991
 21
6262.7287530000021
 31
0.0
  0
LINE
  5
3C25
  8
0-1
  6
CONTINUOUS
 62
     3
 10
10456.88450099999
 20
8336.8871270000054
 30
0.0
 11
10452.33061799998
 21
8466.8059010000015
 31
0.0
  0
LINE
  5
3C26
  8
0-1
  6
CONTINUOUS
 62
     3
 10
10456.88450099999
 20
8336.8871270000054
 30
0.0
 11
10456.88450099999
 21
8123.7741370000031
 31
0.0
  0
LINE
  5
3C27
  8
0-1
  6
CONTINUOUS
 62
     3
 10
12951.884632999991
 20
8123.7741370000031
 30
0.0
 11
12951.884632999991
 21
6212.7285880000036
 31
0.0
  0
LINE
  5
3C28
  8
0-1
  6
CONTINUOUS
 62
     3
 10
13066.88476499999
 20
8428.0152550000057
 30
0.0
 11
13066.88476499999
 21
6212.7285880000036
 31
0.0
  0
LINE
  5
3C29
  8
0-1
  6
CONTINUOUS
 62
     3
 10
13046.885688999981
 20
8427.3145060000024
 30
0.0
 11
13046.885688999981
 21
6212.7285880000036
 31
0.0
  0
LINE
  5
3C2A
  8
0-1
  6
CONTINUOUS
 62
     3
 10
11892.38287799998
 20
8123.7741370000031
 30
0.0
 11
11892.38287799998
 21
6262.7287530000021
 31
0.0
  0
LINE
  5
3C2B
  8
0-1
  6
CONTINUOUS
 62
     3
 10
11929.38403899999
 20
8123.7741370000031
 30
0.0
 11
11929.38403899999
 21
6262.7287530000021
 31
0.0
  0
LINE
  5
3C2C
  8
0-1
  6
CONTINUOUS
 62
     3
 10
12592.38518699998
 20
8123.7741370000031
 30
0.0
 11
12592.38518699998
 21
6262.7287530000021
 31
0.0
  0
LINE
  5
3C2D
  8
0-1
  6
CONTINUOUS
 62
     3
 10
12629.383378999981
 20
8123.7741370000031
 30
0.0
 11
12629.383378999981
 21
6262.7287530000021
 31
0.0
  0
LINE
  5
3C2E
  8
0-1
  6
CONTINUOUS
 62
     3
 10
11192.383536999991
 20
8123.7741370000031
 30
0.0
 11
11192.383536999991
 21
6262.7287530000021
 31
0.0
  0
LINE
  5
3C2F
  8
0-1
  6
CONTINUOUS
 62
     3
 10
11229.383708999991
 20
8123.7741370000031
 30
0.0
 11
11229.383708999991
 21
6262.7287530000021
 31
0.0
  0
LINE
  5
3C30
  8
0-1
  6
CONTINUOUS
 62
     3
 10
11570.883325999979
 20
6262.7287530000021
 30
0.0
 11
11570.883325999979
 21
8123.7741370000031
 31
0.0
  0
LINE
  5
3C31
  8
0-1
  6
CONTINUOUS
 62
     3
 10
11550.884249999979
 20
6262.7287530000021
 30
0.0
 11
11550.884249999979
 21
8123.7741370000031
 31
0.0
  0
LINE
  5
3C32
  8
0-1
  6
CONTINUOUS
 62
     3
 10
11620.884975999979
 20
6262.7287530000021
 30
0.0
 11
11620.884975999979
 21
8123.7741370000031
 31
0.0
  0
LINE
  5
3C33
  8
0-1
  6
CONTINUOUS
 62
     3
 10
11500.883589999979
 20
6262.7287530000021
 30
0.0
 11
11500.883589999979
 21
8123.7741370000031
 31
0.0
  0
LINE
  5
3C34
  8
0-1
  6
CONTINUOUS
 62
     3
 10
11367.88468599999
 20
6262.7287530000021
 30
0.0
 11
11367.88468599999
 21
8123.7741370000031
 31
0.0
  0
LINE
  5
3C35
  8
0-1
  6
CONTINUOUS
 62
     3
 10
11352.883893999981
 20
6262.7287530000021
 30
0.0
 11
11352.883893999981
 21
8123.7741370000031
 31
0.0
  0
LINE
  5
3C36
  8
0-1
  6
CONTINUOUS
 62
     3
 10
11753.883880999991
 20
6262.7287530000021
 30
0.0
 11
11753.883880999991
 21
8123.7741370000031
 31
0.0
  0
LINE
  5
3C37
  8
0-1
  6
CONTINUOUS
 62
     3
 10
11768.88269299999
 20
6262.7287530000021
 30
0.0
 11
11768.88269299999
 21
8123.7741370000031
 31
0.0
  0
LINE
  5
3C38
  8
0-1
  6
CONTINUOUS
 62
     3
 10
12468.885001999981
 20
6262.7287530000021
 30
0.0
 11
12468.885001999981
 21
8123.7741370000031
 31
0.0
  0
LINE
  5
3C39
  8
0-1
  6
CONTINUOUS
 62
     3
 10
12453.88322099998
 20
6262.7287530000021
 30
0.0
 11
12453.88322099998
 21
8123.7741370000031
 31
0.0
  0
LINE
  5
3C3A
  8
0-1
  6
CONTINUOUS
 62
     3
 10
12052.88422399999
 20
6262.7287530000021
 30
0.0
 11
12052.88422399999
 21
8123.7741370000031
 31
0.0
  0
LINE
  5
3C3B
  8
0-1
  6
CONTINUOUS
 62
     3
 10
12067.88303599999
 20
6262.7287530000021
 30
0.0
 11
12067.88303599999
 21
8123.7741370000031
 31
0.0
  0
LINE
  5
3C3C
  8
0-1
  6
CONTINUOUS
 62
     3
 10
12200.882929999991
 20
6262.7287530000021
 30
0.0
 11
12200.882929999991
 21
8123.7741370000031
 31
0.0
  0
LINE
  5
3C3D
  8
0-1
  6
CONTINUOUS
 62
     3
 10
12320.88332599999
 20
6262.7287530000021
 30
0.0
 11
12320.88332599999
 21
8123.7741370000031
 31
0.0
  0
LINE
  5
3C3E
  8
0-1
  6
CONTINUOUS
 62
     3
 10
12250.88358999999
 20
6262.7287530000021
 30
0.0
 11
12250.88358999999
 21
8123.7741370000031
 31
0.0
  0
LINE
  5
3C3F
  8
0-1
  6
CONTINUOUS
 62
     3
 10
12270.88266599999
 20
6262.7287530000021
 30
0.0
 11
12270.88266599999
 21
8123.7741370000031
 31
0.0
  0
LINE
  5
3C40
  8
0-1
  6
CONTINUOUS
 62
     3
 10
11068.883352999979
 20
6262.7287530000021
 30
0.0
 11
11068.883352999979
 21
8123.7741370000031
 31
0.0
  0
LINE
  5
3C41
  8
0-1
  6
CONTINUOUS
 62
     3
 10
11053.883550999981
 20
6262.7287530000021
 30
0.0
 11
11053.883550999981
 21
8123.7741370000031
 31
0.0
  0
LINE
  5
3C42
  8
0-1
  6
CONTINUOUS
 62
     3
 10
10652.884553999969
 20
6262.7287530000021
 30
0.0
 11
10652.884553999969
 21
8123.7741370000031
 31
0.0
  0
LINE
  5
3C43
  8
0-1
  6
CONTINUOUS
 62
     3
 10
10667.885344999981
 20
6262.7287530000021
 30
0.0
 11
10667.885344999981
 21
8123.7741370000031
 31
0.0
  0
LINE
  5
3C44
  8
0-1
  6
CONTINUOUS
 62
     3
 10
10800.88424999999
 20
6262.7287530000021
 30
0.0
 11
10800.88424999999
 21
8123.7741370000031
 31
0.0
  0
LINE
  5
3C45
  8
0-1
  6
CONTINUOUS
 62
     3
 10
10920.883655999991
 20
6262.7287530000021
 30
0.0
 11
10920.883655999991
 21
8123.7741370000031
 31
0.0
  0
LINE
  5
3C46
  8
0-1
  6
CONTINUOUS
 62
     3
 10
10850.883919999969
 20
6262.7287530000021
 30
0.0
 11
10850.883919999969
 21
8123.7741370000031
 31
0.0
  0
LINE
  5
3C47
  8
0-1
  6
CONTINUOUS
 62
     3
 10
10870.883985999981
 20
6262.7287530000021
 30
0.0
 11
10870.883985999981
 21
8123.7741370000031
 31
0.0
  0
LINE
  5
3C48
  8
0-1
  6
CONTINUOUS
 62
     3
 10
13079.38450099999
 20
6212.7285880000036
 30
0.0
 11
13079.38450099999
 21
6112.7287530000021
 31
0.0
  0
LINE
  5
3C49
  8
0-1
  6
CONTINUOUS
 62
     3
 10
7669.7569149999899
 20
8287.5792990000027
 30
0.0
 11
7668.5642549999893
 21
8321.5567460000057
 31
0.0
  0
LINE
  5
3C4A
  8
0-1
  6
CONTINUOUS
 62
     3
 10
7671.4583109999912
 20
8324.6606310000025
 30
0.0
 11
13151.18256399999
 21
8516.0206920000037
 31
0.0
  0
LINE
  5
3C4B
  8
0-1
  6
CONTINUOUS
 62
     3
 10
13152.582083999991
 20
8476.0472840000057
 30
0.0
 11
7672.8588209999898
 21
8284.6852430000054
 31
0.0
  0
LINE
  5
3C4C
  8
0-1
  6
CONTINUOUS
 62
     3
 10
7670.1419309999928
 20
8276.5850530000062
 30
0.0
 11
7670.13896199999
 21
8276.6503770000054
 31
0.0
  0
LINE
  5
3C4D
  8
0-1
  6
CONTINUOUS
 62
     3
 10
7670.13896199999
 20
8276.6503770000054
 30
0.0
 11
7671.2623389999917
 21
8244.6059300000052
 31
0.0
  0
LINE
  5
3C4E
  8
0-1
  6
CONTINUOUS
 62
     3
 10
7676.4338309999894
 20
8239.7828330000029
 30
0.0
 11
13175.12583099997
 21
8431.8080130000053
 31
0.0
  0
LINE
  5
3C4F
  8
0-1
  6
CONTINUOUS
 62
     3
 10
13170.57392799998
 20
8561.7277760000106
 30
0.0
 11
7671.8819279999898
 21
8369.7035870000018
 31
0.0
  0
LINE
  5
3C50
  8
0-1
  6
CONTINUOUS
 62
     3
 10
7667.0588309999903
 20
8364.5311040000051
 30
0.0
 11
7668.1792389999891
 21
8332.5519820000027
 31
0.0
  0
LINE
  5
3C51
  8
0-1
  6
CONTINUOUS
 62
     3
 10
7671.2841139999919
 20
8329.6579260000017
 30
0.0
 11
13151.00638699999
 21
8521.0179870000047
 31
0.0
  0
LINE
  5
3C52
  8
0-1
  6
CONTINUOUS
 62
     3
 10
13152.75727099998
 20
8471.0499890000065
 30
0.0
 11
7673.0340079999924
 21
8279.6879480000025
 31
0.0
  0
LINE
  5
3C53
  8
0-1
  6
CONTINUOUS
 62
     3
 10
7684.373679999987
 20
8370.1410600000017
 30
0.0
 11
7688.9265729999879
 21
8240.2203070000032
 31
0.0
  0
LINE
  5
3C54
  8
0-5
  6
CONTINUOUS
 62
     4
 10
7889.3845009999868
 20
4432.7286540000014
 30
0.0
 11
7889.3845009999868
 21
4272.728621000002
 31
0.0
  0
LINE
  5
3C55
  8
0-5
  6
CONTINUOUS
 62
     4
 10
10456.88450099999
 20
4432.7286540000014
 30
0.0
 11
10456.88450099999
 21
4272.728621000002
 31
0.0
  0
LINE
  5
3C56
  8
0-5
  6
CONTINUOUS
 62
     4
 10
13024.38450099999
 20
4432.7286540000014
 30
0.0
 11
13024.38450099999
 21
4272.728621000002
 31
0.0
  0
LINE
  5
3C57
  8
2-0
  6
CENTER2
 62
     6
 10
7889.3845009999868
 20
5850.0753400000012
 30
0.0
 11
7889.3845009999868
 21
6907.2184330000036
 31
0.0
  0
LINE
  5
3C58
  8
2-0
  6
CENTER2
 62
     6
 10
10456.88450099999
 20
5850.0753400000012
 30
0.0
 11
10456.88450099999
 21
6907.2184330000036
 31
0.0
  0
LINE
  5
3C59
  8
2-0
  6
CENTER2
 62
     6
 10
13024.38450099999
 20
5850.0753400000012
 30
0.0
 11
13024.38450099999
 21
6907.2184330000036
 31
0.0
  0
ARC
  5
3C5A
  8
0-1
  6
CONTINUOUS
 62
     3
 10
7674.4454049999867
 20
8282.239548000005
 30
0.0
 40
2.5
 50
272.00698899981808
 51
92.006988999818205
  0
ARC
  5
3C5B
  8
0-1
  6
CONTINUOUS
 62
     3
 10
7672.8706979999979
 20
8327.2132200000069
 30
0.0
 40
2.5
 50
272.00698899981808
 51
92.006988999818205
  0
ARC
  5
3C5C
  8
0-1
  6
CONTINUOUS
 62
     3
 10
7671.5632259999929
 20
8321.6616600000052
 30
0.0
 40
3.0
 50
92.006988999818205
 51
182.0069889999746
  0
ARC
  5
3C5D
  8
0-1
  6
CONTINUOUS
 62
     3
 10
13151.881333999991
 20
8496.0334929999954
 30
0.0
 40
20.0
 50
272.00698899981808
 51
92.006988999818205
  0
ARC
  5
3C5E
  8
0-1
  6
CONTINUOUS
 62
     3
 10
7672.753905999989
 20
8287.6842140000062
 30
0.0
 40
3.0
 50
182.0069889999746
 51
272.00698899981808
  0
ARC
  5
3C5F
  8
0-1
  6
CONTINUOUS
 62
     3
 10
7673.1389219999919
 20
8276.6909570000025
 30
0.0
 40
3.0
 50
92.006988999818205
 51
182.0069889999746
  0
ARC
  5
3C60
  8
0-1
  6
CONTINUOUS
 62
     3
 10
7676.259632999986
 20
8244.7801280000076
 30
0.0
 40
5.0
 50
182.0069889999746
 51
272.00698899981808
  0
ARC
  5
3C61
  8
0-1
  6
CONTINUOUS
 62
     3
 10
13146.88502899999
 20
8495.8592950000057
 30
0.0
 40
69.999999000000003
 50
293.79377700003289
 51
70.220199999983819
  0
ARC
  5
3C62
  8
0-1
  6
CONTINUOUS
 62
     3
 10
7672.0561259999931
 20
8364.7062920000026
 30
0.0
 40
5.0
 50
92.006988999818205
 51
182.0069889999746
  0
ARC
  5
3C63
  8
0-1
  6
CONTINUOUS
 62
     3
 10
7671.1772199999914
 20
8332.6559070000058
 30
0.0
 40
3.0
 50
182.0069889999746
 51
272.00698899981808
  0
ARC
  5
3C64
  8
0-1
  6
CONTINUOUS
 62
     3
 10
13151.881333999991
 20
8496.0334929999954
 30
0.0
 40
24.999998999999999
 50
272.00698899981808
 51
92.006988999818205
  0
CIRCLE
  5
3C65
  8
0-5
  6
CONTINUOUS
 62
     4
 10
7889.3845009999868
 20
4072.727961000001
 30
0.0
 40
199.9999949999999
  0
CIRCLE
  5
3C66
  8
0-5
  6
CONTINUOUS
 62
     4
 10
13024.38450099999
 20
4072.727961000001
 30
0.0
 40
199.9999949999999
  0
CIRCLE
  5
3C67
  8
0-5
  6
CONTINUOUS
 62
     4
 10
10456.88450099999
 20
4072.727961000001
 30
0.0
 40
199.9999949999999
  0
TEXT
  5
3C68
  8
0-5
  6
CONTINUOUS
 62
     7
 10
7835.1885248541957
 20
3985.4740166382039
 30
0.0
 40
160.0
  1
C
 72
     4
 11
7888.5218581875288
 21
4065.4740166382039
 31
0.0
  0
TEXT
  5
3C69
  8
0-5
  6
CONTINUOUS
 62
     7
 10
10402.68753385417
 20
3985.4740166382039
 30
0.0
 40
160.0
  1
B
 72
     4
 11
10456.02086718751
 21
4065.4740166382039
 31
0.0
  0
TEXT
  5
3C6A
  8
0-5
  6
CONTINUOUS
 62
     7
 10
12970.18654485419
 20
3985.4740166382039
 30
0.0
 40
160.0
  1
A
 72
     4
 11
13023.51987818753
 21
4065.4740166382039
 31
0.0
  0
TEXT
  5
3C6B
  8
2-0
  6
CONTINUOUS
 62
     7
 10
8987.9362189999865
 20
3325.5611470000022
 30
0.0
 40
160.0
  1
側 面 立 面 図
 72
     4
 11
9633.2695523333205
 21
3405.5611470000022
 31
0.0
  0
TEXT
  5
3C6C
  8
2-0
  6
CONTINUOUS
 62
     7
 10
10984.761737470941
 20
3352.7565160000031
 30
0.0
 40
160.0
  1
1
 72
     4
 11
11011.42840413761
 21
3432.7565160000031
 31
0.0
  0
TEXT
  5
3C6D
  8
2-0
  6
CONTINUOUS
 62
     7
 10
11227.850454721631
 20
3272.7579840000039
 30
0.0
 40
160.0
  1
80
 72
     4
 11
11347.850454721631
 21
3352.757984000003
 31
0.0
  0
TEXT
  5
3C6E
  8
2-0
  6
CONTINUOUS
 62
     7
 10
10485.763703470941
 20
3325.5611470000022
 30
0.0
 40
160.0
  1
(S=  /   )
 72
     4
 11
11045.763703470941
 21
3405.5611470000022
 31
0.0
  0
LINE
  5
3C6F
  8
0-1
  6
CONTINUOUS
 62
     3
 10
8151.3827579999979
 20
6262.7287530000021
 30
0.0
 11
8151.3827579999979
 21
8123.7741370000031
 31
0.0
  0
LINE
  5
3C70
  8
0-1
  6
CONTINUOUS
 62
     3
 10
8136.3819669999984
 20
6262.7287530000021
 30
0.0
 11
8136.3819669999984
 21
8123.7741370000031
 31
0.0
  0
LINE
  5
3C71
  8
0-1
  6
CONTINUOUS
 62
     3
 10
12777.38505499999
 20
6262.7287530000021
 30
0.0
 11
12777.38505499999
 21
8123.7741370000031
 31
0.0
  0
LINE
  5
3C72
  8
0-1
  6
CONTINUOUS
 62
     3
 10
12762.383273999971
 20
6262.7287530000021
 30
0.0
 11
12762.383273999971
 21
8123.7741370000031
 31
0.0
  0
LINE
  5
3C73
  8
0-5
  6
CONTINUOUS
 62
     4
 10
13159.38476500001
 20
6212.7285880000036
 30
0.0
 11
14876.844713
 21
6212.7285880000036
 31
0.0
  0
LINE
  5
3C74
  8
0-5
  6
CONTINUOUS
 62
     4
 10
14904.470874000001
 20
6420.5745750000024
 30
0.0
 11
14664.469092999991
 21
6420.5745750000024
 31
0.0
  0
LINE
  5
3C75
  8
0-5
  6
CONTINUOUS
 62
     4
 10
14784.468499000001
 20
6212.7285880000036
 30
0.0
 11
14904.470874000001
 21
6420.5745750000024
 31
0.0
  0
LINE
  5
3C76
  8
0-5
  6
CONTINUOUS
 62
     4
 10
14664.469092999991
 20
6420.5745750000024
 30
0.0
 11
14784.468499000001
 21
6212.7285880000036
 31
0.0
  0
TEXT
  5
3C77
  8
0-0
  6
CONTINUOUS
 62
     7
 10
14325.377559999981
 20
6500.574838999999
 30
0.0
 40
160.0
  1
布基礎天端
 72
     4
 11
14784.044226666651
 21
6580.574838999999
 31
0.0
  0
LINE
  5
3C82
  8
0-1
  6
CONTINUOUS
 62
     3
 10
25963.17678399997
 20
6212.7285879999999
 30
0.0
 11
25863.17744299996
 21
6212.7285879999999
 31
0.0
  0
LINE
  5
3C83
  8
0-1
  6
CONTINUOUS
 62
     3
 10
25863.17744299996
 20
6212.7285879999999
 30
0.0
 11
25863.17744299996
 21
6112.7287530000012
 31
0.0
  0
LINE
  5
3C84
  8
0-1
  6
CONTINUOUS
 62
     3
 10
25963.17678399997
 20
6112.7287530000012
 30
0.0
 11
25963.17678399997
 21
6212.7285879999999
 31
0.0
  0
LINE
  5
3C85
  8
0-1
  6
CONTINUOUS
 62
     3
 10
25935.67731099997
 20
8561.2289369999999
 30
0.0
 11
25935.67731099997
 21
6212.7285879999999
 31
0.0
  0
LINE
  5
3C86
  8
0-1
  6
CONTINUOUS
 62
     3
 10
25955.67638799996
 20
8431.2280139999984
 30
0.0
 11
25955.67638799996
 21
6212.7285879999999
 31
0.0
  0
LINE
  5
3C87
  8
0-1
  6
CONTINUOUS
 62
     3
 10
25825.67744299995
 20
8120.7286469999981
 30
0.0
 11
25825.67744299995
 21
6112.7287530000012
 31
0.0
  0
LINE
  5
3C88
  8
0-1
  6
CONTINUOUS
 62
     3
 10
25870.67783899996
 20
8431.2280139999984
 30
0.0
 11
25870.67783899996
 21
6212.7285879999999
 31
0.0
  0
LINE
  5
3C93
  8
0-1
  6
CONTINUOUS
 62
     3
 10
22150.12755999999
 20
7546.4450679999973
 30
0.0
 11
21904.28322899999
 21
7731.8858739999978
 31
0.0
  0
LINE
  5
3C94
  8
0-1
  6
CONTINUOUS
 62
     3
 10
21762.15973399999
 20
7463.3127109999969
 30
0.0
 11
21604.283229000001
 21
7582.4020330000021
 31
0.0
  0
LINE
  5
3C95
  8
0-1
  6
CONTINUOUS
 62
     3
 10
21544.177126999981
 20
6933.6326340000023
 30
0.0
 11
22150.12755999999
 21
7546.4450679999973
 31
0.0
  0
LINE
  5
3C9C
  8
0-1
  6
CONTINUOUS
 62
     3
 10
21598.404058999979
 20
6892.728852000002
 30
0.0
 11
22907.677444000001
 21
6892.728852000002
 31
0.0
  0
LINE
  5
3C9D
  8
0-1
  6
CONTINUOUS
 62
     3
 10
21568.00261299999
 20
6957.7288190000027
 30
0.0
 11
22907.677444000001
 21
6957.7288190000027
 31
0.0
  0
LINE
  5
3C9E
  8
0-1
  6
CONTINUOUS
 62
     3
 10
21632.27560099999
 20
7022.7287859999997
 30
0.0
 11
22907.677444000001
 21
7022.7287859999997
 31
0.0
  0
LINE
  5
3C9F
  8
0-1
  6
CONTINUOUS
 62
     3
 10
21696.548589999991
 20
7087.7292480000024
 30
0.0
 11
22907.677444000001
 21
7087.7292480000024
 31
0.0
  0
LINE
  5
3CA0
  8
0-1
  6
CONTINUOUS
 62
     3
 10
21760.81959899998
 20
7152.7282250000007
 30
0.0
 11
22907.677444000001
 21
7152.7282250000007
 31
0.0
  0
LINE
  5
3CA1
  8
0-1
  6
CONTINUOUS
 62
     3
 10
21825.092587999981
 20
7217.7286870000007
 30
0.0
 11
22907.677444000001
 21
7217.7286870000007
 31
0.0
  0
LINE
  5
3CA2
  8
0-1
  6
CONTINUOUS
 62
     3
 10
21889.363597999982
 20
7282.7286539999968
 30
0.0
 11
22907.677444000001
 21
7282.7286539999968
 31
0.0
  0
LINE
  5
3CA3
  8
0-1
  6
CONTINUOUS
 62
     3
 10
21953.636585999979
 20
7347.7291160000004
 30
0.0
 11
22907.677444000001
 21
7347.7291160000004
 31
0.0
  0
LINE
  5
3CA4
  8
0-1
  6
CONTINUOUS
 62
     3
 10
22017.90759599999
 20
7412.7280929999979
 30
0.0
 11
22907.677444000001
 21
7412.7280929999979
 31
0.0
  0
LINE
  5
3CA5
  8
0-1
  6
CONTINUOUS
 62
     3
 10
22082.180583999991
 20
7477.7285550000033
 30
0.0
 11
22907.677444000001
 21
7477.7285550000033
 31
0.0
  0
LINE
  5
3CA6
  8
0-1
  6
CONTINUOUS
 62
     3
 10
22146.451593999991
 20
7542.7285220000031
 30
0.0
 11
22907.677444000001
 21
7542.7285220000031
 31
0.0
  0
LINE
  5
3CA7
  8
0-1
  6
CONTINUOUS
 62
     3
 10
22068.882178999971
 20
7607.7284890000019
 30
0.0
 11
22907.677444000001
 21
7607.7284890000019
 31
0.0
  0
LINE
  5
3CA8
  8
0-1
  6
CONTINUOUS
 62
     3
 10
21982.707795999992
 20
7672.7289510000028
 30
0.0
 11
22907.677444000001
 21
7672.7289510000028
 31
0.0
  0
LINE
  5
3CA9
  8
0-1
  6
CONTINUOUS
 62
     3
 10
21904.28322899999
 20
7737.7289180000007
 30
0.0
 11
22907.677444000001
 21
7737.7289180000007
 31
0.0
  0
LINE
  5
3CAA
  8
0-1
  6
CONTINUOUS
 62
     3
 10
21904.28322899999
 20
7802.7293799999989
 30
0.0
 11
22907.677444000001
 21
7802.7293799999989
 31
0.0
  0
LINE
  5
3CAB
  8
0-1
  6
CONTINUOUS
 62
     3
 10
21904.28322899999
 20
7867.7283569999972
 30
0.0
 11
22907.677444000001
 21
7867.7283569999972
 31
0.0
  0
LINE
  5
3CAC
  8
0-1
  6
CONTINUOUS
 62
     3
 10
21904.28322899999
 20
7932.7288190000027
 30
0.0
 11
22907.677444000001
 21
7932.7288190000027
 31
0.0
  0
LINE
  5
3CAD
  8
0-1
  6
CONTINUOUS
 62
     3
 10
21904.28322899999
 20
7997.7287859999969
 30
0.0
 11
22907.677444000001
 21
7997.7287859999969
 31
0.0
  0
LINE
  5
3CAE
  8
0-1
  6
CONTINUOUS
 62
     3
 10
21904.28322899999
 20
8052.1883109999999
 30
0.0
 11
22907.677444000001
 21
8052.1883109999999
 31
0.0
  0
LINE
  5
3CAF
  8
0-1
  6
CONTINUOUS
 62
     3
 10
21904.28322899999
 20
8120.7286469999981
 30
0.0
 11
23710.67113599999
 21
8120.7286469999981
 31
0.0
  0
LINE
  5
3CB2
  8
0-1
  6
CONTINUOUS
 62
     3
 10
21904.28322899999
 20
6662.0030939999988
 30
0.0
 11
21904.28322899999
 21
5695.3695289999996
 31
0.0
  0
LINE
  5
3CB3
  8
0-1
  6
CONTINUOUS
 62
     3
 10
21604.283229000001
 20
6512.5172739999998
 30
0.0
 11
21604.283229000001
 21
5695.3695289999996
 31
0.0
  0
LINE
  5
3CB4
  8
0-1
  6
CONTINUOUS
 62
     3
 10
21904.28322899999
 20
6177.7282249999998
 30
0.0
 11
22907.677444000001
 21
6177.7282249999998
 31
0.0
  0
LINE
  5
3CB5
  8
0-1
  6
CONTINUOUS
 62
     3
 10
21904.28322899999
 20
6242.7291820000009
 30
0.0
 11
22907.677444000001
 21
6242.7291820000009
 31
0.0
  0
LINE
  5
3CB6
  8
0-1
  6
CONTINUOUS
 62
     3
 10
21904.28322899999
 20
6307.7281590000002
 30
0.0
 11
22907.677444000001
 21
6307.7281590000002
 31
0.0
  0
LINE
  5
3CB7
  8
0-1
  6
CONTINUOUS
 62
     3
 10
21904.28322899999
 20
6437.7285880000027
 30
0.0
 11
22907.677444000001
 21
6437.7285880000027
 31
0.0
  0
LINE
  5
3CB8
  8
0-1
  6
CONTINUOUS
 62
     3
 10
21904.28322899999
 20
6372.7291160000023
 30
0.0
 11
22907.677444000001
 21
6372.7291160000023
 31
0.0
  0
LINE
  5
3CB9
  8
0-1
  6
CONTINUOUS
 62
     3
 10
21904.28322899999
 20
6502.7285549999997
 30
0.0
 11
22907.677444000001
 21
6502.7285549999997
 31
0.0
  0
LINE
  5
3CBA
  8
0-1
  6
CONTINUOUS
 62
     3
 10
21904.28322899999
 20
6567.7285220000022
 30
0.0
 11
22907.677444000001
 21
6567.7285220000022
 31
0.0
  0
LINE
  5
3CBB
  8
0-1
  6
CONTINUOUS
 62
     3
 10
21904.28322899999
 20
6632.7279940000008
 30
0.0
 11
22907.677444000001
 21
6632.7279940000008
 31
0.0
  0
LINE
  5
3CBC
  8
0-1
  6
CONTINUOUS
 62
     3
 10
21856.92126799998
 20
6697.7294460000012
 30
0.0
 11
22907.677444000001
 21
6697.7294460000012
 31
0.0
  0
LINE
  5
3CBD
  8
0-1
  6
CONTINUOUS
 62
     3
 10
21770.746884999979
 20
6762.7284230000032
 30
0.0
 11
22907.677444000001
 21
6762.7284230000032
 31
0.0
  0
LINE
  5
3CBE
  8
0-1
  6
CONTINUOUS
 62
     3
 10
21684.574481999982
 20
6827.7288849999986
 30
0.0
 11
22907.677444000001
 21
6827.7288849999986
 31
0.0
  0
LINE
  5
3CBF
  8
0-1
  6
CONTINUOUS
 62
     3
 10
22952.677839999971
 20
8431.2280139999984
 30
0.0
 11
22952.677839999971
 21
6112.7287530000012
 31
0.0
  0
LINE
  5
3CC0
  8
0-1
  6
CONTINUOUS
 62
     3
 10
23037.674407999992
 20
8431.2280139999984
 30
0.0
 11
23037.674407999992
 21
6112.7287530000012
 31
0.0
  0
LINE
  5
3CC1
  8
0-1
  6
CONTINUOUS
 62
     3
 10
23082.674803999998
 20
8120.7286469999981
 30
0.0
 11
23082.674803999998
 21
6112.7287530000012
 31
0.0
  0
LINE
  5
3CC2
  8
0-1
  6
CONTINUOUS
 62
     3
 10
22907.677444000001
 20
8120.7286469999981
 30
0.0
 11
22907.677444000001
 21
6112.7287530000012
 31
0.0
  0
LINE
  5
3CC3
  8
0-1
  6
CONTINUOUS
 62
     3
 10
21904.28322899999
 20
6662.0030939999988
 30
0.0
 11
21544.177126999981
 21
6933.6326340000023
 31
0.0
  0
LINE
  5
3CC6
  8
0-1
  6
CONTINUOUS
 62
     3
 10
23082.674803999998
 20
8052.1883109999999
 30
0.0
 11
25825.67744299995
 21
8052.1883109999999
 31
0.0
  0
LINE
  5
3CC7
  8
0-1
  6
CONTINUOUS
 62
     3
 10
23082.674803999998
 20
6697.7294460000012
 30
0.0
 11
25825.67744299995
 21
6697.7294460000012
 31
0.0
  0
LINE
  5
3CC8
  8
0-1
  6
CONTINUOUS
 62
     3
 10
23082.674803999998
 20
6762.7284230000032
 30
0.0
 11
25825.67744299995
 21
6762.7284230000032
 31
0.0
  0
LINE
  5
3CC9
  8
0-1
  6
CONTINUOUS
 62
     3
 10
23082.674803999998
 20
6827.7288849999986
 30
0.0
 11
25825.67744299995
 21
6827.7288849999986
 31
0.0
  0
LINE
  5
3CCA
  8
0-1
  6
CONTINUOUS
 62
     3
 10
23082.674803999998
 20
6892.728852000002
 30
0.0
 11
25825.67744299995
 21
6892.728852000002
 31
0.0
  0
LINE
  5
3CCB
  8
0-1
  6
CONTINUOUS
 62
     3
 10
23082.674803999998
 20
6957.7288190000027
 30
0.0
 11
25825.67744299995
 21
6957.7288190000027
 31
0.0
  0
LINE
  5
3CCC
  8
0-1
  6
CONTINUOUS
 62
     3
 10
23082.674803999998
 20
7022.7287859999997
 30
0.0
 11
25825.67744299995
 21
7022.7287859999997
 31
0.0
  0
LINE
  5
3CCD
  8
0-1
  6
CONTINUOUS
 62
     3
 10
23082.674803999998
 20
7087.7292480000024
 30
0.0
 11
25825.67744299995
 21
7087.7292480000024
 31
0.0
  0
LINE
  5
3CCE
  8
0-1
  6
CONTINUOUS
 62
     3
 10
23082.674803999998
 20
7152.7282250000007
 30
0.0
 11
25825.67744299995
 21
7152.7282250000007
 31
0.0
  0
LINE
  5
3CCF
  8
0-1
  6
CONTINUOUS
 62
     3
 10
23082.674803999998
 20
7217.7286870000007
 30
0.0
 11
25825.67744299995
 21
7217.7286870000007
 31
0.0
  0
LINE
  5
3CD0
  8
0-1
  6
CONTINUOUS
 62
     3
 10
23082.674803999998
 20
7282.7286539999968
 30
0.0
 11
25825.67744299995
 21
7282.7286539999968
 31
0.0
  0
LINE
  5
3CD1
  8
0-1
  6
CONTINUOUS
 62
     3
 10
23082.674803999998
 20
7347.7291160000004
 30
0.0
 11
25825.67744299995
 21
7347.7291160000004
 31
0.0
  0
LINE
  5
3CD2
  8
0-1
  6
CONTINUOUS
 62
     3
 10
23082.674803999998
 20
7412.7280929999979
 30
0.0
 11
25825.67744299995
 21
7412.7280929999979
 31
0.0
  0
LINE
  5
3CD3
  8
0-1
  6
CONTINUOUS
 62
     3
 10
23082.674803999998
 20
7477.7285550000033
 30
0.0
 11
25825.67744299995
 21
7477.7285550000033
 31
0.0
  0
LINE
  5
3CD4
  8
0-1
  6
CONTINUOUS
 62
     3
 10
23082.674803999998
 20
7542.7285220000031
 30
0.0
 11
25825.67744299995
 21
7542.7285220000031
 31
0.0
  0
LINE
  5
3CD5
  8
0-1
  6
CONTINUOUS
 62
     3
 10
23082.674803999998
 20
7607.7284890000019
 30
0.0
 11
25825.67744299995
 21
7607.7284890000019
 31
0.0
  0
LINE
  5
3CD6
  8
0-1
  6
CONTINUOUS
 62
     3
 10
23082.674803999998
 20
7672.7289510000028
 30
0.0
 11
25825.67744299995
 21
7672.7289510000028
 31
0.0
  0
LINE
  5
3CD7
  8
0-1
  6
CONTINUOUS
 62
     3
 10
23082.674803999998
 20
7737.7289180000007
 30
0.0
 11
25825.67744299995
 21
7737.7289180000007
 31
0.0
  0
LINE
  5
3CD8
  8
0-1
  6
CONTINUOUS
 62
     3
 10
23082.674803999998
 20
7802.7293799999989
 30
0.0
 11
25825.67744299995
 21
7802.7293799999989
 31
0.0
  0
LINE
  5
3CD9
  8
0-1
  6
CONTINUOUS
 62
     3
 10
23082.674803999998
 20
7867.7283569999972
 30
0.0
 11
25825.67744299995
 21
7867.7283569999972
 31
0.0
  0
LINE
  5
3CDA
  8
0-1
  6
CONTINUOUS
 62
     3
 10
23082.674803999998
 20
7932.7288190000027
 30
0.0
 11
25825.67744299995
 21
7932.7288190000027
 31
0.0
  0
LINE
  5
3CDB
  8
0-1
  6
CONTINUOUS
 62
     3
 10
23082.674803999998
 20
7997.7287859999969
 30
0.0
 11
25825.67744299995
 21
7997.7287859999969
 31
0.0
  0
LINE
  5
3CDC
  8
0-1
  6
CONTINUOUS
 62
     3
 10
23082.674803999998
 20
6177.7282249999998
 30
0.0
 11
25825.67744299995
 21
6177.7282249999998
 31
0.0
  0
LINE
  5
3CDD
  8
0-1
  6
CONTINUOUS
 62
     3
 10
23082.674803999998
 20
6242.7291820000009
 30
0.0
 11
25825.67744299995
 21
6242.7291820000009
 31
0.0
  0
LINE
  5
3CDE
  8
0-1
  6
CONTINUOUS
 62
     3
 10
23082.674803999998
 20
6307.7281590000002
 30
0.0
 11
25825.67744299995
 21
6307.7281590000002
 31
0.0
  0
LINE
  5
3CDF
  8
0-1
  6
CONTINUOUS
 62
     3
 10
23082.674803999998
 20
6372.7291160000023
 30
0.0
 11
25825.67744299995
 21
6372.7291160000023
 31
0.0
  0
LINE
  5
3CE0
  8
0-1
  6
CONTINUOUS
 62
     3
 10
23082.674803999998
 20
6437.7285880000027
 30
0.0
 11
25825.67744299995
 21
6437.7285880000027
 31
0.0
  0
LINE
  5
3CE1
  8
0-1
  6
CONTINUOUS
 62
     3
 10
23082.674803999998
 20
6502.7285549999997
 30
0.0
 11
25825.67744299995
 21
6502.7285549999997
 31
0.0
  0
LINE
  5
3CE2
  8
0-1
  6
CONTINUOUS
 62
     3
 10
23082.674803999998
 20
6567.7285220000022
 30
0.0
 11
25825.67744299995
 21
6567.7285220000022
 31
0.0
  0
LINE
  5
3CE3
  8
0-1
  6
CONTINUOUS
 62
     3
 10
23082.674803999998
 20
6632.7279940000008
 30
0.0
 11
25825.67744299995
 21
6632.7279940000008
 31
0.0
  0
LINE
  5
3CE5
  8
0-1
  6
CONTINUOUS
 62
     3
 10
23037.674407999992
 20
8120.7286469999981
 30
0.0
 11
25870.67783899996
 21
8120.7286469999981
 31
0.0
  0
LINE
  5
3CE6
  8
0-1
  6
CONTINUOUS
 62
     3
 10
21904.28322899999
 20
6112.7287530000012
 30
0.0
 11
25963.17678399997
 21
6112.7287530000012
 31
0.0
  0
LINE
  5
3CE8
  8
0-1
  6
CONTINUOUS
 62
     3
 10
21904.28322899999
 20
7731.8858739999978
 30
0.0
 11
21904.28322899999
 21
8935.9082550000021
 31
0.0
  0
LINE
  5
3CE9
  8
0-1
  6
CONTINUOUS
 62
     3
 10
21604.283229000001
 20
7582.4020330000021
 30
0.0
 11
21604.283229000001
 21
8935.9082550000021
 31
0.0
  0
LINE
  5
3CF3
  8
0-1
  6
CONTINUOUS
 62
     3
 10
20582.669525999991
 20
6892.728852000002
 30
0.0
 11
21197.967244999982
 21
6892.728852000002
 31
0.0
  0
LINE
  5
3CF4
  8
0-1
  6
CONTINUOUS
 62
     3
 10
20582.669525999991
 20
6957.7288190000027
 30
0.0
 11
21262.238253999982
 21
6957.7288190000027
 31
0.0
  0
LINE
  5
3CF5
  8
0-1
  6
CONTINUOUS
 62
     3
 10
20582.669525999991
 20
7022.7287859999997
 30
0.0
 11
21326.51124299999
 21
7022.7287859999997
 31
0.0
  0
LINE
  5
3CF6
  8
0-1
  6
CONTINUOUS
 62
     3
 10
20582.669525999991
 20
7087.7292480000024
 30
0.0
 11
21390.782252999968
 21
7087.7292480000024
 31
0.0
  0
LINE
  5
3CF7
  8
0-1
  6
CONTINUOUS
 62
     3
 10
20582.669525999991
 20
7152.7282250000007
 30
0.0
 11
21455.055240999991
 21
7152.7282250000007
 31
0.0
  0
LINE
  5
3CF8
  8
0-1
  6
CONTINUOUS
 62
     3
 10
20582.669525999991
 20
7217.7286870000007
 30
0.0
 11
21519.326250999991
 21
7217.7286870000007
 31
0.0
  0
LINE
  5
3D00
  8
0-1
  6
CONTINUOUS
 62
     3
 10
20582.669525999991
 20
6697.7294460000012
 30
0.0
 11
21358.745723999989
 21
6697.7294460000012
 31
0.0
  0
LINE
  5
3D01
  8
0-1
  6
CONTINUOUS
 62
     3
 10
20582.669525999991
 20
6762.7284230000032
 30
0.0
 11
21272.573320999982
 21
6762.7284230000032
 31
0.0
  0
LINE
  5
3D02
  8
0-1
  6
CONTINUOUS
 62
     3
 10
20582.669525999991
 20
6827.7288849999986
 30
0.0
 11
21186.398938999992
 21
6827.7288849999986
 31
0.0
  0
LINE
  5
3D03
  8
0-1
  6
CONTINUOUS
 62
     3
 10
20582.669525999991
 20
6632.7279940000008
 30
0.0
 11
21444.914167999981
 21
6632.7279940000008
 31
0.0
  0
LINE
  5
3D04
  8
0-1
  6
CONTINUOUS
 62
     3
 10
20452.670580999991
 20
8431.2280139999984
 30
0.0
 11
20452.670580999991
 21
6112.7287530000012
 31
0.0
  0
LINE
  5
3D05
  8
0-1
  6
CONTINUOUS
 62
     3
 10
20407.672164999982
 20
8120.7286469999981
 30
0.0
 11
20407.672164999982
 21
6112.7287530000012
 31
0.0
  0
LINE
  5
3D06
  8
0-1
  6
CONTINUOUS
 62
     3
 10
20537.673088999982
 20
8431.2280139999984
 30
0.0
 11
20537.673088999982
 21
6112.7287530000012
 31
0.0
  0
LINE
  5
3D07
  8
0-1
  6
CONTINUOUS
 62
     3
 10
20582.669525999991
 20
8120.7286469999981
 30
0.0
 11
20582.669525999991
 21
6112.7287530000012
 31
0.0
  0
LINE
  5
3D08
  8
0-1
  6
CONTINUOUS
 62
     3
 10
20582.669525999991
 20
8120.7286469999981
 30
0.0
 11
20582.669525999991
 21
6112.7287530000012
 31
0.0
  0
LINE
  5
3D13
  8
0-1
  6
CONTINUOUS
 62
     3
 10
17627.171504999991
 20
6212.7285879999999
 30
0.0
 11
17627.171504999991
 21
6112.7287530000012
 31
0.0
  0
LINE
  5
3D14
  8
0-1
  6
CONTINUOUS
 62
     3
 10
17527.170185999999
 20
6112.7287530000012
 30
0.0
 11
17527.170185999999
 21
6212.7285879999999
 31
0.0
  0
LINE
  5
3D15
  8
0-1
  6
CONTINUOUS
 62
     3
 10
17527.170185999999
 20
6212.7285879999999
 30
0.0
 11
17627.171504999991
 21
6212.7285879999999
 31
0.0
  0
LINE
  5
3D16
  8
0-1
  6
CONTINUOUS
 62
     3
 10
17664.671504999998
 20
8120.7286469999981
 30
0.0
 11
17664.671504999998
 21
6112.7287530000012
 31
0.0
  0
LINE
  5
3D17
  8
0-1
  6
CONTINUOUS
 62
     3
 10
17619.669129999998
 20
8431.2280139999984
 30
0.0
 11
17619.669129999998
 21
6212.7285879999999
 31
0.0
  0
LINE
  5
3D18
  8
0-1
  6
CONTINUOUS
 62
     3
 10
17554.671636999981
 20
8561.2289369999999
 30
0.0
 11
17554.671636999981
 21
6212.7285879999999
 31
0.0
  0
LINE
  5
3D19
  8
0-1
  6
CONTINUOUS
 62
     3
 10
17534.668602000002
 20
8431.2280139999984
 30
0.0
 11
17534.668602000002
 21
6212.7285879999999
 31
0.0
  0
LINE
  5
3D1A
  8
0-1
  6
CONTINUOUS
 62
     3
 10
17619.669129999998
 20
8120.7286469999981
 30
0.0
 11
20452.670580999991
 21
8120.7286469999981
 31
0.0
  0
LINE
  5
3D1C
  8
0-1
  6
CONTINUOUS
 62
     3
 10
17664.671504999998
 20
6632.7279940000008
 30
0.0
 11
20407.672164999982
 21
6632.7279940000008
 31
0.0
  0
LINE
  5
3D1D
  8
0-1
  6
CONTINUOUS
 62
     3
 10
17664.671504999998
 20
6567.7285220000022
 30
0.0
 11
20407.672164999982
 21
6567.7285220000022
 31
0.0
  0
LINE
  5
3D1E
  8
0-1
  6
CONTINUOUS
 62
     3
 10
17664.671504999998
 20
6502.7285549999997
 30
0.0
 11
20407.672164999982
 21
6502.7285549999997
 31
0.0
  0
LINE
  5
3D1F
  8
0-1
  6
CONTINUOUS
 62
     3
 10
17664.671504999998
 20
6437.7285880000027
 30
0.0
 11
20407.672164999982
 21
6437.7285880000027
 31
0.0
  0
LINE
  5
3D20
  8
0-1
  6
CONTINUOUS
 62
     3
 10
17664.671504999998
 20
6372.7291160000023
 30
0.0
 11
20407.672164999982
 21
6372.7291160000023
 31
0.0
  0
LINE
  5
3D21
  8
0-1
  6
CONTINUOUS
 62
     3
 10
17664.671504999998
 20
6307.7281590000002
 30
0.0
 11
20407.672164999982
 21
6307.7281590000002
 31
0.0
  0
LINE
  5
3D22
  8
0-1
  6
CONTINUOUS
 62
     3
 10
17664.671504999998
 20
6242.7291820000009
 30
0.0
 11
20407.672164999982
 21
6242.7291820000009
 31
0.0
  0
LINE
  5
3D23
  8
0-1
  6
CONTINUOUS
 62
     3
 10
17664.671504999998
 20
6177.7282249999998
 30
0.0
 11
20407.672164999982
 21
6177.7282249999998
 31
0.0
  0
LINE
  5
3D24
  8
0-1
  6
CONTINUOUS
 62
     3
 10
17664.671504999998
 20
7997.7287859999969
 30
0.0
 11
20407.672164999982
 21
7997.7287859999969
 31
0.0
  0
LINE
  5
3D25
  8
0-1
  6
CONTINUOUS
 62
     3
 10
17664.671504999998
 20
7932.7288190000027
 30
0.0
 11
20407.672164999982
 21
7932.7288190000027
 31
0.0
  0
LINE
  5
3D26
  8
0-1
  6
CONTINUOUS
 62
     3
 10
17664.671504999998
 20
7867.7283569999972
 30
0.0
 11
20407.672164999982
 21
7867.7283569999972
 31
0.0
  0
LINE
  5
3D27
  8
0-1
  6
CONTINUOUS
 62
     3
 10
17664.671504999998
 20
7802.7293799999989
 30
0.0
 11
20407.672164999982
 21
7802.7293799999989
 31
0.0
  0
LINE
  5
3D28
  8
0-1
  6
CONTINUOUS
 62
     3
 10
17664.671504999998
 20
7737.7289180000007
 30
0.0
 11
20407.672164999982
 21
7737.7289180000007
 31
0.0
  0
LINE
  5
3D29
  8
0-1
  6
CONTINUOUS
 62
     3
 10
17664.671504999998
 20
7672.7289510000028
 30
0.0
 11
20407.672164999982
 21
7672.7289510000028
 31
0.0
  0
LINE
  5
3D2A
  8
0-1
  6
CONTINUOUS
 62
     3
 10
17664.671504999998
 20
7607.7284890000019
 30
0.0
 11
20407.672164999982
 21
7607.7284890000019
 31
0.0
  0
LINE
  5
3D2B
  8
0-1
  6
CONTINUOUS
 62
     3
 10
17664.671504999998
 20
7542.7285220000031
 30
0.0
 11
20407.672164999982
 21
7542.7285220000031
 31
0.0
  0
LINE
  5
3D2C
  8
0-1
  6
CONTINUOUS
 62
     3
 10
17664.671504999998
 20
7477.7285550000033
 30
0.0
 11
20407.672164999982
 21
7477.7285550000033
 31
0.0
  0
LINE
  5
3D2D
  8
0-1
  6
CONTINUOUS
 62
     3
 10
17664.671504999998
 20
7412.7280929999979
 30
0.0
 11
20407.672164999982
 21
7412.7280929999979
 31
0.0
  0
LINE
  5
3D2E
  8
0-1
  6
CONTINUOUS
 62
     3
 10
17664.671504999998
 20
7347.7291160000004
 30
0.0
 11
20407.672164999982
 21
7347.7291160000004
 31
0.0
  0
LINE
  5
3D2F
  8
0-1
  6
CONTINUOUS
 62
     3
 10
17664.671504999998
 20
7282.7286539999968
 30
0.0
 11
20407.672164999982
 21
7282.7286539999968
 31
0.0
  0
LINE
  5
3D30
  8
0-1
  6
CONTINUOUS
 62
     3
 10
17664.671504999998
 20
7217.7286870000007
 30
0.0
 11
20407.672164999982
 21
7217.7286870000007
 31
0.0
  0
LINE
  5
3D31
  8
0-1
  6
CONTINUOUS
 62
     3
 10
17664.671504999998
 20
7152.7282250000007
 30
0.0
 11
20407.672164999982
 21
7152.7282250000007
 31
0.0
  0
LINE
  5
3D32
  8
0-1
  6
CONTINUOUS
 62
     3
 10
17664.671504999998
 20
7087.7292480000024
 30
0.0
 11
20407.672164999982
 21
7087.7292480000024
 31
0.0
  0
LINE
  5
3D33
  8
0-1
  6
CONTINUOUS
 62
     3
 10
17664.671504999998
 20
7022.7287859999997
 30
0.0
 11
20407.672164999982
 21
7022.7287859999997
 31
0.0
  0
LINE
  5
3D34
  8
0-1
  6
CONTINUOUS
 62
     3
 10
17664.671504999998
 20
6957.7288190000027
 30
0.0
 11
20407.672164999982
 21
6957.7288190000027
 31
0.0
  0
LINE
  5
3D35
  8
0-1
  6
CONTINUOUS
 62
     3
 10
17664.671504999998
 20
6892.728852000002
 30
0.0
 11
20407.672164999982
 21
6892.728852000002
 31
0.0
  0
LINE
  5
3D36
  8
0-1
  6
CONTINUOUS
 62
     3
 10
17664.671504999998
 20
6827.7288849999986
 30
0.0
 11
20407.672164999982
 21
6827.7288849999986
 31
0.0
  0
LINE
  5
3D37
  8
0-1
  6
CONTINUOUS
 62
     3
 10
17664.671504999998
 20
6762.7284230000032
 30
0.0
 11
20407.672164999982
 21
6762.7284230000032
 31
0.0
  0
LINE
  5
3D38
  8
0-1
  6
CONTINUOUS
 62
     3
 10
17664.671504999998
 20
6697.7294460000012
 30
0.0
 11
20407.672164999982
 21
6697.7294460000012
 31
0.0
  0
LINE
  5
3D39
  8
0-1
  6
CONTINUOUS
 62
     3
 10
17664.671504999998
 20
8052.1883109999999
 30
0.0
 11
20407.672164999982
 21
8052.1883109999999
 31
0.0
  0
LINE
  5
3D3C
  8
0-1
  6
CONTINUOUS
 62
     3
 10
17527.170185999999
 20
6112.7287530000012
 30
0.0
 11
21604.283229000001
 21
6112.7287530000012
 31
0.0
  0
LINE
  5
3D3F
  8
0-1
  6
CONTINUOUS
 62
     3
 10
20582.669525999991
 20
8052.1883109999999
 30
0.0
 11
21604.283229000001
 21
8052.1883109999999
 31
0.0
  0
LINE
  5
3D40
  8
0-1
  6
CONTINUOUS
 62
     3
 10
20582.669525999991
 20
7282.7286539999968
 30
0.0
 11
21583.599238999981
 21
7282.7286539999968
 31
0.0
  0
LINE
  5
3D41
  8
0-1
  6
CONTINUOUS
 62
     3
 10
20582.669525999991
 20
7347.7291160000004
 30
0.0
 11
21647.870248999981
 21
7347.7291160000004
 31
0.0
  0
LINE
  5
3D42
  8
0-1
  6
CONTINUOUS
 62
     3
 10
20582.669525999991
 20
7412.7280929999979
 30
0.0
 11
21712.14323799999
 21
7412.7280929999979
 31
0.0
  0
LINE
  5
3D43
  8
0-1
  6
CONTINUOUS
 62
     3
 10
20582.669525999991
 20
7477.7285550000033
 30
0.0
 11
21743.047481999991
 21
7477.7285550000033
 31
0.0
  0
LINE
  5
3D44
  8
0-1
  6
CONTINUOUS
 62
     3
 10
20582.669525999991
 20
7542.7285220000031
 30
0.0
 11
21656.879037999981
 21
7542.7285220000031
 31
0.0
  0
LINE
  5
3D45
  8
0-1
  6
CONTINUOUS
 62
     3
 10
20582.669525999991
 20
7607.7284890000019
 30
0.0
 11
21604.283229000001
 21
7607.7284890000019
 31
0.0
  0
LINE
  5
3D46
  8
0-1
  6
CONTINUOUS
 62
     3
 10
20582.669525999991
 20
7672.7289510000028
 30
0.0
 11
21604.283229000001
 21
7672.7289510000028
 31
0.0
  0
LINE
  5
3D47
  8
0-1
  6
CONTINUOUS
 62
     3
 10
20582.669525999991
 20
7737.7289180000007
 30
0.0
 11
21604.283229000001
 21
7737.7289180000007
 31
0.0
  0
LINE
  5
3D48
  8
0-1
  6
CONTINUOUS
 62
     3
 10
20582.669525999991
 20
7802.7293799999989
 30
0.0
 11
21604.283229000001
 21
7802.7293799999989
 31
0.0
  0
LINE
  5
3D49
  8
0-1
  6
CONTINUOUS
 62
     3
 10
20582.669525999991
 20
7867.7283569999972
 30
0.0
 11
21604.283229000001
 21
7867.7283569999972
 31
0.0
  0
LINE
  5
3D4A
  8
0-1
  6
CONTINUOUS
 62
     3
 10
20582.669525999991
 20
7932.7288190000027
 30
0.0
 11
21604.283229000001
 21
7932.7288190000027
 31
0.0
  0
LINE
  5
3D4B
  8
0-1
  6
CONTINUOUS
 62
     3
 10
20582.669525999991
 20
7997.7287859999969
 30
0.0
 11
21604.283229000001
 21
7997.7287859999969
 31
0.0
  0
LINE
  5
3D4C
  8
0-1
  6
CONTINUOUS
 62
     3
 10
20582.669525999991
 20
6177.7282249999998
 30
0.0
 11
21604.283229000001
 21
6177.7282249999998
 31
0.0
  0
LINE
  5
3D4D
  8
0-1
  6
CONTINUOUS
 62
     3
 10
20582.669525999991
 20
6242.7291820000009
 30
0.0
 11
21604.283229000001
 21
6242.7291820000009
 31
0.0
  0
LINE
  5
3D4E
  8
0-1
  6
CONTINUOUS
 62
     3
 10
20582.669525999991
 20
6307.7281590000002
 30
0.0
 11
21604.283229000001
 21
6307.7281590000002
 31
0.0
  0
LINE
  5
3D4F
  8
0-1
  6
CONTINUOUS
 62
     3
 10
20582.669525999991
 20
6372.7291160000023
 30
0.0
 11
21604.283229000001
 21
6372.7291160000023
 31
0.0
  0
LINE
  5
3D50
  8
0-1
  6
CONTINUOUS
 62
     3
 10
20582.669525999991
 20
6437.7285880000027
 30
0.0
 11
21604.283229000001
 21
6437.7285880000027
 31
0.0
  0
LINE
  5
3D51
  8
0-1
  6
CONTINUOUS
 62
     3
 10
20582.669525999991
 20
6502.7285549999997
 30
0.0
 11
21604.283229000001
 21
6502.7285549999997
 31
0.0
  0
LINE
  5
3D52
  8
0-1
  6
CONTINUOUS
 62
     3
 10
20582.669525999991
 20
6567.7285220000022
 30
0.0
 11
21531.086570999982
 21
6567.7285220000022
 31
0.0
  0
LINE
  5
3D53
  8
0-1
  6
CONTINUOUS
 62
     3
 10
20537.673088999982
 20
8120.7286469999981
 30
0.0
 11
21604.283229000001
 21
8120.7286469999981
 31
0.0
  0
LINE
  5
3D54
  8
0-1
  6
CONTINUOUS
 62
     3
 10
21604.283229000001
 20
6512.5172739999998
 30
0.0
 11
21156.211279999981
 21
6850.5002769999983
 31
0.0
  0
LINE
  5
3D55
  8
0-1
  6
CONTINUOUS
 62
     3
 10
21762.15973399999
 20
7463.3127109999969
 30
0.0
 11
21156.211279999981
 21
6850.5002769999983
 31
0.0
  0
LINE
  5
3D59
  8
0-2
  6
CONTINUOUS
 62
     4
 10
24817.868123999961
 20
6859.9544569999989
 30
0.0
 11
24717.86878399998
 21
6859.9544569999989
 31
0.0
  0
LINE
  5
3D5A
  8
0-2
  6
CONTINUOUS
 62
     4
 10
24090.48214399998
 20
6859.9544569999989
 30
0.0
 11
24190.48148499996
 21
6859.9544569999989
 31
0.0
  0
LINE
  5
3D5B
  8
0-2
  6
CONTINUOUS
 62
     4
 10
19399.861855499988
 20
6859.9544569999989
 30
0.0
 11
19299.862515500001
 21
6859.9544569999989
 31
0.0
  0
LINE
  5
3D5C
  8
0-2
  6
CONTINUOUS
 62
     4
 10
18672.477854500001
 20
6859.9544569999989
 30
0.0
 11
18772.475215499999
 21
6859.9544569999989
 31
0.0
  0
LINE
  5
3D5D
  8
0-5
  6
CONTINUOUS
 62
     4
 10
13159.382786
 20
6112.7287530000012
 30
0.0
 11
17447.169922000001
 21
6112.7287530000012
 31
0.0
  0
LINE
  5
3D5E
  8
0-5
  6
CONTINUOUS
 62
     4
 10
25913.176123999961
 20
4432.7286539999977
 30
0.0
 11
25913.176123999961
 21
4272.7286210000002
 31
0.0
  0
LINE
  5
3D5F
  8
0-5
  6
CONTINUOUS
 62
     4
 10
22995.176123999961
 20
4432.7286539999977
 30
0.0
 11
22995.176123999961
 21
4272.7286210000002
 31
0.0
  0
LINE
  5
3D60
  8
0-5
  6
CONTINUOUS
 62
     4
 10
20495.17084499999
 20
4432.7286539999977
 30
0.0
 11
20495.17084499999
 21
4272.7286210000002
 31
0.0
  0
LINE
  5
3D61
  8
0-5
  6
CONTINUOUS
 62
     4
 10
17577.170844999979
 20
4432.7286539999977
 30
0.0
 11
17577.170844999979
 21
4272.7286210000002
 31
0.0
  0
LINE
  5
3D62
  8
0-5
  6
CONTINUOUS
 62
     4
 10
15344.79003899999
 20
6320.5742450000034
 30
0.0
 11
15464.787466
 21
6112.7287530000012
 31
0.0
  0
LINE
  5
3D63
  8
0-5
  6
CONTINUOUS
 62
     4
 10
15464.787466
 20
6112.7287530000012
 30
0.0
 11
15584.786872000001
 21
6320.5742450000034
 31
0.0
  0
LINE
  5
3D64
  8
0-5
  6
CONTINUOUS
 62
     4
 10
15584.786872000001
 20
6320.5742450000034
 30
0.0
 11
15344.79003899999
 21
6320.5742450000034
 31
0.0
  0
LINE
  5
3D65
  8
0-5
  6
CONTINUOUS
 62
     4
 10
13159.382786
 20
6112.7287530000012
 30
0.0
 11
17447.169922000001
 21
6112.7287530000012
 31
0.0
  0
LINE
  5
3D66
  8
2-0
  6
CENTER2
 62
     6
 10
25913.176123999961
 20
5850.0763299999999
 30
0.0
 11
25913.176123999961
 21
6887.2183670000013
 31
0.0
  0
LINE
  5
3D67
  8
2-0
  6
CENTER2
 62
     6
 10
22995.176123999961
 20
5850.0763299999999
 30
0.0
 11
22995.176123999961
 21
6887.2183670000013
 31
0.0
  0
LINE
  5
3D68
  8
2-0
  6
CENTER2
 62
     6
 10
20495.17084499999
 20
5850.0763299999999
 30
0.0
 11
20495.17084499999
 21
6887.2183670000013
 31
0.0
  0
LINE
  5
3D69
  8
2-0
  6
CENTER2
 62
     6
 10
17577.170844999979
 20
5850.0763299999999
 30
0.0
 11
17577.170844999979
 21
6887.2183670000013
 31
0.0
  0
LINE
  5
3D6A
  8
2-0
  6
CONTINUOUS
 62
     6
 10
24230.017207999961
 20
13854.815322999981
 30
0.0
 11
25230.010609999928
 21
13854.815322999981
 31
0.0
  0
LINE
  5
3D6B
  8
2-0
  6
CONTINUOUS
 62
     6
 10
25697.95098699996
 20
14325.236036999981
 30
0.0
 11
25230.010609999928
 21
13854.815322999981
 31
0.0
  0
LINE
  5
3D6C
  8
2-0
  6
CONTINUOUS
 62
     6
 10
25659.310783999961
 20
17166.343683999981
 30
0.0
 11
25354.615365999962
 21
17269.997214999989
 31
0.0
  0
LINE
  5
3D6D
  8
2-0
  6
CONTINUOUS
 62
     6
 10
25814.332822999932
 20
16676.72164
 30
0.0
 11
25354.615365999962
 21
16432.808328999989
 31
0.0
  0
LINE
  5
3D6E
  8
2-0
  6
CONTINUOUS
 62
     6
 10
24434.61233099996
 20
16432.808328999989
 30
0.0
 11
25354.615365999962
 21
16432.808328999989
 31
0.0
  0
LINE
  5
3D6F
  8
2-0
  6
CONTINUOUS
 62
     6
 10
24154.62130399996
 20
17269.997214999989
 30
0.0
 11
25354.615365999962
 21
17269.997214999989
 31
0.0
  0
LINE
  5
3D70
  8
2-0
  6
CONTINUOUS
 62
     6
 10
25730.510107999959
 20
14646.919682999949
 30
0.0
 11
25354.615365999962
 21
14827.86351799998
 31
0.0
  0
LINE
  5
3D71
  8
2-0
  6
CONTINUOUS
 62
     6
 10
24834.61364999997
 20
14827.86351799998
 30
0.0
 11
25354.615365999962
 21
14827.86351799998
 31
0.0
  0
LINE
  5
3D72
  8
2-0
  6
CONTINUOUS
 62
     4
 10
22995.176123999961
 20
19752.316973000001
 30
0.0
 11
22995.176123999961
 21
20482.313937999981
 31
0.0
  0
LINE
  5
3D73
  8
2-0
  6
CONTINUOUS
 62
     3
 10
25925.676783999959
 20
19563.314518999981
 30
0.0
 11
25925.676783999959
 21
19557.318556999991
 31
0.0
  0
LINE
  5
3D74
  8
2-0
  6
CONTINUOUS
 62
     3
 10
25925.676783999959
 20
19557.318556999991
 30
0.0
 11
25955.674407999959
 21
19557.318556999991
 31
0.0
  0
LINE
  5
3D75
  8
2-0
  6
CONTINUOUS
 62
     3
 10
25955.674407999959
 20
19587.318160999981
 30
0.0
 11
25874.67250799996
 21
19587.318160999981
 31
0.0
  0
LINE
  5
3D76
  8
2-0
  6
CONTINUOUS
 62
     3
 10
25925.676783999959
 20
19547.021100999991
 30
0.0
 11
25955.674407999959
 21
19547.021100999991
 31
0.0
  0
LINE
  5
3D77
  8
2-0
  6
CONTINUOUS
 62
     3
 10
25925.676783999959
 20
19565.022842999992
 30
0.0
 11
25925.676783999959
 21
19547.021100999991
 31
0.0
  0
LINE
  5
3D78
  8
2-0
  6
CONTINUOUS
 62
     3
 10
25950.674143999971
 20
19565.022842999992
 30
0.0
 11
25925.676783999959
 21
19565.022842999992
 31
0.0
  0
LINE
  5
3D79
  8
2-0
  6
CONTINUOUS
 62
     3
 10
25950.674143999971
 20
19560.014661000001
 30
0.0
 11
25950.674143999971
 21
19565.022842999992
 31
0.0
  0
LINE
  5
3D7A
  8
2-0
  6
CONTINUOUS
 62
     3
 10
25943.672586999961
 20
19560.014661000001
 30
0.0
 11
25950.674143999971
 21
19560.014661000001
 31
0.0
  0
LINE
  5
3D7B
  8
2-0
  6
CONTINUOUS
 62
     3
 10
25843.37631899997
 20
19660.314888000001
 30
0.0
 11
25843.37631899997
 21
19667.320403999991
 31
0.0
  0
LINE
  5
3D7C
  8
2-0
  6
CONTINUOUS
 62
     3
 10
25843.37631899997
 20
19667.320403999991
 30
0.0
 11
25848.376582999961
 21
19667.320403999991
 31
0.0
  0
LINE
  5
3D7D
  8
2-0
  6
CONTINUOUS
 62
     3
 10
25848.376582999961
 20
19667.320403999991
 30
0.0
 11
25848.376582999961
 21
19642.311166999989
 31
0.0
  0
LINE
  5
3D7E
  8
2-0
  6
CONTINUOUS
 62
     3
 10
25848.376582999961
 20
19642.311166999989
 30
0.0
 11
25830.374840999961
 21
19642.311166999989
 31
0.0
  0
LINE
  5
3D7F
  8
2-0
  6
CONTINUOUS
 62
     3
 10
25830.374840999961
 20
19642.311166999989
 30
0.0
 11
25830.374840999961
 21
19672.314729999998
 31
0.0
  0
LINE
  5
3D80
  8
2-0
  6
CONTINUOUS
 62
     3
 10
25840.672296999961
 20
19672.314729999998
 30
0.0
 11
25955.674407999959
 21
19672.314729999998
 31
0.0
  0
LINE
  5
3D81
  8
2-0
  6
CONTINUOUS
 62
     3
 10
25840.672296999961
 20
19642.311166999989
 30
0.0
 11
25840.672296999961
 21
19672.314729999998
 31
0.0
  0
LINE
  5
3D82
  8
2-0
  6
CONTINUOUS
 62
     3
 10
25846.674196999971
 20
19642.311166999989
 30
0.0
 11
25840.672296999961
 21
19642.311166999989
 31
0.0
  0
LINE
  5
3D83
  8
2-0
  6
CONTINUOUS
 62
     3
 10
25943.672586999961
 20
19206.717838499961
 30
0.0
 11
25950.674143999971
 21
19206.717838499961
 31
0.0
  0
LINE
  5
3D84
  8
2-0
  6
CONTINUOUS
 62
     3
 10
25950.674143999971
 20
19206.717838499961
 30
0.0
 11
25950.674143999971
 21
19211.718102499981
 31
0.0
  0
LINE
  5
3D85
  8
2-0
  6
CONTINUOUS
 62
     3
 10
25950.674143999971
 20
19211.718102499981
 30
0.0
 11
25925.676783999959
 21
19211.718102499981
 31
0.0
  0
LINE
  5
3D86
  8
2-0
  6
CONTINUOUS
 62
     3
 10
25925.676783999959
 20
19211.718102499981
 30
0.0
 11
25925.676783999959
 21
19193.722298499961
 31
0.0
  0
LINE
  5
3D87
  8
2-0
  6
CONTINUOUS
 62
     3
 10
25925.676783999959
 20
19193.722298499961
 30
0.0
 11
25955.674407999959
 21
19193.722298499961
 31
0.0
  0
LINE
  5
3D88
  8
2-0
  6
CONTINUOUS
 62
     3
 10
25925.676783999959
 20
19209.813805499962
 30
0.0
 11
25925.676783999959
 21
19203.81586449996
 31
0.0
  0
LINE
  5
3D89
  8
2-0
  6
CONTINUOUS
 62
     3
 10
25925.676783999959
 20
19203.81586449996
 30
0.0
 11
25955.674407999959
 21
19203.81586449996
 31
0.0
  0
LINE
  5
3D8A
  8
2-0
  6
CONTINUOUS
 62
     3
 10
25955.674407999959
 20
19203.81586449996
 30
0.0
 11
25955.674407999959
 21
19240.81702549995
 31
0.0
  0
LINE
  5
3D8B
  8
2-0
  6
CONTINUOUS
 62
     3
 10
25925.676783999959
 20
19240.81702549995
 30
0.0
 11
25955.674407999959
 21
19240.81702549995
 31
0.0
  0
LINE
  5
3D8C
  8
2-0
  6
CONTINUOUS
 62
     3
 10
25925.676783999959
 20
19234.813145499971
 30
0.0
 11
25925.676783999959
 21
19240.81702549995
 31
0.0
  0
LINE
  5
3D8D
  8
2-0
  6
CONTINUOUS
 62
     3
 10
25925.676783999959
 20
19250.912570499971
 30
0.0
 11
25955.674407999959
 21
19250.912570499971
 31
0.0
  0
LINE
  5
3D8E
  8
2-0
  6
CONTINUOUS
 62
     3
 10
25925.676783999959
 20
19232.91082849996
 30
0.0
 11
25925.676783999959
 21
19250.912570499971
 31
0.0
  0
LINE
  5
3D8F
  8
2-0
  6
CONTINUOUS
 62
     3
 10
25950.674143999971
 20
19232.91082849996
 30
0.0
 11
25925.676783999959
 21
19232.91082849996
 31
0.0
  0
LINE
  5
3D90
  8
2-0
  6
CONTINUOUS
 62
     3
 10
25950.674143999971
 20
19237.91109249998
 30
0.0
 11
25950.674143999971
 21
19232.91082849996
 31
0.0
  0
LINE
  5
3D91
  8
2-0
  6
CONTINUOUS
 62
     3
 10
25943.672586999961
 20
19237.91109249998
 30
0.0
 11
25950.674143999971
 21
19237.91109249998
 31
0.0
  0
LINE
  5
3D92
  8
2-0
  6
CONTINUOUS
 62
     3
 10
25943.672586999961
 20
18505.716848999989
 30
0.0
 11
25950.674143999971
 21
18505.716848999989
 31
0.0
  0
LINE
  5
3D93
  8
2-0
  6
CONTINUOUS
 62
     3
 10
25950.674143999971
 20
18505.716848999989
 30
0.0
 11
25950.674143999971
 21
18510.723050999961
 31
0.0
  0
LINE
  5
3D94
  8
2-0
  6
CONTINUOUS
 62
     3
 10
25950.674143999971
 20
18510.723050999961
 30
0.0
 11
25925.676783999959
 21
18510.723050999961
 31
0.0
  0
LINE
  5
3D95
  8
2-0
  6
CONTINUOUS
 62
     3
 10
25925.676783999959
 20
18510.723050999961
 30
0.0
 11
25925.676783999959
 21
18492.72130899999
 31
0.0
  0
LINE
  5
3D96
  8
2-0
  6
CONTINUOUS
 62
     3
 10
25925.676783999959
 20
18492.72130899999
 30
0.0
 11
25955.674407999959
 21
18492.72130899999
 31
0.0
  0
LINE
  5
3D97
  8
2-0
  6
CONTINUOUS
 62
     3
 10
25925.676783999959
 20
18508.812815999951
 30
0.0
 11
25925.676783999959
 21
18502.81685399995
 31
0.0
  0
LINE
  5
3D98
  8
2-0
  6
CONTINUOUS
 62
     3
 10
25925.676783999959
 20
18502.81685399995
 30
0.0
 11
25955.674407999959
 21
18502.81685399995
 31
0.0
  0
LINE
  5
3D99
  8
2-0
  6
CONTINUOUS
 62
     3
 10
25955.674407999959
 20
18502.81685399995
 30
0.0
 11
25955.674407999959
 21
18539.816035999989
 31
0.0
  0
LINE
  5
3D9A
  8
2-0
  6
CONTINUOUS
 62
     3
 10
25925.676783999959
 20
18539.816035999989
 30
0.0
 11
25955.674407999959
 21
18539.816035999989
 31
0.0
  0
LINE
  5
3D9B
  8
2-0
  6
CONTINUOUS
 62
     3
 10
25925.676783999959
 20
18533.820073999981
 30
0.0
 11
25925.676783999959
 21
18539.816035999989
 31
0.0
  0
LINE
  5
3D9C
  8
2-0
  6
CONTINUOUS
 62
     3
 10
25925.676783999959
 20
18549.911580999978
 30
0.0
 11
25955.674407999959
 21
18549.911580999978
 31
0.0
  0
LINE
  5
3D9D
  8
2-0
  6
CONTINUOUS
 62
     3
 10
25925.676783999959
 20
18531.909838999989
 30
0.0
 11
25925.676783999959
 21
18549.911580999978
 31
0.0
  0
LINE
  5
3D9E
  8
2-0
  6
CONTINUOUS
 62
     3
 10
25950.674143999971
 20
18531.909838999989
 30
0.0
 11
25925.676783999959
 21
18531.909838999989
 31
0.0
  0
LINE
  5
3D9F
  8
2-0
  6
CONTINUOUS
 62
     3
 10
25950.674143999971
 20
18536.91604099996
 30
0.0
 11
25950.674143999971
 21
18531.909838999989
 31
0.0
  0
LINE
  5
3DA0
  8
2-0
  6
CONTINUOUS
 62
     3
 10
25943.672586999961
 20
18536.91604099996
 30
0.0
 11
25950.674143999971
 21
18536.91604099996
 31
0.0
  0
LINE
  5
3DA1
  8
2-0
  6
CONTINUOUS
 62
     3
 10
25943.672586999961
 20
17835.910102999991
 30
0.0
 11
25950.674143999971
 21
17835.910102999991
 31
0.0
  0
LINE
  5
3DA2
  8
2-0
  6
CONTINUOUS
 62
     3
 10
25950.674143999971
 20
17835.910102999991
 30
0.0
 11
25950.674143999971
 21
17830.921715999972
 31
0.0
  0
LINE
  5
3DA3
  8
2-0
  6
CONTINUOUS
 62
     3
 10
25950.674143999971
 20
17830.921715999972
 30
0.0
 11
25925.676783999959
 21
17830.921715999972
 31
0.0
  0
LINE
  5
3DA4
  8
2-0
  6
CONTINUOUS
 62
     3
 10
25925.676783999959
 20
17830.921715999972
 30
0.0
 11
25925.676783999959
 21
17848.917518999991
 31
0.0
  0
LINE
  5
3DA5
  8
2-0
  6
CONTINUOUS
 62
     3
 10
25925.676783999959
 20
17848.917518999991
 30
0.0
 11
25955.674407999959
 21
17848.917518999991
 31
0.0
  0
LINE
  5
3DA6
  8
2-0
  6
CONTINUOUS
 62
     3
 10
25925.676783999959
 20
17832.820073999981
 30
0.0
 11
25925.676783999959
 21
17838.816035999971
 31
0.0
  0
LINE
  5
3DA7
  8
2-0
  6
CONTINUOUS
 62
     3
 10
25925.676783999959
 20
17838.816035999971
 30
0.0
 11
25955.674407999959
 21
17838.816035999971
 31
0.0
  0
LINE
  5
3DA8
  8
2-0
  6
CONTINUOUS
 62
     3
 10
25955.674407999959
 20
17838.816035999971
 30
0.0
 11
25955.674407999959
 21
17801.816853999961
 31
0.0
  0
LINE
  5
3DA9
  8
2-0
  6
CONTINUOUS
 62
     3
 10
25925.676783999959
 20
17801.816853999961
 30
0.0
 11
25955.674407999959
 21
17801.816853999961
 31
0.0
  0
LINE
  5
3DAA
  8
2-0
  6
CONTINUOUS
 62
     3
 10
25925.676783999959
 20
17807.818754999978
 30
0.0
 11
25925.676783999959
 21
17801.816853999961
 31
0.0
  0
LINE
  5
3DAB
  8
2-0
  6
CONTINUOUS
 62
     3
 10
25925.676783999959
 20
17791.727247999981
 30
0.0
 11
25955.674407999959
 21
17791.727247999981
 31
0.0
  0
LINE
  5
3DAC
  8
2-0
  6
CONTINUOUS
 62
     3
 10
25925.676783999959
 20
17809.723050999972
 30
0.0
 11
25925.676783999959
 21
17791.727247999981
 31
0.0
  0
LINE
  5
3DAD
  8
2-0
  6
CONTINUOUS
 62
     3
 10
25950.674143999971
 20
17809.723050999972
 30
0.0
 11
25925.676783999959
 21
17809.723050999972
 31
0.0
  0
LINE
  5
3DAE
  8
2-0
  6
CONTINUOUS
 62
     3
 10
25950.674143999971
 20
17804.722787999981
 30
0.0
 11
25950.674143999971
 21
17809.723050999972
 31
0.0
  0
LINE
  5
3DAF
  8
2-0
  6
CONTINUOUS
 62
     3
 10
25943.672586999961
 20
17804.722787999981
 30
0.0
 11
25950.674143999971
 21
17804.722787999981
 31
0.0
  0
LINE
  5
3DB0
  8
2-0
  6
CONTINUOUS
 62
     3
 10
25952.788269999961
 20
17084.813673999972
 30
0.0
 11
25952.788269999961
 21
17104.814728999969
 31
0.0
  0
LINE
  5
3DB1
  8
2-0
  6
CONTINUOUS
 62
     3
 10
25952.788269999961
 20
17104.814728999969
 30
0.0
 11
25867.791700999958
 21
17104.814728999969
 31
0.0
  0
LINE
  5
3DB2
  8
2-0
  6
CONTINUOUS
 62
     3
 10
25943.672586999961
 20
17131.421438999991
 30
0.0
 11
25950.674143999971
 21
17131.421438999991
 31
0.0
  0
LINE
  5
3DB3
  8
2-0
  6
CONTINUOUS
 62
     3
 10
25950.674143999971
 20
17131.421438999991
 30
0.0
 11
25950.674143999971
 21
17126.427112999991
 31
0.0
  0
LINE
  5
3DB4
  8
2-0
  6
CONTINUOUS
 62
     3
 10
25950.674143999971
 20
17126.427112999991
 30
0.0
 11
25925.676783999959
 21
17126.427112999991
 31
0.0
  0
LINE
  5
3DB5
  8
2-0
  6
CONTINUOUS
 62
     3
 10
25925.676783999959
 20
17126.427112999991
 30
0.0
 11
25925.676783999959
 21
17144.422916999989
 31
0.0
  0
LINE
  5
3DB6
  8
2-0
  6
CONTINUOUS
 62
     3
 10
25925.676783999959
 20
17144.422916999989
 30
0.0
 11
25955.674407999959
 21
17144.422916999989
 31
0.0
  0
LINE
  5
3DB7
  8
2-0
  6
CONTINUOUS
 62
     3
 10
25925.676783999959
 20
17134.81433299998
 30
0.0
 11
25925.676783999959
 21
17128.812432999981
 31
0.0
  0
LINE
  5
3DB8
  8
2-0
  6
CONTINUOUS
 62
     3
 10
25955.674407999959
 20
17134.81433299998
 30
0.0
 11
25925.676783999959
 21
17134.81433299998
 31
0.0
  0
LINE
  5
3DB9
  8
2-0
  6
CONTINUOUS
 62
     3
 10
25955.674407999959
 20
17144.422916999989
 30
0.0
 11
25955.674407999959
 21
17791.727247999981
 31
0.0
  0
LINE
  5
3DBA
  8
2-0
  6
CONTINUOUS
 62
     3
 10
25955.674407999959
 20
17848.917518999991
 30
0.0
 11
25955.674407999959
 21
18492.72130899999
 31
0.0
  0
LINE
  5
3DBB
  8
2-0
  6
CONTINUOUS
 62
     3
 10
25955.674407999959
 20
16989.812617999989
 30
0.0
 11
25925.676783999959
 21
16989.812617999989
 31
0.0
  0
LINE
  5
3DBC
  8
2-0
  6
CONTINUOUS
 62
     3
 10
25925.676783999959
 20
16989.812617999989
 30
0.0
 11
25925.676783999959
 21
16995.814517999981
 31
0.0
  0
LINE
  5
3DBD
  8
2-0
  6
CONTINUOUS
 62
     3
 10
25867.791700999958
 20
17019.818160999981
 30
0.0
 11
25952.788269999961
 21
17019.818160999981
 31
0.0
  0
LINE
  5
3DBE
  8
2-0
  6
CONTINUOUS
 62
     3
 10
25952.788269999961
 20
17019.818160999981
 30
0.0
 11
25952.788269999961
 21
17039.813277999991
 31
0.0
  0
LINE
  5
3DBF
  8
2-0
  6
CONTINUOUS
 62
     3
 10
25925.676783999959
 20
16980.204034999992
 30
0.0
 11
25955.674407999959
 21
16980.204034999992
 31
0.0
  0
LINE
  5
3DC0
  8
2-0
  6
CONTINUOUS
 62
     3
 10
25925.676783999959
 20
16998.199837999979
 30
0.0
 11
25925.676783999959
 21
16980.204034999992
 31
0.0
  0
LINE
  5
3DC1
  8
2-0
  6
CONTINUOUS
 62
     3
 10
25950.674143999971
 20
16998.199837999979
 30
0.0
 11
25925.676783999959
 21
16998.199837999979
 31
0.0
  0
LINE
  5
3DC2
  8
2-0
  6
CONTINUOUS
 62
     3
 10
25950.674143999971
 20
16993.199573999991
 30
0.0
 11
25950.674143999971
 21
16998.199837999979
 31
0.0
  0
LINE
  5
3DC3
  8
2-0
  6
CONTINUOUS
 62
     3
 10
25943.672586999961
 20
16993.199573999991
 30
0.0
 11
25950.674143999971
 21
16993.199573999991
 31
0.0
  0
LINE
  5
3DC4
  8
2-0
  6
CONTINUOUS
 62
     3
 10
25943.672586999961
 20
16288.717343499949
 30
0.0
 11
25950.674143999971
 21
16288.717343499949
 31
0.0
  0
LINE
  5
3DC5
  8
2-0
  6
CONTINUOUS
 62
     3
 10
25950.674143999971
 20
16288.717343499949
 30
0.0
 11
25950.674143999971
 21
16293.717607499961
 31
0.0
  0
LINE
  5
3DC6
  8
2-0
  6
CONTINUOUS
 62
     3
 10
25950.674143999971
 20
16293.717607499961
 30
0.0
 11
25925.676783999959
 21
16293.717607499961
 31
0.0
  0
LINE
  5
3DC7
  8
2-0
  6
CONTINUOUS
 62
     3
 10
25925.676783999959
 20
16293.717607499961
 30
0.0
 11
25925.676783999959
 21
16275.71586549998
 31
0.0
  0
LINE
  5
3DC8
  8
2-0
  6
CONTINUOUS
 62
     3
 10
25925.676783999959
 20
16275.71586549998
 30
0.0
 11
25955.674407999959
 21
16275.71586549998
 31
0.0
  0
LINE
  5
3DC9
  8
2-0
  6
CONTINUOUS
 62
     3
 10
25925.676783999959
 20
16291.81331049998
 30
0.0
 11
25925.676783999959
 21
16285.816359499981
 31
0.0
  0
LINE
  5
3DCA
  8
2-0
  6
CONTINUOUS
 62
     3
 10
25925.676783999959
 20
16285.816359499981
 30
0.0
 11
25955.674407999959
 21
16285.816359499981
 31
0.0
  0
LINE
  5
3DCB
  8
2-0
  6
CONTINUOUS
 62
     3
 10
25955.674407999959
 20
16285.816359499981
 30
0.0
 11
25955.674407999959
 21
16322.81653049998
 31
0.0
  0
LINE
  5
3DCC
  8
2-0
  6
CONTINUOUS
 62
     3
 10
25925.676783999959
 20
16322.81653049998
 30
0.0
 11
25955.674407999959
 21
16322.81653049998
 31
0.0
  0
LINE
  5
3DCD
  8
2-0
  6
CONTINUOUS
 62
     3
 10
25925.676783999959
 20
16316.81364049998
 30
0.0
 11
25925.676783999959
 21
16322.81653049998
 31
0.0
  0
LINE
  5
3DCE
  8
2-0
  6
CONTINUOUS
 62
     3
 10
25925.676783999959
 20
16332.91207549998
 30
0.0
 11
25955.674407999959
 21
16332.91207549998
 31
0.0
  0
LINE
  5
3DCF
  8
2-0
  6
CONTINUOUS
 62
     3
 10
25925.676783999959
 20
16314.904394499979
 30
0.0
 11
25925.676783999959
 21
16332.91207549998
 31
0.0
  0
LINE
  5
3DD0
  8
2-0
  6
CONTINUOUS
 62
     3
 10
25950.674143999971
 20
16314.904394499979
 30
0.0
 11
25925.676783999959
 21
16314.904394499979
 31
0.0
  0
LINE
  5
3DD1
  8
2-0
  6
CONTINUOUS
 62
     3
 10
25950.674143999971
 20
16319.91059749998
 30
0.0
 11
25950.674143999971
 21
16314.904394499979
 31
0.0
  0
LINE
  5
3DD2
  8
2-0
  6
CONTINUOUS
 62
     3
 10
25943.672586999961
 20
16319.91059749998
 30
0.0
 11
25950.674143999971
 21
16319.91059749998
 31
0.0
  0
LINE
  5
3DD3
  8
2-0
  6
CONTINUOUS
 62
     3
 10
25943.672586999961
 20
15619.15061399998
 30
0.0
 11
25950.674143999971
 21
15619.15061399998
 31
0.0
  0
LINE
  5
3DD4
  8
2-0
  6
CONTINUOUS
 62
     3
 10
25950.674143999971
 20
15619.15061399998
 30
0.0
 11
25950.674143999971
 21
15614.15628899998
 31
0.0
  0
LINE
  5
3DD5
  8
2-0
  6
CONTINUOUS
 62
     3
 10
25950.674143999971
 20
15614.15628899998
 30
0.0
 11
25925.676783999959
 21
15614.15628899998
 31
0.0
  0
LINE
  5
3DD6
  8
2-0
  6
CONTINUOUS
 62
     3
 10
25925.676783999959
 20
15614.15628899998
 30
0.0
 11
25925.676783999959
 21
15632.152092
 31
0.0
  0
LINE
  5
3DD7
  8
2-0
  6
CONTINUOUS
 62
     3
 10
25925.676783999959
 20
15632.152092
 30
0.0
 11
25955.674407999959
 21
15632.152092
 31
0.0
  0
LINE
  5
3DD8
  8
2-0
  6
CONTINUOUS
 62
     3
 10
25925.676783999959
 20
15616.05464699999
 30
0.0
 11
25925.676783999959
 21
15622.056547
 31
0.0
  0
LINE
  5
3DD9
  8
2-0
  6
CONTINUOUS
 62
     3
 10
25925.676783999959
 20
15622.056547
 30
0.0
 11
25955.674407999959
 21
15622.056547
 31
0.0
  0
LINE
  5
3DDA
  8
2-0
  6
CONTINUOUS
 62
     3
 10
25955.674407999959
 20
15585.05736599999
 30
0.0
 11
25955.674407999959
 21
15622.056547
 31
0.0
  0
LINE
  5
3DDB
  8
2-0
  6
CONTINUOUS
 62
     3
 10
25925.676783999959
 20
15585.05736599999
 30
0.0
 11
25955.674407999959
 21
15585.05736599999
 31
0.0
  0
LINE
  5
3DDC
  8
2-0
  6
CONTINUOUS
 62
     3
 10
25925.676783999959
 20
15591.05431699998
 30
0.0
 11
25925.676783999959
 21
15585.05736599999
 31
0.0
  0
LINE
  5
3DDD
  8
2-0
  6
CONTINUOUS
 62
     3
 10
25925.676783999959
 20
15574.95588199998
 30
0.0
 11
25955.674407999959
 21
15574.95588199998
 31
0.0
  0
LINE
  5
3DDE
  8
2-0
  6
CONTINUOUS
 62
     3
 10
25925.676783999959
 20
15592.963562999979
 30
0.0
 11
25925.676783999959
 21
15574.95588199998
 31
0.0
  0
LINE
  5
3DDF
  8
2-0
  6
CONTINUOUS
 62
     3
 10
25950.674143999971
 20
15592.963562999979
 30
0.0
 11
25925.676783999959
 21
15592.963562999979
 31
0.0
  0
LINE
  5
3DE0
  8
2-0
  6
CONTINUOUS
 62
     3
 10
25950.674143999971
 20
15587.963298999999
 30
0.0
 11
25950.674143999971
 21
15592.963562999979
 31
0.0
  0
LINE
  5
3DE1
  8
2-0
  6
CONTINUOUS
 62
     3
 10
25943.672586999961
 20
15587.963298999999
 30
0.0
 11
25950.674143999971
 21
15587.963298999999
 31
0.0
  0
LINE
  5
3DE2
  8
2-0
  6
CONTINUOUS
 62
     3
 10
25955.674407999959
 20
16980.204034999992
 30
0.0
 11
25955.674407999959
 21
16332.91207549998
 31
0.0
  0
LINE
  5
3DE3
  8
2-0
  6
CONTINUOUS
 62
     3
 10
25955.674407999959
 20
17134.81433299998
 30
0.0
 11
25955.674407999959
 21
16989.812617999989
 31
0.0
  0
LINE
  5
3DE4
  8
2-0
  6
CONTINUOUS
 62
     3
 10
25867.791700999958
 20
17104.814728999969
 30
0.0
 11
25867.791700999958
 21
17019.818160999981
 31
0.0
  0
LINE
  5
3DE5
  8
2-0
  6
CONTINUOUS
 62
     6
 10
24329.583033999948
 20
18873.26199449995
 30
0.0
 11
25354.615365999962
 21
18873.26199449995
 31
0.0
  0
LINE
  5
3DE6
  8
2-0
  6
CONTINUOUS
 62
     3
 10
25943.672586999961
 20
14886.72229199998
 30
0.0
 11
25950.674143999971
 21
14886.72229199998
 31
0.0
  0
LINE
  5
3DE7
  8
2-0
  6
CONTINUOUS
 62
     3
 10
25950.674143999971
 20
14886.72229199998
 30
0.0
 11
25950.674143999971
 21
14891.71661799998
 31
0.0
  0
LINE
  5
3DE8
  8
2-0
  6
CONTINUOUS
 62
     3
 10
25950.674143999971
 20
14891.71661799998
 30
0.0
 11
25925.676783999959
 21
14891.71661799998
 31
0.0
  0
LINE
  5
3DE9
  8
2-0
  6
CONTINUOUS
 62
     3
 10
25925.676783999959
 20
14891.71661799998
 30
0.0
 11
25925.676783999959
 21
14873.720813999969
 31
0.0
  0
LINE
  5
3DEA
  8
2-0
  6
CONTINUOUS
 62
     3
 10
25925.676783999959
 20
14873.720813999969
 30
0.0
 11
25955.674407999959
 21
14873.720813999969
 31
0.0
  0
LINE
  5
3DEB
  8
2-0
  6
CONTINUOUS
 62
     3
 10
25925.676783999959
 20
14889.81924899998
 30
0.0
 11
25925.676783999959
 21
14883.81635899998
 31
0.0
  0
LINE
  5
3DEC
  8
2-0
  6
CONTINUOUS
 62
     3
 10
25925.676783999959
 20
14883.81635899998
 30
0.0
 11
25955.674407999959
 21
14883.81635899998
 31
0.0
  0
LINE
  5
3DED
  8
2-0
  6
CONTINUOUS
 62
     3
 10
25955.674407999959
 20
14883.81635899998
 30
0.0
 11
25955.674407999959
 21
14920.816530999949
 31
0.0
  0
LINE
  5
3DEE
  8
2-0
  6
CONTINUOUS
 62
     3
 10
25925.676783999959
 20
14920.816530999949
 30
0.0
 11
25955.674407999959
 21
14920.816530999949
 31
0.0
  0
LINE
  5
3DEF
  8
2-0
  6
CONTINUOUS
 62
     3
 10
25925.676783999959
 20
14914.819578999981
 30
0.0
 11
25925.676783999959
 21
14920.816530999949
 31
0.0
  0
LINE
  5
3DF0
  8
2-0
  6
CONTINUOUS
 62
     3
 10
25925.676783999959
 20
14930.91702399998
 30
0.0
 11
25955.674407999959
 21
14930.91702399998
 31
0.0
  0
LINE
  5
3DF1
  8
2-0
  6
CONTINUOUS
 62
     3
 10
25925.676783999959
 20
14912.910332999991
 30
0.0
 11
25925.676783999959
 21
14930.91702399998
 31
0.0
  0
LINE
  5
3DF2
  8
2-0
  6
CONTINUOUS
 62
     3
 10
25950.674143999971
 20
14912.910332999991
 30
0.0
 11
25925.676783999959
 21
14912.910332999991
 31
0.0
  0
LINE
  5
3DF3
  8
2-0
  6
CONTINUOUS
 62
     3
 10
25950.674143999971
 20
14917.91554599998
 30
0.0
 11
25950.674143999971
 21
14912.910332999991
 31
0.0
  0
LINE
  5
3DF4
  8
2-0
  6
CONTINUOUS
 62
     3
 10
25943.672586999961
 20
14917.91554599998
 30
0.0
 11
25950.674143999971
 21
14917.91554599998
 31
0.0
  0
LINE
  5
3DF5
  8
2-0
  6
CONTINUOUS
 62
     3
 10
25925.676783999959
 20
14561.31837199998
 30
0.0
 11
25925.676783999959
 21
14567.32324099998
 31
0.0
  0
LINE
  5
3DF6
  8
2-0
  6
CONTINUOUS
 62
     3
 10
25925.676783999959
 20
14567.32324099998
 30
0.0
 11
25955.674407999959
 21
14567.32324099998
 31
0.0
  0
LINE
  5
3DF7
  8
2-0
  6
CONTINUOUS
 62
     3
 10
25955.674407999959
 20
14567.32324099998
 30
0.0
 11
25955.674407999959
 21
14452.319149999979
 31
0.0
  0
LINE
  5
3DF8
  8
2-0
  6
CONTINUOUS
 62
     3
 10
25955.674407999959
 20
14452.319149999979
 30
0.0
 11
25870.67585999997
 21
14452.319149999979
 31
0.0
  0
LINE
  5
3DF9
  8
2-0
  6
CONTINUOUS
 62
     3
 10
25870.67585999997
 20
14452.319149999979
 30
0.0
 11
25870.67585999997
 21
14537.314728999971
 31
0.0
  0
LINE
  5
3DFA
  8
2-0
  6
CONTINUOUS
 62
     3
 10
25870.67585999997
 20
14537.314728999971
 30
0.0
 11
25902.67477799996
 21
14537.314728999971
 31
0.0
  0
LINE
  5
3DFB
  8
2-0
  6
CONTINUOUS
 62
     3
 10
25943.672586999961
 20
14564.352973999979
 30
0.0
 11
25950.674143999971
 21
14564.352973999979
 31
0.0
  0
LINE
  5
3DFC
  8
2-0
  6
CONTINUOUS
 62
     3
 10
25950.674143999971
 20
14564.352973999979
 30
0.0
 11
25950.674143999971
 21
14559.355678999949
 31
0.0
  0
LINE
  5
3DFD
  8
2-0
  6
CONTINUOUS
 62
     3
 10
25950.674143999971
 20
14559.355678999949
 30
0.0
 11
25925.676783999959
 21
14559.355678999949
 31
0.0
  0
LINE
  5
3DFE
  8
2-0
  6
CONTINUOUS
 62
     3
 10
25925.676783999959
 20
14559.355678999949
 30
0.0
 11
25925.676783999959
 21
14577.35445199998
 31
0.0
  0
LINE
  5
3DFF
  8
2-0
  6
CONTINUOUS
 62
     3
 10
25925.676783999959
 20
14577.35445199998
 30
0.0
 11
25955.674407999959
 21
14577.35445199998
 31
0.0
  0
LINE
  5
3E00
  8
2-0
  6
CENTER2
 62
     6
 10
25913.176123999961
 20
14254.82159199996
 30
0.0
 11
25913.176123999961
 21
15060.190350000001
 31
0.0
  0
LINE
  5
3E01
  8
2-0
  6
CONTINUOUS
 62
     3
 10
25955.674407999959
 20
18549.911580999978
 30
0.0
 11
25955.674407999959
 21
19193.722298499961
 31
0.0
  0
LINE
  5
3E02
  8
2-0
  6
CONTINUOUS
 62
     6
 10
26648.17929099996
 20
20402.317632999999
 30
0.0
 11
27848.173352999951
 21
20402.317632999999
 31
0.0
  0
LINE
  5
3E03
  8
2-0
  6
CONTINUOUS
 62
     3
 10
23067.677971999969
 20
19672.314729999998
 30
0.0
 11
23067.677971999969
 21
19642.311166999989
 31
0.0
  0
LINE
  5
3E04
  8
2-0
  6
CONTINUOUS
 62
     3
 10
23067.677971999969
 20
19642.311166999989
 30
0.0
 11
23061.68002999996
 21
19642.311166999989
 31
0.0
  0
LINE
  5
3E05
  8
2-0
  6
CONTINUOUS
 62
     3
 10
23077.29447299998
 20
19642.311166999989
 30
0.0
 11
23077.29447299998
 21
19672.314729999998
 31
0.0
  0
LINE
  5
3E06
  8
2-0
  6
CONTINUOUS
 62
     3
 10
23059.292730999961
 20
19642.311166999989
 30
0.0
 11
23077.29447299998
 21
19642.311166999989
 31
0.0
  0
LINE
  5
3E07
  8
2-0
  6
CONTINUOUS
 62
     3
 10
23059.292730999961
 20
19667.320403999991
 30
0.0
 11
23059.292730999961
 21
19642.311166999989
 31
0.0
  0
LINE
  5
3E08
  8
2-0
  6
CONTINUOUS
 62
     3
 10
23064.292994999989
 20
19667.320403999991
 30
0.0
 11
23059.292730999961
 21
19667.320403999991
 31
0.0
  0
LINE
  5
3E09
  8
2-0
  6
CONTINUOUS
 62
     3
 10
23064.292994999989
 20
19660.314888000001
 30
0.0
 11
23064.292994999989
 21
19667.320403999991
 31
0.0
  0
LINE
  5
3E0A
  8
2-0
  6
CONTINUOUS
 62
     3
 10
23037.676387999982
 20
19669.422653000001
 30
0.0
 11
23037.676387999982
 21
19584.424104999998
 31
0.0
  0
LINE
  5
3E0B
  8
2-0
  6
CONTINUOUS
 62
     3
 10
23017.679290999971
 20
19669.422653000001
 30
0.0
 11
23037.676387999982
 21
19669.422653000001
 31
0.0
  0
LINE
  5
3E0C
  8
2-0
  6
CONTINUOUS
 62
     3
 10
22926.06519199998
 20
19660.314888000001
 30
0.0
 11
22926.06519199998
 21
19667.320403999991
 31
0.0
  0
LINE
  5
3E0D
  8
2-0
  6
CONTINUOUS
 62
     3
 10
22926.06519199998
 20
19667.320403999991
 30
0.0
 11
22931.065455999971
 21
19667.320403999991
 31
0.0
  0
LINE
  5
3E0E
  8
2-0
  6
CONTINUOUS
 62
     3
 10
22931.065455999971
 20
19667.320403999991
 30
0.0
 11
22931.065455999971
 21
19642.311166999989
 31
0.0
  0
LINE
  5
3E0F
  8
2-0
  6
CONTINUOUS
 62
     3
 10
22931.065455999971
 20
19642.311166999989
 30
0.0
 11
22913.063713999971
 21
19642.311166999989
 31
0.0
  0
LINE
  5
3E10
  8
2-0
  6
CONTINUOUS
 62
     3
 10
22913.063713999971
 20
19642.311166999989
 30
0.0
 11
22913.063713999971
 21
19672.314729999998
 31
0.0
  0
LINE
  5
3E11
  8
2-0
  6
CONTINUOUS
 62
     3
 10
22952.68377799997
 20
19669.422653000001
 30
0.0
 11
22972.678894999972
 21
19669.422653000001
 31
0.0
  0
LINE
  5
3E12
  8
2-0
  6
CONTINUOUS
 62
     3
 10
22952.68377799997
 20
19584.424104999998
 30
0.0
 11
22952.68377799997
 21
19669.422653000001
 31
0.0
  0
LINE
  5
3E13
  8
2-0
  6
CONTINUOUS
 62
     3
 10
22922.686153999981
 20
19642.311166999989
 30
0.0
 11
22928.68211499996
 21
19642.311166999989
 31
0.0
  0
LINE
  5
3E14
  8
2-0
  6
CONTINUOUS
 62
     3
 10
22922.686153999981
 20
19672.314729999998
 30
0.0
 11
22922.686153999981
 21
19642.311166999989
 31
0.0
  0
LINE
  5
3E15
  8
2-0
  6
CONTINUOUS
 62
     3
 10
23037.676387999982
 20
19584.424104999998
 30
0.0
 11
22952.68377799997
 21
19584.424104999998
 31
0.0
  0
LINE
  5
3E16
  8
2-0
  6
CONTINUOUS
 62
     3
 10
23067.677971999969
 20
19672.314729999998
 30
0.0
 11
22922.686153999981
 21
19672.314729999998
 31
0.0
  0
LINE
  5
3E17
  8
2-0
  6
CONTINUOUS
 62
     6
 10
25786.146457999959
 20
19115.41650249996
 30
0.0
 11
25354.615365999962
 21
18873.26199449995
 31
0.0
  0
LINE
  5
3E18
  8
2-0
  6
CONTINUOUS
 62
     6
 10
26107.715291999932
 20
19814.994470000001
 30
0.0
 11
26648.17929099996
 21
20402.317632999999
 31
0.0
  0
LINE
  5
3E19
  8
2-0
  6
CONTINUOUS
 62
     6
 10
23037.676387999982
 20
14537.314728999971
 30
0.0
 11
23314.266600999981
 21
14992.659428999979
 31
0.0
  0
LINE
  5
3E1A
  8
2-0
  6
CONTINUOUS
 62
     6
 10
23314.266600999981
 20
14992.659428999979
 30
0.0
 11
24344.61591999996
 21
14992.659428999979
 31
0.0
  0
LINE
  5
3E1B
  8
2-0
  6
CONTINUOUS
 62
     3
 10
25955.674407999959
 20
16275.71586549998
 30
0.0
 11
25955.674407999959
 21
15632.152092
 31
0.0
  0
LINE
  5
3E1C
  8
2-0
  6
CONTINUOUS
 62
     6
 10
23097.954707999961
 20
14687.910563999971
 30
0.0
 11
23037.676387999982
 21
14537.314728999971
 31
0.0
  0
LINE
  5
3E1D
  8
2-0
  6
CONTINUOUS
 62
     6
 10
23037.676387999982
 20
14537.314728999971
 30
0.0
 11
23143.535102999929
 21
14660.22303799998
 31
0.0
  0
LINE
  5
3E1E
  8
2-0
  6
CONTINUOUS
 62
     6
 10
23097.954707999961
 20
14687.910563999971
 30
0.0
 11
23143.535102999929
 21
14660.22303799998
 31
0.0
  0
LINE
  5
3E1F
  8
2-0
  6
CONTINUOUS
 62
     6
 10
23143.535102999929
 20
14660.22303799998
 30
0.0
 11
23037.676387999982
 21
14537.314728999971
 31
0.0
  0
LINE
  5
3E20
  8
2-0
  6
CONTINUOUS
 62
     6
 10
23037.676387999982
 20
14537.314728999971
 30
0.0
 11
23097.954707999961
 21
14687.910563999971
 31
0.0
  0
LINE
  5
3E21
  8
2-0
  6
CONTINUOUS
 62
     6
 10
23097.954707999961
 20
14687.910563999971
 30
0.0
 11
23037.676387999982
 21
14537.314728999971
 31
0.0
  0
LINE
  5
3E22
  8
2-0
  6
CONTINUOUS
 62
     6
 10
23143.535102999929
 20
14660.22303799998
 30
0.0
 11
23037.676387999982
 21
14537.314728999971
 31
0.0
  0
LINE
  5
3E23
  8
2-0
  6
CONTINUOUS
 62
     6
 10
23143.535102999929
 20
14660.22303799998
 30
0.0
 11
23097.954707999961
 21
14687.910563999971
 31
0.0
  0
LINE
  5
3E24
  8
2-0
  6
CONTINUOUS
 62
     6
 10
25773.089552999962
 20
19138.67584649998
 30
0.0
 11
25925.676783999959
 21
19193.722298499961
 31
0.0
  0
LINE
  5
3E25
  8
2-0
  6
CONTINUOUS
 62
     6
 10
25925.676783999959
 20
19193.722298499961
 30
0.0
 11
25799.195443999961
 21
19092.163098499968
 31
0.0
  0
LINE
  5
3E26
  8
2-0
  6
CONTINUOUS
 62
     6
 10
25773.089552999962
 20
19138.67584649998
 30
0.0
 11
25799.195443999961
 21
19092.163098499968
 31
0.0
  0
LINE
  5
3E27
  8
2-0
  6
CONTINUOUS
 62
     6
 10
25799.195443999961
 20
19092.163098499968
 30
0.0
 11
25925.676783999959
 21
19193.722298499961
 31
0.0
  0
LINE
  5
3E28
  8
2-0
  6
CONTINUOUS
 62
     6
 10
25925.676783999959
 20
19193.722298499961
 30
0.0
 11
25773.089552999962
 21
19138.67584649998
 31
0.0
  0
LINE
  5
3E29
  8
2-0
  6
CONTINUOUS
 62
     6
 10
25773.089552999962
 20
19138.67584649998
 30
0.0
 11
25925.676783999959
 21
19193.722298499961
 31
0.0
  0
LINE
  5
3E2A
  8
2-0
  6
CONTINUOUS
 62
     6
 10
25799.195443999961
 20
19092.163098499968
 30
0.0
 11
25925.676783999959
 21
19193.722298499961
 31
0.0
  0
LINE
  5
3E2B
  8
2-0
  6
CONTINUOUS
 62
     6
 10
25799.195443999961
 20
19092.163098499968
 30
0.0
 11
25773.089552999962
 21
19138.67584649998
 31
0.0
  0
LINE
  5
3E2C
  8
2-0
  6
CONTINUOUS
 62
     6
 10
26127.332320999962
 20
19796.933343000001
 30
0.0
 11
25999.37030099997
 21
19697.250725000002
 31
0.0
  0
LINE
  5
3E2D
  8
2-0
  6
CONTINUOUS
 62
     6
 10
25999.37030099997
 20
19697.250725000002
 30
0.0
 11
26088.084405999962
 21
19833.047679999989
 31
0.0
  0
LINE
  5
3E2E
  8
2-0
  6
CONTINUOUS
 62
     6
 10
26127.332320999962
 20
19796.933343000001
 30
0.0
 11
26088.084405999962
 21
19833.047679999989
 31
0.0
  0
LINE
  5
3E2F
  8
2-0
  6
CONTINUOUS
 62
     6
 10
26088.084405999962
 20
19833.047679999989
 30
0.0
 11
25999.37030099997
 21
19697.250725000002
 31
0.0
  0
LINE
  5
3E30
  8
2-0
  6
CONTINUOUS
 62
     6
 10
25999.37030099997
 20
19697.250725000002
 30
0.0
 11
26127.332320999962
 21
19796.933343000001
 31
0.0
  0
LINE
  5
3E31
  8
2-0
  6
CONTINUOUS
 62
     6
 10
26127.332320999962
 20
19796.933343000001
 30
0.0
 11
25999.37030099997
 21
19697.250725000002
 31
0.0
  0
LINE
  5
3E32
  8
2-0
  6
CONTINUOUS
 62
     6
 10
26088.084405999962
 20
19833.047679999989
 30
0.0
 11
25999.37030099997
 21
19697.250725000002
 31
0.0
  0
LINE
  5
3E33
  8
2-0
  6
CONTINUOUS
 62
     6
 10
26088.084405999962
 20
19833.047679999989
 30
0.0
 11
26127.332320999962
 21
19796.933343000001
 31
0.0
  0
LINE
  5
3E34
  8
2-0
  6
CONTINUOUS
 62
     6
 10
19119.106523999992
 20
19424.542347999992
 30
0.0
 11
19251.039456999999
 21
18955.196512999992
 31
0.0
  0
LINE
  5
3E35
  8
2-0
  6
CONTINUOUS
 62
     6
 10
19251.039456999999
 20
18955.196512999992
 30
0.0
 11
20276.077727999978
 21
18955.196512999992
 31
0.0
  0
LINE
  5
3E36
  8
2-0
  6
CONTINUOUS
 62
     6
 10
19075.812473000002
 20
19578.570668
 30
0.0
 11
19093.434146999982
 21
19417.325023000001
 31
0.0
  0
LINE
  5
3E37
  8
2-0
  6
CONTINUOUS
 62
     6
 10
19144.778900000001
 20
19431.763631999991
 30
0.0
 11
19093.434146999982
 21
19417.325023000001
 31
0.0
  0
LINE
  5
3E38
  8
2-0
  6
CONTINUOUS
 62
     6
 10
19093.434146999982
 20
19417.325023000001
 30
0.0
 11
19075.812473000002
 21
19578.570668
 31
0.0
  0
LINE
  5
3E39
  8
2-0
  6
CONTINUOUS
 62
     6
 10
19075.812473000002
 20
19578.570668
 30
0.0
 11
19144.778900000001
 21
19431.763631999991
 31
0.0
  0
LINE
  5
3E3A
  8
2-0
  6
CONTINUOUS
 62
     6
 10
19144.778900000001
 20
19431.763631999991
 30
0.0
 11
19075.812473000002
 21
19578.570668
 31
0.0
  0
LINE
  5
3E3B
  8
2-0
  6
CONTINUOUS
 62
     6
 10
19093.434146999982
 20
19417.325023000001
 30
0.0
 11
19075.812473000002
 21
19578.570668
 31
0.0
  0
LINE
  5
3E3C
  8
2-0
  6
CONTINUOUS
 62
     6
 10
19093.434146999982
 20
19417.325023000001
 30
0.0
 11
19144.778900000001
 21
19431.763631999991
 31
0.0
  0
LINE
  5
3E3D
  8
2-0
  6
CONTINUOUS
 62
     6
 10
23036.599529999981
 20
19553.563409999992
 30
0.0
 11
23185.469224999972
 21
19023.941234000002
 31
0.0
  0
LINE
  5
3E3E
  8
2-0
  6
CONTINUOUS
 62
     6
 10
23185.469224999972
 20
19023.941234000002
 30
0.0
 11
24210.51343399996
 21
19023.941234000002
 31
0.0
  0
LINE
  5
3E3F
  8
2-0
  6
CONTINUOUS
 62
     6
 10
23054.223183999951
 20
19392.317764999989
 30
0.0
 11
23105.57387499998
 21
19406.752414999992
 31
0.0
  0
LINE
  5
3E40
  8
2-0
  6
CONTINUOUS
 62
     6
 10
23105.57387499998
 20
19406.752414999992
 30
0.0
 11
23054.223183999951
 21
19392.317764999989
 31
0.0
  0
LINE
  5
3E41
  8
2-0
  6
CONTINUOUS
 62
     6
 10
23054.223183999951
 20
19392.317764999989
 30
0.0
 11
23036.599529999981
 21
19553.563409999992
 31
0.0
  0
LINE
  5
3E42
  8
2-0
  6
CONTINUOUS
 62
     6
 10
23036.599529999981
 20
19553.563409999992
 30
0.0
 11
23105.57387499998
 21
19406.752414999992
 31
0.0
  0
LINE
  5
3E43
  8
2-0
  6
CONTINUOUS
 62
     6
 10
23105.57387499998
 20
19406.752414999992
 30
0.0
 11
23036.599529999981
 21
19553.563409999992
 31
0.0
  0
LINE
  5
3E44
  8
2-0
  6
CONTINUOUS
 62
     6
 10
23054.223183999951
 20
19392.317764999989
 30
0.0
 11
23036.599529999981
 21
19553.563409999992
 31
0.0
  0
LINE
  5
3E45
  8
2-0
  6
CONTINUOUS
 62
     6
 10
23105.57387499998
 20
19406.752414999992
 30
0.0
 11
23036.599529999981
 21
19553.563409999992
 31
0.0
  0
LINE
  5
3E46
  8
2-0
  6
CONTINUOUS
 62
     6
 10
23036.599529999981
 20
19553.563409999992
 30
0.0
 11
23054.223183999951
 21
19392.317764999989
 31
0.0
  0
LINE
  5
3E47
  8
2-0
  6
CONTINUOUS
 62
     4
 10
22995.176123999961
 20
19752.316973000001
 30
0.0
 11
22995.176123999961
 21
20482.313937999981
 31
0.0
  0
LINE
  5
3E48
  8
2-0
  6
CONTINUOUS
 62
     6
 10
25679.03668699996
 20
14344.046411999971
 30
0.0
 11
25810.78354599997
 21
14438.673338999981
 31
0.0
  0
LINE
  5
3E49
  8
2-0
  6
CONTINUOUS
 62
     6
 10
25810.78354599997
 20
14438.673338999981
 30
0.0
 11
25716.85340999996
 21
14306.434568999961
 31
0.0
  0
LINE
  5
3E4A
  8
2-0
  6
CONTINUOUS
 62
     6
 10
25679.03668699996
 20
14344.046411999971
 30
0.0
 11
25716.85340999996
 21
14306.434568999961
 31
0.0
  0
LINE
  5
3E4B
  8
2-0
  6
CONTINUOUS
 62
     6
 10
25716.85340999996
 20
14306.434568999961
 30
0.0
 11
25810.78354599997
 21
14438.673338999981
 31
0.0
  0
LINE
  5
3E4C
  8
2-0
  6
CONTINUOUS
 62
     6
 10
25810.78354599997
 20
14438.673338999981
 30
0.0
 11
25679.03668699996
 21
14344.046411999971
 31
0.0
  0
LINE
  5
3E4D
  8
2-0
  6
CONTINUOUS
 62
     6
 10
25679.03668699996
 20
14344.046411999971
 30
0.0
 11
25810.78354599997
 21
14438.673338999981
 31
0.0
  0
LINE
  5
3E4E
  8
2-0
  6
CONTINUOUS
 62
     6
 10
25716.85340999996
 20
14306.434568999961
 30
0.0
 11
25810.78354599997
 21
14438.673338999981
 31
0.0
  0
LINE
  5
3E4F
  8
2-0
  6
CONTINUOUS
 62
     6
 10
25716.85340999996
 20
14306.434568999961
 30
0.0
 11
25679.03668699996
 21
14344.046411999971
 31
0.0
  0
LINE
  5
3E50
  8
2-0
  6
CONTINUOUS
 62
     6
 10
25742.072475999961
 20
14670.95103899995
 30
0.0
 11
25874.67250799996
 21
14577.522710999971
 31
0.0
  0
LINE
  5
3E51
  8
2-0
  6
CONTINUOUS
 62
     6
 10
25874.67250799996
 20
14577.522710999971
 30
0.0
 11
25718.939821999971
 21
14622.898224999981
 31
0.0
  0
LINE
  5
3E52
  8
2-0
  6
CONTINUOUS
 62
     6
 10
25742.072475999961
 20
14670.95103899995
 30
0.0
 11
25718.939821999971
 21
14622.898224999981
 31
0.0
  0
LINE
  5
3E53
  8
2-0
  6
CONTINUOUS
 62
     6
 10
25718.939821999971
 20
14622.898224999981
 30
0.0
 11
25874.67250799996
 21
14577.522710999971
 31
0.0
  0
LINE
  5
3E54
  8
2-0
  6
CONTINUOUS
 62
     6
 10
25874.67250799996
 20
14577.522710999971
 30
0.0
 11
25742.072475999961
 21
14670.95103899995
 31
0.0
  0
LINE
  5
3E55
  8
2-0
  6
CONTINUOUS
 62
     6
 10
25742.072475999961
 20
14670.95103899995
 30
0.0
 11
25874.67250799996
 21
14577.522710999971
 31
0.0
  0
LINE
  5
3E56
  8
2-0
  6
CONTINUOUS
 62
     6
 10
25718.939821999971
 20
14622.898224999981
 30
0.0
 11
25874.67250799996
 21
14577.522710999971
 31
0.0
  0
LINE
  5
3E57
  8
2-0
  6
CONTINUOUS
 62
     6
 10
25718.939821999971
 20
14622.898224999981
 30
0.0
 11
25742.072475999961
 21
14670.95103899995
 31
0.0
  0
LINE
  5
3E58
  8
2-0
  6
CONTINUOUS
 62
     6
 10
25801.836121999961
 20
16700.271971999999
 30
0.0
 11
25955.674407999959
 21
16751.705803000001
 31
0.0
  0
LINE
  5
3E59
  8
2-0
  6
CONTINUOUS
 62
     6
 10
25955.674407999959
 20
16751.705803000001
 30
0.0
 11
25826.839420999961
 21
16653.165368000002
 31
0.0
  0
LINE
  5
3E5A
  8
2-0
  6
CONTINUOUS
 62
     6
 10
25801.836121999961
 20
16700.271971999999
 30
0.0
 11
25826.839420999961
 21
16653.165368000002
 31
0.0
  0
LINE
  5
3E5B
  8
2-0
  6
CONTINUOUS
 62
     6
 10
25826.839420999961
 20
16653.165368000002
 30
0.0
 11
25955.674407999959
 21
16751.705803000001
 31
0.0
  0
LINE
  5
3E5C
  8
2-0
  6
CONTINUOUS
 62
     6
 10
25955.674407999959
 20
16751.705803000001
 30
0.0
 11
25801.836121999961
 21
16700.271971999999
 31
0.0
  0
LINE
  5
3E5D
  8
2-0
  6
CONTINUOUS
 62
     6
 10
25801.836121999961
 20
16700.271971999999
 30
0.0
 11
25955.674407999959
 21
16751.705803000001
 31
0.0
  0
LINE
  5
3E5E
  8
2-0
  6
CONTINUOUS
 62
     6
 10
25826.839420999961
 20
16653.165368000002
 30
0.0
 11
25955.674407999959
 21
16751.705803000001
 31
0.0
  0
LINE
  5
3E5F
  8
2-0
  6
CONTINUOUS
 62
     6
 10
25826.839420999961
 20
16653.165368000002
 30
0.0
 11
25801.836121999961
 21
16700.271971999999
 31
0.0
  0
LINE
  5
3E60
  8
2-0
  6
CONTINUOUS
 62
     6
 10
25667.899914999962
 20
17191.59046399999
 30
0.0
 11
25810.78354599997
 21
17114.81483499999
 31
0.0
  0
LINE
  5
3E61
  8
2-0
  6
CONTINUOUS
 62
     6
 10
25810.78354599997
 20
17114.81483499999
 30
0.0
 11
25650.72165299996
 21
17141.096904000002
 31
0.0
  0
LINE
  5
3E62
  8
2-0
  6
CONTINUOUS
 62
     6
 10
25667.899914999962
 20
17191.59046399999
 30
0.0
 11
25650.72165299996
 21
17141.096904000002
 31
0.0
  0
LINE
  5
3E63
  8
2-0
  6
CONTINUOUS
 62
     6
 10
25650.72165299996
 20
17141.096904000002
 30
0.0
 11
25810.78354599997
 21
17114.81483499999
 31
0.0
  0
LINE
  5
3E64
  8
2-0
  6
CONTINUOUS
 62
     6
 10
25810.78354599997
 20
17114.81483499999
 30
0.0
 11
25667.899914999962
 21
17191.59046399999
 31
0.0
  0
LINE
  5
3E65
  8
2-0
  6
CONTINUOUS
 62
     6
 10
25667.899914999962
 20
17191.59046399999
 30
0.0
 11
25810.78354599997
 21
17114.81483499999
 31
0.0
  0
LINE
  5
3E66
  8
2-0
  6
CONTINUOUS
 62
     6
 10
25650.72165299996
 20
17141.096904000002
 30
0.0
 11
25810.78354599997
 21
17114.81483499999
 31
0.0
  0
LINE
  5
3E67
  8
2-0
  6
CONTINUOUS
 62
     6
 10
25650.72165299996
 20
17141.096904000002
 30
0.0
 11
25667.899914999962
 21
17191.59046399999
 31
0.0
  0
LINE
  5
3E68
  8
2-0
  6
CONTINUOUS
 62
     3
 10
19755.67142599999
 20
19672.314729999998
 30
0.0
 11
19718.670263999989
 21
19672.314729999998
 31
0.0
  0
LINE
  5
3E69
  8
2-0
  6
CONTINUOUS
 62
     3
 10
19755.67142599999
 20
19642.311166999989
 30
0.0
 11
19755.67142599999
 21
19672.314729999998
 31
0.0
  0
LINE
  5
3E6A
  8
2-0
  6
CONTINUOUS
 62
     3
 10
19749.671504999969
 20
19642.311166999989
 30
0.0
 11
19755.67142599999
 21
19642.311166999989
 31
0.0
  0
LINE
  5
3E6B
  8
2-0
  6
CONTINUOUS
 62
     3
 10
19765.768949999991
 20
19642.311166999989
 30
0.0
 11
19765.768949999991
 21
19672.314729999998
 31
0.0
  0
LINE
  5
3E6C
  8
2-0
  6
CONTINUOUS
 62
     3
 10
19747.76522899999
 20
19642.311166999989
 30
0.0
 11
19765.768949999991
 21
19642.311166999989
 31
0.0
  0
LINE
  5
3E6D
  8
2-0
  6
CONTINUOUS
 62
     3
 10
19747.76522899999
 20
19667.320403999991
 30
0.0
 11
19747.76522899999
 21
19642.311166999989
 31
0.0
  0
LINE
  5
3E6E
  8
2-0
  6
CONTINUOUS
 62
     3
 10
19752.765492999992
 20
19667.320403999991
 30
0.0
 11
19747.76522899999
 21
19667.320403999991
 31
0.0
  0
LINE
  5
3E6F
  8
2-0
  6
CONTINUOUS
 62
     3
 10
19752.765492999992
 20
19660.314888000001
 30
0.0
 11
19752.765492999992
 21
19667.320403999991
 31
0.0
  0
LINE
  5
3E70
  8
2-0
  6
CONTINUOUS
 62
     3
 10
19721.576197999981
 20
19660.314888000001
 30
0.0
 11
19721.576197999981
 21
19667.320403999991
 31
0.0
  0
LINE
  5
3E71
  8
2-0
  6
CONTINUOUS
 62
     3
 10
19721.576197999981
 20
19667.320403999991
 30
0.0
 11
19726.57646199999
 21
19667.320403999991
 31
0.0
  0
LINE
  5
3E72
  8
2-0
  6
CONTINUOUS
 62
     3
 10
19726.57646199999
 20
19667.320403999991
 30
0.0
 11
19726.57646199999
 21
19642.311166999989
 31
0.0
  0
LINE
  5
3E73
  8
2-0
  6
CONTINUOUS
 62
     3
 10
19726.57646199999
 20
19642.311166999989
 30
0.0
 11
19708.57669899999
 21
19642.311166999989
 31
0.0
  0
LINE
  5
3E74
  8
2-0
  6
CONTINUOUS
 62
     3
 10
19708.57669899999
 20
19642.311166999989
 30
0.0
 11
19708.57669899999
 21
19672.314729999998
 31
0.0
  0
LINE
  5
3E75
  8
2-0
  6
CONTINUOUS
 62
     3
 10
19724.670184999992
 20
19642.311166999989
 30
0.0
 11
19718.670263999989
 21
19642.311166999989
 31
0.0
  0
LINE
  5
3E76
  8
2-0
  6
CONTINUOUS
 62
     3
 10
19718.670263999989
 20
19642.311166999989
 30
0.0
 11
19718.670263999989
 21
19672.314729999998
 31
0.0
  0
LINE
  5
3E77
  8
2-0
  6
CONTINUOUS
 62
     3
 10
17564.672164999989
 20
19563.314518999981
 30
0.0
 11
17564.672164999989
 21
19557.318556999991
 31
0.0
  0
LINE
  5
3E78
  8
2-0
  6
CONTINUOUS
 62
     3
 10
17564.672164999989
 20
19557.318556999991
 30
0.0
 11
17534.674539999989
 21
19557.318556999991
 31
0.0
  0
LINE
  5
3E79
  8
2-0
  6
CONTINUOUS
 62
     3
 10
17534.674539999989
 20
19557.318556999991
 30
0.0
 11
17534.674539999989
 21
19672.314729999998
 31
0.0
  0
LINE
  5
3E7A
  8
2-0
  6
CONTINUOUS
 62
     3
 10
17534.674539999989
 20
19587.318160999981
 30
0.0
 11
17615.672480999991
 21
19587.318160999981
 31
0.0
  0
LINE
  5
3E7B
  8
2-0
  6
CONTINUOUS
 62
     3
 10
17564.672164999989
 20
19547.021100999991
 30
0.0
 11
17534.674539999989
 21
19547.021100999991
 31
0.0
  0
LINE
  5
3E7C
  8
2-0
  6
CONTINUOUS
 62
     3
 10
17564.672164999989
 20
19565.022842999992
 30
0.0
 11
17564.672164999989
 21
19547.021100999991
 31
0.0
  0
LINE
  5
3E7D
  8
2-0
  6
CONTINUOUS
 62
     3
 10
17539.678762999989
 20
19565.022842999992
 30
0.0
 11
17564.672164999989
 21
19565.022842999992
 31
0.0
  0
LINE
  5
3E7E
  8
2-0
  6
CONTINUOUS
 62
     3
 10
17539.678762999989
 20
19560.014661000001
 30
0.0
 11
17539.678762999989
 21
19565.022842999992
 31
0.0
  0
LINE
  5
3E7F
  8
2-0
  6
CONTINUOUS
 62
     3
 10
17546.676360999962
 20
19560.014661000001
 30
0.0
 11
17539.678762999989
 21
19560.014661000001
 31
0.0
  0
LINE
  5
3E80
  8
2-0
  6
CONTINUOUS
 62
     3
 10
17646.970649999981
 20
19660.314888000001
 30
0.0
 11
17646.970649999981
 21
19667.320403999991
 31
0.0
  0
LINE
  5
3E81
  8
2-0
  6
CONTINUOUS
 62
     3
 10
17646.970649999981
 20
19667.320403999991
 30
0.0
 11
17641.968405999989
 21
19667.320403999991
 31
0.0
  0
LINE
  5
3E82
  8
2-0
  6
CONTINUOUS
 62
     3
 10
17641.968405999989
 20
19667.320403999991
 30
0.0
 11
17641.968405999989
 21
19642.311166999989
 31
0.0
  0
LINE
  5
3E83
  8
2-0
  6
CONTINUOUS
 62
     3
 10
17641.968405999989
 20
19642.311166999989
 30
0.0
 11
17659.976086999981
 21
19642.311166999989
 31
0.0
  0
LINE
  5
3E84
  8
2-0
  6
CONTINUOUS
 62
     3
 10
17659.976086999981
 20
19642.311166999989
 30
0.0
 11
17659.976086999981
 21
19672.314729999998
 31
0.0
  0
LINE
  5
3E85
  8
2-0
  6
CONTINUOUS
 62
     3
 10
17649.676650999991
 20
19672.314729999998
 30
0.0
 11
17534.674539999989
 21
19672.314729999998
 31
0.0
  0
LINE
  5
3E86
  8
2-0
  6
CONTINUOUS
 62
     3
 10
17649.676650999991
 20
19642.311166999989
 30
0.0
 11
17649.676650999991
 21
19672.314729999998
 31
0.0
  0
LINE
  5
3E87
  8
2-0
  6
CONTINUOUS
 62
     3
 10
17643.672771999991
 20
19642.311166999989
 30
0.0
 11
17649.676650999991
 21
19642.311166999989
 31
0.0
  0
LINE
  5
3E88
  8
2-0
  6
CONTINUOUS
 62
     3
 10
18350.76054349999
 20
19660.314888000001
 30
0.0
 11
18350.76054349999
 21
19667.320403999991
 31
0.0
  0
LINE
  5
3E89
  8
2-0
  6
CONTINUOUS
 62
     3
 10
18350.76054349999
 20
19667.320403999991
 30
0.0
 11
18345.760279499991
 21
19667.320403999991
 31
0.0
  0
LINE
  5
3E8A
  8
2-0
  6
CONTINUOUS
 62
     3
 10
18345.760279499991
 20
19667.320403999991
 30
0.0
 11
18345.760279499991
 21
19642.311166999989
 31
0.0
  0
LINE
  5
3E8B
  8
2-0
  6
CONTINUOUS
 62
     3
 10
18345.760279499991
 20
19642.311166999989
 30
0.0
 11
18363.765980499989
 21
19642.311166999989
 31
0.0
  0
LINE
  5
3E8C
  8
2-0
  6
CONTINUOUS
 62
     3
 10
18363.765980499989
 20
19642.311166999989
 30
0.0
 11
18363.765980499989
 21
19672.314729999998
 31
0.0
  0
LINE
  5
3E8D
  8
2-0
  6
CONTINUOUS
 62
     3
 10
18347.668535499961
 20
19642.311166999989
 30
0.0
 11
18353.670435499978
 21
19642.311166999989
 31
0.0
  0
LINE
  5
3E8E
  8
2-0
  6
CONTINUOUS
 62
     3
 10
18353.670435499978
 20
19642.311166999989
 30
0.0
 11
18353.670435499978
 21
19672.314729999998
 31
0.0
  0
LINE
  5
3E8F
  8
2-0
  6
CONTINUOUS
 62
     3
 10
18316.671254499961
 20
19672.314729999998
 30
0.0
 11
18353.670435499978
 21
19672.314729999998
 31
0.0
  0
LINE
  5
3E90
  8
2-0
  6
CONTINUOUS
 62
     3
 10
18316.671254499961
 20
19642.311166999989
 30
0.0
 11
18316.671254499961
 21
19672.314729999998
 31
0.0
  0
LINE
  5
3E91
  8
2-0
  6
CONTINUOUS
 62
     3
 10
18322.66523649999
 20
19642.311166999989
 30
0.0
 11
18316.671254499961
 21
19642.311166999989
 31
0.0
  0
LINE
  5
3E92
  8
2-0
  6
CONTINUOUS
 62
     3
 10
18306.575709499979
 20
19642.311166999989
 30
0.0
 11
18306.575709499979
 21
19672.314729999998
 31
0.0
  0
LINE
  5
3E93
  8
2-0
  6
CONTINUOUS
 62
     3
 10
18324.571512499992
 20
19642.311166999989
 30
0.0
 11
18306.575709499979
 21
19642.311166999989
 31
0.0
  0
LINE
  5
3E94
  8
2-0
  6
CONTINUOUS
 62
     3
 10
18324.571512499992
 20
19667.320403999991
 30
0.0
 11
18324.571512499992
 21
19642.311166999989
 31
0.0
  0
LINE
  5
3E95
  8
2-0
  6
CONTINUOUS
 62
     3
 10
18319.571248499989
 20
19667.320403999991
 30
0.0
 11
18324.571512499992
 21
19667.320403999991
 31
0.0
  0
LINE
  5
3E96
  8
2-0
  6
CONTINUOUS
 62
     3
 10
18319.571248499989
 20
19660.314888000001
 30
0.0
 11
18319.571248499989
 21
19667.320403999991
 31
0.0
  0
LINE
  5
3E97
  8
2-0
  6
CONTINUOUS
 62
     3
 10
19020.570259499978
 20
19660.314888000001
 30
0.0
 11
19020.570259499978
 21
19667.320403999991
 31
0.0
  0
LINE
  5
3E98
  8
2-0
  6
CONTINUOUS
 62
     3
 10
19020.570259499978
 20
19667.320403999991
 30
0.0
 11
19025.570522499991
 21
19667.320403999991
 31
0.0
  0
LINE
  5
3E99
  8
2-0
  6
CONTINUOUS
 62
     3
 10
19025.570522499991
 20
19667.320403999991
 30
0.0
 11
19025.570522499991
 21
19642.311166999989
 31
0.0
  0
LINE
  5
3E9A
  8
2-0
  6
CONTINUOUS
 62
     3
 10
19025.570522499991
 20
19642.311166999989
 30
0.0
 11
19007.576699499961
 21
19642.311166999989
 31
0.0
  0
LINE
  5
3E9B
  8
2-0
  6
CONTINUOUS
 62
     3
 10
19007.576699499961
 20
19642.311166999989
 30
0.0
 11
19007.576699499961
 21
19672.314729999998
 31
0.0
  0
LINE
  5
3E9C
  8
2-0
  6
CONTINUOUS
 62
     3
 10
19023.66820549998
 20
19642.311166999989
 30
0.0
 11
19017.67026449999
 21
19642.311166999989
 31
0.0
  0
LINE
  5
3E9D
  8
2-0
  6
CONTINUOUS
 62
     3
 10
19017.67026449999
 20
19642.311166999989
 30
0.0
 11
19017.67026449999
 21
19672.314729999998
 31
0.0
  0
LINE
  5
3E9E
  8
2-0
  6
CONTINUOUS
 62
     3
 10
19054.67142549999
 20
19672.314729999998
 30
0.0
 11
19017.67026449999
 21
19672.314729999998
 31
0.0
  0
LINE
  5
3E9F
  8
2-0
  6
CONTINUOUS
 62
     3
 10
19054.67142549999
 20
19642.311166999989
 30
0.0
 11
19054.67142549999
 21
19672.314729999998
 31
0.0
  0
LINE
  5
3EA0
  8
2-0
  6
CONTINUOUS
 62
     3
 10
19048.665566499982
 20
19642.311166999989
 30
0.0
 11
19054.67142549999
 21
19642.311166999989
 31
0.0
  0
LINE
  5
3EA1
  8
2-0
  6
CONTINUOUS
 62
     3
 10
19064.764990499982
 20
19642.311166999989
 30
0.0
 11
19064.764990499982
 21
19672.314729999998
 31
0.0
  0
LINE
  5
3EA2
  8
2-0
  6
CONTINUOUS
 62
     3
 10
19046.769187499991
 20
19642.311166999989
 30
0.0
 11
19064.764990499982
 21
19642.311166999989
 31
0.0
  0
LINE
  5
3EA3
  8
2-0
  6
CONTINUOUS
 62
     3
 10
19046.769187499991
 20
19667.320403999991
 30
0.0
 11
19046.769187499991
 21
19642.311166999989
 31
0.0
  0
LINE
  5
3EA4
  8
2-0
  6
CONTINUOUS
 62
     3
 10
19051.759553499978
 20
19667.320403999991
 30
0.0
 11
19046.769187499991
 21
19667.320403999991
 31
0.0
  0
LINE
  5
3EA5
  8
2-0
  6
CONTINUOUS
 62
     3
 10
19051.759553499978
 20
19660.314888000001
 30
0.0
 11
19051.759553499978
 21
19667.320403999991
 31
0.0
  0
LINE
  5
3EA6
  8
2-0
  6
CONTINUOUS
 62
     3
 10
18363.765980499989
 20
19672.314729999998
 30
0.0
 11
19007.576699499961
 21
19672.314729999998
 31
0.0
  0
LINE
  5
3EA7
  8
2-0
  6
CONTINUOUS
 62
     3
 10
17659.976086999981
 20
19672.314729999998
 30
0.0
 11
18306.575709499979
 21
19672.314729999998
 31
0.0
  0
LINE
  5
3EA8
  8
2-0
  6
CONTINUOUS
 62
     3
 10
20422.670977000002
 20
19672.314729999998
 30
0.0
 11
20422.670977000002
 21
19642.311166999989
 31
0.0
  0
LINE
  5
3EA9
  8
2-0
  6
CONTINUOUS
 62
     3
 10
20422.670977000002
 20
19642.311166999989
 30
0.0
 11
20428.674856000001
 21
19642.311166999989
 31
0.0
  0
LINE
  5
3EAA
  8
2-0
  6
CONTINUOUS
 62
     3
 10
20413.05447499999
 20
19642.311166999989
 30
0.0
 11
20413.05447499999
 21
19672.314729999998
 31
0.0
  0
LINE
  5
3EAB
  8
2-0
  6
CONTINUOUS
 62
     3
 10
20431.062155999989
 20
19642.311166999989
 30
0.0
 11
20413.05447499999
 21
19642.311166999989
 31
0.0
  0
LINE
  5
3EAC
  8
2-0
  6
CONTINUOUS
 62
     3
 10
20431.062155999989
 20
19667.320403999991
 30
0.0
 11
20431.062155999989
 21
19642.311166999989
 31
0.0
  0
LINE
  5
3EAD
  8
2-0
  6
CONTINUOUS
 62
     3
 10
20426.055952999988
 20
19667.320403999991
 30
0.0
 11
20431.062155999989
 21
19667.320403999991
 31
0.0
  0
LINE
  5
3EAE
  8
2-0
  6
CONTINUOUS
 62
     3
 10
20426.055952999988
 20
19660.314888000001
 30
0.0
 11
20426.055952999988
 21
19667.320403999991
 31
0.0
  0
LINE
  5
3EAF
  8
2-0
  6
CONTINUOUS
 62
     3
 10
20452.67454
 20
19669.422653000001
 30
0.0
 11
20452.67454
 21
19584.424104999998
 31
0.0
  0
LINE
  5
3EB0
  8
2-0
  6
CONTINUOUS
 62
     3
 10
20472.673615999989
 20
19669.422653000001
 30
0.0
 11
20452.67454
 21
19669.422653000001
 31
0.0
  0
LINE
  5
3EB1
  8
2-0
  6
CONTINUOUS
 62
     3
 10
20564.287714999999
 20
19660.314888000001
 30
0.0
 11
20564.287714999999
 21
19667.320403999991
 31
0.0
  0
LINE
  5
3EB2
  8
2-0
  6
CONTINUOUS
 62
     3
 10
20564.287714999999
 20
19667.320403999991
 30
0.0
 11
20559.28547200001
 21
19667.320403999991
 31
0.0
  0
LINE
  5
3EB3
  8
2-0
  6
CONTINUOUS
 62
     3
 10
20559.28547200001
 20
19667.320403999991
 30
0.0
 11
20559.28547200001
 21
19642.311166999989
 31
0.0
  0
LINE
  5
3EB4
  8
2-0
  6
CONTINUOUS
 62
     3
 10
20559.28547200001
 20
19642.311166999989
 30
0.0
 11
20577.28919299999
 21
19642.311166999989
 31
0.0
  0
LINE
  5
3EB5
  8
2-0
  6
CONTINUOUS
 62
     3
 10
20577.28919299999
 20
19642.311166999989
 30
0.0
 11
20577.28919299999
 21
19672.314729999998
 31
0.0
  0
LINE
  5
3EB6
  8
2-0
  6
CONTINUOUS
 62
     3
 10
20537.673087999989
 20
19669.422653000001
 30
0.0
 11
20517.670053000002
 21
19669.422653000001
 31
0.0
  0
LINE
  5
3EB7
  8
2-0
  6
CONTINUOUS
 62
     3
 10
20537.673087999989
 20
19584.424104999998
 30
0.0
 11
20537.673087999989
 21
19669.422653000001
 31
0.0
  0
LINE
  5
3EB8
  8
2-0
  6
CONTINUOUS
 62
     3
 10
20567.672692
 20
19642.311166999989
 30
0.0
 11
20561.67277099999
 21
19642.311166999989
 31
0.0
  0
LINE
  5
3EB9
  8
2-0
  6
CONTINUOUS
 62
     3
 10
20567.672692
 20
19672.314729999998
 30
0.0
 11
20567.672692
 21
19642.311166999989
 31
0.0
  0
LINE
  5
3EBA
  8
2-0
  6
CONTINUOUS
 62
     3
 10
20452.67454
 20
19584.424104999998
 30
0.0
 11
20537.673087999989
 21
19584.424104999998
 31
0.0
  0
LINE
  5
3EBB
  8
2-0
  6
CONTINUOUS
 62
     3
 10
20422.670977000002
 20
19672.314729999998
 30
0.0
 11
20567.672692
 21
19672.314729999998
 31
0.0
  0
LINE
  5
3EBC
  8
2-0
  6
CONTINUOUS
 62
     3
 10
20413.05447499999
 20
19672.314729999998
 30
0.0
 11
19765.768949999991
 21
19672.314729999998
 31
0.0
  0
LINE
  5
3EBD
  8
2-0
  6
CONTINUOUS
 62
     3
 10
19708.57669899999
 20
19672.314729999998
 30
0.0
 11
19064.764990499982
 21
19672.314729999998
 31
0.0
  0
LINE
  5
3EBE
  8
2-0
  6
CONTINUOUS
 62
     3
 10
17564.672164999989
 20
19563.314518999981
 30
0.0
 11
17564.672164999989
 21
19557.318556999991
 31
0.0
  0
LINE
  5
3EBF
  8
2-0
  6
CONTINUOUS
 62
     3
 10
17564.672164999989
 20
19557.318556999991
 30
0.0
 11
17534.674539999989
 21
19557.318556999991
 31
0.0
  0
LINE
  5
3EC0
  8
2-0
  6
CONTINUOUS
 62
     3
 10
17534.674539999989
 20
19557.318556999991
 30
0.0
 11
17534.674539999989
 21
19672.314729999998
 31
0.0
  0
LINE
  5
3EC1
  8
2-0
  6
CONTINUOUS
 62
     3
 10
17534.674539999989
 20
19587.318160999981
 30
0.0
 11
17615.672480999991
 21
19587.318160999981
 31
0.0
  0
LINE
  5
3EC2
  8
2-0
  6
CONTINUOUS
 62
     3
 10
17564.672164999989
 20
19547.021100999991
 30
0.0
 11
17534.674539999989
 21
19547.021100999991
 31
0.0
  0
LINE
  5
3EC3
  8
2-0
  6
CONTINUOUS
 62
     3
 10
17564.672164999989
 20
19565.022842999992
 30
0.0
 11
17564.672164999989
 21
19547.021100999991
 31
0.0
  0
LINE
  5
3EC4
  8
2-0
  6
CONTINUOUS
 62
     3
 10
17539.678762999989
 20
19565.022842999992
 30
0.0
 11
17564.672164999989
 21
19565.022842999992
 31
0.0
  0
LINE
  5
3EC5
  8
2-0
  6
CONTINUOUS
 62
     3
 10
17539.678762999989
 20
19560.014661000001
 30
0.0
 11
17539.678762999989
 21
19565.022842999992
 31
0.0
  0
LINE
  5
3EC6
  8
2-0
  6
CONTINUOUS
 62
     3
 10
17546.676360999962
 20
19560.014661000001
 30
0.0
 11
17539.678762999989
 21
19560.014661000001
 31
0.0
  0
LINE
  5
3EC7
  8
2-0
  6
CONTINUOUS
 62
     3
 10
17546.676360999962
 20
19206.717838499961
 30
0.0
 11
17539.678762999989
 21
19206.717838499961
 31
0.0
  0
LINE
  5
3EC8
  8
2-0
  6
CONTINUOUS
 62
     3
 10
17539.678762999989
 20
19206.717838499961
 30
0.0
 11
17539.678762999989
 21
19211.718102499981
 31
0.0
  0
LINE
  5
3EC9
  8
2-0
  6
CONTINUOUS
 62
     3
 10
17539.678762999989
 20
19211.718102499981
 30
0.0
 11
17564.672164999989
 21
19211.718102499981
 31
0.0
  0
LINE
  5
3ECA
  8
2-0
  6
CONTINUOUS
 62
     3
 10
17564.672164999989
 20
19211.718102499981
 30
0.0
 11
17564.672164999989
 21
19193.722298499961
 31
0.0
  0
LINE
  5
3ECB
  8
2-0
  6
CONTINUOUS
 62
     3
 10
17564.672164999989
 20
19193.722298499961
 30
0.0
 11
17534.674539999989
 21
19193.722298499961
 31
0.0
  0
LINE
  5
3ECC
  8
2-0
  6
CONTINUOUS
 62
     3
 10
17564.672164999989
 20
19209.813805499962
 30
0.0
 11
17564.672164999989
 21
19203.81586449996
 31
0.0
  0
LINE
  5
3ECD
  8
2-0
  6
CONTINUOUS
 62
     3
 10
17564.672164999989
 20
19203.81586449996
 30
0.0
 11
17534.674539999989
 21
19203.81586449996
 31
0.0
  0
LINE
  5
3ECE
  8
2-0
  6
CONTINUOUS
 62
     3
 10
17534.674539999989
 20
19203.81586449996
 30
0.0
 11
17534.674539999989
 21
19240.81702549995
 31
0.0
  0
LINE
  5
3ECF
  8
2-0
  6
CONTINUOUS
 62
     3
 10
17564.672164999989
 20
19240.81702549995
 30
0.0
 11
17534.674539999989
 21
19240.81702549995
 31
0.0
  0
LINE
  5
3ED0
  8
2-0
  6
CONTINUOUS
 62
     3
 10
17564.672164999989
 20
19234.813145499971
 30
0.0
 11
17564.672164999989
 21
19240.81702549995
 31
0.0
  0
LINE
  5
3ED1
  8
2-0
  6
CONTINUOUS
 62
     3
 10
17564.672164999989
 20
19250.912570499971
 30
0.0
 11
17534.674539999989
 21
19250.912570499971
 31
0.0
  0
LINE
  5
3ED2
  8
2-0
  6
CONTINUOUS
 62
     3
 10
17564.672164999989
 20
19232.91082849996
 30
0.0
 11
17564.672164999989
 21
19250.912570499971
 31
0.0
  0
LINE
  5
3ED3
  8
2-0
  6
CONTINUOUS
 62
     3
 10
17539.678762999989
 20
19232.91082849996
 30
0.0
 11
17564.672164999989
 21
19232.91082849996
 31
0.0
  0
LINE
  5
3ED4
  8
2-0
  6
CONTINUOUS
 62
     3
 10
17539.678762999989
 20
19237.91109249998
 30
0.0
 11
17539.678762999989
 21
19232.91082849996
 31
0.0
  0
LINE
  5
3ED5
  8
2-0
  6
CONTINUOUS
 62
     3
 10
17546.676360999962
 20
19237.91109249998
 30
0.0
 11
17539.678762999989
 21
19237.91109249998
 31
0.0
  0
LINE
  5
3ED6
  8
2-0
  6
CONTINUOUS
 62
     3
 10
17546.676360999962
 20
18505.71783899999
 30
0.0
 11
17539.678762999989
 21
18505.71783899999
 31
0.0
  0
LINE
  5
3ED7
  8
2-0
  6
CONTINUOUS
 62
     3
 10
17539.678762999989
 20
18505.71783899999
 30
0.0
 11
17539.678762999989
 21
18510.724040999969
 31
0.0
  0
LINE
  5
3ED8
  8
2-0
  6
CONTINUOUS
 62
     3
 10
17539.678762999989
 20
18510.724040999969
 30
0.0
 11
17564.672164999989
 21
18510.724040999969
 31
0.0
  0
LINE
  5
3ED9
  8
2-0
  6
CONTINUOUS
 62
     3
 10
17564.672164999989
 20
18510.724040999969
 30
0.0
 11
17564.672164999989
 21
18492.722298999979
 31
0.0
  0
LINE
  5
3EDA
  8
2-0
  6
CONTINUOUS
 62
     3
 10
17564.672164999989
 20
18492.722298999979
 30
0.0
 11
17534.674539999989
 21
18492.722298999979
 31
0.0
  0
LINE
  5
3EDB
  8
2-0
  6
CONTINUOUS
 62
     3
 10
17564.672164999989
 20
18508.813805999969
 30
0.0
 11
17564.672164999989
 21
18502.817843999968
 31
0.0
  0
LINE
  5
3EDC
  8
2-0
  6
CONTINUOUS
 62
     3
 10
17564.672164999989
 20
18502.817843999968
 30
0.0
 11
17534.674539999989
 21
18502.817843999968
 31
0.0
  0
LINE
  5
3EDD
  8
2-0
  6
CONTINUOUS
 62
     3
 10
17534.674539999989
 20
18502.817843999968
 30
0.0
 11
17534.674539999989
 21
18539.817025999961
 31
0.0
  0
LINE
  5
3EDE
  8
2-0
  6
CONTINUOUS
 62
     3
 10
17564.672164999989
 20
18539.817025999961
 30
0.0
 11
17534.674539999989
 21
18539.817025999961
 31
0.0
  0
LINE
  5
3EDF
  8
2-0
  6
CONTINUOUS
 62
     3
 10
17564.672164999989
 20
18533.821063999982
 30
0.0
 11
17564.672164999989
 21
18539.817025999961
 31
0.0
  0
LINE
  5
3EE0
  8
2-0
  6
CONTINUOUS
 62
     3
 10
17564.672164999989
 20
18549.91257099999
 30
0.0
 11
17534.674539999989
 21
18549.91257099999
 31
0.0
  0
LINE
  5
3EE1
  8
2-0
  6
CONTINUOUS
 62
     3
 10
17564.672164999989
 20
18531.91082899996
 30
0.0
 11
17564.672164999989
 21
18549.91257099999
 31
0.0
  0
LINE
  5
3EE2
  8
2-0
  6
CONTINUOUS
 62
     3
 10
17539.678762999989
 20
18531.91082899996
 30
0.0
 11
17564.672164999989
 21
18531.91082899996
 31
0.0
  0
LINE
  5
3EE3
  8
2-0
  6
CONTINUOUS
 62
     3
 10
17539.678762999989
 20
18536.91703099995
 30
0.0
 11
17539.678762999989
 21
18531.91082899996
 31
0.0
  0
LINE
  5
3EE4
  8
2-0
  6
CONTINUOUS
 62
     3
 10
17546.676360999962
 20
18536.91703099995
 30
0.0
 11
17539.678762999989
 21
18536.91703099995
 31
0.0
  0
LINE
  5
3EE5
  8
2-0
  6
CONTINUOUS
 62
     3
 10
17546.676360999962
 20
17835.910102999991
 30
0.0
 11
17539.678762999989
 21
17835.910102999991
 31
0.0
  0
LINE
  5
3EE6
  8
2-0
  6
CONTINUOUS
 62
     3
 10
17539.678762999989
 20
17835.910102999991
 30
0.0
 11
17539.678762999989
 21
17830.921715999972
 31
0.0
  0
LINE
  5
3EE7
  8
2-0
  6
CONTINUOUS
 62
     3
 10
17539.678762999989
 20
17830.921715999972
 30
0.0
 11
17564.672164999989
 21
17830.921715999972
 31
0.0
  0
LINE
  5
3EE8
  8
2-0
  6
CONTINUOUS
 62
     3
 10
17564.672164999989
 20
17830.921715999972
 30
0.0
 11
17564.672164999989
 21
17848.917518999991
 31
0.0
  0
LINE
  5
3EE9
  8
2-0
  6
CONTINUOUS
 62
     3
 10
17564.672164999989
 20
17848.917518999991
 30
0.0
 11
17534.674539999989
 21
17848.917518999991
 31
0.0
  0
LINE
  5
3EEA
  8
2-0
  6
CONTINUOUS
 62
     3
 10
17564.672164999989
 20
17832.820073999981
 30
0.0
 11
17564.672164999989
 21
17838.816035999971
 31
0.0
  0
LINE
  5
3EEB
  8
2-0
  6
CONTINUOUS
 62
     3
 10
17564.672164999989
 20
17838.816035999971
 30
0.0
 11
17534.674539999989
 21
17838.816035999971
 31
0.0
  0
LINE
  5
3EEC
  8
2-0
  6
CONTINUOUS
 62
     3
 10
17534.674539999989
 20
17838.816035999971
 30
0.0
 11
17534.674539999989
 21
17801.816853999961
 31
0.0
  0
LINE
  5
3EED
  8
2-0
  6
CONTINUOUS
 62
     3
 10
17564.672164999989
 20
17801.816853999961
 30
0.0
 11
17534.674539999989
 21
17801.816853999961
 31
0.0
  0
LINE
  5
3EEE
  8
2-0
  6
CONTINUOUS
 62
     3
 10
17564.672164999989
 20
17807.818754999978
 30
0.0
 11
17564.672164999989
 21
17801.816853999961
 31
0.0
  0
LINE
  5
3EEF
  8
2-0
  6
CONTINUOUS
 62
     3
 10
17564.672164999989
 20
17791.727247999981
 30
0.0
 11
17534.674539999989
 21
17791.727247999981
 31
0.0
  0
LINE
  5
3EF0
  8
2-0
  6
CONTINUOUS
 62
     3
 10
17564.672164999989
 20
17809.723050999972
 30
0.0
 11
17564.672164999989
 21
17791.727247999981
 31
0.0
  0
LINE
  5
3EF1
  8
2-0
  6
CONTINUOUS
 62
     3
 10
17539.678762999989
 20
17809.723050999972
 30
0.0
 11
17564.672164999989
 21
17809.723050999972
 31
0.0
  0
LINE
  5
3EF2
  8
2-0
  6
CONTINUOUS
 62
     3
 10
17539.678762999989
 20
17804.722787999981
 30
0.0
 11
17539.678762999989
 21
17809.723050999972
 31
0.0
  0
LINE
  5
3EF3
  8
2-0
  6
CONTINUOUS
 62
     3
 10
17546.676360999962
 20
17804.722787999981
 30
0.0
 11
17539.678762999989
 21
17804.722787999981
 31
0.0
  0
LINE
  5
3EF4
  8
2-0
  6
CONTINUOUS
 62
     3
 10
17537.560677999991
 20
17084.813673999972
 30
0.0
 11
17537.560677999991
 21
17104.814728999969
 31
0.0
  0
LINE
  5
3EF5
  8
2-0
  6
CONTINUOUS
 62
     3
 10
17537.560677999991
 20
17104.814728999969
 30
0.0
 11
17622.561205999991
 21
17104.814728999969
 31
0.0
  0
LINE
  5
3EF6
  8
2-0
  6
CONTINUOUS
 62
     3
 10
17546.676360999962
 20
17131.421438999991
 30
0.0
 11
17539.678762999989
 21
17131.421438999991
 31
0.0
  0
LINE
  5
3EF7
  8
2-0
  6
CONTINUOUS
 62
     3
 10
17539.678762999989
 20
17131.421438999991
 30
0.0
 11
17539.678762999989
 21
17126.427112999991
 31
0.0
  0
LINE
  5
3EF8
  8
2-0
  6
CONTINUOUS
 62
     3
 10
17539.678762999989
 20
17126.427112999991
 30
0.0
 11
17564.672164999989
 21
17126.427112999991
 31
0.0
  0
LINE
  5
3EF9
  8
2-0
  6
CONTINUOUS
 62
     3
 10
17564.672164999989
 20
17126.427112999991
 30
0.0
 11
17564.672164999989
 21
17144.422916999989
 31
0.0
  0
LINE
  5
3EFA
  8
2-0
  6
CONTINUOUS
 62
     3
 10
17564.672164999989
 20
17144.422916999989
 30
0.0
 11
17534.674539999989
 21
17144.422916999989
 31
0.0
  0
LINE
  5
3EFB
  8
2-0
  6
CONTINUOUS
 62
     3
 10
17564.672164999989
 20
17134.81433299998
 30
0.0
 11
17564.672164999989
 21
17128.812432999981
 31
0.0
  0
LINE
  5
3EFC
  8
2-0
  6
CONTINUOUS
 62
     3
 10
17534.674539999989
 20
17134.81433299998
 30
0.0
 11
17564.672164999989
 21
17134.81433299998
 31
0.0
  0
LINE
  5
3EFD
  8
2-0
  6
CONTINUOUS
 62
     3
 10
17534.674539999989
 20
17144.422916999989
 30
0.0
 11
17534.674539999989
 21
17791.727247999981
 31
0.0
  0
LINE
  5
3EFE
  8
2-0
  6
CONTINUOUS
 62
     3
 10
17534.674539999989
 20
17848.917518999991
 30
0.0
 11
17534.674539999989
 21
18492.722298999979
 31
0.0
  0
LINE
  5
3EFF
  8
2-0
  6
CONTINUOUS
 62
     3
 10
17534.674539999989
 20
16989.812617999989
 30
0.0
 11
17564.672164999989
 21
16989.812617999989
 31
0.0
  0
LINE
  5
3F00
  8
2-0
  6
CONTINUOUS
 62
     3
 10
17564.672164999989
 20
16989.812617999989
 30
0.0
 11
17564.672164999989
 21
16995.814517999981
 31
0.0
  0
LINE
  5
3F01
  8
2-0
  6
CONTINUOUS
 62
     3
 10
17622.561205999991
 20
17019.818160999981
 30
0.0
 11
17537.560677999991
 21
17019.818160999981
 31
0.0
  0
LINE
  5
3F02
  8
2-0
  6
CONTINUOUS
 62
     3
 10
17537.560677999991
 20
17019.818160999981
 30
0.0
 11
17537.560677999991
 21
17039.813277999991
 31
0.0
  0
LINE
  5
3F03
  8
2-0
  6
CONTINUOUS
 62
     3
 10
17564.672164999989
 20
16980.204034999992
 30
0.0
 11
17534.674539999989
 21
16980.204034999992
 31
0.0
  0
LINE
  5
3F04
  8
2-0
  6
CONTINUOUS
 62
     3
 10
17564.672164999989
 20
16998.199837999979
 30
0.0
 11
17564.672164999989
 21
16980.204034999992
 31
0.0
  0
LINE
  5
3F05
  8
2-0
  6
CONTINUOUS
 62
     3
 10
17539.678762999989
 20
16998.199837999979
 30
0.0
 11
17564.672164999989
 21
16998.199837999979
 31
0.0
  0
LINE
  5
3F06
  8
2-0
  6
CONTINUOUS
 62
     3
 10
17539.678762999989
 20
16993.199573999991
 30
0.0
 11
17539.678762999989
 21
16998.199837999979
 31
0.0
  0
LINE
  5
3F07
  8
2-0
  6
CONTINUOUS
 62
     3
 10
17546.676360999962
 20
16993.199573999991
 30
0.0
 11
17539.678762999989
 21
16993.199573999991
 31
0.0
  0
LINE
  5
3F08
  8
2-0
  6
CONTINUOUS
 62
     3
 10
17546.676360999962
 20
16288.717343499949
 30
0.0
 11
17539.678762999989
 21
16288.717343499949
 31
0.0
  0
LINE
  5
3F09
  8
2-0
  6
CONTINUOUS
 62
     3
 10
17539.678762999989
 20
16288.717343499949
 30
0.0
 11
17539.678762999989
 21
16293.717607499961
 31
0.0
  0
LINE
  5
3F0A
  8
2-0
  6
CONTINUOUS
 62
     3
 10
17539.678762999989
 20
16293.717607499961
 30
0.0
 11
17564.672164999989
 21
16293.717607499961
 31
0.0
  0
LINE
  5
3F0B
  8
2-0
  6
CONTINUOUS
 62
     3
 10
17564.672164999989
 20
16293.717607499961
 30
0.0
 11
17564.672164999989
 21
16275.71586549998
 31
0.0
  0
LINE
  5
3F0C
  8
2-0
  6
CONTINUOUS
 62
     3
 10
17564.672164999989
 20
16275.71586549998
 30
0.0
 11
17534.674539999989
 21
16275.71586549998
 31
0.0
  0
LINE
  5
3F0D
  8
2-0
  6
CONTINUOUS
 62
     3
 10
17564.672164999989
 20
16291.81331049998
 30
0.0
 11
17564.672164999989
 21
16285.816359499981
 31
0.0
  0
LINE
  5
3F0E
  8
2-0
  6
CONTINUOUS
 62
     3
 10
17564.672164999989
 20
16285.816359499981
 30
0.0
 11
17534.674539999989
 21
16285.816359499981
 31
0.0
  0
LINE
  5
3F0F
  8
2-0
  6
CONTINUOUS
 62
     3
 10
17534.674539999989
 20
16285.816359499981
 30
0.0
 11
17534.674539999989
 21
16322.81653049998
 31
0.0
  0
LINE
  5
3F10
  8
2-0
  6
CONTINUOUS
 62
     3
 10
17564.672164999989
 20
16322.81653049998
 30
0.0
 11
17534.674539999989
 21
16322.81653049998
 31
0.0
  0
LINE
  5
3F11
  8
2-0
  6
CONTINUOUS
 62
     3
 10
17564.672164999989
 20
16316.81364049998
 30
0.0
 11
17564.672164999989
 21
16322.81653049998
 31
0.0
  0
LINE
  5
3F12
  8
2-0
  6
CONTINUOUS
 62
     3
 10
17564.672164999989
 20
16332.91207549998
 30
0.0
 11
17534.674539999989
 21
16332.91207549998
 31
0.0
  0
LINE
  5
3F13
  8
2-0
  6
CONTINUOUS
 62
     3
 10
17564.672164999989
 20
16314.904394499979
 30
0.0
 11
17564.672164999989
 21
16332.91207549998
 31
0.0
  0
LINE
  5
3F14
  8
2-0
  6
CONTINUOUS
 62
     3
 10
17539.678762999989
 20
16314.904394499979
 30
0.0
 11
17564.672164999989
 21
16314.904394499979
 31
0.0
  0
LINE
  5
3F15
  8
2-0
  6
CONTINUOUS
 62
     3
 10
17539.678762999989
 20
16319.91059749998
 30
0.0
 11
17539.678762999989
 21
16314.904394499979
 31
0.0
  0
LINE
  5
3F16
  8
2-0
  6
CONTINUOUS
 62
     3
 10
17546.676360999962
 20
16319.91059749998
 30
0.0
 11
17539.678762999989
 21
16319.91059749998
 31
0.0
  0
LINE
  5
3F17
  8
2-0
  6
CONTINUOUS
 62
     3
 10
17546.676360999962
 20
15619.15061399998
 30
0.0
 11
17539.678762999989
 21
15619.15061399998
 31
0.0
  0
LINE
  5
3F18
  8
2-0
  6
CONTINUOUS
 62
     3
 10
17539.678762999989
 20
15619.15061399998
 30
0.0
 11
17539.678762999989
 21
15614.15628899999
 31
0.0
  0
LINE
  5
3F19
  8
2-0
  6
CONTINUOUS
 62
     3
 10
17539.678762999989
 20
15614.15628899999
 30
0.0
 11
17564.672164999989
 21
15614.15628899999
 31
0.0
  0
LINE
  5
3F1A
  8
2-0
  6
CONTINUOUS
 62
     3
 10
17564.672164999989
 20
15614.15628899999
 30
0.0
 11
17564.672164999989
 21
15632.152092
 31
0.0
  0
LINE
  5
3F1B
  8
2-0
  6
CONTINUOUS
 62
     3
 10
17564.672164999989
 20
15632.152092
 30
0.0
 11
17534.674539999989
 21
15632.152092
 31
0.0
  0
LINE
  5
3F1C
  8
2-0
  6
CONTINUOUS
 62
     3
 10
17564.672164999989
 20
15616.05464699999
 30
0.0
 11
17564.672164999989
 21
15622.056547
 31
0.0
  0
LINE
  5
3F1D
  8
2-0
  6
CONTINUOUS
 62
     3
 10
17564.672164999989
 20
15622.056547
 30
0.0
 11
17534.674539999989
 21
15622.056547
 31
0.0
  0
LINE
  5
3F1E
  8
2-0
  6
CONTINUOUS
 62
     3
 10
17534.674539999989
 20
15585.05736599999
 30
0.0
 11
17534.674539999989
 21
15622.056547
 31
0.0
  0
LINE
  5
3F1F
  8
2-0
  6
CONTINUOUS
 62
     3
 10
17564.672164999989
 20
15585.05736599999
 30
0.0
 11
17534.674539999989
 21
15585.05736599999
 31
0.0
  0
LINE
  5
3F20
  8
2-0
  6
CONTINUOUS
 62
     3
 10
17564.672164999989
 20
15591.05431699998
 30
0.0
 11
17564.672164999989
 21
15585.05736599999
 31
0.0
  0
LINE
  5
3F21
  8
2-0
  6
CONTINUOUS
 62
     3
 10
17564.672164999989
 20
15574.95588199998
 30
0.0
 11
17534.674539999989
 21
15574.95588199998
 31
0.0
  0
LINE
  5
3F22
  8
2-0
  6
CONTINUOUS
 62
     3
 10
17564.672164999989
 20
15592.963562999979
 30
0.0
 11
17564.672164999989
 21
15574.95588199998
 31
0.0
  0
LINE
  5
3F23
  8
2-0
  6
CONTINUOUS
 62
     3
 10
17539.678762999989
 20
15592.963562999979
 30
0.0
 11
17564.672164999989
 21
15592.963562999979
 31
0.0
  0
LINE
  5
3F24
  8
2-0
  6
CONTINUOUS
 62
     3
 10
17539.678762999989
 20
15587.963298999999
 30
0.0
 11
17539.678762999989
 21
15592.963562999979
 31
0.0
  0
LINE
  5
3F25
  8
2-0
  6
CONTINUOUS
 62
     3
 10
17546.676360999962
 20
15587.963298999999
 30
0.0
 11
17539.678762999989
 21
15587.963298999999
 31
0.0
  0
LINE
  5
3F26
  8
2-0
  6
CONTINUOUS
 62
     3
 10
17534.674539999989
 20
16980.204034999992
 30
0.0
 11
17534.674539999989
 21
16332.91207549998
 31
0.0
  0
LINE
  5
3F27
  8
2-0
  6
CONTINUOUS
 62
     3
 10
17534.674539999989
 20
17134.81433299998
 30
0.0
 11
17534.674539999989
 21
16989.812617999989
 31
0.0
  0
LINE
  5
3F28
  8
2-0
  6
CONTINUOUS
 62
     3
 10
17622.561205999991
 20
17104.814728999969
 30
0.0
 11
17622.561205999991
 21
17019.818160999981
 31
0.0
  0
LINE
  5
3F29
  8
2-0
  6
CONTINUOUS
 62
     3
 10
17546.676360999962
 20
14886.72229199998
 30
0.0
 11
17539.678762999989
 21
14886.72229199998
 31
0.0
  0
LINE
  5
3F2A
  8
2-0
  6
CONTINUOUS
 62
     3
 10
17539.678762999989
 20
14886.72229199998
 30
0.0
 11
17539.678762999989
 21
14891.71661799998
 31
0.0
  0
LINE
  5
3F2B
  8
2-0
  6
CONTINUOUS
 62
     3
 10
17539.678762999989
 20
14891.71661799998
 30
0.0
 11
17564.672164999989
 21
14891.71661799998
 31
0.0
  0
LINE
  5
3F2C
  8
2-0
  6
CONTINUOUS
 62
     3
 10
17564.672164999989
 20
14891.71661799998
 30
0.0
 11
17564.672164999989
 21
14873.720813999969
 31
0.0
  0
LINE
  5
3F2D
  8
2-0
  6
CONTINUOUS
 62
     3
 10
17564.672164999989
 20
14873.720813999969
 30
0.0
 11
17534.674539999989
 21
14873.720813999969
 31
0.0
  0
LINE
  5
3F2E
  8
2-0
  6
CONTINUOUS
 62
     3
 10
17564.672164999989
 20
14889.81924899998
 30
0.0
 11
17564.672164999989
 21
14883.81635899998
 31
0.0
  0
LINE
  5
3F2F
  8
2-0
  6
CONTINUOUS
 62
     3
 10
17564.672164999989
 20
14883.81635899998
 30
0.0
 11
17534.674539999989
 21
14883.81635899998
 31
0.0
  0
LINE
  5
3F30
  8
2-0
  6
CONTINUOUS
 62
     3
 10
17534.674539999989
 20
14883.81635899998
 30
0.0
 11
17534.674539999989
 21
14920.816530999949
 31
0.0
  0
LINE
  5
3F31
  8
2-0
  6
CONTINUOUS
 62
     3
 10
17564.672164999989
 20
14920.816530999949
 30
0.0
 11
17534.674539999989
 21
14920.816530999949
 31
0.0
  0
LINE
  5
3F32
  8
2-0
  6
CONTINUOUS
 62
     3
 10
17564.672164999989
 20
14914.819578999981
 30
0.0
 11
17564.672164999989
 21
14920.816530999949
 31
0.0
  0
LINE
  5
3F33
  8
2-0
  6
CONTINUOUS
 62
     3
 10
17564.672164999989
 20
14930.91702399998
 30
0.0
 11
17534.674539999989
 21
14930.91702399998
 31
0.0
  0
LINE
  5
3F34
  8
2-0
  6
CONTINUOUS
 62
     3
 10
17564.672164999989
 20
14912.910332999991
 30
0.0
 11
17564.672164999989
 21
14930.91702399998
 31
0.0
  0
LINE
  5
3F35
  8
2-0
  6
CONTINUOUS
 62
     3
 10
17539.678762999989
 20
14912.910332999991
 30
0.0
 11
17564.672164999989
 21
14912.910332999991
 31
0.0
  0
LINE
  5
3F36
  8
2-0
  6
CONTINUOUS
 62
     3
 10
17539.678762999989
 20
14917.91554599998
 30
0.0
 11
17539.678762999989
 21
14912.910332999991
 31
0.0
  0
LINE
  5
3F37
  8
2-0
  6
CONTINUOUS
 62
     3
 10
17546.676360999962
 20
14917.91554599998
 30
0.0
 11
17539.678762999989
 21
14917.91554599998
 31
0.0
  0
LINE
  5
3F38
  8
2-0
  6
CONTINUOUS
 62
     3
 10
17564.672164999989
 20
14561.31837199998
 30
0.0
 11
17564.672164999989
 21
14567.32324099998
 31
0.0
  0
LINE
  5
3F39
  8
2-0
  6
CONTINUOUS
 62
     3
 10
17564.672164999989
 20
14567.32324099998
 30
0.0
 11
17534.674539999989
 21
14567.32324099998
 31
0.0
  0
LINE
  5
3F3A
  8
2-0
  6
CONTINUOUS
 62
     3
 10
17534.674539999989
 20
14567.32324099998
 30
0.0
 11
17534.674539999989
 21
14452.319149999979
 31
0.0
  0
LINE
  5
3F3B
  8
2-0
  6
CONTINUOUS
 62
     3
 10
17534.674539999989
 20
14452.319149999979
 30
0.0
 11
17619.673087999989
 21
14452.319149999979
 31
0.0
  0
LINE
  5
3F3C
  8
2-0
  6
CONTINUOUS
 62
     3
 10
17619.673087999989
 20
14452.319149999979
 30
0.0
 11
17619.673087999989
 21
14537.314728999971
 31
0.0
  0
LINE
  5
3F3D
  8
2-0
  6
CONTINUOUS
 62
     3
 10
17619.673087999989
 20
14537.314728999971
 30
0.0
 11
17587.676149999981
 21
14537.314728999971
 31
0.0
  0
LINE
  5
3F3E
  8
2-0
  6
CONTINUOUS
 62
     3
 10
17546.676360999962
 20
14564.352973999979
 30
0.0
 11
17539.678762999989
 21
14564.352973999979
 31
0.0
  0
LINE
  5
3F3F
  8
2-0
  6
CONTINUOUS
 62
     3
 10
17539.678762999989
 20
14564.352973999979
 30
0.0
 11
17539.678762999989
 21
14559.355678999949
 31
0.0
  0
LINE
  5
3F40
  8
2-0
  6
CONTINUOUS
 62
     3
 10
17539.678762999989
 20
14559.355678999949
 30
0.0
 11
17564.672164999989
 21
14559.355678999949
 31
0.0
  0
LINE
  5
3F41
  8
2-0
  6
CONTINUOUS
 62
     3
 10
17564.672164999989
 20
14559.355678999949
 30
0.0
 11
17564.672164999989
 21
14577.35445199998
 31
0.0
  0
LINE
  5
3F42
  8
2-0
  6
CONTINUOUS
 62
     3
 10
17564.672164999989
 20
14577.35445199998
 30
0.0
 11
17534.674539999989
 21
14577.35445199998
 31
0.0
  0
LINE
  5
3F43
  8
2-0
  6
CONTINUOUS
 62
     3
 10
17534.674539999989
 20
14930.91702399998
 30
0.0
 11
17534.674539999989
 21
15574.95588199998
 31
0.0
  0
LINE
  5
3F44
  8
2-0
  6
CONTINUOUS
 62
     3
 10
17534.674539999989
 20
18549.91257099999
 30
0.0
 11
17534.674539999989
 21
19193.722298499961
 31
0.0
  0
LINE
  5
3F45
  8
2-0
  6
CONTINUOUS
 62
     3
 10
17534.674539999989
 20
16275.71586549998
 30
0.0
 11
17534.674539999989
 21
15632.152092
 31
0.0
  0
LINE
  5
3F46
  8
2-0
  6
CONTINUOUS
 62
     3
 10
25955.674407999959
 20
19557.318556999991
 30
0.0
 11
25955.674407999959
 21
19672.314729999998
 31
0.0
  0
LINE
  5
3F47
  8
2-0
  6
CONTINUOUS
 62
     3
 10
21975.136137000001
 20
17326.027487999982
 30
0.0
 11
21817.255674
 21
17445.111367000001
 31
0.0
  0
LINE
  5
3F48
  8
2-0
  6
CONTINUOUS
 62
     3
 10
22363.098024999999
 20
17409.159350999991
 30
0.0
 11
22117.255674
 21
17594.594712999999
 31
0.0
  0
LINE
  5
3F49
  8
2-0
  6
CONTINUOUS
 62
     3
 10
22117.255674
 20
16524.714408
 30
0.0
 11
21757.147592000001
 21
16796.341968000001
 31
0.0
  0
LINE
  5
3F4A
  8
2-0
  6
CONTINUOUS
 62
     3
 10
21757.147592000001
 20
16796.341968000001
 30
0.0
 11
22363.098024999999
 21
17409.159350999991
 31
0.0
  0
LINE
  5
3F4B
  8
2-0
  6
CONTINUOUS
 62
     3
 10
21817.255674
 20
16375.23205199999
 30
0.0
 11
21369.183724999992
 21
16713.212084999981
 31
0.0
  0
LINE
  5
3F4C
  8
2-0
  6
CONTINUOUS
 62
     3
 10
21975.136137000001
 20
17326.027487999982
 30
0.0
 11
21369.183724999992
 21
16713.212084999981
 31
0.0
  0
LINE
  5
3F4D
  8
2-0
  6
CONTINUOUS
 62
     3
 10
22117.255674
 20
19779.036514999989
 30
0.0
 11
22117.255674
 21
19973.522236000001
 31
0.0
  0
LINE
  5
3F4E
  8
2-0
  6
CENTER2
 62
     6
 10
16247.71626799998
 20
19629.816444999949
 30
0.0
 11
26805.675727999958
 21
19629.816444999949
 31
0.0
  0
LINE
  5
3F4F
  8
2-0
  6
CENTER2
 62
     6
 10
16247.71626799998
 20
17062.316444999979
 30
0.0
 11
26805.675727999958
 21
17062.316444999979
 31
0.0
  0
LINE
  5
3F50
  8
2-0
  6
CENTER2
 62
     6
 10
16247.71626799998
 20
14494.81644499998
 30
0.0
 11
26805.675727999958
 21
14494.81644499998
 31
0.0
  0
LINE
  5
3F51
  8
2-0
  6
CONTINUOUS
 62
     3
 10
21817.255674
 20
19587.318160999981
 30
0.0
 11
17534.674539999989
 21
19587.318160999981
 31
0.0
  0
LINE
  5
3F52
  8
2-0
  6
CONTINUOUS
 62
     3
 10
22117.255674
 20
19587.318160999981
 30
0.0
 11
25874.67250799996
 21
19587.318160999981
 31
0.0
  0
LINE
  5
3F53
  8
2-0
  6
CENTER2
 62
     6
 10
17577.170844999979
 20
20872.314729999998
 30
0.0
 11
17577.170844999979
 21
13869.05301099998
 31
0.0
  0
LINE
  5
3F54
  8
2-0
  6
CENTER2
 62
     6
 10
25913.176123999961
 20
20872.314729999998
 30
0.0
 11
25913.176123999961
 21
13869.05301099998
 31
0.0
  0
LINE
  5
3F55
  8
2-0
  6
CONTINUOUS
 62
     3
 10
25955.674407999959
 20
19547.021100999991
 30
0.0
 11
25955.674407999959
 21
19250.912570499971
 31
0.0
  0
LINE
  5
3F56
  8
2-0
  6
CONTINUOUS
 62
     3
 10
21817.255674
 20
17445.111367000001
 30
0.0
 11
21817.255674
 21
19973.522236000001
 31
0.0
  0
LINE
  5
3F57
  8
2-0
  6
CONTINUOUS
 62
     3
 10
22117.255674
 20
17594.594712999999
 30
0.0
 11
22117.255674
 21
19779.036514999989
 31
0.0
  0
LINE
  5
3F58
  8
2-0
  6
CONTINUOUS
 62
     3
 10
17534.674539999989
 20
19547.021100999991
 30
0.0
 11
17534.674539999989
 21
19250.912570499971
 31
0.0
  0
LINE
  5
3F59
  8
2-0
  6
CONTINUOUS
 62
     3
 10
21817.255674
 20
16375.23205199999
 30
0.0
 11
21817.255674
 21
14303.411843999969
 31
0.0
  0
LINE
  5
3F5A
  8
2-0
  6
CONTINUOUS
 62
     3
 10
22117.255674
 20
16524.714408
 30
0.0
 11
22117.255674
 21
14303.411843999969
 31
0.0
  0
LINE
  5
3F5B
  8
2-0
  6
CENTER2
 62
     6
 10
22995.176123999961
 20
20872.314729999998
 30
0.0
 11
22995.176123999961
 21
14303.411843999969
 31
0.0
  0
LINE
  5
3F5C
  8
2-0
  6
CENTER2
 62
     6
 10
20495.17084499999
 20
20872.314729999998
 30
0.0
 11
20495.17084499999
 21
14303.411843999969
 31
0.0
  0
LINE
  5
3F5D
  8
2-0
  6
CONTINUOUS
 62
     3
 10
17534.674539999989
 20
14577.35445199998
 30
0.0
 11
17534.674539999982
 21
14873.720813999969
 31
0.0
  0
LINE
  5
3F5E
  8
2-0
  6
CONTINUOUS
 62
     3
 10
17615.672480999991
 20
14537.314728999971
 30
0.0
 11
17615.672480999991
 21
19672.314729999998
 31
0.0
  0
LINE
  5
3F5F
  8
2-0
  6
CONTINUOUS
 62
     3
 10
25955.674407999959
 20
14577.35445199998
 30
0.0
 11
25955.674407999959
 21
14873.720813999969
 31
0.0
  0
LINE
  5
3F60
  8
2-0
  6
CONTINUOUS
 62
     3
 10
25874.67250799996
 20
14537.314728999971
 30
0.0
 11
25874.67250799996
 21
19672.314729999998
 31
0.0
  0
CIRCLE
  5
3F79
  8
0-5
  6
CONTINUOUS
 62
     4
 10
25913.176123999961
 20
4072.7289510000001
 30
0.0
 40
199.9999949999999
  0
CIRCLE
  5
3F7A
  8
0-5
  6
CONTINUOUS
 62
     4
 10
22995.176123999961
 20
4072.7289510000001
 30
0.0
 40
199.9999949999999
  0
CIRCLE
  5
3F7B
  8
0-5
  6
CONTINUOUS
 62
     4
 10
20495.17084499999
 20
4072.7289510000001
 30
0.0
 40
199.9999949999999
  0
CIRCLE
  5
3F7C
  8
0-5
  6
CONTINUOUS
 62
     4
 10
17577.170844999979
 20
4072.7289510000001
 30
0.0
 40
199.9999949999999
  0
CIRCLE
  5
3F7D
  8
2-0
  6
CONTINUOUS
 62
     4
 10
16047.718577999991
 20
19629.816444999949
 30
0.0
 40
200.00001
  0
CIRCLE
  5
3F7E
  8
2-0
  6
CONTINUOUS
 62
     4
 10
16047.718577999991
 20
17062.316444999979
 30
0.0
 40
200.00001
  0
CIRCLE
  5
3F7F
  8
2-0
  6
CONTINUOUS
 62
     4
 10
16047.718577999991
 20
14494.81644499998
 30
0.0
 40
200.00001
  0
CIRCLE
  5
3F80
  8
2-0
  6
CONTINUOUS
 62
     4
 10
20495.17084499999
 20
21072.319349000001
 30
0.0
 40
200.00001
  0
CIRCLE
  5
3F81
  8
2-0
  6
CONTINUOUS
 62
     4
 10
17577.170844999979
 20
21072.319349000001
 30
0.0
 40
200.00001
  0
CIRCLE
  5
3F82
  8
2-0
  6
CONTINUOUS
 62
     4
 10
22995.176123999961
 20
21072.319349000001
 30
0.0
 40
200.00001
  0
CIRCLE
  5
3F83
  8
2-0
  6
CONTINUOUS
 62
     4
 10
25913.176123999961
 20
21072.319349000001
 30
0.0
 40
200.00001
  0
TEXT
  5
3F84
  8
0-5
  6
CONTINUOUS
 62
     7
 10
25861.241473999969
 20
3988.2280040000001
 30
0.0
 40
160.0
  1
n
 72
     4
 11
25914.574807333302
 21
4041.5613373333331
 31
0.0
  0
TEXT
  5
3F85
  8
0-5
  6
CONTINUOUS
 62
     7
 10
22829.05101017523
 20
4002.745112439397
 30
0.0
 40
140.0
  1
n-1
 72
     4
 11
22992.384343508558
 21
4072.745112439397
 31
0.0
  0
TEXT
  5
3F86
  8
0-5
  6
CONTINUOUS
 62
     7
 10
16958.994905999989
 20
6842.0889997419981
 30
0.0
 40
160.0
  1
(2131.5)
 50
90.0
 72
     4
 11
16878.994905999989
 21
7295.4223330753312
 31
0.0
  0
TEXT
  5
3F87
  8
0-5
  6
CONTINUOUS
 62
     7
 10
20448.24239799998
 20
3986.1989969999981
 30
0.0
 40
160.0
  1
2
 72
     4
 11
20501.575731333309
 21
4066.1989969999981
 31
0.0
  0
TEXT
  5
3F88
  8
0-5
  6
CONTINUOUS
 62
     7
 10
17530.23843899999
 20
3986.1989969999981
 30
0.0
 40
160.0
  1
1
 72
     4
 11
17556.905105666661
 21
4066.1989969999981
 31
0.0
  0
TEXT
  5
3F89
  8
0-5
  6
CONTINUOUS
 62
     7
 10
15344.79003899999
 20
6400.5750029999999
 30
0.0
 40
160.0
  1
G.L
 72
     4
 11
15504.79003899999
 21
6480.5750029999999
 31
0.0
  0
TEXT
  5
3F8A
  8
2-0
  6
CONTINUOUS
 62
     7
 10
24310.021430999968
 20
13934.817566999969
 30
0.0
 40
160.0
  1
前柱（右）
 50
0.000213
 72
     4
 11
24726.021133592989
 21
14014.81911350076
 31
0.0
  0
TEXT
  5
3F8B
  8
2-0
  6
CONTINUOUS
 62
     7
 10
24514.616553999971
 20
16512.809582999991
 30
0.0
 40
160.0
  1
壁パネル
 50
359.99982299999999
 72
     4
 11
24877.283467803521
 21
16592.808462637859
 31
0.0
  0
TEXT
  5
3F8C
  8
2-0
  6
CONTINUOUS
 62
     7
 10
24234.613649999948
 20
17349.997479000001
 30
0.0
 40
160.0
  1
中柱（左右）
 50
0.000354
 72
     4
 11
24751.946489046171
 21
17430.000675324649
 31
0.0
  0
TEXT
  5
3F8D
  8
2-0
  6
CONTINUOUS
 62
     7
 10
24914.615893999959
 20
14907.858832999969
 30
0.0
 40
160.0
  1
下枠
 50
0.001063
 72
     4
 11
25085.281076409261
 21
14987.86199933926
 31
0.0
  0
TEXT
  5
3F8E
  8
2-0
  6
CONTINUOUS
 62
     7
 10
24409.581317999971
 20
18953.26621749996
 30
0.0
 40
160.0
  1
間柱（側）
 72
     4
 11
24830.9146513333
 21
19033.26621749996
 31
0.0
  0
TEXT
  5
3F8F
  8
2-0
  6
CONTINUOUS
 62
     7
 10
26728.171636999959
 20
20482.313937999999
 30
0.0
 40
160.0
  1
後柱（左右）
 50
0.000354
 72
     4
 11
27240.171142712948
 21
20562.317101372832
 31
0.0
  0
TEXT
  5
3F90
  8
2-0
  6
CONTINUOUS
 62
     7
 10
23394.264885999972
 20
15072.654744999951
 30
0.0
 40
160.0
  1
前柱（中）
 72
     4
 11
23810.264885999972
 21
15152.654744999951
 31
0.0
  0
TEXT
  5
3F91
  8
2-0
  6
CONTINUOUS
 62
     7
 10
19331.039721000008
 20
19035.196777000001
 30
0.0
 40
160.0
  1
間柱（後）
 72
     4
 11
19752.37305433334
 21
19115.196777000001
 31
0.0
  0
TEXT
  5
3F92
  8
2-0
  6
CONTINUOUS
 62
     7
 10
23265.46948899997
 20
19103.941498
 30
0.0
 40
160.0
  1
後柱（中）
 72
     4
 11
23681.46948899997
 21
19183.941498
 31
0.0
  0
TEXT
  5
3F93
  8
2-0
  6
CONTINUOUS
 62
     7
 10
15999.719210999971
 20
19535.336003
 30
0.0
 40
160.0
  1
C
 72
     4
 11
16053.05254433331
 21
19615.336003
 31
0.0
  0
TEXT
  5
3F94
  8
2-0
  6
CONTINUOUS
 62
     7
 10
15999.939926999979
 20
16991.922363000001
 30
0.0
 40
160.0
  1
B
 72
     4
 11
16053.273260333321
 21
17071.922363000001
 31
0.0
  0
TEXT
  5
3F95
  8
2-0
  6
CONTINUOUS
 62
     7
 10
15999.982486999979
 20
14406.20923399998
 30
0.0
 40
160.0
  1
A
 72
     4
 11
16053.315820333321
 21
14486.20923399998
 31
0.0
  0
TEXT
  5
3F96
  8
2-0
  6
CONTINUOUS
 62
     7
 10
20443.539061999989
 20
20976.793720000001
 30
0.0
 40
160.0
  1
2
 72
     4
 11
20496.872395333321
 21
21056.793720000001
 31
0.0
  0
TEXT
  5
3F97
  8
2-0
  6
CONTINUOUS
 62
     7
 10
17532.964235999989
 20
20983.551796999989
 30
0.0
 40
160.0
  1
1
 72
     4
 11
17559.63090266666
 21
21063.551796999989
 31
0.0
  0
TEXT
  5
3F98
  8
2-0
  6
CONTINUOUS
 62
     7
 10
25861.770005999952
 20
20991.931099000009
 30
0.0
 40
160.0
  1
n
 72
     4
 11
25915.10333933328
 21
21045.264432333341
 31
0.0
  0
TEXT
  5
3F99
  8
2-0
  6
CONTINUOUS
 62
     7
 10
22835.221124999978
 20
21004.427800000001
 30
0.0
 40
140.0
  1
n-1
 72
     4
 11
22998.55445833331
 21
21074.427800000001
 31
0.0
  0
TEXT
  5
3F9A
  8
2-0
  6
CONTINUOUS
 62
     7
 10
20923.42971299999
 20
12387.942223999989
 30
0.0
 40
160.0
  1
平 面 図
 50
0.000266
 72
     4
 11
21280.762699683812
 21
12462.61054961294
 31
0.0
  0
TEXT
  5
3F9B
  8
2-0
  6
CONTINUOUS
 62
     7
 10
20119.867900000001
 20
3254.289569999999
 30
0.0
 40
160.0
  1
正 面 立 面 図
 72
     4
 11
20765.20123333333
 21
3334.289569999999
 31
0.0
  0
CIRCLE
  5
3F9C
  8
0-4
  6
CONTINUOUS
 62
     4
 10
19036.17084499999
 20
6598.784693999999
 30
0.0
 40
18.487504999999981
  0
CIRCLE
  5
3F9D
  8
0-4
  6
CONTINUOUS
 62
     4
 10
24454.176123999961
 20
6598.784693999999
 30
0.0
 40
18.487504999999981
  0
TEXT
  5
3F9E
  8
2-0
  6
CONTINUOUS
 62
     7
 10
22116.69341847095
 20
3281.4849389999981
 30
0.0
 40
160.0
  1
1
 72
     4
 11
22143.360085137621
 21
3361.484938999999
 31
0.0
  0
TEXT
  5
3F9F
  8
2-0
  6
CONTINUOUS
 62
     7
 10
22359.782135721649
 20
3201.486406999999
 30
0.0
 40
160.0
  1
80
 72
     4
 11
22479.782135721649
 21
3281.486406999999
 31
0.0
  0
TEXT
  5
3FA0
  8
2-0
  6
CONTINUOUS
 62
     7
 10
21617.695384470961
 20
3254.289569999999
 30
0.0
 40
160.0
  1
(S=  /   )
 72
     4
 11
22177.695384470961
 21
3334.289569999999
 31
0.0
  0
TEXT
  5
3FA1
  8
2-0
  6
CONTINUOUS
 62
     7
 10
22632.254884821439
 20
12409.805918612939
 30
0.0
 40
160.0
  1
1
 72
     4
 11
22658.921551488111
 21
12489.805918612939
 31
0.0
  0
TEXT
  5
3FA2
  8
2-0
  6
CONTINUOUS
 62
     7
 10
22875.34360207212
 20
12329.807386612951
 30
0.0
 40
160.0
  1
80
 72
     4
 11
22995.34360207212
 21
12409.807386612951
 31
0.0
  0
TEXT
  5
3FA3
  8
2-0
  6
CONTINUOUS
 62
     7
 10
22133.256850821439
 20
12382.61054961294
 30
0.0
 40
160.0
  1
(S=  /   )
 72
     4
 11
22693.256850821439
 21
12462.61054961294
 31
0.0
  0
LINE
  5
3FA4
  8
SUNPOU
  6
CONTINUOUS
 10
17294.67084499999
 20
4912.7287530000031
 30
0.0
 11
16936.715838278891
 21
4912.7287530000031
 31
0.0
  0
LINE
  5
3FA5
  8
SUNPOU
  6
CONTINUOUS
 10
26195.680082999981
 20
4912.7287530000031
 30
0.0
 11
26553.635089721069
 21
4912.7287530000031
 31
0.0
  0
LINE
  5
3FA6
  8
2-0
  6
CONTINUOUS
 62
     3
 10
25173.676704999962
 20
19672.314729999998
 30
0.0
 11
25136.675542999961
 21
19672.314729999998
 31
0.0
  0
LINE
  5
3FA7
  8
2-0
  6
CONTINUOUS
 62
     3
 10
25173.676704999962
 20
19642.311166999989
 30
0.0
 11
25173.676704999962
 21
19672.314729999998
 31
0.0
  0
LINE
  5
3FA8
  8
2-0
  6
CONTINUOUS
 62
     3
 10
25167.676783999941
 20
19642.311166999989
 30
0.0
 11
25173.676704999962
 21
19642.311166999989
 31
0.0
  0
LINE
  5
3FA9
  8
2-0
  6
CONTINUOUS
 62
     3
 10
25183.774228999959
 20
19642.311166999989
 30
0.0
 11
25183.774228999959
 21
19672.314729999998
 31
0.0
  0
LINE
  5
3FAA
  8
2-0
  6
CONTINUOUS
 62
     3
 10
25165.770507999961
 20
19642.311166999989
 30
0.0
 11
25183.774228999959
 21
19642.311166999989
 31
0.0
  0
LINE
  5
3FAB
  8
2-0
  6
CONTINUOUS
 62
     3
 10
25165.770507999961
 20
19667.320403999991
 30
0.0
 11
25165.770507999961
 21
19642.311166999989
 31
0.0
  0
LINE
  5
3FAC
  8
2-0
  6
CONTINUOUS
 62
     3
 10
25170.77077199996
 20
19667.320403999991
 30
0.0
 11
25165.770507999961
 21
19667.320403999991
 31
0.0
  0
LINE
  5
3FAD
  8
2-0
  6
CONTINUOUS
 62
     3
 10
25170.77077199996
 20
19660.314888000001
 30
0.0
 11
25170.77077199996
 21
19667.320403999991
 31
0.0
  0
LINE
  5
3FAE
  8
2-0
  6
CONTINUOUS
 62
     3
 10
25139.581476999949
 20
19660.314888000001
 30
0.0
 11
25139.581476999949
 21
19667.320403999991
 31
0.0
  0
LINE
  5
3FAF
  8
2-0
  6
CONTINUOUS
 62
     3
 10
25139.581476999949
 20
19667.320403999991
 30
0.0
 11
25144.581740999962
 21
19667.320403999991
 31
0.0
  0
LINE
  5
3FB0
  8
2-0
  6
CONTINUOUS
 62
     3
 10
25144.581740999962
 20
19667.320403999991
 30
0.0
 11
25144.581740999962
 21
19642.311166999989
 31
0.0
  0
LINE
  5
3FB1
  8
2-0
  6
CONTINUOUS
 62
     3
 10
25144.581740999962
 20
19642.311166999989
 30
0.0
 11
25126.581977999958
 21
19642.311166999989
 31
0.0
  0
LINE
  5
3FB2
  8
2-0
  6
CONTINUOUS
 62
     3
 10
25126.581977999958
 20
19642.311166999989
 30
0.0
 11
25126.581977999958
 21
19672.314729999998
 31
0.0
  0
LINE
  5
3FB3
  8
2-0
  6
CONTINUOUS
 62
     3
 10
25142.675463999971
 20
19642.311166999989
 30
0.0
 11
25136.675542999961
 21
19642.311166999989
 31
0.0
  0
LINE
  5
3FB4
  8
2-0
  6
CONTINUOUS
 62
     3
 10
25136.675542999961
 20
19642.311166999989
 30
0.0
 11
25136.675542999961
 21
19672.314729999998
 31
0.0
  0
LINE
  5
3FB5
  8
2-0
  6
CONTINUOUS
 62
     3
 10
23768.765822499961
 20
19660.314888000001
 30
0.0
 11
23768.765822499961
 21
19667.320403999991
 31
0.0
  0
LINE
  5
3FB6
  8
2-0
  6
CONTINUOUS
 62
     3
 10
23768.765822499961
 20
19667.320403999991
 30
0.0
 11
23763.76555849997
 21
19667.320403999991
 31
0.0
  0
LINE
  5
3FB7
  8
2-0
  6
CONTINUOUS
 62
     3
 10
23763.76555849997
 20
19667.320403999991
 30
0.0
 11
23763.76555849997
 21
19642.311166999989
 31
0.0
  0
LINE
  5
3FB8
  8
2-0
  6
CONTINUOUS
 62
     3
 10
23763.76555849997
 20
19642.311166999989
 30
0.0
 11
23781.771259499961
 21
19642.311166999989
 31
0.0
  0
LINE
  5
3FB9
  8
2-0
  6
CONTINUOUS
 62
     3
 10
23781.771259499961
 20
19642.311166999989
 30
0.0
 11
23781.771259499961
 21
19672.314729999998
 31
0.0
  0
LINE
  5
3FBA
  8
2-0
  6
CONTINUOUS
 62
     3
 10
23765.673814499962
 20
19642.311166999989
 30
0.0
 11
23771.675714499961
 21
19642.311166999989
 31
0.0
  0
LINE
  5
3FBB
  8
2-0
  6
CONTINUOUS
 62
     3
 10
23771.675714499961
 20
19642.311166999989
 30
0.0
 11
23771.675714499961
 21
19672.314729999998
 31
0.0
  0
LINE
  5
3FBC
  8
2-0
  6
CONTINUOUS
 62
     3
 10
23734.676533499962
 20
19672.314729999998
 30
0.0
 11
23771.675714499961
 21
19672.314729999998
 31
0.0
  0
LINE
  5
3FBD
  8
2-0
  6
CONTINUOUS
 62
     3
 10
23734.676533499962
 20
19642.311166999989
 30
0.0
 11
23734.676533499962
 21
19672.314729999998
 31
0.0
  0
LINE
  5
3FBE
  8
2-0
  6
CONTINUOUS
 62
     3
 10
23740.670515499962
 20
19642.311166999989
 30
0.0
 11
23734.676533499962
 21
19642.311166999989
 31
0.0
  0
LINE
  5
3FBF
  8
2-0
  6
CONTINUOUS
 62
     3
 10
23724.580988499962
 20
19642.311166999989
 30
0.0
 11
23724.580988499962
 21
19672.314729999998
 31
0.0
  0
LINE
  5
3FC0
  8
2-0
  6
CONTINUOUS
 62
     3
 10
23742.57679149996
 20
19642.311166999989
 30
0.0
 11
23724.580988499962
 21
19642.311166999989
 31
0.0
  0
LINE
  5
3FC1
  8
2-0
  6
CONTINUOUS
 62
     3
 10
23742.57679149996
 20
19667.320403999991
 30
0.0
 11
23742.57679149996
 21
19642.311166999989
 31
0.0
  0
LINE
  5
3FC2
  8
2-0
  6
CONTINUOUS
 62
     3
 10
23737.576527499961
 20
19667.320403999991
 30
0.0
 11
23742.57679149996
 21
19667.320403999991
 31
0.0
  0
LINE
  5
3FC3
  8
2-0
  6
CONTINUOUS
 62
     3
 10
23737.576527499961
 20
19660.314888000001
 30
0.0
 11
23737.576527499961
 21
19667.320403999991
 31
0.0
  0
LINE
  5
3FC4
  8
2-0
  6
CONTINUOUS
 62
     3
 10
24438.575538499961
 20
19660.314888000001
 30
0.0
 11
24438.575538499961
 21
19667.320403999991
 31
0.0
  0
LINE
  5
3FC5
  8
2-0
  6
CONTINUOUS
 62
     3
 10
24438.575538499961
 20
19667.320403999991
 30
0.0
 11
24443.57580149997
 21
19667.320403999991
 31
0.0
  0
LINE
  5
3FC6
  8
2-0
  6
CONTINUOUS
 62
     3
 10
24443.57580149997
 20
19667.320403999991
 30
0.0
 11
24443.57580149997
 21
19642.311166999989
 31
0.0
  0
LINE
  5
3FC7
  8
2-0
  6
CONTINUOUS
 62
     3
 10
24443.57580149997
 20
19642.311166999989
 30
0.0
 11
24425.581978499951
 21
19642.311166999989
 31
0.0
  0
LINE
  5
3FC8
  8
2-0
  6
CONTINUOUS
 62
     3
 10
24425.581978499951
 20
19642.311166999989
 30
0.0
 11
24425.581978499951
 21
19672.314729999998
 31
0.0
  0
LINE
  5
3FC9
  8
2-0
  6
CONTINUOUS
 62
     3
 10
24441.673484499959
 20
19642.311166999989
 30
0.0
 11
24435.675543499961
 21
19642.311166999989
 31
0.0
  0
LINE
  5
3FCA
  8
2-0
  6
CONTINUOUS
 62
     3
 10
24435.675543499961
 20
19642.311166999989
 30
0.0
 11
24435.675543499961
 21
19672.314729999998
 31
0.0
  0
LINE
  5
3FCB
  8
2-0
  6
CONTINUOUS
 62
     3
 10
24472.676704499961
 20
19672.314729999998
 30
0.0
 11
24435.675543499961
 21
19672.314729999998
 31
0.0
  0
LINE
  5
3FCC
  8
2-0
  6
CONTINUOUS
 62
     3
 10
24472.676704499961
 20
19642.311166999989
 30
0.0
 11
24472.676704499961
 21
19672.314729999998
 31
0.0
  0
LINE
  5
3FCD
  8
2-0
  6
CONTINUOUS
 62
     3
 10
24466.670845499961
 20
19642.311166999989
 30
0.0
 11
24472.676704499961
 21
19642.311166999989
 31
0.0
  0
LINE
  5
3FCE
  8
2-0
  6
CONTINUOUS
 62
     3
 10
24482.770269499961
 20
19642.311166999989
 30
0.0
 11
24482.770269499961
 21
19672.314729999998
 31
0.0
  0
LINE
  5
3FCF
  8
2-0
  6
CONTINUOUS
 62
     3
 10
24464.774466499959
 20
19642.311166999989
 30
0.0
 11
24482.770269499961
 21
19642.311166999989
 31
0.0
  0
LINE
  5
3FD0
  8
2-0
  6
CONTINUOUS
 62
     3
 10
24464.774466499959
 20
19667.320403999991
 30
0.0
 11
24464.774466499959
 21
19642.311166999989
 31
0.0
  0
LINE
  5
3FD1
  8
2-0
  6
CONTINUOUS
 62
     3
 10
24469.764832499961
 20
19667.320403999991
 30
0.0
 11
24464.774466499959
 21
19667.320403999991
 31
0.0
  0
LINE
  5
3FD2
  8
2-0
  6
CONTINUOUS
 62
     3
 10
24469.764832499961
 20
19660.314888000001
 30
0.0
 11
24469.764832499961
 21
19667.320403999991
 31
0.0
  0
LINE
  5
3FD3
  8
2-0
  6
CONTINUOUS
 62
     3
 10
23781.771259499961
 20
19672.314729999998
 30
0.0
 11
24425.581978499951
 21
19672.314729999998
 31
0.0
  0
LINE
  5
3FD4
  8
2-0
  6
CONTINUOUS
 62
     3
 10
23077.29447299998
 20
19672.314729999998
 30
0.0
 11
23724.580988499962
 21
19672.314729999998
 31
0.0
  0
LINE
  5
3FD5
  8
2-0
  6
CONTINUOUS
 62
     3
 10
25831.059753999962
 20
19672.314729999998
 30
0.0
 11
25183.774228999959
 21
19672.314729999998
 31
0.0
  0
LINE
  5
3FD6
  8
2-0
  6
CONTINUOUS
 62
     3
 10
25126.581977999958
 20
19672.314729999998
 30
0.0
 11
24482.770269499961
 21
19672.314729999998
 31
0.0
  0
LINE
  5
3FD7
  8
2-0
  6
CONTINUOUS
 62
     3
 10
22256.365577999961
 20
19672.314729999998
 30
0.0
 11
22219.364415999971
 21
19672.314729999998
 31
0.0
  0
LINE
  5
3FD8
  8
2-0
  6
CONTINUOUS
 62
     3
 10
22256.365577999961
 20
19642.311166999989
 30
0.0
 11
22256.365577999961
 21
19672.314729999998
 31
0.0
  0
LINE
  5
3FD9
  8
2-0
  6
CONTINUOUS
 62
     3
 10
22250.365656999958
 20
19642.311166999989
 30
0.0
 11
22256.365577999961
 21
19642.311166999989
 31
0.0
  0
LINE
  5
3FDA
  8
2-0
  6
CONTINUOUS
 62
     3
 10
22266.46310199998
 20
19642.311166999989
 30
0.0
 11
22266.46310199998
 21
19672.314729999998
 31
0.0
  0
LINE
  5
3FDB
  8
2-0
  6
CONTINUOUS
 62
     3
 10
22248.459380999961
 20
19642.311166999989
 30
0.0
 11
22266.46310199998
 21
19642.311166999989
 31
0.0
  0
LINE
  5
3FDC
  8
2-0
  6
CONTINUOUS
 62
     3
 10
22248.459380999961
 20
19667.320403999991
 30
0.0
 11
22248.459380999961
 21
19642.311166999989
 31
0.0
  0
LINE
  5
3FDD
  8
2-0
  6
CONTINUOUS
 62
     3
 10
22253.45964499997
 20
19667.320403999991
 30
0.0
 11
22248.459380999961
 21
19667.320403999991
 31
0.0
  0
LINE
  5
3FDE
  8
2-0
  6
CONTINUOUS
 62
     3
 10
22253.45964499997
 20
19660.314888000001
 30
0.0
 11
22253.45964499997
 21
19667.320403999991
 31
0.0
  0
LINE
  5
3FDF
  8
2-0
  6
CONTINUOUS
 62
     3
 10
22222.27034999997
 20
19660.314888000001
 30
0.0
 11
22222.27034999997
 21
19667.320403999991
 31
0.0
  0
LINE
  5
3FE0
  8
2-0
  6
CONTINUOUS
 62
     3
 10
22222.27034999997
 20
19667.320403999991
 30
0.0
 11
22227.270613999968
 21
19667.320403999991
 31
0.0
  0
LINE
  5
3FE1
  8
2-0
  6
CONTINUOUS
 62
     3
 10
22227.270613999968
 20
19667.320403999991
 30
0.0
 11
22227.270613999968
 21
19642.311166999989
 31
0.0
  0
LINE
  5
3FE2
  8
2-0
  6
CONTINUOUS
 62
     3
 10
22227.270613999968
 20
19642.311166999989
 30
0.0
 11
22209.270850999968
 21
19642.311166999989
 31
0.0
  0
LINE
  5
3FE3
  8
2-0
  6
CONTINUOUS
 62
     3
 10
22209.270850999968
 20
19642.311166999989
 30
0.0
 11
22209.270850999968
 21
19672.314729999998
 31
0.0
  0
LINE
  5
3FE4
  8
2-0
  6
CONTINUOUS
 62
     3
 10
22225.36433699997
 20
19642.311166999989
 30
0.0
 11
22219.364415999971
 21
19642.311166999989
 31
0.0
  0
LINE
  5
3FE5
  8
2-0
  6
CONTINUOUS
 62
     3
 10
22219.364415999971
 20
19642.311166999989
 30
0.0
 11
22219.364415999971
 21
19672.314729999998
 31
0.0
  0
LINE
  5
3FE6
  8
2-0
  6
CONTINUOUS
 62
     3
 10
22913.748626999961
 20
19672.314729999998
 30
0.0
 11
22266.46310199998
 21
19672.314729999998
 31
0.0
  0
LINE
  5
3FE7
  8
2-0
  6
CONTINUOUS
 62
     3
 10
22209.270850999968
 20
19672.314729999998
 30
0.0
 11
22117.255674
 21
19672.314729999998
 31
0.0
  0
LINE
  5
3FE8
  8
2-0
  6
CONTINUOUS
 62
     3
 10
21268.073649499991
 20
19660.314888000001
 30
0.0
 11
21268.073649499991
 21
19667.320403999991
 31
0.0
  0
LINE
  5
3FE9
  8
2-0
  6
CONTINUOUS
 62
     3
 10
21268.073649499991
 20
19667.320403999991
 30
0.0
 11
21263.073385499982
 21
19667.320403999991
 31
0.0
  0
LINE
  5
3FEA
  8
2-0
  6
CONTINUOUS
 62
     3
 10
21263.073385499982
 20
19667.320403999991
 30
0.0
 11
21263.073385499982
 21
19642.311166999989
 31
0.0
  0
LINE
  5
3FEB
  8
2-0
  6
CONTINUOUS
 62
     3
 10
21263.073385499982
 20
19642.311166999989
 30
0.0
 11
21281.079086500002
 21
19642.311166999989
 31
0.0
  0
LINE
  5
3FEC
  8
2-0
  6
CONTINUOUS
 62
     3
 10
21281.079086500002
 20
19642.311166999989
 30
0.0
 11
21281.079086500002
 21
19672.314729999998
 31
0.0
  0
LINE
  5
3FED
  8
2-0
  6
CONTINUOUS
 62
     3
 10
21264.981641499991
 20
19642.311166999989
 30
0.0
 11
21270.983541500002
 21
19642.311166999989
 31
0.0
  0
LINE
  5
3FEE
  8
2-0
  6
CONTINUOUS
 62
     3
 10
21270.983541500002
 20
19642.311166999989
 30
0.0
 11
21270.983541500002
 21
19672.314729999998
 31
0.0
  0
LINE
  5
3FEF
  8
2-0
  6
CONTINUOUS
 62
     3
 10
21233.984360499991
 20
19672.314729999998
 30
0.0
 11
21270.983541500002
 21
19672.314729999998
 31
0.0
  0
LINE
  5
3FF0
  8
2-0
  6
CONTINUOUS
 62
     3
 10
21233.984360499991
 20
19642.311166999989
 30
0.0
 11
21233.984360499991
 21
19672.314729999998
 31
0.0
  0
LINE
  5
3FF1
  8
2-0
  6
CONTINUOUS
 62
     3
 10
21239.978342499991
 20
19642.311166999989
 30
0.0
 11
21233.984360499991
 21
19642.311166999989
 31
0.0
  0
LINE
  5
3FF2
  8
2-0
  6
CONTINUOUS
 62
     3
 10
21223.888815499999
 20
19642.311166999989
 30
0.0
 11
21223.888815499999
 21
19672.314729999998
 31
0.0
  0
LINE
  5
3FF3
  8
2-0
  6
CONTINUOUS
 62
     3
 10
21241.884618499978
 20
19642.311166999989
 30
0.0
 11
21223.888815499999
 21
19642.311166999989
 31
0.0
  0
LINE
  5
3FF4
  8
2-0
  6
CONTINUOUS
 62
     3
 10
21241.884618499978
 20
19667.320403999991
 30
0.0
 11
21241.884618499978
 21
19642.311166999989
 31
0.0
  0
LINE
  5
3FF5
  8
2-0
  6
CONTINUOUS
 62
     3
 10
21236.884354499991
 20
19667.320403999991
 30
0.0
 11
21241.884618499978
 21
19667.320403999991
 31
0.0
  0
LINE
  5
3FF6
  8
2-0
  6
CONTINUOUS
 62
     3
 10
21236.884354499991
 20
19660.314888000001
 30
0.0
 11
21236.884354499991
 21
19667.320403999991
 31
0.0
  0
LINE
  5
3FF7
  8
2-0
  6
CONTINUOUS
 62
     3
 10
20577.28919299999
 20
19672.314729999998
 30
0.0
 11
21223.888815499999
 21
19672.314729999998
 31
0.0
  0
LINE
  5
3FF8
  8
2-0
  6
CONTINUOUS
 62
     3
 10
21817.255674
 20
19672.314729999998
 30
0.0
 11
21281.079086500002
 21
19672.314729999998
 31
0.0
  0
LINE
  5
3FF9
  8
2-0
  6
CONTINUOUS
 62
     3
 10
25955.674407999959
 20
15574.95588199998
 30
0.0
 11
25955.674407999959
 21
14930.91702399998
 31
0.0
  0
LINE
  5
3FFA
  8
SUNPOU
  6
CONTINUOUS
 10
4112.320931966442
 20
19852.312354000002
 30
0.0
 11
4112.320931966442
 21
20649.27962177846
 31
0.0
  0
LINE
  5
3FFB
  8
SUNPOU
  6
CONTINUOUS
 10
4112.320931966442
 20
14302.32112999998
 30
0.0
 11
4112.320931966442
 21
13626.8950141896
 31
0.0
  0
LINE
  5
3FFC
  8
SUNPOU
  6
CONTINUOUS
 10
7666.8845009999914
 20
9360.7302629999976
 30
0.0
 11
7191.5953883597576
 21
9360.7302629999976
 31
0.0
  0
LINE
  5
3FFF
  8
WAKUSEN-01
 10
868.00000000000193
 20
22484.000000000011
 30
0.0
 11
32764.000000000011
 21
22484.000000000011
 31
0.0
  0
LINE
  5
4002
  8
WAKUSEN-01
 10
20560.0
 20
2484.0
 30
0.0
 11
32764.0
 21
2484.0
 31
0.0
  0
LINE
  5
4003
  8
WAKUSEN-02
 10
20560.0
 20
1655.9999999999991
 30
0.0
 11
26868.0
 21
1655.9999999999991
 31
0.0
  0
TEXT
  5
4004
  8
WAKUMOJI-01
 10
20670.260259962761
 20
2125.9030093393221
 30
0.0
 40
240.0
  1
名　称
  7
WAKUMOJI
  0
TEXT
  5
4005
  8
WAKUMOJI-01
 10
20656.505485091919
 20
1319.12897497982
 30
0.0
 40
240.0
  1
機種名
  7
WAKUMOJI
  0
LINE
  5
4008
  8
YODOROGO
 10
29977.604341291921
 20
1995.7494964292871
 30
0.0
 11
29829.604341291921
 21
1995.7494964292871
 31
0.0
1001
AUTOCAD_POSTSCRIPT_FIGURE
1002
{
1000
PSFILL
1000
Grayscale
1000
Grayscale
1070
    25
1002
}
  0
LINE
  5
4009
  8
YODOROGO
 10
29829.604341291921
 20
1947.749496429288
 30
0.0
 11
29977.604341291921
 21
1947.749496429288
 31
0.0
1001
AUTOCAD_POSTSCRIPT_FIGURE
1002
{
1000
PSFILL
1000
Grayscale
1000
Grayscale
1070
    25
1002
}
  0
LINE
  5
400A
  8
YODOROGO
 10
29977.604341291921
 20
1907.7494964292871
 30
0.0
 11
29829.604341291921
 21
1907.7494964292871
 31
0.0
1001
AUTOCAD_POSTSCRIPT_FIGURE
1002
{
1000
PSFILL
1000
Grayscale
1000
Grayscale
1070
    25
1002
}
  0
LINE
  5
400B
  8
YODOROGO
 10
29829.604341291921
 20
1859.749496429288
 30
0.0
 11
29977.604341291921
 21
1859.749496429288
 31
0.0
1001
AUTOCAD_POSTSCRIPT_FIGURE
1002
{
1000
PSFILL
1000
Grayscale
1000
Grayscale
1070
    25
1002
}
  0
LINE
  5
400C
  8
YODOROGO
 10
29977.604341291921
 20
1819.7494964292871
 30
0.0
 11
29829.604341291921
 21
1819.7494964292871
 31
0.0
1001
AUTOCAD_POSTSCRIPT_FIGURE
1002
{
1000
PSFILL
1000
Grayscale
1000
Grayscale
1070
    25
1002
}
  0
LINE
  5
400D
  8
YODOROGO
 10
29921.60434129191
 20
1707.749496429288
 30
0.0
 11
29977.604341291921
 21
1707.749496429288
 31
0.0
1001
AUTOCAD_POSTSCRIPT_FIGURE
1002
{
1000
PSFILL
1000
Grayscale
1000
Grayscale
1070
    25
1002
}
  0
LINE
  5
400E
  8
YODOROGO
 10
29737.604341291921
 20
1427.749496429288
 30
0.0
 11
29937.604341291932
 21
1481.3393349155101
 31
0.0
  0
LINE
  5
400F
  8
YODOROGO
 10
29949.60434129191
 20
1707.749496429288
 30
0.0
 11
29885.604341291921
 21
1707.749496429288
 31
0.0
  0
ARC
  5
4010
  8
YODOROGO
 10
30254.34774982791
 20
1807.864609233261
 30
0.0
 40
381.88686420564721
 50
213.96111677667841
 51
264.47872074317792
  0
ARC
  5
4011
  8
YODOROGO
 10
30254.347749827921
 20
1807.864609233302
 30
0.0
 40
381.8868642056816
 50
208.14114420486601
 51
212.9210361185994
  0
LINE
  5
4012
  8
YODOROGO
 10
29771.409872985321
 20
1556.807661346234
 30
0.0
 11
29933.78413250855
 21
1600.3157130570869
 31
0.0
  0
LINE
  5
4013
  8
YODOROGO
 10
29737.604341291921
 20
1427.749496429288
 30
0.0
 11
29937.604341291932
 21
1481.3393349155101
 31
0.0
  0
LINE
  5
4014
  8
YODOROGO
 10
29949.60434129191
 20
1707.749496429288
 30
0.0
 11
29885.604341291921
 21
1707.749496429288
 31
0.0
  0
ARC
  5
4015
  8
YODOROGO
 10
30254.34774982791
 20
1807.864609233261
 30
0.0
 40
381.88686420564721
 50
213.96111677667841
 51
264.47872074317792
  0
LINE
  5
4016
  8
YODOROGO
 10
28793.60434129191
 20
1819.7494964292871
 30
0.0
 11
28433.60434129191
 21
1819.7494964292871
 31
0.0
  0
LINE
  5
4017
  8
YODOROGO
 10
28513.60434129191
 20
1427.749496429288
 30
0.0
 11
28793.60434129191
 21
1427.749496429288
 31
0.0
  0
LINE
  5
4018
  8
YODOROGO
 10
28729.604341291921
 20
1923.7494964292871
 30
0.0
 11
28497.60434129191
 21
1923.7494964292871
 31
0.0
  0
LINE
  5
4019
  8
YODOROGO
 10
28585.604341291921
 20
2027.749496429288
 30
0.0
 11
28657.604341291921
 21
2027.749496429288
 31
0.0
  0
LINE
  5
401A
  8
YODOROGO
 10
28433.60434129191
 20
1707.749496429288
 30
0.0
 11
28433.60434129191
 21
1507.749496429288
 31
0.0
  0
LINE
  5
401B
  8
YODOROGO
 10
28497.60434129191
 20
1563.7494964292871
 30
0.0
 11
28497.60434129191
 21
1707.749496429288
 31
0.0
  0
LINE
  5
401C
  8
YODOROGO
 10
28585.604341291921
 20
1747.74949642929
 30
0.0
 11
28585.604341291921
 21
1547.749496429288
 31
0.0
  0
LINE
  5
401D
  8
YODOROGO
 10
27857.604341291921
 20
1683.749496429288
 30
0.0
 11
27777.604341291921
 21
1619.9724140445701
 31
0.0
  0
LINE
  5
401E
  8
YODOROGO
 10
27937.604341291921
 20
1619.9724140445701
 30
0.0
 11
27857.604341291921
 21
1683.749496429288
 31
0.0
  0
LINE
  5
401F
  8
YODOROGO
 10
27857.604341291921
 20
1707.749496429288
 30
0.0
 11
27937.604341291921
 21
1643.9724140445701
 31
0.0
  0
LINE
  5
4020
  8
YODOROGO
 10
27777.604341291921
 20
1643.9724140445701
 30
0.0
 11
27857.604341291921
 21
1707.749496429288
 31
0.0
  0
LINE
  5
4021
  8
YODOROGO
 10
28040.913204016892
 20
1659.749496429288
 30
0.0
 11
28040.913204016892
 21
1683.7494964292871
 31
0.0
  0
LINE
  5
4022
  8
YODOROGO
 10
27977.604341291921
 20
1683.7494964292871
 30
0.0
 11
27977.604341291921
 21
1667.749496429285
 31
0.0
  0
LINE
  5
4023
  8
YODOROGO
 10
28098.135520230931
 20
1707.749496429288
 30
0.0
 11
28098.135520230931
 21
1655.5036372746561
 31
0.0
1001
AUTOCAD_POSTSCRIPT_FIGURE
1002
{
1000
PSFILL
1000
Grayscale
1000
Grayscale
1070
   100
1002
}
  0
LINE
  5
4024
  8
YODOROGO
 10
28082.135520230921
 20
1655.5036372746561
 30
0.0
 11
28082.135520230921
 21
1707.749496429288
 31
0.0
1001
AUTOCAD_POSTSCRIPT_FIGURE
1002
{
1000
PSFILL
1000
Grayscale
1000
Grayscale
1070
   100
1002
}
  0
LINE
  5
4025
  8
YODOROGO
 10
27809.604341291921
 20
1608.771904043258
 30
0.0
 11
27809.604341291921
 21
1632.771904043258
 31
0.0
  0
LINE
  5
4026
  8
YODOROGO
 10
27905.604341291921
 20
1608.771904043258
 30
0.0
 11
27809.604341291921
 21
1608.771904043258
 31
0.0
  0
LINE
  5
4027
  8
YODOROGO
 10
27905.604341291921
 20
1632.771904043258
 30
0.0
 11
27905.604341291921
 21
1608.771904043258
 31
0.0
  0
LINE
  5
4028
  8
YODOROGO
 10
27809.604341291921
 20
1632.771904043258
 30
0.0
 11
27905.604341291921
 21
1632.771904043258
 31
0.0
  0
LINE
  5
4029
  8
YODOROGO
 10
27824.509588915738
 20
1568.5028573704751
 30
0.0
 11
27785.604341291921
 21
1475.7494964292871
 31
0.0
1001
AUTOCAD_POSTSCRIPT_FIGURE
1002
{
1000
PSFILL
1000
Grayscale
1000
Grayscale
1070
   100
1002
}
  0
LINE
  5
402A
  8
YODOROGO
 10
27777.604341291921
 20
1568.5028573704751
 30
0.0
 11
27824.509588915738
 21
1568.5028573704751
 31
0.0
1001
AUTOCAD_POSTSCRIPT_FIGURE
1002
{
1000
PSFILL
1000
Grayscale
1000
Grayscale
1070
   100
1002
}
  0
LINE
  5
402B
  8
YODOROGO
 10
27777.604341291921
 20
1588.5028573704751
 30
0.0
 11
27777.604341291921
 21
1568.5028573704751
 31
0.0
1001
AUTOCAD_POSTSCRIPT_FIGURE
1002
{
1000
PSFILL
1000
Grayscale
1000
Grayscale
1070
   100
1002
}
  0
LINE
  5
402C
  8
YODOROGO
 10
27937.604341291921
 20
1588.5028573704751
 30
0.0
 11
27777.604341291921
 21
1588.5028573704751
 31
0.0
1001
AUTOCAD_POSTSCRIPT_FIGURE
1002
{
1000
PSFILL
1000
Grayscale
1000
Grayscale
1070
   100
1002
}
  0
LINE
  5
402D
  8
YODOROGO
 10
27937.604341291921
 20
1568.5028573704751
 30
0.0
 11
27937.604341291921
 21
1588.5028573704751
 31
0.0
1001
AUTOCAD_POSTSCRIPT_FIGURE
1002
{
1000
PSFILL
1000
Grayscale
1000
Grayscale
1070
   100
1002
}
  0
LINE
  5
402E
  8
YODOROGO
 10
27844.509588915738
 20
1568.5028573704751
 30
0.0
 11
27937.604341291921
 21
1568.5028573704751
 31
0.0
1001
AUTOCAD_POSTSCRIPT_FIGURE
1002
{
1000
PSFILL
1000
Grayscale
1000
Grayscale
1070
   100
1002
}
  0
LINE
  5
402F
  8
YODOROGO
 10
27815.546718284771
 20
1495.7494964292871
 30
0.0
 11
27844.509588915738
 21
1568.5028573704751
 31
0.0
1001
AUTOCAD_POSTSCRIPT_FIGURE
1002
{
1000
PSFILL
1000
Grayscale
1000
Grayscale
1070
   100
1002
}
  0
LINE
  5
4030
  8
YODOROGO
 10
27902.054790808648
 20
1495.7494964292871
 30
0.0
 11
27815.546718284771
 21
1495.7494964292871
 31
0.0
1001
AUTOCAD_POSTSCRIPT_FIGURE
1002
{
1000
PSFILL
1000
Grayscale
1000
Grayscale
1070
   100
1002
}
  0
LINE
  5
4031
  8
YODOROGO
 10
27885.065004790951
 20
1536.2338106976929
 30
0.0
 11
27902.054790808648
 21
1495.7494964292871
 31
0.0
1001
AUTOCAD_POSTSCRIPT_FIGURE
1002
{
1000
PSFILL
1000
Grayscale
1000
Grayscale
1070
   100
1002
}
  0
LINE
  5
4032
  8
YODOROGO
 10
27901.065004790951
 20
1536.2338106976929
 30
0.0
 11
27885.065004790951
 21
1536.2338106976929
 31
0.0
1001
AUTOCAD_POSTSCRIPT_FIGURE
1002
{
1000
PSFILL
1000
Grayscale
1000
Grayscale
1070
   100
1002
}
  0
LINE
  5
4033
  8
YODOROGO
 10
27929.604341291921
 20
1475.7494964292871
 30
0.0
 11
27901.065004790951
 21
1536.2338106976929
 31
0.0
1001
AUTOCAD_POSTSCRIPT_FIGURE
1002
{
1000
PSFILL
1000
Grayscale
1000
Grayscale
1070
   100
1002
}
  0
LINE
  5
4034
  8
YODOROGO
 10
27785.604341291921
 20
1475.7494964292871
 30
0.0
 11
27929.604341291921
 21
1475.7494964292871
 31
0.0
1001
AUTOCAD_POSTSCRIPT_FIGURE
1002
{
1000
PSFILL
1000
Grayscale
1000
Grayscale
1070
   100
1002
}
  0
LINE
  5
4035
  8
YODOROGO
 10
27777.604341291921
 20
1619.9724140445701
 30
0.0
 11
27777.604341291921
 21
1643.9724140445701
 31
0.0
  0
LINE
  5
4036
  8
YODOROGO
 10
27937.604341291921
 20
1643.9724140445701
 30
0.0
 11
27937.604341291921
 21
1619.9724140445701
 31
0.0
  0
ARC
  5
4037
  8
YODOROGO
 10
28225.940442146959
 20
1600.877765325326
 30
0.0
 40
175.9999999999998
 50
280.3644312771313
 51
3.5414836592180561
  0
ARC
  5
4038
  8
YODOROGO
 10
28235.756030759301
 20
1633.5978069619041
 30
0.0
 40
111.9999999999982
 50
281.24905825041549
 51
348.75094174958321
  0
LINE
  5
4039
  8
YODOROGO
 10
28257.604341291921
 20
1523.7494964292871
 30
0.0
 11
28257.604341291921
 21
1427.749496429288
 31
0.0
  0
LINE
  5
403A
  8
YODOROGO
 10
28020.088903736909
 20
1610.650565061914
 30
0.0
 11
28040.913204016892
 21
1659.749496429288
 31
0.0
  0
LINE
  5
403B
  8
YODOROGO
 10
28041.604341291921
 20
1583.120489948401
 30
0.0
 11
28020.088903736909
 21
1610.650565061914
 31
0.0
  0
LINE
  5
403C
  8
YODOROGO
 10
28041.604341291921
 20
1563.120489948398
 30
0.0
 11
28041.604341291921
 21
1583.120489948401
 31
0.0
  0
LINE
  5
403D
  8
YODOROGO
 10
28017.604341291921
 20
1585.2370637495301
 30
0.0
 11
28041.604341291921
 21
1563.120489948398
 31
0.0
  0
LINE
  5
403E
  8
YODOROGO
 10
28017.604341291921
 20
1475.7494964292871
 30
0.0
 11
28017.604341291921
 21
1585.2370637495301
 31
0.0
  0
LINE
  5
403F
  8
YODOROGO
 10
28001.604341291921
 20
1475.7494964292871
 30
0.0
 11
28017.604341291921
 21
1475.7494964292871
 31
0.0
  0
LINE
  5
4040
  8
YODOROGO
 10
28001.604341291921
 20
1580.0053496897469
 30
0.0
 11
28001.604341291921
 21
1475.7494964292871
 31
0.0
  0
LINE
  5
4041
  8
YODOROGO
 10
27977.604341291921
 20
1532.7680790334291
 30
0.0
 11
28001.604341291921
 21
1580.0053496897469
 31
0.0
  0
LINE
  5
4042
  8
YODOROGO
 10
27977.604341291921
 20
1556.76807903343
 30
0.0
 11
27977.604341291921
 21
1532.7680790334291
 31
0.0
  0
LINE
  5
4043
  8
YODOROGO
 10
28025.828774291349
 20
1667.749496429285
 30
0.0
 11
27977.604341291921
 21
1556.76807903343
 31
0.0
  0
LINE
  5
4044
  8
YODOROGO
 10
27977.604341291921
 20
1667.749496429285
 30
0.0
 11
28025.828774291349
 21
1667.749496429285
 31
0.0
  0
LINE
  5
4045
  8
YODOROGO
 10
28050.135520230899
 20
1655.5036372746561
 30
0.0
 11
28082.135520230921
 21
1655.5036372746561
 31
0.0
1001
AUTOCAD_POSTSCRIPT_FIGURE
1002
{
1000
PSFILL
1000
Grayscale
1000
Grayscale
1070
   100
1002
}
  0
LINE
  5
4046
  8
YODOROGO
 10
28050.135520230899
 20
1631.5036372746561
 30
0.0
 11
28050.135520230899
 21
1655.5036372746561
 31
0.0
1001
AUTOCAD_POSTSCRIPT_FIGURE
1002
{
1000
PSFILL
1000
Grayscale
1000
Grayscale
1070
   100
1002
}
  0
LINE
  5
4047
  8
YODOROGO
 10
28082.135520230921
 20
1631.5036372746561
 30
0.0
 11
28050.135520230899
 21
1631.5036372746561
 31
0.0
1001
AUTOCAD_POSTSCRIPT_FIGURE
1002
{
1000
PSFILL
1000
Grayscale
1000
Grayscale
1070
   100
1002
}
  0
LINE
  5
4048
  8
YODOROGO
 10
28082.135520230921
 20
1499.749496429288
 30
0.0
 11
28082.135520230921
 21
1631.5036372746561
 31
0.0
1001
AUTOCAD_POSTSCRIPT_FIGURE
1002
{
1000
PSFILL
1000
Grayscale
1000
Grayscale
1070
   100
1002
}
  0
LINE
  5
4049
  8
YODOROGO
 10
28050.135520230921
 20
1499.749496429288
 30
0.0
 11
28082.135520230921
 21
1499.749496429288
 31
0.0
1001
AUTOCAD_POSTSCRIPT_FIGURE
1002
{
1000
PSFILL
1000
Grayscale
1000
Grayscale
1070
   100
1002
}
  0
LINE
  5
404A
  8
YODOROGO
 10
28050.135520230921
 20
1475.7494964292871
 30
0.0
 11
28050.135520230921
 21
1499.749496429288
 31
0.0
1001
AUTOCAD_POSTSCRIPT_FIGURE
1002
{
1000
PSFILL
1000
Grayscale
1000
Grayscale
1070
   100
1002
}
  0
LINE
  5
404B
  8
YODOROGO
 10
28137.604341291921
 20
1475.7494964292871
 30
0.0
 11
28050.135520230921
 21
1475.7494964292871
 31
0.0
1001
AUTOCAD_POSTSCRIPT_FIGURE
1002
{
1000
PSFILL
1000
Grayscale
1000
Grayscale
1070
   100
1002
}
  0
LINE
  5
404C
  8
YODOROGO
 10
28137.604341291921
 20
1499.749496429288
 30
0.0
 11
28137.604341291921
 21
1475.7494964292871
 31
0.0
1001
AUTOCAD_POSTSCRIPT_FIGURE
1002
{
1000
PSFILL
1000
Grayscale
1000
Grayscale
1070
   100
1002
}
  0
LINE
  5
404D
  8
YODOROGO
 10
28098.135520230931
 20
1499.749496429288
 30
0.0
 11
28137.604341291921
 21
1499.749496429288
 31
0.0
1001
AUTOCAD_POSTSCRIPT_FIGURE
1002
{
1000
PSFILL
1000
Grayscale
1000
Grayscale
1070
   100
1002
}
  0
LINE
  5
404E
  8
YODOROGO
 10
28098.135520230931
 20
1631.5036372746561
 30
0.0
 11
28098.135520230931
 21
1499.749496429288
 31
0.0
1001
AUTOCAD_POSTSCRIPT_FIGURE
1002
{
1000
PSFILL
1000
Grayscale
1000
Grayscale
1070
   100
1002
}
  0
LINE
  5
404F
  8
YODOROGO
 10
28137.604341291921
 20
1631.5036372746561
 30
0.0
 11
28098.135520230931
 21
1631.5036372746561
 31
0.0
1001
AUTOCAD_POSTSCRIPT_FIGURE
1002
{
1000
PSFILL
1000
Grayscale
1000
Grayscale
1070
   100
1002
}
  0
LINE
  5
4050
  8
YODOROGO
 10
28137.604341291921
 20
1655.5036372746561
 30
0.0
 11
28137.604341291921
 21
1631.5036372746561
 31
0.0
1001
AUTOCAD_POSTSCRIPT_FIGURE
1002
{
1000
PSFILL
1000
Grayscale
1000
Grayscale
1070
   100
1002
}
  0
LINE
  5
4051
  8
YODOROGO
 10
28098.135520230931
 20
1655.5036372746561
 30
0.0
 11
28137.604341291921
 21
1655.5036372746561
 31
0.0
1001
AUTOCAD_POSTSCRIPT_FIGURE
1002
{
1000
PSFILL
1000
Grayscale
1000
Grayscale
1070
   100
1002
}
  0
LINE
  5
4052
  8
YODOROGO
 10
28401.60434129191
 20
1667.749496429288
 30
0.0
 11
28345.604341291921
 21
1667.749496429288
 31
0.0
  0
LINE
  5
4053
  8
YODOROGO
 10
28401.60434129191
 20
1611.749496429288
 30
0.0
 11
28401.60434129191
 21
1667.749496429288
 31
0.0
  0
LINE
  5
4054
  8
YODOROGO
 10
28345.604341291921
 20
1667.749496429288
 30
0.0
 11
28345.604341291921
 21
1611.749496429288
 31
0.0
  0
ARC
  5
4055
  8
YODOROGO
 10
28513.60434129191
 20
1507.749496429288
 30
0.0
 40
80.0
 50
180.0
 51
270.0
  0
ARC
  5
4056
  8
YODOROGO
 10
28537.604341291921
 20
1563.7494964292871
 30
0.0
 40
40.0
 50
180.0
 51
270.0
  0
LINE
  5
4057
  8
YODOROGO
 10
28561.604341291932
 20
1523.7494964292871
 30
0.0
 11
28537.604341291921
 21
1523.7494964292871
 31
0.0
  0
ARC
  5
4058
  8
YODOROGO
 10
28561.604341291932
 20
1547.749496429285
 30
0.0
 40
23.999999999996358
 50
270.0
 51
0.0000000000054281
  0
LINE
  5
4059
  8
YODOROGO
 10
27801.604341291921
 20
1890.786580793706
 30
0.0
 11
27777.604341291921
 21
1843.776747951672
 31
0.0
1001
AUTOCAD_POSTSCRIPT_FIGURE
1002
{
1000
PSFILL
1000
Grayscale
1000
Grayscale
1070
   100
1002
}
  0
LINE
  5
405A
  8
YODOROGO
 10
27801.604341291921
 20
1747.749496429286
 30
0.0
 11
27801.604341291921
 21
1890.786580793706
 31
0.0
1001
AUTOCAD_POSTSCRIPT_FIGURE
1002
{
1000
PSFILL
1000
Grayscale
1000
Grayscale
1070
   100
1002
}
  0
LINE
  5
405B
  8
YODOROGO
 10
27817.604341291921
 20
1747.749496429286
 30
0.0
 11
27801.604341291921
 21
1747.749496429286
 31
0.0
1001
AUTOCAD_POSTSCRIPT_FIGURE
1002
{
1000
PSFILL
1000
Grayscale
1000
Grayscale
1070
   100
1002
}
  0
LINE
  5
405C
  8
YODOROGO
 10
27817.604341291921
 20
1893.7713320852661
 30
0.0
 11
27817.604341291921
 21
1747.749496429286
 31
0.0
1001
AUTOCAD_POSTSCRIPT_FIGURE
1002
{
1000
PSFILL
1000
Grayscale
1000
Grayscale
1070
   100
1002
}
  0
LINE
  5
405D
  8
YODOROGO
 10
27841.604341291921
 20
1867.6547582841361
 30
0.0
 11
27817.604341291921
 21
1893.7713320852661
 31
0.0
1001
AUTOCAD_POSTSCRIPT_FIGURE
1002
{
1000
PSFILL
1000
Grayscale
1000
Grayscale
1070
   100
1002
}
  0
LINE
  5
405E
  8
YODOROGO
 10
27841.604341291921
 20
1883.6547582841361
 30
0.0
 11
27841.604341291921
 21
1867.6547582841361
 31
0.0
1001
AUTOCAD_POSTSCRIPT_FIGURE
1002
{
1000
PSFILL
1000
Grayscale
1000
Grayscale
1070
   100
1002
}
  0
LINE
  5
405F
  8
YODOROGO
 10
27817.604341291921
 20
1917.7713320852649
 30
0.0
 11
27841.604341291921
 21
1883.6547582841361
 31
0.0
1001
AUTOCAD_POSTSCRIPT_FIGURE
1002
{
1000
PSFILL
1000
Grayscale
1000
Grayscale
1070
   100
1002
}
  0
LINE
  5
4060
  8
YODOROGO
 10
27817.604341291921
 20
1939.749496429288
 30
0.0
 11
27817.604341291921
 21
1917.7713320852649
 31
0.0
1001
AUTOCAD_POSTSCRIPT_FIGURE
1002
{
1000
PSFILL
1000
Grayscale
1000
Grayscale
1070
   100
1002
}
  0
LINE
  5
4061
  8
YODOROGO
 10
27889.604341291921
 20
1939.749496429288
 30
0.0
 11
27817.604341291921
 21
1939.749496429288
 31
0.0
1001
AUTOCAD_POSTSCRIPT_FIGURE
1002
{
1000
PSFILL
1000
Grayscale
1000
Grayscale
1070
   100
1002
}
  0
LINE
  5
4062
  8
YODOROGO
 10
27889.604341291921
 20
1900.5683489363
 30
0.0
 11
27889.604341291921
 21
1939.749496429288
 31
0.0
1001
AUTOCAD_POSTSCRIPT_FIGURE
1002
{
1000
PSFILL
1000
Grayscale
1000
Grayscale
1070
   100
1002
}
  0
LINE
  5
4063
  8
YODOROGO
 10
27857.604341291921
 20
1900.5683489363
 30
0.0
 11
27889.604341291921
 21
1900.5683489363
 31
0.0
1001
AUTOCAD_POSTSCRIPT_FIGURE
1002
{
1000
PSFILL
1000
Grayscale
1000
Grayscale
1070
   100
1002
}
  0
LINE
  5
4064
  8
YODOROGO
 10
27857.604341291921
 20
1884.568348936298
 30
0.0
 11
27857.604341291921
 21
1900.5683489363
 31
0.0
1001
AUTOCAD_POSTSCRIPT_FIGURE
1002
{
1000
PSFILL
1000
Grayscale
1000
Grayscale
1070
   100
1002
}
  0
LINE
  5
4065
  8
YODOROGO
 10
27889.604341291921
 20
1884.568348936298
 30
0.0
 11
27857.604341291921
 21
1884.568348936298
 31
0.0
1001
AUTOCAD_POSTSCRIPT_FIGURE
1002
{
1000
PSFILL
1000
Grayscale
1000
Grayscale
1070
   100
1002
}
  0
LINE
  5
4066
  8
YODOROGO
 10
27889.604341291921
 20
1879.6191779644371
 30
0.0
 11
27889.604341291921
 21
1884.568348936298
 31
0.0
1001
AUTOCAD_POSTSCRIPT_FIGURE
1002
{
1000
PSFILL
1000
Grayscale
1000
Grayscale
1070
   100
1002
}
  0
LINE
  5
4067
  8
YODOROGO
 10
27849.604341291921
 20
1812.974981161417
 30
0.0
 11
27889.604341291921
 21
1879.6191779644371
 31
0.0
1001
AUTOCAD_POSTSCRIPT_FIGURE
1002
{
1000
PSFILL
1000
Grayscale
1000
Grayscale
1070
   100
1002
}
  0
LINE
  5
4068
  8
YODOROGO
 10
27849.604341291921
 20
1796.9749811614161
 30
0.0
 11
27849.604341291921
 21
1812.974981161417
 31
0.0
1001
AUTOCAD_POSTSCRIPT_FIGURE
1002
{
1000
PSFILL
1000
Grayscale
1000
Grayscale
1070
   100
1002
}
  0
LINE
  5
4069
  8
YODOROGO
 10
27889.604341291921
 20
1847.6191779644359
 30
0.0
 11
27849.604341291921
 21
1796.9749811614161
 31
0.0
1001
AUTOCAD_POSTSCRIPT_FIGURE
1002
{
1000
PSFILL
1000
Grayscale
1000
Grayscale
1070
   100
1002
}
  0
LINE
  5
406A
  8
YODOROGO
 10
27889.604341291921
 20
1747.749496429286
 30
0.0
 11
27889.604341291921
 21
1847.6191779644359
 31
0.0
1001
AUTOCAD_POSTSCRIPT_FIGURE
1002
{
1000
PSFILL
1000
Grayscale
1000
Grayscale
1070
   100
1002
}
  0
LINE
  5
406B
  8
YODOROGO
 10
27905.604341291921
 20
1747.749496429286
 30
0.0
 11
27889.604341291921
 21
1747.749496429286
 31
0.0
1001
AUTOCAD_POSTSCRIPT_FIGURE
1002
{
1000
PSFILL
1000
Grayscale
1000
Grayscale
1070
   100
1002
}
  0
LINE
  5
406C
  8
YODOROGO
 10
27905.604341291921
 20
1849.409012158806
 30
0.0
 11
27905.604341291921
 21
1747.749496429286
 31
0.0
1001
AUTOCAD_POSTSCRIPT_FIGURE
1002
{
1000
PSFILL
1000
Grayscale
1000
Grayscale
1070
   100
1002
}
  0
LINE
  5
406D
  8
YODOROGO
 10
27937.604341291921
 20
1796.9749811614161
 30
0.0
 11
27905.604341291921
 21
1849.409012158806
 31
0.0
1001
AUTOCAD_POSTSCRIPT_FIGURE
1002
{
1000
PSFILL
1000
Grayscale
1000
Grayscale
1070
   100
1002
}
  0
LINE
  5
406E
  8
YODOROGO
 10
27937.604341291921
 20
1812.974981161417
 30
0.0
 11
27937.604341291921
 21
1796.9749811614161
 31
0.0
1001
AUTOCAD_POSTSCRIPT_FIGURE
1002
{
1000
PSFILL
1000
Grayscale
1000
Grayscale
1070
   100
1002
}
  0
LINE
  5
406F
  8
YODOROGO
 10
27905.604341291921
 20
1881.4090121588081
 30
0.0
 11
27937.604341291921
 21
1812.974981161417
 31
0.0
1001
AUTOCAD_POSTSCRIPT_FIGURE
1002
{
1000
PSFILL
1000
Grayscale
1000
Grayscale
1070
   100
1002
}
  0
LINE
  5
4070
  8
YODOROGO
 10
27905.604341291921
 20
1884.5683489363
 30
0.0
 11
27905.604341291921
 21
1881.4090121588081
 31
0.0
1001
AUTOCAD_POSTSCRIPT_FIGURE
1002
{
1000
PSFILL
1000
Grayscale
1000
Grayscale
1070
   100
1002
}
  0
LINE
  5
4071
  8
YODOROGO
 10
27937.604341291921
 20
1884.568348936298
 30
0.0
 11
27905.604341291921
 21
1884.5683489363
 31
0.0
1001
AUTOCAD_POSTSCRIPT_FIGURE
1002
{
1000
PSFILL
1000
Grayscale
1000
Grayscale
1070
   100
1002
}
  0
LINE
  5
4072
  8
YODOROGO
 10
27937.604341291921
 20
1900.5683489363
 30
0.0
 11
27937.604341291921
 21
1884.568348936298
 31
0.0
1001
AUTOCAD_POSTSCRIPT_FIGURE
1002
{
1000
PSFILL
1000
Grayscale
1000
Grayscale
1070
   100
1002
}
  0
LINE
  5
4073
  8
YODOROGO
 10
27905.604341291921
 20
1900.5683489363
 30
0.0
 11
27937.604341291921
 21
1900.5683489363
 31
0.0
1001
AUTOCAD_POSTSCRIPT_FIGURE
1002
{
1000
PSFILL
1000
Grayscale
1000
Grayscale
1070
   100
1002
}
  0
LINE
  5
4074
  8
YODOROGO
 10
27905.604341291921
 20
1939.749496429288
 30
0.0
 11
27905.604341291921
 21
1900.5683489363
 31
0.0
1001
AUTOCAD_POSTSCRIPT_FIGURE
1002
{
1000
PSFILL
1000
Grayscale
1000
Grayscale
1070
   100
1002
}
  0
LINE
  5
4075
  8
YODOROGO
 10
27937.604341291921
 20
1939.749496429288
 30
0.0
 11
27905.604341291921
 21
1939.749496429288
 31
0.0
1001
AUTOCAD_POSTSCRIPT_FIGURE
1002
{
1000
PSFILL
1000
Grayscale
1000
Grayscale
1070
   100
1002
}
  0
LINE
  5
4076
  8
YODOROGO
 10
27937.604341291921
 20
1955.7494964292871
 30
0.0
 11
27937.604341291921
 21
1939.749496429288
 31
0.0
1001
AUTOCAD_POSTSCRIPT_FIGURE
1002
{
1000
PSFILL
1000
Grayscale
1000
Grayscale
1070
   100
1002
}
  0
LINE
  5
4077
  8
YODOROGO
 10
27905.604341291921
 20
1955.7494964292871
 30
0.0
 11
27937.604341291921
 21
1955.7494964292871
 31
0.0
1001
AUTOCAD_POSTSCRIPT_FIGURE
1002
{
1000
PSFILL
1000
Grayscale
1000
Grayscale
1070
   100
1002
}
  0
LINE
  5
4078
  8
YODOROGO
 10
27905.604341291921
 20
1979.749496429288
 30
0.0
 11
27905.604341291921
 21
1955.7494964292871
 31
0.0
1001
AUTOCAD_POSTSCRIPT_FIGURE
1002
{
1000
PSFILL
1000
Grayscale
1000
Grayscale
1070
   100
1002
}
  0
LINE
  5
4079
  8
YODOROGO
 10
27889.604341291921
 20
1979.749496429288
 30
0.0
 11
27905.604341291921
 21
1979.749496429288
 31
0.0
1001
AUTOCAD_POSTSCRIPT_FIGURE
1002
{
1000
PSFILL
1000
Grayscale
1000
Grayscale
1070
   100
1002
}
  0
LINE
  5
407A
  8
YODOROGO
 10
27889.604341291921
 20
1955.7494964292871
 30
0.0
 11
27889.604341291921
 21
1979.749496429288
 31
0.0
1001
AUTOCAD_POSTSCRIPT_FIGURE
1002
{
1000
PSFILL
1000
Grayscale
1000
Grayscale
1070
   100
1002
}
  0
LINE
  5
407B
  8
YODOROGO
 10
27865.604341291921
 20
1955.7494964292871
 30
0.0
 11
27889.604341291921
 21
1955.7494964292871
 31
0.0
1001
AUTOCAD_POSTSCRIPT_FIGURE
1002
{
1000
PSFILL
1000
Grayscale
1000
Grayscale
1070
   100
1002
}
  0
LINE
  5
407C
  8
YODOROGO
 10
27865.604341291921
 20
1979.749496429288
 30
0.0
 11
27865.604341291921
 21
1955.7494964292871
 31
0.0
1001
AUTOCAD_POSTSCRIPT_FIGURE
1002
{
1000
PSFILL
1000
Grayscale
1000
Grayscale
1070
   100
1002
}
  0
LINE
  5
407D
  8
YODOROGO
 10
27849.604341291921
 20
1979.749496429288
 30
0.0
 11
27865.604341291921
 21
1979.749496429288
 31
0.0
1001
AUTOCAD_POSTSCRIPT_FIGURE
1002
{
1000
PSFILL
1000
Grayscale
1000
Grayscale
1070
   100
1002
}
  0
LINE
  5
407E
  8
YODOROGO
 10
27849.604341291921
 20
1955.7494964292871
 30
0.0
 11
27849.604341291921
 21
1979.749496429288
 31
0.0
1001
AUTOCAD_POSTSCRIPT_FIGURE
1002
{
1000
PSFILL
1000
Grayscale
1000
Grayscale
1070
   100
1002
}
  0
LINE
  5
407F
  8
YODOROGO
 10
27817.604341291921
 20
1955.7494964292871
 30
0.0
 11
27849.604341291921
 21
1955.7494964292871
 31
0.0
1001
AUTOCAD_POSTSCRIPT_FIGURE
1002
{
1000
PSFILL
1000
Grayscale
1000
Grayscale
1070
   100
1002
}
  0
LINE
  5
4080
  8
YODOROGO
 10
27817.604341291921
 20
1979.749496429288
 30
0.0
 11
27817.604341291921
 21
1955.7494964292871
 31
0.0
1001
AUTOCAD_POSTSCRIPT_FIGURE
1002
{
1000
PSFILL
1000
Grayscale
1000
Grayscale
1070
   100
1002
}
  0
LINE
  5
4081
  8
YODOROGO
 10
27801.604341291921
 20
1979.749496429288
 30
0.0
 11
27817.604341291921
 21
1979.749496429288
 31
0.0
1001
AUTOCAD_POSTSCRIPT_FIGURE
1002
{
1000
PSFILL
1000
Grayscale
1000
Grayscale
1070
   100
1002
}
  0
LINE
  5
4082
  8
YODOROGO
 10
27801.604341291921
 20
1955.7494964292871
 30
0.0
 11
27801.604341291921
 21
1979.749496429288
 31
0.0
1001
AUTOCAD_POSTSCRIPT_FIGURE
1002
{
1000
PSFILL
1000
Grayscale
1000
Grayscale
1070
   100
1002
}
  0
LINE
  5
4083
  8
YODOROGO
 10
27777.604341291921
 20
1955.7494964292871
 30
0.0
 11
27801.604341291921
 21
1955.7494964292871
 31
0.0
1001
AUTOCAD_POSTSCRIPT_FIGURE
1002
{
1000
PSFILL
1000
Grayscale
1000
Grayscale
1070
   100
1002
}
  0
LINE
  5
4084
  8
YODOROGO
 10
27777.604341291921
 20
1939.749496429288
 30
0.0
 11
27777.604341291921
 21
1955.7494964292871
 31
0.0
1001
AUTOCAD_POSTSCRIPT_FIGURE
1002
{
1000
PSFILL
1000
Grayscale
1000
Grayscale
1070
   100
1002
}
  0
LINE
  5
4085
  8
YODOROGO
 10
27801.604341291921
 20
1939.749496429288
 30
0.0
 11
27777.604341291921
 21
1939.749496429288
 31
0.0
1001
AUTOCAD_POSTSCRIPT_FIGURE
1002
{
1000
PSFILL
1000
Grayscale
1000
Grayscale
1070
   100
1002
}
  0
LINE
  5
4086
  8
YODOROGO
 10
27801.604341291921
 20
1914.7865807937051
 30
0.0
 11
27801.604341291921
 21
1939.749496429288
 31
0.0
1001
AUTOCAD_POSTSCRIPT_FIGURE
1002
{
1000
PSFILL
1000
Grayscale
1000
Grayscale
1070
   100
1002
}
  0
LINE
  5
4087
  8
YODOROGO
 10
27777.604341291921
 20
1859.776747951671
 30
0.0
 11
27801.604341291921
 21
1914.7865807937051
 31
0.0
1001
AUTOCAD_POSTSCRIPT_FIGURE
1002
{
1000
PSFILL
1000
Grayscale
1000
Grayscale
1070
   100
1002
}
  0
LINE
  5
4088
  8
YODOROGO
 10
27777.604341291921
 20
1843.776747951672
 30
0.0
 11
27777.604341291921
 21
1859.776747951671
 31
0.0
1001
AUTOCAD_POSTSCRIPT_FIGURE
1002
{
1000
PSFILL
1000
Grayscale
1000
Grayscale
1070
   100
1002
}
  0
LINE
  5
4089
  8
YODOROGO
 10
28257.604341291921
 20
1867.7494964292871
 30
0.0
 11
28401.60434129191
 21
1824.877625640306
 31
0.0
1001
AUTOCAD_POSTSCRIPT_FIGURE
1002
{
1000
PSFILL
1000
Grayscale
1000
Grayscale
1070
   100
1002
}
  0
LINE
  5
408A
  8
YODOROGO
 10
28401.60434129191
 20
1752.877625640306
 30
0.0
 11
28257.604341291921
 21
1795.7494964292871
 31
0.0
1001
AUTOCAD_POSTSCRIPT_FIGURE
1002
{
1000
PSFILL
1000
Grayscale
1000
Grayscale
1070
   100
1002
}
  0
LINE
  5
408B
  8
YODOROGO
 10
28401.60434129191
 20
1984.877625640306
 30
0.0
 11
28257.604341291921
 21
2027.749496429288
 31
0.0
1001
AUTOCAD_POSTSCRIPT_FIGURE
1002
{
1000
PSFILL
1000
Grayscale
1000
Grayscale
1070
   100
1002
}
  0
LINE
  5
408C
  8
YODOROGO
 10
28257.604341291921
 20
1959.749496429288
 30
0.0
 11
28401.60434129191
 21
1916.8776256403071
 31
0.0
1001
AUTOCAD_POSTSCRIPT_FIGURE
1002
{
1000
PSFILL
1000
Grayscale
1000
Grayscale
1070
   100
1002
}
  0
LINE
  5
408D
  8
YODOROGO
 10
28257.604341291921
 20
1795.7494964292871
 30
0.0
 11
28257.604341291921
 21
1867.7494964292871
 31
0.0
1001
AUTOCAD_POSTSCRIPT_FIGURE
1002
{
1000
PSFILL
1000
Grayscale
1000
Grayscale
1070
   100
1002
}
  0
LINE
  5
408E
  8
YODOROGO
 10
28257.604341291921
 20
2027.749496429288
 30
0.0
 11
28257.604341291921
 21
1959.749496429288
 31
0.0
1001
AUTOCAD_POSTSCRIPT_FIGURE
1002
{
1000
PSFILL
1000
Grayscale
1000
Grayscale
1070
   100
1002
}
  0
LINE
  5
408F
  8
YODOROGO
 10
28080.236320206739
 20
1939.749496429288
 30
0.0
 11
28129.60434129191
 21
1747.749496429286
 31
0.0
1001
AUTOCAD_POSTSCRIPT_FIGURE
1002
{
1000
PSFILL
1000
Grayscale
1000
Grayscale
1070
   100
1002
}
  0
LINE
  5
4090
  8
YODOROGO
 10
27977.604341291921
 20
1939.749496429288
 30
0.0
 11
28080.236320206739
 21
1939.749496429288
 31
0.0
1001
AUTOCAD_POSTSCRIPT_FIGURE
1002
{
1000
PSFILL
1000
Grayscale
1000
Grayscale
1070
   100
1002
}
  0
LINE
  5
4091
  8
YODOROGO
 10
27977.604341291921
 20
1955.7494964292871
 30
0.0
 11
27977.604341291921
 21
1939.749496429288
 31
0.0
1001
AUTOCAD_POSTSCRIPT_FIGURE
1002
{
1000
PSFILL
1000
Grayscale
1000
Grayscale
1070
   100
1002
}
  0
LINE
  5
4092
  8
YODOROGO
 10
28076.60687851991
 20
1955.7494964292871
 30
0.0
 11
27977.604341291921
 21
1955.7494964292871
 31
0.0
1001
AUTOCAD_POSTSCRIPT_FIGURE
1002
{
1000
PSFILL
1000
Grayscale
1000
Grayscale
1070
   100
1002
}
  0
LINE
  5
4093
  8
YODOROGO
 10
28071.162715989711
 20
1979.749496429288
 30
0.0
 11
28076.60687851991
 21
1955.7494964292871
 31
0.0
1001
AUTOCAD_POSTSCRIPT_FIGURE
1002
{
1000
PSFILL
1000
Grayscale
1000
Grayscale
1070
   100
1002
}
  0
LINE
  5
4094
  8
YODOROGO
 10
28091.162715989711
 20
1979.749496429288
 30
0.0
 11
28071.162715989711
 21
1979.749496429288
 31
0.0
1001
AUTOCAD_POSTSCRIPT_FIGURE
1002
{
1000
PSFILL
1000
Grayscale
1000
Grayscale
1070
   100
1002
}
  0
LINE
  5
4095
  8
YODOROGO
 10
28095.806878519939
 20
1955.7494964292871
 30
0.0
 11
28091.162715989711
 21
1979.749496429288
 31
0.0
1001
AUTOCAD_POSTSCRIPT_FIGURE
1002
{
1000
PSFILL
1000
Grayscale
1000
Grayscale
1070
   100
1002
}
  0
LINE
  5
4096
  8
YODOROGO
 10
28121.604341291921
 20
1955.7494964292871
 30
0.0
 11
28095.806878519939
 21
1955.7494964292871
 31
0.0
1001
AUTOCAD_POSTSCRIPT_FIGURE
1002
{
1000
PSFILL
1000
Grayscale
1000
Grayscale
1070
   100
1002
}
  0
LINE
  5
4097
  8
YODOROGO
 10
28121.604341291921
 20
1979.749496429288
 30
0.0
 11
28121.604341291921
 21
1955.7494964292871
 31
0.0
1001
AUTOCAD_POSTSCRIPT_FIGURE
1002
{
1000
PSFILL
1000
Grayscale
1000
Grayscale
1070
   100
1002
}
  0
LINE
  5
4098
  8
YODOROGO
 10
28137.604341291921
 20
1979.749496429288
 30
0.0
 11
28121.604341291921
 21
1979.749496429288
 31
0.0
1001
AUTOCAD_POSTSCRIPT_FIGURE
1002
{
1000
PSFILL
1000
Grayscale
1000
Grayscale
1070
   100
1002
}
  0
LINE
  5
4099
  8
YODOROGO
 10
28137.604341291921
 20
1955.7494964292871
 30
0.0
 11
28137.604341291921
 21
1979.749496429288
 31
0.0
1001
AUTOCAD_POSTSCRIPT_FIGURE
1002
{
1000
PSFILL
1000
Grayscale
1000
Grayscale
1070
   100
1002
}
  0
LINE
  5
409A
  8
YODOROGO
 10
28137.604341291921
 20
1939.749496429288
 30
0.0
 11
28137.604341291921
 21
1955.7494964292871
 31
0.0
1001
AUTOCAD_POSTSCRIPT_FIGURE
1002
{
1000
PSFILL
1000
Grayscale
1000
Grayscale
1070
   100
1002
}
  0
LINE
  5
409B
  8
YODOROGO
 10
28098.902986873411
 20
1939.749496429288
 30
0.0
 11
28137.604341291921
 21
1939.749496429288
 31
0.0
1001
AUTOCAD_POSTSCRIPT_FIGURE
1002
{
1000
PSFILL
1000
Grayscale
1000
Grayscale
1070
   100
1002
}
  0
LINE
  5
409C
  8
YODOROGO
 10
28137.604341291921
 20
1747.749496429286
 30
0.0
 11
28098.902986873411
 21
1939.749496429288
 31
0.0
1001
AUTOCAD_POSTSCRIPT_FIGURE
1002
{
1000
PSFILL
1000
Grayscale
1000
Grayscale
1070
   100
1002
}
  0
LINE
  5
409D
  8
YODOROGO
 10
28129.60434129191
 20
1747.749496429286
 30
0.0
 11
28137.604341291921
 21
1747.749496429286
 31
0.0
1001
AUTOCAD_POSTSCRIPT_FIGURE
1002
{
1000
PSFILL
1000
Grayscale
1000
Grayscale
1070
   100
1002
}
  0
LINE
  5
409E
  8
YODOROGO
 10
28078.06921993379
 20
1775.7407762987939
 30
0.0
 11
27977.604341291921
 21
1747.749496429286
 31
0.0
  0
LINE
  5
409F
  8
YODOROGO
 10
28078.06921993379
 20
1798.6689795290731
 30
0.0
 11
28078.06921993379
 21
1775.7407762987939
 31
0.0
  0
LINE
  5
40A0
  8
YODOROGO
 10
28033.83678061287
 20
1786.816933133767
 30
0.0
 11
28078.06921993379
 21
1798.6689795290731
 31
0.0
  0
LINE
  5
40A1
  8
YODOROGO
 10
28033.83678061287
 20
1872.5683489362989
 30
0.0
 11
28033.83678061287
 21
1786.816933133767
 31
0.0
  0
LINE
  5
40A2
  8
YODOROGO
 10
28078.06921993379
 20
1872.5683489362989
 30
0.0
 11
28033.83678061287
 21
1872.5683489362989
 31
0.0
  0
LINE
  5
40A3
  8
YODOROGO
 10
28078.06921993379
 20
1892.568348936298
 30
0.0
 11
28078.06921993379
 21
1872.5683489362989
 31
0.0
  0
LINE
  5
40A4
  8
YODOROGO
 10
27977.604341291921
 20
1892.568348936298
 30
0.0
 11
28078.06921993379
 21
1892.568348936298
 31
0.0
  0
LINE
  5
40A5
  8
YODOROGO
 10
27977.604341291921
 20
1872.5683489362989
 30
0.0
 11
27977.604341291921
 21
1892.568348936298
 31
0.0
  0
LINE
  5
40A6
  8
YODOROGO
 10
28021.836780612852
 20
1872.5683489362989
 30
0.0
 11
27977.604341291921
 21
1872.5683489362989
 31
0.0
  0
LINE
  5
40A7
  8
YODOROGO
 10
28021.836780612852
 20
1784.673339594317
 30
0.0
 11
28021.836780612852
 21
1872.5683489362989
 31
0.0
  0
LINE
  5
40A8
  8
YODOROGO
 10
27977.604341291921
 20
1771.749496429286
 30
0.0
 11
28021.836780612852
 21
1784.673339594317
 31
0.0
  0
LINE
  5
40A9
  8
YODOROGO
 10
27977.604341291921
 20
1747.749496429286
 30
0.0
 11
27977.604341291921
 21
1771.749496429286
 31
0.0
  0
LINE
  5
40AA
  8
YODOROGO
 10
28001.604341291921
 20
1707.749496429288
 30
0.0
 11
28001.604341291921
 21
1683.7494964292871
 31
0.0
  0
LINE
  5
40AB
  8
YODOROGO
 10
28017.604341291921
 20
1707.749496429288
 30
0.0
 11
28001.604341291921
 21
1707.749496429288
 31
0.0
  0
LINE
  5
40AC
  8
YODOROGO
 10
28017.604341291921
 20
1683.7494964292871
 30
0.0
 11
28017.604341291921
 21
1707.749496429288
 31
0.0
  0
LINE
  5
40AD
  8
YODOROGO
 10
28040.913204016892
 20
1683.7494964292871
 30
0.0
 11
28017.604341291921
 21
1683.7494964292871
 31
0.0
  0
LINE
  5
40AE
  8
YODOROGO
 10
28001.604341291921
 20
1683.7494964292871
 30
0.0
 11
27977.604341291921
 21
1683.7494964292871
 31
0.0
  0
LINE
  5
40AF
  8
YODOROGO
 10
28082.135520230921
 20
1707.749496429288
 30
0.0
 11
28098.135520230931
 21
1707.749496429288
 31
0.0
1001
AUTOCAD_POSTSCRIPT_FIGURE
1002
{
1000
PSFILL
1000
Grayscale
1000
Grayscale
1070
   100
1002
}
  0
LINE
  5
40B0
  8
YODOROGO
 10
28401.60434129191
 20
1824.877625640306
 30
0.0
 11
28401.60434129191
 21
1752.877625640306
 31
0.0
1001
AUTOCAD_POSTSCRIPT_FIGURE
1002
{
1000
PSFILL
1000
Grayscale
1000
Grayscale
1070
   100
1002
}
  0
LINE
  5
40B1
  8
YODOROGO
 10
28401.60434129191
 20
1916.8776256403071
 30
0.0
 11
28401.60434129191
 21
1984.877625640306
 31
0.0
1001
AUTOCAD_POSTSCRIPT_FIGURE
1002
{
1000
PSFILL
1000
Grayscale
1000
Grayscale
1070
   100
1002
}
  0
LINE
  5
40B2
  8
YODOROGO
 10
28433.60434129191
 20
1819.7494964292871
 30
0.0
 11
28433.60434129191
 21
1747.74949642929
 31
0.0
  0
LINE
  5
40B3
  8
YODOROGO
 10
28497.60434129191
 20
1707.749496429288
 30
0.0
 11
28433.60434129191
 21
1707.749496429288
 31
0.0
  0
LINE
  5
40B4
  8
YODOROGO
 10
28433.60434129191
 20
1747.74949642929
 30
0.0
 11
28585.604341291921
 21
1747.74949642929
 31
0.0
  0
LINE
  5
40B5
  8
YODOROGO
 10
28497.60434129191
 20
1867.7494964292871
 30
0.0
 11
28433.60434129191
 21
1867.7494964292871
 31
0.0
  0
LINE
  5
40B6
  8
YODOROGO
 10
28497.60434129191
 20
1923.7494964292871
 30
0.0
 11
28497.60434129191
 21
1867.7494964292871
 31
0.0
  0
LINE
  5
40B7
  8
YODOROGO
 10
28585.604341291921
 20
1987.7494964292871
 30
0.0
 11
28585.604341291921
 21
2027.749496429288
 31
0.0
  0
LINE
  5
40B8
  8
YODOROGO
 10
28433.60434129191
 20
1987.7494964292871
 30
0.0
 11
28585.604341291921
 21
1987.7494964292871
 31
0.0
  0
LINE
  5
40B9
  8
YODOROGO
 10
28433.60434129191
 20
1867.7494964292871
 30
0.0
 11
28433.60434129191
 21
1987.7494964292871
 31
0.0
  0
LINE
  5
40BA
  8
YODOROGO
 10
29001.60434129191
 20
2027.749496429288
 30
0.0
 11
29001.60434129191
 21
1619.749496429288
 31
0.0
  0
LINE
  5
40BB
  8
YODOROGO
 10
29073.604341291921
 20
1579.749496429288
 30
0.0
 11
29073.604341291921
 21
2027.749496429288
 31
0.0
  0
LINE
  5
40BC
  8
YODOROGO
 10
29261.604341291921
 20
1491.749496429286
 30
0.0
 11
29261.604341291921
 21
2007.749496429288
 31
0.0
  0
LINE
  5
40BD
  8
YODOROGO
 10
29197.604341291921
 20
2007.749496429288
 30
0.0
 11
29197.604341291921
 21
1491.749496429286
 31
0.0
  0
LINE
  5
40BE
  8
YODOROGO
 10
29385.604341291921
 20
2027.749496429288
 30
0.0
 11
29385.604341291921
 21
1427.749496429288
 31
0.0
  0
LINE
  5
40BF
  8
YODOROGO
 10
29457.604341291921
 20
1427.749496429288
 30
0.0
 11
29457.604341291921
 21
2027.749496429288
 31
0.0
  0
LINE
  5
40C0
  8
YODOROGO
 10
28657.604341291921
 20
1667.749496429288
 30
0.0
 11
28657.604341291921
 21
1747.74949642929
 31
0.0
  0
LINE
  5
40C1
  8
YODOROGO
 10
29885.604341291921
 20
1707.749496429288
 30
0.0
 11
29885.604341291921
 21
1667.749496429288
 31
0.0
  0
LINE
  5
40C2
  8
YODOROGO
 10
29885.604341291921
 20
1707.749496429288
 30
0.0
 11
29885.604341291921
 21
1667.749496429288
 31
0.0
  0
ARC
  5
40C3
  8
YODOROGO
 10
28906.911576186842
 20
1618.217864442272
 30
0.0
 40
94.705151178741644
 50
274.05244162907098
 51
0.9266642149310712
  0
ARC
  5
40C4
  8
YODOROGO
 10
28909.186170719819
 20
1592.61072861044
 30
0.0
 40
164.92042356085511
 50
271.5351210653775
 51
355.52727750585052
  0
LINE
  5
40C5
  8
YODOROGO
 10
28913.604341291921
 20
1523.7494964292871
 30
0.0
 11
28913.604341291921
 21
1427.749496429288
 31
0.0
  0
LINE
  5
40C6
  8
YODOROGO
 10
28793.60434129191
 20
1667.749496429288
 30
0.0
 11
28657.604341291921
 21
1667.749496429288
 31
0.0
  0
LINE
  5
40C7
  8
YODOROGO
 10
28793.60434129191
 20
1603.7494964292871
 30
0.0
 11
28793.60434129191
 21
1667.749496429288
 31
0.0
  0
LINE
  5
40C8
  8
YODOROGO
 10
28657.604341291921
 20
1603.7494964292871
 30
0.0
 11
28793.60434129191
 21
1603.7494964292871
 31
0.0
  0
LINE
  5
40C9
  8
YODOROGO
 10
28657.604341291921
 20
1523.7494964292871
 30
0.0
 11
28657.604341291921
 21
1603.7494964292871
 31
0.0
  0
LINE
  5
40CA
  8
YODOROGO
 10
28793.60434129191
 20
1523.7494964292871
 30
0.0
 11
28657.604341291921
 21
1523.7494964292871
 31
0.0
  0
LINE
  5
40CB
  8
YODOROGO
 10
28793.60434129191
 20
1427.749496429288
 30
0.0
 11
28793.60434129191
 21
1523.7494964292871
 31
0.0
  0
LINE
  5
40CC
  8
YODOROGO
 10
29197.604341291921
 20
1491.749496429286
 30
0.0
 11
29261.604341291921
 21
1491.749496429286
 31
0.0
  0
LINE
  5
40CD
  8
YODOROGO
 10
29385.604341291921
 20
1427.749496429288
 30
0.0
 11
29457.604341291921
 21
1427.749496429288
 31
0.0
  0
LINE
  5
40CE
  8
YODOROGO
 10
29737.604341291921
 20
1528.4414521705639
 30
0.0
 11
29737.604341291921
 21
1427.749496429288
 31
0.0
  0
LINE
  5
40CF
  8
YODOROGO
 10
29617.604341291921
 20
1427.749496429288
 30
0.0
 11
29737.604341291921
 21
1528.4414521705639
 31
0.0
  0
LINE
  5
40D0
  8
YODOROGO
 10
29617.604341291921
 20
1547.749496429288
 30
0.0
 11
29617.604341291921
 21
1427.749496429288
 31
0.0
  0
LINE
  5
40D1
  8
YODOROGO
 10
29712.94462869945
 20
1627.749496429288
 30
0.0
 11
29617.604341291921
 21
1547.749496429288
 31
0.0
  0
LINE
  5
40D2
  8
YODOROGO
 10
29617.604341291921
 20
1627.749496429288
 30
0.0
 11
29712.94462869945
 21
1627.749496429288
 31
0.0
  0
LINE
  5
40D3
  8
YODOROGO
 10
29617.604341291921
 20
1667.749496429288
 30
0.0
 11
29617.604341291921
 21
1627.749496429288
 31
0.0
  0
LINE
  5
40D4
  8
YODOROGO
 10
29885.604341291921
 20
1667.749496429288
 30
0.0
 11
29617.604341291921
 21
1667.749496429288
 31
0.0
  0
LINE
  5
40D5
  8
YODOROGO
 10
29917.604341291921
 20
1627.749496429288
 30
0.0
 11
29777.604341291921
 21
1627.749496429288
 31
0.0
  0
LINE
  5
40D6
  8
YODOROGO
 10
29777.604341291921
 20
1562.0054374176559
 30
0.0
 11
29771.409872985321
 21
1556.807661346234
 31
0.0
  0
LINE
  5
40D7
  8
YODOROGO
 10
29777.604341291921
 20
1627.749496429288
 30
0.0
 11
29777.604341291921
 21
1562.0054374176559
 31
0.0
  0
LINE
  5
40D8
  8
YODOROGO
 10
29737.604341291921
 20
1528.4414521705639
 30
0.0
 11
29737.604341291921
 21
1427.749496429288
 31
0.0
  0
LINE
  5
40D9
  8
YODOROGO
 10
29617.604341291921
 20
1427.749496429288
 30
0.0
 11
29737.604341291921
 21
1528.4414521705639
 31
0.0
  0
LINE
  5
40DA
  8
YODOROGO
 10
29617.604341291921
 20
1547.749496429288
 30
0.0
 11
29617.604341291921
 21
1427.749496429288
 31
0.0
  0
LINE
  5
40DB
  8
YODOROGO
 10
29712.94462869945
 20
1627.749496429288
 30
0.0
 11
29617.604341291921
 21
1547.749496429288
 31
0.0
  0
LINE
  5
40DC
  8
YODOROGO
 10
29617.604341291921
 20
1627.749496429288
 30
0.0
 11
29712.94462869945
 21
1627.749496429288
 31
0.0
  0
LINE
  5
40DD
  8
YODOROGO
 10
29617.604341291921
 20
1667.749496429288
 30
0.0
 11
29617.604341291921
 21
1627.749496429288
 31
0.0
  0
LINE
  5
40DE
  8
YODOROGO
 10
29885.604341291921
 20
1667.749496429288
 30
0.0
 11
29617.604341291921
 21
1667.749496429288
 31
0.0
  0
LINE
  5
40DF
  8
YODOROGO
 10
28793.60434129191
 20
1747.74949642929
 30
0.0
 11
28793.60434129191
 21
1819.7494964292871
 31
0.0
  0
LINE
  5
40E0
  8
YODOROGO
 10
28657.604341291921
 20
1747.74949642929
 30
0.0
 11
28793.60434129191
 21
1747.74949642929
 31
0.0
  0
LINE
  5
40E1
  8
YODOROGO
 10
28729.604341291921
 20
1867.7494964292871
 30
0.0
 11
28729.604341291921
 21
1923.7494964292871
 31
0.0
  0
LINE
  5
40E2
  8
YODOROGO
 10
28793.60434129191
 20
1867.7494964292871
 30
0.0
 11
28729.604341291921
 21
1867.7494964292871
 31
0.0
  0
LINE
  5
40E3
  8
YODOROGO
 10
28793.60434129191
 20
1947.749496429288
 30
0.0
 11
28793.60434129191
 21
1867.7494964292871
 31
0.0
  0
ARC
  5
40E4
  8
YODOROGO
 10
28753.60434129191
 20
1947.749496429288
 30
0.0
 40
40.0
 50
0.0
 51
90.0
  0
LINE
  5
40E5
  8
YODOROGO
 10
28657.604341291921
 20
1987.7494964292871
 30
0.0
 11
28753.60434129191
 21
1987.7494964292871
 31
0.0
  0
LINE
  5
40E6
  8
YODOROGO
 10
28657.604341291921
 20
2027.749496429288
 30
0.0
 11
28657.604341291921
 21
1987.7494964292871
 31
0.0
  0
LINE
  5
40E7
  8
YODOROGO
 10
29073.604341291921
 20
2027.749496429288
 30
0.0
 11
29001.60434129191
 21
2027.749496429288
 31
0.0
  0
LINE
  5
40E8
  8
YODOROGO
 10
29261.604341291921
 20
2007.749496429288
 30
0.0
 11
29197.604341291921
 21
2007.749496429288
 31
0.0
  0
LINE
  5
40E9
  8
YODOROGO
 10
29457.604341291921
 20
2027.749496429288
 30
0.0
 11
29385.604341291921
 21
2027.749496429288
 31
0.0
  0
LINE
  5
40EA
  8
YODOROGO
 10
29673.604341291921
 20
1707.749496429288
 30
0.0
 11
29673.604341291921
 21
1771.7494964292871
 31
0.0
1001
AUTOCAD_POSTSCRIPT_FIGURE
1002
{
1000
PSFILL
1000
Grayscale
1000
Grayscale
1070
    25
1002
}
  0
LINE
  5
40EB
  8
YODOROGO
 10
29617.604341291921
 20
1707.749496429288
 30
0.0
 11
29673.604341291921
 21
1707.749496429288
 31
0.0
1001
AUTOCAD_POSTSCRIPT_FIGURE
1002
{
1000
PSFILL
1000
Grayscale
1000
Grayscale
1070
    25
1002
}
  0
LINE
  5
40EC
  8
YODOROGO
 10
29617.604341291921
 20
1819.7494964292871
 30
0.0
 11
29617.604341291921
 21
1707.749496429288
 31
0.0
1001
AUTOCAD_POSTSCRIPT_FIGURE
1002
{
1000
PSFILL
1000
Grayscale
1000
Grayscale
1070
    25
1002
}
  0
LINE
  5
40ED
  8
YODOROGO
 10
29765.604341291921
 20
1819.7494964292871
 30
0.0
 11
29617.604341291921
 21
1819.7494964292871
 31
0.0
1001
AUTOCAD_POSTSCRIPT_FIGURE
1002
{
1000
PSFILL
1000
Grayscale
1000
Grayscale
1070
    25
1002
}
  0
LINE
  5
40EE
  8
YODOROGO
 10
29765.604341291921
 20
1859.749496429288
 30
0.0
 11
29765.604341291921
 21
1819.7494964292871
 31
0.0
1001
AUTOCAD_POSTSCRIPT_FIGURE
1002
{
1000
PSFILL
1000
Grayscale
1000
Grayscale
1070
    25
1002
}
  0
LINE
  5
40EF
  8
YODOROGO
 10
29617.604341291921
 20
1859.749496429288
 30
0.0
 11
29765.604341291921
 21
1859.749496429288
 31
0.0
1001
AUTOCAD_POSTSCRIPT_FIGURE
1002
{
1000
PSFILL
1000
Grayscale
1000
Grayscale
1070
    25
1002
}
  0
LINE
  5
40F0
  8
YODOROGO
 10
29617.604341291921
 20
1907.7494964292871
 30
0.0
 11
29617.604341291921
 21
1859.749496429288
 31
0.0
1001
AUTOCAD_POSTSCRIPT_FIGURE
1002
{
1000
PSFILL
1000
Grayscale
1000
Grayscale
1070
    25
1002
}
  0
LINE
  5
40F1
  8
YODOROGO
 10
29765.604341291921
 20
1907.7494964292871
 30
0.0
 11
29617.604341291921
 21
1907.7494964292871
 31
0.0
1001
AUTOCAD_POSTSCRIPT_FIGURE
1002
{
1000
PSFILL
1000
Grayscale
1000
Grayscale
1070
    25
1002
}
  0
LINE
  5
40F2
  8
YODOROGO
 10
29765.604341291921
 20
1947.749496429288
 30
0.0
 11
29765.604341291921
 21
1907.7494964292871
 31
0.0
1001
AUTOCAD_POSTSCRIPT_FIGURE
1002
{
1000
PSFILL
1000
Grayscale
1000
Grayscale
1070
    25
1002
}
  0
LINE
  5
40F3
  8
YODOROGO
 10
29617.604341291921
 20
1947.749496429288
 30
0.0
 11
29765.604341291921
 21
1947.749496429288
 31
0.0
1001
AUTOCAD_POSTSCRIPT_FIGURE
1002
{
1000
PSFILL
1000
Grayscale
1000
Grayscale
1070
    25
1002
}
  0
LINE
  5
40F4
  8
YODOROGO
 10
29617.604341291921
 20
2027.749496429288
 30
0.0
 11
29617.604341291921
 21
1947.749496429288
 31
0.0
1001
AUTOCAD_POSTSCRIPT_FIGURE
1002
{
1000
PSFILL
1000
Grayscale
1000
Grayscale
1070
    25
1002
}
  0
LINE
  5
40F5
  8
YODOROGO
 10
29665.604341291921
 20
2027.749496429288
 30
0.0
 11
29617.604341291921
 21
2027.749496429288
 31
0.0
1001
AUTOCAD_POSTSCRIPT_FIGURE
1002
{
1000
PSFILL
1000
Grayscale
1000
Grayscale
1070
    25
1002
}
  0
LINE
  5
40F6
  8
YODOROGO
 10
29665.604341291921
 20
1995.7494964292871
 30
0.0
 11
29665.604341291921
 21
2027.749496429288
 31
0.0
1001
AUTOCAD_POSTSCRIPT_FIGURE
1002
{
1000
PSFILL
1000
Grayscale
1000
Grayscale
1070
    25
1002
}
  0
LINE
  5
40F7
  8
YODOROGO
 10
29765.604341291921
 20
1995.7494964292871
 30
0.0
 11
29665.604341291921
 21
1995.7494964292871
 31
0.0
1001
AUTOCAD_POSTSCRIPT_FIGURE
1002
{
1000
PSFILL
1000
Grayscale
1000
Grayscale
1070
    25
1002
}
  0
LINE
  5
40F8
  8
YODOROGO
 10
29765.604341291921
 20
2027.749496429288
 30
0.0
 11
29765.604341291921
 21
1995.7494964292871
 31
0.0
1001
AUTOCAD_POSTSCRIPT_FIGURE
1002
{
1000
PSFILL
1000
Grayscale
1000
Grayscale
1070
    25
1002
}
  0
LINE
  5
40F9
  8
YODOROGO
 10
29829.604341291921
 20
2027.749496429288
 30
0.0
 11
29765.604341291921
 21
2027.749496429288
 31
0.0
1001
AUTOCAD_POSTSCRIPT_FIGURE
1002
{
1000
PSFILL
1000
Grayscale
1000
Grayscale
1070
    25
1002
}
  0
LINE
  5
40FA
  8
YODOROGO
 10
29829.604341291921
 20
1995.7494964292871
 30
0.0
 11
29829.604341291921
 21
2027.749496429288
 31
0.0
1001
AUTOCAD_POSTSCRIPT_FIGURE
1002
{
1000
PSFILL
1000
Grayscale
1000
Grayscale
1070
    25
1002
}
  0
LINE
  5
40FB
  8
YODOROGO
 10
29829.604341291921
 20
1907.7494964292871
 30
0.0
 11
29829.604341291921
 21
1947.749496429288
 31
0.0
1001
AUTOCAD_POSTSCRIPT_FIGURE
1002
{
1000
PSFILL
1000
Grayscale
1000
Grayscale
1070
    25
1002
}
  0
LINE
  5
40FC
  8
YODOROGO
 10
29829.604341291921
 20
1819.7494964292871
 30
0.0
 11
29829.604341291921
 21
1859.749496429288
 31
0.0
1001
AUTOCAD_POSTSCRIPT_FIGURE
1002
{
1000
PSFILL
1000
Grayscale
1000
Grayscale
1070
    25
1002
}
  0
LINE
  5
40FD
  8
YODOROGO
 10
29921.60434129191
 20
1771.7494964292871
 30
0.0
 11
29921.60434129191
 21
1707.749496429288
 31
0.0
1001
AUTOCAD_POSTSCRIPT_FIGURE
1002
{
1000
PSFILL
1000
Grayscale
1000
Grayscale
1070
    25
1002
}
  0
LINE
  5
40FE
  8
YODOROGO
 10
29829.604341291921
 20
1771.7494964292871
 30
0.0
 11
29921.60434129191
 21
1771.7494964292871
 31
0.0
1001
AUTOCAD_POSTSCRIPT_FIGURE
1002
{
1000
PSFILL
1000
Grayscale
1000
Grayscale
1070
    25
1002
}
  0
LINE
  5
40FF
  8
YODOROGO
 10
29829.604341291921
 20
1707.749496429288
 30
0.0
 11
29829.604341291921
 21
1771.7494964292871
 31
0.0
1001
AUTOCAD_POSTSCRIPT_FIGURE
1002
{
1000
PSFILL
1000
Grayscale
1000
Grayscale
1070
    25
1002
}
  0
LINE
  5
4100
  8
YODOROGO
 10
29765.604341291921
 20
1707.749496429288
 30
0.0
 11
29829.604341291921
 21
1707.749496429288
 31
0.0
1001
AUTOCAD_POSTSCRIPT_FIGURE
1002
{
1000
PSFILL
1000
Grayscale
1000
Grayscale
1070
    25
1002
}
  0
LINE
  5
4101
  8
YODOROGO
 10
29765.604341291921
 20
1771.7494964292871
 30
0.0
 11
29765.604341291921
 21
1707.749496429288
 31
0.0
1001
AUTOCAD_POSTSCRIPT_FIGURE
1002
{
1000
PSFILL
1000
Grayscale
1000
Grayscale
1070
    25
1002
}
  0
LINE
  5
4102
  8
YODOROGO
 10
29673.604341291921
 20
1771.7494964292871
 30
0.0
 11
29765.604341291921
 21
1771.7494964292871
 31
0.0
1001
AUTOCAD_POSTSCRIPT_FIGURE
1002
{
1000
PSFILL
1000
Grayscale
1000
Grayscale
1070
    25
1002
}
  0
ARC
  5
4103
  8
YODOROGO
 10
31059.517893357912
 20
1602.6807375155761
 30
0.0
 40
178.22128111072141
 50
281.02627495425338
 51
357.77113575573799
  0
LINE
  5
4104
  8
YODOROGO
 10
31413.604341291921
 20
1907.7494964292871
 30
0.0
 11
31165.604341291921
 21
1907.7494964292871
 31
0.0
  0
LINE
  5
4105
  8
YODOROGO
 10
31413.604341291921
 20
2027.749496429288
 30
0.0
 11
31165.604341291921
 21
2027.749496429288
 31
0.0
  0
LINE
  5
4106
  8
YODOROGO
 10
31165.604341291921
 20
1963.749496429286
 30
0.0
 11
31413.604341291921
 21
1963.749496429286
 31
0.0
  0
LINE
  5
4107
  8
YODOROGO
 10
30791.604341291921
 20
1563.7494964292871
 30
0.0
 11
30791.604341291921
 21
1755.7494964292871
 31
0.0
  0
LINE
  5
4108
  8
YODOROGO
 10
30763.604341291921
 20
1691.749496429288
 30
0.0
 11
30763.604341291921
 21
1563.7494964292871
 31
0.0
  0
LINE
  5
4109
  8
YODOROGO
 10
30723.604341291921
 20
1491.749496429288
 30
0.0
 11
30723.604341291921
 21
1691.749496429288
 31
0.0
  0
LINE
  5
410A
  8
YODOROGO
 10
30899.604341291932
 20
1691.749496429288
 30
0.0
 11
30899.604341291932
 21
1491.749496429288
 31
0.0
  0
LINE
  5
410B
  8
YODOROGO
 10
30859.604341291932
 20
1563.7494964292871
 30
0.0
 11
30859.604341291932
 21
1691.749496429288
 31
0.0
  0
LINE
  5
410C
  8
YODOROGO
 10
30831.604341291921
 20
1755.7494964292871
 30
0.0
 11
30831.604341291921
 21
1563.7494964292871
 31
0.0
  0
LINE
  5
410D
  8
YODOROGO
 10
30973.604341291921
 20
2027.749496429288
 30
0.0
 11
30973.604341291921
 21
1467.749496429288
 31
0.0
  0
LINE
  5
410E
  8
YODOROGO
 10
30645.604341291921
 20
1427.749496429288
 30
0.0
 11
30645.604341291921
 21
2027.749496429288
 31
0.0
  0
LINE
  5
410F
  8
YODOROGO
 10
30697.604341291932
 20
1963.749496429286
 30
0.0
 11
30697.604341291932
 21
1427.749496429288
 31
0.0
  0
LINE
  5
4110
  8
YODOROGO
 10
30925.604341291921
 20
1547.749496429288
 30
0.0
 11
30925.604341291921
 21
1963.749496429286
 31
0.0
  0
LINE
  5
4111
  8
YODOROGO
 10
30381.604341291932
 20
1627.749496429288
 30
0.0
 11
30381.604341291932
 21
1679.749496429288
 31
0.0
  0
LINE
  5
4112
  8
YODOROGO
 10
30617.604341291921
 20
1679.749496429288
 30
0.0
 11
30617.604341291921
 21
1627.749496429288
 31
0.0
  0
LINE
  5
4113
  8
YODOROGO
 10
31165.604341291921
 20
1907.7494964292871
 30
0.0
 11
31165.604341291921
 21
1635.7494964292871
 31
0.0
  0
LINE
  5
4114
  8
YODOROGO
 10
29949.60434129191
 20
1667.749496429288
 30
0.0
 11
29949.60434129191
 21
1707.749496429288
 31
0.0
  0
LINE
  5
4115
  8
YODOROGO
 10
29949.60434129191
 20
1667.749496429288
 30
0.0
 11
29949.60434129191
 21
1707.749496429288
 31
0.0
  0
ARC
  5
4116
  8
YODOROGO
 10
30537.604341291921
 20
1507.749496429288
 30
0.0
 40
80.0
 50
270.0
 51
0.0
  0
LINE
  5
4117
  8
YODOROGO
 10
30569.604341291921
 20
1599.7494964292871
 30
0.0
 11
30617.604341291921
 21
1599.7494964292871
 31
0.0
  0
LINE
  5
4118
  8
YODOROGO
 10
30617.604341291921
 20
1627.749496429288
 30
0.0
 11
30529.604341291939
 21
1627.749496429288
 31
0.0
  0
LINE
  5
4119
  8
YODOROGO
 10
30217.604341291921
 20
1667.749496429288
 30
0.0
 11
29949.60434129191
 21
1667.749496429288
 31
0.0
  0
LINE
  5
411A
  8
YODOROGO
 10
30217.604341291921
 20
1627.749496429288
 30
0.0
 11
30217.604341291921
 21
1667.749496429288
 31
0.0
  0
LINE
  5
411B
  8
YODOROGO
 10
30017.604341291921
 20
1627.749496429288
 30
0.0
 11
30217.604341291921
 21
1627.749496429288
 31
0.0
  0
ARC
  5
411C
  8
YODOROGO
 10
30230.05882870136
 20
1868.885714952901
 30
0.0
 40
321.37763628522822
 50
228.6181454618993
 51
245.660289248906
  0
LINE
  5
411D
  8
YODOROGO
 10
30105.604341291921
 20
1603.7494964292871
 30
0.0
 11
30097.60434129195
 21
1576.0728158699001
 31
0.0
  0
LINE
  5
411E
  8
YODOROGO
 10
30189.604341291921
 20
1603.7494964292871
 30
0.0
 11
30105.604341291921
 21
1603.7494964292871
 31
0.0
  0
LINE
  5
411F
  8
YODOROGO
 10
30177.604341291921
 20
1551.817722473427
 30
0.0
 11
30189.604341291921
 21
1603.7494964292871
 31
0.0
  0
ARC
  5
4120
  8
YODOROGO
 10
30230.05882870045
 20
1868.885714953002
 30
0.0
 40
321.37763628529081
 50
260.60629297969911
 51
267.77903556555862
  0
LINE
  5
4121
  8
YODOROGO
 10
30217.604341291921
 20
1427.749496429285
 30
0.0
 11
30217.604341291921
 21
1547.749496429288
 31
0.0
  0
LINE
  5
4122
  8
YODOROGO
 10
29937.604341291932
 20
1481.3393349155101
 30
0.0
 11
29937.604341291921
 21
1594.531090531141
 31
0.0
  0
LINE
  5
4123
  8
YODOROGO
 10
30217.604341291921
 20
1667.749496429288
 30
0.0
 11
29949.60434129191
 21
1667.749496429288
 31
0.0
  0
LINE
  5
4124
  8
YODOROGO
 10
30217.604341291921
 20
1627.749496429288
 30
0.0
 11
30217.604341291921
 21
1667.749496429288
 31
0.0
  0
LINE
  5
4125
  8
YODOROGO
 10
30017.604341291921
 20
1627.749496429288
 30
0.0
 11
30217.604341291921
 21
1627.749496429288
 31
0.0
  0
ARC
  5
4126
  8
YODOROGO
 10
30230.05882870136
 20
1868.885714952901
 30
0.0
 40
321.37763628522822
 50
228.6181454618993
 51
245.660289248906
  0
LINE
  5
4127
  8
YODOROGO
 10
30105.604341291921
 20
1603.7494964292871
 30
0.0
 11
30097.60434129195
 21
1576.0728158699001
 31
0.0
  0
LINE
  5
4128
  8
YODOROGO
 10
30189.604341291921
 20
1603.7494964292871
 30
0.0
 11
30105.604341291921
 21
1603.7494964292871
 31
0.0
  0
LINE
  5
4129
  8
YODOROGO
 10
30177.604341291921
 20
1551.817722473427
 30
0.0
 11
30189.604341291921
 21
1603.7494964292871
 31
0.0
  0
ARC
  5
412A
  8
YODOROGO
 10
30230.05882870045
 20
1868.885714953002
 30
0.0
 40
321.37763628529081
 50
260.60629297969911
 51
267.77903556555862
  0
LINE
  5
412B
  8
YODOROGO
 10
30217.604341291921
 20
1427.749496429285
 30
0.0
 11
30217.604341291921
 21
1547.749496429288
 31
0.0
  0
LINE
  5
412C
  8
YODOROGO
 10
29937.604341291932
 20
1481.3393349155101
 30
0.0
 11
29937.604341291921
 21
1594.531090531141
 31
0.0
  0
LINE
  5
412D
  8
YODOROGO
 10
30433.604341291921
 20
1573.749496429288
 30
0.0
 11
30381.604341291932
 21
1573.749496429288
 31
0.0
  0
LINE
  5
412E
  8
YODOROGO
 10
30433.604341291921
 20
1601.749496429285
 30
0.0
 11
30433.604341291921
 21
1573.749496429288
 31
0.0
  0
LINE
  5
412F
  8
YODOROGO
 10
30381.604341291932
 20
1601.749496429285
 30
0.0
 11
30433.604341291921
 21
1601.749496429285
 31
0.0
  0
LINE
  5
4130
  8
YODOROGO
 10
30381.604341291932
 20
1573.749496429288
 30
0.0
 11
30381.604341291932
 21
1601.749496429285
 31
0.0
  0
LINE
  5
4131
  8
YODOROGO
 10
30429.604341291921
 20
1577.7494964292871
 30
0.0
 11
30385.604341291921
 21
1577.7494964292871
 31
0.0
  0
LINE
  5
4132
  8
YODOROGO
 10
30429.604341291921
 20
1597.749496429288
 30
0.0
 11
30429.604341291921
 21
1577.7494964292871
 31
0.0
  0
LINE
  5
4133
  8
YODOROGO
 10
30385.604341291921
 20
1597.749496429288
 30
0.0
 11
30429.604341291921
 21
1597.749496429288
 31
0.0
  0
LINE
  5
4134
  8
YODOROGO
 10
30385.604341291921
 20
1577.7494964292871
 30
0.0
 11
30385.604341291921
 21
1597.749496429288
 31
0.0
  0
LINE
  5
4135
  8
YODOROGO
 10
30425.604341291921
 20
1581.749496429286
 30
0.0
 11
30389.604341291921
 21
1581.749496429286
 31
0.0
  0
LINE
  5
4136
  8
YODOROGO
 10
30425.604341291921
 20
1593.749496429288
 30
0.0
 11
30425.604341291921
 21
1581.749496429286
 31
0.0
  0
LINE
  5
4137
  8
YODOROGO
 10
30389.604341291921
 20
1593.749496429288
 30
0.0
 11
30425.604341291921
 21
1593.749496429288
 31
0.0
  0
LINE
  5
4138
  8
YODOROGO
 10
30389.604341291921
 20
1581.749496429286
 30
0.0
 11
30389.604341291921
 21
1593.749496429288
 31
0.0
  0
LINE
  5
4139
  8
YODOROGO
 10
30421.604341291932
 20
1585.7494964292871
 30
0.0
 11
30393.604341291921
 21
1585.7494964292871
 31
0.0
  0
LINE
  5
413A
  8
YODOROGO
 10
30421.604341291932
 20
1589.749496429288
 30
0.0
 11
30421.604341291932
 21
1585.7494964292871
 31
0.0
  0
LINE
  5
413B
  8
YODOROGO
 10
30393.604341291921
 20
1589.749496429288
 30
0.0
 11
30421.604341291932
 21
1589.749496429288
 31
0.0
  0
LINE
  5
413C
  8
YODOROGO
 10
30393.604341291921
 20
1585.7494964292871
 30
0.0
 11
30393.604341291921
 21
1589.749496429288
 31
0.0
  0
LINE
  5
413D
  8
YODOROGO
 10
30465.604341291921
 20
1627.749496429288
 30
0.0
 11
30381.604341291932
 21
1627.749496429288
 31
0.0
  0
LINE
  5
413E
  8
YODOROGO
 10
30465.604341291921
 20
1547.749496429288
 30
0.0
 11
30465.604341291921
 21
1627.749496429288
 31
0.0
  0
LINE
  5
413F
  8
YODOROGO
 10
30381.604341291932
 20
1547.749496429288
 30
0.0
 11
30465.604341291921
 21
1547.749496429288
 31
0.0
  0
LINE
  5
4140
  8
YODOROGO
 10
30381.604341291932
 20
1427.749496429288
 30
0.0
 11
30381.604341291932
 21
1547.749496429288
 31
0.0
  0
LINE
  5
4141
  8
YODOROGO
 10
30537.604341291921
 20
1427.749496429288
 30
0.0
 11
30381.604341291932
 21
1427.749496429288
 31
0.0
  0
LINE
  5
4142
  8
YODOROGO
 10
30569.604341291921
 20
1571.749496429285
 30
0.0
 11
30569.604341291921
 21
1599.7494964292871
 31
0.0
  0
ARC
  5
4143
  8
YODOROGO
 10
30545.604341291921
 20
1571.749496429291
 30
0.0
 40
24.000000000003752
 50
270.0
 51
359.99999999998772
  0
LINE
  5
4144
  8
YODOROGO
 10
30529.604341291939
 20
1547.749496429288
 30
0.0
 11
30545.604341291921
 21
1547.749496429288
 31
0.0
  0
LINE
  5
4145
  8
YODOROGO
 10
30529.604341291939
 20
1627.749496429288
 30
0.0
 11
30529.604341291939
 21
1547.749496429288
 31
0.0
  0
LINE
  5
4146
  8
YODOROGO
 10
30899.604341291932
 20
1547.749496429288
 30
0.0
 11
30925.604341291921
 21
1547.749496429288
 31
0.0
  0
LINE
  5
4147
  8
YODOROGO
 10
30933.604341291921
 20
1427.749496429288
 30
0.0
 11
30899.604341291932
 21
1427.749496429288
 31
0.0
  0
LINE
  5
4148
  8
YODOROGO
 10
30763.604341291921
 20
1563.7494964292871
 30
0.0
 11
30791.604341291921
 21
1563.7494964292871
 31
0.0
  0
LINE
  5
4149
  8
YODOROGO
 10
30899.604341291932
 20
1491.749496429288
 30
0.0
 11
30723.604341291921
 21
1491.749496429288
 31
0.0
  0
LINE
  5
414A
  8
YODOROGO
 10
30831.604341291921
 20
1563.7494964292871
 30
0.0
 11
30859.604341291932
 21
1563.7494964292871
 31
0.0
  0
LINE
  5
414B
  8
YODOROGO
 10
30899.604341291932
 20
1427.749496429288
 30
0.0
 11
30899.604341291932
 21
1547.749496429288
 31
0.0
  0
LINE
  5
414C
  8
YODOROGO
 10
30697.604341291932
 20
1427.749496429288
 30
0.0
 11
30645.604341291921
 21
1427.749496429288
 31
0.0
  0
LINE
  5
414D
  8
YODOROGO
 10
30617.604341291921
 20
1599.7494964292871
 30
0.0
 11
30617.604341291921
 21
1507.749496429288
 31
0.0
  0
ARC
  5
414E
  8
YODOROGO
 10
30933.604341291921
 20
1467.749496429288
 30
0.0
 40
40.0
 50
270.0
 51
0.0
  0
LINE
  5
414F
  8
YODOROGO
 10
31093.604341291921
 20
1523.7494964292871
 30
0.0
 11
31093.604341291921
 21
1427.749496429288
 31
0.0
  0
ARC
  5
4150
  8
YODOROGO
 10
31039.721395566768
 20
1637.5313901097329
 30
0.0
 40
125.8955565916754
 50
295.34052442160112
 51
359.18902303418679
  0
LINE
  5
4151
  8
YODOROGO
 10
30617.604341291921
 20
1859.749496429288
 30
0.0
 11
30497.604341291921
 21
1939.749496429288
 31
0.0
  0
LINE
  5
4152
  8
YODOROGO
 10
30497.604341291921
 20
2027.749496429288
 30
0.0
 11
30617.604341291921
 21
1947.749496429288
 31
0.0
  0
LINE
  5
4153
  8
YODOROGO
 10
30529.604341291939
 20
1679.749496429288
 30
0.0
 11
30617.604341291921
 21
1679.749496429288
 31
0.0
  0
LINE
  5
4154
  8
YODOROGO
 10
30617.604341291921
 20
1735.7494964292871
 30
0.0
 11
30529.604341291939
 21
1735.7494964292871
 31
0.0
  0
LINE
  5
4155
  8
YODOROGO
 10
30381.604341291932
 20
1795.7494964292871
 30
0.0
 11
30617.604341291921
 21
1795.7494964292871
 31
0.0
  0
LINE
  5
4156
  8
YODOROGO
 10
30081.604341291921
 20
2027.749496429288
 30
0.0
 11
30021.604341291921
 21
2027.749496429288
 31
0.0
  0
LINE
  5
4157
  8
YODOROGO
 10
30081.604341291921
 20
1827.7494964292871
 30
0.0
 11
30081.604341291921
 21
2027.749496429288
 31
0.0
  0
LINE
  5
4158
  8
YODOROGO
 10
30021.604341291921
 20
1827.7494964292871
 30
0.0
 11
30081.604341291921
 21
1827.7494964292871
 31
0.0
  0
LINE
  5
4159
  8
YODOROGO
 10
30021.604341291921
 20
2027.749496429288
 30
0.0
 11
30021.604341291921
 21
1827.7494964292871
 31
0.0
  0
LINE
  5
415A
  8
YODOROGO
 10
30161.604341291921
 20
2027.749496429288
 30
0.0
 11
30217.604341291921
 21
2027.749496429288
 31
0.0
  0
LINE
  5
415B
  8
YODOROGO
 10
30161.604341291921
 20
1811.749496429288
 30
0.0
 11
30161.604341291921
 21
2027.749496429288
 31
0.0
  0
ARC
  5
415C
  8
YODOROGO
 10
30121.604341291921
 20
1811.749496429288
 30
0.0
 40
40.0
 50
270.0
 51
0.0
  0
LINE
  5
415D
  8
YODOROGO
 10
30021.604341291921
 20
1771.7494964292871
 30
0.0
 11
30121.604341291921
 21
1771.7494964292871
 31
0.0
  0
LINE
  5
415E
  8
YODOROGO
 10
30021.604341291921
 20
1707.749496429288
 30
0.0
 11
30021.604341291921
 21
1771.7494964292871
 31
0.0
  0
LINE
  5
415F
  8
YODOROGO
 10
30137.604341291921
 20
1707.749496429288
 30
0.0
 11
30021.604341291921
 21
1707.749496429288
 31
0.0
  0
ARC
  5
4160
  8
YODOROGO
 10
30137.604341291921
 20
1787.7494964292871
 30
0.0
 40
80.0
 50
270.0
 51
0.0
  0
LINE
  5
4161
  8
YODOROGO
 10
30217.604341291921
 20
2027.749496429288
 30
0.0
 11
30217.604341291921
 21
1787.7494964292871
 31
0.0
  0
LINE
  5
4162
  8
YODOROGO
 10
29977.604341291921
 20
1947.749496429288
 30
0.0
 11
29977.604341291921
 21
1995.7494964292871
 31
0.0
1001
AUTOCAD_POSTSCRIPT_FIGURE
1002
{
1000
PSFILL
1000
Grayscale
1000
Grayscale
1070
    25
1002
}
  0
LINE
  5
4163
  8
YODOROGO
 10
29977.604341291921
 20
1859.749496429288
 30
0.0
 11
29977.604341291921
 21
1907.7494964292871
 31
0.0
1001
AUTOCAD_POSTSCRIPT_FIGURE
1002
{
1000
PSFILL
1000
Grayscale
1000
Grayscale
1070
    25
1002
}
  0
LINE
  5
4164
  8
YODOROGO
 10
29977.604341291921
 20
1707.749496429288
 30
0.0
 11
29977.604341291921
 21
1819.7494964292871
 31
0.0
1001
AUTOCAD_POSTSCRIPT_FIGURE
1002
{
1000
PSFILL
1000
Grayscale
1000
Grayscale
1070
    25
1002
}
  0
LINE
  5
4165
  8
YODOROGO
 10
30381.604341291932
 20
1907.7494964292871
 30
0.0
 11
30497.604341291921
 21
2027.749496429288
 31
0.0
  0
LINE
  5
4166
  8
YODOROGO
 10
30381.604341291932
 20
1819.7494964292871
 30
0.0
 11
30381.604341291932
 21
1907.7494964292871
 31
0.0
  0
LINE
  5
4167
  8
YODOROGO
 10
30497.604341291921
 20
1939.749496429288
 30
0.0
 11
30381.604341291932
 21
1819.7494964292871
 31
0.0
  0
LINE
  5
4168
  8
YODOROGO
 10
30465.604341291921
 20
1679.749496429288
 30
0.0
 11
30465.604341291921
 21
1735.7494964292871
 31
0.0
  0
LINE
  5
4169
  8
YODOROGO
 10
30381.604341291932
 20
1679.749496429288
 30
0.0
 11
30465.604341291921
 21
1679.749496429288
 31
0.0
  0
LINE
  5
416A
  8
YODOROGO
 10
30529.604341291939
 20
1735.7494964292871
 30
0.0
 11
30529.604341291939
 21
1679.749496429288
 31
0.0
  0
LINE
  5
416B
  8
YODOROGO
 10
30381.604341291932
 20
1735.7494964292871
 30
0.0
 11
30381.604341291932
 21
1795.7494964292871
 31
0.0
  0
LINE
  5
416C
  8
YODOROGO
 10
30465.604341291921
 20
1735.7494964292871
 30
0.0
 11
30381.604341291932
 21
1735.7494964292871
 31
0.0
  0
LINE
  5
416D
  8
YODOROGO
 10
30645.604341291921
 20
2027.749496429288
 30
0.0
 11
30973.604341291921
 21
2027.749496429288
 31
0.0
  0
LINE
  5
416E
  8
YODOROGO
 10
30925.604341291921
 20
1963.749496429286
 30
0.0
 11
30697.604341291932
 21
1963.749496429286
 31
0.0
  0
LINE
  5
416F
  8
YODOROGO
 10
30873.604341291921
 20
1819.7494964292871
 30
0.0
 11
30899.604341291932
 21
1819.7494964292871
 31
0.0
  0
LINE
  5
4170
  8
YODOROGO
 10
30899.604341291932
 20
1939.749496429288
 30
0.0
 11
30873.604341291921
 21
1819.7494964292871
 31
0.0
  0
LINE
  5
4171
  8
YODOROGO
 10
30851.604341291939
 20
1939.749496429288
 30
0.0
 11
30899.604341291932
 21
1939.749496429288
 31
0.0
  0
LINE
  5
4172
  8
YODOROGO
 10
30825.604341291921
 20
1819.7494964292871
 30
0.0
 11
30851.604341291939
 21
1939.749496429288
 31
0.0
  0
LINE
  5
4173
  8
YODOROGO
 10
30797.604341291921
 20
1819.7494964292871
 30
0.0
 11
30825.604341291921
 21
1819.7494964292871
 31
0.0
  0
LINE
  5
4174
  8
YODOROGO
 10
30771.604341291939
 20
1939.749496429288
 30
0.0
 11
30797.604341291921
 21
1819.7494964292871
 31
0.0
  0
LINE
  5
4175
  8
YODOROGO
 10
30723.604341291921
 20
1939.749496429288
 30
0.0
 11
30771.604341291939
 21
1939.749496429288
 31
0.0
  0
LINE
  5
4176
  8
YODOROGO
 10
30749.604341291921
 20
1819.7494964292871
 30
0.0
 11
30723.604341291921
 21
1939.749496429288
 31
0.0
  0
LINE
  5
4177
  8
YODOROGO
 10
30723.604341291921
 20
1819.7494964292871
 30
0.0
 11
30749.604341291921
 21
1819.7494964292871
 31
0.0
  0
LINE
  5
4178
  8
YODOROGO
 10
30723.604341291921
 20
1755.7494964292871
 30
0.0
 11
30723.604341291921
 21
1819.7494964292871
 31
0.0
  0
LINE
  5
4179
  8
YODOROGO
 10
30899.604341291932
 20
1755.7494964292871
 30
0.0
 11
30723.604341291921
 21
1755.7494964292871
 31
0.0
  0
LINE
  5
417A
  8
YODOROGO
 10
30899.604341291932
 20
1819.7494964292871
 30
0.0
 11
30899.604341291932
 21
1755.7494964292871
 31
0.0
  0
LINE
  5
417B
  8
YODOROGO
 10
30617.604341291921
 20
1947.749496429288
 30
0.0
 11
30617.604341291921
 21
1859.749496429288
 31
0.0
  0
LINE
  5
417C
  8
YODOROGO
 10
30791.604341291921
 20
1755.7494964292871
 30
0.0
 11
30831.604341291921
 21
1755.7494964292871
 31
0.0
  0
LINE
  5
417D
  8
YODOROGO
 10
30723.604341291921
 20
1691.749496429288
 30
0.0
 11
30763.604341291921
 21
1691.749496429288
 31
0.0
  0
LINE
  5
417E
  8
YODOROGO
 10
30859.604341291932
 20
1691.749496429288
 30
0.0
 11
30899.604341291932
 21
1691.749496429288
 31
0.0
  0
LINE
  5
417F
  8
YODOROGO
 10
30617.604341291921
 20
1795.7494964292871
 30
0.0
 11
30617.604341291921
 21
1735.7494964292871
 31
0.0
  0
LINE
  5
4180
  8
YODOROGO
 10
31165.604341291921
 20
2027.749496429288
 30
0.0
 11
31165.604341291921
 21
1963.749496429286
 31
0.0
  0
LINE
  5
4181
  8
YODOROGO
 10
31533.604341291921
 20
1595.7494964292871
 30
0.0
 11
31533.60434129191
 21
1811.749496429288
 31
0.0
  0
LINE
  5
4182
  8
YODOROGO
 10
31461.60434129191
 20
1987.7494964292871
 30
0.0
 11
31461.60434129191
 21
1635.7494964292871
 31
0.0
  0
LINE
  5
4183
  8
YODOROGO
 10
31653.604341291921
 20
1427.749496429288
 30
0.0
 11
31653.60434129191
 21
1811.749496429288
 31
0.0
  0
LINE
  5
4184
  8
YODOROGO
 10
31589.604341291921
 20
1811.749496429288
 30
0.0
 11
31589.604341291921
 21
1427.749496429288
 31
0.0
  0
LINE
  5
4185
  8
YODOROGO
 10
31237.604341291921
 20
1595.7494964292871
 30
0.0
 11
31237.604341291921
 21
1707.749496429288
 31
0.0
  0
ARC
  5
4186
  8
YODOROGO
 10
31353.914865116069
 20
1607.790351288558
 30
0.0
 40
180.0924485759885
 50
268.62849102169793
 51
356.16638457330322
  0
LINE
  5
4187
  8
YODOROGO
 10
31349.604341291939
 20
1527.749496429288
 30
0.0
 11
31349.604341291939
 21
1427.749496429288
 31
0.0
  0
ARC
  5
4188
  8
YODOROGO
 10
31351.518075724562
 20
1637.838957017655
 30
0.0
 40
110.1060929836122
 50
269.00410209305932
 51
358.91264455492478
  0
LINE
  5
4189
  8
YODOROGO
 10
31589.604341291921
 20
1427.749496429288
 30
0.0
 11
31653.604341291921
 21
1427.749496429288
 31
0.0
  0
LINE
  5
418A
  8
YODOROGO
 10
31533.60434129191
 20
1811.749496429288
 30
0.0
 11
31589.604341291921
 21
1811.749496429288
 31
0.0
  0
LINE
  5
418B
  8
YODOROGO
 10
31621.604341291939
 20
1987.7494964292871
 30
0.0
 11
31461.60434129191
 21
1987.7494964292871
 31
0.0
  0
LINE
  5
418C
  8
YODOROGO
 10
31533.60434129191
 20
1915.7494964292871
 30
0.0
 11
31661.604341291939
 21
1915.7494964292871
 31
0.0
  0
LINE
  5
418D
  8
YODOROGO
 10
31701.604341291939
 20
1875.7494964292871
 30
0.0
 11
31533.60434129191
 21
1875.7494964292871
 31
0.0
  0
LINE
  5
418E
  8
YODOROGO
 10
31237.604341291921
 20
1779.749496429288
 30
0.0
 11
31349.604341291939
 21
1779.749496429288
 31
0.0
  0
LINE
  5
418F
  8
YODOROGO
 10
31237.604341291921
 20
1835.7494964292871
 30
0.0
 11
31237.604341291921
 21
1779.749496429288
 31
0.0
  0
LINE
  5
4190
  8
YODOROGO
 10
31349.604341291939
 20
1835.7494964292871
 30
0.0
 11
31237.604341291921
 21
1835.7494964292871
 31
0.0
  0
LINE
  5
4191
  8
YODOROGO
 10
31349.604341291939
 20
1779.749496429288
 30
0.0
 11
31349.604341291939
 21
1835.7494964292871
 31
0.0
  0
LINE
  5
4192
  8
YODOROGO
 10
31533.60434129191
 20
1875.7494964292871
 30
0.0
 11
31533.60434129191
 21
1915.7494964292871
 31
0.0
  0
LINE
  5
4193
  8
YODOROGO
 10
31413.604341291921
 20
1707.749496429288
 30
0.0
 11
31413.604341291921
 21
1907.7494964292871
 31
0.0
  0
LINE
  5
4194
  8
YODOROGO
 10
31237.604341291921
 20
1707.749496429288
 30
0.0
 11
31413.604341291921
 21
1707.749496429288
 31
0.0
  0
LINE
  5
4195
  8
YODOROGO
 10
31413.604341291921
 20
1963.749496429286
 30
0.0
 11
31413.604341291921
 21
2027.749496429288
 31
0.0
  0
ARC
  5
4196
  8
YODOROGO
 10
31621.604341291939
 20
2003.749496429285
 30
0.0
 40
15.999999999994539
 50
270.0
 51
0.0000000000081422
  0
LINE
  5
4197
  8
YODOROGO
 10
31637.604341291921
 20
2027.749496429288
 30
0.0
 11
31637.604341291921
 21
2003.7494964292871
 31
0.0
  0
LINE
  5
4198
  8
YODOROGO
 10
31701.604341291939
 20
2027.749496429288
 30
0.0
 11
31637.604341291921
 21
2027.749496429288
 31
0.0
  0
LINE
  5
4199
  8
YODOROGO
 10
31701.604341291939
 20
1955.7494964292871
 30
0.0
 11
31701.604341291939
 21
2027.749496429288
 31
0.0
  0
ARC
  5
419A
  8
YODOROGO
 10
31661.604341291939
 20
1955.7494964292871
 30
0.0
 40
40.0
 50
270.0
 51
0.0
  0
LINE
  5
419B
  8
YODOROGO
 10
31701.604341291939
 20
1811.749496429288
 30
0.0
 11
31701.604341291939
 21
1875.7494964292871
 31
0.0
  0
LINE
  5
419C
  8
YODOROGO
 10
31653.60434129191
 20
1811.749496429288
 30
0.0
 11
31701.604341291939
 21
1811.749496429288
 31
0.0
  0
LINE
  5
419D
  8
SUNPOU
  6
CONTINUOUS
 62
     4
 10
5041.8197189664434
 20
13872.31947999998
 30
0.0
 11
5041.8197189664434
 21
13043.368360999981
 31
0.0
  0
LINE
  5
419E
  8
SUNPOU
  6
CONTINUOUS
 62
     4
 10
13785.81961296643
 20
13872.31947999998
 30
0.0
 11
13785.81961296643
 21
13043.368360999981
 31
0.0
  0
LINE
  5
419F
  8
SUNPOU
  6
CONTINUOUS
 62
     4
 10
5041.8197189664434
 20
13123.368360999981
 30
0.0
 11
13785.81961296643
 21
13123.368360999981
 31
0.0
  0
LINE
  5
41A0
  8
SUNPOU
  6
CONTINUOUS
 62
     4
 10
4956.3197199664401
 20
19932.312354000002
 30
0.0
 11
4956.3197199664401
 21
20482.317632999999
 31
0.0
  0
LINE
  5
41A1
  8
SUNPOU
  6
CONTINUOUS
 62
     4
 10
5041.8197199664392
 20
20402.317632999999
 30
0.0
 11
5281.8197199664382
 21
20402.317632999999
 31
0.0
  0
LINE
  5
41A2
  8
SUNPOU
  6
CONTINUOUS
 62
     4
 10
4959.3197199664401
 20
20402.317632999999
 30
0.0
 11
4719.3197199664382
 21
20402.317632999999
 31
0.0
  0
LINE
  5
41A3
  8
SUNPOU
  6
CONTINUOUS
 62
     4
 10
5041.8197199664392
 20
20402.317632999999
 30
0.0
 11
4959.3197199664401
 21
20402.317632999999
 31
0.0
  0
LINE
  5
41A4
  8
SUNPOU
  6
CONTINUOUS
 62
     4
 10
7959.8197199664382
 20
20402.317632999999
 30
0.0
 11
5041.8197199664392
 21
20402.317632999999
 31
0.0
  0
LINE
  5
41A5
  8
SUNPOU
 62
     4
 10
7959.8197199664382
 20
20402.317632999999
 30
0.0
 11
10867.81961396642
 21
20402.317632999999
 31
0.0
  0
LINE
  5
41A6
  8
SUNPOU
  6
CONTINUOUS
 62
     4
 10
13871.31961396642
 20
19932.312354000002
 30
0.0
 11
13871.31961396642
 21
20482.317632999999
 31
0.0
  0
LINE
  5
41A7
  8
SUNPOU
  6
CONTINUOUS
 62
     4
 10
13785.81961396642
 20
20402.317632999999
 30
0.0
 11
13545.81961396642
 21
20402.317632999999
 31
0.0
  0
LINE
  5
41A8
  8
SUNPOU
  6
CONTINUOUS
 62
     4
 10
13868.31961396642
 20
20402.317632999999
 30
0.0
 11
14108.319613966411
 21
20402.317632999999
 31
0.0
  0
LINE
  5
41A9
  8
SUNPOU
  6
CONTINUOUS
 62
     4
 10
13785.81961396642
 20
20402.317632999999
 30
0.0
 11
13868.31961396642
 21
20402.317632999999
 31
0.0
  0
LINE
  5
41AA
  8
SUNPOU
  6
CONTINUOUS
 62
     4
 10
10867.81961396642
 20
20402.317632999999
 30
0.0
 11
13785.81961396642
 21
20402.317632999999
 31
0.0
  0
LINE
  5
41AB
  8
SUNPOU
  6
CONTINUOUS
 62
     4
 10
4879.3163529664416
 20
14302.32112999998
 30
0.0
 11
4032.3209319664438
 21
14302.32112999998
 31
0.0
  0
LINE
  5
41AC
  8
SUNPOU
  6
CONTINUOUS
 62
     4
 10
4112.320931966442
 20
14494.81644499998
 30
0.0
 11
4112.320931966442
 21
14734.81644499998
 31
0.0
  0
LINE
  5
41AD
  8
SUNPOU
  6
CONTINUOUS
 62
     4
 10
4112.320931966442
 20
14302.32112999998
 30
0.0
 11
4112.320931966442
 21
14062.32112999998
 31
0.0
  0
LINE
  5
41AE
  8
SUNPOU
  6
CONTINUOUS
 62
     4
 10
4112.320931966442
 20
14494.81644499998
 30
0.0
 11
4112.320931966442
 21
14302.32112999998
 31
0.0
  0
LINE
  5
41AF
  8
SUNPOU
  6
CONTINUOUS
 62
     4
 10
4112.320931966442
 20
17062.316444999979
 30
0.0
 11
4112.320931966442
 21
14494.81644499998
 31
0.0
  0
LINE
  5
41B0
  8
SUNPOU
  6
CONTINUOUS
 62
     4
 10
4879.3163529664398
 20
19842.312354000002
 30
0.0
 11
4432.320931966442
 21
19842.312354000002
 31
0.0
  0
LINE
  5
41B1
  8
SUNPOU
  6
CONTINUOUS
 62
     4
 10
4879.3207079664398
 20
19852.312354000002
 30
0.0
 11
4432.320931966442
 21
19852.312354000002
 31
0.0
  0
LINE
  5
41B2
  8
SUNPOU
  6
CONTINUOUS
 62
     4
 10
4512.3209319664411
 20
19842.312354000002
 30
0.0
 11
4512.3209319664411
 21
19602.312354000002
 31
0.0
  0
LINE
  5
41B3
  8
SUNPOU
  6
CONTINUOUS
 62
     4
 10
4512.3209319664411
 20
19852.312354000002
 30
0.0
 11
4512.3209319664411
 21
20092.312354000002
 31
0.0
  0
LINE
  5
41B4
  8
SUNPOU
  6
CONTINUOUS
 62
     4
 10
4512.3209319664411
 20
19842.312354000002
 30
0.0
 11
4512.3209319664411
 21
19852.312354000002
 31
0.0
  0
LINE
  5
41B5
  8
SUNPOU
  6
CONTINUOUS
 62
     4
 10
4879.3207079664398
 20
19852.312354000002
 30
0.0
 11
4032.3209319664429
 21
19852.312354000002
 31
0.0
  0
LINE
  5
41B6
  8
SUNPOU
  6
CONTINUOUS
 62
     4
 10
4112.320931966442
 20
19629.816444999949
 30
0.0
 11
4112.320931966442
 21
19389.816444999949
 31
0.0
  0
LINE
  5
41B7
  8
SUNPOU
  6
CONTINUOUS
 62
     4
 10
4112.320931966442
 20
19852.312354000002
 30
0.0
 11
4112.320931966442
 21
20092.312354000002
 31
0.0
  0
LINE
  5
41B8
  8
SUNPOU
  6
CONTINUOUS
 62
     4
 10
4112.320931966442
 20
19629.816444999949
 30
0.0
 11
4112.320931966442
 21
19852.312354000002
 31
0.0
  0
LINE
  5
41B9
  8
SUNPOU
  6
CONTINUOUS
 62
     4
 10
4112.3209319664411
 20
17062.316444999979
 30
0.0
 11
4112.320931966442
 21
19629.816444999949
 31
0.0
  0
LINE
  5
41BA
  8
SUNPOU
  6
CONTINUOUS
 62
     4
 10
26035.674407999959
 20
19222.31644499996
 30
0.0
 11
27085.675727999958
 21
19222.31644499996
 31
0.0
  0
LINE
  5
41BB
  8
SUNPOU
  6
CONTINUOUS
 62
     4
 10
26885.675727999958
 20
19629.816444999949
 30
0.0
 11
27085.675727999958
 21
19629.816444999949
 31
0.0
  0
LINE
  5
41BC
  8
SUNPOU
  6
CONTINUOUS
 62
     4
 10
27005.675727999958
 20
19222.31644499996
 30
0.0
 11
27005.675727999958
 21
19629.816444999949
 31
0.0
  0
LINE
  5
41BD
  8
SUNPOU
 62
     4
 10
23753.176123999961
 20
19752.314729999998
 30
0.0
 11
23753.176123999961
 21
20482.317632999999
 31
0.0
  0
LINE
  5
41BE
  8
SUNPOU
 62
     4
 10
22995.176123999961
 20
19752.314729999998
 30
0.0
 11
22995.176123999961
 21
20482.317632999999
 31
0.0
  0
LINE
  5
41BF
  8
SUNPOU
 62
     4
 10
23753.176123999961
 20
20402.317632999999
 30
0.0
 11
22995.176123999961
 21
20402.317632999999
 31
0.0
  0
LINE
  5
41C0
  8
SUNPOU
 62
     4
 10
17577.170844999979
 20
19752.314729999998
 30
0.0
 11
17577.170844999979
 21
20482.317632999999
 31
0.0
  0
LINE
  5
41C1
  8
SUNPOU
 62
     4
 10
18335.170844999979
 20
19752.314729999998
 30
0.0
 11
18335.170844999979
 21
20482.317632999999
 31
0.0
  0
LINE
  5
41C2
  8
SUNPOU
 62
     4
 10
17577.170844999979
 20
20402.317632999999
 30
0.0
 11
18335.170844999979
 21
20402.317632999999
 31
0.0
  0
LINE
  5
41C3
  8
2-0
  6
CONTINUOUS
 62
     3
 10
22952.676123999961
 20
14452.31644499998
 30
0.0
 11
23037.676123999961
 21
14452.31644499998
 31
0.0
  0
LINE
  5
41C4
  8
2-0
  6
CONTINUOUS
 62
     3
 10
23037.676123999961
 20
14452.31644499998
 30
0.0
 11
23037.676123999961
 21
14537.31644499998
 31
0.0
  0
LINE
  5
41C5
  8
2-0
  6
CONTINUOUS
 62
     3
 10
23037.676123999961
 20
14537.31644499998
 30
0.0
 11
22952.676123999961
 21
14537.31644499998
 31
0.0
  0
LINE
  5
41C6
  8
2-0
  6
CONTINUOUS
 62
     3
 10
22952.676123999961
 20
14537.31644499998
 30
0.0
 11
22952.676123999961
 21
14452.31644499998
 31
0.0
  0
LINE
  5
41C7
  8
2-0
  6
CONTINUOUS
 62
     3
 10
20452.670844999979
 20
14452.31644499998
 30
0.0
 11
20537.670845000001
 21
14452.31644499998
 31
0.0
  0
LINE
  5
41C8
  8
2-0
  6
CONTINUOUS
 62
     3
 10
20537.670845000001
 20
14452.31644499998
 30
0.0
 11
20537.670845000001
 21
14537.31644499998
 31
0.0
  0
LINE
  5
41C9
  8
2-0
  6
CONTINUOUS
 62
     3
 10
20537.670845000001
 20
14537.31644499998
 30
0.0
 11
20452.670844999979
 21
14537.31644499998
 31
0.0
  0
LINE
  5
41CA
  8
2-0
  6
CONTINUOUS
 62
     3
 10
20452.670844999979
 20
14537.31644499998
 30
0.0
 11
20452.670844999979
 21
14452.31644499998
 31
0.0
  0
LINE
  5
41CB
  8
SUNPOU
  6
CONTINUOUS
 62
     4
 10
25913.176123999961
 20
13789.05301099998
 30
0.0
 11
25913.176123999961
 21
13443.368360999981
 31
0.0
  0
LINE
  5
41CC
  8
SUNPOU
  6
CONTINUOUS
 62
     4
 10
25870.67388099997
 20
14372.319149999979
 30
0.0
 11
25870.67388099997
 21
13443.368360999981
 31
0.0
  0
LINE
  5
41CD
  8
SUNPOU
  6
CONTINUOUS
 62
     4
 10
25913.176123999961
 20
13523.368360999981
 30
0.0
 11
26153.176123999961
 21
13523.368360999981
 31
0.0
  0
LINE
  5
41CE
  8
SUNPOU
  6
CONTINUOUS
 62
     4
 10
25870.67388099997
 20
13523.368360999981
 30
0.0
 11
25630.67388099997
 21
13523.368360999981
 31
0.0
  0
LINE
  5
41CF
  8
SUNPOU
  6
CONTINUOUS
 62
     4
 10
25913.176123999961
 20
13523.368360999981
 30
0.0
 11
25870.67388099997
 21
13523.368360999981
 31
0.0
  0
LINE
  5
41D0
  8
SUNPOU
  6
CONTINUOUS
 62
     4
 10
17577.170844999979
 20
13789.05301099998
 30
0.0
 11
17577.170844999979
 21
13443.368360999981
 31
0.0
  0
LINE
  5
41D1
  8
SUNPOU
  6
CONTINUOUS
 62
     4
 10
17619.673087999989
 20
14372.319149999979
 30
0.0
 11
17619.673087999989
 21
13443.368360999981
 31
0.0
  0
LINE
  5
41D2
  8
SUNPOU
  6
CONTINUOUS
 62
     4
 10
17577.170844999979
 20
13523.368360999981
 30
0.0
 11
17337.170844999979
 21
13523.368360999981
 31
0.0
  0
LINE
  5
41D3
  8
SUNPOU
  6
CONTINUOUS
 62
     4
 10
17619.673087999989
 20
13523.368360999981
 30
0.0
 11
17859.673087999989
 21
13523.368360999981
 31
0.0
  0
LINE
  5
41D4
  8
SUNPOU
  6
CONTINUOUS
 62
     4
 10
17577.170844999979
 20
13523.368360999981
 30
0.0
 11
17619.673087999989
 21
13523.368360999981
 31
0.0
  0
LINE
  5
41D5
  8
SUNPOU
  6
CONTINUOUS
 62
     4
 10
17577.170844999979
 20
13789.05301099998
 30
0.0
 11
17577.170844999979
 21
13043.368360999981
 31
0.0
  0
LINE
  5
41D6
  8
SUNPOU
  6
CONTINUOUS
 62
     4
 10
25913.176123999961
 20
13789.05301099998
 30
0.0
 11
25913.176123999961
 21
13043.368360999981
 31
0.0
  0
LINE
  5
41D7
  8
SUNPOU
  6
CONTINUOUS
 62
     4
 10
17577.170844999979
 20
13123.368360999981
 30
0.0
 11
25913.176123999961
 21
13123.368360999981
 31
0.0
  0
LINE
  5
41D8
  8
SUNPOU
  6
CONTINUOUS
 62
     4
 10
26035.674407999959
 20
14902.31644499998
 30
0.0
 11
27085.675727999958
 21
14902.31644499998
 31
0.0
  0
LINE
  5
41D9
  8
SUNPOU
  6
CONTINUOUS
 62
     4
 10
26885.675727999958
 20
14494.81644499998
 30
0.0
 11
27085.675727999958
 21
14494.81644499998
 31
0.0
  0
LINE
  5
41DA
  8
SUNPOU
  6
CONTINUOUS
 62
     4
 10
27005.675727999958
 20
14902.31644499998
 30
0.0
 11
27005.675727999958
 21
14494.81644499998
 31
0.0
  0
LINE
  5
41DB
  8
SUNPOU
  6
CONTINUOUS
 62
     4
 10
26035.674407999959
 20
15603.556956500001
 30
0.0
 11
27085.675727999958
 21
15603.556956500001
 31
0.0
  0
LINE
  5
41DC
  8
SUNPOU
  6
CONTINUOUS
 62
     4
 10
26035.674407999959
 20
14902.31644499998
 30
0.0
 11
27085.675727999958
 21
14902.31644499998
 31
0.0
  0
LINE
  5
41DD
  8
SUNPOU
  6
CONTINUOUS
 62
     4
 10
27005.675727999958
 20
15603.556956500001
 30
0.0
 11
27005.675727999958
 21
14902.31644499998
 31
0.0
  0
LINE
  5
41DE
  8
SUNPOU
  6
CONTINUOUS
 62
     4
 10
26035.674407999959
 20
16304.31644499998
 30
0.0
 11
27085.675727999958
 21
16304.31644499998
 31
0.0
  0
LINE
  5
41DF
  8
SUNPOU
  6
CONTINUOUS
 62
     4
 10
26035.674407999959
 20
15603.556956500001
 30
0.0
 11
27085.675727999958
 21
15603.556956500001
 31
0.0
  0
LINE
  5
41E0
  8
SUNPOU
  6
CONTINUOUS
 62
     4
 10
27005.675727999958
 20
16304.31644499998
 30
0.0
 11
27005.675727999958
 21
15603.556956500001
 31
0.0
  0
LINE
  5
41E1
  8
SUNPOU
  6
CONTINUOUS
 62
     4
 10
26885.675727999958
 20
17062.316444999979
 30
0.0
 11
27085.675727999958
 21
17062.316444999979
 31
0.0
  0
LINE
  5
41E2
  8
SUNPOU
  6
CONTINUOUS
 62
     4
 10
26035.674407999959
 20
16304.31644499998
 30
0.0
 11
27085.675727999958
 21
16304.31644499998
 31
0.0
  0
LINE
  5
41E3
  8
SUNPOU
  6
CONTINUOUS
 62
     4
 10
27005.675727999958
 20
17062.316444999979
 30
0.0
 11
27005.675727999958
 21
16304.31644499998
 31
0.0
  0
LINE
  5
41E4
  8
SUNPOU
  6
CONTINUOUS
 62
     4
 10
26035.674407999959
 20
17820.316444999979
 30
0.0
 11
27085.675727999958
 21
17820.316444999979
 31
0.0
  0
LINE
  5
41E5
  8
SUNPOU
  6
CONTINUOUS
 62
     4
 10
26885.675727999958
 20
17062.316444999979
 30
0.0
 11
27085.675727999958
 21
17062.316444999979
 31
0.0
  0
LINE
  5
41E6
  8
SUNPOU
  6
CONTINUOUS
 62
     4
 10
27005.675727999958
 20
17820.316444999979
 30
0.0
 11
27005.675727999958
 21
17062.316444999979
 31
0.0
  0
LINE
  5
41E7
  8
SUNPOU
  6
CONTINUOUS
 62
     4
 10
26035.674407999959
 20
18521.31644499996
 30
0.0
 11
27085.675727999958
 21
18521.31644499996
 31
0.0
  0
LINE
  5
41E8
  8
SUNPOU
  6
CONTINUOUS
 62
     4
 10
26035.674407999959
 20
17820.316444999979
 30
0.0
 11
27085.675727999958
 21
17820.316444999979
 31
0.0
  0
LINE
  5
41E9
  8
SUNPOU
  6
CONTINUOUS
 62
     4
 10
27005.675727999958
 20
18521.31644499996
 30
0.0
 11
27005.675727999958
 21
17820.316444999979
 31
0.0
  0
LINE
  5
41EA
  8
SUNPOU
  6
CONTINUOUS
 62
     4
 10
26035.674407999959
 20
19222.31644499996
 30
0.0
 11
27085.675727999958
 21
19222.31644499996
 31
0.0
  0
LINE
  5
41EB
  8
SUNPOU
  6
CONTINUOUS
 62
     4
 10
26035.674407999959
 20
18521.31644499996
 30
0.0
 11
27085.675727999958
 21
18521.31644499996
 31
0.0
  0
LINE
  5
41EC
  8
SUNPOU
  6
CONTINUOUS
 62
     4
 10
27005.675727999958
 20
19222.31644499996
 30
0.0
 11
27005.675727999958
 21
18521.31644499996
 31
0.0
  0
LINE
  5
41ED
  8
SUNPOU
  6
CONTINUOUS
 62
     4
 10
26885.675727999958
 20
17062.316444999979
 30
0.0
 11
27485.675727999958
 21
17062.316444999979
 31
0.0
  0
LINE
  5
41EE
  8
SUNPOU
  6
CONTINUOUS
 62
     4
 10
26885.675727999958
 20
19629.816444999949
 30
0.0
 11
27485.675727999958
 21
19629.816444999949
 31
0.0
  0
LINE
  5
41EF
  8
SUNPOU
  6
CONTINUOUS
 62
     4
 10
27405.675727999958
 20
17062.316444999979
 30
0.0
 11
27405.675727999958
 21
19629.816444999949
 31
0.0
  0
LINE
  5
41F0
  8
SUNPOU
  6
CONTINUOUS
 62
     4
 10
26885.675727999958
 20
14494.81644499998
 30
0.0
 11
27485.675727999958
 21
14494.81644499998
 31
0.0
  0
LINE
  5
41F1
  8
SUNPOU
  6
CONTINUOUS
 62
     4
 10
26885.675727999958
 20
17062.316444999979
 30
0.0
 11
27485.675727999958
 21
17062.316444999979
 31
0.0
  0
LINE
  5
41F2
  8
SUNPOU
  6
CONTINUOUS
 62
     4
 10
27405.675727999958
 20
14494.81644499998
 30
0.0
 11
27405.675727999958
 21
17062.316444999979
 31
0.0
  0
LINE
  5
41F3
  8
SUNPOU
  6
CONTINUOUS
 62
     4
 10
26035.674407999959
 20
19672.31373999998
 30
0.0
 11
27885.675727999958
 21
19672.31373999998
 31
0.0
  0
LINE
  5
41F4
  8
SUNPOU
  6
CONTINUOUS
 62
     4
 10
26035.674407999959
 20
14452.319149999979
 30
0.0
 11
27885.675727999958
 21
14452.319149999979
 31
0.0
  0
LINE
  5
41F5
  8
SUNPOU
  6
CONTINUOUS
 62
     4
 10
27805.675727999958
 20
19672.31373999998
 30
0.0
 11
27805.675727999958
 21
14452.319149999979
 31
0.0
  0
LINE
  5
41F6
  8
SUNPOU
  6
CONTINUOUS
 62
     4
 10
26885.675727999958
 20
19629.816444999949
 30
0.0
 11
27485.675727999958
 21
19629.816444999949
 31
0.0
  0
LINE
  5
41F7
  8
SUNPOU
  6
CONTINUOUS
 62
     4
 10
26035.674407999959
 20
19672.31373999998
 30
0.0
 11
27485.675727999958
 21
19672.31373999998
 31
0.0
  0
LINE
  5
41F8
  8
SUNPOU
  6
CONTINUOUS
 62
     4
 10
27405.675727999958
 20
19629.816444999949
 30
0.0
 11
27405.675727999958
 21
19389.816444999949
 31
0.0
  0
LINE
  5
41F9
  8
SUNPOU
  6
CONTINUOUS
 62
     4
 10
27405.675727999958
 20
19672.31373999998
 30
0.0
 11
27405.675727999958
 21
19912.31373999998
 31
0.0
  0
LINE
  5
41FA
  8
SUNPOU
  6
CONTINUOUS
 62
     4
 10
27405.675727999958
 20
19629.816444999949
 30
0.0
 11
27405.675727999958
 21
19672.31373999998
 31
0.0
  0
LINE
  5
41FB
  8
SUNPOU
  6
CONTINUOUS
 62
     4
 10
26885.675727999958
 20
14494.81644499998
 30
0.0
 11
27485.675727999958
 21
14494.81644499998
 31
0.0
  0
LINE
  5
41FC
  8
SUNPOU
  6
CONTINUOUS
 62
     4
 10
26035.674407999959
 20
14452.319149999979
 30
0.0
 11
27485.675727999958
 21
14452.319149999979
 31
0.0
  0
LINE
  5
41FD
  8
SUNPOU
  6
CONTINUOUS
 62
     4
 10
27405.675727999958
 20
14494.81644499998
 30
0.0
 11
27405.675727999958
 21
14734.81644499998
 31
0.0
  0
LINE
  5
41FE
  8
SUNPOU
  6
CONTINUOUS
 62
     4
 10
27405.675727999958
 20
14452.319149999979
 30
0.0
 11
27405.675727999958
 21
14212.319149999979
 31
0.0
  0
LINE
  5
41FF
  8
SUNPOU
  6
CONTINUOUS
 62
     4
 10
27405.675727999958
 20
14494.81644499998
 30
0.0
 11
27405.675727999958
 21
14452.319149999979
 31
0.0
  0
LINE
  5
4200
  8
SUNPOU
  6
CONTINUOUS
 62
     4
 10
20495.171834500001
 20
19752.314729999998
 30
0.0
 11
20495.171834500001
 21
20482.317632999999
 31
0.0
  0
LINE
  5
4201
  8
SUNPOU
  6
CONTINUOUS
 62
     4
 10
22995.176123999961
 20
19752.314729999998
 30
0.0
 11
22995.176123999961
 21
20482.317632999999
 31
0.0
  0
LINE
  5
4202
  8
SUNPOU
  6
CONTINUOUS
 62
     4
 10
20495.171834500001
 20
20402.317632999999
 30
0.0
 11
22995.176123999961
 21
20402.317632999999
 31
0.0
  0
LINE
  5
4203
  8
SUNPOU
  6
CONTINUOUS
 62
     4
 10
25155.176123999961
 20
19752.314729999998
 30
0.0
 11
25155.176123999961
 21
20482.317632999999
 31
0.0
  0
LINE
  5
4204
  8
SUNPOU
  6
CONTINUOUS
 62
     4
 10
25913.17711349998
 20
19752.314729999998
 30
0.0
 11
25913.17711349998
 21
20482.317632999999
 31
0.0
  0
LINE
  5
4205
  8
SUNPOU
  6
CONTINUOUS
 62
     4
 10
25155.176123999961
 20
20402.317632999999
 30
0.0
 11
25913.17711349998
 21
20402.317632999999
 31
0.0
  0
LINE
  5
4206
  8
SUNPOU
  6
CONTINUOUS
 62
     4
 10
24454.176123999961
 20
19752.314729999998
 30
0.0
 11
24454.176123999961
 21
20482.317632999999
 31
0.0
  0
LINE
  5
4207
  8
SUNPOU
  6
CONTINUOUS
 62
     4
 10
25155.176123999961
 20
19752.314729999998
 30
0.0
 11
25155.176123999961
 21
20482.317632999999
 31
0.0
  0
LINE
  5
4208
  8
SUNPOU
  6
CONTINUOUS
 62
     4
 10
24454.176123999961
 20
20402.317632999999
 30
0.0
 11
25155.176123999961
 21
20402.317632999999
 31
0.0
  0
LINE
  5
4209
  8
SUNPOU
  6
CONTINUOUS
 62
     4
 10
23753.176123999961
 20
19752.314729999998
 30
0.0
 11
23753.176123999961
 21
20482.317632999999
 31
0.0
  0
LINE
  5
420A
  8
SUNPOU
  6
CONTINUOUS
 62
     4
 10
24454.176123999961
 20
19752.314729999998
 30
0.0
 11
24454.176123999961
 21
20482.317632999999
 31
0.0
  0
LINE
  5
420B
  8
SUNPOU
  6
CONTINUOUS
 62
     4
 10
23753.176123999961
 20
20402.317632999999
 30
0.0
 11
24454.176123999961
 21
20402.317632999999
 31
0.0
  0
LINE
  5
420C
  8
SUNPOU
  6
CONTINUOUS
 62
     4
 10
25913.176123999961
 20
19752.314729999998
 30
0.0
 11
25913.176123999961
 21
20482.317632999999
 31
0.0
  0
LINE
  5
420D
  8
SUNPOU
  6
CONTINUOUS
 62
     4
 10
25955.672428999958
 20
19752.314729999998
 30
0.0
 11
25955.672428999958
 21
20482.317632999999
 31
0.0
  0
LINE
  5
420E
  8
SUNPOU
  6
CONTINUOUS
 62
     4
 10
25913.176123999961
 20
20402.317632999999
 30
0.0
 11
25673.176123999961
 21
20402.317632999999
 31
0.0
  0
LINE
  5
420F
  8
SUNPOU
  6
CONTINUOUS
 62
     4
 10
25955.672428999958
 20
20402.317632999999
 30
0.0
 11
26195.672428999958
 21
20402.317632999999
 31
0.0
  0
LINE
  5
4210
  8
SUNPOU
  6
CONTINUOUS
 62
     4
 10
25913.176123999961
 20
20402.317632999999
 30
0.0
 11
25955.672428999958
 21
20402.317632999999
 31
0.0
  0
LINE
  5
4211
  8
SUNPOU
  6
CONTINUOUS
 62
     4
 10
17577.170844999979
 20
19752.314729999998
 30
0.0
 11
17577.170844999979
 21
20482.317632999999
 31
0.0
  0
LINE
  5
4212
  8
SUNPOU
  6
CONTINUOUS
 62
     4
 10
17534.674539999989
 20
19752.314729999998
 30
0.0
 11
17534.674539999989
 21
20482.317632999999
 31
0.0
  0
LINE
  5
4213
  8
SUNPOU
  6
CONTINUOUS
 62
     4
 10
17577.170844999979
 20
20402.317632999999
 30
0.0
 11
17817.170844999979
 21
20402.317632999999
 31
0.0
  0
LINE
  5
4214
  8
SUNPOU
  6
CONTINUOUS
 62
     4
 10
17534.674539999989
 20
20402.317632999999
 30
0.0
 11
17294.674539999989
 21
20402.317632999999
 31
0.0
  0
LINE
  5
4215
  8
SUNPOU
  6
CONTINUOUS
 62
     4
 10
17577.170844999979
 20
20402.317632999999
 30
0.0
 11
17534.674539999989
 21
20402.317632999999
 31
0.0
  0
LINE
  5
4216
  8
SUNPOU
  6
CONTINUOUS
 62
     4
 10
19737.17084499999
 20
19752.314729999998
 30
0.0
 11
19737.17084499999
 21
20482.317632999999
 31
0.0
  0
LINE
  5
4217
  8
SUNPOU
  6
CONTINUOUS
 62
     4
 10
20495.171834500001
 20
19752.314729999998
 30
0.0
 11
20495.171834500001
 21
20482.317632999999
 31
0.0
  0
LINE
  5
4218
  8
SUNPOU
  6
CONTINUOUS
 62
     4
 10
19737.17084499999
 20
20402.317632999999
 30
0.0
 11
20495.171834500001
 21
20402.317632999999
 31
0.0
  0
LINE
  5
4219
  8
SUNPOU
  6
CONTINUOUS
 62
     4
 10
19036.17084499999
 20
19752.314729999998
 30
0.0
 11
19036.17084499999
 21
20482.317632999999
 31
0.0
  0
LINE
  5
421A
  8
SUNPOU
  6
CONTINUOUS
 62
     4
 10
19737.17084499999
 20
19752.314729999998
 30
0.0
 11
19737.17084499999
 21
20482.317632999999
 31
0.0
  0
LINE
  5
421B
  8
SUNPOU
  6
CONTINUOUS
 62
     4
 10
19036.17084499999
 20
20402.317632999999
 30
0.0
 11
19737.17084499999
 21
20402.317632999999
 31
0.0
  0
LINE
  5
421C
  8
SUNPOU
  6
CONTINUOUS
 62
     4
 10
18335.170844999979
 20
19752.314729999998
 30
0.0
 11
18335.170844999979
 21
20482.317632999999
 31
0.0
  0
LINE
  5
421D
  8
SUNPOU
  6
CONTINUOUS
 62
     4
 10
19036.17084499999
 20
19752.314729999998
 30
0.0
 11
19036.17084499999
 21
20482.317632999999
 31
0.0
  0
LINE
  5
421E
  8
SUNPOU
  6
CONTINUOUS
 62
     4
 10
18335.170844999979
 20
20402.317632999999
 30
0.0
 11
19036.17084499999
 21
20402.317632999999
 31
0.0
  0
LINE
  5
421F
  8
SUNPOU
  6
CONTINUOUS
 62
     4
 10
17447.170185999999
 20
6212.7285879999999
 30
0.0
 11
16647.171504999991
 21
6212.7285879999999
 31
0.0
  0
LINE
  5
4220
  8
SUNPOU
  6
CONTINUOUS
 62
     4
 10
17447.170185999999
 20
8104.228587999999
 30
0.0
 11
16647.171504999991
 21
8104.228587999999
 31
0.0
  0
LINE
  5
4221
  8
SUNPOU
  6
CONTINUOUS
 62
     4
 10
16727.171504999991
 20
6212.7285879999999
 30
0.0
 11
16727.171504999991
 21
8104.228587999999
 31
0.0
  0
LINE
  5
4222
  8
SUNPOU
  6
CONTINUOUS
 62
     4
 10
17447.170185999999
 20
6212.7285879999999
 30
0.0
 11
16247.16919599999
 21
6212.7285879999999
 31
0.0
  0
LINE
  5
4223
  8
SUNPOU
  6
CONTINUOUS
 62
     4
 10
17414.67044999998
 20
8561.7285880000018
 30
0.0
 11
16247.16919599999
 21
8561.7285880000018
 31
0.0
  0
LINE
  5
4224
  8
SUNPOU
  6
CONTINUOUS
 62
     4
 10
16327.16919599999
 20
6212.7285879999999
 30
0.0
 11
16327.16919599999
 21
8561.7285880000018
 31
0.0
  0
LINE
  5
4235
  8
SUNPOU
  6
CONTINUOUS
 62
     4
 10
17671.17084499999
 20
6032.728753000004
 30
0.0
 11
17671.17084499999
 21
5232.7287530000031
 31
0.0
  0
LINE
  5
4236
  8
SUNPOU
  6
CONTINUOUS
 62
     4
 10
20401.170844999979
 20
6032.728753000004
 30
0.0
 11
20401.170844999979
 21
5232.7287530000031
 31
0.0
  0
LINE
  5
4237
  8
SUNPOU
  6
CONTINUOUS
 62
     4
 10
17671.17084499999
 20
5312.7287530000031
 30
0.0
 11
20401.170844999979
 21
5312.7287530000031
 31
0.0
  0
LINE
  5
4238
  8
SUNPOU
  6
CONTINUOUS
 62
     4
 10
23089.176123999961
 20
6032.728753000004
 30
0.0
 11
23089.176123999961
 21
5232.7287530000031
 31
0.0
  0
LINE
  5
4239
  8
SUNPOU
  6
CONTINUOUS
 62
     4
 10
25819.176123999961
 20
6032.728753000004
 30
0.0
 11
25819.176123999961
 21
5232.7287530000031
 31
0.0
  0
LINE
  5
423A
  8
SUNPOU
  6
CONTINUOUS
 62
     4
 10
23089.176123999961
 20
5312.7287530000031
 30
0.0
 11
25819.176123999961
 21
5312.7287530000031
 31
0.0
  0
LINE
  5
423B
  8
SUNPOU
  6
CONTINUOUS
 62
     4
 10
22995.176123999961
 20
5770.0763299999999
 30
0.0
 11
22995.176123999961
 21
4832.7287530000021
 31
0.0
  0
LINE
  5
423C
  8
SUNPOU
  6
CONTINUOUS
 62
     4
 10
25913.176123999961
 20
5770.0763299999999
 30
0.0
 11
25913.176123999961
 21
4832.7287530000021
 31
0.0
  0
LINE
  5
423D
  8
SUNPOU
  6
CONTINUOUS
 62
     4
 10
22995.176123999961
 20
4912.7287530000031
 30
0.0
 11
25913.176123999961
 21
4912.7287530000031
 31
0.0
  0
LINE
  5
423E
  8
SUNPOU
  6
CONTINUOUS
 62
     4
 10
20495.17084499999
 20
5770.0763299999999
 30
0.0
 11
20495.17084499999
 21
4832.7287530000021
 31
0.0
  0
LINE
  5
423F
  8
SUNPOU
  6
CONTINUOUS
 62
     4
 10
22995.176123999961
 20
5770.0763299999999
 30
0.0
 11
22995.176123999961
 21
4832.7287530000021
 31
0.0
  0
LINE
  5
4240
  8
SUNPOU
  6
CONTINUOUS
 62
     4
 10
20495.17084499999
 20
4912.7287530000031
 30
0.0
 11
22995.176123999961
 21
4912.7287530000031
 31
0.0
  0
LINE
  5
4241
  8
SUNPOU
  6
CONTINUOUS
 62
     4
 10
17577.170844999979
 20
5770.0763299999999
 30
0.0
 11
17577.170844999979
 21
4832.7287530000021
 31
0.0
  0
LINE
  5
4242
  8
SUNPOU
  6
CONTINUOUS
 62
     4
 10
20495.17084499999
 20
5770.0763299999999
 30
0.0
 11
20495.17084499999
 21
4832.7287530000021
 31
0.0
  0
LINE
  5
4243
  8
SUNPOU
  6
CONTINUOUS
 62
     4
 10
17577.170844999979
 20
4912.7287530000031
 30
0.0
 11
20495.17084499999
 21
4912.7287530000031
 31
0.0
  0
LINE
  5
4244
  8
SUNPOU
  6
CONTINUOUS
 62
     4
 10
25913.180082999981
 20
5770.0763299999999
 30
0.0
 11
25913.180082999981
 21
4832.7287530000021
 31
0.0
  0
LINE
  5
4245
  8
SUNPOU
  6
CONTINUOUS
 62
     4
 10
25955.680082999981
 20
6032.728753000004
 30
0.0
 11
25955.680082999981
 21
4832.7287530000021
 31
0.0
  0
LINE
  5
4246
  8
SUNPOU
  6
CONTINUOUS
 62
     4
 10
25913.180082999981
 20
4912.7287530000031
 30
0.0
 11
25673.180082999981
 21
4912.7287530000031
 31
0.0
  0
LINE
  5
4247
  8
SUNPOU
  6
CONTINUOUS
 62
     4
 10
25955.680082999981
 20
4912.7287530000031
 30
0.0
 11
26195.680082999981
 21
4912.7287530000031
 31
0.0
  0
LINE
  5
4248
  8
SUNPOU
  6
CONTINUOUS
 62
     4
 10
25913.180082999981
 20
4912.7287530000031
 30
0.0
 11
25955.680082999981
 21
4912.7287530000031
 31
0.0
  0
LINE
  5
4249
  8
SUNPOU
  6
CONTINUOUS
 62
     4
 10
17577.170844999979
 20
5770.0763299999999
 30
0.0
 11
17577.170844999979
 21
4832.7287530000021
 31
0.0
  0
LINE
  5
424A
  8
SUNPOU
  6
CONTINUOUS
 62
     4
 10
17534.67084499999
 20
6032.728753000004
 30
0.0
 11
17534.67084499999
 21
4832.7287530000021
 31
0.0
  0
LINE
  5
424B
  8
SUNPOU
  6
CONTINUOUS
 62
     4
 10
17577.170844999979
 20
4912.7287530000031
 30
0.0
 11
17817.170844999979
 21
4912.7287530000031
 31
0.0
  0
LINE
  5
424C
  8
SUNPOU
  6
CONTINUOUS
 62
     4
 10
17534.67084499999
 20
4912.7287530000031
 30
0.0
 11
17294.67084499999
 21
4912.7287530000031
 31
0.0
  0
LINE
  5
424D
  8
SUNPOU
  6
CONTINUOUS
 62
     4
 10
17577.170844999979
 20
4912.7287530000031
 30
0.0
 11
17534.67084499999
 21
4912.7287530000031
 31
0.0
  0
LINE
  5
424E
  8
SUNPOU
  6
CONTINUOUS
 62
     4
 10
17534.67084499999
 20
6032.728753000004
 30
0.0
 11
17534.67084499999
 21
4432.7289179999998
 31
0.0
  0
LINE
  5
424F
  8
SUNPOU
  6
CONTINUOUS
 62
     4
 10
25955.676123999961
 20
6032.728753000004
 30
0.0
 11
25955.676123999961
 21
4432.7289179999998
 31
0.0
  0
LINE
  5
4250
  8
SUNPOU
  6
CONTINUOUS
 62
     4
 10
17534.67084499999
 20
4512.7289179999989
 30
0.0
 11
25955.676123999961
 21
4512.7289179999989
 31
0.0
  0
LINE
  5
4251
  8
SUNPOU
  6
CONTINUOUS
 62
     4
 10
13159.38450099999
 20
6212.7285880000036
 30
0.0
 11
14236.88291699999
 21
6212.7285880000036
 31
0.0
  0
LINE
  5
4252
  8
SUNPOU
  6
CONTINUOUS
 62
     4
 10
13251.68978059937
 20
8561.7285880000018
 30
0.0
 11
14236.88291699999
 21
8561.7285880000018
 31
0.0
  0
LINE
  5
4253
  8
SUNPOU
  6
CONTINUOUS
 62
     4
 10
14156.88291699999
 20
6212.7285880000036
 30
0.0
 11
14156.88291699999
 21
8561.7285880000018
 31
0.0
  0
LINE
  5
4254
  8
SUNPOU
  6
CONTINUOUS
 62
     4
 10
7759.3845009999868
 20
6212.7285880000036
 30
0.0
 11
6676.8841049999919
 21
6212.7285880000036
 31
0.0
  0
LINE
  5
4255
  8
SUNPOU
  6
CONTINUOUS
 62
     4
 10
7586.884500999985
 20
8368.2285880000054
 30
0.0
 11
6676.8841049999919
 21
8368.2285880000054
 31
0.0
  0
LINE
  5
4256
  8
SUNPOU
  6
CONTINUOUS
 62
     4
 10
6756.8841049999901
 20
6212.7285880000036
 30
0.0
 11
6756.8841049999901
 21
8368.2285880000054
 31
0.0
  0
LINE
  5
4257
  8
SUNPOU
  6
CONTINUOUS
 62
     4
 10
13066.88450099999
 20
8507.6386510000048
 30
0.0
 11
13066.88450099999
 21
9440.7302629999976
 31
0.0
  0
LINE
  5
4258
  8
SUNPOU
  6
CONTINUOUS
 62
     4
 10
13216.88450099999
 20
8581.618410412435
 30
0.0
 11
13216.88450099999
 21
9440.7302629999976
 31
0.0
  0
LINE
  5
4259
  8
SUNPOU
  6
CONTINUOUS
 62
     4
 10
13066.88450099999
 20
9360.7302629999976
 30
0.0
 11
12826.88450099999
 21
9360.7302629999976
 31
0.0
  0
LINE
  5
425A
  8
SUNPOU
  6
CONTINUOUS
 62
     4
 10
13216.88450099999
 20
9360.7302629999976
 30
0.0
 11
13456.88450099999
 21
9360.7302629999976
 31
0.0
  0
LINE
  5
425B
  8
SUNPOU
  6
CONTINUOUS
 62
     4
 10
13066.88450099999
 20
9360.7302629999976
 30
0.0
 11
13216.88450099999
 21
9360.7302629999976
 31
0.0
  0
LINE
  5
425C
  8
SUNPOU
  6
CONTINUOUS
 62
     4
 10
7666.8845009999914
 20
8449.7285870000087
 30
0.0
 11
7666.8845009999914
 21
9840.7286129999993
 31
0.0
  0
LINE
  5
425D
  8
SUNPOU
  6
CONTINUOUS
 62
     4
 10
13216.88450099999
 20
8581.618410412435
 30
0.0
 11
13216.88450099999
 21
9840.7286129999993
 31
0.0
  0
LINE
  5
425E
  8
SUNPOU
  6
CONTINUOUS
 62
     4
 10
7666.8845009999914
 20
9760.7286129999993
 30
0.0
 11
13216.88450099999
 21
9760.7286129999993
 31
0.0
  0
LINE
  5
425F
  8
SUNPOU
  6
CONTINUOUS
 62
     4
 10
7846.8845009999914
 20
8319.9143626838086
 30
0.0
 11
7846.8845009999914
 21
9440.7302629999976
 31
0.0
  0
LINE
  5
4260
  8
SUNPOU
  6
CONTINUOUS
 62
     4
 10
13066.88450099999
 20
8507.6386510000048
 30
0.0
 11
13066.88450099999
 21
9440.7302629999976
 31
0.0
  0
LINE
  5
4261
  8
SUNPOU
  6
CONTINUOUS
 62
     4
 10
7846.8845009999914
 20
9360.7302629999976
 30
0.0
 11
13066.88450099999
 21
9360.7302629999976
 31
0.0
  0
LINE
  5
4262
  8
SUNPOU
  6
CONTINUOUS
 62
     4
 10
7666.8845009999914
 20
8449.7285870000087
 30
0.0
 11
7666.8845009999914
 21
9440.7302629999976
 31
0.0
  0
LINE
  5
4263
  8
SUNPOU
  6
CONTINUOUS
 62
     4
 10
7846.8845009999914
 20
8319.9143626838086
 30
0.0
 11
7846.8845009999914
 21
9440.7302629999976
 31
0.0
  0
LINE
  5
4264
  8
SUNPOU
  6
CONTINUOUS
 62
     4
 10
7666.8845009999914
 20
9360.7302629999976
 30
0.0
 11
7426.8845009999859
 21
9360.7302629999976
 31
0.0
  0
LINE
  5
4265
  8
SUNPOU
  6
CONTINUOUS
 62
     4
 10
7846.8845009999914
 20
9360.7302629999976
 30
0.0
 11
8086.8845009999914
 21
9360.7302629999976
 31
0.0
  0
LINE
  5
4266
  8
SUNPOU
  6
CONTINUOUS
 62
     4
 10
7666.8845009999914
 20
9360.7302629999976
 30
0.0
 11
7846.8845009999914
 21
9360.7302629999976
 31
0.0
  0
LINE
  5
4267
  8
SUNPOU
  6
CONTINUOUS
 62
     4
 10
13024.382521999971
 20
5770.0763290000023
 30
0.0
 11
13024.382521999971
 21
4832.7287519999991
 31
0.0
  0
LINE
  5
4268
  8
SUNPOU
  6
CONTINUOUS
 62
     4
 10
13066.88252199998
 20
6132.7285870000023
 30
0.0
 11
13066.88252199998
 21
4832.7287519999991
 31
0.0
  0
LINE
  5
4269
  8
SUNPOU
  6
CONTINUOUS
 62
     4
 10
13024.382521999971
 20
4912.7287519999991
 30
0.0
 11
12784.382521999971
 21
4912.7287519999991
 31
0.0
  0
LINE
  5
426A
  8
SUNPOU
  6
CONTINUOUS
 62
     4
 10
13066.88252199998
 20
4912.7287519999991
 30
0.0
 11
13306.88252199998
 21
4912.7287519999991
 31
0.0
  0
LINE
  5
426B
  8
SUNPOU
  6
CONTINUOUS
 62
     4
 10
13024.382521999971
 20
4912.7287519999991
 30
0.0
 11
13066.88252199998
 21
4912.7287519999991
 31
0.0
  0
LINE
  5
426C
  8
SUNPOU
  6
CONTINUOUS
 62
     4
 10
10456.88450099999
 20
5770.0753400000012
 30
0.0
 11
10456.88450099999
 21
4832.728753000004
 31
0.0
  0
LINE
  5
426D
  8
SUNPOU
  6
CONTINUOUS
 62
     4
 10
13024.38450099999
 20
5770.0753400000012
 30
0.0
 11
13024.38450099999
 21
4832.728753000004
 31
0.0
  0
LINE
  5
426E
  8
SUNPOU
  6
CONTINUOUS
 62
     4
 10
10456.88450099999
 20
4912.7287530000031
 30
0.0
 11
13024.38450099999
 21
4912.7287530000031
 31
0.0
  0
LINE
  5
426F
  8
SUNPOU
  6
CONTINUOUS
 62
     4
 10
7846.8845009999914
 20
6132.7285870000023
 30
0.0
 11
7846.8845009999914
 21
4432.7289170000013
 31
0.0
  0
LINE
  5
4270
  8
SUNPOU
  6
CONTINUOUS
 62
     4
 10
13066.88252199998
 20
6132.7285870000023
 30
0.0
 11
13066.88252199998
 21
4432.7289170000013
 31
0.0
  0
LINE
  5
4271
  8
SUNPOU
  6
CONTINUOUS
 62
     4
 10
7846.8845009999914
 20
4512.7289170000004
 30
0.0
 11
13066.88252199998
 21
4512.7289170000004
 31
0.0
  0
LINE
  5
4272
  8
SUNPOU
  6
CONTINUOUS
 62
     4
 10
7889.3845009999868
 20
5770.0763290000023
 30
0.0
 11
7889.3845009999868
 21
4832.7287519999991
 31
0.0
  0
LINE
  5
4273
  8
SUNPOU
  6
CONTINUOUS
 62
     4
 10
7846.8845009999914
 20
6132.7285870000023
 30
0.0
 11
7846.8845009999914
 21
4832.7287519999991
 31
0.0
  0
LINE
  5
4274
  8
SUNPOU
  6
CONTINUOUS
 62
     4
 10
7889.3845009999868
 20
4912.7287519999991
 30
0.0
 11
8129.3845009999877
 21
4912.7287519999991
 31
0.0
  0
LINE
  5
4275
  8
SUNPOU
  6
CONTINUOUS
 62
     4
 10
7846.8845009999914
 20
4912.7287519999991
 30
0.0
 11
7606.8845009999877
 21
4912.7287519999991
 31
0.0
  0
LINE
  5
4276
  8
SUNPOU
  6
CONTINUOUS
 62
     4
 10
7889.3845009999868
 20
4912.7287519999991
 30
0.0
 11
7846.8845009999914
 21
4912.7287519999991
 31
0.0
  0
LINE
  5
4277
  8
SUNPOU
  6
CONTINUOUS
 62
     4
 10
10456.88450099999
 20
5770.0763290000023
 30
0.0
 11
10456.88450099999
 21
4832.7287519999991
 31
0.0
  0
LINE
  5
4278
  8
SUNPOU
  6
CONTINUOUS
 62
     4
 10
7889.3845009999868
 20
5770.0763290000023
 30
0.0
 11
7889.3845009999868
 21
4832.7287519999991
 31
0.0
  0
LINE
  5
4279
  8
SUNPOU
  6
CONTINUOUS
 62
     4
 10
10456.88450099999
 20
4912.7287519999991
 30
0.0
 11
7889.3845009999868
 21
4912.7287519999991
 31
0.0
  0
LINE
  5
427A
  8
0
  6
CONTINUOUS
 10
27320.61169951249
 20
4013.2342825977748
 30
0.0
 11
32662.906701964599
 21
4013.2342825977748
 31
0.0
  0
LINE
  5
427B
  8
0
  6
CONTINUOUS
 10
32662.906701964599
 20
4013.2342825977748
 30
0.0
 11
32662.906701964599
 21
2658.9883116968108
 31
0.0
  0
LINE
  5
427C
  8
0
  6
CONTINUOUS
 10
32662.906701964599
 20
2658.9883116968108
 30
0.0
 11
27320.61169951249
 21
2658.9883116968108
 31
0.0
  0
LINE
  5
427D
  8
0
  6
CONTINUOUS
 10
27320.61169951249
 20
2658.9883116968108
 30
0.0
 11
27320.61169951249
 21
4013.2342825977748
 31
0.0
  0
TEXT
  5
427E
  8
0
  6
CONTINUOUS
 62
     7
 10
8773.1345009999895
 20
4992.7287519999991
 30
0.0
 40
160.0
  1
2567.5
  0
TEXT
  5
427F
  8
0
  6
CONTINUOUS
 62
     7
 10
7249.7107919036816
 20
4992.7287519999991
 30
0.0
 40
160.0
  1
42.5
  0
TEXT
  5
4280
  8
0
  6
CONTINUOUS
 62
     7
 10
10176.88351149998
 20
4592.7289170000004
 30
0.0
 40
160.0
  1
5220
  0
TEXT
  5
4281
  8
0
  6
CONTINUOUS
 62
     7
 10
11340.63450099999
 20
4992.7287530000031
 30
0.0
 40
160.0
  1
2567.5
  0
TEXT
  5
4282
  8
0
  6
CONTINUOUS
 62
     7
 10
13184.056231096291
 20
4992.7287519999991
 30
0.0
 40
160.0
  1
42.5
  0
TEXT
  5
4283
  8
0
  6
CONTINUOUS
 62
     7
 10
7253.5511676666574
 20
9440.7302629999976
 30
0.0
 40
160.0
  1
180
  0
TEXT
  5
4284
  8
0
  6
CONTINUOUS
 62
     7
 10
10176.88450099998
 20
9440.7302629999976
 30
0.0
 40
160.0
  1
5220
  0
TEXT
  5
4285
  8
0
  6
CONTINUOUS
 62
     7
 10
10161.88450099998
 20
9840.7286129999993
 30
0.0
 40
160.0
  1
5550
  0
TEXT
  5
4286
  8
0
  6
CONTINUOUS
 62
     7
 10
13283.55116766665
 20
9440.7302629999976
 30
0.0
 40
160.0
  1
150
  0
TEXT
  5
4287
  8
0
  6
CONTINUOUS
 62
     7
 10
6676.8841049999883
 20
6298.4785880000081
 30
0.0
 40
160.0
  1
2155.5（2395.5）
 50
90.0
  0
TEXT
  5
4288
  8
0
  6
CONTINUOUS
 62
     7
 10
14076.882916999981
 20
6581.8952546666724
 30
0.0
 40
160.0
  1
2349（2589）
 50
90.0
  0
TEXT
  5
4289
  8
0
  6
CONTINUOUS
 62
     7
 10
20838.506817833309
 20
4592.7289179999971
 30
0.0
 40
160.0
  1
2918 \U+00D7 ｎ ＋ 85
  0
TEXT
  5
428A
  8
0
  6
CONTINUOUS
 62
     7
 10
16968.63185474115
 20
4992.7287530000021
 30
0.0
 40
160.0
  1
42.5
  0
TEXT
  5
428B
  8
0
  6
CONTINUOUS
 62
     7
 10
26041.71907325881
 20
4992.7287530000021
 30
0.0
 40
160.0
  1
42.5
  0
TEXT
  5
428C
  8
0
  6
CONTINUOUS
 62
     7
 10
18769.504178333322
 20
4992.7287530000021
 30
0.0
 40
160.0
  1
2918
  0
TEXT
  5
428D
  8
0
  6
CONTINUOUS
 62
     7
 10
20774.506817833299
 20
4992.7287530000021
 30
0.0
 40
160.0
  1
2918 \U+00D7（ｎ － 2）
  0
TEXT
  5
428E
  8
0
  6
CONTINUOUS
 62
     7
 10
24187.509457333301
 20
4992.7287530000021
 30
0.0
 40
160.0
  1
2918
  0
TEXT
  5
428F
  8
0
  6
CONTINUOUS
 62
     7
 10
23646.176123999961
 20
5392.7287530000031
 30
0.0
 40
160.0
  1
有効開口巾 2730
  0
TEXT
  5
4290
  8
0
  6
CONTINUOUS
 62
     7
 10
18228.17084499999
 20
5392.7287530000031
 30
0.0
 40
160.0
  1
有効開口巾 2730
  0
TEXT
  5
4295
  8
0
  6
CONTINUOUS
 62
     7
 10
16247.16919599999
 20
6581.8952546666687
 30
0.0
 40
160.0
  1
2349（2589）
 50
90.0
  0
TEXT
  5
4296
  8
0
  6
CONTINUOUS
 62
     7
 10
16647.171504999991
 20
6276.7078262912746
 30
0.0
 40
160.0
  1
有効開口高サ 1891.5
 50
90.0
  0
TEXT
  5
4297
  8
0
  6
CONTINUOUS
 62
     7
 10
18512.337511666661
 20
20482.317632999999
 30
0.0
 40
160.0
  1
701
  0
TEXT
  5
4298
  8
0
  6
CONTINUOUS
 62
     7
 10
19213.337511666661
 20
20482.317632999999
 30
0.0
 40
160.0
  1
701
  0
TEXT
  5
4299
  8
0
  6
CONTINUOUS
 62
     7
 10
19902.838006416641
 20
20482.317632999999
 30
0.0
 40
160.0
  1
758
  0
TEXT
  5
429A
  8
0
  6
CONTINUOUS
 62
     7
 10
16974.358865471189
 20
20482.317632999999
 30
0.0
 40
160.0
  1
42.5
  0
TEXT
  5
429B
  8
0
  6
CONTINUOUS
 62
     7
 10
26035.988103528769
 20
20482.317632999999
 30
0.0
 40
160.0
  1
42.5
  0
TEXT
  5
429C
  8
0
  6
CONTINUOUS
 62
     7
 10
23930.34279066664
 20
20482.317632999999
 30
0.0
 40
160.0
  1
701
  0
TEXT
  5
429D
  8
0
  6
CONTINUOUS
 62
     7
 10
24631.34279066664
 20
20482.317632999999
 30
0.0
 40
160.0
  1
701
  0
TEXT
  5
429E
  8
0
  6
CONTINUOUS
 62
     7
 10
25320.843285416639
 20
20482.317632999999
 30
0.0
 40
160.0
  1
758
  0
TEXT
  5
429F
  8
0
  6
CONTINUOUS
 62
     7
 10
20774.507312583311
 20
20482.317632999999
 30
0.0
 40
160.0
  1
2918 \U+00D7（ｎ － 2）
  0
TEXT
  5
42A0
  8
0
  6
CONTINUOUS
 62
     7
 10
27325.675727999958
 20
13878.76291360319
 30
0.0
 40
160.0
  1
42.5
 50
90.0
  0
TEXT
  5
42A1
  8
0
  6
CONTINUOUS
 62
     7
 10
27325.675727999958
 20
19765.86997639676
 30
0.0
 40
160.0
  1
42.5
 50
90.0
  0
TEXT
  5
42A2
  8
0
  6
CONTINUOUS
 62
     7
 10
27725.675727999958
 20
16782.316444999979
 30
0.0
 40
160.0
  1
5220
 50
90.0
  0
TEXT
  5
42A3
  8
0
  6
CONTINUOUS
 62
     7
 10
27325.675727999958
 20
15378.56644499998
 30
0.0
 40
160.0
  1
2567.5
 50
90.0
  0
TEXT
  5
42A4
  8
0
  6
CONTINUOUS
 62
     7
 10
27325.675727999958
 20
17946.066444999989
 30
0.0
 40
160.0
  1
2567.5
 50
90.0
  0
TEXT
  5
42A5
  8
0
  6
CONTINUOUS
 62
     7
 10
26925.675727999958
 20
18698.48311166665
 30
0.0
 40
160.0
  1
701
 50
90.0
  0
TEXT
  5
42A6
  8
0
  6
CONTINUOUS
 62
     7
 10
26925.675727999958
 20
17997.483111666661
 30
0.0
 40
160.0
  1
701
 50
90.0
  0
TEXT
  5
42A7
  8
0
  6
CONTINUOUS
 62
     7
 10
26925.675727999958
 20
17227.98311166665
 30
0.0
 40
160.0
  1
758
 50
90.0
  0
TEXT
  5
42A8
  8
0
  6
CONTINUOUS
 62
     7
 10
26925.675727999958
 20
16469.98311166665
 30
0.0
 40
160.0
  1
758
 50
90.0
  0
TEXT
  5
42A9
  8
0
  6
CONTINUOUS
 62
     7
 10
26925.675727999958
 20
15780.603367416659
 30
0.0
 40
160.0
  1
701
 50
90.0
  0
TEXT
  5
42AA
  8
0
  6
CONTINUOUS
 62
     7
 10
26925.675727999958
 20
15079.603367416659
 30
0.0
 40
160.0
  1
701
 50
90.0
  0
TEXT
  5
42AB
  8
0
  6
CONTINUOUS
 62
     7
 10
27285.67572799998
 20
14567.636859203511
 30
0.0
 40
160.0
  1
407.5
 50
90.0
  0
TEXT
  5
42AC
  8
0
  6
CONTINUOUS
 62
     7
 10
21222.506817833299
 20
13203.368360999981
 30
0.0
 40
160.0
  1
2918 x n
  0
TEXT
  5
42AD
  8
0
  6
CONTINUOUS
 62
     7
 10
17695.224517382081
 20
13603.368360999981
 30
0.0
 40
160.0
  1
42.5
  0
TEXT
  5
42AE
  8
0
  6
CONTINUOUS
 62
     7
 10
25315.122451617881
 20
13603.368360999981
 30
0.0
 40
160.0
  1
42.5
  0
TEXT
  5
42AF
  8
0
  6
CONTINUOUS
 62
     7
 10
17742.837511666661
 20
20482.317632999999
 30
0.0
 40
160.0
  1
758
  0
TEXT
  5
42B0
  8
0
  6
CONTINUOUS
 62
     7
 10
23160.84279066664
 20
20482.317632999999
 30
0.0
 40
160.0
  1
758
  0
TEXT
  5
42B1
  8
0
  6
CONTINUOUS
 62
     7
 10
27285.675727999958
 20
18931.694412643192
 30
0.0
 40
160.0
  1
407.5
 50
90.0
  0
TEXT
  5
42B2
  8
0
  6
CONTINUOUS
 62
     7
 10
4032.3209319664361
 20
17946.066444999979
 30
0.0
 40
160.0
  1
2567.5
 50
90.0
  0
TEXT
  5
42B3
  8
0
  6
CONTINUOUS
 62
     7
 10
4032.3209319664361
 20
19941.271629807641
 30
0.0
 40
160.0
  1
222.5
 50
90.0
  0
TEXT
  5
42B4
  8
0
  6
CONTINUOUS
 62
     7
 10
4432.320931966442
 20
19998.979020666651
 30
0.0
 40
160.0
  1
10
 50
90.0
  0
TEXT
  5
42B5
  8
0
  6
CONTINUOUS
 62
     7
 10
4032.3209319664411
 20
15378.56644499998
 30
0.0
 40
160.0
  1
2567.5
 50
90.0
  0
TEXT
  5
42B6
  8
0
  6
CONTINUOUS
 62
     7
 10
4032.3209319664429
 20
13686.863434702611
 30
0.0
 40
160.0
  1
192.5
 50
90.0
  0
TEXT
  5
42B7
  8
0
  6
CONTINUOUS
 62
     7
 10
12060.152947299761
 20
20482.317632999999
 30
0.0
 40
160.0
  1
2918
  0
TEXT
  5
42B8
  8
0
  6
CONTINUOUS
 62
     7
 10
13922.31631998969
 20
20482.317632999999
 30
0.0
 40
160.0
  1
85.5
  0
TEXT
  5
42B9
  8
0
  6
CONTINUOUS
 62
     7
 10
8443.1530002997661
 20
20482.317632999999
 30
0.0
 40
160.0
  1
2918 \U+00D7（ｎ － 2）
  0
TEXT
  5
42BA
  8
0
  6
CONTINUOUS
 62
     7
 10
6234.1530532997722
 20
20482.317632999999
 30
0.0
 40
160.0
  1
2918
  0
TEXT
  5
42BB
  8
0
  6
CONTINUOUS
 62
     7
 10
4425.3230139431762
 20
20482.317632999999
 30
0.0
 40
160.0
  1
85.5
  0
TEXT
  5
42BC
  8
0
  6
CONTINUOUS
 62
     7
 10
8779.1529992997712
 20
13203.368360999981
 30
0.0
 40
160.0
  1
2918  \U+00D7　n
  0
ARC
  5
42BD
  8
0
  6
BYBLOCK
 62
     0
 10
5041.8197189664434
 20
13123.368360999981
 30
0.0
 40
15.0
 50
0.0
 51
180.0
  0
ARC
  5
42BE
  8
0
  6
BYBLOCK
 62
     0
 10
5041.8197189664434
 20
13123.368360999981
 30
0.0
 40
15.0
 50
180.0
 51
0.0
  0
ARC
  5
42BF
  8
0
  6
BYBLOCK
 62
     0
 10
13785.81961296643
 20
13123.368360999981
 30
0.0
 40
15.0
 50
180.0
 51
0.0
  0
ARC
  5
42C0
  8
0
  6
BYBLOCK
 62
     0
 10
13785.81961296643
 20
13123.368360999981
 30
0.0
 40
15.0
 50
0.0
 51
180.0
  0
ARC
  5
42C1
  8
0
  6
BYBLOCK
 62
     0
 10
5041.8197199664392
 20
20402.317632999999
 30
0.0
 40
15.0
 50
0.0
 51
180.0
  0
ARC
  5
42C2
  8
0
  6
BYBLOCK
 62
     0
 10
5041.8197199664392
 20
20402.317632999999
 30
0.0
 40
15.0
 50
180.0
 51
0.0
  0
ARC
  5
42C3
  8
0
  6
BYBLOCK
 62
     0
 10
4956.3197199664401
 20
20402.317632999999
 30
0.0
 40
15.0
 50
180.0
 51
0.0
  0
ARC
  5
42C4
  8
0
  6
BYBLOCK
 62
     0
 10
4956.3197199664401
 20
20402.317632999999
 30
0.0
 40
15.0
 50
0.0
 51
180.0
  0
ARC
  5
42C5
  8
0
  6
BYBLOCK
 62
     0
 10
7959.8197199664382
 20
20402.317632999999
 30
0.0
 40
15.0
 50
180.0
 51
0.0
  0
ARC
  5
42C6
  8
0
  6
BYBLOCK
 62
     0
 10
7959.8197199664382
 20
20402.317632999999
 30
0.0
 40
15.0
 50
0.0
 51
180.0
  0
ARC
  5
42C7
  8
0
  6
BYBLOCK
 62
     0
 10
5041.8197199664392
 20
20402.317632999999
 30
0.0
 40
15.0
 50
0.0
 51
180.0
  0
ARC
  5
42C8
  8
0
  6
BYBLOCK
 62
     0
 10
5041.8197199664392
 20
20402.317632999999
 30
0.0
 40
15.0
 50
180.0
 51
0.0
  0
ARC
  5
42C9
  8
0
  6
BYBLOCK
 62
     0
 10
7959.8197199664382
 20
20402.317632999999
 30
0.0
 40
15.0
 50
0.0
 51
180.0
  0
ARC
  5
42CA
  8
0
  6
BYBLOCK
 62
     0
 10
7959.8197199664382
 20
20402.317632999999
 30
0.0
 40
15.0
 50
180.0
 51
0.0
  0
ARC
  5
42CB
  8
0
  6
BYBLOCK
 62
     0
 10
10867.81961396642
 20
20402.317632999999
 30
0.0
 40
15.0
 50
180.0
 51
0.0
  0
ARC
  5
42CC
  8
0
  6
BYBLOCK
 62
     0
 10
10867.81961396642
 20
20402.317632999999
 30
0.0
 40
15.0
 50
0.0
 51
180.0
  0
ARC
  5
42CD
  8
0
  6
BYBLOCK
 62
     0
 10
13785.81961396642
 20
20402.317632999999
 30
0.0
 40
15.0
 50
180.0
 51
0.0
  0
ARC
  5
42CE
  8
0
  6
BYBLOCK
 62
     0
 10
13785.81961396642
 20
20402.317632999999
 30
0.0
 40
15.0
 50
0.0
 51
180.0
  0
ARC
  5
42CF
  8
0
  6
BYBLOCK
 62
     0
 10
13871.31961396642
 20
20402.317632999999
 30
0.0
 40
15.0
 50
0.0
 51
180.0
  0
ARC
  5
42D0
  8
0
  6
BYBLOCK
 62
     0
 10
13871.31961396642
 20
20402.317632999999
 30
0.0
 40
15.0
 50
180.0
 51
0.0
  0
ARC
  5
42D1
  8
0
  6
BYBLOCK
 62
     0
 10
10867.81961396642
 20
20402.317632999999
 30
0.0
 40
15.0
 50
0.0
 51
180.0
  0
ARC
  5
42D2
  8
0
  6
BYBLOCK
 62
     0
 10
10867.81961396642
 20
20402.317632999999
 30
0.0
 40
15.0
 50
180.0
 51
0.0
  0
ARC
  5
42D3
  8
0
  6
BYBLOCK
 62
     0
 10
13785.81961396642
 20
20402.317632999999
 30
0.0
 40
15.0
 50
180.0
 51
0.0
  0
ARC
  5
42D4
  8
0
  6
BYBLOCK
 62
     0
 10
13785.81961396642
 20
20402.317632999999
 30
0.0
 40
15.0
 50
0.0
 51
180.0
  0
ARC
  5
42D5
  8
0
  6
BYBLOCK
 62
     0
 10
4112.320931966442
 20
14494.81644499998
 30
0.0
 40
15.0
 50
90.0
 51
270.0
  0
ARC
  5
42D6
  8
0
  6
BYBLOCK
 62
     0
 10
4112.320931966442
 20
14494.81644499998
 30
0.0
 40
15.0
 50
270.0
 51
90.0
  0
ARC
  5
42D7
  8
0
  6
BYBLOCK
 62
     0
 10
4112.320931966442
 20
14302.32112999998
 30
0.0
 40
15.0
 50
270.0
 51
90.0
  0
ARC
  5
42D8
  8
0
  6
BYBLOCK
 62
     0
 10
4112.320931966442
 20
14302.32112999998
 30
0.0
 40
15.0
 50
90.0
 51
270.0
  0
ARC
  5
42D9
  8
0
  6
BYBLOCK
 62
     0
 10
4112.320931966442
 20
17062.316444999979
 30
0.0
 40
15.0
 50
270.0
 51
90.0
  0
ARC
  5
42DA
  8
0
  6
BYBLOCK
 62
     0
 10
4112.320931966442
 20
17062.316444999979
 30
0.0
 40
15.0
 50
90.0
 51
270.0
  0
ARC
  5
42DB
  8
0
  6
BYBLOCK
 62
     0
 10
4112.320931966442
 20
14494.81644499998
 30
0.0
 40
15.0
 50
90.0
 51
270.0
  0
ARC
  5
42DC
  8
0
  6
BYBLOCK
 62
     0
 10
4112.320931966442
 20
14494.81644499998
 30
0.0
 40
15.0
 50
270.0
 51
90.0
  0
ARC
  5
42DD
  8
0
  6
BYBLOCK
 62
     0
 10
4512.3209319664411
 20
19842.312354000002
 30
0.0
 40
15.0
 50
270.0
 51
90.0
  0
ARC
  5
42DE
  8
0
  6
BYBLOCK
 62
     0
 10
4512.3209319664411
 20
19842.312354000002
 30
0.0
 40
15.0
 50
90.0
 51
270.0
  0
ARC
  5
42DF
  8
0
  6
BYBLOCK
 62
     0
 10
4512.3209319664411
 20
19852.312354000002
 30
0.0
 40
15.0
 50
90.0
 51
270.0
  0
ARC
  5
42E0
  8
0
  6
BYBLOCK
 62
     0
 10
4512.3209319664411
 20
19852.312354000002
 30
0.0
 40
15.0
 50
270.0
 51
90.0
  0
ARC
  5
42E1
  8
0
  6
BYBLOCK
 62
     0
 10
4112.320931966442
 20
19629.816444999949
 30
0.0
 40
15.0
 50
270.0
 51
90.0
  0
ARC
  5
42E2
  8
0
  6
BYBLOCK
 62
     0
 10
4112.320931966442
 20
19629.816444999949
 30
0.0
 40
15.0
 50
90.0
 51
270.0
  0
ARC
  5
42E3
  8
0
  6
BYBLOCK
 62
     0
 10
4112.320931966442
 20
19852.312354000002
 30
0.0
 40
15.0
 50
90.0
 51
270.0
  0
ARC
  5
42E4
  8
0
  6
BYBLOCK
 62
     0
 10
4112.320931966442
 20
19852.312354000002
 30
0.0
 40
15.0
 50
270.0
 51
90.0
  0
ARC
  5
42E5
  8
0
  6
BYBLOCK
 62
     0
 10
4112.3209319664411
 20
17062.316444999979
 30
0.0
 40
15.0
 50
90.0
 51
270.0
  0
ARC
  5
42E6
  8
0
  6
BYBLOCK
 62
     0
 10
4112.3209319664411
 20
17062.316444999979
 30
0.0
 40
15.0
 50
270.0
 51
90.0
  0
ARC
  5
42E7
  8
0
  6
BYBLOCK
 62
     0
 10
4112.320931966442
 20
19629.816444999949
 30
0.0
 40
15.0
 50
270.0
 51
90.0
  0
ARC
  5
42E8
  8
0
  6
BYBLOCK
 62
     0
 10
4112.320931966442
 20
19629.816444999949
 30
0.0
 40
15.0
 50
90.0
 51
270.0
  0
ARC
  5
42E9
  8
0
  6
BYBLOCK
 62
     0
 10
27005.675727999958
 20
19222.31644499996
 30
0.0
 40
15.0
 50
90.0
 51
270.0
  0
ARC
  5
42EA
  8
0
  6
BYBLOCK
 62
     0
 10
27005.675727999958
 20
19222.31644499996
 30
0.0
 40
15.0
 50
270.0
 51
90.0
  0
ARC
  5
42EB
  8
0
  6
BYBLOCK
 62
     0
 10
27005.675727999958
 20
19629.816444999949
 30
0.0
 40
15.0
 50
270.0
 51
90.0
  0
ARC
  5
42EC
  8
0
  6
BYBLOCK
 62
     0
 10
27005.675727999958
 20
19629.816444999949
 30
0.0
 40
15.0
 50
90.0
 51
270.0
  0
ARC
  5
42ED
  8
0
  6
BYBLOCK
 62
     0
 10
23753.176123999961
 20
20402.317632999999
 30
0.0
 40
15.0
 50
180.0
 51
0.0
  0
ARC
  5
42EE
  8
0
  6
BYBLOCK
 62
     0
 10
23753.176123999961
 20
20402.317632999999
 30
0.0
 40
15.0
 50
0.0
 51
180.0
  0
ARC
  5
42EF
  8
0
  6
BYBLOCK
 62
     0
 10
22995.176123999961
 20
20402.317632999999
 30
0.0
 40
15.0
 50
0.0
 51
180.0
  0
ARC
  5
42F0
  8
0
  6
BYBLOCK
 62
     0
 10
22995.176123999961
 20
20402.317632999999
 30
0.0
 40
15.0
 50
180.0
 51
0.0
  0
ARC
  5
42F1
  8
0
  6
BYBLOCK
 62
     0
 10
17577.170844999979
 20
20402.317632999999
 30
0.0
 40
15.0
 50
0.0
 51
180.0
  0
ARC
  5
42F2
  8
0
  6
BYBLOCK
 62
     0
 10
17577.170844999979
 20
20402.317632999999
 30
0.0
 40
15.0
 50
180.0
 51
0.0
  0
ARC
  5
42F3
  8
0
  6
BYBLOCK
 62
     0
 10
18335.170844999979
 20
20402.317632999999
 30
0.0
 40
15.0
 50
180.0
 51
0.0
  0
ARC
  5
42F4
  8
0
  6
BYBLOCK
 62
     0
 10
18335.170844999979
 20
20402.317632999999
 30
0.0
 40
15.0
 50
0.0
 51
180.0
  0
ARC
  5
42F5
  8
0
  6
BYBLOCK
 62
     0
 10
25913.176123999961
 20
13523.368360999981
 30
0.0
 40
15.0
 50
0.0
 51
180.0
  0
ARC
  5
42F6
  8
0
  6
BYBLOCK
 62
     0
 10
25913.176123999961
 20
13523.368360999981
 30
0.0
 40
15.0
 50
180.0
 51
0.0
  0
ARC
  5
42F7
  8
0
  6
BYBLOCK
 62
     0
 10
25870.67388099997
 20
13523.368360999981
 30
0.0
 40
15.0
 50
180.0
 51
0.0
  0
ARC
  5
42F8
  8
0
  6
BYBLOCK
 62
     0
 10
25870.67388099997
 20
13523.368360999981
 30
0.0
 40
15.0
 50
0.0
 51
180.0
  0
ARC
  5
42F9
  8
0
  6
BYBLOCK
 62
     0
 10
17577.170844999979
 20
13523.368360999981
 30
0.0
 40
15.0
 50
180.0
 51
0.0
  0
ARC
  5
42FA
  8
0
  6
BYBLOCK
 62
     0
 10
17577.170844999979
 20
13523.368360999981
 30
0.0
 40
15.0
 50
0.0
 51
180.0
  0
ARC
  5
42FB
  8
0
  6
BYBLOCK
 62
     0
 10
17619.673087999989
 20
13523.368360999981
 30
0.0
 40
15.0
 50
0.0
 51
180.0
  0
ARC
  5
42FC
  8
0
  6
BYBLOCK
 62
     0
 10
17619.673087999989
 20
13523.368360999981
 30
0.0
 40
15.0
 50
180.0
 51
0.0
  0
ARC
  5
42FD
  8
0
  6
BYBLOCK
 62
     0
 10
17577.170844999979
 20
13123.368360999981
 30
0.0
 40
15.0
 50
0.0
 51
180.0
  0
ARC
  5
42FE
  8
0
  6
BYBLOCK
 62
     0
 10
17577.170844999979
 20
13123.368360999981
 30
0.0
 40
15.0
 50
180.0
 51
0.0
  0
ARC
  5
42FF
  8
0
  6
BYBLOCK
 62
     0
 10
25913.176123999961
 20
13123.368360999981
 30
0.0
 40
15.0
 50
180.0
 51
0.0
  0
ARC
  5
4300
  8
0
  6
BYBLOCK
 62
     0
 10
25913.176123999961
 20
13123.368360999981
 30
0.0
 40
15.0
 50
0.0
 51
180.0
  0
ARC
  5
4301
  8
0
  6
BYBLOCK
 62
     0
 10
27005.675727999958
 20
14902.31644499998
 30
0.0
 40
15.0
 50
270.0
 51
90.0
  0
ARC
  5
4302
  8
0
  6
BYBLOCK
 62
     0
 10
27005.675727999958
 20
14902.31644499998
 30
0.0
 40
15.0
 50
90.0
 51
270.0
  0
ARC
  5
4303
  8
0
  6
BYBLOCK
 62
     0
 10
27005.675727999958
 20
14494.81644499998
 30
0.0
 40
15.0
 50
90.0
 51
270.0
  0
ARC
  5
4304
  8
0
  6
BYBLOCK
 62
     0
 10
27005.675727999958
 20
14494.81644499998
 30
0.0
 40
15.0
 50
270.0
 51
90.0
  0
ARC
  5
4305
  8
0
  6
BYBLOCK
 62
     0
 10
27005.675727999958
 20
15603.556956500001
 30
0.0
 40
15.0
 50
270.0
 51
90.0
  0
ARC
  5
4306
  8
0
  6
BYBLOCK
 62
     0
 10
27005.675727999958
 20
15603.556956500001
 30
0.0
 40
15.0
 50
90.0
 51
270.0
  0
ARC
  5
4307
  8
0
  6
BYBLOCK
 62
     0
 10
27005.675727999958
 20
14902.31644499998
 30
0.0
 40
15.0
 50
90.0
 51
270.0
  0
ARC
  5
4308
  8
0
  6
BYBLOCK
 62
     0
 10
27005.675727999958
 20
14902.31644499998
 30
0.0
 40
15.0
 50
270.0
 51
90.0
  0
ARC
  5
4309
  8
0
  6
BYBLOCK
 62
     0
 10
27005.675727999958
 20
16304.31644499998
 30
0.0
 40
15.0
 50
270.0
 51
90.0
  0
ARC
  5
430A
  8
0
  6
BYBLOCK
 62
     0
 10
27005.675727999958
 20
16304.31644499998
 30
0.0
 40
15.0
 50
90.0
 51
270.0
  0
ARC
  5
430B
  8
0
  6
BYBLOCK
 62
     0
 10
27005.675727999958
 20
15603.556956500001
 30
0.0
 40
15.0
 50
90.0
 51
270.0
  0
ARC
  5
430C
  8
0
  6
BYBLOCK
 62
     0
 10
27005.675727999958
 20
15603.556956500001
 30
0.0
 40
15.0
 50
270.0
 51
90.0
  0
ARC
  5
430D
  8
0
  6
BYBLOCK
 62
     0
 10
27005.675727999958
 20
17062.316444999979
 30
0.0
 40
15.0
 50
270.0
 51
90.0
  0
ARC
  5
430E
  8
0
  6
BYBLOCK
 62
     0
 10
27005.675727999958
 20
17062.316444999979
 30
0.0
 40
15.0
 50
90.0
 51
270.0
  0
ARC
  5
430F
  8
0
  6
BYBLOCK
 62
     0
 10
27005.675727999958
 20
16304.31644499998
 30
0.0
 40
15.0
 50
90.0
 51
270.0
  0
ARC
  5
4310
  8
0
  6
BYBLOCK
 62
     0
 10
27005.675727999958
 20
16304.31644499998
 30
0.0
 40
15.0
 50
270.0
 51
90.0
  0
ARC
  5
4311
  8
0
  6
BYBLOCK
 62
     0
 10
27005.675727999958
 20
17820.316444999979
 30
0.0
 40
15.0
 50
270.0
 51
90.0
  0
ARC
  5
4312
  8
0
  6
BYBLOCK
 62
     0
 10
27005.675727999958
 20
17820.316444999979
 30
0.0
 40
15.0
 50
90.0
 51
270.0
  0
ARC
  5
4313
  8
0
  6
BYBLOCK
 62
     0
 10
27005.675727999958
 20
17062.316444999979
 30
0.0
 40
15.0
 50
90.0
 51
270.0
  0
ARC
  5
4314
  8
0
  6
BYBLOCK
 62
     0
 10
27005.675727999958
 20
17062.316444999979
 30
0.0
 40
15.0
 50
270.0
 51
90.0
  0
ARC
  5
4315
  8
0
  6
BYBLOCK
 62
     0
 10
27005.675727999958
 20
18521.31644499996
 30
0.0
 40
15.0
 50
270.0
 51
90.0
  0
ARC
  5
4316
  8
0
  6
BYBLOCK
 62
     0
 10
27005.675727999958
 20
18521.31644499996
 30
0.0
 40
15.0
 50
90.0
 51
270.0
  0
ARC
  5
4317
  8
0
  6
BYBLOCK
 62
     0
 10
27005.675727999958
 20
17820.316444999979
 30
0.0
 40
15.0
 50
90.0
 51
270.0
  0
ARC
  5
4318
  8
0
  6
BYBLOCK
 62
     0
 10
27005.675727999958
 20
17820.316444999979
 30
0.0
 40
15.0
 50
270.0
 51
90.0
  0
ARC
  5
4319
  8
0
  6
BYBLOCK
 62
     0
 10
27005.675727999958
 20
19222.31644499996
 30
0.0
 40
15.0
 50
270.0
 51
90.0
  0
ARC
  5
431A
  8
0
  6
BYBLOCK
 62
     0
 10
27005.675727999958
 20
19222.31644499996
 30
0.0
 40
15.0
 50
90.0
 51
270.0
  0
ARC
  5
431B
  8
0
  6
BYBLOCK
 62
     0
 10
27005.675727999958
 20
18521.31644499996
 30
0.0
 40
15.0
 50
90.0
 51
270.0
  0
ARC
  5
431C
  8
0
  6
BYBLOCK
 62
     0
 10
27005.675727999958
 20
18521.31644499996
 30
0.0
 40
15.0
 50
270.0
 51
90.0
  0
ARC
  5
431D
  8
0
  6
BYBLOCK
 62
     0
 10
27405.675727999958
 20
17062.316444999979
 30
0.0
 40
15.0
 50
90.0
 51
270.0
  0
ARC
  5
431E
  8
0
  6
BYBLOCK
 62
     0
 10
27405.675727999958
 20
17062.316444999979
 30
0.0
 40
15.0
 50
270.0
 51
90.0
  0
ARC
  5
431F
  8
0
  6
BYBLOCK
 62
     0
 10
27405.675727999958
 20
19629.816444999949
 30
0.0
 40
15.0
 50
270.0
 51
90.0
  0
ARC
  5
4320
  8
0
  6
BYBLOCK
 62
     0
 10
27405.675727999958
 20
19629.816444999949
 30
0.0
 40
15.0
 50
90.0
 51
270.0
  0
ARC
  5
4321
  8
0
  6
BYBLOCK
 62
     0
 10
27405.675727999958
 20
14494.81644499998
 30
0.0
 40
15.0
 50
90.0
 51
270.0
  0
ARC
  5
4322
  8
0
  6
BYBLOCK
 62
     0
 10
27405.675727999958
 20
14494.81644499998
 30
0.0
 40
15.0
 50
270.0
 51
90.0
  0
ARC
  5
4323
  8
0
  6
BYBLOCK
 62
     0
 10
27405.675727999958
 20
17062.316444999979
 30
0.0
 40
15.0
 50
270.0
 51
90.0
  0
ARC
  5
4324
  8
0
  6
BYBLOCK
 62
     0
 10
27405.675727999958
 20
17062.316444999979
 30
0.0
 40
15.0
 50
90.0
 51
270.0
  0
ARC
  5
4325
  8
0
  6
BYBLOCK
 62
     0
 10
27805.675727999958
 20
19672.31373999998
 30
0.0
 40
15.0
 50
270.0
 51
90.0
  0
ARC
  5
4326
  8
0
  6
BYBLOCK
 62
     0
 10
27805.675727999958
 20
19672.31373999998
 30
0.0
 40
15.0
 50
90.0
 51
270.0
  0
ARC
  5
4327
  8
0
  6
BYBLOCK
 62
     0
 10
27805.675727999958
 20
14452.319149999979
 30
0.0
 40
15.0
 50
90.0
 51
270.0
  0
ARC
  5
4328
  8
0
  6
BYBLOCK
 62
     0
 10
27805.675727999958
 20
14452.319149999979
 30
0.0
 40
15.0
 50
270.0
 51
90.0
  0
ARC
  5
4329
  8
0
  6
BYBLOCK
 62
     0
 10
27405.675727999958
 20
19629.816444999949
 30
0.0
 40
15.0
 50
270.0
 51
90.0
  0
ARC
  5
432A
  8
0
  6
BYBLOCK
 62
     0
 10
27405.675727999958
 20
19629.816444999949
 30
0.0
 40
15.0
 50
90.0
 51
270.0
  0
ARC
  5
432B
  8
0
  6
BYBLOCK
 62
     0
 10
27405.675727999958
 20
19672.31373999998
 30
0.0
 40
15.0
 50
90.0
 51
270.0
  0
ARC
  5
432C
  8
0
  6
BYBLOCK
 62
     0
 10
27405.675727999958
 20
19672.31373999998
 30
0.0
 40
15.0
 50
270.0
 51
90.0
  0
ARC
  5
432D
  8
0
  6
BYBLOCK
 62
     0
 10
27405.675727999958
 20
14494.81644499998
 30
0.0
 40
15.0
 50
90.0
 51
270.0
  0
ARC
  5
432E
  8
0
  6
BYBLOCK
 62
     0
 10
27405.675727999958
 20
14494.81644499998
 30
0.0
 40
15.0
 50
270.0
 51
90.0
  0
ARC
  5
432F
  8
0
  6
BYBLOCK
 62
     0
 10
27405.675727999958
 20
14452.319149999979
 30
0.0
 40
15.0
 50
270.0
 51
90.0
  0
ARC
  5
4330
  8
0
  6
BYBLOCK
 62
     0
 10
27405.675727999958
 20
14452.319149999979
 30
0.0
 40
15.0
 50
90.0
 51
270.0
  0
ARC
  5
4331
  8
0
  6
BYBLOCK
 62
     0
 10
20495.171834500001
 20
20402.317632999999
 30
0.0
 40
15.0
 50
0.0
 51
180.0
  0
ARC
  5
4332
  8
0
  6
BYBLOCK
 62
     0
 10
20495.171834500001
 20
20402.317632999999
 30
0.0
 40
15.0
 50
180.0
 51
0.0
  0
ARC
  5
4333
  8
0
  6
BYBLOCK
 62
     0
 10
22995.176123999961
 20
20402.317632999999
 30
0.0
 40
15.0
 50
180.0
 51
0.0
  0
ARC
  5
4334
  8
0
  6
BYBLOCK
 62
     0
 10
22995.176123999961
 20
20402.317632999999
 30
0.0
 40
15.0
 50
0.0
 51
180.0
  0
ARC
  5
4335
  8
0
  6
BYBLOCK
 62
     0
 10
25155.176123999961
 20
20402.317632999999
 30
0.0
 40
15.0
 50
0.0
 51
180.0
  0
ARC
  5
4336
  8
0
  6
BYBLOCK
 62
     0
 10
25155.176123999961
 20
20402.317632999999
 30
0.0
 40
15.0
 50
180.0
 51
0.0
  0
ARC
  5
4337
  8
0
  6
BYBLOCK
 62
     0
 10
25913.17711349998
 20
20402.317632999999
 30
0.0
 40
15.0
 50
180.0
 51
0.0
  0
ARC
  5
4338
  8
0
  6
BYBLOCK
 62
     0
 10
25913.17711349998
 20
20402.317632999999
 30
0.0
 40
15.0
 50
0.0
 51
180.0
  0
ARC
  5
4339
  8
0
  6
BYBLOCK
 62
     0
 10
24454.176123999961
 20
20402.317632999999
 30
0.0
 40
15.0
 50
0.0
 51
180.0
  0
ARC
  5
433A
  8
0
  6
BYBLOCK
 62
     0
 10
24454.176123999961
 20
20402.317632999999
 30
0.0
 40
15.0
 50
180.0
 51
0.0
  0
ARC
  5
433B
  8
0
  6
BYBLOCK
 62
     0
 10
25155.176123999961
 20
20402.317632999999
 30
0.0
 40
15.0
 50
180.0
 51
0.0
  0
ARC
  5
433C
  8
0
  6
BYBLOCK
 62
     0
 10
25155.176123999961
 20
20402.317632999999
 30
0.0
 40
15.0
 50
0.0
 51
180.0
  0
ARC
  5
433D
  8
0
  6
BYBLOCK
 62
     0
 10
23753.176123999961
 20
20402.317632999999
 30
0.0
 40
15.0
 50
0.0
 51
180.0
  0
ARC
  5
433E
  8
0
  6
BYBLOCK
 62
     0
 10
23753.176123999961
 20
20402.317632999999
 30
0.0
 40
15.0
 50
180.0
 51
0.0
  0
ARC
  5
433F
  8
0
  6
BYBLOCK
 62
     0
 10
24454.176123999961
 20
20402.317632999999
 30
0.0
 40
15.0
 50
180.0
 51
0.0
  0
ARC
  5
4340
  8
0
  6
BYBLOCK
 62
     0
 10
24454.176123999961
 20
20402.317632999999
 30
0.0
 40
15.0
 50
0.0
 51
180.0
  0
ARC
  5
4341
  8
0
  6
BYBLOCK
 62
     0
 10
25913.176123999961
 20
20402.317632999999
 30
0.0
 40
15.0
 50
180.0
 51
0.0
  0
ARC
  5
4342
  8
0
  6
BYBLOCK
 62
     0
 10
25913.176123999961
 20
20402.317632999999
 30
0.0
 40
15.0
 50
0.0
 51
180.0
  0
ARC
  5
4343
  8
0
  6
BYBLOCK
 62
     0
 10
25955.672428999958
 20
20402.317632999999
 30
0.0
 40
15.0
 50
0.0
 51
180.0
  0
ARC
  5
4344
  8
0
  6
BYBLOCK
 62
     0
 10
25955.672428999958
 20
20402.317632999999
 30
0.0
 40
15.0
 50
180.0
 51
0.0
  0
ARC
  5
4345
  8
0
  6
BYBLOCK
 62
     0
 10
17577.170844999979
 20
20402.317632999999
 30
0.0
 40
15.0
 50
0.0
 51
180.0
  0
ARC
  5
4346
  8
0
  6
BYBLOCK
 62
     0
 10
17577.170844999979
 20
20402.317632999999
 30
0.0
 40
15.0
 50
180.0
 51
0.0
  0
ARC
  5
4347
  8
0
  6
BYBLOCK
 62
     0
 10
17534.674539999989
 20
20402.317632999999
 30
0.0
 40
15.0
 50
180.0
 51
0.0
  0
ARC
  5
4348
  8
0
  6
BYBLOCK
 62
     0
 10
17534.674539999989
 20
20402.317632999999
 30
0.0
 40
15.0
 50
0.0
 51
180.0
  0
ARC
  5
4349
  8
0
  6
BYBLOCK
 62
     0
 10
19737.17084499999
 20
20402.317632999999
 30
0.0
 40
15.0
 50
0.0
 51
180.0
  0
ARC
  5
434A
  8
0
  6
BYBLOCK
 62
     0
 10
19737.17084499999
 20
20402.317632999999
 30
0.0
 40
15.0
 50
180.0
 51
0.0
  0
ARC
  5
434B
  8
0
  6
BYBLOCK
 62
     0
 10
20495.171834500001
 20
20402.317632999999
 30
0.0
 40
15.0
 50
180.0
 51
0.0
  0
ARC
  5
434C
  8
0
  6
BYBLOCK
 62
     0
 10
20495.171834500001
 20
20402.317632999999
 30
0.0
 40
15.0
 50
0.0
 51
180.0
  0
ARC
  5
434D
  8
0
  6
BYBLOCK
 62
     0
 10
19036.17084499999
 20
20402.317632999999
 30
0.0
 40
15.0
 50
0.0
 51
180.0
  0
ARC
  5
434E
  8
0
  6
BYBLOCK
 62
     0
 10
19036.17084499999
 20
20402.317632999999
 30
0.0
 40
15.0
 50
180.0
 51
0.0
  0
ARC
  5
434F
  8
0
  6
BYBLOCK
 62
     0
 10
19737.17084499999
 20
20402.317632999999
 30
0.0
 40
15.0
 50
180.0
 51
0.0
  0
ARC
  5
4350
  8
0
  6
BYBLOCK
 62
     0
 10
19737.17084499999
 20
20402.317632999999
 30
0.0
 40
15.0
 50
0.0
 51
180.0
  0
ARC
  5
4351
  8
0
  6
BYBLOCK
 62
     0
 10
18335.170844999979
 20
20402.317632999999
 30
0.0
 40
15.0
 50
0.0
 51
180.0
  0
ARC
  5
4352
  8
0
  6
BYBLOCK
 62
     0
 10
18335.170844999979
 20
20402.317632999999
 30
0.0
 40
15.0
 50
180.0
 51
0.0
  0
ARC
  5
4353
  8
0
  6
BYBLOCK
 62
     0
 10
19036.17084499999
 20
20402.317632999999
 30
0.0
 40
15.0
 50
180.0
 51
0.0
  0
ARC
  5
4354
  8
0
  6
BYBLOCK
 62
     0
 10
19036.17084499999
 20
20402.317632999999
 30
0.0
 40
15.0
 50
0.0
 51
180.0
  0
ARC
  5
4355
  8
0
  6
BYBLOCK
 62
     0
 10
16727.171504999991
 20
6212.7285879999999
 30
0.0
 40
15.0
 50
90.0
 51
270.0
  0
ARC
  5
4356
  8
0
  6
BYBLOCK
 62
     0
 10
16727.171504999991
 20
6212.7285879999999
 30
0.0
 40
15.0
 50
270.0
 51
90.0
  0
ARC
  5
4357
  8
0
  6
BYBLOCK
 62
     0
 10
16727.171504999991
 20
8104.228587999999
 30
0.0
 40
15.0
 50
270.0
 51
90.0
  0
ARC
  5
4358
  8
0
  6
BYBLOCK
 62
     0
 10
16727.171504999991
 20
8104.228587999999
 30
0.0
 40
15.0
 50
90.0
 51
270.0
  0
ARC
  5
4359
  8
0
  6
BYBLOCK
 62
     0
 10
16327.16919599999
 20
6212.7285879999999
 30
0.0
 40
15.0
 50
90.0
 51
270.0
  0
ARC
  5
435A
  8
0
  6
BYBLOCK
 62
     0
 10
16327.16919599999
 20
6212.7285879999999
 30
0.0
 40
15.0
 50
270.0
 51
90.0
  0
ARC
  5
435B
  8
0
  6
BYBLOCK
 62
     0
 10
16327.16919599999
 20
8561.7285880000018
 30
0.0
 40
15.0
 50
270.0
 51
90.0
  0
ARC
  5
435C
  8
0
  6
BYBLOCK
 62
     0
 10
16327.16919599999
 20
8561.7285880000018
 30
0.0
 40
15.0
 50
90.0
 51
270.0
  0
ARC
  5
436D
  8
0
  6
BYBLOCK
 62
     0
 10
17671.17084499999
 20
5312.7287530000031
 30
0.0
 40
15.0
 50
0.0
 51
180.0
  0
ARC
  5
436E
  8
0
  6
BYBLOCK
 62
     0
 10
17671.17084499999
 20
5312.7287530000031
 30
0.0
 40
15.0
 50
180.0
 51
0.0
  0
ARC
  5
436F
  8
0
  6
BYBLOCK
 62
     0
 10
20401.170844999979
 20
5312.7287530000031
 30
0.0
 40
15.0
 50
180.0
 51
0.0
  0
ARC
  5
4370
  8
0
  6
BYBLOCK
 62
     0
 10
20401.170844999979
 20
5312.7287530000031
 30
0.0
 40
15.0
 50
0.0
 51
180.0
  0
ARC
  5
4371
  8
0
  6
BYBLOCK
 62
     0
 10
23089.176123999961
 20
5312.7287530000031
 30
0.0
 40
15.0
 50
0.0
 51
180.0
  0
ARC
  5
4372
  8
0
  6
BYBLOCK
 62
     0
 10
23089.176123999961
 20
5312.7287530000031
 30
0.0
 40
15.0
 50
180.0
 51
0.0
  0
ARC
  5
4373
  8
0
  6
BYBLOCK
 62
     0
 10
25819.176123999961
 20
5312.7287530000031
 30
0.0
 40
15.0
 50
180.0
 51
0.0
  0
ARC
  5
4374
  8
0
  6
BYBLOCK
 62
     0
 10
25819.176123999961
 20
5312.7287530000031
 30
0.0
 40
15.0
 50
0.0
 51
180.0
  0
ARC
  5
4375
  8
0
  6
BYBLOCK
 62
     0
 10
22995.176123999961
 20
4912.7287530000031
 30
0.0
 40
15.0
 50
0.0
 51
180.0
  0
ARC
  5
4376
  8
0
  6
BYBLOCK
 62
     0
 10
22995.176123999961
 20
4912.7287530000031
 30
0.0
 40
15.0
 50
180.0
 51
0.0
  0
ARC
  5
4377
  8
0
  6
BYBLOCK
 62
     0
 10
25913.176123999961
 20
4912.7287530000031
 30
0.0
 40
15.0
 50
180.0
 51
0.0
  0
ARC
  5
4378
  8
0
  6
BYBLOCK
 62
     0
 10
25913.176123999961
 20
4912.7287530000031
 30
0.0
 40
15.0
 50
0.0
 51
180.0
  0
ARC
  5
4379
  8
0
  6
BYBLOCK
 62
     0
 10
20495.17084499999
 20
4912.7287530000031
 30
0.0
 40
15.0
 50
0.0
 51
180.0
  0
ARC
  5
437A
  8
0
  6
BYBLOCK
 62
     0
 10
20495.17084499999
 20
4912.7287530000031
 30
0.0
 40
15.0
 50
180.0
 51
0.0
  0
ARC
  5
437B
  8
0
  6
BYBLOCK
 62
     0
 10
22995.176123999961
 20
4912.7287530000031
 30
0.0
 40
15.0
 50
180.0
 51
0.0
  0
ARC
  5
437C
  8
0
  6
BYBLOCK
 62
     0
 10
22995.176123999961
 20
4912.7287530000031
 30
0.0
 40
15.0
 50
0.0
 51
180.0
  0
ARC
  5
437D
  8
0
  6
BYBLOCK
 62
     0
 10
17577.170844999979
 20
4912.7287530000031
 30
0.0
 40
15.0
 50
0.0
 51
180.0
  0
ARC
  5
437E
  8
0
  6
BYBLOCK
 62
     0
 10
17577.170844999979
 20
4912.7287530000031
 30
0.0
 40
15.0
 50
180.0
 51
0.0
  0
ARC
  5
437F
  8
0
  6
BYBLOCK
 62
     0
 10
20495.17084499999
 20
4912.7287530000031
 30
0.0
 40
15.0
 50
180.0
 51
0.0
  0
ARC
  5
4380
  8
0
  6
BYBLOCK
 62
     0
 10
20495.17084499999
 20
4912.7287530000031
 30
0.0
 40
15.0
 50
0.0
 51
180.0
  0
ARC
  5
4381
  8
0
  6
BYBLOCK
 62
     0
 10
25913.180082999981
 20
4912.7287530000031
 30
0.0
 40
15.0
 50
180.0
 51
0.0
  0
ARC
  5
4382
  8
0
  6
BYBLOCK
 62
     0
 10
25913.180082999981
 20
4912.7287530000031
 30
0.0
 40
15.0
 50
0.0
 51
180.0
  0
ARC
  5
4383
  8
0
  6
BYBLOCK
 62
     0
 10
25955.680082999981
 20
4912.7287530000031
 30
0.0
 40
15.0
 50
0.0
 51
180.0
  0
ARC
  5
4384
  8
0
  6
BYBLOCK
 62
     0
 10
25955.680082999981
 20
4912.7287530000031
 30
0.0
 40
15.0
 50
180.0
 51
0.0
  0
ARC
  5
4385
  8
0
  6
BYBLOCK
 62
     0
 10
17577.170844999979
 20
4912.7287530000031
 30
0.0
 40
15.0
 50
0.0
 51
180.0
  0
ARC
  5
4386
  8
0
  6
BYBLOCK
 62
     0
 10
17577.170844999979
 20
4912.7287530000031
 30
0.0
 40
15.0
 50
180.0
 51
0.0
  0
ARC
  5
4387
  8
0
  6
BYBLOCK
 62
     0
 10
17534.67084499999
 20
4912.7287530000031
 30
0.0
 40
15.0
 50
180.0
 51
0.0
  0
ARC
  5
4388
  8
0
  6
BYBLOCK
 62
     0
 10
17534.67084499999
 20
4912.7287530000031
 30
0.0
 40
15.0
 50
0.0
 51
180.0
  0
ARC
  5
4389
  8
0
  6
BYBLOCK
 62
     0
 10
17534.67084499999
 20
4512.7289179999989
 30
0.0
 40
15.0
 50
0.0
 51
180.0
  0
ARC
  5
438A
  8
0
  6
BYBLOCK
 62
     0
 10
17534.67084499999
 20
4512.7289179999989
 30
0.0
 40
15.0
 50
180.0
 51
0.0
  0
ARC
  5
438B
  8
0
  6
BYBLOCK
 62
     0
 10
25955.676123999961
 20
4512.7289179999989
 30
0.0
 40
15.0
 50
180.0
 51
0.0
  0
ARC
  5
438C
  8
0
  6
BYBLOCK
 62
     0
 10
25955.676123999961
 20
4512.7289179999989
 30
0.0
 40
15.0
 50
0.0
 51
180.0
  0
ARC
  5
438D
  8
0
  6
BYBLOCK
 62
     0
 10
14156.88291699999
 20
6212.7285880000036
 30
0.0
 40
15.0
 50
90.0
 51
270.0
  0
ARC
  5
438E
  8
0
  6
BYBLOCK
 62
     0
 10
14156.88291699999
 20
6212.7285880000036
 30
0.0
 40
15.0
 50
270.0
 51
90.0
  0
ARC
  5
438F
  8
0
  6
BYBLOCK
 62
     0
 10
14156.88291699999
 20
8561.7285880000018
 30
0.0
 40
15.0
 50
270.0
 51
90.0
  0
ARC
  5
4390
  8
0
  6
BYBLOCK
 62
     0
 10
14156.88291699999
 20
8561.7285880000018
 30
0.0
 40
15.0
 50
90.0
 51
270.0
  0
ARC
  5
4391
  8
0
  6
BYBLOCK
 62
     0
 10
6756.8841049999901
 20
6212.7285880000036
 30
0.0
 40
15.0
 50
90.0
 51
270.0
  0
ARC
  5
4392
  8
0
  6
BYBLOCK
 62
     0
 10
6756.8841049999901
 20
6212.7285880000036
 30
0.0
 40
15.0
 50
270.0
 51
90.0
  0
ARC
  5
4393
  8
0
  6
BYBLOCK
 62
     0
 10
6756.8841049999901
 20
8368.2285880000054
 30
0.0
 40
15.0
 50
270.0
 51
90.0
  0
ARC
  5
4394
  8
0
  6
BYBLOCK
 62
     0
 10
6756.8841049999901
 20
8368.2285880000054
 30
0.0
 40
15.0
 50
90.0
 51
270.0
  0
ARC
  5
4395
  8
0
  6
BYBLOCK
 62
     0
 10
13066.88450099999
 20
9360.7302629999976
 30
0.0
 40
15.0
 50
180.0
 51
0.0
  0
ARC
  5
4396
  8
0
  6
BYBLOCK
 62
     0
 10
13066.88450099999
 20
9360.7302629999976
 30
0.0
 40
15.0
 50
0.0
 51
180.0
  0
ARC
  5
4397
  8
0
  6
BYBLOCK
 62
     0
 10
13216.88450099999
 20
9360.7302629999976
 30
0.0
 40
15.0
 50
0.0
 51
180.0
  0
ARC
  5
4398
  8
0
  6
BYBLOCK
 62
     0
 10
13216.88450099999
 20
9360.7302629999976
 30
0.0
 40
15.0
 50
180.0
 51
0.0
  0
ARC
  5
4399
  8
0
  6
BYBLOCK
 62
     0
 10
7666.8845009999914
 20
9760.7286129999993
 30
0.0
 40
15.0
 50
0.0
 51
180.0
  0
ARC
  5
439A
  8
0
  6
BYBLOCK
 62
     0
 10
7666.8845009999914
 20
9760.7286129999993
 30
0.0
 40
15.0
 50
180.0
 51
0.0
  0
ARC
  5
439B
  8
0
  6
BYBLOCK
 62
     0
 10
13216.88450099999
 20
9760.7286129999993
 30
0.0
 40
15.0
 50
180.0
 51
0.0
  0
ARC
  5
439C
  8
0
  6
BYBLOCK
 62
     0
 10
13216.88450099999
 20
9760.7286129999993
 30
0.0
 40
15.0
 50
0.0
 51
180.0
  0
ARC
  5
439D
  8
0
  6
BYBLOCK
 62
     0
 10
7846.8845009999914
 20
9360.7302629999976
 30
0.0
 40
15.0
 50
0.0
 51
180.0
  0
ARC
  5
439E
  8
0
  6
BYBLOCK
 62
     0
 10
7846.8845009999914
 20
9360.7302629999976
 30
0.0
 40
15.0
 50
180.0
 51
0.0
  0
ARC
  5
439F
  8
0
  6
BYBLOCK
 62
     0
 10
13066.88450099999
 20
9360.7302629999976
 30
0.0
 40
15.0
 50
180.0
 51
0.0
  0
ARC
  5
43A0
  8
0
  6
BYBLOCK
 62
     0
 10
13066.88450099999
 20
9360.7302629999976
 30
0.0
 40
15.0
 50
0.0
 51
180.0
  0
ARC
  5
43A1
  8
0
  6
BYBLOCK
 62
     0
 10
7666.8845009999914
 20
9360.7302629999976
 30
0.0
 40
15.0
 50
180.0
 51
0.0
  0
ARC
  5
43A2
  8
0
  6
BYBLOCK
 62
     0
 10
7666.8845009999914
 20
9360.7302629999976
 30
0.0
 40
15.0
 50
0.0
 51
180.0
  0
ARC
  5
43A3
  8
0
  6
BYBLOCK
 62
     0
 10
7846.8845009999914
 20
9360.7302629999976
 30
0.0
 40
15.0
 50
0.0
 51
180.0
  0
ARC
  5
43A4
  8
0
  6
BYBLOCK
 62
     0
 10
7846.8845009999914
 20
9360.7302629999976
 30
0.0
 40
15.0
 50
180.0
 51
0.0
  0
ARC
  5
43A5
  8
0
  6
BYBLOCK
 62
     0
 10
13024.382521999971
 20
4912.7287519999991
 30
0.0
 40
15.0
 50
180.0
 51
0.0
  0
ARC
  5
43A6
  8
0
  6
BYBLOCK
 62
     0
 10
13024.382521999971
 20
4912.7287519999991
 30
0.0
 40
15.0
 50
0.0
 51
180.0
  0
ARC
  5
43A7
  8
0
  6
BYBLOCK
 62
     0
 10
13066.88252199998
 20
4912.7287519999991
 30
0.0
 40
15.0
 50
0.0
 51
180.0
  0
ARC
  5
43A8
  8
0
  6
BYBLOCK
 62
     0
 10
13066.88252199998
 20
4912.7287519999991
 30
0.0
 40
15.0
 50
180.0
 51
0.0
  0
ARC
  5
43A9
  8
0
  6
BYBLOCK
 62
     0
 10
10456.88450099999
 20
4912.7287530000031
 30
0.0
 40
15.0
 50
0.0
 51
180.0
  0
ARC
  5
43AA
  8
0
  6
BYBLOCK
 62
     0
 10
10456.88450099999
 20
4912.7287530000031
 30
0.0
 40
15.0
 50
180.0
 51
0.0
  0
ARC
  5
43AB
  8
0
  6
BYBLOCK
 62
     0
 10
13024.38450099999
 20
4912.7287530000031
 30
0.0
 40
15.0
 50
180.0
 51
0.0
  0
ARC
  5
43AC
  8
0
  6
BYBLOCK
 62
     0
 10
13024.38450099999
 20
4912.7287530000031
 30
0.0
 40
15.0
 50
0.0
 51
180.0
  0
ARC
  5
43AD
  8
0
  6
BYBLOCK
 62
     0
 10
7846.8845009999914
 20
4512.7289170000004
 30
0.0
 40
15.0
 50
0.0
 51
180.0
  0
ARC
  5
43AE
  8
0
  6
BYBLOCK
 62
     0
 10
7846.8845009999914
 20
4512.7289170000004
 30
0.0
 40
15.0
 50
180.0
 51
0.0
  0
ARC
  5
43AF
  8
0
  6
BYBLOCK
 62
     0
 10
13066.88252199998
 20
4512.7289170000004
 30
0.0
 40
15.0
 50
180.0
 51
0.0
  0
ARC
  5
43B0
  8
0
  6
BYBLOCK
 62
     0
 10
13066.88252199998
 20
4512.7289170000004
 30
0.0
 40
15.0
 50
0.0
 51
180.0
  0
ARC
  5
43B1
  8
0
  6
BYBLOCK
 62
     0
 10
7889.3845009999868
 20
4912.7287519999991
 30
0.0
 40
15.0
 50
0.0
 51
180.0
  0
ARC
  5
43B2
  8
0
  6
BYBLOCK
 62
     0
 10
7889.3845009999868
 20
4912.7287519999991
 30
0.0
 40
15.0
 50
180.0
 51
0.0
  0
ARC
  5
43B3
  8
0
  6
BYBLOCK
 62
     0
 10
7846.8845009999914
 20
4912.7287519999991
 30
0.0
 40
15.0
 50
180.0
 51
0.0
  0
ARC
  5
43B4
  8
0
  6
BYBLOCK
 62
     0
 10
7846.8845009999914
 20
4912.7287519999991
 30
0.0
 40
15.0
 50
0.0
 51
180.0
  0
ARC
  5
43B5
  8
0
  6
BYBLOCK
 62
     0
 10
10456.88450099999
 20
4912.7287519999991
 30
0.0
 40
15.0
 50
180.0
 51
0.0
  0
ARC
  5
43B6
  8
0
  6
BYBLOCK
 62
     0
 10
10456.88450099999
 20
4912.7287519999991
 30
0.0
 40
15.0
 50
0.0
 51
180.0
  0
ARC
  5
43B7
  8
0
  6
BYBLOCK
 62
     0
 10
7889.3845009999868
 20
4912.7287519999991
 30
0.0
 40
15.0
 50
0.0
 51
180.0
  0
ARC
  5
43B8
  8
0
  6
BYBLOCK
 62
     0
 10
7889.3845009999868
 20
4912.7287519999991
 30
0.0
 40
15.0
 50
180.0
 51
0.0
  0
LINE
  5
4500
  8
0-1
  6
CONTINUOUS
 62
     3
 10
25849.67910599996
 20
8311.2286080000031
 30
0.0
 11
25849.67910599996
 21
8343.2285150000007
 31
0.0
  0
LINE
  5
4501
  8
0-1
  6
CONTINUOUS
 62
     3
 10
25998.678498999961
 20
8235.0418860000027
 30
0.0
 11
25955.67638799996
 21
8235.0418860000027
 31
0.0
  0
LINE
  5
4502
  8
0-1
  6
CONTINUOUS
 62
     3
 10
25998.678498999961
 20
8561.2289369999999
 30
0.0
 11
25998.678498999961
 21
8235.0418860000027
 31
0.0
  0
LINE
  5
4503
  8
0-1
  6
CONTINUOUS
 62
     3
 10
25563.71191299997
 20
8307.6931870000008
 30
0.0
 11
25531.712995999958
 21
8339.6930949999969
 31
0.0
  0
LINE
  5
4504
  8
0-1
  6
CONTINUOUS
 62
     3
 10
25844.678841999961
 20
8348.2287790000028
 30
0.0
 11
25535.248415999959
 21
8348.2287790000028
 31
0.0
  0
LINE
  5
4505
  8
0-1
  6
CONTINUOUS
 62
     3
 10
25849.67910599996
 20
8339.8296820000032
 30
0.0
 11
25531.58234699997
 21
8339.8296820000032
 31
0.0
  0
LINE
  5
4506
  8
0-1
  6
CONTINUOUS
 62
     3
 10
25844.678841999961
 20
8306.2283440000028
 30
0.0
 11
25567.24931299996
 21
8306.2283440000028
 31
0.0
  0
LINE
  5
4507
  8
0-1
  6
CONTINUOUS
 62
     3
 10
25849.67910599996
 20
8314.6284309999974
 30
0.0
 11
25556.77765999996
 21
8314.6284309999974
 31
0.0
  0
LINE
  5
4508
  8
0-1
  6
CONTINUOUS
 62
     3
 10
25849.67910599996
 20
8323.0285179999992
 30
0.0
 11
25548.378561999962
 21
8323.0285179999992
 31
0.0
  0
LINE
  5
4509
  8
0-1
  6
CONTINUOUS
 62
     3
 10
25849.67910599996
 20
8331.4295950000032
 30
0.0
 11
25539.97748599996
 21
8331.4295950000032
 31
0.0
  0
LINE
  5
450A
  8
0-1
  6
CONTINUOUS
 62
     3
 10
23344.64231399999
 20
8307.6931870000008
 30
0.0
 11
23376.63925199999
 21
8339.6930949999969
 31
0.0
  0
LINE
  5
450B
  8
0-1
  6
CONTINUOUS
 62
     3
 10
23058.677099999979
 20
8311.2286080000031
 30
0.0
 11
23058.677099999979
 21
8343.2285150000007
 31
0.0
  0
LINE
  5
450C
  8
0-1
  6
CONTINUOUS
 62
     3
 10
22931.675146999991
 20
8311.2286080000031
 30
0.0
 11
22931.675146999991
 21
8343.2285150000007
 31
0.0
  0
LINE
  5
450D
  8
0-1
  6
CONTINUOUS
 62
     3
 10
23058.677099999979
 20
8314.6284309999974
 30
0.0
 11
23351.574587999981
 21
8314.6284309999974
 31
0.0
  0
LINE
  5
450E
  8
0-1
  6
CONTINUOUS
 62
     3
 10
23058.677099999979
 20
8323.0285179999992
 30
0.0
 11
23359.975664999991
 21
8323.0285179999992
 31
0.0
  0
LINE
  5
450F
  8
0-1
  6
CONTINUOUS
 62
     3
 10
23063.677363999981
 20
8306.2283440000028
 30
0.0
 11
23341.104913999981
 21
8306.2283440000028
 31
0.0
  0
LINE
  5
4510
  8
0-1
  6
CONTINUOUS
 62
     3
 10
23058.677099999979
 20
8331.4295950000032
 30
0.0
 11
23368.374761999989
 21
8331.4295950000032
 31
0.0
  0
LINE
  5
4511
  8
0-1
  6
CONTINUOUS
 62
     3
 10
23058.677099999979
 20
8339.8296820000032
 30
0.0
 11
23376.771879999978
 21
8339.8296820000032
 31
0.0
  0
LINE
  5
4512
  8
0-1
  6
CONTINUOUS
 62
     3
 10
23063.677363999981
 20
8348.2287790000028
 30
0.0
 11
23373.105811000001
 21
8348.2287790000028
 31
0.0
  0
LINE
  5
4513
  8
0-1
  6
CONTINUOUS
 62
     3
 10
22645.709933999991
 20
8307.6931870000008
 30
0.0
 11
22613.71299599998
 21
8339.6930949999969
 31
0.0
  0
LINE
  5
4514
  8
0-1
  6
CONTINUOUS
 62
     3
 10
22926.67686299999
 20
8306.2283440000028
 30
0.0
 11
22649.245353999991
 21
8306.2283440000028
 31
0.0
  0
LINE
  5
4515
  8
0-1
  6
CONTINUOUS
 62
     3
 10
22926.67686299999
 20
8348.2287790000028
 30
0.0
 11
22617.246435999969
 21
8348.2287790000028
 31
0.0
  0
LINE
  5
4516
  8
0-1
  6
CONTINUOUS
 62
     3
 10
22931.675146999991
 20
8314.6284309999974
 30
0.0
 11
22638.777659999982
 21
8314.6284309999974
 31
0.0
  0
LINE
  5
4517
  8
0-1
  6
CONTINUOUS
 62
     3
 10
22931.675146999991
 20
8323.0285179999992
 30
0.0
 11
22630.376582999968
 21
8323.0285179999992
 31
0.0
  0
LINE
  5
4518
  8
0-1
  6
CONTINUOUS
 62
     3
 10
22931.675146999991
 20
8331.4295950000032
 30
0.0
 11
22621.977485999982
 21
8331.4295950000032
 31
0.0
  0
LINE
  5
4519
  8
0-1
  6
CONTINUOUS
 62
     3
 10
22931.675146999991
 20
8339.8296820000032
 30
0.0
 11
22613.582347999982
 21
8339.8296820000032
 31
0.0
  0
LINE
  5
451A
  8
0-1
  6
CONTINUOUS
 62
     3
 10
21904.28322899999
 20
8120.7286469999981
 30
0.0
 11
23710.67113599999
 21
8120.7286469999981
 31
0.0
  0
LINE
  5
451B
  8
0-1
  6
CONTINUOUS
 62
     3
 10
21904.28322899999
 20
8297.2284620000028
 30
0.0
 11
22952.677839999971
 21
8297.2284620000028
 31
0.0
  0
LINE
  5
451C
  8
0-1
  6
CONTINUOUS
 62
     3
 10
21904.28322899999
 20
8357.2286600000025
 30
0.0
 11
22952.677839999971
 21
8357.2286600000025
 31
0.0
  0
LINE
  5
451D
  8
0-1
  6
CONTINUOUS
 62
     3
 10
25998.678498999961
 20
8431.2280139999984
 30
0.0
 11
21904.28322899999
 21
8431.2280139999984
 31
0.0
  0
LINE
  5
451E
  8
0-1
  6
CONTINUOUS
 62
     3
 10
23037.674407999992
 20
8357.2286600000025
 30
0.0
 11
25870.67783899996
 21
8357.2286600000025
 31
0.0
  0
LINE
  5
451F
  8
0-1
  6
CONTINUOUS
 62
     3
 10
23037.674407999992
 20
8297.2284620000028
 30
0.0
 11
25870.67783899996
 21
8297.2284620000028
 31
0.0
  0
LINE
  5
4520
  8
0-1
  6
CONTINUOUS
 62
     3
 10
23037.674407999992
 20
8120.7286469999981
 30
0.0
 11
25870.67783899996
 21
8120.7286469999981
 31
0.0
  0
LINE
  5
4521
  8
0-1
  6
CONTINUOUS
 62
     3
 10
21904.28322899999
 20
8561.2289369999999
 30
0.0
 11
25998.678498999961
 21
8561.2289369999999
 31
0.0
  0
LINE
  5
4522
  8
0-1
  6
CONTINUOUS
 62
     3
 10
20558.671821999989
 20
8314.6284309999974
 30
0.0
 11
20851.573267999989
 21
8314.6284309999974
 31
0.0
  0
LINE
  5
4523
  8
0-1
  6
CONTINUOUS
 62
     3
 10
20558.671821999989
 20
8323.0285179999992
 30
0.0
 11
20859.97038599999
 21
8323.0285179999992
 31
0.0
  0
LINE
  5
4524
  8
0-1
  6
CONTINUOUS
 62
     3
 10
20563.67208599997
 20
8306.2283440000028
 30
0.0
 11
20841.101614999981
 21
8306.2283440000028
 31
0.0
  0
LINE
  5
4525
  8
0-1
  6
CONTINUOUS
 62
     3
 10
20558.671821999989
 20
8331.4295950000032
 30
0.0
 11
20868.373441999989
 21
8331.4295950000032
 31
0.0
  0
LINE
  5
4526
  8
0-1
  6
CONTINUOUS
 62
     3
 10
20563.67208599997
 20
8348.2287790000028
 30
0.0
 11
20873.100532999972
 21
8348.2287790000028
 31
0.0
  0
LINE
  5
4527
  8
0-1
  6
CONTINUOUS
 62
     3
 10
20558.671821999989
 20
8311.2286080000031
 30
0.0
 11
20558.671821999989
 21
8343.2285150000007
 31
0.0
  0
LINE
  5
4528
  8
0-1
  6
CONTINUOUS
 62
     3
 10
20431.66986899999
 20
8311.2286080000031
 30
0.0
 11
20431.66986899999
 21
8343.2285150000007
 31
0.0
  0
LINE
  5
4529
  8
0-1
  6
CONTINUOUS
 62
     3
 10
20558.671821999989
 20
8339.8296820000032
 30
0.0
 11
20876.766600999981
 21
8339.8296820000032
 31
0.0
  0
LINE
  5
452A
  8
0-1
  6
CONTINUOUS
 62
     3
 10
20844.637034999982
 20
8307.6931870000008
 30
0.0
 11
20876.633972999989
 21
8339.6930949999969
 31
0.0
  0
LINE
  5
452B
  8
0-1
  6
CONTINUOUS
 62
     3
 10
20145.708613999981
 20
8307.6931870000008
 30
0.0
 11
20113.70771699999
 21
8339.6930949999969
 31
0.0
  0
LINE
  5
452C
  8
0-1
  6
CONTINUOUS
 62
     3
 10
20431.66986899999
 20
8339.8296820000032
 30
0.0
 11
20113.577068999992
 21
8339.8296820000032
 31
0.0
  0
LINE
  5
452D
  8
0-1
  6
CONTINUOUS
 62
     3
 10
20431.66986899999
 20
8331.4295950000032
 30
0.0
 11
20121.972206999992
 21
8331.4295950000032
 31
0.0
  0
LINE
  5
452E
  8
0-1
  6
CONTINUOUS
 62
     3
 10
20431.66986899999
 20
8323.0285179999992
 30
0.0
 11
20130.371303999978
 21
8323.0285179999992
 31
0.0
  0
LINE
  5
452F
  8
0-1
  6
CONTINUOUS
 62
     3
 10
20431.66986899999
 20
8314.6284309999974
 30
0.0
 11
20138.770401999991
 21
8314.6284309999974
 31
0.0
  0
LINE
  5
4530
  8
0-1
  6
CONTINUOUS
 62
     3
 10
20426.671583999989
 20
8348.2287790000028
 30
0.0
 11
20117.241157999979
 21
8348.2287790000028
 31
0.0
  0
LINE
  5
4531
  8
0-1
  6
CONTINUOUS
 62
     3
 10
20426.671583999989
 20
8306.2283440000028
 30
0.0
 11
20149.244034999982
 21
8306.2283440000028
 31
0.0
  0
LINE
  5
4532
  8
0-1
  6
CONTINUOUS
 62
     3
 10
17645.67010599999
 20
8306.2283440000028
 30
0.0
 11
17923.099635999992
 21
8306.2283440000028
 31
0.0
  0
LINE
  5
4533
  8
0-1
  6
CONTINUOUS
 62
     3
 10
17640.671821999978
 20
8311.2286080000031
 30
0.0
 11
17640.671821999978
 21
8343.2285150000007
 31
0.0
  0
LINE
  5
4534
  8
0-1
  6
CONTINUOUS
 62
     3
 10
17491.67044999998
 20
8235.0418860000027
 30
0.0
 11
17534.668602000002
 21
8235.0418860000027
 31
0.0
  0
LINE
  5
4535
  8
0-1
  6
CONTINUOUS
 62
     3
 10
17491.67044999998
 20
8235.0418860000027
 30
0.0
 11
17491.67044999998
 21
8561.2289369999999
 31
0.0
  0
LINE
  5
4536
  8
0-1
  6
CONTINUOUS
 62
     3
 10
17645.67010599999
 20
8348.2287790000028
 30
0.0
 11
17955.10053299999
 21
8348.2287790000028
 31
0.0
  0
LINE
  5
4537
  8
0-1
  6
CONTINUOUS
 62
     3
 10
17926.633075999991
 20
8307.6931870000008
 30
0.0
 11
17958.633973999989
 21
8339.6930949999969
 31
0.0
  0
LINE
  5
4538
  8
0-1
  6
CONTINUOUS
 62
     3
 10
17640.671821999978
 20
8339.8296820000032
 30
0.0
 11
17958.766600999999
 21
8339.8296820000032
 31
0.0
  0
LINE
  5
4539
  8
0-1
  6
CONTINUOUS
 62
     3
 10
17640.671821999978
 20
8331.4295950000032
 30
0.0
 11
17950.369483999992
 21
8331.4295950000032
 31
0.0
  0
LINE
  5
453A
  8
0-1
  6
CONTINUOUS
 62
     3
 10
17640.671821999978
 20
8323.0285179999992
 30
0.0
 11
17941.970386000001
 21
8323.0285179999992
 31
0.0
  0
LINE
  5
453B
  8
0-1
  6
CONTINUOUS
 62
     3
 10
17640.671821999978
 20
8314.6284309999974
 30
0.0
 11
17933.571289
 21
8314.6284309999974
 31
0.0
  0
LINE
  5
453C
  8
0-1
  6
CONTINUOUS
 62
     3
 10
17619.669129999998
 20
8120.7286469999981
 30
0.0
 11
20452.670580999991
 21
8120.7286469999981
 31
0.0
  0
LINE
  5
453D
  8
0-1
  6
CONTINUOUS
 62
     3
 10
17619.669129999998
 20
8297.2284620000028
 30
0.0
 11
20452.670580999991
 21
8297.2284620000028
 31
0.0
  0
LINE
  5
453E
  8
0-1
  6
CONTINUOUS
 62
     3
 10
17619.669129999998
 20
8357.2286600000025
 30
0.0
 11
20452.670580999991
 21
8357.2286600000025
 31
0.0
  0
LINE
  5
453F
  8
0-1
  6
CONTINUOUS
 62
     3
 10
17491.67044999998
 20
8561.2289369999999
 30
0.0
 11
21604.283229000001
 21
8561.2289369999999
 31
0.0
  0
LINE
  5
4540
  8
0-1
  6
CONTINUOUS
 62
     3
 10
20537.673088999982
 20
8357.2286600000025
 30
0.0
 11
21604.283229000001
 21
8357.2286600000025
 31
0.0
  0
LINE
  5
4541
  8
0-1
  6
CONTINUOUS
 62
     3
 10
20537.673088999982
 20
8297.2284620000028
 30
0.0
 11
21604.283229000001
 21
8297.2284620000028
 31
0.0
  0
LINE
  5
4542
  8
0-1
  6
CONTINUOUS
 62
     3
 10
20537.673088999982
 20
8120.7286469999981
 30
0.0
 11
21604.283229000001
 21
8120.7286469999981
 31
0.0
  0
LINE
  5
4543
  8
0-1
  6
CONTINUOUS
 62
     3
 10
21604.283229000001
 20
8431.2280139999984
 30
0.0
 11
17491.67044999998
 21
8431.2280139999984
 31
0.0
  0
LINE
  5
4544
  8
0-1
  6
CONTINUOUS
 62
     3
 10
20495.17084499999
 20
8431.2280139999984
 30
0.0
 11
20495.17084499999
 21
8561.2289369999999
 31
0.0
  0
LINE
  5
4545
  8
0-1
  6
CONTINUOUS
 62
     3
 10
22995.176123999961
 20
8431.2280139999984
 30
0.0
 11
22995.176123999961
 21
8561.2289369999999
 31
0.0
  0
ARC
  5
4546
  8
0-1
  6
CONTINUOUS
 62
     3
 10
25844.678841999961
 20
8343.2285150000007
 30
0.0
 40
5.0
 50
0.0
 51
90.0
  0
ARC
  5
4547
  8
0-1
  6
CONTINUOUS
 62
     3
 10
25844.678841999961
 20
8311.2286080000031
 30
0.0
 40
5.0
 50
269.9999850001808
 51
0.0
  0
ARC
  5
4548
  8
0-1
  6
CONTINUOUS
 62
     3
 10
25535.248415999959
 20
8343.2285150000007
 30
0.0
 40
5.0
 50
90.0
 51
224.99998499997989
  0
ARC
  5
4549
  8
0-1
  6
CONTINUOUS
 62
     3
 10
25567.24931299996
 20
8311.2286080000031
 30
0.0
 40
5.0
 50
224.99998499997989
 51
269.9999850001808
  0
ARC
  5
454A
  8
0-1
  6
CONTINUOUS
 62
     3
 10
23373.105811000001
 20
8343.2285150000007
 30
0.0
 40
5.0
 50
314.99998500027471
 51
90.0
  0
ARC
  5
454B
  8
0-1
  6
CONTINUOUS
 62
     3
 10
23341.104913999981
 20
8311.2286080000031
 30
0.0
 40
5.0
 50
269.9999850001808
 51
314.99998500027471
  0
ARC
  5
454C
  8
0-1
  6
CONTINUOUS
 62
     3
 10
23063.677363999981
 20
8311.2286080000031
 30
0.0
 40
5.0
 50
180.0
 51
269.9999850001808
  0
ARC
  5
454D
  8
0-1
  6
CONTINUOUS
 62
     3
 10
23063.677363999981
 20
8343.2285150000007
 30
0.0
 40
5.0
 50
90.0
 51
180.0
  0
ARC
  5
454E
  8
0-1
  6
CONTINUOUS
 62
     3
 10
22926.67686299999
 20
8343.2285150000007
 30
0.0
 40
5.0
 50
0.0
 51
90.0
  0
ARC
  5
454F
  8
0-1
  6
CONTINUOUS
 62
     3
 10
22926.67686299999
 20
8311.2286080000031
 30
0.0
 40
5.0
 50
269.9999850001808
 51
0.0
  0
ARC
  5
4550
  8
0-1
  6
CONTINUOUS
 62
     3
 10
22649.245353999991
 20
8311.2286080000031
 30
0.0
 40
5.0
 50
224.99998499997989
 51
269.9999850001808
  0
ARC
  5
4551
  8
0-1
  6
CONTINUOUS
 62
     3
 10
22617.246435999969
 20
8343.2285150000007
 30
0.0
 40
5.0
 50
90.0
 51
224.99998499997989
  0
ARC
  5
4552
  8
0-1
  6
CONTINUOUS
 62
     3
 10
20563.67208599997
 20
8311.2286080000031
 30
0.0
 40
5.0
 50
180.0
 51
269.9999850001808
  0
ARC
  5
4553
  8
0-1
  6
CONTINUOUS
 62
     3
 10
20563.67208599997
 20
8343.2285150000007
 30
0.0
 40
5.0
 50
90.0
 51
180.0
  0
ARC
  5
4554
  8
0-1
  6
CONTINUOUS
 62
     3
 10
20841.101614999981
 20
8311.2286080000031
 30
0.0
 40
5.0
 50
269.9999850001808
 51
314.99998500027471
  0
ARC
  5
4555
  8
0-1
  6
CONTINUOUS
 62
     3
 10
20426.671583999989
 20
8311.2286080000031
 30
0.0
 40
5.0
 50
269.9999850001808
 51
0.0
  0
ARC
  5
4556
  8
0-1
  6
CONTINUOUS
 62
     3
 10
20426.671583999989
 20
8343.2285150000007
 30
0.0
 40
5.0
 50
0.0
 51
90.0
  0
ARC
  5
4557
  8
0-1
  6
CONTINUOUS
 62
     3
 10
20873.100532999972
 20
8343.2285150000007
 30
0.0
 40
5.0
 50
314.99998500027471
 51
90.0
  0
ARC
  5
4558
  8
0-1
  6
CONTINUOUS
 62
     3
 10
20117.241157999979
 20
8343.2285150000007
 30
0.0
 40
5.0
 50
90.0
 51
224.99998499997989
  0
ARC
  5
4559
  8
0-1
  6
CONTINUOUS
 62
     3
 10
20149.244034999982
 20
8311.2286080000031
 30
0.0
 40
5.0
 50
224.99998499997989
 51
269.9999850001808
  0
ARC
  5
455A
  8
0-1
  6
CONTINUOUS
 62
     3
 10
17955.10053299999
 20
8343.2285150000007
 30
0.0
 40
5.0
 50
314.99998500027471
 51
90.0
  0
ARC
  5
455B
  8
0-1
  6
CONTINUOUS
 62
     3
 10
17645.67010599999
 20
8343.2285150000007
 30
0.0
 40
5.0
 50
90.0
 51
180.0
  0
ARC
  5
455C
  8
0-1
  6
CONTINUOUS
 62
     3
 10
17645.67010599999
 20
8311.2286080000031
 30
0.0
 40
5.0
 50
180.0
 51
269.9999850001808
  0
ARC
  5
455D
  8
0-1
  6
CONTINUOUS
 62
     3
 10
17923.099635999992
 20
8311.2286080000031
 30
0.0
 40
5.0
 50
269.9999850001808
 51
314.99998500027471
  0
LINE
  5
455E
  8
SUNPOU
  6
CONTINUOUS
 62
     4
 10
17491.668469999979
 20
8641.2289370000017
 30
0.0
 11
17491.668469999979
 21
9840.686549
 31
0.0
  0
LINE
  5
455F
  8
SUNPOU
  6
CONTINUOUS
 62
     4
 10
25998.678498999961
 20
8641.2289370000017
 30
0.0
 11
25998.678498999961
 21
9840.686549
 31
0.0
  0
LINE
  5
4560
  8
SUNPOU
  6
CONTINUOUS
 62
     4
 10
17494.668469999979
 20
9760.686549
 30
0.0
 11
25995.678498999961
 21
9760.686549
 31
0.0
  0
LINE
  5
4561
  8
SUNPOU
  6
CONTINUOUS
 62
     4
 10
17534.670580999991
 20
8641.2289370000017
 30
0.0
 11
17534.670580999991
 21
9440.7287790000028
 31
0.0
  0
LINE
  5
4562
  8
SUNPOU
  6
CONTINUOUS
 62
     4
 10
25955.67638799996
 20
8641.2289370000017
 30
0.0
 11
25955.67638799996
 21
9440.7287790000028
 31
0.0
  0
LINE
  5
4563
  8
SUNPOU
  6
CONTINUOUS
 62
     4
 10
17534.670580999991
 20
9360.7287789999955
 30
0.0
 11
25955.67638799996
 21
9360.7287789999955
 31
0.0
  0
LINE
  5
4564
  8
SUNPOU
  6
CONTINUOUS
 62
     4
 10
17534.670580999991
 20
8641.2289370000017
 30
0.0
 11
17534.670580999991
 21
9440.7287790000028
 31
0.0
  0
LINE
  5
4565
  8
SUNPOU
  6
CONTINUOUS
 62
     4
 10
17491.668469999979
 20
8641.2289370000017
 30
0.0
 11
17491.668469999979
 21
9440.7287790000028
 31
0.0
  0
LINE
  5
4566
  8
SUNPOU
  6
CONTINUOUS
 62
     4
 10
17534.670580999991
 20
9360.7287789999955
 30
0.0
 11
17774.670580999991
 21
9360.7287789999955
 31
0.0
  0
LINE
  5
4567
  8
SUNPOU
  6
CONTINUOUS
 62
     4
 10
17494.668469999979
 20
9360.7287789999955
 30
0.0
 11
17254.668469999979
 21
9360.7287789999955
 31
0.0
  0
LINE
  5
4568
  8
SUNPOU
  6
CONTINUOUS
 62
     4
 10
17534.670580999991
 20
9360.7287789999955
 30
0.0
 11
17494.668469999979
 21
9360.7287789999955
 31
0.0
  0
LINE
  5
4569
  8
SUNPOU
  6
CONTINUOUS
 62
     4
 10
25955.67638799996
 20
8641.2289370000017
 30
0.0
 11
25955.67638799996
 21
9440.7287790000028
 31
0.0
  0
LINE
  5
456A
  8
SUNPOU
  6
CONTINUOUS
 62
     4
 10
25998.678498999961
 20
8641.2289370000017
 30
0.0
 11
25998.678498999961
 21
9440.7287790000028
 31
0.0
  0
LINE
  5
456B
  8
SUNPOU
  6
CONTINUOUS
 62
     4
 10
25955.67638799996
 20
9360.7287789999955
 30
0.0
 11
25715.67638799996
 21
9360.7287789999955
 31
0.0
  0
LINE
  5
456C
  8
SUNPOU
  6
CONTINUOUS
 62
     4
 10
25995.678498999961
 20
9360.7287789999955
 30
0.0
 11
26235.678498999961
 21
9360.7287789999955
 31
0.0
  0
LINE
  5
456D
  8
SUNPOU
  6
CONTINUOUS
 62
     4
 10
25955.67638799996
 20
9360.7287789999955
 30
0.0
 11
25995.678498999961
 21
9360.7287789999955
 31
0.0
  0
TEXT
  5
456E
  8
0
  6
CONTINUOUS
 62
     7
 10
26115.678498999961
 20
9440.7287790000028
 30
0.0
 40
160.0
  1
43
  0
TEXT
  5
456F
  8
0
  6
CONTINUOUS
 62
     7
 10
17134.668469999979
 20
9440.7287790000028
 30
0.0
 40
160.0
  1
43
  0
TEXT
  5
4570
  8
0
  6
CONTINUOUS
 62
     7
 10
20838.506817833309
 20
9440.7287790000028
 30
0.0
 40
160.0
  1
2918 \U+00D7 ｎ ＋ 85
  0
TEXT
  5
4571
  8
0
  6
CONTINUOUS
 62
     7
 10
20785.173484499981
 20
9840.686549
 30
0.0
 40
160.0
  1
2918 \U+00D7 ｎ ＋ 171
  0
ARC
  5
4572
  8
0
  6
BYBLOCK
 62
     0
 10
17491.668469999979
 20
9760.686549
 30
0.0
 40
15.0
 50
0.0
 51
180.0
  0
ARC
  5
4573
  8
0
  6
BYBLOCK
 62
     0
 10
17491.668469999979
 20
9760.686549
 30
0.0
 40
15.0
 50
180.0
 51
0.0
  0
ARC
  5
4574
  8
0
  6
BYBLOCK
 62
     0
 10
25998.678498999961
 20
9760.686549
 30
0.0
 40
15.0
 50
180.0
 51
0.0
  0
ARC
  5
4575
  8
0
  6
BYBLOCK
 62
     0
 10
25998.678498999961
 20
9760.686549
 30
0.0
 40
15.0
 50
0.0
 51
180.0
  0
ARC
  5
4576
  8
0
  6
BYBLOCK
 62
     0
 10
17534.670580999991
 20
9360.7287789999955
 30
0.0
 40
15.0
 50
0.0
 51
180.0
  0
ARC
  5
4577
  8
0
  6
BYBLOCK
 62
     0
 10
17534.670580999991
 20
9360.7287789999955
 30
0.0
 40
15.0
 50
180.0
 51
0.0
  0
ARC
  5
4578
  8
0
  6
BYBLOCK
 62
     0
 10
25955.67638799996
 20
9360.7287789999955
 30
0.0
 40
15.0
 50
180.0
 51
0.0
  0
ARC
  5
4579
  8
0
  6
BYBLOCK
 62
     0
 10
25955.67638799996
 20
9360.7287789999955
 30
0.0
 40
15.0
 50
0.0
 51
180.0
  0
ARC
  5
457A
  8
0
  6
BYBLOCK
 62
     0
 10
17534.670580999991
 20
9360.7287789999955
 30
0.0
 40
15.0
 50
0.0
 51
180.0
  0
ARC
  5
457B
  8
0
  6
BYBLOCK
 62
     0
 10
17534.670580999991
 20
9360.7287789999955
 30
0.0
 40
15.0
 50
180.0
 51
0.0
  0
ARC
  5
457C
  8
0
  6
BYBLOCK
 62
     0
 10
17491.668469999979
 20
9360.7287789999955
 30
0.0
 40
15.0
 50
180.0
 51
0.0
  0
ARC
  5
457D
  8
0
  6
BYBLOCK
 62
     0
 10
17491.668469999979
 20
9360.7287789999955
 30
0.0
 40
15.0
 50
0.0
 51
180.0
  0
ARC
  5
457E
  8
0
  6
BYBLOCK
 62
     0
 10
25955.67638799996
 20
9360.7287789999955
 30
0.0
 40
15.0
 50
180.0
 51
0.0
  0
ARC
  5
457F
  8
0
  6
BYBLOCK
 62
     0
 10
25955.67638799996
 20
9360.7287789999955
 30
0.0
 40
15.0
 50
0.0
 51
180.0
  0
ARC
  5
4580
  8
0
  6
BYBLOCK
 62
     0
 10
25998.678498999961
 20
9360.7287789999955
 30
0.0
 40
15.0
 50
0.0
 51
180.0
  0
ARC
  5
4581
  8
0
  6
BYBLOCK
 62
     0
 10
25998.678498999961
 20
9360.7287789999955
 30
0.0
 40
15.0
 50
180.0
 51
0.0
  0
TEXT
  5
45D8
  8
NAME
 10
24033.05354655402
 20
1076.0
 30
0.0
 40
360.0
  1
H
 41
0.6700000000000002
  7
00
  0
TEXT
  5
45D9
  8
NAME
 10
23657.2215619737
 20
1076.0
 30
0.0
 40
360.0
  1
（ ）
  7
01
  0
TEXT
  5
45DA
  8
NAME
 10
24557.214549256751
 20
1076.0
 30
0.0
 40
360.0
  1
型（ 連棟）
  7
01
  0
TEXT
  5
45DB
  8
NAME
 10
21816.089515848402
 20
1076.6369801169251
 30
0.0
 40
360.0
  1
VGC-3052
 41
0.6700000000000002
  0
TEXT
  5
45DC
  8
NAME
 10
25322.399158861332
 20
1076.0
 30
0.0
 40
360.0
  1
n
 41
0.6700000000000002
  7
00
  0
TEXT
  5
45DE
  8
NAME
 10
21933.552716389018
 20
1876.0
 30
0.0
 40
360.0
  1
ヨドガレージ ラヴィージュ
 41
0.75
  7
01
  0
LINE
  5
45DF
  8
NAME
  6
CONTINUOUS
 10
26067.886878884321
 20
2236.0
 30
0.0
 11
26067.886878884321
 21
1876.0
 31
0.0
  0
LINE
  5
45E0
  8
NAME
  6
CONTINUOUS
 10
26167.886878884321
 20
2236.0
 30
0.0
 11
26167.886878884321
 21
1876.0
 31
0.0
  0
LINE
  5
45E1
  8
NAME
  6
CONTINUOUS
 10
26267.886878884321
 20
2236.0
 30
0.0
 11
26267.886878884321
 21
1876.0
 31
0.0
  0
LINE
  5
45E2
  8
NAME
  6
CONTINUOUS
 10
26007.886878884321
 20
2236.0
 30
0.0
 11
26327.886878884321
 21
2236.0
 31
0.0
  0
LINE
  5
45E3
  8
NAME
  6
CONTINUOUS
 10
26327.886878884321
 20
1876.0
 30
0.0
 11
26007.886878884321
 21
1876.0
 31
0.0
  0
LINE
  5
463F
  8
2-0
  6
CONTINUOUS
 62
     3
 10
22952.674869999981
 20
17019.819150499981
 30
0.0
 11
23037.675397999981
 21
17019.819150499981
 31
0.0
  0
LINE
  5
4640
  8
2-0
  6
CONTINUOUS
 62
     3
 10
23037.675397999981
 20
17104.813739499969
 30
0.0
 11
22952.674869999981
 21
17104.813739499969
 31
0.0
  0
LINE
  5
4641
  8
2-0
  6
CONTINUOUS
 62
     3
 10
22952.674869999981
 20
17104.813739499969
 30
0.0
 11
22952.674869999981
 21
17019.819150499981
 31
0.0
  0
LINE
  5
4642
  8
2-0
  6
CONTINUOUS
 62
     3
 10
23037.675397999981
 20
17019.819150499981
 30
0.0
 11
23037.675397999981
 21
17104.813739499969
 31
0.0
  0
LINE
  5
4643
  8
2-0
  6
CONTINUOUS
 62
     6
 10
24741.404372429719
 20
15896.235196249971
 30
0.0
 11
23711.05505342974
 21
15896.235196249971
 31
0.0
  0
LINE
  5
4644
  8
2-0
  6
CONTINUOUS
 62
     6
 10
23034.10830500002
 20
17010.678511999991
 30
0.0
 11
23711.05505342974
 21
15896.235196249971
 31
0.0
  0
LINE
  5
4645
  8
2-0
  6
CONTINUOUS
 62
     6
 10
23094.386624999999
 20
16860.082676999999
 30
0.0
 11
23034.10830500002
 21
17010.678511999991
 31
0.0
  0
LINE
  5
4646
  8
2-0
  6
CONTINUOUS
 62
     6
 10
23034.10830500002
 20
17010.678511999991
 30
0.0
 11
23139.967020000018
 21
16887.770203999971
 31
0.0
  0
LINE
  5
4647
  8
2-0
  6
CONTINUOUS
 62
     6
 10
23094.386624999999
 20
16860.082676999999
 30
0.0
 11
23139.967020000018
 21
16887.770203999971
 31
0.0
  0
LINE
  5
4648
  8
2-0
  6
CONTINUOUS
 62
     6
 10
23139.967020000018
 20
16887.770203999971
 30
0.0
 11
23034.10830500002
 21
17010.678511999991
 31
0.0
  0
LINE
  5
4649
  8
2-0
  6
CONTINUOUS
 62
     6
 10
23034.10830500002
 20
17010.678511999991
 30
0.0
 11
23094.386624999999
 21
16860.082676999999
 31
0.0
  0
LINE
  5
464A
  8
2-0
  6
CONTINUOUS
 62
     6
 10
23094.386624999999
 20
16860.082676999999
 30
0.0
 11
23034.10830500002
 21
17010.678511999991
 31
0.0
  0
LINE
  5
464B
  8
2-0
  6
CONTINUOUS
 62
     6
 10
23139.967020000018
 20
16887.770203999971
 30
0.0
 11
23034.10830500002
 21
17010.678511999991
 31
0.0
  0
LINE
  5
464C
  8
2-0
  6
CONTINUOUS
 62
     6
 10
23139.967020000018
 20
16887.770203999971
 30
0.0
 11
23094.386624999999
 21
16860.082676999999
 31
0.0
  0
TEXT
  5
464D
  8
2-0
  6
CONTINUOUS
 62
     7
 10
23774.37028076308
 20
15969.235883249959
 30
0.0
 40
160.0
  1
中柱（中）
 72
     4
 11
24195.703614096408
 21
16049.235883249959
 31
0.0
  0
TEXT
  5
46A3
  8
FILENAME
  6
CONTINUOUS
 10
28737.333333333328
 20
348.0
 30
0.0
 40
200.0
  1
＜VGC-3052-N-A_0.DXF ＞
  7
FILENAME
 72
     2
 11
32764.0
 21
348.0
 31
0.0
  0
LINE
  5
46A9
  8
WAKUSEN-01
 10
868.00000000000193
 20
827.99999999999955
 30
0.0
 11
32764.000000000011
 21
827.99999999999943
 31
0.0
  0
LINE
  5
46AA
  8
WAKUSEN-01
 10
868.00000000000193
 20
827.99999999999955
 30
0.0
 11
868.00000000000193
 21
22484.000000000011
 31
0.0
  0
LINE
  5
46AB
  8
WAKUSEN-01
 10
32764.000000000011
 20
827.99999999999943
 30
0.0
 11
32764.000000000011
 21
22484.000000000011
 31
0.0
  0
LINE
  5
46AC
  8
WAKUSEN-01
 10
20560.0
 20
827.99999999999716
 30
0.0
 11
20560.0
 21
2484.0
 31
0.0
  0
LINE
  5
46AD
  8
WAKUSEN-02
 10
26868.0
 20
827.99999999999261
 30
0.0
 11
26868.0
 21
2484.0
 31
0.0
  0
ENDSEC
  0
EOF
