  0
SECTION
  2
HEADER
  9
$ACADVER
  1
AC1009
  9
$INSBASE
 10
0.0
 20
0.0
 30
0.0
  9
$EXTMIN
 10
867.99324330406671
 20
327.38164749855792
 30
-0.000000000000013
  9
$EXTMAX
 10
32765.33210850941
 20
22484.553276491992
 30
0.0000000000000023
  9
$LIMMIN
 10
0.0
 20
0.0
  9
$LIMMAX
 10
33600.0
 20
23760.0
  9
$ORTHOMODE
 70
     1
  9
$REGENMODE
 70
     1
  9
$FILLMODE
 70
     1
  9
$QTEXTMODE
 70
     0
  9
$MIRRTEXT
 70
     1
  9
$DRAGMODE
 70
     2
  9
$LTSCALE
 40
80.0
  9
$OSMODE
 70
  3071
  9
$ATTMODE
 70
     1
  9
$TEXTSIZE
 40
0.2
  9
$TRACEWID
 40
0.05
  9
$TEXTSTYLE
  7
00
  9
$CLAYER
  8
0
  9
$CELTYPE
  6
CONTINUOUS
  9
$CECOLOR
 62
   256
  9
$DIMSCALE
 40
80.0
  9
$DIMASZ
 40
3.0
  9
$DIMEXO
 40
1.0
  9
$DIMDLI
 40
0.38
  9
$DIMRND
 40
0.5
  9
$DIMDLE
 40
0.0
  9
$DIMEXE
 40
1.0
  9
$DIMTP
 40
0.0
  9
$DIMTM
 40
0.0
  9
$DIMTXT
 40
2.0
  9
$DIMCEN
 40
0.09
  9
$DIMTSZ
 40
0.0
  9
$DIMTOL
 70
     0
  9
$DIMLIM
 70
     0
  9
$DIMTIH
 70
     0
  9
$DIMTOH
 70
     0
  9
$DIMSE1
 70
     0
  9
$DIMSE2
 70
     0
  9
$DIMTAD
 70
     1
  9
$DIMZIN
 70
     8
  9
$DIMBLK
  1
DOTSMALL
  9
$DIMASO
 70
     1
  9
$DIMSHO
 70
     1
  9
$DIMPOST
  1

  9
$DIMAPOST
  1

  9
$DIMALT
 70
     0
  9
$DIMALTD
 70
     2
  9
$DIMALTF
 40
25.399999999999999
  9
$DIMLFAC
 40
1.0
  9
$DIMTOFL
 70
     1
  9
$DIMTVP
 40
0.0
  9
$DIMTIX
 70
     0
  9
$DIMSOXD
 70
     0
  9
$DIMSAH
 70
     0
  9
$DIMBLK1
  1

  9
$DIMBLK2
  1

  9
$DIMSTYLE
  2
SUNPOU
  9
$DIMCLRD
 70
     4
  9
$DIMCLRE
 70
     4
  9
$DIMCLRT
 70
     7
  9
$DIMTFAC
 40
1.0
  9
$DIMGAP
 40
1.0
  9
$LUNITS
 70
     2
  9
$LUPREC
 70
     4
  9
$SKETCHINC
 40
0.1
  9
$FILLETRAD
 40
0.0
  9
$AUNITS
 70
     0
  9
$AUPREC
 70
     0
  9
$MENU
  1
acad
  9
$ELEVATION
 40
0.0
  9
$PELEVATION
 40
0.0
  9
$THICKNESS
 40
0.0
  9
$LIMCHECK
 70
     0
  9
$BLIPMODE
 70
     1
  9
$CHAMFERA
 40
0.0
  9
$CHAMFERB
 40
0.0
  9
$SKPOLY
 70
     0
  9
$TDCREATE
 40
2454568.247479016
  9
$TDUPDATE
 40
2458942.4211883098
  9
$TDINDWG
 40
0.1614173727
  9
$TDUSRTIMER
 40
0.1614164352
  9
$USRTIMER
 70
     1
  9
$ANGBASE
 50
0.0
  9
$ANGDIR
 70
     0
  9
$PDMODE
 70
     0
  9
$PDSIZE
 40
0.0
  9
$PLINEWID
 40
0.0
  9
$COORDS
 70
     1
  9
$SPLFRAME
 70
     0
  9
$SPLINETYPE
 70
     6
  9
$SPLINESEGS
 70
     8
  9
$ATTDIA
 70
     1
  9
$ATTREQ
 70
     1
  9
$HANDLING
 70
     1
  9
$HANDSEED
  5
380C
  9
$SURFTAB1
 70
     6
  9
$SURFTAB2
 70
     6
  9
$SURFTYPE
 70
     6
  9
$SURFU
 70
     6
  9
$SURFV
 70
     6
  9
$UCSNAME
  2

  9
$UCSORG
 10
0.0
 20
0.0
 30
0.0
  9
$UCSXDIR
 10
1.0
 20
0.0
 30
0.0
  9
$UCSYDIR
 10
0.0
 20
1.0
 30
0.0
  9
$PUCSNAME
  2

  9
$PUCSORG
 10
0.0
 20
0.0
 30
0.0
  9
$PUCSXDIR
 10
1.0
 20
0.0
 30
0.0
  9
$PUCSYDIR
 10
0.0
 20
1.0
 30
0.0
  9
$USERI1
 70
     0
  9
$USERI2
 70
     0
  9
$USERI3
 70
     0
  9
$USERI4
 70
     0
  9
$USERI5
 70
     0
  9
$USERR1
 40
0.0
  9
$USERR2
 40
0.0
  9
$USERR3
 40
0.0
  9
$USERR4
 40
0.0
  9
$USERR5
 40
0.0
  9
$WORLDVIEW
 70
     1
  9
$SHADEDGE
 70
     3
  9
$SHADEDIF
 70
    70
  9
$TILEMODE
 70
     1
  9
$MAXACTVP
 70
    16
  9
$PLIMCHECK
 70
     0
  9
$PEXTMIN
 10
1.0000000000000000E+020
 20
1.0000000000000000E+020
 30
1.0000000000000000E+020
  9
$PEXTMAX
 10
-1.0000000000000000E+020
 20
-1.0000000000000000E+020
 30
-1.0000000000000000E+020
  9
$PLIMMIN
 10
0.0
 20
0.0
  9
$PLIMMAX
 10
12.0
 20
9.0
  9
$UNITMODE
 70
     0
  9
$VISRETAIN
 70
     0
  9
$PLINEGEN
 70
     1
  9
$PSLTSCALE
 70
     0
  0
ENDSEC
  0
SECTION
  2
TABLES
  0
TABLE
  2
VPORT
 70
     1
  0
VPORT
  2
*ACTIVE
 70
     0
 10
0.0
 20
0.0
 11
1.0
 21
1.0
 12
16800.0
 22
11880.0
 13
0.0
 23
0.0
 14
1.0
 24
1.0
 15
0.0
 25
0.0
 16
0.0
 26
0.0
 36
1.0
 17
0.0
 27
0.0
 37
0.0
 40
23981.023255813951
 41
2.195652173913043
 42
50.0
 43
0.0
 44
0.0
 50
0.0
 51
0.0
 71
     0
 72
 10000
 73
     1
 74
     1
 75
     0
 76
     0
 77
     0
 78
     0
  0
ENDTAB
  0
TABLE
  2
LTYPE
 70
     3
  0
LTYPE
  2
CONTINUOUS
 70
     0
  3
Solid line
 72
    65
 73
     0
 40
0.0
  0
LTYPE
  2
DASHED3
 70
     0
  3
------  ------  ------  ------  
 72
    65
 73
     2
 40
5.0
 49
3.75
 49
-1.25
  0
LTYPE
  2
CENTER2
 70
     0
  3
----------  --  ----------  --  
 72
    65
 73
     4
 40
20.0
 49
12.5
 49
-2.5
 49
2.5
 49
-2.5
  0
ENDTAB
  0
TABLE
  2
LAYER
 70
    18
  0
LAYER
  2
0
 70
     0
 62
     7
  6
CONTINUOUS
  0
LAYER
  2
SUNPOU
 70
     0
 62
     4
  6
CONTINUOUS
  0
LAYER
  2
0-1
 70
     0
 62
     7
  6
CONTINUOUS
  0
LAYER
  2
2-0
 70
     0
 62
     7
  6
CONTINUOUS
  0
LAYER
  2
0-2
 70
     0
 62
     7
  6
CONTINUOUS
  0
LAYER
  2
0-5
 70
     0
 62
     7
  6
CONTINUOUS
  0
LAYER
  2
0-6
 70
     0
 62
     7
  6
CONTINUOUS
  0
LAYER
  2
0-8
 70
     0
 62
     7
  6
CONTINUOUS
  0
LAYER
  2
0-0
 70
     0
 62
     7
  6
CONTINUOUS
  0
LAYER
  2
YODOROGO
 70
     0
 62
   130
  6
CONTINUOUS
  0
LAYER
  2
WAKUSEN-01
 70
     0
 62
    50
  6
CONTINUOUS
  0
LAYER
  2
WAKUSEN-02
 70
     0
 62
   130
  6
CONTINUOUS
  0
LAYER
  2
WAKUMOJI-01
 70
     0
 62
   130
  6
CONTINUOUS
  0
LAYER
  2
FILENAME
 70
     0
 62
     7
  6
CONTINUOUS
  0
LAYER
  2
NAME
 70
     0
 62
    20
  6
CONTINUOUS
  0
LAYER
  2
0-4
 70
     0
 62
     7
  6
CONTINUOUS
  0
ENDTAB
  0
TABLE
  2
STYLE
 70
     5
  0
STYLE
  2
STANDARD
 70
     0
 40
0.0
 41
1.0
 50
0.0
 71
     0
 42
0.0
  3
txt
  4
BIGFONT
  0
STYLE
  2
00
 70
     0
 40
0.0
 41
0.6666666666666666
 50
0.0
 71
     0
 42
0.2
  3
ROMANS
  4
BIGFONT
  0
STYLE
  2
01
 70
     0
 40
3.0
 41
1.0
 50
0.0
 71
     0
 42
0.2
  3
ROMANS
  4
BIGFONT
  0
STYLE
  2
WAKUMOJI
 70
     0
 40
3.0
 41
1.0
 50
0.0
 71
     0
 42
3.0
  3
SIMPLEX
  4
BIGFONT
  0
STYLE
  2
FILENAME
 70
     0
 40
200.0
 41
1.0
 50
0.0
 71
     0
 42
200.0
  3
romans
  4
bigfont
  0
ENDTAB
  0
TABLE
  2
VIEW
 70
     0
  0
ENDTAB
  0
TABLE
  2
UCS
 70
     0
  0
ENDTAB
  0
TABLE
  2
APPID
 70
    13
  0
APPID
  2
ACAD
 70
     0
  0
APPID
  2
ACADANNOTATIVE
 70
     0
  0
APPID
  2
ACAD_PSEXT
 70
     0
  0
APPID
  2
DCO15
 70
     0
  0
APPID
  2
ACAD_MLEADERVER
 70
     0
  0
APPID
  2
AUTOCAD_POSTSCRIPT_FIGURE
 70
     0
  0
APPID
  2
ACAD_EXEMPT_FROM_CAD_STANDARDS
 70
     0
  0
APPID
  2
ACAD_DSTYLE_DIMJAG
 70
     0
  0
APPID
  2
ACAD_DSTYLE_DIMTALN
 70
     0
  0
APPID
  2
ACAD_DSTYLE_DIM_LINETYPE
 70
     0
  0
APPID
  2
ACAD_DSTYLE_DIM_EXT1_LINETYPE
 70
     0
  0
APPID
  2
ACAD_DSTYLE_DIM_EXT2_LINETYPE
 70
     0
  0
APPID
  2
ACAD_NAV_VCDISPLAY
 70
     0
  0
ENDTAB
  0
TABLE
  2
DIMSTYLE
 70
     2
  0
DIMSTYLE
  2
SUNPOU
 70
     0
  3

  4

  5

  6

  7

 40
80.0
 41
3.0
 42
1.0
 43
0.38
 44
1.0
 45
0.5
 46
0.0
 47
0.0
 48
0.0
140
2.0
141
0.09
142
0.0
143
25.399999999999999
144
1.0
145
0.0
146
1.0
147
1.0
 71
     0
 72
     0
 73
     0
 74
     0
 75
     0
 76
     0
 77
     1
 78
     8
170
     0
171
     2
172
     1
173
     0
174
     0
175
     0
176
     4
177
     4
178
     7
  0
ENDTAB
  0
ENDSEC
  0
SECTION
  2
BLOCKS
  0
BLOCK
  8
0
  2
$MODEL_SPACE
 70
     0
 10
0.0
 20
0.0
 30
0.0
  3
$MODEL_SPACE
  1

  0
ENDBLK
  5
2E10
  8
0
  0
BLOCK
 67
     1
  8
0
  2
$PAPER_SPACE
 70
     0
 10
0.0
 20
0.0
 30
0.0
  3
$PAPER_SPACE
  1

  0
ENDBLK
  5
2E0C
 67
     1
  8
0
  0
BLOCK
  8
0
  2
_DOTSMALL
 70
     0
 10
0.0
 20
0.0
 30
0.0
  3
_DOTSMALL
  1

  0
POLYLINE
  5
2E40
  8
0
  6
BYBLOCK
 62
     0
 66
     1
 10
0.0
 20
0.0
 30
0.0
 70
     1
 40
0.5
 41
0.5
  0
VERTEX
  5
37D4
  8
0
  6
BYBLOCK
 62
     0
 10
-0.0625
 20
0.0
 30
0.0
 42
1.0
  0
VERTEX
  5
37D5
  8
0
  6
BYBLOCK
 62
     0
 10
0.0625
 20
0.0
 30
0.0
 42
1.0
  0
SEQEND
  5
37D6
  8
0
  6
BYBLOCK
 62
     0
  0
ENDBLK
  5
2E44
  8
0
  0
ENDSEC
  0
SECTION
  2
ENTITIES
  0
LINE
  5
2E45
  8
0-1
  6
CONTINUOUS
 62
     3
 10
11327.46992499999
 20
17220.935173999991
 30
0.0
 11
13572.64385799997
 21
17220.935173999991
 31
0.0
  0
LINE
  5
2E46
  8
0-1
  6
CONTINUOUS
 62
     3
 10
13844.969304999981
 20
14108.434606000001
 30
0.0
 11
13844.969304999981
 21
19918.934935999991
 31
0.0
  0
LINE
  5
2E47
  8
0-1
  6
CONTINUOUS
 62
     3
 10
11377.47054499998
 20
14108.434606000001
 30
0.0
 11
11377.47054499998
 21
19918.934935999991
 31
0.0
  0
LINE
  5
2E48
  8
0-1
  6
CONTINUOUS
 62
     3
 10
11241.969528999991
 20
14076.43469899999
 30
0.0
 11
11241.969528999991
 21
19966.936281999991
 31
0.0
  0
LINE
  5
2E49
  8
0-1
  6
CONTINUOUS
 62
     3
 10
13980.470320999981
 20
14076.43469899999
 30
0.0
 11
13980.470320999981
 21
19966.936281999991
 31
0.0
  0
LINE
  5
2E4A
  8
0-1
  6
CONTINUOUS
 62
     3
 10
11315.469053999979
 20
19966.936281999991
 30
0.0
 11
13906.970795999991
 21
19966.936281999991
 31
0.0
  0
LINE
  5
2E4B
  8
0-1
  6
CONTINUOUS
 62
     3
 10
11327.46992499999
 20
17141.934567
 30
0.0
 11
13661.26598199999
 21
17141.934567
 31
0.0
  0
LINE
  5
2E4C
  8
0-1
  6
CONTINUOUS
 62
     3
 10
11284.97064999999
 20
14232.434619999991
 30
0.0
 11
13937.470188999991
 21
14232.434619999991
 31
0.0
  0
LINE
  5
2E4D
  8
0-1
  6
CONTINUOUS
 62
     3
 10
11327.46992499999
 20
14311.43522699998
 30
0.0
 11
13894.96992499999
 21
14311.43522699998
 31
0.0
  0
LINE
  5
2E4E
  8
0-1
  6
CONTINUOUS
 62
     3
 10
11241.969528999991
 20
14076.43469899999
 30
0.0
 11
13980.470320999981
 21
14076.43469899999
 31
0.0
  0
LINE
  5
2E4F
  8
0-1
  6
CONTINUOUS
 62
     3
 10
11241.969528999991
 20
14108.434606000001
 30
0.0
 11
13980.470320999981
 21
14108.434606000001
 31
0.0
  0
LINE
  5
2E50
  8
0-1
  6
CONTINUOUS
 62
     3
 10
13894.96992499999
 20
14232.434619999991
 30
0.0
 11
13894.96992499999
 21
16908.590895999991
 31
0.0
  0
LINE
  5
2E51
  8
0-1
  6
CONTINUOUS
 62
     3
 10
13937.470188999991
 20
14232.434619999991
 30
0.0
 11
13937.470188999991
 21
16866.155956999999
 31
0.0
  0
LINE
  5
2E52
  8
0-1
  6
CONTINUOUS
 62
     3
 10
11327.46992499999
 20
14232.434619999991
 30
0.0
 11
11327.46992499999
 21
19484.640436999991
 31
0.0
  0
LINE
  5
2E53
  8
0-1
  6
CONTINUOUS
 62
     3
 10
11284.97064999999
 20
14232.434619999991
 30
0.0
 11
11284.97064999999
 21
19527.075377000001
 31
0.0
  0
LINE
  5
2E54
  8
0-1
  6
CONTINUOUS
 62
     3
 10
11397.46966099997
 20
17186.934963
 30
0.0
 11
13824.970188999991
 21
14268.934962999991
 31
0.0
  0
LINE
  5
2E55
  8
0-1
  6
CONTINUOUS
 62
     3
 10
11397.46966099997
 20
17186.934963
 30
0.0
 11
12476.22909599999
 21
18337.653923999991
 31
0.0
  0
LINE
  5
2E56
  8
0-1
  6
CONTINUOUS
 62
     3
 10
13686.47119199999
 20
17116.768948000001
 30
0.0
 11
13686.47119199999
 21
19918.934935999991
 31
0.0
  0
LINE
  5
2E57
  8
0-1
  6
CONTINUOUS
 62
     3
 10
13723.47037399999
 20
17079.82717199999
 30
0.0
 11
13723.47037399999
 21
19918.934935999991
 31
0.0
  0
LINE
  5
2E58
  8
0-1
  6
CONTINUOUS
 62
     3
 10
13546.471652999981
 20
17247.068779000001
 30
0.0
 11
13546.471652999981
 21
19918.934935999991
 31
0.0
  0
LINE
  5
2E59
  8
0-1
  6
CONTINUOUS
 62
     3
 10
13509.469501999971
 20
17284.010554
 30
0.0
 11
13509.469501999971
 21
19918.934935999991
 31
0.0
  0
LINE
  5
2E5A
  8
0-1
  6
CONTINUOUS
 62
     3
 10
13174.47062399998
 20
17598.03253999996
 30
0.0
 11
13174.47062399998
 21
19918.934935999991
 31
0.0
  0
LINE
  5
2E5B
  8
0-1
  6
CONTINUOUS
 62
     3
 10
13211.471784999991
 20
17591.050778000001
 30
0.0
 11
13211.471784999991
 21
19918.934935999991
 31
0.0
  0
LINE
  5
2E5C
  8
0-1
  6
CONTINUOUS
 62
     3
 10
13378.970729999981
 20
17414.310385000001
 30
0.0
 11
13378.970729999981
 21
19918.934935999991
 31
0.0
  0
LINE
  5
2E5D
  8
0-1
  6
CONTINUOUS
 62
     3
 10
13341.97055799997
 20
17451.252161
 30
0.0
 11
13341.97055799997
 21
19918.934935999991
 31
0.0
  0
LINE
  5
2E5E
  8
0-1
  6
CONTINUOUS
 62
     3
 10
13006.97167999999
 20
17441.673270999989
 30
0.0
 11
13006.97167999999
 21
19918.934935999991
 31
0.0
  0
LINE
  5
2E5F
  8
0-1
  6
CONTINUOUS
 62
     3
 10
13043.97086199998
 20
17469.623148999999
 30
0.0
 11
13043.97086199998
 21
19918.934935999991
 31
0.0
  0
LINE
  5
2E60
  8
0-1
  6
CONTINUOUS
 62
     3
 10
12876.468947999971
 20
17853.46565799999
 30
0.0
 11
12876.468947999971
 21
19918.934935999991
 31
0.0
  0
LINE
  5
2E61
  8
0-1
  6
CONTINUOUS
 62
     3
 10
12839.47075599997
 20
17967.527499
 30
0.0
 11
12839.47075599997
 21
19918.934935999991
 31
0.0
  0
LINE
  5
2E62
  8
0-1
  6
CONTINUOUS
 62
     3
 10
12671.971811999991
 20
18483.880960999992
 30
0.0
 11
12671.971811999991
 21
19918.934935999991
 31
0.0
  0
LINE
  5
2E63
  8
0-1
  6
CONTINUOUS
 62
     3
 10
12708.97000399997
 20
18369.819121
 30
0.0
 11
12708.97000399997
 21
19918.934935999991
 31
0.0
  0
LINE
  5
2E64
  8
0-1
  6
CONTINUOUS
 62
     3
 10
12503.97006999999
 20
18341.20517999999
 30
0.0
 11
12503.97006999999
 21
19918.934935999991
 31
0.0
  0
LINE
  5
2E65
  8
0-1
  6
CONTINUOUS
 62
     3
 10
12540.97123099997
 20
18377.614464999999
 30
0.0
 11
12540.97123099997
 21
19918.934935999991
 31
0.0
  0
LINE
  5
2E66
  8
0-1
  6
CONTINUOUS
 62
     3
 10
12373.469317999979
 20
18440.254351
 30
0.0
 11
12373.469317999979
 21
19918.934935999991
 31
0.0
  0
LINE
  5
2E67
  8
0-1
  6
CONTINUOUS
 62
     3
 10
12336.47112499998
 20
18477.196126999988
 30
0.0
 11
12336.47112499998
 21
19918.934935999991
 31
0.0
  0
LINE
  5
2E68
  8
0-1
  6
CONTINUOUS
 62
     3
 10
12168.97020199998
 20
18644.437733999999
 30
0.0
 11
12168.97020199998
 21
19918.934935999991
 31
0.0
  0
LINE
  5
2E69
  8
0-1
  6
CONTINUOUS
 62
     3
 10
12205.97037299998
 20
18607.495957999989
 30
0.0
 11
12205.97037299998
 21
19918.934935999991
 31
0.0
  0
LINE
  5
2E6A
  8
0-1
  6
CONTINUOUS
 62
     3
 10
12336.47112499998
 20
18477.196126999988
 30
0.0
 11
12336.47112499998
 21
19918.934935999991
 31
0.0
  0
LINE
  5
2E6B
  8
0-1
  6
CONTINUOUS
 62
     3
 10
12373.469317999979
 20
18440.254351
 30
0.0
 11
12373.469317999979
 21
19918.934935999991
 31
0.0
  0
LINE
  5
2E6C
  8
0-1
  6
CONTINUOUS
 62
     3
 10
11870.971494999971
 20
18941.979171999981
 30
0.0
 11
11870.971494999971
 21
19918.934935999991
 31
0.0
  0
LINE
  5
2E6D
  8
0-1
  6
CONTINUOUS
 62
     3
 10
11833.970333999971
 20
18978.920947999992
 30
0.0
 11
11833.970333999971
 21
19918.934935999991
 31
0.0
  0
LINE
  5
2E6E
  8
0-1
  6
CONTINUOUS
 62
     3
 10
12001.47125699999
 20
18811.679340999981
 30
0.0
 11
12001.47125699999
 21
19918.934935999991
 31
0.0
  0
LINE
  5
2E6F
  8
0-1
  6
CONTINUOUS
 62
     3
 10
12038.47043899997
 20
18774.737564999989
 30
0.0
 11
12038.47043899997
 21
19918.934935999991
 31
0.0
  0
LINE
  5
2E70
  8
0-1
  6
CONTINUOUS
 62
     3
 10
11703.46958099997
 20
19109.220778999999
 30
0.0
 11
11703.46958099997
 21
19918.934935999991
 31
0.0
  0
LINE
  5
2E71
  8
0-1
  6
CONTINUOUS
 62
     3
 10
11666.47138899996
 20
19146.162554999981
 30
0.0
 11
11666.47138899996
 21
19918.934935999991
 31
0.0
  0
LINE
  5
2E72
  8
0-1
  6
CONTINUOUS
 62
     3
 10
11498.96947599998
 20
19313.404160999991
 30
0.0
 11
11498.96947599998
 21
19918.934935999991
 31
0.0
  0
LINE
  5
2E73
  8
0-1
  6
CONTINUOUS
 62
     3
 10
11535.97063699996
 20
19276.462385999988
 30
0.0
 11
11535.97063699996
 21
19918.934935999991
 31
0.0
  0
LINE
  5
2E74
  8
0-1
  6
CONTINUOUS
 62
     3
 10
12488.20716299999
 20
18325.695651999999
 30
0.0
 11
10997.42875099999
 21
19814.170894999981
 31
0.0
  0
LINE
  5
2E75
  8
0-1
  6
CONTINUOUS
 62
     3
 10
13011.386005999981
 20
17428.060121999981
 30
0.0
 11
12666.40540499999
 21
18501.039429
 31
0.0
  0
LINE
  5
2E76
  8
0-1
  6
CONTINUOUS
 62
     3
 10
12488.20716299999
 20
18325.695651999999
 30
0.0
 11
12666.40540499999
 21
18501.039429
 31
0.0
  0
LINE
  5
2E77
  8
0-1
  6
CONTINUOUS
 62
     3
 10
13011.386005999981
 20
17428.060121999981
 30
0.0
 11
13189.58424799999
 21
17612.904663000001
 31
0.0
  0
LINE
  5
2E78
  8
0-1
  6
CONTINUOUS
 62
     3
 10
14249.73528599999
 20
16554.373862
 30
0.0
 11
13189.58424799999
 21
17612.904663000001
 31
0.0
  0
LINE
  5
2E79
  8
0-1
  6
CONTINUOUS
 62
     3
 10
12622.81343699999
 20
18458.147219999999
 30
0.0
 11
12710.362594999981
 21
18365.527525000001
 31
0.0
  0
LINE
  5
2E7A
  8
0-1
  6
CONTINUOUS
 62
     3
 10
11397.46966099997
 20
14268.934962999991
 30
0.0
 11
13730.26803999999
 21
17073.039402999992
 31
0.0
  0
LINE
  5
2E7B
  8
2-0
  6
CONTINUOUS
 62
     3
 10
11259.970280999991
 20
19549.040115
 30
0.0
 11
11259.970280999991
 21
19959.435886999981
 31
0.0
  0
LINE
  5
2E7C
  8
0-1
  6
CONTINUOUS
 62
     3
 10
13962.47055799999
 20
16844.191217999989
 30
0.0
 11
13962.47055799999
 21
19959.435886999981
 31
0.0
  0
LINE
  5
2E7D
  8
0-1
  6
CONTINUOUS
 62
     3
 10
11259.970280999991
 20
19918.934935999991
 30
0.0
 11
13962.47055799999
 21
19918.934935999991
 31
0.0
  0
LINE
  5
2E7E
  8
0-1
  6
CONTINUOUS
 62
     3
 10
11315.469053999979
 20
19941.934962999989
 30
0.0
 11
11315.469053999979
 21
19971.936546000001
 31
0.0
  0
LINE
  5
2E7F
  8
0-1
  6
CONTINUOUS
 62
     3
 10
11241.969528999991
 20
19971.936546000001
 30
0.0
 11
11241.969528999991
 21
19936.936677999991
 31
0.0
  0
LINE
  5
2E80
  8
0-1
  6
CONTINUOUS
 62
     3
 10
11310.47175899998
 20
19976.934830999991
 30
0.0
 11
11246.96979299998
 21
19976.934830999991
 31
0.0
  0
LINE
  5
2E81
  8
0-1
  6
CONTINUOUS
 62
     3
 10
11259.970280999991
 20
19959.435886999981
 30
0.0
 11
11241.969528999991
 21
19959.435886999981
 31
0.0
  0
LINE
  5
2E82
  8
0-1
  6
CONTINUOUS
 62
     3
 10
11259.970280999991
 20
19936.936677999991
 30
0.0
 11
11310.47175899998
 21
19936.936677999991
 31
0.0
  0
LINE
  5
2E83
  8
0-1
  6
CONTINUOUS
 62
     3
 10
13962.47055799999
 20
19959.435886999981
 30
0.0
 11
13980.470320999981
 21
19959.435886999981
 31
0.0
  0
LINE
  5
2E84
  8
0-1
  6
CONTINUOUS
 62
     3
 10
13906.970795999991
 20
19941.934962999989
 30
0.0
 11
13906.970795999991
 21
19971.936546000001
 31
0.0
  0
LINE
  5
2E85
  8
0-1
  6
CONTINUOUS
 62
     3
 10
13962.47055799999
 20
19936.936677999991
 30
0.0
 11
13911.971059999991
 21
19936.936677999991
 31
0.0
  0
LINE
  5
2E86
  8
0-1
  6
CONTINUOUS
 62
     3
 10
13980.470320999981
 20
19971.936546000001
 30
0.0
 11
13980.470320999981
 21
19936.936677999991
 31
0.0
  0
LINE
  5
2E87
  8
0-1
  6
CONTINUOUS
 62
     3
 10
13911.971059999991
 20
19976.934830999991
 30
0.0
 11
13975.47005699999
 21
19976.934830999991
 31
0.0
  0
LINE
  5
2E88
  8
0-6
  6
CONTINUOUS
 62
     6
 10
12884.75224399997
 20
17374.76554299998
 30
0.0
 11
12823.60293499999
 21
17546.032565999991
 31
0.0
  0
LINE
  5
2E89
  8
0-6
  6
CONTINUOUS
 62
     6
 10
12998.86060199997
 20
19694.659439999989
 30
0.0
 11
13142.76467499998
 21
20206.935095000001
 31
0.0
  0
LINE
  5
2E8A
  8
0-6
  6
CONTINUOUS
 62
     6
 10
12443.86198799999
 20
19800.435015999989
 30
0.0
 11
12149.93218199998
 21
20206.935095000001
 31
0.0
  0
LINE
  5
2E8B
  8
0-6
  6
CONTINUOUS
 62
     6
 10
13142.76467499998
 20
20206.935095000001
 30
0.0
 11
13704.07208099998
 21
20206.935095000001
 31
0.0
  0
LINE
  5
2E8C
  8
0-6
  6
CONTINUOUS
 62
     6
 10
12484.82020699999
 20
20096.840209999991
 30
0.0
 11
12275.626662999981
 21
20459.171290999991
 31
0.0
  0
LINE
  5
2E8D
  8
0-6
  6
CONTINUOUS
 62
     6
 10
12201.620380999981
 20
20657.354752999989
 30
0.0
 11
12005.56292199997
 21
20996.935227000002
 31
0.0
  0
LINE
  5
2E8E
  8
0-6
  6
CONTINUOUS
 62
     6
 10
12005.56292199997
 20
20996.935227000002
 30
0.0
 11
12847.99951199998
 21
20996.935227000002
 31
0.0
  0
LINE
  5
2E8F
  8
0-6
  6
CONTINUOUS
 62
     6
 10
11349.93251199999
 20
20206.935095000001
 30
0.0
 11
12149.93218199998
 21
20206.935095000001
 31
0.0
  0
LINE
  5
2E90
  8
0-6
  6
CONTINUOUS
 62
     6
 10
12023.03217399998
 20
17546.032565999991
 30
0.0
 11
12823.60293499999
 21
17546.032565999991
 31
0.0
  0
LINE
  5
2E91
  8
0-6
  6
CONTINUOUS
 62
     6
 10
12263.639687999979
 20
16381.885541
 30
0.0
 11
12415.412346999959
 21
16631.741365999991
 31
0.0
  0
LINE
  5
2E92
  8
0-6
  6
CONTINUOUS
 62
     6
 10
12415.412346999959
 20
16631.741365999991
 30
0.0
 11
13295.41030099998
 21
16631.741365999991
 31
0.0
  0
LINE
  5
2E93
  8
0-6
  6
CONTINUOUS
 62
     6
 10
11491.99860099999
 20
18634.134340000001
 30
0.0
 11
12011.99833699999
 21
18634.134340000001
 31
0.0
  0
LINE
  5
2E94
  8
0-6
  6
CONTINUOUS
 62
     6
 10
12190.778557999971
 20
14463.32467699999
 30
0.0
 11
12273.66495999998
 21
14650.263061999991
 31
0.0
  0
LINE
  5
2E95
  8
0-6
  6
CONTINUOUS
 62
     6
 10
12273.66495999998
 20
14650.263061999991
 30
0.0
 11
13073.66462999999
 21
14650.263061999991
 31
0.0
  0
LINE
  5
2E96
  8
0-6
  6
CONTINUOUS
 62
     6
 10
13011.980851999981
 20
13276.435028999989
 30
0.0
 11
13884.06079799999
 21
13276.435028999989
 31
0.0
  0
LINE
  5
2E97
  8
0-6
  6
CONTINUOUS
 62
     6
 10
12605.868757999981
 20
13939.966688
 30
0.0
 11
13011.980851999981
 21
13276.435028999989
 31
0.0
  0
LINE
  5
2E98
  8
0-6
  6
CONTINUOUS
 62
     6
 10
9483.3365579999881
 20
12786.434896999979
 30
0.0
 11
10563.336161999991
 21
12786.434896999979
 31
0.0
  0
LINE
  5
2E99
  8
0-6
  6
CONTINUOUS
 62
     6
 10
11150.07734599998
 20
14666.706923
 30
0.0
 11
10563.336161999991
 21
12786.434896999979
 31
0.0
  0
LINE
  5
2E9A
  8
0-6
  6
CONTINUOUS
 62
     6
 10
11392.95536899997
 20
18854.925882999989
 30
0.0
 11
11491.99860099999
 21
18634.134340000001
 31
0.0
  0
LINE
  5
2E9B
  8
0-6
  6
CONTINUOUS
 62
     6
 10
14088.37779799999
 20
20092.259603999992
 30
0.0
 11
15015.12604299998
 21
20996.935227000002
 31
0.0
  0
LINE
  5
2E9C
  8
0-6
  6
CONTINUOUS
 62
     6
 10
15015.12604299998
 20
20996.935227000002
 30
0.0
 11
16690.124392999991
 21
20996.935227000002
 31
0.0
  0
LINE
  5
2E9D
  8
0-6
  6
CONTINUOUS
 62
     6
 10
11175.52009899999
 20
14658.72451399999
 30
0.0
 11
11197.969818999991
 21
14819.371354999979
 31
0.0
  0
LINE
  5
2E9E
  8
0-6
  6
CONTINUOUS
 62
     6
 10
11197.969818999991
 20
14819.371354999979
 30
0.0
 11
11124.633603999981
 21
14674.68933099999
 31
0.0
  0
LINE
  5
2E9F
  8
0-6
  6
CONTINUOUS
 62
     6
 10
11197.969818999991
 20
14819.371354999979
 30
0.0
 11
11175.52009899999
 21
14658.72451399999
 31
0.0
  0
LINE
  5
2EA0
  8
0-6
  6
CONTINUOUS
 62
     6
 10
11175.52009899999
 20
14658.72451399999
 30
0.0
 11
11124.633603999981
 21
14674.68933099999
 31
0.0
  0
LINE
  5
2EA1
  8
0-6
  6
CONTINUOUS
 62
     6
 10
11124.633603999981
 20
14674.68933099999
 30
0.0
 11
11197.969818999991
 21
14819.371354999979
 31
0.0
  0
LINE
  5
2EA2
  8
0-6
  6
CONTINUOUS
 62
     6
 10
11124.633603999981
 20
14674.68933099999
 30
0.0
 11
11175.52009899999
 21
14658.72451399999
 31
0.0
  0
LINE
  5
2EA3
  8
0-6
  6
CONTINUOUS
 62
     6
 10
12166.63041099996
 20
14474.638616
 30
0.0
 11
12122.90482499998
 21
14318.43381499998
 31
0.0
  0
LINE
  5
2EA4
  8
0-6
  6
CONTINUOUS
 62
     6
 10
12122.90482499998
 20
14318.43381499998
 30
0.0
 11
12214.926704999991
 21
14452.01370799998
 31
0.0
  0
LINE
  5
2EA5
  8
0-6
  6
CONTINUOUS
 62
     6
 10
12122.90482499998
 20
14318.43381499998
 30
0.0
 11
12166.63041099996
 21
14474.638616
 31
0.0
  0
LINE
  5
2EA6
  8
0-6
  6
CONTINUOUS
 62
     6
 10
12166.63041099996
 20
14474.638616
 30
0.0
 11
12214.926704999991
 21
14452.01370799998
 31
0.0
  0
LINE
  5
2EA7
  8
0-6
  6
CONTINUOUS
 62
     6
 10
12214.926704999991
 20
14452.01370799998
 30
0.0
 11
12122.90482499998
 21
14318.43381499998
 31
0.0
  0
LINE
  5
2EA8
  8
0-6
  6
CONTINUOUS
 62
     6
 10
12214.926704999991
 20
14452.01370799998
 30
0.0
 11
12166.63041099996
 21
14474.638616
 31
0.0
  0
LINE
  5
2EA9
  8
0-6
  6
CONTINUOUS
 62
     6
 10
12628.61441599998
 20
13953.887651999979
 30
0.0
 11
12522.34396099998
 21
14076.43469899999
 31
0.0
  0
LINE
  5
2EAA
  8
0-6
  6
CONTINUOUS
 62
     6
 10
12522.34396099998
 20
14076.43469899999
 30
0.0
 11
12583.12210999998
 21
13926.045722999999
 31
0.0
  0
LINE
  5
2EAB
  8
0-6
  6
CONTINUOUS
 62
     6
 10
12522.34396099998
 20
14076.43469899999
 30
0.0
 11
12628.61441599998
 21
13953.887651999979
 31
0.0
  0
LINE
  5
2EAC
  8
0-6
  6
CONTINUOUS
 62
     6
 10
12628.61441599998
 20
13953.887651999979
 30
0.0
 11
12583.12210999998
 21
13926.045722999999
 31
0.0
  0
LINE
  5
2EAD
  8
0-6
  6
CONTINUOUS
 62
     6
 10
12583.12210999998
 20
13926.045722999999
 30
0.0
 11
12522.34396099998
 21
14076.43469899999
 31
0.0
  0
LINE
  5
2EAE
  8
0-6
  6
CONTINUOUS
 62
     6
 10
12583.12210999998
 20
13926.045722999999
 30
0.0
 11
12628.61441599998
 21
13953.887651999979
 31
0.0
  0
LINE
  5
2EAF
  8
0-6
  6
CONTINUOUS
 62
     6
 10
12240.849490999981
 20
16395.730294000001
 30
0.0
 11
12180.57512899997
 21
16245.13643899998
 31
0.0
  0
LINE
  5
2EB0
  8
0-6
  6
CONTINUOUS
 62
     6
 10
12180.57512899997
 20
16245.13643899998
 30
0.0
 11
12286.43285499999
 21
16368.040788
 31
0.0
  0
LINE
  5
2EB1
  8
0-6
  6
CONTINUOUS
 62
     6
 10
12180.57512899997
 20
16245.13643899998
 30
0.0
 11
12240.849490999981
 21
16395.730294000001
 31
0.0
  0
LINE
  5
2EB2
  8
0-6
  6
CONTINUOUS
 62
     6
 10
12240.849490999981
 20
16395.730294000001
 30
0.0
 11
12286.43285499999
 21
16368.040788
 31
0.0
  0
LINE
  5
2EB3
  8
0-6
  6
CONTINUOUS
 62
     6
 10
12286.43285499999
 20
16368.040788
 30
0.0
 11
12180.57512899997
 21
16245.13643899998
 31
0.0
  0
LINE
  5
2EB4
  8
0-6
  6
CONTINUOUS
 62
     6
 10
12286.43285499999
 20
16368.040788
 30
0.0
 11
12240.849490999981
 21
16395.730294000001
 31
0.0
  0
LINE
  5
2EB5
  8
0-6
  6
CONTINUOUS
 62
     6
 10
11417.28662099999
 20
18865.838969
 30
0.0
 11
11327.46992499999
 21
19000.909439999999
 31
0.0
  0
LINE
  5
2EB6
  8
0-6
  6
CONTINUOUS
 62
     6
 10
11327.46992499999
 20
19000.909439999999
 30
0.0
 11
11368.62411599999
 21
18844.010817999992
 31
0.0
  0
LINE
  5
2EB7
  8
0-6
  6
CONTINUOUS
 62
     6
 10
11327.46992499999
 20
19000.909439999999
 30
0.0
 11
11417.28662099999
 21
18865.838969
 31
0.0
  0
LINE
  5
2EB8
  8
0-6
  6
CONTINUOUS
 62
     6
 10
11417.28662099999
 20
18865.838969
 30
0.0
 11
11368.62411599999
 21
18844.010817999992
 31
0.0
  0
LINE
  5
2EB9
  8
0-6
  6
CONTINUOUS
 62
     6
 10
11368.62411599999
 20
18844.010817999992
 30
0.0
 11
11327.46992499999
 21
19000.909439999999
 31
0.0
  0
LINE
  5
2EBA
  8
0-6
  6
CONTINUOUS
 62
     6
 10
11368.62411599999
 20
18844.010817999992
 30
0.0
 11
11417.28662099999
 21
18865.838969
 31
0.0
  0
LINE
  5
2EBB
  8
0-6
  6
CONTINUOUS
 62
     6
 10
12910.39096799998
 20
17382.099659
 30
0.0
 11
12928.75496199999
 21
17220.935173999991
 31
0.0
  0
LINE
  5
2EBC
  8
0-6
  6
CONTINUOUS
 62
     6
 10
12928.75496199999
 20
17220.935173999991
 30
0.0
 11
12859.11252899998
 21
17367.431425999988
 31
0.0
  0
LINE
  5
2EBD
  8
0-6
  6
CONTINUOUS
 62
     6
 10
12928.75496199999
 20
17220.935173999991
 30
0.0
 11
12910.39096799998
 21
17382.099659
 31
0.0
  0
LINE
  5
2EBE
  8
0-6
  6
CONTINUOUS
 62
     6
 10
12910.39096799998
 20
17382.099659
 30
0.0
 11
12859.11252899998
 21
17367.431425999988
 31
0.0
  0
LINE
  5
2EBF
  8
0-6
  6
CONTINUOUS
 62
     6
 10
12859.11252899998
 20
17367.431425999988
 30
0.0
 11
12928.75496199999
 21
17220.935173999991
 31
0.0
  0
LINE
  5
2EC0
  8
0-6
  6
CONTINUOUS
 62
     6
 10
12859.11252899998
 20
17367.431425999988
 30
0.0
 11
12910.39096799998
 21
17382.099659
 31
0.0
  0
LINE
  5
2EC1
  8
0-6
  6
CONTINUOUS
 62
     6
 10
12463.167242999971
 20
20084.33954999999
 30
0.0
 11
12559.820206999981
 21
19966.936281999991
 31
0.0
  0
LINE
  5
2EC2
  8
0-6
  6
CONTINUOUS
 62
     6
 10
12559.820206999981
 20
19966.936281999991
 30
0.0
 11
12506.47020199998
 21
20109.338889999992
 31
0.0
  0
LINE
  5
2EC3
  8
0-6
  6
CONTINUOUS
 62
     6
 10
12559.820206999981
 20
19966.936281999991
 30
0.0
 11
12463.167242999971
 21
20084.33954999999
 31
0.0
  0
LINE
  5
2EC4
  8
0-6
  6
CONTINUOUS
 62
     6
 10
12463.167242999971
 20
20084.33954999999
 30
0.0
 11
12506.47020199998
 21
20109.338889999992
 31
0.0
  0
LINE
  5
2EC5
  8
0-6
  6
CONTINUOUS
 62
     6
 10
12506.47020199998
 20
20109.338889999992
 30
0.0
 11
12559.820206999981
 21
19966.936281999991
 31
0.0
  0
LINE
  5
2EC6
  8
0-6
  6
CONTINUOUS
 62
     6
 10
12506.47020199998
 20
20109.338889999992
 30
0.0
 11
12463.167242999971
 21
20084.33954999999
 31
0.0
  0
LINE
  5
2EC7
  8
0-6
  6
CONTINUOUS
 62
     6
 10
12337.16593599997
 20
19922.612882000001
 30
0.0
 11
12443.86198799999
 21
19800.435015999989
 31
0.0
  0
LINE
  5
2EC8
  8
0-6
  6
CONTINUOUS
 62
     6
 10
12443.86198799999
 20
19800.435015999989
 30
0.0
 11
12382.55827699998
 21
19950.611193000001
 31
0.0
  0
LINE
  5
2EC9
  8
0-6
  6
CONTINUOUS
 62
     6
 10
12443.86198799999
 20
19800.435015999989
 30
0.0
 11
12337.16593599997
 21
19922.612882000001
 31
0.0
  0
LINE
  5
2ECA
  8
0-6
  6
CONTINUOUS
 62
     6
 10
12337.16593599997
 20
19922.612882000001
 30
0.0
 11
12382.55827699998
 21
19950.611193000001
 31
0.0
  0
LINE
  5
2ECB
  8
0-6
  6
CONTINUOUS
 62
     6
 10
12382.55827699998
 20
19950.611193000001
 30
0.0
 11
12443.86198799999
 21
19800.435015999989
 31
0.0
  0
LINE
  5
2ECC
  8
0-6
  6
CONTINUOUS
 62
     6
 10
12382.55827699998
 20
19950.611193000001
 30
0.0
 11
12337.16593599997
 21
19922.612882000001
 31
0.0
  0
LINE
  5
2ECD
  8
0-6
  6
CONTINUOUS
 62
     6
 10
12972.975427999971
 20
19701.057243999989
 30
0.0
 11
12960.47377799998
 21
19539.332556000001
 31
0.0
  0
LINE
  5
2ECE
  8
0-6
  6
CONTINUOUS
 62
     6
 10
12960.47377799998
 20
19539.332556000001
 30
0.0
 11
13024.748745999979
 21
19688.261635999981
 31
0.0
  0
LINE
  5
2ECF
  8
0-6
  6
CONTINUOUS
 62
     6
 10
12960.47377799998
 20
19539.332556000001
 30
0.0
 11
12972.975427999971
 21
19701.057243999989
 31
0.0
  0
LINE
  5
2ED0
  8
0-6
  6
CONTINUOUS
 62
     6
 10
12972.975427999971
 20
19701.057243999989
 30
0.0
 11
13024.748745999979
 21
19688.261635999981
 31
0.0
  0
LINE
  5
2ED1
  8
0-6
  6
CONTINUOUS
 62
     6
 10
13024.748745999979
 20
19688.261635999981
 30
0.0
 11
12960.47377799998
 21
19539.332556000001
 31
0.0
  0
LINE
  5
2ED2
  8
0-6
  6
CONTINUOUS
 62
     6
 10
13024.748745999979
 20
19688.261635999981
 30
0.0
 11
12972.975427999971
 21
19701.057243999989
 31
0.0
  0
LINE
  5
2ED3
  8
0-6
  6
CONTINUOUS
 62
     6
 10
14069.157661999991
 20
20110.744348
 30
0.0
 11
13977.470320999981
 21
19976.934830999991
 31
0.0
  0
LINE
  5
2ED4
  8
0-6
  6
CONTINUOUS
 62
     6
 10
13977.470320999981
 20
19976.934830999991
 30
0.0
 11
14107.59793399999
 21
20073.774859000001
 31
0.0
  0
LINE
  5
2ED5
  8
0-6
  6
CONTINUOUS
 62
     6
 10
13977.470320999981
 20
19976.934830999991
 30
0.0
 11
14069.157661999991
 21
20110.744348
 31
0.0
  0
LINE
  5
2ED6
  8
0-6
  6
CONTINUOUS
 62
     6
 10
14069.157661999991
 20
20110.744348
 30
0.0
 11
14107.59793399999
 21
20073.774859000001
 31
0.0
  0
LINE
  5
2ED7
  8
0-6
  6
CONTINUOUS
 62
     6
 10
14107.59793399999
 20
20073.774859000001
 30
0.0
 11
13977.470320999981
 21
19976.934830999991
 31
0.0
  0
LINE
  5
2ED8
  8
0-6
  6
CONTINUOUS
 62
     6
 10
14107.59793399999
 20
20073.774859000001
 30
0.0
 11
14069.157661999991
 21
20110.744348
 31
0.0
  0
LINE
  5
2ED9
  8
2-0
  6
DASHED3
 62
     6
 10
11327.46992499999
 20
19715.436466999989
 30
0.0
 11
13894.96992499999
 21
19715.436466999989
 31
0.0
  0
LINE
  5
2EDA
  8
2-0
  6
DASHED3
 62
     6
 10
11284.97064999999
 20
19527.075377000001
 30
0.0
 11
11284.97064999999
 21
19800.435015999989
 31
0.0
  0
LINE
  5
2EDB
  8
2-0
  6
DASHED3
 62
     6
 10
11327.46992499999
 20
19484.640436999991
 30
0.0
 11
11327.46992499999
 21
19800.435015999989
 31
0.0
  0
LINE
  5
2EDC
  8
2-0
  6
DASHED3
 62
     6
 10
11284.97064999999
 20
19800.435015999989
 30
0.0
 11
13937.470188999991
 21
19800.435015999989
 31
0.0
  0
LINE
  5
2EDD
  8
2-0
  6
DASHED3
 62
     6
 10
13894.96992499999
 20
16908.590895999991
 30
0.0
 11
13894.96992499999
 21
19800.435015999989
 31
0.0
  0
LINE
  5
2EDE
  8
2-0
  6
DASHED3
 62
     6
 10
13937.470188999991
 20
16866.155956999999
 30
0.0
 11
13937.470188999991
 21
19800.435015999989
 31
0.0
  0
LINE
  5
2EDF
  8
2-0
  6
DASHED3
 62
     6
 10
13661.26598199999
 20
17141.934567
 30
0.0
 11
13894.96992499999
 21
17141.934567
 31
0.0
  0
LINE
  5
2EE0
  8
2-0
  6
DASHED3
 62
     6
 10
13572.64385799997
 20
17220.935173999991
 30
0.0
 11
13894.96992499999
 21
17220.935173999991
 31
0.0
  0
LINE
  5
2EE1
  8
2-0
  6
DASHED3
 62
     6
 10
11397.46966099997
 20
19754.434963
 30
0.0
 11
12622.81343699999
 21
18458.147219999999
 31
0.0
  0
LINE
  5
2EE2
  8
2-0
  6
DASHED3
 62
     6
 10
12476.22909599999
 20
18337.653923999991
 30
0.0
 11
13824.970188999991
 21
19754.434963
 31
0.0
  0
LINE
  5
2EE3
  8
2-0
  6
DASHED3
 62
     6
 10
12710.362594999981
 20
18365.527525000001
 30
0.0
 11
13824.970188999991
 21
17186.934963
 31
0.0
  0
LINE
  5
2EE4
  8
2-0
  6
DASHED3
 62
     6
 10
13730.26803999999
 20
17073.039402999992
 30
0.0
 11
13824.970188999991
 21
17186.934963
 31
0.0
  0
LINE
  5
2EE5
  8
0-8
  6
CONTINUOUS
 62
     6
 10
13894.96992499999
 20
20996.935227000002
 30
0.0
 11
13894.96992499999
 21
20046.936546000001
 31
0.0
  0
LINE
  5
2EE6
  8
2-0
  6
CENTER2
 62
     6
 10
9997.9698189999835
 20
19754.434963
 30
0.0
 11
11644.47101999999
 21
19754.434963
 31
0.0
  0
LINE
  5
2EE7
  8
0-8
  6
CONTINUOUS
 62
     6
 10
11327.46992499999
 20
20996.935227000002
 30
0.0
 11
11327.46992499999
 21
20046.936546000001
 31
0.0
  0
LINE
  5
2EE8
  8
2-0
  6
CENTER2
 62
     6
 10
9997.9698189999835
 20
17186.934963
 30
0.0
 11
11644.47101999999
 21
17186.934963
 31
0.0
  0
LINE
  5
2EE9
  8
2-0
  6
CENTER2
 62
     6
 10
9997.9698189999835
 20
14268.934962999991
 30
0.0
 11
11644.47101999999
 21
14268.934962999991
 31
0.0
  0
ARC
  5
2EEA
  8
0-1
  6
CONTINUOUS
 62
     3
 10
11310.47175899998
 20
19941.934962999989
 30
0.0
 40
5.0
 50
269.9999850001808
 51
0.0
  0
ARC
  5
2EEB
  8
0-1
  6
CONTINUOUS
 62
     3
 10
11310.47175899998
 20
19971.936546000001
 30
0.0
 40
5.0
 50
0.0
 51
90.0
  0
ARC
  5
2EEC
  8
0-1
  6
CONTINUOUS
 62
     3
 10
11246.96979299998
 20
19971.936546000001
 30
0.0
 40
5.0
 50
90.0
 51
180.0
  0
ARC
  5
2EED
  8
0-1
  6
CONTINUOUS
 62
     3
 10
13975.47005699999
 20
19971.936546000001
 30
0.0
 40
5.0
 50
0.0
 51
90.0
  0
ARC
  5
2EEE
  8
0-1
  6
CONTINUOUS
 62
     3
 10
13911.971059999991
 20
19971.936546000001
 30
0.0
 40
5.0
 50
90.0
 51
180.0
  0
ARC
  5
2EEF
  8
0-1
  6
CONTINUOUS
 62
     3
 10
13911.971059999991
 20
19941.934962999989
 30
0.0
 40
5.0
 50
180.0
 51
269.9999850001808
  0
CIRCLE
  5
2EF0
  8
0-5
  6
CONTINUOUS
 62
     4
 10
13894.96992499999
 20
21196.935887
 30
0.0
 40
199.9999949999999
  0
CIRCLE
  5
2EF1
  8
0-5
  6
CONTINUOUS
 62
     4
 10
11327.46992499999
 20
21196.935887
 30
0.0
 40
199.9999949999999
  0
CIRCLE
  5
2EF2
  8
0-5
  6
CONTINUOUS
 62
     4
 10
9797.9701489999861
 20
19754.434963
 30
0.0
 40
199.9999949999999
  0
CIRCLE
  5
2EF3
  8
0-5
  6
CONTINUOUS
 62
     4
 10
9797.9701489999861
 20
17186.934963
 30
0.0
 40
199.9999949999999
  0
CIRCLE
  5
2EF4
  8
0-5
  6
CONTINUOUS
 62
     4
 10
9797.9701489999861
 20
14268.934962999991
 30
0.0
 40
199.9999949999999
  0
CIRCLE
  5
2EF5
  8
0-5
  6
CONTINUOUS
 62
     4
 10
15128.71469899998
 20
1375.9999199999991
 30
0.0
 40
20.0
  0
ARC
  5
2EF6
  8
0-5
  6
CONTINUOUS
 62
     4
 10
15128.71469899998
 20
1375.9999199999991
 30
0.0
 40
20.0
 50
180.0
 51
0.0
  0
ARC
  5
2EF7
  8
0-5
  6
CONTINUOUS
 62
     4
 10
15128.71469899998
 20
1375.9999199999991
 30
0.0
 40
20.0
 50
0.0
 51
179.99998500000001
  0
CIRCLE
  5
2EF8
  8
0-5
  6
CONTINUOUS
 62
     4
 10
15128.71469899998
 20
1775.999941
 30
0.0
 40
20.0
  0
ARC
  5
2EF9
  8
0-5
  6
CONTINUOUS
 62
     4
 10
15128.71469899998
 20
1775.999941
 30
0.0
 40
20.0
 50
180.0
 51
0.0
  0
ARC
  5
2EFA
  8
0-5
  6
CONTINUOUS
 62
     4
 10
15128.71469899998
 20
1775.999941
 30
0.0
 40
20.0
 50
0.0
 51
179.99998500000001
  0
TEXT
  5
2EFB
  8
0-5
  6
CONTINUOUS
 62
     7
 10
13848.69273999998
 20
21106.94499199999
 30
0.0
 40
160.0
  1
2
 72
     4
 11
13902.02607333332
 21
21186.94499199999
 31
0.0
  0
TEXT
  5
2EFC
  8
0-5
  6
CONTINUOUS
 62
     7
 10
11278.759910999979
 20
21118.907222999991
 30
0.0
 40
160.0
  1
1
 72
     4
 11
11305.426577666651
 21
21198.907222999991
 31
0.0
  0
TEXT
  5
2EFD
  8
0-5
  6
CONTINUOUS
 62
     7
 10
9746.4957369999902
 20
19658.91131399999
 30
0.0
 40
160.0
  1
C
 72
     4
 11
9799.8290703333223
 21
19738.91131399999
 31
0.0
  0
TEXT
  5
2EFE
  8
0-5
  6
CONTINUOUS
 62
     7
 10
9746.4957369999902
 20
17091.411315000001
 30
0.0
 40
160.0
  1
B
 72
     4
 11
9799.8290703333223
 21
17171.411315000001
 31
0.0
  0
TEXT
  5
2EFF
  8
0-5
  6
CONTINUOUS
 62
     7
 10
9746.4957369999902
 20
14173.41032399998
 30
0.0
 40
160.0
  1
A
 72
     4
 11
9799.8290703333223
 21
14253.41032399998
 31
0.0
  0
TEXT
  5
2F00
  8
0-5
  6
CONTINUOUS
 62
     7
 10
16598.34583293178
 20
1656.0000399999999
 30
0.0
 40
160.0
  1
H
  0
TEXT
  5
2F01
  8
0-5
  6
CONTINUOUS
 62
     7
 10
15176.145943999991
 20
1656.0000399999999
 30
0.0
 40
160.0
  1
（ ）内寸法ハ、  タ イプヲ示ス。
  0
TEXT
  5
2F02
  8
0-5
  6
CONTINUOUS
 62
     7
 10
15288.714237
 20
1255.999957
 30
0.0
 40
160.0
  1
有効高サハ、基礎高サヲ含ミマセン。
  0
TEXT
  5
2F03
  8
0-6
  6
CONTINUOUS
 62
     7
 10
13222.764938999981
 20
20286.935358999988
 30
0.0
 40
160.0
  1
屋根
  0
TEXT
  5
2F04
  8
0-6
  6
CONTINUOUS
 62
     7
 10
12085.56219699997
 20
21076.935490999989
 30
0.0
 40
160.0
  1
鼻隠し後
  0
TEXT
  5
2F05
  8
0-6
  6
CONTINUOUS
 62
     7
 10
11429.93277599998
 20
20286.935358999988
 30
0.0
 40
160.0
  1
桁（後）
  0
TEXT
  5
2F06
  8
0-6
  6
CONTINUOUS
 62
     7
 10
12103.60451899998
 20
17626.032829999989
 30
0.0
 40
160.0
  1
桁（中）
  0
TEXT
  5
2F07
  8
0-6
  6
CONTINUOUS
 62
     7
 10
12495.41063099999
 20
16711.739651
 30
0.0
 40
160.0
  1
ブレース
  0
TEXT
  5
2F08
  8
0-6
  6
CONTINUOUS
 62
     7
 10
12353.66522399998
 20
14730.26332599998
 30
0.0
 40
160.0
  1
桁（前）
  0
TEXT
  5
2F09
  8
0-6
  6
CONTINUOUS
 62
     7
 10
13091.98111499998
 20
13356.435293
 30
0.0
 40
160.0
  1
鼻隠し前
  0
TEXT
  5
2F0A
  8
0-6
  6
CONTINUOUS
 62
     7
 10
9563.3368219999866
 20
12866.434171000001
 30
0.0
 40
160.0
  1
ケラバ 左
  0
TEXT
  5
2F0B
  8
0-6
  6
CONTINUOUS
 62
     7
 10
11571.99589599998
 20
18714.134603999992
 30
0.0
 40
160.0
  1
上枠
  0
TEXT
  5
2F0C
  8
0-6
  6
CONTINUOUS
 62
     7
 10
15095.12630699999
 20
21076.935490999989
 30
0.0
 40
160.0
  1
鼻隠しコーナー後
  0
TEXT
  5
2F0D
  8
2-0
  6
CONTINUOUS
 62
     7
 10
11184.65359699997
 20
12032.72150840116
 30
0.0
 40
160.0
  1
小 屋 伏 図
 50
359.99980699999981
 72
     4
 11
11685.9871998093
 21
12112.71981966667
 31
0.0
  0
TEXT
  5
2F15
  8
2-0
  6
CONTINUOUS
 62
     7
 10
13037.47938494693
 20
12059.91518866667
 30
0.0
 40
160.0
  1
1
 72
     4
 11
13064.146051613599
 21
12139.91518866667
 31
0.0
  0
TEXT
  5
2F16
  8
2-0
  6
CONTINUOUS
 62
     7
 10
13280.568102197631
 20
11979.91665666667
 30
0.0
 40
160.0
  1
80
 72
     4
 11
13400.568102197631
 21
12059.91665666667
 31
0.0
  0
TEXT
  5
2F17
  8
2-0
  6
CONTINUOUS
 62
     7
 10
12538.48135094693
 20
12032.71981966667
 30
0.0
 40
160.0
  1
(S=  /   )
 72
     4
 11
13098.48135094693
 21
12112.71981966667
 31
0.0
  0
LINE
  5
2F18
  8
0-1
  6
CONTINUOUS
 62
     3
 10
9626.2250580000036
 20
8588.6831290000027
 30
0.0
 11
15156.723475000001
 21
8588.6831290000027
 31
0.0
  0
LINE
  5
2F19
  8
0-1
  6
CONTINUOUS
 62
     3
 10
8916.2242000000006
 20
6577.6372500000016
 30
0.0
 11
15189.22327699999
 21
6577.6372500000016
 31
0.0
  0
LINE
  5
2F1A
  8
0-1
  6
CONTINUOUS
 62
     3
 10
9721.2241340000037
 20
6727.6372500000016
 30
0.0
 11
12143.723409
 21
6727.6372500000016
 31
0.0
  0
LINE
  5
2F1B
  8
0-1
  6
CONTINUOUS
 62
     3
 10
9598.7232769999955
 20
6677.6370850000048
 30
0.0
 11
15189.22327699999
 21
6677.6370850000048
 31
0.0
  0
LINE
  5
2F1C
  8
0-1
  6
CONTINUOUS
 62
     3
 10
9721.2241340000037
 20
8588.6831290000027
 30
0.0
 11
9721.2241340000037
 21
6677.6370850000039
 31
0.0
  0
LINE
  5
2F1D
  8
0-1
  6
CONTINUOUS
 62
     3
 10
9606.2240020000045
 20
8710.6511659999978
 30
0.0
 11
9606.2240020000045
 21
6677.6370850000039
 31
0.0
  0
LINE
  5
2F1E
  8
0-1
  6
CONTINUOUS
 62
     3
 10
9626.2250580000036
 20
8711.3063870000024
 30
0.0
 11
9626.2250580000036
 21
6677.6370850000039
 31
0.0
  0
LINE
  5
2F1F
  8
0-1
  6
CONTINUOUS
 62
     3
 10
9598.7232769999955
 20
6577.6372500000016
 30
0.0
 11
9598.7232769999955
 21
6677.6370850000048
 31
0.0
  0
LINE
  5
2F20
  8
0-1
  6
CONTINUOUS
 62
     3
 10
15251.857158999999
 20
8895.126462000002
 30
0.0
 11
15247.597234999999
 21
9025.0561230000021
 31
0.0
  0
LINE
  5
2F21
  8
0-1
  6
CONTINUOUS
 62
     3
 10
12288.723145
 20
6727.6372500000016
 30
0.0
 11
15061.723409
 21
6727.6372500000016
 31
0.0
  0
LINE
  5
2F22
  8
0-1
  6
CONTINUOUS
 62
     3
 10
11752.223130999981
 20
6727.6372500000016
 30
0.0
 11
11752.223130999981
 21
8588.6831290000027
 31
0.0
  0
LINE
  5
2F23
  8
0-1
  6
CONTINUOUS
 62
     3
 10
11619.224227000001
 20
6727.6372500000016
 30
0.0
 11
11619.224227000001
 21
8588.6831290000027
 31
0.0
  0
LINE
  5
2F24
  8
0-1
  6
CONTINUOUS
 62
     3
 10
11604.222444999999
 20
6727.6372500000016
 30
0.0
 11
11604.222444999999
 21
8588.6831290000027
 31
0.0
  0
LINE
  5
2F25
  8
0-1
  6
CONTINUOUS
 62
     3
 10
11802.224780999981
 20
6727.6372500000016
 30
0.0
 11
11802.224780999981
 21
8588.6831290000027
 31
0.0
  0
LINE
  5
2F26
  8
0-1
  6
CONTINUOUS
 62
     3
 10
11822.223857000001
 20
6727.6372500000016
 30
0.0
 11
11822.223857000001
 21
8588.6831290000027
 31
0.0
  0
LINE
  5
2F27
  8
0-1
  6
CONTINUOUS
 62
     3
 10
11872.224517000001
 20
6727.6372500000016
 30
0.0
 11
11872.224517000001
 21
8588.6831290000027
 31
0.0
  0
LINE
  5
2F28
  8
0-1
  6
CONTINUOUS
 62
     3
 10
12005.22342199999
 20
6727.6372500000016
 30
0.0
 11
12005.22342199999
 21
8588.6831290000027
 31
0.0
  0
LINE
  5
2F29
  8
0-1
  6
CONTINUOUS
 62
     3
 10
12020.222234000001
 20
6727.6372500000016
 30
0.0
 11
12020.222234000001
 21
8588.6831290000027
 31
0.0
  0
LINE
  5
2F2A
  8
0-1
  6
CONTINUOUS
 62
     3
 10
12288.723145
 20
8588.6831290000027
 30
0.0
 11
12288.723145
 21
6677.6370850000039
 31
0.0
  0
LINE
  5
2F2B
  8
0-1
  6
CONTINUOUS
 62
     3
 10
12143.723409
 20
8588.6831290000027
 30
0.0
 11
12143.723409
 21
6677.6370850000039
 31
0.0
  0
LINE
  5
2F2C
  8
0-1
  6
CONTINUOUS
 62
     3
 10
12412.22233999998
 20
6727.6372500000016
 30
0.0
 11
12412.22233999998
 21
8588.6831290000027
 31
0.0
  0
LINE
  5
2F2D
  8
0-1
  6
CONTINUOUS
 62
     3
 10
12427.224120999999
 20
6727.6372500000016
 30
0.0
 11
12427.224120999999
 21
8588.6831290000027
 31
0.0
  0
LINE
  5
2F2E
  8
0-1
  6
CONTINUOUS
 62
     3
 10
12560.223025999991
 20
6727.6372500000016
 30
0.0
 11
12560.223025999991
 21
8588.6831290000027
 31
0.0
  0
LINE
  5
2F2F
  8
0-1
  6
CONTINUOUS
 62
     3
 10
12610.22368599999
 20
6727.6372500000016
 30
0.0
 11
12610.22368599999
 21
8588.6831290000027
 31
0.0
  0
LINE
  5
2F30
  8
0-1
  6
CONTINUOUS
 62
     3
 10
12630.222761999999
 20
6727.6372500000016
 30
0.0
 11
12630.222761999999
 21
8588.6831290000027
 31
0.0
  0
LINE
  5
2F31
  8
0-1
  6
CONTINUOUS
 62
     3
 10
10402.223130999981
 20
6727.6372500000016
 30
0.0
 11
10402.223130999981
 21
8588.6831290000027
 31
0.0
  0
LINE
  5
2F32
  8
0-1
  6
CONTINUOUS
 62
     3
 10
10422.225177
 20
6727.6372500000016
 30
0.0
 11
10422.225177
 21
8588.6831290000027
 31
0.0
  0
LINE
  5
2F33
  8
0-1
  6
CONTINUOUS
 62
     3
 10
10352.22247199999
 20
6727.6372500000016
 30
0.0
 11
10352.22247199999
 21
8588.6831290000027
 31
0.0
  0
LINE
  5
2F34
  8
0-1
  6
CONTINUOUS
 62
     3
 10
10472.222868000001
 20
6727.6372500000016
 30
0.0
 11
10472.222868000001
 21
8588.6831290000027
 31
0.0
  0
LINE
  5
2F35
  8
0-1
  6
CONTINUOUS
 62
     3
 10
10605.22276199999
 20
6727.6372500000016
 30
0.0
 11
10605.22276199999
 21
8588.6831290000027
 31
0.0
  0
LINE
  5
2F36
  8
0-1
  6
CONTINUOUS
 62
     3
 10
10620.224543999981
 20
6727.6372500000016
 30
0.0
 11
10620.224543999981
 21
8588.6831290000027
 31
0.0
  0
LINE
  5
2F37
  8
0-1
  6
CONTINUOUS
 62
     3
 10
10209.723791
 20
6727.6372500000016
 30
0.0
 11
10209.723791
 21
8588.6831290000027
 31
0.0
  0
LINE
  5
2F38
  8
0-1
  6
CONTINUOUS
 62
     3
 10
10194.724979000001
 20
6727.6372500000016
 30
0.0
 11
10194.724979000001
 21
8588.6831290000027
 31
0.0
  0
LINE
  5
2F39
  8
0-1
  6
CONTINUOUS
 62
     3
 10
10904.223104999979
 20
6727.6372500000016
 30
0.0
 11
10904.223104999979
 21
8588.6831290000027
 31
0.0
  0
LINE
  5
2F3A
  8
0-1
  6
CONTINUOUS
 62
     3
 10
10919.22191699999
 20
6727.6372500000016
 30
0.0
 11
10919.22191699999
 21
8588.6831290000027
 31
0.0
  0
LINE
  5
2F3B
  8
0-1
  6
CONTINUOUS
 62
     3
 10
11320.223884000001
 20
6727.6372500000016
 30
0.0
 11
11320.223884000001
 21
8588.6831290000027
 31
0.0
  0
LINE
  5
2F3C
  8
0-1
  6
CONTINUOUS
 62
     3
 10
11305.222102
 20
6727.6372500000016
 30
0.0
 11
11305.222102
 21
8588.6831290000027
 31
0.0
  0
LINE
  5
2F3D
  8
0-1
  6
CONTINUOUS
 62
     3
 10
11172.22220799999
 20
6727.6372500000016
 30
0.0
 11
11172.22220799999
 21
8588.6831290000027
 31
0.0
  0
LINE
  5
2F3E
  8
0-1
  6
CONTINUOUS
 62
     3
 10
11052.223790999989
 20
6727.6372500000016
 30
0.0
 11
11052.223790999989
 21
8588.6831290000027
 31
0.0
  0
LINE
  5
2F3F
  8
0-1
  6
CONTINUOUS
 62
     3
 10
11122.22451699999
 20
6727.6372500000016
 30
0.0
 11
11122.22451699999
 21
8588.6831290000027
 31
0.0
  0
LINE
  5
2F40
  8
0-1
  6
CONTINUOUS
 62
     3
 10
11102.222471999979
 20
6727.6372500000016
 30
0.0
 11
11102.222471999979
 21
8588.6831290000027
 31
0.0
  0
LINE
  5
2F41
  8
0-1
  6
CONTINUOUS
 62
     3
 10
11443.724068
 20
8588.6831290000027
 30
0.0
 11
11443.724068
 21
6727.6372500000016
 31
0.0
  0
LINE
  5
2F42
  8
0-1
  6
CONTINUOUS
 62
     3
 10
11480.722261000001
 20
8588.6831290000027
 30
0.0
 11
11480.722261000001
 21
6727.6372500000016
 31
0.0
  0
LINE
  5
2F43
  8
0-1
  6
CONTINUOUS
 62
     3
 10
10034.223633
 20
8588.6831290000027
 30
0.0
 11
10034.223633
 21
6727.6372500000016
 31
0.0
  0
LINE
  5
2F44
  8
0-1
  6
CONTINUOUS
 62
     3
 10
10071.223803999999
 20
8588.6831290000027
 30
0.0
 11
10071.223803999999
 21
6727.6372500000016
 31
0.0
  0
LINE
  5
2F45
  8
0-1
  6
CONTINUOUS
 62
     3
 10
10743.72472799999
 20
8588.6831290000027
 30
0.0
 11
10743.72472799999
 21
6727.6372500000016
 31
0.0
  0
LINE
  5
2F46
  8
0-1
  6
CONTINUOUS
 62
     3
 10
10780.72291999998
 20
8588.6831290000027
 30
0.0
 11
10780.72291999998
 21
6727.6372500000016
 31
0.0
  0
LINE
  5
2F47
  8
0-1
  6
CONTINUOUS
 62
     3
 10
12216.223276999999
 20
8795.9189289999995
 30
0.0
 11
12211.962363000001
 21
8925.8485900000032
 31
0.0
  0
LINE
  5
2F48
  8
0-1
  6
CONTINUOUS
 62
     3
 10
12216.223276999999
 20
8795.9189289999995
 30
0.0
 11
12216.223276999999
 21
8588.6831290000027
 31
0.0
  0
LINE
  5
2F49
  8
0-1
  6
CONTINUOUS
 62
     3
 10
15061.723409
 20
8588.6831290000027
 30
0.0
 11
15061.723409
 21
6677.6370850000039
 31
0.0
  0
LINE
  5
2F4A
  8
0-1
  6
CONTINUOUS
 62
     3
 10
15176.722551000001
 20
8892.6629510000057
 30
0.0
 11
15176.722551000001
 21
6677.6370850000039
 31
0.0
  0
LINE
  5
2F4B
  8
0-1
  6
CONTINUOUS
 62
     3
 10
15156.723475000001
 20
8892.0067410000029
 30
0.0
 11
15156.723475000001
 21
6677.6370850000039
 31
0.0
  0
LINE
  5
2F4C
  8
0-1
  6
CONTINUOUS
 62
     3
 10
13651.723632999991
 20
8588.6831290000027
 30
0.0
 11
13651.723632999991
 21
6727.6372500000016
 31
0.0
  0
LINE
  5
2F4D
  8
0-1
  6
CONTINUOUS
 62
     3
 10
13688.722814999979
 20
8588.6831290000027
 30
0.0
 11
13688.722814999979
 21
6727.6372500000016
 31
0.0
  0
LINE
  5
2F4E
  8
0-1
  6
CONTINUOUS
 62
     3
 10
14361.724068999991
 20
8588.6831290000027
 30
0.0
 11
14361.724068999991
 21
6727.6372500000016
 31
0.0
  0
LINE
  5
2F4F
  8
0-1
  6
CONTINUOUS
 62
     3
 10
14398.722261000001
 20
8588.6831290000027
 30
0.0
 11
14398.722261000001
 21
6727.6372500000016
 31
0.0
  0
LINE
  5
2F50
  8
0-1
  6
CONTINUOUS
 62
     3
 10
12951.722313
 20
8588.6831290000027
 30
0.0
 11
12951.722313
 21
6727.6372500000016
 31
0.0
  0
LINE
  5
2F51
  8
0-1
  6
CONTINUOUS
 62
     3
 10
12988.723474999981
 20
8588.6831290000027
 30
0.0
 11
12988.723474999981
 21
6727.6372500000016
 31
0.0
  0
LINE
  5
2F52
  8
0-1
  6
CONTINUOUS
 62
     3
 10
13330.222102
 20
6727.6372500000016
 30
0.0
 11
13330.222102
 21
8588.6831290000027
 31
0.0
  0
LINE
  5
2F53
  8
0-1
  6
CONTINUOUS
 62
     3
 10
13310.223026
 20
6727.6372500000016
 30
0.0
 11
13310.223026
 21
8588.6831290000027
 31
0.0
  0
LINE
  5
2F54
  8
0-1
  6
CONTINUOUS
 62
     3
 10
13380.222761999999
 20
6727.6372500000016
 30
0.0
 11
13380.222761999999
 21
8588.6831290000027
 31
0.0
  0
LINE
  5
2F55
  8
0-1
  6
CONTINUOUS
 62
     3
 10
13260.222366
 20
6727.6372500000016
 30
0.0
 11
13260.222366
 21
8588.6831290000027
 31
0.0
  0
LINE
  5
2F56
  8
0-1
  6
CONTINUOUS
 62
     3
 10
13127.22247199999
 20
6727.6372500000016
 30
0.0
 11
13127.22247199999
 21
8588.6831290000027
 31
0.0
  0
LINE
  5
2F57
  8
0-1
  6
CONTINUOUS
 62
     3
 10
13112.22365899999
 20
6727.6372500000016
 30
0.0
 11
13112.22365899999
 21
8588.6831290000027
 31
0.0
  0
LINE
  5
2F58
  8
0-1
  6
CONTINUOUS
 62
     3
 10
13513.222655999991
 20
6727.6372500000016
 30
0.0
 11
13513.222655999991
 21
8588.6831290000027
 31
0.0
  0
LINE
  5
2F59
  8
0-1
  6
CONTINUOUS
 62
     3
 10
13528.224437999999
 20
6727.6372500000016
 30
0.0
 11
13528.224437999999
 21
8588.6831290000027
 31
0.0
  0
LINE
  5
2F5A
  8
0-1
  6
CONTINUOUS
 62
     3
 10
14228.22377799999
 20
6727.6372500000016
 30
0.0
 11
14228.22377799999
 21
8588.6831290000027
 31
0.0
  0
LINE
  5
2F5B
  8
0-1
  6
CONTINUOUS
 62
     3
 10
14213.221997000001
 20
6727.6372500000016
 30
0.0
 11
14213.221997000001
 21
8588.6831290000027
 31
0.0
  0
LINE
  5
2F5C
  8
0-1
  6
CONTINUOUS
 62
     3
 10
13812.223
 20
6727.6372500000016
 30
0.0
 11
13812.223
 21
8588.6831290000027
 31
0.0
  0
LINE
  5
2F5D
  8
0-1
  6
CONTINUOUS
 62
     3
 10
13827.223791
 20
6727.6372500000016
 30
0.0
 11
13827.223791
 21
8588.6831290000027
 31
0.0
  0
LINE
  5
2F5E
  8
0-1
  6
CONTINUOUS
 62
     3
 10
13960.224676
 20
6727.6372500000016
 30
0.0
 11
13960.224676
 21
8588.6831290000027
 31
0.0
  0
LINE
  5
2F5F
  8
0-1
  6
CONTINUOUS
 62
     3
 10
14080.222102
 20
6727.6372500000016
 30
0.0
 11
14080.222102
 21
8588.6831290000027
 31
0.0
  0
LINE
  5
2F60
  8
0-1
  6
CONTINUOUS
 62
     3
 10
14010.222366
 20
6727.6372500000016
 30
0.0
 11
14010.222366
 21
8588.6831290000027
 31
0.0
  0
LINE
  5
2F61
  8
0-1
  6
CONTINUOUS
 62
     3
 10
14030.22441199999
 20
6727.6372500000016
 30
0.0
 11
14030.22441199999
 21
8588.6831290000027
 31
0.0
  0
LINE
  5
2F62
  8
0-1
  6
CONTINUOUS
 62
     3
 10
14740.223857999999
 20
6727.6372500000016
 30
0.0
 11
14740.223857999999
 21
8588.6831290000027
 31
0.0
  0
LINE
  5
2F63
  8
0-1
  6
CONTINUOUS
 62
     3
 10
14720.22478199999
 20
6727.6372500000016
 30
0.0
 11
14720.22478199999
 21
8588.6831290000027
 31
0.0
  0
LINE
  5
2F64
  8
0-1
  6
CONTINUOUS
 62
     3
 10
14790.224517999981
 20
6727.6372500000016
 30
0.0
 11
14790.224517999981
 21
8588.6831290000027
 31
0.0
  0
LINE
  5
2F65
  8
0-1
  6
CONTINUOUS
 62
     3
 10
14670.224121999991
 20
6727.6372500000016
 30
0.0
 11
14670.224121999991
 21
8588.6831290000027
 31
0.0
  0
LINE
  5
2F66
  8
0-1
  6
CONTINUOUS
 62
     3
 10
14537.224227000001
 20
6727.6372500000016
 30
0.0
 11
14537.224227000001
 21
8588.6831290000027
 31
0.0
  0
LINE
  5
2F67
  8
0-1
  6
CONTINUOUS
 62
     3
 10
14522.222445999991
 20
6727.6372500000016
 30
0.0
 11
14522.222445999991
 21
8588.6831290000027
 31
0.0
  0
LINE
  5
2F68
  8
0-1
  6
CONTINUOUS
 62
     3
 10
14923.22441199999
 20
6727.6372500000016
 30
0.0
 11
14923.22441199999
 21
8588.6831290000027
 31
0.0
  0
LINE
  5
2F69
  8
0-1
  6
CONTINUOUS
 62
     3
 10
14938.223223999979
 20
6727.6372500000016
 30
0.0
 11
14938.223223999979
 21
8588.6831290000027
 31
0.0
  0
LINE
  5
2F6A
  8
0-1
  6
CONTINUOUS
 62
     3
 10
12828.222128999991
 20
6727.6372500000016
 30
0.0
 11
12828.222128999991
 21
8588.6831290000027
 31
0.0
  0
LINE
  5
2F6B
  8
0-1
  6
CONTINUOUS
 62
     3
 10
12813.223315999991
 20
6727.6372500000016
 30
0.0
 11
12813.223315999991
 21
8588.6831290000027
 31
0.0
  0
LINE
  5
2F6C
  8
0-1
  6
CONTINUOUS
 62
     3
 10
12680.224412
 20
6727.6372500000016
 30
0.0
 11
12680.224412
 21
8588.6831290000027
 31
0.0
  0
LINE
  5
2F6D
  8
0-1
  6
CONTINUOUS
 62
     3
 10
15189.22327699999
 20
6677.6370850000048
 30
0.0
 11
15189.22327699999
 21
6577.6372500000016
 31
0.0
  0
LINE
  5
2F6E
  8
0-1
  6
CONTINUOUS
 62
     3
 10
9428.9115950000032
 20
8752.8624200000031
 30
0.0
 11
9427.7971260000068
 21
8786.8448159999953
 31
0.0
  0
LINE
  5
2F6F
  8
0-1
  6
CONTINUOUS
 62
     3
 10
9430.6971210000029
 20
8789.9407830000018
 30
0.0
 11
15261.064888999999
 21
8980.4734050000006
 31
0.0
  0
LINE
  5
2F70
  8
0-1
  6
CONTINUOUS
 62
     3
 10
15262.37631999999
 20
8940.4950480000007
 30
0.0
 11
9432.0095410000049
 21
8749.9624260000019
 31
0.0
  0
LINE
  5
2F71
  8
0-1
  6
CONTINUOUS
 62
     3
 10
9429.2728569999963
 20
8741.8681740000029
 30
0.0
 11
9429.2698880000044
 21
8741.9334979999985
 31
0.0
  0
LINE
  5
2F72
  8
0-1
  6
CONTINUOUS
 62
     3
 10
9429.2698880000044
 20
8741.9334979999985
 30
0.0
 11
9430.3210120000003
 21
8709.8860820000027
 31
0.0
  0
LINE
  5
2F73
  8
0-1
  6
CONTINUOUS
 62
     3
 10
9435.4816169999976
 20
8705.0530880000024
 30
0.0
 11
15284.82109199998
 21
8896.207279000002
 31
0.0
  0
LINE
  5
2F74
  8
0-1
  6
CONTINUOUS
 62
     3
 10
15280.560177999991
 20
9026.1369400000021
 30
0.0
 11
9431.2226829999981
 21
8834.9827490000007
 31
0.0
  0
LINE
  5
2F75
  8
0-1
  6
CONTINUOUS
 62
     3
 10
9426.3877090000005
 20
8829.8211540000011
 30
0.0
 11
9427.4378429999997
 21
8797.8390620000027
 31
0.0
  0
LINE
  5
2F76
  8
0-1
  6
CONTINUOUS
 62
     3
 10
9430.5338100000008
 20
8794.939067000003
 30
0.0
 11
15260.902569
 21
8985.4716900000021
 31
0.0
  0
LINE
  5
2F77
  8
0-1
  6
CONTINUOUS
 62
     3
 10
15262.538640999999
 20
8935.4987430000001
 30
0.0
 11
9432.1718620000029
 21
8744.9651310000008
 31
0.0
  0
LINE
  5
2F78
  8
0-1
  6
CONTINUOUS
 62
     3
 10
9443.7144350000017
 20
8835.392509000003
 30
0.0
 11
9447.9753479999981
 21
8705.4618580000024
 31
0.0
  0
LINE
  5
2F79
  8
0-5
  6
CONTINUOUS
 62
     4
 10
18059.59683799999
 20
6785.4837319999997
 30
0.0
 11
18179.59525499996
 21
6577.6372500000016
 31
0.0
  0
LINE
  5
2F7A
  8
0-5
  6
CONTINUOUS
 62
     4
 10
15269.223541000019
 20
6577.6372500000016
 30
0.0
 11
20501.968935000001
 21
6577.6372500000016
 31
0.0
  0
LINE
  5
2F7B
  8
0-5
  6
CONTINUOUS
 62
     4
 10
18179.59525499996
 20
6577.6372500000016
 30
0.0
 11
18299.597629999989
 21
6785.4837319999997
 31
0.0
  0
LINE
  5
2F7C
  8
0-5
  6
CONTINUOUS
 62
     4
 10
18299.597629999989
 20
6785.4837319999997
 30
0.0
 11
18059.59683799999
 21
6785.4837319999997
 31
0.0
  0
LINE
  5
2F7D
  8
0-5
  6
CONTINUOUS
 62
     4
 10
15269.223541000019
 20
6677.6370850000048
 30
0.0
 11
16986.683488999999
 21
6677.6370850000039
 31
0.0
  0
LINE
  5
2F7E
  8
0-5
  6
CONTINUOUS
 62
     4
 10
17014.309649999988
 20
6885.4830720000027
 30
0.0
 11
16774.307869
 21
6885.4830720000027
 31
0.0
  0
LINE
  5
2F7F
  8
0-5
  6
CONTINUOUS
 62
     4
 10
16894.307274999999
 20
6677.6370850000039
 30
0.0
 11
17014.309649999988
 21
6885.4830720000027
 31
0.0
  0
LINE
  5
2F80
  8
0-5
  6
CONTINUOUS
 62
     4
 10
16774.307869
 20
6885.4830720000027
 30
0.0
 11
16894.307274999999
 21
6677.6370850000039
 31
0.0
  0
LINE
  5
2F81
  8
2-0
  6
CENTER2
 62
     6
 10
9648.7232769999955
 20
6314.9838380000037
 30
0.0
 11
9648.7232769999955
 21
7372.1269300000004
 31
0.0
  0
LINE
  5
2F82
  8
2-0
  6
CENTER2
 62
     6
 10
12216.223276999999
 20
6314.9838380000037
 30
0.0
 11
12216.223276999999
 21
7372.1269300000004
 31
0.0
  0
LINE
  5
2F83
  8
2-0
  6
CENTER2
 62
     6
 10
15134.223276999999
 20
6314.9838380000037
 30
0.0
 11
15134.223276999999
 21
7372.1269300000004
 31
0.0
  0
ARC
  5
2F84
  8
0-1
  6
CONTINUOUS
 62
     3
 10
9432.1144560000048
 20
8792.4884229999989
 30
0.0
 40
2.5
 50
271.87799100002047
 51
91.877991000020657
  0
ARC
  5
2F85
  8
0-1
  6
CONTINUOUS
 62
     3
 10
9433.5891969999993
 20
8747.513761000002
 30
0.0
 40
2.5
 50
271.87799100002047
 51
91.877991000020657
  0
ARC
  5
2F86
  8
0-1
  6
CONTINUOUS
 62
     3
 10
9430.7951069999981
 20
8786.9428020000032
 30
0.0
 40
3.0
 50
91.877991000020657
 51
181.87799100001399
  0
ARC
  5
2F87
  8
0-1
  6
CONTINUOUS
 62
     3
 10
15261.721100000001
 20
8960.4842270000008
 30
0.0
 40
20.0
 50
271.87799100002047
 51
91.877991000020657
  0
ARC
  5
2F88
  8
0-1
  6
CONTINUOUS
 62
     3
 10
9431.909576
 20
8752.9613960000006
 30
0.0
 40
3.0
 50
181.87799100001399
 51
271.87799100002047
  0
ARC
  5
2F89
  8
0-1
  6
CONTINUOUS
 62
     3
 10
9432.2698480000035
 20
8741.9671500000022
 30
0.0
 40
3.0
 50
91.877991000020657
 51
181.87799100001399
  0
ARC
  5
2F8A
  8
0-1
  6
CONTINUOUS
 62
     3
 10
9435.3183070000014
 20
8710.049393000003
 30
0.0
 40
5.0
 50
181.87799100001399
 51
271.87799100002047
  0
ARC
  5
2F8B
  8
0-1
  6
CONTINUOUS
 62
     3
 10
15256.72281499999
 20
8960.3209170000027
 30
0.0
 40
69.999999000000003
 50
293.6647800001233
 51
70.091202000170611
  0
ARC
  5
2F8C
  8
0-1
  6
CONTINUOUS
 62
     3
 10
9431.3850029999994
 20
8829.9854539999997
 30
0.0
 40
5.0
 50
91.877991000020657
 51
181.87799100001399
  0
ARC
  5
2F8D
  8
0-1
  6
CONTINUOUS
 62
     3
 10
9430.4348340000015
 20
8797.9370480000016
 30
0.0
 40
3.0
 50
181.87799100001399
 51
271.87799100002047
  0
ARC
  5
2F8E
  8
0-1
  6
CONTINUOUS
 62
     3
 10
15261.721100000001
 20
8960.4842270000008
 30
0.0
 40
24.999998999999999
 50
271.87799100002047
 51
91.877991000020657
  0
TEXT
  5
2F8F
  8
0-0
  6
CONTINUOUS
 62
     7
 10
18059.59683799999
 20
6865.4835010000006
 30
0.0
 40
160.0
  1
G.L
 72
     4
 11
18219.59683799999
 21
6945.4835010000006
 31
0.0
  0
TEXT
  5
2F90
  8
0-0
  6
CONTINUOUS
 62
     7
 10
16435.216335999979
 20
6965.4833360000011
 30
0.0
 40
160.0
  1
布基礎天端
 72
     4
 11
16893.883002666651
 21
7045.4833360000011
 31
0.0
  0
TEXT
  5
2F91
  8
2-0
  6
CONTINUOUS
 62
     7
 10
10735.63245599999
 20
3489.4699880000021
 30
0.0
 40
160.0
  1
側 面 立 面 図
 72
     4
 11
11380.96578933333
 21
3569.4699880000021
 31
0.0
  0
TEXT
  5
2F92
  8
2-0
  6
CONTINUOUS
 62
     7
 10
12732.45797447095
 20
3516.6653570000021
 30
0.0
 40
160.0
  1
1
 72
     4
 11
12759.12464113762
 21
3596.6653570000012
 31
0.0
  0
TEXT
  5
2F93
  8
2-0
  6
CONTINUOUS
 62
     7
 10
12975.546691721651
 20
3436.6668250000012
 30
0.0
 40
160.0
  1
80
 72
     4
 11
13095.546691721651
 21
3516.6668250000012
 31
0.0
  0
TEXT
  5
2F94
  8
2-0
  6
CONTINUOUS
 62
     7
 10
12233.45994047095
 20
3489.4699880000021
 30
0.0
 40
160.0
  1
(S=  /   )
 72
     4
 11
12793.45994047095
 21
3569.4699880000021
 31
0.0
  0
LINE
  5
2F95
  8
0-1
  6
CONTINUOUS
 62
     3
 10
20674.466163000001
 20
8585.6371440000057
 30
0.0
 11
23156.969593999991
 21
8585.6371440000057
 31
0.0
  0
LINE
  5
2F9C
  8
0-1
  6
CONTINUOUS
 62
     3
 10
23249.46853899999
 20
6677.6370850000039
 30
0.0
 11
23149.469197999992
 21
6677.6370850000039
 31
0.0
  0
LINE
  5
2F9D
  8
0-1
  6
CONTINUOUS
 62
     3
 10
23149.469197999992
 20
6677.6370850000039
 30
0.0
 11
23149.469197999992
 21
6577.6372500000016
 31
0.0
  0
LINE
  5
2F9E
  8
0-1
  6
CONTINUOUS
 62
     3
 10
23249.46853899999
 20
6577.6372500000016
 30
0.0
 11
23249.46853899999
 21
6677.6370850000039
 31
0.0
  0
LINE
  5
2F9F
  8
0-1
  6
CONTINUOUS
 62
     3
 10
23156.969593999991
 20
8895.6371770000005
 30
0.0
 11
23156.969593999991
 21
6677.6370850000039
 31
0.0
  0
LINE
  5
2FA0
  8
0-1
  6
CONTINUOUS
 62
     3
 10
23111.971177999989
 20
8585.6371440000057
 30
0.0
 11
23111.971177999989
 21
6577.6372500000016
 31
0.0
  0
LINE
  5
2FA1
  8
0-1
  6
CONTINUOUS
 62
     3
 10
23221.971045999981
 20
9025.6371109999982
 30
0.0
 11
23221.971045999981
 21
6677.6370850000039
 31
0.0
  0
LINE
  5
2FA2
  8
0-1
  6
CONTINUOUS
 62
     3
 10
23241.968142999991
 20
8895.6371770000005
 30
0.0
 11
23241.968142999991
 21
6677.6370850000039
 31
0.0
  0
LINE
  5
2FA4
  8
0-1
  6
CONTINUOUS
 62
     3
 10
20581.967218999998
 20
6677.6370850000039
 30
0.0
 11
20681.966559
 21
6677.6370850000039
 31
0.0
  0
LINE
  5
2FA5
  8
0-1
  6
CONTINUOUS
 62
     3
 10
20681.966559
 20
6677.6370850000039
 30
0.0
 11
20681.966559
 21
6577.6372500000016
 31
0.0
  0
LINE
  5
2FA6
  8
0-1
  6
CONTINUOUS
 62
     3
 10
20581.967218999998
 20
6577.6372500000016
 30
0.0
 11
20581.967218999998
 21
6677.6370850000039
 31
0.0
  0
LINE
  5
2FA7
  8
0-1
  6
CONTINUOUS
 62
     3
 10
20719.468539000001
 20
8585.6371440000057
 30
0.0
 11
20719.468539000001
 21
6577.6372500000016
 31
0.0
  0
LINE
  5
2FA8
  8
0-1
  6
CONTINUOUS
 62
     3
 10
20674.466163000001
 20
8895.6371770000005
 30
0.0
 11
20674.466163000001
 21
6677.6370850000039
 31
0.0
  0
LINE
  5
2FA9
  8
0-1
  6
CONTINUOUS
 62
     3
 10
20609.466691000009
 20
9025.6371109999982
 30
0.0
 11
20609.466691000009
 21
6677.6370850000039
 31
0.0
  0
LINE
  5
2FAA
  8
0-1
  6
CONTINUOUS
 62
     3
 10
20589.467615000001
 20
8895.6371770000005
 30
0.0
 11
20589.467615000001
 21
6677.6370850000039
 31
0.0
  0
LINE
  5
2FAB
  8
0-1
  6
CONTINUOUS
 62
     3
 10
20719.468539000001
 20
7097.6379760000009
 30
0.0
 11
23111.971177999989
 21
7097.6379760000009
 31
0.0
  0
LINE
  5
2FAC
  8
0-1
  6
CONTINUOUS
 62
     3
 10
20719.468539000001
 20
7032.6375140000036
 30
0.0
 11
23111.971177999989
 21
7032.6375140000036
 31
0.0
  0
LINE
  5
2FAD
  8
0-1
  6
CONTINUOUS
 62
     3
 10
20719.468539000001
 20
6967.6375470000039
 30
0.0
 11
23111.971177999989
 21
6967.6375470000039
 31
0.0
  0
LINE
  5
2FAE
  8
0-1
  6
CONTINUOUS
 62
     3
 10
20719.468539000001
 20
6902.6370850000021
 30
0.0
 11
23111.971177999989
 21
6902.6370850000021
 31
0.0
  0
LINE
  5
2FAF
  8
0-1
  6
CONTINUOUS
 62
     3
 10
20719.468539000001
 20
6837.6376130000071
 30
0.0
 11
23111.971177999989
 21
6837.6376130000071
 31
0.0
  0
LINE
  5
2FB0
  8
0-1
  6
CONTINUOUS
 62
     3
 10
20719.468539000001
 20
6772.6376460000029
 30
0.0
 11
23111.971177999989
 21
6772.6376460000029
 31
0.0
  0
LINE
  5
2FB1
  8
0-1
  6
CONTINUOUS
 62
     3
 10
20719.468539000001
 20
6707.6376790000022
 30
0.0
 11
23111.971177999989
 21
6707.6376790000022
 31
0.0
  0
LINE
  5
2FB2
  8
0-1
  6
CONTINUOUS
 62
     3
 10
20719.468539000001
 20
6642.6372170000041
 30
0.0
 11
23111.971177999989
 21
6642.6372170000041
 31
0.0
  0
LINE
  5
2FB3
  8
0-1
  6
CONTINUOUS
 62
     3
 10
20719.468539000001
 20
8462.6372830000018
 30
0.0
 11
23111.971177999989
 21
8462.6372830000018
 31
0.0
  0
LINE
  5
2FB4
  8
0-1
  6
CONTINUOUS
 62
     3
 10
20719.468539000001
 20
8397.6373160000057
 30
0.0
 11
23111.971177999989
 21
8397.6373160000057
 31
0.0
  0
LINE
  5
2FB5
  8
0-1
  6
CONTINUOUS
 62
     3
 10
20719.468539000001
 20
8332.6378440000026
 30
0.0
 11
23111.971177999989
 21
8332.6378440000026
 31
0.0
  0
LINE
  5
2FB6
  8
0-1
  6
CONTINUOUS
 62
     3
 10
20719.468539000001
 20
8267.6378770000028
 30
0.0
 11
23111.971177999989
 21
8267.6378770000028
 31
0.0
  0
LINE
  5
2FB7
  8
0-1
  6
CONTINUOUS
 62
     3
 10
20719.468539000001
 20
8202.6379100000049
 30
0.0
 11
23111.971177999989
 21
8202.6379100000049
 31
0.0
  0
LINE
  5
2FB8
  8
0-1
  6
CONTINUOUS
 62
     3
 10
20719.468539000001
 20
8137.6374480000031
 30
0.0
 11
23111.971177999989
 21
8137.6374480000031
 31
0.0
  0
LINE
  5
2FB9
  8
0-1
  6
CONTINUOUS
 62
     3
 10
20719.468539000001
 20
8072.6374810000016
 30
0.0
 11
23111.971177999989
 21
8072.6374810000016
 31
0.0
  0
LINE
  5
2FBA
  8
0-1
  6
CONTINUOUS
 62
     3
 10
20719.468539000001
 20
8007.6380090000039
 30
0.0
 11
23111.971177999989
 21
8007.6380090000039
 31
0.0
  0
LINE
  5
2FBB
  8
0-1
  6
CONTINUOUS
 62
     3
 10
20719.468539000001
 20
7942.6380419999969
 30
0.0
 11
23111.971177999989
 21
7942.6380419999969
 31
0.0
  0
LINE
  5
2FBC
  8
0-1
  6
CONTINUOUS
 62
     3
 10
20719.468539000001
 20
7877.6375800000069
 30
0.0
 11
23111.971177999989
 21
7877.6375800000069
 31
0.0
  0
LINE
  5
2FBD
  8
0-1
  6
CONTINUOUS
 62
     3
 10
20719.468539000001
 20
7812.6376130000026
 30
0.0
 11
23111.971177999989
 21
7812.6376130000026
 31
0.0
  0
LINE
  5
2FBE
  8
0-1
  6
CONTINUOUS
 62
     3
 10
20719.468539000001
 20
7747.637646000002
 30
0.0
 11
23111.971177999989
 21
7747.637646000002
 31
0.0
  0
LINE
  5
2FBF
  8
0-1
  6
CONTINUOUS
 62
     3
 10
20719.468539000001
 20
7682.6371840000038
 30
0.0
 11
23111.971177999989
 21
7682.6371840000038
 31
0.0
  0
LINE
  5
2FC0
  8
0-1
  6
CONTINUOUS
 62
     3
 10
20719.468539000001
 20
7617.6372170000022
 30
0.0
 11
23111.971177999989
 21
7617.6372170000022
 31
0.0
  0
LINE
  5
2FC1
  8
0-1
  6
CONTINUOUS
 62
     3
 10
20719.468539000001
 20
7552.6377450000018
 30
0.0
 11
23111.971177999989
 21
7552.6377450000018
 31
0.0
  0
LINE
  5
2FC2
  8
0-1
  6
CONTINUOUS
 62
     3
 10
20719.468539000001
 20
7487.6377780000057
 30
0.0
 11
23111.971177999989
 21
7487.6377780000057
 31
0.0
  0
LINE
  5
2FC3
  8
0-1
  6
CONTINUOUS
 62
     3
 10
20719.468539000001
 20
7422.6378110000032
 30
0.0
 11
23111.971177999989
 21
7422.6378110000032
 31
0.0
  0
LINE
  5
2FC4
  8
0-1
  6
CONTINUOUS
 62
     3
 10
20719.468539000001
 20
7357.6373490000087
 30
0.0
 11
23111.971177999989
 21
7357.6373490000087
 31
0.0
  0
LINE
  5
2FC5
  8
0-1
  6
CONTINUOUS
 62
     3
 10
20719.468539000001
 20
7292.6373820000017
 30
0.0
 11
23111.971177999989
 21
7292.6373820000017
 31
0.0
  0
LINE
  5
2FC6
  8
0-1
  6
CONTINUOUS
 62
     3
 10
20719.468539000001
 20
7227.6379100000049
 30
0.0
 11
23111.971177999989
 21
7227.6379100000049
 31
0.0
  0
LINE
  5
2FC7
  8
0-1
  6
CONTINUOUS
 62
     3
 10
20719.468539000001
 20
7162.6379430000034
 30
0.0
 11
23111.971177999989
 21
7162.6379430000034
 31
0.0
  0
LINE
  5
2FC8
  8
0-1
  6
CONTINUOUS
 62
     3
 10
20719.468539000001
 20
8517.0973030000023
 30
0.0
 11
23111.971177999989
 21
8517.0973030000023
 31
0.0
  0
LINE
  5
2FC9
  8
0-1
  6
CONTINUOUS
 62
     3
 10
20581.967218999998
 20
6577.6372500000016
 30
0.0
 11
23249.46853899999
 21
6577.6372500000016
 31
0.0
  0
LINE
  5
2FDB
  8
0-2
  6
CONTINUOUS
 62
     4
 10
22279.409877999991
 20
7324.8639440000024
 30
0.0
 11
22179.410537999978
 21
7324.8639440000024
 31
0.0
  0
LINE
  5
2FDC
  8
0-2
  6
CONTINUOUS
 62
     4
 10
21552.025877999979
 20
7324.8639440000024
 30
0.0
 11
21652.025217999992
 21
7324.8639440000024
 31
0.0
  0
LINE
  5
2FDD
  8
0-5
  6
CONTINUOUS
 62
     4
 10
23199.469858
 20
4897.637646000002
 30
0.0
 11
23199.469858
 21
4737.6381080000019
 31
0.0
  0
LINE
  5
2FDE
  8
0-5
  6
CONTINUOUS
 62
     4
 10
20631.969858
 20
4897.637646000002
 30
0.0
 11
20631.969858
 21
4737.6381080000019
 31
0.0
  0
LINE
  5
2FDF
  8
2-0
  6
CENTER2
 62
     6
 10
23199.469858
 20
6314.9848270000039
 30
0.0
 11
23199.469858
 21
7352.1278540000058
 31
0.0
  0
LINE
  5
2FE0
  8
2-0
  6
CENTER2
 62
     6
 10
20631.969858
 20
6314.9848270000039
 30
0.0
 11
20631.969858
 21
7352.1278540000058
 31
0.0
  0
CIRCLE
  5
2FE9
  8
0-5
  6
CONTINUOUS
 62
     4
 10
23199.469858
 20
4537.636953000002
 30
0.0
 40
199.9999949999999
  0
CIRCLE
  5
2FEA
  8
0-5
  6
CONTINUOUS
 62
     4
 10
20631.969858
 20
4537.636953000002
 30
0.0
 40
199.9999949999999
  0
TEXT
  5
2FEB
  8
0-5
  6
CONTINUOUS
 62
     7
 10
23147.556982999991
 20
4448.1619710000023
 30
0.0
 40
160.0
  1
2
 72
     4
 11
23200.89031633332
 21
4528.1619710000023
 31
0.0
  0
TEXT
  5
2FEC
  8
0-5
  6
CONTINUOUS
 62
     7
 10
20580.056983999992
 20
4448.1619710000023
 30
0.0
 40
160.0
  1
1
 72
     4
 11
20606.72365066666
 21
4528.1619710000023
 31
0.0
  0
TEXT
  5
2FED
  8
2-0
  6
CONTINUOUS
 62
     7
 10
20572.625369000009
 20
3729.2513000000008
 30
0.0
 40
160.0
  1
正 面 立 面 図
 72
     4
 11
21217.958702333341
 21
3809.2513000000008
 31
0.0
  0
CIRCLE
  5
2FEE
  8
0-4
  6
CONTINUOUS
 62
     4
 10
21915.719858
 20
7063.6936859999987
 30
0.0
 40
18.487504999999981
  0
TEXT
  5
2FEF
  8
2-0
  6
CONTINUOUS
 62
     7
 10
22569.450887470972
 20
3756.4466690000022
 30
0.0
 40
160.0
  1
1
 72
     4
 11
22596.117554137629
 21
3836.4466690000022
 31
0.0
  0
TEXT
  5
2FF0
  8
2-0
  6
CONTINUOUS
 62
     7
 10
22812.53960472166
 20
3676.4481370000012
 30
0.0
 40
160.0
  1
80
 72
     4
 11
22932.53960472166
 21
3756.4481370000012
 31
0.0
  0
TEXT
  5
2FF1
  8
2-0
  6
CONTINUOUS
 62
     7
 10
22070.452853470961
 20
3729.2513000000008
 30
0.0
 40
160.0
  1
(S=  /   )
 72
     4
 11
22630.452853470961
 21
3809.2513000000008
 31
0.0
  0
LINE
  5
2FF2
  8
SUNPOU
  6
CONTINUOUS
 10
20349.469857999989
 20
5377.6372500000098
 30
0.0
 11
19991.51485127888
 21
5377.6372500000098
 31
0.0
  0
LINE
  5
2FF3
  8
SUNPOU
  6
CONTINUOUS
 10
23481.969858
 20
5377.6372500000098
 30
0.0
 11
23839.924864721092
 21
5377.6372500000098
 31
0.0
  0
TEXT
  5
2FF4
  8
0-5
  6
CONTINUOUS
 62
     7
 10
20013.79193900001
 20
7306.997496742003
 30
0.0
 40
160.0
  1
(2131.5)
 50
90.0
 72
     4
 11
19933.79193900001
 21
7760.330830075337
 31
0.0
  0
LINE
  5
2FF5
  8
0-1
  6
CONTINUOUS
 62
     3
 10
9901.2237380000206
 20
6727.6372500000016
 30
0.0
 11
9901.2237380000206
 21
8588.6831290000027
 31
0.0
  0
LINE
  5
2FF6
  8
0-1
  6
CONTINUOUS
 62
     3
 10
9886.2249260000153
 20
6727.6372500000016
 30
0.0
 11
9886.2249260000153
 21
8588.6831290000027
 31
0.0
  0
LINE
  5
2FF7
  8
0-5
  6
CONTINUOUS
 62
     4
 10
15134.223276999999
 20
4897.637646000002
 30
0.0
 11
15134.223276999999
 21
4737.6381080000019
 31
0.0
  0
LINE
  5
2FF8
  8
0-5
  6
CONTINUOUS
 62
     4
 10
12216.223276999999
 20
4897.637646000002
 30
0.0
 11
12216.223276999999
 21
4737.6381080000019
 31
0.0
  0
LINE
  5
2FF9
  8
0-5
  6
CONTINUOUS
 62
     4
 10
9648.7232769999955
 20
4897.637646000002
 30
0.0
 11
9648.7232769999955
 21
4737.6381080000019
 31
0.0
  0
CIRCLE
  5
2FFA
  8
0-5
  6
CONTINUOUS
 62
     4
 10
12216.223276999999
 20
4537.6369530000047
 30
0.0
 40
199.9999949999999
  0
CIRCLE
  5
2FFB
  8
0-5
  6
CONTINUOUS
 62
     4
 10
15134.223276999999
 20
4537.6369530000047
 30
0.0
 40
199.9999949999999
  0
CIRCLE
  5
2FFC
  8
0-5
  6
CONTINUOUS
 62
     4
 10
9648.7232769999955
 20
4537.6369530000047
 30
0.0
 40
199.9999949999999
  0
TEXT
  5
2FFD
  8
0-5
  6
CONTINUOUS
 62
     7
 10
15087.26711699999
 20
4454.4261570000053
 30
0.0
 40
160.0
  1
A
 72
     4
 11
15140.60045033333
 21
4534.4261570000053
 31
0.0
  0
TEXT
  5
2FFE
  8
0-5
  6
CONTINUOUS
 62
     7
 10
12169.267116999979
 20
4454.4261570000053
 30
0.0
 40
160.0
  1
B
 72
     4
 11
12222.600450333321
 21
4534.4261570000053
 31
0.0
  0
TEXT
  5
2FFF
  8
0-5
  6
CONTINUOUS
 62
     7
 10
9601.7671170000031
 20
4454.4261570000053
 30
0.0
 40
160.0
  1
C
 72
     4
 11
9655.100450333337
 21
4534.4261570000053
 31
0.0
  0
TEXT
  5
3000
  8
2-0
  6
CONTINUOUS
 62
     7
 10
20680.427972000009
 20
12038.053153000001
 30
0.0
 40
160.0
  1
平　面　図
 72
     4
 11
21133.761305333341
 21
12112.71981966667
 31
0.0
  0
TEXT
  5
3001
  8
2-0
  6
CONTINUOUS
 62
     7
 10
22485.25349047095
 20
12059.91518866667
 30
0.0
 40
160.0
  1
1
 72
     4
 11
22511.920157137622
 21
12139.91518866667
 31
0.0
  0
TEXT
  5
3002
  8
2-0
  6
CONTINUOUS
 62
     7
 10
22728.342207721649
 20
11979.91665666667
 30
0.0
 40
160.0
  1
80
 72
     4
 11
22848.342207721649
 21
12059.91665666667
 31
0.0
  0
TEXT
  5
3003
  8
2-0
  6
CONTINUOUS
 62
     7
 10
21986.255456470961
 20
12032.71981966667
 30
0.0
 40
160.0
  1
(S=  /   )
 72
     4
 11
22546.255456470961
 21
12112.71981966667
 31
0.0
  0
LINE
  5
3004
  8
2-0
  6
CONTINUOUS
 62
     6
 10
21516.310942
 20
13628.933841
 30
0.0
 11
22516.304343999949
 21
13628.933841
 31
0.0
  0
LINE
  5
3005
  8
2-0
  6
CONTINUOUS
 62
     6
 10
22984.244720999999
 20
14099.354555
 30
0.0
 11
22516.304343999949
 21
13628.933841
 31
0.0
  0
LINE
  5
3006
  8
2-0
  6
CONTINUOUS
 62
     6
 10
22945.604517999978
 20
17290.96220200001
 30
0.0
 11
22640.90909999999
 21
17394.615733000021
 31
0.0
  0
LINE
  5
3007
  8
2-0
  6
CONTINUOUS
 62
     6
 10
23100.62655699997
 20
16801.340158000021
 30
0.0
 11
22640.90909999999
 21
16557.426846999999
 31
0.0
  0
LINE
  5
3008
  8
2-0
  6
CONTINUOUS
 62
     6
 10
21720.906064999981
 20
16557.426846999999
 30
0.0
 11
22640.90909999999
 21
16557.426846999999
 31
0.0
  0
LINE
  5
3009
  8
2-0
  6
CONTINUOUS
 62
     6
 10
21440.915037999988
 20
17394.615733000021
 30
0.0
 11
22640.90909999999
 21
17394.615733000021
 31
0.0
  0
LINE
  5
300A
  8
2-0
  6
CONTINUOUS
 62
     6
 10
23016.80384199999
 20
14421.03820099999
 30
0.0
 11
22640.90909999999
 21
14601.982035999999
 31
0.0
  0
LINE
  5
300B
  8
2-0
  6
CONTINUOUS
 62
     6
 10
22120.907383999991
 20
14601.982035999999
 30
0.0
 11
22640.90909999999
 21
14601.982035999999
 31
0.0
  0
LINE
  5
300C
  8
2-0
  6
CONTINUOUS
 62
     4
 10
20631.969858
 20
19876.935491000011
 30
0.0
 11
20631.969858
 21
20606.932455999999
 31
0.0
  0
LINE
  5
300D
  8
2-0
  6
CONTINUOUS
 62
     3
 10
23211.970517999991
 20
19687.93303700001
 30
0.0
 11
23211.970517999991
 21
19681.937075000009
 31
0.0
  0
LINE
  5
300E
  8
2-0
  6
CONTINUOUS
 62
     3
 10
23211.970517999991
 20
19681.937075000009
 30
0.0
 11
23241.96814199998
 21
19681.937075000009
 31
0.0
  0
LINE
  5
300F
  8
2-0
  6
CONTINUOUS
 62
     3
 10
23241.96814199998
 20
19711.936678999991
 30
0.0
 11
23160.96624199998
 21
19711.936678999991
 31
0.0
  0
LINE
  5
3010
  8
2-0
  6
CONTINUOUS
 62
     3
 10
23211.970517999991
 20
19671.639619000001
 30
0.0
 11
23241.96814199998
 21
19671.639619000001
 31
0.0
  0
LINE
  5
3011
  8
2-0
  6
CONTINUOUS
 62
     3
 10
23211.970517999991
 20
19689.64136100002
 30
0.0
 11
23211.970517999991
 21
19671.639619000001
 31
0.0
  0
LINE
  5
3012
  8
2-0
  6
CONTINUOUS
 62
     3
 10
23236.967877999989
 20
19689.64136100002
 30
0.0
 11
23211.970517999991
 21
19689.64136100002
 31
0.0
  0
LINE
  5
3013
  8
2-0
  6
CONTINUOUS
 62
     3
 10
23236.967877999989
 20
19684.633179000011
 30
0.0
 11
23236.967877999989
 21
19689.64136100002
 31
0.0
  0
LINE
  5
3014
  8
2-0
  6
CONTINUOUS
 62
     3
 10
23229.966321
 20
19684.633179000011
 30
0.0
 11
23236.967877999989
 21
19684.633179000011
 31
0.0
  0
LINE
  5
3015
  8
2-0
  6
CONTINUOUS
 62
     3
 10
23129.670052999991
 20
19784.933406
 30
0.0
 11
23129.670052999991
 21
19791.938922000008
 31
0.0
  0
LINE
  5
3016
  8
2-0
  6
CONTINUOUS
 62
     3
 10
23129.670052999991
 20
19791.938922000008
 30
0.0
 11
23134.670316999971
 21
19791.938922000008
 31
0.0
  0
LINE
  5
3017
  8
2-0
  6
CONTINUOUS
 62
     3
 10
23134.670316999971
 20
19791.938922000008
 30
0.0
 11
23134.670316999971
 21
19766.92968500001
 31
0.0
  0
LINE
  5
3018
  8
2-0
  6
CONTINUOUS
 62
     3
 10
23134.670316999971
 20
19766.92968500001
 30
0.0
 11
23116.668574999971
 21
19766.92968500001
 31
0.0
  0
LINE
  5
3019
  8
2-0
  6
CONTINUOUS
 62
     3
 10
23116.668574999971
 20
19766.92968500001
 30
0.0
 11
23116.668574999971
 21
19796.933248000008
 31
0.0
  0
LINE
  5
301A
  8
2-0
  6
CONTINUOUS
 62
     3
 10
23126.966030999989
 20
19796.933248000008
 30
0.0
 11
23241.96814199998
 21
19796.933248000008
 31
0.0
  0
LINE
  5
301B
  8
2-0
  6
CONTINUOUS
 62
     3
 10
23126.966030999989
 20
19766.92968500001
 30
0.0
 11
23126.966030999989
 21
19796.933248000008
 31
0.0
  0
LINE
  5
301C
  8
2-0
  6
CONTINUOUS
 62
     3
 10
23132.967930999988
 20
19766.92968500001
 30
0.0
 11
23126.966030999989
 21
19766.92968500001
 31
0.0
  0
LINE
  5
301D
  8
2-0
  6
CONTINUOUS
 62
     3
 10
23229.966321
 20
19331.336356499989
 30
0.0
 11
23236.967877999989
 21
19331.336356499989
 31
0.0
  0
LINE
  5
301E
  8
2-0
  6
CONTINUOUS
 62
     3
 10
23236.967877999989
 20
19331.336356499989
 30
0.0
 11
23236.967877999989
 21
19336.336620499991
 31
0.0
  0
LINE
  5
301F
  8
2-0
  6
CONTINUOUS
 62
     3
 10
23236.967877999989
 20
19336.336620499991
 30
0.0
 11
23211.970517999991
 21
19336.336620499991
 31
0.0
  0
LINE
  5
3020
  8
2-0
  6
CONTINUOUS
 62
     3
 10
23211.970517999991
 20
19336.336620499991
 30
0.0
 11
23211.970517999991
 21
19318.3408165
 31
0.0
  0
LINE
  5
3021
  8
2-0
  6
CONTINUOUS
 62
     3
 10
23211.970517999991
 20
19318.3408165
 30
0.0
 11
23241.96814199998
 21
19318.3408165
 31
0.0
  0
LINE
  5
3022
  8
2-0
  6
CONTINUOUS
 62
     3
 10
23211.970517999991
 20
19334.432323499961
 30
0.0
 11
23211.970517999991
 21
19328.4343825
 31
0.0
  0
LINE
  5
3023
  8
2-0
  6
CONTINUOUS
 62
     3
 10
23211.970517999991
 20
19328.4343825
 30
0.0
 11
23241.96814199998
 21
19328.4343825
 31
0.0
  0
LINE
  5
3024
  8
2-0
  6
CONTINUOUS
 62
     3
 10
23241.96814199998
 20
19328.4343825
 30
0.0
 11
23241.96814199998
 21
19365.4355435
 31
0.0
  0
LINE
  5
3025
  8
2-0
  6
CONTINUOUS
 62
     3
 10
23211.970517999991
 20
19365.4355435
 30
0.0
 11
23241.96814199998
 21
19365.4355435
 31
0.0
  0
LINE
  5
3026
  8
2-0
  6
CONTINUOUS
 62
     3
 10
23211.970517999991
 20
19359.431663499981
 30
0.0
 11
23211.970517999991
 21
19365.4355435
 31
0.0
  0
LINE
  5
3027
  8
2-0
  6
CONTINUOUS
 62
     3
 10
23211.970517999991
 20
19375.531088499989
 30
0.0
 11
23241.96814199998
 21
19375.531088499989
 31
0.0
  0
LINE
  5
3028
  8
2-0
  6
CONTINUOUS
 62
     3
 10
23211.970517999991
 20
19357.529346499989
 30
0.0
 11
23211.970517999991
 21
19375.531088499989
 31
0.0
  0
LINE
  5
3029
  8
2-0
  6
CONTINUOUS
 62
     3
 10
23236.967877999989
 20
19357.529346499989
 30
0.0
 11
23211.970517999991
 21
19357.529346499989
 31
0.0
  0
LINE
  5
302A
  8
2-0
  6
CONTINUOUS
 62
     3
 10
23236.967877999989
 20
19362.529610500002
 30
0.0
 11
23236.967877999989
 21
19357.529346499989
 31
0.0
  0
LINE
  5
302B
  8
2-0
  6
CONTINUOUS
 62
     3
 10
23229.966321
 20
19362.529610500002
 30
0.0
 11
23236.967877999989
 21
19362.529610500002
 31
0.0
  0
LINE
  5
302C
  8
2-0
  6
CONTINUOUS
 62
     3
 10
23229.966321
 20
18630.335367
 30
0.0
 11
23236.967877999989
 21
18630.335367
 31
0.0
  0
LINE
  5
302D
  8
2-0
  6
CONTINUOUS
 62
     3
 10
23236.967877999989
 20
18630.335367
 30
0.0
 11
23236.967877999989
 21
18635.341569
 31
0.0
  0
LINE
  5
302E
  8
2-0
  6
CONTINUOUS
 62
     3
 10
23236.967877999989
 20
18635.341569
 30
0.0
 11
23211.970517999991
 21
18635.341569
 31
0.0
  0
LINE
  5
302F
  8
2-0
  6
CONTINUOUS
 62
     3
 10
23211.970517999991
 20
18635.341569
 30
0.0
 11
23211.970517999991
 21
18617.339827
 31
0.0
  0
LINE
  5
3030
  8
2-0
  6
CONTINUOUS
 62
     3
 10
23211.970517999991
 20
18617.339827
 30
0.0
 11
23241.96814199998
 21
18617.339827
 31
0.0
  0
LINE
  5
3031
  8
2-0
  6
CONTINUOUS
 62
     3
 10
23211.970517999991
 20
18633.43133399999
 30
0.0
 11
23211.970517999991
 21
18627.435372
 31
0.0
  0
LINE
  5
3032
  8
2-0
  6
CONTINUOUS
 62
     3
 10
23211.970517999991
 20
18627.435372
 30
0.0
 11
23241.96814199998
 21
18627.435372
 31
0.0
  0
LINE
  5
3033
  8
2-0
  6
CONTINUOUS
 62
     3
 10
23241.96814199998
 20
18627.435372
 30
0.0
 11
23241.96814199998
 21
18664.434553999989
 31
0.0
  0
LINE
  5
3034
  8
2-0
  6
CONTINUOUS
 62
     3
 10
23211.970517999991
 20
18664.434553999989
 30
0.0
 11
23241.96814199998
 21
18664.434553999989
 31
0.0
  0
LINE
  5
3035
  8
2-0
  6
CONTINUOUS
 62
     3
 10
23211.970517999991
 20
18658.43859200001
 30
0.0
 11
23211.970517999991
 21
18664.434553999989
 31
0.0
  0
LINE
  5
3036
  8
2-0
  6
CONTINUOUS
 62
     3
 10
23211.970517999991
 20
18674.530099
 30
0.0
 11
23241.96814199998
 21
18674.530099
 31
0.0
  0
LINE
  5
3037
  8
2-0
  6
CONTINUOUS
 62
     3
 10
23211.970517999991
 20
18656.528356999988
 30
0.0
 11
23211.970517999991
 21
18674.530099
 31
0.0
  0
LINE
  5
3038
  8
2-0
  6
CONTINUOUS
 62
     3
 10
23236.967877999989
 20
18656.528356999988
 30
0.0
 11
23211.970517999991
 21
18656.528356999988
 31
0.0
  0
LINE
  5
3039
  8
2-0
  6
CONTINUOUS
 62
     3
 10
23236.967877999989
 20
18661.534559
 30
0.0
 11
23236.967877999989
 21
18656.528356999988
 31
0.0
  0
LINE
  5
303A
  8
2-0
  6
CONTINUOUS
 62
     3
 10
23229.966321
 20
18661.534559
 30
0.0
 11
23236.967877999989
 21
18661.534559
 31
0.0
  0
LINE
  5
303B
  8
2-0
  6
CONTINUOUS
 62
     3
 10
23229.966321
 20
17960.528621000001
 30
0.0
 11
23236.967877999989
 21
17960.528621000001
 31
0.0
  0
LINE
  5
303C
  8
2-0
  6
CONTINUOUS
 62
     3
 10
23236.967877999989
 20
17960.528621000001
 30
0.0
 11
23236.967877999989
 21
17955.540234000011
 31
0.0
  0
LINE
  5
303D
  8
2-0
  6
CONTINUOUS
 62
     3
 10
23236.967877999989
 20
17955.540234000011
 30
0.0
 11
23211.970517999991
 21
17955.540234000011
 31
0.0
  0
LINE
  5
303E
  8
2-0
  6
CONTINUOUS
 62
     3
 10
23211.970517999991
 20
17955.540234000011
 30
0.0
 11
23211.970517999991
 21
17973.536037000002
 31
0.0
  0
LINE
  5
303F
  8
2-0
  6
CONTINUOUS
 62
     3
 10
23211.970517999991
 20
17973.536037000002
 30
0.0
 11
23241.96814199998
 21
17973.536037000002
 31
0.0
  0
LINE
  5
3040
  8
2-0
  6
CONTINUOUS
 62
     3
 10
23211.970517999991
 20
17957.438591999991
 30
0.0
 11
23211.970517999991
 21
17963.434553999989
 31
0.0
  0
LINE
  5
3041
  8
2-0
  6
CONTINUOUS
 62
     3
 10
23211.970517999991
 20
17963.434553999989
 30
0.0
 11
23241.96814199998
 21
17963.434553999989
 31
0.0
  0
LINE
  5
3042
  8
2-0
  6
CONTINUOUS
 62
     3
 10
23241.96814199998
 20
17963.434553999989
 30
0.0
 11
23241.96814199998
 21
17926.435372000011
 31
0.0
  0
LINE
  5
3043
  8
2-0
  6
CONTINUOUS
 62
     3
 10
23211.970517999991
 20
17926.435372000011
 30
0.0
 11
23241.96814199998
 21
17926.435372000011
 31
0.0
  0
LINE
  5
3044
  8
2-0
  6
CONTINUOUS
 62
     3
 10
23211.970517999991
 20
17932.437272999989
 30
0.0
 11
23211.970517999991
 21
17926.435372000011
 31
0.0
  0
LINE
  5
3045
  8
2-0
  6
CONTINUOUS
 62
     3
 10
23211.970517999991
 20
17916.345765999991
 30
0.0
 11
23241.96814199998
 21
17916.345765999991
 31
0.0
  0
LINE
  5
3046
  8
2-0
  6
CONTINUOUS
 62
     3
 10
23211.970517999991
 20
17934.341569
 30
0.0
 11
23211.970517999991
 21
17916.345765999991
 31
0.0
  0
LINE
  5
3047
  8
2-0
  6
CONTINUOUS
 62
     3
 10
23236.967877999989
 20
17934.341569
 30
0.0
 11
23211.970517999991
 21
17934.341569
 31
0.0
  0
LINE
  5
3048
  8
2-0
  6
CONTINUOUS
 62
     3
 10
23236.967877999989
 20
17929.341305999991
 30
0.0
 11
23236.967877999989
 21
17934.341569
 31
0.0
  0
LINE
  5
3049
  8
2-0
  6
CONTINUOUS
 62
     3
 10
23229.966321
 20
17929.341305999991
 30
0.0
 11
23236.967877999989
 21
17929.341305999991
 31
0.0
  0
LINE
  5
304A
  8
2-0
  6
CONTINUOUS
 62
     3
 10
23239.082004
 20
17209.432192
 30
0.0
 11
23239.082004
 21
17229.433247000001
 31
0.0
  0
LINE
  5
304B
  8
2-0
  6
CONTINUOUS
 62
     3
 10
23239.082004
 20
17229.433247000001
 30
0.0
 11
23154.085434999979
 21
17229.433247000001
 31
0.0
  0
LINE
  5
304C
  8
2-0
  6
CONTINUOUS
 62
     3
 10
23229.966321
 20
17256.039957000012
 30
0.0
 11
23236.967877999989
 21
17256.039957000012
 31
0.0
  0
LINE
  5
304D
  8
2-0
  6
CONTINUOUS
 62
     3
 10
23236.967877999989
 20
17256.039957000012
 30
0.0
 11
23236.967877999989
 21
17251.045631000012
 31
0.0
  0
LINE
  5
304E
  8
2-0
  6
CONTINUOUS
 62
     3
 10
23236.967877999989
 20
17251.045631000012
 30
0.0
 11
23211.970517999991
 21
17251.045631000012
 31
0.0
  0
LINE
  5
304F
  8
2-0
  6
CONTINUOUS
 62
     3
 10
23211.970517999991
 20
17251.045631000012
 30
0.0
 11
23211.970517999991
 21
17269.041434999999
 31
0.0
  0
LINE
  5
3050
  8
2-0
  6
CONTINUOUS
 62
     3
 10
23211.970517999991
 20
17269.041434999999
 30
0.0
 11
23241.96814199998
 21
17269.041434999999
 31
0.0
  0
LINE
  5
3051
  8
2-0
  6
CONTINUOUS
 62
     3
 10
23211.970517999991
 20
17259.432851000001
 30
0.0
 11
23211.970517999991
 21
17253.430950999991
 31
0.0
  0
LINE
  5
3052
  8
2-0
  6
CONTINUOUS
 62
     3
 10
23241.96814199998
 20
17259.432851000001
 30
0.0
 11
23211.970517999991
 21
17259.432851000001
 31
0.0
  0
LINE
  5
3053
  8
2-0
  6
CONTINUOUS
 62
     3
 10
23241.96814199998
 20
17269.041434999999
 30
0.0
 11
23241.96814199998
 21
17916.345765999991
 31
0.0
  0
LINE
  5
3054
  8
2-0
  6
CONTINUOUS
 62
     3
 10
23241.96814199998
 20
17973.536037000002
 30
0.0
 11
23241.96814199998
 21
18617.339827
 31
0.0
  0
LINE
  5
3055
  8
2-0
  6
CONTINUOUS
 62
     3
 10
23241.96814199998
 20
17114.43113600001
 30
0.0
 11
23211.970517999991
 21
17114.43113600001
 31
0.0
  0
LINE
  5
3056
  8
2-0
  6
CONTINUOUS
 62
     3
 10
23211.970517999991
 20
17114.43113600001
 30
0.0
 11
23211.970517999991
 21
17120.433035999991
 31
0.0
  0
LINE
  5
3057
  8
2-0
  6
CONTINUOUS
 62
     3
 10
23154.085434999979
 20
17144.436678999991
 30
0.0
 11
23239.082004
 21
17144.436678999991
 31
0.0
  0
LINE
  5
3058
  8
2-0
  6
CONTINUOUS
 62
     3
 10
23239.082004
 20
17144.436678999991
 30
0.0
 11
23239.082004
 21
17164.431796000012
 31
0.0
  0
LINE
  5
3059
  8
2-0
  6
CONTINUOUS
 62
     3
 10
23211.970517999991
 20
17104.822553000002
 30
0.0
 11
23241.96814199998
 21
17104.822553000002
 31
0.0
  0
LINE
  5
305A
  8
2-0
  6
CONTINUOUS
 62
     3
 10
23211.970517999991
 20
17122.818355999982
 30
0.0
 11
23211.970517999991
 21
17104.822553000002
 31
0.0
  0
LINE
  5
305B
  8
2-0
  6
CONTINUOUS
 62
     3
 10
23236.967877999989
 20
17122.818355999982
 30
0.0
 11
23211.970517999991
 21
17122.818355999982
 31
0.0
  0
LINE
  5
305C
  8
2-0
  6
CONTINUOUS
 62
     3
 10
23236.967877999989
 20
17117.818092000009
 30
0.0
 11
23236.967877999989
 21
17122.818355999982
 31
0.0
  0
LINE
  5
305D
  8
2-0
  6
CONTINUOUS
 62
     3
 10
23229.966321
 20
17117.818092000009
 30
0.0
 11
23236.967877999989
 21
17117.818092000009
 31
0.0
  0
LINE
  5
305E
  8
2-0
  6
CONTINUOUS
 62
     3
 10
23229.966321
 20
16413.335861499982
 30
0.0
 11
23236.967877999989
 21
16413.335861499982
 31
0.0
  0
LINE
  5
305F
  8
2-0
  6
CONTINUOUS
 62
     3
 10
23236.967877999989
 20
16413.335861499982
 30
0.0
 11
23236.967877999989
 21
16418.336125499991
 31
0.0
  0
LINE
  5
3060
  8
2-0
  6
CONTINUOUS
 62
     3
 10
23236.967877999989
 20
16418.336125499991
 30
0.0
 11
23211.970517999991
 21
16418.336125499991
 31
0.0
  0
LINE
  5
3061
  8
2-0
  6
CONTINUOUS
 62
     3
 10
23211.970517999991
 20
16418.336125499991
 30
0.0
 11
23211.970517999991
 21
16400.334383500001
 31
0.0
  0
LINE
  5
3062
  8
2-0
  6
CONTINUOUS
 62
     3
 10
23211.970517999991
 20
16400.334383500001
 30
0.0
 11
23241.96814199998
 21
16400.334383500001
 31
0.0
  0
LINE
  5
3063
  8
2-0
  6
CONTINUOUS
 62
     3
 10
23211.970517999991
 20
16416.431828500001
 30
0.0
 11
23211.970517999991
 21
16410.4348775
 31
0.0
  0
LINE
  5
3064
  8
2-0
  6
CONTINUOUS
 62
     3
 10
23211.970517999991
 20
16410.4348775
 30
0.0
 11
23241.96814199998
 21
16410.4348775
 31
0.0
  0
LINE
  5
3065
  8
2-0
  6
CONTINUOUS
 62
     3
 10
23241.96814199998
 20
16410.4348775
 30
0.0
 11
23241.96814199998
 21
16447.4350485
 31
0.0
  0
LINE
  5
3066
  8
2-0
  6
CONTINUOUS
 62
     3
 10
23211.970517999991
 20
16447.4350485
 30
0.0
 11
23241.96814199998
 21
16447.4350485
 31
0.0
  0
LINE
  5
3067
  8
2-0
  6
CONTINUOUS
 62
     3
 10
23211.970517999991
 20
16441.432158499989
 30
0.0
 11
23211.970517999991
 21
16447.4350485
 31
0.0
  0
LINE
  5
3068
  8
2-0
  6
CONTINUOUS
 62
     3
 10
23211.970517999991
 20
16457.5305935
 30
0.0
 11
23241.96814199998
 21
16457.5305935
 31
0.0
  0
LINE
  5
3069
  8
2-0
  6
CONTINUOUS
 62
     3
 10
23211.970517999991
 20
16439.522912500001
 30
0.0
 11
23211.970517999991
 21
16457.5305935
 31
0.0
  0
LINE
  5
306A
  8
2-0
  6
CONTINUOUS
 62
     3
 10
23236.967877999989
 20
16439.522912500001
 30
0.0
 11
23211.970517999991
 21
16439.522912500001
 31
0.0
  0
LINE
  5
306B
  8
2-0
  6
CONTINUOUS
 62
     3
 10
23236.967877999989
 20
16444.529115500001
 30
0.0
 11
23236.967877999989
 21
16439.522912500001
 31
0.0
  0
LINE
  5
306C
  8
2-0
  6
CONTINUOUS
 62
     3
 10
23229.966321
 20
16444.529115500001
 30
0.0
 11
23236.967877999989
 21
16444.529115500001
 31
0.0
  0
LINE
  5
306D
  8
2-0
  6
CONTINUOUS
 62
     3
 10
23229.966321
 20
15743.76913200001
 30
0.0
 11
23236.967877999989
 21
15743.76913200001
 31
0.0
  0
LINE
  5
306E
  8
2-0
  6
CONTINUOUS
 62
     3
 10
23236.967877999989
 20
15743.76913200001
 30
0.0
 11
23236.967877999989
 21
15738.774807000011
 31
0.0
  0
LINE
  5
306F
  8
2-0
  6
CONTINUOUS
 62
     3
 10
23236.967877999989
 20
15738.774807000011
 30
0.0
 11
23211.970517999991
 21
15738.774807000011
 31
0.0
  0
LINE
  5
3070
  8
2-0
  6
CONTINUOUS
 62
     3
 10
23211.970517999991
 20
15738.774807000011
 30
0.0
 11
23211.970517999991
 21
15756.77061000001
 31
0.0
  0
LINE
  5
3071
  8
2-0
  6
CONTINUOUS
 62
     3
 10
23211.970517999991
 20
15756.77061000001
 30
0.0
 11
23241.96814199998
 21
15756.77061000001
 31
0.0
  0
LINE
  5
3072
  8
2-0
  6
CONTINUOUS
 62
     3
 10
23211.970517999991
 20
15740.673165
 30
0.0
 11
23211.970517999991
 21
15746.67506500001
 31
0.0
  0
LINE
  5
3073
  8
2-0
  6
CONTINUOUS
 62
     3
 10
23211.970517999991
 20
15746.67506500001
 30
0.0
 11
23241.96814199998
 21
15746.67506500001
 31
0.0
  0
LINE
  5
3074
  8
2-0
  6
CONTINUOUS
 62
     3
 10
23241.96814199998
 20
15709.67588400002
 30
0.0
 11
23241.96814199998
 21
15746.67506500001
 31
0.0
  0
LINE
  5
3075
  8
2-0
  6
CONTINUOUS
 62
     3
 10
23211.970517999991
 20
15709.67588400002
 30
0.0
 11
23241.96814199998
 21
15709.67588400002
 31
0.0
  0
LINE
  5
3076
  8
2-0
  6
CONTINUOUS
 62
     3
 10
23211.970517999991
 20
15715.67283500001
 30
0.0
 11
23211.970517999991
 21
15709.67588400002
 31
0.0
  0
LINE
  5
3077
  8
2-0
  6
CONTINUOUS
 62
     3
 10
23211.970517999991
 20
15699.57440000001
 30
0.0
 11
23241.96814199998
 21
15699.57440000001
 31
0.0
  0
LINE
  5
3078
  8
2-0
  6
CONTINUOUS
 62
     3
 10
23211.970517999991
 20
15717.582081
 30
0.0
 11
23211.970517999991
 21
15699.57440000001
 31
0.0
  0
LINE
  5
3079
  8
2-0
  6
CONTINUOUS
 62
     3
 10
23236.967877999989
 20
15717.582081
 30
0.0
 11
23211.970517999991
 21
15717.582081
 31
0.0
  0
LINE
  5
307A
  8
2-0
  6
CONTINUOUS
 62
     3
 10
23236.967877999989
 20
15712.58181700002
 30
0.0
 11
23236.967877999989
 21
15717.582081
 31
0.0
  0
LINE
  5
307B
  8
2-0
  6
CONTINUOUS
 62
     3
 10
23229.966321
 20
15712.58181700002
 30
0.0
 11
23236.967877999989
 21
15712.58181700002
 31
0.0
  0
LINE
  5
307C
  8
2-0
  6
CONTINUOUS
 62
     3
 10
23241.96814199998
 20
17104.822553000002
 30
0.0
 11
23241.96814199998
 21
16457.5305935
 31
0.0
  0
LINE
  5
307D
  8
2-0
  6
CONTINUOUS
 62
     3
 10
23241.96814199998
 20
17259.432851000001
 30
0.0
 11
23241.96814199998
 21
17114.43113600001
 31
0.0
  0
LINE
  5
307E
  8
2-0
  6
CONTINUOUS
 62
     3
 10
23154.085434999979
 20
17229.433247000001
 30
0.0
 11
23154.085434999979
 21
17144.436678999991
 31
0.0
  0
LINE
  5
307F
  8
2-0
  6
CONTINUOUS
 62
     6
 10
21615.876767999991
 20
18997.880512499982
 30
0.0
 11
22640.90909999999
 21
18997.880512499982
 31
0.0
  0
LINE
  5
3080
  8
2-0
  6
CONTINUOUS
 62
     3
 10
23229.966321
 20
15011.34081
 30
0.0
 11
23236.967877999989
 21
15011.34081
 31
0.0
  0
LINE
  5
3081
  8
2-0
  6
CONTINUOUS
 62
     3
 10
23236.967877999989
 20
15011.34081
 30
0.0
 11
23236.967877999989
 21
15016.335136000011
 31
0.0
  0
LINE
  5
3082
  8
2-0
  6
CONTINUOUS
 62
     3
 10
23236.967877999989
 20
15016.335136000011
 30
0.0
 11
23211.970517999991
 21
15016.335136000011
 31
0.0
  0
LINE
  5
3083
  8
2-0
  6
CONTINUOUS
 62
     3
 10
23211.970517999991
 20
15016.335136000011
 30
0.0
 11
23211.970517999991
 21
14998.339332
 31
0.0
  0
LINE
  5
3084
  8
2-0
  6
CONTINUOUS
 62
     3
 10
23211.970517999991
 20
14998.339332
 30
0.0
 11
23241.96814199998
 21
14998.339332
 31
0.0
  0
LINE
  5
3085
  8
2-0
  6
CONTINUOUS
 62
     3
 10
23211.970517999991
 20
15014.43776700001
 30
0.0
 11
23211.970517999991
 21
15008.434877000011
 31
0.0
  0
LINE
  5
3086
  8
2-0
  6
CONTINUOUS
 62
     3
 10
23211.970517999991
 20
15008.434877000011
 30
0.0
 11
23241.96814199998
 21
15008.434877000011
 31
0.0
  0
LINE
  5
3087
  8
2-0
  6
CONTINUOUS
 62
     3
 10
23241.96814199998
 20
15008.434877000011
 30
0.0
 11
23241.96814199998
 21
15045.435048999991
 31
0.0
  0
LINE
  5
3088
  8
2-0
  6
CONTINUOUS
 62
     3
 10
23211.970517999991
 20
15045.435048999991
 30
0.0
 11
23241.96814199998
 21
15045.435048999991
 31
0.0
  0
LINE
  5
3089
  8
2-0
  6
CONTINUOUS
 62
     3
 10
23211.970517999991
 20
15039.438097
 30
0.0
 11
23211.970517999991
 21
15045.435048999991
 31
0.0
  0
LINE
  5
308A
  8
2-0
  6
CONTINUOUS
 62
     3
 10
23211.970517999991
 20
15055.535542000011
 30
0.0
 11
23241.96814199998
 21
15055.535542000011
 31
0.0
  0
LINE
  5
308B
  8
2-0
  6
CONTINUOUS
 62
     3
 10
23211.970517999991
 20
15037.52885100001
 30
0.0
 11
23211.970517999991
 21
15055.535542000011
 31
0.0
  0
LINE
  5
308C
  8
2-0
  6
CONTINUOUS
 62
     3
 10
23236.967877999989
 20
15037.52885100001
 30
0.0
 11
23211.970517999991
 21
15037.52885100001
 31
0.0
  0
LINE
  5
308D
  8
2-0
  6
CONTINUOUS
 62
     3
 10
23236.967877999989
 20
15042.53406400001
 30
0.0
 11
23236.967877999989
 21
15037.52885100001
 31
0.0
  0
LINE
  5
308E
  8
2-0
  6
CONTINUOUS
 62
     3
 10
23229.966321
 20
15042.53406400001
 30
0.0
 11
23236.967877999989
 21
15042.53406400001
 31
0.0
  0
LINE
  5
308F
  8
2-0
  6
CONTINUOUS
 62
     3
 10
23211.970517999991
 20
14335.436890000001
 30
0.0
 11
23211.970517999991
 21
14341.441758999999
 31
0.0
  0
LINE
  5
3090
  8
2-0
  6
CONTINUOUS
 62
     3
 10
23211.970517999991
 20
14341.441758999999
 30
0.0
 11
23241.96814199998
 21
14341.441758999999
 31
0.0
  0
LINE
  5
3091
  8
2-0
  6
CONTINUOUS
 62
     3
 10
23241.96814199998
 20
14341.441758999999
 30
0.0
 11
23241.96814199998
 21
14226.437668
 31
0.0
  0
LINE
  5
3092
  8
2-0
  6
CONTINUOUS
 62
     3
 10
23241.96814199998
 20
14226.437668
 30
0.0
 11
23156.969593999991
 21
14226.437668
 31
0.0
  0
LINE
  5
3093
  8
2-0
  6
CONTINUOUS
 62
     3
 10
23156.969593999991
 20
14226.437668
 30
0.0
 11
23156.969593999991
 21
14311.433247000001
 31
0.0
  0
LINE
  5
3094
  8
2-0
  6
CONTINUOUS
 62
     3
 10
23156.969593999991
 20
14311.433247000001
 30
0.0
 11
23188.968511999981
 21
14311.433247000001
 31
0.0
  0
LINE
  5
3095
  8
2-0
  6
CONTINUOUS
 62
     3
 10
23229.966321
 20
14338.471492000001
 30
0.0
 11
23236.967877999989
 21
14338.471492000001
 31
0.0
  0
LINE
  5
3096
  8
2-0
  6
CONTINUOUS
 62
     3
 10
23236.967877999989
 20
14338.471492000001
 30
0.0
 11
23236.967877999989
 21
14333.47419699998
 31
0.0
  0
LINE
  5
3097
  8
2-0
  6
CONTINUOUS
 62
     3
 10
23236.967877999989
 20
14333.47419699998
 30
0.0
 11
23211.970517999991
 21
14333.47419699998
 31
0.0
  0
LINE
  5
3098
  8
2-0
  6
CONTINUOUS
 62
     3
 10
23211.970517999991
 20
14333.47419699998
 30
0.0
 11
23211.970517999991
 21
14351.472970000001
 31
0.0
  0
LINE
  5
3099
  8
2-0
  6
CONTINUOUS
 62
     3
 10
23211.970517999991
 20
14351.472970000001
 30
0.0
 11
23241.96814199998
 21
14351.472970000001
 31
0.0
  0
LINE
  5
309A
  8
2-0
  6
CENTER2
 62
     6
 10
23199.469858
 20
14028.94010999999
 30
0.0
 11
23199.469858
 21
15184.80886800002
 31
0.0
  0
LINE
  5
309B
  8
2-0
  6
CONTINUOUS
 62
     3
 10
23241.96814199998
 20
18674.530099
 30
0.0
 11
23241.96814199998
 21
19318.3408165
 31
0.0
  0
LINE
  5
309C
  8
2-0
  6
CONTINUOUS
 62
     6
 10
23934.473024999981
 20
20526.936151000031
 30
0.0
 11
25134.467086999961
 21
20526.936151000031
 31
0.0
  0
LINE
  5
309D
  8
2-0
  6
CONTINUOUS
 62
     6
 10
23072.44019199998
 20
19240.0350205
 30
0.0
 11
22640.90909999999
 21
18997.880512499982
 31
0.0
  0
LINE
  5
309E
  8
2-0
  6
CONTINUOUS
 62
     6
 10
23394.00902599996
 20
19939.612988000001
 30
0.0
 11
23934.473024999981
 21
20526.936151000031
 31
0.0
  0
LINE
  5
309F
  8
2-0
  6
CONTINUOUS
 62
     3
 10
23241.96814199998
 20
16400.334383500001
 30
0.0
 11
23241.96814199998
 21
15756.77061000001
 31
0.0
  0
LINE
  5
30A0
  8
2-0
  6
CONTINUOUS
 62
     6
 10
23059.38328699999
 20
19263.294364500001
 30
0.0
 11
23211.970517999991
 21
19318.3408165
 31
0.0
  0
LINE
  5
30A1
  8
2-0
  6
CONTINUOUS
 62
     6
 10
23211.970517999991
 20
19318.3408165
 30
0.0
 11
23085.489177999989
 21
19216.781616499979
 31
0.0
  0
LINE
  5
30A2
  8
2-0
  6
CONTINUOUS
 62
     6
 10
23059.38328699999
 20
19263.294364500001
 30
0.0
 11
23085.489177999989
 21
19216.781616499979
 31
0.0
  0
LINE
  5
30A3
  8
2-0
  6
CONTINUOUS
 62
     6
 10
23085.489177999989
 20
19216.781616499979
 30
0.0
 11
23211.970517999991
 21
19318.3408165
 31
0.0
  0
LINE
  5
30A4
  8
2-0
  6
CONTINUOUS
 62
     6
 10
23211.970517999991
 20
19318.3408165
 30
0.0
 11
23059.38328699999
 21
19263.294364500001
 31
0.0
  0
LINE
  5
30A5
  8
2-0
  6
CONTINUOUS
 62
     6
 10
23059.38328699999
 20
19263.294364500001
 30
0.0
 11
23211.970517999991
 21
19318.3408165
 31
0.0
  0
LINE
  5
30A6
  8
2-0
  6
CONTINUOUS
 62
     6
 10
23085.489177999989
 20
19216.781616499979
 30
0.0
 11
23211.970517999991
 21
19318.3408165
 31
0.0
  0
LINE
  5
30A7
  8
2-0
  6
CONTINUOUS
 62
     6
 10
23085.489177999989
 20
19216.781616499979
 30
0.0
 11
23059.38328699999
 21
19263.294364500001
 31
0.0
  0
LINE
  5
30A8
  8
2-0
  6
CONTINUOUS
 62
     6
 10
23413.62605499999
 20
19921.551861000022
 30
0.0
 11
23285.664034999991
 21
19821.869243000001
 31
0.0
  0
LINE
  5
30A9
  8
2-0
  6
CONTINUOUS
 62
     6
 10
23285.664034999991
 20
19821.869243000001
 30
0.0
 11
23374.378139999979
 21
19957.666198000021
 31
0.0
  0
LINE
  5
30AA
  8
2-0
  6
CONTINUOUS
 62
     6
 10
23413.62605499999
 20
19921.551861000022
 30
0.0
 11
23374.378139999979
 21
19957.666198000021
 31
0.0
  0
LINE
  5
30AB
  8
2-0
  6
CONTINUOUS
 62
     6
 10
23374.378139999979
 20
19957.666198000021
 30
0.0
 11
23285.664034999991
 21
19821.869243000001
 31
0.0
  0
LINE
  5
30AC
  8
2-0
  6
CONTINUOUS
 62
     6
 10
23285.664034999991
 20
19821.869243000001
 30
0.0
 11
23413.62605499999
 21
19921.551861000022
 31
0.0
  0
LINE
  5
30AD
  8
2-0
  6
CONTINUOUS
 62
     6
 10
23413.62605499999
 20
19921.551861000022
 30
0.0
 11
23285.664034999991
 21
19821.869243000001
 31
0.0
  0
LINE
  5
30AE
  8
2-0
  6
CONTINUOUS
 62
     6
 10
23374.378139999979
 20
19957.666198000021
 30
0.0
 11
23285.664034999991
 21
19821.869243000001
 31
0.0
  0
LINE
  5
30AF
  8
2-0
  6
CONTINUOUS
 62
     6
 10
23374.378139999979
 20
19957.666198000021
 30
0.0
 11
23413.62605499999
 21
19921.551861000022
 31
0.0
  0
LINE
  5
30B0
  8
2-0
  6
CONTINUOUS
 62
     4
 10
20631.969858
 20
19876.935491000011
 30
0.0
 11
20631.969858
 21
20606.932455999999
 31
0.0
  0
LINE
  5
30B1
  8
2-0
  6
CONTINUOUS
 62
     6
 10
22965.330420999991
 20
14118.16492999999
 30
0.0
 11
23097.077280000001
 21
14212.791857
 31
0.0
  0
LINE
  5
30B2
  8
2-0
  6
CONTINUOUS
 62
     6
 10
23097.077280000001
 20
14212.791857
 30
0.0
 11
23003.147143999991
 21
14080.55308699998
 31
0.0
  0
LINE
  5
30B3
  8
2-0
  6
CONTINUOUS
 62
     6
 10
22965.330420999991
 20
14118.16492999999
 30
0.0
 11
23003.147143999991
 21
14080.55308699998
 31
0.0
  0
LINE
  5
30B4
  8
2-0
  6
CONTINUOUS
 62
     6
 10
23003.147143999991
 20
14080.55308699998
 30
0.0
 11
23097.077280000001
 21
14212.791857
 31
0.0
  0
LINE
  5
30B5
  8
2-0
  6
CONTINUOUS
 62
     6
 10
23097.077280000001
 20
14212.791857
 30
0.0
 11
22965.330420999991
 21
14118.16492999999
 31
0.0
  0
LINE
  5
30B6
  8
2-0
  6
CONTINUOUS
 62
     6
 10
22965.330420999991
 20
14118.16492999999
 30
0.0
 11
23097.077280000001
 21
14212.791857
 31
0.0
  0
LINE
  5
30B7
  8
2-0
  6
CONTINUOUS
 62
     6
 10
23003.147143999991
 20
14080.55308699998
 30
0.0
 11
23097.077280000001
 21
14212.791857
 31
0.0
  0
LINE
  5
30B8
  8
2-0
  6
CONTINUOUS
 62
     6
 10
23003.147143999991
 20
14080.55308699998
 30
0.0
 11
22965.330420999991
 21
14118.16492999999
 31
0.0
  0
LINE
  5
30B9
  8
2-0
  6
CONTINUOUS
 62
     6
 10
23028.366209999989
 20
14445.069556999981
 30
0.0
 11
23160.96624199998
 21
14351.641228999981
 31
0.0
  0
LINE
  5
30BA
  8
2-0
  6
CONTINUOUS
 62
     6
 10
23160.96624199998
 20
14351.641228999981
 30
0.0
 11
23005.233555999988
 21
14397.016743
 31
0.0
  0
LINE
  5
30BB
  8
2-0
  6
CONTINUOUS
 62
     6
 10
23028.366209999989
 20
14445.069556999981
 30
0.0
 11
23005.233555999988
 21
14397.016743
 31
0.0
  0
LINE
  5
30BC
  8
2-0
  6
CONTINUOUS
 62
     6
 10
23005.233555999988
 20
14397.016743
 30
0.0
 11
23160.96624199998
 21
14351.641228999981
 31
0.0
  0
LINE
  5
30BD
  8
2-0
  6
CONTINUOUS
 62
     6
 10
23160.96624199998
 20
14351.641228999981
 30
0.0
 11
23028.366209999989
 21
14445.069556999981
 31
0.0
  0
LINE
  5
30BE
  8
2-0
  6
CONTINUOUS
 62
     6
 10
23028.366209999989
 20
14445.069556999981
 30
0.0
 11
23160.96624199998
 21
14351.641228999981
 31
0.0
  0
LINE
  5
30BF
  8
2-0
  6
CONTINUOUS
 62
     6
 10
23005.233555999988
 20
14397.016743
 30
0.0
 11
23160.96624199998
 21
14351.641228999981
 31
0.0
  0
LINE
  5
30C0
  8
2-0
  6
CONTINUOUS
 62
     6
 10
23005.233555999988
 20
14397.016743
 30
0.0
 11
23028.366209999989
 21
14445.069556999981
 31
0.0
  0
LINE
  5
30C1
  8
2-0
  6
CONTINUOUS
 62
     6
 10
23088.129855999989
 20
16824.890490000009
 30
0.0
 11
23241.96814199998
 21
16876.324321000011
 31
0.0
  0
LINE
  5
30C2
  8
2-0
  6
CONTINUOUS
 62
     6
 10
23241.96814199998
 20
16876.324321000011
 30
0.0
 11
23113.13315499996
 21
16777.783886000008
 31
0.0
  0
LINE
  5
30C3
  8
2-0
  6
CONTINUOUS
 62
     6
 10
23088.129855999989
 20
16824.890490000009
 30
0.0
 11
23113.13315499996
 21
16777.783886000008
 31
0.0
  0
LINE
  5
30C4
  8
2-0
  6
CONTINUOUS
 62
     6
 10
23113.13315499996
 20
16777.783886000008
 30
0.0
 11
23241.96814199998
 21
16876.324321000011
 31
0.0
  0
LINE
  5
30C5
  8
2-0
  6
CONTINUOUS
 62
     6
 10
23241.96814199998
 20
16876.324321000011
 30
0.0
 11
23088.129855999989
 21
16824.890490000009
 31
0.0
  0
LINE
  5
30C6
  8
2-0
  6
CONTINUOUS
 62
     6
 10
23088.129855999989
 20
16824.890490000009
 30
0.0
 11
23241.96814199998
 21
16876.324321000011
 31
0.0
  0
LINE
  5
30C7
  8
2-0
  6
CONTINUOUS
 62
     6
 10
23113.13315499996
 20
16777.783886000008
 30
0.0
 11
23241.96814199998
 21
16876.324321000011
 31
0.0
  0
LINE
  5
30C8
  8
2-0
  6
CONTINUOUS
 62
     6
 10
23113.13315499996
 20
16777.783886000008
 30
0.0
 11
23088.129855999989
 21
16824.890490000009
 31
0.0
  0
LINE
  5
30C9
  8
2-0
  6
CONTINUOUS
 62
     6
 10
22954.193648999979
 20
17316.208982000011
 30
0.0
 11
23097.077280000001
 21
17239.433353000011
 31
0.0
  0
LINE
  5
30CA
  8
2-0
  6
CONTINUOUS
 62
     6
 10
23097.077280000001
 20
17239.433353000011
 30
0.0
 11
22937.015386999981
 21
17265.715422000019
 31
0.0
  0
LINE
  5
30CB
  8
2-0
  6
CONTINUOUS
 62
     6
 10
22954.193648999979
 20
17316.208982000011
 30
0.0
 11
22937.015386999981
 21
17265.715422000019
 31
0.0
  0
LINE
  5
30CC
  8
2-0
  6
CONTINUOUS
 62
     6
 10
22937.015386999981
 20
17265.715422000019
 30
0.0
 11
23097.077280000001
 21
17239.433353000011
 31
0.0
  0
LINE
  5
30CD
  8
2-0
  6
CONTINUOUS
 62
     6
 10
23097.077280000001
 20
17239.433353000011
 30
0.0
 11
22954.193648999979
 21
17316.208982000011
 31
0.0
  0
LINE
  5
30CE
  8
2-0
  6
CONTINUOUS
 62
     6
 10
22954.193648999979
 20
17316.208982000011
 30
0.0
 11
23097.077280000001
 21
17239.433353000011
 31
0.0
  0
LINE
  5
30CF
  8
2-0
  6
CONTINUOUS
 62
     6
 10
22937.015386999981
 20
17265.715422000019
 30
0.0
 11
23097.077280000001
 21
17239.433353000011
 31
0.0
  0
LINE
  5
30D0
  8
2-0
  6
CONTINUOUS
 62
     6
 10
22937.015386999981
 20
17265.715422000019
 30
0.0
 11
22954.193648999979
 21
17316.208982000011
 31
0.0
  0
LINE
  5
30D1
  8
2-0
  6
CONTINUOUS
 62
     3
 10
20619.471177999989
 20
19687.93303700001
 30
0.0
 11
20619.471177999989
 21
19681.937075000009
 31
0.0
  0
LINE
  5
30D2
  8
2-0
  6
CONTINUOUS
 62
     3
 10
20619.471177999989
 20
19681.937075000009
 30
0.0
 11
20589.473552999989
 21
19681.937075000009
 31
0.0
  0
LINE
  5
30D3
  8
2-0
  6
CONTINUOUS
 62
     3
 10
20589.473552999989
 20
19681.937075000009
 30
0.0
 11
20589.473552999989
 21
19796.933248000008
 31
0.0
  0
LINE
  5
30D4
  8
2-0
  6
CONTINUOUS
 62
     3
 10
20589.473552999989
 20
19711.936678999991
 30
0.0
 11
20670.471494000001
 21
19711.936678999991
 31
0.0
  0
LINE
  5
30D5
  8
2-0
  6
CONTINUOUS
 62
     3
 10
20619.471177999989
 20
19671.639619000001
 30
0.0
 11
20589.473552999989
 21
19671.639619000001
 31
0.0
  0
LINE
  5
30D6
  8
2-0
  6
CONTINUOUS
 62
     3
 10
20619.471177999989
 20
19689.64136100002
 30
0.0
 11
20619.471177999989
 21
19671.639619000001
 31
0.0
  0
LINE
  5
30D7
  8
2-0
  6
CONTINUOUS
 62
     3
 10
20594.477775999989
 20
19689.64136100002
 30
0.0
 11
20619.471177999989
 21
19689.64136100002
 31
0.0
  0
LINE
  5
30D8
  8
2-0
  6
CONTINUOUS
 62
     3
 10
20594.477775999989
 20
19684.633179000011
 30
0.0
 11
20594.477775999989
 21
19689.64136100002
 31
0.0
  0
LINE
  5
30D9
  8
2-0
  6
CONTINUOUS
 62
     3
 10
20601.475373999969
 20
19684.633179000011
 30
0.0
 11
20594.477775999989
 21
19684.633179000011
 31
0.0
  0
LINE
  5
30DA
  8
2-0
  6
CONTINUOUS
 62
     3
 10
20701.769662999981
 20
19784.933406
 30
0.0
 11
20701.769662999981
 21
19791.938922000008
 31
0.0
  0
LINE
  5
30DB
  8
2-0
  6
CONTINUOUS
 62
     3
 10
20701.769662999981
 20
19791.938922000008
 30
0.0
 11
20696.767418999989
 21
19791.938922000008
 31
0.0
  0
LINE
  5
30DC
  8
2-0
  6
CONTINUOUS
 62
     3
 10
20696.767418999989
 20
19791.938922000008
 30
0.0
 11
20696.767418999989
 21
19766.92968500001
 31
0.0
  0
LINE
  5
30DD
  8
2-0
  6
CONTINUOUS
 62
     3
 10
20696.767418999989
 20
19766.92968500001
 30
0.0
 11
20714.775099999981
 21
19766.92968500001
 31
0.0
  0
LINE
  5
30DE
  8
2-0
  6
CONTINUOUS
 62
     3
 10
20714.775099999981
 20
19766.92968500001
 30
0.0
 11
20714.775099999981
 21
19796.933248000008
 31
0.0
  0
LINE
  5
30DF
  8
2-0
  6
CONTINUOUS
 62
     3
 10
20704.475664000001
 20
19796.933248000008
 30
0.0
 11
20589.473552999989
 21
19796.933248000008
 31
0.0
  0
LINE
  5
30E0
  8
2-0
  6
CONTINUOUS
 62
     3
 10
20704.475664000001
 20
19766.92968500001
 30
0.0
 11
20704.475664000001
 21
19796.933248000008
 31
0.0
  0
LINE
  5
30E1
  8
2-0
  6
CONTINUOUS
 62
     3
 10
20698.471784999991
 20
19766.92968500001
 30
0.0
 11
20704.475664000001
 21
19766.92968500001
 31
0.0
  0
LINE
  5
30E2
  8
2-0
  6
CONTINUOUS
 62
     3
 10
20619.471177999989
 20
19687.93303700001
 30
0.0
 11
20619.471177999989
 21
19681.937075000009
 31
0.0
  0
LINE
  5
30E3
  8
2-0
  6
CONTINUOUS
 62
     3
 10
20619.471177999989
 20
19681.937075000009
 30
0.0
 11
20589.473552999989
 21
19681.937075000009
 31
0.0
  0
LINE
  5
30E4
  8
2-0
  6
CONTINUOUS
 62
     3
 10
20589.473552999989
 20
19681.937075000009
 30
0.0
 11
20589.473552999989
 21
19796.933248000008
 31
0.0
  0
LINE
  5
30E5
  8
2-0
  6
CONTINUOUS
 62
     3
 10
20589.473552999989
 20
19711.936678999991
 30
0.0
 11
20670.471494000001
 21
19711.936678999991
 31
0.0
  0
LINE
  5
30E6
  8
2-0
  6
CONTINUOUS
 62
     3
 10
20619.471177999989
 20
19671.639619000001
 30
0.0
 11
20589.473552999989
 21
19671.639619000001
 31
0.0
  0
LINE
  5
30E7
  8
2-0
  6
CONTINUOUS
 62
     3
 10
20619.471177999989
 20
19689.64136100002
 30
0.0
 11
20619.471177999989
 21
19671.639619000001
 31
0.0
  0
LINE
  5
30E8
  8
2-0
  6
CONTINUOUS
 62
     3
 10
20594.477775999989
 20
19689.64136100002
 30
0.0
 11
20619.471177999989
 21
19689.64136100002
 31
0.0
  0
LINE
  5
30E9
  8
2-0
  6
CONTINUOUS
 62
     3
 10
20594.477775999989
 20
19684.633179000011
 30
0.0
 11
20594.477775999989
 21
19689.64136100002
 31
0.0
  0
LINE
  5
30EA
  8
2-0
  6
CONTINUOUS
 62
     3
 10
20601.475373999969
 20
19684.633179000011
 30
0.0
 11
20594.477775999989
 21
19684.633179000011
 31
0.0
  0
LINE
  5
30EB
  8
2-0
  6
CONTINUOUS
 62
     3
 10
20601.475373999969
 20
19331.336356499989
 30
0.0
 11
20594.477775999989
 21
19331.336356499989
 31
0.0
  0
LINE
  5
30EC
  8
2-0
  6
CONTINUOUS
 62
     3
 10
20594.477775999989
 20
19331.336356499989
 30
0.0
 11
20594.477775999989
 21
19336.336620499991
 31
0.0
  0
LINE
  5
30ED
  8
2-0
  6
CONTINUOUS
 62
     3
 10
20594.477775999989
 20
19336.336620499991
 30
0.0
 11
20619.471177999989
 21
19336.336620499991
 31
0.0
  0
LINE
  5
30EE
  8
2-0
  6
CONTINUOUS
 62
     3
 10
20619.471177999989
 20
19336.336620499991
 30
0.0
 11
20619.471177999989
 21
19318.340816499989
 31
0.0
  0
LINE
  5
30EF
  8
2-0
  6
CONTINUOUS
 62
     3
 10
20619.471177999989
 20
19318.340816499989
 30
0.0
 11
20589.473552999989
 21
19318.340816499989
 31
0.0
  0
LINE
  5
30F0
  8
2-0
  6
CONTINUOUS
 62
     3
 10
20619.471177999989
 20
19334.432323499961
 30
0.0
 11
20619.471177999989
 21
19328.434382499989
 31
0.0
  0
LINE
  5
30F1
  8
2-0
  6
CONTINUOUS
 62
     3
 10
20619.471177999989
 20
19328.434382499989
 30
0.0
 11
20589.473552999989
 21
19328.434382499989
 31
0.0
  0
LINE
  5
30F2
  8
2-0
  6
CONTINUOUS
 62
     3
 10
20589.473552999989
 20
19328.434382499989
 30
0.0
 11
20589.473552999989
 21
19365.4355435
 31
0.0
  0
LINE
  5
30F3
  8
2-0
  6
CONTINUOUS
 62
     3
 10
20619.471177999989
 20
19365.4355435
 30
0.0
 11
20589.473552999989
 21
19365.4355435
 31
0.0
  0
LINE
  5
30F4
  8
2-0
  6
CONTINUOUS
 62
     3
 10
20619.471177999989
 20
19359.431663499981
 30
0.0
 11
20619.471177999989
 21
19365.4355435
 31
0.0
  0
LINE
  5
30F5
  8
2-0
  6
CONTINUOUS
 62
     3
 10
20619.471177999989
 20
19375.531088499982
 30
0.0
 11
20589.473552999989
 21
19375.531088499982
 31
0.0
  0
LINE
  5
30F6
  8
2-0
  6
CONTINUOUS
 62
     3
 10
20619.471177999989
 20
19357.529346499989
 30
0.0
 11
20619.471177999989
 21
19375.531088499982
 31
0.0
  0
LINE
  5
30F7
  8
2-0
  6
CONTINUOUS
 62
     3
 10
20594.477775999989
 20
19357.529346499989
 30
0.0
 11
20619.471177999989
 21
19357.529346499989
 31
0.0
  0
LINE
  5
30F8
  8
2-0
  6
CONTINUOUS
 62
     3
 10
20594.477775999989
 20
19362.529610499991
 30
0.0
 11
20594.477775999989
 21
19357.529346499989
 31
0.0
  0
LINE
  5
30F9
  8
2-0
  6
CONTINUOUS
 62
     3
 10
20601.475373999969
 20
19362.529610499991
 30
0.0
 11
20594.477775999989
 21
19362.529610499991
 31
0.0
  0
LINE
  5
30FA
  8
2-0
  6
CONTINUOUS
 62
     3
 10
20601.475373999969
 20
18630.335367
 30
0.0
 11
20594.477775999989
 21
18630.335367
 31
0.0
  0
LINE
  5
30FB
  8
2-0
  6
CONTINUOUS
 62
     3
 10
20594.477775999989
 20
18630.335367
 30
0.0
 11
20594.477775999989
 21
18635.341568999989
 31
0.0
  0
LINE
  5
30FC
  8
2-0
  6
CONTINUOUS
 62
     3
 10
20594.477775999989
 20
18635.341568999989
 30
0.0
 11
20619.471177999989
 21
18635.341568999989
 31
0.0
  0
LINE
  5
30FD
  8
2-0
  6
CONTINUOUS
 62
     3
 10
20619.471177999989
 20
18635.341568999989
 30
0.0
 11
20619.471177999989
 21
18617.339827
 31
0.0
  0
LINE
  5
30FE
  8
2-0
  6
CONTINUOUS
 62
     3
 10
20619.471177999989
 20
18617.339827
 30
0.0
 11
20589.473552999989
 21
18617.339827
 31
0.0
  0
LINE
  5
30FF
  8
2-0
  6
CONTINUOUS
 62
     3
 10
20619.471177999989
 20
18633.43133399999
 30
0.0
 11
20619.471177999989
 21
18627.435371999989
 31
0.0
  0
LINE
  5
3100
  8
2-0
  6
CONTINUOUS
 62
     3
 10
20619.471177999989
 20
18627.435371999989
 30
0.0
 11
20589.473552999989
 21
18627.435371999989
 31
0.0
  0
LINE
  5
3101
  8
2-0
  6
CONTINUOUS
 62
     3
 10
20589.473552999989
 20
18627.435371999989
 30
0.0
 11
20589.473552999989
 21
18664.434553999989
 31
0.0
  0
LINE
  5
3102
  8
2-0
  6
CONTINUOUS
 62
     3
 10
20619.471177999989
 20
18664.434553999989
 30
0.0
 11
20589.473552999989
 21
18664.434553999989
 31
0.0
  0
LINE
  5
3103
  8
2-0
  6
CONTINUOUS
 62
     3
 10
20619.471177999989
 20
18658.438591999991
 30
0.0
 11
20619.471177999989
 21
18664.434553999989
 31
0.0
  0
LINE
  5
3104
  8
2-0
  6
CONTINUOUS
 62
     3
 10
20619.471177999989
 20
18674.530099
 30
0.0
 11
20589.473552999989
 21
18674.530099
 31
0.0
  0
LINE
  5
3105
  8
2-0
  6
CONTINUOUS
 62
     3
 10
20619.471177999989
 20
18656.528356999981
 30
0.0
 11
20619.471177999989
 21
18674.530099
 31
0.0
  0
LINE
  5
3106
  8
2-0
  6
CONTINUOUS
 62
     3
 10
20594.477775999989
 20
18656.528356999981
 30
0.0
 11
20619.471177999989
 21
18656.528356999981
 31
0.0
  0
LINE
  5
3107
  8
2-0
  6
CONTINUOUS
 62
     3
 10
20594.477775999989
 20
18661.534558999989
 30
0.0
 11
20594.477775999989
 21
18656.528356999981
 31
0.0
  0
LINE
  5
3108
  8
2-0
  6
CONTINUOUS
 62
     3
 10
20601.475373999969
 20
18661.534558999989
 30
0.0
 11
20594.477775999989
 21
18661.534558999989
 31
0.0
  0
LINE
  5
3109
  8
2-0
  6
CONTINUOUS
 62
     3
 10
20601.475373999969
 20
17960.52862099999
 30
0.0
 11
20594.477775999989
 21
17960.52862099999
 31
0.0
  0
LINE
  5
310A
  8
2-0
  6
CONTINUOUS
 62
     3
 10
20594.477775999989
 20
17960.52862099999
 30
0.0
 11
20594.477775999989
 21
17955.540234
 31
0.0
  0
LINE
  5
310B
  8
2-0
  6
CONTINUOUS
 62
     3
 10
20594.477775999989
 20
17955.540234
 30
0.0
 11
20619.471177999989
 21
17955.540234
 31
0.0
  0
LINE
  5
310C
  8
2-0
  6
CONTINUOUS
 62
     3
 10
20619.471177999989
 20
17955.540234
 30
0.0
 11
20619.471177999989
 21
17973.536037000002
 31
0.0
  0
LINE
  5
310D
  8
2-0
  6
CONTINUOUS
 62
     3
 10
20619.471177999989
 20
17973.536037000002
 30
0.0
 11
20589.473552999989
 21
17973.536037000002
 31
0.0
  0
LINE
  5
310E
  8
2-0
  6
CONTINUOUS
 62
     3
 10
20619.471177999989
 20
17957.438591999991
 30
0.0
 11
20619.471177999989
 21
17963.434553999981
 31
0.0
  0
LINE
  5
310F
  8
2-0
  6
CONTINUOUS
 62
     3
 10
20619.471177999989
 20
17963.434553999981
 30
0.0
 11
20589.473552999989
 21
17963.434553999981
 31
0.0
  0
LINE
  5
3110
  8
2-0
  6
CONTINUOUS
 62
     3
 10
20589.473552999989
 20
17963.434553999981
 30
0.0
 11
20589.473552999989
 21
17926.435372
 31
0.0
  0
LINE
  5
3111
  8
2-0
  6
CONTINUOUS
 62
     3
 10
20619.471177999989
 20
17926.435372
 30
0.0
 11
20589.473552999989
 21
17926.435372
 31
0.0
  0
LINE
  5
3112
  8
2-0
  6
CONTINUOUS
 62
     3
 10
20619.471177999989
 20
17932.437272999989
 30
0.0
 11
20619.471177999989
 21
17926.435372
 31
0.0
  0
LINE
  5
3113
  8
2-0
  6
CONTINUOUS
 62
     3
 10
20619.471177999989
 20
17916.345765999991
 30
0.0
 11
20589.473552999989
 21
17916.345765999991
 31
0.0
  0
LINE
  5
3114
  8
2-0
  6
CONTINUOUS
 62
     3
 10
20619.471177999989
 20
17934.341568999989
 30
0.0
 11
20619.471177999989
 21
17916.345765999991
 31
0.0
  0
LINE
  5
3115
  8
2-0
  6
CONTINUOUS
 62
     3
 10
20594.477775999989
 20
17934.341568999989
 30
0.0
 11
20619.471177999989
 21
17934.341568999989
 31
0.0
  0
LINE
  5
3116
  8
2-0
  6
CONTINUOUS
 62
     3
 10
20594.477775999989
 20
17929.341305999991
 30
0.0
 11
20594.477775999989
 21
17934.341568999989
 31
0.0
  0
LINE
  5
3117
  8
2-0
  6
CONTINUOUS
 62
     3
 10
20601.475373999969
 20
17929.341305999991
 30
0.0
 11
20594.477775999989
 21
17929.341305999991
 31
0.0
  0
LINE
  5
3118
  8
2-0
  6
CONTINUOUS
 62
     3
 10
20592.359690999991
 20
17209.432192
 30
0.0
 11
20592.359690999991
 21
17229.433247000001
 31
0.0
  0
LINE
  5
3119
  8
2-0
  6
CONTINUOUS
 62
     3
 10
20592.359690999991
 20
17229.433247000001
 30
0.0
 11
20677.360218999998
 21
17229.433247000001
 31
0.0
  0
LINE
  5
311A
  8
2-0
  6
CONTINUOUS
 62
     3
 10
20601.475373999969
 20
17256.039957000012
 30
0.0
 11
20594.477775999989
 21
17256.039957000012
 31
0.0
  0
LINE
  5
311B
  8
2-0
  6
CONTINUOUS
 62
     3
 10
20594.477775999989
 20
17256.039957000012
 30
0.0
 11
20594.477775999989
 21
17251.045631000012
 31
0.0
  0
LINE
  5
311C
  8
2-0
  6
CONTINUOUS
 62
     3
 10
20594.477775999989
 20
17251.045631000012
 30
0.0
 11
20619.471177999989
 21
17251.045631000012
 31
0.0
  0
LINE
  5
311D
  8
2-0
  6
CONTINUOUS
 62
     3
 10
20619.471177999989
 20
17251.045631000012
 30
0.0
 11
20619.471177999989
 21
17269.041434999999
 31
0.0
  0
LINE
  5
311E
  8
2-0
  6
CONTINUOUS
 62
     3
 10
20619.471177999989
 20
17269.041434999999
 30
0.0
 11
20589.473552999989
 21
17269.041434999999
 31
0.0
  0
LINE
  5
311F
  8
2-0
  6
CONTINUOUS
 62
     3
 10
20619.471177999989
 20
17259.432851000001
 30
0.0
 11
20619.471177999989
 21
17253.430950999991
 31
0.0
  0
LINE
  5
3120
  8
2-0
  6
CONTINUOUS
 62
     3
 10
20589.473552999989
 20
17259.432851000001
 30
0.0
 11
20619.471177999989
 21
17259.432851000001
 31
0.0
  0
LINE
  5
3121
  8
2-0
  6
CONTINUOUS
 62
     3
 10
20589.473552999989
 20
17269.041434999999
 30
0.0
 11
20589.473552999989
 21
17916.345765999991
 31
0.0
  0
LINE
  5
3122
  8
2-0
  6
CONTINUOUS
 62
     3
 10
20589.473552999989
 20
17973.536037000002
 30
0.0
 11
20589.473552999989
 21
18617.339827
 31
0.0
  0
LINE
  5
3123
  8
2-0
  6
CONTINUOUS
 62
     3
 10
20589.473552999989
 20
17114.43113600001
 30
0.0
 11
20619.471177999989
 21
17114.43113600001
 31
0.0
  0
LINE
  5
3124
  8
2-0
  6
CONTINUOUS
 62
     3
 10
20619.471177999989
 20
17114.43113600001
 30
0.0
 11
20619.471177999989
 21
17120.433035999991
 31
0.0
  0
LINE
  5
3125
  8
2-0
  6
CONTINUOUS
 62
     3
 10
20677.360218999998
 20
17144.436678999991
 30
0.0
 11
20592.359690999991
 21
17144.436678999991
 31
0.0
  0
LINE
  5
3126
  8
2-0
  6
CONTINUOUS
 62
     3
 10
20592.359690999991
 20
17144.436678999991
 30
0.0
 11
20592.359690999991
 21
17164.431796000012
 31
0.0
  0
LINE
  5
3127
  8
2-0
  6
CONTINUOUS
 62
     3
 10
20619.471177999989
 20
17104.822553000002
 30
0.0
 11
20589.473552999989
 21
17104.822553000002
 31
0.0
  0
LINE
  5
3128
  8
2-0
  6
CONTINUOUS
 62
     3
 10
20619.471177999989
 20
17122.818355999982
 30
0.0
 11
20619.471177999989
 21
17104.822553000002
 31
0.0
  0
LINE
  5
3129
  8
2-0
  6
CONTINUOUS
 62
     3
 10
20594.477775999989
 20
17122.818355999982
 30
0.0
 11
20619.471177999989
 21
17122.818355999982
 31
0.0
  0
LINE
  5
312A
  8
2-0
  6
CONTINUOUS
 62
     3
 10
20594.477775999989
 20
17117.818092000009
 30
0.0
 11
20594.477775999989
 21
17122.818355999982
 31
0.0
  0
LINE
  5
312B
  8
2-0
  6
CONTINUOUS
 62
     3
 10
20601.475373999969
 20
17117.818092000009
 30
0.0
 11
20594.477775999989
 21
17117.818092000009
 31
0.0
  0
LINE
  5
312C
  8
2-0
  6
CONTINUOUS
 62
     3
 10
20601.475373999969
 20
16413.335861499982
 30
0.0
 11
20594.477775999989
 21
16413.335861499982
 31
0.0
  0
LINE
  5
312D
  8
2-0
  6
CONTINUOUS
 62
     3
 10
20594.477775999989
 20
16413.335861499982
 30
0.0
 11
20594.477775999989
 21
16418.336125499991
 31
0.0
  0
LINE
  5
312E
  8
2-0
  6
CONTINUOUS
 62
     3
 10
20594.477775999989
 20
16418.336125499991
 30
0.0
 11
20619.471177999989
 21
16418.336125499991
 31
0.0
  0
LINE
  5
312F
  8
2-0
  6
CONTINUOUS
 62
     3
 10
20619.471177999989
 20
16418.336125499991
 30
0.0
 11
20619.471177999989
 21
16400.334383500001
 31
0.0
  0
LINE
  5
3130
  8
2-0
  6
CONTINUOUS
 62
     3
 10
20619.471177999989
 20
16400.334383500001
 30
0.0
 11
20589.473552999989
 21
16400.334383500001
 31
0.0
  0
LINE
  5
3131
  8
2-0
  6
CONTINUOUS
 62
     3
 10
20619.471177999989
 20
16416.431828500001
 30
0.0
 11
20619.471177999989
 21
16410.4348775
 31
0.0
  0
LINE
  5
3132
  8
2-0
  6
CONTINUOUS
 62
     3
 10
20619.471177999989
 20
16410.4348775
 30
0.0
 11
20589.473552999989
 21
16410.4348775
 31
0.0
  0
LINE
  5
3133
  8
2-0
  6
CONTINUOUS
 62
     3
 10
20589.473552999989
 20
16410.4348775
 30
0.0
 11
20589.473552999989
 21
16447.4350485
 31
0.0
  0
LINE
  5
3134
  8
2-0
  6
CONTINUOUS
 62
     3
 10
20619.471177999989
 20
16447.4350485
 30
0.0
 11
20589.473552999989
 21
16447.4350485
 31
0.0
  0
LINE
  5
3135
  8
2-0
  6
CONTINUOUS
 62
     3
 10
20619.471177999989
 20
16441.432158499989
 30
0.0
 11
20619.471177999989
 21
16447.4350485
 31
0.0
  0
LINE
  5
3136
  8
2-0
  6
CONTINUOUS
 62
     3
 10
20619.471177999989
 20
16457.5305935
 30
0.0
 11
20589.473552999989
 21
16457.5305935
 31
0.0
  0
LINE
  5
3137
  8
2-0
  6
CONTINUOUS
 62
     3
 10
20619.471177999989
 20
16439.522912500001
 30
0.0
 11
20619.471177999989
 21
16457.5305935
 31
0.0
  0
LINE
  5
3138
  8
2-0
  6
CONTINUOUS
 62
     3
 10
20594.477775999989
 20
16439.522912500001
 30
0.0
 11
20619.471177999989
 21
16439.522912500001
 31
0.0
  0
LINE
  5
3139
  8
2-0
  6
CONTINUOUS
 62
     3
 10
20594.477775999989
 20
16444.529115500001
 30
0.0
 11
20594.477775999989
 21
16439.522912500001
 31
0.0
  0
LINE
  5
313A
  8
2-0
  6
CONTINUOUS
 62
     3
 10
20601.475373999969
 20
16444.529115500001
 30
0.0
 11
20594.477775999989
 21
16444.529115500001
 31
0.0
  0
LINE
  5
313B
  8
2-0
  6
CONTINUOUS
 62
     3
 10
20601.475373999969
 20
15743.76913200001
 30
0.0
 11
20594.477775999989
 21
15743.76913200001
 31
0.0
  0
LINE
  5
313C
  8
2-0
  6
CONTINUOUS
 62
     3
 10
20594.477775999989
 20
15743.76913200001
 30
0.0
 11
20594.477775999989
 21
15738.774807000011
 31
0.0
  0
LINE
  5
313D
  8
2-0
  6
CONTINUOUS
 62
     3
 10
20594.477775999989
 20
15738.774807000011
 30
0.0
 11
20619.471177999989
 21
15738.774807000011
 31
0.0
  0
LINE
  5
313E
  8
2-0
  6
CONTINUOUS
 62
     3
 10
20619.471177999989
 20
15738.774807000011
 30
0.0
 11
20619.471177999989
 21
15756.77061000001
 31
0.0
  0
LINE
  5
313F
  8
2-0
  6
CONTINUOUS
 62
     3
 10
20619.471177999989
 20
15756.77061000001
 30
0.0
 11
20589.473552999989
 21
15756.77061000001
 31
0.0
  0
LINE
  5
3140
  8
2-0
  6
CONTINUOUS
 62
     3
 10
20619.471177999989
 20
15740.673165
 30
0.0
 11
20619.471177999989
 21
15746.67506500001
 31
0.0
  0
LINE
  5
3141
  8
2-0
  6
CONTINUOUS
 62
     3
 10
20619.471177999989
 20
15746.67506500001
 30
0.0
 11
20589.473552999989
 21
15746.67506500001
 31
0.0
  0
LINE
  5
3142
  8
2-0
  6
CONTINUOUS
 62
     3
 10
20589.473552999989
 20
15709.67588400002
 30
0.0
 11
20589.473552999989
 21
15746.67506500001
 31
0.0
  0
LINE
  5
3143
  8
2-0
  6
CONTINUOUS
 62
     3
 10
20619.471177999989
 20
15709.67588400002
 30
0.0
 11
20589.473552999989
 21
15709.67588400002
 31
0.0
  0
LINE
  5
3144
  8
2-0
  6
CONTINUOUS
 62
     3
 10
20619.471177999989
 20
15715.672834999999
 30
0.0
 11
20619.471177999989
 21
15709.67588400002
 31
0.0
  0
LINE
  5
3145
  8
2-0
  6
CONTINUOUS
 62
     3
 10
20619.471177999989
 20
15699.5744
 30
0.0
 11
20589.473552999989
 21
15699.5744
 31
0.0
  0
LINE
  5
3146
  8
2-0
  6
CONTINUOUS
 62
     3
 10
20619.471177999989
 20
15717.582081
 30
0.0
 11
20619.471177999989
 21
15699.5744
 31
0.0
  0
LINE
  5
3147
  8
2-0
  6
CONTINUOUS
 62
     3
 10
20594.477775999989
 20
15717.582081
 30
0.0
 11
20619.471177999989
 21
15717.582081
 31
0.0
  0
LINE
  5
3148
  8
2-0
  6
CONTINUOUS
 62
     3
 10
20594.477775999989
 20
15712.58181700002
 30
0.0
 11
20594.477775999989
 21
15717.582081
 31
0.0
  0
LINE
  5
3149
  8
2-0
  6
CONTINUOUS
 62
     3
 10
20601.475373999969
 20
15712.58181700002
 30
0.0
 11
20594.477775999989
 21
15712.58181700002
 31
0.0
  0
LINE
  5
314A
  8
2-0
  6
CONTINUOUS
 62
     3
 10
20589.473552999989
 20
17104.822553000002
 30
0.0
 11
20589.473552999989
 21
16457.5305935
 31
0.0
  0
LINE
  5
314B
  8
2-0
  6
CONTINUOUS
 62
     3
 10
20589.473552999989
 20
17259.432851000001
 30
0.0
 11
20589.473552999989
 21
17114.43113600001
 31
0.0
  0
LINE
  5
314C
  8
2-0
  6
CONTINUOUS
 62
     3
 10
20677.360218999998
 20
17229.433247000001
 30
0.0
 11
20677.360218999998
 21
17144.436678999991
 31
0.0
  0
LINE
  5
314D
  8
2-0
  6
CONTINUOUS
 62
     3
 10
20601.475373999969
 20
15011.34081
 30
0.0
 11
20594.477775999989
 21
15011.34081
 31
0.0
  0
LINE
  5
314E
  8
2-0
  6
CONTINUOUS
 62
     3
 10
20594.477775999989
 20
15011.34081
 30
0.0
 11
20594.477775999989
 21
15016.335136000011
 31
0.0
  0
LINE
  5
314F
  8
2-0
  6
CONTINUOUS
 62
     3
 10
20594.477775999989
 20
15016.335136000011
 30
0.0
 11
20619.471177999989
 21
15016.335136000011
 31
0.0
  0
LINE
  5
3150
  8
2-0
  6
CONTINUOUS
 62
     3
 10
20619.471177999989
 20
15016.335136000011
 30
0.0
 11
20619.471177999989
 21
14998.33933200001
 31
0.0
  0
LINE
  5
3151
  8
2-0
  6
CONTINUOUS
 62
     3
 10
20619.471177999989
 20
14998.33933200001
 30
0.0
 11
20589.473552999989
 21
14998.33933200001
 31
0.0
  0
LINE
  5
3152
  8
2-0
  6
CONTINUOUS
 62
     3
 10
20619.471177999989
 20
15014.43776700001
 30
0.0
 11
20619.471177999989
 21
15008.434877000011
 31
0.0
  0
LINE
  5
3153
  8
2-0
  6
CONTINUOUS
 62
     3
 10
20619.471177999989
 20
15008.434877000011
 30
0.0
 11
20589.473552999989
 21
15008.434877000011
 31
0.0
  0
LINE
  5
3154
  8
2-0
  6
CONTINUOUS
 62
     3
 10
20589.473552999989
 20
15008.434877000011
 30
0.0
 11
20589.473552999989
 21
15045.435048999991
 31
0.0
  0
LINE
  5
3155
  8
2-0
  6
CONTINUOUS
 62
     3
 10
20619.471177999989
 20
15045.435048999991
 30
0.0
 11
20589.473552999989
 21
15045.435048999991
 31
0.0
  0
LINE
  5
3156
  8
2-0
  6
CONTINUOUS
 62
     3
 10
20619.471177999989
 20
15039.438097
 30
0.0
 11
20619.471177999989
 21
15045.435048999991
 31
0.0
  0
LINE
  5
3157
  8
2-0
  6
CONTINUOUS
 62
     3
 10
20619.471177999989
 20
15055.535542000011
 30
0.0
 11
20589.473552999989
 21
15055.535542000011
 31
0.0
  0
LINE
  5
3158
  8
2-0
  6
CONTINUOUS
 62
     3
 10
20619.471177999989
 20
15037.52885100001
 30
0.0
 11
20619.471177999989
 21
15055.535542000011
 31
0.0
  0
LINE
  5
3159
  8
2-0
  6
CONTINUOUS
 62
     3
 10
20594.477775999989
 20
15037.52885100001
 30
0.0
 11
20619.471177999989
 21
15037.52885100001
 31
0.0
  0
LINE
  5
315A
  8
2-0
  6
CONTINUOUS
 62
     3
 10
20594.477775999989
 20
15042.53406400001
 30
0.0
 11
20594.477775999989
 21
15037.52885100001
 31
0.0
  0
LINE
  5
315B
  8
2-0
  6
CONTINUOUS
 62
     3
 10
20601.475373999969
 20
15042.53406400001
 30
0.0
 11
20594.477775999989
 21
15042.53406400001
 31
0.0
  0
LINE
  5
315C
  8
2-0
  6
CONTINUOUS
 62
     3
 10
20619.471177999989
 20
14335.436890000001
 30
0.0
 11
20619.471177999989
 21
14341.441758999999
 31
0.0
  0
LINE
  5
315D
  8
2-0
  6
CONTINUOUS
 62
     3
 10
20619.471177999989
 20
14341.441758999999
 30
0.0
 11
20589.473552999989
 21
14341.441758999999
 31
0.0
  0
LINE
  5
315E
  8
2-0
  6
CONTINUOUS
 62
     3
 10
20589.473552999989
 20
14341.441758999999
 30
0.0
 11
20589.473552999989
 21
14226.437668
 31
0.0
  0
LINE
  5
315F
  8
2-0
  6
CONTINUOUS
 62
     3
 10
20589.473552999989
 20
14226.437668
 30
0.0
 11
20674.472100999981
 21
14226.437668
 31
0.0
  0
LINE
  5
3160
  8
2-0
  6
CONTINUOUS
 62
     3
 10
20674.472100999981
 20
14226.437668
 30
0.0
 11
20674.472100999981
 21
14311.433247000001
 31
0.0
  0
LINE
  5
3161
  8
2-0
  6
CONTINUOUS
 62
     3
 10
20674.472100999981
 20
14311.433247000001
 30
0.0
 11
20642.475162999981
 21
14311.433247000001
 31
0.0
  0
LINE
  5
3162
  8
2-0
  6
CONTINUOUS
 62
     3
 10
20601.475373999969
 20
14338.471492000001
 30
0.0
 11
20594.477775999989
 21
14338.471492000001
 31
0.0
  0
LINE
  5
3163
  8
2-0
  6
CONTINUOUS
 62
     3
 10
20594.477775999989
 20
14338.471492000001
 30
0.0
 11
20594.477775999989
 21
14333.47419699998
 31
0.0
  0
LINE
  5
3164
  8
2-0
  6
CONTINUOUS
 62
     3
 10
20594.477775999989
 20
14333.47419699998
 30
0.0
 11
20619.471177999989
 21
14333.47419699998
 31
0.0
  0
LINE
  5
3165
  8
2-0
  6
CONTINUOUS
 62
     3
 10
20619.471177999989
 20
14333.47419699998
 30
0.0
 11
20619.471177999989
 21
14351.472970000001
 31
0.0
  0
LINE
  5
3166
  8
2-0
  6
CONTINUOUS
 62
     3
 10
20619.471177999989
 20
14351.472970000001
 30
0.0
 11
20589.473552999989
 21
14351.472970000001
 31
0.0
  0
LINE
  5
3167
  8
2-0
  6
CONTINUOUS
 62
     3
 10
20589.473552999989
 20
15055.535542000011
 30
0.0
 11
20589.473552999989
 21
15699.5744
 31
0.0
  0
LINE
  5
3168
  8
2-0
  6
CONTINUOUS
 62
     3
 10
20589.473552999989
 20
18674.530099
 30
0.0
 11
20589.473552999989
 21
19318.340816499989
 31
0.0
  0
LINE
  5
3169
  8
2-0
  6
CONTINUOUS
 62
     3
 10
20589.473552999989
 20
16400.334383500001
 30
0.0
 11
20589.473552999989
 21
15756.77061000001
 31
0.0
  0
LINE
  5
316A
  8
2-0
  6
CONTINUOUS
 62
     3
 10
23241.96814199998
 20
19681.937075000009
 30
0.0
 11
23241.96814199998
 21
19796.933248000008
 31
0.0
  0
LINE
  5
316B
  8
2-0
  6
CENTER2
 62
     6
 10
19302.515280999989
 20
19754.434963
 30
0.0
 11
24091.969461999979
 21
19754.434963
 31
0.0
  0
LINE
  5
316C
  8
2-0
  6
CENTER2
 62
     6
 10
19302.515280999989
 20
17186.934963
 30
0.0
 11
24091.969461999979
 21
17186.934963
 31
0.0
  0
LINE
  5
316D
  8
2-0
  6
CENTER2
 62
     6
 10
19302.515280999989
 20
14268.934962999991
 30
0.0
 11
24091.969461999979
 21
14268.934962999991
 31
0.0
  0
LINE
  5
316E
  8
2-0
  6
CONTINUOUS
 62
     3
 10
20589.473552999989
 20
19711.936678999991
 30
0.0
 11
23160.96624199998
 21
19711.936678999991
 31
0.0
  0
LINE
  5
316F
  8
2-0
  6
CONTINUOUS
 62
     3
 10
20589.473552999989
 20
14351.472970000001
 30
0.0
 11
20589.473552999989
 21
14998.33933200001
 31
0.0
  0
LINE
  5
3170
  8
2-0
  6
CENTER2
 62
     6
 10
20631.969858
 20
20996.933248000008
 30
0.0
 11
20631.969858
 21
13643.17152899999
 31
0.0
  0
LINE
  5
3171
  8
2-0
  6
CENTER2
 62
     6
 10
23199.469858
 20
20996.933248000008
 30
0.0
 11
23199.469858
 21
13643.17152899999
 31
0.0
  0
LINE
  5
3172
  8
2-0
  6
CONTINUOUS
 62
     3
 10
23241.96814199998
 20
19671.639619000001
 30
0.0
 11
23241.96814199998
 21
19375.531088499989
 31
0.0
  0
LINE
  5
3173
  8
2-0
  6
CONTINUOUS
 62
     3
 10
20589.473552999989
 20
19671.639619000001
 30
0.0
 11
20589.473552999989
 21
19375.531088499982
 31
0.0
  0
LINE
  5
3174
  8
2-0
  6
CONTINUOUS
 62
     3
 10
20670.471494000001
 20
14311.433247000001
 30
0.0
 11
20670.471494000001
 21
19796.933248000008
 31
0.0
  0
LINE
  5
3175
  8
2-0
  6
CONTINUOUS
 62
     3
 10
23160.96624199998
 20
14311.433247000001
 30
0.0
 11
23160.96624199998
 21
19796.933248000008
 31
0.0
  0
CIRCLE
  5
3176
  8
2-0
  6
CONTINUOUS
 62
     4
 10
19102.517590999989
 20
19754.434963
 30
0.0
 40
200.00001
  0
CIRCLE
  5
3177
  8
2-0
  6
CONTINUOUS
 62
     4
 10
19102.517590999989
 20
17186.934963
 30
0.0
 40
200.00001
  0
CIRCLE
  5
3178
  8
2-0
  6
CONTINUOUS
 62
     4
 10
19102.517590999989
 20
14268.934962999991
 30
0.0
 40
200.00001
  0
CIRCLE
  5
3179
  8
2-0
  6
CONTINUOUS
 62
     4
 10
20631.969858
 20
21196.937867000011
 30
0.0
 40
200.00001
  0
TEXT
  5
317A
  8
2-0
  6
CONTINUOUS
 62
     7
 10
21596.315164999982
 20
13708.936084999999
 30
0.0
 40
160.0
  1
前柱（右）
 50
0.000213
 72
     4
 11
22012.314867592999
 21
13788.93763150079
 31
0.0
  0
TEXT
  5
317B
  8
2-0
  6
CONTINUOUS
 62
     7
 10
21800.910287999988
 20
16637.42810100002
 30
0.0
 40
160.0
  1
壁パネル
 50
359.99982299999999
 72
     4
 11
22163.57720180355
 21
16717.426980637891
 31
0.0
  0
TEXT
  5
317C
  8
2-0
  6
CONTINUOUS
 62
     7
 10
21520.90738399998
 20
17474.615997000012
 30
0.0
 40
160.0
  1
中柱（左右）
 50
0.000354
 72
     4
 11
22038.240223046188
 21
17554.619193324659
 31
0.0
  0
TEXT
  5
317D
  8
2-0
  6
CONTINUOUS
 62
     7
 10
22200.909627999979
 20
14681.977351
 30
0.0
 40
160.0
  1
下枠
 50
0.001063
 72
     4
 11
22371.574810409282
 21
14761.980517339291
 31
0.0
  0
TEXT
  5
317E
  8
2-0
  6
CONTINUOUS
 62
     7
 10
21695.875051999999
 20
19077.884735499989
 30
0.0
 40
160.0
  1
間柱（側）
 72
     4
 11
22117.208385333332
 21
19157.884735499989
 31
0.0
  0
TEXT
  5
317F
  8
2-0
  6
CONTINUOUS
 62
     7
 10
24014.465370999991
 20
20606.93245600001
 30
0.0
 40
160.0
  1
後柱（左右）
 50
0.000354
 72
     4
 11
24526.464876712969
 21
20686.935619372842
 31
0.0
  0
TEXT
  5
3180
  8
2-0
  6
CONTINUOUS
 62
     7
 10
19054.518223999981
 20
19659.954521000011
 30
0.0
 40
160.0
  1
C
 72
     4
 11
19107.85155733331
 21
19739.954521000011
 31
0.0
  0
TEXT
  5
3181
  8
2-0
  6
CONTINUOUS
 62
     7
 10
19054.738939999981
 20
17116.540881000019
 30
0.0
 40
160.0
  1
B
 72
     4
 11
19108.07227333331
 21
17196.540881000019
 31
0.0
  0
TEXT
  5
3182
  8
2-0
  6
CONTINUOUS
 62
     7
 10
19054.781499999979
 20
14180.32775199999
 30
0.0
 40
160.0
  1
A
 72
     4
 11
19108.114833333311
 21
14260.32775199999
 31
0.0
  0
TEXT
  5
3183
  8
2-0
  6
CONTINUOUS
 62
     7
 10
20587.763248999981
 20
21108.170315000028
 30
0.0
 40
160.0
  1
1
 72
     4
 11
20614.429915666649
 21
21188.170315000028
 31
0.0
  0
LINE
  5
3184
  8
2-0
  6
CONTINUOUS
 62
     3
 10
22459.970438999961
 20
19796.933248000008
 30
0.0
 11
22422.969276999989
 21
19796.933248000008
 31
0.0
  0
LINE
  5
3185
  8
2-0
  6
CONTINUOUS
 62
     3
 10
22459.970438999961
 20
19766.92968500001
 30
0.0
 11
22459.970438999961
 21
19796.933248000008
 31
0.0
  0
LINE
  5
3186
  8
2-0
  6
CONTINUOUS
 62
     3
 10
22453.970517999958
 20
19766.92968500001
 30
0.0
 11
22459.970438999961
 21
19766.92968500001
 31
0.0
  0
LINE
  5
3187
  8
2-0
  6
CONTINUOUS
 62
     3
 10
22470.06796299999
 20
19766.92968500001
 30
0.0
 11
22470.06796299999
 21
19796.933248000008
 31
0.0
  0
LINE
  5
3188
  8
2-0
  6
CONTINUOUS
 62
     3
 10
22452.064242
 20
19766.92968500001
 30
0.0
 11
22470.06796299999
 21
19766.92968500001
 31
0.0
  0
LINE
  5
3189
  8
2-0
  6
CONTINUOUS
 62
     3
 10
22452.064242
 20
19791.938922000008
 30
0.0
 11
22452.064242
 21
19766.92968500001
 31
0.0
  0
LINE
  5
318A
  8
2-0
  6
CONTINUOUS
 62
     3
 10
22457.064505999999
 20
19791.938922000008
 30
0.0
 11
22452.064242
 21
19791.938922000008
 31
0.0
  0
LINE
  5
318B
  8
2-0
  6
CONTINUOUS
 62
     3
 10
22457.064505999999
 20
19784.933406
 30
0.0
 11
22457.064505999999
 21
19791.938922000008
 31
0.0
  0
LINE
  5
318C
  8
2-0
  6
CONTINUOUS
 62
     3
 10
22425.87521099998
 20
19784.933406
 30
0.0
 11
22425.87521099998
 21
19791.938922000008
 31
0.0
  0
LINE
  5
318D
  8
2-0
  6
CONTINUOUS
 62
     3
 10
22425.87521099998
 20
19791.938922000008
 30
0.0
 11
22430.875475000001
 21
19791.938922000008
 31
0.0
  0
LINE
  5
318E
  8
2-0
  6
CONTINUOUS
 62
     3
 10
22430.875475000001
 20
19791.938922000008
 30
0.0
 11
22430.875475000001
 21
19766.92968500001
 31
0.0
  0
LINE
  5
318F
  8
2-0
  6
CONTINUOUS
 62
     3
 10
22430.875475000001
 20
19766.92968500001
 30
0.0
 11
22412.87571199999
 21
19766.92968500001
 31
0.0
  0
LINE
  5
3190
  8
2-0
  6
CONTINUOUS
 62
     3
 10
22412.87571199999
 20
19766.92968500001
 30
0.0
 11
22412.87571199999
 21
19796.933248000008
 31
0.0
  0
LINE
  5
3191
  8
2-0
  6
CONTINUOUS
 62
     3
 10
22428.969197999992
 20
19766.92968500001
 30
0.0
 11
22422.969276999989
 21
19766.92968500001
 31
0.0
  0
LINE
  5
3192
  8
2-0
  6
CONTINUOUS
 62
     3
 10
22422.969276999989
 20
19766.92968500001
 30
0.0
 11
22422.969276999989
 21
19796.933248000008
 31
0.0
  0
LINE
  5
3193
  8
2-0
  6
CONTINUOUS
 62
     3
 10
21724.869272499989
 20
19784.933406
 30
0.0
 11
21724.869272499989
 21
19791.938922000008
 31
0.0
  0
LINE
  5
3194
  8
2-0
  6
CONTINUOUS
 62
     3
 10
21724.869272499989
 20
19791.938922000008
 30
0.0
 11
21729.869535500002
 21
19791.938922000008
 31
0.0
  0
LINE
  5
3195
  8
2-0
  6
CONTINUOUS
 62
     3
 10
21729.869535500002
 20
19791.938922000008
 30
0.0
 11
21729.869535500002
 21
19766.92968500001
 31
0.0
  0
LINE
  5
3196
  8
2-0
  6
CONTINUOUS
 62
     3
 10
21729.869535500002
 20
19766.92968500001
 30
0.0
 11
21711.87571249999
 21
19766.92968500001
 31
0.0
  0
LINE
  5
3197
  8
2-0
  6
CONTINUOUS
 62
     3
 10
21711.87571249999
 20
19766.92968500001
 30
0.0
 11
21711.87571249999
 21
19796.933248000008
 31
0.0
  0
LINE
  5
3198
  8
2-0
  6
CONTINUOUS
 62
     3
 10
21727.967218499969
 20
19766.92968500001
 30
0.0
 11
21721.969277499989
 21
19766.92968500001
 31
0.0
  0
LINE
  5
3199
  8
2-0
  6
CONTINUOUS
 62
     3
 10
21721.969277499989
 20
19766.92968500001
 30
0.0
 11
21721.969277499989
 21
19796.933248000008
 31
0.0
  0
LINE
  5
319A
  8
2-0
  6
CONTINUOUS
 62
     3
 10
21758.9704385
 20
19796.933248000008
 30
0.0
 11
21721.969277499989
 21
19796.933248000008
 31
0.0
  0
LINE
  5
319B
  8
2-0
  6
CONTINUOUS
 62
     3
 10
21758.9704385
 20
19766.92968500001
 30
0.0
 11
21758.9704385
 21
19796.933248000008
 31
0.0
  0
LINE
  5
319C
  8
2-0
  6
CONTINUOUS
 62
     3
 10
21752.9645795
 20
19766.92968500001
 30
0.0
 11
21758.9704385
 21
19766.92968500001
 31
0.0
  0
LINE
  5
319D
  8
2-0
  6
CONTINUOUS
 62
     3
 10
21769.0640035
 20
19766.92968500001
 30
0.0
 11
21769.0640035
 21
19796.933248000008
 31
0.0
  0
LINE
  5
319E
  8
2-0
  6
CONTINUOUS
 62
     3
 10
21751.068200499991
 20
19766.92968500001
 30
0.0
 11
21769.0640035
 21
19766.92968500001
 31
0.0
  0
LINE
  5
319F
  8
2-0
  6
CONTINUOUS
 62
     3
 10
21751.068200499991
 20
19791.938922000008
 30
0.0
 11
21751.068200499991
 21
19766.92968500001
 31
0.0
  0
LINE
  5
31A0
  8
2-0
  6
CONTINUOUS
 62
     3
 10
21756.0585665
 20
19791.938922000008
 30
0.0
 11
21751.068200499991
 21
19791.938922000008
 31
0.0
  0
LINE
  5
31A1
  8
2-0
  6
CONTINUOUS
 62
     3
 10
21756.0585665
 20
19784.933406
 30
0.0
 11
21756.0585665
 21
19791.938922000008
 31
0.0
  0
LINE
  5
31A2
  8
2-0
  6
CONTINUOUS
 62
     3
 10
21068.063013999999
 20
19796.933248000008
 30
0.0
 11
21711.87571249999
 21
19796.933248000008
 31
0.0
  0
LINE
  5
31A3
  8
2-0
  6
CONTINUOUS
 62
     3
 10
23117.353488000001
 20
19796.933248000008
 30
0.0
 11
22470.06796299999
 21
19796.933248000008
 31
0.0
  0
LINE
  5
31A4
  8
2-0
  6
CONTINUOUS
 62
     3
 10
22412.87571199999
 20
19796.933248000008
 30
0.0
 11
21769.0640035
 21
19796.933248000008
 31
0.0
  0
LINE
  5
31A5
  8
2-0
  6
CONTINUOUS
 62
     3
 10
21055.06153599999
 20
19784.933406
 30
0.0
 11
21055.06153599999
 21
19791.938922000008
 31
0.0
  0
LINE
  5
31A6
  8
2-0
  6
CONTINUOUS
 62
     3
 10
21055.06153599999
 20
19791.938922000008
 30
0.0
 11
21050.061271999992
 21
19791.938922000008
 31
0.0
  0
LINE
  5
31A7
  8
2-0
  6
CONTINUOUS
 62
     3
 10
21050.061271999992
 20
19791.938922000008
 30
0.0
 11
21050.061271999992
 21
19766.92968500001
 31
0.0
  0
LINE
  5
31A8
  8
2-0
  6
CONTINUOUS
 62
     3
 10
21050.061271999992
 20
19766.92968500001
 30
0.0
 11
21068.063013999999
 21
19766.92968500001
 31
0.0
  0
LINE
  5
31A9
  8
2-0
  6
CONTINUOUS
 62
     3
 10
21068.063013999999
 20
19766.92968500001
 30
0.0
 11
21068.063013999999
 21
19796.933248000008
 31
0.0
  0
LINE
  5
31AA
  8
2-0
  6
CONTINUOUS
 62
     3
 10
21051.96358900001
 20
19766.92968500001
 30
0.0
 11
21057.967468999988
 21
19766.92968500001
 31
0.0
  0
LINE
  5
31AB
  8
2-0
  6
CONTINUOUS
 62
     3
 10
21057.967468999988
 20
19766.92968500001
 30
0.0
 11
21057.967468999988
 21
19796.933248000008
 31
0.0
  0
LINE
  5
31AC
  8
2-0
  6
CONTINUOUS
 62
     3
 10
21020.97224699998
 20
19796.933248000008
 30
0.0
 11
21057.967468999988
 21
19796.933248000008
 31
0.0
  0
LINE
  5
31AD
  8
2-0
  6
CONTINUOUS
 62
     3
 10
21020.97224699998
 20
19766.92968500001
 30
0.0
 11
21020.97224699998
 21
19796.933248000008
 31
0.0
  0
LINE
  5
31AE
  8
2-0
  6
CONTINUOUS
 62
     3
 10
21026.966229000001
 20
19766.92968500001
 30
0.0
 11
21020.97224699998
 21
19766.92968500001
 31
0.0
  0
LINE
  5
31AF
  8
2-0
  6
CONTINUOUS
 62
     3
 10
21010.876702000001
 20
19766.92968500001
 30
0.0
 11
21010.876702000001
 21
19796.933248000008
 31
0.0
  0
LINE
  5
31B0
  8
2-0
  6
CONTINUOUS
 62
     3
 10
21028.87250500001
 20
19766.92968500001
 30
0.0
 11
21010.876702000001
 21
19766.92968500001
 31
0.0
  0
LINE
  5
31B1
  8
2-0
  6
CONTINUOUS
 62
     3
 10
21028.87250500001
 20
19791.938922000008
 30
0.0
 11
21028.87250500001
 21
19766.92968500001
 31
0.0
  0
LINE
  5
31B2
  8
2-0
  6
CONTINUOUS
 62
     3
 10
21023.874220999998
 20
19791.938922000008
 30
0.0
 11
21028.87250500001
 21
19791.938922000008
 31
0.0
  0
LINE
  5
31B3
  8
2-0
  6
CONTINUOUS
 62
     3
 10
21023.874220999998
 20
19784.933406
 30
0.0
 11
21023.874220999998
 21
19791.938922000008
 31
0.0
  0
LINE
  5
31B4
  8
2-0
  6
CONTINUOUS
 62
     3
 10
20714.775099999981
 20
19796.933248000008
 30
0.0
 11
21010.876702000001
 21
19796.933248000008
 31
0.0
  0
LINE
  5
31B5
  8
2-0
  6
CONTINUOUS
 62
     3
 10
23241.96814199998
 20
15699.57440000001
 30
0.0
 11
23241.96814199998
 21
15055.535542000011
 31
0.0
  0
LINE
  5
31B6
  8
2-0
  6
CONTINUOUS
 62
     3
 10
23241.96814199998
 20
14998.339332
 30
0.0
 11
23241.96814199998
 21
14351.472970000001
 31
0.0
  0
CIRCLE
  5
31B7
  8
2-0
  6
CONTINUOUS
 62
     4
 10
23199.469858
 20
21196.937867000011
 30
0.0
 40
200.00001
  0
TEXT
  5
31B8
  8
2-0
  6
CONTINUOUS
 62
     7
 10
23147.838075
 20
21101.412238000012
 30
0.0
 40
160.0
  1
2
 72
     4
 11
23201.171408333332
 21
21181.412238000012
 31
0.0
  0
LINE
  5
31B9
  8
0-6
  6
CONTINUOUS
 62
     6
 10
18864.688476795509
 20
20526.936151000031
 30
0.0
 11
19889.728726795522
 21
20526.936151000031
 31
0.0
  0
TEXT
  5
31BA
  8
0-6
  6
CONTINUOUS
 62
     7
 10
18944.6887407955
 20
20606.938395000019
 30
0.0
 40
160.0
  1
間柱（後）
 72
     4
 11
19366.022074128839
 21
20686.938395000019
 31
0.0
  0
LINE
  5
31BB
  8
0-6
  6
CONTINUOUS
 62
     6
 10
19889.728726795522
 20
20526.936151000031
 30
0.0
 11
20876.791431444391
 21
19884.238972953281
 31
0.0
  0
LINE
  5
31BC
  8
SUNPOU
  6
CONTINUOUS
 10
10397.97262299998
 20
19976.930872000001
 30
0.0
 11
10397.97262299998
 21
20773.89813977847
 31
0.0
  0
LINE
  5
31BD
  8
SUNPOU
  6
CONTINUOUS
 10
10397.972297999981
 20
14076.439648
 30
0.0
 11
10397.972297999981
 21
13401.01353218962
 31
0.0
  0
LINE
  5
31C0
  8
WAKUSEN-01
 10
868.00000000000193
 20
22484.000000000011
 30
0.0
 11
32764.000000000011
 21
22484.000000000011
 31
0.0
  0
LINE
  5
31C3
  8
WAKUSEN-01
 10
20560.0
 20
2484.0
 30
0.0
 11
32764.0
 21
2484.0
 31
0.0
  0
LINE
  5
31C4
  8
WAKUSEN-02
 10
20560.0
 20
1655.9999999999991
 30
0.0
 11
26868.0
 21
1655.9999999999991
 31
0.0
  0
TEXT
  5
31C5
  8
WAKUMOJI-01
 10
20670.260259962761
 20
2125.9030093393221
 30
0.0
 40
240.0
  1
名　称
  7
WAKUMOJI
  0
TEXT
  5
31C6
  8
WAKUMOJI-01
 10
20656.505485091919
 20
1319.12897497982
 30
0.0
 40
240.0
  1
機種名
  7
WAKUMOJI
  0
LINE
  5
31C9
  8
YODOROGO
 10
29977.604341291921
 20
1995.7494964292871
 30
0.0
 11
29829.604341291921
 21
1995.7494964292871
 31
0.0
1001
AUTOCAD_POSTSCRIPT_FIGURE
1002
{
1000
PSFILL
1000
Grayscale
1000
Grayscale
1070
    25
1002
}
  0
LINE
  5
31CA
  8
YODOROGO
 10
29829.604341291921
 20
1947.749496429288
 30
0.0
 11
29977.604341291921
 21
1947.749496429288
 31
0.0
1001
AUTOCAD_POSTSCRIPT_FIGURE
1002
{
1000
PSFILL
1000
Grayscale
1000
Grayscale
1070
    25
1002
}
  0
LINE
  5
31CB
  8
YODOROGO
 10
29977.604341291921
 20
1907.7494964292871
 30
0.0
 11
29829.604341291921
 21
1907.7494964292871
 31
0.0
1001
AUTOCAD_POSTSCRIPT_FIGURE
1002
{
1000
PSFILL
1000
Grayscale
1000
Grayscale
1070
    25
1002
}
  0
LINE
  5
31CC
  8
YODOROGO
 10
29829.604341291921
 20
1859.749496429288
 30
0.0
 11
29977.604341291921
 21
1859.749496429288
 31
0.0
1001
AUTOCAD_POSTSCRIPT_FIGURE
1002
{
1000
PSFILL
1000
Grayscale
1000
Grayscale
1070
    25
1002
}
  0
LINE
  5
31CD
  8
YODOROGO
 10
29977.604341291921
 20
1819.7494964292871
 30
0.0
 11
29829.604341291921
 21
1819.7494964292871
 31
0.0
1001
AUTOCAD_POSTSCRIPT_FIGURE
1002
{
1000
PSFILL
1000
Grayscale
1000
Grayscale
1070
    25
1002
}
  0
LINE
  5
31CE
  8
YODOROGO
 10
29921.60434129191
 20
1707.749496429288
 30
0.0
 11
29977.604341291921
 21
1707.749496429288
 31
0.0
1001
AUTOCAD_POSTSCRIPT_FIGURE
1002
{
1000
PSFILL
1000
Grayscale
1000
Grayscale
1070
    25
1002
}
  0
LINE
  5
31CF
  8
YODOROGO
 10
29737.604341291921
 20
1427.749496429288
 30
0.0
 11
29937.604341291932
 21
1481.3393349155101
 31
0.0
  0
LINE
  5
31D0
  8
YODOROGO
 10
29949.60434129191
 20
1707.749496429288
 30
0.0
 11
29885.604341291921
 21
1707.749496429288
 31
0.0
  0
ARC
  5
31D1
  8
YODOROGO
 10
30254.34774982791
 20
1807.864609233261
 30
0.0
 40
381.88686420564721
 50
213.96111677667841
 51
264.47872074317792
  0
ARC
  5
31D2
  8
YODOROGO
 10
30254.347749827921
 20
1807.864609233302
 30
0.0
 40
381.8868642056816
 50
208.14114420486601
 51
212.9210361185994
  0
LINE
  5
31D3
  8
YODOROGO
 10
29771.409872985321
 20
1556.807661346234
 30
0.0
 11
29933.78413250855
 21
1600.3157130570869
 31
0.0
  0
LINE
  5
31D4
  8
YODOROGO
 10
29737.604341291921
 20
1427.749496429288
 30
0.0
 11
29937.604341291932
 21
1481.3393349155101
 31
0.0
  0
LINE
  5
31D5
  8
YODOROGO
 10
29949.60434129191
 20
1707.749496429288
 30
0.0
 11
29885.604341291921
 21
1707.749496429288
 31
0.0
  0
ARC
  5
31D6
  8
YODOROGO
 10
30254.34774982791
 20
1807.864609233261
 30
0.0
 40
381.88686420564721
 50
213.96111677667841
 51
264.47872074317792
  0
LINE
  5
31D7
  8
YODOROGO
 10
28793.60434129191
 20
1819.7494964292871
 30
0.0
 11
28433.60434129191
 21
1819.7494964292871
 31
0.0
  0
LINE
  5
31D8
  8
YODOROGO
 10
28513.60434129191
 20
1427.749496429288
 30
0.0
 11
28793.60434129191
 21
1427.749496429288
 31
0.0
  0
LINE
  5
31D9
  8
YODOROGO
 10
28729.604341291921
 20
1923.7494964292871
 30
0.0
 11
28497.60434129191
 21
1923.7494964292871
 31
0.0
  0
LINE
  5
31DA
  8
YODOROGO
 10
28585.604341291921
 20
2027.749496429288
 30
0.0
 11
28657.604341291921
 21
2027.749496429288
 31
0.0
  0
LINE
  5
31DB
  8
YODOROGO
 10
28433.60434129191
 20
1707.749496429288
 30
0.0
 11
28433.60434129191
 21
1507.749496429288
 31
0.0
  0
LINE
  5
31DC
  8
YODOROGO
 10
28497.60434129191
 20
1563.7494964292871
 30
0.0
 11
28497.60434129191
 21
1707.749496429288
 31
0.0
  0
LINE
  5
31DD
  8
YODOROGO
 10
28585.604341291921
 20
1747.74949642929
 30
0.0
 11
28585.604341291921
 21
1547.749496429288
 31
0.0
  0
LINE
  5
31DE
  8
YODOROGO
 10
27857.604341291921
 20
1683.749496429288
 30
0.0
 11
27777.604341291921
 21
1619.9724140445701
 31
0.0
  0
LINE
  5
31DF
  8
YODOROGO
 10
27937.604341291921
 20
1619.9724140445701
 30
0.0
 11
27857.604341291921
 21
1683.749496429288
 31
0.0
  0
LINE
  5
31E0
  8
YODOROGO
 10
27857.604341291921
 20
1707.749496429288
 30
0.0
 11
27937.604341291921
 21
1643.9724140445701
 31
0.0
  0
LINE
  5
31E1
  8
YODOROGO
 10
27777.604341291921
 20
1643.9724140445701
 30
0.0
 11
27857.604341291921
 21
1707.749496429288
 31
0.0
  0
LINE
  5
31E2
  8
YODOROGO
 10
28040.913204016892
 20
1659.749496429288
 30
0.0
 11
28040.913204016892
 21
1683.7494964292871
 31
0.0
  0
LINE
  5
31E3
  8
YODOROGO
 10
27977.604341291921
 20
1683.7494964292871
 30
0.0
 11
27977.604341291921
 21
1667.749496429285
 31
0.0
  0
LINE
  5
31E4
  8
YODOROGO
 10
28098.135520230931
 20
1707.749496429288
 30
0.0
 11
28098.135520230931
 21
1655.5036372746561
 31
0.0
1001
AUTOCAD_POSTSCRIPT_FIGURE
1002
{
1000
PSFILL
1000
Grayscale
1000
Grayscale
1070
   100
1002
}
  0
LINE
  5
31E5
  8
YODOROGO
 10
28082.135520230921
 20
1655.5036372746561
 30
0.0
 11
28082.135520230921
 21
1707.749496429288
 31
0.0
1001
AUTOCAD_POSTSCRIPT_FIGURE
1002
{
1000
PSFILL
1000
Grayscale
1000
Grayscale
1070
   100
1002
}
  0
LINE
  5
31E6
  8
YODOROGO
 10
27809.604341291921
 20
1608.771904043258
 30
0.0
 11
27809.604341291921
 21
1632.771904043258
 31
0.0
  0
LINE
  5
31E7
  8
YODOROGO
 10
27905.604341291921
 20
1608.771904043258
 30
0.0
 11
27809.604341291921
 21
1608.771904043258
 31
0.0
  0
LINE
  5
31E8
  8
YODOROGO
 10
27905.604341291921
 20
1632.771904043258
 30
0.0
 11
27905.604341291921
 21
1608.771904043258
 31
0.0
  0
LINE
  5
31E9
  8
YODOROGO
 10
27809.604341291921
 20
1632.771904043258
 30
0.0
 11
27905.604341291921
 21
1632.771904043258
 31
0.0
  0
LINE
  5
31EA
  8
YODOROGO
 10
27824.509588915738
 20
1568.5028573704751
 30
0.0
 11
27785.604341291921
 21
1475.7494964292871
 31
0.0
1001
AUTOCAD_POSTSCRIPT_FIGURE
1002
{
1000
PSFILL
1000
Grayscale
1000
Grayscale
1070
   100
1002
}
  0
LINE
  5
31EB
  8
YODOROGO
 10
27777.604341291921
 20
1568.5028573704751
 30
0.0
 11
27824.509588915738
 21
1568.5028573704751
 31
0.0
1001
AUTOCAD_POSTSCRIPT_FIGURE
1002
{
1000
PSFILL
1000
Grayscale
1000
Grayscale
1070
   100
1002
}
  0
LINE
  5
31EC
  8
YODOROGO
 10
27777.604341291921
 20
1588.5028573704751
 30
0.0
 11
27777.604341291921
 21
1568.5028573704751
 31
0.0
1001
AUTOCAD_POSTSCRIPT_FIGURE
1002
{
1000
PSFILL
1000
Grayscale
1000
Grayscale
1070
   100
1002
}
  0
LINE
  5
31ED
  8
YODOROGO
 10
27937.604341291921
 20
1588.5028573704751
 30
0.0
 11
27777.604341291921
 21
1588.5028573704751
 31
0.0
1001
AUTOCAD_POSTSCRIPT_FIGURE
1002
{
1000
PSFILL
1000
Grayscale
1000
Grayscale
1070
   100
1002
}
  0
LINE
  5
31EE
  8
YODOROGO
 10
27937.604341291921
 20
1568.5028573704751
 30
0.0
 11
27937.604341291921
 21
1588.5028573704751
 31
0.0
1001
AUTOCAD_POSTSCRIPT_FIGURE
1002
{
1000
PSFILL
1000
Grayscale
1000
Grayscale
1070
   100
1002
}
  0
LINE
  5
31EF
  8
YODOROGO
 10
27844.509588915738
 20
1568.5028573704751
 30
0.0
 11
27937.604341291921
 21
1568.5028573704751
 31
0.0
1001
AUTOCAD_POSTSCRIPT_FIGURE
1002
{
1000
PSFILL
1000
Grayscale
1000
Grayscale
1070
   100
1002
}
  0
LINE
  5
31F0
  8
YODOROGO
 10
27815.546718284771
 20
1495.7494964292871
 30
0.0
 11
27844.509588915738
 21
1568.5028573704751
 31
0.0
1001
AUTOCAD_POSTSCRIPT_FIGURE
1002
{
1000
PSFILL
1000
Grayscale
1000
Grayscale
1070
   100
1002
}
  0
LINE
  5
31F1
  8
YODOROGO
 10
27902.054790808648
 20
1495.7494964292871
 30
0.0
 11
27815.546718284771
 21
1495.7494964292871
 31
0.0
1001
AUTOCAD_POSTSCRIPT_FIGURE
1002
{
1000
PSFILL
1000
Grayscale
1000
Grayscale
1070
   100
1002
}
  0
LINE
  5
31F2
  8
YODOROGO
 10
27885.065004790951
 20
1536.2338106976929
 30
0.0
 11
27902.054790808648
 21
1495.7494964292871
 31
0.0
1001
AUTOCAD_POSTSCRIPT_FIGURE
1002
{
1000
PSFILL
1000
Grayscale
1000
Grayscale
1070
   100
1002
}
  0
LINE
  5
31F3
  8
YODOROGO
 10
27901.065004790951
 20
1536.2338106976929
 30
0.0
 11
27885.065004790951
 21
1536.2338106976929
 31
0.0
1001
AUTOCAD_POSTSCRIPT_FIGURE
1002
{
1000
PSFILL
1000
Grayscale
1000
Grayscale
1070
   100
1002
}
  0
LINE
  5
31F4
  8
YODOROGO
 10
27929.604341291921
 20
1475.7494964292871
 30
0.0
 11
27901.065004790951
 21
1536.2338106976929
 31
0.0
1001
AUTOCAD_POSTSCRIPT_FIGURE
1002
{
1000
PSFILL
1000
Grayscale
1000
Grayscale
1070
   100
1002
}
  0
LINE
  5
31F5
  8
YODOROGO
 10
27785.604341291921
 20
1475.7494964292871
 30
0.0
 11
27929.604341291921
 21
1475.7494964292871
 31
0.0
1001
AUTOCAD_POSTSCRIPT_FIGURE
1002
{
1000
PSFILL
1000
Grayscale
1000
Grayscale
1070
   100
1002
}
  0
LINE
  5
31F6
  8
YODOROGO
 10
27777.604341291921
 20
1619.9724140445701
 30
0.0
 11
27777.604341291921
 21
1643.9724140445701
 31
0.0
  0
LINE
  5
31F7
  8
YODOROGO
 10
27937.604341291921
 20
1643.9724140445701
 30
0.0
 11
27937.604341291921
 21
1619.9724140445701
 31
0.0
  0
ARC
  5
31F8
  8
YODOROGO
 10
28225.940442146959
 20
1600.877765325326
 30
0.0
 40
175.9999999999998
 50
280.3644312771313
 51
3.5414836592180561
  0
ARC
  5
31F9
  8
YODOROGO
 10
28235.756030759301
 20
1633.5978069619041
 30
0.0
 40
111.9999999999982
 50
281.24905825041549
 51
348.75094174958321
  0
LINE
  5
31FA
  8
YODOROGO
 10
28257.604341291921
 20
1523.7494964292871
 30
0.0
 11
28257.604341291921
 21
1427.749496429288
 31
0.0
  0
LINE
  5
31FB
  8
YODOROGO
 10
28020.088903736909
 20
1610.650565061914
 30
0.0
 11
28040.913204016892
 21
1659.749496429288
 31
0.0
  0
LINE
  5
31FC
  8
YODOROGO
 10
28041.604341291921
 20
1583.120489948401
 30
0.0
 11
28020.088903736909
 21
1610.650565061914
 31
0.0
  0
LINE
  5
31FD
  8
YODOROGO
 10
28041.604341291921
 20
1563.120489948398
 30
0.0
 11
28041.604341291921
 21
1583.120489948401
 31
0.0
  0
LINE
  5
31FE
  8
YODOROGO
 10
28017.604341291921
 20
1585.2370637495301
 30
0.0
 11
28041.604341291921
 21
1563.120489948398
 31
0.0
  0
LINE
  5
31FF
  8
YODOROGO
 10
28017.604341291921
 20
1475.7494964292871
 30
0.0
 11
28017.604341291921
 21
1585.2370637495301
 31
0.0
  0
LINE
  5
3200
  8
YODOROGO
 10
28001.604341291921
 20
1475.7494964292871
 30
0.0
 11
28017.604341291921
 21
1475.7494964292871
 31
0.0
  0
LINE
  5
3201
  8
YODOROGO
 10
28001.604341291921
 20
1580.0053496897469
 30
0.0
 11
28001.604341291921
 21
1475.7494964292871
 31
0.0
  0
LINE
  5
3202
  8
YODOROGO
 10
27977.604341291921
 20
1532.7680790334291
 30
0.0
 11
28001.604341291921
 21
1580.0053496897469
 31
0.0
  0
LINE
  5
3203
  8
YODOROGO
 10
27977.604341291921
 20
1556.76807903343
 30
0.0
 11
27977.604341291921
 21
1532.7680790334291
 31
0.0
  0
LINE
  5
3204
  8
YODOROGO
 10
28025.828774291349
 20
1667.749496429285
 30
0.0
 11
27977.604341291921
 21
1556.76807903343
 31
0.0
  0
LINE
  5
3205
  8
YODOROGO
 10
27977.604341291921
 20
1667.749496429285
 30
0.0
 11
28025.828774291349
 21
1667.749496429285
 31
0.0
  0
LINE
  5
3206
  8
YODOROGO
 10
28050.135520230899
 20
1655.5036372746561
 30
0.0
 11
28082.135520230921
 21
1655.5036372746561
 31
0.0
1001
AUTOCAD_POSTSCRIPT_FIGURE
1002
{
1000
PSFILL
1000
Grayscale
1000
Grayscale
1070
   100
1002
}
  0
LINE
  5
3207
  8
YODOROGO
 10
28050.135520230899
 20
1631.5036372746561
 30
0.0
 11
28050.135520230899
 21
1655.5036372746561
 31
0.0
1001
AUTOCAD_POSTSCRIPT_FIGURE
1002
{
1000
PSFILL
1000
Grayscale
1000
Grayscale
1070
   100
1002
}
  0
LINE
  5
3208
  8
YODOROGO
 10
28082.135520230921
 20
1631.5036372746561
 30
0.0
 11
28050.135520230899
 21
1631.5036372746561
 31
0.0
1001
AUTOCAD_POSTSCRIPT_FIGURE
1002
{
1000
PSFILL
1000
Grayscale
1000
Grayscale
1070
   100
1002
}
  0
LINE
  5
3209
  8
YODOROGO
 10
28082.135520230921
 20
1499.749496429288
 30
0.0
 11
28082.135520230921
 21
1631.5036372746561
 31
0.0
1001
AUTOCAD_POSTSCRIPT_FIGURE
1002
{
1000
PSFILL
1000
Grayscale
1000
Grayscale
1070
   100
1002
}
  0
LINE
  5
320A
  8
YODOROGO
 10
28050.135520230921
 20
1499.749496429288
 30
0.0
 11
28082.135520230921
 21
1499.749496429288
 31
0.0
1001
AUTOCAD_POSTSCRIPT_FIGURE
1002
{
1000
PSFILL
1000
Grayscale
1000
Grayscale
1070
   100
1002
}
  0
LINE
  5
320B
  8
YODOROGO
 10
28050.135520230921
 20
1475.7494964292871
 30
0.0
 11
28050.135520230921
 21
1499.749496429288
 31
0.0
1001
AUTOCAD_POSTSCRIPT_FIGURE
1002
{
1000
PSFILL
1000
Grayscale
1000
Grayscale
1070
   100
1002
}
  0
LINE
  5
320C
  8
YODOROGO
 10
28137.604341291921
 20
1475.7494964292871
 30
0.0
 11
28050.135520230921
 21
1475.7494964292871
 31
0.0
1001
AUTOCAD_POSTSCRIPT_FIGURE
1002
{
1000
PSFILL
1000
Grayscale
1000
Grayscale
1070
   100
1002
}
  0
LINE
  5
320D
  8
YODOROGO
 10
28137.604341291921
 20
1499.749496429288
 30
0.0
 11
28137.604341291921
 21
1475.7494964292871
 31
0.0
1001
AUTOCAD_POSTSCRIPT_FIGURE
1002
{
1000
PSFILL
1000
Grayscale
1000
Grayscale
1070
   100
1002
}
  0
LINE
  5
320E
  8
YODOROGO
 10
28098.135520230931
 20
1499.749496429288
 30
0.0
 11
28137.604341291921
 21
1499.749496429288
 31
0.0
1001
AUTOCAD_POSTSCRIPT_FIGURE
1002
{
1000
PSFILL
1000
Grayscale
1000
Grayscale
1070
   100
1002
}
  0
LINE
  5
320F
  8
YODOROGO
 10
28098.135520230931
 20
1631.5036372746561
 30
0.0
 11
28098.135520230931
 21
1499.749496429288
 31
0.0
1001
AUTOCAD_POSTSCRIPT_FIGURE
1002
{
1000
PSFILL
1000
Grayscale
1000
Grayscale
1070
   100
1002
}
  0
LINE
  5
3210
  8
YODOROGO
 10
28137.604341291921
 20
1631.5036372746561
 30
0.0
 11
28098.135520230931
 21
1631.5036372746561
 31
0.0
1001
AUTOCAD_POSTSCRIPT_FIGURE
1002
{
1000
PSFILL
1000
Grayscale
1000
Grayscale
1070
   100
1002
}
  0
LINE
  5
3211
  8
YODOROGO
 10
28137.604341291921
 20
1655.5036372746561
 30
0.0
 11
28137.604341291921
 21
1631.5036372746561
 31
0.0
1001
AUTOCAD_POSTSCRIPT_FIGURE
1002
{
1000
PSFILL
1000
Grayscale
1000
Grayscale
1070
   100
1002
}
  0
LINE
  5
3212
  8
YODOROGO
 10
28098.135520230931
 20
1655.5036372746561
 30
0.0
 11
28137.604341291921
 21
1655.5036372746561
 31
0.0
1001
AUTOCAD_POSTSCRIPT_FIGURE
1002
{
1000
PSFILL
1000
Grayscale
1000
Grayscale
1070
   100
1002
}
  0
LINE
  5
3213
  8
YODOROGO
 10
28401.60434129191
 20
1667.749496429288
 30
0.0
 11
28345.604341291921
 21
1667.749496429288
 31
0.0
  0
LINE
  5
3214
  8
YODOROGO
 10
28401.60434129191
 20
1611.749496429288
 30
0.0
 11
28401.60434129191
 21
1667.749496429288
 31
0.0
  0
LINE
  5
3215
  8
YODOROGO
 10
28345.604341291921
 20
1667.749496429288
 30
0.0
 11
28345.604341291921
 21
1611.749496429288
 31
0.0
  0
ARC
  5
3216
  8
YODOROGO
 10
28513.60434129191
 20
1507.749496429288
 30
0.0
 40
80.0
 50
180.0
 51
270.0
  0
ARC
  5
3217
  8
YODOROGO
 10
28537.604341291921
 20
1563.7494964292871
 30
0.0
 40
40.0
 50
180.0
 51
270.0
  0
LINE
  5
3218
  8
YODOROGO
 10
28561.604341291932
 20
1523.7494964292871
 30
0.0
 11
28537.604341291921
 21
1523.7494964292871
 31
0.0
  0
ARC
  5
3219
  8
YODOROGO
 10
28561.604341291932
 20
1547.749496429285
 30
0.0
 40
23.999999999996358
 50
270.0
 51
0.0000000000054281
  0
LINE
  5
321A
  8
YODOROGO
 10
27801.604341291921
 20
1890.786580793706
 30
0.0
 11
27777.604341291921
 21
1843.776747951672
 31
0.0
1001
AUTOCAD_POSTSCRIPT_FIGURE
1002
{
1000
PSFILL
1000
Grayscale
1000
Grayscale
1070
   100
1002
}
  0
LINE
  5
321B
  8
YODOROGO
 10
27801.604341291921
 20
1747.749496429286
 30
0.0
 11
27801.604341291921
 21
1890.786580793706
 31
0.0
1001
AUTOCAD_POSTSCRIPT_FIGURE
1002
{
1000
PSFILL
1000
Grayscale
1000
Grayscale
1070
   100
1002
}
  0
LINE
  5
321C
  8
YODOROGO
 10
27817.604341291921
 20
1747.749496429286
 30
0.0
 11
27801.604341291921
 21
1747.749496429286
 31
0.0
1001
AUTOCAD_POSTSCRIPT_FIGURE
1002
{
1000
PSFILL
1000
Grayscale
1000
Grayscale
1070
   100
1002
}
  0
LINE
  5
321D
  8
YODOROGO
 10
27817.604341291921
 20
1893.7713320852661
 30
0.0
 11
27817.604341291921
 21
1747.749496429286
 31
0.0
1001
AUTOCAD_POSTSCRIPT_FIGURE
1002
{
1000
PSFILL
1000
Grayscale
1000
Grayscale
1070
   100
1002
}
  0
LINE
  5
321E
  8
YODOROGO
 10
27841.604341291921
 20
1867.6547582841361
 30
0.0
 11
27817.604341291921
 21
1893.7713320852661
 31
0.0
1001
AUTOCAD_POSTSCRIPT_FIGURE
1002
{
1000
PSFILL
1000
Grayscale
1000
Grayscale
1070
   100
1002
}
  0
LINE
  5
321F
  8
YODOROGO
 10
27841.604341291921
 20
1883.6547582841361
 30
0.0
 11
27841.604341291921
 21
1867.6547582841361
 31
0.0
1001
AUTOCAD_POSTSCRIPT_FIGURE
1002
{
1000
PSFILL
1000
Grayscale
1000
Grayscale
1070
   100
1002
}
  0
LINE
  5
3220
  8
YODOROGO
 10
27817.604341291921
 20
1917.7713320852649
 30
0.0
 11
27841.604341291921
 21
1883.6547582841361
 31
0.0
1001
AUTOCAD_POSTSCRIPT_FIGURE
1002
{
1000
PSFILL
1000
Grayscale
1000
Grayscale
1070
   100
1002
}
  0
LINE
  5
3221
  8
YODOROGO
 10
27817.604341291921
 20
1939.749496429288
 30
0.0
 11
27817.604341291921
 21
1917.7713320852649
 31
0.0
1001
AUTOCAD_POSTSCRIPT_FIGURE
1002
{
1000
PSFILL
1000
Grayscale
1000
Grayscale
1070
   100
1002
}
  0
LINE
  5
3222
  8
YODOROGO
 10
27889.604341291921
 20
1939.749496429288
 30
0.0
 11
27817.604341291921
 21
1939.749496429288
 31
0.0
1001
AUTOCAD_POSTSCRIPT_FIGURE
1002
{
1000
PSFILL
1000
Grayscale
1000
Grayscale
1070
   100
1002
}
  0
LINE
  5
3223
  8
YODOROGO
 10
27889.604341291921
 20
1900.5683489363
 30
0.0
 11
27889.604341291921
 21
1939.749496429288
 31
0.0
1001
AUTOCAD_POSTSCRIPT_FIGURE
1002
{
1000
PSFILL
1000
Grayscale
1000
Grayscale
1070
   100
1002
}
  0
LINE
  5
3224
  8
YODOROGO
 10
27857.604341291921
 20
1900.5683489363
 30
0.0
 11
27889.604341291921
 21
1900.5683489363
 31
0.0
1001
AUTOCAD_POSTSCRIPT_FIGURE
1002
{
1000
PSFILL
1000
Grayscale
1000
Grayscale
1070
   100
1002
}
  0
LINE
  5
3225
  8
YODOROGO
 10
27857.604341291921
 20
1884.568348936298
 30
0.0
 11
27857.604341291921
 21
1900.5683489363
 31
0.0
1001
AUTOCAD_POSTSCRIPT_FIGURE
1002
{
1000
PSFILL
1000
Grayscale
1000
Grayscale
1070
   100
1002
}
  0
LINE
  5
3226
  8
YODOROGO
 10
27889.604341291921
 20
1884.568348936298
 30
0.0
 11
27857.604341291921
 21
1884.568348936298
 31
0.0
1001
AUTOCAD_POSTSCRIPT_FIGURE
1002
{
1000
PSFILL
1000
Grayscale
1000
Grayscale
1070
   100
1002
}
  0
LINE
  5
3227
  8
YODOROGO
 10
27889.604341291921
 20
1879.6191779644371
 30
0.0
 11
27889.604341291921
 21
1884.568348936298
 31
0.0
1001
AUTOCAD_POSTSCRIPT_FIGURE
1002
{
1000
PSFILL
1000
Grayscale
1000
Grayscale
1070
   100
1002
}
  0
LINE
  5
3228
  8
YODOROGO
 10
27849.604341291921
 20
1812.974981161417
 30
0.0
 11
27889.604341291921
 21
1879.6191779644371
 31
0.0
1001
AUTOCAD_POSTSCRIPT_FIGURE
1002
{
1000
PSFILL
1000
Grayscale
1000
Grayscale
1070
   100
1002
}
  0
LINE
  5
3229
  8
YODOROGO
 10
27849.604341291921
 20
1796.9749811614161
 30
0.0
 11
27849.604341291921
 21
1812.974981161417
 31
0.0
1001
AUTOCAD_POSTSCRIPT_FIGURE
1002
{
1000
PSFILL
1000
Grayscale
1000
Grayscale
1070
   100
1002
}
  0
LINE
  5
322A
  8
YODOROGO
 10
27889.604341291921
 20
1847.6191779644359
 30
0.0
 11
27849.604341291921
 21
1796.9749811614161
 31
0.0
1001
AUTOCAD_POSTSCRIPT_FIGURE
1002
{
1000
PSFILL
1000
Grayscale
1000
Grayscale
1070
   100
1002
}
  0
LINE
  5
322B
  8
YODOROGO
 10
27889.604341291921
 20
1747.749496429286
 30
0.0
 11
27889.604341291921
 21
1847.6191779644359
 31
0.0
1001
AUTOCAD_POSTSCRIPT_FIGURE
1002
{
1000
PSFILL
1000
Grayscale
1000
Grayscale
1070
   100
1002
}
  0
LINE
  5
322C
  8
YODOROGO
 10
27905.604341291921
 20
1747.749496429286
 30
0.0
 11
27889.604341291921
 21
1747.749496429286
 31
0.0
1001
AUTOCAD_POSTSCRIPT_FIGURE
1002
{
1000
PSFILL
1000
Grayscale
1000
Grayscale
1070
   100
1002
}
  0
LINE
  5
322D
  8
YODOROGO
 10
27905.604341291921
 20
1849.409012158806
 30
0.0
 11
27905.604341291921
 21
1747.749496429286
 31
0.0
1001
AUTOCAD_POSTSCRIPT_FIGURE
1002
{
1000
PSFILL
1000
Grayscale
1000
Grayscale
1070
   100
1002
}
  0
LINE
  5
322E
  8
YODOROGO
 10
27937.604341291921
 20
1796.9749811614161
 30
0.0
 11
27905.604341291921
 21
1849.409012158806
 31
0.0
1001
AUTOCAD_POSTSCRIPT_FIGURE
1002
{
1000
PSFILL
1000
Grayscale
1000
Grayscale
1070
   100
1002
}
  0
LINE
  5
322F
  8
YODOROGO
 10
27937.604341291921
 20
1812.974981161417
 30
0.0
 11
27937.604341291921
 21
1796.9749811614161
 31
0.0
1001
AUTOCAD_POSTSCRIPT_FIGURE
1002
{
1000
PSFILL
1000
Grayscale
1000
Grayscale
1070
   100
1002
}
  0
LINE
  5
3230
  8
YODOROGO
 10
27905.604341291921
 20
1881.4090121588081
 30
0.0
 11
27937.604341291921
 21
1812.974981161417
 31
0.0
1001
AUTOCAD_POSTSCRIPT_FIGURE
1002
{
1000
PSFILL
1000
Grayscale
1000
Grayscale
1070
   100
1002
}
  0
LINE
  5
3231
  8
YODOROGO
 10
27905.604341291921
 20
1884.5683489363
 30
0.0
 11
27905.604341291921
 21
1881.4090121588081
 31
0.0
1001
AUTOCAD_POSTSCRIPT_FIGURE
1002
{
1000
PSFILL
1000
Grayscale
1000
Grayscale
1070
   100
1002
}
  0
LINE
  5
3232
  8
YODOROGO
 10
27937.604341291921
 20
1884.568348936298
 30
0.0
 11
27905.604341291921
 21
1884.5683489363
 31
0.0
1001
AUTOCAD_POSTSCRIPT_FIGURE
1002
{
1000
PSFILL
1000
Grayscale
1000
Grayscale
1070
   100
1002
}
  0
LINE
  5
3233
  8
YODOROGO
 10
27937.604341291921
 20
1900.5683489363
 30
0.0
 11
27937.604341291921
 21
1884.568348936298
 31
0.0
1001
AUTOCAD_POSTSCRIPT_FIGURE
1002
{
1000
PSFILL
1000
Grayscale
1000
Grayscale
1070
   100
1002
}
  0
LINE
  5
3234
  8
YODOROGO
 10
27905.604341291921
 20
1900.5683489363
 30
0.0
 11
27937.604341291921
 21
1900.5683489363
 31
0.0
1001
AUTOCAD_POSTSCRIPT_FIGURE
1002
{
1000
PSFILL
1000
Grayscale
1000
Grayscale
1070
   100
1002
}
  0
LINE
  5
3235
  8
YODOROGO
 10
27905.604341291921
 20
1939.749496429288
 30
0.0
 11
27905.604341291921
 21
1900.5683489363
 31
0.0
1001
AUTOCAD_POSTSCRIPT_FIGURE
1002
{
1000
PSFILL
1000
Grayscale
1000
Grayscale
1070
   100
1002
}
  0
LINE
  5
3236
  8
YODOROGO
 10
27937.604341291921
 20
1939.749496429288
 30
0.0
 11
27905.604341291921
 21
1939.749496429288
 31
0.0
1001
AUTOCAD_POSTSCRIPT_FIGURE
1002
{
1000
PSFILL
1000
Grayscale
1000
Grayscale
1070
   100
1002
}
  0
LINE
  5
3237
  8
YODOROGO
 10
27937.604341291921
 20
1955.7494964292871
 30
0.0
 11
27937.604341291921
 21
1939.749496429288
 31
0.0
1001
AUTOCAD_POSTSCRIPT_FIGURE
1002
{
1000
PSFILL
1000
Grayscale
1000
Grayscale
1070
   100
1002
}
  0
LINE
  5
3238
  8
YODOROGO
 10
27905.604341291921
 20
1955.7494964292871
 30
0.0
 11
27937.604341291921
 21
1955.7494964292871
 31
0.0
1001
AUTOCAD_POSTSCRIPT_FIGURE
1002
{
1000
PSFILL
1000
Grayscale
1000
Grayscale
1070
   100
1002
}
  0
LINE
  5
3239
  8
YODOROGO
 10
27905.604341291921
 20
1979.749496429288
 30
0.0
 11
27905.604341291921
 21
1955.7494964292871
 31
0.0
1001
AUTOCAD_POSTSCRIPT_FIGURE
1002
{
1000
PSFILL
1000
Grayscale
1000
Grayscale
1070
   100
1002
}
  0
LINE
  5
323A
  8
YODOROGO
 10
27889.604341291921
 20
1979.749496429288
 30
0.0
 11
27905.604341291921
 21
1979.749496429288
 31
0.0
1001
AUTOCAD_POSTSCRIPT_FIGURE
1002
{
1000
PSFILL
1000
Grayscale
1000
Grayscale
1070
   100
1002
}
  0
LINE
  5
323B
  8
YODOROGO
 10
27889.604341291921
 20
1955.7494964292871
 30
0.0
 11
27889.604341291921
 21
1979.749496429288
 31
0.0
1001
AUTOCAD_POSTSCRIPT_FIGURE
1002
{
1000
PSFILL
1000
Grayscale
1000
Grayscale
1070
   100
1002
}
  0
LINE
  5
323C
  8
YODOROGO
 10
27865.604341291921
 20
1955.7494964292871
 30
0.0
 11
27889.604341291921
 21
1955.7494964292871
 31
0.0
1001
AUTOCAD_POSTSCRIPT_FIGURE
1002
{
1000
PSFILL
1000
Grayscale
1000
Grayscale
1070
   100
1002
}
  0
LINE
  5
323D
  8
YODOROGO
 10
27865.604341291921
 20
1979.749496429288
 30
0.0
 11
27865.604341291921
 21
1955.7494964292871
 31
0.0
1001
AUTOCAD_POSTSCRIPT_FIGURE
1002
{
1000
PSFILL
1000
Grayscale
1000
Grayscale
1070
   100
1002
}
  0
LINE
  5
323E
  8
YODOROGO
 10
27849.604341291921
 20
1979.749496429288
 30
0.0
 11
27865.604341291921
 21
1979.749496429288
 31
0.0
1001
AUTOCAD_POSTSCRIPT_FIGURE
1002
{
1000
PSFILL
1000
Grayscale
1000
Grayscale
1070
   100
1002
}
  0
LINE
  5
323F
  8
YODOROGO
 10
27849.604341291921
 20
1955.7494964292871
 30
0.0
 11
27849.604341291921
 21
1979.749496429288
 31
0.0
1001
AUTOCAD_POSTSCRIPT_FIGURE
1002
{
1000
PSFILL
1000
Grayscale
1000
Grayscale
1070
   100
1002
}
  0
LINE
  5
3240
  8
YODOROGO
 10
27817.604341291921
 20
1955.7494964292871
 30
0.0
 11
27849.604341291921
 21
1955.7494964292871
 31
0.0
1001
AUTOCAD_POSTSCRIPT_FIGURE
1002
{
1000
PSFILL
1000
Grayscale
1000
Grayscale
1070
   100
1002
}
  0
LINE
  5
3241
  8
YODOROGO
 10
27817.604341291921
 20
1979.749496429288
 30
0.0
 11
27817.604341291921
 21
1955.7494964292871
 31
0.0
1001
AUTOCAD_POSTSCRIPT_FIGURE
1002
{
1000
PSFILL
1000
Grayscale
1000
Grayscale
1070
   100
1002
}
  0
LINE
  5
3242
  8
YODOROGO
 10
27801.604341291921
 20
1979.749496429288
 30
0.0
 11
27817.604341291921
 21
1979.749496429288
 31
0.0
1001
AUTOCAD_POSTSCRIPT_FIGURE
1002
{
1000
PSFILL
1000
Grayscale
1000
Grayscale
1070
   100
1002
}
  0
LINE
  5
3243
  8
YODOROGO
 10
27801.604341291921
 20
1955.7494964292871
 30
0.0
 11
27801.604341291921
 21
1979.749496429288
 31
0.0
1001
AUTOCAD_POSTSCRIPT_FIGURE
1002
{
1000
PSFILL
1000
Grayscale
1000
Grayscale
1070
   100
1002
}
  0
LINE
  5
3244
  8
YODOROGO
 10
27777.604341291921
 20
1955.7494964292871
 30
0.0
 11
27801.604341291921
 21
1955.7494964292871
 31
0.0
1001
AUTOCAD_POSTSCRIPT_FIGURE
1002
{
1000
PSFILL
1000
Grayscale
1000
Grayscale
1070
   100
1002
}
  0
LINE
  5
3245
  8
YODOROGO
 10
27777.604341291921
 20
1939.749496429288
 30
0.0
 11
27777.604341291921
 21
1955.7494964292871
 31
0.0
1001
AUTOCAD_POSTSCRIPT_FIGURE
1002
{
1000
PSFILL
1000
Grayscale
1000
Grayscale
1070
   100
1002
}
  0
LINE
  5
3246
  8
YODOROGO
 10
27801.604341291921
 20
1939.749496429288
 30
0.0
 11
27777.604341291921
 21
1939.749496429288
 31
0.0
1001
AUTOCAD_POSTSCRIPT_FIGURE
1002
{
1000
PSFILL
1000
Grayscale
1000
Grayscale
1070
   100
1002
}
  0
LINE
  5
3247
  8
YODOROGO
 10
27801.604341291921
 20
1914.7865807937051
 30
0.0
 11
27801.604341291921
 21
1939.749496429288
 31
0.0
1001
AUTOCAD_POSTSCRIPT_FIGURE
1002
{
1000
PSFILL
1000
Grayscale
1000
Grayscale
1070
   100
1002
}
  0
LINE
  5
3248
  8
YODOROGO
 10
27777.604341291921
 20
1859.776747951671
 30
0.0
 11
27801.604341291921
 21
1914.7865807937051
 31
0.0
1001
AUTOCAD_POSTSCRIPT_FIGURE
1002
{
1000
PSFILL
1000
Grayscale
1000
Grayscale
1070
   100
1002
}
  0
LINE
  5
3249
  8
YODOROGO
 10
27777.604341291921
 20
1843.776747951672
 30
0.0
 11
27777.604341291921
 21
1859.776747951671
 31
0.0
1001
AUTOCAD_POSTSCRIPT_FIGURE
1002
{
1000
PSFILL
1000
Grayscale
1000
Grayscale
1070
   100
1002
}
  0
LINE
  5
324A
  8
YODOROGO
 10
28257.604341291921
 20
1867.7494964292871
 30
0.0
 11
28401.60434129191
 21
1824.877625640306
 31
0.0
1001
AUTOCAD_POSTSCRIPT_FIGURE
1002
{
1000
PSFILL
1000
Grayscale
1000
Grayscale
1070
   100
1002
}
  0
LINE
  5
324B
  8
YODOROGO
 10
28401.60434129191
 20
1752.877625640306
 30
0.0
 11
28257.604341291921
 21
1795.7494964292871
 31
0.0
1001
AUTOCAD_POSTSCRIPT_FIGURE
1002
{
1000
PSFILL
1000
Grayscale
1000
Grayscale
1070
   100
1002
}
  0
LINE
  5
324C
  8
YODOROGO
 10
28401.60434129191
 20
1984.877625640306
 30
0.0
 11
28257.604341291921
 21
2027.749496429288
 31
0.0
1001
AUTOCAD_POSTSCRIPT_FIGURE
1002
{
1000
PSFILL
1000
Grayscale
1000
Grayscale
1070
   100
1002
}
  0
LINE
  5
324D
  8
YODOROGO
 10
28257.604341291921
 20
1959.749496429288
 30
0.0
 11
28401.60434129191
 21
1916.8776256403071
 31
0.0
1001
AUTOCAD_POSTSCRIPT_FIGURE
1002
{
1000
PSFILL
1000
Grayscale
1000
Grayscale
1070
   100
1002
}
  0
LINE
  5
324E
  8
YODOROGO
 10
28257.604341291921
 20
1795.7494964292871
 30
0.0
 11
28257.604341291921
 21
1867.7494964292871
 31
0.0
1001
AUTOCAD_POSTSCRIPT_FIGURE
1002
{
1000
PSFILL
1000
Grayscale
1000
Grayscale
1070
   100
1002
}
  0
LINE
  5
324F
  8
YODOROGO
 10
28257.604341291921
 20
2027.749496429288
 30
0.0
 11
28257.604341291921
 21
1959.749496429288
 31
0.0
1001
AUTOCAD_POSTSCRIPT_FIGURE
1002
{
1000
PSFILL
1000
Grayscale
1000
Grayscale
1070
   100
1002
}
  0
LINE
  5
3250
  8
YODOROGO
 10
28080.236320206739
 20
1939.749496429288
 30
0.0
 11
28129.60434129191
 21
1747.749496429286
 31
0.0
1001
AUTOCAD_POSTSCRIPT_FIGURE
1002
{
1000
PSFILL
1000
Grayscale
1000
Grayscale
1070
   100
1002
}
  0
LINE
  5
3251
  8
YODOROGO
 10
27977.604341291921
 20
1939.749496429288
 30
0.0
 11
28080.236320206739
 21
1939.749496429288
 31
0.0
1001
AUTOCAD_POSTSCRIPT_FIGURE
1002
{
1000
PSFILL
1000
Grayscale
1000
Grayscale
1070
   100
1002
}
  0
LINE
  5
3252
  8
YODOROGO
 10
27977.604341291921
 20
1955.7494964292871
 30
0.0
 11
27977.604341291921
 21
1939.749496429288
 31
0.0
1001
AUTOCAD_POSTSCRIPT_FIGURE
1002
{
1000
PSFILL
1000
Grayscale
1000
Grayscale
1070
   100
1002
}
  0
LINE
  5
3253
  8
YODOROGO
 10
28076.60687851991
 20
1955.7494964292871
 30
0.0
 11
27977.604341291921
 21
1955.7494964292871
 31
0.0
1001
AUTOCAD_POSTSCRIPT_FIGURE
1002
{
1000
PSFILL
1000
Grayscale
1000
Grayscale
1070
   100
1002
}
  0
LINE
  5
3254
  8
YODOROGO
 10
28071.162715989711
 20
1979.749496429288
 30
0.0
 11
28076.60687851991
 21
1955.7494964292871
 31
0.0
1001
AUTOCAD_POSTSCRIPT_FIGURE
1002
{
1000
PSFILL
1000
Grayscale
1000
Grayscale
1070
   100
1002
}
  0
LINE
  5
3255
  8
YODOROGO
 10
28091.162715989711
 20
1979.749496429288
 30
0.0
 11
28071.162715989711
 21
1979.749496429288
 31
0.0
1001
AUTOCAD_POSTSCRIPT_FIGURE
1002
{
1000
PSFILL
1000
Grayscale
1000
Grayscale
1070
   100
1002
}
  0
LINE
  5
3256
  8
YODOROGO
 10
28095.806878519939
 20
1955.7494964292871
 30
0.0
 11
28091.162715989711
 21
1979.749496429288
 31
0.0
1001
AUTOCAD_POSTSCRIPT_FIGURE
1002
{
1000
PSFILL
1000
Grayscale
1000
Grayscale
1070
   100
1002
}
  0
LINE
  5
3257
  8
YODOROGO
 10
28121.604341291921
 20
1955.7494964292871
 30
0.0
 11
28095.806878519939
 21
1955.7494964292871
 31
0.0
1001
AUTOCAD_POSTSCRIPT_FIGURE
1002
{
1000
PSFILL
1000
Grayscale
1000
Grayscale
1070
   100
1002
}
  0
LINE
  5
3258
  8
YODOROGO
 10
28121.604341291921
 20
1979.749496429288
 30
0.0
 11
28121.604341291921
 21
1955.7494964292871
 31
0.0
1001
AUTOCAD_POSTSCRIPT_FIGURE
1002
{
1000
PSFILL
1000
Grayscale
1000
Grayscale
1070
   100
1002
}
  0
LINE
  5
3259
  8
YODOROGO
 10
28137.604341291921
 20
1979.749496429288
 30
0.0
 11
28121.604341291921
 21
1979.749496429288
 31
0.0
1001
AUTOCAD_POSTSCRIPT_FIGURE
1002
{
1000
PSFILL
1000
Grayscale
1000
Grayscale
1070
   100
1002
}
  0
LINE
  5
325A
  8
YODOROGO
 10
28137.604341291921
 20
1955.7494964292871
 30
0.0
 11
28137.604341291921
 21
1979.749496429288
 31
0.0
1001
AUTOCAD_POSTSCRIPT_FIGURE
1002
{
1000
PSFILL
1000
Grayscale
1000
Grayscale
1070
   100
1002
}
  0
LINE
  5
325B
  8
YODOROGO
 10
28137.604341291921
 20
1939.749496429288
 30
0.0
 11
28137.604341291921
 21
1955.7494964292871
 31
0.0
1001
AUTOCAD_POSTSCRIPT_FIGURE
1002
{
1000
PSFILL
1000
Grayscale
1000
Grayscale
1070
   100
1002
}
  0
LINE
  5
325C
  8
YODOROGO
 10
28098.902986873411
 20
1939.749496429288
 30
0.0
 11
28137.604341291921
 21
1939.749496429288
 31
0.0
1001
AUTOCAD_POSTSCRIPT_FIGURE
1002
{
1000
PSFILL
1000
Grayscale
1000
Grayscale
1070
   100
1002
}
  0
LINE
  5
325D
  8
YODOROGO
 10
28137.604341291921
 20
1747.749496429286
 30
0.0
 11
28098.902986873411
 21
1939.749496429288
 31
0.0
1001
AUTOCAD_POSTSCRIPT_FIGURE
1002
{
1000
PSFILL
1000
Grayscale
1000
Grayscale
1070
   100
1002
}
  0
LINE
  5
325E
  8
YODOROGO
 10
28129.60434129191
 20
1747.749496429286
 30
0.0
 11
28137.604341291921
 21
1747.749496429286
 31
0.0
1001
AUTOCAD_POSTSCRIPT_FIGURE
1002
{
1000
PSFILL
1000
Grayscale
1000
Grayscale
1070
   100
1002
}
  0
LINE
  5
325F
  8
YODOROGO
 10
28078.06921993379
 20
1775.7407762987939
 30
0.0
 11
27977.604341291921
 21
1747.749496429286
 31
0.0
  0
LINE
  5
3260
  8
YODOROGO
 10
28078.06921993379
 20
1798.6689795290731
 30
0.0
 11
28078.06921993379
 21
1775.7407762987939
 31
0.0
  0
LINE
  5
3261
  8
YODOROGO
 10
28033.83678061287
 20
1786.816933133767
 30
0.0
 11
28078.06921993379
 21
1798.6689795290731
 31
0.0
  0
LINE
  5
3262
  8
YODOROGO
 10
28033.83678061287
 20
1872.5683489362989
 30
0.0
 11
28033.83678061287
 21
1786.816933133767
 31
0.0
  0
LINE
  5
3263
  8
YODOROGO
 10
28078.06921993379
 20
1872.5683489362989
 30
0.0
 11
28033.83678061287
 21
1872.5683489362989
 31
0.0
  0
LINE
  5
3264
  8
YODOROGO
 10
28078.06921993379
 20
1892.568348936298
 30
0.0
 11
28078.06921993379
 21
1872.5683489362989
 31
0.0
  0
LINE
  5
3265
  8
YODOROGO
 10
27977.604341291921
 20
1892.568348936298
 30
0.0
 11
28078.06921993379
 21
1892.568348936298
 31
0.0
  0
LINE
  5
3266
  8
YODOROGO
 10
27977.604341291921
 20
1872.5683489362989
 30
0.0
 11
27977.604341291921
 21
1892.568348936298
 31
0.0
  0
LINE
  5
3267
  8
YODOROGO
 10
28021.836780612852
 20
1872.5683489362989
 30
0.0
 11
27977.604341291921
 21
1872.5683489362989
 31
0.0
  0
LINE
  5
3268
  8
YODOROGO
 10
28021.836780612852
 20
1784.673339594317
 30
0.0
 11
28021.836780612852
 21
1872.5683489362989
 31
0.0
  0
LINE
  5
3269
  8
YODOROGO
 10
27977.604341291921
 20
1771.749496429286
 30
0.0
 11
28021.836780612852
 21
1784.673339594317
 31
0.0
  0
LINE
  5
326A
  8
YODOROGO
 10
27977.604341291921
 20
1747.749496429286
 30
0.0
 11
27977.604341291921
 21
1771.749496429286
 31
0.0
  0
LINE
  5
326B
  8
YODOROGO
 10
28001.604341291921
 20
1707.749496429288
 30
0.0
 11
28001.604341291921
 21
1683.7494964292871
 31
0.0
  0
LINE
  5
326C
  8
YODOROGO
 10
28017.604341291921
 20
1707.749496429288
 30
0.0
 11
28001.604341291921
 21
1707.749496429288
 31
0.0
  0
LINE
  5
326D
  8
YODOROGO
 10
28017.604341291921
 20
1683.7494964292871
 30
0.0
 11
28017.604341291921
 21
1707.749496429288
 31
0.0
  0
LINE
  5
326E
  8
YODOROGO
 10
28040.913204016892
 20
1683.7494964292871
 30
0.0
 11
28017.604341291921
 21
1683.7494964292871
 31
0.0
  0
LINE
  5
326F
  8
YODOROGO
 10
28001.604341291921
 20
1683.7494964292871
 30
0.0
 11
27977.604341291921
 21
1683.7494964292871
 31
0.0
  0
LINE
  5
3270
  8
YODOROGO
 10
28082.135520230921
 20
1707.749496429288
 30
0.0
 11
28098.135520230931
 21
1707.749496429288
 31
0.0
1001
AUTOCAD_POSTSCRIPT_FIGURE
1002
{
1000
PSFILL
1000
Grayscale
1000
Grayscale
1070
   100
1002
}
  0
LINE
  5
3271
  8
YODOROGO
 10
28401.60434129191
 20
1824.877625640306
 30
0.0
 11
28401.60434129191
 21
1752.877625640306
 31
0.0
1001
AUTOCAD_POSTSCRIPT_FIGURE
1002
{
1000
PSFILL
1000
Grayscale
1000
Grayscale
1070
   100
1002
}
  0
LINE
  5
3272
  8
YODOROGO
 10
28401.60434129191
 20
1916.8776256403071
 30
0.0
 11
28401.60434129191
 21
1984.877625640306
 31
0.0
1001
AUTOCAD_POSTSCRIPT_FIGURE
1002
{
1000
PSFILL
1000
Grayscale
1000
Grayscale
1070
   100
1002
}
  0
LINE
  5
3273
  8
YODOROGO
 10
28433.60434129191
 20
1819.7494964292871
 30
0.0
 11
28433.60434129191
 21
1747.74949642929
 31
0.0
  0
LINE
  5
3274
  8
YODOROGO
 10
28497.60434129191
 20
1707.749496429288
 30
0.0
 11
28433.60434129191
 21
1707.749496429288
 31
0.0
  0
LINE
  5
3275
  8
YODOROGO
 10
28433.60434129191
 20
1747.74949642929
 30
0.0
 11
28585.604341291921
 21
1747.74949642929
 31
0.0
  0
LINE
  5
3276
  8
YODOROGO
 10
28497.60434129191
 20
1867.7494964292871
 30
0.0
 11
28433.60434129191
 21
1867.7494964292871
 31
0.0
  0
LINE
  5
3277
  8
YODOROGO
 10
28497.60434129191
 20
1923.7494964292871
 30
0.0
 11
28497.60434129191
 21
1867.7494964292871
 31
0.0
  0
LINE
  5
3278
  8
YODOROGO
 10
28585.604341291921
 20
1987.7494964292871
 30
0.0
 11
28585.604341291921
 21
2027.749496429288
 31
0.0
  0
LINE
  5
3279
  8
YODOROGO
 10
28433.60434129191
 20
1987.7494964292871
 30
0.0
 11
28585.604341291921
 21
1987.7494964292871
 31
0.0
  0
LINE
  5
327A
  8
YODOROGO
 10
28433.60434129191
 20
1867.7494964292871
 30
0.0
 11
28433.60434129191
 21
1987.7494964292871
 31
0.0
  0
LINE
  5
327B
  8
YODOROGO
 10
29001.60434129191
 20
2027.749496429288
 30
0.0
 11
29001.60434129191
 21
1619.749496429288
 31
0.0
  0
LINE
  5
327C
  8
YODOROGO
 10
29073.604341291921
 20
1579.749496429288
 30
0.0
 11
29073.604341291921
 21
2027.749496429288
 31
0.0
  0
LINE
  5
327D
  8
YODOROGO
 10
29261.604341291921
 20
1491.749496429286
 30
0.0
 11
29261.604341291921
 21
2007.749496429288
 31
0.0
  0
LINE
  5
327E
  8
YODOROGO
 10
29197.604341291921
 20
2007.749496429288
 30
0.0
 11
29197.604341291921
 21
1491.749496429286
 31
0.0
  0
LINE
  5
327F
  8
YODOROGO
 10
29385.604341291921
 20
2027.749496429288
 30
0.0
 11
29385.604341291921
 21
1427.749496429288
 31
0.0
  0
LINE
  5
3280
  8
YODOROGO
 10
29457.604341291921
 20
1427.749496429288
 30
0.0
 11
29457.604341291921
 21
2027.749496429288
 31
0.0
  0
LINE
  5
3281
  8
YODOROGO
 10
28657.604341291921
 20
1667.749496429288
 30
0.0
 11
28657.604341291921
 21
1747.74949642929
 31
0.0
  0
LINE
  5
3282
  8
YODOROGO
 10
29885.604341291921
 20
1707.749496429288
 30
0.0
 11
29885.604341291921
 21
1667.749496429288
 31
0.0
  0
LINE
  5
3283
  8
YODOROGO
 10
29885.604341291921
 20
1707.749496429288
 30
0.0
 11
29885.604341291921
 21
1667.749496429288
 31
0.0
  0
ARC
  5
3284
  8
YODOROGO
 10
28906.911576186842
 20
1618.217864442272
 30
0.0
 40
94.705151178741644
 50
274.05244162907098
 51
0.9266642149310712
  0
ARC
  5
3285
  8
YODOROGO
 10
28909.186170719819
 20
1592.61072861044
 30
0.0
 40
164.92042356085511
 50
271.5351210653775
 51
355.52727750585052
  0
LINE
  5
3286
  8
YODOROGO
 10
28913.604341291921
 20
1523.7494964292871
 30
0.0
 11
28913.604341291921
 21
1427.749496429288
 31
0.0
  0
LINE
  5
3287
  8
YODOROGO
 10
28793.60434129191
 20
1667.749496429288
 30
0.0
 11
28657.604341291921
 21
1667.749496429288
 31
0.0
  0
LINE
  5
3288
  8
YODOROGO
 10
28793.60434129191
 20
1603.7494964292871
 30
0.0
 11
28793.60434129191
 21
1667.749496429288
 31
0.0
  0
LINE
  5
3289
  8
YODOROGO
 10
28657.604341291921
 20
1603.7494964292871
 30
0.0
 11
28793.60434129191
 21
1603.7494964292871
 31
0.0
  0
LINE
  5
328A
  8
YODOROGO
 10
28657.604341291921
 20
1523.7494964292871
 30
0.0
 11
28657.604341291921
 21
1603.7494964292871
 31
0.0
  0
LINE
  5
328B
  8
YODOROGO
 10
28793.60434129191
 20
1523.7494964292871
 30
0.0
 11
28657.604341291921
 21
1523.7494964292871
 31
0.0
  0
LINE
  5
328C
  8
YODOROGO
 10
28793.60434129191
 20
1427.749496429288
 30
0.0
 11
28793.60434129191
 21
1523.7494964292871
 31
0.0
  0
LINE
  5
328D
  8
YODOROGO
 10
29197.604341291921
 20
1491.749496429286
 30
0.0
 11
29261.604341291921
 21
1491.749496429286
 31
0.0
  0
LINE
  5
328E
  8
YODOROGO
 10
29385.604341291921
 20
1427.749496429288
 30
0.0
 11
29457.604341291921
 21
1427.749496429288
 31
0.0
  0
LINE
  5
328F
  8
YODOROGO
 10
29737.604341291921
 20
1528.4414521705639
 30
0.0
 11
29737.604341291921
 21
1427.749496429288
 31
0.0
  0
LINE
  5
3290
  8
YODOROGO
 10
29617.604341291921
 20
1427.749496429288
 30
0.0
 11
29737.604341291921
 21
1528.4414521705639
 31
0.0
  0
LINE
  5
3291
  8
YODOROGO
 10
29617.604341291921
 20
1547.749496429288
 30
0.0
 11
29617.604341291921
 21
1427.749496429288
 31
0.0
  0
LINE
  5
3292
  8
YODOROGO
 10
29712.94462869945
 20
1627.749496429288
 30
0.0
 11
29617.604341291921
 21
1547.749496429288
 31
0.0
  0
LINE
  5
3293
  8
YODOROGO
 10
29617.604341291921
 20
1627.749496429288
 30
0.0
 11
29712.94462869945
 21
1627.749496429288
 31
0.0
  0
LINE
  5
3294
  8
YODOROGO
 10
29617.604341291921
 20
1667.749496429288
 30
0.0
 11
29617.604341291921
 21
1627.749496429288
 31
0.0
  0
LINE
  5
3295
  8
YODOROGO
 10
29885.604341291921
 20
1667.749496429288
 30
0.0
 11
29617.604341291921
 21
1667.749496429288
 31
0.0
  0
LINE
  5
3296
  8
YODOROGO
 10
29917.604341291921
 20
1627.749496429288
 30
0.0
 11
29777.604341291921
 21
1627.749496429288
 31
0.0
  0
LINE
  5
3297
  8
YODOROGO
 10
29777.604341291921
 20
1562.0054374176559
 30
0.0
 11
29771.409872985321
 21
1556.807661346234
 31
0.0
  0
LINE
  5
3298
  8
YODOROGO
 10
29777.604341291921
 20
1627.749496429288
 30
0.0
 11
29777.604341291921
 21
1562.0054374176559
 31
0.0
  0
LINE
  5
3299
  8
YODOROGO
 10
29737.604341291921
 20
1528.4414521705639
 30
0.0
 11
29737.604341291921
 21
1427.749496429288
 31
0.0
  0
LINE
  5
329A
  8
YODOROGO
 10
29617.604341291921
 20
1427.749496429288
 30
0.0
 11
29737.604341291921
 21
1528.4414521705639
 31
0.0
  0
LINE
  5
329B
  8
YODOROGO
 10
29617.604341291921
 20
1547.749496429288
 30
0.0
 11
29617.604341291921
 21
1427.749496429288
 31
0.0
  0
LINE
  5
329C
  8
YODOROGO
 10
29712.94462869945
 20
1627.749496429288
 30
0.0
 11
29617.604341291921
 21
1547.749496429288
 31
0.0
  0
LINE
  5
329D
  8
YODOROGO
 10
29617.604341291921
 20
1627.749496429288
 30
0.0
 11
29712.94462869945
 21
1627.749496429288
 31
0.0
  0
LINE
  5
329E
  8
YODOROGO
 10
29617.604341291921
 20
1667.749496429288
 30
0.0
 11
29617.604341291921
 21
1627.749496429288
 31
0.0
  0
LINE
  5
329F
  8
YODOROGO
 10
29885.604341291921
 20
1667.749496429288
 30
0.0
 11
29617.604341291921
 21
1667.749496429288
 31
0.0
  0
LINE
  5
32A0
  8
YODOROGO
 10
28793.60434129191
 20
1747.74949642929
 30
0.0
 11
28793.60434129191
 21
1819.7494964292871
 31
0.0
  0
LINE
  5
32A1
  8
YODOROGO
 10
28657.604341291921
 20
1747.74949642929
 30
0.0
 11
28793.60434129191
 21
1747.74949642929
 31
0.0
  0
LINE
  5
32A2
  8
YODOROGO
 10
28729.604341291921
 20
1867.7494964292871
 30
0.0
 11
28729.604341291921
 21
1923.7494964292871
 31
0.0
  0
LINE
  5
32A3
  8
YODOROGO
 10
28793.60434129191
 20
1867.7494964292871
 30
0.0
 11
28729.604341291921
 21
1867.7494964292871
 31
0.0
  0
LINE
  5
32A4
  8
YODOROGO
 10
28793.60434129191
 20
1947.749496429288
 30
0.0
 11
28793.60434129191
 21
1867.7494964292871
 31
0.0
  0
ARC
  5
32A5
  8
YODOROGO
 10
28753.60434129191
 20
1947.749496429288
 30
0.0
 40
40.0
 50
0.0
 51
90.0
  0
LINE
  5
32A6
  8
YODOROGO
 10
28657.604341291921
 20
1987.7494964292871
 30
0.0
 11
28753.60434129191
 21
1987.7494964292871
 31
0.0
  0
LINE
  5
32A7
  8
YODOROGO
 10
28657.604341291921
 20
2027.749496429288
 30
0.0
 11
28657.604341291921
 21
1987.7494964292871
 31
0.0
  0
LINE
  5
32A8
  8
YODOROGO
 10
29073.604341291921
 20
2027.749496429288
 30
0.0
 11
29001.60434129191
 21
2027.749496429288
 31
0.0
  0
LINE
  5
32A9
  8
YODOROGO
 10
29261.604341291921
 20
2007.749496429288
 30
0.0
 11
29197.604341291921
 21
2007.749496429288
 31
0.0
  0
LINE
  5
32AA
  8
YODOROGO
 10
29457.604341291921
 20
2027.749496429288
 30
0.0
 11
29385.604341291921
 21
2027.749496429288
 31
0.0
  0
LINE
  5
32AB
  8
YODOROGO
 10
29673.604341291921
 20
1707.749496429288
 30
0.0
 11
29673.604341291921
 21
1771.7494964292871
 31
0.0
1001
AUTOCAD_POSTSCRIPT_FIGURE
1002
{
1000
PSFILL
1000
Grayscale
1000
Grayscale
1070
    25
1002
}
  0
LINE
  5
32AC
  8
YODOROGO
 10
29617.604341291921
 20
1707.749496429288
 30
0.0
 11
29673.604341291921
 21
1707.749496429288
 31
0.0
1001
AUTOCAD_POSTSCRIPT_FIGURE
1002
{
1000
PSFILL
1000
Grayscale
1000
Grayscale
1070
    25
1002
}
  0
LINE
  5
32AD
  8
YODOROGO
 10
29617.604341291921
 20
1819.7494964292871
 30
0.0
 11
29617.604341291921
 21
1707.749496429288
 31
0.0
1001
AUTOCAD_POSTSCRIPT_FIGURE
1002
{
1000
PSFILL
1000
Grayscale
1000
Grayscale
1070
    25
1002
}
  0
LINE
  5
32AE
  8
YODOROGO
 10
29765.604341291921
 20
1819.7494964292871
 30
0.0
 11
29617.604341291921
 21
1819.7494964292871
 31
0.0
1001
AUTOCAD_POSTSCRIPT_FIGURE
1002
{
1000
PSFILL
1000
Grayscale
1000
Grayscale
1070
    25
1002
}
  0
LINE
  5
32AF
  8
YODOROGO
 10
29765.604341291921
 20
1859.749496429288
 30
0.0
 11
29765.604341291921
 21
1819.7494964292871
 31
0.0
1001
AUTOCAD_POSTSCRIPT_FIGURE
1002
{
1000
PSFILL
1000
Grayscale
1000
Grayscale
1070
    25
1002
}
  0
LINE
  5
32B0
  8
YODOROGO
 10
29617.604341291921
 20
1859.749496429288
 30
0.0
 11
29765.604341291921
 21
1859.749496429288
 31
0.0
1001
AUTOCAD_POSTSCRIPT_FIGURE
1002
{
1000
PSFILL
1000
Grayscale
1000
Grayscale
1070
    25
1002
}
  0
LINE
  5
32B1
  8
YODOROGO
 10
29617.604341291921
 20
1907.7494964292871
 30
0.0
 11
29617.604341291921
 21
1859.749496429288
 31
0.0
1001
AUTOCAD_POSTSCRIPT_FIGURE
1002
{
1000
PSFILL
1000
Grayscale
1000
Grayscale
1070
    25
1002
}
  0
LINE
  5
32B2
  8
YODOROGO
 10
29765.604341291921
 20
1907.7494964292871
 30
0.0
 11
29617.604341291921
 21
1907.7494964292871
 31
0.0
1001
AUTOCAD_POSTSCRIPT_FIGURE
1002
{
1000
PSFILL
1000
Grayscale
1000
Grayscale
1070
    25
1002
}
  0
LINE
  5
32B3
  8
YODOROGO
 10
29765.604341291921
 20
1947.749496429288
 30
0.0
 11
29765.604341291921
 21
1907.7494964292871
 31
0.0
1001
AUTOCAD_POSTSCRIPT_FIGURE
1002
{
1000
PSFILL
1000
Grayscale
1000
Grayscale
1070
    25
1002
}
  0
LINE
  5
32B4
  8
YODOROGO
 10
29617.604341291921
 20
1947.749496429288
 30
0.0
 11
29765.604341291921
 21
1947.749496429288
 31
0.0
1001
AUTOCAD_POSTSCRIPT_FIGURE
1002
{
1000
PSFILL
1000
Grayscale
1000
Grayscale
1070
    25
1002
}
  0
LINE
  5
32B5
  8
YODOROGO
 10
29617.604341291921
 20
2027.749496429288
 30
0.0
 11
29617.604341291921
 21
1947.749496429288
 31
0.0
1001
AUTOCAD_POSTSCRIPT_FIGURE
1002
{
1000
PSFILL
1000
Grayscale
1000
Grayscale
1070
    25
1002
}
  0
LINE
  5
32B6
  8
YODOROGO
 10
29665.604341291921
 20
2027.749496429288
 30
0.0
 11
29617.604341291921
 21
2027.749496429288
 31
0.0
1001
AUTOCAD_POSTSCRIPT_FIGURE
1002
{
1000
PSFILL
1000
Grayscale
1000
Grayscale
1070
    25
1002
}
  0
LINE
  5
32B7
  8
YODOROGO
 10
29665.604341291921
 20
1995.7494964292871
 30
0.0
 11
29665.604341291921
 21
2027.749496429288
 31
0.0
1001
AUTOCAD_POSTSCRIPT_FIGURE
1002
{
1000
PSFILL
1000
Grayscale
1000
Grayscale
1070
    25
1002
}
  0
LINE
  5
32B8
  8
YODOROGO
 10
29765.604341291921
 20
1995.7494964292871
 30
0.0
 11
29665.604341291921
 21
1995.7494964292871
 31
0.0
1001
AUTOCAD_POSTSCRIPT_FIGURE
1002
{
1000
PSFILL
1000
Grayscale
1000
Grayscale
1070
    25
1002
}
  0
LINE
  5
32B9
  8
YODOROGO
 10
29765.604341291921
 20
2027.749496429288
 30
0.0
 11
29765.604341291921
 21
1995.7494964292871
 31
0.0
1001
AUTOCAD_POSTSCRIPT_FIGURE
1002
{
1000
PSFILL
1000
Grayscale
1000
Grayscale
1070
    25
1002
}
  0
LINE
  5
32BA
  8
YODOROGO
 10
29829.604341291921
 20
2027.749496429288
 30
0.0
 11
29765.604341291921
 21
2027.749496429288
 31
0.0
1001
AUTOCAD_POSTSCRIPT_FIGURE
1002
{
1000
PSFILL
1000
Grayscale
1000
Grayscale
1070
    25
1002
}
  0
LINE
  5
32BB
  8
YODOROGO
 10
29829.604341291921
 20
1995.7494964292871
 30
0.0
 11
29829.604341291921
 21
2027.749496429288
 31
0.0
1001
AUTOCAD_POSTSCRIPT_FIGURE
1002
{
1000
PSFILL
1000
Grayscale
1000
Grayscale
1070
    25
1002
}
  0
LINE
  5
32BC
  8
YODOROGO
 10
29829.604341291921
 20
1907.7494964292871
 30
0.0
 11
29829.604341291921
 21
1947.749496429288
 31
0.0
1001
AUTOCAD_POSTSCRIPT_FIGURE
1002
{
1000
PSFILL
1000
Grayscale
1000
Grayscale
1070
    25
1002
}
  0
LINE
  5
32BD
  8
YODOROGO
 10
29829.604341291921
 20
1819.7494964292871
 30
0.0
 11
29829.604341291921
 21
1859.749496429288
 31
0.0
1001
AUTOCAD_POSTSCRIPT_FIGURE
1002
{
1000
PSFILL
1000
Grayscale
1000
Grayscale
1070
    25
1002
}
  0
LINE
  5
32BE
  8
YODOROGO
 10
29921.60434129191
 20
1771.7494964292871
 30
0.0
 11
29921.60434129191
 21
1707.749496429288
 31
0.0
1001
AUTOCAD_POSTSCRIPT_FIGURE
1002
{
1000
PSFILL
1000
Grayscale
1000
Grayscale
1070
    25
1002
}
  0
LINE
  5
32BF
  8
YODOROGO
 10
29829.604341291921
 20
1771.7494964292871
 30
0.0
 11
29921.60434129191
 21
1771.7494964292871
 31
0.0
1001
AUTOCAD_POSTSCRIPT_FIGURE
1002
{
1000
PSFILL
1000
Grayscale
1000
Grayscale
1070
    25
1002
}
  0
LINE
  5
32C0
  8
YODOROGO
 10
29829.604341291921
 20
1707.749496429288
 30
0.0
 11
29829.604341291921
 21
1771.7494964292871
 31
0.0
1001
AUTOCAD_POSTSCRIPT_FIGURE
1002
{
1000
PSFILL
1000
Grayscale
1000
Grayscale
1070
    25
1002
}
  0
LINE
  5
32C1
  8
YODOROGO
 10
29765.604341291921
 20
1707.749496429288
 30
0.0
 11
29829.604341291921
 21
1707.749496429288
 31
0.0
1001
AUTOCAD_POSTSCRIPT_FIGURE
1002
{
1000
PSFILL
1000
Grayscale
1000
Grayscale
1070
    25
1002
}
  0
LINE
  5
32C2
  8
YODOROGO
 10
29765.604341291921
 20
1771.7494964292871
 30
0.0
 11
29765.604341291921
 21
1707.749496429288
 31
0.0
1001
AUTOCAD_POSTSCRIPT_FIGURE
1002
{
1000
PSFILL
1000
Grayscale
1000
Grayscale
1070
    25
1002
}
  0
LINE
  5
32C3
  8
YODOROGO
 10
29673.604341291921
 20
1771.7494964292871
 30
0.0
 11
29765.604341291921
 21
1771.7494964292871
 31
0.0
1001
AUTOCAD_POSTSCRIPT_FIGURE
1002
{
1000
PSFILL
1000
Grayscale
1000
Grayscale
1070
    25
1002
}
  0
ARC
  5
32C4
  8
YODOROGO
 10
31059.517893357912
 20
1602.6807375155761
 30
0.0
 40
178.22128111072141
 50
281.02627495425338
 51
357.77113575573799
  0
LINE
  5
32C5
  8
YODOROGO
 10
31413.604341291921
 20
1907.7494964292871
 30
0.0
 11
31165.604341291921
 21
1907.7494964292871
 31
0.0
  0
LINE
  5
32C6
  8
YODOROGO
 10
31413.604341291921
 20
2027.749496429288
 30
0.0
 11
31165.604341291921
 21
2027.749496429288
 31
0.0
  0
LINE
  5
32C7
  8
YODOROGO
 10
31165.604341291921
 20
1963.749496429286
 30
0.0
 11
31413.604341291921
 21
1963.749496429286
 31
0.0
  0
LINE
  5
32C8
  8
YODOROGO
 10
30791.604341291921
 20
1563.7494964292871
 30
0.0
 11
30791.604341291921
 21
1755.7494964292871
 31
0.0
  0
LINE
  5
32C9
  8
YODOROGO
 10
30763.604341291921
 20
1691.749496429288
 30
0.0
 11
30763.604341291921
 21
1563.7494964292871
 31
0.0
  0
LINE
  5
32CA
  8
YODOROGO
 10
30723.604341291921
 20
1491.749496429288
 30
0.0
 11
30723.604341291921
 21
1691.749496429288
 31
0.0
  0
LINE
  5
32CB
  8
YODOROGO
 10
30899.604341291932
 20
1691.749496429288
 30
0.0
 11
30899.604341291932
 21
1491.749496429288
 31
0.0
  0
LINE
  5
32CC
  8
YODOROGO
 10
30859.604341291932
 20
1563.7494964292871
 30
0.0
 11
30859.604341291932
 21
1691.749496429288
 31
0.0
  0
LINE
  5
32CD
  8
YODOROGO
 10
30831.604341291921
 20
1755.7494964292871
 30
0.0
 11
30831.604341291921
 21
1563.7494964292871
 31
0.0
  0
LINE
  5
32CE
  8
YODOROGO
 10
30973.604341291921
 20
2027.749496429288
 30
0.0
 11
30973.604341291921
 21
1467.749496429288
 31
0.0
  0
LINE
  5
32CF
  8
YODOROGO
 10
30645.604341291921
 20
1427.749496429288
 30
0.0
 11
30645.604341291921
 21
2027.749496429288
 31
0.0
  0
LINE
  5
32D0
  8
YODOROGO
 10
30697.604341291932
 20
1963.749496429286
 30
0.0
 11
30697.604341291932
 21
1427.749496429288
 31
0.0
  0
LINE
  5
32D1
  8
YODOROGO
 10
30925.604341291921
 20
1547.749496429288
 30
0.0
 11
30925.604341291921
 21
1963.749496429286
 31
0.0
  0
LINE
  5
32D2
  8
YODOROGO
 10
30381.604341291932
 20
1627.749496429288
 30
0.0
 11
30381.604341291932
 21
1679.749496429288
 31
0.0
  0
LINE
  5
32D3
  8
YODOROGO
 10
30617.604341291921
 20
1679.749496429288
 30
0.0
 11
30617.604341291921
 21
1627.749496429288
 31
0.0
  0
LINE
  5
32D4
  8
YODOROGO
 10
31165.604341291921
 20
1907.7494964292871
 30
0.0
 11
31165.604341291921
 21
1635.7494964292871
 31
0.0
  0
LINE
  5
32D5
  8
YODOROGO
 10
29949.60434129191
 20
1667.749496429288
 30
0.0
 11
29949.60434129191
 21
1707.749496429288
 31
0.0
  0
LINE
  5
32D6
  8
YODOROGO
 10
29949.60434129191
 20
1667.749496429288
 30
0.0
 11
29949.60434129191
 21
1707.749496429288
 31
0.0
  0
ARC
  5
32D7
  8
YODOROGO
 10
30537.604341291921
 20
1507.749496429288
 30
0.0
 40
80.0
 50
270.0
 51
0.0
  0
LINE
  5
32D8
  8
YODOROGO
 10
30569.604341291921
 20
1599.7494964292871
 30
0.0
 11
30617.604341291921
 21
1599.7494964292871
 31
0.0
  0
LINE
  5
32D9
  8
YODOROGO
 10
30617.604341291921
 20
1627.749496429288
 30
0.0
 11
30529.604341291939
 21
1627.749496429288
 31
0.0
  0
LINE
  5
32DA
  8
YODOROGO
 10
30217.604341291921
 20
1667.749496429288
 30
0.0
 11
29949.60434129191
 21
1667.749496429288
 31
0.0
  0
LINE
  5
32DB
  8
YODOROGO
 10
30217.604341291921
 20
1627.749496429288
 30
0.0
 11
30217.604341291921
 21
1667.749496429288
 31
0.0
  0
LINE
  5
32DC
  8
YODOROGO
 10
30017.604341291921
 20
1627.749496429288
 30
0.0
 11
30217.604341291921
 21
1627.749496429288
 31
0.0
  0
ARC
  5
32DD
  8
YODOROGO
 10
30230.05882870136
 20
1868.885714952901
 30
0.0
 40
321.37763628522822
 50
228.6181454618993
 51
245.660289248906
  0
LINE
  5
32DE
  8
YODOROGO
 10
30105.604341291921
 20
1603.7494964292871
 30
0.0
 11
30097.60434129195
 21
1576.0728158699001
 31
0.0
  0
LINE
  5
32DF
  8
YODOROGO
 10
30189.604341291921
 20
1603.7494964292871
 30
0.0
 11
30105.604341291921
 21
1603.7494964292871
 31
0.0
  0
LINE
  5
32E0
  8
YODOROGO
 10
30177.604341291921
 20
1551.817722473427
 30
0.0
 11
30189.604341291921
 21
1603.7494964292871
 31
0.0
  0
ARC
  5
32E1
  8
YODOROGO
 10
30230.05882870045
 20
1868.885714953002
 30
0.0
 40
321.37763628529081
 50
260.60629297969911
 51
267.77903556555862
  0
LINE
  5
32E2
  8
YODOROGO
 10
30217.604341291921
 20
1427.749496429285
 30
0.0
 11
30217.604341291921
 21
1547.749496429288
 31
0.0
  0
LINE
  5
32E3
  8
YODOROGO
 10
29937.604341291932
 20
1481.3393349155101
 30
0.0
 11
29937.604341291921
 21
1594.531090531141
 31
0.0
  0
LINE
  5
32E4
  8
YODOROGO
 10
30217.604341291921
 20
1667.749496429288
 30
0.0
 11
29949.60434129191
 21
1667.749496429288
 31
0.0
  0
LINE
  5
32E5
  8
YODOROGO
 10
30217.604341291921
 20
1627.749496429288
 30
0.0
 11
30217.604341291921
 21
1667.749496429288
 31
0.0
  0
LINE
  5
32E6
  8
YODOROGO
 10
30017.604341291921
 20
1627.749496429288
 30
0.0
 11
30217.604341291921
 21
1627.749496429288
 31
0.0
  0
ARC
  5
32E7
  8
YODOROGO
 10
30230.05882870136
 20
1868.885714952901
 30
0.0
 40
321.37763628522822
 50
228.6181454618993
 51
245.660289248906
  0
LINE
  5
32E8
  8
YODOROGO
 10
30105.604341291921
 20
1603.7494964292871
 30
0.0
 11
30097.60434129195
 21
1576.0728158699001
 31
0.0
  0
LINE
  5
32E9
  8
YODOROGO
 10
30189.604341291921
 20
1603.7494964292871
 30
0.0
 11
30105.604341291921
 21
1603.7494964292871
 31
0.0
  0
LINE
  5
32EA
  8
YODOROGO
 10
30177.604341291921
 20
1551.817722473427
 30
0.0
 11
30189.604341291921
 21
1603.7494964292871
 31
0.0
  0
ARC
  5
32EB
  8
YODOROGO
 10
30230.05882870045
 20
1868.885714953002
 30
0.0
 40
321.37763628529081
 50
260.60629297969911
 51
267.77903556555862
  0
LINE
  5
32EC
  8
YODOROGO
 10
30217.604341291921
 20
1427.749496429285
 30
0.0
 11
30217.604341291921
 21
1547.749496429288
 31
0.0
  0
LINE
  5
32ED
  8
YODOROGO
 10
29937.604341291932
 20
1481.3393349155101
 30
0.0
 11
29937.604341291921
 21
1594.531090531141
 31
0.0
  0
LINE
  5
32EE
  8
YODOROGO
 10
30433.604341291921
 20
1573.749496429288
 30
0.0
 11
30381.604341291932
 21
1573.749496429288
 31
0.0
  0
LINE
  5
32EF
  8
YODOROGO
 10
30433.604341291921
 20
1601.749496429285
 30
0.0
 11
30433.604341291921
 21
1573.749496429288
 31
0.0
  0
LINE
  5
32F0
  8
YODOROGO
 10
30381.604341291932
 20
1601.749496429285
 30
0.0
 11
30433.604341291921
 21
1601.749496429285
 31
0.0
  0
LINE
  5
32F1
  8
YODOROGO
 10
30381.604341291932
 20
1573.749496429288
 30
0.0
 11
30381.604341291932
 21
1601.749496429285
 31
0.0
  0
LINE
  5
32F2
  8
YODOROGO
 10
30429.604341291921
 20
1577.7494964292871
 30
0.0
 11
30385.604341291921
 21
1577.7494964292871
 31
0.0
  0
LINE
  5
32F3
  8
YODOROGO
 10
30429.604341291921
 20
1597.749496429288
 30
0.0
 11
30429.604341291921
 21
1577.7494964292871
 31
0.0
  0
LINE
  5
32F4
  8
YODOROGO
 10
30385.604341291921
 20
1597.749496429288
 30
0.0
 11
30429.604341291921
 21
1597.749496429288
 31
0.0
  0
LINE
  5
32F5
  8
YODOROGO
 10
30385.604341291921
 20
1577.7494964292871
 30
0.0
 11
30385.604341291921
 21
1597.749496429288
 31
0.0
  0
LINE
  5
32F6
  8
YODOROGO
 10
30425.604341291921
 20
1581.749496429286
 30
0.0
 11
30389.604341291921
 21
1581.749496429286
 31
0.0
  0
LINE
  5
32F7
  8
YODOROGO
 10
30425.604341291921
 20
1593.749496429288
 30
0.0
 11
30425.604341291921
 21
1581.749496429286
 31
0.0
  0
LINE
  5
32F8
  8
YODOROGO
 10
30389.604341291921
 20
1593.749496429288
 30
0.0
 11
30425.604341291921
 21
1593.749496429288
 31
0.0
  0
LINE
  5
32F9
  8
YODOROGO
 10
30389.604341291921
 20
1581.749496429286
 30
0.0
 11
30389.604341291921
 21
1593.749496429288
 31
0.0
  0
LINE
  5
32FA
  8
YODOROGO
 10
30421.604341291932
 20
1585.7494964292871
 30
0.0
 11
30393.604341291921
 21
1585.7494964292871
 31
0.0
  0
LINE
  5
32FB
  8
YODOROGO
 10
30421.604341291932
 20
1589.749496429288
 30
0.0
 11
30421.604341291932
 21
1585.7494964292871
 31
0.0
  0
LINE
  5
32FC
  8
YODOROGO
 10
30393.604341291921
 20
1589.749496429288
 30
0.0
 11
30421.604341291932
 21
1589.749496429288
 31
0.0
  0
LINE
  5
32FD
  8
YODOROGO
 10
30393.604341291921
 20
1585.7494964292871
 30
0.0
 11
30393.604341291921
 21
1589.749496429288
 31
0.0
  0
LINE
  5
32FE
  8
YODOROGO
 10
30465.604341291921
 20
1627.749496429288
 30
0.0
 11
30381.604341291932
 21
1627.749496429288
 31
0.0
  0
LINE
  5
32FF
  8
YODOROGO
 10
30465.604341291921
 20
1547.749496429288
 30
0.0
 11
30465.604341291921
 21
1627.749496429288
 31
0.0
  0
LINE
  5
3300
  8
YODOROGO
 10
30381.604341291932
 20
1547.749496429288
 30
0.0
 11
30465.604341291921
 21
1547.749496429288
 31
0.0
  0
LINE
  5
3301
  8
YODOROGO
 10
30381.604341291932
 20
1427.749496429288
 30
0.0
 11
30381.604341291932
 21
1547.749496429288
 31
0.0
  0
LINE
  5
3302
  8
YODOROGO
 10
30537.604341291921
 20
1427.749496429288
 30
0.0
 11
30381.604341291932
 21
1427.749496429288
 31
0.0
  0
LINE
  5
3303
  8
YODOROGO
 10
30569.604341291921
 20
1571.749496429285
 30
0.0
 11
30569.604341291921
 21
1599.7494964292871
 31
0.0
  0
ARC
  5
3304
  8
YODOROGO
 10
30545.604341291921
 20
1571.749496429291
 30
0.0
 40
24.000000000003752
 50
270.0
 51
359.99999999998772
  0
LINE
  5
3305
  8
YODOROGO
 10
30529.604341291939
 20
1547.749496429288
 30
0.0
 11
30545.604341291921
 21
1547.749496429288
 31
0.0
  0
LINE
  5
3306
  8
YODOROGO
 10
30529.604341291939
 20
1627.749496429288
 30
0.0
 11
30529.604341291939
 21
1547.749496429288
 31
0.0
  0
LINE
  5
3307
  8
YODOROGO
 10
30899.604341291932
 20
1547.749496429288
 30
0.0
 11
30925.604341291921
 21
1547.749496429288
 31
0.0
  0
LINE
  5
3308
  8
YODOROGO
 10
30933.604341291921
 20
1427.749496429288
 30
0.0
 11
30899.604341291932
 21
1427.749496429288
 31
0.0
  0
LINE
  5
3309
  8
YODOROGO
 10
30763.604341291921
 20
1563.7494964292871
 30
0.0
 11
30791.604341291921
 21
1563.7494964292871
 31
0.0
  0
LINE
  5
330A
  8
YODOROGO
 10
30899.604341291932
 20
1491.749496429288
 30
0.0
 11
30723.604341291921
 21
1491.749496429288
 31
0.0
  0
LINE
  5
330B
  8
YODOROGO
 10
30831.604341291921
 20
1563.7494964292871
 30
0.0
 11
30859.604341291932
 21
1563.7494964292871
 31
0.0
  0
LINE
  5
330C
  8
YODOROGO
 10
30899.604341291932
 20
1427.749496429288
 30
0.0
 11
30899.604341291932
 21
1547.749496429288
 31
0.0
  0
LINE
  5
330D
  8
YODOROGO
 10
30697.604341291932
 20
1427.749496429288
 30
0.0
 11
30645.604341291921
 21
1427.749496429288
 31
0.0
  0
LINE
  5
330E
  8
YODOROGO
 10
30617.604341291921
 20
1599.7494964292871
 30
0.0
 11
30617.604341291921
 21
1507.749496429288
 31
0.0
  0
ARC
  5
330F
  8
YODOROGO
 10
30933.604341291921
 20
1467.749496429288
 30
0.0
 40
40.0
 50
270.0
 51
0.0
  0
LINE
  5
3310
  8
YODOROGO
 10
31093.604341291921
 20
1523.7494964292871
 30
0.0
 11
31093.604341291921
 21
1427.749496429288
 31
0.0
  0
ARC
  5
3311
  8
YODOROGO
 10
31039.721395566768
 20
1637.5313901097329
 30
0.0
 40
125.8955565916754
 50
295.34052442160112
 51
359.18902303418679
  0
LINE
  5
3312
  8
YODOROGO
 10
30617.604341291921
 20
1859.749496429288
 30
0.0
 11
30497.604341291921
 21
1939.749496429288
 31
0.0
  0
LINE
  5
3313
  8
YODOROGO
 10
30497.604341291921
 20
2027.749496429288
 30
0.0
 11
30617.604341291921
 21
1947.749496429288
 31
0.0
  0
LINE
  5
3314
  8
YODOROGO
 10
30529.604341291939
 20
1679.749496429288
 30
0.0
 11
30617.604341291921
 21
1679.749496429288
 31
0.0
  0
LINE
  5
3315
  8
YODOROGO
 10
30617.604341291921
 20
1735.7494964292871
 30
0.0
 11
30529.604341291939
 21
1735.7494964292871
 31
0.0
  0
LINE
  5
3316
  8
YODOROGO
 10
30381.604341291932
 20
1795.7494964292871
 30
0.0
 11
30617.604341291921
 21
1795.7494964292871
 31
0.0
  0
LINE
  5
3317
  8
YODOROGO
 10
30081.604341291921
 20
2027.749496429288
 30
0.0
 11
30021.604341291921
 21
2027.749496429288
 31
0.0
  0
LINE
  5
3318
  8
YODOROGO
 10
30081.604341291921
 20
1827.7494964292871
 30
0.0
 11
30081.604341291921
 21
2027.749496429288
 31
0.0
  0
LINE
  5
3319
  8
YODOROGO
 10
30021.604341291921
 20
1827.7494964292871
 30
0.0
 11
30081.604341291921
 21
1827.7494964292871
 31
0.0
  0
LINE
  5
331A
  8
YODOROGO
 10
30021.604341291921
 20
2027.749496429288
 30
0.0
 11
30021.604341291921
 21
1827.7494964292871
 31
0.0
  0
LINE
  5
331B
  8
YODOROGO
 10
30161.604341291921
 20
2027.749496429288
 30
0.0
 11
30217.604341291921
 21
2027.749496429288
 31
0.0
  0
LINE
  5
331C
  8
YODOROGO
 10
30161.604341291921
 20
1811.749496429288
 30
0.0
 11
30161.604341291921
 21
2027.749496429288
 31
0.0
  0
ARC
  5
331D
  8
YODOROGO
 10
30121.604341291921
 20
1811.749496429288
 30
0.0
 40
40.0
 50
270.0
 51
0.0
  0
LINE
  5
331E
  8
YODOROGO
 10
30021.604341291921
 20
1771.7494964292871
 30
0.0
 11
30121.604341291921
 21
1771.7494964292871
 31
0.0
  0
LINE
  5
331F
  8
YODOROGO
 10
30021.604341291921
 20
1707.749496429288
 30
0.0
 11
30021.604341291921
 21
1771.7494964292871
 31
0.0
  0
LINE
  5
3320
  8
YODOROGO
 10
30137.604341291921
 20
1707.749496429288
 30
0.0
 11
30021.604341291921
 21
1707.749496429288
 31
0.0
  0
ARC
  5
3321
  8
YODOROGO
 10
30137.604341291921
 20
1787.7494964292871
 30
0.0
 40
80.0
 50
270.0
 51
0.0
  0
LINE
  5
3322
  8
YODOROGO
 10
30217.604341291921
 20
2027.749496429288
 30
0.0
 11
30217.604341291921
 21
1787.7494964292871
 31
0.0
  0
LINE
  5
3323
  8
YODOROGO
 10
29977.604341291921
 20
1947.749496429288
 30
0.0
 11
29977.604341291921
 21
1995.7494964292871
 31
0.0
1001
AUTOCAD_POSTSCRIPT_FIGURE
1002
{
1000
PSFILL
1000
Grayscale
1000
Grayscale
1070
    25
1002
}
  0
LINE
  5
3324
  8
YODOROGO
 10
29977.604341291921
 20
1859.749496429288
 30
0.0
 11
29977.604341291921
 21
1907.7494964292871
 31
0.0
1001
AUTOCAD_POSTSCRIPT_FIGURE
1002
{
1000
PSFILL
1000
Grayscale
1000
Grayscale
1070
    25
1002
}
  0
LINE
  5
3325
  8
YODOROGO
 10
29977.604341291921
 20
1707.749496429288
 30
0.0
 11
29977.604341291921
 21
1819.7494964292871
 31
0.0
1001
AUTOCAD_POSTSCRIPT_FIGURE
1002
{
1000
PSFILL
1000
Grayscale
1000
Grayscale
1070
    25
1002
}
  0
LINE
  5
3326
  8
YODOROGO
 10
30381.604341291932
 20
1907.7494964292871
 30
0.0
 11
30497.604341291921
 21
2027.749496429288
 31
0.0
  0
LINE
  5
3327
  8
YODOROGO
 10
30381.604341291932
 20
1819.7494964292871
 30
0.0
 11
30381.604341291932
 21
1907.7494964292871
 31
0.0
  0
LINE
  5
3328
  8
YODOROGO
 10
30497.604341291921
 20
1939.749496429288
 30
0.0
 11
30381.604341291932
 21
1819.7494964292871
 31
0.0
  0
LINE
  5
3329
  8
YODOROGO
 10
30465.604341291921
 20
1679.749496429288
 30
0.0
 11
30465.604341291921
 21
1735.7494964292871
 31
0.0
  0
LINE
  5
332A
  8
YODOROGO
 10
30381.604341291932
 20
1679.749496429288
 30
0.0
 11
30465.604341291921
 21
1679.749496429288
 31
0.0
  0
LINE
  5
332B
  8
YODOROGO
 10
30529.604341291939
 20
1735.7494964292871
 30
0.0
 11
30529.604341291939
 21
1679.749496429288
 31
0.0
  0
LINE
  5
332C
  8
YODOROGO
 10
30381.604341291932
 20
1735.7494964292871
 30
0.0
 11
30381.604341291932
 21
1795.7494964292871
 31
0.0
  0
LINE
  5
332D
  8
YODOROGO
 10
30465.604341291921
 20
1735.7494964292871
 30
0.0
 11
30381.604341291932
 21
1735.7494964292871
 31
0.0
  0
LINE
  5
332E
  8
YODOROGO
 10
30645.604341291921
 20
2027.749496429288
 30
0.0
 11
30973.604341291921
 21
2027.749496429288
 31
0.0
  0
LINE
  5
332F
  8
YODOROGO
 10
30925.604341291921
 20
1963.749496429286
 30
0.0
 11
30697.604341291932
 21
1963.749496429286
 31
0.0
  0
LINE
  5
3330
  8
YODOROGO
 10
30873.604341291921
 20
1819.7494964292871
 30
0.0
 11
30899.604341291932
 21
1819.7494964292871
 31
0.0
  0
LINE
  5
3331
  8
YODOROGO
 10
30899.604341291932
 20
1939.749496429288
 30
0.0
 11
30873.604341291921
 21
1819.7494964292871
 31
0.0
  0
LINE
  5
3332
  8
YODOROGO
 10
30851.604341291939
 20
1939.749496429288
 30
0.0
 11
30899.604341291932
 21
1939.749496429288
 31
0.0
  0
LINE
  5
3333
  8
YODOROGO
 10
30825.604341291921
 20
1819.7494964292871
 30
0.0
 11
30851.604341291939
 21
1939.749496429288
 31
0.0
  0
LINE
  5
3334
  8
YODOROGO
 10
30797.604341291921
 20
1819.7494964292871
 30
0.0
 11
30825.604341291921
 21
1819.7494964292871
 31
0.0
  0
LINE
  5
3335
  8
YODOROGO
 10
30771.604341291939
 20
1939.749496429288
 30
0.0
 11
30797.604341291921
 21
1819.7494964292871
 31
0.0
  0
LINE
  5
3336
  8
YODOROGO
 10
30723.604341291921
 20
1939.749496429288
 30
0.0
 11
30771.604341291939
 21
1939.749496429288
 31
0.0
  0
LINE
  5
3337
  8
YODOROGO
 10
30749.604341291921
 20
1819.7494964292871
 30
0.0
 11
30723.604341291921
 21
1939.749496429288
 31
0.0
  0
LINE
  5
3338
  8
YODOROGO
 10
30723.604341291921
 20
1819.7494964292871
 30
0.0
 11
30749.604341291921
 21
1819.7494964292871
 31
0.0
  0
LINE
  5
3339
  8
YODOROGO
 10
30723.604341291921
 20
1755.7494964292871
 30
0.0
 11
30723.604341291921
 21
1819.7494964292871
 31
0.0
  0
LINE
  5
333A
  8
YODOROGO
 10
30899.604341291932
 20
1755.7494964292871
 30
0.0
 11
30723.604341291921
 21
1755.7494964292871
 31
0.0
  0
LINE
  5
333B
  8
YODOROGO
 10
30899.604341291932
 20
1819.7494964292871
 30
0.0
 11
30899.604341291932
 21
1755.7494964292871
 31
0.0
  0
LINE
  5
333C
  8
YODOROGO
 10
30617.604341291921
 20
1947.749496429288
 30
0.0
 11
30617.604341291921
 21
1859.749496429288
 31
0.0
  0
LINE
  5
333D
  8
YODOROGO
 10
30791.604341291921
 20
1755.7494964292871
 30
0.0
 11
30831.604341291921
 21
1755.7494964292871
 31
0.0
  0
LINE
  5
333E
  8
YODOROGO
 10
30723.604341291921
 20
1691.749496429288
 30
0.0
 11
30763.604341291921
 21
1691.749496429288
 31
0.0
  0
LINE
  5
333F
  8
YODOROGO
 10
30859.604341291932
 20
1691.749496429288
 30
0.0
 11
30899.604341291932
 21
1691.749496429288
 31
0.0
  0
LINE
  5
3340
  8
YODOROGO
 10
30617.604341291921
 20
1795.7494964292871
 30
0.0
 11
30617.604341291921
 21
1735.7494964292871
 31
0.0
  0
LINE
  5
3341
  8
YODOROGO
 10
31165.604341291921
 20
2027.749496429288
 30
0.0
 11
31165.604341291921
 21
1963.749496429286
 31
0.0
  0
LINE
  5
3342
  8
YODOROGO
 10
31533.604341291921
 20
1595.7494964292871
 30
0.0
 11
31533.60434129191
 21
1811.749496429288
 31
0.0
  0
LINE
  5
3343
  8
YODOROGO
 10
31461.60434129191
 20
1987.7494964292871
 30
0.0
 11
31461.60434129191
 21
1635.7494964292871
 31
0.0
  0
LINE
  5
3344
  8
YODOROGO
 10
31653.604341291921
 20
1427.749496429288
 30
0.0
 11
31653.60434129191
 21
1811.749496429288
 31
0.0
  0
LINE
  5
3345
  8
YODOROGO
 10
31589.604341291921
 20
1811.749496429288
 30
0.0
 11
31589.604341291921
 21
1427.749496429288
 31
0.0
  0
LINE
  5
3346
  8
YODOROGO
 10
31237.604341291921
 20
1595.7494964292871
 30
0.0
 11
31237.604341291921
 21
1707.749496429288
 31
0.0
  0
ARC
  5
3347
  8
YODOROGO
 10
31353.914865116069
 20
1607.790351288558
 30
0.0
 40
180.0924485759885
 50
268.62849102169793
 51
356.16638457330322
  0
LINE
  5
3348
  8
YODOROGO
 10
31349.604341291939
 20
1527.749496429288
 30
0.0
 11
31349.604341291939
 21
1427.749496429288
 31
0.0
  0
ARC
  5
3349
  8
YODOROGO
 10
31351.518075724562
 20
1637.838957017655
 30
0.0
 40
110.1060929836122
 50
269.00410209305932
 51
358.91264455492478
  0
LINE
  5
334A
  8
YODOROGO
 10
31589.604341291921
 20
1427.749496429288
 30
0.0
 11
31653.604341291921
 21
1427.749496429288
 31
0.0
  0
LINE
  5
334B
  8
YODOROGO
 10
31533.60434129191
 20
1811.749496429288
 30
0.0
 11
31589.604341291921
 21
1811.749496429288
 31
0.0
  0
LINE
  5
334C
  8
YODOROGO
 10
31621.604341291939
 20
1987.7494964292871
 30
0.0
 11
31461.60434129191
 21
1987.7494964292871
 31
0.0
  0
LINE
  5
334D
  8
YODOROGO
 10
31533.60434129191
 20
1915.7494964292871
 30
0.0
 11
31661.604341291939
 21
1915.7494964292871
 31
0.0
  0
LINE
  5
334E
  8
YODOROGO
 10
31701.604341291939
 20
1875.7494964292871
 30
0.0
 11
31533.60434129191
 21
1875.7494964292871
 31
0.0
  0
LINE
  5
334F
  8
YODOROGO
 10
31237.604341291921
 20
1779.749496429288
 30
0.0
 11
31349.604341291939
 21
1779.749496429288
 31
0.0
  0
LINE
  5
3350
  8
YODOROGO
 10
31237.604341291921
 20
1835.7494964292871
 30
0.0
 11
31237.604341291921
 21
1779.749496429288
 31
0.0
  0
LINE
  5
3351
  8
YODOROGO
 10
31349.604341291939
 20
1835.7494964292871
 30
0.0
 11
31237.604341291921
 21
1835.7494964292871
 31
0.0
  0
LINE
  5
3352
  8
YODOROGO
 10
31349.604341291939
 20
1779.749496429288
 30
0.0
 11
31349.604341291939
 21
1835.7494964292871
 31
0.0
  0
LINE
  5
3353
  8
YODOROGO
 10
31533.60434129191
 20
1875.7494964292871
 30
0.0
 11
31533.60434129191
 21
1915.7494964292871
 31
0.0
  0
LINE
  5
3354
  8
YODOROGO
 10
31413.604341291921
 20
1707.749496429288
 30
0.0
 11
31413.604341291921
 21
1907.7494964292871
 31
0.0
  0
LINE
  5
3355
  8
YODOROGO
 10
31237.604341291921
 20
1707.749496429288
 30
0.0
 11
31413.604341291921
 21
1707.749496429288
 31
0.0
  0
LINE
  5
3356
  8
YODOROGO
 10
31413.604341291921
 20
1963.749496429286
 30
0.0
 11
31413.604341291921
 21
2027.749496429288
 31
0.0
  0
ARC
  5
3357
  8
YODOROGO
 10
31621.604341291939
 20
2003.749496429285
 30
0.0
 40
15.999999999994539
 50
270.0
 51
0.0000000000081422
  0
LINE
  5
3358
  8
YODOROGO
 10
31637.604341291921
 20
2027.749496429288
 30
0.0
 11
31637.604341291921
 21
2003.7494964292871
 31
0.0
  0
LINE
  5
3359
  8
YODOROGO
 10
31701.604341291939
 20
2027.749496429288
 30
0.0
 11
31637.604341291921
 21
2027.749496429288
 31
0.0
  0
LINE
  5
335A
  8
YODOROGO
 10
31701.604341291939
 20
1955.7494964292871
 30
0.0
 11
31701.604341291939
 21
2027.749496429288
 31
0.0
  0
ARC
  5
335B
  8
YODOROGO
 10
31661.604341291939
 20
1955.7494964292871
 30
0.0
 40
40.0
 50
270.0
 51
0.0
  0
LINE
  5
335C
  8
YODOROGO
 10
31701.604341291939
 20
1811.749496429288
 30
0.0
 11
31701.604341291939
 21
1875.7494964292871
 31
0.0
  0
LINE
  5
335D
  8
YODOROGO
 10
31653.60434129191
 20
1811.749496429288
 30
0.0
 11
31701.604341291939
 21
1811.749496429288
 31
0.0
  0
LINE
  5
3361
  8
SUNPOU
  6
CONTINUOUS
 62
     4
 10
11164.96771899998
 20
14076.439648
 30
0.0
 11
10317.972297999981
 21
14076.439648
 31
0.0
  0
LINE
  5
3362
  8
SUNPOU
  6
CONTINUOUS
 62
     4
 10
10397.972297999981
 20
14268.934962999991
 30
0.0
 11
10397.972297999981
 21
14508.934962999991
 31
0.0
  0
LINE
  5
3363
  8
SUNPOU
  6
CONTINUOUS
 62
     4
 10
10397.972297999981
 20
14076.439648
 30
0.0
 11
10397.972297999981
 21
13836.439648
 31
0.0
  0
LINE
  5
3364
  8
SUNPOU
  6
CONTINUOUS
 62
     4
 10
10397.972297999981
 20
14268.934962999991
 30
0.0
 11
10397.972297999981
 21
14076.439648
 31
0.0
  0
LINE
  5
3365
  8
SUNPOU
  6
CONTINUOUS
 62
     4
 10
10397.97262299998
 20
17186.934963
 30
0.0
 11
10397.97262299998
 21
14268.934962999991
 31
0.0
  0
LINE
  5
3366
  8
SUNPOU
  6
CONTINUOUS
 62
     4
 10
11164.968043999979
 20
19966.930872000001
 30
0.0
 11
10717.97262299998
 21
19966.930872000001
 31
0.0
  0
LINE
  5
3367
  8
SUNPOU
  6
CONTINUOUS
 62
     4
 10
11164.97239899998
 20
19976.930872000001
 30
0.0
 11
10717.97262299998
 21
19976.930872000001
 31
0.0
  0
LINE
  5
3368
  8
SUNPOU
  6
CONTINUOUS
 62
     4
 10
10797.97262299998
 20
19966.930872000001
 30
0.0
 11
10797.97262299998
 21
19726.930872000001
 31
0.0
  0
LINE
  5
3369
  8
SUNPOU
  6
CONTINUOUS
 62
     4
 10
10797.97262299998
 20
19976.930872000001
 30
0.0
 11
10797.97262299998
 21
20216.930872000012
 31
0.0
  0
LINE
  5
336A
  8
SUNPOU
  6
CONTINUOUS
 62
     4
 10
10797.97262299998
 20
19966.930872000001
 30
0.0
 11
10797.97262299998
 21
19976.930872000001
 31
0.0
  0
LINE
  5
336B
  8
SUNPOU
  6
CONTINUOUS
 62
     4
 10
11164.97239899998
 20
19976.930872000001
 30
0.0
 11
10317.97262299998
 21
19976.930872000001
 31
0.0
  0
LINE
  5
336C
  8
SUNPOU
  6
CONTINUOUS
 62
     4
 10
10397.97262299998
 20
19754.434963
 30
0.0
 11
10397.97262299998
 21
19514.434962999989
 31
0.0
  0
LINE
  5
336D
  8
SUNPOU
  6
CONTINUOUS
 62
     4
 10
10397.97262299998
 20
19976.930872000001
 30
0.0
 11
10397.97262299998
 21
20216.930872000012
 31
0.0
  0
LINE
  5
336E
  8
SUNPOU
  6
CONTINUOUS
 62
     4
 10
10397.97262299998
 20
19754.434963
 30
0.0
 11
10397.97262299998
 21
19976.930872000001
 31
0.0
  0
LINE
  5
336F
  8
SUNPOU
  6
CONTINUOUS
 62
     4
 10
10397.97262299998
 20
17186.934963
 30
0.0
 11
10397.97262299998
 21
19754.434963
 31
0.0
  0
LINE
  5
3371
  8
SUNPOU
  6
CONTINUOUS
 62
     4
 10
11327.46398699997
 20
20526.936151000031
 30
0.0
 11
11567.46398699997
 21
20526.936151000031
 31
0.0
  0
LINE
  5
3375
  8
SUNPOU
  6
CONTINUOUS
 62
     4
 10
13894.96992499999
 20
20526.936151000031
 30
0.0
 11
13654.96992499999
 21
20526.936151000031
 31
0.0
  0
LINE
  5
3378
  8
SUNPOU
  6
CONTINUOUS
 62
     4
 10
13894.96992499999
 20
20526.936151000031
 30
0.0
 11
11327.46398699997
 21
20526.936151000031
 31
0.0
  0
LINE
  5
3379
  8
2-0
  6
CONTINUOUS
 62
     6
 10
21010.876702000001
 20
19796.933248000008
 30
0.0
 11
20862.241040393041
 21
19861.88892959525
 31
0.0
  0
LINE
  5
337A
  8
2-0
  6
CONTINUOUS
 62
     6
 10
20862.241040393041
 20
19861.88892959525
 30
0.0
 11
20891.34182249575
 21
19906.58901631134
 31
0.0
  0
LINE
  5
337B
  8
2-0
  6
CONTINUOUS
 62
     6
 10
20891.34182249575
 20
19906.58901631134
 30
0.0
 11
21010.876702000001
 21
19796.933248000008
 31
0.0
  0
LINE
  5
337C
  8
SUNPOU
  6
CONTINUOUS
 62
     4
 10
23321.96814199998
 20
19346.934962999989
 30
0.0
 11
24371.969461999979
 21
19346.934962999989
 31
0.0
  0
LINE
  5
337D
  8
SUNPOU
  6
CONTINUOUS
 62
     4
 10
24171.969461999979
 20
19754.434963
 30
0.0
 11
24371.969461999979
 21
19754.434963
 31
0.0
  0
LINE
  5
337E
  8
SUNPOU
  6
CONTINUOUS
 62
     4
 10
24291.969461999979
 20
19346.934962999989
 30
0.0
 11
24291.969461999979
 21
19754.434963
 31
0.0
  0
LINE
  5
337F
  8
SUNPOU
  6
CONTINUOUS
 62
     4
 10
20631.969858
 20
13563.17152899999
 30
0.0
 11
20631.969858
 21
13217.486878999989
 31
0.0
  0
LINE
  5
3380
  8
SUNPOU
  6
CONTINUOUS
 62
     4
 10
20589.467615000001
 20
14146.437668
 30
0.0
 11
20589.467615000001
 21
13217.486878999989
 31
0.0
  0
LINE
  5
3381
  8
SUNPOU
  6
CONTINUOUS
 62
     4
 10
20631.969858
 20
13297.486879
 30
0.0
 11
20871.969858
 21
13297.486879
 31
0.0
  0
LINE
  5
3382
  8
SUNPOU
  6
CONTINUOUS
 62
     4
 10
20589.467615000001
 20
13297.486879
 30
0.0
 11
20349.467615000001
 21
13297.486879
 31
0.0
  0
LINE
  5
3383
  8
SUNPOU
  6
CONTINUOUS
 62
     4
 10
20631.969858
 20
13297.486879
 30
0.0
 11
20589.467615000001
 21
13297.486879
 31
0.0
  0
LINE
  5
3384
  8
SUNPOU
  6
CONTINUOUS
 62
     4
 10
23199.469858
 20
13563.17152899999
 30
0.0
 11
23199.469858
 21
13217.486878999989
 31
0.0
  0
LINE
  5
3385
  8
SUNPOU
  6
CONTINUOUS
 62
     4
 10
23241.972100999988
 20
14146.437668
 30
0.0
 11
23241.972100999988
 21
13217.486878999989
 31
0.0
  0
LINE
  5
3386
  8
SUNPOU
  6
CONTINUOUS
 62
     4
 10
23199.469858
 20
13297.486879
 30
0.0
 11
22959.469858
 21
13297.486879
 31
0.0
  0
LINE
  5
3387
  8
SUNPOU
  6
CONTINUOUS
 62
     4
 10
23241.972100999988
 20
13297.486879
 30
0.0
 11
23481.972100999988
 21
13297.486879
 31
0.0
  0
LINE
  5
3388
  8
SUNPOU
  6
CONTINUOUS
 62
     4
 10
23199.469858
 20
13297.486879
 30
0.0
 11
23241.972100999988
 21
13297.486879
 31
0.0
  0
LINE
  5
3389
  8
SUNPOU
  6
CONTINUOUS
 62
     4
 10
23199.469858
 20
13563.17152899999
 30
0.0
 11
23199.469858
 21
13217.486878999989
 31
0.0
  0
LINE
  5
338A
  8
SUNPOU
  6
CONTINUOUS
 62
     4
 10
23156.96761499999
 20
14146.437668
 30
0.0
 11
23156.96761499999
 21
13217.486878999989
 31
0.0
  0
LINE
  5
338B
  8
SUNPOU
  6
CONTINUOUS
 62
     4
 10
23199.469858
 20
13297.486879
 30
0.0
 11
23439.469858
 21
13297.486879
 31
0.0
  0
LINE
  5
338C
  8
SUNPOU
  6
CONTINUOUS
 62
     4
 10
23156.96761499999
 20
13297.486879
 30
0.0
 11
22916.96761499999
 21
13297.486879
 31
0.0
  0
LINE
  5
338D
  8
SUNPOU
  6
CONTINUOUS
 62
     4
 10
23199.469858
 20
13297.486879
 30
0.0
 11
23156.96761499999
 21
13297.486879
 31
0.0
  0
LINE
  5
338E
  8
SUNPOU
  6
CONTINUOUS
 62
     4
 10
20631.969858
 20
13563.17152899999
 30
0.0
 11
20631.969858
 21
13217.486878999989
 31
0.0
  0
LINE
  5
338F
  8
SUNPOU
  6
CONTINUOUS
 62
     4
 10
20674.472100999981
 20
14146.437668
 30
0.0
 11
20674.472100999981
 21
13217.486878999989
 31
0.0
  0
LINE
  5
3390
  8
SUNPOU
  6
CONTINUOUS
 62
     4
 10
20631.969858
 20
13297.486879
 30
0.0
 11
20391.969858
 21
13297.486879
 31
0.0
  0
LINE
  5
3391
  8
SUNPOU
  6
CONTINUOUS
 62
     4
 10
20674.472100999981
 20
13297.486879
 30
0.0
 11
20914.472100999981
 21
13297.486879
 31
0.0
  0
LINE
  5
3392
  8
SUNPOU
  6
CONTINUOUS
 62
     4
 10
20631.969858
 20
13297.486879
 30
0.0
 11
20674.472100999981
 21
13297.486879
 31
0.0
  0
LINE
  5
3393
  8
SUNPOU
  6
CONTINUOUS
 62
     4
 10
20589.467615000001
 20
14146.437668
 30
0.0
 11
20589.467615000001
 21
12817.486878999989
 31
0.0
  0
LINE
  5
3394
  8
SUNPOU
  6
CONTINUOUS
 62
     4
 10
23241.972100999988
 20
14146.437668
 30
0.0
 11
23241.972100999988
 21
12817.486878999989
 31
0.0
  0
LINE
  5
3395
  8
SUNPOU
  6
CONTINUOUS
 62
     4
 10
20589.467615000001
 20
12897.486878999989
 30
0.0
 11
23241.972100999988
 21
12897.486878999989
 31
0.0
  0
LINE
  5
3396
  8
SUNPOU
  6
CONTINUOUS
 62
     4
 10
23321.96814199998
 20
15026.934963
 30
0.0
 11
24371.969461999979
 21
15026.934963
 31
0.0
  0
LINE
  5
3397
  8
SUNPOU
  6
CONTINUOUS
 62
     4
 10
24171.969461999979
 20
14268.934962999991
 30
0.0
 11
24371.969461999979
 21
14268.934962999991
 31
0.0
  0
LINE
  5
3398
  8
SUNPOU
  6
CONTINUOUS
 62
     4
 10
24291.969461999979
 20
15026.934963
 30
0.0
 11
24291.969461999979
 21
14268.934962999991
 31
0.0
  0
LINE
  5
3399
  8
SUNPOU
  6
CONTINUOUS
 62
     4
 10
23321.96814199998
 20
15728.17547450002
 30
0.0
 11
24371.969461999979
 21
15728.17547450002
 31
0.0
  0
LINE
  5
339A
  8
SUNPOU
  6
CONTINUOUS
 62
     4
 10
23321.96814199998
 20
15026.934963
 30
0.0
 11
24371.969461999979
 21
15026.934963
 31
0.0
  0
LINE
  5
339B
  8
SUNPOU
  6
CONTINUOUS
 62
     4
 10
24291.969461999979
 20
15728.17547450002
 30
0.0
 11
24291.969461999979
 21
15026.934963
 31
0.0
  0
LINE
  5
339C
  8
SUNPOU
  6
CONTINUOUS
 62
     4
 10
23321.96814199998
 20
16428.934963
 30
0.0
 11
24371.969461999979
 21
16428.934963
 31
0.0
  0
LINE
  5
339D
  8
SUNPOU
  6
CONTINUOUS
 62
     4
 10
23321.96814199998
 20
15728.17547450002
 30
0.0
 11
24371.969461999979
 21
15728.17547450002
 31
0.0
  0
LINE
  5
339E
  8
SUNPOU
  6
CONTINUOUS
 62
     4
 10
24291.969461999979
 20
16428.934963
 30
0.0
 11
24291.969461999979
 21
15728.17547450002
 31
0.0
  0
LINE
  5
339F
  8
SUNPOU
  6
CONTINUOUS
 62
     4
 10
24171.969461999979
 20
17186.934963
 30
0.0
 11
24371.969461999979
 21
17186.934963
 31
0.0
  0
LINE
  5
33A0
  8
SUNPOU
  6
CONTINUOUS
 62
     4
 10
23321.96814199998
 20
16428.934963
 30
0.0
 11
24371.969461999979
 21
16428.934963
 31
0.0
  0
LINE
  5
33A1
  8
SUNPOU
  6
CONTINUOUS
 62
     4
 10
24291.969461999979
 20
17186.934963
 30
0.0
 11
24291.969461999979
 21
16428.934963
 31
0.0
  0
LINE
  5
33A2
  8
SUNPOU
  6
CONTINUOUS
 62
     4
 10
23321.96814199998
 20
17944.934963
 30
0.0
 11
24371.969461999979
 21
17944.934963
 31
0.0
  0
LINE
  5
33A3
  8
SUNPOU
  6
CONTINUOUS
 62
     4
 10
24171.969461999979
 20
17186.934963
 30
0.0
 11
24371.969461999979
 21
17186.934963
 31
0.0
  0
LINE
  5
33A4
  8
SUNPOU
  6
CONTINUOUS
 62
     4
 10
24291.969461999979
 20
17944.934963
 30
0.0
 11
24291.969461999979
 21
17186.934963
 31
0.0
  0
LINE
  5
33A5
  8
SUNPOU
  6
CONTINUOUS
 62
     4
 10
23321.96814199998
 20
18645.934963
 30
0.0
 11
24371.969461999979
 21
18645.934963
 31
0.0
  0
LINE
  5
33A6
  8
SUNPOU
  6
CONTINUOUS
 62
     4
 10
23321.96814199998
 20
17944.934963
 30
0.0
 11
24371.969461999979
 21
17944.934963
 31
0.0
  0
LINE
  5
33A7
  8
SUNPOU
  6
CONTINUOUS
 62
     4
 10
24291.969461999979
 20
18645.934963
 30
0.0
 11
24291.969461999979
 21
17944.934963
 31
0.0
  0
LINE
  5
33A8
  8
SUNPOU
  6
CONTINUOUS
 62
     4
 10
23321.96814199998
 20
19346.934962999989
 30
0.0
 11
24371.969461999979
 21
19346.934962999989
 31
0.0
  0
LINE
  5
33A9
  8
SUNPOU
  6
CONTINUOUS
 62
     4
 10
23321.96814199998
 20
18645.934963
 30
0.0
 11
24371.969461999979
 21
18645.934963
 31
0.0
  0
LINE
  5
33AA
  8
SUNPOU
  6
CONTINUOUS
 62
     4
 10
24291.969461999979
 20
19346.934962999989
 30
0.0
 11
24291.969461999979
 21
18645.934963
 31
0.0
  0
LINE
  5
33AB
  8
SUNPOU
  6
CONTINUOUS
 62
     4
 10
24171.969461999979
 20
17186.934963
 30
0.0
 11
24771.969461999979
 21
17186.934963
 31
0.0
  0
LINE
  5
33AC
  8
SUNPOU
  6
CONTINUOUS
 62
     4
 10
24171.969461999979
 20
19754.434963
 30
0.0
 11
24771.969461999979
 21
19754.434962999982
 31
0.0
  0
LINE
  5
33AD
  8
SUNPOU
  6
CONTINUOUS
 62
     4
 10
24691.969461999979
 20
17186.934963
 30
0.0
 11
24691.969461999979
 21
19754.434962999982
 31
0.0
  0
LINE
  5
33AE
  8
SUNPOU
  6
CONTINUOUS
 62
     4
 10
24171.969461999979
 20
14268.934962999991
 30
0.0
 11
24771.969461999979
 21
14268.934962999991
 31
0.0
  0
LINE
  5
33AF
  8
SUNPOU
  6
CONTINUOUS
 62
     4
 10
24171.969461999979
 20
17186.934963
 30
0.0
 11
24771.969461999979
 21
17186.934963
 31
0.0
  0
LINE
  5
33B0
  8
SUNPOU
  6
CONTINUOUS
 62
     4
 10
24691.969461999979
 20
14268.934962999991
 30
0.0
 11
24691.969461999979
 21
17186.934963
 31
0.0
  0
LINE
  5
33B1
  8
SUNPOU
  6
CONTINUOUS
 62
     4
 10
23321.96814199998
 20
19796.932258000001
 30
0.0
 11
25171.96946199999
 21
19796.932258000001
 31
0.0
  0
LINE
  5
33B2
  8
SUNPOU
  6
CONTINUOUS
 62
     4
 10
23321.96814199998
 20
14226.437668
 30
0.0
 11
25171.96946199999
 21
14226.437668
 31
0.0
  0
LINE
  5
33B3
  8
SUNPOU
  6
CONTINUOUS
 62
     4
 10
25091.96946199999
 20
19796.932258000001
 30
0.0
 11
25091.96946199999
 21
14226.437668
 31
0.0
  0
LINE
  5
33B4
  8
SUNPOU
  6
CONTINUOUS
 62
     4
 10
24171.969461999979
 20
19754.434963
 30
0.0
 11
24771.969461999979
 21
19754.434962999982
 31
0.0
  0
LINE
  5
33B5
  8
SUNPOU
  6
CONTINUOUS
 62
     4
 10
23321.96814199998
 20
19796.932258000001
 30
0.0
 11
24771.969461999979
 21
19796.932258000001
 31
0.0
  0
LINE
  5
33B6
  8
SUNPOU
  6
CONTINUOUS
 62
     4
 10
24691.969461999979
 20
19754.434962999982
 30
0.0
 11
24691.969461999979
 21
19514.434962999982
 31
0.0
  0
LINE
  5
33B7
  8
SUNPOU
  6
CONTINUOUS
 62
     4
 10
24691.969461999979
 20
19796.932258000001
 30
0.0
 11
24691.969461999979
 21
20036.932258000001
 31
0.0
  0
LINE
  5
33B8
  8
SUNPOU
  6
CONTINUOUS
 62
     4
 10
24691.969461999979
 20
19754.434962999982
 30
0.0
 11
24691.969461999979
 21
19796.932258000001
 31
0.0
  0
LINE
  5
33B9
  8
SUNPOU
  6
CONTINUOUS
 62
     4
 10
24171.969461999979
 20
14268.934962999991
 30
0.0
 11
24771.969461999979
 21
14268.934962999991
 31
0.0
  0
LINE
  5
33BA
  8
SUNPOU
  6
CONTINUOUS
 62
     4
 10
23321.96814199998
 20
14226.437668
 30
0.0
 11
24771.969461999979
 21
14226.437668
 31
0.0
  0
LINE
  5
33BB
  8
SUNPOU
  6
CONTINUOUS
 62
     4
 10
24691.969461999979
 20
14268.934962999991
 30
0.0
 11
24691.969461999979
 21
14508.934962999991
 31
0.0
  0
LINE
  5
33BC
  8
SUNPOU
  6
CONTINUOUS
 62
     4
 10
24691.969461999979
 20
14226.437668
 30
0.0
 11
24691.969461999979
 21
13986.437668
 31
0.0
  0
LINE
  5
33BD
  8
SUNPOU
  6
CONTINUOUS
 62
     4
 10
24691.969461999979
 20
14268.934962999991
 30
0.0
 11
24691.969461999979
 21
14226.437668
 31
0.0
  0
LINE
  5
33BE
  8
SUNPOU
  6
CONTINUOUS
 62
     4
 10
20631.969858
 20
19876.933248000008
 30
0.0
 11
20631.969858
 21
20606.936151000031
 31
0.0
  0
LINE
  5
33BF
  8
SUNPOU
  6
CONTINUOUS
 62
     4
 10
21039.469857999989
 20
19876.933248000008
 30
0.0
 11
21039.469857999989
 21
20606.936151000031
 31
0.0
  0
LINE
  5
33C0
  8
SUNPOU
  6
CONTINUOUS
 62
     4
 10
20631.969858
 20
20526.936151000031
 30
0.0
 11
20391.969858
 21
20526.936151000031
 31
0.0
  0
LINE
  5
33C1
  8
SUNPOU
  6
CONTINUOUS
 62
     4
 10
21039.469857999989
 20
20526.936151000031
 30
0.0
 11
21279.469857999989
 21
20526.936151000031
 31
0.0
  0
LINE
  5
33C2
  8
SUNPOU
  6
CONTINUOUS
 62
     4
 10
20631.969858
 20
20526.936151000031
 30
0.0
 11
21039.469857999989
 21
20526.936151000031
 31
0.0
  0
LINE
  5
33C3
  8
SUNPOU
  6
CONTINUOUS
 62
     4
 10
22441.469858
 20
19876.933248000008
 30
0.0
 11
22441.469858
 21
20606.936151000031
 31
0.0
  0
LINE
  5
33C4
  8
SUNPOU
  6
CONTINUOUS
 62
     4
 10
23199.470847500001
 20
19876.933248000008
 30
0.0
 11
23199.470847500001
 21
20606.936151000031
 31
0.0
  0
LINE
  5
33C5
  8
SUNPOU
  6
CONTINUOUS
 62
     4
 10
22441.469858
 20
20526.936151000031
 30
0.0
 11
23199.470847500001
 21
20526.936151000031
 31
0.0
  0
LINE
  5
33C6
  8
SUNPOU
  6
CONTINUOUS
 62
     4
 10
21740.469857999989
 20
19876.933248000008
 30
0.0
 11
21740.469857999989
 21
20606.936151000031
 31
0.0
  0
LINE
  5
33C7
  8
SUNPOU
  6
CONTINUOUS
 62
     4
 10
22441.469858
 20
19876.933248000008
 30
0.0
 11
22441.469858
 21
20606.936151000031
 31
0.0
  0
LINE
  5
33C8
  8
SUNPOU
  6
CONTINUOUS
 62
     4
 10
21740.469857999989
 20
20526.936151000031
 30
0.0
 11
22441.469858
 21
20526.936151000031
 31
0.0
  0
LINE
  5
33C9
  8
SUNPOU
  6
CONTINUOUS
 62
     4
 10
21039.469857999989
 20
19876.933248000008
 30
0.0
 11
21039.469857999989
 21
20606.936151000031
 31
0.0
  0
LINE
  5
33CA
  8
SUNPOU
  6
CONTINUOUS
 62
     4
 10
21740.469857999989
 20
19876.933248000008
 30
0.0
 11
21740.469857999989
 21
20606.936151000031
 31
0.0
  0
LINE
  5
33CB
  8
SUNPOU
  6
CONTINUOUS
 62
     4
 10
21039.469857999989
 20
20526.936151000031
 30
0.0
 11
21740.469857999989
 21
20526.936151000031
 31
0.0
  0
LINE
  5
33CC
  8
SUNPOU
  6
CONTINUOUS
 62
     4
 10
23199.469858
 20
19876.933248000008
 30
0.0
 11
23199.469858
 21
20606.936151000031
 31
0.0
  0
LINE
  5
33CD
  8
SUNPOU
  6
CONTINUOUS
 62
     4
 10
23241.96616299999
 20
19876.933248000008
 30
0.0
 11
23241.96616299999
 21
20606.936151000031
 31
0.0
  0
LINE
  5
33CE
  8
SUNPOU
  6
CONTINUOUS
 62
     4
 10
23199.469858
 20
20526.936151000031
 30
0.0
 11
22959.469858
 21
20526.936151000031
 31
0.0
  0
LINE
  5
33CF
  8
SUNPOU
  6
CONTINUOUS
 62
     4
 10
23241.96616299999
 20
20526.936151000031
 30
0.0
 11
23481.96616299999
 21
20526.936151000031
 31
0.0
  0
LINE
  5
33D0
  8
SUNPOU
  6
CONTINUOUS
 62
     4
 10
23199.469858
 20
20526.936151000031
 30
0.0
 11
23241.96616299999
 21
20526.936151000031
 31
0.0
  0
LINE
  5
33D1
  8
SUNPOU
  6
CONTINUOUS
 62
     4
 10
20631.969858
 20
19876.933248000008
 30
0.0
 11
20631.969858
 21
20606.936151000031
 31
0.0
  0
LINE
  5
33D2
  8
SUNPOU
  6
CONTINUOUS
 62
     4
 10
20589.473552999989
 20
19876.933248000008
 30
0.0
 11
20589.473552999989
 21
20606.936151000031
 31
0.0
  0
LINE
  5
33D3
  8
SUNPOU
  6
CONTINUOUS
 62
     4
 10
20631.969858
 20
20526.936151000031
 30
0.0
 11
20871.969858
 21
20526.936151000031
 31
0.0
  0
LINE
  5
33D4
  8
SUNPOU
  6
CONTINUOUS
 62
     4
 10
20589.473552999989
 20
20526.936151000031
 30
0.0
 11
20349.473552999989
 21
20526.936151000031
 31
0.0
  0
LINE
  5
33D5
  8
SUNPOU
  6
CONTINUOUS
 62
     4
 10
20631.969858
 20
20526.936151000031
 30
0.0
 11
20589.473552999989
 21
20526.936151000031
 31
0.0
  0
LINE
  5
33D6
  8
SUNPOU
  6
CONTINUOUS
 62
     4
 10
15269.22327699999
 20
6677.6370850000048
 30
0.0
 11
16346.72169299999
 21
6677.6370850000039
 31
0.0
  0
LINE
  5
33D7
  8
SUNPOU
  6
CONTINUOUS
 62
     4
 10
15361.528556599371
 20
9026.1370850000021
 30
0.0
 11
16346.72169299999
 21
9026.1370850000021
 31
0.0
  0
LINE
  5
33D8
  8
SUNPOU
  6
CONTINUOUS
 62
     4
 10
16266.72169299999
 20
6677.6370850000039
 30
0.0
 11
16266.72169299999
 21
9026.1370850000021
 31
0.0
  0
LINE
  5
33D9
  8
SUNPOU
  6
CONTINUOUS
 62
     4
 10
9518.7232769999955
 20
6677.6370850000048
 30
0.0
 11
8436.2248590000017
 21
6677.6370850000039
 31
0.0
  0
LINE
  5
33DA
  8
SUNPOU
  6
CONTINUOUS
 62
     4
 10
9346.2252549999994
 20
8833.6370850000058
 30
0.0
 11
8436.2248590000017
 21
8833.6370850000058
 31
0.0
  0
LINE
  5
33DB
  8
SUNPOU
  6
CONTINUOUS
 62
     4
 10
8516.2248590000054
 20
6677.6370850000039
 30
0.0
 11
8516.2248590000054
 21
8833.6370850000058
 31
0.0
  0
LINE
  5
33DC
  8
SUNPOU
  6
CONTINUOUS
 62
     4
 10
9426.2232769999955
 20
8914.6370850000058
 30
0.0
 11
9426.2232769999955
 21
10305.637111
 31
0.0
  0
LINE
  5
33DD
  8
SUNPOU
  6
CONTINUOUS
 62
     4
 10
15326.723276999999
 20
9046.5269084124357
 30
0.0
 11
15326.723276999999
 21
10305.637111
 31
0.0
  0
LINE
  5
33DE
  8
SUNPOU
  6
CONTINUOUS
 62
     4
 10
9426.2232769999955
 20
10225.637111
 30
0.0
 11
15326.723276999999
 21
10225.637111
 31
0.0
  0
LINE
  5
33DF
  8
SUNPOU
  6
CONTINUOUS
 62
     4
 10
15176.72327699999
 20
8972.5471490000054
 30
0.0
 11
15176.72327699999
 21
9905.638761000002
 31
0.0
  0
LINE
  5
33E0
  8
SUNPOU
  6
CONTINUOUS
 62
     4
 10
15326.723276999999
 20
9046.5269084124357
 30
0.0
 11
15326.723276999999
 21
9905.638761000002
 31
0.0
  0
LINE
  5
33E1
  8
SUNPOU
  6
CONTINUOUS
 62
     4
 10
15176.72327699999
 20
9825.638761000002
 30
0.0
 11
14936.72327699999
 21
9825.638761000002
 31
0.0
  0
LINE
  5
33E2
  8
SUNPOU
  6
CONTINUOUS
 62
     4
 10
15326.723276999999
 20
9825.638761000002
 30
0.0
 11
15566.723276999999
 21
9825.638761000002
 31
0.0
  0
LINE
  5
33E3
  8
SUNPOU
  6
CONTINUOUS
 62
     4
 10
15176.72327699999
 20
9825.638761000002
 30
0.0
 11
15326.723276999999
 21
9825.638761000002
 31
0.0
  0
LINE
  5
33E4
  8
SUNPOU
  6
CONTINUOUS
 62
     4
 10
9606.2232769999955
 20
8784.8228606838074
 30
0.0
 11
9606.2232769999955
 21
9905.638761000002
 31
0.0
  0
LINE
  5
33E5
  8
SUNPOU
  6
CONTINUOUS
 62
     4
 10
15176.72327699999
 20
8972.5471490000054
 30
0.0
 11
15176.72327699999
 21
9905.638761000002
 31
0.0
  0
LINE
  5
33E6
  8
SUNPOU
  6
CONTINUOUS
 62
     4
 10
9606.2232769999955
 20
9825.638761000002
 30
0.0
 11
15176.72327699999
 21
9825.638761000002
 31
0.0
  0
LINE
  5
33E7
  8
SUNPOU
  6
CONTINUOUS
 62
     4
 10
9426.2232769999955
 20
8914.6370850000058
 30
0.0
 11
9426.2232769999955
 21
9905.638761000002
 31
0.0
  0
LINE
  5
33E8
  8
SUNPOU
  6
CONTINUOUS
 62
     4
 10
9606.2232769999955
 20
8784.8228606838074
 30
0.0
 11
9606.2232769999955
 21
9905.638761000002
 31
0.0
  0
LINE
  5
33E9
  8
SUNPOU
  6
CONTINUOUS
 62
     4
 10
9426.2232769999955
 20
9825.638761000002
 30
0.0
 11
9186.2232769999955
 21
9825.638761000002
 31
0.0
  0
LINE
  5
33EA
  8
SUNPOU
  6
CONTINUOUS
 62
     4
 10
9606.2232769999955
 20
9825.638761000002
 30
0.0
 11
9846.2232769999955
 21
9825.638761000002
 31
0.0
  0
LINE
  5
33EB
  8
SUNPOU
  6
CONTINUOUS
 62
     4
 10
9426.2232769999955
 20
9825.638761000002
 30
0.0
 11
9606.2232769999955
 21
9825.638761000002
 31
0.0
  0
LINE
  5
33EC
  8
SUNPOU
  6
CONTINUOUS
 62
     4
 10
9606.2232769999955
 20
6597.6370850000048
 30
0.0
 11
9606.2232769999955
 21
4897.6374150000047
 31
0.0
  0
LINE
  5
33ED
  8
SUNPOU
  6
CONTINUOUS
 62
     4
 10
15176.72327699999
 20
6597.6370850000048
 30
0.0
 11
15176.72327699999
 21
4897.6374150000047
 31
0.0
  0
LINE
  5
33EE
  8
SUNPOU
  6
CONTINUOUS
 62
     4
 10
9606.2232769999955
 20
4977.6374150000038
 30
0.0
 11
15176.72327699999
 21
4977.6374150000038
 31
0.0
  0
LINE
  5
33EF
  8
SUNPOU
  6
CONTINUOUS
 62
     4
 10
15134.223276999999
 20
6234.9848270000039
 30
0.0
 11
15134.223276999999
 21
5297.6372500000034
 31
0.0
  0
LINE
  5
33F0
  8
SUNPOU
  6
CONTINUOUS
 62
     4
 10
15176.72327699999
 20
6597.6370850000048
 30
0.0
 11
15176.72327699999
 21
5297.6372500000034
 31
0.0
  0
LINE
  5
33F1
  8
SUNPOU
  6
CONTINUOUS
 62
     4
 10
15134.223276999999
 20
5377.6372500000034
 30
0.0
 11
14894.223276999999
 21
5377.6372500000034
 31
0.0
  0
LINE
  5
33F2
  8
SUNPOU
  6
CONTINUOUS
 62
     4
 10
15176.72327699999
 20
5377.6372500000034
 30
0.0
 11
15416.72327699999
 21
5377.6372500000034
 31
0.0
  0
LINE
  5
33F3
  8
SUNPOU
  6
CONTINUOUS
 62
     4
 10
15134.223276999999
 20
5377.6372500000034
 30
0.0
 11
15176.72327699999
 21
5377.6372500000034
 31
0.0
  0
LINE
  5
33F4
  8
SUNPOU
  6
CONTINUOUS
 62
     4
 10
9648.7232769999955
 20
6234.9848270000039
 30
0.0
 11
9648.7232769999955
 21
5297.6372500000034
 31
0.0
  0
LINE
  5
33F5
  8
SUNPOU
  6
CONTINUOUS
 62
     4
 10
9606.2232769999955
 20
6597.6370850000048
 30
0.0
 11
9606.2232769999955
 21
5297.6372500000034
 31
0.0
  0
LINE
  5
33F6
  8
SUNPOU
  6
CONTINUOUS
 62
     4
 10
9648.7232769999955
 20
5377.6372500000034
 30
0.0
 11
9888.7232769999955
 21
5377.6372500000034
 31
0.0
  0
LINE
  5
33F7
  8
SUNPOU
  6
CONTINUOUS
 62
     4
 10
9606.2232769999955
 20
5377.6372500000034
 30
0.0
 11
9366.2232769999955
 21
5377.6372500000034
 31
0.0
  0
LINE
  5
33F8
  8
SUNPOU
  6
CONTINUOUS
 62
     4
 10
9648.7232769999955
 20
5377.6372500000034
 30
0.0
 11
9606.2232769999955
 21
5377.6372500000034
 31
0.0
  0
LINE
  5
33F9
  8
SUNPOU
  6
CONTINUOUS
 62
     4
 10
12216.223276999999
 20
6234.9848270000039
 30
0.0
 11
12216.223276999999
 21
5297.6372500000034
 31
0.0
  0
LINE
  5
33FA
  8
SUNPOU
  6
CONTINUOUS
 62
     4
 10
9648.7232769999955
 20
6234.9848270000039
 30
0.0
 11
9648.7232769999955
 21
5297.6372500000034
 31
0.0
  0
LINE
  5
33FB
  8
SUNPOU
  6
CONTINUOUS
 62
     4
 10
12216.223276999999
 20
5377.6372500000034
 30
0.0
 11
9648.7232769999955
 21
5377.6372500000034
 31
0.0
  0
LINE
  5
33FC
  8
SUNPOU
  6
CONTINUOUS
 62
     4
 10
12216.223276999999
 20
6234.9848270000039
 30
0.0
 11
12216.223276999999
 21
5297.6372500000034
 31
0.0
  0
LINE
  5
33FD
  8
SUNPOU
  6
CONTINUOUS
 62
     4
 10
15134.223276999999
 20
6234.9848270000039
 30
0.0
 11
15134.223276999999
 21
5297.6372500000034
 31
0.0
  0
LINE
  5
33FE
  8
SUNPOU
  6
CONTINUOUS
 62
     4
 10
12216.223276999999
 20
5377.6372500000034
 30
0.0
 11
15134.223276999999
 21
5377.6372500000034
 31
0.0
  0
LINE
  5
33FF
  8
SUNPOU
  6
CONTINUOUS
 62
     4
 10
20501.967218999998
 20
6677.6370850000039
 30
0.0
 11
19701.96853799999
 21
6677.6370850000039
 31
0.0
  0
LINE
  5
3400
  8
SUNPOU
  6
CONTINUOUS
 62
     4
 10
20501.967218999998
 20
8569.1370850000021
 30
0.0
 11
19701.96853799999
 21
8569.1370850000058
 31
0.0
  0
LINE
  5
3401
  8
SUNPOU
  6
CONTINUOUS
 62
     4
 10
19781.96853799999
 20
6677.6370850000039
 30
0.0
 11
19781.96853799999
 21
8569.1370850000058
 31
0.0
  0
LINE
  5
3402
  8
SUNPOU
  6
CONTINUOUS
 62
     4
 10
20501.967218999998
 20
6677.6370850000039
 30
0.0
 11
19301.966228999991
 21
6677.6370850000039
 31
0.0
  0
LINE
  5
3403
  8
SUNPOU
  6
CONTINUOUS
 62
     4
 10
20469.469463000001
 20
9026.136940000004
 30
0.0
 11
19301.966229000001
 21
9026.136940000004
 31
0.0
  0
LINE
  5
3404
  8
SUNPOU
  6
CONTINUOUS
 62
     4
 10
19381.966228999991
 20
6677.6370850000039
 30
0.0
 11
19381.966228999991
 21
9026.136940000004
 31
0.0
  0
LINE
  5
3415
  8
SUNPOU
  6
CONTINUOUS
 62
     4
 10
23199.469858
 20
6234.9848270000057
 30
0.0
 11
23199.469858
 21
5297.6372500000089
 31
0.0
  0
LINE
  5
3416
  8
SUNPOU
  6
CONTINUOUS
 62
     4
 10
23241.969858
 20
6497.6372500000098
 30
0.0
 11
23241.969858
 21
5297.6372500000089
 31
0.0
  0
LINE
  5
3417
  8
SUNPOU
  6
CONTINUOUS
 62
     4
 10
23199.469858
 20
5377.6372500000098
 30
0.0
 11
22959.469858
 21
5377.6372500000098
 31
0.0
  0
LINE
  5
3418
  8
SUNPOU
  6
CONTINUOUS
 62
     4
 10
23241.969858
 20
5377.6372500000098
 30
0.0
 11
23481.969858
 21
5377.6372500000098
 31
0.0
  0
LINE
  5
3419
  8
SUNPOU
  6
CONTINUOUS
 62
     4
 10
23199.469858
 20
5377.6372500000098
 30
0.0
 11
23241.969858
 21
5377.6372500000098
 31
0.0
  0
LINE
  5
341A
  8
SUNPOU
  6
CONTINUOUS
 62
     4
 10
20725.969858
 20
6497.6372500000098
 30
0.0
 11
20725.969858
 21
5697.6372500000089
 31
0.0
  0
LINE
  5
341B
  8
SUNPOU
  6
CONTINUOUS
 62
     4
 10
23105.469858
 20
6497.6372500000098
 30
0.0
 11
23105.469858
 21
5697.6372500000089
 31
0.0
  0
LINE
  5
341C
  8
SUNPOU
  6
CONTINUOUS
 62
     4
 10
20725.969858
 20
5777.6372500000089
 30
0.0
 11
23105.469858
 21
5777.6372500000089
 31
0.0
  0
LINE
  5
341D
  8
SUNPOU
  6
CONTINUOUS
 62
     4
 10
20631.969858
 20
6234.9848270000057
 30
0.0
 11
20631.969858
 21
5297.6372500000089
 31
0.0
  0
LINE
  5
341E
  8
SUNPOU
  6
CONTINUOUS
 62
     4
 10
23199.469858
 20
6234.9848270000057
 30
0.0
 11
23199.469858
 21
5297.6372500000089
 31
0.0
  0
LINE
  5
341F
  8
SUNPOU
  6
CONTINUOUS
 62
     4
 10
20631.969858
 20
5377.6372500000098
 30
0.0
 11
23199.469858
 21
5377.6372500000098
 31
0.0
  0
LINE
  5
3420
  8
SUNPOU
  6
CONTINUOUS
 62
     4
 10
20631.969858
 20
6234.9848270000057
 30
0.0
 11
20631.969858
 21
5297.6372500000089
 31
0.0
  0
LINE
  5
3421
  8
SUNPOU
  6
CONTINUOUS
 62
     4
 10
20589.469858
 20
6497.6372500000098
 30
0.0
 11
20589.469858
 21
5297.6372500000089
 31
0.0
  0
LINE
  5
3422
  8
SUNPOU
  6
CONTINUOUS
 62
     4
 10
20631.969858
 20
5377.6372500000098
 30
0.0
 11
20871.969858
 21
5377.6372500000098
 31
0.0
  0
LINE
  5
3423
  8
SUNPOU
  6
CONTINUOUS
 62
     4
 10
20589.469858
 20
5377.6372500000098
 30
0.0
 11
20349.469857999989
 21
5377.6372500000098
 31
0.0
  0
LINE
  5
3424
  8
SUNPOU
  6
CONTINUOUS
 62
     4
 10
20631.969858
 20
5377.6372500000098
 30
0.0
 11
20589.469858
 21
5377.6372500000098
 31
0.0
  0
LINE
  5
3425
  8
SUNPOU
  6
CONTINUOUS
 62
     4
 10
20589.469858
 20
6497.6372500000098
 30
0.0
 11
20589.469858
 21
4897.6374150000092
 31
0.0
  0
LINE
  5
3426
  8
SUNPOU
  6
CONTINUOUS
 62
     4
 10
23241.969858
 20
6497.6372500000098
 30
0.0
 11
23241.969858
 21
4897.6374150000092
 31
0.0
  0
LINE
  5
3427
  8
SUNPOU
  6
CONTINUOUS
 62
     4
 10
20589.469858
 20
4977.6374150000102
 30
0.0
 11
23241.969858
 21
4977.6374150000102
 31
0.0
  0
TEXT
  5
3428
  8
0
  6
CONTINUOUS
 62
     7
 10
21515.719857999989
 20
5057.6374150000056
 30
0.0
 40
160.0
  1
2652.5
  0
TEXT
  5
3429
  8
0
  6
CONTINUOUS
 62
     7
 10
20023.430867741161
 20
5457.6372500000089
 30
0.0
 40
160.0
  1
42.5
  0
TEXT
  5
342A
  8
0
  6
CONTINUOUS
 62
     7
 10
21515.719857999989
 20
5457.6372500000089
 30
0.0
 40
160.0
  1
2567.5
  0
TEXT
  5
342B
  8
0
  6
CONTINUOUS
 62
     7
 10
20987.719858
 20
5857.6372500000089
 30
0.0
 40
160.0
  1
有効開口巾 2379.5
  0
TEXT
  5
342C
  8
0
  6
CONTINUOUS
 62
     7
 10
23328.00884825884
 20
5457.6372500000089
 30
0.0
 40
160.0
  1
42.5
  0
TEXT
  5
3431
  8
0
  6
CONTINUOUS
 62
     7
 10
19301.966228999991
 20
6870.5536791666746
 30
0.0
 40
160.0
  1
2348.5 (2588.5)
 50
90.0
  0
TEXT
  5
3432
  8
0
  6
CONTINUOUS
 62
     7
 10
19701.96853799999
 20
6741.6163232912786
 30
0.0
 40
160.0
  1
有効開口高サ 1891.5
 50
90.0
  0
TEXT
  5
3433
  8
0
  6
CONTINUOUS
 62
     7
 10
13408.55661033332
 20
5457.6372500000034
 30
0.0
 40
160.0
  1
2918
  0
TEXT
  5
3434
  8
0
  6
CONTINUOUS
 62
     7
 10
10532.473276999999
 20
5457.6372500000034
 30
0.0
 40
160.0
  1
2567.5
  0
TEXT
  5
3435
  8
0
  6
CONTINUOUS
 62
     7
 10
9009.0495679036922
 20
5457.6372500000034
 30
0.0
 40
160.0
  1
42.5
  0
TEXT
  5
3436
  8
0
  6
CONTINUOUS
 62
     7
 10
15315.04191430981
 20
5457.6372500000034
 30
0.0
 40
160.0
  1
42.5
  0
TEXT
  5
3437
  8
0
  6
CONTINUOUS
 62
     7
 10
12004.80661033332
 20
5057.6374150000047
 30
0.0
 40
160.0
  1
5570.5
  0
TEXT
  5
3438
  8
0
  6
CONTINUOUS
 62
     7
 10
9012.8899436666597
 20
9905.638761000002
 30
0.0
 40
160.0
  1
180
  0
TEXT
  5
3439
  8
0
  6
CONTINUOUS
 62
     7
 10
12004.80661033332
 20
9905.638761000002
 30
0.0
 40
160.0
  1
5570.5
  0
TEXT
  5
343A
  8
0
  6
CONTINUOUS
 62
     7
 10
15393.38994366666
 20
9905.638761000002
 30
0.0
 40
160.0
  1
150
  0
TEXT
  5
343B
  8
0
  6
CONTINUOUS
 62
     7
 10
12003.13994366666
 20
10305.637111
 30
0.0
 40
160.0
  1
5900.5
  0
TEXT
  5
343C
  8
0
  6
CONTINUOUS
 62
     7
 10
8436.2248590000017
 20
6976.970418333337
 30
0.0
 40
160.0
  1
2156（2396）
 50
90.0
  0
TEXT
  5
343D
  8
0
  6
CONTINUOUS
 62
     7
 10
16186.72169299999
 20
6833.220418333337
 30
0.0
 40
160.0
  1
2348.5（2588.5）
 50
90.0
  0
TEXT
  5
343E
  8
0
  6
CONTINUOUS
 62
     7
 10
20029.157878471178
 20
20606.936151000031
 30
0.0
 40
160.0
  1
42.5
  0
TEXT
  5
343F
  8
0
  6
CONTINUOUS
 62
     7
 10
23322.281837528779
 20
20606.936151000031
 30
0.0
 40
160.0
  1
42.5
  0
TEXT
  5
3440
  8
0
  6
CONTINUOUS
 62
     7
 10
21216.636524666661
 20
20286.936151000031
 30
0.0
 40
160.0
  1
701
  0
TEXT
  5
3441
  8
0
  6
CONTINUOUS
 62
     7
 10
21917.636524666661
 20
20606.936151000031
 30
0.0
 40
160.0
  1
701
  0
TEXT
  5
3442
  8
0
  6
CONTINUOUS
 62
     7
 10
22607.137019416659
 20
20606.936151000031
 30
0.0
 40
160.0
  1
758
  0
TEXT
  5
3443
  8
0
  6
CONTINUOUS
 62
     7
 10
20732.803191333329
 20
20606.936151000031
 30
0.0
 40
160.0
  1
407.5
  0
TEXT
  5
3444
  8
0
  6
CONTINUOUS
 62
     7
 10
24611.969461999979
 20
13652.8814316032
 30
0.0
 40
160.0
  1
42.5
 50
90.0
  0
TEXT
  5
3445
  8
0
  6
CONTINUOUS
 62
     7
 10
24611.969461999979
 20
19890.488494396792
 30
0.0
 40
160.0
  1
42.5
 50
90.0
  0
TEXT
  5
3446
  8
0
  6
CONTINUOUS
 62
     7
 10
25011.969461999979
 20
16625.018296333339
 30
0.0
 40
160.0
  1
5570.5
 50
90.0
  0
TEXT
  5
3447
  8
0
  6
CONTINUOUS
 62
     7
 10
24611.969461999979
 20
15461.26829633333
 30
0.0
 40
160.0
  1
2918
 50
90.0
  0
TEXT
  5
3448
  8
0
  6
CONTINUOUS
 62
     7
 10
24611.969461999979
 20
18070.684963
 30
0.0
 40
160.0
  1
2567.5
 50
90.0
  0
TEXT
  5
3449
  8
0
  6
CONTINUOUS
 62
     7
 10
24211.969461999979
 20
18823.101629666671
 30
0.0
 40
160.0
  1
701
 50
90.0
  0
TEXT
  5
344A
  8
0
  6
CONTINUOUS
 62
     7
 10
24211.969461999979
 20
18122.101629666671
 30
0.0
 40
160.0
  1
701
 50
90.0
  0
TEXT
  5
344B
  8
0
  6
CONTINUOUS
 62
     7
 10
24211.969461999979
 20
17352.601629666671
 30
0.0
 40
160.0
  1
758
 50
90.0
  0
TEXT
  5
344C
  8
0
  6
CONTINUOUS
 62
     7
 10
24211.969461999979
 20
16594.601629666671
 30
0.0
 40
160.0
  1
758
 50
90.0
  0
TEXT
  5
344D
  8
0
  6
CONTINUOUS
 62
     7
 10
24211.969461999979
 20
15905.22188541668
 30
0.0
 40
160.0
  1
701
 50
90.0
  0
TEXT
  5
344E
  8
0
  6
CONTINUOUS
 62
     7
 10
24211.969461999979
 20
15204.22188541668
 30
0.0
 40
160.0
  1
701
 50
90.0
  0
TEXT
  5
344F
  8
0
  6
CONTINUOUS
 62
     7
 10
24211.969461999979
 20
14434.60162966666
 30
0.0
 40
160.0
  1
758
 50
90.0
  0
TEXT
  5
3450
  8
0
  6
CONTINUOUS
 62
     7
 10
21515.719857999989
 20
12977.486878999989
 30
0.0
 40
160.0
  1
2652.5
  0
TEXT
  5
3451
  8
0
  6
CONTINUOUS
 62
     7
 10
20750.023530382081
 20
13377.486879
 30
0.0
 40
160.0
  1
42.5
  0
TEXT
  5
3452
  8
0
  6
CONTINUOUS
 62
     7
 10
22601.416185617909
 20
13377.486879
 30
0.0
 40
160.0
  1
42.5
  0
TEXT
  5
3453
  8
0
  6
CONTINUOUS
 62
     7
 10
23317.523530382081
 20
13377.486879
 30
0.0
 40
160.0
  1
42.5
  0
TEXT
  5
3454
  8
0
  6
CONTINUOUS
 62
     7
 10
20033.916185617902
 20
13377.486879
 30
0.0
 40
160.0
  1
42.5
  0
TEXT
  5
3455
  8
0
  6
CONTINUOUS
 62
     7
 10
24571.969461999979
 20
19056.312930643209
 30
0.0
 40
160.0
  1
407.5
 50
90.0
  0
TEXT
  5
3456
  8
0
  6
CONTINUOUS
 62
     7
 10
12461.21695599998
 20
20606.936151000031
 30
0.0
 40
160.0
  1
2567.5
  0
TEXT
  5
3459
  8
0
  6
CONTINUOUS
 62
     7
 10
10317.97262299998
 20
18070.684963
 30
0.0
 40
160.0
  1
2567.5
 50
90.0
  0
TEXT
  5
345A
  8
0
  6
CONTINUOUS
 62
     7
 10
10317.972622999971
 20
20065.89014780768
 30
0.0
 40
160.0
  1
222.5
 50
90.0
  0
TEXT
  5
345B
  8
0
  6
CONTINUOUS
 62
     7
 10
10717.97262299998
 20
20123.59753866668
 30
0.0
 40
160.0
  1
10
 50
90.0
  0
TEXT
  5
345C
  8
0
  6
CONTINUOUS
 62
     7
 10
10317.97262299998
 20
15461.26829633331
 30
0.0
 40
160.0
  1
2918
 50
90.0
  0
TEXT
  5
345D
  8
0
  6
CONTINUOUS
 62
     7
 10
10317.97229799997
 20
13460.98195270263
 30
0.0
 40
160.0
  1
192.5
 50
90.0
  0
ARC
  5
3463
  8
0
  6
BYBLOCK
 62
     0
 10
10397.972297999981
 20
14268.934962999991
 30
0.0
 40
15.0
 50
90.0
 51
270.0
  0
ARC
  5
3464
  8
0
  6
BYBLOCK
 62
     0
 10
10397.972297999981
 20
14268.934962999991
 30
0.0
 40
15.0
 50
270.0
 51
90.0
  0
ARC
  5
3465
  8
0
  6
BYBLOCK
 62
     0
 10
10397.972297999981
 20
14076.439648
 30
0.0
 40
15.0
 50
270.0
 51
90.0
  0
ARC
  5
3466
  8
0
  6
BYBLOCK
 62
     0
 10
10397.972297999981
 20
14076.439648
 30
0.0
 40
15.0
 50
90.0
 51
270.0
  0
ARC
  5
3467
  8
0
  6
BYBLOCK
 62
     0
 10
10397.97262299998
 20
17186.934963
 30
0.0
 40
15.0
 50
270.0
 51
90.0
  0
ARC
  5
3468
  8
0
  6
BYBLOCK
 62
     0
 10
10397.97262299998
 20
17186.934963
 30
0.0
 40
15.0
 50
90.0
 51
270.0
  0
ARC
  5
3469
  8
0
  6
BYBLOCK
 62
     0
 10
10397.97262299998
 20
14268.934962999991
 30
0.0
 40
15.0
 50
90.0
 51
270.0
  0
ARC
  5
346A
  8
0
  6
BYBLOCK
 62
     0
 10
10397.97262299998
 20
14268.934962999991
 30
0.0
 40
15.0
 50
270.0
 51
90.0
  0
ARC
  5
346B
  8
0
  6
BYBLOCK
 62
     0
 10
10797.97262299998
 20
19966.930872000001
 30
0.0
 40
15.0
 50
270.0
 51
90.0
  0
ARC
  5
346C
  8
0
  6
BYBLOCK
 62
     0
 10
10797.97262299998
 20
19966.930872000001
 30
0.0
 40
15.0
 50
90.0
 51
270.0
  0
ARC
  5
346D
  8
0
  6
BYBLOCK
 62
     0
 10
10797.97262299998
 20
19976.930872000001
 30
0.0
 40
15.0
 50
90.0
 51
270.0
  0
ARC
  5
346E
  8
0
  6
BYBLOCK
 62
     0
 10
10797.97262299998
 20
19976.930872000001
 30
0.0
 40
15.0
 50
270.0
 51
90.0
  0
ARC
  5
346F
  8
0
  6
BYBLOCK
 62
     0
 10
10397.97262299998
 20
19754.434963
 30
0.0
 40
15.0
 50
270.0
 51
90.0
  0
ARC
  5
3470
  8
0
  6
BYBLOCK
 62
     0
 10
10397.97262299998
 20
19754.434963
 30
0.0
 40
15.0
 50
90.0
 51
270.0
  0
ARC
  5
3471
  8
0
  6
BYBLOCK
 62
     0
 10
10397.97262299998
 20
19976.930872000001
 30
0.0
 40
15.0
 50
90.0
 51
270.0
  0
ARC
  5
3472
  8
0
  6
BYBLOCK
 62
     0
 10
10397.97262299998
 20
19976.930872000001
 30
0.0
 40
15.0
 50
270.0
 51
90.0
  0
ARC
  5
3473
  8
0
  6
BYBLOCK
 62
     0
 10
10397.97262299998
 20
17186.934963
 30
0.0
 40
15.0
 50
90.0
 51
270.0
  0
ARC
  5
3474
  8
0
  6
BYBLOCK
 62
     0
 10
10397.97262299998
 20
17186.934963
 30
0.0
 40
15.0
 50
270.0
 51
90.0
  0
ARC
  5
3475
  8
0
  6
BYBLOCK
 62
     0
 10
10397.97262299998
 20
19754.434963
 30
0.0
 40
15.0
 50
270.0
 51
90.0
  0
ARC
  5
3476
  8
0
  6
BYBLOCK
 62
     0
 10
10397.97262299998
 20
19754.434963
 30
0.0
 40
15.0
 50
90.0
 51
270.0
  0
ARC
  5
3477
  8
0
  6
BYBLOCK
 62
     0
 10
11327.46398699997
 20
20526.936151000031
 30
0.0
 40
15.0
 50
0.0
 51
180.0
  0
ARC
  5
3478
  8
0
  6
BYBLOCK
 62
     0
 10
11327.46398699997
 20
20526.936151000031
 30
0.0
 40
15.0
 50
180.0
 51
0.0
  0
ARC
  5
347B
  8
0
  6
BYBLOCK
 62
     0
 10
13894.96992499999
 20
20526.936151000031
 30
0.0
 40
15.0
 50
180.0
 51
0.0
  0
ARC
  5
347C
  8
0
  6
BYBLOCK
 62
     0
 10
13894.96992499999
 20
20526.936151000031
 30
0.0
 40
15.0
 50
0.0
 51
180.0
  0
ARC
  5
347F
  8
0
  6
BYBLOCK
 62
     0
 10
13894.96992499999
 20
20526.936151000031
 30
0.0
 40
15.0
 50
180.0
 51
0.0
  0
ARC
  5
3480
  8
0
  6
BYBLOCK
 62
     0
 10
13894.96992499999
 20
20526.936151000031
 30
0.0
 40
15.0
 50
0.0
 51
180.0
  0
ARC
  5
3481
  8
0
  6
BYBLOCK
 62
     0
 10
11327.46398699997
 20
20526.936151000031
 30
0.0
 40
15.0
 50
0.0
 51
180.0
  0
ARC
  5
3482
  8
0
  6
BYBLOCK
 62
     0
 10
11327.46398699997
 20
20526.936151000031
 30
0.0
 40
15.0
 50
180.0
 51
0.0
  0
ARC
  5
3483
  8
0
  6
BYBLOCK
 62
     0
 10
24291.969461999979
 20
19346.934962999989
 30
0.0
 40
15.0
 50
90.0
 51
270.0
  0
ARC
  5
3484
  8
0
  6
BYBLOCK
 62
     0
 10
24291.969461999979
 20
19346.934962999989
 30
0.0
 40
15.0
 50
270.0
 51
90.0
  0
ARC
  5
3485
  8
0
  6
BYBLOCK
 62
     0
 10
24291.969461999979
 20
19754.434963
 30
0.0
 40
15.0
 50
270.0
 51
90.0
  0
ARC
  5
3486
  8
0
  6
BYBLOCK
 62
     0
 10
24291.969461999979
 20
19754.434963
 30
0.0
 40
15.0
 50
90.0
 51
270.0
  0
ARC
  5
3487
  8
0
  6
BYBLOCK
 62
     0
 10
20631.969858
 20
13297.486879
 30
0.0
 40
15.0
 50
0.0
 51
180.0
  0
ARC
  5
3488
  8
0
  6
BYBLOCK
 62
     0
 10
20631.969858
 20
13297.486879
 30
0.0
 40
15.0
 50
180.0
 51
0.0
  0
ARC
  5
3489
  8
0
  6
BYBLOCK
 62
     0
 10
20589.467615000001
 20
13297.486879
 30
0.0
 40
15.0
 50
180.0
 51
0.0
  0
ARC
  5
348A
  8
0
  6
BYBLOCK
 62
     0
 10
20589.467615000001
 20
13297.486879
 30
0.0
 40
15.0
 50
0.0
 51
180.0
  0
ARC
  5
348B
  8
0
  6
BYBLOCK
 62
     0
 10
23199.469858
 20
13297.486879
 30
0.0
 40
15.0
 50
180.0
 51
0.0
  0
ARC
  5
348C
  8
0
  6
BYBLOCK
 62
     0
 10
23199.469858
 20
13297.486879
 30
0.0
 40
15.0
 50
0.0
 51
180.0
  0
ARC
  5
348D
  8
0
  6
BYBLOCK
 62
     0
 10
23241.972100999988
 20
13297.486879
 30
0.0
 40
15.0
 50
0.0
 51
180.0
  0
ARC
  5
348E
  8
0
  6
BYBLOCK
 62
     0
 10
23241.972100999988
 20
13297.486879
 30
0.0
 40
15.0
 50
180.0
 51
0.0
  0
ARC
  5
348F
  8
0
  6
BYBLOCK
 62
     0
 10
23199.469858
 20
13297.486879
 30
0.0
 40
15.0
 50
0.0
 51
180.0
  0
ARC
  5
3490
  8
0
  6
BYBLOCK
 62
     0
 10
23199.469858
 20
13297.486879
 30
0.0
 40
15.0
 50
180.0
 51
0.0
  0
ARC
  5
3491
  8
0
  6
BYBLOCK
 62
     0
 10
23156.96761499999
 20
13297.486879
 30
0.0
 40
15.0
 50
180.0
 51
0.0
  0
ARC
  5
3492
  8
0
  6
BYBLOCK
 62
     0
 10
23156.96761499999
 20
13297.486879
 30
0.0
 40
15.0
 50
0.0
 51
180.0
  0
ARC
  5
3493
  8
0
  6
BYBLOCK
 62
     0
 10
20631.969858
 20
13297.486879
 30
0.0
 40
15.0
 50
180.0
 51
0.0
  0
ARC
  5
3494
  8
0
  6
BYBLOCK
 62
     0
 10
20631.969858
 20
13297.486879
 30
0.0
 40
15.0
 50
0.0
 51
180.0
  0
ARC
  5
3495
  8
0
  6
BYBLOCK
 62
     0
 10
20674.472100999981
 20
13297.486879
 30
0.0
 40
15.0
 50
0.0
 51
180.0
  0
ARC
  5
3496
  8
0
  6
BYBLOCK
 62
     0
 10
20674.472100999981
 20
13297.486879
 30
0.0
 40
15.0
 50
180.0
 51
0.0
  0
ARC
  5
3497
  8
0
  6
BYBLOCK
 62
     0
 10
20589.467615000001
 20
12897.486878999989
 30
0.0
 40
15.0
 50
0.0
 51
180.0
  0
ARC
  5
3498
  8
0
  6
BYBLOCK
 62
     0
 10
20589.467615000001
 20
12897.486878999989
 30
0.0
 40
15.0
 50
180.0
 51
0.0
  0
ARC
  5
3499
  8
0
  6
BYBLOCK
 62
     0
 10
23241.972100999988
 20
12897.486878999989
 30
0.0
 40
15.0
 50
180.0
 51
0.0
  0
ARC
  5
349A
  8
0
  6
BYBLOCK
 62
     0
 10
23241.972100999988
 20
12897.486878999989
 30
0.0
 40
15.0
 50
0.0
 51
180.0
  0
ARC
  5
349B
  8
0
  6
BYBLOCK
 62
     0
 10
24291.969461999979
 20
15026.934963
 30
0.0
 40
15.0
 50
270.0
 51
90.0
  0
ARC
  5
349C
  8
0
  6
BYBLOCK
 62
     0
 10
24291.969461999979
 20
15026.934963
 30
0.0
 40
15.0
 50
90.0
 51
270.0
  0
ARC
  5
349D
  8
0
  6
BYBLOCK
 62
     0
 10
24291.969461999979
 20
14268.934962999991
 30
0.0
 40
15.0
 50
90.0
 51
270.0
  0
ARC
  5
349E
  8
0
  6
BYBLOCK
 62
     0
 10
24291.969461999979
 20
14268.934962999991
 30
0.0
 40
15.0
 50
270.0
 51
90.0
  0
ARC
  5
349F
  8
0
  6
BYBLOCK
 62
     0
 10
24291.969461999979
 20
15728.17547450002
 30
0.0
 40
15.0
 50
270.0
 51
90.0
  0
ARC
  5
34A0
  8
0
  6
BYBLOCK
 62
     0
 10
24291.969461999979
 20
15728.17547450002
 30
0.0
 40
15.0
 50
90.0
 51
270.0
  0
ARC
  5
34A1
  8
0
  6
BYBLOCK
 62
     0
 10
24291.969461999979
 20
15026.934963
 30
0.0
 40
15.0
 50
90.0
 51
270.0
  0
ARC
  5
34A2
  8
0
  6
BYBLOCK
 62
     0
 10
24291.969461999979
 20
15026.934963
 30
0.0
 40
15.0
 50
270.0
 51
90.0
  0
ARC
  5
34A3
  8
0
  6
BYBLOCK
 62
     0
 10
24291.969461999979
 20
16428.934963
 30
0.0
 40
15.0
 50
270.0
 51
90.0
  0
ARC
  5
34A4
  8
0
  6
BYBLOCK
 62
     0
 10
24291.969461999979
 20
16428.934963
 30
0.0
 40
15.0
 50
90.0
 51
270.0
  0
ARC
  5
34A5
  8
0
  6
BYBLOCK
 62
     0
 10
24291.969461999979
 20
15728.17547450002
 30
0.0
 40
15.0
 50
90.0
 51
270.0
  0
ARC
  5
34A6
  8
0
  6
BYBLOCK
 62
     0
 10
24291.969461999979
 20
15728.17547450002
 30
0.0
 40
15.0
 50
270.0
 51
90.0
  0
ARC
  5
34A7
  8
0
  6
BYBLOCK
 62
     0
 10
24291.969461999979
 20
17186.934963
 30
0.0
 40
15.0
 50
270.0
 51
90.0
  0
ARC
  5
34A8
  8
0
  6
BYBLOCK
 62
     0
 10
24291.969461999979
 20
17186.934963
 30
0.0
 40
15.0
 50
90.0
 51
270.0
  0
ARC
  5
34A9
  8
0
  6
BYBLOCK
 62
     0
 10
24291.969461999979
 20
16428.934963
 30
0.0
 40
15.0
 50
90.0
 51
270.0
  0
ARC
  5
34AA
  8
0
  6
BYBLOCK
 62
     0
 10
24291.969461999979
 20
16428.934963
 30
0.0
 40
15.0
 50
270.0
 51
90.0
  0
ARC
  5
34AB
  8
0
  6
BYBLOCK
 62
     0
 10
24291.969461999979
 20
17944.934963
 30
0.0
 40
15.0
 50
270.0
 51
90.0
  0
ARC
  5
34AC
  8
0
  6
BYBLOCK
 62
     0
 10
24291.969461999979
 20
17944.934963
 30
0.0
 40
15.0
 50
90.0
 51
270.0
  0
ARC
  5
34AD
  8
0
  6
BYBLOCK
 62
     0
 10
24291.969461999979
 20
17186.934963
 30
0.0
 40
15.0
 50
90.0
 51
270.0
  0
ARC
  5
34AE
  8
0
  6
BYBLOCK
 62
     0
 10
24291.969461999979
 20
17186.934963
 30
0.0
 40
15.0
 50
270.0
 51
90.0
  0
ARC
  5
34AF
  8
0
  6
BYBLOCK
 62
     0
 10
24291.969461999979
 20
18645.934963
 30
0.0
 40
15.0
 50
270.0
 51
90.0
  0
ARC
  5
34B0
  8
0
  6
BYBLOCK
 62
     0
 10
24291.969461999979
 20
18645.934963
 30
0.0
 40
15.0
 50
90.0
 51
270.0
  0
ARC
  5
34B1
  8
0
  6
BYBLOCK
 62
     0
 10
24291.969461999979
 20
17944.934963
 30
0.0
 40
15.0
 50
90.0
 51
270.0
  0
ARC
  5
34B2
  8
0
  6
BYBLOCK
 62
     0
 10
24291.969461999979
 20
17944.934963
 30
0.0
 40
15.0
 50
270.0
 51
90.0
  0
ARC
  5
34B3
  8
0
  6
BYBLOCK
 62
     0
 10
24291.969461999979
 20
19346.934962999989
 30
0.0
 40
15.0
 50
270.0
 51
90.0
  0
ARC
  5
34B4
  8
0
  6
BYBLOCK
 62
     0
 10
24291.969461999979
 20
19346.934962999989
 30
0.0
 40
15.0
 50
90.0
 51
270.0
  0
ARC
  5
34B5
  8
0
  6
BYBLOCK
 62
     0
 10
24291.969461999979
 20
18645.934963
 30
0.0
 40
15.0
 50
90.0
 51
270.0
  0
ARC
  5
34B6
  8
0
  6
BYBLOCK
 62
     0
 10
24291.969461999979
 20
18645.934963
 30
0.0
 40
15.0
 50
270.0
 51
90.0
  0
ARC
  5
34B7
  8
0
  6
BYBLOCK
 62
     0
 10
24691.969461999979
 20
17186.934963
 30
0.0
 40
15.0
 50
90.0
 51
270.0
  0
ARC
  5
34B8
  8
0
  6
BYBLOCK
 62
     0
 10
24691.969461999979
 20
17186.934963
 30
0.0
 40
15.0
 50
270.0
 51
90.0
  0
ARC
  5
34B9
  8
0
  6
BYBLOCK
 62
     0
 10
24691.969461999979
 20
19754.434962999982
 30
0.0
 40
15.0
 50
270.0
 51
90.0
  0
ARC
  5
34BA
  8
0
  6
BYBLOCK
 62
     0
 10
24691.969461999979
 20
19754.434962999982
 30
0.0
 40
15.0
 50
90.0
 51
270.0
  0
ARC
  5
34BB
  8
0
  6
BYBLOCK
 62
     0
 10
24691.969461999979
 20
14268.934962999991
 30
0.0
 40
15.0
 50
90.0
 51
270.0
  0
ARC
  5
34BC
  8
0
  6
BYBLOCK
 62
     0
 10
24691.969461999979
 20
14268.934962999991
 30
0.0
 40
15.0
 50
270.0
 51
90.0
  0
ARC
  5
34BD
  8
0
  6
BYBLOCK
 62
     0
 10
24691.969461999979
 20
17186.934963
 30
0.0
 40
15.0
 50
270.0
 51
90.0
  0
ARC
  5
34BE
  8
0
  6
BYBLOCK
 62
     0
 10
24691.969461999979
 20
17186.934963
 30
0.0
 40
15.0
 50
90.0
 51
270.0
  0
ARC
  5
34BF
  8
0
  6
BYBLOCK
 62
     0
 10
25091.96946199999
 20
19796.932258000001
 30
0.0
 40
15.0
 50
270.0
 51
90.0
  0
ARC
  5
34C0
  8
0
  6
BYBLOCK
 62
     0
 10
25091.96946199999
 20
19796.932258000001
 30
0.0
 40
15.0
 50
90.0
 51
270.0
  0
ARC
  5
34C1
  8
0
  6
BYBLOCK
 62
     0
 10
25091.96946199999
 20
14226.437668
 30
0.0
 40
15.0
 50
90.0
 51
270.0
  0
ARC
  5
34C2
  8
0
  6
BYBLOCK
 62
     0
 10
25091.96946199999
 20
14226.437668
 30
0.0
 40
15.0
 50
270.0
 51
90.0
  0
ARC
  5
34C3
  8
0
  6
BYBLOCK
 62
     0
 10
24691.969461999979
 20
19754.434962999982
 30
0.0
 40
15.0
 50
270.0
 51
90.0
  0
ARC
  5
34C4
  8
0
  6
BYBLOCK
 62
     0
 10
24691.969461999979
 20
19754.434962999982
 30
0.0
 40
15.0
 50
90.0
 51
270.0
  0
ARC
  5
34C5
  8
0
  6
BYBLOCK
 62
     0
 10
24691.969461999979
 20
19796.932258000001
 30
0.0
 40
15.0
 50
90.0
 51
270.0
  0
ARC
  5
34C6
  8
0
  6
BYBLOCK
 62
     0
 10
24691.969461999979
 20
19796.932258000001
 30
0.0
 40
15.0
 50
270.0
 51
90.0
  0
ARC
  5
34C7
  8
0
  6
BYBLOCK
 62
     0
 10
24691.969461999979
 20
14268.934962999991
 30
0.0
 40
15.0
 50
90.0
 51
270.0
  0
ARC
  5
34C8
  8
0
  6
BYBLOCK
 62
     0
 10
24691.969461999979
 20
14268.934962999991
 30
0.0
 40
15.0
 50
270.0
 51
90.0
  0
ARC
  5
34C9
  8
0
  6
BYBLOCK
 62
     0
 10
24691.969461999979
 20
14226.437668
 30
0.0
 40
15.0
 50
270.0
 51
90.0
  0
ARC
  5
34CA
  8
0
  6
BYBLOCK
 62
     0
 10
24691.969461999979
 20
14226.437668
 30
0.0
 40
15.0
 50
90.0
 51
270.0
  0
ARC
  5
34CB
  8
0
  6
BYBLOCK
 62
     0
 10
20631.969858
 20
20526.936151000031
 30
0.0
 40
15.0
 50
180.0
 51
0.0
  0
ARC
  5
34CC
  8
0
  6
BYBLOCK
 62
     0
 10
20631.969858
 20
20526.936151000031
 30
0.0
 40
15.0
 50
0.0
 51
180.0
  0
ARC
  5
34CD
  8
0
  6
BYBLOCK
 62
     0
 10
21039.469857999989
 20
20526.936151000031
 30
0.0
 40
15.0
 50
0.0
 51
180.0
  0
ARC
  5
34CE
  8
0
  6
BYBLOCK
 62
     0
 10
21039.469857999989
 20
20526.936151000031
 30
0.0
 40
15.0
 50
180.0
 51
0.0
  0
ARC
  5
34CF
  8
0
  6
BYBLOCK
 62
     0
 10
22441.469858
 20
20526.936151000031
 30
0.0
 40
15.0
 50
0.0
 51
180.0
  0
ARC
  5
34D0
  8
0
  6
BYBLOCK
 62
     0
 10
22441.469858
 20
20526.936151000031
 30
0.0
 40
15.0
 50
180.0
 51
0.0
  0
ARC
  5
34D1
  8
0
  6
BYBLOCK
 62
     0
 10
23199.470847500001
 20
20526.936151000031
 30
0.0
 40
15.0
 50
180.0
 51
0.0
  0
ARC
  5
34D2
  8
0
  6
BYBLOCK
 62
     0
 10
23199.470847500001
 20
20526.936151000031
 30
0.0
 40
15.0
 50
0.0
 51
180.0
  0
ARC
  5
34D3
  8
0
  6
BYBLOCK
 62
     0
 10
21740.469857999989
 20
20526.936151000031
 30
0.0
 40
15.0
 50
0.0
 51
180.0
  0
ARC
  5
34D4
  8
0
  6
BYBLOCK
 62
     0
 10
21740.469857999989
 20
20526.936151000031
 30
0.0
 40
15.0
 50
180.0
 51
0.0
  0
ARC
  5
34D5
  8
0
  6
BYBLOCK
 62
     0
 10
22441.469858
 20
20526.936151000031
 30
0.0
 40
15.0
 50
180.0
 51
0.0
  0
ARC
  5
34D6
  8
0
  6
BYBLOCK
 62
     0
 10
22441.469858
 20
20526.936151000031
 30
0.0
 40
15.0
 50
0.0
 51
180.0
  0
ARC
  5
34D7
  8
0
  6
BYBLOCK
 62
     0
 10
21039.469857999989
 20
20526.936151000031
 30
0.0
 40
15.0
 50
0.0
 51
180.0
  0
ARC
  5
34D8
  8
0
  6
BYBLOCK
 62
     0
 10
21039.469857999989
 20
20526.936151000031
 30
0.0
 40
15.0
 50
180.0
 51
0.0
  0
ARC
  5
34D9
  8
0
  6
BYBLOCK
 62
     0
 10
21740.469857999989
 20
20526.936151000031
 30
0.0
 40
15.0
 50
180.0
 51
0.0
  0
ARC
  5
34DA
  8
0
  6
BYBLOCK
 62
     0
 10
21740.469857999989
 20
20526.936151000031
 30
0.0
 40
15.0
 50
0.0
 51
180.0
  0
ARC
  5
34DB
  8
0
  6
BYBLOCK
 62
     0
 10
23199.469858
 20
20526.936151000031
 30
0.0
 40
15.0
 50
180.0
 51
0.0
  0
ARC
  5
34DC
  8
0
  6
BYBLOCK
 62
     0
 10
23199.469858
 20
20526.936151000031
 30
0.0
 40
15.0
 50
0.0
 51
180.0
  0
ARC
  5
34DD
  8
0
  6
BYBLOCK
 62
     0
 10
23241.96616299999
 20
20526.936151000031
 30
0.0
 40
15.0
 50
0.0
 51
180.0
  0
ARC
  5
34DE
  8
0
  6
BYBLOCK
 62
     0
 10
23241.96616299999
 20
20526.936151000031
 30
0.0
 40
15.0
 50
180.0
 51
0.0
  0
ARC
  5
34DF
  8
0
  6
BYBLOCK
 62
     0
 10
20631.969858
 20
20526.936151000031
 30
0.0
 40
15.0
 50
0.0
 51
180.0
  0
ARC
  5
34E0
  8
0
  6
BYBLOCK
 62
     0
 10
20631.969858
 20
20526.936151000031
 30
0.0
 40
15.0
 50
180.0
 51
0.0
  0
ARC
  5
34E1
  8
0
  6
BYBLOCK
 62
     0
 10
20589.473552999989
 20
20526.936151000031
 30
0.0
 40
15.0
 50
180.0
 51
0.0
  0
ARC
  5
34E2
  8
0
  6
BYBLOCK
 62
     0
 10
20589.473552999989
 20
20526.936151000031
 30
0.0
 40
15.0
 50
0.0
 51
180.0
  0
ARC
  5
34E3
  8
0
  6
BYBLOCK
 62
     0
 10
16266.72169299999
 20
6677.6370850000039
 30
0.0
 40
15.0
 50
90.0
 51
270.0
  0
ARC
  5
34E4
  8
0
  6
BYBLOCK
 62
     0
 10
16266.72169299999
 20
6677.6370850000039
 30
0.0
 40
15.0
 50
270.0
 51
90.0
  0
ARC
  5
34E5
  8
0
  6
BYBLOCK
 62
     0
 10
16266.72169299999
 20
9026.1370850000021
 30
0.0
 40
15.0
 50
270.0
 51
90.0
  0
ARC
  5
34E6
  8
0
  6
BYBLOCK
 62
     0
 10
16266.72169299999
 20
9026.1370850000021
 30
0.0
 40
15.0
 50
90.0
 51
270.0
  0
ARC
  5
34E7
  8
0
  6
BYBLOCK
 62
     0
 10
8516.2248590000054
 20
6677.6370850000039
 30
0.0
 40
15.0
 50
90.0
 51
270.0
  0
ARC
  5
34E8
  8
0
  6
BYBLOCK
 62
     0
 10
8516.2248590000054
 20
6677.6370850000039
 30
0.0
 40
15.0
 50
270.0
 51
90.0
  0
ARC
  5
34E9
  8
0
  6
BYBLOCK
 62
     0
 10
8516.2248590000054
 20
8833.6370850000058
 30
0.0
 40
15.0
 50
270.0
 51
90.0
  0
ARC
  5
34EA
  8
0
  6
BYBLOCK
 62
     0
 10
8516.2248590000054
 20
8833.6370850000058
 30
0.0
 40
15.0
 50
90.0
 51
270.0
  0
ARC
  5
34EB
  8
0
  6
BYBLOCK
 62
     0
 10
9426.2232769999955
 20
10225.637111
 30
0.0
 40
15.0
 50
0.0
 51
180.0
  0
ARC
  5
34EC
  8
0
  6
BYBLOCK
 62
     0
 10
9426.2232769999955
 20
10225.637111
 30
0.0
 40
15.0
 50
180.0
 51
0.0
  0
ARC
  5
34ED
  8
0
  6
BYBLOCK
 62
     0
 10
15326.723276999999
 20
10225.637111
 30
0.0
 40
15.0
 50
180.0
 51
0.0
  0
ARC
  5
34EE
  8
0
  6
BYBLOCK
 62
     0
 10
15326.723276999999
 20
10225.637111
 30
0.0
 40
15.0
 50
0.0
 51
180.0
  0
ARC
  5
34EF
  8
0
  6
BYBLOCK
 62
     0
 10
15176.72327699999
 20
9825.638761000002
 30
0.0
 40
15.0
 50
180.0
 51
0.0
  0
ARC
  5
34F0
  8
0
  6
BYBLOCK
 62
     0
 10
15176.72327699999
 20
9825.638761000002
 30
0.0
 40
15.0
 50
0.0
 51
180.0
  0
ARC
  5
34F1
  8
0
  6
BYBLOCK
 62
     0
 10
15326.723276999999
 20
9825.638761000002
 30
0.0
 40
15.0
 50
0.0
 51
180.0
  0
ARC
  5
34F2
  8
0
  6
BYBLOCK
 62
     0
 10
15326.723276999999
 20
9825.638761000002
 30
0.0
 40
15.0
 50
180.0
 51
0.0
  0
ARC
  5
34F3
  8
0
  6
BYBLOCK
 62
     0
 10
9606.2232769999955
 20
9825.638761000002
 30
0.0
 40
15.0
 50
0.0
 51
180.0
  0
ARC
  5
34F4
  8
0
  6
BYBLOCK
 62
     0
 10
9606.2232769999955
 20
9825.638761000002
 30
0.0
 40
15.0
 50
180.0
 51
0.0
  0
ARC
  5
34F5
  8
0
  6
BYBLOCK
 62
     0
 10
15176.72327699999
 20
9825.638761000002
 30
0.0
 40
15.0
 50
180.0
 51
0.0
  0
ARC
  5
34F6
  8
0
  6
BYBLOCK
 62
     0
 10
15176.72327699999
 20
9825.638761000002
 30
0.0
 40
15.0
 50
0.0
 51
180.0
  0
ARC
  5
34F7
  8
0
  6
BYBLOCK
 62
     0
 10
9426.2232769999955
 20
9825.638761000002
 30
0.0
 40
15.0
 50
180.0
 51
0.0
  0
ARC
  5
34F8
  8
0
  6
BYBLOCK
 62
     0
 10
9426.2232769999955
 20
9825.638761000002
 30
0.0
 40
15.0
 50
0.0
 51
180.0
  0
ARC
  5
34F9
  8
0
  6
BYBLOCK
 62
     0
 10
9606.2232769999955
 20
9825.638761000002
 30
0.0
 40
15.0
 50
0.0
 51
180.0
  0
ARC
  5
34FA
  8
0
  6
BYBLOCK
 62
     0
 10
9606.2232769999955
 20
9825.638761000002
 30
0.0
 40
15.0
 50
180.0
 51
0.0
  0
ARC
  5
34FB
  8
0
  6
BYBLOCK
 62
     0
 10
9606.2232769999955
 20
4977.6374150000038
 30
0.0
 40
15.0
 50
0.0
 51
180.0
  0
ARC
  5
34FC
  8
0
  6
BYBLOCK
 62
     0
 10
9606.2232769999955
 20
4977.6374150000038
 30
0.0
 40
15.0
 50
180.0
 51
0.0
  0
ARC
  5
34FD
  8
0
  6
BYBLOCK
 62
     0
 10
15176.72327699999
 20
4977.6374150000038
 30
0.0
 40
15.0
 50
180.0
 51
0.0
  0
ARC
  5
34FE
  8
0
  6
BYBLOCK
 62
     0
 10
15176.72327699999
 20
4977.6374150000038
 30
0.0
 40
15.0
 50
0.0
 51
180.0
  0
ARC
  5
34FF
  8
0
  6
BYBLOCK
 62
     0
 10
15134.223276999999
 20
5377.6372500000034
 30
0.0
 40
15.0
 50
180.0
 51
0.0
  0
ARC
  5
3500
  8
0
  6
BYBLOCK
 62
     0
 10
15134.223276999999
 20
5377.6372500000034
 30
0.0
 40
15.0
 50
0.0
 51
180.0
  0
ARC
  5
3501
  8
0
  6
BYBLOCK
 62
     0
 10
15176.72327699999
 20
5377.6372500000034
 30
0.0
 40
15.0
 50
0.0
 51
180.0
  0
ARC
  5
3502
  8
0
  6
BYBLOCK
 62
     0
 10
15176.72327699999
 20
5377.6372500000034
 30
0.0
 40
15.0
 50
180.0
 51
0.0
  0
ARC
  5
3503
  8
0
  6
BYBLOCK
 62
     0
 10
9648.7232769999955
 20
5377.6372500000034
 30
0.0
 40
15.0
 50
0.0
 51
180.0
  0
ARC
  5
3504
  8
0
  6
BYBLOCK
 62
     0
 10
9648.7232769999955
 20
5377.6372500000034
 30
0.0
 40
15.0
 50
180.0
 51
0.0
  0
ARC
  5
3505
  8
0
  6
BYBLOCK
 62
     0
 10
9606.2232769999955
 20
5377.6372500000034
 30
0.0
 40
15.0
 50
180.0
 51
0.0
  0
ARC
  5
3506
  8
0
  6
BYBLOCK
 62
     0
 10
9606.2232769999955
 20
5377.6372500000034
 30
0.0
 40
15.0
 50
0.0
 51
180.0
  0
ARC
  5
3507
  8
0
  6
BYBLOCK
 62
     0
 10
12216.223276999999
 20
5377.6372500000034
 30
0.0
 40
15.0
 50
180.0
 51
0.0
  0
ARC
  5
3508
  8
0
  6
BYBLOCK
 62
     0
 10
12216.223276999999
 20
5377.6372500000034
 30
0.0
 40
15.0
 50
0.0
 51
180.0
  0
ARC
  5
3509
  8
0
  6
BYBLOCK
 62
     0
 10
9648.7232769999955
 20
5377.6372500000034
 30
0.0
 40
15.0
 50
0.0
 51
180.0
  0
ARC
  5
350A
  8
0
  6
BYBLOCK
 62
     0
 10
9648.7232769999955
 20
5377.6372500000034
 30
0.0
 40
15.0
 50
180.0
 51
0.0
  0
ARC
  5
350B
  8
0
  6
BYBLOCK
 62
     0
 10
12216.223276999999
 20
5377.6372500000034
 30
0.0
 40
15.0
 50
0.0
 51
180.0
  0
ARC
  5
350C
  8
0
  6
BYBLOCK
 62
     0
 10
12216.223276999999
 20
5377.6372500000034
 30
0.0
 40
15.0
 50
180.0
 51
0.0
  0
ARC
  5
350D
  8
0
  6
BYBLOCK
 62
     0
 10
15134.223276999999
 20
5377.6372500000034
 30
0.0
 40
15.0
 50
180.0
 51
0.0
  0
ARC
  5
350E
  8
0
  6
BYBLOCK
 62
     0
 10
15134.223276999999
 20
5377.6372500000034
 30
0.0
 40
15.0
 50
0.0
 51
180.0
  0
ARC
  5
350F
  8
0
  6
BYBLOCK
 62
     0
 10
19781.96853799999
 20
6677.6370850000039
 30
0.0
 40
15.0
 50
90.0
 51
270.0
  0
ARC
  5
3510
  8
0
  6
BYBLOCK
 62
     0
 10
19781.96853799999
 20
6677.6370850000039
 30
0.0
 40
15.0
 50
270.0
 51
90.0
  0
ARC
  5
3511
  8
0
  6
BYBLOCK
 62
     0
 10
19781.96853799999
 20
8569.1370850000058
 30
0.0
 40
15.0
 50
270.0
 51
90.0
  0
ARC
  5
3512
  8
0
  6
BYBLOCK
 62
     0
 10
19781.96853799999
 20
8569.1370850000058
 30
0.0
 40
15.0
 50
90.0
 51
270.0
  0
ARC
  5
3513
  8
0
  6
BYBLOCK
 62
     0
 10
19381.966228999991
 20
6677.6370850000039
 30
0.0
 40
15.0
 50
90.0
 51
270.0
  0
ARC
  5
3514
  8
0
  6
BYBLOCK
 62
     0
 10
19381.966228999991
 20
6677.6370850000039
 30
0.0
 40
15.0
 50
270.0
 51
90.0
  0
ARC
  5
3515
  8
0
  6
BYBLOCK
 62
     0
 10
19381.966228999991
 20
9026.136940000004
 30
0.0
 40
15.0
 50
270.0
 51
90.0
  0
ARC
  5
3516
  8
0
  6
BYBLOCK
 62
     0
 10
19381.966228999991
 20
9026.136940000004
 30
0.0
 40
15.0
 50
90.0
 51
270.0
  0
ARC
  5
3527
  8
0
  6
BYBLOCK
 62
     0
 10
23199.469858
 20
5377.6372500000098
 30
0.0
 40
15.0
 50
180.0
 51
0.0
  0
ARC
  5
3528
  8
0
  6
BYBLOCK
 62
     0
 10
23199.469858
 20
5377.6372500000098
 30
0.0
 40
15.0
 50
0.0
 51
180.0
  0
ARC
  5
3529
  8
0
  6
BYBLOCK
 62
     0
 10
23241.969858
 20
5377.6372500000098
 30
0.0
 40
15.0
 50
0.0
 51
180.0
  0
ARC
  5
352A
  8
0
  6
BYBLOCK
 62
     0
 10
23241.969858
 20
5377.6372500000098
 30
0.0
 40
15.0
 50
180.0
 51
0.0
  0
ARC
  5
352B
  8
0
  6
BYBLOCK
 62
     0
 10
20725.969858
 20
5777.6372500000089
 30
0.0
 40
15.0
 50
0.0
 51
180.0
  0
ARC
  5
352C
  8
0
  6
BYBLOCK
 62
     0
 10
20725.969858
 20
5777.6372500000089
 30
0.0
 40
15.0
 50
180.0
 51
0.0
  0
ARC
  5
352D
  8
0
  6
BYBLOCK
 62
     0
 10
23105.469858
 20
5777.6372500000089
 30
0.0
 40
15.0
 50
180.0
 51
0.0
  0
ARC
  5
352E
  8
0
  6
BYBLOCK
 62
     0
 10
23105.469858
 20
5777.6372500000089
 30
0.0
 40
15.0
 50
0.0
 51
180.0
  0
ARC
  5
352F
  8
0
  6
BYBLOCK
 62
     0
 10
20631.969858
 20
5377.6372500000098
 30
0.0
 40
15.0
 50
0.0
 51
180.0
  0
ARC
  5
3530
  8
0
  6
BYBLOCK
 62
     0
 10
20631.969858
 20
5377.6372500000098
 30
0.0
 40
15.0
 50
180.0
 51
0.0
  0
ARC
  5
3531
  8
0
  6
BYBLOCK
 62
     0
 10
23199.469858
 20
5377.6372500000098
 30
0.0
 40
15.0
 50
180.0
 51
0.0
  0
ARC
  5
3532
  8
0
  6
BYBLOCK
 62
     0
 10
23199.469858
 20
5377.6372500000098
 30
0.0
 40
15.0
 50
0.0
 51
180.0
  0
ARC
  5
3533
  8
0
  6
BYBLOCK
 62
     0
 10
20631.969858
 20
5377.6372500000098
 30
0.0
 40
15.0
 50
0.0
 51
180.0
  0
ARC
  5
3534
  8
0
  6
BYBLOCK
 62
     0
 10
20631.969858
 20
5377.6372500000098
 30
0.0
 40
15.0
 50
180.0
 51
0.0
  0
ARC
  5
3535
  8
0
  6
BYBLOCK
 62
     0
 10
20589.469858
 20
5377.6372500000098
 30
0.0
 40
15.0
 50
180.0
 51
0.0
  0
ARC
  5
3536
  8
0
  6
BYBLOCK
 62
     0
 10
20589.469858
 20
5377.6372500000098
 30
0.0
 40
15.0
 50
0.0
 51
180.0
  0
ARC
  5
3537
  8
0
  6
BYBLOCK
 62
     0
 10
20589.469858
 20
4977.6374150000102
 30
0.0
 40
15.0
 50
0.0
 51
180.0
  0
ARC
  5
3538
  8
0
  6
BYBLOCK
 62
     0
 10
20589.469858
 20
4977.6374150000102
 30
0.0
 40
15.0
 50
180.0
 51
0.0
  0
ARC
  5
3539
  8
0
  6
BYBLOCK
 62
     0
 10
23241.969858
 20
4977.6374150000102
 30
0.0
 40
15.0
 50
180.0
 51
0.0
  0
ARC
  5
353A
  8
0
  6
BYBLOCK
 62
     0
 10
23241.969858
 20
4977.6374150000102
 30
0.0
 40
15.0
 50
0.0
 51
180.0
  0
LINE
  5
3649
  8
0-1
  6
CONTINUOUS
 62
     3
 10
20674.466163000001
 20
8762.1374540000015
 30
0.0
 11
23156.969593999991
 21
8762.1374540000015
 31
0.0
  0
LINE
  5
364A
  8
0-1
  6
CONTINUOUS
 62
     3
 10
20546.469463000009
 20
8699.9513730000017
 30
0.0
 11
20546.469463000009
 21
9025.6371109999982
 31
0.0
  0
LINE
  5
364B
  8
0-1
  6
CONTINUOUS
 62
     3
 10
23284.968274999988
 20
8895.6371770000005
 30
0.0
 11
20546.469463000009
 21
8895.6371770000005
 31
0.0
  0
LINE
  5
364C
  8
0-1
  6
CONTINUOUS
 62
     3
 10
23284.968274999988
 20
9025.6371109999982
 30
0.0
 11
23284.968274999988
 21
8699.9513730000017
 31
0.0
  0
LINE
  5
364D
  8
0-1
  6
CONTINUOUS
 62
     3
 10
20546.469463000009
 20
9025.6371109999982
 30
0.0
 11
23284.968274999988
 21
9025.6371109999982
 31
0.0
  0
LINE
  5
364E
  8
0-1
  6
CONTINUOUS
 62
     3
 10
23284.968274999988
 20
8699.9513730000017
 30
0.0
 11
23241.968142999998
 21
8699.9513730000017
 31
0.0
  0
LINE
  5
364F
  8
0-1
  6
CONTINUOUS
 62
     3
 10
20546.469463000009
 20
8699.9513730000017
 30
0.0
 11
20589.467615000009
 21
8699.9513730000017
 31
0.0
  0
LINE
  5
3650
  8
0-1
  6
CONTINUOUS
 62
     3
 10
20700.469119000009
 20
8771.1378310000091
 30
0.0
 11
20977.89864900001
 21
8771.1378310000091
 31
0.0
  0
LINE
  5
3651
  8
0-1
  6
CONTINUOUS
 62
     3
 10
20700.469119000009
 20
8813.1372760000031
 30
0.0
 11
21009.89558700001
 21
8813.1372760000031
 31
0.0
  0
LINE
  5
3652
  8
0-1
  6
CONTINUOUS
 62
     3
 10
20695.468856
 20
8776.1376000000055
 30
0.0
 11
20695.468856
 21
8808.1380020000051
 31
0.0
  0
LINE
  5
3653
  8
0-1
  6
CONTINUOUS
 62
     3
 10
20674.466163000001
 20
8822.137158000005
 30
0.0
 11
23156.969593999991
 21
8822.137158000005
 31
0.0
  0
LINE
  5
3654
  8
0-1
  6
CONTINUOUS
 62
     3
 10
20981.432089000009
 20
8772.6016850000051
 30
0.0
 11
21013.432986999989
 21
8804.6020870000048
 31
0.0
  0
LINE
  5
3655
  8
0-1
  6
CONTINUOUS
 62
     3
 10
20695.468856
 20
8804.7376840000088
 30
0.0
 11
21013.56165499999
 21
8804.7376840000088
 31
0.0
  0
LINE
  5
3656
  8
0-1
  6
CONTINUOUS
 62
     3
 10
20695.468856
 20
8796.337597000007
 30
0.0
 11
21005.168496999999
 21
8796.337597000007
 31
0.0
  0
LINE
  5
3657
  8
0-1
  6
CONTINUOUS
 62
     3
 10
20695.468856
 20
8787.9380050000054
 30
0.0
 11
20996.769399000012
 21
8787.9380050000054
 31
0.0
  0
LINE
  5
3658
  8
0-1
  6
CONTINUOUS
 62
     3
 10
20695.468856
 20
8779.5379180000054
 30
0.0
 11
20988.366343000009
 21
8779.5379180000054
 31
0.0
  0
LINE
  5
3659
  8
0-1
  6
CONTINUOUS
 62
     3
 10
23135.968881999979
 20
8804.7376840000088
 30
0.0
 11
22817.876081999999
 21
8804.7376840000088
 31
0.0
  0
LINE
  5
365A
  8
0-1
  6
CONTINUOUS
 62
     3
 10
23135.968881999979
 20
8796.337597000007
 30
0.0
 11
22826.271219999999
 21
8796.337597000007
 31
0.0
  0
LINE
  5
365B
  8
0-1
  6
CONTINUOUS
 62
     3
 10
23135.968881999979
 20
8787.9380050000054
 30
0.0
 11
22834.670316999989
 21
8787.9380050000054
 31
0.0
  0
LINE
  5
365C
  8
0-1
  6
CONTINUOUS
 62
     3
 10
23135.968881999979
 20
8779.5379180000054
 30
0.0
 11
22843.069414999991
 21
8779.5379180000054
 31
0.0
  0
LINE
  5
365D
  8
0-1
  6
CONTINUOUS
 62
     3
 10
23130.968617999999
 20
8813.1372760000031
 30
0.0
 11
22821.542149999979
 21
8813.1372760000031
 31
0.0
  0
LINE
  5
365E
  8
0-1
  6
CONTINUOUS
 62
     3
 10
23130.968617999999
 20
8771.1378310000091
 30
0.0
 11
22853.539088999991
 21
8771.1378310000091
 31
0.0
  0
LINE
  5
365F
  8
0-1
  6
CONTINUOUS
 62
     3
 10
23135.968881999979
 20
8776.1376000000055
 30
0.0
 11
23135.968881999979
 21
8808.1380020000051
 31
0.0
  0
LINE
  5
3660
  8
0-1
  6
CONTINUOUS
 62
     3
 10
22850.003668000001
 20
8772.6016850000051
 30
0.0
 11
22818.006730000001
 21
8804.6020870000048
 31
0.0
  0
ARC
  5
3661
  8
0-1
  6
CONTINUOUS
 62
     3
 10
20700.469119000009
 20
8808.1380020000051
 30
0.0
 40
5.0
 50
90.0
 51
180.0
  0
ARC
  5
3662
  8
0-1
  6
CONTINUOUS
 62
     3
 10
20700.469119000009
 20
8776.1376000000055
 30
0.0
 40
5.0
 50
180.0
 51
269.9999850001808
  0
ARC
  5
3663
  8
0-1
  6
CONTINUOUS
 62
     3
 10
20977.89864900001
 20
8776.1376000000055
 30
0.0
 40
5.0
 50
269.9999850001808
 51
314.99998500027471
  0
ARC
  5
3664
  8
0-1
  6
CONTINUOUS
 62
     3
 10
21009.89558700001
 20
8808.1380020000051
 30
0.0
 40
5.0
 50
314.99998500027471
 51
90.0
  0
ARC
  5
3665
  8
0-1
  6
CONTINUOUS
 62
     3
 10
23130.968617999999
 20
8776.1376000000055
 30
0.0
 40
5.0
 50
269.9999850001808
 51
0.0
  0
ARC
  5
3666
  8
0-1
  6
CONTINUOUS
 62
     3
 10
23130.968617999999
 20
8808.1380020000051
 30
0.0
 40
5.0
 50
0.0
 51
90.0
  0
ARC
  5
3667
  8
0-1
  6
CONTINUOUS
 62
     3
 10
22821.542149999979
 20
8808.1380020000051
 30
0.0
 40
5.0
 50
90.0
 51
224.99998499997989
  0
ARC
  5
3668
  8
0-1
  6
CONTINUOUS
 62
     3
 10
22853.539088999991
 20
8776.1376000000055
 30
0.0
 40
5.0
 50
224.99998499997989
 51
269.9999850001808
  0
LINE
  5
3669
  8
SUNPOU
  6
CONTINUOUS
 62
     4
 10
23241.970121999981
 20
9105.637111
 30
0.0
 11
23241.970121999981
 21
9905.1369529999993
 31
0.0
  0
LINE
  5
366A
  8
SUNPOU
  6
CONTINUOUS
 62
     4
 10
23241.970121999981
 20
9825.1369529999993
 30
0.0
 11
23001.970121999981
 21
9825.1369529999993
 31
0.0
  0
LINE
  5
366B
  8
SUNPOU
  6
CONTINUOUS
 62
     4
 10
23281.972232999971
 20
9825.1369529999993
 30
0.0
 11
23521.972232999971
 21
9825.1369529999993
 31
0.0
  0
LINE
  5
366C
  8
SUNPOU
  6
CONTINUOUS
 62
     4
 10
23241.970121999981
 20
9825.1369529999993
 30
0.0
 11
23281.972232999971
 21
9825.1369529999993
 31
0.0
  0
LINE
  5
366D
  8
SUNPOU
  6
CONTINUOUS
 62
     4
 10
20546.467483000019
 20
9105.637111
 30
0.0
 11
20546.467483000019
 21
10305.094723
 31
0.0
  0
LINE
  5
366E
  8
SUNPOU
  6
CONTINUOUS
 62
     4
 10
23284.972232999971
 20
9105.637111
 30
0.0
 11
23284.972232999971
 21
10305.094723
 31
0.0
  0
LINE
  5
366F
  8
SUNPOU
  6
CONTINUOUS
 62
     4
 10
20546.467483000019
 20
10225.094723
 30
0.0
 11
23281.972232999971
 21
10225.094723
 31
0.0
  0
LINE
  5
3670
  8
SUNPOU
  6
CONTINUOUS
 62
     4
 10
20589.469594000009
 20
9105.637111
 30
0.0
 11
20589.469594000009
 21
9905.1369529999993
 31
0.0
  0
LINE
  5
3671
  8
SUNPOU
  6
CONTINUOUS
 62
     4
 10
23241.970121999981
 20
9105.637111
 30
0.0
 11
23241.970121999981
 21
9905.1369529999993
 31
0.0
  0
LINE
  5
3672
  8
SUNPOU
  6
CONTINUOUS
 62
     4
 10
20589.469594000009
 20
9825.1369529999993
 30
0.0
 11
23241.970121999981
 21
9825.1369529999993
 31
0.0
  0
LINE
  5
3673
  8
SUNPOU
  6
CONTINUOUS
 62
     4
 10
20589.469594000009
 20
9105.637111
 30
0.0
 11
20589.469594000009
 21
9905.1369529999993
 31
0.0
  0
LINE
  5
3674
  8
SUNPOU
  6
CONTINUOUS
 62
     4
 10
20546.467483000019
 20
9105.637111
 30
0.0
 11
20546.467483000019
 21
9905.1369529999993
 31
0.0
  0
LINE
  5
3675
  8
SUNPOU
  6
CONTINUOUS
 62
     4
 10
20589.469594000009
 20
9825.1369529999993
 30
0.0
 11
20829.469594000009
 21
9825.1369529999993
 31
0.0
  0
LINE
  5
3676
  8
SUNPOU
  6
CONTINUOUS
 62
     4
 10
20549.467483000019
 20
9825.1369529999993
 30
0.0
 11
20309.467483000019
 21
9825.1369529999993
 31
0.0
  0
LINE
  5
3677
  8
SUNPOU
  6
CONTINUOUS
 62
     4
 10
20589.469594000009
 20
9825.1369529999993
 30
0.0
 11
20549.467483000019
 21
9825.1369529999993
 31
0.0
  0
TEXT
  5
3678
  8
0
  6
CONTINUOUS
 62
     7
 10
20189.467483000019
 20
9905.1369529999993
 30
0.0
 40
160.0
  1
43
  0
TEXT
  5
3679
  8
0
  6
CONTINUOUS
 62
     7
 10
21515.719857999989
 20
9905.1369529999993
 30
0.0
 40
160.0
  1
2652.5
  0
TEXT
  5
367A
  8
0
  6
CONTINUOUS
 62
     7
 10
21515.719857999989
 20
10305.094723
 30
0.0
 40
160.0
  1
2738.5
  0
TEXT
  5
367B
  8
0
  6
CONTINUOUS
 62
     7
 10
23401.972232999971
 20
9905.1369529999993
 30
0.0
 40
160.0
  1
43
  0
ARC
  5
367C
  8
0
  6
BYBLOCK
 62
     0
 10
23241.970121999981
 20
9825.1369529999993
 30
0.0
 40
15.0
 50
180.0
 51
0.0
  0
ARC
  5
367D
  8
0
  6
BYBLOCK
 62
     0
 10
23241.970121999981
 20
9825.1369529999993
 30
0.0
 40
15.0
 50
0.0
 51
180.0
  0
ARC
  5
367E
  8
0
  6
BYBLOCK
 62
     0
 10
23284.972232999971
 20
9825.1369529999993
 30
0.0
 40
15.0
 50
0.0
 51
180.0
  0
ARC
  5
367F
  8
0
  6
BYBLOCK
 62
     0
 10
23284.972232999971
 20
9825.1369529999993
 30
0.0
 40
15.0
 50
180.0
 51
0.0
  0
ARC
  5
3680
  8
0
  6
BYBLOCK
 62
     0
 10
20546.467483000019
 20
10225.094723
 30
0.0
 40
15.0
 50
0.0
 51
180.0
  0
ARC
  5
3681
  8
0
  6
BYBLOCK
 62
     0
 10
20546.467483000019
 20
10225.094723
 30
0.0
 40
15.0
 50
180.0
 51
0.0
  0
ARC
  5
3682
  8
0
  6
BYBLOCK
 62
     0
 10
23284.972232999971
 20
10225.094723
 30
0.0
 40
15.0
 50
180.0
 51
0.0
  0
ARC
  5
3683
  8
0
  6
BYBLOCK
 62
     0
 10
23284.972232999971
 20
10225.094723
 30
0.0
 40
15.0
 50
0.0
 51
180.0
  0
ARC
  5
3684
  8
0
  6
BYBLOCK
 62
     0
 10
20589.469594000009
 20
9825.1369529999993
 30
0.0
 40
15.0
 50
0.0
 51
180.0
  0
ARC
  5
3685
  8
0
  6
BYBLOCK
 62
     0
 10
20589.469594000009
 20
9825.1369529999993
 30
0.0
 40
15.0
 50
180.0
 51
0.0
  0
ARC
  5
3686
  8
0
  6
BYBLOCK
 62
     0
 10
23241.970121999981
 20
9825.1369529999993
 30
0.0
 40
15.0
 50
180.0
 51
0.0
  0
ARC
  5
3687
  8
0
  6
BYBLOCK
 62
     0
 10
23241.970121999981
 20
9825.1369529999993
 30
0.0
 40
15.0
 50
0.0
 51
180.0
  0
ARC
  5
3688
  8
0
  6
BYBLOCK
 62
     0
 10
20589.469594000009
 20
9825.1369529999993
 30
0.0
 40
15.0
 50
0.0
 51
180.0
  0
ARC
  5
3689
  8
0
  6
BYBLOCK
 62
     0
 10
20589.469594000009
 20
9825.1369529999993
 30
0.0
 40
15.0
 50
180.0
 51
0.0
  0
ARC
  5
368A
  8
0
  6
BYBLOCK
 62
     0
 10
20546.467483000019
 20
9825.1369529999993
 30
0.0
 40
15.0
 50
180.0
 51
0.0
  0
ARC
  5
368B
  8
0
  6
BYBLOCK
 62
     0
 10
20546.467483000019
 20
9825.1369529999993
 30
0.0
 40
15.0
 50
0.0
 51
180.0
  0
LINE
  5
36A1
  8
SUNPOU
  6
CONTINUOUS
 62
     4
 10
11241.969529499989
 20
13996.43469899999
 30
0.0
 11
11241.969529499989
 21
12817.48489899999
 31
0.0
  0
LINE
  5
36A2
  8
SUNPOU
  6
CONTINUOUS
 62
     4
 10
13980.470320499981
 20
13996.43469899999
 30
0.0
 11
13980.470320499981
 21
12817.48489899999
 31
0.0
  0
LINE
  5
36A3
  8
SUNPOU
  6
CONTINUOUS
 62
     4
 10
11241.969529499989
 20
12897.48489899999
 30
0.0
 11
13980.470320499981
 21
12897.48489899999
 31
0.0
  0
TEXT
  5
36A4
  8
0
  6
CONTINUOUS
 62
     7
 10
11688.553258333321
 20
12977.48489899999
 30
0.0
 40
160.0
  1
ケラバ外寸 2738.5
  0
ARC
  5
36A5
  8
0
  6
BYBLOCK
 62
     0
 10
11241.969529499989
 20
12897.48489899999
 30
0.0
 40
15.0
 50
0.0
 51
180.0
  0
ARC
  5
36A6
  8
0
  6
BYBLOCK
 62
     0
 10
11241.969529499989
 20
12897.48489899999
 30
0.0
 40
15.0
 50
180.0
 51
0.0
  0
ARC
  5
36A7
  8
0
  6
BYBLOCK
 62
     0
 10
13980.470320499981
 20
12897.48489899999
 30
0.0
 40
15.0
 50
180.0
 51
0.0
  0
ARC
  5
36A8
  8
0
  6
BYBLOCK
 62
     0
 10
13980.470320499981
 20
12897.48489899999
 30
0.0
 40
15.0
 50
0.0
 51
180.0
  0
LINE
  5
36B9
  8
SUNPOU
  6
CONTINUOUS
 62
     4
 10
11241.96893549997
 20
20056.930871
 30
0.0
 11
11241.96893549997
 21
20606.936150000009
 31
0.0
  0
LINE
  5
36BA
  8
SUNPOU
  6
CONTINUOUS
 62
     4
 10
11241.96893549997
 20
20526.936150000009
 30
0.0
 11
11004.96893549997
 21
20526.936150000009
 31
0.0
  0
LINE
  5
36BB
  8
SUNPOU
  6
CONTINUOUS
 62
     4
 10
11327.468935499979
 20
20526.936150000009
 30
0.0
 11
11241.96893549997
 21
20526.936150000009
 31
0.0
  0
LINE
  5
36BC
  8
SUNPOU
  6
CONTINUOUS
 62
     4
 10
13980.468935499979
 20
20056.930871
 30
0.0
 11
13980.468935499979
 21
20606.936150000009
 31
0.0
  0
LINE
  5
36BD
  8
SUNPOU
  6
CONTINUOUS
 62
     4
 10
13977.46893549997
 20
20526.936150000009
 30
0.0
 11
14217.46893549999
 21
20526.936150000009
 31
0.0
  0
LINE
  5
36BE
  8
SUNPOU
  6
CONTINUOUS
 62
     4
 10
13894.968935499979
 20
20526.936150000009
 30
0.0
 11
13977.46893549997
 21
20526.936150000009
 31
0.0
  0
TEXT
  5
36BF
  8
0
  6
CONTINUOUS
 62
     7
 10
14031.465641523229
 20
20606.936150000009
 30
0.0
 40
160.0
  1
85.5
  0
TEXT
  5
36C0
  8
0
  6
CONTINUOUS
 62
     7
 10
10710.9722294767
 20
20606.936150000009
 30
0.0
 40
160.0
  1
85.5
  0
ARC
  5
36C1
  8
0
  6
BYBLOCK
 62
     0
 10
11241.96893549997
 20
20526.936150000009
 30
0.0
 40
15.0
 50
180.0
 51
0.0
  0
ARC
  5
36C2
  8
0
  6
BYBLOCK
 62
     0
 10
11241.96893549997
 20
20526.936150000009
 30
0.0
 40
15.0
 50
0.0
 51
180.0
  0
ARC
  5
36C3
  8
0
  6
BYBLOCK
 62
     0
 10
13980.468935499979
 20
20526.936150000009
 30
0.0
 40
15.0
 50
0.0
 51
180.0
  0
ARC
  5
36C4
  8
0
  6
BYBLOCK
 62
     0
 10
13980.468935499979
 20
20526.936150000009
 30
0.0
 40
15.0
 50
180.0
 51
0.0
  0
TEXT
  5
371A
  8
NAME
 10
24033.053546554009
 20
1076.0
 30
0.0
 40
360.0
  1
H
 41
0.6700000000000002
  7
00
  0
TEXT
  5
371B
  8
NAME
 10
23657.221561973682
 20
1076.0
 30
0.0
 40
360.0
  1
（ ）
  7
01
  0
TEXT
  5
371C
  8
NAME
 10
24557.214549256729
 20
1076.0
 30
0.0
 40
360.0
  1
型（単棟）
  7
01
  0
TEXT
  5
371D
  8
NAME
 10
21933.552716389011
 20
1876.0
 30
0.0
 40
360.0
  1
ヨドガレージ ラヴィージュ
 41
0.75
  7
01
  0
TEXT
  5
371E
  8
NAME
 10
21816.089515848391
 20
1076.6369801169251
 30
0.0
 40
360.0
  1
VGC-2655
 41
0.6700000000000002
  0
LINE
  5
371F
  8
NAME
  6
CONTINUOUS
 10
26067.886878884299
 20
2236.0
 30
0.0
 11
26067.886878884299
 21
1876.0
 31
0.0
  0
LINE
  5
3720
  8
NAME
  6
CONTINUOUS
 10
26167.886878884299
 20
2236.0
 30
0.0
 11
26167.886878884299
 21
1876.0
 31
0.0
  0
LINE
  5
3721
  8
NAME
  6
CONTINUOUS
 10
26267.88687888431
 20
2236.0
 30
0.0
 11
26267.88687888431
 21
1876.0
 31
0.0
  0
LINE
  5
3722
  8
NAME
  6
CONTINUOUS
 10
26007.886878884299
 20
2236.0
 30
0.0
 11
26327.886878884299
 21
2236.0
 31
0.0
  0
LINE
  5
3723
  8
NAME
  6
CONTINUOUS
 10
26327.886878884299
 20
1876.0
 30
0.0
 11
26007.886878884299
 21
1876.0
 31
0.0
  0
TEXT
  5
37BD
  8
FILENAME
  6
CONTINUOUS
 10
28756.38095238095
 20
348.0
 30
0.0
 40
200.0
  1
＜VGC-2655-1-A_0.DXF ＞
  7
FILENAME
 72
     2
 11
32764.0
 21
348.0
 31
0.0
  0
LINE
  5
37C3
  8
WAKUSEN-01
 10
868.00000000000193
 20
827.99999999999955
 30
0.0
 11
32764.000000000011
 21
827.99999999999943
 31
0.0
  0
LINE
  5
37C4
  8
WAKUSEN-01
 10
868.00000000000193
 20
827.99999999999955
 30
0.0
 11
868.00000000000193
 21
22484.000000000011
 31
0.0
  0
LINE
  5
37C5
  8
WAKUSEN-01
 10
32764.000000000011
 20
827.99999999999943
 30
0.0
 11
32764.000000000011
 21
22484.000000000011
 31
0.0
  0
LINE
  5
37C6
  8
WAKUSEN-01
 10
20560.0
 20
827.99999999999716
 30
0.0
 11
20560.0
 21
2484.0
 31
0.0
  0
LINE
  5
37C7
  8
WAKUSEN-02
 10
26868.0
 20
827.99999999999261
 30
0.0
 11
26868.0
 21
2484.0
 31
0.0
  0
ENDSEC
  0
EOF
