  0
SECTION
  2
HEADER
  9
$ACADVER
  1
AC1009
  9
$INSBASE
 10
0.0
 20
0.0
 30
0.0
  9
$EXTMIN
 10
867.99324330406671
 20
327.38164749855792
 30
-0.0000000000000053
  9
$EXTMAX
 10
32765.33210850941
 20
22484.553276491992
 30
0.0000000000000099
  9
$LIMMIN
 10
0.0
 20
0.0
  9
$LIMMAX
 10
33600.0
 20
23760.0
  9
$ORTHOMODE
 70
     1
  9
$REGENMODE
 70
     1
  9
$FILLMODE
 70
     1
  9
$QTEXTMODE
 70
     0
  9
$MIRRTEXT
 70
     1
  9
$DRAGMODE
 70
     2
  9
$LTSCALE
 40
80.0
  9
$OSMODE
 70
  3071
  9
$ATTMODE
 70
     1
  9
$TEXTSIZE
 40
0.2
  9
$TRACEWID
 40
0.05
  9
$TEXTSTYLE
  7
00
  9
$CLAYER
  8
0
  9
$CELTYPE
  6
CONTINUOUS
  9
$CECOLOR
 62
   256
  9
$DIMSCALE
 40
80.0
  9
$DIMASZ
 40
3.0
  9
$DIMEXO
 40
1.0
  9
$DIMDLI
 40
0.38
  9
$DIMRND
 40
0.5
  9
$DIMDLE
 40
0.0
  9
$DIMEXE
 40
1.0
  9
$DIMTP
 40
0.0
  9
$DIMTM
 40
0.0
  9
$DIMTXT
 40
2.0
  9
$DIMCEN
 40
0.09
  9
$DIMTSZ
 40
0.0
  9
$DIMTOL
 70
     0
  9
$DIMLIM
 70
     0
  9
$DIMTIH
 70
     0
  9
$DIMTOH
 70
     0
  9
$DIMSE1
 70
     0
  9
$DIMSE2
 70
     0
  9
$DIMTAD
 70
     1
  9
$DIMZIN
 70
     8
  9
$DIMBLK
  1
DOTSMALL
  9
$DIMASO
 70
     1
  9
$DIMSHO
 70
     1
  9
$DIMPOST
  1

  9
$DIMAPOST
  1

  9
$DIMALT
 70
     0
  9
$DIMALTD
 70
     2
  9
$DIMALTF
 40
25.399999999999999
  9
$DIMLFAC
 40
1.0
  9
$DIMTOFL
 70
     1
  9
$DIMTVP
 40
0.0
  9
$DIMTIX
 70
     0
  9
$DIMSOXD
 70
     0
  9
$DIMSAH
 70
     0
  9
$DIMBLK1
  1

  9
$DIMBLK2
  1

  9
$DIMSTYLE
  2
SUNPOU
  9
$DIMCLRD
 70
     4
  9
$DIMCLRE
 70
     4
  9
$DIMCLRT
 70
     7
  9
$DIMTFAC
 40
1.0
  9
$DIMGAP
 40
1.0
  9
$LUNITS
 70
     2
  9
$LUPREC
 70
     4
  9
$SKETCHINC
 40
0.1
  9
$FILLETRAD
 40
0.0
  9
$AUNITS
 70
     0
  9
$AUPREC
 70
     0
  9
$MENU
  1
acad
  9
$ELEVATION
 40
0.0
  9
$PELEVATION
 40
0.0
  9
$THICKNESS
 40
0.0
  9
$LIMCHECK
 70
     0
  9
$BLIPMODE
 70
     1
  9
$CHAMFERA
 40
0.0
  9
$CHAMFERB
 40
0.0
  9
$SKPOLY
 70
     0
  9
$TDCREATE
 40
2454568.23924316
  9
$TDUPDATE
 40
2458942.406549063
  9
$TDINDWG
 40
0.1348968866
  9
$TDUSRTIMER
 40
0.1348800579
  9
$USRTIMER
 70
     1
  9
$ANGBASE
 50
0.0
  9
$ANGDIR
 70
     0
  9
$PDMODE
 70
     0
  9
$PDSIZE
 40
0.0
  9
$PLINEWID
 40
0.0
  9
$COORDS
 70
     1
  9
$SPLFRAME
 70
     0
  9
$SPLINETYPE
 70
     6
  9
$SPLINESEGS
 70
     8
  9
$ATTDIA
 70
     1
  9
$ATTREQ
 70
     1
  9
$HANDLING
 70
     1
  9
$HANDSEED
  5
3BAE
  9
$SURFTAB1
 70
     6
  9
$SURFTAB2
 70
     6
  9
$SURFTYPE
 70
     6
  9
$SURFU
 70
     6
  9
$SURFV
 70
     6
  9
$UCSNAME
  2

  9
$UCSORG
 10
0.0
 20
0.0
 30
0.0
  9
$UCSXDIR
 10
1.0
 20
0.0
 30
0.0
  9
$UCSYDIR
 10
0.0
 20
1.0
 30
0.0
  9
$PUCSNAME
  2

  9
$PUCSORG
 10
0.0
 20
0.0
 30
0.0
  9
$PUCSXDIR
 10
1.0
 20
0.0
 30
0.0
  9
$PUCSYDIR
 10
0.0
 20
1.0
 30
0.0
  9
$USERI1
 70
     0
  9
$USERI2
 70
     0
  9
$USERI3
 70
     0
  9
$USERI4
 70
     0
  9
$USERI5
 70
     0
  9
$USERR1
 40
0.0
  9
$USERR2
 40
0.0
  9
$USERR3
 40
0.0
  9
$USERR4
 40
0.0
  9
$USERR5
 40
0.0
  9
$WORLDVIEW
 70
     1
  9
$SHADEDGE
 70
     3
  9
$SHADEDIF
 70
    70
  9
$TILEMODE
 70
     1
  9
$MAXACTVP
 70
    16
  9
$PLIMCHECK
 70
     0
  9
$PEXTMIN
 10
1.0000000000000000E+020
 20
1.0000000000000000E+020
 30
1.0000000000000000E+020
  9
$PEXTMAX
 10
-1.0000000000000000E+020
 20
-1.0000000000000000E+020
 30
-1.0000000000000000E+020
  9
$PLIMMIN
 10
0.0
 20
0.0
  9
$PLIMMAX
 10
12.0
 20
9.0
  9
$UNITMODE
 70
     0
  9
$VISRETAIN
 70
     0
  9
$PLINEGEN
 70
     1
  9
$PSLTSCALE
 70
     0
  0
ENDSEC
  0
SECTION
  2
TABLES
  0
TABLE
  2
VPORT
 70
     1
  0
VPORT
  2
*ACTIVE
 70
     0
 10
0.0
 20
0.0
 11
1.0
 21
1.0
 12
16800.0
 22
11880.0
 13
0.0
 23
0.0
 14
1.0
 24
1.0
 15
0.0
 25
0.0
 16
0.0
 26
0.0
 36
1.0
 17
0.0
 27
0.0
 37
0.0
 40
24986.438827098082
 41
2.107302533532041
 42
50.0
 43
0.0
 44
0.0
 50
0.0
 51
0.0
 71
     0
 72
 10000
 73
     1
 74
     1
 75
     0
 76
     0
 77
     0
 78
     0
  0
ENDTAB
  0
TABLE
  2
LTYPE
 70
     3
  0
LTYPE
  2
CONTINUOUS
 70
     0
  3
Solid line
 72
    65
 73
     0
 40
0.0
  0
LTYPE
  2
DASHED3
 70
     0
  3
------  ------  ------  ------  
 72
    65
 73
     2
 40
5.0
 49
3.75
 49
-1.25
  0
LTYPE
  2
CENTER2
 70
     0
  3
----------  --  ----------  --  
 72
    65
 73
     4
 40
20.0
 49
12.5
 49
-2.5
 49
2.5
 49
-2.5
  0
ENDTAB
  0
TABLE
  2
LAYER
 70
    19
  0
LAYER
  2
0
 70
     0
 62
     7
  6
CONTINUOUS
  0
LAYER
  2
SUNPOU
 70
     0
 62
     4
  6
CONTINUOUS
  0
LAYER
  2
0-1
 70
     0
 62
     7
  6
CONTINUOUS
  0
LAYER
  2
0-2
 70
     0
 62
     7
  6
CONTINUOUS
  0
LAYER
  2
0-3
 70
     0
 62
     7
  6
CONTINUOUS
  0
LAYER
  2
0-4
 70
     0
 62
     7
  6
CONTINUOUS
  0
LAYER
  2
0-5
 70
     0
 62
     7
  6
CONTINUOUS
  0
LAYER
  2
0-6
 70
     0
 62
     7
  6
CONTINUOUS
  0
LAYER
  2
0-A
 70
     0
 62
     7
  6
CONTINUOUS
  0
LAYER
  2
YODOROGO
 70
     0
 62
   130
  6
CONTINUOUS
  0
LAYER
  2
WAKUSEN-01
 70
     0
 62
    50
  6
CONTINUOUS
  0
LAYER
  2
WAKUSEN-02
 70
     0
 62
   130
  6
CONTINUOUS
  0
LAYER
  2
WAKUMOJI-01
 70
     0
 62
   130
  6
CONTINUOUS
  0
LAYER
  2
FILENAME
 70
     0
 62
     7
  6
CONTINUOUS
  0
LAYER
  2
NAME
 70
     0
 62
    20
  6
CONTINUOUS
  0
LAYER
  2
2-0
 70
     0
 62
     7
  6
CONTINUOUS
  0
LAYER
  2
0-0
 70
     0
 62
     7
  6
CONTINUOUS
  0
ENDTAB
  0
TABLE
  2
STYLE
 70
     5
  0
STYLE
  2
STANDARD
 70
     0
 40
0.0
 41
1.0
 50
0.0
 71
     0
 42
0.0
  3
txt
  4
BIGFONT
  0
STYLE
  2
00
 70
     0
 40
0.0
 41
0.6666666666666666
 50
0.0
 71
     0
 42
0.2
  3
ROMANS
  4
BIGFONT
  0
STYLE
  2
01
 70
     0
 40
3.0
 41
1.0
 50
0.0
 71
     0
 42
0.2
  3
ROMANS
  4
BIGFONT
  0
STYLE
  2
WAKUMOJI
 70
     0
 40
3.0
 41
1.0
 50
0.0
 71
     0
 42
3.0
  3
SIMPLEX
  4
BIGFONT
  0
STYLE
  2
FILENAME
 70
     0
 40
200.0
 41
1.0
 50
0.0
 71
     0
 42
200.0
  3
romans
  4
bigfont
  0
ENDTAB
  0
TABLE
  2
VIEW
 70
     0
  0
ENDTAB
  0
TABLE
  2
UCS
 70
     0
  0
ENDTAB
  0
TABLE
  2
APPID
 70
    14
  0
APPID
  2
ACAD
 70
     0
  0
APPID
  2
ACADANNOTATIVE
 70
     0
  0
APPID
  2
ACAD_PSEXT
 70
     0
  0
APPID
  2
DCO15
 70
     0
  0
APPID
  2
ACAD_MLEADERVER
 70
     0
  0
APPID
  2
AUTOCAD_POSTSCRIPT_FIGURE
 70
     0
  0
APPID
  2
ACAD_EXEMPT_FROM_CAD_STANDARDS
 70
     0
  0
APPID
  2
ACAD_DSTYLE_DIMJAG
 70
     0
  0
APPID
  2
ACAD_DSTYLE_DIMTALN
 70
     0
  0
APPID
  2
ACAD_DSTYLE_DIM_LINETYPE
 70
     0
  0
APPID
  2
ACAD_DSTYLE_DIM_EXT1_LINETYPE
 70
     0
  0
APPID
  2
ACAD_DSTYLE_DIM_EXT2_LINETYPE
 70
     0
  0
APPID
  2
ACAD_NAV_VCDISPLAY
 70
     0
  0
APPID
  2
ACLAYERTOOLS
 70
     0
  0
ENDTAB
  0
TABLE
  2
DIMSTYLE
 70
     2
  0
DIMSTYLE
  2
SUNPOU
 70
     0
  3

  4

  5

  6

  7

 40
80.0
 41
3.0
 42
1.0
 43
0.38
 44
1.0
 45
0.5
 46
0.0
 47
0.0
 48
0.0
140
2.0
141
0.09
142
0.0
143
25.399999999999999
144
1.0
145
0.0
146
1.0
147
1.0
 71
     0
 72
     0
 73
     0
 74
     0
 75
     0
 76
     0
 77
     1
 78
     8
170
     0
171
     2
172
     1
173
     0
174
     0
175
     0
176
     4
177
     4
178
     7
  0
ENDTAB
  0
ENDSEC
  0
SECTION
  2
BLOCKS
  0
BLOCK
  8
0
  2
$MODEL_SPACE
 70
     0
 10
0.0
 20
0.0
 30
0.0
  3
$MODEL_SPACE
  1

  0
ENDBLK
  5
314F
  8
0
  0
BLOCK
 67
     1
  8
0
  2
$PAPER_SPACE
 70
     0
 10
0.0
 20
0.0
 30
0.0
  3
$PAPER_SPACE
  1

  0
ENDBLK
  5
314B
 67
     1
  8
0
  0
BLOCK
  8
0
  2
_DOTSMALL
 70
     0
 10
0.0
 20
0.0
 30
0.0
  3
_DOTSMALL
  1

  0
POLYLINE
  5
3180
  8
0
  6
BYBLOCK
 62
     0
 66
     1
 10
0.0
 20
0.0
 30
0.0
 70
     1
 40
0.5
 41
0.5
  0
VERTEX
  5
3B76
  8
0
  6
BYBLOCK
 62
     0
 10
-0.0625
 20
0.0
 30
0.0
 42
1.0
  0
VERTEX
  5
3B77
  8
0
  6
BYBLOCK
 62
     0
 10
0.0625
 20
0.0
 30
0.0
 42
1.0
  0
SEQEND
  5
3B78
  8
0
  6
BYBLOCK
 62
     0
  0
ENDBLK
  5
3184
  8
0
  0
ENDSEC
  0
SECTION
  2
ENTITIES
  0
LINE
  5
3185
  8
0-1
  6
CONTINUOUS
 62
     3
 10
10627.757274
 20
16654.757722999992
 30
0.0
 11
13195.257274
 21
16654.757722999992
 31
0.0
  0
LINE
  5
3186
  8
0-1
  6
CONTINUOUS
 62
     3
 10
13145.25863299999
 20
13892.759135
 30
0.0
 11
13145.25863299999
 21
19352.757484999991
 31
0.0
  0
LINE
  5
3187
  8
0-1
  6
CONTINUOUS
 62
     3
 10
10677.757894000009
 20
13892.759135
 30
0.0
 11
10677.757894000009
 21
19352.757484999991
 31
0.0
  0
LINE
  5
3188
  8
0-1
  6
CONTINUOUS
 62
     3
 10
10542.25786800001
 20
13860.759228000001
 30
0.0
 11
10542.25786800001
 21
19400.758832
 31
0.0
  0
LINE
  5
3189
  8
0-1
  6
CONTINUOUS
 62
     3
 10
13280.758658999999
 20
13860.759228000001
 30
0.0
 11
13280.758658999999
 21
19400.758832
 31
0.0
  0
LINE
  5
318A
  8
0-1
  6
CONTINUOUS
 62
     3
 10
10618.757393
 20
19400.758832
 30
0.0
 11
13204.259134
 21
19400.758832
 31
0.0
  0
LINE
  5
318B
  8
0-1
  6
CONTINUOUS
 62
     3
 10
10627.757274
 20
16575.759095000001
 30
0.0
 11
13195.257274
 21
16575.759095000001
 31
0.0
  0
LINE
  5
318C
  8
0-1
  6
CONTINUOUS
 62
     3
 10
10585.258000000011
 20
14016.75914900001
 30
0.0
 11
13237.759517
 21
14016.75914900001
 31
0.0
  0
LINE
  5
318D
  8
0-1
  6
CONTINUOUS
 62
     3
 10
10627.757274
 20
14095.757776
 30
0.0
 11
13195.257274
 21
14095.757776
 31
0.0
  0
LINE
  5
318E
  8
0-1
  6
CONTINUOUS
 62
     3
 10
10542.25786800001
 20
13860.759228000001
 30
0.0
 11
13280.758658999999
 21
13860.759228000001
 31
0.0
  0
LINE
  5
318F
  8
0-1
  6
CONTINUOUS
 62
     3
 10
10542.25786800001
 20
13892.759135
 30
0.0
 11
13280.758658999999
 21
13892.759135
 31
0.0
  0
LINE
  5
3190
  8
0-1
  6
CONTINUOUS
 62
     3
 10
13195.257274
 20
14016.75914900001
 30
0.0
 11
13195.257274
 21
16777.179069999991
 31
0.0
  0
LINE
  5
3191
  8
0-1
  6
CONTINUOUS
 62
     3
 10
13237.759517
 20
14016.75914900001
 30
0.0
 11
13237.759517
 21
16742.103979999982
 31
0.0
  0
LINE
  5
3192
  8
0-1
  6
CONTINUOUS
 62
     3
 10
10627.757274
 20
14016.75914900001
 30
0.0
 11
10627.757274
 21
18832.047102
 31
0.0
  0
LINE
  5
3193
  8
0-1
  6
CONTINUOUS
 62
     3
 10
10585.258000000011
 20
14016.75914900001
 30
0.0
 11
10585.258000000011
 21
18863.931208000002
 31
0.0
  0
LINE
  5
3194
  8
0-1
  6
CONTINUOUS
 62
     3
 10
10697.758000000011
 20
16620.757511999989
 30
0.0
 11
13125.258527
 21
14053.257512
 31
0.0
  0
LINE
  5
3195
  8
0-1
  6
CONTINUOUS
 62
     3
 10
13125.258527
 20
16620.757511999989
 30
0.0
 11
10697.758000000011
 21
14053.257512
 31
0.0
  0
LINE
  5
3196
  8
0-1
  6
CONTINUOUS
 62
     3
 10
10697.758000000011
 20
16620.757511999989
 30
0.0
 11
11906.759861
 21
17909.25888400001
 31
0.0
  0
LINE
  5
3197
  8
0-1
  6
CONTINUOUS
 62
     3
 10
12986.759529999999
 20
16958.741569999991
 30
0.0
 11
12986.759529999999
 21
19352.757484999991
 31
0.0
  0
LINE
  5
3198
  8
0-1
  6
CONTINUOUS
 62
     3
 10
13023.75970199999
 20
16918.710689999982
 30
0.0
 11
13023.75970199999
 21
19352.757484999991
 31
0.0
  0
LINE
  5
3199
  8
0-1
  6
CONTINUOUS
 62
     3
 10
12846.759993000011
 20
17066.439257999991
 30
0.0
 11
12846.759993000011
 21
19352.757484999991
 31
0.0
  0
LINE
  5
319A
  8
0-1
  6
CONTINUOUS
 62
     3
 10
12809.756852
 20
17096.975311999991
 30
0.0
 11
12809.756852
 21
19352.757484999991
 31
0.0
  0
LINE
  5
319B
  8
0-1
  6
CONTINUOUS
 62
     3
 10
12474.757973000011
 20
17373.436855999989
 30
0.0
 11
12474.757973000011
 21
19352.757484999991
 31
0.0
  0
LINE
  5
319C
  8
0-1
  6
CONTINUOUS
 62
     3
 10
12511.757154999999
 20
17342.904761999991
 30
0.0
 11
12511.757154999999
 21
19352.757484999991
 31
0.0
  0
LINE
  5
319D
  8
0-1
  6
CONTINUOUS
 62
     3
 10
12679.25807899999
 20
17204.672999999992
 30
0.0
 11
12679.25807899999
 21
19352.757484999991
 31
0.0
  0
LINE
  5
319E
  8
0-1
  6
CONTINUOUS
 62
     3
 10
12642.260877000001
 20
17235.205094000001
 30
0.0
 11
12642.260877000001
 21
19352.757484999991
 31
0.0
  0
LINE
  5
319F
  8
0-1
  6
CONTINUOUS
 62
     3
 10
12307.26001900001
 20
17511.670598000001
 30
0.0
 11
12307.26001900001
 21
19352.757484999991
 31
0.0
  0
LINE
  5
31A0
  8
0-1
  6
CONTINUOUS
 62
     3
 10
12344.258211
 20
17481.134544
 30
0.0
 11
12344.258211
 21
19352.757484999991
 31
0.0
  0
LINE
  5
31A1
  8
0-1
  6
CONTINUOUS
 62
     3
 10
12176.75827699999
 20
17461.369051000001
 30
0.0
 11
12176.75827699999
 21
19352.757484999991
 31
0.0
  0
LINE
  5
31A2
  8
0-1
  6
CONTINUOUS
 62
     3
 10
12139.758105000001
 20
17417.991859999991
 30
0.0
 11
12139.758105000001
 21
19352.757484999991
 31
0.0
  0
LINE
  5
31A3
  8
0-1
  6
CONTINUOUS
 62
     3
 10
11972.259161000011
 20
17760.781133999979
 30
0.0
 11
11972.259161000011
 21
19352.757484999991
 31
0.0
  0
LINE
  5
31A4
  8
0-1
  6
CONTINUOUS
 62
     3
 10
12009.259333000011
 20
17673.498221000002
 30
0.0
 11
12009.259333000011
 21
19352.757484999991
 31
0.0
  0
LINE
  5
31A5
  8
0-1
  6
CONTINUOUS
 62
     3
 10
11804.258409
 20
18157.096590000001
 30
0.0
 11
11804.258409
 21
19352.757484999991
 31
0.0
  0
LINE
  5
31A6
  8
0-1
  6
CONTINUOUS
 62
     3
 10
11841.258581
 20
18069.809718
 30
0.0
 11
11841.258581
 21
19352.757484999991
 31
0.0
  0
LINE
  5
31A7
  8
0-1
  6
CONTINUOUS
 62
     3
 10
11673.757657
 20
18412.602950999979
 30
0.0
 11
11673.757657
 21
19352.757484999991
 31
0.0
  0
LINE
  5
31A8
  8
0-1
  6
CONTINUOUS
 62
     3
 10
11636.757485
 20
18369.221801
 30
0.0
 11
11636.757485
 21
19352.757484999991
 31
0.0
  0
LINE
  5
31A9
  8
0-1
  6
CONTINUOUS
 62
     3
 10
11469.257551000001
 20
18200.711323
 30
0.0
 11
11469.257551000001
 21
19352.757484999991
 31
0.0
  0
LINE
  5
31AA
  8
0-1
  6
CONTINUOUS
 62
     3
 10
11506.25871200001
 20
18216.22481
 30
0.0
 11
11506.25871200001
 21
19352.757484999991
 31
0.0
  0
LINE
  5
31AB
  8
0-1
  6
CONTINUOUS
 62
     3
 10
11636.757485
 20
18369.221801
 30
0.0
 11
11636.757485
 21
19352.757484999991
 31
0.0
  0
LINE
  5
31AC
  8
0-1
  6
CONTINUOUS
 62
     3
 10
11673.757657
 20
18412.602950999979
 30
0.0
 11
11673.757657
 21
19352.757484999991
 31
0.0
  0
LINE
  5
31AD
  8
0-1
  6
CONTINUOUS
 62
     3
 10
11171.258844
 20
18424.288048999992
 30
0.0
 11
11171.258844
 21
19352.757484999991
 31
0.0
  0
LINE
  5
31AE
  8
0-1
  6
CONTINUOUS
 62
     3
 10
11134.257683000011
 20
18452.044859000001
 30
0.0
 11
11134.257683000011
 21
19352.757484999991
 31
0.0
  0
LINE
  5
31AF
  8
0-1
  6
CONTINUOUS
 62
     3
 10
11301.759597
 20
18326.379080999988
 30
0.0
 11
11301.759597
 21
19352.757484999991
 31
0.0
  0
LINE
  5
31B0
  8
0-1
  6
CONTINUOUS
 62
     3
 10
11338.757788999999
 20
18298.622270999978
 30
0.0
 11
11338.757788999999
 21
19352.757484999991
 31
0.0
  0
LINE
  5
31B1
  8
0-1
  6
CONTINUOUS
 62
     3
 10
11003.756931000011
 20
18549.953826999961
 30
0.0
 11
11003.756931000011
 21
19352.757484999991
 31
0.0
  0
LINE
  5
31B2
  8
0-1
  6
CONTINUOUS
 62
     3
 10
10966.75873900001
 20
18577.714595999962
 30
0.0
 11
10966.75873900001
 21
19352.757484999991
 31
0.0
  0
LINE
  5
31B3
  8
0-1
  6
CONTINUOUS
 62
     3
 10
10799.256825
 20
18703.380373999978
 30
0.0
 11
10799.256825
 21
19352.757484999991
 31
0.0
  0
LINE
  5
31B4
  8
0-1
  6
CONTINUOUS
 62
     3
 10
10836.25798700001
 20
18675.619604999989
 30
0.0
 11
10836.25798700001
 21
19352.757484999991
 31
0.0
  0
LINE
  5
31B5
  8
0-1
  6
CONTINUOUS
 62
     3
 10
11483.75356600001
 20
18189.83782700001
 30
0.0
 11
10281.316778
 21
19091.965809999991
 31
0.0
  0
LINE
  5
31B6
  8
0-1
  6
CONTINUOUS
 62
     3
 10
11483.75356600001
 20
18189.83782700001
 30
0.0
 11
11688.579302
 21
18429.979165000001
 31
0.0
  0
LINE
  5
31B7
  8
0-1
  6
CONTINUOUS
 62
     3
 10
12124.938440000011
 20
17400.615645999991
 30
0.0
 11
11688.579302
 21
18429.979165000001
 31
0.0
  0
LINE
  5
31B8
  8
0-1
  6
CONTINUOUS
 62
     3
 10
12124.938440000011
 20
17400.615645999991
 30
0.0
 11
12255.847962000011
 21
17554.095639999989
 31
0.0
  0
LINE
  5
31B9
  8
0-1
  6
CONTINUOUS
 62
     3
 10
13554.09252499998
 20
16481.045069999989
 30
0.0
 11
12255.847962000011
 21
17554.095639999989
 31
0.0
  0
LINE
  5
31BA
  8
0-1
  6
CONTINUOUS
 62
     3
 10
12249.508554
 20
17546.662548
 30
0.0
 11
13125.258527
 21
16620.757511999989
 31
0.0
  0
LINE
  5
31BB
  8
0-1
  6
CONTINUOUS
 62
     3
 10
11558.59421400001
 20
18277.579989000002
 30
0.0
 11
11911.398862
 21
17904.347699000002
 31
0.0
  0
LINE
  5
31BC
  8
0-1
  6
CONTINUOUS
 62
     3
 10
10560.25763
 20
18880.438413
 30
0.0
 11
10560.25763
 21
19393.25645600001
 31
0.0
  0
LINE
  5
31BD
  8
0-1
  6
CONTINUOUS
 62
     3
 10
13262.758897
 20
16723.947835999981
 30
0.0
 11
13262.758897
 21
19393.25645600001
 31
0.0
  0
LINE
  5
31BE
  8
0-1
  6
CONTINUOUS
 62
     3
 10
10563.25763
 20
19352.757484999991
 30
0.0
 11
13259.758897
 21
19352.757484999991
 31
0.0
  0
LINE
  5
31BF
  8
0-1
  6
CONTINUOUS
 62
     3
 10
10615.757393
 20
19375.759491000001
 30
0.0
 11
10615.757393
 21
19405.759095000001
 31
0.0
  0
LINE
  5
31C0
  8
0-1
  6
CONTINUOUS
 62
     3
 10
10542.25786800001
 20
19405.759095000001
 30
0.0
 11
10542.25786800001
 21
19370.759226999999
 31
0.0
  0
LINE
  5
31C1
  8
0-1
  6
CONTINUOUS
 62
     3
 10
10610.76009800001
 20
19410.75738000001
 30
0.0
 11
10547.257142
 21
19410.75738000001
 31
0.0
  0
LINE
  5
31C2
  8
0-1
  6
CONTINUOUS
 62
     3
 10
10560.25763
 20
19393.25645600001
 30
0.0
 11
10542.25786800001
 21
19393.25645600001
 31
0.0
  0
LINE
  5
31C3
  8
0-1
  6
CONTINUOUS
 62
     3
 10
10560.25763
 20
19370.759226999999
 30
0.0
 11
10610.76009800001
 21
19370.759226999999
 31
0.0
  0
LINE
  5
31C4
  8
0-1
  6
CONTINUOUS
 62
     3
 10
13262.758897
 20
19393.25645600001
 30
0.0
 11
13280.758658999999
 21
19393.25645600001
 31
0.0
  0
LINE
  5
31C5
  8
0-1
  6
CONTINUOUS
 62
     3
 10
13207.259134
 20
19375.759491000001
 30
0.0
 11
13207.259134
 21
19405.759095000001
 31
0.0
  0
LINE
  5
31C6
  8
0-1
  6
CONTINUOUS
 62
     3
 10
13262.758897
 20
19370.759226999999
 30
0.0
 11
13212.25939799998
 21
19370.759226999999
 31
0.0
  0
LINE
  5
31C7
  8
0-1
  6
CONTINUOUS
 62
     3
 10
13280.758658999999
 20
19405.759095000001
 30
0.0
 11
13280.758658999999
 21
19370.759226999999
 31
0.0
  0
LINE
  5
31C8
  8
0-1
  6
CONTINUOUS
 62
     3
 10
13212.25939799998
 20
19410.75738000001
 30
0.0
 11
13275.75938499999
 21
19410.75738000001
 31
0.0
  0
LINE
  5
31C9
  8
0-4
  6
CONTINUOUS
 62
     6
 10
12362.215414
 20
16808.592049999988
 30
0.0
 11
12301.067095
 21
16979.853136000002
 31
0.0
  0
LINE
  5
31CA
  8
0-4
  6
CONTINUOUS
 62
     6
 10
12302.76651199998
 20
19128.480009999999
 30
0.0
 11
12446.67058400001
 21
19640.757644000001
 31
0.0
  0
LINE
  5
31CB
  8
0-4
  6
CONTINUOUS
 62
     6
 10
11882.769084999991
 20
19234.255584999992
 30
0.0
 11
11588.839279
 21
19640.757644000001
 31
0.0
  0
LINE
  5
31CC
  8
0-4
  6
CONTINUOUS
 62
     6
 10
12446.67058400001
 20
19640.757644000001
 30
0.0
 11
13007.97898
 21
19640.757644000001
 31
0.0
  0
LINE
  5
31CD
  8
0-4
  6
CONTINUOUS
 62
     6
 10
11829.50024000001
 20
19530.660779000002
 30
0.0
 11
11657.68010786382
 21
19885.758699999998
 31
0.0
  0
LINE
  5
31CE
  8
0-4
  6
CONTINUOUS
 62
     6
 10
11578.296755865311
 20
20035.758700000009
 30
0.0
 11
11350.24592499999
 21
20430.75975500001
 31
0.0
  0
LINE
  5
31CF
  8
0-4
  6
CONTINUOUS
 62
     6
 10
11350.24592499999
 20
20430.75975500001
 30
0.0
 11
12192.68350400001
 21
20430.75975500001
 31
0.0
  0
LINE
  5
31D0
  8
0-4
  6
CONTINUOUS
 62
     6
 10
10788.83664000001
 20
19640.757644000001
 30
0.0
 11
11588.839279
 21
19640.757644000001
 31
0.0
  0
LINE
  5
31D1
  8
0-4
  6
CONTINUOUS
 62
     6
 10
11500.494354
 20
16979.853136000002
 30
0.0
 11
12301.067095
 21
16979.853136000002
 31
0.0
  0
LINE
  5
31D2
  8
0-4
  6
CONTINUOUS
 62
     6
 10
11456.142250999999
 20
16051.376705000001
 30
0.0
 11
11667.410330000001
 21
16253.438044
 31
0.0
  0
LINE
  5
31D3
  8
0-4
  6
CONTINUOUS
 62
     6
 10
11667.410330000001
 20
16253.438044
 30
0.0
 11
12547.410264
 21
16253.438044
 31
0.0
  0
LINE
  5
31D4
  8
0-4
  6
CONTINUOUS
 62
     6
 10
10792.285951
 20
18067.956889000001
 30
0.0
 11
11312.28766599998
 21
18067.956889000001
 31
0.0
  0
LINE
  5
31D5
  8
0-4
  6
CONTINUOUS
 62
     6
 10
11465.102542000001
 20
14247.648216000011
 30
0.0
 11
11547.988944000001
 21
14434.089238999981
 31
0.0
  0
LINE
  5
31D6
  8
0-4
  6
CONTINUOUS
 62
     6
 10
11547.988944000001
 20
14434.089238999981
 30
0.0
 11
12347.988614
 21
14434.089238999981
 31
0.0
  0
LINE
  5
31D7
  8
0-4
  6
CONTINUOUS
 62
     6
 10
12214.813532
 20
13060.75856799999
 30
0.0
 11
13086.893477999991
 21
13060.75856799999
 31
0.0
  0
LINE
  5
31D8
  8
0-4
  6
CONTINUOUS
 62
     6
 10
11808.699458999999
 20
13724.29022700001
 30
0.0
 11
12214.813532
 21
13060.75856799999
 31
0.0
  0
LINE
  5
31D9
  8
0-4
  6
CONTINUOUS
 62
     6
 10
8783.6239070000083
 20
12570.757446000011
 30
0.0
 11
9863.6254910000116
 21
12570.757446000011
 31
0.0
  0
LINE
  5
31DA
  8
0-4
  6
CONTINUOUS
 62
     6
 10
10450.366674999999
 20
14450.53112099998
 30
0.0
 11
9863.6254910000116
 21
12570.757446000011
 31
0.0
  0
LINE
  5
31DB
  8
0-4
  6
CONTINUOUS
 62
     6
 10
10693.244697000009
 20
18288.748432
 30
0.0
 11
10792.285951
 21
18067.956889000001
 31
0.0
  0
LINE
  5
31DC
  8
0-4
  6
CONTINUOUS
 62
     6
 10
13391.667126
 20
19526.080172999998
 30
0.0
 11
14318.414381000001
 21
20430.75975500001
 31
0.0
  0
LINE
  5
31DD
  8
0-4
  6
CONTINUOUS
 62
     6
 10
14318.414381000001
 20
20430.75975500001
 30
0.0
 11
15993.413721999999
 21
20430.75975500001
 31
0.0
  0
LINE
  5
31DE
  8
0-4
  6
CONTINUOUS
 62
     6
 10
10475.807448
 20
14442.54970199998
 30
0.0
 11
10498.256179
 21
14603.19654299998
 31
0.0
  0
LINE
  5
31DF
  8
0-4
  6
CONTINUOUS
 62
     6
 10
10498.256179
 20
14603.19654299998
 30
0.0
 11
10424.920953999999
 21
14458.51352899998
 31
0.0
  0
LINE
  5
31E0
  8
0-4
  6
CONTINUOUS
 62
     6
 10
10498.256179
 20
14603.19654299998
 30
0.0
 11
10475.807448
 21
14442.54970199998
 31
0.0
  0
LINE
  5
31E1
  8
0-4
  6
CONTINUOUS
 62
     6
 10
10475.807448
 20
14442.54970199998
 30
0.0
 11
10424.920953999999
 21
14458.51352899998
 31
0.0
  0
LINE
  5
31E2
  8
0-4
  6
CONTINUOUS
 62
     6
 10
10424.920953999999
 20
14458.51352899998
 30
0.0
 11
10498.256179
 21
14603.19654299998
 31
0.0
  0
LINE
  5
31E3
  8
0-4
  6
CONTINUOUS
 62
     6
 10
10424.920953999999
 20
14458.51352899998
 30
0.0
 11
10475.807448
 21
14442.54970199998
 31
0.0
  0
LINE
  5
31E4
  8
0-4
  6
CONTINUOUS
 62
     6
 10
11831.442148
 20
13738.209211999991
 30
0.0
 11
11725.176642
 21
13860.759228000001
 31
0.0
  0
LINE
  5
31E5
  8
0-4
  6
CONTINUOUS
 62
     6
 10
11725.176642
 20
13860.759228000001
 30
0.0
 11
11785.953800999991
 21
13710.37025200001
 31
0.0
  0
LINE
  5
31E6
  8
0-4
  6
CONTINUOUS
 62
     6
 10
11725.176642
 20
13860.759228000001
 30
0.0
 11
11831.442148
 21
13738.209211999991
 31
0.0
  0
LINE
  5
31E7
  8
0-4
  6
CONTINUOUS
 62
     6
 10
11831.442148
 20
13738.209211999991
 30
0.0
 11
11785.953800999991
 21
13710.37025200001
 31
0.0
  0
LINE
  5
31E8
  8
0-4
  6
CONTINUOUS
 62
     6
 10
11785.953800999991
 20
13710.37025200001
 30
0.0
 11
11725.176642
 21
13860.759228000001
 31
0.0
  0
LINE
  5
31E9
  8
0-4
  6
CONTINUOUS
 62
     6
 10
11785.953800999991
 20
13710.37025200001
 30
0.0
 11
11831.442148
 21
13738.209211999991
 31
0.0
  0
LINE
  5
31EA
  8
0-4
  6
CONTINUOUS
 62
     6
 10
11440.954394
 20
14258.96116500001
 30
0.0
 11
11397.228809
 21
14102.75735400001
 31
0.0
  0
LINE
  5
31EB
  8
0-4
  6
CONTINUOUS
 62
     6
 10
11397.228809
 20
14102.75735400001
 30
0.0
 11
11489.25068900001
 21
14236.33724700001
 31
0.0
  0
LINE
  5
31EC
  8
0-4
  6
CONTINUOUS
 62
     6
 10
11397.228809
 20
14102.75735400001
 30
0.0
 11
11440.954394
 21
14258.96116500001
 31
0.0
  0
LINE
  5
31ED
  8
0-4
  6
CONTINUOUS
 62
     6
 10
11440.954394
 20
14258.96116500001
 30
0.0
 11
11489.25068900001
 21
14236.33724700001
 31
0.0
  0
LINE
  5
31EE
  8
0-4
  6
CONTINUOUS
 62
     6
 10
11489.25068900001
 20
14236.33724700001
 30
0.0
 11
11397.228809
 21
14102.75735400001
 31
0.0
  0
LINE
  5
31EF
  8
0-4
  6
CONTINUOUS
 62
     6
 10
11489.25068900001
 20
14236.33724700001
 30
0.0
 11
11440.954394
 21
14258.96116500001
 31
0.0
  0
LINE
  5
31F0
  8
0-4
  6
CONTINUOUS
 62
     6
 10
11437.710952999991
 20
16070.649297999989
 30
0.0
 11
11340.51164199999
 21
15940.785951
 31
0.0
  0
LINE
  5
31F1
  8
0-4
  6
CONTINUOUS
 62
     6
 10
11340.51164199999
 20
15940.785951
 30
0.0
 11
11474.57552799999
 21
16032.10708199999
 31
0.0
  0
LINE
  5
31F2
  8
0-4
  6
CONTINUOUS
 62
     6
 10
11340.51164199999
 20
15940.785951
 30
0.0
 11
11437.710952999991
 21
16070.649297999989
 31
0.0
  0
LINE
  5
31F3
  8
0-4
  6
CONTINUOUS
 62
     6
 10
11437.710952999991
 20
16070.649297999989
 30
0.0
 11
11474.57552799999
 21
16032.10708199999
 31
0.0
  0
LINE
  5
31F4
  8
0-4
  6
CONTINUOUS
 62
     6
 10
11474.57552799999
 20
16032.10708199999
 30
0.0
 11
11340.51164199999
 21
15940.785951
 31
0.0
  0
LINE
  5
31F5
  8
0-4
  6
CONTINUOUS
 62
     6
 10
11474.57552799999
 20
16032.10708199999
 30
0.0
 11
11437.710952999991
 21
16070.649297999989
 31
0.0
  0
LINE
  5
31F6
  8
0-4
  6
CONTINUOUS
 62
     6
 10
10717.57496
 20
18299.659539
 30
0.0
 11
10627.757274
 21
18434.733968999979
 31
0.0
  0
LINE
  5
31F7
  8
0-4
  6
CONTINUOUS
 62
     6
 10
10627.757274
 20
18434.733968999979
 30
0.0
 11
10668.91146500001
 21
18277.831386999991
 31
0.0
  0
LINE
  5
31F8
  8
0-4
  6
CONTINUOUS
 62
     6
 10
10627.757274
 20
18434.733968999979
 30
0.0
 11
10717.57496
 21
18299.659539
 31
0.0
  0
LINE
  5
31F9
  8
0-4
  6
CONTINUOUS
 62
     6
 10
10717.57496
 20
18299.659539
 30
0.0
 11
10668.91146500001
 21
18277.831386999991
 31
0.0
  0
LINE
  5
31FA
  8
0-4
  6
CONTINUOUS
 62
     6
 10
10668.91146500001
 20
18277.831386999991
 30
0.0
 11
10627.757274
 21
18434.733968999979
 31
0.0
  0
LINE
  5
31FB
  8
0-4
  6
CONTINUOUS
 62
     6
 10
10668.91146500001
 20
18277.831386999991
 30
0.0
 11
10717.57496
 21
18299.659539
 31
0.0
  0
LINE
  5
31FC
  8
0-4
  6
CONTINUOUS
 62
     6
 10
12387.852159
 20
16815.924187000001
 30
0.0
 11
12406.216152999999
 21
16654.757722999992
 31
0.0
  0
LINE
  5
31FD
  8
0-4
  6
CONTINUOUS
 62
     6
 10
12406.216152999999
 20
16654.757722999992
 30
0.0
 11
12336.576689
 21
16801.255954999979
 31
0.0
  0
LINE
  5
31FE
  8
0-4
  6
CONTINUOUS
 62
     6
 10
12406.216152999999
 20
16654.757722999992
 30
0.0
 11
12387.852159
 21
16815.924187000001
 31
0.0
  0
LINE
  5
31FF
  8
0-4
  6
CONTINUOUS
 62
     6
 10
12387.852159
 20
16815.924187000001
 30
0.0
 11
12336.576689
 21
16801.255954999979
 31
0.0
  0
LINE
  5
3200
  8
0-4
  6
CONTINUOUS
 62
     6
 10
12336.576689
 20
16801.255954999979
 30
0.0
 11
12406.216152999999
 21
16654.757722999992
 31
0.0
  0
LINE
  5
3201
  8
0-4
  6
CONTINUOUS
 62
     6
 10
12336.576689
 20
16801.255954999979
 30
0.0
 11
12387.852159
 21
16815.924187000001
 31
0.0
  0
LINE
  5
3202
  8
0-4
  6
CONTINUOUS
 62
     6
 10
11807.850245
 20
19518.164078999991
 30
0.0
 11
11904.50024000001
 21
19400.758832
 31
0.0
  0
LINE
  5
3203
  8
0-4
  6
CONTINUOUS
 62
     6
 10
11904.50024000001
 20
19400.758832
 30
0.0
 11
11851.153204
 21
19543.161439
 31
0.0
  0
LINE
  5
3204
  8
0-4
  6
CONTINUOUS
 62
     6
 10
11904.50024000001
 20
19400.758832
 30
0.0
 11
11807.850245
 21
19518.164078999991
 31
0.0
  0
LINE
  5
3205
  8
0-4
  6
CONTINUOUS
 62
     6
 10
11807.850245
 20
19518.164078999991
 30
0.0
 11
11851.153204
 21
19543.161439
 31
0.0
  0
LINE
  5
3206
  8
0-4
  6
CONTINUOUS
 62
     6
 10
11851.153204
 20
19543.161439
 30
0.0
 11
11904.50024000001
 21
19400.758832
 31
0.0
  0
LINE
  5
3207
  8
0-4
  6
CONTINUOUS
 62
     6
 10
11851.153204
 20
19543.161439
 30
0.0
 11
11807.850245
 21
19518.164078999991
 31
0.0
  0
LINE
  5
3208
  8
0-4
  6
CONTINUOUS
 62
     6
 10
11776.072044
 20
19356.435431000002
 30
0.0
 11
11882.769084999991
 21
19234.255584999992
 31
0.0
  0
LINE
  5
3209
  8
0-4
  6
CONTINUOUS
 62
     6
 10
11882.769084999991
 20
19234.255584999992
 30
0.0
 11
11821.46438400001
 21
19384.431762
 31
0.0
  0
LINE
  5
320A
  8
0-4
  6
CONTINUOUS
 62
     6
 10
11882.769084999991
 20
19234.255584999992
 30
0.0
 11
11776.072044
 21
19356.435431000002
 31
0.0
  0
LINE
  5
320B
  8
0-4
  6
CONTINUOUS
 62
     6
 10
11776.072044
 20
19356.435431000002
 30
0.0
 11
11821.46438400001
 21
19384.431762
 31
0.0
  0
LINE
  5
320C
  8
0-4
  6
CONTINUOUS
 62
     6
 10
11821.46438400001
 20
19384.431762
 30
0.0
 11
11882.769084999991
 21
19234.255584999992
 31
0.0
  0
LINE
  5
320D
  8
0-4
  6
CONTINUOUS
 62
     6
 10
11821.46438400001
 20
19384.431762
 30
0.0
 11
11776.072044
 21
19356.435431000002
 31
0.0
  0
LINE
  5
320E
  8
0-4
  6
CONTINUOUS
 62
     6
 10
12276.879358
 20
19134.877813999989
 30
0.0
 11
12264.37968700001
 21
18973.153125000001
 31
0.0
  0
LINE
  5
320F
  8
0-4
  6
CONTINUOUS
 62
     6
 10
12264.37968700001
 20
18973.153125000001
 30
0.0
 11
12328.65465600001
 21
19122.084185
 31
0.0
  0
LINE
  5
3210
  8
0-4
  6
CONTINUOUS
 62
     6
 10
12264.37968700001
 20
18973.153125000001
 30
0.0
 11
12276.879358
 21
19134.877813999989
 31
0.0
  0
LINE
  5
3211
  8
0-4
  6
CONTINUOUS
 62
     6
 10
12276.879358
 20
19134.877813999989
 30
0.0
 11
12328.65465600001
 21
19122.084185
 31
0.0
  0
LINE
  5
3212
  8
0-4
  6
CONTINUOUS
 62
     6
 10
12328.65465600001
 20
19122.084185
 30
0.0
 11
12264.37968700001
 21
18973.153125000001
 31
0.0
  0
LINE
  5
3213
  8
0-4
  6
CONTINUOUS
 62
     6
 10
12328.65465600001
 20
19122.084185
 30
0.0
 11
12276.879358
 21
19134.877813999989
 31
0.0
  0
LINE
  5
3214
  8
0-4
  6
CONTINUOUS
 62
     6
 10
13372.446001
 20
19544.56689699999
 30
0.0
 11
13280.758658999999
 21
19410.75738000001
 31
0.0
  0
LINE
  5
3215
  8
0-4
  6
CONTINUOUS
 62
     6
 10
13280.758658999999
 20
19410.75738000001
 30
0.0
 11
13410.886272
 21
19507.597408000001
 31
0.0
  0
LINE
  5
3216
  8
0-4
  6
CONTINUOUS
 62
     6
 10
13280.758658999999
 20
19410.75738000001
 30
0.0
 11
13372.446001
 21
19544.56689699999
 31
0.0
  0
LINE
  5
3217
  8
0-4
  6
CONTINUOUS
 62
     6
 10
13372.446001
 20
19544.56689699999
 30
0.0
 11
13410.886272
 21
19507.597408000001
 31
0.0
  0
LINE
  5
3218
  8
0-4
  6
CONTINUOUS
 62
     6
 10
13410.886272
 20
19507.597408000001
 30
0.0
 11
13280.758658999999
 21
19410.75738000001
 31
0.0
  0
LINE
  5
3219
  8
0-4
  6
CONTINUOUS
 62
     6
 10
13410.886272
 20
19507.597408000001
 30
0.0
 11
13372.446001
 21
19544.56689699999
 31
0.0
  0
LINE
  5
321A
  8
0-5
  6
DASHED3
 62
     6
 10
10627.757274
 20
19149.259016
 30
0.0
 11
13195.257274
 21
19149.259016
 31
0.0
  0
LINE
  5
321B
  8
0-5
  6
DASHED3
 62
     6
 10
10585.258000000011
 20
18863.931208000002
 30
0.0
 11
10585.258000000011
 21
19234.255584999992
 31
0.0
  0
LINE
  5
321C
  8
0-5
  6
DASHED3
 62
     6
 10
10627.757274
 20
18832.047102
 30
0.0
 11
10627.757274
 21
19234.255584999992
 31
0.0
  0
LINE
  5
321D
  8
0-5
  6
DASHED3
 62
     6
 10
10585.258000000011
 20
19234.255584999992
 30
0.0
 11
13237.759517
 21
19234.255584999992
 31
0.0
  0
LINE
  5
321E
  8
0-5
  6
DASHED3
 62
     6
 10
13195.257274
 20
16777.179069999991
 30
0.0
 11
13195.257274
 21
19234.255584999992
 31
0.0
  0
LINE
  5
321F
  8
0-5
  6
DASHED3
 62
     6
 10
13237.759517
 20
16742.103979999982
 30
0.0
 11
13237.759517
 21
19234.255584999992
 31
0.0
  0
LINE
  5
3220
  8
0-5
  6
DASHED3
 62
     6
 10
10697.758000000011
 20
19188.257511999989
 30
0.0
 11
11558.59421400001
 21
18277.579989000002
 31
0.0
  0
LINE
  5
3221
  8
0-5
  6
DASHED3
 62
     6
 10
11908.525591000011
 20
17911.12557
 30
0.0
 11
13125.258527
 21
19188.257511999989
 31
0.0
  0
LINE
  5
3222
  8
0-6
  6
CONTINUOUS
 62
     6
 10
11911.398862
 20
17904.347699000002
 30
0.0
 11
12249.508554
 21
17546.662548
 31
0.0
  0
LINE
  5
3223
  8
0-5
  6
CENTER2
 62
     6
 10
13195.257274
 20
20430.75975500001
 30
0.0
 11
13195.257274
 21
19480.761074999969
 31
0.0
  0
LINE
  5
3224
  8
0-5
  6
CENTER2
 62
     6
 10
9298.2571680000128
 20
19188.257511999989
 30
0.0
 11
10944.759359
 21
19188.257511999989
 31
0.0
  0
LINE
  5
3225
  8
0-5
  6
CENTER2
 62
     6
 10
10627.757274
 20
20430.75975500001
 30
0.0
 11
10627.757274
 21
19480.761074999969
 31
0.0
  0
LINE
  5
3226
  8
0-5
  6
CENTER2
 62
     6
 10
9298.2571680000128
 20
16620.757511999989
 30
0.0
 11
10944.759359
 21
16620.757511999989
 31
0.0
  0
LINE
  5
3227
  8
0-5
  6
CENTER2
 62
     6
 10
9298.2571680000128
 20
14053.257512
 30
0.0
 11
10944.759359
 21
14053.257512
 31
0.0
  0
ARC
  5
3228
  8
0-1
  6
CONTINUOUS
 62
     3
 10
10610.76009800001
 20
19375.759491000001
 30
0.0
 40
5.0
 50
269.9999850001808
 51
0.0
  0
ARC
  5
3229
  8
0-1
  6
CONTINUOUS
 62
     3
 10
10610.76009800001
 20
19405.759095000001
 30
0.0
 40
5.0
 50
0.0
 51
90.0
  0
ARC
  5
322A
  8
0-1
  6
CONTINUOUS
 62
     3
 10
10547.257142
 20
19405.759095000001
 30
0.0
 40
5.0
 50
90.0
 51
180.0
  0
ARC
  5
322B
  8
0-1
  6
CONTINUOUS
 62
     3
 10
13275.75938499999
 20
19405.759095000001
 30
0.0
 40
5.0
 50
0.0
 51
90.0
  0
ARC
  5
322C
  8
0-1
  6
CONTINUOUS
 62
     3
 10
13212.25939799998
 20
19405.759095000001
 30
0.0
 40
5.0
 50
90.0
 51
180.0
  0
ARC
  5
322D
  8
0-1
  6
CONTINUOUS
 62
     3
 10
13212.25939799998
 20
19375.759491000001
 30
0.0
 40
5.0
 50
180.0
 51
269.9999850001808
  0
CIRCLE
  5
322E
  8
0-3
  6
CONTINUOUS
 62
     4
 10
13195.257274
 20
20630.760415000001
 30
0.0
 40
199.9999949999999
  0
CIRCLE
  5
322F
  8
0-3
  6
CONTINUOUS
 62
     4
 10
10627.757274
 20
20630.760415000001
 30
0.0
 40
199.9999949999999
  0
CIRCLE
  5
3230
  8
0-3
  6
CONTINUOUS
 62
     4
 10
9098.2574980000136
 20
19188.257511999989
 30
0.0
 40
199.9999949999999
  0
CIRCLE
  5
3231
  8
0-3
  6
CONTINUOUS
 62
     4
 10
9098.2574980000136
 20
16620.757511999989
 30
0.0
 40
199.9999949999999
  0
CIRCLE
  5
3232
  8
0-3
  6
CONTINUOUS
 62
     4
 10
9098.2574980000136
 20
14053.257512
 30
0.0
 40
199.9999949999999
  0
CIRCLE
  5
3233
  8
0-3
  6
CONTINUOUS
 62
     4
 10
15128.71271999999
 20
1376.000166999999
 30
0.0
 40
20.0
  0
ARC
  5
3234
  8
0-3
  6
CONTINUOUS
 62
     4
 10
15128.71271999999
 20
1376.000166999999
 30
0.0
 40
20.0
 50
180.0
 51
0.0
  0
ARC
  5
3235
  8
0-3
  6
CONTINUOUS
 62
     4
 10
15128.71271999999
 20
1376.000166999999
 30
0.0
 40
20.0
 50
0.0
 51
179.99998500000001
  0
CIRCLE
  5
3236
  8
0-3
  6
CONTINUOUS
 62
     4
 10
15128.71271999999
 20
1776.000188
 30
0.0
 40
20.0
  0
ARC
  5
3237
  8
0-3
  6
CONTINUOUS
 62
     4
 10
15128.71271999999
 20
1776.000188
 30
0.0
 40
20.0
 50
180.0
 51
0.0
  0
ARC
  5
3238
  8
0-3
  6
CONTINUOUS
 62
     4
 10
15128.71271999999
 20
1776.000188
 30
0.0
 40
20.0
 50
0.0
 51
179.99998500000001
  0
TEXT
  5
3239
  8
0-3
  6
CONTINUOUS
 62
     7
 10
13153.89721199998
 20
20562.797603999988
 30
0.0
 40
160.0
  1
2
 72
     4
 11
13207.230545333319
 21
20642.797603999988
 31
0.0
  0
TEXT
  5
323A
  8
0-3
  6
CONTINUOUS
 62
     7
 10
10586.396223000011
 20
20562.797603999988
 30
0.0
 40
160.0
  1
1
 72
     4
 11
10613.06288966668
 21
20642.797603999988
 31
0.0
  0
TEXT
  5
323B
  8
0-3
  6
CONTINUOUS
 62
     7
 10
9043.8840820000096
 20
19107.285304000001
 30
0.0
 40
160.0
  1
C
 72
     4
 11
9097.2174153333453
 21
19187.285304000001
 31
0.0
  0
TEXT
  5
323C
  8
0-3
  6
CONTINUOUS
 62
     7
 10
9043.8840820000096
 20
16539.787284000002
 30
0.0
 40
160.0
  1
B
 72
     4
 11
9097.2174153333453
 21
16619.787284000002
 31
0.0
  0
TEXT
  5
323D
  8
0-3
  6
CONTINUOUS
 62
     7
 10
9043.8840820000096
 20
13972.28431500001
 30
0.0
 40
160.0
  1
A
 72
     4
 11
9097.2174153333453
 21
14052.28431500001
 31
0.0
  0
TEXT
  5
323E
  8
0-3
  6
CONTINUOUS
 62
     7
 10
15288.712258
 20
1256.0002039999999
 30
0.0
 40
200.0
  1
有効高サハ、基礎高サヲ含ミマセン。
  0
TEXT
  5
323F
  8
0-4
  6
CONTINUOUS
 62
     7
 10
12526.670848000011
 20
19720.759886999978
 30
0.0
 40
160.0
  1
屋根
  0
TEXT
  5
3240
  8
0-4
  6
CONTINUOUS
 62
     7
 10
11430.24519899999
 20
20510.758040000001
 30
0.0
 40
160.0
  1
鼻隠し後
  0
TEXT
  5
3241
  8
0-4
  6
CONTINUOUS
 62
     7
 10
10868.836902999999
 20
19720.759886999978
 30
0.0
 40
160.0
  1
桁（後）
  0
TEXT
  5
3242
  8
0-4
  6
CONTINUOUS
 62
     7
 10
11581.06768899999
 20
17059.855379000001
 30
0.0
 40
160.0
  1
桁（中）
  0
TEXT
  5
3243
  8
0-4
  6
CONTINUOUS
 62
     7
 10
11747.409605000001
 20
16333.436327999991
 30
0.0
 40
160.0
  1
ブレース
  0
TEXT
  5
3244
  8
0-4
  6
CONTINUOUS
 62
     7
 10
11627.989208000001
 20
14514.08554399999
 30
0.0
 40
160.0
  1
桁（前）
  0
TEXT
  5
3245
  8
0-4
  6
CONTINUOUS
 62
     7
 10
12294.812806000011
 20
13140.759822000011
 30
0.0
 40
160.0
  1
鼻隠し前
  0
TEXT
  5
3246
  8
0-4
  6
CONTINUOUS
 62
     7
 10
8863.6241710000068
 20
12650.75573100001
 30
0.0
 40
160.0
  1
ケラバ 左
  0
TEXT
  5
3247
  8
0-4
  6
CONTINUOUS
 62
     7
 10
10872.283245000001
 20
18147.959132
 30
0.0
 40
160.0
  1
上枠
  0
TEXT
  5
3248
  8
0-4
  6
CONTINUOUS
 62
     7
 10
14398.41464499999
 20
20510.758040000001
 30
0.0
 40
160.0
  1
鼻隠しコーナー後
  0
TEXT
  5
3249
  8
0-A
  6
CONTINUOUS
 62
     7
 10
10622.289843999981
 20
11817.042368666671
 30
0.0
 40
160.0
  1
小 屋 伏 図
 72
     4
 11
11123.62317733332
 21
11897.042368666671
 31
0.0
  0
TEXT
  5
324A
  8
0-3
  6
CONTINUOUS
 62
     7
 10
15176.142975000001
 20
1656.0002870000001
 30
0.0
 40
200.0
  1
（ ）内寸法ハ、Hタイプヲ示ス。
  0
TEXT
  5
3252
  8
2-0
  6
CONTINUOUS
 62
     7
 10
12475.11536247094
 20
11844.237737666661
 30
0.0
 40
160.0
  1
1
 72
     4
 11
12501.78202913761
 21
11924.237737666661
 31
0.0
  0
TEXT
  5
3253
  8
2-0
  6
CONTINUOUS
 62
     7
 10
12718.20407972164
 20
11764.23920566667
 30
0.0
 40
160.0
  1
80
 72
     4
 11
12838.20407972164
 21
11844.23920566667
 31
0.0
  0
TEXT
  5
3254
  8
2-0
  6
CONTINUOUS
 62
     7
 10
11976.11732847094
 20
11817.042368666671
 30
0.0
 40
160.0
  1
(S=  /   )
 72
     4
 11
12536.11732847094
 21
11897.042368666671
 31
0.0
  0
LINE
  5
3255
  8
0-1
  6
CONTINUOUS
 62
     3
 10
9276.5124190000097
 20
8022.5051830000029
 30
0.0
 11
14456.51479400001
 21
8022.5051830000029
 31
0.0
  0
LINE
  5
3256
  8
0-1
  6
CONTINUOUS
 62
     3
 10
8566.5125510000089
 20
6011.4597990000002
 30
0.0
 11
14489.013606
 21
6011.4597990000002
 31
0.0
  0
LINE
  5
3257
  8
0-1
  6
CONTINUOUS
 62
     3
 10
9249.0136060000077
 20
6111.4596339999998
 30
0.0
 11
14489.013606
 21
6111.4596339999998
 31
0.0
  0
LINE
  5
3258
  8
0-1
  6
CONTINUOUS
 62
     3
 10
9256.5143320000061
 20
8144.4870769999989
 30
0.0
 11
9256.5143320000061
 21
6111.4596339999998
 31
0.0
  0
LINE
  5
3259
  8
0-1
  6
CONTINUOUS
 62
     3
 10
9276.5124190000097
 20
8145.1878260000021
 30
0.0
 11
9276.5124190000097
 21
6111.4596339999998
 31
0.0
  0
LINE
  5
325A
  8
0-1
  6
CONTINUOUS
 62
     3
 10
9249.0136060000077
 20
6011.4597990000002
 30
0.0
 11
9249.0136060000077
 21
6111.4596339999998
 31
0.0
  0
LINE
  5
325B
  8
0-1
  6
CONTINUOUS
 62
     3
 10
14551.79397200001
 20
8329.3840100000016
 30
0.0
 11
14547.242069
 21
8459.3047630000019
 31
0.0
  0
LINE
  5
325C
  8
0-1
  6
CONTINUOUS
 62
     3
 10
11939.01347400001
 20
6161.4597990000002
 30
0.0
 11
14361.513738000011
 21
6161.4597990000002
 31
0.0
  0
LINE
  5
325D
  8
0-1
  6
CONTINUOUS
 62
     3
 10
11452.513131000011
 20
6161.4597990000002
 30
0.0
 11
11452.513131000011
 21
8022.5051830000029
 31
0.0
  0
LINE
  5
325E
  8
0-1
  6
CONTINUOUS
 62
     3
 10
11472.514187000001
 20
6161.4597990000002
 30
0.0
 11
11472.514187000001
 21
8022.5051830000029
 31
0.0
  0
LINE
  5
325F
  8
0-1
  6
CONTINUOUS
 62
     3
 10
11402.514450000001
 20
6161.4597990000002
 30
0.0
 11
11402.514450000001
 21
8022.5051830000029
 31
0.0
  0
LINE
  5
3260
  8
0-1
  6
CONTINUOUS
 62
     3
 10
11522.512866999999
 20
6161.4597990000002
 30
0.0
 11
11522.512866999999
 21
8022.5051830000029
 31
0.0
  0
LINE
  5
3261
  8
0-1
  6
CONTINUOUS
 62
     3
 10
11655.51177100001
 20
6161.4597990000002
 30
0.0
 11
11655.51177100001
 21
8022.5051830000029
 31
0.0
  0
LINE
  5
3262
  8
0-1
  6
CONTINUOUS
 62
     3
 10
11670.51355300001
 20
6161.4597990000002
 30
0.0
 11
11670.51355300001
 21
8022.5051830000029
 31
0.0
  0
LINE
  5
3263
  8
0-1
  6
CONTINUOUS
 62
     3
 10
11269.512575999999
 20
6161.4597990000002
 30
0.0
 11
11269.512575999999
 21
8022.5051830000029
 31
0.0
  0
LINE
  5
3264
  8
0-1
  6
CONTINUOUS
 62
     3
 10
11254.513763999999
 20
6161.4597990000002
 30
0.0
 11
11254.513763999999
 21
8022.5051830000029
 31
0.0
  0
LINE
  5
3265
  8
0-1
  6
CONTINUOUS
 62
     3
 10
9371.5114950000097
 20
8022.5051830000029
 30
0.0
 11
9371.5114950000097
 21
6111.4596339999998
 31
0.0
  0
LINE
  5
3266
  8
0-1
  6
CONTINUOUS
 62
     3
 10
11939.01347400001
 20
8022.5051830000029
 30
0.0
 11
11939.01347400001
 21
6111.4596339999998
 31
0.0
  0
LINE
  5
3267
  8
0-1
  6
CONTINUOUS
 62
     3
 10
11794.013738000011
 20
8022.5051830000029
 30
0.0
 11
11794.013738000011
 21
6111.4596339999998
 31
0.0
  0
LINE
  5
3268
  8
0-1
  6
CONTINUOUS
 62
     3
 10
10052.513461
 20
6161.4597990000002
 30
0.0
 11
10052.513461
 21
8022.5051830000029
 31
0.0
  0
LINE
  5
3269
  8
0-1
  6
CONTINUOUS
 62
     3
 10
10072.51352699999
 20
6161.4597990000002
 30
0.0
 11
10072.51352699999
 21
8022.5051830000029
 31
0.0
  0
LINE
  5
326A
  8
0-1
  6
CONTINUOUS
 62
     3
 10
10002.513790999999
 20
6161.4597990000002
 30
0.0
 11
10002.513790999999
 21
8022.5051830000029
 31
0.0
  0
LINE
  5
326B
  8
0-1
  6
CONTINUOUS
 62
     3
 10
10122.513197
 20
6161.4597990000002
 30
0.0
 11
10122.513197
 21
8022.5051830000029
 31
0.0
  0
LINE
  5
326C
  8
0-1
  6
CONTINUOUS
 62
     3
 10
10255.51408100001
 20
6161.4597990000002
 30
0.0
 11
10255.51408100001
 21
8022.5051830000029
 31
0.0
  0
LINE
  5
326D
  8
0-1
  6
CONTINUOUS
 62
     3
 10
10270.51289300001
 20
6161.4597990000002
 30
0.0
 11
10270.51289300001
 21
8022.5051830000029
 31
0.0
  0
LINE
  5
326E
  8
0-1
  6
CONTINUOUS
 62
     3
 10
9869.5129060000127
 20
6161.4597990000002
 30
0.0
 11
9869.5129060000127
 21
8022.5051830000029
 31
0.0
  0
LINE
  5
326F
  8
0-1
  6
CONTINUOUS
 62
     3
 10
9854.5121150000123
 20
6161.4597990000002
 30
0.0
 11
9854.5121150000123
 21
8022.5051830000029
 31
0.0
  0
LINE
  5
3270
  8
0-1
  6
CONTINUOUS
 62
     3
 10
10554.51343400001
 20
6161.4597990000002
 30
0.0
 11
10554.51343400001
 21
8022.5051830000029
 31
0.0
  0
LINE
  5
3271
  8
0-1
  6
CONTINUOUS
 62
     3
 10
10569.51224700001
 20
6161.4597990000002
 30
0.0
 11
10569.51224700001
 21
8022.5051830000029
 31
0.0
  0
LINE
  5
3272
  8
0-1
  6
CONTINUOUS
 62
     3
 10
10970.514213
 20
6161.4597990000002
 30
0.0
 11
10970.514213
 21
8022.5051830000029
 31
0.0
  0
LINE
  5
3273
  8
0-1
  6
CONTINUOUS
 62
     3
 10
10955.513421
 20
6161.4597990000002
 30
0.0
 11
10955.513421
 21
8022.5051830000029
 31
0.0
  0
LINE
  5
3274
  8
0-1
  6
CONTINUOUS
 62
     3
 10
10822.512537000001
 20
6161.4597990000002
 30
0.0
 11
10822.512537000001
 21
8022.5051830000029
 31
0.0
  0
LINE
  5
3275
  8
0-1
  6
CONTINUOUS
 62
     3
 10
10702.513131000011
 20
6161.4597990000002
 30
0.0
 11
10702.513131000011
 21
8022.5051830000029
 31
0.0
  0
LINE
  5
3276
  8
0-1
  6
CONTINUOUS
 62
     3
 10
10772.51286700001
 20
6161.4597990000002
 30
0.0
 11
10772.51286700001
 21
8022.5051830000029
 31
0.0
  0
LINE
  5
3277
  8
0-1
  6
CONTINUOUS
 62
     3
 10
10752.513790999999
 20
6161.4597990000002
 30
0.0
 11
10752.513790999999
 21
8022.5051830000029
 31
0.0
  0
LINE
  5
3278
  8
0-1
  6
CONTINUOUS
 62
     3
 10
11094.013408000001
 20
8022.5051830000029
 30
0.0
 11
11094.013408000001
 21
6161.4597990000002
 31
0.0
  0
LINE
  5
3279
  8
0-1
  6
CONTINUOUS
 62
     3
 10
11131.013579
 20
8022.5051830000029
 30
0.0
 11
11131.013579
 21
6161.4597990000002
 31
0.0
  0
LINE
  5
327A
  8
0-1
  6
CONTINUOUS
 62
     3
 10
9694.0127480000119
 20
8022.5051830000029
 30
0.0
 11
9694.0127480000119
 21
6161.4597990000002
 31
0.0
  0
LINE
  5
327B
  8
0-1
  6
CONTINUOUS
 62
     3
 10
9731.0139090000121
 20
8022.5051830000029
 30
0.0
 11
9731.0139090000121
 21
6161.4597990000002
 31
0.0
  0
LINE
  5
327C
  8
0-1
  6
CONTINUOUS
 62
     3
 10
10394.01208800001
 20
8022.5051830000029
 30
0.0
 11
10394.01208800001
 21
6161.4597990000002
 31
0.0
  0
LINE
  5
327D
  8
0-1
  6
CONTINUOUS
 62
     3
 10
10431.014239
 20
8022.5051830000029
 30
0.0
 11
10431.014239
 21
6161.4597990000002
 31
0.0
  0
LINE
  5
327E
  8
0-1
  6
CONTINUOUS
 62
     3
 10
9371.5114950000097
 20
6161.4597990000002
 30
0.0
 11
11794.013738000011
 21
6161.4597990000002
 31
0.0
  0
LINE
  5
327F
  8
0-1
  6
CONTINUOUS
 62
     3
 10
11866.51360600001
 20
8235.6181730000044
 30
0.0
 11
11861.959722999991
 21
8365.5369470000005
 31
0.0
  0
LINE
  5
3280
  8
0-1
  6
CONTINUOUS
 62
     3
 10
11866.51360600001
 20
8235.6181730000044
 30
0.0
 11
11866.51360600001
 21
8022.5051830000029
 31
0.0
  0
LINE
  5
3281
  8
0-1
  6
CONTINUOUS
 62
     3
 10
14361.513738000011
 20
8022.5051830000029
 30
0.0
 11
14361.513738000011
 21
6111.4596339999998
 31
0.0
  0
LINE
  5
3282
  8
0-1
  6
CONTINUOUS
 62
     3
 10
14476.513870000001
 20
8326.746301000001
 30
0.0
 11
14476.513870000001
 21
6111.4596339999998
 31
0.0
  0
LINE
  5
3283
  8
0-1
  6
CONTINUOUS
 62
     3
 10
14456.51479400001
 20
8326.0455519999978
 30
0.0
 11
14456.51479400001
 21
6111.4596339999998
 31
0.0
  0
LINE
  5
3284
  8
0-1
  6
CONTINUOUS
 62
     3
 10
13302.011983
 20
8022.5051830000029
 30
0.0
 11
13302.011983
 21
6161.4597990000002
 31
0.0
  0
LINE
  5
3285
  8
0-1
  6
CONTINUOUS
 62
     3
 10
13339.013144
 20
8022.5051830000029
 30
0.0
 11
13339.013144
 21
6161.4597990000002
 31
0.0
  0
LINE
  5
3286
  8
0-1
  6
CONTINUOUS
 62
     3
 10
14002.014291999991
 20
8022.5051830000029
 30
0.0
 11
14002.014291999991
 21
6161.4597990000002
 31
0.0
  0
LINE
  5
3287
  8
0-1
  6
CONTINUOUS
 62
     3
 10
14039.01248400001
 20
8022.5051830000029
 30
0.0
 11
14039.01248400001
 21
6161.4597990000002
 31
0.0
  0
LINE
  5
3288
  8
0-1
  6
CONTINUOUS
 62
     3
 10
12602.012642000011
 20
8022.5051830000029
 30
0.0
 11
12602.012642000011
 21
6161.4597990000002
 31
0.0
  0
LINE
  5
3289
  8
0-1
  6
CONTINUOUS
 62
     3
 10
12639.012814000011
 20
8022.5051830000029
 30
0.0
 11
12639.012814000011
 21
6161.4597990000002
 31
0.0
  0
LINE
  5
328A
  8
0-1
  6
CONTINUOUS
 62
     3
 10
12980.51243100001
 20
6161.4597990000002
 30
0.0
 11
12980.51243100001
 21
8022.5051830000029
 31
0.0
  0
LINE
  5
328B
  8
0-1
  6
CONTINUOUS
 62
     3
 10
12960.513354999999
 20
6161.4597990000002
 30
0.0
 11
12960.513354999999
 21
8022.5051830000029
 31
0.0
  0
LINE
  5
328C
  8
0-1
  6
CONTINUOUS
 62
     3
 10
13030.51408100001
 20
6161.4597990000002
 30
0.0
 11
13030.51408100001
 21
8022.5051830000029
 31
0.0
  0
LINE
  5
328D
  8
0-1
  6
CONTINUOUS
 62
     3
 10
12910.512694999999
 20
6161.4597990000002
 30
0.0
 11
12910.512694999999
 21
8022.5051830000029
 31
0.0
  0
LINE
  5
328E
  8
0-1
  6
CONTINUOUS
 62
     3
 10
12777.51379100001
 20
6161.4597990000002
 30
0.0
 11
12777.51379100001
 21
8022.5051830000029
 31
0.0
  0
LINE
  5
328F
  8
0-1
  6
CONTINUOUS
 62
     3
 10
12762.51299899999
 20
6161.4597990000002
 30
0.0
 11
12762.51299899999
 21
8022.5051830000029
 31
0.0
  0
LINE
  5
3290
  8
0-1
  6
CONTINUOUS
 62
     3
 10
13163.512986000011
 20
6161.4597990000002
 30
0.0
 11
13163.512986000011
 21
8022.5051830000029
 31
0.0
  0
LINE
  5
3291
  8
0-1
  6
CONTINUOUS
 62
     3
 10
13178.51179800001
 20
6161.4597990000002
 30
0.0
 11
13178.51179800001
 21
8022.5051830000029
 31
0.0
  0
LINE
  5
3292
  8
0-1
  6
CONTINUOUS
 62
     3
 10
13878.51410700001
 20
6161.4597990000002
 30
0.0
 11
13878.51410700001
 21
8022.5051830000029
 31
0.0
  0
LINE
  5
3293
  8
0-1
  6
CONTINUOUS
 62
     3
 10
13863.512325999989
 20
6161.4597990000002
 30
0.0
 11
13863.512325999989
 21
8022.5051830000029
 31
0.0
  0
LINE
  5
3294
  8
0-1
  6
CONTINUOUS
 62
     3
 10
13462.51332900001
 20
6161.4597990000002
 30
0.0
 11
13462.51332900001
 21
8022.5051830000029
 31
0.0
  0
LINE
  5
3295
  8
0-1
  6
CONTINUOUS
 62
     3
 10
13477.512140999999
 20
6161.4597990000002
 30
0.0
 11
13477.512140999999
 21
8022.5051830000029
 31
0.0
  0
LINE
  5
3296
  8
0-1
  6
CONTINUOUS
 62
     3
 10
13610.512035000011
 20
6161.4597990000002
 30
0.0
 11
13610.512035000011
 21
8022.5051830000029
 31
0.0
  0
LINE
  5
3297
  8
0-1
  6
CONTINUOUS
 62
     3
 10
13730.51243100001
 20
6161.4597990000002
 30
0.0
 11
13730.51243100001
 21
8022.5051830000029
 31
0.0
  0
LINE
  5
3298
  8
0-1
  6
CONTINUOUS
 62
     3
 10
13660.51269500001
 20
6161.4597990000002
 30
0.0
 11
13660.51269500001
 21
8022.5051830000029
 31
0.0
  0
LINE
  5
3299
  8
0-1
  6
CONTINUOUS
 62
     3
 10
13680.51177100001
 20
6161.4597990000002
 30
0.0
 11
13680.51177100001
 21
8022.5051830000029
 31
0.0
  0
LINE
  5
329A
  8
0-1
  6
CONTINUOUS
 62
     3
 10
12478.51245800001
 20
6161.4597990000002
 30
0.0
 11
12478.51245800001
 21
8022.5051830000029
 31
0.0
  0
LINE
  5
329B
  8
0-1
  6
CONTINUOUS
 62
     3
 10
12463.51265600001
 20
6161.4597990000002
 30
0.0
 11
12463.51265600001
 21
8022.5051830000029
 31
0.0
  0
LINE
  5
329C
  8
0-1
  6
CONTINUOUS
 62
     3
 10
12062.513659
 20
6161.4597990000002
 30
0.0
 11
12062.513659
 21
8022.5051830000029
 31
0.0
  0
LINE
  5
329D
  8
0-1
  6
CONTINUOUS
 62
     3
 10
12077.51445000001
 20
6161.4597990000002
 30
0.0
 11
12077.51445000001
 21
8022.5051830000029
 31
0.0
  0
LINE
  5
329E
  8
0-1
  6
CONTINUOUS
 62
     3
 10
12210.51335500001
 20
6161.4597990000002
 30
0.0
 11
12210.51335500001
 21
8022.5051830000029
 31
0.0
  0
LINE
  5
329F
  8
0-1
  6
CONTINUOUS
 62
     3
 10
12330.512761000011
 20
6161.4597990000002
 30
0.0
 11
12330.512761000011
 21
8022.5051830000029
 31
0.0
  0
LINE
  5
32A0
  8
0-1
  6
CONTINUOUS
 62
     3
 10
12260.513025
 20
6161.4597990000002
 30
0.0
 11
12260.513025
 21
8022.5051830000029
 31
0.0
  0
LINE
  5
32A1
  8
0-1
  6
CONTINUOUS
 62
     3
 10
12280.513091000001
 20
6161.4597990000002
 30
0.0
 11
12280.513091000001
 21
8022.5051830000029
 31
0.0
  0
LINE
  5
32A2
  8
0-1
  6
CONTINUOUS
 62
     3
 10
14489.013606
 20
6111.4596339999998
 30
0.0
 11
14489.013606
 21
6011.4597990000002
 31
0.0
  0
LINE
  5
32A3
  8
0-1
  6
CONTINUOUS
 62
     3
 10
9079.3860200000126
 20
8186.3103449999971
 30
0.0
 11
9078.193360000012
 21
8220.2877920000046
 31
0.0
  0
LINE
  5
32A4
  8
0-1
  6
CONTINUOUS
 62
     3
 10
9081.087416000013
 20
8223.3916769999978
 30
0.0
 11
14560.81166900001
 21
8414.7517380000008
 31
0.0
  0
LINE
  5
32A5
  8
0-1
  6
CONTINUOUS
 62
     3
 10
14562.211189000011
 20
8374.778330000001
 30
0.0
 11
9082.4879260000125
 21
8183.4162890000034
 31
0.0
  0
LINE
  5
32A6
  8
0-1
  6
CONTINUOUS
 62
     3
 10
9079.7710360000165
 20
8175.3160990000051
 30
0.0
 11
9079.7680670000118
 21
8175.3814230000016
 31
0.0
  0
LINE
  5
32A7
  8
0-1
  6
CONTINUOUS
 62
     3
 10
9079.7680670000118
 20
8175.3814230000016
 30
0.0
 11
9080.8914440000135
 21
8143.3369759999978
 31
0.0
  0
LINE
  5
32A8
  8
0-1
  6
CONTINUOUS
 62
     3
 10
9086.062936000013
 20
8138.5138789999974
 30
0.0
 11
14584.75493599999
 21
8330.5390590000006
 31
0.0
  0
LINE
  5
32A9
  8
0-1
  6
CONTINUOUS
 62
     3
 10
14580.203033
 20
8460.4588220000023
 30
0.0
 11
9081.5110330000116
 21
8268.4346330000008
 31
0.0
  0
LINE
  5
32AA
  8
0-1
  6
CONTINUOUS
 62
     3
 10
9076.687936000013
 20
8263.2621500000005
 30
0.0
 11
9077.8083440000173
 21
8231.283027999998
 31
0.0
  0
LINE
  5
32AB
  8
0-1
  6
CONTINUOUS
 62
     3
 10
9080.9132190000128
 20
8228.3889720000006
 30
0.0
 11
14560.63549200001
 21
8419.7490329999982
 31
0.0
  0
LINE
  5
32AC
  8
0-1
  6
CONTINUOUS
 62
     3
 10
14562.386376
 20
8369.7810350000018
 30
0.0
 11
9082.6631130000114
 21
8178.4189939999969
 31
0.0
  0
LINE
  5
32AD
  8
0-1
  6
CONTINUOUS
 62
     3
 10
9094.0027850000133
 20
8268.8721060000007
 30
0.0
 11
9098.5556780000115
 21
8138.9513529999967
 31
0.0
  0
LINE
  5
32AE
  8
0-5
  6
CONTINUOUS
 62
     4
 10
17359.886507999989
 20
6219.3052910000006
 30
0.0
 11
17479.884924000009
 21
6011.4597990000002
 31
0.0
  0
LINE
  5
32AF
  8
0-5
  6
CONTINUOUS
 62
     4
 10
14569.013870000001
 20
6011.4597990000002
 30
0.0
 11
19802.25860400001
 21
6011.4597990000002
 31
0.0
  0
LINE
  5
32B0
  8
0-5
  6
CONTINUOUS
 62
     4
 10
17479.884924000009
 20
6011.4597990000002
 30
0.0
 11
17599.885320000001
 21
6219.3052910000006
 31
0.0
  0
LINE
  5
32B1
  8
0-5
  6
CONTINUOUS
 62
     4
 10
17599.885320000001
 20
6219.3052910000006
 30
0.0
 11
17359.886507999989
 21
6219.3052910000006
 31
0.0
  0
LINE
  5
32B2
  8
0-5
  6
CONTINUOUS
 62
     4
 10
9299.0136060000114
 20
4331.4597000000003
 30
0.0
 11
9299.0136060000114
 21
4171.4596669999992
 31
0.0
  0
LINE
  5
32B3
  8
0-5
  6
CONTINUOUS
 62
     4
 10
11866.51360600001
 20
4331.4597000000003
 30
0.0
 11
11866.51360600001
 21
4171.4596669999992
 31
0.0
  0
LINE
  5
32B4
  8
0-5
  6
CONTINUOUS
 62
     4
 10
14434.01360600001
 20
4331.4597000000003
 30
0.0
 11
14434.01360600001
 21
4171.4596669999992
 31
0.0
  0
LINE
  5
32B5
  8
2-0
  6
CENTER2
 62
     6
 10
9299.0136060000114
 20
5748.8063859999984
 30
0.0
 11
9299.0136060000114
 21
6805.9494789999999
 31
0.0
  0
LINE
  5
32B6
  8
2-0
  6
CENTER2
 62
     6
 10
11866.51360600001
 20
5748.8063859999984
 30
0.0
 11
11866.51360600001
 21
6805.9494789999999
 31
0.0
  0
LINE
  5
32B7
  8
2-0
  6
CENTER2
 62
     6
 10
14434.01360600001
 20
5748.8063859999984
 30
0.0
 11
14434.01360600001
 21
6805.9494789999999
 31
0.0
  0
ARC
  5
32B8
  8
0-1
  6
CONTINUOUS
 62
     3
 10
9084.0745100000076
 20
8180.9705939999967
 30
0.0
 40
2.5
 50
272.00698899981808
 51
92.006988999818205
  0
ARC
  5
32B9
  8
0-1
  6
CONTINUOUS
 62
     3
 10
9082.499803000017
 20
8225.9442660000004
 30
0.0
 40
2.5
 50
272.00698899981808
 51
92.006988999818205
  0
ARC
  5
32BA
  8
0-1
  6
CONTINUOUS
 62
     3
 10
9081.1923310000166
 20
8220.3927060000005
 30
0.0
 40
3.0
 50
92.006988999818205
 51
182.00698899999421
  0
ARC
  5
32BB
  8
0-1
  6
CONTINUOUS
 62
     3
 10
14561.510439000011
 20
8394.764538999998
 30
0.0
 40
20.0
 50
272.00698899981808
 51
92.006988999818205
  0
ARC
  5
32BC
  8
0-1
  6
CONTINUOUS
 62
     3
 10
9082.3830110000126
 20
8186.4152600000016
 30
0.0
 40
3.0
 50
182.00698899999421
 51
272.00698899981808
  0
ARC
  5
32BD
  8
0-1
  6
CONTINUOUS
 62
     3
 10
9082.7680270000128
 20
8175.4220029999988
 30
0.0
 40
3.0
 50
92.006988999818205
 51
182.00698899999421
  0
ARC
  5
32BE
  8
0-1
  6
CONTINUOUS
 62
     3
 10
9085.8887380000087
 20
8143.511174000002
 30
0.0
 40
5.0
 50
182.00698899999421
 51
272.00698899981808
  0
ARC
  5
32BF
  8
0-1
  6
CONTINUOUS
 62
     3
 10
14556.51413400001
 20
8394.5903410000028
 30
0.0
 40
69.999999000000003
 50
293.79377700003289
 51
70.220199999983819
  0
ARC
  5
32C0
  8
0-1
  6
CONTINUOUS
 62
     3
 10
9081.685231000014
 20
8263.4373379999997
 30
0.0
 40
5.0
 50
92.006988999818205
 51
182.00698899999421
  0
ARC
  5
32C1
  8
0-1
  6
CONTINUOUS
 62
     3
 10
9080.8063250000123
 20
8231.3869530000029
 30
0.0
 40
3.0
 50
182.00698899999421
 51
272.00698899981808
  0
ARC
  5
32C2
  8
0-1
  6
CONTINUOUS
 62
     3
 10
14561.510439000011
 20
8394.764538999998
 30
0.0
 40
24.999998999999999
 50
272.00698899981808
 51
92.006988999818205
  0
CIRCLE
  5
32C3
  8
0-5
  6
CONTINUOUS
 62
     4
 10
9299.0136060000114
 20
3971.459006999999
 30
0.0
 40
199.9999949999999
  0
CIRCLE
  5
32C4
  8
0-5
  6
CONTINUOUS
 62
     4
 10
14434.01360600001
 20
3971.459006999999
 30
0.0
 40
199.9999949999999
  0
CIRCLE
  5
32C5
  8
0-5
  6
CONTINUOUS
 62
     4
 10
11866.51360600001
 20
3971.459006999999
 30
0.0
 40
199.9999949999999
  0
TEXT
  5
32C6
  8
0-5
  6
CONTINUOUS
 62
     7
 10
17359.886507999989
 20
6299.3060500000011
 30
0.0
 40
160.0
  1
G.L
 72
     4
 11
17519.886507999989
 21
6379.3060500000001
 31
0.0
  0
TEXT
  5
32C7
  8
0-5
  6
CONTINUOUS
 62
     7
 10
9244.8176298542166
 20
3884.205062638202
 30
0.0
 40
160.0
  1
C
 72
     4
 11
9298.1509631875524
 21
3964.205062638202
 31
0.0
  0
TEXT
  5
32C8
  8
0-5
  6
CONTINUOUS
 62
     7
 10
11812.31663885419
 20
3884.205062638202
 30
0.0
 40
160.0
  1
B
 72
     4
 11
11865.64997218753
 21
3964.205062638202
 31
0.0
  0
TEXT
  5
32C9
  8
0-5
  6
CONTINUOUS
 62
     7
 10
14379.81564985421
 20
3884.205062638202
 30
0.0
 40
160.0
  1
A
 72
     4
 11
14433.14898318755
 21
3964.205062638202
 31
0.0
  0
TEXT
  5
32CA
  8
2-0
  6
CONTINUOUS
 62
     7
 10
10397.565323999999
 20
3224.2921930000011
 30
0.0
 40
160.0
  1
側 面 立 面 図
 72
     4
 11
11042.89865733334
 21
3304.2921930000011
 31
0.0
  0
TEXT
  5
32CB
  8
2-0
  6
CONTINUOUS
 62
     7
 10
12394.39084247095
 20
3251.4875619999989
 30
0.0
 40
160.0
  1
1
 72
     4
 11
12421.057509137619
 21
3331.4875619999989
 31
0.0
  0
TEXT
  5
32CC
  8
2-0
  6
CONTINUOUS
 62
     7
 10
12637.47955972166
 20
3171.4890300000011
 30
0.0
 40
160.0
  1
80
 72
     4
 11
12757.47955972166
 21
3251.4890300000011
 31
0.0
  0
TEXT
  5
32CD
  8
2-0
  6
CONTINUOUS
 62
     7
 10
11895.39280847095
 20
3224.2921930000011
 30
0.0
 40
160.0
  1
(S=  /   )
 72
     4
 11
12455.39280847095
 21
3304.2921930000011
 31
0.0
  0
LINE
  5
32CE
  8
0-1
  6
CONTINUOUS
 62
     3
 10
19974.75583200001
 20
8019.4596930000034
 30
0.0
 11
22457.259263
 21
8019.4596930000034
 31
0.0
  0
LINE
  5
32CF
  8
0-1
  6
CONTINUOUS
 62
     3
 10
19974.75583200001
 20
8195.9600030000001
 30
0.0
 11
22457.259263
 21
8195.9600030000001
 31
0.0
  0
LINE
  5
32D0
  8
0-1
  6
CONTINUOUS
 62
     3
 10
19846.759132000021
 20
8133.7739220000012
 30
0.0
 11
19846.759132000021
 21
8459.4596599999986
 31
0.0
  0
LINE
  5
32D1
  8
0-1
  6
CONTINUOUS
 62
     3
 10
22585.257944000001
 20
8329.4597259999973
 30
0.0
 11
19846.759132000021
 21
8329.4597259999973
 31
0.0
  0
LINE
  5
32D2
  8
0-1
  6
CONTINUOUS
 62
     3
 10
22585.257944000001
 20
8459.4596599999986
 30
0.0
 11
22585.257944000001
 21
8133.7739220000012
 31
0.0
  0
LINE
  5
32D3
  8
0-1
  6
CONTINUOUS
 62
     3
 10
19846.759132000021
 20
8459.4596599999986
 30
0.0
 11
22585.257944000001
 21
8459.4596599999986
 31
0.0
  0
LINE
  5
32D4
  8
0-1
  6
CONTINUOUS
 62
     3
 10
22585.257944000001
 20
8133.7739220000012
 30
0.0
 11
22542.257812000011
 21
8133.7739220000012
 31
0.0
  0
LINE
  5
32D5
  8
0-1
  6
CONTINUOUS
 62
     3
 10
22549.75820800001
 20
6111.4596339999998
 30
0.0
 11
22449.758867000011
 21
6111.4596339999998
 31
0.0
  0
LINE
  5
32D6
  8
0-1
  6
CONTINUOUS
 62
     3
 10
22449.758867000011
 20
6111.4596339999998
 30
0.0
 11
22449.758867000011
 21
6011.4597990000002
 31
0.0
  0
LINE
  5
32D7
  8
0-1
  6
CONTINUOUS
 62
     3
 10
22549.75820800001
 20
6011.4597990000002
 30
0.0
 11
22549.75820800001
 21
6111.4596339999998
 31
0.0
  0
LINE
  5
32D8
  8
0-1
  6
CONTINUOUS
 62
     3
 10
22457.259263
 20
8329.4597259999973
 30
0.0
 11
22457.259263
 21
6111.4596339999998
 31
0.0
  0
LINE
  5
32D9
  8
0-1
  6
CONTINUOUS
 62
     3
 10
22412.260847000001
 20
8019.4596930000034
 30
0.0
 11
22412.260847000001
 21
6011.4597990000002
 31
0.0
  0
LINE
  5
32DA
  8
0-1
  6
CONTINUOUS
 62
     3
 10
22522.260714999989
 20
8459.4596599999986
 30
0.0
 11
22522.260714999989
 21
6111.4596339999998
 31
0.0
  0
LINE
  5
32DB
  8
0-1
  6
CONTINUOUS
 62
     3
 10
22542.257812000011
 20
8329.4597259999973
 30
0.0
 11
22542.257812000011
 21
6111.4596339999998
 31
0.0
  0
LINE
  5
32DC
  8
0-1
  6
CONTINUOUS
 62
     3
 10
19846.759132000021
 20
8133.7739220000012
 30
0.0
 11
19889.757284000021
 21
8133.7739220000012
 31
0.0
  0
LINE
  5
32DD
  8
0-1
  6
CONTINUOUS
 62
     3
 10
19882.256888000022
 20
6111.4596339999998
 30
0.0
 11
19982.25622800002
 21
6111.4596339999998
 31
0.0
  0
LINE
  5
32DE
  8
0-1
  6
CONTINUOUS
 62
     3
 10
19982.25622800002
 20
6111.4596339999998
 30
0.0
 11
19982.25622800002
 21
6011.4597990000002
 31
0.0
  0
LINE
  5
32DF
  8
0-1
  6
CONTINUOUS
 62
     3
 10
19882.256888000022
 20
6011.4597990000002
 30
0.0
 11
19882.256888000022
 21
6111.4596339999998
 31
0.0
  0
LINE
  5
32E0
  8
0-1
  6
CONTINUOUS
 62
     3
 10
20019.758208000021
 20
8019.4596930000034
 30
0.0
 11
20019.758208000021
 21
6011.4597990000002
 31
0.0
  0
LINE
  5
32E1
  8
0-1
  6
CONTINUOUS
 62
     3
 10
19974.75583200001
 20
8329.4597259999973
 30
0.0
 11
19974.75583200001
 21
6111.4596339999998
 31
0.0
  0
LINE
  5
32E2
  8
0-1
  6
CONTINUOUS
 62
     3
 10
19909.756360000021
 20
8459.4596599999986
 30
0.0
 11
19909.756360000021
 21
6111.4596339999998
 31
0.0
  0
LINE
  5
32E3
  8
0-1
  6
CONTINUOUS
 62
     3
 10
19889.757284000021
 20
8329.4597259999973
 30
0.0
 11
19889.757284000021
 21
6111.4596339999998
 31
0.0
  0
LINE
  5
32E4
  8
0-1
  6
CONTINUOUS
 62
     3
 10
20019.758208000021
 20
6531.4605249999986
 30
0.0
 11
22412.260847000001
 21
6531.4605249999986
 31
0.0
  0
LINE
  5
32E5
  8
0-1
  6
CONTINUOUS
 62
     3
 10
20019.758208000021
 20
6466.4600630000032
 30
0.0
 11
22412.260847000001
 21
6466.4600630000032
 31
0.0
  0
LINE
  5
32E6
  8
0-1
  6
CONTINUOUS
 62
     3
 10
20019.758208000021
 20
6401.4600959999998
 30
0.0
 11
22412.260847000001
 21
6401.4600959999998
 31
0.0
  0
LINE
  5
32E7
  8
0-1
  6
CONTINUOUS
 62
     3
 10
20019.758208000021
 20
6336.4596339999998
 30
0.0
 11
22412.260847000001
 21
6336.4596339999998
 31
0.0
  0
LINE
  5
32E8
  8
0-1
  6
CONTINUOUS
 62
     3
 10
20019.758208000021
 20
6271.460162000003
 30
0.0
 11
22412.260847000001
 21
6271.460162000003
 31
0.0
  0
LINE
  5
32E9
  8
0-1
  6
CONTINUOUS
 62
     3
 10
20019.758208000021
 20
6206.4601950000006
 30
0.0
 11
22412.260847000001
 21
6206.4601950000006
 31
0.0
  0
LINE
  5
32EA
  8
0-1
  6
CONTINUOUS
 62
     3
 10
20019.758208000021
 20
6141.4602280000026
 30
0.0
 11
22412.260847000001
 21
6141.4602280000026
 31
0.0
  0
LINE
  5
32EB
  8
0-1
  6
CONTINUOUS
 62
     3
 10
20019.758208000021
 20
6076.4597660000018
 30
0.0
 11
22412.260847000001
 21
6076.4597660000018
 31
0.0
  0
LINE
  5
32EC
  8
0-1
  6
CONTINUOUS
 62
     3
 10
20019.758208000021
 20
7896.4598320000023
 30
0.0
 11
22412.260847000001
 21
7896.4598320000023
 31
0.0
  0
LINE
  5
32ED
  8
0-1
  6
CONTINUOUS
 62
     3
 10
20019.758208000021
 20
7831.4598650000016
 30
0.0
 11
22412.260847000001
 21
7831.4598650000016
 31
0.0
  0
LINE
  5
32EE
  8
0-1
  6
CONTINUOUS
 62
     3
 10
20019.758208000021
 20
7766.4603930000021
 30
0.0
 11
22412.260847000001
 21
7766.4603930000021
 31
0.0
  0
LINE
  5
32EF
  8
0-1
  6
CONTINUOUS
 62
     3
 10
20019.758208000021
 20
7701.4604259999978
 30
0.0
 11
22412.260847000001
 21
7701.4604259999978
 31
0.0
  0
LINE
  5
32F0
  8
0-1
  6
CONTINUOUS
 62
     3
 10
20019.758208000021
 20
7636.4604590000017
 30
0.0
 11
22412.260847000001
 21
7636.4604590000017
 31
0.0
  0
LINE
  5
32F1
  8
0-1
  6
CONTINUOUS
 62
     3
 10
20019.758208000021
 20
7571.4599969999981
 30
0.0
 11
22412.260847000001
 21
7571.4599969999981
 31
0.0
  0
LINE
  5
32F2
  8
0-1
  6
CONTINUOUS
 62
     3
 10
20019.758208000021
 20
7506.4600300000029
 30
0.0
 11
22412.260847000001
 21
7506.4600300000029
 31
0.0
  0
LINE
  5
32F3
  8
0-1
  6
CONTINUOUS
 62
     3
 10
20019.758208000021
 20
7441.4605579999998
 30
0.0
 11
22412.260847000001
 21
7441.4605579999998
 31
0.0
  0
LINE
  5
32F4
  8
0-1
  6
CONTINUOUS
 62
     3
 10
20019.758208000021
 20
7376.4605909999973
 30
0.0
 11
22412.260847000001
 21
7376.4605909999973
 31
0.0
  0
LINE
  5
32F5
  8
0-1
  6
CONTINUOUS
 62
     3
 10
20019.758208000021
 20
7311.4601290000019
 30
0.0
 11
22412.260847000001
 21
7311.4601290000019
 31
0.0
  0
LINE
  5
32F6
  8
0-1
  6
CONTINUOUS
 62
     3
 10
20019.758208000021
 20
7246.4601620000021
 30
0.0
 11
22412.260847000001
 21
7246.4601620000021
 31
0.0
  0
LINE
  5
32F7
  8
0-1
  6
CONTINUOUS
 62
     3
 10
20019.758208000021
 20
7181.4601950000006
 30
0.0
 11
22412.260847000001
 21
7181.4601950000006
 31
0.0
  0
LINE
  5
32F8
  8
0-1
  6
CONTINUOUS
 62
     3
 10
20019.758208000021
 20
7116.4597330000024
 30
0.0
 11
22412.260847000001
 21
7116.4597330000024
 31
0.0
  0
LINE
  5
32F9
  8
0-1
  6
CONTINUOUS
 62
     3
 10
20019.758208000021
 20
7051.4597659999999
 30
0.0
 11
22412.260847000001
 21
7051.4597659999999
 31
0.0
  0
LINE
  5
32FA
  8
0-1
  6
CONTINUOUS
 62
     3
 10
20019.758208000021
 20
6986.4602940000013
 30
0.0
 11
22412.260847000001
 21
6986.4602940000013
 31
0.0
  0
LINE
  5
32FB
  8
0-1
  6
CONTINUOUS
 62
     3
 10
20019.758208000021
 20
6921.4603270000007
 30
0.0
 11
22412.260847000001
 21
6921.4603270000007
 31
0.0
  0
LINE
  5
32FC
  8
0-1
  6
CONTINUOUS
 62
     3
 10
20019.758208000021
 20
6856.4603599999991
 30
0.0
 11
22412.260847000001
 21
6856.4603599999991
 31
0.0
  0
LINE
  5
32FD
  8
0-1
  6
CONTINUOUS
 62
     3
 10
20019.758208000021
 20
6791.4598980000019
 30
0.0
 11
22412.260847000001
 21
6791.4598980000019
 31
0.0
  0
LINE
  5
32FE
  8
0-1
  6
CONTINUOUS
 62
     3
 10
20019.758208000021
 20
6726.4599310000003
 30
0.0
 11
22412.260847000001
 21
6726.4599310000003
 31
0.0
  0
LINE
  5
32FF
  8
0-1
  6
CONTINUOUS
 62
     3
 10
20019.758208000021
 20
6661.4604590000008
 30
0.0
 11
22412.260847000001
 21
6661.4604590000008
 31
0.0
  0
LINE
  5
3300
  8
0-1
  6
CONTINUOUS
 62
     3
 10
20019.758208000021
 20
6596.4604920000002
 30
0.0
 11
22412.260847000001
 21
6596.4604920000002
 31
0.0
  0
LINE
  5
3301
  8
0-1
  6
CONTINUOUS
 62
     3
 10
20019.758208000021
 20
7950.9198520000018
 30
0.0
 11
22412.260847000001
 21
7950.9198520000018
 31
0.0
  0
LINE
  5
3302
  8
0-1
  6
CONTINUOUS
 62
     3
 10
19882.256888000022
 20
6011.4597990000002
 30
0.0
 11
22549.75820800001
 21
6011.4597990000002
 31
0.0
  0
LINE
  5
3303
  8
0-1
  6
CONTINUOUS
 62
     3
 10
20000.758788000021
 20
8204.9603800000059
 30
0.0
 11
20278.188318000019
 21
8204.9603800000059
 31
0.0
  0
LINE
  5
3304
  8
0-1
  6
CONTINUOUS
 62
     3
 10
20000.758788000021
 20
8246.9598250000017
 30
0.0
 11
20310.185256000019
 21
8246.9598250000017
 31
0.0
  0
LINE
  5
3305
  8
0-1
  6
CONTINUOUS
 62
     3
 10
19995.758525000008
 20
8209.9601490000023
 30
0.0
 11
19995.758525000008
 21
8241.9605510000038
 31
0.0
  0
LINE
  5
3306
  8
0-1
  6
CONTINUOUS
 62
     3
 10
19974.75583200001
 20
8255.9597070000018
 30
0.0
 11
22457.259263
 21
8255.9597070000018
 31
0.0
  0
LINE
  5
3307
  8
0-1
  6
CONTINUOUS
 62
     3
 10
20281.721758000022
 20
8206.4242340000019
 30
0.0
 11
20313.722656000002
 21
8238.4246360000034
 31
0.0
  0
LINE
  5
3308
  8
0-1
  6
CONTINUOUS
 62
     3
 10
19995.758525000008
 20
8238.560233000002
 30
0.0
 11
20313.851323999999
 21
8238.560233000002
 31
0.0
  0
LINE
  5
3309
  8
0-1
  6
CONTINUOUS
 62
     3
 10
19995.758525000008
 20
8230.1601460000002
 30
0.0
 11
20305.458166000011
 21
8230.1601460000002
 31
0.0
  0
LINE
  5
330A
  8
0-1
  6
CONTINUOUS
 62
     3
 10
19995.758525000008
 20
8221.7605540000022
 30
0.0
 11
20297.05906800002
 21
8221.7605540000022
 31
0.0
  0
LINE
  5
330B
  8
0-1
  6
CONTINUOUS
 62
     3
 10
19995.758525000008
 20
8213.3604670000022
 30
0.0
 11
20288.656012000021
 21
8213.3604670000022
 31
0.0
  0
LINE
  5
330C
  8
0-1
  6
CONTINUOUS
 62
     3
 10
22436.258550999992
 20
8238.560233000002
 30
0.0
 11
22118.165751000011
 21
8238.560233000002
 31
0.0
  0
LINE
  5
330D
  8
0-1
  6
CONTINUOUS
 62
     3
 10
22436.258550999992
 20
8230.1601460000002
 30
0.0
 11
22126.560889000011
 21
8230.1601460000002
 31
0.0
  0
LINE
  5
330E
  8
0-1
  6
CONTINUOUS
 62
     3
 10
22436.258550999992
 20
8221.7605540000022
 30
0.0
 11
22134.959986000002
 21
8221.7605540000022
 31
0.0
  0
LINE
  5
330F
  8
0-1
  6
CONTINUOUS
 62
     3
 10
22436.258550999992
 20
8213.3604670000022
 30
0.0
 11
22143.359084
 21
8213.3604670000022
 31
0.0
  0
LINE
  5
3310
  8
0-1
  6
CONTINUOUS
 62
     3
 10
22431.258287000011
 20
8246.9598250000017
 30
0.0
 11
22121.831818999992
 21
8246.9598250000017
 31
0.0
  0
LINE
  5
3311
  8
0-1
  6
CONTINUOUS
 62
     3
 10
22431.258287000011
 20
8204.9603800000059
 30
0.0
 11
22153.828758
 21
8204.9603800000059
 31
0.0
  0
LINE
  5
3312
  8
0-1
  6
CONTINUOUS
 62
     3
 10
22436.258550999992
 20
8209.9601490000023
 30
0.0
 11
22436.258550999992
 21
8241.9605510000038
 31
0.0
  0
LINE
  5
3313
  8
0-1
  6
CONTINUOUS
 62
     3
 10
22150.29333700001
 20
8206.4242340000019
 30
0.0
 11
22118.29639900001
 21
8238.4246360000034
 31
0.0
  0
LINE
  5
3314
  8
0-2
  6
CONTINUOUS
 62
     4
 10
21579.699547
 20
6758.6864930000029
 30
0.0
 11
21479.700207000002
 21
6758.6864930000029
 31
0.0
  0
LINE
  5
3315
  8
0-2
  6
CONTINUOUS
 62
     4
 10
20852.315546999998
 20
6758.6864930000029
 30
0.0
 11
20952.314887
 21
6758.6864930000029
 31
0.0
  0
LINE
  5
3316
  8
0-5
  6
CONTINUOUS
 62
     4
 10
22499.759527000009
 20
4331.4601949999997
 30
0.0
 11
22499.759527000009
 21
4171.4606569999987
 31
0.0
  0
LINE
  5
3317
  8
0-5
  6
CONTINUOUS
 62
     4
 10
19932.259526999998
 20
4331.4601949999997
 30
0.0
 11
19932.259526999998
 21
4171.4606569999987
 31
0.0
  0
LINE
  5
3318
  8
2-0
  6
CENTER2
 62
     6
 10
22499.759527000009
 20
5748.8073760000016
 30
0.0
 11
22499.759527000009
 21
6785.9504030000016
 31
0.0
  0
LINE
  5
3319
  8
2-0
  6
CENTER2
 62
     6
 10
19932.259526999998
 20
5748.8073760000016
 30
0.0
 11
19932.259526999998
 21
6785.9504030000016
 31
0.0
  0
ARC
  5
331A
  8
0-1
  6
CONTINUOUS
 62
     3
 10
20000.758788000021
 20
8241.9605510000038
 30
0.0
 40
5.0
 50
90.0
 51
180.0
  0
ARC
  5
331B
  8
0-1
  6
CONTINUOUS
 62
     3
 10
20000.758788000021
 20
8209.9601490000023
 30
0.0
 40
5.0
 50
180.0
 51
269.9999850001808
  0
ARC
  5
331C
  8
0-1
  6
CONTINUOUS
 62
     3
 10
20278.188318000019
 20
8209.9601490000023
 30
0.0
 40
5.0
 50
269.9999850001808
 51
314.99998500026533
  0
ARC
  5
331D
  8
0-1
  6
CONTINUOUS
 62
     3
 10
20310.185256000019
 20
8241.9605510000038
 30
0.0
 40
5.0
 50
314.99998500026533
 51
90.0
  0
ARC
  5
331E
  8
0-1
  6
CONTINUOUS
 62
     3
 10
22431.258287000011
 20
8209.9601490000023
 30
0.0
 40
5.0
 50
269.9999850001808
 51
0.0
  0
ARC
  5
331F
  8
0-1
  6
CONTINUOUS
 62
     3
 10
22431.258287000011
 20
8241.9605510000038
 30
0.0
 40
5.0
 50
0.0
 51
90.0
  0
ARC
  5
3320
  8
0-1
  6
CONTINUOUS
 62
     3
 10
22121.831818999992
 20
8241.9605510000038
 30
0.0
 40
5.0
 50
90.0
 51
224.99998499998901
  0
ARC
  5
3321
  8
0-1
  6
CONTINUOUS
 62
     3
 10
22153.828758
 20
8209.9601490000023
 30
0.0
 40
5.0
 50
224.99998499998901
 51
269.9999850001808
  0
CIRCLE
  5
3322
  8
0-5
  6
CONTINUOUS
 62
     4
 10
22499.759527000009
 20
3971.4595020000011
 30
0.0
 40
199.9999949999999
  0
CIRCLE
  5
3323
  8
0-5
  6
CONTINUOUS
 62
     4
 10
19932.259526999998
 20
3971.4595020000011
 30
0.0
 40
199.9999949999999
  0
TEXT
  5
3324
  8
0-5
  6
CONTINUOUS
 62
     7
 10
22447.846652000011
 20
3881.9845200000018
 30
0.0
 40
160.0
  1
2
 72
     4
 11
22501.17998533334
 21
3961.9845200000009
 31
0.0
  0
TEXT
  5
3325
  8
0-5
  6
CONTINUOUS
 62
     7
 10
19880.346653000001
 20
3881.9845200000018
 30
0.0
 40
160.0
  1
1
 72
     4
 11
19907.013319666668
 21
3961.9845200000009
 31
0.0
  0
TEXT
  5
3326
  8
2-0
  6
CONTINUOUS
 62
     7
 10
19872.915037999999
 20
3163.073848999999
 30
0.0
 40
160.0
  1
正 面 立 面 図
 72
     4
 11
20518.248371333331
 21
3243.073848999999
 31
0.0
  0
CIRCLE
  5
3327
  8
0-4
  6
CONTINUOUS
 62
     4
 10
21216.009526999998
 20
6497.5162349999991
 30
0.0
 40
18.487504999999981
  0
TEXT
  5
3328
  8
2-0
  6
CONTINUOUS
 62
     7
 10
21869.740556470959
 20
3190.269217999999
 30
0.0
 40
160.0
  1
1
 72
     4
 11
21896.40722313763
 21
3270.269217999999
 31
0.0
  0
TEXT
  5
3329
  8
2-0
  6
CONTINUOUS
 62
     7
 10
22112.829273721662
 20
3110.2706859999989
 30
0.0
 40
160.0
  1
80
 72
     4
 11
22232.829273721662
 21
3190.2706859999989
 31
0.0
  0
TEXT
  5
332A
  8
2-0
  6
CONTINUOUS
 62
     7
 10
21370.74252247098
 20
3163.073848999999
 30
0.0
 40
160.0
  1
(S=  /   )
 72
     4
 11
21930.74252247098
 21
3243.073848999999
 31
0.0
  0
LINE
  5
332B
  8
SUNPOU
  6
CONTINUOUS
 10
19649.759526999991
 20
4811.4597990000038
 30
0.0
 11
19291.804520278911
 21
4811.4597990000038
 31
0.0
  0
LINE
  5
332C
  8
SUNPOU
  6
CONTINUOUS
 10
22782.259527000009
 20
4811.4597990000038
 30
0.0
 11
23140.214533721119
 21
4811.4597990000038
 31
0.0
  0
TEXT
  5
332D
  8
0-5
  6
CONTINUOUS
 62
     7
 10
19314.081608000011
 20
6740.8200457419989
 30
0.0
 40
160.0
  1
(2131.5)
 50
90.0
 72
     4
 11
19234.081608000011
 21
7194.1533790753319
 31
0.0
  0
LINE
  5
332E
  8
0-1
  6
CONTINUOUS
 62
     3
 10
9561.0118630000215
 20
6161.4597990000002
 30
0.0
 11
9561.0118630000215
 21
8022.5051830000029
 31
0.0
  0
LINE
  5
332F
  8
0-1
  6
CONTINUOUS
 62
     3
 10
9546.0110720000212
 20
6161.4597990000002
 30
0.0
 11
9546.0110720000212
 21
8022.5051830000029
 31
0.0
  0
LINE
  5
3330
  8
0-1
  6
CONTINUOUS
 62
     3
 10
14187.01416000001
 20
6161.4597990000002
 30
0.0
 11
14187.01416000001
 21
8022.5051830000029
 31
0.0
  0
LINE
  5
3331
  8
0-1
  6
CONTINUOUS
 62
     3
 10
14172.012379
 20
6161.4597990000002
 30
0.0
 11
14172.012379
 21
8022.5051830000029
 31
0.0
  0
LINE
  5
3332
  8
0-5
  6
CONTINUOUS
 62
     4
 10
14569.013870000021
 20
6111.4596339999998
 30
0.0
 11
16286.47381800002
 21
6111.4596339999998
 31
0.0
  0
LINE
  5
3333
  8
0-5
  6
CONTINUOUS
 62
     4
 10
16314.09997900001
 20
6319.3056209999977
 30
0.0
 11
16074.098198000011
 21
6319.3056209999977
 31
0.0
  0
LINE
  5
3334
  8
0-5
  6
CONTINUOUS
 62
     4
 10
16194.09760400001
 20
6111.4596339999998
 30
0.0
 11
16314.09997900001
 21
6319.3056209999977
 31
0.0
  0
LINE
  5
3335
  8
0-5
  6
CONTINUOUS
 62
     4
 10
16074.098198000011
 20
6319.3056209999977
 30
0.0
 11
16194.09760400001
 21
6111.4596339999998
 31
0.0
  0
TEXT
  5
3336
  8
0-0
  6
CONTINUOUS
 62
     7
 10
15735.006665000001
 20
6399.3058849999961
 30
0.0
 40
160.0
  1
布基礎天端
 72
     4
 11
16193.67333166667
 21
6479.3058849999961
 31
0.0
  0
TEXT
  5
3337
  8
2-0
  6
CONTINUOUS
 62
     7
 10
19980.717641000021
 20
11822.375701999999
 30
0.0
 40
160.0
  1
平　面　図
 72
     4
 11
20434.05097433335
 21
11897.042368666671
 31
0.0
  0
TEXT
  5
3338
  8
2-0
  6
CONTINUOUS
 62
     7
 10
21785.543159470981
 20
11844.237737666661
 30
0.0
 40
160.0
  1
1
 72
     4
 11
21812.209826137649
 21
11924.237737666661
 31
0.0
  0
TEXT
  5
3339
  8
2-0
  6
CONTINUOUS
 62
     7
 10
22028.631876721662
 20
11764.23920566667
 30
0.0
 40
160.0
  1
80
 72
     4
 11
22148.631876721662
 21
11844.23920566667
 31
0.0
  0
TEXT
  5
333A
  8
2-0
  6
CONTINUOUS
 62
     7
 10
21286.545125470981
 20
11817.042368666671
 30
0.0
 40
160.0
  1
(S=  /   )
 72
     4
 11
21846.545125470981
 21
11897.042368666671
 31
0.0
  0
LINE
  5
333B
  8
2-0
  6
CONTINUOUS
 62
     6
 10
20816.600611000002
 20
13413.25639
 30
0.0
 11
21816.594012999969
 21
13413.25639
 31
0.0
  0
LINE
  5
333C
  8
2-0
  6
CONTINUOUS
 62
     6
 10
22284.534390000001
 20
13883.677103999989
 30
0.0
 11
21816.594012999969
 21
13413.25639
 31
0.0
  0
LINE
  5
333D
  8
2-0
  6
CONTINUOUS
 62
     6
 10
22245.894187000002
 20
16724.78475100001
 30
0.0
 11
21941.198768999991
 21
16828.438282000021
 31
0.0
  0
LINE
  5
333E
  8
2-0
  6
CONTINUOUS
 62
     6
 10
22400.916225999968
 20
16235.16270700001
 30
0.0
 11
21941.198768999991
 21
15991.24939600001
 31
0.0
  0
LINE
  5
333F
  8
2-0
  6
CONTINUOUS
 62
     6
 10
21021.19573399999
 20
15991.24939600001
 30
0.0
 11
21941.198768999991
 21
15991.24939600001
 31
0.0
  0
LINE
  5
3340
  8
2-0
  6
CONTINUOUS
 62
     6
 10
20741.204707000001
 20
16828.438282000021
 30
0.0
 11
21941.198768999991
 21
16828.438282000021
 31
0.0
  0
LINE
  5
3341
  8
2-0
  6
CONTINUOUS
 62
     6
 10
22317.09351100001
 20
14205.36074999998
 30
0.0
 11
21941.198768999991
 21
14386.304585
 31
0.0
  0
LINE
  5
3342
  8
2-0
  6
CONTINUOUS
 62
     6
 10
21421.197053
 20
14386.304585
 30
0.0
 11
21941.198768999991
 21
14386.304585
 31
0.0
  0
LINE
  5
3343
  8
2-0
  6
CONTINUOUS
 62
     4
 10
19932.259526999998
 20
19310.758040000001
 30
0.0
 11
19932.259526999998
 21
20040.75500500001
 31
0.0
  0
LINE
  5
3344
  8
2-0
  6
CONTINUOUS
 62
     3
 10
22512.260187
 20
19121.755585999988
 30
0.0
 11
22512.260187
 21
19115.75962400002
 31
0.0
  0
LINE
  5
3345
  8
2-0
  6
CONTINUOUS
 62
     3
 10
22512.260187
 20
19115.75962400002
 30
0.0
 11
22542.25781100001
 21
19115.75962400002
 31
0.0
  0
LINE
  5
3346
  8
2-0
  6
CONTINUOUS
 62
     3
 10
22542.25781100001
 20
19145.759227999999
 30
0.0
 11
22461.255910999978
 21
19145.759227999999
 31
0.0
  0
LINE
  5
3347
  8
2-0
  6
CONTINUOUS
 62
     3
 10
22512.260187
 20
19105.462167999991
 30
0.0
 11
22542.25781100001
 21
19105.462167999991
 31
0.0
  0
LINE
  5
3348
  8
2-0
  6
CONTINUOUS
 62
     3
 10
22512.260187
 20
19123.463910000009
 30
0.0
 11
22512.260187
 21
19105.462167999991
 31
0.0
  0
LINE
  5
3349
  8
2-0
  6
CONTINUOUS
 62
     3
 10
22537.257547000001
 20
19123.463910000009
 30
0.0
 11
22512.260187
 21
19123.463910000009
 31
0.0
  0
LINE
  5
334A
  8
2-0
  6
CONTINUOUS
 62
     3
 10
22537.257547000001
 20
19118.455728000001
 30
0.0
 11
22537.257547000001
 21
19123.463910000009
 31
0.0
  0
LINE
  5
334B
  8
2-0
  6
CONTINUOUS
 62
     3
 10
22530.255990000001
 20
19118.455728000001
 30
0.0
 11
22537.257547000001
 21
19118.455728000001
 31
0.0
  0
LINE
  5
334C
  8
2-0
  6
CONTINUOUS
 62
     3
 10
22429.959722000011
 20
19218.755955000001
 30
0.0
 11
22429.959722000011
 21
19225.761471000009
 31
0.0
  0
LINE
  5
334D
  8
2-0
  6
CONTINUOUS
 62
     3
 10
22429.959722000011
 20
19225.761471000009
 30
0.0
 11
22434.959985999991
 21
19225.761471000009
 31
0.0
  0
LINE
  5
334E
  8
2-0
  6
CONTINUOUS
 62
     3
 10
22434.959985999991
 20
19225.761471000009
 30
0.0
 11
22434.959985999991
 21
19200.752234
 31
0.0
  0
LINE
  5
334F
  8
2-0
  6
CONTINUOUS
 62
     3
 10
22434.959985999991
 20
19200.752234
 30
0.0
 11
22416.958243999979
 21
19200.752234
 31
0.0
  0
LINE
  5
3350
  8
2-0
  6
CONTINUOUS
 62
     3
 10
22416.958243999979
 20
19200.752234
 30
0.0
 11
22416.958243999979
 21
19230.75579700002
 31
0.0
  0
LINE
  5
3351
  8
2-0
  6
CONTINUOUS
 62
     3
 10
22427.255700000002
 20
19230.75579700002
 30
0.0
 11
22542.25781100001
 21
19230.75579700002
 31
0.0
  0
LINE
  5
3352
  8
2-0
  6
CONTINUOUS
 62
     3
 10
22427.255700000002
 20
19200.752234
 30
0.0
 11
22427.255700000002
 21
19230.75579700002
 31
0.0
  0
LINE
  5
3353
  8
2-0
  6
CONTINUOUS
 62
     3
 10
22433.257600000001
 20
19200.752234
 30
0.0
 11
22427.255700000002
 21
19200.752234
 31
0.0
  0
LINE
  5
3354
  8
2-0
  6
CONTINUOUS
 62
     3
 10
22530.255990000001
 20
18765.158905499949
 30
0.0
 11
22537.257547000001
 21
18765.158905499949
 31
0.0
  0
LINE
  5
3355
  8
2-0
  6
CONTINUOUS
 62
     3
 10
22537.257547000001
 20
18765.158905499949
 30
0.0
 11
22537.257547000001
 21
18770.159169499992
 31
0.0
  0
LINE
  5
3356
  8
2-0
  6
CONTINUOUS
 62
     3
 10
22537.257547000001
 20
18770.159169499992
 30
0.0
 11
22512.260187
 21
18770.159169499992
 31
0.0
  0
LINE
  5
3357
  8
2-0
  6
CONTINUOUS
 62
     3
 10
22512.260187
 20
18770.159169499992
 30
0.0
 11
22512.260187
 21
18752.163365500001
 31
0.0
  0
LINE
  5
3358
  8
2-0
  6
CONTINUOUS
 62
     3
 10
22512.260187
 20
18752.163365500001
 30
0.0
 11
22542.25781100001
 21
18752.163365500001
 31
0.0
  0
LINE
  5
3359
  8
2-0
  6
CONTINUOUS
 62
     3
 10
22512.260187
 20
18768.25487249998
 30
0.0
 11
22512.260187
 21
18762.2569315
 31
0.0
  0
LINE
  5
335A
  8
2-0
  6
CONTINUOUS
 62
     3
 10
22512.260187
 20
18762.2569315
 30
0.0
 11
22542.25781100001
 21
18762.2569315
 31
0.0
  0
LINE
  5
335B
  8
2-0
  6
CONTINUOUS
 62
     3
 10
22542.25781100001
 20
18762.2569315
 30
0.0
 11
22542.25781100001
 21
18799.2580925
 31
0.0
  0
LINE
  5
335C
  8
2-0
  6
CONTINUOUS
 62
     3
 10
22512.260187
 20
18799.2580925
 30
0.0
 11
22542.25781100001
 21
18799.2580925
 31
0.0
  0
LINE
  5
335D
  8
2-0
  6
CONTINUOUS
 62
     3
 10
22512.260187
 20
18793.254212499989
 30
0.0
 11
22512.260187
 21
18799.2580925
 31
0.0
  0
LINE
  5
335E
  8
2-0
  6
CONTINUOUS
 62
     3
 10
22512.260187
 20
18809.353637499989
 30
0.0
 11
22542.25781100001
 21
18809.353637499989
 31
0.0
  0
LINE
  5
335F
  8
2-0
  6
CONTINUOUS
 62
     3
 10
22512.260187
 20
18791.3518955
 30
0.0
 11
22512.260187
 21
18809.353637499989
 31
0.0
  0
LINE
  5
3360
  8
2-0
  6
CONTINUOUS
 62
     3
 10
22537.257547000001
 20
18791.3518955
 30
0.0
 11
22512.260187
 21
18791.3518955
 31
0.0
  0
LINE
  5
3361
  8
2-0
  6
CONTINUOUS
 62
     3
 10
22537.257547000001
 20
18796.352159499991
 30
0.0
 11
22537.257547000001
 21
18791.3518955
 31
0.0
  0
LINE
  5
3362
  8
2-0
  6
CONTINUOUS
 62
     3
 10
22530.255990000001
 20
18796.352159499991
 30
0.0
 11
22537.257547000001
 21
18796.352159499991
 31
0.0
  0
LINE
  5
3363
  8
2-0
  6
CONTINUOUS
 62
     3
 10
22530.255990000001
 20
18064.157916
 30
0.0
 11
22537.257547000001
 21
18064.157916
 31
0.0
  0
LINE
  5
3364
  8
2-0
  6
CONTINUOUS
 62
     3
 10
22537.257547000001
 20
18064.157916
 30
0.0
 11
22537.257547000001
 21
18069.16411799999
 31
0.0
  0
LINE
  5
3365
  8
2-0
  6
CONTINUOUS
 62
     3
 10
22537.257547000001
 20
18069.16411799999
 30
0.0
 11
22512.260187
 21
18069.16411799999
 31
0.0
  0
LINE
  5
3366
  8
2-0
  6
CONTINUOUS
 62
     3
 10
22512.260187
 20
18069.16411799999
 30
0.0
 11
22512.260187
 21
18051.162376
 31
0.0
  0
LINE
  5
3367
  8
2-0
  6
CONTINUOUS
 62
     3
 10
22512.260187
 20
18051.162376
 30
0.0
 11
22542.25781100001
 21
18051.162376
 31
0.0
  0
LINE
  5
3368
  8
2-0
  6
CONTINUOUS
 62
     3
 10
22512.260187
 20
18067.25388299999
 30
0.0
 11
22512.260187
 21
18061.257920999989
 31
0.0
  0
LINE
  5
3369
  8
2-0
  6
CONTINUOUS
 62
     3
 10
22512.260187
 20
18061.257920999989
 30
0.0
 11
22542.25781100001
 21
18061.257920999989
 31
0.0
  0
LINE
  5
336A
  8
2-0
  6
CONTINUOUS
 62
     3
 10
22542.25781100001
 20
18061.257920999989
 30
0.0
 11
22542.25781100001
 21
18098.257103
 31
0.0
  0
LINE
  5
336B
  8
2-0
  6
CONTINUOUS
 62
     3
 10
22512.260187
 20
18098.257103
 30
0.0
 11
22542.25781100001
 21
18098.257103
 31
0.0
  0
LINE
  5
336C
  8
2-0
  6
CONTINUOUS
 62
     3
 10
22512.260187
 20
18092.26114100001
 30
0.0
 11
22512.260187
 21
18098.257103
 31
0.0
  0
LINE
  5
336D
  8
2-0
  6
CONTINUOUS
 62
     3
 10
22512.260187
 20
18108.352648
 30
0.0
 11
22542.25781100001
 21
18108.352648
 31
0.0
  0
LINE
  5
336E
  8
2-0
  6
CONTINUOUS
 62
     3
 10
22512.260187
 20
18090.350906
 30
0.0
 11
22512.260187
 21
18108.352648
 31
0.0
  0
LINE
  5
336F
  8
2-0
  6
CONTINUOUS
 62
     3
 10
22537.257547000001
 20
18090.350906
 30
0.0
 11
22512.260187
 21
18090.350906
 31
0.0
  0
LINE
  5
3370
  8
2-0
  6
CONTINUOUS
 62
     3
 10
22537.257547000001
 20
18095.357107999978
 30
0.0
 11
22537.257547000001
 21
18090.350906
 31
0.0
  0
LINE
  5
3371
  8
2-0
  6
CONTINUOUS
 62
     3
 10
22530.255990000001
 20
18095.357107999978
 30
0.0
 11
22537.257547000001
 21
18095.357107999978
 31
0.0
  0
LINE
  5
3372
  8
2-0
  6
CONTINUOUS
 62
     3
 10
22530.255990000001
 20
17394.351170000002
 30
0.0
 11
22537.257547000001
 21
17394.351170000002
 31
0.0
  0
LINE
  5
3373
  8
2-0
  6
CONTINUOUS
 62
     3
 10
22537.257547000001
 20
17394.351170000002
 30
0.0
 11
22537.257547000001
 21
17389.362783
 31
0.0
  0
LINE
  5
3374
  8
2-0
  6
CONTINUOUS
 62
     3
 10
22537.257547000001
 20
17389.362783
 30
0.0
 11
22512.260187
 21
17389.362783
 31
0.0
  0
LINE
  5
3375
  8
2-0
  6
CONTINUOUS
 62
     3
 10
22512.260187
 20
17389.362783
 30
0.0
 11
22512.260187
 21
17407.358585999991
 31
0.0
  0
LINE
  5
3376
  8
2-0
  6
CONTINUOUS
 62
     3
 10
22512.260187
 20
17407.358585999991
 30
0.0
 11
22542.25781100001
 21
17407.358585999991
 31
0.0
  0
LINE
  5
3377
  8
2-0
  6
CONTINUOUS
 62
     3
 10
22512.260187
 20
17391.261140999999
 30
0.0
 11
22512.260187
 21
17397.257102999989
 31
0.0
  0
LINE
  5
3378
  8
2-0
  6
CONTINUOUS
 62
     3
 10
22512.260187
 20
17397.257102999989
 30
0.0
 11
22542.25781100001
 21
17397.257102999989
 31
0.0
  0
LINE
  5
3379
  8
2-0
  6
CONTINUOUS
 62
     3
 10
22542.25781100001
 20
17397.257102999989
 30
0.0
 11
22542.25781100001
 21
17360.257921
 31
0.0
  0
LINE
  5
337A
  8
2-0
  6
CONTINUOUS
 62
     3
 10
22512.260187
 20
17360.257921
 30
0.0
 11
22542.25781100001
 21
17360.257921
 31
0.0
  0
LINE
  5
337B
  8
2-0
  6
CONTINUOUS
 62
     3
 10
22512.260187
 20
17366.259821999982
 30
0.0
 11
22512.260187
 21
17360.257921
 31
0.0
  0
LINE
  5
337C
  8
2-0
  6
CONTINUOUS
 62
     3
 10
22512.260187
 20
17350.168314999999
 30
0.0
 11
22542.25781100001
 21
17350.168314999999
 31
0.0
  0
LINE
  5
337D
  8
2-0
  6
CONTINUOUS
 62
     3
 10
22512.260187
 20
17368.164118000001
 30
0.0
 11
22512.260187
 21
17350.168314999999
 31
0.0
  0
LINE
  5
337E
  8
2-0
  6
CONTINUOUS
 62
     3
 10
22537.257547000001
 20
17368.164118000001
 30
0.0
 11
22512.260187
 21
17368.164118000001
 31
0.0
  0
LINE
  5
337F
  8
2-0
  6
CONTINUOUS
 62
     3
 10
22537.257547000001
 20
17363.16385500001
 30
0.0
 11
22537.257547000001
 21
17368.164118000001
 31
0.0
  0
LINE
  5
3380
  8
2-0
  6
CONTINUOUS
 62
     3
 10
22530.255990000001
 20
17363.16385500001
 30
0.0
 11
22537.257547000001
 21
17363.16385500001
 31
0.0
  0
LINE
  5
3381
  8
2-0
  6
CONTINUOUS
 62
     3
 10
22539.371673000009
 20
16643.25474099999
 30
0.0
 11
22539.371673000009
 21
16663.255796000001
 31
0.0
  0
LINE
  5
3382
  8
2-0
  6
CONTINUOUS
 62
     3
 10
22539.371673000009
 20
16663.255796000001
 30
0.0
 11
22454.375103999992
 21
16663.255796000001
 31
0.0
  0
LINE
  5
3383
  8
2-0
  6
CONTINUOUS
 62
     3
 10
22530.255990000001
 20
16689.862506000001
 30
0.0
 11
22537.257547000001
 21
16689.862506000001
 31
0.0
  0
LINE
  5
3384
  8
2-0
  6
CONTINUOUS
 62
     3
 10
22537.257547000001
 20
16689.862506000001
 30
0.0
 11
22537.257547000001
 21
16684.868180000001
 31
0.0
  0
LINE
  5
3385
  8
2-0
  6
CONTINUOUS
 62
     3
 10
22537.257547000001
 20
16684.868180000001
 30
0.0
 11
22512.260187
 21
16684.868180000001
 31
0.0
  0
LINE
  5
3386
  8
2-0
  6
CONTINUOUS
 62
     3
 10
22512.260187
 20
16684.868180000001
 30
0.0
 11
22512.260187
 21
16702.863984
 31
0.0
  0
LINE
  5
3387
  8
2-0
  6
CONTINUOUS
 62
     3
 10
22512.260187
 20
16702.863984
 30
0.0
 11
22542.25781100001
 21
16702.863984
 31
0.0
  0
LINE
  5
3388
  8
2-0
  6
CONTINUOUS
 62
     3
 10
22512.260187
 20
16693.255399999991
 30
0.0
 11
22512.260187
 21
16687.253499999992
 31
0.0
  0
LINE
  5
3389
  8
2-0
  6
CONTINUOUS
 62
     3
 10
22542.25781100001
 20
16693.255399999991
 30
0.0
 11
22512.260187
 21
16693.255399999991
 31
0.0
  0
LINE
  5
338A
  8
2-0
  6
CONTINUOUS
 62
     3
 10
22542.25781100001
 20
16702.863984
 30
0.0
 11
22542.25781100001
 21
17350.168314999999
 31
0.0
  0
LINE
  5
338B
  8
2-0
  6
CONTINUOUS
 62
     3
 10
22542.25781100001
 20
17407.358585999991
 30
0.0
 11
22542.25781100001
 21
18051.162376
 31
0.0
  0
LINE
  5
338C
  8
2-0
  6
CONTINUOUS
 62
     3
 10
22542.25781100001
 20
16548.253685
 30
0.0
 11
22512.260187
 21
16548.253685
 31
0.0
  0
LINE
  5
338D
  8
2-0
  6
CONTINUOUS
 62
     3
 10
22512.260187
 20
16548.253685
 30
0.0
 11
22512.260187
 21
16554.255584999992
 31
0.0
  0
LINE
  5
338E
  8
2-0
  6
CONTINUOUS
 62
     3
 10
22454.375103999992
 20
16578.259227999999
 30
0.0
 11
22539.371673000009
 21
16578.259227999999
 31
0.0
  0
LINE
  5
338F
  8
2-0
  6
CONTINUOUS
 62
     3
 10
22539.371673000009
 20
16578.259227999999
 30
0.0
 11
22539.371673000009
 21
16598.254345000001
 31
0.0
  0
LINE
  5
3390
  8
2-0
  6
CONTINUOUS
 62
     3
 10
22512.260187
 20
16538.64510200001
 30
0.0
 11
22542.25781100001
 21
16538.64510200001
 31
0.0
  0
LINE
  5
3391
  8
2-0
  6
CONTINUOUS
 62
     3
 10
22512.260187
 20
16556.640904999989
 30
0.0
 11
22512.260187
 21
16538.64510200001
 31
0.0
  0
LINE
  5
3392
  8
2-0
  6
CONTINUOUS
 62
     3
 10
22537.257547000001
 20
16556.640904999989
 30
0.0
 11
22512.260187
 21
16556.640904999989
 31
0.0
  0
LINE
  5
3393
  8
2-0
  6
CONTINUOUS
 62
     3
 10
22537.257547000001
 20
16551.640641000002
 30
0.0
 11
22537.257547000001
 21
16556.640904999989
 31
0.0
  0
LINE
  5
3394
  8
2-0
  6
CONTINUOUS
 62
     3
 10
22530.255990000001
 20
16551.640641000002
 30
0.0
 11
22537.257547000001
 21
16551.640641000002
 31
0.0
  0
LINE
  5
3395
  8
2-0
  6
CONTINUOUS
 62
     3
 10
22530.255990000001
 20
15847.15841049998
 30
0.0
 11
22537.257547000001
 21
15847.15841049998
 31
0.0
  0
LINE
  5
3396
  8
2-0
  6
CONTINUOUS
 62
     3
 10
22537.257547000001
 20
15847.15841049998
 30
0.0
 11
22537.257547000001
 21
15852.15867449998
 31
0.0
  0
LINE
  5
3397
  8
2-0
  6
CONTINUOUS
 62
     3
 10
22537.257547000001
 20
15852.15867449998
 30
0.0
 11
22512.260187
 21
15852.15867449998
 31
0.0
  0
LINE
  5
3398
  8
2-0
  6
CONTINUOUS
 62
     3
 10
22512.260187
 20
15852.15867449998
 30
0.0
 11
22512.260187
 21
15834.156932499989
 31
0.0
  0
LINE
  5
3399
  8
2-0
  6
CONTINUOUS
 62
     3
 10
22512.260187
 20
15834.156932499989
 30
0.0
 11
22542.25781100001
 21
15834.156932499989
 31
0.0
  0
LINE
  5
339A
  8
2-0
  6
CONTINUOUS
 62
     3
 10
22512.260187
 20
15850.25437749999
 30
0.0
 11
22512.260187
 21
15844.257426499989
 31
0.0
  0
LINE
  5
339B
  8
2-0
  6
CONTINUOUS
 62
     3
 10
22512.260187
 20
15844.257426499989
 30
0.0
 11
22542.25781100001
 21
15844.257426499989
 31
0.0
  0
LINE
  5
339C
  8
2-0
  6
CONTINUOUS
 62
     3
 10
22542.25781100001
 20
15844.257426499989
 30
0.0
 11
22542.25781100001
 21
15881.2575975
 31
0.0
  0
LINE
  5
339D
  8
2-0
  6
CONTINUOUS
 62
     3
 10
22512.260187
 20
15881.2575975
 30
0.0
 11
22542.25781100001
 21
15881.2575975
 31
0.0
  0
LINE
  5
339E
  8
2-0
  6
CONTINUOUS
 62
     3
 10
22512.260187
 20
15875.254707499989
 30
0.0
 11
22512.260187
 21
15881.2575975
 31
0.0
  0
LINE
  5
339F
  8
2-0
  6
CONTINUOUS
 62
     3
 10
22512.260187
 20
15891.3531425
 30
0.0
 11
22542.25781100001
 21
15891.3531425
 31
0.0
  0
LINE
  5
33A0
  8
2-0
  6
CONTINUOUS
 62
     3
 10
22512.260187
 20
15873.34546149999
 30
0.0
 11
22512.260187
 21
15891.3531425
 31
0.0
  0
LINE
  5
33A1
  8
2-0
  6
CONTINUOUS
 62
     3
 10
22537.257547000001
 20
15873.34546149999
 30
0.0
 11
22512.260187
 21
15873.34546149999
 31
0.0
  0
LINE
  5
33A2
  8
2-0
  6
CONTINUOUS
 62
     3
 10
22537.257547000001
 20
15878.3516645
 30
0.0
 11
22537.257547000001
 21
15873.34546149999
 31
0.0
  0
LINE
  5
33A3
  8
2-0
  6
CONTINUOUS
 62
     3
 10
22530.255990000001
 20
15878.3516645
 30
0.0
 11
22537.257547000001
 21
15878.3516645
 31
0.0
  0
LINE
  5
33A4
  8
2-0
  6
CONTINUOUS
 62
     3
 10
22530.255990000001
 20
15177.591681000011
 30
0.0
 11
22537.257547000001
 21
15177.591681000011
 31
0.0
  0
LINE
  5
33A5
  8
2-0
  6
CONTINUOUS
 62
     3
 10
22537.257547000001
 20
15177.591681000011
 30
0.0
 11
22537.257547000001
 21
15172.597356
 31
0.0
  0
LINE
  5
33A6
  8
2-0
  6
CONTINUOUS
 62
     3
 10
22537.257547000001
 20
15172.597356
 30
0.0
 11
22512.260187
 21
15172.597356
 31
0.0
  0
LINE
  5
33A7
  8
2-0
  6
CONTINUOUS
 62
     3
 10
22512.260187
 20
15172.597356
 30
0.0
 11
22512.260187
 21
15190.593159
 31
0.0
  0
LINE
  5
33A8
  8
2-0
  6
CONTINUOUS
 62
     3
 10
22512.260187
 20
15190.593159
 30
0.0
 11
22542.25781100001
 21
15190.593159
 31
0.0
  0
LINE
  5
33A9
  8
2-0
  6
CONTINUOUS
 62
     3
 10
22512.260187
 20
15174.49571400001
 30
0.0
 11
22512.260187
 21
15180.497614000011
 31
0.0
  0
LINE
  5
33AA
  8
2-0
  6
CONTINUOUS
 62
     3
 10
22512.260187
 20
15180.497614000011
 30
0.0
 11
22542.25781100001
 21
15180.497614000011
 31
0.0
  0
LINE
  5
33AB
  8
2-0
  6
CONTINUOUS
 62
     3
 10
22542.25781100001
 20
15143.49843300001
 30
0.0
 11
22542.25781100001
 21
15180.497614000011
 31
0.0
  0
LINE
  5
33AC
  8
2-0
  6
CONTINUOUS
 62
     3
 10
22512.260187
 20
15143.49843300001
 30
0.0
 11
22542.25781100001
 21
15143.49843300001
 31
0.0
  0
LINE
  5
33AD
  8
2-0
  6
CONTINUOUS
 62
     3
 10
22512.260187
 20
15149.495383999991
 30
0.0
 11
22512.260187
 21
15143.49843300001
 31
0.0
  0
LINE
  5
33AE
  8
2-0
  6
CONTINUOUS
 62
     3
 10
22512.260187
 20
15133.396949000011
 30
0.0
 11
22542.25781100001
 21
15133.396949000011
 31
0.0
  0
LINE
  5
33AF
  8
2-0
  6
CONTINUOUS
 62
     3
 10
22512.260187
 20
15151.404630000001
 30
0.0
 11
22512.260187
 21
15133.396949000011
 31
0.0
  0
LINE
  5
33B0
  8
2-0
  6
CONTINUOUS
 62
     3
 10
22537.257547000001
 20
15151.404630000001
 30
0.0
 11
22512.260187
 21
15151.404630000001
 31
0.0
  0
LINE
  5
33B1
  8
2-0
  6
CONTINUOUS
 62
     3
 10
22537.257547000001
 20
15146.40436600001
 30
0.0
 11
22537.257547000001
 21
15151.404630000001
 31
0.0
  0
LINE
  5
33B2
  8
2-0
  6
CONTINUOUS
 62
     3
 10
22530.255990000001
 20
15146.40436600001
 30
0.0
 11
22537.257547000001
 21
15146.40436600001
 31
0.0
  0
LINE
  5
33B3
  8
2-0
  6
CONTINUOUS
 62
     3
 10
22542.25781100001
 20
16538.64510200001
 30
0.0
 11
22542.25781100001
 21
15891.3531425
 31
0.0
  0
LINE
  5
33B4
  8
2-0
  6
CONTINUOUS
 62
     3
 10
22542.25781100001
 20
16693.255399999991
 30
0.0
 11
22542.25781100001
 21
16548.253685
 31
0.0
  0
LINE
  5
33B5
  8
2-0
  6
CONTINUOUS
 62
     3
 10
22454.375103999992
 20
16663.255796000001
 30
0.0
 11
22454.375103999992
 21
16578.259227999999
 31
0.0
  0
LINE
  5
33B6
  8
2-0
  6
CONTINUOUS
 62
     6
 10
20916.166437
 20
18431.703061499989
 30
0.0
 11
21941.198768999991
 21
18431.703061499989
 31
0.0
  0
LINE
  5
33B7
  8
2-0
  6
CONTINUOUS
 62
     3
 10
22530.255990000001
 20
14445.163359
 30
0.0
 11
22537.257547000001
 21
14445.163359
 31
0.0
  0
LINE
  5
33B8
  8
2-0
  6
CONTINUOUS
 62
     3
 10
22537.257547000001
 20
14445.163359
 30
0.0
 11
22537.257547000001
 21
14450.157685
 31
0.0
  0
LINE
  5
33B9
  8
2-0
  6
CONTINUOUS
 62
     3
 10
22537.257547000001
 20
14450.157685
 30
0.0
 11
22512.260187
 21
14450.157685
 31
0.0
  0
LINE
  5
33BA
  8
2-0
  6
CONTINUOUS
 62
     3
 10
22512.260187
 20
14450.157685
 30
0.0
 11
22512.260187
 21
14432.161881
 31
0.0
  0
LINE
  5
33BB
  8
2-0
  6
CONTINUOUS
 62
     3
 10
22512.260187
 20
14432.161881
 30
0.0
 11
22542.25781100001
 21
14432.161881
 31
0.0
  0
LINE
  5
33BC
  8
2-0
  6
CONTINUOUS
 62
     3
 10
22512.260187
 20
14448.260316000011
 30
0.0
 11
22512.260187
 21
14442.257426
 31
0.0
  0
LINE
  5
33BD
  8
2-0
  6
CONTINUOUS
 62
     3
 10
22512.260187
 20
14442.257426
 30
0.0
 11
22542.25781100001
 21
14442.257426
 31
0.0
  0
LINE
  5
33BE
  8
2-0
  6
CONTINUOUS
 62
     3
 10
22542.25781100001
 20
14442.257426
 30
0.0
 11
22542.25781100001
 21
14479.25759799998
 31
0.0
  0
LINE
  5
33BF
  8
2-0
  6
CONTINUOUS
 62
     3
 10
22512.260187
 20
14479.25759799998
 30
0.0
 11
22542.25781100001
 21
14479.25759799998
 31
0.0
  0
LINE
  5
33C0
  8
2-0
  6
CONTINUOUS
 62
     3
 10
22512.260187
 20
14473.26064599999
 30
0.0
 11
22512.260187
 21
14479.25759799998
 31
0.0
  0
LINE
  5
33C1
  8
2-0
  6
CONTINUOUS
 62
     3
 10
22512.260187
 20
14489.358091
 30
0.0
 11
22542.25781100001
 21
14489.358091
 31
0.0
  0
LINE
  5
33C2
  8
2-0
  6
CONTINUOUS
 62
     3
 10
22512.260187
 20
14471.35140000001
 30
0.0
 11
22512.260187
 21
14489.358091
 31
0.0
  0
LINE
  5
33C3
  8
2-0
  6
CONTINUOUS
 62
     3
 10
22537.257547000001
 20
14471.35140000001
 30
0.0
 11
22512.260187
 21
14471.35140000001
 31
0.0
  0
LINE
  5
33C4
  8
2-0
  6
CONTINUOUS
 62
     3
 10
22537.257547000001
 20
14476.356613000011
 30
0.0
 11
22537.257547000001
 21
14471.35140000001
 31
0.0
  0
LINE
  5
33C5
  8
2-0
  6
CONTINUOUS
 62
     3
 10
22530.255990000001
 20
14476.356613000011
 30
0.0
 11
22537.257547000001
 21
14476.356613000011
 31
0.0
  0
LINE
  5
33C6
  8
2-0
  6
CONTINUOUS
 62
     3
 10
22512.260187
 20
14119.75943899999
 30
0.0
 11
22512.260187
 21
14125.764308
 31
0.0
  0
LINE
  5
33C7
  8
2-0
  6
CONTINUOUS
 62
     3
 10
22512.260187
 20
14125.764308
 30
0.0
 11
22542.25781100001
 21
14125.764308
 31
0.0
  0
LINE
  5
33C8
  8
2-0
  6
CONTINUOUS
 62
     3
 10
22542.25781100001
 20
14125.764308
 30
0.0
 11
22542.25781100001
 21
14010.76021699999
 31
0.0
  0
LINE
  5
33C9
  8
2-0
  6
CONTINUOUS
 62
     3
 10
22542.25781100001
 20
14010.76021699999
 30
0.0
 11
22457.259263000011
 21
14010.76021699999
 31
0.0
  0
LINE
  5
33CA
  8
2-0
  6
CONTINUOUS
 62
     3
 10
22457.259263000011
 20
14010.76021699999
 30
0.0
 11
22457.259263000011
 21
14095.755795999999
 31
0.0
  0
LINE
  5
33CB
  8
2-0
  6
CONTINUOUS
 62
     3
 10
22457.259263000011
 20
14095.755795999999
 30
0.0
 11
22489.258181000001
 21
14095.755795999999
 31
0.0
  0
LINE
  5
33CC
  8
2-0
  6
CONTINUOUS
 62
     3
 10
22530.255990000001
 20
14122.79404099999
 30
0.0
 11
22537.257547000001
 21
14122.79404099999
 31
0.0
  0
LINE
  5
33CD
  8
2-0
  6
CONTINUOUS
 62
     3
 10
22537.257547000001
 20
14122.79404099999
 30
0.0
 11
22537.257547000001
 21
14117.79674599998
 31
0.0
  0
LINE
  5
33CE
  8
2-0
  6
CONTINUOUS
 62
     3
 10
22537.257547000001
 20
14117.79674599998
 30
0.0
 11
22512.260187
 21
14117.79674599998
 31
0.0
  0
LINE
  5
33CF
  8
2-0
  6
CONTINUOUS
 62
     3
 10
22512.260187
 20
14117.79674599998
 30
0.0
 11
22512.260187
 21
14135.795518999999
 31
0.0
  0
LINE
  5
33D0
  8
2-0
  6
CONTINUOUS
 62
     3
 10
22512.260187
 20
14135.795518999999
 30
0.0
 11
22542.25781100001
 21
14135.795518999999
 31
0.0
  0
LINE
  5
33D1
  8
2-0
  6
CENTER2
 62
     6
 10
22499.759527000009
 20
13813.262658999991
 30
0.0
 11
22499.759527000009
 21
14618.63141700001
 31
0.0
  0
LINE
  5
33D2
  8
2-0
  6
CONTINUOUS
 62
     3
 10
22542.25781100001
 20
18108.352648
 30
0.0
 11
22542.25781100001
 21
18752.163365500001
 31
0.0
  0
LINE
  5
33D3
  8
2-0
  6
CONTINUOUS
 62
     6
 10
23234.762694000001
 20
19960.75870000002
 30
0.0
 11
24434.756755999981
 21
19960.75870000002
 31
0.0
  0
LINE
  5
33D4
  8
2-0
  6
CONTINUOUS
 62
     6
 10
22372.729860999982
 20
18673.857569499989
 30
0.0
 11
21941.198768999991
 21
18431.703061499989
 31
0.0
  0
LINE
  5
33D5
  8
2-0
  6
CONTINUOUS
 62
     6
 10
22694.298694999961
 20
19373.435537000001
 30
0.0
 11
23234.762694000001
 21
19960.75870000002
 31
0.0
  0
LINE
  5
33D6
  8
2-0
  6
CONTINUOUS
 62
     3
 10
22542.25781100001
 20
15834.156932499989
 30
0.0
 11
22542.25781100001
 21
15190.593159
 31
0.0
  0
LINE
  5
33D7
  8
2-0
  6
CONTINUOUS
 62
     6
 10
22359.672955999999
 20
18697.116913499991
 30
0.0
 11
22512.260187
 21
18752.163365500001
 31
0.0
  0
LINE
  5
33D8
  8
2-0
  6
CONTINUOUS
 62
     6
 10
22512.260187
 20
18752.163365500001
 30
0.0
 11
22385.778847000001
 21
18650.60416549995
 31
0.0
  0
LINE
  5
33D9
  8
2-0
  6
CONTINUOUS
 62
     6
 10
22359.672955999999
 20
18697.116913499991
 30
0.0
 11
22385.778847000001
 21
18650.60416549995
 31
0.0
  0
LINE
  5
33DA
  8
2-0
  6
CONTINUOUS
 62
     6
 10
22385.778847000001
 20
18650.60416549995
 30
0.0
 11
22512.260187
 21
18752.163365500001
 31
0.0
  0
LINE
  5
33DB
  8
2-0
  6
CONTINUOUS
 62
     6
 10
22512.260187
 20
18752.163365500001
 30
0.0
 11
22359.672955999999
 21
18697.116913499991
 31
0.0
  0
LINE
  5
33DC
  8
2-0
  6
CONTINUOUS
 62
     6
 10
22359.672955999999
 20
18697.116913499991
 30
0.0
 11
22512.260187
 21
18752.163365500001
 31
0.0
  0
LINE
  5
33DD
  8
2-0
  6
CONTINUOUS
 62
     6
 10
22385.778847000001
 20
18650.60416549995
 30
0.0
 11
22512.260187
 21
18752.163365500001
 31
0.0
  0
LINE
  5
33DE
  8
2-0
  6
CONTINUOUS
 62
     6
 10
22385.778847000001
 20
18650.60416549995
 30
0.0
 11
22359.672955999999
 21
18697.116913499991
 31
0.0
  0
LINE
  5
33DF
  8
2-0
  6
CONTINUOUS
 62
     6
 10
22713.915723999991
 20
19355.374410000011
 30
0.0
 11
22585.95370400001
 21
19255.691792000009
 31
0.0
  0
LINE
  5
33E0
  8
2-0
  6
CONTINUOUS
 62
     6
 10
22585.95370400001
 20
19255.691792000009
 30
0.0
 11
22674.667808999991
 21
19391.488747000021
 31
0.0
  0
LINE
  5
33E1
  8
2-0
  6
CONTINUOUS
 62
     6
 10
22713.915723999991
 20
19355.374410000011
 30
0.0
 11
22674.667808999991
 21
19391.488747000021
 31
0.0
  0
LINE
  5
33E2
  8
2-0
  6
CONTINUOUS
 62
     6
 10
22674.667808999991
 20
19391.488747000021
 30
0.0
 11
22585.95370400001
 21
19255.691792000009
 31
0.0
  0
LINE
  5
33E3
  8
2-0
  6
CONTINUOUS
 62
     6
 10
22585.95370400001
 20
19255.691792000009
 30
0.0
 11
22713.915723999991
 21
19355.374410000011
 31
0.0
  0
LINE
  5
33E4
  8
2-0
  6
CONTINUOUS
 62
     6
 10
22713.915723999991
 20
19355.374410000011
 30
0.0
 11
22585.95370400001
 21
19255.691792000009
 31
0.0
  0
LINE
  5
33E5
  8
2-0
  6
CONTINUOUS
 62
     6
 10
22674.667808999991
 20
19391.488747000021
 30
0.0
 11
22585.95370400001
 21
19255.691792000009
 31
0.0
  0
LINE
  5
33E6
  8
2-0
  6
CONTINUOUS
 62
     6
 10
22674.667808999991
 20
19391.488747000021
 30
0.0
 11
22713.915723999991
 21
19355.374410000011
 31
0.0
  0
LINE
  5
33E7
  8
2-0
  6
CONTINUOUS
 62
     4
 10
19932.259526999998
 20
19310.758040000001
 30
0.0
 11
19932.259526999998
 21
20040.75500500001
 31
0.0
  0
LINE
  5
33E8
  8
2-0
  6
CONTINUOUS
 62
     6
 10
22265.620090000011
 20
13902.48747899999
 30
0.0
 11
22397.36694900001
 21
13997.114406000001
 31
0.0
  0
LINE
  5
33E9
  8
2-0
  6
CONTINUOUS
 62
     6
 10
22397.36694900001
 20
13997.114406000001
 30
0.0
 11
22303.436812999989
 21
13864.87563599999
 31
0.0
  0
LINE
  5
33EA
  8
2-0
  6
CONTINUOUS
 62
     6
 10
22265.620090000011
 20
13902.48747899999
 30
0.0
 11
22303.436812999989
 21
13864.87563599999
 31
0.0
  0
LINE
  5
33EB
  8
2-0
  6
CONTINUOUS
 62
     6
 10
22303.436812999989
 20
13864.87563599999
 30
0.0
 11
22397.36694900001
 21
13997.114406000001
 31
0.0
  0
LINE
  5
33EC
  8
2-0
  6
CONTINUOUS
 62
     6
 10
22397.36694900001
 20
13997.114406000001
 30
0.0
 11
22265.620090000011
 21
13902.48747899999
 31
0.0
  0
LINE
  5
33ED
  8
2-0
  6
CONTINUOUS
 62
     6
 10
22265.620090000011
 20
13902.48747899999
 30
0.0
 11
22397.36694900001
 21
13997.114406000001
 31
0.0
  0
LINE
  5
33EE
  8
2-0
  6
CONTINUOUS
 62
     6
 10
22303.436812999989
 20
13864.87563599999
 30
0.0
 11
22397.36694900001
 21
13997.114406000001
 31
0.0
  0
LINE
  5
33EF
  8
2-0
  6
CONTINUOUS
 62
     6
 10
22303.436812999989
 20
13864.87563599999
 30
0.0
 11
22265.620090000011
 21
13902.48747899999
 31
0.0
  0
LINE
  5
33F0
  8
2-0
  6
CONTINUOUS
 62
     6
 10
22328.655879000009
 20
14229.39210599999
 30
0.0
 11
22461.255910999978
 21
14135.96377799999
 31
0.0
  0
LINE
  5
33F1
  8
2-0
  6
CONTINUOUS
 62
     6
 10
22461.255910999978
 20
14135.96377799999
 30
0.0
 11
22305.523225000001
 21
14181.339292000001
 31
0.0
  0
LINE
  5
33F2
  8
2-0
  6
CONTINUOUS
 62
     6
 10
22328.655879000009
 20
14229.39210599999
 30
0.0
 11
22305.523225000001
 21
14181.339292000001
 31
0.0
  0
LINE
  5
33F3
  8
2-0
  6
CONTINUOUS
 62
     6
 10
22305.523225000001
 20
14181.339292000001
 30
0.0
 11
22461.255910999978
 21
14135.96377799999
 31
0.0
  0
LINE
  5
33F4
  8
2-0
  6
CONTINUOUS
 62
     6
 10
22461.255910999978
 20
14135.96377799999
 30
0.0
 11
22328.655879000009
 21
14229.39210599999
 31
0.0
  0
LINE
  5
33F5
  8
2-0
  6
CONTINUOUS
 62
     6
 10
22328.655879000009
 20
14229.39210599999
 30
0.0
 11
22461.255910999978
 21
14135.96377799999
 31
0.0
  0
LINE
  5
33F6
  8
2-0
  6
CONTINUOUS
 62
     6
 10
22305.523225000001
 20
14181.339292000001
 30
0.0
 11
22461.255910999978
 21
14135.96377799999
 31
0.0
  0
LINE
  5
33F7
  8
2-0
  6
CONTINUOUS
 62
     6
 10
22305.523225000001
 20
14181.339292000001
 30
0.0
 11
22328.655879000009
 21
14229.39210599999
 31
0.0
  0
LINE
  5
33F8
  8
2-0
  6
CONTINUOUS
 62
     6
 10
22388.419525000001
 20
16258.71303900002
 30
0.0
 11
22542.25781100001
 21
16310.14687000002
 31
0.0
  0
LINE
  5
33F9
  8
2-0
  6
CONTINUOUS
 62
     6
 10
22542.25781100001
 20
16310.14687000002
 30
0.0
 11
22413.42282399999
 21
16211.60643500002
 31
0.0
  0
LINE
  5
33FA
  8
2-0
  6
CONTINUOUS
 62
     6
 10
22388.419525000001
 20
16258.71303900002
 30
0.0
 11
22413.42282399999
 21
16211.60643500002
 31
0.0
  0
LINE
  5
33FB
  8
2-0
  6
CONTINUOUS
 62
     6
 10
22413.42282399999
 20
16211.60643500002
 30
0.0
 11
22542.25781100001
 21
16310.14687000002
 31
0.0
  0
LINE
  5
33FC
  8
2-0
  6
CONTINUOUS
 62
     6
 10
22542.25781100001
 20
16310.14687000002
 30
0.0
 11
22388.419525000001
 21
16258.71303900002
 31
0.0
  0
LINE
  5
33FD
  8
2-0
  6
CONTINUOUS
 62
     6
 10
22388.419525000001
 20
16258.71303900002
 30
0.0
 11
22542.25781100001
 21
16310.14687000002
 31
0.0
  0
LINE
  5
33FE
  8
2-0
  6
CONTINUOUS
 62
     6
 10
22413.42282399999
 20
16211.60643500002
 30
0.0
 11
22542.25781100001
 21
16310.14687000002
 31
0.0
  0
LINE
  5
33FF
  8
2-0
  6
CONTINUOUS
 62
     6
 10
22413.42282399999
 20
16211.60643500002
 30
0.0
 11
22388.419525000001
 21
16258.71303900002
 31
0.0
  0
LINE
  5
3400
  8
2-0
  6
CONTINUOUS
 62
     6
 10
22254.483317999999
 20
16750.031531000011
 30
0.0
 11
22397.36694900001
 21
16673.255902000001
 31
0.0
  0
LINE
  5
3401
  8
2-0
  6
CONTINUOUS
 62
     6
 10
22397.36694900001
 20
16673.255902000001
 30
0.0
 11
22237.305056000001
 21
16699.53797100002
 31
0.0
  0
LINE
  5
3402
  8
2-0
  6
CONTINUOUS
 62
     6
 10
22254.483317999999
 20
16750.031531000011
 30
0.0
 11
22237.305056000001
 21
16699.53797100002
 31
0.0
  0
LINE
  5
3403
  8
2-0
  6
CONTINUOUS
 62
     6
 10
22237.305056000001
 20
16699.53797100002
 30
0.0
 11
22397.36694900001
 21
16673.255902000001
 31
0.0
  0
LINE
  5
3404
  8
2-0
  6
CONTINUOUS
 62
     6
 10
22397.36694900001
 20
16673.255902000001
 30
0.0
 11
22254.483317999999
 21
16750.031531000011
 31
0.0
  0
LINE
  5
3405
  8
2-0
  6
CONTINUOUS
 62
     6
 10
22254.483317999999
 20
16750.031531000011
 30
0.0
 11
22397.36694900001
 21
16673.255902000001
 31
0.0
  0
LINE
  5
3406
  8
2-0
  6
CONTINUOUS
 62
     6
 10
22237.305056000001
 20
16699.53797100002
 30
0.0
 11
22397.36694900001
 21
16673.255902000001
 31
0.0
  0
LINE
  5
3407
  8
2-0
  6
CONTINUOUS
 62
     6
 10
22237.305056000001
 20
16699.53797100002
 30
0.0
 11
22254.483317999999
 21
16750.031531000011
 31
0.0
  0
LINE
  5
3408
  8
2-0
  6
CONTINUOUS
 62
     3
 10
19919.760847000001
 20
19121.755585999988
 30
0.0
 11
19919.760847000001
 21
19115.75962400002
 31
0.0
  0
LINE
  5
3409
  8
2-0
  6
CONTINUOUS
 62
     3
 10
19919.760847000001
 20
19115.75962400002
 30
0.0
 11
19889.763222000001
 21
19115.75962400002
 31
0.0
  0
LINE
  5
340A
  8
2-0
  6
CONTINUOUS
 62
     3
 10
19889.763222000001
 20
19115.75962400002
 30
0.0
 11
19889.763222000001
 21
19230.75579700002
 31
0.0
  0
LINE
  5
340B
  8
2-0
  6
CONTINUOUS
 62
     3
 10
19889.763222000001
 20
19145.759227999999
 30
0.0
 11
19970.761162999999
 21
19145.759227999999
 31
0.0
  0
LINE
  5
340C
  8
2-0
  6
CONTINUOUS
 62
     3
 10
19919.760847000001
 20
19105.462167999991
 30
0.0
 11
19889.763222000001
 21
19105.462167999991
 31
0.0
  0
LINE
  5
340D
  8
2-0
  6
CONTINUOUS
 62
     3
 10
19919.760847000001
 20
19123.463910000009
 30
0.0
 11
19919.760847000001
 21
19105.462167999991
 31
0.0
  0
LINE
  5
340E
  8
2-0
  6
CONTINUOUS
 62
     3
 10
19894.767445000001
 20
19123.463910000009
 30
0.0
 11
19919.760847000001
 21
19123.463910000009
 31
0.0
  0
LINE
  5
340F
  8
2-0
  6
CONTINUOUS
 62
     3
 10
19894.767445000001
 20
19118.455728000001
 30
0.0
 11
19894.767445000001
 21
19123.463910000009
 31
0.0
  0
LINE
  5
3410
  8
2-0
  6
CONTINUOUS
 62
     3
 10
19901.765042999981
 20
19118.455728000001
 30
0.0
 11
19894.767445000001
 21
19118.455728000001
 31
0.0
  0
LINE
  5
3411
  8
2-0
  6
CONTINUOUS
 62
     3
 10
20002.059332000001
 20
19218.755955000001
 30
0.0
 11
20002.059332000001
 21
19225.761471000009
 31
0.0
  0
LINE
  5
3412
  8
2-0
  6
CONTINUOUS
 62
     3
 10
20002.059332000001
 20
19225.761471000009
 30
0.0
 11
19997.057088000001
 21
19225.761471000009
 31
0.0
  0
LINE
  5
3413
  8
2-0
  6
CONTINUOUS
 62
     3
 10
19997.057088000001
 20
19225.761471000009
 30
0.0
 11
19997.057088000001
 21
19200.752234
 31
0.0
  0
LINE
  5
3414
  8
2-0
  6
CONTINUOUS
 62
     3
 10
19997.057088000001
 20
19200.752234
 30
0.0
 11
20015.06476899999
 21
19200.752234
 31
0.0
  0
LINE
  5
3415
  8
2-0
  6
CONTINUOUS
 62
     3
 10
20015.06476899999
 20
19200.752234
 30
0.0
 11
20015.06476899999
 21
19230.75579700002
 31
0.0
  0
LINE
  5
3416
  8
2-0
  6
CONTINUOUS
 62
     3
 10
20004.765332999999
 20
19230.75579700002
 30
0.0
 11
19889.763222000001
 21
19230.75579700002
 31
0.0
  0
LINE
  5
3417
  8
2-0
  6
CONTINUOUS
 62
     3
 10
20004.765332999999
 20
19200.752234
 30
0.0
 11
20004.765332999999
 21
19230.75579700002
 31
0.0
  0
LINE
  5
3418
  8
2-0
  6
CONTINUOUS
 62
     3
 10
19998.761454
 20
19200.752234
 30
0.0
 11
20004.765332999999
 21
19200.752234
 31
0.0
  0
LINE
  5
3419
  8
2-0
  6
CONTINUOUS
 62
     3
 10
19919.760847000001
 20
19121.755585999988
 30
0.0
 11
19919.760847000001
 21
19115.75962400002
 31
0.0
  0
LINE
  5
341A
  8
2-0
  6
CONTINUOUS
 62
     3
 10
19919.760847000001
 20
19115.75962400002
 30
0.0
 11
19889.763222000001
 21
19115.75962400002
 31
0.0
  0
LINE
  5
341B
  8
2-0
  6
CONTINUOUS
 62
     3
 10
19889.763222000001
 20
19115.75962400002
 30
0.0
 11
19889.763222000001
 21
19230.75579700002
 31
0.0
  0
LINE
  5
341C
  8
2-0
  6
CONTINUOUS
 62
     3
 10
19889.763222000001
 20
19145.759227999999
 30
0.0
 11
19970.761162999999
 21
19145.759227999999
 31
0.0
  0
LINE
  5
341D
  8
2-0
  6
CONTINUOUS
 62
     3
 10
19919.760847000001
 20
19105.462167999991
 30
0.0
 11
19889.763222000001
 21
19105.462167999991
 31
0.0
  0
LINE
  5
341E
  8
2-0
  6
CONTINUOUS
 62
     3
 10
19919.760847000001
 20
19123.463910000009
 30
0.0
 11
19919.760847000001
 21
19105.462167999991
 31
0.0
  0
LINE
  5
341F
  8
2-0
  6
CONTINUOUS
 62
     3
 10
19894.767445000001
 20
19123.463910000009
 30
0.0
 11
19919.760847000001
 21
19123.463910000009
 31
0.0
  0
LINE
  5
3420
  8
2-0
  6
CONTINUOUS
 62
     3
 10
19894.767445000001
 20
19118.455728000001
 30
0.0
 11
19894.767445000001
 21
19123.463910000009
 31
0.0
  0
LINE
  5
3421
  8
2-0
  6
CONTINUOUS
 62
     3
 10
19901.765042999981
 20
19118.455728000001
 30
0.0
 11
19894.767445000001
 21
19118.455728000001
 31
0.0
  0
LINE
  5
3422
  8
2-0
  6
CONTINUOUS
 62
     3
 10
19901.765042999981
 20
18765.158905499949
 30
0.0
 11
19894.767445000001
 21
18765.158905499949
 31
0.0
  0
LINE
  5
3423
  8
2-0
  6
CONTINUOUS
 62
     3
 10
19894.767445000001
 20
18765.158905499949
 30
0.0
 11
19894.767445000001
 21
18770.159169499992
 31
0.0
  0
LINE
  5
3424
  8
2-0
  6
CONTINUOUS
 62
     3
 10
19894.767445000001
 20
18770.159169499992
 30
0.0
 11
19919.760847000001
 21
18770.159169499992
 31
0.0
  0
LINE
  5
3425
  8
2-0
  6
CONTINUOUS
 62
     3
 10
19919.760847000001
 20
18770.159169499992
 30
0.0
 11
19919.760847000001
 21
18752.163365499979
 31
0.0
  0
LINE
  5
3426
  8
2-0
  6
CONTINUOUS
 62
     3
 10
19919.760847000001
 20
18752.163365499979
 30
0.0
 11
19889.763222000001
 21
18752.163365499979
 31
0.0
  0
LINE
  5
3427
  8
2-0
  6
CONTINUOUS
 62
     3
 10
19919.760847000001
 20
18768.254872499961
 30
0.0
 11
19919.760847000001
 21
18762.256931499989
 31
0.0
  0
LINE
  5
3428
  8
2-0
  6
CONTINUOUS
 62
     3
 10
19919.760847000001
 20
18762.256931499989
 30
0.0
 11
19889.763222000001
 21
18762.256931499989
 31
0.0
  0
LINE
  5
3429
  8
2-0
  6
CONTINUOUS
 62
     3
 10
19889.763222000001
 20
18762.256931499989
 30
0.0
 11
19889.763222000001
 21
18799.258092499978
 31
0.0
  0
LINE
  5
342A
  8
2-0
  6
CONTINUOUS
 62
     3
 10
19919.760847000001
 20
18799.258092499978
 30
0.0
 11
19889.763222000001
 21
18799.258092499978
 31
0.0
  0
LINE
  5
342B
  8
2-0
  6
CONTINUOUS
 62
     3
 10
19919.760847000001
 20
18793.254212499989
 30
0.0
 11
19919.760847000001
 21
18799.258092499978
 31
0.0
  0
LINE
  5
342C
  8
2-0
  6
CONTINUOUS
 62
     3
 10
19919.760847000001
 20
18809.35363749996
 30
0.0
 11
19889.763222000001
 21
18809.35363749996
 31
0.0
  0
LINE
  5
342D
  8
2-0
  6
CONTINUOUS
 62
     3
 10
19919.760847000001
 20
18791.3518955
 30
0.0
 11
19919.760847000001
 21
18809.35363749996
 31
0.0
  0
LINE
  5
342E
  8
2-0
  6
CONTINUOUS
 62
     3
 10
19894.767445000001
 20
18791.3518955
 30
0.0
 11
19919.760847000001
 21
18791.3518955
 31
0.0
  0
LINE
  5
342F
  8
2-0
  6
CONTINUOUS
 62
     3
 10
19894.767445000001
 20
18796.352159499991
 30
0.0
 11
19894.767445000001
 21
18791.3518955
 31
0.0
  0
LINE
  5
3430
  8
2-0
  6
CONTINUOUS
 62
     3
 10
19901.765042999981
 20
18796.352159499991
 30
0.0
 11
19894.767445000001
 21
18796.352159499991
 31
0.0
  0
LINE
  5
3431
  8
2-0
  6
CONTINUOUS
 62
     3
 10
19901.765042999981
 20
18064.157915999989
 30
0.0
 11
19894.767445000001
 21
18064.157915999989
 31
0.0
  0
LINE
  5
3432
  8
2-0
  6
CONTINUOUS
 62
     3
 10
19894.767445000001
 20
18064.157915999989
 30
0.0
 11
19894.767445000001
 21
18069.164117999979
 31
0.0
  0
LINE
  5
3433
  8
2-0
  6
CONTINUOUS
 62
     3
 10
19894.767445000001
 20
18069.164117999979
 30
0.0
 11
19919.760847000001
 21
18069.164117999979
 31
0.0
  0
LINE
  5
3434
  8
2-0
  6
CONTINUOUS
 62
     3
 10
19919.760847000001
 20
18069.164117999979
 30
0.0
 11
19919.760847000001
 21
18051.162376
 31
0.0
  0
LINE
  5
3435
  8
2-0
  6
CONTINUOUS
 62
     3
 10
19919.760847000001
 20
18051.162376
 30
0.0
 11
19889.763222000001
 21
18051.162376
 31
0.0
  0
LINE
  5
3436
  8
2-0
  6
CONTINUOUS
 62
     3
 10
19919.760847000001
 20
18067.253882999961
 30
0.0
 11
19919.760847000001
 21
18061.257920999989
 31
0.0
  0
LINE
  5
3437
  8
2-0
  6
CONTINUOUS
 62
     3
 10
19919.760847000001
 20
18061.257920999989
 30
0.0
 11
19889.763222000001
 21
18061.257920999989
 31
0.0
  0
LINE
  5
3438
  8
2-0
  6
CONTINUOUS
 62
     3
 10
19889.763222000001
 20
18061.257920999989
 30
0.0
 11
19889.763222000001
 21
18098.257102999989
 31
0.0
  0
LINE
  5
3439
  8
2-0
  6
CONTINUOUS
 62
     3
 10
19919.760847000001
 20
18098.257102999989
 30
0.0
 11
19889.763222000001
 21
18098.257102999989
 31
0.0
  0
LINE
  5
343A
  8
2-0
  6
CONTINUOUS
 62
     3
 10
19919.760847000001
 20
18092.261140999992
 30
0.0
 11
19919.760847000001
 21
18098.257102999989
 31
0.0
  0
LINE
  5
343B
  8
2-0
  6
CONTINUOUS
 62
     3
 10
19919.760847000001
 20
18108.352648
 30
0.0
 11
19889.763222000001
 21
18108.352648
 31
0.0
  0
LINE
  5
343C
  8
2-0
  6
CONTINUOUS
 62
     3
 10
19919.760847000001
 20
18090.350905999989
 30
0.0
 11
19919.760847000001
 21
18108.352648
 31
0.0
  0
LINE
  5
343D
  8
2-0
  6
CONTINUOUS
 62
     3
 10
19894.767445000001
 20
18090.350905999989
 30
0.0
 11
19919.760847000001
 21
18090.350905999989
 31
0.0
  0
LINE
  5
343E
  8
2-0
  6
CONTINUOUS
 62
     3
 10
19894.767445000001
 20
18095.357107999978
 30
0.0
 11
19894.767445000001
 21
18090.350905999989
 31
0.0
  0
LINE
  5
343F
  8
2-0
  6
CONTINUOUS
 62
     3
 10
19901.765042999981
 20
18095.357107999978
 30
0.0
 11
19894.767445000001
 21
18095.357107999978
 31
0.0
  0
LINE
  5
3440
  8
2-0
  6
CONTINUOUS
 62
     3
 10
19901.765042999981
 20
17394.351169999991
 30
0.0
 11
19894.767445000001
 21
17394.351169999991
 31
0.0
  0
LINE
  5
3441
  8
2-0
  6
CONTINUOUS
 62
     3
 10
19894.767445000001
 20
17394.351169999991
 30
0.0
 11
19894.767445000001
 21
17389.36278299999
 31
0.0
  0
LINE
  5
3442
  8
2-0
  6
CONTINUOUS
 62
     3
 10
19894.767445000001
 20
17389.36278299999
 30
0.0
 11
19919.760847000001
 21
17389.36278299999
 31
0.0
  0
LINE
  5
3443
  8
2-0
  6
CONTINUOUS
 62
     3
 10
19919.760847000001
 20
17389.36278299999
 30
0.0
 11
19919.760847000001
 21
17407.358585999991
 31
0.0
  0
LINE
  5
3444
  8
2-0
  6
CONTINUOUS
 62
     3
 10
19919.760847000001
 20
17407.358585999991
 30
0.0
 11
19889.763222000001
 21
17407.358585999991
 31
0.0
  0
LINE
  5
3445
  8
2-0
  6
CONTINUOUS
 62
     3
 10
19919.760847000001
 20
17391.261140999992
 30
0.0
 11
19919.760847000001
 21
17397.257102999989
 31
0.0
  0
LINE
  5
3446
  8
2-0
  6
CONTINUOUS
 62
     3
 10
19919.760847000001
 20
17397.257102999989
 30
0.0
 11
19889.763222000001
 21
17397.257102999989
 31
0.0
  0
LINE
  5
3447
  8
2-0
  6
CONTINUOUS
 62
     3
 10
19889.763222000001
 20
17397.257102999989
 30
0.0
 11
19889.763222000001
 21
17360.257920999989
 31
0.0
  0
LINE
  5
3448
  8
2-0
  6
CONTINUOUS
 62
     3
 10
19919.760847000001
 20
17360.257920999989
 30
0.0
 11
19889.763222000001
 21
17360.257920999989
 31
0.0
  0
LINE
  5
3449
  8
2-0
  6
CONTINUOUS
 62
     3
 10
19919.760847000001
 20
17366.259821999982
 30
0.0
 11
19919.760847000001
 21
17360.257920999989
 31
0.0
  0
LINE
  5
344A
  8
2-0
  6
CONTINUOUS
 62
     3
 10
19919.760847000001
 20
17350.168314999992
 30
0.0
 11
19889.763222000001
 21
17350.168314999992
 31
0.0
  0
LINE
  5
344B
  8
2-0
  6
CONTINUOUS
 62
     3
 10
19919.760847000001
 20
17368.16411799999
 30
0.0
 11
19919.760847000001
 21
17350.168314999992
 31
0.0
  0
LINE
  5
344C
  8
2-0
  6
CONTINUOUS
 62
     3
 10
19894.767445000001
 20
17368.16411799999
 30
0.0
 11
19919.760847000001
 21
17368.16411799999
 31
0.0
  0
LINE
  5
344D
  8
2-0
  6
CONTINUOUS
 62
     3
 10
19894.767445000001
 20
17363.163854999992
 30
0.0
 11
19894.767445000001
 21
17368.16411799999
 31
0.0
  0
LINE
  5
344E
  8
2-0
  6
CONTINUOUS
 62
     3
 10
19901.765042999981
 20
17363.163854999992
 30
0.0
 11
19894.767445000001
 21
17363.163854999992
 31
0.0
  0
LINE
  5
344F
  8
2-0
  6
CONTINUOUS
 62
     3
 10
19892.649359999999
 20
16643.25474099999
 30
0.0
 11
19892.649359999999
 21
16663.255796000001
 31
0.0
  0
LINE
  5
3450
  8
2-0
  6
CONTINUOUS
 62
     3
 10
19892.649359999999
 20
16663.255796000001
 30
0.0
 11
19977.649888
 21
16663.255796000001
 31
0.0
  0
LINE
  5
3451
  8
2-0
  6
CONTINUOUS
 62
     3
 10
19901.765042999981
 20
16689.862506000001
 30
0.0
 11
19894.767445000001
 21
16689.862506000001
 31
0.0
  0
LINE
  5
3452
  8
2-0
  6
CONTINUOUS
 62
     3
 10
19894.767445000001
 20
16689.862506000001
 30
0.0
 11
19894.767445000001
 21
16684.868180000001
 31
0.0
  0
LINE
  5
3453
  8
2-0
  6
CONTINUOUS
 62
     3
 10
19894.767445000001
 20
16684.868180000001
 30
0.0
 11
19919.760847000001
 21
16684.868180000001
 31
0.0
  0
LINE
  5
3454
  8
2-0
  6
CONTINUOUS
 62
     3
 10
19919.760847000001
 20
16684.868180000001
 30
0.0
 11
19919.760847000001
 21
16702.863984
 31
0.0
  0
LINE
  5
3455
  8
2-0
  6
CONTINUOUS
 62
     3
 10
19919.760847000001
 20
16702.863984
 30
0.0
 11
19889.763222000001
 21
16702.863984
 31
0.0
  0
LINE
  5
3456
  8
2-0
  6
CONTINUOUS
 62
     3
 10
19919.760847000001
 20
16693.255399999991
 30
0.0
 11
19919.760847000001
 21
16687.253499999992
 31
0.0
  0
LINE
  5
3457
  8
2-0
  6
CONTINUOUS
 62
     3
 10
19889.763222000001
 20
16693.255399999991
 30
0.0
 11
19919.760847000001
 21
16693.255399999991
 31
0.0
  0
LINE
  5
3458
  8
2-0
  6
CONTINUOUS
 62
     3
 10
19889.763222000001
 20
16702.863984
 30
0.0
 11
19889.763222000001
 21
17350.168314999992
 31
0.0
  0
LINE
  5
3459
  8
2-0
  6
CONTINUOUS
 62
     3
 10
19889.763222000001
 20
17407.358585999991
 30
0.0
 11
19889.763222000001
 21
18051.162376
 31
0.0
  0
LINE
  5
345A
  8
2-0
  6
CONTINUOUS
 62
     3
 10
19889.763222000001
 20
16548.253685
 30
0.0
 11
19919.760847000001
 21
16548.253685
 31
0.0
  0
LINE
  5
345B
  8
2-0
  6
CONTINUOUS
 62
     3
 10
19919.760847000001
 20
16548.253685
 30
0.0
 11
19919.760847000001
 21
16554.255584999992
 31
0.0
  0
LINE
  5
345C
  8
2-0
  6
CONTINUOUS
 62
     3
 10
19977.649888
 20
16578.259227999999
 30
0.0
 11
19892.649359999999
 21
16578.259227999999
 31
0.0
  0
LINE
  5
345D
  8
2-0
  6
CONTINUOUS
 62
     3
 10
19892.649359999999
 20
16578.259227999999
 30
0.0
 11
19892.649359999999
 21
16598.254345000001
 31
0.0
  0
LINE
  5
345E
  8
2-0
  6
CONTINUOUS
 62
     3
 10
19919.760847000001
 20
16538.64510200001
 30
0.0
 11
19889.763222000001
 21
16538.64510200001
 31
0.0
  0
LINE
  5
345F
  8
2-0
  6
CONTINUOUS
 62
     3
 10
19919.760847000001
 20
16556.640904999989
 30
0.0
 11
19919.760847000001
 21
16538.64510200001
 31
0.0
  0
LINE
  5
3460
  8
2-0
  6
CONTINUOUS
 62
     3
 10
19894.767445000001
 20
16556.640904999989
 30
0.0
 11
19919.760847000001
 21
16556.640904999989
 31
0.0
  0
LINE
  5
3461
  8
2-0
  6
CONTINUOUS
 62
     3
 10
19894.767445000001
 20
16551.640641000002
 30
0.0
 11
19894.767445000001
 21
16556.640904999989
 31
0.0
  0
LINE
  5
3462
  8
2-0
  6
CONTINUOUS
 62
     3
 10
19901.765042999981
 20
16551.640641000002
 30
0.0
 11
19894.767445000001
 21
16551.640641000002
 31
0.0
  0
LINE
  5
3463
  8
2-0
  6
CONTINUOUS
 62
     3
 10
19901.765042999981
 20
15847.15841049998
 30
0.0
 11
19894.767445000001
 21
15847.15841049998
 31
0.0
  0
LINE
  5
3464
  8
2-0
  6
CONTINUOUS
 62
     3
 10
19894.767445000001
 20
15847.15841049998
 30
0.0
 11
19894.767445000001
 21
15852.15867449998
 31
0.0
  0
LINE
  5
3465
  8
2-0
  6
CONTINUOUS
 62
     3
 10
19894.767445000001
 20
15852.15867449998
 30
0.0
 11
19919.760847000001
 21
15852.15867449998
 31
0.0
  0
LINE
  5
3466
  8
2-0
  6
CONTINUOUS
 62
     3
 10
19919.760847000001
 20
15852.15867449998
 30
0.0
 11
19919.760847000001
 21
15834.15693249998
 31
0.0
  0
LINE
  5
3467
  8
2-0
  6
CONTINUOUS
 62
     3
 10
19919.760847000001
 20
15834.15693249998
 30
0.0
 11
19889.763222000001
 21
15834.15693249998
 31
0.0
  0
LINE
  5
3468
  8
2-0
  6
CONTINUOUS
 62
     3
 10
19919.760847000001
 20
15850.25437749999
 30
0.0
 11
19919.760847000001
 21
15844.257426499989
 31
0.0
  0
LINE
  5
3469
  8
2-0
  6
CONTINUOUS
 62
     3
 10
19919.760847000001
 20
15844.257426499989
 30
0.0
 11
19889.763222000001
 21
15844.257426499989
 31
0.0
  0
LINE
  5
346A
  8
2-0
  6
CONTINUOUS
 62
     3
 10
19889.763222000001
 20
15844.257426499989
 30
0.0
 11
19889.763222000001
 21
15881.2575975
 31
0.0
  0
LINE
  5
346B
  8
2-0
  6
CONTINUOUS
 62
     3
 10
19919.760847000001
 20
15881.2575975
 30
0.0
 11
19889.763222000001
 21
15881.2575975
 31
0.0
  0
LINE
  5
346C
  8
2-0
  6
CONTINUOUS
 62
     3
 10
19919.760847000001
 20
15875.254707499989
 30
0.0
 11
19919.760847000001
 21
15881.2575975
 31
0.0
  0
LINE
  5
346D
  8
2-0
  6
CONTINUOUS
 62
     3
 10
19919.760847000001
 20
15891.3531425
 30
0.0
 11
19889.763222000001
 21
15891.3531425
 31
0.0
  0
LINE
  5
346E
  8
2-0
  6
CONTINUOUS
 62
     3
 10
19919.760847000001
 20
15873.34546149999
 30
0.0
 11
19919.760847000001
 21
15891.3531425
 31
0.0
  0
LINE
  5
346F
  8
2-0
  6
CONTINUOUS
 62
     3
 10
19894.767445000001
 20
15873.34546149999
 30
0.0
 11
19919.760847000001
 21
15873.34546149999
 31
0.0
  0
LINE
  5
3470
  8
2-0
  6
CONTINUOUS
 62
     3
 10
19894.767445000001
 20
15878.3516645
 30
0.0
 11
19894.767445000001
 21
15873.34546149999
 31
0.0
  0
LINE
  5
3471
  8
2-0
  6
CONTINUOUS
 62
     3
 10
19901.765042999981
 20
15878.3516645
 30
0.0
 11
19894.767445000001
 21
15878.3516645
 31
0.0
  0
LINE
  5
3472
  8
2-0
  6
CONTINUOUS
 62
     3
 10
19901.765042999981
 20
15177.591681000011
 30
0.0
 11
19894.767445000001
 21
15177.591681000011
 31
0.0
  0
LINE
  5
3473
  8
2-0
  6
CONTINUOUS
 62
     3
 10
19894.767445000001
 20
15177.591681000011
 30
0.0
 11
19894.767445000001
 21
15172.597356
 31
0.0
  0
LINE
  5
3474
  8
2-0
  6
CONTINUOUS
 62
     3
 10
19894.767445000001
 20
15172.597356
 30
0.0
 11
19919.760847000001
 21
15172.597356
 31
0.0
  0
LINE
  5
3475
  8
2-0
  6
CONTINUOUS
 62
     3
 10
19919.760847000001
 20
15172.597356
 30
0.0
 11
19919.760847000001
 21
15190.593159
 31
0.0
  0
LINE
  5
3476
  8
2-0
  6
CONTINUOUS
 62
     3
 10
19919.760847000001
 20
15190.593159
 30
0.0
 11
19889.763222000001
 21
15190.593159
 31
0.0
  0
LINE
  5
3477
  8
2-0
  6
CONTINUOUS
 62
     3
 10
19919.760847000001
 20
15174.495714000001
 30
0.0
 11
19919.760847000001
 21
15180.497614000011
 31
0.0
  0
LINE
  5
3478
  8
2-0
  6
CONTINUOUS
 62
     3
 10
19919.760847000001
 20
15180.497614000011
 30
0.0
 11
19889.763222000001
 21
15180.497614000011
 31
0.0
  0
LINE
  5
3479
  8
2-0
  6
CONTINUOUS
 62
     3
 10
19889.763222000001
 20
15143.49843300001
 30
0.0
 11
19889.763222000001
 21
15180.497614000011
 31
0.0
  0
LINE
  5
347A
  8
2-0
  6
CONTINUOUS
 62
     3
 10
19919.760847000001
 20
15143.49843300001
 30
0.0
 11
19889.763222000001
 21
15143.49843300001
 31
0.0
  0
LINE
  5
347B
  8
2-0
  6
CONTINUOUS
 62
     3
 10
19919.760847000001
 20
15149.495383999991
 30
0.0
 11
19919.760847000001
 21
15143.49843300001
 31
0.0
  0
LINE
  5
347C
  8
2-0
  6
CONTINUOUS
 62
     3
 10
19919.760847000001
 20
15133.396949
 30
0.0
 11
19889.763222000001
 21
15133.396949
 31
0.0
  0
LINE
  5
347D
  8
2-0
  6
CONTINUOUS
 62
     3
 10
19919.760847000001
 20
15151.404630000001
 30
0.0
 11
19919.760847000001
 21
15133.396949
 31
0.0
  0
LINE
  5
347E
  8
2-0
  6
CONTINUOUS
 62
     3
 10
19894.767445000001
 20
15151.404630000001
 30
0.0
 11
19919.760847000001
 21
15151.404630000001
 31
0.0
  0
LINE
  5
347F
  8
2-0
  6
CONTINUOUS
 62
     3
 10
19894.767445000001
 20
15146.40436600001
 30
0.0
 11
19894.767445000001
 21
15151.404630000001
 31
0.0
  0
LINE
  5
3480
  8
2-0
  6
CONTINUOUS
 62
     3
 10
19901.765042999981
 20
15146.40436600001
 30
0.0
 11
19894.767445000001
 21
15146.40436600001
 31
0.0
  0
LINE
  5
3481
  8
2-0
  6
CONTINUOUS
 62
     3
 10
19889.763222000001
 20
16538.64510200001
 30
0.0
 11
19889.763222000001
 21
15891.3531425
 31
0.0
  0
LINE
  5
3482
  8
2-0
  6
CONTINUOUS
 62
     3
 10
19889.763222000001
 20
16693.255399999991
 30
0.0
 11
19889.763222000001
 21
16548.253685
 31
0.0
  0
LINE
  5
3483
  8
2-0
  6
CONTINUOUS
 62
     3
 10
19977.649888
 20
16663.255796000001
 30
0.0
 11
19977.649888
 21
16578.259227999999
 31
0.0
  0
LINE
  5
3484
  8
2-0
  6
CONTINUOUS
 62
     3
 10
19901.765042999981
 20
14445.163359
 30
0.0
 11
19894.767445000001
 21
14445.163359
 31
0.0
  0
LINE
  5
3485
  8
2-0
  6
CONTINUOUS
 62
     3
 10
19894.767445000001
 20
14445.163359
 30
0.0
 11
19894.767445000001
 21
14450.157685
 31
0.0
  0
LINE
  5
3486
  8
2-0
  6
CONTINUOUS
 62
     3
 10
19894.767445000001
 20
14450.157685
 30
0.0
 11
19919.760847000001
 21
14450.157685
 31
0.0
  0
LINE
  5
3487
  8
2-0
  6
CONTINUOUS
 62
     3
 10
19919.760847000001
 20
14450.157685
 30
0.0
 11
19919.760847000001
 21
14432.161881
 31
0.0
  0
LINE
  5
3488
  8
2-0
  6
CONTINUOUS
 62
     3
 10
19919.760847000001
 20
14432.161881
 30
0.0
 11
19889.763222000001
 21
14432.161881
 31
0.0
  0
LINE
  5
3489
  8
2-0
  6
CONTINUOUS
 62
     3
 10
19919.760847000001
 20
14448.260316000011
 30
0.0
 11
19919.760847000001
 21
14442.257426
 31
0.0
  0
LINE
  5
348A
  8
2-0
  6
CONTINUOUS
 62
     3
 10
19919.760847000001
 20
14442.257426
 30
0.0
 11
19889.763222000001
 21
14442.257426
 31
0.0
  0
LINE
  5
348B
  8
2-0
  6
CONTINUOUS
 62
     3
 10
19889.763222000001
 20
14442.257426
 30
0.0
 11
19889.763222000001
 21
14479.25759799998
 31
0.0
  0
LINE
  5
348C
  8
2-0
  6
CONTINUOUS
 62
     3
 10
19919.760847000001
 20
14479.25759799998
 30
0.0
 11
19889.763222000001
 21
14479.25759799998
 31
0.0
  0
LINE
  5
348D
  8
2-0
  6
CONTINUOUS
 62
     3
 10
19919.760847000001
 20
14473.260646000001
 30
0.0
 11
19919.760847000001
 21
14479.25759799998
 31
0.0
  0
LINE
  5
348E
  8
2-0
  6
CONTINUOUS
 62
     3
 10
19919.760847000001
 20
14489.358091
 30
0.0
 11
19889.763222000001
 21
14489.358091
 31
0.0
  0
LINE
  5
348F
  8
2-0
  6
CONTINUOUS
 62
     3
 10
19919.760847000001
 20
14471.35140000001
 30
0.0
 11
19919.760847000001
 21
14489.358091
 31
0.0
  0
LINE
  5
3490
  8
2-0
  6
CONTINUOUS
 62
     3
 10
19894.767445000001
 20
14471.35140000001
 30
0.0
 11
19919.760847000001
 21
14471.35140000001
 31
0.0
  0
LINE
  5
3491
  8
2-0
  6
CONTINUOUS
 62
     3
 10
19894.767445000001
 20
14476.356613000011
 30
0.0
 11
19894.767445000001
 21
14471.35140000001
 31
0.0
  0
LINE
  5
3492
  8
2-0
  6
CONTINUOUS
 62
     3
 10
19901.765042999981
 20
14476.356613000011
 30
0.0
 11
19894.767445000001
 21
14476.356613000011
 31
0.0
  0
LINE
  5
3493
  8
2-0
  6
CONTINUOUS
 62
     3
 10
19919.760847000001
 20
14119.75943899999
 30
0.0
 11
19919.760847000001
 21
14125.764308
 31
0.0
  0
LINE
  5
3494
  8
2-0
  6
CONTINUOUS
 62
     3
 10
19919.760847000001
 20
14125.764308
 30
0.0
 11
19889.763222000001
 21
14125.764308
 31
0.0
  0
LINE
  5
3495
  8
2-0
  6
CONTINUOUS
 62
     3
 10
19889.763222000001
 20
14125.764308
 30
0.0
 11
19889.763222000001
 21
14010.76021699999
 31
0.0
  0
LINE
  5
3496
  8
2-0
  6
CONTINUOUS
 62
     3
 10
19889.763222000001
 20
14010.76021699999
 30
0.0
 11
19974.761770000001
 21
14010.76021699999
 31
0.0
  0
LINE
  5
3497
  8
2-0
  6
CONTINUOUS
 62
     3
 10
19974.761770000001
 20
14010.76021699999
 30
0.0
 11
19974.761770000001
 21
14095.755795999999
 31
0.0
  0
LINE
  5
3498
  8
2-0
  6
CONTINUOUS
 62
     3
 10
19974.761770000001
 20
14095.755795999999
 30
0.0
 11
19942.76483199999
 21
14095.755795999999
 31
0.0
  0
LINE
  5
3499
  8
2-0
  6
CONTINUOUS
 62
     3
 10
19901.765042999981
 20
14122.79404099999
 30
0.0
 11
19894.767445000001
 21
14122.79404099999
 31
0.0
  0
LINE
  5
349A
  8
2-0
  6
CONTINUOUS
 62
     3
 10
19894.767445000001
 20
14122.79404099999
 30
0.0
 11
19894.767445000001
 21
14117.79674599998
 31
0.0
  0
LINE
  5
349B
  8
2-0
  6
CONTINUOUS
 62
     3
 10
19894.767445000001
 20
14117.79674599998
 30
0.0
 11
19919.760847000001
 21
14117.79674599998
 31
0.0
  0
LINE
  5
349C
  8
2-0
  6
CONTINUOUS
 62
     3
 10
19919.760847000001
 20
14117.79674599998
 30
0.0
 11
19919.760847000001
 21
14135.795518999999
 31
0.0
  0
LINE
  5
349D
  8
2-0
  6
CONTINUOUS
 62
     3
 10
19919.760847000001
 20
14135.795518999999
 30
0.0
 11
19889.763222000001
 21
14135.795518999999
 31
0.0
  0
LINE
  5
349E
  8
2-0
  6
CONTINUOUS
 62
     3
 10
19889.763222000001
 20
14489.358091
 30
0.0
 11
19889.763222000001
 21
15133.396949
 31
0.0
  0
LINE
  5
349F
  8
2-0
  6
CONTINUOUS
 62
     3
 10
19889.763222000001
 20
18108.352648
 30
0.0
 11
19889.763222000001
 21
18752.163365499979
 31
0.0
  0
LINE
  5
34A0
  8
2-0
  6
CONTINUOUS
 62
     3
 10
19889.763222000001
 20
15834.15693249998
 30
0.0
 11
19889.763222000001
 21
15190.593159
 31
0.0
  0
LINE
  5
34A1
  8
2-0
  6
CONTINUOUS
 62
     3
 10
22542.25781100001
 20
19115.75962400002
 30
0.0
 11
22542.25781100001
 21
19230.75579700002
 31
0.0
  0
LINE
  5
34A2
  8
2-0
  6
CENTER2
 62
     6
 10
18602.804950000009
 20
19188.257511999989
 30
0.0
 11
23392.25913100001
 21
19188.257511999989
 31
0.0
  0
LINE
  5
34A3
  8
2-0
  6
CENTER2
 62
     6
 10
18602.804950000009
 20
16620.757511999989
 30
0.0
 11
23392.25913100001
 21
16620.757511999989
 31
0.0
  0
LINE
  5
34A4
  8
2-0
  6
CENTER2
 62
     6
 10
18602.804950000009
 20
14053.257512
 30
0.0
 11
23392.25913100001
 21
14053.257512
 31
0.0
  0
LINE
  5
34A5
  8
2-0
  6
CONTINUOUS
 62
     3
 10
19889.763222000001
 20
19145.759227999999
 30
0.0
 11
22461.255910999978
 21
19145.759227999999
 31
0.0
  0
LINE
  5
34A6
  8
2-0
  6
CONTINUOUS
 62
     3
 10
19889.763222000001
 20
14135.795518999999
 30
0.0
 11
19889.763222000001
 21
14432.161881
 31
0.0
  0
LINE
  5
34A7
  8
2-0
  6
CENTER2
 62
     6
 10
19932.259526999998
 20
20430.75579700002
 30
0.0
 11
19932.259526999998
 21
13427.494077999991
 31
0.0
  0
LINE
  5
34A8
  8
2-0
  6
CENTER2
 62
     6
 10
22499.759527000009
 20
20430.75579700002
 30
0.0
 11
22499.759527000009
 21
13427.494077999991
 31
0.0
  0
LINE
  5
34A9
  8
2-0
  6
CONTINUOUS
 62
     3
 10
22542.25781100001
 20
19105.462167999991
 30
0.0
 11
22542.25781100001
 21
18809.353637499989
 31
0.0
  0
LINE
  5
34AA
  8
2-0
  6
CONTINUOUS
 62
     3
 10
19889.763222000001
 20
19105.462167999991
 30
0.0
 11
19889.763222000001
 21
18809.35363749996
 31
0.0
  0
LINE
  5
34AB
  8
2-0
  6
CONTINUOUS
 62
     3
 10
19970.761162999999
 20
14095.755795999999
 30
0.0
 11
19970.761162999999
 21
19230.75579700002
 31
0.0
  0
LINE
  5
34AC
  8
2-0
  6
CONTINUOUS
 62
     3
 10
22461.255910999978
 20
14095.755795999999
 30
0.0
 11
22461.255910999978
 21
19230.75579700002
 31
0.0
  0
CIRCLE
  5
34AD
  8
2-0
  6
CONTINUOUS
 62
     4
 10
18402.807260000009
 20
19188.257511999989
 30
0.0
 40
200.00001
  0
CIRCLE
  5
34AE
  8
2-0
  6
CONTINUOUS
 62
     4
 10
18402.807260000009
 20
16620.757511999989
 30
0.0
 40
200.00001
  0
CIRCLE
  5
34AF
  8
2-0
  6
CONTINUOUS
 62
     4
 10
18402.807260000009
 20
14053.257512
 30
0.0
 40
200.00001
  0
CIRCLE
  5
34B0
  8
2-0
  6
CONTINUOUS
 62
     4
 10
19932.259526999998
 20
20630.760416000008
 30
0.0
 40
200.00001
  0
TEXT
  5
34B1
  8
2-0
  6
CONTINUOUS
 62
     7
 10
20896.604834000002
 20
13493.258634
 30
0.0
 40
160.0
  1
前柱（右）
 50
0.000213
 72
     4
 11
21312.604536593019
 21
13573.260180500791
 31
0.0
  0
TEXT
  5
34B2
  8
2-0
  6
CONTINUOUS
 62
     7
 10
21101.19995699999
 20
16071.250650000011
 30
0.0
 40
160.0
  1
壁パネル
 50
359.99982299999999
 72
     4
 11
21463.866870803551
 21
16151.24952963788
 31
0.0
  0
TEXT
  5
34B3
  8
2-0
  6
CONTINUOUS
 62
     7
 10
20821.197052999989
 20
16908.438546000009
 30
0.0
 40
160.0
  1
中柱（左右）
 50
0.000354
 72
     4
 11
21338.529892046208
 21
16988.44174232466
 31
0.0
  0
TEXT
  5
34B4
  8
2-0
  6
CONTINUOUS
 62
     7
 10
21501.199296999981
 20
14466.299899999991
 30
0.0
 40
160.0
  1
下枠
 50
0.001063
 72
     4
 11
21671.86447940928
 21
14546.30306633928
 31
0.0
  0
TEXT
  5
34B5
  8
2-0
  6
CONTINUOUS
 62
     7
 10
20996.164721000019
 20
18511.707284499978
 30
0.0
 40
160.0
  1
間柱（側）
 72
     4
 11
21417.498054333351
 21
18591.707284499978
 31
0.0
  0
TEXT
  5
34B6
  8
2-0
  6
CONTINUOUS
 62
     7
 10
23314.75504
 20
20040.755004999992
 30
0.0
 40
160.0
  1
後柱（左右）
 50
0.000354
 72
     4
 11
23826.754545712982
 21
20120.758168372831
 31
0.0
  0
TEXT
  5
34B7
  8
2-0
  6
CONTINUOUS
 62
     7
 10
18354.807892999979
 20
19093.777070000011
 30
0.0
 40
160.0
  1
C
 72
     4
 11
18408.141226333311
 21
19173.777070000011
 31
0.0
  0
TEXT
  5
34B8
  8
2-0
  6
CONTINUOUS
 62
     7
 10
18355.028609000001
 20
16550.363430000009
 30
0.0
 40
160.0
  1
B
 72
     4
 11
18408.361942333329
 21
16630.363430000009
 31
0.0
  0
TEXT
  5
34B9
  8
2-0
  6
CONTINUOUS
 62
     7
 10
18355.071168999981
 20
13964.650301
 30
0.0
 40
160.0
  1
A
 72
     4
 11
18408.404502333309
 21
14044.650301
 31
0.0
  0
TEXT
  5
34BA
  8
2-0
  6
CONTINUOUS
 62
     7
 10
19888.052917999968
 20
20541.992864000022
 30
0.0
 40
160.0
  1
1
 72
     4
 11
19914.71958466664
 21
20621.992864000022
 31
0.0
  0
LINE
  5
34BB
  8
2-0
  6
CONTINUOUS
 62
     3
 10
21760.260107999991
 20
19230.75579700002
 30
0.0
 11
21723.258946000009
 21
19230.75579700002
 31
0.0
  0
LINE
  5
34BC
  8
2-0
  6
CONTINUOUS
 62
     3
 10
21760.260107999991
 20
19200.752234
 30
0.0
 11
21760.260107999991
 21
19230.75579700002
 31
0.0
  0
LINE
  5
34BD
  8
2-0
  6
CONTINUOUS
 62
     3
 10
21754.260186999989
 20
19200.752234
 30
0.0
 11
21760.260107999991
 21
19200.752234
 31
0.0
  0
LINE
  5
34BE
  8
2-0
  6
CONTINUOUS
 62
     3
 10
21770.35763200001
 20
19200.752234
 30
0.0
 11
21770.35763200001
 21
19230.75579700002
 31
0.0
  0
LINE
  5
34BF
  8
2-0
  6
CONTINUOUS
 62
     3
 10
21752.353910999998
 20
19200.752234
 30
0.0
 11
21770.35763200001
 21
19200.752234
 31
0.0
  0
LINE
  5
34C0
  8
2-0
  6
CONTINUOUS
 62
     3
 10
21752.353910999998
 20
19225.761471000009
 30
0.0
 11
21752.353910999998
 21
19200.752234
 31
0.0
  0
LINE
  5
34C1
  8
2-0
  6
CONTINUOUS
 62
     3
 10
21757.354175
 20
19225.761471000009
 30
0.0
 11
21752.353910999998
 21
19225.761471000009
 31
0.0
  0
LINE
  5
34C2
  8
2-0
  6
CONTINUOUS
 62
     3
 10
21757.354175
 20
19218.755955000001
 30
0.0
 11
21757.354175
 21
19225.761471000009
 31
0.0
  0
LINE
  5
34C3
  8
2-0
  6
CONTINUOUS
 62
     3
 10
21726.164879999989
 20
19218.755955000001
 30
0.0
 11
21726.164879999989
 21
19225.761471000009
 31
0.0
  0
LINE
  5
34C4
  8
2-0
  6
CONTINUOUS
 62
     3
 10
21726.164879999989
 20
19225.761471000009
 30
0.0
 11
21731.16514400001
 21
19225.761471000009
 31
0.0
  0
LINE
  5
34C5
  8
2-0
  6
CONTINUOUS
 62
     3
 10
21731.16514400001
 20
19225.761471000009
 30
0.0
 11
21731.16514400001
 21
19200.752234
 31
0.0
  0
LINE
  5
34C6
  8
2-0
  6
CONTINUOUS
 62
     3
 10
21731.16514400001
 20
19200.752234
 30
0.0
 11
21713.16538100001
 21
19200.752234
 31
0.0
  0
LINE
  5
34C7
  8
2-0
  6
CONTINUOUS
 62
     3
 10
21713.16538100001
 20
19200.752234
 30
0.0
 11
21713.16538100001
 21
19230.75579700002
 31
0.0
  0
LINE
  5
34C8
  8
2-0
  6
CONTINUOUS
 62
     3
 10
21729.258867
 20
19200.752234
 30
0.0
 11
21723.258946000009
 21
19200.752234
 31
0.0
  0
LINE
  5
34C9
  8
2-0
  6
CONTINUOUS
 62
     3
 10
21723.258946000009
 20
19200.752234
 30
0.0
 11
21723.258946000009
 21
19230.75579700002
 31
0.0
  0
LINE
  5
34CA
  8
2-0
  6
CONTINUOUS
 62
     3
 10
21056.349225499998
 20
19218.755955000001
 30
0.0
 11
21056.349225499998
 21
19225.761471000009
 31
0.0
  0
LINE
  5
34CB
  8
2-0
  6
CONTINUOUS
 62
     3
 10
21056.349225499998
 20
19225.761471000009
 30
0.0
 11
21051.3489615
 21
19225.761471000009
 31
0.0
  0
LINE
  5
34CC
  8
2-0
  6
CONTINUOUS
 62
     3
 10
21051.3489615
 20
19225.761471000009
 30
0.0
 11
21051.3489615
 21
19200.752234
 31
0.0
  0
LINE
  5
34CD
  8
2-0
  6
CONTINUOUS
 62
     3
 10
21051.3489615
 20
19200.752234
 30
0.0
 11
21069.354662500002
 21
19200.752234
 31
0.0
  0
LINE
  5
34CE
  8
2-0
  6
CONTINUOUS
 62
     3
 10
21069.354662500002
 20
19200.752234
 30
0.0
 11
21069.354662500002
 21
19230.75579700002
 31
0.0
  0
LINE
  5
34CF
  8
2-0
  6
CONTINUOUS
 62
     3
 10
21053.257217499991
 20
19200.752234
 30
0.0
 11
21059.259117500002
 21
19200.752234
 31
0.0
  0
LINE
  5
34D0
  8
2-0
  6
CONTINUOUS
 62
     3
 10
21059.259117500002
 20
19200.752234
 30
0.0
 11
21059.259117500002
 21
19230.75579700002
 31
0.0
  0
LINE
  5
34D1
  8
2-0
  6
CONTINUOUS
 62
     3
 10
21022.259936499991
 20
19230.75579700002
 30
0.0
 11
21059.259117500002
 21
19230.75579700002
 31
0.0
  0
LINE
  5
34D2
  8
2-0
  6
CONTINUOUS
 62
     3
 10
21022.259936499991
 20
19200.752234
 30
0.0
 11
21022.259936499991
 21
19230.75579700002
 31
0.0
  0
LINE
  5
34D3
  8
2-0
  6
CONTINUOUS
 62
     3
 10
21028.253918499999
 20
19200.752234
 30
0.0
 11
21022.259936499991
 21
19200.752234
 31
0.0
  0
LINE
  5
34D4
  8
2-0
  6
CONTINUOUS
 62
     3
 10
21012.16439150001
 20
19200.752234
 30
0.0
 11
21012.16439150001
 21
19230.75579700002
 31
0.0
  0
LINE
  5
34D5
  8
2-0
  6
CONTINUOUS
 62
     3
 10
21030.1601945
 20
19200.752234
 30
0.0
 11
21012.16439150001
 21
19200.752234
 31
0.0
  0
LINE
  5
34D6
  8
2-0
  6
CONTINUOUS
 62
     3
 10
21030.1601945
 20
19225.761471000009
 30
0.0
 11
21030.1601945
 21
19200.752234
 31
0.0
  0
LINE
  5
34D7
  8
2-0
  6
CONTINUOUS
 62
     3
 10
21025.159930500002
 20
19225.761471000009
 30
0.0
 11
21030.1601945
 21
19225.761471000009
 31
0.0
  0
LINE
  5
34D8
  8
2-0
  6
CONTINUOUS
 62
     3
 10
21025.159930500002
 20
19218.755955000001
 30
0.0
 11
21025.159930500002
 21
19225.761471000009
 31
0.0
  0
LINE
  5
34D9
  8
2-0
  6
CONTINUOUS
 62
     3
 10
21025.158941500002
 20
19218.755955000001
 30
0.0
 11
21025.158941500002
 21
19225.761471000009
 31
0.0
  0
LINE
  5
34DA
  8
2-0
  6
CONTINUOUS
 62
     3
 10
21025.158941500002
 20
19225.761471000009
 30
0.0
 11
21030.1592045
 21
19225.761471000009
 31
0.0
  0
LINE
  5
34DB
  8
2-0
  6
CONTINUOUS
 62
     3
 10
21030.1592045
 20
19225.761471000009
 30
0.0
 11
21030.1592045
 21
19200.752234
 31
0.0
  0
LINE
  5
34DC
  8
2-0
  6
CONTINUOUS
 62
     3
 10
21030.1592045
 20
19200.752234
 30
0.0
 11
21012.165381499999
 21
19200.752234
 31
0.0
  0
LINE
  5
34DD
  8
2-0
  6
CONTINUOUS
 62
     3
 10
21012.165381499999
 20
19200.752234
 30
0.0
 11
21012.165381499999
 21
19230.75579700002
 31
0.0
  0
LINE
  5
34DE
  8
2-0
  6
CONTINUOUS
 62
     3
 10
21028.256887499982
 20
19200.752234
 30
0.0
 11
21022.258946499998
 21
19200.752234
 31
0.0
  0
LINE
  5
34DF
  8
2-0
  6
CONTINUOUS
 62
     3
 10
21022.258946499998
 20
19200.752234
 30
0.0
 11
21022.258946499998
 21
19230.75579700002
 31
0.0
  0
LINE
  5
34E0
  8
2-0
  6
CONTINUOUS
 62
     3
 10
21059.260107499998
 20
19230.75579700002
 30
0.0
 11
21022.258946499998
 21
19230.75579700002
 31
0.0
  0
LINE
  5
34E1
  8
2-0
  6
CONTINUOUS
 62
     3
 10
21059.260107499998
 20
19200.752234
 30
0.0
 11
21059.260107499998
 21
19230.75579700002
 31
0.0
  0
LINE
  5
34E2
  8
2-0
  6
CONTINUOUS
 62
     3
 10
21053.254248500009
 20
19200.752234
 30
0.0
 11
21059.260107499998
 21
19200.752234
 31
0.0
  0
LINE
  5
34E3
  8
2-0
  6
CONTINUOUS
 62
     3
 10
21069.353672500009
 20
19200.752234
 30
0.0
 11
21069.353672500009
 21
19230.75579700002
 31
0.0
  0
LINE
  5
34E4
  8
2-0
  6
CONTINUOUS
 62
     3
 10
21051.3578695
 20
19200.752234
 30
0.0
 11
21069.353672500009
 21
19200.752234
 31
0.0
  0
LINE
  5
34E5
  8
2-0
  6
CONTINUOUS
 62
     3
 10
21051.3578695
 20
19225.761471000009
 30
0.0
 11
21051.3578695
 21
19200.752234
 31
0.0
  0
LINE
  5
34E6
  8
2-0
  6
CONTINUOUS
 62
     3
 10
21056.348235500001
 20
19225.761471000009
 30
0.0
 11
21051.3578695
 21
19225.761471000009
 31
0.0
  0
LINE
  5
34E7
  8
2-0
  6
CONTINUOUS
 62
     3
 10
21056.348235500001
 20
19218.755955000001
 30
0.0
 11
21056.348235500001
 21
19225.761471000009
 31
0.0
  0
LINE
  5
34E8
  8
2-0
  6
CONTINUOUS
 62
     3
 10
21069.354662500002
 20
19230.75579700002
 30
0.0
 11
21012.165381499999
 21
19230.75579700002
 31
0.0
  0
LINE
  5
34E9
  8
2-0
  6
CONTINUOUS
 62
     3
 10
20368.558553000021
 20
19230.75579700002
 30
0.0
 11
21012.16439150001
 21
19230.75579700002
 31
0.0
  0
LINE
  5
34EA
  8
2-0
  6
CONTINUOUS
 62
     3
 10
22417.64315700001
 20
19230.75579700002
 30
0.0
 11
21770.35763200001
 21
19230.75579700002
 31
0.0
  0
LINE
  5
34EB
  8
2-0
  6
CONTINUOUS
 62
     3
 10
21713.16538100001
 20
19230.75579700002
 30
0.0
 11
21069.353672500009
 21
19230.75579700002
 31
0.0
  0
LINE
  5
34EC
  8
2-0
  6
CONTINUOUS
 62
     3
 10
20355.351204999999
 20
19218.755955000001
 30
0.0
 11
20355.351204999999
 21
19225.761471000009
 31
0.0
  0
LINE
  5
34ED
  8
2-0
  6
CONTINUOUS
 62
     3
 10
20355.351204999999
 20
19225.761471000009
 30
0.0
 11
20350.35094099999
 21
19225.761471000009
 31
0.0
  0
LINE
  5
34EE
  8
2-0
  6
CONTINUOUS
 62
     3
 10
20350.35094099999
 20
19225.761471000009
 30
0.0
 11
20350.35094099999
 21
19200.752234
 31
0.0
  0
LINE
  5
34EF
  8
2-0
  6
CONTINUOUS
 62
     3
 10
20350.35094099999
 20
19200.752234
 30
0.0
 11
20368.352683000001
 21
19200.752234
 31
0.0
  0
LINE
  5
34F0
  8
2-0
  6
CONTINUOUS
 62
     3
 10
20368.352683000001
 20
19200.752234
 30
0.0
 11
20368.352683000001
 21
19230.75579700002
 31
0.0
  0
LINE
  5
34F1
  8
2-0
  6
CONTINUOUS
 62
     3
 10
20352.253258000019
 20
19200.752234
 30
0.0
 11
20358.257138000001
 21
19200.752234
 31
0.0
  0
LINE
  5
34F2
  8
2-0
  6
CONTINUOUS
 62
     3
 10
20358.257138000001
 20
19200.752234
 30
0.0
 11
20358.257138000001
 21
19230.75579700002
 31
0.0
  0
LINE
  5
34F3
  8
2-0
  6
CONTINUOUS
 62
     3
 10
20321.261915999999
 20
19230.75579700002
 30
0.0
 11
20358.257138000001
 21
19230.75579700002
 31
0.0
  0
LINE
  5
34F4
  8
2-0
  6
CONTINUOUS
 62
     3
 10
20321.261915999999
 20
19200.752234
 30
0.0
 11
20321.261915999999
 21
19230.75579700002
 31
0.0
  0
LINE
  5
34F5
  8
2-0
  6
CONTINUOUS
 62
     3
 10
20327.255897999999
 20
19200.752234
 30
0.0
 11
20321.261915999999
 21
19200.752234
 31
0.0
  0
LINE
  5
34F6
  8
2-0
  6
CONTINUOUS
 62
     3
 10
20311.16637100001
 20
19200.752234
 30
0.0
 11
20311.16637100001
 21
19230.75579700002
 31
0.0
  0
LINE
  5
34F7
  8
2-0
  6
CONTINUOUS
 62
     3
 10
20329.162174000008
 20
19200.752234
 30
0.0
 11
20311.16637100001
 21
19200.752234
 31
0.0
  0
LINE
  5
34F8
  8
2-0
  6
CONTINUOUS
 62
     3
 10
20329.162174000008
 20
19225.761471000009
 30
0.0
 11
20329.162174000008
 21
19200.752234
 31
0.0
  0
LINE
  5
34F9
  8
2-0
  6
CONTINUOUS
 62
     3
 10
20324.163890000022
 20
19225.761471000009
 30
0.0
 11
20329.162174000008
 21
19225.761471000009
 31
0.0
  0
LINE
  5
34FA
  8
2-0
  6
CONTINUOUS
 62
     3
 10
20324.163890000022
 20
19218.755955000001
 30
0.0
 11
20324.163890000022
 21
19225.761471000009
 31
0.0
  0
LINE
  5
34FB
  8
2-0
  6
CONTINUOUS
 62
     3
 10
20015.06476899999
 20
19230.75579700002
 30
0.0
 11
20311.16637100001
 21
19230.75579700002
 31
0.0
  0
LINE
  5
34FC
  8
2-0
  6
CONTINUOUS
 62
     3
 10
22542.25781100001
 20
15133.396949000011
 30
0.0
 11
22542.25781100001
 21
14489.358091
 31
0.0
  0
LINE
  5
34FD
  8
2-0
  6
CONTINUOUS
 62
     3
 10
22542.25781100001
 20
14432.161881
 30
0.0
 11
22542.25781100001
 21
14135.795518999999
 31
0.0
  0
CIRCLE
  5
34FE
  8
2-0
  6
CONTINUOUS
 62
     4
 10
22499.759527000009
 20
20630.760416000008
 30
0.0
 40
200.00001
  0
TEXT
  5
34FF
  8
2-0
  6
CONTINUOUS
 62
     7
 10
22448.127744000009
 20
20535.234787000009
 30
0.0
 40
160.0
  1
2
 72
     4
 11
22501.461077333352
 21
20615.234787000009
 31
0.0
  0
LINE
  5
3500
  8
0-6
  6
CONTINUOUS
 62
     6
 10
18154.699151999961
 20
19960.75870000002
 30
0.0
 11
19179.739401999988
 21
19960.75870000002
 31
0.0
  0
TEXT
  5
3501
  8
0-6
  6
CONTINUOUS
 62
     7
 10
18234.699415999981
 20
20040.76094400002
 30
0.0
 40
160.0
  1
間柱（後）
 72
     4
 11
18656.032749333321
 21
20120.76094400002
 31
0.0
  0
LINE
  5
3502
  8
2-0
  6
CONTINUOUS
 62
     6
 10
20186.464834272781
 20
19316.95844282605
 30
0.0
 11
19179.739401999988
 21
19960.75870000002
 31
0.0
  0
LINE
  5
3503
  8
SUNPOU
  6
CONTINUOUS
 10
9698.2599720000089
 20
19410.753421000009
 30
0.0
 11
9698.2599720000089
 21
20207.72068877846
 31
0.0
  0
LINE
  5
3504
  8
SUNPOU
  6
CONTINUOUS
 10
9698.2599720000089
 20
13860.762197
 30
0.0
 11
9698.2599720000089
 21
13185.33608118962
 31
0.0
  0
LINE
  5
36A5
  8
SUNPOU
  6
CONTINUOUS
 62
     4
 10
10542.25786800001
 20
13780.759228000001
 30
0.0
 11
10542.25786800001
 21
12601.809428
 31
0.0
  0
LINE
  5
36A6
  8
SUNPOU
  6
CONTINUOUS
 62
     4
 10
13280.758658999999
 20
13780.759228000001
 30
0.0
 11
13280.758658999999
 21
12601.809428
 31
0.0
  0
LINE
  5
36A7
  8
SUNPOU
  6
CONTINUOUS
 62
     4
 10
10542.25786800001
 20
12681.809428
 30
0.0
 11
13280.758658999999
 21
12681.809428
 31
0.0
  0
LINE
  5
36A8
  8
SUNPOU
  6
CONTINUOUS
 62
     4
 10
10542.257273999991
 20
19490.753421000009
 30
0.0
 11
10542.257273999991
 21
20040.75870000002
 31
0.0
  0
LINE
  5
36A9
  8
SUNPOU
  6
CONTINUOUS
 62
     4
 10
10627.757274
 20
19960.75870000002
 30
0.0
 11
10867.757274
 21
19960.75870000002
 31
0.0
  0
LINE
  5
36AA
  8
SUNPOU
  6
CONTINUOUS
 62
     4
 10
10542.257273999991
 20
19960.75870000002
 30
0.0
 11
10305.257273999991
 21
19960.75870000002
 31
0.0
  0
LINE
  5
36AB
  8
SUNPOU
  6
CONTINUOUS
 62
     4
 10
10627.757274
 20
19960.75870000002
 30
0.0
 11
10542.257273999991
 21
19960.75870000002
 31
0.0
  0
LINE
  5
36AC
  8
SUNPOU
  6
CONTINUOUS
 62
     4
 10
13280.757273999991
 20
19490.753421000009
 30
0.0
 11
13280.757273999991
 21
20040.75870000002
 31
0.0
  0
LINE
  5
36AD
  8
SUNPOU
  6
CONTINUOUS
 62
     4
 10
13195.257274
 20
19960.75870000002
 30
0.0
 11
12955.257274
 21
19960.75870000002
 31
0.0
  0
LINE
  5
36AE
  8
SUNPOU
  6
CONTINUOUS
 62
     4
 10
13277.757273999991
 20
19960.75870000002
 30
0.0
 11
13517.757274
 21
19960.75870000002
 31
0.0
  0
LINE
  5
36AF
  8
SUNPOU
  6
CONTINUOUS
 62
     4
 10
13195.257274
 20
19960.75870000002
 30
0.0
 11
13277.757273999991
 21
19960.75870000002
 31
0.0
  0
LINE
  5
36B0
  8
SUNPOU
  6
CONTINUOUS
 62
     4
 10
13195.257274
 20
19960.75870000002
 30
0.0
 11
10627.757274
 21
19960.75870000002
 31
0.0
  0
LINE
  5
36B1
  8
SUNPOU
  6
CONTINUOUS
 62
     4
 10
10465.25539300001
 20
13860.762197
 30
0.0
 11
9618.2599720000126
 21
13860.762197
 31
0.0
  0
LINE
  5
36B2
  8
SUNPOU
  6
CONTINUOUS
 62
     4
 10
9698.2599720000089
 20
14053.257512
 30
0.0
 11
9698.2599720000089
 21
13860.762197
 31
0.0
  0
LINE
  5
36B3
  8
SUNPOU
  6
CONTINUOUS
 62
     4
 10
9698.2599720000089
 20
16620.757511999989
 30
0.0
 11
9698.2599720000089
 21
14053.257512
 31
0.0
  0
LINE
  5
36B4
  8
SUNPOU
  6
CONTINUOUS
 62
     4
 10
10465.25539299999
 20
19400.753421000001
 30
0.0
 11
10018.259972
 21
19400.753421000001
 31
0.0
  0
LINE
  5
36B5
  8
SUNPOU
  6
CONTINUOUS
 62
     4
 10
10465.259747999989
 20
19410.753421000009
 30
0.0
 11
10018.259972
 21
19410.753421000009
 31
0.0
  0
LINE
  5
36B6
  8
SUNPOU
  6
CONTINUOUS
 62
     4
 10
10098.259972
 20
19400.753421000001
 30
0.0
 11
10098.259972
 21
19160.753421000001
 31
0.0
  0
LINE
  5
36B7
  8
SUNPOU
  6
CONTINUOUS
 62
     4
 10
10098.259972
 20
19410.753421000009
 30
0.0
 11
10098.259972
 21
19650.753421000001
 31
0.0
  0
LINE
  5
36B8
  8
SUNPOU
  6
CONTINUOUS
 62
     4
 10
10098.259972
 20
19400.753421000001
 30
0.0
 11
10098.259972
 21
19410.753421000009
 31
0.0
  0
LINE
  5
36B9
  8
SUNPOU
  6
CONTINUOUS
 62
     4
 10
10465.259747999989
 20
19410.753421000009
 30
0.0
 11
9618.2599720000126
 21
19410.753421000009
 31
0.0
  0
LINE
  5
36BA
  8
SUNPOU
  6
CONTINUOUS
 62
     4
 10
9698.2599720000089
 20
19188.257511999989
 30
0.0
 11
9698.2599720000089
 21
19410.753421000009
 31
0.0
  0
LINE
  5
36BB
  8
SUNPOU
  6
CONTINUOUS
 62
     4
 10
9698.2599720000089
 20
16620.757511999989
 30
0.0
 11
9698.2599720000089
 21
19188.257511999989
 31
0.0
  0
LINE
  5
36BC
  8
2-0
  6
CONTINUOUS
 62
     6
 10
20321.261915999999
 20
19230.75579700002
 30
0.0
 11
20172.09831022139
 21
19294.489768977
 31
0.0
  0
LINE
  5
36BD
  8
2-0
  6
CONTINUOUS
 62
     6
 10
20172.09831022139
 20
19294.489768977
 30
0.0
 11
20200.831358324162
 21
19339.42711667508
 31
0.0
  0
LINE
  5
36BE
  8
2-0
  6
CONTINUOUS
 62
     6
 10
20200.831358324162
 20
19339.42711667508
 30
0.0
 11
20321.261915999999
 21
19230.75579700002
 31
0.0
  0
LINE
  5
36BF
  8
SUNPOU
  6
CONTINUOUS
 62
     4
 10
22622.25781100001
 20
14460.87776775
 30
0.0
 11
23672.25913100001
 21
14460.87776775
 31
0.0
  0
LINE
  5
36C0
  8
SUNPOU
  6
CONTINUOUS
 62
     4
 10
23472.25913100001
 20
14053.37776775
 30
0.0
 11
23672.25913100001
 21
14053.37776775
 31
0.0
  0
LINE
  5
36C1
  8
SUNPOU
  6
CONTINUOUS
 62
     4
 10
23592.25913100001
 20
14460.87776775
 30
0.0
 11
23592.25913100001
 21
14053.37776775
 31
0.0
  0
LINE
  5
36C2
  8
SUNPOU
  6
CONTINUOUS
 62
     4
 10
22622.25781100001
 20
18780.757511999989
 30
0.0
 11
23672.25913100001
 21
18780.757511999989
 31
0.0
  0
LINE
  5
36C3
  8
SUNPOU
  6
CONTINUOUS
 62
     4
 10
23472.25913100001
 20
19188.257511999989
 30
0.0
 11
23672.25913100001
 21
19188.257511999989
 31
0.0
  0
LINE
  5
36C4
  8
SUNPOU
  6
CONTINUOUS
 62
     4
 10
23592.25913100001
 20
18780.757511999989
 30
0.0
 11
23592.25913100001
 21
19188.257511999989
 31
0.0
  0
LINE
  5
36C5
  8
SUNPOU
  6
CONTINUOUS
 62
     4
 10
19932.259526999998
 20
13347.494077999991
 30
0.0
 11
19932.259526999998
 21
13001.809428
 31
0.0
  0
LINE
  5
36C6
  8
SUNPOU
  6
CONTINUOUS
 62
     4
 10
19889.75728400001
 20
13930.76021699999
 30
0.0
 11
19889.75728400001
 21
13001.809428
 31
0.0
  0
LINE
  5
36C7
  8
SUNPOU
  6
CONTINUOUS
 62
     4
 10
19932.259526999998
 20
13081.809428
 30
0.0
 11
20172.259526999998
 21
13081.809428
 31
0.0
  0
LINE
  5
36C8
  8
SUNPOU
  6
CONTINUOUS
 62
     4
 10
19889.75728400001
 20
13081.809428
 30
0.0
 11
19649.75728400001
 21
13081.809428
 31
0.0
  0
LINE
  5
36C9
  8
SUNPOU
  6
CONTINUOUS
 62
     4
 10
19932.259526999998
 20
13081.809428
 30
0.0
 11
19889.75728400001
 21
13081.809428
 31
0.0
  0
LINE
  5
36CA
  8
SUNPOU
  6
CONTINUOUS
 62
     4
 10
22499.759527000009
 20
13347.494077999991
 30
0.0
 11
22499.759527000009
 21
13001.809428
 31
0.0
  0
LINE
  5
36CB
  8
SUNPOU
  6
CONTINUOUS
 62
     4
 10
22542.261770000001
 20
13930.76021699999
 30
0.0
 11
22542.261770000001
 21
13001.809428
 31
0.0
  0
LINE
  5
36CC
  8
SUNPOU
  6
CONTINUOUS
 62
     4
 10
22499.759527000009
 20
13081.809428
 30
0.0
 11
22259.759527000009
 21
13081.809428
 31
0.0
  0
LINE
  5
36CD
  8
SUNPOU
  6
CONTINUOUS
 62
     4
 10
22542.261770000001
 20
13081.809428
 30
0.0
 11
22782.261770000001
 21
13081.809428
 31
0.0
  0
LINE
  5
36CE
  8
SUNPOU
  6
CONTINUOUS
 62
     4
 10
22499.759527000009
 20
13081.809428
 30
0.0
 11
22542.261770000001
 21
13081.809428
 31
0.0
  0
LINE
  5
36CF
  8
SUNPOU
  6
CONTINUOUS
 62
     4
 10
22499.759527000009
 20
13347.494077999991
 30
0.0
 11
22499.759527000009
 21
13001.809428
 31
0.0
  0
LINE
  5
36D0
  8
SUNPOU
  6
CONTINUOUS
 62
     4
 10
22457.257283999999
 20
13930.76021699999
 30
0.0
 11
22457.257283999999
 21
13001.809428
 31
0.0
  0
LINE
  5
36D1
  8
SUNPOU
  6
CONTINUOUS
 62
     4
 10
22499.759527000009
 20
13081.809428
 30
0.0
 11
22739.759527000009
 21
13081.809428
 31
0.0
  0
LINE
  5
36D2
  8
SUNPOU
  6
CONTINUOUS
 62
     4
 10
22457.257283999999
 20
13081.809428
 30
0.0
 11
22217.257283999999
 21
13081.809428
 31
0.0
  0
LINE
  5
36D3
  8
SUNPOU
  6
CONTINUOUS
 62
     4
 10
22499.759527000009
 20
13081.809428
 30
0.0
 11
22457.257283999999
 21
13081.809428
 31
0.0
  0
LINE
  5
36D4
  8
SUNPOU
  6
CONTINUOUS
 62
     4
 10
19932.259526999998
 20
13347.494077999991
 30
0.0
 11
19932.259526999998
 21
13001.809428
 31
0.0
  0
LINE
  5
36D5
  8
SUNPOU
  6
CONTINUOUS
 62
     4
 10
19974.761770000001
 20
13930.76021699999
 30
0.0
 11
19974.761770000001
 21
13001.809428
 31
0.0
  0
LINE
  5
36D6
  8
SUNPOU
  6
CONTINUOUS
 62
     4
 10
19932.259526999998
 20
13081.809428
 30
0.0
 11
19692.259526999998
 21
13081.809428
 31
0.0
  0
LINE
  5
36D7
  8
SUNPOU
  6
CONTINUOUS
 62
     4
 10
19974.761770000001
 20
13081.809428
 30
0.0
 11
20214.761770000001
 21
13081.809428
 31
0.0
  0
LINE
  5
36D8
  8
SUNPOU
  6
CONTINUOUS
 62
     4
 10
19932.259526999998
 20
13081.809428
 30
0.0
 11
19974.761770000001
 21
13081.809428
 31
0.0
  0
LINE
  5
36D9
  8
SUNPOU
  6
CONTINUOUS
 62
     4
 10
19889.75728400001
 20
13930.76021699999
 30
0.0
 11
19889.75728400001
 21
12601.809428
 31
0.0
  0
LINE
  5
36DA
  8
SUNPOU
  6
CONTINUOUS
 62
     4
 10
22542.261770000001
 20
13930.76021699999
 30
0.0
 11
22542.261770000001
 21
12601.809428
 31
0.0
  0
LINE
  5
36DB
  8
SUNPOU
  6
CONTINUOUS
 62
     4
 10
19889.75728400001
 20
12681.809428
 30
0.0
 11
22542.261770000001
 21
12681.809428
 31
0.0
  0
LINE
  5
36DC
  8
SUNPOU
  6
CONTINUOUS
 62
     4
 10
22622.25781100001
 20
15161.99802350002
 30
0.0
 11
23672.25913100001
 21
15161.99802350002
 31
0.0
  0
LINE
  5
36DD
  8
SUNPOU
  6
CONTINUOUS
 62
     4
 10
22622.25781100001
 20
14460.757511999989
 30
0.0
 11
23672.25913100001
 21
14460.757511999989
 31
0.0
  0
LINE
  5
36DE
  8
SUNPOU
  6
CONTINUOUS
 62
     4
 10
23592.25913100001
 20
15161.99802350002
 30
0.0
 11
23592.25913100001
 21
14460.757511999989
 31
0.0
  0
LINE
  5
36DF
  8
SUNPOU
  6
CONTINUOUS
 62
     4
 10
22622.25781100001
 20
15862.757512
 30
0.0
 11
23672.25913100001
 21
15862.757512
 31
0.0
  0
LINE
  5
36E0
  8
SUNPOU
  6
CONTINUOUS
 62
     4
 10
22622.25781100001
 20
15161.99802350002
 30
0.0
 11
23672.25913100001
 21
15161.99802350002
 31
0.0
  0
LINE
  5
36E1
  8
SUNPOU
  6
CONTINUOUS
 62
     4
 10
23592.25913100001
 20
15862.757512
 30
0.0
 11
23592.25913100001
 21
15161.99802350002
 31
0.0
  0
LINE
  5
36E2
  8
SUNPOU
  6
CONTINUOUS
 62
     4
 10
23472.25913100001
 20
16620.757511999989
 30
0.0
 11
23672.25913100001
 21
16620.757511999989
 31
0.0
  0
LINE
  5
36E3
  8
SUNPOU
  6
CONTINUOUS
 62
     4
 10
22622.25781100001
 20
15862.757512
 30
0.0
 11
23672.25913100001
 21
15862.757512
 31
0.0
  0
LINE
  5
36E4
  8
SUNPOU
  6
CONTINUOUS
 62
     4
 10
23592.25913100001
 20
16620.757511999989
 30
0.0
 11
23592.25913100001
 21
15862.757512
 31
0.0
  0
LINE
  5
36E5
  8
SUNPOU
  6
CONTINUOUS
 62
     4
 10
22622.25781100001
 20
17378.757511999978
 30
0.0
 11
23672.25913100001
 21
17378.757511999978
 31
0.0
  0
LINE
  5
36E6
  8
SUNPOU
  6
CONTINUOUS
 62
     4
 10
23472.25913100001
 20
16620.757511999989
 30
0.0
 11
23672.25913100001
 21
16620.757511999989
 31
0.0
  0
LINE
  5
36E7
  8
SUNPOU
  6
CONTINUOUS
 62
     4
 10
23592.25913100001
 20
17378.757511999978
 30
0.0
 11
23592.25913100001
 21
16620.757511999989
 31
0.0
  0
LINE
  5
36E8
  8
SUNPOU
  6
CONTINUOUS
 62
     4
 10
22622.25781100001
 20
18079.757511999978
 30
0.0
 11
23672.25913100001
 21
18079.757511999978
 31
0.0
  0
LINE
  5
36E9
  8
SUNPOU
  6
CONTINUOUS
 62
     4
 10
22622.25781100001
 20
17378.757511999978
 30
0.0
 11
23672.25913100001
 21
17378.757511999978
 31
0.0
  0
LINE
  5
36EA
  8
SUNPOU
  6
CONTINUOUS
 62
     4
 10
23592.25913100001
 20
18079.757511999978
 30
0.0
 11
23592.25913100001
 21
17378.757511999978
 31
0.0
  0
LINE
  5
36EB
  8
SUNPOU
  6
CONTINUOUS
 62
     4
 10
22622.25781100001
 20
18780.757511999989
 30
0.0
 11
23672.25913100001
 21
18780.757511999989
 31
0.0
  0
LINE
  5
36EC
  8
SUNPOU
  6
CONTINUOUS
 62
     4
 10
22622.25781100001
 20
18079.757511999978
 30
0.0
 11
23672.25913100001
 21
18079.757511999978
 31
0.0
  0
LINE
  5
36ED
  8
SUNPOU
  6
CONTINUOUS
 62
     4
 10
23592.25913100001
 20
18780.757511999989
 30
0.0
 11
23592.25913100001
 21
18079.757511999978
 31
0.0
  0
LINE
  5
36EE
  8
SUNPOU
  6
CONTINUOUS
 62
     4
 10
23472.25913100001
 20
16620.757511999989
 30
0.0
 11
24072.259130999999
 21
16620.757511999989
 31
0.0
  0
LINE
  5
36EF
  8
SUNPOU
  6
CONTINUOUS
 62
     4
 10
23472.25913100001
 20
19188.257511999989
 30
0.0
 11
24072.259130999999
 21
19188.257511999989
 31
0.0
  0
LINE
  5
36F0
  8
SUNPOU
  6
CONTINUOUS
 62
     4
 10
23992.259130999999
 20
16620.757511999989
 30
0.0
 11
23992.259130999999
 21
19188.257511999989
 31
0.0
  0
LINE
  5
36F1
  8
SUNPOU
  6
CONTINUOUS
 62
     4
 10
23472.25913100001
 20
14053.257512
 30
0.0
 11
24072.259130999999
 21
14053.257512
 31
0.0
  0
LINE
  5
36F2
  8
SUNPOU
  6
CONTINUOUS
 62
     4
 10
23472.25913100001
 20
16620.757511999989
 30
0.0
 11
24072.259130999999
 21
16620.757511999989
 31
0.0
  0
LINE
  5
36F3
  8
SUNPOU
  6
CONTINUOUS
 62
     4
 10
23992.259130999999
 20
14053.257512
 30
0.0
 11
23992.259130999999
 21
16620.757511999989
 31
0.0
  0
LINE
  5
36F4
  8
SUNPOU
  6
CONTINUOUS
 62
     4
 10
22622.25781100001
 20
19230.754807000001
 30
0.0
 11
24472.259130999999
 21
19230.754807000001
 31
0.0
  0
LINE
  5
36F5
  8
SUNPOU
  6
CONTINUOUS
 62
     4
 10
22622.25781100001
 20
14010.76021699999
 30
0.0
 11
24472.259130999999
 21
14010.76021699999
 31
0.0
  0
LINE
  5
36F6
  8
SUNPOU
  6
CONTINUOUS
 62
     4
 10
24392.259130999999
 20
19230.754807000001
 30
0.0
 11
24392.259130999999
 21
14010.76021699999
 31
0.0
  0
LINE
  5
36F7
  8
SUNPOU
  6
CONTINUOUS
 62
     4
 10
23472.25913100001
 20
19188.257511999989
 30
0.0
 11
24072.259130999999
 21
19188.257511999989
 31
0.0
  0
LINE
  5
36F8
  8
SUNPOU
  6
CONTINUOUS
 62
     4
 10
22622.25781100001
 20
19230.754807000001
 30
0.0
 11
24072.259130999999
 21
19230.754807000001
 31
0.0
  0
LINE
  5
36F9
  8
SUNPOU
  6
CONTINUOUS
 62
     4
 10
23992.259130999999
 20
19188.257511999989
 30
0.0
 11
23992.259130999999
 21
18948.257511999989
 31
0.0
  0
LINE
  5
36FA
  8
SUNPOU
  6
CONTINUOUS
 62
     4
 10
23992.259130999999
 20
19230.754807000001
 30
0.0
 11
23992.259130999999
 21
19470.754807000001
 31
0.0
  0
LINE
  5
36FB
  8
SUNPOU
  6
CONTINUOUS
 62
     4
 10
23992.259130999999
 20
19188.257511999989
 30
0.0
 11
23992.259130999999
 21
19230.754807000001
 31
0.0
  0
LINE
  5
36FC
  8
SUNPOU
  6
CONTINUOUS
 62
     4
 10
23472.25913100001
 20
14053.257512
 30
0.0
 11
24072.259130999999
 21
14053.257512
 31
0.0
  0
LINE
  5
36FD
  8
SUNPOU
  6
CONTINUOUS
 62
     4
 10
22622.25781100001
 20
14010.76021699999
 30
0.0
 11
24072.259130999999
 21
14010.76021699999
 31
0.0
  0
LINE
  5
36FE
  8
SUNPOU
  6
CONTINUOUS
 62
     4
 10
23992.259130999999
 20
14053.257512
 30
0.0
 11
23992.259130999999
 21
14293.257512
 31
0.0
  0
LINE
  5
36FF
  8
SUNPOU
  6
CONTINUOUS
 62
     4
 10
23992.259130999999
 20
14010.76021699999
 30
0.0
 11
23992.259130999999
 21
13770.76021699999
 31
0.0
  0
LINE
  5
3700
  8
SUNPOU
  6
CONTINUOUS
 62
     4
 10
23992.259130999999
 20
14053.257512
 30
0.0
 11
23992.259130999999
 21
14010.76021699999
 31
0.0
  0
LINE
  5
3701
  8
SUNPOU
  6
CONTINUOUS
 62
     4
 10
19932.259526999998
 20
19310.75579700002
 30
0.0
 11
19932.259526999998
 21
20040.75870000002
 31
0.0
  0
LINE
  5
3702
  8
SUNPOU
  6
CONTINUOUS
 62
     4
 10
20339.759526999998
 20
19310.75579700002
 30
0.0
 11
20339.759526999998
 21
20040.75870000002
 31
0.0
  0
LINE
  5
3703
  8
SUNPOU
  6
CONTINUOUS
 62
     4
 10
19932.259526999998
 20
19960.75870000002
 30
0.0
 11
20339.759526999998
 21
19960.75870000002
 31
0.0
  0
LINE
  5
3704
  8
SUNPOU
  6
CONTINUOUS
 62
     4
 10
21741.759526999998
 20
19310.75579700002
 30
0.0
 11
21741.759526999998
 21
20040.75870000002
 31
0.0
  0
LINE
  5
3705
  8
SUNPOU
  6
CONTINUOUS
 62
     4
 10
22499.76051650002
 20
19310.75579700002
 30
0.0
 11
22499.76051650002
 21
20040.75870000002
 31
0.0
  0
LINE
  5
3706
  8
SUNPOU
  6
CONTINUOUS
 62
     4
 10
21741.759526999998
 20
19960.75870000002
 30
0.0
 11
22499.76051650002
 21
19960.75870000002
 31
0.0
  0
LINE
  5
3707
  8
SUNPOU
  6
CONTINUOUS
 62
     4
 10
21040.759526999998
 20
19310.75579700002
 30
0.0
 11
21040.759526999998
 21
20040.75870000002
 31
0.0
  0
LINE
  5
3708
  8
SUNPOU
  6
CONTINUOUS
 62
     4
 10
21741.759526999998
 20
19310.75579700002
 30
0.0
 11
21741.759526999998
 21
20040.75870000002
 31
0.0
  0
LINE
  5
3709
  8
SUNPOU
  6
CONTINUOUS
 62
     4
 10
21040.759526999998
 20
19960.75870000002
 30
0.0
 11
21741.759526999998
 21
19960.75870000002
 31
0.0
  0
LINE
  5
370A
  8
SUNPOU
  6
CONTINUOUS
 62
     4
 10
20339.759526999998
 20
19310.75579700002
 30
0.0
 11
20339.759526999998
 21
20040.75870000002
 31
0.0
  0
LINE
  5
370B
  8
SUNPOU
  6
CONTINUOUS
 62
     4
 10
21040.759526999998
 20
19310.75579700002
 30
0.0
 11
21040.759526999998
 21
20040.75870000002
 31
0.0
  0
LINE
  5
370C
  8
SUNPOU
  6
CONTINUOUS
 62
     4
 10
20339.759526999998
 20
19960.75870000002
 30
0.0
 11
21040.759526999998
 21
19960.75870000002
 31
0.0
  0
LINE
  5
370D
  8
SUNPOU
  6
CONTINUOUS
 62
     4
 10
22499.759527000009
 20
19310.75579700002
 30
0.0
 11
22499.759527000009
 21
20040.75870000002
 31
0.0
  0
LINE
  5
370E
  8
SUNPOU
  6
CONTINUOUS
 62
     4
 10
22542.255831999999
 20
19310.75579700002
 30
0.0
 11
22542.255831999999
 21
20040.75870000002
 31
0.0
  0
LINE
  5
370F
  8
SUNPOU
  6
CONTINUOUS
 62
     4
 10
22499.759527000009
 20
19960.75870000002
 30
0.0
 11
22259.759527000009
 21
19960.75870000002
 31
0.0
  0
LINE
  5
3710
  8
SUNPOU
  6
CONTINUOUS
 62
     4
 10
22542.255831999999
 20
19960.75870000002
 30
0.0
 11
22782.255831999992
 21
19960.75870000002
 31
0.0
  0
LINE
  5
3711
  8
SUNPOU
  6
CONTINUOUS
 62
     4
 10
22499.759527000009
 20
19960.75870000002
 30
0.0
 11
22542.255831999999
 21
19960.75870000002
 31
0.0
  0
LINE
  5
3712
  8
SUNPOU
  6
CONTINUOUS
 62
     4
 10
19932.259526999998
 20
19310.75579700002
 30
0.0
 11
19932.259526999998
 21
20040.75870000002
 31
0.0
  0
LINE
  5
3713
  8
SUNPOU
  6
CONTINUOUS
 62
     4
 10
19889.763222000001
 20
19310.75579700002
 30
0.0
 11
19889.763222000001
 21
20040.75870000002
 31
0.0
  0
LINE
  5
3714
  8
SUNPOU
  6
CONTINUOUS
 62
     4
 10
19932.259526999998
 20
19960.75870000002
 30
0.0
 11
20172.259526999998
 21
19960.75870000002
 31
0.0
  0
LINE
  5
3715
  8
SUNPOU
  6
CONTINUOUS
 62
     4
 10
19889.763222000001
 20
19960.75870000002
 30
0.0
 11
19649.763222000001
 21
19960.75870000002
 31
0.0
  0
LINE
  5
3716
  8
SUNPOU
  6
CONTINUOUS
 62
     4
 10
19932.259526999998
 20
19960.75870000002
 30
0.0
 11
19889.763222000001
 21
19960.75870000002
 31
0.0
  0
LINE
  5
3717
  8
SUNPOU
  6
CONTINUOUS
 62
     4
 10
14569.013606
 20
6111.4596339999998
 30
0.0
 11
15646.51202200001
 21
6111.4596339999998
 31
0.0
  0
LINE
  5
3718
  8
SUNPOU
  6
CONTINUOUS
 62
     4
 10
14661.31888559939
 20
8460.4596340000007
 30
0.0
 11
15646.51202200001
 21
8460.4596340000007
 31
0.0
  0
LINE
  5
3719
  8
SUNPOU
  6
CONTINUOUS
 62
     4
 10
15566.51202200001
 20
6111.4596339999998
 30
0.0
 11
15566.51202200001
 21
8460.4596340000007
 31
0.0
  0
LINE
  5
371A
  8
SUNPOU
  6
CONTINUOUS
 62
     4
 10
9169.0136060000114
 20
6111.4596339999998
 30
0.0
 11
8086.5132100000128
 21
6111.4596339999998
 31
0.0
  0
LINE
  5
371B
  8
SUNPOU
  6
CONTINUOUS
 62
     4
 10
8996.5136060000059
 20
8266.9596340000026
 30
0.0
 11
8086.5132100000128
 21
8266.9596340000026
 31
0.0
  0
LINE
  5
371C
  8
SUNPOU
  6
CONTINUOUS
 62
     4
 10
8166.5132100000101
 20
6111.4596339999998
 30
0.0
 11
8166.5132100000128
 21
8266.9596340000026
 31
0.0
  0
LINE
  5
371D
  8
SUNPOU
  6
CONTINUOUS
 62
     4
 10
14476.513606
 20
8406.3696970000001
 30
0.0
 11
14476.513606
 21
9339.4613089999966
 31
0.0
  0
LINE
  5
371E
  8
SUNPOU
  6
CONTINUOUS
 62
     4
 10
14626.51360600001
 20
8480.3494564124285
 30
0.0
 11
14626.51360600001
 21
9339.4613089999966
 31
0.0
  0
LINE
  5
371F
  8
SUNPOU
  6
CONTINUOUS
 62
     4
 10
14476.513606
 20
9259.4613089999966
 30
0.0
 11
14236.513606
 21
9259.4613089999966
 31
0.0
  0
LINE
  5
3720
  8
SUNPOU
  6
CONTINUOUS
 62
     4
 10
14626.51360600001
 20
9259.4613089999966
 30
0.0
 11
14866.513606
 21
9259.4613089999966
 31
0.0
  0
LINE
  5
3721
  8
SUNPOU
  6
CONTINUOUS
 62
     4
 10
14476.513606
 20
9259.4613089999966
 30
0.0
 11
14626.51360600001
 21
9259.4613089999966
 31
0.0
  0
LINE
  5
3722
  8
SUNPOU
  6
CONTINUOUS
 62
     4
 10
9076.5136060000114
 20
8348.4596330000004
 30
0.0
 11
9076.5136060000114
 21
9739.4596589999965
 31
0.0
  0
LINE
  5
3723
  8
SUNPOU
  6
CONTINUOUS
 62
     4
 10
14626.51360600001
 20
8480.3494564124285
 30
0.0
 11
14626.51360600001
 21
9739.4596589999965
 31
0.0
  0
LINE
  5
3724
  8
SUNPOU
  6
CONTINUOUS
 62
     4
 10
9076.5136060000114
 20
9659.4596589999965
 30
0.0
 11
14626.51360600001
 21
9659.4596589999965
 31
0.0
  0
LINE
  5
3725
  8
SUNPOU
  6
CONTINUOUS
 62
     4
 10
9256.5136060000114
 20
8218.6454086838057
 30
0.0
 11
9256.5136060000114
 21
9339.4613089999966
 31
0.0
  0
LINE
  5
3726
  8
SUNPOU
  6
CONTINUOUS
 62
     4
 10
14476.513606
 20
8406.3696970000001
 30
0.0
 11
14476.513606
 21
9339.4613089999966
 31
0.0
  0
LINE
  5
3727
  8
SUNPOU
  6
CONTINUOUS
 62
     4
 10
9256.5136060000114
 20
9259.4613089999966
 30
0.0
 11
14476.513606
 21
9259.4613089999966
 31
0.0
  0
LINE
  5
3728
  8
SUNPOU
  6
CONTINUOUS
 62
     4
 10
9076.5136060000114
 20
8348.4596330000004
 30
0.0
 11
9076.5136060000114
 21
9339.4613089999966
 31
0.0
  0
LINE
  5
3729
  8
SUNPOU
  6
CONTINUOUS
 62
     4
 10
9256.5136060000114
 20
8218.6454086838057
 30
0.0
 11
9256.5136060000114
 21
9339.4613089999966
 31
0.0
  0
LINE
  5
372A
  8
SUNPOU
  6
CONTINUOUS
 62
     4
 10
9076.5136060000114
 20
9259.4613089999966
 30
0.0
 11
9256.5136060000114
 21
9259.4613089999966
 31
0.0
  0
LINE
  5
372B
  8
SUNPOU
  6
CONTINUOUS
 62
     4
 10
14434.011627
 20
5668.8073749999958
 30
0.0
 11
14434.011627
 21
4731.4597979999953
 31
0.0
  0
LINE
  5
372C
  8
SUNPOU
  6
CONTINUOUS
 62
     4
 10
14476.511627000011
 20
6031.4596329999977
 30
0.0
 11
14476.511627000011
 21
4731.4597979999953
 31
0.0
  0
LINE
  5
372D
  8
SUNPOU
  6
CONTINUOUS
 62
     4
 10
14434.011627
 20
4811.4597979999962
 30
0.0
 11
14194.011627
 21
4811.4597979999962
 31
0.0
  0
LINE
  5
372E
  8
SUNPOU
  6
CONTINUOUS
 62
     4
 10
14476.511627000011
 20
4811.4597979999962
 30
0.0
 11
14716.511627000011
 21
4811.4597979999962
 31
0.0
  0
LINE
  5
372F
  8
SUNPOU
  6
CONTINUOUS
 62
     4
 10
14434.011627
 20
4811.4597979999962
 30
0.0
 11
14476.511627000011
 21
4811.4597979999962
 31
0.0
  0
LINE
  5
3730
  8
SUNPOU
  6
CONTINUOUS
 62
     4
 10
11866.51360600001
 20
5668.8063859999993
 30
0.0
 11
11866.51360600001
 21
4731.4597990000002
 31
0.0
  0
LINE
  5
3731
  8
SUNPOU
  6
CONTINUOUS
 62
     4
 10
14434.01360600001
 20
5668.8063859999993
 30
0.0
 11
14434.01360600001
 21
4731.4597990000002
 31
0.0
  0
LINE
  5
3732
  8
SUNPOU
  6
CONTINUOUS
 62
     4
 10
11866.51360600001
 20
4811.4597990000002
 30
0.0
 11
14434.01360600001
 21
4811.4597990000002
 31
0.0
  0
LINE
  5
3733
  8
SUNPOU
  6
CONTINUOUS
 62
     4
 10
9256.5136060000114
 20
6031.4596329999977
 30
0.0
 11
9256.5136060000114
 21
4331.4599629999948
 31
0.0
  0
LINE
  5
3734
  8
SUNPOU
  6
CONTINUOUS
 62
     4
 10
14476.511627000011
 20
6031.4596329999977
 30
0.0
 11
14476.511627000011
 21
4331.4599629999948
 31
0.0
  0
LINE
  5
3735
  8
SUNPOU
  6
CONTINUOUS
 62
     4
 10
9256.5136060000114
 20
4411.4599629999948
 30
0.0
 11
14476.511627000011
 21
4411.4599629999948
 31
0.0
  0
LINE
  5
3736
  8
SUNPOU
  6
CONTINUOUS
 62
     4
 10
9299.0136060000114
 20
5668.8073749999958
 30
0.0
 11
9299.0136060000114
 21
4731.4597979999953
 31
0.0
  0
LINE
  5
3737
  8
SUNPOU
  6
CONTINUOUS
 62
     4
 10
9256.5136060000114
 20
6031.4596329999977
 30
0.0
 11
9256.5136060000114
 21
4731.4597979999953
 31
0.0
  0
LINE
  5
3738
  8
SUNPOU
  6
CONTINUOUS
 62
     4
 10
9299.0136060000114
 20
4811.4597979999962
 30
0.0
 11
9539.0136060000114
 21
4811.4597979999962
 31
0.0
  0
LINE
  5
3739
  8
SUNPOU
  6
CONTINUOUS
 62
     4
 10
9256.5136060000114
 20
4811.4597979999962
 30
0.0
 11
9016.5136060000095
 21
4811.4597979999962
 31
0.0
  0
LINE
  5
373A
  8
SUNPOU
  6
CONTINUOUS
 62
     4
 10
9299.0136060000114
 20
4811.4597979999962
 30
0.0
 11
9256.5136060000114
 21
4811.4597979999962
 31
0.0
  0
LINE
  5
373B
  8
SUNPOU
  6
CONTINUOUS
 62
     4
 10
11866.51360600001
 20
5668.8073749999958
 30
0.0
 11
11866.51360600001
 21
4731.4597979999953
 31
0.0
  0
LINE
  5
373C
  8
SUNPOU
  6
CONTINUOUS
 62
     4
 10
9299.0136060000114
 20
5668.8073749999958
 30
0.0
 11
9299.0136060000114
 21
4731.4597979999953
 31
0.0
  0
LINE
  5
373D
  8
SUNPOU
  6
CONTINUOUS
 62
     4
 10
11866.51360600001
 20
4811.4597979999962
 30
0.0
 11
9299.0136060000114
 21
4811.4597979999962
 31
0.0
  0
LINE
  5
373E
  8
SUNPOU
  6
CONTINUOUS
 62
     4
 10
19802.256888000022
 20
6111.4596339999998
 30
0.0
 11
19002.258206999999
 21
6111.4596339999998
 31
0.0
  0
LINE
  5
373F
  8
SUNPOU
  6
CONTINUOUS
 62
     4
 10
19802.256888000022
 20
8002.9596339999989
 30
0.0
 11
19002.258206999999
 21
8002.9596339999989
 31
0.0
  0
LINE
  5
3740
  8
SUNPOU
  6
CONTINUOUS
 62
     4
 10
19082.258206999999
 20
6111.4596339999998
 30
0.0
 11
19082.258206999999
 21
8002.9596339999989
 31
0.0
  0
LINE
  5
3741
  8
SUNPOU
  6
CONTINUOUS
 62
     4
 10
19802.256888000022
 20
6111.4596339999998
 30
0.0
 11
18602.255897999989
 21
6111.4596339999998
 31
0.0
  0
LINE
  5
3742
  8
SUNPOU
  6
CONTINUOUS
 62
     4
 10
19769.759132000021
 20
8460.4594890000008
 30
0.0
 11
18602.255897999999
 21
8460.4594890000008
 31
0.0
  0
LINE
  5
3743
  8
SUNPOU
  6
CONTINUOUS
 62
     4
 10
18682.25589800001
 20
6111.4596339999998
 30
0.0
 11
18682.25589800001
 21
8460.4594890000008
 31
0.0
  0
LINE
  5
3744
  8
SUNPOU
  6
CONTINUOUS
 62
     4
 10
22542.259790999989
 20
8539.4596599999968
 30
0.0
 11
22542.259790999989
 21
9338.9595019999961
 31
0.0
  0
LINE
  5
3746
  8
SUNPOU
  6
CONTINUOUS
 62
     4
 10
22542.259790999989
 20
9258.9595019999961
 30
0.0
 11
22302.259790999989
 21
9258.9595019999961
 31
0.0
  0
LINE
  5
3747
  8
SUNPOU
  6
CONTINUOUS
 62
     4
 10
22582.26190199998
 20
9258.9595019999961
 30
0.0
 11
22822.26190199998
 21
9258.9595019999961
 31
0.0
  0
LINE
  5
3748
  8
SUNPOU
  6
CONTINUOUS
 62
     4
 10
22542.259790999989
 20
9258.9595019999961
 30
0.0
 11
22582.26190199998
 21
9258.9595019999961
 31
0.0
  0
LINE
  5
3749
  8
SUNPOU
  6
CONTINUOUS
 62
     4
 10
19846.757152000031
 20
8539.4596599999968
 30
0.0
 11
19846.757152000031
 21
9738.9172720000006
 31
0.0
  0
LINE
  5
374A
  8
SUNPOU
  6
CONTINUOUS
 62
     4
 10
22585.26190199998
 20
8539.4596599999968
 30
0.0
 11
22585.26190199998
 21
9738.9172720000006
 31
0.0
  0
LINE
  5
374B
  8
SUNPOU
  6
CONTINUOUS
 62
     4
 10
19846.757152000031
 20
9658.9172719999951
 30
0.0
 11
22582.26190199998
 21
9658.9172719999951
 31
0.0
  0
LINE
  5
374C
  8
SUNPOU
  6
CONTINUOUS
 62
     4
 10
19889.759263000022
 20
8539.4596599999968
 30
0.0
 11
19889.759263000022
 21
9338.9595019999961
 31
0.0
  0
LINE
  5
374D
  8
SUNPOU
  6
CONTINUOUS
 62
     4
 10
22542.259790999989
 20
8539.4596599999968
 30
0.0
 11
22542.259790999989
 21
9338.9595019999961
 31
0.0
  0
LINE
  5
374E
  8
SUNPOU
  6
CONTINUOUS
 62
     4
 10
19889.759263000022
 20
9258.9595019999961
 30
0.0
 11
22542.259790999989
 21
9258.9595019999961
 31
0.0
  0
LINE
  5
374F
  8
SUNPOU
  6
CONTINUOUS
 62
     4
 10
19889.759263000022
 20
8539.4596599999968
 30
0.0
 11
19889.759263000022
 21
9338.9595019999961
 31
0.0
  0
LINE
  5
3750
  8
SUNPOU
  6
CONTINUOUS
 62
     4
 10
19846.757152000031
 20
8539.4596599999968
 30
0.0
 11
19846.757152000031
 21
9338.9595019999961
 31
0.0
  0
LINE
  5
3751
  8
SUNPOU
  6
CONTINUOUS
 62
     4
 10
19889.759263000022
 20
9258.9595019999961
 30
0.0
 11
20129.759263000022
 21
9258.9595019999961
 31
0.0
  0
LINE
  5
3752
  8
SUNPOU
  6
CONTINUOUS
 62
     4
 10
19849.757152000031
 20
9258.9595019999961
 30
0.0
 11
19609.757152000031
 21
9258.9595019999961
 31
0.0
  0
LINE
  5
3753
  8
SUNPOU
  6
CONTINUOUS
 62
     4
 10
19889.759263000022
 20
9258.9595019999961
 30
0.0
 11
19849.757152000031
 21
9258.9595019999961
 31
0.0
  0
LINE
  5
3754
  8
SUNPOU
  6
CONTINUOUS
 62
     4
 10
22499.759527000009
 20
5668.8073760000016
 30
0.0
 11
22499.759527000009
 21
4731.4597990000038
 31
0.0
  0
LINE
  5
3755
  8
SUNPOU
  6
CONTINUOUS
 62
     4
 10
22542.259527000009
 20
5931.4597990000048
 30
0.0
 11
22542.259527000009
 21
4731.4597990000038
 31
0.0
  0
LINE
  5
3756
  8
SUNPOU
  6
CONTINUOUS
 62
     4
 10
22499.759527000009
 20
4811.4597990000038
 30
0.0
 11
22259.759527000009
 21
4811.4597990000038
 31
0.0
  0
LINE
  5
3757
  8
SUNPOU
  6
CONTINUOUS
 62
     4
 10
22542.259527000009
 20
4811.4597990000038
 30
0.0
 11
22782.259527000009
 21
4811.4597990000038
 31
0.0
  0
LINE
  5
3758
  8
SUNPOU
  6
CONTINUOUS
 62
     4
 10
22499.759527000009
 20
4811.4597990000038
 30
0.0
 11
22542.259527000009
 21
4811.4597990000038
 31
0.0
  0
LINE
  5
3759
  8
SUNPOU
  6
CONTINUOUS
 62
     4
 10
20026.259526999998
 20
5931.4597990000048
 30
0.0
 11
20026.259526999998
 21
5131.4597990000057
 31
0.0
  0
LINE
  5
375A
  8
SUNPOU
  6
CONTINUOUS
 62
     4
 10
22405.759526999998
 20
5931.4597990000048
 30
0.0
 11
22405.759526999998
 21
5131.4597990000057
 31
0.0
  0
LINE
  5
375B
  8
SUNPOU
  6
CONTINUOUS
 62
     4
 10
20026.259526999998
 20
5211.4597990000057
 30
0.0
 11
22405.759526999998
 21
5211.4597990000057
 31
0.0
  0
LINE
  5
375C
  8
SUNPOU
  6
CONTINUOUS
 62
     4
 10
19932.259526999998
 20
5668.8073760000016
 30
0.0
 11
19932.259526999998
 21
4731.4597990000038
 31
0.0
  0
LINE
  5
375D
  8
SUNPOU
  6
CONTINUOUS
 62
     4
 10
22499.759527000009
 20
5668.8073760000016
 30
0.0
 11
22499.759527000009
 21
4731.4597990000038
 31
0.0
  0
LINE
  5
375E
  8
SUNPOU
  6
CONTINUOUS
 62
     4
 10
19932.259526999998
 20
4811.4597990000038
 30
0.0
 11
22499.759527000009
 21
4811.4597990000038
 31
0.0
  0
LINE
  5
375F
  8
SUNPOU
  6
CONTINUOUS
 62
     4
 10
19932.259526999998
 20
5668.8073760000016
 30
0.0
 11
19932.259526999998
 21
4731.4597990000038
 31
0.0
  0
LINE
  5
3760
  8
SUNPOU
  6
CONTINUOUS
 62
     4
 10
19889.759526999991
 20
5931.4597990000048
 30
0.0
 11
19889.759526999991
 21
4731.4597990000038
 31
0.0
  0
LINE
  5
3761
  8
SUNPOU
  6
CONTINUOUS
 62
     4
 10
19932.259526999998
 20
4811.4597990000038
 30
0.0
 11
20172.259526999998
 21
4811.4597990000038
 31
0.0
  0
LINE
  5
3762
  8
SUNPOU
  6
CONTINUOUS
 62
     4
 10
19889.759526999991
 20
4811.4597990000038
 30
0.0
 11
19649.759526999991
 21
4811.4597990000038
 31
0.0
  0
LINE
  5
3763
  8
SUNPOU
  6
CONTINUOUS
 62
     4
 10
19932.259526999998
 20
4811.4597990000038
 30
0.0
 11
19889.759526999991
 21
4811.4597990000038
 31
0.0
  0
LINE
  5
3764
  8
SUNPOU
  6
CONTINUOUS
 62
     4
 10
19889.759526999991
 20
5931.4597990000048
 30
0.0
 11
19889.759526999991
 21
4331.4599640000033
 31
0.0
  0
LINE
  5
3765
  8
SUNPOU
  6
CONTINUOUS
 62
     4
 10
22542.259527000009
 20
5931.4597990000048
 30
0.0
 11
22542.259527000009
 21
4331.4599640000033
 31
0.0
  0
LINE
  5
3766
  8
SUNPOU
  6
CONTINUOUS
 62
     4
 10
19889.759526999991
 20
4411.4599640000042
 30
0.0
 11
22542.259527000009
 21
4411.4599640000042
 31
0.0
  0
TEXT
  5
3767
  8
0
  6
CONTINUOUS
 62
     7
 10
20816.009526999998
 20
4491.4599640000033
 30
0.0
 40
160.0
  1
2652.5
  0
TEXT
  5
3768
  8
0
  6
CONTINUOUS
 62
     7
 10
19323.720536741152
 20
4891.4597990000057
 30
0.0
 40
160.0
  1
42.5
  0
TEXT
  5
3769
  8
0
  6
CONTINUOUS
 62
     7
 10
20816.009526999998
 20
4891.4597990000057
 30
0.0
 40
160.0
  1
2567.5
  0
TEXT
  5
376A
  8
0
  6
CONTINUOUS
 62
     7
 10
20288.009526999998
 20
5291.4597990000057
 30
0.0
 40
160.0
  1
有効開口巾 2379.5
  0
TEXT
  5
376B
  8
0
  6
CONTINUOUS
 62
     7
 10
22628.298517258841
 20
4891.4597990000057
 30
0.0
 40
160.0
  1
42.5
  0
TEXT
  5
376C
  8
0
  6
CONTINUOUS
 62
     7
 10
19489.757152000031
 20
9338.9595019999961
 30
0.0
 40
160.0
  1
43
  0
TEXT
  5
376D
  8
0
  6
CONTINUOUS
 62
     7
 10
20816.009526999998
 20
9338.9595019999961
 30
0.0
 40
160.0
  1
2652.5
  0
TEXT
  5
376E
  8
0
  6
CONTINUOUS
 62
     7
 10
20816.009526999998
 20
9738.9172720000006
 30
0.0
 40
160.0
  1
2738.5
  0
TEXT
  5
376F
  8
0
  6
CONTINUOUS
 62
     7
 10
22702.26190199998
 20
9338.9595019999961
 30
0.0
 40
160.0
  1
43
  0
TEXT
  5
3770
  8
0
  6
CONTINUOUS
 62
     7
 10
18602.255897999989
 20
6517.9595615000053
 30
0.0
 40
160.0
  1
2349 (2589)
 50
90.0
  0
TEXT
  5
3771
  8
0
  6
CONTINUOUS
 62
     7
 10
19002.258206999999
 20
6175.4388722912772
 30
0.0
 40
160.0
  1
有効開口高サ 1891.5
 50
90.0
  0
TEXT
  5
3772
  8
0
  6
CONTINUOUS
 62
     7
 10
10182.763606
 20
4891.4597979999962
 30
0.0
 40
160.0
  1
2567.5
  0
TEXT
  5
3773
  8
0
  6
CONTINUOUS
 62
     7
 10
8659.3398969037044
 20
4891.4597979999962
 30
0.0
 40
160.0
  1
42.5
  0
TEXT
  5
3774
  8
0
  6
CONTINUOUS
 62
     7
 10
11586.5126165
 20
4491.4599629999957
 30
0.0
 40
160.0
  1
5220
  0
TEXT
  5
3775
  8
0
  6
CONTINUOUS
 62
     7
 10
12750.263606
 20
4891.4597990000002
 30
0.0
 40
160.0
  1
2567.5
  0
TEXT
  5
3776
  8
0
  6
CONTINUOUS
 62
     7
 10
14593.6853360963
 20
4891.4597979999962
 30
0.0
 40
160.0
  1
42.5
  0
TEXT
  5
3777
  8
0
  6
CONTINUOUS
 62
     7
 10
8663.1802726666774
 20
9339.4613089999966
 30
0.0
 40
160.0
  1
180
  0
TEXT
  5
3778
  8
0
  6
CONTINUOUS
 62
     7
 10
11586.51360600001
 20
9339.4613089999966
 30
0.0
 40
160.0
  1
5220
  0
TEXT
  5
3779
  8
0
  6
CONTINUOUS
 62
     7
 10
11571.51360600001
 20
9739.4596589999965
 30
0.0
 40
160.0
  1
5550
  0
TEXT
  5
377A
  8
0
  6
CONTINUOUS
 62
     7
 10
14693.18027266667
 20
9339.4613089999966
 30
0.0
 40
160.0
  1
150
  0
TEXT
  5
377B
  8
0
  6
CONTINUOUS
 62
     7
 10
8086.5132100000101
 20
6197.2096340000026
 30
0.0
 40
160.0
  1
2155.5（2395.5）
 50
90.0
  0
TEXT
  5
377C
  8
0
  6
CONTINUOUS
 62
     7
 10
15486.51202200001
 20
6480.6263006666677
 30
0.0
 40
160.0
  1
2349（2589）
 50
90.0
  0
TEXT
  5
377D
  8
0
  6
CONTINUOUS
 62
     7
 10
19329.447547471202
 20
20040.75870000002
 30
0.0
 40
160.0
  1
42.5
  0
TEXT
  5
377E
  8
0
  6
CONTINUOUS
 62
     7
 10
22622.571506528791
 20
20040.75870000002
 30
0.0
 40
160.0
  1
42.5
  0
TEXT
  5
377F
  8
0
  6
CONTINUOUS
 62
     7
 10
20516.926193666681
 20
19720.75870000002
 30
0.0
 40
160.0
  1
701
  0
TEXT
  5
3780
  8
0
  6
CONTINUOUS
 62
     7
 10
21217.926193666681
 20
20040.75870000002
 30
0.0
 40
160.0
  1
701
  0
TEXT
  5
3781
  8
0
  6
CONTINUOUS
 62
     7
 10
21907.426688416679
 20
20040.75870000002
 30
0.0
 40
160.0
  1
758
  0
TEXT
  5
3782
  8
0
  6
CONTINUOUS
 62
     7
 10
20033.092860333341
 20
20040.75870000002
 30
0.0
 40
160.0
  1
407.5
  0
TEXT
  5
3783
  8
0
  6
CONTINUOUS
 62
     7
 10
23912.259130999999
 20
13437.203980603201
 30
0.0
 40
160.0
  1
42.5
 50
90.0
  0
TEXT
  5
3784
  8
0
  6
CONTINUOUS
 62
     7
 10
23912.259130999999
 20
19324.311043396781
 30
0.0
 40
160.0
  1
42.5
 50
90.0
  0
TEXT
  5
3785
  8
0
  6
CONTINUOUS
 62
     7
 10
24312.259130999999
 20
16340.757512
 30
0.0
 40
160.0
  1
5220
 50
90.0
  0
TEXT
  5
3786
  8
0
  6
CONTINUOUS
 62
     7
 10
23912.259130999992
 20
14937.007512
 30
0.0
 40
160.0
  1
2567.5
 50
90.0
  0
TEXT
  5
3787
  8
0
  6
CONTINUOUS
 62
     7
 10
23912.259130999992
 20
17504.507511999989
 30
0.0
 40
160.0
  1
2567.5
 50
90.0
  0
TEXT
  5
3788
  8
0
  6
CONTINUOUS
 62
     7
 10
23512.259130999992
 20
18256.924178666672
 30
0.0
 40
160.0
  1
701
 50
90.0
  0
TEXT
  5
3789
  8
0
  6
CONTINUOUS
 62
     7
 10
23512.259130999992
 20
17555.924178666672
 30
0.0
 40
160.0
  1
701
 50
90.0
  0
TEXT
  5
378A
  8
0
  6
CONTINUOUS
 62
     7
 10
23512.259130999992
 20
16786.424178666672
 30
0.0
 40
160.0
  1
758
 50
90.0
  0
TEXT
  5
378B
  8
0
  6
CONTINUOUS
 62
     7
 10
23512.259130999992
 20
16028.42417866667
 30
0.0
 40
160.0
  1
758
 50
90.0
  0
TEXT
  5
378C
  8
0
  6
CONTINUOUS
 62
     7
 10
23512.259130999992
 20
15339.04443441667
 30
0.0
 40
160.0
  1
701
 50
90.0
  0
TEXT
  5
378D
  8
0
  6
CONTINUOUS
 62
     7
 10
23512.259130999992
 20
14638.04443441667
 30
0.0
 40
160.0
  1
701
 50
90.0
  0
TEXT
  5
378E
  8
0
  6
CONTINUOUS
 62
     7
 10
20816.009526999998
 20
12761.809428
 30
0.0
 40
160.0
  1
2652.5
  0
TEXT
  5
378F
  8
0
  6
CONTINUOUS
 62
     7
 10
20050.31319938209
 20
13161.809428
 30
0.0
 40
160.0
  1
42.5
  0
TEXT
  5
3790
  8
0
  6
CONTINUOUS
 62
     7
 10
21901.705854617921
 20
13161.809428
 30
0.0
 40
160.0
  1
42.5
  0
TEXT
  5
3791
  8
0
  6
CONTINUOUS
 62
     7
 10
22617.81319938209
 20
13161.809428
 30
0.0
 40
160.0
  1
42.5
  0
TEXT
  5
3792
  8
0
  6
CONTINUOUS
 62
     7
 10
19334.205854617911
 20
13161.809428
 30
0.0
 40
160.0
  1
42.5
  0
TEXT
  5
3793
  8
0
  6
CONTINUOUS
 62
     7
 10
23872.259130999999
 20
18490.13547964321
 30
0.0
 40
160.0
  1
407.5
 50
90.0
  0
TEXT
  5
3794
  8
0
  6
CONTINUOUS
 62
     7
 10
23872.259130999999
 20
14126.19818195355
 30
0.0
 40
160.0
  1
407.5
 50
90.0
  0
TEXT
  5
3795
  8
0
  6
CONTINUOUS
 62
     7
 10
9618.2599720000035
 20
17504.507511999989
 30
0.0
 40
160.0
  1
2567.5
 50
90.0
  0
TEXT
  5
3796
  8
0
  6
CONTINUOUS
 62
     7
 10
9618.2599720000035
 20
19499.712696807681
 30
0.0
 40
160.0
  1
222.5
 50
90.0
  0
TEXT
  5
3797
  8
0
  6
CONTINUOUS
 62
     7
 10
10018.259972
 20
19557.42008766668
 30
0.0
 40
160.0
  1
10
 50
90.0
  0
TEXT
  5
3798
  8
0
  6
CONTINUOUS
 62
     7
 10
9618.2599720000126
 20
14937.007512
 30
0.0
 40
160.0
  1
2567.5
 50
90.0
  0
TEXT
  5
3799
  8
0
  6
CONTINUOUS
 62
     7
 10
9618.2599720000126
 20
13245.304501702631
 30
0.0
 40
160.0
  1
192.5
 50
90.0
  0
TEXT
  5
379A
  8
0
  6
CONTINUOUS
 62
     7
 10
11761.507274
 20
20040.75870000002
 30
0.0
 40
160.0
  1
2567.5
  0
TEXT
  5
379B
  8
0
  6
CONTINUOUS
 62
     7
 10
13331.75398002325
 20
20040.75870000002
 30
0.0
 40
160.0
  1
85.5
  0
TEXT
  5
379C
  8
0
  6
CONTINUOUS
 62
     7
 10
10011.26056797672
 20
20040.75870000002
 30
0.0
 40
160.0
  1
85.5
  0
TEXT
  5
379D
  8
0
  6
CONTINUOUS
 62
     7
 10
10988.841596833339
 20
12761.809428
 30
0.0
 40
160.0
  1
ケラバ外寸 2738.5
  0
ARC
  5
379E
  8
0
  6
BYBLOCK
 62
     0
 10
10542.25786800001
 20
12681.809428
 30
0.0
 40
15.0
 50
0.0
 51
180.0
  0
ARC
  5
379F
  8
0
  6
BYBLOCK
 62
     0
 10
10542.25786800001
 20
12681.809428
 30
0.0
 40
15.0
 50
180.0
 51
0.0
  0
ARC
  5
37A0
  8
0
  6
BYBLOCK
 62
     0
 10
13280.758658999999
 20
12681.809428
 30
0.0
 40
15.0
 50
180.0
 51
0.0
  0
ARC
  5
37A1
  8
0
  6
BYBLOCK
 62
     0
 10
13280.758658999999
 20
12681.809428
 30
0.0
 40
15.0
 50
0.0
 51
180.0
  0
ARC
  5
37A2
  8
0
  6
BYBLOCK
 62
     0
 10
10627.757274
 20
19960.75870000002
 30
0.0
 40
15.0
 50
0.0
 51
180.0
  0
ARC
  5
37A3
  8
0
  6
BYBLOCK
 62
     0
 10
10627.757274
 20
19960.75870000002
 30
0.0
 40
15.0
 50
180.0
 51
0.0
  0
ARC
  5
37A4
  8
0
  6
BYBLOCK
 62
     0
 10
10542.257273999991
 20
19960.75870000002
 30
0.0
 40
15.0
 50
180.0
 51
0.0
  0
ARC
  5
37A5
  8
0
  6
BYBLOCK
 62
     0
 10
10542.257273999991
 20
19960.75870000002
 30
0.0
 40
15.0
 50
0.0
 51
180.0
  0
ARC
  5
37A6
  8
0
  6
BYBLOCK
 62
     0
 10
13195.257274
 20
19960.75870000002
 30
0.0
 40
15.0
 50
180.0
 51
0.0
  0
ARC
  5
37A7
  8
0
  6
BYBLOCK
 62
     0
 10
13195.257274
 20
19960.75870000002
 30
0.0
 40
15.0
 50
0.0
 51
180.0
  0
ARC
  5
37A8
  8
0
  6
BYBLOCK
 62
     0
 10
13280.757273999991
 20
19960.75870000002
 30
0.0
 40
15.0
 50
0.0
 51
180.0
  0
ARC
  5
37A9
  8
0
  6
BYBLOCK
 62
     0
 10
13280.757273999991
 20
19960.75870000002
 30
0.0
 40
15.0
 50
180.0
 51
0.0
  0
ARC
  5
37AA
  8
0
  6
BYBLOCK
 62
     0
 10
13195.257274
 20
19960.75870000002
 30
0.0
 40
15.0
 50
180.0
 51
0.0
  0
ARC
  5
37AB
  8
0
  6
BYBLOCK
 62
     0
 10
13195.257274
 20
19960.75870000002
 30
0.0
 40
15.0
 50
0.0
 51
180.0
  0
ARC
  5
37AC
  8
0
  6
BYBLOCK
 62
     0
 10
10627.757274
 20
19960.75870000002
 30
0.0
 40
15.0
 50
0.0
 51
180.0
  0
ARC
  5
37AD
  8
0
  6
BYBLOCK
 62
     0
 10
10627.757274
 20
19960.75870000002
 30
0.0
 40
15.0
 50
180.0
 51
0.0
  0
ARC
  5
37AE
  8
0
  6
BYBLOCK
 62
     0
 10
9698.2599720000089
 20
14053.257512
 30
0.0
 40
15.0
 50
270.0
 51
90.0
  0
ARC
  5
37AF
  8
0
  6
BYBLOCK
 62
     0
 10
9698.2599720000089
 20
14053.257512
 30
0.0
 40
15.0
 50
90.0
 51
270.0
  0
ARC
  5
37B0
  8
0
  6
BYBLOCK
 62
     0
 10
9698.2599720000089
 20
13860.762197
 30
0.0
 40
15.0
 50
90.0
 51
270.0
  0
ARC
  5
37B1
  8
0
  6
BYBLOCK
 62
     0
 10
9698.2599720000089
 20
13860.762197
 30
0.0
 40
15.0
 50
270.0
 51
90.0
  0
ARC
  5
37B2
  8
0
  6
BYBLOCK
 62
     0
 10
9698.2599720000089
 20
16620.757511999989
 30
0.0
 40
15.0
 50
270.0
 51
90.0
  0
ARC
  5
37B3
  8
0
  6
BYBLOCK
 62
     0
 10
9698.2599720000089
 20
16620.757511999989
 30
0.0
 40
15.0
 50
90.0
 51
270.0
  0
ARC
  5
37B4
  8
0
  6
BYBLOCK
 62
     0
 10
9698.2599720000089
 20
14053.257512
 30
0.0
 40
15.0
 50
90.0
 51
270.0
  0
ARC
  5
37B5
  8
0
  6
BYBLOCK
 62
     0
 10
9698.2599720000089
 20
14053.257512
 30
0.0
 40
15.0
 50
270.0
 51
90.0
  0
ARC
  5
37B6
  8
0
  6
BYBLOCK
 62
     0
 10
10098.259972
 20
19400.753421000001
 30
0.0
 40
15.0
 50
270.0
 51
90.0
  0
ARC
  5
37B7
  8
0
  6
BYBLOCK
 62
     0
 10
10098.259972
 20
19400.753421000001
 30
0.0
 40
15.0
 50
90.0
 51
270.0
  0
ARC
  5
37B8
  8
0
  6
BYBLOCK
 62
     0
 10
10098.259972
 20
19410.753421000009
 30
0.0
 40
15.0
 50
90.0
 51
270.0
  0
ARC
  5
37B9
  8
0
  6
BYBLOCK
 62
     0
 10
10098.259972
 20
19410.753421000009
 30
0.0
 40
15.0
 50
270.0
 51
90.0
  0
ARC
  5
37BA
  8
0
  6
BYBLOCK
 62
     0
 10
9698.2599720000089
 20
19188.257511999989
 30
0.0
 40
15.0
 50
90.0
 51
270.0
  0
ARC
  5
37BB
  8
0
  6
BYBLOCK
 62
     0
 10
9698.2599720000089
 20
19188.257511999989
 30
0.0
 40
15.0
 50
270.0
 51
90.0
  0
ARC
  5
37BC
  8
0
  6
BYBLOCK
 62
     0
 10
9698.2599720000089
 20
19410.753421000009
 30
0.0
 40
15.0
 50
270.0
 51
90.0
  0
ARC
  5
37BD
  8
0
  6
BYBLOCK
 62
     0
 10
9698.2599720000089
 20
19410.753421000009
 30
0.0
 40
15.0
 50
90.0
 51
270.0
  0
ARC
  5
37BE
  8
0
  6
BYBLOCK
 62
     0
 10
9698.2599720000089
 20
16620.757511999989
 30
0.0
 40
15.0
 50
90.0
 51
270.0
  0
ARC
  5
37BF
  8
0
  6
BYBLOCK
 62
     0
 10
9698.2599720000089
 20
16620.757511999989
 30
0.0
 40
15.0
 50
270.0
 51
90.0
  0
ARC
  5
37C0
  8
0
  6
BYBLOCK
 62
     0
 10
9698.2599720000089
 20
19188.257511999989
 30
0.0
 40
15.0
 50
270.0
 51
90.0
  0
ARC
  5
37C1
  8
0
  6
BYBLOCK
 62
     0
 10
9698.2599720000089
 20
19188.257511999989
 30
0.0
 40
15.0
 50
90.0
 51
270.0
  0
ARC
  5
37C2
  8
0
  6
BYBLOCK
 62
     0
 10
23592.25913100001
 20
14460.87776775
 30
0.0
 40
15.0
 50
270.0
 51
90.0
  0
ARC
  5
37C3
  8
0
  6
BYBLOCK
 62
     0
 10
23592.25913100001
 20
14460.87776775
 30
0.0
 40
15.0
 50
90.0
 51
270.0
  0
ARC
  5
37C4
  8
0
  6
BYBLOCK
 62
     0
 10
23592.25913100001
 20
14053.37776775
 30
0.0
 40
15.0
 50
90.0
 51
270.0
  0
ARC
  5
37C5
  8
0
  6
BYBLOCK
 62
     0
 10
23592.25913100001
 20
14053.37776775
 30
0.0
 40
15.0
 50
270.0
 51
90.0
  0
ARC
  5
37C6
  8
0
  6
BYBLOCK
 62
     0
 10
23592.25913100001
 20
18780.757511999989
 30
0.0
 40
15.0
 50
90.0
 51
270.0
  0
ARC
  5
37C7
  8
0
  6
BYBLOCK
 62
     0
 10
23592.25913100001
 20
18780.757511999989
 30
0.0
 40
15.0
 50
270.0
 51
90.0
  0
ARC
  5
37C8
  8
0
  6
BYBLOCK
 62
     0
 10
23592.25913100001
 20
19188.257511999989
 30
0.0
 40
15.0
 50
270.0
 51
90.0
  0
ARC
  5
37C9
  8
0
  6
BYBLOCK
 62
     0
 10
23592.25913100001
 20
19188.257511999989
 30
0.0
 40
15.0
 50
90.0
 51
270.0
  0
ARC
  5
37CA
  8
0
  6
BYBLOCK
 62
     0
 10
19932.259526999998
 20
13081.809428
 30
0.0
 40
15.0
 50
0.0
 51
180.0
  0
ARC
  5
37CB
  8
0
  6
BYBLOCK
 62
     0
 10
19932.259526999998
 20
13081.809428
 30
0.0
 40
15.0
 50
180.0
 51
0.0
  0
ARC
  5
37CC
  8
0
  6
BYBLOCK
 62
     0
 10
19889.75728400001
 20
13081.809428
 30
0.0
 40
15.0
 50
180.0
 51
0.0
  0
ARC
  5
37CD
  8
0
  6
BYBLOCK
 62
     0
 10
19889.75728400001
 20
13081.809428
 30
0.0
 40
15.0
 50
0.0
 51
180.0
  0
ARC
  5
37CE
  8
0
  6
BYBLOCK
 62
     0
 10
22499.759527000009
 20
13081.809428
 30
0.0
 40
15.0
 50
180.0
 51
0.0
  0
ARC
  5
37CF
  8
0
  6
BYBLOCK
 62
     0
 10
22499.759527000009
 20
13081.809428
 30
0.0
 40
15.0
 50
0.0
 51
180.0
  0
ARC
  5
37D0
  8
0
  6
BYBLOCK
 62
     0
 10
22542.261770000001
 20
13081.809428
 30
0.0
 40
15.0
 50
0.0
 51
180.0
  0
ARC
  5
37D1
  8
0
  6
BYBLOCK
 62
     0
 10
22542.261770000001
 20
13081.809428
 30
0.0
 40
15.0
 50
180.0
 51
0.0
  0
ARC
  5
37D2
  8
0
  6
BYBLOCK
 62
     0
 10
22499.759527000009
 20
13081.809428
 30
0.0
 40
15.0
 50
0.0
 51
180.0
  0
ARC
  5
37D3
  8
0
  6
BYBLOCK
 62
     0
 10
22499.759527000009
 20
13081.809428
 30
0.0
 40
15.0
 50
180.0
 51
0.0
  0
ARC
  5
37D4
  8
0
  6
BYBLOCK
 62
     0
 10
22457.257283999999
 20
13081.809428
 30
0.0
 40
15.0
 50
180.0
 51
0.0
  0
ARC
  5
37D5
  8
0
  6
BYBLOCK
 62
     0
 10
22457.257283999999
 20
13081.809428
 30
0.0
 40
15.0
 50
0.0
 51
180.0
  0
ARC
  5
37D6
  8
0
  6
BYBLOCK
 62
     0
 10
19932.259526999998
 20
13081.809428
 30
0.0
 40
15.0
 50
180.0
 51
0.0
  0
ARC
  5
37D7
  8
0
  6
BYBLOCK
 62
     0
 10
19932.259526999998
 20
13081.809428
 30
0.0
 40
15.0
 50
0.0
 51
180.0
  0
ARC
  5
37D8
  8
0
  6
BYBLOCK
 62
     0
 10
19974.761770000001
 20
13081.809428
 30
0.0
 40
15.0
 50
0.0
 51
180.0
  0
ARC
  5
37D9
  8
0
  6
BYBLOCK
 62
     0
 10
19974.761770000001
 20
13081.809428
 30
0.0
 40
15.0
 50
180.0
 51
0.0
  0
ARC
  5
37DA
  8
0
  6
BYBLOCK
 62
     0
 10
19889.75728400001
 20
12681.809428
 30
0.0
 40
15.0
 50
0.0
 51
180.0
  0
ARC
  5
37DB
  8
0
  6
BYBLOCK
 62
     0
 10
19889.75728400001
 20
12681.809428
 30
0.0
 40
15.0
 50
180.0
 51
0.0
  0
ARC
  5
37DC
  8
0
  6
BYBLOCK
 62
     0
 10
22542.261770000001
 20
12681.809428
 30
0.0
 40
15.0
 50
180.0
 51
0.0
  0
ARC
  5
37DD
  8
0
  6
BYBLOCK
 62
     0
 10
22542.261770000001
 20
12681.809428
 30
0.0
 40
15.0
 50
0.0
 51
180.0
  0
ARC
  5
37DE
  8
0
  6
BYBLOCK
 62
     0
 10
23592.25913100001
 20
15161.99802350002
 30
0.0
 40
15.0
 50
270.0
 51
90.0
  0
ARC
  5
37DF
  8
0
  6
BYBLOCK
 62
     0
 10
23592.25913100001
 20
15161.99802350002
 30
0.0
 40
15.0
 50
90.0
 51
270.0
  0
ARC
  5
37E0
  8
0
  6
BYBLOCK
 62
     0
 10
23592.25913100001
 20
14460.757511999989
 30
0.0
 40
15.0
 50
90.0
 51
270.0
  0
ARC
  5
37E1
  8
0
  6
BYBLOCK
 62
     0
 10
23592.25913100001
 20
14460.757511999989
 30
0.0
 40
15.0
 50
270.0
 51
90.0
  0
ARC
  5
37E2
  8
0
  6
BYBLOCK
 62
     0
 10
23592.25913100001
 20
15862.757512
 30
0.0
 40
15.0
 50
270.0
 51
90.0
  0
ARC
  5
37E3
  8
0
  6
BYBLOCK
 62
     0
 10
23592.25913100001
 20
15862.757512
 30
0.0
 40
15.0
 50
90.0
 51
270.0
  0
ARC
  5
37E4
  8
0
  6
BYBLOCK
 62
     0
 10
23592.25913100001
 20
15161.99802350002
 30
0.0
 40
15.0
 50
90.0
 51
270.0
  0
ARC
  5
37E5
  8
0
  6
BYBLOCK
 62
     0
 10
23592.25913100001
 20
15161.99802350002
 30
0.0
 40
15.0
 50
270.0
 51
90.0
  0
ARC
  5
37E6
  8
0
  6
BYBLOCK
 62
     0
 10
23592.25913100001
 20
16620.757511999989
 30
0.0
 40
15.0
 50
270.0
 51
90.0
  0
ARC
  5
37E7
  8
0
  6
BYBLOCK
 62
     0
 10
23592.25913100001
 20
16620.757511999989
 30
0.0
 40
15.0
 50
90.0
 51
270.0
  0
ARC
  5
37E8
  8
0
  6
BYBLOCK
 62
     0
 10
23592.25913100001
 20
15862.757512
 30
0.0
 40
15.0
 50
90.0
 51
270.0
  0
ARC
  5
37E9
  8
0
  6
BYBLOCK
 62
     0
 10
23592.25913100001
 20
15862.757512
 30
0.0
 40
15.0
 50
270.0
 51
90.0
  0
ARC
  5
37EA
  8
0
  6
BYBLOCK
 62
     0
 10
23592.25913100001
 20
17378.757511999978
 30
0.0
 40
15.0
 50
270.0
 51
90.0
  0
ARC
  5
37EB
  8
0
  6
BYBLOCK
 62
     0
 10
23592.25913100001
 20
17378.757511999978
 30
0.0
 40
15.0
 50
90.0
 51
270.0
  0
ARC
  5
37EC
  8
0
  6
BYBLOCK
 62
     0
 10
23592.25913100001
 20
16620.757511999989
 30
0.0
 40
15.0
 50
90.0
 51
270.0
  0
ARC
  5
37ED
  8
0
  6
BYBLOCK
 62
     0
 10
23592.25913100001
 20
16620.757511999989
 30
0.0
 40
15.0
 50
270.0
 51
90.0
  0
ARC
  5
37EE
  8
0
  6
BYBLOCK
 62
     0
 10
23592.25913100001
 20
18079.757511999978
 30
0.0
 40
15.0
 50
270.0
 51
90.0
  0
ARC
  5
37EF
  8
0
  6
BYBLOCK
 62
     0
 10
23592.25913100001
 20
18079.757511999978
 30
0.0
 40
15.0
 50
90.0
 51
270.0
  0
ARC
  5
37F0
  8
0
  6
BYBLOCK
 62
     0
 10
23592.25913100001
 20
17378.757511999978
 30
0.0
 40
15.0
 50
90.0
 51
270.0
  0
ARC
  5
37F1
  8
0
  6
BYBLOCK
 62
     0
 10
23592.25913100001
 20
17378.757511999978
 30
0.0
 40
15.0
 50
270.0
 51
90.0
  0
ARC
  5
37F2
  8
0
  6
BYBLOCK
 62
     0
 10
23592.25913100001
 20
18780.757511999989
 30
0.0
 40
15.0
 50
270.0
 51
90.0
  0
ARC
  5
37F3
  8
0
  6
BYBLOCK
 62
     0
 10
23592.25913100001
 20
18780.757511999989
 30
0.0
 40
15.0
 50
90.0
 51
270.0
  0
ARC
  5
37F4
  8
0
  6
BYBLOCK
 62
     0
 10
23592.25913100001
 20
18079.757511999978
 30
0.0
 40
15.0
 50
90.0
 51
270.0
  0
ARC
  5
37F5
  8
0
  6
BYBLOCK
 62
     0
 10
23592.25913100001
 20
18079.757511999978
 30
0.0
 40
15.0
 50
270.0
 51
90.0
  0
ARC
  5
37F6
  8
0
  6
BYBLOCK
 62
     0
 10
23992.259130999999
 20
16620.757511999989
 30
0.0
 40
15.0
 50
90.0
 51
270.0
  0
ARC
  5
37F7
  8
0
  6
BYBLOCK
 62
     0
 10
23992.259130999999
 20
16620.757511999989
 30
0.0
 40
15.0
 50
270.0
 51
90.0
  0
ARC
  5
37F8
  8
0
  6
BYBLOCK
 62
     0
 10
23992.259130999999
 20
19188.257511999989
 30
0.0
 40
15.0
 50
270.0
 51
90.0
  0
ARC
  5
37F9
  8
0
  6
BYBLOCK
 62
     0
 10
23992.259130999999
 20
19188.257511999989
 30
0.0
 40
15.0
 50
90.0
 51
270.0
  0
ARC
  5
37FA
  8
0
  6
BYBLOCK
 62
     0
 10
23992.259130999999
 20
14053.257512
 30
0.0
 40
15.0
 50
90.0
 51
270.0
  0
ARC
  5
37FB
  8
0
  6
BYBLOCK
 62
     0
 10
23992.259130999999
 20
14053.257512
 30
0.0
 40
15.0
 50
270.0
 51
90.0
  0
ARC
  5
37FC
  8
0
  6
BYBLOCK
 62
     0
 10
23992.259130999999
 20
16620.757511999989
 30
0.0
 40
15.0
 50
270.0
 51
90.0
  0
ARC
  5
37FD
  8
0
  6
BYBLOCK
 62
     0
 10
23992.259130999999
 20
16620.757511999989
 30
0.0
 40
15.0
 50
90.0
 51
270.0
  0
ARC
  5
37FE
  8
0
  6
BYBLOCK
 62
     0
 10
24392.259130999999
 20
19230.754807000001
 30
0.0
 40
15.0
 50
270.0
 51
90.0
  0
ARC
  5
37FF
  8
0
  6
BYBLOCK
 62
     0
 10
24392.259130999999
 20
19230.754807000001
 30
0.0
 40
15.0
 50
90.0
 51
270.0
  0
ARC
  5
3800
  8
0
  6
BYBLOCK
 62
     0
 10
24392.259130999999
 20
14010.76021699999
 30
0.0
 40
15.0
 50
90.0
 51
270.0
  0
ARC
  5
3801
  8
0
  6
BYBLOCK
 62
     0
 10
24392.259130999999
 20
14010.76021699999
 30
0.0
 40
15.0
 50
270.0
 51
90.0
  0
ARC
  5
3802
  8
0
  6
BYBLOCK
 62
     0
 10
23992.259130999999
 20
19188.257511999989
 30
0.0
 40
15.0
 50
270.0
 51
90.0
  0
ARC
  5
3803
  8
0
  6
BYBLOCK
 62
     0
 10
23992.259130999999
 20
19188.257511999989
 30
0.0
 40
15.0
 50
90.0
 51
270.0
  0
ARC
  5
3804
  8
0
  6
BYBLOCK
 62
     0
 10
23992.259130999999
 20
19230.754807000001
 30
0.0
 40
15.0
 50
90.0
 51
270.0
  0
ARC
  5
3805
  8
0
  6
BYBLOCK
 62
     0
 10
23992.259130999999
 20
19230.754807000001
 30
0.0
 40
15.0
 50
270.0
 51
90.0
  0
ARC
  5
3806
  8
0
  6
BYBLOCK
 62
     0
 10
23992.259130999999
 20
14053.257512
 30
0.0
 40
15.0
 50
90.0
 51
270.0
  0
ARC
  5
3807
  8
0
  6
BYBLOCK
 62
     0
 10
23992.259130999999
 20
14053.257512
 30
0.0
 40
15.0
 50
270.0
 51
90.0
  0
ARC
  5
3808
  8
0
  6
BYBLOCK
 62
     0
 10
23992.259130999999
 20
14010.76021699999
 30
0.0
 40
15.0
 50
270.0
 51
90.0
  0
ARC
  5
3809
  8
0
  6
BYBLOCK
 62
     0
 10
23992.259130999999
 20
14010.76021699999
 30
0.0
 40
15.0
 50
90.0
 51
270.0
  0
ARC
  5
380A
  8
0
  6
BYBLOCK
 62
     0
 10
19932.259526999998
 20
19960.75870000002
 30
0.0
 40
15.0
 50
0.0
 51
180.0
  0
ARC
  5
380B
  8
0
  6
BYBLOCK
 62
     0
 10
19932.259526999998
 20
19960.75870000002
 30
0.0
 40
15.0
 50
180.0
 51
0.0
  0
ARC
  5
380C
  8
0
  6
BYBLOCK
 62
     0
 10
20339.759526999998
 20
19960.75870000002
 30
0.0
 40
15.0
 50
180.0
 51
0.0
  0
ARC
  5
380D
  8
0
  6
BYBLOCK
 62
     0
 10
20339.759526999998
 20
19960.75870000002
 30
0.0
 40
15.0
 50
0.0
 51
180.0
  0
ARC
  5
380E
  8
0
  6
BYBLOCK
 62
     0
 10
21741.759526999998
 20
19960.75870000002
 30
0.0
 40
15.0
 50
0.0
 51
180.0
  0
ARC
  5
380F
  8
0
  6
BYBLOCK
 62
     0
 10
21741.759526999998
 20
19960.75870000002
 30
0.0
 40
15.0
 50
180.0
 51
0.0
  0
ARC
  5
3810
  8
0
  6
BYBLOCK
 62
     0
 10
22499.76051650002
 20
19960.75870000002
 30
0.0
 40
15.0
 50
180.0
 51
0.0
  0
ARC
  5
3811
  8
0
  6
BYBLOCK
 62
     0
 10
22499.76051650002
 20
19960.75870000002
 30
0.0
 40
15.0
 50
0.0
 51
180.0
  0
ARC
  5
3812
  8
0
  6
BYBLOCK
 62
     0
 10
21040.759526999998
 20
19960.75870000002
 30
0.0
 40
15.0
 50
0.0
 51
180.0
  0
ARC
  5
3813
  8
0
  6
BYBLOCK
 62
     0
 10
21040.759526999998
 20
19960.75870000002
 30
0.0
 40
15.0
 50
180.0
 51
0.0
  0
ARC
  5
3814
  8
0
  6
BYBLOCK
 62
     0
 10
21741.759526999998
 20
19960.75870000002
 30
0.0
 40
15.0
 50
180.0
 51
0.0
  0
ARC
  5
3815
  8
0
  6
BYBLOCK
 62
     0
 10
21741.759526999998
 20
19960.75870000002
 30
0.0
 40
15.0
 50
0.0
 51
180.0
  0
ARC
  5
3816
  8
0
  6
BYBLOCK
 62
     0
 10
20339.759526999998
 20
19960.75870000002
 30
0.0
 40
15.0
 50
0.0
 51
180.0
  0
ARC
  5
3817
  8
0
  6
BYBLOCK
 62
     0
 10
20339.759526999998
 20
19960.75870000002
 30
0.0
 40
15.0
 50
180.0
 51
0.0
  0
ARC
  5
3818
  8
0
  6
BYBLOCK
 62
     0
 10
21040.759526999998
 20
19960.75870000002
 30
0.0
 40
15.0
 50
180.0
 51
0.0
  0
ARC
  5
3819
  8
0
  6
BYBLOCK
 62
     0
 10
21040.759526999998
 20
19960.75870000002
 30
0.0
 40
15.0
 50
0.0
 51
180.0
  0
ARC
  5
381A
  8
0
  6
BYBLOCK
 62
     0
 10
22499.759527000009
 20
19960.75870000002
 30
0.0
 40
15.0
 50
180.0
 51
0.0
  0
ARC
  5
381B
  8
0
  6
BYBLOCK
 62
     0
 10
22499.759527000009
 20
19960.75870000002
 30
0.0
 40
15.0
 50
0.0
 51
180.0
  0
ARC
  5
381C
  8
0
  6
BYBLOCK
 62
     0
 10
22542.255831999999
 20
19960.75870000002
 30
0.0
 40
15.0
 50
0.0
 51
180.0
  0
ARC
  5
381D
  8
0
  6
BYBLOCK
 62
     0
 10
22542.255831999999
 20
19960.75870000002
 30
0.0
 40
15.0
 50
180.0
 51
0.0
  0
ARC
  5
381E
  8
0
  6
BYBLOCK
 62
     0
 10
19932.259526999998
 20
19960.75870000002
 30
0.0
 40
15.0
 50
0.0
 51
180.0
  0
ARC
  5
381F
  8
0
  6
BYBLOCK
 62
     0
 10
19932.259526999998
 20
19960.75870000002
 30
0.0
 40
15.0
 50
180.0
 51
0.0
  0
ARC
  5
3820
  8
0
  6
BYBLOCK
 62
     0
 10
19889.763222000001
 20
19960.75870000002
 30
0.0
 40
15.0
 50
180.0
 51
0.0
  0
ARC
  5
3821
  8
0
  6
BYBLOCK
 62
     0
 10
19889.763222000001
 20
19960.75870000002
 30
0.0
 40
15.0
 50
0.0
 51
180.0
  0
ARC
  5
3822
  8
0
  6
BYBLOCK
 62
     0
 10
15566.51202200001
 20
6111.4596339999998
 30
0.0
 40
15.0
 50
90.0
 51
270.0
  0
ARC
  5
3823
  8
0
  6
BYBLOCK
 62
     0
 10
15566.51202200001
 20
6111.4596339999998
 30
0.0
 40
15.0
 50
270.0
 51
90.0
  0
ARC
  5
3824
  8
0
  6
BYBLOCK
 62
     0
 10
15566.51202200001
 20
8460.4596340000007
 30
0.0
 40
15.0
 50
270.0
 51
90.0
  0
ARC
  5
3825
  8
0
  6
BYBLOCK
 62
     0
 10
15566.51202200001
 20
8460.4596340000007
 30
0.0
 40
15.0
 50
90.0
 51
270.0
  0
ARC
  5
3826
  8
0
  6
BYBLOCK
 62
     0
 10
8166.5132100000101
 20
6111.4596339999998
 30
0.0
 40
15.0
 50
90.0
 51
270.0
  0
ARC
  5
3827
  8
0
  6
BYBLOCK
 62
     0
 10
8166.5132100000101
 20
6111.4596339999998
 30
0.0
 40
15.0
 50
270.0
 51
90.0
  0
ARC
  5
3828
  8
0
  6
BYBLOCK
 62
     0
 10
8166.5132100000128
 20
8266.9596340000026
 30
0.0
 40
15.0
 50
270.0
 51
90.0
  0
ARC
  5
3829
  8
0
  6
BYBLOCK
 62
     0
 10
8166.5132100000128
 20
8266.9596340000026
 30
0.0
 40
15.0
 50
90.0
 51
270.0
  0
ARC
  5
382A
  8
0
  6
BYBLOCK
 62
     0
 10
14476.513606
 20
9259.4613089999966
 30
0.0
 40
15.0
 50
180.0
 51
0.0
  0
ARC
  5
382B
  8
0
  6
BYBLOCK
 62
     0
 10
14476.513606
 20
9259.4613089999966
 30
0.0
 40
15.0
 50
0.0
 51
180.0
  0
ARC
  5
382C
  8
0
  6
BYBLOCK
 62
     0
 10
14626.51360600001
 20
9259.4613089999966
 30
0.0
 40
15.0
 50
0.0
 51
180.0
  0
ARC
  5
382D
  8
0
  6
BYBLOCK
 62
     0
 10
14626.51360600001
 20
9259.4613089999966
 30
0.0
 40
15.0
 50
180.0
 51
0.0
  0
ARC
  5
382E
  8
0
  6
BYBLOCK
 62
     0
 10
9076.5136060000114
 20
9659.4596589999965
 30
0.0
 40
15.0
 50
0.0
 51
180.0
  0
ARC
  5
382F
  8
0
  6
BYBLOCK
 62
     0
 10
9076.5136060000114
 20
9659.4596589999965
 30
0.0
 40
15.0
 50
180.0
 51
0.0
  0
ARC
  5
3830
  8
0
  6
BYBLOCK
 62
     0
 10
14626.51360600001
 20
9659.4596589999965
 30
0.0
 40
15.0
 50
180.0
 51
0.0
  0
ARC
  5
3831
  8
0
  6
BYBLOCK
 62
     0
 10
14626.51360600001
 20
9659.4596589999965
 30
0.0
 40
15.0
 50
0.0
 51
180.0
  0
ARC
  5
3832
  8
0
  6
BYBLOCK
 62
     0
 10
9256.5136060000114
 20
9259.4613089999966
 30
0.0
 40
15.0
 50
0.0
 51
180.0
  0
ARC
  5
3833
  8
0
  6
BYBLOCK
 62
     0
 10
9256.5136060000114
 20
9259.4613089999966
 30
0.0
 40
15.0
 50
180.0
 51
0.0
  0
ARC
  5
3834
  8
0
  6
BYBLOCK
 62
     0
 10
14476.513606
 20
9259.4613089999966
 30
0.0
 40
15.0
 50
180.0
 51
0.0
  0
ARC
  5
3835
  8
0
  6
BYBLOCK
 62
     0
 10
14476.513606
 20
9259.4613089999966
 30
0.0
 40
15.0
 50
0.0
 51
180.0
  0
ARC
  5
3836
  8
0
  6
BYBLOCK
 62
     0
 10
9076.5136060000114
 20
9259.4613089999966
 30
0.0
 40
15.0
 50
0.0
 51
180.0
  0
ARC
  5
3837
  8
0
  6
BYBLOCK
 62
     0
 10
9076.5136060000114
 20
9259.4613089999966
 30
0.0
 40
15.0
 50
180.0
 51
0.0
  0
ARC
  5
3838
  8
0
  6
BYBLOCK
 62
     0
 10
9256.5136060000114
 20
9259.4613089999966
 30
0.0
 40
15.0
 50
180.0
 51
0.0
  0
ARC
  5
3839
  8
0
  6
BYBLOCK
 62
     0
 10
9256.5136060000114
 20
9259.4613089999966
 30
0.0
 40
15.0
 50
0.0
 51
180.0
  0
ARC
  5
383A
  8
0
  6
BYBLOCK
 62
     0
 10
14434.011627
 20
4811.4597979999962
 30
0.0
 40
15.0
 50
180.0
 51
0.0
  0
ARC
  5
383B
  8
0
  6
BYBLOCK
 62
     0
 10
14434.011627
 20
4811.4597979999962
 30
0.0
 40
15.0
 50
0.0
 51
180.0
  0
ARC
  5
383C
  8
0
  6
BYBLOCK
 62
     0
 10
14476.511627000011
 20
4811.4597979999962
 30
0.0
 40
15.0
 50
0.0
 51
180.0
  0
ARC
  5
383D
  8
0
  6
BYBLOCK
 62
     0
 10
14476.511627000011
 20
4811.4597979999962
 30
0.0
 40
15.0
 50
180.0
 51
0.0
  0
ARC
  5
383E
  8
0
  6
BYBLOCK
 62
     0
 10
11866.51360600001
 20
4811.4597990000002
 30
0.0
 40
15.0
 50
0.0
 51
180.0
  0
ARC
  5
383F
  8
0
  6
BYBLOCK
 62
     0
 10
11866.51360600001
 20
4811.4597990000002
 30
0.0
 40
15.0
 50
180.0
 51
0.0
  0
ARC
  5
3840
  8
0
  6
BYBLOCK
 62
     0
 10
14434.01360600001
 20
4811.4597990000002
 30
0.0
 40
15.0
 50
180.0
 51
0.0
  0
ARC
  5
3841
  8
0
  6
BYBLOCK
 62
     0
 10
14434.01360600001
 20
4811.4597990000002
 30
0.0
 40
15.0
 50
0.0
 51
180.0
  0
ARC
  5
3842
  8
0
  6
BYBLOCK
 62
     0
 10
9256.5136060000114
 20
4411.4599629999948
 30
0.0
 40
15.0
 50
0.0
 51
180.0
  0
ARC
  5
3843
  8
0
  6
BYBLOCK
 62
     0
 10
9256.5136060000114
 20
4411.4599629999948
 30
0.0
 40
15.0
 50
180.0
 51
0.0
  0
ARC
  5
3844
  8
0
  6
BYBLOCK
 62
     0
 10
14476.511627000011
 20
4411.4599629999948
 30
0.0
 40
15.0
 50
180.0
 51
0.0
  0
ARC
  5
3845
  8
0
  6
BYBLOCK
 62
     0
 10
14476.511627000011
 20
4411.4599629999948
 30
0.0
 40
15.0
 50
0.0
 51
180.0
  0
ARC
  5
3846
  8
0
  6
BYBLOCK
 62
     0
 10
9299.0136060000114
 20
4811.4597979999962
 30
0.0
 40
15.0
 50
0.0
 51
180.0
  0
ARC
  5
3847
  8
0
  6
BYBLOCK
 62
     0
 10
9299.0136060000114
 20
4811.4597979999962
 30
0.0
 40
15.0
 50
180.0
 51
0.0
  0
ARC
  5
3848
  8
0
  6
BYBLOCK
 62
     0
 10
9256.5136060000114
 20
4811.4597979999962
 30
0.0
 40
15.0
 50
180.0
 51
0.0
  0
ARC
  5
3849
  8
0
  6
BYBLOCK
 62
     0
 10
9256.5136060000114
 20
4811.4597979999962
 30
0.0
 40
15.0
 50
0.0
 51
180.0
  0
ARC
  5
384A
  8
0
  6
BYBLOCK
 62
     0
 10
11866.51360600001
 20
4811.4597979999962
 30
0.0
 40
15.0
 50
180.0
 51
0.0
  0
ARC
  5
384B
  8
0
  6
BYBLOCK
 62
     0
 10
11866.51360600001
 20
4811.4597979999962
 30
0.0
 40
15.0
 50
0.0
 51
180.0
  0
ARC
  5
384C
  8
0
  6
BYBLOCK
 62
     0
 10
9299.0136060000114
 20
4811.4597979999962
 30
0.0
 40
15.0
 50
0.0
 51
180.0
  0
ARC
  5
384D
  8
0
  6
BYBLOCK
 62
     0
 10
9299.0136060000114
 20
4811.4597979999962
 30
0.0
 40
15.0
 50
180.0
 51
0.0
  0
ARC
  5
384E
  8
0
  6
BYBLOCK
 62
     0
 10
19082.258206999999
 20
6111.4596339999998
 30
0.0
 40
15.0
 50
90.0
 51
270.0
  0
ARC
  5
384F
  8
0
  6
BYBLOCK
 62
     0
 10
19082.258206999999
 20
6111.4596339999998
 30
0.0
 40
15.0
 50
270.0
 51
90.0
  0
ARC
  5
3850
  8
0
  6
BYBLOCK
 62
     0
 10
19082.258206999999
 20
8002.9596339999989
 30
0.0
 40
15.0
 50
270.0
 51
90.0
  0
ARC
  5
3851
  8
0
  6
BYBLOCK
 62
     0
 10
19082.258206999999
 20
8002.9596339999989
 30
0.0
 40
15.0
 50
90.0
 51
270.0
  0
ARC
  5
3852
  8
0
  6
BYBLOCK
 62
     0
 10
18682.25589800001
 20
6111.4596339999998
 30
0.0
 40
15.0
 50
90.0
 51
270.0
  0
ARC
  5
3853
  8
0
  6
BYBLOCK
 62
     0
 10
18682.25589800001
 20
6111.4596339999998
 30
0.0
 40
15.0
 50
270.0
 51
90.0
  0
ARC
  5
3854
  8
0
  6
BYBLOCK
 62
     0
 10
18682.25589800001
 20
8460.4594890000008
 30
0.0
 40
15.0
 50
270.0
 51
90.0
  0
ARC
  5
3855
  8
0
  6
BYBLOCK
 62
     0
 10
18682.25589800001
 20
8460.4594890000008
 30
0.0
 40
15.0
 50
90.0
 51
270.0
  0
ARC
  5
3856
  8
0
  6
BYBLOCK
 62
     0
 10
22542.259790999989
 20
9258.9595019999961
 30
0.0
 40
15.0
 50
180.0
 51
0.0
  0
ARC
  5
3857
  8
0
  6
BYBLOCK
 62
     0
 10
22542.259790999989
 20
9258.9595019999961
 30
0.0
 40
15.0
 50
0.0
 51
180.0
  0
ARC
  5
3858
  8
0
  6
BYBLOCK
 62
     0
 10
22585.26190199998
 20
9258.9595019999961
 30
0.0
 40
15.0
 50
0.0
 51
180.0
  0
ARC
  5
3859
  8
0
  6
BYBLOCK
 62
     0
 10
22585.26190199998
 20
9258.9595019999961
 30
0.0
 40
15.0
 50
180.0
 51
0.0
  0
ARC
  5
385A
  8
0
  6
BYBLOCK
 62
     0
 10
19846.757152000031
 20
9658.9172719999951
 30
0.0
 40
15.0
 50
0.0
 51
180.0
  0
ARC
  5
385B
  8
0
  6
BYBLOCK
 62
     0
 10
19846.757152000031
 20
9658.9172719999951
 30
0.0
 40
15.0
 50
180.0
 51
0.0
  0
ARC
  5
385C
  8
0
  6
BYBLOCK
 62
     0
 10
22585.26190199998
 20
9658.9172719999951
 30
0.0
 40
15.0
 50
180.0
 51
0.0
  0
ARC
  5
385D
  8
0
  6
BYBLOCK
 62
     0
 10
22585.26190199998
 20
9658.9172719999951
 30
0.0
 40
15.0
 50
0.0
 51
180.0
  0
ARC
  5
385E
  8
0
  6
BYBLOCK
 62
     0
 10
19889.759263000022
 20
9258.9595019999961
 30
0.0
 40
15.0
 50
0.0
 51
180.0
  0
ARC
  5
385F
  8
0
  6
BYBLOCK
 62
     0
 10
19889.759263000022
 20
9258.9595019999961
 30
0.0
 40
15.0
 50
180.0
 51
0.0
  0
ARC
  5
3860
  8
0
  6
BYBLOCK
 62
     0
 10
22542.259790999989
 20
9258.9595019999961
 30
0.0
 40
15.0
 50
180.0
 51
0.0
  0
ARC
  5
3861
  8
0
  6
BYBLOCK
 62
     0
 10
22542.259790999989
 20
9258.9595019999961
 30
0.0
 40
15.0
 50
0.0
 51
180.0
  0
ARC
  5
3862
  8
0
  6
BYBLOCK
 62
     0
 10
19889.759263000022
 20
9258.9595019999961
 30
0.0
 40
15.0
 50
0.0
 51
180.0
  0
ARC
  5
3863
  8
0
  6
BYBLOCK
 62
     0
 10
19889.759263000022
 20
9258.9595019999961
 30
0.0
 40
15.0
 50
180.0
 51
0.0
  0
ARC
  5
3864
  8
0
  6
BYBLOCK
 62
     0
 10
19846.757152000031
 20
9258.9595019999961
 30
0.0
 40
15.0
 50
180.0
 51
0.0
  0
ARC
  5
3865
  8
0
  6
BYBLOCK
 62
     0
 10
19846.757152000031
 20
9258.9595019999961
 30
0.0
 40
15.0
 50
0.0
 51
180.0
  0
ARC
  5
3866
  8
0
  6
BYBLOCK
 62
     0
 10
22499.759527000009
 20
4811.4597990000038
 30
0.0
 40
15.0
 50
180.0
 51
0.0
  0
ARC
  5
3867
  8
0
  6
BYBLOCK
 62
     0
 10
22499.759527000009
 20
4811.4597990000038
 30
0.0
 40
15.0
 50
0.0
 51
180.0
  0
ARC
  5
3868
  8
0
  6
BYBLOCK
 62
     0
 10
22542.259527000009
 20
4811.4597990000038
 30
0.0
 40
15.0
 50
0.0
 51
180.0
  0
ARC
  5
3869
  8
0
  6
BYBLOCK
 62
     0
 10
22542.259527000009
 20
4811.4597990000038
 30
0.0
 40
15.0
 50
180.0
 51
0.0
  0
ARC
  5
386A
  8
0
  6
BYBLOCK
 62
     0
 10
20026.259526999998
 20
5211.4597990000057
 30
0.0
 40
15.0
 50
0.0
 51
180.0
  0
ARC
  5
386B
  8
0
  6
BYBLOCK
 62
     0
 10
20026.259526999998
 20
5211.4597990000057
 30
0.0
 40
15.0
 50
180.0
 51
0.0
  0
ARC
  5
386C
  8
0
  6
BYBLOCK
 62
     0
 10
22405.759526999998
 20
5211.4597990000057
 30
0.0
 40
15.0
 50
180.0
 51
0.0
  0
ARC
  5
386D
  8
0
  6
BYBLOCK
 62
     0
 10
22405.759526999998
 20
5211.4597990000057
 30
0.0
 40
15.0
 50
0.0
 51
180.0
  0
ARC
  5
386E
  8
0
  6
BYBLOCK
 62
     0
 10
19932.259526999998
 20
4811.4597990000038
 30
0.0
 40
15.0
 50
0.0
 51
180.0
  0
ARC
  5
386F
  8
0
  6
BYBLOCK
 62
     0
 10
19932.259526999998
 20
4811.4597990000038
 30
0.0
 40
15.0
 50
180.0
 51
0.0
  0
ARC
  5
3870
  8
0
  6
BYBLOCK
 62
     0
 10
22499.759527000009
 20
4811.4597990000038
 30
0.0
 40
15.0
 50
180.0
 51
0.0
  0
ARC
  5
3871
  8
0
  6
BYBLOCK
 62
     0
 10
22499.759527000009
 20
4811.4597990000038
 30
0.0
 40
15.0
 50
0.0
 51
180.0
  0
ARC
  5
3872
  8
0
  6
BYBLOCK
 62
     0
 10
19932.259526999998
 20
4811.4597990000038
 30
0.0
 40
15.0
 50
0.0
 51
180.0
  0
ARC
  5
3873
  8
0
  6
BYBLOCK
 62
     0
 10
19932.259526999998
 20
4811.4597990000038
 30
0.0
 40
15.0
 50
180.0
 51
0.0
  0
ARC
  5
3874
  8
0
  6
BYBLOCK
 62
     0
 10
19889.759526999991
 20
4811.4597990000038
 30
0.0
 40
15.0
 50
180.0
 51
0.0
  0
ARC
  5
3875
  8
0
  6
BYBLOCK
 62
     0
 10
19889.759526999991
 20
4811.4597990000038
 30
0.0
 40
15.0
 50
0.0
 51
180.0
  0
ARC
  5
3876
  8
0
  6
BYBLOCK
 62
     0
 10
19889.759526999991
 20
4411.4599640000042
 30
0.0
 40
15.0
 50
0.0
 51
180.0
  0
ARC
  5
3877
  8
0
  6
BYBLOCK
 62
     0
 10
19889.759526999991
 20
4411.4599640000042
 30
0.0
 40
15.0
 50
180.0
 51
0.0
  0
ARC
  5
3878
  8
0
  6
BYBLOCK
 62
     0
 10
22542.259527000009
 20
4411.4599640000042
 30
0.0
 40
15.0
 50
180.0
 51
0.0
  0
ARC
  5
3879
  8
0
  6
BYBLOCK
 62
     0
 10
22542.259527000009
 20
4411.4599640000042
 30
0.0
 40
15.0
 50
0.0
 51
180.0
  0
TEXT
  5
3970
  8
NAME
 10
24033.053546554009
 20
1076.0
 30
0.0
 40
360.0
  1
H
 41
0.6700000000000002
  7
00
  0
TEXT
  5
3971
  8
NAME
 10
23657.221561973682
 20
1076.0
 30
0.0
 40
360.0
  1
（ ）
  7
01
  0
TEXT
  5
3972
  8
NAME
 10
24557.214549256729
 20
1076.0
 30
0.0
 40
360.0
  1
型（単棟）
  7
01
  0
TEXT
  5
3973
  8
NAME
 10
21933.552716389011
 20
1876.0
 30
0.0
 40
360.0
  1
ヨドガレージ ラヴィージュ
 41
0.75
  7
01
  0
TEXT
  5
3974
  8
NAME
 10
21816.089515848391
 20
1076.6369801169251
 30
0.0
 40
360.0
  1
VGC-2652
 41
0.6700000000000002
  0
LINE
  5
3975
  8
NAME
  6
CONTINUOUS
 10
26067.886878884299
 20
2236.0
 30
0.0
 11
26067.886878884299
 21
1876.0
 31
0.0
  0
LINE
  5
3976
  8
NAME
  6
CONTINUOUS
 10
26167.886878884299
 20
2236.0
 30
0.0
 11
26167.886878884299
 21
1876.0
 31
0.0
  0
LINE
  5
3977
  8
NAME
  6
CONTINUOUS
 10
26267.88687888431
 20
2236.0
 30
0.0
 11
26267.88687888431
 21
1876.0
 31
0.0
  0
LINE
  5
3978
  8
NAME
  6
CONTINUOUS
 10
26007.886878884299
 20
2236.0
 30
0.0
 11
26327.886878884299
 21
2236.0
 31
0.0
  0
LINE
  5
3979
  8
NAME
  6
CONTINUOUS
 10
26327.886878884299
 20
1876.0
 30
0.0
 11
26007.886878884299
 21
1876.0
 31
0.0
  0
TEXT
  5
39C6
  8
FILENAME
  6
CONTINUOUS
 10
28756.38095238095
 20
348.0
 30
0.0
 40
200.0
  1
＜VGC-2652-1-A_0.DXF ＞
  7
FILENAME
 72
     2
 11
32764.0
 21
348.0
 31
0.0
  0
LINE
  5
39CA
  8
WAKUSEN-01
 10
868.00000000000193
 20
827.99999999999955
 30
0.0
 11
32764.000000000011
 21
827.99999999999943
 31
0.0
  0
LINE
  5
39CB
  8
WAKUSEN-01
 10
868.00000000000193
 20
22484.000000000011
 30
0.0
 11
32764.000000000011
 21
22484.000000000011
 31
0.0
  0
LINE
  5
39CC
  8
WAKUSEN-01
 10
868.00000000000193
 20
827.99999999999955
 30
0.0
 11
868.00000000000193
 21
22484.000000000011
 31
0.0
  0
LINE
  5
39CD
  8
WAKUSEN-01
 10
32764.000000000011
 20
827.99999999999943
 30
0.0
 11
32764.000000000011
 21
22484.000000000011
 31
0.0
  0
LINE
  5
39CE
  8
WAKUSEN-01
 10
20560.0
 20
2484.0
 30
0.0
 11
32764.0
 21
2484.0
 31
0.0
  0
LINE
  5
39CF
  8
WAKUSEN-02
 10
20560.0
 20
1655.9999999999991
 30
0.0
 11
26868.0
 21
1655.9999999999991
 31
0.0
  0
TEXT
  5
39D0
  8
WAKUMOJI-01
 10
20670.260259962772
 20
2125.9030093393221
 30
0.0
 40
240.0
  1
名　称
  7
WAKUMOJI
  0
TEXT
  5
39D1
  8
WAKUMOJI-01
 10
20656.505485091919
 20
1319.1289749798209
 30
0.0
 40
240.0
  1
機種名
  7
WAKUMOJI
  0
LINE
  5
39D2
  8
WAKUSEN-01
 10
20560.0
 20
827.99999999999716
 30
0.0
 11
20560.0
 21
2484.0
 31
0.0
  0
LINE
  5
39D3
  8
WAKUSEN-02
 10
26868.0
 20
827.99999999999261
 30
0.0
 11
26868.0
 21
2484.0
 31
0.0
  0
LINE
  5
39D4
  8
YODOROGO
 10
29977.604341291921
 20
1995.7494964292871
 30
0.0
 11
29829.604341291921
 21
1995.7494964292871
 31
0.0
1001
AUTOCAD_POSTSCRIPT_FIGURE
1002
{
1000
PSFILL
1000
Grayscale
1000
Grayscale
1070
    25
1002
}
  0
LINE
  5
39D5
  8
YODOROGO
 10
29829.604341291921
 20
1947.749496429288
 30
0.0
 11
29977.604341291921
 21
1947.749496429288
 31
0.0
1001
AUTOCAD_POSTSCRIPT_FIGURE
1002
{
1000
PSFILL
1000
Grayscale
1000
Grayscale
1070
    25
1002
}
  0
LINE
  5
39D6
  8
YODOROGO
 10
29977.604341291921
 20
1907.7494964292871
 30
0.0
 11
29829.604341291921
 21
1907.7494964292871
 31
0.0
1001
AUTOCAD_POSTSCRIPT_FIGURE
1002
{
1000
PSFILL
1000
Grayscale
1000
Grayscale
1070
    25
1002
}
  0
LINE
  5
39D7
  8
YODOROGO
 10
29829.604341291921
 20
1859.749496429288
 30
0.0
 11
29977.604341291921
 21
1859.749496429288
 31
0.0
1001
AUTOCAD_POSTSCRIPT_FIGURE
1002
{
1000
PSFILL
1000
Grayscale
1000
Grayscale
1070
    25
1002
}
  0
LINE
  5
39D8
  8
YODOROGO
 10
29977.604341291921
 20
1819.749496429288
 30
0.0
 11
29829.604341291921
 21
1819.749496429288
 31
0.0
1001
AUTOCAD_POSTSCRIPT_FIGURE
1002
{
1000
PSFILL
1000
Grayscale
1000
Grayscale
1070
    25
1002
}
  0
LINE
  5
39D9
  8
YODOROGO
 10
29921.60434129191
 20
1707.749496429288
 30
0.0
 11
29977.604341291921
 21
1707.749496429288
 31
0.0
1001
AUTOCAD_POSTSCRIPT_FIGURE
1002
{
1000
PSFILL
1000
Grayscale
1000
Grayscale
1070
    25
1002
}
  0
LINE
  5
39DA
  8
YODOROGO
 10
29737.604341291921
 20
1427.749496429288
 30
0.0
 11
29937.604341291932
 21
1481.339334915511
 31
0.0
  0
LINE
  5
39DB
  8
YODOROGO
 10
29949.604341291921
 20
1707.749496429288
 30
0.0
 11
29885.604341291921
 21
1707.749496429288
 31
0.0
  0
ARC
  5
39DC
  8
YODOROGO
 10
30254.34774982791
 20
1807.8646092332619
 30
0.0
 40
381.88686420564733
 50
213.96111677667849
 51
264.47872074317792
  0
ARC
  5
39DD
  8
YODOROGO
 10
30254.347749827921
 20
1807.864609233302
 30
0.0
 40
381.8868642056816
 50
208.14114420486601
 51
212.92103611859949
  0
LINE
  5
39DE
  8
YODOROGO
 10
29771.40987298531
 20
1556.807661346234
 30
0.0
 11
29933.78413250855
 21
1600.3157130570869
 31
0.0
  0
LINE
  5
39DF
  8
YODOROGO
 10
29737.604341291921
 20
1427.749496429288
 30
0.0
 11
29937.604341291932
 21
1481.339334915511
 31
0.0
  0
LINE
  5
39E0
  8
YODOROGO
 10
29949.604341291921
 20
1707.749496429288
 30
0.0
 11
29885.604341291921
 21
1707.749496429288
 31
0.0
  0
ARC
  5
39E1
  8
YODOROGO
 10
30254.34774982791
 20
1807.8646092332619
 30
0.0
 40
381.88686420564733
 50
213.96111677667849
 51
264.47872074317792
  0
LINE
  5
39E2
  8
YODOROGO
 10
28793.60434129191
 20
1819.749496429288
 30
0.0
 11
28433.60434129191
 21
1819.749496429288
 31
0.0
  0
LINE
  5
39E3
  8
YODOROGO
 10
28513.60434129191
 20
1427.749496429288
 30
0.0
 11
28793.60434129191
 21
1427.749496429288
 31
0.0
  0
LINE
  5
39E4
  8
YODOROGO
 10
28729.604341291921
 20
1923.7494964292871
 30
0.0
 11
28497.60434129191
 21
1923.7494964292871
 31
0.0
  0
LINE
  5
39E5
  8
YODOROGO
 10
28585.604341291921
 20
2027.749496429288
 30
0.0
 11
28657.604341291921
 21
2027.749496429288
 31
0.0
  0
LINE
  5
39E6
  8
YODOROGO
 10
28433.60434129191
 20
1707.749496429288
 30
0.0
 11
28433.60434129191
 21
1507.749496429288
 31
0.0
  0
LINE
  5
39E7
  8
YODOROGO
 10
28497.60434129191
 20
1563.7494964292871
 30
0.0
 11
28497.60434129191
 21
1707.749496429288
 31
0.0
  0
LINE
  5
39E8
  8
YODOROGO
 10
28585.604341291921
 20
1747.74949642929
 30
0.0
 11
28585.604341291921
 21
1547.749496429288
 31
0.0
  0
LINE
  5
39E9
  8
YODOROGO
 10
27857.604341291921
 20
1683.7494964292889
 30
0.0
 11
27777.604341291921
 21
1619.972414044571
 31
0.0
  0
LINE
  5
39EA
  8
YODOROGO
 10
27937.604341291921
 20
1619.972414044571
 30
0.0
 11
27857.604341291921
 21
1683.7494964292889
 31
0.0
  0
LINE
  5
39EB
  8
YODOROGO
 10
27857.604341291921
 20
1707.749496429288
 30
0.0
 11
27937.604341291921
 21
1643.9724140445701
 31
0.0
  0
LINE
  5
39EC
  8
YODOROGO
 10
27777.604341291921
 20
1643.9724140445701
 30
0.0
 11
27857.604341291921
 21
1707.749496429288
 31
0.0
  0
LINE
  5
39ED
  8
YODOROGO
 10
28040.913204016899
 20
1659.749496429288
 30
0.0
 11
28040.913204016899
 21
1683.7494964292871
 31
0.0
  0
LINE
  5
39EE
  8
YODOROGO
 10
27977.604341291921
 20
1683.7494964292871
 30
0.0
 11
27977.604341291921
 21
1667.749496429285
 31
0.0
  0
LINE
  5
39EF
  8
YODOROGO
 10
28098.135520230931
 20
1707.749496429288
 30
0.0
 11
28098.135520230931
 21
1655.5036372746561
 31
0.0
1001
AUTOCAD_POSTSCRIPT_FIGURE
1002
{
1000
PSFILL
1000
Grayscale
1000
Grayscale
1070
   100
1002
}
  0
LINE
  5
39F0
  8
YODOROGO
 10
28082.135520230921
 20
1655.5036372746561
 30
0.0
 11
28082.135520230921
 21
1707.749496429288
 31
0.0
1001
AUTOCAD_POSTSCRIPT_FIGURE
1002
{
1000
PSFILL
1000
Grayscale
1000
Grayscale
1070
   100
1002
}
  0
LINE
  5
39F1
  8
YODOROGO
 10
27809.604341291921
 20
1608.771904043258
 30
0.0
 11
27809.604341291921
 21
1632.7719040432589
 31
0.0
  0
LINE
  5
39F2
  8
YODOROGO
 10
27905.604341291921
 20
1608.771904043258
 30
0.0
 11
27809.604341291921
 21
1608.771904043258
 31
0.0
  0
LINE
  5
39F3
  8
YODOROGO
 10
27905.604341291921
 20
1632.7719040432589
 30
0.0
 11
27905.604341291921
 21
1608.771904043258
 31
0.0
  0
LINE
  5
39F4
  8
YODOROGO
 10
27809.604341291921
 20
1632.7719040432589
 30
0.0
 11
27905.604341291921
 21
1632.7719040432589
 31
0.0
  0
LINE
  5
39F5
  8
YODOROGO
 10
27824.509588915749
 20
1568.5028573704751
 30
0.0
 11
27785.604341291921
 21
1475.7494964292871
 31
0.0
1001
AUTOCAD_POSTSCRIPT_FIGURE
1002
{
1000
PSFILL
1000
Grayscale
1000
Grayscale
1070
   100
1002
}
  0
LINE
  5
39F6
  8
YODOROGO
 10
27777.604341291921
 20
1568.5028573704751
 30
0.0
 11
27824.509588915749
 21
1568.5028573704751
 31
0.0
1001
AUTOCAD_POSTSCRIPT_FIGURE
1002
{
1000
PSFILL
1000
Grayscale
1000
Grayscale
1070
   100
1002
}
  0
LINE
  5
39F7
  8
YODOROGO
 10
27777.604341291921
 20
1588.5028573704751
 30
0.0
 11
27777.604341291921
 21
1568.5028573704751
 31
0.0
1001
AUTOCAD_POSTSCRIPT_FIGURE
1002
{
1000
PSFILL
1000
Grayscale
1000
Grayscale
1070
   100
1002
}
  0
LINE
  5
39F8
  8
YODOROGO
 10
27937.604341291921
 20
1588.5028573704751
 30
0.0
 11
27777.604341291921
 21
1588.5028573704751
 31
0.0
1001
AUTOCAD_POSTSCRIPT_FIGURE
1002
{
1000
PSFILL
1000
Grayscale
1000
Grayscale
1070
   100
1002
}
  0
LINE
  5
39F9
  8
YODOROGO
 10
27937.604341291921
 20
1568.5028573704751
 30
0.0
 11
27937.604341291921
 21
1588.5028573704751
 31
0.0
1001
AUTOCAD_POSTSCRIPT_FIGURE
1002
{
1000
PSFILL
1000
Grayscale
1000
Grayscale
1070
   100
1002
}
  0
LINE
  5
39FA
  8
YODOROGO
 10
27844.509588915749
 20
1568.5028573704751
 30
0.0
 11
27937.604341291921
 21
1568.5028573704751
 31
0.0
1001
AUTOCAD_POSTSCRIPT_FIGURE
1002
{
1000
PSFILL
1000
Grayscale
1000
Grayscale
1070
   100
1002
}
  0
LINE
  5
39FB
  8
YODOROGO
 10
27815.546718284779
 20
1495.7494964292871
 30
0.0
 11
27844.509588915749
 21
1568.5028573704751
 31
0.0
1001
AUTOCAD_POSTSCRIPT_FIGURE
1002
{
1000
PSFILL
1000
Grayscale
1000
Grayscale
1070
   100
1002
}
  0
LINE
  5
39FC
  8
YODOROGO
 10
27902.054790808648
 20
1495.7494964292871
 30
0.0
 11
27815.546718284779
 21
1495.7494964292871
 31
0.0
1001
AUTOCAD_POSTSCRIPT_FIGURE
1002
{
1000
PSFILL
1000
Grayscale
1000
Grayscale
1070
   100
1002
}
  0
LINE
  5
39FD
  8
YODOROGO
 10
27885.065004790951
 20
1536.2338106976929
 30
0.0
 11
27902.054790808648
 21
1495.7494964292871
 31
0.0
1001
AUTOCAD_POSTSCRIPT_FIGURE
1002
{
1000
PSFILL
1000
Grayscale
1000
Grayscale
1070
   100
1002
}
  0
LINE
  5
39FE
  8
YODOROGO
 10
27901.065004790951
 20
1536.2338106976929
 30
0.0
 11
27885.065004790951
 21
1536.2338106976929
 31
0.0
1001
AUTOCAD_POSTSCRIPT_FIGURE
1002
{
1000
PSFILL
1000
Grayscale
1000
Grayscale
1070
   100
1002
}
  0
LINE
  5
39FF
  8
YODOROGO
 10
27929.604341291921
 20
1475.7494964292871
 30
0.0
 11
27901.065004790951
 21
1536.2338106976929
 31
0.0
1001
AUTOCAD_POSTSCRIPT_FIGURE
1002
{
1000
PSFILL
1000
Grayscale
1000
Grayscale
1070
   100
1002
}
  0
LINE
  5
3A00
  8
YODOROGO
 10
27785.604341291921
 20
1475.7494964292871
 30
0.0
 11
27929.604341291921
 21
1475.7494964292871
 31
0.0
1001
AUTOCAD_POSTSCRIPT_FIGURE
1002
{
1000
PSFILL
1000
Grayscale
1000
Grayscale
1070
   100
1002
}
  0
LINE
  5
3A01
  8
YODOROGO
 10
27777.604341291921
 20
1619.972414044571
 30
0.0
 11
27777.604341291921
 21
1643.9724140445701
 31
0.0
  0
LINE
  5
3A02
  8
YODOROGO
 10
27937.604341291921
 20
1643.9724140445701
 30
0.0
 11
27937.604341291921
 21
1619.972414044571
 31
0.0
  0
ARC
  5
3A03
  8
YODOROGO
 10
28225.94044214697
 20
1600.877765325326
 30
0.0
 40
175.99999999999989
 50
280.3644312771313
 51
3.541483659218057
  0
ARC
  5
3A04
  8
YODOROGO
 10
28235.756030759301
 20
1633.5978069619041
 30
0.0
 40
111.99999999999829
 50
281.2490582504156
 51
348.75094174958332
  0
LINE
  5
3A05
  8
YODOROGO
 10
28257.604341291921
 20
1523.7494964292871
 30
0.0
 11
28257.604341291921
 21
1427.749496429288
 31
0.0
  0
LINE
  5
3A06
  8
YODOROGO
 10
28020.088903736902
 20
1610.6505650619149
 30
0.0
 11
28040.913204016899
 21
1659.749496429288
 31
0.0
  0
LINE
  5
3A07
  8
YODOROGO
 10
28041.604341291921
 20
1583.120489948401
 30
0.0
 11
28020.088903736902
 21
1610.6505650619149
 31
0.0
  0
LINE
  5
3A08
  8
YODOROGO
 10
28041.604341291921
 20
1563.1204899483989
 30
0.0
 11
28041.604341291921
 21
1583.120489948401
 31
0.0
  0
LINE
  5
3A09
  8
YODOROGO
 10
28017.604341291921
 20
1585.2370637495301
 30
0.0
 11
28041.604341291921
 21
1563.1204899483989
 31
0.0
  0
LINE
  5
3A0A
  8
YODOROGO
 10
28017.604341291921
 20
1475.7494964292871
 30
0.0
 11
28017.604341291921
 21
1585.2370637495301
 31
0.0
  0
LINE
  5
3A0B
  8
YODOROGO
 10
28001.604341291921
 20
1475.7494964292871
 30
0.0
 11
28017.604341291921
 21
1475.7494964292871
 31
0.0
  0
LINE
  5
3A0C
  8
YODOROGO
 10
28001.604341291921
 20
1580.0053496897481
 30
0.0
 11
28001.604341291921
 21
1475.7494964292871
 31
0.0
  0
LINE
  5
3A0D
  8
YODOROGO
 10
27977.604341291921
 20
1532.7680790334291
 30
0.0
 11
28001.604341291921
 21
1580.0053496897481
 31
0.0
  0
LINE
  5
3A0E
  8
YODOROGO
 10
27977.604341291921
 20
1556.76807903343
 30
0.0
 11
27977.604341291921
 21
1532.7680790334291
 31
0.0
  0
LINE
  5
3A0F
  8
YODOROGO
 10
28025.82877429136
 20
1667.749496429285
 30
0.0
 11
27977.604341291921
 21
1556.76807903343
 31
0.0
  0
LINE
  5
3A10
  8
YODOROGO
 10
27977.604341291921
 20
1667.749496429285
 30
0.0
 11
28025.82877429136
 21
1667.749496429285
 31
0.0
  0
LINE
  5
3A11
  8
YODOROGO
 10
28050.13552023091
 20
1655.5036372746561
 30
0.0
 11
28082.135520230921
 21
1655.5036372746561
 31
0.0
1001
AUTOCAD_POSTSCRIPT_FIGURE
1002
{
1000
PSFILL
1000
Grayscale
1000
Grayscale
1070
   100
1002
}
  0
LINE
  5
3A12
  8
YODOROGO
 10
28050.13552023091
 20
1631.503637274657
 30
0.0
 11
28050.13552023091
 21
1655.5036372746561
 31
0.0
1001
AUTOCAD_POSTSCRIPT_FIGURE
1002
{
1000
PSFILL
1000
Grayscale
1000
Grayscale
1070
   100
1002
}
  0
LINE
  5
3A13
  8
YODOROGO
 10
28082.135520230921
 20
1631.503637274657
 30
0.0
 11
28050.13552023091
 21
1631.503637274657
 31
0.0
1001
AUTOCAD_POSTSCRIPT_FIGURE
1002
{
1000
PSFILL
1000
Grayscale
1000
Grayscale
1070
   100
1002
}
  0
LINE
  5
3A14
  8
YODOROGO
 10
28082.135520230921
 20
1499.749496429288
 30
0.0
 11
28082.135520230921
 21
1631.503637274657
 31
0.0
1001
AUTOCAD_POSTSCRIPT_FIGURE
1002
{
1000
PSFILL
1000
Grayscale
1000
Grayscale
1070
   100
1002
}
  0
LINE
  5
3A15
  8
YODOROGO
 10
28050.135520230931
 20
1499.749496429288
 30
0.0
 11
28082.135520230921
 21
1499.749496429288
 31
0.0
1001
AUTOCAD_POSTSCRIPT_FIGURE
1002
{
1000
PSFILL
1000
Grayscale
1000
Grayscale
1070
   100
1002
}
  0
LINE
  5
3A16
  8
YODOROGO
 10
28050.135520230931
 20
1475.7494964292871
 30
0.0
 11
28050.135520230931
 21
1499.749496429288
 31
0.0
1001
AUTOCAD_POSTSCRIPT_FIGURE
1002
{
1000
PSFILL
1000
Grayscale
1000
Grayscale
1070
   100
1002
}
  0
LINE
  5
3A17
  8
YODOROGO
 10
28137.604341291921
 20
1475.7494964292871
 30
0.0
 11
28050.135520230931
 21
1475.7494964292871
 31
0.0
1001
AUTOCAD_POSTSCRIPT_FIGURE
1002
{
1000
PSFILL
1000
Grayscale
1000
Grayscale
1070
   100
1002
}
  0
LINE
  5
3A18
  8
YODOROGO
 10
28137.604341291921
 20
1499.749496429288
 30
0.0
 11
28137.604341291921
 21
1475.7494964292871
 31
0.0
1001
AUTOCAD_POSTSCRIPT_FIGURE
1002
{
1000
PSFILL
1000
Grayscale
1000
Grayscale
1070
   100
1002
}
  0
LINE
  5
3A19
  8
YODOROGO
 10
28098.135520230931
 20
1499.749496429288
 30
0.0
 11
28137.604341291921
 21
1499.749496429288
 31
0.0
1001
AUTOCAD_POSTSCRIPT_FIGURE
1002
{
1000
PSFILL
1000
Grayscale
1000
Grayscale
1070
   100
1002
}
  0
LINE
  5
3A1A
  8
YODOROGO
 10
28098.135520230931
 20
1631.503637274657
 30
0.0
 11
28098.135520230931
 21
1499.749496429288
 31
0.0
1001
AUTOCAD_POSTSCRIPT_FIGURE
1002
{
1000
PSFILL
1000
Grayscale
1000
Grayscale
1070
   100
1002
}
  0
LINE
  5
3A1B
  8
YODOROGO
 10
28137.604341291921
 20
1631.503637274657
 30
0.0
 11
28098.135520230931
 21
1631.503637274657
 31
0.0
1001
AUTOCAD_POSTSCRIPT_FIGURE
1002
{
1000
PSFILL
1000
Grayscale
1000
Grayscale
1070
   100
1002
}
  0
LINE
  5
3A1C
  8
YODOROGO
 10
28137.604341291921
 20
1655.5036372746561
 30
0.0
 11
28137.604341291921
 21
1631.503637274657
 31
0.0
1001
AUTOCAD_POSTSCRIPT_FIGURE
1002
{
1000
PSFILL
1000
Grayscale
1000
Grayscale
1070
   100
1002
}
  0
LINE
  5
3A1D
  8
YODOROGO
 10
28098.135520230931
 20
1655.5036372746561
 30
0.0
 11
28137.604341291921
 21
1655.5036372746561
 31
0.0
1001
AUTOCAD_POSTSCRIPT_FIGURE
1002
{
1000
PSFILL
1000
Grayscale
1000
Grayscale
1070
   100
1002
}
  0
LINE
  5
3A1E
  8
YODOROGO
 10
28401.60434129191
 20
1667.749496429288
 30
0.0
 11
28345.604341291921
 21
1667.749496429288
 31
0.0
  0
LINE
  5
3A1F
  8
YODOROGO
 10
28401.60434129191
 20
1611.7494964292889
 30
0.0
 11
28401.60434129191
 21
1667.749496429288
 31
0.0
  0
LINE
  5
3A20
  8
YODOROGO
 10
28345.604341291921
 20
1667.749496429288
 30
0.0
 11
28345.604341291921
 21
1611.7494964292889
 31
0.0
  0
ARC
  5
3A21
  8
YODOROGO
 10
28513.60434129191
 20
1507.749496429288
 30
0.0
 40
80.0
 50
180.0
 51
270.0
  0
ARC
  5
3A22
  8
YODOROGO
 10
28537.60434129191
 20
1563.7494964292871
 30
0.0
 40
40.0
 50
180.0
 51
270.0
  0
LINE
  5
3A23
  8
YODOROGO
 10
28561.604341291932
 20
1523.7494964292871
 30
0.0
 11
28537.60434129191
 21
1523.7494964292871
 31
0.0
  0
ARC
  5
3A24
  8
YODOROGO
 10
28561.604341291932
 20
1547.749496429285
 30
0.0
 40
23.999999999996358
 50
270.0
 51
0.0000000000054281
  0
LINE
  5
3A25
  8
YODOROGO
 10
27801.604341291921
 20
1890.786580793706
 30
0.0
 11
27777.604341291921
 21
1843.776747951672
 31
0.0
1001
AUTOCAD_POSTSCRIPT_FIGURE
1002
{
1000
PSFILL
1000
Grayscale
1000
Grayscale
1070
   100
1002
}
  0
LINE
  5
3A26
  8
YODOROGO
 10
27801.604341291921
 20
1747.7494964292871
 30
0.0
 11
27801.604341291921
 21
1890.786580793706
 31
0.0
1001
AUTOCAD_POSTSCRIPT_FIGURE
1002
{
1000
PSFILL
1000
Grayscale
1000
Grayscale
1070
   100
1002
}
  0
LINE
  5
3A27
  8
YODOROGO
 10
27817.604341291921
 20
1747.7494964292871
 30
0.0
 11
27801.604341291921
 21
1747.7494964292871
 31
0.0
1001
AUTOCAD_POSTSCRIPT_FIGURE
1002
{
1000
PSFILL
1000
Grayscale
1000
Grayscale
1070
   100
1002
}
  0
LINE
  5
3A28
  8
YODOROGO
 10
27817.604341291921
 20
1893.771332085267
 30
0.0
 11
27817.604341291921
 21
1747.7494964292871
 31
0.0
1001
AUTOCAD_POSTSCRIPT_FIGURE
1002
{
1000
PSFILL
1000
Grayscale
1000
Grayscale
1070
   100
1002
}
  0
LINE
  5
3A29
  8
YODOROGO
 10
27841.604341291921
 20
1867.654758284137
 30
0.0
 11
27817.604341291921
 21
1893.771332085267
 31
0.0
1001
AUTOCAD_POSTSCRIPT_FIGURE
1002
{
1000
PSFILL
1000
Grayscale
1000
Grayscale
1070
   100
1002
}
  0
LINE
  5
3A2A
  8
YODOROGO
 10
27841.604341291921
 20
1883.6547582841361
 30
0.0
 11
27841.604341291921
 21
1867.654758284137
 31
0.0
1001
AUTOCAD_POSTSCRIPT_FIGURE
1002
{
1000
PSFILL
1000
Grayscale
1000
Grayscale
1070
   100
1002
}
  0
LINE
  5
3A2B
  8
YODOROGO
 10
27817.604341291921
 20
1917.7713320852649
 30
0.0
 11
27841.604341291921
 21
1883.6547582841361
 31
0.0
1001
AUTOCAD_POSTSCRIPT_FIGURE
1002
{
1000
PSFILL
1000
Grayscale
1000
Grayscale
1070
   100
1002
}
  0
LINE
  5
3A2C
  8
YODOROGO
 10
27817.604341291921
 20
1939.749496429288
 30
0.0
 11
27817.604341291921
 21
1917.7713320852649
 31
0.0
1001
AUTOCAD_POSTSCRIPT_FIGURE
1002
{
1000
PSFILL
1000
Grayscale
1000
Grayscale
1070
   100
1002
}
  0
LINE
  5
3A2D
  8
YODOROGO
 10
27889.604341291921
 20
1939.749496429288
 30
0.0
 11
27817.604341291921
 21
1939.749496429288
 31
0.0
1001
AUTOCAD_POSTSCRIPT_FIGURE
1002
{
1000
PSFILL
1000
Grayscale
1000
Grayscale
1070
   100
1002
}
  0
LINE
  5
3A2E
  8
YODOROGO
 10
27889.604341291921
 20
1900.5683489363
 30
0.0
 11
27889.604341291921
 21
1939.749496429288
 31
0.0
1001
AUTOCAD_POSTSCRIPT_FIGURE
1002
{
1000
PSFILL
1000
Grayscale
1000
Grayscale
1070
   100
1002
}
  0
LINE
  5
3A2F
  8
YODOROGO
 10
27857.604341291921
 20
1900.5683489363
 30
0.0
 11
27889.604341291921
 21
1900.5683489363
 31
0.0
1001
AUTOCAD_POSTSCRIPT_FIGURE
1002
{
1000
PSFILL
1000
Grayscale
1000
Grayscale
1070
   100
1002
}
  0
LINE
  5
3A30
  8
YODOROGO
 10
27857.604341291921
 20
1884.568348936298
 30
0.0
 11
27857.604341291921
 21
1900.5683489363
 31
0.0
1001
AUTOCAD_POSTSCRIPT_FIGURE
1002
{
1000
PSFILL
1000
Grayscale
1000
Grayscale
1070
   100
1002
}
  0
LINE
  5
3A31
  8
YODOROGO
 10
27889.604341291921
 20
1884.568348936298
 30
0.0
 11
27857.604341291921
 21
1884.568348936298
 31
0.0
1001
AUTOCAD_POSTSCRIPT_FIGURE
1002
{
1000
PSFILL
1000
Grayscale
1000
Grayscale
1070
   100
1002
}
  0
LINE
  5
3A32
  8
YODOROGO
 10
27889.604341291921
 20
1879.6191779644389
 30
0.0
 11
27889.604341291921
 21
1884.568348936298
 31
0.0
1001
AUTOCAD_POSTSCRIPT_FIGURE
1002
{
1000
PSFILL
1000
Grayscale
1000
Grayscale
1070
   100
1002
}
  0
LINE
  5
3A33
  8
YODOROGO
 10
27849.604341291921
 20
1812.974981161417
 30
0.0
 11
27889.604341291921
 21
1879.6191779644389
 31
0.0
1001
AUTOCAD_POSTSCRIPT_FIGURE
1002
{
1000
PSFILL
1000
Grayscale
1000
Grayscale
1070
   100
1002
}
  0
LINE
  5
3A34
  8
YODOROGO
 10
27849.604341291921
 20
1796.9749811614161
 30
0.0
 11
27849.604341291921
 21
1812.974981161417
 31
0.0
1001
AUTOCAD_POSTSCRIPT_FIGURE
1002
{
1000
PSFILL
1000
Grayscale
1000
Grayscale
1070
   100
1002
}
  0
LINE
  5
3A35
  8
YODOROGO
 10
27889.604341291921
 20
1847.6191779644371
 30
0.0
 11
27849.604341291921
 21
1796.9749811614161
 31
0.0
1001
AUTOCAD_POSTSCRIPT_FIGURE
1002
{
1000
PSFILL
1000
Grayscale
1000
Grayscale
1070
   100
1002
}
  0
LINE
  5
3A36
  8
YODOROGO
 10
27889.604341291921
 20
1747.7494964292871
 30
0.0
 11
27889.604341291921
 21
1847.6191779644371
 31
0.0
1001
AUTOCAD_POSTSCRIPT_FIGURE
1002
{
1000
PSFILL
1000
Grayscale
1000
Grayscale
1070
   100
1002
}
  0
LINE
  5
3A37
  8
YODOROGO
 10
27905.604341291921
 20
1747.7494964292871
 30
0.0
 11
27889.604341291921
 21
1747.7494964292871
 31
0.0
1001
AUTOCAD_POSTSCRIPT_FIGURE
1002
{
1000
PSFILL
1000
Grayscale
1000
Grayscale
1070
   100
1002
}
  0
LINE
  5
3A38
  8
YODOROGO
 10
27905.604341291921
 20
1849.409012158806
 30
0.0
 11
27905.604341291921
 21
1747.7494964292871
 31
0.0
1001
AUTOCAD_POSTSCRIPT_FIGURE
1002
{
1000
PSFILL
1000
Grayscale
1000
Grayscale
1070
   100
1002
}
  0
LINE
  5
3A39
  8
YODOROGO
 10
27937.604341291921
 20
1796.9749811614161
 30
0.0
 11
27905.604341291921
 21
1849.409012158806
 31
0.0
1001
AUTOCAD_POSTSCRIPT_FIGURE
1002
{
1000
PSFILL
1000
Grayscale
1000
Grayscale
1070
   100
1002
}
  0
LINE
  5
3A3A
  8
YODOROGO
 10
27937.604341291921
 20
1812.974981161417
 30
0.0
 11
27937.604341291921
 21
1796.9749811614161
 31
0.0
1001
AUTOCAD_POSTSCRIPT_FIGURE
1002
{
1000
PSFILL
1000
Grayscale
1000
Grayscale
1070
   100
1002
}
  0
LINE
  5
3A3B
  8
YODOROGO
 10
27905.604341291921
 20
1881.4090121588081
 30
0.0
 11
27937.604341291921
 21
1812.974981161417
 31
0.0
1001
AUTOCAD_POSTSCRIPT_FIGURE
1002
{
1000
PSFILL
1000
Grayscale
1000
Grayscale
1070
   100
1002
}
  0
LINE
  5
3A3C
  8
YODOROGO
 10
27905.604341291932
 20
1884.5683489363
 30
0.0
 11
27905.604341291921
 21
1881.4090121588081
 31
0.0
1001
AUTOCAD_POSTSCRIPT_FIGURE
1002
{
1000
PSFILL
1000
Grayscale
1000
Grayscale
1070
   100
1002
}
  0
LINE
  5
3A3D
  8
YODOROGO
 10
27937.604341291921
 20
1884.568348936298
 30
0.0
 11
27905.604341291932
 21
1884.5683489363
 31
0.0
1001
AUTOCAD_POSTSCRIPT_FIGURE
1002
{
1000
PSFILL
1000
Grayscale
1000
Grayscale
1070
   100
1002
}
  0
LINE
  5
3A3E
  8
YODOROGO
 10
27937.604341291921
 20
1900.5683489363
 30
0.0
 11
27937.604341291921
 21
1884.568348936298
 31
0.0
1001
AUTOCAD_POSTSCRIPT_FIGURE
1002
{
1000
PSFILL
1000
Grayscale
1000
Grayscale
1070
   100
1002
}
  0
LINE
  5
3A3F
  8
YODOROGO
 10
27905.604341291921
 20
1900.5683489363
 30
0.0
 11
27937.604341291921
 21
1900.5683489363
 31
0.0
1001
AUTOCAD_POSTSCRIPT_FIGURE
1002
{
1000
PSFILL
1000
Grayscale
1000
Grayscale
1070
   100
1002
}
  0
LINE
  5
3A40
  8
YODOROGO
 10
27905.604341291921
 20
1939.749496429288
 30
0.0
 11
27905.604341291921
 21
1900.5683489363
 31
0.0
1001
AUTOCAD_POSTSCRIPT_FIGURE
1002
{
1000
PSFILL
1000
Grayscale
1000
Grayscale
1070
   100
1002
}
  0
LINE
  5
3A41
  8
YODOROGO
 10
27937.604341291921
 20
1939.749496429288
 30
0.0
 11
27905.604341291921
 21
1939.749496429288
 31
0.0
1001
AUTOCAD_POSTSCRIPT_FIGURE
1002
{
1000
PSFILL
1000
Grayscale
1000
Grayscale
1070
   100
1002
}
  0
LINE
  5
3A42
  8
YODOROGO
 10
27937.604341291921
 20
1955.7494964292871
 30
0.0
 11
27937.604341291921
 21
1939.749496429288
 31
0.0
1001
AUTOCAD_POSTSCRIPT_FIGURE
1002
{
1000
PSFILL
1000
Grayscale
1000
Grayscale
1070
   100
1002
}
  0
LINE
  5
3A43
  8
YODOROGO
 10
27905.604341291921
 20
1955.7494964292871
 30
0.0
 11
27937.604341291921
 21
1955.7494964292871
 31
0.0
1001
AUTOCAD_POSTSCRIPT_FIGURE
1002
{
1000
PSFILL
1000
Grayscale
1000
Grayscale
1070
   100
1002
}
  0
LINE
  5
3A44
  8
YODOROGO
 10
27905.604341291921
 20
1979.749496429288
 30
0.0
 11
27905.604341291921
 21
1955.7494964292871
 31
0.0
1001
AUTOCAD_POSTSCRIPT_FIGURE
1002
{
1000
PSFILL
1000
Grayscale
1000
Grayscale
1070
   100
1002
}
  0
LINE
  5
3A45
  8
YODOROGO
 10
27889.604341291921
 20
1979.749496429288
 30
0.0
 11
27905.604341291921
 21
1979.749496429288
 31
0.0
1001
AUTOCAD_POSTSCRIPT_FIGURE
1002
{
1000
PSFILL
1000
Grayscale
1000
Grayscale
1070
   100
1002
}
  0
LINE
  5
3A46
  8
YODOROGO
 10
27889.604341291921
 20
1955.7494964292871
 30
0.0
 11
27889.604341291921
 21
1979.749496429288
 31
0.0
1001
AUTOCAD_POSTSCRIPT_FIGURE
1002
{
1000
PSFILL
1000
Grayscale
1000
Grayscale
1070
   100
1002
}
  0
LINE
  5
3A47
  8
YODOROGO
 10
27865.604341291921
 20
1955.7494964292871
 30
0.0
 11
27889.604341291921
 21
1955.7494964292871
 31
0.0
1001
AUTOCAD_POSTSCRIPT_FIGURE
1002
{
1000
PSFILL
1000
Grayscale
1000
Grayscale
1070
   100
1002
}
  0
LINE
  5
3A48
  8
YODOROGO
 10
27865.604341291921
 20
1979.749496429288
 30
0.0
 11
27865.604341291921
 21
1955.7494964292871
 31
0.0
1001
AUTOCAD_POSTSCRIPT_FIGURE
1002
{
1000
PSFILL
1000
Grayscale
1000
Grayscale
1070
   100
1002
}
  0
LINE
  5
3A49
  8
YODOROGO
 10
27849.604341291921
 20
1979.749496429288
 30
0.0
 11
27865.604341291921
 21
1979.749496429288
 31
0.0
1001
AUTOCAD_POSTSCRIPT_FIGURE
1002
{
1000
PSFILL
1000
Grayscale
1000
Grayscale
1070
   100
1002
}
  0
LINE
  5
3A4A
  8
YODOROGO
 10
27849.604341291921
 20
1955.7494964292871
 30
0.0
 11
27849.604341291921
 21
1979.749496429288
 31
0.0
1001
AUTOCAD_POSTSCRIPT_FIGURE
1002
{
1000
PSFILL
1000
Grayscale
1000
Grayscale
1070
   100
1002
}
  0
LINE
  5
3A4B
  8
YODOROGO
 10
27817.604341291921
 20
1955.7494964292871
 30
0.0
 11
27849.604341291921
 21
1955.7494964292871
 31
0.0
1001
AUTOCAD_POSTSCRIPT_FIGURE
1002
{
1000
PSFILL
1000
Grayscale
1000
Grayscale
1070
   100
1002
}
  0
LINE
  5
3A4C
  8
YODOROGO
 10
27817.604341291921
 20
1979.749496429288
 30
0.0
 11
27817.604341291921
 21
1955.7494964292871
 31
0.0
1001
AUTOCAD_POSTSCRIPT_FIGURE
1002
{
1000
PSFILL
1000
Grayscale
1000
Grayscale
1070
   100
1002
}
  0
LINE
  5
3A4D
  8
YODOROGO
 10
27801.604341291921
 20
1979.749496429288
 30
0.0
 11
27817.604341291921
 21
1979.749496429288
 31
0.0
1001
AUTOCAD_POSTSCRIPT_FIGURE
1002
{
1000
PSFILL
1000
Grayscale
1000
Grayscale
1070
   100
1002
}
  0
LINE
  5
3A4E
  8
YODOROGO
 10
27801.604341291921
 20
1955.7494964292871
 30
0.0
 11
27801.604341291921
 21
1979.749496429288
 31
0.0
1001
AUTOCAD_POSTSCRIPT_FIGURE
1002
{
1000
PSFILL
1000
Grayscale
1000
Grayscale
1070
   100
1002
}
  0
LINE
  5
3A4F
  8
YODOROGO
 10
27777.604341291921
 20
1955.7494964292871
 30
0.0
 11
27801.604341291921
 21
1955.7494964292871
 31
0.0
1001
AUTOCAD_POSTSCRIPT_FIGURE
1002
{
1000
PSFILL
1000
Grayscale
1000
Grayscale
1070
   100
1002
}
  0
LINE
  5
3A50
  8
YODOROGO
 10
27777.604341291921
 20
1939.749496429288
 30
0.0
 11
27777.604341291921
 21
1955.7494964292871
 31
0.0
1001
AUTOCAD_POSTSCRIPT_FIGURE
1002
{
1000
PSFILL
1000
Grayscale
1000
Grayscale
1070
   100
1002
}
  0
LINE
  5
3A51
  8
YODOROGO
 10
27801.604341291921
 20
1939.749496429288
 30
0.0
 11
27777.604341291921
 21
1939.749496429288
 31
0.0
1001
AUTOCAD_POSTSCRIPT_FIGURE
1002
{
1000
PSFILL
1000
Grayscale
1000
Grayscale
1070
   100
1002
}
  0
LINE
  5
3A52
  8
YODOROGO
 10
27801.604341291921
 20
1914.7865807937051
 30
0.0
 11
27801.604341291921
 21
1939.749496429288
 31
0.0
1001
AUTOCAD_POSTSCRIPT_FIGURE
1002
{
1000
PSFILL
1000
Grayscale
1000
Grayscale
1070
   100
1002
}
  0
LINE
  5
3A53
  8
YODOROGO
 10
27777.604341291921
 20
1859.776747951671
 30
0.0
 11
27801.604341291921
 21
1914.7865807937051
 31
0.0
1001
AUTOCAD_POSTSCRIPT_FIGURE
1002
{
1000
PSFILL
1000
Grayscale
1000
Grayscale
1070
   100
1002
}
  0
LINE
  5
3A54
  8
YODOROGO
 10
27777.604341291921
 20
1843.776747951672
 30
0.0
 11
27777.604341291921
 21
1859.776747951671
 31
0.0
1001
AUTOCAD_POSTSCRIPT_FIGURE
1002
{
1000
PSFILL
1000
Grayscale
1000
Grayscale
1070
   100
1002
}
  0
LINE
  5
3A55
  8
YODOROGO
 10
28257.604341291921
 20
1867.749496429288
 30
0.0
 11
28401.60434129191
 21
1824.877625640306
 31
0.0
1001
AUTOCAD_POSTSCRIPT_FIGURE
1002
{
1000
PSFILL
1000
Grayscale
1000
Grayscale
1070
   100
1002
}
  0
LINE
  5
3A56
  8
YODOROGO
 10
28401.60434129191
 20
1752.877625640306
 30
0.0
 11
28257.604341291921
 21
1795.7494964292871
 31
0.0
1001
AUTOCAD_POSTSCRIPT_FIGURE
1002
{
1000
PSFILL
1000
Grayscale
1000
Grayscale
1070
   100
1002
}
  0
LINE
  5
3A57
  8
YODOROGO
 10
28401.60434129191
 20
1984.877625640306
 30
0.0
 11
28257.604341291921
 21
2027.749496429288
 31
0.0
1001
AUTOCAD_POSTSCRIPT_FIGURE
1002
{
1000
PSFILL
1000
Grayscale
1000
Grayscale
1070
   100
1002
}
  0
LINE
  5
3A58
  8
YODOROGO
 10
28257.604341291921
 20
1959.749496429288
 30
0.0
 11
28401.60434129191
 21
1916.8776256403071
 31
0.0
1001
AUTOCAD_POSTSCRIPT_FIGURE
1002
{
1000
PSFILL
1000
Grayscale
1000
Grayscale
1070
   100
1002
}
  0
LINE
  5
3A59
  8
YODOROGO
 10
28257.604341291921
 20
1795.7494964292871
 30
0.0
 11
28257.604341291921
 21
1867.749496429288
 31
0.0
1001
AUTOCAD_POSTSCRIPT_FIGURE
1002
{
1000
PSFILL
1000
Grayscale
1000
Grayscale
1070
   100
1002
}
  0
LINE
  5
3A5A
  8
YODOROGO
 10
28257.604341291921
 20
2027.749496429288
 30
0.0
 11
28257.604341291921
 21
1959.749496429288
 31
0.0
1001
AUTOCAD_POSTSCRIPT_FIGURE
1002
{
1000
PSFILL
1000
Grayscale
1000
Grayscale
1070
   100
1002
}
  0
LINE
  5
3A5B
  8
YODOROGO
 10
28080.236320206739
 20
1939.749496429288
 30
0.0
 11
28129.604341291921
 21
1747.7494964292871
 31
0.0
1001
AUTOCAD_POSTSCRIPT_FIGURE
1002
{
1000
PSFILL
1000
Grayscale
1000
Grayscale
1070
   100
1002
}
  0
LINE
  5
3A5C
  8
YODOROGO
 10
27977.604341291921
 20
1939.749496429288
 30
0.0
 11
28080.236320206739
 21
1939.749496429288
 31
0.0
1001
AUTOCAD_POSTSCRIPT_FIGURE
1002
{
1000
PSFILL
1000
Grayscale
1000
Grayscale
1070
   100
1002
}
  0
LINE
  5
3A5D
  8
YODOROGO
 10
27977.604341291921
 20
1955.7494964292871
 30
0.0
 11
27977.604341291921
 21
1939.749496429288
 31
0.0
1001
AUTOCAD_POSTSCRIPT_FIGURE
1002
{
1000
PSFILL
1000
Grayscale
1000
Grayscale
1070
   100
1002
}
  0
LINE
  5
3A5E
  8
YODOROGO
 10
28076.60687851992
 20
1955.7494964292871
 30
0.0
 11
27977.604341291921
 21
1955.7494964292871
 31
0.0
1001
AUTOCAD_POSTSCRIPT_FIGURE
1002
{
1000
PSFILL
1000
Grayscale
1000
Grayscale
1070
   100
1002
}
  0
LINE
  5
3A5F
  8
YODOROGO
 10
28071.162715989711
 20
1979.749496429288
 30
0.0
 11
28076.60687851992
 21
1955.7494964292871
 31
0.0
1001
AUTOCAD_POSTSCRIPT_FIGURE
1002
{
1000
PSFILL
1000
Grayscale
1000
Grayscale
1070
   100
1002
}
  0
LINE
  5
3A60
  8
YODOROGO
 10
28091.162715989711
 20
1979.749496429288
 30
0.0
 11
28071.162715989711
 21
1979.749496429288
 31
0.0
1001
AUTOCAD_POSTSCRIPT_FIGURE
1002
{
1000
PSFILL
1000
Grayscale
1000
Grayscale
1070
   100
1002
}
  0
LINE
  5
3A61
  8
YODOROGO
 10
28095.806878519939
 20
1955.7494964292871
 30
0.0
 11
28091.162715989711
 21
1979.749496429288
 31
0.0
1001
AUTOCAD_POSTSCRIPT_FIGURE
1002
{
1000
PSFILL
1000
Grayscale
1000
Grayscale
1070
   100
1002
}
  0
LINE
  5
3A62
  8
YODOROGO
 10
28121.604341291921
 20
1955.7494964292871
 30
0.0
 11
28095.806878519939
 21
1955.7494964292871
 31
0.0
1001
AUTOCAD_POSTSCRIPT_FIGURE
1002
{
1000
PSFILL
1000
Grayscale
1000
Grayscale
1070
   100
1002
}
  0
LINE
  5
3A63
  8
YODOROGO
 10
28121.604341291921
 20
1979.749496429288
 30
0.0
 11
28121.604341291921
 21
1955.7494964292871
 31
0.0
1001
AUTOCAD_POSTSCRIPT_FIGURE
1002
{
1000
PSFILL
1000
Grayscale
1000
Grayscale
1070
   100
1002
}
  0
LINE
  5
3A64
  8
YODOROGO
 10
28137.604341291921
 20
1979.749496429288
 30
0.0
 11
28121.604341291921
 21
1979.749496429288
 31
0.0
1001
AUTOCAD_POSTSCRIPT_FIGURE
1002
{
1000
PSFILL
1000
Grayscale
1000
Grayscale
1070
   100
1002
}
  0
LINE
  5
3A65
  8
YODOROGO
 10
28137.604341291921
 20
1955.7494964292871
 30
0.0
 11
28137.604341291921
 21
1979.749496429288
 31
0.0
1001
AUTOCAD_POSTSCRIPT_FIGURE
1002
{
1000
PSFILL
1000
Grayscale
1000
Grayscale
1070
   100
1002
}
  0
LINE
  5
3A66
  8
YODOROGO
 10
28137.604341291921
 20
1939.749496429288
 30
0.0
 11
28137.604341291921
 21
1955.7494964292871
 31
0.0
1001
AUTOCAD_POSTSCRIPT_FIGURE
1002
{
1000
PSFILL
1000
Grayscale
1000
Grayscale
1070
   100
1002
}
  0
LINE
  5
3A67
  8
YODOROGO
 10
28098.902986873421
 20
1939.749496429288
 30
0.0
 11
28137.604341291921
 21
1939.749496429288
 31
0.0
1001
AUTOCAD_POSTSCRIPT_FIGURE
1002
{
1000
PSFILL
1000
Grayscale
1000
Grayscale
1070
   100
1002
}
  0
LINE
  5
3A68
  8
YODOROGO
 10
28137.604341291921
 20
1747.7494964292871
 30
0.0
 11
28098.902986873421
 21
1939.749496429288
 31
0.0
1001
AUTOCAD_POSTSCRIPT_FIGURE
1002
{
1000
PSFILL
1000
Grayscale
1000
Grayscale
1070
   100
1002
}
  0
LINE
  5
3A69
  8
YODOROGO
 10
28129.604341291921
 20
1747.7494964292871
 30
0.0
 11
28137.604341291921
 21
1747.7494964292871
 31
0.0
1001
AUTOCAD_POSTSCRIPT_FIGURE
1002
{
1000
PSFILL
1000
Grayscale
1000
Grayscale
1070
   100
1002
}
  0
LINE
  5
3A6A
  8
YODOROGO
 10
28078.069219933801
 20
1775.7407762987939
 30
0.0
 11
27977.604341291921
 21
1747.7494964292871
 31
0.0
  0
LINE
  5
3A6B
  8
YODOROGO
 10
28078.069219933801
 20
1798.6689795290731
 30
0.0
 11
28078.069219933801
 21
1775.7407762987939
 31
0.0
  0
LINE
  5
3A6C
  8
YODOROGO
 10
28033.83678061287
 20
1786.816933133767
 30
0.0
 11
28078.069219933801
 21
1798.6689795290731
 31
0.0
  0
LINE
  5
3A6D
  8
YODOROGO
 10
28033.83678061287
 20
1872.5683489363
 30
0.0
 11
28033.83678061287
 21
1786.816933133767
 31
0.0
  0
LINE
  5
3A6E
  8
YODOROGO
 10
28078.069219933801
 20
1872.5683489363
 30
0.0
 11
28033.83678061287
 21
1872.5683489363
 31
0.0
  0
LINE
  5
3A6F
  8
YODOROGO
 10
28078.069219933801
 20
1892.568348936298
 30
0.0
 11
28078.069219933801
 21
1872.5683489363
 31
0.0
  0
LINE
  5
3A70
  8
YODOROGO
 10
27977.604341291921
 20
1892.568348936298
 30
0.0
 11
28078.069219933801
 21
1892.568348936298
 31
0.0
  0
LINE
  5
3A71
  8
YODOROGO
 10
27977.604341291921
 20
1872.5683489363
 30
0.0
 11
27977.604341291921
 21
1892.568348936298
 31
0.0
  0
LINE
  5
3A72
  8
YODOROGO
 10
28021.836780612859
 20
1872.5683489363
 30
0.0
 11
27977.604341291921
 21
1872.5683489363
 31
0.0
  0
LINE
  5
3A73
  8
YODOROGO
 10
28021.836780612859
 20
1784.673339594317
 30
0.0
 11
28021.836780612859
 21
1872.5683489363
 31
0.0
  0
LINE
  5
3A74
  8
YODOROGO
 10
27977.604341291921
 20
1771.749496429286
 30
0.0
 11
28021.836780612859
 21
1784.673339594317
 31
0.0
  0
LINE
  5
3A75
  8
YODOROGO
 10
27977.604341291921
 20
1747.7494964292871
 30
0.0
 11
27977.604341291921
 21
1771.749496429286
 31
0.0
  0
LINE
  5
3A76
  8
YODOROGO
 10
28001.604341291921
 20
1707.749496429288
 30
0.0
 11
28001.604341291921
 21
1683.7494964292871
 31
0.0
  0
LINE
  5
3A78
  8
YODOROGO
 10
28017.604341291921
 20
1707.749496429288
 30
0.0
 11
28001.604341291921
 21
1707.749496429288
 31
0.0
  0
LINE
  5
3A79
  8
YODOROGO
 10
28017.604341291921
 20
1683.7494964292871
 30
0.0
 11
28017.604341291921
 21
1707.749496429288
 31
0.0
  0
LINE
  5
3A7A
  8
YODOROGO
 10
28040.913204016899
 20
1683.7494964292871
 30
0.0
 11
28017.604341291921
 21
1683.7494964292871
 31
0.0
  0
LINE
  5
3A7B
  8
YODOROGO
 10
28001.604341291921
 20
1683.7494964292871
 30
0.0
 11
27977.604341291921
 21
1683.7494964292871
 31
0.0
  0
LINE
  5
3A7C
  8
YODOROGO
 10
28082.135520230921
 20
1707.749496429288
 30
0.0
 11
28098.135520230931
 21
1707.749496429288
 31
0.0
1001
AUTOCAD_POSTSCRIPT_FIGURE
1002
{
1000
PSFILL
1000
Grayscale
1000
Grayscale
1070
   100
1002
}
  0
LINE
  5
3A7D
  8
YODOROGO
 10
28401.60434129191
 20
1824.877625640306
 30
0.0
 11
28401.60434129191
 21
1752.877625640306
 31
0.0
1001
AUTOCAD_POSTSCRIPT_FIGURE
1002
{
1000
PSFILL
1000
Grayscale
1000
Grayscale
1070
   100
1002
}
  0
LINE
  5
3A7E
  8
YODOROGO
 10
28401.60434129191
 20
1916.8776256403071
 30
0.0
 11
28401.60434129191
 21
1984.877625640306
 31
0.0
1001
AUTOCAD_POSTSCRIPT_FIGURE
1002
{
1000
PSFILL
1000
Grayscale
1000
Grayscale
1070
   100
1002
}
  0
LINE
  5
3A7F
  8
YODOROGO
 10
28433.60434129191
 20
1819.749496429288
 30
0.0
 11
28433.60434129191
 21
1747.74949642929
 31
0.0
  0
LINE
  5
3A80
  8
YODOROGO
 10
28497.60434129191
 20
1707.749496429288
 30
0.0
 11
28433.60434129191
 21
1707.749496429288
 31
0.0
  0
LINE
  5
3A81
  8
YODOROGO
 10
28433.60434129191
 20
1747.74949642929
 30
0.0
 11
28585.604341291921
 21
1747.74949642929
 31
0.0
  0
LINE
  5
3A82
  8
YODOROGO
 10
28497.60434129191
 20
1867.749496429288
 30
0.0
 11
28433.60434129191
 21
1867.749496429288
 31
0.0
  0
LINE
  5
3A83
  8
YODOROGO
 10
28497.60434129191
 20
1923.7494964292871
 30
0.0
 11
28497.60434129191
 21
1867.749496429288
 31
0.0
  0
LINE
  5
3A84
  8
YODOROGO
 10
28585.604341291921
 20
1987.749496429288
 30
0.0
 11
28585.604341291921
 21
2027.749496429288
 31
0.0
  0
LINE
  5
3A85
  8
YODOROGO
 10
28433.60434129191
 20
1987.749496429288
 30
0.0
 11
28585.604341291921
 21
1987.749496429288
 31
0.0
  0
LINE
  5
3A86
  8
YODOROGO
 10
28433.60434129191
 20
1867.749496429288
 30
0.0
 11
28433.60434129191
 21
1987.749496429288
 31
0.0
  0
LINE
  5
3A87
  8
YODOROGO
 10
29001.60434129191
 20
2027.749496429288
 30
0.0
 11
29001.60434129191
 21
1619.749496429288
 31
0.0
  0
LINE
  5
3A88
  8
YODOROGO
 10
29073.604341291921
 20
1579.749496429288
 30
0.0
 11
29073.604341291921
 21
2027.749496429288
 31
0.0
  0
LINE
  5
3A89
  8
YODOROGO
 10
29261.604341291921
 20
1491.749496429286
 30
0.0
 11
29261.604341291921
 21
2007.749496429288
 31
0.0
  0
LINE
  5
3A8A
  8
YODOROGO
 10
29197.604341291921
 20
2007.749496429288
 30
0.0
 11
29197.604341291921
 21
1491.749496429286
 31
0.0
  0
LINE
  5
3A8B
  8
YODOROGO
 10
29385.604341291921
 20
2027.749496429288
 30
0.0
 11
29385.604341291921
 21
1427.749496429288
 31
0.0
  0
LINE
  5
3A8C
  8
YODOROGO
 10
29457.604341291921
 20
1427.749496429288
 30
0.0
 11
29457.604341291921
 21
2027.749496429288
 31
0.0
  0
LINE
  5
3A8D
  8
YODOROGO
 10
28657.60434129191
 20
1667.749496429288
 30
0.0
 11
28657.60434129191
 21
1747.74949642929
 31
0.0
  0
LINE
  5
3A8E
  8
YODOROGO
 10
29885.604341291921
 20
1707.749496429288
 30
0.0
 11
29885.604341291921
 21
1667.749496429288
 31
0.0
  0
LINE
  5
3A8F
  8
YODOROGO
 10
29885.604341291921
 20
1707.749496429288
 30
0.0
 11
29885.604341291921
 21
1667.749496429288
 31
0.0
  0
ARC
  5
3A90
  8
YODOROGO
 10
28906.911576186842
 20
1618.2178644422729
 30
0.0
 40
94.705151178741659
 50
274.0524416290711
 51
0.9266642149310712
  0
ARC
  5
3A91
  8
YODOROGO
 10
28909.18617071983
 20
1592.61072861044
 30
0.0
 40
164.92042356085511
 50
271.53512106537778
 51
355.52727750585058
  0
LINE
  5
3A92
  8
YODOROGO
 10
28913.604341291921
 20
1523.7494964292871
 30
0.0
 11
28913.604341291921
 21
1427.749496429288
 31
0.0
  0
LINE
  5
3A93
  8
YODOROGO
 10
28793.60434129191
 20
1667.749496429288
 30
0.0
 11
28657.60434129191
 21
1667.749496429288
 31
0.0
  0
LINE
  5
3A94
  8
YODOROGO
 10
28793.60434129191
 20
1603.7494964292889
 30
0.0
 11
28793.60434129191
 21
1667.749496429288
 31
0.0
  0
LINE
  5
3A95
  8
YODOROGO
 10
28657.60434129191
 20
1603.7494964292889
 30
0.0
 11
28793.60434129191
 21
1603.7494964292889
 31
0.0
  0
LINE
  5
3A96
  8
YODOROGO
 10
28657.60434129191
 20
1523.7494964292871
 30
0.0
 11
28657.60434129191
 21
1603.7494964292889
 31
0.0
  0
LINE
  5
3A97
  8
YODOROGO
 10
28793.60434129191
 20
1523.7494964292871
 30
0.0
 11
28657.60434129191
 21
1523.7494964292871
 31
0.0
  0
LINE
  5
3A98
  8
YODOROGO
 10
28793.60434129191
 20
1427.749496429288
 30
0.0
 11
28793.60434129191
 21
1523.7494964292871
 31
0.0
  0
LINE
  5
3A99
  8
YODOROGO
 10
29197.604341291921
 20
1491.749496429286
 30
0.0
 11
29261.604341291921
 21
1491.749496429286
 31
0.0
  0
LINE
  5
3A9A
  8
YODOROGO
 10
29385.604341291921
 20
1427.749496429288
 30
0.0
 11
29457.604341291921
 21
1427.749496429288
 31
0.0
  0
LINE
  5
3A9B
  8
YODOROGO
 10
29737.604341291921
 20
1528.4414521705639
 30
0.0
 11
29737.604341291921
 21
1427.749496429288
 31
0.0
  0
LINE
  5
3A9C
  8
YODOROGO
 10
29617.604341291921
 20
1427.749496429288
 30
0.0
 11
29737.604341291921
 21
1528.4414521705639
 31
0.0
  0
LINE
  5
3A9D
  8
YODOROGO
 10
29617.604341291921
 20
1547.749496429288
 30
0.0
 11
29617.604341291921
 21
1427.749496429288
 31
0.0
  0
LINE
  5
3A9E
  8
YODOROGO
 10
29712.944628699461
 20
1627.749496429288
 30
0.0
 11
29617.604341291921
 21
1547.749496429288
 31
0.0
  0
LINE
  5
3A9F
  8
YODOROGO
 10
29617.604341291921
 20
1627.749496429288
 30
0.0
 11
29712.944628699461
 21
1627.749496429288
 31
0.0
  0
LINE
  5
3AA0
  8
YODOROGO
 10
29617.604341291921
 20
1667.749496429288
 30
0.0
 11
29617.604341291921
 21
1627.749496429288
 31
0.0
  0
LINE
  5
3AA1
  8
YODOROGO
 10
29885.604341291921
 20
1667.749496429288
 30
0.0
 11
29617.604341291921
 21
1667.749496429288
 31
0.0
  0
LINE
  5
3AA2
  8
YODOROGO
 10
29917.604341291921
 20
1627.749496429288
 30
0.0
 11
29777.604341291921
 21
1627.749496429288
 31
0.0
  0
LINE
  5
3AA3
  8
YODOROGO
 10
29777.604341291921
 20
1562.005437417657
 30
0.0
 11
29771.40987298531
 21
1556.807661346234
 31
0.0
  0
LINE
  5
3AA4
  8
YODOROGO
 10
29777.604341291921
 20
1627.749496429288
 30
0.0
 11
29777.604341291921
 21
1562.005437417657
 31
0.0
  0
LINE
  5
3AA5
  8
YODOROGO
 10
29737.604341291921
 20
1528.4414521705639
 30
0.0
 11
29737.604341291921
 21
1427.749496429288
 31
0.0
  0
LINE
  5
3AA6
  8
YODOROGO
 10
29617.604341291921
 20
1427.749496429288
 30
0.0
 11
29737.604341291921
 21
1528.4414521705639
 31
0.0
  0
LINE
  5
3AA7
  8
YODOROGO
 10
29617.604341291921
 20
1547.749496429288
 30
0.0
 11
29617.604341291921
 21
1427.749496429288
 31
0.0
  0
LINE
  5
3AA8
  8
YODOROGO
 10
29712.944628699461
 20
1627.749496429288
 30
0.0
 11
29617.604341291921
 21
1547.749496429288
 31
0.0
  0
LINE
  5
3AA9
  8
YODOROGO
 10
29617.604341291921
 20
1627.749496429288
 30
0.0
 11
29712.944628699461
 21
1627.749496429288
 31
0.0
  0
LINE
  5
3AAA
  8
YODOROGO
 10
29617.604341291921
 20
1667.749496429288
 30
0.0
 11
29617.604341291921
 21
1627.749496429288
 31
0.0
  0
LINE
  5
3AAB
  8
YODOROGO
 10
29885.604341291921
 20
1667.749496429288
 30
0.0
 11
29617.604341291921
 21
1667.749496429288
 31
0.0
  0
LINE
  5
3AAC
  8
YODOROGO
 10
28793.60434129191
 20
1747.74949642929
 30
0.0
 11
28793.60434129191
 21
1819.749496429288
 31
0.0
  0
LINE
  5
3AAD
  8
YODOROGO
 10
28657.60434129191
 20
1747.74949642929
 30
0.0
 11
28793.60434129191
 21
1747.74949642929
 31
0.0
  0
LINE
  5
3AAE
  8
YODOROGO
 10
28729.604341291921
 20
1867.749496429288
 30
0.0
 11
28729.604341291921
 21
1923.7494964292871
 31
0.0
  0
LINE
  5
3AAF
  8
YODOROGO
 10
28793.60434129191
 20
1867.749496429288
 30
0.0
 11
28729.604341291921
 21
1867.749496429288
 31
0.0
  0
LINE
  5
3AB0
  8
YODOROGO
 10
28793.60434129191
 20
1947.749496429288
 30
0.0
 11
28793.60434129191
 21
1867.749496429288
 31
0.0
  0
ARC
  5
3AB1
  8
YODOROGO
 10
28753.60434129191
 20
1947.749496429288
 30
0.0
 40
40.0
 50
0.0
 51
90.0
  0
LINE
  5
3AB2
  8
YODOROGO
 10
28657.604341291921
 20
1987.749496429288
 30
0.0
 11
28753.60434129191
 21
1987.749496429288
 31
0.0
  0
LINE
  5
3AB3
  8
YODOROGO
 10
28657.604341291921
 20
2027.749496429288
 30
0.0
 11
28657.604341291921
 21
1987.749496429288
 31
0.0
  0
LINE
  5
3AB4
  8
YODOROGO
 10
29073.604341291921
 20
2027.749496429288
 30
0.0
 11
29001.60434129191
 21
2027.749496429288
 31
0.0
  0
LINE
  5
3AB5
  8
YODOROGO
 10
29261.604341291921
 20
2007.749496429288
 30
0.0
 11
29197.604341291921
 21
2007.749496429288
 31
0.0
  0
LINE
  5
3AB6
  8
YODOROGO
 10
29457.604341291921
 20
2027.749496429288
 30
0.0
 11
29385.604341291921
 21
2027.749496429288
 31
0.0
  0
LINE
  5
3AB7
  8
YODOROGO
 10
29673.604341291921
 20
1707.749496429288
 30
0.0
 11
29673.604341291921
 21
1771.749496429288
 31
0.0
1001
AUTOCAD_POSTSCRIPT_FIGURE
1002
{
1000
PSFILL
1000
Grayscale
1000
Grayscale
1070
    25
1002
}
  0
LINE
  5
3AB8
  8
YODOROGO
 10
29617.604341291921
 20
1707.749496429288
 30
0.0
 11
29673.604341291921
 21
1707.749496429288
 31
0.0
1001
AUTOCAD_POSTSCRIPT_FIGURE
1002
{
1000
PSFILL
1000
Grayscale
1000
Grayscale
1070
    25
1002
}
  0
LINE
  5
3AB9
  8
YODOROGO
 10
29617.604341291921
 20
1819.749496429288
 30
0.0
 11
29617.604341291921
 21
1707.749496429288
 31
0.0
1001
AUTOCAD_POSTSCRIPT_FIGURE
1002
{
1000
PSFILL
1000
Grayscale
1000
Grayscale
1070
    25
1002
}
  0
LINE
  5
3ABA
  8
YODOROGO
 10
29765.604341291921
 20
1819.749496429288
 30
0.0
 11
29617.604341291921
 21
1819.749496429288
 31
0.0
1001
AUTOCAD_POSTSCRIPT_FIGURE
1002
{
1000
PSFILL
1000
Grayscale
1000
Grayscale
1070
    25
1002
}
  0
LINE
  5
3ABB
  8
YODOROGO
 10
29765.604341291921
 20
1859.749496429288
 30
0.0
 11
29765.604341291921
 21
1819.749496429288
 31
0.0
1001
AUTOCAD_POSTSCRIPT_FIGURE
1002
{
1000
PSFILL
1000
Grayscale
1000
Grayscale
1070
    25
1002
}
  0
LINE
  5
3ABC
  8
YODOROGO
 10
29617.604341291921
 20
1859.749496429288
 30
0.0
 11
29765.604341291921
 21
1859.749496429288
 31
0.0
1001
AUTOCAD_POSTSCRIPT_FIGURE
1002
{
1000
PSFILL
1000
Grayscale
1000
Grayscale
1070
    25
1002
}
  0
LINE
  5
3ABD
  8
YODOROGO
 10
29617.604341291921
 20
1907.7494964292871
 30
0.0
 11
29617.604341291921
 21
1859.749496429288
 31
0.0
1001
AUTOCAD_POSTSCRIPT_FIGURE
1002
{
1000
PSFILL
1000
Grayscale
1000
Grayscale
1070
    25
1002
}
  0
LINE
  5
3ABE
  8
YODOROGO
 10
29765.604341291921
 20
1907.7494964292871
 30
0.0
 11
29617.604341291921
 21
1907.7494964292871
 31
0.0
1001
AUTOCAD_POSTSCRIPT_FIGURE
1002
{
1000
PSFILL
1000
Grayscale
1000
Grayscale
1070
    25
1002
}
  0
LINE
  5
3ABF
  8
YODOROGO
 10
29765.604341291921
 20
1947.749496429288
 30
0.0
 11
29765.604341291921
 21
1907.7494964292871
 31
0.0
1001
AUTOCAD_POSTSCRIPT_FIGURE
1002
{
1000
PSFILL
1000
Grayscale
1000
Grayscale
1070
    25
1002
}
  0
LINE
  5
3AC0
  8
YODOROGO
 10
29617.604341291921
 20
1947.749496429288
 30
0.0
 11
29765.604341291921
 21
1947.749496429288
 31
0.0
1001
AUTOCAD_POSTSCRIPT_FIGURE
1002
{
1000
PSFILL
1000
Grayscale
1000
Grayscale
1070
    25
1002
}
  0
LINE
  5
3AC1
  8
YODOROGO
 10
29617.604341291921
 20
2027.749496429288
 30
0.0
 11
29617.604341291921
 21
1947.749496429288
 31
0.0
1001
AUTOCAD_POSTSCRIPT_FIGURE
1002
{
1000
PSFILL
1000
Grayscale
1000
Grayscale
1070
    25
1002
}
  0
LINE
  5
3AC2
  8
YODOROGO
 10
29665.604341291921
 20
2027.749496429288
 30
0.0
 11
29617.604341291921
 21
2027.749496429288
 31
0.0
1001
AUTOCAD_POSTSCRIPT_FIGURE
1002
{
1000
PSFILL
1000
Grayscale
1000
Grayscale
1070
    25
1002
}
  0
LINE
  5
3AC3
  8
YODOROGO
 10
29665.604341291921
 20
1995.7494964292871
 30
0.0
 11
29665.604341291921
 21
2027.749496429288
 31
0.0
1001
AUTOCAD_POSTSCRIPT_FIGURE
1002
{
1000
PSFILL
1000
Grayscale
1000
Grayscale
1070
    25
1002
}
  0
LINE
  5
3AC4
  8
YODOROGO
 10
29765.604341291921
 20
1995.7494964292871
 30
0.0
 11
29665.604341291921
 21
1995.7494964292871
 31
0.0
1001
AUTOCAD_POSTSCRIPT_FIGURE
1002
{
1000
PSFILL
1000
Grayscale
1000
Grayscale
1070
    25
1002
}
  0
LINE
  5
3AC5
  8
YODOROGO
 10
29765.604341291921
 20
2027.749496429288
 30
0.0
 11
29765.604341291921
 21
1995.7494964292871
 31
0.0
1001
AUTOCAD_POSTSCRIPT_FIGURE
1002
{
1000
PSFILL
1000
Grayscale
1000
Grayscale
1070
    25
1002
}
  0
LINE
  5
3AC6
  8
YODOROGO
 10
29829.604341291921
 20
2027.749496429288
 30
0.0
 11
29765.604341291921
 21
2027.749496429288
 31
0.0
1001
AUTOCAD_POSTSCRIPT_FIGURE
1002
{
1000
PSFILL
1000
Grayscale
1000
Grayscale
1070
    25
1002
}
  0
LINE
  5
3AC7
  8
YODOROGO
 10
29829.604341291921
 20
1995.7494964292871
 30
0.0
 11
29829.604341291921
 21
2027.749496429288
 31
0.0
1001
AUTOCAD_POSTSCRIPT_FIGURE
1002
{
1000
PSFILL
1000
Grayscale
1000
Grayscale
1070
    25
1002
}
  0
LINE
  5
3AC8
  8
YODOROGO
 10
29829.604341291921
 20
1907.7494964292871
 30
0.0
 11
29829.604341291921
 21
1947.749496429288
 31
0.0
1001
AUTOCAD_POSTSCRIPT_FIGURE
1002
{
1000
PSFILL
1000
Grayscale
1000
Grayscale
1070
    25
1002
}
  0
LINE
  5
3AC9
  8
YODOROGO
 10
29829.604341291921
 20
1819.749496429288
 30
0.0
 11
29829.604341291921
 21
1859.749496429288
 31
0.0
1001
AUTOCAD_POSTSCRIPT_FIGURE
1002
{
1000
PSFILL
1000
Grayscale
1000
Grayscale
1070
    25
1002
}
  0
LINE
  5
3ACA
  8
YODOROGO
 10
29921.60434129191
 20
1771.749496429288
 30
0.0
 11
29921.60434129191
 21
1707.749496429288
 31
0.0
1001
AUTOCAD_POSTSCRIPT_FIGURE
1002
{
1000
PSFILL
1000
Grayscale
1000
Grayscale
1070
    25
1002
}
  0
LINE
  5
3ACB
  8
YODOROGO
 10
29829.604341291921
 20
1771.749496429288
 30
0.0
 11
29921.60434129191
 21
1771.749496429288
 31
0.0
1001
AUTOCAD_POSTSCRIPT_FIGURE
1002
{
1000
PSFILL
1000
Grayscale
1000
Grayscale
1070
    25
1002
}
  0
LINE
  5
3ACC
  8
YODOROGO
 10
29829.604341291921
 20
1707.749496429288
 30
0.0
 11
29829.604341291921
 21
1771.749496429288
 31
0.0
1001
AUTOCAD_POSTSCRIPT_FIGURE
1002
{
1000
PSFILL
1000
Grayscale
1000
Grayscale
1070
    25
1002
}
  0
LINE
  5
3ACD
  8
YODOROGO
 10
29765.604341291921
 20
1707.749496429288
 30
0.0
 11
29829.604341291921
 21
1707.749496429288
 31
0.0
1001
AUTOCAD_POSTSCRIPT_FIGURE
1002
{
1000
PSFILL
1000
Grayscale
1000
Grayscale
1070
    25
1002
}
  0
LINE
  5
3ACE
  8
YODOROGO
 10
29765.604341291921
 20
1771.749496429288
 30
0.0
 11
29765.604341291921
 21
1707.749496429288
 31
0.0
1001
AUTOCAD_POSTSCRIPT_FIGURE
1002
{
1000
PSFILL
1000
Grayscale
1000
Grayscale
1070
    25
1002
}
  0
LINE
  5
3ACF
  8
YODOROGO
 10
29673.604341291921
 20
1771.749496429288
 30
0.0
 11
29765.604341291921
 21
1771.749496429288
 31
0.0
1001
AUTOCAD_POSTSCRIPT_FIGURE
1002
{
1000
PSFILL
1000
Grayscale
1000
Grayscale
1070
    25
1002
}
  0
ARC
  5
3AD0
  8
YODOROGO
 10
31059.517893357912
 20
1602.6807375155761
 30
0.0
 40
178.22128111072149
 50
281.02627495425361
 51
357.77113575573799
  0
LINE
  5
3AD1
  8
YODOROGO
 10
31413.604341291921
 20
1907.7494964292871
 30
0.0
 11
31165.604341291921
 21
1907.7494964292871
 31
0.0
  0
LINE
  5
3AD2
  8
YODOROGO
 10
31413.604341291921
 20
2027.749496429288
 30
0.0
 11
31165.604341291921
 21
2027.749496429288
 31
0.0
  0
LINE
  5
3AD3
  8
YODOROGO
 10
31165.604341291921
 20
1963.7494964292871
 30
0.0
 11
31413.604341291921
 21
1963.7494964292871
 31
0.0
  0
LINE
  5
3AD4
  8
YODOROGO
 10
30791.604341291921
 20
1563.7494964292871
 30
0.0
 11
30791.604341291921
 21
1755.7494964292871
 31
0.0
  0
LINE
  5
3AD5
  8
YODOROGO
 10
30763.604341291921
 20
1691.7494964292889
 30
0.0
 11
30763.604341291921
 21
1563.7494964292871
 31
0.0
  0
LINE
  5
3AD6
  8
YODOROGO
 10
30723.604341291921
 20
1491.7494964292889
 30
0.0
 11
30723.604341291921
 21
1691.7494964292889
 31
0.0
  0
LINE
  5
3AD7
  8
YODOROGO
 10
30899.604341291932
 20
1691.7494964292889
 30
0.0
 11
30899.604341291932
 21
1491.7494964292889
 31
0.0
  0
LINE
  5
3AD8
  8
YODOROGO
 10
30859.604341291932
 20
1563.7494964292871
 30
0.0
 11
30859.604341291932
 21
1691.7494964292889
 31
0.0
  0
LINE
  5
3AD9
  8
YODOROGO
 10
30831.604341291921
 20
1755.7494964292871
 30
0.0
 11
30831.604341291921
 21
1563.7494964292871
 31
0.0
  0
LINE
  5
3ADA
  8
YODOROGO
 10
30973.604341291921
 20
2027.749496429288
 30
0.0
 11
30973.604341291921
 21
1467.749496429288
 31
0.0
  0
LINE
  5
3ADB
  8
YODOROGO
 10
30645.604341291921
 20
1427.749496429288
 30
0.0
 11
30645.604341291921
 21
2027.749496429288
 31
0.0
  0
LINE
  5
3ADC
  8
YODOROGO
 10
30697.604341291932
 20
1963.7494964292871
 30
0.0
 11
30697.604341291932
 21
1427.749496429288
 31
0.0
  0
LINE
  5
3ADD
  8
YODOROGO
 10
30925.604341291921
 20
1547.749496429288
 30
0.0
 11
30925.604341291921
 21
1963.7494964292871
 31
0.0
  0
LINE
  5
3ADE
  8
YODOROGO
 10
30381.604341291932
 20
1627.749496429288
 30
0.0
 11
30381.604341291932
 21
1679.749496429288
 31
0.0
  0
LINE
  5
3ADF
  8
YODOROGO
 10
30617.604341291921
 20
1679.749496429288
 30
0.0
 11
30617.604341291921
 21
1627.749496429288
 31
0.0
  0
LINE
  5
3AE0
  8
YODOROGO
 10
31165.604341291921
 20
1907.7494964292871
 30
0.0
 11
31165.604341291921
 21
1635.7494964292871
 31
0.0
  0
LINE
  5
3AE1
  8
YODOROGO
 10
29949.604341291921
 20
1667.749496429288
 30
0.0
 11
29949.604341291921
 21
1707.749496429288
 31
0.0
  0
LINE
  5
3AE2
  8
YODOROGO
 10
29949.604341291921
 20
1667.749496429288
 30
0.0
 11
29949.604341291921
 21
1707.749496429288
 31
0.0
  0
ARC
  5
3AE3
  8
YODOROGO
 10
30537.604341291921
 20
1507.749496429288
 30
0.0
 40
80.0
 50
270.0
 51
0.0
  0
LINE
  5
3AE4
  8
YODOROGO
 10
30569.604341291921
 20
1599.749496429288
 30
0.0
 11
30617.604341291921
 21
1599.749496429288
 31
0.0
  0
LINE
  5
3AE5
  8
YODOROGO
 10
30617.604341291921
 20
1627.749496429288
 30
0.0
 11
30529.604341291932
 21
1627.749496429288
 31
0.0
  0
LINE
  5
3AE6
  8
YODOROGO
 10
30217.604341291921
 20
1667.749496429288
 30
0.0
 11
29949.604341291921
 21
1667.749496429288
 31
0.0
  0
LINE
  5
3AE7
  8
YODOROGO
 10
30217.604341291921
 20
1627.749496429288
 30
0.0
 11
30217.604341291921
 21
1667.749496429288
 31
0.0
  0
LINE
  5
3AE8
  8
YODOROGO
 10
30017.604341291921
 20
1627.749496429288
 30
0.0
 11
30217.604341291921
 21
1627.749496429288
 31
0.0
  0
ARC
  5
3AE9
  8
YODOROGO
 10
30230.058828701371
 20
1868.8857149529019
 30
0.0
 40
321.37763628522828
 50
228.6181454618993
 51
245.660289248906
  0
LINE
  5
3AEA
  8
YODOROGO
 10
30105.604341291921
 20
1603.7494964292889
 30
0.0
 11
30097.604341291961
 21
1576.0728158699001
 31
0.0
  0
LINE
  5
3AEB
  8
YODOROGO
 10
30189.604341291921
 20
1603.7494964292889
 30
0.0
 11
30105.604341291921
 21
1603.7494964292889
 31
0.0
  0
LINE
  5
3AEC
  8
YODOROGO
 10
30177.604341291921
 20
1551.817722473427
 30
0.0
 11
30189.604341291921
 21
1603.7494964292889
 31
0.0
  0
ARC
  5
3AED
  8
YODOROGO
 10
30230.058828700461
 20
1868.8857149530029
 30
0.0
 40
321.37763628529092
 50
260.60629297969928
 51
267.77903556555862
  0
LINE
  5
3AEE
  8
YODOROGO
 10
30217.604341291921
 20
1427.749496429285
 30
0.0
 11
30217.604341291921
 21
1547.749496429288
 31
0.0
  0
LINE
  5
3AEF
  8
YODOROGO
 10
29937.604341291932
 20
1481.339334915511
 30
0.0
 11
29937.604341291921
 21
1594.531090531141
 31
0.0
  0
LINE
  5
3AF0
  8
YODOROGO
 10
30217.604341291921
 20
1667.749496429288
 30
0.0
 11
29949.604341291921
 21
1667.749496429288
 31
0.0
  0
LINE
  5
3AF1
  8
YODOROGO
 10
30217.604341291921
 20
1627.749496429288
 30
0.0
 11
30217.604341291921
 21
1667.749496429288
 31
0.0
  0
LINE
  5
3AF2
  8
YODOROGO
 10
30017.604341291921
 20
1627.749496429288
 30
0.0
 11
30217.604341291921
 21
1627.749496429288
 31
0.0
  0
ARC
  5
3AF3
  8
YODOROGO
 10
30230.058828701371
 20
1868.8857149529019
 30
0.0
 40
321.37763628522828
 50
228.6181454618993
 51
245.660289248906
  0
LINE
  5
3AF4
  8
YODOROGO
 10
30105.604341291921
 20
1603.7494964292889
 30
0.0
 11
30097.604341291961
 21
1576.0728158699001
 31
0.0
  0
LINE
  5
3AF5
  8
YODOROGO
 10
30189.604341291921
 20
1603.7494964292889
 30
0.0
 11
30105.604341291921
 21
1603.7494964292889
 31
0.0
  0
LINE
  5
3AF6
  8
YODOROGO
 10
30177.604341291921
 20
1551.817722473427
 30
0.0
 11
30189.604341291921
 21
1603.7494964292889
 31
0.0
  0
ARC
  5
3AF7
  8
YODOROGO
 10
30230.058828700461
 20
1868.8857149530029
 30
0.0
 40
321.37763628529092
 50
260.60629297969928
 51
267.77903556555862
  0
LINE
  5
3AF8
  8
YODOROGO
 10
30217.604341291921
 20
1427.749496429285
 30
0.0
 11
30217.604341291921
 21
1547.749496429288
 31
0.0
  0
LINE
  5
3AF9
  8
YODOROGO
 10
29937.604341291932
 20
1481.339334915511
 30
0.0
 11
29937.604341291921
 21
1594.531090531141
 31
0.0
  0
LINE
  5
3AFA
  8
YODOROGO
 10
30433.604341291932
 20
1573.7494964292889
 30
0.0
 11
30381.604341291932
 21
1573.7494964292889
 31
0.0
  0
LINE
  5
3AFB
  8
YODOROGO
 10
30433.604341291932
 20
1601.749496429286
 30
0.0
 11
30433.604341291932
 21
1573.7494964292889
 31
0.0
  0
LINE
  5
3AFC
  8
YODOROGO
 10
30381.604341291932
 20
1601.749496429286
 30
0.0
 11
30433.604341291932
 21
1601.749496429286
 31
0.0
  0
LINE
  5
3AFD
  8
YODOROGO
 10
30381.604341291932
 20
1573.7494964292889
 30
0.0
 11
30381.604341291932
 21
1601.749496429286
 31
0.0
  0
LINE
  5
3AFE
  8
YODOROGO
 10
30429.604341291921
 20
1577.7494964292871
 30
0.0
 11
30385.604341291932
 21
1577.7494964292871
 31
0.0
  0
LINE
  5
3AFF
  8
YODOROGO
 10
30429.604341291921
 20
1597.749496429288
 30
0.0
 11
30429.604341291921
 21
1577.7494964292871
 31
0.0
  0
LINE
  5
3B00
  8
YODOROGO
 10
30385.604341291932
 20
1597.749496429288
 30
0.0
 11
30429.604341291921
 21
1597.749496429288
 31
0.0
  0
LINE
  5
3B01
  8
YODOROGO
 10
30385.604341291932
 20
1577.7494964292871
 30
0.0
 11
30385.604341291932
 21
1597.749496429288
 31
0.0
  0
LINE
  5
3B02
  8
YODOROGO
 10
30425.604341291921
 20
1581.749496429286
 30
0.0
 11
30389.604341291932
 21
1581.749496429286
 31
0.0
  0
LINE
  5
3B03
  8
YODOROGO
 10
30425.604341291932
 20
1593.7494964292889
 30
0.0
 11
30425.604341291921
 21
1581.749496429286
 31
0.0
  0
LINE
  5
3B04
  8
YODOROGO
 10
30389.604341291932
 20
1593.7494964292889
 30
0.0
 11
30425.604341291932
 21
1593.7494964292889
 31
0.0
  0
LINE
  5
3B05
  8
YODOROGO
 10
30389.604341291932
 20
1581.749496429286
 30
0.0
 11
30389.604341291932
 21
1593.7494964292889
 31
0.0
  0
LINE
  5
3B06
  8
YODOROGO
 10
30421.604341291932
 20
1585.7494964292871
 30
0.0
 11
30393.604341291932
 21
1585.7494964292871
 31
0.0
  0
LINE
  5
3B07
  8
YODOROGO
 10
30421.604341291932
 20
1589.749496429288
 30
0.0
 11
30421.604341291932
 21
1585.7494964292871
 31
0.0
  0
LINE
  5
3B08
  8
YODOROGO
 10
30393.604341291932
 20
1589.749496429288
 30
0.0
 11
30421.604341291932
 21
1589.749496429288
 31
0.0
  0
LINE
  5
3B09
  8
YODOROGO
 10
30393.604341291932
 20
1585.7494964292871
 30
0.0
 11
30393.604341291932
 21
1589.749496429288
 31
0.0
  0
LINE
  5
3B0A
  8
YODOROGO
 10
30465.604341291921
 20
1627.749496429288
 30
0.0
 11
30381.604341291932
 21
1627.749496429288
 31
0.0
  0
LINE
  5
3B0B
  8
YODOROGO
 10
30465.604341291921
 20
1547.749496429288
 30
0.0
 11
30465.604341291921
 21
1627.749496429288
 31
0.0
  0
LINE
  5
3B0C
  8
YODOROGO
 10
30381.604341291932
 20
1547.749496429288
 30
0.0
 11
30465.604341291921
 21
1547.749496429288
 31
0.0
  0
LINE
  5
3B0D
  8
YODOROGO
 10
30381.604341291932
 20
1427.749496429288
 30
0.0
 11
30381.604341291932
 21
1547.749496429288
 31
0.0
  0
LINE
  5
3B0E
  8
YODOROGO
 10
30537.604341291921
 20
1427.749496429288
 30
0.0
 11
30381.604341291932
 21
1427.749496429288
 31
0.0
  0
LINE
  5
3B0F
  8
YODOROGO
 10
30569.604341291921
 20
1571.749496429286
 30
0.0
 11
30569.604341291921
 21
1599.749496429288
 31
0.0
  0
ARC
  5
3B10
  8
YODOROGO
 10
30545.60434129191
 20
1571.749496429291
 30
0.0
 40
24.000000000003752
 50
270.0
 51
359.99999999998778
  0
LINE
  5
3B11
  8
YODOROGO
 10
30529.604341291932
 20
1547.749496429288
 30
0.0
 11
30545.60434129191
 21
1547.749496429288
 31
0.0
  0
LINE
  5
3B12
  8
YODOROGO
 10
30529.604341291932
 20
1627.749496429288
 30
0.0
 11
30529.604341291932
 21
1547.749496429288
 31
0.0
  0
LINE
  5
3B13
  8
YODOROGO
 10
30899.604341291932
 20
1547.749496429288
 30
0.0
 11
30925.604341291921
 21
1547.749496429288
 31
0.0
  0
LINE
  5
3B14
  8
YODOROGO
 10
30933.604341291921
 20
1427.749496429288
 30
0.0
 11
30899.604341291932
 21
1427.749496429288
 31
0.0
  0
LINE
  5
3B15
  8
YODOROGO
 10
30763.604341291921
 20
1563.7494964292871
 30
0.0
 11
30791.604341291921
 21
1563.7494964292871
 31
0.0
  0
LINE
  5
3B16
  8
YODOROGO
 10
30899.604341291932
 20
1491.7494964292889
 30
0.0
 11
30723.604341291921
 21
1491.7494964292889
 31
0.0
  0
LINE
  5
3B17
  8
YODOROGO
 10
30831.604341291921
 20
1563.7494964292871
 30
0.0
 11
30859.604341291932
 21
1563.7494964292871
 31
0.0
  0
LINE
  5
3B18
  8
YODOROGO
 10
30899.604341291932
 20
1427.749496429288
 30
0.0
 11
30899.604341291932
 21
1547.749496429288
 31
0.0
  0
LINE
  5
3B19
  8
YODOROGO
 10
30697.604341291932
 20
1427.749496429288
 30
0.0
 11
30645.604341291921
 21
1427.749496429288
 31
0.0
  0
LINE
  5
3B1A
  8
YODOROGO
 10
30617.604341291921
 20
1599.749496429288
 30
0.0
 11
30617.604341291921
 21
1507.749496429288
 31
0.0
  0
ARC
  5
3B1B
  8
YODOROGO
 10
30933.604341291921
 20
1467.749496429288
 30
0.0
 40
40.0
 50
270.0
 51
0.0
  0
LINE
  5
3B1C
  8
YODOROGO
 10
31093.604341291921
 20
1523.7494964292871
 30
0.0
 11
31093.604341291921
 21
1427.749496429288
 31
0.0
  0
ARC
  5
3B1D
  8
YODOROGO
 10
31039.721395566779
 20
1637.5313901097329
 30
0.0
 40
125.8955565916754
 50
295.34052442160112
 51
359.18902303418668
  0
LINE
  5
3B1E
  8
YODOROGO
 10
30617.604341291921
 20
1859.749496429288
 30
0.0
 11
30497.604341291921
 21
1939.749496429288
 31
0.0
  0
LINE
  5
3B1F
  8
YODOROGO
 10
30497.604341291921
 20
2027.749496429288
 30
0.0
 11
30617.604341291921
 21
1947.749496429288
 31
0.0
  0
LINE
  5
3B20
  8
YODOROGO
 10
30529.604341291932
 20
1679.749496429288
 30
0.0
 11
30617.604341291921
 21
1679.749496429288
 31
0.0
  0
LINE
  5
3B21
  8
YODOROGO
 10
30617.604341291921
 20
1735.7494964292871
 30
0.0
 11
30529.604341291932
 21
1735.7494964292871
 31
0.0
  0
LINE
  5
3B22
  8
YODOROGO
 10
30381.604341291932
 20
1795.7494964292871
 30
0.0
 11
30617.604341291921
 21
1795.7494964292871
 31
0.0
  0
LINE
  5
3B23
  8
YODOROGO
 10
30081.604341291932
 20
2027.749496429288
 30
0.0
 11
30021.604341291921
 21
2027.749496429288
 31
0.0
  0
LINE
  5
3B24
  8
YODOROGO
 10
30081.604341291932
 20
1827.7494964292871
 30
0.0
 11
30081.604341291932
 21
2027.749496429288
 31
0.0
  0
LINE
  5
3B25
  8
YODOROGO
 10
30021.604341291921
 20
1827.7494964292871
 30
0.0
 11
30081.604341291932
 21
1827.7494964292871
 31
0.0
  0
LINE
  5
3B26
  8
YODOROGO
 10
30021.604341291921
 20
2027.749496429288
 30
0.0
 11
30021.604341291921
 21
1827.7494964292871
 31
0.0
  0
LINE
  5
3B27
  8
YODOROGO
 10
30161.604341291932
 20
2027.749496429288
 30
0.0
 11
30217.604341291921
 21
2027.749496429288
 31
0.0
  0
LINE
  5
3B28
  8
YODOROGO
 10
30161.604341291932
 20
1811.7494964292889
 30
0.0
 11
30161.604341291932
 21
2027.749496429288
 31
0.0
  0
ARC
  5
3B29
  8
YODOROGO
 10
30121.604341291932
 20
1811.7494964292889
 30
0.0
 40
40.0
 50
270.0
 51
0.0
  0
LINE
  5
3B2A
  8
YODOROGO
 10
30021.604341291921
 20
1771.749496429288
 30
0.0
 11
30121.604341291932
 21
1771.749496429288
 31
0.0
  0
LINE
  5
3B2B
  8
YODOROGO
 10
30021.604341291921
 20
1707.749496429288
 30
0.0
 11
30021.604341291921
 21
1771.749496429288
 31
0.0
  0
LINE
  5
3B2C
  8
YODOROGO
 10
30137.604341291921
 20
1707.749496429288
 30
0.0
 11
30021.604341291921
 21
1707.749496429288
 31
0.0
  0
ARC
  5
3B2D
  8
YODOROGO
 10
30137.604341291921
 20
1787.749496429288
 30
0.0
 40
80.0
 50
270.0
 51
0.0
  0
LINE
  5
3B2E
  8
YODOROGO
 10
30217.604341291921
 20
2027.749496429288
 30
0.0
 11
30217.604341291921
 21
1787.749496429288
 31
0.0
  0
LINE
  5
3B2F
  8
YODOROGO
 10
29977.604341291921
 20
1947.749496429288
 30
0.0
 11
29977.604341291921
 21
1995.7494964292871
 31
0.0
1001
AUTOCAD_POSTSCRIPT_FIGURE
1002
{
1000
PSFILL
1000
Grayscale
1000
Grayscale
1070
    25
1002
}
  0
LINE
  5
3B30
  8
YODOROGO
 10
29977.604341291921
 20
1859.749496429288
 30
0.0
 11
29977.604341291921
 21
1907.7494964292871
 31
0.0
1001
AUTOCAD_POSTSCRIPT_FIGURE
1002
{
1000
PSFILL
1000
Grayscale
1000
Grayscale
1070
    25
1002
}
  0
LINE
  5
3B31
  8
YODOROGO
 10
29977.604341291921
 20
1707.749496429288
 30
0.0
 11
29977.604341291921
 21
1819.749496429288
 31
0.0
1001
AUTOCAD_POSTSCRIPT_FIGURE
1002
{
1000
PSFILL
1000
Grayscale
1000
Grayscale
1070
    25
1002
}
  0
LINE
  5
3B32
  8
YODOROGO
 10
30381.604341291932
 20
1907.7494964292871
 30
0.0
 11
30497.604341291921
 21
2027.749496429288
 31
0.0
  0
LINE
  5
3B33
  8
YODOROGO
 10
30381.604341291932
 20
1819.749496429288
 30
0.0
 11
30381.604341291932
 21
1907.7494964292871
 31
0.0
  0
LINE
  5
3B34
  8
YODOROGO
 10
30497.604341291921
 20
1939.749496429288
 30
0.0
 11
30381.604341291932
 21
1819.749496429288
 31
0.0
  0
LINE
  5
3B35
  8
YODOROGO
 10
30465.604341291921
 20
1679.749496429288
 30
0.0
 11
30465.604341291921
 21
1735.7494964292871
 31
0.0
  0
LINE
  5
3B36
  8
YODOROGO
 10
30381.604341291932
 20
1679.749496429288
 30
0.0
 11
30465.604341291921
 21
1679.749496429288
 31
0.0
  0
LINE
  5
3B37
  8
YODOROGO
 10
30529.604341291932
 20
1735.7494964292871
 30
0.0
 11
30529.604341291932
 21
1679.749496429288
 31
0.0
  0
LINE
  5
3B38
  8
YODOROGO
 10
30381.604341291932
 20
1735.7494964292871
 30
0.0
 11
30381.604341291932
 21
1795.7494964292871
 31
0.0
  0
LINE
  5
3B39
  8
YODOROGO
 10
30465.604341291921
 20
1735.7494964292871
 30
0.0
 11
30381.604341291932
 21
1735.7494964292871
 31
0.0
  0
LINE
  5
3B3A
  8
YODOROGO
 10
30645.604341291921
 20
2027.749496429288
 30
0.0
 11
30973.604341291921
 21
2027.749496429288
 31
0.0
  0
LINE
  5
3B3B
  8
YODOROGO
 10
30925.604341291921
 20
1963.7494964292871
 30
0.0
 11
30697.604341291932
 21
1963.7494964292871
 31
0.0
  0
LINE
  5
3B3C
  8
YODOROGO
 10
30873.604341291921
 20
1819.749496429288
 30
0.0
 11
30899.604341291932
 21
1819.749496429288
 31
0.0
  0
LINE
  5
3B3D
  8
YODOROGO
 10
30899.604341291932
 20
1939.749496429288
 30
0.0
 11
30873.604341291921
 21
1819.749496429288
 31
0.0
  0
LINE
  5
3B3E
  8
YODOROGO
 10
30851.604341291932
 20
1939.749496429288
 30
0.0
 11
30899.604341291932
 21
1939.749496429288
 31
0.0
  0
LINE
  5
3B3F
  8
YODOROGO
 10
30825.604341291921
 20
1819.749496429288
 30
0.0
 11
30851.604341291932
 21
1939.749496429288
 31
0.0
  0
LINE
  5
3B40
  8
YODOROGO
 10
30797.604341291921
 20
1819.749496429288
 30
0.0
 11
30825.604341291921
 21
1819.749496429288
 31
0.0
  0
LINE
  5
3B41
  8
YODOROGO
 10
30771.604341291932
 20
1939.749496429288
 30
0.0
 11
30797.604341291921
 21
1819.749496429288
 31
0.0
  0
LINE
  5
3B42
  8
YODOROGO
 10
30723.604341291921
 20
1939.749496429288
 30
0.0
 11
30771.604341291932
 21
1939.749496429288
 31
0.0
  0
LINE
  5
3B43
  8
YODOROGO
 10
30749.604341291921
 20
1819.749496429288
 30
0.0
 11
30723.604341291921
 21
1939.749496429288
 31
0.0
  0
LINE
  5
3B44
  8
YODOROGO
 10
30723.604341291921
 20
1819.749496429288
 30
0.0
 11
30749.604341291921
 21
1819.749496429288
 31
0.0
  0
LINE
  5
3B45
  8
YODOROGO
 10
30723.604341291921
 20
1755.7494964292871
 30
0.0
 11
30723.604341291921
 21
1819.749496429288
 31
0.0
  0
LINE
  5
3B46
  8
YODOROGO
 10
30899.604341291932
 20
1755.7494964292871
 30
0.0
 11
30723.604341291921
 21
1755.7494964292871
 31
0.0
  0
LINE
  5
3B47
  8
YODOROGO
 10
30899.604341291932
 20
1819.749496429288
 30
0.0
 11
30899.604341291932
 21
1755.7494964292871
 31
0.0
  0
LINE
  5
3B48
  8
YODOROGO
 10
30617.604341291921
 20
1947.749496429288
 30
0.0
 11
30617.604341291921
 21
1859.749496429288
 31
0.0
  0
LINE
  5
3B49
  8
YODOROGO
 10
30791.604341291921
 20
1755.7494964292871
 30
0.0
 11
30831.604341291921
 21
1755.7494964292871
 31
0.0
  0
LINE
  5
3B4A
  8
YODOROGO
 10
30723.604341291921
 20
1691.7494964292889
 30
0.0
 11
30763.604341291921
 21
1691.7494964292889
 31
0.0
  0
LINE
  5
3B4B
  8
YODOROGO
 10
30859.604341291932
 20
1691.7494964292889
 30
0.0
 11
30899.604341291932
 21
1691.7494964292889
 31
0.0
  0
LINE
  5
3B4C
  8
YODOROGO
 10
30617.604341291921
 20
1795.7494964292871
 30
0.0
 11
30617.604341291921
 21
1735.7494964292871
 31
0.0
  0
LINE
  5
3B4D
  8
YODOROGO
 10
31165.604341291921
 20
2027.749496429288
 30
0.0
 11
31165.604341291921
 21
1963.7494964292871
 31
0.0
  0
LINE
  5
3B4E
  8
YODOROGO
 10
31533.604341291921
 20
1595.7494964292871
 30
0.0
 11
31533.60434129191
 21
1811.7494964292889
 31
0.0
  0
LINE
  5
3B4F
  8
YODOROGO
 10
31461.60434129191
 20
1987.749496429288
 30
0.0
 11
31461.60434129191
 21
1635.7494964292871
 31
0.0
  0
LINE
  5
3B50
  8
YODOROGO
 10
31653.604341291921
 20
1427.749496429288
 30
0.0
 11
31653.60434129191
 21
1811.7494964292889
 31
0.0
  0
LINE
  5
3B51
  8
YODOROGO
 10
31589.604341291921
 20
1811.7494964292889
 30
0.0
 11
31589.604341291921
 21
1427.749496429288
 31
0.0
  0
LINE
  5
3B52
  8
YODOROGO
 10
31237.604341291921
 20
1595.7494964292871
 30
0.0
 11
31237.604341291921
 21
1707.749496429288
 31
0.0
  0
ARC
  5
3B53
  8
YODOROGO
 10
31353.914865116069
 20
1607.790351288558
 30
0.0
 40
180.09244857598861
 50
268.62849102169793
 51
356.16638457330322
  0
LINE
  5
3B54
  8
YODOROGO
 10
31349.604341291932
 20
1527.749496429288
 30
0.0
 11
31349.604341291932
 21
1427.749496429288
 31
0.0
  0
ARC
  5
3B55
  8
YODOROGO
 10
31351.518075724562
 20
1637.838957017655
 30
0.0
 40
110.1060929836122
 50
269.00410209305937
 51
358.91264455492478
  0
LINE
  5
3B56
  8
YODOROGO
 10
31589.604341291921
 20
1427.749496429288
 30
0.0
 11
31653.604341291921
 21
1427.749496429288
 31
0.0
  0
LINE
  5
3B57
  8
YODOROGO
 10
31533.60434129191
 20
1811.7494964292889
 30
0.0
 11
31589.604341291921
 21
1811.7494964292889
 31
0.0
  0
LINE
  5
3B58
  8
YODOROGO
 10
31621.604341291932
 20
1987.749496429288
 30
0.0
 11
31461.60434129191
 21
1987.749496429288
 31
0.0
  0
LINE
  5
3B59
  8
YODOROGO
 10
31533.60434129191
 20
1915.7494964292871
 30
0.0
 11
31661.604341291932
 21
1915.7494964292871
 31
0.0
  0
LINE
  5
3B5A
  8
YODOROGO
 10
31701.604341291932
 20
1875.7494964292871
 30
0.0
 11
31533.60434129191
 21
1875.7494964292871
 31
0.0
  0
LINE
  5
3B5B
  8
YODOROGO
 10
31237.604341291921
 20
1779.749496429288
 30
0.0
 11
31349.604341291932
 21
1779.749496429288
 31
0.0
  0
LINE
  5
3B5C
  8
YODOROGO
 10
31237.604341291921
 20
1835.7494964292871
 30
0.0
 11
31237.604341291921
 21
1779.749496429288
 31
0.0
  0
LINE
  5
3B5D
  8
YODOROGO
 10
31349.604341291932
 20
1835.7494964292871
 30
0.0
 11
31237.604341291921
 21
1835.7494964292871
 31
0.0
  0
LINE
  5
3B5E
  8
YODOROGO
 10
31349.604341291932
 20
1779.749496429288
 30
0.0
 11
31349.604341291932
 21
1835.7494964292871
 31
0.0
  0
LINE
  5
3B5F
  8
YODOROGO
 10
31533.60434129191
 20
1875.7494964292871
 30
0.0
 11
31533.60434129191
 21
1915.7494964292871
 31
0.0
  0
LINE
  5
3B60
  8
YODOROGO
 10
31413.604341291921
 20
1707.749496429288
 30
0.0
 11
31413.604341291921
 21
1907.7494964292871
 31
0.0
  0
LINE
  5
3B61
  8
YODOROGO
 10
31237.604341291921
 20
1707.749496429288
 30
0.0
 11
31413.604341291921
 21
1707.749496429288
 31
0.0
  0
LINE
  5
3B62
  8
YODOROGO
 10
31413.604341291921
 20
1963.7494964292871
 30
0.0
 11
31413.604341291921
 21
2027.749496429288
 31
0.0
  0
ARC
  5
3B63
  8
YODOROGO
 10
31621.604341291932
 20
2003.749496429285
 30
0.0
 40
15.999999999994539
 50
270.0
 51
0.0000000000081422
  0
LINE
  5
3B64
  8
YODOROGO
 10
31637.604341291921
 20
2027.749496429288
 30
0.0
 11
31637.604341291921
 21
2003.7494964292871
 31
0.0
  0
LINE
  5
3B65
  8
YODOROGO
 10
31701.604341291932
 20
2027.749496429288
 30
0.0
 11
31637.604341291921
 21
2027.749496429288
 31
0.0
  0
LINE
  5
3B66
  8
YODOROGO
 10
31701.604341291932
 20
1955.7494964292871
 30
0.0
 11
31701.604341291932
 21
2027.749496429288
 31
0.0
  0
ARC
  5
3B67
  8
YODOROGO
 10
31661.604341291932
 20
1955.7494964292871
 30
0.0
 40
40.0
 50
270.0
 51
0.0
  0
LINE
  5
3B68
  8
YODOROGO
 10
31701.604341291932
 20
1811.7494964292889
 30
0.0
 11
31701.604341291932
 21
1875.7494964292871
 31
0.0
  0
LINE
  5
3B69
  8
YODOROGO
 10
31653.60434129191
 20
1811.7494964292889
 30
0.0
 11
31701.604341291932
 21
1811.7494964292889
 31
0.0
  0
ENDSEC
  0
EOF
