  0
SECTION
  2
HEADER
  9
$ACADVER
  1
AC1015
  9
$ACADMAINTVER
 70
    13
  9
$DWGCODEPAGE
  3
ANSI_932
  9
$INSBASE
 10
267.0
 20
194.8999999999998
 30
0.0
  9
$EXTMIN
 10
325.4974662390304
 20
122.7681178119601
 30
-0.000000000000013
  9
$EXTMAX
 10
12286.99954069103
 20
8431.707478684501
 30
0.0000000000000023
  9
$LIMMIN
 10
0.0
 20
0.0
  9
$LIMMAX
 10
12600.0
 20
8910.0
  9
$ORTHOMODE
 70
     0
  9
$REGENMODE
 70
     1
  9
$FILLMODE
 70
     1
  9
$QTEXTMODE
 70
     0
  9
$MIRRTEXT
 70
     0
  9
$LTSCALE
 40
30.0
  9
$ATTMODE
 70
     1
  9
$TEXTSIZE
 40
0.2
  9
$TRACEWID
 40
0.05
  9
$TEXTSTYLE
  7
00
  9
$CLAYER
  8
SUNPOU
  9
$CELTYPE
  6
ByLayer
  9
$CECOLOR
 62
   256
  9
$CELTSCALE
 40
1.0
  9
$DISPSILH
 70
     0
  9
$DIMSCALE
 40
30.0
  9
$DIMASZ
 40
0.5
  9
$DIMEXO
 40
1.0
  9
$DIMDLI
 40
7.0
  9
$DIMRND
 40
0.0
  9
$DIMDLE
 40
3.0
  9
$DIMEXE
 40
1.5
  9
$DIMTP
 40
0.0
  9
$DIMTM
 40
0.0
  9
$DIMTXT
 40
3.0
  9
$DIMCEN
 40
0.0
  9
$DIMTSZ
 40
0.0
  9
$DIMTOL
 70
     0
  9
$DIMLIM
 70
     0
  9
$DIMTIH
 70
     0
  9
$DIMTOH
 70
     0
  9
$DIMSE1
 70
     0
  9
$DIMSE2
 70
     0
  9
$DIMTAD
 70
     1
  9
$DIMZIN
 70
     8
  9
$DIMBLK
  1
DOT
  9
$DIMASO
 70
     1
  9
$DIMSHO
 70
     0
  9
$DIMPOST
  1

  9
$DIMAPOST
  1

  9
$DIMALT
 70
     0
  9
$DIMALTD
 70
     2
  9
$DIMALTF
 40
25.4
  9
$DIMLFAC
 40
0.666666666666667
  9
$DIMTOFL
 70
     1
  9
$DIMTVP
 40
0.0
  9
$DIMTIX
 70
     0
  9
$DIMSOXD
 70
     0
  9
$DIMSAH
 70
     1
  9
$DIMBLK1
  1
DOT
  9
$DIMBLK2
  1
DOT
  9
$DIMSTYLE
  2
SUNPOU
  9
$DIMCLRD
 70
   256
  9
$DIMCLRE
 70
   256
  9
$DIMCLRT
 70
   256
  9
$DIMTFAC
 40
1.0
  9
$DIMGAP
 40
1.5
  9
$DIMJUST
 70
     0
  9
$DIMSD1
 70
     0
  9
$DIMSD2
 70
     0
  9
$DIMTOLJ
 70
     1
  9
$DIMTZIN
 70
     0
  9
$DIMALTZ
 70
     0
  9
$DIMALTTZ
 70
     0
  9
$DIMUPT
 70
     0
  9
$DIMDEC
 70
     4
  9
$DIMTDEC
 70
     4
  9
$DIMALTU
 70
     2
  9
$DIMALTTD
 70
     2
  9
$DIMTXSTY
  7
STANDARD
  9
$DIMAUNIT
 70
     0
  9
$DIMADEC
 70
     0
  9
$DIMALTRND
 40
0.0
  9
$DIMAZIN
 70
     0
  9
$DIMDSEP
 70
    46
  9
$DIMATFIT
 70
     3
  9
$DIMFRAC
 70
     0
  9
$DIMLDRBLK
  1
DOT
  9
$DIMLUNIT
 70
     2
  9
$DIMLWD
 70
    -2
  9
$DIMLWE
 70
    -2
  9
$DIMTMOVE
 70
     0
  9
$LUNITS
 70
     2
  9
$LUPREC
 70
     2
  9
$SKETCHINC
 40
0.1
  9
$FILLETRAD
 40
5.0
  9
$AUNITS
 70
     0
  9
$AUPREC
 70
     0
  9
$MENU
  1
A:\TIGER\MENU\TIGER
  9
$ELEVATION
 40
0.0
  9
$PELEVATION
 40
0.0
  9
$THICKNESS
 40
0.0
  9
$LIMCHECK
 70
     0
  9
$CHAMFERA
 40
0.0
  9
$CHAMFERB
 40
0.0
  9
$CHAMFERC
 40
0.0
  9
$CHAMFERD
 40
0.0
  9
$SKPOLY
 70
     0
  9
$TDCREATE
 40
2450266.571064815
  9
$TDUCREATE
 40
2450266.196064815
  9
$TDUPDATE
 40
2456330.577119317
  9
$TDUUPDATE
 40
2456330.202119317
  9
$TDINDWG
 40
0.2622054167
  9
$TDUSRTIMER
 40
0.2622054167
  9
$USRTIMER
 70
     1
  9
$ANGBASE
 50
0.0
  9
$ANGDIR
 70
     0
  9
$PDMODE
 70
     0
  9
$PDSIZE
 40
0.0
  9
$PLINEWID
 40
0.0
  9
$SPLFRAME
 70
     0
  9
$SPLINETYPE
 70
     6
  9
$SPLINESEGS
 70
     8
  9
$HANDSEED
  5
24A5E
  9
$SURFTAB1
 70
     6
  9
$SURFTAB2
 70
     6
  9
$SURFTYPE
 70
     6
  9
$SURFU
 70
     6
  9
$SURFV
 70
     6
  9
$UCSBASE
  2

  9
$UCSNAME
  2

  9
$UCSORG
 10
0.0
 20
0.0
 30
0.0
  9
$UCSXDIR
 10
1.0
 20
0.0
 30
0.0
  9
$UCSYDIR
 10
0.0
 20
1.0
 30
0.0
  9
$UCSORTHOREF
  2

  9
$UCSORTHOVIEW
 70
     0
  9
$UCSORGTOP
 10
0.0
 20
0.0
 30
0.0
  9
$UCSORGBOTTOM
 10
0.0
 20
0.0
 30
0.0
  9
$UCSORGLEFT
 10
0.0
 20
0.0
 30
0.0
  9
$UCSORGRIGHT
 10
0.0
 20
0.0
 30
0.0
  9
$UCSORGFRONT
 10
0.0
 20
0.0
 30
0.0
  9
$UCSORGBACK
 10
0.0
 20
0.0
 30
0.0
  9
$PUCSBASE
  2

  9
$PUCSNAME
  2

  9
$PUCSORG
 10
0.0
 20
0.0
 30
0.0
  9
$PUCSXDIR
 10
1.0
 20
0.0
 30
0.0
  9
$PUCSYDIR
 10
0.0
 20
1.0
 30
0.0
  9
$PUCSORTHOREF
  2

  9
$PUCSORTHOVIEW
 70
     0
  9
$PUCSORGTOP
 10
0.0
 20
0.0
 30
0.0
  9
$PUCSORGBOTTOM
 10
0.0
 20
0.0
 30
0.0
  9
$PUCSORGLEFT
 10
0.0
 20
0.0
 30
0.0
  9
$PUCSORGRIGHT
 10
0.0
 20
0.0
 30
0.0
  9
$PUCSORGFRONT
 10
0.0
 20
0.0
 30
0.0
  9
$PUCSORGBACK
 10
0.0
 20
0.0
 30
0.0
  9
$USERI1
 70
     3
  9
$USERI2
 70
     0
  9
$USERI3
 70
     0
  9
$USERI4
 70
     0
  9
$USERI5
 70
  1103
  9
$USERR1
 40
0.0
  9
$USERR2
 40
1.0
  9
$USERR3
 40
0.0
  9
$USERR4
 40
0.0
  9
$USERR5
 40
0.0
  9
$WORLDVIEW
 70
     1
  9
$SHADEDGE
 70
     3
  9
$SHADEDIF
 70
    70
  9
$TILEMODE
 70
     1
  9
$MAXACTVP
 70
    16
  9
$PINSBASE
 10
0.0
 20
0.0
 30
0.0
  9
$PLIMCHECK
 70
     0
  9
$PEXTMIN
 10
1.000000000000000E+20
 20
1.000000000000000E+20
 30
1.000000000000000E+20
  9
$PEXTMAX
 10
-1.000000000000000E+20
 20
-1.000000000000000E+20
 30
-1.000000000000000E+20
  9
$PLIMMIN
 10
0.0
 20
0.0
  9
$PLIMMAX
 10
12.0
 20
9.0
  9
$UNITMODE
 70
     0
  9
$VISRETAIN
 70
     0
  9
$PLINEGEN
 70
     1
  9
$PSLTSCALE
 70
     0
  9
$TREEDEPTH
 70
  3020
  9
$CMLSTYLE
  2
Standard
  9
$CMLJUST
 70
     0
  9
$CMLSCALE
 40
1.0
  9
$PROXYGRAPHICS
 70
     1
  9
$MEASUREMENT
 70
     0
  9
$CELWEIGHT
370
    -1
  9
$ENDCAPS
280
     0
  9
$JOINSTYLE
280
     0
  9
$LWDISPLAY
290
     0
  9
$INSUNITS
 70
     0
  9
$HYPERLINKBASE
  1

  9
$STYLESHEET
  1

  9
$XEDIT
290
     1
  9
$CEPSNTYPE
380
     0
  9
$PSTYLEMODE
290
     1
  9
$FINGERPRINTGUID
  2
{28915AE7-181C-4EA2-91B6-F403AF4310C3}
  9
$VERSIONGUID
  2
{1589D962-C8D2-484D-83CD-34FA0F3982E1}
  9
$EXTNAMES
290
     1
  9
$PSVPSCALE
 40
0.0
  9
$OLESTARTUP
290
     0
  0
ENDSEC
  0
SECTION
  2
CLASSES
  0
CLASS
  1
ACDBDICTIONARYWDFLT
  2
AcDbDictionaryWithDefault
  3
AutoCAD 2000
 90
        0
280
     0
281
     0
  0
CLASS
  1
ACDBPLACEHOLDER
  2
AcDbPlaceHolder
  3
AutoCAD 2000
 90
        0
280
     0
281
     0
  0
CLASS
  1
LAYOUT
  2
AcDbLayout
  3
AutoCAD 2000
 90
        0
280
     0
281
     0
  0
CLASS
  1
DICTIONARYVAR
  2
AcDbDictionaryVar
  3
AutoCAD 2000
 90
        0
280
     0
281
     0
  0
ENDSEC
  0
SECTION
  2
TABLES
  0
TABLE
  2
VPORT
  5
24607
330
0
100
AcDbSymbolTable
 70
     2
  0
VPORT
  5
24A5D
330
24607
100
AcDbSymbolTableRecord
100
AcDbViewportTableRecord
  2
*Active
 70
     0
 10
0.0
 20
0.0
 11
1.0
 21
1.0
 12
6306.248503465031
 22
4277.23779824823
 13
0.0
 23
0.0
 14
1.0
 24
1.0
 15
0.0
 25
0.0
 16
0.0
 26
0.0
 36
1.0
 17
0.0
 27
0.0
 37
0.0
 40
8372.629037979738
 41
1.527918781725888
 42
50.0
 43
0.0
 44
0.0
 50
0.0
 51
0.0
 71
     0
 72
 10000
 73
     1
 74
     0
 75
     0
 76
     0
 77
     0
 78
     0
281
     0
 65
     1
110
0.0
120
0.0
130
0.0
111
1.0
121
0.0
131
0.0
112
0.0
122
1.0
132
0.0
 79
     0
146
0.0
  0
ENDTAB
  0
TABLE
  2
LTYPE
  5
24604
330
0
100
AcDbSymbolTable
 70
     4
  0
LTYPE
  5
24612
330
24604
100
AcDbSymbolTableRecord
100
AcDbLinetypeTableRecord
  2
ByBlock
 70
     0
  3

 72
    65
 73
     0
 40
0.0
  0
LTYPE
  5
24613
330
24604
100
AcDbSymbolTableRecord
100
AcDbLinetypeTableRecord
  2
ByLayer
 70
     0
  3

 72
    65
 73
     0
 40
0.0
  0
LTYPE
  5
24614
330
24604
100
AcDbSymbolTableRecord
100
AcDbLinetypeTableRecord
  2
CONTINUOUS
 70
     0
  3
実線
 72
    65
 73
     0
 40
0.0
  0
LTYPE
  5
24624
330
24604
100
AcDbSymbolTableRecord
100
AcDbLinetypeTableRecord
  2
1PL-M
 70
     0
  3

 72
    65
 73
     4
 40
15.0
 49
12.0
 74
     0
 49
-1.0
 74
     0
 49
1.0
 74
     0
 49
-1.0
 74
     0
  0
LTYPE
  5
24625
330
24604
100
AcDbSymbolTableRecord
100
AcDbLinetypeTableRecord
  2
1PL-S
 70
     0
  3

 72
    65
 73
     4
 40
4.0
 49
2.5
 74
     0
 49
-0.5
 74
     0
 49
0.5
 74
     0
 49
-0.5
 74
     0
  0
LTYPE
  5
24626
330
24604
100
AcDbSymbolTableRecord
100
AcDbLinetypeTableRecord
  2
2PL-L
 70
     0
  3

 72
    65
 73
     6
 40
60.0
 49
50.0
 74
     0
 49
-2.0
 74
     0
 49
2.0
 74
     0
 49
-2.0
 74
     0
 49
2.0
 74
     0
 49
-2.0
 74
     0
  0
ENDTAB
  0
TABLE
  2
LAYER
  5
24601
330
0
100
AcDbSymbolTable
 70
    17
  0
LAYER
  5
2460F
330
24601
100
AcDbSymbolTableRecord
100
AcDbLayerTableRecord
  2
0
 70
     0
 62
     7
  6
CONTINUOUS
370
    -3
390
2460E
  0
LAYER
  5
24621
330
24601
100
AcDbSymbolTableRecord
100
AcDbLayerTableRecord
  2
SUNPOU
 70
     0
 62
     4
  6
CONTINUOUS
370
    -3
390
2460E
  0
LAYER
  5
24627
330
24601
100
AcDbSymbolTableRecord
100
AcDbLayerTableRecord
  2
U2
 70
     0
 62
     4
  6
CONTINUOUS
370
    -3
390
2460E
  0
LAYER
  5
24628
330
24601
100
AcDbSymbolTableRecord
100
AcDbLayerTableRecord
  2
U3
 70
     0
 62
     6
  6
CONTINUOUS
370
    -3
390
2460E
  0
LAYER
  5
24629
330
24601
100
AcDbSymbolTableRecord
100
AcDbLayerTableRecord
  2
HIKIDASHI
 70
     0
 62
     6
  6
CONTINUOUS
370
    -3
390
2460E
  0
LAYER
  5
2462A
330
24601
100
AcDbSymbolTableRecord
100
AcDbLayerTableRecord
  2
1PL-S1
 70
     0
 62
     6
  6
1PL-S
370
    -3
390
2460E
  0
LAYER
  5
2462B
330
24601
100
AcDbSymbolTableRecord
100
AcDbLayerTableRecord
  2
1PL-M1
 70
     0
 62
     6
  6
1PL-M
370
    -3
390
2460E
  0
LAYER
  5
2462C
330
24601
100
AcDbSymbolTableRecord
100
AcDbLayerTableRecord
  2
2PL-L2
 70
     0
 62
     1
  6
2PL-L
370
    -3
390
2460E
  0
LAYER
  5
2462D
330
24601
100
AcDbSymbolTableRecord
100
AcDbLayerTableRecord
  2
KISO
 70
     0
 62
     2
  6
CONTINUOUS
370
    -3
390
2460E
  0
LAYER
  5
2462E
330
24601
100
AcDbSymbolTableRecord
100
AcDbLayerTableRecord
  2
HATCH
 70
     0
 62
     1
  6
CONTINUOUS
370
    -3
390
2460E
  0
LAYER
  5
2462F
330
24601
100
AcDbSymbolTableRecord
100
AcDbLayerTableRecord
  2
NAME
 70
     0
 62
    20
  6
CONTINUOUS
370
    -3
390
2460E
  0
LAYER
  5
24630
330
24601
100
AcDbSymbolTableRecord
100
AcDbLayerTableRecord
  2
FILENAME
 70
     0
 62
     7
  6
CONTINUOUS
370
    -3
390
2460E
  0
LAYER
  5
24631
330
24601
100
AcDbSymbolTableRecord
100
AcDbLayerTableRecord
  2
HASHIRA
 70
     0
 62
     3
  6
CONTINUOUS
370
    -3
390
2460E
  0
LAYER
  5
24632
330
24601
100
AcDbSymbolTableRecord
100
AcDbLayerTableRecord
  2
YODOROGO
 70
     0
 62
   130
  6
CONTINUOUS
370
    -3
390
2460E
  0
LAYER
  5
24633
330
24601
100
AcDbSymbolTableRecord
100
AcDbLayerTableRecord
  2
WAKUSEN-01
 70
     0
 62
    50
  6
CONTINUOUS
370
    -3
390
2460E
  0
LAYER
  5
24634
330
24601
100
AcDbSymbolTableRecord
100
AcDbLayerTableRecord
  2
WAKUSEN-02
 70
     0
 62
   130
  6
CONTINUOUS
370
    -3
390
2460E
  0
LAYER
  5
24635
330
24601
100
AcDbSymbolTableRecord
100
AcDbLayerTableRecord
  2
WAKUMOJI-01
 70
     0
 62
   130
  6
CONTINUOUS
370
    -3
390
2460E
  0
ENDTAB
  0
TABLE
  2
STYLE
  5
24602
330
0
100
AcDbSymbolTable
 70
     5
  0
STYLE
  5
24610
330
24602
100
AcDbSymbolTableRecord
100
AcDbTextStyleTableRecord
  2
STANDARD
 70
     0
 40
3.0
 41
1.0
 50
0.0
 71
     0
 42
0.2
  3
ROMANS
  4
EXTFONT
  0
STYLE
  5
24622
330
24602
100
AcDbSymbolTableRecord
100
AcDbTextStyleTableRecord
  2
00
 70
     0
 40
0.0
 41
0.6666666666666666
 50
0.0
 71
     0
 42
0.2
  3
ROMANS
  4
BIGFONT
  0
STYLE
  5
24636
330
24602
100
AcDbSymbolTableRecord
100
AcDbTextStyleTableRecord
  2
01
 70
     0
 40
3.0
 41
1.0
 50
0.0
 71
     0
 42
0.2
  3
ROMANS
  4
BIGFONT
  0
STYLE
  5
24637
330
24602
100
AcDbSymbolTableRecord
100
AcDbTextStyleTableRecord
  2
WAKUMOJI
 70
     0
 40
3.0
 41
1.0
 50
0.0
 71
     0
 42
3.0
  3
SIMPLEX
  4
BIGFONT
  0
STYLE
  5
24638
330
24602
100
AcDbSymbolTableRecord
100
AcDbTextStyleTableRecord
  2
FILENAME
 70
     0
 40
75.0
 41
1.0
 50
0.0
 71
     0
 42
75.0
  3
romans
  4
bigfont
  0
ENDTAB
  0
TABLE
  2
VIEW
  5
24605
330
0
100
AcDbSymbolTable
 70
     0
  0
ENDTAB
  0
TABLE
  2
UCS
  5
24606
330
0
100
AcDbSymbolTable
 70
     0
  0
ENDTAB
  0
TABLE
  2
APPID
  5
24608
330
0
100
AcDbSymbolTable
 70
     5
  0
APPID
  5
24611
330
24608
100
AcDbSymbolTableRecord
100
AcDbRegAppTableRecord
  2
ACAD
 70
     0
  0
APPID
  5
24639
330
24608
100
AcDbSymbolTableRecord
100
AcDbRegAppTableRecord
  2
AUTOCAD_POSTSCRIPT_FIGURE
 70
     0
  0
APPID
  5
2463A
330
24608
100
AcDbSymbolTableRecord
100
AcDbRegAppTableRecord
  2
ACAD_PSEXT
 70
     0
  0
APPID
  5
2463B
330
24608
100
AcDbSymbolTableRecord
100
AcDbRegAppTableRecord
  2
ACAD_EXEMPT_FROM_CAD_STANDARDS
 70
     0
  0
APPID
  5
2463C
330
24608
100
AcDbSymbolTableRecord
100
AcDbRegAppTableRecord
  2
ACAD_MLEADERVER
 70
     0
  0
ENDTAB
  0
TABLE
  2
DIMSTYLE
  5
24609
330
0
100
AcDbSymbolTable
 70
     1
100
AcDbDimStyleTable
 71
     0
  0
DIMSTYLE
105
2463D
330
24609
100
AcDbSymbolTableRecord
100
AcDbDimStyleTableRecord
  2
SUNPOU
 70
     0
 40
30.0
 41
0.5
 42
1.0
 43
7.0
 44
1.5
 46
3.0
 73
     0
 74
     0
 77
     1
 78
     8
140
3.0
141
0.0
147
1.5
172
     1
173
     1
176
   256
177
   256
178
   256
271
     2
272
     2
279
     2
284
     8
285
     8
286
     8
340
24622
  0
ENDTAB
  0
TABLE
  2
BLOCK_RECORD
  5
24600
330
0
100
AcDbSymbolTable
 70
     8
  0
BLOCK_RECORD
  5
2461D
330
24600
100
AcDbSymbolTableRecord
100
AcDbBlockTableRecord
  2
*Model_Space
340
24620
  0
BLOCK_RECORD
  5
24619
330
24600
100
AcDbSymbolTableRecord
100
AcDbBlockTableRecord
  2
*Paper_Space
340
2461C
  0
BLOCK_RECORD
  5
24642
330
24600
100
AcDbSymbolTableRecord
100
AcDbBlockTableRecord
  2
$MODEL_SPACE
340
0
  0
BLOCK_RECORD
  5
24645
330
24600
100
AcDbSymbolTableRecord
100
AcDbBlockTableRecord
  2
$PAPER_SPACE
340
0
  0
BLOCK_RECORD
  5
24648
330
24600
100
AcDbSymbolTableRecord
100
AcDbBlockTableRecord
  2
DOT
340
0
  0
BLOCK_RECORD
  5
24650
330
24600
100
AcDbSymbolTableRecord
100
AcDbBlockTableRecord
  2
*U3
340
0
  0
BLOCK_RECORD
  5
24654
330
24600
100
AcDbSymbolTableRecord
100
AcDbBlockTableRecord
  2
*U4
340
0
  0
BLOCK_RECORD
  5
24658
330
24600
100
AcDbSymbolTableRecord
100
AcDbBlockTableRecord
  2
*U5
340
0
  0
BLOCK_RECORD
  5
2465C
330
24600
100
AcDbSymbolTableRecord
100
AcDbBlockTableRecord
  2
*U6
340
0
  0
ENDTAB
  0
ENDSEC
  0
SECTION
  2
BLOCKS
  0
BLOCK
  5
2461E
330
2461D
100
AcDbEntity
  8
0
100
AcDbBlockBegin
  2
*Model_Space
 70
     0
 10
0.0
 20
0.0
 30
0.0
  3
*Model_Space
  1

  0
ENDBLK
  5
2461F
330
2461D
100
AcDbEntity
  8
0
100
AcDbBlockEnd
  0
BLOCK
  5
2461A
330
24619
100
AcDbEntity
 67
     1
  8
0
100
AcDbBlockBegin
  2
*Paper_Space
 70
     0
 10
0.0
 20
0.0
 30
0.0
  3
*Paper_Space
  1

  0
ENDBLK
  5
2461B
330
24619
100
AcDbEntity
 67
     1
  8
0
100
AcDbBlockEnd
  0
BLOCK
  5
24643
330
24642
100
AcDbEntity
  8
0
100
AcDbBlockBegin
  2
$MODEL_SPACE
 70
     0
 10
0.0
 20
0.0
 30
0.0
  3
$MODEL_SPACE
  1

  0
ENDBLK
  5
24644
330
24642
100
AcDbEntity
  8
0
100
AcDbBlockEnd
  0
BLOCK
  5
24646
330
24645
100
AcDbEntity
  8
0
100
AcDbBlockBegin
  2
$PAPER_SPACE
 70
     0
 10
0.0
 20
0.0
 30
0.0
  3
$PAPER_SPACE
  1

  0
ENDBLK
  5
24647
330
24645
100
AcDbEntity
  8
0
100
AcDbBlockEnd
  0
BLOCK
  5
24649
330
24648
100
AcDbEntity
  8
0
100
AcDbBlockBegin
  2
DOT
 70
     0
 10
0.0
 20
0.0
 30
0.0
  3
DOT
  1

  0
LWPOLYLINE
  5
2464A
330
24648
100
AcDbEntity
  8
0
  6
ByBlock
 62
     0
100
AcDbPolyline
 90
        2
 70
     1
 43
0.75
 10
-0.375
 20
0.0
 42
1.0
 10
0.375
 20
0.0
 42
1.0
  0
LINE
  5
2464E
330
24648
100
AcDbEntity
  8
0
  6
ByBlock
 62
     0
100
AcDbLine
 10
-0.75
 20
0.0
 30
0.0
 11
-1.5
 21
0.0
 31
0.0
  0
ENDBLK
  5
2464F
330
24648
100
AcDbEntity
  8
0
100
AcDbBlockEnd
  0
BLOCK
  5
24651
330
24650
100
AcDbEntity
  8
0
100
AcDbBlockBegin
  2
*U3
 70
     1
 10
0.0
 20
0.0
 30
0.0
  3
*U3
  1

  0
TEXT
  5
24652
330
24650
100
AcDbEntity
  8
SUNPOU
100
AcDbText
 10
1405.036707340869
 20
941.7125251995903
 30
0.0
 40
90.0
  1
900 □
 41
0.6666666666666666
  7
00
100
AcDbText
  0
ENDBLK
  5
24653
330
24650
100
AcDbEntity
  8
0
100
AcDbBlockEnd
  0
BLOCK
  5
24655
330
24654
100
AcDbEntity
  8
0
100
AcDbBlockBegin
  2
*U4
 70
     1
 10
0.0
 20
0.0
 30
0.0
  3
*U4
  1

  0
TEXT
  5
24656
330
24654
100
AcDbEntity
  8
SUNPOU
100
AcDbText
 10
1405.036707340869
 20
1151.712525199589
 30
0.0
 40
90.0
  1
700 □
 41
0.6666666666666666
  7
00
100
AcDbText
  0
ENDBLK
  5
24657
330
24654
100
AcDbEntity
  8
0
100
AcDbBlockEnd
  0
BLOCK
  5
24659
330
24658
100
AcDbEntity
  8
0
100
AcDbBlockBegin
  2
*U5
 70
     1
 10
0.0
 20
0.0
 30
0.0
  3
*U5
  1

  0
TEXT
  5
2465A
330
24658
100
AcDbEntity
  8
SUNPOU
100
AcDbText
 10
3616.53670734087
 20
1875.998239485305
 30
0.0
 40
90.0
  1
500
 50
90.0
 41
0.6666666666666666
  7
00
100
AcDbText
  0
ENDBLK
  5
2465B
330
24658
100
AcDbEntity
  8
0
100
AcDbBlockEnd
  0
BLOCK
  5
2465D
330
2465C
100
AcDbEntity
  8
0
100
AcDbBlockBegin
  2
*U6
 70
     1
 10
0.0
 20
0.0
 30
0.0
  3
*U6
  1

  0
TEXT
  5
2465E
330
2465C
100
AcDbEntity
  8
SUNPOU
100
AcDbText
 10
3616.53670734087
 20
1213.855382342448
 30
0.0
 40
90.0
  1
100
 50
90.0
 41
0.6666666666666666
  7
00
100
AcDbText
  0
ENDBLK
  5
2465F
330
2465C
100
AcDbEntity
  8
0
100
AcDbBlockEnd
  0
ENDSEC
  0
SECTION
  2
ENTITIES
  0
TEXT
  5
24660
330
2461D
100
AcDbEntity
  8
NAME
100
AcDbText
 10
9402.694977008243
 20
716.2499999999992
 30
0.0
 40
120.0
  1
YOTC
 41
0.7
  7
01
100
AcDbText
  0
TEXT
  5
24661
330
2461D
100
AcDbEntity
  8
NAME
100
AcDbText
 10
8327.765992739108
 20
716.2499999999992
 30
0.0
 40
120.0
  1
ヨド自転車置場      型
  7
01
100
AcDbText
  0
TEXT
  5
24662
330
2461D
100
AcDbEntity
  8
NAME
100
AcDbText
 10
8685.634258449118
 20
405.7500000000024
 30
0.0
 40
120.0
  1
型（一般地用）背合せ
 41
0.7
  7
01
100
AcDbText
  0
TEXT
  5
24663
330
2461D
100
AcDbEntity
  8
NAME
100
AcDbText
 10
8101.484605933894
 20
405.7500000000024
 30
0.0
 40
120.0
  1
YOTC-350
 41
0.6
  7
01
 72
     2
 11
8650.056034505322
 21
405.7500000000024
 31
0.0
100
AcDbText
  0
TEXT
  5
24664
330
2461D
100
AcDbEntity
  8
NAME
100
AcDbText
 10
9685.26209933479
 20
405.7500000000025
 30
0.0
 40
120.0
  1
<3／3>
 41
0.6
  7
01
 72
     2
 11
10059.66209933478
 21
405.7500000000025
 31
0.0
100
AcDbText
  0
TEXT
  5
24665
330
2461D
100
AcDbEntity
  8
SUNPOU
100
AcDbText
 10
6127.197784192073
 20
2675.127478609063
 30
0.0
 40
90.0
  1
L ＝ 3500 × N ＋ 700
 41
0.6666666666666666
  7
00
 72
     4
 11
6600.340641334931
 21
2720.127478609063
 31
0.0
100
AcDbText
  0
TEXT
  5
24666
330
2461D
100
AcDbEntity
  8
SUNPOU
100
AcDbText
 10
6210.626355620645
 20
2885.127478609063
 30
0.0
 40
90.0
  1
3500 ×（ N - 2 ）
 41
0.6666666666666666
  7
00
 72
     4
 11
6600.340641334931
 21
2930.127478609063
 31
0.0
100
AcDbText
  0
LINE
  5
24667
330
2461D
100
AcDbEntity
  8
1PL-M1
100
AcDbLine
 10
1838.757913271065
 20
6700.127478609063
 30
0.0
 11
11432.18396002396
 21
6700.127478609061
 31
0.0
  0
LINE
  5
24668
330
2461D
100
AcDbEntity
  8
SUNPOU
100
AcDbLine
 10
1915.340641334928
 20
2630.127478609063
 30
0.0
 11
11285.34064133492
 21
2630.127478609063
 31
0.0
  0
LINE
  5
24669
330
2461D
100
AcDbEntity
  8
U3
100
AcDbLine
 10
1900.340641334932
 20
8100.127478609064
 30
0.0
 11
6560.340641334933
 21
8100.127478609064
 31
0.0
  0
LINE
  5
2466A
330
2461D
100
AcDbEntity
  8
U3
100
AcDbLine
 10
1900.340641334932
 20
3240.127478609062
 30
0.0
 11
6560.340641334936
 21
3240.127478609063
 31
0.0
  0
LINE
  5
2466B
330
2461D
100
AcDbEntity
  8
1PL-M1
100
AcDbLine
 10
1838.757913271065
 20
4640.127478609064
 30
0.0
 11
11432.18396002396
 21
4640.127478609062
 31
0.0
  0
LINE
  5
2466C
330
2461D
100
AcDbEntity
  8
SUNPOU
100
AcDbLine
 10
5765.34064133493
 20
2840.127478609062
 30
0.0
 11
7435.340641334931
 21
2840.127478609062
 31
0.0
  0
LINE
  5
2466D
330
2461D
100
AcDbEntity
  8
2PL-L2
100
AcDbLine
 10
1854.340641334933
 20
3635.127478609064
 30
0.0
 11
6560.340641334936
 21
3635.127478609064
 31
0.0
  0
LINE
  5
2466E
330
2461D
100
AcDbEntity
  8
2PL-L2
100
AcDbLine
 10
1854.340641334932
 20
7705.127478609066
 30
0.0
 11
6560.340641334936
 21
7705.127478609066
 31
0.0
  0
LINE
  5
2466F
330
2461D
100
AcDbEntity
  8
U3
100
AcDbLine
 10
1900.340641334932
 20
3240.127478609062
 30
0.0
 11
1900.340641334932
 21
8100.127478609064
 31
0.0
  0
LINE
  5
24670
330
2461D
100
AcDbEntity
  8
1PL-M1
100
AcDbLine
 10
5750.340641334936
 20
4239.849618183392
 30
0.0
 11
5750.340641334936
 21
7100.127478609064
 31
0.0
  0
LINE
  5
24671
330
2461D
100
AcDbEntity
  8
1PL-M1
100
AcDbLine
 10
2250.340641334933
 20
4239.849618183392
 30
0.0
 11
2250.340641334933
 21
7100.127478609064
 31
0.0
  0
LINE
  5
24672
330
2461D
100
AcDbEntity
  8
2PL-L2
100
AcDbLine
 10
1854.340641334932
 20
7705.127478609066
 30
0.0
 11
1854.340641334933
 21
3635.127478609064
 31
0.0
  0
LINE
  5
24673
330
2461D
100
AcDbEntity
  8
SUNPOU
100
AcDbLine
 10
1915.340641334928
 20
2840.127478609062
 30
0.0
 11
2235.340641334929
 21
2840.127478609062
 31
0.0
  0
TEXT
  5
24674
330
2461D
100
AcDbEntity
  8
SUNPOU
100
AcDbText
 10
1989.626355620642
 20
2885.127478609063
 30
0.0
 40
90.0
  1
350
 41
0.6666666666666666
  7
00
 72
     4
 11
2075.340641334928
 21
2930.127478609063
 31
0.0
100
AcDbText
  0
LINE
  5
24675
330
2461D
100
AcDbEntity
  8
SUNPOU
100
AcDbLine
 10
1900.340641334932
 20
3604.969545146267
 30
0.0
 11
1900.340641334928
 21
2600.127478609063
 31
0.0
  0
LINE
  5
24676
330
2461D
100
AcDbEntity
  8
SUNPOU
100
AcDbLine
 10
1900.340641334928
 20
2870.127478609063
 30
0.0
 11
1900.340641334928
 21
2870.127478609063
 31
0.0
  0
TEXT
  5
24677
330
2461D
100
AcDbEntity
  8
SUNPOU
100
AcDbText
 10
3608.340641334933
 20
3499.969545146267
 30
0.0
 40
90.0
  1
（屋根前面位置）
  7
01
 72
     4
 11
4025.340641334934
 21
3544.969545146267
 31
0.0
100
AcDbText
  0
TEXT
  5
24678
330
2461D
100
AcDbEntity
  8
SUNPOU
100
AcDbText
 10
3500.340641334934
 20
3285.127478609062
 30
0.0
 40
90.0
  1
（土間コン前面位置）
  7
01
 72
     4
 11
4025.340641334934
 21
3330.127478609062
 31
0.0
100
AcDbText
  0
LINE
  5
24679
330
2461D
100
AcDbEntity
  8
SUNPOU
100
AcDbLine
 10
2265.340641334927
 20
2840.127478609062
 30
0.0
 11
5735.34064133493
 21
2840.127478609062
 31
0.0
  0
LINE
  5
2467A
330
2461D
100
AcDbEntity
  8
SUNPOU
100
AcDbLine
 10
2250.340641334933
 20
4209.849618183391
 30
0.0
 11
2250.340641334929
 21
2810.127478609063
 31
0.0
  0
TEXT
  5
2467B
330
2461D
100
AcDbEntity
  8
SUNPOU
100
AcDbText
 10
3886.054927049212
 20
2885.127478609063
 30
0.0
 40
90.0
  1
3500
 41
0.6666666666666666
  7
00
 72
     4
 11
4000.340641334926
 21
2930.127478609063
 31
0.0
100
AcDbText
  0
LINE
  5
2467C
330
2461D
100
AcDbEntity
  8
SUNPOU
100
AcDbLine
 10
5750.340641334936
 20
4209.849618183391
 30
0.0
 11
5750.34064133493
 21
2810.127478609063
 31
0.0
  0
TEXT
  5
2467D
330
2461D
100
AcDbEntity
  8
SUNPOU
100
AcDbText
 10
3608.340641334933
 20
7761.685412071864
 30
0.0
 40
90.0
  1
（屋根後面位置）
  7
01
 72
     4
 11
4025.340641334934
 21
7806.685412071864
 31
0.0
100
AcDbText
  0
TEXT
  5
2467E
330
2461D
100
AcDbEntity
  8
SUNPOU
100
AcDbText
 10
3500.340641334934
 20
8145.127478609062
 30
0.0
 40
90.0
  1
（土間コン後面位置）
  7
01
 72
     4
 11
4025.340641334934
 21
8190.127478609062
 31
0.0
100
AcDbText
  0
LINE
  5
2467F
330
2461D
100
AcDbEntity
  8
U2
100
AcDbLine
 10
6640.340641334934
 20
3140.127478609063
 30
0.0
 11
6640.34064133493
 21
8200.127478609061
 31
0.0
  0
LINE
  5
24680
330
2461D
100
AcDbEntity
  8
U2
100
AcDbLine
 10
6560.340641334936
 20
3140.127478609063
 30
0.0
 11
6560.340641334931
 21
8200.127478609061
 31
0.0
  0
LINE
  5
24681
330
2461D
100
AcDbEntity
  8
U3
100
AcDbLine
 10
11300.34064133492
 20
3240.127478609063
 30
0.0
 11
11300.34064133492
 21
8100.127478609062
 31
0.0
  0
LINE
  5
24682
330
2461D
100
AcDbEntity
  8
SUNPOU
100
AcDbLine
 10
12020.34064133493
 20
8085.127478609058
 30
0.0
 11
12020.34064133493
 21
3255.127478609062
 31
0.0
  0
LINE
  5
24683
330
2461D
100
AcDbEntity
  8
SUNPOU
100
AcDbLine
 10
11810.34064133493
 20
4640.127478609062
 30
0.0
 11
11810.34064133493
 21
3255.127478609062
 31
0.0
  0
LINE
  5
24684
330
2461D
100
AcDbEntity
  8
SUNPOU
100
AcDbLine
 10
10982.84064133492
 20
4572.627478609063
 30
0.0
 11
10982.84064133492
 21
4396.184634723411
 31
0.0
  0
LINE
  5
24685
330
2461D
100
AcDbEntity
  8
SUNPOU
100
AcDbLine
 10
10917.84064133492
 20
4572.627478609063
 30
0.0
 11
10917.84064133492
 21
4396.184634723411
 31
0.0
  0
LINE
  5
24686
330
2461D
100
AcDbEntity
  8
1PL-M1
100
AcDbLine
 10
10950.34064133492
 20
4239.849618183392
 30
0.0
 11
10950.34064133492
 21
6010.639079486154
 31
0.0
  0
LINE
  5
24687
330
2461D
100
AcDbEntity
  8
SUNPOU
100
AcDbLine
 10
11600.34064133492
 20
4975.127478609064
 30
0.0
 11
11600.34064133492
 21
4305.127478609064
 31
0.0
  0
LINE
  5
24688
330
2461D
100
AcDbEntity
  8
1PL-M1
100
AcDbLine
 10
7450.340641334934
 20
4239.849618183392
 30
0.0
 11
7450.340641334934
 21
7100.127478609064
 31
0.0
  0
LINE
  5
24689
330
2461D
100
AcDbEntity
  8
2PL-L2
100
AcDbLine
 10
11346.34064133493
 20
7705.127478609063
 30
0.0
 11
11346.34064133493
 21
3635.127478609064
 31
0.0
  0
LINE
  5
2468A
330
2461D
100
AcDbEntity
  8
SUNPOU
100
AcDbLine
 10
7465.34064133493
 20
2840.127478609062
 30
0.0
 11
10935.34064133492
 21
2840.127478609062
 31
0.0
  0
LINE
  5
2468B
330
2461D
100
AcDbEntity
  8
U3
100
AcDbLine
 10
6640.340641334937
 20
3240.127478609063
 30
0.0
 11
11300.34064133492
 21
3240.127478609063
 31
0.0
  0
LINE
  5
2468C
330
2461D
100
AcDbEntity
  8
2PL-L2
100
AcDbLine
 10
6640.340641334934
 20
3635.127478609064
 30
0.0
 11
11346.34064133493
 21
3635.127478609064
 31
0.0
  0
LINE
  5
2468D
330
2461D
100
AcDbEntity
  8
SUNPOU
100
AcDbLine
 10
7450.340641334934
 20
4209.849618183391
 30
0.0
 11
7450.340641334931
 21
2810.127478609063
 31
0.0
  0
TEXT
  5
2468E
330
2461D
100
AcDbEntity
  8
SUNPOU
100
AcDbText
 10
9086.054927049215
 20
2885.127478609063
 30
0.0
 40
90.0
  1
3500
 41
0.6666666666666666
  7
00
 72
     4
 11
9200.340641334928
 21
2930.127478609063
 31
0.0
100
AcDbText
  0
LINE
  5
2468F
330
2461D
100
AcDbEntity
  8
SUNPOU
100
AcDbLine
 10
11300.34064133492
 20
3604.969545146267
 30
0.0
 11
11300.34064133492
 21
2600.127478609063
 31
0.0
  0
LINE
  5
24690
330
2461D
100
AcDbEntity
  8
SUNPOU
100
AcDbLine
 10
10950.34064133492
 20
3604.969545146267
 30
0.0
 11
10950.34064133492
 21
2810.127478609063
 31
0.0
  0
LINE
  5
24691
330
2461D
100
AcDbEntity
  8
SUNPOU
100
AcDbLine
 10
10950.34064133492
 20
4029.643868126107
 30
0.0
 11
10950.34064133492
 21
2810.127478609063
 31
0.0
  0
TEXT
  5
24692
330
2461D
100
AcDbEntity
  8
SUNPOU
100
AcDbText
 10
11039.62635562064
 20
2885.127478609063
 30
0.0
 40
90.0
  1
350
 41
0.6666666666666666
  7
00
 72
     4
 11
11125.34064133493
 21
2930.127478609063
 31
0.0
100
AcDbText
  0
LINE
  5
24693
330
2461D
100
AcDbEntity
  8
SUNPOU
100
AcDbLine
 10
10965.34064133492
 20
2840.127478609062
 30
0.0
 11
11285.34064133492
 21
2840.127478609062
 31
0.0
  0
LINE
  5
24694
330
2461D
100
AcDbEntity
  8
SUNPOU
100
AcDbLine
 10
11300.34064133492
 20
2870.127478609063
 30
0.0
 11
11300.34064133492
 21
2870.127478609063
 31
0.0
  0
LINE
  5
24695
330
2461D
100
AcDbEntity
  8
SUNPOU
100
AcDbLine
 10
11330.34064133493
 20
4290.127478609064
 30
0.0
 11
11630.34064133493
 21
4290.127478609064
 31
0.0
  0
LINE
  5
24696
330
2461D
100
AcDbEntity
  8
SUNPOU
100
AcDbLine
 10
11330.34064133493
 20
3240.127478609063
 30
0.0
 11
12050.34064133492
 21
3240.127478609063
 31
0.0
  0
LINE
  5
24697
330
2461D
100
AcDbEntity
  8
SUNPOU
100
AcDbLine
 10
10615.34064133492
 20
4065.127478609062
 30
0.0
 11
11285.34064133492
 21
4065.127478609062
 31
0.0
  0
LINE
  5
24698
330
2461D
100
AcDbEntity
  8
SUNPOU
100
AcDbLine
 10
10600.34064133492
 20
4260.127478609063
 30
0.0
 11
10600.34064133492
 21
4035.127478609063
 31
0.0
  0
LINE
  5
24699
330
2461D
100
AcDbEntity
  8
SUNPOU
100
AcDbLine
 10
10887.84064133492
 20
4426.184634723411
 30
0.0
 11
10790.85492704922
 21
4426.184634723411
 31
0.0
  0
TEXT
  5
2469A
330
2461D
100
AcDbEntity
  8
SUNPOU
100
AcDbText
 10
10864.62635562064
 20
4110.127478609063
 30
0.0
 40
90.0
  1
700
 41
0.6666666666666666
  7
00
 72
     1
 11
10950.34064133492
 21
4155.127478609063
 31
0.0
100
AcDbText
 73
     2
  0
LINE
  5
2469B
330
2461D
100
AcDbEntity
  8
SUNPOU
100
AcDbLine
 10
10967.84064133492
 20
4426.184634723411
 30
0.0
 11
10917.84064133492
 21
4426.184634723411
 31
0.0
  0
LINE
  5
2469C
330
2461D
100
AcDbEntity
  8
SUNPOU
100
AcDbLine
 10
10902.84064133492
 20
4426.184634723411
 30
0.0
 11
10887.84064133492
 21
4426.184634723411
 31
0.0
  0
LINE
  5
2469D
330
2461D
100
AcDbEntity
  8
SUNPOU
100
AcDbLine
 10
11300.34064133492
 20
4095.127478609064
 30
0.0
 11
11300.34064133492
 21
4095.127478609064
 31
0.0
  0
LINE
  5
2469E
330
2461D
100
AcDbEntity
  8
SUNPOU
100
AcDbLine
 10
11780.34064133492
 20
3240.127478609063
 30
0.0
 11
11780.34064133492
 21
3240.127478609063
 31
0.0
  0
TEXT
  5
2469F
330
2461D
100
AcDbEntity
  8
SUNPOU
100
AcDbText
 10
11765.34064133492
 20
3821.556050037634
 30
0.0
 40
90.0
  1
1400
 50
90.0
 41
0.6666666666666666
  7
00
 72
     1
 11
11720.34064133492
 21
3940.127478609062
 31
0.0
100
AcDbText
 73
     2
  0
LINE
  5
246A0
330
2461D
100
AcDbEntity
  8
HIKIDASHI
100
AcDbLine
 10
10531.46816448372
 20
7157.42892287148
 30
0.0
 11
10675.46816448372
 21
7157.42892287148
 31
0.0
  0
LINE
  5
246A1
330
2461D
100
AcDbEntity
  8
HIKIDASHI
100
AcDbLine
 10
10531.46816448372
 20
5097.428922871479
 30
0.0
 11
10675.46816448372
 21
5097.428922871479
 31
0.0
  0
TEXT
  5
246A2
330
2461D
100
AcDbEntity
  8
HIKIDASHI
100
AcDbText
 10
10561.46816448372
 20
5142.428922871479
 30
0.0
 40
90.0
  1
柱
  7
01
 72
     2
 11
10645.46816448372
 21
5187.428922871479
 31
0.0
100
AcDbText
 73
     2
  0
TEXT
  5
246A3
330
2461D
100
AcDbEntity
  8
HIKIDASHI
100
AcDbText
 10
10561.46816448372
 20
7202.428922871478
 30
0.0
 40
90.0
  1
柱
  7
01
 72
     2
 11
10645.46816448372
 21
7247.428922871478
 31
0.0
100
AcDbText
 73
     2
  0
LINE
  5
246A4
330
2461D
100
AcDbEntity
  8
U3
100
AcDbLine
 10
6640.340641334933
 20
8100.127478609064
 30
0.0
 11
11300.34064133492
 21
8100.127478609062
 31
0.0
  0
LINE
  5
246A5
330
2461D
100
AcDbEntity
  8
2PL-L2
100
AcDbLine
 10
6640.34064133493
 20
7705.127478609066
 30
0.0
 11
11346.34064133493
 21
7705.127478609063
 31
0.0
  0
LINE
  5
246A6
330
2461D
100
AcDbEntity
  8
SUNPOU
100
AcDbLine
 10
11810.34064133493
 20
8085.127478609058
 30
0.0
 11
11810.34064133493
 21
6715.127478609064
 31
0.0
  0
LINE
  5
246A7
330
2461D
100
AcDbEntity
  8
SUNPOU
100
AcDbLine
 10
11810.34064133493
 20
4655.127478609063
 30
0.0
 11
11810.34064133493
 21
6685.127478609064
 31
0.0
  0
LINE
  5
246A8
330
2461D
100
AcDbEntity
  8
SUNPOU
100
AcDbLine
 10
11330.34064133493
 20
4990.127478609064
 30
0.0
 11
11630.34064133493
 21
4990.127478609064
 31
0.0
  0
LINE
  5
246A9
330
2461D
100
AcDbEntity
  8
SUNPOU
100
AcDbLine
 10
11012.84064133492
 20
4602.627478609064
 30
0.0
 11
11191.04665690042
 21
4602.627478609064
 31
0.0
  0
LINE
  5
246AA
330
2461D
100
AcDbEntity
  8
SUNPOU
100
AcDbLine
 10
11012.84064133492
 20
4677.627478609063
 30
0.0
 11
11191.04665690042
 21
4677.627478609063
 31
0.0
  0
TEXT
  5
246AB
330
2461D
100
AcDbEntity
  8
SUNPOU
100
AcDbText
 10
11116.04665690042
 20
4701.756050037633
 30
0.0
 40
90.0
  1
75
 50
90.0
 41
0.6666666666666666
  7
00
 72
     1
 11
11071.04665690042
 21
4758.89890718049
 31
0.0
100
AcDbText
 73
     2
  0
LINE
  5
246AC
330
2461D
100
AcDbEntity
  8
HIKIDASHI
100
AcDbLine
 10
10887.84064133492
 20
4729.589002836124
 30
0.0
 11
10675.46816448372
 21
5097.428922871479
 31
0.0
  0
TEXT
  5
246AD
330
2461D
100
AcDbEntity
  8
SUNPOU
100
AcDbText
 10
10779.42635562064
 20
4471.184634723411
 30
0.0
 40
90.0
  1
65
 41
0.6666666666666666
  7
00
 72
     1
 11
10837.99778419207
 21
4516.184634723411
 31
0.0
100
AcDbText
 73
     2
  0
SOLID
  5
246AE
330
2461D
100
AcDbEntity
  8
HIKIDASHI
100
AcDbTrace
 10
10896.50089537277
 20
4734.589002836126
 30
0.0
 11
10879.18038729708
 21
4724.589002836121
 31
0.0
 12
10917.84064133492
 22
4677.627478609063
 32
0.0
 13
10917.84064133492
 23
4677.627478609063
 33
0.0
  0
LINE
  5
246AF
330
2461D
100
AcDbEntity
  8
SUNPOU
100
AcDbLine
 10
11161.04665690041
 20
4707.627478609063
 30
0.0
 11
11161.04665690041
 21
4807.47033575192
 31
0.0
  0
LINE
  5
246B0
330
2461D
100
AcDbEntity
  8
SUNPOU
100
AcDbLine
 10
11161.04665690041
 20
4617.627478609064
 30
0.0
 11
11161.04665690041
 21
4677.627478609063
 31
0.0
  0
LINE
  5
246B1
330
2461D
100
AcDbEntity
  8
SUNPOU
100
AcDbLine
 10
11161.04665690041
 20
4692.627478609064
 30
0.0
 11
11161.04665690041
 21
4707.627478609063
 31
0.0
  0
TEXT
  5
246B2
330
2461D
100
AcDbEntity
  8
SUNPOU
100
AcDbText
 10
11555.34064133493
 20
4554.413192894778
 30
0.0
 40
90.0
  1
700
 50
90.0
 41
0.6666666666666666
  7
00
 72
     1
 11
11510.34064133493
 21
4640.127478609064
 31
0.0
100
AcDbText
 73
     2
  0
LINE
  5
246B3
330
2461D
100
AcDbEntity
  8
SUNPOU
100
AcDbLine
 10
11660.34064133492
 20
4640.127478609064
 30
0.0
 11
11840.34064133492
 21
4640.127478609064
 31
0.0
  0
LINE
  5
246B4
330
2461D
100
AcDbEntity
  8
1PL-S1
100
AcDbLine
 10
11634.54574119364
 20
4640.127478609062
 30
0.0
 11
11840.34064133492
 21
4640.127478609062
 31
0.0
  0
LINE
  5
246B5
330
2461D
100
AcDbEntity
  8
SUNPOU
100
AcDbLine
 10
11780.34064133492
 20
4640.127478609064
 30
0.0
 11
11780.34064133492
 21
4640.127478609064
 31
0.0
  0
TEXT
  5
246B6
330
2461D
100
AcDbEntity
  8
SUNPOU
100
AcDbText
 10
11765.34064133492
 20
5555.841764323349
 30
0.0
 40
90.0
  1
2060
 50
90.0
 41
0.6666666666666666
  7
00
 72
     1
 11
11720.34064133492
 21
5670.127478609064
 31
0.0
100
AcDbText
 73
     2
  0
TEXT
  5
246B7
330
2461D
100
AcDbEntity
  8
SUNPOU
100
AcDbText
 10
11975.34064133493
 20
5555.841764323348
 30
0.0
 40
90.0
  1
4860
 50
90.0
 41
0.6666666666666666
  7
00
 72
     4
 11
11930.34064133492
 21
5670.127478609063
 31
0.0
100
AcDbText
  0
LINE
  5
246B8
330
2461D
100
AcDbEntity
  8
SUNPOU
100
AcDbLine
 10
11330.34064133493
 20
7050.127478609063
 30
0.0
 11
11630.34064133493
 21
7050.127478609063
 31
0.0
  0
LINE
  5
246B9
330
2461D
100
AcDbEntity
  8
SUNPOU
100
AcDbLine
 10
11330.34064133493
 20
6350.127478609064
 30
0.0
 11
11630.34064133493
 21
6350.127478609064
 31
0.0
  0
LINE
  5
246BA
330
2461D
100
AcDbEntity
  8
SUNPOU
100
AcDbLine
 10
10982.84064133492
 20
6632.627478609062
 30
0.0
 11
10982.84064133492
 21
6456.184634723411
 31
0.0
  0
LINE
  5
246BB
330
2461D
100
AcDbEntity
  8
SUNPOU
100
AcDbLine
 10
10917.84064133492
 20
6632.627478609062
 30
0.0
 11
10917.84064133492
 21
6456.184634723411
 31
0.0
  0
TEXT
  5
246BC
330
2461D
100
AcDbEntity
  8
SUNPOU
100
AcDbText
 10
10779.42635562064
 20
6531.184634723411
 30
0.0
 40
90.0
  1
65
 41
0.6666666666666666
  7
00
 72
     1
 11
10837.99778419207
 21
6576.184634723411
 31
0.0
100
AcDbText
 73
     2
  0
LINE
  5
246BD
330
2461D
100
AcDbEntity
  8
1PL-M1
100
AcDbLine
 10
10950.34064133492
 20
6221.464312890519
 30
0.0
 11
10950.34064133492
 21
7100.127478609064
 31
0.0
  0
LINE
  5
246BE
330
2461D
100
AcDbEntity
  8
SUNPOU
100
AcDbLine
 10
10615.34064133492
 20
6050.127478609063
 30
0.0
 11
11285.34064133492
 21
6050.127478609063
 31
0.0
  0
LINE
  5
246BF
330
2461D
100
AcDbEntity
  8
SUNPOU
100
AcDbLine
 10
10600.34064133492
 20
6320.127478609062
 30
0.0
 11
10600.34064133492
 21
6020.127478609063
 31
0.0
  0
TEXT
  5
246C0
330
2461D
100
AcDbEntity
  8
SUNPOU
100
AcDbText
 10
10864.62635562064
 20
6095.127478609064
 30
0.0
 40
90.0
  1
700
 41
0.6666666666666666
  7
00
 72
     1
 11
10950.34064133492
 21
6140.127478609064
 31
0.0
100
AcDbText
 73
     2
  0
LINE
  5
246C1
330
2461D
100
AcDbEntity
  8
SUNPOU
100
AcDbLine
 10
10887.84064133492
 20
6486.184634723412
 30
0.0
 11
10790.85492704922
 21
6486.184634723412
 31
0.0
  0
LINE
  5
246C2
330
2461D
100
AcDbEntity
  8
SUNPOU
100
AcDbLine
 10
10967.84064133492
 20
6486.184634723412
 30
0.0
 11
10917.84064133492
 21
6486.184634723412
 31
0.0
  0
LINE
  5
246C3
330
2461D
100
AcDbEntity
  8
SUNPOU
100
AcDbLine
 10
10902.84064133492
 20
6486.184634723412
 30
0.0
 11
10887.84064133492
 21
6486.184634723412
 31
0.0
  0
LINE
  5
246C4
330
2461D
100
AcDbEntity
  8
SUNPOU
100
AcDbLine
 10
11300.34064133492
 20
6080.127478609064
 30
0.0
 11
11300.34064133492
 21
6080.127478609064
 31
0.0
  0
LINE
  5
246C5
330
2461D
100
AcDbEntity
  8
SUNPOU
100
AcDbLine
 10
11012.84064133492
 20
6662.627478609064
 30
0.0
 11
11191.04665690042
 21
6662.627478609064
 31
0.0
  0
LINE
  5
246C6
330
2461D
100
AcDbEntity
  8
SUNPOU
100
AcDbLine
 10
11012.84064133492
 20
6737.627478609063
 30
0.0
 11
11191.04665690042
 21
6737.627478609063
 31
0.0
  0
TEXT
  5
246C7
330
2461D
100
AcDbEntity
  8
SUNPOU
100
AcDbText
 10
11116.04665690042
 20
6761.756050037632
 30
0.0
 40
90.0
  1
75
 50
90.0
 41
0.6666666666666666
  7
00
 72
     1
 11
11071.04665690042
 21
6818.898907180489
 31
0.0
100
AcDbText
 73
     2
  0
LINE
  5
246C8
330
2461D
100
AcDbEntity
  8
HIKIDASHI
100
AcDbLine
 10
10887.84064133492
 20
6789.589002836125
 30
0.0
 11
10675.46816448372
 21
7157.42892287148
 31
0.0
  0
SOLID
  5
246C9
330
2461D
100
AcDbEntity
  8
HIKIDASHI
100
AcDbTrace
 10
10896.50089537277
 20
6794.589002836126
 30
0.0
 11
10879.18038729708
 21
6784.589002836122
 31
0.0
 12
10917.84064133492
 22
6737.627478609063
 32
0.0
 13
10917.84064133492
 23
6737.627478609063
 33
0.0
  0
LINE
  5
246CA
330
2461D
100
AcDbEntity
  8
SUNPOU
100
AcDbLine
 10
11161.04665690041
 20
6677.627478609064
 30
0.0
 11
11161.04665690041
 21
6737.627478609063
 31
0.0
  0
LINE
  5
246CB
330
2461D
100
AcDbEntity
  8
SUNPOU
100
AcDbLine
 10
11161.04665690041
 20
6752.627478609062
 30
0.0
 11
11161.04665690041
 21
6767.627478609063
 31
0.0
  0
LINE
  5
246CC
330
2461D
100
AcDbEntity
  8
SUNPOU
100
AcDbLine
 10
11161.04665690041
 20
6767.627478609063
 30
0.0
 11
11161.04665690041
 21
6867.470335751919
 31
0.0
  0
TEXT
  5
246CD
330
2461D
100
AcDbEntity
  8
SUNPOU
100
AcDbText
 10
11555.34064133493
 20
6614.413192894777
 30
0.0
 40
90.0
  1
700
 50
90.0
 41
0.6666666666666666
  7
00
 72
     1
 11
11510.34064133493
 21
6700.127478609063
 31
0.0
100
AcDbText
 73
     2
  0
LINE
  5
246CE
330
2461D
100
AcDbEntity
  8
SUNPOU
100
AcDbLine
 10
11600.34064133492
 20
7035.127478609064
 30
0.0
 11
11600.34064133492
 21
6365.127478609064
 31
0.0
  0
LINE
  5
246CF
330
2461D
100
AcDbEntity
  8
SUNPOU
100
AcDbLine
 10
11660.34064133492
 20
6700.127478609063
 30
0.0
 11
11840.34064133492
 21
6700.127478609063
 31
0.0
  0
LINE
  5
246D0
330
2461D
100
AcDbEntity
  8
1PL-S1
100
AcDbLine
 10
11634.54574119364
 20
6700.127478609061
 30
0.0
 11
11840.34064133492
 21
6700.127478609061
 31
0.0
  0
LINE
  5
246D1
330
2461D
100
AcDbEntity
  8
SUNPOU
100
AcDbLine
 10
11780.34064133492
 20
6700.127478609063
 30
0.0
 11
11780.34064133492
 21
6700.127478609063
 31
0.0
  0
LINE
  5
246D2
330
2461D
100
AcDbEntity
  8
SUNPOU
100
AcDbLine
 10
11330.34064133493
 20
8100.127478609062
 30
0.0
 11
12050.34064133492
 21
8100.127478609062
 31
0.0
  0
TEXT
  5
246D3
330
2461D
100
AcDbEntity
  8
SUNPOU
100
AcDbText
 10
11765.34064133492
 20
7281.556050037635
 30
0.0
 40
90.0
  1
1400
 50
90.0
 41
0.6666666666666666
  7
00
 72
     4
 11
11720.34064133492
 21
7400.127478609063
 31
0.0
100
AcDbText
  0
LINE
  5
246D4
330
2461D
100
AcDbEntity
  8
SUNPOU
100
AcDbLine
 10
11780.34064133492
 20
8100.127478609062
 30
0.0
 11
11780.34064133492
 21
8100.127478609062
 31
0.0
  0
TEXT
  5
246D5
330
2461D
100
AcDbEntity
  8
HIKIDASHI
100
AcDbText
 10
5894.710814203683
 20
2258.800640501877
 30
0.0
 40
135.0
  1
基 礎 伏 図
  7
01
 72
     2
 11
6740.710814203684
 21
2258.800640501877
 31
0.0
100
AcDbText
  0
TEXT
  5
246D6
330
2461D
100
AcDbEntity
  8
HIKIDASHI
100
AcDbText
 10
6841.960814203685
 20
2285.594137561715
 30
0.0
 40
90.0
  1
(S=
 41
0.6700000000000001
  7
00
100
AcDbText
  0
TEXT
  5
246D7
330
2461D
100
AcDbEntity
  8
HIKIDASHI
100
AcDbText
 10
7134.618548838879
 20
2256.155327461405
 30
0.0
 40
90.0
  1
30
 41
0.6700000000000001
  7
00
100
AcDbText
  0
TEXT
  5
246D8
330
2461D
100
AcDbEntity
  8
HIKIDASHI
100
AcDbText
 10
7271.223311909122
 20
2285.594137561715
 30
0.0
 40
90.0
  1
)
 41
0.6700000000000001
  7
00
100
AcDbText
  0
TEXT
  5
246D9
330
2461D
100
AcDbEntity
  8
HIKIDASHI
100
AcDbText
 10
7082.536499730915
 20
2285.594137561715
 30
0.0
 40
90.0
  1
/
 41
0.6700000000000001
  7
00
100
AcDbText
  0
TEXT
  5
246DA
330
2461D
100
AcDbEntity
  8
HIKIDASHI
100
AcDbText
 10
7045.257219633568
 20
2303.100800028437
 30
0.0
 40
90.0
  1
1
 41
0.6700000000000001
  7
00
100
AcDbText
  0
TEXT
  5
246DB
330
2461D
100
AcDbEntity
  8
HIKIDASHI
100
AcDbText
 10
6045.987999378475
 20
2078.800640501877
 30
0.0
 40
120.0
  1
（  ：スパン数）
  7
01
 72
     4
 11
6601.987999378474
 21
2138.800640501876
 31
0.0
100
AcDbText
  0
TEXT
  5
246DC
330
2461D
100
AcDbEntity
  8
HIKIDASHI
100
AcDbText
 10
6224.577682688776
 20
2078.800640501877
 30
0.0
 40
120.0
  1
N
 41
0.6666666666666666
  7
00
 72
     4
 11
6266.482444593537
 21
2138.800640501876
 31
0.0
100
AcDbText
  0
LINE
  5
246DD
330
2461D
100
AcDbEntity
  8
HIKIDASHI
100
AcDbLine
 10
1201.223030723082
 20
520.2442032316803
 30
0.0
 11
1896.850383958654
 21
520.2442032316803
 31
0.0
  0
LINE
  5
246DE
330
2461D
100
AcDbEntity
  8
HIKIDASHI
100
AcDbLine
 10
1201.223030723082
 20
490.2442032316802
 30
0.0
 11
1896.850383958654
 21
490.2442032316802
 31
0.0
  0
TEXT
  5
246DF
330
2461D
100
AcDbEntity
  8
HIKIDASHI
100
AcDbText
 10
1231.223030723082
 20
565.2442032316803
 30
0.0
 40
90.0
  1
A  ~  A'
 41
0.6700000000000001
  7
00
100
AcDbText
  0
TEXT
  5
246E0
330
2461D
100
AcDbEntity
  8
HIKIDASHI
100
AcDbText
 10
1625.240310219643
 20
565.2442032316803
 30
0.0
 40
90.0
  1
断 面
  7
01
100
AcDbText
  0
LINE
  5
246FE
330
2461D
100
AcDbEntity
  8
KISO
100
AcDbLine
 10
1492.78670734087
 20
2336.712525199589
 30
0.0
 11
579.950633278502
 21
2336.712525199589
 31
0.0
  0
LINE
  5
246FF
330
2461D
100
AcDbEntity
  8
KISO
100
AcDbLine
 10
579.950633278502
 20
2201.712525199589
 30
0.0
 11
1024.03670734087
 21
2201.712525199589
 31
0.0
  0
LINE
  5
24700
330
2461D
100
AcDbEntity
  8
KISO
100
AcDbLine
 10
579.950633278502
 20
2111.712525199587
 30
0.0
 11
1024.03670734087
 21
2111.712525199588
 31
0.0
  0
LINE
  5
24701
330
2461D
100
AcDbEntity
  8
HATCH
100
AcDbLine
 10
794.2762491642314
 20
2336.712525199589
 30
0.0
 11
659.2762491642313
 21
2201.712525199589
 31
0.0
  0
LINE
  5
24702
330
2461D
100
AcDbEntity
  8
HATCH
100
AcDbLine
 10
838.8239763789751
 20
2336.712525199589
 30
0.0
 11
703.8239763789788
 21
2201.712525199589
 31
0.0
  0
LINE
  5
24703
330
2461D
100
AcDbEntity
  8
HATCH
100
AcDbLine
 10
883.3717035937334
 20
2336.712525199589
 30
0.0
 11
748.371703593737
 21
2201.712525199589
 31
0.0
  0
LINE
  5
24704
330
2461D
100
AcDbEntity
  8
HIKIDASHI
100
AcDbLine
 10
1613.875498175096
 20
1640.311915089062
 30
0.0
 11
2124.975705355999
 21
1826.337177230213
 31
0.0
  0
LINE
  5
24705
330
2461D
100
AcDbEntity
  8
HATCH
100
AcDbLine
 10
1492.78670734087
 20
1695.914797984838
 30
0.0
 11
1383.584434555621
 21
1586.712525199589
 31
0.0
  0
LINE
  5
24706
330
2461D
100
AcDbEntity
  8
HATCH
100
AcDbLine
 10
1492.78670734087
 20
1740.462525199589
 30
0.0
 11
1339.036707340869
 21
1586.712525199589
 31
0.0
  0
LINE
  5
24707
330
2461D
100
AcDbEntity
  8
HATCH
100
AcDbLine
 10
1492.78670734087
 20
2145.462525199585
 30
0.0
 11
1024.03670734087
 21
1676.712525199584
 31
0.0
  0
LINE
  5
24708
330
2461D
100
AcDbEntity
  8
HATCH
100
AcDbLine
 10
1492.78670734087
 20
2100.914797984838
 30
0.0
 11
1024.03670734087
 21
1632.164797984836
 31
0.0
  0
LINE
  5
24709
330
2461D
100
AcDbEntity
  8
HASHIRA
100
AcDbLine
 10
1492.78670734087
 20
1586.712525199589
 30
0.0
 11
1492.78670734087
 21
3272.656887330819
 31
0.0
  0
LINE
  5
2470A
330
2461D
100
AcDbEntity
  8
HASHIRA
100
AcDbLine
 10
1605.286707340869
 20
1586.712525199589
 30
0.0
 11
1605.286707340869
 21
3272.656887330819
 31
0.0
  0
LINE
  5
2470B
330
2461D
100
AcDbEntity
  8
1PL-M1
100
AcDbLine
 10
1549.036707340871
 20
1271.712525199589
 30
0.0
 11
1549.036707340871
 21
3453.117345945646
 31
0.0
  0
LINE
  5
2470C
330
2461D
100
AcDbEntity
  8
KISO
100
AcDbLine
 10
2074.036707340871
 20
2336.712525199591
 30
0.0
 11
2074.036707340871
 21
1586.712525199591
 31
0.0
  0
LINE
  5
2470D
330
2461D
100
AcDbEntity
  8
KISO
100
AcDbLine
 10
1024.03670734087
 20
2336.712525199589
 30
0.0
 11
1024.03670734087
 21
1586.712525199589
 31
0.0
  0
LINE
  5
2470E
330
2461D
100
AcDbEntity
  8
HATCH
100
AcDbLine
 10
2074.036707340871
 20
1783.069343555339
 30
0.0
 11
1877.67988898512
 21
1586.712525199589
 31
0.0
  0
LINE
  5
2470F
330
2461D
100
AcDbEntity
  8
HATCH
100
AcDbLine
 10
2074.036707340871
 20
1827.617070770091
 30
0.0
 11
1833.132161770372
 21
1586.712525199589
 31
0.0
  0
LINE
  5
24710
330
2461D
100
AcDbEntity
  8
HATCH
100
AcDbLine
 10
2074.036707340871
 20
1872.164797984845
 30
0.0
 11
1788.584434555606
 21
1586.712525199589
 31
0.0
  0
LINE
  5
24711
330
2461D
100
AcDbEntity
  8
HATCH
100
AcDbLine
 10
1492.78670734087
 20
1651.367070770086
 30
0.0
 11
1428.132161770375
 21
1586.712525199589
 31
0.0
  0
SOLID
  5
24712
330
2461D
100
AcDbEntity
  8
HIKIDASHI
100
AcDbTrace
 10
1617.295699608356
 20
1630.914988881202
 30
0.0
 11
1610.455296741842
 21
1649.708841296919
 31
0.0
 12
1557.493940927943
 22
1619.790706489521
 32
0.0
 13
1557.493940927943
 23
1619.790706489521
 33
0.0
  0
LINE
  5
24713
330
2461D
100
AcDbEntity
  8
HIKIDASHI
100
AcDbLine
 10
1524.4912666931
 20
1616.712525199589
 30
0.0
 11
1573.58214798864
 21
1616.712525199589
 31
0.0
  0
LINE
  5
24714
330
2461D
100
AcDbEntity
  8
HIKIDASHI
100
AcDbLine
 10
1524.4912666931
 20
1676.712525199588
 30
0.0
 11
1573.58214798864
 21
1676.712525199588
 31
0.0
  0
CIRCLE
  5
24715
330
2461D
100
AcDbEntity
  8
HASHIRA
100
AcDbCircle
 10
1549.036707340871
 20
1676.712525199588
 30
0.0
 40
9.0
  0
CIRCLE
  5
24716
330
2461D
100
AcDbEntity
  8
HASHIRA
100
AcDbCircle
 10
1549.036707340871
 20
1616.712525199589
 30
0.0
 40
9.0
  0
TEXT
  5
24717
330
2461D
100
AcDbEntity
  8
SUNPOU
100
AcDbText
 10
2571.613279986268
 20
898.6362762333939
 30
0.0
 40
90.0
  1
ベース筋
  7
01
 72
     4
 11
2775.613279986267
 21
943.6362762333939
 31
0.0
100
AcDbText
  0
LINE
  5
24718
330
2461D
100
AcDbEntity
  8
HATCH
100
AcDbLine
 10
2946.35966122169
 20
2336.712525199589
 30
0.0
 11
2811.35966122169
 21
2201.71252519959
 31
0.0
  0
LINE
  5
24719
330
2461D
100
AcDbEntity
  8
HATCH
100
AcDbLine
 10
2901.811934006931
 20
2336.712525199589
 30
0.0
 11
2766.811934006931
 21
2201.71252519959
 31
0.0
  0
LINE
  5
2471A
330
2461D
100
AcDbEntity
  8
HIKIDASHI
100
AcDbLine
 10
2124.975705355999
 20
1826.337177230213
 30
0.0
 11
2915.9349303874
 21
1826.337177230213
 31
0.0
  0
TEXT
  5
2471B
330
2461D
100
AcDbEntity
  8
HIKIDASHI
100
AcDbText
 10
2415.111770498388
 20
1871.337177230213
 30
0.0
 40
90.0
  1
10   x 350
 41
0.6666666666666666
  7
00
 11
2415.111770498388
 21
1916.337177230214
 31
0.0
100
AcDbText
 73
     2
  0
LINE
  5
2471C
330
2461D
100
AcDbEntity
  8
KISO
100
AcDbLine
 10
2074.036707340871
 20
2111.712525199588
 30
0.0
 11
3461.536707340871
 21
2111.712525199588
 31
0.0
  0
LINE
  5
2471D
330
2461D
100
AcDbEntity
  8
KISO
100
AcDbLine
 10
2074.036707340871
 20
2201.71252519959
 30
0.0
 11
3461.536707340871
 21
2201.712525199593
 31
0.0
  0
LINE
  5
2471E
330
2461D
100
AcDbEntity
  8
KISO
100
AcDbLine
 10
3461.536707340871
 20
2336.712525199591
 30
0.0
 11
1605.286707340869
 21
2336.712525199589
 31
0.0
  0
LINE
  5
2471F
330
2461D
100
AcDbEntity
  8
HATCH
100
AcDbLine
 10
2074.036707340871
 20
2321.712525199589
 30
0.0
 11
1605.286707340869
 21
1852.962525199589
 31
0.0
  0
LINE
  5
24720
330
2461D
100
AcDbEntity
  8
HATCH
100
AcDbLine
 10
2074.036707340871
 20
2232.617070770087
 30
0.0
 11
1605.286707340869
 21
1763.867070770086
 31
0.0
  0
LINE
  5
24721
330
2461D
100
AcDbEntity
  8
HATCH
100
AcDbLine
 10
2074.036707340871
 20
2277.164797984843
 30
0.0
 11
1605.286707340869
 21
1808.41479798484
 31
0.0
  0
LINE
  5
24722
330
2461D
100
AcDbEntity
  8
HATCH
100
AcDbLine
 10
1492.78670734087
 20
2190.010252414342
 30
0.0
 11
1024.03670734087
 21
1721.260252414339
 31
0.0
  0
LINE
  5
24723
330
2461D
100
AcDbEntity
  8
HATCH
100
AcDbLine
 10
1189.941252911364
 20
2336.712525199589
 30
0.0
 11
1024.03670734087
 21
2170.807979629099
 31
0.0
  0
LINE
  5
24724
330
2461D
100
AcDbEntity
  8
HATCH
100
AcDbLine
 10
1234.488980126122
 20
2336.712525199589
 30
0.0
 11
1024.03670734087
 21
2126.260252414339
 31
0.0
  0
LINE
  5
24725
330
2461D
100
AcDbEntity
  8
HATCH
100
AcDbLine
 10
1279.036707340871
 20
2336.712525199589
 30
0.0
 11
1024.03670734087
 21
2081.712525199589
 31
0.0
  0
LINE
  5
24726
330
2461D
100
AcDbEntity
  8
HATCH
100
AcDbLine
 10
1684.036707340873
 20
2336.712525199589
 30
0.0
 11
1605.286707340869
 21
2257.962525199583
 31
0.0
  0
LINE
  5
24727
330
2461D
100
AcDbEntity
  8
HATCH
100
AcDbLine
 10
1639.48898012612
 20
2336.712525199589
 30
0.0
 11
1605.286707340869
 21
2302.510252414343
 31
0.0
  0
LINE
  5
24728
330
2461D
100
AcDbEntity
  8
HATCH
100
AcDbLine
 10
1728.584434555622
 20
2336.712525199589
 30
0.0
 11
1605.286707340869
 21
2213.414797984837
 31
0.0
  0
LINE
  5
24729
330
2461D
100
AcDbEntity
  8
HATCH
100
AcDbLine
 10
2452.264206792181
 20
2336.712525199589
 30
0.0
 11
2317.264206792184
 21
2201.712525199589
 31
0.0
  0
LINE
  5
2472A
330
2461D
100
AcDbEntity
  8
HATCH
100
AcDbLine
 10
2496.811934006939
 20
2336.712525199589
 30
0.0
 11
2361.811934006939
 21
2201.712525199589
 31
0.0
  0
LINE
  5
2472B
330
2461D
100
AcDbEntity
  8
HATCH
100
AcDbLine
 10
2407.716479577437
 20
2336.712525199589
 30
0.0
 11
2272.716479577441
 21
2201.712525199589
 31
0.0
  0
TEXT
  5
2472C
330
2461D
100
AcDbEntity
  8
HIKIDASHI
100
AcDbText
 10
2154.975705355999
 20
1871.337177230213
 30
0.0
 40
90.0
  1
鉄筋
  7
01
 11
2154.975705355999
 21
1916.337177230214
 31
0.0
100
AcDbText
 73
     2
  0
TEXT
  5
2472D
330
2461D
100
AcDbEntity
  8
HIKIDASHI
100
AcDbText
 10
2564.568931394453
 20
1886.337177230213
 30
0.0
 40
90.0
  1
%%c
 41
0.6666666666666666
  7
00
100
AcDbText
  0
LINE
  5
2472E
330
2461D
100
AcDbEntity
  8
HATCH
100
AcDbLine
 10
2857.264206792187
 20
2336.712525199589
 30
0.0
 11
2722.264206792187
 21
2201.71252519959
 31
0.0
  0
LINE
  5
2472F
330
2461D
100
AcDbEntity
  8
SUNPOU
100
AcDbLine
 10
3212.154678208669
 20
2426.712525199592
 30
0.0
 11
3264.116202435737
 21
2336.712525199591
 31
0.0
  0
LINE
  5
24730
330
2461D
100
AcDbEntity
  8
SUNPOU
100
AcDbLine
 10
3264.116202435737
 20
2336.712525199591
 30
0.0
 11
3316.077726662803
 21
2426.712525199592
 31
0.0
  0
LINE
  5
24731
330
2461D
100
AcDbEntity
  8
HATCH
100
AcDbLine
 10
3395.907388436436
 20
2336.712525199589
 30
0.0
 11
3260.907388436436
 21
2201.71252519959
 31
0.0
  0
LINE
  5
24732
330
2461D
100
AcDbEntity
  8
HATCH
100
AcDbLine
 10
3351.359661221682
 20
2336.712525199589
 30
0.0
 11
3216.359661221682
 21
2201.71252519959
 31
0.0
  0
LINE
  5
24733
330
2461D
100
AcDbEntity
  8
HATCH
100
AcDbLine
 10
3306.811934006934
 20
2336.712525199589
 30
0.0
 11
3171.811934006936
 21
2201.71252519959
 31
0.0
  0
LINE
  5
24734
330
2461D
100
AcDbEntity
  8
U3
100
AcDbLine
 10
3461.536707340871
 20
2134.212525199593
 30
0.0
 11
3619.036707340871
 21
2291.712525199589
 31
0.0
  0
LINE
  5
24735
330
2461D
100
AcDbEntity
  8
KISO
100
AcDbLine
 10
3461.536707340871
 20
2111.712525199588
 30
0.0
 11
3461.536707340871
 21
2336.712525199589
 31
0.0
  0
LINE
  5
24736
330
2461D
100
AcDbEntity
  8
U3
100
AcDbLine
 10
3523.577291880684
 20
2196.253109739406
 30
0.0
 11
3585.617876420502
 21
2134.212525199592
 31
0.0
  0
LINE
  5
24737
330
2461D
100
AcDbEntity
  8
U3
100
AcDbLine
 10
3461.536707340873
 20
2229.671940659772
 30
0.0
 11
3523.577291880691
 21
2291.712525199589
 31
0.0
  0
TEXT
  5
24738
330
2461D
100
AcDbEntity
  8
SUNPOU
100
AcDbText
 10
3195.544773864309
 20
2471.712525199591
 30
0.0
 40
90.0
  1
F.L
 41
0.6666666666666666
  7
00
 72
     4
 11
3264.116202435737
 21
2516.712525199591
 31
0.0
100
AcDbText
  0
LINE
  5
24739
330
2461D
100
AcDbEntity
  8
SUNPOU
100
AcDbLine
 10
3316.077726662803
 20
2426.712525199592
 30
0.0
 11
3212.154678208669
 21
2426.712525199592
 31
0.0
  0
TEXT
  5
2473A
330
2461D
100
AcDbEntity
  8
SUNPOU
100
AcDbText
 10
3058.433361428913
 20
898.6362762333937
 30
0.0
 40
90.0
  1
5-D13×5-D13
 41
0.6700000000000001
  7
01
 72
     4
 11
3401.856218571771
 21
943.6362762333939
 31
0.0
100
AcDbText
  0
TEXT
  5
2473B
330
2461D
100
AcDbEntity
  8
SUNPOU
100
AcDbText
 10
3798.668871767744
 20
2426.712525199591
 30
0.0
 40
90.0
  1
G.L
 41
0.6666666666666666
  7
00
 72
     4
 11
3870.097443196316
 21
2471.712525199591
 31
0.0
100
AcDbText
  0
LINE
  5
2473C
330
2461D
100
AcDbEntity
  8
SUNPOU
100
AcDbLine
 10
3922.058967423382
 20
2381.712525199589
 30
0.0
 11
3818.135918969249
 21
2381.712525199589
 31
0.0
  0
LINE
  5
2473D
330
2461D
100
AcDbEntity
  8
SUNPOU
100
AcDbLine
 10
3818.135918969249
 20
2381.712525199589
 30
0.0
 11
3870.097443196316
 21
2291.712525199589
 31
0.0
  0
LINE
  5
2473E
330
2461D
100
AcDbEntity
  8
U3
100
AcDbLine
 10
3838.577291880687
 20
2196.253109739406
 30
0.0
 11
3900.617876420503
 21
2134.212525199592
 31
0.0
  0
LINE
  5
2473F
330
2461D
100
AcDbEntity
  8
U3
100
AcDbLine
 10
4153.577291880679
 20
2291.712525199591
 30
0.0
 11
3461.536707340871
 21
2291.712525199589
 31
0.0
  0
LINE
  5
24740
330
2461D
100
AcDbEntity
  8
U3
100
AcDbLine
 10
3776.53670734087
 20
2134.212525199593
 30
0.0
 11
3934.036707340871
 21
2291.712525199589
 31
0.0
  0
LINE
  5
24741
330
2461D
100
AcDbEntity
  8
U3
100
AcDbLine
 10
3571.306999610777
 20
2243.982817469499
 30
0.0
 11
3681.077291880687
 21
2134.212525199589
 31
0.0
  0
LINE
  5
24742
330
2461D
100
AcDbEntity
  8
U3
100
AcDbLine
 10
3619.036707340871
 20
2291.712525199589
 30
0.0
 11
3776.53670734087
 21
2134.212525199593
 31
0.0
  0
LINE
  5
24743
330
2461D
100
AcDbEntity
  8
U3
100
AcDbLine
 10
3728.806999610777
 20
2181.942232929685
 30
0.0
 11
3838.577291880687
 21
2291.712525199589
 31
0.0
  0
LINE
  5
24744
330
2461D
100
AcDbEntity
  8
U3
100
AcDbLine
 10
3681.077291880687
 20
2229.671940659776
 30
0.0
 11
3743.1178764205
 21
2291.712525199589
 31
0.0
  0
LINE
  5
24745
330
2461D
100
AcDbEntity
  8
U3
100
AcDbLine
 10
4043.806999610772
 20
2181.942232929684
 30
0.0
 11
4153.577291880679
 21
2291.712525199591
 31
0.0
  0
LINE
  5
24746
330
2461D
100
AcDbEntity
  8
U3
100
AcDbLine
 10
3934.036707340871
 20
2291.712525199589
 30
0.0
 11
4091.536707340867
 21
2134.212525199594
 31
0.0
  0
LINE
  5
24747
330
2461D
100
AcDbEntity
  8
U3
100
AcDbLine
 10
3886.306999610777
 20
2243.982817469499
 30
0.0
 11
3996.077291880682
 21
2134.212525199589
 31
0.0
  0
LINE
  5
24748
330
2461D
100
AcDbEntity
  8
SUNPOU
100
AcDbLine
 10
3870.097443196316
 20
2291.712525199589
 30
0.0
 11
3922.058967423382
 21
2381.712525199589
 31
0.0
  0
LINE
  5
24749
330
2461D
100
AcDbEntity
  8
U3
100
AcDbLine
 10
3996.07729188068
 20
2229.671940659779
 30
0.0
 11
4058.117876420496
 21
2291.712525199589
 31
0.0
  0
LINE
  5
2474A
330
2461D
100
AcDbEntity
  8
KISO
100
AcDbLine
 10
874.0367073408688
 20
1436.712525199589
 30
0.0
 11
2224.036707340871
 21
1436.712525199591
 31
0.0
  0
LINE
  5
2474B
330
2461D
100
AcDbEntity
  8
KISO
100
AcDbLine
 10
874.0367073408705
 20
1436.712525199589
 30
0.0
 11
874.0367073408705
 21
1586.712525199586
 31
0.0
  0
LINE
  5
2474C
330
2461D
100
AcDbEntity
  8
KISO
100
AcDbLine
 10
2224.036707340868
 20
1436.712525199591
 30
0.0
 11
2224.036707340871
 21
1586.712525199589
 31
0.0
  0
LINE
  5
2474D
330
2461D
100
AcDbEntity
  8
KISO
100
AcDbLine
 10
874.0367073408688
 20
1586.712525199586
 30
0.0
 11
2224.036707340871
 21
1586.712525199589
 31
0.0
  0
LINE
  5
2474E
330
2461D
100
AcDbEntity
  8
SUNPOU
100
AcDbLine
 10
2145.340641334933
 20
7260.127478609078
 30
0.0
 11
2250.340641334933
 21
7260.127478609078
 31
0.0
  0
TEXT
  5
2474F
330
2461D
100
AcDbEntity
  8
SUNPOU
100
AcDbText
 10
1929.447784192075
 20
7206.556050037649
 30
0.0
 40
90.0
  1
A'
 50
0.0000000000000509
 41
0.6700000000000001
  7
00
 72
     4
 11
1965.340641334932
 21
7260.127478609078
 31
0.0
100
AcDbText
  0
LINE
  5
24750
330
2461D
100
AcDbEntity
  8
SUNPOU
100
AcDbLine
 10
2250.340641334933
 20
7260.127478609078
 30
0.0
 11
2250.340641334933
 21
7110.127478609077
 31
0.0
  0
LINE
  5
24751
330
2461D
100
AcDbEntity
  8
SUNPOU
100
AcDbLine
 10
2145.340641334934
 20
6140.127478609077
 30
0.0
 11
2250.340641334936
 21
6140.127478609077
 31
0.0
  0
TEXT
  5
24752
330
2461D
100
AcDbEntity
  8
SUNPOU
100
AcDbText
 10
1939.497784192081
 20
6095.127478609077
 30
0.0
 40
90.0
  1
A
 50
0.0000000000000509
 41
0.6700000000000001
  7
00
 72
     4
 11
1965.340641334938
 21
6140.127478609077
 31
0.0
100
AcDbText
  0
LINE
  5
24753
330
2461D
100
AcDbEntity
  8
SUNPOU
100
AcDbLine
 10
2250.340641334936
 20
6140.12747860908
 30
0.0
 11
2250.340641334936
 21
6290.127478609081
 31
0.0
  0
LINE
  5
24754
330
2461D
100
AcDbEntity
  8
SUNPOU
100
AcDbLine
 10
2145.340641334934
 20
6125.127478609077
 30
0.0
 11
2055.340641334938
 21
6140.127478609077
 31
0.0
  0
LINE
  5
24755
330
2461D
100
AcDbEntity
  8
SUNPOU
100
AcDbLine
 10
2055.340641334938
 20
6140.127478609077
 30
0.0
 11
2145.340641334934
 21
6155.127478609077
 31
0.0
  0
SOLID
  5
24756
330
2461D
100
AcDbEntity
  8
SUNPOU
100
AcDbTrace
 10
2145.340641334934
 20
6125.127478609077
 30
0.0
 11
2145.340641334934
 21
6155.127478609077
 31
0.0
 12
2055.340641334938
 22
6140.127478609077
 32
0.0
 13
2055.340641334938
 23
6140.127478609077
 33
0.0
  0
LINE
  5
24757
330
2461D
100
AcDbEntity
  8
SUNPOU
100
AcDbLine
 10
2145.340641334934
 20
6155.127478609077
 30
0.0
 11
2145.340641334934
 21
6125.127478609077
 31
0.0
  0
LINE
  5
24758
330
2461D
100
AcDbEntity
  8
SUNPOU
100
AcDbLine
 10
2145.340641334933
 20
7275.127478609078
 30
0.0
 11
2055.340641334933
 21
7260.127478609078
 31
0.0
  0
LINE
  5
24759
330
2461D
100
AcDbEntity
  8
SUNPOU
100
AcDbLine
 10
2055.340641334933
 20
7260.127478609078
 30
0.0
 11
2145.340641334933
 21
7245.127478609077
 31
0.0
  0
SOLID
  5
2475A
330
2461D
100
AcDbEntity
  8
SUNPOU
100
AcDbTrace
 10
2145.340641334933
 20
7275.127478609078
 30
0.0
 11
2145.340641334933
 21
7245.127478609077
 31
0.0
 12
2055.340641334933
 22
7260.127478609078
 32
0.0
 13
2055.340641334933
 23
7260.127478609078
 33
0.0
  0
LINE
  5
2475B
330
2461D
100
AcDbEntity
  8
SUNPOU
100
AcDbLine
 10
2145.340641334933
 20
7245.127478609077
 30
0.0
 11
2145.340641334933
 21
7275.127478609078
 31
0.0
  0
TEXT
  5
2475C
330
2461D
100
AcDbEntity
  8
FILENAME
100
AcDbText
 10
10422.92857142857
 20
130.4999999999999
 30
0.0
 40
75.0
  1
＜YOTC-350-SA_3_JIS_GL.DXF ＞
  7
FILENAME
 72
     2
 11
12286.5
 21
130.4999999999999
 31
0.0
100
AcDbText
  0
LINE
  5
2475D
330
2461D
100
AcDbEntity
  8
WAKUSEN-01
100
AcDbLine
 10
325.5000000000006
 20
310.4999999999997
 30
0.0
 11
12286.5
 21
310.4999999999997
 31
0.0
  0
LINE
  5
2475E
330
2461D
100
AcDbEntity
  8
WAKUSEN-01
100
AcDbLine
 10
325.5000000000006
 20
8431.500000000003
 30
0.0
 11
12286.5
 21
8431.500000000003
 31
0.0
  0
LINE
  5
2475F
330
2461D
100
AcDbEntity
  8
WAKUSEN-01
100
AcDbLine
 10
325.5000000000006
 20
310.4999999999997
 30
0.0
 11
325.5000000000006
 21
8431.500000000003
 31
0.0
  0
LINE
  5
24760
330
2461D
100
AcDbEntity
  8
WAKUSEN-01
100
AcDbLine
 10
12286.5
 20
310.4999999999997
 30
0.0
 11
12286.5
 21
8431.500000000003
 31
0.0
  0
LINE
  5
24761
330
2461D
100
AcDbEntity
  8
WAKUSEN-01
100
AcDbLine
 10
7710.0
 20
931.4999999999999
 30
0.0
 11
12286.5
 21
931.4999999999995
 31
0.0
  0
LINE
  5
24762
330
2461D
100
AcDbEntity
  8
WAKUSEN-02
100
AcDbLine
 10
7710.0
 20
620.9999999999999
 30
0.0
 11
10075.49999999999
 21
620.9999999999999
 31
0.0
  0
TEXT
  5
24763
330
2461D
100
AcDbEntity
  8
WAKUMOJI-01
100
AcDbText
 10
7751.347597486038
 20
797.2136285022457
 30
0.0
 40
90.0
  1
名　称
  7
WAKUMOJI
100
AcDbText
  0
TEXT
  5
24764
330
2461D
100
AcDbEntity
  8
WAKUMOJI-01
100
AcDbText
 10
7746.18955690947
 20
494.6733656174329
 30
0.0
 40
90.0
  1
機種名
  7
WAKUMOJI
100
AcDbText
  0
LINE
  5
24765
330
2461D
100
AcDbEntity
  8
WAKUSEN-01
100
AcDbLine
 10
7710.0
 20
310.4999999999989
 30
0.0
 11
7710.0
 21
931.4999999999999
 31
0.0
  0
LINE
  5
24766
330
2461D
100
AcDbEntity
  8
WAKUSEN-02
100
AcDbLine
 10
10075.49999999999
 20
310.4999999999973
 30
0.0
 11
10075.49999999999
 21
931.4999999999999
 31
0.0
  0
LINE
  5
24767
330
2461D
100
AcDbEntity
  8
YODOROGO
100
AcDbLine
 10
11241.60162798446
 20
748.4060611609828
 30
0.0
 11
11186.10162798447
 21
748.4060611609828
 31
0.0
1001
AUTOCAD_POSTSCRIPT_FIGURE
1002
{
1000
PSFILL
1000
Grayscale
1000
Grayscale
1070
    25
1002
}
  0
LINE
  5
24768
330
2461D
100
AcDbEntity
  8
YODOROGO
100
AcDbLine
 10
11186.10162798447
 20
730.4060611609828
 30
0.0
 11
11241.60162798446
 21
730.4060611609828
 31
0.0
1001
AUTOCAD_POSTSCRIPT_FIGURE
1002
{
1000
PSFILL
1000
Grayscale
1000
Grayscale
1070
    25
1002
}
  0
LINE
  5
24769
330
2461D
100
AcDbEntity
  8
YODOROGO
100
AcDbLine
 10
11241.60162798446
 20
715.4060611609828
 30
0.0
 11
11186.10162798447
 21
715.4060611609828
 31
0.0
1001
AUTOCAD_POSTSCRIPT_FIGURE
1002
{
1000
PSFILL
1000
Grayscale
1000
Grayscale
1070
    25
1002
}
  0
LINE
  5
2476A
330
2461D
100
AcDbEntity
  8
YODOROGO
100
AcDbLine
 10
11186.10162798447
 20
697.406061160983
 30
0.0
 11
11241.60162798446
 21
697.406061160983
 31
0.0
1001
AUTOCAD_POSTSCRIPT_FIGURE
1002
{
1000
PSFILL
1000
Grayscale
1000
Grayscale
1070
    25
1002
}
  0
LINE
  5
2476B
330
2461D
100
AcDbEntity
  8
YODOROGO
100
AcDbLine
 10
11241.60162798446
 20
682.4060611609829
 30
0.0
 11
11186.10162798447
 21
682.4060611609829
 31
0.0
1001
AUTOCAD_POSTSCRIPT_FIGURE
1002
{
1000
PSFILL
1000
Grayscale
1000
Grayscale
1070
    25
1002
}
  0
LINE
  5
2476C
330
2461D
100
AcDbEntity
  8
YODOROGO
100
AcDbLine
 10
11220.60162798447
 20
640.4060611609828
 30
0.0
 11
11241.60162798446
 21
640.4060611609828
 31
0.0
1001
AUTOCAD_POSTSCRIPT_FIGURE
1002
{
1000
PSFILL
1000
Grayscale
1000
Grayscale
1070
    25
1002
}
  0
LINE
  5
2476D
330
2461D
100
AcDbEntity
  8
YODOROGO
100
AcDbLine
 10
11151.60162798447
 20
535.4060611609829
 30
0.0
 11
11226.60162798446
 21
555.5022505933164
 31
0.0
  0
LINE
  5
2476E
330
2461D
100
AcDbEntity
  8
YODOROGO
100
AcDbLine
 10
11231.10162798446
 20
640.4060611609828
 30
0.0
 11
11207.10162798447
 21
640.4060611609828
 31
0.0
  0
ARC
  5
2476F
330
2461D
100
AcDbEntity
  8
YODOROGO
100
AcDbCircle
 10
11345.38040618545
 20
677.9492284624735
 30
0.0
 40
143.2075740771177
100
AcDbArc
 50
213.9611167766784
 51
264.4787207431779
  0
ARC
  5
24770
330
2461D
100
AcDbEntity
  8
YODOROGO
100
AcDbCircle
 10
11345.38040618547
 20
677.9492284624883
 30
0.0
 40
143.2075740771305
100
AcDbArc
 50
208.141144204866
 51
212.9210361185994
  0
LINE
  5
24771
330
2461D
100
AcDbEntity
  8
YODOROGO
100
AcDbLine
 10
11164.27870236948
 20
583.8028730048376
 30
0.0
 11
11225.1690496907
 21
600.1183923964076
 31
0.0
  0
LINE
  5
24772
330
2461D
100
AcDbEntity
  8
YODOROGO
100
AcDbLine
 10
11151.60162798447
 20
535.4060611609829
 30
0.0
 11
11226.60162798446
 21
555.5022505933164
 31
0.0
  0
LINE
  5
24773
330
2461D
100
AcDbEntity
  8
YODOROGO
100
AcDbLine
 10
11231.10162798446
 20
640.4060611609828
 30
0.0
 11
11207.10162798447
 21
640.4060611609828
 31
0.0
  0
ARC
  5
24774
330
2461D
100
AcDbEntity
  8
YODOROGO
100
AcDbCircle
 10
11345.38040618545
 20
677.9492284624735
 30
0.0
 40
143.2075740771177
100
AcDbArc
 50
213.9611167766784
 51
264.4787207431779
  0
LINE
  5
24775
330
2461D
100
AcDbEntity
  8
YODOROGO
100
AcDbLine
 10
10797.60162798446
 20
682.4060611609829
 30
0.0
 11
10662.60162798446
 21
682.4060611609829
 31
0.0
  0
LINE
  5
24776
330
2461D
100
AcDbEntity
  8
YODOROGO
100
AcDbLine
 10
10692.60162798446
 20
535.4060611609829
 30
0.0
 11
10797.60162798446
 21
535.4060611609829
 31
0.0
  0
LINE
  5
24777
330
2461D
100
AcDbEntity
  8
YODOROGO
100
AcDbLine
 10
10773.60162798447
 20
721.4060611609824
 30
0.0
 11
10686.60162798446
 21
721.4060611609824
 31
0.0
  0
LINE
  5
24778
330
2461D
100
AcDbEntity
  8
YODOROGO
100
AcDbLine
 10
10719.60162798446
 20
760.4060611609829
 30
0.0
 11
10746.60162798447
 21
760.4060611609829
 31
0.0
  0
LINE
  5
24779
330
2461D
100
AcDbEntity
  8
YODOROGO
100
AcDbLine
 10
10662.60162798446
 20
640.4060611609828
 30
0.0
 11
10662.60162798446
 21
565.4060611609828
 31
0.0
  0
LINE
  5
2477A
330
2461D
100
AcDbEntity
  8
YODOROGO
100
AcDbLine
 10
10686.60162798446
 20
586.4060611609825
 30
0.0
 11
10686.60162798446
 21
640.4060611609828
 31
0.0
  0
LINE
  5
2477B
330
2461D
100
AcDbEntity
  8
YODOROGO
100
AcDbLine
 10
10719.60162798446
 20
655.4060611609838
 30
0.0
 11
10719.60162798446
 21
580.406061160983
 31
0.0
  0
LINE
  5
2477C
330
2461D
100
AcDbEntity
  8
YODOROGO
100
AcDbLine
 10
10446.60162798447
 20
631.4060611609833
 30
0.0
 11
10416.60162798446
 21
607.4896552667143
 31
0.0
  0
LINE
  5
2477D
330
2461D
100
AcDbEntity
  8
YODOROGO
100
AcDbLine
 10
10476.60162798446
 20
607.4896552667143
 30
0.0
 11
10446.60162798447
 21
631.4060611609833
 31
0.0
  0
LINE
  5
2477E
330
2461D
100
AcDbEntity
  8
YODOROGO
100
AcDbLine
 10
10446.60162798447
 20
640.4060611609828
 30
0.0
 11
10476.60162798446
 21
616.4896552667137
 31
0.0
  0
LINE
  5
2477F
330
2461D
100
AcDbEntity
  8
YODOROGO
100
AcDbLine
 10
10416.60162798446
 20
616.4896552667137
 30
0.0
 11
10446.60162798447
 21
640.4060611609828
 31
0.0
  0
LINE
  5
24780
330
2461D
100
AcDbEntity
  8
YODOROGO
100
AcDbLine
 10
10515.34245150633
 20
622.406061160983
 30
0.0
 11
10515.34245150633
 21
631.4060611609825
 31
0.0
  0
LINE
  5
24781
330
2461D
100
AcDbEntity
  8
YODOROGO
100
AcDbLine
 10
10491.60162798447
 20
631.4060611609825
 30
0.0
 11
10491.60162798447
 21
625.4060611609819
 31
0.0
  0
LINE
  5
24782
330
2461D
100
AcDbEntity
  8
YODOROGO
100
AcDbLine
 10
10536.8008200866
 20
640.4060611609828
 30
0.0
 11
10536.8008200866
 21
620.813863977996
 31
0.0
1001
AUTOCAD_POSTSCRIPT_FIGURE
1002
{
1000
PSFILL
1000
Grayscale
1000
Grayscale
1070
   100
1002
}
  0
LINE
  5
24783
330
2461D
100
AcDbEntity
  8
YODOROGO
100
AcDbLine
 10
10530.80082008658
 20
620.813863977996
 30
0.0
 11
10530.80082008658
 21
640.4060611609828
 31
0.0
1001
AUTOCAD_POSTSCRIPT_FIGURE
1002
{
1000
PSFILL
1000
Grayscale
1000
Grayscale
1070
   100
1002
}
  0
LINE
  5
24784
330
2461D
100
AcDbEntity
  8
YODOROGO
100
AcDbLine
 10
10428.60162798447
 20
603.2894640162218
 30
0.0
 11
10428.60162798447
 21
612.2894640162221
 31
0.0
  0
LINE
  5
24785
330
2461D
100
AcDbEntity
  8
YODOROGO
100
AcDbLine
 10
10464.60162798447
 20
603.2894640162218
 30
0.0
 11
10428.60162798447
 21
603.2894640162218
 31
0.0
  0
LINE
  5
24786
330
2461D
100
AcDbEntity
  8
YODOROGO
100
AcDbLine
 10
10464.60162798447
 20
612.2894640162221
 30
0.0
 11
10464.60162798447
 21
603.2894640162218
 31
0.0
  0
LINE
  5
24787
330
2461D
100
AcDbEntity
  8
YODOROGO
100
AcDbLine
 10
10428.60162798447
 20
612.2894640162221
 30
0.0
 11
10464.60162798447
 21
612.2894640162221
 31
0.0
  0
LINE
  5
24788
330
2461D
100
AcDbEntity
  8
YODOROGO
100
AcDbLine
 10
10434.1910958434
 20
588.1885715139279
 30
0.0
 11
10419.60162798446
 21
553.4060611609827
 31
0.0
1001
AUTOCAD_POSTSCRIPT_FIGURE
1002
{
1000
PSFILL
1000
Grayscale
1000
Grayscale
1070
   100
1002
}
  0
LINE
  5
24789
330
2461D
100
AcDbEntity
  8
YODOROGO
100
AcDbLine
 10
10416.60162798446
 20
588.1885715139279
 30
0.0
 11
10434.1910958434
 21
588.1885715139279
 31
0.0
1001
AUTOCAD_POSTSCRIPT_FIGURE
1002
{
1000
PSFILL
1000
Grayscale
1000
Grayscale
1070
   100
1002
}
  0
LINE
  5
2478A
330
2461D
100
AcDbEntity
  8
YODOROGO
100
AcDbLine
 10
10416.60162798446
 20
595.688571513928
 30
0.0
 11
10416.60162798446
 21
588.1885715139279
 31
0.0
1001
AUTOCAD_POSTSCRIPT_FIGURE
1002
{
1000
PSFILL
1000
Grayscale
1000
Grayscale
1070
   100
1002
}
  0
LINE
  5
2478B
330
2461D
100
AcDbEntity
  8
YODOROGO
100
AcDbLine
 10
10476.60162798446
 20
595.688571513928
 30
0.0
 11
10416.60162798446
 21
595.688571513928
 31
0.0
1001
AUTOCAD_POSTSCRIPT_FIGURE
1002
{
1000
PSFILL
1000
Grayscale
1000
Grayscale
1070
   100
1002
}
  0
LINE
  5
2478C
330
2461D
100
AcDbEntity
  8
YODOROGO
100
AcDbLine
 10
10476.60162798446
 20
588.1885715139279
 30
0.0
 11
10476.60162798446
 21
595.688571513928
 31
0.0
1001
AUTOCAD_POSTSCRIPT_FIGURE
1002
{
1000
PSFILL
1000
Grayscale
1000
Grayscale
1070
   100
1002
}
  0
LINE
  5
2478D
330
2461D
100
AcDbEntity
  8
YODOROGO
100
AcDbLine
 10
10441.69109584339
 20
588.1885715139279
 30
0.0
 11
10476.60162798446
 21
588.1885715139279
 31
0.0
1001
AUTOCAD_POSTSCRIPT_FIGURE
1002
{
1000
PSFILL
1000
Grayscale
1000
Grayscale
1070
   100
1002
}
  0
LINE
  5
2478E
330
2461D
100
AcDbEntity
  8
YODOROGO
100
AcDbLine
 10
10430.83001935679
 20
560.9060611609827
 30
0.0
 11
10441.69109584339
 21
588.1885715139279
 31
0.0
1001
AUTOCAD_POSTSCRIPT_FIGURE
1002
{
1000
PSFILL
1000
Grayscale
1000
Grayscale
1070
   100
1002
}
  0
LINE
  5
2478F
330
2461D
100
AcDbEntity
  8
YODOROGO
100
AcDbLine
 10
10463.27054655324
 20
560.9060611609827
 30
0.0
 11
10430.83001935679
 21
560.9060611609827
 31
0.0
1001
AUTOCAD_POSTSCRIPT_FIGURE
1002
{
1000
PSFILL
1000
Grayscale
1000
Grayscale
1070
   100
1002
}
  0
LINE
  5
24790
330
2461D
100
AcDbEntity
  8
YODOROGO
100
AcDbLine
 10
10456.8993767966
 20
576.0876790116348
 30
0.0
 11
10463.27054655324
 21
560.9060611609827
 31
0.0
1001
AUTOCAD_POSTSCRIPT_FIGURE
1002
{
1000
PSFILL
1000
Grayscale
1000
Grayscale
1070
   100
1002
}
  0
LINE
  5
24791
330
2461D
100
AcDbEntity
  8
YODOROGO
100
AcDbLine
 10
10462.8993767966
 20
576.0876790116348
 30
0.0
 11
10456.8993767966
 21
576.0876790116348
 31
0.0
1001
AUTOCAD_POSTSCRIPT_FIGURE
1002
{
1000
PSFILL
1000
Grayscale
1000
Grayscale
1070
   100
1002
}
  0
LINE
  5
24792
330
2461D
100
AcDbEntity
  8
YODOROGO
100
AcDbLine
 10
10473.60162798447
 20
553.4060611609827
 30
0.0
 11
10462.8993767966
 21
576.0876790116348
 31
0.0
1001
AUTOCAD_POSTSCRIPT_FIGURE
1002
{
1000
PSFILL
1000
Grayscale
1000
Grayscale
1070
   100
1002
}
  0
LINE
  5
24793
330
2461D
100
AcDbEntity
  8
YODOROGO
100
AcDbLine
 10
10419.60162798446
 20
553.4060611609827
 30
0.0
 11
10473.60162798447
 21
553.4060611609827
 31
0.0
1001
AUTOCAD_POSTSCRIPT_FIGURE
1002
{
1000
PSFILL
1000
Grayscale
1000
Grayscale
1070
   100
1002
}
  0
LINE
  5
24794
330
2461D
100
AcDbEntity
  8
YODOROGO
100
AcDbLine
 10
10416.60162798446
 20
607.4896552667143
 30
0.0
 11
10416.60162798446
 21
616.4896552667137
 31
0.0
  0
LINE
  5
24795
330
2461D
100
AcDbEntity
  8
YODOROGO
100
AcDbLine
 10
10476.60162798446
 20
616.4896552667137
 30
0.0
 11
10476.60162798446
 21
607.4896552667143
 31
0.0
  0
ARC
  5
24796
330
2461D
100
AcDbEntity
  8
YODOROGO
100
AcDbCircle
 10
10584.72766580511
 20
600.3291619969972
 30
0.0
 40
65.99999999999997
100
AcDbArc
 50
280.3644312771313
 51
3.541483659218056
  0
ARC
  5
24797
330
2461D
100
AcDbEntity
  8
YODOROGO
100
AcDbCircle
 10
10588.40851153474
 20
612.5991776107142
 30
0.0
 40
41.99999999999936
100
AcDbArc
 50
281.2490582504155
 51
348.7509417495832
  0
LINE
  5
24798
330
2461D
100
AcDbEntity
  8
YODOROGO
100
AcDbLine
 10
10596.60162798446
 20
571.4060611609824
 30
0.0
 11
10596.60162798446
 21
535.4060611609829
 31
0.0
  0
LINE
  5
24799
330
2461D
100
AcDbEntity
  8
YODOROGO
100
AcDbLine
 10
10507.53333890132
 20
603.9939618982182
 30
0.0
 11
10515.34245150633
 21
622.406061160983
 31
0.0
  0
LINE
  5
2479A
330
2461D
100
AcDbEntity
  8
YODOROGO
100
AcDbLine
 10
10515.60162798446
 20
593.6701837306505
 30
0.0
 11
10507.53333890132
 21
603.9939618982182
 31
0.0
  0
LINE
  5
2479B
330
2461D
100
AcDbEntity
  8
YODOROGO
100
AcDbLine
 10
10515.60162798446
 20
586.1701837306497
 30
0.0
 11
10515.60162798446
 21
593.6701837306505
 31
0.0
  0
LINE
  5
2479C
330
2461D
100
AcDbEntity
  8
YODOROGO
100
AcDbLine
 10
10506.60162798447
 20
594.4638989060739
 30
0.0
 11
10515.60162798446
 21
586.1701837306497
 31
0.0
  0
LINE
  5
2479D
330
2461D
100
AcDbEntity
  8
YODOROGO
100
AcDbLine
 10
10506.60162798447
 20
553.4060611609827
 30
0.0
 11
10506.60162798447
 21
594.4638989060739
 31
0.0
  0
LINE
  5
2479E
330
2461D
100
AcDbEntity
  8
YODOROGO
100
AcDbLine
 10
10500.60162798446
 20
553.4060611609827
 30
0.0
 11
10506.60162798447
 21
553.4060611609827
 31
0.0
  0
LINE
  5
2479F
330
2461D
100
AcDbEntity
  8
YODOROGO
100
AcDbLine
 10
10500.60162798446
 20
592.5020061336555
 30
0.0
 11
10500.60162798446
 21
553.4060611609827
 31
0.0
  0
LINE
  5
247A0
330
2461D
100
AcDbEntity
  8
YODOROGO
100
AcDbLine
 10
10491.60162798447
 20
574.7880296375358
 30
0.0
 11
10500.60162798446
 21
592.5020061336555
 31
0.0
  0
LINE
  5
247A1
330
2461D
100
AcDbEntity
  8
YODOROGO
100
AcDbLine
 10
10491.60162798447
 20
583.788029637536
 30
0.0
 11
10491.60162798447
 21
574.7880296375358
 31
0.0
  0
LINE
  5
247A2
330
2461D
100
AcDbEntity
  8
YODOROGO
100
AcDbLine
 10
10509.68579035926
 20
625.4060611609819
 30
0.0
 11
10491.60162798447
 21
583.788029637536
 31
0.0
  0
LINE
  5
247A3
330
2461D
100
AcDbEntity
  8
YODOROGO
100
AcDbLine
 10
10491.60162798447
 20
625.4060611609819
 30
0.0
 11
10509.68579035926
 21
625.4060611609819
 31
0.0
  0
LINE
  5
247A4
330
2461D
100
AcDbEntity
  8
YODOROGO
100
AcDbLine
 10
10518.80082008659
 20
620.813863977996
 30
0.0
 11
10530.80082008658
 21
620.813863977996
 31
0.0
1001
AUTOCAD_POSTSCRIPT_FIGURE
1002
{
1000
PSFILL
1000
Grayscale
1000
Grayscale
1070
   100
1002
}
  0
LINE
  5
247A5
330
2461D
100
AcDbEntity
  8
YODOROGO
100
AcDbLine
 10
10518.80082008659
 20
611.8138639779965
 30
0.0
 11
10518.80082008659
 21
620.813863977996
 31
0.0
1001
AUTOCAD_POSTSCRIPT_FIGURE
1002
{
1000
PSFILL
1000
Grayscale
1000
Grayscale
1070
   100
1002
}
  0
LINE
  5
247A6
330
2461D
100
AcDbEntity
  8
YODOROGO
100
AcDbLine
 10
10530.80082008658
 20
611.8138639779965
 30
0.0
 11
10518.80082008659
 21
611.8138639779965
 31
0.0
1001
AUTOCAD_POSTSCRIPT_FIGURE
1002
{
1000
PSFILL
1000
Grayscale
1000
Grayscale
1070
   100
1002
}
  0
LINE
  5
247A7
330
2461D
100
AcDbEntity
  8
YODOROGO
100
AcDbLine
 10
10530.80082008658
 20
562.4060611609831
 30
0.0
 11
10530.80082008658
 21
611.8138639779965
 31
0.0
1001
AUTOCAD_POSTSCRIPT_FIGURE
1002
{
1000
PSFILL
1000
Grayscale
1000
Grayscale
1070
   100
1002
}
  0
LINE
  5
247A8
330
2461D
100
AcDbEntity
  8
YODOROGO
100
AcDbLine
 10
10518.8008200866
 20
562.4060611609831
 30
0.0
 11
10530.80082008658
 21
562.4060611609831
 31
0.0
1001
AUTOCAD_POSTSCRIPT_FIGURE
1002
{
1000
PSFILL
1000
Grayscale
1000
Grayscale
1070
   100
1002
}
  0
LINE
  5
247A9
330
2461D
100
AcDbEntity
  8
YODOROGO
100
AcDbLine
 10
10518.8008200866
 20
553.4060611609827
 30
0.0
 11
10518.8008200866
 21
562.4060611609831
 31
0.0
1001
AUTOCAD_POSTSCRIPT_FIGURE
1002
{
1000
PSFILL
1000
Grayscale
1000
Grayscale
1070
   100
1002
}
  0
LINE
  5
247AA
330
2461D
100
AcDbEntity
  8
YODOROGO
100
AcDbLine
 10
10551.60162798447
 20
553.4060611609827
 30
0.0
 11
10518.8008200866
 21
553.4060611609827
 31
0.0
1001
AUTOCAD_POSTSCRIPT_FIGURE
1002
{
1000
PSFILL
1000
Grayscale
1000
Grayscale
1070
   100
1002
}
  0
LINE
  5
247AB
330
2461D
100
AcDbEntity
  8
YODOROGO
100
AcDbLine
 10
10551.60162798447
 20
562.4060611609831
 30
0.0
 11
10551.60162798447
 21
553.4060611609827
 31
0.0
1001
AUTOCAD_POSTSCRIPT_FIGURE
1002
{
1000
PSFILL
1000
Grayscale
1000
Grayscale
1070
   100
1002
}
  0
LINE
  5
247AC
330
2461D
100
AcDbEntity
  8
YODOROGO
100
AcDbLine
 10
10536.8008200866
 20
562.4060611609831
 30
0.0
 11
10551.60162798447
 21
562.4060611609831
 31
0.0
1001
AUTOCAD_POSTSCRIPT_FIGURE
1002
{
1000
PSFILL
1000
Grayscale
1000
Grayscale
1070
   100
1002
}
  0
LINE
  5
247AD
330
2461D
100
AcDbEntity
  8
YODOROGO
100
AcDbLine
 10
10536.8008200866
 20
611.8138639779965
 30
0.0
 11
10536.8008200866
 21
562.4060611609831
 31
0.0
1001
AUTOCAD_POSTSCRIPT_FIGURE
1002
{
1000
PSFILL
1000
Grayscale
1000
Grayscale
1070
   100
1002
}
  0
LINE
  5
247AE
330
2461D
100
AcDbEntity
  8
YODOROGO
100
AcDbLine
 10
10551.60162798447
 20
611.8138639779965
 30
0.0
 11
10536.8008200866
 21
611.8138639779965
 31
0.0
1001
AUTOCAD_POSTSCRIPT_FIGURE
1002
{
1000
PSFILL
1000
Grayscale
1000
Grayscale
1070
   100
1002
}
  0
LINE
  5
247AF
330
2461D
100
AcDbEntity
  8
YODOROGO
100
AcDbLine
 10
10551.60162798447
 20
620.813863977996
 30
0.0
 11
10551.60162798447
 21
611.8138639779965
 31
0.0
1001
AUTOCAD_POSTSCRIPT_FIGURE
1002
{
1000
PSFILL
1000
Grayscale
1000
Grayscale
1070
   100
1002
}
  0
LINE
  5
247B0
330
2461D
100
AcDbEntity
  8
YODOROGO
100
AcDbLine
 10
10536.8008200866
 20
620.813863977996
 30
0.0
 11
10551.60162798447
 21
620.813863977996
 31
0.0
1001
AUTOCAD_POSTSCRIPT_FIGURE
1002
{
1000
PSFILL
1000
Grayscale
1000
Grayscale
1070
   100
1002
}
  0
LINE
  5
247B1
330
2461D
100
AcDbEntity
  8
YODOROGO
100
AcDbLine
 10
10650.60162798447
 20
625.406061160983
 30
0.0
 11
10629.60162798447
 21
625.406061160983
 31
0.0
  0
LINE
  5
247B2
330
2461D
100
AcDbEntity
  8
YODOROGO
100
AcDbLine
 10
10650.60162798447
 20
604.4060611609832
 30
0.0
 11
10650.60162798447
 21
625.406061160983
 31
0.0
  0
LINE
  5
247B3
330
2461D
100
AcDbEntity
  8
YODOROGO
100
AcDbLine
 10
10629.60162798447
 20
625.406061160983
 30
0.0
 11
10629.60162798447
 21
604.4060611609832
 31
0.0
  0
ARC
  5
247B4
330
2461D
100
AcDbEntity
  8
YODOROGO
100
AcDbCircle
 10
10692.60162798446
 20
565.4060611609828
 30
0.0
 40
30.0
100
AcDbArc
 50
180.0
 51
270.0
  0
ARC
  5
247B5
330
2461D
100
AcDbEntity
  8
YODOROGO
100
AcDbCircle
 10
10701.60162798446
 20
586.4060611609825
 30
0.0
 40
15.0
100
AcDbArc
 50
180.0
 51
270.0
  0
LINE
  5
247B6
330
2461D
100
AcDbEntity
  8
YODOROGO
100
AcDbLine
 10
10710.60162798447
 20
571.4060611609824
 30
0.0
 11
10701.60162798446
 21
571.4060611609824
 31
0.0
  0
ARC
  5
247B7
330
2461D
100
AcDbEntity
  8
YODOROGO
100
AcDbCircle
 10
10710.60162798447
 20
580.4060611609819
 30
0.0
 40
8.999999999998637
100
AcDbArc
 50
270.0
 51
0.0000000000054281
  0
LINE
  5
247B8
330
2461D
100
AcDbEntity
  8
YODOROGO
100
AcDbLine
 10
10425.60162798447
 20
709.0449677976399
 30
0.0
 11
10416.60162798446
 21
691.4162804818772
 31
0.0
1001
AUTOCAD_POSTSCRIPT_FIGURE
1002
{
1000
PSFILL
1000
Grayscale
1000
Grayscale
1070
   100
1002
}
  0
LINE
  5
247B9
330
2461D
100
AcDbEntity
  8
YODOROGO
100
AcDbLine
 10
10425.60162798447
 20
655.406061160983
 30
0.0
 11
10425.60162798447
 21
709.0449677976399
 31
0.0
1001
AUTOCAD_POSTSCRIPT_FIGURE
1002
{
1000
PSFILL
1000
Grayscale
1000
Grayscale
1070
   100
1002
}
  0
LINE
  5
247BA
330
2461D
100
AcDbEntity
  8
YODOROGO
100
AcDbLine
 10
10431.60162798447
 20
655.406061160983
 30
0.0
 11
10425.60162798447
 21
655.406061160983
 31
0.0
1001
AUTOCAD_POSTSCRIPT_FIGURE
1002
{
1000
PSFILL
1000
Grayscale
1000
Grayscale
1070
   100
1002
}
  0
LINE
  5
247BB
330
2461D
100
AcDbEntity
  8
YODOROGO
100
AcDbLine
 10
10431.60162798447
 20
710.1642495319751
 30
0.0
 11
10431.60162798447
 21
655.406061160983
 31
0.0
1001
AUTOCAD_POSTSCRIPT_FIGURE
1002
{
1000
PSFILL
1000
Grayscale
1000
Grayscale
1070
   100
1002
}
  0
LINE
  5
247BC
330
2461D
100
AcDbEntity
  8
YODOROGO
100
AcDbLine
 10
10440.60162798446
 20
700.3705343565512
 30
0.0
 11
10431.60162798447
 21
710.1642495319751
 31
0.0
1001
AUTOCAD_POSTSCRIPT_FIGURE
1002
{
1000
PSFILL
1000
Grayscale
1000
Grayscale
1070
   100
1002
}
  0
LINE
  5
247BD
330
2461D
100
AcDbEntity
  8
YODOROGO
100
AcDbLine
 10
10440.60162798446
 20
706.3705343565509
 30
0.0
 11
10440.60162798446
 21
700.3705343565512
 31
0.0
1001
AUTOCAD_POSTSCRIPT_FIGURE
1002
{
1000
PSFILL
1000
Grayscale
1000
Grayscale
1070
   100
1002
}
  0
LINE
  5
247BE
330
2461D
100
AcDbEntity
  8
YODOROGO
100
AcDbLine
 10
10431.60162798447
 20
719.1642495319745
 30
0.0
 11
10440.60162798446
 21
706.3705343565509
 31
0.0
1001
AUTOCAD_POSTSCRIPT_FIGURE
1002
{
1000
PSFILL
1000
Grayscale
1000
Grayscale
1070
   100
1002
}
  0
LINE
  5
247BF
330
2461D
100
AcDbEntity
  8
YODOROGO
100
AcDbLine
 10
10431.60162798447
 20
727.4060611609828
 30
0.0
 11
10431.60162798447
 21
719.1642495319745
 31
0.0
1001
AUTOCAD_POSTSCRIPT_FIGURE
1002
{
1000
PSFILL
1000
Grayscale
1000
Grayscale
1070
   100
1002
}
  0
LINE
  5
247C0
330
2461D
100
AcDbEntity
  8
YODOROGO
100
AcDbLine
 10
10458.60162798446
 20
727.4060611609828
 30
0.0
 11
10431.60162798447
 21
727.4060611609828
 31
0.0
1001
AUTOCAD_POSTSCRIPT_FIGURE
1002
{
1000
PSFILL
1000
Grayscale
1000
Grayscale
1070
   100
1002
}
  0
LINE
  5
247C1
330
2461D
100
AcDbEntity
  8
YODOROGO
100
AcDbLine
 10
10458.60162798446
 20
712.7131308511124
 30
0.0
 11
10458.60162798446
 21
727.4060611609828
 31
0.0
1001
AUTOCAD_POSTSCRIPT_FIGURE
1002
{
1000
PSFILL
1000
Grayscale
1000
Grayscale
1070
   100
1002
}
  0
LINE
  5
247C2
330
2461D
100
AcDbEntity
  8
YODOROGO
100
AcDbLine
 10
10446.60162798447
 20
712.7131308511124
 30
0.0
 11
10458.60162798446
 21
712.7131308511124
 31
0.0
1001
AUTOCAD_POSTSCRIPT_FIGURE
1002
{
1000
PSFILL
1000
Grayscale
1000
Grayscale
1070
   100
1002
}
  0
LINE
  5
247C3
330
2461D
100
AcDbEntity
  8
YODOROGO
100
AcDbLine
 10
10446.60162798447
 20
706.7131308511119
 30
0.0
 11
10446.60162798447
 21
712.7131308511124
 31
0.0
1001
AUTOCAD_POSTSCRIPT_FIGURE
1002
{
1000
PSFILL
1000
Grayscale
1000
Grayscale
1070
   100
1002
}
  0
LINE
  5
247C4
330
2461D
100
AcDbEntity
  8
YODOROGO
100
AcDbLine
 10
10458.60162798446
 20
706.7131308511119
 30
0.0
 11
10446.60162798447
 21
706.7131308511119
 31
0.0
1001
AUTOCAD_POSTSCRIPT_FIGURE
1002
{
1000
PSFILL
1000
Grayscale
1000
Grayscale
1070
   100
1002
}
  0
LINE
  5
247C5
330
2461D
100
AcDbEntity
  8
YODOROGO
100
AcDbLine
 10
10458.60162798446
 20
704.8571917366647
 30
0.0
 11
10458.60162798446
 21
706.7131308511119
 31
0.0
1001
AUTOCAD_POSTSCRIPT_FIGURE
1002
{
1000
PSFILL
1000
Grayscale
1000
Grayscale
1070
   100
1002
}
  0
LINE
  5
247C6
330
2461D
100
AcDbEntity
  8
YODOROGO
100
AcDbLine
 10
10443.60162798447
 20
679.8656179355313
 30
0.0
 11
10458.60162798446
 21
704.8571917366647
 31
0.0
1001
AUTOCAD_POSTSCRIPT_FIGURE
1002
{
1000
PSFILL
1000
Grayscale
1000
Grayscale
1070
   100
1002
}
  0
LINE
  5
247C7
330
2461D
100
AcDbEntity
  8
YODOROGO
100
AcDbLine
 10
10443.60162798447
 20
673.8656179355309
 30
0.0
 11
10443.60162798447
 21
679.8656179355313
 31
0.0
1001
AUTOCAD_POSTSCRIPT_FIGURE
1002
{
1000
PSFILL
1000
Grayscale
1000
Grayscale
1070
   100
1002
}
  0
LINE
  5
247C8
330
2461D
100
AcDbEntity
  8
YODOROGO
100
AcDbLine
 10
10458.60162798446
 20
692.8571917366638
 30
0.0
 11
10443.60162798447
 21
673.8656179355309
 31
0.0
1001
AUTOCAD_POSTSCRIPT_FIGURE
1002
{
1000
PSFILL
1000
Grayscale
1000
Grayscale
1070
   100
1002
}
  0
LINE
  5
247C9
330
2461D
100
AcDbEntity
  8
YODOROGO
100
AcDbLine
 10
10458.60162798446
 20
655.406061160983
 30
0.0
 11
10458.60162798446
 21
692.8571917366638
 31
0.0
1001
AUTOCAD_POSTSCRIPT_FIGURE
1002
{
1000
PSFILL
1000
Grayscale
1000
Grayscale
1070
   100
1002
}
  0
LINE
  5
247CA
330
2461D
100
AcDbEntity
  8
YODOROGO
100
AcDbLine
 10
10464.60162798447
 20
655.406061160983
 30
0.0
 11
10458.60162798446
 21
655.406061160983
 31
0.0
1001
AUTOCAD_POSTSCRIPT_FIGURE
1002
{
1000
PSFILL
1000
Grayscale
1000
Grayscale
1070
   100
1002
}
  0
LINE
  5
247CB
330
2461D
100
AcDbEntity
  8
YODOROGO
100
AcDbLine
 10
10464.60162798447
 20
693.5283795595521
 30
0.0
 11
10464.60162798447
 21
655.406061160983
 31
0.0
1001
AUTOCAD_POSTSCRIPT_FIGURE
1002
{
1000
PSFILL
1000
Grayscale
1000
Grayscale
1070
   100
1002
}
  0
LINE
  5
247CC
330
2461D
100
AcDbEntity
  8
YODOROGO
100
AcDbLine
 10
10476.60162798446
 20
673.8656179355309
 30
0.0
 11
10464.60162798447
 21
693.5283795595521
 31
0.0
1001
AUTOCAD_POSTSCRIPT_FIGURE
1002
{
1000
PSFILL
1000
Grayscale
1000
Grayscale
1070
   100
1002
}
  0
LINE
  5
247CD
330
2461D
100
AcDbEntity
  8
YODOROGO
100
AcDbLine
 10
10476.60162798446
 20
679.8656179355313
 30
0.0
 11
10476.60162798446
 21
673.8656179355309
 31
0.0
1001
AUTOCAD_POSTSCRIPT_FIGURE
1002
{
1000
PSFILL
1000
Grayscale
1000
Grayscale
1070
   100
1002
}
  0
LINE
  5
247CE
330
2461D
100
AcDbEntity
  8
YODOROGO
100
AcDbLine
 10
10464.60162798447
 20
705.5283795595531
 30
0.0
 11
10476.60162798446
 21
679.8656179355313
 31
0.0
1001
AUTOCAD_POSTSCRIPT_FIGURE
1002
{
1000
PSFILL
1000
Grayscale
1000
Grayscale
1070
   100
1002
}
  0
LINE
  5
247CF
330
2461D
100
AcDbEntity
  8
YODOROGO
100
AcDbLine
 10
10464.60162798447
 20
706.7131308511128
 30
0.0
 11
10464.60162798447
 21
705.5283795595531
 31
0.0
1001
AUTOCAD_POSTSCRIPT_FIGURE
1002
{
1000
PSFILL
1000
Grayscale
1000
Grayscale
1070
   100
1002
}
  0
LINE
  5
247D0
330
2461D
100
AcDbEntity
  8
YODOROGO
100
AcDbLine
 10
10476.60162798446
 20
706.7131308511119
 30
0.0
 11
10464.60162798447
 21
706.7131308511128
 31
0.0
1001
AUTOCAD_POSTSCRIPT_FIGURE
1002
{
1000
PSFILL
1000
Grayscale
1000
Grayscale
1070
   100
1002
}
  0
LINE
  5
247D1
330
2461D
100
AcDbEntity
  8
YODOROGO
100
AcDbLine
 10
10476.60162798446
 20
712.7131308511124
 30
0.0
 11
10476.60162798446
 21
706.7131308511119
 31
0.0
1001
AUTOCAD_POSTSCRIPT_FIGURE
1002
{
1000
PSFILL
1000
Grayscale
1000
Grayscale
1070
   100
1002
}
  0
LINE
  5
247D2
330
2461D
100
AcDbEntity
  8
YODOROGO
100
AcDbLine
 10
10464.60162798447
 20
712.7131308511124
 30
0.0
 11
10476.60162798446
 21
712.7131308511124
 31
0.0
1001
AUTOCAD_POSTSCRIPT_FIGURE
1002
{
1000
PSFILL
1000
Grayscale
1000
Grayscale
1070
   100
1002
}
  0
LINE
  5
247D3
330
2461D
100
AcDbEntity
  8
YODOROGO
100
AcDbLine
 10
10464.60162798447
 20
727.4060611609828
 30
0.0
 11
10464.60162798447
 21
712.7131308511124
 31
0.0
1001
AUTOCAD_POSTSCRIPT_FIGURE
1002
{
1000
PSFILL
1000
Grayscale
1000
Grayscale
1070
   100
1002
}
  0
LINE
  5
247D4
330
2461D
100
AcDbEntity
  8
YODOROGO
100
AcDbLine
 10
10476.60162798446
 20
727.4060611609828
 30
0.0
 11
10464.60162798447
 21
727.4060611609828
 31
0.0
1001
AUTOCAD_POSTSCRIPT_FIGURE
1002
{
1000
PSFILL
1000
Grayscale
1000
Grayscale
1070
   100
1002
}
  0
LINE
  5
247D5
330
2461D
100
AcDbEntity
  8
YODOROGO
100
AcDbLine
 10
10476.60162798446
 20
733.4060611609828
 30
0.0
 11
10476.60162798446
 21
727.4060611609828
 31
0.0
1001
AUTOCAD_POSTSCRIPT_FIGURE
1002
{
1000
PSFILL
1000
Grayscale
1000
Grayscale
1070
   100
1002
}
  0
LINE
  5
247D6
330
2461D
100
AcDbEntity
  8
YODOROGO
100
AcDbLine
 10
10464.60162798447
 20
733.4060611609828
 30
0.0
 11
10476.60162798446
 21
733.4060611609828
 31
0.0
1001
AUTOCAD_POSTSCRIPT_FIGURE
1002
{
1000
PSFILL
1000
Grayscale
1000
Grayscale
1070
   100
1002
}
  0
LINE
  5
247D7
330
2461D
100
AcDbEntity
  8
YODOROGO
100
AcDbLine
 10
10464.60162798447
 20
742.4060611609832
 30
0.0
 11
10464.60162798447
 21
733.4060611609828
 31
0.0
1001
AUTOCAD_POSTSCRIPT_FIGURE
1002
{
1000
PSFILL
1000
Grayscale
1000
Grayscale
1070
   100
1002
}
  0
LINE
  5
247D8
330
2461D
100
AcDbEntity
  8
YODOROGO
100
AcDbLine
 10
10458.60162798446
 20
742.4060611609832
 30
0.0
 11
10464.60162798447
 21
742.4060611609832
 31
0.0
1001
AUTOCAD_POSTSCRIPT_FIGURE
1002
{
1000
PSFILL
1000
Grayscale
1000
Grayscale
1070
   100
1002
}
  0
LINE
  5
247D9
330
2461D
100
AcDbEntity
  8
YODOROGO
100
AcDbLine
 10
10458.60162798446
 20
733.4060611609828
 30
0.0
 11
10458.60162798446
 21
742.4060611609832
 31
0.0
1001
AUTOCAD_POSTSCRIPT_FIGURE
1002
{
1000
PSFILL
1000
Grayscale
1000
Grayscale
1070
   100
1002
}
  0
LINE
  5
247DA
330
2461D
100
AcDbEntity
  8
YODOROGO
100
AcDbLine
 10
10449.60162798447
 20
733.4060611609828
 30
0.0
 11
10458.60162798446
 21
733.4060611609828
 31
0.0
1001
AUTOCAD_POSTSCRIPT_FIGURE
1002
{
1000
PSFILL
1000
Grayscale
1000
Grayscale
1070
   100
1002
}
  0
LINE
  5
247DB
330
2461D
100
AcDbEntity
  8
YODOROGO
100
AcDbLine
 10
10449.60162798447
 20
742.4060611609832
 30
0.0
 11
10449.60162798447
 21
733.4060611609828
 31
0.0
1001
AUTOCAD_POSTSCRIPT_FIGURE
1002
{
1000
PSFILL
1000
Grayscale
1000
Grayscale
1070
   100
1002
}
  0
LINE
  5
247DC
330
2461D
100
AcDbEntity
  8
YODOROGO
100
AcDbLine
 10
10443.60162798447
 20
742.4060611609832
 30
0.0
 11
10449.60162798447
 21
742.4060611609832
 31
0.0
1001
AUTOCAD_POSTSCRIPT_FIGURE
1002
{
1000
PSFILL
1000
Grayscale
1000
Grayscale
1070
   100
1002
}
  0
LINE
  5
247DD
330
2461D
100
AcDbEntity
  8
YODOROGO
100
AcDbLine
 10
10443.60162798447
 20
733.4060611609828
 30
0.0
 11
10443.60162798447
 21
742.4060611609832
 31
0.0
1001
AUTOCAD_POSTSCRIPT_FIGURE
1002
{
1000
PSFILL
1000
Grayscale
1000
Grayscale
1070
   100
1002
}
  0
LINE
  5
247DE
330
2461D
100
AcDbEntity
  8
YODOROGO
100
AcDbLine
 10
10431.60162798447
 20
733.4060611609828
 30
0.0
 11
10443.60162798447
 21
733.4060611609828
 31
0.0
1001
AUTOCAD_POSTSCRIPT_FIGURE
1002
{
1000
PSFILL
1000
Grayscale
1000
Grayscale
1070
   100
1002
}
  0
LINE
  5
247DF
330
2461D
100
AcDbEntity
  8
YODOROGO
100
AcDbLine
 10
10431.60162798447
 20
742.4060611609832
 30
0.0
 11
10431.60162798447
 21
733.4060611609828
 31
0.0
1001
AUTOCAD_POSTSCRIPT_FIGURE
1002
{
1000
PSFILL
1000
Grayscale
1000
Grayscale
1070
   100
1002
}
  0
LINE
  5
247E0
330
2461D
100
AcDbEntity
  8
YODOROGO
100
AcDbLine
 10
10425.60162798447
 20
742.4060611609832
 30
0.0
 11
10431.60162798447
 21
742.4060611609832
 31
0.0
1001
AUTOCAD_POSTSCRIPT_FIGURE
1002
{
1000
PSFILL
1000
Grayscale
1000
Grayscale
1070
   100
1002
}
  0
LINE
  5
247E1
330
2461D
100
AcDbEntity
  8
YODOROGO
100
AcDbLine
 10
10425.60162798447
 20
733.4060611609828
 30
0.0
 11
10425.60162798447
 21
742.4060611609832
 31
0.0
1001
AUTOCAD_POSTSCRIPT_FIGURE
1002
{
1000
PSFILL
1000
Grayscale
1000
Grayscale
1070
   100
1002
}
  0
LINE
  5
247E2
330
2461D
100
AcDbEntity
  8
YODOROGO
100
AcDbLine
 10
10416.60162798446
 20
733.4060611609828
 30
0.0
 11
10425.60162798447
 21
733.4060611609828
 31
0.0
1001
AUTOCAD_POSTSCRIPT_FIGURE
1002
{
1000
PSFILL
1000
Grayscale
1000
Grayscale
1070
   100
1002
}
  0
LINE
  5
247E3
330
2461D
100
AcDbEntity
  8
YODOROGO
100
AcDbLine
 10
10416.60162798446
 20
727.4060611609828
 30
0.0
 11
10416.60162798446
 21
733.4060611609828
 31
0.0
1001
AUTOCAD_POSTSCRIPT_FIGURE
1002
{
1000
PSFILL
1000
Grayscale
1000
Grayscale
1070
   100
1002
}
  0
LINE
  5
247E4
330
2461D
100
AcDbEntity
  8
YODOROGO
100
AcDbLine
 10
10425.60162798447
 20
727.4060611609828
 30
0.0
 11
10416.60162798446
 21
727.4060611609828
 31
0.0
1001
AUTOCAD_POSTSCRIPT_FIGURE
1002
{
1000
PSFILL
1000
Grayscale
1000
Grayscale
1070
   100
1002
}
  0
LINE
  5
247E5
330
2461D
100
AcDbEntity
  8
YODOROGO
100
AcDbLine
 10
10425.60162798447
 20
718.0449677976392
 30
0.0
 11
10425.60162798447
 21
727.4060611609828
 31
0.0
1001
AUTOCAD_POSTSCRIPT_FIGURE
1002
{
1000
PSFILL
1000
Grayscale
1000
Grayscale
1070
   100
1002
}
  0
LINE
  5
247E6
330
2461D
100
AcDbEntity
  8
YODOROGO
100
AcDbLine
 10
10416.60162798446
 20
697.4162804818766
 30
0.0
 11
10425.60162798447
 21
718.0449677976392
 31
0.0
1001
AUTOCAD_POSTSCRIPT_FIGURE
1002
{
1000
PSFILL
1000
Grayscale
1000
Grayscale
1070
   100
1002
}
  0
LINE
  5
247E7
330
2461D
100
AcDbEntity
  8
YODOROGO
100
AcDbLine
 10
10416.60162798446
 20
691.4162804818772
 30
0.0
 11
10416.60162798446
 21
697.4162804818766
 31
0.0
1001
AUTOCAD_POSTSCRIPT_FIGURE
1002
{
1000
PSFILL
1000
Grayscale
1000
Grayscale
1070
   100
1002
}
  0
LINE
  5
247E8
330
2461D
100
AcDbEntity
  8
YODOROGO
100
AcDbLine
 10
10596.60162798446
 20
700.406061160983
 30
0.0
 11
10650.60162798447
 21
684.3291096151149
 31
0.0
1001
AUTOCAD_POSTSCRIPT_FIGURE
1002
{
1000
PSFILL
1000
Grayscale
1000
Grayscale
1070
   100
1002
}
  0
LINE
  5
247E9
330
2461D
100
AcDbEntity
  8
YODOROGO
100
AcDbLine
 10
10650.60162798447
 20
657.3291096151146
 30
0.0
 11
10596.60162798446
 21
673.4060611609827
 31
0.0
1001
AUTOCAD_POSTSCRIPT_FIGURE
1002
{
1000
PSFILL
1000
Grayscale
1000
Grayscale
1070
   100
1002
}
  0
LINE
  5
247EA
330
2461D
100
AcDbEntity
  8
YODOROGO
100
AcDbLine
 10
10650.60162798447
 20
744.329109615115
 30
0.0
 11
10596.60162798446
 21
760.4060611609829
 31
0.0
1001
AUTOCAD_POSTSCRIPT_FIGURE
1002
{
1000
PSFILL
1000
Grayscale
1000
Grayscale
1070
   100
1002
}
  0
LINE
  5
247EB
330
2461D
100
AcDbEntity
  8
YODOROGO
100
AcDbLine
 10
10596.60162798446
 20
734.9060611609829
 30
0.0
 11
10650.60162798447
 21
718.829109615115
 31
0.0
1001
AUTOCAD_POSTSCRIPT_FIGURE
1002
{
1000
PSFILL
1000
Grayscale
1000
Grayscale
1070
   100
1002
}
  0
LINE
  5
247EC
330
2461D
100
AcDbEntity
  8
YODOROGO
100
AcDbLine
 10
10596.60162798446
 20
673.4060611609827
 30
0.0
 11
10596.60162798446
 21
700.406061160983
 31
0.0
1001
AUTOCAD_POSTSCRIPT_FIGURE
1002
{
1000
PSFILL
1000
Grayscale
1000
Grayscale
1070
   100
1002
}
  0
LINE
  5
247ED
330
2461D
100
AcDbEntity
  8
YODOROGO
100
AcDbLine
 10
10596.60162798446
 20
760.4060611609829
 30
0.0
 11
10596.60162798446
 21
734.9060611609829
 31
0.0
1001
AUTOCAD_POSTSCRIPT_FIGURE
1002
{
1000
PSFILL
1000
Grayscale
1000
Grayscale
1070
   100
1002
}
  0
LINE
  5
247EE
330
2461D
100
AcDbEntity
  8
YODOROGO
100
AcDbLine
 10
10530.08862007752
 20
727.4060611609828
 30
0.0
 11
10548.60162798447
 21
655.406061160983
 31
0.0
1001
AUTOCAD_POSTSCRIPT_FIGURE
1002
{
1000
PSFILL
1000
Grayscale
1000
Grayscale
1070
   100
1002
}
  0
LINE
  5
247EF
330
2461D
100
AcDbEntity
  8
YODOROGO
100
AcDbLine
 10
10491.60162798447
 20
727.4060611609828
 30
0.0
 11
10530.08862007752
 21
727.4060611609828
 31
0.0
1001
AUTOCAD_POSTSCRIPT_FIGURE
1002
{
1000
PSFILL
1000
Grayscale
1000
Grayscale
1070
   100
1002
}
  0
LINE
  5
247F0
330
2461D
100
AcDbEntity
  8
YODOROGO
100
AcDbLine
 10
10491.60162798447
 20
733.4060611609828
 30
0.0
 11
10491.60162798447
 21
727.4060611609828
 31
0.0
1001
AUTOCAD_POSTSCRIPT_FIGURE
1002
{
1000
PSFILL
1000
Grayscale
1000
Grayscale
1070
   100
1002
}
  0
LINE
  5
247F1
330
2461D
100
AcDbEntity
  8
YODOROGO
100
AcDbLine
 10
10528.72757944497
 20
733.4060611609828
 30
0.0
 11
10491.60162798447
 21
733.4060611609828
 31
0.0
1001
AUTOCAD_POSTSCRIPT_FIGURE
1002
{
1000
PSFILL
1000
Grayscale
1000
Grayscale
1070
   100
1002
}
  0
LINE
  5
247F2
330
2461D
100
AcDbEntity
  8
YODOROGO
100
AcDbLine
 10
10526.68601849614
 20
742.4060611609832
 30
0.0
 11
10528.72757944497
 21
733.4060611609828
 31
0.0
1001
AUTOCAD_POSTSCRIPT_FIGURE
1002
{
1000
PSFILL
1000
Grayscale
1000
Grayscale
1070
   100
1002
}
  0
LINE
  5
247F3
330
2461D
100
AcDbEntity
  8
YODOROGO
100
AcDbLine
 10
10534.18601849614
 20
742.4060611609832
 30
0.0
 11
10526.68601849614
 21
742.4060611609832
 31
0.0
1001
AUTOCAD_POSTSCRIPT_FIGURE
1002
{
1000
PSFILL
1000
Grayscale
1000
Grayscale
1070
   100
1002
}
  0
LINE
  5
247F4
330
2461D
100
AcDbEntity
  8
YODOROGO
100
AcDbLine
 10
10535.92757944497
 20
733.4060611609828
 30
0.0
 11
10534.18601849614
 21
742.4060611609832
 31
0.0
1001
AUTOCAD_POSTSCRIPT_FIGURE
1002
{
1000
PSFILL
1000
Grayscale
1000
Grayscale
1070
   100
1002
}
  0
LINE
  5
247F5
330
2461D
100
AcDbEntity
  8
YODOROGO
100
AcDbLine
 10
10545.60162798447
 20
733.4060611609828
 30
0.0
 11
10535.92757944497
 21
733.4060611609828
 31
0.0
1001
AUTOCAD_POSTSCRIPT_FIGURE
1002
{
1000
PSFILL
1000
Grayscale
1000
Grayscale
1070
   100
1002
}
  0
LINE
  5
247F6
330
2461D
100
AcDbEntity
  8
YODOROGO
100
AcDbLine
 10
10545.60162798447
 20
742.4060611609832
 30
0.0
 11
10545.60162798447
 21
733.4060611609828
 31
0.0
1001
AUTOCAD_POSTSCRIPT_FIGURE
1002
{
1000
PSFILL
1000
Grayscale
1000
Grayscale
1070
   100
1002
}
  0
LINE
  5
247F7
330
2461D
100
AcDbEntity
  8
YODOROGO
100
AcDbLine
 10
10551.60162798447
 20
742.4060611609832
 30
0.0
 11
10545.60162798447
 21
742.4060611609832
 31
0.0
1001
AUTOCAD_POSTSCRIPT_FIGURE
1002
{
1000
PSFILL
1000
Grayscale
1000
Grayscale
1070
   100
1002
}
  0
LINE
  5
247F8
330
2461D
100
AcDbEntity
  8
YODOROGO
100
AcDbLine
 10
10551.60162798447
 20
733.4060611609828
 30
0.0
 11
10551.60162798447
 21
742.4060611609832
 31
0.0
1001
AUTOCAD_POSTSCRIPT_FIGURE
1002
{
1000
PSFILL
1000
Grayscale
1000
Grayscale
1070
   100
1002
}
  0
LINE
  5
247F9
330
2461D
100
AcDbEntity
  8
YODOROGO
100
AcDbLine
 10
10551.60162798447
 20
727.4060611609828
 30
0.0
 11
10551.60162798447
 21
733.4060611609828
 31
0.0
1001
AUTOCAD_POSTSCRIPT_FIGURE
1002
{
1000
PSFILL
1000
Grayscale
1000
Grayscale
1070
   100
1002
}
  0
LINE
  5
247FA
330
2461D
100
AcDbEntity
  8
YODOROGO
100
AcDbLine
 10
10537.08862007752
 20
727.4060611609828
 30
0.0
 11
10551.60162798447
 21
727.4060611609828
 31
0.0
1001
AUTOCAD_POSTSCRIPT_FIGURE
1002
{
1000
PSFILL
1000
Grayscale
1000
Grayscale
1070
   100
1002
}
  0
LINE
  5
247FB
330
2461D
100
AcDbEntity
  8
YODOROGO
100
AcDbLine
 10
10551.60162798447
 20
655.406061160983
 30
0.0
 11
10537.08862007752
 21
727.4060611609828
 31
0.0
1001
AUTOCAD_POSTSCRIPT_FIGURE
1002
{
1000
PSFILL
1000
Grayscale
1000
Grayscale
1070
   100
1002
}
  0
LINE
  5
247FC
330
2461D
100
AcDbEntity
  8
YODOROGO
100
AcDbLine
 10
10548.60162798447
 20
655.406061160983
 30
0.0
 11
10551.60162798447
 21
655.406061160983
 31
0.0
1001
AUTOCAD_POSTSCRIPT_FIGURE
1002
{
1000
PSFILL
1000
Grayscale
1000
Grayscale
1070
   100
1002
}
  0
LINE
  5
247FD
330
2461D
100
AcDbEntity
  8
YODOROGO
100
AcDbLine
 10
10529.27595747517
 20
665.902791112048
 30
0.0
 11
10491.60162798447
 21
655.406061160983
 31
0.0
  0
LINE
  5
247FE
330
2461D
100
AcDbEntity
  8
YODOROGO
100
AcDbLine
 10
10529.27595747517
 20
674.5008673234024
 30
0.0
 11
10529.27595747517
 21
665.902791112048
 31
0.0
  0
LINE
  5
247FF
330
2461D
100
AcDbEntity
  8
YODOROGO
100
AcDbLine
 10
10512.68879272982
 20
670.0563499251625
 30
0.0
 11
10529.27595747517
 21
674.5008673234024
 31
0.0
  0
LINE
  5
24800
330
2461D
100
AcDbEntity
  8
YODOROGO
100
AcDbLine
 10
10512.68879272982
 20
702.2131308511124
 30
0.0
 11
10512.68879272982
 21
670.0563499251625
 31
0.0
  0
LINE
  5
24801
330
2461D
100
AcDbEntity
  8
YODOROGO
100
AcDbLine
 10
10529.27595747517
 20
702.2131308511124
 30
0.0
 11
10512.68879272982
 21
702.2131308511124
 31
0.0
  0
LINE
  5
24802
330
2461D
100
AcDbEntity
  8
YODOROGO
100
AcDbLine
 10
10529.27595747517
 20
709.7131308511116
 30
0.0
 11
10529.27595747517
 21
702.2131308511124
 31
0.0
  0
LINE
  5
24803
330
2461D
100
AcDbEntity
  8
YODOROGO
100
AcDbLine
 10
10491.60162798447
 20
709.7131308511116
 30
0.0
 11
10529.27595747517
 21
709.7131308511116
 31
0.0
  0
LINE
  5
24804
330
2461D
100
AcDbEntity
  8
YODOROGO
100
AcDbLine
 10
10491.60162798447
 20
702.2131308511124
 30
0.0
 11
10491.60162798447
 21
709.7131308511116
 31
0.0
  0
LINE
  5
24805
330
2461D
100
AcDbEntity
  8
YODOROGO
100
AcDbLine
 10
10508.18879272982
 20
702.2131308511124
 30
0.0
 11
10491.60162798447
 21
702.2131308511124
 31
0.0
  0
LINE
  5
24806
330
2461D
100
AcDbEntity
  8
YODOROGO
100
AcDbLine
 10
10508.18879272982
 20
669.252502347869
 30
0.0
 11
10508.18879272982
 21
702.2131308511124
 31
0.0
  0
LINE
  5
24807
330
2461D
100
AcDbEntity
  8
YODOROGO
100
AcDbLine
 10
10491.60162798447
 20
664.4060611609823
 30
0.0
 11
10508.18879272982
 21
669.252502347869
 31
0.0
  0
LINE
  5
24808
330
2461D
100
AcDbEntity
  8
YODOROGO
100
AcDbLine
 10
10491.60162798447
 20
655.406061160983
 30
0.0
 11
10491.60162798447
 21
664.4060611609823
 31
0.0
  0
LINE
  5
24809
330
2461D
100
AcDbEntity
  8
YODOROGO
100
AcDbLine
 10
10500.60162798446
 20
640.4060611609828
 30
0.0
 11
10500.60162798446
 21
631.4060611609825
 31
0.0
  0
LINE
  5
2480A
330
2461D
100
AcDbEntity
  8
YODOROGO
100
AcDbLine
 10
10500.60162798446
 20
640.4060611609828
 30
0.0
 11
10500.60162798446
 21
640.4060611609828
 31
0.0
  0
LINE
  5
2480B
330
2461D
100
AcDbEntity
  8
YODOROGO
100
AcDbLine
 10
10506.60162798447
 20
640.4060611609828
 30
0.0
 11
10500.60162798446
 21
640.4060611609828
 31
0.0
  0
LINE
  5
2480C
330
2461D
100
AcDbEntity
  8
YODOROGO
100
AcDbLine
 10
10506.60162798447
 20
631.4060611609825
 30
0.0
 11
10506.60162798447
 21
640.4060611609828
 31
0.0
  0
LINE
  5
2480D
330
2461D
100
AcDbEntity
  8
YODOROGO
100
AcDbLine
 10
10515.34245150633
 20
631.4060611609825
 30
0.0
 11
10506.60162798447
 21
631.4060611609825
 31
0.0
  0
LINE
  5
2480E
330
2461D
100
AcDbEntity
  8
YODOROGO
100
AcDbLine
 10
10500.60162798446
 20
631.4060611609825
 30
0.0
 11
10491.60162798447
 21
631.4060611609825
 31
0.0
  0
LINE
  5
2480F
330
2461D
100
AcDbEntity
  8
YODOROGO
100
AcDbLine
 10
10530.80082008658
 20
640.4060611609828
 30
0.0
 11
10536.8008200866
 21
640.4060611609828
 31
0.0
1001
AUTOCAD_POSTSCRIPT_FIGURE
1002
{
1000
PSFILL
1000
Grayscale
1000
Grayscale
1070
   100
1002
}
  0
LINE
  5
24810
330
2461D
100
AcDbEntity
  8
YODOROGO
100
AcDbLine
 10
10650.60162798447
 20
684.3291096151149
 30
0.0
 11
10650.60162798447
 21
657.3291096151146
 31
0.0
1001
AUTOCAD_POSTSCRIPT_FIGURE
1002
{
1000
PSFILL
1000
Grayscale
1000
Grayscale
1070
   100
1002
}
  0
LINE
  5
24811
330
2461D
100
AcDbEntity
  8
YODOROGO
100
AcDbLine
 10
10650.60162798447
 20
718.829109615115
 30
0.0
 11
10650.60162798447
 21
744.329109615115
 31
0.0
1001
AUTOCAD_POSTSCRIPT_FIGURE
1002
{
1000
PSFILL
1000
Grayscale
1000
Grayscale
1070
   100
1002
}
  0
LINE
  5
24812
330
2461D
100
AcDbEntity
  8
YODOROGO
100
AcDbLine
 10
10662.60162798446
 20
682.4060611609829
 30
0.0
 11
10662.60162798446
 21
655.4060611609838
 31
0.0
  0
LINE
  5
24813
330
2461D
100
AcDbEntity
  8
YODOROGO
100
AcDbLine
 10
10686.60162798446
 20
640.4060611609828
 30
0.0
 11
10662.60162798446
 21
640.4060611609828
 31
0.0
  0
LINE
  5
24814
330
2461D
100
AcDbEntity
  8
YODOROGO
100
AcDbLine
 10
10662.60162798446
 20
655.4060611609838
 30
0.0
 11
10719.60162798446
 21
655.4060611609838
 31
0.0
  0
LINE
  5
24815
330
2461D
100
AcDbEntity
  8
YODOROGO
100
AcDbLine
 10
10686.60162798446
 20
700.406061160983
 30
0.0
 11
10662.60162798446
 21
700.406061160983
 31
0.0
  0
LINE
  5
24816
330
2461D
100
AcDbEntity
  8
YODOROGO
100
AcDbLine
 10
10686.60162798446
 20
721.4060611609824
 30
0.0
 11
10686.60162798446
 21
700.406061160983
 31
0.0
  0
LINE
  5
24817
330
2461D
100
AcDbEntity
  8
YODOROGO
100
AcDbLine
 10
10719.60162798446
 20
745.4060611609828
 30
0.0
 11
10719.60162798446
 21
760.4060611609829
 31
0.0
  0
LINE
  5
24818
330
2461D
100
AcDbEntity
  8
YODOROGO
100
AcDbLine
 10
10662.60162798446
 20
745.4060611609828
 30
0.0
 11
10719.60162798446
 21
745.4060611609828
 31
0.0
  0
LINE
  5
24819
330
2461D
100
AcDbEntity
  8
YODOROGO
100
AcDbLine
 10
10662.60162798446
 20
700.406061160983
 30
0.0
 11
10662.60162798446
 21
745.4060611609828
 31
0.0
  0
LINE
  5
2481A
330
2461D
100
AcDbEntity
  8
YODOROGO
100
AcDbLine
 10
10875.60162798447
 20
760.4060611609829
 30
0.0
 11
10875.60162798447
 21
607.4060611609829
 31
0.0
  0
LINE
  5
2481B
330
2461D
100
AcDbEntity
  8
YODOROGO
100
AcDbLine
 10
10902.60162798446
 20
592.4060611609831
 30
0.0
 11
10902.60162798446
 21
760.4060611609829
 31
0.0
  0
LINE
  5
2481C
330
2461D
100
AcDbEntity
  8
YODOROGO
100
AcDbLine
 10
10973.10162798446
 20
559.4060611609823
 30
0.0
 11
10973.10162798446
 21
752.9060611609828
 31
0.0
  0
LINE
  5
2481D
330
2461D
100
AcDbEntity
  8
YODOROGO
100
AcDbLine
 10
10949.10162798447
 20
752.9060611609828
 30
0.0
 11
10949.10162798447
 21
559.4060611609823
 31
0.0
  0
LINE
  5
2481E
330
2461D
100
AcDbEntity
  8
YODOROGO
100
AcDbLine
 10
11019.60162798446
 20
760.4060611609829
 30
0.0
 11
11019.60162798446
 21
535.4060611609829
 31
0.0
  0
LINE
  5
2481F
330
2461D
100
AcDbEntity
  8
YODOROGO
100
AcDbLine
 10
11046.60162798447
 20
535.4060611609829
 30
0.0
 11
11046.60162798447
 21
760.4060611609829
 31
0.0
  0
LINE
  5
24820
330
2461D
100
AcDbEntity
  8
YODOROGO
100
AcDbLine
 10
10746.60162798446
 20
625.406061160983
 30
0.0
 11
10746.60162798446
 21
655.4060611609838
 31
0.0
  0
LINE
  5
24821
330
2461D
100
AcDbEntity
  8
YODOROGO
100
AcDbLine
 10
11207.10162798447
 20
640.4060611609828
 30
0.0
 11
11207.10162798447
 21
625.406061160983
 31
0.0
  0
LINE
  5
24822
330
2461D
100
AcDbEntity
  8
YODOROGO
100
AcDbLine
 10
11207.10162798447
 20
640.4060611609828
 30
0.0
 11
11207.10162798447
 21
625.406061160983
 31
0.0
  0
ARC
  5
24823
330
2461D
100
AcDbEntity
  8
YODOROGO
100
AcDbCircle
 10
10840.09184107006
 20
606.8316991658524
 30
0.0
 40
35.51443169202812
100
AcDbArc
 50
274.052441629071
 51
0.9266642149310715
  0
ARC
  5
24824
330
2461D
100
AcDbEntity
  8
YODOROGO
100
AcDbCircle
 10
10840.94481401992
 20
597.229023228915
 30
0.0
 40
61.84515883532068
100
AcDbArc
 50
271.5351210653777
 51
355.5272775058505
  0
LINE
  5
24825
330
2461D
100
AcDbEntity
  8
YODOROGO
100
AcDbLine
 10
10842.60162798446
 20
571.4060611609824
 30
0.0
 11
10842.60162798446
 21
535.4060611609829
 31
0.0
  0
LINE
  5
24826
330
2461D
100
AcDbEntity
  8
YODOROGO
100
AcDbLine
 10
10797.60162798446
 20
625.406061160983
 30
0.0
 11
10746.60162798446
 21
625.406061160983
 31
0.0
  0
LINE
  5
24827
330
2461D
100
AcDbEntity
  8
YODOROGO
100
AcDbLine
 10
10797.60162798446
 20
601.4060611609833
 30
0.0
 11
10797.60162798446
 21
625.406061160983
 31
0.0
  0
LINE
  5
24828
330
2461D
100
AcDbEntity
  8
YODOROGO
100
AcDbLine
 10
10746.60162798446
 20
601.4060611609833
 30
0.0
 11
10797.60162798446
 21
601.4060611609833
 31
0.0
  0
LINE
  5
24829
330
2461D
100
AcDbEntity
  8
YODOROGO
100
AcDbLine
 10
10746.60162798446
 20
571.4060611609824
 30
0.0
 11
10746.60162798446
 21
601.4060611609833
 31
0.0
  0
LINE
  5
2482A
330
2461D
100
AcDbEntity
  8
YODOROGO
100
AcDbLine
 10
10797.60162798446
 20
571.4060611609824
 30
0.0
 11
10746.60162798446
 21
571.4060611609824
 31
0.0
  0
LINE
  5
2482B
330
2461D
100
AcDbEntity
  8
YODOROGO
100
AcDbLine
 10
10797.60162798446
 20
535.4060611609829
 30
0.0
 11
10797.60162798446
 21
571.4060611609824
 31
0.0
  0
LINE
  5
2482C
330
2461D
100
AcDbEntity
  8
YODOROGO
100
AcDbLine
 10
10949.10162798447
 20
559.4060611609823
 30
0.0
 11
10973.10162798446
 21
559.4060611609823
 31
0.0
  0
LINE
  5
2482D
330
2461D
100
AcDbEntity
  8
YODOROGO
100
AcDbLine
 10
11019.60162798446
 20
535.4060611609829
 30
0.0
 11
11046.60162798447
 21
535.4060611609829
 31
0.0
  0
LINE
  5
2482E
330
2461D
100
AcDbEntity
  8
YODOROGO
100
AcDbLine
 10
11151.60162798447
 20
573.1655445639615
 30
0.0
 11
11151.60162798447
 21
535.4060611609829
 31
0.0
  0
LINE
  5
2482F
330
2461D
100
AcDbEntity
  8
YODOROGO
100
AcDbLine
 10
11106.60162798446
 20
535.4060611609829
 30
0.0
 11
11151.60162798447
 21
573.1655445639615
 31
0.0
  0
LINE
  5
24830
330
2461D
100
AcDbEntity
  8
YODOROGO
100
AcDbLine
 10
11106.60162798446
 20
580.406061160983
 30
0.0
 11
11106.60162798446
 21
535.4060611609829
 31
0.0
  0
LINE
  5
24831
330
2461D
100
AcDbEntity
  8
YODOROGO
100
AcDbLine
 10
11142.35423576229
 20
610.4060611609829
 30
0.0
 11
11106.60162798446
 21
580.406061160983
 31
0.0
  0
LINE
  5
24832
330
2461D
100
AcDbEntity
  8
YODOROGO
100
AcDbLine
 10
11106.60162798446
 20
610.4060611609829
 30
0.0
 11
11142.35423576229
 21
610.4060611609829
 31
0.0
  0
LINE
  5
24833
330
2461D
100
AcDbEntity
  8
YODOROGO
100
AcDbLine
 10
11106.60162798446
 20
625.406061160983
 30
0.0
 11
11106.60162798446
 21
610.4060611609829
 31
0.0
  0
LINE
  5
24834
330
2461D
100
AcDbEntity
  8
YODOROGO
100
AcDbLine
 10
11207.10162798447
 20
625.406061160983
 30
0.0
 11
11106.60162798446
 21
625.406061160983
 31
0.0
  0
LINE
  5
24835
330
2461D
100
AcDbEntity
  8
YODOROGO
100
AcDbLine
 10
11219.10162798447
 20
610.4060611609829
 30
0.0
 11
11166.60162798446
 21
610.4060611609829
 31
0.0
  0
LINE
  5
24836
330
2461D
100
AcDbEntity
  8
YODOROGO
100
AcDbLine
 10
11166.60162798446
 20
585.7520390316213
 30
0.0
 11
11164.27870236948
 21
583.8028730048376
 31
0.0
  0
LINE
  5
24837
330
2461D
100
AcDbEntity
  8
YODOROGO
100
AcDbLine
 10
11166.60162798446
 20
610.4060611609829
 30
0.0
 11
11166.60162798446
 21
585.7520390316213
 31
0.0
  0
LINE
  5
24838
330
2461D
100
AcDbEntity
  8
YODOROGO
100
AcDbLine
 10
11151.60162798447
 20
573.1655445639615
 30
0.0
 11
11151.60162798447
 21
535.4060611609829
 31
0.0
  0
LINE
  5
24839
330
2461D
100
AcDbEntity
  8
YODOROGO
100
AcDbLine
 10
11106.60162798446
 20
535.4060611609829
 30
0.0
 11
11151.60162798447
 21
573.1655445639615
 31
0.0
  0
LINE
  5
2483A
330
2461D
100
AcDbEntity
  8
YODOROGO
100
AcDbLine
 10
11106.60162798446
 20
580.406061160983
 30
0.0
 11
11106.60162798446
 21
535.4060611609829
 31
0.0
  0
LINE
  5
2483B
330
2461D
100
AcDbEntity
  8
YODOROGO
100
AcDbLine
 10
11142.35423576229
 20
610.4060611609829
 30
0.0
 11
11106.60162798446
 21
580.406061160983
 31
0.0
  0
LINE
  5
2483C
330
2461D
100
AcDbEntity
  8
YODOROGO
100
AcDbLine
 10
11106.60162798446
 20
610.4060611609829
 30
0.0
 11
11142.35423576229
 21
610.4060611609829
 31
0.0
  0
LINE
  5
2483D
330
2461D
100
AcDbEntity
  8
YODOROGO
100
AcDbLine
 10
11106.60162798446
 20
625.406061160983
 30
0.0
 11
11106.60162798446
 21
610.4060611609829
 31
0.0
  0
LINE
  5
2483E
330
2461D
100
AcDbEntity
  8
YODOROGO
100
AcDbLine
 10
11207.10162798447
 20
625.406061160983
 30
0.0
 11
11106.60162798446
 21
625.406061160983
 31
0.0
  0
LINE
  5
2483F
330
2461D
100
AcDbEntity
  8
YODOROGO
100
AcDbLine
 10
10797.60162798446
 20
655.4060611609838
 30
0.0
 11
10797.60162798446
 21
682.4060611609829
 31
0.0
  0
LINE
  5
24840
330
2461D
100
AcDbEntity
  8
YODOROGO
100
AcDbLine
 10
10746.60162798446
 20
655.4060611609838
 30
0.0
 11
10797.60162798446
 21
655.4060611609838
 31
0.0
  0
LINE
  5
24841
330
2461D
100
AcDbEntity
  8
YODOROGO
100
AcDbLine
 10
10773.60162798447
 20
700.406061160983
 30
0.0
 11
10773.60162798447
 21
721.4060611609824
 31
0.0
  0
LINE
  5
24842
330
2461D
100
AcDbEntity
  8
YODOROGO
100
AcDbLine
 10
10797.60162798446
 20
700.406061160983
 30
0.0
 11
10773.60162798447
 21
700.406061160983
 31
0.0
  0
LINE
  5
24843
330
2461D
100
AcDbEntity
  8
YODOROGO
100
AcDbLine
 10
10797.60162798446
 20
730.4060611609828
 30
0.0
 11
10797.60162798446
 21
700.406061160983
 31
0.0
  0
ARC
  5
24844
330
2461D
100
AcDbEntity
  8
YODOROGO
100
AcDbCircle
 10
10782.60162798446
 20
730.4060611609828
 30
0.0
 40
15.0
100
AcDbArc
 50
0.0
 51
90.0
  0
LINE
  5
24845
330
2461D
100
AcDbEntity
  8
YODOROGO
100
AcDbLine
 10
10746.60162798447
 20
745.4060611609828
 30
0.0
 11
10782.60162798446
 21
745.4060611609828
 31
0.0
  0
LINE
  5
24846
330
2461D
100
AcDbEntity
  8
YODOROGO
100
AcDbLine
 10
10746.60162798447
 20
760.4060611609829
 30
0.0
 11
10746.60162798447
 21
745.4060611609828
 31
0.0
  0
LINE
  5
24847
330
2461D
100
AcDbEntity
  8
YODOROGO
100
AcDbLine
 10
10902.60162798446
 20
760.4060611609829
 30
0.0
 11
10875.60162798447
 21
760.4060611609829
 31
0.0
  0
LINE
  5
24848
330
2461D
100
AcDbEntity
  8
YODOROGO
100
AcDbLine
 10
10973.10162798446
 20
752.9060611609828
 30
0.0
 11
10949.10162798447
 21
752.9060611609828
 31
0.0
  0
LINE
  5
24849
330
2461D
100
AcDbEntity
  8
YODOROGO
100
AcDbLine
 10
11046.60162798447
 20
760.4060611609829
 30
0.0
 11
11019.60162798446
 21
760.4060611609829
 31
0.0
  0
LINE
  5
2484A
330
2461D
100
AcDbEntity
  8
YODOROGO
100
AcDbLine
 10
11127.60162798447
 20
640.4060611609828
 30
0.0
 11
11127.60162798447
 21
664.4060611609833
 31
0.0
1001
AUTOCAD_POSTSCRIPT_FIGURE
1002
{
1000
PSFILL
1000
Grayscale
1000
Grayscale
1070
    25
1002
}
  0
LINE
  5
2484B
330
2461D
100
AcDbEntity
  8
YODOROGO
100
AcDbLine
 10
11106.60162798446
 20
640.4060611609828
 30
0.0
 11
11127.60162798447
 21
640.4060611609828
 31
0.0
1001
AUTOCAD_POSTSCRIPT_FIGURE
1002
{
1000
PSFILL
1000
Grayscale
1000
Grayscale
1070
    25
1002
}
  0
LINE
  5
2484C
330
2461D
100
AcDbEntity
  8
YODOROGO
100
AcDbLine
 10
11106.60162798446
 20
682.4060611609829
 30
0.0
 11
11106.60162798446
 21
640.4060611609828
 31
0.0
1001
AUTOCAD_POSTSCRIPT_FIGURE
1002
{
1000
PSFILL
1000
Grayscale
1000
Grayscale
1070
    25
1002
}
  0
LINE
  5
2484D
330
2461D
100
AcDbEntity
  8
YODOROGO
100
AcDbLine
 10
11162.10162798447
 20
682.4060611609829
 30
0.0
 11
11106.60162798446
 21
682.4060611609829
 31
0.0
1001
AUTOCAD_POSTSCRIPT_FIGURE
1002
{
1000
PSFILL
1000
Grayscale
1000
Grayscale
1070
    25
1002
}
  0
LINE
  5
2484E
330
2461D
100
AcDbEntity
  8
YODOROGO
100
AcDbLine
 10
11162.10162798447
 20
697.406061160983
 30
0.0
 11
11162.10162798447
 21
682.4060611609829
 31
0.0
1001
AUTOCAD_POSTSCRIPT_FIGURE
1002
{
1000
PSFILL
1000
Grayscale
1000
Grayscale
1070
    25
1002
}
  0
LINE
  5
2484F
330
2461D
100
AcDbEntity
  8
YODOROGO
100
AcDbLine
 10
11106.60162798446
 20
697.406061160983
 30
0.0
 11
11162.10162798447
 21
697.406061160983
 31
0.0
1001
AUTOCAD_POSTSCRIPT_FIGURE
1002
{
1000
PSFILL
1000
Grayscale
1000
Grayscale
1070
    25
1002
}
  0
LINE
  5
24850
330
2461D
100
AcDbEntity
  8
YODOROGO
100
AcDbLine
 10
11106.60162798446
 20
715.4060611609828
 30
0.0
 11
11106.60162798446
 21
697.406061160983
 31
0.0
1001
AUTOCAD_POSTSCRIPT_FIGURE
1002
{
1000
PSFILL
1000
Grayscale
1000
Grayscale
1070
    25
1002
}
  0
LINE
  5
24851
330
2461D
100
AcDbEntity
  8
YODOROGO
100
AcDbLine
 10
11162.10162798447
 20
715.4060611609828
 30
0.0
 11
11106.60162798446
 21
715.4060611609828
 31
0.0
1001
AUTOCAD_POSTSCRIPT_FIGURE
1002
{
1000
PSFILL
1000
Grayscale
1000
Grayscale
1070
    25
1002
}
  0
LINE
  5
24852
330
2461D
100
AcDbEntity
  8
YODOROGO
100
AcDbLine
 10
11162.10162798447
 20
730.4060611609828
 30
0.0
 11
11162.10162798447
 21
715.4060611609828
 31
0.0
1001
AUTOCAD_POSTSCRIPT_FIGURE
1002
{
1000
PSFILL
1000
Grayscale
1000
Grayscale
1070
    25
1002
}
  0
LINE
  5
24853
330
2461D
100
AcDbEntity
  8
YODOROGO
100
AcDbLine
 10
11106.60162798446
 20
730.4060611609828
 30
0.0
 11
11162.10162798447
 21
730.4060611609828
 31
0.0
1001
AUTOCAD_POSTSCRIPT_FIGURE
1002
{
1000
PSFILL
1000
Grayscale
1000
Grayscale
1070
    25
1002
}
  0
LINE
  5
24854
330
2461D
100
AcDbEntity
  8
YODOROGO
100
AcDbLine
 10
11106.60162798446
 20
760.4060611609829
 30
0.0
 11
11106.60162798446
 21
730.4060611609828
 31
0.0
1001
AUTOCAD_POSTSCRIPT_FIGURE
1002
{
1000
PSFILL
1000
Grayscale
1000
Grayscale
1070
    25
1002
}
  0
LINE
  5
24855
330
2461D
100
AcDbEntity
  8
YODOROGO
100
AcDbLine
 10
11124.60162798446
 20
760.4060611609829
 30
0.0
 11
11106.60162798446
 21
760.4060611609829
 31
0.0
1001
AUTOCAD_POSTSCRIPT_FIGURE
1002
{
1000
PSFILL
1000
Grayscale
1000
Grayscale
1070
    25
1002
}
  0
LINE
  5
24856
330
2461D
100
AcDbEntity
  8
YODOROGO
100
AcDbLine
 10
11124.60162798446
 20
748.4060611609828
 30
0.0
 11
11124.60162798446
 21
760.4060611609829
 31
0.0
1001
AUTOCAD_POSTSCRIPT_FIGURE
1002
{
1000
PSFILL
1000
Grayscale
1000
Grayscale
1070
    25
1002
}
  0
LINE
  5
24857
330
2461D
100
AcDbEntity
  8
YODOROGO
100
AcDbLine
 10
11162.10162798447
 20
748.4060611609828
 30
0.0
 11
11124.60162798446
 21
748.4060611609828
 31
0.0
1001
AUTOCAD_POSTSCRIPT_FIGURE
1002
{
1000
PSFILL
1000
Grayscale
1000
Grayscale
1070
    25
1002
}
  0
LINE
  5
24858
330
2461D
100
AcDbEntity
  8
YODOROGO
100
AcDbLine
 10
11162.10162798447
 20
760.4060611609829
 30
0.0
 11
11162.10162798447
 21
748.4060611609828
 31
0.0
1001
AUTOCAD_POSTSCRIPT_FIGURE
1002
{
1000
PSFILL
1000
Grayscale
1000
Grayscale
1070
    25
1002
}
  0
LINE
  5
24859
330
2461D
100
AcDbEntity
  8
YODOROGO
100
AcDbLine
 10
11186.10162798447
 20
760.4060611609829
 30
0.0
 11
11162.10162798447
 21
760.4060611609829
 31
0.0
1001
AUTOCAD_POSTSCRIPT_FIGURE
1002
{
1000
PSFILL
1000
Grayscale
1000
Grayscale
1070
    25
1002
}
  0
LINE
  5
2485A
330
2461D
100
AcDbEntity
  8
YODOROGO
100
AcDbLine
 10
11186.10162798447
 20
748.4060611609828
 30
0.0
 11
11186.10162798447
 21
760.4060611609829
 31
0.0
1001
AUTOCAD_POSTSCRIPT_FIGURE
1002
{
1000
PSFILL
1000
Grayscale
1000
Grayscale
1070
    25
1002
}
  0
LINE
  5
2485B
330
2461D
100
AcDbEntity
  8
YODOROGO
100
AcDbLine
 10
11186.10162798447
 20
715.4060611609828
 30
0.0
 11
11186.10162798447
 21
730.4060611609828
 31
0.0
1001
AUTOCAD_POSTSCRIPT_FIGURE
1002
{
1000
PSFILL
1000
Grayscale
1000
Grayscale
1070
    25
1002
}
  0
LINE
  5
2485C
330
2461D
100
AcDbEntity
  8
YODOROGO
100
AcDbLine
 10
11186.10162798447
 20
682.4060611609829
 30
0.0
 11
11186.10162798447
 21
697.406061160983
 31
0.0
1001
AUTOCAD_POSTSCRIPT_FIGURE
1002
{
1000
PSFILL
1000
Grayscale
1000
Grayscale
1070
    25
1002
}
  0
LINE
  5
2485D
330
2461D
100
AcDbEntity
  8
YODOROGO
100
AcDbLine
 10
11220.60162798447
 20
664.4060611609833
 30
0.0
 11
11220.60162798447
 21
640.4060611609828
 31
0.0
1001
AUTOCAD_POSTSCRIPT_FIGURE
1002
{
1000
PSFILL
1000
Grayscale
1000
Grayscale
1070
    25
1002
}
  0
LINE
  5
2485E
330
2461D
100
AcDbEntity
  8
YODOROGO
100
AcDbLine
 10
11186.10162798447
 20
664.4060611609833
 30
0.0
 11
11220.60162798447
 21
664.4060611609833
 31
0.0
1001
AUTOCAD_POSTSCRIPT_FIGURE
1002
{
1000
PSFILL
1000
Grayscale
1000
Grayscale
1070
    25
1002
}
  0
LINE
  5
2485F
330
2461D
100
AcDbEntity
  8
YODOROGO
100
AcDbLine
 10
11186.10162798447
 20
640.4060611609828
 30
0.0
 11
11186.10162798447
 21
664.4060611609833
 31
0.0
1001
AUTOCAD_POSTSCRIPT_FIGURE
1002
{
1000
PSFILL
1000
Grayscale
1000
Grayscale
1070
    25
1002
}
  0
LINE
  5
24860
330
2461D
100
AcDbEntity
  8
YODOROGO
100
AcDbLine
 10
11162.10162798447
 20
640.4060611609828
 30
0.0
 11
11186.10162798447
 21
640.4060611609828
 31
0.0
1001
AUTOCAD_POSTSCRIPT_FIGURE
1002
{
1000
PSFILL
1000
Grayscale
1000
Grayscale
1070
    25
1002
}
  0
LINE
  5
24861
330
2461D
100
AcDbEntity
  8
YODOROGO
100
AcDbLine
 10
11162.10162798447
 20
664.4060611609833
 30
0.0
 11
11162.10162798447
 21
640.4060611609828
 31
0.0
1001
AUTOCAD_POSTSCRIPT_FIGURE
1002
{
1000
PSFILL
1000
Grayscale
1000
Grayscale
1070
    25
1002
}
  0
LINE
  5
24862
330
2461D
100
AcDbEntity
  8
YODOROGO
100
AcDbLine
 10
11127.60162798447
 20
664.4060611609833
 30
0.0
 11
11162.10162798447
 21
664.4060611609833
 31
0.0
1001
AUTOCAD_POSTSCRIPT_FIGURE
1002
{
1000
PSFILL
1000
Grayscale
1000
Grayscale
1070
    25
1002
}
  0
ARC
  5
24863
330
2461D
100
AcDbEntity
  8
YODOROGO
100
AcDbCircle
 10
11647.31921000922
 20
601.0052765683409
 30
0.0
 40
66.83298041652057
100
AcDbArc
 50
281.0262749542535
 51
357.771135755738
  0
LINE
  5
24864
330
2461D
100
AcDbEntity
  8
YODOROGO
100
AcDbLine
 10
11780.10162798446
 20
715.4060611609828
 30
0.0
 11
11687.10162798447
 21
715.4060611609828
 31
0.0
  0
LINE
  5
24865
330
2461D
100
AcDbEntity
  8
YODOROGO
100
AcDbLine
 10
11780.10162798446
 20
760.4060611609829
 30
0.0
 11
11687.10162798447
 21
760.4060611609829
 31
0.0
  0
LINE
  5
24866
330
2461D
100
AcDbEntity
  8
YODOROGO
100
AcDbLine
 10
11687.10162798447
 20
736.4060611609825
 30
0.0
 11
11780.10162798446
 21
736.4060611609825
 31
0.0
  0
LINE
  5
24867
330
2461D
100
AcDbEntity
  8
YODOROGO
100
AcDbLine
 10
11546.85162798447
 20
586.4060611609825
 30
0.0
 11
11546.85162798447
 21
658.4060611609827
 31
0.0
  0
LINE
  5
24868
330
2461D
100
AcDbEntity
  8
YODOROGO
100
AcDbLine
 10
11536.35162798447
 20
634.4060611609833
 30
0.0
 11
11536.35162798447
 21
586.4060611609825
 31
0.0
  0
LINE
  5
24869
330
2461D
100
AcDbEntity
  8
YODOROGO
100
AcDbLine
 10
11521.35162798447
 20
559.4060611609831
 30
0.0
 11
11521.35162798447
 21
634.4060611609833
 31
0.0
  0
LINE
  5
2486A
330
2461D
100
AcDbEntity
  8
YODOROGO
100
AcDbLine
 10
11587.35162798447
 20
634.4060611609833
 30
0.0
 11
11587.35162798447
 21
559.4060611609831
 31
0.0
  0
LINE
  5
2486B
330
2461D
100
AcDbEntity
  8
YODOROGO
100
AcDbLine
 10
11572.35162798446
 20
586.4060611609825
 30
0.0
 11
11572.35162798446
 21
634.4060611609833
 31
0.0
  0
LINE
  5
2486C
330
2461D
100
AcDbEntity
  8
YODOROGO
100
AcDbLine
 10
11561.85162798446
 20
658.4060611609827
 30
0.0
 11
11561.85162798446
 21
586.4060611609825
 31
0.0
  0
LINE
  5
2486D
330
2461D
100
AcDbEntity
  8
YODOROGO
100
AcDbLine
 10
11615.10162798446
 20
760.4060611609829
 30
0.0
 11
11615.10162798446
 21
550.4060611609828
 31
0.0
  0
LINE
  5
2486E
330
2461D
100
AcDbEntity
  8
YODOROGO
100
AcDbLine
 10
11492.10162798447
 20
535.4060611609829
 30
0.0
 11
11492.10162798447
 21
760.4060611609829
 31
0.0
  0
LINE
  5
2486F
330
2461D
100
AcDbEntity
  8
YODOROGO
100
AcDbLine
 10
11511.60162798447
 20
736.4060611609825
 30
0.0
 11
11511.60162798447
 21
535.4060611609829
 31
0.0
  0
LINE
  5
24870
330
2461D
100
AcDbEntity
  8
YODOROGO
100
AcDbLine
 10
11597.10162798446
 20
580.406061160983
 30
0.0
 11
11597.10162798446
 21
736.4060611609825
 31
0.0
  0
LINE
  5
24871
330
2461D
100
AcDbEntity
  8
YODOROGO
100
AcDbLine
 10
11393.10162798446
 20
610.4060611609829
 30
0.0
 11
11393.10162798446
 21
629.9060611609831
 31
0.0
  0
LINE
  5
24872
330
2461D
100
AcDbEntity
  8
YODOROGO
100
AcDbLine
 10
11481.60162798447
 20
629.9060611609831
 30
0.0
 11
11481.60162798447
 21
610.4060611609829
 31
0.0
  0
LINE
  5
24873
330
2461D
100
AcDbEntity
  8
YODOROGO
100
AcDbLine
 10
11687.10162798447
 20
715.4060611609828
 30
0.0
 11
11687.10162798447
 21
613.4060611609827
 31
0.0
  0
LINE
  5
24874
330
2461D
100
AcDbEntity
  8
YODOROGO
100
AcDbLine
 10
11231.10162798446
 20
625.406061160983
 30
0.0
 11
11231.10162798446
 21
640.4060611609828
 31
0.0
  0
LINE
  5
24875
330
2461D
100
AcDbEntity
  8
YODOROGO
100
AcDbLine
 10
11231.10162798446
 20
625.406061160983
 30
0.0
 11
11231.10162798446
 21
640.4060611609828
 31
0.0
  0
ARC
  5
24876
330
2461D
100
AcDbEntity
  8
YODOROGO
100
AcDbCircle
 10
11451.60162798447
 20
565.4060611609828
 30
0.0
 40
30.0
100
AcDbArc
 50
270.0
 51
0.0
  0
LINE
  5
24877
330
2461D
100
AcDbEntity
  8
YODOROGO
100
AcDbLine
 10
11463.60162798446
 20
599.9060611609831
 30
0.0
 11
11481.60162798447
 21
599.9060611609831
 31
0.0
  0
LINE
  5
24878
330
2461D
100
AcDbEntity
  8
YODOROGO
100
AcDbLine
 10
11481.60162798447
 20
610.4060611609829
 30
0.0
 11
11448.60162798446
 21
610.4060611609829
 31
0.0
  0
LINE
  5
24879
330
2461D
100
AcDbEntity
  8
YODOROGO
100
AcDbLine
 10
11331.60162798447
 20
625.406061160983
 30
0.0
 11
11231.10162798446
 21
625.406061160983
 31
0.0
  0
LINE
  5
2487A
330
2461D
100
AcDbEntity
  8
YODOROGO
100
AcDbLine
 10
11331.60162798447
 20
610.4060611609829
 30
0.0
 11
11331.60162798447
 21
625.406061160983
 31
0.0
  0
LINE
  5
2487B
330
2461D
100
AcDbEntity
  8
YODOROGO
100
AcDbLine
 10
11256.60162798447
 20
610.4060611609829
 30
0.0
 11
11331.60162798447
 21
610.4060611609829
 31
0.0
  0
ARC
  5
2487C
330
2461D
100
AcDbEntity
  8
YODOROGO
100
AcDbCircle
 10
11336.27206076301
 20
700.8321431073384
 30
0.0
 40
120.5166136069605
100
AcDbArc
 50
228.6181454618993
 51
245.660289248906
  0
LINE
  5
2487D
330
2461D
100
AcDbEntity
  8
YODOROGO
100
AcDbLine
 10
11289.60162798447
 20
601.4060611609833
 30
0.0
 11
11286.60162798448
 21
591.0273059512126
 31
0.0
  0
LINE
  5
2487E
330
2461D
100
AcDbEntity
  8
YODOROGO
100
AcDbLine
 10
11321.10162798447
 20
601.4060611609833
 30
0.0
 11
11289.60162798447
 21
601.4060611609833
 31
0.0
  0
LINE
  5
2487F
330
2461D
100
AcDbEntity
  8
YODOROGO
100
AcDbLine
 10
11316.60162798447
 20
581.9316459275352
 30
0.0
 11
11321.10162798447
 21
601.4060611609833
 31
0.0
  0
ARC
  5
24880
330
2461D
100
AcDbEntity
  8
YODOROGO
100
AcDbCircle
 10
11336.27206076267
 20
700.832143107376
 30
0.0
 40
120.516613606984
100
AcDbArc
 50
260.6062929796992
 51
267.7790355655586
  0
LINE
  5
24881
330
2461D
100
AcDbEntity
  8
YODOROGO
100
AcDbLine
 10
11331.60162798447
 20
535.4060611609821
 30
0.0
 11
11331.60162798447
 21
580.406061160983
 31
0.0
  0
LINE
  5
24882
330
2461D
100
AcDbEntity
  8
YODOROGO
100
AcDbLine
 10
11226.60162798446
 20
555.5022505933164
 30
0.0
 11
11226.60162798446
 21
597.949158949178
 31
0.0
  0
LINE
  5
24883
330
2461D
100
AcDbEntity
  8
YODOROGO
100
AcDbLine
 10
11331.60162798447
 20
625.406061160983
 30
0.0
 11
11231.10162798446
 21
625.406061160983
 31
0.0
  0
LINE
  5
24884
330
2461D
100
AcDbEntity
  8
YODOROGO
100
AcDbLine
 10
11331.60162798447
 20
610.4060611609829
 30
0.0
 11
11331.60162798447
 21
625.406061160983
 31
0.0
  0
LINE
  5
24885
330
2461D
100
AcDbEntity
  8
YODOROGO
100
AcDbLine
 10
11256.60162798447
 20
610.4060611609829
 30
0.0
 11
11331.60162798447
 21
610.4060611609829
 31
0.0
  0
ARC
  5
24886
330
2461D
100
AcDbEntity
  8
YODOROGO
100
AcDbCircle
 10
11336.27206076301
 20
700.8321431073384
 30
0.0
 40
120.5166136069605
100
AcDbArc
 50
228.6181454618993
 51
245.660289248906
  0
LINE
  5
24887
330
2461D
100
AcDbEntity
  8
YODOROGO
100
AcDbLine
 10
11289.60162798447
 20
601.4060611609833
 30
0.0
 11
11286.60162798448
 21
591.0273059512126
 31
0.0
  0
LINE
  5
24888
330
2461D
100
AcDbEntity
  8
YODOROGO
100
AcDbLine
 10
11321.10162798447
 20
601.4060611609833
 30
0.0
 11
11289.60162798447
 21
601.4060611609833
 31
0.0
  0
LINE
  5
24889
330
2461D
100
AcDbEntity
  8
YODOROGO
100
AcDbLine
 10
11316.60162798447
 20
581.9316459275352
 30
0.0
 11
11321.10162798447
 21
601.4060611609833
 31
0.0
  0
ARC
  5
2488A
330
2461D
100
AcDbEntity
  8
YODOROGO
100
AcDbCircle
 10
11336.27206076267
 20
700.832143107376
 30
0.0
 40
120.516613606984
100
AcDbArc
 50
260.6062929796992
 51
267.7790355655586
  0
LINE
  5
2488B
330
2461D
100
AcDbEntity
  8
YODOROGO
100
AcDbLine
 10
11331.60162798447
 20
535.4060611609821
 30
0.0
 11
11331.60162798447
 21
580.406061160983
 31
0.0
  0
LINE
  5
2488C
330
2461D
100
AcDbEntity
  8
YODOROGO
100
AcDbLine
 10
11226.60162798446
 20
555.5022505933164
 30
0.0
 11
11226.60162798446
 21
597.949158949178
 31
0.0
  0
LINE
  5
2488D
330
2461D
100
AcDbEntity
  8
YODOROGO
100
AcDbLine
 10
11412.60162798447
 20
590.1560611609832
 30
0.0
 11
11393.10162798446
 21
590.1560611609832
 31
0.0
  0
LINE
  5
2488E
330
2461D
100
AcDbEntity
  8
YODOROGO
100
AcDbLine
 10
11412.60162798447
 20
600.6560611609824
 30
0.0
 11
11412.60162798447
 21
590.1560611609832
 31
0.0
  0
LINE
  5
2488F
330
2461D
100
AcDbEntity
  8
YODOROGO
100
AcDbLine
 10
11393.10162798446
 20
600.6560611609824
 30
0.0
 11
11412.60162798447
 21
600.6560611609824
 31
0.0
  0
LINE
  5
24890
330
2461D
100
AcDbEntity
  8
YODOROGO
100
AcDbLine
 10
11393.10162798446
 20
590.1560611609832
 30
0.0
 11
11393.10162798446
 21
600.6560611609824
 31
0.0
  0
LINE
  5
24891
330
2461D
100
AcDbEntity
  8
YODOROGO
100
AcDbLine
 10
11411.10162798447
 20
591.6560611609829
 30
0.0
 11
11394.60162798447
 21
591.6560611609829
 31
0.0
  0
LINE
  5
24892
330
2461D
100
AcDbEntity
  8
YODOROGO
100
AcDbLine
 10
11411.10162798447
 20
599.156061160983
 30
0.0
 11
11411.10162798447
 21
591.6560611609829
 31
0.0
  0
LINE
  5
24893
330
2461D
100
AcDbEntity
  8
YODOROGO
100
AcDbLine
 10
11394.60162798447
 20
599.156061160983
 30
0.0
 11
11411.10162798447
 21
599.156061160983
 31
0.0
  0
LINE
  5
24894
330
2461D
100
AcDbEntity
  8
YODOROGO
100
AcDbLine
 10
11394.60162798447
 20
591.6560611609829
 30
0.0
 11
11394.60162798447
 21
599.156061160983
 31
0.0
  0
LINE
  5
24895
330
2461D
100
AcDbEntity
  8
YODOROGO
100
AcDbLine
 10
11409.60162798447
 20
593.1560611609824
 30
0.0
 11
11396.10162798446
 21
593.1560611609824
 31
0.0
  0
LINE
  5
24896
330
2461D
100
AcDbEntity
  8
YODOROGO
100
AcDbLine
 10
11409.60162798447
 20
597.6560611609833
 30
0.0
 11
11409.60162798447
 21
593.1560611609824
 31
0.0
  0
LINE
  5
24897
330
2461D
100
AcDbEntity
  8
YODOROGO
100
AcDbLine
 10
11396.10162798446
 20
597.6560611609833
 30
0.0
 11
11409.60162798447
 21
597.6560611609833
 31
0.0
  0
LINE
  5
24898
330
2461D
100
AcDbEntity
  8
YODOROGO
100
AcDbLine
 10
11396.10162798446
 20
593.1560611609824
 30
0.0
 11
11396.10162798446
 21
597.6560611609833
 31
0.0
  0
LINE
  5
24899
330
2461D
100
AcDbEntity
  8
YODOROGO
100
AcDbLine
 10
11408.10162798447
 20
594.6560611609827
 30
0.0
 11
11397.60162798447
 21
594.6560611609827
 31
0.0
  0
LINE
  5
2489A
330
2461D
100
AcDbEntity
  8
YODOROGO
100
AcDbLine
 10
11408.10162798447
 20
596.1560611609829
 30
0.0
 11
11408.10162798447
 21
594.6560611609827
 31
0.0
  0
LINE
  5
2489B
330
2461D
100
AcDbEntity
  8
YODOROGO
100
AcDbLine
 10
11397.60162798447
 20
596.1560611609829
 30
0.0
 11
11408.10162798447
 21
596.1560611609829
 31
0.0
  0
LINE
  5
2489C
330
2461D
100
AcDbEntity
  8
YODOROGO
100
AcDbLine
 10
11397.60162798447
 20
594.6560611609827
 30
0.0
 11
11397.60162798447
 21
596.1560611609829
 31
0.0
  0
LINE
  5
2489D
330
2461D
100
AcDbEntity
  8
YODOROGO
100
AcDbLine
 10
11424.60162798446
 20
610.4060611609829
 30
0.0
 11
11393.10162798446
 21
610.4060611609829
 31
0.0
  0
LINE
  5
2489E
330
2461D
100
AcDbEntity
  8
YODOROGO
100
AcDbLine
 10
11424.60162798446
 20
580.406061160983
 30
0.0
 11
11424.60162798446
 21
610.4060611609829
 31
0.0
  0
LINE
  5
2489F
330
2461D
100
AcDbEntity
  8
YODOROGO
100
AcDbLine
 10
11393.10162798446
 20
580.406061160983
 30
0.0
 11
11424.60162798446
 21
580.406061160983
 31
0.0
  0
LINE
  5
248A0
330
2461D
100
AcDbEntity
  8
YODOROGO
100
AcDbLine
 10
11393.10162798446
 20
535.4060611609829
 30
0.0
 11
11393.10162798446
 21
580.406061160983
 31
0.0
  0
LINE
  5
248A1
330
2461D
100
AcDbEntity
  8
YODOROGO
100
AcDbLine
 10
11451.60162798447
 20
535.4060611609829
 30
0.0
 11
11393.10162798446
 21
535.4060611609829
 31
0.0
  0
LINE
  5
248A2
330
2461D
100
AcDbEntity
  8
YODOROGO
100
AcDbLine
 10
11463.60162798446
 20
589.4060611609823
 30
0.0
 11
11463.60162798446
 21
599.9060611609831
 31
0.0
  0
ARC
  5
248A3
330
2461D
100
AcDbEntity
  8
YODOROGO
100
AcDbCircle
 10
11454.60162798446
 20
589.4060611609843
 30
0.0
 40
9.000000000001408
100
AcDbArc
 50
270.0
 51
359.9999999999877
  0
LINE
  5
248A4
330
2461D
100
AcDbEntity
  8
YODOROGO
100
AcDbLine
 10
11448.60162798446
 20
580.406061160983
 30
0.0
 11
11454.60162798446
 21
580.406061160983
 31
0.0
  0
LINE
  5
248A5
330
2461D
100
AcDbEntity
  8
YODOROGO
100
AcDbLine
 10
11448.60162798446
 20
610.4060611609829
 30
0.0
 11
11448.60162798446
 21
580.406061160983
 31
0.0
  0
LINE
  5
248A6
330
2461D
100
AcDbEntity
  8
YODOROGO
100
AcDbLine
 10
11587.35162798447
 20
580.406061160983
 30
0.0
 11
11597.10162798446
 21
580.406061160983
 31
0.0
  0
LINE
  5
248A7
330
2461D
100
AcDbEntity
  8
YODOROGO
100
AcDbLine
 10
11600.10162798446
 20
535.4060611609829
 30
0.0
 11
11587.35162798447
 21
535.4060611609829
 31
0.0
  0
LINE
  5
248A8
330
2461D
100
AcDbEntity
  8
YODOROGO
100
AcDbLine
 10
11536.35162798447
 20
586.4060611609825
 30
0.0
 11
11546.85162798447
 21
586.4060611609825
 31
0.0
  0
LINE
  5
248A9
330
2461D
100
AcDbEntity
  8
YODOROGO
100
AcDbLine
 10
11587.35162798447
 20
559.4060611609831
 30
0.0
 11
11521.35162798447
 21
559.4060611609831
 31
0.0
  0
LINE
  5
248AA
330
2461D
100
AcDbEntity
  8
YODOROGO
100
AcDbLine
 10
11561.85162798446
 20
586.4060611609825
 30
0.0
 11
11572.35162798446
 21
586.4060611609825
 31
0.0
  0
LINE
  5
248AB
330
2461D
100
AcDbEntity
  8
YODOROGO
100
AcDbLine
 10
11587.35162798447
 20
535.4060611609829
 30
0.0
 11
11587.35162798447
 21
580.406061160983
 31
0.0
  0
LINE
  5
248AC
330
2461D
100
AcDbEntity
  8
YODOROGO
100
AcDbLine
 10
11511.60162798447
 20
535.4060611609829
 30
0.0
 11
11492.10162798447
 21
535.4060611609829
 31
0.0
  0
LINE
  5
248AD
330
2461D
100
AcDbEntity
  8
YODOROGO
100
AcDbLine
 10
11481.60162798447
 20
599.9060611609831
 30
0.0
 11
11481.60162798447
 21
565.4060611609828
 31
0.0
  0
ARC
  5
248AE
330
2461D
100
AcDbEntity
  8
YODOROGO
100
AcDbCircle
 10
11600.10162798446
 20
550.4060611609828
 30
0.0
 40
15.0
100
AcDbArc
 50
270.0
 51
0.0
  0
LINE
  5
248AF
330
2461D
100
AcDbEntity
  8
YODOROGO
100
AcDbLine
 10
11660.10162798446
 20
571.4060611609824
 30
0.0
 11
11660.10162798446
 21
535.4060611609829
 31
0.0
  0
ARC
  5
248B0
330
2461D
100
AcDbEntity
  8
YODOROGO
100
AcDbCircle
 10
11639.89552333754
 20
614.0742712911499
 30
0.0
 40
47.21083372187828
100
AcDbArc
 50
295.3405244216011
 51
359.1890230341867
  0
LINE
  5
248B1
330
2461D
100
AcDbEntity
  8
YODOROGO
100
AcDbLine
 10
11481.60162798447
 20
697.406061160983
 30
0.0
 11
11436.60162798447
 21
727.4060611609828
 31
0.0
  0
LINE
  5
248B2
330
2461D
100
AcDbEntity
  8
YODOROGO
100
AcDbLine
 10
11436.60162798447
 20
760.4060611609829
 30
0.0
 11
11481.60162798447
 21
730.4060611609828
 31
0.0
  0
LINE
  5
248B3
330
2461D
100
AcDbEntity
  8
YODOROGO
100
AcDbLine
 10
11448.60162798446
 20
629.9060611609831
 30
0.0
 11
11481.60162798447
 21
629.9060611609831
 31
0.0
  0
LINE
  5
248B4
330
2461D
100
AcDbEntity
  8
YODOROGO
100
AcDbLine
 10
11481.60162798447
 20
650.9060611609827
 30
0.0
 11
11448.60162798446
 21
650.9060611609827
 31
0.0
  0
LINE
  5
248B5
330
2461D
100
AcDbEntity
  8
YODOROGO
100
AcDbLine
 10
11393.10162798446
 20
673.4060611609827
 30
0.0
 11
11481.60162798447
 21
673.4060611609827
 31
0.0
  0
LINE
  5
248B6
330
2461D
100
AcDbEntity
  8
YODOROGO
100
AcDbLine
 10
11280.60162798447
 20
760.4060611609829
 30
0.0
 11
11258.10162798447
 21
760.4060611609829
 31
0.0
  0
LINE
  5
248B7
330
2461D
100
AcDbEntity
  8
YODOROGO
100
AcDbLine
 10
11280.60162798447
 20
685.4060611609829
 30
0.0
 11
11280.60162798447
 21
760.4060611609829
 31
0.0
  0
LINE
  5
248B8
330
2461D
100
AcDbEntity
  8
YODOROGO
100
AcDbLine
 10
11258.10162798447
 20
685.4060611609829
 30
0.0
 11
11280.60162798447
 21
685.4060611609829
 31
0.0
  0
LINE
  5
248B9
330
2461D
100
AcDbEntity
  8
YODOROGO
100
AcDbLine
 10
11258.10162798447
 20
760.4060611609829
 30
0.0
 11
11258.10162798447
 21
685.4060611609829
 31
0.0
  0
LINE
  5
248BA
330
2461D
100
AcDbEntity
  8
YODOROGO
100
AcDbLine
 10
11310.60162798447
 20
760.4060611609829
 30
0.0
 11
11331.60162798447
 21
760.4060611609829
 31
0.0
  0
LINE
  5
248BB
330
2461D
100
AcDbEntity
  8
YODOROGO
100
AcDbLine
 10
11310.60162798447
 20
679.4060611609832
 30
0.0
 11
11310.60162798447
 21
760.4060611609829
 31
0.0
  0
ARC
  5
248BC
330
2461D
100
AcDbEntity
  8
YODOROGO
100
AcDbCircle
 10
11295.60162798447
 20
679.4060611609832
 30
0.0
 40
15.0
100
AcDbArc
 50
270.0
 51
0.0
  0
LINE
  5
248BD
330
2461D
100
AcDbEntity
  8
YODOROGO
100
AcDbLine
 10
11258.10162798447
 20
664.4060611609833
 30
0.0
 11
11295.60162798447
 21
664.4060611609833
 31
0.0
  0
LINE
  5
248BE
330
2461D
100
AcDbEntity
  8
YODOROGO
100
AcDbLine
 10
11258.10162798447
 20
640.4060611609828
 30
0.0
 11
11258.10162798447
 21
664.4060611609833
 31
0.0
  0
LINE
  5
248BF
330
2461D
100
AcDbEntity
  8
YODOROGO
100
AcDbLine
 10
11301.60162798446
 20
640.4060611609828
 30
0.0
 11
11258.10162798447
 21
640.4060611609828
 31
0.0
  0
ARC
  5
248C0
330
2461D
100
AcDbEntity
  8
YODOROGO
100
AcDbCircle
 10
11301.60162798446
 20
670.4060611609828
 30
0.0
 40
30.0
100
AcDbArc
 50
270.0
 51
0.0
  0
LINE
  5
248C1
330
2461D
100
AcDbEntity
  8
YODOROGO
100
AcDbLine
 10
11331.60162798447
 20
760.4060611609829
 30
0.0
 11
11331.60162798447
 21
670.4060611609828
 31
0.0
  0
LINE
  5
248C2
330
2461D
100
AcDbEntity
  8
YODOROGO
100
AcDbLine
 10
11241.60162798446
 20
730.4060611609828
 30
0.0
 11
11241.60162798446
 21
748.4060611609828
 31
0.0
1001
AUTOCAD_POSTSCRIPT_FIGURE
1002
{
1000
PSFILL
1000
Grayscale
1000
Grayscale
1070
    25
1002
}
  0
LINE
  5
248C3
330
2461D
100
AcDbEntity
  8
YODOROGO
100
AcDbLine
 10
11241.60162798446
 20
697.406061160983
 30
0.0
 11
11241.60162798446
 21
715.4060611609828
 31
0.0
1001
AUTOCAD_POSTSCRIPT_FIGURE
1002
{
1000
PSFILL
1000
Grayscale
1000
Grayscale
1070
    25
1002
}
  0
LINE
  5
248C4
330
2461D
100
AcDbEntity
  8
YODOROGO
100
AcDbLine
 10
11241.60162798446
 20
640.4060611609828
 30
0.0
 11
11241.60162798446
 21
682.4060611609829
 31
0.0
1001
AUTOCAD_POSTSCRIPT_FIGURE
1002
{
1000
PSFILL
1000
Grayscale
1000
Grayscale
1070
    25
1002
}
  0
LINE
  5
248C5
330
2461D
100
AcDbEntity
  8
YODOROGO
100
AcDbLine
 10
11393.10162798446
 20
715.4060611609828
 30
0.0
 11
11436.60162798447
 21
760.4060611609829
 31
0.0
  0
LINE
  5
248C6
330
2461D
100
AcDbEntity
  8
YODOROGO
100
AcDbLine
 10
11393.10162798446
 20
682.4060611609829
 30
0.0
 11
11393.10162798446
 21
715.4060611609828
 31
0.0
  0
LINE
  5
248C7
330
2461D
100
AcDbEntity
  8
YODOROGO
100
AcDbLine
 10
11436.60162798447
 20
727.4060611609828
 30
0.0
 11
11393.10162798446
 21
682.4060611609829
 31
0.0
  0
LINE
  5
248C8
330
2461D
100
AcDbEntity
  8
YODOROGO
100
AcDbLine
 10
11424.60162798446
 20
629.9060611609831
 30
0.0
 11
11424.60162798446
 21
650.9060611609827
 31
0.0
  0
LINE
  5
248C9
330
2461D
100
AcDbEntity
  8
YODOROGO
100
AcDbLine
 10
11393.10162798446
 20
629.9060611609831
 30
0.0
 11
11424.60162798446
 21
629.9060611609831
 31
0.0
  0
LINE
  5
248CA
330
2461D
100
AcDbEntity
  8
YODOROGO
100
AcDbLine
 10
11448.60162798446
 20
650.9060611609827
 30
0.0
 11
11448.60162798446
 21
629.9060611609831
 31
0.0
  0
LINE
  5
248CB
330
2461D
100
AcDbEntity
  8
YODOROGO
100
AcDbLine
 10
11393.10162798446
 20
650.9060611609827
 30
0.0
 11
11393.10162798446
 21
673.4060611609827
 31
0.0
  0
LINE
  5
248CC
330
2461D
100
AcDbEntity
  8
YODOROGO
100
AcDbLine
 10
11424.60162798446
 20
650.9060611609827
 30
0.0
 11
11393.10162798446
 21
650.9060611609827
 31
0.0
  0
LINE
  5
248CD
330
2461D
100
AcDbEntity
  8
YODOROGO
100
AcDbLine
 10
11492.10162798447
 20
760.4060611609829
 30
0.0
 11
11615.10162798446
 21
760.4060611609829
 31
0.0
  0
LINE
  5
248CE
330
2461D
100
AcDbEntity
  8
YODOROGO
100
AcDbLine
 10
11597.10162798446
 20
736.4060611609825
 30
0.0
 11
11511.60162798447
 21
736.4060611609825
 31
0.0
  0
LINE
  5
248CF
330
2461D
100
AcDbEntity
  8
YODOROGO
100
AcDbLine
 10
11577.60162798447
 20
682.4060611609829
 30
0.0
 11
11587.35162798447
 21
682.4060611609829
 31
0.0
  0
LINE
  5
248D0
330
2461D
100
AcDbEntity
  8
YODOROGO
100
AcDbLine
 10
11587.35162798447
 20
727.4060611609828
 30
0.0
 11
11577.60162798447
 21
682.4060611609829
 31
0.0
  0
LINE
  5
248D1
330
2461D
100
AcDbEntity
  8
YODOROGO
100
AcDbLine
 10
11569.35162798446
 20
727.4060611609828
 30
0.0
 11
11587.35162798447
 21
727.4060611609828
 31
0.0
  0
LINE
  5
248D2
330
2461D
100
AcDbEntity
  8
YODOROGO
100
AcDbLine
 10
11559.60162798447
 20
682.4060611609829
 30
0.0
 11
11569.35162798446
 21
727.4060611609828
 31
0.0
  0
LINE
  5
248D3
330
2461D
100
AcDbEntity
  8
YODOROGO
100
AcDbLine
 10
11549.10162798447
 20
682.4060611609829
 30
0.0
 11
11559.60162798447
 21
682.4060611609829
 31
0.0
  0
LINE
  5
248D4
330
2461D
100
AcDbEntity
  8
YODOROGO
100
AcDbLine
 10
11539.35162798447
 20
727.4060611609828
 30
0.0
 11
11549.10162798447
 21
682.4060611609829
 31
0.0
  0
LINE
  5
248D5
330
2461D
100
AcDbEntity
  8
YODOROGO
100
AcDbLine
 10
11521.35162798447
 20
727.4060611609828
 30
0.0
 11
11539.35162798447
 21
727.4060611609828
 31
0.0
  0
LINE
  5
248D6
330
2461D
100
AcDbEntity
  8
YODOROGO
100
AcDbLine
 10
11531.10162798447
 20
682.4060611609829
 30
0.0
 11
11521.35162798447
 21
727.4060611609828
 31
0.0
  0
LINE
  5
248D7
330
2461D
100
AcDbEntity
  8
YODOROGO
100
AcDbLine
 10
11521.35162798447
 20
682.4060611609829
 30
0.0
 11
11531.10162798447
 21
682.4060611609829
 31
0.0
  0
LINE
  5
248D8
330
2461D
100
AcDbEntity
  8
YODOROGO
100
AcDbLine
 10
11521.35162798447
 20
658.4060611609827
 30
0.0
 11
11521.35162798447
 21
682.4060611609829
 31
0.0
  0
LINE
  5
248D9
330
2461D
100
AcDbEntity
  8
YODOROGO
100
AcDbLine
 10
11587.35162798447
 20
658.4060611609827
 30
0.0
 11
11521.35162798447
 21
658.4060611609827
 31
0.0
  0
LINE
  5
248DA
330
2461D
100
AcDbEntity
  8
YODOROGO
100
AcDbLine
 10
11587.35162798447
 20
682.4060611609829
 30
0.0
 11
11587.35162798447
 21
658.4060611609827
 31
0.0
  0
LINE
  5
248DB
330
2461D
100
AcDbEntity
  8
YODOROGO
100
AcDbLine
 10
11481.60162798447
 20
730.4060611609828
 30
0.0
 11
11481.60162798447
 21
697.406061160983
 31
0.0
  0
LINE
  5
248DC
330
2461D
100
AcDbEntity
  8
YODOROGO
100
AcDbLine
 10
11546.85162798447
 20
658.4060611609827
 30
0.0
 11
11561.85162798446
 21
658.4060611609827
 31
0.0
  0
LINE
  5
248DD
330
2461D
100
AcDbEntity
  8
YODOROGO
100
AcDbLine
 10
11521.35162798447
 20
634.4060611609833
 30
0.0
 11
11536.35162798447
 21
634.4060611609833
 31
0.0
  0
LINE
  5
248DE
330
2461D
100
AcDbEntity
  8
YODOROGO
100
AcDbLine
 10
11572.35162798446
 20
634.4060611609833
 30
0.0
 11
11587.35162798447
 21
634.4060611609833
 31
0.0
  0
LINE
  5
248DF
330
2461D
100
AcDbEntity
  8
YODOROGO
100
AcDbLine
 10
11481.60162798447
 20
673.4060611609827
 30
0.0
 11
11481.60162798447
 21
650.9060611609827
 31
0.0
  0
LINE
  5
248E0
330
2461D
100
AcDbEntity
  8
YODOROGO
100
AcDbLine
 10
11687.10162798447
 20
760.4060611609829
 30
0.0
 11
11687.10162798447
 21
736.4060611609825
 31
0.0
  0
LINE
  5
248E1
330
2461D
100
AcDbEntity
  8
YODOROGO
100
AcDbLine
 10
11825.10162798447
 20
598.4060611609827
 30
0.0
 11
11825.10162798446
 21
679.4060611609832
 31
0.0
  0
LINE
  5
248E2
330
2461D
100
AcDbEntity
  8
YODOROGO
100
AcDbLine
 10
11798.10162798446
 20
745.4060611609828
 30
0.0
 11
11798.10162798446
 21
613.4060611609827
 31
0.0
  0
LINE
  5
248E3
330
2461D
100
AcDbEntity
  8
YODOROGO
100
AcDbLine
 10
11870.10162798447
 20
535.4060611609829
 30
0.0
 11
11870.10162798446
 21
679.4060611609832
 31
0.0
  0
LINE
  5
248E4
330
2461D
100
AcDbEntity
  8
YODOROGO
100
AcDbLine
 10
11846.10162798447
 20
679.4060611609832
 30
0.0
 11
11846.10162798447
 21
535.4060611609829
 31
0.0
  0
LINE
  5
248E5
330
2461D
100
AcDbEntity
  8
YODOROGO
100
AcDbLine
 10
11714.10162798447
 20
598.4060611609827
 30
0.0
 11
11714.10162798447
 21
640.4060611609828
 31
0.0
  0
ARC
  5
248E6
330
2461D
100
AcDbEntity
  8
YODOROGO
100
AcDbCircle
 10
11757.71807441852
 20
602.921381733209
 30
0.0
 40
67.53466821599572
100
AcDbArc
 50
268.6284910216979
 51
356.1663845733032
  0
LINE
  5
248E7
330
2461D
100
AcDbEntity
  8
YODOROGO
100
AcDbLine
 10
11756.10162798446
 20
572.9060611609829
 30
0.0
 11
11756.10162798446
 21
535.4060611609829
 31
0.0
  0
ARC
  5
248E8
330
2461D
100
AcDbEntity
  8
YODOROGO
100
AcDbCircle
 10
11756.81927839671
 20
614.1896088816206
 30
0.0
 40
41.28978486885457
100
AcDbArc
 50
269.0041020930593
 51
358.9126445549248
  0
LINE
  5
248E9
330
2461D
100
AcDbEntity
  8
YODOROGO
100
AcDbLine
 10
11846.10162798447
 20
535.4060611609829
 30
0.0
 11
11870.10162798447
 21
535.4060611609829
 31
0.0
  0
LINE
  5
248EA
330
2461D
100
AcDbEntity
  8
YODOROGO
100
AcDbLine
 10
11825.10162798446
 20
679.4060611609832
 30
0.0
 11
11846.10162798447
 21
679.4060611609832
 31
0.0
  0
LINE
  5
248EB
330
2461D
100
AcDbEntity
  8
YODOROGO
100
AcDbLine
 10
11858.10162798446
 20
745.4060611609828
 30
0.0
 11
11798.10162798446
 21
745.4060611609828
 31
0.0
  0
LINE
  5
248EC
330
2461D
100
AcDbEntity
  8
YODOROGO
100
AcDbLine
 10
11825.10162798446
 20
718.4060611609829
 30
0.0
 11
11873.10162798447
 21
718.4060611609829
 31
0.0
  0
LINE
  5
248ED
330
2461D
100
AcDbEntity
  8
YODOROGO
100
AcDbLine
 10
11888.10162798447
 20
703.4060611609828
 30
0.0
 11
11825.10162798446
 21
703.4060611609828
 31
0.0
  0
LINE
  5
248EE
330
2461D
100
AcDbEntity
  8
YODOROGO
100
AcDbLine
 10
11714.10162798447
 20
667.4060611609831
 30
0.0
 11
11756.10162798446
 21
667.4060611609831
 31
0.0
  0
LINE
  5
248EF
330
2461D
100
AcDbEntity
  8
YODOROGO
100
AcDbLine
 10
11714.10162798447
 20
688.4060611609828
 30
0.0
 11
11714.10162798447
 21
667.4060611609831
 31
0.0
  0
LINE
  5
248F0
330
2461D
100
AcDbEntity
  8
YODOROGO
100
AcDbLine
 10
11756.10162798446
 20
688.4060611609828
 30
0.0
 11
11714.10162798447
 21
688.4060611609828
 31
0.0
  0
LINE
  5
248F1
330
2461D
100
AcDbEntity
  8
YODOROGO
100
AcDbLine
 10
11756.10162798446
 20
667.4060611609831
 30
0.0
 11
11756.10162798446
 21
688.4060611609828
 31
0.0
  0
LINE
  5
248F2
330
2461D
100
AcDbEntity
  8
YODOROGO
100
AcDbLine
 10
11825.10162798446
 20
703.4060611609828
 30
0.0
 11
11825.10162798446
 21
718.4060611609829
 31
0.0
  0
LINE
  5
248F3
330
2461D
100
AcDbEntity
  8
YODOROGO
100
AcDbLine
 10
11780.10162798446
 20
640.4060611609828
 30
0.0
 11
11780.10162798446
 21
715.4060611609828
 31
0.0
  0
LINE
  5
248F4
330
2461D
100
AcDbEntity
  8
YODOROGO
100
AcDbLine
 10
11714.10162798447
 20
640.4060611609828
 30
0.0
 11
11780.10162798446
 21
640.4060611609828
 31
0.0
  0
LINE
  5
248F5
330
2461D
100
AcDbEntity
  8
YODOROGO
100
AcDbLine
 10
11780.10162798446
 20
736.4060611609825
 30
0.0
 11
11780.10162798446
 21
760.4060611609829
 31
0.0
  0
ARC
  5
248F6
330
2461D
100
AcDbEntity
  8
YODOROGO
100
AcDbCircle
 10
11858.10162798446
 20
751.4060611609817
 30
0.0
 40
5.999999999997952
100
AcDbArc
 50
270.0
 51
0.0000000000081422
  0
LINE
  5
248F7
330
2461D
100
AcDbEntity
  8
YODOROGO
100
AcDbLine
 10
11864.10162798447
 20
760.4060611609829
 30
0.0
 11
11864.10162798447
 21
751.4060611609825
 31
0.0
  0
LINE
  5
248F8
330
2461D
100
AcDbEntity
  8
YODOROGO
100
AcDbLine
 10
11888.10162798447
 20
760.4060611609829
 30
0.0
 11
11864.10162798447
 21
760.4060611609829
 31
0.0
  0
LINE
  5
248F9
330
2461D
100
AcDbEntity
  8
YODOROGO
100
AcDbLine
 10
11888.10162798447
 20
733.4060611609828
 30
0.0
 11
11888.10162798447
 21
760.4060611609829
 31
0.0
  0
ARC
  5
248FA
330
2461D
100
AcDbEntity
  8
YODOROGO
100
AcDbCircle
 10
11873.10162798447
 20
733.4060611609828
 30
0.0
 40
15.0
100
AcDbArc
 50
270.0
 51
0.0
  0
LINE
  5
248FB
330
2461D
100
AcDbEntity
  8
YODOROGO
100
AcDbLine
 10
11888.10162798447
 20
679.4060611609832
 30
0.0
 11
11888.10162798447
 21
703.4060611609828
 31
0.0
  0
LINE
  5
248FC
330
2461D
100
AcDbEntity
  8
YODOROGO
100
AcDbLine
 10
11870.10162798446
 20
679.4060611609832
 30
0.0
 11
11888.10162798447
 21
679.4060611609832
 31
0.0
  0
LINE
  5
248FD
330
2461D
100
AcDbEntity
  8
SUNPOU
100
AcDbLine
 10
2254.03670734087
 20
1586.712525199589
 30
0.0
 11
3706.536707340871
 21
1586.712525199589
 31
0.0
  0
LINE
  5
248FE
330
2461D
100
AcDbEntity
  8
SUNPOU
100
AcDbLine
 10
2254.036707340869
 20
1436.712525199591
 30
0.0
 11
3706.536707340871
 21
1436.712525199591
 31
0.0
  0
LINE
  5
248FF
330
2461D
100
AcDbEntity
  8
SUNPOU
100
AcDbLine
 10
3661.536707340871
 20
1571.712525199589
 30
0.0
 11
3661.536707340871
 21
1451.712525199591
 31
0.0
  0
LINE
  5
24900
330
2461D
100
AcDbEntity
  8
SUNPOU
100
AcDbLine
 10
3661.536707340871
 20
1436.712525199591
 30
0.0
 11
3661.536707340871
 21
1185.998239485305
 31
0.0
  0
LINE
  5
24901
330
2461D
100
AcDbEntity
  8
SUNPOU
100
AcDbLine
 10
3491.536707340871
 20
2336.712525199591
 30
0.0
 11
3706.536707340871
 21
2336.712525199591
 31
0.0
  0
LINE
  5
24902
330
2461D
100
AcDbEntity
  8
SUNPOU
100
AcDbLine
 10
2254.03670734087
 20
1586.712525199591
 30
0.0
 11
3706.536707340871
 21
1586.712525199591
 31
0.0
  0
LINE
  5
24903
330
2461D
100
AcDbEntity
  8
SUNPOU
100
AcDbLine
 10
3661.536707340871
 20
2321.712525199592
 30
0.0
 11
3661.536707340871
 21
1601.712525199592
 31
0.0
  0
LINE
  5
24904
330
2461D
100
AcDbEntity
  8
SUNPOU
100
AcDbLine
 10
1024.036707340868
 20
1406.712525199591
 30
0.0
 11
1024.036707340868
 21
1061.712525199589
 31
0.0
  0
LINE
  5
24905
330
2461D
100
AcDbEntity
  8
SUNPOU
100
AcDbLine
 10
2074.036707340868
 20
1406.712525199591
 30
0.0
 11
2074.036707340868
 21
1061.712525199589
 31
0.0
  0
LINE
  5
24906
330
2461D
100
AcDbEntity
  8
SUNPOU
100
AcDbLine
 10
1039.036707340869
 20
1106.712525199589
 30
0.0
 11
2059.036707340868
 21
1106.712525199589
 31
0.0
  0
LINE
  5
24907
330
2461D
100
AcDbEntity
  8
SUNPOU
100
AcDbLine
 10
874.0367073408688
 20
1406.712525199591
 30
0.0
 11
874.0367073408688
 21
851.7125251995903
 31
0.0
  0
LINE
  5
24908
330
2461D
100
AcDbEntity
  8
SUNPOU
100
AcDbLine
 10
2224.036707340868
 20
1406.712525199591
 30
0.0
 11
2224.036707340868
 21
851.7125251995903
 31
0.0
  0
LINE
  5
24909
330
2461D
100
AcDbEntity
  8
SUNPOU
100
AcDbLine
 10
889.0367073408686
 20
896.7125251995904
 30
0.0
 11
2209.036707340869
 21
896.7125251995904
 31
0.0
  0
LINE
  5
2490A
330
2461D
100
AcDbEntity
  8
SUNPOU
100
AcDbLine
 10
12020.34064133493
 20
8088.87747860906
 30
0.0
 11
12020.34064133493
 21
8077.627478609063
 31
0.0
  0
LINE
  5
2490B
330
2461D
100
AcDbEntity
  8
SUNPOU
100
AcDbLine
 10
11810.34064133493
 20
8088.87747860906
 30
0.0
 11
11810.34064133493
 21
8077.627478609063
 31
0.0
  0
LINE
  5
2490C
330
2461D
100
AcDbEntity
  8
SUNPOU
100
AcDbLine
 10
11600.34064133492
 20
7038.877478609062
 30
0.0
 11
11600.34064133492
 21
7027.627478609064
 31
0.0
  0
LINE
  5
2490D
330
2461D
100
AcDbEntity
  8
SUNPOU
100
AcDbLine
 10
11810.34064133493
 20
6711.377478609063
 30
0.0
 11
11810.34064133493
 21
6722.627478609064
 31
0.0
  0
LINE
  5
2490E
330
2461D
100
AcDbEntity
  8
SUNPOU
100
AcDbLine
 10
11810.34064133493
 20
6688.877478609064
 30
0.0
 11
11810.34064133493
 21
6677.627478609064
 31
0.0
  0
LINE
  5
2490F
330
2461D
100
AcDbEntity
  8
SUNPOU
100
AcDbLine
 10
11810.34064133493
 20
6688.877478609064
 30
0.0
 11
11810.34064133493
 21
6677.627478609064
 31
0.0
  0
LINE
  5
24910
330
2461D
100
AcDbEntity
  8
SUNPOU
100
AcDbLine
 10
11600.34064133492
 20
6361.377478609064
 30
0.0
 11
11600.34064133492
 21
6372.627478609063
 31
0.0
  0
LINE
  5
24911
330
2461D
100
AcDbEntity
  8
SUNPOU
100
AcDbLine
 10
11161.04665690041
 20
6748.877478609063
 30
0.0
 11
11161.04665690041
 21
6760.127478609064
 31
0.0
  0
LINE
  5
24912
330
2461D
100
AcDbEntity
  8
SUNPOU
100
AcDbLine
 10
11161.04665690041
 20
6673.877478609063
 30
0.0
 11
11161.04665690041
 21
6685.127478609064
 31
0.0
  0
LINE
  5
24913
330
2461D
100
AcDbEntity
  8
SUNPOU
100
AcDbLine
 10
11289.09064133492
 20
6050.127478609063
 30
0.0
 11
11277.84064133493
 21
6050.127478609063
 31
0.0
  0
LINE
  5
24914
330
2461D
100
AcDbEntity
  8
SUNPOU
100
AcDbLine
 10
10971.59064133492
 20
6486.184634723412
 30
0.0
 11
10960.34064133492
 21
6486.184634723412
 31
0.0
  0
LINE
  5
24915
330
2461D
100
AcDbEntity
  8
SUNPOU
100
AcDbLine
 10
10906.59064133492
 20
6486.184634723412
 30
0.0
 11
10895.34064133492
 21
6486.184634723412
 31
0.0
  0
LINE
  5
24916
330
2461D
100
AcDbEntity
  8
SUNPOU
100
AcDbLine
 10
10611.59064133492
 20
6050.127478609063
 30
0.0
 11
10622.84064133492
 21
6050.127478609063
 31
0.0
  0
LINE
  5
24917
330
2461D
100
AcDbEntity
  8
SUNPOU
100
AcDbLine
 10
11600.34064133492
 20
4978.877478609064
 30
0.0
 11
11600.34064133492
 21
4967.627478609063
 31
0.0
  0
LINE
  5
24918
330
2461D
100
AcDbEntity
  8
SUNPOU
100
AcDbLine
 10
11810.34064133493
 20
4651.377478609063
 30
0.0
 11
11810.34064133493
 21
4662.627478609063
 31
0.0
  0
LINE
  5
24919
330
2461D
100
AcDbEntity
  8
SUNPOU
100
AcDbLine
 10
11810.34064133493
 20
4651.377478609063
 30
0.0
 11
11810.34064133493
 21
4662.627478609063
 31
0.0
  0
LINE
  5
2491A
330
2461D
100
AcDbEntity
  8
SUNPOU
100
AcDbLine
 10
11810.34064133493
 20
4628.877478609063
 30
0.0
 11
11810.34064133493
 21
4617.627478609064
 31
0.0
  0
LINE
  5
2491B
330
2461D
100
AcDbEntity
  8
SUNPOU
100
AcDbLine
 10
11161.04665690041
 20
4688.877478609064
 30
0.0
 11
11161.04665690041
 21
4700.127478609063
 31
0.0
  0
LINE
  5
2491C
330
2461D
100
AcDbEntity
  8
SUNPOU
100
AcDbLine
 10
11161.04665690041
 20
4613.877478609063
 30
0.0
 11
11161.04665690041
 21
4625.127478609063
 31
0.0
  0
LINE
  5
2491D
330
2461D
100
AcDbEntity
  8
SUNPOU
100
AcDbLine
 10
11600.34064133492
 20
4301.377478609063
 30
0.0
 11
11600.34064133492
 21
4312.627478609063
 31
0.0
  0
LINE
  5
2491E
330
2461D
100
AcDbEntity
  8
SUNPOU
100
AcDbLine
 10
12020.34064133493
 20
3251.377478609063
 30
0.0
 11
12020.34064133493
 21
3262.627478609063
 31
0.0
  0
LINE
  5
2491F
330
2461D
100
AcDbEntity
  8
SUNPOU
100
AcDbLine
 10
11810.34064133493
 20
3251.377478609063
 30
0.0
 11
11810.34064133493
 21
3262.627478609063
 31
0.0
  0
LINE
  5
24920
330
2461D
100
AcDbEntity
  8
SUNPOU
100
AcDbLine
 10
11289.09064133492
 20
4065.127478609062
 30
0.0
 11
11277.84064133493
 21
4065.127478609062
 31
0.0
  0
LINE
  5
24921
330
2461D
100
AcDbEntity
  8
SUNPOU
100
AcDbLine
 10
10971.59064133492
 20
4426.184634723411
 30
0.0
 11
10960.34064133492
 21
4426.184634723411
 31
0.0
  0
LINE
  5
24922
330
2461D
100
AcDbEntity
  8
SUNPOU
100
AcDbLine
 10
10906.59064133492
 20
4426.184634723411
 30
0.0
 11
10895.34064133492
 21
4426.184634723411
 31
0.0
  0
LINE
  5
24923
330
2461D
100
AcDbEntity
  8
SUNPOU
100
AcDbLine
 10
10611.59064133492
 20
4065.127478609062
 30
0.0
 11
10622.84064133492
 21
4065.127478609062
 31
0.0
  0
LINE
  5
24924
330
2461D
100
AcDbEntity
  8
SUNPOU
100
AcDbLine
 10
11289.09064133492
 20
2840.127478609062
 30
0.0
 11
11277.84064133493
 21
2840.127478609062
 31
0.0
  0
LINE
  5
24925
330
2461D
100
AcDbEntity
  8
SUNPOU
100
AcDbLine
 10
11289.09064133492
 20
2630.127478609063
 30
0.0
 11
11277.84064133493
 21
2630.127478609063
 31
0.0
  0
LINE
  5
24926
330
2461D
100
AcDbEntity
  8
SUNPOU
100
AcDbLine
 10
10961.59064133492
 20
2840.127478609062
 30
0.0
 11
10972.84064133492
 21
2840.127478609062
 31
0.0
  0
LINE
  5
24927
330
2461D
100
AcDbEntity
  8
SUNPOU
100
AcDbLine
 10
10939.09064133492
 20
2840.127478609062
 30
0.0
 11
10927.84064133492
 21
2840.127478609062
 31
0.0
  0
LINE
  5
24928
330
2461D
100
AcDbEntity
  8
SUNPOU
100
AcDbLine
 10
7461.590641334931
 20
2840.127478609062
 30
0.0
 11
7472.84064133493
 21
2840.127478609062
 31
0.0
  0
LINE
  5
24929
330
2461D
100
AcDbEntity
  8
SUNPOU
100
AcDbLine
 10
7439.09064133493
 20
2840.127478609062
 30
0.0
 11
7427.84064133493
 21
2840.127478609062
 31
0.0
  0
LINE
  5
2492A
330
2461D
100
AcDbEntity
  8
SUNPOU
100
AcDbLine
 10
5761.59064133493
 20
2840.127478609062
 30
0.0
 11
5772.84064133493
 21
2840.127478609062
 31
0.0
  0
LINE
  5
2492B
330
2461D
100
AcDbEntity
  8
SUNPOU
100
AcDbLine
 10
5739.09064133493
 20
2840.127478609062
 30
0.0
 11
5727.840641334932
 21
2840.127478609062
 31
0.0
  0
LINE
  5
2492C
330
2461D
100
AcDbEntity
  8
SUNPOU
100
AcDbLine
 10
2261.590641334929
 20
2840.127478609062
 30
0.0
 11
2272.840641334929
 21
2840.127478609062
 31
0.0
  0
LINE
  5
2492D
330
2461D
100
AcDbEntity
  8
SUNPOU
100
AcDbLine
 10
2239.090641334928
 20
2840.127478609062
 30
0.0
 11
2227.840641334928
 21
2840.127478609062
 31
0.0
  0
LINE
  5
2492E
330
2461D
100
AcDbEntity
  8
SUNPOU
100
AcDbLine
 10
1911.590641334927
 20
2840.127478609062
 30
0.0
 11
1922.840641334929
 21
2840.127478609062
 31
0.0
  0
LINE
  5
2492F
330
2461D
100
AcDbEntity
  8
SUNPOU
100
AcDbLine
 10
1911.590641334927
 20
2630.127478609063
 30
0.0
 11
1922.840641334929
 21
2630.127478609063
 31
0.0
  0
ARC
  5
24930
330
2461D
100
AcDbEntity
  8
SUNPOU
100
AcDbCircle
 10
1900.340641334928
 20
2630.127478609063
 30
0.0
 40
5.625
100
AcDbArc
 50
0.0
 51
180.0
  0
ARC
  5
24931
330
2461D
100
AcDbEntity
  8
SUNPOU
100
AcDbCircle
 10
1900.340641334928
 20
2630.127478609063
 30
0.0
 40
5.625
100
AcDbArc
 50
180.0
 51
0.0
  0
ARC
  5
24932
330
2461D
100
AcDbEntity
  8
SUNPOU
100
AcDbCircle
 10
1900.340641334928
 20
2840.127478609062
 30
0.0
 40
5.625
100
AcDbArc
 50
0.0
 51
180.0
  0
ARC
  5
24933
330
2461D
100
AcDbEntity
  8
SUNPOU
100
AcDbCircle
 10
1900.340641334928
 20
2840.127478609062
 30
0.0
 40
5.625
100
AcDbArc
 50
180.0
 51
0.0
  0
ARC
  5
24934
330
2461D
100
AcDbEntity
  8
SUNPOU
100
AcDbCircle
 10
2250.340641334929
 20
2840.127478609062
 30
0.0
 40
5.625
100
AcDbArc
 50
180.0
 51
0.0
  0
ARC
  5
24935
330
2461D
100
AcDbEntity
  8
SUNPOU
100
AcDbCircle
 10
2250.340641334929
 20
2840.127478609062
 30
0.0
 40
5.625
100
AcDbArc
 50
0.0
 51
180.0
  0
ARC
  5
24936
330
2461D
100
AcDbEntity
  8
SUNPOU
100
AcDbCircle
 10
2250.340641334929
 20
2840.127478609062
 30
0.0
 40
5.625
100
AcDbArc
 50
0.0
 51
180.0
  0
ARC
  5
24937
330
2461D
100
AcDbEntity
  8
SUNPOU
100
AcDbCircle
 10
2250.340641334929
 20
2840.127478609062
 30
0.0
 40
5.625
100
AcDbArc
 50
180.0
 51
0.0
  0
ARC
  5
24938
330
2461D
100
AcDbEntity
  8
SUNPOU
100
AcDbCircle
 10
5750.34064133493
 20
2840.127478609062
 30
0.0
 40
5.625
100
AcDbArc
 50
180.0
 51
0.0
  0
ARC
  5
24939
330
2461D
100
AcDbEntity
  8
SUNPOU
100
AcDbCircle
 10
5750.34064133493
 20
2840.127478609062
 30
0.0
 40
5.625
100
AcDbArc
 50
0.0
 51
180.0
  0
ARC
  5
2493A
330
2461D
100
AcDbEntity
  8
SUNPOU
100
AcDbCircle
 10
5750.34064133493
 20
2840.127478609062
 30
0.0
 40
5.625
100
AcDbArc
 50
0.0
 51
180.0
  0
ARC
  5
2493B
330
2461D
100
AcDbEntity
  8
SUNPOU
100
AcDbCircle
 10
5750.34064133493
 20
2840.127478609062
 30
0.0
 40
5.625
100
AcDbArc
 50
180.0
 51
0.0
  0
ARC
  5
2493C
330
2461D
100
AcDbEntity
  8
SUNPOU
100
AcDbCircle
 10
7450.340641334931
 20
2840.127478609062
 30
0.0
 40
5.625
100
AcDbArc
 50
180.0
 51
0.0
  0
ARC
  5
2493D
330
2461D
100
AcDbEntity
  8
SUNPOU
100
AcDbCircle
 10
7450.340641334931
 20
2840.127478609062
 30
0.0
 40
5.625
100
AcDbArc
 50
0.0
 51
180.0
  0
ARC
  5
2493E
330
2461D
100
AcDbEntity
  8
SUNPOU
100
AcDbCircle
 10
7450.340641334931
 20
2840.127478609062
 30
0.0
 40
5.625
100
AcDbArc
 50
0.0
 51
180.0
  0
ARC
  5
2493F
330
2461D
100
AcDbEntity
  8
SUNPOU
100
AcDbCircle
 10
7450.340641334931
 20
2840.127478609062
 30
0.0
 40
5.625
100
AcDbArc
 50
180.0
 51
0.0
  0
ARC
  5
24940
330
2461D
100
AcDbEntity
  8
SUNPOU
100
AcDbCircle
 10
10950.34064133492
 20
2840.127478609062
 30
0.0
 40
5.625
100
AcDbArc
 50
180.0
 51
0.0
  0
ARC
  5
24941
330
2461D
100
AcDbEntity
  8
SUNPOU
100
AcDbCircle
 10
10950.34064133492
 20
2840.127478609062
 30
0.0
 40
5.625
100
AcDbArc
 50
0.0
 51
180.0
  0
ARC
  5
24942
330
2461D
100
AcDbEntity
  8
SUNPOU
100
AcDbCircle
 10
10950.34064133492
 20
2840.127478609062
 30
0.0
 40
5.625
100
AcDbArc
 50
0.0
 51
180.0
  0
ARC
  5
24943
330
2461D
100
AcDbEntity
  8
SUNPOU
100
AcDbCircle
 10
10950.34064133492
 20
2840.127478609062
 30
0.0
 40
5.625
100
AcDbArc
 50
180.0
 51
0.0
  0
ARC
  5
24944
330
2461D
100
AcDbEntity
  8
SUNPOU
100
AcDbCircle
 10
11300.34064133492
 20
2630.127478609063
 30
0.0
 40
5.625
100
AcDbArc
 50
180.0
 51
0.0
  0
ARC
  5
24945
330
2461D
100
AcDbEntity
  8
SUNPOU
100
AcDbCircle
 10
11300.34064133492
 20
2630.127478609063
 30
0.0
 40
5.625
100
AcDbArc
 50
0.0
 51
180.0
  0
ARC
  5
24946
330
2461D
100
AcDbEntity
  8
SUNPOU
100
AcDbCircle
 10
11300.34064133492
 20
2840.127478609062
 30
0.0
 40
5.625
100
AcDbArc
 50
180.0
 51
0.0
  0
ARC
  5
24947
330
2461D
100
AcDbEntity
  8
SUNPOU
100
AcDbCircle
 10
11300.34064133492
 20
2840.127478609062
 30
0.0
 40
5.625
100
AcDbArc
 50
0.0
 51
180.0
  0
ARC
  5
24948
330
2461D
100
AcDbEntity
  8
SUNPOU
100
AcDbCircle
 10
10600.34064133492
 20
4065.127478609062
 30
0.0
 40
5.625
100
AcDbArc
 50
0.0
 51
180.0
  0
ARC
  5
24949
330
2461D
100
AcDbEntity
  8
SUNPOU
100
AcDbCircle
 10
10600.34064133492
 20
4065.127478609062
 30
0.0
 40
5.625
100
AcDbArc
 50
180.0
 51
0.0
  0
ARC
  5
2494A
330
2461D
100
AcDbEntity
  8
SUNPOU
100
AcDbCircle
 10
10917.84064133492
 20
4426.184634723411
 30
0.0
 40
5.625
100
AcDbArc
 50
180.0
 51
0.0
  0
ARC
  5
2494B
330
2461D
100
AcDbEntity
  8
SUNPOU
100
AcDbCircle
 10
10917.84064133492
 20
4426.184634723411
 30
0.0
 40
5.625
100
AcDbArc
 50
0.0
 51
180.0
  0
ARC
  5
2494C
330
2461D
100
AcDbEntity
  8
SUNPOU
100
AcDbCircle
 10
10982.84064133492
 20
4426.184634723411
 30
0.0
 40
5.625
100
AcDbArc
 50
180.0
 51
0.0
  0
ARC
  5
2494D
330
2461D
100
AcDbEntity
  8
SUNPOU
100
AcDbCircle
 10
10982.84064133492
 20
4426.184634723411
 30
0.0
 40
5.625
100
AcDbArc
 50
0.0
 51
180.0
  0
ARC
  5
2494E
330
2461D
100
AcDbEntity
  8
SUNPOU
100
AcDbCircle
 10
11300.34064133492
 20
4065.127478609062
 30
0.0
 40
5.625
100
AcDbArc
 50
180.0
 51
0.0
  0
ARC
  5
2494F
330
2461D
100
AcDbEntity
  8
SUNPOU
100
AcDbCircle
 10
11300.34064133492
 20
4065.127478609062
 30
0.0
 40
5.625
100
AcDbArc
 50
0.0
 51
180.0
  0
ARC
  5
24950
330
2461D
100
AcDbEntity
  8
SUNPOU
100
AcDbCircle
 10
11810.34064133493
 20
3240.127478609063
 30
0.0
 40
5.625
100
AcDbArc
 50
90.0
 51
270.0
  0
ARC
  5
24951
330
2461D
100
AcDbEntity
  8
SUNPOU
100
AcDbCircle
 10
11810.34064133493
 20
3240.127478609063
 30
0.0
 40
5.625
100
AcDbArc
 50
270.0
 51
90.0
  0
ARC
  5
24952
330
2461D
100
AcDbEntity
  8
SUNPOU
100
AcDbCircle
 10
12020.34064133493
 20
3240.127478609063
 30
0.0
 40
5.625
100
AcDbArc
 50
90.0
 51
270.0
  0
ARC
  5
24953
330
2461D
100
AcDbEntity
  8
SUNPOU
100
AcDbCircle
 10
12020.34064133493
 20
3240.127478609063
 30
0.0
 40
5.625
100
AcDbArc
 50
270.0
 51
90.0
  0
ARC
  5
24954
330
2461D
100
AcDbEntity
  8
SUNPOU
100
AcDbCircle
 10
11600.34064133492
 20
4290.127478609064
 30
0.0
 40
5.625
100
AcDbArc
 50
90.0
 51
270.0
  0
ARC
  5
24955
330
2461D
100
AcDbEntity
  8
SUNPOU
100
AcDbCircle
 10
11600.34064133492
 20
4290.127478609064
 30
0.0
 40
5.625
100
AcDbArc
 50
270.0
 51
90.0
  0
ARC
  5
24956
330
2461D
100
AcDbEntity
  8
SUNPOU
100
AcDbCircle
 10
11161.04665690041
 20
4602.627478609064
 30
0.0
 40
5.625
100
AcDbArc
 50
90.0
 51
270.0
  0
ARC
  5
24957
330
2461D
100
AcDbEntity
  8
SUNPOU
100
AcDbCircle
 10
11161.04665690041
 20
4602.627478609064
 30
0.0
 40
5.625
100
AcDbArc
 50
270.0
 51
90.0
  0
ARC
  5
24958
330
2461D
100
AcDbEntity
  8
SUNPOU
100
AcDbCircle
 10
11161.04665690041
 20
4677.627478609063
 30
0.0
 40
5.625
100
AcDbArc
 50
90.0
 51
270.0
  0
ARC
  5
24959
330
2461D
100
AcDbEntity
  8
SUNPOU
100
AcDbCircle
 10
11161.04665690041
 20
4677.627478609063
 30
0.0
 40
5.625
100
AcDbArc
 50
270.0
 51
90.0
  0
ARC
  5
2495A
330
2461D
100
AcDbEntity
  8
SUNPOU
100
AcDbCircle
 10
11810.34064133493
 20
4640.127478609064
 30
0.0
 40
5.625
100
AcDbArc
 50
270.0
 51
90.0
  0
ARC
  5
2495B
330
2461D
100
AcDbEntity
  8
SUNPOU
100
AcDbCircle
 10
11810.34064133493
 20
4640.127478609064
 30
0.0
 40
5.625
100
AcDbArc
 50
90.0
 51
270.0
  0
ARC
  5
2495C
330
2461D
100
AcDbEntity
  8
SUNPOU
100
AcDbCircle
 10
11810.34064133493
 20
4640.127478609064
 30
0.0
 40
5.625
100
AcDbArc
 50
90.0
 51
270.0
  0
ARC
  5
2495D
330
2461D
100
AcDbEntity
  8
SUNPOU
100
AcDbCircle
 10
11810.34064133493
 20
4640.127478609064
 30
0.0
 40
5.625
100
AcDbArc
 50
270.0
 51
90.0
  0
ARC
  5
2495E
330
2461D
100
AcDbEntity
  8
SUNPOU
100
AcDbCircle
 10
11810.34064133493
 20
4640.127478609064
 30
0.0
 40
5.625
100
AcDbArc
 50
90.0
 51
270.0
  0
ARC
  5
2495F
330
2461D
100
AcDbEntity
  8
SUNPOU
100
AcDbCircle
 10
11810.34064133493
 20
4640.127478609064
 30
0.0
 40
5.625
100
AcDbArc
 50
270.0
 51
90.0
  0
ARC
  5
24960
330
2461D
100
AcDbEntity
  8
SUNPOU
100
AcDbCircle
 10
11600.34064133492
 20
4990.127478609064
 30
0.0
 40
5.625
100
AcDbArc
 50
270.0
 51
90.0
  0
ARC
  5
24961
330
2461D
100
AcDbEntity
  8
SUNPOU
100
AcDbCircle
 10
11600.34064133492
 20
4990.127478609064
 30
0.0
 40
5.625
100
AcDbArc
 50
90.0
 51
270.0
  0
ARC
  5
24962
330
2461D
100
AcDbEntity
  8
SUNPOU
100
AcDbCircle
 10
10600.34064133492
 20
6050.127478609063
 30
0.0
 40
5.625
100
AcDbArc
 50
0.0
 51
180.0
  0
ARC
  5
24963
330
2461D
100
AcDbEntity
  8
SUNPOU
100
AcDbCircle
 10
10600.34064133492
 20
6050.127478609063
 30
0.0
 40
5.625
100
AcDbArc
 50
180.0
 51
0.0
  0
ARC
  5
24964
330
2461D
100
AcDbEntity
  8
SUNPOU
100
AcDbCircle
 10
10917.84064133492
 20
6486.184634723412
 30
0.0
 40
5.625
100
AcDbArc
 50
180.0
 51
0.0
  0
ARC
  5
24965
330
2461D
100
AcDbEntity
  8
SUNPOU
100
AcDbCircle
 10
10917.84064133492
 20
6486.184634723412
 30
0.0
 40
5.625
100
AcDbArc
 50
0.0
 51
180.0
  0
ARC
  5
24966
330
2461D
100
AcDbEntity
  8
SUNPOU
100
AcDbCircle
 10
10982.84064133492
 20
6486.184634723412
 30
0.0
 40
5.625
100
AcDbArc
 50
180.0
 51
0.0
  0
ARC
  5
24967
330
2461D
100
AcDbEntity
  8
SUNPOU
100
AcDbCircle
 10
10982.84064133492
 20
6486.184634723412
 30
0.0
 40
5.625
100
AcDbArc
 50
0.0
 51
180.0
  0
ARC
  5
24968
330
2461D
100
AcDbEntity
  8
SUNPOU
100
AcDbCircle
 10
11300.34064133492
 20
6050.127478609063
 30
0.0
 40
5.625
100
AcDbArc
 50
180.0
 51
0.0
  0
ARC
  5
24969
330
2461D
100
AcDbEntity
  8
SUNPOU
100
AcDbCircle
 10
11300.34064133492
 20
6050.127478609063
 30
0.0
 40
5.625
100
AcDbArc
 50
0.0
 51
180.0
  0
ARC
  5
2496A
330
2461D
100
AcDbEntity
  8
SUNPOU
100
AcDbCircle
 10
11161.04665690041
 20
6662.627478609064
 30
0.0
 40
5.625
100
AcDbArc
 50
90.0
 51
270.0
  0
ARC
  5
2496B
330
2461D
100
AcDbEntity
  8
SUNPOU
100
AcDbCircle
 10
11161.04665690041
 20
6662.627478609064
 30
0.0
 40
5.625
100
AcDbArc
 50
270.0
 51
90.0
  0
ARC
  5
2496C
330
2461D
100
AcDbEntity
  8
SUNPOU
100
AcDbCircle
 10
11161.04665690041
 20
6737.627478609063
 30
0.0
 40
5.625
100
AcDbArc
 50
90.0
 51
270.0
  0
ARC
  5
2496D
330
2461D
100
AcDbEntity
  8
SUNPOU
100
AcDbCircle
 10
11161.04665690041
 20
6737.627478609063
 30
0.0
 40
5.625
100
AcDbArc
 50
270.0
 51
90.0
  0
ARC
  5
2496E
330
2461D
100
AcDbEntity
  8
SUNPOU
100
AcDbCircle
 10
11600.34064133492
 20
6350.127478609064
 30
0.0
 40
5.625
100
AcDbArc
 50
90.0
 51
270.0
  0
ARC
  5
2496F
330
2461D
100
AcDbEntity
  8
SUNPOU
100
AcDbCircle
 10
11600.34064133492
 20
6350.127478609064
 30
0.0
 40
5.625
100
AcDbArc
 50
270.0
 51
90.0
  0
ARC
  5
24970
330
2461D
100
AcDbEntity
  8
SUNPOU
100
AcDbCircle
 10
11810.34064133493
 20
6700.127478609063
 30
0.0
 40
5.625
100
AcDbArc
 50
270.0
 51
90.0
  0
ARC
  5
24971
330
2461D
100
AcDbEntity
  8
SUNPOU
100
AcDbCircle
 10
11810.34064133493
 20
6700.127478609063
 30
0.0
 40
5.625
100
AcDbArc
 50
90.0
 51
270.0
  0
ARC
  5
24972
330
2461D
100
AcDbEntity
  8
SUNPOU
100
AcDbCircle
 10
11810.34064133493
 20
6700.127478609063
 30
0.0
 40
5.625
100
AcDbArc
 50
270.0
 51
90.0
  0
ARC
  5
24973
330
2461D
100
AcDbEntity
  8
SUNPOU
100
AcDbCircle
 10
11810.34064133493
 20
6700.127478609063
 30
0.0
 40
5.625
100
AcDbArc
 50
90.0
 51
270.0
  0
ARC
  5
24974
330
2461D
100
AcDbEntity
  8
SUNPOU
100
AcDbCircle
 10
11810.34064133493
 20
6700.127478609063
 30
0.0
 40
5.625
100
AcDbArc
 50
90.0
 51
270.0
  0
ARC
  5
24975
330
2461D
100
AcDbEntity
  8
SUNPOU
100
AcDbCircle
 10
11810.34064133493
 20
6700.127478609063
 30
0.0
 40
5.625
100
AcDbArc
 50
270.0
 51
90.0
  0
ARC
  5
24976
330
2461D
100
AcDbEntity
  8
SUNPOU
100
AcDbCircle
 10
11600.34064133492
 20
7050.127478609063
 30
0.0
 40
5.625
100
AcDbArc
 50
270.0
 51
90.0
  0
ARC
  5
24977
330
2461D
100
AcDbEntity
  8
SUNPOU
100
AcDbCircle
 10
11600.34064133492
 20
7050.127478609063
 30
0.0
 40
5.625
100
AcDbArc
 50
90.0
 51
270.0
  0
ARC
  5
24978
330
2461D
100
AcDbEntity
  8
SUNPOU
100
AcDbCircle
 10
11810.34064133493
 20
8100.127478609062
 30
0.0
 40
5.625
100
AcDbArc
 50
270.0
 51
90.0
  0
ARC
  5
24979
330
2461D
100
AcDbEntity
  8
SUNPOU
100
AcDbCircle
 10
11810.34064133493
 20
8100.127478609062
 30
0.0
 40
5.625
100
AcDbArc
 50
90.0
 51
270.0
  0
ARC
  5
2497A
330
2461D
100
AcDbEntity
  8
SUNPOU
100
AcDbCircle
 10
12020.34064133493
 20
8100.127478609062
 30
0.0
 40
5.625
100
AcDbArc
 50
270.0
 51
90.0
  0
ARC
  5
2497B
330
2461D
100
AcDbEntity
  8
SUNPOU
100
AcDbCircle
 10
12020.34064133493
 20
8100.127478609062
 30
0.0
 40
5.625
100
AcDbArc
 50
90.0
 51
270.0
  0
TEXT
  5
2497C
330
2461D
100
AcDbEntity
  8
SUNPOU
100
AcDbText
 10
1405.036707340869
 20
941.7125251995903
 30
0.0
 40
90.0
  1
900 □
 41
0.6666666666666666
  7
00
100
AcDbText
  0
LINE
  5
2497D
330
2461D
100
AcDbEntity
  8
SUNPOU
100
AcDbLine
 10
2212.786707340868
 20
896.7125251995904
 30
0.0
 11
2201.536707340868
 21
896.7125251995904
 31
0.0
  0
LINE
  5
2497E
330
2461D
100
AcDbEntity
  8
SUNPOU
100
AcDbLine
 10
885.2867073408686
 20
896.7125251995904
 30
0.0
 11
896.5367073408687
 21
896.7125251995904
 31
0.0
  0
TEXT
  5
2497F
330
2461D
100
AcDbEntity
  8
SUNPOU
100
AcDbText
 10
1405.036707340869
 20
1151.712525199589
 30
0.0
 40
90.0
  1
700 □
 41
0.6666666666666666
  7
00
100
AcDbText
  0
LINE
  5
24980
330
2461D
100
AcDbEntity
  8
SUNPOU
100
AcDbLine
 10
2062.786707340868
 20
1106.712525199589
 30
0.0
 11
2051.536707340869
 21
1106.712525199589
 31
0.0
  0
LINE
  5
24981
330
2461D
100
AcDbEntity
  8
SUNPOU
100
AcDbLine
 10
1035.286707340869
 20
1106.712525199589
 30
0.0
 11
1046.536707340869
 21
1106.712525199589
 31
0.0
  0
TEXT
  5
24982
330
2461D
100
AcDbEntity
  8
SUNPOU
100
AcDbText
 10
3616.53670734087
 20
1875.998239485305
 30
0.0
 40
90.0
  1
500
 50
90.0
 41
0.6666666666666666
  7
00
100
AcDbText
  0
LINE
  5
24983
330
2461D
100
AcDbEntity
  8
SUNPOU
100
AcDbLine
 10
3661.536707340871
 20
1597.962525199592
 30
0.0
 11
3661.536707340871
 21
1609.21252519959
 31
0.0
  0
LINE
  5
24984
330
2461D
100
AcDbEntity
  8
SUNPOU
100
AcDbLine
 10
3661.536707340871
 20
2325.462525199592
 30
0.0
 11
3661.536707340871
 21
2314.212525199591
 31
0.0
  0
TEXT
  5
24985
330
2461D
100
AcDbEntity
  8
SUNPOU
100
AcDbText
 10
3616.53670734087
 20
1213.855382342448
 30
0.0
 40
90.0
  1
100
 50
90.0
 41
0.6666666666666666
  7
00
100
AcDbText
  0
LINE
  5
24986
330
2461D
100
AcDbEntity
  8
SUNPOU
100
AcDbLine
 10
3661.536707340871
 20
1447.962525199591
 30
0.0
 11
3661.536707340871
 21
1459.212525199591
 31
0.0
  0
LINE
  5
24987
330
2461D
100
AcDbEntity
  8
SUNPOU
100
AcDbLine
 10
3661.536707340871
 20
1575.462525199589
 30
0.0
 11
3661.536707340871
 21
1564.212525199589
 31
0.0
  0
ARC
  5
24988
330
2461D
100
AcDbEntity
  8
SUNPOU
100
AcDbCircle
 10
3661.536707340871
 20
1586.712525199589
 30
0.0
 40
5.625
100
AcDbArc
 50
270.0
 51
90.0
  0
ARC
  5
24989
330
2461D
100
AcDbEntity
  8
SUNPOU
100
AcDbCircle
 10
3661.536707340871
 20
1586.712525199589
 30
0.0
 40
5.625
100
AcDbArc
 50
90.0
 51
270.0
  0
ARC
  5
2498A
330
2461D
100
AcDbEntity
  8
SUNPOU
100
AcDbCircle
 10
3661.536707340871
 20
1436.712525199591
 30
0.0
 40
5.625
100
AcDbArc
 50
90.0
 51
270.0
  0
ARC
  5
2498B
330
2461D
100
AcDbEntity
  8
SUNPOU
100
AcDbCircle
 10
3661.536707340871
 20
1436.712525199591
 30
0.0
 40
5.625
100
AcDbArc
 50
270.0
 51
90.0
  0
ARC
  5
2498C
330
2461D
100
AcDbEntity
  8
SUNPOU
100
AcDbCircle
 10
3661.536707340871
 20
2336.712525199591
 30
0.0
 40
5.625
100
AcDbArc
 50
270.0
 51
90.0
  0
ARC
  5
2498D
330
2461D
100
AcDbEntity
  8
SUNPOU
100
AcDbCircle
 10
3661.536707340871
 20
2336.712525199591
 30
0.0
 40
5.625
100
AcDbArc
 50
90.0
 51
270.0
  0
ARC
  5
2498E
330
2461D
100
AcDbEntity
  8
SUNPOU
100
AcDbCircle
 10
3661.536707340871
 20
1586.712525199591
 30
0.0
 40
5.625
100
AcDbArc
 50
90.0
 51
270.0
  0
ARC
  5
2498F
330
2461D
100
AcDbEntity
  8
SUNPOU
100
AcDbCircle
 10
3661.536707340871
 20
1586.712525199591
 30
0.0
 40
5.625
100
AcDbArc
 50
270.0
 51
90.0
  0
ARC
  5
24990
330
2461D
100
AcDbEntity
  8
SUNPOU
100
AcDbCircle
 10
1024.036707340868
 20
1106.712525199589
 30
0.0
 40
5.625
100
AcDbArc
 50
0.0
 51
180.0
  0
ARC
  5
24991
330
2461D
100
AcDbEntity
  8
SUNPOU
100
AcDbCircle
 10
1024.036707340868
 20
1106.712525199589
 30
0.0
 40
5.625
100
AcDbArc
 50
180.0
 51
0.0
  0
ARC
  5
24992
330
2461D
100
AcDbEntity
  8
SUNPOU
100
AcDbCircle
 10
2074.036707340868
 20
1106.712525199589
 30
0.0
 40
5.625
100
AcDbArc
 50
180.0
 51
0.0
  0
ARC
  5
24993
330
2461D
100
AcDbEntity
  8
SUNPOU
100
AcDbCircle
 10
2074.036707340868
 20
1106.712525199589
 30
0.0
 40
5.625
100
AcDbArc
 50
0.0
 51
180.0
  0
ARC
  5
24994
330
2461D
100
AcDbEntity
  8
SUNPOU
100
AcDbCircle
 10
874.0367073408688
 20
896.7125251995904
 30
0.0
 40
5.625
100
AcDbArc
 50
0.0
 51
180.0
  0
ARC
  5
24995
330
2461D
100
AcDbEntity
  8
SUNPOU
100
AcDbCircle
 10
874.0367073408688
 20
896.7125251995904
 30
0.0
 40
5.625
100
AcDbArc
 50
180.0
 51
0.0
  0
ARC
  5
24996
330
2461D
100
AcDbEntity
  8
SUNPOU
100
AcDbCircle
 10
2224.036707340868
 20
896.7125251995904
 30
0.0
 40
5.625
100
AcDbArc
 50
180.0
 51
0.0
  0
ARC
  5
24997
330
2461D
100
AcDbEntity
  8
SUNPOU
100
AcDbCircle
 10
2224.036707340868
 20
896.7125251995904
 30
0.0
 40
5.625
100
AcDbArc
 50
0.0
 51
180.0
  0
CIRCLE
  5
24998
330
2461D
100
AcDbEntity
  8
HIKIDASHI
100
AcDbCircle
 10
1549.036707340871
 20
1676.712525199588
 30
0.0
 40
9.0
  0
CIRCLE
  5
24999
330
2461D
100
AcDbEntity
  8
HIKIDASHI
100
AcDbCircle
 10
1549.036707340871
 20
1616.712525199589
 30
0.0
 40
9.0
  0
ARC
  5
2499A
330
2461D
100
AcDbEntity
  8
HIKIDASHI
100
AcDbCircle
 10
1549.036707340871
 20
1616.712525199589
 30
0.0
 40
4.5
100
AcDbArc
 50
180.0
 51
0.0
  0
ARC
  5
2499B
330
2461D
100
AcDbEntity
  8
HIKIDASHI
100
AcDbCircle
 10
1549.036707340871
 20
1616.712525199589
 30
0.0
 40
4.5
100
AcDbArc
 50
0.0
 51
180.0
  0
ARC
  5
2499C
330
2461D
100
AcDbEntity
  8
HIKIDASHI
100
AcDbCircle
 10
1549.036707340871
 20
1676.712525199588
 30
0.0
 40
4.5
100
AcDbArc
 50
180.0
 51
0.0
  0
ARC
  5
2499D
330
2461D
100
AcDbEntity
  8
HIKIDASHI
100
AcDbCircle
 10
1549.036707340871
 20
1676.712525199588
 30
0.0
 40
4.5
100
AcDbArc
 50
0.0
 51
180.0
  0
LINE
  5
2499E
330
2461D
100
AcDbEntity
  8
HATCH
100
AcDbLine
 10
943.2354371516904
 20
1436.712525199586
 30
0.0
 11
1029.837977530134
 21
1586.712525199585
 31
0.0
  0
LINE
  5
2499F
330
2461D
100
AcDbEntity
  8
HATCH
100
AcDbLine
 10
969.8379775301345
 20
1586.712525199584
 30
0.0
 11
999.8379775301344
 21
1534.751000972522
 31
0.0
  0
LINE
  5
249A0
330
2461D
100
AcDbEntity
  8
HATCH
100
AcDbLine
 10
973.2354371516903
 20
1488.674049426653
 30
0.0
 11
1003.23543715169
 21
1436.712525199586
 31
0.0
  0
LINE
  5
249A1
330
2461D
100
AcDbEntity
  8
HATCH
100
AcDbLine
 10
1130.735437151687
 20
1436.712525199586
 30
0.0
 11
1217.337977530132
 21
1586.712525199585
 31
0.0
  0
LINE
  5
249A2
330
2461D
100
AcDbEntity
  8
HATCH
100
AcDbLine
 10
1157.337977530133
 20
1586.712525199584
 30
0.0
 11
1187.337977530133
 21
1534.751000972522
 31
0.0
  0
LINE
  5
249A3
330
2461D
100
AcDbEntity
  8
HATCH
100
AcDbLine
 10
1160.735437151687
 20
1488.674049426653
 30
0.0
 11
1190.735437151688
 21
1436.712525199586
 31
0.0
  0
LINE
  5
249A4
330
2461D
100
AcDbEntity
  8
HATCH
100
AcDbLine
 10
2068.235437151691
 20
1436.712525199588
 30
0.0
 11
2154.837977530136
 21
1586.712525199588
 31
0.0
  0
LINE
  5
249A5
330
2461D
100
AcDbEntity
  8
HATCH
100
AcDbLine
 10
2094.837977530136
 20
1586.712525199586
 30
0.0
 11
2124.837977530137
 21
1534.751000972524
 31
0.0
  0
LINE
  5
249A6
330
2461D
100
AcDbEntity
  8
HATCH
100
AcDbLine
 10
2098.235437151691
 20
1488.674049426656
 30
0.0
 11
2128.235437151691
 21
1436.712525199588
 31
0.0
  0
LINE
  5
249A7
330
2461D
100
AcDbEntity
  8
HATCH
100
AcDbLine
 10
1880.735437151692
 20
1436.712525199588
 30
0.0
 11
1967.337977530136
 21
1586.712525199588
 31
0.0
  0
LINE
  5
249A8
330
2461D
100
AcDbEntity
  8
HATCH
100
AcDbLine
 10
1907.337977530136
 20
1586.712525199586
 30
0.0
 11
1937.337977530136
 21
1534.751000972524
 31
0.0
  0
LINE
  5
249A9
330
2461D
100
AcDbEntity
  8
HATCH
100
AcDbLine
 10
1910.735437151691
 20
1488.674049426656
 30
0.0
 11
1940.735437151692
 21
1436.712525199588
 31
0.0
  0
LINE
  5
249AA
330
2461D
100
AcDbEntity
  8
HATCH
100
AcDbLine
 10
1505.73543715169
 20
1436.712525199588
 30
0.0
 11
1592.337977530134
 21
1586.712525199588
 31
0.0
  0
LINE
  5
249AB
330
2461D
100
AcDbEntity
  8
HATCH
100
AcDbLine
 10
1532.337977530134
 20
1586.712525199586
 30
0.0
 11
1562.337977530134
 21
1534.751000972524
 31
0.0
  0
LINE
  5
249AC
330
2461D
100
AcDbEntity
  8
HATCH
100
AcDbLine
 10
1535.73543715169
 20
1488.674049426656
 30
0.0
 11
1565.73543715169
 21
1436.712525199588
 31
0.0
  0
LINE
  5
249AD
330
2461D
100
AcDbEntity
  8
HATCH
100
AcDbLine
 10
1318.235437151688
 20
1436.712525199588
 30
0.0
 11
1404.837977530132
 21
1586.712525199588
 31
0.0
  0
LINE
  5
249AE
330
2461D
100
AcDbEntity
  8
HATCH
100
AcDbLine
 10
1344.837977530133
 20
1586.712525199586
 30
0.0
 11
1374.837977530133
 21
1534.751000972524
 31
0.0
  0
LINE
  5
249AF
330
2461D
100
AcDbEntity
  8
HATCH
100
AcDbLine
 10
1348.235437151688
 20
1488.674049426656
 30
0.0
 11
1378.235437151688
 21
1436.712525199588
 31
0.0
  0
LINE
  5
249B0
330
2461D
100
AcDbEntity
  8
HATCH
100
AcDbLine
 10
1693.23543715169
 20
1436.712525199588
 30
0.0
 11
1779.837977530133
 21
1586.712525199588
 31
0.0
  0
LINE
  5
249B1
330
2461D
100
AcDbEntity
  8
HATCH
100
AcDbLine
 10
1719.837977530134
 20
1586.712525199586
 30
0.0
 11
1749.837977530134
 21
1534.751000972524
 31
0.0
  0
LINE
  5
249B2
330
2461D
100
AcDbEntity
  8
HATCH
100
AcDbLine
 10
1723.23543715169
 20
1488.674049426656
 30
0.0
 11
1753.23543715169
 21
1436.712525199588
 31
0.0
  0
LINE
  5
249B3
330
2461D
100
AcDbEntity
  8
HATCH
100
AcDbLine
 10
3409.575183113921
 20
2111.712525199592
 30
0.0
 11
3461.53670734103
 21
2201.712525199669
 31
0.0
  0
LINE
  5
249B4
330
2461D
100
AcDbEntity
  8
HATCH
100
AcDbLine
 10
3425.536707341001
 20
2201.712525199669
 30
0.0
 11
3443.536707341016
 21
2170.535610663404
 31
0.0
  0
LINE
  5
249B5
330
2461D
100
AcDbEntity
  8
HATCH
100
AcDbLine
 10
3427.575183113936
 20
2142.889439735859
 30
0.0
 11
3445.57518311395
 21
2111.712525199592
 31
0.0
  0
LINE
  5
249B6
330
2461D
100
AcDbEntity
  8
HATCH
100
AcDbLine
 10
3274.575183113917
 20
2111.712525199592
 30
0.0
 11
3326.536707341027
 21
2201.712525199669
 31
0.0
  0
LINE
  5
249B7
330
2461D
100
AcDbEntity
  8
HATCH
100
AcDbLine
 10
3290.536707340997
 20
2201.712525199669
 30
0.0
 11
3308.536707341012
 21
2170.535610663404
 31
0.0
  0
LINE
  5
249B8
330
2461D
100
AcDbEntity
  8
HATCH
100
AcDbLine
 10
3292.575183113932
 20
2142.889439735859
 30
0.0
 11
3310.575183113947
 21
2111.712525199592
 31
0.0
  0
LINE
  5
249B9
330
2461D
100
AcDbEntity
  8
HATCH
100
AcDbLine
 10
3139.575183113919
 20
2111.712525199592
 30
0.0
 11
3191.536707341031
 21
2201.712525199669
 31
0.0
  0
LINE
  5
249BA
330
2461D
100
AcDbEntity
  8
HATCH
100
AcDbLine
 10
3155.536707341001
 20
2201.712525199669
 30
0.0
 11
3173.536707341016
 21
2170.535610663404
 31
0.0
  0
LINE
  5
249BB
330
2461D
100
AcDbEntity
  8
HATCH
100
AcDbLine
 10
3157.575183113936
 20
2142.889439735859
 30
0.0
 11
3175.57518311395
 21
2111.712525199592
 31
0.0
  0
LINE
  5
249BC
330
2461D
100
AcDbEntity
  8
HATCH
100
AcDbLine
 10
3004.575183113919
 20
2111.71252519959
 30
0.0
 11
3056.536707341031
 21
2201.712525199669
 31
0.0
  0
LINE
  5
249BD
330
2461D
100
AcDbEntity
  8
HATCH
100
AcDbLine
 10
3020.536707340999
 20
2201.712525199668
 30
0.0
 11
3038.536707341016
 21
2170.535610663403
 31
0.0
  0
LINE
  5
249BE
330
2461D
100
AcDbEntity
  8
HATCH
100
AcDbLine
 10
3022.575183113936
 20
2142.889439735859
 30
0.0
 11
3040.575183113951
 21
2111.71252519959
 31
0.0
  0
LINE
  5
249BF
330
2461D
100
AcDbEntity
  8
HATCH
100
AcDbLine
 10
2734.57518311392
 20
2111.71252519959
 30
0.0
 11
2786.53670734103
 21
2201.712525199669
 31
0.0
  0
LINE
  5
249C0
330
2461D
100
AcDbEntity
  8
HATCH
100
AcDbLine
 10
2750.536707341
 20
2201.712525199668
 30
0.0
 11
2768.536707341016
 21
2170.535610663403
 31
0.0
  0
LINE
  5
249C1
330
2461D
100
AcDbEntity
  8
HATCH
100
AcDbLine
 10
2752.575183113936
 20
2142.889439735859
 30
0.0
 11
2770.575183113951
 21
2111.71252519959
 31
0.0
  0
LINE
  5
249C2
330
2461D
100
AcDbEntity
  8
HATCH
100
AcDbLine
 10
2464.57518311392
 20
2111.71252519959
 30
0.0
 11
2516.53670734103
 21
2201.712525199669
 31
0.0
  0
LINE
  5
249C3
330
2461D
100
AcDbEntity
  8
HATCH
100
AcDbLine
 10
2480.536707341001
 20
2201.712525199668
 30
0.0
 11
2498.536707341016
 21
2170.535610663403
 31
0.0
  0
LINE
  5
249C4
330
2461D
100
AcDbEntity
  8
HATCH
100
AcDbLine
 10
2482.575183113936
 20
2142.889439735859
 30
0.0
 11
2500.575183113951
 21
2111.71252519959
 31
0.0
  0
LINE
  5
249C5
330
2461D
100
AcDbEntity
  8
HATCH
100
AcDbLine
 10
2599.57518311392
 20
2111.712525199592
 30
0.0
 11
2651.536707341032
 21
2201.712525199669
 31
0.0
  0
LINE
  5
249C6
330
2461D
100
AcDbEntity
  8
HATCH
100
AcDbLine
 10
2615.536707341
 20
2201.712525199669
 30
0.0
 11
2633.536707341016
 21
2170.535610663404
 31
0.0
  0
LINE
  5
249C7
330
2461D
100
AcDbEntity
  8
HATCH
100
AcDbLine
 10
2617.575183113935
 20
2142.889439735859
 30
0.0
 11
2635.575183113951
 21
2111.712525199592
 31
0.0
  0
LINE
  5
249C8
330
2461D
100
AcDbEntity
  8
HATCH
100
AcDbLine
 10
2194.57518311392
 20
2111.71252519959
 30
0.0
 11
2246.536707341031
 21
2201.712525199669
 31
0.0
  0
LINE
  5
249C9
330
2461D
100
AcDbEntity
  8
HATCH
100
AcDbLine
 10
2210.536707341
 20
2201.712525199668
 30
0.0
 11
2228.536707341016
 21
2170.535610663403
 31
0.0
  0
LINE
  5
249CA
330
2461D
100
AcDbEntity
  8
HATCH
100
AcDbLine
 10
2212.575183113935
 20
2142.889439735859
 30
0.0
 11
2230.575183113951
 21
2111.71252519959
 31
0.0
  0
LINE
  5
249CB
330
2461D
100
AcDbEntity
  8
HATCH
100
AcDbLine
 10
2074.036707340987
 20
2111.71252519959
 30
0.0
 11
2125.998231568098
 21
2201.712525199669
 31
0.0
  0
LINE
  5
249CC
330
2461D
100
AcDbEntity
  8
HATCH
100
AcDbLine
 10
2089.998231568066
 20
2201.712525199668
 30
0.0
 11
2107.998231568081
 21
2170.535610663403
 31
0.0
  0
LINE
  5
249CD
330
2461D
100
AcDbEntity
  8
HATCH
100
AcDbLine
 10
2092.036707341001
 20
2142.889439735859
 30
0.0
 11
2110.036707341018
 21
2111.71252519959
 31
0.0
  0
LINE
  5
249CE
330
2461D
100
AcDbEntity
  8
HATCH
100
AcDbLine
 10
2329.57518311392
 20
2111.71252519959
 30
0.0
 11
2381.53670734103
 21
2201.712525199669
 31
0.0
  0
LINE
  5
249CF
330
2461D
100
AcDbEntity
  8
HATCH
100
AcDbLine
 10
2345.536707341
 20
2201.712525199668
 30
0.0
 11
2363.536707341016
 21
2170.535610663403
 31
0.0
  0
LINE
  5
249D0
330
2461D
100
AcDbEntity
  8
HATCH
100
AcDbLine
 10
2347.575183113935
 20
2142.889439735859
 30
0.0
 11
2365.575183113951
 21
2111.71252519959
 31
0.0
  0
LINE
  5
249D1
330
2461D
100
AcDbEntity
  8
HATCH
100
AcDbLine
 10
956.5367073409829
 20
2111.712525199588
 30
0.0
 11
1008.498231568094
 21
2201.712525199664
 31
0.0
  0
LINE
  5
249D2
330
2461D
100
AcDbEntity
  8
HATCH
100
AcDbLine
 10
972.4982315680632
 20
2201.712525199664
 30
0.0
 11
990.4982315680785
 21
2170.535610663399
 31
0.0
  0
LINE
  5
249D3
330
2461D
100
AcDbEntity
  8
HATCH
100
AcDbLine
 10
974.5367073409983
 20
2142.889439735855
 30
0.0
 11
992.5367073410138
 21
2111.712525199588
 31
0.0
  0
LINE
  5
249D4
330
2461D
100
AcDbEntity
  8
HATCH
100
AcDbLine
 10
2869.575183113919
 20
2111.712525199592
 30
0.0
 11
2921.536707341032
 21
2201.712525199669
 31
0.0
  0
LINE
  5
249D5
330
2461D
100
AcDbEntity
  8
HATCH
100
AcDbLine
 10
2885.536707341
 20
2201.712525199669
 30
0.0
 11
2903.536707341016
 21
2170.535610663404
 31
0.0
  0
LINE
  5
249D6
330
2461D
100
AcDbEntity
  8
HATCH
100
AcDbLine
 10
2887.575183113936
 20
2142.889439735859
 30
0.0
 11
2905.575183113951
 21
2111.712525199592
 31
0.0
  0
LINE
  5
249D7
330
2461D
100
AcDbEntity
  8
HATCH
100
AcDbLine
 10
821.5367073409828
 20
2111.712525199588
 30
0.0
 11
873.4982315680941
 21
2201.712525199664
 31
0.0
  0
LINE
  5
249D8
330
2461D
100
AcDbEntity
  8
HATCH
100
AcDbLine
 10
837.4982315680631
 20
2201.712525199664
 30
0.0
 11
855.4982315680787
 21
2170.535610663399
 31
0.0
  0
LINE
  5
249D9
330
2461D
100
AcDbEntity
  8
HATCH
100
AcDbLine
 10
839.5367073409984
 20
2142.889439735855
 30
0.0
 11
857.5367073410138
 21
2111.712525199588
 31
0.0
  0
LINE
  5
249DA
330
2461D
100
AcDbEntity
  8
HATCH
100
AcDbLine
 10
686.5367073409828
 20
2111.712525199588
 30
0.0
 11
738.4982315680938
 21
2201.712525199664
 31
0.0
  0
LINE
  5
249DB
330
2461D
100
AcDbEntity
  8
HATCH
100
AcDbLine
 10
702.4982315680631
 20
2201.712525199664
 30
0.0
 11
720.4982315680784
 21
2170.535610663399
 31
0.0
  0
LINE
  5
249DC
330
2461D
100
AcDbEntity
  8
HATCH
100
AcDbLine
 10
704.5367073409984
 20
2142.889439735855
 30
0.0
 11
722.5367073410137
 21
2111.712525199588
 31
0.0
  0
LINE
  5
249DD
330
2461D
100
AcDbEntity
  8
HASHIRA
  6
Continuous
100
AcDbLine
 10
2282.840641334933
 20
6662.627478609064
 30
0.0
 11
2217.840641334933
 21
6662.627478609064
 31
0.0
  0
LINE
  5
249DE
330
2461D
100
AcDbEntity
  8
HASHIRA
  6
Continuous
100
AcDbLine
 10
2217.840641334933
 20
6662.627478609064
 30
0.0
 11
2217.840641334933
 21
6737.627478609063
 31
0.0
  0
LINE
  5
249DF
330
2461D
100
AcDbEntity
  8
HASHIRA
  6
Continuous
100
AcDbLine
 10
2217.840641334933
 20
6737.627478609063
 30
0.0
 11
2282.840641334933
 21
6737.627478609063
 31
0.0
  0
LINE
  5
249E0
330
2461D
100
AcDbEntity
  8
HASHIRA
  6
Continuous
100
AcDbLine
 10
2282.840641334933
 20
6737.627478609063
 30
0.0
 11
2282.840641334933
 21
6662.627478609064
 31
0.0
  0
LINE
  5
249E1
330
2461D
100
AcDbEntity
  8
U2
100
AcDbLine
 10
1900.340641334932
 20
6350.127478609064
 30
0.0
 11
2600.340641334933
 21
6350.127478609064
 31
0.0
  0
LINE
  5
249E2
330
2461D
100
AcDbEntity
  8
U2
100
AcDbLine
 10
2600.340641334933
 20
6350.127478609064
 30
0.0
 11
2600.340641334933
 21
7050.127478609063
 31
0.0
  0
LINE
  5
249E3
330
2461D
100
AcDbEntity
  8
U2
100
AcDbLine
 10
2600.340641334933
 20
7050.127478609063
 30
0.0
 11
1900.340641334932
 21
7050.127478609063
 31
0.0
  0
LINE
  5
249E4
330
2461D
100
AcDbEntity
  8
U2
100
AcDbLine
 10
1900.340641334932
 20
7050.127478609063
 30
0.0
 11
1900.340641334932
 21
6350.127478609064
 31
0.0
  0
LINE
  5
249E5
330
2461D
100
AcDbEntity
  8
HASHIRA
  6
Continuous
100
AcDbLine
 10
2282.840641334933
 20
4602.627478609064
 30
0.0
 11
2217.840641334933
 21
4602.627478609064
 31
0.0
  0
LINE
  5
249E6
330
2461D
100
AcDbEntity
  8
HASHIRA
  6
Continuous
100
AcDbLine
 10
2217.840641334933
 20
4602.627478609064
 30
0.0
 11
2217.840641334933
 21
4677.627478609063
 31
0.0
  0
LINE
  5
249E7
330
2461D
100
AcDbEntity
  8
HASHIRA
  6
Continuous
100
AcDbLine
 10
2217.840641334933
 20
4677.627478609063
 30
0.0
 11
2282.840641334933
 21
4677.627478609063
 31
0.0
  0
LINE
  5
249E8
330
2461D
100
AcDbEntity
  8
HASHIRA
  6
Continuous
100
AcDbLine
 10
2282.840641334933
 20
4677.627478609063
 30
0.0
 11
2282.840641334933
 21
4602.627478609064
 31
0.0
  0
LINE
  5
249E9
330
2461D
100
AcDbEntity
  8
U2
100
AcDbLine
 10
1900.340641334932
 20
4290.127478609064
 30
0.0
 11
2600.340641334933
 21
4290.127478609064
 31
0.0
  0
LINE
  5
249EA
330
2461D
100
AcDbEntity
  8
U2
100
AcDbLine
 10
2600.340641334933
 20
4290.127478609064
 30
0.0
 11
2600.340641334933
 21
4990.127478609064
 31
0.0
  0
LINE
  5
249EB
330
2461D
100
AcDbEntity
  8
U2
100
AcDbLine
 10
2600.340641334933
 20
4990.127478609064
 30
0.0
 11
1900.340641334932
 21
4990.127478609064
 31
0.0
  0
LINE
  5
249EC
330
2461D
100
AcDbEntity
  8
U2
100
AcDbLine
 10
1900.340641334932
 20
4990.127478609064
 30
0.0
 11
1900.340641334932
 21
4290.127478609064
 31
0.0
  0
LINE
  5
249ED
330
2461D
100
AcDbEntity
  8
HASHIRA
  6
Continuous
100
AcDbLine
 10
5782.840641334935
 20
6662.627478609064
 30
0.0
 11
5717.840641334936
 21
6662.627478609064
 31
0.0
  0
LINE
  5
249EE
330
2461D
100
AcDbEntity
  8
HASHIRA
  6
Continuous
100
AcDbLine
 10
5717.840641334936
 20
6662.627478609064
 30
0.0
 11
5717.840641334936
 21
6737.627478609063
 31
0.0
  0
LINE
  5
249EF
330
2461D
100
AcDbEntity
  8
HASHIRA
  6
Continuous
100
AcDbLine
 10
5717.840641334936
 20
6737.627478609063
 30
0.0
 11
5782.840641334935
 21
6737.627478609063
 31
0.0
  0
LINE
  5
249F0
330
2461D
100
AcDbEntity
  8
HASHIRA
  6
Continuous
100
AcDbLine
 10
5782.840641334935
 20
6737.627478609063
 30
0.0
 11
5782.840641334935
 21
6662.627478609064
 31
0.0
  0
LINE
  5
249F1
330
2461D
100
AcDbEntity
  8
U2
100
AcDbLine
 10
5400.340641334936
 20
6350.127478609064
 30
0.0
 11
6100.340641334937
 21
6350.127478609064
 31
0.0
  0
LINE
  5
249F2
330
2461D
100
AcDbEntity
  8
U2
100
AcDbLine
 10
6100.340641334937
 20
6350.127478609064
 30
0.0
 11
6100.340641334937
 21
7050.127478609063
 31
0.0
  0
LINE
  5
249F3
330
2461D
100
AcDbEntity
  8
U2
100
AcDbLine
 10
6100.340641334937
 20
7050.127478609063
 30
0.0
 11
5400.340641334936
 21
7050.127478609063
 31
0.0
  0
LINE
  5
249F4
330
2461D
100
AcDbEntity
  8
U2
100
AcDbLine
 10
5400.340641334936
 20
7050.127478609063
 30
0.0
 11
5400.340641334936
 21
6350.127478609064
 31
0.0
  0
LINE
  5
249F5
330
2461D
100
AcDbEntity
  8
HASHIRA
  6
Continuous
100
AcDbLine
 10
5782.840641334935
 20
4602.627478609064
 30
0.0
 11
5717.840641334936
 21
4602.627478609064
 31
0.0
  0
LINE
  5
249F6
330
2461D
100
AcDbEntity
  8
HASHIRA
  6
Continuous
100
AcDbLine
 10
5717.840641334936
 20
4602.627478609064
 30
0.0
 11
5717.840641334936
 21
4677.627478609063
 31
0.0
  0
LINE
  5
249F7
330
2461D
100
AcDbEntity
  8
HASHIRA
  6
Continuous
100
AcDbLine
 10
5717.840641334936
 20
4677.627478609063
 30
0.0
 11
5782.840641334935
 21
4677.627478609063
 31
0.0
  0
LINE
  5
249F8
330
2461D
100
AcDbEntity
  8
HASHIRA
  6
Continuous
100
AcDbLine
 10
5782.840641334935
 20
4677.627478609063
 30
0.0
 11
5782.840641334935
 21
4602.627478609064
 31
0.0
  0
LINE
  5
249F9
330
2461D
100
AcDbEntity
  8
U2
100
AcDbLine
 10
5400.340641334936
 20
4290.127478609064
 30
0.0
 11
6100.340641334937
 21
4290.127478609064
 31
0.0
  0
LINE
  5
249FA
330
2461D
100
AcDbEntity
  8
U2
100
AcDbLine
 10
6100.340641334937
 20
4290.127478609064
 30
0.0
 11
6100.340641334937
 21
4990.127478609064
 31
0.0
  0
LINE
  5
249FB
330
2461D
100
AcDbEntity
  8
U2
100
AcDbLine
 10
6100.340641334937
 20
4990.127478609064
 30
0.0
 11
5400.340641334936
 21
4990.127478609064
 31
0.0
  0
LINE
  5
249FC
330
2461D
100
AcDbEntity
  8
U2
100
AcDbLine
 10
5400.340641334936
 20
4990.127478609064
 30
0.0
 11
5400.340641334936
 21
4290.127478609064
 31
0.0
  0
LINE
  5
249FD
330
2461D
100
AcDbEntity
  8
HASHIRA
  6
Continuous
100
AcDbLine
 10
7482.840641334934
 20
6662.627478609064
 30
0.0
 11
7417.840641334937
 21
6662.627478609064
 31
0.0
  0
LINE
  5
249FE
330
2461D
100
AcDbEntity
  8
HASHIRA
  6
Continuous
100
AcDbLine
 10
7417.840641334937
 20
6662.627478609064
 30
0.0
 11
7417.840641334937
 21
6737.627478609063
 31
0.0
  0
LINE
  5
249FF
330
2461D
100
AcDbEntity
  8
HASHIRA
  6
Continuous
100
AcDbLine
 10
7417.840641334937
 20
6737.627478609063
 30
0.0
 11
7482.840641334934
 21
6737.627478609063
 31
0.0
  0
LINE
  5
24A00
330
2461D
100
AcDbEntity
  8
HASHIRA
  6
Continuous
100
AcDbLine
 10
7482.840641334934
 20
6737.627478609063
 30
0.0
 11
7482.840641334934
 21
6662.627478609064
 31
0.0
  0
LINE
  5
24A01
330
2461D
100
AcDbEntity
  8
HASHIRA
  6
Continuous
100
AcDbLine
 10
7482.840641334934
 20
4602.627478609064
 30
0.0
 11
7417.840641334937
 21
4602.627478609064
 31
0.0
  0
LINE
  5
24A02
330
2461D
100
AcDbEntity
  8
HASHIRA
  6
Continuous
100
AcDbLine
 10
7417.840641334937
 20
4602.627478609064
 30
0.0
 11
7417.840641334937
 21
4677.627478609063
 31
0.0
  0
LINE
  5
24A03
330
2461D
100
AcDbEntity
  8
HASHIRA
  6
Continuous
100
AcDbLine
 10
7417.840641334937
 20
4677.627478609063
 30
0.0
 11
7482.840641334934
 21
4677.627478609063
 31
0.0
  0
LINE
  5
24A04
330
2461D
100
AcDbEntity
  8
HASHIRA
  6
Continuous
100
AcDbLine
 10
7482.840641334934
 20
4677.627478609063
 30
0.0
 11
7482.840641334934
 21
4602.627478609064
 31
0.0
  0
LINE
  5
24A05
330
2461D
100
AcDbEntity
  8
U2
100
AcDbLine
 10
7100.340641334935
 20
4290.127478609064
 30
0.0
 11
7800.340641334933
 21
4290.127478609064
 31
0.0
  0
LINE
  5
24A06
330
2461D
100
AcDbEntity
  8
U2
100
AcDbLine
 10
7800.340641334933
 20
4290.127478609064
 30
0.0
 11
7800.340641334933
 21
4990.127478609064
 31
0.0
  0
LINE
  5
24A07
330
2461D
100
AcDbEntity
  8
U2
100
AcDbLine
 10
7800.340641334933
 20
4990.127478609064
 30
0.0
 11
7100.340641334935
 21
4990.127478609064
 31
0.0
  0
LINE
  5
24A08
330
2461D
100
AcDbEntity
  8
U2
100
AcDbLine
 10
7100.340641334935
 20
4990.127478609064
 30
0.0
 11
7100.340641334935
 21
4290.127478609064
 31
0.0
  0
LINE
  5
24A09
330
2461D
100
AcDbEntity
  8
U2
100
AcDbLine
 10
7100.340641334935
 20
6350.127478609064
 30
0.0
 11
7800.340641334933
 21
6350.127478609064
 31
0.0
  0
LINE
  5
24A0A
330
2461D
100
AcDbEntity
  8
U2
100
AcDbLine
 10
7800.340641334933
 20
6350.127478609064
 30
0.0
 11
7800.340641334933
 21
7050.127478609063
 31
0.0
  0
LINE
  5
24A0B
330
2461D
100
AcDbEntity
  8
U2
100
AcDbLine
 10
7800.340641334933
 20
7050.127478609063
 30
0.0
 11
7100.340641334935
 21
7050.127478609063
 31
0.0
  0
LINE
  5
24A0C
330
2461D
100
AcDbEntity
  8
U2
100
AcDbLine
 10
7100.340641334935
 20
7050.127478609063
 30
0.0
 11
7100.340641334935
 21
6350.127478609064
 31
0.0
  0
LINE
  5
24A0D
330
2461D
100
AcDbEntity
  8
HASHIRA
  6
Continuous
100
AcDbLine
 10
10982.84064133492
 20
6662.627478609064
 30
0.0
 11
10917.84064133492
 21
6662.627478609064
 31
0.0
  0
LINE
  5
24A0E
330
2461D
100
AcDbEntity
  8
HASHIRA
  6
Continuous
100
AcDbLine
 10
10917.84064133492
 20
6662.627478609064
 30
0.0
 11
10917.84064133492
 21
6737.627478609063
 31
0.0
  0
LINE
  5
24A0F
330
2461D
100
AcDbEntity
  8
HASHIRA
  6
Continuous
100
AcDbLine
 10
10917.84064133492
 20
6737.627478609063
 30
0.0
 11
10982.84064133492
 21
6737.627478609063
 31
0.0
  0
LINE
  5
24A10
330
2461D
100
AcDbEntity
  8
HASHIRA
  6
Continuous
100
AcDbLine
 10
10982.84064133492
 20
6737.627478609063
 30
0.0
 11
10982.84064133492
 21
6662.627478609064
 31
0.0
  0
LINE
  5
24A11
330
2461D
100
AcDbEntity
  8
U2
100
AcDbLine
 10
10600.34064133492
 20
6350.127478609064
 30
0.0
 11
11300.34064133492
 21
6350.127478609064
 31
0.0
  0
LINE
  5
24A12
330
2461D
100
AcDbEntity
  8
U2
100
AcDbLine
 10
11300.34064133492
 20
6350.127478609064
 30
0.0
 11
11300.34064133492
 21
7050.127478609063
 31
0.0
  0
LINE
  5
24A13
330
2461D
100
AcDbEntity
  8
U2
100
AcDbLine
 10
11300.34064133492
 20
7050.127478609063
 30
0.0
 11
10600.34064133492
 21
7050.127478609063
 31
0.0
  0
LINE
  5
24A14
330
2461D
100
AcDbEntity
  8
U2
100
AcDbLine
 10
10600.34064133492
 20
7050.127478609063
 30
0.0
 11
10600.34064133492
 21
6350.127478609064
 31
0.0
  0
LINE
  5
24A15
330
2461D
100
AcDbEntity
  8
HASHIRA
  6
Continuous
100
AcDbLine
 10
10982.84064133492
 20
4602.627478609064
 30
0.0
 11
10917.84064133492
 21
4602.627478609064
 31
0.0
  0
LINE
  5
24A16
330
2461D
100
AcDbEntity
  8
HASHIRA
  6
Continuous
100
AcDbLine
 10
10917.84064133492
 20
4602.627478609064
 30
0.0
 11
10917.84064133492
 21
4677.627478609063
 31
0.0
  0
LINE
  5
24A17
330
2461D
100
AcDbEntity
  8
HASHIRA
  6
Continuous
100
AcDbLine
 10
10917.84064133492
 20
4677.627478609063
 30
0.0
 11
10982.84064133492
 21
4677.627478609063
 31
0.0
  0
LINE
  5
24A18
330
2461D
100
AcDbEntity
  8
HASHIRA
  6
Continuous
100
AcDbLine
 10
10982.84064133492
 20
4677.627478609063
 30
0.0
 11
10982.84064133492
 21
4602.627478609064
 31
0.0
  0
LINE
  5
24A19
330
2461D
100
AcDbEntity
  8
U2
100
AcDbLine
 10
10600.34064133492
 20
4290.127478609064
 30
0.0
 11
11300.34064133492
 21
4290.127478609064
 31
0.0
  0
LINE
  5
24A1A
330
2461D
100
AcDbEntity
  8
U2
100
AcDbLine
 10
11300.34064133492
 20
4290.127478609064
 30
0.0
 11
11300.34064133492
 21
4990.127478609064
 31
0.0
  0
LINE
  5
24A1B
330
2461D
100
AcDbEntity
  8
U2
100
AcDbLine
 10
11300.34064133492
 20
4990.127478609064
 30
0.0
 11
10600.34064133492
 21
4990.127478609064
 31
0.0
  0
LINE
  5
24A1C
330
2461D
100
AcDbEntity
  8
U2
100
AcDbLine
 10
10600.34064133492
 20
4990.127478609064
 30
0.0
 11
10600.34064133492
 21
4290.127478609064
 31
0.0
  0
TEXT
  5
24A3E
330
2461D
100
AcDbEntity
  8
SUNPOU
100
AcDbText
 10
4573.537175532316
 20
605.5905892942434
 30
0.0
 40
90.0
  1
その他現地の実情にあわせて設計して下さい。
  7
01
100
AcDbText
  0
TEXT
  5
24A3F
330
2461D
100
AcDbEntity
  8
SUNPOU
100
AcDbText
 10
4573.537175532316
 20
914.1620178656726
 30
0.0
 40
90.0
  1
寒冷地の場合、凍結深度等を考慮し、実情に
  7
01
100
AcDbText
  0
TEXT
  5
24A40
330
2461D
100
AcDbEntity
  8
SUNPOU
100
AcDbText
 10
4264.550952640426
 20
1257.700531535906
 30
0.0
 40
89.9993750043402
  1
地耐力   　　　 以上,コンクリート設計基準強度　　　　　以上
  7
01
100
AcDbText
  0
TEXT
  5
24A41
330
2461D
100
AcDbEntity
  8
SUNPOU
100
AcDbText
 10
4133.987323924194
 20
1446.95453398186
 30
0.0
 40
90.0
  1
<下記条件での参考図>
  7
01
 72
     4
 11
4722.844466781338
 21
1491.95453398186
 31
0.0
100
AcDbText
  0
ARC
  5
24A42
330
2461D
100
AcDbEntity
  8
SUNPOU
100
AcDbCircle
 10
4417.509226547625
 20
1221.487954977737
 30
0.0
 40
225.0
100
AcDbArc
 50
148.347272528265
 51
211.6527274717349
  0
TEXT
  5
24A43
330
2461D
100
AcDbEntity
  8
SUNPOU
100
AcDbText
 10
4573.537175532316
 20
759.8763035799546
 30
0.0
 40
90.0
  1
あわせて設計して下さい。
  7
01
100
AcDbText
  0
TEXT
  5
24A44
330
2461D
100
AcDbEntity
  8
SUNPOU
100
AcDbText
 10
4264.550952640426
 20
1103.414817250192
 30
0.0
 40
89.9993750043402
  1
基準風速   　　 , 地表面粗度区分
  7
01
100
AcDbText
  0
TEXT
  5
24A45
330
2461D
100
AcDbEntity
  8
SUNPOU
100
AcDbText
 10
4367.331430442919
 20
914.1620178656726
 30
0.0
 40
90.0
  1
1
 41
0.6700000000000001
  7
01
100
AcDbText
  0
TEXT
  5
24A46
330
2461D
100
AcDbEntity
  8
SUNPOU
100
AcDbText
 10
4256.69751023018
 20
914.1620178656726
 30
0.0
 40
90.0
  1
注　）
  7
01
100
AcDbText
  0
TEXT
  5
24A47
330
2461D
100
AcDbEntity
  8
SUNPOU
100
AcDbText
 10
4367.331430442919
 20
605.5905892942434
 30
0.0
 40
90.0
  1
2
 41
0.6700000000000001
  7
01
100
AcDbText
  0
TEXT
  5
24A48
330
2461D
100
AcDbEntity
  8
SUNPOU
100
AcDbText
 10
4256.69751023018
 20
605.5905892942434
 30
0.0
 40
90.0
  1
注　）
  7
01
100
AcDbText
  0
TEXT
  5
24A49
330
2461D
100
AcDbEntity
  8
SUNPOU
100
AcDbText
 10
4638.8093600655
 20
1257.700531535906
 30
0.0
 40
89.9993750043402
  1
50  N/m
 41
0.6700000000000001
  7
01
100
AcDbText
  0
TEXT
  5
24A4A
330
2461D
100
AcDbEntity
  8
SUNPOU
100
AcDbText
 10
5042.28596957985
 20
1307.888957893391
 30
0.0
 40
46.28539285937498
  1
2
 41
0.6700000000000001
  7
00
100
AcDbText
  0
TEXT
  5
24A4B
330
2461D
100
AcDbEntity
  8
SUNPOU
100
AcDbText
 10
4774.645812851451
 20
1257.700531535906
 30
0.0
 40
71.99950000347218
  1
K
 41
0.6700000000000001
  7
01
100
AcDbText
  0
TEXT
  5
24A4C
330
2461D
100
AcDbEntity
  8
SUNPOU
100
AcDbText
 10
4748.31438130559
 20
1103.414817250192
 30
0.0
 40
89.9993750043402
  1
34 m/s
 41
0.6700000000000001
  7
01
100
AcDbText
  0
LINE
  5
24A4D
330
2461D
100
AcDbEntity
  8
SUNPOU
100
AcDbLine
 10
6101.36651420703
 20
1103.414817250192
 30
0.0
 11
6101.36651420703
 21
1186.907180948974
 31
0.0
  0
LINE
  5
24A4E
330
2461D
100
AcDbEntity
  8
SUNPOU
100
AcDbLine
 10
6084.49151420703
 20
1103.414817250192
 30
0.0
 11
6084.49151420703
 21
1186.907180948974
 31
0.0
  0
LINE
  5
24A4F
330
2461D
100
AcDbEntity
  8
SUNPOU
100
AcDbLine
 10
6067.61651420703
 20
1103.414817250192
 30
0.0
 11
6067.61651420703
 21
1186.907180948974
 31
0.0
  0
LINE
  5
24A50
330
2461D
100
AcDbEntity
  8
SUNPOU
100
AcDbLine
 10
6056.366514207031
 20
1103.414817250191
 30
0.0
 11
6112.616514207033
 21
1103.414817250191
 31
0.0
  0
LINE
  5
24A51
330
2461D
100
AcDbEntity
  8
SUNPOU
100
AcDbLine
 10
6056.366514207031
 20
1186.907180948974
 30
0.0
 11
6112.616514207033
 21
1186.907180948974
 31
0.0
  0
TEXT
  5
24A52
330
2461D
100
AcDbEntity
  8
SUNPOU
100
AcDbText
 10
4192.340297376231
 20
1688.616086097844
 30
0.0
 40
120.0
  1
基礎断面図
  7
01
 72
     4
 11
4532.340297376231
 21
1748.616086097844
 31
0.0
100
AcDbText
  0
TEXT
  5
24A53
330
2461D
100
AcDbEntity
  8
SUNPOU
100
AcDbText
 10
4909.190634739206
 20
1700.923778405538
 30
0.0
 40
92.30769230769228
  1
（ S = 　　  ）
 41
0.6700000000000001
  7
00
 11
4909.190634739206
 21
1688.616086097846
 31
0.0
100
AcDbText
 73
     1
  0
TEXT
  5
24A54
330
2461D
100
AcDbEntity
  8
SUNPOU
100
AcDbText
 10
5341.248906862025
 20
1680.000701482457
 30
0.0
 40
73.84615384615381
  1
20
 41
0.6700000000000001
  7
00
 11
5341.248906862025
 21
1670.154547636303
 31
0.0
100
AcDbText
 73
     1
  0
TEXT
  5
24A55
330
2461D
100
AcDbEntity
  8
SUNPOU
100
AcDbText
 10
5277.299463907655
 20
1698.462239944
 30
0.0
 40
73.84615384615381
  1
/
 41
0.6700000000000001
  7
00
 11
5277.299463907655
 21
1688.616086097846
 31
0.0
100
AcDbText
 73
     1
  0
TEXT
  5
24A56
330
2461D
100
AcDbEntity
  8
SUNPOU
100
AcDbText
 10
5228.893336592286
 20
1716.923778405536
 30
0.0
 40
73.84615384615381
  1
1
 41
0.6700000000000001
  7
00
 11
5228.893336592286
 21
1707.077624559382
 31
0.0
100
AcDbText
 73
     1
  0
TEXT
  5
24A57
330
2461D
100
AcDbEntity
  8
SUNPOU
100
AcDbText
 10
6683.561430927141
 20
1257.700531535906
 30
0.0
 40
89.9993750043402
  1
18
 41
0.6700000000000001
  7
01
100
AcDbText
  0
TEXT
  5
24A58
330
2461D
100
AcDbEntity
  8
SUNPOU
100
AcDbText
 10
7123.862365744492
 20
1307.888957893391
 30
0.0
 40
46.28539285937498
  1
2
 41
0.6700000000000001
  7
00
100
AcDbText
  0
TEXT
  5
24A59
330
2461D
100
AcDbEntity
  8
SUNPOU
100
AcDbText
 10
6819.39788371309
 20
1257.700531535906
 30
0.0
 40
89.9993750043402
  1
N/mm
 41
0.6700000000000001
  7
01
100
AcDbText
  0
ARC
  5
24A5A
330
2461D
100
AcDbEntity
  8
SUNPOU
100
AcDbCircle
 10
7272.739630278109
 20
1243.972235763526
 30
0.0
 40
225.0
100
AcDbArc
 50
328.347272528265
 51
31.65272747173496
  0
ENDSEC
  0
SECTION
  2
OBJECTS
  0
DICTIONARY
  5
2460B
330
0
100
AcDbDictionary
281
     1
  3
ACAD_GROUP
350
2460C
  3
ACAD_LAYOUT
350
24618
  3
ACAD_MLINESTYLE
350
24615
  3
ACAD_PLOTSETTINGS
350
24617
  3
ACAD_PLOTSTYLENAME
350
2460D
  3
AcDbVariableDictionary
350
24A5B
  0
DICTIONARY
  5
2460C
102
{ACAD_REACTORS
330
2460B
102
}
330
2460B
100
AcDbDictionary
281
     1
  0
DICTIONARY
  5
24618
102
{ACAD_REACTORS
330
2460B
102
}
330
2460B
100
AcDbDictionary
281
     1
  3
Model
350
24620
  3
ﾚｲｱｳﾄ1
350
2461C
  0
DICTIONARY
  5
24615
102
{ACAD_REACTORS
330
2460B
102
}
330
2460B
100
AcDbDictionary
281
     1
  3
Standard
350
24616
  0
DICTIONARY
  5
24617
102
{ACAD_REACTORS
330
2460B
102
}
330
2460B
100
AcDbDictionary
281
     1
  0
ACDBDICTIONARYWDFLT
  5
2460D
102
{ACAD_REACTORS
330
2460B
102
}
330
2460B
100
AcDbDictionary
281
     1
  3
Normal
350
2460E
100
AcDbDictionaryWithDefault
340
2460E
  0
DICTIONARY
  5
24A5B
102
{ACAD_REACTORS
330
2460B
102
}
330
2460B
100
AcDbDictionary
281
     1
  3
DIMASSOC
350
24A5C
  0
LAYOUT
  5
24620
102
{ACAD_REACTORS
330
24618
102
}
330
24618
100
AcDbPlotSettings
  1

  2
Muratec V-1200 Is@Web Printer
  4

  6

 40
0.0
 41
0.0
 42
0.0
 43
0.0
 44
0.0
 45
0.0
 46
0.0
 47
0.0
 48
0.0
 49
0.0
140
0.0
141
0.0
142
1.0
143
1.0
 70
  1712
 72
     0
 73
     0
 74
     0
  7

 75
     0
147
1.0
148
0.0
149
0.0
100
AcDbLayout
  1
Model
 70
     1
 71
     0
 10
0.0
 20
0.0
 11
12.0
 21
9.0
 12
0.0
 22
0.0
 32
0.0
 14
0.0
 24
0.0
 34
0.0
 15
0.0
 25
0.0
 35
0.0
146
0.0
 13
0.0
 23
0.0
 33
0.0
 16
1.0
 26
0.0
 36
0.0
 17
0.0
 27
1.0
 37
0.0
 76
     0
330
2461D
  0
LAYOUT
  5
2461C
102
{ACAD_REACTORS
330
24618
102
}
330
24618
100
AcDbPlotSettings
  1

  2
Muratec V-1200 Is@Web Printer
  4

  6

 40
0.0
 41
0.0
 42
0.0
 43
0.0
 44
0.0
 45
0.0
 46
0.0
 47
0.0
 48
0.0
 49
0.0
140
0.0
141
0.0
142
1.0
143
1.0
 70
   688
 72
     0
 73
     0
 74
     5
  7

 75
    16
147
1.0
148
0.0
149
0.0
100
AcDbLayout
  1
ﾚｲｱｳﾄ1
 70
     0
 71
     1
 10
0.0
 20
0.0
 11
12.0
 21
9.0
 12
0.0
 22
0.0
 32
0.0
 14
1.000000000000000E+20
 24
1.000000000000000E+20
 34
1.000000000000000E+20
 15
-1.000000000000000E+20
 25
-1.000000000000000E+20
 35
-1.000000000000000E+20
146
0.0
 13
0.0
 23
0.0
 33
0.0
 16
1.0
 26
0.0
 36
0.0
 17
0.0
 27
1.0
 37
0.0
 76
     0
330
24619
  0
MLINESTYLE
  5
24616
102
{ACAD_REACTORS
330
24615
102
}
330
24615
100
AcDbMlineStyle
  2
STANDARD
 70
     0
  3

 62
   256
 51
90.0
 52
90.0
 71
     2
 49
0.5
 62
   256
  6
BYLAYER
 49
-0.5
 62
   256
  6
BYLAYER
  0
ACDBPLACEHOLDER
  5
2460E
102
{ACAD_REACTORS
330
2460D
102
}
330
2460D
  0
DICTIONARYVAR
  5
24A5C
102
{ACAD_REACTORS
330
24A5B
102
}
330
24A5B
100
DictionaryVariables
280
     0
  1
1
  0
ENDSEC
  0
EOF
