  0
SECTION
  2
HEADER
  9
$ACADVER
  1
AC1015
  9
$ACADMAINTVER
 70
    13
  9
$DWGCODEPAGE
  3
ANSI_932
  9
$INSBASE
 10
267.0
 20
194.8999999999998
 30
0.0
  9
$EXTMIN
 10
325.4974662390304
 20
122.7681178119601
 30
-0.0000000000000052
  9
$EXTMAX
 10
12286.99954069103
 20
8431.707478684501
 30
0.00000000000001
  9
$LIMMIN
 10
0.0
 20
0.0
  9
$LIMMAX
 10
12600.0
 20
8910.0
  9
$ORTHOMODE
 70
     0
  9
$REGENMODE
 70
     1
  9
$FILLMODE
 70
     1
  9
$QTEXTMODE
 70
     0
  9
$MIRRTEXT
 70
     0
  9
$LTSCALE
 40
30.0
  9
$ATTMODE
 70
     1
  9
$TEXTSIZE
 40
0.2
  9
$TRACEWID
 40
0.05
  9
$TEXTSTYLE
  7
00
  9
$CLAYER
  8
SUNPOU
  9
$CELTYPE
  6
ByLayer
  9
$CECOLOR
 62
   256
  9
$CELTSCALE
 40
1.0
  9
$DISPSILH
 70
     0
  9
$DIMSCALE
 40
30.0
  9
$DIMASZ
 40
0.5
  9
$DIMEXO
 40
1.0
  9
$DIMDLI
 40
7.0
  9
$DIMRND
 40
0.0
  9
$DIMDLE
 40
3.0
  9
$DIMEXE
 40
1.5
  9
$DIMTP
 40
0.0
  9
$DIMTM
 40
0.0
  9
$DIMTXT
 40
3.0
  9
$DIMCEN
 40
0.0
  9
$DIMTSZ
 40
0.0
  9
$DIMTOL
 70
     0
  9
$DIMLIM
 70
     0
  9
$DIMTIH
 70
     0
  9
$DIMTOH
 70
     0
  9
$DIMSE1
 70
     0
  9
$DIMSE2
 70
     0
  9
$DIMTAD
 70
     1
  9
$DIMZIN
 70
     8
  9
$DIMBLK
  1
DOT
  9
$DIMASO
 70
     1
  9
$DIMSHO
 70
     0
  9
$DIMPOST
  1

  9
$DIMAPOST
  1

  9
$DIMALT
 70
     0
  9
$DIMALTD
 70
     2
  9
$DIMALTF
 40
25.4
  9
$DIMLFAC
 40
1.0
  9
$DIMTOFL
 70
     1
  9
$DIMTVP
 40
0.0
  9
$DIMTIX
 70
     0
  9
$DIMSOXD
 70
     0
  9
$DIMSAH
 70
     1
  9
$DIMBLK1
  1
DOT
  9
$DIMBLK2
  1
DOT
  9
$DIMSTYLE
  2
SUNPOU
  9
$DIMCLRD
 70
   256
  9
$DIMCLRE
 70
   256
  9
$DIMCLRT
 70
   256
  9
$DIMTFAC
 40
1.0
  9
$DIMGAP
 40
1.5
  9
$DIMJUST
 70
     0
  9
$DIMSD1
 70
     0
  9
$DIMSD2
 70
     0
  9
$DIMTOLJ
 70
     1
  9
$DIMTZIN
 70
     0
  9
$DIMALTZ
 70
     0
  9
$DIMALTTZ
 70
     0
  9
$DIMUPT
 70
     0
  9
$DIMDEC
 70
     4
  9
$DIMTDEC
 70
     4
  9
$DIMALTU
 70
     2
  9
$DIMALTTD
 70
     2
  9
$DIMTXSTY
  7
STANDARD
  9
$DIMAUNIT
 70
     0
  9
$DIMADEC
 70
     0
  9
$DIMALTRND
 40
0.0
  9
$DIMAZIN
 70
     0
  9
$DIMDSEP
 70
    46
  9
$DIMATFIT
 70
     3
  9
$DIMFRAC
 70
     0
  9
$DIMLDRBLK
  1
DOT
  9
$DIMLUNIT
 70
     2
  9
$DIMLWD
 70
    -2
  9
$DIMLWE
 70
    -2
  9
$DIMTMOVE
 70
     0
  9
$LUNITS
 70
     2
  9
$LUPREC
 70
     2
  9
$SKETCHINC
 40
0.1
  9
$FILLETRAD
 40
0.0
  9
$AUNITS
 70
     0
  9
$AUPREC
 70
     0
  9
$MENU
  1
A:\TIGER\MENU\TIGER
  9
$ELEVATION
 40
0.0
  9
$PELEVATION
 40
0.0
  9
$THICKNESS
 40
0.0
  9
$LIMCHECK
 70
     0
  9
$CHAMFERA
 40
0.0
  9
$CHAMFERB
 40
0.0
  9
$CHAMFERC
 40
0.0
  9
$CHAMFERD
 40
0.0
  9
$SKPOLY
 70
     0
  9
$TDCREATE
 40
2450266.571064815
  9
$TDUCREATE
 40
2450266.196064815
  9
$TDUPDATE
 40
2456330.549277523
  9
$TDUUPDATE
 40
2456330.174277523
  9
$TDINDWG
 40
0.2533530556
  9
$TDUSRTIMER
 40
0.2533525231
  9
$USRTIMER
 70
     1
  9
$ANGBASE
 50
0.0
  9
$ANGDIR
 70
     0
  9
$PDMODE
 70
     0
  9
$PDSIZE
 40
0.0
  9
$PLINEWID
 40
0.0
  9
$SPLFRAME
 70
     0
  9
$SPLINETYPE
 70
     6
  9
$SPLINESEGS
 70
     8
  9
$HANDSEED
  5
287A6
  9
$SURFTAB1
 70
     6
  9
$SURFTAB2
 70
     6
  9
$SURFTYPE
 70
     6
  9
$SURFU
 70
     6
  9
$SURFV
 70
     6
  9
$UCSBASE
  2

  9
$UCSNAME
  2

  9
$UCSORG
 10
0.0
 20
0.0
 30
0.0
  9
$UCSXDIR
 10
1.0
 20
0.0
 30
0.0
  9
$UCSYDIR
 10
0.0
 20
1.0
 30
0.0
  9
$UCSORTHOREF
  2

  9
$UCSORTHOVIEW
 70
     0
  9
$UCSORGTOP
 10
0.0
 20
0.0
 30
0.0
  9
$UCSORGBOTTOM
 10
0.0
 20
0.0
 30
0.0
  9
$UCSORGLEFT
 10
0.0
 20
0.0
 30
0.0
  9
$UCSORGRIGHT
 10
0.0
 20
0.0
 30
0.0
  9
$UCSORGFRONT
 10
0.0
 20
0.0
 30
0.0
  9
$UCSORGBACK
 10
0.0
 20
0.0
 30
0.0
  9
$PUCSBASE
  2

  9
$PUCSNAME
  2

  9
$PUCSORG
 10
0.0
 20
0.0
 30
0.0
  9
$PUCSXDIR
 10
1.0
 20
0.0
 30
0.0
  9
$PUCSYDIR
 10
0.0
 20
1.0
 30
0.0
  9
$PUCSORTHOREF
  2

  9
$PUCSORTHOVIEW
 70
     0
  9
$PUCSORGTOP
 10
0.0
 20
0.0
 30
0.0
  9
$PUCSORGBOTTOM
 10
0.0
 20
0.0
 30
0.0
  9
$PUCSORGLEFT
 10
0.0
 20
0.0
 30
0.0
  9
$PUCSORGRIGHT
 10
0.0
 20
0.0
 30
0.0
  9
$PUCSORGFRONT
 10
0.0
 20
0.0
 30
0.0
  9
$PUCSORGBACK
 10
0.0
 20
0.0
 30
0.0
  9
$USERI1
 70
     3
  9
$USERI2
 70
     0
  9
$USERI3
 70
     0
  9
$USERI4
 70
     0
  9
$USERI5
 70
  1103
  9
$USERR1
 40
0.0
  9
$USERR2
 40
1.0
  9
$USERR3
 40
0.0
  9
$USERR4
 40
0.0
  9
$USERR5
 40
0.0
  9
$WORLDVIEW
 70
     1
  9
$SHADEDGE
 70
     3
  9
$SHADEDIF
 70
    70
  9
$TILEMODE
 70
     1
  9
$MAXACTVP
 70
    16
  9
$PINSBASE
 10
0.0
 20
0.0
 30
0.0
  9
$PLIMCHECK
 70
     0
  9
$PEXTMIN
 10
1.000000000000000E+20
 20
1.000000000000000E+20
 30
1.000000000000000E+20
  9
$PEXTMAX
 10
-1.000000000000000E+20
 20
-1.000000000000000E+20
 30
-1.000000000000000E+20
  9
$PLIMMIN
 10
0.0
 20
0.0
  9
$PLIMMAX
 10
12.0
 20
9.0
  9
$UNITMODE
 70
     0
  9
$VISRETAIN
 70
     0
  9
$PLINEGEN
 70
     1
  9
$PSLTSCALE
 70
     0
  9
$TREEDEPTH
 70
  3020
  9
$CMLSTYLE
  2
Standard
  9
$CMLJUST
 70
     0
  9
$CMLSCALE
 40
1.0
  9
$PROXYGRAPHICS
 70
     1
  9
$MEASUREMENT
 70
     0
  9
$CELWEIGHT
370
    -1
  9
$ENDCAPS
280
     0
  9
$JOINSTYLE
280
     0
  9
$LWDISPLAY
290
     0
  9
$INSUNITS
 70
     0
  9
$HYPERLINKBASE
  1

  9
$STYLESHEET
  1

  9
$XEDIT
290
     1
  9
$CEPSNTYPE
380
     0
  9
$PSTYLEMODE
290
     1
  9
$FINGERPRINTGUID
  2
{7C49F8F4-1B76-45B2-9A54-CD971E975E71}
  9
$VERSIONGUID
  2
{86045664-7DA2-42B2-AC20-B53D648C1567}
  9
$EXTNAMES
290
     1
  9
$PSVPSCALE
 40
0.0
  9
$OLESTARTUP
290
     0
  0
ENDSEC
  0
SECTION
  2
CLASSES
  0
CLASS
  1
ACDBDICTIONARYWDFLT
  2
AcDbDictionaryWithDefault
  3
AutoCAD 2000
 90
        0
280
     0
281
     0
  0
CLASS
  1
ACDBPLACEHOLDER
  2
AcDbPlaceHolder
  3
AutoCAD 2000
 90
        0
280
     0
281
     0
  0
CLASS
  1
LAYOUT
  2
AcDbLayout
  3
AutoCAD 2000
 90
        0
280
     0
281
     0
  0
CLASS
  1
DICTIONARYVAR
  2
AcDbDictionaryVar
  3
AutoCAD 2000
 90
        0
280
     0
281
     0
  0
ENDSEC
  0
SECTION
  2
TABLES
  0
TABLE
  2
VPORT
  5
27F13
330
0
100
AcDbSymbolTable
 70
     2
  0
VPORT
  5
287A5
330
27F13
100
AcDbSymbolTableRecord
100
AcDbViewportTableRecord
  2
*Active
 70
     0
 10
0.0
 20
0.0
 11
1.0
 21
1.0
 12
6306.248503465031
 22
4277.23779824823
 13
0.0
 23
0.0
 14
1.0
 24
1.0
 15
0.0
 25
0.0
 16
0.0
 26
0.0
 36
1.0
 17
0.0
 27
0.0
 37
0.0
 40
8372.125211525563
 41
1.527918781725888
 42
50.0
 43
0.0
 44
0.0
 50
0.0
 51
0.0
 71
     0
 72
 10000
 73
     1
 74
     0
 75
     0
 76
     0
 77
     0
 78
     0
281
     0
 65
     1
110
0.0
120
0.0
130
0.0
111
1.0
121
0.0
131
0.0
112
0.0
122
1.0
132
0.0
 79
     0
146
0.0
  0
ENDTAB
  0
TABLE
  2
LTYPE
  5
27F10
330
0
100
AcDbSymbolTable
 70
     7
  0
LTYPE
  5
27F1E
330
27F10
100
AcDbSymbolTableRecord
100
AcDbLinetypeTableRecord
  2
ByBlock
 70
     0
  3

 72
    65
 73
     0
 40
0.0
  0
LTYPE
  5
27F1F
330
27F10
100
AcDbSymbolTableRecord
100
AcDbLinetypeTableRecord
  2
ByLayer
 70
     0
  3

 72
    65
 73
     0
 40
0.0
  0
LTYPE
  5
27F20
330
27F10
100
AcDbSymbolTableRecord
100
AcDbLinetypeTableRecord
  2
CONTINUOUS
 70
     0
  3
実線
 72
    65
 73
     0
 40
0.0
  0
LTYPE
  5
27F30
330
27F10
100
AcDbSymbolTableRecord
100
AcDbLinetypeTableRecord
  2
HIDE-L
 70
     0
  3

 72
    65
 73
     2
 40
3.0
 49
2.0
 74
     0
 49
-1.0
 74
     0
  0
LTYPE
  5
27F31
330
27F10
100
AcDbSymbolTableRecord
100
AcDbLinetypeTableRecord
  2
HIDE-S
 70
     0
  3

 72
    65
 73
     2
 40
1.0
 49
0.5
 74
     0
 49
-0.5
 74
     0
  0
LTYPE
  5
27F32
330
27F10
100
AcDbSymbolTableRecord
100
AcDbLinetypeTableRecord
  2
1PL-M
 70
     0
  3

 72
    65
 73
     4
 40
15.0
 49
12.0
 74
     0
 49
-1.0
 74
     0
 49
1.0
 74
     0
 49
-1.0
 74
     0
  0
LTYPE
  5
27F33
330
27F10
100
AcDbSymbolTableRecord
100
AcDbLinetypeTableRecord
  2
1PL-S
 70
     0
  3

 72
    65
 73
     4
 40
4.0
 49
2.5
 74
     0
 49
-0.5
 74
     0
 49
0.5
 74
     0
 49
-0.5
 74
     0
  0
LTYPE
  5
27F34
330
27F10
100
AcDbSymbolTableRecord
100
AcDbLinetypeTableRecord
  2
HIDDEN
 70
     0
  3
__ __ __ __ __ __ __ __ __ __ __ __ __ __ __ __
 72
    65
 73
     2
 40
0.375
 49
0.25
 74
     0
 49
-0.125
 74
     0
  0
LTYPE
  5
27F35
330
27F10
100
AcDbSymbolTableRecord
100
AcDbLinetypeTableRecord
  2
KAKURE-1
 70
     0
  3

 72
    65
 73
     2
 40
2.0
 49
1.0
 74
     0
 49
-1.0
 74
     0
  0
ENDTAB
  0
TABLE
  2
LAYER
  5
27F0D
330
0
100
AcDbSymbolTable
 70
    27
  0
LAYER
  5
27F1B
330
27F0D
100
AcDbSymbolTableRecord
100
AcDbLayerTableRecord
  2
0
 70
     0
 62
     7
  6
CONTINUOUS
370
    -3
390
27F1A
  0
LAYER
  5
27F2D
330
27F0D
100
AcDbSymbolTableRecord
100
AcDbLayerTableRecord
  2
SUNPOU
 70
     0
 62
     4
  6
CONTINUOUS
370
    -3
390
27F1A
  0
LAYER
  5
27F36
330
27F0D
100
AcDbSymbolTableRecord
100
AcDbLayerTableRecord
  2
U1
 70
     0
 62
     3
  6
CONTINUOUS
370
    -3
390
27F1A
  0
LAYER
  5
27F37
330
27F0D
100
AcDbSymbolTableRecord
100
AcDbLayerTableRecord
  2
U2
 70
     0
 62
     4
  6
CONTINUOUS
370
    -3
390
27F1A
  0
LAYER
  5
27F38
330
27F0D
100
AcDbSymbolTableRecord
100
AcDbLayerTableRecord
  2
U3
 70
     0
 62
     6
  6
CONTINUOUS
370
    -3
390
27F1A
  0
LAYER
  5
27F39
330
27F0D
100
AcDbSymbolTableRecord
100
AcDbLayerTableRecord
  2
HIKIDASHI
 70
     0
 62
     6
  6
CONTINUOUS
370
    -3
390
27F1A
  0
LAYER
  5
27F3A
330
27F0D
100
AcDbSymbolTableRecord
100
AcDbLayerTableRecord
  2
1PL-M1
 70
     0
 62
     6
  6
1PL-M
370
    -3
390
27F1A
  0
LAYER
  5
27F3B
330
27F0D
100
AcDbSymbolTableRecord
100
AcDbLayerTableRecord
  2
YANE
 70
     0
 62
     1
  6
CONTINUOUS
370
    -3
390
27F1A
  0
LAYER
  5
27F3C
330
27F0D
100
AcDbSymbolTableRecord
100
AcDbLayerTableRecord
  2
KISO
 70
     0
 62
     2
  6
CONTINUOUS
370
    -3
390
27F1A
  0
LAYER
  5
27F3D
330
27F0D
100
AcDbSymbolTableRecord
100
AcDbLayerTableRecord
  2
HATCH
 70
     0
 62
     1
  6
CONTINUOUS
370
    -3
390
27F1A
  0
LAYER
  5
27F3E
330
27F0D
100
AcDbSymbolTableRecord
100
AcDbLayerTableRecord
  2
HARI
 70
     0
 62
     3
  6
CONTINUOUS
370
    -3
390
27F1A
  0
LAYER
  5
27F3F
330
27F0D
100
AcDbSymbolTableRecord
100
AcDbLayerTableRecord
  2
NAME
 70
     0
 62
    20
  6
CONTINUOUS
370
    -3
390
27F1A
  0
LAYER
  5
27F40
330
27F0D
100
AcDbSymbolTableRecord
100
AcDbLayerTableRecord
  2
FILENAME
 70
     0
 62
     7
  6
CONTINUOUS
370
    -3
390
27F1A
  0
LAYER
  5
27F41
330
27F0D
100
AcDbSymbolTableRecord
100
AcDbLayerTableRecord
  2
KERABA
 70
     0
 62
     2
  6
CONTINUOUS
370
    -3
390
27F1A
  0
LAYER
  5
27F42
330
27F0D
100
AcDbSymbolTableRecord
100
AcDbLayerTableRecord
  2
HASHIRA
 70
     0
 62
     3
  6
CONTINUOUS
370
    -3
390
27F1A
  0
LAYER
  5
27F43
330
27F0D
100
AcDbSymbolTableRecord
100
AcDbLayerTableRecord
  2
KETA
 70
     0
 62
     2
  6
CONTINUOUS
370
    -3
390
27F1A
  0
LAYER
  5
27F44
330
27F0D
100
AcDbSymbolTableRecord
100
AcDbLayerTableRecord
  2
BOLT
 70
     0
 62
     4
  6
CONTINUOUS
370
    -3
390
27F1A
  0
LAYER
  5
27F45
330
27F0D
100
AcDbSymbolTableRecord
100
AcDbLayerTableRecord
  2
KETA_KANAGU
 70
     0
 62
     4
  6
CONTINUOUS
370
    -3
390
27F1A
  0
LAYER
  5
27F46
330
27F0D
100
AcDbSymbolTableRecord
100
AcDbLayerTableRecord
  2
鼻隠し
 70
     0
 62
     7
  6
CONTINUOUS
370
    -3
390
27F1A
  0
LAYER
  5
27F47
330
27F0D
100
AcDbSymbolTableRecord
100
AcDbLayerTableRecord
  2
ケラバキャップ
 70
     0
 62
     7
  6
CONTINUOUS
370
    -3
390
27F1A
  0
LAYER
  5
27F48
330
27F0D
100
AcDbSymbolTableRecord
100
AcDbLayerTableRecord
  2
YANEUKE-FUREME
 70
     0
 62
     2
  6
CONTINUOUS
370
    -3
390
27F1A
  0
LAYER
  5
27F49
330
27F0D
100
AcDbSymbolTableRecord
100
AcDbLayerTableRecord
  2
YODOROGO
 70
     0
 62
   130
  6
CONTINUOUS
370
    -3
390
27F1A
  0
LAYER
  5
27F4A
330
27F0D
100
AcDbSymbolTableRecord
100
AcDbLayerTableRecord
  2
WAKUSEN-01
 70
     0
 62
    50
  6
CONTINUOUS
370
    -3
390
27F1A
  0
LAYER
  5
27F4B
330
27F0D
100
AcDbSymbolTableRecord
100
AcDbLayerTableRecord
  2
WAKUSEN-02
 70
     0
 62
   130
  6
CONTINUOUS
370
    -3
390
27F1A
  0
LAYER
  5
27F4C
330
27F0D
100
AcDbSymbolTableRecord
100
AcDbLayerTableRecord
  2
WAKUMOJI-01
 70
     0
 62
   130
  6
CONTINUOUS
370
    -3
390
27F1A
  0
LAYER
  5
27F4D
330
27F0D
100
AcDbSymbolTableRecord
100
AcDbLayerTableRecord
  2
鼻隠しコ-ナ-
 70
     0
 62
     7
  6
CONTINUOUS
370
    -3
390
27F1A
  0
LAYER
  5
27F4E
330
27F0D
100
AcDbSymbolTableRecord
100
AcDbLayerTableRecord
  2
SANKAKU
 70
     0
 62
     2
  6
CONTINUOUS
370
    -3
390
27F1A
  0
ENDTAB
  0
TABLE
  2
STYLE
  5
27F0E
330
0
100
AcDbSymbolTable
 70
     6
  0
STYLE
  5
27F1C
330
27F0E
100
AcDbSymbolTableRecord
100
AcDbTextStyleTableRecord
  2
STANDARD
 70
     0
 40
3.0
 41
1.0
 50
0.0
 71
     0
 42
0.2
  3
ROMANS
  4
EXTFONT
  0
STYLE
  5
27F2E
330
27F0E
100
AcDbSymbolTableRecord
100
AcDbTextStyleTableRecord
  2
00
 70
     0
 40
0.0
 41
0.6666666666666666
 50
0.0
 71
     0
 42
0.2
  3
ROMANS
  4
BIGFONT
  0
STYLE
  5
27F4F
330
27F0E
100
AcDbSymbolTableRecord
100
AcDbTextStyleTableRecord
  2
ANNOTATIVE
 70
     0
 40
0.0
 41
1.0
 50
0.0
 71
     0
 42
0.2
  3
txt
  4

  0
STYLE
  5
27F50
330
27F0E
100
AcDbSymbolTableRecord
100
AcDbTextStyleTableRecord
  2
01
 70
     0
 40
3.0
 41
1.0
 50
0.0
 71
     0
 42
0.2
  3
ROMANS
  4
BIGFONT
  0
STYLE
  5
27F51
330
27F0E
100
AcDbSymbolTableRecord
100
AcDbTextStyleTableRecord
  2
WAKUMOJI
 70
     0
 40
3.0
 41
1.0
 50
0.0
 71
     0
 42
3.0
  3
SIMPLEX
  4
BIGFONT
  0
STYLE
  5
27F52
330
27F0E
100
AcDbSymbolTableRecord
100
AcDbTextStyleTableRecord
  2
FILENAME
 70
     0
 40
75.0
 41
1.0
 50
0.0
 71
     0
 42
75.0
  3
romans
  4
bigfont
  0
ENDTAB
  0
TABLE
  2
VIEW
  5
27F11
330
0
100
AcDbSymbolTable
 70
     0
  0
ENDTAB
  0
TABLE
  2
UCS
  5
27F12
330
0
100
AcDbSymbolTable
 70
     0
  0
ENDTAB
  0
TABLE
  2
APPID
  5
27F14
330
0
100
AcDbSymbolTable
 70
    10
  0
APPID
  5
27F1D
330
27F14
100
AcDbSymbolTableRecord
100
AcDbRegAppTableRecord
  2
ACAD
 70
     0
  0
APPID
  5
27F53
330
27F14
100
AcDbSymbolTableRecord
100
AcDbRegAppTableRecord
  2
ACADANNOTATIVE
 70
     0
  0
APPID
  5
27F54
330
27F14
100
AcDbSymbolTableRecord
100
AcDbRegAppTableRecord
  2
AUTOCAD_POSTSCRIPT_FIGURE
 70
     0
  0
APPID
  5
27F55
330
27F14
100
AcDbSymbolTableRecord
100
AcDbRegAppTableRecord
  2
ACAD_PSEXT
 70
     0
  0
APPID
  5
27F56
330
27F14
100
AcDbSymbolTableRecord
100
AcDbRegAppTableRecord
  2
ACAD_EXEMPT_FROM_CAD_STANDARDS
 70
     0
  0
APPID
  5
27F57
330
27F14
100
AcDbSymbolTableRecord
100
AcDbRegAppTableRecord
  2
ACLAYERTOOLS
 70
     0
  0
APPID
  5
27F58
330
27F14
100
AcDbSymbolTableRecord
100
AcDbRegAppTableRecord
  2
ACAD_DSTYLE_DIMJAG
 70
     0
  0
APPID
  5
27F59
330
27F14
100
AcDbSymbolTableRecord
100
AcDbRegAppTableRecord
  2
ACAD_DSTYLE_DIMBREAK
 70
     0
  0
APPID
  5
27F5A
330
27F14
100
AcDbSymbolTableRecord
100
AcDbRegAppTableRecord
  2
ACAD_DSTYLE_DIMTALN
 70
     0
  0
APPID
  5
27F5B
330
27F14
100
AcDbSymbolTableRecord
100
AcDbRegAppTableRecord
  2
ACAD_MLEADERVER
 70
     0
  0
ENDTAB
  0
TABLE
  2
DIMSTYLE
  5
27F15
330
0
100
AcDbSymbolTable
 70
     3
100
AcDbDimStyleTable
 71
     0
  0
DIMSTYLE
105
27F5C
330
27F15
100
AcDbSymbolTableRecord
100
AcDbDimStyleTableRecord
  2
STANDARD
 70
     0
271
     2
272
     2
279
     2
284
     8
285
     8
286
     8
340
27F2E
  0
DIMSTYLE
105
27F5D
330
27F15
100
AcDbSymbolTableRecord
100
AcDbDimStyleTableRecord
  2
ANNOTATIVE
 70
     0
271
     2
272
     2
279
     2
284
     8
285
     8
286
     8
340
27F2E
  0
DIMSTYLE
105
27F5E
330
27F15
100
AcDbSymbolTableRecord
100
AcDbDimStyleTableRecord
  2
SUNPOU
 70
     0
 40
30.0
 41
0.5
 42
1.0
 43
7.0
 44
1.5
 46
3.0
 73
     0
 74
     0
 77
     1
 78
     8
140
3.0
141
0.0
147
1.5
172
     1
173
     1
176
   256
177
   256
178
   256
271
     2
272
     2
279
     2
284
     8
285
     8
286
     8
340
27F2E
  0
ENDTAB
  0
TABLE
  2
BLOCK_RECORD
  5
27F0C
330
0
100
AcDbSymbolTable
 70
     3
  0
BLOCK_RECORD
  5
27F29
330
27F0C
100
AcDbSymbolTableRecord
100
AcDbBlockTableRecord
  2
*Model_Space
340
27F2C
  0
BLOCK_RECORD
  5
27F25
330
27F0C
100
AcDbSymbolTableRecord
100
AcDbBlockTableRecord
  2
*Paper_Space
340
27F28
  0
BLOCK_RECORD
  5
27F64
330
27F0C
100
AcDbSymbolTableRecord
100
AcDbBlockTableRecord
  2
$MODEL_SPACE
340
0
  0
BLOCK_RECORD
  5
27F67
330
27F0C
100
AcDbSymbolTableRecord
100
AcDbBlockTableRecord
  2
$PAPER_SPACE
340
0
  0
BLOCK_RECORD
  5
27F6A
330
27F0C
100
AcDbSymbolTableRecord
100
AcDbBlockTableRecord
  2
DOT
340
0
  0
ENDTAB
  0
ENDSEC
  0
SECTION
  2
BLOCKS
  0
BLOCK
  5
27F2A
330
27F29
100
AcDbEntity
  8
0
100
AcDbBlockBegin
  2
*Model_Space
 70
     0
 10
0.0
 20
0.0
 30
0.0
  3
*Model_Space
  1

  0
ENDBLK
  5
27F2B
330
27F29
100
AcDbEntity
  8
0
100
AcDbBlockEnd
  0
BLOCK
  5
27F26
330
27F25
100
AcDbEntity
 67
     1
  8
0
100
AcDbBlockBegin
  2
*Paper_Space
 70
     0
 10
0.0
 20
0.0
 30
0.0
  3
*Paper_Space
  1

  0
ENDBLK
  5
27F27
330
27F25
100
AcDbEntity
 67
     1
  8
0
100
AcDbBlockEnd
  0
BLOCK
  5
27F65
330
27F64
100
AcDbEntity
  8
0
100
AcDbBlockBegin
  2
$MODEL_SPACE
 70
     0
 10
0.0
 20
0.0
 30
0.0
  3
$MODEL_SPACE
  1

  0
ENDBLK
  5
27F66
330
27F64
100
AcDbEntity
  8
0
100
AcDbBlockEnd
  0
BLOCK
  5
27F68
330
27F67
100
AcDbEntity
  8
0
100
AcDbBlockBegin
  2
$PAPER_SPACE
 70
     0
 10
0.0
 20
0.0
 30
0.0
  3
$PAPER_SPACE
  1

  0
ENDBLK
  5
27F69
330
27F67
100
AcDbEntity
  8
0
100
AcDbBlockEnd
  0
BLOCK
  5
27F6B
330
27F6A
100
AcDbEntity
  8
0
100
AcDbBlockBegin
  2
DOT
 70
     0
 10
0.0
 20
0.0
 30
0.0
  3
DOT
  1

  0
LWPOLYLINE
  5
27F6C
330
27F6A
100
AcDbEntity
  8
0
  6
ByBlock
 62
     0
100
AcDbPolyline
 90
        2
 70
     1
 43
0.75
 10
-0.375
 20
0.0
 42
1.0
 10
0.375
 20
0.0
 42
1.0
  0
LINE
  5
27F70
330
27F6A
100
AcDbEntity
  8
0
  6
ByBlock
 62
     0
100
AcDbLine
 10
-0.75
 20
0.0
 30
0.0
 11
-1.5
 21
0.0
 31
0.0
  0
ENDBLK
  5
27F71
330
27F6A
100
AcDbEntity
  8
0
100
AcDbBlockEnd
  0
ENDSEC
  0
SECTION
  2
ENTITIES
  0
TEXT
  5
27F72
330
27F29
100
AcDbEntity
  8
NAME
100
AcDbText
 10
9402.694977008239
 20
716.2499999999992
 30
0.0
 40
120.0
  1
YOTC
 41
0.7
  7
01
100
AcDbText
  0
TEXT
  5
27F73
330
27F29
100
AcDbEntity
  8
NAME
100
AcDbText
 10
8327.765992739108
 20
716.2499999999992
 30
0.0
 40
120.0
  1
ヨド自転車置場      型
  7
01
100
AcDbText
  0
TEXT
  5
27F74
330
27F29
100
AcDbEntity
  8
NAME
100
AcDbText
 10
8862.031985478219
 20
405.75
 30
0.0
 40
120.0
  1
型（一般地用）
 41
0.8
  7
01
100
AcDbText
  0
TEXT
  5
27F75
330
27F29
100
AcDbEntity
  8
NAME
100
AcDbText
 10
8192.031985478219
 20
405.75
 30
0.0
 40
120.0
  1
YOTC-315
 41
0.7
  7
01
 72
     2
 11
8832.03198547822
 21
405.75
 31
0.0
100
AcDbText
  0
TEXT
  5
27F76
330
27F29
100
AcDbEntity
  8
NAME
100
AcDbText
 10
9641.100000000001
 20
405.75
 30
0.0
 40
120.0
  1
<1／3>
 41
0.6
  7
01
 72
     2
 11
10015.49999999999
 21
405.75
 31
0.0
100
AcDbText
  0
TEXT
  5
27F77
330
27F29
100
AcDbEntity
  8
HIKIDASHI
100
AcDbText
 10
5462.579123612234
 20
4717.327533957401
 30
0.0
 40
135.0
  1
正 面 立 面 図
  7
01
 72
     2
 11
6551.579123612234
 21
4717.327533957401
 31
0.0
100
AcDbText
  0
TEXT
  5
27F78
330
27F29
100
AcDbEntity
  8
HIKIDASHI
100
AcDbText
 10
6652.829123612234
 20
4744.121031017239
 30
0.0
 40
90.0
  1
(S=
 41
0.6700000000000001
  7
00
100
AcDbText
  0
TEXT
  5
27F79
330
27F29
100
AcDbEntity
  8
HIKIDASHI
100
AcDbText
 10
6945.486858247431
 20
4714.682220916929
 30
0.0
 40
90.0
  1
30
 41
0.6700000000000001
  7
00
100
AcDbText
  0
TEXT
  5
27F7A
330
27F29
100
AcDbEntity
  8
HIKIDASHI
100
AcDbText
 10
7082.09162131767
 20
4744.121031017239
 30
0.0
 40
90.0
  1
)
 41
0.6700000000000001
  7
00
100
AcDbText
  0
TEXT
  5
27F7B
330
27F29
100
AcDbEntity
  8
HIKIDASHI
100
AcDbText
 10
6893.404809139465
 20
4744.121031017239
 30
0.0
 40
90.0
  1
/
 41
0.6700000000000001
  7
00
100
AcDbText
  0
TEXT
  5
27F7C
330
27F29
100
AcDbEntity
  8
HIKIDASHI
100
AcDbText
 10
6856.125529042117
 20
4761.627693483961
 30
0.0
 40
90.0
  1
1
 41
0.6700000000000001
  7
00
100
AcDbText
  0
TEXT
  5
27F7D
330
27F29
100
AcDbEntity
  8
HIKIDASHI
100
AcDbText
 10
5753.81955589972
 20
4537.3275339574
 30
0.0
 40
120.0
  1
（  ：スパン数）
  7
01
 72
     4
 11
6309.81955589972
 21
4597.3275339574
 31
0.0
100
AcDbText
  0
TEXT
  5
27F7E
330
27F29
100
AcDbEntity
  8
HIKIDASHI
100
AcDbText
 10
5932.409239210024
 20
4537.3275339574
 30
0.0
 40
120.0
  1
N
 41
0.6666666666666666
  7
00
 72
     4
 11
5974.314001114785
 21
4597.3275339574
 31
0.0
100
AcDbText
  0
LINE
  5
27F7F
330
27F29
100
AcDbEntity
  8
SUNPOU
100
AcDbLine
 10
5471.0
 20
7773.736304084138
 30
0.0
 11
7141.000000000001
 21
7773.736304084138
 31
0.0
  0
TEXT
  5
27F80
330
27F29
100
AcDbEntity
  8
SUNPOU
100
AcDbText
 10
5916.285714285714
 20
7818.736304084139
 30
0.0
 40
90.0
  1
3150 ×（ N - 2 ）
 41
0.6666666666666666
  7
00
 72
     4
 11
6306.0
 21
7863.736304084138
 31
0.0
100
AcDbText
  0
LINE
  5
27F81
330
27F29
100
AcDbEntity
  8
U3
100
AcDbLine
 10
1956.0
 20
5045.92590678647
 30
0.0
 11
1494.63961030679
 21
5045.92590678647
 31
0.0
  0
TEXT
  5
27F82
330
27F29
100
AcDbEntity
  8
SUNPOU
100
AcDbText
 10
1561.066136088868
 20
5180.92590678647
 30
0.0
 40
90.0
  1
G.L
 41
0.6666666666666666
  7
00
 72
     4
 11
1632.494707517439
 21
5225.92590678647
 31
0.0
100
AcDbText
  0
LINE
  5
27F83
330
27F29
100
AcDbEntity
  8
SUNPOU
100
AcDbLine
 10
1684.456231744509
 20
5135.92590678647
 30
0.0
 11
1580.533183290376
 21
5135.92590678647
 31
0.0
  0
LINE
  5
27F84
330
27F29
100
AcDbEntity
  8
SUNPOU
100
AcDbLine
 10
1580.533183290376
 20
5135.92590678647
 30
0.0
 11
1632.494707517439
 21
5045.92590678647
 31
0.0
  0
LINE
  5
27F85
330
27F29
100
AcDbEntity
  8
1PL-M1
100
AcDbLine
 10
5456.000000000001
 20
5000.662751615204
 30
0.0
 11
5456.000000000001
 21
7326.509901909125
 31
0.0
  0
LINE
  5
27F86
330
27F29
100
AcDbEntity
  8
1PL-M1
100
AcDbLine
 10
2306.0
 20
5000.662751615204
 30
0.0
 11
2306.0
 21
7326.509901909125
 31
0.0
  0
LINE
  5
27F87
330
27F29
100
AcDbEntity
  8
KISO
100
AcDbLine
 10
1956.0
 20
5045.92590678647
 30
0.0
 11
6246.000000000001
 21
5045.925906786473
 31
0.0
  0
LINE
  5
27F88
330
27F29
100
AcDbEntity
  8
KISO
100
AcDbLine
 10
6246.000000000001
 20
5095.925906786473
 30
0.0
 11
1956.0
 21
5095.925906786473
 31
0.0
  0
LINE
  5
27F89
330
27F29
100
AcDbEntity
  8
HASHIRA
100
AcDbLine
 10
2338.500000000001
 20
5095.925906786473
 30
0.0
 11
2338.500000000001
 21
6783.285412400179
 31
0.0
  0
LINE
  5
27F8A
330
27F29
100
AcDbEntity
  8
HASHIRA
100
AcDbLine
 10
2273.500000000001
 20
5095.925906786473
 30
0.0
 11
2273.500000000001
 21
6783.285412400179
 31
0.0
  0
LINE
  5
27F8B
330
27F29
100
AcDbEntity
  8
SUNPOU
100
AcDbLine
 10
2132.60226723814
 20
5095.925906786473
 30
0.0
 11
2184.563791465208
 21
5185.92590678647
 31
0.0
  0
LINE
  5
27F8C
330
27F29
100
AcDbEntity
  8
SUNPOU
100
AcDbLine
 10
2080.640743011075
 20
5185.92590678647
 30
0.0
 11
2132.60226723814
 21
5095.925906786473
 31
0.0
  0
LINE
  5
27F8D
330
27F29
100
AcDbEntity
  8
SUNPOU
100
AcDbLine
 10
1632.494707517439
 20
5045.92590678647
 30
0.0
 11
1684.456231744509
 21
5135.92590678647
 31
0.0
  0
LINE
  5
27F8E
330
27F29
100
AcDbEntity
  8
KISO
100
AcDbLine
 10
1956.0
 20
5095.925906786473
 30
0.0
 11
1956.0
 21
5045.92590678647
 31
0.0
  0
TEXT
  5
27F8F
330
27F29
100
AcDbEntity
  8
SUNPOU
100
AcDbText
 10
2064.030838666712
 20
5230.925906786469
 30
0.0
 40
90.0
  1
F.L
 41
0.6666666666666666
  7
00
 72
     4
 11
2132.60226723814
 21
5275.925906786469
 31
0.0
100
AcDbText
  0
LINE
  5
27F90
330
27F29
100
AcDbEntity
  8
SUNPOU
100
AcDbLine
 10
2184.563791465208
 20
5185.92590678647
 30
0.0
 11
2080.640743011075
 21
5185.92590678647
 31
0.0
  0
LINE
  5
27F91
330
27F29
100
AcDbEntity
  8
U2
100
AcDbLine
 10
6246.000000000001
 20
4925.925906786473
 30
0.0
 11
6246.000000000001
 21
7419.925906786478
 31
0.0
  0
LINE
  5
27F92
330
27F29
100
AcDbEntity
  8
HASHIRA
100
AcDbLine
 10
5488.500000000001
 20
5095.925906786473
 30
0.0
 11
5488.500000000001
 21
6783.285412400179
 31
0.0
  0
LINE
  5
27F93
330
27F29
100
AcDbEntity
  8
HASHIRA
100
AcDbLine
 10
5423.500000000001
 20
5095.925906786473
 30
0.0
 11
5423.500000000001
 21
6783.285412400179
 31
0.0
  0
LINE
  5
27F94
330
27F29
100
AcDbEntity
  8
SUNPOU
100
AcDbLine
 10
2321.000000000001
 20
7773.736304084138
 30
0.0
 11
5441.000000000001
 21
7773.736304084138
 31
0.0
  0
TEXT
  5
27F95
330
27F29
100
AcDbEntity
  8
SUNPOU
100
AcDbText
 10
3766.714285714287
 20
7818.736304084139
 30
0.0
 40
90.0
  1
3150
 41
0.6666666666666666
  7
00
 72
     1
 11
3881.000000000002
 21
7863.736304084138
 31
0.0
100
AcDbText
 73
     2
  0
LINE
  5
27F96
330
27F29
100
AcDbEntity
  8
SUNPOU
100
AcDbLine
 10
2306.0
 20
7356.509901909129
 30
0.0
 11
2306.0
 21
7818.736304084142
 31
0.0
  0
LINE
  5
27F97
330
27F29
100
AcDbEntity
  8
SUNPOU
100
AcDbLine
 10
2306.0
 20
7356.509901909129
 30
0.0
 11
2306.0
 21
7818.736304084142
 31
0.0
  0
LINE
  5
27F98
330
27F29
100
AcDbEntity
  8
SUNPOU
100
AcDbLine
 10
5456.000000000001
 20
7356.509901909129
 30
0.0
 11
5456.000000000001
 21
7818.736304084142
 31
0.0
  0
LINE
  5
27F99
330
27F29
100
AcDbEntity
  8
SUNPOU
100
AcDbLine
 10
5456.000000000001
 20
7356.509901909129
 30
0.0
 11
5456.000000000001
 21
7818.736304084142
 31
0.0
  0
LINE
  5
27F9A
330
27F29
100
AcDbEntity
  8
1PL-M1
100
AcDbLine
 10
7156.000000000003
 20
5000.662751615204
 30
0.0
 11
7156.000000000003
 21
7326.509901909125
 31
0.0
  0
LINE
  5
27F9B
330
27F29
100
AcDbEntity
  8
1PL-M1
100
AcDbLine
 10
10306.0
 20
5000.662751615204
 30
0.0
 11
10306.0
 21
7326.509901909125
 31
0.0
  0
LINE
  5
27F9C
330
27F29
100
AcDbEntity
  8
KISO
100
AcDbLine
 10
10656.0
 20
5095.925906786473
 30
0.0
 11
6366.000000000001
 21
5095.925906786473
 31
0.0
  0
LINE
  5
27F9D
330
27F29
100
AcDbEntity
  8
KISO
100
AcDbLine
 10
6366.000000000001
 20
5045.925906786473
 30
0.0
 11
10656.0
 21
5045.92590678647
 31
0.0
  0
LINE
  5
27F9E
330
27F29
100
AcDbEntity
  8
U2
100
AcDbLine
 10
6366.000000000001
 20
4925.925906786473
 30
0.0
 11
6366.000000000001
 21
7419.925906786478
 31
0.0
  0
LINE
  5
27F9F
330
27F29
100
AcDbEntity
  8
HASHIRA
100
AcDbLine
 10
7188.500000000001
 20
5095.925906786473
 30
0.0
 11
7188.500000000001
 21
6783.285412400179
 31
0.0
  0
LINE
  5
27FA0
330
27F29
100
AcDbEntity
  8
HASHIRA
100
AcDbLine
 10
7123.500000000001
 20
5095.925906786473
 30
0.0
 11
7123.500000000004
 21
6783.285412400179
 31
0.0
  0
LINE
  5
27FA1
330
27F29
100
AcDbEntity
  8
HASHIRA
100
AcDbLine
 10
10338.5
 20
5095.925906786473
 30
0.0
 11
10338.5
 21
6783.285412400179
 31
0.0
  0
LINE
  5
27FA2
330
27F29
100
AcDbEntity
  8
HASHIRA
100
AcDbLine
 10
10273.49999999999
 20
5095.925906786473
 30
0.0
 11
10273.49999999999
 21
6783.285412400179
 31
0.0
  0
LINE
  5
27FA3
330
27F29
100
AcDbEntity
  8
KISO
100
AcDbLine
 10
10656.0
 20
5045.92590678647
 30
0.0
 11
10656.0
 21
5095.925906786473
 31
0.0
  0
LINE
  5
27FA4
330
27F29
100
AcDbEntity
  8
SUNPOU
100
AcDbLine
 10
7171.000000000001
 20
7773.736304084138
 30
0.0
 11
10291.0
 21
7773.736304084138
 31
0.0
  0
LINE
  5
27FA5
330
27F29
100
AcDbEntity
  8
SUNPOU
100
AcDbLine
 10
7156.000000000003
 20
7356.509901909129
 30
0.0
 11
7156.000000000003
 21
7818.736304084142
 31
0.0
  0
LINE
  5
27FA6
330
27F29
100
AcDbEntity
  8
SUNPOU
100
AcDbLine
 10
7156.000000000003
 20
7356.509901909129
 30
0.0
 11
7156.000000000003
 21
7818.736304084142
 31
0.0
  0
TEXT
  5
27FA7
330
27F29
100
AcDbEntity
  8
SUNPOU
100
AcDbText
 10
8616.714285714293
 20
7818.736304084139
 30
0.0
 40
90.0
  1
3150
 41
0.6666666666666666
  7
00
 72
     1
 11
8731.000000000006
 21
7863.736304084138
 31
0.0
100
AcDbText
 73
     2
  0
LINE
  5
27FA8
330
27F29
100
AcDbEntity
  8
SUNPOU
100
AcDbLine
 10
10306.0
 20
7356.509901909129
 30
0.0
 11
10306.0
 21
7818.736304084142
 31
0.0
  0
LINE
  5
27FA9
330
27F29
100
AcDbEntity
  8
SUNPOU
100
AcDbLine
 10
10306.0
 20
7356.509901909129
 30
0.0
 11
10306.0
 21
7818.736304084142
 31
0.0
  0
LINE
  5
27FAA
330
27F29
100
AcDbEntity
  8
鼻隠しコ-ナ-
100
AcDbLine
 10
10680.00614983229
 20
7299.925906786477
 30
0.0
 11
10680.00614983229
 21
7301.292408947418
 31
0.0
  0
LINE
  5
27FAB
330
27F29
100
AcDbEntity
  8
鼻隠しコ-ナ-
100
AcDbLine
 10
10680.00614983229
 20
7301.292408947418
 30
0.0
 11
10690.00614983229
 21
7301.292408947418
 31
0.0
  0
LINE
  5
27FAC
330
27F29
100
AcDbEntity
  8
鼻隠しコ-ナ-
100
AcDbLine
 10
10702.00614983229
 20
7289.292408947417
 30
0.0
 11
10702.00614983229
 21
7179.373021880248
 31
0.0
  0
LINE
  5
27FAD
330
27F29
100
AcDbEntity
  8
鼻隠しコ-ナ-
100
AcDbLine
 10
10690.00614983229
 20
7167.373021880249
 30
0.0
 11
10680.00614983229
 21
7167.373021880249
 31
0.0
  0
ARC
  5
27FAE
330
27F29
100
AcDbEntity
  8
鼻隠しコ-ナ-
100
AcDbCircle
 10
10690.00614983229
 20
7289.292408947417
 30
0.0
 40
12.0
100
AcDbArc
 50
0.0
 51
90.0
  0
ARC
  5
27FAF
330
27F29
100
AcDbEntity
  8
鼻隠しコ-ナ-
100
AcDbCircle
 10
10690.00614983229
 20
7179.373021880248
 30
0.0
 40
12.0
100
AcDbArc
 50
270.0
 51
0.0
  0
LINE
  5
27FB0
330
27F29
100
AcDbEntity
  8
U2
100
AcDbLine
 10
10700.00614983229
 20
7084.165018962249
 30
0.0
 11
10700.00614983229
 21
6976.318376858272
 31
0.0
  0
LINE
  5
27FB1
330
27F29
100
AcDbEntity
  8
U2
100
AcDbLine
 10
10701.00614983229
 20
7174.577190356933
 30
0.0
 11
10701.00614983229
 21
6976.318376858272
 31
0.0
  0
LINE
  5
27FB2
330
27F29
100
AcDbEntity
  8
U2
100
AcDbLine
 10
10690.00614983229
 20
6966.318376858271
 30
0.0
 11
10644.00614983229
 21
6966.318376858271
 31
0.0
  0
LINE
  5
27FB3
330
27F29
100
AcDbEntity
  8
U2
100
AcDbLine
 10
10690.00614983229
 20
6965.31837685827
 30
0.0
 11
10644.00614983229
 21
6965.31837685827
 31
0.0
  0
LINE
  5
27FB4
330
27F29
100
AcDbEntity
  8
U2
100
AcDbLine
 10
10651.00614983229
 20
6967.318376858272
 30
0.0
 11
10651.00614983229
 21
6966.318376858271
 31
0.0
  0
ARC
  5
27FB5
330
27F29
100
AcDbEntity
  8
U2
100
AcDbCircle
 10
10644.00614983229
 20
6966.318376858271
 30
0.0
 40
1.0
100
AcDbArc
 50
90.0
 51
270.0
  0
LINE
  5
27FB6
330
27F29
100
AcDbEntity
  8
U2
100
AcDbLine
 10
10651.00614983229
 20
6967.318376858272
 30
0.0
 11
10644.00614983229
 21
6967.318376858272
 31
0.0
  0
ARC
  5
27FB7
330
27F29
100
AcDbEntity
  8
U2
100
AcDbCircle
 10
10690.00614983229
 20
6976.318376858272
 30
0.0
 40
11.0
100
AcDbArc
 50
270.0
 51
0.0
  0
ARC
  5
27FB8
330
27F29
100
AcDbEntity
  8
U2
100
AcDbCircle
 10
10690.00614983229
 20
6976.318376858272
 30
0.0
 40
10.0
100
AcDbArc
 50
270.0
 51
0.0
  0
LINE
  5
27FB9
330
27F29
100
AcDbEntity
  8
U2
100
AcDbLine
 10
10680.00614983229
 20
6966.318376858271
 30
0.0
 11
10680.00614983229
 21
6965.31837685827
 31
0.0
  0
LINE
  5
27FBA
330
27F29
100
AcDbEntity
  8
U2
100
AcDbLine
 10
10628.00614983228
 20
7094.165018962249
 30
0.0
 11
10690.00614983229
 21
7094.165018962249
 31
0.0
  0
LINE
  5
27FBB
330
27F29
100
AcDbEntity
  8
U2
100
AcDbLine
 10
10628.00614983228
 20
7095.165018962248
 30
0.0
 11
10690.00614983229
 21
7095.165018962248
 31
0.0
  0
LINE
  5
27FBC
330
27F29
100
AcDbEntity
  8
U2
100
AcDbLine
 10
10628.00614983228
 20
7083.165018962249
 30
0.0
 11
10628.00614983228
 21
7076.165018962249
 31
0.0
  0
LINE
  5
27FBD
330
27F29
100
AcDbEntity
  8
U2
100
AcDbLine
 10
10627.00614983228
 20
7093.165018962249
 30
0.0
 11
10627.00614983228
 21
7076.165018962249
 31
0.0
  0
LINE
  5
27FBE
330
27F29
100
AcDbEntity
  8
U2
100
AcDbLine
 10
10626.00614983228
 20
7166.509104897588
 30
0.0
 11
10626.00614983228
 21
7076.165018962249
 31
0.0
  0
ARC
  5
27FBF
330
27F29
100
AcDbEntity
  8
U2
100
AcDbCircle
 10
10627.00614983228
 20
7076.165018962249
 30
0.0
 40
1.0
100
AcDbArc
 50
180.0
 51
0.0
  0
ARC
  5
27FC0
330
27F29
100
AcDbEntity
  8
U2
100
AcDbCircle
 10
10628.00614983228
 20
7093.165018962249
 30
0.0
 40
2.0
100
AcDbArc
 50
90.0
 51
180.0
  0
ARC
  5
27FC1
330
27F29
100
AcDbEntity
  8
U2
100
AcDbCircle
 10
10628.00614983228
 20
7093.165018962249
 30
0.0
 40
1.0
100
AcDbArc
 50
90.0
 51
180.0
  0
LINE
  5
27FC2
330
27F29
100
AcDbEntity
  8
U2
100
AcDbLine
 10
10628.00614983228
 20
7083.165018962249
 30
0.0
 11
10626.00614983228
 21
7083.165018962249
 31
0.0
  0
ARC
  5
27FC3
330
27F29
100
AcDbEntity
  8
U2
100
AcDbCircle
 10
10690.00614983229
 20
7084.165018962249
 30
0.0
 40
11.0
100
AcDbArc
 50
0.0
 51
90.0
  0
ARC
  5
27FC4
330
27F29
100
AcDbEntity
  8
U2
100
AcDbCircle
 10
10690.00614983229
 20
7084.165018962249
 30
0.0
 40
10.0
100
AcDbArc
 50
0.0
 51
90.0
  0
ARC
  5
27FC5
330
27F29
100
AcDbEntity
  8
ケラバキャップ
100
AcDbCircle
 10
10692.10614983229
 20
6976.021929054502
 30
0.0
 40
10.0
100
AcDbArc
 50
284.8603158301772
 51
0.0
  0
ARC
  5
27FC6
330
27F29
100
AcDbEntity
  8
ケラバキャップ
100
AcDbCircle
 10
10692.10614983229
 20
7088.853551436732
 30
0.0
 40
10.0
100
AcDbArc
 50
0.0
 51
27.12675311725256
  0
LINE
  5
27FC7
330
27F29
100
AcDbEntity
  8
ケラバキャップ
100
AcDbLine
 10
10624.10614983229
 20
7070.703551436735
 30
0.0
 11
10625.01788748247
 21
7065.089508150592
 31
0.0
  0
LINE
  5
27FC8
330
27F29
100
AcDbEntity
  8
ケラバキャップ
100
AcDbLine
 10
10641.95746093777
 20
6966.021929054503
 30
0.0
 11
10643.05110077613
 21
6966.021929054503
 31
0.0
  0
ARC
  5
27FC9
330
27F29
100
AcDbEntity
  8
ケラバキャップ
100
AcDbCircle
 10
10641.95746093777
 20
6967.021929054503
 30
0.0
 40
1.0
100
AcDbArc
 50
189.1837602642129
 51
270.0
  0
LINE
  5
27FCA
330
27F29
100
AcDbEntity
  8
ケラバキャップ
100
AcDbLine
 10
10624.10614983229
 20
7068.205041624691
 30
0.0
 11
10624.10614983229
 21
7096.853551436732
 31
0.0
  0
ARC
  5
27FCB
330
27F29
100
AcDbEntity
  8
ケラバキャップ
100
AcDbCircle
 10
10626.10614983229
 20
7096.853551436732
 30
0.0
 40
2.0
100
AcDbArc
 50
92.86598398276728
 51
180.0
  0
LINE
  5
27FCC
330
27F29
100
AcDbEntity
  8
ケラバキャップ
100
AcDbLine
 10
10702.10614983229
 20
6973.523419242458
 30
0.0
 11
10702.10614983229
 21
7088.853551436732
 31
0.0
  0
ARC
  5
27FCD
330
27F29
100
AcDbEntity
  8
ケラバキャップ
100
AcDbCircle
 10
10692.10614983229
 20
6973.523419242458
 30
0.0
 40
10.0
100
AcDbArc
 50
270.0
 51
0.0
  0
ARC
  5
27FCE
330
27F29
100
AcDbEntity
  8
ケラバキャップ
100
AcDbCircle
 10
10641.95746093777
 20
6964.523419242458
 30
0.0
 40
1.0
100
AcDbArc
 50
189.1837602642129
 51
270.0
  0
LINE
  5
27FCF
330
27F29
100
AcDbEntity
  8
ケラバキャップ
100
AcDbLine
 10
10641.95746093777
 20
6963.523419242457
 30
0.0
 11
10692.10614983229
 21
6963.523419242457
 31
0.0
  0
LINE
  5
27FD0
330
27F29
100
AcDbEntity
  8
ケラバキャップ
100
AcDbLine
 10
10624.10614983229
 20
7068.205041624691
 30
0.0
 11
10624.61212191408
 21
7065.089508150592
 31
0.0
  0
CIRCLE
  5
27FD1
330
27F29
100
AcDbEntity
  8
KETA
100
AcDbCircle
 10
10369.0
 20
7124.739642036643
 30
0.0
 40
6.0
  0
CIRCLE
  5
27FD2
330
27F29
100
AcDbEntity
  8
KETA
100
AcDbCircle
 10
10243.0
 20
7124.739642036643
 30
0.0
 40
6.0
  0
LINE
  5
27FD3
330
27F29
100
AcDbEntity
  8
KETA
100
AcDbLine
 10
10272.49999999999
 20
7098.270170603569
 30
0.0
 11
10272.49999999999
 21
7102.919073359308
 31
0.0
  0
LINE
  5
27FD4
330
27F29
100
AcDbEntity
  8
KETA
100
AcDbLine
 10
10272.49999999999
 20
7102.919073359308
 30
0.0
 11
10339.5
 21
7102.919073359308
 31
0.0
  0
LINE
  5
27FD5
330
27F29
100
AcDbEntity
  8
KETA
100
AcDbLine
 10
10339.5
 20
7102.919073359308
 30
0.0
 11
10339.5
 21
7098.270170603569
 31
0.0
  0
LINE
  5
27FD6
330
27F29
100
AcDbEntity
  8
KETA
100
AcDbLine
 10
10339.5
 20
7098.270170603569
 30
0.0
 11
10621.0
 21
7098.270170603569
 31
0.0
  0
LINE
  5
27FD7
330
27F29
100
AcDbEntity
  8
KETA
100
AcDbLine
 10
10626.00614983228
 20
7117.106687182364
 30
0.0
 11
10621.0
 21
7108.979651847268
 31
0.0
  0
LINE
  5
27FD8
330
27F29
100
AcDbEntity
  8
KETA
100
AcDbLine
 10
10621.0
 20
7108.979651847268
 30
0.0
 11
10621.0
 21
7098.270170603569
 31
0.0
  0
LINE
  5
27FD9
330
27F29
100
AcDbEntity
  8
KETA
100
AcDbLine
 10
1965.49385016771
 20
7098.270170603569
 30
0.0
 11
2246.993850167712
 21
7098.270170603569
 31
0.0
  0
LINE
  5
27FDA
330
27F29
100
AcDbEntity
  8
KETA
100
AcDbLine
 10
2339.500000000001
 20
7098.270170603569
 30
0.0
 11
5422.500000000001
 21
7098.270170603569
 31
0.0
  0
LINE
  5
27FDB
330
27F29
100
AcDbEntity
  8
KETA
100
AcDbLine
 10
7189.500000000001
 20
7098.270170603569
 30
0.0
 11
10272.49999999999
 21
7098.270170603569
 31
0.0
  0
LINE
  5
27FDC
330
27F29
100
AcDbEntity
  8
KETA
100
AcDbLine
 10
5489.500000000001
 20
7098.270170603569
 30
0.0
 11
6246.000000000001
 21
7098.270170603569
 31
0.0
  0
LINE
  5
27FDD
330
27F29
100
AcDbEntity
  8
KETA_KANAGU
100
AcDbLine
 10
10385.0
 20
6970.954008829903
 30
0.0
 11
10385.0
 21
7047.939173463936
 31
0.0
  0
LINE
  5
27FDE
330
27F29
100
AcDbEntity
  8
KETA_KANAGU
100
AcDbLine
 10
10227.0
 20
7047.939173463936
 30
0.0
 11
10227.0
 21
6970.954008829903
 31
0.0
  0
LINE
  5
27FDF
330
27F29
100
AcDbEntity
  8
KETA_KANAGU
100
AcDbLine
 10
10227.0
 20
6978.449538266021
 30
0.0
 11
10271.2
 21
6978.449538266016
 31
0.0
  0
LINE
  5
27FE0
330
27F29
100
AcDbEntity
  8
KETA_KANAGU
100
AcDbLine
 10
10227.0
 20
6970.954008829903
 30
0.0
 11
10271.2
 21
6970.954008829903
 31
0.0
  0
CIRCLE
  5
27FE1
330
27F29
100
AcDbEntity
  8
KETA_KANAGU
100
AcDbCircle
 10
10243.0
 20
6985.113779697785
 30
0.0
 40
6.0
  0
CIRCLE
  5
27FE2
330
27F29
100
AcDbEntity
  8
KETA_KANAGU
100
AcDbCircle
 10
10369.0
 20
6985.113779697785
 30
0.0
 40
6.0
  0
CIRCLE
  5
27FE3
330
27F29
100
AcDbEntity
  8
KETA_KANAGU
100
AcDbCircle
 10
10243.0
 20
7034.863451001993
 30
0.0
 40
6.0
  0
LINE
  5
27FE4
330
27F29
100
AcDbEntity
  8
KETA_KANAGU
100
AcDbLine
 10
10271.0
 20
7047.939173463936
 30
0.0
 11
10271.0
 21
7019.339798629222
 31
0.0
  0
CIRCLE
  5
27FE5
330
27F29
100
AcDbEntity
  8
KETA_KANAGU
100
AcDbCircle
 10
10369.0
 20
7034.863451001993
 30
0.0
 40
6.0
  0
LINE
  5
27FE6
330
27F29
100
AcDbEntity
  8
KETA_KANAGU
100
AcDbLine
 10
10341.0
 20
7047.939173463936
 30
0.0
 11
10341.0
 21
7019.339798629222
 31
0.0
  0
LINE
  5
27FE7
330
27F29
100
AcDbEntity
  8
KETA
100
AcDbLine
 10
10684.0
 20
7065.089508150592
 30
0.0
 11
10340.79999999999
 21
7065.089508150592
 31
0.0
  0
LINE
  5
27FE8
330
27F29
100
AcDbEntity
  8
KETA
100
AcDbLine
 10
10340.79999999999
 20
6965.59016554218
 30
0.0
 11
10621.0
 21
6965.590165542177
 31
0.0
  0
LINE
  5
27FE9
330
27F29
100
AcDbEntity
  8
KETA
100
AcDbLine
 10
10684.0
 20
7007.144442994489
 30
0.0
 11
10684.0
 21
7065.089508150592
 31
0.0
  0
LINE
  5
27FEA
330
27F29
100
AcDbEntity
  8
KETA
100
AcDbLine
 10
10621.0
 20
6984.259594194552
 30
0.0
 11
10621.0
 21
6965.590165542177
 31
0.0
  0
LINE
  5
27FEB
330
27F29
100
AcDbEntity
  8
KETA
100
AcDbLine
 10
10640.0
 20
7007.144442994489
 30
0.0
 11
10621.0
 21
6976.299646785882
 31
0.0
  0
LINE
  5
27FEC
330
27F29
100
AcDbEntity
  8
KETA
100
AcDbLine
 10
10684.0
 20
7007.144442994489
 30
0.0
 11
10640.0
 21
7007.144442994489
 31
0.0
  0
LINE
  5
27FED
330
27F29
100
AcDbEntity
  8
KETA
100
AcDbLine
 10
10684.0
 20
7047.939173463936
 30
0.0
 11
10340.79999999999
 21
7047.939173463936
 31
0.0
  0
LINE
  5
27FEE
330
27F29
100
AcDbEntity
  8
KETA
100
AcDbLine
 10
10388.0
 20
6984.259594194552
 30
0.0
 11
10621.0
 21
6984.259594194552
 31
0.0
  0
LINE
  5
27FEF
330
27F29
100
AcDbEntity
  8
KETA
100
AcDbLine
 10
10388.0
 20
6984.259594194552
 30
0.0
 11
10388.0
 21
6965.590165542177
 31
0.0
  0
LINE
  5
27FF0
330
27F29
100
AcDbEntity
  8
KETA
100
AcDbLine
 10
10224.0
 20
6984.259594194552
 30
0.0
 11
10224.0
 21
6965.590165542177
 31
0.0
  0
LINE
  5
27FF1
330
27F29
100
AcDbEntity
  8
KETA
100
AcDbLine
 10
10224.0
 20
6984.259594194552
 30
0.0
 11
7238.000000000003
 21
6984.259594194552
 31
0.0
  0
LINE
  5
27FF2
330
27F29
100
AcDbEntity
  8
KETA
100
AcDbLine
 10
10271.2
 20
6965.59016554218
 30
0.0
 11
7189.500000000001
 21
6965.59016554218
 31
0.0
  0
LINE
  5
27FF3
330
27F29
100
AcDbEntity
  8
KETA
100
AcDbLine
 10
2013.993850167715
 20
6984.259594194552
 30
0.0
 11
2224.0
 21
6984.259594194552
 31
0.0
  0
LINE
  5
27FF4
330
27F29
100
AcDbEntity
  8
KETA
100
AcDbLine
 10
1965.49385016771
 20
6965.59016554218
 30
0.0
 11
2246.993850167712
 21
6965.590165542177
 31
0.0
  0
LINE
  5
27FF5
330
27F29
100
AcDbEntity
  8
KETA
100
AcDbLine
 10
7122.500000000001
 20
6965.59016554218
 30
0.0
 11
6366.000000000001
 21
6965.59016554218
 31
0.0
  0
LINE
  5
27FF6
330
27F29
100
AcDbEntity
  8
KETA
100
AcDbLine
 10
7074.000000000001
 20
6984.259594194552
 30
0.0
 11
6366.000000000001
 21
6984.259594194552
 31
0.0
  0
LINE
  5
27FF7
330
27F29
100
AcDbEntity
  8
KETA
100
AcDbLine
 10
5374.000000000001
 20
6984.259594194552
 30
0.0
 11
2388.000000000001
 21
6984.259594194552
 31
0.0
  0
LINE
  5
27FF8
330
27F29
100
AcDbEntity
  8
KETA
100
AcDbLine
 10
5422.500000000001
 20
6965.59016554218
 30
0.0
 11
2339.500000000001
 21
6965.590165542177
 31
0.0
  0
LINE
  5
27FF9
330
27F29
100
AcDbEntity
  8
KETA
100
AcDbLine
 10
10271.2
 20
7065.089508150592
 30
0.0
 11
7190.800000000004
 21
7065.089508150592
 31
0.0
  0
LINE
  5
27FFA
330
27F29
100
AcDbEntity
  8
KETA
100
AcDbLine
 10
10271.2
 20
7047.939173463936
 30
0.0
 11
7190.800000000004
 21
7047.939173463936
 31
0.0
  0
LINE
  5
27FFB
330
27F29
100
AcDbEntity
  8
KETA_KANAGU
100
AcDbLine
 10
10340.79999999999
 20
6978.449538266016
 30
0.0
 11
10385.0
 21
6978.449538266021
 31
0.0
  0
LINE
  5
27FFC
330
27F29
100
AcDbEntity
  8
KETA_KANAGU
100
AcDbLine
 10
10340.79999999999
 20
6970.954008829903
 30
0.0
 11
10385.0
 21
6970.954008829903
 31
0.0
  0
LINE
  5
27FFD
330
27F29
100
AcDbEntity
  8
HASHIRA
100
AcDbLine
 10
10284.2
 20
7026.08003744125
 30
0.0
 11
10327.8
 21
7026.08003744125
 31
0.0
  0
LINE
  5
27FFE
330
27F29
100
AcDbEntity
  8
ケラバキャップ
100
AcDbLine
 10
10635.26970350994
 20
6999.465230823847
 30
0.0
 11
10640.97027939612
 21
6964.363817851986
 31
0.0
  0
LINE
  5
27FFF
330
27F29
100
AcDbEntity
  8
ケラバキャップ
100
AcDbLine
 10
10635.59081031097
 20
6999.986518920657
 30
0.0
 11
10640.97027939612
 21
6966.862327664031
 31
0.0
  0
LINE
  5
28000
330
27F29
100
AcDbEntity
  8
KETA
100
AcDbLine
 10
7074.000000000001
 20
6984.259594194552
 30
0.0
 11
7074.000000000001
 21
6965.590165542177
 31
0.0
  0
LINE
  5
28001
330
27F29
100
AcDbEntity
  8
KETA
100
AcDbLine
 10
7238.000000000003
 20
6984.259594194552
 30
0.0
 11
7238.000000000003
 21
6965.590165542177
 31
0.0
  0
LINE
  5
28002
330
27F29
100
AcDbEntity
  8
HASHIRA
100
AcDbLine
 10
7134.199999999998
 20
7026.08003744125
 30
0.0
 11
7177.800000000002
 21
7026.08003744125
 31
0.0
  0
LINE
  5
28003
330
27F29
100
AcDbEntity
  8
KETA
100
AcDbLine
 10
7122.500000000001
 20
7102.919073359308
 30
0.0
 11
7189.500000000001
 21
7102.919073359308
 31
0.0
  0
LINE
  5
28004
330
27F29
100
AcDbEntity
  8
KETA_KANAGU
100
AcDbLine
 10
7077.000000000001
 20
6970.954008829903
 30
0.0
 11
7121.199999999998
 21
6970.954008829903
 31
0.0
  0
LINE
  5
28005
330
27F29
100
AcDbEntity
  8
KETA_KANAGU
100
AcDbLine
 10
7077.000000000001
 20
6978.449538266021
 30
0.0
 11
7121.199999999998
 21
6978.449538266016
 31
0.0
  0
CIRCLE
  5
28006
330
27F29
100
AcDbEntity
  8
KETA
100
AcDbCircle
 10
7093.0
 20
7124.739642036643
 30
0.0
 40
6.0
  0
CIRCLE
  5
28007
330
27F29
100
AcDbEntity
  8
KETA_KANAGU
100
AcDbCircle
 10
7093.0
 20
6985.113779697785
 30
0.0
 40
6.0
  0
CIRCLE
  5
28008
330
27F29
100
AcDbEntity
  8
KETA_KANAGU
100
AcDbCircle
 10
7093.0
 20
7034.863451001993
 30
0.0
 40
6.0
  0
LINE
  5
28009
330
27F29
100
AcDbEntity
  8
KETA_KANAGU
100
AcDbLine
 10
7077.000000000001
 20
7047.939173463936
 30
0.0
 11
7077.000000000001
 21
6970.954008829903
 31
0.0
  0
LINE
  5
2800A
330
27F29
100
AcDbEntity
  8
KETA_KANAGU
100
AcDbLine
 10
7121.000000000001
 20
7047.939173463936
 30
0.0
 11
7121.000000000001
 21
7019.339798629222
 31
0.0
  0
LINE
  5
2800B
330
27F29
100
AcDbEntity
  8
KETA
100
AcDbLine
 10
7122.500000000001
 20
7098.270170603569
 30
0.0
 11
7122.500000000001
 21
7102.919073359308
 31
0.0
  0
LINE
  5
2800C
330
27F29
100
AcDbEntity
  8
KETA_KANAGU
100
AcDbLine
 10
7190.800000000004
 20
6970.954008829903
 30
0.0
 11
7235.000000000002
 21
6970.954008829903
 31
0.0
  0
LINE
  5
2800D
330
27F29
100
AcDbEntity
  8
KETA_KANAGU
100
AcDbLine
 10
7190.800000000004
 20
6978.449538266016
 30
0.0
 11
7235.000000000002
 21
6978.449538266021
 31
0.0
  0
CIRCLE
  5
2800E
330
27F29
100
AcDbEntity
  8
KETA
100
AcDbCircle
 10
7219.000000000002
 20
7124.739642036643
 30
0.0
 40
6.0
  0
CIRCLE
  5
2800F
330
27F29
100
AcDbEntity
  8
KETA_KANAGU
100
AcDbCircle
 10
7219.000000000002
 20
6985.113779697785
 30
0.0
 40
6.0
  0
CIRCLE
  5
28010
330
27F29
100
AcDbEntity
  8
KETA_KANAGU
100
AcDbCircle
 10
7219.000000000002
 20
7034.863451001993
 30
0.0
 40
6.0
  0
LINE
  5
28011
330
27F29
100
AcDbEntity
  8
KETA_KANAGU
100
AcDbLine
 10
7191.000000000001
 20
7047.939173463936
 30
0.0
 11
7191.000000000001
 21
7019.339798629222
 31
0.0
  0
LINE
  5
28012
330
27F29
100
AcDbEntity
  8
KETA_KANAGU
100
AcDbLine
 10
7235.000000000002
 20
6970.954008829903
 30
0.0
 11
7235.000000000002
 21
7047.939173463936
 31
0.0
  0
LINE
  5
28013
330
27F29
100
AcDbEntity
  8
KETA
100
AcDbLine
 10
7189.500000000001
 20
7102.919073359308
 30
0.0
 11
7189.500000000001
 21
7098.270170603569
 31
0.0
  0
LINE
  5
28014
330
27F29
100
AcDbEntity
  8
KETA
100
AcDbLine
 10
5537.999999999997
 20
6984.259594194552
 30
0.0
 11
5537.999999999997
 21
6965.590165542177
 31
0.0
  0
LINE
  5
28015
330
27F29
100
AcDbEntity
  8
KETA
100
AcDbLine
 10
5373.999999999997
 20
6984.259594194552
 30
0.0
 11
5373.999999999997
 21
6965.590165542177
 31
0.0
  0
LINE
  5
28016
330
27F29
100
AcDbEntity
  8
KETA
100
AcDbLine
 10
5422.499999999997
 20
7102.919073359308
 30
0.0
 11
5489.499999999997
 21
7102.919073359308
 31
0.0
  0
LINE
  5
28017
330
27F29
100
AcDbEntity
  8
HASHIRA
100
AcDbLine
 10
5434.199999999998
 20
7026.08003744125
 30
0.0
 11
5477.799999999994
 21
7026.08003744125
 31
0.0
  0
LINE
  5
28018
330
27F29
100
AcDbEntity
  8
KETA
100
AcDbLine
 10
5422.499999999997
 20
7098.270170603569
 30
0.0
 11
5422.499999999997
 21
7102.919073359308
 31
0.0
  0
LINE
  5
28019
330
27F29
100
AcDbEntity
  8
KETA_KANAGU
100
AcDbLine
 10
5420.999999999997
 20
7047.939173463936
 30
0.0
 11
5420.999999999994
 21
7019.339798629222
 31
0.0
  0
LINE
  5
2801A
330
27F29
100
AcDbEntity
  8
KETA_KANAGU
100
AcDbLine
 10
5376.999999999998
 20
7047.939173463936
 30
0.0
 11
5376.999999999998
 21
6970.954008829903
 31
0.0
  0
CIRCLE
  5
2801B
330
27F29
100
AcDbEntity
  8
KETA_KANAGU
100
AcDbCircle
 10
5392.999999999997
 20
7034.863451001993
 30
0.0
 40
6.0
  0
CIRCLE
  5
2801C
330
27F29
100
AcDbEntity
  8
KETA_KANAGU
100
AcDbCircle
 10
5392.999999999997
 20
6985.113779697785
 30
0.0
 40
6.0
  0
CIRCLE
  5
2801D
330
27F29
100
AcDbEntity
  8
KETA
100
AcDbCircle
 10
5392.999999999997
 20
7124.739642036643
 30
0.0
 40
6.0
  0
LINE
  5
2801E
330
27F29
100
AcDbEntity
  8
KETA_KANAGU
100
AcDbLine
 10
5376.999999999998
 20
6978.449538266021
 30
0.0
 11
5421.199999999995
 21
6978.449538266016
 31
0.0
  0
LINE
  5
2801F
330
27F29
100
AcDbEntity
  8
KETA_KANAGU
100
AcDbLine
 10
5376.999999999998
 20
6970.954008829903
 30
0.0
 11
5421.199999999995
 21
6970.954008829903
 31
0.0
  0
LINE
  5
28020
330
27F29
100
AcDbEntity
  8
KETA
100
AcDbLine
 10
5489.499999999997
 20
7102.919073359308
 30
0.0
 11
5489.499999999997
 21
7098.270170603569
 31
0.0
  0
LINE
  5
28021
330
27F29
100
AcDbEntity
  8
KETA_KANAGU
100
AcDbLine
 10
5534.999999999997
 20
6970.954008829903
 30
0.0
 11
5534.999999999997
 21
7047.939173463936
 31
0.0
  0
LINE
  5
28022
330
27F29
100
AcDbEntity
  8
KETA_KANAGU
100
AcDbLine
 10
5490.999999999997
 20
7047.939173463936
 30
0.0
 11
5490.999999999997
 21
7019.339798629222
 31
0.0
  0
CIRCLE
  5
28023
330
27F29
100
AcDbEntity
  8
KETA_KANAGU
100
AcDbCircle
 10
5518.999999999998
 20
7034.863451001993
 30
0.0
 40
6.0
  0
CIRCLE
  5
28024
330
27F29
100
AcDbEntity
  8
KETA_KANAGU
100
AcDbCircle
 10
5518.999999999998
 20
6985.113779697785
 30
0.0
 40
6.0
  0
CIRCLE
  5
28025
330
27F29
100
AcDbEntity
  8
KETA
100
AcDbCircle
 10
5518.999999999998
 20
7124.739642036643
 30
0.0
 40
6.0
  0
LINE
  5
28026
330
27F29
100
AcDbEntity
  8
KETA_KANAGU
100
AcDbLine
 10
5490.799999999996
 20
6978.449538266016
 30
0.0
 11
5534.999999999997
 21
6978.449538266021
 31
0.0
  0
LINE
  5
28027
330
27F29
100
AcDbEntity
  8
KETA_KANAGU
100
AcDbLine
 10
5490.799999999996
 20
6970.954008829903
 30
0.0
 11
5534.999999999997
 21
6970.954008829903
 31
0.0
  0
LINE
  5
28028
330
27F29
100
AcDbEntity
  8
KETA
100
AcDbLine
 10
7121.199999999998
 20
7065.089508150592
 30
0.0
 11
6366.000000000001
 21
7065.089508150592
 31
0.0
  0
LINE
  5
28029
330
27F29
100
AcDbEntity
  8
KETA
100
AcDbLine
 10
7121.199999999998
 20
7047.939173463936
 30
0.0
 11
6366.000000000001
 21
7047.939173463936
 31
0.0
  0
LINE
  5
2802A
330
27F29
100
AcDbEntity
  8
KETA
100
AcDbLine
 10
5421.199999999995
 20
7065.089508150592
 30
0.0
 11
2340.800000000004
 21
7065.089508150592
 31
0.0
  0
LINE
  5
2802B
330
27F29
100
AcDbEntity
  8
KETA
100
AcDbLine
 10
5421.199999999995
 20
7047.939173463936
 30
0.0
 11
2340.800000000004
 21
7047.939173463936
 31
0.0
  0
LINE
  5
2802C
330
27F29
100
AcDbEntity
  8
KETA
100
AcDbLine
 10
2271.199999999998
 20
6965.59016554218
 30
0.0
 11
1991.0
 21
6965.590165542177
 31
0.0
  0
LINE
  5
2802D
330
27F29
100
AcDbEntity
  8
KETA
100
AcDbLine
 10
1928.0
 20
7047.939173463936
 30
0.0
 11
2271.199999999998
 21
7047.939173463936
 31
0.0
  0
LINE
  5
2802E
330
27F29
100
AcDbEntity
  8
KETA
100
AcDbLine
 10
1928.0
 20
7065.089508150592
 30
0.0
 11
2271.199999999998
 21
7065.089508150592
 31
0.0
  0
LINE
  5
2802F
330
27F29
100
AcDbEntity
  8
KETA
100
AcDbLine
 10
2223.999999999997
 20
6984.259594194552
 30
0.0
 11
1991.0
 21
6984.259594194552
 31
0.0
  0
LINE
  5
28030
330
27F29
100
AcDbEntity
  8
KETA
100
AcDbLine
 10
2272.5
 20
7098.270170603569
 30
0.0
 11
1991.0
 21
7098.270170603569
 31
0.0
  0
LINE
  5
28031
330
27F29
100
AcDbEntity
  8
KETA
100
AcDbLine
 10
2388.000000000001
 20
6984.259594194552
 30
0.0
 11
2388.000000000001
 21
6965.590165542177
 31
0.0
  0
LINE
  5
28032
330
27F29
100
AcDbEntity
  8
KETA
100
AcDbLine
 10
2224.0
 20
6984.259594194552
 30
0.0
 11
2224.0
 21
6965.590165542177
 31
0.0
  0
LINE
  5
28033
330
27F29
100
AcDbEntity
  8
HASHIRA
100
AcDbLine
 10
2327.800000000003
 20
7026.08003744125
 30
0.0
 11
2284.200000000002
 21
7026.08003744125
 31
0.0
  0
LINE
  5
28034
330
27F29
100
AcDbEntity
  8
KETA
100
AcDbLine
 10
2339.500000000001
 20
7102.919073359308
 30
0.0
 11
2272.5
 21
7102.919073359308
 31
0.0
  0
LINE
  5
28035
330
27F29
100
AcDbEntity
  8
KETA_KANAGU
100
AcDbLine
 10
2385.000000000001
 20
6970.954008829903
 30
0.0
 11
2340.800000000004
 21
6970.954008829903
 31
0.0
  0
LINE
  5
28036
330
27F29
100
AcDbEntity
  8
KETA_KANAGU
100
AcDbLine
 10
2385.000000000001
 20
6978.449538266021
 30
0.0
 11
2340.800000000004
 21
6978.449538266016
 31
0.0
  0
CIRCLE
  5
28037
330
27F29
100
AcDbEntity
  8
KETA
100
AcDbCircle
 10
2369.000000000001
 20
7124.739642036643
 30
0.0
 40
6.0
  0
CIRCLE
  5
28038
330
27F29
100
AcDbEntity
  8
KETA_KANAGU
100
AcDbCircle
 10
2369.000000000001
 20
6985.113779697785
 30
0.0
 40
6.0
  0
CIRCLE
  5
28039
330
27F29
100
AcDbEntity
  8
KETA_KANAGU
100
AcDbCircle
 10
2369.000000000001
 20
7034.863451001993
 30
0.0
 40
6.0
  0
LINE
  5
2803A
330
27F29
100
AcDbEntity
  8
KETA_KANAGU
100
AcDbLine
 10
2385.000000000001
 20
7047.939173463936
 30
0.0
 11
2385.000000000001
 21
6970.954008829903
 31
0.0
  0
LINE
  5
2803B
330
27F29
100
AcDbEntity
  8
KETA_KANAGU
100
AcDbLine
 10
2341.000000000001
 20
7047.939173463936
 30
0.0
 11
2341.000000000001
 21
7019.339798629222
 31
0.0
  0
LINE
  5
2803C
330
27F29
100
AcDbEntity
  8
KETA
100
AcDbLine
 10
2339.500000000001
 20
7098.270170603569
 30
0.0
 11
2339.500000000001
 21
7102.919073359308
 31
0.0
  0
LINE
  5
2803D
330
27F29
100
AcDbEntity
  8
KETA_KANAGU
100
AcDbLine
 10
2271.199999999998
 20
6970.954008829903
 30
0.0
 11
2227.0
 21
6970.954008829903
 31
0.0
  0
LINE
  5
2803E
330
27F29
100
AcDbEntity
  8
KETA_KANAGU
100
AcDbLine
 10
2271.199999999998
 20
6978.449538266016
 30
0.0
 11
2227.0
 21
6978.449538266021
 31
0.0
  0
CIRCLE
  5
2803F
330
27F29
100
AcDbEntity
  8
KETA
100
AcDbCircle
 10
2243.0
 20
7124.739642036643
 30
0.0
 40
6.0
  0
CIRCLE
  5
28040
330
27F29
100
AcDbEntity
  8
KETA_KANAGU
100
AcDbCircle
 10
2243.0
 20
6985.113779697785
 30
0.0
 40
6.0
  0
CIRCLE
  5
28041
330
27F29
100
AcDbEntity
  8
KETA_KANAGU
100
AcDbCircle
 10
2243.0
 20
7034.863451001993
 30
0.0
 40
6.0
  0
LINE
  5
28042
330
27F29
100
AcDbEntity
  8
KETA_KANAGU
100
AcDbLine
 10
2271.0
 20
7047.939173463936
 30
0.0
 11
2271.0
 21
7019.339798629222
 31
0.0
  0
LINE
  5
28043
330
27F29
100
AcDbEntity
  8
KETA_KANAGU
100
AcDbLine
 10
2227.0
 20
6970.954008829903
 30
0.0
 11
2227.0
 21
7047.939173463936
 31
0.0
  0
LINE
  5
28044
330
27F29
100
AcDbEntity
  8
KETA
100
AcDbLine
 10
2272.5
 20
7102.919073359308
 30
0.0
 11
2272.5
 21
7098.270170603569
 31
0.0
  0
LINE
  5
28045
330
27F29
100
AcDbEntity
  8
ケラバキャップ
100
AcDbLine
 10
1976.409189689017
 20
6999.986518920657
 30
0.0
 11
1971.029720603868
 21
6966.862327664031
 31
0.0
  0
LINE
  5
28046
330
27F29
100
AcDbEntity
  8
ケラバキャップ
100
AcDbLine
 10
1976.73029649006
 20
6999.465230823847
 30
0.0
 11
1971.029720603868
 21
6964.363817851986
 31
0.0
  0
LINE
  5
28047
330
27F29
100
AcDbEntity
  8
KETA
100
AcDbLine
 10
1991.0
 20
6984.259594194552
 30
0.0
 11
1991.0
 21
6965.590165542177
 31
0.0
  0
ARC
  5
28048
330
27F29
100
AcDbEntity
  8
ケラバキャップ
100
AcDbCircle
 10
1919.893850167712
 20
6976.021929054502
 30
0.0
 40
10.0
100
AcDbArc
 50
180.0
 51
255.1396841698228
  0
ARC
  5
28049
330
27F29
100
AcDbEntity
  8
ケラバキャップ
100
AcDbCircle
 10
1919.893850167712
 20
6973.523419242458
 30
0.0
 40
10.0
100
AcDbArc
 50
180.0
 51
270.0
  0
ARC
  5
2804A
330
27F29
100
AcDbEntity
  8
U2
100
AcDbCircle
 10
1921.99385016771
 20
6976.318376858272
 30
0.0
 40
11.0
100
AcDbArc
 50
180.0
 51
270.0
  0
ARC
  5
2804B
330
27F29
100
AcDbEntity
  8
U2
100
AcDbCircle
 10
1921.99385016771
 20
6976.318376858272
 30
0.0
 40
10.0
100
AcDbArc
 50
180.0
 51
270.0
  0
LINE
  5
2804C
330
27F29
100
AcDbEntity
  8
ケラバキャップ
100
AcDbLine
 10
1970.042539062227
 20
6963.523419242457
 30
0.0
 11
1919.893850167712
 21
6963.523419242457
 31
0.0
  0
LINE
  5
2804D
330
27F29
100
AcDbEntity
  8
ケラバキャップ
100
AcDbLine
 10
1970.042539062227
 20
6966.021929054503
 30
0.0
 11
1968.948899223855
 21
6966.021929054503
 31
0.0
  0
ARC
  5
2804E
330
27F29
100
AcDbEntity
  8
ケラバキャップ
100
AcDbCircle
 10
1970.042539062227
 20
6964.523419242458
 30
0.0
 40
1.0
100
AcDbArc
 50
270.0
 51
350.8162397357869
  0
ARC
  5
2804F
330
27F29
100
AcDbEntity
  8
ケラバキャップ
100
AcDbCircle
 10
1970.042539062227
 20
6967.021929054503
 30
0.0
 40
1.0
100
AcDbArc
 50
270.0
 51
350.8162397357869
  0
LINE
  5
28050
330
27F29
100
AcDbEntity
  8
U2
100
AcDbLine
 10
1921.99385016771
 20
6966.318376858271
 30
0.0
 11
1967.993850167711
 21
6966.318376858271
 31
0.0
  0
LINE
  5
28051
330
27F29
100
AcDbEntity
  8
U2
100
AcDbLine
 10
1921.99385016771
 20
6965.31837685827
 30
0.0
 11
1967.993850167711
 21
6965.31837685827
 31
0.0
  0
LINE
  5
28052
330
27F29
100
AcDbEntity
  8
U2
100
AcDbLine
 10
1960.99385016771
 20
6967.318376858272
 30
0.0
 11
1960.99385016771
 21
6966.318376858271
 31
0.0
  0
ARC
  5
28053
330
27F29
100
AcDbEntity
  8
U2
100
AcDbCircle
 10
1967.993850167711
 20
6966.318376858271
 30
0.0
 40
1.0
100
AcDbArc
 50
270.0
 51
90.0
  0
LINE
  5
28054
330
27F29
100
AcDbEntity
  8
U2
100
AcDbLine
 10
1960.99385016771
 20
6967.318376858272
 30
0.0
 11
1967.993850167711
 21
6967.318376858272
 31
0.0
  0
LINE
  5
28055
330
27F29
100
AcDbEntity
  8
U2
100
AcDbLine
 10
1931.99385016771
 20
6966.318376858271
 30
0.0
 11
1931.99385016771
 21
6965.31837685827
 31
0.0
  0
ARC
  5
28056
330
27F29
100
AcDbEntity
  8
U2
100
AcDbCircle
 10
1921.99385016771
 20
7084.165018962249
 30
0.0
 40
10.0
100
AcDbArc
 50
90.0
 51
180.0
  0
ARC
  5
28057
330
27F29
100
AcDbEntity
  8
U2
100
AcDbCircle
 10
1921.99385016771
 20
7084.165018962249
 30
0.0
 40
11.0
100
AcDbArc
 50
90.0
 51
180.0
  0
ARC
  5
28058
330
27F29
100
AcDbEntity
  8
鼻隠しコ-ナ-
100
AcDbCircle
 10
1921.99385016771
 20
7179.373021880248
 30
0.0
 40
12.0
100
AcDbArc
 50
180.0
 51
270.0
  0
ARC
  5
28059
330
27F29
100
AcDbEntity
  8
鼻隠しコ-ナ-
100
AcDbCircle
 10
1921.99385016771
 20
7289.292408947417
 30
0.0
 40
12.0
100
AcDbArc
 50
90.0
 51
180.0
  0
LINE
  5
2805A
330
27F29
100
AcDbEntity
  8
U2
100
AcDbLine
 10
1985.993850167711
 20
7166.509104897588
 30
0.0
 11
1985.993850167711
 21
7076.165018962249
 31
0.0
  0
LINE
  5
2805B
330
27F29
100
AcDbEntity
  8
ケラバキャップ
100
AcDbLine
 10
1987.893850167712
 20
7070.703551436735
 30
0.0
 11
1986.982112517528
 21
7065.089508150592
 31
0.0
  0
LINE
  5
2805C
330
27F29
100
AcDbEntity
  8
ケラバキャップ
100
AcDbLine
 10
1987.893850167712
 20
7068.205041624691
 30
0.0
 11
1987.387878085923
 21
7065.089508150592
 31
0.0
  0
LINE
  5
2805D
330
27F29
100
AcDbEntity
  8
KETA
100
AcDbLine
 10
1985.993850167711
 20
7117.106687182364
 30
0.0
 11
1991.0
 21
7108.979651847268
 31
0.0
  0
LINE
  5
2805E
330
27F29
100
AcDbEntity
  8
KETA
100
AcDbLine
 10
1928.0
 20
7007.144442994489
 30
0.0
 11
1972.0
 21
7007.144442994489
 31
0.0
  0
LINE
  5
2805F
330
27F29
100
AcDbEntity
  8
KETA
100
AcDbLine
 10
1972.0
 20
7007.144442994489
 30
0.0
 11
1991.0
 21
6976.299646785882
 31
0.0
  0
LINE
  5
28060
330
27F29
100
AcDbEntity
  8
KETA
100
AcDbLine
 10
1928.0
 20
7007.144442994489
 30
0.0
 11
1928.0
 21
7065.089508150592
 31
0.0
  0
LINE
  5
28061
330
27F29
100
AcDbEntity
  8
KETA
100
AcDbLine
 10
1991.0
 20
7108.979651847268
 30
0.0
 11
1991.0
 21
7098.270170603569
 31
0.0
  0
ARC
  5
28062
330
27F29
100
AcDbEntity
  8
ケラバキャップ
100
AcDbCircle
 10
1985.893850167712
 20
7096.853551436732
 30
0.0
 40
2.0
100
AcDbArc
 50
0.0
 51
87.13401601723274
  0
LINE
  5
28063
330
27F29
100
AcDbEntity
  8
ケラバキャップ
100
AcDbLine
 10
1987.893850167712
 20
7068.205041624691
 30
0.0
 11
1987.893850167712
 21
7096.853551436732
 31
0.0
  0
LINE
  5
28064
330
27F29
100
AcDbEntity
  8
U2
100
AcDbLine
 10
1983.993850167711
 20
7083.165018962249
 30
0.0
 11
1985.993850167711
 21
7083.165018962249
 31
0.0
  0
ARC
  5
28065
330
27F29
100
AcDbEntity
  8
U2
100
AcDbCircle
 10
1983.993850167711
 20
7093.165018962249
 30
0.0
 40
1.0
100
AcDbArc
 50
0.0
 51
90.0
  0
ARC
  5
28066
330
27F29
100
AcDbEntity
  8
U2
100
AcDbCircle
 10
1983.993850167711
 20
7093.165018962249
 30
0.0
 40
2.0
100
AcDbArc
 50
0.0
 51
90.0
  0
ARC
  5
28067
330
27F29
100
AcDbEntity
  8
U2
100
AcDbCircle
 10
1984.99385016771
 20
7076.165018962249
 30
0.0
 40
1.0
100
AcDbArc
 50
180.0
 51
0.0
  0
LINE
  5
28068
330
27F29
100
AcDbEntity
  8
U2
100
AcDbLine
 10
1984.99385016771
 20
7093.165018962249
 30
0.0
 11
1984.99385016771
 21
7076.165018962249
 31
0.0
  0
LINE
  5
28069
330
27F29
100
AcDbEntity
  8
U2
100
AcDbLine
 10
1983.993850167711
 20
7083.165018962249
 30
0.0
 11
1983.993850167711
 21
7076.165018962249
 31
0.0
  0
LINE
  5
2806A
330
27F29
100
AcDbEntity
  8
U2
100
AcDbLine
 10
1983.993850167711
 20
7095.165018962248
 30
0.0
 11
1921.99385016771
 21
7095.165018962248
 31
0.0
  0
LINE
  5
2806B
330
27F29
100
AcDbEntity
  8
U2
100
AcDbLine
 10
1983.993850167711
 20
7094.165018962249
 30
0.0
 11
1921.99385016771
 21
7094.165018962249
 31
0.0
  0
LINE
  5
2806C
330
27F29
100
AcDbEntity
  8
鼻隠しコ-ナ-
100
AcDbLine
 10
1921.99385016771
 20
7167.373021880249
 30
0.0
 11
1931.99385016771
 21
7167.373021880249
 31
0.0
  0
LINE
  5
2806D
330
27F29
100
AcDbEntity
  8
鼻隠しコ-ナ-
100
AcDbLine
 10
1931.99385016771
 20
7301.292408947418
 30
0.0
 11
1921.99385016771
 21
7301.292408947418
 31
0.0
  0
LINE
  5
2806E
330
27F29
100
AcDbEntity
  8
鼻隠しコ-ナ-
100
AcDbLine
 10
1931.99385016771
 20
7299.925906786477
 30
0.0
 11
1931.99385016771
 21
7301.292408947418
 31
0.0
  0
LINE
  5
2806F
330
27F29
100
AcDbEntity
  8
U2
100
AcDbLine
 10
1910.993850167711
 20
7174.577190356933
 30
0.0
 11
1910.993850167711
 21
6976.318376858272
 31
0.0
  0
ARC
  5
28070
330
27F29
100
AcDbEntity
  8
ケラバキャップ
100
AcDbCircle
 10
1919.893850167712
 20
7088.853551436732
 30
0.0
 40
10.0
100
AcDbArc
 50
152.8732468827473
 51
180.0
  0
LINE
  5
28071
330
27F29
100
AcDbEntity
  8
ケラバキャップ
100
AcDbLine
 10
1909.893850167712
 20
6973.523419242458
 30
0.0
 11
1909.893850167712
 21
7088.853551436732
 31
0.0
  0
LINE
  5
28072
330
27F29
100
AcDbEntity
  8
U2
100
AcDbLine
 10
1911.99385016771
 20
7084.165018962249
 30
0.0
 11
1911.99385016771
 21
6976.318376858272
 31
0.0
  0
LINE
  5
28073
330
27F29
100
AcDbEntity
  8
鼻隠しコ-ナ-
100
AcDbLine
 10
1909.99385016771
 20
7289.292408947417
 30
0.0
 11
1909.99385016771
 21
7179.373021880248
 31
0.0
  0
LINE
  5
28074
330
27F29
100
AcDbEntity
  8
KETA
100
AcDbLine
 10
2271.199999999998
 20
7047.939173463936
 30
0.0
 11
1928.0
 21
7047.939173463936
 31
0.0
  0
LINE
  5
28075
330
27F29
100
AcDbEntity
  8
KETA
100
AcDbLine
 10
2271.199999999998
 20
7065.089508150592
 30
0.0
 11
1928.0
 21
7065.089508150592
 31
0.0
  0
LINE
  5
28076
330
27F29
100
AcDbEntity
  8
鼻隠し
100
AcDbLine
 10
6246.000000000001
 20
7171.716018454462
 30
0.0
 11
1931.99385016771
 21
7171.716018454462
 31
0.0
  0
LINE
  5
28077
330
27F29
100
AcDbEntity
  8
KETA
100
AcDbLine
 10
6366.000000000001
 20
7098.270170603569
 30
0.0
 11
7122.500000000001
 21
7098.270170603569
 31
0.0
  0
LINE
  5
28078
330
27F29
100
AcDbEntity
  8
KETA
100
AcDbLine
 10
6246.000000000001
 20
7065.089508150592
 30
0.0
 11
5490.799999999996
 21
7065.089508150592
 31
0.0
  0
LINE
  5
28079
330
27F29
100
AcDbEntity
  8
KETA
100
AcDbLine
 10
6246.000000000001
 20
7047.939173463936
 30
0.0
 11
5490.799999999996
 21
7047.939173463936
 31
0.0
  0
LINE
  5
2807A
330
27F29
100
AcDbEntity
  8
KETA
100
AcDbLine
 10
6246.000000000001
 20
6965.59016554218
 30
0.0
 11
5489.500000000001
 21
6965.59016554218
 31
0.0
  0
LINE
  5
2807B
330
27F29
100
AcDbEntity
  8
KETA
100
AcDbLine
 10
6246.000000000001
 20
6984.259594194552
 30
0.0
 11
5538.000000000001
 21
6984.259594194552
 31
0.0
  0
LINE
  5
2807C
330
27F29
100
AcDbEntity
  8
SUNPOU
100
AcDbLine
 10
2306.0
 20
7440.024171596917
 30
0.0
 11
2306.0
 21
7818.736304084142
 31
0.0
  0
LINE
  5
2807D
330
27F29
100
AcDbEntity
  8
SUNPOU
100
AcDbLine
 10
1909.99385016771
 20
7319.292408947418
 30
0.0
 11
1909.99385016771
 21
7818.736304084142
 31
0.0
  0
LINE
  5
2807E
330
27F29
100
AcDbEntity
  8
SUNPOU
100
AcDbLine
 10
2291.000000000001
 20
7773.736304084138
 30
0.0
 11
1924.993850167711
 21
7773.736304084138
 31
0.0
  0
TEXT
  5
2807F
330
27F29
100
AcDbEntity
  8
SUNPOU
100
AcDbText
 10
2022.282639369568
 20
7818.736304084142
 30
0.0
 40
90.0
  1
396
 41
0.6666666666666666
  7
00
100
AcDbText
  0
LINE
  5
28080
330
27F29
100
AcDbEntity
  8
SUNPOU
100
AcDbLine
 10
2317.25
 20
7773.736304084138
 30
0.0
 11
2328.500000000001
 21
7773.736304084138
 31
0.0
  0
LINE
  5
28081
330
27F29
100
AcDbEntity
  8
SUNPOU
100
AcDbLine
 10
2294.75
 20
7773.736304084138
 30
0.0
 11
2283.5
 21
7773.736304084138
 31
0.0
  0
LINE
  5
28082
330
27F29
100
AcDbEntity
  8
SUNPOU
100
AcDbLine
 10
5444.750000000001
 20
7773.736304084138
 30
0.0
 11
5433.500000000001
 21
7773.736304084138
 31
0.0
  0
LINE
  5
28083
330
27F29
100
AcDbEntity
  8
SUNPOU
100
AcDbLine
 10
5467.250000000001
 20
7773.736304084138
 30
0.0
 11
5478.500000000001
 21
7773.736304084138
 31
0.0
  0
LINE
  5
28084
330
27F29
100
AcDbEntity
  8
SUNPOU
100
AcDbLine
 10
7167.250000000001
 20
7773.736304084138
 30
0.0
 11
7178.500000000001
 21
7773.736304084138
 31
0.0
  0
LINE
  5
28085
330
27F29
100
AcDbEntity
  8
SUNPOU
100
AcDbLine
 10
7144.750000000001
 20
7773.736304084138
 30
0.0
 11
7133.500000000001
 21
7773.736304084138
 31
0.0
  0
LINE
  5
28086
330
27F29
100
AcDbEntity
  8
SUNPOU
100
AcDbLine
 10
10306.0
 20
7617.623102996633
 30
0.0
 11
10306.0
 21
7818.736304084142
 31
0.0
  0
LINE
  5
28087
330
27F29
100
AcDbEntity
  8
SUNPOU
100
AcDbLine
 10
10702.00614983229
 20
7319.292408947418
 30
0.0
 11
10702.00614983229
 21
7818.736304084142
 31
0.0
  0
LINE
  5
28088
330
27F29
100
AcDbEntity
  8
SUNPOU
100
AcDbLine
 10
10321.0
 20
7773.736304084138
 30
0.0
 11
10687.00614983228
 21
7773.736304084138
 31
0.0
  0
TEXT
  5
28089
330
27F29
100
AcDbEntity
  8
SUNPOU
100
AcDbText
 10
10418.28878920186
 20
7818.736304084142
 30
0.0
 40
90.0
  1
396
 41
0.6666666666666666
  7
00
100
AcDbText
  0
LINE
  5
2808A
330
27F29
100
AcDbEntity
  8
SUNPOU
100
AcDbLine
 10
10317.25
 20
7773.736304084138
 30
0.0
 11
10328.5
 21
7773.736304084138
 31
0.0
  0
LINE
  5
2808B
330
27F29
100
AcDbEntity
  8
SUNPOU
100
AcDbLine
 10
10294.75
 20
7773.736304084138
 30
0.0
 11
10283.5
 21
7773.736304084138
 31
0.0
  0
LINE
  5
2808C
330
27F29
100
AcDbEntity
  8
HASHIRA
  6
HIDE-L
 62
     6
100
AcDbLine
 10
6436.470352243384
 20
3203.451916760077
 30
0.0
 11
6436.470352243384
 21
775.1259195111079
 31
0.0
  0
LINE
  5
2808D
330
27F29
100
AcDbEntity
  8
HASHIRA
  6
HIDE-L
 62
     6
100
AcDbLine
 10
6439.170352243381
 20
3203.173374806844
 30
0.0
 11
6439.170352243381
 21
775.1259195111079
 31
0.0
  0
LINE
  5
2808E
330
27F29
100
AcDbEntity
  8
HASHIRA
  6
HIDE-L
 62
     6
100
AcDbLine
 10
6441.438728861786
 20
3202.939360712785
 30
0.0
 11
6441.438728861786
 21
775.1259195111079
 31
0.0
  0
LINE
  5
2808F
330
27F29
100
AcDbEntity
  8
HASHIRA
  6
HIDE-L
 62
     6
100
AcDbLine
 10
6439.81238326506
 20
3203.107140519875
 30
0.0
 11
6439.81238326506
 21
775.1259195111079
 31
0.0
  0
LINE
  5
28090
330
27F29
100
AcDbEntity
  8
HASHIRA
  6
HIDE-L
 62
     6
100
AcDbLine
 10
6451.870352243378
 20
3201.863195989787
 30
0.0
 11
6451.870352243378
 21
775.1259195111079
 31
0.0
  0
LINE
  5
28091
330
27F29
100
AcDbEntity
  8
HASHIRA
100
AcDbLine
 10
6454.17035224338
 20
3201.625919511108
 30
0.0
 11
6454.17035224338
 21
775.1259195111079
 31
0.0
  0
LINE
  5
28092
330
27F29
100
AcDbEntity
  8
HASHIRA
  6
1PL-S
 62
     6
100
AcDbLine
 10
6416.670352243383
 20
3183.375919511107
 30
0.0
 11
6416.670352243383
 21
3156.875919511108
 31
0.0
  0
LINE
  5
28093
330
27F29
100
AcDbEntity
  8
HASHIRA
  6
1PL-S
 62
     6
100
AcDbLine
 10
6416.670352243383
 20
3011.875919511108
 30
0.0
 11
6416.670352243383
 21
2985.375919511108
 31
0.0
  0
LINE
  5
28094
330
27F29
100
AcDbEntity
  8
HASHIRA
  6
1PL-S
 62
     6
100
AcDbLine
 10
6416.670352243383
 20
846.8759195111079
 30
0.0
 11
6416.670352243383
 21
823.3759195111078
 31
0.0
  0
LINE
  5
28095
330
27F29
100
AcDbEntity
  8
HASHIRA
  6
1PL-S
 62
     6
100
AcDbLine
 10
6416.670352243383
 20
806.1259195111079
 30
0.0
 11
6416.670352243383
 21
784.1259195111079
 31
0.0
  0
LINE
  5
28096
330
27F29
100
AcDbEntity
  8
HASHIRA
  6
HIDE-L
 62
     6
100
AcDbLine
 10
6434.170352243381
 20
3203.689193238756
 30
0.0
 11
6434.170352243381
 21
775.1259195111079
 31
0.0
  0
LINE
  5
28097
330
27F29
100
AcDbEntity
  8
HASHIRA
  6
HIDE-L
 62
     6
100
AcDbLine
 10
6381.470352243383
 20
775.1259195111079
 30
0.0
 11
6381.470352243383
 21
3209.125919511107
 31
0.0
  0
LINE
  5
28098
330
27F29
100
AcDbEntity
  8
HASHIRA
100
AcDbLine
 10
6379.170352243383
 20
775.1259195111079
 30
0.0
 11
6379.170352243383
 21
3209.125919511107
 31
0.0
  0
LINE
  5
28099
330
27F29
100
AcDbEntity
  8
HASHIRA
  6
1PL-S
 62
     6
100
AcDbLine
 10
6428.420352243382
 20
795.1259195111078
 30
0.0
 11
6404.920352243381
 21
795.1259195111078
 31
0.0
  0
LINE
  5
2809A
330
27F29
100
AcDbEntity
  8
HASHIRA
  6
1PL-S
 62
     6
100
AcDbLine
 10
6427.670352243383
 20
795.1259195111078
 30
0.0
 11
6405.67035224338
 21
795.1259195111078
 31
0.0
  0
LINE
  5
2809B
330
27F29
100
AcDbEntity
  8
HASHIRA
100
AcDbLine
 10
6379.170352243383
 20
775.1259195111079
 30
0.0
 11
6454.17035224338
 21
775.1259195111079
 31
0.0
  0
CIRCLE
  5
2809C
330
27F29
100
AcDbEntity
  8
HASHIRA
100
AcDbCircle
 10
6416.670352243383
 20
795.1259195111078
 30
0.0
 40
6.75
  0
LINE
  5
2809D
330
27F29
100
AcDbEntity
  8
HASHIRA
  6
1PL-S
 62
     6
100
AcDbLine
 10
6428.420352243382
 20
835.1259195111079
 30
0.0
 11
6404.920352243381
 21
835.1259195111079
 31
0.0
  0
CIRCLE
  5
2809E
330
27F29
100
AcDbEntity
  8
HASHIRA
100
AcDbCircle
 10
6416.670352243383
 20
835.1259195111079
 30
0.0
 40
6.75
  0
CIRCLE
  5
2809F
330
27F29
100
AcDbEntity
  8
HASHIRA
  6
HIDE-L
 62
     6
100
AcDbCircle
 10
6416.670352243383
 20
2998.625919511107
 30
0.0
 40
8.25
  0
LINE
  5
280A0
330
27F29
100
AcDbEntity
  8
HASHIRA
  6
1PL-S
 62
     6
100
AcDbLine
 10
6429.920352243382
 20
2998.625919511107
 30
0.0
 11
6403.420352243381
 21
2998.625919511107
 31
0.0
  0
CIRCLE
  5
280A1
330
27F29
100
AcDbEntity
  8
HASHIRA
100
AcDbCircle
 10
6416.670352243383
 20
2998.625919511107
 30
0.0
 40
7.25
  0
CIRCLE
  5
280A2
330
27F29
100
AcDbEntity
  8
HASHIRA
100
AcDbCircle
 10
6416.670352243383
 20
2998.625919511107
 30
0.0
 40
5.0
  0
CIRCLE
  5
280A3
330
27F29
100
AcDbEntity
  8
HASHIRA
100
AcDbCircle
 10
6416.670352243383
 20
2998.625919511107
 30
0.0
 40
4.0
  0
LINE
  5
280A4
330
27F29
100
AcDbEntity
  8
HASHIRA
100
AcDbLine
 10
6454.17035224338
 20
3201.625919511108
 30
0.0
 11
6381.470352243383
 21
3209.125919511107
 31
0.0
  0
LINE
  5
280A5
330
27F29
100
AcDbEntity
  8
HASHIRA
  6
1PL-S
 62
     6
100
AcDbLine
 10
6429.920352243382
 20
3170.125919511108
 30
0.0
 11
6403.420352243381
 21
3170.125919511108
 31
0.0
  0
CIRCLE
  5
280A6
330
27F29
100
AcDbEntity
  8
HASHIRA
100
AcDbCircle
 10
6416.670352243383
 20
3170.125919511108
 30
0.0
 40
7.25
  0
CIRCLE
  5
280A7
330
27F29
100
AcDbEntity
  8
HASHIRA
  6
HIDE-L
 62
     6
100
AcDbCircle
 10
6416.670352243383
 20
3170.125919511108
 30
0.0
 40
8.25
  0
CIRCLE
  5
280A8
330
27F29
100
AcDbEntity
  8
HASHIRA
100
AcDbCircle
 10
6416.670352243383
 20
3170.125919511108
 30
0.0
 40
5.0
  0
CIRCLE
  5
280A9
330
27F29
100
AcDbEntity
  8
HASHIRA
100
AcDbCircle
 10
6416.670352243383
 20
3170.125919511108
 30
0.0
 40
4.0
  0
LINE
  5
280AA
330
27F29
100
AcDbEntity
  8
HASHIRA
100
AcDbLine
 10
6379.170352243383
 20
3209.125919511107
 30
0.0
 11
6381.470352243383
 21
3209.125919511107
 31
0.0
  0
LINE
  5
280AB
330
27F29
100
AcDbEntity
  8
SANKAKU
  6
1PL-S
 62
     6
100
AcDbLine
 10
6416.670352243383
 20
3190.125919511108
 30
0.0
 11
6416.670352243383
 21
3150.125919511108
 31
0.0
  0
LINE
  5
280AC
330
27F29
100
AcDbEntity
  8
SANKAKU
  6
1PL-S
 62
     6
100
AcDbLine
 10
6416.670352243383
 20
3018.625919511108
 30
0.0
 11
6416.670352243383
 21
2978.625919511108
 31
0.0
  0
LINE
  5
280AD
330
27F29
100
AcDbEntity
  8
SANKAKU
  6
HIDE-S
 62
     6
100
AcDbLine
 10
6454.675978573263
 20
2968.125919511107
 30
0.0
 11
6378.669921481595
 21
2968.125919511107
 31
0.0
  0
LINE
  5
280AE
330
27F29
100
AcDbEntity
  8
SANKAKU
100
AcDbLine
 10
6167.923492966728
 20
3310.50762131524
 30
0.0
 11
6665.417211520035
 21
3260.50762131524
 31
0.0
  0
LINE
  5
280AF
330
27F29
100
AcDbEntity
  8
SANKAKU
  6
HIDE-S
 62
     6
100
AcDbLine
 10
6167.923492966728
 20
3310.50762131524
 30
0.0
 11
6159.823492966729
 21
3229.913638909605
 31
0.0
  0
LINE
  5
280B0
330
27F29
100
AcDbEntity
  8
SANKAKU
  6
HIDE-S
 62
     6
100
AcDbLine
 10
6665.417211520035
 20
3260.50762131524
 30
0.0
 11
6657.317211520035
 21
3179.913638909605
 31
0.0
  0
LINE
  5
280B1
330
27F29
100
AcDbEntity
  8
SANKAKU
  6
HIDE-L
 62
     6
100
AcDbLine
 10
6167.693492966725
 20
3308.219150209895
 30
0.0
 11
6665.187211520038
 21
3258.219150209895
 31
0.0
  0
LINE
  5
280B2
330
27F29
100
AcDbEntity
  8
SANKAKU
  6
1PL-S
 62
     6
100
AcDbLine
 10
6436.670352243382
 20
3170.125919511108
 30
0.0
 11
6396.670352243383
 21
3170.125919511108
 31
0.0
  0
CIRCLE
  5
280B3
330
27F29
100
AcDbEntity
  8
SANKAKU
  6
HIDE-S
 62
     6
100
AcDbCircle
 10
6416.670352243383
 20
3170.125919511108
 30
0.0
 40
6.0
  0
CIRCLE
  5
280B4
330
27F29
100
AcDbEntity
  8
SANKAKU
  6
HIDE-S
 62
     6
100
AcDbCircle
 10
6416.670352243383
 20
3170.125919511108
 30
0.0
 40
11.0
  0
CIRCLE
  5
280B5
330
27F29
100
AcDbEntity
  8
SANKAKU
  6
HIDE-S
 62
     6
100
AcDbCircle
 10
6416.670352243383
 20
3170.125919511108
 30
0.0
 40
12.5
  0
CIRCLE
  5
280B6
330
27F29
100
AcDbEntity
  8
SANKAKU
  6
HIDE-S
 62
     6
100
AcDbCircle
 10
6416.670352243383
 20
2998.625919511107
 30
0.0
 40
12.5
  0
CIRCLE
  5
280B7
330
27F29
100
AcDbEntity
  8
SANKAKU
  6
HIDE-S
 62
     6
100
AcDbCircle
 10
6416.670352243383
 20
2998.625919511107
 30
0.0
 40
11.0
  0
CIRCLE
  5
280B8
330
27F29
100
AcDbEntity
  8
SANKAKU
  6
HIDE-S
 62
     6
100
AcDbCircle
 10
6416.670352243383
 20
2998.625919511107
 30
0.0
 40
6.0
  0
LINE
  5
280B9
330
27F29
100
AcDbEntity
  8
SANKAKU
  6
1PL-S
 62
     6
100
AcDbLine
 10
6436.670352243382
 20
2998.625919511107
 30
0.0
 11
6396.670352243383
 21
2998.625919511107
 31
0.0
  0
LINE
  5
280BA
330
27F29
100
AcDbEntity
  8
SANKAKU
  6
1PL-S
 62
     6
100
AcDbLine
 10
6215.622864822056
 20
3285.110378854553
 30
0.0
 11
6211.622864822056
 21
3245.31088137029
 31
0.0
  0
LINE
  5
280BB
330
27F29
100
AcDbEntity
  8
SANKAKU
  6
1PL-S
 62
     6
100
AcDbLine
 10
6613.617839664707
 20
3245.110378854555
 30
0.0
 11
6609.617839664707
 21
3205.310881370291
 31
0.0
  0
LINE
  5
280BC
330
27F29
100
AcDbEntity
  8
SANKAKU
  6
1PL-S
 62
     6
100
AcDbLine
 10
6193.723116079926
 20
3267.210630112423
 30
0.0
 11
6233.522613564193
 21
3263.210630112423
 31
0.0
  0
LINE
  5
280BD
330
27F29
100
AcDbEntity
  8
SANKAKU
  6
1PL-S
 62
     6
100
AcDbLine
 10
6591.71809092257
 20
3227.210630112421
 30
0.0
 11
6631.517588406834
 21
3223.210630112421
 31
0.0
  0
CIRCLE
  5
280BE
330
27F29
100
AcDbEntity
  8
SANKAKU
  6
HIDE-S
 62
     6
100
AcDbCircle
 10
6611.617839664707
 20
3225.210630112423
 30
0.0
 40
12.5
  0
CIRCLE
  5
280BF
330
27F29
100
AcDbEntity
  8
SANKAKU
  6
HIDE-S
 62
     6
100
AcDbCircle
 10
6611.617839664707
 20
3225.210630112423
 30
0.0
 40
11.0
  0
CIRCLE
  5
280C0
330
27F29
100
AcDbEntity
  8
SANKAKU
  6
HIDE-S
 62
     6
100
AcDbCircle
 10
6611.617839664707
 20
3225.210630112423
 30
0.0
 40
6.0
  0
CIRCLE
  5
280C1
330
27F29
100
AcDbEntity
  8
SANKAKU
  6
HIDE-S
 62
     6
100
AcDbCircle
 10
6213.622864822056
 20
3265.210630112423
 30
0.0
 40
12.5
  0
CIRCLE
  5
280C2
330
27F29
100
AcDbEntity
  8
SANKAKU
  6
HIDE-S
 62
     6
100
AcDbCircle
 10
6213.622864822056
 20
3265.210630112423
 30
0.0
 40
11.0
  0
CIRCLE
  5
280C3
330
27F29
100
AcDbEntity
  8
SANKAKU
  6
HIDE-S
 62
     6
100
AcDbCircle
 10
6213.622864822056
 20
3265.210630112423
 30
0.0
 40
6.0
  0
ARC
  5
280C4
330
27F29
100
AcDbEntity
  8
SANKAKU
100
AcDbCircle
 10
5946.873352376291
 20
2833.489323784367
 30
0.0
 40
450.0
100
AcDbArc
 50
17.30831855327305
 51
61.75631760499999
  0
ARC
  5
280C5
330
27F29
100
AcDbEntity
  8
SANKAKU
  6
HIDE-L
 62
     6
100
AcDbCircle
 10
5946.873352376291
 20
2833.489323784367
 30
0.0
 40
452.3
100
AcDbArc
 50
17.31777187835253
 51
61.87697552248227
  0
ARC
  5
280C6
330
27F29
100
AcDbEntity
  8
SANKAKU
100
AcDbCircle
 10
6788.458266472495
 20
2855.410905938129
 30
0.0
 40
350.0
100
AcDbArc
 50
112.0050756645566
 51
161.3442910395519
  0
ARC
  5
280C7
330
27F29
100
AcDbEntity
  8
SANKAKU
  6
HIDE-L
 62
     6
100
AcDbCircle
 10
6788.458266472495
 20
2855.410905938129
 30
0.0
 40
352.3
100
AcDbArc
 50
112.0050756645566
 51
161.3406776024143
  0
ARC
  5
280C8
330
27F29
100
AcDbEntity
  8
SANKAKU
  6
HIDE-S
 62
     6
100
AcDbCircle
 10
6788.458266472495
 20
2855.410905938129
 30
0.0
 40
370.0
100
AcDbArc
 50
120.2149754166317
 51
147.1532297771698
  0
ARC
  5
280C9
330
27F29
100
AcDbEntity
  8
SANKAKU
100
AcDbCircle
 10
6788.458266472495
 20
2855.410905938129
 30
0.0
 40
376.0
100
AcDbArc
 50
120.2149754166317
 51
147.1532297771698
  0
LINE
  5
280CA
330
27F29
100
AcDbEntity
  8
SANKAKU
  6
HIDE-S
 62
     6
100
AcDbLine
 10
6236.282764630151
 20
3241.023400120059
 30
0.0
 11
6370.770352243379
 21
3227.506888996631
 31
0.0
  0
LINE
  5
280CB
330
27F29
100
AcDbEntity
  8
SANKAKU
  6
HIDE-S
 62
     6
100
AcDbLine
 10
6448.17035224338
 20
3202.039230757963
 30
0.0
 11
6448.17035224338
 21
3064.775059233131
 31
0.0
  0
LINE
  5
280CC
330
27F29
100
AcDbEntity
  8
SANKAKU
100
AcDbLine
 10
6454.17035224338
 20
3202.039230757963
 30
0.0
 11
6454.17035224338
 21
3064.775059233131
 31
0.0
  0
ARC
  5
280CD
330
27F29
100
AcDbEntity
  8
SANKAKU
  6
HIDE-S
 62
     6
100
AcDbCircle
 10
6464.170352243383
 20
3202.039230757963
 30
0.0
 40
10.0
100
AcDbArc
 50
84.26082952271237
 51
180.0
  0
LINE
  5
280CE
330
27F29
100
AcDbEntity
  8
SANKAKU
100
AcDbLine
 10
6379.170352243383
 20
3211.587090002925
 30
0.0
 11
6379.170352243383
 21
3074.032966193084
 31
0.0
  0
LINE
  5
280CF
330
27F29
100
AcDbEntity
  8
SANKAKU
  6
HIDE-S
 62
     6
100
AcDbLine
 10
6385.170352243381
 20
3211.587090002925
 30
0.0
 11
6385.170352243381
 21
3074.032966193084
 31
0.0
  0
ARC
  5
280D0
330
27F29
100
AcDbEntity
  8
SANKAKU
  6
HIDE-S
 62
     6
100
AcDbCircle
 10
5946.873352376291
 20
2833.489323784367
 30
0.0
 40
470.0
100
AcDbArc
 50
29.66617416804087
 51
53.68668615359335
  0
ARC
  5
280D1
330
27F29
100
AcDbEntity
  8
SANKAKU
100
AcDbCircle
 10
5946.873352376291
 20
2833.489323784367
 30
0.0
 40
476.0
100
AcDbArc
 50
29.66617416804087
 51
53.68668615359335
  0
LINE
  5
280D2
330
27F29
100
AcDbEntity
  8
SANKAKU
  6
HIDE-S
 62
     6
100
AcDbLine
 10
6235.682764630152
 20
3235.053475497421
 30
0.0
 11
6370.170352243381
 21
3221.536964373991
 31
0.0
  0
LINE
  5
280D3
330
27F29
100
AcDbEntity
  8
SANKAKU
  6
HIDE-S
 62
     6
100
AcDbLine
 10
6465.17035224338
 20
3211.98910512903
 30
0.0
 11
6595.20537793251
 21
3198.92009331645
 31
0.0
  0
LINE
  5
280D4
330
27F29
100
AcDbEntity
  8
SANKAKU
  6
HIDE-S
 62
     6
100
AcDbLine
 10
6465.770352243379
 20
3217.959029751669
 30
0.0
 11
6595.805377932514
 21
3204.890017939092
 31
0.0
  0
ARC
  5
280D5
330
27F29
100
AcDbEntity
  8
SANKAKU
  6
HIDE-S
 62
     6
100
AcDbCircle
 10
6369.170352243383
 20
3211.587090002925
 30
0.0
 40
10.0
100
AcDbArc
 50
0.0
 51
84.26082952271237
  0
ARC
  5
280D6
330
27F29
100
AcDbEntity
  8
SANKAKU
  6
HIDE-S
 62
     6
100
AcDbCircle
 10
6234.682764630153
 20
3225.103601126355
 30
0.0
 40
10.0
100
AcDbArc
 50
84.26082952271237
 51
172.5416982018535
  0
ARC
  5
280D7
330
27F29
100
AcDbEntity
  8
SANKAKU
100
AcDbCircle
 10
6234.682764630153
 20
3225.103601126355
 30
0.0
 40
10.0
100
AcDbArc
 50
172.5416982018535
 51
233.6866861535933
  0
ARC
  5
280D8
330
27F29
100
AcDbEntity
  8
SANKAKU
100
AcDbCircle
 10
6369.170352243383
 20
3074.032966193084
 30
0.0
 40
10.0
100
AcDbArc
 50
209.666174168041
 51
0.0
  0
ARC
  5
280D9
330
27F29
100
AcDbEntity
  8
SANKAKU
  6
HIDE-S
 62
     6
100
AcDbCircle
 10
6234.682764630153
 20
3225.103601126355
 30
0.0
 40
16.0
100
AcDbArc
 50
84.26082952271237
 51
233.6866861535933
  0
ARC
  5
280DA
330
27F29
100
AcDbEntity
  8
SANKAKU
  6
HIDE-S
 62
     6
100
AcDbCircle
 10
6369.170352243383
 20
3211.587090002925
 30
0.0
 40
16.0
100
AcDbArc
 50
0.0
 51
84.26082952271237
  0
ARC
  5
280DB
330
27F29
100
AcDbEntity
  8
SANKAKU
  6
HIDE-S
 62
     6
100
AcDbCircle
 10
6369.170352243383
 20
3074.032966193084
 30
0.0
 40
16.0
100
AcDbArc
 50
209.666174168041
 51
0.0
  0
ARC
  5
280DC
330
27F29
100
AcDbEntity
  8
SANKAKU
  6
HIDE-S
 62
     6
100
AcDbCircle
 10
6464.170352243383
 20
3202.039230757963
 30
0.0
 40
16.0
100
AcDbArc
 50
84.26082952271237
 51
180.0
  0
ARC
  5
280DD
330
27F29
100
AcDbEntity
  8
SANKAKU
  6
HIDE-S
 62
     6
100
AcDbCircle
 10
6594.205377932509
 20
3188.970218945385
 30
0.0
 40
16.0
100
AcDbArc
 50
300.2149754166317
 51
84.26082952271237
  0
ARC
  5
280DE
330
27F29
100
AcDbEntity
  8
SANKAKU
  6
HIDE-S
 62
     6
100
AcDbCircle
 10
6464.170352243383
 20
3064.775059233131
 30
0.0
 40
16.0
100
AcDbArc
 50
180.0
 51
327.1532297771698
  0
ARC
  5
280DF
330
27F29
100
AcDbEntity
  8
SANKAKU
100
AcDbCircle
 10
6594.205377932509
 20
3188.970218945385
 30
0.0
 40
10.0
100
AcDbArc
 50
300.2149754166317
 51
355.9799608436297
  0
ARC
  5
280E0
330
27F29
100
AcDbEntity
  8
SANKAKU
  6
HIDE-S
 62
     6
100
AcDbCircle
 10
6594.205377932509
 20
3188.970218945385
 30
0.0
 40
10.0
100
AcDbArc
 50
355.9799608436297
 51
84.26082952271237
  0
ARC
  5
280E1
330
27F29
100
AcDbEntity
  8
SANKAKU
100
AcDbCircle
 10
6464.170352243383
 20
3064.775059233131
 30
0.0
 40
10.0
100
AcDbArc
 50
180.0
 51
327.1532297771698
  0
LINE
  5
280E2
330
27F29
100
AcDbEntity
  8
SANKAKU
100
AcDbLine
 10
6456.84802373333
 20
2967.369143287932
 30
0.0
 11
6454.670504959423
 21
2968.125919511107
 31
0.0
  0
LINE
  5
280E3
330
27F29
100
AcDbEntity
  8
SANKAKU
100
AcDbLine
 10
6376.49627900432
 20
2967.370393826275
 30
0.0
 11
6378.670199527338
 21
2968.125919511107
 31
0.0
  0
CIRCLE
  5
280E4
330
27F29
100
AcDbEntity
  8
HARI
  6
HIDE-L
 62
     6
100
AcDbCircle
 10
6611.617839664707
 20
3225.210630112423
 30
0.0
 40
8.249999999999998
  0
CIRCLE
  5
280E5
330
27F29
100
AcDbEntity
  8
HARI
100
AcDbCircle
 10
6611.617839664707
 20
3225.210630112423
 30
0.0
 40
7.249999999999998
  0
CIRCLE
  5
280E6
330
27F29
100
AcDbEntity
  8
HARI
100
AcDbCircle
 10
6611.617839664707
 20
3225.210630112423
 30
0.0
 40
3.999999999999999
  0
CIRCLE
  5
280E7
330
27F29
100
AcDbEntity
  8
HARI
100
AcDbCircle
 10
6611.617839664707
 20
3225.210630112423
 30
0.0
 40
4.999999999999999
  0
LINE
  5
280E8
330
27F29
100
AcDbEntity
  8
HARI
  6
HIDE-L
 62
     6
100
AcDbLine
 10
5734.573957825348
 20
3348.734187898575
 30
0.0
 11
7097.706746661413
 21
3211.734187898577
 31
0.0
  0
LINE
  5
280E9
330
27F29
100
AcDbEntity
  8
HARI
100
AcDbLine
 10
5734.803957825349
 20
3351.02265900392
 30
0.0
 11
7097.936746661416
 21
3214.022659003922
 31
0.0
  0
LINE
  5
280EA
330
27F29
100
AcDbEntity
  8
HARI
  6
1PL-S
 62
     6
100
AcDbLine
 10
5725.581526921261
 20
3314.26063011242
 30
0.0
 11
5746.476263100498
 21
3312.160630112423
 31
0.0
  0
LINE
  5
280EB
330
27F29
100
AcDbEntity
  8
HARI
  6
1PL-S
 62
     6
100
AcDbLine
 10
5760.40608721999
 20
3310.760630112421
 30
0.0
 11
5781.300823399232
 21
3308.660630112422
 31
0.0
  0
LINE
  5
280EC
330
27F29
100
AcDbEntity
  8
HARI
  6
1PL-S
 62
     6
100
AcDbLine
 10
6200.439281280395
 20
3266.535630112422
 30
0.0
 11
6226.806448363721
 21
3263.885630112423
 31
0.0
  0
LINE
  5
280ED
330
27F29
100
AcDbEntity
  8
HARI
  6
1PL-S
 62
     6
100
AcDbLine
 10
6598.434256123043
 20
3226.535630112422
 30
0.0
 11
6624.80142320637
 21
3223.885630112423
 31
0.0
  0
LINE
  5
280EE
330
27F29
100
AcDbEntity
  8
HARI
  6
1PL-S
 62
     6
100
AcDbLine
 10
7043.939881087536
 20
3181.760630112423
 30
0.0
 11
7064.834617266773
 21
3179.660630112424
 31
0.0
  0
LINE
  5
280EF
330
27F29
100
AcDbEntity
  8
HARI
  6
1PL-S
 62
     6
100
AcDbLine
 10
7078.764441386266
 20
3178.260630112424
 30
0.0
 11
7099.659177565502
 21
3176.160630112423
 31
0.0
  0
LINE
  5
280F0
330
27F29
100
AcDbEntity
  8
HARI
  6
HIDE-L
 62
     6
100
AcDbLine
 10
7100.616621032488
 20
3140.687072326272
 30
0.0
 11
5717.584083454283
 21
3279.687072326268
 31
0.0
  0
LINE
  5
280F1
330
27F29
100
AcDbEntity
  8
HARI
100
AcDbLine
 10
7100.386621032484
 20
3138.398601220925
 30
0.0
 11
5717.354083454278
 21
3277.398601220923
 31
0.0
  0
LINE
  5
280F2
330
27F29
100
AcDbEntity
  8
HARI
  6
1PL-S
 62
     6
100
AcDbLine
 10
5737.078895010882
 20
3323.65799820204
 30
0.0
 11
5734.97889501088
 21
3302.763262022802
 31
0.0
  0
LINE
  5
280F3
330
27F29
100
AcDbEntity
  8
HARI
100
AcDbLine
 10
5717.354083454278
 20
3277.398601220923
 30
0.0
 11
5718.154083454282
 21
3285.358500717775
 31
0.0
  0
CIRCLE
  5
280F4
330
27F29
100
AcDbEntity
  8
HARI
100
AcDbCircle
 10
5736.028895010878
 20
3313.210630112421
 30
0.0
 40
5.999999999999999
  0
LINE
  5
280F5
330
27F29
100
AcDbEntity
  8
HARI
  6
1PL-S
 62
     6
100
AcDbLine
 10
5771.903455309614
 20
3320.157998202041
 30
0.0
 11
5769.803455309614
 21
3299.263262022801
 31
0.0
  0
CIRCLE
  5
280F6
330
27F29
100
AcDbEntity
  8
HARI
100
AcDbCircle
 10
5770.853455309611
 20
3309.710630112423
 30
0.0
 40
5.999999999999999
  0
LINE
  5
280F7
330
27F29
100
AcDbEntity
  8
HARI
  6
1PL-S
 62
     6
100
AcDbLine
 10
6214.94786482206
 20
3278.394213654086
 30
0.0
 11
6212.297864822058
 21
3252.027046570759
 31
0.0
  0
CIRCLE
  5
280F8
330
27F29
100
AcDbEntity
  8
HARI
100
AcDbCircle
 10
6213.622864822056
 20
3265.210630112423
 30
0.0
 40
7.249999999999998
  0
CIRCLE
  5
280F9
330
27F29
100
AcDbEntity
  8
HARI
  6
HIDE-L
 62
     6
100
AcDbCircle
 10
6213.622864822056
 20
3265.210630112423
 30
0.0
 40
8.249999999999998
  0
CIRCLE
  5
280FA
330
27F29
100
AcDbEntity
  8
HARI
100
AcDbCircle
 10
6213.622864822056
 20
3265.210630112423
 30
0.0
 40
4.999999999999999
  0
CIRCLE
  5
280FB
330
27F29
100
AcDbEntity
  8
HARI
100
AcDbCircle
 10
6213.622864822056
 20
3265.210630112423
 30
0.0
 40
3.999999999999999
  0
LINE
  5
280FC
330
27F29
100
AcDbEntity
  8
HARI
  6
1PL-S
 62
     6
100
AcDbLine
 10
6612.942839664704
 20
3238.394213654085
 30
0.0
 11
6610.292839664703
 21
3212.02704657076
 31
0.0
  0
LINE
  5
280FD
330
27F29
100
AcDbEntity
  8
HARI
  6
1PL-S
 62
     6
100
AcDbLine
 10
7055.437249177149
 20
3191.157998202044
 30
0.0
 11
7053.33724917715
 21
3170.263262022805
 31
0.0
  0
LINE
  5
280FE
330
27F29
100
AcDbEntity
  8
HARI
  6
1PL-S
 62
     6
100
AcDbLine
 10
7090.261809475888
 20
3187.657998202044
 30
0.0
 11
7088.161809475888
 21
3166.763262022805
 31
0.0
  0
CIRCLE
  5
280FF
330
27F29
100
AcDbEntity
  8
HARI
100
AcDbCircle
 10
7054.387249177153
 20
3180.710630112423
 30
0.0
 40
5.999999999999999
  0
CIRCLE
  5
28100
330
27F29
100
AcDbEntity
  8
HARI
100
AcDbCircle
 10
7089.211809475886
 20
3177.210630112423
 30
0.0
 40
5.999999999999999
  0
LINE
  5
28101
330
27F29
100
AcDbEntity
  8
HARI
100
AcDbLine
 10
7100.386621032484
 20
3138.398601220925
 30
0.0
 11
7101.186621032486
 21
3146.358500717779
 31
0.0
  0
LINE
  5
28102
330
27F29
100
AcDbEntity
  8
KETA_KANAGU
  6
HIDE-S
 62
     6
100
AcDbLine
 10
7112.273087112669
 20
3229.667445434735
 30
0.0
 11
7103.873087112674
 21
3146.088500717779
 31
0.0
  0
LINE
  5
28103
330
27F29
100
AcDbEntity
  8
KETA_KANAGU
  6
HIDE-S
 62
     6
100
AcDbLine
 10
7038.425971540367
 20
3198.897922824682
 30
0.0
 11
7033.825971540368
 21
3153.128500717778
 31
0.0
  0
LINE
  5
28104
330
27F29
100
AcDbEntity
  8
KETA_KANAGU
100
AcDbLine
 10
7099.636746661416
 20
3230.937445434735
 30
0.0
 11
7091.236746661415
 21
3147.358500717778
 31
0.0
  0
LINE
  5
28105
330
27F29
100
AcDbEntity
  8
KETA_KANAGU
  6
HIDE-S
 62
     6
100
AcDbLine
 10
7036.137500435017
 20
3199.127922824683
 30
0.0
 11
7031.53750043502
 21
3153.358500717779
 31
0.0
  0
LINE
  5
28106
330
27F29
100
AcDbEntity
  8
KETA_KANAGU
100
AcDbLine
 10
7114.561558218017
 20
3229.437445434735
 30
0.0
 11
7106.161558218015
 21
3145.858500717779
 31
0.0
  0
LINE
  5
28107
330
27F29
100
AcDbEntity
  8
KETA_KANAGU
  6
HIDE-S
 62
     6
100
AcDbLine
 10
7106.161558218015
 20
3145.858500717779
 30
0.0
 11
7031.53750043502
 21
3153.358500717779
 31
0.0
  0
LINE
  5
28108
330
27F29
100
AcDbEntity
  8
KETA_KANAGU
  6
HIDE-S
 62
     6
100
AcDbLine
 10
7097.436746661418
 20
3209.047721818389
 30
0.0
 11
7051.667324554516
 21
3213.647721818389
 31
0.0
  0
LINE
  5
28109
330
27F29
100
AcDbEntity
  8
KETA_KANAGU
  6
1PL-S
 62
     6
100
AcDbLine
 10
7100.156671284057
 20
3176.110630112424
 30
0.0
 11
7043.442387368981
 21
3181.810630112423
 31
0.0
  0
LINE
  5
2810A
330
27F29
100
AcDbEntity
  8
KETA_KANAGU
  6
HIDE-S
 62
     6
100
AcDbLine
 10
7046.19238736898
 20
3209.172784632856
 30
0.0
 11
7045.09238736898
 21
3198.227922824683
 31
0.0
  0
LINE
  5
2810B
330
27F29
100
AcDbEntity
  8
KETA_KANAGU
  6
HIDE-S
 62
     6
100
AcDbLine
 10
7045.09238736898
 20
3198.227922824683
 30
0.0
 11
7036.137500435017
 21
3199.127922824683
 31
0.0
  0
CIRCLE
  5
2810C
330
27F29
100
AcDbEntity
  8
KETA_KANAGU
100
AcDbCircle
 10
7054.387249177153
 20
3180.710630112423
 30
0.0
 40
5.999999999999999
  0
LINE
  5
2810D
330
27F29
100
AcDbEntity
  8
KETA_KANAGU
  6
1PL-S
 62
     6
100
AcDbLine
 10
7055.487249177152
 20
3191.655491920597
 30
0.0
 11
7053.287249177156
 21
3169.765768304252
 31
0.0
  0
ARC
  5
2810E
330
27F29
100
AcDbEntity
  8
KETA_KANAGU
  6
HIDE-S
 62
     6
100
AcDbCircle
 10
7051.167324554517
 20
3208.672784632855
 30
0.0
 40
4.999999999999999
100
AcDbArc
 50
84.26082952271237
 51
174.2608295227396
  0
ARC
  5
2810F
330
27F29
100
AcDbEntity
  8
KETA_KANAGU
  6
HIDE-S
 62
     6
100
AcDbCircle
 10
7089.211809475886
 20
3177.210630112423
 30
0.0
 40
5.999999999999999
100
AcDbArc
 50
320.7035197607908
 51
27.81813928464915
  0
LINE
  5
28110
330
27F29
100
AcDbEntity
  8
KETA_KANAGU
  6
1PL-S
 62
     6
100
AcDbLine
 10
7090.311809475882
 20
3188.155491920597
 30
0.0
 11
7088.111809475885
 21
3166.265768304251
 31
0.0
  0
ARC
  5
28111
330
27F29
100
AcDbEntity
  8
KETA_KANAGU
100
AcDbCircle
 10
7089.211809475886
 20
3177.210630112423
 30
0.0
 40
5.999999999999999
100
AcDbArc
 50
27.81813928464915
 51
320.7035197607908
  0
LINE
  5
28112
330
27F29
100
AcDbEntity
  8
KETA_KANAGU
  6
HIDE-S
 62
     6
100
AcDbLine
 10
7112.361558218021
 20
3207.547721818389
 30
0.0
 11
7097.436746661418
 21
3209.047721818389
 31
0.0
  0
LINE
  5
28113
330
27F29
100
AcDbEntity
  8
KETA_KANAGU
100
AcDbLine
 10
7114.561558218017
 20
3229.437445434735
 30
0.0
 11
7099.636746661416
 21
3230.937445434735
 31
0.0
  0
LINE
  5
28114
330
27F29
100
AcDbEntity
  8
KETA_KANAGU
  6
HIDE-S
 62
     6
100
AcDbLine
 10
7111.961558218017
 20
3203.567772069963
 30
0.0
 11
7109.673087112671
 21
3203.797772069963
 31
0.0
  0
LINE
  5
28115
330
27F29
100
AcDbEntity
  8
KETA_KANAGU
  6
HIDE-S
 62
     6
100
AcDbLine
 10
7113.161558218017
 20
3215.507621315242
 30
0.0
 11
7110.873087112675
 21
3215.737621315241
 31
0.0
  0
LINE
  5
28116
330
27F29
100
AcDbEntity
  8
KETA_KANAGU
  6
1PL-S
 62
     6
100
AcDbLine
 10
7117.536495403553
 20
3209.037696692603
 30
0.0
 11
7105.298149927141
 21
3210.2676966926
 31
0.0
  0
LINE
  5
28117
330
27F29
100
AcDbEntity
  8
KETA_KANAGU
  6
1PL-S
 62
     6
100
AcDbLine
 10
7112.536495403553
 20
3159.288324837271
 30
0.0
 11
7100.298149927141
 21
3160.518324837271
 31
0.0
  0
LINE
  5
28118
330
27F29
100
AcDbEntity
  8
KETA_KANAGU
  6
HIDE-S
 62
     6
100
AcDbLine
 10
7108.161558218016
 20
3165.758249459911
 30
0.0
 11
7105.873087112674
 21
3165.98824945991
 31
0.0
  0
LINE
  5
28119
330
27F29
100
AcDbEntity
  8
KETA_KANAGU
  6
HIDE-S
 62
     6
100
AcDbLine
 10
7106.961558218017
 20
3153.818400214632
 30
0.0
 11
7104.673087112669
 21
3154.048400214632
 31
0.0
  0
LINE
  5
2811A
330
27F29
100
AcDbEntity
  8
KETA_KANAGU
  6
HIDE-S
 62
     6
100
AcDbLine
 10
5723.867617374093
 20
3369.207445434732
 30
0.0
 11
5715.467617374095
 21
3285.628500717777
 31
0.0
  0
LINE
  5
2811B
330
27F29
100
AcDbEntity
  8
KETA_KANAGU
  6
HIDE-S
 62
     6
100
AcDbLine
 10
5790.114732946399
 20
3324.357922824681
 30
0.0
 11
5785.514732946403
 21
3278.588500717776
 31
0.0
  0
LINE
  5
2811C
330
27F29
100
AcDbEntity
  8
KETA_KANAGU
100
AcDbLine
 10
5736.503957825348
 20
3367.937445434733
 30
0.0
 11
5728.103957825346
 21
3284.358500717778
 31
0.0
  0
LINE
  5
2811D
330
27F29
100
AcDbEntity
  8
KETA_KANAGU
  6
HIDE-S
 62
     6
100
AcDbLine
 10
5792.403204051744
 20
3324.12792282468
 30
0.0
 11
5787.803204051741
 21
3278.358500717775
 31
0.0
  0
LINE
  5
2811E
330
27F29
100
AcDbEntity
  8
KETA_KANAGU
100
AcDbLine
 10
5721.579146268748
 20
3369.437445434732
 30
0.0
 11
5713.179146268746
 21
3285.858500717778
 31
0.0
  0
LINE
  5
2811F
330
27F29
100
AcDbEntity
  8
KETA_KANAGU
  6
HIDE-S
 62
     6
100
AcDbLine
 10
5713.179146268746
 20
3285.858500717778
 30
0.0
 11
5787.803204051741
 21
3278.358500717775
 31
0.0
  0
LINE
  5
28120
330
27F29
100
AcDbEntity
  8
KETA_KANAGU
  6
HIDE-S
 62
     6
100
AcDbLine
 10
5734.303957825346
 20
3346.047721818386
 30
0.0
 11
5780.073379932254
 21
3341.447721818386
 31
0.0
  0
LINE
  5
28121
330
27F29
100
AcDbEntity
  8
KETA_KANAGU
  6
1PL-S
 62
     6
100
AcDbLine
 10
5725.084033202707
 20
3314.310630112422
 30
0.0
 11
5781.798317117782
 21
3308.610630112422
 31
0.0
  0
LINE
  5
28122
330
27F29
100
AcDbEntity
  8
KETA_KANAGU
  6
HIDE-S
 62
     6
100
AcDbLine
 10
5784.548317117783
 20
3335.972784632855
 30
0.0
 11
5783.448317117784
 21
3325.027922824681
 31
0.0
  0
LINE
  5
28123
330
27F29
100
AcDbEntity
  8
KETA_KANAGU
  6
HIDE-S
 62
     6
100
AcDbLine
 10
5783.448317117784
 20
3325.027922824681
 30
0.0
 11
5792.403204051744
 21
3324.12792282468
 31
0.0
  0
CIRCLE
  5
28124
330
27F29
100
AcDbEntity
  8
KETA_KANAGU
100
AcDbCircle
 10
5770.853455309611
 20
3309.710630112423
 30
0.0
 40
5.999999999999999
  0
LINE
  5
28125
330
27F29
100
AcDbEntity
  8
KETA_KANAGU
  6
1PL-S
 62
     6
100
AcDbLine
 10
5771.953455309612
 20
3320.655491920595
 30
0.0
 11
5769.753455309611
 21
3298.765768304248
 31
0.0
  0
ARC
  5
28126
330
27F29
100
AcDbEntity
  8
KETA_KANAGU
  6
HIDE-S
 62
     6
100
AcDbCircle
 10
5779.573379932253
 20
3336.472784632855
 30
0.0
 40
4.999999999999999
100
AcDbArc
 50
354.2608295227396
 51
84.26082952271237
  0
ARC
  5
28127
330
27F29
100
AcDbEntity
  8
KETA_KANAGU
  6
HIDE-S
 62
     6
100
AcDbCircle
 10
5736.028895010878
 20
3313.210630112421
 30
0.0
 40
5.999999999999999
100
AcDbArc
 50
140.7035197607907
 51
207.8181392846492
  0
LINE
  5
28128
330
27F29
100
AcDbEntity
  8
KETA_KANAGU
  6
1PL-S
 62
     6
100
AcDbLine
 10
5737.128895010878
 20
3324.155491920595
 30
0.0
 11
5734.928895010881
 21
3302.265768304248
 31
0.0
  0
ARC
  5
28129
330
27F29
100
AcDbEntity
  8
KETA_KANAGU
100
AcDbCircle
 10
5736.028895010878
 20
3313.210630112421
 30
0.0
 40
5.999999999999999
100
AcDbArc
 50
207.8181392846492
 51
140.7035197607907
  0
LINE
  5
2812A
330
27F29
100
AcDbEntity
  8
KETA_KANAGU
  6
HIDE-S
 62
     6
100
AcDbLine
 10
5719.37914626875
 20
3347.547721818386
 30
0.0
 11
5734.303957825346
 21
3346.047721818386
 31
0.0
  0
LINE
  5
2812B
330
27F29
100
AcDbEntity
  8
KETA_KANAGU
100
AcDbLine
 10
5721.579146268748
 20
3369.437445434732
 30
0.0
 11
5736.503957825348
 21
3367.937445434733
 31
0.0
  0
LINE
  5
2812C
330
27F29
100
AcDbEntity
  8
KETA_KANAGU
  6
HIDE-S
 62
     6
100
AcDbLine
 10
5718.979146268749
 20
3343.567772069961
 30
0.0
 11
5721.26761737409
 21
3343.33777206996
 31
0.0
  0
LINE
  5
2812D
330
27F29
100
AcDbEntity
  8
KETA_KANAGU
  6
HIDE-S
 62
     6
100
AcDbLine
 10
5720.179146268746
 20
3355.507621315239
 30
0.0
 11
5722.467617374094
 21
3355.27762131524
 31
0.0
  0
LINE
  5
2812E
330
27F29
100
AcDbEntity
  8
KETA_KANAGU
  6
1PL-S
 62
     6
100
AcDbLine
 10
5714.604209083216
 20
3350.037696692599
 30
0.0
 11
5726.842554559624
 21
3348.807696692599
 31
0.0
  0
LINE
  5
2812F
330
27F29
100
AcDbEntity
  8
KETA_KANAGU
  6
1PL-S
 62
     6
100
AcDbLine
 10
5709.604209083217
 20
3300.288324837268
 30
0.0
 11
5721.842554559625
 21
3299.05832483727
 31
0.0
  0
LINE
  5
28130
330
27F29
100
AcDbEntity
  8
KETA_KANAGU
  6
HIDE-S
 62
     6
100
AcDbLine
 10
5715.179146268746
 20
3305.758249459908
 30
0.0
 11
5717.467617374095
 21
3305.528249459907
 31
0.0
  0
LINE
  5
28131
330
27F29
100
AcDbEntity
  8
KETA_KANAGU
  6
HIDE-S
 62
     6
100
AcDbLine
 10
5713.979146268749
 20
3293.818400214629
 30
0.0
 11
5716.26761737409
 21
3293.588400214629
 31
0.0
  0
LINE
  5
28132
330
27F29
100
AcDbEntity
  8
KETA
100
AcDbLine
 10
7035.744442645706
 20
3149.217047200484
 30
0.0
 11
7036.76444264571
 21
3159.365919058973
 31
0.0
  0
LINE
  5
28133
330
27F29
100
AcDbEntity
  8
KETA
100
AcDbLine
 10
7114.231558218016
 20
3226.153986892283
 30
0.0
 11
7105.791558218013
 21
3142.177047200484
 31
0.0
  0
LINE
  5
28134
330
27F29
100
AcDbEntity
  8
KETA
100
AcDbLine
 10
7033.455971540367
 20
3149.447047200484
 30
0.0
 11
7034.475971540363
 21
3159.595919058972
 31
0.0
  0
LINE
  5
28135
330
27F29
100
AcDbEntity
  8
KETA
100
AcDbLine
 10
7116.520029323364
 20
3225.923986892284
 30
0.0
 11
7108.080029323362
 21
3141.947047200484
 31
0.0
  0
LINE
  5
28136
330
27F29
100
AcDbEntity
  8
KETA
100
AcDbLine
 10
7099.769127313926
 20
3137.254616296397
 30
0.0
 11
7040.666873549795
 21
3143.194616296398
 31
0.0
  0
LINE
  5
28137
330
27F29
100
AcDbEntity
  8
KETA
100
AcDbLine
 10
7099.539127313929
 20
3134.966145191053
 30
0.0
 11
7040.436873549798
 21
3140.906145191053
 31
0.0
  0
ARC
  5
28138
330
27F29
100
AcDbEntity
  8
KETA
100
AcDbCircle
 10
7041.216873549797
 20
3148.667047200484
 30
0.0
 40
7.799999999999999
100
AcDbArc
 50
174.2608295227396
 51
264.2608295227124
  0
ARC
  5
28139
330
27F29
100
AcDbEntity
  8
KETA
100
AcDbCircle
 10
7041.216873549797
 20
3148.667047200484
 30
0.0
 40
5.5
100
AcDbArc
 50
174.2608295227396
 51
264.2608295227124
  0
LINE
  5
2813A
330
27F29
100
AcDbEntity
  8
KETA
  6
1PL-S
 62
     6
100
AcDbLine
 10
7068.740506713306
 20
3130.523739412753
 30
0.0
 11
7070.400506713311
 21
3147.040530868723
 31
0.0
  0
ARC
  5
2813B
330
27F29
100
AcDbEntity
  8
KETA
100
AcDbCircle
 10
7100.319127313929
 20
3142.727047200484
 30
0.0
 40
7.799999999999999
100
AcDbArc
 50
264.2608295227124
 51
354.2608295227396
  0
ARC
  5
2813C
330
27F29
100
AcDbEntity
  8
KETA
100
AcDbCircle
 10
7100.319127313929
 20
3142.727047200484
 30
0.0
 40
5.5
100
AcDbArc
 50
264.2608295227124
 51
354.2608295227396
  0
LINE
  5
2813D
330
27F29
100
AcDbEntity
  8
KETA
100
AcDbLine
 10
7106.011558218014
 20
3144.366019562119
 30
0.0
 11
7108.300029323363
 21
3144.136019562119
 31
0.0
  0
LINE
  5
2813E
330
27F29
100
AcDbEntity
  8
KETA
100
AcDbLine
 10
7106.811558218017
 20
3152.325919058973
 30
0.0
 11
7109.100029323359
 21
3152.095919058973
 31
0.0
  0
LINE
  5
2813F
330
27F29
100
AcDbEntity
  8
KETA
100
AcDbLine
 10
7050.206873549796
 20
3238.116417796371
 30
0.0
 11
7109.309127313927
 21
3232.17641779637
 31
0.0
  0
LINE
  5
28140
330
27F29
100
AcDbEntity
  8
KETA
100
AcDbLine
 10
7050.436873549799
 20
3240.404888901716
 30
0.0
 11
7109.539127313929
 21
3234.464888901715
 31
0.0
  0
LINE
  5
28141
330
27F29
100
AcDbEntity
  8
KETA
100
AcDbLine
 10
7043.164442645711
 20
3223.045115033795
 30
0.0
 11
7044.184442645709
 21
3233.193986892283
 31
0.0
  0
LINE
  5
28142
330
27F29
100
AcDbEntity
  8
KETA
100
AcDbLine
 10
7040.875971540365
 20
3223.275115033796
 30
0.0
 11
7041.895971540369
 21
3233.423986892283
 31
0.0
  0
LINE
  5
28143
330
27F29
100
AcDbEntity
  8
KETA
100
AcDbLine
 10
7034.475971540363
 20
3159.595919058972
 30
0.0
 11
7036.76444264571
 21
3159.365919058973
 31
0.0
  0
LINE
  5
28144
330
27F29
100
AcDbEntity
  8
KETA
100
AcDbLine
 10
7040.875971540365
 20
3223.275115033796
 30
0.0
 11
7043.164442645711
 21
3223.045115033795
 31
0.0
  0
ARC
  5
28145
330
27F29
100
AcDbEntity
  8
KETA
100
AcDbCircle
 10
7049.656873549792
 20
3232.643986892284
 30
0.0
 40
7.799999999999999
100
AcDbArc
 50
84.26082952271237
 51
174.2608295227396
  0
ARC
  5
28146
330
27F29
100
AcDbEntity
  8
KETA
100
AcDbCircle
 10
7049.656873549792
 20
3232.643986892284
 30
0.0
 40
5.5
100
AcDbArc
 50
84.26082952271237
 51
174.2608295227396
  0
LINE
  5
28147
330
27F29
100
AcDbEntity
  8
KETA
  6
1PL-S
 62
     6
100
AcDbLine
 10
7117.312435101658
 20
3158.808324837272
 30
0.0
 11
7100.795643645686
 21
3160.468324837271
 31
0.0
  0
LINE
  5
28148
330
27F29
100
AcDbEntity
  8
KETA
100
AcDbLine
 10
7109.111558218012
 20
3175.210630112423
 30
0.0
 11
7111.400029323362
 21
3174.980630112425
 31
0.0
  0
LINE
  5
28149
330
27F29
100
AcDbEntity
  8
KETA
  6
1PL-S
 62
     6
100
AcDbLine
 10
7122.312435101658
 20
3208.557696692603
 30
0.0
 11
7105.795643645689
 21
3210.217696692602
 31
0.0
  0
LINE
  5
2814A
330
27F29
100
AcDbEntity
  8
KETA
  6
1PL-S
 62
     6
100
AcDbLine
 10
7081.067975306074
 20
3228.180503224045
 30
0.0
 11
7082.727975306077
 21
3244.697294680015
 31
0.0
  0
ARC
  5
2814B
330
27F29
100
AcDbEntity
  8
KETA
100
AcDbCircle
 10
7108.759127313923
 20
3226.703986892283
 30
0.0
 40
7.799999999999999
100
AcDbArc
 50
354.2608295227396
 51
84.26082952271237
  0
ARC
  5
2814C
330
27F29
100
AcDbEntity
  8
KETA
100
AcDbCircle
 10
7108.759127313934
 20
3226.703986892283
 30
0.0
 40
5.5
100
AcDbArc
 50
354.2608295227396
 51
84.26082952271237
  0
LINE
  5
2814D
330
27F29
100
AcDbEntity
  8
KETA
100
AcDbLine
 10
5782.856261841057
 20
3275.13704720048
 30
0.0
 11
5783.876261841054
 21
3285.285919058969
 31
0.0
  0
LINE
  5
2814E
330
27F29
100
AcDbEntity
  8
KETA
100
AcDbLine
 10
5721.249146268746
 20
3366.15398689228
 30
0.0
 11
5712.80914626875
 21
3282.17704720048
 31
0.0
  0
LINE
  5
2814F
330
27F29
100
AcDbEntity
  8
KETA
100
AcDbLine
 10
5785.144732946398
 20
3274.907047200479
 30
0.0
 11
5786.164732946402
 21
3285.055919058969
 31
0.0
  0
LINE
  5
28150
330
27F29
100
AcDbEntity
  8
KETA
100
AcDbLine
 10
5718.960675163405
 20
3366.38398689228
 30
0.0
 11
5710.520675163402
 21
3282.40704720048
 31
0.0
  0
LINE
  5
28151
330
27F29
100
AcDbEntity
  8
KETA
100
AcDbLine
 10
5717.731577172834
 20
3276.154616296393
 30
0.0
 11
5776.833830936971
 21
3270.214616296394
 31
0.0
  0
LINE
  5
28152
330
27F29
100
AcDbEntity
  8
KETA
100
AcDbLine
 10
5717.501577172835
 20
3273.866145191049
 30
0.0
 11
5776.603830936966
 21
3267.926145191051
 31
0.0
  0
ARC
  5
28153
330
27F29
100
AcDbEntity
  8
KETA
100
AcDbCircle
 10
5777.383830936966
 20
3275.687047200481
 30
0.0
 40
7.799999999999999
100
AcDbArc
 50
264.2608295227124
 51
354.2608295227396
  0
ARC
  5
28154
330
27F29
100
AcDbEntity
  8
KETA
100
AcDbCircle
 10
5777.383830936966
 20
3275.687047200481
 30
0.0
 40
5.5
100
AcDbArc
 50
264.2608295227124
 51
354.2608295227396
  0
LINE
  5
28155
330
27F29
100
AcDbEntity
  8
KETA
  6
1PL-S
 62
     6
100
AcDbLine
 10
5746.800197773453
 20
3263.383739412751
 30
0.0
 11
5748.460197773455
 21
3279.90053086872
 31
0.0
  0
ARC
  5
28156
330
27F29
100
AcDbEntity
  8
KETA
100
AcDbCircle
 10
5718.281577172835
 20
3281.627047200481
 30
0.0
 40
7.799999999999999
100
AcDbArc
 50
174.2608295227396
 51
264.2608295227124
  0
ARC
  5
28157
330
27F29
100
AcDbEntity
  8
KETA
100
AcDbCircle
 10
5718.281577172835
 20
3281.627047200481
 30
0.0
 40
5.5
100
AcDbArc
 50
174.2608295227396
 51
264.2608295227124
  0
LINE
  5
28158
330
27F29
100
AcDbEntity
  8
KETA
100
AcDbLine
 10
5713.029146268747
 20
3284.366019562117
 30
0.0
 11
5710.740675163402
 21
3284.596019562116
 31
0.0
  0
LINE
  5
28159
330
27F29
100
AcDbEntity
  8
KETA
100
AcDbLine
 10
5713.829146268746
 20
3292.325919058971
 30
0.0
 11
5711.540675163405
 21
3292.555919058969
 31
0.0
  0
LINE
  5
2815A
330
27F29
100
AcDbEntity
  8
KETA
100
AcDbLine
 10
5786.37383093697
 20
3365.136417796367
 30
0.0
 11
5727.271577172832
 21
3371.07641779637
 31
0.0
  0
LINE
  5
2815B
330
27F29
100
AcDbEntity
  8
KETA
100
AcDbLine
 10
5786.603830936968
 20
3367.424888901711
 30
0.0
 11
5727.501577172835
 21
3373.364888901714
 31
0.0
  0
LINE
  5
2815C
330
27F29
100
AcDbEntity
  8
KETA
100
AcDbLine
 10
5790.276261841054
 20
3348.965115033794
 30
0.0
 11
5791.296261841056
 21
3359.113986892281
 31
0.0
  0
LINE
  5
2815D
330
27F29
100
AcDbEntity
  8
KETA
100
AcDbLine
 10
5792.5647329464
 20
3348.735115033792
 30
0.0
 11
5793.5847329464
 21
3358.883986892277
 31
0.0
  0
LINE
  5
2815E
330
27F29
100
AcDbEntity
  8
KETA
100
AcDbLine
 10
5786.164732946402
 20
3285.055919058969
 30
0.0
 11
5783.876261841054
 21
3285.285919058969
 31
0.0
  0
LINE
  5
2815F
330
27F29
100
AcDbEntity
  8
KETA
100
AcDbLine
 10
5792.5647329464
 20
3348.735115033792
 30
0.0
 11
5790.276261841054
 21
3348.965115033794
 31
0.0
  0
ARC
  5
28160
330
27F29
100
AcDbEntity
  8
KETA
100
AcDbCircle
 10
5785.823830936969
 20
3359.66398689228
 30
0.0
 40
7.799999999999999
100
AcDbArc
 50
354.2608295227396
 51
84.26082952271237
  0
ARC
  5
28161
330
27F29
100
AcDbEntity
  8
KETA
100
AcDbCircle
 10
5785.823830936969
 20
3359.66398689228
 30
0.0
 40
5.5
100
AcDbArc
 50
354.2608295227396
 51
84.26082952271237
  0
LINE
  5
28162
330
27F29
100
AcDbEntity
  8
KETA
  6
1PL-S
 62
     6
100
AcDbLine
 10
5704.828269385107
 20
3300.76832483727
 30
0.0
 11
5721.345060841073
 21
3299.10832483727
 31
0.0
  0
LINE
  5
28163
330
27F29
100
AcDbEntity
  8
KETA
100
AcDbLine
 10
5716.129146268752
 20
3315.210630112421
 30
0.0
 11
5713.840675163402
 21
3315.440630112421
 31
0.0
  0
LINE
  5
28164
330
27F29
100
AcDbEntity
  8
KETA
  6
1PL-S
 62
     6
100
AcDbLine
 10
5709.828269385106
 20
3350.517696692598
 30
0.0
 11
5726.345060841074
 21
3348.857696692598
 31
0.0
  0
LINE
  5
28165
330
27F29
100
AcDbEntity
  8
KETA
  6
1PL-S
 62
     6
100
AcDbLine
 10
5754.152729180688
 20
3361.540503224043
 30
0.0
 11
5755.812729180687
 21
3378.057294680012
 31
0.0
  0
ARC
  5
28166
330
27F29
100
AcDbEntity
  8
KETA
100
AcDbCircle
 10
5726.721577172836
 20
3365.603986892281
 30
0.0
 40
7.799999999999999
100
AcDbArc
 50
84.26082952271237
 51
174.2608295227396
  0
ARC
  5
28167
330
27F29
100
AcDbEntity
  8
KETA
100
AcDbCircle
 10
5726.721577172836
 20
3365.603986892281
 30
0.0
 40
5.5
100
AcDbArc
 50
84.26082952271237
 51
174.2608295227396
  0
LINE
  5
28168
330
27F29
100
AcDbEntity
  8
YANEUKE-FUREME
  6
Continuous
100
AcDbLine
 10
5742.206611022374
 20
3437.696215938776
 30
0.0
 11
5735.930354374529
 21
3375.210628780692
 31
0.0
  0
LINE
  5
28169
330
27F29
100
AcDbEntity
  8
YANEUKE-FUREME
  6
Continuous
100
AcDbLine
 10
5738.261902760626
 20
3382.413675505745
 30
0.0
 11
5737.522343856263
 21
3375.050724152723
 31
0.0
  0
LINE
  5
2816A
330
27F29
100
AcDbEntity
  8
BOLT
  6
Continuous
100
AcDbLine
 10
5752.748761876492
 20
3377.554074667231
 30
0.0
 11
5758.624002552761
 21
3436.04719946283
 31
0.0
  0
LINE
  5
2816B
330
27F29
100
AcDbEntity
  8
BOLT
  6
Continuous
100
AcDbLine
 10
5764.593963109269
 20
3435.447557107941
 30
0.0
 11
5758.718722433
 21
3376.95443231234
 31
0.0
  0
LINE
  5
2816C
330
27F29
100
AcDbEntity
  8
YANEUKE-FUREME
  6
Continuous
100
AcDbLine
 10
5742.832697822391
 20
3367.884125185677
 30
0.0
 11
5760.643080149296
 21
3366.095192160258
 31
0.0
  0
LINE
  5
2816D
330
27F29
100
AcDbEntity
  8
YANEUKE-FUREME
  6
Continuous
100
AcDbLine
 10
5742.992602450361
 20
3369.476114667416
 30
0.0
 11
5760.802984777266
 21
3367.687181641993
 31
0.0
  0
LINE
  5
2816E
330
27F29
100
AcDbEntity
  8
YANEUKE-FUREME
  6
Continuous
100
AcDbLine
 10
5737.362439228293
 20
3373.458734670988
 30
0.0
 11
5745.720384007397
 21
3372.619235374144
 31
0.0
  0
LINE
  5
2816F
330
27F29
100
AcDbEntity
  8
YANEUKE-FUREME
  6
Continuous
100
AcDbLine
 10
5737.522343856263
 20
3375.050724152723
 30
0.0
 11
5745.880288635369
 21
3374.211224855877
 31
0.0
  0
ARC
  5
28170
330
27F29
100
AcDbEntity
  8
YANEUKE-FUREME
  6
Continuous
100
AcDbCircle
 10
5737.522343856263
 20
3375.050724152723
 30
0.0
 40
1.6
100
AcDbArc
 50
174.2642619770784
 51
264.2642619770798
  0
LINE
  5
28171
330
27F29
100
AcDbEntity
  8
YANEUKE-FUREME
  6
Continuous
100
AcDbLine
 10
5743.332399784797
 20
3372.8590923161
 30
0.0
 11
5743.15250707833
 21
3371.068104149147
 31
0.0
  0
LINE
  5
28172
330
27F29
100
AcDbEntity
  8
YANEUKE-FUREME
  6
Continuous
100
AcDbLine
 10
5741.740410303063
 20
3373.018996944069
 30
0.0
 11
5741.560517596596
 21
3371.228008777119
 31
0.0
  0
LINE
  5
28173
330
27F29
100
AcDbEntity
  8
YANEUKE-FUREME
  6
Continuous
100
AcDbLine
 10
5741.560517596596
 20
3371.228008777119
 30
0.0
 11
5741.400612968623
 21
3369.636019295383
 31
0.0
  0
LINE
  5
28174
330
27F29
100
AcDbEntity
  8
YANEUKE-FUREME
  6
Continuous
100
AcDbLine
 10
5743.15250707833
 20
3371.068104149147
 30
0.0
 11
5742.992602450361
 21
3369.476114667416
 31
0.0
  0
ARC
  5
28175
330
27F29
100
AcDbEntity
  8
YANEUKE-FUREME
  6
Continuous
100
AcDbCircle
 10
5742.992602450361
 20
3369.476114667416
 30
0.0
 40
1.6
100
AcDbArc
 50
174.2642619770784
 51
264.2642619770798
  0
LINE
  5
28176
330
27F29
100
AcDbEntity
  8
YANEUKE-FUREME
  6
Continuous
100
AcDbLine
 10
5745.880288635369
 20
3374.211224855877
 30
0.0
 11
5745.720384007397
 21
3372.619235374144
 31
0.0
  0
LINE
  5
28177
330
27F29
100
AcDbEntity
  8
BOLT
  6
Continuous
100
AcDbLine
 10
5751.848043942509
 20
3368.586645174325
 30
0.0
 11
5752.027936648977
 21
3370.377633341277
 31
0.0
  0
LINE
  5
28178
330
27F29
100
AcDbEntity
  8
BOLT
  6
Continuous
100
AcDbLine
 10
5757.65809987104
 20
3366.3950133377
 30
0.0
 11
5756.929789407578
 21
3359.144049985431
 31
0.0
  0
LINE
  5
28179
330
27F29
100
AcDbEntity
  8
BOLT
  6
KAKURE-1
100
AcDbLine
 10
5751.407355367875
 20
3359.19622543104
 30
0.0
 11
5756.382322498295
 21
3358.696523468631
 31
0.0
  0
LINE
  5
2817A
330
27F29
100
AcDbEntity
  8
BOLT
  6
KAKURE-1
100
AcDbLine
 10
5750.959828851074
 20
3359.743692340323
 30
0.0
 11
5751.407355367875
 21
3359.196225431037
 31
0.0
  0
LINE
  5
2817B
330
27F29
100
AcDbEntity
  8
BOLT
  6
KAKURE-1
100
AcDbLine
 10
5756.929789407578
 20
3359.14404998543
 30
0.0
 11
5756.382322498298
 21
3358.69652346863
 31
0.0
  0
LINE
  5
2817C
330
27F29
100
AcDbEntity
  8
BOLT
  6
Continuous
100
AcDbLine
 10
5757.997897205482
 20
3369.777990986388
 30
0.0
 11
5757.818004499014
 21
3367.987002819437
 31
0.0
  0
LINE
  5
2817D
330
27F29
100
AcDbEntity
  8
BOLT
  6
Continuous
100
AcDbLine
 10
5750.959828851074
 20
3359.743692340323
 30
0.0
 11
5751.688139314539
 21
3366.994655692592
 31
0.0
  0
LINE
  5
2817E
330
27F29
100
AcDbEntity
  8
YANEUKE-FUREME
  6
Continuous
100
AcDbLine
 10
5760.802984777266
 20
3367.687181641993
 30
0.0
 11
5760.643080149296
 21
3366.095192160258
 31
0.0
  0
ARC
  5
2817F
330
27F29
100
AcDbEntity
  8
BOLT
  6
Continuous
100
AcDbCircle
 10
5751.212021895639
 20
3375.328529559784
 30
0.0
 40
2.367985148190903
100
AcDbArc
 50
46.70819553224974
 51
121.8203284219297
  0
LINE
  5
28180
330
27F29
100
AcDbEntity
  8
BOLT
  6
Continuous
100
AcDbLine
 10
5749.804903789383
 20
3375.761811903866
 30
0.0
 11
5749.963484434137
 21
3377.340619982523
 31
0.0
  0
LINE
  5
28181
330
27F29
100
AcDbEntity
  8
BOLT
  6
Continuous
100
AcDbLine
 10
5752.835783046094
 20
3377.052116920012
 30
0.0
 11
5752.662777248213
 21
3375.329693910759
 31
0.0
  0
LINE
  5
28182
330
27F29
100
AcDbEntity
  8
BOLT
  6
Continuous
100
AcDbLine
 10
5761.405908834102
 20
3376.191305468984
 30
0.0
 11
5761.189862463673
 21
3374.040376170329
 31
0.0
  0
LINE
  5
28183
330
27F29
100
AcDbEntity
  8
BOLT
  6
Continuous
100
AcDbLine
 10
5758.533610222148
 20
3376.479808531495
 30
0.0
 11
5758.33198900484
 21
3374.472494163438
 31
0.0
  0
LINE
  5
28184
330
27F29
100
AcDbEntity
  8
BOLT
  6
Continuous
100
AcDbLine
 10
5751.448679260741
 20
3377.684659215301
 30
0.0
 11
5760.018805048751
 21
3376.823847764271
 31
0.0
  0
ARC
  5
28185
330
27F29
100
AcDbEntity
  8
BOLT
  6
Continuous
100
AcDbCircle
 10
5754.874441601834
 20
3368.699170005021
 30
0.0
 40
8.598130661459229
100
AcDbArc
 50
64.81279441394973
 51
103.7157295402129
  0
ARC
  5
28186
330
27F29
100
AcDbEntity
  8
BOLT
  6
Continuous
100
AcDbCircle
 10
5759.78214768365
 20
3374.467718108757
 30
0.0
 40
2.367985148190903
100
AcDbArc
 50
46.70819553224974
 51
121.8203284219297
  0
LINE
  5
28187
330
27F29
100
AcDbEntity
  8
BOLT
  6
Continuous
100
AcDbLine
 10
5752.662777248213
 20
3375.329693910759
 30
0.0
 11
5752.323907967173
 21
3371.955955839832
 31
0.0
  0
LINE
  5
28188
330
27F29
100
AcDbEntity
  8
BOLT
  6
Continuous
100
AcDbLine
 10
5749.451609355215
 20
3372.244458902341
 30
0.0
 11
5749.804903789383
 21
3375.761811903866
 31
0.0
  0
LINE
  5
28189
330
27F29
100
AcDbEntity
  8
BOLT
  6
Continuous
100
AcDbLine
 10
5758.33198900484
 20
3374.472494163438
 30
0.0
 11
5758.021735143223
 21
3371.383647451313
 31
0.0
  0
LINE
  5
2818A
330
27F29
100
AcDbEntity
  8
BOLT
  6
Continuous
100
AcDbLine
 10
5761.189862463673
 20
3374.040376170329
 30
0.0
 11
5760.894033755182
 21
3371.095144388803
 31
0.0
  0
LINE
  5
2818B
330
27F29
100
AcDbEntity
  8
YANEUKE-FUREME
  6
Continuous
100
AcDbLine
 10
5767.73884801549
 20
3436.739725412229
 30
0.0
 11
5743.958505132082
 21
3439.12830079254
 31
0.0
  0
LINE
  5
2818C
330
27F29
100
AcDbEntity
  8
YANEUKE-FUREME
  6
Continuous
100
AcDbLine
 10
5767.578943387517
 20
3435.147735930496
 30
0.0
 11
5743.798600504108
 21
3437.536311310807
 31
0.0
  0
LINE
  5
2818D
330
27F29
100
AcDbEntity
  8
YANEUKE-FUREME
100
AcDbLine
 10
5746.619847539731
 20
3381.5741762089
 30
0.0
 11
5736.669913278891
 21
3382.573580133716
 31
0.0
  0
LINE
  5
2818E
330
27F29
100
AcDbEntity
  8
YANEUKE-FUREME
100
AcDbLine
 10
5745.946727784754
 20
3434.908470146248
 30
0.0
 11
5741.966754080418
 21
3435.308231716174
 31
0.0
  0
ARC
  5
2818F
330
27F29
100
AcDbEntity
  8
YANEUKE-FUREME
  6
Continuous
100
AcDbCircle
 10
5743.798600504108
 20
3437.536311310807
 30
0.0
 40
1.6
100
AcDbArc
 50
84.26426197707984
 51
174.2642619770784
  0
LINE
  5
28190
330
27F29
100
AcDbEntity
  8
YANEUKE-FUREME
  6
Continuous
100
AcDbLine
 10
5743.798600504108
 20
3437.536311310807
 30
0.0
 11
5743.558743562157
 21
3435.148327088203
 31
0.0
  0
LINE
  5
28191
330
27F29
100
AcDbEntity
  8
YANEUKE-FUREME
  6
HIDDEN
100
AcDbLine
 10
5743.558743562157
 20
3435.148327088203
 30
0.0
 11
5738.261902760626
 21
3382.413675505745
 31
0.0
  0
LINE
  5
28192
330
27F29
100
AcDbEntity
  8
YANEUKE-FUREME
100
AcDbLine
 10
5748.176571578878
 20
3437.096573583886
 30
0.0
 11
5745.946727784754
 21
3434.908470146248
 31
0.0
  0
LINE
  5
28193
330
27F29
100
AcDbEntity
  8
YANEUKE-FUREME
  6
Continuous
100
AcDbLine
 10
5767.73884801549
 20
3436.739725412229
 30
0.0
 11
5767.578943387517
 21
3435.147735930496
 31
0.0
  0
LINE
  5
28194
330
27F29
100
AcDbEntity
  8
BOLT
100
AcDbLine
 10
5760.180896576901
 20
3450.179102871528
 30
0.0
 11
5759.730240135118
 21
3445.692426505142
 31
0.0
  0
LINE
  5
28195
330
27F29
100
AcDbEntity
  8
BOLT
100
AcDbLine
 10
5765.878723752953
 20
3449.606794483013
 30
0.0
 11
5765.428067311169
 21
3445.120118116625
 31
0.0
  0
LINE
  5
28196
330
27F29
100
AcDbEntity
  8
BOLT
100
AcDbLine
 10
5768.751022364909
 20
3449.318291420502
 30
0.0
 11
5768.300365923128
 21
3444.831615054113
 31
0.0
  0
ARC
  5
28197
330
27F29
100
AcDbEntity
  8
BOLT
100
AcDbCircle
 10
5767.127261214455
 20
3447.594704060274
 30
0.0
 40
2.367985148190903
100
AcDbArc
 50
46.70819553224974
 51
121.8203284219297
  0
ARC
  5
28198
330
27F29
100
AcDbEntity
  8
BOLT
100
AcDbCircle
 10
5762.219555132634
 20
3441.826155956539
 30
0.0
 40
8.598130661459229
100
AcDbArc
 50
64.81279441394973
 51
103.7157295402129
  0
LINE
  5
28199
330
27F29
100
AcDbEntity
  8
BOLT
100
AcDbLine
 10
5760.093875407299
 20
3450.681060618748
 30
0.0
 11
5760.19470564476
 21
3451.684913224605
 31
0.0
  0
LINE
  5
2819A
330
27F29
100
AcDbEntity
  8
BOLT
100
AcDbLine
 10
5766.164666201263
 20
3451.085270869713
 30
0.0
 11
5766.063835963806
 21
3450.081418263859
 31
0.0
  0
LINE
  5
2819B
330
27F29
100
AcDbEntity
  8
BOLT
100
AcDbLine
 10
5758.793792791546
 20
3450.811645166817
 30
0.0
 11
5767.363918579557
 21
3449.950833715791
 31
0.0
  0
LINE
  5
2819C
330
27F29
100
AcDbEntity
  8
BOLT
100
AcDbLine
 10
5756.857941523161
 20
3445.980929567652
 30
0.0
 11
5757.308597964938
 21
3450.467605934039
 31
0.0
  0
LINE
  5
2819D
330
27F29
100
AcDbEntity
  8
BOLT
100
AcDbLine
 10
5768.300365923128
 20
3444.831615054113
 30
0.0
 11
5756.857941523161
 21
3445.980929567652
 31
0.0
  0
ARC
  5
2819E
330
27F29
100
AcDbEntity
  8
BOLT
100
AcDbCircle
 10
5758.557135426446
 20
3448.455515511301
 30
0.0
 40
2.367985148190903
100
AcDbArc
 50
46.70819553224974
 51
121.8203284219297
  0
LINE
  5
2819F
330
27F29
100
AcDbEntity
  8
BOLT
100
AcDbLine
 10
5763.698991435532
 20
3456.555229548683
 30
0.0
 11
5760.19470564476
 21
3451.684913224605
 31
0.0
  0
LINE
  5
281A0
330
27F29
100
AcDbEntity
  8
BOLT
100
AcDbLine
 10
5763.698991435532
 20
3456.555229548682
 30
0.0
 11
5766.164666201263
 21
3451.085270869716
 31
0.0
  0
LINE
  5
281A1
330
27F29
100
AcDbEntity
  8
YANEUKE-FUREME
100
AcDbLine
 10
5752.156545283213
 20
3436.69681201396
 30
0.0
 11
5746.619847539731
 21
3381.5741762089
 31
0.0
  0
LINE
  5
281A2
330
27F29
100
AcDbEntity
  8
YANEUKE-FUREME
  6
Continuous
100
AcDbLine
 10
7107.934044550551
 20
3300.435444335504
 30
0.0
 11
7101.650301220928
 21
3237.950609617252
 31
0.0
  0
LINE
  5
281A3
330
27F29
100
AcDbEntity
  8
YANEUKE-FUREME
  6
Continuous
100
AcDbLine
 10
7100.798772002621
 20
3245.473567678438
 30
0.0
 11
7100.058330909639
 21
3238.110704988707
 31
0.0
  0
LINE
  5
281A4
330
27F29
100
AcDbEntity
  8
BOLT
  6
Continuous
100
AcDbLine
 10
7085.634601712335
 20
3243.594007421378
 30
0.0
 11
7091.516850715342
 21
3302.086427853637
 31
0.0
  0
LINE
  5
281A5
330
27F29
100
AcDbEntity
  8
BOLT
  6
Continuous
100
AcDbLine
 10
7085.546962047992
 20
3302.686785496595
 30
0.0
 11
7079.664713044984
 21
3244.194365064334
 31
0.0
  0
LINE
  5
281A6
330
27F29
100
AcDbEntity
  8
YANEUKE-FUREME
  6
Continuous
100
AcDbLine
 10
7093.428048835034
 20
3232.144185097581
 30
0.0
 11
7075.617880977441
 21
3233.935252065736
 31
0.0
  0
LINE
  5
281A7
330
27F29
100
AcDbEntity
  8
YANEUKE-FUREME
  6
Continuous
100
AcDbLine
 10
7093.588144206492
 20
3233.736155408877
 30
0.0
 11
7075.777976348901
 21
3235.527222377029
 31
0.0
  0
LINE
  5
281A8
330
27F29
100
AcDbEntity
  8
YANEUKE-FUREME
  6
Continuous
100
AcDbLine
 10
7099.898235538181
 20
3236.518734677415
 30
0.0
 11
7091.540391403896
 21
3237.359235377555
 31
0.0
  0
LINE
  5
281A9
330
27F29
100
AcDbEntity
  8
YANEUKE-FUREME
  6
Continuous
100
AcDbLine
 10
7100.058330909639
 20
3238.110704988707
 30
0.0
 11
7091.700486775349
 21
3238.951205688847
 31
0.0
  0
ARC
  5
281AA
330
27F29
100
AcDbEntity
  8
YANEUKE-FUREME
  6
Continuous
100
AcDbCircle
 10
7100.058330909639
 20
3238.110704988707
 30
0.0
 40
1.599999999999999
100
AcDbArc
 50
264.2573970684186
 51
354.2573970683913
  0
LINE
  5
281AB
330
27F29
100
AcDbEntity
  8
YANEUKE-FUREME
  6
Continuous
100
AcDbLine
 10
7093.928346870829
 20
3237.119092320372
 30
0.0
 11
7093.748239577944
 21
3235.328125720168
 31
0.0
  0
LINE
  5
281AC
330
27F29
100
AcDbEntity
  8
YANEUKE-FUREME
  6
Continuous
100
AcDbLine
 10
7095.520317182125
 20
3236.958996948917
 30
0.0
 11
7095.34020988924
 21
3235.168030348712
 31
0.0
  0
LINE
  5
281AD
330
27F29
100
AcDbEntity
  8
YANEUKE-FUREME
  6
Continuous
100
AcDbLine
 10
7095.34020988924
 20
3235.168030348712
 30
0.0
 11
7095.180114517788
 21
3233.576060037417
 31
0.0
  0
LINE
  5
281AE
330
27F29
100
AcDbEntity
  8
YANEUKE-FUREME
  6
Continuous
100
AcDbLine
 10
7093.748239577944
 20
3235.328125720168
 30
0.0
 11
7093.588144206492
 21
3233.736155408877
 31
0.0
  0
ARC
  5
281AF
330
27F29
100
AcDbEntity
  8
YANEUKE-FUREME
  6
Continuous
100
AcDbCircle
 10
7093.588144206492
 20
3233.736155408877
 30
0.0
 40
1.599999999999999
100
AcDbArc
 50
264.2573970684186
 51
354.2573970683913
  0
LINE
  5
281B0
330
27F29
100
AcDbEntity
  8
YANEUKE-FUREME
  6
Continuous
100
AcDbLine
 10
7091.700486775349
 20
3238.951205688847
 30
0.0
 11
7091.540391403896
 21
3237.359235377555
 31
0.0
  0
LINE
  5
281B1
330
27F29
100
AcDbEntity
  8
BOLT
  6
Continuous
100
AcDbLine
 10
7084.732809349922
 20
3234.626685912592
 30
0.0
 11
7084.91291664281
 21
3236.417652512801
 31
0.0
  0
LINE
  5
281B2
330
27F29
100
AcDbEntity
  8
BOLT
  6
Continuous
100
AcDbLine
 10
7078.602825311121
 20
3233.635073244256
 30
0.0
 11
7077.873646076826
 21
3226.384197206741
 31
0.0
  0
LINE
  5
281B3
330
27F29
100
AcDbEntity
  8
BOLT
  6
KAKURE-1
100
AcDbLine
 10
7083.296014218323
 20
3225.336378645084
 30
0.0
 11
7078.321106995528
 21
3225.836676680883
 31
0.0
  0
LINE
  5
281B4
330
27F29
100
AcDbEntity
  8
BOLT
  6
KAKURE-1
100
AcDbLine
 10
7083.843534744175
 20
3225.783839563784
 30
0.0
 11
7083.296014218323
 21
3225.336378645084
 31
0.0
  0
LINE
  5
281B5
330
27F29
100
AcDbEntity
  8
BOLT
  6
KAKURE-1
100
AcDbLine
 10
7077.873646076826
 20
3226.384197206739
 30
0.0
 11
7078.321106995528
 21
3225.83667668088
 31
0.0
  0
LINE
  5
281B6
330
27F29
100
AcDbEntity
  8
BOLT
  6
Continuous
100
AcDbLine
 10
7078.943027975459
 20
3237.018010155756
 30
0.0
 11
7078.762920682573
 21
3235.227043555551
 31
0.0
  0
LINE
  5
281B7
330
27F29
100
AcDbEntity
  8
BOLT
  6
Continuous
100
AcDbLine
 10
7083.843534744175
 20
3225.783839563784
 30
0.0
 11
7084.57271397847
 21
3233.034715601301
 31
0.0
  0
LINE
  5
281B8
330
27F29
100
AcDbEntity
  8
YANEUKE-FUREME
  6
Continuous
100
AcDbLine
 10
7075.777976348901
 20
3235.527222377029
 30
0.0
 11
7075.617880977441
 21
3233.935252065736
 31
0.0
  0
ARC
  5
281B9
330
27F29
100
AcDbEntity
  8
BOLT
  6
Continuous
100
AcDbCircle
 10
7086.697729009042
 20
3241.107165821071
 30
0.0
 40
2.3679851481909
100
AcDbArc
 50
46.70133062349818
 51
121.8134635132155
  0
LINE
  5
281BA
330
27F29
100
AcDbEntity
  8
BOLT
  6
Continuous
100
AcDbLine
 10
7088.162926850992
 20
3241.251769550621
 30
0.0
 11
7088.321696659907
 21
3242.830558617564
 31
0.0
  0
LINE
  5
281BB
330
27F29
100
AcDbEntity
  8
BOLT
  6
Continuous
100
AcDbLine
 10
7085.449432635636
 20
3243.119405823206
 30
0.0
 11
7085.276220466447
 21
3241.39700355505
 31
0.0
  0
LINE
  5
281BC
330
27F29
100
AcDbEntity
  8
BOLT
  6
Continuous
100
AcDbLine
 10
7076.87941004749
 20
3243.981244099897
 30
0.0
 11
7076.663105964456
 21
3241.830340702335
 31
0.0
  0
LINE
  5
281BD
330
27F29
100
AcDbEntity
  8
BOLT
  6
Continuous
100
AcDbLine
 10
7079.751674071761
 20
3243.692396894255
 30
0.0
 11
7079.549812349019
 21
3241.685106697905
 31
0.0
  0
LINE
  5
281BE
330
27F29
100
AcDbEntity
  8
BOLT
  6
Continuous
100
AcDbLine
 10
7086.934668672736
 20
3243.463267104511
 30
0.0
 11
7078.364646084584
 21
3244.325105381202
 31
0.0
  0
ARC
  5
281BF
330
27F29
100
AcDbEntity
  8
BOLT
  6
Continuous
100
AcDbCircle
 10
7081.789331802362
 20
3235.339205776821
 30
0.0
 40
8.598130661459228
100
AcDbArc
 50
64.80592950519754
 51
103.7088646315127
  0
ARC
  5
281C0
330
27F29
100
AcDbEntity
  8
BOLT
  6
Continuous
100
AcDbCircle
 10
7078.127706420898
 20
3241.969004097761
 30
0.0
 40
2.3679851481909
100
AcDbArc
 50
46.70133062349818
 51
121.8134635132155
  0
LINE
  5
281C1
330
27F29
100
AcDbEntity
  8
BOLT
  6
Continuous
100
AcDbLine
 10
7085.276220466447
 20
3241.39700355505
 30
0.0
 11
7084.936946962532
 21
3238.023306110049
 31
0.0
  0
LINE
  5
281C2
330
27F29
100
AcDbEntity
  8
BOLT
  6
Continuous
100
AcDbLine
 10
7087.809210986801
 20
3237.734458904405
 30
0.0
 11
7088.162926850992
 21
3241.251769550621
 31
0.0
  0
LINE
  5
281C3
330
27F29
100
AcDbEntity
  8
BOLT
  6
Continuous
100
AcDbLine
 10
7079.549812349019
 20
3241.685106697905
 30
0.0
 11
7079.239188398656
 21
3238.596297181099
 31
0.0
  0
LINE
  5
281C4
330
27F29
100
AcDbEntity
  8
BOLT
  6
Continuous
100
AcDbLine
 10
7076.663105964456
 20
3241.830340702335
 30
0.0
 11
7076.366924374385
 21
3238.885144386741
 31
0.0
  0
LINE
  5
281C5
330
27F29
100
AcDbEntity
  8
YANEUKE-FUREME
  6
Continuous
100
AcDbLine
 10
7082.722113085772
 20
3304.578934629365
 30
0.0
 11
7106.502169610706
 21
3302.187510018256
 31
0.0
  0
LINE
  5
281C6
330
27F29
100
AcDbEntity
  8
YANEUKE-FUREME
  6
Continuous
100
AcDbLine
 10
7082.562017714313
 20
3302.986964318075
 30
0.0
 11
7106.342074239257
 21
3300.595539706963
 31
0.0
  0
LINE
  5
281C7
330
27F29
100
AcDbEntity
  8
YANEUKE-FUREME
100
AcDbLine
 10
7092.44092786833
 20
3246.31406837858
 30
0.0
 11
7102.390742313909
 21
3245.313472306984
 31
0.0
  0
LINE
  5
281C8
330
27F29
100
AcDbEntity
  8
YANEUKE-FUREME
100
AcDbLine
 10
7103.713975715129
 20
3298.447727297205
 30
0.0
 11
7107.693901493366
 21
3298.047488868565
 31
0.0
  0
ARC
  5
281C9
330
27F29
100
AcDbEntity
  8
YANEUKE-FUREME
  6
Continuous
100
AcDbCircle
 10
7106.342074239257
 20
3300.595539706963
 30
0.0
 40
1.599999999999999
100
AcDbArc
 50
354.2573970683913
 51
84.25739706841865
  0
LINE
  5
281CA
330
27F29
100
AcDbEntity
  8
YANEUKE-FUREME
  6
Continuous
100
AcDbLine
 10
7106.342074239257
 20
3300.595539706963
 30
0.0
 11
7106.10193118207
 21
3298.20758424002
 31
0.0
  0
LINE
  5
281CB
330
27F29
100
AcDbEntity
  8
YANEUKE-FUREME
  6
HIDDEN
100
AcDbLine
 10
7106.10193118207
 20
3298.20758424002
 30
0.0
 11
7100.798772002621
 21
3245.473567678438
 31
0.0
  0
LINE
  5
281CC
330
27F29
100
AcDbEntity
  8
YANEUKE-FUREME
100
AcDbLine
 10
7101.964155883201
 20
3301.035801978463
 30
0.0
 11
7103.713975715129
 21
3298.447727297205
 31
0.0
  0
LINE
  5
281CD
330
27F29
100
AcDbEntity
  8
YANEUKE-FUREME
  6
Continuous
100
AcDbLine
 10
7082.722113085772
 20
3304.578934629365
 30
0.0
 11
7082.562017714313
 21
3302.986964318075
 31
0.0
  0
LINE
  5
281CE
330
27F29
100
AcDbEntity
  8
BOLT
100
AcDbLine
 10
7092.803307842498
 20
3316.245511193145
 30
0.0
 11
7092.352113831656
 21
3311.758888854483
 31
0.0
  0
LINE
  5
281CF
330
27F29
100
AcDbEntity
  8
BOLT
100
AcDbLine
 10
7087.105549278617
 20
3316.818502264196
 30
0.0
 11
7086.654355267782
 21
3312.331879925532
 31
0.0
  0
LINE
  5
281D0
330
27F29
100
AcDbEntity
  8
BOLT
100
AcDbLine
 10
7084.233285254346
 20
3317.107349469838
 30
0.0
 11
7083.782091243512
 21
3312.620727131173
 31
0.0
  0
ARC
  5
281D1
330
27F29
100
AcDbEntity
  8
BOLT
100
AcDbCircle
 10
7085.481581627752
 20
3315.095109467705
 30
0.0
 40
2.3679851481909
100
AcDbArc
 50
46.70133062349818
 51
121.8134635132155
  0
ARC
  5
281D2
330
27F29
100
AcDbEntity
  8
BOLT
100
AcDbCircle
 10
7089.143207009226
 20
3308.46531114676
 30
0.0
 40
8.598130661459228
100
AcDbArc
 50
64.80592950519754
 51
103.7088646315127
  0
LINE
  5
281D3
330
27F29
100
AcDbEntity
  8
BOLT
100
AcDbLine
 10
7092.988476919193
 20
3316.720112791319
 30
0.0
 11
7093.089427432786
 21
3317.723953308969
 31
0.0
  0
LINE
  5
281D4
330
27F29
100
AcDbEntity
  8
BOLT
100
AcDbLine
 10
7087.119538765437
 20
3318.324310951924
 30
0.0
 11
7087.018588251841
 21
3317.320470434276
 31
0.0
  0
LINE
  5
281D5
330
27F29
100
AcDbEntity
  8
BOLT
100
AcDbLine
 10
7094.288543879592
 20
3316.589372474452
 30
0.0
 11
7085.71852129144
 21
3317.451210751145
 31
0.0
  0
LINE
  5
281D6
330
27F29
100
AcDbEntity
  8
BOLT
100
AcDbLine
 10
7095.224377855926
 20
3311.470041648838
 30
0.0
 11
7095.675571866769
 21
3315.956663987504
 31
0.0
  0
LINE
  5
281D7
330
27F29
100
AcDbEntity
  8
BOLT
100
AcDbLine
 10
7083.782091243512
 20
3312.620727131173
 30
0.0
 11
7095.224377855926
 21
3311.470041648838
 31
0.0
  0
ARC
  5
281D8
330
27F29
100
AcDbEntity
  8
BOLT
100
AcDbCircle
 10
7094.051604215906
 20
3314.233271191012
 30
0.0
 40
2.3679851481909
100
AcDbArc
 50
46.70133062349818
 51
121.8134635132155
  0
LINE
  5
281D9
330
27F29
100
AcDbEntity
  8
BOLT
100
AcDbLine
 10
7090.62440806927
 20
3323.194207374136
 30
0.0
 11
7093.089427432786
 21
3317.723953308969
 31
0.0
  0
LINE
  5
281DA
330
27F29
100
AcDbEntity
  8
BOLT
100
AcDbLine
 10
7090.62440806927
 20
3323.194207374135
 30
0.0
 11
7087.119538765437
 21
3318.324310951926
 31
0.0
  0
LINE
  5
281DB
330
27F29
100
AcDbEntity
  8
YANEUKE-FUREME
100
AcDbLine
 10
7097.984230104964
 20
3301.4360404071
 30
0.0
 11
7092.44092786833
 21
3246.31406837858
 31
0.0
  0
LINE
  5
281DC
330
27F29
100
AcDbEntity
  8
YANE
  6
1PL-S
 62
     6
100
AcDbLine
 10
5492.861686247982
 20
3453.715465387825
 30
0.0
 11
5494.860494097614
 21
3473.615333909509
 31
0.0
  0
LINE
  5
281DD
330
27F29
100
AcDbEntity
  8
YANE
  6
1PL-S
 62
     6
100
AcDbLine
 10
5761.509911290698
 20
3426.731559417778
 30
0.0
 11
5763.508719140328
 21
3446.631427939461
 31
0.0
  0
LINE
  5
281DE
330
27F29
100
AcDbEntity
  8
YANE
  6
1PL-S
 62
     6
100
AcDbLine
 10
7086.841154834742
 20
3293.610956632222
 30
0.0
 11
7088.839962684374
 21
3313.510825153905
 31
0.0
  0
LINE
  5
281DF
330
27F29
100
AcDbEntity
  8
YANE
  6
HIDE-L
 62
     6
100
AcDbLine
 10
5479.881212011378
 20
3464.567068430366
 30
0.0
 11
7425.093360005833
 21
3269.18360112874
 31
0.0
  0
LINE
  5
281E0
330
27F29
100
AcDbEntity
  8
BOLT
  6
1PL-S
 62
     6
100
AcDbLine
 10
5765.203191583029
 20
3471.470723317883
 30
0.0
 11
5752.394076702723
 21
3344.021639454145
 31
0.0
  0
LINE
  5
281E1
330
27F29
100
AcDbEntity
  8
BOLT
  6
1PL-S
 62
     6
100
AcDbLine
 10
7092.118437708426
 20
3338.110723317864
 30
0.0
 11
7079.309322828106
 21
3210.661639454148
 31
0.0
  0
LINE
  5
281E2
330
27F29
100
AcDbEntity
  8
鼻隠し
100
AcDbLine
 10
5418.9724685315
 20
3413.498634268911
 30
0.0
 11
5413.026015178846
 21
3354.296525416904
 31
0.0
  0
LINE
  5
281E3
330
27F29
100
AcDbEntity
  8
鼻隠し
100
AcDbLine
 10
5419.951243864534
 20
3413.237228671359
 30
0.0
 11
5414.021008604926
 21
3354.196585024423
 31
0.0
  0
LINE
  5
281E4
330
27F29
100
AcDbEntity
  8
鼻隠し
  6
1PL-S
 62
     6
100
AcDbLine
 10
5493.521292838353
 20
3460.282421999977
 30
0.0
 11
5494.620637155652
 21
3471.227349686901
 31
0.0
  0
LINE
  5
281E5
330
27F29
100
AcDbEntity
  8
鼻隠し
  6
1PL-S
 62
     6
100
AcDbLine
 10
5468.646457186252
 20
3462.780931812017
 30
0.0
 11
5469.745801503551
 21
3473.725859498944
 31
0.0
  0
LINE
  5
281E6
330
27F29
100
AcDbEntity
  8
鼻隠し
100
AcDbLine
 10
5508.548339871466
 20
3464.803246865497
 30
0.0
 11
5452.757418145279
 21
3470.407069431614
 31
0.0
  0
LINE
  5
281E7
330
27F29
100
AcDbEntity
  8
鼻隠し
100
AcDbLine
 10
5508.448399478984
 20
3463.808253439413
 30
0.0
 11
5452.657477752801
 21
3469.412076005529
 31
0.0
  0
LINE
  5
281E8
330
27F29
100
AcDbEntity
  8
鼻隠し
100
AcDbLine
 10
5441.622446930566
 20
3463.966161368968
 30
0.0
 11
5418.9724685315
 21
3413.498634268911
 31
0.0
  0
LINE
  5
281E9
330
27F29
100
AcDbEntity
  8
鼻隠し
100
AcDbLine
 10
5442.534776648513
 20
3463.556705039492
 30
0.0
 11
5419.951243864534
 21
3413.237228671359
 31
0.0
  0
ARC
  5
281EA
330
27F29
100
AcDbEntity
  8
鼻隠し
100
AcDbCircle
 10
5451.65807382798
 20
3459.462141744688
 30
0.0
 40
10.0
100
AcDbArc
 50
84.26426197707984
 51
155.8293131541628
  0
ARC
  5
281EB
330
27F29
100
AcDbEntity
  8
鼻隠し
100
AcDbCircle
 10
5451.65807382798
 20
3459.462141744688
 30
0.0
 40
11.0
100
AcDbArc
 50
84.26426197707984
 51
155.8293131541628
  0
LINE
  5
281EC
330
27F29
100
AcDbEntity
  8
鼻隠し
100
AcDbLine
 10
5508.348459086504
 20
3462.81326001333
 30
0.0
 11
5501.383505103913
 21
3463.512842760701
 31
0.0
  0
LINE
  5
281ED
330
27F29
100
AcDbEntity
  8
鼻隠し
100
AcDbLine
 10
5501.383505103913
 20
3463.512842760701
 30
0.0
 11
5501.483445496393
 21
3464.507836186785
 31
0.0
  0
ARC
  5
281EE
330
27F29
100
AcDbEntity
  8
鼻隠し
100
AcDbCircle
 10
5508.448399478984
 20
3463.808253439413
 30
0.0
 40
1.0
100
AcDbArc
 50
264.2642619770798
 51
84.26426197707984
  0
LINE
  5
281EF
330
27F29
100
AcDbEntity
  8
鼻隠し
100
AcDbLine
 10
5422.971538940953
 20
3343.247246838766
 30
0.0
 11
5474.711197097328
 21
3338.050346429719
 31
0.0
  0
LINE
  5
281F0
330
27F29
100
AcDbEntity
  8
鼻隠し
100
AcDbLine
 10
5422.871598548473
 20
3342.252253412681
 30
0.0
 11
5474.611256704843
 21
3337.055353003635
 31
0.0
  0
LINE
  5
281F1
330
27F29
100
AcDbEntity
  8
鼻隠し
  6
1PL-S
 62
     6
100
AcDbLine
 10
5430.829340707779
 20
3336.427792946165
 30
0.0
 11
5431.928685025078
 21
3347.37272063309
 31
0.0
  0
ARC
  5
281F2
330
27F29
100
AcDbEntity
  8
鼻隠し
100
AcDbCircle
 10
5423.970942865769
 20
3353.197181099607
 30
0.0
 40
10.0
100
AcDbArc
 50
174.2642619770655
 51
264.2642619770798
  0
ARC
  5
281F3
330
27F29
100
AcDbEntity
  8
鼻隠し
100
AcDbCircle
 10
5423.970942865769
 20
3353.197181099607
 30
0.0
 40
11.0
100
AcDbArc
 50
174.2642619770655
 51
264.2642619770798
  0
LINE
  5
281F4
330
27F29
100
AcDbEntity
  8
鼻隠し
  6
1PL-S
 62
     6
100
AcDbLine
 10
5464.161620481593
 20
3333.079789798031
 30
0.0
 11
5465.260964798893
 21
3344.024717484957
 31
0.0
  0
LINE
  5
281F5
330
27F29
100
AcDbEntity
  8
鼻隠し
100
AcDbLine
 10
5475.110958667253
 20
3342.030320134057
 30
0.0
 11
5475.810541414622
 21
3348.995274116644
 31
0.0
  0
LINE
  5
281F6
330
27F29
100
AcDbEntity
  8
鼻隠し
100
AcDbLine
 10
5475.80613091589
 20
3338.945399463321
 30
0.0
 11
5476.805534840706
 21
3348.895333724164
 31
0.0
  0
LINE
  5
281F7
330
27F29
100
AcDbEntity
  8
鼻隠し
100
AcDbLine
 10
5476.801124341974
 20
3338.845459070841
 30
0.0
 11
5477.800528266794
 21
3348.79539333168
 31
0.0
  0
ARC
  5
281F8
330
27F29
100
AcDbEntity
  8
鼻隠し
100
AcDbCircle
 10
5474.811137489806
 20
3339.045339855803
 30
0.0
 40
1.0
100
AcDbArc
 50
264.2642619770798
 51
354.2642619770656
  0
LINE
  5
281F9
330
27F29
100
AcDbEntity
  8
鼻隠し
100
AcDbLine
 10
5477.100945519421
 20
3341.830439349093
 30
0.0
 11
5476.105952093333
 21
3341.930379741574
 31
0.0
  0
LINE
  5
281FA
330
27F29
100
AcDbEntity
  8
鼻隠し
100
AcDbLine
 10
5472.621269852671
 20
3337.255233788599
 30
0.0
 11
5472.72121024516
 21
3338.250227214683
 31
0.0
  0
LINE
  5
281FB
330
27F29
100
AcDbEntity
  8
鼻隠し
100
AcDbLine
 10
5476.105952093333
 20
3341.930379741574
 30
0.0
 11
5475.110958667253
 21
3342.030320134057
 31
0.0
  0
ARC
  5
281FC
330
27F29
100
AcDbEntity
  8
鼻隠し
100
AcDbCircle
 10
5474.811137489806
 20
3339.045339855803
 30
0.0
 40
2.0
100
AcDbArc
 50
264.2642619770798
 51
354.2642619770656
  0
ARC
  5
281FD
330
27F29
100
AcDbEntity
  8
鼻隠し
100
AcDbCircle
 10
5476.805534840706
 20
3348.895333724164
 30
0.0
 40
1.0
100
AcDbArc
 50
354.2642619770656
 51
174.2642619770655
  0
LINE
  5
281FE
330
27F29
100
AcDbEntity
  8
KERABA
100
AcDbLine
 10
5440.084102719977
 20
3338.513309692085
 30
0.0
 11
5713.400457683564
 21
3311.060521492048
 31
0.0
  0
LINE
  5
281FF
330
27F29
100
AcDbEntity
  8
KERABA
100
AcDbLine
 10
7110.968226469196
 20
3170.684245960416
 30
0.0
 11
7413.156066644784
 21
3140.331511400965
 31
0.0
  0
LINE
  5
28200
330
27F29
100
AcDbEntity
  8
KERABA
100
AcDbLine
 10
7426.19828786364
 20
3270.17815350494
 30
0.0
 11
5453.126323938835
 21
3468.359951796062
 31
0.0
  0
LINE
  5
28201
330
27F29
100
AcDbEntity
  8
KERABA
100
AcDbLine
 10
5477.992338593477
 20
3445.761692677375
 30
0.0
 11
5459.087463497874
 21
3447.660560134526
 31
0.0
  0
LINE
  5
28202
330
27F29
100
AcDbEntity
  8
KERABA
  6
HIDE-L
 62
     6
100
AcDbLine
 10
7426.138323628149
 20
3269.581157449292
 30
0.0
 11
5453.066359703348
 21
3467.762955740413
 31
0.0
  0
LINE
  5
28203
330
27F29
100
AcDbEntity
  8
KERABA
  6
HIDE-L
 62
     6
100
AcDbLine
 10
5478.052302828967
 20
3446.358688733026
 30
0.0
 11
5459.744423789015
 21
3448.197591954688
 31
0.0
  0
LINE
  5
28204
330
27F29
100
AcDbEntity
  8
KERABA
  6
HIDE-L
 62
     6
100
AcDbLine
 10
5478.79186173333
 20
3453.72164008605
 30
0.0
 11
5467.846934046399
 21
3454.820984403347
 31
0.0
  0
LINE
  5
28205
330
27F29
100
AcDbEntity
  8
KERABA
  6
HIDE-L
 62
     6
100
AcDbLine
 10
5440.184043112458
 20
3339.508303118169
 30
0.0
 11
5713.500457683742
 21
3312.055508930941
 31
0.0
  0
LINE
  5
28206
330
27F29
100
AcDbEntity
  8
KERABA
  6
HIDE-L
 62
     6
100
AcDbLine
 10
7111.068226469375
 20
3171.679233399309
 30
0.0
 11
7413.25600703727
 21
3141.326504827049
 31
0.0
  0
LINE
  5
28207
330
27F29
100
AcDbEntity
  8
KERABA
100
AcDbLine
 10
5440.28398350494
 20
3340.503296544251
 30
0.0
 11
5713.600457683924
 21
3313.050496369831
 31
0.0
  0
LINE
  5
28208
330
27F29
100
AcDbEntity
  8
KERABA
100
AcDbLine
 10
7111.168226469555
 20
3172.6742208382
 30
0.0
 11
7413.355947429749
 21
3142.321498253132
 31
0.0
  0
LINE
  5
28209
330
27F29
100
AcDbEntity
  8
KERABA
100
AcDbLine
 10
7403.67233310326
 20
3206.008134320499
 30
0.0
 11
7397.356100298418
 21
3143.124549791973
 31
0.0
  0
LINE
  5
2820A
330
27F29
100
AcDbEntity
  8
KERABA
100
AcDbLine
 10
7413.275995115764
 20
3141.525503512265
 30
0.0
 11
7413.156066644784
 21
3140.331511400965
 31
0.0
  0
LINE
  5
2820B
330
27F29
100
AcDbEntity
  8
KERABA
  6
1PL-M
 62
     6
100
AcDbLine
 10
7388.279025743321
 20
3137.805083886344
 30
0.0
 11
7389.33839390362
 21
3148.352014202837
 31
0.0
  0
LINE
  5
2820C
330
27F29
100
AcDbEntity
  8
KERABA
  6
HIDE-L
 62
     6
100
AcDbLine
 10
7410.218428810811
 20
3271.180203729008
 30
0.0
 11
7410.278393046294
 21
3271.777199784648
 31
0.0
  0
LINE
  5
2820D
330
27F29
100
AcDbEntity
  8
KERABA
100
AcDbLine
 10
7426.19828786364
 20
3270.17815350494
 30
0.0
 11
7424.999003153861
 21
3258.238232391931
 31
0.0
  0
LINE
  5
2820E
330
27F29
100
AcDbEntity
  8
KERABA
  6
1PL-M
 62
     6
100
AcDbLine
 10
7087.34085679714
 20
3298.585923762634
 30
0.0
 11
7088.400224957455
 21
3309.132854079124
 31
0.0
  0
LINE
  5
2820F
330
27F29
100
AcDbEntity
  8
KERABA
  6
1PL-M
 62
     6
100
AcDbLine
 10
7391.873219913101
 20
3278.651034372219
 30
0.0
 11
7390.813851752797
 21
3268.10410405573
 31
0.0
  0
LINE
  5
28210
330
27F29
100
AcDbEntity
  8
KERABA
100
AcDbLine
 10
7423.904069335302
 20
3257.343179358334
 30
0.0
 11
7424.999003153861
 21
3258.238232391931
 31
0.0
  0
LINE
  5
28211
330
27F29
100
AcDbEntity
  8
KERABA
100
AcDbLine
 10
5467.047410906547
 20
3446.861036994675
 30
0.0
 11
5456.203878322288
 21
3338.904250264548
 31
0.0
  0
LINE
  5
28212
330
27F29
100
AcDbEntity
  8
KERABA
  6
1PL-M
 62
     6
100
AcDbLine
 10
5465.021107856936
 20
3341.636733262357
 30
0.0
 11
5463.961739696632
 21
3331.089802945864
 31
0.0
  0
LINE
  5
28213
330
27F29
100
AcDbEntity
  8
KERABA
  6
HIDE-L
 62
     6
100
AcDbLine
 10
5456.203878322288
 20
3338.904250264548
 30
0.0
 11
5456.003997537322
 21
3336.914263412379
 31
0.0
  0
LINE
  5
28214
330
27F29
100
AcDbEntity
  8
KERABA
100
AcDbLine
 10
5440.28398350494
 20
3340.503296544251
 30
0.0
 11
5440.084102719977
 21
3338.513309692085
 31
0.0
  0
LINE
  5
28215
330
27F29
100
AcDbEntity
  8
KERABA
  6
1PL-M
 62
     6
100
AcDbLine
 10
5762.009613253095
 20
3431.706526548198
 30
0.0
 11
5763.068981413401
 21
3442.253456864689
 31
0.0
  0
LINE
  5
28216
330
27F29
100
AcDbEntity
  8
KERABA
100
AcDbLine
 10
5453.126323938835
 20
3468.359951796062
 30
0.0
 11
5451.927039229055
 21
3456.420030683053
 31
0.0
  0
LINE
  5
28217
330
27F29
100
AcDbEntity
  8
KERABA
  6
HIDE-L
 62
     6
100
AcDbLine
 10
5467.047410906547
 20
3446.861036994675
 30
0.0
 11
5469.046218756178
 21
3466.760905516356
 31
0.0
  0
LINE
  5
28218
330
27F29
100
AcDbEntity
  8
KERABA
  6
1PL-M
 62
     6
100
AcDbLine
 10
5468.486552558284
 20
3461.188942330287
 30
0.0
 11
5469.545920718586
 21
3471.735872646779
 31
0.0
  0
LINE
  5
28219
330
27F29
100
AcDbEntity
  8
KERABA
  6
1PL-M
 62
     6
100
AcDbLine
 10
5482.416460523461
 20
3459.789776835545
 30
0.0
 11
5483.475828683767
 21
3470.336707152034
 31
0.0
  0
LINE
  5
2821A
330
27F29
100
AcDbEntity
  8
KERABA
  6
1PL-M
 62
     6
100
AcDbLine
 10
5489.445789240271
 20
3469.737064797143
 30
0.0
 11
5488.386421079965
 21
3459.190134480655
 31
0.0
  0
LINE
  5
2821B
330
27F29
100
AcDbEntity
  8
KERABA
  6
HIDE-L
 62
     6
100
AcDbLine
 10
5459.087463497874
 20
3447.660560134526
 30
0.0
 11
5467.846934046399
 21
3454.820984403347
 31
0.0
  0
LINE
  5
2821C
330
27F29
100
AcDbEntity
  8
KERABA
100
AcDbLine
 10
5459.087463497874
 20
3447.660560134526
 30
0.0
 11
5451.927039229055
 21
3456.420030683053
 31
0.0
  0
LINE
  5
2821D
330
27F29
100
AcDbEntity
  8
KISO
100
AcDbLine
 10
5016.67035224338
 20
1125.125919511106
 30
0.0
 11
6066.670352243383
 21
1125.125919511106
 31
0.0
  0
LINE
  5
2821E
330
27F29
100
AcDbEntity
  8
KISO
100
AcDbLine
 10
5016.67035224338
 20
1185.125919511107
 30
0.0
 11
6066.670352243383
 21
1185.125919511108
 31
0.0
  0
LINE
  5
2821F
330
27F29
100
AcDbEntity
  8
KISO
100
AcDbLine
 10
6379.170352243383
 20
1275.125919511107
 30
0.0
 11
5016.67035224338
 21
1275.125919511107
 31
0.0
  0
LINE
  5
28220
330
27F29
100
AcDbEntity
  8
U3
100
AcDbLine
 10
5016.67035224338
 20
1225.125919511109
 30
0.0
 11
4555.309962550174
 21
1225.125919511109
 31
0.0
  0
LINE
  5
28221
330
27F29
100
AcDbEntity
  8
U3
100
AcDbLine
 10
4838.49015739678
 20
1193.306114357713
 30
0.0
 11
4911.670352243383
 21
1120.125919511109
 31
0.0
  0
LINE
  5
28222
330
27F29
100
AcDbEntity
  8
U3
100
AcDbLine
 10
4870.309962550173
 20
1225.125919511109
 30
0.0
 11
4975.30996255017
 21
1120.125919511111
 31
0.0
  0
LINE
  5
28223
330
27F29
100
AcDbEntity
  8
U3
100
AcDbLine
 10
4555.309962550174
 20
1120.125919511109
 30
0.0
 11
4660.30996255017
 21
1225.125919511107
 31
0.0
  0
LINE
  5
28224
330
27F29
100
AcDbEntity
  8
U3
100
AcDbLine
 10
4628.490157396779
 20
1193.306114357713
 30
0.0
 11
4701.670352243383
 21
1120.125919511109
 31
0.0
  0
LINE
  5
28225
330
27F29
100
AcDbEntity
  8
U3
100
AcDbLine
 10
4596.670352243386
 20
1161.486309204319
 30
0.0
 11
4638.030741936595
 21
1120.125919511107
 31
0.0
  0
LINE
  5
28226
330
27F29
100
AcDbEntity
  8
U3
100
AcDbLine
 10
4555.309962550177
 20
1183.765529817895
 30
0.0
 11
4596.670352243388
 21
1225.125919511109
 31
0.0
  0
LINE
  5
28227
330
27F29
100
AcDbEntity
  8
U3
100
AcDbLine
 10
4733.490157396778
 20
1151.945724664504
 30
0.0
 11
4806.670352243386
 21
1225.125919511107
 31
0.0
  0
LINE
  5
28228
330
27F29
100
AcDbEntity
  8
U3
100
AcDbLine
 10
4660.30996255017
 20
1225.125919511107
 30
0.0
 11
4765.309962550174
 21
1120.125919511109
 31
0.0
  0
LINE
  5
28229
330
27F29
100
AcDbEntity
  8
U3
100
AcDbLine
 10
4701.670352243383
 20
1183.765529817899
 30
0.0
 11
4743.030741936592
 21
1225.125919511107
 31
0.0
  0
LINE
  5
2822A
330
27F29
100
AcDbEntity
  8
U3
100
AcDbLine
 10
4765.309962550174
 20
1120.125919511109
 30
0.0
 11
4870.309962550173
 21
1225.125919511109
 31
0.0
  0
LINE
  5
2822B
330
27F29
100
AcDbEntity
  8
U3
100
AcDbLine
 10
4806.670352243386
 20
1161.486309204319
 30
0.0
 11
4848.030741936597
 21
1120.125919511109
 31
0.0
  0
LINE
  5
2822C
330
27F29
100
AcDbEntity
  8
HATCH
100
AcDbLine
 10
5214.484064450439
 20
1275.125919511107
 30
0.0
 11
5124.484064450439
 21
1185.125919511109
 31
0.0
  0
LINE
  5
2822D
330
27F29
100
AcDbEntity
  8
U3
100
AcDbLine
 10
4943.490157396777
 20
1151.945724664504
 30
0.0
 11
5016.67035224338
 21
1225.125919511109
 31
0.0
  0
LINE
  5
2822E
330
27F29
100
AcDbEntity
  8
U3
100
AcDbLine
 10
4911.670352243381
 20
1183.765529817899
 30
0.0
 11
4953.030741936592
 21
1225.125919511109
 31
0.0
  0
LINE
  5
2822F
330
27F29
100
AcDbEntity
  8
KISO
100
AcDbLine
 10
5016.67035224338
 20
1275.125919511107
 30
0.0
 11
5016.67035224338
 21
1125.125919511106
 31
0.0
  0
LINE
  5
28230
330
27F29
100
AcDbEntity
  8
HATCH
100
AcDbLine
 10
5273.881034070109
 20
1275.125919511107
 30
0.0
 11
5183.881034070112
 21
1185.125919511109
 31
0.0
  0
LINE
  5
28231
330
27F29
100
AcDbEntity
  8
HATCH
100
AcDbLine
 10
5244.18254926028
 20
1275.125919511107
 30
0.0
 11
5154.18254926028
 21
1185.125919511109
 31
0.0
  0
LINE
  5
28232
330
27F29
100
AcDbEntity
  8
KISO
100
AcDbLine
 10
7616.670352243383
 20
1275.125919511109
 30
0.0
 11
6454.17035224338
 21
1275.125919511107
 31
0.0
  0
LINE
  5
28233
330
27F29
100
AcDbEntity
  8
KISO
100
AcDbLine
 10
6766.67035224338
 20
1185.125919511109
 30
0.0
 11
7616.670352243383
 21
1185.125919511111
 31
0.0
  0
LINE
  5
28234
330
27F29
100
AcDbEntity
  8
KISO
100
AcDbLine
 10
6766.67035224338
 20
1125.125919511107
 30
0.0
 11
7616.670352243383
 21
1125.125919511107
 31
0.0
  0
LINE
  5
28235
330
27F29
100
AcDbEntity
  8
HATCH
100
AcDbLine
 10
6379.170352243383
 20
1117.927434701272
 30
0.0
 11
6066.670352243383
 21
805.427434701273
 31
0.0
  0
LINE
  5
28236
330
27F29
100
AcDbEntity
  8
HATCH
100
AcDbLine
 10
6379.170352243383
 20
1147.625919511105
 30
0.0
 11
6066.670352243383
 21
835.1259195111037
 31
0.0
  0
LINE
  5
28237
330
27F29
100
AcDbEntity
  8
HATCH
100
AcDbLine
 10
6379.170352243383
 20
1177.324404320942
 30
0.0
 11
6066.670352243383
 21
864.8244043209421
 31
0.0
  0
LINE
  5
28238
330
27F29
100
AcDbEntity
  8
HATCH
100
AcDbLine
 10
6379.170352243383
 20
818.2289498914393
 30
0.0
 11
6336.067321863051
 21
775.1259195111079
 31
0.0
  0
LINE
  5
28239
330
27F29
100
AcDbEntity
  8
HATCH
100
AcDbLine
 10
6379.170352243383
 20
877.6259195111091
 30
0.0
 11
6276.670352243383
 21
775.1259195111079
 31
0.0
  0
LINE
  5
2823A
330
27F29
100
AcDbEntity
  8
HATCH
100
AcDbLine
 10
6379.170352243383
 20
847.9274347012747
 30
0.0
 11
6306.368837053216
 21
775.1259195111079
 31
0.0
  0
LINE
  5
2823B
330
27F29
100
AcDbEntity
  8
HATCH
100
AcDbLine
 10
5952.121066053532
 20
1275.125919511109
 30
0.0
 11
5862.121066053536
 21
1185.125919511111
 31
0.0
  0
LINE
  5
2823C
330
27F29
100
AcDbEntity
  8
HATCH
100
AcDbLine
 10
5922.422581243697
 20
1275.125919511109
 30
0.0
 11
5832.422581243703
 21
1185.125919511109
 31
0.0
  0
LINE
  5
2823D
330
27F29
100
AcDbEntity
  8
HATCH
100
AcDbLine
 10
5628.992246919052
 20
1275.125919511109
 30
0.0
 11
5538.992246919056
 21
1185.125919511109
 31
0.0
  0
LINE
  5
2823E
330
27F29
100
AcDbEntity
  8
HATCH
100
AcDbLine
 10
5569.595277299383
 20
1275.125919511109
 30
0.0
 11
5479.595277299385
 21
1185.125919511109
 31
0.0
  0
LINE
  5
2823F
330
27F29
100
AcDbEntity
  8
HATCH
100
AcDbLine
 10
5599.293762109218
 20
1275.125919511109
 30
0.0
 11
5509.293762109217
 21
1185.125919511109
 31
0.0
  0
LINE
  5
28240
330
27F29
100
AcDbEntity
  8
KISO
100
AcDbLine
 10
6066.670352243383
 20
1275.125919511109
 30
0.0
 11
6066.670352243383
 21
775.1259195111079
 31
0.0
  0
LINE
  5
28241
330
27F29
100
AcDbEntity
  8
HATCH
100
AcDbLine
 10
6236.670352243383
 20
1275.125919511109
 30
0.0
 11
6066.670352243383
 21
1105.125919511108
 31
0.0
  0
LINE
  5
28242
330
27F29
100
AcDbEntity
  8
HATCH
100
AcDbLine
 10
6206.971867433548
 20
1275.125919511109
 30
0.0
 11
6066.670352243383
 21
1134.824404320939
 31
0.0
  0
LINE
  5
28243
330
27F29
100
AcDbEntity
  8
HATCH
100
AcDbLine
 10
6177.273382623712
 20
1275.125919511107
 30
0.0
 11
6066.670352243383
 21
1164.522889130778
 31
0.0
  0
LINE
  5
28244
330
27F29
100
AcDbEntity
  8
HATCH
100
AcDbLine
 10
5981.819550863368
 20
1275.125919511109
 30
0.0
 11
5891.819550863368
 21
1185.125919511109
 31
0.0
  0
LINE
  5
28245
330
27F29
100
AcDbEntity
  8
HATCH
100
AcDbLine
 10
6892.626765645911
 20
1275.125919511109
 30
0.0
 11
6802.626765645908
 21
1185.125919511109
 31
0.0
  0
LINE
  5
28246
330
27F29
100
AcDbEntity
  8
HATCH
100
AcDbLine
 10
6922.325250455752
 20
1275.125919511109
 30
0.0
 11
6832.32525045575
 21
1185.125919511109
 31
0.0
  0
LINE
  5
28247
330
27F29
100
AcDbEntity
  8
HATCH
100
AcDbLine
 10
6766.67035224338
 20
1235.427434701278
 30
0.0
 11
6454.17035224338
 21
922.9274347012747
 31
0.0
  0
LINE
  5
28248
330
27F29
100
AcDbEntity
  8
HATCH
100
AcDbLine
 10
6766.67035224338
 20
1205.728949891438
 30
0.0
 11
6454.17035224338
 21
893.2289498914393
 31
0.0
  0
LINE
  5
28249
330
27F29
100
AcDbEntity
  8
KISO
100
AcDbLine
 10
6766.67035224338
 20
1275.125919511109
 30
0.0
 11
6766.67035224338
 21
775.12591951111
 31
0.0
  0
LINE
  5
2824A
330
27F29
100
AcDbEntity
  8
HATCH
100
AcDbLine
 10
6766.67035224338
 20
965.4274347012792
 30
0.0
 11
6576.368837053205
 21
775.1259195111079
 31
0.0
  0
LINE
  5
2824B
330
27F29
100
AcDbEntity
  8
HATCH
100
AcDbLine
 10
6766.67035224338
 20
935.7289498914408
 30
0.0
 11
6606.067321863051
 21
775.1259195111079
 31
0.0
  0
LINE
  5
2824C
330
27F29
100
AcDbEntity
  8
HATCH
100
AcDbLine
 10
6766.67035224338
 20
906.0304650816076
 30
0.0
 11
6635.765806672882
 21
775.1259195111079
 31
0.0
  0
LINE
  5
2824D
330
27F29
100
AcDbEntity
  8
HATCH
100
AcDbLine
 10
6766.67035224338
 20
1265.125919511107
 30
0.0
 11
6454.17035224338
 21
952.6259195111091
 31
0.0
  0
LINE
  5
2824E
330
27F29
100
AcDbEntity
  8
HATCH
100
AcDbLine
 10
6536.368837053216
 20
1275.125919511109
 30
0.0
 11
6454.17035224338
 21
1192.927434701273
 31
0.0
  0
LINE
  5
2824F
330
27F29
100
AcDbEntity
  8
HATCH
100
AcDbLine
 10
6506.670352243384
 20
1275.125919511109
 30
0.0
 11
6454.17035224338
 21
1222.625919511104
 31
0.0
  0
LINE
  5
28250
330
27F29
100
AcDbEntity
  8
HATCH
100
AcDbLine
 10
6476.971867433547
 20
1275.125919511109
 30
0.0
 11
6454.17035224338
 21
1252.324404320942
 31
0.0
  0
LINE
  5
28251
330
27F29
100
AcDbEntity
  8
HATCH
100
AcDbLine
 10
6952.023735265581
 20
1275.125919511109
 30
0.0
 11
6862.023735265582
 21
1185.125919511109
 31
0.0
  0
LINE
  5
28252
330
27F29
100
AcDbEntity
  8
HATCH
100
AcDbLine
 10
7245.45406959023
 20
1275.125919511109
 30
0.0
 11
7155.454069590232
 21
1185.125919511109
 31
0.0
  0
LINE
  5
28253
330
27F29
100
AcDbEntity
  8
HATCH
100
AcDbLine
 10
7304.851039209897
 20
1275.125919511109
 30
0.0
 11
7214.851039209898
 21
1185.125919511109
 31
0.0
  0
LINE
  5
28254
330
27F29
100
AcDbEntity
  8
HATCH
100
AcDbLine
 10
7275.152554400063
 20
1275.125919511109
 30
0.0
 11
7185.152554400061
 21
1185.125919511111
 31
0.0
  0
LINE
  5
28255
330
27F29
100
AcDbEntity
  8
U3
100
AcDbLine
 10
7794.85054708999
 20
1151.945724664505
 30
0.0
 11
7868.030741936592
 21
1225.125919511109
 31
0.0
  0
LINE
  5
28256
330
27F29
100
AcDbEntity
  8
U3
100
AcDbLine
 10
7826.670352243382
 20
1120.125919511109
 30
0.0
 11
7931.670352243383
 21
1225.125919511109
 31
0.0
  0
LINE
  5
28257
330
27F29
100
AcDbEntity
  8
U3
100
AcDbLine
 10
8078.030741936592
 20
1225.125919511109
 30
0.0
 11
7616.670352243383
 21
1225.125919511109
 31
0.0
  0
LINE
  5
28258
330
27F29
100
AcDbEntity
  8
HATCH
100
AcDbLine
 10
7616.670352243383
 20
1234.117928600275
 30
0.0
 11
7567.678343154212
 21
1185.125919511111
 31
0.0
  0
LINE
  5
28259
330
27F29
100
AcDbEntity
  8
HATCH
100
AcDbLine
 10
7616.670352243383
 20
1263.816413410111
 30
0.0
 11
7537.979858344384
 21
1185.125919511111
 31
0.0
  0
LINE
  5
2825A
330
27F29
100
AcDbEntity
  8
HATCH
100
AcDbLine
 10
7598.281373534554
 20
1275.125919511109
 30
0.0
 11
7508.281373534547
 21
1185.125919511111
 31
0.0
  0
LINE
  5
2825B
330
27F29
100
AcDbEntity
  8
U3
100
AcDbLine
 10
7616.670352243383
 20
1120.125919511109
 30
0.0
 11
7721.67035224338
 21
1225.125919511109
 31
0.0
  0
LINE
  5
2825C
330
27F29
100
AcDbEntity
  8
U3
100
AcDbLine
 10
7689.85054708999
 20
1193.306114357713
 30
0.0
 11
7763.030741936592
 21
1120.125919511109
 31
0.0
  0
LINE
  5
2825D
330
27F29
100
AcDbEntity
  8
KISO
100
AcDbLine
 10
7616.670352243383
 20
1125.125919511107
 30
0.0
 11
7616.670352243383
 21
1275.125919511109
 31
0.0
  0
LINE
  5
2825E
330
27F29
100
AcDbEntity
  8
U3
100
AcDbLine
 10
7658.030741936592
 20
1161.486309204319
 30
0.0
 11
7699.391131629802
 21
1120.125919511109
 31
0.0
  0
LINE
  5
2825F
330
27F29
100
AcDbEntity
  8
U3
100
AcDbLine
 10
7616.670352243389
 20
1183.765529817895
 30
0.0
 11
7658.030741936599
 21
1225.125919511109
 31
0.0
  0
LINE
  5
28260
330
27F29
100
AcDbEntity
  8
U3
100
AcDbLine
 10
7763.030741936592
 20
1183.765529817899
 30
0.0
 11
7804.391131629795
 21
1225.125919511109
 31
0.0
  0
LINE
  5
28261
330
27F29
100
AcDbEntity
  8
U3
100
AcDbLine
 10
7721.67035224338
 20
1225.125919511109
 30
0.0
 11
7826.670352243382
 21
1120.125919511109
 31
0.0
  0
LINE
  5
28262
330
27F29
100
AcDbEntity
  8
U3
100
AcDbLine
 10
7899.85054708999
 20
1193.306114357713
 30
0.0
 11
7973.030741936591
 21
1120.125919511109
 31
0.0
  0
LINE
  5
28263
330
27F29
100
AcDbEntity
  8
U3
100
AcDbLine
 10
7931.670352243383
 20
1225.125919511109
 30
0.0
 11
8036.670352243381
 21
1120.125919511109
 31
0.0
  0
LINE
  5
28264
330
27F29
100
AcDbEntity
  8
U3
100
AcDbLine
 10
7868.030741936592
 20
1161.486309204319
 30
0.0
 11
7909.391131629803
 21
1120.125919511109
 31
0.0
  0
LINE
  5
28265
330
27F29
100
AcDbEntity
  8
U3
100
AcDbLine
 10
8004.850547089983
 20
1151.945724664504
 30
0.0
 11
8078.030741936592
 21
1225.125919511109
 31
0.0
  0
LINE
  5
28266
330
27F29
100
AcDbEntity
  8
U3
100
AcDbLine
 10
7973.030741936591
 20
1183.765529817899
 30
0.0
 11
8014.391131629793
 21
1225.125919511109
 31
0.0
  0
LINE
  5
28267
330
27F29
100
AcDbEntity
  8
KISO
100
AcDbLine
 10
5966.670352243379
 20
675.1259195111079
 30
0.0
 11
6866.670352243383
 21
675.1259195111079
 31
0.0
  0
LINE
  5
28268
330
27F29
100
AcDbEntity
  8
KISO
100
AcDbLine
 10
5966.670352243379
 20
775.1259195111079
 30
0.0
 11
6866.670352243383
 21
775.1259195111079
 31
0.0
  0
LINE
  5
28269
330
27F29
100
AcDbEntity
  8
KISO
100
AcDbLine
 10
5966.670352243379
 20
675.1259195111079
 30
0.0
 11
5966.670352243379
 21
775.1259195111079
 31
0.0
  0
LINE
  5
2826A
330
27F29
100
AcDbEntity
  8
KISO
100
AcDbLine
 10
6866.670352243383
 20
675.1259195111079
 30
0.0
 11
6866.670352243383
 21
775.1259195111079
 31
0.0
  0
LINE
  5
2826B
330
27F29
100
AcDbEntity
  8
1PL-M1
100
AcDbLine
 10
6416.670352243383
 20
535.1259195111091
 30
0.0
 11
6416.670352243383
 21
3460.723022657499
 31
0.0
  0
LINE
  5
2826C
330
27F29
100
AcDbEntity
  8
SUNPOU
100
AcDbLine
 10
5553.464229004191
 20
1275.125919511107
 30
0.0
 11
5605.425753231254
 21
1365.125919511107
 31
0.0
  0
LINE
  5
2826D
330
27F29
100
AcDbEntity
  8
SUNPOU
100
AcDbLine
 10
5501.502704777122
 20
1365.125919511107
 30
0.0
 11
5553.464229004191
 21
1275.125919511107
 31
0.0
  0
TEXT
  5
2826E
330
27F29
100
AcDbEntity
  8
SUNPOU
100
AcDbText
 10
5484.892800432763
 20
1410.125919511107
 30
0.0
 40
90.0
  1
F.L
 41
0.6666666666666666
  7
00
 72
     4
 11
5553.464229004191
 21
1455.125919511107
 31
0.0
100
AcDbText
  0
LINE
  5
2826F
330
27F29
100
AcDbEntity
  8
SUNPOU
100
AcDbLine
 10
5605.425753231254
 20
1365.125919511107
 30
0.0
 11
5501.502704777122
 21
1365.125919511107
 31
0.0
  0
LINE
  5
28270
330
27F29
100
AcDbEntity
  8
SUNPOU
100
AcDbLine
 10
4641.203535533754
 20
1315.125919511109
 30
0.0
 11
4693.165059760818
 21
1225.125919511109
 31
0.0
  0
LINE
  5
28271
330
27F29
100
AcDbEntity
  8
SUNPOU
100
AcDbLine
 10
4693.165059760818
 20
1225.125919511109
 30
0.0
 11
4745.12658398789
 21
1315.125919511109
 31
0.0
  0
TEXT
  5
28272
330
27F29
100
AcDbEntity
  8
SUNPOU
100
AcDbText
 10
4621.736488332246
 20
1360.125919511109
 30
0.0
 40
90.0
  1
G.L
 41
0.6666666666666666
  7
00
 72
     4
 11
4693.165059760818
 21
1405.125919511108
 31
0.0
100
AcDbText
  0
LINE
  5
28273
330
27F29
100
AcDbEntity
  8
SUNPOU
100
AcDbLine
 10
4745.12658398789
 20
1315.125919511109
 30
0.0
 11
4641.203535533754
 21
1315.125919511109
 31
0.0
  0
TEXT
  5
28274
330
27F29
100
AcDbEntity
  8
HIKIDASHI
100
AcDbText
 10
4182.522137429629
 20
772.6108029001565
 30
0.0
 40
135.0
  1
側 面 断 面 図
  7
01
 72
     2
 11
5271.52213742963
 21
772.6108029001565
 31
0.0
100
AcDbText
  0
TEXT
  5
28275
330
27F29
100
AcDbEntity
  8
HIKIDASHI
100
AcDbText
 10
5372.77213742963
 20
799.4042999599945
 30
0.0
 40
90.0
  1
(S=
 41
0.6700000000000001
  7
00
100
AcDbText
  0
TEXT
  5
28276
330
27F29
100
AcDbEntity
  8
HIKIDASHI
100
AcDbText
 10
5665.429872064826
 20
769.965489859685
 30
0.0
 40
90.0
  1
30
 41
0.6700000000000001
  7
00
100
AcDbText
  0
TEXT
  5
28277
330
27F29
100
AcDbEntity
  8
HIKIDASHI
100
AcDbText
 10
5802.034635135068
 20
799.4042999599945
 30
0.0
 40
90.0
  1
)
 41
0.6700000000000001
  7
00
100
AcDbText
  0
TEXT
  5
28278
330
27F29
100
AcDbEntity
  8
HIKIDASHI
100
AcDbText
 10
5613.34782295686
 20
799.4042999599945
 30
0.0
 40
90.0
  1
/
 41
0.6700000000000001
  7
00
100
AcDbText
  0
TEXT
  5
28279
330
27F29
100
AcDbEntity
  8
HIKIDASHI
100
AcDbText
 10
5576.068542859514
 20
816.910962426718
 30
0.0
 40
90.0
  1
1
 41
0.6700000000000001
  7
00
100
AcDbText
  0
TEXT
  5
2827A
330
27F29
100
AcDbEntity
  8
HIKIDASHI
100
AcDbText
 10
7100.413636530989
 20
983.3872312722746
 30
0.0
 40
90.0
  1
10   x 350
 41
0.6666666666666666
  7
00
 11
7100.413636530989
 21
1028.387231272274
 31
0.0
100
AcDbText
 73
     2
  0
LINE
  5
2827B
330
27F29
100
AcDbEntity
  8
HIKIDASHI
100
AcDbLine
 10
6810.277571388599
 20
938.3872312722756
 30
0.0
 11
7601.236796420002
 21
938.3872312722756
 31
0.0
  0
TEXT
  5
2827C
330
27F29
100
AcDbEntity
  8
HIKIDASHI
100
AcDbText
 10
6840.2775713886
 20
983.3872312722746
 30
0.0
 40
90.0
  1
鉄筋
  7
01
 11
6840.2775713886
 21
1028.387231272274
 31
0.0
100
AcDbText
 73
     2
  0
LINE
  5
2827D
330
27F29
100
AcDbEntity
  8
HIKIDASHI
100
AcDbLine
 10
6478.69006521525
 20
817.699248970606
 30
0.0
 11
6810.277571388599
 21
938.3872312722756
 31
0.0
  0
LINE
  5
2827E
330
27F29
100
AcDbEntity
  8
HIKIDASHI
100
AcDbLine
 10
6400.306725144869
 20
835.1259195111101
 30
0.0
 11
6433.033979341892
 21
835.1259195111101
 31
0.0
  0
LINE
  5
2827F
330
27F29
100
AcDbEntity
  8
HIKIDASHI
100
AcDbLine
 10
6400.306725144869
 20
795.12591951111
 30
0.0
 11
6433.033979341892
 21
795.12591951111
 31
0.0
  0
SOLID
  5
28280
330
27F29
100
AcDbEntity
  8
HIKIDASHI
100
AcDbTrace
 10
6482.110266648503
 20
808.3023227627471
 30
0.0
 11
6475.269863781992
 21
827.0961751784639
 31
0.0
 12
6422.308507968096
 22
797.1780403710643
 32
0.0
 13
6422.308507968096
 23
797.1780403710643
 33
0.0
  0
TEXT
  5
28281
330
27F29
100
AcDbEntity
  8
HIKIDASHI
100
AcDbText
 10
7249.870797427059
 20
998.3872312722752
 30
0.0
 40
90.0
  1
%%c
 41
0.6666666666666666
  7
00
100
AcDbText
  0
TEXT
  5
28282
330
27F29
100
AcDbEntity
  8
HIKIDASHI
100
AcDbText
 10
8473.27122074242
 20
4034.335714136729
 30
0.0
 40
90.0
  1
1.6
 41
0.6700000000000001
  7
00
100
AcDbText
  0
TEXT
  5
28283
330
27F29
100
AcDbEntity
  8
HIKIDASHI
100
AcDbText
 10
7543.728215902678
 20
4034.335714136729
 30
0.0
 40
90.0
  1
屋根受フレーム
  7
01
 72
     2
 11
8269.728215902679
 21
4034.335714136729
 31
0.0
100
AcDbText
  0
TEXT
  5
28284
330
27F29
100
AcDbEntity
  8
HIKIDASHI
100
AcDbText
 10
8337.19774680574
 20
4041.83571413673
 30
0.0
 40
75.0
  1
ア
  7
01
 72
     1
 11
8369.697746805739
 21
4079.335714136729
 31
0.0
100
AcDbText
 73
     2
  0
CIRCLE
  5
28285
330
27F29
100
AcDbEntity
  8
HIKIDASHI
100
AcDbCircle
 10
8369.697746805739
 20
4079.335714136729
 30
0.0
 40
60.0
  0
LINE
  5
28286
330
27F29
100
AcDbEntity
  8
HIKIDASHI
100
AcDbLine
 10
7513.72821590268
 20
3989.335714136729
 30
0.0
 11
8638.228363599564
 21
3989.335714136729
 31
0.0
  0
TEXT
  5
28287
330
27F29
100
AcDbEntity
  8
HIKIDASHI
100
AcDbText
 10
5036.995569189897
 20
4034.335714136729
 30
0.0
 40
90.0
  1
0.6
 41
0.6700000000000001
  7
00
100
AcDbText
  0
TEXT
  5
28288
330
27F29
100
AcDbEntity
  8
HIKIDASHI
100
AcDbText
 10
4545.452564350158
 20
4034.335714136729
 30
0.0
 40
90.0
  1
鼻隠し
  7
01
 72
     2
 11
4833.452564350158
 21
4034.335714136729
 31
0.0
100
AcDbText
  0
TEXT
  5
28289
330
27F29
100
AcDbEntity
  8
HIKIDASHI
100
AcDbText
 10
4900.922095253217
 20
4041.83571413673
 30
0.0
 40
75.0
  1
ア
  7
01
 72
     1
 11
4933.422095253217
 21
4079.335714136729
 31
0.0
100
AcDbText
 73
     2
  0
CIRCLE
  5
2828A
330
27F29
100
AcDbEntity
  8
HIKIDASHI
100
AcDbCircle
 10
4933.422095253217
 20
4079.335714136729
 30
0.0
 40
60.0
  0
LINE
  5
2828B
330
27F29
100
AcDbEntity
  8
HIKIDASHI
100
AcDbLine
 10
4515.452564350158
 20
3989.335714136729
 30
0.0
 11
5201.95271204704
 21
3989.335714136729
 31
0.0
  0
TEXT
  5
2828C
330
27F29
100
AcDbEntity
  8
HIKIDASHI
100
AcDbText
 10
6180.621932573711
 20
2695.221056410115
 30
0.0
 40
90.0
  1
0.6
 41
0.6700000000000001
  7
00
100
AcDbText
  0
TEXT
  5
2828D
330
27F29
100
AcDbEntity
  8
HIKIDASHI
100
AcDbText
 10
5518.07892773397
 20
2695.221056410115
 30
0.0
 40
90.0
  1
ケラバ包み
 41
0.9
  7
01
 72
     2
 11
5977.07892773397
 21
2695.221056410115
 31
0.0
100
AcDbText
  0
TEXT
  5
2828E
330
27F29
100
AcDbEntity
  8
HIKIDASHI
100
AcDbText
 10
6044.548458637032
 20
2702.721056410116
 30
0.0
 40
75.0
  1
ア
  7
01
 72
     1
 11
6077.048458637032
 21
2740.221056410116
 31
0.0
100
AcDbText
 73
     2
  0
CIRCLE
  5
2828F
330
27F29
100
AcDbEntity
  8
HIKIDASHI
100
AcDbCircle
 10
6077.048458637032
 20
2740.221056410116
 30
0.0
 40
60.0
  0
LINE
  5
28290
330
27F29
100
AcDbEntity
  8
HIKIDASHI
100
AcDbLine
 10
5488.07892773397
 20
2650.221056410115
 30
0.0
 11
6345.579075430855
 21
2650.221056410115
 31
0.0
  0
TEXT
  5
28291
330
27F29
100
AcDbEntity
  8
HIKIDASHI
100
AcDbText
 10
6175.962606173354
 20
2895.742481839631
 30
0.0
 40
90.0
  1
2.3
 41
0.6700000000000001
  7
00
100
AcDbText
  0
TEXT
  5
28292
330
27F29
100
AcDbEntity
  8
HIKIDASHI
100
AcDbText
 10
5672.419601333614
 20
2895.742481839631
 30
0.0
 40
90.0
  1
桁金具
  7
01
 72
     2
 11
5972.419601333614
 21
2895.742481839631
 31
0.0
100
AcDbText
  0
TEXT
  5
28293
330
27F29
100
AcDbEntity
  8
HIKIDASHI
100
AcDbText
 10
6039.889132236677
 20
2903.24248183963
 30
0.0
 40
75.0
  1
ア
  7
01
 72
     1
 11
6072.389132236676
 21
2940.742481839631
 31
0.0
100
AcDbText
 73
     2
  0
CIRCLE
  5
28294
330
27F29
100
AcDbEntity
  8
HIKIDASHI
100
AcDbCircle
 10
6072.389132236676
 20
2940.742481839631
 30
0.0
 40
60.0
  0
LINE
  5
28295
330
27F29
100
AcDbEntity
  8
HIKIDASHI
100
AcDbLine
 10
5654.419601333614
 20
2850.742481839629
 30
0.0
 11
6340.919749030497
 21
2850.742481839629
 31
0.0
  0
TEXT
  5
28296
330
27F29
100
AcDbEntity
  8
HIKIDASHI
100
AcDbText
 10
7415.37833336045
 20
2716.981056570896
 30
0.0
 40
90.0
  1
2.3
 41
0.6700000000000001
  7
00
100
AcDbText
  0
TEXT
  5
28297
330
27F29
100
AcDbEntity
  8
HIKIDASHI
100
AcDbText
 10
6666.435328520711
 20
2716.981056570896
 30
0.0
 40
90.0
  1
三角プレート
 41
0.9
  7
01
 72
     2
 11
7211.835328520712
 21
2716.981056570896
 31
0.0
100
AcDbText
  0
TEXT
  5
28298
330
27F29
100
AcDbEntity
  8
HIKIDASHI
100
AcDbText
 10
7279.304859423771
 20
2724.481056570896
 30
0.0
 40
75.0
  1
ア
  7
01
 72
     1
 11
7311.80485942377
 21
2761.981056570895
 31
0.0
100
AcDbText
 73
     2
  0
CIRCLE
  5
28299
330
27F29
100
AcDbEntity
  8
HIKIDASHI
100
AcDbCircle
 10
7311.80485942377
 20
2761.981056570895
 30
0.0
 40
60.0
  0
LINE
  5
2829A
330
27F29
100
AcDbEntity
  8
HIKIDASHI
100
AcDbLine
 10
6636.43532852071
 20
2671.981056570896
 30
0.0
 11
7580.335476217594
 21
2671.981056570896
 31
0.0
  0
TEXT
  5
2829B
330
27F29
100
AcDbEntity
  8
HIKIDASHI
100
AcDbText
 10
6194.976524556523
 20
3610.688555534784
 30
0.0
 40
90.0
  1
2.3
 41
0.6700000000000001
  7
00
100
AcDbText
  0
TEXT
  5
2829C
330
27F29
100
AcDbEntity
  8
HIKIDASHI
100
AcDbText
 10
5907.433519716785
 20
3610.688555534784
 30
0.0
 40
90.0
  1
桁
  7
01
 72
     2
 11
5991.433519716785
 21
3610.688555534784
 31
0.0
100
AcDbText
  0
TEXT
  5
2829D
330
27F29
100
AcDbEntity
  8
HIKIDASHI
100
AcDbText
 10
6058.903050619846
 20
3618.188555534786
 30
0.0
 40
75.0
  1
ア
  7
01
 72
     1
 11
6091.403050619845
 21
3655.688555534786
 31
0.0
100
AcDbText
 73
     2
  0
CIRCLE
  5
2829E
330
27F29
100
AcDbEntity
  8
HIKIDASHI
100
AcDbCircle
 10
6091.403050619845
 20
3655.688555534786
 30
0.0
 40
60.0
  0
LINE
  5
2829F
330
27F29
100
AcDbEntity
  8
HIKIDASHI
100
AcDbLine
 10
5877.433519716785
 20
3565.688555534785
 30
0.0
 11
6359.933667413669
 21
3565.688555534785
 31
0.0
  0
TEXT
  5
282A0
330
27F29
100
AcDbEntity
  8
HIKIDASHI
100
AcDbText
 10
8491.202561274411
 20
3824.335714136732
 30
0.0
 40
90.0
  1
0.5
 41
0.6700000000000001
  7
00
100
AcDbText
  0
TEXT
  5
282A1
330
27F29
100
AcDbEntity
  8
HIKIDASHI
100
AcDbText
 10
8103.515990100481
 20
3824.335714136732
 30
0.0
 40
90.0
  1
66
 41
0.6666666666666666
  7
00
100
AcDbText
  0
CIRCLE
  5
282A2
330
27F29
100
AcDbEntity
  8
HIKIDASHI
100
AcDbCircle
 10
8372.730384457776
 20
3869.335714136735
 30
0.0
 40
60.0
  0
TEXT
  5
282A3
330
27F29
100
AcDbEntity
  8
HIKIDASHI
100
AcDbText
 10
8340.230384457775
 20
3831.835714136735
 30
0.0
 40
75.0
  1
ア
  7
01
 72
     1
 11
8372.730384457776
 21
3869.335714136735
 31
0.0
100
AcDbText
 73
     2
  0
TEXT
  5
282A4
330
27F29
100
AcDbEntity
  8
HIKIDASHI
100
AcDbText
 10
7556.054233842374
 20
3824.335714136732
 30
0.0
 40
90.0
  1
ヨドルーフ
  7
01
100
AcDbText
  0
LINE
  5
282A5
330
27F29
100
AcDbEntity
  8
HIKIDASHI
100
AcDbLine
 10
7515.574696561038
 20
3779.335714136733
 30
0.0
 11
8640.373425452738
 21
3779.335714136733
 31
0.0
  0
TEXT
  5
282A6
330
27F29
100
AcDbEntity
  8
HIKIDASHI
100
AcDbText
 10
6946.664380436462
 20
1953.850153502007
 30
0.0
 40
90.0
  1
2.3
 41
0.6700000000000001
  7
00
100
AcDbText
  0
TEXT
  5
282A7
330
27F29
100
AcDbEntity
  8
HIKIDASHI
100
AcDbText
 10
6659.121375596722
 20
1953.850153502007
 30
0.0
 40
90.0
  1
柱
  7
01
 72
     2
 11
6743.121375596721
 21
1953.850153502007
 31
0.0
100
AcDbText
  0
TEXT
  5
282A8
330
27F29
100
AcDbEntity
  8
HIKIDASHI
100
AcDbText
 10
6810.590906499782
 20
1961.350153502007
 30
0.0
 40
75.0
  1
ア
  7
01
 72
     1
 11
6843.090906499782
 21
1998.850153502007
 31
0.0
100
AcDbText
 73
     2
  0
CIRCLE
  5
282A9
330
27F29
100
AcDbEntity
  8
HIKIDASHI
100
AcDbCircle
 10
6843.090906499782
 20
1998.850153502007
 30
0.0
 40
60.0
  0
LINE
  5
282AA
330
27F29
100
AcDbEntity
  8
HIKIDASHI
100
AcDbLine
 10
6629.121375596721
 20
1908.850153502007
 30
0.0
 11
7111.621523293608
 21
1908.850153502007
 31
0.0
  0
TEXT
  5
282AB
330
27F29
100
AcDbEntity
  8
HIKIDASHI
100
AcDbText
 10
7148.097974491887
 20
2940.810425701556
 30
0.0
 40
90.0
  1
2.3
 41
0.6700000000000001
  7
00
100
AcDbText
  0
TEXT
  5
282AC
330
27F29
100
AcDbEntity
  8
HIKIDASHI
100
AcDbText
 10
6860.554969652149
 20
2940.810425701556
 30
0.0
 40
90.0
  1
梁
  7
01
 72
     2
 11
6944.554969652148
 21
2940.810425701556
 31
0.0
100
AcDbText
  0
TEXT
  5
282AD
330
27F29
100
AcDbEntity
  8
HIKIDASHI
100
AcDbText
 10
7012.024500555205
 20
2948.310425701555
 30
0.0
 40
75.0
  1
ア
  7
01
 72
     1
 11
7044.524500555205
 21
2985.810425701556
 31
0.0
100
AcDbText
 73
     2
  0
CIRCLE
  5
282AE
330
27F29
100
AcDbEntity
  8
HIKIDASHI
100
AcDbCircle
 10
7044.524500555205
 20
2985.810425701556
 30
0.0
 40
60.0
  0
LINE
  5
282AF
330
27F29
100
AcDbEntity
  8
HIKIDASHI
100
AcDbLine
 10
6830.554969652144
 20
2895.810425701557
 30
0.0
 11
7313.055117349029
 21
2895.810425701557
 31
0.0
  0
TEXT
  5
282B0
330
27F29
100
AcDbEntity
  8
HIKIDASHI
100
AcDbText
 10
8702.380882607796
 20
3131.70785144848
 30
0.0
 40
120.0
  1
※断面図のため樹脂キャップ
  7
01
100
AcDbText
  0
TEXT
  5
282B1
330
27F29
100
AcDbEntity
  8
HIKIDASHI
100
AcDbText
 10
8702.380882607796
 20
2971.70785144848
 30
0.0
 40
120.0
  1
　厚さ（　　　）を含んでおりません。
  7
01
100
AcDbText
  0
TEXT
  5
282B2
330
27F29
100
AcDbEntity
  8
HIKIDASHI
100
AcDbText
 10
9256.086867375939
 20
2971.70785144848
 30
0.0
 40
120.0
  1
10 mm
 41
0.6666666666666666
  7
01
100
AcDbText
  0
LINE
  5
282B3
330
27F29
100
AcDbEntity
  8
HASHIRA
100
AcDbLine
 10
2406.34597697571
 20
2968.125919511109
 30
0.0
 11
2406.34597697571
 21
1275.125919511107
 31
0.0
  0
LINE
  5
282B4
330
27F29
100
AcDbEntity
  8
HASHIRA
  6
1PL-S
 62
     6
100
AcDbLine
 10
2368.84597697571
 20
3183.375919511107
 30
0.0
 11
2368.84597697571
 21
3156.875919511108
 31
0.0
  0
LINE
  5
282B5
330
27F29
100
AcDbEntity
  8
HASHIRA
  6
1PL-S
 62
     6
100
AcDbLine
 10
2368.84597697571
 20
3011.875919511108
 30
0.0
 11
2368.84597697571
 21
2985.375919511108
 31
0.0
  0
LINE
  5
282B6
330
27F29
100
AcDbEntity
  8
HASHIRA
100
AcDbLine
 10
2331.345976975711
 20
1275.125919511107
 30
0.0
 11
2331.345976975711
 21
2968.125919511107
 31
0.0
  0
LINE
  5
282B7
330
27F29
100
AcDbEntity
  8
HASHIRA
  6
1PL-S
 62
     6
100
AcDbLine
 10
2382.095976975711
 20
2998.625919511107
 30
0.0
 11
2355.595976975711
 21
2998.625919511107
 31
0.0
  0
CIRCLE
  5
282B8
330
27F29
100
AcDbEntity
  8
HASHIRA
100
AcDbCircle
 10
2368.84597697571
 20
2998.625919511107
 30
0.0
 40
7.25
  0
CIRCLE
  5
282B9
330
27F29
100
AcDbEntity
  8
HASHIRA
100
AcDbCircle
 10
2368.84597697571
 20
2998.625919511107
 30
0.0
 40
5.0
  0
CIRCLE
  5
282BA
330
27F29
100
AcDbEntity
  8
HASHIRA
100
AcDbCircle
 10
2368.84597697571
 20
2998.625919511107
 30
0.0
 40
4.0
  0
LINE
  5
282BB
330
27F29
100
AcDbEntity
  8
HASHIRA
  6
1PL-S
 62
     6
100
AcDbLine
 10
2382.095976975711
 20
3170.125919511108
 30
0.0
 11
2355.595976975711
 21
3170.125919511108
 31
0.0
  0
CIRCLE
  5
282BC
330
27F29
100
AcDbEntity
  8
HASHIRA
100
AcDbCircle
 10
2368.84597697571
 20
3170.125919511108
 30
0.0
 40
7.25
  0
CIRCLE
  5
282BD
330
27F29
100
AcDbEntity
  8
HASHIRA
100
AcDbCircle
 10
2368.84597697571
 20
3170.125919511108
 30
0.0
 40
5.0
  0
CIRCLE
  5
282BE
330
27F29
100
AcDbEntity
  8
HASHIRA
100
AcDbCircle
 10
2368.84597697571
 20
3170.125919511108
 30
0.0
 40
4.0
  0
LINE
  5
282BF
330
27F29
100
AcDbEntity
  8
HARI
100
AcDbLine
 10
2986.487430714912
 20
3145.039369997068
 30
0.0
 11
2609.792836252367
 21
3182.898601220927
 31
0.0
  0
LINE
  5
282C0
330
27F29
100
AcDbEntity
  8
HARI
100
AcDbLine
 10
2112.29911769906
 20
3232.898601220924
 30
0.0
 11
1735.604523236512
 21
3270.757832444783
 31
0.0
  0
LINE
  5
282C1
330
27F29
100
AcDbEntity
  8
KETA
100
AcDbLine
 10
2985.631596272696
 20
3149.447047200484
 30
0.0
 11
2988.519344111302
 21
3178.179775409993
 31
0.0
  0
LINE
  5
282C2
330
27F29
100
AcDbEntity
  8
KETA
100
AcDbLine
 10
3063.143851201526
 20
3170.684245960416
 30
0.0
 11
3060.255654055692
 21
3141.947047200484
 31
0.0
  0
LINE
  5
282C3
330
27F29
100
AcDbEntity
  8
KETA
100
AcDbLine
 10
3051.714752046262
 20
3134.966145191053
 30
0.0
 11
2992.612498282129
 21
3140.906145191053
 31
0.0
  0
ARC
  5
282C4
330
27F29
100
AcDbEntity
  8
KETA
100
AcDbCircle
 10
2993.392498282128
 20
3148.667047200484
 30
0.0
 40
7.799999999999999
100
AcDbArc
 50
174.2608295227396
 51
264.2608295227124
  0
ARC
  5
282C5
330
27F29
100
AcDbEntity
  8
KETA
100
AcDbCircle
 10
3052.494752046261
 20
3142.727047200484
 30
0.0
 40
7.799999999999999
100
AcDbArc
 50
264.2608295227124
 51
354.2608295227396
  0
LINE
  5
282C6
330
27F29
100
AcDbEntity
  8
KETA
100
AcDbLine
 10
1737.320357678727
 20
3274.907047200479
 30
0.0
 11
1740.20058950612
 21
3303.564992042473
 31
0.0
  0
LINE
  5
282C7
330
27F29
100
AcDbEntity
  8
KETA
100
AcDbLine
 10
1665.57608241589
 20
3311.060521492048
 30
0.0
 11
1662.696299895732
 21
3282.40704720048
 31
0.0
  0
LINE
  5
282C8
330
27F29
100
AcDbEntity
  8
KETA
100
AcDbLine
 10
1669.677201905165
 20
3273.866145191049
 30
0.0
 11
1728.779455669298
 21
3267.926145191051
 31
0.0
  0
ARC
  5
282C9
330
27F29
100
AcDbEntity
  8
KETA
100
AcDbCircle
 10
1729.559455669297
 20
3275.687047200481
 30
0.0
 40
7.799999999999999
100
AcDbArc
 50
264.2608295227124
 51
354.2608295227396
  0
ARC
  5
282CA
330
27F29
100
AcDbEntity
  8
KETA
100
AcDbCircle
 10
1670.457201905164
 20
3281.627047200481
 30
0.0
 40
7.799999999999999
100
AcDbArc
 50
174.2608295227396
 51
264.2608295227124
  0
LINE
  5
282CB
330
27F29
100
AcDbEntity
  8
BOLT
100
AcDbLine
 10
1712.35652130923
 20
3450.179102871528
 30
0.0
 11
1711.905864867448
 21
3445.692426505142
 31
0.0
  0
LINE
  5
282CC
330
27F29
100
AcDbEntity
  8
BOLT
100
AcDbLine
 10
1718.054348485283
 20
3449.606794483013
 30
0.0
 11
1717.603692043501
 21
3445.120118116625
 31
0.0
  0
LINE
  5
282CD
330
27F29
100
AcDbEntity
  8
BOLT
100
AcDbLine
 10
1720.92664709724
 20
3449.318291420502
 30
0.0
 11
1720.475990655458
 21
3444.831615054113
 31
0.0
  0
ARC
  5
282CE
330
27F29
100
AcDbEntity
  8
BOLT
100
AcDbCircle
 10
1719.302885946786
 20
3447.594704060274
 30
0.0
 40
2.367985148190903
100
AcDbArc
 50
46.70819553224974
 51
121.8203284219297
  0
ARC
  5
282CF
330
27F29
100
AcDbEntity
  8
BOLT
100
AcDbCircle
 10
1714.395179864966
 20
3441.826155956539
 30
0.0
 40
8.598130661459229
100
AcDbArc
 50
64.81279441394973
 51
103.7157295402129
  0
LINE
  5
282D0
330
27F29
100
AcDbEntity
  8
BOLT
100
AcDbLine
 10
1712.269500139628
 20
3450.681060618748
 30
0.0
 11
1712.37033037709
 21
3451.684913224605
 31
0.0
  0
LINE
  5
282D1
330
27F29
100
AcDbEntity
  8
BOLT
100
AcDbLine
 10
1718.340290933593
 20
3451.085270869713
 30
0.0
 11
1718.239460696135
 21
3450.081418263859
 31
0.0
  0
LINE
  5
282D2
330
27F29
100
AcDbEntity
  8
BOLT
100
AcDbLine
 10
1710.969417523877
 20
3450.811645166817
 30
0.0
 11
1719.539543311887
 21
3449.950833715791
 31
0.0
  0
LINE
  5
282D3
330
27F29
100
AcDbEntity
  8
BOLT
100
AcDbLine
 10
1709.033566255491
 20
3445.980929567652
 30
0.0
 11
1709.48422269727
 21
3450.467605934039
 31
0.0
  0
LINE
  5
282D4
330
27F29
100
AcDbEntity
  8
BOLT
100
AcDbLine
 10
1720.475990655458
 20
3444.831615054113
 30
0.0
 11
1709.033566255491
 21
3445.980929567652
 31
0.0
  0
ARC
  5
282D5
330
27F29
100
AcDbEntity
  8
BOLT
100
AcDbCircle
 10
1710.732760158776
 20
3448.455515511301
 30
0.0
 40
2.367985148190903
100
AcDbArc
 50
46.70819553224974
 51
121.8203284219297
  0
LINE
  5
282D6
330
27F29
100
AcDbEntity
  8
BOLT
100
AcDbLine
 10
1715.874616167861
 20
3456.555229548683
 30
0.0
 11
1712.37033037709
 21
3451.684913224605
 31
0.0
  0
LINE
  5
282D7
330
27F29
100
AcDbEntity
  8
BOLT
100
AcDbLine
 10
1715.874616167861
 20
3456.555229548682
 30
0.0
 11
1718.340290933593
 21
3451.085270869716
 31
0.0
  0
LINE
  5
282D8
330
27F29
100
AcDbEntity
  8
BOLT
100
AcDbLine
 10
3044.97893257483
 20
3316.245511193145
 30
0.0
 11
3044.527738563987
 21
3311.758888854483
 31
0.0
  0
LINE
  5
282D9
330
27F29
100
AcDbEntity
  8
BOLT
100
AcDbLine
 10
3039.281174010947
 20
3316.818502264196
 30
0.0
 11
3038.829980000112
 21
3312.331879925532
 31
0.0
  0
LINE
  5
282DA
330
27F29
100
AcDbEntity
  8
BOLT
100
AcDbLine
 10
3036.408909986677
 20
3317.107349469838
 30
0.0
 11
3035.957715975841
 21
3312.620727131173
 31
0.0
  0
ARC
  5
282DB
330
27F29
100
AcDbEntity
  8
BOLT
100
AcDbCircle
 10
3037.657206360084
 20
3315.095109467705
 30
0.0
 40
2.3679851481909
100
AcDbArc
 50
46.70133062349818
 51
121.8134635132155
  0
ARC
  5
282DC
330
27F29
100
AcDbEntity
  8
BOLT
100
AcDbCircle
 10
3041.318831741556
 20
3308.46531114676
 30
0.0
 40
8.598130661459228
100
AcDbArc
 50
64.80592950519754
 51
103.7088646315127
  0
LINE
  5
282DD
330
27F29
100
AcDbEntity
  8
BOLT
100
AcDbLine
 10
3045.164101651522
 20
3316.720112791319
 30
0.0
 11
3045.265052165117
 21
3317.723953308969
 31
0.0
  0
LINE
  5
282DE
330
27F29
100
AcDbEntity
  8
BOLT
100
AcDbLine
 10
3039.295163497766
 20
3318.324310951924
 30
0.0
 11
3039.19421298417
 21
3317.320470434276
 31
0.0
  0
LINE
  5
282DF
330
27F29
100
AcDbEntity
  8
BOLT
100
AcDbLine
 10
3046.464168611922
 20
3316.589372474452
 30
0.0
 11
3037.89414602377
 21
3317.451210751145
 31
0.0
  0
LINE
  5
282E0
330
27F29
100
AcDbEntity
  8
BOLT
100
AcDbLine
 10
3047.400002588257
 20
3311.470041648838
 30
0.0
 11
3047.851196599099
 21
3315.956663987504
 31
0.0
  0
LINE
  5
282E1
330
27F29
100
AcDbEntity
  8
BOLT
100
AcDbLine
 10
3035.957715975841
 20
3312.620727131173
 30
0.0
 11
3047.400002588257
 21
3311.470041648838
 31
0.0
  0
ARC
  5
282E2
330
27F29
100
AcDbEntity
  8
BOLT
100
AcDbCircle
 10
3046.227228948236
 20
3314.233271191012
 30
0.0
 40
2.3679851481909
100
AcDbArc
 50
46.70133062349818
 51
121.8134635132155
  0
LINE
  5
282E3
330
27F29
100
AcDbEntity
  8
BOLT
100
AcDbLine
 10
3042.800032801599
 20
3323.194207374136
 30
0.0
 11
3045.265052165117
 21
3317.723953308969
 31
0.0
  0
LINE
  5
282E4
330
27F29
100
AcDbEntity
  8
BOLT
100
AcDbLine
 10
3042.800032801599
 20
3323.194207374135
 30
0.0
 11
3039.295163497766
 21
3318.324310951926
 31
0.0
  0
LINE
  5
282E5
330
27F29
100
AcDbEntity
  8
BOLT
  6
1PL-S
 62
     6
100
AcDbLine
 10
1717.378816315358
 20
3471.470723317883
 30
0.0
 11
1710.974258875205
 21
3407.746181386014
 31
0.0
  0
LINE
  5
282E6
330
27F29
100
AcDbEntity
  8
BOLT
  6
1PL-S
 62
     6
100
AcDbLine
 10
3044.294062440757
 20
3338.110723317864
 30
0.0
 11
3037.897494282109
 21
3274.465673733383
 31
0.0
  0
LINE
  5
282E7
330
27F29
100
AcDbEntity
  8
鼻隠し
100
AcDbLine
 10
1371.14809326383
 20
3413.498634268911
 30
0.0
 11
1365.201639911175
 21
3354.296525416904
 31
0.0
  0
LINE
  5
282E8
330
27F29
100
AcDbEntity
  8
鼻隠し
100
AcDbLine
 10
1421.421724273471
 20
3468.750892368522
 30
0.0
 11
1404.933042877609
 21
3470.407069431614
 31
0.0
  0
LINE
  5
282E9
330
27F29
100
AcDbEntity
  8
鼻隠し
100
AcDbLine
 10
1393.798071662896
 20
3463.966161368968
 30
0.0
 11
1371.14809326383
 21
3413.498634268911
 31
0.0
  0
ARC
  5
282EA
330
27F29
100
AcDbEntity
  8
鼻隠し
100
AcDbCircle
 10
1403.83369856031
 20
3459.462141744688
 30
0.0
 40
11.0
100
AcDbArc
 50
84.26426197707984
 51
155.8293131541628
  0
LINE
  5
282EB
330
27F29
100
AcDbEntity
  8
鼻隠し
100
AcDbLine
 10
1375.047223280803
 20
3342.252253412681
 30
0.0
 11
1408.379503054616
 21
3338.904250264545
 31
0.0
  0
ARC
  5
282EC
330
27F29
100
AcDbEntity
  8
鼻隠し
100
AcDbCircle
 10
1376.146567598099
 20
3353.197181099607
 30
0.0
 40
11.0
100
AcDbArc
 50
174.2642619770655
 51
264.2642619770798
  0
LINE
  5
282ED
330
27F29
100
AcDbEntity
  8
KERABA
100
AcDbLine
 10
1392.259727452308
 20
3338.513309692085
 30
0.0
 11
3349.411796559771
 21
3141.930557680671
 31
0.0
  0
LINE
  5
282EE
330
27F29
100
AcDbEntity
  8
KERABA
100
AcDbLine
 10
3362.454017778632
 20
3271.777199784647
 30
0.0
 11
1421.221843488505
 21
3466.760905516355
 31
0.0
  0
LINE
  5
282EF
330
27F29
100
AcDbEntity
  8
鼻隠し
100
AcDbLine
 10
1421.421724273471
 20
3468.750892368522
 30
0.0
 11
1408.379503054618
 21
3338.904250264548
 31
0.0
  0
LINE
  5
282F0
330
27F29
100
AcDbEntity
  8
U3
100
AcDbLine
 10
968.8459769757107
 20
1225.125919511109
 30
0.0
 11
507.4855872825036
 21
1225.125919511109
 31
0.0
  0
LINE
  5
282F1
330
27F29
100
AcDbEntity
  8
U3
100
AcDbLine
 10
4030.206366668919
 20
1225.125919511111
 30
0.0
 11
3568.845976975709
 21
1225.125919511111
 31
0.0
  0
LINE
  5
282F2
330
27F29
100
AcDbEntity
  8
1PL-M1
100
AcDbLine
 10
2368.84597697571
 20
1075.12591951111
 30
0.0
 11
2368.84597697571
 21
3460.723022657499
 31
0.0
  0
LINE
  5
282F3
330
27F29
100
AcDbEntity
  8
SUNPOU
100
AcDbLine
 10
1228.689753794258
 20
1275.125919511107
 30
0.0
 11
1280.651278021321
 21
1365.125919511107
 31
0.0
  0
LINE
  5
282F4
330
27F29
100
AcDbEntity
  8
SUNPOU
100
AcDbLine
 10
1176.728229567187
 20
1365.125919511107
 30
0.0
 11
1228.689753794258
 21
1275.125919511107
 31
0.0
  0
TEXT
  5
282F5
330
27F29
100
AcDbEntity
  8
SUNPOU
100
AcDbText
 10
1160.118325222829
 20
1410.125919511107
 30
0.0
 40
90.0
  1
F.L
 41
0.6666666666666666
  7
00
 72
     4
 11
1228.689753794258
 21
1455.125919511107
 31
0.0
100
AcDbText
  0
LINE
  5
282F6
330
27F29
100
AcDbEntity
  8
SUNPOU
100
AcDbLine
 10
1280.651278021321
 20
1365.125919511107
 30
0.0
 11
1176.728229567187
 21
1365.125919511107
 31
0.0
  0
LINE
  5
282F7
330
27F29
100
AcDbEntity
  8
SUNPOU
100
AcDbLine
 10
593.3791602660867
 20
1315.125919511109
 30
0.0
 11
645.3406844931496
 21
1225.125919511109
 31
0.0
  0
LINE
  5
282F8
330
27F29
100
AcDbEntity
  8
SUNPOU
100
AcDbLine
 10
645.3406844931496
 20
1225.125919511109
 30
0.0
 11
697.3022087202198
 21
1315.125919511109
 31
0.0
  0
TEXT
  5
282F9
330
27F29
100
AcDbEntity
  8
SUNPOU
100
AcDbText
 10
573.9121130645782
 20
1360.125919511109
 30
0.0
 40
90.0
  1
G.L
 41
0.6666666666666666
  7
00
 72
     4
 11
645.3406844931496
 21
1405.125919511108
 31
0.0
100
AcDbText
  0
LINE
  5
282FA
330
27F29
100
AcDbEntity
  8
SUNPOU
100
AcDbLine
 10
697.3022087202198
 20
1315.125919511109
 30
0.0
 11
593.3791602660867
 21
1315.125919511109
 31
0.0
  0
TEXT
  5
282FB
330
27F29
100
AcDbEntity
  8
SUNPOU
100
AcDbText
 10
2733.476553251557
 20
3821.659309314529
 30
0.0
 40
90.0
  1
10
 41
0.6666666666666666
  7
00
 72
     4
 11
2794.905124680128
 21
3866.659309314529
 31
0.0
100
AcDbText
  0
LINE
  5
282FC
330
27F29
100
AcDbEntity
  8
SUNPOU
100
AcDbLine
 10
2944.90512468013
 20
3776.659309314529
 30
0.0
 11
2644.905124680129
 21
3776.659309314529
 31
0.0
  0
LINE
  5
282FD
330
27F29
100
AcDbEntity
  8
SUNPOU
100
AcDbLine
 10
2644.905124680129
 20
3776.659309314529
 30
0.0
 11
2944.90512468013
 21
3756.659309314528
 31
0.0
  0
TEXT
  5
282FE
330
27F29
100
AcDbEntity
  8
SUNPOU
100
AcDbText
 10
2985.233801697598
 20
3721.659309314529
 30
0.0
 40
90.0
  1
1
 41
0.6666666666666666
  7
00
 72
     4
 11
3009.519515983312
 21
3766.659309314529
 31
0.0
100
AcDbText
  0
LINE
  5
282FF
330
27F29
100
AcDbEntity
  8
SUNPOU
100
AcDbLine
 10
2944.90512468013
 20
3776.659309314529
 30
0.0
 11
2944.90512468013
 21
3756.659309314528
 31
0.0
  0
LINE
  5
28300
330
27F29
100
AcDbEntity
  8
KERABA
100
AcDbLine
 10
1392.45960823727
 20
3340.503296544251
 30
0.0
 11
1392.259727452308
 21
3338.513309692085
 31
0.0
  0
LINE
  5
28301
330
27F29
100
AcDbEntity
  8
SANKAKU
  6
1PL-S
 62
     6
100
AcDbLine
 10
2368.84597697571
 20
3190.125919511108
 30
0.0
 11
2368.84597697571
 21
3150.125919511108
 31
0.0
  0
LINE
  5
28302
330
27F29
100
AcDbEntity
  8
SANKAKU
  6
1PL-S
 62
     6
100
AcDbLine
 10
2368.84597697571
 20
3018.625919511108
 30
0.0
 11
2368.84597697571
 21
2978.625919511108
 31
0.0
  0
LINE
  5
28303
330
27F29
100
AcDbEntity
  8
SANKAKU
100
AcDbLine
 10
2406.851603305592
 20
2968.125919511107
 30
0.0
 11
2330.845546213925
 21
2968.125919511107
 31
0.0
  0
LINE
  5
28304
330
27F29
100
AcDbEntity
  8
SANKAKU
100
AcDbLine
 10
2115.611609841308
 20
3265.85748189148
 30
0.0
 11
2111.999117699056
 21
3229.913638909605
 31
0.0
  0
LINE
  5
28305
330
27F29
100
AcDbEntity
  8
SANKAKU
100
AcDbLine
 10
2613.108323776104
 20
3215.887285560985
 30
0.0
 11
2609.492836252365
 21
3179.913638909605
 31
0.0
  0
LINE
  5
28306
330
27F29
100
AcDbEntity
  8
SANKAKU
  6
1PL-S
 62
     6
100
AcDbLine
 10
2388.84597697571
 20
3170.125919511108
 30
0.0
 11
2348.845976975711
 21
3170.125919511108
 31
0.0
  0
CIRCLE
  5
28307
330
27F29
100
AcDbEntity
  8
SANKAKU
100
AcDbCircle
 10
2368.84597697571
 20
3170.125919511108
 30
0.0
 40
6.0
  0
CIRCLE
  5
28308
330
27F29
100
AcDbEntity
  8
SANKAKU
100
AcDbCircle
 10
2368.84597697571
 20
3170.125919511108
 30
0.0
 40
11.0
  0
CIRCLE
  5
28309
330
27F29
100
AcDbEntity
  8
SANKAKU
100
AcDbCircle
 10
2368.84597697571
 20
3170.125919511108
 30
0.0
 40
12.5
  0
CIRCLE
  5
2830A
330
27F29
100
AcDbEntity
  8
SANKAKU
100
AcDbCircle
 10
2368.84597697571
 20
2998.625919511107
 30
0.0
 40
12.5
  0
CIRCLE
  5
2830B
330
27F29
100
AcDbEntity
  8
SANKAKU
100
AcDbCircle
 10
2368.84597697571
 20
2998.625919511107
 30
0.0
 40
11.0
  0
CIRCLE
  5
2830C
330
27F29
100
AcDbEntity
  8
SANKAKU
100
AcDbCircle
 10
2368.84597697571
 20
2998.625919511107
 30
0.0
 40
6.0
  0
LINE
  5
2830D
330
27F29
100
AcDbEntity
  8
SANKAKU
  6
1PL-S
 62
     6
100
AcDbLine
 10
2388.84597697571
 20
2998.625919511107
 30
0.0
 11
2348.845976975711
 21
2998.625919511107
 31
0.0
  0
ARC
  5
2830E
330
27F29
100
AcDbEntity
  8
SANKAKU
100
AcDbCircle
 10
1899.048977108617
 20
2833.489323784367
 30
0.0
 40
450.0
100
AcDbArc
 50
17.30831855327305
 51
61.75631760499999
  0
ARC
  5
2830F
330
27F29
100
AcDbEntity
  8
SANKAKU
100
AcDbCircle
 10
2740.63389120482
 20
2855.410905938129
 30
0.0
 40
350.0
100
AcDbArc
 50
112.0050756645566
 51
161.3442910395519
  0
ARC
  5
28310
330
27F29
100
AcDbEntity
  8
SANKAKU
100
AcDbCircle
 10
2740.63389120482
 20
2855.410905938129
 30
0.0
 40
370.0
100
AcDbArc
 50
120.2149754166317
 51
147.1532297771698
  0
ARC
  5
28311
330
27F29
100
AcDbEntity
  8
SANKAKU
100
AcDbCircle
 10
2740.63389120482
 20
2855.410905938129
 30
0.0
 40
376.0
100
AcDbArc
 50
120.2149754166317
 51
147.1532297771698
  0
LINE
  5
28312
330
27F29
100
AcDbEntity
  8
SANKAKU
100
AcDbLine
 10
2188.458389362483
 20
3241.023400120059
 30
0.0
 11
2322.945976975709
 21
3227.506888996631
 31
0.0
  0
LINE
  5
28313
330
27F29
100
AcDbEntity
  8
SANKAKU
100
AcDbLine
 10
2400.345976975711
 20
3202.039230757963
 30
0.0
 11
2400.345976975711
 21
3064.775059233131
 31
0.0
  0
LINE
  5
28314
330
27F29
100
AcDbEntity
  8
SANKAKU
100
AcDbLine
 10
2406.34597697571
 20
3202.039230757963
 30
0.0
 11
2406.34597697571
 21
3064.775059233131
 31
0.0
  0
ARC
  5
28315
330
27F29
100
AcDbEntity
  8
SANKAKU
100
AcDbCircle
 10
2416.345976975711
 20
3202.039230757963
 30
0.0
 40
10.0
100
AcDbArc
 50
84.26082952271237
 51
180.0
  0
LINE
  5
28316
330
27F29
100
AcDbEntity
  8
SANKAKU
100
AcDbLine
 10
2331.345976975711
 20
3211.587090002925
 30
0.0
 11
2331.345976975711
 21
3074.032966193084
 31
0.0
  0
LINE
  5
28317
330
27F29
100
AcDbEntity
  8
SANKAKU
100
AcDbLine
 10
2337.345976975711
 20
3211.587090002925
 30
0.0
 11
2337.345976975711
 21
3074.032966193084
 31
0.0
  0
ARC
  5
28318
330
27F29
100
AcDbEntity
  8
SANKAKU
100
AcDbCircle
 10
1899.048977108617
 20
2833.489323784367
 30
0.0
 40
470.0
100
AcDbArc
 50
29.66617416802954
 51
53.68668615360108
  0
ARC
  5
28319
330
27F29
100
AcDbEntity
  8
SANKAKU
100
AcDbCircle
 10
1899.048977108617
 20
2833.489323784367
 30
0.0
 40
476.0
100
AcDbArc
 50
29.66617416802954
 51
53.68668615360108
  0
LINE
  5
2831A
330
27F29
100
AcDbEntity
  8
SANKAKU
100
AcDbLine
 10
2187.858389362481
 20
3235.053475497421
 30
0.0
 11
2322.34597697571
 21
3221.536964373991
 31
0.0
  0
LINE
  5
2831B
330
27F29
100
AcDbEntity
  8
SANKAKU
100
AcDbLine
 10
2417.345976975711
 20
3211.98910512903
 30
0.0
 11
2547.381002664838
 21
3198.92009331645
 31
0.0
  0
LINE
  5
2831C
330
27F29
100
AcDbEntity
  8
SANKAKU
100
AcDbLine
 10
2417.945976975711
 20
3217.959029751669
 30
0.0
 11
2547.981002664839
 21
3204.890017939092
 31
0.0
  0
ARC
  5
2831D
330
27F29
100
AcDbEntity
  8
SANKAKU
100
AcDbCircle
 10
2321.345976975711
 20
3211.587090002925
 30
0.0
 40
10.0
100
AcDbArc
 50
0.0
 51
84.26082952271237
  0
ARC
  5
2831E
330
27F29
100
AcDbEntity
  8
SANKAKU
100
AcDbCircle
 10
2186.85838936248
 20
3225.103601126355
 30
0.0
 40
10.0
100
AcDbArc
 50
84.26082952271237
 51
233.6866861536011
  0
ARC
  5
2831F
330
27F29
100
AcDbEntity
  8
SANKAKU
100
AcDbCircle
 10
2321.345976975711
 20
3074.032966193084
 30
0.0
 40
10.0
100
AcDbArc
 50
209.6661741680295
 51
0.0
  0
ARC
  5
28320
330
27F29
100
AcDbEntity
  8
SANKAKU
100
AcDbCircle
 10
2186.85838936248
 20
3225.103601126355
 30
0.0
 40
16.0
100
AcDbArc
 50
84.26082952271237
 51
233.6866861536011
  0
ARC
  5
28321
330
27F29
100
AcDbEntity
  8
SANKAKU
100
AcDbCircle
 10
2321.345976975711
 20
3211.587090002925
 30
0.0
 40
16.0
100
AcDbArc
 50
0.0
 51
84.26082952271237
  0
ARC
  5
28322
330
27F29
100
AcDbEntity
  8
SANKAKU
100
AcDbCircle
 10
2321.345976975711
 20
3074.032966193084
 30
0.0
 40
16.0
100
AcDbArc
 50
209.6661741680295
 51
0.0
  0
ARC
  5
28323
330
27F29
100
AcDbEntity
  8
SANKAKU
100
AcDbCircle
 10
2416.345976975711
 20
3202.039230757963
 30
0.0
 40
16.0
100
AcDbArc
 50
84.26082952271237
 51
180.0
  0
ARC
  5
28324
330
27F29
100
AcDbEntity
  8
SANKAKU
100
AcDbCircle
 10
2546.381002664838
 20
3188.970218945385
 30
0.0
 40
16.0
100
AcDbArc
 50
300.2149754166317
 51
84.26082952271237
  0
ARC
  5
28325
330
27F29
100
AcDbEntity
  8
SANKAKU
100
AcDbCircle
 10
2416.345976975711
 20
3064.775059233131
 30
0.0
 40
16.0
100
AcDbArc
 50
180.0
 51
327.1532297771698
  0
ARC
  5
28326
330
27F29
100
AcDbEntity
  8
SANKAKU
100
AcDbCircle
 10
2546.381002664838
 20
3188.970218945385
 30
0.0
 40
10.0
100
AcDbArc
 50
300.2149754166317
 51
84.26082952271237
  0
ARC
  5
28327
330
27F29
100
AcDbEntity
  8
SANKAKU
100
AcDbCircle
 10
2416.345976975711
 20
3064.775059233131
 30
0.0
 40
10.0
100
AcDbArc
 50
180.0
 51
327.1532297771698
  0
LINE
  5
28328
330
27F29
100
AcDbEntity
  8
SANKAKU
100
AcDbLine
 10
2409.023648465659
 20
2967.369143287932
 30
0.0
 11
2406.846129691753
 21
2968.125919511107
 31
0.0
  0
LINE
  5
28329
330
27F29
100
AcDbEntity
  8
SANKAKU
100
AcDbLine
 10
2328.671903736649
 20
2967.370393826275
 30
0.0
 11
2330.845824259667
 21
2968.125919511107
 31
0.0
  0
TEXT
  5
2832A
330
27F29
100
AcDbEntity
  8
HIKIDASHI
100
AcDbText
 10
1497.790449377063
 20
772.1542897016529
 30
0.0
 40
135.0
  1
側 面 立 面 図
  7
01
 72
     2
 11
2586.790449377063
 21
772.1542897016529
 31
0.0
100
AcDbText
  0
TEXT
  5
2832B
330
27F29
100
AcDbEntity
  8
HIKIDASHI
100
AcDbText
 10
2688.040449377063
 20
798.9477867614909
 30
0.0
 40
90.0
  1
(S=
 41
0.6700000000000001
  7
00
100
AcDbText
  0
TEXT
  5
2832C
330
27F29
100
AcDbEntity
  8
HIKIDASHI
100
AcDbText
 10
2980.69818401226
 20
769.5089766611812
 30
0.0
 40
90.0
  1
30
 41
0.6700000000000001
  7
00
100
AcDbText
  0
TEXT
  5
2832D
330
27F29
100
AcDbEntity
  8
HIKIDASHI
100
AcDbText
 10
3117.302947082499
 20
798.9477867614909
 30
0.0
 40
90.0
  1
)
 41
0.6700000000000001
  7
00
100
AcDbText
  0
TEXT
  5
2832E
330
27F29
100
AcDbEntity
  8
HIKIDASHI
100
AcDbText
 10
2928.616134904293
 20
798.9477867614909
 30
0.0
 40
90.0
  1
/
 41
0.6700000000000001
  7
00
100
AcDbText
  0
TEXT
  5
2832F
330
27F29
100
AcDbEntity
  8
HIKIDASHI
100
AcDbText
 10
2891.336854806946
 20
816.4544492282143
 30
0.0
 40
90.0
  1
1
 41
0.6700000000000001
  7
00
100
AcDbText
  0
LINE
  5
28330
330
27F29
100
AcDbEntity
  8
KETA_KANAGU
100
AcDbLine
 10
7091.236746661415
 20
3147.358500717778
 30
0.0
 11
7106.161558218015
 21
3145.858500717779
 31
0.0
  0
LINE
  5
28331
330
27F29
100
AcDbEntity
  8
KETA_KANAGU
100
AcDbLine
 10
5728.103957825346
 20
3284.358500717778
 30
0.0
 11
5713.17914626875
 21
3285.858500717778
 31
0.0
  0
TEXT
  5
28332
330
27F29
100
AcDbEntity
  8
FILENAME
100
AcDbText
 10
10651.5
 20
130.4999999999999
 30
0.0
 40
75.0
  1
＜YOTC-315_1_JIS_GL.DXF ＞
  7
FILENAME
 72
     2
 11
12286.5
 21
130.4999999999999
 31
0.0
100
AcDbText
  0
LINE
  5
28333
330
27F29
100
AcDbEntity
  8
WAKUSEN-01
100
AcDbLine
 10
325.5000000000006
 20
310.4999999999997
 30
0.0
 11
12286.5
 21
310.4999999999997
 31
0.0
  0
LINE
  5
28334
330
27F29
100
AcDbEntity
  8
WAKUSEN-01
100
AcDbLine
 10
325.5000000000006
 20
8431.500000000003
 30
0.0
 11
12286.5
 21
8431.500000000003
 31
0.0
  0
LINE
  5
28335
330
27F29
100
AcDbEntity
  8
WAKUSEN-01
100
AcDbLine
 10
325.5000000000006
 20
310.4999999999997
 30
0.0
 11
325.5000000000006
 21
8431.500000000003
 31
0.0
  0
LINE
  5
28336
330
27F29
100
AcDbEntity
  8
WAKUSEN-01
100
AcDbLine
 10
12286.5
 20
310.4999999999997
 30
0.0
 11
12286.5
 21
8431.500000000003
 31
0.0
  0
LINE
  5
28337
330
27F29
100
AcDbEntity
  8
WAKUSEN-01
100
AcDbLine
 10
7710.0
 20
931.4999999999999
 30
0.0
 11
12286.5
 21
931.4999999999995
 31
0.0
  0
LINE
  5
28338
330
27F29
100
AcDbEntity
  8
WAKUSEN-02
100
AcDbLine
 10
7710.0
 20
620.9999999999999
 30
0.0
 11
10075.49999999999
 21
620.9999999999999
 31
0.0
  0
TEXT
  5
28339
330
27F29
100
AcDbEntity
  8
WAKUMOJI-01
100
AcDbText
 10
7751.347597486038
 20
797.2136285022457
 30
0.0
 40
90.0
  1
名　称
  7
WAKUMOJI
100
AcDbText
  0
TEXT
  5
2833A
330
27F29
100
AcDbEntity
  8
WAKUMOJI-01
100
AcDbText
 10
7746.18955690947
 20
494.6733656174329
 30
0.0
 40
90.0
  1
機種名
  7
WAKUMOJI
100
AcDbText
  0
LINE
  5
2833B
330
27F29
100
AcDbEntity
  8
WAKUSEN-01
100
AcDbLine
 10
7710.0
 20
310.4999999999989
 30
0.0
 11
7710.0
 21
931.4999999999999
 31
0.0
  0
LINE
  5
2833C
330
27F29
100
AcDbEntity
  8
WAKUSEN-02
100
AcDbLine
 10
10075.49999999999
 20
310.4999999999973
 30
0.0
 11
10075.49999999999
 21
931.4999999999999
 31
0.0
  0
LINE
  5
2833D
330
27F29
100
AcDbEntity
  8
YODOROGO
100
AcDbLine
 10
11241.60162798446
 20
748.4060611609828
 30
0.0
 11
11186.10162798447
 21
748.4060611609828
 31
0.0
1001
AUTOCAD_POSTSCRIPT_FIGURE
1002
{
1000
PSFILL
1000
Grayscale
1000
Grayscale
1070
    25
1002
}
  0
LINE
  5
2833E
330
27F29
100
AcDbEntity
  8
YODOROGO
100
AcDbLine
 10
11186.10162798447
 20
730.4060611609828
 30
0.0
 11
11241.60162798446
 21
730.4060611609828
 31
0.0
1001
AUTOCAD_POSTSCRIPT_FIGURE
1002
{
1000
PSFILL
1000
Grayscale
1000
Grayscale
1070
    25
1002
}
  0
LINE
  5
2833F
330
27F29
100
AcDbEntity
  8
YODOROGO
100
AcDbLine
 10
11241.60162798446
 20
715.4060611609828
 30
0.0
 11
11186.10162798447
 21
715.4060611609828
 31
0.0
1001
AUTOCAD_POSTSCRIPT_FIGURE
1002
{
1000
PSFILL
1000
Grayscale
1000
Grayscale
1070
    25
1002
}
  0
LINE
  5
28340
330
27F29
100
AcDbEntity
  8
YODOROGO
100
AcDbLine
 10
11186.10162798447
 20
697.406061160983
 30
0.0
 11
11241.60162798446
 21
697.406061160983
 31
0.0
1001
AUTOCAD_POSTSCRIPT_FIGURE
1002
{
1000
PSFILL
1000
Grayscale
1000
Grayscale
1070
    25
1002
}
  0
LINE
  5
28341
330
27F29
100
AcDbEntity
  8
YODOROGO
100
AcDbLine
 10
11241.60162798446
 20
682.4060611609827
 30
0.0
 11
11186.10162798447
 21
682.4060611609827
 31
0.0
1001
AUTOCAD_POSTSCRIPT_FIGURE
1002
{
1000
PSFILL
1000
Grayscale
1000
Grayscale
1070
    25
1002
}
  0
LINE
  5
28342
330
27F29
100
AcDbEntity
  8
YODOROGO
100
AcDbLine
 10
11220.60162798447
 20
640.4060611609827
 30
0.0
 11
11241.60162798446
 21
640.4060611609827
 31
0.0
1001
AUTOCAD_POSTSCRIPT_FIGURE
1002
{
1000
PSFILL
1000
Grayscale
1000
Grayscale
1070
    25
1002
}
  0
LINE
  5
28343
330
27F29
100
AcDbEntity
  8
YODOROGO
100
AcDbLine
 10
11151.60162798447
 20
535.4060611609829
 30
0.0
 11
11226.60162798446
 21
555.5022505933163
 31
0.0
  0
LINE
  5
28344
330
27F29
100
AcDbEntity
  8
YODOROGO
100
AcDbLine
 10
11231.10162798446
 20
640.4060611609827
 30
0.0
 11
11207.10162798447
 21
640.4060611609827
 31
0.0
  0
ARC
  5
28345
330
27F29
100
AcDbEntity
  8
YODOROGO
100
AcDbCircle
 10
11345.38040618545
 20
677.9492284624735
 30
0.0
 40
143.2075740771177
100
AcDbArc
 50
213.9611167766784
 51
264.4787207431779
  0
ARC
  5
28346
330
27F29
100
AcDbEntity
  8
YODOROGO
100
AcDbCircle
 10
11345.38040618547
 20
677.9492284624883
 30
0.0
 40
143.2075740771305
100
AcDbArc
 50
208.141144204866
 51
212.9210361185994
  0
LINE
  5
28347
330
27F29
100
AcDbEntity
  8
YODOROGO
100
AcDbLine
 10
11164.27870236948
 20
583.8028730048376
 30
0.0
 11
11225.1690496907
 21
600.1183923964076
 31
0.0
  0
LINE
  5
28348
330
27F29
100
AcDbEntity
  8
YODOROGO
100
AcDbLine
 10
11151.60162798447
 20
535.4060611609829
 30
0.0
 11
11226.60162798446
 21
555.5022505933163
 31
0.0
  0
LINE
  5
28349
330
27F29
100
AcDbEntity
  8
YODOROGO
100
AcDbLine
 10
11231.10162798446
 20
640.4060611609827
 30
0.0
 11
11207.10162798447
 21
640.4060611609827
 31
0.0
  0
ARC
  5
2834A
330
27F29
100
AcDbEntity
  8
YODOROGO
100
AcDbCircle
 10
11345.38040618545
 20
677.9492284624735
 30
0.0
 40
143.2075740771177
100
AcDbArc
 50
213.9611167766784
 51
264.4787207431779
  0
LINE
  5
2834B
330
27F29
100
AcDbEntity
  8
YODOROGO
100
AcDbLine
 10
10797.60162798446
 20
682.4060611609827
 30
0.0
 11
10662.60162798446
 21
682.4060611609827
 31
0.0
  0
LINE
  5
2834C
330
27F29
100
AcDbEntity
  8
YODOROGO
100
AcDbLine
 10
10692.60162798446
 20
535.4060611609829
 30
0.0
 11
10797.60162798446
 21
535.4060611609829
 31
0.0
  0
LINE
  5
2834D
330
27F29
100
AcDbEntity
  8
YODOROGO
100
AcDbLine
 10
10773.60162798447
 20
721.4060611609824
 30
0.0
 11
10686.60162798446
 21
721.4060611609824
 31
0.0
  0
LINE
  5
2834E
330
27F29
100
AcDbEntity
  8
YODOROGO
100
AcDbLine
 10
10719.60162798446
 20
760.4060611609829
 30
0.0
 11
10746.60162798447
 21
760.4060611609829
 31
0.0
  0
LINE
  5
2834F
330
27F29
100
AcDbEntity
  8
YODOROGO
100
AcDbLine
 10
10662.60162798446
 20
640.4060611609827
 30
0.0
 11
10662.60162798446
 21
565.4060611609827
 31
0.0
  0
LINE
  5
28350
330
27F29
100
AcDbEntity
  8
YODOROGO
100
AcDbLine
 10
10686.60162798446
 20
586.4060611609825
 30
0.0
 11
10686.60162798446
 21
640.4060611609827
 31
0.0
  0
LINE
  5
28351
330
27F29
100
AcDbEntity
  8
YODOROGO
100
AcDbLine
 10
10719.60162798446
 20
655.4060611609838
 30
0.0
 11
10719.60162798446
 21
580.406061160983
 31
0.0
  0
LINE
  5
28352
330
27F29
100
AcDbEntity
  8
YODOROGO
100
AcDbLine
 10
10446.60162798447
 20
631.4060611609833
 30
0.0
 11
10416.60162798446
 21
607.4896552667143
 31
0.0
  0
LINE
  5
28353
330
27F29
100
AcDbEntity
  8
YODOROGO
100
AcDbLine
 10
10476.60162798446
 20
607.4896552667143
 30
0.0
 11
10446.60162798447
 21
631.4060611609833
 31
0.0
  0
LINE
  5
28354
330
27F29
100
AcDbEntity
  8
YODOROGO
100
AcDbLine
 10
10446.60162798447
 20
640.4060611609827
 30
0.0
 11
10476.60162798446
 21
616.4896552667136
 31
0.0
  0
LINE
  5
28355
330
27F29
100
AcDbEntity
  8
YODOROGO
100
AcDbLine
 10
10416.60162798446
 20
616.4896552667136
 30
0.0
 11
10446.60162798447
 21
640.4060611609827
 31
0.0
  0
LINE
  5
28356
330
27F29
100
AcDbEntity
  8
YODOROGO
100
AcDbLine
 10
10515.34245150633
 20
622.406061160983
 30
0.0
 11
10515.34245150633
 21
631.4060611609825
 31
0.0
  0
LINE
  5
28357
330
27F29
100
AcDbEntity
  8
YODOROGO
100
AcDbLine
 10
10491.60162798447
 20
631.4060611609825
 30
0.0
 11
10491.60162798447
 21
625.4060611609819
 31
0.0
  0
LINE
  5
28358
330
27F29
100
AcDbEntity
  8
YODOROGO
100
AcDbLine
 10
10536.8008200866
 20
640.4060611609827
 30
0.0
 11
10536.8008200866
 21
620.813863977996
 31
0.0
1001
AUTOCAD_POSTSCRIPT_FIGURE
1002
{
1000
PSFILL
1000
Grayscale
1000
Grayscale
1070
   100
1002
}
  0
LINE
  5
28359
330
27F29
100
AcDbEntity
  8
YODOROGO
100
AcDbLine
 10
10530.80082008658
 20
620.813863977996
 30
0.0
 11
10530.80082008658
 21
640.4060611609827
 31
0.0
1001
AUTOCAD_POSTSCRIPT_FIGURE
1002
{
1000
PSFILL
1000
Grayscale
1000
Grayscale
1070
   100
1002
}
  0
LINE
  5
2835A
330
27F29
100
AcDbEntity
  8
YODOROGO
100
AcDbLine
 10
10428.60162798447
 20
603.2894640162218
 30
0.0
 11
10428.60162798447
 21
612.2894640162221
 31
0.0
  0
LINE
  5
2835B
330
27F29
100
AcDbEntity
  8
YODOROGO
100
AcDbLine
 10
10464.60162798447
 20
603.2894640162218
 30
0.0
 11
10428.60162798447
 21
603.2894640162218
 31
0.0
  0
LINE
  5
2835C
330
27F29
100
AcDbEntity
  8
YODOROGO
100
AcDbLine
 10
10464.60162798447
 20
612.2894640162221
 30
0.0
 11
10464.60162798447
 21
603.2894640162218
 31
0.0
  0
LINE
  5
2835D
330
27F29
100
AcDbEntity
  8
YODOROGO
100
AcDbLine
 10
10428.60162798447
 20
612.2894640162221
 30
0.0
 11
10464.60162798447
 21
612.2894640162221
 31
0.0
  0
LINE
  5
2835E
330
27F29
100
AcDbEntity
  8
YODOROGO
100
AcDbLine
 10
10434.1910958434
 20
588.1885715139278
 30
0.0
 11
10419.60162798446
 21
553.4060611609827
 31
0.0
1001
AUTOCAD_POSTSCRIPT_FIGURE
1002
{
1000
PSFILL
1000
Grayscale
1000
Grayscale
1070
   100
1002
}
  0
LINE
  5
2835F
330
27F29
100
AcDbEntity
  8
YODOROGO
100
AcDbLine
 10
10416.60162798446
 20
588.1885715139278
 30
0.0
 11
10434.1910958434
 21
588.1885715139278
 31
0.0
1001
AUTOCAD_POSTSCRIPT_FIGURE
1002
{
1000
PSFILL
1000
Grayscale
1000
Grayscale
1070
   100
1002
}
  0
LINE
  5
28360
330
27F29
100
AcDbEntity
  8
YODOROGO
100
AcDbLine
 10
10416.60162798446
 20
595.688571513928
 30
0.0
 11
10416.60162798446
 21
588.1885715139278
 31
0.0
1001
AUTOCAD_POSTSCRIPT_FIGURE
1002
{
1000
PSFILL
1000
Grayscale
1000
Grayscale
1070
   100
1002
}
  0
LINE
  5
28361
330
27F29
100
AcDbEntity
  8
YODOROGO
100
AcDbLine
 10
10476.60162798446
 20
595.688571513928
 30
0.0
 11
10416.60162798446
 21
595.688571513928
 31
0.0
1001
AUTOCAD_POSTSCRIPT_FIGURE
1002
{
1000
PSFILL
1000
Grayscale
1000
Grayscale
1070
   100
1002
}
  0
LINE
  5
28362
330
27F29
100
AcDbEntity
  8
YODOROGO
100
AcDbLine
 10
10476.60162798446
 20
588.1885715139278
 30
0.0
 11
10476.60162798446
 21
595.688571513928
 31
0.0
1001
AUTOCAD_POSTSCRIPT_FIGURE
1002
{
1000
PSFILL
1000
Grayscale
1000
Grayscale
1070
   100
1002
}
  0
LINE
  5
28363
330
27F29
100
AcDbEntity
  8
YODOROGO
100
AcDbLine
 10
10441.69109584339
 20
588.1885715139278
 30
0.0
 11
10476.60162798446
 21
588.1885715139278
 31
0.0
1001
AUTOCAD_POSTSCRIPT_FIGURE
1002
{
1000
PSFILL
1000
Grayscale
1000
Grayscale
1070
   100
1002
}
  0
LINE
  5
28364
330
27F29
100
AcDbEntity
  8
YODOROGO
100
AcDbLine
 10
10430.83001935679
 20
560.9060611609827
 30
0.0
 11
10441.69109584339
 21
588.1885715139278
 31
0.0
1001
AUTOCAD_POSTSCRIPT_FIGURE
1002
{
1000
PSFILL
1000
Grayscale
1000
Grayscale
1070
   100
1002
}
  0
LINE
  5
28365
330
27F29
100
AcDbEntity
  8
YODOROGO
100
AcDbLine
 10
10463.27054655324
 20
560.9060611609827
 30
0.0
 11
10430.83001935679
 21
560.9060611609827
 31
0.0
1001
AUTOCAD_POSTSCRIPT_FIGURE
1002
{
1000
PSFILL
1000
Grayscale
1000
Grayscale
1070
   100
1002
}
  0
LINE
  5
28366
330
27F29
100
AcDbEntity
  8
YODOROGO
100
AcDbLine
 10
10456.8993767966
 20
576.0876790116348
 30
0.0
 11
10463.27054655324
 21
560.9060611609827
 31
0.0
1001
AUTOCAD_POSTSCRIPT_FIGURE
1002
{
1000
PSFILL
1000
Grayscale
1000
Grayscale
1070
   100
1002
}
  0
LINE
  5
28367
330
27F29
100
AcDbEntity
  8
YODOROGO
100
AcDbLine
 10
10462.8993767966
 20
576.0876790116348
 30
0.0
 11
10456.8993767966
 21
576.0876790116348
 31
0.0
1001
AUTOCAD_POSTSCRIPT_FIGURE
1002
{
1000
PSFILL
1000
Grayscale
1000
Grayscale
1070
   100
1002
}
  0
LINE
  5
28368
330
27F29
100
AcDbEntity
  8
YODOROGO
100
AcDbLine
 10
10473.60162798447
 20
553.4060611609827
 30
0.0
 11
10462.8993767966
 21
576.0876790116348
 31
0.0
1001
AUTOCAD_POSTSCRIPT_FIGURE
1002
{
1000
PSFILL
1000
Grayscale
1000
Grayscale
1070
   100
1002
}
  0
LINE
  5
28369
330
27F29
100
AcDbEntity
  8
YODOROGO
100
AcDbLine
 10
10419.60162798446
 20
553.4060611609827
 30
0.0
 11
10473.60162798447
 21
553.4060611609827
 31
0.0
1001
AUTOCAD_POSTSCRIPT_FIGURE
1002
{
1000
PSFILL
1000
Grayscale
1000
Grayscale
1070
   100
1002
}
  0
LINE
  5
2836A
330
27F29
100
AcDbEntity
  8
YODOROGO
100
AcDbLine
 10
10416.60162798446
 20
607.4896552667143
 30
0.0
 11
10416.60162798446
 21
616.4896552667136
 31
0.0
  0
LINE
  5
2836B
330
27F29
100
AcDbEntity
  8
YODOROGO
100
AcDbLine
 10
10476.60162798446
 20
616.4896552667136
 30
0.0
 11
10476.60162798446
 21
607.4896552667143
 31
0.0
  0
ARC
  5
2836C
330
27F29
100
AcDbEntity
  8
YODOROGO
100
AcDbCircle
 10
10584.72766580511
 20
600.3291619969972
 30
0.0
 40
65.99999999999997
100
AcDbArc
 50
280.3644312771313
 51
3.541483659218056
  0
ARC
  5
2836D
330
27F29
100
AcDbEntity
  8
YODOROGO
100
AcDbCircle
 10
10588.40851153474
 20
612.5991776107142
 30
0.0
 40
41.99999999999936
100
AcDbArc
 50
281.2490582504155
 51
348.7509417495832
  0
LINE
  5
2836E
330
27F29
100
AcDbEntity
  8
YODOROGO
100
AcDbLine
 10
10596.60162798446
 20
571.4060611609824
 30
0.0
 11
10596.60162798446
 21
535.4060611609829
 31
0.0
  0
LINE
  5
2836F
330
27F29
100
AcDbEntity
  8
YODOROGO
100
AcDbLine
 10
10507.53333890132
 20
603.9939618982182
 30
0.0
 11
10515.34245150633
 21
622.406061160983
 31
0.0
  0
LINE
  5
28370
330
27F29
100
AcDbEntity
  8
YODOROGO
100
AcDbLine
 10
10515.60162798446
 20
593.6701837306505
 30
0.0
 11
10507.53333890132
 21
603.9939618982182
 31
0.0
  0
LINE
  5
28371
330
27F29
100
AcDbEntity
  8
YODOROGO
100
AcDbLine
 10
10515.60162798446
 20
586.1701837306497
 30
0.0
 11
10515.60162798446
 21
593.6701837306505
 31
0.0
  0
LINE
  5
28372
330
27F29
100
AcDbEntity
  8
YODOROGO
100
AcDbLine
 10
10506.60162798447
 20
594.4638989060739
 30
0.0
 11
10515.60162798446
 21
586.1701837306497
 31
0.0
  0
LINE
  5
28373
330
27F29
100
AcDbEntity
  8
YODOROGO
100
AcDbLine
 10
10506.60162798447
 20
553.4060611609827
 30
0.0
 11
10506.60162798447
 21
594.4638989060739
 31
0.0
  0
LINE
  5
28374
330
27F29
100
AcDbEntity
  8
YODOROGO
100
AcDbLine
 10
10500.60162798446
 20
553.4060611609827
 30
0.0
 11
10506.60162798447
 21
553.4060611609827
 31
0.0
  0
LINE
  5
28375
330
27F29
100
AcDbEntity
  8
YODOROGO
100
AcDbLine
 10
10500.60162798446
 20
592.5020061336555
 30
0.0
 11
10500.60162798446
 21
553.4060611609827
 31
0.0
  0
LINE
  5
28376
330
27F29
100
AcDbEntity
  8
YODOROGO
100
AcDbLine
 10
10491.60162798447
 20
574.7880296375358
 30
0.0
 11
10500.60162798446
 21
592.5020061336555
 31
0.0
  0
LINE
  5
28377
330
27F29
100
AcDbEntity
  8
YODOROGO
100
AcDbLine
 10
10491.60162798447
 20
583.788029637536
 30
0.0
 11
10491.60162798447
 21
574.7880296375358
 31
0.0
  0
LINE
  5
28378
330
27F29
100
AcDbEntity
  8
YODOROGO
100
AcDbLine
 10
10509.68579035926
 20
625.4060611609819
 30
0.0
 11
10491.60162798447
 21
583.788029637536
 31
0.0
  0
LINE
  5
28379
330
27F29
100
AcDbEntity
  8
YODOROGO
100
AcDbLine
 10
10491.60162798447
 20
625.4060611609819
 30
0.0
 11
10509.68579035926
 21
625.4060611609819
 31
0.0
  0
LINE
  5
2837A
330
27F29
100
AcDbEntity
  8
YODOROGO
100
AcDbLine
 10
10518.80082008659
 20
620.813863977996
 30
0.0
 11
10530.80082008658
 21
620.813863977996
 31
0.0
1001
AUTOCAD_POSTSCRIPT_FIGURE
1002
{
1000
PSFILL
1000
Grayscale
1000
Grayscale
1070
   100
1002
}
  0
LINE
  5
2837B
330
27F29
100
AcDbEntity
  8
YODOROGO
100
AcDbLine
 10
10518.80082008659
 20
611.8138639779965
 30
0.0
 11
10518.80082008659
 21
620.813863977996
 31
0.0
1001
AUTOCAD_POSTSCRIPT_FIGURE
1002
{
1000
PSFILL
1000
Grayscale
1000
Grayscale
1070
   100
1002
}
  0
LINE
  5
2837C
330
27F29
100
AcDbEntity
  8
YODOROGO
100
AcDbLine
 10
10530.80082008658
 20
611.8138639779965
 30
0.0
 11
10518.80082008659
 21
611.8138639779965
 31
0.0
1001
AUTOCAD_POSTSCRIPT_FIGURE
1002
{
1000
PSFILL
1000
Grayscale
1000
Grayscale
1070
   100
1002
}
  0
LINE
  5
2837D
330
27F29
100
AcDbEntity
  8
YODOROGO
100
AcDbLine
 10
10530.80082008658
 20
562.4060611609831
 30
0.0
 11
10530.80082008658
 21
611.8138639779965
 31
0.0
1001
AUTOCAD_POSTSCRIPT_FIGURE
1002
{
1000
PSFILL
1000
Grayscale
1000
Grayscale
1070
   100
1002
}
  0
LINE
  5
2837E
330
27F29
100
AcDbEntity
  8
YODOROGO
100
AcDbLine
 10
10518.8008200866
 20
562.4060611609831
 30
0.0
 11
10530.80082008658
 21
562.4060611609831
 31
0.0
1001
AUTOCAD_POSTSCRIPT_FIGURE
1002
{
1000
PSFILL
1000
Grayscale
1000
Grayscale
1070
   100
1002
}
  0
LINE
  5
2837F
330
27F29
100
AcDbEntity
  8
YODOROGO
100
AcDbLine
 10
10518.8008200866
 20
553.4060611609827
 30
0.0
 11
10518.8008200866
 21
562.4060611609831
 31
0.0
1001
AUTOCAD_POSTSCRIPT_FIGURE
1002
{
1000
PSFILL
1000
Grayscale
1000
Grayscale
1070
   100
1002
}
  0
LINE
  5
28380
330
27F29
100
AcDbEntity
  8
YODOROGO
100
AcDbLine
 10
10551.60162798447
 20
553.4060611609827
 30
0.0
 11
10518.8008200866
 21
553.4060611609827
 31
0.0
1001
AUTOCAD_POSTSCRIPT_FIGURE
1002
{
1000
PSFILL
1000
Grayscale
1000
Grayscale
1070
   100
1002
}
  0
LINE
  5
28381
330
27F29
100
AcDbEntity
  8
YODOROGO
100
AcDbLine
 10
10551.60162798447
 20
562.4060611609831
 30
0.0
 11
10551.60162798447
 21
553.4060611609827
 31
0.0
1001
AUTOCAD_POSTSCRIPT_FIGURE
1002
{
1000
PSFILL
1000
Grayscale
1000
Grayscale
1070
   100
1002
}
  0
LINE
  5
28382
330
27F29
100
AcDbEntity
  8
YODOROGO
100
AcDbLine
 10
10536.8008200866
 20
562.4060611609831
 30
0.0
 11
10551.60162798447
 21
562.4060611609831
 31
0.0
1001
AUTOCAD_POSTSCRIPT_FIGURE
1002
{
1000
PSFILL
1000
Grayscale
1000
Grayscale
1070
   100
1002
}
  0
LINE
  5
28383
330
27F29
100
AcDbEntity
  8
YODOROGO
100
AcDbLine
 10
10536.8008200866
 20
611.8138639779965
 30
0.0
 11
10536.8008200866
 21
562.4060611609831
 31
0.0
1001
AUTOCAD_POSTSCRIPT_FIGURE
1002
{
1000
PSFILL
1000
Grayscale
1000
Grayscale
1070
   100
1002
}
  0
LINE
  5
28384
330
27F29
100
AcDbEntity
  8
YODOROGO
100
AcDbLine
 10
10551.60162798447
 20
611.8138639779965
 30
0.0
 11
10536.8008200866
 21
611.8138639779965
 31
0.0
1001
AUTOCAD_POSTSCRIPT_FIGURE
1002
{
1000
PSFILL
1000
Grayscale
1000
Grayscale
1070
   100
1002
}
  0
LINE
  5
28385
330
27F29
100
AcDbEntity
  8
YODOROGO
100
AcDbLine
 10
10551.60162798447
 20
620.813863977996
 30
0.0
 11
10551.60162798447
 21
611.8138639779965
 31
0.0
1001
AUTOCAD_POSTSCRIPT_FIGURE
1002
{
1000
PSFILL
1000
Grayscale
1000
Grayscale
1070
   100
1002
}
  0
LINE
  5
28386
330
27F29
100
AcDbEntity
  8
YODOROGO
100
AcDbLine
 10
10536.8008200866
 20
620.813863977996
 30
0.0
 11
10551.60162798447
 21
620.813863977996
 31
0.0
1001
AUTOCAD_POSTSCRIPT_FIGURE
1002
{
1000
PSFILL
1000
Grayscale
1000
Grayscale
1070
   100
1002
}
  0
LINE
  5
28387
330
27F29
100
AcDbEntity
  8
YODOROGO
100
AcDbLine
 10
10650.60162798447
 20
625.406061160983
 30
0.0
 11
10629.60162798447
 21
625.406061160983
 31
0.0
  0
LINE
  5
28388
330
27F29
100
AcDbEntity
  8
YODOROGO
100
AcDbLine
 10
10650.60162798447
 20
604.4060611609832
 30
0.0
 11
10650.60162798447
 21
625.406061160983
 31
0.0
  0
LINE
  5
28389
330
27F29
100
AcDbEntity
  8
YODOROGO
100
AcDbLine
 10
10629.60162798447
 20
625.406061160983
 30
0.0
 11
10629.60162798447
 21
604.4060611609832
 31
0.0
  0
ARC
  5
2838A
330
27F29
100
AcDbEntity
  8
YODOROGO
100
AcDbCircle
 10
10692.60162798446
 20
565.4060611609827
 30
0.0
 40
30.0
100
AcDbArc
 50
180.0
 51
270.0
  0
ARC
  5
2838B
330
27F29
100
AcDbEntity
  8
YODOROGO
100
AcDbCircle
 10
10701.60162798446
 20
586.4060611609825
 30
0.0
 40
15.0
100
AcDbArc
 50
180.0
 51
270.0
  0
LINE
  5
2838C
330
27F29
100
AcDbEntity
  8
YODOROGO
100
AcDbLine
 10
10710.60162798447
 20
571.4060611609824
 30
0.0
 11
10701.60162798446
 21
571.4060611609824
 31
0.0
  0
ARC
  5
2838D
330
27F29
100
AcDbEntity
  8
YODOROGO
100
AcDbCircle
 10
10710.60162798447
 20
580.4060611609819
 30
0.0
 40
8.999999999998637
100
AcDbArc
 50
270.0
 51
0.0000000000054281
  0
LINE
  5
2838E
330
27F29
100
AcDbEntity
  8
YODOROGO
100
AcDbLine
 10
10425.60162798447
 20
709.0449677976399
 30
0.0
 11
10416.60162798446
 21
691.4162804818772
 31
0.0
1001
AUTOCAD_POSTSCRIPT_FIGURE
1002
{
1000
PSFILL
1000
Grayscale
1000
Grayscale
1070
   100
1002
}
  0
LINE
  5
2838F
330
27F29
100
AcDbEntity
  8
YODOROGO
100
AcDbLine
 10
10425.60162798447
 20
655.406061160983
 30
0.0
 11
10425.60162798447
 21
709.0449677976399
 31
0.0
1001
AUTOCAD_POSTSCRIPT_FIGURE
1002
{
1000
PSFILL
1000
Grayscale
1000
Grayscale
1070
   100
1002
}
  0
LINE
  5
28390
330
27F29
100
AcDbEntity
  8
YODOROGO
100
AcDbLine
 10
10431.60162798447
 20
655.406061160983
 30
0.0
 11
10425.60162798447
 21
655.406061160983
 31
0.0
1001
AUTOCAD_POSTSCRIPT_FIGURE
1002
{
1000
PSFILL
1000
Grayscale
1000
Grayscale
1070
   100
1002
}
  0
LINE
  5
28391
330
27F29
100
AcDbEntity
  8
YODOROGO
100
AcDbLine
 10
10431.60162798447
 20
710.1642495319751
 30
0.0
 11
10431.60162798447
 21
655.406061160983
 31
0.0
1001
AUTOCAD_POSTSCRIPT_FIGURE
1002
{
1000
PSFILL
1000
Grayscale
1000
Grayscale
1070
   100
1002
}
  0
LINE
  5
28392
330
27F29
100
AcDbEntity
  8
YODOROGO
100
AcDbLine
 10
10440.60162798446
 20
700.3705343565512
 30
0.0
 11
10431.60162798447
 21
710.1642495319751
 31
0.0
1001
AUTOCAD_POSTSCRIPT_FIGURE
1002
{
1000
PSFILL
1000
Grayscale
1000
Grayscale
1070
   100
1002
}
  0
LINE
  5
28393
330
27F29
100
AcDbEntity
  8
YODOROGO
100
AcDbLine
 10
10440.60162798446
 20
706.3705343565509
 30
0.0
 11
10440.60162798446
 21
700.3705343565512
 31
0.0
1001
AUTOCAD_POSTSCRIPT_FIGURE
1002
{
1000
PSFILL
1000
Grayscale
1000
Grayscale
1070
   100
1002
}
  0
LINE
  5
28394
330
27F29
100
AcDbEntity
  8
YODOROGO
100
AcDbLine
 10
10431.60162798447
 20
719.1642495319745
 30
0.0
 11
10440.60162798446
 21
706.3705343565509
 31
0.0
1001
AUTOCAD_POSTSCRIPT_FIGURE
1002
{
1000
PSFILL
1000
Grayscale
1000
Grayscale
1070
   100
1002
}
  0
LINE
  5
28395
330
27F29
100
AcDbEntity
  8
YODOROGO
100
AcDbLine
 10
10431.60162798447
 20
727.4060611609828
 30
0.0
 11
10431.60162798447
 21
719.1642495319745
 31
0.0
1001
AUTOCAD_POSTSCRIPT_FIGURE
1002
{
1000
PSFILL
1000
Grayscale
1000
Grayscale
1070
   100
1002
}
  0
LINE
  5
28396
330
27F29
100
AcDbEntity
  8
YODOROGO
100
AcDbLine
 10
10458.60162798446
 20
727.4060611609828
 30
0.0
 11
10431.60162798447
 21
727.4060611609828
 31
0.0
1001
AUTOCAD_POSTSCRIPT_FIGURE
1002
{
1000
PSFILL
1000
Grayscale
1000
Grayscale
1070
   100
1002
}
  0
LINE
  5
28397
330
27F29
100
AcDbEntity
  8
YODOROGO
100
AcDbLine
 10
10458.60162798446
 20
712.7131308511124
 30
0.0
 11
10458.60162798446
 21
727.4060611609828
 31
0.0
1001
AUTOCAD_POSTSCRIPT_FIGURE
1002
{
1000
PSFILL
1000
Grayscale
1000
Grayscale
1070
   100
1002
}
  0
LINE
  5
28398
330
27F29
100
AcDbEntity
  8
YODOROGO
100
AcDbLine
 10
10446.60162798447
 20
712.7131308511124
 30
0.0
 11
10458.60162798446
 21
712.7131308511124
 31
0.0
1001
AUTOCAD_POSTSCRIPT_FIGURE
1002
{
1000
PSFILL
1000
Grayscale
1000
Grayscale
1070
   100
1002
}
  0
LINE
  5
28399
330
27F29
100
AcDbEntity
  8
YODOROGO
100
AcDbLine
 10
10446.60162798447
 20
706.713130851112
 30
0.0
 11
10446.60162798447
 21
712.7131308511124
 31
0.0
1001
AUTOCAD_POSTSCRIPT_FIGURE
1002
{
1000
PSFILL
1000
Grayscale
1000
Grayscale
1070
   100
1002
}
  0
LINE
  5
2839A
330
27F29
100
AcDbEntity
  8
YODOROGO
100
AcDbLine
 10
10458.60162798446
 20
706.713130851112
 30
0.0
 11
10446.60162798447
 21
706.713130851112
 31
0.0
1001
AUTOCAD_POSTSCRIPT_FIGURE
1002
{
1000
PSFILL
1000
Grayscale
1000
Grayscale
1070
   100
1002
}
  0
LINE
  5
2839B
330
27F29
100
AcDbEntity
  8
YODOROGO
100
AcDbLine
 10
10458.60162798446
 20
704.8571917366647
 30
0.0
 11
10458.60162798446
 21
706.713130851112
 31
0.0
1001
AUTOCAD_POSTSCRIPT_FIGURE
1002
{
1000
PSFILL
1000
Grayscale
1000
Grayscale
1070
   100
1002
}
  0
LINE
  5
2839C
330
27F29
100
AcDbEntity
  8
YODOROGO
100
AcDbLine
 10
10443.60162798447
 20
679.8656179355312
 30
0.0
 11
10458.60162798446
 21
704.8571917366647
 31
0.0
1001
AUTOCAD_POSTSCRIPT_FIGURE
1002
{
1000
PSFILL
1000
Grayscale
1000
Grayscale
1070
   100
1002
}
  0
LINE
  5
2839D
330
27F29
100
AcDbEntity
  8
YODOROGO
100
AcDbLine
 10
10443.60162798447
 20
673.8656179355309
 30
0.0
 11
10443.60162798447
 21
679.8656179355312
 31
0.0
1001
AUTOCAD_POSTSCRIPT_FIGURE
1002
{
1000
PSFILL
1000
Grayscale
1000
Grayscale
1070
   100
1002
}
  0
LINE
  5
2839E
330
27F29
100
AcDbEntity
  8
YODOROGO
100
AcDbLine
 10
10458.60162798446
 20
692.8571917366638
 30
0.0
 11
10443.60162798447
 21
673.8656179355309
 31
0.0
1001
AUTOCAD_POSTSCRIPT_FIGURE
1002
{
1000
PSFILL
1000
Grayscale
1000
Grayscale
1070
   100
1002
}
  0
LINE
  5
2839F
330
27F29
100
AcDbEntity
  8
YODOROGO
100
AcDbLine
 10
10458.60162798446
 20
655.406061160983
 30
0.0
 11
10458.60162798446
 21
692.8571917366638
 31
0.0
1001
AUTOCAD_POSTSCRIPT_FIGURE
1002
{
1000
PSFILL
1000
Grayscale
1000
Grayscale
1070
   100
1002
}
  0
LINE
  5
283A0
330
27F29
100
AcDbEntity
  8
YODOROGO
100
AcDbLine
 10
10464.60162798447
 20
655.406061160983
 30
0.0
 11
10458.60162798446
 21
655.406061160983
 31
0.0
1001
AUTOCAD_POSTSCRIPT_FIGURE
1002
{
1000
PSFILL
1000
Grayscale
1000
Grayscale
1070
   100
1002
}
  0
LINE
  5
283A1
330
27F29
100
AcDbEntity
  8
YODOROGO
100
AcDbLine
 10
10464.60162798447
 20
693.5283795595521
 30
0.0
 11
10464.60162798447
 21
655.406061160983
 31
0.0
1001
AUTOCAD_POSTSCRIPT_FIGURE
1002
{
1000
PSFILL
1000
Grayscale
1000
Grayscale
1070
   100
1002
}
  0
LINE
  5
283A2
330
27F29
100
AcDbEntity
  8
YODOROGO
100
AcDbLine
 10
10476.60162798446
 20
673.8656179355309
 30
0.0
 11
10464.60162798447
 21
693.5283795595521
 31
0.0
1001
AUTOCAD_POSTSCRIPT_FIGURE
1002
{
1000
PSFILL
1000
Grayscale
1000
Grayscale
1070
   100
1002
}
  0
LINE
  5
283A3
330
27F29
100
AcDbEntity
  8
YODOROGO
100
AcDbLine
 10
10476.60162798446
 20
679.8656179355312
 30
0.0
 11
10476.60162798446
 21
673.8656179355309
 31
0.0
1001
AUTOCAD_POSTSCRIPT_FIGURE
1002
{
1000
PSFILL
1000
Grayscale
1000
Grayscale
1070
   100
1002
}
  0
LINE
  5
283A4
330
27F29
100
AcDbEntity
  8
YODOROGO
100
AcDbLine
 10
10464.60162798447
 20
705.528379559553
 30
0.0
 11
10476.60162798446
 21
679.8656179355312
 31
0.0
1001
AUTOCAD_POSTSCRIPT_FIGURE
1002
{
1000
PSFILL
1000
Grayscale
1000
Grayscale
1070
   100
1002
}
  0
LINE
  5
283A5
330
27F29
100
AcDbEntity
  8
YODOROGO
100
AcDbLine
 10
10464.60162798447
 20
706.7131308511128
 30
0.0
 11
10464.60162798447
 21
705.528379559553
 31
0.0
1001
AUTOCAD_POSTSCRIPT_FIGURE
1002
{
1000
PSFILL
1000
Grayscale
1000
Grayscale
1070
   100
1002
}
  0
LINE
  5
283A6
330
27F29
100
AcDbEntity
  8
YODOROGO
100
AcDbLine
 10
10476.60162798446
 20
706.713130851112
 30
0.0
 11
10464.60162798447
 21
706.7131308511128
 31
0.0
1001
AUTOCAD_POSTSCRIPT_FIGURE
1002
{
1000
PSFILL
1000
Grayscale
1000
Grayscale
1070
   100
1002
}
  0
LINE
  5
283A7
330
27F29
100
AcDbEntity
  8
YODOROGO
100
AcDbLine
 10
10476.60162798446
 20
712.7131308511124
 30
0.0
 11
10476.60162798446
 21
706.713130851112
 31
0.0
1001
AUTOCAD_POSTSCRIPT_FIGURE
1002
{
1000
PSFILL
1000
Grayscale
1000
Grayscale
1070
   100
1002
}
  0
LINE
  5
283A8
330
27F29
100
AcDbEntity
  8
YODOROGO
100
AcDbLine
 10
10464.60162798447
 20
712.7131308511124
 30
0.0
 11
10476.60162798446
 21
712.7131308511124
 31
0.0
1001
AUTOCAD_POSTSCRIPT_FIGURE
1002
{
1000
PSFILL
1000
Grayscale
1000
Grayscale
1070
   100
1002
}
  0
LINE
  5
283A9
330
27F29
100
AcDbEntity
  8
YODOROGO
100
AcDbLine
 10
10464.60162798447
 20
727.4060611609828
 30
0.0
 11
10464.60162798447
 21
712.7131308511124
 31
0.0
1001
AUTOCAD_POSTSCRIPT_FIGURE
1002
{
1000
PSFILL
1000
Grayscale
1000
Grayscale
1070
   100
1002
}
  0
LINE
  5
283AA
330
27F29
100
AcDbEntity
  8
YODOROGO
100
AcDbLine
 10
10476.60162798446
 20
727.4060611609828
 30
0.0
 11
10464.60162798447
 21
727.4060611609828
 31
0.0
1001
AUTOCAD_POSTSCRIPT_FIGURE
1002
{
1000
PSFILL
1000
Grayscale
1000
Grayscale
1070
   100
1002
}
  0
LINE
  5
283AB
330
27F29
100
AcDbEntity
  8
YODOROGO
100
AcDbLine
 10
10476.60162798446
 20
733.4060611609828
 30
0.0
 11
10476.60162798446
 21
727.4060611609828
 31
0.0
1001
AUTOCAD_POSTSCRIPT_FIGURE
1002
{
1000
PSFILL
1000
Grayscale
1000
Grayscale
1070
   100
1002
}
  0
LINE
  5
283AC
330
27F29
100
AcDbEntity
  8
YODOROGO
100
AcDbLine
 10
10464.60162798447
 20
733.4060611609828
 30
0.0
 11
10476.60162798446
 21
733.4060611609828
 31
0.0
1001
AUTOCAD_POSTSCRIPT_FIGURE
1002
{
1000
PSFILL
1000
Grayscale
1000
Grayscale
1070
   100
1002
}
  0
LINE
  5
283AD
330
27F29
100
AcDbEntity
  8
YODOROGO
100
AcDbLine
 10
10464.60162798447
 20
742.4060611609832
 30
0.0
 11
10464.60162798447
 21
733.4060611609828
 31
0.0
1001
AUTOCAD_POSTSCRIPT_FIGURE
1002
{
1000
PSFILL
1000
Grayscale
1000
Grayscale
1070
   100
1002
}
  0
LINE
  5
283AE
330
27F29
100
AcDbEntity
  8
YODOROGO
100
AcDbLine
 10
10458.60162798446
 20
742.4060611609832
 30
0.0
 11
10464.60162798447
 21
742.4060611609832
 31
0.0
1001
AUTOCAD_POSTSCRIPT_FIGURE
1002
{
1000
PSFILL
1000
Grayscale
1000
Grayscale
1070
   100
1002
}
  0
LINE
  5
283AF
330
27F29
100
AcDbEntity
  8
YODOROGO
100
AcDbLine
 10
10458.60162798446
 20
733.4060611609828
 30
0.0
 11
10458.60162798446
 21
742.4060611609832
 31
0.0
1001
AUTOCAD_POSTSCRIPT_FIGURE
1002
{
1000
PSFILL
1000
Grayscale
1000
Grayscale
1070
   100
1002
}
  0
LINE
  5
283B0
330
27F29
100
AcDbEntity
  8
YODOROGO
100
AcDbLine
 10
10449.60162798447
 20
733.4060611609828
 30
0.0
 11
10458.60162798446
 21
733.4060611609828
 31
0.0
1001
AUTOCAD_POSTSCRIPT_FIGURE
1002
{
1000
PSFILL
1000
Grayscale
1000
Grayscale
1070
   100
1002
}
  0
LINE
  5
283B1
330
27F29
100
AcDbEntity
  8
YODOROGO
100
AcDbLine
 10
10449.60162798447
 20
742.4060611609832
 30
0.0
 11
10449.60162798447
 21
733.4060611609828
 31
0.0
1001
AUTOCAD_POSTSCRIPT_FIGURE
1002
{
1000
PSFILL
1000
Grayscale
1000
Grayscale
1070
   100
1002
}
  0
LINE
  5
283B2
330
27F29
100
AcDbEntity
  8
YODOROGO
100
AcDbLine
 10
10443.60162798447
 20
742.4060611609832
 30
0.0
 11
10449.60162798447
 21
742.4060611609832
 31
0.0
1001
AUTOCAD_POSTSCRIPT_FIGURE
1002
{
1000
PSFILL
1000
Grayscale
1000
Grayscale
1070
   100
1002
}
  0
LINE
  5
283B3
330
27F29
100
AcDbEntity
  8
YODOROGO
100
AcDbLine
 10
10443.60162798447
 20
733.4060611609828
 30
0.0
 11
10443.60162798447
 21
742.4060611609832
 31
0.0
1001
AUTOCAD_POSTSCRIPT_FIGURE
1002
{
1000
PSFILL
1000
Grayscale
1000
Grayscale
1070
   100
1002
}
  0
LINE
  5
283B4
330
27F29
100
AcDbEntity
  8
YODOROGO
100
AcDbLine
 10
10431.60162798447
 20
733.4060611609828
 30
0.0
 11
10443.60162798447
 21
733.4060611609828
 31
0.0
1001
AUTOCAD_POSTSCRIPT_FIGURE
1002
{
1000
PSFILL
1000
Grayscale
1000
Grayscale
1070
   100
1002
}
  0
LINE
  5
283B5
330
27F29
100
AcDbEntity
  8
YODOROGO
100
AcDbLine
 10
10431.60162798447
 20
742.4060611609832
 30
0.0
 11
10431.60162798447
 21
733.4060611609828
 31
0.0
1001
AUTOCAD_POSTSCRIPT_FIGURE
1002
{
1000
PSFILL
1000
Grayscale
1000
Grayscale
1070
   100
1002
}
  0
LINE
  5
283B6
330
27F29
100
AcDbEntity
  8
YODOROGO
100
AcDbLine
 10
10425.60162798447
 20
742.4060611609832
 30
0.0
 11
10431.60162798447
 21
742.4060611609832
 31
0.0
1001
AUTOCAD_POSTSCRIPT_FIGURE
1002
{
1000
PSFILL
1000
Grayscale
1000
Grayscale
1070
   100
1002
}
  0
LINE
  5
283B7
330
27F29
100
AcDbEntity
  8
YODOROGO
100
AcDbLine
 10
10425.60162798447
 20
733.4060611609828
 30
0.0
 11
10425.60162798447
 21
742.4060611609832
 31
0.0
1001
AUTOCAD_POSTSCRIPT_FIGURE
1002
{
1000
PSFILL
1000
Grayscale
1000
Grayscale
1070
   100
1002
}
  0
LINE
  5
283B8
330
27F29
100
AcDbEntity
  8
YODOROGO
100
AcDbLine
 10
10416.60162798446
 20
733.4060611609828
 30
0.0
 11
10425.60162798447
 21
733.4060611609828
 31
0.0
1001
AUTOCAD_POSTSCRIPT_FIGURE
1002
{
1000
PSFILL
1000
Grayscale
1000
Grayscale
1070
   100
1002
}
  0
LINE
  5
283B9
330
27F29
100
AcDbEntity
  8
YODOROGO
100
AcDbLine
 10
10416.60162798446
 20
727.4060611609828
 30
0.0
 11
10416.60162798446
 21
733.4060611609828
 31
0.0
1001
AUTOCAD_POSTSCRIPT_FIGURE
1002
{
1000
PSFILL
1000
Grayscale
1000
Grayscale
1070
   100
1002
}
  0
LINE
  5
283BA
330
27F29
100
AcDbEntity
  8
YODOROGO
100
AcDbLine
 10
10425.60162798447
 20
727.4060611609828
 30
0.0
 11
10416.60162798446
 21
727.4060611609828
 31
0.0
1001
AUTOCAD_POSTSCRIPT_FIGURE
1002
{
1000
PSFILL
1000
Grayscale
1000
Grayscale
1070
   100
1002
}
  0
LINE
  5
283BB
330
27F29
100
AcDbEntity
  8
YODOROGO
100
AcDbLine
 10
10425.60162798447
 20
718.0449677976392
 30
0.0
 11
10425.60162798447
 21
727.4060611609828
 31
0.0
1001
AUTOCAD_POSTSCRIPT_FIGURE
1002
{
1000
PSFILL
1000
Grayscale
1000
Grayscale
1070
   100
1002
}
  0
LINE
  5
283BC
330
27F29
100
AcDbEntity
  8
YODOROGO
100
AcDbLine
 10
10416.60162798446
 20
697.4162804818765
 30
0.0
 11
10425.60162798447
 21
718.0449677976392
 31
0.0
1001
AUTOCAD_POSTSCRIPT_FIGURE
1002
{
1000
PSFILL
1000
Grayscale
1000
Grayscale
1070
   100
1002
}
  0
LINE
  5
283BD
330
27F29
100
AcDbEntity
  8
YODOROGO
100
AcDbLine
 10
10416.60162798446
 20
691.4162804818772
 30
0.0
 11
10416.60162798446
 21
697.4162804818765
 31
0.0
1001
AUTOCAD_POSTSCRIPT_FIGURE
1002
{
1000
PSFILL
1000
Grayscale
1000
Grayscale
1070
   100
1002
}
  0
LINE
  5
283BE
330
27F29
100
AcDbEntity
  8
YODOROGO
100
AcDbLine
 10
10596.60162798446
 20
700.406061160983
 30
0.0
 11
10650.60162798447
 21
684.3291096151149
 31
0.0
1001
AUTOCAD_POSTSCRIPT_FIGURE
1002
{
1000
PSFILL
1000
Grayscale
1000
Grayscale
1070
   100
1002
}
  0
LINE
  5
283BF
330
27F29
100
AcDbEntity
  8
YODOROGO
100
AcDbLine
 10
10650.60162798447
 20
657.3291096151145
 30
0.0
 11
10596.60162798446
 21
673.4060611609827
 31
0.0
1001
AUTOCAD_POSTSCRIPT_FIGURE
1002
{
1000
PSFILL
1000
Grayscale
1000
Grayscale
1070
   100
1002
}
  0
LINE
  5
283C0
330
27F29
100
AcDbEntity
  8
YODOROGO
100
AcDbLine
 10
10650.60162798447
 20
744.329109615115
 30
0.0
 11
10596.60162798446
 21
760.4060611609829
 31
0.0
1001
AUTOCAD_POSTSCRIPT_FIGURE
1002
{
1000
PSFILL
1000
Grayscale
1000
Grayscale
1070
   100
1002
}
  0
LINE
  5
283C1
330
27F29
100
AcDbEntity
  8
YODOROGO
100
AcDbLine
 10
10596.60162798446
 20
734.9060611609829
 30
0.0
 11
10650.60162798447
 21
718.829109615115
 31
0.0
1001
AUTOCAD_POSTSCRIPT_FIGURE
1002
{
1000
PSFILL
1000
Grayscale
1000
Grayscale
1070
   100
1002
}
  0
LINE
  5
283C2
330
27F29
100
AcDbEntity
  8
YODOROGO
100
AcDbLine
 10
10596.60162798446
 20
673.4060611609827
 30
0.0
 11
10596.60162798446
 21
700.406061160983
 31
0.0
1001
AUTOCAD_POSTSCRIPT_FIGURE
1002
{
1000
PSFILL
1000
Grayscale
1000
Grayscale
1070
   100
1002
}
  0
LINE
  5
283C3
330
27F29
100
AcDbEntity
  8
YODOROGO
100
AcDbLine
 10
10596.60162798446
 20
760.4060611609829
 30
0.0
 11
10596.60162798446
 21
734.9060611609829
 31
0.0
1001
AUTOCAD_POSTSCRIPT_FIGURE
1002
{
1000
PSFILL
1000
Grayscale
1000
Grayscale
1070
   100
1002
}
  0
LINE
  5
283C4
330
27F29
100
AcDbEntity
  8
YODOROGO
100
AcDbLine
 10
10530.08862007752
 20
727.4060611609828
 30
0.0
 11
10548.60162798447
 21
655.406061160983
 31
0.0
1001
AUTOCAD_POSTSCRIPT_FIGURE
1002
{
1000
PSFILL
1000
Grayscale
1000
Grayscale
1070
   100
1002
}
  0
LINE
  5
283C5
330
27F29
100
AcDbEntity
  8
YODOROGO
100
AcDbLine
 10
10491.60162798447
 20
727.4060611609828
 30
0.0
 11
10530.08862007752
 21
727.4060611609828
 31
0.0
1001
AUTOCAD_POSTSCRIPT_FIGURE
1002
{
1000
PSFILL
1000
Grayscale
1000
Grayscale
1070
   100
1002
}
  0
LINE
  5
283C6
330
27F29
100
AcDbEntity
  8
YODOROGO
100
AcDbLine
 10
10491.60162798447
 20
733.4060611609828
 30
0.0
 11
10491.60162798447
 21
727.4060611609828
 31
0.0
1001
AUTOCAD_POSTSCRIPT_FIGURE
1002
{
1000
PSFILL
1000
Grayscale
1000
Grayscale
1070
   100
1002
}
  0
LINE
  5
283C7
330
27F29
100
AcDbEntity
  8
YODOROGO
100
AcDbLine
 10
10528.72757944497
 20
733.4060611609828
 30
0.0
 11
10491.60162798447
 21
733.4060611609828
 31
0.0
1001
AUTOCAD_POSTSCRIPT_FIGURE
1002
{
1000
PSFILL
1000
Grayscale
1000
Grayscale
1070
   100
1002
}
  0
LINE
  5
283C8
330
27F29
100
AcDbEntity
  8
YODOROGO
100
AcDbLine
 10
10526.68601849614
 20
742.4060611609832
 30
0.0
 11
10528.72757944497
 21
733.4060611609828
 31
0.0
1001
AUTOCAD_POSTSCRIPT_FIGURE
1002
{
1000
PSFILL
1000
Grayscale
1000
Grayscale
1070
   100
1002
}
  0
LINE
  5
283C9
330
27F29
100
AcDbEntity
  8
YODOROGO
100
AcDbLine
 10
10534.18601849614
 20
742.4060611609832
 30
0.0
 11
10526.68601849614
 21
742.4060611609832
 31
0.0
1001
AUTOCAD_POSTSCRIPT_FIGURE
1002
{
1000
PSFILL
1000
Grayscale
1000
Grayscale
1070
   100
1002
}
  0
LINE
  5
283CA
330
27F29
100
AcDbEntity
  8
YODOROGO
100
AcDbLine
 10
10535.92757944497
 20
733.4060611609828
 30
0.0
 11
10534.18601849614
 21
742.4060611609832
 31
0.0
1001
AUTOCAD_POSTSCRIPT_FIGURE
1002
{
1000
PSFILL
1000
Grayscale
1000
Grayscale
1070
   100
1002
}
  0
LINE
  5
283CB
330
27F29
100
AcDbEntity
  8
YODOROGO
100
AcDbLine
 10
10545.60162798447
 20
733.4060611609828
 30
0.0
 11
10535.92757944497
 21
733.4060611609828
 31
0.0
1001
AUTOCAD_POSTSCRIPT_FIGURE
1002
{
1000
PSFILL
1000
Grayscale
1000
Grayscale
1070
   100
1002
}
  0
LINE
  5
283CC
330
27F29
100
AcDbEntity
  8
YODOROGO
100
AcDbLine
 10
10545.60162798447
 20
742.4060611609832
 30
0.0
 11
10545.60162798447
 21
733.4060611609828
 31
0.0
1001
AUTOCAD_POSTSCRIPT_FIGURE
1002
{
1000
PSFILL
1000
Grayscale
1000
Grayscale
1070
   100
1002
}
  0
LINE
  5
283CD
330
27F29
100
AcDbEntity
  8
YODOROGO
100
AcDbLine
 10
10551.60162798447
 20
742.4060611609832
 30
0.0
 11
10545.60162798447
 21
742.4060611609832
 31
0.0
1001
AUTOCAD_POSTSCRIPT_FIGURE
1002
{
1000
PSFILL
1000
Grayscale
1000
Grayscale
1070
   100
1002
}
  0
LINE
  5
283CE
330
27F29
100
AcDbEntity
  8
YODOROGO
100
AcDbLine
 10
10551.60162798447
 20
733.4060611609828
 30
0.0
 11
10551.60162798447
 21
742.4060611609832
 31
0.0
1001
AUTOCAD_POSTSCRIPT_FIGURE
1002
{
1000
PSFILL
1000
Grayscale
1000
Grayscale
1070
   100
1002
}
  0
LINE
  5
283CF
330
27F29
100
AcDbEntity
  8
YODOROGO
100
AcDbLine
 10
10551.60162798447
 20
727.4060611609828
 30
0.0
 11
10551.60162798447
 21
733.4060611609828
 31
0.0
1001
AUTOCAD_POSTSCRIPT_FIGURE
1002
{
1000
PSFILL
1000
Grayscale
1000
Grayscale
1070
   100
1002
}
  0
LINE
  5
283D0
330
27F29
100
AcDbEntity
  8
YODOROGO
100
AcDbLine
 10
10537.08862007752
 20
727.4060611609828
 30
0.0
 11
10551.60162798447
 21
727.4060611609828
 31
0.0
1001
AUTOCAD_POSTSCRIPT_FIGURE
1002
{
1000
PSFILL
1000
Grayscale
1000
Grayscale
1070
   100
1002
}
  0
LINE
  5
283D1
330
27F29
100
AcDbEntity
  8
YODOROGO
100
AcDbLine
 10
10551.60162798447
 20
655.406061160983
 30
0.0
 11
10537.08862007752
 21
727.4060611609828
 31
0.0
1001
AUTOCAD_POSTSCRIPT_FIGURE
1002
{
1000
PSFILL
1000
Grayscale
1000
Grayscale
1070
   100
1002
}
  0
LINE
  5
283D2
330
27F29
100
AcDbEntity
  8
YODOROGO
100
AcDbLine
 10
10548.60162798447
 20
655.406061160983
 30
0.0
 11
10551.60162798447
 21
655.406061160983
 31
0.0
1001
AUTOCAD_POSTSCRIPT_FIGURE
1002
{
1000
PSFILL
1000
Grayscale
1000
Grayscale
1070
   100
1002
}
  0
LINE
  5
283D3
330
27F29
100
AcDbEntity
  8
YODOROGO
100
AcDbLine
 10
10529.27595747517
 20
665.902791112048
 30
0.0
 11
10491.60162798447
 21
655.406061160983
 31
0.0
  0
LINE
  5
283D4
330
27F29
100
AcDbEntity
  8
YODOROGO
100
AcDbLine
 10
10529.27595747517
 20
674.5008673234024
 30
0.0
 11
10529.27595747517
 21
665.902791112048
 31
0.0
  0
LINE
  5
283D5
330
27F29
100
AcDbEntity
  8
YODOROGO
100
AcDbLine
 10
10512.68879272982
 20
670.0563499251625
 30
0.0
 11
10529.27595747517
 21
674.5008673234024
 31
0.0
  0
LINE
  5
283D6
330
27F29
100
AcDbEntity
  8
YODOROGO
100
AcDbLine
 10
10512.68879272982
 20
702.2131308511124
 30
0.0
 11
10512.68879272982
 21
670.0563499251625
 31
0.0
  0
LINE
  5
283D7
330
27F29
100
AcDbEntity
  8
YODOROGO
100
AcDbLine
 10
10529.27595747517
 20
702.2131308511124
 30
0.0
 11
10512.68879272982
 21
702.2131308511124
 31
0.0
  0
LINE
  5
283D8
330
27F29
100
AcDbEntity
  8
YODOROGO
100
AcDbLine
 10
10529.27595747517
 20
709.7131308511116
 30
0.0
 11
10529.27595747517
 21
702.2131308511124
 31
0.0
  0
LINE
  5
283D9
330
27F29
100
AcDbEntity
  8
YODOROGO
100
AcDbLine
 10
10491.60162798447
 20
709.7131308511116
 30
0.0
 11
10529.27595747517
 21
709.7131308511116
 31
0.0
  0
LINE
  5
283DA
330
27F29
100
AcDbEntity
  8
YODOROGO
100
AcDbLine
 10
10491.60162798447
 20
702.2131308511124
 30
0.0
 11
10491.60162798447
 21
709.7131308511116
 31
0.0
  0
LINE
  5
283DB
330
27F29
100
AcDbEntity
  8
YODOROGO
100
AcDbLine
 10
10508.18879272982
 20
702.2131308511124
 30
0.0
 11
10491.60162798447
 21
702.2131308511124
 31
0.0
  0
LINE
  5
283DC
330
27F29
100
AcDbEntity
  8
YODOROGO
100
AcDbLine
 10
10508.18879272982
 20
669.252502347869
 30
0.0
 11
10508.18879272982
 21
702.2131308511124
 31
0.0
  0
LINE
  5
283DD
330
27F29
100
AcDbEntity
  8
YODOROGO
100
AcDbLine
 10
10491.60162798447
 20
664.4060611609823
 30
0.0
 11
10508.18879272982
 21
669.252502347869
 31
0.0
  0
LINE
  5
283DE
330
27F29
100
AcDbEntity
  8
YODOROGO
100
AcDbLine
 10
10491.60162798447
 20
655.406061160983
 30
0.0
 11
10491.60162798447
 21
664.4060611609823
 31
0.0
  0
LINE
  5
283DF
330
27F29
100
AcDbEntity
  8
YODOROGO
100
AcDbLine
 10
10500.60162798446
 20
640.4060611609827
 30
0.0
 11
10500.60162798446
 21
631.4060611609825
 31
0.0
  0
LINE
  5
283E0
330
27F29
100
AcDbEntity
  8
YODOROGO
100
AcDbLine
 10
10500.60162798446
 20
640.4060611609827
 30
0.0
 11
10500.60162798446
 21
640.4060611609827
 31
0.0
  0
LINE
  5
283E1
330
27F29
100
AcDbEntity
  8
YODOROGO
100
AcDbLine
 10
10506.60162798447
 20
640.4060611609827
 30
0.0
 11
10500.60162798446
 21
640.4060611609827
 31
0.0
  0
LINE
  5
283E2
330
27F29
100
AcDbEntity
  8
YODOROGO
100
AcDbLine
 10
10506.60162798447
 20
631.4060611609825
 30
0.0
 11
10506.60162798447
 21
640.4060611609827
 31
0.0
  0
LINE
  5
283E3
330
27F29
100
AcDbEntity
  8
YODOROGO
100
AcDbLine
 10
10515.34245150633
 20
631.4060611609825
 30
0.0
 11
10506.60162798447
 21
631.4060611609825
 31
0.0
  0
LINE
  5
283E4
330
27F29
100
AcDbEntity
  8
YODOROGO
100
AcDbLine
 10
10500.60162798446
 20
631.4060611609825
 30
0.0
 11
10491.60162798447
 21
631.4060611609825
 31
0.0
  0
LINE
  5
283E5
330
27F29
100
AcDbEntity
  8
YODOROGO
100
AcDbLine
 10
10530.80082008658
 20
640.4060611609827
 30
0.0
 11
10536.8008200866
 21
640.4060611609827
 31
0.0
1001
AUTOCAD_POSTSCRIPT_FIGURE
1002
{
1000
PSFILL
1000
Grayscale
1000
Grayscale
1070
   100
1002
}
  0
LINE
  5
283E6
330
27F29
100
AcDbEntity
  8
YODOROGO
100
AcDbLine
 10
10650.60162798447
 20
684.3291096151149
 30
0.0
 11
10650.60162798447
 21
657.3291096151145
 31
0.0
1001
AUTOCAD_POSTSCRIPT_FIGURE
1002
{
1000
PSFILL
1000
Grayscale
1000
Grayscale
1070
   100
1002
}
  0
LINE
  5
283E7
330
27F29
100
AcDbEntity
  8
YODOROGO
100
AcDbLine
 10
10650.60162798447
 20
718.829109615115
 30
0.0
 11
10650.60162798447
 21
744.329109615115
 31
0.0
1001
AUTOCAD_POSTSCRIPT_FIGURE
1002
{
1000
PSFILL
1000
Grayscale
1000
Grayscale
1070
   100
1002
}
  0
LINE
  5
283E8
330
27F29
100
AcDbEntity
  8
YODOROGO
100
AcDbLine
 10
10662.60162798446
 20
682.4060611609827
 30
0.0
 11
10662.60162798446
 21
655.4060611609838
 31
0.0
  0
LINE
  5
283E9
330
27F29
100
AcDbEntity
  8
YODOROGO
100
AcDbLine
 10
10686.60162798446
 20
640.4060611609827
 30
0.0
 11
10662.60162798446
 21
640.4060611609827
 31
0.0
  0
LINE
  5
283EA
330
27F29
100
AcDbEntity
  8
YODOROGO
100
AcDbLine
 10
10662.60162798446
 20
655.4060611609838
 30
0.0
 11
10719.60162798446
 21
655.4060611609838
 31
0.0
  0
LINE
  5
283EB
330
27F29
100
AcDbEntity
  8
YODOROGO
100
AcDbLine
 10
10686.60162798446
 20
700.406061160983
 30
0.0
 11
10662.60162798446
 21
700.406061160983
 31
0.0
  0
LINE
  5
283EC
330
27F29
100
AcDbEntity
  8
YODOROGO
100
AcDbLine
 10
10686.60162798446
 20
721.4060611609824
 30
0.0
 11
10686.60162798446
 21
700.406061160983
 31
0.0
  0
LINE
  5
283ED
330
27F29
100
AcDbEntity
  8
YODOROGO
100
AcDbLine
 10
10719.60162798446
 20
745.4060611609828
 30
0.0
 11
10719.60162798446
 21
760.4060611609829
 31
0.0
  0
LINE
  5
283EE
330
27F29
100
AcDbEntity
  8
YODOROGO
100
AcDbLine
 10
10662.60162798446
 20
745.4060611609828
 30
0.0
 11
10719.60162798446
 21
745.4060611609828
 31
0.0
  0
LINE
  5
283EF
330
27F29
100
AcDbEntity
  8
YODOROGO
100
AcDbLine
 10
10662.60162798446
 20
700.406061160983
 30
0.0
 11
10662.60162798446
 21
745.4060611609828
 31
0.0
  0
LINE
  5
283F0
330
27F29
100
AcDbEntity
  8
YODOROGO
100
AcDbLine
 10
10875.60162798447
 20
760.4060611609829
 30
0.0
 11
10875.60162798447
 21
607.4060611609827
 31
0.0
  0
LINE
  5
283F1
330
27F29
100
AcDbEntity
  8
YODOROGO
100
AcDbLine
 10
10902.60162798446
 20
592.4060611609831
 30
0.0
 11
10902.60162798446
 21
760.4060611609829
 31
0.0
  0
LINE
  5
283F2
330
27F29
100
AcDbEntity
  8
YODOROGO
100
AcDbLine
 10
10973.10162798446
 20
559.4060611609823
 30
0.0
 11
10973.10162798446
 21
752.9060611609828
 31
0.0
  0
LINE
  5
283F3
330
27F29
100
AcDbEntity
  8
YODOROGO
100
AcDbLine
 10
10949.10162798447
 20
752.9060611609828
 30
0.0
 11
10949.10162798447
 21
559.4060611609823
 31
0.0
  0
LINE
  5
283F4
330
27F29
100
AcDbEntity
  8
YODOROGO
100
AcDbLine
 10
11019.60162798446
 20
760.4060611609829
 30
0.0
 11
11019.60162798446
 21
535.4060611609829
 31
0.0
  0
LINE
  5
283F5
330
27F29
100
AcDbEntity
  8
YODOROGO
100
AcDbLine
 10
11046.60162798447
 20
535.4060611609829
 30
0.0
 11
11046.60162798447
 21
760.4060611609829
 31
0.0
  0
LINE
  5
283F6
330
27F29
100
AcDbEntity
  8
YODOROGO
100
AcDbLine
 10
10746.60162798446
 20
625.406061160983
 30
0.0
 11
10746.60162798446
 21
655.4060611609838
 31
0.0
  0
LINE
  5
283F7
330
27F29
100
AcDbEntity
  8
YODOROGO
100
AcDbLine
 10
11207.10162798447
 20
640.4060611609827
 30
0.0
 11
11207.10162798447
 21
625.406061160983
 31
0.0
  0
LINE
  5
283F8
330
27F29
100
AcDbEntity
  8
YODOROGO
100
AcDbLine
 10
11207.10162798447
 20
640.4060611609827
 30
0.0
 11
11207.10162798447
 21
625.406061160983
 31
0.0
  0
ARC
  5
283F9
330
27F29
100
AcDbEntity
  8
YODOROGO
100
AcDbCircle
 10
10840.09184107006
 20
606.8316991658524
 30
0.0
 40
35.51443169202812
100
AcDbArc
 50
274.052441629071
 51
0.9266642149310715
  0
ARC
  5
283FA
330
27F29
100
AcDbEntity
  8
YODOROGO
100
AcDbCircle
 10
10840.94481401992
 20
597.229023228915
 30
0.0
 40
61.84515883532068
100
AcDbArc
 50
271.5351210653776
 51
355.5272775058505
  0
LINE
  5
283FB
330
27F29
100
AcDbEntity
  8
YODOROGO
100
AcDbLine
 10
10842.60162798446
 20
571.4060611609824
 30
0.0
 11
10842.60162798446
 21
535.4060611609829
 31
0.0
  0
LINE
  5
283FC
330
27F29
100
AcDbEntity
  8
YODOROGO
100
AcDbLine
 10
10797.60162798446
 20
625.406061160983
 30
0.0
 11
10746.60162798446
 21
625.406061160983
 31
0.0
  0
LINE
  5
283FD
330
27F29
100
AcDbEntity
  8
YODOROGO
100
AcDbLine
 10
10797.60162798446
 20
601.4060611609833
 30
0.0
 11
10797.60162798446
 21
625.406061160983
 31
0.0
  0
LINE
  5
283FE
330
27F29
100
AcDbEntity
  8
YODOROGO
100
AcDbLine
 10
10746.60162798446
 20
601.4060611609833
 30
0.0
 11
10797.60162798446
 21
601.4060611609833
 31
0.0
  0
LINE
  5
283FF
330
27F29
100
AcDbEntity
  8
YODOROGO
100
AcDbLine
 10
10746.60162798446
 20
571.4060611609824
 30
0.0
 11
10746.60162798446
 21
601.4060611609833
 31
0.0
  0
LINE
  5
28400
330
27F29
100
AcDbEntity
  8
YODOROGO
100
AcDbLine
 10
10797.60162798446
 20
571.4060611609824
 30
0.0
 11
10746.60162798446
 21
571.4060611609824
 31
0.0
  0
LINE
  5
28401
330
27F29
100
AcDbEntity
  8
YODOROGO
100
AcDbLine
 10
10797.60162798446
 20
535.4060611609829
 30
0.0
 11
10797.60162798446
 21
571.4060611609824
 31
0.0
  0
LINE
  5
28402
330
27F29
100
AcDbEntity
  8
YODOROGO
100
AcDbLine
 10
10949.10162798447
 20
559.4060611609823
 30
0.0
 11
10973.10162798446
 21
559.4060611609823
 31
0.0
  0
LINE
  5
28403
330
27F29
100
AcDbEntity
  8
YODOROGO
100
AcDbLine
 10
11019.60162798446
 20
535.4060611609829
 30
0.0
 11
11046.60162798447
 21
535.4060611609829
 31
0.0
  0
LINE
  5
28404
330
27F29
100
AcDbEntity
  8
YODOROGO
100
AcDbLine
 10
11151.60162798447
 20
573.1655445639614
 30
0.0
 11
11151.60162798447
 21
535.4060611609829
 31
0.0
  0
LINE
  5
28405
330
27F29
100
AcDbEntity
  8
YODOROGO
100
AcDbLine
 10
11106.60162798446
 20
535.4060611609829
 30
0.0
 11
11151.60162798447
 21
573.1655445639614
 31
0.0
  0
LINE
  5
28406
330
27F29
100
AcDbEntity
  8
YODOROGO
100
AcDbLine
 10
11106.60162798446
 20
580.406061160983
 30
0.0
 11
11106.60162798446
 21
535.4060611609829
 31
0.0
  0
LINE
  5
28407
330
27F29
100
AcDbEntity
  8
YODOROGO
100
AcDbLine
 10
11142.35423576229
 20
610.4060611609829
 30
0.0
 11
11106.60162798446
 21
580.406061160983
 31
0.0
  0
LINE
  5
28408
330
27F29
100
AcDbEntity
  8
YODOROGO
100
AcDbLine
 10
11106.60162798446
 20
610.4060611609829
 30
0.0
 11
11142.35423576229
 21
610.4060611609829
 31
0.0
  0
LINE
  5
28409
330
27F29
100
AcDbEntity
  8
YODOROGO
100
AcDbLine
 10
11106.60162798446
 20
625.406061160983
 30
0.0
 11
11106.60162798446
 21
610.4060611609829
 31
0.0
  0
LINE
  5
2840A
330
27F29
100
AcDbEntity
  8
YODOROGO
100
AcDbLine
 10
11207.10162798447
 20
625.406061160983
 30
0.0
 11
11106.60162798446
 21
625.406061160983
 31
0.0
  0
LINE
  5
2840B
330
27F29
100
AcDbEntity
  8
YODOROGO
100
AcDbLine
 10
11219.10162798447
 20
610.4060611609829
 30
0.0
 11
11166.60162798446
 21
610.4060611609829
 31
0.0
  0
LINE
  5
2840C
330
27F29
100
AcDbEntity
  8
YODOROGO
100
AcDbLine
 10
11166.60162798446
 20
585.7520390316213
 30
0.0
 11
11164.27870236948
 21
583.8028730048376
 31
0.0
  0
LINE
  5
2840D
330
27F29
100
AcDbEntity
  8
YODOROGO
100
AcDbLine
 10
11166.60162798446
 20
610.4060611609829
 30
0.0
 11
11166.60162798446
 21
585.7520390316213
 31
0.0
  0
LINE
  5
2840E
330
27F29
100
AcDbEntity
  8
YODOROGO
100
AcDbLine
 10
11151.60162798447
 20
573.1655445639614
 30
0.0
 11
11151.60162798447
 21
535.4060611609829
 31
0.0
  0
LINE
  5
2840F
330
27F29
100
AcDbEntity
  8
YODOROGO
100
AcDbLine
 10
11106.60162798446
 20
535.4060611609829
 30
0.0
 11
11151.60162798447
 21
573.1655445639614
 31
0.0
  0
LINE
  5
28410
330
27F29
100
AcDbEntity
  8
YODOROGO
100
AcDbLine
 10
11106.60162798446
 20
580.406061160983
 30
0.0
 11
11106.60162798446
 21
535.4060611609829
 31
0.0
  0
LINE
  5
28411
330
27F29
100
AcDbEntity
  8
YODOROGO
100
AcDbLine
 10
11142.35423576229
 20
610.4060611609829
 30
0.0
 11
11106.60162798446
 21
580.406061160983
 31
0.0
  0
LINE
  5
28412
330
27F29
100
AcDbEntity
  8
YODOROGO
100
AcDbLine
 10
11106.60162798446
 20
610.4060611609829
 30
0.0
 11
11142.35423576229
 21
610.4060611609829
 31
0.0
  0
LINE
  5
28413
330
27F29
100
AcDbEntity
  8
YODOROGO
100
AcDbLine
 10
11106.60162798446
 20
625.406061160983
 30
0.0
 11
11106.60162798446
 21
610.4060611609829
 31
0.0
  0
LINE
  5
28414
330
27F29
100
AcDbEntity
  8
YODOROGO
100
AcDbLine
 10
11207.10162798447
 20
625.406061160983
 30
0.0
 11
11106.60162798446
 21
625.406061160983
 31
0.0
  0
LINE
  5
28415
330
27F29
100
AcDbEntity
  8
YODOROGO
100
AcDbLine
 10
10797.60162798446
 20
655.4060611609838
 30
0.0
 11
10797.60162798446
 21
682.4060611609827
 31
0.0
  0
LINE
  5
28416
330
27F29
100
AcDbEntity
  8
YODOROGO
100
AcDbLine
 10
10746.60162798446
 20
655.4060611609838
 30
0.0
 11
10797.60162798446
 21
655.4060611609838
 31
0.0
  0
LINE
  5
28417
330
27F29
100
AcDbEntity
  8
YODOROGO
100
AcDbLine
 10
10773.60162798447
 20
700.406061160983
 30
0.0
 11
10773.60162798447
 21
721.4060611609824
 31
0.0
  0
LINE
  5
28418
330
27F29
100
AcDbEntity
  8
YODOROGO
100
AcDbLine
 10
10797.60162798446
 20
700.406061160983
 30
0.0
 11
10773.60162798447
 21
700.406061160983
 31
0.0
  0
LINE
  5
28419
330
27F29
100
AcDbEntity
  8
YODOROGO
100
AcDbLine
 10
10797.60162798446
 20
730.4060611609828
 30
0.0
 11
10797.60162798446
 21
700.406061160983
 31
0.0
  0
ARC
  5
2841A
330
27F29
100
AcDbEntity
  8
YODOROGO
100
AcDbCircle
 10
10782.60162798446
 20
730.4060611609828
 30
0.0
 40
15.0
100
AcDbArc
 50
0.0
 51
90.0
  0
LINE
  5
2841B
330
27F29
100
AcDbEntity
  8
YODOROGO
100
AcDbLine
 10
10746.60162798447
 20
745.4060611609828
 30
0.0
 11
10782.60162798446
 21
745.4060611609828
 31
0.0
  0
LINE
  5
2841C
330
27F29
100
AcDbEntity
  8
YODOROGO
100
AcDbLine
 10
10746.60162798447
 20
760.4060611609829
 30
0.0
 11
10746.60162798447
 21
745.4060611609828
 31
0.0
  0
LINE
  5
2841D
330
27F29
100
AcDbEntity
  8
YODOROGO
100
AcDbLine
 10
10902.60162798446
 20
760.4060611609829
 30
0.0
 11
10875.60162798447
 21
760.4060611609829
 31
0.0
  0
LINE
  5
2841E
330
27F29
100
AcDbEntity
  8
YODOROGO
100
AcDbLine
 10
10973.10162798446
 20
752.9060611609828
 30
0.0
 11
10949.10162798447
 21
752.9060611609828
 31
0.0
  0
LINE
  5
2841F
330
27F29
100
AcDbEntity
  8
YODOROGO
100
AcDbLine
 10
11046.60162798447
 20
760.4060611609829
 30
0.0
 11
11019.60162798446
 21
760.4060611609829
 31
0.0
  0
LINE
  5
28420
330
27F29
100
AcDbEntity
  8
YODOROGO
100
AcDbLine
 10
11127.60162798447
 20
640.4060611609827
 30
0.0
 11
11127.60162798447
 21
664.4060611609833
 31
0.0
1001
AUTOCAD_POSTSCRIPT_FIGURE
1002
{
1000
PSFILL
1000
Grayscale
1000
Grayscale
1070
    25
1002
}
  0
LINE
  5
28421
330
27F29
100
AcDbEntity
  8
YODOROGO
100
AcDbLine
 10
11106.60162798446
 20
640.4060611609827
 30
0.0
 11
11127.60162798447
 21
640.4060611609827
 31
0.0
1001
AUTOCAD_POSTSCRIPT_FIGURE
1002
{
1000
PSFILL
1000
Grayscale
1000
Grayscale
1070
    25
1002
}
  0
LINE
  5
28422
330
27F29
100
AcDbEntity
  8
YODOROGO
100
AcDbLine
 10
11106.60162798446
 20
682.4060611609827
 30
0.0
 11
11106.60162798446
 21
640.4060611609827
 31
0.0
1001
AUTOCAD_POSTSCRIPT_FIGURE
1002
{
1000
PSFILL
1000
Grayscale
1000
Grayscale
1070
    25
1002
}
  0
LINE
  5
28423
330
27F29
100
AcDbEntity
  8
YODOROGO
100
AcDbLine
 10
11162.10162798447
 20
682.4060611609827
 30
0.0
 11
11106.60162798446
 21
682.4060611609827
 31
0.0
1001
AUTOCAD_POSTSCRIPT_FIGURE
1002
{
1000
PSFILL
1000
Grayscale
1000
Grayscale
1070
    25
1002
}
  0
LINE
  5
28424
330
27F29
100
AcDbEntity
  8
YODOROGO
100
AcDbLine
 10
11162.10162798447
 20
697.406061160983
 30
0.0
 11
11162.10162798447
 21
682.4060611609827
 31
0.0
1001
AUTOCAD_POSTSCRIPT_FIGURE
1002
{
1000
PSFILL
1000
Grayscale
1000
Grayscale
1070
    25
1002
}
  0
LINE
  5
28425
330
27F29
100
AcDbEntity
  8
YODOROGO
100
AcDbLine
 10
11106.60162798446
 20
697.406061160983
 30
0.0
 11
11162.10162798447
 21
697.406061160983
 31
0.0
1001
AUTOCAD_POSTSCRIPT_FIGURE
1002
{
1000
PSFILL
1000
Grayscale
1000
Grayscale
1070
    25
1002
}
  0
LINE
  5
28426
330
27F29
100
AcDbEntity
  8
YODOROGO
100
AcDbLine
 10
11106.60162798446
 20
715.4060611609828
 30
0.0
 11
11106.60162798446
 21
697.406061160983
 31
0.0
1001
AUTOCAD_POSTSCRIPT_FIGURE
1002
{
1000
PSFILL
1000
Grayscale
1000
Grayscale
1070
    25
1002
}
  0
LINE
  5
28427
330
27F29
100
AcDbEntity
  8
YODOROGO
100
AcDbLine
 10
11162.10162798447
 20
715.4060611609828
 30
0.0
 11
11106.60162798446
 21
715.4060611609828
 31
0.0
1001
AUTOCAD_POSTSCRIPT_FIGURE
1002
{
1000
PSFILL
1000
Grayscale
1000
Grayscale
1070
    25
1002
}
  0
LINE
  5
28428
330
27F29
100
AcDbEntity
  8
YODOROGO
100
AcDbLine
 10
11162.10162798447
 20
730.4060611609828
 30
0.0
 11
11162.10162798447
 21
715.4060611609828
 31
0.0
1001
AUTOCAD_POSTSCRIPT_FIGURE
1002
{
1000
PSFILL
1000
Grayscale
1000
Grayscale
1070
    25
1002
}
  0
LINE
  5
28429
330
27F29
100
AcDbEntity
  8
YODOROGO
100
AcDbLine
 10
11106.60162798446
 20
730.4060611609828
 30
0.0
 11
11162.10162798447
 21
730.4060611609828
 31
0.0
1001
AUTOCAD_POSTSCRIPT_FIGURE
1002
{
1000
PSFILL
1000
Grayscale
1000
Grayscale
1070
    25
1002
}
  0
LINE
  5
2842A
330
27F29
100
AcDbEntity
  8
YODOROGO
100
AcDbLine
 10
11106.60162798446
 20
760.4060611609829
 30
0.0
 11
11106.60162798446
 21
730.4060611609828
 31
0.0
1001
AUTOCAD_POSTSCRIPT_FIGURE
1002
{
1000
PSFILL
1000
Grayscale
1000
Grayscale
1070
    25
1002
}
  0
LINE
  5
2842B
330
27F29
100
AcDbEntity
  8
YODOROGO
100
AcDbLine
 10
11124.60162798446
 20
760.4060611609829
 30
0.0
 11
11106.60162798446
 21
760.4060611609829
 31
0.0
1001
AUTOCAD_POSTSCRIPT_FIGURE
1002
{
1000
PSFILL
1000
Grayscale
1000
Grayscale
1070
    25
1002
}
  0
LINE
  5
2842C
330
27F29
100
AcDbEntity
  8
YODOROGO
100
AcDbLine
 10
11124.60162798446
 20
748.4060611609828
 30
0.0
 11
11124.60162798446
 21
760.4060611609829
 31
0.0
1001
AUTOCAD_POSTSCRIPT_FIGURE
1002
{
1000
PSFILL
1000
Grayscale
1000
Grayscale
1070
    25
1002
}
  0
LINE
  5
2842D
330
27F29
100
AcDbEntity
  8
YODOROGO
100
AcDbLine
 10
11162.10162798447
 20
748.4060611609828
 30
0.0
 11
11124.60162798446
 21
748.4060611609828
 31
0.0
1001
AUTOCAD_POSTSCRIPT_FIGURE
1002
{
1000
PSFILL
1000
Grayscale
1000
Grayscale
1070
    25
1002
}
  0
LINE
  5
2842E
330
27F29
100
AcDbEntity
  8
YODOROGO
100
AcDbLine
 10
11162.10162798447
 20
760.4060611609829
 30
0.0
 11
11162.10162798447
 21
748.4060611609828
 31
0.0
1001
AUTOCAD_POSTSCRIPT_FIGURE
1002
{
1000
PSFILL
1000
Grayscale
1000
Grayscale
1070
    25
1002
}
  0
LINE
  5
2842F
330
27F29
100
AcDbEntity
  8
YODOROGO
100
AcDbLine
 10
11186.10162798447
 20
760.4060611609829
 30
0.0
 11
11162.10162798447
 21
760.4060611609829
 31
0.0
1001
AUTOCAD_POSTSCRIPT_FIGURE
1002
{
1000
PSFILL
1000
Grayscale
1000
Grayscale
1070
    25
1002
}
  0
LINE
  5
28430
330
27F29
100
AcDbEntity
  8
YODOROGO
100
AcDbLine
 10
11186.10162798447
 20
748.4060611609828
 30
0.0
 11
11186.10162798447
 21
760.4060611609829
 31
0.0
1001
AUTOCAD_POSTSCRIPT_FIGURE
1002
{
1000
PSFILL
1000
Grayscale
1000
Grayscale
1070
    25
1002
}
  0
LINE
  5
28431
330
27F29
100
AcDbEntity
  8
YODOROGO
100
AcDbLine
 10
11186.10162798447
 20
715.4060611609828
 30
0.0
 11
11186.10162798447
 21
730.4060611609828
 31
0.0
1001
AUTOCAD_POSTSCRIPT_FIGURE
1002
{
1000
PSFILL
1000
Grayscale
1000
Grayscale
1070
    25
1002
}
  0
LINE
  5
28432
330
27F29
100
AcDbEntity
  8
YODOROGO
100
AcDbLine
 10
11186.10162798447
 20
682.4060611609827
 30
0.0
 11
11186.10162798447
 21
697.406061160983
 31
0.0
1001
AUTOCAD_POSTSCRIPT_FIGURE
1002
{
1000
PSFILL
1000
Grayscale
1000
Grayscale
1070
    25
1002
}
  0
LINE
  5
28433
330
27F29
100
AcDbEntity
  8
YODOROGO
100
AcDbLine
 10
11220.60162798447
 20
664.4060611609833
 30
0.0
 11
11220.60162798447
 21
640.4060611609827
 31
0.0
1001
AUTOCAD_POSTSCRIPT_FIGURE
1002
{
1000
PSFILL
1000
Grayscale
1000
Grayscale
1070
    25
1002
}
  0
LINE
  5
28434
330
27F29
100
AcDbEntity
  8
YODOROGO
100
AcDbLine
 10
11186.10162798447
 20
664.4060611609833
 30
0.0
 11
11220.60162798447
 21
664.4060611609833
 31
0.0
1001
AUTOCAD_POSTSCRIPT_FIGURE
1002
{
1000
PSFILL
1000
Grayscale
1000
Grayscale
1070
    25
1002
}
  0
LINE
  5
28435
330
27F29
100
AcDbEntity
  8
YODOROGO
100
AcDbLine
 10
11186.10162798447
 20
640.4060611609827
 30
0.0
 11
11186.10162798447
 21
664.4060611609833
 31
0.0
1001
AUTOCAD_POSTSCRIPT_FIGURE
1002
{
1000
PSFILL
1000
Grayscale
1000
Grayscale
1070
    25
1002
}
  0
LINE
  5
28436
330
27F29
100
AcDbEntity
  8
YODOROGO
100
AcDbLine
 10
11162.10162798447
 20
640.4060611609827
 30
0.0
 11
11186.10162798447
 21
640.4060611609827
 31
0.0
1001
AUTOCAD_POSTSCRIPT_FIGURE
1002
{
1000
PSFILL
1000
Grayscale
1000
Grayscale
1070
    25
1002
}
  0
LINE
  5
28437
330
27F29
100
AcDbEntity
  8
YODOROGO
100
AcDbLine
 10
11162.10162798447
 20
664.4060611609833
 30
0.0
 11
11162.10162798447
 21
640.4060611609827
 31
0.0
1001
AUTOCAD_POSTSCRIPT_FIGURE
1002
{
1000
PSFILL
1000
Grayscale
1000
Grayscale
1070
    25
1002
}
  0
LINE
  5
28438
330
27F29
100
AcDbEntity
  8
YODOROGO
100
AcDbLine
 10
11127.60162798447
 20
664.4060611609833
 30
0.0
 11
11162.10162798447
 21
664.4060611609833
 31
0.0
1001
AUTOCAD_POSTSCRIPT_FIGURE
1002
{
1000
PSFILL
1000
Grayscale
1000
Grayscale
1070
    25
1002
}
  0
ARC
  5
28439
330
27F29
100
AcDbEntity
  8
YODOROGO
100
AcDbCircle
 10
11647.31921000922
 20
601.0052765683409
 30
0.0
 40
66.83298041652057
100
AcDbArc
 50
281.0262749542534
 51
357.771135755738
  0
LINE
  5
2843A
330
27F29
100
AcDbEntity
  8
YODOROGO
100
AcDbLine
 10
11780.10162798446
 20
715.4060611609828
 30
0.0
 11
11687.10162798447
 21
715.4060611609828
 31
0.0
  0
LINE
  5
2843B
330
27F29
100
AcDbEntity
  8
YODOROGO
100
AcDbLine
 10
11780.10162798446
 20
760.4060611609829
 30
0.0
 11
11687.10162798447
 21
760.4060611609829
 31
0.0
  0
LINE
  5
2843C
330
27F29
100
AcDbEntity
  8
YODOROGO
100
AcDbLine
 10
11687.10162798447
 20
736.4060611609825
 30
0.0
 11
11780.10162798446
 21
736.4060611609825
 31
0.0
  0
LINE
  5
2843D
330
27F29
100
AcDbEntity
  8
YODOROGO
100
AcDbLine
 10
11546.85162798447
 20
586.4060611609825
 30
0.0
 11
11546.85162798447
 21
658.4060611609827
 31
0.0
  0
LINE
  5
2843E
330
27F29
100
AcDbEntity
  8
YODOROGO
100
AcDbLine
 10
11536.35162798447
 20
634.4060611609833
 30
0.0
 11
11536.35162798447
 21
586.4060611609825
 31
0.0
  0
LINE
  5
2843F
330
27F29
100
AcDbEntity
  8
YODOROGO
100
AcDbLine
 10
11521.35162798447
 20
559.4060611609831
 30
0.0
 11
11521.35162798447
 21
634.4060611609833
 31
0.0
  0
LINE
  5
28440
330
27F29
100
AcDbEntity
  8
YODOROGO
100
AcDbLine
 10
11587.35162798447
 20
634.4060611609833
 30
0.0
 11
11587.35162798447
 21
559.4060611609831
 31
0.0
  0
LINE
  5
28441
330
27F29
100
AcDbEntity
  8
YODOROGO
100
AcDbLine
 10
11572.35162798446
 20
586.4060611609825
 30
0.0
 11
11572.35162798446
 21
634.4060611609833
 31
0.0
  0
LINE
  5
28442
330
27F29
100
AcDbEntity
  8
YODOROGO
100
AcDbLine
 10
11561.85162798446
 20
658.4060611609827
 30
0.0
 11
11561.85162798446
 21
586.4060611609825
 31
0.0
  0
LINE
  5
28443
330
27F29
100
AcDbEntity
  8
YODOROGO
100
AcDbLine
 10
11615.10162798446
 20
760.4060611609829
 30
0.0
 11
11615.10162798446
 21
550.4060611609827
 31
0.0
  0
LINE
  5
28444
330
27F29
100
AcDbEntity
  8
YODOROGO
100
AcDbLine
 10
11492.10162798447
 20
535.4060611609829
 30
0.0
 11
11492.10162798447
 21
760.4060611609829
 31
0.0
  0
LINE
  5
28445
330
27F29
100
AcDbEntity
  8
YODOROGO
100
AcDbLine
 10
11511.60162798447
 20
736.4060611609825
 30
0.0
 11
11511.60162798447
 21
535.4060611609829
 31
0.0
  0
LINE
  5
28446
330
27F29
100
AcDbEntity
  8
YODOROGO
100
AcDbLine
 10
11597.10162798446
 20
580.406061160983
 30
0.0
 11
11597.10162798446
 21
736.4060611609825
 31
0.0
  0
LINE
  5
28447
330
27F29
100
AcDbEntity
  8
YODOROGO
100
AcDbLine
 10
11393.10162798446
 20
610.4060611609829
 30
0.0
 11
11393.10162798446
 21
629.9060611609831
 31
0.0
  0
LINE
  5
28448
330
27F29
100
AcDbEntity
  8
YODOROGO
100
AcDbLine
 10
11481.60162798447
 20
629.9060611609831
 30
0.0
 11
11481.60162798447
 21
610.4060611609829
 31
0.0
  0
LINE
  5
28449
330
27F29
100
AcDbEntity
  8
YODOROGO
100
AcDbLine
 10
11687.10162798447
 20
715.4060611609828
 30
0.0
 11
11687.10162798447
 21
613.4060611609827
 31
0.0
  0
LINE
  5
2844A
330
27F29
100
AcDbEntity
  8
YODOROGO
100
AcDbLine
 10
11231.10162798446
 20
625.406061160983
 30
0.0
 11
11231.10162798446
 21
640.4060611609827
 31
0.0
  0
LINE
  5
2844B
330
27F29
100
AcDbEntity
  8
YODOROGO
100
AcDbLine
 10
11231.10162798446
 20
625.406061160983
 30
0.0
 11
11231.10162798446
 21
640.4060611609827
 31
0.0
  0
ARC
  5
2844C
330
27F29
100
AcDbEntity
  8
YODOROGO
100
AcDbCircle
 10
11451.60162798447
 20
565.4060611609827
 30
0.0
 40
30.0
100
AcDbArc
 50
270.0
 51
0.0
  0
LINE
  5
2844D
330
27F29
100
AcDbEntity
  8
YODOROGO
100
AcDbLine
 10
11463.60162798446
 20
599.9060611609831
 30
0.0
 11
11481.60162798447
 21
599.9060611609831
 31
0.0
  0
LINE
  5
2844E
330
27F29
100
AcDbEntity
  8
YODOROGO
100
AcDbLine
 10
11481.60162798447
 20
610.4060611609829
 30
0.0
 11
11448.60162798446
 21
610.4060611609829
 31
0.0
  0
LINE
  5
2844F
330
27F29
100
AcDbEntity
  8
YODOROGO
100
AcDbLine
 10
11331.60162798447
 20
625.406061160983
 30
0.0
 11
11231.10162798446
 21
625.406061160983
 31
0.0
  0
LINE
  5
28450
330
27F29
100
AcDbEntity
  8
YODOROGO
100
AcDbLine
 10
11331.60162798447
 20
610.4060611609829
 30
0.0
 11
11331.60162798447
 21
625.406061160983
 31
0.0
  0
LINE
  5
28451
330
27F29
100
AcDbEntity
  8
YODOROGO
100
AcDbLine
 10
11256.60162798447
 20
610.4060611609829
 30
0.0
 11
11331.60162798447
 21
610.4060611609829
 31
0.0
  0
ARC
  5
28452
330
27F29
100
AcDbEntity
  8
YODOROGO
100
AcDbCircle
 10
11336.27206076301
 20
700.8321431073384
 30
0.0
 40
120.5166136069605
100
AcDbArc
 50
228.6181454618993
 51
245.660289248906
  0
LINE
  5
28453
330
27F29
100
AcDbEntity
  8
YODOROGO
100
AcDbLine
 10
11289.60162798447
 20
601.4060611609833
 30
0.0
 11
11286.60162798448
 21
591.0273059512126
 31
0.0
  0
LINE
  5
28454
330
27F29
100
AcDbEntity
  8
YODOROGO
100
AcDbLine
 10
11321.10162798447
 20
601.4060611609833
 30
0.0
 11
11289.60162798447
 21
601.4060611609833
 31
0.0
  0
LINE
  5
28455
330
27F29
100
AcDbEntity
  8
YODOROGO
100
AcDbLine
 10
11316.60162798447
 20
581.9316459275352
 30
0.0
 11
11321.10162798447
 21
601.4060611609833
 31
0.0
  0
ARC
  5
28456
330
27F29
100
AcDbEntity
  8
YODOROGO
100
AcDbCircle
 10
11336.27206076267
 20
700.832143107376
 30
0.0
 40
120.516613606984
100
AcDbArc
 50
260.6062929796992
 51
267.7790355655586
  0
LINE
  5
28457
330
27F29
100
AcDbEntity
  8
YODOROGO
100
AcDbLine
 10
11331.60162798447
 20
535.4060611609821
 30
0.0
 11
11331.60162798447
 21
580.406061160983
 31
0.0
  0
LINE
  5
28458
330
27F29
100
AcDbEntity
  8
YODOROGO
100
AcDbLine
 10
11226.60162798446
 20
555.5022505933163
 30
0.0
 11
11226.60162798446
 21
597.949158949178
 31
0.0
  0
LINE
  5
28459
330
27F29
100
AcDbEntity
  8
YODOROGO
100
AcDbLine
 10
11331.60162798447
 20
625.406061160983
 30
0.0
 11
11231.10162798446
 21
625.406061160983
 31
0.0
  0
LINE
  5
2845A
330
27F29
100
AcDbEntity
  8
YODOROGO
100
AcDbLine
 10
11331.60162798447
 20
610.4060611609829
 30
0.0
 11
11331.60162798447
 21
625.406061160983
 31
0.0
  0
LINE
  5
2845B
330
27F29
100
AcDbEntity
  8
YODOROGO
100
AcDbLine
 10
11256.60162798447
 20
610.4060611609829
 30
0.0
 11
11331.60162798447
 21
610.4060611609829
 31
0.0
  0
ARC
  5
2845C
330
27F29
100
AcDbEntity
  8
YODOROGO
100
AcDbCircle
 10
11336.27206076301
 20
700.8321431073384
 30
0.0
 40
120.5166136069605
100
AcDbArc
 50
228.6181454618993
 51
245.660289248906
  0
LINE
  5
2845D
330
27F29
100
AcDbEntity
  8
YODOROGO
100
AcDbLine
 10
11289.60162798447
 20
601.4060611609833
 30
0.0
 11
11286.60162798448
 21
591.0273059512126
 31
0.0
  0
LINE
  5
2845E
330
27F29
100
AcDbEntity
  8
YODOROGO
100
AcDbLine
 10
11321.10162798447
 20
601.4060611609833
 30
0.0
 11
11289.60162798447
 21
601.4060611609833
 31
0.0
  0
LINE
  5
2845F
330
27F29
100
AcDbEntity
  8
YODOROGO
100
AcDbLine
 10
11316.60162798447
 20
581.9316459275352
 30
0.0
 11
11321.10162798447
 21
601.4060611609833
 31
0.0
  0
ARC
  5
28460
330
27F29
100
AcDbEntity
  8
YODOROGO
100
AcDbCircle
 10
11336.27206076267
 20
700.832143107376
 30
0.0
 40
120.516613606984
100
AcDbArc
 50
260.6062929796992
 51
267.7790355655586
  0
LINE
  5
28461
330
27F29
100
AcDbEntity
  8
YODOROGO
100
AcDbLine
 10
11331.60162798447
 20
535.4060611609821
 30
0.0
 11
11331.60162798447
 21
580.406061160983
 31
0.0
  0
LINE
  5
28462
330
27F29
100
AcDbEntity
  8
YODOROGO
100
AcDbLine
 10
11226.60162798446
 20
555.5022505933163
 30
0.0
 11
11226.60162798446
 21
597.949158949178
 31
0.0
  0
LINE
  5
28463
330
27F29
100
AcDbEntity
  8
YODOROGO
100
AcDbLine
 10
11412.60162798447
 20
590.1560611609832
 30
0.0
 11
11393.10162798446
 21
590.1560611609832
 31
0.0
  0
LINE
  5
28464
330
27F29
100
AcDbEntity
  8
YODOROGO
100
AcDbLine
 10
11412.60162798447
 20
600.6560611609824
 30
0.0
 11
11412.60162798447
 21
590.1560611609832
 31
0.0
  0
LINE
  5
28465
330
27F29
100
AcDbEntity
  8
YODOROGO
100
AcDbLine
 10
11393.10162798446
 20
600.6560611609824
 30
0.0
 11
11412.60162798447
 21
600.6560611609824
 31
0.0
  0
LINE
  5
28466
330
27F29
100
AcDbEntity
  8
YODOROGO
100
AcDbLine
 10
11393.10162798446
 20
590.1560611609832
 30
0.0
 11
11393.10162798446
 21
600.6560611609824
 31
0.0
  0
LINE
  5
28467
330
27F29
100
AcDbEntity
  8
YODOROGO
100
AcDbLine
 10
11411.10162798447
 20
591.6560611609829
 30
0.0
 11
11394.60162798447
 21
591.6560611609829
 31
0.0
  0
LINE
  5
28468
330
27F29
100
AcDbEntity
  8
YODOROGO
100
AcDbLine
 10
11411.10162798447
 20
599.156061160983
 30
0.0
 11
11411.10162798447
 21
591.6560611609829
 31
0.0
  0
LINE
  5
28469
330
27F29
100
AcDbEntity
  8
YODOROGO
100
AcDbLine
 10
11394.60162798447
 20
599.156061160983
 30
0.0
 11
11411.10162798447
 21
599.156061160983
 31
0.0
  0
LINE
  5
2846A
330
27F29
100
AcDbEntity
  8
YODOROGO
100
AcDbLine
 10
11394.60162798447
 20
591.6560611609829
 30
0.0
 11
11394.60162798447
 21
599.156061160983
 31
0.0
  0
LINE
  5
2846B
330
27F29
100
AcDbEntity
  8
YODOROGO
100
AcDbLine
 10
11409.60162798447
 20
593.1560611609824
 30
0.0
 11
11396.10162798446
 21
593.1560611609824
 31
0.0
  0
LINE
  5
2846C
330
27F29
100
AcDbEntity
  8
YODOROGO
100
AcDbLine
 10
11409.60162798447
 20
597.6560611609833
 30
0.0
 11
11409.60162798447
 21
593.1560611609824
 31
0.0
  0
LINE
  5
2846D
330
27F29
100
AcDbEntity
  8
YODOROGO
100
AcDbLine
 10
11396.10162798446
 20
597.6560611609833
 30
0.0
 11
11409.60162798447
 21
597.6560611609833
 31
0.0
  0
LINE
  5
2846E
330
27F29
100
AcDbEntity
  8
YODOROGO
100
AcDbLine
 10
11396.10162798446
 20
593.1560611609824
 30
0.0
 11
11396.10162798446
 21
597.6560611609833
 31
0.0
  0
LINE
  5
2846F
330
27F29
100
AcDbEntity
  8
YODOROGO
100
AcDbLine
 10
11408.10162798447
 20
594.6560611609827
 30
0.0
 11
11397.60162798447
 21
594.6560611609827
 31
0.0
  0
LINE
  5
28470
330
27F29
100
AcDbEntity
  8
YODOROGO
100
AcDbLine
 10
11408.10162798447
 20
596.1560611609827
 30
0.0
 11
11408.10162798447
 21
594.6560611609827
 31
0.0
  0
LINE
  5
28471
330
27F29
100
AcDbEntity
  8
YODOROGO
100
AcDbLine
 10
11397.60162798447
 20
596.1560611609827
 30
0.0
 11
11408.10162798447
 21
596.1560611609827
 31
0.0
  0
LINE
  5
28472
330
27F29
100
AcDbEntity
  8
YODOROGO
100
AcDbLine
 10
11397.60162798447
 20
594.6560611609827
 30
0.0
 11
11397.60162798447
 21
596.1560611609827
 31
0.0
  0
LINE
  5
28473
330
27F29
100
AcDbEntity
  8
YODOROGO
100
AcDbLine
 10
11424.60162798446
 20
610.4060611609829
 30
0.0
 11
11393.10162798446
 21
610.4060611609829
 31
0.0
  0
LINE
  5
28474
330
27F29
100
AcDbEntity
  8
YODOROGO
100
AcDbLine
 10
11424.60162798446
 20
580.406061160983
 30
0.0
 11
11424.60162798446
 21
610.4060611609829
 31
0.0
  0
LINE
  5
28475
330
27F29
100
AcDbEntity
  8
YODOROGO
100
AcDbLine
 10
11393.10162798446
 20
580.406061160983
 30
0.0
 11
11424.60162798446
 21
580.406061160983
 31
0.0
  0
LINE
  5
28476
330
27F29
100
AcDbEntity
  8
YODOROGO
100
AcDbLine
 10
11393.10162798446
 20
535.4060611609829
 30
0.0
 11
11393.10162798446
 21
580.406061160983
 31
0.0
  0
LINE
  5
28477
330
27F29
100
AcDbEntity
  8
YODOROGO
100
AcDbLine
 10
11451.60162798447
 20
535.4060611609829
 30
0.0
 11
11393.10162798446
 21
535.4060611609829
 31
0.0
  0
LINE
  5
28478
330
27F29
100
AcDbEntity
  8
YODOROGO
100
AcDbLine
 10
11463.60162798446
 20
589.4060611609823
 30
0.0
 11
11463.60162798446
 21
599.9060611609831
 31
0.0
  0
ARC
  5
28479
330
27F29
100
AcDbEntity
  8
YODOROGO
100
AcDbCircle
 10
11454.60162798446
 20
589.4060611609843
 30
0.0
 40
9.000000000001408
100
AcDbArc
 50
270.0
 51
359.9999999999877
  0
LINE
  5
2847A
330
27F29
100
AcDbEntity
  8
YODOROGO
100
AcDbLine
 10
11448.60162798446
 20
580.406061160983
 30
0.0
 11
11454.60162798446
 21
580.406061160983
 31
0.0
  0
LINE
  5
2847B
330
27F29
100
AcDbEntity
  8
YODOROGO
100
AcDbLine
 10
11448.60162798446
 20
610.4060611609829
 30
0.0
 11
11448.60162798446
 21
580.406061160983
 31
0.0
  0
LINE
  5
2847C
330
27F29
100
AcDbEntity
  8
YODOROGO
100
AcDbLine
 10
11587.35162798447
 20
580.406061160983
 30
0.0
 11
11597.10162798446
 21
580.406061160983
 31
0.0
  0
LINE
  5
2847D
330
27F29
100
AcDbEntity
  8
YODOROGO
100
AcDbLine
 10
11600.10162798446
 20
535.4060611609829
 30
0.0
 11
11587.35162798447
 21
535.4060611609829
 31
0.0
  0
LINE
  5
2847E
330
27F29
100
AcDbEntity
  8
YODOROGO
100
AcDbLine
 10
11536.35162798447
 20
586.4060611609825
 30
0.0
 11
11546.85162798447
 21
586.4060611609825
 31
0.0
  0
LINE
  5
2847F
330
27F29
100
AcDbEntity
  8
YODOROGO
100
AcDbLine
 10
11587.35162798447
 20
559.4060611609831
 30
0.0
 11
11521.35162798447
 21
559.4060611609831
 31
0.0
  0
LINE
  5
28480
330
27F29
100
AcDbEntity
  8
YODOROGO
100
AcDbLine
 10
11561.85162798446
 20
586.4060611609825
 30
0.0
 11
11572.35162798446
 21
586.4060611609825
 31
0.0
  0
LINE
  5
28481
330
27F29
100
AcDbEntity
  8
YODOROGO
100
AcDbLine
 10
11587.35162798447
 20
535.4060611609829
 30
0.0
 11
11587.35162798447
 21
580.406061160983
 31
0.0
  0
LINE
  5
28482
330
27F29
100
AcDbEntity
  8
YODOROGO
100
AcDbLine
 10
11511.60162798447
 20
535.4060611609829
 30
0.0
 11
11492.10162798447
 21
535.4060611609829
 31
0.0
  0
LINE
  5
28483
330
27F29
100
AcDbEntity
  8
YODOROGO
100
AcDbLine
 10
11481.60162798447
 20
599.9060611609831
 30
0.0
 11
11481.60162798447
 21
565.4060611609827
 31
0.0
  0
ARC
  5
28484
330
27F29
100
AcDbEntity
  8
YODOROGO
100
AcDbCircle
 10
11600.10162798446
 20
550.4060611609827
 30
0.0
 40
15.0
100
AcDbArc
 50
270.0
 51
0.0
  0
LINE
  5
28485
330
27F29
100
AcDbEntity
  8
YODOROGO
100
AcDbLine
 10
11660.10162798446
 20
571.4060611609824
 30
0.0
 11
11660.10162798446
 21
535.4060611609829
 31
0.0
  0
ARC
  5
28486
330
27F29
100
AcDbEntity
  8
YODOROGO
100
AcDbCircle
 10
11639.89552333754
 20
614.0742712911499
 30
0.0
 40
47.21083372187828
100
AcDbArc
 50
295.3405244216011
 51
359.1890230341868
  0
LINE
  5
28487
330
27F29
100
AcDbEntity
  8
YODOROGO
100
AcDbLine
 10
11481.60162798447
 20
697.406061160983
 30
0.0
 11
11436.60162798447
 21
727.4060611609828
 31
0.0
  0
LINE
  5
28488
330
27F29
100
AcDbEntity
  8
YODOROGO
100
AcDbLine
 10
11436.60162798447
 20
760.4060611609829
 30
0.0
 11
11481.60162798447
 21
730.4060611609828
 31
0.0
  0
LINE
  5
28489
330
27F29
100
AcDbEntity
  8
YODOROGO
100
AcDbLine
 10
11448.60162798446
 20
629.9060611609831
 30
0.0
 11
11481.60162798447
 21
629.9060611609831
 31
0.0
  0
LINE
  5
2848A
330
27F29
100
AcDbEntity
  8
YODOROGO
100
AcDbLine
 10
11481.60162798447
 20
650.9060611609827
 30
0.0
 11
11448.60162798446
 21
650.9060611609827
 31
0.0
  0
LINE
  5
2848B
330
27F29
100
AcDbEntity
  8
YODOROGO
100
AcDbLine
 10
11393.10162798446
 20
673.4060611609827
 30
0.0
 11
11481.60162798447
 21
673.4060611609827
 31
0.0
  0
LINE
  5
2848C
330
27F29
100
AcDbEntity
  8
YODOROGO
100
AcDbLine
 10
11280.60162798447
 20
760.4060611609829
 30
0.0
 11
11258.10162798447
 21
760.4060611609829
 31
0.0
  0
LINE
  5
2848D
330
27F29
100
AcDbEntity
  8
YODOROGO
100
AcDbLine
 10
11280.60162798447
 20
685.4060611609829
 30
0.0
 11
11280.60162798447
 21
760.4060611609829
 31
0.0
  0
LINE
  5
2848E
330
27F29
100
AcDbEntity
  8
YODOROGO
100
AcDbLine
 10
11258.10162798447
 20
685.4060611609829
 30
0.0
 11
11280.60162798447
 21
685.4060611609829
 31
0.0
  0
LINE
  5
2848F
330
27F29
100
AcDbEntity
  8
YODOROGO
100
AcDbLine
 10
11258.10162798447
 20
760.4060611609829
 30
0.0
 11
11258.10162798447
 21
685.4060611609829
 31
0.0
  0
LINE
  5
28490
330
27F29
100
AcDbEntity
  8
YODOROGO
100
AcDbLine
 10
11310.60162798447
 20
760.4060611609829
 30
0.0
 11
11331.60162798447
 21
760.4060611609829
 31
0.0
  0
LINE
  5
28491
330
27F29
100
AcDbEntity
  8
YODOROGO
100
AcDbLine
 10
11310.60162798447
 20
679.4060611609832
 30
0.0
 11
11310.60162798447
 21
760.4060611609829
 31
0.0
  0
ARC
  5
28492
330
27F29
100
AcDbEntity
  8
YODOROGO
100
AcDbCircle
 10
11295.60162798447
 20
679.4060611609832
 30
0.0
 40
15.0
100
AcDbArc
 50
270.0
 51
0.0
  0
LINE
  5
28493
330
27F29
100
AcDbEntity
  8
YODOROGO
100
AcDbLine
 10
11258.10162798447
 20
664.4060611609833
 30
0.0
 11
11295.60162798447
 21
664.4060611609833
 31
0.0
  0
LINE
  5
28494
330
27F29
100
AcDbEntity
  8
YODOROGO
100
AcDbLine
 10
11258.10162798447
 20
640.4060611609827
 30
0.0
 11
11258.10162798447
 21
664.4060611609833
 31
0.0
  0
LINE
  5
28495
330
27F29
100
AcDbEntity
  8
YODOROGO
100
AcDbLine
 10
11301.60162798446
 20
640.4060611609827
 30
0.0
 11
11258.10162798447
 21
640.4060611609827
 31
0.0
  0
ARC
  5
28496
330
27F29
100
AcDbEntity
  8
YODOROGO
100
AcDbCircle
 10
11301.60162798446
 20
670.4060611609827
 30
0.0
 40
30.0
100
AcDbArc
 50
270.0
 51
0.0
  0
LINE
  5
28497
330
27F29
100
AcDbEntity
  8
YODOROGO
100
AcDbLine
 10
11331.60162798447
 20
760.4060611609829
 30
0.0
 11
11331.60162798447
 21
670.4060611609827
 31
0.0
  0
LINE
  5
28498
330
27F29
100
AcDbEntity
  8
YODOROGO
100
AcDbLine
 10
11241.60162798446
 20
730.4060611609828
 30
0.0
 11
11241.60162798446
 21
748.4060611609828
 31
0.0
1001
AUTOCAD_POSTSCRIPT_FIGURE
1002
{
1000
PSFILL
1000
Grayscale
1000
Grayscale
1070
    25
1002
}
  0
LINE
  5
28499
330
27F29
100
AcDbEntity
  8
YODOROGO
100
AcDbLine
 10
11241.60162798446
 20
697.406061160983
 30
0.0
 11
11241.60162798446
 21
715.4060611609828
 31
0.0
1001
AUTOCAD_POSTSCRIPT_FIGURE
1002
{
1000
PSFILL
1000
Grayscale
1000
Grayscale
1070
    25
1002
}
  0
LINE
  5
2849A
330
27F29
100
AcDbEntity
  8
YODOROGO
100
AcDbLine
 10
11241.60162798446
 20
640.4060611609827
 30
0.0
 11
11241.60162798446
 21
682.4060611609827
 31
0.0
1001
AUTOCAD_POSTSCRIPT_FIGURE
1002
{
1000
PSFILL
1000
Grayscale
1000
Grayscale
1070
    25
1002
}
  0
LINE
  5
2849B
330
27F29
100
AcDbEntity
  8
YODOROGO
100
AcDbLine
 10
11393.10162798446
 20
715.4060611609828
 30
0.0
 11
11436.60162798447
 21
760.4060611609829
 31
0.0
  0
LINE
  5
2849C
330
27F29
100
AcDbEntity
  8
YODOROGO
100
AcDbLine
 10
11393.10162798446
 20
682.4060611609827
 30
0.0
 11
11393.10162798446
 21
715.4060611609828
 31
0.0
  0
LINE
  5
2849D
330
27F29
100
AcDbEntity
  8
YODOROGO
100
AcDbLine
 10
11436.60162798447
 20
727.4060611609828
 30
0.0
 11
11393.10162798446
 21
682.4060611609827
 31
0.0
  0
LINE
  5
2849E
330
27F29
100
AcDbEntity
  8
YODOROGO
100
AcDbLine
 10
11424.60162798446
 20
629.9060611609831
 30
0.0
 11
11424.60162798446
 21
650.9060611609827
 31
0.0
  0
LINE
  5
2849F
330
27F29
100
AcDbEntity
  8
YODOROGO
100
AcDbLine
 10
11393.10162798446
 20
629.9060611609831
 30
0.0
 11
11424.60162798446
 21
629.9060611609831
 31
0.0
  0
LINE
  5
284A0
330
27F29
100
AcDbEntity
  8
YODOROGO
100
AcDbLine
 10
11448.60162798446
 20
650.9060611609827
 30
0.0
 11
11448.60162798446
 21
629.9060611609831
 31
0.0
  0
LINE
  5
284A1
330
27F29
100
AcDbEntity
  8
YODOROGO
100
AcDbLine
 10
11393.10162798446
 20
650.9060611609827
 30
0.0
 11
11393.10162798446
 21
673.4060611609827
 31
0.0
  0
LINE
  5
284A2
330
27F29
100
AcDbEntity
  8
YODOROGO
100
AcDbLine
 10
11424.60162798446
 20
650.9060611609827
 30
0.0
 11
11393.10162798446
 21
650.9060611609827
 31
0.0
  0
LINE
  5
284A3
330
27F29
100
AcDbEntity
  8
YODOROGO
100
AcDbLine
 10
11492.10162798447
 20
760.4060611609829
 30
0.0
 11
11615.10162798446
 21
760.4060611609829
 31
0.0
  0
LINE
  5
284A4
330
27F29
100
AcDbEntity
  8
YODOROGO
100
AcDbLine
 10
11597.10162798446
 20
736.4060611609825
 30
0.0
 11
11511.60162798447
 21
736.4060611609825
 31
0.0
  0
LINE
  5
284A5
330
27F29
100
AcDbEntity
  8
YODOROGO
100
AcDbLine
 10
11577.60162798447
 20
682.4060611609827
 30
0.0
 11
11587.35162798447
 21
682.4060611609827
 31
0.0
  0
LINE
  5
284A6
330
27F29
100
AcDbEntity
  8
YODOROGO
100
AcDbLine
 10
11587.35162798447
 20
727.4060611609828
 30
0.0
 11
11577.60162798447
 21
682.4060611609827
 31
0.0
  0
LINE
  5
284A7
330
27F29
100
AcDbEntity
  8
YODOROGO
100
AcDbLine
 10
11569.35162798446
 20
727.4060611609828
 30
0.0
 11
11587.35162798447
 21
727.4060611609828
 31
0.0
  0
LINE
  5
284A8
330
27F29
100
AcDbEntity
  8
YODOROGO
100
AcDbLine
 10
11559.60162798447
 20
682.4060611609827
 30
0.0
 11
11569.35162798446
 21
727.4060611609828
 31
0.0
  0
LINE
  5
284A9
330
27F29
100
AcDbEntity
  8
YODOROGO
100
AcDbLine
 10
11549.10162798447
 20
682.4060611609827
 30
0.0
 11
11559.60162798447
 21
682.4060611609827
 31
0.0
  0
LINE
  5
284AA
330
27F29
100
AcDbEntity
  8
YODOROGO
100
AcDbLine
 10
11539.35162798447
 20
727.4060611609828
 30
0.0
 11
11549.10162798447
 21
682.4060611609827
 31
0.0
  0
LINE
  5
284AB
330
27F29
100
AcDbEntity
  8
YODOROGO
100
AcDbLine
 10
11521.35162798447
 20
727.4060611609828
 30
0.0
 11
11539.35162798447
 21
727.4060611609828
 31
0.0
  0
LINE
  5
284AC
330
27F29
100
AcDbEntity
  8
YODOROGO
100
AcDbLine
 10
11531.10162798447
 20
682.4060611609827
 30
0.0
 11
11521.35162798447
 21
727.4060611609828
 31
0.0
  0
LINE
  5
284AD
330
27F29
100
AcDbEntity
  8
YODOROGO
100
AcDbLine
 10
11521.35162798447
 20
682.4060611609827
 30
0.0
 11
11531.10162798447
 21
682.4060611609827
 31
0.0
  0
LINE
  5
284AE
330
27F29
100
AcDbEntity
  8
YODOROGO
100
AcDbLine
 10
11521.35162798447
 20
658.4060611609827
 30
0.0
 11
11521.35162798447
 21
682.4060611609827
 31
0.0
  0
LINE
  5
284AF
330
27F29
100
AcDbEntity
  8
YODOROGO
100
AcDbLine
 10
11587.35162798447
 20
658.4060611609827
 30
0.0
 11
11521.35162798447
 21
658.4060611609827
 31
0.0
  0
LINE
  5
284B0
330
27F29
100
AcDbEntity
  8
YODOROGO
100
AcDbLine
 10
11587.35162798447
 20
682.4060611609827
 30
0.0
 11
11587.35162798447
 21
658.4060611609827
 31
0.0
  0
LINE
  5
284B1
330
27F29
100
AcDbEntity
  8
YODOROGO
100
AcDbLine
 10
11481.60162798447
 20
730.4060611609828
 30
0.0
 11
11481.60162798447
 21
697.406061160983
 31
0.0
  0
LINE
  5
284B2
330
27F29
100
AcDbEntity
  8
YODOROGO
100
AcDbLine
 10
11546.85162798447
 20
658.4060611609827
 30
0.0
 11
11561.85162798446
 21
658.4060611609827
 31
0.0
  0
LINE
  5
284B3
330
27F29
100
AcDbEntity
  8
YODOROGO
100
AcDbLine
 10
11521.35162798447
 20
634.4060611609833
 30
0.0
 11
11536.35162798447
 21
634.4060611609833
 31
0.0
  0
LINE
  5
284B4
330
27F29
100
AcDbEntity
  8
YODOROGO
100
AcDbLine
 10
11572.35162798446
 20
634.4060611609833
 30
0.0
 11
11587.35162798447
 21
634.4060611609833
 31
0.0
  0
LINE
  5
284B5
330
27F29
100
AcDbEntity
  8
YODOROGO
100
AcDbLine
 10
11481.60162798447
 20
673.4060611609827
 30
0.0
 11
11481.60162798447
 21
650.9060611609827
 31
0.0
  0
LINE
  5
284B6
330
27F29
100
AcDbEntity
  8
YODOROGO
100
AcDbLine
 10
11687.10162798447
 20
760.4060611609829
 30
0.0
 11
11687.10162798447
 21
736.4060611609825
 31
0.0
  0
LINE
  5
284B7
330
27F29
100
AcDbEntity
  8
YODOROGO
100
AcDbLine
 10
11825.10162798447
 20
598.4060611609827
 30
0.0
 11
11825.10162798446
 21
679.4060611609832
 31
0.0
  0
LINE
  5
284B8
330
27F29
100
AcDbEntity
  8
YODOROGO
100
AcDbLine
 10
11798.10162798446
 20
745.4060611609828
 30
0.0
 11
11798.10162798446
 21
613.4060611609827
 31
0.0
  0
LINE
  5
284B9
330
27F29
100
AcDbEntity
  8
YODOROGO
100
AcDbLine
 10
11870.10162798447
 20
535.4060611609829
 30
0.0
 11
11870.10162798446
 21
679.4060611609832
 31
0.0
  0
LINE
  5
284BA
330
27F29
100
AcDbEntity
  8
YODOROGO
100
AcDbLine
 10
11846.10162798447
 20
679.4060611609832
 30
0.0
 11
11846.10162798447
 21
535.4060611609829
 31
0.0
  0
LINE
  5
284BB
330
27F29
100
AcDbEntity
  8
YODOROGO
100
AcDbLine
 10
11714.10162798447
 20
598.4060611609827
 30
0.0
 11
11714.10162798447
 21
640.4060611609827
 31
0.0
  0
ARC
  5
284BC
330
27F29
100
AcDbEntity
  8
YODOROGO
100
AcDbCircle
 10
11757.71807441852
 20
602.921381733209
 30
0.0
 40
67.53466821599572
100
AcDbArc
 50
268.6284910216979
 51
356.1663845733032
  0
LINE
  5
284BD
330
27F29
100
AcDbEntity
  8
YODOROGO
100
AcDbLine
 10
11756.10162798446
 20
572.9060611609829
 30
0.0
 11
11756.10162798446
 21
535.4060611609829
 31
0.0
  0
ARC
  5
284BE
330
27F29
100
AcDbEntity
  8
YODOROGO
100
AcDbCircle
 10
11756.81927839671
 20
614.1896088816206
 30
0.0
 40
41.28978486885457
100
AcDbArc
 50
269.0041020930593
 51
358.9126445549248
  0
LINE
  5
284BF
330
27F29
100
AcDbEntity
  8
YODOROGO
100
AcDbLine
 10
11846.10162798447
 20
535.4060611609829
 30
0.0
 11
11870.10162798447
 21
535.4060611609829
 31
0.0
  0
LINE
  5
284C0
330
27F29
100
AcDbEntity
  8
YODOROGO
100
AcDbLine
 10
11825.10162798446
 20
679.4060611609832
 30
0.0
 11
11846.10162798447
 21
679.4060611609832
 31
0.0
  0
LINE
  5
284C1
330
27F29
100
AcDbEntity
  8
YODOROGO
100
AcDbLine
 10
11858.10162798446
 20
745.4060611609828
 30
0.0
 11
11798.10162798446
 21
745.4060611609828
 31
0.0
  0
LINE
  5
284C2
330
27F29
100
AcDbEntity
  8
YODOROGO
100
AcDbLine
 10
11825.10162798446
 20
718.4060611609829
 30
0.0
 11
11873.10162798447
 21
718.4060611609829
 31
0.0
  0
LINE
  5
284C3
330
27F29
100
AcDbEntity
  8
YODOROGO
100
AcDbLine
 10
11888.10162798447
 20
703.4060611609828
 30
0.0
 11
11825.10162798446
 21
703.4060611609828
 31
0.0
  0
LINE
  5
284C4
330
27F29
100
AcDbEntity
  8
YODOROGO
100
AcDbLine
 10
11714.10162798447
 20
667.4060611609831
 30
0.0
 11
11756.10162798446
 21
667.4060611609831
 31
0.0
  0
LINE
  5
284C5
330
27F29
100
AcDbEntity
  8
YODOROGO
100
AcDbLine
 10
11714.10162798447
 20
688.4060611609828
 30
0.0
 11
11714.10162798447
 21
667.4060611609831
 31
0.0
  0
LINE
  5
284C6
330
27F29
100
AcDbEntity
  8
YODOROGO
100
AcDbLine
 10
11756.10162798446
 20
688.4060611609828
 30
0.0
 11
11714.10162798447
 21
688.4060611609828
 31
0.0
  0
LINE
  5
284C7
330
27F29
100
AcDbEntity
  8
YODOROGO
100
AcDbLine
 10
11756.10162798446
 20
667.4060611609831
 30
0.0
 11
11756.10162798446
 21
688.4060611609828
 31
0.0
  0
LINE
  5
284C8
330
27F29
100
AcDbEntity
  8
YODOROGO
100
AcDbLine
 10
11825.10162798446
 20
703.4060611609828
 30
0.0
 11
11825.10162798446
 21
718.4060611609829
 31
0.0
  0
LINE
  5
284C9
330
27F29
100
AcDbEntity
  8
YODOROGO
100
AcDbLine
 10
11780.10162798446
 20
640.4060611609827
 30
0.0
 11
11780.10162798446
 21
715.4060611609828
 31
0.0
  0
LINE
  5
284CA
330
27F29
100
AcDbEntity
  8
YODOROGO
100
AcDbLine
 10
11714.10162798447
 20
640.4060611609827
 30
0.0
 11
11780.10162798446
 21
640.4060611609827
 31
0.0
  0
LINE
  5
284CB
330
27F29
100
AcDbEntity
  8
YODOROGO
100
AcDbLine
 10
11780.10162798446
 20
736.4060611609825
 30
0.0
 11
11780.10162798446
 21
760.4060611609829
 31
0.0
  0
ARC
  5
284CC
330
27F29
100
AcDbEntity
  8
YODOROGO
100
AcDbCircle
 10
11858.10162798446
 20
751.4060611609817
 30
0.0
 40
5.99999999999795
100
AcDbArc
 50
270.0
 51
0.0000000000081422
  0
LINE
  5
284CD
330
27F29
100
AcDbEntity
  8
YODOROGO
100
AcDbLine
 10
11864.10162798447
 20
760.4060611609829
 30
0.0
 11
11864.10162798447
 21
751.4060611609825
 31
0.0
  0
LINE
  5
284CE
330
27F29
100
AcDbEntity
  8
YODOROGO
100
AcDbLine
 10
11888.10162798447
 20
760.4060611609829
 30
0.0
 11
11864.10162798447
 21
760.4060611609829
 31
0.0
  0
LINE
  5
284CF
330
27F29
100
AcDbEntity
  8
YODOROGO
100
AcDbLine
 10
11888.10162798447
 20
733.4060611609828
 30
0.0
 11
11888.10162798447
 21
760.4060611609829
 31
0.0
  0
ARC
  5
284D0
330
27F29
100
AcDbEntity
  8
YODOROGO
100
AcDbCircle
 10
11873.10162798447
 20
733.4060611609828
 30
0.0
 40
15.0
100
AcDbArc
 50
270.0
 51
0.0
  0
LINE
  5
284D1
330
27F29
100
AcDbEntity
  8
YODOROGO
100
AcDbLine
 10
11888.10162798447
 20
679.4060611609832
 30
0.0
 11
11888.10162798447
 21
703.4060611609828
 31
0.0
  0
LINE
  5
284D2
330
27F29
100
AcDbEntity
  8
YODOROGO
100
AcDbLine
 10
11870.10162798446
 20
679.4060611609832
 30
0.0
 11
11888.10162798447
 21
679.4060611609832
 31
0.0
  0
LINE
  5
284D3
330
27F29
100
AcDbEntity
  8
SUNPOU
100
AcDbLine
 10
2436.851603305592
 20
2968.125919511107
 30
0.0
 11
2807.536653750256
 21
2968.125919511107
 31
0.0
  0
LINE
  5
284D4
330
27F29
100
AcDbEntity
  8
SUNPOU
100
AcDbLine
 10
2174.174798550986
 20
3320.125919511108
 30
0.0
 11
2807.536653750256
 21
3320.125919511108
 31
0.0
  0
LINE
  5
284D5
330
27F29
100
AcDbEntity
  8
SUNPOU
100
AcDbLine
 10
2762.536653750256
 20
3305.125919511108
 30
0.0
 11
2762.536653750256
 21
2983.125919511108
 31
0.0
  0
LINE
  5
284D6
330
27F29
100
AcDbEntity
  8
SUNPOU
100
AcDbLine
 10
2762.536653750256
 20
2968.125919511107
 30
0.0
 11
2762.536653750256
 21
2708.840205225393
 31
0.0
  0
LINE
  5
284D7
330
27F29
100
AcDbEntity
  8
SUNPOU
100
AcDbLine
 10
2108.999117699013
 20
3200.064015796427
 30
0.0
 11
2062.409121307271
 21
2736.499404750686
 31
0.0
  0
LINE
  5
284D8
330
27F29
100
AcDbEntity
  8
SUNPOU
100
AcDbLine
 10
2606.49283625217
 20
3150.064015796329
 30
0.0
 11
2559.902839860433
 21
2686.499404750644
 31
0.0
  0
LINE
  5
284D9
330
27F29
100
AcDbEntity
  8
SUNPOU
100
AcDbLine
 10
2081.833932863875
 20
2779.773839420482
 30
0.0
 11
2549.478028303838
 21
2732.773839420442
 31
0.0
  0
LINE
  5
284DA
330
27F29
100
AcDbEntity
  8
SUNPOU
100
AcDbLine
 10
3408.223715378486
 20
3267.179941730438
 30
0.0
 11
3748.583782287183
 21
3232.993063927227
 31
0.0
  0
LINE
  5
284DB
330
27F29
100
AcDbEntity
  8
SUNPOU
100
AcDbLine
 10
3404.136434994397
 20
3136.433836094127
 30
0.0
 11
3735.541561068099
 21
3103.146421823288
 31
0.0
  0
LINE
  5
284DC
330
27F29
100
AcDbEntity
  8
SUNPOU
100
AcDbLine
 10
3702.309972226153
 20
3222.56548019772
 30
0.0
 11
3692.265962781572
 21
3122.568640876303
 31
0.0
  0
LINE
  5
284DD
330
27F29
100
AcDbEntity
  8
SUNPOU
100
AcDbLine
 10
3690.766856894321
 20
3107.643739485041
 30
0.0
 11
3657.14405342312
 21
2772.8995225668
 31
0.0
  0
LINE
  5
284DE
330
27F29
100
AcDbEntity
  8
SUNPOU
100
AcDbLine
 10
3598.845976975709
 20
1275.125919511109
 30
0.0
 11
4023.845976975708
 21
1275.125919511109
 31
0.0
  0
LINE
  5
284DF
330
27F29
100
AcDbEntity
  8
SUNPOU
100
AcDbLine
 10
3408.373912595968
 20
3270.17815350494
 30
0.0
 11
4023.845976975709
 21
3270.17815350494
 31
0.0
  0
LINE
  5
284E0
330
27F29
100
AcDbEntity
  8
SUNPOU
100
AcDbLine
 10
3978.845976975708
 20
1290.125919511109
 30
0.0
 11
3978.845976975708
 21
3255.178153504941
 31
0.0
  0
LINE
  5
284E1
330
27F29
100
AcDbEntity
  8
SUNPOU
100
AcDbLine
 10
998.8459769757108
 20
1275.125919511107
 30
0.0
 11
1413.689753794259
 21
1275.125919511107
 31
0.0
  0
LINE
  5
284E2
330
27F29
100
AcDbEntity
  8
SUNPOU
100
AcDbLine
 10
1706.540357678727
 20
3267.146145191052
 30
0.0
 11
1323.68975379426
 21
3267.146145191052
 31
0.0
  0
LINE
  5
284E3
330
27F29
100
AcDbEntity
  8
SUNPOU
100
AcDbLine
 10
1368.689753794259
 20
1290.125919511106
 30
0.0
 11
1368.689753794259
 21
3252.146145191051
 31
0.0
  0
LINE
  5
284E4
330
27F29
100
AcDbEntity
  8
SUNPOU
100
AcDbLine
 10
1367.044385334412
 20
3471.199431984322
 30
0.0
 11
1036.1037696199
 21
3471.199431984322
 31
0.0
  0
LINE
  5
284E5
330
27F29
100
AcDbEntity
  8
SUNPOU
100
AcDbLine
 10
998.8459769757108
 20
1275.125919511107
 30
0.0
 11
1126.103769619898
 21
1275.125919511107
 31
0.0
  0
LINE
  5
284E6
330
27F29
100
AcDbEntity
  8
SUNPOU
100
AcDbLine
 10
1081.103769619898
 20
3456.199431984322
 30
0.0
 11
1081.103769619898
 21
1290.125919511106
 31
0.0
  0
LINE
  5
284E7
330
27F29
100
AcDbEntity
  8
SUNPOU
100
AcDbLine
 10
1363.845976975711
 20
3373.351597729981
 30
0.0
 11
1363.845976975711
 21
4244.335714136728
 31
0.0
  0
LINE
  5
284E8
330
27F29
100
AcDbEntity
  8
SUNPOU
100
AcDbLine
 10
3388.373912595969
 20
3300.178153504941
 30
0.0
 11
3388.373912595969
 21
4244.335714136728
 31
0.0
  0
LINE
  5
284E9
330
27F29
100
AcDbEntity
  8
SUNPOU
100
AcDbLine
 10
1378.845976975711
 20
4199.335714136728
 30
0.0
 11
3373.373912595968
 21
4199.335714136728
 31
0.0
  0
LINE
  5
284EA
330
27F29
100
AcDbEntity
  8
SUNPOU
100
AcDbLine
 10
2368.84597697571
 20
3490.723022657499
 30
0.0
 11
2368.84597697571
 21
4034.335714136729
 31
0.0
  0
LINE
  5
284EB
330
27F29
100
AcDbEntity
  8
SUNPOU
100
AcDbLine
 10
3388.373912595969
 20
3300.178153504941
 30
0.0
 11
3388.373912595969
 21
4034.335714136729
 31
0.0
  0
LINE
  5
284EC
330
27F29
100
AcDbEntity
  8
SUNPOU
100
AcDbLine
 10
2383.845976975711
 20
3989.335714136729
 30
0.0
 11
3373.373912595968
 21
3989.335714136729
 31
0.0
  0
LINE
  5
284ED
330
27F29
100
AcDbEntity
  8
SUNPOU
100
AcDbLine
 10
2368.84597697571
 20
3490.723022657499
 30
0.0
 11
2368.84597697571
 21
4034.335714136729
 31
0.0
  0
LINE
  5
284EE
330
27F29
100
AcDbEntity
  8
SUNPOU
100
AcDbLine
 10
1363.845976975711
 20
3373.351597729981
 30
0.0
 11
1363.845976975711
 21
4034.335714136729
 31
0.0
  0
LINE
  5
284EF
330
27F29
100
AcDbEntity
  8
SUNPOU
100
AcDbLine
 10
2353.845976975711
 20
3989.335714136729
 30
0.0
 11
1378.845976975711
 21
3989.335714136729
 31
0.0
  0
LINE
  5
284F0
330
27F29
100
AcDbEntity
  8
SUNPOU
100
AcDbLine
 10
5766.506930914776
 20
3476.481230721987
 30
0.0
 11
5807.33660046231
 21
3882.976060092045
 31
0.0
  0
LINE
  5
284F1
330
27F29
100
AcDbEntity
  8
SUNPOU
100
AcDbLine
 10
7091.838174458823
 20
3343.360627936429
 30
0.0
 11
7132.667844006363
 21
3749.855457306551
 31
0.0
  0
LINE
  5
284F2
330
27F29
100
AcDbEntity
  8
SUNPOU
100
AcDbLine
 10
5817.764184191901
 20
3836.702250031036
 30
0.0
 11
7113.24562495343
 21
3706.579859019992
 31
0.0
  0
LINE
  5
284F3
330
27F29
100
AcDbEntity
  8
SUNPOU
100
AcDbLine
 10
7448.597234494531
 20
3204.509028433275
 30
0.0
 11
7851.670352243381
 21
3204.509028433275
 31
0.0
  0
LINE
  5
284F4
330
27F29
100
AcDbEntity
  8
SUNPOU
100
AcDbLine
 10
7456.19828786364
 20
3270.17815350494
 30
0.0
 11
7851.670352243381
 21
3270.17815350494
 31
0.0
  0
LINE
  5
284F5
330
27F29
100
AcDbEntity
  8
SUNPOU
100
AcDbLine
 10
7806.670352243383
 20
3189.509028433274
 30
0.0
 11
7806.670352243383
 21
3174.509028433274
 31
0.0
  0
LINE
  5
284F6
330
27F29
100
AcDbEntity
  8
SUNPOU
100
AcDbLine
 10
7806.670352243383
 20
3285.178153504941
 30
0.0
 11
7806.670352243383
 21
3484.463867790655
 31
0.0
  0
LINE
  5
284F7
330
27F29
100
AcDbEntity
  8
SUNPOU
100
AcDbLine
 10
7806.670352243383
 20
3204.509028433275
 30
0.0
 11
7806.670352243383
 21
3270.17815350494
 31
0.0
  0
LINE
  5
284F8
330
27F29
100
AcDbEntity
  8
SUNPOU
100
AcDbLine
 10
7646.67035224338
 20
1275.125919511109
 30
0.0
 11
7851.67035224338
 21
1275.125919511109
 31
0.0
  0
LINE
  5
284F9
330
27F29
100
AcDbEntity
  8
SUNPOU
100
AcDbLine
 10
7448.597234494531
 20
3204.509028433275
 30
0.0
 11
7851.670352243381
 21
3204.509028433275
 31
0.0
  0
LINE
  5
284FA
330
27F29
100
AcDbEntity
  8
SUNPOU
100
AcDbLine
 10
7806.670352243379
 20
1290.125919511109
 30
0.0
 11
7806.670352243383
 21
3189.509028433274
 31
0.0
  0
LINE
  5
284FB
330
27F29
100
AcDbEntity
  8
SUNPOU
100
AcDbLine
 10
5046.670352243381
 20
1275.125919511107
 30
0.0
 11
5383.928144887568
 21
1275.125919511107
 31
0.0
  0
LINE
  5
284FC
330
27F29
100
AcDbEntity
  8
SUNPOU
100
AcDbLine
 10
5754.364732946399
 20
3267.146145191052
 30
0.0
 11
5293.928144887569
 21
3267.146145191052
 31
0.0
  0
LINE
  5
284FD
330
27F29
100
AcDbEntity
  8
SUNPOU
100
AcDbLine
 10
5338.928144887568
 20
1290.125919511106
 30
0.0
 11
5338.928144887569
 21
3252.146145191051
 31
0.0
  0
LINE
  5
284FE
330
27F29
100
AcDbEntity
  8
SUNPOU
100
AcDbLine
 10
5446.601243557012
 20
3336.855472218671
 30
0.0
 11
5083.92814488757
 21
3336.855472218671
 31
0.0
  0
LINE
  5
284FF
330
27F29
100
AcDbEntity
  8
SUNPOU
100
AcDbLine
 10
5046.670352243381
 20
1275.125919511107
 30
0.0
 11
5173.928144887569
 21
1275.125919511107
 31
0.0
  0
LINE
  5
28500
330
27F29
100
AcDbEntity
  8
SUNPOU
100
AcDbLine
 10
5128.92814488757
 20
3321.855472218671
 30
0.0
 11
5128.928144887569
 21
1290.125919511106
 31
0.0
  0
LINE
  5
28501
330
27F29
100
AcDbEntity
  8
SUNPOU
100
AcDbLine
 10
5446.601243557012
 20
3336.855472218671
 30
0.0
 11
5083.928144887568
 21
3336.855472218671
 31
0.0
  0
LINE
  5
28502
330
27F29
100
AcDbEntity
  8
SUNPOU
100
AcDbLine
 10
5414.868760602082
 20
3471.199431984322
 30
0.0
 11
5083.928144887568
 21
3471.199431984322
 31
0.0
  0
LINE
  5
28503
330
27F29
100
AcDbEntity
  8
SUNPOU
100
AcDbLine
 10
5128.928144887569
 20
3351.855472218672
 30
0.0
 11
5128.928144887569
 21
3456.199431984322
 31
0.0
  0
LINE
  5
28504
330
27F29
100
AcDbEntity
  8
SUNPOU
100
AcDbLine
 10
5128.928144887569
 20
3471.199431984322
 30
0.0
 11
5128.928144887569
 21
3724.770860555751
 31
0.0
  0
LINE
  5
28505
330
27F29
100
AcDbEntity
  8
SUNPOU
100
AcDbLine
 10
5411.670352243381
 20
3373.351597729981
 30
0.0
 11
5411.670352243381
 21
4244.335714136728
 31
0.0
  0
LINE
  5
28506
330
27F29
100
AcDbEntity
  8
SUNPOU
100
AcDbLine
 10
7426.19828786364
 20
3300.178153504941
 30
0.0
 11
7426.19828786364
 21
4244.335714136728
 31
0.0
  0
LINE
  5
28507
330
27F29
100
AcDbEntity
  8
SUNPOU
100
AcDbLine
 10
5426.67035224338
 20
4199.335714136728
 30
0.0
 11
7411.19828786364
 21
4199.335714136728
 31
0.0
  0
LINE
  5
28508
330
27F29
100
AcDbEntity
  8
SUNPOU
100
AcDbLine
 10
6416.670352243383
 20
3490.723022657499
 30
0.0
 11
6416.670352243383
 21
4034.335714136729
 31
0.0
  0
LINE
  5
28509
330
27F29
100
AcDbEntity
  8
SUNPOU
100
AcDbLine
 10
7426.19828786364
 20
3300.178153504941
 30
0.0
 11
7426.19828786364
 21
4034.335714136729
 31
0.0
  0
LINE
  5
2850A
330
27F29
100
AcDbEntity
  8
SUNPOU
100
AcDbLine
 10
6431.670352243381
 20
3989.335714136729
 30
0.0
 11
7411.19828786364
 21
3989.335714136729
 31
0.0
  0
LINE
  5
2850B
330
27F29
100
AcDbEntity
  8
SUNPOU
100
AcDbLine
 10
6416.670352243383
 20
3490.723022657499
 30
0.0
 11
6416.670352243383
 21
4034.335714136729
 31
0.0
  0
LINE
  5
2850C
330
27F29
100
AcDbEntity
  8
SUNPOU
100
AcDbLine
 10
5411.670352243381
 20
3373.351597729981
 30
0.0
 11
5411.670352243381
 21
4034.335714136729
 31
0.0
  0
LINE
  5
2850D
330
27F29
100
AcDbEntity
  8
SUNPOU
100
AcDbLine
 10
6401.670352243383
 20
3989.335714136729
 30
0.0
 11
5426.67035224338
 21
3989.335714136729
 31
0.0
  0
ARC
  5
2850E
330
27F29
100
AcDbEntity
  8
SUNPOU
100
AcDbCircle
 10
10306.0
 20
7773.736304084138
 30
0.0
 40
5.625
100
AcDbArc
 50
180.0
 51
0.0
  0
ARC
  5
2850F
330
27F29
100
AcDbEntity
  8
SUNPOU
100
AcDbCircle
 10
10306.0
 20
7773.736304084138
 30
0.0
 40
5.625
100
AcDbArc
 50
0.0
 51
180.0
  0
ARC
  5
28510
330
27F29
100
AcDbEntity
  8
SUNPOU
100
AcDbCircle
 10
10306.0
 20
7773.736304084138
 30
0.0
 40
5.625
100
AcDbArc
 50
0.0
 51
180.0
  0
ARC
  5
28511
330
27F29
100
AcDbEntity
  8
SUNPOU
100
AcDbCircle
 10
10306.0
 20
7773.736304084138
 30
0.0
 40
5.625
100
AcDbArc
 50
180.0
 51
0.0
  0
LINE
  5
28512
330
27F29
100
AcDbEntity
  8
SUNPOU
100
AcDbLine
 10
10690.75614983229
 20
7773.736304084138
 30
0.0
 11
10679.50614983229
 21
7773.736304084138
 31
0.0
  0
LINE
  5
28513
330
27F29
100
AcDbEntity
  8
SUNPOU
100
AcDbLine
 10
10317.25
 20
7773.736304084138
 30
0.0
 11
10328.5
 21
7773.736304084138
 31
0.0
  0
ARC
  5
28514
330
27F29
100
AcDbEntity
  8
SUNPOU
100
AcDbCircle
 10
7156.000000000003
 20
7773.736304084138
 30
0.0
 40
5.625
100
AcDbArc
 50
180.0
 51
0.0
  0
ARC
  5
28515
330
27F29
100
AcDbEntity
  8
SUNPOU
100
AcDbCircle
 10
7156.000000000003
 20
7773.736304084138
 30
0.0
 40
5.625
100
AcDbArc
 50
0.0
 51
180.0
  0
ARC
  5
28516
330
27F29
100
AcDbEntity
  8
SUNPOU
100
AcDbCircle
 10
7156.000000000003
 20
7773.736304084138
 30
0.0
 40
5.625
100
AcDbArc
 50
0.0
 51
180.0
  0
ARC
  5
28517
330
27F29
100
AcDbEntity
  8
SUNPOU
100
AcDbCircle
 10
7156.000000000003
 20
7773.736304084138
 30
0.0
 40
5.625
100
AcDbArc
 50
180.0
 51
0.0
  0
ARC
  5
28518
330
27F29
100
AcDbEntity
  8
SUNPOU
100
AcDbCircle
 10
5456.000000000001
 20
7773.736304084138
 30
0.0
 40
5.625
100
AcDbArc
 50
0.0
 51
180.0
  0
ARC
  5
28519
330
27F29
100
AcDbEntity
  8
SUNPOU
100
AcDbCircle
 10
5456.000000000001
 20
7773.736304084138
 30
0.0
 40
5.625
100
AcDbArc
 50
180.0
 51
0.0
  0
ARC
  5
2851A
330
27F29
100
AcDbEntity
  8
SUNPOU
100
AcDbCircle
 10
5456.000000000001
 20
7773.736304084138
 30
0.0
 40
5.625
100
AcDbArc
 50
180.0
 51
0.0
  0
ARC
  5
2851B
330
27F29
100
AcDbEntity
  8
SUNPOU
100
AcDbCircle
 10
5456.000000000001
 20
7773.736304084138
 30
0.0
 40
5.625
100
AcDbArc
 50
0.0
 51
180.0
  0
ARC
  5
2851C
330
27F29
100
AcDbEntity
  8
SUNPOU
100
AcDbCircle
 10
2306.0
 20
7773.736304084138
 30
0.0
 40
5.625
100
AcDbArc
 50
180.0
 51
0.0
  0
ARC
  5
2851D
330
27F29
100
AcDbEntity
  8
SUNPOU
100
AcDbCircle
 10
2306.0
 20
7773.736304084138
 30
0.0
 40
5.625
100
AcDbArc
 50
0.0
 51
180.0
  0
ARC
  5
2851E
330
27F29
100
AcDbEntity
  8
SUNPOU
100
AcDbCircle
 10
2306.0
 20
7773.736304084138
 30
0.0
 40
5.625
100
AcDbArc
 50
0.0
 51
180.0
  0
ARC
  5
2851F
330
27F29
100
AcDbEntity
  8
SUNPOU
100
AcDbCircle
 10
2306.0
 20
7773.736304084138
 30
0.0
 40
5.625
100
AcDbArc
 50
180.0
 51
0.0
  0
LINE
  5
28520
330
27F29
100
AcDbEntity
  8
SUNPOU
100
AcDbLine
 10
1921.24385016771
 20
7773.736304084138
 30
0.0
 11
1932.493850167711
 21
7773.736304084138
 31
0.0
  0
LINE
  5
28521
330
27F29
100
AcDbEntity
  8
SUNPOU
100
AcDbLine
 10
2294.75
 20
7773.736304084138
 30
0.0
 11
2283.5
 21
7773.736304084138
 31
0.0
  0
ARC
  5
28522
330
27F29
100
AcDbEntity
  8
SUNPOU
100
AcDbCircle
 10
2306.0
 20
7773.736304084138
 30
0.0
 40
5.625
100
AcDbArc
 50
180.0
 51
0.0
  0
ARC
  5
28523
330
27F29
100
AcDbEntity
  8
SUNPOU
100
AcDbCircle
 10
2306.0
 20
7773.736304084138
 30
0.0
 40
5.625
100
AcDbArc
 50
0.0
 51
180.0
  0
ARC
  5
28524
330
27F29
100
AcDbEntity
  8
SUNPOU
100
AcDbCircle
 10
1909.99385016771
 20
7773.736304084138
 30
0.0
 40
5.625
100
AcDbArc
 50
0.0
 51
180.0
  0
ARC
  5
28525
330
27F29
100
AcDbEntity
  8
SUNPOU
100
AcDbCircle
 10
1909.99385016771
 20
7773.736304084138
 30
0.0
 40
5.625
100
AcDbArc
 50
180.0
 51
0.0
  0
ARC
  5
28526
330
27F29
100
AcDbEntity
  8
SUNPOU
100
AcDbCircle
 10
10306.0
 20
7773.736304084138
 30
0.0
 40
5.625
100
AcDbArc
 50
0.0
 51
180.0
  0
ARC
  5
28527
330
27F29
100
AcDbEntity
  8
SUNPOU
100
AcDbCircle
 10
10306.0
 20
7773.736304084138
 30
0.0
 40
5.625
100
AcDbArc
 50
180.0
 51
0.0
  0
ARC
  5
28528
330
27F29
100
AcDbEntity
  8
SUNPOU
100
AcDbCircle
 10
10702.00614983229
 20
7773.736304084138
 30
0.0
 40
5.625
100
AcDbArc
 50
180.0
 51
0.0
  0
ARC
  5
28529
330
27F29
100
AcDbEntity
  8
SUNPOU
100
AcDbCircle
 10
10702.00614983229
 20
7773.736304084138
 30
0.0
 40
5.625
100
AcDbArc
 50
0.0
 51
180.0
  0
TEXT
  5
2852A
330
27F29
100
AcDbEntity
  8
SUNPOU
100
AcDbText
 10
5795.598923671953
 20
4034.335714136729
 30
0.0
 40
90.0
  1
1005
 41
0.6666666666666666
  7
00
100
AcDbText
  0
LINE
  5
2852B
330
27F29
100
AcDbEntity
  8
SUNPOU
100
AcDbLine
 10
5422.92035224338
 20
3989.335714136729
 30
0.0
 11
5434.170352243381
 21
3989.335714136729
 31
0.0
  0
LINE
  5
2852C
330
27F29
100
AcDbEntity
  8
SUNPOU
100
AcDbLine
 10
6405.420352243382
 20
3989.335714136729
 30
0.0
 11
6394.170352243381
 21
3989.335714136729
 31
0.0
  0
TEXT
  5
2852D
330
27F29
100
AcDbEntity
  8
SUNPOU
100
AcDbText
 10
6777.43432005351
 20
4034.335714136729
 30
0.0
 40
90.0
  1
※1010
 41
0.6666666666666666
  7
00
100
AcDbText
  0
LINE
  5
2852E
330
27F29
100
AcDbEntity
  8
SUNPOU
100
AcDbLine
 10
7414.948287863643
 20
3989.335714136729
 30
0.0
 11
7403.69828786364
 21
3989.335714136729
 31
0.0
  0
LINE
  5
2852F
330
27F29
100
AcDbEntity
  8
SUNPOU
100
AcDbLine
 10
6427.92035224338
 20
3989.335714136729
 30
0.0
 11
6439.170352243381
 21
3989.335714136729
 31
0.0
  0
TEXT
  5
28530
330
27F29
100
AcDbEntity
  8
SUNPOU
100
AcDbText
 10
6274.934320053509
 20
4244.335714136728
 30
0.0
 40
90.0
  1
※2015
 41
0.6666666666666666
  7
00
100
AcDbText
  0
LINE
  5
28531
330
27F29
100
AcDbEntity
  8
SUNPOU
100
AcDbLine
 10
7414.948287863643
 20
4199.335714136728
 30
0.0
 11
7403.69828786364
 21
4199.335714136728
 31
0.0
  0
LINE
  5
28532
330
27F29
100
AcDbEntity
  8
SUNPOU
100
AcDbLine
 10
5422.92035224338
 20
4199.335714136728
 30
0.0
 11
5434.170352243381
 21
4199.335714136728
 31
0.0
  0
TEXT
  5
28533
330
27F29
100
AcDbEntity
  8
SUNPOU
100
AcDbText
 10
5083.928144887568
 20
3514.056574841466
 30
0.0
 40
90.0
  1
134
 50
90.0
 41
0.6666666666666666
  7
00
100
AcDbText
  0
LINE
  5
28534
330
27F29
100
AcDbEntity
  8
SUNPOU
100
AcDbLine
 10
5128.928144887569
 20
3459.949431984322
 30
0.0
 11
5128.928144887569
 21
3448.699431984322
 31
0.0
  0
LINE
  5
28535
330
27F29
100
AcDbEntity
  8
SUNPOU
100
AcDbLine
 10
5128.928144887569
 20
3348.105472218672
 30
0.0
 11
5128.928144887569
 21
3359.355472218672
 31
0.0
  0
TEXT
  5
28536
330
27F29
100
AcDbEntity
  8
SUNPOU
100
AcDbText
 10
5083.928144887568
 20
2191.704981579176
 30
0.0
 40
90.0
  1
2062
 50
90.0
 41
0.6666666666666666
  7
00
100
AcDbText
  0
LINE
  5
28537
330
27F29
100
AcDbEntity
  8
SUNPOU
100
AcDbLine
 10
5128.928144887569
 20
1286.375919511107
 30
0.0
 11
5128.928144887569
 21
1297.625919511107
 31
0.0
  0
LINE
  5
28538
330
27F29
100
AcDbEntity
  8
SUNPOU
100
AcDbLine
 10
5128.92814488757
 20
3325.605472218672
 30
0.0
 11
5128.92814488757
 21
3314.355472218672
 31
0.0
  0
TEXT
  5
28539
330
27F29
100
AcDbEntity
  8
SUNPOU
100
AcDbText
 10
5293.928144887568
 20
2152.564603779651
 30
0.0
 40
90.0
  1
1992
 50
90.0
 41
0.6666666666666666
  7
00
100
AcDbText
  0
LINE
  5
2853A
330
27F29
100
AcDbEntity
  8
SUNPOU
100
AcDbLine
 10
5338.928144887569
 20
3255.896145191051
 30
0.0
 11
5338.928144887569
 21
3244.646145191051
 31
0.0
  0
LINE
  5
2853B
330
27F29
100
AcDbEntity
  8
SUNPOU
100
AcDbLine
 10
5338.928144887568
 20
1286.375919511107
 30
0.0
 11
5338.928144887568
 21
1297.625919511107
 31
0.0
  0
TEXT
  5
2853C
330
27F29
100
AcDbEntity
  8
SUNPOU
100
AcDbText
 10
7761.670352243379
 20
2122.674616829335
 30
0.0
 40
90.0
  1
1929
 50
90.0
 41
0.6666666666666666
  7
00
100
AcDbText
  0
LINE
  5
2853D
330
27F29
100
AcDbEntity
  8
SUNPOU
100
AcDbLine
 10
7806.670352243383
 20
3193.259028433275
 30
0.0
 11
7806.670352243383
 21
3182.009028433274
 31
0.0
  0
LINE
  5
2853E
330
27F29
100
AcDbEntity
  8
SUNPOU
100
AcDbLine
 10
7806.670352243379
 20
1286.375919511109
 30
0.0
 11
7806.670352243379
 21
1297.625919511109
 31
0.0
  0
TEXT
  5
2853F
330
27F29
100
AcDbEntity
  8
SUNPOU
100
AcDbText
 10
7761.670352243379
 20
3333.74958207637
 30
0.0
 40
90.0
  1
66
 50
90.0
 41
0.6666666666666666
  7
00
100
AcDbText
  0
LINE
  5
28540
330
27F29
100
AcDbEntity
  8
SUNPOU
100
AcDbLine
 10
7806.670352243383
 20
3281.428153504941
 30
0.0
 11
7806.670352243383
 21
3292.67815350494
 31
0.0
  0
LINE
  5
28541
330
27F29
100
AcDbEntity
  8
SUNPOU
100
AcDbLine
 10
7806.670352243383
 20
3193.259028433275
 30
0.0
 11
7806.670352243383
 21
3182.009028433274
 31
0.0
  0
TEXT
  5
28542
330
27F29
100
AcDbEntity
  8
SUNPOU
100
AcDbText
 10
6493.376003448036
 20
3814.0680197022
 30
0.0
 40
90.0
  1
1332
 50
354.2642619770786
 41
0.6666666666666666
  7
00
100
AcDbText
  0
LINE
  5
28543
330
27F29
100
AcDbEntity
  8
SUNPOU
100
AcDbLine
 10
7116.976850301246
 20
3706.205082548185
 30
0.0
 11
7105.783174257799
 21
3707.329411963604
 31
0.0
  0
LINE
  5
28544
330
27F29
100
AcDbEntity
  8
SUNPOU
100
AcDbLine
 10
5814.032958844085
 20
3837.077026502843
 30
0.0
 11
5825.226634887531
 21
3835.952697087423
 31
0.0
  0
TEXT
  5
28545
330
27F29
100
AcDbEntity
  8
SUNPOU
100
AcDbText
 10
1747.774548404282
 20
4034.335714136729
 30
0.0
 40
90.0
  1
1005
 41
0.6666666666666666
  7
00
100
AcDbText
  0
LINE
  5
28546
330
27F29
100
AcDbEntity
  8
SUNPOU
100
AcDbLine
 10
1375.09597697571
 20
3989.335714136729
 30
0.0
 11
1386.345976975711
 21
3989.335714136729
 31
0.0
  0
LINE
  5
28547
330
27F29
100
AcDbEntity
  8
SUNPOU
100
AcDbLine
 10
2357.59597697571
 20
3989.335714136729
 30
0.0
 11
2346.345976975711
 21
3989.335714136729
 31
0.0
  0
TEXT
  5
28548
330
27F29
100
AcDbEntity
  8
SUNPOU
100
AcDbText
 10
2760.038516214411
 20
4034.335714136729
 30
0.0
 40
90.0
  1
1020
 41
0.6666666666666666
  7
00
100
AcDbText
  0
LINE
  5
28549
330
27F29
100
AcDbEntity
  8
SUNPOU
100
AcDbLine
 10
3377.123912595968
 20
3989.335714136729
 30
0.0
 11
3365.873912595969
 21
3989.335714136729
 31
0.0
  0
LINE
  5
2854A
330
27F29
100
AcDbEntity
  8
SUNPOU
100
AcDbLine
 10
2380.095976975711
 20
3989.335714136729
 30
0.0
 11
2391.345976975711
 21
3989.335714136729
 31
0.0
  0
TEXT
  5
2854B
330
27F29
100
AcDbEntity
  8
SUNPOU
100
AcDbText
 10
2261.824230500125
 20
4244.335714136728
 30
0.0
 40
90.0
  1
2025
 41
0.6666666666666666
  7
00
100
AcDbText
  0
LINE
  5
2854C
330
27F29
100
AcDbEntity
  8
SUNPOU
100
AcDbLine
 10
3377.123912595968
 20
4199.335714136728
 30
0.0
 11
3365.873912595969
 21
4199.335714136728
 31
0.0
  0
LINE
  5
2854D
330
27F29
100
AcDbEntity
  8
SUNPOU
100
AcDbLine
 10
1375.09597697571
 20
4199.335714136728
 30
0.0
 11
1386.345976975711
 21
4199.335714136728
 31
0.0
  0
TEXT
  5
2854E
330
27F29
100
AcDbEntity
  8
SUNPOU
100
AcDbText
 10
1036.103769619898
 20
2258.876961462001
 30
0.0
 40
90.0
  1
2196
 50
90.0
 41
0.6666666666666666
  7
00
100
AcDbText
  0
LINE
  5
2854F
330
27F29
100
AcDbEntity
  8
SUNPOU
100
AcDbLine
 10
1081.103769619898
 20
1286.375919511107
 30
0.0
 11
1081.103769619898
 21
1297.625919511107
 31
0.0
  0
LINE
  5
28550
330
27F29
100
AcDbEntity
  8
SUNPOU
100
AcDbLine
 10
1081.103769619898
 20
3459.949431984322
 30
0.0
 11
1081.103769619898
 21
3448.699431984322
 31
0.0
  0
TEXT
  5
28551
330
27F29
100
AcDbEntity
  8
SUNPOU
100
AcDbText
 10
1323.689753794259
 20
2152.564603779651
 30
0.0
 40
90.0
  1
1992
 50
90.0
 41
0.6666666666666666
  7
00
100
AcDbText
  0
LINE
  5
28552
330
27F29
100
AcDbEntity
  8
SUNPOU
100
AcDbLine
 10
1368.689753794259
 20
3255.896145191051
 30
0.0
 11
1368.689753794259
 21
3244.646145191051
 31
0.0
  0
LINE
  5
28553
330
27F29
100
AcDbEntity
  8
SUNPOU
100
AcDbLine
 10
1368.689753794259
 20
1286.375919511107
 30
0.0
 11
1368.689753794259
 21
1297.625919511107
 31
0.0
  0
TEXT
  5
28554
330
27F29
100
AcDbEntity
  8
SUNPOU
100
AcDbText
 10
3933.845976975709
 20
2154.080607936597
 30
0.0
 40
90.0
  1
1995
 50
90.0
 41
0.6666666666666666
  7
00
100
AcDbText
  0
LINE
  5
28555
330
27F29
100
AcDbEntity
  8
SUNPOU
100
AcDbLine
 10
3978.845976975708
 20
3258.928153504941
 30
0.0
 11
3978.845976975708
 21
3247.678153504941
 31
0.0
  0
LINE
  5
28556
330
27F29
100
AcDbEntity
  8
SUNPOU
100
AcDbLine
 10
3978.845976975708
 20
1286.375919511109
 30
0.0
 11
3978.845976975708
 21
1297.625919511109
 31
0.0
  0
TEXT
  5
28557
330
27F29
100
AcDbEntity
  8
SUNPOU
100
AcDbText
 10
3615.153403039953
 20
2805.114514240891
 30
0.0
 40
90.0
  1
130.5
 50
84.26426197697479
 41
0.6666666666666666
  7
00
100
AcDbText
  0
LINE
  5
28558
330
27F29
100
AcDbEntity
  8
SUNPOU
100
AcDbLine
 10
3691.89118630976
 20
3118.837415528485
 30
0.0
 11
3693.015515725198
 21
3130.03109157193
 31
0.0
  0
LINE
  5
28559
330
27F29
100
AcDbEntity
  8
SUNPOU
100
AcDbLine
 10
3702.684748697966
 20
3226.296705545534
 30
0.0
 11
3701.560419282527
 21
3215.103029502091
 31
0.0
  0
TEXT
  5
2855A
330
27F29
100
AcDbEntity
  8
SUNPOU
100
AcDbText
 10
2135.944929733117
 20
2819.562181299644
 30
0.0
 40
90.0
  1
500
 50
354.2608295227265
 41
0.6666666666666666
  7
00
100
AcDbText
  0
LINE
  5
2855B
330
27F29
100
AcDbEntity
  8
SUNPOU
100
AcDbLine
 10
2553.209231192988
 20
2732.398839420442
 30
0.0
 11
2542.01562252554
 21
2733.523839420444
 31
0.0
  0
LINE
  5
2855C
330
27F29
100
AcDbEntity
  8
SUNPOU
100
AcDbLine
 10
2078.102729974726
 20
2780.148839420482
 30
0.0
 11
2089.296338642175
 21
2779.02383942048
 31
0.0
  0
TEXT
  5
2855D
330
27F29
100
AcDbEntity
  8
SUNPOU
100
AcDbText
 10
2717.536653750255
 20
2745.268776653966
 30
0.0
 40
90.0
  1
352
 50
90.0
 41
0.6666666666666666
  7
00
100
AcDbText
  0
LINE
  5
2855E
330
27F29
100
AcDbEntity
  8
SUNPOU
100
AcDbLine
 10
2762.536653750256
 20
2979.375919511108
 30
0.0
 11
2762.536653750256
 21
2990.625919511108
 31
0.0
  0
LINE
  5
2855F
330
27F29
100
AcDbEntity
  8
SUNPOU
100
AcDbLine
 10
2762.536653750256
 20
3308.875919511108
 30
0.0
 11
2762.536653750256
 21
3297.625919511107
 31
0.0
  0
ARC
  5
28560
330
27F29
100
AcDbEntity
  8
SUNPOU
100
AcDbCircle
 10
2762.536653750256
 20
3320.125919511108
 30
0.0
 40
5.625
100
AcDbArc
 50
270.0
 51
90.0
  0
ARC
  5
28561
330
27F29
100
AcDbEntity
  8
SUNPOU
100
AcDbCircle
 10
2762.536653750256
 20
3320.125919511108
 30
0.0
 40
5.625
100
AcDbArc
 50
90.0
 51
270.0
  0
ARC
  5
28562
330
27F29
100
AcDbEntity
  8
SUNPOU
100
AcDbCircle
 10
2762.536653750256
 20
2968.125919511107
 30
0.0
 40
5.625
100
AcDbArc
 50
90.0
 51
270.0
  0
ARC
  5
28563
330
27F29
100
AcDbEntity
  8
SUNPOU
100
AcDbCircle
 10
2762.536653750256
 20
2968.125919511107
 30
0.0
 40
5.625
100
AcDbArc
 50
270.0
 51
90.0
  0
ARC
  5
28564
330
27F29
100
AcDbEntity
  8
SUNPOU
100
AcDbCircle
 10
2066.909121307276
 20
2781.273839420483
 30
0.0
 40
5.625000000000084
100
AcDbArc
 50
354.2608295227287
 51
174.2608295227285
  0
ARC
  5
28565
330
27F29
100
AcDbEntity
  8
SUNPOU
100
AcDbCircle
 10
2066.909121307276
 20
2781.273839420483
 30
0.0
 40
5.625000000000084
100
AcDbArc
 50
174.2608295227285
 51
354.2608295227287
  0
ARC
  5
28566
330
27F29
100
AcDbEntity
  8
SUNPOU
100
AcDbCircle
 10
2564.402839860437
 20
2731.273839420441
 30
0.0
 40
5.625000000000084
100
AcDbArc
 50
174.2608295227285
 51
354.2608295227287
  0
ARC
  5
28567
330
27F29
100
AcDbEntity
  8
SUNPOU
100
AcDbCircle
 10
2564.402839860437
 20
2731.273839420441
 30
0.0
 40
5.625000000000084
100
AcDbArc
 50
354.2608295227287
 51
174.2608295227285
  0
ARC
  5
28568
330
27F29
100
AcDbEntity
  8
SUNPOU
100
AcDbCircle
 10
3703.809078113405
 20
3237.490381588978
 30
0.0
 40
5.625000000000125
100
AcDbArc
 50
264.2642619769748
 51
84.26426197697484
  0
ARC
  5
28569
330
27F29
100
AcDbEntity
  8
SUNPOU
100
AcDbCircle
 10
3703.809078113405
 20
3237.490381588978
 30
0.0
 40
5.625000000000125
100
AcDbArc
 50
84.26426197697484
 51
264.2642619769748
  0
ARC
  5
2856A
330
27F29
100
AcDbEntity
  8
SUNPOU
100
AcDbCircle
 10
3690.766856894321
 20
3107.643739485041
 30
0.0
 40
5.625000000000125
100
AcDbArc
 50
84.26426197697484
 51
264.2642619769748
  0
ARC
  5
2856B
330
27F29
100
AcDbEntity
  8
SUNPOU
100
AcDbCircle
 10
3690.766856894321
 20
3107.643739485041
 30
0.0
 40
5.625000000000125
100
AcDbArc
 50
264.2642619769748
 51
84.26426197697484
  0
ARC
  5
2856C
330
27F29
100
AcDbEntity
  8
SUNPOU
100
AcDbCircle
 10
3978.845976975708
 20
1275.125919511109
 30
0.0
 40
5.625
100
AcDbArc
 50
90.0
 51
270.0
  0
ARC
  5
2856D
330
27F29
100
AcDbEntity
  8
SUNPOU
100
AcDbCircle
 10
3978.845976975708
 20
1275.125919511109
 30
0.0
 40
5.625
100
AcDbArc
 50
270.0
 51
90.0
  0
ARC
  5
2856E
330
27F29
100
AcDbEntity
  8
SUNPOU
100
AcDbCircle
 10
3978.845976975708
 20
3270.17815350494
 30
0.0
 40
5.625
100
AcDbArc
 50
270.0
 51
90.0
  0
ARC
  5
2856F
330
27F29
100
AcDbEntity
  8
SUNPOU
100
AcDbCircle
 10
3978.845976975708
 20
3270.17815350494
 30
0.0
 40
5.625
100
AcDbArc
 50
90.0
 51
270.0
  0
ARC
  5
28570
330
27F29
100
AcDbEntity
  8
SUNPOU
100
AcDbCircle
 10
1368.689753794259
 20
1275.125919511107
 30
0.0
 40
5.625
100
AcDbArc
 50
90.0
 51
270.0
  0
ARC
  5
28571
330
27F29
100
AcDbEntity
  8
SUNPOU
100
AcDbCircle
 10
1368.689753794259
 20
1275.125919511107
 30
0.0
 40
5.625
100
AcDbArc
 50
270.0
 51
90.0
  0
ARC
  5
28572
330
27F29
100
AcDbEntity
  8
SUNPOU
100
AcDbCircle
 10
1368.689753794259
 20
3267.146145191052
 30
0.0
 40
5.625
100
AcDbArc
 50
270.0
 51
90.0
  0
ARC
  5
28573
330
27F29
100
AcDbEntity
  8
SUNPOU
100
AcDbCircle
 10
1368.689753794259
 20
3267.146145191052
 30
0.0
 40
5.625
100
AcDbArc
 50
90.0
 51
270.0
  0
ARC
  5
28574
330
27F29
100
AcDbEntity
  8
SUNPOU
100
AcDbCircle
 10
1081.103769619898
 20
3471.199431984322
 30
0.0
 40
5.625
100
AcDbArc
 50
270.0
 51
90.0
  0
ARC
  5
28575
330
27F29
100
AcDbEntity
  8
SUNPOU
100
AcDbCircle
 10
1081.103769619898
 20
3471.199431984322
 30
0.0
 40
5.625
100
AcDbArc
 50
90.0
 51
270.0
  0
ARC
  5
28576
330
27F29
100
AcDbEntity
  8
SUNPOU
100
AcDbCircle
 10
1081.103769619898
 20
1275.125919511107
 30
0.0
 40
5.625
100
AcDbArc
 50
90.0
 51
270.0
  0
ARC
  5
28577
330
27F29
100
AcDbEntity
  8
SUNPOU
100
AcDbCircle
 10
1081.103769619898
 20
1275.125919511107
 30
0.0
 40
5.625
100
AcDbArc
 50
270.0
 51
90.0
  0
ARC
  5
28578
330
27F29
100
AcDbEntity
  8
SUNPOU
100
AcDbCircle
 10
1363.845976975711
 20
4199.335714136728
 30
0.0
 40
5.625
100
AcDbArc
 50
0.0
 51
180.0
  0
ARC
  5
28579
330
27F29
100
AcDbEntity
  8
SUNPOU
100
AcDbCircle
 10
1363.845976975711
 20
4199.335714136728
 30
0.0
 40
5.625
100
AcDbArc
 50
180.0
 51
0.0
  0
ARC
  5
2857A
330
27F29
100
AcDbEntity
  8
SUNPOU
100
AcDbCircle
 10
3388.373912595969
 20
4199.335714136728
 30
0.0
 40
5.625
100
AcDbArc
 50
180.0
 51
0.0
  0
ARC
  5
2857B
330
27F29
100
AcDbEntity
  8
SUNPOU
100
AcDbCircle
 10
3388.373912595969
 20
4199.335714136728
 30
0.0
 40
5.625
100
AcDbArc
 50
0.0
 51
180.0
  0
ARC
  5
2857C
330
27F29
100
AcDbEntity
  8
SUNPOU
100
AcDbCircle
 10
2368.84597697571
 20
3989.335714136729
 30
0.0
 40
5.625
100
AcDbArc
 50
0.0
 51
180.0
  0
ARC
  5
2857D
330
27F29
100
AcDbEntity
  8
SUNPOU
100
AcDbCircle
 10
2368.84597697571
 20
3989.335714136729
 30
0.0
 40
5.625
100
AcDbArc
 50
180.0
 51
0.0
  0
ARC
  5
2857E
330
27F29
100
AcDbEntity
  8
SUNPOU
100
AcDbCircle
 10
3388.373912595969
 20
3989.335714136729
 30
0.0
 40
5.625
100
AcDbArc
 50
180.0
 51
0.0
  0
ARC
  5
2857F
330
27F29
100
AcDbEntity
  8
SUNPOU
100
AcDbCircle
 10
3388.373912595969
 20
3989.335714136729
 30
0.0
 40
5.625
100
AcDbArc
 50
0.0
 51
180.0
  0
ARC
  5
28580
330
27F29
100
AcDbEntity
  8
SUNPOU
100
AcDbCircle
 10
2368.84597697571
 20
3989.335714136729
 30
0.0
 40
5.625
100
AcDbArc
 50
180.0
 51
0.0
  0
ARC
  5
28581
330
27F29
100
AcDbEntity
  8
SUNPOU
100
AcDbCircle
 10
2368.84597697571
 20
3989.335714136729
 30
0.0
 40
5.625
100
AcDbArc
 50
0.0
 51
180.0
  0
ARC
  5
28582
330
27F29
100
AcDbEntity
  8
SUNPOU
100
AcDbCircle
 10
1363.845976975711
 20
3989.335714136729
 30
0.0
 40
5.625
100
AcDbArc
 50
0.0
 51
180.0
  0
ARC
  5
28583
330
27F29
100
AcDbEntity
  8
SUNPOU
100
AcDbCircle
 10
1363.845976975711
 20
3989.335714136729
 30
0.0
 40
5.625
100
AcDbArc
 50
180.0
 51
0.0
  0
ARC
  5
28584
330
27F29
100
AcDbEntity
  8
SUNPOU
100
AcDbCircle
 10
5802.839282800638
 20
3838.20135591826
 30
0.0
 40
5.624999999999577
100
AcDbArc
 50
354.2642619770767
 51
174.2642619770766
  0
ARC
  5
28585
330
27F29
100
AcDbEntity
  8
SUNPOU
100
AcDbCircle
 10
5802.839282800638
 20
3838.20135591826
 30
0.0
 40
5.624999999999577
100
AcDbArc
 50
174.2642619770766
 51
354.2642619770767
  0
ARC
  5
28586
330
27F29
100
AcDbEntity
  8
SUNPOU
100
AcDbCircle
 10
7128.170526344693
 20
3705.080753132767
 30
0.0
 40
5.624999999999577
100
AcDbArc
 50
174.2642619770766
 51
354.2642619770767
  0
ARC
  5
28587
330
27F29
100
AcDbEntity
  8
SUNPOU
100
AcDbCircle
 10
7128.170526344693
 20
3705.080753132767
 30
0.0
 40
5.624999999999577
100
AcDbArc
 50
354.2642619770767
 51
174.2642619770766
  0
ARC
  5
28588
330
27F29
100
AcDbEntity
  8
SUNPOU
100
AcDbCircle
 10
7806.670352243383
 20
3204.509028433275
 30
0.0
 40
5.625
100
AcDbArc
 50
270.0
 51
90.0
  0
ARC
  5
28589
330
27F29
100
AcDbEntity
  8
SUNPOU
100
AcDbCircle
 10
7806.670352243383
 20
3204.509028433275
 30
0.0
 40
5.625
100
AcDbArc
 50
90.0
 51
270.0
  0
ARC
  5
2858A
330
27F29
100
AcDbEntity
  8
SUNPOU
100
AcDbCircle
 10
7806.670352243383
 20
3270.17815350494
 30
0.0
 40
5.625
100
AcDbArc
 50
90.0
 51
270.0
  0
ARC
  5
2858B
330
27F29
100
AcDbEntity
  8
SUNPOU
100
AcDbCircle
 10
7806.670352243383
 20
3270.17815350494
 30
0.0
 40
5.625
100
AcDbArc
 50
270.0
 51
90.0
  0
ARC
  5
2858C
330
27F29
100
AcDbEntity
  8
SUNPOU
100
AcDbCircle
 10
7806.670352243379
 20
1275.125919511109
 30
0.0
 40
5.625
100
AcDbArc
 50
90.0
 51
270.0
  0
ARC
  5
2858D
330
27F29
100
AcDbEntity
  8
SUNPOU
100
AcDbCircle
 10
7806.670352243379
 20
1275.125919511109
 30
0.0
 40
5.625
100
AcDbArc
 50
270.0
 51
90.0
  0
ARC
  5
2858E
330
27F29
100
AcDbEntity
  8
SUNPOU
100
AcDbCircle
 10
7806.670352243383
 20
3204.509028433275
 30
0.0
 40
5.625
100
AcDbArc
 50
270.0
 51
90.0
  0
ARC
  5
2858F
330
27F29
100
AcDbEntity
  8
SUNPOU
100
AcDbCircle
 10
7806.670352243383
 20
3204.509028433275
 30
0.0
 40
5.625
100
AcDbArc
 50
90.0
 51
270.0
  0
ARC
  5
28590
330
27F29
100
AcDbEntity
  8
SUNPOU
100
AcDbCircle
 10
5338.928144887568
 20
1275.125919511107
 30
0.0
 40
5.625
100
AcDbArc
 50
90.0
 51
270.0
  0
ARC
  5
28591
330
27F29
100
AcDbEntity
  8
SUNPOU
100
AcDbCircle
 10
5338.928144887568
 20
1275.125919511107
 30
0.0
 40
5.625
100
AcDbArc
 50
270.0
 51
90.0
  0
ARC
  5
28592
330
27F29
100
AcDbEntity
  8
SUNPOU
100
AcDbCircle
 10
5338.928144887569
 20
3267.146145191052
 30
0.0
 40
5.625
100
AcDbArc
 50
270.0
 51
90.0
  0
ARC
  5
28593
330
27F29
100
AcDbEntity
  8
SUNPOU
100
AcDbCircle
 10
5338.928144887569
 20
3267.146145191052
 30
0.0
 40
5.625
100
AcDbArc
 50
90.0
 51
270.0
  0
ARC
  5
28594
330
27F29
100
AcDbEntity
  8
SUNPOU
100
AcDbCircle
 10
5128.92814488757
 20
3336.855472218671
 30
0.0
 40
5.625
100
AcDbArc
 50
270.0
 51
90.0
  0
ARC
  5
28595
330
27F29
100
AcDbEntity
  8
SUNPOU
100
AcDbCircle
 10
5128.92814488757
 20
3336.855472218671
 30
0.0
 40
5.625
100
AcDbArc
 50
90.0
 51
270.0
  0
ARC
  5
28596
330
27F29
100
AcDbEntity
  8
SUNPOU
100
AcDbCircle
 10
5128.928144887569
 20
1275.125919511107
 30
0.0
 40
5.625
100
AcDbArc
 50
90.0
 51
270.0
  0
ARC
  5
28597
330
27F29
100
AcDbEntity
  8
SUNPOU
100
AcDbCircle
 10
5128.928144887569
 20
1275.125919511107
 30
0.0
 40
5.625
100
AcDbArc
 50
270.0
 51
90.0
  0
ARC
  5
28598
330
27F29
100
AcDbEntity
  8
SUNPOU
100
AcDbCircle
 10
5128.928144887569
 20
3336.855472218671
 30
0.0
 40
5.625
100
AcDbArc
 50
90.0
 51
270.0
  0
ARC
  5
28599
330
27F29
100
AcDbEntity
  8
SUNPOU
100
AcDbCircle
 10
5128.928144887569
 20
3336.855472218671
 30
0.0
 40
5.625
100
AcDbArc
 50
270.0
 51
90.0
  0
ARC
  5
2859A
330
27F29
100
AcDbEntity
  8
SUNPOU
100
AcDbCircle
 10
5128.928144887569
 20
3471.199431984322
 30
0.0
 40
5.625
100
AcDbArc
 50
270.0
 51
90.0
  0
ARC
  5
2859B
330
27F29
100
AcDbEntity
  8
SUNPOU
100
AcDbCircle
 10
5128.928144887569
 20
3471.199431984322
 30
0.0
 40
5.625
100
AcDbArc
 50
90.0
 51
270.0
  0
ARC
  5
2859C
330
27F29
100
AcDbEntity
  8
SUNPOU
100
AcDbCircle
 10
5411.670352243381
 20
4199.335714136728
 30
0.0
 40
5.625
100
AcDbArc
 50
0.0
 51
180.0
  0
ARC
  5
2859D
330
27F29
100
AcDbEntity
  8
SUNPOU
100
AcDbCircle
 10
5411.670352243381
 20
4199.335714136728
 30
0.0
 40
5.625
100
AcDbArc
 50
180.0
 51
0.0
  0
ARC
  5
2859E
330
27F29
100
AcDbEntity
  8
SUNPOU
100
AcDbCircle
 10
7426.19828786364
 20
4199.335714136728
 30
0.0
 40
5.625
100
AcDbArc
 50
180.0
 51
0.0
  0
ARC
  5
2859F
330
27F29
100
AcDbEntity
  8
SUNPOU
100
AcDbCircle
 10
7426.19828786364
 20
4199.335714136728
 30
0.0
 40
5.625
100
AcDbArc
 50
0.0
 51
180.0
  0
ARC
  5
285A0
330
27F29
100
AcDbEntity
  8
SUNPOU
100
AcDbCircle
 10
6416.670352243383
 20
3989.335714136729
 30
0.0
 40
5.625
100
AcDbArc
 50
0.0
 51
180.0
  0
ARC
  5
285A1
330
27F29
100
AcDbEntity
  8
SUNPOU
100
AcDbCircle
 10
6416.670352243383
 20
3989.335714136729
 30
0.0
 40
5.625
100
AcDbArc
 50
180.0
 51
0.0
  0
ARC
  5
285A2
330
27F29
100
AcDbEntity
  8
SUNPOU
100
AcDbCircle
 10
7426.19828786364
 20
3989.335714136729
 30
0.0
 40
5.625
100
AcDbArc
 50
180.0
 51
0.0
  0
ARC
  5
285A3
330
27F29
100
AcDbEntity
  8
SUNPOU
100
AcDbCircle
 10
7426.19828786364
 20
3989.335714136729
 30
0.0
 40
5.625
100
AcDbArc
 50
0.0
 51
180.0
  0
ARC
  5
285A4
330
27F29
100
AcDbEntity
  8
SUNPOU
100
AcDbCircle
 10
6416.670352243383
 20
3989.335714136729
 30
0.0
 40
5.625
100
AcDbArc
 50
180.0
 51
0.0
  0
ARC
  5
285A5
330
27F29
100
AcDbEntity
  8
SUNPOU
100
AcDbCircle
 10
6416.670352243383
 20
3989.335714136729
 30
0.0
 40
5.625
100
AcDbArc
 50
0.0
 51
180.0
  0
ARC
  5
285A6
330
27F29
100
AcDbEntity
  8
SUNPOU
100
AcDbCircle
 10
5411.670352243381
 20
3989.335714136729
 30
0.0
 40
5.625
100
AcDbArc
 50
0.0
 51
180.0
  0
ARC
  5
285A7
330
27F29
100
AcDbEntity
  8
SUNPOU
100
AcDbCircle
 10
5411.670352243381
 20
3989.335714136729
 30
0.0
 40
5.625
100
AcDbArc
 50
180.0
 51
0.0
  0
CIRCLE
  5
285A8
330
27F29
100
AcDbEntity
  8
HIKIDASHI
100
AcDbCircle
 10
6416.670352243383
 20
795.12591951111
 30
0.0
 40
6.0
  0
CIRCLE
  5
285A9
330
27F29
100
AcDbEntity
  8
HIKIDASHI
100
AcDbCircle
 10
6416.670352243383
 20
835.1259195111101
 30
0.0
 40
6.0
  0
ARC
  5
285AA
330
27F29
100
AcDbEntity
  8
HIKIDASHI
100
AcDbCircle
 10
6416.670352243383
 20
835.1259195111101
 30
0.0
 40
3.0
100
AcDbArc
 50
180.0
 51
0.0
  0
ARC
  5
285AB
330
27F29
100
AcDbEntity
  8
HIKIDASHI
100
AcDbCircle
 10
6416.670352243383
 20
835.1259195111101
 30
0.0
 40
3.0
100
AcDbArc
 50
0.0
 51
180.0
  0
ARC
  5
285AC
330
27F29
100
AcDbEntity
  8
HIKIDASHI
100
AcDbCircle
 10
6416.670352243383
 20
795.12591951111
 30
0.0
 40
3.0
100
AcDbArc
 50
180.0
 51
0.0
  0
ARC
  5
285AD
330
27F29
100
AcDbEntity
  8
HIKIDASHI
100
AcDbCircle
 10
6416.670352243383
 20
795.12591951111
 30
0.0
 40
3.0
100
AcDbArc
 50
0.0
 51
180.0
  0
LINE
  5
285AE
330
27F29
100
AcDbEntity
  8
HIKIDASHI
100
AcDbLine
 10
5827.632733957749
 20
3457.551186975651
 30
0.0
 11
5877.433519716785
 21
3565.688555534785
 31
0.0
1001
ACAD
1000
DSTYLE
1002
{
1070
   147
1040
1.5
1070
    77
1070
     0
1002
}
  0
LINE
  5
285AF
330
27F29
100
AcDbEntity
  8
HIKIDASHI
100
AcDbLine
 10
5814.008133603891
 20
3463.825759885235
 30
0.0
 11
5789.985296500242
 21
3375.803584852512
 31
0.0
  0
LINE
  5
285B0
330
27F29
100
AcDbEntity
  8
HIKIDASHI
100
AcDbLine
 10
5789.985296500242
 20
3375.803584852512
 30
0.0
 11
5841.257334311606
 21
3451.276614066067
 31
0.0
  0
SOLID
  5
285B1
330
27F29
100
AcDbEntity
  8
HIKIDASHI
100
AcDbTrace
 10
5814.008133603891
 20
3463.825759885235
 30
0.0
 11
5841.257334311606
 21
3451.276614066067
 31
0.0
 12
5789.985296500242
 22
3375.803584852512
 32
0.0
 13
5789.985296500242
 23
3375.803584852512
 33
0.0
  0
LINE
  5
285B2
330
27F29
100
AcDbEntity
  8
HIKIDASHI
100
AcDbLine
 10
5841.257334311606
 20
3451.276614066067
 30
0.0
 11
5814.008133603891
 21
3463.825759885235
 31
0.0
  0
LINE
  5
285B3
330
27F29
100
AcDbEntity
  8
HIKIDASHI
100
AcDbLine
 10
5476.901140507038
 20
3253.714607045552
 30
0.0
 11
5488.07892773397
 21
2650.221056410115
 31
0.0
1001
ACAD
1000
DSTYLE
1002
{
1070
   147
1040
1.5
1070
    77
1070
     0
1002
}
  0
LINE
  5
285B4
330
27F29
100
AcDbEntity
  8
HIKIDASHI
100
AcDbLine
 10
5491.898568240607
 20
3253.99238641201
 30
0.0
 11
5475.234464308289
 21
3343.699173446955
 31
0.0
  0
LINE
  5
285B5
330
27F29
100
AcDbEntity
  8
HIKIDASHI
100
AcDbLine
 10
5475.234464308289
 20
3343.699173446955
 30
0.0
 11
5461.903712773471
 21
3253.436827679094
 31
0.0
  0
SOLID
  5
285B6
330
27F29
100
AcDbEntity
  8
HIKIDASHI
100
AcDbTrace
 10
5491.898568240607
 20
3253.99238641201
 30
0.0
 11
5461.903712773471
 21
3253.436827679094
 31
0.0
 12
5475.234464308289
 22
3343.699173446955
 32
0.0
 13
5475.234464308289
 23
3343.699173446955
 33
0.0
  0
LINE
  5
285B7
330
27F29
100
AcDbEntity
  8
HIKIDASHI
100
AcDbLine
 10
5461.903712773471
 20
3253.436827679094
 30
0.0
 11
5491.898568240607
 21
3253.99238641201
 31
0.0
  0
LINE
  5
285B8
330
27F29
100
AcDbEntity
  8
HIKIDASHI
100
AcDbLine
 10
6759.73568601514
 20
3090.384808356211
 30
0.0
 11
6830.554969652144
 21
2895.810425701557
 31
0.0
1001
ACAD
1000
DSTYLE
1002
{
1070
   147
1040
1.5
1070
    77
1070
     0
1002
}
  0
LINE
  5
285B9
330
27F29
100
AcDbEntity
  8
HIKIDASHI
100
AcDbLine
 10
6773.83107532693
 20
3095.515110506096
 30
0.0
 11
6728.953873115833
 21
3174.957144226945
 31
0.0
  0
LINE
  5
285BA
330
27F29
100
AcDbEntity
  8
HIKIDASHI
100
AcDbLine
 10
6728.953873115833
 20
3174.957144226945
 30
0.0
 11
6745.640296703351
 21
3085.254506206327
 31
0.0
  0
SOLID
  5
285BB
330
27F29
100
AcDbEntity
  8
HIKIDASHI
100
AcDbTrace
 10
6773.83107532693
 20
3095.515110506096
 30
0.0
 11
6745.640296703351
 21
3085.254506206327
 31
0.0
 12
6728.953873115833
 22
3174.957144226945
 32
0.0
 13
6728.953873115833
 23
3174.957144226945
 33
0.0
  0
LINE
  5
285BC
330
27F29
100
AcDbEntity
  8
HIKIDASHI
100
AcDbLine
 10
6745.640296703351
 20
3085.254506206327
 30
0.0
 11
6773.83107532693
 21
3095.515110506096
 31
0.0
  0
LINE
  5
285BD
330
27F29
100
AcDbEntity
  8
HIKIDASHI
100
AcDbLine
 10
6529.347284788451
 20
2966.203038618885
 30
0.0
 11
6636.43532852071
 21
2671.981056570896
 31
0.0
1001
ACAD
1000
DSTYLE
1002
{
1070
   147
1040
1.5
1070
    77
1070
     0
1002
}
  0
LINE
  5
285BE
330
27F29
100
AcDbEntity
  8
HIKIDASHI
100
AcDbLine
 10
6543.442674100241
 20
2971.33334076877
 30
0.0
 11
6498.565471889145
 21
3050.775374489618
 31
0.0
  0
LINE
  5
285BF
330
27F29
100
AcDbEntity
  8
HIKIDASHI
100
AcDbLine
 10
6498.565471889145
 20
3050.775374489618
 30
0.0
 11
6515.251895476663
 21
2961.072736469001
 31
0.0
  0
SOLID
  5
285C0
330
27F29
100
AcDbEntity
  8
HIKIDASHI
100
AcDbTrace
 10
6543.442674100241
 20
2971.33334076877
 30
0.0
 11
6515.251895476663
 21
2961.072736469001
 31
0.0
 12
6498.565471889145
 22
3050.775374489618
 32
0.0
 13
6498.565471889145
 23
3050.775374489618
 33
0.0
  0
LINE
  5
285C1
330
27F29
100
AcDbEntity
  8
HIKIDASHI
100
AcDbLine
 10
6515.251895476663
 20
2961.072736469001
 30
0.0
 11
6543.442674100241
 21
2971.33334076877
 31
0.0
  0
LINE
  5
285C2
330
27F29
100
AcDbEntity
  8
HIKIDASHI
100
AcDbLine
 10
7282.253820185808
 20
3375.212101788292
 30
0.0
 11
7515.574696561038
 21
3779.335714136733
 31
0.0
1001
ACAD
1000
DSTYLE
1002
{
1070
   147
1040
1.5
1070
    77
1070
     0
1002
}
  0
LINE
  5
285C3
330
27F29
100
AcDbEntity
  8
HIKIDASHI
100
AcDbLine
 10
7269.263439129042
 20
3382.712101788293
 30
0.0
 11
7237.25382018581
 21
3297.269815447689
 31
0.0
  0
LINE
  5
285C4
330
27F29
100
AcDbEntity
  8
HIKIDASHI
100
AcDbLine
 10
7237.25382018581
 20
3297.269815447689
 30
0.0
 11
7295.244201242574
 21
3367.712101788292
 31
0.0
  0
SOLID
  5
285C5
330
27F29
100
AcDbEntity
  8
HIKIDASHI
100
AcDbTrace
 10
7269.263439129042
 20
3382.712101788293
 30
0.0
 11
7295.244201242574
 21
3367.712101788292
 31
0.0
 12
7237.25382018581
 22
3297.269815447689
 32
0.0
 13
7237.25382018581
 23
3297.269815447689
 33
0.0
  0
LINE
  5
285C6
330
27F29
100
AcDbEntity
  8
HIKIDASHI
100
AcDbLine
 10
7295.244201242574
 20
3367.712101788292
 30
0.0
 11
7269.263439129042
 21
3382.712101788293
 31
0.0
  0
LINE
  5
285C7
330
27F29
100
AcDbEntity
  8
HIKIDASHI
100
AcDbLine
 10
7151.612677776824
 20
3362.133203892538
 30
0.0
 11
7513.72821590268
 21
3989.335714136729
 31
0.0
1001
ACAD
1000
DSTYLE
1002
{
1070
   147
1040
1.5
1070
    77
1070
     0
1002
}
  0
LINE
  5
285C8
330
27F29
100
AcDbEntity
  8
HIKIDASHI
100
AcDbLine
 10
7138.622296720058
 20
3369.633203892536
 30
0.0
 11
7106.612677776829
 21
3284.190917551937
 31
0.0
  0
LINE
  5
285C9
330
27F29
100
AcDbEntity
  8
HIKIDASHI
100
AcDbLine
 10
7106.612677776829
 20
3284.190917551937
 30
0.0
 11
7164.603058833593
 21
3354.633203892539
 31
0.0
  0
SOLID
  5
285CA
330
27F29
100
AcDbEntity
  8
HIKIDASHI
100
AcDbTrace
 10
7138.622296720058
 20
3369.633203892536
 30
0.0
 11
7164.603058833593
 21
3354.633203892539
 31
0.0
 12
7106.612677776829
 22
3284.190917551937
 32
0.0
 13
7106.612677776829
 23
3284.190917551937
 33
0.0
  0
LINE
  5
285CB
330
27F29
100
AcDbEntity
  8
HIKIDASHI
100
AcDbLine
 10
7164.603058833593
 20
3354.633203892539
 30
0.0
 11
7138.622296720058
 21
3369.633203892536
 31
0.0
  0
LINE
  5
285CC
330
27F29
100
AcDbEntity
  8
HIKIDASHI
100
AcDbLine
 10
5371.785679410419
 20
3567.372568630251
 30
0.0
 11
5201.95271204704
 21
3989.335714136729
 31
0.0
1001
ACAD
1000
DSTYLE
1002
{
1070
   147
1040
1.5
1070
    77
1070
     0
1002
}
  0
LINE
  5
285CD
330
27F29
100
AcDbEntity
  8
HIKIDASHI
100
AcDbLine
 10
5357.870474902765
 20
3561.771936209694
 30
0.0
 11
5405.389473933752
 21
3483.881341584327
 31
0.0
  0
LINE
  5
285CE
330
27F29
100
AcDbEntity
  8
HIKIDASHI
100
AcDbLine
 10
5405.389473933752
 20
3483.881341584327
 30
0.0
 11
5385.700883918073
 21
3572.973201050805
 31
0.0
  0
SOLID
  5
285CF
330
27F29
100
AcDbEntity
  8
HIKIDASHI
100
AcDbTrace
 10
5357.870474902765
 20
3561.771936209694
 30
0.0
 11
5385.700883918073
 21
3572.973201050805
 31
0.0
 12
5405.389473933752
 22
3483.881341584327
 32
0.0
 13
5405.389473933752
 23
3483.881341584327
 33
0.0
  0
LINE
  5
285D0
330
27F29
100
AcDbEntity
  8
HIKIDASHI
100
AcDbLine
 10
5385.700883918073
 20
3572.973201050805
 30
0.0
 11
5357.870474902765
 21
3561.771936209694
 31
0.0
  0
LINE
  5
285D1
330
27F29
100
AcDbEntity
  8
HIKIDASHI
100
AcDbLine
 10
5691.850241360871
 20
3212.533697895024
 30
0.0
 11
5547.349307042061
 21
3043.846364517984
 31
0.0
1001
ACAD
1000
DSTYLE
1002
{
1070
   147
1040
1.5
1070
    77
1070
     0
1002
}
  0
LINE
  5
285D2
330
27F29
100
AcDbEntity
  8
HIKIDASHI
100
AcDbLine
 10
5547.349307042061
 20
3043.846364517984
 30
0.0
 11
5654.419601333614
 21
2850.742481839629
 31
0.0
1001
ACAD
1000
DSTYLE
1002
{
1070
   147
1040
1.5
1070
    77
1070
     0
1002
}
  0
LINE
  5
285D3
330
27F29
100
AcDbEntity
  8
HIKIDASHI
100
AcDbLine
 10
5703.242033288538
 20
3202.775261715147
 30
0.0
 11
5750.400858440129
 21
3280.88444946103
 31
0.0
  0
LINE
  5
285D4
330
27F29
100
AcDbEntity
  8
HIKIDASHI
100
AcDbLine
 10
5750.400858440129
 20
3280.88444946103
 30
0.0
 11
5680.458449433202
 21
3222.292134074901
 31
0.0
  0
SOLID
  5
285D5
330
27F29
100
AcDbEntity
  8
HIKIDASHI
100
AcDbTrace
 10
5703.242033288538
 20
3202.775261715147
 30
0.0
 11
5680.458449433202
 21
3222.292134074901
 31
0.0
 12
5750.400858440129
 22
3280.88444946103
 32
0.0
 13
5750.400858440129
 23
3280.88444946103
 33
0.0
  0
LINE
  5
285D6
330
27F29
100
AcDbEntity
  8
HIKIDASHI
100
AcDbLine
 10
5680.458449433202
 20
3222.292134074901
 30
0.0
 11
5703.242033288538
 21
3202.775261715147
 31
0.0
  0
LINE
  5
285D7
330
27F29
100
AcDbEntity
  8
HIKIDASHI
100
AcDbLine
 10
6517.809962550171
 20
1797.538740455458
 30
0.0
 11
6629.121375596721
 21
1908.850153502007
 31
0.0
1001
ACAD
1000
DSTYLE
1002
{
1070
   147
1040
1.5
1070
    77
1070
     0
1002
}
  0
LINE
  5
285D8
330
27F29
100
AcDbEntity
  8
HIKIDASHI
100
AcDbLine
 10
6507.203360832372
 20
1808.145342173255
 30
0.0
 11
6454.17035224338
 21
1733.899130148667
 31
0.0
  0
LINE
  5
285D9
330
27F29
100
AcDbEntity
  8
HIKIDASHI
100
AcDbLine
 10
6454.17035224338
 20
1733.899130148667
 30
0.0
 11
6528.41656426797
 21
1786.932138737659
 31
0.0
  0
SOLID
  5
285DA
330
27F29
100
AcDbEntity
  8
HIKIDASHI
100
AcDbTrace
 10
6507.203360832372
 20
1808.145342173255
 30
0.0
 11
6528.41656426797
 21
1786.932138737659
 31
0.0
 12
6454.17035224338
 22
1733.899130148667
 32
0.0
 13
6454.17035224338
 23
1733.899130148667
 33
0.0
  0
LINE
  5
285DB
330
27F29
100
AcDbEntity
  8
HIKIDASHI
100
AcDbLine
 10
6528.41656426797
 20
1786.932138737659
 30
0.0
 11
6507.203360832372
 21
1808.145342173255
 31
0.0
  0
CIRCLE
  5
285DC
330
27F29
100
AcDbEntity
  8
HATCH
100
AcDbCircle
 10
3540.991048923979
 20
1248.27805804051
 30
0.0
 40
5.0
  0
CIRCLE
  5
285DD
330
27F29
100
AcDbEntity
  8
HATCH
100
AcDbCircle
 10
3390.99104892398
 20
1248.27805804051
 30
0.0
 40
5.0
  0
CIRCLE
  5
285DE
330
27F29
100
AcDbEntity
  8
HATCH
100
AcDbCircle
 10
3240.99104892398
 20
1248.27805804051
 30
0.0
 40
5.0
  0
CIRCLE
  5
285DF
330
27F29
100
AcDbEntity
  8
HATCH
100
AcDbCircle
 10
3090.99104892398
 20
1248.27805804051
 30
0.0
 40
5.0
  0
CIRCLE
  5
285E0
330
27F29
100
AcDbEntity
  8
HATCH
100
AcDbCircle
 10
2940.99104892398
 20
1248.27805804051
 30
0.0
 40
5.0
  0
CIRCLE
  5
285E1
330
27F29
100
AcDbEntity
  8
HATCH
100
AcDbCircle
 10
2790.99104892398
 20
1248.27805804051
 30
0.0
 40
5.0
  0
CIRCLE
  5
285E2
330
27F29
100
AcDbEntity
  8
HATCH
100
AcDbCircle
 10
2640.99104892398
 20
1248.27805804051
 30
0.0
 40
5.0
  0
CIRCLE
  5
285E3
330
27F29
100
AcDbEntity
  8
HATCH
100
AcDbCircle
 10
2490.991048923981
 20
1248.27805804051
 30
0.0
 40
5.0
  0
CIRCLE
  5
285E4
330
27F29
100
AcDbEntity
  8
HATCH
100
AcDbCircle
 10
2340.99104892398
 20
1248.27805804051
 30
0.0
 40
5.0
  0
CIRCLE
  5
285E5
330
27F29
100
AcDbEntity
  8
HATCH
100
AcDbCircle
 10
2190.99104892398
 20
1248.27805804051
 30
0.0
 40
5.0
  0
CIRCLE
  5
285E6
330
27F29
100
AcDbEntity
  8
HATCH
100
AcDbCircle
 10
2040.99104892398
 20
1248.27805804051
 30
0.0
 40
5.0
  0
CIRCLE
  5
285E7
330
27F29
100
AcDbEntity
  8
HATCH
100
AcDbCircle
 10
1890.99104892398
 20
1248.27805804051
 30
0.0
 40
5.0
  0
CIRCLE
  5
285E8
330
27F29
100
AcDbEntity
  8
HATCH
100
AcDbCircle
 10
1740.99104892398
 20
1248.27805804051
 30
0.0
 40
5.0
  0
CIRCLE
  5
285E9
330
27F29
100
AcDbEntity
  8
HATCH
100
AcDbCircle
 10
1590.99104892398
 20
1248.27805804051
 30
0.0
 40
5.0
  0
CIRCLE
  5
285EA
330
27F29
100
AcDbEntity
  8
HATCH
100
AcDbCircle
 10
1440.99104892398
 20
1248.27805804051
 30
0.0
 40
5.0
  0
CIRCLE
  5
285EB
330
27F29
100
AcDbEntity
  8
HATCH
100
AcDbCircle
 10
1290.991048923979
 20
1248.27805804051
 30
0.0
 40
5.0
  0
CIRCLE
  5
285EC
330
27F29
100
AcDbEntity
  8
HATCH
100
AcDbCircle
 10
1140.991048923979
 20
1248.27805804051
 30
0.0
 40
5.0
  0
CIRCLE
  5
285ED
330
27F29
100
AcDbEntity
  8
HATCH
100
AcDbCircle
 10
990.99104892398
 20
1248.27805804051
 30
0.0
 40
5.0
  0
LINE
  5
285EE
330
27F29
100
AcDbEntity
  8
HATCH
100
AcDbLine
 10
6762.802838783898
 20
675.1259195111079
 30
0.0
 11
6820.537865702862
 21
775.1259195111079
 31
0.0
  0
LINE
  5
285EF
330
27F29
100
AcDbEntity
  8
HATCH
100
AcDbLine
 10
6780.537865702862
 20
775.1259195111065
 30
0.0
 11
6800.537865702863
 21
740.484903359732
 31
0.0
  0
LINE
  5
285F0
330
27F29
100
AcDbEntity
  8
HATCH
100
AcDbLine
 10
6782.802838783901
 20
709.7669356624866
 30
0.0
 11
6802.802838783901
 21
675.1259195111079
 31
0.0
  0
LINE
  5
285F1
330
27F29
100
AcDbEntity
  8
HATCH
100
AcDbLine
 10
6012.802838783898
 20
675.1259195111065
 30
0.0
 11
6070.537865702863
 21
775.1259195111065
 31
0.0
  0
LINE
  5
285F2
330
27F29
100
AcDbEntity
  8
HATCH
100
AcDbLine
 10
6030.537865702862
 20
775.1259195111056
 30
0.0
 11
6050.537865702862
 21
740.4849033597305
 31
0.0
  0
LINE
  5
285F3
330
27F29
100
AcDbEntity
  8
HATCH
100
AcDbLine
 10
6032.802838783901
 20
709.7669356624852
 30
0.0
 11
6052.802838783898
 21
675.1259195111065
 31
0.0
  0
LINE
  5
285F4
330
27F29
100
AcDbEntity
  8
HATCH
100
AcDbLine
 10
6512.802838783898
 20
675.1259195111079
 30
0.0
 11
6570.537865702862
 21
775.1259195111079
 31
0.0
  0
LINE
  5
285F5
330
27F29
100
AcDbEntity
  8
HATCH
100
AcDbLine
 10
6530.537865702862
 20
775.1259195111065
 30
0.0
 11
6550.537865702863
 21
740.484903359732
 31
0.0
  0
LINE
  5
285F6
330
27F29
100
AcDbEntity
  8
HATCH
100
AcDbLine
 10
6532.802838783901
 20
709.7669356624866
 30
0.0
 11
6552.802838783901
 21
675.1259195111079
 31
0.0
  0
LINE
  5
285F7
330
27F29
100
AcDbEntity
  8
HATCH
100
AcDbLine
 10
6637.802838783898
 20
675.1259195111079
 30
0.0
 11
6695.537865702862
 21
775.1259195111079
 31
0.0
  0
LINE
  5
285F8
330
27F29
100
AcDbEntity
  8
HATCH
100
AcDbLine
 10
6655.537865702862
 20
775.1259195111065
 30
0.0
 11
6675.537865702863
 21
740.484903359732
 31
0.0
  0
LINE
  5
285F9
330
27F29
100
AcDbEntity
  8
HATCH
100
AcDbLine
 10
6657.802838783901
 20
709.7669356624866
 30
0.0
 11
6677.802838783901
 21
675.1259195111079
 31
0.0
  0
LINE
  5
285FA
330
27F29
100
AcDbEntity
  8
HATCH
100
AcDbLine
 10
6262.802838783898
 20
675.1259195111079
 30
0.0
 11
6320.537865702863
 21
775.1259195111079
 31
0.0
  0
LINE
  5
285FB
330
27F29
100
AcDbEntity
  8
HATCH
100
AcDbLine
 10
6280.537865702862
 20
775.1259195111065
 30
0.0
 11
6300.537865702862
 21
740.484903359732
 31
0.0
  0
LINE
  5
285FC
330
27F29
100
AcDbEntity
  8
HATCH
100
AcDbLine
 10
6282.802838783901
 20
709.7669356624866
 30
0.0
 11
6302.802838783898
 21
675.1259195111079
 31
0.0
  0
LINE
  5
285FD
330
27F29
100
AcDbEntity
  8
HATCH
100
AcDbLine
 10
6137.802838783898
 20
675.1259195111079
 30
0.0
 11
6195.537865702863
 21
775.1259195111079
 31
0.0
  0
LINE
  5
285FE
330
27F29
100
AcDbEntity
  8
HATCH
100
AcDbLine
 10
6155.537865702862
 20
775.1259195111065
 30
0.0
 11
6175.537865702862
 21
740.484903359732
 31
0.0
  0
LINE
  5
285FF
330
27F29
100
AcDbEntity
  8
HATCH
100
AcDbLine
 10
6157.802838783901
 20
709.7669356624866
 30
0.0
 11
6177.802838783898
 21
675.1259195111079
 31
0.0
  0
LINE
  5
28600
330
27F29
100
AcDbEntity
  8
HATCH
100
AcDbLine
 10
6387.802838783898
 20
675.1259195111079
 30
0.0
 11
6445.537865702862
 21
775.1259195111079
 31
0.0
  0
LINE
  5
28601
330
27F29
100
AcDbEntity
  8
HATCH
100
AcDbLine
 10
6405.537865702862
 20
775.1259195111065
 30
0.0
 11
6425.537865702863
 21
740.484903359732
 31
0.0
  0
LINE
  5
28602
330
27F29
100
AcDbEntity
  8
HATCH
100
AcDbLine
 10
6407.802838783901
 20
709.7669356624866
 30
0.0
 11
6427.802838783901
 21
675.1259195111079
 31
0.0
  0
LINE
  5
28603
330
27F29
100
AcDbEntity
  8
HATCH
100
AcDbLine
 10
7492.029336092058
 20
1125.125919511111
 30
0.0
 11
7526.670352243455
 21
1185.125919511147
 31
0.0
  0
LINE
  5
28604
330
27F29
100
AcDbEntity
  8
HATCH
100
AcDbLine
 10
7502.670352243443
 20
1185.125919511147
 30
0.0
 11
7514.670352243451
 21
1164.341309820309
 31
0.0
  0
LINE
  5
28605
330
27F29
100
AcDbEntity
  8
HATCH
100
AcDbLine
 10
7504.029336092067
 20
1145.910529201951
 30
0.0
 11
7516.029336092072
 21
1125.125919511111
 31
0.0
  0
LINE
  5
28606
330
27F29
100
AcDbEntity
  8
HATCH
100
AcDbLine
 10
7402.029336092057
 20
1125.125919511111
 30
0.0
 11
7436.670352243456
 21
1185.125919511147
 31
0.0
  0
LINE
  5
28607
330
27F29
100
AcDbEntity
  8
HATCH
100
AcDbLine
 10
7412.670352243444
 20
1185.125919511147
 30
0.0
 11
7424.67035224345
 21
1164.341309820309
 31
0.0
  0
LINE
  5
28608
330
27F29
100
AcDbEntity
  8
HATCH
100
AcDbLine
 10
7414.029336092065
 20
1145.910529201951
 30
0.0
 11
7426.029336092074
 21
1125.125919511111
 31
0.0
  0
LINE
  5
28609
330
27F29
100
AcDbEntity
  8
HATCH
100
AcDbLine
 10
7582.029336092057
 20
1125.125919511111
 30
0.0
 11
7616.670352243456
 21
1185.125919511147
 31
0.0
  0
LINE
  5
2860A
330
27F29
100
AcDbEntity
  8
HATCH
100
AcDbLine
 10
7592.670352243444
 20
1185.125919511147
 30
0.0
 11
7604.67035224345
 21
1164.341309820309
 31
0.0
  0
LINE
  5
2860B
330
27F29
100
AcDbEntity
  8
HATCH
100
AcDbLine
 10
7594.029336092065
 20
1145.910529201951
 30
0.0
 11
7606.029336092067
 21
1125.125919511111
 31
0.0
  0
LINE
  5
2860C
330
27F29
100
AcDbEntity
  8
HATCH
100
AcDbLine
 10
7312.029336092058
 20
1125.12591951111
 30
0.0
 11
7346.670352243458
 21
1185.125919511145
 31
0.0
  0
LINE
  5
2860D
330
27F29
100
AcDbEntity
  8
HATCH
100
AcDbLine
 10
7322.670352243443
 20
1185.125919511145
 30
0.0
 11
7334.670352243449
 21
1164.341309820308
 31
0.0
  0
LINE
  5
2860E
330
27F29
100
AcDbEntity
  8
HATCH
100
AcDbLine
 10
7324.029336092064
 20
1145.91052920195
 30
0.0
 11
7336.029336092072
 21
1125.12591951111
 31
0.0
  0
LINE
  5
2860F
330
27F29
100
AcDbEntity
  8
HATCH
100
AcDbLine
 10
7132.029336092057
 20
1125.12591951111
 30
0.0
 11
7166.670352243456
 21
1185.125919511145
 31
0.0
  0
LINE
  5
28610
330
27F29
100
AcDbEntity
  8
HATCH
100
AcDbLine
 10
7142.670352243442
 20
1185.125919511145
 30
0.0
 11
7154.670352243448
 21
1164.341309820308
 31
0.0
  0
LINE
  5
28611
330
27F29
100
AcDbEntity
  8
HATCH
100
AcDbLine
 10
7144.029336092065
 20
1145.91052920195
 30
0.0
 11
7156.029336092071
 21
1125.12591951111
 31
0.0
  0
LINE
  5
28612
330
27F29
100
AcDbEntity
  8
HATCH
100
AcDbLine
 10
7222.029336092058
 20
1125.125919511111
 30
0.0
 11
7256.670352243458
 21
1185.125919511147
 31
0.0
  0
LINE
  5
28613
330
27F29
100
AcDbEntity
  8
HATCH
100
AcDbLine
 10
7232.670352243444
 20
1185.125919511147
 30
0.0
 11
7244.67035224345
 21
1164.341309820309
 31
0.0
  0
LINE
  5
28614
330
27F29
100
AcDbEntity
  8
HATCH
100
AcDbLine
 10
7234.029336092065
 20
1145.910529201951
 30
0.0
 11
7246.029336092077
 21
1125.125919511111
 31
0.0
  0
LINE
  5
28615
330
27F29
100
AcDbEntity
  8
HATCH
100
AcDbLine
 10
7042.029336092058
 20
1125.125919511111
 30
0.0
 11
7076.670352243457
 21
1185.125919511147
 31
0.0
  0
LINE
  5
28616
330
27F29
100
AcDbEntity
  8
HATCH
100
AcDbLine
 10
7052.670352243443
 20
1185.125919511147
 30
0.0
 11
7064.670352243448
 21
1164.341309820309
 31
0.0
  0
LINE
  5
28617
330
27F29
100
AcDbEntity
  8
HATCH
100
AcDbLine
 10
7054.029336092066
 20
1145.910529201951
 30
0.0
 11
7066.029336092071
 21
1125.125919511111
 31
0.0
  0
LINE
  5
28618
330
27F29
100
AcDbEntity
  8
HATCH
100
AcDbLine
 10
6862.029336092058
 20
1125.12591951111
 30
0.0
 11
6896.670352243457
 21
1185.125919511145
 31
0.0
  0
LINE
  5
28619
330
27F29
100
AcDbEntity
  8
HATCH
100
AcDbLine
 10
6872.670352243443
 20
1185.125919511145
 30
0.0
 11
6884.67035224345
 21
1164.341309820308
 31
0.0
  0
LINE
  5
2861A
330
27F29
100
AcDbEntity
  8
HATCH
100
AcDbLine
 10
6874.029336092064
 20
1145.91052920195
 30
0.0
 11
6886.029336092072
 21
1125.12591951111
 31
0.0
  0
LINE
  5
2861B
330
27F29
100
AcDbEntity
  8
HATCH
100
AcDbLine
 10
6952.029336092057
 20
1125.12591951111
 30
0.0
 11
6986.670352243456
 21
1185.125919511145
 31
0.0
  0
LINE
  5
2861C
330
27F29
100
AcDbEntity
  8
HATCH
100
AcDbLine
 10
6962.670352243442
 20
1185.125919511145
 30
0.0
 11
6974.670352243449
 21
1164.341309820308
 31
0.0
  0
LINE
  5
2861D
330
27F29
100
AcDbEntity
  8
HATCH
100
AcDbLine
 10
6964.029336092065
 20
1145.91052920195
 30
0.0
 11
6976.029336092071
 21
1125.12591951111
 31
0.0
  0
LINE
  5
2861E
330
27F29
100
AcDbEntity
  8
HATCH
100
AcDbLine
 10
6772.029336092058
 20
1125.12591951111
 30
0.0
 11
6806.670352243457
 21
1185.125919511145
 31
0.0
  0
LINE
  5
2861F
330
27F29
100
AcDbEntity
  8
HATCH
100
AcDbLine
 10
6782.670352243441
 20
1185.125919511145
 30
0.0
 11
6794.670352243449
 21
1164.341309820308
 31
0.0
  0
LINE
  5
28620
330
27F29
100
AcDbEntity
  8
HATCH
100
AcDbLine
 10
6784.029336092065
 20
1145.91052920195
 30
0.0
 11
6796.029336092073
 21
1125.12591951111
 31
0.0
  0
LINE
  5
28621
330
27F29
100
AcDbEntity
  8
HATCH
100
AcDbLine
 10
6006.670352243435
 20
1125.125919511106
 30
0.0
 11
6041.311368394834
 21
1185.125919511142
 31
0.0
  0
LINE
  5
28622
330
27F29
100
AcDbEntity
  8
HATCH
100
AcDbLine
 10
6017.311368394818
 20
1185.125919511142
 30
0.0
 11
6029.311368394826
 21
1164.341309820305
 31
0.0
  0
LINE
  5
28623
330
27F29
100
AcDbEntity
  8
HATCH
100
AcDbLine
 10
6018.670352243443
 20
1145.910529201946
 30
0.0
 11
6030.670352243451
 21
1125.125919511106
 31
0.0
  0
LINE
  5
28624
330
27F29
100
AcDbEntity
  8
HATCH
100
AcDbLine
 10
5916.670352243437
 20
1125.125919511106
 30
0.0
 11
5951.311368394834
 21
1185.125919511142
 31
0.0
  0
LINE
  5
28625
330
27F29
100
AcDbEntity
  8
HATCH
100
AcDbLine
 10
5927.311368394818
 20
1185.125919511142
 30
0.0
 11
5939.311368394825
 21
1164.341309820305
 31
0.0
  0
LINE
  5
28626
330
27F29
100
AcDbEntity
  8
HATCH
100
AcDbLine
 10
5928.670352243443
 20
1145.910529201946
 30
0.0
 11
5940.67035224345
 21
1125.125919511106
 31
0.0
  0
LINE
  5
28627
330
27F29
100
AcDbEntity
  8
HATCH
100
AcDbLine
 10
5826.670352243437
 20
1125.125919511106
 30
0.0
 11
5861.311368394834
 21
1185.125919511142
 31
0.0
  0
LINE
  5
28628
330
27F29
100
AcDbEntity
  8
HATCH
100
AcDbLine
 10
5837.311368394821
 20
1185.125919511142
 30
0.0
 11
5849.311368394825
 21
1164.341309820305
 31
0.0
  0
LINE
  5
28629
330
27F29
100
AcDbEntity
  8
HATCH
100
AcDbLine
 10
5838.670352243443
 20
1145.910529201946
 30
0.0
 11
5850.67035224345
 21
1125.125919511106
 31
0.0
  0
LINE
  5
2862A
330
27F29
100
AcDbEntity
  8
HATCH
100
AcDbLine
 10
5646.670352243437
 20
1125.125919511106
 30
0.0
 11
5681.311368394834
 21
1185.125919511142
 31
0.0
  0
LINE
  5
2862B
330
27F29
100
AcDbEntity
  8
HATCH
100
AcDbLine
 10
5657.311368394818
 20
1185.125919511142
 30
0.0
 11
5669.311368394826
 21
1164.341309820305
 31
0.0
  0
LINE
  5
2862C
330
27F29
100
AcDbEntity
  8
HATCH
100
AcDbLine
 10
5658.670352243443
 20
1145.910529201946
 30
0.0
 11
5670.67035224345
 21
1125.125919511106
 31
0.0
  0
LINE
  5
2862D
330
27F29
100
AcDbEntity
  8
HATCH
100
AcDbLine
 10
5736.670352243437
 20
1125.125919511106
 30
0.0
 11
5771.311368394834
 21
1185.125919511142
 31
0.0
  0
LINE
  5
2862E
330
27F29
100
AcDbEntity
  8
HATCH
100
AcDbLine
 10
5747.311368394821
 20
1185.125919511142
 30
0.0
 11
5759.311368394826
 21
1164.341309820305
 31
0.0
  0
LINE
  5
2862F
330
27F29
100
AcDbEntity
  8
HATCH
100
AcDbLine
 10
5748.670352243443
 20
1145.910529201946
 30
0.0
 11
5760.67035224345
 21
1125.125919511106
 31
0.0
  0
LINE
  5
28630
330
27F29
100
AcDbEntity
  8
HATCH
100
AcDbLine
 10
5556.670352243435
 20
1125.125919511106
 30
0.0
 11
5591.311368394833
 21
1185.125919511142
 31
0.0
  0
LINE
  5
28631
330
27F29
100
AcDbEntity
  8
HATCH
100
AcDbLine
 10
5567.311368394818
 20
1185.125919511142
 30
0.0
 11
5579.311368394826
 21
1164.341309820305
 31
0.0
  0
LINE
  5
28632
330
27F29
100
AcDbEntity
  8
HATCH
100
AcDbLine
 10
5568.670352243443
 20
1145.910529201946
 30
0.0
 11
5580.67035224345
 21
1125.125919511106
 31
0.0
  0
LINE
  5
28633
330
27F29
100
AcDbEntity
  8
HATCH
100
AcDbLine
 10
5466.670352243435
 20
1125.125919511106
 30
0.0
 11
5501.311368394834
 21
1185.125919511142
 31
0.0
  0
LINE
  5
28634
330
27F29
100
AcDbEntity
  8
HATCH
100
AcDbLine
 10
5477.311368394818
 20
1185.125919511142
 30
0.0
 11
5489.311368394826
 21
1164.341309820305
 31
0.0
  0
LINE
  5
28635
330
27F29
100
AcDbEntity
  8
HATCH
100
AcDbLine
 10
5478.670352243442
 20
1145.910529201946
 30
0.0
 11
5490.67035224345
 21
1125.125919511106
 31
0.0
  0
LINE
  5
28636
330
27F29
100
AcDbEntity
  8
HATCH
100
AcDbLine
 10
5286.670352243437
 20
1125.125919511106
 30
0.0
 11
5321.311368394834
 21
1185.125919511142
 31
0.0
  0
LINE
  5
28637
330
27F29
100
AcDbEntity
  8
HATCH
100
AcDbLine
 10
5297.311368394821
 20
1185.125919511142
 30
0.0
 11
5309.311368394826
 21
1164.341309820305
 31
0.0
  0
LINE
  5
28638
330
27F29
100
AcDbEntity
  8
HATCH
100
AcDbLine
 10
5298.670352243441
 20
1145.910529201946
 30
0.0
 11
5310.67035224345
 21
1125.125919511106
 31
0.0
  0
LINE
  5
28639
330
27F29
100
AcDbEntity
  8
HATCH
100
AcDbLine
 10
5196.670352243437
 20
1125.125919511106
 30
0.0
 11
5231.311368394834
 21
1185.125919511142
 31
0.0
  0
LINE
  5
2863A
330
27F29
100
AcDbEntity
  8
HATCH
100
AcDbLine
 10
5207.311368394818
 20
1185.125919511142
 30
0.0
 11
5219.311368394826
 21
1164.341309820305
 31
0.0
  0
LINE
  5
2863B
330
27F29
100
AcDbEntity
  8
HATCH
100
AcDbLine
 10
5208.670352243442
 20
1145.910529201946
 30
0.0
 11
5220.67035224345
 21
1125.125919511106
 31
0.0
  0
LINE
  5
2863C
330
27F29
100
AcDbEntity
  8
HATCH
100
AcDbLine
 10
5016.670352243435
 20
1125.125919511106
 30
0.0
 11
5051.311368394834
 21
1185.125919511142
 31
0.0
  0
LINE
  5
2863D
330
27F29
100
AcDbEntity
  8
HATCH
100
AcDbLine
 10
5027.311368394816
 20
1185.125919511142
 30
0.0
 11
5039.311368394826
 21
1164.341309820305
 31
0.0
  0
LINE
  5
2863E
330
27F29
100
AcDbEntity
  8
HATCH
100
AcDbLine
 10
5028.670352243442
 20
1145.910529201946
 30
0.0
 11
5040.670352243449
 21
1125.125919511106
 31
0.0
  0
LINE
  5
2863F
330
27F29
100
AcDbEntity
  8
HATCH
100
AcDbLine
 10
5106.670352243435
 20
1125.125919511106
 30
0.0
 11
5141.311368394834
 21
1185.125919511142
 31
0.0
  0
LINE
  5
28640
330
27F29
100
AcDbEntity
  8
HATCH
100
AcDbLine
 10
5117.311368394818
 20
1185.125919511142
 30
0.0
 11
5129.311368394827
 21
1164.341309820305
 31
0.0
  0
LINE
  5
28641
330
27F29
100
AcDbEntity
  8
HATCH
100
AcDbLine
 10
5118.670352243442
 20
1145.910529201946
 30
0.0
 11
5130.67035224345
 21
1125.125919511106
 31
0.0
  0
LINE
  5
28642
330
27F29
100
AcDbEntity
  8
HATCH
100
AcDbLine
 10
5376.670352243437
 20
1125.125919511106
 30
0.0
 11
5411.311368394834
 21
1185.125919511142
 31
0.0
  0
LINE
  5
28643
330
27F29
100
AcDbEntity
  8
HATCH
100
AcDbLine
 10
5387.311368394818
 20
1185.125919511142
 30
0.0
 11
5399.311368394826
 21
1164.341309820305
 31
0.0
  0
LINE
  5
28644
330
27F29
100
AcDbEntity
  8
HATCH
100
AcDbLine
 10
5388.67035224344
 20
1145.910529201946
 30
0.0
 11
5400.67035224345
 21
1125.125919511106
 31
0.0
  0
CIRCLE
  5
28645
330
27F29
100
AcDbEntity
  8
HATCH
100
AcDbCircle
 10
2061.855321569979
 20
5070.925906786466
 30
0.0
 40
5.0
  0
CIRCLE
  5
28646
330
27F29
100
AcDbEntity
  8
HATCH
100
AcDbCircle
 10
2211.85532156998
 20
5070.925906786466
 30
0.0
 40
5.0
  0
CIRCLE
  5
28647
330
27F29
100
AcDbEntity
  8
HATCH
100
AcDbCircle
 10
2361.855321569981
 20
5070.925906786466
 30
0.0
 40
5.0
  0
CIRCLE
  5
28648
330
27F29
100
AcDbEntity
  8
HATCH
100
AcDbCircle
 10
2511.855321569981
 20
5070.925906786466
 30
0.0
 40
5.0
  0
CIRCLE
  5
28649
330
27F29
100
AcDbEntity
  8
HATCH
100
AcDbCircle
 10
2661.85532156998
 20
5070.925906786466
 30
0.0
 40
5.0
  0
CIRCLE
  5
2864A
330
27F29
100
AcDbEntity
  8
HATCH
100
AcDbCircle
 10
2811.855321569981
 20
5070.925906786466
 30
0.0
 40
5.0
  0
CIRCLE
  5
2864B
330
27F29
100
AcDbEntity
  8
HATCH
100
AcDbCircle
 10
2961.855321569981
 20
5070.925906786466
 30
0.0
 40
5.0
  0
CIRCLE
  5
2864C
330
27F29
100
AcDbEntity
  8
HATCH
100
AcDbCircle
 10
3261.855321569981
 20
5070.925906786466
 30
0.0
 40
5.0
  0
CIRCLE
  5
2864D
330
27F29
100
AcDbEntity
  8
HATCH
100
AcDbCircle
 10
3111.855321569982
 20
5070.925906786466
 30
0.0
 40
5.0
  0
CIRCLE
  5
2864E
330
27F29
100
AcDbEntity
  8
HATCH
100
AcDbCircle
 10
3411.85532156998
 20
5070.925906786466
 30
0.0
 40
5.0
  0
CIRCLE
  5
2864F
330
27F29
100
AcDbEntity
  8
HATCH
100
AcDbCircle
 10
3561.855321569981
 20
5070.925906786466
 30
0.0
 40
5.0
  0
CIRCLE
  5
28650
330
27F29
100
AcDbEntity
  8
HATCH
100
AcDbCircle
 10
3711.855321569981
 20
5070.925906786466
 30
0.0
 40
5.0
  0
CIRCLE
  5
28651
330
27F29
100
AcDbEntity
  8
HATCH
100
AcDbCircle
 10
3861.855321569981
 20
5070.925906786466
 30
0.0
 40
5.0
  0
CIRCLE
  5
28652
330
27F29
100
AcDbEntity
  8
HATCH
100
AcDbCircle
 10
4011.855321569981
 20
5070.925906786466
 30
0.0
 40
5.0
  0
CIRCLE
  5
28653
330
27F29
100
AcDbEntity
  8
HATCH
100
AcDbCircle
 10
4161.855321569979
 20
5070.925906786466
 30
0.0
 40
5.0
  0
CIRCLE
  5
28654
330
27F29
100
AcDbEntity
  8
HATCH
100
AcDbCircle
 10
4311.855321569979
 20
5070.925906786466
 30
0.0
 40
5.0
  0
CIRCLE
  5
28655
330
27F29
100
AcDbEntity
  8
HATCH
100
AcDbCircle
 10
4461.85532156998
 20
5070.925906786466
 30
0.0
 40
5.0
  0
CIRCLE
  5
28656
330
27F29
100
AcDbEntity
  8
HATCH
100
AcDbCircle
 10
4611.855321569979
 20
5070.92590678647
 30
0.0
 40
5.0
  0
CIRCLE
  5
28657
330
27F29
100
AcDbEntity
  8
HATCH
100
AcDbCircle
 10
4761.855321569981
 20
5070.92590678647
 30
0.0
 40
5.0
  0
CIRCLE
  5
28658
330
27F29
100
AcDbEntity
  8
HATCH
100
AcDbCircle
 10
4911.85532156998
 20
5070.92590678647
 30
0.0
 40
5.0
  0
CIRCLE
  5
28659
330
27F29
100
AcDbEntity
  8
HATCH
100
AcDbCircle
 10
5061.855321569979
 20
5070.92590678647
 30
0.0
 40
5.0
  0
CIRCLE
  5
2865A
330
27F29
100
AcDbEntity
  8
HATCH
100
AcDbCircle
 10
5211.855321569981
 20
5070.92590678647
 30
0.0
 40
5.0
  0
CIRCLE
  5
2865B
330
27F29
100
AcDbEntity
  8
HATCH
100
AcDbCircle
 10
5361.855321569979
 20
5070.92590678647
 30
0.0
 40
5.0
  0
CIRCLE
  5
2865C
330
27F29
100
AcDbEntity
  8
HATCH
100
AcDbCircle
 10
5511.855321569981
 20
5070.92590678647
 30
0.0
 40
5.0
  0
CIRCLE
  5
2865D
330
27F29
100
AcDbEntity
  8
HATCH
100
AcDbCircle
 10
5661.85532156998
 20
5070.92590678647
 30
0.0
 40
5.0
  0
CIRCLE
  5
2865E
330
27F29
100
AcDbEntity
  8
HATCH
100
AcDbCircle
 10
5811.85532156998
 20
5070.92590678647
 30
0.0
 40
5.0
  0
CIRCLE
  5
2865F
330
27F29
100
AcDbEntity
  8
HATCH
100
AcDbCircle
 10
5961.855321569981
 20
5070.92590678647
 30
0.0
 40
5.0
  0
CIRCLE
  5
28660
330
27F29
100
AcDbEntity
  8
HATCH
100
AcDbCircle
 10
6111.85532156998
 20
5070.92590678647
 30
0.0
 40
5.0
  0
CIRCLE
  5
28661
330
27F29
100
AcDbEntity
  8
HATCH
100
AcDbCircle
 10
10550.14467843002
 20
5070.92590678647
 30
0.0
 40
5.0
  0
CIRCLE
  5
28662
330
27F29
100
AcDbEntity
  8
HATCH
100
AcDbCircle
 10
10400.14467843001
 20
5070.92590678647
 30
0.0
 40
5.0
  0
CIRCLE
  5
28663
330
27F29
100
AcDbEntity
  8
HATCH
100
AcDbCircle
 10
10250.14467843001
 20
5070.92590678647
 30
0.0
 40
5.0
  0
CIRCLE
  5
28664
330
27F29
100
AcDbEntity
  8
HATCH
100
AcDbCircle
 10
10100.14467843001
 20
5070.92590678647
 30
0.0
 40
5.0
  0
CIRCLE
  5
28665
330
27F29
100
AcDbEntity
  8
HATCH
100
AcDbCircle
 10
9950.144678430024
 20
5070.92590678647
 30
0.0
 40
5.0
  0
CIRCLE
  5
28666
330
27F29
100
AcDbEntity
  8
HATCH
100
AcDbCircle
 10
9650.144678430024
 20
5070.92590678647
 30
0.0
 40
5.0
  0
CIRCLE
  5
28667
330
27F29
100
AcDbEntity
  8
HATCH
100
AcDbCircle
 10
9800.144678430024
 20
5070.92590678647
 30
0.0
 40
5.0
  0
CIRCLE
  5
28668
330
27F29
100
AcDbEntity
  8
HATCH
100
AcDbCircle
 10
9500.144678430023
 20
5070.92590678647
 30
0.0
 40
5.0
  0
CIRCLE
  5
28669
330
27F29
100
AcDbEntity
  8
HATCH
100
AcDbCircle
 10
9350.144678430025
 20
5070.92590678647
 30
0.0
 40
5.0
  0
CIRCLE
  5
2866A
330
27F29
100
AcDbEntity
  8
HATCH
100
AcDbCircle
 10
9200.144678430024
 20
5070.92590678647
 30
0.0
 40
5.0
  0
CIRCLE
  5
2866B
330
27F29
100
AcDbEntity
  8
HATCH
100
AcDbCircle
 10
9050.144678430024
 20
5070.92590678647
 30
0.0
 40
5.0
  0
CIRCLE
  5
2866C
330
27F29
100
AcDbEntity
  8
HATCH
100
AcDbCircle
 10
8900.144678430024
 20
5070.92590678647
 30
0.0
 40
5.0
  0
CIRCLE
  5
2866D
330
27F29
100
AcDbEntity
  8
HATCH
100
AcDbCircle
 10
8750.144678430023
 20
5070.92590678647
 30
0.0
 40
5.0
  0
CIRCLE
  5
2866E
330
27F29
100
AcDbEntity
  8
HATCH
100
AcDbCircle
 10
8600.144678430025
 20
5070.92590678647
 30
0.0
 40
5.0
  0
CIRCLE
  5
2866F
330
27F29
100
AcDbEntity
  8
HATCH
100
AcDbCircle
 10
8450.144678430019
 20
5070.92590678647
 30
0.0
 40
5.0
  0
CIRCLE
  5
28670
330
27F29
100
AcDbEntity
  8
HATCH
100
AcDbCircle
 10
8300.144678430019
 20
5070.92590678647
 30
0.0
 40
5.0
  0
CIRCLE
  5
28671
330
27F29
100
AcDbEntity
  8
HATCH
100
AcDbCircle
 10
8150.144678430022
 20
5070.92590678647
 30
0.0
 40
5.0
  0
CIRCLE
  5
28672
330
27F29
100
AcDbEntity
  8
HATCH
100
AcDbCircle
 10
8000.144678430023
 20
5070.92590678647
 30
0.0
 40
5.0
  0
CIRCLE
  5
28673
330
27F29
100
AcDbEntity
  8
HATCH
100
AcDbCircle
 10
7850.144678430019
 20
5070.92590678647
 30
0.0
 40
5.0
  0
CIRCLE
  5
28674
330
27F29
100
AcDbEntity
  8
HATCH
100
AcDbCircle
 10
7700.14467843002
 20
5070.92590678647
 30
0.0
 40
5.0
  0
CIRCLE
  5
28675
330
27F29
100
AcDbEntity
  8
HATCH
100
AcDbCircle
 10
7550.14467843002
 20
5070.92590678647
 30
0.0
 40
5.0
  0
CIRCLE
  5
28676
330
27F29
100
AcDbEntity
  8
HATCH
100
AcDbCircle
 10
7400.14467843002
 20
5070.92590678647
 30
0.0
 40
5.0
  0
CIRCLE
  5
28677
330
27F29
100
AcDbEntity
  8
HATCH
100
AcDbCircle
 10
7250.144678430022
 20
5070.92590678647
 30
0.0
 40
5.0
  0
CIRCLE
  5
28678
330
27F29
100
AcDbEntity
  8
HATCH
100
AcDbCircle
 10
7100.144678430021
 20
5070.92590678647
 30
0.0
 40
5.0
  0
CIRCLE
  5
28679
330
27F29
100
AcDbEntity
  8
HATCH
100
AcDbCircle
 10
6950.144678430021
 20
5070.92590678647
 30
0.0
 40
5.0
  0
CIRCLE
  5
2867A
330
27F29
100
AcDbEntity
  8
HATCH
100
AcDbCircle
 10
6800.144678430021
 20
5070.92590678647
 30
0.0
 40
5.0
  0
CIRCLE
  5
2867B
330
27F29
100
AcDbEntity
  8
HATCH
100
AcDbCircle
 10
6650.144678430021
 20
5070.92590678647
 30
0.0
 40
5.0
  0
CIRCLE
  5
2867C
330
27F29
100
AcDbEntity
  8
HATCH
100
AcDbCircle
 10
6500.144678430022
 20
5070.92590678647
 30
0.0
 40
5.0
  0
ARC
  5
2867D
330
27F29
100
AcDbEntity
  8
HATCH
100
AcDbCircle
 10
6500.144678430022
 20
5070.92590678647
 30
0.0
 40
2.5
100
AcDbArc
 50
180.0
 51
0.0
  0
ARC
  5
2867E
330
27F29
100
AcDbEntity
  8
HATCH
100
AcDbCircle
 10
6500.144678430022
 20
5070.92590678647
 30
0.0
 40
2.5
100
AcDbArc
 50
0.0
 51
180.0
  0
ARC
  5
2867F
330
27F29
100
AcDbEntity
  8
HATCH
100
AcDbCircle
 10
6650.144678430021
 20
5070.92590678647
 30
0.0
 40
2.5
100
AcDbArc
 50
180.0
 51
0.0
  0
ARC
  5
28680
330
27F29
100
AcDbEntity
  8
HATCH
100
AcDbCircle
 10
6650.144678430021
 20
5070.92590678647
 30
0.0
 40
2.5
100
AcDbArc
 50
0.0
 51
180.0
  0
ARC
  5
28681
330
27F29
100
AcDbEntity
  8
HATCH
100
AcDbCircle
 10
6800.144678430021
 20
5070.92590678647
 30
0.0
 40
2.5
100
AcDbArc
 50
180.0
 51
0.0
  0
ARC
  5
28682
330
27F29
100
AcDbEntity
  8
HATCH
100
AcDbCircle
 10
6800.144678430021
 20
5070.92590678647
 30
0.0
 40
2.5
100
AcDbArc
 50
0.0
 51
180.0
  0
ARC
  5
28683
330
27F29
100
AcDbEntity
  8
HATCH
100
AcDbCircle
 10
6950.144678430021
 20
5070.92590678647
 30
0.0
 40
2.5
100
AcDbArc
 50
180.0
 51
0.0
  0
ARC
  5
28684
330
27F29
100
AcDbEntity
  8
HATCH
100
AcDbCircle
 10
6950.144678430021
 20
5070.92590678647
 30
0.0
 40
2.5
100
AcDbArc
 50
0.0
 51
180.0
  0
ARC
  5
28685
330
27F29
100
AcDbEntity
  8
HATCH
100
AcDbCircle
 10
7100.144678430021
 20
5070.92590678647
 30
0.0
 40
2.5
100
AcDbArc
 50
180.0
 51
0.0
  0
ARC
  5
28686
330
27F29
100
AcDbEntity
  8
HATCH
100
AcDbCircle
 10
7100.144678430021
 20
5070.92590678647
 30
0.0
 40
2.5
100
AcDbArc
 50
0.0
 51
180.0
  0
ARC
  5
28687
330
27F29
100
AcDbEntity
  8
HATCH
100
AcDbCircle
 10
7250.144678430022
 20
5070.92590678647
 30
0.0
 40
2.5
100
AcDbArc
 50
180.0
 51
0.0
  0
ARC
  5
28688
330
27F29
100
AcDbEntity
  8
HATCH
100
AcDbCircle
 10
7250.144678430022
 20
5070.92590678647
 30
0.0
 40
2.5
100
AcDbArc
 50
0.0
 51
180.0
  0
ARC
  5
28689
330
27F29
100
AcDbEntity
  8
HATCH
100
AcDbCircle
 10
7400.14467843002
 20
5070.92590678647
 30
0.0
 40
2.5
100
AcDbArc
 50
180.0
 51
0.0
  0
ARC
  5
2868A
330
27F29
100
AcDbEntity
  8
HATCH
100
AcDbCircle
 10
7400.14467843002
 20
5070.92590678647
 30
0.0
 40
2.5
100
AcDbArc
 50
0.0
 51
180.0
  0
ARC
  5
2868B
330
27F29
100
AcDbEntity
  8
HATCH
100
AcDbCircle
 10
7550.14467843002
 20
5070.92590678647
 30
0.0
 40
2.5
100
AcDbArc
 50
180.0
 51
0.0
  0
ARC
  5
2868C
330
27F29
100
AcDbEntity
  8
HATCH
100
AcDbCircle
 10
7550.14467843002
 20
5070.92590678647
 30
0.0
 40
2.5
100
AcDbArc
 50
0.0
 51
180.0
  0
ARC
  5
2868D
330
27F29
100
AcDbEntity
  8
HATCH
100
AcDbCircle
 10
7700.14467843002
 20
5070.92590678647
 30
0.0
 40
2.5
100
AcDbArc
 50
180.0
 51
0.0
  0
ARC
  5
2868E
330
27F29
100
AcDbEntity
  8
HATCH
100
AcDbCircle
 10
7700.14467843002
 20
5070.92590678647
 30
0.0
 40
2.5
100
AcDbArc
 50
0.0
 51
180.0
  0
ARC
  5
2868F
330
27F29
100
AcDbEntity
  8
HATCH
100
AcDbCircle
 10
7850.144678430019
 20
5070.92590678647
 30
0.0
 40
2.5
100
AcDbArc
 50
180.0
 51
0.0
  0
ARC
  5
28690
330
27F29
100
AcDbEntity
  8
HATCH
100
AcDbCircle
 10
7850.144678430019
 20
5070.92590678647
 30
0.0
 40
2.5
100
AcDbArc
 50
0.0
 51
180.0
  0
ARC
  5
28691
330
27F29
100
AcDbEntity
  8
HATCH
100
AcDbCircle
 10
8000.144678430023
 20
5070.92590678647
 30
0.0
 40
2.5
100
AcDbArc
 50
180.0
 51
0.0
  0
ARC
  5
28692
330
27F29
100
AcDbEntity
  8
HATCH
100
AcDbCircle
 10
8000.144678430023
 20
5070.92590678647
 30
0.0
 40
2.5
100
AcDbArc
 50
0.0
 51
180.0
  0
ARC
  5
28693
330
27F29
100
AcDbEntity
  8
HATCH
100
AcDbCircle
 10
8150.144678430022
 20
5070.92590678647
 30
0.0
 40
2.5
100
AcDbArc
 50
180.0
 51
0.0
  0
ARC
  5
28694
330
27F29
100
AcDbEntity
  8
HATCH
100
AcDbCircle
 10
8150.144678430022
 20
5070.92590678647
 30
0.0
 40
2.5
100
AcDbArc
 50
0.0
 51
180.0
  0
ARC
  5
28695
330
27F29
100
AcDbEntity
  8
HATCH
100
AcDbCircle
 10
8300.144678430019
 20
5070.92590678647
 30
0.0
 40
2.5
100
AcDbArc
 50
180.0
 51
0.0
  0
ARC
  5
28696
330
27F29
100
AcDbEntity
  8
HATCH
100
AcDbCircle
 10
8300.144678430019
 20
5070.92590678647
 30
0.0
 40
2.5
100
AcDbArc
 50
0.0
 51
180.0
  0
ARC
  5
28697
330
27F29
100
AcDbEntity
  8
HATCH
100
AcDbCircle
 10
8450.144678430019
 20
5070.92590678647
 30
0.0
 40
2.5
100
AcDbArc
 50
180.0
 51
0.0
  0
ARC
  5
28698
330
27F29
100
AcDbEntity
  8
HATCH
100
AcDbCircle
 10
8450.144678430019
 20
5070.92590678647
 30
0.0
 40
2.5
100
AcDbArc
 50
0.0
 51
180.0
  0
ARC
  5
28699
330
27F29
100
AcDbEntity
  8
HATCH
100
AcDbCircle
 10
8600.144678430025
 20
5070.92590678647
 30
0.0
 40
2.5
100
AcDbArc
 50
180.0
 51
0.0
  0
ARC
  5
2869A
330
27F29
100
AcDbEntity
  8
HATCH
100
AcDbCircle
 10
8600.144678430025
 20
5070.92590678647
 30
0.0
 40
2.5
100
AcDbArc
 50
0.0
 51
180.0
  0
ARC
  5
2869B
330
27F29
100
AcDbEntity
  8
HATCH
100
AcDbCircle
 10
8750.144678430023
 20
5070.92590678647
 30
0.0
 40
2.5
100
AcDbArc
 50
180.0
 51
0.0
  0
ARC
  5
2869C
330
27F29
100
AcDbEntity
  8
HATCH
100
AcDbCircle
 10
8750.144678430023
 20
5070.92590678647
 30
0.0
 40
2.5
100
AcDbArc
 50
0.0
 51
180.0
  0
ARC
  5
2869D
330
27F29
100
AcDbEntity
  8
HATCH
100
AcDbCircle
 10
8900.144678430024
 20
5070.92590678647
 30
0.0
 40
2.5
100
AcDbArc
 50
180.0
 51
0.0
  0
ARC
  5
2869E
330
27F29
100
AcDbEntity
  8
HATCH
100
AcDbCircle
 10
8900.144678430024
 20
5070.92590678647
 30
0.0
 40
2.5
100
AcDbArc
 50
0.0
 51
180.0
  0
ARC
  5
2869F
330
27F29
100
AcDbEntity
  8
HATCH
100
AcDbCircle
 10
9050.144678430024
 20
5070.92590678647
 30
0.0
 40
2.5
100
AcDbArc
 50
180.0
 51
0.0
  0
ARC
  5
286A0
330
27F29
100
AcDbEntity
  8
HATCH
100
AcDbCircle
 10
9050.144678430024
 20
5070.92590678647
 30
0.0
 40
2.5
100
AcDbArc
 50
0.0
 51
180.0
  0
ARC
  5
286A1
330
27F29
100
AcDbEntity
  8
HATCH
100
AcDbCircle
 10
9200.144678430024
 20
5070.92590678647
 30
0.0
 40
2.5
100
AcDbArc
 50
180.0
 51
0.0
  0
ARC
  5
286A2
330
27F29
100
AcDbEntity
  8
HATCH
100
AcDbCircle
 10
9200.144678430024
 20
5070.92590678647
 30
0.0
 40
2.5
100
AcDbArc
 50
0.0
 51
180.0
  0
ARC
  5
286A3
330
27F29
100
AcDbEntity
  8
HATCH
100
AcDbCircle
 10
9350.144678430025
 20
5070.92590678647
 30
0.0
 40
2.5
100
AcDbArc
 50
180.0
 51
0.0
  0
ARC
  5
286A4
330
27F29
100
AcDbEntity
  8
HATCH
100
AcDbCircle
 10
9350.144678430025
 20
5070.92590678647
 30
0.0
 40
2.5
100
AcDbArc
 50
0.0
 51
180.0
  0
ARC
  5
286A5
330
27F29
100
AcDbEntity
  8
HATCH
100
AcDbCircle
 10
9500.144678430023
 20
5070.92590678647
 30
0.0
 40
2.5
100
AcDbArc
 50
180.0
 51
0.0
  0
ARC
  5
286A6
330
27F29
100
AcDbEntity
  8
HATCH
100
AcDbCircle
 10
9500.144678430023
 20
5070.92590678647
 30
0.0
 40
2.5
100
AcDbArc
 50
0.0
 51
180.0
  0
ARC
  5
286A7
330
27F29
100
AcDbEntity
  8
HATCH
100
AcDbCircle
 10
9800.144678430024
 20
5070.92590678647
 30
0.0
 40
2.5
100
AcDbArc
 50
180.0
 51
0.0
  0
ARC
  5
286A8
330
27F29
100
AcDbEntity
  8
HATCH
100
AcDbCircle
 10
9800.144678430024
 20
5070.92590678647
 30
0.0
 40
2.5
100
AcDbArc
 50
0.0
 51
180.0
  0
ARC
  5
286A9
330
27F29
100
AcDbEntity
  8
HATCH
100
AcDbCircle
 10
9650.144678430024
 20
5070.92590678647
 30
0.0
 40
2.5
100
AcDbArc
 50
180.0
 51
0.0
  0
ARC
  5
286AA
330
27F29
100
AcDbEntity
  8
HATCH
100
AcDbCircle
 10
9650.144678430024
 20
5070.92590678647
 30
0.0
 40
2.5
100
AcDbArc
 50
0.0
 51
180.0
  0
ARC
  5
286AB
330
27F29
100
AcDbEntity
  8
HATCH
100
AcDbCircle
 10
9950.144678430024
 20
5070.92590678647
 30
0.0
 40
2.5
100
AcDbArc
 50
180.0
 51
0.0
  0
ARC
  5
286AC
330
27F29
100
AcDbEntity
  8
HATCH
100
AcDbCircle
 10
9950.144678430024
 20
5070.92590678647
 30
0.0
 40
2.5
100
AcDbArc
 50
0.0
 51
180.0
  0
ARC
  5
286AD
330
27F29
100
AcDbEntity
  8
HATCH
100
AcDbCircle
 10
10100.14467843001
 20
5070.92590678647
 30
0.0
 40
2.5
100
AcDbArc
 50
180.0
 51
0.0
  0
ARC
  5
286AE
330
27F29
100
AcDbEntity
  8
HATCH
100
AcDbCircle
 10
10100.14467843001
 20
5070.92590678647
 30
0.0
 40
2.5
100
AcDbArc
 50
0.0
 51
180.0
  0
ARC
  5
286AF
330
27F29
100
AcDbEntity
  8
HATCH
100
AcDbCircle
 10
10250.14467843001
 20
5070.92590678647
 30
0.0
 40
2.5
100
AcDbArc
 50
180.0
 51
0.0
  0
ARC
  5
286B0
330
27F29
100
AcDbEntity
  8
HATCH
100
AcDbCircle
 10
10250.14467843001
 20
5070.92590678647
 30
0.0
 40
2.5
100
AcDbArc
 50
0.0
 51
180.0
  0
ARC
  5
286B1
330
27F29
100
AcDbEntity
  8
HATCH
100
AcDbCircle
 10
10400.14467843001
 20
5070.92590678647
 30
0.0
 40
2.5
100
AcDbArc
 50
180.0
 51
0.0
  0
ARC
  5
286B2
330
27F29
100
AcDbEntity
  8
HATCH
100
AcDbCircle
 10
10400.14467843001
 20
5070.92590678647
 30
0.0
 40
2.5
100
AcDbArc
 50
0.0
 51
180.0
  0
ARC
  5
286B3
330
27F29
100
AcDbEntity
  8
HATCH
100
AcDbCircle
 10
10550.14467843002
 20
5070.92590678647
 30
0.0
 40
2.5
100
AcDbArc
 50
180.0
 51
0.0
  0
ARC
  5
286B4
330
27F29
100
AcDbEntity
  8
HATCH
100
AcDbCircle
 10
10550.14467843002
 20
5070.92590678647
 30
0.0
 40
2.5
100
AcDbArc
 50
0.0
 51
180.0
  0
ARC
  5
286B5
330
27F29
100
AcDbEntity
  8
HATCH
100
AcDbCircle
 10
6111.85532156998
 20
5070.92590678647
 30
0.0
 40
2.5
100
AcDbArc
 50
180.0
 51
0.0
  0
ARC
  5
286B6
330
27F29
100
AcDbEntity
  8
HATCH
100
AcDbCircle
 10
6111.85532156998
 20
5070.92590678647
 30
0.0
 40
2.5
100
AcDbArc
 50
0.0
 51
180.0
  0
ARC
  5
286B7
330
27F29
100
AcDbEntity
  8
HATCH
100
AcDbCircle
 10
5961.855321569981
 20
5070.92590678647
 30
0.0
 40
2.5
100
AcDbArc
 50
180.0
 51
0.0
  0
ARC
  5
286B8
330
27F29
100
AcDbEntity
  8
HATCH
100
AcDbCircle
 10
5961.855321569981
 20
5070.92590678647
 30
0.0
 40
2.5
100
AcDbArc
 50
0.0
 51
180.0
  0
ARC
  5
286B9
330
27F29
100
AcDbEntity
  8
HATCH
100
AcDbCircle
 10
5811.85532156998
 20
5070.92590678647
 30
0.0
 40
2.5
100
AcDbArc
 50
180.0
 51
0.0
  0
ARC
  5
286BA
330
27F29
100
AcDbEntity
  8
HATCH
100
AcDbCircle
 10
5811.85532156998
 20
5070.92590678647
 30
0.0
 40
2.5
100
AcDbArc
 50
0.0
 51
180.0
  0
ARC
  5
286BB
330
27F29
100
AcDbEntity
  8
HATCH
100
AcDbCircle
 10
5661.85532156998
 20
5070.92590678647
 30
0.0
 40
2.5
100
AcDbArc
 50
180.0
 51
0.0
  0
ARC
  5
286BC
330
27F29
100
AcDbEntity
  8
HATCH
100
AcDbCircle
 10
5661.85532156998
 20
5070.92590678647
 30
0.0
 40
2.5
100
AcDbArc
 50
0.0
 51
180.0
  0
ARC
  5
286BD
330
27F29
100
AcDbEntity
  8
HATCH
100
AcDbCircle
 10
5511.855321569981
 20
5070.92590678647
 30
0.0
 40
2.5
100
AcDbArc
 50
180.0
 51
0.0
  0
ARC
  5
286BE
330
27F29
100
AcDbEntity
  8
HATCH
100
AcDbCircle
 10
5511.855321569981
 20
5070.92590678647
 30
0.0
 40
2.5
100
AcDbArc
 50
0.0
 51
180.0
  0
ARC
  5
286BF
330
27F29
100
AcDbEntity
  8
HATCH
100
AcDbCircle
 10
5361.855321569979
 20
5070.92590678647
 30
0.0
 40
2.5
100
AcDbArc
 50
180.0
 51
0.0
  0
ARC
  5
286C0
330
27F29
100
AcDbEntity
  8
HATCH
100
AcDbCircle
 10
5361.855321569979
 20
5070.92590678647
 30
0.0
 40
2.5
100
AcDbArc
 50
0.0
 51
180.0
  0
ARC
  5
286C1
330
27F29
100
AcDbEntity
  8
HATCH
100
AcDbCircle
 10
5211.855321569981
 20
5070.92590678647
 30
0.0
 40
2.5
100
AcDbArc
 50
180.0
 51
0.0
  0
ARC
  5
286C2
330
27F29
100
AcDbEntity
  8
HATCH
100
AcDbCircle
 10
5211.855321569981
 20
5070.92590678647
 30
0.0
 40
2.5
100
AcDbArc
 50
0.0
 51
180.0
  0
ARC
  5
286C3
330
27F29
100
AcDbEntity
  8
HATCH
100
AcDbCircle
 10
5061.855321569979
 20
5070.92590678647
 30
0.0
 40
2.5
100
AcDbArc
 50
180.0
 51
0.0
  0
ARC
  5
286C4
330
27F29
100
AcDbEntity
  8
HATCH
100
AcDbCircle
 10
5061.855321569979
 20
5070.92590678647
 30
0.0
 40
2.5
100
AcDbArc
 50
0.0
 51
180.0
  0
ARC
  5
286C5
330
27F29
100
AcDbEntity
  8
HATCH
100
AcDbCircle
 10
4911.85532156998
 20
5070.92590678647
 30
0.0
 40
2.5
100
AcDbArc
 50
180.0
 51
0.0
  0
ARC
  5
286C6
330
27F29
100
AcDbEntity
  8
HATCH
100
AcDbCircle
 10
4911.85532156998
 20
5070.92590678647
 30
0.0
 40
2.5
100
AcDbArc
 50
0.0
 51
180.0
  0
ARC
  5
286C7
330
27F29
100
AcDbEntity
  8
HATCH
100
AcDbCircle
 10
4761.855321569981
 20
5070.92590678647
 30
0.0
 40
2.5
100
AcDbArc
 50
180.0
 51
0.0
  0
ARC
  5
286C8
330
27F29
100
AcDbEntity
  8
HATCH
100
AcDbCircle
 10
4761.855321569981
 20
5070.92590678647
 30
0.0
 40
2.5
100
AcDbArc
 50
0.0
 51
180.0
  0
ARC
  5
286C9
330
27F29
100
AcDbEntity
  8
HATCH
100
AcDbCircle
 10
4611.855321569979
 20
5070.92590678647
 30
0.0
 40
2.5
100
AcDbArc
 50
180.0
 51
0.0
  0
ARC
  5
286CA
330
27F29
100
AcDbEntity
  8
HATCH
100
AcDbCircle
 10
4611.855321569979
 20
5070.92590678647
 30
0.0
 40
2.5
100
AcDbArc
 50
0.0
 51
180.0
  0
ARC
  5
286CB
330
27F29
100
AcDbEntity
  8
HATCH
100
AcDbCircle
 10
4461.85532156998
 20
5070.925906786466
 30
0.0
 40
2.5
100
AcDbArc
 50
180.0
 51
0.0
  0
ARC
  5
286CC
330
27F29
100
AcDbEntity
  8
HATCH
100
AcDbCircle
 10
4461.85532156998
 20
5070.925906786466
 30
0.0
 40
2.5
100
AcDbArc
 50
0.0
 51
180.0
  0
ARC
  5
286CD
330
27F29
100
AcDbEntity
  8
HATCH
100
AcDbCircle
 10
4311.855321569979
 20
5070.925906786466
 30
0.0
 40
2.5
100
AcDbArc
 50
180.0
 51
0.0
  0
ARC
  5
286CE
330
27F29
100
AcDbEntity
  8
HATCH
100
AcDbCircle
 10
4311.855321569979
 20
5070.925906786466
 30
0.0
 40
2.5
100
AcDbArc
 50
0.0
 51
180.0
  0
ARC
  5
286CF
330
27F29
100
AcDbEntity
  8
HATCH
100
AcDbCircle
 10
4161.855321569979
 20
5070.925906786466
 30
0.0
 40
2.5
100
AcDbArc
 50
180.0
 51
0.0
  0
ARC
  5
286D0
330
27F29
100
AcDbEntity
  8
HATCH
100
AcDbCircle
 10
4161.855321569979
 20
5070.925906786466
 30
0.0
 40
2.5
100
AcDbArc
 50
0.0
 51
180.0
  0
ARC
  5
286D1
330
27F29
100
AcDbEntity
  8
HATCH
100
AcDbCircle
 10
4011.855321569981
 20
5070.925906786466
 30
0.0
 40
2.5
100
AcDbArc
 50
180.0
 51
0.0
  0
ARC
  5
286D2
330
27F29
100
AcDbEntity
  8
HATCH
100
AcDbCircle
 10
4011.855321569981
 20
5070.925906786466
 30
0.0
 40
2.5
100
AcDbArc
 50
0.0
 51
180.0
  0
ARC
  5
286D3
330
27F29
100
AcDbEntity
  8
HATCH
100
AcDbCircle
 10
3861.855321569981
 20
5070.925906786466
 30
0.0
 40
2.5
100
AcDbArc
 50
180.0
 51
0.0
  0
ARC
  5
286D4
330
27F29
100
AcDbEntity
  8
HATCH
100
AcDbCircle
 10
3861.855321569981
 20
5070.925906786466
 30
0.0
 40
2.5
100
AcDbArc
 50
0.0
 51
180.0
  0
ARC
  5
286D5
330
27F29
100
AcDbEntity
  8
HATCH
100
AcDbCircle
 10
3711.855321569981
 20
5070.925906786466
 30
0.0
 40
2.5
100
AcDbArc
 50
180.0
 51
0.0
  0
ARC
  5
286D6
330
27F29
100
AcDbEntity
  8
HATCH
100
AcDbCircle
 10
3711.855321569981
 20
5070.925906786466
 30
0.0
 40
2.5
100
AcDbArc
 50
0.0
 51
180.0
  0
ARC
  5
286D7
330
27F29
100
AcDbEntity
  8
HATCH
100
AcDbCircle
 10
3561.855321569981
 20
5070.925906786466
 30
0.0
 40
2.5
100
AcDbArc
 50
180.0
 51
0.0
  0
ARC
  5
286D8
330
27F29
100
AcDbEntity
  8
HATCH
100
AcDbCircle
 10
3561.855321569981
 20
5070.925906786466
 30
0.0
 40
2.5
100
AcDbArc
 50
0.0
 51
180.0
  0
ARC
  5
286D9
330
27F29
100
AcDbEntity
  8
HATCH
100
AcDbCircle
 10
3411.85532156998
 20
5070.925906786466
 30
0.0
 40
2.5
100
AcDbArc
 50
180.0
 51
0.0
  0
ARC
  5
286DA
330
27F29
100
AcDbEntity
  8
HATCH
100
AcDbCircle
 10
3411.85532156998
 20
5070.925906786466
 30
0.0
 40
2.5
100
AcDbArc
 50
0.0
 51
180.0
  0
ARC
  5
286DB
330
27F29
100
AcDbEntity
  8
HATCH
100
AcDbCircle
 10
3111.855321569982
 20
5070.925906786466
 30
0.0
 40
2.5
100
AcDbArc
 50
180.0
 51
0.0
  0
ARC
  5
286DC
330
27F29
100
AcDbEntity
  8
HATCH
100
AcDbCircle
 10
3111.855321569982
 20
5070.925906786466
 30
0.0
 40
2.5
100
AcDbArc
 50
0.0
 51
180.0
  0
ARC
  5
286DD
330
27F29
100
AcDbEntity
  8
HATCH
100
AcDbCircle
 10
3261.855321569981
 20
5070.925906786466
 30
0.0
 40
2.5
100
AcDbArc
 50
180.0
 51
0.0
  0
ARC
  5
286DE
330
27F29
100
AcDbEntity
  8
HATCH
100
AcDbCircle
 10
3261.855321569981
 20
5070.925906786466
 30
0.0
 40
2.5
100
AcDbArc
 50
0.0
 51
180.0
  0
ARC
  5
286DF
330
27F29
100
AcDbEntity
  8
HATCH
100
AcDbCircle
 10
2961.855321569981
 20
5070.925906786466
 30
0.0
 40
2.5
100
AcDbArc
 50
180.0
 51
0.0
  0
ARC
  5
286E0
330
27F29
100
AcDbEntity
  8
HATCH
100
AcDbCircle
 10
2961.855321569981
 20
5070.925906786466
 30
0.0
 40
2.5
100
AcDbArc
 50
0.0
 51
180.0
  0
ARC
  5
286E1
330
27F29
100
AcDbEntity
  8
HATCH
100
AcDbCircle
 10
2811.855321569981
 20
5070.925906786466
 30
0.0
 40
2.5
100
AcDbArc
 50
180.0
 51
0.0
  0
ARC
  5
286E2
330
27F29
100
AcDbEntity
  8
HATCH
100
AcDbCircle
 10
2811.855321569981
 20
5070.925906786466
 30
0.0
 40
2.5
100
AcDbArc
 50
0.0
 51
180.0
  0
ARC
  5
286E3
330
27F29
100
AcDbEntity
  8
HATCH
100
AcDbCircle
 10
2661.85532156998
 20
5070.925906786466
 30
0.0
 40
2.5
100
AcDbArc
 50
180.0
 51
0.0
  0
ARC
  5
286E4
330
27F29
100
AcDbEntity
  8
HATCH
100
AcDbCircle
 10
2661.85532156998
 20
5070.925906786466
 30
0.0
 40
2.5
100
AcDbArc
 50
0.0
 51
180.0
  0
ARC
  5
286E5
330
27F29
100
AcDbEntity
  8
HATCH
100
AcDbCircle
 10
2511.855321569981
 20
5070.925906786466
 30
0.0
 40
2.5
100
AcDbArc
 50
180.0
 51
0.0
  0
ARC
  5
286E6
330
27F29
100
AcDbEntity
  8
HATCH
100
AcDbCircle
 10
2511.855321569981
 20
5070.925906786466
 30
0.0
 40
2.5
100
AcDbArc
 50
0.0
 51
180.0
  0
ARC
  5
286E7
330
27F29
100
AcDbEntity
  8
HATCH
100
AcDbCircle
 10
2361.855321569981
 20
5070.925906786466
 30
0.0
 40
2.5
100
AcDbArc
 50
180.0
 51
0.0
  0
ARC
  5
286E8
330
27F29
100
AcDbEntity
  8
HATCH
100
AcDbCircle
 10
2361.855321569981
 20
5070.925906786466
 30
0.0
 40
2.5
100
AcDbArc
 50
0.0
 51
180.0
  0
ARC
  5
286E9
330
27F29
100
AcDbEntity
  8
HATCH
100
AcDbCircle
 10
2211.85532156998
 20
5070.925906786466
 30
0.0
 40
2.5
100
AcDbArc
 50
180.0
 51
0.0
  0
ARC
  5
286EA
330
27F29
100
AcDbEntity
  8
HATCH
100
AcDbCircle
 10
2211.85532156998
 20
5070.925906786466
 30
0.0
 40
2.5
100
AcDbArc
 50
0.0
 51
180.0
  0
ARC
  5
286EB
330
27F29
100
AcDbEntity
  8
HATCH
100
AcDbCircle
 10
2061.855321569979
 20
5070.925906786466
 30
0.0
 40
2.5
100
AcDbArc
 50
180.0
 51
0.0
  0
ARC
  5
286EC
330
27F29
100
AcDbEntity
  8
HATCH
100
AcDbCircle
 10
2061.855321569979
 20
5070.925906786466
 30
0.0
 40
2.5
100
AcDbArc
 50
0.0
 51
180.0
  0
ARC
  5
286ED
330
27F29
100
AcDbEntity
  8
HATCH
100
AcDbCircle
 10
990.99104892398
 20
1248.27805804051
 30
0.0
 40
2.5
100
AcDbArc
 50
180.0
 51
0.0
  0
ARC
  5
286EE
330
27F29
100
AcDbEntity
  8
HATCH
100
AcDbCircle
 10
990.99104892398
 20
1248.27805804051
 30
0.0
 40
2.5
100
AcDbArc
 50
0.0
 51
180.0
  0
ARC
  5
286EF
330
27F29
100
AcDbEntity
  8
HATCH
100
AcDbCircle
 10
1140.991048923979
 20
1248.27805804051
 30
0.0
 40
2.5
100
AcDbArc
 50
180.0
 51
0.0
  0
ARC
  5
286F0
330
27F29
100
AcDbEntity
  8
HATCH
100
AcDbCircle
 10
1140.991048923979
 20
1248.27805804051
 30
0.0
 40
2.5
100
AcDbArc
 50
0.0
 51
180.0
  0
ARC
  5
286F1
330
27F29
100
AcDbEntity
  8
HATCH
100
AcDbCircle
 10
1290.991048923979
 20
1248.27805804051
 30
0.0
 40
2.5
100
AcDbArc
 50
180.0
 51
0.0
  0
ARC
  5
286F2
330
27F29
100
AcDbEntity
  8
HATCH
100
AcDbCircle
 10
1290.991048923979
 20
1248.27805804051
 30
0.0
 40
2.5
100
AcDbArc
 50
0.0
 51
180.0
  0
ARC
  5
286F3
330
27F29
100
AcDbEntity
  8
HATCH
100
AcDbCircle
 10
1440.99104892398
 20
1248.27805804051
 30
0.0
 40
2.5
100
AcDbArc
 50
180.0
 51
0.0
  0
ARC
  5
286F4
330
27F29
100
AcDbEntity
  8
HATCH
100
AcDbCircle
 10
1440.99104892398
 20
1248.27805804051
 30
0.0
 40
2.5
100
AcDbArc
 50
0.0
 51
180.0
  0
ARC
  5
286F5
330
27F29
100
AcDbEntity
  8
HATCH
100
AcDbCircle
 10
1590.99104892398
 20
1248.27805804051
 30
0.0
 40
2.5
100
AcDbArc
 50
180.0
 51
0.0
  0
ARC
  5
286F6
330
27F29
100
AcDbEntity
  8
HATCH
100
AcDbCircle
 10
1590.99104892398
 20
1248.27805804051
 30
0.0
 40
2.5
100
AcDbArc
 50
0.0
 51
180.0
  0
ARC
  5
286F7
330
27F29
100
AcDbEntity
  8
HATCH
100
AcDbCircle
 10
1740.99104892398
 20
1248.27805804051
 30
0.0
 40
2.5
100
AcDbArc
 50
180.0
 51
0.0
  0
ARC
  5
286F8
330
27F29
100
AcDbEntity
  8
HATCH
100
AcDbCircle
 10
1740.99104892398
 20
1248.27805804051
 30
0.0
 40
2.5
100
AcDbArc
 50
0.0
 51
180.0
  0
ARC
  5
286F9
330
27F29
100
AcDbEntity
  8
HATCH
100
AcDbCircle
 10
1890.99104892398
 20
1248.27805804051
 30
0.0
 40
2.5
100
AcDbArc
 50
180.0
 51
0.0
  0
ARC
  5
286FA
330
27F29
100
AcDbEntity
  8
HATCH
100
AcDbCircle
 10
1890.99104892398
 20
1248.27805804051
 30
0.0
 40
2.5
100
AcDbArc
 50
0.0
 51
180.0
  0
ARC
  5
286FB
330
27F29
100
AcDbEntity
  8
HATCH
100
AcDbCircle
 10
2040.99104892398
 20
1248.27805804051
 30
0.0
 40
2.5
100
AcDbArc
 50
180.0
 51
0.0
  0
ARC
  5
286FC
330
27F29
100
AcDbEntity
  8
HATCH
100
AcDbCircle
 10
2040.99104892398
 20
1248.27805804051
 30
0.0
 40
2.5
100
AcDbArc
 50
0.0
 51
180.0
  0
ARC
  5
286FD
330
27F29
100
AcDbEntity
  8
HATCH
100
AcDbCircle
 10
2190.99104892398
 20
1248.27805804051
 30
0.0
 40
2.5
100
AcDbArc
 50
180.0
 51
0.0
  0
ARC
  5
286FE
330
27F29
100
AcDbEntity
  8
HATCH
100
AcDbCircle
 10
2190.99104892398
 20
1248.27805804051
 30
0.0
 40
2.5
100
AcDbArc
 50
0.0
 51
180.0
  0
ARC
  5
286FF
330
27F29
100
AcDbEntity
  8
HATCH
100
AcDbCircle
 10
2340.99104892398
 20
1248.27805804051
 30
0.0
 40
2.5
100
AcDbArc
 50
180.0
 51
0.0
  0
ARC
  5
28700
330
27F29
100
AcDbEntity
  8
HATCH
100
AcDbCircle
 10
2340.99104892398
 20
1248.27805804051
 30
0.0
 40
2.5
100
AcDbArc
 50
0.0
 51
180.0
  0
ARC
  5
28701
330
27F29
100
AcDbEntity
  8
HATCH
100
AcDbCircle
 10
2490.991048923981
 20
1248.27805804051
 30
0.0
 40
2.5
100
AcDbArc
 50
180.0
 51
0.0
  0
ARC
  5
28702
330
27F29
100
AcDbEntity
  8
HATCH
100
AcDbCircle
 10
2490.991048923981
 20
1248.27805804051
 30
0.0
 40
2.5
100
AcDbArc
 50
0.0
 51
180.0
  0
ARC
  5
28703
330
27F29
100
AcDbEntity
  8
HATCH
100
AcDbCircle
 10
2640.99104892398
 20
1248.27805804051
 30
0.0
 40
2.5
100
AcDbArc
 50
180.0
 51
0.0
  0
ARC
  5
28704
330
27F29
100
AcDbEntity
  8
HATCH
100
AcDbCircle
 10
2640.99104892398
 20
1248.27805804051
 30
0.0
 40
2.5
100
AcDbArc
 50
0.0
 51
180.0
  0
ARC
  5
28705
330
27F29
100
AcDbEntity
  8
HATCH
100
AcDbCircle
 10
2790.99104892398
 20
1248.27805804051
 30
0.0
 40
2.5
100
AcDbArc
 50
180.0
 51
0.0
  0
ARC
  5
28706
330
27F29
100
AcDbEntity
  8
HATCH
100
AcDbCircle
 10
2790.99104892398
 20
1248.27805804051
 30
0.0
 40
2.5
100
AcDbArc
 50
0.0
 51
180.0
  0
ARC
  5
28707
330
27F29
100
AcDbEntity
  8
HATCH
100
AcDbCircle
 10
2940.99104892398
 20
1248.27805804051
 30
0.0
 40
2.5
100
AcDbArc
 50
180.0
 51
0.0
  0
ARC
  5
28708
330
27F29
100
AcDbEntity
  8
HATCH
100
AcDbCircle
 10
2940.99104892398
 20
1248.27805804051
 30
0.0
 40
2.5
100
AcDbArc
 50
0.0
 51
180.0
  0
ARC
  5
28709
330
27F29
100
AcDbEntity
  8
HATCH
100
AcDbCircle
 10
3090.99104892398
 20
1248.27805804051
 30
0.0
 40
2.5
100
AcDbArc
 50
180.0
 51
0.0
  0
ARC
  5
2870A
330
27F29
100
AcDbEntity
  8
HATCH
100
AcDbCircle
 10
3090.99104892398
 20
1248.27805804051
 30
0.0
 40
2.5
100
AcDbArc
 50
0.0
 51
180.0
  0
ARC
  5
2870B
330
27F29
100
AcDbEntity
  8
HATCH
100
AcDbCircle
 10
3240.99104892398
 20
1248.27805804051
 30
0.0
 40
2.5
100
AcDbArc
 50
180.0
 51
0.0
  0
ARC
  5
2870C
330
27F29
100
AcDbEntity
  8
HATCH
100
AcDbCircle
 10
3240.99104892398
 20
1248.27805804051
 30
0.0
 40
2.5
100
AcDbArc
 50
0.0
 51
180.0
  0
ARC
  5
2870D
330
27F29
100
AcDbEntity
  8
HATCH
100
AcDbCircle
 10
3390.99104892398
 20
1248.27805804051
 30
0.0
 40
2.5
100
AcDbArc
 50
180.0
 51
0.0
  0
ARC
  5
2870E
330
27F29
100
AcDbEntity
  8
HATCH
100
AcDbCircle
 10
3390.99104892398
 20
1248.27805804051
 30
0.0
 40
2.5
100
AcDbArc
 50
0.0
 51
180.0
  0
ARC
  5
2870F
330
27F29
100
AcDbEntity
  8
HATCH
100
AcDbCircle
 10
3540.991048923979
 20
1248.27805804051
 30
0.0
 40
2.5
100
AcDbArc
 50
180.0
 51
0.0
  0
ARC
  5
28710
330
27F29
100
AcDbEntity
  8
HATCH
100
AcDbCircle
 10
3540.991048923979
 20
1248.27805804051
 30
0.0
 40
2.5
100
AcDbArc
 50
0.0
 51
180.0
  0
LINE
  5
28711
330
27F29
100
AcDbEntity
  8
KETA_KANAGU
100
AcDbLine
 10
3598.845976975709
 20
1275.125919511107
 30
0.0
 11
4023.845976975709
 21
1275.125919511107
 31
0.0
  0
LINE
  5
28712
330
27F29
100
AcDbEntity
  8
SUNPOU
100
AcDbLine
 10
3948.845976975709
 20
1225.125919511111
 30
0.0
 11
3933.845976975709
 21
1225.125919511111
 31
0.0
  0
LINE
  5
28713
330
27F29
100
AcDbEntity
  8
SUNPOU
100
AcDbLine
 10
3978.845976975708
 20
1290.125919511106
 30
0.0
 11
3978.845976975708
 21
1305.125919511107
 31
0.0
  0
LINE
  5
28714
330
27F29
100
AcDbEntity
  8
SUNPOU
100
AcDbLine
 10
3978.845976975708
 20
1210.125919511111
 30
0.0
 11
3978.845976975708
 21
1007.983062368253
 31
0.0
  0
LINE
  5
28715
330
27F29
100
AcDbEntity
  8
SUNPOU
100
AcDbLine
 10
3978.845976975708
 20
1275.125919511107
 30
0.0
 11
3978.845976975708
 21
1225.125919511111
 31
0.0
  0
LINE
  5
28716
330
27F29
100
AcDbEntity
  8
KISO
100
AcDbLine
 10
968.8459769757107
 20
1275.125919511107
 30
0.0
 11
3568.845976975709
 21
1275.125919511107
 31
0.0
  0
LINE
  5
28717
330
27F29
100
AcDbEntity
  8
KISO
100
AcDbLine
 10
3568.845976975709
 20
1275.125919511107
 30
0.0
 11
3568.845976975709
 21
1225.125919511111
 31
0.0
  0
LINE
  5
28718
330
27F29
100
AcDbEntity
  8
KISO
100
AcDbLine
 10
3568.845976975709
 20
1225.125919511111
 30
0.0
 11
968.8459769757107
 21
1225.125919511109
 31
0.0
  0
LINE
  5
28719
330
27F29
100
AcDbEntity
  8
KISO
100
AcDbLine
 10
968.8459769757107
 20
1225.125919511109
 30
0.0
 11
968.8459769757107
 21
1275.125919511107
 31
0.0
  0
ARC
  5
2871A
330
27F29
100
AcDbEntity
  8
ケラバキャップ
100
AcDbCircle
 10
3337.230200998084
 20
3240.783406379697
 30
0.0
 40
50.00000000000827
100
AcDbArc
 50
354.2642619770646
 51
12.91265869845801
  0
LINE
  5
2871B
330
27F29
100
AcDbEntity
  8
ケラバキャップ
100
AcDbLine
 10
3386.979872302296
 20
3235.786386755606
 30
0.0
 11
3377.571433667576
 21
3142.117206969436
 31
0.0
  0
ARC
  5
2871C
330
27F29
100
AcDbEntity
  8
ケラバキャップ
100
AcDbCircle
 10
3374.586453389324
 20
3142.417028146882
 30
0.0
 40
3.000000000000472
100
AcDbArc
 50
264.2642619770629
 51
354.2642619770716
  0
LINE
  5
2871D
330
27F29
100
AcDbEntity
  8
ケラバキャップ
100
AcDbLine
 10
3374.286632211878
 20
3139.432047868629
 30
0.0
 11
3349.411796559771
 21
3141.930557680671
 31
0.0
  0
LINE
  5
2871E
330
27F29
100
AcDbEntity
  8
ケラバキャップ
100
AcDbLine
 10
3349.411796559771
 20
3141.930557680671
 30
0.0
 11
3362.753838956074
 21
3274.7621800629
 31
0.0
  0
LINE
  5
2871F
330
27F29
100
AcDbEntity
  8
ケラバキャップ
100
AcDbLine
 10
3362.753838956074
 20
3274.7621800629
 30
0.0
 11
3377.589525882604
 21
3273.272035168167
 31
0.0
  0
ARC
  5
28720
330
27F29
100
AcDbEntity
  8
ケラバキャップ
100
AcDbCircle
 10
3377.089823920193
 20
3268.297068037745
 30
0.0
 40
5.00000000000219
100
AcDbArc
 50
12.91265869844529
 51
84.26426197705053
  0
LINE
  5
28721
330
27F29
100
AcDbEntity
  8
ケラバキャップ
100
AcDbLine
 10
3381.963383152303
 20
3269.414395389584
 30
0.0
 11
3385.96579331914
 21
3251.956679898081
 31
0.0
  0
LINE
  5
28722
330
27F29
100
AcDbEntity
  8
BOLT
100
AcDbLine
 10
3049.020979912916
 20
3306.281897642463
 30
0.0
 11
3051.128384430668
 21
3306.069967993595
 31
0.0
  0
LINE
  5
28723
330
27F29
100
AcDbEntity
  8
BOLT
100
AcDbLine
 10
3051.128384430668
 20
3306.069967993595
 30
0.0
 11
3051.228444037829
 21
3307.064949438155
 31
0.0
  0
LINE
  5
28724
330
27F29
100
AcDbEntity
  8
BOLT
100
AcDbLine
 10
3051.228444037829
 20
3307.064949438155
 30
0.0
 11
3049.735971870993
 21
3307.215038848895
 31
0.0
  0
LINE
  5
28725
330
27F29
100
AcDbEntity
  8
BOLT
100
AcDbLine
 10
3049.735971870993
 20
3307.215038848895
 30
0.0
 11
3048.146247410515
 21
3311.395083841447
 31
0.0
  0
LINE
  5
28726
330
27F29
100
AcDbEntity
  8
BOLT
100
AcDbLine
 10
3048.146247410515
 20
3311.395083841447
 30
0.0
 11
3035.211488631256
 21
3312.69585873452
 31
0.0
  0
LINE
  5
28727
330
27F29
100
AcDbEntity
  8
BOLT
100
AcDbLine
 10
3035.211488631256
 20
3312.69585873452
 30
0.0
 11
3032.821287313499
 21
3308.916052170605
 31
0.0
  0
LINE
  5
28728
330
27F29
100
AcDbEntity
  8
BOLT
100
AcDbLine
 10
3032.821287313499
 20
3308.916052170605
 30
0.0
 11
3031.328815146663
 21
3309.066141581345
 31
0.0
  0
LINE
  5
28729
330
27F29
100
AcDbEntity
  8
BOLT
100
AcDbLine
 10
3031.328815146663
 20
3309.066141581345
 30
0.0
 11
3031.228755539501
 21
3308.071160136787
 31
0.0
  0
LINE
  5
2872A
330
27F29
100
AcDbEntity
  8
BOLT
100
AcDbLine
 10
3031.228755539501
 20
3308.071160136787
 30
0.0
 11
3033.336160057255
 21
3307.859230487923
 31
0.0
  0
LINE
  5
2872B
330
27F29
100
AcDbEntity
  8
BOLT
100
AcDbLine
 10
3033.135282125491
 20
3305.861722998154
 30
0.0
 11
3048.820101981154
 21
3304.284390152689
 31
0.0
  0
LINE
  5
2872C
330
27F29
100
AcDbEntity
  8
BOLT
100
AcDbLine
 10
3048.820101981154
 20
3304.284390152689
 30
0.0
 11
3049.020979912916
 21
3306.281897642463
 31
0.0
  0
LINE
  5
2872D
330
27F29
100
AcDbEntity
  8
BOLT
100
AcDbLine
 10
3049.020979912916
 20
3306.281897642463
 30
0.0
 11
3047.431255452437
 21
3310.461942635015
 31
0.0
  0
LINE
  5
2872E
330
27F29
100
AcDbEntity
  8
BOLT
100
AcDbLine
 10
3047.431255452437
 20
3310.461942635015
 30
0.0
 11
3035.726361375012
 21
3311.639037051838
 31
0.0
  0
LINE
  5
2872F
330
27F29
100
AcDbEntity
  8
BOLT
100
AcDbLine
 10
3035.726361375012
 20
3311.639037051838
 30
0.0
 11
3033.336160057255
 21
3307.859230487923
 31
0.0
  0
LINE
  5
28730
330
27F29
100
AcDbEntity
  8
BOLT
100
AcDbLine
 10
3033.336160057255
 20
3307.859230487923
 30
0.0
 11
3033.135282125491
 21
3305.861722998154
 31
0.0
  0
LINE
  5
28731
330
27F29
100
AcDbEntity
  8
0
 62
     0
100
AcDbLine
 10
3040.010566326444
 20
3305.17031489197
 30
0.0
 11
3035.502839802429
 21
3311.285565442219
 31
0.0
  0
LINE
  5
28732
330
27F29
100
AcDbEntity
  8
0
 62
     0
100
AcDbLine
 10
3045.042259364239
 20
3304.664306230741
 30
0.0
 11
3040.23522181549
 21
3311.185606681965
 31
0.0
  0
LINE
  5
28733
330
27F29
100
AcDbEntity
  8
0
 62
     0
100
AcDbLine
 10
3048.959467467787
 20
3305.670224828428
 30
0.0
 11
3045.266914853285
 21
3310.679598020737
 31
0.0
  0
LINE
  5
28734
330
27F29
100
AcDbEntity
  8
0
 62
     0
100
AcDbLine
 10
3034.978873288648
 20
3305.676323553198
 30
0.0
 11
3033.351688657253
 21
3307.883787040498
 31
0.0
  0
LINE
  5
28735
330
27F29
100
AcDbEntity
  8
0
 62
     0
100
AcDbLine
 10
3038.543677348931
 20
3305.317831547319
 30
0.0
 11
3045.751430479232
 21
3310.630873048567
 31
0.0
  0
LINE
  5
28736
330
27F29
100
AcDbEntity
  8
0
 62
     0
100
AcDbLine
 10
3044.105022285441
 20
3304.758558816487
 30
0.0
 11
3048.397089407274
 21
3307.922364559024
 31
0.0
  0
LINE
  5
28737
330
27F29
100
AcDbEntity
  8
0
 62
     0
100
AcDbLine
 10
3033.149198521655
 20
3306.000106071841
 30
0.0
 11
3040.190085542722
 21
3311.190145779399
 31
0.0
  0
LINE
  5
28738
330
27F29
100
AcDbEntity
  8
BOLT
100
AcDbLine
 10
1706.412580855675
 20
3441.219118856178
 30
0.0
 11
1704.305150960645
 21
3441.430796004302
 31
0.0
  0
LINE
  5
28739
330
27F29
100
AcDbEntity
  8
BOLT
100
AcDbLine
 10
1704.305150960645
 20
3441.430796004302
 30
0.0
 11
1704.405091353128
 21
3442.425789430386
 31
0.0
  0
LINE
  5
2873A
330
27F29
100
AcDbEntity
  8
BOLT
100
AcDbLine
 10
1704.405091353128
 20
3442.425789430386
 30
0.0
 11
1705.897581492252
 21
3442.275878841665
 31
0.0
  0
LINE
  5
2873B
330
27F29
100
AcDbEntity
  8
BOLT
100
AcDbLine
 10
1705.897581492252
 20
3442.275878841665
 30
0.0
 11
1708.287329914347
 21
3446.055971761035
 31
0.0
  0
LINE
  5
2873C
330
27F29
100
AcDbEntity
  8
BOLT
100
AcDbLine
 10
1708.287329914347
 20
3446.055971761035
 30
0.0
 11
1721.222244453443
 21
3444.756746658776
 31
0.0
  0
LINE
  5
2873D
330
27F29
100
AcDbEntity
  8
BOLT
100
AcDbLine
 10
1721.222244453443
 20
3444.756746658776
 30
0.0
 11
1722.812469735684
 21
3440.576892169475
 31
0.0
  0
LINE
  5
2873E
330
27F29
100
AcDbEntity
  8
BOLT
100
AcDbLine
 10
1722.812469735684
 20
3440.576892169475
 30
0.0
 11
1724.304959874812
 21
3440.426981580753
 31
0.0
  0
LINE
  5
2873F
330
27F29
100
AcDbEntity
  8
BOLT
100
AcDbLine
 10
1724.304959874812
 20
3440.426981580753
 30
0.0
 11
1724.205019482329
 21
3439.431988154668
 31
0.0
  0
LINE
  5
28740
330
27F29
100
AcDbEntity
  8
BOLT
100
AcDbLine
 10
1724.205019482329
 20
3439.431988154668
 30
0.0
 11
1722.097589587298
 21
3439.643665302793
 31
0.0
  0
LINE
  5
28741
330
27F29
100
AcDbEntity
  8
BOLT
100
AcDbLine
 10
1721.896950988855
 20
3437.64613375912
 30
0.0
 11
1706.211942257233
 21
3439.221587312501
 31
0.0
  0
LINE
  5
28742
330
27F29
100
AcDbEntity
  8
BOLT
100
AcDbLine
 10
1706.211942257233
 20
3439.221587312501
 30
0.0
 11
1706.412580855675
 21
3441.219118856178
 31
0.0
  0
LINE
  5
28743
330
27F29
100
AcDbEntity
  8
BOLT
100
AcDbLine
 10
1706.412580855675
 20
3441.219118856178
 30
0.0
 11
1708.802329277769
 21
3444.999211775551
 31
0.0
  0
LINE
  5
28744
330
27F29
100
AcDbEntity
  8
BOLT
100
AcDbLine
 10
1708.802329277769
 20
3444.999211775551
 30
0.0
 11
1720.507364305057
 21
3443.823519792093
 31
0.0
  0
LINE
  5
28745
330
27F29
100
AcDbEntity
  8
BOLT
100
AcDbLine
 10
1720.507364305057
 20
3443.823519792093
 30
0.0
 11
1722.097589587298
 21
3439.643665302793
 31
0.0
  0
LINE
  5
28746
330
27F29
100
AcDbEntity
  8
BOLT
100
AcDbLine
 10
1722.097589587298
 20
3439.643665302793
 30
0.0
 11
1721.896950988855
 21
3437.64613375912
 31
0.0
  0
LINE
  5
28747
330
27F29
100
AcDbEntity
  8
0
 62
     0
100
AcDbLine
 10
1715.021583996071
 20
3438.336718096329
 30
0.0
 11
1720.656075484058
 21
3443.43263738331
 31
0.0
  0
LINE
  5
28748
330
27F29
100
AcDbEntity
  8
0
 62
     0
100
AcDbLine
 10
1709.989830366833
 20
3438.842123880321
 30
0.0
 11
1715.998449569119
 21
3444.27640992838
 31
0.0
  0
LINE
  5
28749
330
27F29
100
AcDbEntity
  8
0
 62
     0
100
AcDbLine
 10
1706.351141698847
 20
3440.607438676369
 30
0.0
 11
1710.966695939883
 21
3444.781815712372
 31
0.0
  0
LINE
  5
2874A
330
27F29
100
AcDbEntity
  8
0
 62
     0
100
AcDbLine
 10
1720.053337625308
 20
3437.831312312332
 30
0.0
 11
1722.087258251622
 21
3439.670820876669
 31
0.0
  0
LINE
  5
2874B
330
27F29
100
AcDbEntity
  8
0
 62
     0
100
AcDbLine
 10
1716.488490637799
 20
3438.189377197719
 30
0.0
 11
1710.48217447942
 21
3444.830482631827
 31
0.0
  0
LINE
  5
2874C
330
27F29
100
AcDbEntity
  8
0
 62
     0
100
AcDbLine
 10
1710.927078731801
 20
3438.747983590554
 30
0.0
 11
1707.35044234586
 21
3442.70262379133
 31
0.0
  0
LINE
  5
2874D
330
27F29
100
AcDbEntity
  8
0
 62
     0
100
AcDbLine
 10
1721.910850804643
 20
3437.784518499177
 30
0.0
 11
1716.04358638542
 21
3444.271876238991
 31
0.0
  0
LINE
  5
2874E
330
27F29
100
AcDbEntity
  8
YANE
100
AcDbLine
 10
7425.143330202074
 20
3269.681097841782
 30
0.0
 11
5479.931182207622
 21
3465.064565143409
 31
0.0
  0
LINE
  5
2874F
330
27F29
100
AcDbEntity
  8
YANE
100
AcDbLine
 10
5479.931182207622
 20
3465.064565143409
 30
0.0
 11
5473.385086500074
 21
3399.892495734898
 31
0.0
  0
LINE
  5
28750
330
27F29
100
AcDbEntity
  8
YANE
100
AcDbLine
 10
5473.385086500074
 20
3399.892495734898
 30
0.0
 11
7418.597234494533
 21
3204.509028433275
 31
0.0
  0
LINE
  5
28751
330
27F29
100
AcDbEntity
  8
YANE
100
AcDbLine
 10
7418.597234494533
 20
3204.509028433275
 30
0.0
 11
7425.143330202074
 21
3269.681097841782
 31
0.0
  0
LINE
  5
28752
330
27F29
100
AcDbEntity
  8
BOLT
100
AcDbLine
 10
7096.845355180587
 20
3306.281897642463
 30
0.0
 11
7098.952759698338
 21
3306.069967993595
 31
0.0
  0
LINE
  5
28753
330
27F29
100
AcDbEntity
  8
BOLT
100
AcDbLine
 10
7098.952759698338
 20
3306.069967993595
 30
0.0
 11
7099.052819305498
 21
3307.064949438155
 31
0.0
  0
LINE
  5
28754
330
27F29
100
AcDbEntity
  8
BOLT
100
AcDbLine
 10
7099.052819305498
 20
3307.064949438155
 30
0.0
 11
7097.560347138665
 21
3307.215038848895
 31
0.0
  0
LINE
  5
28755
330
27F29
100
AcDbEntity
  8
BOLT
100
AcDbLine
 10
7097.560347138665
 20
3307.215038848895
 30
0.0
 11
7095.970622678184
 21
3311.395083841447
 31
0.0
  0
LINE
  5
28756
330
27F29
100
AcDbEntity
  8
BOLT
100
AcDbLine
 10
7095.970622678184
 20
3311.395083841447
 30
0.0
 11
7083.035863898928
 21
3312.69585873452
 31
0.0
  0
LINE
  5
28757
330
27F29
100
AcDbEntity
  8
BOLT
100
AcDbLine
 10
7083.035863898928
 20
3312.69585873452
 30
0.0
 11
7080.64566258117
 21
3308.916052170605
 31
0.0
  0
LINE
  5
28758
330
27F29
100
AcDbEntity
  8
BOLT
100
AcDbLine
 10
7080.64566258117
 20
3308.916052170605
 30
0.0
 11
7079.153190414332
 21
3309.066141581345
 31
0.0
  0
LINE
  5
28759
330
27F29
100
AcDbEntity
  8
BOLT
100
AcDbLine
 10
7079.153190414332
 20
3309.066141581345
 30
0.0
 11
7079.053130807172
 21
3308.071160136787
 31
0.0
  0
LINE
  5
2875A
330
27F29
100
AcDbEntity
  8
BOLT
100
AcDbLine
 10
7079.053130807172
 20
3308.071160136787
 30
0.0
 11
7081.160535324925
 21
3307.859230487923
 31
0.0
  0
LINE
  5
2875B
330
27F29
100
AcDbEntity
  8
BOLT
100
AcDbLine
 10
7080.959657393163
 20
3305.861722998154
 30
0.0
 11
7096.644477248824
 21
3304.284390152689
 31
0.0
  0
LINE
  5
2875C
330
27F29
100
AcDbEntity
  8
BOLT
100
AcDbLine
 10
7096.644477248824
 20
3304.284390152689
 30
0.0
 11
7096.845355180587
 21
3306.281897642463
 31
0.0
  0
LINE
  5
2875D
330
27F29
100
AcDbEntity
  8
BOLT
100
AcDbLine
 10
7096.845355180587
 20
3306.281897642463
 30
0.0
 11
7095.255630720108
 21
3310.461942635015
 31
0.0
  0
LINE
  5
2875E
330
27F29
100
AcDbEntity
  8
BOLT
100
AcDbLine
 10
7095.255630720108
 20
3310.461942635015
 30
0.0
 11
7083.550736642682
 21
3311.639037051838
 31
0.0
  0
LINE
  5
2875F
330
27F29
100
AcDbEntity
  8
BOLT
100
AcDbLine
 10
7083.550736642682
 20
3311.639037051838
 30
0.0
 11
7081.160535324925
 21
3307.859230487923
 31
0.0
  0
LINE
  5
28760
330
27F29
100
AcDbEntity
  8
BOLT
100
AcDbLine
 10
7081.160535324925
 20
3307.859230487923
 30
0.0
 11
7080.959657393163
 21
3305.861722998154
 31
0.0
  0
LINE
  5
28761
330
27F29
100
AcDbEntity
  8
0
 62
     0
100
AcDbLine
 10
7087.834941594114
 20
3305.17031489197
 30
0.0
 11
7083.327215070098
 21
3311.285565442219
 31
0.0
  0
LINE
  5
28762
330
27F29
100
AcDbEntity
  8
0
 62
     0
100
AcDbLine
 10
7092.86663463191
 20
3304.664306230741
 30
0.0
 11
7088.059597083161
 21
3311.185606681965
 31
0.0
  0
LINE
  5
28763
330
27F29
100
AcDbEntity
  8
0
 62
     0
100
AcDbLine
 10
7096.783842735456
 20
3305.670224828428
 30
0.0
 11
7093.091290120956
 21
3310.679598020737
 31
0.0
  0
LINE
  5
28764
330
27F29
100
AcDbEntity
  8
0
 62
     0
100
AcDbLine
 10
7082.803248556318
 20
3305.676323553198
 30
0.0
 11
7081.176063924925
 21
3307.883787040498
 31
0.0
  0
LINE
  5
28765
330
27F29
100
AcDbEntity
  8
0
 62
     0
100
AcDbLine
 10
7086.368052616602
 20
3305.317831547319
 30
0.0
 11
7093.575805746898
 21
3310.630873048567
 31
0.0
  0
LINE
  5
28766
330
27F29
100
AcDbEntity
  8
0
 62
     0
100
AcDbLine
 10
7091.929397553112
 20
3304.758558816487
 30
0.0
 11
7096.221464674943
 21
3307.922364559024
 31
0.0
  0
LINE
  5
28767
330
27F29
100
AcDbEntity
  8
0
 62
     0
100
AcDbLine
 10
7080.973573789325
 20
3306.000106071841
 30
0.0
 11
7088.014460810391
 21
3311.190145779399
 31
0.0
  0
LINE
  5
28768
330
27F29
100
AcDbEntity
  8
BOLT
100
AcDbLine
 10
5754.236956123346
 20
3441.219118856178
 30
0.0
 11
5752.129526228316
 21
3441.430796004302
 31
0.0
  0
LINE
  5
28769
330
27F29
100
AcDbEntity
  8
BOLT
100
AcDbLine
 10
5752.129526228316
 20
3441.430796004302
 30
0.0
 11
5752.2294666208
 21
3442.425789430386
 31
0.0
  0
LINE
  5
2876A
330
27F29
100
AcDbEntity
  8
BOLT
100
AcDbLine
 10
5752.2294666208
 20
3442.425789430386
 30
0.0
 11
5753.721956759923
 21
3442.275878841665
 31
0.0
  0
LINE
  5
2876B
330
27F29
100
AcDbEntity
  8
BOLT
100
AcDbLine
 10
5753.721956759923
 20
3442.275878841665
 30
0.0
 11
5756.111705182018
 21
3446.055971761035
 31
0.0
  0
LINE
  5
2876C
330
27F29
100
AcDbEntity
  8
BOLT
100
AcDbLine
 10
5756.111705182018
 20
3446.055971761035
 30
0.0
 11
5769.046619721112
 21
3444.756746658776
 31
0.0
  0
LINE
  5
2876D
330
27F29
100
AcDbEntity
  8
BOLT
100
AcDbLine
 10
5769.046619721112
 20
3444.756746658776
 30
0.0
 11
5770.636845003354
 21
3440.576892169475
 31
0.0
  0
LINE
  5
2876E
330
27F29
100
AcDbEntity
  8
BOLT
100
AcDbLine
 10
5770.636845003354
 20
3440.576892169475
 30
0.0
 11
5772.129335142482
 21
3440.426981580753
 31
0.0
  0
LINE
  5
2876F
330
27F29
100
AcDbEntity
  8
BOLT
100
AcDbLine
 10
5772.129335142482
 20
3440.426981580753
 30
0.0
 11
5772.029394749999
 21
3439.431988154668
 31
0.0
  0
LINE
  5
28770
330
27F29
100
AcDbEntity
  8
BOLT
100
AcDbLine
 10
5772.029394749999
 20
3439.431988154668
 30
0.0
 11
5769.92196485497
 21
3439.643665302793
 31
0.0
  0
LINE
  5
28771
330
27F29
100
AcDbEntity
  8
BOLT
100
AcDbLine
 10
5769.721326256526
 20
3437.64613375912
 30
0.0
 11
5754.036317524904
 21
3439.221587312501
 31
0.0
  0
LINE
  5
28772
330
27F29
100
AcDbEntity
  8
BOLT
100
AcDbLine
 10
5754.036317524904
 20
3439.221587312501
 30
0.0
 11
5754.236956123346
 21
3441.219118856178
 31
0.0
  0
LINE
  5
28773
330
27F29
100
AcDbEntity
  8
BOLT
100
AcDbLine
 10
5754.236956123346
 20
3441.219118856178
 30
0.0
 11
5756.626704545439
 21
3444.999211775551
 31
0.0
  0
LINE
  5
28774
330
27F29
100
AcDbEntity
  8
BOLT
100
AcDbLine
 10
5756.626704545439
 20
3444.999211775551
 30
0.0
 11
5768.331739572727
 21
3443.823519792093
 31
0.0
  0
LINE
  5
28775
330
27F29
100
AcDbEntity
  8
BOLT
100
AcDbLine
 10
5768.331739572727
 20
3443.823519792093
 30
0.0
 11
5769.92196485497
 21
3439.643665302793
 31
0.0
  0
LINE
  5
28776
330
27F29
100
AcDbEntity
  8
BOLT
100
AcDbLine
 10
5769.92196485497
 20
3439.643665302793
 30
0.0
 11
5769.721326256526
 21
3437.64613375912
 31
0.0
  0
LINE
  5
28777
330
27F29
100
AcDbEntity
  8
0
 62
     0
100
AcDbLine
 10
5762.845959263742
 20
3438.336718096329
 30
0.0
 11
5768.480450751728
 21
3443.43263738331
 31
0.0
  0
LINE
  5
28778
330
27F29
100
AcDbEntity
  8
0
 62
     0
100
AcDbLine
 10
5757.814205634502
 20
3438.842123880321
 30
0.0
 11
5763.822824836792
 21
3444.27640992838
 31
0.0
  0
LINE
  5
28779
330
27F29
100
AcDbEntity
  8
0
 62
     0
100
AcDbLine
 10
5754.175516966519
 20
3440.607438676369
 30
0.0
 11
5758.791071207554
 21
3444.781815712372
 31
0.0
  0
LINE
  5
2877A
330
27F29
100
AcDbEntity
  8
0
 62
     0
100
AcDbLine
 10
5767.877712892978
 20
3437.831312312332
 30
0.0
 11
5769.911633519291
 21
3439.670820876669
 31
0.0
  0
LINE
  5
2877B
330
27F29
100
AcDbEntity
  8
0
 62
     0
100
AcDbLine
 10
5764.31286590547
 20
3438.189377197719
 30
0.0
 11
5758.306549747089
 21
3444.830482631827
 31
0.0
  0
LINE
  5
2877C
330
27F29
100
AcDbEntity
  8
0
 62
     0
100
AcDbLine
 10
5758.751453999472
 20
3438.747983590554
 30
0.0
 11
5755.17481761353
 21
3442.70262379133
 31
0.0
  0
LINE
  5
2877D
330
27F29
100
AcDbEntity
  8
0
 62
     0
100
AcDbLine
 10
5769.735226072313
 20
3437.784518499177
 30
0.0
 11
5763.86796165309
 21
3444.271876238991
 31
0.0
  0
LINE
  5
2877E
330
27F29
100
AcDbEntity
  8
鼻隠し
100
AcDbLine
 10
6246.000000000001
 20
7166.509104897588
 30
0.0
 11
1931.99385016771
 21
7166.509104897588
 31
0.0
  0
LINE
  5
2877F
330
27F29
100
AcDbEntity
  8
鼻隠し
100
AcDbLine
 10
1931.99385016771
 20
7166.509104897588
 30
0.0
 11
1931.99385016771
 21
7299.925906786477
 31
0.0
  0
LINE
  5
28780
330
27F29
100
AcDbEntity
  8
鼻隠し
100
AcDbLine
 10
1931.99385016771
 20
7299.925906786477
 30
0.0
 11
6246.000000000001
 21
7299.925906786477
 31
0.0
  0
LINE
  5
28781
330
27F29
100
AcDbEntity
  8
U1
100
AcDbLine
 10
2271.199999999998
 20
7098.270170603569
 30
0.0
 11
2271.199999999998
 21
6783.285412400179
 31
0.0
  0
LINE
  5
28782
330
27F29
100
AcDbEntity
  8
U1
100
AcDbLine
 10
2340.800000000004
 20
6783.285412400179
 30
0.0
 11
2327.800000000003
 21
6783.285412400179
 31
0.0
  0
LINE
  5
28783
330
27F29
100
AcDbEntity
  8
U1
100
AcDbLine
 10
2327.800000000003
 20
6783.285412400179
 30
0.0
 11
2327.800000000003
 21
7102.919073359308
 31
0.0
  0
LINE
  5
28784
330
27F29
100
AcDbEntity
  8
U1
100
AcDbLine
 10
2271.199999999998
 20
6783.285412400179
 30
0.0
 11
2284.200000000002
 21
6783.285412400179
 31
0.0
  0
LINE
  5
28785
330
27F29
100
AcDbEntity
  8
U1
100
AcDbLine
 10
2284.200000000002
 20
6783.285412400179
 30
0.0
 11
2284.200000000002
 21
7102.919073359308
 31
0.0
  0
LINE
  5
28786
330
27F29
100
AcDbEntity
  8
U1
100
AcDbLine
 10
2340.800000000004
 20
7098.270170603569
 30
0.0
 11
2340.800000000004
 21
6783.285412400179
 31
0.0
  0
LINE
  5
28787
330
27F29
100
AcDbEntity
  8
U1
100
AcDbLine
 10
5421.199999999995
 20
7098.270170603569
 30
0.0
 11
5421.199999999995
 21
6783.285412400179
 31
0.0
  0
LINE
  5
28788
330
27F29
100
AcDbEntity
  8
U1
100
AcDbLine
 10
5490.799999999996
 20
6783.285412400179
 30
0.0
 11
5477.799999999994
 21
6783.285412400179
 31
0.0
  0
LINE
  5
28789
330
27F29
100
AcDbEntity
  8
U1
100
AcDbLine
 10
5477.799999999994
 20
6783.285412400179
 30
0.0
 11
5477.799999999994
 21
7102.919073359308
 31
0.0
  0
LINE
  5
2878A
330
27F29
100
AcDbEntity
  8
U1
100
AcDbLine
 10
5421.199999999995
 20
6783.285412400179
 30
0.0
 11
5434.199999999998
 21
6783.285412400179
 31
0.0
  0
LINE
  5
2878B
330
27F29
100
AcDbEntity
  8
U1
100
AcDbLine
 10
5434.199999999998
 20
6783.285412400179
 30
0.0
 11
5434.199999999998
 21
7102.919073359308
 31
0.0
  0
LINE
  5
2878C
330
27F29
100
AcDbEntity
  8
U1
100
AcDbLine
 10
5490.799999999996
 20
7098.270170603569
 30
0.0
 11
5490.799999999996
 21
6783.285412400179
 31
0.0
  0
LINE
  5
2878D
330
27F29
100
AcDbEntity
  8
U1
100
AcDbLine
 10
7190.800000000004
 20
7098.270170603569
 30
0.0
 11
7190.800000000004
 21
6783.285412400179
 31
0.0
  0
LINE
  5
2878E
330
27F29
100
AcDbEntity
  8
U1
100
AcDbLine
 10
7121.199999999998
 20
6783.285412400179
 30
0.0
 11
7134.199999999998
 21
6783.285412400179
 31
0.0
  0
LINE
  5
2878F
330
27F29
100
AcDbEntity
  8
U1
100
AcDbLine
 10
7134.199999999998
 20
6783.285412400179
 30
0.0
 11
7134.199999999998
 21
7102.919073359308
 31
0.0
  0
LINE
  5
28790
330
27F29
100
AcDbEntity
  8
U1
100
AcDbLine
 10
7190.800000000004
 20
6783.285412400179
 30
0.0
 11
7177.800000000002
 21
6783.285412400179
 31
0.0
  0
LINE
  5
28791
330
27F29
100
AcDbEntity
  8
U1
100
AcDbLine
 10
7177.800000000002
 20
6783.285412400179
 30
0.0
 11
7177.800000000002
 21
7102.919073359308
 31
0.0
  0
LINE
  5
28792
330
27F29
100
AcDbEntity
  8
U1
100
AcDbLine
 10
7121.199999999998
 20
7098.270170603569
 30
0.0
 11
7121.199999999998
 21
6783.285412400179
 31
0.0
  0
LINE
  5
28793
330
27F29
100
AcDbEntity
  8
鼻隠し
100
AcDbLine
 10
6366.000000000001
 20
7299.925906786477
 30
0.0
 11
10680.00614983229
 21
7299.925906786477
 31
0.0
  0
LINE
  5
28794
330
27F29
100
AcDbEntity
  8
鼻隠し
100
AcDbLine
 10
10680.00614983229
 20
7299.925906786477
 30
0.0
 11
10680.00614983229
 21
7166.509104897588
 31
0.0
  0
LINE
  5
28795
330
27F29
100
AcDbEntity
  8
鼻隠し
100
AcDbLine
 10
10680.00614983229
 20
7166.509104897588
 30
0.0
 11
6366.000000000001
 21
7166.509104897588
 31
0.0
  0
LINE
  5
28796
330
27F29
100
AcDbEntity
  8
U1
100
AcDbLine
 10
10340.79999999999
 20
6783.285412400179
 30
0.0
 11
10327.8
 21
6783.285412400179
 31
0.0
  0
LINE
  5
28797
330
27F29
100
AcDbEntity
  8
U1
100
AcDbLine
 10
10327.8
 20
6783.285412400179
 30
0.0
 11
10327.8
 21
7102.919073359308
 31
0.0
  0
LINE
  5
28798
330
27F29
100
AcDbEntity
  8
U1
100
AcDbLine
 10
10271.2
 20
6783.285412400179
 30
0.0
 11
10284.2
 21
6783.285412400179
 31
0.0
  0
LINE
  5
28799
330
27F29
100
AcDbEntity
  8
U1
100
AcDbLine
 10
10284.2
 20
6783.285412400179
 30
0.0
 11
10284.2
 21
7102.919073359308
 31
0.0
  0
LINE
  5
2879A
330
27F29
100
AcDbEntity
  8
U1
100
AcDbLine
 10
10271.2
 20
7098.270170603569
 30
0.0
 11
10271.2
 21
6783.285412400179
 31
0.0
  0
LINE
  5
2879B
330
27F29
100
AcDbEntity
  8
U1
100
AcDbLine
 10
10340.79999999999
 20
7098.270170603569
 30
0.0
 11
10340.79999999999
 21
6783.285412400179
 31
0.0
  0
TEXT
  5
2879C
330
27F29
100
AcDbEntity
  8
SUNPOU
100
AcDbText
 10
3933.845976975709
 20
1044.411633796825
 30
0.0
 40
90.0
  1
50
 50
90.0
 41
0.6666666666666666
  7
00
100
AcDbText
  0
LINE
  5
2879D
330
27F29
100
AcDbEntity
  8
SUNPOU
100
AcDbLine
 10
3978.845976975708
 20
1213.875919511111
 30
0.0
 11
3978.845976975708
 21
1202.625919511111
 31
0.0
  0
LINE
  5
2879E
330
27F29
100
AcDbEntity
  8
SUNPOU
100
AcDbLine
 10
3978.845976975708
 20
1286.375919511107
 30
0.0
 11
3978.845976975708
 21
1297.625919511107
 31
0.0
  0
ARC
  5
2879F
330
27F29
100
AcDbEntity
  8
SUNPOU
100
AcDbCircle
 10
3978.845976975708
 20
1275.125919511107
 30
0.0
 40
5.625
100
AcDbArc
 50
90.0
 51
270.0
  0
ARC
  5
287A0
330
27F29
100
AcDbEntity
  8
SUNPOU
100
AcDbCircle
 10
3978.845976975708
 20
1275.125919511107
 30
0.0
 40
5.625
100
AcDbArc
 50
270.0
 51
90.0
  0
ARC
  5
287A1
330
27F29
100
AcDbEntity
  8
SUNPOU
100
AcDbCircle
 10
3978.845976975708
 20
1225.125919511111
 30
0.0
 40
5.625
100
AcDbArc
 50
270.0
 51
90.0
  0
ARC
  5
287A2
330
27F29
100
AcDbEntity
  8
SUNPOU
100
AcDbCircle
 10
3978.845976975708
 20
1225.125919511111
 30
0.0
 40
5.625
100
AcDbArc
 50
90.0
 51
270.0
  0
ENDSEC
  0
SECTION
  2
OBJECTS
  0
DICTIONARY
  5
27F17
330
0
100
AcDbDictionary
281
     1
  3
ACAD_GROUP
350
27F18
  3
ACAD_LAYOUT
350
27F24
  3
ACAD_MLINESTYLE
350
27F21
  3
ACAD_PLOTSETTINGS
350
27F23
  3
ACAD_PLOTSTYLENAME
350
27F19
  3
AcDbVariableDictionary
350
287A3
  0
DICTIONARY
  5
27F18
102
{ACAD_REACTORS
330
27F17
102
}
330
27F17
100
AcDbDictionary
281
     1
  0
DICTIONARY
  5
27F24
102
{ACAD_REACTORS
330
27F17
102
}
330
27F17
100
AcDbDictionary
281
     1
  3
Model
350
27F2C
  3
ﾚｲｱｳﾄ1
350
27F28
  0
DICTIONARY
  5
27F21
102
{ACAD_REACTORS
330
27F17
102
}
330
27F17
100
AcDbDictionary
281
     1
  3
Standard
350
27F22
  0
DICTIONARY
  5
27F23
102
{ACAD_REACTORS
330
27F17
102
}
330
27F17
100
AcDbDictionary
281
     1
  0
ACDBDICTIONARYWDFLT
  5
27F19
102
{ACAD_REACTORS
330
27F17
102
}
330
27F17
100
AcDbDictionary
281
     1
  3
Normal
350
27F1A
100
AcDbDictionaryWithDefault
340
27F1A
  0
DICTIONARY
  5
287A3
102
{ACAD_REACTORS
330
27F17
102
}
330
27F17
100
AcDbDictionary
281
     1
  3
DIMASSOC
350
287A4
  0
LAYOUT
  5
27F2C
102
{ACAD_REACTORS
330
27F24
102
}
330
27F24
100
AcDbPlotSettings
  1

  2
Muratec V-1200 Is@Web Printer
  4

  6

 40
0.0
 41
0.0
 42
0.0
 43
0.0
 44
0.0
 45
0.0
 46
0.0
 47
0.0
 48
0.0
 49
0.0
140
0.0
141
0.0
142
1.0
143
1.0
 70
  1712
 72
     0
 73
     0
 74
     0
  7

 75
     0
147
1.0
148
0.0
149
0.0
100
AcDbLayout
  1
Model
 70
     1
 71
     0
 10
0.0
 20
0.0
 11
12.0
 21
9.0
 12
0.0
 22
0.0
 32
0.0
 14
0.0
 24
0.0
 34
0.0
 15
0.0
 25
0.0
 35
0.0
146
0.0
 13
0.0
 23
0.0
 33
0.0
 16
1.0
 26
0.0
 36
0.0
 17
0.0
 27
1.0
 37
0.0
 76
     0
330
27F29
  0
LAYOUT
  5
27F28
102
{ACAD_REACTORS
330
27F24
102
}
330
27F24
100
AcDbPlotSettings
  1

  2
Muratec V-1200 Is@Web Printer
  4

  6

 40
0.0
 41
0.0
 42
0.0
 43
0.0
 44
0.0
 45
0.0
 46
0.0
 47
0.0
 48
0.0
 49
0.0
140
0.0
141
0.0
142
1.0
143
1.0
 70
   688
 72
     0
 73
     0
 74
     5
  7

 75
    16
147
1.0
148
0.0
149
0.0
100
AcDbLayout
  1
ﾚｲｱｳﾄ1
 70
     0
 71
     1
 10
0.0
 20
0.0
 11
12.0
 21
9.0
 12
0.0
 22
0.0
 32
0.0
 14
1.000000000000000E+20
 24
1.000000000000000E+20
 34
1.000000000000000E+20
 15
-1.000000000000000E+20
 25
-1.000000000000000E+20
 35
-1.000000000000000E+20
146
0.0
 13
0.0
 23
0.0
 33
0.0
 16
1.0
 26
0.0
 36
0.0
 17
0.0
 27
1.0
 37
0.0
 76
     0
330
27F25
  0
MLINESTYLE
  5
27F22
102
{ACAD_REACTORS
330
27F21
102
}
330
27F21
100
AcDbMlineStyle
  2
STANDARD
 70
     0
  3

 62
   256
 51
90.0
 52
90.0
 71
     2
 49
0.5
 62
   256
  6
BYLAYER
 49
-0.5
 62
   256
  6
BYLAYER
  0
ACDBPLACEHOLDER
  5
27F1A
102
{ACAD_REACTORS
330
27F19
102
}
330
27F19
  0
DICTIONARYVAR
  5
287A4
102
{ACAD_REACTORS
330
287A3
102
}
330
287A3
100
DictionaryVariables
280
     0
  1
1
  0
ENDSEC
  0
EOF
