  0
SECTION
  2
HEADER
  9
$ACADVER
  1
AC1015
  9
$ACADMAINTVER
 70
    13
  9
$DWGCODEPAGE
  3
ANSI_932
  9
$INSBASE
 10
267.0
 20
194.8999999999998
 30
0.0
  9
$EXTMIN
 10
433.9966216520333
 20
163.6908237492789
 30
-0.0000000000000053
  9
$EXTMAX
 10
16382.6660542547
 20
11242.27663824599
 30
0.0000000000000099
  9
$LIMMIN
 10
0.0
 20
0.0
  9
$LIMMAX
 10
16800.0
 20
11880.0
  9
$ORTHOMODE
 70
     1
  9
$REGENMODE
 70
     1
  9
$FILLMODE
 70
     1
  9
$QTEXTMODE
 70
     0
  9
$MIRRTEXT
 70
     0
  9
$LTSCALE
 40
40.0
  9
$ATTMODE
 70
     1
  9
$TEXTSIZE
 40
0.2
  9
$TRACEWID
 40
0.05
  9
$TEXTSTYLE
  7
00
  9
$CLAYER
  8
SUNPOU
  9
$CELTYPE
  6
ByLayer
  9
$CECOLOR
 62
   256
  9
$CELTSCALE
 40
1.0
  9
$DISPSILH
 70
     0
  9
$DIMSCALE
 40
30.0
  9
$DIMASZ
 40
0.5
  9
$DIMEXO
 40
1.0
  9
$DIMDLI
 40
7.0
  9
$DIMRND
 40
0.0
  9
$DIMDLE
 40
3.0
  9
$DIMEXE
 40
1.5
  9
$DIMTP
 40
0.0
  9
$DIMTM
 40
0.0
  9
$DIMTXT
 40
3.0
  9
$DIMCEN
 40
0.0
  9
$DIMTSZ
 40
0.0
  9
$DIMTOL
 70
     0
  9
$DIMLIM
 70
     0
  9
$DIMTIH
 70
     0
  9
$DIMTOH
 70
     0
  9
$DIMSE1
 70
     0
  9
$DIMSE2
 70
     0
  9
$DIMTAD
 70
     1
  9
$DIMZIN
 70
     8
  9
$DIMBLK
  1
DOT
  9
$DIMASO
 70
     1
  9
$DIMSHO
 70
     0
  9
$DIMPOST
  1

  9
$DIMAPOST
  1

  9
$DIMALT
 70
     0
  9
$DIMALTD
 70
     2
  9
$DIMALTF
 40
25.4
  9
$DIMLFAC
 40
1.0
  9
$DIMTOFL
 70
     1
  9
$DIMTVP
 40
0.0
  9
$DIMTIX
 70
     0
  9
$DIMSOXD
 70
     0
  9
$DIMSAH
 70
     1
  9
$DIMBLK1
  1
DOT
  9
$DIMBLK2
  1
DOT
  9
$DIMSTYLE
  2
SUNPOU_図面名
  9
$DIMCLRD
 70
   256
  9
$DIMCLRE
 70
   256
  9
$DIMCLRT
 70
   256
  9
$DIMTFAC
 40
1.0
  9
$DIMGAP
 40
1.5
  9
$DIMJUST
 70
     0
  9
$DIMSD1
 70
     0
  9
$DIMSD2
 70
     0
  9
$DIMTOLJ
 70
     1
  9
$DIMTZIN
 70
     0
  9
$DIMALTZ
 70
     0
  9
$DIMALTTZ
 70
     0
  9
$DIMUPT
 70
     0
  9
$DIMDEC
 70
     4
  9
$DIMTDEC
 70
     4
  9
$DIMALTU
 70
     2
  9
$DIMALTTD
 70
     2
  9
$DIMTXSTY
  7
STANDARD
  9
$DIMAUNIT
 70
     0
  9
$DIMADEC
 70
     0
  9
$DIMALTRND
 40
0.0
  9
$DIMAZIN
 70
     0
  9
$DIMDSEP
 70
    46
  9
$DIMATFIT
 70
     3
  9
$DIMFRAC
 70
     0
  9
$DIMLDRBLK
  1
DOT
  9
$DIMLUNIT
 70
     2
  9
$DIMLWD
 70
    -2
  9
$DIMLWE
 70
    -2
  9
$DIMTMOVE
 70
     0
  9
$LUNITS
 70
     2
  9
$LUPREC
 70
     2
  9
$SKETCHINC
 40
0.1
  9
$FILLETRAD
 40
0.0
  9
$AUNITS
 70
     0
  9
$AUPREC
 70
     0
  9
$MENU
  1
A:\TIGER\MENU\TIGER
  9
$ELEVATION
 40
0.0
  9
$PELEVATION
 40
0.0
  9
$THICKNESS
 40
0.0
  9
$LIMCHECK
 70
     0
  9
$CHAMFERA
 40
0.0
  9
$CHAMFERB
 40
0.0
  9
$CHAMFERC
 40
0.0
  9
$CHAMFERD
 40
0.0
  9
$SKPOLY
 70
     0
  9
$TDCREATE
 40
2450266.571064815
  9
$TDUCREATE
 40
2450266.196064815
  9
$TDUPDATE
 40
2456330.282224745
  9
$TDUUPDATE
 40
2456329.907224745
  9
$TDINDWG
 40
0.1330579282
  9
$TDUSRTIMER
 40
0.1330577546
  9
$USRTIMER
 70
     1
  9
$ANGBASE
 50
0.0
  9
$ANGDIR
 70
     0
  9
$PDMODE
 70
     0
  9
$PDSIZE
 40
0.0
  9
$PLINEWID
 40
0.0
  9
$SPLFRAME
 70
     0
  9
$SPLINETYPE
 70
     6
  9
$SPLINESEGS
 70
     8
  9
$HANDSEED
  5
18E71
  9
$SURFTAB1
 70
     6
  9
$SURFTAB2
 70
     6
  9
$SURFTYPE
 70
     6
  9
$SURFU
 70
     6
  9
$SURFV
 70
     6
  9
$UCSBASE
  2

  9
$UCSNAME
  2

  9
$UCSORG
 10
0.0
 20
0.0
 30
0.0
  9
$UCSXDIR
 10
1.0
 20
0.0
 30
0.0
  9
$UCSYDIR
 10
0.0
 20
1.0
 30
0.0
  9
$UCSORTHOREF
  2

  9
$UCSORTHOVIEW
 70
     0
  9
$UCSORGTOP
 10
0.0
 20
0.0
 30
0.0
  9
$UCSORGBOTTOM
 10
0.0
 20
0.0
 30
0.0
  9
$UCSORGLEFT
 10
0.0
 20
0.0
 30
0.0
  9
$UCSORGRIGHT
 10
0.0
 20
0.0
 30
0.0
  9
$UCSORGFRONT
 10
0.0
 20
0.0
 30
0.0
  9
$UCSORGBACK
 10
0.0
 20
0.0
 30
0.0
  9
$PUCSBASE
  2

  9
$PUCSNAME
  2

  9
$PUCSORG
 10
0.0
 20
0.0
 30
0.0
  9
$PUCSXDIR
 10
1.0
 20
0.0
 30
0.0
  9
$PUCSYDIR
 10
0.0
 20
1.0
 30
0.0
  9
$PUCSORTHOREF
  2

  9
$PUCSORTHOVIEW
 70
     0
  9
$PUCSORGTOP
 10
0.0
 20
0.0
 30
0.0
  9
$PUCSORGBOTTOM
 10
0.0
 20
0.0
 30
0.0
  9
$PUCSORGLEFT
 10
0.0
 20
0.0
 30
0.0
  9
$PUCSORGRIGHT
 10
0.0
 20
0.0
 30
0.0
  9
$PUCSORGFRONT
 10
0.0
 20
0.0
 30
0.0
  9
$PUCSORGBACK
 10
0.0
 20
0.0
 30
0.0
  9
$USERI1
 70
     3
  9
$USERI2
 70
     0
  9
$USERI3
 70
     0
  9
$USERI4
 70
     0
  9
$USERI5
 70
  1103
  9
$USERR1
 40
0.0
  9
$USERR2
 40
1.0
  9
$USERR3
 40
0.0
  9
$USERR4
 40
0.0
  9
$USERR5
 40
0.0
  9
$WORLDVIEW
 70
     1
  9
$SHADEDGE
 70
     3
  9
$SHADEDIF
 70
    70
  9
$TILEMODE
 70
     1
  9
$MAXACTVP
 70
    16
  9
$PINSBASE
 10
0.0
 20
0.0
 30
0.0
  9
$PLIMCHECK
 70
     0
  9
$PEXTMIN
 10
1.000000000000000E+20
 20
1.000000000000000E+20
 30
1.000000000000000E+20
  9
$PEXTMAX
 10
-1.000000000000000E+20
 20
-1.000000000000000E+20
 30
-1.000000000000000E+20
  9
$PLIMMIN
 10
0.0
 20
0.0
  9
$PLIMMAX
 10
12.0
 20
9.0
  9
$UNITMODE
 70
     0
  9
$VISRETAIN
 70
     0
  9
$PLINEGEN
 70
     1
  9
$PSLTSCALE
 70
     0
  9
$TREEDEPTH
 70
  3020
  9
$CMLSTYLE
  2
Standard
  9
$CMLJUST
 70
     0
  9
$CMLSCALE
 40
1.0
  9
$PROXYGRAPHICS
 70
     1
  9
$MEASUREMENT
 70
     0
  9
$CELWEIGHT
370
    -1
  9
$ENDCAPS
280
     0
  9
$JOINSTYLE
280
     0
  9
$LWDISPLAY
290
     0
  9
$INSUNITS
 70
     0
  9
$HYPERLINKBASE
  1

  9
$STYLESHEET
  1

  9
$XEDIT
290
     1
  9
$CEPSNTYPE
380
     0
  9
$PSTYLEMODE
290
     1
  9
$FINGERPRINTGUID
  2
{D4A11991-0FB5-4EDE-9C4A-3962625C413C}
  9
$VERSIONGUID
  2
{B5EC1E05-A687-4BAE-A598-5327DA987A9E}
  9
$EXTNAMES
290
     1
  9
$PSVPSCALE
 40
0.0
  9
$OLESTARTUP
290
     0
  0
ENDSEC
  0
SECTION
  2
CLASSES
  0
CLASS
  1
ACDBDICTIONARYWDFLT
  2
AcDbDictionaryWithDefault
  3
AutoCAD 2000
 90
        0
280
     0
281
     0
  0
CLASS
  1
ACDBPLACEHOLDER
  2
AcDbPlaceHolder
  3
AutoCAD 2000
 90
        0
280
     0
281
     0
  0
CLASS
  1
LAYOUT
  2
AcDbLayout
  3
AutoCAD 2000
 90
        0
280
     0
281
     0
  0
CLASS
  1
DICTIONARYVAR
  2
AcDbDictionaryVar
  3
AutoCAD 2000
 90
        0
280
     0
281
     0
  0
ENDSEC
  0
SECTION
  2
TABLES
  0
TABLE
  2
VPORT
  5
18707
330
0
100
AcDbSymbolTable
 70
     2
  0
VPORT
  5
18E70
330
18707
100
AcDbSymbolTableRecord
100
AcDbViewportTableRecord
  2
*Active
 70
     0
 10
0.0
 20
0.0
 11
1.0
 21
1.0
 12
8408.331337953367
 22
5702.983730997637
 13
0.0
 23
0.0
 14
1.0
 24
1.0
 15
0.0
 25
0.0
 16
0.0
 26
0.0
 36
1.0
 17
0.0
 27
0.0
 37
0.0
 40
11162.83361536741
 41
1.527918781725888
 42
50.0
 43
0.0
 44
0.0
 50
0.0
 51
0.0
 71
     0
 72
 10000
 73
     1
 74
     0
 75
     0
 76
     0
 77
     0
 78
     0
281
     0
 65
     1
110
0.0
120
0.0
130
0.0
111
1.0
121
0.0
131
0.0
112
0.0
122
1.0
132
0.0
 79
     0
146
0.0
  0
ENDTAB
  0
TABLE
  2
LTYPE
  5
18704
330
0
100
AcDbSymbolTable
 70
     5
  0
LTYPE
  5
18712
330
18704
100
AcDbSymbolTableRecord
100
AcDbLinetypeTableRecord
  2
ByBlock
 70
     0
  3

 72
    65
 73
     0
 40
0.0
  0
LTYPE
  5
18713
330
18704
100
AcDbSymbolTableRecord
100
AcDbLinetypeTableRecord
  2
ByLayer
 70
     0
  3

 72
    65
 73
     0
 40
0.0
  0
LTYPE
  5
18714
330
18704
100
AcDbSymbolTableRecord
100
AcDbLinetypeTableRecord
  2
CONTINUOUS
 70
     0
  3
実線
 72
    65
 73
     0
 40
0.0
  0
LTYPE
  5
18724
330
18704
100
AcDbSymbolTableRecord
100
AcDbLinetypeTableRecord
  2
1PL-L
 70
     0
  3

 72
    65
 73
     4
 40
56.0
 49
50.0
 74
     0
 49
-2.0
 74
     0
 49
2.0
 74
     0
 49
-2.0
 74
     0
  0
LTYPE
  5
18725
330
18704
100
AcDbSymbolTableRecord
100
AcDbLinetypeTableRecord
  2
1PL-S
 70
     0
  3

 72
    65
 73
     4
 40
4.0
 49
2.5
 74
     0
 49
-0.5
 74
     0
 49
0.5
 74
     0
 49
-0.5
 74
     0
  0
LTYPE
  5
18726
330
18704
100
AcDbSymbolTableRecord
100
AcDbLinetypeTableRecord
  2
2PL-L
 70
     0
  3

 72
    65
 73
     6
 40
60.0
 49
50.0
 74
     0
 49
-2.0
 74
     0
 49
2.0
 74
     0
 49
-2.0
 74
     0
 49
2.0
 74
     0
 49
-2.0
 74
     0
  0
LTYPE
  5
18727
330
18704
100
AcDbSymbolTableRecord
100
AcDbLinetypeTableRecord
  2
KAKURE-05
 70
     0
  3

 72
    65
 73
     2
 40
1.0
 49
0.5
 74
     0
 49
-0.5
 74
     0
  0
ENDTAB
  0
TABLE
  2
LAYER
  5
18701
330
0
100
AcDbSymbolTable
 70
    31
  0
LAYER
  5
1870F
330
18701
100
AcDbSymbolTableRecord
100
AcDbLayerTableRecord
  2
0
 70
     0
 62
     7
  6
CONTINUOUS
370
    -3
390
1870E
  0
LAYER
  5
18721
330
18701
100
AcDbSymbolTableRecord
100
AcDbLayerTableRecord
  2
SUNPOU
 70
     0
 62
     4
  6
CONTINUOUS
370
    -3
390
1870E
  0
LAYER
  5
18728
330
18701
100
AcDbSymbolTableRecord
100
AcDbLayerTableRecord
  2
U1
 70
     0
 62
     3
  6
CONTINUOUS
370
    -3
390
1870E
  0
LAYER
  5
18729
330
18701
100
AcDbSymbolTableRecord
100
AcDbLayerTableRecord
  2
U2
 70
     0
 62
     4
  6
CONTINUOUS
370
    -3
390
1870E
  0
LAYER
  5
1872A
330
18701
100
AcDbSymbolTableRecord
100
AcDbLayerTableRecord
  2
U3
 70
     0
 62
     6
  6
CONTINUOUS
370
    -3
390
1870E
  0
LAYER
  5
1872B
330
18701
100
AcDbSymbolTableRecord
100
AcDbLayerTableRecord
  2
HIKIDASHI
 70
     0
 62
     6
  6
CONTINUOUS
370
    -3
390
1870E
  0
LAYER
  5
1872C
330
18701
100
AcDbSymbolTableRecord
100
AcDbLayerTableRecord
  2
1PL-S1
 70
     0
 62
     6
  6
1PL-S
370
    -3
390
1870E
  0
LAYER
  5
1872D
330
18701
100
AcDbSymbolTableRecord
100
AcDbLayerTableRecord
  2
1PL-S2
 70
     0
 62
     1
  6
1PL-S
370
    -3
390
1870E
  0
LAYER
  5
1872E
330
18701
100
AcDbSymbolTableRecord
100
AcDbLayerTableRecord
  2
1PL-L1
 70
     0
 62
     6
  6
1PL-L
370
    -3
390
1870E
  0
LAYER
  5
1872F
330
18701
100
AcDbSymbolTableRecord
100
AcDbLayerTableRecord
  2
2PL-L2
 70
     0
 62
     1
  6
2PL-L
370
    -3
390
1870E
  0
LAYER
  5
18730
330
18701
100
AcDbSymbolTableRecord
100
AcDbLayerTableRecord
  2
NAME
 70
     0
 62
    20
  6
CONTINUOUS
370
    -3
390
1870E
  0
LAYER
  5
18731
330
18701
100
AcDbSymbolTableRecord
100
AcDbLayerTableRecord
  2
FILENAME
 70
     0
 62
     7
  6
CONTINUOUS
370
    -3
390
1870E
  0
LAYER
  5
18732
330
18701
100
AcDbSymbolTableRecord
100
AcDbLayerTableRecord
  2
KISO
 70
     0
 62
     2
  6
CONTINUOUS
370
    -3
390
1870E
  0
LAYER
  5
18733
330
18701
100
AcDbSymbolTableRecord
100
AcDbLayerTableRecord
  2
HARI
 70
     0
 62
     7
  6
CONTINUOUS
370
    -3
390
1870E
  0
LAYER
  5
18734
330
18701
100
AcDbSymbolTableRecord
100
AcDbLayerTableRecord
  2
KERABA
 70
     0
 62
     2
  6
CONTINUOUS
370
    -3
390
1870E
  0
LAYER
  5
18735
330
18701
100
AcDbSymbolTableRecord
100
AcDbLayerTableRecord
  2
YANE
 70
     0
 62
     1
  6
CONTINUOUS
370
    -3
390
1870E
  0
LAYER
  5
18736
330
18701
100
AcDbSymbolTableRecord
100
AcDbLayerTableRecord
  2
TATEDOISIJIKANAGU
 70
     0
 62
     2
  6
CONTINUOUS
370
    -3
390
1870E
  0
LAYER
  5
18737
330
18701
100
AcDbSymbolTableRecord
100
AcDbLayerTableRecord
  2
HATCH
 70
     0
 62
     1
  6
CONTINUOUS
370
    -3
390
1870E
  0
LAYER
  5
18738
330
18701
100
AcDbSymbolTableRecord
100
AcDbLayerTableRecord
  2
DOU_BUCHI
 70
     0
 62
     2
  6
CONTINUOUS
370
    -3
390
1870E
  0
LAYER
  5
18739
330
18701
100
AcDbSymbolTableRecord
100
AcDbLayerTableRecord
  2
GAKU_FUCHI
 70
     0
 62
     4
  6
CONTINUOUS
370
    -3
390
1870E
  0
LAYER
  5
1873A
330
18701
100
AcDbSymbolTableRecord
100
AcDbLayerTableRecord
  2
MABASHIRA
 70
     0
 62
     4
  6
CONTINUOUS
370
    -3
390
1870E
  0
LAYER
  5
1873B
330
18701
100
AcDbSymbolTableRecord
100
AcDbLayerTableRecord
  2
TOI
 70
     0
 62
     3
  6
CONTINUOUS
370
    -3
390
1870E
  0
LAYER
  5
1873C
330
18701
100
AcDbSymbolTableRecord
100
AcDbLayerTableRecord
  2
HANAKAKUSHI
 70
     0
 62
     3
  6
CONTINUOUS
370
    -3
390
1870E
  0
LAYER
  5
1873D
330
18701
100
AcDbSymbolTableRecord
100
AcDbLayerTableRecord
  2
MOYA
 70
     0
 62
     4
  6
CONTINUOUS
370
    -3
390
1870E
  0
LAYER
  5
1873E
330
18701
100
AcDbSymbolTableRecord
100
AcDbLayerTableRecord
  2
GAKU_BUCHI
 70
     0
 62
     3
  6
CONTINUOUS
370
    -3
390
1870E
  0
LAYER
  5
1873F
330
18701
100
AcDbSymbolTableRecord
100
AcDbLayerTableRecord
  2
MOYA_KANAGU
 70
     0
 62
     4
  6
CONTINUOUS
370
    -3
390
1870E
  0
LAYER
  5
18740
330
18701
100
AcDbSymbolTableRecord
100
AcDbLayerTableRecord
  2
HISHIRA
 70
     0
 62
     3
  6
CONTINUOUS
370
    -3
390
1870E
  0
LAYER
  5
18741
330
18701
100
AcDbSymbolTableRecord
100
AcDbLayerTableRecord
  2
YODOROGO
 70
     0
 62
   130
  6
CONTINUOUS
370
    -3
390
1870E
  0
LAYER
  5
18742
330
18701
100
AcDbSymbolTableRecord
100
AcDbLayerTableRecord
  2
WAKUSEN-01
 70
     0
 62
    50
  6
CONTINUOUS
370
    -3
390
1870E
  0
LAYER
  5
18743
330
18701
100
AcDbSymbolTableRecord
100
AcDbLayerTableRecord
  2
WAKUSEN-02
 70
     0
 62
   130
  6
CONTINUOUS
370
    -3
390
1870E
  0
LAYER
  5
18744
330
18701
100
AcDbSymbolTableRecord
100
AcDbLayerTableRecord
  2
WAKUMOJI-01
 70
     0
 62
   130
  6
CONTINUOUS
370
    -3
390
1870E
  0
ENDTAB
  0
TABLE
  2
STYLE
  5
18702
330
0
100
AcDbSymbolTable
 70
     6
  0
STYLE
  5
18710
330
18702
100
AcDbSymbolTableRecord
100
AcDbTextStyleTableRecord
  2
STANDARD
 70
     0
 40
3.0
 41
1.0
 50
0.0
 71
     0
 42
0.2
  3
ROMANS
  4
EXTFONT
  0
STYLE
  5
18722
330
18702
100
AcDbSymbolTableRecord
100
AcDbTextStyleTableRecord
  2
00
 70
     0
 40
0.0
 41
0.6666666666666666
 50
0.0
 71
     0
 42
0.2
  3
ROMANS
  4
BIGFONT
  0
STYLE
  5
18745
330
18702
100
AcDbSymbolTableRecord
100
AcDbTextStyleTableRecord
  2
01
 70
     0
 40
3.0
 41
1.0
 50
0.0
 71
     0
 42
0.2
  3
ROMANS
  4
BIGFONT
  0
STYLE
  5
18746
330
18702
100
AcDbSymbolTableRecord
100
AcDbTextStyleTableRecord
  2
02
 70
     0
 40
3.0
 41
1.0
 50
0.0
 71
     0
 42
2.5
  3
ROMANS
  4
EXTFONT
  0
STYLE
  5
18747
330
18702
100
AcDbSymbolTableRecord
100
AcDbTextStyleTableRecord
  2
WAKUMOJI
 70
     0
 40
3.0
 41
1.0
 50
0.0
 71
     0
 42
3.0
  3
SIMPLEX
  4
BIGFONT
  0
STYLE
  5
18748
330
18702
100
AcDbSymbolTableRecord
100
AcDbTextStyleTableRecord
  2
FILENAME
 70
     0
 40
100.0
 41
1.0
 50
0.0
 71
     0
 42
100.0
  3
romans
  4
bigfont
  0
ENDTAB
  0
TABLE
  2
VIEW
  5
18705
330
0
100
AcDbSymbolTable
 70
     0
  0
ENDTAB
  0
TABLE
  2
UCS
  5
18706
330
0
100
AcDbSymbolTable
 70
     0
  0
ENDTAB
  0
TABLE
  2
APPID
  5
18708
330
0
100
AcDbSymbolTable
 70
     4
  0
APPID
  5
18711
330
18708
100
AcDbSymbolTableRecord
100
AcDbRegAppTableRecord
  2
ACAD
 70
     0
  0
APPID
  5
18749
330
18708
100
AcDbSymbolTableRecord
100
AcDbRegAppTableRecord
  2
AUTOCAD_POSTSCRIPT_FIGURE
 70
     0
  0
APPID
  5
1874A
330
18708
100
AcDbSymbolTableRecord
100
AcDbRegAppTableRecord
  2
ACAD_PSEXT
 70
     0
  0
APPID
  5
1874B
330
18708
100
AcDbSymbolTableRecord
100
AcDbRegAppTableRecord
  2
ACAD_EXEMPT_FROM_CAD_STANDARDS
 70
     0
  0
ENDTAB
  0
TABLE
  2
DIMSTYLE
  5
18709
330
0
100
AcDbSymbolTable
 70
     1
100
AcDbDimStyleTable
 71
     0
  0
DIMSTYLE
105
1874C
330
18709
100
AcDbSymbolTableRecord
100
AcDbDimStyleTableRecord
  2
SUNPOU_図面名
 70
     0
 40
30.0
 41
0.5
 42
1.0
 43
7.0
 44
1.5
 46
3.0
 73
     0
 74
     0
 77
     1
 78
     8
140
3.0
141
0.0
147
1.5
172
     1
173
     1
176
   256
177
   256
178
   256
271
     2
272
     2
279
     2
284
     8
285
     8
286
     8
340
18722
  0
ENDTAB
  0
TABLE
  2
BLOCK_RECORD
  5
18700
330
0
100
AcDbSymbolTable
 70
    20
  0
BLOCK_RECORD
  5
1871D
330
18700
100
AcDbSymbolTableRecord
100
AcDbBlockTableRecord
  2
*Model_Space
340
18720
  0
BLOCK_RECORD
  5
18719
330
18700
100
AcDbSymbolTableRecord
100
AcDbBlockTableRecord
  2
*Paper_Space
340
1871C
  0
BLOCK_RECORD
  5
18751
330
18700
100
AcDbSymbolTableRecord
100
AcDbBlockTableRecord
  2
$MODEL_SPACE
340
0
  0
BLOCK_RECORD
  5
18754
330
18700
100
AcDbSymbolTableRecord
100
AcDbBlockTableRecord
  2
$PAPER_SPACE
340
0
  0
BLOCK_RECORD
  5
18757
330
18700
100
AcDbSymbolTableRecord
100
AcDbBlockTableRecord
  2
DOT
340
0
  0
BLOCK_RECORD
  5
1875F
330
18700
100
AcDbSymbolTableRecord
100
AcDbBlockTableRecord
  2
*U3
340
0
  0
BLOCK_RECORD
  5
18763
330
18700
100
AcDbSymbolTableRecord
100
AcDbBlockTableRecord
  2
*U4
340
0
  0
BLOCK_RECORD
  5
18767
330
18700
100
AcDbSymbolTableRecord
100
AcDbBlockTableRecord
  2
*U5
340
0
  0
BLOCK_RECORD
  5
1876B
330
18700
100
AcDbSymbolTableRecord
100
AcDbBlockTableRecord
  2
*U6
340
0
  0
BLOCK_RECORD
  5
1876F
330
18700
100
AcDbSymbolTableRecord
100
AcDbBlockTableRecord
  2
*U7
340
0
  0
BLOCK_RECORD
  5
18773
330
18700
100
AcDbSymbolTableRecord
100
AcDbBlockTableRecord
  2
*U8
340
0
  0
BLOCK_RECORD
  5
18777
330
18700
100
AcDbSymbolTableRecord
100
AcDbBlockTableRecord
  2
*U9
340
0
  0
BLOCK_RECORD
  5
1877B
330
18700
100
AcDbSymbolTableRecord
100
AcDbBlockTableRecord
  2
*U10
340
0
  0
BLOCK_RECORD
  5
1877F
330
18700
100
AcDbSymbolTableRecord
100
AcDbBlockTableRecord
  2
*U11
340
0
  0
BLOCK_RECORD
  5
18783
330
18700
100
AcDbSymbolTableRecord
100
AcDbBlockTableRecord
  2
*U12
340
0
  0
BLOCK_RECORD
  5
18787
330
18700
100
AcDbSymbolTableRecord
100
AcDbBlockTableRecord
  2
*U13
340
0
  0
BLOCK_RECORD
  5
1878B
330
18700
100
AcDbSymbolTableRecord
100
AcDbBlockTableRecord
  2
*U14
340
0
  0
BLOCK_RECORD
  5
1878F
330
18700
100
AcDbSymbolTableRecord
100
AcDbBlockTableRecord
  2
*U15
340
0
  0
BLOCK_RECORD
  5
18793
330
18700
100
AcDbSymbolTableRecord
100
AcDbBlockTableRecord
  2
*U16
340
0
  0
BLOCK_RECORD
  5
18797
330
18700
100
AcDbSymbolTableRecord
100
AcDbBlockTableRecord
  2
*U17
340
0
  0
BLOCK_RECORD
  5
1879B
330
18700
100
AcDbSymbolTableRecord
100
AcDbBlockTableRecord
  2
*U18
340
0
  0
BLOCK_RECORD
  5
1879F
330
18700
100
AcDbSymbolTableRecord
100
AcDbBlockTableRecord
  2
*U19
340
0
  0
ENDTAB
  0
ENDSEC
  0
SECTION
  2
BLOCKS
  0
BLOCK
  5
1871E
330
1871D
100
AcDbEntity
  8
0
100
AcDbBlockBegin
  2
*Model_Space
 70
     0
 10
0.0
 20
0.0
 30
0.0
  3
*Model_Space
  1

  0
ENDBLK
  5
1871F
330
1871D
100
AcDbEntity
  8
0
100
AcDbBlockEnd
  0
BLOCK
  5
1871A
330
18719
100
AcDbEntity
 67
     1
  8
0
100
AcDbBlockBegin
  2
*Paper_Space
 70
     0
 10
0.0
 20
0.0
 30
0.0
  3
*Paper_Space
  1

  0
ENDBLK
  5
1871B
330
18719
100
AcDbEntity
 67
     1
  8
0
100
AcDbBlockEnd
  0
BLOCK
  5
18752
330
18751
100
AcDbEntity
  8
0
100
AcDbBlockBegin
  2
$MODEL_SPACE
 70
     0
 10
0.0
 20
0.0
 30
0.0
  3
$MODEL_SPACE
  1

  0
ENDBLK
  5
18753
330
18751
100
AcDbEntity
  8
0
100
AcDbBlockEnd
  0
BLOCK
  5
18755
330
18754
100
AcDbEntity
  8
0
100
AcDbBlockBegin
  2
$PAPER_SPACE
 70
     0
 10
0.0
 20
0.0
 30
0.0
  3
$PAPER_SPACE
  1

  0
ENDBLK
  5
18756
330
18754
100
AcDbEntity
  8
0
100
AcDbBlockEnd
  0
BLOCK
  5
18758
330
18757
100
AcDbEntity
  8
0
100
AcDbBlockBegin
  2
DOT
 70
     0
 10
0.0
 20
0.0
 30
0.0
  3
DOT
  1

  0
LWPOLYLINE
  5
18759
330
18757
100
AcDbEntity
  8
0
  6
ByBlock
 62
     0
100
AcDbPolyline
 90
        2
 70
     1
 43
0.75
 10
-0.375
 20
0.0
 42
1.0
 10
0.375
 20
0.0
 42
1.0
  0
LINE
  5
1875D
330
18757
100
AcDbEntity
  8
0
  6
ByBlock
 62
     0
100
AcDbLine
 10
-0.75
 20
0.0
 30
0.0
 11
-1.5
 21
0.0
 31
0.0
  0
ENDBLK
  5
1875E
330
18757
100
AcDbEntity
  8
0
100
AcDbBlockEnd
  0
BLOCK
  5
18760
330
1875F
100
AcDbEntity
  8
0
100
AcDbBlockBegin
  2
*U3
 70
     1
 10
0.0
 20
0.0
 30
0.0
  3
*U3
  1

  0
TEXT
  5
18761
330
1875F
100
AcDbEntity
  8
SUNPOU
100
AcDbText
 10
4049.903304113565
 20
5337.546798568531
 30
0.0
 40
90.0
  1
236
 41
0.6666666666666666
  7
00
100
AcDbText
  0
ENDBLK
  5
18762
330
1875F
100
AcDbEntity
  8
0
100
AcDbBlockEnd
  0
BLOCK
  5
18764
330
18763
100
AcDbEntity
  8
0
100
AcDbBlockBegin
  2
*U4
 70
     1
 10
0.0
 20
0.0
 30
0.0
  3
*U4
  1

  0
TEXT
  5
18765
330
18763
100
AcDbEntity
  8
SUNPOU
100
AcDbText
 10
7085.903304113561
 20
5337.54679856853
 30
0.0
 40
90.0
  1
236
 41
0.6666666666666666
  7
00
100
AcDbText
  0
ENDBLK
  5
18766
330
18763
100
AcDbEntity
  8
0
100
AcDbBlockEnd
  0
BLOCK
  5
18768
330
18767
100
AcDbEntity
  8
0
100
AcDbBlockBegin
  2
*U5
 70
     1
 10
0.0
 20
0.0
 30
0.0
  3
*U5
  1

  0
TEXT
  5
18769
330
18767
100
AcDbEntity
  8
SUNPOU
100
AcDbText
 10
5539.331875542138
 20
5337.546798568531
 30
0.0
 40
90.0
  1
2800
 41
0.6666666666666666
  7
00
100
AcDbText
  0
ENDBLK
  5
1876A
330
18767
100
AcDbEntity
  8
0
100
AcDbBlockEnd
  0
BLOCK
  5
1876C
330
1876B
100
AcDbEntity
  8
0
100
AcDbBlockBegin
  2
*U6
 70
     1
 10
0.0
 20
0.0
 30
0.0
  3
*U6
  1

  0
TEXT
  5
1876D
330
1876B
100
AcDbEntity
  8
SUNPOU
100
AcDbText
 10
5539.331875542138
 20
7052.920617280122
 30
0.0
 40
90.0
  1
2800
 41
0.6666666666666666
  7
00
100
AcDbText
  0
ENDBLK
  5
1876E
330
1876B
100
AcDbEntity
  8
0
100
AcDbBlockEnd
  0
BLOCK
  5
18770
330
1876F
100
AcDbEntity
  8
0
100
AcDbBlockBegin
  2
*U7
 70
     1
 10
0.0
 20
0.0
 30
0.0
  3
*U7
  1

  0
TEXT
  5
18771
330
1876F
100
AcDbEntity
  8
SUNPOU
100
AcDbText
 10
7085.903304113569
 20
7052.920617280122
 30
0.0
 40
90.0
  1
236
 41
0.6666666666666666
  7
00
100
AcDbText
  0
ENDBLK
  5
18772
330
1876F
100
AcDbEntity
  8
0
100
AcDbBlockEnd
  0
BLOCK
  5
18774
330
18773
100
AcDbEntity
  8
0
100
AcDbBlockBegin
  2
*U8
 70
     1
 10
0.0
 20
0.0
 30
0.0
  3
*U8
  1

  0
TEXT
  5
18775
330
18773
100
AcDbEntity
  8
SUNPOU
100
AcDbText
 10
4049.903304113565
 20
7052.920617280122
 30
0.0
 40
90.0
  1
236
 41
0.6666666666666666
  7
00
100
AcDbText
  0
ENDBLK
  5
18776
330
18773
100
AcDbEntity
  8
0
100
AcDbBlockEnd
  0
BLOCK
  5
18778
330
18777
100
AcDbEntity
  8
0
100
AcDbBlockBegin
  2
*U9
 70
     1
 10
0.0
 20
0.0
 30
0.0
  3
*U9
  1

  0
TEXT
  5
18779
330
18777
100
AcDbEntity
  8
SUNPOU
100
AcDbText
 10
7544.617589827851
 20
9906.206331565838
 30
0.0
 40
90.0
  1
280
 50
90.0
 41
0.6666666666666666
  7
00
100
AcDbText
  0
ENDBLK
  5
1877A
330
18777
100
AcDbEntity
  8
0
100
AcDbBlockEnd
  0
BLOCK
  5
1877C
330
1877B
100
AcDbEntity
  8
0
100
AcDbBlockBegin
  2
*U10
 70
     1
 10
0.0
 20
0.0
 30
0.0
  3
*U10
  1

  0
TEXT
  5
1877D
330
1877B
100
AcDbEntity
  8
SUNPOU
100
AcDbText
 10
7544.617589827851
 20
9015.849188708697
 30
0.0
 40
90.0
  1
1435
 50
90.0
 41
0.6666666666666666
  7
00
100
AcDbText
  0
ENDBLK
  5
1877E
330
1877B
100
AcDbEntity
  8
0
100
AcDbBlockEnd
  0
BLOCK
  5
18780
330
1877F
100
AcDbEntity
  8
0
100
AcDbBlockBegin
  2
*U11
 70
     1
 10
0.0
 20
0.0
 30
0.0
  3
*U11
  1

  0
TEXT
  5
18781
330
1877F
100
AcDbEntity
  8
SUNPOU
100
AcDbText
 10
7544.617589827851
 20
7982.277760137262
 30
0.0
 40
90.0
  1
695
 50
90.0
 41
0.6666666666666666
  7
00
100
AcDbText
  0
ENDBLK
  5
18782
330
1877F
100
AcDbEntity
  8
0
100
AcDbBlockEnd
  0
BLOCK
  5
18784
330
18783
100
AcDbEntity
  8
0
100
AcDbBlockBegin
  2
*U12
 70
     1
 10
0.0
 20
0.0
 30
0.0
  3
*U12
  1

  0
TEXT
  5
18785
330
18783
100
AcDbEntity
  8
SUNPOU
100
AcDbText
 10
7754.617589827843
 20
8812.634902994405
 30
0.0
 40
90.0
  1
2410
 50
90.0
 41
0.6666666666666666
  7
00
100
AcDbText
  0
ENDBLK
  5
18786
330
18783
100
AcDbEntity
  8
0
100
AcDbBlockEnd
  0
BLOCK
  5
18788
330
18787
100
AcDbEntity
  8
0
100
AcDbBlockBegin
  2
*U13
 70
     1
 10
0.0
 20
0.0
 30
0.0
  3
*U13
  1

  0
TEXT
  5
18789
330
18787
100
AcDbEntity
  8
SUNPOU
100
AcDbText
 10
5539.331875542138
 20
6838.733067288926
 30
0.0
 40
90.0
  1
3272
 41
0.6666666666666666
  7
00
100
AcDbText
  0
ENDBLK
  5
1878A
330
18787
100
AcDbEntity
  8
0
100
AcDbBlockEnd
  0
BLOCK
  5
1878C
330
1878B
100
AcDbEntity
  8
0
100
AcDbBlockBegin
  2
*U14
 70
     1
 10
0.0
 20
0.0
 30
0.0
  3
*U14
  1

  0
TEXT
  5
1878D
330
1878B
100
AcDbEntity
  8
SUNPOU
100
AcDbText
 10
12656.26430788204
 20
3615.261084282822
 30
0.0
 40
90.0
  1
2020
 50
90.0
 41
0.6666666666666666
  7
00
100
AcDbText
  0
ENDBLK
  5
1878E
330
1878B
100
AcDbEntity
  8
0
100
AcDbBlockEnd
  0
BLOCK
  5
18790
330
1878F
100
AcDbEntity
  8
0
100
AcDbBlockBegin
  2
*U15
 70
     1
 10
0.0
 20
0.0
 30
0.0
  3
*U15
  1

  0
TEXT
  5
18791
330
1878F
100
AcDbEntity
  8
SUNPOU
100
AcDbText
 10
9451.569579679539
 20
2488.83251285425
 30
0.0
 40
90.0
  1
50
 50
90.0
 41
0.6666666666666666
  7
00
100
AcDbText
  0
ENDBLK
  5
18792
330
1878F
100
AcDbEntity
  8
0
100
AcDbBlockEnd
  0
BLOCK
  5
18794
330
18793
100
AcDbEntity
  8
0
100
AcDbBlockBegin
  2
*U16
 70
     1
 10
0.0
 20
0.0
 30
0.0
  3
*U16
  1

  0
TEXT
  5
18795
330
18793
100
AcDbEntity
  8
SUNPOU
100
AcDbText
 10
9451.569579679539
 20
3685.261084282822
 30
0.0
 40
90.0
  1
2160
 50
90.0
 41
0.6666666666666666
  7
00
100
AcDbText
  0
ENDBLK
  5
18796
330
18793
100
AcDbEntity
  8
0
100
AcDbBlockEnd
  0
BLOCK
  5
18798
330
18797
100
AcDbEntity
  8
0
100
AcDbBlockBegin
  2
*U17
 70
     1
 10
0.0
 20
0.0
 30
0.0
  3
*U17
  1

  0
TEXT
  5
18799
330
18797
100
AcDbEntity
  8
SUNPOU
100
AcDbText
 10
12169.72486956074
 20
5337.546798568531
 30
0.0
 40
90.0
  1
280
 41
0.6666666666666666
  7
00
100
AcDbText
  0
ENDBLK
  5
1879A
330
18797
100
AcDbEntity
  8
0
100
AcDbBlockEnd
  0
BLOCK
  5
1879C
330
1879B
100
AcDbEntity
  8
0
100
AcDbBlockBegin
  2
*U18
 70
     1
 10
0.0
 20
0.0
 30
0.0
  3
*U18
  1

  0
TEXT
  5
1879D
330
1879B
100
AcDbEntity
  8
SUNPOU
100
AcDbText
 10
11279.36772670361
 20
5337.546798568531
 30
0.0
 40
90.0
  1
1435
 41
0.6666666666666666
  7
00
100
AcDbText
  0
ENDBLK
  5
1879E
330
1879B
100
AcDbEntity
  8
0
100
AcDbBlockEnd
  0
BLOCK
  5
187A0
330
1879F
100
AcDbEntity
  8
0
100
AcDbBlockBegin
  2
*U19
 70
     1
 10
0.0
 20
0.0
 30
0.0
  3
*U19
  1

  0
TEXT
  5
187A1
330
1879F
100
AcDbEntity
  8
SUNPOU
100
AcDbText
 10
10245.79629813217
 20
5337.546798568531
 30
0.0
 40
90.0
  1
695
 41
0.6666666666666666
  7
00
100
AcDbText
  0
ENDBLK
  5
187A2
330
1879F
100
AcDbEntity
  8
0
100
AcDbBlockEnd
  0
ENDSEC
  0
SECTION
  2
ENTITIES
  0
TEXT
  5
187A3
330
1871D
100
AcDbEntity
  8
SUNPOU
100
AcDbText
 10
4010.287574745965
 20
2854.546798568534
 30
0.0
 40
90.0
  1
FL
  7
01
 72
     4
 11
4091.716146174536
 21
2899.546798568534
 31
0.0
100
AcDbText
  0
LINE
  5
187A4
330
1871D
100
AcDbEntity
  8
SUNPOU
100
AcDbLine
 10
4091.716146174536
 20
2719.546798568534
 30
0.0
 11
4143.677670401603
 21
2809.546798568534
 31
0.0
  0
LINE
  5
187A5
330
1871D
100
AcDbEntity
  8
SUNPOU
100
AcDbLine
 10
4039.754621947468
 20
2809.546798568534
 30
0.0
 11
4091.716146174536
 21
2719.546798568534
 31
0.0
  0
LINE
  5
187A6
330
1871D
100
AcDbEntity
  8
SUNPOU
100
AcDbLine
 10
4143.677670401603
 20
2809.546798568534
 30
0.0
 11
4039.754621947468
 21
2809.546798568534
 31
0.0
  0
LINE
  5
187A7
330
1871D
100
AcDbEntity
  8
KISO
100
AcDbLine
 10
7253.617589827841
 20
2719.546798568533
 30
0.0
 11
4053.61758982785
 21
2719.546798568534
 31
0.0
  0
LINE
  5
187A8
330
1871D
100
AcDbEntity
  8
HANAKAKUSHI
100
AcDbLine
 10
4017.61758982785
 20
4790.464181683073
 30
0.0
 11
7283.617589827841
 21
4790.464181683073
 31
0.0
  0
LINE
  5
187A9
330
1871D
100
AcDbEntity
  8
HANAKAKUSHI
100
AcDbLine
 10
4017.61758982785
 20
4892.546798568534
 30
0.0
 11
7289.617589827841
 21
4892.54679856853
 31
0.0
  0
ARC
  5
187AA
330
1871D
100
AcDbEntity
  8
TATEDOISIJIKANAGU
100
AcDbCircle
 10
4293.596837116175
 20
4328.737218858189
 30
0.0
 40
19.50000000000022
100
AcDbArc
 50
104.1614835120391
 51
112.5538228595494
  0
ARC
  5
187AB
330
1871D
100
AcDbEntity
  8
TATEDOISIJIKANAGU
100
AcDbCircle
 10
4322.685138200846
 20
4336.076887788555
 30
0.0
 40
19.50000000000022
100
AcDbArc
 50
104.1614835120391
 51
284.1614835120391
  0
ARC
  5
187AC
330
1871D
100
AcDbEntity
  8
TATEDOISIJIKANAGU
100
AcDbCircle
 10
4293.596837116175
 20
4328.737218858189
 30
0.0
 40
19.50000000000022
100
AcDbArc
 50
247.4461771407328
 51
284.1614835120391
  0
LINE
  5
187AD
330
1871D
100
AcDbEntity
  8
TATEDOISIJIKANAGU
100
AcDbLine
 10
4347.002654480781
 20
4362.323952423963
 30
0.0
 11
4288.825960052036
 21
4347.644591283989
 31
0.0
  0
LINE
  5
187AE
330
1871D
100
AcDbEntity
  8
TATEDOISIJIKANAGU
100
AcDbLine
 10
4371.088374632596
 20
4328.178995479071
 30
0.0
 11
4298.367529558235
 21
4309.829799847857
 31
0.0
  0
ARC
  5
187AF
330
1871D
100
AcDbEntity
  8
TATEDOISIJIKANAGU
100
AcDbCircle
 10
4366.317589827857
 20
4347.086391184109
 30
0.0
 40
19.50000000000022
100
AcDbArc
 50
284.1614835120391
 51
313.5311992856336
  0
LINE
  5
187B0
330
1871D
100
AcDbEntity
  8
TATEDOISIJIKANAGU
100
AcDbLine
 10
4366.067589827848
 20
4422.63979884087
 30
0.0
 11
4377.067589827849
 21
4422.63979884087
 31
0.0
  0
LINE
  5
187B1
330
1871D
100
AcDbEntity
  8
TATEDOISIJIKANAGU
100
AcDbLine
 10
4371.56758982785
 20
4417.13979884087
 30
0.0
 11
4376.567589827849
 21
4417.13979884087
 31
0.0
  0
LINE
  5
187B2
330
1871D
100
AcDbEntity
  8
TATEDOISIJIKANAGU
100
AcDbLine
 10
4371.56758982785
 20
4417.13979884087
 30
0.0
 11
4394.56758982785
 21
4417.13979884087
 31
0.0
  0
ARC
  5
187B3
330
1871D
100
AcDbEntity
  8
TATEDOISIJIKANAGU
100
AcDbCircle
 10
4371.56758982785
 20
4369.24340889447
 30
0.0
 40
19.50000000000022
100
AcDbArc
 50
168.473866709409
 51
11.5261332905909
  0
ARC
  5
187B4
330
1871D
100
AcDbEntity
  8
TATEDOISIJIKANAGU
100
AcDbCircle
 10
4371.56758982785
 20
4392.302308139194
 30
0.0
 40
26.95528919112273
100
AcDbArc
 50
225.6615781493755
 51
314.3384218506243
  0
ARC
  5
187B5
330
1871D
100
AcDbEntity
  8
TATEDOISIJIKANAGU
100
AcDbCircle
 10
4371.56758982785
 20
4353.639798840869
 30
0.0
 40
19.50000000000022
100
AcDbArc
 50
180.0
 51
0.0
  0
LINE
  5
187B6
330
1871D
100
AcDbEntity
  8
TATEDOISIJIKANAGU
100
AcDbLine
 10
4394.56758982785
 20
4404.139798840868
 30
0.0
 11
4348.567589827848
 21
4404.139798840868
 31
0.0
  0
LINE
  5
187B7
330
1871D
100
AcDbEntity
  8
TATEDOISIJIKANAGU
100
AcDbLine
 10
4393.067589827849
 20
4397.492452802286
 30
0.0
 11
4350.067589827848
 21
4397.492452802286
 31
0.0
  0
LINE
  5
187B8
330
1871D
100
AcDbEntity
  8
TATEDOISIJIKANAGU
100
AcDbLine
 10
4348.567589827848
 20
4417.13979884087
 30
0.0
 11
4393.63000130076
 21
4417.13979884087
 31
0.0
  0
LINE
  5
187B9
330
1871D
100
AcDbEntity
  8
TATEDOISIJIKANAGU
100
AcDbLine
 10
4352.067589827849
 20
4369.24340889447
 30
0.0
 11
4352.067589827849
 21
4353.639798840869
 31
0.0
  0
LINE
  5
187BA
330
1871D
100
AcDbEntity
  8
TATEDOISIJIKANAGU
100
AcDbLine
 10
4348.06758982785
 20
4416.639798840868
 30
0.0
 11
4348.06758982785
 21
4404.63979884087
 31
0.0
  0
ARC
  5
187BB
330
1871D
100
AcDbEntity
  8
TATEDOISIJIKANAGU
100
AcDbCircle
 10
4348.567589827848
 20
4404.63979884087
 30
0.0
 40
0.5
100
AcDbArc
 50
180.0
 51
270.0
  0
ARC
  5
187BC
330
1871D
100
AcDbEntity
  8
TATEDOISIJIKANAGU
100
AcDbCircle
 10
4348.567589827848
 20
4416.639798840868
 30
0.0
 40
0.5
100
AcDbArc
 50
90.0
 51
180.0
  0
LINE
  5
187BD
330
1871D
100
AcDbEntity
  8
TATEDOISIJIKANAGU
100
AcDbLine
 10
4352.067589827849
 20
4393.968519135929
 30
0.0
 11
4352.067589827849
 21
4391.811078545812
 31
0.0
  0
LINE
  5
187BE
330
1871D
100
AcDbEntity
  8
TATEDOISIJIKANAGU
100
AcDbLine
 10
4350.067589827848
 20
4403.639798840869
 30
0.0
 11
4350.067589827848
 21
4397.492452802286
 31
0.0
  0
ARC
  5
187BF
330
1871D
100
AcDbEntity
  8
TATEDOISIJIKANAGU
100
AcDbCircle
 10
4352.867589827847
 20
4393.968519135929
 30
0.0
 40
0.8
100
AcDbArc
 50
100.000000000005
 51
180.0
  0
ARC
  5
187C0
330
1871D
100
AcDbEntity
  8
TATEDOISIJIKANAGU
100
AcDbCircle
 10
4352.867589827847
 20
4387.968519135927
 30
0.0
 40
0.8
100
AcDbArc
 50
100.000000000005
 51
180.0
  0
ARC
  5
187C1
330
1871D
100
AcDbEntity
  8
TATEDOISIJIKANAGU
100
AcDbCircle
 10
4352.867589827847
 20
4391.811078545812
 30
0.0
 40
0.8
100
AcDbArc
 50
180.0
 51
259.9999999999949
  0
ARC
  5
187C2
330
1871D
100
AcDbEntity
  8
TATEDOISIJIKANAGU
100
AcDbCircle
 10
4349.56758982785
 20
4403.639798840869
 30
0.0
 40
0.5
100
AcDbArc
 50
0.0
 51
90.0
  0
LINE
  5
187C3
330
1871D
100
AcDbEntity
  8
TATEDOISIJIKANAGU
100
AcDbLine
 10
4352.067589827849
 20
4373.811078545809
 30
0.0
 11
4352.067589827849
 21
4375.968519135926
 31
0.0
  0
LINE
  5
187C4
330
1871D
100
AcDbEntity
  8
TATEDOISIJIKANAGU
100
AcDbLine
 10
4352.067589827849
 20
4381.968519135926
 30
0.0
 11
4352.067589827849
 21
4379.811078545812
 31
0.0
  0
ARC
  5
187C5
330
1871D
100
AcDbEntity
  8
TATEDOISIJIKANAGU
100
AcDbCircle
 10
4352.867589827847
 20
4375.968519135926
 30
0.0
 40
0.8
100
AcDbArc
 50
100.000000000005
 51
180.0
  0
ARC
  5
187C6
330
1871D
100
AcDbEntity
  8
TATEDOISIJIKANAGU
100
AcDbCircle
 10
4352.867589827847
 20
4373.811078545809
 30
0.0
 40
0.8
100
AcDbArc
 50
180.0
 51
259.9999999999949
  0
ARC
  5
187C7
330
1871D
100
AcDbEntity
  8
TATEDOISIJIKANAGU
100
AcDbCircle
 10
4352.867589827847
 20
4381.968519135926
 30
0.0
 40
0.8
100
AcDbArc
 50
100.000000000005
 51
180.0
  0
ARC
  5
187C8
330
1871D
100
AcDbEntity
  8
TATEDOISIJIKANAGU
100
AcDbCircle
 10
4352.867589827847
 20
4379.811078545812
 30
0.0
 40
0.8
100
AcDbArc
 50
180.0
 51
259.9999999999949
  0
ARC
  5
187C9
330
1871D
100
AcDbEntity
  8
TATEDOISIJIKANAGU
100
AcDbCircle
 10
4352.867589827847
 20
4385.811078545812
 30
0.0
 40
0.8
100
AcDbArc
 50
180.0
 51
259.9999999999949
  0
LINE
  5
187CA
330
1871D
100
AcDbEntity
  8
TATEDOISIJIKANAGU
100
AcDbLine
 10
4352.067589827849
 20
4385.811078545812
 30
0.0
 11
4352.067589827849
 21
4387.968519135927
 31
0.0
  0
LINE
  5
187CB
330
1871D
100
AcDbEntity
  8
TATEDOISIJIKANAGU
100
AcDbLine
 10
4366.067589827848
 20
4428.63979884087
 30
0.0
 11
4366.067589827848
 21
4422.63979884087
 31
0.0
  0
ARC
  5
187CC
330
1871D
100
AcDbEntity
  8
TATEDOISIJIKANAGU
100
AcDbCircle
 10
4356.567589827848
 20
4389.88979884087
 30
0.0
 40
0.5000000000000285
100
AcDbArc
 50
305.9487523472061
 51
54.05124765279389
  0
ARC
  5
187CD
330
1871D
100
AcDbEntity
  8
TATEDOISIJIKANAGU
100
AcDbCircle
 10
4356.567589827848
 20
4395.88979884087
 30
0.0
 40
0.5000000000000285
100
AcDbArc
 50
305.9487523472061
 51
54.05124765279389
  0
ARC
  5
187CE
330
1871D
100
AcDbEntity
  8
TATEDOISIJIKANAGU
100
AcDbCircle
 10
4356.567589827848
 20
4377.88979884087
 30
0.0
 40
0.5000000000000285
100
AcDbArc
 50
305.9487523472061
 51
54.05124765279389
  0
ARC
  5
187CF
330
1871D
100
AcDbEntity
  8
TATEDOISIJIKANAGU
100
AcDbCircle
 10
4356.567589827848
 20
4383.889798840868
 30
0.0
 40
0.5000000000000285
100
AcDbArc
 50
305.9487523472061
 51
54.05124765279389
  0
LINE
  5
187D0
330
1871D
100
AcDbEntity
  8
TATEDOISIJIKANAGU
100
AcDbLine
 10
4352.728671285716
 20
4391.023232343401
 30
0.0
 11
4356.861120527791
 21
4390.294570045615
 31
0.0
  0
LINE
  5
187D1
330
1871D
100
AcDbEntity
  8
TATEDOISIJIKANAGU
100
AcDbLine
 10
4352.728671285716
 20
4388.756365338339
 30
0.0
 11
4356.861120527791
 21
4389.485027636124
 31
0.0
  0
LINE
  5
187D2
330
1871D
100
AcDbEntity
  8
TATEDOISIJIKANAGU
100
AcDbLine
 10
4352.728671285716
 20
4394.756365338337
 30
0.0
 11
4356.861120527791
 21
4395.485027636124
 31
0.0
  0
LINE
  5
187D3
330
1871D
100
AcDbEntity
  8
TATEDOISIJIKANAGU
100
AcDbLine
 10
4350.067589827848
 20
4397.492452802286
 30
0.0
 11
4356.861120527791
 21
4396.294570045617
 31
0.0
  0
LINE
  5
187D4
330
1871D
100
AcDbEntity
  8
TATEDOISIJIKANAGU
100
AcDbLine
 10
4352.728671285716
 20
4382.756365338337
 30
0.0
 11
4356.861120527791
 21
4383.485027636123
 31
0.0
  0
LINE
  5
187D5
330
1871D
100
AcDbEntity
  8
TATEDOISIJIKANAGU
100
AcDbLine
 10
4352.728671285716
 20
4376.756365338337
 30
0.0
 11
4356.861120527791
 21
4377.485027636124
 31
0.0
  0
LINE
  5
187D6
330
1871D
100
AcDbEntity
  8
TATEDOISIJIKANAGU
100
AcDbLine
 10
4352.728671285716
 20
4379.023232343402
 30
0.0
 11
4356.861120527791
 21
4378.294570045613
 31
0.0
  0
LINE
  5
187D7
330
1871D
100
AcDbEntity
  8
TATEDOISIJIKANAGU
100
AcDbLine
 10
4352.728671285716
 20
4385.023232343402
 30
0.0
 11
4356.861120527791
 21
4384.294570045617
 31
0.0
  0
LINE
  5
187D8
330
1871D
100
AcDbEntity
  8
TATEDOISIJIKANAGU
100
AcDbLine
 10
4391.06758982785
 20
4369.24340889447
 30
0.0
 11
4391.06758982785
 21
4353.639798840869
 31
0.0
  0
ARC
  5
187D9
330
1871D
100
AcDbEntity
  8
TATEDOISIJIKANAGU
100
AcDbCircle
 10
4371.317589827856
 20
4351.83639118411
 30
0.0
 40
19.50000000000022
100
AcDbArc
 50
313.5311992856336
 51
9.713098239813458
  0
LINE
  5
187DA
330
1871D
100
AcDbEntity
  8
TATEDOISIJIKANAGU
100
AcDbLine
 10
4384.748204335195
 20
4337.698902229016
 30
0.0
 11
4379.748204335192
 21
4332.948902229017
 31
0.0
  0
LINE
  5
187DB
330
1871D
100
AcDbEntity
  8
TATEDOISIJIKANAGU
100
AcDbLine
 10
4377.067589827849
 20
4422.63979884087
 30
0.0
 11
4377.067589827849
 21
4428.63979884087
 31
0.0
  0
LINE
  5
187DC
330
1871D
100
AcDbEntity
  8
TATEDOISIJIKANAGU
100
AcDbLine
 10
4390.406508369983
 20
4391.023232343401
 30
0.0
 11
4386.274059127907
 21
4390.294570045615
 31
0.0
  0
LINE
  5
187DD
330
1871D
100
AcDbEntity
  8
TATEDOISIJIKANAGU
100
AcDbLine
 10
4390.406508369983
 20
4388.756365338339
 30
0.0
 11
4386.274059127907
 21
4389.485027636124
 31
0.0
  0
LINE
  5
187DE
330
1871D
100
AcDbEntity
  8
TATEDOISIJIKANAGU
100
AcDbLine
 10
4393.067589827849
 20
4397.492452802286
 30
0.0
 11
4386.274059127907
 21
4396.294570045617
 31
0.0
  0
LINE
  5
187DF
330
1871D
100
AcDbEntity
  8
TATEDOISIJIKANAGU
100
AcDbLine
 10
4390.406508369983
 20
4394.756365338337
 30
0.0
 11
4386.274059127907
 21
4395.485027636124
 31
0.0
  0
LINE
  5
187E0
330
1871D
100
AcDbEntity
  8
TATEDOISIJIKANAGU
100
AcDbLine
 10
4390.406508369983
 20
4382.756365338337
 30
0.0
 11
4386.274059127907
 21
4383.485027636123
 31
0.0
  0
LINE
  5
187E1
330
1871D
100
AcDbEntity
  8
TATEDOISIJIKANAGU
100
AcDbLine
 10
4390.406508369983
 20
4376.756365338337
 30
0.0
 11
4386.274059127907
 21
4377.485027636124
 31
0.0
  0
LINE
  5
187E2
330
1871D
100
AcDbEntity
  8
TATEDOISIJIKANAGU
100
AcDbLine
 10
4390.406508369983
 20
4379.023232343402
 30
0.0
 11
4386.274059127907
 21
4378.294570045613
 31
0.0
  0
LINE
  5
187E3
330
1871D
100
AcDbEntity
  8
TATEDOISIJIKANAGU
100
AcDbLine
 10
4390.406508369983
 20
4385.023232343402
 30
0.0
 11
4386.274059127907
 21
4384.294570045617
 31
0.0
  0
LINE
  5
187E4
330
1871D
100
AcDbEntity
  8
TATEDOISIJIKANAGU
100
AcDbLine
 10
4395.067589827848
 20
4416.639798840868
 30
0.0
 11
4395.067589827848
 21
4404.63979884087
 31
0.0
  0
ARC
  5
187E5
330
1871D
100
AcDbEntity
  8
TATEDOISIJIKANAGU
100
AcDbCircle
 10
4394.56758982785
 20
4404.63979884087
 30
0.0
 40
0.5
100
AcDbArc
 50
270.0
 51
0.0
  0
ARC
  5
187E6
330
1871D
100
AcDbEntity
  8
TATEDOISIJIKANAGU
100
AcDbCircle
 10
4394.56758982785
 20
4416.639798840868
 30
0.0
 40
0.5
100
AcDbArc
 50
0.0
 51
90.0
  0
ARC
  5
187E7
330
1871D
100
AcDbEntity
  8
TATEDOISIJIKANAGU
100
AcDbCircle
 10
4390.267589827849
 20
4393.968519135929
 30
0.0
 40
0.8
100
AcDbArc
 50
0.0
 51
79.99999999999484
  0
ARC
  5
187E8
330
1871D
100
AcDbEntity
  8
TATEDOISIJIKANAGU
100
AcDbCircle
 10
4390.267589827849
 20
4387.968519135927
 30
0.0
 40
0.8
100
AcDbArc
 50
0.0
 51
79.99999999999484
  0
LINE
  5
187E9
330
1871D
100
AcDbEntity
  8
TATEDOISIJIKANAGU
100
AcDbLine
 10
4391.06758982785
 20
4393.968519135929
 30
0.0
 11
4391.06758982785
 21
4391.811078545812
 31
0.0
  0
ARC
  5
187EA
330
1871D
100
AcDbEntity
  8
TATEDOISIJIKANAGU
100
AcDbCircle
 10
4390.267589827849
 20
4391.811078545812
 30
0.0
 40
0.8
100
AcDbArc
 50
280.0000000000051
 51
0.0
  0
LINE
  5
187EB
330
1871D
100
AcDbEntity
  8
TATEDOISIJIKANAGU
100
AcDbLine
 10
4393.067589827849
 20
4403.639798840869
 30
0.0
 11
4393.067589827849
 21
4397.492452802286
 31
0.0
  0
ARC
  5
187EC
330
1871D
100
AcDbEntity
  8
TATEDOISIJIKANAGU
100
AcDbCircle
 10
4393.567589827848
 20
4403.639798840869
 30
0.0
 40
0.5
100
AcDbArc
 50
90.0
 51
180.0
  0
LINE
  5
187ED
330
1871D
100
AcDbEntity
  8
TATEDOISIJIKANAGU
100
AcDbLine
 10
4394.56758982785
 20
4428.63979884087
 30
0.0
 11
4394.56758982785
 21
4417.13979884087
 31
0.0
  0
ARC
  5
187EE
330
1871D
100
AcDbEntity
  8
TATEDOISIJIKANAGU
100
AcDbCircle
 10
4390.267589827849
 20
4375.968519135926
 30
0.0
 40
0.8
100
AcDbArc
 50
0.0
 51
79.99999999999484
  0
LINE
  5
187EF
330
1871D
100
AcDbEntity
  8
TATEDOISIJIKANAGU
100
AcDbLine
 10
4391.06758982785
 20
4373.811078545809
 30
0.0
 11
4391.06758982785
 21
4375.968519135926
 31
0.0
  0
ARC
  5
187F0
330
1871D
100
AcDbEntity
  8
TATEDOISIJIKANAGU
100
AcDbCircle
 10
4390.267589827849
 20
4373.811078545809
 30
0.0
 40
0.8
100
AcDbArc
 50
280.0000000000051
 51
0.0
  0
LINE
  5
187F1
330
1871D
100
AcDbEntity
  8
TATEDOISIJIKANAGU
100
AcDbLine
 10
4391.06758982785
 20
4381.968519135926
 30
0.0
 11
4391.06758982785
 21
4379.811078545812
 31
0.0
  0
ARC
  5
187F2
330
1871D
100
AcDbEntity
  8
TATEDOISIJIKANAGU
100
AcDbCircle
 10
4390.267589827849
 20
4381.968519135926
 30
0.0
 40
0.8
100
AcDbArc
 50
0.0
 51
79.99999999999484
  0
ARC
  5
187F3
330
1871D
100
AcDbEntity
  8
TATEDOISIJIKANAGU
100
AcDbCircle
 10
4390.267589827849
 20
4379.811078545812
 30
0.0
 40
0.8
100
AcDbArc
 50
280.0000000000051
 51
0.0
  0
ARC
  5
187F4
330
1871D
100
AcDbEntity
  8
TATEDOISIJIKANAGU
100
AcDbCircle
 10
4390.267589827849
 20
4385.811078545812
 30
0.0
 40
0.8
100
AcDbArc
 50
280.0000000000051
 51
0.0
  0
LINE
  5
187F5
330
1871D
100
AcDbEntity
  8
TATEDOISIJIKANAGU
100
AcDbLine
 10
4391.06758982785
 20
4385.811078545812
 30
0.0
 11
4391.06758982785
 21
4387.968519135927
 31
0.0
  0
ARC
  5
187F6
330
1871D
100
AcDbEntity
  8
TATEDOISIJIKANAGU
100
AcDbCircle
 10
4386.56758982785
 20
4389.88979884087
 30
0.0
 40
0.5000000000000285
100
AcDbArc
 50
125.9487523472061
 51
234.0512476527937
  0
ARC
  5
187F7
330
1871D
100
AcDbEntity
  8
TATEDOISIJIKANAGU
100
AcDbCircle
 10
4386.56758982785
 20
4395.88979884087
 30
0.0
 40
0.5000000000000285
100
AcDbArc
 50
125.9487523472061
 51
234.0512476527937
  0
ARC
  5
187F8
330
1871D
100
AcDbEntity
  8
TATEDOISIJIKANAGU
100
AcDbCircle
 10
4386.56758982785
 20
4377.88979884087
 30
0.0
 40
0.5000000000000285
100
AcDbArc
 50
125.9487523472061
 51
234.0512476527937
  0
ARC
  5
187F9
330
1871D
100
AcDbEntity
  8
TATEDOISIJIKANAGU
100
AcDbCircle
 10
4386.56758982785
 20
4383.889798840868
 30
0.0
 40
0.5000000000000285
100
AcDbArc
 50
125.9487523472061
 51
234.0512476527937
  0
LINE
  5
187FA
330
1871D
100
AcDbEntity
  8
TATEDOISIJIKANAGU
100
AcDbLine
 10
4394.56758982785
 20
4428.63979884087
 30
0.0
 11
4377.067589827849
 21
4428.63979884087
 31
0.0
  0
ARC
  5
187FB
330
1871D
100
AcDbEntity
  8
TATEDOISIJIKANAGU
100
AcDbCircle
 10
4351.77343928552
 20
4343.416556718923
 30
0.0
 40
19.50000000000022
100
AcDbArc
 50
89.13568082844051
 51
284.1614835120391
  0
LINE
  5
187FC
330
1871D
100
AcDbEntity
  8
YANE
100
AcDbLine
 10
4111.17569949668
 20
4491.046891988565
 30
0.0
 11
4111.17569949668
 21
4661.807664297206
 31
0.0
  0
LINE
  5
187FD
330
1871D
100
AcDbEntity
  8
YANE
100
AcDbLine
 10
4083.859480159014
 20
4661.807664297206
 30
0.0
 11
4083.859480159014
 21
4491.046891988565
 31
0.0
  0
LINE
  5
187FE
330
1871D
100
AcDbEntity
  8
YANE
100
AcDbLine
 10
4067.209480159012
 20
4491.046891988565
 30
0.0
 11
4067.209480159012
 21
4661.807664297206
 31
0.0
  0
LINE
  5
187FF
330
1871D
100
AcDbEntity
  8
YANE
100
AcDbLine
 10
4127.825699496681
 20
4661.807664297206
 30
0.0
 11
4127.825699496681
 21
4491.046891988565
 31
0.0
  0
LINE
  5
18800
330
1871D
100
AcDbEntity
  8
YANE
100
AcDbLine
 10
4217.159480159014
 20
4661.807664297206
 30
0.0
 11
4217.159480159014
 21
4491.046891988565
 31
0.0
  0
LINE
  5
18801
330
1871D
100
AcDbEntity
  8
YANE
100
AcDbLine
 10
4200.509480159012
 20
4491.046891988565
 30
0.0
 11
4200.509480159012
 21
4661.807664297206
 31
0.0
  0
LINE
  5
18802
330
1871D
100
AcDbEntity
  8
YANE
100
AcDbLine
 10
4377.775699496681
 20
4491.046891988565
 30
0.0
 11
4377.775699496681
 21
4661.807664297206
 31
0.0
  0
LINE
  5
18803
330
1871D
100
AcDbEntity
  8
YANE
100
AcDbLine
 10
4350.459480159012
 20
4661.807664297206
 30
0.0
 11
4350.459480159012
 21
4491.046891988565
 31
0.0
  0
LINE
  5
18804
330
1871D
100
AcDbEntity
  8
YANE
100
AcDbLine
 10
4333.809480159013
 20
4491.046891988565
 30
0.0
 11
4333.809480159013
 21
4661.807664297206
 31
0.0
  0
LINE
  5
18805
330
1871D
100
AcDbEntity
  8
YANE
100
AcDbLine
 10
4394.425699496681
 20
4661.807664297206
 30
0.0
 11
4394.425699496681
 21
4491.046891988565
 31
0.0
  0
LINE
  5
18806
330
1871D
100
AcDbEntity
  8
YANE
100
AcDbLine
 10
4511.07569949668
 20
4491.046891988565
 30
0.0
 11
4511.07569949668
 21
4661.807664297206
 31
0.0
  0
LINE
  5
18807
330
1871D
100
AcDbEntity
  8
YANE
100
AcDbLine
 10
4483.759480159014
 20
4661.807664297206
 30
0.0
 11
4483.759480159014
 21
4491.046891988565
 31
0.0
  0
LINE
  5
18808
330
1871D
100
AcDbEntity
  8
YANE
100
AcDbLine
 10
4467.109480159013
 20
4491.046891988565
 30
0.0
 11
4467.109480159013
 21
4661.807664297206
 31
0.0
  0
LINE
  5
18809
330
1871D
100
AcDbEntity
  8
YANE
100
AcDbLine
 10
4527.725699496682
 20
4661.807664297206
 30
0.0
 11
4527.725699496682
 21
4491.046891988565
 31
0.0
  0
LINE
  5
1880A
330
1871D
100
AcDbEntity
  8
YANE
100
AcDbLine
 10
4644.37569949668
 20
4491.046891988565
 30
0.0
 11
4644.37569949668
 21
4661.807664297206
 31
0.0
  0
LINE
  5
1880B
330
1871D
100
AcDbEntity
  8
YANE
100
AcDbLine
 10
4617.059480159014
 20
4661.807664297206
 30
0.0
 11
4617.059480159014
 21
4491.046891988565
 31
0.0
  0
LINE
  5
1880C
330
1871D
100
AcDbEntity
  8
YANE
100
AcDbLine
 10
4600.409480159012
 20
4491.046891988565
 30
0.0
 11
4600.409480159012
 21
4661.807664297206
 31
0.0
  0
LINE
  5
1880D
330
1871D
100
AcDbEntity
  8
YANE
100
AcDbLine
 10
4661.025699496682
 20
4661.807664297206
 30
0.0
 11
4661.025699496682
 21
4491.046891988565
 31
0.0
  0
LINE
  5
1880E
330
1871D
100
AcDbEntity
  8
YANE
100
AcDbLine
 10
4777.675699496682
 20
4491.046891988565
 30
0.0
 11
4777.675699496682
 21
4661.807664297206
 31
0.0
  0
LINE
  5
1880F
330
1871D
100
AcDbEntity
  8
YANE
100
AcDbLine
 10
4750.359480159013
 20
4661.807664297206
 30
0.0
 11
4750.359480159013
 21
4491.046891988565
 31
0.0
  0
LINE
  5
18810
330
1871D
100
AcDbEntity
  8
YANE
100
AcDbLine
 10
4733.709480159012
 20
4491.046891988565
 30
0.0
 11
4733.709480159012
 21
4661.807664297206
 31
0.0
  0
LINE
  5
18811
330
1871D
100
AcDbEntity
  8
YANE
100
AcDbLine
 10
4794.325699496682
 20
4661.807664297206
 30
0.0
 11
4794.325699496682
 21
4491.046891988565
 31
0.0
  0
LINE
  5
18812
330
1871D
100
AcDbEntity
  8
YANE
100
AcDbLine
 10
4910.97569949668
 20
4491.046891988565
 30
0.0
 11
4910.97569949668
 21
4661.807664297206
 31
0.0
  0
LINE
  5
18813
330
1871D
100
AcDbEntity
  8
YANE
100
AcDbLine
 10
4883.659480159014
 20
4661.807664297206
 30
0.0
 11
4883.659480159014
 21
4491.046891988565
 31
0.0
  0
LINE
  5
18814
330
1871D
100
AcDbEntity
  8
YANE
100
AcDbLine
 10
4867.009480159013
 20
4491.046891988565
 30
0.0
 11
4867.009480159013
 21
4661.807664297206
 31
0.0
  0
LINE
  5
18815
330
1871D
100
AcDbEntity
  8
YANE
100
AcDbLine
 10
4927.625699496683
 20
4661.807664297206
 30
0.0
 11
4927.625699496683
 21
4491.046891988565
 31
0.0
  0
LINE
  5
18816
330
1871D
100
AcDbEntity
  8
YANE
100
AcDbLine
 10
5044.275699496681
 20
4491.046891988565
 30
0.0
 11
5044.275699496681
 21
4661.807664297206
 31
0.0
  0
LINE
  5
18817
330
1871D
100
AcDbEntity
  8
YANE
100
AcDbLine
 10
5016.959480159012
 20
4661.807664297206
 30
0.0
 11
5016.959480159012
 21
4491.046891988565
 31
0.0
  0
LINE
  5
18818
330
1871D
100
AcDbEntity
  8
YANE
100
AcDbLine
 10
5000.309480159011
 20
4491.046891988565
 30
0.0
 11
5000.309480159011
 21
4661.807664297206
 31
0.0
  0
LINE
  5
18819
330
1871D
100
AcDbEntity
  8
YANE
100
AcDbLine
 10
5060.925699496682
 20
4661.807664297206
 30
0.0
 11
5060.925699496682
 21
4491.046891988565
 31
0.0
  0
LINE
  5
1881A
330
1871D
100
AcDbEntity
  8
YANE
100
AcDbLine
 10
5177.575699496682
 20
4491.046891988565
 30
0.0
 11
5177.575699496682
 21
4661.807664297206
 31
0.0
  0
LINE
  5
1881B
330
1871D
100
AcDbEntity
  8
YANE
100
AcDbLine
 10
5150.259480159014
 20
4661.807664297206
 30
0.0
 11
5150.259480159014
 21
4491.046891988565
 31
0.0
  0
LINE
  5
1881C
330
1871D
100
AcDbEntity
  8
YANE
100
AcDbLine
 10
5133.609480159011
 20
4491.046891988565
 30
0.0
 11
5133.609480159011
 21
4661.807664297206
 31
0.0
  0
LINE
  5
1881D
330
1871D
100
AcDbEntity
  8
YANE
100
AcDbLine
 10
5194.225699496684
 20
4661.807664297206
 30
0.0
 11
5194.225699496684
 21
4491.046891988565
 31
0.0
  0
LINE
  5
1881E
330
1871D
100
AcDbEntity
  8
YANE
100
AcDbLine
 10
5327.525699496681
 20
4661.807664297206
 30
0.0
 11
5327.525699496681
 21
4491.046891988565
 31
0.0
  0
LINE
  5
1881F
330
1871D
100
AcDbEntity
  8
YANE
100
AcDbLine
 10
5266.909480159013
 20
4491.046891988565
 30
0.0
 11
5266.909480159013
 21
4661.807664297206
 31
0.0
  0
LINE
  5
18820
330
1871D
100
AcDbEntity
  8
YANE
100
AcDbLine
 10
5283.559480159014
 20
4661.807664297206
 30
0.0
 11
5283.559480159014
 21
4491.046891988565
 31
0.0
  0
LINE
  5
18821
330
1871D
100
AcDbEntity
  8
YANE
100
AcDbLine
 10
5310.875699496681
 20
4491.046891988565
 30
0.0
 11
5310.875699496681
 21
4661.807664297206
 31
0.0
  0
LINE
  5
18822
330
1871D
100
AcDbEntity
  8
YANE
100
AcDbLine
 10
5460.825699496682
 20
4661.807664297206
 30
0.0
 11
5460.825699496682
 21
4491.046891988565
 31
0.0
  0
LINE
  5
18823
330
1871D
100
AcDbEntity
  8
YANE
100
AcDbLine
 10
5400.209480159015
 20
4491.046891988565
 30
0.0
 11
5400.209480159015
 21
4661.807664297206
 31
0.0
  0
LINE
  5
18824
330
1871D
100
AcDbEntity
  8
YANE
100
AcDbLine
 10
5416.859480159015
 20
4661.807664297206
 30
0.0
 11
5416.859480159015
 21
4491.046891988565
 31
0.0
  0
LINE
  5
18825
330
1871D
100
AcDbEntity
  8
YANE
100
AcDbLine
 10
5444.175699496682
 20
4491.046891988565
 30
0.0
 11
5444.175699496682
 21
4661.807664297206
 31
0.0
  0
LINE
  5
18826
330
1871D
100
AcDbEntity
  8
YANE
100
AcDbLine
 10
5594.125699496682
 20
4661.807664297206
 30
0.0
 11
5594.125699496682
 21
4491.046891988565
 31
0.0
  0
LINE
  5
18827
330
1871D
100
AcDbEntity
  8
YANE
100
AcDbLine
 10
5533.509480159012
 20
4491.046891988565
 30
0.0
 11
5533.509480159012
 21
4661.807664297206
 31
0.0
  0
LINE
  5
18828
330
1871D
100
AcDbEntity
  8
YANE
100
AcDbLine
 10
5550.159480159013
 20
4661.807664297206
 30
0.0
 11
5550.159480159013
 21
4491.046891988565
 31
0.0
  0
LINE
  5
18829
330
1871D
100
AcDbEntity
  8
YANE
100
AcDbLine
 10
5577.47569949668
 20
4491.046891988565
 30
0.0
 11
5577.47569949668
 21
4661.807664297206
 31
0.0
  0
LINE
  5
1882A
330
1871D
100
AcDbEntity
  8
YANE
100
AcDbLine
 10
5727.425699496682
 20
4661.807664297206
 30
0.0
 11
5727.425699496682
 21
4491.046891988565
 31
0.0
  0
LINE
  5
1882B
330
1871D
100
AcDbEntity
  8
YANE
100
AcDbLine
 10
5666.809480159012
 20
4491.046891988565
 30
0.0
 11
5666.809480159012
 21
4661.807664297206
 31
0.0
  0
LINE
  5
1882C
330
1871D
100
AcDbEntity
  8
YANE
100
AcDbLine
 10
5683.459480159013
 20
4661.807664297206
 30
0.0
 11
5683.459480159013
 21
4491.046891988565
 31
0.0
  0
LINE
  5
1882D
330
1871D
100
AcDbEntity
  8
YANE
100
AcDbLine
 10
5710.775699496681
 20
4491.046891988565
 30
0.0
 11
5710.775699496681
 21
4661.807664297206
 31
0.0
  0
LINE
  5
1882E
330
1871D
100
AcDbEntity
  8
YANE
100
AcDbLine
 10
6260.725699496681
 20
4661.807664297206
 30
0.0
 11
6260.725699496681
 21
4491.046891988565
 31
0.0
  0
LINE
  5
1882F
330
1871D
100
AcDbEntity
  8
YANE
100
AcDbLine
 10
6200.109480159014
 20
4491.046891988565
 30
0.0
 11
6200.109480159014
 21
4661.807664297206
 31
0.0
  0
LINE
  5
18830
330
1871D
100
AcDbEntity
  8
YANE
100
AcDbLine
 10
6216.759480159015
 20
4661.807664297206
 30
0.0
 11
6216.759480159015
 21
4491.046891988565
 31
0.0
  0
LINE
  5
18831
330
1871D
100
AcDbEntity
  8
YANE
100
AcDbLine
 10
6244.075699496683
 20
4491.046891988565
 30
0.0
 11
6244.075699496683
 21
4661.807664297206
 31
0.0
  0
LINE
  5
18832
330
1871D
100
AcDbEntity
  8
YANE
100
AcDbLine
 10
6394.025699496683
 20
4661.807664297206
 30
0.0
 11
6394.025699496683
 21
4491.046891988565
 31
0.0
  0
LINE
  5
18833
330
1871D
100
AcDbEntity
  8
YANE
100
AcDbLine
 10
6333.409480159012
 20
4491.046891988565
 30
0.0
 11
6333.409480159012
 21
4661.807664297206
 31
0.0
  0
LINE
  5
18834
330
1871D
100
AcDbEntity
  8
YANE
100
AcDbLine
 10
6350.059480159013
 20
4661.807664297206
 30
0.0
 11
6350.059480159013
 21
4491.046891988565
 31
0.0
  0
LINE
  5
18835
330
1871D
100
AcDbEntity
  8
YANE
100
AcDbLine
 10
6377.375699496681
 20
4491.046891988565
 30
0.0
 11
6377.375699496681
 21
4661.807664297206
 31
0.0
  0
LINE
  5
18836
330
1871D
100
AcDbEntity
  8
YANE
100
AcDbLine
 10
6527.325699496683
 20
4661.807664297206
 30
0.0
 11
6527.325699496683
 21
4491.046891988565
 31
0.0
  0
LINE
  5
18837
330
1871D
100
AcDbEntity
  8
YANE
100
AcDbLine
 10
6466.709480159012
 20
4491.046891988565
 30
0.0
 11
6466.709480159012
 21
4661.807664297206
 31
0.0
  0
LINE
  5
18838
330
1871D
100
AcDbEntity
  8
YANE
100
AcDbLine
 10
6483.359480159015
 20
4661.807664297206
 30
0.0
 11
6483.359480159015
 21
4491.046891988565
 31
0.0
  0
LINE
  5
18839
330
1871D
100
AcDbEntity
  8
YANE
100
AcDbLine
 10
6510.675699496681
 20
4491.046891988565
 30
0.0
 11
6510.675699496681
 21
4661.807664297206
 31
0.0
  0
LINE
  5
1883A
330
1871D
100
AcDbEntity
  8
YANE
100
AcDbLine
 10
6660.625699496684
 20
4661.807664297206
 30
0.0
 11
6660.625699496684
 21
4491.046891988565
 31
0.0
  0
LINE
  5
1883B
330
1871D
100
AcDbEntity
  8
YANE
100
AcDbLine
 10
6600.009480159013
 20
4491.046891988565
 30
0.0
 11
6600.009480159013
 21
4661.807664297206
 31
0.0
  0
LINE
  5
1883C
330
1871D
100
AcDbEntity
  8
YANE
100
AcDbLine
 10
6616.659480159014
 20
4661.807664297206
 30
0.0
 11
6616.659480159014
 21
4491.046891988565
 31
0.0
  0
LINE
  5
1883D
330
1871D
100
AcDbEntity
  8
YANE
100
AcDbLine
 10
6643.975699496682
 20
4491.046891988565
 30
0.0
 11
6643.975699496682
 21
4661.807664297206
 31
0.0
  0
LINE
  5
1883E
330
1871D
100
AcDbEntity
  8
YANE
100
AcDbLine
 10
6793.925699496682
 20
4661.807664297206
 30
0.0
 11
6793.925699496682
 21
4491.046891988565
 31
0.0
  0
LINE
  5
1883F
330
1871D
100
AcDbEntity
  8
YANE
100
AcDbLine
 10
6733.309480159012
 20
4491.046891988565
 30
0.0
 11
6733.309480159012
 21
4661.807664297206
 31
0.0
  0
LINE
  5
18840
330
1871D
100
AcDbEntity
  8
YANE
100
AcDbLine
 10
6749.959480159017
 20
4661.807664297206
 30
0.0
 11
6749.959480159017
 21
4491.046891988565
 31
0.0
  0
LINE
  5
18841
330
1871D
100
AcDbEntity
  8
YANE
100
AcDbLine
 10
6777.275699496681
 20
4491.046891988565
 30
0.0
 11
6777.275699496681
 21
4661.807664297206
 31
0.0
  0
LINE
  5
18842
330
1871D
100
AcDbEntity
  8
YANE
100
AcDbLine
 10
7281.959480159001
 20
4661.807664297202
 30
0.0
 11
7281.959480159001
 21
4491.046891988563
 31
0.0
  0
LINE
  5
18843
330
1871D
100
AcDbEntity
  8
YANE
100
AcDbLine
 10
7265.309480159003
 20
4491.046891988563
 30
0.0
 11
7265.309480159003
 21
4661.807664297202
 31
0.0
  0
LINE
  5
18844
330
1871D
100
AcDbEntity
  8
YANE
100
AcDbLine
 10
7175.975699496682
 20
4491.046891988563
 30
0.0
 11
7175.975699496682
 21
4661.807664297202
 31
0.0
  0
LINE
  5
18845
330
1871D
100
AcDbEntity
  8
YANE
100
AcDbLine
 10
7148.659480159001
 20
4661.807664297202
 30
0.0
 11
7148.659480159001
 21
4491.046891988563
 31
0.0
  0
LINE
  5
18846
330
1871D
100
AcDbEntity
  8
YANE
100
AcDbLine
 10
7132.009480159002
 20
4491.046891988563
 30
0.0
 11
7132.009480159002
 21
4661.807664297202
 31
0.0
  0
LINE
  5
18847
330
1871D
100
AcDbEntity
  8
YANE
100
AcDbLine
 10
7192.625699496685
 20
4661.807664297202
 30
0.0
 11
7192.625699496685
 21
4491.046891988563
 31
0.0
  0
LINE
  5
18848
330
1871D
100
AcDbEntity
  8
YANE
100
AcDbLine
 10
7015.359480159013
 20
4661.807664297202
 30
0.0
 11
7015.359480159013
 21
4491.046891988563
 31
0.0
  0
LINE
  5
18849
330
1871D
100
AcDbEntity
  8
YANE
100
AcDbLine
 10
6998.709480159011
 20
4491.046891988563
 30
0.0
 11
6998.709480159011
 21
4661.807664297202
 31
0.0
  0
LINE
  5
1884A
330
1871D
100
AcDbEntity
  8
KERABA
100
AcDbLine
 10
4023.617589827853
 20
4444.63979884087
 30
0.0
 11
4017.617589827852
 21
4444.63979884087
 31
0.0
  0
LINE
  5
1884B
330
1871D
100
AcDbEntity
  8
KERABA
100
AcDbLine
 10
4023.617589827853
 20
4792.546798568531
 30
0.0
 11
4017.617589827852
 21
4792.546798568531
 31
0.0
  0
LINE
  5
1884C
330
1871D
100
AcDbEntity
  8
KERABA
100
AcDbLine
 10
7283.617589827841
 20
4444.639798840869
 30
0.0
 11
7289.617589827841
 21
4444.639798840869
 31
0.0
  0
LINE
  5
1884D
330
1871D
100
AcDbEntity
  8
KERABA
100
AcDbLine
 10
7283.617589827841
 20
4792.54679856853
 30
0.0
 11
7289.617589827841
 21
4792.54679856853
 31
0.0
  0
LINE
  5
1884E
330
1871D
100
AcDbEntity
  8
MOYA
100
AcDbLine
 10
4286.117589827848
 20
4778.585475955849
 30
0.0
 11
7021.117589827857
 21
4778.585475955845
 31
0.0
  0
LINE
  5
1884F
330
1871D
100
AcDbEntity
  8
MOYA
100
AcDbLine
 10
4286.117589827848
 20
4745.815801875138
 30
0.0
 11
7021.117589827851
 21
4745.815801875145
 31
0.0
  0
LINE
  5
18850
330
1871D
100
AcDbEntity
  8
MOYA
100
AcDbLine
 10
4288.41758982785
 20
4736.545777321465
 30
0.0
 11
7018.817589827849
 21
4736.545777321462
 31
0.0
  0
LINE
  5
18851
330
1871D
100
AcDbEntity
  8
MOYA
100
AcDbLine
 10
4288.41758982785
 20
4703.776106225453
 30
0.0
 11
7018.817589827849
 21
4703.776106225453
 31
0.0
  0
LINE
  5
18852
330
1871D
100
AcDbEntity
  8
MOYA
100
AcDbLine
 10
4288.41758982785
 20
4661.807664297206
 30
0.0
 11
7018.817589827857
 21
4661.807664297202
 31
0.0
  0
LINE
  5
18853
330
1871D
100
AcDbEntity
  8
MOYA
100
AcDbLine
 10
7086.11758982784
 20
4778.585475955845
 30
0.0
 11
7283.617589827841
 21
4778.585475955849
 31
0.0
  0
LINE
  5
18854
330
1871D
100
AcDbEntity
  8
MOYA
100
AcDbLine
 10
7088.417589827841
 20
4661.807664297202
 30
0.0
 11
7283.617589827841
 21
4661.807664297202
 31
0.0
  0
LINE
  5
18855
330
1871D
100
AcDbEntity
  8
MOYA
100
AcDbLine
 10
7088.417589827841
 20
4703.776106225453
 30
0.0
 11
7283.617589827841
 21
4703.776106225453
 31
0.0
  0
LINE
  5
18856
330
1871D
100
AcDbEntity
  8
MOYA
100
AcDbLine
 10
7088.417589827841
 20
4736.545777321462
 30
0.0
 11
7283.617589827841
 21
4736.545777321462
 31
0.0
  0
LINE
  5
18857
330
1871D
100
AcDbEntity
  8
MOYA
100
AcDbLine
 10
7086.11758982784
 20
4745.815801875145
 30
0.0
 11
7283.617589827841
 21
4745.815801875145
 31
0.0
  0
LINE
  5
18858
330
1871D
100
AcDbEntity
  8
MOYA
100
AcDbLine
 10
4017.61758982785
 20
4736.545777321465
 30
0.0
 11
4218.817589827851
 21
4736.545777321465
 31
0.0
  0
LINE
  5
18859
330
1871D
100
AcDbEntity
  8
MOYA
100
AcDbLine
 10
4017.61758982785
 20
4778.585475955848
 30
0.0
 11
4221.117589827852
 21
4778.585475955849
 31
0.0
  0
LINE
  5
1885A
330
1871D
100
AcDbEntity
  8
MOYA
100
AcDbLine
 10
4017.61758982785
 20
4661.807664297206
 30
0.0
 11
4218.817589827852
 21
4661.807664297207
 31
0.0
  0
LINE
  5
1885B
330
1871D
100
AcDbEntity
  8
MOYA
100
AcDbLine
 10
4017.61758982785
 20
4703.776106225453
 30
0.0
 11
4218.817589827851
 21
4703.776106225453
 31
0.0
  0
LINE
  5
1885C
330
1871D
100
AcDbEntity
  8
MOYA
100
AcDbLine
 10
4017.61758982785
 20
4745.815801875144
 30
0.0
 11
4221.11758982785
 21
4745.815801875144
 31
0.0
  0
LINE
  5
1885D
330
1871D
100
AcDbEntity
  8
MOYA
100
AcDbLine
 10
4017.61758982785
 20
4790.464181683073
 30
0.0
 11
4017.61758982785
 21
4661.807664297206
 31
0.0
  0
LINE
  5
1885E
330
1871D
100
AcDbEntity
  8
MOYA
100
AcDbLine
 10
4286.117589827848
 20
4787.855497524842
 30
0.0
 11
7021.117589827857
 21
4787.855497524833
 31
0.0
  0
LINE
  5
1885F
330
1871D
100
AcDbEntity
  8
MOYA
100
AcDbLine
 10
7086.11758982784
 20
4787.855497524833
 30
0.0
 11
7283.617589827841
 21
4787.855497524833
 31
0.0
  0
LINE
  5
18860
330
1871D
100
AcDbEntity
  8
MOYA
100
AcDbLine
 10
7289.617589827841
 20
4790.464181683073
 30
0.0
 11
7289.617589827841
 21
4661.807664297202
 31
0.0
  0
LINE
  5
18861
330
1871D
100
AcDbEntity
  8
MOYA
100
AcDbLine
 10
4017.61758982785
 20
4787.855497524835
 30
0.0
 11
4221.117589827852
 21
4787.855497524835
 31
0.0
  0
LINE
  5
18862
330
1871D
100
AcDbEntity
  8
TOI
100
AcDbLine
 10
4017.61758982785
 20
4430.63979884087
 30
0.0
 11
4017.61758982785
 21
4491.046891988565
 31
0.0
  0
LINE
  5
18863
330
1871D
100
AcDbEntity
  8
TOI
100
AcDbLine
 10
4218.817589827851
 20
4491.046891988565
 30
0.0
 11
4017.61758982785
 21
4491.046891988565
 31
0.0
  0
LINE
  5
18864
330
1871D
100
AcDbEntity
  8
TOI
100
AcDbLine
 10
4218.817589827851
 20
4463.832095798625
 30
0.0
 11
4017.61758982785
 21
4463.832095798625
 31
0.0
  0
LINE
  5
18865
330
1871D
100
AcDbEntity
  8
TOI
100
AcDbLine
 10
4221.11758982785
 20
4430.63979884087
 30
0.0
 11
4017.61758982785
 21
4430.63979884087
 31
0.0
  0
LINE
  5
18866
330
1871D
100
AcDbEntity
  8
TOI
100
AcDbLine
 10
7088.417589827841
 20
4463.832095798625
 30
0.0
 11
7283.617589827841
 21
4463.832095798625
 31
0.0
  0
LINE
  5
18867
330
1871D
100
AcDbEntity
  8
TOI
100
AcDbLine
 10
4286.117589827848
 20
4463.832095798625
 30
0.0
 11
7018.817589827857
 21
4463.832095798625
 31
0.0
  0
LINE
  5
18868
330
1871D
100
AcDbEntity
  8
U2
100
AcDbLine
 10
4221.11758982785
 20
4717.748876394193
 30
0.0
 11
4221.11758982785
 21
4675.546798568535
 31
0.0
  0
LINE
  5
18869
330
1871D
100
AcDbEntity
  8
U2
100
AcDbLine
 10
4218.817589827851
 20
4740.546798568529
 30
0.0
 11
4218.817589827851
 21
4675.546798568537
 31
0.0
  0
LINE
  5
1886A
330
1871D
100
AcDbEntity
  8
U2
100
AcDbLine
 10
4218.817589827851
 20
4675.546798568537
 30
0.0
 11
4221.117589827854
 21
4675.546798568537
 31
0.0
  0
LINE
  5
1886B
330
1871D
100
AcDbEntity
  8
U2
100
AcDbLine
 10
4286.117589827848
 20
4717.748876394193
 30
0.0
 11
4286.117589827848
 21
4675.546798568537
 31
0.0
  0
LINE
  5
1886C
330
1871D
100
AcDbEntity
  8
U2
100
AcDbLine
 10
4288.41758982785
 20
4740.546798568529
 30
0.0
 11
4288.41758982785
 21
4675.546798568537
 31
0.0
  0
LINE
  5
1886D
330
1871D
100
AcDbEntity
  8
U2
100
AcDbLine
 10
4288.41758982785
 20
4675.546798568537
 30
0.0
 11
4286.117589827846
 21
4675.546798568537
 31
0.0
  0
LINE
  5
1886E
330
1871D
100
AcDbEntity
  8
U2
100
AcDbLine
 10
4286.117589827848
 20
4740.546798568529
 30
0.0
 11
4288.41758982785
 21
4740.546798568529
 31
0.0
  0
LINE
  5
1886F
330
1871D
100
AcDbEntity
  8
1PL-S1
100
AcDbLine
 10
4280.117589827844
 20
4711.546798568533
 30
0.0
 11
4294.417589827843
 21
4711.546798568533
 31
0.0
  0
LINE
  5
18870
330
1871D
100
AcDbEntity
  8
U2
100
AcDbLine
 10
4221.11758982785
 20
4740.546798568529
 30
0.0
 11
4218.817589827851
 21
4740.546798568529
 31
0.0
  0
LINE
  5
18871
330
1871D
100
AcDbEntity
  8
1PL-S1
100
AcDbLine
 10
4227.117589827858
 20
4711.546798568533
 30
0.0
 11
4212.817589827857
 21
4711.546798568533
 31
0.0
  0
LINE
  5
18872
330
1871D
100
AcDbEntity
  8
U2
100
AcDbLine
 10
4222.937067797177
 20
4790.464181683073
 30
0.0
 11
4286.117589827848
 21
4717.748876394193
 31
0.0
  0
LINE
  5
18873
330
1871D
100
AcDbEntity
  8
U2
100
AcDbLine
 10
4221.11758982785
 20
4717.748876394193
 30
0.0
 11
4284.298111858524
 21
4790.464181683073
 31
0.0
  0
LINE
  5
18874
330
1871D
100
AcDbEntity
  8
TOI
100
AcDbLine
 10
4286.117589827848
 20
4430.639798840869
 30
0.0
 11
7021.117589827851
 21
4430.639798840869
 31
0.0
  0
LINE
  5
18875
330
1871D
100
AcDbEntity
  8
TOI
100
AcDbLine
 10
4286.117589827848
 20
4491.046891988565
 30
0.0
 11
7018.817589827857
 21
4491.046891988563
 31
0.0
  0
LINE
  5
18876
330
1871D
100
AcDbEntity
  8
TOI
100
AcDbLine
 10
7086.11758982784
 20
4430.639798840869
 30
0.0
 11
7289.617589827841
 21
4430.639798840869
 31
0.0
  0
LINE
  5
18877
330
1871D
100
AcDbEntity
  8
TOI
100
AcDbLine
 10
7088.417589827841
 20
4491.046891988563
 30
0.0
 11
7283.617589827841
 21
4491.046891988563
 31
0.0
  0
LINE
  5
18878
330
1871D
100
AcDbEntity
  8
TOI
100
AcDbLine
 10
7289.617589827841
 20
4430.639798840869
 30
0.0
 11
7289.617589827841
 21
4491.046891988563
 31
0.0
  0
LINE
  5
18879
330
1871D
100
AcDbEntity
  8
U2
100
AcDbLine
 10
7018.81758982785
 20
4675.546798568535
 30
0.0
 11
7021.117589827857
 21
4675.546798568535
 31
0.0
  0
LINE
  5
1887A
330
1871D
100
AcDbEntity
  8
U2
100
AcDbLine
 10
7018.81758982785
 20
4740.546798568528
 30
0.0
 11
7018.81758982785
 21
4675.546798568535
 31
0.0
  0
LINE
  5
1887B
330
1871D
100
AcDbEntity
  8
1PL-S1
100
AcDbLine
 10
7027.117589827859
 20
4711.546798568533
 30
0.0
 11
7012.817589827858
 21
4711.546798568533
 31
0.0
  0
LINE
  5
1887C
330
1871D
100
AcDbEntity
  8
U2
100
AcDbLine
 10
7021.117589827851
 20
4740.546798568528
 30
0.0
 11
7018.81758982785
 21
4740.546798568528
 31
0.0
  0
LINE
  5
1887D
330
1871D
100
AcDbEntity
  8
1PL-S1
100
AcDbLine
 10
7080.11758982784
 20
4711.546798568533
 30
0.0
 11
7094.417589827833
 21
4711.546798568533
 31
0.0
  0
LINE
  5
1887E
330
1871D
100
AcDbEntity
  8
U2
100
AcDbLine
 10
7088.417589827841
 20
4675.546798568535
 30
0.0
 11
7086.11758982784
 21
4675.546798568535
 31
0.0
  0
LINE
  5
1887F
330
1871D
100
AcDbEntity
  8
U2
100
AcDbLine
 10
7088.417589827841
 20
4740.546798568528
 30
0.0
 11
7088.417589827841
 21
4675.546798568535
 31
0.0
  0
LINE
  5
18880
330
1871D
100
AcDbEntity
  8
U2
100
AcDbLine
 10
7086.11758982784
 20
4740.546798568528
 30
0.0
 11
7088.417589827841
 21
4740.546798568528
 31
0.0
  0
LINE
  5
18881
330
1871D
100
AcDbEntity
  8
U2
100
AcDbLine
 10
7021.117589827851
 20
4717.748876394193
 30
0.0
 11
7084.298111858524
 21
4790.464181683073
 31
0.0
  0
LINE
  5
18882
330
1871D
100
AcDbEntity
  8
U2
100
AcDbLine
 10
7022.937067797177
 20
4790.464181683073
 30
0.0
 11
7086.11758982784
 21
4717.748876394193
 31
0.0
  0
LINE
  5
18883
330
1871D
100
AcDbEntity
  8
U2
100
AcDbLine
 10
7086.11758982784
 20
4717.748876394193
 30
0.0
 11
7086.11758982784
 21
4675.546798568535
 31
0.0
  0
LINE
  5
18884
330
1871D
100
AcDbEntity
  8
U2
100
AcDbLine
 10
7021.117589827851
 20
4717.748876394193
 30
0.0
 11
7021.117589827851
 21
4675.546798568535
 31
0.0
  0
LINE
  5
18885
330
1871D
100
AcDbEntity
  8
HANAKAKUSHI
100
AcDbLine
 10
4017.61758982785
 20
4892.546798568533
 30
0.0
 11
4017.61758982785
 21
4790.464181683076
 31
0.0
  0
LINE
  5
18886
330
1871D
100
AcDbEntity
  8
HANAKAKUSHI
100
AcDbLine
 10
7289.617589827841
 20
4892.54679856853
 30
0.0
 11
7289.617589827841
 21
4790.464181683073
 31
0.0
  0
LINE
  5
18887
330
1871D
100
AcDbEntity
  8
1PL-S1
100
AcDbLine
 10
4280.11758982785
 20
4608.829178057431
 30
0.0
 11
4294.417589827848
 21
4608.829178057431
 31
0.0
  0
LINE
  5
18888
330
1871D
100
AcDbEntity
  8
U1
100
AcDbLine
 10
4288.41758982785
 20
4667.032788626018
 30
0.0
 11
4286.117589827848
 21
4667.032788626016
 31
0.0
  0
LINE
  5
18889
330
1871D
100
AcDbEntity
  8
1PL-S1
100
AcDbLine
 10
4280.117589827847
 20
4617.454564165557
 30
0.0
 11
4294.417589827847
 21
4617.454564165557
 31
0.0
  0
LINE
  5
1888A
330
1871D
100
AcDbEntity
  8
1PL-S1
100
AcDbLine
 10
4280.117589827847
 20
4625.895488830996
 30
0.0
 11
4294.417589827847
 21
4625.895488830996
 31
0.0
  0
LINE
  5
1888B
330
1871D
100
AcDbEntity
  8
U1
100
AcDbLine
 10
4218.817589827852
 20
4667.032788626018
 30
0.0
 11
4221.117589827852
 21
4667.032788626016
 31
0.0
  0
LINE
  5
1888C
330
1871D
100
AcDbEntity
  8
1PL-S1
100
AcDbLine
 10
4227.117589827856
 20
4625.895488830996
 30
0.0
 11
4212.817589827856
 21
4625.895488830996
 31
0.0
  0
LINE
  5
1888D
330
1871D
100
AcDbEntity
  8
1PL-S1
100
AcDbLine
 10
4227.117589827856
 20
4617.454564165557
 30
0.0
 11
4212.817589827856
 21
4617.454564165557
 31
0.0
  0
LINE
  5
1888E
330
1871D
100
AcDbEntity
  8
1PL-S1
100
AcDbLine
 10
4227.117589827853
 20
4608.829178057431
 30
0.0
 11
4212.817589827853
 21
4608.829178057431
 31
0.0
  0
LINE
  5
1888F
330
1871D
100
AcDbEntity
  8
1PL-S1
100
AcDbLine
 10
4280.11758982785
 20
4465.546798568535
 30
0.0
 11
4294.417589827848
 21
4465.546798568535
 31
0.0
  0
LINE
  5
18890
330
1871D
100
AcDbEntity
  8
1PL-S1
100
AcDbLine
 10
4280.11758982785
 20
4535.546798568535
 30
0.0
 11
4294.417589827848
 21
4535.546798568535
 31
0.0
  0
LINE
  5
18891
330
1871D
100
AcDbEntity
  8
U1
100
AcDbLine
 10
4286.117589827848
 20
4435.546798568536
 30
0.0
 11
4288.41758982785
 21
4435.546798568536
 31
0.0
  0
LINE
  5
18892
330
1871D
100
AcDbEntity
  8
U1
100
AcDbLine
 10
4221.117589827852
 20
4435.546798568536
 30
0.0
 11
4218.817589827852
 21
4435.546798568536
 31
0.0
  0
LINE
  5
18893
330
1871D
100
AcDbEntity
  8
1PL-S1
100
AcDbLine
 10
4227.117589827853
 20
4535.546798568535
 30
0.0
 11
4212.817589827853
 21
4535.546798568535
 31
0.0
  0
LINE
  5
18894
330
1871D
100
AcDbEntity
  8
1PL-S1
100
AcDbLine
 10
4227.117589827853
 20
4465.546798568535
 30
0.0
 11
4212.817589827853
 21
4465.546798568535
 31
0.0
  0
LINE
  5
18895
330
1871D
100
AcDbEntity
  8
U1
100
AcDbLine
 10
4288.41758982785
 20
4667.032788626018
 30
0.0
 11
4288.41758982785
 21
4435.546798568536
 31
0.0
  0
LINE
  5
18896
330
1871D
100
AcDbEntity
  8
U1
100
AcDbLine
 10
4218.817589827852
 20
4667.032788626018
 30
0.0
 11
4218.817589827852
 21
4435.546798568536
 31
0.0
  0
LINE
  5
18897
330
1871D
100
AcDbEntity
  8
1PL-S1
100
AcDbLine
 10
7027.117589827856
 20
4608.829178057431
 30
0.0
 11
7012.817589827853
 21
4608.829178057431
 31
0.0
  0
LINE
  5
18898
330
1871D
100
AcDbEntity
  8
U1
100
AcDbLine
 10
7018.817589827857
 20
4667.032788626016
 30
0.0
 11
7021.117589827857
 21
4667.032788626015
 31
0.0
  0
LINE
  5
18899
330
1871D
100
AcDbEntity
  8
1PL-S1
100
AcDbLine
 10
7027.117589827856
 20
4617.454564165556
 30
0.0
 11
7012.817589827854
 21
4617.454564165556
 31
0.0
  0
LINE
  5
1889A
330
1871D
100
AcDbEntity
  8
1PL-S1
100
AcDbLine
 10
7027.117589827856
 20
4625.895488830996
 30
0.0
 11
7012.817589827854
 21
4625.895488830996
 31
0.0
  0
LINE
  5
1889B
330
1871D
100
AcDbEntity
  8
1PL-S1
100
AcDbLine
 10
7027.117589827856
 20
4465.546798568535
 30
0.0
 11
7012.817589827853
 21
4465.546798568535
 31
0.0
  0
LINE
  5
1889C
330
1871D
100
AcDbEntity
  8
1PL-S1
100
AcDbLine
 10
7027.117589827856
 20
4535.546798568534
 30
0.0
 11
7012.817589827853
 21
4535.546798568534
 31
0.0
  0
LINE
  5
1889D
330
1871D
100
AcDbEntity
  8
U1
100
AcDbLine
 10
7018.817589827857
 20
4667.032788626016
 30
0.0
 11
7018.817589827857
 21
4435.546798568533
 31
0.0
  0
LINE
  5
1889E
330
1871D
100
AcDbEntity
  8
1PL-S1
100
AcDbLine
 10
7080.11758982784
 20
4625.895488830996
 30
0.0
 11
7094.417589827841
 21
4625.895488830996
 31
0.0
  0
LINE
  5
1889F
330
1871D
100
AcDbEntity
  8
1PL-S1
100
AcDbLine
 10
7080.11758982784
 20
4617.454564165556
 30
0.0
 11
7094.417589827841
 21
4617.454564165556
 31
0.0
  0
LINE
  5
188A0
330
1871D
100
AcDbEntity
  8
U1
100
AcDbLine
 10
7088.417589827841
 20
4667.032788626016
 30
0.0
 11
7086.11758982784
 21
4667.032788626015
 31
0.0
  0
LINE
  5
188A1
330
1871D
100
AcDbEntity
  8
U1
100
AcDbLine
 10
7088.417589827841
 20
4667.032788626016
 30
0.0
 11
7088.417589827841
 21
4435.546798568533
 31
0.0
  0
LINE
  5
188A2
330
1871D
100
AcDbEntity
  8
U1
100
AcDbLine
 10
7086.11758982784
 20
4435.546798568533
 30
0.0
 11
7088.417589827841
 21
4435.546798568533
 31
0.0
  0
LINE
  5
188A3
330
1871D
100
AcDbEntity
  8
1PL-S1
100
AcDbLine
 10
7080.11758982784
 20
4608.829178057431
 30
0.0
 11
7094.417589827841
 21
4608.829178057431
 31
0.0
  0
LINE
  5
188A4
330
1871D
100
AcDbEntity
  8
1PL-S1
100
AcDbLine
 10
7080.11758982784
 20
4535.546798568534
 30
0.0
 11
7094.417589827841
 21
4535.546798568534
 31
0.0
  0
LINE
  5
188A5
330
1871D
100
AcDbEntity
  8
1PL-S1
100
AcDbLine
 10
7080.11758982784
 20
4465.546798568535
 30
0.0
 11
7094.417589827841
 21
4465.546798568535
 31
0.0
  0
LINE
  5
188A6
330
1871D
100
AcDbEntity
  8
U1
100
AcDbLine
 10
4311.117589827849
 20
3375.746798568533
 30
0.0
 11
5628.61758982785
 21
3375.746798568533
 31
0.0
  0
LINE
  5
188A7
330
1871D
100
AcDbEntity
  8
U1
100
AcDbLine
 10
4311.117589827849
 20
3367.346798568533
 30
0.0
 11
5628.61758982785
 21
3367.346798568533
 31
0.0
  0
LINE
  5
188A8
330
1871D
100
AcDbEntity
  8
U1
100
AcDbLine
 10
4311.117589827849
 20
3167.346798568533
 30
0.0
 11
5628.61758982785
 21
3167.346798568533
 31
0.0
  0
LINE
  5
188A9
330
1871D
100
AcDbEntity
  8
U1
100
AcDbLine
 10
4311.117589827849
 20
3175.746798568533
 30
0.0
 11
5628.61758982785
 21
3175.746798568533
 31
0.0
  0
LINE
  5
188AA
330
1871D
100
AcDbEntity
  8
MABASHIRA
100
AcDbLine
 10
5628.61758982785
 20
2951.546798568534
 30
0.0
 11
5628.61758982785
 21
3593.546798568534
 31
0.0
  0
LINE
  5
188AB
330
1871D
100
AcDbEntity
  8
GAKU_FUCHI
100
AcDbLine
 10
4311.117589827852
 20
3593.546798568534
 30
0.0
 11
4311.117589827852
 21
2951.546798568534
 31
0.0
  0
LINE
  5
188AC
330
1871D
100
AcDbEntity
  8
DOU_BUCHI
100
AcDbLine
 10
4286.117589827848
 20
3663.546798568533
 30
0.0
 11
7021.117589827851
 21
3663.546798568533
 31
0.0
  0
LINE
  5
188AD
330
1871D
100
AcDbEntity
  8
DOU_BUCHI
100
AcDbLine
 10
4286.117589827848
 20
3593.546798568534
 30
0.0
 11
7021.117589827854
 21
3593.546798568532
 31
0.0
  0
LINE
  5
188AE
330
1871D
100
AcDbEntity
  8
DOU_BUCHI
100
AcDbLine
 10
4286.117589827848
 20
2881.546798568534
 30
0.0
 11
7021.117589827854
 21
2881.546798568532
 31
0.0
  0
LINE
  5
188AF
330
1871D
100
AcDbEntity
  8
DOU_BUCHI
100
AcDbLine
 10
4286.117589827848
 20
2951.546798568534
 30
0.0
 11
7021.117589827854
 21
2951.546798568532
 31
0.0
  0
LINE
  5
188B0
330
1871D
100
AcDbEntity
  8
U1
100
AcDbLine
 10
5678.617589827847
 20
3175.746798568532
 30
0.0
 11
6996.117589827851
 21
3175.746798568532
 31
0.0
  0
LINE
  5
188B1
330
1871D
100
AcDbEntity
  8
U1
100
AcDbLine
 10
5678.617589827847
 20
3167.346798568532
 30
0.0
 11
6996.117589827851
 21
3167.346798568532
 31
0.0
  0
LINE
  5
188B2
330
1871D
100
AcDbEntity
  8
U1
100
AcDbLine
 10
5678.617589827847
 20
3367.346798568533
 30
0.0
 11
6996.117589827851
 21
3367.346798568532
 31
0.0
  0
LINE
  5
188B3
330
1871D
100
AcDbEntity
  8
U1
100
AcDbLine
 10
5678.617589827847
 20
3375.746798568532
 30
0.0
 11
6996.117589827851
 21
3375.746798568532
 31
0.0
  0
LINE
  5
188B4
330
1871D
100
AcDbEntity
  8
MABASHIRA
100
AcDbLine
 10
5678.617589827847
 20
2951.546798568532
 30
0.0
 11
5678.617589827847
 21
3593.546798568532
 31
0.0
  0
LINE
  5
188B5
330
1871D
100
AcDbEntity
  8
U1
100
AcDbLine
 10
4221.11758982785
 20
2719.546798568534
 30
0.0
 11
4221.11758982785
 21
4675.546798568535
 31
0.0
  0
LINE
  5
188B6
330
1871D
100
AcDbEntity
  8
U1
100
AcDbLine
 10
4286.117589827848
 20
2719.546798568534
 30
0.0
 11
4286.117589827848
 21
4675.546798568535
 31
0.0
  0
LINE
  5
188B7
330
1871D
100
AcDbEntity
  8
U1
100
AcDbLine
 10
4221.11758982785
 20
4675.546798568535
 30
0.0
 11
4286.117589827848
 21
4675.546798568537
 31
0.0
  0
LINE
  5
188B8
330
1871D
100
AcDbEntity
  8
GAKU_FUCHI
100
AcDbLine
 10
6996.117589827851
 20
3593.546798568532
 30
0.0
 11
6996.117589827851
 21
2951.546798568532
 31
0.0
  0
LINE
  5
188B9
330
1871D
100
AcDbEntity
  8
U1
100
AcDbLine
 10
7021.117589827851
 20
2719.546798568533
 30
0.0
 11
7021.117589827851
 21
4675.546798568535
 31
0.0
  0
LINE
  5
188BA
330
1871D
100
AcDbEntity
  8
U1
100
AcDbLine
 10
7086.11758982784
 20
2719.546798568533
 30
0.0
 11
7086.11758982784
 21
4675.546798568535
 31
0.0
  0
LINE
  5
188BB
330
1871D
100
AcDbEntity
  8
U1
100
AcDbLine
 10
7021.117589827851
 20
4675.546798568535
 30
0.0
 11
7086.11758982784
 21
4675.546798568535
 31
0.0
  0
LINE
  5
188BC
330
1871D
100
AcDbEntity
  8
1PL-L1
100
AcDbLine
 10
4253.617589827848
 20
2719.546798568534
 30
0.0
 11
4253.617589827848
 21
5314.54635628565
 31
0.0
  0
LINE
  5
188BD
330
1871D
100
AcDbEntity
  8
1PL-L1
100
AcDbLine
 10
7053.617589827851
 20
2719.546798568533
 30
0.0
 11
7053.617589827851
 21
5314.54635628565
 31
0.0
  0
LINE
  5
188BE
330
1871D
100
AcDbEntity
  8
KISO
100
AcDbLine
 10
3660.580545355291
 20
2669.546798568534
 30
0.0
 11
7391.243147655373
 21
2669.546798568533
 31
0.0
  0
LINE
  5
188BF
330
1871D
100
AcDbEntity
  8
KISO
100
AcDbLine
 10
7253.617589827841
 20
2719.546798568533
 30
0.0
 11
7253.617589827841
 21
2669.546798568533
 31
0.0
  0
LINE
  5
188C0
330
1871D
100
AcDbEntity
  8
KISO
100
AcDbLine
 10
4053.61758982785
 20
2719.546798568534
 30
0.0
 11
4053.61758982785
 21
2669.546798568534
 31
0.0
  0
LINE
  5
188C1
330
1871D
100
AcDbEntity
  8
HIKIDASHI
100
AcDbLine
 10
4298.617589827864
 20
9123.578360600458
 30
0.0
 11
4428.513392662863
 21
8898.592230400382
 31
0.0
  0
TEXT
  5
188C2
330
1871D
100
AcDbEntity
  8
HIKIDASHI
100
AcDbText
 10
4458.513392662864
 20
8943.592230400376
 30
0.0
 40
90.0
  1
母屋金具
  7
02
100
AcDbText
  0
LINE
  5
188C3
330
1871D
100
AcDbEntity
  8
HIKIDASHI
100
AcDbLine
 10
4428.513392662863
 20
8898.592230400382
 30
0.0
 11
4881.85872494478
 21
8898.592230400382
 31
0.0
  0
LINE
  5
188C4
330
1871D
100
AcDbEntity
  8
HIKIDASHI
100
AcDbLine
 10
4562.513452407102
 20
8686.105932498515
 30
0.0
 11
5024.337560525395
 21
8686.105932498515
 31
0.0
  0
TEXT
  5
188C5
330
1871D
100
AcDbEntity
  8
HIKIDASHI
100
AcDbText
 10
4592.513452407103
 20
8731.105932498515
 30
0.0
 40
90.0
  1
屋根受け
  7
02
100
AcDbText
  0
TEXT
  5
188C6
330
1871D
100
AcDbEntity
  8
SUNPOU
100
AcDbText
 10
6075.117589827851
 20
7412.920617280119
 30
0.0
 40
90.0
  1
屋根ピッチ
 41
0.7
  7
01
 72
     4
 11
6253.61758982785
 21
7457.92061728012
 31
0.0
100
AcDbText
  0
TEXT
  5
188C7
330
1871D
100
AcDbEntity
  8
SUNPOU
100
AcDbText
 10
5767.903304113565
 20
7262.920617280122
 30
0.0
 40
90.0
  1
400
 41
0.6666666666666666
  7
00
 72
     1
 11
5853.617589827851
 21
7307.920617280122
 31
0.0
100
AcDbText
 73
     2
  0
LINE
  5
188C8
330
1871D
100
AcDbEntity
  8
SUNPOU
100
AcDbLine
 10
6038.61758982785
 20
7217.920617280118
 30
0.0
 11
5668.617589827853
 21
7217.920617280118
 31
0.0
  0
LINE
  5
188C9
330
1871D
100
AcDbEntity
  8
SUNPOU
100
AcDbLine
 10
5653.617589827852
 20
7697.920617280118
 30
0.0
 11
5653.617589827851
 21
7172.920617280123
 31
0.0
  0
LINE
  5
188CA
330
1871D
100
AcDbEntity
  8
SUNPOU
100
AcDbLine
 10
6053.617589827851
 20
7697.920617280118
 30
0.0
 11
6053.617589827851
 21
7172.920617280123
 31
0.0
  0
TEXT
  5
188CB
330
1871D
100
AcDbEntity
  8
SUNPOU
100
AcDbText
 10
6167.903304113565
 20
7262.920617280122
 30
0.0
 40
90.0
  1
400
 41
0.6666666666666666
  7
00
 72
     1
 11
6253.61758982785
 21
7307.920617280122
 31
0.0
100
AcDbText
 73
     2
  0
LINE
  5
188CC
330
1871D
100
AcDbEntity
  8
SUNPOU
100
AcDbLine
 10
6438.617589827853
 20
7217.920617280118
 30
0.0
 11
6068.617589827852
 21
7217.920617280118
 31
0.0
  0
LINE
  5
188CD
330
1871D
100
AcDbEntity
  8
SUNPOU
100
AcDbLine
 10
6453.617589827851
 20
7697.920617280118
 30
0.0
 11
6453.617589827851
 21
7172.920617280123
 31
0.0
  0
TEXT
  5
188CE
330
1871D
100
AcDbEntity
  8
SUNPOU
100
AcDbText
 10
6567.903304113565
 20
7262.920617280122
 30
0.0
 40
90.0
  1
400
 41
0.6666666666666666
  7
00
 72
     1
 11
6653.617589827852
 21
7307.920617280122
 31
0.0
100
AcDbText
 73
     2
  0
LINE
  5
188CF
330
1871D
100
AcDbEntity
  8
SUNPOU
100
AcDbLine
 10
6838.617589827848
 20
7217.920617280118
 30
0.0
 11
6468.617589827852
 21
7217.920617280118
 31
0.0
  0
LINE
  5
188D0
330
1871D
100
AcDbEntity
  8
SUNPOU
100
AcDbLine
 10
6853.617589827845
 20
7697.920617280118
 30
0.0
 11
6853.617589827845
 21
7172.920617280123
 31
0.0
  0
LINE
  5
188D1
330
1871D
100
AcDbEntity
  8
DOU_BUCHI
100
AcDbLine
 10
4286.117589827851
 20
9818.320617280122
 30
0.0
 11
5367.590811239482
 21
9818.320617280122
 31
0.0
  0
LINE
  5
188D2
330
1871D
100
AcDbEntity
  8
DOU_BUCHI
100
AcDbLine
 10
4286.117589827851
 20
9868.320617280119
 30
0.0
 11
5342.848715818078
 21
9868.320617280119
 31
0.0
  0
LINE
  5
188D3
330
1871D
100
AcDbEntity
  8
HARI
100
AcDbLine
 10
4221.117589827851
 20
9750.920575985237
 30
0.0
 11
4221.117589827851
 21
9879.520646941045
 31
0.0
  0
LINE
  5
188D4
330
1871D
100
AcDbEntity
  8
HARI
100
AcDbLine
 10
4286.117589827851
 20
9750.920575985237
 30
0.0
 11
4286.117589827851
 21
9879.520646941045
 31
0.0
  0
LINE
  5
188D5
330
1871D
100
AcDbEntity
  8
HARI
100
AcDbLine
 10
4221.117589827851
 20
9160.920575985242
 30
0.0
 11
4221.117589827851
 21
9714.920593959389
 31
0.0
  0
LINE
  5
188D6
330
1871D
100
AcDbEntity
  8
HARI
100
AcDbLine
 10
4286.117589827851
 20
9160.920575985242
 30
0.0
 11
4286.117589827851
 21
9714.920593959389
 31
0.0
  0
LINE
  5
188D7
330
1871D
100
AcDbEntity
  8
HARI
100
AcDbLine
 10
4221.117589827851
 20
8570.920575985239
 30
0.0
 11
4221.117589827851
 21
9124.920593959393
 31
0.0
  0
LINE
  5
188D8
330
1871D
100
AcDbEntity
  8
HARI
100
AcDbLine
 10
4286.117589827846
 20
8570.920575985239
 30
0.0
 11
4286.117589827851
 21
9124.920593959393
 31
0.0
  0
LINE
  5
188D9
330
1871D
100
AcDbEntity
  8
MOYA
100
AcDbLine
 10
4018.61758982785
 20
9750.920575985237
 30
0.0
 11
4018.61758982785
 21
9714.920593959389
 31
0.0
  0
LINE
  5
188DA
330
1871D
100
AcDbEntity
  8
MOYA
100
AcDbLine
 10
4018.61758982785
 20
9160.920575985235
 30
0.0
 11
4018.61758982785
 21
9124.920593959393
 31
0.0
  0
LINE
  5
188DB
330
1871D
100
AcDbEntity
  8
MOYA
100
AcDbLine
 10
4018.61758982785
 20
8570.920575985239
 30
0.0
 11
4018.61758982785
 21
8534.920593959389
 31
0.0
  0
LINE
  5
188DC
330
1871D
100
AcDbEntity
  8
HARI
100
AcDbLine
 10
4221.117589827851
 20
7980.920575985236
 30
0.0
 11
4221.117589827851
 21
8534.920593959393
 31
0.0
  0
LINE
  5
188DD
330
1871D
100
AcDbEntity
  8
HARI
100
AcDbLine
 10
4286.117589827846
 20
7980.920575985236
 30
0.0
 11
4286.117589827851
 21
8534.920593959393
 31
0.0
  0
LINE
  5
188DE
330
1871D
100
AcDbEntity
  8
MOYA_KANAGU
100
AcDbLine
 10
4283.617589827851
 20
9801.520646941042
 30
0.0
 11
4283.617589827851
 21
9750.920575985237
 31
0.0
  0
ARC
  5
188DF
330
1871D
100
AcDbEntity
  8
MOYA_KANAGU
100
AcDbCircle
 10
4278.61758982785
 20
9801.520646941042
 30
0.0
 40
5.0
100
AcDbArc
 50
0.0
 51
90.0
  0
CIRCLE
  5
188E0
330
1871D
100
AcDbEntity
  8
MOYA_KANAGU
100
AcDbCircle
 10
4253.617589827848
 20
9791.520646941044
 30
0.0
 40
9.0
  0
LINE
  5
188E1
330
1871D
100
AcDbEntity
  8
MOYA_KANAGU
100
AcDbLine
 10
4223.617589827851
 20
9750.920575985237
 30
0.0
 11
4223.617589827851
 21
9801.520646941042
 31
0.0
  0
ARC
  5
188E2
330
1871D
100
AcDbEntity
  8
MOYA_KANAGU
100
AcDbCircle
 10
4228.61758982785
 20
9801.520646941042
 30
0.0
 40
5.0
100
AcDbArc
 50
90.0
 51
180.0
  0
LINE
  5
188E3
330
1871D
100
AcDbEntity
  8
MOYA_KANAGU
100
AcDbLine
 10
4228.61758982785
 20
9806.520646941043
 30
0.0
 11
4278.61758982785
 21
9806.520646941043
 31
0.0
  0
LINE
  5
188E4
330
1871D
100
AcDbEntity
  8
MOYA_KANAGU
100
AcDbLine
 10
4283.617589827851
 20
9211.520646941044
 30
0.0
 11
4283.617589827851
 21
9160.920575985235
 31
0.0
  0
ARC
  5
188E5
330
1871D
100
AcDbEntity
  8
MOYA_KANAGU
100
AcDbCircle
 10
4278.61758982785
 20
9211.520646941044
 30
0.0
 40
5.0
100
AcDbArc
 50
0.0
 51
90.0
  0
CIRCLE
  5
188E6
330
1871D
100
AcDbEntity
  8
MOYA_KANAGU
100
AcDbCircle
 10
4253.617589827848
 20
9201.520646941045
 30
0.0
 40
9.0
  0
LINE
  5
188E7
330
1871D
100
AcDbEntity
  8
MOYA_KANAGU
100
AcDbLine
 10
4223.617589827851
 20
9160.920575985235
 30
0.0
 11
4223.617589827851
 21
9211.520646941044
 31
0.0
  0
ARC
  5
188E8
330
1871D
100
AcDbEntity
  8
MOYA_KANAGU
100
AcDbCircle
 10
4228.61758982785
 20
9211.520646941044
 30
0.0
 40
5.0
100
AcDbArc
 50
90.0
 51
180.0
  0
LINE
  5
188E9
330
1871D
100
AcDbEntity
  8
MOYA_KANAGU
100
AcDbLine
 10
4228.61758982785
 20
9216.520646941047
 30
0.0
 11
4278.61758982785
 21
9216.520646941047
 31
0.0
  0
LINE
  5
188EA
330
1871D
100
AcDbEntity
  8
MOYA_KANAGU
100
AcDbLine
 10
4283.617589827851
 20
8621.520646941041
 30
0.0
 11
4283.617589827851
 21
8570.920575985239
 31
0.0
  0
ARC
  5
188EB
330
1871D
100
AcDbEntity
  8
MOYA_KANAGU
100
AcDbCircle
 10
4278.61758982785
 20
8621.520646941041
 30
0.0
 40
5.0
100
AcDbArc
 50
0.0
 51
90.0
  0
CIRCLE
  5
188EC
330
1871D
100
AcDbEntity
  8
MOYA_KANAGU
100
AcDbCircle
 10
4253.617589827848
 20
8611.520646941047
 30
0.0
 40
9.0
  0
LINE
  5
188ED
330
1871D
100
AcDbEntity
  8
MOYA_KANAGU
100
AcDbLine
 10
4223.617589827851
 20
8570.920575985239
 30
0.0
 11
4223.617589827851
 21
8621.520646941041
 31
0.0
  0
ARC
  5
188EE
330
1871D
100
AcDbEntity
  8
MOYA_KANAGU
100
AcDbCircle
 10
4228.61758982785
 20
8621.520646941041
 30
0.0
 40
5.0
100
AcDbArc
 50
90.0
 51
180.0
  0
LINE
  5
188EF
330
1871D
100
AcDbEntity
  8
MOYA_KANAGU
100
AcDbLine
 10
4228.61758982785
 20
8626.520646941044
 30
0.0
 11
4278.61758982785
 21
8626.520646941044
 31
0.0
  0
CIRCLE
  5
188F0
330
1871D
100
AcDbEntity
  8
MOYA_KANAGU
100
AcDbCircle
 10
4253.617589827848
 20
8021.520646941047
 30
0.0
 40
9.0
  0
ARC
  5
188F1
330
1871D
100
AcDbEntity
  8
MOYA_KANAGU
100
AcDbCircle
 10
4278.61758982785
 20
8031.520646941043
 30
0.0
 40
5.0
100
AcDbArc
 50
0.0
 51
90.0
  0
ARC
  5
188F2
330
1871D
100
AcDbEntity
  8
MOYA_KANAGU
100
AcDbCircle
 10
4228.61758982785
 20
8031.520646941043
 30
0.0
 40
5.0
100
AcDbArc
 50
90.0
 51
180.0
  0
LINE
  5
188F3
330
1871D
100
AcDbEntity
  8
MOYA_KANAGU
100
AcDbLine
 10
4283.617589827851
 20
8031.520646941043
 30
0.0
 11
4283.617589827851
 21
7980.920575985236
 31
0.0
  0
LINE
  5
188F4
330
1871D
100
AcDbEntity
  8
MOYA_KANAGU
100
AcDbLine
 10
4223.617589827851
 20
7980.920575985236
 30
0.0
 11
4223.617589827851
 21
8031.520646941043
 31
0.0
  0
LINE
  5
188F5
330
1871D
100
AcDbEntity
  8
U1
100
AcDbLine
 10
4221.117589827851
 20
7879.520646941045
 30
0.0
 11
4286.117589827851
 21
7879.520646941045
 31
0.0
  0
ARC
  5
188F6
330
1871D
100
AcDbEntity
  8
U1
100
AcDbCircle
 10
4253.61758982785
 20
7890.520646941046
 30
0.0
 40
36.0
100
AcDbArc
 50
205.4743694512155
 51
334.5256305487843
  0
LINE
  5
188F7
330
1871D
100
AcDbEntity
  8
U1
100
AcDbLine
 10
4221.117589827851
 20
7875.036784373843
 30
0.0
 11
4221.117589827851
 21
7879.520646941045
 31
0.0
  0
LINE
  5
188F8
330
1871D
100
AcDbEntity
  8
U1
100
AcDbLine
 10
4286.117589827851
 20
7879.520646941045
 30
0.0
 11
4286.117589827851
 21
7875.03678437384
 31
0.0
  0
LINE
  5
188F9
330
1871D
100
AcDbEntity
  8
HARI
100
AcDbLine
 10
4221.117589827851
 20
7879.520646941045
 30
0.0
 11
4221.117589827851
 21
7944.920593959388
 31
0.0
  0
LINE
  5
188FA
330
1871D
100
AcDbEntity
  8
HARI
100
AcDbLine
 10
4286.117589827846
 20
7879.520646941045
 30
0.0
 11
4286.117589827846
 21
7944.920593959388
 31
0.0
  0
LINE
  5
188FB
330
1871D
100
AcDbEntity
  8
MOYA
100
AcDbLine
 10
4018.61758982785
 20
7980.920575985236
 30
0.0
 11
4018.61758982785
 21
7944.920593959388
 31
0.0
  0
LINE
  5
188FC
330
1871D
100
AcDbEntity
  8
MOYA_KANAGU
100
AcDbLine
 10
4228.61758982785
 20
8036.520646941042
 30
0.0
 11
4278.61758982785
 21
8036.520646941042
 31
0.0
  0
LINE
  5
188FD
330
1871D
100
AcDbEntity
  8
MOYA
100
AcDbLine
 10
4017.61758982785
 20
9750.920575985237
 30
0.0
 11
5400.943176301973
 21
9750.920575985237
 31
0.0
  0
LINE
  5
188FE
330
1871D
100
AcDbEntity
  8
MOYA
100
AcDbLine
 10
4017.61758982785
 20
9714.920593959389
 30
0.0
 11
5418.757476111021
 21
9714.920593959389
 31
0.0
  0
LINE
  5
188FF
330
1871D
100
AcDbEntity
  8
MOYA
100
AcDbLine
 10
4017.61758982785
 20
9160.920575985242
 30
0.0
 11
5692.899902274541
 21
9160.920575985242
 31
0.0
  0
LINE
  5
18900
330
1871D
100
AcDbEntity
  8
MOYA
100
AcDbLine
 10
4017.61758982785
 20
9124.920593959393
 30
0.0
 11
5710.714202083586
 21
9124.920593959393
 31
0.0
  0
LINE
  5
18901
330
1871D
100
AcDbEntity
  8
MOYA
100
AcDbLine
 10
4017.61758982785
 20
8570.920575985239
 30
0.0
 11
5984.85662824711
 21
8570.920575985239
 31
0.0
  0
LINE
  5
18902
330
1871D
100
AcDbEntity
  8
MOYA
100
AcDbLine
 10
4017.61758982785
 20
8534.920593959389
 30
0.0
 11
6002.670928056158
 21
8534.920593959389
 31
0.0
  0
LINE
  5
18903
330
1871D
100
AcDbEntity
  8
MOYA
100
AcDbLine
 10
4018.61758982785
 20
7944.920593959388
 30
0.0
 11
6294.627654028727
 21
7944.920593959388
 31
0.0
  0
LINE
  5
18904
330
1871D
100
AcDbEntity
  8
MOYA
100
AcDbLine
 10
4018.61758982785
 20
7980.920575985236
 30
0.0
 11
6276.81335421968
 21
7980.920575985239
 31
0.0
  0
LINE
  5
18905
330
1871D
100
AcDbEntity
  8
2PL-L2
100
AcDbLine
 10
4017.61758982785
 20
10136.92061728012
 30
0.0
 11
5209.934179214295
 21
10136.92061728012
 31
0.0
  0
LINE
  5
18906
330
1871D
100
AcDbEntity
  8
2PL-L2
100
AcDbLine
 10
4017.61758982785
 20
7727.920617280123
 30
0.0
 11
6401.844636715036
 21
7728.251429807762
 31
0.0
  0
LINE
  5
18907
330
1871D
100
AcDbEntity
  8
2PL-L2
100
AcDbLine
 10
4017.61758982785
 20
7727.920617280123
 30
0.0
 11
4017.61758982785
 21
10136.92061728012
 31
0.0
  0
LINE
  5
18908
330
1871D
100
AcDbEntity
  8
1PL-L1
100
AcDbLine
 10
4253.617589827848
 20
7217.83055528985
 30
0.0
 11
4253.617589827848
 21
9967.200257251249
 31
0.0
  0
LINE
  5
18909
330
1871D
100
AcDbEntity
  8
TOI
100
AcDbLine
 10
7289.617589827852
 20
10115.43040521319
 30
0.0
 11
7289.617589827852
 21
10136.92061728012
 31
0.0
  0
CIRCLE
  5
1890A
330
1871D
100
AcDbEntity
  8
TOI
100
AcDbCircle
 10
5653.617589827851
 20
10118.78541358609
 30
0.0
 40
2.5
  0
CIRCLE
  5
1890B
330
1871D
100
AcDbEntity
  8
TOI
100
AcDbCircle
 10
5253.61758982785
 20
10118.78541358609
 30
0.0
 40
2.5
  0
CIRCLE
  5
1890C
330
1871D
100
AcDbEntity
  8
YANE
100
AcDbCircle
 10
5653.617589827851
 20
9732.920617280122
 30
0.0
 40
2.5
  0
CIRCLE
  5
1890D
330
1871D
100
AcDbEntity
  8
TOI
100
AcDbCircle
 10
6853.617589827845
 20
10118.78541358609
 30
0.0
 40
2.5
  0
CIRCLE
  5
1890E
330
1871D
100
AcDbEntity
  8
TOI
100
AcDbCircle
 10
6453.617589827851
 20
10118.78541358609
 30
0.0
 40
2.5
  0
CIRCLE
  5
1890F
330
1871D
100
AcDbEntity
  8
TOI
100
AcDbCircle
 10
6053.617589827851
 20
10118.78541358609
 30
0.0
 40
2.5
  0
CIRCLE
  5
18910
330
1871D
100
AcDbEntity
  8
YANE
100
AcDbCircle
 10
6853.617589827845
 20
9732.920617280122
 30
0.0
 40
2.5
  0
CIRCLE
  5
18911
330
1871D
100
AcDbEntity
  8
YANE
100
AcDbCircle
 10
6453.617589827851
 20
9732.920617280122
 30
0.0
 40
2.5
  0
CIRCLE
  5
18912
330
1871D
100
AcDbEntity
  8
YANE
100
AcDbCircle
 10
6053.617589827851
 20
9732.920617280122
 30
0.0
 40
2.5
  0
CIRCLE
  5
18913
330
1871D
100
AcDbEntity
  8
YANE
100
AcDbCircle
 10
6853.617589827845
 20
9142.92061728012
 30
0.0
 40
2.5
  0
CIRCLE
  5
18914
330
1871D
100
AcDbEntity
  8
YANE
100
AcDbCircle
 10
6453.617589827851
 20
9142.92061728012
 30
0.0
 40
2.5
  0
CIRCLE
  5
18915
330
1871D
100
AcDbEntity
  8
YANE
100
AcDbCircle
 10
6053.617589827851
 20
9142.92061728012
 30
0.0
 40
2.5
  0
CIRCLE
  5
18916
330
1871D
100
AcDbEntity
  8
YANE
100
AcDbCircle
 10
6853.617589827845
 20
8552.920617280118
 30
0.0
 40
2.5
  0
CIRCLE
  5
18917
330
1871D
100
AcDbEntity
  8
YANE
100
AcDbCircle
 10
6453.617589827851
 20
8552.920617280118
 30
0.0
 40
2.5
  0
CIRCLE
  5
18918
330
1871D
100
AcDbEntity
  8
YANE
100
AcDbCircle
 10
6053.617589827851
 20
8552.920617280118
 30
0.0
 40
2.5
  0
CIRCLE
  5
18919
330
1871D
100
AcDbEntity
  8
YANE
100
AcDbCircle
 10
6853.617589827845
 20
7962.920617280119
 30
0.0
 40
2.5
  0
CIRCLE
  5
1891A
330
1871D
100
AcDbEntity
  8
YANE
100
AcDbCircle
 10
6453.617589827851
 20
7962.920617280119
 30
0.0
 40
2.5
  0
CIRCLE
  5
1891B
330
1871D
100
AcDbEntity
  8
KERABA
100
AcDbCircle
 10
6453.617589827846
 20
7788.920617280123
 30
0.0
 40
2.5
  0
CIRCLE
  5
1891C
330
1871D
100
AcDbEntity
  8
KERABA
100
AcDbCircle
 10
6853.617589827845
 20
7788.920617280123
 30
0.0
 40
2.5
  0
LINE
  5
1891D
330
1871D
100
AcDbEntity
  8
YANE
100
AcDbLine
 10
6423.309480159012
 20
7818.920617280119
 30
0.0
 11
6423.309480159012
 21
10099.4304052132
 31
0.0
  0
LINE
  5
1891E
330
1871D
100
AcDbEntity
  8
YANE
100
AcDbLine
 10
6439.959480159018
 20
7818.920617280119
 30
0.0
 11
6439.959480159018
 21
10115.4304052132
 31
0.0
  0
LINE
  5
1891F
330
1871D
100
AcDbEntity
  8
YANE
100
AcDbLine
 10
6467.275699496685
 20
7818.920617280119
 30
0.0
 11
6467.275699496685
 21
10115.43040521319
 31
0.0
  0
LINE
  5
18920
330
1871D
100
AcDbEntity
  8
YANE
100
AcDbLine
 10
6483.925699496682
 20
7818.920617280119
 30
0.0
 11
6483.925699496684
 21
10099.4304052132
 31
0.0
  0
LINE
  5
18921
330
1871D
100
AcDbEntity
  8
YANE
100
AcDbLine
 10
6290.209480159011
 20
7953.849049279091
 30
0.0
 11
6290.209480159013
 21
10099.4304052132
 31
0.0
  0
LINE
  5
18922
330
1871D
100
AcDbEntity
  8
YANE
100
AcDbLine
 10
6306.85948015902
 20
7920.201939532669
 30
0.0
 11
6306.85948015902
 21
10115.4304052132
 31
0.0
  0
LINE
  5
18923
330
1871D
100
AcDbEntity
  8
YANE
100
AcDbLine
 10
6334.17569949669
 20
7865.000027826278
 30
0.0
 11
6334.175699496684
 21
10115.43040521319
 31
0.0
  0
LINE
  5
18924
330
1871D
100
AcDbEntity
  8
YANE
100
AcDbLine
 10
6350.825699496682
 20
7831.352918079886
 30
0.0
 11
6350.825699496686
 21
10099.4304052132
 31
0.0
  0
LINE
  5
18925
330
1871D
100
AcDbEntity
  8
YANE
100
AcDbLine
 10
6156.909480159018
 20
8223.228011993537
 30
0.0
 11
6156.909480159014
 21
10099.4304052132
 31
0.0
  0
LINE
  5
18926
330
1871D
100
AcDbEntity
  8
YANE
100
AcDbLine
 10
6173.559480159019
 20
8189.580902247131
 30
0.0
 11
6173.559480159019
 21
10115.4304052132
 31
0.0
  0
LINE
  5
18927
330
1871D
100
AcDbEntity
  8
YANE
100
AcDbLine
 10
6200.875699496691
 20
8134.378990540731
 30
0.0
 11
6200.87569949669
 21
10115.43040521319
 31
0.0
  0
LINE
  5
18928
330
1871D
100
AcDbEntity
  8
YANE
100
AcDbLine
 10
6217.525699496692
 20
8100.731880794326
 30
0.0
 11
6217.52569949669
 21
10099.4304052132
 31
0.0
  0
LINE
  5
18929
330
1871D
100
AcDbEntity
  8
YANE
100
AcDbLine
 10
6023.609480159019
 20
8492.606974707998
 30
0.0
 11
6023.609480159016
 21
10099.4304052132
 31
0.0
  0
LINE
  5
1892A
330
1871D
100
AcDbEntity
  8
YANE
100
AcDbLine
 10
6040.259480159019
 20
8458.95986496159
 30
0.0
 11
6040.259480159019
 21
10115.4304052132
 31
0.0
  0
LINE
  5
1892B
330
1871D
100
AcDbEntity
  8
YANE
100
AcDbLine
 10
6067.575699496686
 20
8403.757953255201
 30
0.0
 11
6067.575699496686
 21
10115.43040521319
 31
0.0
  0
LINE
  5
1892C
330
1871D
100
AcDbEntity
  8
YANE
100
AcDbLine
 10
6084.225699496691
 20
8370.110843508784
 30
0.0
 11
6084.225699496691
 21
10099.4304052132
 31
0.0
  0
LINE
  5
1892D
330
1871D
100
AcDbEntity
  8
YANE
100
AcDbLine
 10
5890.309480159018
 20
8761.98593742245
 30
0.0
 11
5890.309480159018
 21
10099.4304052132
 31
0.0
  0
LINE
  5
1892E
330
1871D
100
AcDbEntity
  8
YANE
100
AcDbLine
 10
5906.959480159018
 20
8728.338827676047
 30
0.0
 11
5906.95948015902
 21
10115.4304052132
 31
0.0
  0
LINE
  5
1892F
330
1871D
100
AcDbEntity
  8
YANE
100
AcDbLine
 10
5934.275699496684
 20
8673.136915969662
 30
0.0
 11
5934.275699496684
 21
10115.43040521319
 31
0.0
  0
LINE
  5
18930
330
1871D
100
AcDbEntity
  8
YANE
100
AcDbLine
 10
5950.925699496688
 20
8639.489806223251
 30
0.0
 11
5950.925699496688
 21
10099.4304052132
 31
0.0
  0
LINE
  5
18931
330
1871D
100
AcDbEntity
  8
YANE
100
AcDbLine
 10
5757.009480159013
 20
9031.364900136916
 30
0.0
 11
5757.009480159013
 21
10099.4304052132
 31
0.0
  0
LINE
  5
18932
330
1871D
100
AcDbEntity
  8
YANE
100
AcDbLine
 10
5773.659480159018
 20
8997.717790390501
 30
0.0
 11
5773.659480159018
 21
10115.4304052132
 31
0.0
  0
LINE
  5
18933
330
1871D
100
AcDbEntity
  8
YANE
100
AcDbLine
 10
5800.975699496682
 20
8942.515878684121
 30
0.0
 11
5800.975699496685
 21
10115.43040521319
 31
0.0
  0
LINE
  5
18934
330
1871D
100
AcDbEntity
  8
YANE
100
AcDbLine
 10
5817.625699496687
 20
8908.868768937713
 30
0.0
 11
5817.625699496684
 21
10099.4304052132
 31
0.0
  0
LINE
  5
18935
330
1871D
100
AcDbEntity
  8
YANE
100
AcDbLine
 10
5623.709480159014
 20
9300.743862851373
 30
0.0
 11
5623.709480159014
 21
10099.4304052132
 31
0.0
  0
LINE
  5
18936
330
1871D
100
AcDbEntity
  8
YANE
100
AcDbLine
 10
5640.35948015902
 20
9267.09675310496
 30
0.0
 11
5640.35948015902
 21
10115.4304052132
 31
0.0
  0
LINE
  5
18937
330
1871D
100
AcDbEntity
  8
YANE
100
AcDbLine
 10
5667.675699496688
 20
9211.894841398573
 30
0.0
 11
5667.675699496688
 21
10115.43040521319
 31
0.0
  0
LINE
  5
18938
330
1871D
100
AcDbEntity
  8
YANE
100
AcDbLine
 10
5684.325699496689
 20
9178.247731652168
 30
0.0
 11
5684.325699496689
 21
10099.4304052132
 31
0.0
  0
LINE
  5
18939
330
1871D
100
AcDbEntity
  8
YANE
100
AcDbLine
 10
5490.409480159021
 20
9570.122825565828
 30
0.0
 11
5490.409480159019
 21
10099.4304052132
 31
0.0
  0
LINE
  5
1893A
330
1871D
100
AcDbEntity
  8
YANE
100
AcDbLine
 10
5507.05948015902
 20
9536.475715819426
 30
0.0
 11
5507.05948015902
 21
10115.4304052132
 31
0.0
  0
LINE
  5
1893B
330
1871D
100
AcDbEntity
  8
YANE
100
AcDbLine
 10
5534.375699496687
 20
9481.273804113028
 30
0.0
 11
5534.375699496687
 21
10115.43040521319
 31
0.0
  0
LINE
  5
1893C
330
1871D
100
AcDbEntity
  8
YANE
100
AcDbLine
 10
5551.02569949669
 20
9447.626694366624
 30
0.0
 11
5551.02569949669
 21
10099.4304052132
 31
0.0
  0
LINE
  5
1893D
330
1871D
100
AcDbEntity
  8
YANE
100
AcDbLine
 10
5357.109480159017
 20
9839.501788280287
 30
0.0
 11
5357.109480159017
 21
10099.4304052132
 31
0.0
  0
LINE
  5
1893E
330
1871D
100
AcDbEntity
  8
YANE
100
AcDbLine
 10
5373.759480159019
 20
9805.854678533876
 30
0.0
 11
5373.759480159019
 21
10115.4304052132
 31
0.0
  0
LINE
  5
1893F
330
1871D
100
AcDbEntity
  8
YANE
100
AcDbLine
 10
5401.075699496684
 20
9750.652766827499
 30
0.0
 11
5401.075699496684
 21
10115.43040521319
 31
0.0
  0
LINE
  5
18940
330
1871D
100
AcDbEntity
  8
YANE
100
AcDbLine
 10
5417.725699496689
 20
9717.005657081086
 30
0.0
 11
5417.725699496689
 21
10099.4304052132
 31
0.0
  0
LINE
  5
18941
330
1871D
100
AcDbEntity
  8
YANE
100
AcDbLine
 10
5240.459480159024
 20
10075.23364124832
 30
0.0
 11
5240.459480159022
 21
10115.4304052132
 31
0.0
  0
LINE
  5
18942
330
1871D
100
AcDbEntity
  8
YANE
100
AcDbLine
 10
5267.775699496691
 20
10020.03172954194
 30
0.0
 11
5267.775699496691
 21
10115.43040521319
 31
0.0
  0
LINE
  5
18943
330
1871D
100
AcDbEntity
  8
YANE
100
AcDbLine
 10
5284.42569949669
 20
9986.384619795543
 30
0.0
 11
5284.42569949669
 21
10099.4304052132
 31
0.0
  0
LINE
  5
18944
330
1871D
100
AcDbEntity
  8
YANE
100
AcDbLine
 10
5240.459480159022
 20
10115.4304052132
 30
0.0
 11
5226.978813843622
 21
10102.47601115637
 31
0.0
  0
LINE
  5
18945
330
1871D
100
AcDbEntity
  8
YANE
100
AcDbLine
 10
5267.775699496691
 20
10115.4304052132
 30
0.0
 11
5240.459480159022
 21
10115.4304052132
 31
0.0
  0
LINE
  5
18946
330
1871D
100
AcDbEntity
  8
YANE
100
AcDbLine
 10
5284.42569949669
 20
10099.4304052132
 30
0.0
 11
5267.775699496691
 21
10115.4304052132
 31
0.0
  0
LINE
  5
18947
330
1871D
100
AcDbEntity
  8
YANE
100
AcDbLine
 10
5357.10948015902
 20
10099.4304052132
 30
0.0
 11
5284.42569949669
 21
10099.4304052132
 31
0.0
  0
LINE
  5
18948
330
1871D
100
AcDbEntity
  8
YANE
100
AcDbLine
 10
5373.759480159019
 20
10115.4304052132
 30
0.0
 11
5357.10948015902
 21
10099.4304052132
 31
0.0
  0
LINE
  5
18949
330
1871D
100
AcDbEntity
  8
YANE
100
AcDbLine
 10
5401.075699496684
 20
10115.4304052132
 30
0.0
 11
5373.759480159019
 21
10115.4304052132
 31
0.0
  0
LINE
  5
1894A
330
1871D
100
AcDbEntity
  8
YANE
100
AcDbLine
 10
5417.725699496689
 20
10099.4304052132
 30
0.0
 11
5401.075699496684
 21
10115.4304052132
 31
0.0
  0
LINE
  5
1894B
330
1871D
100
AcDbEntity
  8
YANE
100
AcDbLine
 10
5490.409480159019
 20
10099.4304052132
 30
0.0
 11
5417.725699496689
 21
10099.4304052132
 31
0.0
  0
LINE
  5
1894C
330
1871D
100
AcDbEntity
  8
YANE
100
AcDbLine
 10
5507.05948015902
 20
10115.4304052132
 30
0.0
 11
5490.409480159019
 21
10099.4304052132
 31
0.0
  0
LINE
  5
1894D
330
1871D
100
AcDbEntity
  8
YANE
100
AcDbLine
 10
5534.375699496689
 20
10115.4304052132
 30
0.0
 11
5507.05948015902
 21
10115.4304052132
 31
0.0
  0
LINE
  5
1894E
330
1871D
100
AcDbEntity
  8
YANE
100
AcDbLine
 10
5551.025699496692
 20
10099.4304052132
 30
0.0
 11
5534.375699496689
 21
10115.4304052132
 31
0.0
  0
LINE
  5
1894F
330
1871D
100
AcDbEntity
  8
YANE
100
AcDbLine
 10
5623.709480159014
 20
10099.4304052132
 30
0.0
 11
5551.025699496692
 21
10099.4304052132
 31
0.0
  0
LINE
  5
18950
330
1871D
100
AcDbEntity
  8
YANE
100
AcDbLine
 10
5640.359480159019
 20
10115.4304052132
 30
0.0
 11
5623.709480159014
 21
10099.4304052132
 31
0.0
  0
LINE
  5
18951
330
1871D
100
AcDbEntity
  8
YANE
100
AcDbLine
 10
5667.675699496688
 20
10115.4304052132
 30
0.0
 11
5640.359480159019
 21
10115.4304052132
 31
0.0
  0
LINE
  5
18952
330
1871D
100
AcDbEntity
  8
YANE
100
AcDbLine
 10
5684.325699496691
 20
10099.4304052132
 30
0.0
 11
5667.675699496688
 21
10115.4304052132
 31
0.0
  0
LINE
  5
18953
330
1871D
100
AcDbEntity
  8
YANE
100
AcDbLine
 10
5757.009480159019
 20
10099.4304052132
 30
0.0
 11
5684.325699496691
 21
10099.4304052132
 31
0.0
  0
LINE
  5
18954
330
1871D
100
AcDbEntity
  8
YANE
100
AcDbLine
 10
5773.659480159016
 20
10115.4304052132
 30
0.0
 11
5757.009480159019
 21
10099.4304052132
 31
0.0
  0
LINE
  5
18955
330
1871D
100
AcDbEntity
  8
YANE
100
AcDbLine
 10
5800.975699496685
 20
10115.4304052132
 30
0.0
 11
5773.659480159016
 21
10115.4304052132
 31
0.0
  0
LINE
  5
18956
330
1871D
100
AcDbEntity
  8
YANE
100
AcDbLine
 10
5817.62569949669
 20
10099.4304052132
 30
0.0
 11
5800.975699496685
 21
10115.4304052132
 31
0.0
  0
LINE
  5
18957
330
1871D
100
AcDbEntity
  8
YANE
100
AcDbLine
 10
5890.309480159014
 20
10099.4304052132
 30
0.0
 11
5817.62569949669
 21
10099.4304052132
 31
0.0
  0
LINE
  5
18958
330
1871D
100
AcDbEntity
  8
YANE
100
AcDbLine
 10
5906.95948015902
 20
10115.4304052132
 30
0.0
 11
5890.309480159014
 21
10099.4304052132
 31
0.0
  0
LINE
  5
18959
330
1871D
100
AcDbEntity
  8
YANE
100
AcDbLine
 10
5934.275699496684
 20
10115.4304052132
 30
0.0
 11
5906.95948015902
 21
10115.4304052132
 31
0.0
  0
LINE
  5
1895A
330
1871D
100
AcDbEntity
  8
YANE
100
AcDbLine
 10
5950.925699496688
 20
10099.4304052132
 30
0.0
 11
5934.275699496684
 21
10115.4304052132
 31
0.0
  0
LINE
  5
1895B
330
1871D
100
AcDbEntity
  8
YANE
100
AcDbLine
 10
6023.609480159019
 20
10099.4304052132
 30
0.0
 11
5950.925699496688
 21
10099.4304052132
 31
0.0
  0
LINE
  5
1895C
330
1871D
100
AcDbEntity
  8
YANE
100
AcDbLine
 10
6040.259480159019
 20
10115.4304052132
 30
0.0
 11
6023.609480159019
 21
10099.4304052132
 31
0.0
  0
LINE
  5
1895D
330
1871D
100
AcDbEntity
  8
YANE
100
AcDbLine
 10
6067.575699496686
 20
10115.4304052132
 30
0.0
 11
6040.259480159019
 21
10115.4304052132
 31
0.0
  0
LINE
  5
1895E
330
1871D
100
AcDbEntity
  8
YANE
100
AcDbLine
 10
6084.225699496691
 20
10099.4304052132
 30
0.0
 11
6067.575699496686
 21
10115.4304052132
 31
0.0
  0
LINE
  5
1895F
330
1871D
100
AcDbEntity
  8
YANE
100
AcDbLine
 10
6156.909480159018
 20
10099.4304052132
 30
0.0
 11
6084.225699496691
 21
10099.4304052132
 31
0.0
  0
LINE
  5
18960
330
1871D
100
AcDbEntity
  8
YANE
100
AcDbLine
 10
6173.559480159019
 20
10115.4304052132
 30
0.0
 11
6156.909480159018
 21
10099.4304052132
 31
0.0
  0
LINE
  5
18961
330
1871D
100
AcDbEntity
  8
YANE
100
AcDbLine
 10
6200.87569949669
 20
10115.4304052132
 30
0.0
 11
6173.559480159019
 21
10115.4304052132
 31
0.0
  0
LINE
  5
18962
330
1871D
100
AcDbEntity
  8
YANE
100
AcDbLine
 10
6217.52569949669
 20
10099.4304052132
 30
0.0
 11
6200.87569949669
 21
10115.4304052132
 31
0.0
  0
LINE
  5
18963
330
1871D
100
AcDbEntity
  8
YANE
100
AcDbLine
 10
6290.209480159019
 20
10099.4304052132
 30
0.0
 11
6217.52569949669
 21
10099.4304052132
 31
0.0
  0
LINE
  5
18964
330
1871D
100
AcDbEntity
  8
YANE
100
AcDbLine
 10
6306.859480159019
 20
10115.4304052132
 30
0.0
 11
6290.209480159019
 21
10099.4304052132
 31
0.0
  0
LINE
  5
18965
330
1871D
100
AcDbEntity
  8
YANE
100
AcDbLine
 10
6334.17569949669
 20
10115.4304052132
 30
0.0
 11
6306.859480159019
 21
10115.4304052132
 31
0.0
  0
LINE
  5
18966
330
1871D
100
AcDbEntity
  8
YANE
100
AcDbLine
 10
6350.82569949669
 20
10099.4304052132
 30
0.0
 11
6334.17569949669
 21
10115.4304052132
 31
0.0
  0
LINE
  5
18967
330
1871D
100
AcDbEntity
  8
YANE
100
AcDbLine
 10
6423.509480159016
 20
10099.4304052132
 30
0.0
 11
6350.82569949669
 21
10099.4304052132
 31
0.0
  0
LINE
  5
18968
330
1871D
100
AcDbEntity
  8
YANE
100
AcDbLine
 10
6440.159480159017
 20
10115.4304052132
 30
0.0
 11
6423.509480159016
 21
10099.4304052132
 31
0.0
  0
LINE
  5
18969
330
1871D
100
AcDbEntity
  8
YANE
100
AcDbLine
 10
6467.475699496684
 20
10115.4304052132
 30
0.0
 11
6440.159480159017
 21
10115.4304052132
 31
0.0
  0
LINE
  5
1896A
330
1871D
100
AcDbEntity
  8
YANE
100
AcDbLine
 10
6484.12569949669
 20
10099.4304052132
 30
0.0
 11
6467.475699496684
 21
10115.4304052132
 31
0.0
  0
LINE
  5
1896B
330
1871D
100
AcDbEntity
  8
YANE
100
AcDbLine
 10
6556.809480159014
 20
10099.4304052132
 30
0.0
 11
6484.12569949669
 21
10099.4304052132
 31
0.0
  0
LINE
  5
1896C
330
1871D
100
AcDbEntity
  8
YANE
100
AcDbLine
 10
6573.45948015902
 20
10115.4304052132
 30
0.0
 11
6556.809480159014
 21
10099.4304052132
 31
0.0
  0
LINE
  5
1896D
330
1871D
100
AcDbEntity
  8
YANE
100
AcDbLine
 10
6600.775699496685
 20
10115.4304052132
 30
0.0
 11
6573.45948015902
 21
10115.4304052132
 31
0.0
  0
LINE
  5
1896E
330
1871D
100
AcDbEntity
  8
YANE
100
AcDbLine
 10
6617.425699496688
 20
10099.4304052132
 30
0.0
 11
6600.775699496685
 21
10115.4304052132
 31
0.0
  0
LINE
  5
1896F
330
1871D
100
AcDbEntity
  8
YANE
100
AcDbLine
 10
6690.109480159017
 20
10099.4304052132
 30
0.0
 11
6617.425699496688
 21
10099.4304052132
 31
0.0
  0
LINE
  5
18970
330
1871D
100
AcDbEntity
  8
YANE
100
AcDbLine
 10
6706.759480159019
 20
10115.4304052132
 30
0.0
 11
6690.109480159017
 21
10099.4304052132
 31
0.0
  0
LINE
  5
18971
330
1871D
100
AcDbEntity
  8
YANE
100
AcDbLine
 10
6734.075699496687
 20
10115.4304052132
 30
0.0
 11
6706.759480159019
 21
10115.4304052132
 31
0.0
  0
LINE
  5
18972
330
1871D
100
AcDbEntity
  8
YANE
100
AcDbLine
 10
6750.725699496688
 20
10099.4304052132
 30
0.0
 11
6734.075699496687
 21
10115.4304052132
 31
0.0
  0
LINE
  5
18973
330
1871D
100
AcDbEntity
  8
YANE
100
AcDbLine
 10
6823.409480159019
 20
10099.4304052132
 30
0.0
 11
6750.725699496688
 21
10099.4304052132
 31
0.0
  0
LINE
  5
18974
330
1871D
100
AcDbEntity
  8
YANE
100
AcDbLine
 10
6840.059480159019
 20
10115.4304052132
 30
0.0
 11
6823.409480159019
 21
10099.4304052132
 31
0.0
  0
LINE
  5
18975
330
1871D
100
AcDbEntity
  8
YANE
100
AcDbLine
 10
6867.375699496687
 20
10115.4304052132
 30
0.0
 11
6840.059480159019
 21
10115.4304052132
 31
0.0
  0
LINE
  5
18976
330
1871D
100
AcDbEntity
  8
YANE
100
AcDbLine
 10
6884.025699496692
 20
10099.4304052132
 30
0.0
 11
6867.375699496687
 21
10115.4304052132
 31
0.0
  0
LINE
  5
18977
330
1871D
100
AcDbEntity
  8
YANE
100
AcDbLine
 10
6956.709480159019
 20
10099.4304052132
 30
0.0
 11
6884.025699496692
 21
10099.4304052132
 31
0.0
  0
LINE
  5
18978
330
1871D
100
AcDbEntity
  8
YANE
100
AcDbLine
 10
6973.359480159015
 20
10115.4304052132
 30
0.0
 11
6956.709480159019
 21
10099.4304052132
 31
0.0
  0
LINE
  5
18979
330
1871D
100
AcDbEntity
  8
YANE
100
AcDbLine
 10
7000.675699496688
 20
10115.4304052132
 30
0.0
 11
6973.359480159015
 21
10115.4304052132
 31
0.0
  0
LINE
  5
1897A
330
1871D
100
AcDbEntity
  8
YANE
100
AcDbLine
 10
7017.325699496689
 20
10099.4304052132
 30
0.0
 11
7000.675699496688
 21
10115.4304052132
 31
0.0
  0
LINE
  5
1897B
330
1871D
100
AcDbEntity
  8
YANE
100
AcDbLine
 10
7090.009480159015
 20
10099.4304052132
 30
0.0
 11
7017.325699496689
 21
10099.4304052132
 31
0.0
  0
LINE
  5
1897C
330
1871D
100
AcDbEntity
  8
YANE
100
AcDbLine
 10
7106.659480159017
 20
10115.4304052132
 30
0.0
 11
7090.009480159015
 21
10099.4304052132
 31
0.0
  0
LINE
  5
1897D
330
1871D
100
AcDbEntity
  8
YANE
100
AcDbLine
 10
7133.975699496689
 20
10115.4304052132
 30
0.0
 11
7106.659480159017
 21
10115.4304052132
 31
0.0
  0
LINE
  5
1897E
330
1871D
100
AcDbEntity
  8
YANE
100
AcDbLine
 10
7150.625699496687
 20
10099.4304052132
 30
0.0
 11
7133.975699496689
 21
10115.4304052132
 31
0.0
  0
LINE
  5
1897F
330
1871D
100
AcDbEntity
  8
YANE
100
AcDbLine
 10
7223.309480159011
 20
10099.4304052132
 30
0.0
 11
7150.625699496687
 21
10099.4304052132
 31
0.0
  0
LINE
  5
18980
330
1871D
100
AcDbEntity
  8
YANE
100
AcDbLine
 10
7239.959480159019
 20
10115.4304052132
 30
0.0
 11
7223.309480159011
 21
10099.4304052132
 31
0.0
  0
LINE
  5
18981
330
1871D
100
AcDbEntity
  8
YANE
100
AcDbLine
 10
6556.809480159014
 20
7818.920617280119
 30
0.0
 11
6556.809480159014
 21
10099.4304052132
 31
0.0
  0
LINE
  5
18982
330
1871D
100
AcDbEntity
  8
YANE
100
AcDbLine
 10
6573.459480159016
 20
10115.4304052132
 30
0.0
 11
6573.459480159016
 21
7818.920617280119
 31
0.0
  0
LINE
  5
18983
330
1871D
100
AcDbEntity
  8
YANE
100
AcDbLine
 10
6600.775699496685
 20
7818.920617280119
 30
0.0
 11
6600.775699496685
 21
10115.4304052132
 31
0.0
  0
LINE
  5
18984
330
1871D
100
AcDbEntity
  8
YANE
100
AcDbLine
 10
6617.425699496688
 20
10099.4304052132
 30
0.0
 11
6617.425699496688
 21
7818.920617280119
 31
0.0
  0
LINE
  5
18985
330
1871D
100
AcDbEntity
  8
YANE
100
AcDbLine
 10
6690.109480159016
 20
7818.920617280119
 30
0.0
 11
6690.109480159017
 21
10099.4304052132
 31
0.0
  0
LINE
  5
18986
330
1871D
100
AcDbEntity
  8
YANE
100
AcDbLine
 10
6706.759480159019
 20
10115.4304052132
 30
0.0
 11
6706.759480159019
 21
7818.920617280119
 31
0.0
  0
LINE
  5
18987
330
1871D
100
AcDbEntity
  8
YANE
100
AcDbLine
 10
6734.075699496684
 20
7818.920617280119
 30
0.0
 11
6734.075699496687
 21
10115.4304052132
 31
0.0
  0
LINE
  5
18988
330
1871D
100
AcDbEntity
  8
YANE
100
AcDbLine
 10
6750.725699496688
 20
10099.4304052132
 30
0.0
 11
6750.725699496688
 21
7818.920617280119
 31
0.0
  0
LINE
  5
18989
330
1871D
100
AcDbEntity
  8
YANE
100
AcDbLine
 10
6823.409480159016
 20
7818.920617280119
 30
0.0
 11
6823.409480159019
 21
10099.4304052132
 31
0.0
  0
LINE
  5
1898A
330
1871D
100
AcDbEntity
  8
YANE
100
AcDbLine
 10
6840.059480159019
 20
10115.4304052132
 30
0.0
 11
6840.059480159019
 21
7818.920617280119
 31
0.0
  0
LINE
  5
1898B
330
1871D
100
AcDbEntity
  8
YANE
100
AcDbLine
 10
6867.375699496682
 20
7818.920617280119
 30
0.0
 11
6867.375699496683
 21
10115.4304052132
 31
0.0
  0
LINE
  5
1898C
330
1871D
100
AcDbEntity
  8
YANE
100
AcDbLine
 10
6884.025699496685
 20
10099.4304052132
 30
0.0
 11
6884.025699496685
 21
7818.920617280119
 31
0.0
  0
LINE
  5
1898D
330
1871D
100
AcDbEntity
  8
YANE
100
AcDbLine
 10
6956.709480159019
 20
7818.920617280119
 30
0.0
 11
6956.709480159019
 21
10099.4304052132
 31
0.0
  0
LINE
  5
1898E
330
1871D
100
AcDbEntity
  8
YANE
100
AcDbLine
 10
6973.359480159015
 20
10115.4304052132
 30
0.0
 11
6973.359480159015
 21
7818.920617280119
 31
0.0
  0
LINE
  5
1898F
330
1871D
100
AcDbEntity
  8
YANE
100
AcDbLine
 10
7000.675699496685
 20
7818.920617280119
 30
0.0
 11
7000.675699496688
 21
10115.4304052132
 31
0.0
  0
LINE
  5
18990
330
1871D
100
AcDbEntity
  8
YANE
100
AcDbLine
 10
7150.625699496687
 20
10099.4304052132
 30
0.0
 11
7150.625699496687
 21
7818.920617280119
 31
0.0
  0
LINE
  5
18991
330
1871D
100
AcDbEntity
  8
YANE
100
AcDbLine
 10
7133.975699496689
 20
7818.920617280119
 30
0.0
 11
7133.975699496689
 21
10115.4304052132
 31
0.0
  0
LINE
  5
18992
330
1871D
100
AcDbEntity
  8
YANE
100
AcDbLine
 10
7106.659480159017
 20
10115.4304052132
 30
0.0
 11
7106.659480159017
 21
7818.920617280119
 31
0.0
  0
LINE
  5
18993
330
1871D
100
AcDbEntity
  8
YANE
100
AcDbLine
 10
7090.009480159015
 20
7818.920617280119
 30
0.0
 11
7090.009480159015
 21
10099.4304052132
 31
0.0
  0
LINE
  5
18994
330
1871D
100
AcDbEntity
  8
YANE
100
AcDbLine
 10
7017.325699496689
 20
10099.4304052132
 30
0.0
 11
7017.325699496689
 21
7818.920617280119
 31
0.0
  0
LINE
  5
18995
330
1871D
100
AcDbEntity
  8
YANE
100
AcDbLine
 10
7223.309480159011
 20
7818.920617280119
 30
0.0
 11
7223.309480159011
 21
10099.4304052132
 31
0.0
  0
CIRCLE
  5
18996
330
1871D
100
AcDbEntity
  8
KERABA
100
AcDbCircle
 10
7253.617589827851
 20
10118.78541358609
 30
0.0
 40
2.5
  0
CIRCLE
  5
18997
330
1871D
100
AcDbEntity
  8
KERABA
100
AcDbCircle
 10
7253.617589827851
 20
9732.920617280122
 30
0.0
 40
2.5
  0
CIRCLE
  5
18998
330
1871D
100
AcDbEntity
  8
KERABA
100
AcDbCircle
 10
7253.617589827851
 20
9142.92061728012
 30
0.0
 40
2.5
  0
CIRCLE
  5
18999
330
1871D
100
AcDbEntity
  8
KERABA
100
AcDbCircle
 10
7253.617589827851
 20
8552.920617280118
 30
0.0
 40
2.5
  0
CIRCLE
  5
1899A
330
1871D
100
AcDbEntity
  8
KERABA
100
AcDbCircle
 10
7253.617589827851
 20
7962.920617280119
 30
0.0
 40
2.5
  0
CIRCLE
  5
1899B
330
1871D
100
AcDbEntity
  8
KERABA
100
AcDbCircle
 10
7253.617589827851
 20
7788.920617280123
 30
0.0
 40
2.5
  0
LINE
  5
1899C
330
1871D
100
AcDbEntity
  8
HANAKAKUSHI
100
AcDbLine
 10
7289.617589827852
 20
7728.920617280119
 30
0.0
 11
7289.617589827852
 21
7772.920617280118
 31
0.0
  0
LINE
  5
1899D
330
1871D
100
AcDbEntity
  8
KERABA
100
AcDbLine
 10
7239.617589827851
 20
7772.920617280118
 30
0.0
 11
7289.617589827852
 21
7772.920617280118
 31
0.0
  0
LINE
  5
1899E
330
1871D
100
AcDbEntity
  8
KERABA
100
AcDbLine
 10
7239.617589827851
 20
7772.920617280118
 30
0.0
 11
7239.617589827851
 21
10115.4304052132
 31
0.0
  0
LINE
  5
1899F
330
1871D
100
AcDbEntity
  8
HANAKAKUSHI
100
AcDbLine
 10
6356.977722950592
 20
7818.920617280119
 30
0.0
 11
7239.617589827851
 21
7818.920617280119
 31
0.0
  0
LINE
  5
189A0
330
1871D
100
AcDbEntity
  8
KERABA
100
AcDbLine
 10
7289.617589827852
 20
7772.920617280118
 30
0.0
 11
7289.617589827852
 21
10115.4304052132
 31
0.0
  0
LINE
  5
189A1
330
1871D
100
AcDbEntity
  8
TOI
100
AcDbLine
 10
5220.568436766011
 20
10115.4304052132
 30
0.0
 11
7289.617589827852
 21
10115.4304052132
 31
0.0
  0
LINE
  5
189A2
330
1871D
100
AcDbEntity
  8
TOI
100
AcDbLine
 10
5209.934179214296
 20
10136.92061728012
 30
0.0
 11
7289.617589827852
 21
10136.92061728012
 31
0.0
  0
LINE
  5
189A3
330
1871D
100
AcDbEntity
  8
HANAKAKUSHI
100
AcDbLine
 10
6401.513494709117
 20
7728.920617280119
 30
0.0
 11
7289.617589827852
 21
7728.920617280119
 31
0.0
  0
LINE
  5
189A4
330
1871D
100
AcDbEntity
  8
SUNPOU
100
AcDbLine
 10
5664.867589827849
 20
7217.920617280118
 30
0.0
 11
5676.117589827852
 21
7217.920617280118
 31
0.0
  0
LINE
  5
189A5
330
1871D
100
AcDbEntity
  8
SUNPOU
100
AcDbLine
 10
6064.867589827851
 20
7217.920617280118
 30
0.0
 11
6076.117589827852
 21
7217.920617280118
 31
0.0
  0
LINE
  5
189A6
330
1871D
100
AcDbEntity
  8
SUNPOU
100
AcDbLine
 10
6042.367589827851
 20
7217.920617280118
 30
0.0
 11
6031.117589827852
 21
7217.920617280118
 31
0.0
  0
LINE
  5
189A7
330
1871D
100
AcDbEntity
  8
SUNPOU
100
AcDbLine
 10
6464.867589827851
 20
7217.920617280118
 30
0.0
 11
6476.117589827852
 21
7217.920617280118
 31
0.0
  0
LINE
  5
189A8
330
1871D
100
AcDbEntity
  8
SUNPOU
100
AcDbLine
 10
6442.367589827852
 20
7217.920617280118
 30
0.0
 11
6431.117589827852
 21
7217.920617280118
 31
0.0
  0
LINE
  5
189A9
330
1871D
100
AcDbEntity
  8
SUNPOU
100
AcDbLine
 10
6842.367589827848
 20
7217.920617280118
 30
0.0
 11
6831.117589827847
 21
7217.920617280118
 31
0.0
  0
TEXT
  5
189AA
330
1871D
100
AcDbEntity
  8
HIKIDASHI
100
AcDbText
 10
4814.830712826287
 20
9456.992177418719
 30
0.0
 40
90.0
  1
母屋
  7
01
100
AcDbText
  0
CIRCLE
  5
189AB
330
1871D
100
AcDbEntity
  8
HIKIDASHI
100
AcDbCircle
 10
5117.465311393513
 20
9501.992177418719
 30
0.0
 40
60.0
  0
TEXT
  5
189AC
330
1871D
100
AcDbEntity
  8
HIKIDASHI
100
AcDbText
 10
5084.965311393514
 20
9464.492177418717
 30
0.0
 40
75.0
  1
ア
  7
01
 72
     1
 11
5117.465311393513
 21
9501.992177418719
 31
0.0
100
AcDbText
 73
     2
  0
TEXT
  5
189AD
330
1871D
100
AcDbEntity
  8
HIKIDASHI
100
AcDbText
 10
4059.417618742705
 20
10330.857893998
 30
0.0
 40
90.0
  1
胴縁
  7
01
100
AcDbText
  0
CIRCLE
  5
189AE
330
1871D
100
AcDbEntity
  8
HIKIDASHI
100
AcDbCircle
 10
4362.052217309934
 20
10375.85789399799
 30
0.0
 40
60.0
  0
TEXT
  5
189AF
330
1871D
100
AcDbEntity
  8
HIKIDASHI
100
AcDbText
 10
4329.552217309934
 20
10338.357893998
 30
0.0
 40
75.0
  1
ア
  7
01
 72
     1
 11
4362.052217309934
 21
10375.85789399799
 31
0.0
100
AcDbText
 73
     2
  0
LINE
  5
189B0
330
1871D
100
AcDbEntity
  8
HIKIDASHI
100
AcDbLine
 10
3381.939236851842
 20
8686.105932498513
 30
0.0
 11
3842.267714789631
 21
8686.105932498515
 31
0.0
  0
TEXT
  5
189B1
330
1871D
100
AcDbEntity
  8
HIKIDASHI
100
AcDbText
 10
3693.096850611309
 20
8731.105932498513
 30
0.0
 40
90.0
  1
1.6
 41
0.6700000000000001
  7
00
100
AcDbText
  0
TEXT
  5
189B2
330
1871D
100
AcDbEntity
  8
HIKIDASHI
100
AcDbText
 10
3411.93923685184
 20
8731.105932498513
 30
0.0
 40
90.0
  1
梁
  7
01
100
AcDbText
  0
CIRCLE
  5
189B3
330
1871D
100
AcDbEntity
  8
HIKIDASHI
100
AcDbCircle
 10
3601.248237922526
 20
8776.105932498513
 30
0.0
 40
60.0
  0
TEXT
  5
189B4
330
1871D
100
AcDbEntity
  8
HIKIDASHI
100
AcDbText
 10
3568.748237922526
 20
8738.605932498513
 30
0.0
 40
75.0
  1
ア
  7
01
 72
     1
 11
3601.248237922526
 21
8776.105932498513
 31
0.0
100
AcDbText
 73
     2
  0
LINE
  5
189B5
330
1871D
100
AcDbEntity
  8
HIKIDASHI
100
AcDbLine
 10
4029.417618742705
 20
10285.857893998
 30
0.0
 11
4603.071694177038
 21
10285.857893998
 31
0.0
  0
TEXT
  5
189B6
330
1871D
100
AcDbEntity
  8
HIKIDASHI
100
AcDbText
 10
4453.900829998718
 20
10330.857893998
 30
0.0
 40
90.0
  1
1.6
 41
0.6700000000000001
  7
00
100
AcDbText
  0
LINE
  5
189B7
330
1871D
100
AcDbEntity
  8
HIKIDASHI
100
AcDbLine
 10
4784.830712826287
 20
9411.992177418719
 30
0.0
 11
5358.484788260619
 21
9411.992177418722
 31
0.0
  0
TEXT
  5
189B8
330
1871D
100
AcDbEntity
  8
HIKIDASHI
100
AcDbText
 10
5209.313924082298
 20
9456.992177418719
 30
0.0
 40
90.0
  1
1.6
 41
0.6700000000000001
  7
00
100
AcDbText
  0
LINE
  5
189B9
330
1871D
100
AcDbEntity
  8
HIKIDASHI
100
AcDbLine
 10
4461.013392662864
 20
8109.992200739453
 30
0.0
 11
4921.341870600653
 21
8109.992200739453
 31
0.0
  0
TEXT
  5
189BA
330
1871D
100
AcDbEntity
  8
HIKIDASHI
100
AcDbText
 10
4772.171006422332
 20
8154.992200739455
 30
0.0
 40
90.0
  1
2.3
 41
0.6700000000000001
  7
00
100
AcDbText
  0
TEXT
  5
189BB
330
1871D
100
AcDbEntity
  8
HIKIDASHI
100
AcDbText
 10
4491.013392662863
 20
8154.992200739455
 30
0.0
 40
90.0
  1
柱
  7
01
100
AcDbText
  0
CIRCLE
  5
189BC
330
1871D
100
AcDbEntity
  8
HIKIDASHI
100
AcDbCircle
 10
4680.322393733549
 20
8199.992200739453
 30
0.0
 40
60.0
  0
TEXT
  5
189BD
330
1871D
100
AcDbEntity
  8
HIKIDASHI
100
AcDbText
 10
4647.822393733548
 20
8162.492200739453
 30
0.0
 40
75.0
  1
ア
  7
01
 72
     1
 11
4680.322393733549
 21
8199.992200739453
 31
0.0
100
AcDbText
 73
     2
  0
TEXT
  5
189BE
330
1871D
100
AcDbEntity
  8
HIKIDASHI
100
AcDbText
 10
10684.1160767752
 20
2201.225016856949
 30
0.0
 40
120.0
  1
側 面 立 面 図
  7
01
 72
     2
 11
11652.1160767752
 21
2201.225016856949
 31
0.0
100
AcDbText
  0
TEXT
  5
189BF
330
1871D
100
AcDbEntity
  8
HIKIDASHI
100
AcDbText
 10
11922.82399271288
 20
2240.602936436113
 30
0.0
 40
80.0
  1
1
 41
0.6700000000000001
  7
00
100
AcDbText
  0
TEXT
  5
189C0
330
1871D
100
AcDbEntity
  8
HIKIDASHI
100
AcDbText
 10
11955.96113057719
 20
2225.041458687917
 30
0.0
 40
80.0
  1
/
 41
0.6700000000000001
  7
00
100
AcDbText
  0
TEXT
  5
189C1
330
1871D
100
AcDbEntity
  8
HIKIDASHI
100
AcDbText
 10
12123.68274140226
 20
2225.041458687917
 30
0.0
 40
80.0
  1
)
 41
0.6700000000000001
  7
00
100
AcDbText
  0
TEXT
  5
189C2
330
1871D
100
AcDbEntity
  8
HIKIDASHI
100
AcDbText
 10
11742.1160767752
 20
2225.041458687917
 30
0.0
 40
80.0
  1
(S=
 41
0.6700000000000001
  7
00
100
AcDbText
  0
TEXT
  5
189C3
330
1871D
100
AcDbEntity
  8
HIKIDASHI
100
AcDbText
 10
12002.25628533982
 20
2198.87362748764
 30
0.0
 40
80.0
  1
40
 41
0.6700000000000001
  7
00
100
AcDbText
  0
TEXT
  5
189C4
330
1871D
100
AcDbEntity
  8
HIKIDASHI
100
AcDbText
 10
5048.2737673718
 20
6505.411354821261
 30
0.0
 40
120.0
  1
小 屋 伏 図
  7
01
 72
     2
 11
5800.2737673718
 21
6505.411354821261
 31
0.0
100
AcDbText
  0
TEXT
  5
189C5
330
1871D
100
AcDbEntity
  8
HIKIDASHI
100
AcDbText
 10
5890.273767371802
 20
6529.227796652229
 30
0.0
 40
80.0
  1
(S=
 41
0.6700000000000001
  7
00
100
AcDbText
  0
TEXT
  5
189C6
330
1871D
100
AcDbEntity
  8
HIKIDASHI
100
AcDbText
 10
6150.413975936424
 20
6503.059965451952
 30
0.0
 40
80.0
  1
40
 41
0.6700000000000001
  7
00
100
AcDbText
  0
TEXT
  5
189C7
330
1871D
100
AcDbEntity
  8
HIKIDASHI
100
AcDbText
 10
6271.840431998856
 20
6529.227796652229
 30
0.0
 40
80.0
  1
)
 41
0.6700000000000001
  7
00
100
AcDbText
  0
TEXT
  5
189C8
330
1871D
100
AcDbEntity
  8
HIKIDASHI
100
AcDbText
 10
6104.118821173785
 20
6529.227796652229
 30
0.0
 40
80.0
  1
/
 41
0.6700000000000001
  7
00
100
AcDbText
  0
TEXT
  5
189C9
330
1871D
100
AcDbEntity
  8
HIKIDASHI
100
AcDbText
 10
6070.981683309474
 20
6544.789274400426
 30
0.0
 40
80.0
  1
1
 41
0.6700000000000001
  7
00
100
AcDbText
  0
TEXT
  5
189CA
330
1871D
100
AcDbEntity
  8
HIKIDASHI
100
AcDbText
 10
4905.174172753104
 20
2241.357796427654
 30
0.0
 40
120.0
  1
正 面 立 面 図
  7
01
 72
     2
 11
5873.174172753104
 21
2241.357796427654
 31
0.0
100
AcDbText
  0
TEXT
  5
189CB
330
1871D
100
AcDbEntity
  8
HIKIDASHI
100
AcDbText
 10
6223.314381317725
 20
2239.006407058347
 30
0.0
 40
80.0
  1
40
 41
0.6700000000000001
  7
00
100
AcDbText
  0
TEXT
  5
189CC
330
1871D
100
AcDbEntity
  8
HIKIDASHI
100
AcDbText
 10
6177.019226555086
 20
2265.174238258623
 30
0.0
 40
80.0
  1
/
 41
0.6700000000000001
  7
00
100
AcDbText
  0
TEXT
  5
189CD
330
1871D
100
AcDbEntity
  8
HIKIDASHI
100
AcDbText
 10
5963.174172753104
 20
2265.174238258623
 30
0.0
 40
80.0
  1
(S=
 41
0.6700000000000001
  7
00
100
AcDbText
  0
TEXT
  5
189CE
330
1871D
100
AcDbEntity
  8
HIKIDASHI
100
AcDbText
 10
6143.882088690777
 20
2280.735716006818
 30
0.0
 40
80.0
  1
1
 41
0.6700000000000001
  7
00
100
AcDbText
  0
TEXT
  5
189CF
330
1871D
100
AcDbEntity
  8
HIKIDASHI
100
AcDbText
 10
6344.740837380157
 20
2265.174238258623
 30
0.0
 40
80.0
  1
)
 41
0.6700000000000001
  7
00
100
AcDbText
  0
LINE
  5
189D0
330
1871D
100
AcDbEntity
  8
YANE
100
AcDbLine
 10
5860.825699496682
 20
4661.807664297206
 30
0.0
 11
5860.825699496682
 21
4491.046891988565
 31
0.0
  0
LINE
  5
189D1
330
1871D
100
AcDbEntity
  8
YANE
100
AcDbLine
 10
5800.209480159014
 20
4491.046891988565
 30
0.0
 11
5800.209480159014
 21
4661.807664297206
 31
0.0
  0
LINE
  5
189D2
330
1871D
100
AcDbEntity
  8
YANE
100
AcDbLine
 10
5816.859480159015
 20
4661.807664297206
 30
0.0
 11
5816.859480159015
 21
4491.046891988565
 31
0.0
  0
LINE
  5
189D3
330
1871D
100
AcDbEntity
  8
YANE
100
AcDbLine
 10
5844.17569949668
 20
4491.046891988565
 30
0.0
 11
5844.17569949668
 21
4661.807664297206
 31
0.0
  0
LINE
  5
189D4
330
1871D
100
AcDbEntity
  8
YANE
100
AcDbLine
 10
5994.125699496684
 20
4661.807664297206
 30
0.0
 11
5994.125699496684
 21
4491.046891988565
 31
0.0
  0
LINE
  5
189D5
330
1871D
100
AcDbEntity
  8
YANE
100
AcDbLine
 10
5933.509480159012
 20
4491.046891988565
 30
0.0
 11
5933.509480159012
 21
4661.807664297206
 31
0.0
  0
LINE
  5
189D6
330
1871D
100
AcDbEntity
  8
YANE
100
AcDbLine
 10
5950.159480159014
 20
4661.807664297206
 30
0.0
 11
5950.159480159014
 21
4491.046891988565
 31
0.0
  0
LINE
  5
189D7
330
1871D
100
AcDbEntity
  8
YANE
100
AcDbLine
 10
5977.47569949668
 20
4491.046891988565
 30
0.0
 11
5977.47569949668
 21
4661.807664297206
 31
0.0
  0
LINE
  5
189D8
330
1871D
100
AcDbEntity
  8
YANE
100
AcDbLine
 10
6127.425699496682
 20
4661.807664297206
 30
0.0
 11
6127.425699496682
 21
4491.046891988565
 31
0.0
  0
LINE
  5
189D9
330
1871D
100
AcDbEntity
  8
YANE
100
AcDbLine
 10
6066.809480159012
 20
4491.046891988565
 30
0.0
 11
6066.809480159012
 21
4661.807664297206
 31
0.0
  0
LINE
  5
189DA
330
1871D
100
AcDbEntity
  8
YANE
100
AcDbLine
 10
6083.459480159014
 20
4661.807664297206
 30
0.0
 11
6083.459480159014
 21
4491.046891988565
 31
0.0
  0
LINE
  5
189DB
330
1871D
100
AcDbEntity
  8
YANE
100
AcDbLine
 10
6110.775699496681
 20
4491.046891988565
 30
0.0
 11
6110.775699496681
 21
4661.807664297206
 31
0.0
  0
LINE
  5
189DC
330
1871D
100
AcDbEntity
  8
YANE
100
AcDbLine
 10
6927.225699496682
 20
4661.807664297206
 30
0.0
 11
6927.225699496682
 21
4491.046891988565
 31
0.0
  0
LINE
  5
189DD
330
1871D
100
AcDbEntity
  8
YANE
100
AcDbLine
 10
6866.609480159012
 20
4491.046891988565
 30
0.0
 11
6866.609480159012
 21
4661.807664297206
 31
0.0
  0
LINE
  5
189DE
330
1871D
100
AcDbEntity
  8
YANE
100
AcDbLine
 10
6883.259480159016
 20
4661.807664297206
 30
0.0
 11
6883.259480159016
 21
4491.046891988565
 31
0.0
  0
LINE
  5
189DF
330
1871D
100
AcDbEntity
  8
YANE
100
AcDbLine
 10
6910.575699496682
 20
4491.046891988565
 30
0.0
 11
6910.575699496682
 21
4661.807664297206
 31
0.0
  0
LINE
  5
189E0
330
1871D
100
AcDbEntity
  8
YANE
100
AcDbLine
 10
6409.391799667311
 20
7712.999764935138
 30
0.0
 11
5145.879102426393
 21
10266.36615472737
 31
0.0
  0
TEXT
  5
189E1
330
1871D
100
AcDbEntity
  8
NAME
100
AcDbText
 10
12303.32857318295
 20
1055.0
 30
0.0
 40
120.0
  1
Y O K R
 41
0.6666666666666666
  7
00
100
AcDbText
  0
TEXT
  5
189E2
330
1871D
100
AcDbEntity
  8
NAME
100
AcDbText
 10
11227.73587134625
 20
1055.0
 30
0.0
 40
120.0
  1
ヨド自転車置場　　　  型
  7
01
100
AcDbText
  0
TEXT
  5
189E3
330
1871D
100
AcDbEntity
  8
NAME
100
AcDbText
 10
11228.07508082364
 20
875.0
 30
0.0
 40
120.0
  1
（アンカープレート方式）
  7
01
 72
     4
 11
12072.07508082364
 21
935.0
 31
0.0
100
AcDbText
  0
TEXT
  5
189E4
330
1871D
100
AcDbEntity
  8
NAME
100
AcDbText
 10
11816.04264730429
 20
541.0
 30
0.0
 40
160.0
  1
型（一般地用）
 41
0.8
  7
01
100
AcDbText
  0
TEXT
  5
189E5
330
1871D
100
AcDbEntity
  8
NAME
100
AcDbText
 10
10896.04264730428
 20
541.0
 30
0.0
 40
160.0
  1
YOKR-280
 41
0.7
  7
01
 72
     2
 11
11776.04264730429
 21
541.0
 31
0.0
100
AcDbText
  0
TEXT
  5
189E6
330
1871D
100
AcDbEntity
  8
NAME
100
AcDbText
 10
12854.79999999999
 20
541.0000000000001
 30
0.0
 40
160.0
  1
<1／3>
 41
0.6
  7
01
 72
     2
 11
13354.0
 21
541.0000000000001
 31
0.0
100
AcDbText
  0
LINE
  5
189E7
330
1871D
100
AcDbEntity
  8
SUNPOU
100
AcDbLine
 10
10202.60250538512
 20
2809.546798568534
 30
0.0
 11
10098.679456931
 21
2809.546798568534
 31
0.0
  0
LINE
  5
189E8
330
1871D
100
AcDbEntity
  8
SUNPOU
100
AcDbLine
 10
10150.64098115807
 20
2719.546798568534
 30
0.0
 11
10202.60250538512
 21
2809.546798568534
 31
0.0
  0
LINE
  5
189E9
330
1871D
100
AcDbEntity
  8
SUNPOU
100
AcDbLine
 10
10098.679456931
 20
2809.546798568534
 30
0.0
 11
10150.64098115807
 21
2719.546798568534
 31
0.0
  0
TEXT
  5
189EA
330
1871D
100
AcDbEntity
  8
SUNPOU
100
AcDbText
 10
10069.2124097295
 20
2854.546798568534
 30
0.0
 40
90.0
  1
FL
  7
01
 72
     4
 11
10150.64098115807
 21
2899.546798568534
 31
0.0
100
AcDbText
  0
LINE
  5
189EB
330
1871D
100
AcDbEntity
  8
1PL-L1
100
AcDbLine
 10
12115.43915527502
 20
2595.043625656026
 30
0.0
 11
12115.43915527502
 21
5337.546798568531
 31
0.0
  0
LINE
  5
189EC
330
1871D
100
AcDbEntity
  8
1PL-L1
100
AcDbLine
 10
10680.43915527504
 20
2595.043625656026
 30
0.0
 11
10680.43915527504
 21
5337.546798568531
 31
0.0
  0
LINE
  5
189ED
330
1871D
100
AcDbEntity
  8
U1
100
AcDbLine
 10
10708.43915527504
 20
4671.823721645458
 30
0.0
 11
10712.93915527504
 21
4671.546798568535
 31
0.0
  0
LINE
  5
189EE
330
1871D
100
AcDbEntity
  8
U2
100
AcDbLine
 10
10652.43915527504
 20
4681.465442678631
 30
0.0
 11
10149.50617785267
 21
4717.392607786982
 31
0.0
  0
ARC
  5
189EF
330
1871D
100
AcDbEntity
  8
U1
100
AcDbCircle
 10
10657.43915527504
 20
4735.176916837242
 30
0.0
 40
5.0
100
AcDbArc
 50
85.91438322004837
 51
180.0
  0
CIRCLE
  5
189F0
330
1871D
100
AcDbEntity
  8
U1
100
AcDbCircle
 10
10680.43915527504
 20
4711.546798568535
 30
0.0
 40
6.0
  0
CIRCLE
  5
189F1
330
1871D
100
AcDbEntity
  8
U1
100
AcDbCircle
 10
10680.43915527504
 20
4651.546798568535
 30
0.0
 40
5.0
  0
LINE
  5
189F2
330
1871D
100
AcDbEntity
  8
U1
100
AcDbLine
 10
10652.43915527504
 20
4621.546798568536
 30
0.0
 11
10652.43915527504
 21
4735.176916837242
 31
0.0
  0
ARC
  5
189F3
330
1871D
100
AcDbEntity
  8
U1
100
AcDbCircle
 10
10703.43915527504
 20
4731.891202551529
 30
0.0
 40
5.0
100
AcDbArc
 50
0.0
 51
85.91438322004837
  0
LINE
  5
189F4
330
1871D
100
AcDbEntity
  8
U1
100
AcDbLine
 10
10708.43915527504
 20
4621.546798568536
 30
0.0
 11
10708.43915527504
 21
4731.891202551529
 31
0.0
  0
LINE
  5
189F5
330
1871D
100
AcDbEntity
  8
U1
100
AcDbLine
 10
10708.43915527504
 20
4621.546798568536
 30
0.0
 11
10652.43915527504
 21
4621.546798568536
 31
0.0
  0
LINE
  5
189F6
330
1871D
100
AcDbEntity
  8
U1
100
AcDbLine
 10
10652.43915527504
 20
4675.546798568535
 30
0.0
 11
10708.43915527504
 21
4671.546798568535
 31
0.0
  0
LINE
  5
189F7
330
1871D
100
AcDbEntity
  8
U1
100
AcDbLine
 10
10703.79539052497
 20
4736.878496050682
 30
0.0
 11
10657.79539052498
 21
4740.164210336398
 31
0.0
  0
CIRCLE
  5
189F8
330
1871D
100
AcDbEntity
  8
U1
100
AcDbCircle
 10
10167.14006575581
 20
4753.728485338231
 30
0.0
 40
1.5
  0
LINE
  5
189F9
330
1871D
100
AcDbEntity
  8
U1
100
AcDbLine
 10
10144.30551290185
 20
4787.240712806246
 30
0.0
 11
10139.48639794538
 21
4782.629603943415
 31
0.0
  0
LINE
  5
189FA
330
1871D
100
AcDbEntity
  8
U1
100
AcDbLine
 10
10149.50617785267
 20
4717.392607786982
 30
0.0
 11
10146.73011690357
 21
4717.590916517065
 31
0.0
  0
ARC
  5
189FB
330
1871D
100
AcDbEntity
  8
U1
100
AcDbCircle
 10
10147.08638551076
 20
4722.578207633445
 30
0.0
 40
5.0
100
AcDbArc
 50
218.0915902685029
 51
265.9139999999874
  0
LINE
  5
189FC
330
1871D
100
AcDbEntity
  8
U1
100
AcDbLine
 10
10143.15125760842
 20
4719.493605812764
 30
0.0
 11
10135.65904253701
 21
4729.051670772775
 31
0.0
  0
ARC
  5
189FD
330
1871D
100
AcDbEntity
  8
U1
100
AcDbCircle
 10
10167.14006575581
 20
4753.728485338231
 30
0.0
 40
40.0
100
AcDbArc
 50
133.7364097315297
 51
218.0915902685029
  0
LINE
  5
189FE
330
1871D
100
AcDbEntity
  8
U1
100
AcDbLine
 10
10154.44406074847
 20
4786.516462660009
 30
0.0
 11
10149.50617785267
 21
4717.392607786982
 31
0.0
  0
LINE
  5
189FF
330
1871D
100
AcDbEntity
  8
U1
100
AcDbLine
 10
12111.93898694008
 20
4739.072079675048
 30
0.0
 11
12111.74572004199
 21
4738.295775671388
 31
0.0
  0
CIRCLE
  5
18A00
330
1871D
100
AcDbEntity
  8
U1
100
AcDbCircle
 10
12379.44474912509
 20
4445.947402537725
 30
0.0
 40
2.5
  0
LINE
  5
18A01
330
1871D
100
AcDbEntity
  8
1PL-S2
100
AcDbLine
 10
12371.64709620671
 20
4444.159496230241
 30
0.0
 11
12387.24240204347
 21
4447.735308845213
 31
0.0
  0
LINE
  5
18A02
330
1871D
100
AcDbEntity
  8
1PL-S2
100
AcDbLine
 10
12381.23265543258
 20
4438.149749619337
 30
0.0
 11
12377.65684281761
 21
4453.745055456115
 31
0.0
  0
LINE
  5
18A03
330
1871D
100
AcDbEntity
  8
U1
100
AcDbLine
 10
12397.82249407648
 20
4445.031445651881
 30
0.0
 11
12397.82249407648
 21
4445.031445651881
 31
0.0
  0
ARC
  5
18A04
330
1871D
100
AcDbEntity
  8
U1
100
AcDbCircle
 10
12396.15749640404
 20
4444.649682078709
 30
0.0
 40
4.0
100
AcDbArc
 50
282.9139999999605
 51
12.91400000000346
  0
ARC
  5
18A05
330
1871D
100
AcDbEntity
  8
U1
100
AcDbCircle
 10
12315.78832350116
 20
4436.481512524735
 30
0.0
 40
10.0
100
AcDbArc
 50
202.5080682268598
 51
283.8413995282598
  0
LINE
  5
18A06
330
1871D
100
AcDbEntity
  8
U1
100
AcDbLine
 10
12302.13493973143
 20
4433.350958854819
 30
0.0
 11
12304.25543930462
 21
4433.837163434788
 31
0.0
  0
ARC
  5
18A07
330
1871D
100
AcDbEntity
  8
U1
100
AcDbCircle
 10
12304.70241588149
 20
4431.88775020519
 30
0.0
 40
2.0
100
AcDbArc
 50
22.50806822685992
 51
102.9139999999604
  0
LINE
  5
18A08
330
1871D
100
AcDbEntity
  8
1PL-S2
100
AcDbLine
 10
12324.69967177426
 20
4425.187428890076
 30
0.0
 11
12321.12385915929
 21
4440.782734726854
 31
0.0
  0
CIRCLE
  5
18A09
330
1871D
100
AcDbEntity
  8
U1
100
AcDbCircle
 10
12322.91176546677
 20
4432.985081808465
 30
0.0
 40
2.5
  0
ARC
  5
18A0A
330
1871D
100
AcDbEntity
  8
U1
100
AcDbCircle
 10
12315.9460843358
 20
4436.517685151843
 30
0.0
 40
10.0
100
AcDbArc
 50
198.1299085704709
 51
282.9139999999605
  0
ARC
  5
18A0B
330
1871D
100
AcDbEntity
  8
U1
100
AcDbCircle
 10
12315.9460843358
 20
4436.517685151843
 30
0.0
 40
14.0
100
AcDbArc
 50
192.9140000000034
 51
282.9139999999605
  0
ARC
  5
18A0C
330
1871D
100
AcDbEntity
  8
U1
100
AcDbCircle
 10
12305.49219662675
 20
4433.094786998757
 30
0.0
 40
1.0
100
AcDbArc
 50
18.12990857047088
 51
102.9139999999604
  0
LINE
  5
18A0D
330
1871D
100
AcDbEntity
  8
U1
100
AcDbLine
 10
12302.30019172862
 20
4433.388849113744
 30
0.0
 11
12302.30019172862
 21
4433.388849113744
 31
0.0
  0
LINE
  5
18A0E
330
1871D
100
AcDbEntity
  8
U1
100
AcDbLine
 10
12302.30019172862
 20
4433.388849113744
 30
0.0
 11
12305.26870833831
 21
4434.069493613555
 31
0.0
  0
LINE
  5
18A0F
330
1871D
100
AcDbEntity
  8
U1
100
AcDbLine
 10
12318.02320638551
 20
4426.734446376751
 30
0.0
 11
12400.05632286323
 21
4445.543635232449
 31
0.0
  0
LINE
  5
18A10
330
1871D
100
AcDbEntity
  8
1PL-S2
100
AcDbLine
 10
12315.11411254839
 20
4431.19717550098
 30
0.0
 11
12330.70941838515
 21
4434.772988115947
 31
0.0
  0
LINE
  5
18A11
330
1871D
100
AcDbEntity
  8
U1
100
AcDbLine
 10
12400.05632286323
 20
4445.543635232453
 30
0.0
 11
12318.18096722015
 21
4426.770619003859
 31
0.0
  0
LINE
  5
18A12
330
1871D
100
AcDbEntity
  8
U1
100
AcDbLine
 10
12397.05144955778
 20
4440.750855619515
 30
0.0
 11
12319.0749203739
 21
4422.871792544664
 31
0.0
  0
ARC
  5
18A13
330
1871D
100
AcDbEntity
  8
U1
100
AcDbCircle
 10
12016.9966232474
 20
4357.712737877256
 30
0.0
 40
393.0
100
AcDbArc
 50
12.91400000000346
 51
85.9139999999874
  0
ARC
  5
18A14
330
1871D
100
AcDbEntity
  8
U1
100
AcDbCircle
 10
12016.9966232474
 20
4357.712737877256
 30
0.0
 40
295.0
100
AcDbArc
 50
14.85660197425786
 51
85.9139999999874
  0
LINE
  5
18A15
330
1871D
100
AcDbEntity
  8
U1
100
AcDbLine
 10
10049.7543191248
 20
4887.231992737401
 30
0.0
 11
10064.71619247394
 21
4886.163186915799
 31
0.0
  0
ARC
  5
18A16
330
1871D
100
AcDbEntity
  8
U1
100
AcDbCircle
 10
10064.85869991682
 20
4888.15810336235
 30
0.0
 40
2.0
100
AcDbArc
 50
265.9139999999874
 51
355.9140000000102
  0
LINE
  5
18A17
330
1871D
100
AcDbEntity
  8
U1
100
AcDbLine
 10
10066.85361636337
 20
4888.015595919469
 30
0.0
 11
10067.0673775277
 21
4891.007970589297
 31
0.0
  0
ARC
  5
18A18
330
1871D
100
AcDbEntity
  8
U1
100
AcDbCircle
 10
10064.85869991682
 20
4888.15810336235
 30
0.0
 40
2.0
100
AcDbArc
 50
265.9139999999874
 51
355.9140000000102
  0
LINE
  5
18A19
330
1871D
100
AcDbEntity
  8
U1
100
AcDbLine
 10
10066.85361636337
 20
4888.015595919469
 30
0.0
 11
10067.13863124913
 21
4892.005428812574
 31
0.0
  0
LINE
  5
18A1A
330
1871D
100
AcDbEntity
  8
U1
100
AcDbLine
 10
10050.18184145344
 20
4893.216742077057
 30
0.0
 11
10067.13863124913
 21
4892.005428812574
 31
0.0
  0
LINE
  5
18A1B
330
1871D
100
AcDbEntity
  8
U1
100
AcDbLine
 10
10049.7543191248
 20
4887.231992737401
 30
0.0
 11
10064.71619247394
 21
4886.163186915799
 31
0.0
  0
LINE
  5
18A1C
330
1871D
100
AcDbEntity
  8
U1
100
AcDbLine
 10
10043.48399163806
 20
4799.455669089112
 30
0.0
 11
10058.44586498721
 21
4798.386863267509
 31
0.0
  0
ARC
  5
18A1D
330
1871D
100
AcDbEntity
  8
U1
100
AcDbCircle
 10
10058.30335754432
 20
4796.391946820956
 30
0.0
 40
2.0
100
AcDbArc
 50
355.9140000000102
 51
85.9139999999874
  0
LINE
  5
18A1E
330
1871D
100
AcDbEntity
  8
U1
100
AcDbLine
 10
10060.29827399087
 20
4796.249439378078
 30
0.0
 11
10060.08451282656
 21
4793.257064708249
 31
0.0
  0
ARC
  5
18A1F
330
1871D
100
AcDbEntity
  8
U1
100
AcDbCircle
 10
10058.30335754432
 20
4796.391946820956
 30
0.0
 40
2.0
100
AcDbArc
 50
355.9140000000102
 51
85.9139999999874
  0
LINE
  5
18A20
330
1871D
100
AcDbEntity
  8
U1
100
AcDbLine
 10
10060.29827399087
 20
4796.249439378078
 30
0.0
 11
10060.01325910511
 21
4792.259606484973
 31
0.0
  0
LINE
  5
18A21
330
1871D
100
AcDbEntity
  8
U1
100
AcDbLine
 10
10060.01325910511
 20
4792.259606484973
 30
0.0
 11
10043.05646930942
 21
4793.470919749455
 31
0.0
  0
LINE
  5
18A22
330
1871D
100
AcDbEntity
  8
U1
100
AcDbLine
 10
10043.48399163806
 20
4799.455669089112
 30
0.0
 11
10058.44586498721
 21
4798.386863267509
 31
0.0
  0
ARC
  5
18A23
330
1871D
100
AcDbEntity
  8
U1
100
AcDbCircle
 10
10046.61915538144
 20
4843.343830913256
 30
0.0
 40
44.0
100
AcDbArc
 50
85.9139999999874
 51
265.9139999999874
  0
ARC
  5
18A24
330
1871D
100
AcDbEntity
  8
U1
100
AcDbCircle
 10
10046.61915538144
 20
4843.343830913256
 30
0.0
 40
50.0
100
AcDbArc
 50
85.9139999999874
 51
265.9139999999874
  0
ARC
  5
18A25
330
1871D
100
AcDbEntity
  8
U1
100
AcDbCircle
 10
10046.61915538144
 20
4843.343830913256
 30
0.0
 40
44.0
100
AcDbArc
 50
85.9139999999874
 51
265.9139999999874
  0
LINE
  5
18A26
330
1871D
100
AcDbEntity
  8
U1
100
AcDbLine
 10
10067.0673775277
 20
4891.007970589297
 30
0.0
 11
12044.99933577337
 21
4749.713819624727
 31
0.0
  0
LINE
  5
18A27
330
1871D
100
AcDbEntity
  8
U1
100
AcDbLine
 10
10060.08451282656
 20
4793.257064708249
 30
0.0
 11
12038.01647107224
 21
4651.962913743679
 31
0.0
  0
CIRCLE
  5
18A28
330
1871D
100
AcDbEntity
  8
U1
100
AcDbCircle
 10
12115.43915527502
 20
4608.829178057431
 30
0.0
 40
6.0
  0
CIRCLE
  5
18A29
330
1871D
100
AcDbEntity
  8
U1
100
AcDbCircle
 10
12115.43915527502
 20
4535.546798568535
 30
0.0
 40
6.0
  0
CIRCLE
  5
18A2A
330
1871D
100
AcDbEntity
  8
U1
100
AcDbCircle
 10
11992.09613392916
 20
4617.454564165558
 30
0.0
 40
6.0
  0
LINE
  5
18A2B
330
1871D
100
AcDbEntity
  8
U1
100
AcDbLine
 10
11842.18949745383
 20
4656.309066673196
 30
0.0
 11
11842.18949745383
 21
4594.364197753668
 31
0.0
  0
CIRCLE
  5
18A2C
330
1871D
100
AcDbEntity
  8
U1
100
AcDbCircle
 10
11871.39091121369
 20
4625.895488830996
 30
0.0
 40
6.0
  0
ARC
  5
18A2D
330
1871D
100
AcDbEntity
  8
U1
100
AcDbCircle
 10
11852.18949745383
 20
4656.309066673196
 30
0.0
 40
10.0
100
AcDbArc
 50
112.96831606799
 51
180.0
  0
LINE
  5
18A2E
330
1871D
100
AcDbEntity
  8
U1
100
AcDbLine
 10
12139.43915527504
 20
4435.546798568536
 30
0.0
 11
12079.43915527504
 21
4435.546798568536
 31
0.0
  0
CIRCLE
  5
18A2F
330
1871D
100
AcDbEntity
  8
U1
100
AcDbCircle
 10
12115.43915527502
 20
4465.546798568535
 30
0.0
 40
6.0
  0
ARC
  5
18A30
330
1871D
100
AcDbEntity
  8
U1
100
AcDbCircle
 10
12139.43915527504
 20
4445.546798568535
 30
0.0
 40
10.0
100
AcDbArc
 50
270.0
 51
0.0
  0
ARC
  5
18A31
330
1871D
100
AcDbEntity
  8
U1
100
AcDbCircle
 10
11814.03456470383
 20
4295.688286837097
 30
0.0
 40
300.0
100
AcDbArc
 50
27.78759037810582
 51
84.61487895838995
  0
LINE
  5
18A32
330
1871D
100
AcDbEntity
  8
U1
100
AcDbLine
 10
12149.43915527502
 20
4445.546798568535
 30
0.0
 11
12149.43915527502
 21
4621.310870856432
 31
0.0
  0
CIRCLE
  5
18A33
330
1871D
100
AcDbEntity
  8
U2
100
AcDbCircle
 10
10680.43915527504
 20
4711.546798568535
 30
0.0
 40
6.0
  0
LINE
  5
18A34
330
1871D
100
AcDbEntity
  8
U2
100
AcDbLine
 10
11842.18949745383
 20
4596.475277189289
 30
0.0
 11
10708.43915527504
 21
4677.465066214199
 31
0.0
  0
LINE
  5
18A35
330
1871D
100
AcDbEntity
  8
KISO
100
AcDbLine
 10
12315.43915527504
 20
2719.546798568535
 30
0.0
 11
12315.43915527504
 21
2669.546798568534
 31
0.0
  0
LINE
  5
18A36
330
1871D
100
AcDbEntity
  8
KISO
100
AcDbLine
 10
9587.402110802475
 20
2669.546798568534
 30
0.0
 11
12453.06471310255
 21
2669.546798568534
 31
0.0
  0
CIRCLE
  5
18A37
330
1871D
100
AcDbEntity
  8
U1
100
AcDbCircle
 10
12115.43915527502
 20
4535.546798568535
 30
0.0
 40
6.0
  0
CIRCLE
  5
18A38
330
1871D
100
AcDbEntity
  8
U1
100
AcDbCircle
 10
12115.43915527502
 20
4465.546798568535
 30
0.0
 40
6.0
  0
LINE
  5
18A39
330
1871D
100
AcDbEntity
  8
GAKU_BUCHI
100
AcDbLine
 10
12082.93915527504
 20
3663.546798568535
 30
0.0
 11
12082.93915527504
 21
2881.546798568535
 31
0.0
  0
LINE
  5
18A3A
330
1871D
100
AcDbEntity
  8
U1
100
AcDbLine
 10
12082.93915527504
 20
2719.546798568534
 30
0.0
 11
12082.93915527504
 21
4435.546798568536
 31
0.0
  0
LINE
  5
18A3B
330
1871D
100
AcDbEntity
  8
U1
100
AcDbLine
 10
12147.93915527504
 20
4440.27897169211
 30
0.0
 11
12147.93915527504
 21
2719.546798568534
 31
0.0
  0
CIRCLE
  5
18A3C
330
1871D
100
AcDbEntity
  8
U1
100
AcDbCircle
 10
10680.43915527504
 20
4651.546798568535
 30
0.0
 40
6.0
  0
LINE
  5
18A3D
330
1871D
100
AcDbEntity
  8
U1
100
AcDbLine
 10
10647.93915527504
 20
4675.546798568535
 30
0.0
 11
10652.43915527504
 21
4675.269875491613
 31
0.0
  0
LINE
  5
18A3E
330
1871D
100
AcDbEntity
  8
U1
100
AcDbLine
 10
10712.93915527504
 20
4671.546798568535
 30
0.0
 11
10712.93915527504
 21
2719.546798568534
 31
0.0
  0
LINE
  5
18A3F
330
1871D
100
AcDbEntity
  8
U1
100
AcDbLine
 10
10647.93915527504
 20
2719.546798568534
 30
0.0
 11
10647.93915527504
 21
4675.546798568535
 31
0.0
  0
LINE
  5
18A40
330
1871D
100
AcDbEntity
  8
DOU_BUCHI
100
AcDbLine
 10
10712.93915527504
 20
3626.546798568535
 30
0.0
 11
12082.93915527504
 21
3626.546798568535
 31
0.0
  0
LINE
  5
18A41
330
1871D
100
AcDbEntity
  8
DOU_BUCHI
100
AcDbLine
 10
10712.93915527502
 20
2918.546798568534
 30
0.0
 11
12082.93915527504
 21
2918.546798568534
 31
0.0
  0
LINE
  5
18A42
330
1871D
100
AcDbEntity
  8
U1
100
AcDbLine
 10
10712.93915527502
 20
3167.346798568533
 30
0.0
 11
12082.93915527504
 21
3167.346798568533
 31
0.0
  0
LINE
  5
18A43
330
1871D
100
AcDbEntity
  8
U1
100
AcDbLine
 10
10712.93915527502
 20
3175.746798568532
 30
0.0
 11
12082.93915527504
 21
3175.746798568532
 31
0.0
  0
LINE
  5
18A44
330
1871D
100
AcDbEntity
  8
U1
100
AcDbLine
 10
10712.93915527502
 20
3367.346798568533
 30
0.0
 11
12082.93915527504
 21
3367.346798568533
 31
0.0
  0
LINE
  5
18A45
330
1871D
100
AcDbEntity
  8
U1
100
AcDbLine
 10
10712.93915527502
 20
3375.746798568533
 30
0.0
 11
12082.93915527504
 21
3375.746798568533
 31
0.0
  0
LINE
  5
18A46
330
1871D
100
AcDbEntity
  8
DOU_BUCHI
100
AcDbLine
 10
10712.93915527502
 20
2881.546798568535
 30
0.0
 11
12082.93915527504
 21
2881.546798568535
 31
0.0
  0
LINE
  5
18A47
330
1871D
100
AcDbEntity
  8
DOU_BUCHI
100
AcDbLine
 10
10712.93915527504
 20
3663.546798568535
 30
0.0
 11
12082.93915527504
 21
3663.546798568535
 31
0.0
  0
LINE
  5
18A48
330
1871D
100
AcDbEntity
  8
KISO
100
AcDbLine
 10
9980.439155275036
 20
2719.546798568535
 30
0.0
 11
9980.439155275036
 21
2669.546798568534
 31
0.0
  0
LINE
  5
18A49
330
1871D
100
AcDbEntity
  8
KISO
100
AcDbLine
 10
12315.43915527504
 20
2719.546798568534
 30
0.0
 11
9980.439155275036
 21
2719.546798568534
 31
0.0
  0
TEXT
  5
18A4A
330
1871D
100
AcDbEntity
  8
HIKIDASHI
100
AcDbText
 10
10684.1160767752
 20
2201.225016856949
 30
0.0
 40
120.0
  1
側 面 立 面 図
  7
01
 72
     2
 11
11652.1160767752
 21
2201.225016856949
 31
0.0
100
AcDbText
  0
TEXT
  5
18A4B
330
1871D
100
AcDbEntity
  8
HIKIDASHI
100
AcDbText
 10
11922.82399271288
 20
2240.602936436113
 30
0.0
 40
80.0
  1
1
 41
0.6700000000000001
  7
00
100
AcDbText
  0
TEXT
  5
18A4C
330
1871D
100
AcDbEntity
  8
HIKIDASHI
100
AcDbText
 10
11955.96113057719
 20
2225.041458687917
 30
0.0
 40
80.0
  1
/
 41
0.6700000000000001
  7
00
100
AcDbText
  0
TEXT
  5
18A4D
330
1871D
100
AcDbEntity
  8
HIKIDASHI
100
AcDbText
 10
12123.68274140226
 20
2225.041458687917
 30
0.0
 40
80.0
  1
)
 41
0.6700000000000001
  7
00
100
AcDbText
  0
TEXT
  5
18A4E
330
1871D
100
AcDbEntity
  8
HIKIDASHI
100
AcDbText
 10
11742.1160767752
 20
2225.041458687917
 30
0.0
 40
80.0
  1
(S=
 41
0.6700000000000001
  7
00
100
AcDbText
  0
TEXT
  5
18A4F
330
1871D
100
AcDbEntity
  8
HIKIDASHI
100
AcDbText
 10
12002.25628533982
 20
2198.87362748764
 30
0.0
 40
80.0
  1
40
 41
0.6700000000000001
  7
00
100
AcDbText
  0
ARC
  5
18A50
330
1871D
100
AcDbEntity
  8
TATEDOISIJIKANAGU
100
AcDbCircle
 10
12382.51829743194
 20
4427.598538537855
 30
0.0
 40
37.48693551244478
100
AcDbArc
 50
233.986849994455
 51
298.36861296114
  0
ARC
  5
18A51
330
1871D
100
AcDbEntity
  8
TATEDOISIJIKANAGU
100
AcDbCircle
 10
12431.54369525042
 20
4493.422962213357
 30
0.0
 40
125.8540927673333
100
AcDbArc
 50
233.6306292876397
 51
251.7011184430006
  0
ARC
  5
18A52
330
1871D
100
AcDbEntity
  8
TATEDOISIJIKANAGU
100
AcDbCircle
 10
12400.42360527429
 20
4406.706125535711
 30
0.0
 40
51.53019484641196
100
AcDbArc
 50
200.7635473240841
 51
245.6964523327459
  0
ARC
  5
18A53
330
1871D
100
AcDbEntity
  8
TATEDOISIJIKANAGU
100
AcDbCircle
 10
12353.31295663001
 20
4370.094224594397
 30
0.0
 40
24.69435515795272
100
AcDbArc
 50
152.0466699325089
 51
257.0784084064013
  0
ARC
  5
18A54
330
1871D
100
AcDbEntity
  8
TATEDOISIJIKANAGU
100
AcDbCircle
 10
12342.41097709791
 20
4405.856022695856
 30
0.0
 40
59.0
100
AcDbArc
 50
285.818044494717
 51
14.83133728738006
  0
ARC
  5
18A55
330
1871D
100
AcDbEntity
  8
TATEDOISIJIKANAGU
100
AcDbCircle
 10
12342.41097709791
 20
4405.856022695856
 30
0.0
 40
20.0
100
AcDbArc
 50
285.818044494717
 51
6.800108217162827
  0
LINE
  5
18A56
330
1871D
100
AcDbEntity
  8
TATEDOISIJIKANAGU
100
AcDbLine
 10
12358.69275689732
 20
4413.869436434868
 30
0.0
 11
12360.79918605945
 21
4407.720212403744
 31
0.0
  0
LINE
  5
18A57
330
1871D
100
AcDbEntity
  8
TATEDOISIJIKANAGU
100
AcDbLine
 10
12360.79918605945
 20
4407.720212403744
 30
0.0
 11
12401.4786681115
 21
4421.655051476251
 31
0.0
  0
LINE
  5
18A58
330
1871D
100
AcDbEntity
  8
TATEDOISIJIKANAGU
100
AcDbLine
 10
12401.4786681115
 20
4421.655051476251
 30
0.0
 11
12399.37223894937
 21
4427.804275507375
 31
0.0
  0
LINE
  5
18A59
330
1871D
100
AcDbEntity
  8
TATEDOISIJIKANAGU
100
AcDbLine
 10
12354.47989857308
 20
4426.167884497116
 30
0.0
 11
12352.85956844837
 21
4430.898056828751
 31
0.0
  0
ARC
  5
18A5A
330
1871D
100
AcDbEntity
  8
TATEDOISIJIKANAGU
100
AcDbCircle
 10
12376.29120123937
 20
4428.839426268125
 30
0.0
 40
24.57689420135563
100
AcDbArc
 50
236.401957297133
 51
341.4160427029102
  0
ARC
  5
18A5B
330
1871D
100
AcDbEntity
  8
TATEDOISIJIKANAGU
100
AcDbCircle
 10
12294.02538126647
 20
4350.785361652522
 30
0.0
 40
19.5
100
AcDbArc
 50
105.8180444947169
 51
285.818044494717
  0
ARC
  5
18A5C
330
1871D
100
AcDbEntity
  8
TATEDOISIJIKANAGU
100
AcDbCircle
 10
12312.78695906902
 20
4356.100735426678
 30
0.0
 40
19.5
100
AcDbArc
 50
105.8180444947169
 51
285.818044494717
  0
ARC
  5
18A5D
330
1871D
100
AcDbEntity
  8
TATEDOISIJIKANAGU
100
AcDbCircle
 10
12275.26380346392
 20
4345.469987878368
 30
0.0
 40
19.5
100
AcDbArc
 50
105.8180444947169
 51
285.818044494717
  0
ARC
  5
18A5E
330
1871D
100
AcDbEntity
  8
TATEDOISIJIKANAGU
100
AcDbCircle
 10
12331.54853687157
 20
4361.416109200834
 30
0.0
 40
19.5
100
AcDbArc
 50
105.8180444947169
 51
285.818044494717
  0
LINE
  5
18A5F
330
1871D
100
AcDbEntity
  8
TATEDOISIJIKANAGU
100
AcDbLine
 10
12209.35695047282
 20
4347.065293048805
 30
0.0
 11
12331.8628506628
 21
4381.772643139625
 31
0.0
  0
LINE
  5
18A60
330
1871D
100
AcDbEntity
  8
TATEDOISIJIKANAGU
100
AcDbLine
 10
12166.43936343052
 20
4295.660602010568
 30
0.0
 11
12166.68744797385
 21
4295.704346009055
 31
0.0
  0
ARC
  5
18A61
330
1871D
100
AcDbEntity
  8
TATEDOISIJIKANAGU
100
AcDbCircle
 10
12200.60283373525
 20
4392.24215755506
 30
0.0
 40
94.24556903357999
100
AcDbArc
 50
249.7661134063864
 51
273.8377011136847
  0
LINE
  5
18A62
330
1871D
100
AcDbEntity
  8
TATEDOISIJIKANAGU
100
AcDbLine
 10
12208.1208379383
 20
4300.302926693101
 30
0.0
 11
12205.43936343052
 21
4295.660602010568
 31
0.0
  0
ARC
  5
18A63
330
1871D
100
AcDbEntity
  8
TATEDOISIJIKANAGU
100
AcDbCircle
 10
12186.10361132979
 20
4331.299818928544
 30
0.0
 40
40.54657928638376
100
AcDbArc
 50
241.3889810304677
 51
298.4816655995945
  0
LINE
  5
18A64
330
1871D
100
AcDbEntity
  8
TATEDOISIJIKANAGU
100
AcDbLine
 10
12205.43936343052
 20
4295.660602010568
 30
0.0
 11
12205.43936343052
 21
4292.160602010568
 31
0.0
  0
LINE
  5
18A65
330
1871D
100
AcDbEntity
  8
TATEDOISIJIKANAGU
100
AcDbLine
 10
12166.43936343052
 20
4295.660602010568
 30
0.0
 11
12166.43936343052
 21
4292.160602010568
 31
0.0
  0
LINE
  5
18A66
330
1871D
100
AcDbEntity
  8
TATEDOISIJIKANAGU
100
AcDbLine
 10
12166.43936343052
 20
4286.160602010568
 30
0.0
 11
12171.23289413045
 21
4285.315373215315
 31
0.0
  0
LINE
  5
18A67
330
1871D
100
AcDbEntity
  8
TATEDOISIJIKANAGU
100
AcDbLine
 10
12166.43936343052
 20
4283.660602010568
 30
0.0
 11
12171.23289413045
 21
4284.505830805822
 31
0.0
  0
LINE
  5
18A68
330
1871D
100
AcDbEntity
  8
TATEDOISIJIKANAGU
100
AcDbLine
 10
12166.43936343052
 20
4292.160602010568
 30
0.0
 11
12171.23289413163
 21
4291.315373215108
 31
0.0
  0
LINE
  5
18A69
330
1871D
100
AcDbEntity
  8
TATEDOISIJIKANAGU
100
AcDbLine
 10
12166.43936343052
 20
4289.660602010568
 30
0.0
 11
12171.23289413045
 21
4290.505830805822
 31
0.0
  0
ARC
  5
18A6A
330
1871D
100
AcDbEntity
  8
TATEDOISIJIKANAGU
100
AcDbCircle
 10
12170.93936343051
 20
4284.910602010568
 30
0.0
 40
0.5000000000000285
100
AcDbArc
 50
305.9487523472109
 51
54.05124765278903
  0
ARC
  5
18A6B
330
1871D
100
AcDbEntity
  8
TATEDOISIJIKANAGU
100
AcDbCircle
 10
12170.93936343051
 20
4290.910602010568
 30
0.0
 40
0.5000000000000285
100
AcDbArc
 50
305.9487523472109
 51
320.1187958722151
  0
LINE
  5
18A6C
330
1871D
100
AcDbEntity
  8
TATEDOISIJIKANAGU
100
AcDbLine
 10
12166.43936343052
 20
4289.660602010568
 30
0.0
 11
12166.43936343052
 21
4286.160602010568
 31
0.0
  0
LINE
  5
18A6D
330
1871D
100
AcDbEntity
  8
TATEDOISIJIKANAGU
100
AcDbLine
 10
12166.43936343052
 20
4280.160602010568
 30
0.0
 11
12166.43936343052
 21
4283.660602010568
 31
0.0
  0
ARC
  5
18A6E
330
1871D
100
AcDbEntity
  8
TATEDOISIJIKANAGU
100
AcDbCircle
 10
12170.93936343051
 20
4290.910602010568
 30
0.0
 40
0.5000000000000285
100
AcDbArc
 50
305.9487523472109
 51
54.05124765278903
  0
LINE
  5
18A6F
330
1871D
100
AcDbEntity
  8
TATEDOISIJIKANAGU
100
AcDbLine
 10
12205.43936343052
 20
4289.660602010568
 30
0.0
 11
12205.43936343052
 21
4286.160602010568
 31
0.0
  0
LINE
  5
18A70
330
1871D
100
AcDbEntity
  8
TATEDOISIJIKANAGU
100
AcDbLine
 10
12205.43936343052
 20
4286.160602010568
 30
0.0
 11
12200.64583273058
 21
4285.315373215315
 31
0.0
  0
LINE
  5
18A71
330
1871D
100
AcDbEntity
  8
TATEDOISIJIKANAGU
100
AcDbLine
 10
12205.43936343052
 20
4283.660602010568
 30
0.0
 11
12200.64583273058
 21
4284.505830805822
 31
0.0
  0
LINE
  5
18A72
330
1871D
100
AcDbEntity
  8
TATEDOISIJIKANAGU
100
AcDbLine
 10
12205.43936343052
 20
4280.160602010568
 30
0.0
 11
12205.43936343052
 21
4283.660602010568
 31
0.0
  0
ARC
  5
18A73
330
1871D
100
AcDbEntity
  8
TATEDOISIJIKANAGU
100
AcDbCircle
 10
12200.93936343052
 20
4284.910602010568
 30
0.0
 40
0.5000000000000285
100
AcDbArc
 50
125.948752347211
 51
234.0512476527889
  0
LINE
  5
18A74
330
1871D
100
AcDbEntity
  8
TATEDOISIJIKANAGU
100
AcDbLine
 10
12205.43936343052
 20
4289.660602010568
 30
0.0
 11
12200.64583273058
 21
4290.505830805822
 31
0.0
  0
LINE
  5
18A75
330
1871D
100
AcDbEntity
  8
TATEDOISIJIKANAGU
100
AcDbLine
 10
12205.43936343052
 20
4292.160602010568
 30
0.0
 11
12200.64583273031
 21
4291.315373215269
 31
0.0
  0
ARC
  5
18A76
330
1871D
100
AcDbEntity
  8
TATEDOISIJIKANAGU
100
AcDbCircle
 10
12200.93936343052
 20
4290.910602010568
 30
0.0
 40
0.5000000000000285
100
AcDbArc
 50
211.8394178467926
 51
234.0512476527889
  0
ARC
  5
18A77
330
1871D
100
AcDbEntity
  8
TATEDOISIJIKANAGU
100
AcDbCircle
 10
12200.93936343052
 20
4290.910602010568
 30
0.0
 40
0.5000000000000285
100
AcDbArc
 50
125.948752347211
 51
234.0512476527889
  0
ARC
  5
18A78
330
1871D
100
AcDbEntity
  8
TATEDOISIJIKANAGU
100
AcDbCircle
 10
12224.91384592325
 20
4387.261382420611
 30
0.0
 40
86.57336202712778
100
AcDbArc
 50
233.3538502380036
 51
259.6080082394931
  0
LINE
  5
18A79
330
1871D
100
AcDbEntity
  8
TATEDOISIJIKANAGU
100
AcDbLine
 10
12205.43936343052
 20
4280.160602010568
 30
0.0
 11
12202.25482658769
 21
4277.909003368109
 31
0.0
  0
LINE
  5
18A7A
330
1871D
100
AcDbEntity
  8
TATEDOISIJIKANAGU
100
AcDbLine
 10
12207.93936343051
 20
4273.148371630661
 30
0.0
 11
12202.23986472525
 21
4276.438978742389
 31
0.0
  0
ARC
  5
18A7B
330
1871D
100
AcDbEntity
  8
TATEDOISIJIKANAGU
100
AcDbCircle
 10
12202.97060155671
 20
4277.166629780412
 30
0.0
 40
1.031238260528155
100
AcDbArc
 50
133.9549627273179
 51
224.878768412723
  0
ARC
  5
18A7C
330
1871D
100
AcDbEntity
  8
TATEDOISIJIKANAGU
100
AcDbCircle
 10
12168.90812530432
 20
4277.166629780412
 30
0.0
 40
1.031238260528155
100
AcDbArc
 50
315.1212315872768
 51
46.04503727268203
  0
LINE
  5
18A7D
330
1871D
100
AcDbEntity
  8
TATEDOISIJIKANAGU
100
AcDbLine
 10
12166.43936343052
 20
4280.160602010568
 30
0.0
 11
12169.62390027334
 21
4277.909003368109
 31
0.0
  0
LINE
  5
18A7E
330
1871D
100
AcDbEntity
  8
TATEDOISIJIKANAGU
100
AcDbLine
 10
12163.93936343052
 20
4273.148371630661
 30
0.0
 11
12169.63886213577
 21
4276.438978742389
 31
0.0
  0
LINE
  5
18A7F
330
1871D
100
AcDbEntity
  8
TATEDOISIJIKANAGU
100
AcDbLine
 10
12163.93936343052
 20
4273.148371630661
 30
0.0
 11
12207.93936343051
 21
4273.148371630661
 31
0.0
  0
LINE
  5
18A80
330
1871D
100
AcDbEntity
  8
TATEDOISIJIKANAGU
100
AcDbLine
 10
12201.93898533376
 20
4277.175523121959
 30
0.0
 11
12169.9393252163
 21
4277.175523121959
 31
0.0
  0
LINE
  5
18A81
330
1871D
100
AcDbEntity
  8
TATEDOISIJIKANAGU
100
AcDbLine
 10
12207.93894711954
 20
4273.148371630661
 30
0.0
 11
12207.93894711954
 21
4047.796798568533
 31
0.0
  0
LINE
  5
18A82
330
1871D
100
AcDbEntity
  8
TATEDOISIJIKANAGU
100
AcDbLine
 10
12207.93894711954
 20
4035.296798568532
 30
0.0
 11
12207.93894711954
 21
3049.796798568532
 31
0.0
  0
LINE
  5
18A83
330
1871D
100
AcDbEntity
  8
TATEDOISIJIKANAGU
100
AcDbLine
 10
12207.93894711954
 20
3037.296798568533
 30
0.0
 11
12207.93894711954
 21
2871.62824703047
 31
0.0
  0
LINE
  5
18A84
330
1871D
100
AcDbEntity
  8
TATEDOISIJIKANAGU
100
AcDbLine
 10
12163.93936343052
 20
4273.148371630661
 30
0.0
 11
12163.93936343052
 21
4047.796798568533
 31
0.0
  0
LINE
  5
18A85
330
1871D
100
AcDbEntity
  8
TATEDOISIJIKANAGU
100
AcDbLine
 10
12163.93936343052
 20
4035.296798568532
 30
0.0
 11
12163.93936343053
 21
3049.796798568532
 31
0.0
  0
LINE
  5
18A86
330
1871D
100
AcDbEntity
  8
TATEDOISIJIKANAGU
100
AcDbLine
 10
12163.93936343053
 20
3037.296798568533
 30
0.0
 11
12163.93936343053
 21
2871.62824703047
 31
0.0
  0
ARC
  5
18A87
330
1871D
100
AcDbEntity
  8
TATEDOISIJIKANAGU
100
AcDbCircle
 10
12225.43936343052
 20
4290.299493543662
 30
0.0
 40
20.0
100
AcDbArc
 50
105.8180444947169
 51
146.8976870777835
  0
ARC
  5
18A88
330
1871D
100
AcDbEntity
  8
TATEDOISIJIKANAGU
100
AcDbCircle
 10
12268.85093168938
 20
4344.480821668127
 30
0.0
 40
27.04028979015884
100
AcDbArc
 50
152.0535121616845
 51
244.4600747008874
  0
ARC
  5
18A89
330
1871D
100
AcDbEntity
  8
TATEDOISIJIKANAGU
100
AcDbCircle
 10
12271.90263762675
 20
4346.796173378844
 30
0.0
 40
43.6732808751661
100
AcDbArc
 50
172.4708031053644
 51
225.5994203506985
  0
ARC
  5
18A8A
330
1871D
100
AcDbEntity
  8
TATEDOISIJIKANAGU
100
AcDbCircle
 10
12278.24623542613
 20
4350.437277741208
 30
0.0
 40
60.09538943116075
100
AcDbArc
 50
180.8378434869276
 51
218.8026014089185
  0
ARC
  5
18A8B
330
1871D
100
AcDbEntity
  8
TATEDOISIJIKANAGU
100
AcDbCircle
 10
12235.9296783153
 20
4339.13738603608
 30
0.0
 40
31.45567389646946
100
AcDbArc
 50
167.9436180962648
 51
245.9104562623242
  0
ARC
  5
18A8C
330
1871D
100
AcDbEntity
  8
TATEDOISIJIKANAGU
100
AcDbCircle
 10
12312.48672294384
 20
4427.748381290927
 30
0.0
 40
157.1885788544904
100
AcDbArc
 50
216.4870253948012
 51
230.7606818469909
  0
ARC
  5
18A8D
330
1871D
100
AcDbEntity
  8
TATEDOISIJIKANAGU
100
AcDbCircle
 10
12225.43936343052
 20
4290.299493543662
 30
0.0
 40
59.0
100
AcDbArc
 50
105.8180444947169
 51
171.6529426359942
  0
LINE
  5
18A8E
330
1871D
100
AcDbEntity
  8
TATEDOISIJIKANAGU
100
AcDbLine
 10
12219.98769802113
 20
4309.54213744371
 30
0.0
 11
12342.49359821111
 21
4344.249487534531
 31
0.0
  0
LINE
  5
18A8F
330
1871D
100
AcDbEntity
  8
TATEDOISIJIKANAGU
100
AcDbLine
 10
12257.97055934116
 20
2809.520592785123
 30
0.0
 11
12240.86955217487
 21
2762.535961745829
 31
0.0
  0
LINE
  5
18A90
330
1871D
100
AcDbEntity
  8
TATEDOISIJIKANAGU
100
AcDbLine
 10
12163.93936343052
 20
2871.62824703047
 30
0.0
 11
12207.93894711954
 21
2871.62824703047
 31
0.0
  0
LINE
  5
18A91
330
1871D
100
AcDbEntity
  8
TATEDOISIJIKANAGU
100
AcDbLine
 10
12160.93915527502
 20
2871.62824703047
 30
0.0
 11
12210.93915527504
 21
2871.62824703047
 31
0.0
  0
LINE
  5
18A92
330
1871D
100
AcDbEntity
  8
TATEDOISIJIKANAGU
100
AcDbLine
 10
12160.93915527502
 20
2871.62824703047
 30
0.0
 11
12160.93915527502
 21
2833.640699323044
 31
0.0
  0
LINE
  5
18A93
330
1871D
100
AcDbEntity
  8
TATEDOISIJIKANAGU
100
AcDbLine
 10
12210.93915527504
 20
2871.62824703047
 30
0.0
 11
12210.93915527504
 21
2833.640699323044
 31
0.0
  0
ARC
  5
18A94
330
1871D
100
AcDbEntity
  8
TATEDOISIJIKANAGU
100
AcDbCircle
 10
12220.93915527502
 20
2833.640699323044
 30
0.0
 40
60.0
100
AcDbArc
 50
180.0
 51
250.0000000000103
  0
ARC
  5
18A95
330
1871D
100
AcDbEntity
  8
TATEDOISIJIKANAGU
100
AcDbCircle
 10
12220.93915527502
 20
2833.640699323044
 30
0.0
 40
10.0
100
AcDbArc
 50
180.0
 51
250.0000000000103
  0
LINE
  5
18A96
330
1871D
100
AcDbEntity
  8
TATEDOISIJIKANAGU
100
AcDbLine
 10
12217.51895384177
 20
2824.243773115187
 30
0.0
 11
12257.97055934116
 21
2809.520592785123
 31
0.0
  0
LINE
  5
18A97
330
1871D
100
AcDbEntity
  8
TATEDOISIJIKANAGU
100
AcDbLine
 10
12200.41794667548
 20
2777.259142075891
 30
0.0
 11
12240.86955217487
 21
2762.535961745829
 31
0.0
  0
LINE
  5
18A98
330
1871D
100
AcDbEntity
  8
TATEDOISIJIKANAGU
100
AcDbLine
 10
12331.8628506628
 20
4381.772643139625
 30
0.0
 11
12347.86264250731
 21
4386.613378795806
 31
0.0
  0
LINE
  5
18A99
330
1871D
100
AcDbEntity
  8
TATEDOISIJIKANAGU
100
AcDbLine
 10
12342.49359821111
 20
4344.249487534531
 30
0.0
 11
12358.4933900556
 21
4349.090223190708
 31
0.0
  0
ARC
  5
18A9A
330
1871D
100
AcDbEntity
  8
TATEDOISIJIKANAGU
100
AcDbCircle
 10
12388.8924671514
 20
4380.93629589079
 30
0.0
 40
43.4668895488749
100
AcDbArc
 50
173.3574443550421
 51
226.761452927747
  0
LINE
  5
18A9B
330
1871D
100
AcDbEntity
  8
TATEDOISIJIKANAGU
100
AcDbLine
 10
12150.53915527503
 20
4079.796798568533
 30
0.0
 11
12150.53915527503
 21
4053.896798568536
 31
0.0
  0
LINE
  5
18A9C
330
1871D
100
AcDbEntity
  8
TATEDOISIJIKANAGU
100
AcDbLine
 10
12152.03915527502
 20
4052.396798568536
 30
0.0
 11
12158.23936343052
 21
4052.396798568535
 31
0.0
  0
ARC
  5
18A9D
330
1871D
100
AcDbEntity
  8
TATEDOISIJIKANAGU
100
AcDbCircle
 10
12152.03915527502
 20
4053.896798568536
 30
0.0
 40
1.5
100
AcDbArc
 50
180.0
 51
270.0
  0
ARC
  5
18A9E
330
1871D
100
AcDbEntity
  8
TATEDOISIJIKANAGU
100
AcDbCircle
 10
12152.03915527502
 20
4053.896798568536
 30
0.0
 40
4.099999999999998
100
AcDbArc
 50
180.0
 51
270.0
  0
LINE
  5
18A9F
330
1871D
100
AcDbEntity
  8
TATEDOISIJIKANAGU
100
AcDbLine
 10
12162.33936343052
 20
4048.296798568532
 30
0.0
 11
12162.33936343052
 21
4033.296798568533
 31
0.0
  0
LINE
  5
18AA0
330
1871D
100
AcDbEntity
  8
TATEDOISIJIKANAGU
100
AcDbLine
 10
12162.33936343052
 20
4033.296798568533
 30
0.0
 11
12159.73936343052
 21
4033.296798568533
 31
0.0
  0
LINE
  5
18AA1
330
1871D
100
AcDbEntity
  8
TATEDOISIJIKANAGU
100
AcDbLine
 10
12159.73936343052
 20
4033.296798568533
 30
0.0
 11
12159.73936343052
 21
4048.296798568532
 31
0.0
  0
LINE
  5
18AA2
330
1871D
100
AcDbEntity
  8
TATEDOISIJIKANAGU
100
AcDbLine
 10
12158.23936343052
 20
4049.796798568532
 30
0.0
 11
12152.03915527502
 21
4049.796798568535
 31
0.0
  0
ARC
  5
18AA3
330
1871D
100
AcDbEntity
  8
TATEDOISIJIKANAGU
100
AcDbCircle
 10
12158.23936343052
 20
4048.296798568532
 30
0.0
 40
1.5
100
AcDbArc
 50
0.0
 51
90.0
  0
ARC
  5
18AA4
330
1871D
100
AcDbEntity
  8
TATEDOISIJIKANAGU
100
AcDbCircle
 10
12158.23936343052
 20
4048.296798568532
 30
0.0
 40
4.099999999999998
100
AcDbArc
 50
0.0
 51
90.0
  0
LINE
  5
18AA5
330
1871D
100
AcDbEntity
  8
TATEDOISIJIKANAGU
100
AcDbLine
 10
12147.93915527504
 20
4053.896798568536
 30
0.0
 11
12147.93915527504
 21
4079.796798568533
 31
0.0
  0
LINE
  5
18AA6
330
1871D
100
AcDbEntity
  8
TATEDOISIJIKANAGU
100
AcDbLine
 10
12147.93915527504
 20
4079.796798568533
 30
0.0
 11
12150.53915527503
 21
4079.796798568533
 31
0.0
  0
LINE
  5
18AA7
330
1871D
100
AcDbEntity
  8
TATEDOISIJIKANAGU
  6
1PL-S
 62
     6
100
AcDbLine
 10
12141.32915527504
 20
4064.796798568532
 30
0.0
 11
12157.14915527502
 21
4064.796798568532
 31
0.0
  0
LINE
  5
18AA8
330
1871D
100
AcDbEntity
  8
TATEDOISIJIKANAGU
100
AcDbLine
 10
12185.93915527504
 20
4047.796798568533
 30
0.0
 11
12185.93915527504
 21
4035.296798568532
 31
0.0
  0
ARC
  5
18AA9
330
1871D
100
AcDbEntity
  8
TATEDOISIJIKANAGU
100
AcDbCircle
 10
12190.64211537042
 20
4041.546798568535
 30
0.0
 40
12.84038832877559
100
AcDbArc
 50
150.8731100751012
 51
209.1268899248985
  0
LINE
  5
18AAA
330
1871D
100
AcDbEntity
  8
TATEDOISIJIKANAGU
100
AcDbLine
 10
12150.53915527503
 20
3081.796798568532
 30
0.0
 11
12150.53915527503
 21
3055.896798568535
 31
0.0
  0
LINE
  5
18AAB
330
1871D
100
AcDbEntity
  8
TATEDOISIJIKANAGU
100
AcDbLine
 10
12152.03915527503
 20
3054.396798568535
 30
0.0
 11
12158.23936343052
 21
3054.396798568534
 31
0.0
  0
ARC
  5
18AAC
330
1871D
100
AcDbEntity
  8
TATEDOISIJIKANAGU
100
AcDbCircle
 10
12152.03915527503
 20
3055.896798568535
 30
0.0
 40
1.5
100
AcDbArc
 50
180.0
 51
270.0
  0
ARC
  5
18AAD
330
1871D
100
AcDbEntity
  8
TATEDOISIJIKANAGU
100
AcDbCircle
 10
12152.03915527503
 20
3055.896798568535
 30
0.0
 40
4.099999999999998
100
AcDbArc
 50
180.0
 51
270.0
  0
LINE
  5
18AAE
330
1871D
100
AcDbEntity
  8
TATEDOISIJIKANAGU
100
AcDbLine
 10
12162.33936343052
 20
3050.296798568532
 30
0.0
 11
12162.33936343052
 21
3035.296798568532
 31
0.0
  0
LINE
  5
18AAF
330
1871D
100
AcDbEntity
  8
TATEDOISIJIKANAGU
100
AcDbLine
 10
12162.33936343052
 20
3035.296798568532
 30
0.0
 11
12159.73936343052
 21
3035.296798568532
 31
0.0
  0
LINE
  5
18AB0
330
1871D
100
AcDbEntity
  8
TATEDOISIJIKANAGU
100
AcDbLine
 10
12159.73936343052
 20
3035.296798568532
 30
0.0
 11
12159.73936343052
 21
3050.296798568532
 31
0.0
  0
LINE
  5
18AB1
330
1871D
100
AcDbEntity
  8
TATEDOISIJIKANAGU
100
AcDbLine
 10
12158.23936343052
 20
3051.796798568533
 30
0.0
 11
12152.03915527503
 21
3051.796798568533
 31
0.0
  0
ARC
  5
18AB2
330
1871D
100
AcDbEntity
  8
TATEDOISIJIKANAGU
100
AcDbCircle
 10
12158.23936343052
 20
3050.296798568532
 30
0.0
 40
1.5
100
AcDbArc
 50
0.0
 51
90.0
  0
ARC
  5
18AB3
330
1871D
100
AcDbEntity
  8
TATEDOISIJIKANAGU
100
AcDbCircle
 10
12158.23936343052
 20
3050.296798568532
 30
0.0
 40
4.099999999999998
100
AcDbArc
 50
0.0
 51
90.0
  0
LINE
  5
18AB4
330
1871D
100
AcDbEntity
  8
TATEDOISIJIKANAGU
100
AcDbLine
 10
12147.93915527504
 20
3055.896798568535
 30
0.0
 11
12147.93915527504
 21
3081.796798568532
 31
0.0
  0
LINE
  5
18AB5
330
1871D
100
AcDbEntity
  8
TATEDOISIJIKANAGU
100
AcDbLine
 10
12147.93915527504
 20
3081.796798568532
 30
0.0
 11
12150.53915527503
 21
3081.796798568532
 31
0.0
  0
LINE
  5
18AB6
330
1871D
100
AcDbEntity
  8
TATEDOISIJIKANAGU
  6
1PL-S
 62
     6
100
AcDbLine
 10
12141.32915527504
 20
3066.796798568532
 30
0.0
 11
12157.14915527503
 21
3066.796798568532
 31
0.0
  0
LINE
  5
18AB7
330
1871D
100
AcDbEntity
  8
TATEDOISIJIKANAGU
100
AcDbLine
 10
12185.93915527504
 20
3049.796798568532
 30
0.0
 11
12185.93915527504
 21
3037.296798568533
 31
0.0
  0
ARC
  5
18AB8
330
1871D
100
AcDbEntity
  8
TATEDOISIJIKANAGU
100
AcDbCircle
 10
12190.64211537042
 20
3043.546798568533
 30
0.0
 40
12.84038832877559
100
AcDbArc
 50
150.8731100751012
 51
209.1268899248985
  0
LINE
  5
18AB9
330
1871D
100
AcDbEntity
  8
GAKU_BUCHI
100
AcDbLine
 10
10712.93915527504
 20
3663.546798568535
 30
0.0
 11
10712.93915527502
 21
2881.546798568535
 31
0.0
  0
TEXT
  5
18ABA
330
1871D
100
AcDbEntity
  8
FILENAME
100
AcDbText
 10
13873.42857142857
 20
174.0
 30
0.0
 40
100.0
  1
＜YOKR-280-A1_1_JIS_GL.DXF ＞
  7
FILENAME
 72
     2
 11
16382.0
 21
174.0
 31
0.0
100
AcDbText
  0
LINE
  5
18ABB
330
1871D
100
AcDbEntity
  8
WAKUSEN-01
100
AcDbLine
 10
434.0000000000008
 20
413.9999999999997
 30
0.0
 11
16382.0
 21
413.9999999999997
 31
0.0
  0
LINE
  5
18ABC
330
1871D
100
AcDbEntity
  8
WAKUSEN-01
100
AcDbLine
 10
434.0000000000008
 20
11242.0
 30
0.0
 11
16382.0
 21
11242.0
 31
0.0
  0
LINE
  5
18ABD
330
1871D
100
AcDbEntity
  8
WAKUSEN-01
100
AcDbLine
 10
434.0000000000008
 20
413.9999999999997
 30
0.0
 11
434.0000000000008
 21
11242.0
 31
0.0
  0
LINE
  5
18ABE
330
1871D
100
AcDbEntity
  8
WAKUSEN-01
100
AcDbLine
 10
16382.0
 20
413.9999999999997
 30
0.0
 11
16382.0
 21
11242.0
 31
0.0
  0
LINE
  5
18ABF
330
1871D
100
AcDbEntity
  8
WAKUSEN-01
100
AcDbLine
 10
10280.0
 20
1242.0
 30
0.0
 11
16382.0
 21
1242.0
 31
0.0
  0
LINE
  5
18AC0
330
1871D
100
AcDbEntity
  8
WAKUSEN-02
100
AcDbLine
 10
10280.0
 20
827.9999999999997
 30
0.0
 11
13434.0
 21
827.9999999999997
 31
0.0
  0
TEXT
  5
18AC1
330
1871D
100
AcDbEntity
  8
WAKUMOJI-01
100
AcDbText
 10
10335.13012998137
 20
1062.951504669661
 30
0.0
 40
120.0
  1
名　称
  7
WAKUMOJI
100
AcDbText
  0
TEXT
  5
18AC2
330
1871D
100
AcDbEntity
  8
WAKUMOJI-01
100
AcDbText
 10
10328.25274254596
 20
659.5644874899107
 30
0.0
 40
120.0
  1
機種名
  7
WAKUMOJI
100
AcDbText
  0
LINE
  5
18AC3
330
1871D
100
AcDbEntity
  8
WAKUSEN-01
100
AcDbLine
 10
10280.0
 20
413.9999999999985
 30
0.0
 11
10280.0
 21
1242.0
 31
0.0
  0
LINE
  5
18AC4
330
1871D
100
AcDbEntity
  8
WAKUSEN-02
100
AcDbLine
 10
13434.0
 20
413.9999999999963
 30
0.0
 11
13434.0
 21
1242.0
 31
0.0
  0
LINE
  5
18AC5
330
1871D
100
AcDbEntity
  8
YODOROGO
100
AcDbLine
 10
14988.80217064596
 20
997.8747482146435
 30
0.0
 11
14914.80217064596
 21
997.8747482146435
 31
0.0
1001
AUTOCAD_POSTSCRIPT_FIGURE
1002
{
1000
PSFILL
1000
Grayscale
1000
Grayscale
1070
    25
1002
}
  0
LINE
  5
18AC6
330
1871D
100
AcDbEntity
  8
YODOROGO
100
AcDbLine
 10
14914.80217064596
 20
973.8747482146434
 30
0.0
 11
14988.80217064596
 21
973.8747482146434
 31
0.0
1001
AUTOCAD_POSTSCRIPT_FIGURE
1002
{
1000
PSFILL
1000
Grayscale
1000
Grayscale
1070
    25
1002
}
  0
LINE
  5
18AC7
330
1871D
100
AcDbEntity
  8
YODOROGO
100
AcDbLine
 10
14988.80217064596
 20
953.874748214644
 30
0.0
 11
14914.80217064596
 21
953.874748214644
 31
0.0
1001
AUTOCAD_POSTSCRIPT_FIGURE
1002
{
1000
PSFILL
1000
Grayscale
1000
Grayscale
1070
    25
1002
}
  0
LINE
  5
18AC8
330
1871D
100
AcDbEntity
  8
YODOROGO
100
AcDbLine
 10
14914.80217064596
 20
929.874748214644
 30
0.0
 11
14988.80217064596
 21
929.874748214644
 31
0.0
1001
AUTOCAD_POSTSCRIPT_FIGURE
1002
{
1000
PSFILL
1000
Grayscale
1000
Grayscale
1070
    25
1002
}
  0
LINE
  5
18AC9
330
1871D
100
AcDbEntity
  8
YODOROGO
100
AcDbLine
 10
14988.80217064596
 20
909.8747482146439
 30
0.0
 11
14914.80217064596
 21
909.8747482146439
 31
0.0
1001
AUTOCAD_POSTSCRIPT_FIGURE
1002
{
1000
PSFILL
1000
Grayscale
1000
Grayscale
1070
    25
1002
}
  0
LINE
  5
18ACA
330
1871D
100
AcDbEntity
  8
YODOROGO
100
AcDbLine
 10
14960.80217064594
 20
853.874748214644
 30
0.0
 11
14988.80217064596
 21
853.874748214644
 31
0.0
1001
AUTOCAD_POSTSCRIPT_FIGURE
1002
{
1000
PSFILL
1000
Grayscale
1000
Grayscale
1070
    25
1002
}
  0
LINE
  5
18ACB
330
1871D
100
AcDbEntity
  8
YODOROGO
100
AcDbLine
 10
14868.80217064596
 20
713.8747482146436
 30
0.0
 11
14968.80217064596
 21
740.6696674577553
 31
0.0
  0
LINE
  5
18ACC
330
1871D
100
AcDbEntity
  8
YODOROGO
100
AcDbLine
 10
14974.80217064595
 20
853.874748214644
 30
0.0
 11
14942.80217064596
 21
853.874748214644
 31
0.0
  0
ARC
  5
18ACD
330
1871D
100
AcDbEntity
  8
YODOROGO
100
AcDbCircle
 10
15127.17387491394
 20
903.9323046166312
 30
0.0
 40
190.9434321028236
100
AcDbArc
 50
213.9611167766784
 51
264.4787207431779
  0
ARC
  5
18ACE
330
1871D
100
AcDbEntity
  8
YODOROGO
100
AcDbCircle
 10
15127.17387491396
 20
903.9323046166513
 30
0.0
 40
190.9434321028408
100
AcDbArc
 50
208.141144204866
 51
212.9210361185994
  0
LINE
  5
18ACF
330
1871D
100
AcDbEntity
  8
YODOROGO
100
AcDbLine
 10
14885.70493649264
 20
778.403830673117
 30
0.0
 11
14966.89206625426
 21
800.1578565285436
 31
0.0
  0
LINE
  5
18AD0
330
1871D
100
AcDbEntity
  8
YODOROGO
100
AcDbLine
 10
14868.80217064596
 20
713.8747482146436
 30
0.0
 11
14968.80217064596
 21
740.6696674577553
 31
0.0
  0
LINE
  5
18AD1
330
1871D
100
AcDbEntity
  8
YODOROGO
100
AcDbLine
 10
14974.80217064595
 20
853.874748214644
 30
0.0
 11
14942.80217064596
 21
853.874748214644
 31
0.0
  0
ARC
  5
18AD2
330
1871D
100
AcDbEntity
  8
YODOROGO
100
AcDbCircle
 10
15127.17387491394
 20
903.9323046166312
 30
0.0
 40
190.9434321028236
100
AcDbArc
 50
213.9611167766784
 51
264.4787207431779
  0
LINE
  5
18AD3
330
1871D
100
AcDbEntity
  8
YODOROGO
100
AcDbLine
 10
14396.80217064594
 20
909.8747482146439
 30
0.0
 11
14216.80217064594
 21
909.8747482146439
 31
0.0
  0
LINE
  5
18AD4
330
1871D
100
AcDbEntity
  8
YODOROGO
100
AcDbLine
 10
14256.80217064594
 20
713.8747482146436
 30
0.0
 11
14396.80217064594
 21
713.8747482146436
 31
0.0
  0
LINE
  5
18AD5
330
1871D
100
AcDbEntity
  8
YODOROGO
100
AcDbLine
 10
14364.80217064596
 20
961.8747482146432
 30
0.0
 11
14248.80217064594
 21
961.8747482146432
 31
0.0
  0
LINE
  5
18AD6
330
1871D
100
AcDbEntity
  8
YODOROGO
100
AcDbLine
 10
14292.80217064596
 20
1013.874748214644
 30
0.0
 11
14328.80217064596
 21
1013.874748214644
 31
0.0
  0
LINE
  5
18AD7
330
1871D
100
AcDbEntity
  8
YODOROGO
100
AcDbLine
 10
14216.80217064594
 20
853.874748214644
 30
0.0
 11
14216.80217064594
 21
753.8747482146439
 31
0.0
  0
LINE
  5
18AD8
330
1871D
100
AcDbEntity
  8
YODOROGO
100
AcDbLine
 10
14248.80217064594
 20
781.8747482146434
 30
0.0
 11
14248.80217064594
 21
853.874748214644
 31
0.0
  0
LINE
  5
18AD9
330
1871D
100
AcDbEntity
  8
YODOROGO
100
AcDbLine
 10
14292.80217064596
 20
873.8747482146449
 30
0.0
 11
14292.80217064596
 21
773.874748214644
 31
0.0
  0
LINE
  5
18ADA
330
1871D
100
AcDbEntity
  8
YODOROGO
100
AcDbLine
 10
13928.80217064596
 20
841.8747482146445
 30
0.0
 11
13888.80217064596
 21
809.9862070222856
 31
0.0
  0
LINE
  5
18ADB
330
1871D
100
AcDbEntity
  8
YODOROGO
100
AcDbLine
 10
13968.80217064596
 20
809.9862070222856
 30
0.0
 11
13928.80217064596
 21
841.8747482146445
 31
0.0
  0
LINE
  5
18ADC
330
1871D
100
AcDbEntity
  8
YODOROGO
100
AcDbLine
 10
13928.80217064596
 20
853.874748214644
 30
0.0
 11
13968.80217064596
 21
821.986207022285
 31
0.0
  0
LINE
  5
18ADD
330
1871D
100
AcDbEntity
  8
YODOROGO
100
AcDbLine
 10
13888.80217064596
 20
821.986207022285
 30
0.0
 11
13928.80217064596
 21
853.874748214644
 31
0.0
  0
LINE
  5
18ADE
330
1871D
100
AcDbEntity
  8
YODOROGO
100
AcDbLine
 10
14020.45660200844
 20
829.874748214644
 30
0.0
 11
14020.45660200844
 21
841.8747482146434
 31
0.0
  0
LINE
  5
18ADF
330
1871D
100
AcDbEntity
  8
YODOROGO
100
AcDbLine
 10
13988.80217064596
 20
841.8747482146434
 30
0.0
 11
13988.80217064596
 21
833.8747482146427
 31
0.0
  0
LINE
  5
18AE0
330
1871D
100
AcDbEntity
  8
YODOROGO
100
AcDbLine
 10
14049.06776011545
 20
853.874748214644
 30
0.0
 11
14049.06776011545
 21
827.751818637328
 31
0.0
1001
AUTOCAD_POSTSCRIPT_FIGURE
1002
{
1000
PSFILL
1000
Grayscale
1000
Grayscale
1070
   100
1002
}
  0
LINE
  5
18AE1
330
1871D
100
AcDbEntity
  8
YODOROGO
100
AcDbLine
 10
14041.06776011546
 20
827.751818637328
 30
0.0
 11
14041.06776011546
 21
853.874748214644
 31
0.0
1001
AUTOCAD_POSTSCRIPT_FIGURE
1002
{
1000
PSFILL
1000
Grayscale
1000
Grayscale
1070
   100
1002
}
  0
LINE
  5
18AE2
330
1871D
100
AcDbEntity
  8
YODOROGO
100
AcDbLine
 10
13904.80217064596
 20
804.3859520216292
 30
0.0
 11
13904.80217064596
 21
816.3859520216298
 31
0.0
  0
LINE
  5
18AE3
330
1871D
100
AcDbEntity
  8
YODOROGO
100
AcDbLine
 10
13952.80217064596
 20
804.3859520216292
 30
0.0
 11
13904.80217064596
 21
804.3859520216292
 31
0.0
  0
LINE
  5
18AE4
330
1871D
100
AcDbEntity
  8
YODOROGO
100
AcDbLine
 10
13952.80217064596
 20
816.3859520216298
 30
0.0
 11
13952.80217064596
 21
804.3859520216292
 31
0.0
  0
LINE
  5
18AE5
330
1871D
100
AcDbEntity
  8
YODOROGO
100
AcDbLine
 10
13904.80217064596
 20
816.3859520216298
 30
0.0
 11
13952.80217064596
 21
816.3859520216298
 31
0.0
  0
LINE
  5
18AE6
330
1871D
100
AcDbEntity
  8
YODOROGO
100
AcDbLine
 10
13912.25479445787
 20
784.2514286852374
 30
0.0
 11
13892.80217064596
 21
737.8747482146435
 31
0.0
1001
AUTOCAD_POSTSCRIPT_FIGURE
1002
{
1000
PSFILL
1000
Grayscale
1000
Grayscale
1070
   100
1002
}
  0
LINE
  5
18AE7
330
1871D
100
AcDbEntity
  8
YODOROGO
100
AcDbLine
 10
13888.80217064596
 20
784.2514286852374
 30
0.0
 11
13912.25479445787
 21
784.2514286852374
 31
0.0
1001
AUTOCAD_POSTSCRIPT_FIGURE
1002
{
1000
PSFILL
1000
Grayscale
1000
Grayscale
1070
   100
1002
}
  0
LINE
  5
18AE8
330
1871D
100
AcDbEntity
  8
YODOROGO
100
AcDbLine
 10
13888.80217064596
 20
794.2514286852374
 30
0.0
 11
13888.80217064596
 21
784.2514286852374
 31
0.0
1001
AUTOCAD_POSTSCRIPT_FIGURE
1002
{
1000
PSFILL
1000
Grayscale
1000
Grayscale
1070
   100
1002
}
  0
LINE
  5
18AE9
330
1871D
100
AcDbEntity
  8
YODOROGO
100
AcDbLine
 10
13968.80217064596
 20
794.2514286852374
 30
0.0
 11
13888.80217064596
 21
794.2514286852374
 31
0.0
1001
AUTOCAD_POSTSCRIPT_FIGURE
1002
{
1000
PSFILL
1000
Grayscale
1000
Grayscale
1070
   100
1002
}
  0
LINE
  5
18AEA
330
1871D
100
AcDbEntity
  8
YODOROGO
100
AcDbLine
 10
13968.80217064596
 20
784.2514286852374
 30
0.0
 11
13968.80217064596
 21
794.2514286852374
 31
0.0
1001
AUTOCAD_POSTSCRIPT_FIGURE
1002
{
1000
PSFILL
1000
Grayscale
1000
Grayscale
1070
   100
1002
}
  0
LINE
  5
18AEB
330
1871D
100
AcDbEntity
  8
YODOROGO
100
AcDbLine
 10
13922.25479445786
 20
784.2514286852374
 30
0.0
 11
13968.80217064596
 21
784.2514286852374
 31
0.0
1001
AUTOCAD_POSTSCRIPT_FIGURE
1002
{
1000
PSFILL
1000
Grayscale
1000
Grayscale
1070
   100
1002
}
  0
LINE
  5
18AEC
330
1871D
100
AcDbEntity
  8
YODOROGO
100
AcDbLine
 10
13907.77335914238
 20
747.8747482146435
 30
0.0
 11
13922.25479445786
 21
784.2514286852374
 31
0.0
1001
AUTOCAD_POSTSCRIPT_FIGURE
1002
{
1000
PSFILL
1000
Grayscale
1000
Grayscale
1070
   100
1002
}
  0
LINE
  5
18AED
330
1871D
100
AcDbEntity
  8
YODOROGO
100
AcDbLine
 10
13951.02739540432
 20
747.8747482146435
 30
0.0
 11
13907.77335914238
 21
747.8747482146435
 31
0.0
1001
AUTOCAD_POSTSCRIPT_FIGURE
1002
{
1000
PSFILL
1000
Grayscale
1000
Grayscale
1070
   100
1002
}
  0
LINE
  5
18AEE
330
1871D
100
AcDbEntity
  8
YODOROGO
100
AcDbLine
 10
13942.53250239547
 20
768.1169053488464
 30
0.0
 11
13951.02739540432
 21
747.8747482146435
 31
0.0
1001
AUTOCAD_POSTSCRIPT_FIGURE
1002
{
1000
PSFILL
1000
Grayscale
1000
Grayscale
1070
   100
1002
}
  0
LINE
  5
18AEF
330
1871D
100
AcDbEntity
  8
YODOROGO
100
AcDbLine
 10
13950.53250239547
 20
768.1169053488464
 30
0.0
 11
13942.53250239547
 21
768.1169053488464
 31
0.0
1001
AUTOCAD_POSTSCRIPT_FIGURE
1002
{
1000
PSFILL
1000
Grayscale
1000
Grayscale
1070
   100
1002
}
  0
LINE
  5
18AF0
330
1871D
100
AcDbEntity
  8
YODOROGO
100
AcDbLine
 10
13964.80217064596
 20
737.8747482146435
 30
0.0
 11
13950.53250239547
 21
768.1169053488464
 31
0.0
1001
AUTOCAD_POSTSCRIPT_FIGURE
1002
{
1000
PSFILL
1000
Grayscale
1000
Grayscale
1070
   100
1002
}
  0
LINE
  5
18AF1
330
1871D
100
AcDbEntity
  8
YODOROGO
100
AcDbLine
 10
13892.80217064596
 20
737.8747482146435
 30
0.0
 11
13964.80217064596
 21
737.8747482146435
 31
0.0
1001
AUTOCAD_POSTSCRIPT_FIGURE
1002
{
1000
PSFILL
1000
Grayscale
1000
Grayscale
1070
   100
1002
}
  0
LINE
  5
18AF2
330
1871D
100
AcDbEntity
  8
YODOROGO
100
AcDbLine
 10
13888.80217064596
 20
809.9862070222856
 30
0.0
 11
13888.80217064596
 21
821.986207022285
 31
0.0
  0
LINE
  5
18AF3
330
1871D
100
AcDbEntity
  8
YODOROGO
100
AcDbLine
 10
13968.80217064596
 20
821.986207022285
 30
0.0
 11
13968.80217064596
 21
809.9862070222856
 31
0.0
  0
ARC
  5
18AF4
330
1871D
100
AcDbEntity
  8
YODOROGO
100
AcDbCircle
 10
14112.97022107348
 20
800.438882662663
 30
0.0
 40
87.99999999999995
100
AcDbArc
 50
280.3644312771313
 51
3.541483659218056
  0
ARC
  5
18AF5
330
1871D
100
AcDbEntity
  8
YODOROGO
100
AcDbCircle
 10
14117.87801537965
 20
816.798903480952
 30
0.0
 40
55.99999999999914
100
AcDbArc
 50
281.2490582504155
 51
348.7509417495832
  0
LINE
  5
18AF6
330
1871D
100
AcDbEntity
  8
YODOROGO
100
AcDbLine
 10
14128.80217064596
 20
761.8747482146434
 30
0.0
 11
14128.80217064596
 21
713.8747482146436
 31
0.0
  0
LINE
  5
18AF7
330
1871D
100
AcDbEntity
  8
YODOROGO
100
AcDbLine
 10
14010.04445186845
 20
805.3252825309574
 30
0.0
 11
14020.45660200844
 21
829.874748214644
 31
0.0
  0
LINE
  5
18AF8
330
1871D
100
AcDbEntity
  8
YODOROGO
100
AcDbLine
 10
14020.80217064596
 20
791.5602449742006
 30
0.0
 11
14010.04445186845
 21
805.3252825309574
 31
0.0
  0
LINE
  5
18AF9
330
1871D
100
AcDbEntity
  8
YODOROGO
100
AcDbLine
 10
14020.80217064596
 20
781.5602449741994
 30
0.0
 11
14020.80217064596
 21
791.5602449742006
 31
0.0
  0
LINE
  5
18AFA
330
1871D
100
AcDbEntity
  8
YODOROGO
100
AcDbLine
 10
14008.80217064596
 20
792.6185318747651
 30
0.0
 11
14020.80217064596
 21
781.5602449741994
 31
0.0
  0
LINE
  5
18AFB
330
1871D
100
AcDbEntity
  8
YODOROGO
100
AcDbLine
 10
14008.80217064596
 20
737.8747482146435
 30
0.0
 11
14008.80217064596
 21
792.6185318747651
 31
0.0
  0
LINE
  5
18AFC
330
1871D
100
AcDbEntity
  8
YODOROGO
100
AcDbLine
 10
14000.80217064596
 20
737.8747482146435
 30
0.0
 11
14008.80217064596
 21
737.8747482146435
 31
0.0
  0
LINE
  5
18AFD
330
1871D
100
AcDbEntity
  8
YODOROGO
100
AcDbLine
 10
14000.80217064596
 20
790.0026748448738
 30
0.0
 11
14000.80217064596
 21
737.8747482146435
 31
0.0
  0
LINE
  5
18AFE
330
1871D
100
AcDbEntity
  8
YODOROGO
100
AcDbLine
 10
13988.80217064596
 20
766.3840395167142
 30
0.0
 11
14000.80217064596
 21
790.0026748448738
 31
0.0
  0
LINE
  5
18AFF
330
1871D
100
AcDbEntity
  8
YODOROGO
100
AcDbLine
 10
13988.80217064596
 20
778.3840395167149
 30
0.0
 11
13988.80217064596
 21
766.3840395167142
 31
0.0
  0
LINE
  5
18B00
330
1871D
100
AcDbEntity
  8
YODOROGO
100
AcDbLine
 10
14012.91438714567
 20
833.8747482146427
 30
0.0
 11
13988.80217064596
 21
778.3840395167149
 31
0.0
  0
LINE
  5
18B01
330
1871D
100
AcDbEntity
  8
YODOROGO
100
AcDbLine
 10
13988.80217064596
 20
833.8747482146427
 30
0.0
 11
14012.91438714567
 21
833.8747482146427
 31
0.0
  0
LINE
  5
18B02
330
1871D
100
AcDbEntity
  8
YODOROGO
100
AcDbLine
 10
14025.06776011545
 20
827.751818637328
 30
0.0
 11
14041.06776011546
 21
827.751818637328
 31
0.0
1001
AUTOCAD_POSTSCRIPT_FIGURE
1002
{
1000
PSFILL
1000
Grayscale
1000
Grayscale
1070
   100
1002
}
  0
LINE
  5
18B03
330
1871D
100
AcDbEntity
  8
YODOROGO
100
AcDbLine
 10
14025.06776011545
 20
815.7518186373286
 30
0.0
 11
14025.06776011545
 21
827.751818637328
 31
0.0
1001
AUTOCAD_POSTSCRIPT_FIGURE
1002
{
1000
PSFILL
1000
Grayscale
1000
Grayscale
1070
   100
1002
}
  0
LINE
  5
18B04
330
1871D
100
AcDbEntity
  8
YODOROGO
100
AcDbLine
 10
14041.06776011546
 20
815.7518186373286
 30
0.0
 11
14025.06776011545
 21
815.7518186373286
 31
0.0
1001
AUTOCAD_POSTSCRIPT_FIGURE
1002
{
1000
PSFILL
1000
Grayscale
1000
Grayscale
1070
   100
1002
}
  0
LINE
  5
18B05
330
1871D
100
AcDbEntity
  8
YODOROGO
100
AcDbLine
 10
14041.06776011546
 20
749.8747482146441
 30
0.0
 11
14041.06776011546
 21
815.7518186373286
 31
0.0
1001
AUTOCAD_POSTSCRIPT_FIGURE
1002
{
1000
PSFILL
1000
Grayscale
1000
Grayscale
1070
   100
1002
}
  0
LINE
  5
18B06
330
1871D
100
AcDbEntity
  8
YODOROGO
100
AcDbLine
 10
14025.06776011545
 20
749.8747482146441
 30
0.0
 11
14041.06776011546
 21
749.8747482146441
 31
0.0
1001
AUTOCAD_POSTSCRIPT_FIGURE
1002
{
1000
PSFILL
1000
Grayscale
1000
Grayscale
1070
   100
1002
}
  0
LINE
  5
18B07
330
1871D
100
AcDbEntity
  8
YODOROGO
100
AcDbLine
 10
14025.06776011545
 20
737.8747482146435
 30
0.0
 11
14025.06776011545
 21
749.8747482146441
 31
0.0
1001
AUTOCAD_POSTSCRIPT_FIGURE
1002
{
1000
PSFILL
1000
Grayscale
1000
Grayscale
1070
   100
1002
}
  0
LINE
  5
18B08
330
1871D
100
AcDbEntity
  8
YODOROGO
100
AcDbLine
 10
14068.80217064596
 20
737.8747482146435
 30
0.0
 11
14025.06776011545
 21
737.8747482146435
 31
0.0
1001
AUTOCAD_POSTSCRIPT_FIGURE
1002
{
1000
PSFILL
1000
Grayscale
1000
Grayscale
1070
   100
1002
}
  0
LINE
  5
18B09
330
1871D
100
AcDbEntity
  8
YODOROGO
100
AcDbLine
 10
14068.80217064596
 20
749.8747482146441
 30
0.0
 11
14068.80217064596
 21
737.8747482146435
 31
0.0
1001
AUTOCAD_POSTSCRIPT_FIGURE
1002
{
1000
PSFILL
1000
Grayscale
1000
Grayscale
1070
   100
1002
}
  0
LINE
  5
18B0A
330
1871D
100
AcDbEntity
  8
YODOROGO
100
AcDbLine
 10
14049.06776011545
 20
749.8747482146441
 30
0.0
 11
14068.80217064596
 21
749.8747482146441
 31
0.0
1001
AUTOCAD_POSTSCRIPT_FIGURE
1002
{
1000
PSFILL
1000
Grayscale
1000
Grayscale
1070
   100
1002
}
  0
LINE
  5
18B0B
330
1871D
100
AcDbEntity
  8
YODOROGO
100
AcDbLine
 10
14049.06776011545
 20
815.7518186373286
 30
0.0
 11
14049.06776011545
 21
749.8747482146441
 31
0.0
1001
AUTOCAD_POSTSCRIPT_FIGURE
1002
{
1000
PSFILL
1000
Grayscale
1000
Grayscale
1070
   100
1002
}
  0
LINE
  5
18B0C
330
1871D
100
AcDbEntity
  8
YODOROGO
100
AcDbLine
 10
14068.80217064596
 20
815.7518186373286
 30
0.0
 11
14049.06776011545
 21
815.7518186373286
 31
0.0
1001
AUTOCAD_POSTSCRIPT_FIGURE
1002
{
1000
PSFILL
1000
Grayscale
1000
Grayscale
1070
   100
1002
}
  0
LINE
  5
18B0D
330
1871D
100
AcDbEntity
  8
YODOROGO
100
AcDbLine
 10
14068.80217064596
 20
827.751818637328
 30
0.0
 11
14068.80217064596
 21
815.7518186373286
 31
0.0
1001
AUTOCAD_POSTSCRIPT_FIGURE
1002
{
1000
PSFILL
1000
Grayscale
1000
Grayscale
1070
   100
1002
}
  0
LINE
  5
18B0E
330
1871D
100
AcDbEntity
  8
YODOROGO
100
AcDbLine
 10
14049.06776011545
 20
827.751818637328
 30
0.0
 11
14068.80217064596
 21
827.751818637328
 31
0.0
1001
AUTOCAD_POSTSCRIPT_FIGURE
1002
{
1000
PSFILL
1000
Grayscale
1000
Grayscale
1070
   100
1002
}
  0
LINE
  5
18B0F
330
1871D
100
AcDbEntity
  8
YODOROGO
100
AcDbLine
 10
14200.80217064594
 20
833.8747482146439
 30
0.0
 11
14172.80217064596
 21
833.8747482146439
 31
0.0
  0
LINE
  5
18B10
330
1871D
100
AcDbEntity
  8
YODOROGO
100
AcDbLine
 10
14200.80217064594
 20
805.8747482146443
 30
0.0
 11
14200.80217064594
 21
833.8747482146439
 31
0.0
  0
LINE
  5
18B11
330
1871D
100
AcDbEntity
  8
YODOROGO
100
AcDbLine
 10
14172.80217064596
 20
833.8747482146439
 30
0.0
 11
14172.80217064596
 21
805.8747482146443
 31
0.0
  0
ARC
  5
18B12
330
1871D
100
AcDbEntity
  8
YODOROGO
100
AcDbCircle
 10
14256.80217064594
 20
753.8747482146439
 30
0.0
 40
40.0
100
AcDbArc
 50
180.0
 51
270.0
  0
ARC
  5
18B13
330
1871D
100
AcDbEntity
  8
YODOROGO
100
AcDbCircle
 10
14268.80217064594
 20
781.8747482146434
 30
0.0
 40
20.0
100
AcDbArc
 50
180.0
 51
270.0
  0
LINE
  5
18B14
330
1871D
100
AcDbEntity
  8
YODOROGO
100
AcDbLine
 10
14280.80217064596
 20
761.8747482146434
 30
0.0
 11
14268.80217064594
 21
761.8747482146434
 31
0.0
  0
ARC
  5
18B15
330
1871D
100
AcDbEntity
  8
YODOROGO
100
AcDbCircle
 10
14280.80217064596
 20
773.8747482146427
 30
0.0
 40
11.99999999999818
100
AcDbArc
 50
270.0
 51
0.0000000000054281
  0
LINE
  5
18B16
330
1871D
100
AcDbEntity
  8
YODOROGO
100
AcDbLine
 10
13900.80217064596
 20
945.3932903968532
 30
0.0
 11
13888.80217064596
 21
921.8883739758362
 31
0.0
1001
AUTOCAD_POSTSCRIPT_FIGURE
1002
{
1000
PSFILL
1000
Grayscale
1000
Grayscale
1070
   100
1002
}
  0
LINE
  5
18B17
330
1871D
100
AcDbEntity
  8
YODOROGO
100
AcDbLine
 10
13900.80217064596
 20
873.8747482146434
 30
0.0
 11
13900.80217064596
 21
945.3932903968532
 31
0.0
1001
AUTOCAD_POSTSCRIPT_FIGURE
1002
{
1000
PSFILL
1000
Grayscale
1000
Grayscale
1070
   100
1002
}
  0
LINE
  5
18B18
330
1871D
100
AcDbEntity
  8
YODOROGO
100
AcDbLine
 10
13908.80217064596
 20
873.8747482146434
 30
0.0
 11
13900.80217064596
 21
873.8747482146434
 31
0.0
1001
AUTOCAD_POSTSCRIPT_FIGURE
1002
{
1000
PSFILL
1000
Grayscale
1000
Grayscale
1070
   100
1002
}
  0
LINE
  5
18B19
330
1871D
100
AcDbEntity
  8
YODOROGO
100
AcDbLine
 10
13908.80217064596
 20
946.8856660426332
 30
0.0
 11
13908.80217064596
 21
873.8747482146434
 31
0.0
1001
AUTOCAD_POSTSCRIPT_FIGURE
1002
{
1000
PSFILL
1000
Grayscale
1000
Grayscale
1070
   100
1002
}
  0
LINE
  5
18B1A
330
1871D
100
AcDbEntity
  8
YODOROGO
100
AcDbLine
 10
13920.80217064596
 20
933.8273791420684
 30
0.0
 11
13908.80217064596
 21
946.8856660426332
 31
0.0
1001
AUTOCAD_POSTSCRIPT_FIGURE
1002
{
1000
PSFILL
1000
Grayscale
1000
Grayscale
1070
   100
1002
}
  0
LINE
  5
18B1B
330
1871D
100
AcDbEntity
  8
YODOROGO
100
AcDbLine
 10
13920.80217064596
 20
941.8273791420681
 30
0.0
 11
13920.80217064596
 21
933.8273791420684
 31
0.0
1001
AUTOCAD_POSTSCRIPT_FIGURE
1002
{
1000
PSFILL
1000
Grayscale
1000
Grayscale
1070
   100
1002
}
  0
LINE
  5
18B1C
330
1871D
100
AcDbEntity
  8
YODOROGO
100
AcDbLine
 10
13908.80217064596
 20
958.8856660426325
 30
0.0
 11
13920.80217064596
 21
941.8273791420681
 31
0.0
1001
AUTOCAD_POSTSCRIPT_FIGURE
1002
{
1000
PSFILL
1000
Grayscale
1000
Grayscale
1070
   100
1002
}
  0
LINE
  5
18B1D
330
1871D
100
AcDbEntity
  8
YODOROGO
100
AcDbLine
 10
13908.80217064596
 20
969.8747482146441
 30
0.0
 11
13908.80217064596
 21
958.8856660426325
 31
0.0
1001
AUTOCAD_POSTSCRIPT_FIGURE
1002
{
1000
PSFILL
1000
Grayscale
1000
Grayscale
1070
   100
1002
}
  0
LINE
  5
18B1E
330
1871D
100
AcDbEntity
  8
YODOROGO
100
AcDbLine
 10
13944.80217064596
 20
969.8747482146441
 30
0.0
 11
13908.80217064596
 21
969.8747482146441
 31
0.0
1001
AUTOCAD_POSTSCRIPT_FIGURE
1002
{
1000
PSFILL
1000
Grayscale
1000
Grayscale
1070
   100
1002
}
  0
LINE
  5
18B1F
330
1871D
100
AcDbEntity
  8
YODOROGO
100
AcDbLine
 10
13944.80217064596
 20
950.2841744681497
 30
0.0
 11
13944.80217064596
 21
969.8747482146441
 31
0.0
1001
AUTOCAD_POSTSCRIPT_FIGURE
1002
{
1000
PSFILL
1000
Grayscale
1000
Grayscale
1070
   100
1002
}
  0
LINE
  5
18B20
330
1871D
100
AcDbEntity
  8
YODOROGO
100
AcDbLine
 10
13928.80217064596
 20
950.2841744681497
 30
0.0
 11
13944.80217064596
 21
950.2841744681497
 31
0.0
1001
AUTOCAD_POSTSCRIPT_FIGURE
1002
{
1000
PSFILL
1000
Grayscale
1000
Grayscale
1070
   100
1002
}
  0
LINE
  5
18B21
330
1871D
100
AcDbEntity
  8
YODOROGO
100
AcDbLine
 10
13928.80217064596
 20
942.2841744681491
 30
0.0
 11
13928.80217064596
 21
950.2841744681497
 31
0.0
1001
AUTOCAD_POSTSCRIPT_FIGURE
1002
{
1000
PSFILL
1000
Grayscale
1000
Grayscale
1070
   100
1002
}
  0
LINE
  5
18B22
330
1871D
100
AcDbEntity
  8
YODOROGO
100
AcDbLine
 10
13944.80217064596
 20
942.2841744681491
 30
0.0
 11
13928.80217064596
 21
942.2841744681491
 31
0.0
1001
AUTOCAD_POSTSCRIPT_FIGURE
1002
{
1000
PSFILL
1000
Grayscale
1000
Grayscale
1070
   100
1002
}
  0
LINE
  5
18B23
330
1871D
100
AcDbEntity
  8
YODOROGO
100
AcDbLine
 10
13944.80217064596
 20
939.8095889822196
 30
0.0
 11
13944.80217064596
 21
942.2841744681491
 31
0.0
1001
AUTOCAD_POSTSCRIPT_FIGURE
1002
{
1000
PSFILL
1000
Grayscale
1000
Grayscale
1070
   100
1002
}
  0
LINE
  5
18B24
330
1871D
100
AcDbEntity
  8
YODOROGO
100
AcDbLine
 10
13924.80217064596
 20
906.4874905807087
 30
0.0
 11
13944.80217064596
 21
939.8095889822196
 31
0.0
1001
AUTOCAD_POSTSCRIPT_FIGURE
1002
{
1000
PSFILL
1000
Grayscale
1000
Grayscale
1070
   100
1002
}
  0
LINE
  5
18B25
330
1871D
100
AcDbEntity
  8
YODOROGO
100
AcDbLine
 10
13924.80217064596
 20
898.487490580708
 30
0.0
 11
13924.80217064596
 21
906.4874905807087
 31
0.0
1001
AUTOCAD_POSTSCRIPT_FIGURE
1002
{
1000
PSFILL
1000
Grayscale
1000
Grayscale
1070
   100
1002
}
  0
LINE
  5
18B26
330
1871D
100
AcDbEntity
  8
YODOROGO
100
AcDbLine
 10
13944.80217064596
 20
923.8095889822183
 30
0.0
 11
13924.80217064596
 21
898.487490580708
 31
0.0
1001
AUTOCAD_POSTSCRIPT_FIGURE
1002
{
1000
PSFILL
1000
Grayscale
1000
Grayscale
1070
   100
1002
}
  0
LINE
  5
18B27
330
1871D
100
AcDbEntity
  8
YODOROGO
100
AcDbLine
 10
13944.80217064596
 20
873.8747482146434
 30
0.0
 11
13944.80217064596
 21
923.8095889822183
 31
0.0
1001
AUTOCAD_POSTSCRIPT_FIGURE
1002
{
1000
PSFILL
1000
Grayscale
1000
Grayscale
1070
   100
1002
}
  0
LINE
  5
18B28
330
1871D
100
AcDbEntity
  8
YODOROGO
100
AcDbLine
 10
13952.80217064596
 20
873.8747482146434
 30
0.0
 11
13944.80217064596
 21
873.8747482146434
 31
0.0
1001
AUTOCAD_POSTSCRIPT_FIGURE
1002
{
1000
PSFILL
1000
Grayscale
1000
Grayscale
1070
   100
1002
}
  0
LINE
  5
18B29
330
1871D
100
AcDbEntity
  8
YODOROGO
100
AcDbLine
 10
13952.80217064596
 20
924.7045060794032
 30
0.0
 11
13952.80217064596
 21
873.8747482146434
 31
0.0
1001
AUTOCAD_POSTSCRIPT_FIGURE
1002
{
1000
PSFILL
1000
Grayscale
1000
Grayscale
1070
   100
1002
}
  0
LINE
  5
18B2A
330
1871D
100
AcDbEntity
  8
YODOROGO
100
AcDbLine
 10
13968.80217064596
 20
898.487490580708
 30
0.0
 11
13952.80217064596
 21
924.7045060794032
 31
0.0
1001
AUTOCAD_POSTSCRIPT_FIGURE
1002
{
1000
PSFILL
1000
Grayscale
1000
Grayscale
1070
   100
1002
}
  0
LINE
  5
18B2B
330
1871D
100
AcDbEntity
  8
YODOROGO
100
AcDbLine
 10
13968.80217064596
 20
906.4874905807087
 30
0.0
 11
13968.80217064596
 21
898.487490580708
 31
0.0
1001
AUTOCAD_POSTSCRIPT_FIGURE
1002
{
1000
PSFILL
1000
Grayscale
1000
Grayscale
1070
   100
1002
}
  0
LINE
  5
18B2C
330
1871D
100
AcDbEntity
  8
YODOROGO
100
AcDbLine
 10
13952.80217064596
 20
940.7045060794041
 30
0.0
 11
13968.80217064596
 21
906.4874905807087
 31
0.0
1001
AUTOCAD_POSTSCRIPT_FIGURE
1002
{
1000
PSFILL
1000
Grayscale
1000
Grayscale
1070
   100
1002
}
  0
LINE
  5
18B2D
330
1871D
100
AcDbEntity
  8
YODOROGO
100
AcDbLine
 10
13952.80217064596
 20
942.2841744681502
 30
0.0
 11
13952.80217064596
 21
940.7045060794041
 31
0.0
1001
AUTOCAD_POSTSCRIPT_FIGURE
1002
{
1000
PSFILL
1000
Grayscale
1000
Grayscale
1070
   100
1002
}
  0
LINE
  5
18B2E
330
1871D
100
AcDbEntity
  8
YODOROGO
100
AcDbLine
 10
13968.80217064596
 20
942.2841744681491
 30
0.0
 11
13952.80217064596
 21
942.2841744681502
 31
0.0
1001
AUTOCAD_POSTSCRIPT_FIGURE
1002
{
1000
PSFILL
1000
Grayscale
1000
Grayscale
1070
   100
1002
}
  0
LINE
  5
18B2F
330
1871D
100
AcDbEntity
  8
YODOROGO
100
AcDbLine
 10
13968.80217064596
 20
950.2841744681497
 30
0.0
 11
13968.80217064596
 21
942.2841744681491
 31
0.0
1001
AUTOCAD_POSTSCRIPT_FIGURE
1002
{
1000
PSFILL
1000
Grayscale
1000
Grayscale
1070
   100
1002
}
  0
LINE
  5
18B30
330
1871D
100
AcDbEntity
  8
YODOROGO
100
AcDbLine
 10
13952.80217064596
 20
950.2841744681497
 30
0.0
 11
13968.80217064596
 21
950.2841744681497
 31
0.0
1001
AUTOCAD_POSTSCRIPT_FIGURE
1002
{
1000
PSFILL
1000
Grayscale
1000
Grayscale
1070
   100
1002
}
  0
LINE
  5
18B31
330
1871D
100
AcDbEntity
  8
YODOROGO
100
AcDbLine
 10
13952.80217064596
 20
969.8747482146441
 30
0.0
 11
13952.80217064596
 21
950.2841744681497
 31
0.0
1001
AUTOCAD_POSTSCRIPT_FIGURE
1002
{
1000
PSFILL
1000
Grayscale
1000
Grayscale
1070
   100
1002
}
  0
LINE
  5
18B32
330
1871D
100
AcDbEntity
  8
YODOROGO
100
AcDbLine
 10
13968.80217064596
 20
969.8747482146441
 30
0.0
 11
13952.80217064596
 21
969.8747482146441
 31
0.0
1001
AUTOCAD_POSTSCRIPT_FIGURE
1002
{
1000
PSFILL
1000
Grayscale
1000
Grayscale
1070
   100
1002
}
  0
LINE
  5
18B33
330
1871D
100
AcDbEntity
  8
YODOROGO
100
AcDbLine
 10
13968.80217064596
 20
977.8747482146435
 30
0.0
 11
13968.80217064596
 21
969.8747482146441
 31
0.0
1001
AUTOCAD_POSTSCRIPT_FIGURE
1002
{
1000
PSFILL
1000
Grayscale
1000
Grayscale
1070
   100
1002
}
  0
LINE
  5
18B34
330
1871D
100
AcDbEntity
  8
YODOROGO
100
AcDbLine
 10
13952.80217064596
 20
977.8747482146435
 30
0.0
 11
13968.80217064596
 21
977.8747482146435
 31
0.0
1001
AUTOCAD_POSTSCRIPT_FIGURE
1002
{
1000
PSFILL
1000
Grayscale
1000
Grayscale
1070
   100
1002
}
  0
LINE
  5
18B35
330
1871D
100
AcDbEntity
  8
YODOROGO
100
AcDbLine
 10
13952.80217064596
 20
989.8747482146442
 30
0.0
 11
13952.80217064596
 21
977.8747482146435
 31
0.0
1001
AUTOCAD_POSTSCRIPT_FIGURE
1002
{
1000
PSFILL
1000
Grayscale
1000
Grayscale
1070
   100
1002
}
  0
LINE
  5
18B36
330
1871D
100
AcDbEntity
  8
YODOROGO
100
AcDbLine
 10
13944.80217064596
 20
989.8747482146442
 30
0.0
 11
13952.80217064596
 21
989.8747482146442
 31
0.0
1001
AUTOCAD_POSTSCRIPT_FIGURE
1002
{
1000
PSFILL
1000
Grayscale
1000
Grayscale
1070
   100
1002
}
  0
LINE
  5
18B37
330
1871D
100
AcDbEntity
  8
YODOROGO
100
AcDbLine
 10
13944.80217064596
 20
977.8747482146435
 30
0.0
 11
13944.80217064596
 21
989.8747482146442
 31
0.0
1001
AUTOCAD_POSTSCRIPT_FIGURE
1002
{
1000
PSFILL
1000
Grayscale
1000
Grayscale
1070
   100
1002
}
  0
LINE
  5
18B38
330
1871D
100
AcDbEntity
  8
YODOROGO
100
AcDbLine
 10
13932.80217064596
 20
977.8747482146435
 30
0.0
 11
13944.80217064596
 21
977.8747482146435
 31
0.0
1001
AUTOCAD_POSTSCRIPT_FIGURE
1002
{
1000
PSFILL
1000
Grayscale
1000
Grayscale
1070
   100
1002
}
  0
LINE
  5
18B39
330
1871D
100
AcDbEntity
  8
YODOROGO
100
AcDbLine
 10
13932.80217064596
 20
989.8747482146442
 30
0.0
 11
13932.80217064596
 21
977.8747482146435
 31
0.0
1001
AUTOCAD_POSTSCRIPT_FIGURE
1002
{
1000
PSFILL
1000
Grayscale
1000
Grayscale
1070
   100
1002
}
  0
LINE
  5
18B3A
330
1871D
100
AcDbEntity
  8
YODOROGO
100
AcDbLine
 10
13924.80217064596
 20
989.8747482146442
 30
0.0
 11
13932.80217064596
 21
989.8747482146442
 31
0.0
1001
AUTOCAD_POSTSCRIPT_FIGURE
1002
{
1000
PSFILL
1000
Grayscale
1000
Grayscale
1070
   100
1002
}
  0
LINE
  5
18B3B
330
1871D
100
AcDbEntity
  8
YODOROGO
100
AcDbLine
 10
13924.80217064596
 20
977.8747482146435
 30
0.0
 11
13924.80217064596
 21
989.8747482146442
 31
0.0
1001
AUTOCAD_POSTSCRIPT_FIGURE
1002
{
1000
PSFILL
1000
Grayscale
1000
Grayscale
1070
   100
1002
}
  0
LINE
  5
18B3C
330
1871D
100
AcDbEntity
  8
YODOROGO
100
AcDbLine
 10
13908.80217064596
 20
977.8747482146435
 30
0.0
 11
13924.80217064596
 21
977.8747482146435
 31
0.0
1001
AUTOCAD_POSTSCRIPT_FIGURE
1002
{
1000
PSFILL
1000
Grayscale
1000
Grayscale
1070
   100
1002
}
  0
LINE
  5
18B3D
330
1871D
100
AcDbEntity
  8
YODOROGO
100
AcDbLine
 10
13908.80217064596
 20
989.8747482146442
 30
0.0
 11
13908.80217064596
 21
977.8747482146435
 31
0.0
1001
AUTOCAD_POSTSCRIPT_FIGURE
1002
{
1000
PSFILL
1000
Grayscale
1000
Grayscale
1070
   100
1002
}
  0
LINE
  5
18B3E
330
1871D
100
AcDbEntity
  8
YODOROGO
100
AcDbLine
 10
13900.80217064596
 20
989.8747482146442
 30
0.0
 11
13908.80217064596
 21
989.8747482146442
 31
0.0
1001
AUTOCAD_POSTSCRIPT_FIGURE
1002
{
1000
PSFILL
1000
Grayscale
1000
Grayscale
1070
   100
1002
}
  0
LINE
  5
18B3F
330
1871D
100
AcDbEntity
  8
YODOROGO
100
AcDbLine
 10
13900.80217064596
 20
977.8747482146435
 30
0.0
 11
13900.80217064596
 21
989.8747482146442
 31
0.0
1001
AUTOCAD_POSTSCRIPT_FIGURE
1002
{
1000
PSFILL
1000
Grayscale
1000
Grayscale
1070
   100
1002
}
  0
LINE
  5
18B40
330
1871D
100
AcDbEntity
  8
YODOROGO
100
AcDbLine
 10
13888.80217064596
 20
977.8747482146435
 30
0.0
 11
13900.80217064596
 21
977.8747482146435
 31
0.0
1001
AUTOCAD_POSTSCRIPT_FIGURE
1002
{
1000
PSFILL
1000
Grayscale
1000
Grayscale
1070
   100
1002
}
  0
LINE
  5
18B41
330
1871D
100
AcDbEntity
  8
YODOROGO
100
AcDbLine
 10
13888.80217064596
 20
969.8747482146441
 30
0.0
 11
13888.80217064596
 21
977.8747482146435
 31
0.0
1001
AUTOCAD_POSTSCRIPT_FIGURE
1002
{
1000
PSFILL
1000
Grayscale
1000
Grayscale
1070
   100
1002
}
  0
LINE
  5
18B42
330
1871D
100
AcDbEntity
  8
YODOROGO
100
AcDbLine
 10
13900.80217064596
 20
969.8747482146441
 30
0.0
 11
13888.80217064596
 21
969.8747482146441
 31
0.0
1001
AUTOCAD_POSTSCRIPT_FIGURE
1002
{
1000
PSFILL
1000
Grayscale
1000
Grayscale
1070
   100
1002
}
  0
LINE
  5
18B43
330
1871D
100
AcDbEntity
  8
YODOROGO
100
AcDbLine
 10
13900.80217064596
 20
957.3932903968525
 30
0.0
 11
13900.80217064596
 21
969.8747482146441
 31
0.0
1001
AUTOCAD_POSTSCRIPT_FIGURE
1002
{
1000
PSFILL
1000
Grayscale
1000
Grayscale
1070
   100
1002
}
  0
LINE
  5
18B44
330
1871D
100
AcDbEntity
  8
YODOROGO
100
AcDbLine
 10
13888.80217064596
 20
929.8883739758355
 30
0.0
 11
13900.80217064596
 21
957.3932903968525
 31
0.0
1001
AUTOCAD_POSTSCRIPT_FIGURE
1002
{
1000
PSFILL
1000
Grayscale
1000
Grayscale
1070
   100
1002
}
  0
LINE
  5
18B45
330
1871D
100
AcDbEntity
  8
YODOROGO
100
AcDbLine
 10
13888.80217064596
 20
921.8883739758362
 30
0.0
 11
13888.80217064596
 21
929.8883739758355
 31
0.0
1001
AUTOCAD_POSTSCRIPT_FIGURE
1002
{
1000
PSFILL
1000
Grayscale
1000
Grayscale
1070
   100
1002
}
  0
LINE
  5
18B46
330
1871D
100
AcDbEntity
  8
YODOROGO
100
AcDbLine
 10
14128.80217064596
 20
933.8747482146439
 30
0.0
 11
14200.80217064594
 21
912.4388128201532
 31
0.0
1001
AUTOCAD_POSTSCRIPT_FIGURE
1002
{
1000
PSFILL
1000
Grayscale
1000
Grayscale
1070
   100
1002
}
  0
LINE
  5
18B47
330
1871D
100
AcDbEntity
  8
YODOROGO
100
AcDbLine
 10
14200.80217064594
 20
876.4388128201531
 30
0.0
 11
14128.80217064596
 21
897.8747482146435
 31
0.0
1001
AUTOCAD_POSTSCRIPT_FIGURE
1002
{
1000
PSFILL
1000
Grayscale
1000
Grayscale
1070
   100
1002
}
  0
LINE
  5
18B48
330
1871D
100
AcDbEntity
  8
YODOROGO
100
AcDbLine
 10
14200.80217064594
 20
992.4388128201531
 30
0.0
 11
14128.80217064596
 21
1013.874748214644
 31
0.0
1001
AUTOCAD_POSTSCRIPT_FIGURE
1002
{
1000
PSFILL
1000
Grayscale
1000
Grayscale
1070
   100
1002
}
  0
LINE
  5
18B49
330
1871D
100
AcDbEntity
  8
YODOROGO
100
AcDbLine
 10
14128.80217064596
 20
979.874748214644
 30
0.0
 11
14200.80217064594
 21
958.4388128201537
 31
0.0
1001
AUTOCAD_POSTSCRIPT_FIGURE
1002
{
1000
PSFILL
1000
Grayscale
1000
Grayscale
1070
   100
1002
}
  0
LINE
  5
18B4A
330
1871D
100
AcDbEntity
  8
YODOROGO
100
AcDbLine
 10
14128.80217064596
 20
897.8747482146435
 30
0.0
 11
14128.80217064596
 21
933.8747482146439
 31
0.0
1001
AUTOCAD_POSTSCRIPT_FIGURE
1002
{
1000
PSFILL
1000
Grayscale
1000
Grayscale
1070
   100
1002
}
  0
LINE
  5
18B4B
330
1871D
100
AcDbEntity
  8
YODOROGO
100
AcDbLine
 10
14128.80217064596
 20
1013.874748214644
 30
0.0
 11
14128.80217064596
 21
979.874748214644
 31
0.0
1001
AUTOCAD_POSTSCRIPT_FIGURE
1002
{
1000
PSFILL
1000
Grayscale
1000
Grayscale
1070
   100
1002
}
  0
LINE
  5
18B4C
330
1871D
100
AcDbEntity
  8
YODOROGO
100
AcDbLine
 10
14040.11816010337
 20
969.8747482146441
 30
0.0
 11
14064.80217064595
 21
873.8747482146434
 31
0.0
1001
AUTOCAD_POSTSCRIPT_FIGURE
1002
{
1000
PSFILL
1000
Grayscale
1000
Grayscale
1070
   100
1002
}
  0
LINE
  5
18B4D
330
1871D
100
AcDbEntity
  8
YODOROGO
100
AcDbLine
 10
13988.80217064596
 20
969.8747482146441
 30
0.0
 11
14040.11816010337
 21
969.8747482146441
 31
0.0
1001
AUTOCAD_POSTSCRIPT_FIGURE
1002
{
1000
PSFILL
1000
Grayscale
1000
Grayscale
1070
   100
1002
}
  0
LINE
  5
18B4E
330
1871D
100
AcDbEntity
  8
YODOROGO
100
AcDbLine
 10
13988.80217064596
 20
977.8747482146435
 30
0.0
 11
13988.80217064596
 21
969.8747482146441
 31
0.0
1001
AUTOCAD_POSTSCRIPT_FIGURE
1002
{
1000
PSFILL
1000
Grayscale
1000
Grayscale
1070
   100
1002
}
  0
LINE
  5
18B4F
330
1871D
100
AcDbEntity
  8
YODOROGO
100
AcDbLine
 10
14038.30343925995
 20
977.8747482146435
 30
0.0
 11
13988.80217064596
 21
977.8747482146435
 31
0.0
1001
AUTOCAD_POSTSCRIPT_FIGURE
1002
{
1000
PSFILL
1000
Grayscale
1000
Grayscale
1070
   100
1002
}
  0
LINE
  5
18B50
330
1871D
100
AcDbEntity
  8
YODOROGO
100
AcDbLine
 10
14035.58135799485
 20
989.8747482146442
 30
0.0
 11
14038.30343925995
 21
977.8747482146435
 31
0.0
1001
AUTOCAD_POSTSCRIPT_FIGURE
1002
{
1000
PSFILL
1000
Grayscale
1000
Grayscale
1070
   100
1002
}
  0
LINE
  5
18B51
330
1871D
100
AcDbEntity
  8
YODOROGO
100
AcDbLine
 10
14045.58135799485
 20
989.8747482146442
 30
0.0
 11
14035.58135799485
 21
989.8747482146442
 31
0.0
1001
AUTOCAD_POSTSCRIPT_FIGURE
1002
{
1000
PSFILL
1000
Grayscale
1000
Grayscale
1070
   100
1002
}
  0
LINE
  5
18B52
330
1871D
100
AcDbEntity
  8
YODOROGO
100
AcDbLine
 10
14047.90343925997
 20
977.8747482146435
 30
0.0
 11
14045.58135799485
 21
989.8747482146442
 31
0.0
1001
AUTOCAD_POSTSCRIPT_FIGURE
1002
{
1000
PSFILL
1000
Grayscale
1000
Grayscale
1070
   100
1002
}
  0
LINE
  5
18B53
330
1871D
100
AcDbEntity
  8
YODOROGO
100
AcDbLine
 10
14060.80217064596
 20
977.8747482146435
 30
0.0
 11
14047.90343925997
 21
977.8747482146435
 31
0.0
1001
AUTOCAD_POSTSCRIPT_FIGURE
1002
{
1000
PSFILL
1000
Grayscale
1000
Grayscale
1070
   100
1002
}
  0
LINE
  5
18B54
330
1871D
100
AcDbEntity
  8
YODOROGO
100
AcDbLine
 10
14060.80217064596
 20
989.8747482146442
 30
0.0
 11
14060.80217064596
 21
977.8747482146435
 31
0.0
1001
AUTOCAD_POSTSCRIPT_FIGURE
1002
{
1000
PSFILL
1000
Grayscale
1000
Grayscale
1070
   100
1002
}
  0
LINE
  5
18B55
330
1871D
100
AcDbEntity
  8
YODOROGO
100
AcDbLine
 10
14068.80217064596
 20
989.8747482146442
 30
0.0
 11
14060.80217064596
 21
989.8747482146442
 31
0.0
1001
AUTOCAD_POSTSCRIPT_FIGURE
1002
{
1000
PSFILL
1000
Grayscale
1000
Grayscale
1070
   100
1002
}
  0
LINE
  5
18B56
330
1871D
100
AcDbEntity
  8
YODOROGO
100
AcDbLine
 10
14068.80217064596
 20
977.8747482146435
 30
0.0
 11
14068.80217064596
 21
989.8747482146442
 31
0.0
1001
AUTOCAD_POSTSCRIPT_FIGURE
1002
{
1000
PSFILL
1000
Grayscale
1000
Grayscale
1070
   100
1002
}
  0
LINE
  5
18B57
330
1871D
100
AcDbEntity
  8
YODOROGO
100
AcDbLine
 10
14068.80217064596
 20
969.8747482146441
 30
0.0
 11
14068.80217064596
 21
977.8747482146435
 31
0.0
1001
AUTOCAD_POSTSCRIPT_FIGURE
1002
{
1000
PSFILL
1000
Grayscale
1000
Grayscale
1070
   100
1002
}
  0
LINE
  5
18B58
330
1871D
100
AcDbEntity
  8
YODOROGO
100
AcDbLine
 10
14049.45149343671
 20
969.8747482146441
 30
0.0
 11
14068.80217064596
 21
969.8747482146441
 31
0.0
1001
AUTOCAD_POSTSCRIPT_FIGURE
1002
{
1000
PSFILL
1000
Grayscale
1000
Grayscale
1070
   100
1002
}
  0
LINE
  5
18B59
330
1871D
100
AcDbEntity
  8
YODOROGO
100
AcDbLine
 10
14068.80217064596
 20
873.8747482146434
 30
0.0
 11
14049.45149343671
 21
969.8747482146441
 31
0.0
1001
AUTOCAD_POSTSCRIPT_FIGURE
1002
{
1000
PSFILL
1000
Grayscale
1000
Grayscale
1070
   100
1002
}
  0
LINE
  5
18B5A
330
1871D
100
AcDbEntity
  8
YODOROGO
100
AcDbLine
 10
14064.80217064595
 20
873.8747482146434
 30
0.0
 11
14068.80217064596
 21
873.8747482146434
 31
0.0
1001
AUTOCAD_POSTSCRIPT_FIGURE
1002
{
1000
PSFILL
1000
Grayscale
1000
Grayscale
1070
   100
1002
}
  0
LINE
  5
18B5B
330
1871D
100
AcDbEntity
  8
YODOROGO
100
AcDbLine
 10
14039.03460996689
 20
887.8703881493972
 30
0.0
 11
13988.80217064596
 21
873.8747482146434
 31
0.0
  0
LINE
  5
18B5C
330
1871D
100
AcDbEntity
  8
YODOROGO
100
AcDbLine
 10
14039.03460996689
 20
899.3344897645364
 30
0.0
 11
14039.03460996689
 21
887.8703881493972
 31
0.0
  0
LINE
  5
18B5D
330
1871D
100
AcDbEntity
  8
YODOROGO
100
AcDbLine
 10
14016.91839030643
 20
893.4084665668834
 30
0.0
 11
14039.03460996689
 21
899.3344897645364
 31
0.0
  0
LINE
  5
18B5E
330
1871D
100
AcDbEntity
  8
YODOROGO
100
AcDbLine
 10
14016.91839030643
 20
936.2841744681499
 30
0.0
 11
14016.91839030643
 21
893.4084665668834
 31
0.0
  0
LINE
  5
18B5F
330
1871D
100
AcDbEntity
  8
YODOROGO
100
AcDbLine
 10
14039.03460996689
 20
936.2841744681499
 30
0.0
 11
14016.91839030643
 21
936.2841744681499
 31
0.0
  0
LINE
  5
18B60
330
1871D
100
AcDbEntity
  8
YODOROGO
100
AcDbLine
 10
14039.03460996689
 20
946.2841744681487
 30
0.0
 11
14039.03460996689
 21
936.2841744681499
 31
0.0
  0
LINE
  5
18B61
330
1871D
100
AcDbEntity
  8
YODOROGO
100
AcDbLine
 10
13988.80217064596
 20
946.2841744681487
 30
0.0
 11
14039.03460996689
 21
946.2841744681487
 31
0.0
  0
LINE
  5
18B62
330
1871D
100
AcDbEntity
  8
YODOROGO
100
AcDbLine
 10
13988.80217064596
 20
936.2841744681499
 30
0.0
 11
13988.80217064596
 21
946.2841744681487
 31
0.0
  0
LINE
  5
18B63
330
1871D
100
AcDbEntity
  8
YODOROGO
100
AcDbLine
 10
14010.91839030643
 20
936.2841744681499
 30
0.0
 11
13988.80217064596
 21
936.2841744681499
 31
0.0
  0
LINE
  5
18B64
330
1871D
100
AcDbEntity
  8
YODOROGO
100
AcDbLine
 10
14010.91839030643
 20
892.3366697971587
 30
0.0
 11
14010.91839030643
 21
936.2841744681499
 31
0.0
  0
LINE
  5
18B65
330
1871D
100
AcDbEntity
  8
YODOROGO
100
AcDbLine
 10
13988.80217064596
 20
885.8747482146432
 30
0.0
 11
14010.91839030643
 21
892.3366697971587
 31
0.0
  0
LINE
  5
18B66
330
1871D
100
AcDbEntity
  8
YODOROGO
100
AcDbLine
 10
13988.80217064596
 20
873.8747482146434
 30
0.0
 11
13988.80217064596
 21
885.8747482146432
 31
0.0
  0
LINE
  5
18B67
330
1871D
100
AcDbEntity
  8
YODOROGO
100
AcDbLine
 10
14000.80217064596
 20
853.874748214644
 30
0.0
 11
14000.80217064596
 21
841.8747482146434
 31
0.0
  0
LINE
  5
18B68
330
1871D
100
AcDbEntity
  8
YODOROGO
100
AcDbLine
 10
14000.80217064596
 20
853.874748214644
 30
0.0
 11
14000.80217064596
 21
853.874748214644
 31
0.0
  0
LINE
  5
18B69
330
1871D
100
AcDbEntity
  8
YODOROGO
100
AcDbLine
 10
14008.80217064596
 20
853.874748214644
 30
0.0
 11
14000.80217064596
 21
853.874748214644
 31
0.0
  0
LINE
  5
18B6A
330
1871D
100
AcDbEntity
  8
YODOROGO
100
AcDbLine
 10
14008.80217064596
 20
841.8747482146434
 30
0.0
 11
14008.80217064596
 21
853.874748214644
 31
0.0
  0
LINE
  5
18B6B
330
1871D
100
AcDbEntity
  8
YODOROGO
100
AcDbLine
 10
14020.45660200844
 20
841.8747482146434
 30
0.0
 11
14008.80217064596
 21
841.8747482146434
 31
0.0
  0
LINE
  5
18B6C
330
1871D
100
AcDbEntity
  8
YODOROGO
100
AcDbLine
 10
14000.80217064596
 20
841.8747482146434
 30
0.0
 11
13988.80217064596
 21
841.8747482146434
 31
0.0
  0
LINE
  5
18B6D
330
1871D
100
AcDbEntity
  8
YODOROGO
100
AcDbLine
 10
14041.06776011546
 20
853.874748214644
 30
0.0
 11
14049.06776011545
 21
853.874748214644
 31
0.0
1001
AUTOCAD_POSTSCRIPT_FIGURE
1002
{
1000
PSFILL
1000
Grayscale
1000
Grayscale
1070
   100
1002
}
  0
LINE
  5
18B6E
330
1871D
100
AcDbEntity
  8
YODOROGO
100
AcDbLine
 10
14200.80217064594
 20
912.4388128201532
 30
0.0
 11
14200.80217064594
 21
876.4388128201531
 31
0.0
1001
AUTOCAD_POSTSCRIPT_FIGURE
1002
{
1000
PSFILL
1000
Grayscale
1000
Grayscale
1070
   100
1002
}
  0
LINE
  5
18B6F
330
1871D
100
AcDbEntity
  8
YODOROGO
100
AcDbLine
 10
14200.80217064594
 20
958.4388128201537
 30
0.0
 11
14200.80217064594
 21
992.4388128201531
 31
0.0
1001
AUTOCAD_POSTSCRIPT_FIGURE
1002
{
1000
PSFILL
1000
Grayscale
1000
Grayscale
1070
   100
1002
}
  0
LINE
  5
18B70
330
1871D
100
AcDbEntity
  8
YODOROGO
100
AcDbLine
 10
14216.80217064594
 20
909.8747482146439
 30
0.0
 11
14216.80217064594
 21
873.8747482146449
 31
0.0
  0
LINE
  5
18B71
330
1871D
100
AcDbEntity
  8
YODOROGO
100
AcDbLine
 10
14248.80217064594
 20
853.874748214644
 30
0.0
 11
14216.80217064594
 21
853.874748214644
 31
0.0
  0
LINE
  5
18B72
330
1871D
100
AcDbEntity
  8
YODOROGO
100
AcDbLine
 10
14216.80217064594
 20
873.8747482146449
 30
0.0
 11
14292.80217064596
 21
873.8747482146449
 31
0.0
  0
LINE
  5
18B73
330
1871D
100
AcDbEntity
  8
YODOROGO
100
AcDbLine
 10
14248.80217064594
 20
933.8747482146439
 30
0.0
 11
14216.80217064594
 21
933.8747482146439
 31
0.0
  0
LINE
  5
18B74
330
1871D
100
AcDbEntity
  8
YODOROGO
100
AcDbLine
 10
14248.80217064594
 20
961.8747482146432
 30
0.0
 11
14248.80217064594
 21
933.8747482146439
 31
0.0
  0
LINE
  5
18B75
330
1871D
100
AcDbEntity
  8
YODOROGO
100
AcDbLine
 10
14292.80217064596
 20
993.8747482146439
 30
0.0
 11
14292.80217064596
 21
1013.874748214644
 31
0.0
  0
LINE
  5
18B76
330
1871D
100
AcDbEntity
  8
YODOROGO
100
AcDbLine
 10
14216.80217064594
 20
993.8747482146439
 30
0.0
 11
14292.80217064596
 21
993.8747482146439
 31
0.0
  0
LINE
  5
18B77
330
1871D
100
AcDbEntity
  8
YODOROGO
100
AcDbLine
 10
14216.80217064594
 20
933.8747482146439
 30
0.0
 11
14216.80217064594
 21
993.8747482146439
 31
0.0
  0
LINE
  5
18B78
330
1871D
100
AcDbEntity
  8
YODOROGO
100
AcDbLine
 10
14500.80217064594
 20
1013.874748214644
 30
0.0
 11
14500.80217064594
 21
809.8747482146441
 31
0.0
  0
LINE
  5
18B79
330
1871D
100
AcDbEntity
  8
YODOROGO
100
AcDbLine
 10
14536.80217064596
 20
789.8747482146441
 30
0.0
 11
14536.80217064596
 21
1013.874748214644
 31
0.0
  0
LINE
  5
18B7A
330
1871D
100
AcDbEntity
  8
YODOROGO
100
AcDbLine
 10
14630.80217064596
 20
745.8747482146431
 30
0.0
 11
14630.80217064596
 21
1003.874748214644
 31
0.0
  0
LINE
  5
18B7B
330
1871D
100
AcDbEntity
  8
YODOROGO
100
AcDbLine
 10
14598.80217064596
 20
1003.874748214644
 30
0.0
 11
14598.80217064596
 21
745.8747482146431
 31
0.0
  0
LINE
  5
18B7C
330
1871D
100
AcDbEntity
  8
YODOROGO
100
AcDbLine
 10
14692.80217064596
 20
1013.874748214644
 30
0.0
 11
14692.80217064596
 21
713.8747482146436
 31
0.0
  0
LINE
  5
18B7D
330
1871D
100
AcDbEntity
  8
YODOROGO
100
AcDbLine
 10
14728.80217064596
 20
713.8747482146436
 30
0.0
 11
14728.80217064596
 21
1013.874748214644
 31
0.0
  0
LINE
  5
18B7E
330
1871D
100
AcDbEntity
  8
YODOROGO
100
AcDbLine
 10
14328.80217064594
 20
833.8747482146439
 30
0.0
 11
14328.80217064594
 21
873.8747482146449
 31
0.0
  0
LINE
  5
18B7F
330
1871D
100
AcDbEntity
  8
YODOROGO
100
AcDbLine
 10
14942.80217064596
 20
853.874748214644
 30
0.0
 11
14942.80217064596
 21
833.8747482146439
 31
0.0
  0
LINE
  5
18B80
330
1871D
100
AcDbEntity
  8
YODOROGO
100
AcDbLine
 10
14942.80217064596
 20
853.874748214644
 30
0.0
 11
14942.80217064596
 21
833.8747482146439
 31
0.0
  0
ARC
  5
18B81
330
1871D
100
AcDbEntity
  8
YODOROGO
100
AcDbCircle
 10
14453.45578809342
 20
809.1089322211363
 30
0.0
 40
47.35257558937082
100
AcDbArc
 50
274.052441629071
 51
0.9266642149310712
  0
ARC
  5
18B82
330
1871D
100
AcDbEntity
  8
YODOROGO
100
AcDbCircle
 10
14454.5930853599
 20
796.30536430522
 30
0.0
 40
82.46021178042756
100
AcDbArc
 50
271.5351210653777
 51
355.5272775058505
  0
LINE
  5
18B83
330
1871D
100
AcDbEntity
  8
YODOROGO
100
AcDbLine
 10
14456.80217064596
 20
761.8747482146434
 30
0.0
 11
14456.80217064596
 21
713.8747482146436
 31
0.0
  0
LINE
  5
18B84
330
1871D
100
AcDbEntity
  8
YODOROGO
100
AcDbLine
 10
14396.80217064594
 20
833.8747482146439
 30
0.0
 11
14328.80217064594
 21
833.8747482146439
 31
0.0
  0
LINE
  5
18B85
330
1871D
100
AcDbEntity
  8
YODOROGO
100
AcDbLine
 10
14396.80217064594
 20
801.8747482146444
 30
0.0
 11
14396.80217064594
 21
833.8747482146439
 31
0.0
  0
LINE
  5
18B86
330
1871D
100
AcDbEntity
  8
YODOROGO
100
AcDbLine
 10
14328.80217064594
 20
801.8747482146444
 30
0.0
 11
14396.80217064594
 21
801.8747482146444
 31
0.0
  0
LINE
  5
18B87
330
1871D
100
AcDbEntity
  8
YODOROGO
100
AcDbLine
 10
14328.80217064594
 20
761.8747482146434
 30
0.0
 11
14328.80217064594
 21
801.8747482146444
 31
0.0
  0
LINE
  5
18B88
330
1871D
100
AcDbEntity
  8
YODOROGO
100
AcDbLine
 10
14396.80217064594
 20
761.8747482146434
 30
0.0
 11
14328.80217064594
 21
761.8747482146434
 31
0.0
  0
LINE
  5
18B89
330
1871D
100
AcDbEntity
  8
YODOROGO
100
AcDbLine
 10
14396.80217064594
 20
713.8747482146436
 30
0.0
 11
14396.80217064594
 21
761.8747482146434
 31
0.0
  0
LINE
  5
18B8A
330
1871D
100
AcDbEntity
  8
YODOROGO
100
AcDbLine
 10
14598.80217064596
 20
745.8747482146431
 30
0.0
 11
14630.80217064596
 21
745.8747482146431
 31
0.0
  0
LINE
  5
18B8B
330
1871D
100
AcDbEntity
  8
YODOROGO
100
AcDbLine
 10
14692.80217064596
 20
713.8747482146436
 30
0.0
 11
14728.80217064596
 21
713.8747482146436
 31
0.0
  0
LINE
  5
18B8C
330
1871D
100
AcDbEntity
  8
YODOROGO
100
AcDbLine
 10
14868.80217064596
 20
764.2207260852818
 30
0.0
 11
14868.80217064596
 21
713.8747482146436
 31
0.0
  0
LINE
  5
18B8D
330
1871D
100
AcDbEntity
  8
YODOROGO
100
AcDbLine
 10
14808.80217064596
 20
713.8747482146436
 30
0.0
 11
14868.80217064596
 21
764.2207260852818
 31
0.0
  0
LINE
  5
18B8E
330
1871D
100
AcDbEntity
  8
YODOROGO
100
AcDbLine
 10
14808.80217064596
 20
773.874748214644
 30
0.0
 11
14808.80217064596
 21
713.8747482146436
 31
0.0
  0
LINE
  5
18B8F
330
1871D
100
AcDbEntity
  8
YODOROGO
100
AcDbLine
 10
14856.47231434973
 20
813.8747482146435
 30
0.0
 11
14808.80217064596
 21
773.874748214644
 31
0.0
  0
LINE
  5
18B90
330
1871D
100
AcDbEntity
  8
YODOROGO
100
AcDbLine
 10
14808.80217064596
 20
813.8747482146435
 30
0.0
 11
14856.47231434973
 21
813.8747482146435
 31
0.0
  0
LINE
  5
18B91
330
1871D
100
AcDbEntity
  8
YODOROGO
100
AcDbLine
 10
14808.80217064596
 20
833.8747482146439
 30
0.0
 11
14808.80217064596
 21
813.8747482146435
 31
0.0
  0
LINE
  5
18B92
330
1871D
100
AcDbEntity
  8
YODOROGO
100
AcDbLine
 10
14942.80217064596
 20
833.8747482146439
 30
0.0
 11
14808.80217064596
 21
833.8747482146439
 31
0.0
  0
LINE
  5
18B93
330
1871D
100
AcDbEntity
  8
YODOROGO
100
AcDbLine
 10
14958.80217064596
 20
813.8747482146435
 30
0.0
 11
14888.80217064596
 21
813.8747482146435
 31
0.0
  0
LINE
  5
18B94
330
1871D
100
AcDbEntity
  8
YODOROGO
100
AcDbLine
 10
14888.80217064596
 20
781.0027187088283
 30
0.0
 11
14885.70493649264
 21
778.403830673117
 31
0.0
  0
LINE
  5
18B95
330
1871D
100
AcDbEntity
  8
YODOROGO
100
AcDbLine
 10
14888.80217064596
 20
813.8747482146435
 30
0.0
 11
14888.80217064596
 21
781.0027187088283
 31
0.0
  0
LINE
  5
18B96
330
1871D
100
AcDbEntity
  8
YODOROGO
100
AcDbLine
 10
14868.80217064596
 20
764.2207260852818
 30
0.0
 11
14868.80217064596
 21
713.8747482146436
 31
0.0
  0
LINE
  5
18B97
330
1871D
100
AcDbEntity
  8
YODOROGO
100
AcDbLine
 10
14808.80217064596
 20
713.8747482146436
 30
0.0
 11
14868.80217064596
 21
764.2207260852818
 31
0.0
  0
LINE
  5
18B98
330
1871D
100
AcDbEntity
  8
YODOROGO
100
AcDbLine
 10
14808.80217064596
 20
773.874748214644
 30
0.0
 11
14808.80217064596
 21
713.8747482146436
 31
0.0
  0
LINE
  5
18B99
330
1871D
100
AcDbEntity
  8
YODOROGO
100
AcDbLine
 10
14856.47231434973
 20
813.8747482146435
 30
0.0
 11
14808.80217064596
 21
773.874748214644
 31
0.0
  0
LINE
  5
18B9A
330
1871D
100
AcDbEntity
  8
YODOROGO
100
AcDbLine
 10
14808.80217064596
 20
813.8747482146435
 30
0.0
 11
14856.47231434973
 21
813.8747482146435
 31
0.0
  0
LINE
  5
18B9B
330
1871D
100
AcDbEntity
  8
YODOROGO
100
AcDbLine
 10
14808.80217064596
 20
833.8747482146439
 30
0.0
 11
14808.80217064596
 21
813.8747482146435
 31
0.0
  0
LINE
  5
18B9C
330
1871D
100
AcDbEntity
  8
YODOROGO
100
AcDbLine
 10
14942.80217064596
 20
833.8747482146439
 30
0.0
 11
14808.80217064596
 21
833.8747482146439
 31
0.0
  0
LINE
  5
18B9D
330
1871D
100
AcDbEntity
  8
YODOROGO
100
AcDbLine
 10
14396.80217064594
 20
873.8747482146449
 30
0.0
 11
14396.80217064594
 21
909.8747482146439
 31
0.0
  0
LINE
  5
18B9E
330
1871D
100
AcDbEntity
  8
YODOROGO
100
AcDbLine
 10
14328.80217064594
 20
873.8747482146449
 30
0.0
 11
14396.80217064594
 21
873.8747482146449
 31
0.0
  0
LINE
  5
18B9F
330
1871D
100
AcDbEntity
  8
YODOROGO
100
AcDbLine
 10
14364.80217064596
 20
933.8747482146439
 30
0.0
 11
14364.80217064596
 21
961.8747482146432
 31
0.0
  0
LINE
  5
18BA0
330
1871D
100
AcDbEntity
  8
YODOROGO
100
AcDbLine
 10
14396.80217064594
 20
933.8747482146439
 30
0.0
 11
14364.80217064596
 21
933.8747482146439
 31
0.0
  0
LINE
  5
18BA1
330
1871D
100
AcDbEntity
  8
YODOROGO
100
AcDbLine
 10
14396.80217064594
 20
973.8747482146434
 30
0.0
 11
14396.80217064594
 21
933.8747482146439
 31
0.0
  0
ARC
  5
18BA2
330
1871D
100
AcDbEntity
  8
YODOROGO
100
AcDbCircle
 10
14376.80217064594
 20
973.8747482146434
 30
0.0
 40
20.0
100
AcDbArc
 50
0.0
 51
90.0
  0
LINE
  5
18BA3
330
1871D
100
AcDbEntity
  8
YODOROGO
100
AcDbLine
 10
14328.80217064596
 20
993.8747482146439
 30
0.0
 11
14376.80217064594
 21
993.8747482146439
 31
0.0
  0
LINE
  5
18BA4
330
1871D
100
AcDbEntity
  8
YODOROGO
100
AcDbLine
 10
14328.80217064596
 20
1013.874748214644
 30
0.0
 11
14328.80217064596
 21
993.8747482146439
 31
0.0
  0
LINE
  5
18BA5
330
1871D
100
AcDbEntity
  8
YODOROGO
100
AcDbLine
 10
14536.80217064596
 20
1013.874748214644
 30
0.0
 11
14500.80217064594
 21
1013.874748214644
 31
0.0
  0
LINE
  5
18BA6
330
1871D
100
AcDbEntity
  8
YODOROGO
100
AcDbLine
 10
14630.80217064596
 20
1003.874748214644
 30
0.0
 11
14598.80217064596
 21
1003.874748214644
 31
0.0
  0
LINE
  5
18BA7
330
1871D
100
AcDbEntity
  8
YODOROGO
100
AcDbLine
 10
14728.80217064596
 20
1013.874748214644
 30
0.0
 11
14692.80217064596
 21
1013.874748214644
 31
0.0
  0
LINE
  5
18BA8
330
1871D
100
AcDbEntity
  8
YODOROGO
100
AcDbLine
 10
14836.80217064596
 20
853.874748214644
 30
0.0
 11
14836.80217064596
 21
885.8747482146441
 31
0.0
1001
AUTOCAD_POSTSCRIPT_FIGURE
1002
{
1000
PSFILL
1000
Grayscale
1000
Grayscale
1070
    25
1002
}
  0
LINE
  5
18BA9
330
1871D
100
AcDbEntity
  8
YODOROGO
100
AcDbLine
 10
14808.80217064596
 20
853.874748214644
 30
0.0
 11
14836.80217064596
 21
853.874748214644
 31
0.0
1001
AUTOCAD_POSTSCRIPT_FIGURE
1002
{
1000
PSFILL
1000
Grayscale
1000
Grayscale
1070
    25
1002
}
  0
LINE
  5
18BAA
330
1871D
100
AcDbEntity
  8
YODOROGO
100
AcDbLine
 10
14808.80217064596
 20
909.8747482146439
 30
0.0
 11
14808.80217064596
 21
853.874748214644
 31
0.0
1001
AUTOCAD_POSTSCRIPT_FIGURE
1002
{
1000
PSFILL
1000
Grayscale
1000
Grayscale
1070
    25
1002
}
  0
LINE
  5
18BAB
330
1871D
100
AcDbEntity
  8
YODOROGO
100
AcDbLine
 10
14882.80217064596
 20
909.8747482146439
 30
0.0
 11
14808.80217064596
 21
909.8747482146439
 31
0.0
1001
AUTOCAD_POSTSCRIPT_FIGURE
1002
{
1000
PSFILL
1000
Grayscale
1000
Grayscale
1070
    25
1002
}
  0
LINE
  5
18BAC
330
1871D
100
AcDbEntity
  8
YODOROGO
100
AcDbLine
 10
14882.80217064596
 20
929.874748214644
 30
0.0
 11
14882.80217064596
 21
909.8747482146439
 31
0.0
1001
AUTOCAD_POSTSCRIPT_FIGURE
1002
{
1000
PSFILL
1000
Grayscale
1000
Grayscale
1070
    25
1002
}
  0
LINE
  5
18BAD
330
1871D
100
AcDbEntity
  8
YODOROGO
100
AcDbLine
 10
14808.80217064596
 20
929.874748214644
 30
0.0
 11
14882.80217064596
 21
929.874748214644
 31
0.0
1001
AUTOCAD_POSTSCRIPT_FIGURE
1002
{
1000
PSFILL
1000
Grayscale
1000
Grayscale
1070
    25
1002
}
  0
LINE
  5
18BAE
330
1871D
100
AcDbEntity
  8
YODOROGO
100
AcDbLine
 10
14808.80217064596
 20
953.874748214644
 30
0.0
 11
14808.80217064596
 21
929.874748214644
 31
0.0
1001
AUTOCAD_POSTSCRIPT_FIGURE
1002
{
1000
PSFILL
1000
Grayscale
1000
Grayscale
1070
    25
1002
}
  0
LINE
  5
18BAF
330
1871D
100
AcDbEntity
  8
YODOROGO
100
AcDbLine
 10
14882.80217064596
 20
953.874748214644
 30
0.0
 11
14808.80217064596
 21
953.874748214644
 31
0.0
1001
AUTOCAD_POSTSCRIPT_FIGURE
1002
{
1000
PSFILL
1000
Grayscale
1000
Grayscale
1070
    25
1002
}
  0
LINE
  5
18BB0
330
1871D
100
AcDbEntity
  8
YODOROGO
100
AcDbLine
 10
14882.80217064596
 20
973.8747482146434
 30
0.0
 11
14882.80217064596
 21
953.874748214644
 31
0.0
1001
AUTOCAD_POSTSCRIPT_FIGURE
1002
{
1000
PSFILL
1000
Grayscale
1000
Grayscale
1070
    25
1002
}
  0
LINE
  5
18BB1
330
1871D
100
AcDbEntity
  8
YODOROGO
100
AcDbLine
 10
14808.80217064596
 20
973.8747482146434
 30
0.0
 11
14882.80217064596
 21
973.8747482146434
 31
0.0
1001
AUTOCAD_POSTSCRIPT_FIGURE
1002
{
1000
PSFILL
1000
Grayscale
1000
Grayscale
1070
    25
1002
}
  0
LINE
  5
18BB2
330
1871D
100
AcDbEntity
  8
YODOROGO
100
AcDbLine
 10
14808.80217064596
 20
1013.874748214644
 30
0.0
 11
14808.80217064596
 21
973.8747482146434
 31
0.0
1001
AUTOCAD_POSTSCRIPT_FIGURE
1002
{
1000
PSFILL
1000
Grayscale
1000
Grayscale
1070
    25
1002
}
  0
LINE
  5
18BB3
330
1871D
100
AcDbEntity
  8
YODOROGO
100
AcDbLine
 10
14832.80217064596
 20
1013.874748214644
 30
0.0
 11
14808.80217064596
 21
1013.874748214644
 31
0.0
1001
AUTOCAD_POSTSCRIPT_FIGURE
1002
{
1000
PSFILL
1000
Grayscale
1000
Grayscale
1070
    25
1002
}
  0
LINE
  5
18BB4
330
1871D
100
AcDbEntity
  8
YODOROGO
100
AcDbLine
 10
14832.80217064596
 20
997.8747482146435
 30
0.0
 11
14832.80217064596
 21
1013.874748214644
 31
0.0
1001
AUTOCAD_POSTSCRIPT_FIGURE
1002
{
1000
PSFILL
1000
Grayscale
1000
Grayscale
1070
    25
1002
}
  0
LINE
  5
18BB5
330
1871D
100
AcDbEntity
  8
YODOROGO
100
AcDbLine
 10
14882.80217064596
 20
997.8747482146435
 30
0.0
 11
14832.80217064596
 21
997.8747482146435
 31
0.0
1001
AUTOCAD_POSTSCRIPT_FIGURE
1002
{
1000
PSFILL
1000
Grayscale
1000
Grayscale
1070
    25
1002
}
  0
LINE
  5
18BB6
330
1871D
100
AcDbEntity
  8
YODOROGO
100
AcDbLine
 10
14882.80217064596
 20
1013.874748214644
 30
0.0
 11
14882.80217064596
 21
997.8747482146435
 31
0.0
1001
AUTOCAD_POSTSCRIPT_FIGURE
1002
{
1000
PSFILL
1000
Grayscale
1000
Grayscale
1070
    25
1002
}
  0
LINE
  5
18BB7
330
1871D
100
AcDbEntity
  8
YODOROGO
100
AcDbLine
 10
14914.80217064596
 20
1013.874748214644
 30
0.0
 11
14882.80217064596
 21
1013.874748214644
 31
0.0
1001
AUTOCAD_POSTSCRIPT_FIGURE
1002
{
1000
PSFILL
1000
Grayscale
1000
Grayscale
1070
    25
1002
}
  0
LINE
  5
18BB8
330
1871D
100
AcDbEntity
  8
YODOROGO
100
AcDbLine
 10
14914.80217064596
 20
997.8747482146435
 30
0.0
 11
14914.80217064596
 21
1013.874748214644
 31
0.0
1001
AUTOCAD_POSTSCRIPT_FIGURE
1002
{
1000
PSFILL
1000
Grayscale
1000
Grayscale
1070
    25
1002
}
  0
LINE
  5
18BB9
330
1871D
100
AcDbEntity
  8
YODOROGO
100
AcDbLine
 10
14914.80217064596
 20
953.874748214644
 30
0.0
 11
14914.80217064596
 21
973.8747482146434
 31
0.0
1001
AUTOCAD_POSTSCRIPT_FIGURE
1002
{
1000
PSFILL
1000
Grayscale
1000
Grayscale
1070
    25
1002
}
  0
LINE
  5
18BBA
330
1871D
100
AcDbEntity
  8
YODOROGO
100
AcDbLine
 10
14914.80217064596
 20
909.8747482146439
 30
0.0
 11
14914.80217064596
 21
929.874748214644
 31
0.0
1001
AUTOCAD_POSTSCRIPT_FIGURE
1002
{
1000
PSFILL
1000
Grayscale
1000
Grayscale
1070
    25
1002
}
  0
LINE
  5
18BBB
330
1871D
100
AcDbEntity
  8
YODOROGO
100
AcDbLine
 10
14960.80217064594
 20
885.8747482146441
 30
0.0
 11
14960.80217064594
 21
853.874748214644
 31
0.0
1001
AUTOCAD_POSTSCRIPT_FIGURE
1002
{
1000
PSFILL
1000
Grayscale
1000
Grayscale
1070
    25
1002
}
  0
LINE
  5
18BBC
330
1871D
100
AcDbEntity
  8
YODOROGO
100
AcDbLine
 10
14914.80217064596
 20
885.8747482146441
 30
0.0
 11
14960.80217064594
 21
885.8747482146441
 31
0.0
1001
AUTOCAD_POSTSCRIPT_FIGURE
1002
{
1000
PSFILL
1000
Grayscale
1000
Grayscale
1070
    25
1002
}
  0
LINE
  5
18BBD
330
1871D
100
AcDbEntity
  8
YODOROGO
100
AcDbLine
 10
14914.80217064596
 20
853.874748214644
 30
0.0
 11
14914.80217064596
 21
885.8747482146441
 31
0.0
1001
AUTOCAD_POSTSCRIPT_FIGURE
1002
{
1000
PSFILL
1000
Grayscale
1000
Grayscale
1070
    25
1002
}
  0
LINE
  5
18BBE
330
1871D
100
AcDbEntity
  8
YODOROGO
100
AcDbLine
 10
14882.80217064596
 20
853.874748214644
 30
0.0
 11
14914.80217064596
 21
853.874748214644
 31
0.0
1001
AUTOCAD_POSTSCRIPT_FIGURE
1002
{
1000
PSFILL
1000
Grayscale
1000
Grayscale
1070
    25
1002
}
  0
LINE
  5
18BBF
330
1871D
100
AcDbEntity
  8
YODOROGO
100
AcDbLine
 10
14882.80217064596
 20
885.8747482146441
 30
0.0
 11
14882.80217064596
 21
853.874748214644
 31
0.0
1001
AUTOCAD_POSTSCRIPT_FIGURE
1002
{
1000
PSFILL
1000
Grayscale
1000
Grayscale
1070
    25
1002
}
  0
LINE
  5
18BC0
330
1871D
100
AcDbEntity
  8
YODOROGO
100
AcDbLine
 10
14836.80217064596
 20
885.8747482146441
 30
0.0
 11
14882.80217064596
 21
885.8747482146441
 31
0.0
1001
AUTOCAD_POSTSCRIPT_FIGURE
1002
{
1000
PSFILL
1000
Grayscale
1000
Grayscale
1070
    25
1002
}
  0
ARC
  5
18BC1
330
1871D
100
AcDbEntity
  8
YODOROGO
100
AcDbCircle
 10
15529.75894667896
 20
801.3403687577881
 30
0.0
 40
89.11064055536078
100
AcDbArc
 50
281.0262749542535
 51
357.771135755738
  0
LINE
  5
18BC2
330
1871D
100
AcDbEntity
  8
YODOROGO
100
AcDbLine
 10
15706.80217064596
 20
953.874748214644
 30
0.0
 11
15582.80217064596
 21
953.874748214644
 31
0.0
  0
LINE
  5
18BC3
330
1871D
100
AcDbEntity
  8
YODOROGO
100
AcDbLine
 10
15706.80217064596
 20
1013.874748214644
 30
0.0
 11
15582.80217064596
 21
1013.874748214644
 31
0.0
  0
LINE
  5
18BC4
330
1871D
100
AcDbEntity
  8
YODOROGO
100
AcDbLine
 10
15582.80217064596
 20
981.8747482146434
 30
0.0
 11
15706.80217064596
 21
981.8747482146434
 31
0.0
  0
LINE
  5
18BC5
330
1871D
100
AcDbEntity
  8
YODOROGO
100
AcDbLine
 10
15395.80217064596
 20
781.8747482146434
 30
0.0
 11
15395.80217064596
 21
877.8747482146435
 31
0.0
  0
LINE
  5
18BC6
330
1871D
100
AcDbEntity
  8
YODOROGO
100
AcDbLine
 10
15381.80217064596
 20
845.8747482146444
 30
0.0
 11
15381.80217064596
 21
781.8747482146434
 31
0.0
  0
LINE
  5
18BC7
330
1871D
100
AcDbEntity
  8
YODOROGO
100
AcDbLine
 10
15361.80217064596
 20
745.8747482146443
 30
0.0
 11
15361.80217064596
 21
845.8747482146444
 31
0.0
  0
LINE
  5
18BC8
330
1871D
100
AcDbEntity
  8
YODOROGO
100
AcDbLine
 10
15449.80217064596
 20
845.8747482146444
 30
0.0
 11
15449.80217064596
 21
745.8747482146443
 31
0.0
  0
LINE
  5
18BC9
330
1871D
100
AcDbEntity
  8
YODOROGO
100
AcDbLine
 10
15429.80217064596
 20
781.8747482146434
 30
0.0
 11
15429.80217064596
 21
845.8747482146444
 31
0.0
  0
LINE
  5
18BCA
330
1871D
100
AcDbEntity
  8
YODOROGO
100
AcDbLine
 10
15415.80217064596
 20
877.8747482146435
 30
0.0
 11
15415.80217064596
 21
781.8747482146434
 31
0.0
  0
LINE
  5
18BCB
330
1871D
100
AcDbEntity
  8
YODOROGO
100
AcDbLine
 10
15486.80217064596
 20
1013.874748214644
 30
0.0
 11
15486.80217064596
 21
733.8747482146435
 31
0.0
  0
LINE
  5
18BCC
330
1871D
100
AcDbEntity
  8
YODOROGO
100
AcDbLine
 10
15322.80217064596
 20
713.8747482146436
 30
0.0
 11
15322.80217064596
 21
1013.874748214644
 31
0.0
  0
LINE
  5
18BCD
330
1871D
100
AcDbEntity
  8
YODOROGO
100
AcDbLine
 10
15348.80217064596
 20
981.8747482146434
 30
0.0
 11
15348.80217064596
 21
713.8747482146436
 31
0.0
  0
LINE
  5
18BCE
330
1871D
100
AcDbEntity
  8
YODOROGO
100
AcDbLine
 10
15462.80217064596
 20
773.874748214644
 30
0.0
 11
15462.80217064596
 21
981.8747482146434
 31
0.0
  0
LINE
  5
18BCF
330
1871D
100
AcDbEntity
  8
YODOROGO
100
AcDbLine
 10
15190.80217064596
 20
813.8747482146435
 30
0.0
 11
15190.80217064596
 21
839.8747482146442
 31
0.0
  0
LINE
  5
18BD0
330
1871D
100
AcDbEntity
  8
YODOROGO
100
AcDbLine
 10
15308.80217064596
 20
839.8747482146442
 30
0.0
 11
15308.80217064596
 21
813.8747482146435
 31
0.0
  0
LINE
  5
18BD1
330
1871D
100
AcDbEntity
  8
YODOROGO
100
AcDbLine
 10
15582.80217064596
 20
953.874748214644
 30
0.0
 11
15582.80217064596
 21
817.8747482146436
 31
0.0
  0
LINE
  5
18BD2
330
1871D
100
AcDbEntity
  8
YODOROGO
100
AcDbLine
 10
14974.80217064595
 20
833.8747482146439
 30
0.0
 11
14974.80217064595
 21
853.874748214644
 31
0.0
  0
LINE
  5
18BD3
330
1871D
100
AcDbEntity
  8
YODOROGO
100
AcDbLine
 10
14974.80217064595
 20
833.8747482146439
 30
0.0
 11
14974.80217064595
 21
853.874748214644
 31
0.0
  0
ARC
  5
18BD4
330
1871D
100
AcDbEntity
  8
YODOROGO
100
AcDbCircle
 10
15268.80217064596
 20
753.8747482146439
 30
0.0
 40
40.0
100
AcDbArc
 50
270.0
 51
0.0
  0
LINE
  5
18BD5
330
1871D
100
AcDbEntity
  8
YODOROGO
100
AcDbLine
 10
15284.80217064596
 20
799.8747482146441
 30
0.0
 11
15308.80217064596
 21
799.8747482146441
 31
0.0
  0
LINE
  5
18BD6
330
1871D
100
AcDbEntity
  8
YODOROGO
100
AcDbLine
 10
15308.80217064596
 20
813.8747482146435
 30
0.0
 11
15264.80217064596
 21
813.8747482146435
 31
0.0
  0
LINE
  5
18BD7
330
1871D
100
AcDbEntity
  8
YODOROGO
100
AcDbLine
 10
15108.80217064596
 20
833.8747482146439
 30
0.0
 11
14974.80217064595
 21
833.8747482146439
 31
0.0
  0
LINE
  5
18BD8
330
1871D
100
AcDbEntity
  8
YODOROGO
100
AcDbLine
 10
15108.80217064596
 20
813.8747482146435
 30
0.0
 11
15108.80217064596
 21
833.8747482146439
 31
0.0
  0
LINE
  5
18BD9
330
1871D
100
AcDbEntity
  8
YODOROGO
100
AcDbLine
 10
15008.80217064596
 20
813.8747482146435
 30
0.0
 11
15108.80217064596
 21
813.8747482146435
 31
0.0
  0
ARC
  5
18BDA
330
1871D
100
AcDbEntity
  8
YODOROGO
100
AcDbCircle
 10
15115.02941435068
 20
934.4428574764513
 30
0.0
 40
160.6888181426141
100
AcDbArc
 50
228.6181454618993
 51
245.660289248906
  0
LINE
  5
18BDB
330
1871D
100
AcDbEntity
  8
YODOROGO
100
AcDbLine
 10
15052.80217064596
 20
801.8747482146444
 30
0.0
 11
15048.80217064598
 21
788.0364079349501
 31
0.0
  0
LINE
  5
18BDC
330
1871D
100
AcDbEntity
  8
YODOROGO
100
AcDbLine
 10
15094.80217064596
 20
801.8747482146444
 30
0.0
 11
15052.80217064596
 21
801.8747482146444
 31
0.0
  0
LINE
  5
18BDD
330
1871D
100
AcDbEntity
  8
YODOROGO
100
AcDbLine
 10
15088.80217064596
 20
775.9088612367134
 30
0.0
 11
15094.80217064596
 21
801.8747482146444
 31
0.0
  0
ARC
  5
18BDE
330
1871D
100
AcDbEntity
  8
YODOROGO
100
AcDbCircle
 10
15115.02941435023
 20
934.4428574765014
 30
0.0
 40
160.6888181426453
100
AcDbArc
 50
260.6062929796992
 51
267.7790355655586
  0
LINE
  5
18BDF
330
1871D
100
AcDbEntity
  8
YODOROGO
100
AcDbLine
 10
15108.80217064596
 20
713.8747482146428
 30
0.0
 11
15108.80217064596
 21
773.874748214644
 31
0.0
  0
LINE
  5
18BE0
330
1871D
100
AcDbEntity
  8
YODOROGO
100
AcDbLine
 10
14968.80217064596
 20
740.6696674577553
 30
0.0
 11
14968.80217064596
 21
797.2655452655705
 31
0.0
  0
LINE
  5
18BE1
330
1871D
100
AcDbEntity
  8
YODOROGO
100
AcDbLine
 10
15108.80217064596
 20
833.8747482146439
 30
0.0
 11
14974.80217064595
 21
833.8747482146439
 31
0.0
  0
LINE
  5
18BE2
330
1871D
100
AcDbEntity
  8
YODOROGO
100
AcDbLine
 10
15108.80217064596
 20
813.8747482146435
 30
0.0
 11
15108.80217064596
 21
833.8747482146439
 31
0.0
  0
LINE
  5
18BE3
330
1871D
100
AcDbEntity
  8
YODOROGO
100
AcDbLine
 10
15008.80217064596
 20
813.8747482146435
 30
0.0
 11
15108.80217064596
 21
813.8747482146435
 31
0.0
  0
ARC
  5
18BE4
330
1871D
100
AcDbEntity
  8
YODOROGO
100
AcDbCircle
 10
15115.02941435068
 20
934.4428574764513
 30
0.0
 40
160.6888181426141
100
AcDbArc
 50
228.6181454618993
 51
245.660289248906
  0
LINE
  5
18BE5
330
1871D
100
AcDbEntity
  8
YODOROGO
100
AcDbLine
 10
15052.80217064596
 20
801.8747482146444
 30
0.0
 11
15048.80217064598
 21
788.0364079349501
 31
0.0
  0
LINE
  5
18BE6
330
1871D
100
AcDbEntity
  8
YODOROGO
100
AcDbLine
 10
15094.80217064596
 20
801.8747482146444
 30
0.0
 11
15052.80217064596
 21
801.8747482146444
 31
0.0
  0
LINE
  5
18BE7
330
1871D
100
AcDbEntity
  8
YODOROGO
100
AcDbLine
 10
15088.80217064596
 20
775.9088612367134
 30
0.0
 11
15094.80217064596
 21
801.8747482146444
 31
0.0
  0
ARC
  5
18BE8
330
1871D
100
AcDbEntity
  8
YODOROGO
100
AcDbCircle
 10
15115.02941435023
 20
934.4428574765014
 30
0.0
 40
160.6888181426453
100
AcDbArc
 50
260.6062929796992
 51
267.7790355655586
  0
LINE
  5
18BE9
330
1871D
100
AcDbEntity
  8
YODOROGO
100
AcDbLine
 10
15108.80217064596
 20
713.8747482146428
 30
0.0
 11
15108.80217064596
 21
773.874748214644
 31
0.0
  0
LINE
  5
18BEA
330
1871D
100
AcDbEntity
  8
YODOROGO
100
AcDbLine
 10
14968.80217064596
 20
740.6696674577553
 30
0.0
 11
14968.80217064596
 21
797.2655452655705
 31
0.0
  0
LINE
  5
18BEB
330
1871D
100
AcDbEntity
  8
YODOROGO
100
AcDbLine
 10
15216.80217064596
 20
786.8747482146444
 30
0.0
 11
15190.80217064596
 21
786.8747482146444
 31
0.0
  0
LINE
  5
18BEC
330
1871D
100
AcDbEntity
  8
YODOROGO
100
AcDbLine
 10
15216.80217064596
 20
800.8747482146432
 30
0.0
 11
15216.80217064596
 21
786.8747482146444
 31
0.0
  0
LINE
  5
18BED
330
1871D
100
AcDbEntity
  8
YODOROGO
100
AcDbLine
 10
15190.80217064596
 20
800.8747482146432
 30
0.0
 11
15216.80217064596
 21
800.8747482146432
 31
0.0
  0
LINE
  5
18BEE
330
1871D
100
AcDbEntity
  8
YODOROGO
100
AcDbLine
 10
15190.80217064596
 20
786.8747482146444
 30
0.0
 11
15190.80217064596
 21
800.8747482146432
 31
0.0
  0
LINE
  5
18BEF
330
1871D
100
AcDbEntity
  8
YODOROGO
100
AcDbLine
 10
15214.80217064596
 20
788.8747482146436
 30
0.0
 11
15192.80217064595
 21
788.8747482146436
 31
0.0
  0
LINE
  5
18BF0
330
1871D
100
AcDbEntity
  8
YODOROGO
100
AcDbLine
 10
15214.80217064596
 20
798.874748214644
 30
0.0
 11
15214.80217064596
 21
788.8747482146436
 31
0.0
  0
LINE
  5
18BF1
330
1871D
100
AcDbEntity
  8
YODOROGO
100
AcDbLine
 10
15192.80217064595
 20
798.874748214644
 30
0.0
 11
15214.80217064596
 21
798.874748214644
 31
0.0
  0
LINE
  5
18BF2
330
1871D
100
AcDbEntity
  8
YODOROGO
100
AcDbLine
 10
15192.80217064595
 20
788.8747482146436
 30
0.0
 11
15192.80217064595
 21
798.874748214644
 31
0.0
  0
LINE
  5
18BF3
330
1871D
100
AcDbEntity
  8
YODOROGO
100
AcDbLine
 10
15212.80217064596
 20
790.8747482146432
 30
0.0
 11
15194.80217064596
 21
790.8747482146432
 31
0.0
  0
LINE
  5
18BF4
330
1871D
100
AcDbEntity
  8
YODOROGO
100
AcDbLine
 10
15212.80217064596
 20
796.8747482146445
 30
0.0
 11
15212.80217064596
 21
790.8747482146432
 31
0.0
  0
LINE
  5
18BF5
330
1871D
100
AcDbEntity
  8
YODOROGO
100
AcDbLine
 10
15194.80217064596
 20
796.8747482146445
 30
0.0
 11
15212.80217064596
 21
796.8747482146445
 31
0.0
  0
LINE
  5
18BF6
330
1871D
100
AcDbEntity
  8
YODOROGO
100
AcDbLine
 10
15194.80217064596
 20
790.8747482146432
 30
0.0
 11
15194.80217064596
 21
796.8747482146445
 31
0.0
  0
LINE
  5
18BF7
330
1871D
100
AcDbEntity
  8
YODOROGO
100
AcDbLine
 10
15210.80217064596
 20
792.8747482146435
 30
0.0
 11
15196.80217064596
 21
792.8747482146435
 31
0.0
  0
LINE
  5
18BF8
330
1871D
100
AcDbEntity
  8
YODOROGO
100
AcDbLine
 10
15210.80217064596
 20
794.8747482146441
 30
0.0
 11
15210.80217064596
 21
792.8747482146435
 31
0.0
  0
LINE
  5
18BF9
330
1871D
100
AcDbEntity
  8
YODOROGO
100
AcDbLine
 10
15196.80217064596
 20
794.8747482146441
 30
0.0
 11
15210.80217064596
 21
794.8747482146441
 31
0.0
  0
LINE
  5
18BFA
330
1871D
100
AcDbEntity
  8
YODOROGO
100
AcDbLine
 10
15196.80217064596
 20
792.8747482146435
 30
0.0
 11
15196.80217064596
 21
794.8747482146441
 31
0.0
  0
LINE
  5
18BFB
330
1871D
100
AcDbEntity
  8
YODOROGO
100
AcDbLine
 10
15232.80217064596
 20
813.8747482146435
 30
0.0
 11
15190.80217064596
 21
813.8747482146435
 31
0.0
  0
LINE
  5
18BFC
330
1871D
100
AcDbEntity
  8
YODOROGO
100
AcDbLine
 10
15232.80217064596
 20
773.874748214644
 30
0.0
 11
15232.80217064596
 21
813.8747482146435
 31
0.0
  0
LINE
  5
18BFD
330
1871D
100
AcDbEntity
  8
YODOROGO
100
AcDbLine
 10
15190.80217064596
 20
773.874748214644
 30
0.0
 11
15232.80217064596
 21
773.874748214644
 31
0.0
  0
LINE
  5
18BFE
330
1871D
100
AcDbEntity
  8
YODOROGO
100
AcDbLine
 10
15190.80217064596
 20
713.8747482146436
 30
0.0
 11
15190.80217064596
 21
773.874748214644
 31
0.0
  0
LINE
  5
18BFF
330
1871D
100
AcDbEntity
  8
YODOROGO
100
AcDbLine
 10
15268.80217064596
 20
713.8747482146436
 30
0.0
 11
15190.80217064596
 21
713.8747482146436
 31
0.0
  0
LINE
  5
18C00
330
1871D
100
AcDbEntity
  8
YODOROGO
100
AcDbLine
 10
15284.80217064596
 20
785.8747482146432
 30
0.0
 11
15284.80217064596
 21
799.8747482146441
 31
0.0
  0
ARC
  5
18C01
330
1871D
100
AcDbEntity
  8
YODOROGO
100
AcDbCircle
 10
15272.80217064594
 20
785.8747482146457
 30
0.0
 40
12.00000000000187
100
AcDbArc
 50
270.0
 51
359.9999999999877
  0
LINE
  5
18C02
330
1871D
100
AcDbEntity
  8
YODOROGO
100
AcDbLine
 10
15264.80217064596
 20
773.874748214644
 30
0.0
 11
15272.80217064594
 21
773.874748214644
 31
0.0
  0
LINE
  5
18C03
330
1871D
100
AcDbEntity
  8
YODOROGO
100
AcDbLine
 10
15264.80217064596
 20
813.8747482146435
 30
0.0
 11
15264.80217064596
 21
773.874748214644
 31
0.0
  0
LINE
  5
18C04
330
1871D
100
AcDbEntity
  8
YODOROGO
100
AcDbLine
 10
15449.80217064596
 20
773.874748214644
 30
0.0
 11
15462.80217064596
 21
773.874748214644
 31
0.0
  0
LINE
  5
18C05
330
1871D
100
AcDbEntity
  8
YODOROGO
100
AcDbLine
 10
15466.80217064596
 20
713.8747482146436
 30
0.0
 11
15449.80217064596
 21
713.8747482146436
 31
0.0
  0
LINE
  5
18C06
330
1871D
100
AcDbEntity
  8
YODOROGO
100
AcDbLine
 10
15381.80217064596
 20
781.8747482146434
 30
0.0
 11
15395.80217064596
 21
781.8747482146434
 31
0.0
  0
LINE
  5
18C07
330
1871D
100
AcDbEntity
  8
YODOROGO
100
AcDbLine
 10
15449.80217064596
 20
745.8747482146443
 30
0.0
 11
15361.80217064596
 21
745.8747482146443
 31
0.0
  0
LINE
  5
18C08
330
1871D
100
AcDbEntity
  8
YODOROGO
100
AcDbLine
 10
15415.80217064596
 20
781.8747482146434
 30
0.0
 11
15429.80217064596
 21
781.8747482146434
 31
0.0
  0
LINE
  5
18C09
330
1871D
100
AcDbEntity
  8
YODOROGO
100
AcDbLine
 10
15449.80217064596
 20
713.8747482146436
 30
0.0
 11
15449.80217064596
 21
773.874748214644
 31
0.0
  0
LINE
  5
18C0A
330
1871D
100
AcDbEntity
  8
YODOROGO
100
AcDbLine
 10
15348.80217064596
 20
713.8747482146436
 30
0.0
 11
15322.80217064596
 21
713.8747482146436
 31
0.0
  0
LINE
  5
18C0B
330
1871D
100
AcDbEntity
  8
YODOROGO
100
AcDbLine
 10
15308.80217064596
 20
799.8747482146441
 30
0.0
 11
15308.80217064596
 21
753.8747482146439
 31
0.0
  0
ARC
  5
18C0C
330
1871D
100
AcDbEntity
  8
YODOROGO
100
AcDbCircle
 10
15466.80217064596
 20
733.8747482146435
 30
0.0
 40
20.0
100
AcDbArc
 50
270.0
 51
0.0
  0
LINE
  5
18C0D
330
1871D
100
AcDbEntity
  8
YODOROGO
100
AcDbLine
 10
15546.80217064596
 20
761.8747482146434
 30
0.0
 11
15546.80217064596
 21
713.8747482146436
 31
0.0
  0
ARC
  5
18C0E
330
1871D
100
AcDbEntity
  8
YODOROGO
100
AcDbCircle
 10
15519.86069778339
 20
818.7656950548664
 30
0.0
 40
62.94777829583771
100
AcDbArc
 50
295.3405244216011
 51
359.1890230341867
  0
LINE
  5
18C0F
330
1871D
100
AcDbEntity
  8
YODOROGO
100
AcDbLine
 10
15308.80217064596
 20
929.874748214644
 30
0.0
 11
15248.80217064596
 21
969.8747482146441
 31
0.0
  0
LINE
  5
18C10
330
1871D
100
AcDbEntity
  8
YODOROGO
100
AcDbLine
 10
15248.80217064596
 20
1013.874748214644
 30
0.0
 11
15308.80217064596
 21
973.8747482146434
 31
0.0
  0
LINE
  5
18C11
330
1871D
100
AcDbEntity
  8
YODOROGO
100
AcDbLine
 10
15264.80217064596
 20
839.8747482146442
 30
0.0
 11
15308.80217064596
 21
839.8747482146442
 31
0.0
  0
LINE
  5
18C12
330
1871D
100
AcDbEntity
  8
YODOROGO
100
AcDbLine
 10
15308.80217064596
 20
867.8747482146436
 30
0.0
 11
15264.80217064596
 21
867.8747482146436
 31
0.0
  0
LINE
  5
18C13
330
1871D
100
AcDbEntity
  8
YODOROGO
100
AcDbLine
 10
15190.80217064596
 20
897.8747482146435
 30
0.0
 11
15308.80217064596
 21
897.8747482146435
 31
0.0
  0
LINE
  5
18C14
330
1871D
100
AcDbEntity
  8
YODOROGO
100
AcDbLine
 10
15040.80217064596
 20
1013.874748214644
 30
0.0
 11
15010.80217064596
 21
1013.874748214644
 31
0.0
  0
LINE
  5
18C15
330
1871D
100
AcDbEntity
  8
YODOROGO
100
AcDbLine
 10
15040.80217064596
 20
913.8747482146435
 30
0.0
 11
15040.80217064596
 21
1013.874748214644
 31
0.0
  0
LINE
  5
18C16
330
1871D
100
AcDbEntity
  8
YODOROGO
100
AcDbLine
 10
15010.80217064596
 20
913.8747482146435
 30
0.0
 11
15040.80217064596
 21
913.8747482146435
 31
0.0
  0
LINE
  5
18C17
330
1871D
100
AcDbEntity
  8
YODOROGO
100
AcDbLine
 10
15010.80217064596
 20
1013.874748214644
 30
0.0
 11
15010.80217064596
 21
913.8747482146435
 31
0.0
  0
LINE
  5
18C18
330
1871D
100
AcDbEntity
  8
YODOROGO
100
AcDbLine
 10
15080.80217064596
 20
1013.874748214644
 30
0.0
 11
15108.80217064596
 21
1013.874748214644
 31
0.0
  0
LINE
  5
18C19
330
1871D
100
AcDbEntity
  8
YODOROGO
100
AcDbLine
 10
15080.80217064596
 20
905.8747482146443
 30
0.0
 11
15080.80217064596
 21
1013.874748214644
 31
0.0
  0
ARC
  5
18C1A
330
1871D
100
AcDbEntity
  8
YODOROGO
100
AcDbCircle
 10
15060.80217064596
 20
905.8747482146443
 30
0.0
 40
20.0
100
AcDbArc
 50
270.0
 51
0.0
  0
LINE
  5
18C1B
330
1871D
100
AcDbEntity
  8
YODOROGO
100
AcDbLine
 10
15010.80217064596
 20
885.8747482146441
 30
0.0
 11
15060.80217064596
 21
885.8747482146441
 31
0.0
  0
LINE
  5
18C1C
330
1871D
100
AcDbEntity
  8
YODOROGO
100
AcDbLine
 10
15010.80217064596
 20
853.874748214644
 30
0.0
 11
15010.80217064596
 21
885.8747482146441
 31
0.0
  0
LINE
  5
18C1D
330
1871D
100
AcDbEntity
  8
YODOROGO
100
AcDbLine
 10
15068.80217064596
 20
853.874748214644
 30
0.0
 11
15010.80217064596
 21
853.874748214644
 31
0.0
  0
ARC
  5
18C1E
330
1871D
100
AcDbEntity
  8
YODOROGO
100
AcDbCircle
 10
15068.80217064596
 20
893.8747482146439
 30
0.0
 40
40.0
100
AcDbArc
 50
270.0
 51
0.0
  0
LINE
  5
18C1F
330
1871D
100
AcDbEntity
  8
YODOROGO
100
AcDbLine
 10
15108.80217064596
 20
1013.874748214644
 30
0.0
 11
15108.80217064596
 21
893.8747482146439
 31
0.0
  0
LINE
  5
18C20
330
1871D
100
AcDbEntity
  8
YODOROGO
100
AcDbLine
 10
14988.80217064596
 20
973.8747482146434
 30
0.0
 11
14988.80217064596
 21
997.8747482146435
 31
0.0
1001
AUTOCAD_POSTSCRIPT_FIGURE
1002
{
1000
PSFILL
1000
Grayscale
1000
Grayscale
1070
    25
1002
}
  0
LINE
  5
18C21
330
1871D
100
AcDbEntity
  8
YODOROGO
100
AcDbLine
 10
14988.80217064596
 20
929.874748214644
 30
0.0
 11
14988.80217064596
 21
953.874748214644
 31
0.0
1001
AUTOCAD_POSTSCRIPT_FIGURE
1002
{
1000
PSFILL
1000
Grayscale
1000
Grayscale
1070
    25
1002
}
  0
LINE
  5
18C22
330
1871D
100
AcDbEntity
  8
YODOROGO
100
AcDbLine
 10
14988.80217064596
 20
853.874748214644
 30
0.0
 11
14988.80217064596
 21
909.8747482146439
 31
0.0
1001
AUTOCAD_POSTSCRIPT_FIGURE
1002
{
1000
PSFILL
1000
Grayscale
1000
Grayscale
1070
    25
1002
}
  0
LINE
  5
18C23
330
1871D
100
AcDbEntity
  8
YODOROGO
100
AcDbLine
 10
15190.80217064596
 20
953.874748214644
 30
0.0
 11
15248.80217064596
 21
1013.874748214644
 31
0.0
  0
LINE
  5
18C24
330
1871D
100
AcDbEntity
  8
YODOROGO
100
AcDbLine
 10
15190.80217064596
 20
909.8747482146439
 30
0.0
 11
15190.80217064596
 21
953.874748214644
 31
0.0
  0
LINE
  5
18C25
330
1871D
100
AcDbEntity
  8
YODOROGO
100
AcDbLine
 10
15248.80217064596
 20
969.8747482146441
 30
0.0
 11
15190.80217064596
 21
909.8747482146439
 31
0.0
  0
LINE
  5
18C26
330
1871D
100
AcDbEntity
  8
YODOROGO
100
AcDbLine
 10
15232.80217064596
 20
839.8747482146442
 30
0.0
 11
15232.80217064596
 21
867.8747482146436
 31
0.0
  0
LINE
  5
18C27
330
1871D
100
AcDbEntity
  8
YODOROGO
100
AcDbLine
 10
15190.80217064596
 20
839.8747482146442
 30
0.0
 11
15232.80217064596
 21
839.8747482146442
 31
0.0
  0
LINE
  5
18C28
330
1871D
100
AcDbEntity
  8
YODOROGO
100
AcDbLine
 10
15264.80217064596
 20
867.8747482146436
 30
0.0
 11
15264.80217064596
 21
839.8747482146442
 31
0.0
  0
LINE
  5
18C29
330
1871D
100
AcDbEntity
  8
YODOROGO
100
AcDbLine
 10
15190.80217064596
 20
867.8747482146436
 30
0.0
 11
15190.80217064596
 21
897.8747482146435
 31
0.0
  0
LINE
  5
18C2A
330
1871D
100
AcDbEntity
  8
YODOROGO
100
AcDbLine
 10
15232.80217064596
 20
867.8747482146436
 30
0.0
 11
15190.80217064596
 21
867.8747482146436
 31
0.0
  0
LINE
  5
18C2B
330
1871D
100
AcDbEntity
  8
YODOROGO
100
AcDbLine
 10
15322.80217064596
 20
1013.874748214644
 30
0.0
 11
15486.80217064596
 21
1013.874748214644
 31
0.0
  0
LINE
  5
18C2C
330
1871D
100
AcDbEntity
  8
YODOROGO
100
AcDbLine
 10
15462.80217064596
 20
981.8747482146434
 30
0.0
 11
15348.80217064596
 21
981.8747482146434
 31
0.0
  0
LINE
  5
18C2D
330
1871D
100
AcDbEntity
  8
YODOROGO
100
AcDbLine
 10
15436.80217064595
 20
909.8747482146439
 30
0.0
 11
15449.80217064596
 21
909.8747482146439
 31
0.0
  0
LINE
  5
18C2E
330
1871D
100
AcDbEntity
  8
YODOROGO
100
AcDbLine
 10
15449.80217064596
 20
969.8747482146441
 30
0.0
 11
15436.80217064595
 21
909.8747482146439
 31
0.0
  0
LINE
  5
18C2F
330
1871D
100
AcDbEntity
  8
YODOROGO
100
AcDbLine
 10
15425.80217064596
 20
969.8747482146441
 30
0.0
 11
15449.80217064596
 21
969.8747482146441
 31
0.0
  0
LINE
  5
18C30
330
1871D
100
AcDbEntity
  8
YODOROGO
100
AcDbLine
 10
15412.80217064596
 20
909.8747482146439
 30
0.0
 11
15425.80217064596
 21
969.8747482146441
 31
0.0
  0
LINE
  5
18C31
330
1871D
100
AcDbEntity
  8
YODOROGO
100
AcDbLine
 10
15398.80217064596
 20
909.8747482146439
 30
0.0
 11
15412.80217064596
 21
909.8747482146439
 31
0.0
  0
LINE
  5
18C32
330
1871D
100
AcDbEntity
  8
YODOROGO
100
AcDbLine
 10
15385.80217064596
 20
969.8747482146441
 30
0.0
 11
15398.80217064596
 21
909.8747482146439
 31
0.0
  0
LINE
  5
18C33
330
1871D
100
AcDbEntity
  8
YODOROGO
100
AcDbLine
 10
15361.80217064596
 20
969.8747482146441
 30
0.0
 11
15385.80217064596
 21
969.8747482146441
 31
0.0
  0
LINE
  5
18C34
330
1871D
100
AcDbEntity
  8
YODOROGO
100
AcDbLine
 10
15374.80217064596
 20
909.8747482146439
 30
0.0
 11
15361.80217064596
 21
969.8747482146441
 31
0.0
  0
LINE
  5
18C35
330
1871D
100
AcDbEntity
  8
YODOROGO
100
AcDbLine
 10
15361.80217064596
 20
909.8747482146439
 30
0.0
 11
15374.80217064596
 21
909.8747482146439
 31
0.0
  0
LINE
  5
18C36
330
1871D
100
AcDbEntity
  8
YODOROGO
100
AcDbLine
 10
15361.80217064596
 20
877.8747482146435
 30
0.0
 11
15361.80217064596
 21
909.8747482146439
 31
0.0
  0
LINE
  5
18C37
330
1871D
100
AcDbEntity
  8
YODOROGO
100
AcDbLine
 10
15449.80217064596
 20
877.8747482146435
 30
0.0
 11
15361.80217064596
 21
877.8747482146435
 31
0.0
  0
LINE
  5
18C38
330
1871D
100
AcDbEntity
  8
YODOROGO
100
AcDbLine
 10
15449.80217064596
 20
909.8747482146439
 30
0.0
 11
15449.80217064596
 21
877.8747482146435
 31
0.0
  0
LINE
  5
18C39
330
1871D
100
AcDbEntity
  8
YODOROGO
100
AcDbLine
 10
15308.80217064596
 20
973.8747482146434
 30
0.0
 11
15308.80217064596
 21
929.874748214644
 31
0.0
  0
LINE
  5
18C3A
330
1871D
100
AcDbEntity
  8
YODOROGO
100
AcDbLine
 10
15395.80217064596
 20
877.8747482146435
 30
0.0
 11
15415.80217064596
 21
877.8747482146435
 31
0.0
  0
LINE
  5
18C3B
330
1871D
100
AcDbEntity
  8
YODOROGO
100
AcDbLine
 10
15361.80217064596
 20
845.8747482146444
 30
0.0
 11
15381.80217064596
 21
845.8747482146444
 31
0.0
  0
LINE
  5
18C3C
330
1871D
100
AcDbEntity
  8
YODOROGO
100
AcDbLine
 10
15429.80217064596
 20
845.8747482146444
 30
0.0
 11
15449.80217064596
 21
845.8747482146444
 31
0.0
  0
LINE
  5
18C3D
330
1871D
100
AcDbEntity
  8
YODOROGO
100
AcDbLine
 10
15308.80217064596
 20
897.8747482146435
 30
0.0
 11
15308.80217064596
 21
867.8747482146436
 31
0.0
  0
LINE
  5
18C3E
330
1871D
100
AcDbEntity
  8
YODOROGO
100
AcDbLine
 10
15582.80217064596
 20
1013.874748214644
 30
0.0
 11
15582.80217064596
 21
981.8747482146434
 31
0.0
  0
LINE
  5
18C3F
330
1871D
100
AcDbEntity
  8
YODOROGO
100
AcDbLine
 10
15766.80217064596
 20
797.8747482146435
 30
0.0
 11
15766.80217064594
 21
905.8747482146443
 31
0.0
  0
LINE
  5
18C40
330
1871D
100
AcDbEntity
  8
YODOROGO
100
AcDbLine
 10
15730.80217064594
 20
993.8747482146439
 30
0.0
 11
15730.80217064594
 21
817.8747482146436
 31
0.0
  0
LINE
  5
18C41
330
1871D
100
AcDbEntity
  8
YODOROGO
100
AcDbLine
 10
15826.80217064596
 20
713.8747482146436
 30
0.0
 11
15826.80217064594
 21
905.8747482146443
 31
0.0
  0
LINE
  5
18C42
330
1871D
100
AcDbEntity
  8
YODOROGO
100
AcDbLine
 10
15794.80217064596
 20
905.8747482146443
 30
0.0
 11
15794.80217064596
 21
713.8747482146436
 31
0.0
  0
LINE
  5
18C43
330
1871D
100
AcDbEntity
  8
YODOROGO
100
AcDbLine
 10
15618.80217064596
 20
797.8747482146435
 30
0.0
 11
15618.80217064596
 21
853.874748214644
 31
0.0
  0
ARC
  5
18C44
330
1871D
100
AcDbEntity
  8
YODOROGO
100
AcDbCircle
 10
15676.95743255803
 20
803.8951756442788
 30
0.0
 40
90.04622428799429
100
AcDbArc
 50
268.6284910216979
 51
356.1663845733032
  0
LINE
  5
18C45
330
1871D
100
AcDbEntity
  8
YODOROGO
100
AcDbLine
 10
15674.80217064596
 20
763.8747482146435
 30
0.0
 11
15674.80217064596
 21
713.8747482146436
 31
0.0
  0
ARC
  5
18C46
330
1871D
100
AcDbEntity
  8
YODOROGO
100
AcDbCircle
 10
15675.75903786228
 20
818.9194785088275
 30
0.0
 40
55.05304649180608
100
AcDbArc
 50
269.0041020930593
 51
358.9126445549248
  0
LINE
  5
18C47
330
1871D
100
AcDbEntity
  8
YODOROGO
100
AcDbLine
 10
15794.80217064596
 20
713.8747482146436
 30
0.0
 11
15826.80217064596
 21
713.8747482146436
 31
0.0
  0
LINE
  5
18C48
330
1871D
100
AcDbEntity
  8
YODOROGO
100
AcDbLine
 10
15766.80217064594
 20
905.8747482146443
 30
0.0
 11
15794.80217064596
 21
905.8747482146443
 31
0.0
  0
LINE
  5
18C49
330
1871D
100
AcDbEntity
  8
YODOROGO
100
AcDbLine
 10
15810.80217064596
 20
993.8747482146439
 30
0.0
 11
15730.80217064594
 21
993.8747482146439
 31
0.0
  0
LINE
  5
18C4A
330
1871D
100
AcDbEntity
  8
YODOROGO
100
AcDbLine
 10
15766.80217064594
 20
957.8747482146436
 30
0.0
 11
15830.80217064596
 21
957.8747482146436
 31
0.0
  0
LINE
  5
18C4B
330
1871D
100
AcDbEntity
  8
YODOROGO
100
AcDbLine
 10
15850.80217064596
 20
937.8747482146435
 30
0.0
 11
15766.80217064594
 21
937.8747482146435
 31
0.0
  0
LINE
  5
18C4C
330
1871D
100
AcDbEntity
  8
YODOROGO
100
AcDbLine
 10
15618.80217064596
 20
889.8747482146442
 30
0.0
 11
15674.80217064596
 21
889.8747482146442
 31
0.0
  0
LINE
  5
18C4D
330
1871D
100
AcDbEntity
  8
YODOROGO
100
AcDbLine
 10
15618.80217064596
 20
917.8747482146436
 30
0.0
 11
15618.80217064596
 21
889.8747482146442
 31
0.0
  0
LINE
  5
18C4E
330
1871D
100
AcDbEntity
  8
YODOROGO
100
AcDbLine
 10
15674.80217064596
 20
917.8747482146436
 30
0.0
 11
15618.80217064596
 21
917.8747482146436
 31
0.0
  0
LINE
  5
18C4F
330
1871D
100
AcDbEntity
  8
YODOROGO
100
AcDbLine
 10
15674.80217064596
 20
889.8747482146442
 30
0.0
 11
15674.80217064596
 21
917.8747482146436
 31
0.0
  0
LINE
  5
18C50
330
1871D
100
AcDbEntity
  8
YODOROGO
100
AcDbLine
 10
15766.80217064594
 20
937.8747482146435
 30
0.0
 11
15766.80217064594
 21
957.8747482146436
 31
0.0
  0
LINE
  5
18C51
330
1871D
100
AcDbEntity
  8
YODOROGO
100
AcDbLine
 10
15706.80217064596
 20
853.874748214644
 30
0.0
 11
15706.80217064596
 21
953.874748214644
 31
0.0
  0
LINE
  5
18C52
330
1871D
100
AcDbEntity
  8
YODOROGO
100
AcDbLine
 10
15618.80217064596
 20
853.874748214644
 30
0.0
 11
15706.80217064596
 21
853.874748214644
 31
0.0
  0
LINE
  5
18C53
330
1871D
100
AcDbEntity
  8
YODOROGO
100
AcDbLine
 10
15706.80217064596
 20
981.8747482146434
 30
0.0
 11
15706.80217064596
 21
1013.874748214644
 31
0.0
  0
ARC
  5
18C54
330
1871D
100
AcDbEntity
  8
YODOROGO
100
AcDbCircle
 10
15810.80217064596
 20
1001.874748214642
 30
0.0
 40
7.99999999999727
100
AcDbArc
 50
270.0
 51
0.0000000000081422
  0
LINE
  5
18C55
330
1871D
100
AcDbEntity
  8
YODOROGO
100
AcDbLine
 10
15818.80217064596
 20
1013.874748214644
 30
0.0
 11
15818.80217064596
 21
1001.874748214643
 31
0.0
  0
LINE
  5
18C56
330
1871D
100
AcDbEntity
  8
YODOROGO
100
AcDbLine
 10
15850.80217064596
 20
1013.874748214644
 30
0.0
 11
15818.80217064596
 21
1013.874748214644
 31
0.0
  0
LINE
  5
18C57
330
1871D
100
AcDbEntity
  8
YODOROGO
100
AcDbLine
 10
15850.80217064596
 20
977.8747482146435
 30
0.0
 11
15850.80217064596
 21
1013.874748214644
 31
0.0
  0
ARC
  5
18C58
330
1871D
100
AcDbEntity
  8
YODOROGO
100
AcDbCircle
 10
15830.80217064596
 20
977.8747482146435
 30
0.0
 40
20.0
100
AcDbArc
 50
270.0
 51
0.0
  0
LINE
  5
18C59
330
1871D
100
AcDbEntity
  8
YODOROGO
100
AcDbLine
 10
15850.80217064596
 20
905.8747482146443
 30
0.0
 11
15850.80217064596
 21
937.8747482146435
 31
0.0
  0
LINE
  5
18C5A
330
1871D
100
AcDbEntity
  8
YODOROGO
100
AcDbLine
 10
15826.80217064594
 20
905.8747482146443
 30
0.0
 11
15850.80217064596
 21
905.8747482146443
 31
0.0
  0
LINE
  5
18C5B
330
1871D
100
AcDbEntity
  8
SUNPOU
100
AcDbLine
 10
10680.43915527504
 20
5322.546798568533
 30
0.0
 11
10680.43915527504
 21
5337.546798568531
 31
0.0
  0
LINE
  5
18C5C
330
1871D
100
AcDbEntity
  8
SUNPOU
100
AcDbLine
 10
9985.439155275038
 20
4917.546798568533
 30
0.0
 11
9985.439155275038
 21
5337.546798568531
 31
0.0
  0
LINE
  5
18C5D
330
1871D
100
AcDbEntity
  8
SUNPOU
100
AcDbLine
 10
10665.43915527504
 20
5292.546798568533
 30
0.0
 11
10000.43915527504
 21
5292.546798568533
 31
0.0
  0
LINE
  5
18C5E
330
1871D
100
AcDbEntity
  8
SUNPOU
100
AcDbLine
 10
12115.43915527502
 20
5322.546798568533
 30
0.0
 11
12115.43915527502
 21
5337.546798568531
 31
0.0
  0
LINE
  5
18C5F
330
1871D
100
AcDbEntity
  8
SUNPOU
100
AcDbLine
 10
10680.43915527504
 20
5322.546798568533
 30
0.0
 11
10680.43915527504
 21
5337.546798568531
 31
0.0
  0
LINE
  5
18C60
330
1871D
100
AcDbEntity
  8
SUNPOU
100
AcDbLine
 10
12100.43915527504
 20
5292.546798568533
 30
0.0
 11
10695.43915527504
 21
5292.546798568533
 31
0.0
  0
LINE
  5
18C61
330
1871D
100
AcDbEntity
  8
SUNPOU
100
AcDbLine
 10
12395.43915527502
 20
4574.417642013975
 30
0.0
 11
12395.43915527502
 21
5337.546798568531
 31
0.0
  0
LINE
  5
18C62
330
1871D
100
AcDbEntity
  8
SUNPOU
100
AcDbLine
 10
12115.43915527502
 20
5322.546798568533
 30
0.0
 11
12115.43915527502
 21
5337.546798568531
 31
0.0
  0
LINE
  5
18C63
330
1871D
100
AcDbEntity
  8
SUNPOU
100
AcDbLine
 10
12380.43915527504
 20
5292.546798568533
 30
0.0
 11
12130.43915527502
 21
5292.546798568533
 31
0.0
  0
LINE
  5
18C64
330
1871D
100
AcDbEntity
  8
SUNPOU
100
AcDbLine
 10
9950.439155275034
 20
2719.546798568535
 30
0.0
 11
9451.569579679539
 21
2719.546798568535
 31
0.0
  0
LINE
  5
18C65
330
1871D
100
AcDbEntity
  8
SUNPOU
100
AcDbLine
 10
9965.439155275038
 20
4879.546798568533
 30
0.0
 11
9451.569579679539
 21
4879.546798568533
 31
0.0
  0
LINE
  5
18C66
330
1871D
100
AcDbEntity
  8
SUNPOU
100
AcDbLine
 10
9496.569579679539
 20
2734.546798568536
 30
0.0
 11
9496.569579679542
 21
4864.546798568532
 31
0.0
  0
LINE
  5
18C67
330
1871D
100
AcDbEntity
  8
SUNPOU
100
AcDbLine
 10
9950.439155275034
 20
2719.546798568534
 30
0.0
 11
9451.569579679539
 21
2719.546798568534
 31
0.0
  0
LINE
  5
18C68
330
1871D
100
AcDbEntity
  8
SUNPOU
100
AcDbLine
 10
9557.402110802476
 20
2669.546798568534
 30
0.0
 11
9451.569579679539
 21
2669.546798568534
 31
0.0
  0
LINE
  5
18C69
330
1871D
100
AcDbEntity
  8
SUNPOU
100
AcDbLine
 10
9496.569579679539
 20
2734.546798568534
 30
0.0
 11
9496.569579679539
 21
2749.546798568534
 31
0.0
  0
LINE
  5
18C6A
330
1871D
100
AcDbEntity
  8
SUNPOU
100
AcDbLine
 10
9496.569579679539
 20
2654.546798568534
 30
0.0
 11
9496.569579679539
 21
2452.403941425675
 31
0.0
  0
LINE
  5
18C6B
330
1871D
100
AcDbEntity
  8
SUNPOU
100
AcDbLine
 10
9496.569579679539
 20
2719.546798568534
 30
0.0
 11
9496.569579679539
 21
2669.546798568534
 31
0.0
  0
LINE
  5
18C6C
330
1871D
100
AcDbEntity
  8
SUNPOU
100
AcDbLine
 10
12345.43915527504
 20
2719.546798568535
 30
0.0
 11
12746.26430788204
 21
2719.546798568535
 31
0.0
  0
LINE
  5
18C6D
330
1871D
100
AcDbEntity
  8
SUNPOU
100
AcDbLine
 10
12345.43915527504
 20
4739.546798568532
 30
0.0
 11
12746.26430788204
 21
4739.546798568532
 31
0.0
  0
LINE
  5
18C6E
330
1871D
100
AcDbEntity
  8
SUNPOU
100
AcDbLine
 10
12701.26430788204
 20
2734.546798568535
 30
0.0
 11
12701.26430788204
 21
4724.546798568534
 31
0.0
  0
LINE
  5
18C6F
330
1871D
100
AcDbEntity
  8
SUNPOU
100
AcDbLine
 10
4017.61758982785
 20
7697.920617280118
 30
0.0
 11
4017.61758982785
 21
6748.733067288926
 31
0.0
  0
LINE
  5
18C70
330
1871D
100
AcDbEntity
  8
SUNPOU
100
AcDbLine
 10
7289.617589827852
 20
7697.920617280118
 30
0.0
 11
7289.617589827852
 21
6748.733067288926
 31
0.0
  0
LINE
  5
18C71
330
1871D
100
AcDbEntity
  8
SUNPOU
100
AcDbLine
 10
4032.617589827849
 20
6793.733067288926
 30
0.0
 11
7274.617589827852
 21
6793.733067288926
 31
0.0
  0
LINE
  5
18C72
330
1871D
100
AcDbEntity
  8
SUNPOU
100
AcDbLine
 10
4253.617589827848
 20
7187.830555289848
 30
0.0
 11
4253.617589827848
 21
6962.92061728012
 31
0.0
  0
LINE
  5
18C73
330
1871D
100
AcDbEntity
  8
SUNPOU
100
AcDbLine
 10
4017.61758982785
 20
7697.920617280122
 30
0.0
 11
4017.61758982785
 21
6962.92061728012
 31
0.0
  0
LINE
  5
18C74
330
1871D
100
AcDbEntity
  8
SUNPOU
100
AcDbLine
 10
4238.61758982785
 20
7007.920617280119
 30
0.0
 11
4032.617589827849
 21
7007.920617280119
 31
0.0
  0
LINE
  5
18C75
330
1871D
100
AcDbEntity
  8
SUNPOU
100
AcDbLine
 10
7053.617589827853
 20
7698.920617280122
 30
0.0
 11
7053.617589827853
 21
6962.92061728012
 31
0.0
  0
LINE
  5
18C76
330
1871D
100
AcDbEntity
  8
SUNPOU
100
AcDbLine
 10
7289.617589827853
 20
7698.920617280122
 30
0.0
 11
7289.617589827853
 21
6962.92061728012
 31
0.0
  0
LINE
  5
18C77
330
1871D
100
AcDbEntity
  8
SUNPOU
100
AcDbLine
 10
7068.617589827852
 20
7007.920617280119
 30
0.0
 11
7274.617589827852
 21
7007.920617280119
 31
0.0
  0
LINE
  5
18C78
330
1871D
100
AcDbEntity
  8
SUNPOU
100
AcDbLine
 10
4253.617589827848
 20
7187.830555289848
 30
0.0
 11
4253.617589827848
 21
6962.92061728012
 31
0.0
  0
LINE
  5
18C79
330
1871D
100
AcDbEntity
  8
SUNPOU
100
AcDbLine
 10
7053.617589827853
 20
7698.920617280122
 30
0.0
 11
7053.617589827853
 21
6962.92061728012
 31
0.0
  0
LINE
  5
18C7A
330
1871D
100
AcDbEntity
  8
SUNPOU
100
AcDbLine
 10
4268.61758982785
 20
7007.920617280119
 30
0.0
 11
7038.617589827852
 21
7007.920617280119
 31
0.0
  0
LINE
  5
18C7B
330
1871D
100
AcDbEntity
  8
SUNPOU
100
AcDbLine
 10
7319.617589827851
 20
10131.92061728012
 30
0.0
 11
7844.617589827847
 21
10131.92061728012
 31
0.0
  0
LINE
  5
18C7C
330
1871D
100
AcDbEntity
  8
SUNPOU
100
AcDbLine
 10
7319.617589827851
 20
7721.920617280119
 30
0.0
 11
7844.617589827847
 21
7721.920617280119
 31
0.0
  0
LINE
  5
18C7D
330
1871D
100
AcDbEntity
  8
SUNPOU
100
AcDbLine
 10
7799.617589827845
 20
10116.92061728012
 30
0.0
 11
7799.617589827845
 21
7736.920617280119
 31
0.0
  0
LINE
  5
18C7E
330
1871D
100
AcDbEntity
  8
SUNPOU
100
AcDbLine
 10
7319.617589827851
 20
9851.920617280121
 30
0.0
 11
7634.61758982785
 21
9851.920617280121
 31
0.0
  0
LINE
  5
18C7F
330
1871D
100
AcDbEntity
  8
SUNPOU
100
AcDbLine
 10
7319.617589827851
 20
10131.92061728012
 30
0.0
 11
7634.61758982785
 21
10131.92061728012
 31
0.0
  0
LINE
  5
18C80
330
1871D
100
AcDbEntity
  8
SUNPOU
100
AcDbLine
 10
7589.617589827851
 20
9866.920617280122
 30
0.0
 11
7589.617589827851
 21
10116.92061728012
 31
0.0
  0
LINE
  5
18C81
330
1871D
100
AcDbEntity
  8
SUNPOU
100
AcDbLine
 10
7319.617589827851
 20
8416.920617280121
 30
0.0
 11
7634.61758982785
 21
8416.920617280121
 31
0.0
  0
LINE
  5
18C82
330
1871D
100
AcDbEntity
  8
SUNPOU
100
AcDbLine
 10
7319.617589827851
 20
9851.920617280121
 30
0.0
 11
7634.61758982785
 21
9851.920617280121
 31
0.0
  0
LINE
  5
18C83
330
1871D
100
AcDbEntity
  8
SUNPOU
100
AcDbLine
 10
7589.617589827851
 20
8431.92061728012
 30
0.0
 11
7589.617589827851
 21
9836.920617280121
 31
0.0
  0
LINE
  5
18C84
330
1871D
100
AcDbEntity
  8
SUNPOU
100
AcDbLine
 10
7319.617589827851
 20
7721.920617280119
 30
0.0
 11
7634.61758982785
 21
7721.920617280119
 31
0.0
  0
LINE
  5
18C85
330
1871D
100
AcDbEntity
  8
SUNPOU
100
AcDbLine
 10
7319.617589827851
 20
8416.920617280121
 30
0.0
 11
7634.61758982785
 21
8416.920617280121
 31
0.0
  0
LINE
  5
18C86
330
1871D
100
AcDbEntity
  8
SUNPOU
100
AcDbLine
 10
7589.617589827851
 20
7736.920617280119
 30
0.0
 11
7589.617589827851
 21
8401.92061728012
 31
0.0
  0
ARC
  5
18C87
330
1871D
100
AcDbEntity
  8
SUNPOU
100
AcDbCircle
 10
6853.617589827848
 20
7217.920617280118
 30
0.0
 40
5.625
100
AcDbArc
 50
180.0
 51
0.0
  0
ARC
  5
18C88
330
1871D
100
AcDbEntity
  8
SUNPOU
100
AcDbCircle
 10
6853.617589827848
 20
7217.920617280118
 30
0.0
 40
5.625
100
AcDbArc
 50
0.0
 51
180.0
  0
ARC
  5
18C89
330
1871D
100
AcDbEntity
  8
SUNPOU
100
AcDbCircle
 10
6453.617589827851
 20
7217.920617280118
 30
0.0
 40
5.625
100
AcDbArc
 50
180.0
 51
0.0
  0
ARC
  5
18C8A
330
1871D
100
AcDbEntity
  8
SUNPOU
100
AcDbCircle
 10
6453.617589827851
 20
7217.920617280118
 30
0.0
 40
5.625
100
AcDbArc
 50
0.0
 51
180.0
  0
ARC
  5
18C8B
330
1871D
100
AcDbEntity
  8
SUNPOU
100
AcDbCircle
 10
6453.617589827851
 20
7217.920617280118
 30
0.0
 40
5.625
100
AcDbArc
 50
0.0
 51
180.0
  0
ARC
  5
18C8C
330
1871D
100
AcDbEntity
  8
SUNPOU
100
AcDbCircle
 10
6453.617589827851
 20
7217.920617280118
 30
0.0
 40
5.625
100
AcDbArc
 50
180.0
 51
0.0
  0
ARC
  5
18C8D
330
1871D
100
AcDbEntity
  8
SUNPOU
100
AcDbCircle
 10
6053.617589827851
 20
7217.920617280118
 30
0.0
 40
5.625
100
AcDbArc
 50
180.0
 51
0.0
  0
ARC
  5
18C8E
330
1871D
100
AcDbEntity
  8
SUNPOU
100
AcDbCircle
 10
6053.617589827851
 20
7217.920617280118
 30
0.0
 40
5.625
100
AcDbArc
 50
0.0
 51
180.0
  0
ARC
  5
18C8F
330
1871D
100
AcDbEntity
  8
SUNPOU
100
AcDbCircle
 10
6053.617589827851
 20
7217.920617280118
 30
0.0
 40
5.625
100
AcDbArc
 50
0.0
 51
180.0
  0
ARC
  5
18C90
330
1871D
100
AcDbEntity
  8
SUNPOU
100
AcDbCircle
 10
6053.617589827851
 20
7217.920617280118
 30
0.0
 40
5.625
100
AcDbArc
 50
180.0
 51
0.0
  0
ARC
  5
18C91
330
1871D
100
AcDbEntity
  8
SUNPOU
100
AcDbCircle
 10
5653.617589827852
 20
7217.920617280118
 30
0.0
 40
5.625
100
AcDbArc
 50
0.0
 51
180.0
  0
ARC
  5
18C92
330
1871D
100
AcDbEntity
  8
SUNPOU
100
AcDbCircle
 10
5653.617589827852
 20
7217.920617280118
 30
0.0
 40
5.625
100
AcDbArc
 50
180.0
 51
0.0
  0
LINE
  5
18C93
330
1871D
100
AcDbEntity
  8
SUNPOU
100
AcDbLine
 10
7053.617589827851
 20
5322.546798568533
 30
0.0
 11
7053.617589827851
 21
5337.546798568531
 31
0.0
  0
LINE
  5
18C94
330
1871D
100
AcDbEntity
  8
SUNPOU
100
AcDbLine
 10
4253.617589827848
 20
5322.546798568533
 30
0.0
 11
4253.617589827848
 21
5337.546798568531
 31
0.0
  0
LINE
  5
18C95
330
1871D
100
AcDbEntity
  8
SUNPOU
100
AcDbLine
 10
7038.617589827852
 20
5292.546798568533
 30
0.0
 11
4268.61758982785
 21
5292.546798568533
 31
0.0
  0
LINE
  5
18C96
330
1871D
100
AcDbEntity
  8
SUNPOU
100
AcDbLine
 10
7053.617589827848
 20
5322.546798568532
 30
0.0
 11
7053.617589827848
 21
5337.54679856853
 31
0.0
  0
LINE
  5
18C97
330
1871D
100
AcDbEntity
  8
SUNPOU
100
AcDbLine
 10
7289.617589827848
 20
4922.546798568532
 30
0.0
 11
7289.617589827848
 21
5337.54679856853
 31
0.0
  0
LINE
  5
18C98
330
1871D
100
AcDbEntity
  8
SUNPOU
100
AcDbLine
 10
7068.617589827848
 20
5292.54679856853
 30
0.0
 11
7274.617589827848
 21
5292.54679856853
 31
0.0
  0
LINE
  5
18C99
330
1871D
100
AcDbEntity
  8
SUNPOU
100
AcDbLine
 10
4253.617589827848
 20
5322.546798568533
 30
0.0
 11
4253.617589827848
 21
5337.546798568531
 31
0.0
  0
LINE
  5
18C9A
330
1871D
100
AcDbEntity
  8
SUNPOU
100
AcDbLine
 10
4017.61758982785
 20
4922.546798568532
 30
0.0
 11
4017.61758982785
 21
5337.546798568531
 31
0.0
  0
LINE
  5
18C9B
330
1871D
100
AcDbEntity
  8
SUNPOU
100
AcDbLine
 10
4238.61758982785
 20
5292.546798568533
 30
0.0
 11
4032.617589827849
 21
5292.546798568533
 31
0.0
  0
TEXT
  5
18C9C
330
1871D
100
AcDbEntity
  8
SUNPOU
100
AcDbText
 10
10245.79629813217
 20
5337.546798568531
 30
0.0
 40
90.0
  1
695
 41
0.6666666666666666
  7
00
100
AcDbText
  0
LINE
  5
18C9D
330
1871D
100
AcDbEntity
  8
SUNPOU
100
AcDbLine
 10
9996.689155275038
 20
5292.546798568533
 30
0.0
 11
10007.93915527504
 21
5292.546798568533
 31
0.0
  0
LINE
  5
18C9E
330
1871D
100
AcDbEntity
  8
SUNPOU
100
AcDbLine
 10
10669.18915527504
 20
5292.546798568533
 30
0.0
 11
10657.93915527504
 21
5292.546798568533
 31
0.0
  0
TEXT
  5
18C9F
330
1871D
100
AcDbEntity
  8
SUNPOU
100
AcDbText
 10
11279.36772670361
 20
5337.546798568531
 30
0.0
 40
90.0
  1
1435
 41
0.6666666666666666
  7
00
100
AcDbText
  0
LINE
  5
18CA0
330
1871D
100
AcDbEntity
  8
SUNPOU
100
AcDbLine
 10
10691.68915527504
 20
5292.546798568533
 30
0.0
 11
10702.93915527504
 21
5292.546798568533
 31
0.0
  0
LINE
  5
18CA1
330
1871D
100
AcDbEntity
  8
SUNPOU
100
AcDbLine
 10
12104.18915527504
 20
5292.546798568533
 30
0.0
 11
12092.93915527502
 21
5292.546798568533
 31
0.0
  0
TEXT
  5
18CA2
330
1871D
100
AcDbEntity
  8
SUNPOU
100
AcDbText
 10
12169.72486956074
 20
5337.546798568531
 30
0.0
 40
90.0
  1
280
 41
0.6666666666666666
  7
00
100
AcDbText
  0
LINE
  5
18CA3
330
1871D
100
AcDbEntity
  8
SUNPOU
100
AcDbLine
 10
12126.68915527502
 20
5292.546798568533
 30
0.0
 11
12137.93915527502
 21
5292.546798568533
 31
0.0
  0
LINE
  5
18CA4
330
1871D
100
AcDbEntity
  8
SUNPOU
100
AcDbLine
 10
12384.18915527504
 20
5292.546798568533
 30
0.0
 11
12372.93915527504
 21
5292.546798568533
 31
0.0
  0
TEXT
  5
18CA5
330
1871D
100
AcDbEntity
  8
SUNPOU
100
AcDbText
 10
9451.569579679539
 20
3685.261084282822
 30
0.0
 40
90.0
  1
2160
 50
90.0
 41
0.6666666666666666
  7
00
100
AcDbText
  0
LINE
  5
18CA6
330
1871D
100
AcDbEntity
  8
SUNPOU
100
AcDbLine
 10
9496.569579679542
 20
4868.296798568533
 30
0.0
 11
9496.569579679542
 21
4857.046798568534
 31
0.0
  0
LINE
  5
18CA7
330
1871D
100
AcDbEntity
  8
SUNPOU
100
AcDbLine
 10
9496.569579679539
 20
2730.796798568535
 30
0.0
 11
9496.569579679539
 21
2742.046798568535
 31
0.0
  0
TEXT
  5
18CA8
330
1871D
100
AcDbEntity
  8
SUNPOU
100
AcDbText
 10
9451.569579679539
 20
2488.83251285425
 30
0.0
 40
90.0
  1
50
 50
90.0
 41
0.6666666666666666
  7
00
100
AcDbText
  0
LINE
  5
18CA9
330
1871D
100
AcDbEntity
  8
SUNPOU
100
AcDbLine
 10
9496.569579679539
 20
2658.296798568534
 30
0.0
 11
9496.569579679539
 21
2647.046798568533
 31
0.0
  0
LINE
  5
18CAA
330
1871D
100
AcDbEntity
  8
SUNPOU
100
AcDbLine
 10
9496.569579679539
 20
2730.796798568534
 30
0.0
 11
9496.569579679539
 21
2742.046798568534
 31
0.0
  0
TEXT
  5
18CAB
330
1871D
100
AcDbEntity
  8
SUNPOU
100
AcDbText
 10
12656.26430788204
 20
3615.261084282822
 30
0.0
 40
90.0
  1
2020
 50
90.0
 41
0.6666666666666666
  7
00
100
AcDbText
  0
LINE
  5
18CAC
330
1871D
100
AcDbEntity
  8
SUNPOU
100
AcDbLine
 10
12701.26430788204
 20
4728.296798568534
 30
0.0
 11
12701.26430788204
 21
4717.046798568532
 31
0.0
  0
LINE
  5
18CAD
330
1871D
100
AcDbEntity
  8
SUNPOU
100
AcDbLine
 10
12701.26430788204
 20
2730.796798568535
 30
0.0
 11
12701.26430788204
 21
2742.046798568535
 31
0.0
  0
TEXT
  5
18CAE
330
1871D
100
AcDbEntity
  8
SUNPOU
100
AcDbText
 10
5539.331875542138
 20
6838.733067288926
 30
0.0
 40
90.0
  1
3272
 41
0.6666666666666666
  7
00
100
AcDbText
  0
LINE
  5
18CAF
330
1871D
100
AcDbEntity
  8
SUNPOU
100
AcDbLine
 10
7278.36758982785
 20
6793.733067288926
 30
0.0
 11
7267.117589827852
 21
6793.733067288926
 31
0.0
  0
LINE
  5
18CB0
330
1871D
100
AcDbEntity
  8
SUNPOU
100
AcDbLine
 10
4028.867589827849
 20
6793.733067288926
 30
0.0
 11
4040.11758982785
 21
6793.733067288926
 31
0.0
  0
TEXT
  5
18CB1
330
1871D
100
AcDbEntity
  8
SUNPOU
100
AcDbText
 10
4049.903304113565
 20
7052.920617280122
 30
0.0
 40
90.0
  1
236
 41
0.6666666666666666
  7
00
100
AcDbText
  0
LINE
  5
18CB2
330
1871D
100
AcDbEntity
  8
SUNPOU
100
AcDbLine
 10
4028.867589827849
 20
7007.920617280119
 30
0.0
 11
4040.11758982785
 21
7007.920617280119
 31
0.0
  0
LINE
  5
18CB3
330
1871D
100
AcDbEntity
  8
SUNPOU
100
AcDbLine
 10
4242.367589827849
 20
7007.920617280119
 30
0.0
 11
4231.117589827849
 21
7007.920617280119
 31
0.0
  0
TEXT
  5
18CB4
330
1871D
100
AcDbEntity
  8
SUNPOU
100
AcDbText
 10
7085.903304113569
 20
7052.920617280122
 30
0.0
 40
90.0
  1
236
 41
0.6666666666666666
  7
00
100
AcDbText
  0
LINE
  5
18CB5
330
1871D
100
AcDbEntity
  8
SUNPOU
100
AcDbLine
 10
7278.367589827853
 20
7007.920617280119
 30
0.0
 11
7267.117589827852
 21
7007.920617280119
 31
0.0
  0
LINE
  5
18CB6
330
1871D
100
AcDbEntity
  8
SUNPOU
100
AcDbLine
 10
7064.867589827851
 20
7007.920617280119
 30
0.0
 11
7076.117589827852
 21
7007.920617280119
 31
0.0
  0
TEXT
  5
18CB7
330
1871D
100
AcDbEntity
  8
SUNPOU
100
AcDbText
 10
5539.331875542138
 20
7052.920617280122
 30
0.0
 40
90.0
  1
2800
 41
0.6666666666666666
  7
00
100
AcDbText
  0
LINE
  5
18CB8
330
1871D
100
AcDbEntity
  8
SUNPOU
100
AcDbLine
 10
7042.367589827853
 20
7007.920617280119
 30
0.0
 11
7031.117589827852
 21
7007.920617280119
 31
0.0
  0
LINE
  5
18CB9
330
1871D
100
AcDbEntity
  8
SUNPOU
100
AcDbLine
 10
4264.86758982785
 20
7007.920617280119
 30
0.0
 11
4276.11758982785
 21
7007.920617280119
 31
0.0
  0
TEXT
  5
18CBA
330
1871D
100
AcDbEntity
  8
SUNPOU
100
AcDbText
 10
7754.617589827843
 20
8812.634902994405
 30
0.0
 40
90.0
  1
2410
 50
90.0
 41
0.6666666666666666
  7
00
100
AcDbText
  0
LINE
  5
18CBB
330
1871D
100
AcDbEntity
  8
SUNPOU
100
AcDbLine
 10
7799.617589827845
 20
7733.170617280119
 30
0.0
 11
7799.617589827845
 21
7744.420617280119
 31
0.0
  0
LINE
  5
18CBC
330
1871D
100
AcDbEntity
  8
SUNPOU
100
AcDbLine
 10
7799.617589827845
 20
10120.67061728012
 30
0.0
 11
7799.617589827845
 21
10109.42061728012
 31
0.0
  0
TEXT
  5
18CBD
330
1871D
100
AcDbEntity
  8
SUNPOU
100
AcDbText
 10
7544.617589827851
 20
9906.206331565838
 30
0.0
 40
90.0
  1
280
 50
90.0
 41
0.6666666666666666
  7
00
100
AcDbText
  0
LINE
  5
18CBE
330
1871D
100
AcDbEntity
  8
SUNPOU
100
AcDbLine
 10
7589.617589827851
 20
10120.67061728012
 30
0.0
 11
7589.617589827851
 21
10109.42061728012
 31
0.0
  0
LINE
  5
18CBF
330
1871D
100
AcDbEntity
  8
SUNPOU
100
AcDbLine
 10
7589.617589827851
 20
9863.17061728012
 30
0.0
 11
7589.617589827851
 21
9874.420617280122
 31
0.0
  0
TEXT
  5
18CC0
330
1871D
100
AcDbEntity
  8
SUNPOU
100
AcDbText
 10
7544.617589827851
 20
9015.849188708697
 30
0.0
 40
90.0
  1
1435
 50
90.0
 41
0.6666666666666666
  7
00
100
AcDbText
  0
LINE
  5
18CC1
330
1871D
100
AcDbEntity
  8
SUNPOU
100
AcDbLine
 10
7589.617589827851
 20
9840.670617280121
 30
0.0
 11
7589.617589827851
 21
9829.420617280121
 31
0.0
  0
LINE
  5
18CC2
330
1871D
100
AcDbEntity
  8
SUNPOU
100
AcDbLine
 10
7589.617589827851
 20
8428.170617280121
 30
0.0
 11
7589.617589827851
 21
8439.42061728012
 31
0.0
  0
TEXT
  5
18CC3
330
1871D
100
AcDbEntity
  8
SUNPOU
100
AcDbText
 10
7544.617589827851
 20
7982.277760137262
 30
0.0
 40
90.0
  1
695
 50
90.0
 41
0.6666666666666666
  7
00
100
AcDbText
  0
LINE
  5
18CC4
330
1871D
100
AcDbEntity
  8
SUNPOU
100
AcDbLine
 10
7589.617589827851
 20
8405.67061728012
 30
0.0
 11
7589.617589827851
 21
8394.42061728012
 31
0.0
  0
LINE
  5
18CC5
330
1871D
100
AcDbEntity
  8
SUNPOU
100
AcDbLine
 10
7589.617589827851
 20
7733.170617280119
 30
0.0
 11
7589.617589827851
 21
7744.420617280119
 31
0.0
  0
TEXT
  5
18CC6
330
1871D
100
AcDbEntity
  8
SUNPOU
100
AcDbText
 10
5539.331875542138
 20
5337.546798568531
 30
0.0
 40
90.0
  1
2800
 41
0.6666666666666666
  7
00
100
AcDbText
  0
LINE
  5
18CC7
330
1871D
100
AcDbEntity
  8
SUNPOU
100
AcDbLine
 10
4264.86758982785
 20
5292.546798568533
 30
0.0
 11
4276.11758982785
 21
5292.546798568533
 31
0.0
  0
LINE
  5
18CC8
330
1871D
100
AcDbEntity
  8
SUNPOU
100
AcDbLine
 10
7042.367589827851
 20
5292.546798568533
 30
0.0
 11
7031.117589827852
 21
5292.546798568533
 31
0.0
  0
TEXT
  5
18CC9
330
1871D
100
AcDbEntity
  8
SUNPOU
100
AcDbText
 10
7085.903304113561
 20
5337.54679856853
 30
0.0
 40
90.0
  1
236
 41
0.6666666666666666
  7
00
100
AcDbText
  0
LINE
  5
18CCA
330
1871D
100
AcDbEntity
  8
SUNPOU
100
AcDbLine
 10
7278.367589827848
 20
5292.54679856853
 30
0.0
 11
7267.117589827847
 21
5292.54679856853
 31
0.0
  0
LINE
  5
18CCB
330
1871D
100
AcDbEntity
  8
SUNPOU
100
AcDbLine
 10
7064.867589827848
 20
5292.54679856853
 30
0.0
 11
7076.117589827848
 21
5292.54679856853
 31
0.0
  0
TEXT
  5
18CCC
330
1871D
100
AcDbEntity
  8
SUNPOU
100
AcDbText
 10
4049.903304113565
 20
5337.546798568531
 30
0.0
 40
90.0
  1
236
 41
0.6666666666666666
  7
00
100
AcDbText
  0
LINE
  5
18CCD
330
1871D
100
AcDbEntity
  8
SUNPOU
100
AcDbLine
 10
4028.867589827849
 20
5292.546798568533
 30
0.0
 11
4040.11758982785
 21
5292.546798568533
 31
0.0
  0
LINE
  5
18CCE
330
1871D
100
AcDbEntity
  8
SUNPOU
100
AcDbLine
 10
4242.367589827849
 20
5292.546798568533
 30
0.0
 11
4231.117589827849
 21
5292.546798568533
 31
0.0
  0
ARC
  5
18CCF
330
1871D
100
AcDbEntity
  8
SUNPOU
100
AcDbCircle
 10
9985.439155275038
 20
5292.546798568533
 30
0.0
 40
5.625
100
AcDbArc
 50
0.0
 51
180.0
  0
ARC
  5
18CD0
330
1871D
100
AcDbEntity
  8
SUNPOU
100
AcDbCircle
 10
9985.439155275038
 20
5292.546798568533
 30
0.0
 40
5.625
100
AcDbArc
 50
180.0
 51
0.0
  0
ARC
  5
18CD1
330
1871D
100
AcDbEntity
  8
SUNPOU
100
AcDbCircle
 10
10680.43915527504
 20
5292.546798568533
 30
0.0
 40
5.625
100
AcDbArc
 50
180.0
 51
0.0
  0
ARC
  5
18CD2
330
1871D
100
AcDbEntity
  8
SUNPOU
100
AcDbCircle
 10
10680.43915527504
 20
5292.546798568533
 30
0.0
 40
5.625
100
AcDbArc
 50
0.0
 51
180.0
  0
ARC
  5
18CD3
330
1871D
100
AcDbEntity
  8
SUNPOU
100
AcDbCircle
 10
10680.43915527504
 20
5292.546798568533
 30
0.0
 40
5.625
100
AcDbArc
 50
0.0
 51
180.0
  0
ARC
  5
18CD4
330
1871D
100
AcDbEntity
  8
SUNPOU
100
AcDbCircle
 10
10680.43915527504
 20
5292.546798568533
 30
0.0
 40
5.625
100
AcDbArc
 50
180.0
 51
0.0
  0
ARC
  5
18CD5
330
1871D
100
AcDbEntity
  8
SUNPOU
100
AcDbCircle
 10
12115.43915527502
 20
5292.546798568533
 30
0.0
 40
5.625
100
AcDbArc
 50
180.0
 51
0.0
  0
ARC
  5
18CD6
330
1871D
100
AcDbEntity
  8
SUNPOU
100
AcDbCircle
 10
12115.43915527502
 20
5292.546798568533
 30
0.0
 40
5.625
100
AcDbArc
 50
0.0
 51
180.0
  0
ARC
  5
18CD7
330
1871D
100
AcDbEntity
  8
SUNPOU
100
AcDbCircle
 10
12115.43915527502
 20
5292.546798568533
 30
0.0
 40
5.625
100
AcDbArc
 50
0.0
 51
180.0
  0
ARC
  5
18CD8
330
1871D
100
AcDbEntity
  8
SUNPOU
100
AcDbCircle
 10
12115.43915527502
 20
5292.546798568533
 30
0.0
 40
5.625
100
AcDbArc
 50
180.0
 51
0.0
  0
ARC
  5
18CD9
330
1871D
100
AcDbEntity
  8
SUNPOU
100
AcDbCircle
 10
12395.43915527502
 20
5292.546798568533
 30
0.0
 40
5.625
100
AcDbArc
 50
180.0
 51
0.0
  0
ARC
  5
18CDA
330
1871D
100
AcDbEntity
  8
SUNPOU
100
AcDbCircle
 10
12395.43915527502
 20
5292.546798568533
 30
0.0
 40
5.625
100
AcDbArc
 50
0.0
 51
180.0
  0
ARC
  5
18CDB
330
1871D
100
AcDbEntity
  8
SUNPOU
100
AcDbCircle
 10
9496.569579679542
 20
4879.546798568533
 30
0.0
 40
5.625
100
AcDbArc
 50
270.0
 51
90.0
  0
ARC
  5
18CDC
330
1871D
100
AcDbEntity
  8
SUNPOU
100
AcDbCircle
 10
9496.569579679542
 20
4879.546798568533
 30
0.0
 40
5.625
100
AcDbArc
 50
90.0
 51
270.0
  0
ARC
  5
18CDD
330
1871D
100
AcDbEntity
  8
SUNPOU
100
AcDbCircle
 10
9496.569579679539
 20
2719.546798568535
 30
0.0
 40
5.625
100
AcDbArc
 50
90.0
 51
270.0
  0
ARC
  5
18CDE
330
1871D
100
AcDbEntity
  8
SUNPOU
100
AcDbCircle
 10
9496.569579679539
 20
2719.546798568535
 30
0.0
 40
5.625
100
AcDbArc
 50
270.0
 51
90.0
  0
ARC
  5
18CDF
330
1871D
100
AcDbEntity
  8
SUNPOU
100
AcDbCircle
 10
9496.569579679539
 20
2669.546798568534
 30
0.0
 40
5.625
100
AcDbArc
 50
270.0
 51
90.0
  0
ARC
  5
18CE0
330
1871D
100
AcDbEntity
  8
SUNPOU
100
AcDbCircle
 10
9496.569579679539
 20
2669.546798568534
 30
0.0
 40
5.625
100
AcDbArc
 50
90.0
 51
270.0
  0
ARC
  5
18CE1
330
1871D
100
AcDbEntity
  8
SUNPOU
100
AcDbCircle
 10
9496.569579679539
 20
2719.546798568534
 30
0.0
 40
5.625
100
AcDbArc
 50
90.0
 51
270.0
  0
ARC
  5
18CE2
330
1871D
100
AcDbEntity
  8
SUNPOU
100
AcDbCircle
 10
9496.569579679539
 20
2719.546798568534
 30
0.0
 40
5.625
100
AcDbArc
 50
270.0
 51
90.0
  0
ARC
  5
18CE3
330
1871D
100
AcDbEntity
  8
SUNPOU
100
AcDbCircle
 10
12701.26430788204
 20
4739.546798568532
 30
0.0
 40
5.625
100
AcDbArc
 50
270.0
 51
90.0
  0
ARC
  5
18CE4
330
1871D
100
AcDbEntity
  8
SUNPOU
100
AcDbCircle
 10
12701.26430788204
 20
4739.546798568532
 30
0.0
 40
5.625
100
AcDbArc
 50
90.0
 51
270.0
  0
ARC
  5
18CE5
330
1871D
100
AcDbEntity
  8
SUNPOU
100
AcDbCircle
 10
12701.26430788204
 20
2719.546798568535
 30
0.0
 40
5.625
100
AcDbArc
 50
90.0
 51
270.0
  0
ARC
  5
18CE6
330
1871D
100
AcDbEntity
  8
SUNPOU
100
AcDbCircle
 10
12701.26430788204
 20
2719.546798568535
 30
0.0
 40
5.625
100
AcDbArc
 50
270.0
 51
90.0
  0
ARC
  5
18CE7
330
1871D
100
AcDbEntity
  8
SUNPOU
100
AcDbCircle
 10
7289.617589827852
 20
6793.733067288926
 30
0.0
 40
5.625
100
AcDbArc
 50
180.0
 51
0.0
  0
ARC
  5
18CE8
330
1871D
100
AcDbEntity
  8
SUNPOU
100
AcDbCircle
 10
7289.617589827852
 20
6793.733067288926
 30
0.0
 40
5.625
100
AcDbArc
 50
0.0
 51
180.0
  0
ARC
  5
18CE9
330
1871D
100
AcDbEntity
  8
SUNPOU
100
AcDbCircle
 10
4017.61758982785
 20
6793.733067288926
 30
0.0
 40
5.625
100
AcDbArc
 50
0.0
 51
180.0
  0
ARC
  5
18CEA
330
1871D
100
AcDbEntity
  8
SUNPOU
100
AcDbCircle
 10
4017.61758982785
 20
6793.733067288926
 30
0.0
 40
5.625
100
AcDbArc
 50
180.0
 51
0.0
  0
ARC
  5
18CEB
330
1871D
100
AcDbEntity
  8
SUNPOU
100
AcDbCircle
 10
4017.61758982785
 20
7007.920617280119
 30
0.0
 40
5.625
100
AcDbArc
 50
0.0
 51
180.0
  0
ARC
  5
18CEC
330
1871D
100
AcDbEntity
  8
SUNPOU
100
AcDbCircle
 10
4017.61758982785
 20
7007.920617280119
 30
0.0
 40
5.625
100
AcDbArc
 50
180.0
 51
0.0
  0
ARC
  5
18CED
330
1871D
100
AcDbEntity
  8
SUNPOU
100
AcDbCircle
 10
4253.617589827848
 20
7007.920617280119
 30
0.0
 40
5.625
100
AcDbArc
 50
180.0
 51
0.0
  0
ARC
  5
18CEE
330
1871D
100
AcDbEntity
  8
SUNPOU
100
AcDbCircle
 10
4253.617589827848
 20
7007.920617280119
 30
0.0
 40
5.625
100
AcDbArc
 50
0.0
 51
180.0
  0
ARC
  5
18CEF
330
1871D
100
AcDbEntity
  8
SUNPOU
100
AcDbCircle
 10
7289.617589827853
 20
7007.920617280119
 30
0.0
 40
5.625
100
AcDbArc
 50
180.0
 51
0.0
  0
ARC
  5
18CF0
330
1871D
100
AcDbEntity
  8
SUNPOU
100
AcDbCircle
 10
7289.617589827853
 20
7007.920617280119
 30
0.0
 40
5.625
100
AcDbArc
 50
0.0
 51
180.0
  0
ARC
  5
18CF1
330
1871D
100
AcDbEntity
  8
SUNPOU
100
AcDbCircle
 10
7053.617589827853
 20
7007.920617280119
 30
0.0
 40
5.625
100
AcDbArc
 50
0.0
 51
180.0
  0
ARC
  5
18CF2
330
1871D
100
AcDbEntity
  8
SUNPOU
100
AcDbCircle
 10
7053.617589827853
 20
7007.920617280119
 30
0.0
 40
5.625
100
AcDbArc
 50
180.0
 51
0.0
  0
ARC
  5
18CF3
330
1871D
100
AcDbEntity
  8
SUNPOU
100
AcDbCircle
 10
7053.617589827853
 20
7007.920617280119
 30
0.0
 40
5.625
100
AcDbArc
 50
180.0
 51
0.0
  0
ARC
  5
18CF4
330
1871D
100
AcDbEntity
  8
SUNPOU
100
AcDbCircle
 10
7053.617589827853
 20
7007.920617280119
 30
0.0
 40
5.625
100
AcDbArc
 50
0.0
 51
180.0
  0
ARC
  5
18CF5
330
1871D
100
AcDbEntity
  8
SUNPOU
100
AcDbCircle
 10
4253.617589827848
 20
7007.920617280119
 30
0.0
 40
5.625
100
AcDbArc
 50
0.0
 51
180.0
  0
ARC
  5
18CF6
330
1871D
100
AcDbEntity
  8
SUNPOU
100
AcDbCircle
 10
4253.617589827848
 20
7007.920617280119
 30
0.0
 40
5.625
100
AcDbArc
 50
180.0
 51
0.0
  0
ARC
  5
18CF7
330
1871D
100
AcDbEntity
  8
SUNPOU
100
AcDbCircle
 10
7799.617589827845
 20
7721.920617280119
 30
0.0
 40
5.625
100
AcDbArc
 50
90.0
 51
270.0
  0
ARC
  5
18CF8
330
1871D
100
AcDbEntity
  8
SUNPOU
100
AcDbCircle
 10
7799.617589827845
 20
7721.920617280119
 30
0.0
 40
5.625
100
AcDbArc
 50
270.0
 51
90.0
  0
ARC
  5
18CF9
330
1871D
100
AcDbEntity
  8
SUNPOU
100
AcDbCircle
 10
7799.617589827845
 20
10131.92061728012
 30
0.0
 40
5.625
100
AcDbArc
 50
270.0
 51
90.0
  0
ARC
  5
18CFA
330
1871D
100
AcDbEntity
  8
SUNPOU
100
AcDbCircle
 10
7799.617589827845
 20
10131.92061728012
 30
0.0
 40
5.625
100
AcDbArc
 50
90.0
 51
270.0
  0
ARC
  5
18CFB
330
1871D
100
AcDbEntity
  8
SUNPOU
100
AcDbCircle
 10
7589.617589827851
 20
10131.92061728012
 30
0.0
 40
5.625
100
AcDbArc
 50
270.0
 51
90.0
  0
ARC
  5
18CFC
330
1871D
100
AcDbEntity
  8
SUNPOU
100
AcDbCircle
 10
7589.617589827851
 20
10131.92061728012
 30
0.0
 40
5.625
100
AcDbArc
 50
90.0
 51
270.0
  0
ARC
  5
18CFD
330
1871D
100
AcDbEntity
  8
SUNPOU
100
AcDbCircle
 10
7589.617589827851
 20
9851.920617280121
 30
0.0
 40
5.625
100
AcDbArc
 50
90.0
 51
270.0
  0
ARC
  5
18CFE
330
1871D
100
AcDbEntity
  8
SUNPOU
100
AcDbCircle
 10
7589.617589827851
 20
9851.920617280121
 30
0.0
 40
5.625
100
AcDbArc
 50
270.0
 51
90.0
  0
ARC
  5
18CFF
330
1871D
100
AcDbEntity
  8
SUNPOU
100
AcDbCircle
 10
7589.617589827851
 20
9851.920617280121
 30
0.0
 40
5.625
100
AcDbArc
 50
270.0
 51
90.0
  0
ARC
  5
18D00
330
1871D
100
AcDbEntity
  8
SUNPOU
100
AcDbCircle
 10
7589.617589827851
 20
9851.920617280121
 30
0.0
 40
5.625
100
AcDbArc
 50
90.0
 51
270.0
  0
ARC
  5
18D01
330
1871D
100
AcDbEntity
  8
SUNPOU
100
AcDbCircle
 10
7589.617589827851
 20
8416.920617280121
 30
0.0
 40
5.625
100
AcDbArc
 50
90.0
 51
270.0
  0
ARC
  5
18D02
330
1871D
100
AcDbEntity
  8
SUNPOU
100
AcDbCircle
 10
7589.617589827851
 20
8416.920617280121
 30
0.0
 40
5.625
100
AcDbArc
 50
270.0
 51
90.0
  0
ARC
  5
18D03
330
1871D
100
AcDbEntity
  8
SUNPOU
100
AcDbCircle
 10
7589.617589827851
 20
8416.920617280121
 30
0.0
 40
5.625
100
AcDbArc
 50
270.0
 51
90.0
  0
ARC
  5
18D04
330
1871D
100
AcDbEntity
  8
SUNPOU
100
AcDbCircle
 10
7589.617589827851
 20
8416.920617280121
 30
0.0
 40
5.625
100
AcDbArc
 50
90.0
 51
270.0
  0
ARC
  5
18D05
330
1871D
100
AcDbEntity
  8
SUNPOU
100
AcDbCircle
 10
7589.617589827851
 20
7721.920617280119
 30
0.0
 40
5.625
100
AcDbArc
 50
90.0
 51
270.0
  0
ARC
  5
18D06
330
1871D
100
AcDbEntity
  8
SUNPOU
100
AcDbCircle
 10
7589.617589827851
 20
7721.920617280119
 30
0.0
 40
5.625
100
AcDbArc
 50
270.0
 51
90.0
  0
ARC
  5
18D07
330
1871D
100
AcDbEntity
  8
SUNPOU
100
AcDbCircle
 10
4253.617589827848
 20
5292.546798568533
 30
0.0
 40
5.625
100
AcDbArc
 50
0.0
 51
180.0
  0
ARC
  5
18D08
330
1871D
100
AcDbEntity
  8
SUNPOU
100
AcDbCircle
 10
4253.617589827848
 20
5292.546798568533
 30
0.0
 40
5.625
100
AcDbArc
 50
180.0
 51
0.0
  0
ARC
  5
18D09
330
1871D
100
AcDbEntity
  8
SUNPOU
100
AcDbCircle
 10
7053.617589827851
 20
5292.546798568533
 30
0.0
 40
5.625
100
AcDbArc
 50
180.0
 51
0.0
  0
ARC
  5
18D0A
330
1871D
100
AcDbEntity
  8
SUNPOU
100
AcDbCircle
 10
7053.617589827851
 20
5292.546798568533
 30
0.0
 40
5.625
100
AcDbArc
 50
0.0
 51
180.0
  0
ARC
  5
18D0B
330
1871D
100
AcDbEntity
  8
SUNPOU
100
AcDbCircle
 10
7289.617589827848
 20
5292.54679856853
 30
0.0
 40
5.625
100
AcDbArc
 50
180.0
 51
0.0
  0
ARC
  5
18D0C
330
1871D
100
AcDbEntity
  8
SUNPOU
100
AcDbCircle
 10
7289.617589827848
 20
5292.54679856853
 30
0.0
 40
5.625
100
AcDbArc
 50
0.0
 51
180.0
  0
ARC
  5
18D0D
330
1871D
100
AcDbEntity
  8
SUNPOU
100
AcDbCircle
 10
7053.617589827848
 20
5292.54679856853
 30
0.0
 40
5.625
100
AcDbArc
 50
0.0
 51
180.0
  0
ARC
  5
18D0E
330
1871D
100
AcDbEntity
  8
SUNPOU
100
AcDbCircle
 10
7053.617589827848
 20
5292.54679856853
 30
0.0
 40
5.625
100
AcDbArc
 50
180.0
 51
0.0
  0
ARC
  5
18D0F
330
1871D
100
AcDbEntity
  8
SUNPOU
100
AcDbCircle
 10
4017.61758982785
 20
5292.546798568533
 30
0.0
 40
5.625
100
AcDbArc
 50
0.0
 51
180.0
  0
ARC
  5
18D10
330
1871D
100
AcDbEntity
  8
SUNPOU
100
AcDbCircle
 10
4017.61758982785
 20
5292.546798568533
 30
0.0
 40
5.625
100
AcDbArc
 50
180.0
 51
0.0
  0
ARC
  5
18D11
330
1871D
100
AcDbEntity
  8
SUNPOU
100
AcDbCircle
 10
4253.617589827848
 20
5292.546798568533
 30
0.0
 40
5.625
100
AcDbArc
 50
180.0
 51
0.0
  0
ARC
  5
18D12
330
1871D
100
AcDbEntity
  8
SUNPOU
100
AcDbCircle
 10
4253.617589827848
 20
5292.546798568533
 30
0.0
 40
5.625
100
AcDbArc
 50
0.0
 51
180.0
  0
LINE
  5
18D13
330
1871D
100
AcDbEntity
  8
HIKIDASHI
100
AcDbLine
 10
4311.607970884629
 20
9131.078360600458
 30
0.0
 11
4253.617589827848
 21
9201.520646941045
 31
0.0
  0
LINE
  5
18D14
330
1871D
100
AcDbEntity
  8
HIKIDASHI
100
AcDbLine
 10
4253.617589827848
 20
9201.520646941045
 30
0.0
 11
4285.627208771098
 21
9116.078360600452
 31
0.0
  0
SOLID
  5
18D15
330
1871D
100
AcDbEntity
  8
HIKIDASHI
100
AcDbTrace
 10
4311.607970884629
 20
9131.078360600458
 30
0.0
 11
4285.627208771098
 21
9116.078360600452
 31
0.0
 12
4253.617589827848
 22
9201.520646941045
 32
0.0
 13
4253.617589827848
 23
9201.520646941045
 33
0.0
  0
LINE
  5
18D16
330
1871D
100
AcDbEntity
  8
HIKIDASHI
100
AcDbLine
 10
4285.627208771098
 20
9116.078360600452
 30
0.0
 11
4311.607970884629
 21
9131.078360600458
 31
0.0
  0
LINE
  5
18D17
330
1871D
100
AcDbEntity
  8
HIKIDASHI
100
AcDbLine
 10
4165.572950492512
 20
8818.170684573964
 30
0.0
 11
3842.267714789631
 21
8686.105932498515
 31
0.0
1001
ACAD
1000
DSTYLE
1002
{
1070
   147
1040
1.5
1070
    77
1070
     0
1002
}
  0
LINE
  5
18D18
330
1871D
100
AcDbEntity
  8
HIKIDASHI
100
AcDbLine
 10
4169.354459013912
 20
8808.913244684742
 30
0.0
 11
4221.117589827851
 21
8840.859735702364
 31
0.0
  0
LINE
  5
18D19
330
1871D
100
AcDbEntity
  8
HIKIDASHI
100
AcDbLine
 10
4221.117589827851
 20
8840.859735702364
 30
0.0
 11
4161.791441971113
 21
8827.428124463189
 31
0.0
  0
SOLID
  5
18D1A
330
1871D
100
AcDbEntity
  8
HIKIDASHI
100
AcDbTrace
 10
4169.354459013912
 20
8808.913244684742
 30
0.0
 11
4161.791441971113
 21
8827.428124463189
 31
0.0
 12
4221.117589827851
 22
8840.859735702364
 32
0.0
 13
4221.117589827851
 23
8840.859735702364
 33
0.0
  0
LINE
  5
18D1B
330
1871D
100
AcDbEntity
  8
HIKIDASHI
100
AcDbLine
 10
4161.791441971113
 20
8827.428124463189
 30
0.0
 11
4169.354459013912
 21
8808.913244684742
 31
0.0
  0
LINE
  5
18D1C
330
1871D
100
AcDbEntity
  8
HIKIDASHI
100
AcDbLine
 10
4814.136953286904
 20
9920.282141507179
 30
0.0
 11
4603.071694177038
 21
10285.857893998
 31
0.0
1001
ACAD
1000
DSTYLE
1002
{
1070
   147
1040
1.5
1070
    77
1070
     0
1002
}
  0
LINE
  5
18D1D
330
1871D
100
AcDbEntity
  8
HIKIDASHI
100
AcDbLine
 10
4805.476699249061
 20
9915.282141507177
 30
0.0
 11
4844.136953286914
 21
9868.320617280119
 31
0.0
  0
LINE
  5
18D1E
330
1871D
100
AcDbEntity
  8
HIKIDASHI
100
AcDbLine
 10
4844.136953286914
 20
9868.320617280119
 30
0.0
 11
4822.797207324748
 21
9925.28214150718
 31
0.0
  0
SOLID
  5
18D1F
330
1871D
100
AcDbEntity
  8
HIKIDASHI
100
AcDbTrace
 10
4805.476699249061
 20
9915.282141507177
 30
0.0
 11
4822.797207324748
 21
9925.28214150718
 31
0.0
 12
4844.136953286914
 22
9868.320617280119
 32
0.0
 13
4844.136953286914
 23
9868.320617280119
 33
0.0
  0
LINE
  5
18D20
330
1871D
100
AcDbEntity
  8
HIKIDASHI
100
AcDbLine
 10
4822.797207324748
 20
9925.28214150718
 30
0.0
 11
4805.476699249061
 21
9915.282141507177
 31
0.0
  0
LINE
  5
18D21
330
1871D
100
AcDbEntity
  8
HIKIDASHI
100
AcDbLine
 10
4316.117589827857
 20
8360.959093053057
 30
0.0
 11
4461.013392662864
 21
8109.992200739453
 31
0.0
1001
ACAD
1000
DSTYLE
1002
{
1070
   147
1040
1.5
1070
    77
1070
     0
1002
}
  0
LINE
  5
18D22
330
1871D
100
AcDbEntity
  8
HIKIDASHI
100
AcDbLine
 10
4324.777843865702
 20
8365.95909305306
 30
0.0
 11
4286.117589827848
 21
8412.92061728012
 31
0.0
  0
LINE
  5
18D23
330
1871D
100
AcDbEntity
  8
HIKIDASHI
100
AcDbLine
 10
4286.117589827848
 20
8412.92061728012
 30
0.0
 11
4307.457335790014
 21
8355.959093053057
 31
0.0
  0
SOLID
  5
18D24
330
1871D
100
AcDbEntity
  8
HIKIDASHI
100
AcDbTrace
 10
4324.777843865702
 20
8365.95909305306
 30
0.0
 11
4307.457335790014
 21
8355.959093053057
 31
0.0
 12
4286.117589827848
 22
8412.92061728012
 32
0.0
 13
4286.117589827848
 23
8412.92061728012
 33
0.0
  0
LINE
  5
18D25
330
1871D
100
AcDbEntity
  8
HIKIDASHI
100
AcDbLine
 10
4307.457335790014
 20
8355.959093053057
 30
0.0
 11
4324.777843865702
 21
8365.95909305306
 31
0.0
  0
LINE
  5
18D26
330
1871D
100
AcDbEntity
  8
HIKIDASHI
100
AcDbLine
 10
4639.934909991281
 20
9662.959069732329
 30
0.0
 11
4784.830712826287
 21
9411.992177418719
 31
0.0
1001
ACAD
1000
DSTYLE
1002
{
1070
   147
1040
1.5
1070
    77
1070
     0
1002
}
  0
LINE
  5
18D27
330
1871D
100
AcDbEntity
  8
HIKIDASHI
100
AcDbLine
 10
4648.595164029126
 20
9667.959069732328
 30
0.0
 11
4609.934909991271
 21
9714.920593959389
 31
0.0
  0
LINE
  5
18D28
330
1871D
100
AcDbEntity
  8
HIKIDASHI
100
AcDbLine
 10
4609.934909991271
 20
9714.920593959389
 30
0.0
 11
4631.274655953438
 21
9657.959069732324
 31
0.0
  0
SOLID
  5
18D29
330
1871D
100
AcDbEntity
  8
HIKIDASHI
100
AcDbTrace
 10
4648.595164029126
 20
9667.959069732328
 30
0.0
 11
4631.274655953438
 21
9657.959069732324
 31
0.0
 12
4609.934909991271
 22
9714.920593959389
 32
0.0
 13
4609.934909991271
 23
9714.920593959389
 33
0.0
  0
LINE
  5
18D2A
330
1871D
100
AcDbEntity
  8
HIKIDASHI
100
AcDbLine
 10
4631.274655953438
 20
9657.959069732324
 30
0.0
 11
4648.595164029126
 21
9667.959069732328
 31
0.0
  0
LINE
  5
18D2B
330
1871D
100
AcDbEntity
  8
HIKIDASHI
100
AcDbLine
 10
5226.103156462373
 20
9077.101295516779
 30
0.0
 11
5024.337560525395
 21
8686.105932498515
 31
0.0
1001
ACAD
1000
DSTYLE
1002
{
1070
   147
1040
1.5
1070
    77
1070
     0
1002
}
  0
LINE
  5
18D2C
330
1871D
100
AcDbEntity
  8
HIKIDASHI
100
AcDbLine
 10
5234.989719284624
 20
9072.515556622532
 30
0.0
 11
5253.61758982785
 21
9130.420672450281
 31
0.0
  0
LINE
  5
18D2D
330
1871D
100
AcDbEntity
  8
HIKIDASHI
100
AcDbLine
 10
5253.61758982785
 20
9130.420672450281
 30
0.0
 11
5217.216593640124
 21
9081.687034411025
 31
0.0
  0
SOLID
  5
18D2E
330
1871D
100
AcDbEntity
  8
HIKIDASHI
100
AcDbTrace
 10
5234.989719284624
 20
9072.515556622532
 30
0.0
 11
5217.216593640124
 21
9081.687034411025
 31
0.0
 12
5253.61758982785
 22
9130.420672450281
 32
0.0
 13
5253.61758982785
 23
9130.420672450281
 33
0.0
  0
LINE
  5
18D2F
330
1871D
100
AcDbEntity
  8
HIKIDASHI
100
AcDbLine
 10
5217.216593640124
 20
9081.687034411025
 30
0.0
 11
5234.989719284624
 21
9072.515556622532
 31
0.0
  0
CIRCLE
  5
18D30
330
1871D
100
AcDbEntity
  8
HATCH
100
AcDbCircle
 10
10004.59833791486
 20
2694.546798568534
 30
0.0
 40
3.75
  0
CIRCLE
  5
18D31
330
1871D
100
AcDbEntity
  8
HATCH
100
AcDbCircle
 10
10154.59833791485
 20
2694.546798568534
 30
0.0
 40
3.75
  0
CIRCLE
  5
18D32
330
1871D
100
AcDbEntity
  8
HATCH
100
AcDbCircle
 10
10304.59833791486
 20
2694.546798568534
 30
0.0
 40
3.75
  0
CIRCLE
  5
18D33
330
1871D
100
AcDbEntity
  8
HATCH
100
AcDbCircle
 10
10454.59833791486
 20
2694.546798568534
 30
0.0
 40
3.75
  0
CIRCLE
  5
18D34
330
1871D
100
AcDbEntity
  8
HATCH
100
AcDbCircle
 10
10604.59833791486
 20
2694.546798568534
 30
0.0
 40
3.75
  0
CIRCLE
  5
18D35
330
1871D
100
AcDbEntity
  8
HATCH
100
AcDbCircle
 10
10754.59833791486
 20
2694.546798568534
 30
0.0
 40
3.75
  0
CIRCLE
  5
18D36
330
1871D
100
AcDbEntity
  8
HATCH
100
AcDbCircle
 10
10904.59833791486
 20
2694.546798568534
 30
0.0
 40
3.75
  0
CIRCLE
  5
18D37
330
1871D
100
AcDbEntity
  8
HATCH
100
AcDbCircle
 10
11054.59833791485
 20
2694.546798568534
 30
0.0
 40
3.75
  0
CIRCLE
  5
18D38
330
1871D
100
AcDbEntity
  8
HATCH
100
AcDbCircle
 10
11204.59833791486
 20
2694.546798568534
 30
0.0
 40
3.75
  0
CIRCLE
  5
18D39
330
1871D
100
AcDbEntity
  8
HATCH
100
AcDbCircle
 10
11354.59833791485
 20
2694.546798568534
 30
0.0
 40
3.75
  0
CIRCLE
  5
18D3A
330
1871D
100
AcDbEntity
  8
HATCH
100
AcDbCircle
 10
11504.59833791485
 20
2694.546798568534
 30
0.0
 40
3.75
  0
CIRCLE
  5
18D3B
330
1871D
100
AcDbEntity
  8
HATCH
100
AcDbCircle
 10
11654.59833791485
 20
2694.546798568534
 30
0.0
 40
3.75
  0
CIRCLE
  5
18D3C
330
1871D
100
AcDbEntity
  8
HATCH
100
AcDbCircle
 10
11804.59833791486
 20
2694.546798568534
 30
0.0
 40
3.75
  0
CIRCLE
  5
18D3D
330
1871D
100
AcDbEntity
  8
HATCH
100
AcDbCircle
 10
11954.59833791486
 20
2694.546798568534
 30
0.0
 40
3.75
  0
CIRCLE
  5
18D3E
330
1871D
100
AcDbEntity
  8
HATCH
100
AcDbCircle
 10
12104.59833791485
 20
2694.546798568534
 30
0.0
 40
3.75
  0
CIRCLE
  5
18D3F
330
1871D
100
AcDbEntity
  8
HATCH
100
AcDbCircle
 10
12254.59833791485
 20
2694.546798568534
 30
0.0
 40
3.75
  0
CIRCLE
  5
18D40
330
1871D
100
AcDbEntity
  8
HATCH
100
AcDbCircle
 10
7192.776772467678
 20
2694.546798568534
 30
0.0
 40
3.75
  0
CIRCLE
  5
18D41
330
1871D
100
AcDbEntity
  8
HATCH
100
AcDbCircle
 10
7042.776772467679
 20
2694.546798568534
 30
0.0
 40
3.75
  0
CIRCLE
  5
18D42
330
1871D
100
AcDbEntity
  8
HATCH
100
AcDbCircle
 10
4342.776772467678
 20
2694.546798568534
 30
0.0
 40
3.75
  0
CIRCLE
  5
18D43
330
1871D
100
AcDbEntity
  8
HATCH
100
AcDbCircle
 10
4192.776772467676
 20
2694.546798568534
 30
0.0
 40
3.75
  0
CIRCLE
  5
18D44
330
1871D
100
AcDbEntity
  8
HATCH
100
AcDbCircle
 10
6892.776772467676
 20
2694.546798568534
 30
0.0
 40
3.75
  0
CIRCLE
  5
18D45
330
1871D
100
AcDbEntity
  8
HATCH
100
AcDbCircle
 10
6742.776772467677
 20
2694.546798568534
 30
0.0
 40
3.75
  0
CIRCLE
  5
18D46
330
1871D
100
AcDbEntity
  8
HATCH
100
AcDbCircle
 10
6592.776772467676
 20
2694.546798568534
 30
0.0
 40
3.75
  0
CIRCLE
  5
18D47
330
1871D
100
AcDbEntity
  8
HATCH
100
AcDbCircle
 10
6442.776772467677
 20
2694.546798568534
 30
0.0
 40
3.75
  0
CIRCLE
  5
18D48
330
1871D
100
AcDbEntity
  8
HATCH
100
AcDbCircle
 10
6292.776772467677
 20
2694.546798568534
 30
0.0
 40
3.75
  0
CIRCLE
  5
18D49
330
1871D
100
AcDbEntity
  8
HATCH
100
AcDbCircle
 10
6142.776772467676
 20
2694.546798568534
 30
0.0
 40
3.75
  0
CIRCLE
  5
18D4A
330
1871D
100
AcDbEntity
  8
HATCH
100
AcDbCircle
 10
5992.776772467677
 20
2694.546798568534
 30
0.0
 40
3.75
  0
CIRCLE
  5
18D4B
330
1871D
100
AcDbEntity
  8
HATCH
100
AcDbCircle
 10
5842.776772467676
 20
2694.546798568534
 30
0.0
 40
3.75
  0
CIRCLE
  5
18D4C
330
1871D
100
AcDbEntity
  8
HATCH
100
AcDbCircle
 10
5692.776772467676
 20
2694.546798568534
 30
0.0
 40
3.75
  0
CIRCLE
  5
18D4D
330
1871D
100
AcDbEntity
  8
HATCH
100
AcDbCircle
 10
5542.776772467676
 20
2694.546798568534
 30
0.0
 40
3.75
  0
CIRCLE
  5
18D4E
330
1871D
100
AcDbEntity
  8
HATCH
100
AcDbCircle
 10
5392.776772467676
 20
2694.546798568534
 30
0.0
 40
3.75
  0
CIRCLE
  5
18D4F
330
1871D
100
AcDbEntity
  8
HATCH
100
AcDbCircle
 10
5242.776772467678
 20
2694.546798568534
 30
0.0
 40
3.75
  0
CIRCLE
  5
18D50
330
1871D
100
AcDbEntity
  8
HATCH
100
AcDbCircle
 10
5092.776772467676
 20
2694.546798568534
 30
0.0
 40
3.75
  0
CIRCLE
  5
18D51
330
1871D
100
AcDbEntity
  8
HATCH
100
AcDbCircle
 10
4942.776772467677
 20
2694.546798568534
 30
0.0
 40
3.75
  0
CIRCLE
  5
18D52
330
1871D
100
AcDbEntity
  8
HATCH
100
AcDbCircle
 10
4792.776772467678
 20
2694.546798568534
 30
0.0
 40
3.75
  0
CIRCLE
  5
18D53
330
1871D
100
AcDbEntity
  8
HATCH
100
AcDbCircle
 10
4642.776772467676
 20
2694.546798568534
 30
0.0
 40
3.75
  0
CIRCLE
  5
18D54
330
1871D
100
AcDbEntity
  8
HATCH
100
AcDbCircle
 10
4492.776772467677
 20
2694.546798568534
 30
0.0
 40
3.75
  0
LINE
  5
18D55
330
1871D
100
AcDbEntity
  8
TATEDOISIJIKANAGU
100
AcDbLine
 10
12209.53894711955
 20
3049.796798568532
 30
0.0
 11
12162.33936343052
 21
3049.796798568532
 31
0.0
  0
LINE
  5
18D56
330
1871D
100
AcDbEntity
  8
TATEDOISIJIKANAGU
100
AcDbLine
 10
12162.33936343052
 20
3049.796798568532
 30
0.0
 11
12162.33936343052
 21
3037.296798568533
 31
0.0
  0
LINE
  5
18D57
330
1871D
100
AcDbEntity
  8
TATEDOISIJIKANAGU
100
AcDbLine
 10
12162.33936343052
 20
3037.296798568533
 30
0.0
 11
12209.53894711955
 21
3037.296798568533
 31
0.0
  0
LINE
  5
18D58
330
1871D
100
AcDbEntity
  8
TATEDOISIJIKANAGU
100
AcDbLine
 10
12209.53894711955
 20
3037.296798568533
 30
0.0
 11
12209.53894711955
 21
3049.796798568532
 31
0.0
  0
LINE
  5
18D59
330
1871D
100
AcDbEntity
  8
TATEDOISIJIKANAGU
100
AcDbLine
 10
12209.53894711955
 20
4047.796798568533
 30
0.0
 11
12162.33936343052
 21
4047.796798568533
 31
0.0
  0
LINE
  5
18D5A
330
1871D
100
AcDbEntity
  8
TATEDOISIJIKANAGU
100
AcDbLine
 10
12162.33936343052
 20
4047.796798568533
 30
0.0
 11
12162.33936343052
 21
4035.296798568532
 31
0.0
  0
LINE
  5
18D5B
330
1871D
100
AcDbEntity
  8
TATEDOISIJIKANAGU
100
AcDbLine
 10
12162.33936343052
 20
4035.296798568532
 30
0.0
 11
12209.53894711955
 21
4035.296798568532
 31
0.0
  0
LINE
  5
18D5C
330
1871D
100
AcDbEntity
  8
TATEDOISIJIKANAGU
100
AcDbLine
 10
12209.53894711955
 20
4035.296798568532
 30
0.0
 11
12209.53894711955
 21
4047.796798568533
 31
0.0
  0
LINE
  5
18D5D
330
1871D
100
AcDbEntity
  8
TATEDOISIJIKANAGU
100
AcDbLine
 10
12356.80068796467
 20
4413.221304384985
 30
0.0
 11
12401.26430788204
 21
4428.452407557259
 31
0.0
  0
LINE
  5
18D5E
330
1871D
100
AcDbEntity
  8
TATEDOISIJIKANAGU
100
AcDbLine
 10
12401.26430788204
 20
4428.452407557259
 30
0.0
 11
12397.05144955778
 21
4440.750855619508
 31
0.0
  0
LINE
  5
18D5F
330
1871D
100
AcDbEntity
  8
TATEDOISIJIKANAGU
100
AcDbLine
 10
12397.05144955778
 20
4440.750855619508
 30
0.0
 11
12352.58782964043
 21
4425.519752447235
 31
0.0
  0
LINE
  5
18D60
330
1871D
100
AcDbEntity
  8
TATEDOISIJIKANAGU
100
AcDbLine
 10
12352.58782964043
 20
4425.519752447235
 30
0.0
 11
12356.80068796467
 21
4413.221304384985
 31
0.0
  0
ARC
  5
18D61
330
1871D
100
AcDbEntity
  8
U2
100
AcDbCircle
 10
10046.61915538143
 20
4843.343830913256
 30
0.0
 40
44.00000000000056
100
AcDbArc
 50
85.91399999999934
 51
265.9139999999992
  0
LINE
  5
18D62
330
1871D
100
AcDbEntity
  8
U2
100
AcDbLine
 10
10049.7543191248
 20
4887.231992737401
 30
0.0
 11
10064.71619247394
 21
4886.163186915799
 31
0.0
  0
ARC
  5
18D63
330
1871D
100
AcDbEntity
  8
U2
100
AcDbCircle
 10
10064.85869991682
 20
4888.15810336235
 30
0.0
 40
1.999999999999559
100
AcDbArc
 50
265.9139999999864
 51
355.9139999999624
  0
LINE
  5
18D64
330
1871D
100
AcDbEntity
  8
U2
100
AcDbLine
 10
10066.85361636337
 20
4888.015595919469
 30
0.0
 11
10067.13863124913
 21
4892.005428812574
 31
0.0
  0
LINE
  5
18D65
330
1871D
100
AcDbEntity
  8
U2
100
AcDbLine
 10
10067.13863124913
 20
4892.005428812574
 30
0.0
 11
10050.18184145344
 21
4893.216742077057
 31
0.0
  0
ARC
  5
18D66
330
1871D
100
AcDbEntity
  8
U2
100
AcDbCircle
 10
10046.61915538143
 20
4843.343830913256
 30
0.0
 40
50.00000000000002
100
AcDbArc
 50
85.91399999999994
 51
265.9139999999998
  0
LINE
  5
18D67
330
1871D
100
AcDbEntity
  8
U2
100
AcDbLine
 10
10043.05646930942
 20
4793.470919749455
 30
0.0
 11
10060.01325910511
 21
4792.259606484973
 31
0.0
  0
LINE
  5
18D68
330
1871D
100
AcDbEntity
  8
U2
100
AcDbLine
 10
10060.01325910511
 20
4792.259606484973
 30
0.0
 11
10060.29827399087
 21
4796.249439378078
 31
0.0
  0
ARC
  5
18D69
330
1871D
100
AcDbEntity
  8
U2
100
AcDbCircle
 10
10058.30335754432
 20
4796.391946820958
 30
0.0
 40
1.999999999998588
100
AcDbArc
 50
355.9140000000106
 51
85.91400000003849
  0
LINE
  5
18D6A
330
1871D
100
AcDbEntity
  8
U2
100
AcDbLine
 10
10058.44586498721
 20
4798.386863267509
 30
0.0
 11
10043.48399163806
 21
4799.455669089112
 31
0.0
  0
ARC
  5
18D6B
330
1871D
100
AcDbEntity
  8
HATCH
100
AcDbCircle
 10
10004.59833791486
 20
2694.546798568534
 30
0.0
 40
1.875
100
AcDbArc
 50
180.0
 51
0.0
  0
ARC
  5
18D6C
330
1871D
100
AcDbEntity
  8
HATCH
100
AcDbCircle
 10
10004.59833791486
 20
2694.546798568534
 30
0.0
 40
1.875
100
AcDbArc
 50
0.0
 51
180.0
  0
LINE
  5
18D6D
330
1871D
100
AcDbEntity
  8
U1
100
AcDbLine
 10
12397.05144955774
 20
4440.750855619473
 30
0.0
 11
12319.0749203739
 21
4422.871792544667
 31
0.0
  0
LINE
  5
18D6E
330
1871D
100
AcDbEntity
  8
U1
100
AcDbLine
 10
12302.15745690125
 20
4438.485870476172
 30
0.0
 11
12390.85575884788
 21
4458.823304723767
 31
0.0
  0
LINE
  5
18D6F
330
1871D
100
AcDbEntity
  8
U1
100
AcDbLine
 10
12400.05632286319
 20
4445.543635232406
 30
0.0
 11
12318.18096722015
 21
4426.770619003859
 31
0.0
  0
ARC
  5
18D70
330
1871D
100
AcDbEntity
  8
U1
100
AcDbCircle
 10
12315.94608433581
 20
4436.517685151839
 30
0.0
 40
13.99999999999136
100
AcDbArc
 50
192.9139999999767
 51
282.9140000000783
  0
ARC
  5
18D71
330
1871D
100
AcDbEntity
  8
U1
100
AcDbCircle
 10
12315.94608433581
 20
4436.517685151839
 30
0.0
 40
9.999999999993827
100
AcDbArc
 50
198.1299085704712
 51
282.9140000000783
  0
CIRCLE
  5
18D72
330
1871D
100
AcDbEntity
  8
U1
100
AcDbCircle
 10
12322.91176546677
 20
4432.985081808458
 30
0.0
 40
1.719999999998936
  0
LINE
  5
18D73
330
1871D
100
AcDbEntity
  8
U1
100
AcDbLine
 10
12303.27489834343
 20
4433.612337402183
 30
0.0
 11
12302.15745690125
 21
4438.485870476172
 31
0.0
  0
LINE
  5
18D74
330
1871D
100
AcDbEntity
  8
U1
100
AcDbLine
 10
12302.30019172864
 20
4433.388849113748
 30
0.0
 11
12305.26870833832
 21
4434.069493613557
 31
0.0
  0
LINE
  5
18D75
330
1871D
100
AcDbEntity
  8
U1
100
AcDbLine
 10
12302.30019172864
 20
4433.388849113748
 30
0.0
 11
12302.30019172864
 21
4433.388849113748
 31
0.0
  0
ARC
  5
18D76
330
1871D
100
AcDbEntity
  8
U1
100
AcDbCircle
 10
12305.49219662676
 20
4433.09478699876
 30
0.0
 40
0.9999999999993828
100
AcDbArc
 50
18.12990857047132
 51
102.9140000000783
  0
LINE
  5
18D77
330
1871D
100
AcDbEntity
  8
U1
100
AcDbLine
 10
12393.25214865435
 20
4457.320868071041
 30
0.0
 11
12396.157496404
 21
4444.649682078667
 31
0.0
  0
CIRCLE
  5
18D78
330
1871D
100
AcDbEntity
  8
U1
100
AcDbCircle
 10
12379.44474912506
 20
4445.947402537695
 30
0.0
 40
1.719999999998936
  0
ARC
  5
18D79
330
1871D
100
AcDbEntity
  8
U1
100
AcDbCircle
 10
12396.157496404
 20
4444.649682078667
 30
0.0
 40
3.99999999999753
100
AcDbArc
 50
282.9140000000783
 51
12.91399999997674
  0
LINE
  5
18D7A
330
1871D
100
AcDbEntity
  8
U1
100
AcDbLine
 10
12397.82249407644
 20
4445.031445651839
 30
0.0
 11
12397.82249407644
 21
4445.031445651839
 31
0.0
  0
ARC
  5
18D7B
330
1871D
100
AcDbEntity
  8
U1
100
AcDbCircle
 10
12391.30273542476
 20
4456.873891494171
 30
0.0
 40
1.999999999998765
100
AcDbArc
 50
12.91399999997674
 51
102.9140000000783
  0
ARC
  5
18D7C
330
1871D
100
AcDbEntity
  8
HATCH
100
AcDbCircle
 10
10154.59833791485
 20
2694.546798568534
 30
0.0
 40
1.875
100
AcDbArc
 50
180.0
 51
0.0
  0
ARC
  5
18D7D
330
1871D
100
AcDbEntity
  8
HATCH
100
AcDbCircle
 10
10154.59833791485
 20
2694.546798568534
 30
0.0
 40
1.875
100
AcDbArc
 50
0.0
 51
180.0
  0
ARC
  5
18D7E
330
1871D
100
AcDbEntity
  8
HATCH
100
AcDbCircle
 10
10304.59833791486
 20
2694.546798568534
 30
0.0
 40
1.875
100
AcDbArc
 50
180.0
 51
0.0
  0
ARC
  5
18D7F
330
1871D
100
AcDbEntity
  8
HATCH
100
AcDbCircle
 10
10304.59833791486
 20
2694.546798568534
 30
0.0
 40
1.875
100
AcDbArc
 50
0.0
 51
180.0
  0
ARC
  5
18D80
330
1871D
100
AcDbEntity
  8
HATCH
100
AcDbCircle
 10
10454.59833791486
 20
2694.546798568534
 30
0.0
 40
1.875
100
AcDbArc
 50
180.0
 51
0.0
  0
ARC
  5
18D81
330
1871D
100
AcDbEntity
  8
HATCH
100
AcDbCircle
 10
10454.59833791486
 20
2694.546798568534
 30
0.0
 40
1.875
100
AcDbArc
 50
0.0
 51
180.0
  0
ARC
  5
18D82
330
1871D
100
AcDbEntity
  8
HATCH
100
AcDbCircle
 10
10604.59833791486
 20
2694.546798568534
 30
0.0
 40
1.875
100
AcDbArc
 50
180.0
 51
0.0
  0
ARC
  5
18D83
330
1871D
100
AcDbEntity
  8
HATCH
100
AcDbCircle
 10
10604.59833791486
 20
2694.546798568534
 30
0.0
 40
1.875
100
AcDbArc
 50
0.0
 51
180.0
  0
ARC
  5
18D84
330
1871D
100
AcDbEntity
  8
HATCH
100
AcDbCircle
 10
10754.59833791486
 20
2694.546798568534
 30
0.0
 40
1.875
100
AcDbArc
 50
180.0
 51
0.0
  0
ARC
  5
18D85
330
1871D
100
AcDbEntity
  8
HATCH
100
AcDbCircle
 10
10754.59833791486
 20
2694.546798568534
 30
0.0
 40
1.875
100
AcDbArc
 50
0.0
 51
180.0
  0
ARC
  5
18D86
330
1871D
100
AcDbEntity
  8
HATCH
100
AcDbCircle
 10
10904.59833791486
 20
2694.546798568534
 30
0.0
 40
1.875
100
AcDbArc
 50
180.0
 51
0.0
  0
ARC
  5
18D87
330
1871D
100
AcDbEntity
  8
HATCH
100
AcDbCircle
 10
10904.59833791486
 20
2694.546798568534
 30
0.0
 40
1.875
100
AcDbArc
 50
0.0
 51
180.0
  0
ARC
  5
18D88
330
1871D
100
AcDbEntity
  8
HATCH
100
AcDbCircle
 10
11054.59833791485
 20
2694.546798568534
 30
0.0
 40
1.875
100
AcDbArc
 50
180.0
 51
0.0
  0
ARC
  5
18D89
330
1871D
100
AcDbEntity
  8
HATCH
100
AcDbCircle
 10
11054.59833791485
 20
2694.546798568534
 30
0.0
 40
1.875
100
AcDbArc
 50
0.0
 51
180.0
  0
ARC
  5
18D8A
330
1871D
100
AcDbEntity
  8
HATCH
100
AcDbCircle
 10
11204.59833791486
 20
2694.546798568534
 30
0.0
 40
1.875
100
AcDbArc
 50
180.0
 51
0.0
  0
ARC
  5
18D8B
330
1871D
100
AcDbEntity
  8
HATCH
100
AcDbCircle
 10
11204.59833791486
 20
2694.546798568534
 30
0.0
 40
1.875
100
AcDbArc
 50
0.0
 51
180.0
  0
ARC
  5
18D8C
330
1871D
100
AcDbEntity
  8
HATCH
100
AcDbCircle
 10
11354.59833791485
 20
2694.546798568534
 30
0.0
 40
1.875
100
AcDbArc
 50
180.0
 51
0.0
  0
ARC
  5
18D8D
330
1871D
100
AcDbEntity
  8
HATCH
100
AcDbCircle
 10
11354.59833791485
 20
2694.546798568534
 30
0.0
 40
1.875
100
AcDbArc
 50
0.0
 51
180.0
  0
ARC
  5
18D8E
330
1871D
100
AcDbEntity
  8
HATCH
100
AcDbCircle
 10
11504.59833791485
 20
2694.546798568534
 30
0.0
 40
1.875
100
AcDbArc
 50
180.0
 51
0.0
  0
ARC
  5
18D8F
330
1871D
100
AcDbEntity
  8
HATCH
100
AcDbCircle
 10
11504.59833791485
 20
2694.546798568534
 30
0.0
 40
1.875
100
AcDbArc
 50
0.0
 51
180.0
  0
ARC
  5
18D90
330
1871D
100
AcDbEntity
  8
HATCH
100
AcDbCircle
 10
11654.59833791485
 20
2694.546798568534
 30
0.0
 40
1.875
100
AcDbArc
 50
180.0
 51
0.0
  0
ARC
  5
18D91
330
1871D
100
AcDbEntity
  8
HATCH
100
AcDbCircle
 10
11654.59833791485
 20
2694.546798568534
 30
0.0
 40
1.875
100
AcDbArc
 50
0.0
 51
180.0
  0
ARC
  5
18D92
330
1871D
100
AcDbEntity
  8
HATCH
100
AcDbCircle
 10
11804.59833791486
 20
2694.546798568534
 30
0.0
 40
1.875
100
AcDbArc
 50
180.0
 51
0.0
  0
ARC
  5
18D93
330
1871D
100
AcDbEntity
  8
HATCH
100
AcDbCircle
 10
11804.59833791486
 20
2694.546798568534
 30
0.0
 40
1.875
100
AcDbArc
 50
0.0
 51
180.0
  0
ARC
  5
18D94
330
1871D
100
AcDbEntity
  8
HATCH
100
AcDbCircle
 10
11954.59833791486
 20
2694.546798568534
 30
0.0
 40
1.875
100
AcDbArc
 50
180.0
 51
0.0
  0
ARC
  5
18D95
330
1871D
100
AcDbEntity
  8
HATCH
100
AcDbCircle
 10
11954.59833791486
 20
2694.546798568534
 30
0.0
 40
1.875
100
AcDbArc
 50
0.0
 51
180.0
  0
ARC
  5
18D96
330
1871D
100
AcDbEntity
  8
HATCH
100
AcDbCircle
 10
12104.59833791485
 20
2694.546798568534
 30
0.0
 40
1.875
100
AcDbArc
 50
180.0
 51
0.0
  0
ARC
  5
18D97
330
1871D
100
AcDbEntity
  8
HATCH
100
AcDbCircle
 10
12104.59833791485
 20
2694.546798568534
 30
0.0
 40
1.875
100
AcDbArc
 50
0.0
 51
180.0
  0
ARC
  5
18D98
330
1871D
100
AcDbEntity
  8
HATCH
100
AcDbCircle
 10
12254.59833791485
 20
2694.546798568534
 30
0.0
 40
1.875
100
AcDbArc
 50
180.0
 51
0.0
  0
ARC
  5
18D99
330
1871D
100
AcDbEntity
  8
HATCH
100
AcDbCircle
 10
12254.59833791485
 20
2694.546798568534
 30
0.0
 40
1.875
100
AcDbArc
 50
0.0
 51
180.0
  0
ARC
  5
18D9A
330
1871D
100
AcDbEntity
  8
HATCH
100
AcDbCircle
 10
7192.776772467678
 20
2694.546798568534
 30
0.0
 40
1.875
100
AcDbArc
 50
180.0
 51
0.0
  0
ARC
  5
18D9B
330
1871D
100
AcDbEntity
  8
HATCH
100
AcDbCircle
 10
7192.776772467678
 20
2694.546798568534
 30
0.0
 40
1.875
100
AcDbArc
 50
0.0
 51
180.0
  0
ARC
  5
18D9C
330
1871D
100
AcDbEntity
  8
HATCH
100
AcDbCircle
 10
7042.776772467679
 20
2694.546798568534
 30
0.0
 40
1.875
100
AcDbArc
 50
180.0
 51
0.0
  0
ARC
  5
18D9D
330
1871D
100
AcDbEntity
  8
HATCH
100
AcDbCircle
 10
7042.776772467679
 20
2694.546798568534
 30
0.0
 40
1.875
100
AcDbArc
 50
0.0
 51
180.0
  0
LINE
  5
18D9E
330
1871D
100
AcDbEntity
  8
U3
100
AcDbLine
 10
5224.367589827849
 20
7975.42067245028
 30
0.0
 11
5282.86758982785
 21
7975.42067245028
 31
0.0
  0
LINE
  5
18D9F
330
1871D
100
AcDbEntity
  8
U3
100
AcDbLine
 10
5282.86758982785
 20
7950.420672450281
 30
0.0
 11
5224.367589827849
 21
7950.420672450281
 31
0.0
  0
LINE
  5
18DA0
330
1871D
100
AcDbEntity
  8
U3
100
AcDbLine
 10
5224.367589827849
 20
7950.420672450281
 30
0.0
 11
5224.367589827849
 21
7975.42067245028
 31
0.0
  0
CIRCLE
  5
18DA1
330
1871D
100
AcDbEntity
  8
U3
100
AcDbCircle
 10
5253.61758982785
 20
7962.920672450279
 30
0.0
 40
8.0
  0
LINE
  5
18DA2
330
1871D
100
AcDbEntity
  8
U3
100
AcDbLine
 10
5240.86758982785
 20
7975.42067245028
 30
0.0
 11
5240.86758982785
 21
7950.420672450281
 31
0.0
  0
LINE
  5
18DA3
330
1871D
100
AcDbEntity
  8
U3
100
AcDbLine
 10
5266.36758982785
 20
7975.42067245028
 30
0.0
 11
5266.36758982785
 21
7950.420672450281
 31
0.0
  0
LINE
  5
18DA4
330
1871D
100
AcDbEntity
  8
U3
100
AcDbLine
 10
5282.86758982785
 20
7975.42067245028
 30
0.0
 11
5282.86758982785
 21
7950.420672450281
 31
0.0
  0
LINE
  5
18DA5
330
1871D
100
AcDbEntity
  8
U3
100
AcDbLine
 10
5224.367589827849
 20
8565.420672450278
 30
0.0
 11
5282.86758982785
 21
8565.420672450278
 31
0.0
  0
LINE
  5
18DA6
330
1871D
100
AcDbEntity
  8
U3
100
AcDbLine
 10
5282.86758982785
 20
8540.420672450279
 30
0.0
 11
5224.367589827849
 21
8540.420672450279
 31
0.0
  0
LINE
  5
18DA7
330
1871D
100
AcDbEntity
  8
U3
100
AcDbLine
 10
5224.367589827849
 20
8540.420672450279
 30
0.0
 11
5224.367589827849
 21
8565.420672450278
 31
0.0
  0
CIRCLE
  5
18DA8
330
1871D
100
AcDbEntity
  8
U3
100
AcDbCircle
 10
5253.61758982785
 20
8552.92067245028
 30
0.0
 40
8.0
  0
LINE
  5
18DA9
330
1871D
100
AcDbEntity
  8
U3
100
AcDbLine
 10
5240.86758982785
 20
8565.420672450278
 30
0.0
 11
5240.86758982785
 21
8540.420672450279
 31
0.0
  0
LINE
  5
18DAA
330
1871D
100
AcDbEntity
  8
U3
100
AcDbLine
 10
5266.36758982785
 20
8565.420672450278
 30
0.0
 11
5266.36758982785
 21
8540.420672450279
 31
0.0
  0
LINE
  5
18DAB
330
1871D
100
AcDbEntity
  8
U3
100
AcDbLine
 10
5282.86758982785
 20
8565.420672450278
 30
0.0
 11
5282.86758982785
 21
8540.420672450279
 31
0.0
  0
LINE
  5
18DAC
330
1871D
100
AcDbEntity
  8
U3
100
AcDbLine
 10
5224.367589827849
 20
9155.420672450281
 30
0.0
 11
5282.86758982785
 21
9155.420672450281
 31
0.0
  0
LINE
  5
18DAD
330
1871D
100
AcDbEntity
  8
U3
100
AcDbLine
 10
5282.86758982785
 20
9130.420672450281
 30
0.0
 11
5224.367589827849
 21
9130.420672450281
 31
0.0
  0
LINE
  5
18DAE
330
1871D
100
AcDbEntity
  8
U3
100
AcDbLine
 10
5224.367589827849
 20
9130.420672450281
 30
0.0
 11
5224.367589827849
 21
9155.420672450281
 31
0.0
  0
CIRCLE
  5
18DAF
330
1871D
100
AcDbEntity
  8
U3
100
AcDbCircle
 10
5253.61758982785
 20
9142.92067245028
 30
0.0
 40
8.0
  0
LINE
  5
18DB0
330
1871D
100
AcDbEntity
  8
U3
100
AcDbLine
 10
5240.86758982785
 20
9155.420672450281
 30
0.0
 11
5240.86758982785
 21
9130.420672450281
 31
0.0
  0
LINE
  5
18DB1
330
1871D
100
AcDbEntity
  8
U3
100
AcDbLine
 10
5266.36758982785
 20
9155.420672450281
 30
0.0
 11
5266.36758982785
 21
9130.420672450281
 31
0.0
  0
LINE
  5
18DB2
330
1871D
100
AcDbEntity
  8
U3
100
AcDbLine
 10
5282.86758982785
 20
9155.420672450281
 30
0.0
 11
5282.86758982785
 21
9130.420672450281
 31
0.0
  0
ARC
  5
18DB3
330
1871D
100
AcDbEntity
  8
HATCH
100
AcDbCircle
 10
4342.776772467678
 20
2694.546798568534
 30
0.0
 40
1.875
100
AcDbArc
 50
180.0
 51
0.0
  0
ARC
  5
18DB4
330
1871D
100
AcDbEntity
  8
HATCH
100
AcDbCircle
 10
4342.776772467678
 20
2694.546798568534
 30
0.0
 40
1.875
100
AcDbArc
 50
0.0
 51
180.0
  0
ARC
  5
18DB5
330
1871D
100
AcDbEntity
  8
HATCH
100
AcDbCircle
 10
4192.776772467676
 20
2694.546798568534
 30
0.0
 40
1.875
100
AcDbArc
 50
180.0
 51
0.0
  0
ARC
  5
18DB6
330
1871D
100
AcDbEntity
  8
HATCH
100
AcDbCircle
 10
4192.776772467676
 20
2694.546798568534
 30
0.0
 40
1.875
100
AcDbArc
 50
0.0
 51
180.0
  0
LINE
  5
18DB7
330
1871D
100
AcDbEntity
  8
HISHIRA
  6
KAKURE-05
100
AcDbLine
 10
4221.117589827851
 20
8380.420617280121
 30
0.0
 11
4286.117589827851
 21
8380.420617280121
 31
0.0
  0
LINE
  5
18DB8
330
1871D
100
AcDbEntity
  8
HISHIRA
  6
KAKURE-05
100
AcDbLine
 10
4286.117589827851
 20
8380.420617280121
 30
0.0
 11
4286.117589827851
 21
8445.42061728012
 31
0.0
  0
LINE
  5
18DB9
330
1871D
100
AcDbEntity
  8
HISHIRA
  6
KAKURE-05
100
AcDbLine
 10
4286.117589827851
 20
8445.42061728012
 30
0.0
 11
4221.117589827851
 21
8445.42061728012
 31
0.0
  0
LINE
  5
18DBA
330
1871D
100
AcDbEntity
  8
HISHIRA
  6
KAKURE-05
100
AcDbLine
 10
4221.117589827851
 20
8445.42061728012
 30
0.0
 11
4221.117589827851
 21
8380.420617280121
 31
0.0
  0
LINE
  5
18DBB
330
1871D
100
AcDbEntity
  8
HISHIRA
  6
KAKURE-05
100
AcDbLine
 10
4221.117589827851
 20
9815.420617280119
 30
0.0
 11
4286.117589827851
 21
9815.420617280119
 31
0.0
  0
LINE
  5
18DBC
330
1871D
100
AcDbEntity
  8
HISHIRA
  6
KAKURE-05
100
AcDbLine
 10
4286.117589827851
 20
9815.420617280119
 30
0.0
 11
4286.117589827851
 21
9880.420617280121
 31
0.0
  0
LINE
  5
18DBD
330
1871D
100
AcDbEntity
  8
HISHIRA
  6
KAKURE-05
100
AcDbLine
 10
4286.117589827851
 20
9880.420617280121
 30
0.0
 11
4221.117589827851
 21
9880.420617280121
 31
0.0
  0
LINE
  5
18DBE
330
1871D
100
AcDbEntity
  8
HISHIRA
  6
KAKURE-05
100
AcDbLine
 10
4221.117589827851
 20
9880.420617280121
 30
0.0
 11
4221.117589827851
 21
9815.420617280119
 31
0.0
  0
LINE
  5
18DBF
330
1871D
100
AcDbEntity
  8
U3
100
AcDbLine
 10
4024.367589827849
 20
7975.42067245028
 30
0.0
 11
4082.867589827849
 21
7975.42067245028
 31
0.0
  0
LINE
  5
18DC0
330
1871D
100
AcDbEntity
  8
U3
100
AcDbLine
 10
4082.867589827849
 20
7950.420672450281
 30
0.0
 11
4024.367589827849
 21
7950.420672450281
 31
0.0
  0
LINE
  5
18DC1
330
1871D
100
AcDbEntity
  8
U3
100
AcDbLine
 10
4024.367589827849
 20
7950.420672450281
 30
0.0
 11
4024.367589827849
 21
7975.42067245028
 31
0.0
  0
CIRCLE
  5
18DC2
330
1871D
100
AcDbEntity
  8
U3
100
AcDbCircle
 10
4053.61758982785
 20
7962.920672450279
 30
0.0
 40
8.0
  0
LINE
  5
18DC3
330
1871D
100
AcDbEntity
  8
U3
100
AcDbLine
 10
4040.86758982785
 20
7975.42067245028
 30
0.0
 11
4040.86758982785
 21
7950.420672450281
 31
0.0
  0
LINE
  5
18DC4
330
1871D
100
AcDbEntity
  8
U3
100
AcDbLine
 10
4066.36758982785
 20
7975.42067245028
 30
0.0
 11
4066.36758982785
 21
7950.420672450281
 31
0.0
  0
LINE
  5
18DC5
330
1871D
100
AcDbEntity
  8
U3
100
AcDbLine
 10
4082.867589827849
 20
7975.42067245028
 30
0.0
 11
4082.867589827849
 21
7950.420672450281
 31
0.0
  0
LINE
  5
18DC6
330
1871D
100
AcDbEntity
  8
U3
100
AcDbLine
 10
4424.367589827851
 20
7975.42067245028
 30
0.0
 11
4482.86758982785
 21
7975.42067245028
 31
0.0
  0
LINE
  5
18DC7
330
1871D
100
AcDbEntity
  8
U3
100
AcDbLine
 10
4482.86758982785
 20
7950.420672450281
 30
0.0
 11
4424.367589827851
 21
7950.420672450281
 31
0.0
  0
LINE
  5
18DC8
330
1871D
100
AcDbEntity
  8
U3
100
AcDbLine
 10
4424.367589827851
 20
7950.420672450281
 30
0.0
 11
4424.367589827851
 21
7975.42067245028
 31
0.0
  0
CIRCLE
  5
18DC9
330
1871D
100
AcDbEntity
  8
U3
100
AcDbCircle
 10
4453.61758982785
 20
7962.920672450279
 30
0.0
 40
8.0
  0
LINE
  5
18DCA
330
1871D
100
AcDbEntity
  8
U3
100
AcDbLine
 10
4440.867589827851
 20
7975.42067245028
 30
0.0
 11
4440.867589827851
 21
7950.420672450281
 31
0.0
  0
LINE
  5
18DCB
330
1871D
100
AcDbEntity
  8
U3
100
AcDbLine
 10
4466.367589827849
 20
7975.42067245028
 30
0.0
 11
4466.367589827849
 21
7950.420672450281
 31
0.0
  0
LINE
  5
18DCC
330
1871D
100
AcDbEntity
  8
U3
100
AcDbLine
 10
4482.86758982785
 20
7975.42067245028
 30
0.0
 11
4482.86758982785
 21
7950.420672450281
 31
0.0
  0
LINE
  5
18DCD
330
1871D
100
AcDbEntity
  8
U3
100
AcDbLine
 10
4824.36758982785
 20
7975.42067245028
 30
0.0
 11
4882.867589827849
 21
7975.42067245028
 31
0.0
  0
LINE
  5
18DCE
330
1871D
100
AcDbEntity
  8
U3
100
AcDbLine
 10
4882.867589827849
 20
7950.420672450281
 30
0.0
 11
4824.36758982785
 21
7950.420672450281
 31
0.0
  0
LINE
  5
18DCF
330
1871D
100
AcDbEntity
  8
U3
100
AcDbLine
 10
4824.36758982785
 20
7950.420672450281
 30
0.0
 11
4824.36758982785
 21
7975.42067245028
 31
0.0
  0
CIRCLE
  5
18DD0
330
1871D
100
AcDbEntity
  8
U3
100
AcDbCircle
 10
4853.61758982785
 20
7962.920672450279
 30
0.0
 40
8.0
  0
LINE
  5
18DD1
330
1871D
100
AcDbEntity
  8
U3
100
AcDbLine
 10
4840.867589827849
 20
7975.42067245028
 30
0.0
 11
4840.867589827849
 21
7950.420672450281
 31
0.0
  0
LINE
  5
18DD2
330
1871D
100
AcDbEntity
  8
U3
100
AcDbLine
 10
4866.36758982785
 20
7975.42067245028
 30
0.0
 11
4866.36758982785
 21
7950.420672450281
 31
0.0
  0
LINE
  5
18DD3
330
1871D
100
AcDbEntity
  8
U3
100
AcDbLine
 10
4882.867589827849
 20
7975.42067245028
 30
0.0
 11
4882.867589827849
 21
7950.420672450281
 31
0.0
  0
LINE
  5
18DD4
330
1871D
100
AcDbEntity
  8
U3
100
AcDbLine
 10
5624.367589827851
 20
7975.42067245028
 30
0.0
 11
5682.86758982785
 21
7975.42067245028
 31
0.0
  0
LINE
  5
18DD5
330
1871D
100
AcDbEntity
  8
U3
100
AcDbLine
 10
5682.86758982785
 20
7950.420672450281
 30
0.0
 11
5624.367589827851
 21
7950.420672450281
 31
0.0
  0
LINE
  5
18DD6
330
1871D
100
AcDbEntity
  8
U3
100
AcDbLine
 10
5624.367589827851
 20
7950.420672450281
 30
0.0
 11
5624.367589827851
 21
7975.42067245028
 31
0.0
  0
CIRCLE
  5
18DD7
330
1871D
100
AcDbEntity
  8
U3
100
AcDbCircle
 10
5653.617589827851
 20
7962.920672450279
 30
0.0
 40
8.0
  0
LINE
  5
18DD8
330
1871D
100
AcDbEntity
  8
U3
100
AcDbLine
 10
5640.867589827848
 20
7975.42067245028
 30
0.0
 11
5640.867589827848
 21
7950.420672450281
 31
0.0
  0
LINE
  5
18DD9
330
1871D
100
AcDbEntity
  8
U3
100
AcDbLine
 10
5666.367589827849
 20
7975.42067245028
 30
0.0
 11
5666.367589827849
 21
7950.420672450281
 31
0.0
  0
LINE
  5
18DDA
330
1871D
100
AcDbEntity
  8
U3
100
AcDbLine
 10
5682.86758982785
 20
7975.42067245028
 30
0.0
 11
5682.86758982785
 21
7950.420672450281
 31
0.0
  0
LINE
  5
18DDB
330
1871D
100
AcDbEntity
  8
U3
100
AcDbLine
 10
6024.367589827851
 20
7975.42067245028
 30
0.0
 11
6082.86758982785
 21
7975.42067245028
 31
0.0
  0
LINE
  5
18DDC
330
1871D
100
AcDbEntity
  8
U3
100
AcDbLine
 10
6082.86758982785
 20
7950.420672450281
 30
0.0
 11
6024.367589827851
 21
7950.420672450281
 31
0.0
  0
LINE
  5
18DDD
330
1871D
100
AcDbEntity
  8
U3
100
AcDbLine
 10
6024.367589827851
 20
7950.420672450281
 30
0.0
 11
6024.367589827851
 21
7975.42067245028
 31
0.0
  0
CIRCLE
  5
18DDE
330
1871D
100
AcDbEntity
  8
U3
100
AcDbCircle
 10
6053.617589827851
 20
7962.920672450279
 30
0.0
 40
8.0
  0
LINE
  5
18DDF
330
1871D
100
AcDbEntity
  8
U3
100
AcDbLine
 10
6040.86758982785
 20
7975.42067245028
 30
0.0
 11
6040.86758982785
 21
7950.420672450281
 31
0.0
  0
LINE
  5
18DE0
330
1871D
100
AcDbEntity
  8
U3
100
AcDbLine
 10
6066.367589827851
 20
7975.42067245028
 30
0.0
 11
6066.367589827851
 21
7950.420672450281
 31
0.0
  0
LINE
  5
18DE1
330
1871D
100
AcDbEntity
  8
U3
100
AcDbLine
 10
6082.86758982785
 20
7975.42067245028
 30
0.0
 11
6082.86758982785
 21
7950.420672450281
 31
0.0
  0
LINE
  5
18DE2
330
1871D
100
AcDbEntity
  8
U3
100
AcDbLine
 10
4024.367589827849
 20
8565.420672450278
 30
0.0
 11
4082.867589827849
 21
8565.420672450278
 31
0.0
  0
LINE
  5
18DE3
330
1871D
100
AcDbEntity
  8
U3
100
AcDbLine
 10
4082.867589827849
 20
8540.420672450279
 30
0.0
 11
4024.367589827849
 21
8540.420672450279
 31
0.0
  0
LINE
  5
18DE4
330
1871D
100
AcDbEntity
  8
U3
100
AcDbLine
 10
4024.367589827849
 20
8540.420672450279
 30
0.0
 11
4024.367589827849
 21
8565.420672450278
 31
0.0
  0
CIRCLE
  5
18DE5
330
1871D
100
AcDbEntity
  8
U3
100
AcDbCircle
 10
4053.61758982785
 20
8552.92067245028
 30
0.0
 40
8.0
  0
LINE
  5
18DE6
330
1871D
100
AcDbEntity
  8
U3
100
AcDbLine
 10
4040.86758982785
 20
8565.420672450278
 30
0.0
 11
4040.86758982785
 21
8540.420672450279
 31
0.0
  0
LINE
  5
18DE7
330
1871D
100
AcDbEntity
  8
U3
100
AcDbLine
 10
4066.36758982785
 20
8565.420672450278
 30
0.0
 11
4066.36758982785
 21
8540.420672450279
 31
0.0
  0
LINE
  5
18DE8
330
1871D
100
AcDbEntity
  8
U3
100
AcDbLine
 10
4082.867589827849
 20
8565.420672450278
 30
0.0
 11
4082.867589827849
 21
8540.420672450279
 31
0.0
  0
LINE
  5
18DE9
330
1871D
100
AcDbEntity
  8
U3
100
AcDbLine
 10
4424.367589827851
 20
8565.420672450278
 30
0.0
 11
4482.86758982785
 21
8565.420672450278
 31
0.0
  0
LINE
  5
18DEA
330
1871D
100
AcDbEntity
  8
U3
100
AcDbLine
 10
4482.86758982785
 20
8540.420672450279
 30
0.0
 11
4424.367589827851
 21
8540.420672450279
 31
0.0
  0
LINE
  5
18DEB
330
1871D
100
AcDbEntity
  8
U3
100
AcDbLine
 10
4424.367589827851
 20
8540.420672450279
 30
0.0
 11
4424.367589827851
 21
8565.420672450278
 31
0.0
  0
CIRCLE
  5
18DEC
330
1871D
100
AcDbEntity
  8
U3
100
AcDbCircle
 10
4453.61758982785
 20
8552.92067245028
 30
0.0
 40
8.0
  0
LINE
  5
18DED
330
1871D
100
AcDbEntity
  8
U3
100
AcDbLine
 10
4440.867589827851
 20
8565.420672450278
 30
0.0
 11
4440.867589827851
 21
8540.420672450279
 31
0.0
  0
LINE
  5
18DEE
330
1871D
100
AcDbEntity
  8
U3
100
AcDbLine
 10
4466.367589827849
 20
8565.420672450278
 30
0.0
 11
4466.367589827849
 21
8540.420672450279
 31
0.0
  0
LINE
  5
18DEF
330
1871D
100
AcDbEntity
  8
U3
100
AcDbLine
 10
4482.86758982785
 20
8565.420672450278
 30
0.0
 11
4482.86758982785
 21
8540.420672450279
 31
0.0
  0
LINE
  5
18DF0
330
1871D
100
AcDbEntity
  8
U3
100
AcDbLine
 10
4824.36758982785
 20
8565.420672450278
 30
0.0
 11
4882.867589827849
 21
8565.420672450278
 31
0.0
  0
LINE
  5
18DF1
330
1871D
100
AcDbEntity
  8
U3
100
AcDbLine
 10
4882.867589827849
 20
8540.420672450279
 30
0.0
 11
4824.36758982785
 21
8540.420672450279
 31
0.0
  0
LINE
  5
18DF2
330
1871D
100
AcDbEntity
  8
U3
100
AcDbLine
 10
4824.36758982785
 20
8540.420672450279
 30
0.0
 11
4824.36758982785
 21
8565.420672450278
 31
0.0
  0
CIRCLE
  5
18DF3
330
1871D
100
AcDbEntity
  8
U3
100
AcDbCircle
 10
4853.61758982785
 20
8552.92067245028
 30
0.0
 40
8.0
  0
LINE
  5
18DF4
330
1871D
100
AcDbEntity
  8
U3
100
AcDbLine
 10
4840.867589827849
 20
8565.420672450278
 30
0.0
 11
4840.867589827849
 21
8540.420672450279
 31
0.0
  0
LINE
  5
18DF5
330
1871D
100
AcDbEntity
  8
U3
100
AcDbLine
 10
4866.36758982785
 20
8565.420672450278
 30
0.0
 11
4866.36758982785
 21
8540.420672450279
 31
0.0
  0
LINE
  5
18DF6
330
1871D
100
AcDbEntity
  8
U3
100
AcDbLine
 10
4882.867589827849
 20
8565.420672450278
 30
0.0
 11
4882.867589827849
 21
8540.420672450279
 31
0.0
  0
LINE
  5
18DF7
330
1871D
100
AcDbEntity
  8
U3
100
AcDbLine
 10
5624.367589827851
 20
8565.420672450278
 30
0.0
 11
5682.86758982785
 21
8565.420672450278
 31
0.0
  0
LINE
  5
18DF8
330
1871D
100
AcDbEntity
  8
U3
100
AcDbLine
 10
5682.86758982785
 20
8540.420672450279
 30
0.0
 11
5624.367589827851
 21
8540.420672450279
 31
0.0
  0
LINE
  5
18DF9
330
1871D
100
AcDbEntity
  8
U3
100
AcDbLine
 10
5624.367589827851
 20
8540.420672450279
 30
0.0
 11
5624.367589827851
 21
8565.420672450278
 31
0.0
  0
CIRCLE
  5
18DFA
330
1871D
100
AcDbEntity
  8
U3
100
AcDbCircle
 10
5653.617589827851
 20
8552.92067245028
 30
0.0
 40
8.0
  0
LINE
  5
18DFB
330
1871D
100
AcDbEntity
  8
U3
100
AcDbLine
 10
5640.867589827848
 20
8565.420672450278
 30
0.0
 11
5640.867589827848
 21
8540.420672450279
 31
0.0
  0
LINE
  5
18DFC
330
1871D
100
AcDbEntity
  8
U3
100
AcDbLine
 10
5666.367589827849
 20
8565.420672450278
 30
0.0
 11
5666.367589827849
 21
8540.420672450279
 31
0.0
  0
LINE
  5
18DFD
330
1871D
100
AcDbEntity
  8
U3
100
AcDbLine
 10
5682.86758982785
 20
8565.420672450278
 30
0.0
 11
5682.86758982785
 21
8540.420672450279
 31
0.0
  0
LINE
  5
18DFE
330
1871D
100
AcDbEntity
  8
U3
100
AcDbLine
 10
4024.367589827849
 20
9155.420672450281
 30
0.0
 11
4082.867589827849
 21
9155.420672450281
 31
0.0
  0
LINE
  5
18DFF
330
1871D
100
AcDbEntity
  8
U3
100
AcDbLine
 10
4082.867589827849
 20
9130.420672450281
 30
0.0
 11
4024.367589827849
 21
9130.420672450281
 31
0.0
  0
LINE
  5
18E00
330
1871D
100
AcDbEntity
  8
U3
100
AcDbLine
 10
4024.367589827849
 20
9130.420672450281
 30
0.0
 11
4024.367589827849
 21
9155.420672450281
 31
0.0
  0
CIRCLE
  5
18E01
330
1871D
100
AcDbEntity
  8
U3
100
AcDbCircle
 10
4053.61758982785
 20
9142.92067245028
 30
0.0
 40
8.0
  0
LINE
  5
18E02
330
1871D
100
AcDbEntity
  8
U3
100
AcDbLine
 10
4040.86758982785
 20
9155.420672450281
 30
0.0
 11
4040.86758982785
 21
9130.420672450281
 31
0.0
  0
LINE
  5
18E03
330
1871D
100
AcDbEntity
  8
U3
100
AcDbLine
 10
4066.36758982785
 20
9155.420672450281
 30
0.0
 11
4066.36758982785
 21
9130.420672450281
 31
0.0
  0
LINE
  5
18E04
330
1871D
100
AcDbEntity
  8
U3
100
AcDbLine
 10
4082.867589827849
 20
9155.420672450281
 30
0.0
 11
4082.867589827849
 21
9130.420672450281
 31
0.0
  0
LINE
  5
18E05
330
1871D
100
AcDbEntity
  8
U3
100
AcDbLine
 10
4424.367589827851
 20
9155.420672450281
 30
0.0
 11
4482.86758982785
 21
9155.420672450281
 31
0.0
  0
LINE
  5
18E06
330
1871D
100
AcDbEntity
  8
U3
100
AcDbLine
 10
4482.86758982785
 20
9130.420672450281
 30
0.0
 11
4424.367589827851
 21
9130.420672450281
 31
0.0
  0
LINE
  5
18E07
330
1871D
100
AcDbEntity
  8
U3
100
AcDbLine
 10
4424.367589827851
 20
9130.420672450281
 30
0.0
 11
4424.367589827851
 21
9155.420672450281
 31
0.0
  0
CIRCLE
  5
18E08
330
1871D
100
AcDbEntity
  8
U3
100
AcDbCircle
 10
4453.61758982785
 20
9142.92067245028
 30
0.0
 40
8.0
  0
LINE
  5
18E09
330
1871D
100
AcDbEntity
  8
U3
100
AcDbLine
 10
4440.867589827851
 20
9155.420672450281
 30
0.0
 11
4440.867589827851
 21
9130.420672450281
 31
0.0
  0
LINE
  5
18E0A
330
1871D
100
AcDbEntity
  8
U3
100
AcDbLine
 10
4466.367589827849
 20
9155.420672450281
 30
0.0
 11
4466.367589827849
 21
9130.420672450281
 31
0.0
  0
LINE
  5
18E0B
330
1871D
100
AcDbEntity
  8
U3
100
AcDbLine
 10
4482.86758982785
 20
9155.420672450281
 30
0.0
 11
4482.86758982785
 21
9130.420672450281
 31
0.0
  0
LINE
  5
18E0C
330
1871D
100
AcDbEntity
  8
U3
100
AcDbLine
 10
4824.36758982785
 20
9155.420672450281
 30
0.0
 11
4882.867589827849
 21
9155.420672450281
 31
0.0
  0
LINE
  5
18E0D
330
1871D
100
AcDbEntity
  8
U3
100
AcDbLine
 10
4882.867589827849
 20
9130.420672450281
 30
0.0
 11
4824.36758982785
 21
9130.420672450281
 31
0.0
  0
LINE
  5
18E0E
330
1871D
100
AcDbEntity
  8
U3
100
AcDbLine
 10
4824.36758982785
 20
9130.420672450281
 30
0.0
 11
4824.36758982785
 21
9155.420672450281
 31
0.0
  0
CIRCLE
  5
18E0F
330
1871D
100
AcDbEntity
  8
U3
100
AcDbCircle
 10
4853.61758982785
 20
9142.92067245028
 30
0.0
 40
8.0
  0
LINE
  5
18E10
330
1871D
100
AcDbEntity
  8
U3
100
AcDbLine
 10
4840.867589827849
 20
9155.420672450281
 30
0.0
 11
4840.867589827849
 21
9130.420672450281
 31
0.0
  0
LINE
  5
18E11
330
1871D
100
AcDbEntity
  8
U3
100
AcDbLine
 10
4866.36758982785
 20
9155.420672450281
 30
0.0
 11
4866.36758982785
 21
9130.420672450281
 31
0.0
  0
LINE
  5
18E12
330
1871D
100
AcDbEntity
  8
U3
100
AcDbLine
 10
4882.867589827849
 20
9155.420672450281
 30
0.0
 11
4882.867589827849
 21
9130.420672450281
 31
0.0
  0
LINE
  5
18E13
330
1871D
100
AcDbEntity
  8
U3
100
AcDbLine
 10
5624.367589827851
 20
9155.420672450281
 30
0.0
 11
5682.86758982785
 21
9155.420672450281
 31
0.0
  0
LINE
  5
18E14
330
1871D
100
AcDbEntity
  8
U3
100
AcDbLine
 10
5682.86758982785
 20
9130.420672450281
 30
0.0
 11
5624.367589827851
 21
9130.420672450281
 31
0.0
  0
LINE
  5
18E15
330
1871D
100
AcDbEntity
  8
U3
100
AcDbLine
 10
5624.367589827851
 20
9130.420672450281
 30
0.0
 11
5624.367589827851
 21
9155.420672450281
 31
0.0
  0
CIRCLE
  5
18E16
330
1871D
100
AcDbEntity
  8
U3
100
AcDbCircle
 10
5653.617589827851
 20
9142.92067245028
 30
0.0
 40
8.0
  0
LINE
  5
18E17
330
1871D
100
AcDbEntity
  8
U3
100
AcDbLine
 10
5640.867589827848
 20
9155.420672450281
 30
0.0
 11
5640.867589827848
 21
9130.420672450281
 31
0.0
  0
LINE
  5
18E18
330
1871D
100
AcDbEntity
  8
U3
100
AcDbLine
 10
5666.367589827849
 20
9155.420672450281
 30
0.0
 11
5666.367589827849
 21
9130.420672450281
 31
0.0
  0
LINE
  5
18E19
330
1871D
100
AcDbEntity
  8
U3
100
AcDbLine
 10
5682.86758982785
 20
9155.420672450281
 30
0.0
 11
5682.86758982785
 21
9130.420672450281
 31
0.0
  0
LINE
  5
18E1A
330
1871D
100
AcDbEntity
  8
U3
100
AcDbLine
 10
4024.367589827849
 20
9745.420672450279
 30
0.0
 11
4082.867589827849
 21
9745.420672450279
 31
0.0
  0
LINE
  5
18E1B
330
1871D
100
AcDbEntity
  8
U3
100
AcDbLine
 10
4082.867589827849
 20
9720.420672450279
 30
0.0
 11
4024.367589827849
 21
9720.420672450279
 31
0.0
  0
LINE
  5
18E1C
330
1871D
100
AcDbEntity
  8
U3
100
AcDbLine
 10
4024.367589827849
 20
9720.420672450279
 30
0.0
 11
4024.367589827849
 21
9745.420672450279
 31
0.0
  0
CIRCLE
  5
18E1D
330
1871D
100
AcDbEntity
  8
U3
100
AcDbCircle
 10
4053.61758982785
 20
9732.920672450278
 30
0.0
 40
8.0
  0
LINE
  5
18E1E
330
1871D
100
AcDbEntity
  8
U3
100
AcDbLine
 10
4040.86758982785
 20
9745.420672450279
 30
0.0
 11
4040.86758982785
 21
9720.420672450279
 31
0.0
  0
LINE
  5
18E1F
330
1871D
100
AcDbEntity
  8
U3
100
AcDbLine
 10
4066.36758982785
 20
9745.420672450279
 30
0.0
 11
4066.36758982785
 21
9720.420672450279
 31
0.0
  0
LINE
  5
18E20
330
1871D
100
AcDbEntity
  8
U3
100
AcDbLine
 10
4082.867589827849
 20
9745.420672450279
 30
0.0
 11
4082.867589827849
 21
9720.420672450279
 31
0.0
  0
LINE
  5
18E21
330
1871D
100
AcDbEntity
  8
U3
100
AcDbLine
 10
4424.367589827851
 20
9745.420672450279
 30
0.0
 11
4482.86758982785
 21
9745.420672450279
 31
0.0
  0
LINE
  5
18E22
330
1871D
100
AcDbEntity
  8
U3
100
AcDbLine
 10
4482.86758982785
 20
9720.420672450279
 30
0.0
 11
4424.367589827851
 21
9720.420672450279
 31
0.0
  0
LINE
  5
18E23
330
1871D
100
AcDbEntity
  8
U3
100
AcDbLine
 10
4424.367589827851
 20
9720.420672450279
 30
0.0
 11
4424.367589827851
 21
9745.420672450279
 31
0.0
  0
CIRCLE
  5
18E24
330
1871D
100
AcDbEntity
  8
U3
100
AcDbCircle
 10
4453.61758982785
 20
9732.920672450278
 30
0.0
 40
8.0
  0
LINE
  5
18E25
330
1871D
100
AcDbEntity
  8
U3
100
AcDbLine
 10
4440.867589827851
 20
9745.420672450279
 30
0.0
 11
4440.867589827851
 21
9720.420672450279
 31
0.0
  0
LINE
  5
18E26
330
1871D
100
AcDbEntity
  8
U3
100
AcDbLine
 10
4466.367589827849
 20
9745.420672450279
 30
0.0
 11
4466.367589827849
 21
9720.420672450279
 31
0.0
  0
LINE
  5
18E27
330
1871D
100
AcDbEntity
  8
U3
100
AcDbLine
 10
4482.86758982785
 20
9745.420672450279
 30
0.0
 11
4482.86758982785
 21
9720.420672450279
 31
0.0
  0
LINE
  5
18E28
330
1871D
100
AcDbEntity
  8
U3
100
AcDbLine
 10
4824.36758982785
 20
9745.420672450279
 30
0.0
 11
4882.867589827849
 21
9745.420672450279
 31
0.0
  0
LINE
  5
18E29
330
1871D
100
AcDbEntity
  8
U3
100
AcDbLine
 10
4882.867589827849
 20
9720.420672450279
 30
0.0
 11
4824.36758982785
 21
9720.420672450279
 31
0.0
  0
LINE
  5
18E2A
330
1871D
100
AcDbEntity
  8
U3
100
AcDbLine
 10
4824.36758982785
 20
9720.420672450279
 30
0.0
 11
4824.36758982785
 21
9745.420672450279
 31
0.0
  0
CIRCLE
  5
18E2B
330
1871D
100
AcDbEntity
  8
U3
100
AcDbCircle
 10
4853.61758982785
 20
9732.920672450278
 30
0.0
 40
8.0
  0
LINE
  5
18E2C
330
1871D
100
AcDbEntity
  8
U3
100
AcDbLine
 10
4840.867589827849
 20
9745.420672450279
 30
0.0
 11
4840.867589827849
 21
9720.420672450279
 31
0.0
  0
LINE
  5
18E2D
330
1871D
100
AcDbEntity
  8
U3
100
AcDbLine
 10
4866.36758982785
 20
9745.420672450279
 30
0.0
 11
4866.36758982785
 21
9720.420672450279
 31
0.0
  0
LINE
  5
18E2E
330
1871D
100
AcDbEntity
  8
U3
100
AcDbLine
 10
4882.867589827849
 20
9745.420672450279
 30
0.0
 11
4882.867589827849
 21
9720.420672450279
 31
0.0
  0
LINE
  5
18E2F
330
1871D
100
AcDbEntity
  8
U3
100
AcDbLine
 10
5224.367589827849
 20
9745.420672450279
 30
0.0
 11
5282.86758982785
 21
9745.420672450279
 31
0.0
  0
LINE
  5
18E30
330
1871D
100
AcDbEntity
  8
U3
100
AcDbLine
 10
5282.86758982785
 20
9720.420672450279
 30
0.0
 11
5224.367589827849
 21
9720.420672450279
 31
0.0
  0
LINE
  5
18E31
330
1871D
100
AcDbEntity
  8
U3
100
AcDbLine
 10
5224.367589827849
 20
9720.420672450279
 30
0.0
 11
5224.367589827849
 21
9745.420672450279
 31
0.0
  0
CIRCLE
  5
18E32
330
1871D
100
AcDbEntity
  8
U3
100
AcDbCircle
 10
5253.61758982785
 20
9732.920672450278
 30
0.0
 40
8.0
  0
LINE
  5
18E33
330
1871D
100
AcDbEntity
  8
U3
100
AcDbLine
 10
5240.86758982785
 20
9745.420672450279
 30
0.0
 11
5240.86758982785
 21
9720.420672450279
 31
0.0
  0
LINE
  5
18E34
330
1871D
100
AcDbEntity
  8
U3
100
AcDbLine
 10
5266.36758982785
 20
9745.420672450279
 30
0.0
 11
5266.36758982785
 21
9720.420672450279
 31
0.0
  0
LINE
  5
18E35
330
1871D
100
AcDbEntity
  8
U3
100
AcDbLine
 10
5282.86758982785
 20
9745.420672450279
 30
0.0
 11
5282.86758982785
 21
9720.420672450279
 31
0.0
  0
ARC
  5
18E36
330
1871D
100
AcDbEntity
  8
HATCH
100
AcDbCircle
 10
6892.776772467676
 20
2694.546798568534
 30
0.0
 40
1.875
100
AcDbArc
 50
180.0
 51
0.0
  0
ARC
  5
18E37
330
1871D
100
AcDbEntity
  8
HATCH
100
AcDbCircle
 10
6892.776772467676
 20
2694.546798568534
 30
0.0
 40
1.875
100
AcDbArc
 50
0.0
 51
180.0
  0
ARC
  5
18E38
330
1871D
100
AcDbEntity
  8
HATCH
100
AcDbCircle
 10
6742.776772467677
 20
2694.546798568534
 30
0.0
 40
1.875
100
AcDbArc
 50
180.0
 51
0.0
  0
ARC
  5
18E39
330
1871D
100
AcDbEntity
  8
HATCH
100
AcDbCircle
 10
6742.776772467677
 20
2694.546798568534
 30
0.0
 40
1.875
100
AcDbArc
 50
0.0
 51
180.0
  0
ARC
  5
18E3A
330
1871D
100
AcDbEntity
  8
HATCH
100
AcDbCircle
 10
6592.776772467676
 20
2694.546798568534
 30
0.0
 40
1.875
100
AcDbArc
 50
180.0
 51
0.0
  0
ARC
  5
18E3B
330
1871D
100
AcDbEntity
  8
HATCH
100
AcDbCircle
 10
6592.776772467676
 20
2694.546798568534
 30
0.0
 40
1.875
100
AcDbArc
 50
0.0
 51
180.0
  0
ARC
  5
18E3C
330
1871D
100
AcDbEntity
  8
HATCH
100
AcDbCircle
 10
6442.776772467677
 20
2694.546798568534
 30
0.0
 40
1.875
100
AcDbArc
 50
180.0
 51
0.0
  0
ARC
  5
18E3D
330
1871D
100
AcDbEntity
  8
HATCH
100
AcDbCircle
 10
6442.776772467677
 20
2694.546798568534
 30
0.0
 40
1.875
100
AcDbArc
 50
0.0
 51
180.0
  0
ARC
  5
18E3E
330
1871D
100
AcDbEntity
  8
HATCH
100
AcDbCircle
 10
6292.776772467677
 20
2694.546798568534
 30
0.0
 40
1.875
100
AcDbArc
 50
180.0
 51
0.0
  0
ARC
  5
18E3F
330
1871D
100
AcDbEntity
  8
HATCH
100
AcDbCircle
 10
6292.776772467677
 20
2694.546798568534
 30
0.0
 40
1.875
100
AcDbArc
 50
0.0
 51
180.0
  0
ARC
  5
18E40
330
1871D
100
AcDbEntity
  8
HATCH
100
AcDbCircle
 10
6142.776772467676
 20
2694.546798568534
 30
0.0
 40
1.875
100
AcDbArc
 50
180.0
 51
0.0
  0
ARC
  5
18E41
330
1871D
100
AcDbEntity
  8
HATCH
100
AcDbCircle
 10
6142.776772467676
 20
2694.546798568534
 30
0.0
 40
1.875
100
AcDbArc
 50
0.0
 51
180.0
  0
ARC
  5
18E42
330
1871D
100
AcDbEntity
  8
HATCH
100
AcDbCircle
 10
5992.776772467677
 20
2694.546798568534
 30
0.0
 40
1.875
100
AcDbArc
 50
180.0
 51
0.0
  0
ARC
  5
18E43
330
1871D
100
AcDbEntity
  8
HATCH
100
AcDbCircle
 10
5992.776772467677
 20
2694.546798568534
 30
0.0
 40
1.875
100
AcDbArc
 50
0.0
 51
180.0
  0
ARC
  5
18E44
330
1871D
100
AcDbEntity
  8
HATCH
100
AcDbCircle
 10
5842.776772467676
 20
2694.546798568534
 30
0.0
 40
1.875
100
AcDbArc
 50
180.0
 51
0.0
  0
ARC
  5
18E45
330
1871D
100
AcDbEntity
  8
HATCH
100
AcDbCircle
 10
5842.776772467676
 20
2694.546798568534
 30
0.0
 40
1.875
100
AcDbArc
 50
0.0
 51
180.0
  0
ARC
  5
18E46
330
1871D
100
AcDbEntity
  8
HATCH
100
AcDbCircle
 10
5692.776772467676
 20
2694.546798568534
 30
0.0
 40
1.875
100
AcDbArc
 50
180.0
 51
0.0
  0
ARC
  5
18E47
330
1871D
100
AcDbEntity
  8
HATCH
100
AcDbCircle
 10
5692.776772467676
 20
2694.546798568534
 30
0.0
 40
1.875
100
AcDbArc
 50
0.0
 51
180.0
  0
ARC
  5
18E48
330
1871D
100
AcDbEntity
  8
HATCH
100
AcDbCircle
 10
5542.776772467676
 20
2694.546798568534
 30
0.0
 40
1.875
100
AcDbArc
 50
180.0
 51
0.0
  0
ARC
  5
18E49
330
1871D
100
AcDbEntity
  8
HATCH
100
AcDbCircle
 10
5542.776772467676
 20
2694.546798568534
 30
0.0
 40
1.875
100
AcDbArc
 50
0.0
 51
180.0
  0
ARC
  5
18E4A
330
1871D
100
AcDbEntity
  8
HATCH
100
AcDbCircle
 10
5392.776772467676
 20
2694.546798568534
 30
0.0
 40
1.875
100
AcDbArc
 50
180.0
 51
0.0
  0
ARC
  5
18E4B
330
1871D
100
AcDbEntity
  8
HATCH
100
AcDbCircle
 10
5392.776772467676
 20
2694.546798568534
 30
0.0
 40
1.875
100
AcDbArc
 50
0.0
 51
180.0
  0
ARC
  5
18E4C
330
1871D
100
AcDbEntity
  8
HATCH
100
AcDbCircle
 10
5242.776772467678
 20
2694.546798568534
 30
0.0
 40
1.875
100
AcDbArc
 50
180.0
 51
0.0
  0
ARC
  5
18E4D
330
1871D
100
AcDbEntity
  8
HATCH
100
AcDbCircle
 10
5242.776772467678
 20
2694.546798568534
 30
0.0
 40
1.875
100
AcDbArc
 50
0.0
 51
180.0
  0
ARC
  5
18E4E
330
1871D
100
AcDbEntity
  8
HATCH
100
AcDbCircle
 10
5092.776772467676
 20
2694.546798568534
 30
0.0
 40
1.875
100
AcDbArc
 50
180.0
 51
0.0
  0
ARC
  5
18E4F
330
1871D
100
AcDbEntity
  8
HATCH
100
AcDbCircle
 10
5092.776772467676
 20
2694.546798568534
 30
0.0
 40
1.875
100
AcDbArc
 50
0.0
 51
180.0
  0
ARC
  5
18E50
330
1871D
100
AcDbEntity
  8
HATCH
100
AcDbCircle
 10
4942.776772467677
 20
2694.546798568534
 30
0.0
 40
1.875
100
AcDbArc
 50
180.0
 51
0.0
  0
ARC
  5
18E51
330
1871D
100
AcDbEntity
  8
HATCH
100
AcDbCircle
 10
4942.776772467677
 20
2694.546798568534
 30
0.0
 40
1.875
100
AcDbArc
 50
0.0
 51
180.0
  0
ARC
  5
18E52
330
1871D
100
AcDbEntity
  8
HATCH
100
AcDbCircle
 10
4792.776772467678
 20
2694.546798568534
 30
0.0
 40
1.875
100
AcDbArc
 50
180.0
 51
0.0
  0
ARC
  5
18E53
330
1871D
100
AcDbEntity
  8
HATCH
100
AcDbCircle
 10
4792.776772467678
 20
2694.546798568534
 30
0.0
 40
1.875
100
AcDbArc
 50
0.0
 51
180.0
  0
ARC
  5
18E54
330
1871D
100
AcDbEntity
  8
HATCH
100
AcDbCircle
 10
4642.776772467676
 20
2694.546798568534
 30
0.0
 40
1.875
100
AcDbArc
 50
180.0
 51
0.0
  0
ARC
  5
18E55
330
1871D
100
AcDbEntity
  8
HATCH
100
AcDbCircle
 10
4642.776772467676
 20
2694.546798568534
 30
0.0
 40
1.875
100
AcDbArc
 50
0.0
 51
180.0
  0
ARC
  5
18E56
330
1871D
100
AcDbEntity
  8
HATCH
100
AcDbCircle
 10
4492.776772467677
 20
2694.546798568534
 30
0.0
 40
1.875
100
AcDbArc
 50
180.0
 51
0.0
  0
ARC
  5
18E57
330
1871D
100
AcDbEntity
  8
HATCH
100
AcDbCircle
 10
4492.776772467677
 20
2694.546798568534
 30
0.0
 40
1.875
100
AcDbArc
 50
0.0
 51
180.0
  0
LINE
  5
18E58
330
1871D
100
AcDbEntity
  8
U2
100
AcDbLine
 10
7021.117589827851
 20
4717.748876394193
 30
0.0
 11
7086.11758982784
 21
4717.748876394193
 31
0.0
  0
LINE
  5
18E59
330
1871D
100
AcDbEntity
  8
U2
100
AcDbLine
 10
7086.11758982784
 20
4717.748876394193
 30
0.0
 11
7086.11758982784
 21
4790.464181683073
 31
0.0
  0
LINE
  5
18E5A
330
1871D
100
AcDbEntity
  8
U2
100
AcDbLine
 10
7021.117589827857
 20
4790.464181683073
 30
0.0
 11
7021.117589827851
 21
4717.748876394193
 31
0.0
  0
LINE
  5
18E5B
330
1871D
100
AcDbEntity
  8
U2
100
AcDbLine
 10
4221.117589827852
 20
4790.464181683073
 30
0.0
 11
4221.11758982785
 21
4717.748876394193
 31
0.0
  0
LINE
  5
18E5C
330
1871D
100
AcDbEntity
  8
U2
100
AcDbLine
 10
4221.11758982785
 20
4717.748876394193
 30
0.0
 11
4286.117589827848
 21
4717.748876394193
 31
0.0
  0
LINE
  5
18E5D
330
1871D
100
AcDbEntity
  8
U2
100
AcDbLine
 10
4286.117589827848
 20
4717.748876394193
 30
0.0
 11
4286.117589827848
 21
4790.464181683073
 31
0.0
  0
LINE
  5
18E5E
330
1871D
100
AcDbEntity
  8
KERABA
100
AcDbLine
 10
7283.617589827841
 20
4892.54679856853
 30
0.0
 11
7289.617589827841
 21
4892.54679856853
 31
0.0
  0
LINE
  5
18E5F
330
1871D
100
AcDbEntity
  8
KERABA
100
AcDbLine
 10
7289.617589827841
 20
4892.54679856853
 30
0.0
 11
7289.617589827841
 21
4430.639798840869
 31
0.0
  0
LINE
  5
18E60
330
1871D
100
AcDbEntity
  8
KERABA
100
AcDbLine
 10
7289.617589827841
 20
4430.639798840869
 30
0.0
 11
7283.617589827841
 21
4430.639798840869
 31
0.0
  0
LINE
  5
18E61
330
1871D
100
AcDbEntity
  8
KERABA
100
AcDbLine
 10
7283.617589827841
 20
4430.639798840869
 30
0.0
 11
7283.617589827841
 21
4892.54679856853
 31
0.0
  0
LINE
  5
18E62
330
1871D
100
AcDbEntity
  8
KERABA
100
AcDbLine
 10
4023.617589827853
 20
4892.546798568533
 30
0.0
 11
4017.617589827852
 21
4892.546798568533
 31
0.0
  0
LINE
  5
18E63
330
1871D
100
AcDbEntity
  8
KERABA
100
AcDbLine
 10
4017.617589827852
 20
4892.546798568533
 30
0.0
 11
4017.617589827852
 21
4430.63979884087
 31
0.0
  0
LINE
  5
18E64
330
1871D
100
AcDbEntity
  8
KERABA
100
AcDbLine
 10
4017.617589827852
 20
4430.63979884087
 30
0.0
 11
4023.617589827853
 21
4430.63979884087
 31
0.0
  0
LINE
  5
18E65
330
1871D
100
AcDbEntity
  8
KERABA
100
AcDbLine
 10
4023.617589827853
 20
4430.63979884087
 30
0.0
 11
4023.617589827853
 21
4892.546798568533
 31
0.0
  0
LINE
  5
18E66
330
1871D
100
AcDbEntity
  8
TATEDOISIJIKANAGU
100
AcDbLine
 10
4366.067589827848
 20
4428.63979884087
 30
0.0
 11
4348.567589827848
 21
4428.63979884087
 31
0.0
  0
LINE
  5
18E67
330
1871D
100
AcDbEntity
  8
TATEDOISIJIKANAGU
100
AcDbLine
 10
4348.567589827848
 20
4428.63979884087
 30
0.0
 11
4348.567589827848
 21
4417.13979884087
 31
0.0
  0
LINE
  5
18E68
330
1871D
100
AcDbEntity
  8
TATEDOISIJIKANAGU
100
AcDbLine
 10
4349.067589827849
 20
4430.63979884087
 30
0.0
 11
4349.067589827849
 21
4428.63979884087
 31
0.0
  0
LINE
  5
18E69
330
1871D
100
AcDbEntity
  8
TATEDOISIJIKANAGU
100
AcDbLine
 10
4349.067589827849
 20
4428.63979884087
 30
0.0
 11
4350.26758982785
 21
4428.63979884087
 31
0.0
  0
LINE
  5
18E6A
330
1871D
100
AcDbEntity
  8
TATEDOISIJIKANAGU
100
AcDbLine
 10
4392.867589827846
 20
4428.63979884087
 30
0.0
 11
4394.06758982785
 21
4428.63979884087
 31
0.0
  0
LINE
  5
18E6B
330
1871D
100
AcDbEntity
  8
TATEDOISIJIKANAGU
100
AcDbLine
 10
4394.06758982785
 20
4428.63979884087
 30
0.0
 11
4394.06758982785
 21
4430.63979884087
 31
0.0
  0
LINE
  5
18E6C
330
1871D
100
AcDbEntity
  8
TATEDOISIJIKANAGU
100
AcDbLine
 10
4394.06758982785
 20
4430.63979884087
 30
0.0
 11
4349.067589827849
 21
4430.63979884087
 31
0.0
  0
LINE
  5
18E6D
330
1871D
100
AcDbEntity
  8
TATEDOISIJIKANAGU
100
AcDbLine
 10
4352.56758982785
 20
4428.63979884087
 30
0.0
 11
4390.567589827848
 21
4428.63979884087
 31
0.0
  0
ENDSEC
  0
SECTION
  2
OBJECTS
  0
DICTIONARY
  5
1870B
330
0
100
AcDbDictionary
281
     1
  3
ACAD_GROUP
350
1870C
  3
ACAD_LAYOUT
350
18718
  3
ACAD_MLINESTYLE
350
18715
  3
ACAD_PLOTSETTINGS
350
18717
  3
ACAD_PLOTSTYLENAME
350
1870D
  3
AcDbVariableDictionary
350
18E6E
  0
DICTIONARY
  5
1870C
102
{ACAD_REACTORS
330
1870B
102
}
330
1870B
100
AcDbDictionary
281
     1
  0
DICTIONARY
  5
18718
102
{ACAD_REACTORS
330
1870B
102
}
330
1870B
100
AcDbDictionary
281
     1
  3
Model
350
18720
  3
ﾚｲｱｳﾄ1
350
1871C
  0
DICTIONARY
  5
18715
102
{ACAD_REACTORS
330
1870B
102
}
330
1870B
100
AcDbDictionary
281
     1
  3
Standard
350
18716
  0
DICTIONARY
  5
18717
102
{ACAD_REACTORS
330
1870B
102
}
330
1870B
100
AcDbDictionary
281
     1
  0
ACDBDICTIONARYWDFLT
  5
1870D
102
{ACAD_REACTORS
330
1870B
102
}
330
1870B
100
AcDbDictionary
281
     1
  3
Normal
350
1870E
100
AcDbDictionaryWithDefault
340
1870E
  0
DICTIONARY
  5
18E6E
102
{ACAD_REACTORS
330
1870B
102
}
330
1870B
100
AcDbDictionary
281
     1
  3
DIMASSOC
350
18E6F
  0
LAYOUT
  5
18720
102
{ACAD_REACTORS
330
18718
102
}
330
18718
100
AcDbPlotSettings
  1

  2
Muratec V-1200 Is@Web Printer
  4

  6

 40
0.0
 41
0.0
 42
0.0
 43
0.0
 44
0.0
 45
0.0
 46
0.0
 47
0.0
 48
0.0
 49
0.0
140
0.0
141
0.0
142
1.0
143
1.0
 70
  1712
 72
     0
 73
     0
 74
     0
  7

 75
     0
147
1.0
148
0.0
149
0.0
100
AcDbLayout
  1
Model
 70
     1
 71
     0
 10
0.0
 20
0.0
 11
12.0
 21
9.0
 12
0.0
 22
0.0
 32
0.0
 14
0.0
 24
0.0
 34
0.0
 15
0.0
 25
0.0
 35
0.0
146
0.0
 13
0.0
 23
0.0
 33
0.0
 16
1.0
 26
0.0
 36
0.0
 17
0.0
 27
1.0
 37
0.0
 76
     0
330
1871D
  0
LAYOUT
  5
1871C
102
{ACAD_REACTORS
330
18718
102
}
330
18718
100
AcDbPlotSettings
  1

  2
Muratec V-1200 Is@Web Printer
  4

  6

 40
0.0
 41
0.0
 42
0.0
 43
0.0
 44
0.0
 45
0.0
 46
0.0
 47
0.0
 48
0.0
 49
0.0
140
0.0
141
0.0
142
1.0
143
1.0
 70
   688
 72
     0
 73
     0
 74
     5
  7

 75
    16
147
1.0
148
0.0
149
0.0
100
AcDbLayout
  1
ﾚｲｱｳﾄ1
 70
     0
 71
     1
 10
0.0
 20
0.0
 11
12.0
 21
9.0
 12
0.0
 22
0.0
 32
0.0
 14
1.000000000000000E+20
 24
1.000000000000000E+20
 34
1.000000000000000E+20
 15
-1.000000000000000E+20
 25
-1.000000000000000E+20
 35
-1.000000000000000E+20
146
0.0
 13
0.0
 23
0.0
 33
0.0
 16
1.0
 26
0.0
 36
0.0
 17
0.0
 27
1.0
 37
0.0
 76
     0
330
18719
  0
MLINESTYLE
  5
18716
102
{ACAD_REACTORS
330
18715
102
}
330
18715
100
AcDbMlineStyle
  2
STANDARD
 70
     0
  3

 62
   256
 51
90.0
 52
90.0
 71
     2
 49
0.5
 62
   256
  6
BYLAYER
 49
-0.5
 62
   256
  6
BYLAYER
  0
ACDBPLACEHOLDER
  5
1870E
102
{ACAD_REACTORS
330
1870D
102
}
330
1870D
  0
DICTIONARYVAR
  5
18E6F
102
{ACAD_REACTORS
330
18E6E
102
}
330
18E6E
100
DictionaryVariables
280
     0
  1
1
  0
ENDSEC
  0
EOF
