  0
SECTION
  2
HEADER
  9
$ACADVER
  1
AC1009
  9
$INSBASE
 10
267.0
 20
194.89999999999981
 30
0.0
  9
$EXTMIN
 10
433.9966216520333
 20
163.69082374927891
 30
-0.0000000000000053
  9
$EXTMAX
 10
16382.6660542547
 20
11242.27663824599
 30
0.0000000000000099
  9
$LIMMIN
 10
0.0
 20
0.0
  9
$LIMMAX
 10
16800.0
 20
11880.0
  9
$ORTHOMODE
 70
     0
  9
$REGENMODE
 70
     1
  9
$FILLMODE
 70
     1
  9
$QTEXTMODE
 70
     0
  9
$MIRRTEXT
 70
     0
  9
$DRAGMODE
 70
     2
  9
$LTSCALE
 40
40.0
  9
$OSMODE
 70
  3071
  9
$ATTMODE
 70
     1
  9
$TEXTSIZE
 40
0.2
  9
$TRACEWID
 40
0.05
  9
$TEXTSTYLE
  7
00
  9
$CLAYER
  8
SUNPOU
  9
$CELTYPE
  6
BYLAYER
  9
$CECOLOR
 62
   256
  9
$DIMSCALE
 40
40.0
  9
$DIMASZ
 40
0.5
  9
$DIMEXO
 40
1.0
  9
$DIMDLI
 40
7.0
  9
$DIMRND
 40
0.0
  9
$DIMDLE
 40
3.0
  9
$DIMEXE
 40
1.5
  9
$DIMTP
 40
0.0
  9
$DIMTM
 40
0.0
  9
$DIMTXT
 40
3.0
  9
$DIMCEN
 40
0.0
  9
$DIMTSZ
 40
0.0
  9
$DIMTOL
 70
     0
  9
$DIMLIM
 70
     0
  9
$DIMTIH
 70
     0
  9
$DIMTOH
 70
     0
  9
$DIMSE1
 70
     0
  9
$DIMSE2
 70
     0
  9
$DIMTAD
 70
     1
  9
$DIMZIN
 70
     8
  9
$DIMBLK
  1
DOT
  9
$DIMASO
 70
     1
  9
$DIMSHO
 70
     0
  9
$DIMPOST
  1

  9
$DIMAPOST
  1

  9
$DIMALT
 70
     0
  9
$DIMALTD
 70
     2
  9
$DIMALTF
 40
25.399999999999999
  9
$DIMLFAC
 40
1.0
  9
$DIMTOFL
 70
     1
  9
$DIMTVP
 40
0.0
  9
$DIMTIX
 70
     0
  9
$DIMSOXD
 70
     0
  9
$DIMSAH
 70
     1
  9
$DIMBLK1
  1
DOT
  9
$DIMBLK2
  1
DOT
  9
$DIMSTYLE
  2
SUNPOU_図面名
  9
$DIMCLRD
 70
   256
  9
$DIMCLRE
 70
   256
  9
$DIMCLRT
 70
   256
  9
$DIMTFAC
 40
1.0
  9
$DIMGAP
 40
1.5
  9
$LUNITS
 70
     2
  9
$LUPREC
 70
     2
  9
$SKETCHINC
 40
0.1
  9
$FILLETRAD
 40
0.0
  9
$AUNITS
 70
     0
  9
$AUPREC
 70
     0
  9
$MENU
  1
A:\TIGER\MENU\TIGER
  9
$ELEVATION
 40
0.0
  9
$PELEVATION
 40
0.0
  9
$THICKNESS
 40
0.0
  9
$LIMCHECK
 70
     0
  9
$BLIPMODE
 70
     1
  9
$CHAMFERA
 40
0.0
  9
$CHAMFERB
 40
0.0
  9
$SKPOLY
 70
     0
  9
$TDCREATE
 40
2450266.5710648149
  9
$TDUPDATE
 40
2456455.9517580322
  9
$TDINDWG
 40
0.236116956
  9
$TDUSRTIMER
 40
0.2361127894
  9
$USRTIMER
 70
     1
  9
$ANGBASE
 50
0.0
  9
$ANGDIR
 70
     0
  9
$PDMODE
 70
     0
  9
$PDSIZE
 40
0.0
  9
$PLINEWID
 40
0.0
  9
$COORDS
 70
     1
  9
$SPLFRAME
 70
     0
  9
$SPLINETYPE
 70
     6
  9
$SPLINESEGS
 70
     8
  9
$ATTDIA
 70
     0
  9
$ATTREQ
 70
     1
  9
$HANDLING
 70
     1
  9
$HANDSEED
  5
1C78B
  9
$SURFTAB1
 70
     6
  9
$SURFTAB2
 70
     6
  9
$SURFTYPE
 70
     6
  9
$SURFU
 70
     6
  9
$SURFV
 70
     6
  9
$UCSNAME
  2

  9
$UCSORG
 10
0.0
 20
0.0
 30
0.0
  9
$UCSXDIR
 10
1.0
 20
0.0
 30
0.0
  9
$UCSYDIR
 10
0.0
 20
1.0
 30
0.0
  9
$PUCSNAME
  2

  9
$PUCSORG
 10
0.0
 20
0.0
 30
0.0
  9
$PUCSXDIR
 10
1.0
 20
0.0
 30
0.0
  9
$PUCSYDIR
 10
0.0
 20
1.0
 30
0.0
  9
$USERI1
 70
     3
  9
$USERI2
 70
     0
  9
$USERI3
 70
     0
  9
$USERI4
 70
     0
  9
$USERI5
 70
  1103
  9
$USERR1
 40
0.0
  9
$USERR2
 40
1.0
  9
$USERR3
 40
0.0
  9
$USERR4
 40
0.0
  9
$USERR5
 40
0.0
  9
$WORLDVIEW
 70
     1
  9
$SHADEDGE
 70
     3
  9
$SHADEDIF
 70
    70
  9
$TILEMODE
 70
     1
  9
$MAXACTVP
 70
    16
  9
$PLIMCHECK
 70
     0
  9
$PEXTMIN
 10
1.0000000000000000E+020
 20
1.0000000000000000E+020
 30
1.0000000000000000E+020
  9
$PEXTMAX
 10
-1.0000000000000000E+020
 20
-1.0000000000000000E+020
 30
-1.0000000000000000E+020
  9
$PLIMMIN
 10
0.0
 20
0.0
  9
$PLIMMAX
 10
12.0
 20
9.0
  9
$UNITMODE
 70
     0
  9
$VISRETAIN
 70
     0
  9
$PLINEGEN
 70
     1
  9
$PSLTSCALE
 70
     0
  0
ENDSEC
  0
SECTION
  2
TABLES
  0
TABLE
  2
VPORT
 70
     1
  0
VPORT
  2
*ACTIVE
 70
     0
 10
0.0
 20
0.0
 11
1.0
 21
1.0
 12
8400.0
 22
5940.0
 13
0.0
 23
0.0
 14
1.0
 24
1.0
 15
0.0
 25
0.0
 16
0.0
 26
0.0
 36
1.0
 17
0.0
 27
0.0
 37
0.0
 40
11982.120343839541
 41
1.6944045911047341
 42
50.0
 43
0.0
 44
0.0
 50
0.0
 51
0.0
 71
     0
 72
 10000
 73
     1
 74
     0
 75
     0
 76
     0
 77
     0
 78
     0
  0
ENDTAB
  0
TABLE
  2
LTYPE
 70
     6
  0
LTYPE
  2
CONTINUOUS
 70
     0
  3
実線
 72
    65
 73
     0
 40
0.0
  0
LTYPE
  2
1PL-L
 70
     0
  3

 72
    65
 73
     4
 40
56.0
 49
50.0
 49
-2.0
 49
2.0
 49
-2.0
  0
LTYPE
  2
1PL-S
 70
     0
  3

 72
    65
 73
     4
 40
4.0
 49
2.5
 49
-0.5
 49
0.5
 49
-0.5
  0
LTYPE
  2
2PL-L
 70
     0
  3

 72
    65
 73
     6
 40
60.0
 49
50.0
 49
-2.0
 49
2.0
 49
-2.0
 49
2.0
 49
-2.0
  0
LTYPE
  2
KAKURE-05
 70
     0
  3

 72
    65
 73
     2
 40
1.0
 49
0.5
 49
-0.5
  0
LTYPE
  2
PHANTOM2
 70
     0
  3
Phantom (.5x) ___ _ _ ___ _ _ ___ _ _ ___ _ _
 72
    65
 73
     6
 40
1.25
 49
0.625
 49
-0.125
 49
0.125
 49
-0.125
 49
0.125
 49
-0.125
  0
ENDTAB
  0
TABLE
  2
LAYER
 70
    31
  0
LAYER
  2
0
 70
     0
 62
     7
  6
CONTINUOUS
  0
LAYER
  2
SUNPOU
 70
     0
 62
     4
  6
CONTINUOUS
  0
LAYER
  2
U1
 70
     0
 62
     3
  6
CONTINUOUS
  0
LAYER
  2
U2
 70
     0
 62
     4
  6
CONTINUOUS
  0
LAYER
  2
U3
 70
     0
 62
     6
  6
CONTINUOUS
  0
LAYER
  2
HIKIDASHI
 70
     0
 62
     6
  6
CONTINUOUS
  0
LAYER
  2
1PL-S1
 70
     0
 62
     6
  6
1PL-S
  0
LAYER
  2
1PL-S2
 70
     0
 62
     1
  6
1PL-S
  0
LAYER
  2
1PL-L1
 70
     0
 62
     6
  6
1PL-L
  0
LAYER
  2
2PL-L2
 70
     0
 62
     1
  6
2PL-L
  0
LAYER
  2
NAME
 70
     0
 62
    20
  6
CONTINUOUS
  0
LAYER
  2
FILENAME
 70
     0
 62
     7
  6
CONTINUOUS
  0
LAYER
  2
KISO
 70
     0
 62
     2
  6
CONTINUOUS
  0
LAYER
  2
HARI
 70
     0
 62
     7
  6
CONTINUOUS
  0
LAYER
  2
KERABA
 70
     0
 62
     2
  6
CONTINUOUS
  0
LAYER
  2
YANE
 70
     0
 62
     1
  6
CONTINUOUS
  0
LAYER
  2
TATEDOISIJIKANAGU
 70
     0
 62
     2
  6
CONTINUOUS
  0
LAYER
  2
HATCH
 70
     0
 62
     1
  6
CONTINUOUS
  0
LAYER
  2
DOU_BUCHI
 70
     0
 62
     2
  6
CONTINUOUS
  0
LAYER
  2
GAKU_FUCHI
 70
     0
 62
     4
  6
CONTINUOUS
  0
LAYER
  2
MABASHIRA
 70
     0
 62
     4
  6
CONTINUOUS
  0
LAYER
  2
TOI
 70
     0
 62
     3
  6
CONTINUOUS
  0
LAYER
  2
HANAKAKUSHI
 70
     0
 62
     3
  6
CONTINUOUS
  0
LAYER
  2
MOYA
 70
     0
 62
     4
  6
CONTINUOUS
  0
LAYER
  2
GAKU_BUCHI
 70
     0
 62
     3
  6
CONTINUOUS
  0
LAYER
  2
HISHIRA
 70
     0
 62
     3
  6
CONTINUOUS
  0
LAYER
  2
YODOROGO
 70
     0
 62
   130
  6
CONTINUOUS
  0
LAYER
  2
WAKUSEN-01
 70
     0
 62
    50
  6
CONTINUOUS
  0
LAYER
  2
WAKUSEN-02
 70
     0
 62
   130
  6
CONTINUOUS
  0
LAYER
  2
WAKUMOJI-01
 70
     0
 62
   130
  6
CONTINUOUS
  0
ENDTAB
  0
TABLE
  2
STYLE
 70
     6
  0
STYLE
  2
STANDARD
 70
     0
 40
3.0
 41
1.0
 50
0.0
 71
     0
 42
0.2
  3
ROMANS
  4
EXTFONT
  0
STYLE
  2
00
 70
     0
 40
0.0
 41
0.6666666666666666
 50
0.0
 71
     0
 42
0.2
  3
ROMANS
  4
BIGFONT
  0
STYLE
  2
01
 70
     0
 40
3.0
 41
1.0
 50
0.0
 71
     0
 42
0.2
  3
ROMANS
  4
BIGFONT
  0
STYLE
  2
02
 70
     0
 40
3.0
 41
1.0
 50
0.0
 71
     0
 42
2.5
  3
ROMANS
  4
EXTFONT
  0
STYLE
  2
WAKUMOJI
 70
     0
 40
3.0
 41
1.0
 50
0.0
 71
     0
 42
3.0
  3
SIMPLEX
  4
BIGFONT
  0
STYLE
  2
FILENAME
 70
     0
 40
100.0
 41
1.0
 50
0.0
 71
     0
 42
100.0
  3
romans
  4
bigfont
  0
ENDTAB
  0
TABLE
  2
VIEW
 70
     0
  0
ENDTAB
  0
TABLE
  2
UCS
 70
     0
  0
ENDTAB
  0
TABLE
  2
APPID
 70
     7
  0
APPID
  2
ACAD
 70
     0
  0
APPID
  2
AUTOCAD_POSTSCRIPT_FIGURE
 70
     0
  0
APPID
  2
ACAD_PSEXT
 70
     0
  0
APPID
  2
ACAD_EXEMPT_FROM_CAD_STANDARDS
 70
     0
  0
APPID
  2
AEC_XDATA_BOUND_SPACE
 70
     0
  0
APPID
  2
ACAD_MLEADERVER
 70
     0
  0
APPID
  2
ACAD_NAV_VCDISPLAY
 70
     0
  0
ENDTAB
  0
TABLE
  2
DIMSTYLE
 70
     1
  0
DIMSTYLE
  2
SUNPOU_図面名
 70
     0
  3

  4

  5

  6

  7

 40
30.0
 41
0.5
 42
1.0
 43
7.0
 44
1.5
 45
0.0
 46
3.0
 47
0.0
 48
0.0
140
3.0
141
0.0
142
0.0
143
25.399999999999999
144
1.0
145
0.0
146
1.0
147
1.5
 71
     0
 72
     0
 73
     0
 74
     0
 75
     0
 76
     0
 77
     1
 78
     8
170
     0
171
     2
172
     1
173
     1
174
     0
175
     0
176
   256
177
   256
178
   256
  0
ENDTAB
  0
ENDSEC
  0
SECTION
  2
BLOCKS
  0
BLOCK
  8
0
  2
$MODEL_SPACE
 70
     0
 10
0.0
 20
0.0
 30
0.0
  3
$MODEL_SPACE
  1

  0
ENDBLK
  5
1B586
  8
0
  0
BLOCK
 67
     1
  8
0
  2
$PAPER_SPACE
 70
     0
 10
0.0
 20
0.0
 30
0.0
  3
$PAPER_SPACE
  1

  0
ENDBLK
  5
1B582
 67
     1
  8
0
  0
BLOCK
  8
0
  2
DOT
 70
     0
 10
0.0
 20
0.0
 30
0.0
  3
DOT
  1

  0
POLYLINE
  5
1B5C1
  8
0
  6
BYBLOCK
 62
     0
 66
     1
 10
0.0
 20
0.0
 30
0.0
 70
     1
 40
0.75
 41
0.75
  0
VERTEX
  5
1C754
  8
0
  6
BYBLOCK
 62
     0
 10
-0.375
 20
0.0
 30
0.0
 42
1.0
  0
VERTEX
  5
1C755
  8
0
  6
BYBLOCK
 62
     0
 10
0.375
 20
0.0
 30
0.0
 42
1.0
  0
SEQEND
  5
1C756
  8
0
  6
BYBLOCK
 62
     0
  0
LINE
  5
1B5C5
  8
0
  6
BYBLOCK
 62
     0
 10
-0.75
 20
0.0
 30
0.0
 11
-1.5
 21
0.0
 31
0.0
  0
ENDBLK
  5
1B5C6
  8
0
  0
ENDSEC
  0
SECTION
  2
ENTITIES
  0
TEXT
  5
1B5E7
  8
NAME
 10
12303.328573182949
 20
1055.0
 30
0.0
 40
120.0
  1
Y O K R
 41
0.6666666666666666
  7
00
  0
TEXT
  5
1B5E8
  8
NAME
 10
11227.735871346251
 20
1055.0
 30
0.0
 40
120.0
  1
ヨド自転車置場　　　  型
  7
01
  0
TEXT
  5
1B5E9
  8
NAME
 10
11228.075080823641
 20
875.0
 30
0.0
 40
120.0
  1
（アンカープレート方式）
  7
01
 72
     4
 11
12072.075080823641
 21
935.0
 31
0.0
  0
TEXT
  5
1B5EA
  8
NAME
 10
11816.04264730429
 20
541.0
 30
0.0
 40
160.0
  1
型（積雪地用）
 41
0.8
  7
01
  0
TEXT
  5
1B5EB
  8
NAME
 10
10789.37598063762
 20
541.0
 30
0.0
 40
160.0
  1
YOKRS-240
 41
0.7
  7
01
 72
     2
 11
11776.04264730429
 21
541.0
 31
0.0
  0
TEXT
  5
1B5EC
  8
NAME
 10
12854.799999999999
 20
541.00000000000011
 30
0.0
 40
160.0
  1
<1／3>
 41
0.6
  7
01
 72
     2
 11
13354.0
 21
541.00000000000011
 31
0.0
  0
TEXT
  5
1B5ED
  8
HIKIDASHI
 10
5280.4304423062767
 20
2241.3577964276542
 30
0.0
 40
120.0
  1
正 面 立 面 図
  7
01
 72
     2
 11
6248.4304423062777
 21
2241.3577964276542
 31
0.0
  0
TEXT
  5
1B5EE
  8
HIKIDASHI
 10
6598.570650870899
 20
2239.0064070583471
 30
0.0
 40
80.0
  1
40
 41
0.6700000000000002
  7
00
  0
TEXT
  5
1B5EF
  8
HIKIDASHI
 10
6552.2754961082601
 20
2265.1742382586231
 30
0.0
 40
80.0
  1
/
 41
0.6700000000000002
  7
00
  0
TEXT
  5
1B5F0
  8
HIKIDASHI
 10
6338.4304423062777
 20
2265.1742382586231
 30
0.0
 40
80.0
  1
(S=
 41
0.6700000000000002
  7
00
  0
TEXT
  5
1B5F1
  8
HIKIDASHI
 10
6519.1383582439512
 20
2280.7357160068182
 30
0.0
 40
80.0
  1
1
 41
0.6700000000000002
  7
00
  0
TEXT
  5
1B5F2
  8
HIKIDASHI
 10
6719.9971069333333
 20
2265.1742382586231
 30
0.0
 40
80.0
  1
)
 41
0.6700000000000002
  7
00
  0
TEXT
  5
1B5F3
  8
SUNPOU
 10
4585.5438442991399
 20
2854.5467985685332
 30
0.0
 40
90.0
  1
FL
  7
01
 72
     4
 11
4666.9724157277124
 21
2899.5467985685332
 31
0.0
  0
LINE
  5
1B5F4
  8
SUNPOU
 10
4666.9724157277124
 20
2719.5467985685318
 30
0.0
 11
4718.9339399547762
 21
2809.5467985685332
 31
0.0
  0
LINE
  5
1B5F5
  8
SUNPOU
 10
4615.010891500644
 20
2809.5467985685332
 30
0.0
 11
4666.9724157277124
 21
2719.5467985685318
 31
0.0
  0
LINE
  5
1B5F6
  8
SUNPOU
 10
4718.9339399547762
 20
2809.5467985685332
 30
0.0
 11
4615.010891500644
 21
2809.5467985685332
 31
0.0
  0
LINE
  5
1B5F7
  8
KISO
 10
7628.8738593810267
 20
2719.5467985685318
 30
0.0
 11
4428.873859381024
 21
2719.5467985685318
 31
0.0
  0
ARC
  5
1B5F8
  8
TATEDOISIJIKANAGU
 10
4868.8531066693477
 20
4328.7372188581858
 30
0.0
 40
19.50000000000022
 50
104.1614835119764
 51
112.5538228594538
  0
ARC
  5
1B5F9
  8
TATEDOISIJIKANAGU
 10
4897.9414077540214
 20
4336.0768877885539
 30
0.0
 40
19.50000000000022
 50
104.1614835119764
 51
284.16148351197643
  0
ARC
  5
1B5FA
  8
TATEDOISIJIKANAGU
 10
4868.8531066693477
 20
4328.7372188581858
 30
0.0
 40
19.50000000000022
 50
247.4461771406875
 51
284.16148351197643
  0
LINE
  5
1B5FB
  8
TATEDOISIJIKANAGU
 10
4922.2589240339539
 20
4362.3239524239598
 30
0.0
 11
4864.0822296052102
 21
4347.6445912839863
 31
0.0
  0
LINE
  5
1B5FC
  8
TATEDOISIJIKANAGU
 10
4946.3446441857714
 20
4328.1789954790702
 30
0.0
 11
4873.6237991114103
 21
4309.8297998478556
 31
0.0
  0
ARC
  5
1B5FD
  8
TATEDOISIJIKANAGU
 10
4941.5738593810311
 20
4347.086391184107
 30
0.0
 40
19.50000000000022
 50
284.16148351197643
 51
313.53119928562222
  0
LINE
  5
1B5FE
  8
TATEDOISIJIKANAGU
 10
4941.3238593810238
 20
4422.6397988408671
 30
0.0
 11
4952.3238593810238
 21
4422.6397988408671
 31
0.0
  0
LINE
  5
1B5FF
  8
TATEDOISIJIKANAGU
 10
4946.8238593810238
 20
4417.1397988408662
 30
0.0
 11
4951.8238593810238
 21
4417.1397988408662
 31
0.0
  0
LINE
  5
1B600
  8
TATEDOISIJIKANAGU
 10
4946.8238593810238
 20
4417.1397988408662
 30
0.0
 11
4969.8238593810238
 21
4417.1397988408662
 31
0.0
  0
ARC
  5
1B601
  8
TATEDOISIJIKANAGU
 10
4946.8238593810238
 20
4369.2434088944674
 30
0.0
 40
19.50000000000022
 50
168.47386670946511
 51
11.52613329053489
  0
ARC
  5
1B602
  8
TATEDOISIJIKANAGU
 10
4946.8238593810238
 20
4392.3023081391912
 30
0.0
 40
26.955289191122731
 50
225.66157814941701
 51
314.3384218505829
  0
ARC
  5
1B603
  8
TATEDOISIJIKANAGU
 10
4946.8238593810238
 20
4353.6397988408653
 30
0.0
 40
19.50000000000022
 50
180.0
 51
0.0
  0
LINE
  5
1B604
  8
TATEDOISIJIKANAGU
 10
4969.8238593810238
 20
4404.1397988408671
 30
0.0
 11
4923.8238593810229
 21
4404.1397988408671
 31
0.0
  0
LINE
  5
1B605
  8
TATEDOISIJIKANAGU
 10
4968.3238593810229
 20
4397.4924528022839
 30
0.0
 11
4925.3238593810229
 21
4397.4924528022839
 31
0.0
  0
LINE
  5
1B606
  8
TATEDOISIJIKANAGU
 10
4923.8238593810229
 20
4417.1397988408662
 30
0.0
 11
4968.8862708539345
 21
4417.1397988408662
 31
0.0
  0
LINE
  5
1B607
  8
TATEDOISIJIKANAGU
 10
4927.3238593810238
 20
4369.2434088944674
 30
0.0
 11
4927.3238593810238
 21
4353.6397988408653
 31
0.0
  0
LINE
  5
1B608
  8
TATEDOISIJIKANAGU
 10
4923.3238593810238
 20
4416.6397988408671
 30
0.0
 11
4923.3238593810238
 21
4404.6397988408671
 31
0.0
  0
ARC
  5
1B609
  8
TATEDOISIJIKANAGU
 10
4923.8238593810229
 20
4404.6397988408671
 30
0.0
 40
0.5
 50
180.0
 51
270.0
  0
ARC
  5
1B60A
  8
TATEDOISIJIKANAGU
 10
4923.8238593810229
 20
4416.6397988408671
 30
0.0
 40
0.5
 50
90.0
 51
180.0
  0
LINE
  5
1B60B
  8
TATEDOISIJIKANAGU
 10
4927.3238593810238
 20
4393.9685191359249
 30
0.0
 11
4927.3238593810238
 21
4391.8110785458084
 31
0.0
  0
LINE
  5
1B60C
  8
TATEDOISIJIKANAGU
 10
4925.3238593810229
 20
4403.6397988408671
 30
0.0
 11
4925.3238593810229
 21
4397.4924528022839
 31
0.0
  0
ARC
  5
1B60D
  8
TATEDOISIJIKANAGU
 10
4928.1238593810222
 20
4393.9685191359249
 30
0.0
 40
0.8
 50
99.999999999924285
 51
180.0
  0
ARC
  5
1B60E
  8
TATEDOISIJIKANAGU
 10
4928.1238593810222
 20
4387.9685191359249
 30
0.0
 40
0.8
 50
99.999999999924285
 51
180.0
  0
ARC
  5
1B60F
  8
TATEDOISIJIKANAGU
 10
4928.1238593810222
 20
4391.8110785458084
 30
0.0
 40
0.8
 50
180.0
 51
260.0000000000756
  0
ARC
  5
1B610
  8
TATEDOISIJIKANAGU
 10
4924.8238593810238
 20
4403.6397988408671
 30
0.0
 40
0.5
 50
0.0
 51
90.0
  0
LINE
  5
1B611
  8
TATEDOISIJIKANAGU
 10
4927.3238593810238
 20
4373.8110785458066
 30
0.0
 11
4927.3238593810238
 21
4375.9685191359249
 31
0.0
  0
LINE
  5
1B612
  8
TATEDOISIJIKANAGU
 10
4927.3238593810238
 20
4381.968519135924
 30
0.0
 11
4927.3238593810238
 21
4379.8110785458093
 31
0.0
  0
ARC
  5
1B613
  8
TATEDOISIJIKANAGU
 10
4928.1238593810222
 20
4375.9685191359249
 30
0.0
 40
0.8
 50
99.999999999924285
 51
180.0
  0
ARC
  5
1B614
  8
TATEDOISIJIKANAGU
 10
4928.1238593810222
 20
4373.8110785458066
 30
0.0
 40
0.8
 50
180.0
 51
260.0000000000756
  0
ARC
  5
1B615
  8
TATEDOISIJIKANAGU
 10
4928.1238593810222
 20
4381.968519135924
 30
0.0
 40
0.8
 50
99.999999999924285
 51
180.0
  0
ARC
  5
1B616
  8
TATEDOISIJIKANAGU
 10
4928.1238593810222
 20
4379.8110785458093
 30
0.0
 40
0.8
 50
180.0
 51
260.0000000000756
  0
ARC
  5
1B617
  8
TATEDOISIJIKANAGU
 10
4928.1238593810222
 20
4385.8110785458093
 30
0.0
 40
0.8
 50
180.0
 51
260.0000000000756
  0
LINE
  5
1B618
  8
TATEDOISIJIKANAGU
 10
4927.3238593810238
 20
4385.8110785458093
 30
0.0
 11
4927.3238593810238
 21
4387.9685191359249
 31
0.0
  0
LINE
  5
1B619
  8
TATEDOISIJIKANAGU
 10
4941.3238593810238
 20
4428.6397988408671
 30
0.0
 11
4941.3238593810238
 21
4422.6397988408671
 31
0.0
  0
ARC
  5
1B61A
  8
TATEDOISIJIKANAGU
 10
4931.823859381022
 20
4389.8897988408671
 30
0.0
 40
0.5000000000000285
 50
305.94875234718342
 51
54.05124765281645
  0
ARC
  5
1B61B
  8
TATEDOISIJIKANAGU
 10
4931.823859381022
 20
4395.8897988408671
 30
0.0
 40
0.5000000000000285
 50
305.94875234718342
 51
54.05124765281645
  0
ARC
  5
1B61C
  8
TATEDOISIJIKANAGU
 10
4931.823859381022
 20
4377.8897988408671
 30
0.0
 40
0.5000000000000285
 50
305.94875234718342
 51
54.05124765281645
  0
ARC
  5
1B61D
  8
TATEDOISIJIKANAGU
 10
4931.823859381022
 20
4383.889798840868
 30
0.0
 40
0.5000000000000285
 50
305.94875234718342
 51
54.05124765281645
  0
LINE
  5
1B61E
  8
TATEDOISIJIKANAGU
 10
4927.9849408388891
 20
4391.0232323433993
 30
0.0
 11
4932.1173900809654
 21
4390.294570045613
 31
0.0
  0
LINE
  5
1B61F
  8
TATEDOISIJIKANAGU
 10
4927.9849408388891
 20
4388.7563653383359
 30
0.0
 11
4932.1173900809654
 21
4389.4850276361212
 31
0.0
  0
LINE
  5
1B620
  8
TATEDOISIJIKANAGU
 10
4927.9849408388891
 20
4394.7563653383359
 30
0.0
 11
4932.1173900809654
 21
4395.4850276361212
 31
0.0
  0
LINE
  5
1B621
  8
TATEDOISIJIKANAGU
 10
4925.3238593810229
 20
4397.4924528022839
 30
0.0
 11
4932.1173900809654
 21
4396.294570045613
 31
0.0
  0
LINE
  5
1B622
  8
TATEDOISIJIKANAGU
 10
4927.9849408388891
 20
4382.7563653383359
 30
0.0
 11
4932.1173900809654
 21
4383.4850276361221
 31
0.0
  0
LINE
  5
1B623
  8
TATEDOISIJIKANAGU
 10
4927.9849408388891
 20
4376.7563653383359
 30
0.0
 11
4932.1173900809654
 21
4377.4850276361212
 31
0.0
  0
LINE
  5
1B624
  8
TATEDOISIJIKANAGU
 10
4927.9849408388891
 20
4379.0232323433966
 30
0.0
 11
4932.1173900809654
 21
4378.2945700456112
 31
0.0
  0
LINE
  5
1B625
  8
TATEDOISIJIKANAGU
 10
4927.9849408388891
 20
4385.0232323433993
 30
0.0
 11
4932.1173900809654
 21
4384.294570045613
 31
0.0
  0
LINE
  5
1B626
  8
TATEDOISIJIKANAGU
 10
4966.3238593810238
 20
4369.2434088944674
 30
0.0
 11
4966.3238593810238
 21
4353.6397988408653
 31
0.0
  0
ARC
  5
1B627
  8
TATEDOISIJIKANAGU
 10
4946.5738593810293
 20
4351.8363911841052
 30
0.0
 40
19.50000000000022
 50
313.53119928562222
 51
9.7130982398165333
  0
LINE
  5
1B628
  8
TATEDOISIJIKANAGU
 10
4960.0044738883689
 20
4337.6989022290118
 30
0.0
 11
4955.0044738883662
 21
4332.9489022290154
 31
0.0
  0
LINE
  5
1B629
  8
TATEDOISIJIKANAGU
 10
4952.3238593810238
 20
4422.6397988408671
 30
0.0
 11
4952.3238593810238
 21
4428.6397988408671
 31
0.0
  0
LINE
  5
1B62A
  8
TATEDOISIJIKANAGU
 10
4965.6627779231567
 20
4391.0232323433993
 30
0.0
 11
4961.5303286810822
 21
4390.294570045613
 31
0.0
  0
LINE
  5
1B62B
  8
TATEDOISIJIKANAGU
 10
4965.6627779231567
 20
4388.7563653383359
 30
0.0
 11
4961.5303286810822
 21
4389.4850276361212
 31
0.0
  0
LINE
  5
1B62C
  8
TATEDOISIJIKANAGU
 10
4968.3238593810229
 20
4397.4924528022839
 30
0.0
 11
4961.5303286810822
 21
4396.294570045613
 31
0.0
  0
LINE
  5
1B62D
  8
TATEDOISIJIKANAGU
 10
4965.6627779231567
 20
4394.7563653383359
 30
0.0
 11
4961.5303286810822
 21
4395.4850276361212
 31
0.0
  0
LINE
  5
1B62E
  8
TATEDOISIJIKANAGU
 10
4965.6627779231567
 20
4382.7563653383359
 30
0.0
 11
4961.5303286810822
 21
4383.4850276361221
 31
0.0
  0
LINE
  5
1B62F
  8
TATEDOISIJIKANAGU
 10
4965.6627779231567
 20
4376.7563653383359
 30
0.0
 11
4961.5303286810822
 21
4377.4850276361212
 31
0.0
  0
LINE
  5
1B630
  8
TATEDOISIJIKANAGU
 10
4965.6627779231567
 20
4379.0232323433966
 30
0.0
 11
4961.5303286810822
 21
4378.2945700456112
 31
0.0
  0
LINE
  5
1B631
  8
TATEDOISIJIKANAGU
 10
4965.6627779231567
 20
4385.0232323433993
 30
0.0
 11
4961.5303286810822
 21
4384.294570045613
 31
0.0
  0
LINE
  5
1B632
  8
TATEDOISIJIKANAGU
 10
4970.3238593810238
 20
4416.6397988408671
 30
0.0
 11
4970.3238593810238
 21
4404.6397988408671
 31
0.0
  0
ARC
  5
1B633
  8
TATEDOISIJIKANAGU
 10
4969.8238593810238
 20
4404.6397988408671
 30
0.0
 40
0.5
 50
270.0
 51
0.0
  0
ARC
  5
1B634
  8
TATEDOISIJIKANAGU
 10
4969.8238593810238
 20
4416.6397988408671
 30
0.0
 40
0.5
 50
0.0
 51
90.0
  0
ARC
  5
1B635
  8
TATEDOISIJIKANAGU
 10
4965.5238593810263
 20
4393.9685191359249
 30
0.0
 40
0.8
 50
0.0
 51
80.000000000075701
  0
ARC
  5
1B636
  8
TATEDOISIJIKANAGU
 10
4965.5238593810263
 20
4387.9685191359249
 30
0.0
 40
0.8
 50
0.0
 51
80.000000000075701
  0
LINE
  5
1B637
  8
TATEDOISIJIKANAGU
 10
4966.3238593810238
 20
4393.9685191359249
 30
0.0
 11
4966.3238593810238
 21
4391.8110785458084
 31
0.0
  0
ARC
  5
1B638
  8
TATEDOISIJIKANAGU
 10
4965.5238593810263
 20
4391.8110785458084
 30
0.0
 40
0.8
 50
279.99999999992428
 51
0.0
  0
LINE
  5
1B639
  8
TATEDOISIJIKANAGU
 10
4968.3238593810229
 20
4403.6397988408671
 30
0.0
 11
4968.3238593810229
 21
4397.4924528022839
 31
0.0
  0
ARC
  5
1B63A
  8
TATEDOISIJIKANAGU
 10
4968.8238593810238
 20
4403.6397988408671
 30
0.0
 40
0.5
 50
90.0
 51
180.0
  0
LINE
  5
1B63B
  8
TATEDOISIJIKANAGU
 10
4969.8238593810238
 20
4428.6397988408671
 30
0.0
 11
4969.8238593810238
 21
4417.1397988408662
 31
0.0
  0
ARC
  5
1B63C
  8
TATEDOISIJIKANAGU
 10
4965.5238593810263
 20
4375.9685191359249
 30
0.0
 40
0.8
 50
0.0
 51
80.000000000075701
  0
LINE
  5
1B63D
  8
TATEDOISIJIKANAGU
 10
4966.3238593810238
 20
4373.8110785458066
 30
0.0
 11
4966.3238593810238
 21
4375.9685191359249
 31
0.0
  0
ARC
  5
1B63E
  8
TATEDOISIJIKANAGU
 10
4965.5238593810263
 20
4373.8110785458066
 30
0.0
 40
0.8
 50
279.99999999992428
 51
0.0
  0
LINE
  5
1B63F
  8
TATEDOISIJIKANAGU
 10
4966.3238593810238
 20
4381.968519135924
 30
0.0
 11
4966.3238593810238
 21
4379.8110785458093
 31
0.0
  0
ARC
  5
1B640
  8
TATEDOISIJIKANAGU
 10
4965.5238593810263
 20
4381.968519135924
 30
0.0
 40
0.8
 50
0.0
 51
80.000000000075701
  0
ARC
  5
1B641
  8
TATEDOISIJIKANAGU
 10
4965.5238593810263
 20
4379.8110785458093
 30
0.0
 40
0.8
 50
279.99999999992428
 51
0.0
  0
ARC
  5
1B642
  8
TATEDOISIJIKANAGU
 10
4965.5238593810263
 20
4385.8110785458093
 30
0.0
 40
0.8
 50
279.99999999992428
 51
0.0
  0
LINE
  5
1B643
  8
TATEDOISIJIKANAGU
 10
4966.3238593810238
 20
4385.8110785458093
 30
0.0
 11
4966.3238593810238
 21
4387.9685191359249
 31
0.0
  0
ARC
  5
1B644
  8
TATEDOISIJIKANAGU
 10
4961.8238593810229
 20
4389.8897988408671
 30
0.0
 40
0.5000000000000285
 50
125.9487523471835
 51
234.0512476528163
  0
ARC
  5
1B645
  8
TATEDOISIJIKANAGU
 10
4961.8238593810229
 20
4395.8897988408671
 30
0.0
 40
0.5000000000000285
 50
125.9487523471835
 51
234.0512476528163
  0
ARC
  5
1B646
  8
TATEDOISIJIKANAGU
 10
4961.8238593810229
 20
4377.8897988408671
 30
0.0
 40
0.5000000000000285
 50
125.9487523471835
 51
234.0512476528163
  0
ARC
  5
1B647
  8
TATEDOISIJIKANAGU
 10
4961.8238593810229
 20
4383.889798840868
 30
0.0
 40
0.5000000000000285
 50
125.9487523471835
 51
234.0512476528163
  0
LINE
  5
1B648
  8
TATEDOISIJIKANAGU
 10
4969.8238593810238
 20
4428.6397988408671
 30
0.0
 11
4952.3238593810238
 21
4428.6397988408671
 31
0.0
  0
ARC
  5
1B649
  8
TATEDOISIJIKANAGU
 10
4927.0297088386942
 20
4343.416556718922
 30
0.0
 40
19.50000000000022
 50
89.135680828440954
 51
284.16148351197643
  0
LINE
  5
1B64A
  8
YANE
 10
4686.4319690498542
 20
4491.0468919885607
 30
0.0
 11
4686.4319690498542
 21
4661.8076642972019
 31
0.0
  0
LINE
  5
1B64B
  8
YANE
 10
4659.1157497121876
 20
4661.8076642972019
 30
0.0
 11
4659.1157497121876
 21
4491.0468919885607
 31
0.0
  0
LINE
  5
1B64C
  8
YANE
 10
4642.4657497121862
 20
4491.0468919885607
 30
0.0
 11
4642.4657497121862
 21
4661.8076642972019
 31
0.0
  0
LINE
  5
1B64D
  8
YANE
 10
4703.0819690498529
 20
4661.8076642972019
 30
0.0
 11
4703.0819690498529
 21
4491.0468919885607
 31
0.0
  0
LINE
  5
1B64E
  8
YANE
 10
4792.4157497121887
 20
4661.8076642972019
 30
0.0
 11
4792.4157497121887
 21
4491.0468919885607
 31
0.0
  0
LINE
  5
1B64F
  8
YANE
 10
4775.7657497121863
 20
4491.0468919885607
 30
0.0
 11
4775.7657497121863
 21
4661.8076642972019
 31
0.0
  0
LINE
  5
1B650
  8
YANE
 10
4953.0319690498563
 20
4491.0468919885607
 30
0.0
 11
4953.0319690498563
 21
4661.8076642972019
 31
0.0
  0
LINE
  5
1B651
  8
YANE
 10
4925.715749712188
 20
4661.8076642972019
 30
0.0
 11
4925.715749712188
 21
4491.0468919885607
 31
0.0
  0
LINE
  5
1B652
  8
YANE
 10
4909.0657497121874
 20
4491.0468919885607
 30
0.0
 11
4909.0657497121874
 21
4661.8076642972019
 31
0.0
  0
LINE
  5
1B653
  8
YANE
 10
4969.6819690498551
 20
4661.8076642972019
 30
0.0
 11
4969.6819690498551
 21
4491.0468919885607
 31
0.0
  0
LINE
  5
1B654
  8
YANE
 10
5086.3319690498538
 20
4491.0468919885607
 30
0.0
 11
5086.3319690498538
 21
4661.8076642972019
 31
0.0
  0
LINE
  5
1B655
  8
YANE
 10
5059.0157497121872
 20
4661.8076642972019
 30
0.0
 11
5059.0157497121872
 21
4491.0468919885607
 31
0.0
  0
LINE
  5
1B656
  8
YANE
 10
5042.3657497121894
 20
4491.0468919885607
 30
0.0
 11
5042.3657497121894
 21
4661.8076642972019
 31
0.0
  0
LINE
  5
1B657
  8
YANE
 10
5102.9819690498571
 20
4661.8076642972019
 30
0.0
 11
5102.9819690498571
 21
4491.0468919885607
 31
0.0
  0
LINE
  5
1B658
  8
YANE
 10
5219.631969049854
 20
4491.0468919885607
 30
0.0
 11
5219.631969049854
 21
4661.8076642972019
 31
0.0
  0
LINE
  5
1B659
  8
YANE
 10
5192.3157497121892
 20
4661.8076642972019
 30
0.0
 11
5192.3157497121892
 21
4491.0468919885607
 31
0.0
  0
LINE
  5
1B65A
  8
YANE
 10
5175.665749712186
 20
4491.0468919885607
 30
0.0
 11
5175.665749712186
 21
4661.8076642972019
 31
0.0
  0
LINE
  5
1B65B
  8
YANE
 10
5236.2819690498563
 20
4661.8076642972019
 30
0.0
 11
5236.2819690498563
 21
4491.0468919885607
 31
0.0
  0
LINE
  5
1B65C
  8
YANE
 10
5352.931969049856
 20
4491.0468919885607
 30
0.0
 11
5352.931969049856
 21
4661.8076642972019
 31
0.0
  0
LINE
  5
1B65D
  8
YANE
 10
5325.6157497121876
 20
4661.8076642972019
 30
0.0
 11
5325.6157497121876
 21
4491.0468919885607
 31
0.0
  0
LINE
  5
1B65E
  8
YANE
 10
5308.9657497121862
 20
4491.0468919885607
 30
0.0
 11
5308.9657497121862
 21
4661.8076642972019
 31
0.0
  0
LINE
  5
1B65F
  8
YANE
 10
5369.5819690498574
 20
4661.8076642972019
 30
0.0
 11
5369.5819690498574
 21
4491.0468919885607
 31
0.0
  0
LINE
  5
1B660
  8
YANE
 10
5486.2319690498543
 20
4491.0468919885607
 30
0.0
 11
5486.2319690498543
 21
4661.8076642972019
 31
0.0
  0
LINE
  5
1B661
  8
YANE
 10
5458.9157497121887
 20
4661.8076642972019
 30
0.0
 11
5458.9157497121887
 21
4491.0468919885607
 31
0.0
  0
LINE
  5
1B662
  8
YANE
 10
5442.2657497121882
 20
4491.0468919885607
 30
0.0
 11
5442.2657497121882
 21
4661.8076642972019
 31
0.0
  0
LINE
  5
1B663
  8
YANE
 10
5502.8819690498549
 20
4661.8076642972019
 30
0.0
 11
5502.8819690498549
 21
4491.0468919885607
 31
0.0
  0
LINE
  5
1B664
  8
YANE
 10
5619.5319690498563
 20
4491.0468919885607
 30
0.0
 11
5619.5319690498563
 21
4661.8076642972019
 31
0.0
  0
LINE
  5
1B665
  8
YANE
 10
5592.2157497121871
 20
4661.8076642972019
 30
0.0
 11
5592.2157497121871
 21
4491.0468919885607
 31
0.0
  0
LINE
  5
1B666
  8
YANE
 10
5575.5657497121856
 20
4491.0468919885607
 30
0.0
 11
5575.5657497121856
 21
4661.8076642972019
 31
0.0
  0
LINE
  5
1B667
  8
YANE
 10
5636.1819690498569
 20
4661.8076642972019
 30
0.0
 11
5636.1819690498569
 21
4491.0468919885607
 31
0.0
  0
LINE
  5
1B668
  8
YANE
 10
5752.8319690498547
 20
4491.0468919885607
 30
0.0
 11
5752.8319690498547
 21
4661.8076642972019
 31
0.0
  0
LINE
  5
1B669
  8
YANE
 10
5725.5157497121891
 20
4661.8076642972019
 30
0.0
 11
5725.5157497121891
 21
4491.0468919885607
 31
0.0
  0
LINE
  5
1B66A
  8
YANE
 10
5708.8657497121858
 20
4491.0468919885607
 30
0.0
 11
5708.8657497121858
 21
4661.8076642972019
 31
0.0
  0
LINE
  5
1B66B
  8
YANE
 10
5769.4819690498571
 20
4661.8076642972019
 30
0.0
 11
5769.4819690498571
 21
4491.0468919885607
 31
0.0
  0
LINE
  5
1B66C
  8
YANE
 10
5902.7819690498582
 20
4661.8076642972019
 30
0.0
 11
5902.7819690498582
 21
4491.0468919885607
 31
0.0
  0
LINE
  5
1B66D
  8
YANE
 10
5842.1657497121869
 20
4491.0468919885607
 30
0.0
 11
5842.1657497121869
 21
4661.8076642972019
 31
0.0
  0
LINE
  5
1B66E
  8
YANE
 10
5858.8157497121892
 20
4661.8076642972019
 30
0.0
 11
5858.8157497121892
 21
4491.0468919885607
 31
0.0
  0
LINE
  5
1B66F
  8
YANE
 10
5886.1319690498531
 20
4491.0468919885607
 30
0.0
 11
5886.1319690498531
 21
4661.8076642972019
 31
0.0
  0
LINE
  5
1B670
  8
YANE
 10
6036.0819690498556
 20
4661.8076642972019
 30
0.0
 11
6036.0819690498556
 21
4491.0468919885607
 31
0.0
  0
LINE
  5
1B671
  8
YANE
 10
5975.4657497121889
 20
4491.0468919885607
 30
0.0
 11
5975.4657497121889
 21
4661.8076642972019
 31
0.0
  0
LINE
  5
1B672
  8
YANE
 10
5992.1157497121912
 20
4661.8076642972019
 30
0.0
 11
5992.1157497121912
 21
4491.0468919885607
 31
0.0
  0
LINE
  5
1B673
  8
YANE
 10
6019.431969049856
 20
4491.0468919885607
 30
0.0
 11
6019.431969049856
 21
4661.8076642972019
 31
0.0
  0
LINE
  5
1B674
  8
YANE
 10
6169.3819690498576
 20
4661.8076642972019
 30
0.0
 11
6169.3819690498576
 21
4491.0468919885607
 31
0.0
  0
LINE
  5
1B675
  8
YANE
 10
6108.7657497121872
 20
4491.0468919885607
 30
0.0
 11
6108.7657497121872
 21
4661.8076642972019
 31
0.0
  0
LINE
  5
1B676
  8
YANE
 10
6125.4157497121887
 20
4661.8076642972019
 30
0.0
 11
6125.4157497121887
 21
4491.0468919885607
 31
0.0
  0
LINE
  5
1B677
  8
YANE
 10
6152.7319690498534
 20
4491.0468919885607
 30
0.0
 11
6152.7319690498534
 21
4661.8076642972019
 31
0.0
  0
LINE
  5
1B678
  8
YANE
 10
6302.6819690498569
 20
4661.8076642972019
 30
0.0
 11
6302.6819690498569
 21
4491.0468919885607
 31
0.0
  0
LINE
  5
1B679
  8
YANE
 10
6242.0657497121856
 20
4491.0468919885607
 30
0.0
 11
6242.0657497121856
 21
4661.8076642972019
 31
0.0
  0
LINE
  5
1B67A
  8
YANE
 10
6258.7157497121871
 20
4661.8076642972019
 30
0.0
 11
6258.7157497121871
 21
4491.0468919885607
 31
0.0
  0
LINE
  5
1B67B
  8
YANE
 10
6286.0319690498563
 20
4491.0468919885607
 30
0.0
 11
6286.0319690498563
 21
4661.8076642972019
 31
0.0
  0
LINE
  5
1B67C
  8
YANE
 10
6435.9819690498571
 20
4661.8076642972019
 30
0.0
 11
6435.9819690498571
 21
4491.0468919885607
 31
0.0
  0
LINE
  5
1B67D
  8
YANE
 10
6375.3657497121867
 20
4491.0468919885607
 30
0.0
 11
6375.3657497121867
 21
4661.8076642972019
 31
0.0
  0
LINE
  5
1B67E
  8
YANE
 10
6392.0157497121891
 20
4661.8076642972019
 30
0.0
 11
6392.0157497121891
 21
4491.0468919885607
 31
0.0
  0
LINE
  5
1B67F
  8
YANE
 10
6419.3319690498556
 20
4491.0468919885607
 30
0.0
 11
6419.3319690498556
 21
4661.8076642972019
 31
0.0
  0
LINE
  5
1B680
  8
YANE
 10
6569.2819690498573
 20
4661.8076642972019
 30
0.0
 11
6569.2819690498573
 21
4491.0468919885607
 31
0.0
  0
LINE
  5
1B681
  8
YANE
 10
6508.6657497121878
 20
4491.0468919885607
 30
0.0
 11
6508.6657497121878
 21
4661.8076642972019
 31
0.0
  0
LINE
  5
1B682
  8
YANE
 10
6525.3157497121892
 20
4661.8076642972019
 30
0.0
 11
6525.3157497121892
 21
4491.0468919885607
 31
0.0
  0
LINE
  5
1B683
  8
YANE
 10
6552.6319690498549
 20
4491.0468919885607
 30
0.0
 11
6552.6319690498549
 21
4661.8076642972019
 31
0.0
  0
LINE
  5
1B684
  8
YANE
 10
6702.5819690498547
 20
4661.8076642972019
 30
0.0
 11
6702.5819690498547
 21
4491.0468919885607
 31
0.0
  0
LINE
  5
1B685
  8
YANE
 10
6641.965749712188
 20
4491.0468919885607
 30
0.0
 11
6641.965749712188
 21
4661.8076642972019
 31
0.0
  0
LINE
  5
1B686
  8
YANE
 10
6658.6157497121894
 20
4661.8076642972019
 30
0.0
 11
6658.6157497121894
 21
4491.0468919885607
 31
0.0
  0
LINE
  5
1B687
  8
YANE
 10
6685.9319690498551
 20
4491.0468919885607
 30
0.0
 11
6685.9319690498551
 21
4661.8076642972019
 31
0.0
  0
LINE
  5
1B688
  8
YANE
 10
6835.8819690498567
 20
4661.8076642972019
 30
0.0
 11
6835.8819690498567
 21
4491.0468919885607
 31
0.0
  0
LINE
  5
1B689
  8
YANE
 10
6775.2657497121863
 20
4491.0468919885607
 30
0.0
 11
6775.2657497121863
 21
4661.8076642972019
 31
0.0
  0
LINE
  5
1B68A
  8
YANE
 10
6791.915749712186
 20
4661.8076642972019
 30
0.0
 11
6791.915749712186
 21
4491.0468919885607
 31
0.0
  0
LINE
  5
1B68B
  8
YANE
 10
6819.2319690498553
 20
4491.0468919885607
 30
0.0
 11
6819.2319690498553
 21
4661.8076642972019
 31
0.0
  0
LINE
  5
1B68C
  8
YANE
 10
6969.1819690498569
 20
4661.8076642972019
 30
0.0
 11
6969.1819690498569
 21
4491.0468919885607
 31
0.0
  0
LINE
  5
1B68D
  8
YANE
 10
6908.5657497121874
 20
4491.0468919885607
 30
0.0
 11
6908.5657497121874
 21
4661.8076642972019
 31
0.0
  0
LINE
  5
1B68E
  8
YANE
 10
6925.2157497121907
 20
4661.8076642972019
 30
0.0
 11
6925.2157497121907
 21
4491.0468919885607
 31
0.0
  0
LINE
  5
1B68F
  8
YANE
 10
6952.5319690498563
 20
4491.0468919885607
 30
0.0
 11
6952.5319690498563
 21
4661.8076642972019
 31
0.0
  0
LINE
  5
1B690
  8
YANE
 10
7102.481969049858
 20
4661.8076642972019
 30
0.0
 11
7102.481969049858
 21
4491.0468919885607
 31
0.0
  0
LINE
  5
1B691
  8
YANE
 10
7041.8657497121876
 20
4491.0468919885607
 30
0.0
 11
7041.8657497121876
 21
4661.8076642972019
 31
0.0
  0
LINE
  5
1B692
  8
YANE
 10
7058.5157497121891
 20
4661.8076642972019
 30
0.0
 11
7058.5157497121891
 21
4491.0468919885607
 31
0.0
  0
LINE
  5
1B693
  8
YANE
 10
7085.8319690498556
 20
4491.0468919885607
 30
0.0
 11
7085.8319690498556
 21
4661.8076642972019
 31
0.0
  0
LINE
  5
1B694
  8
YANE
 10
7175.1657497121887
 20
4491.0468919885607
 30
0.0
 11
7175.1657497121887
 21
4661.8076642972019
 31
0.0
  0
LINE
  5
1B695
  8
YANE
 10
7191.8157497121911
 20
4661.8076642972019
 30
0.0
 11
7191.8157497121911
 21
4491.0468919885607
 31
0.0
  0
LINE
  5
1B696
  8
YANE
 10
7457.2157497121761
 20
4661.8076642972019
 30
0.0
 11
7457.2157497121761
 21
4491.0468919885607
 31
0.0
  0
LINE
  5
1B697
  8
YANE
 10
7440.5657497121774
 20
4491.0468919885607
 30
0.0
 11
7440.5657497121774
 21
4661.8076642972019
 31
0.0
  0
LINE
  5
1B698
  8
YANE
 10
7351.2319690498534
 20
4491.0468919885607
 30
0.0
 11
7351.2319690498534
 21
4661.8076642972019
 31
0.0
  0
LINE
  5
1B699
  8
YANE
 10
7323.9157497121778
 20
4661.8076642972019
 30
0.0
 11
7323.9157497121778
 21
4491.0468919885607
 31
0.0
  0
LINE
  5
1B69A
  8
YANE
 10
7307.2657497121763
 20
4491.0468919885607
 30
0.0
 11
7307.2657497121763
 21
4661.8076642972019
 31
0.0
  0
LINE
  5
1B69B
  8
YANE
 10
7367.8819690498558
 20
4661.8076642972019
 30
0.0
 11
7367.8819690498558
 21
4491.0468919885607
 31
0.0
  0
LINE
  5
1B69C
  8
KERABA
 10
4598.8738593810258
 20
4444.6397988408653
 30
0.0
 11
4592.873859381024
 21
4444.6397988408653
 31
0.0
  0
LINE
  5
1B69D
  8
KERABA
 10
4598.8738593810258
 20
4792.54679856853
 30
0.0
 11
4592.873859381024
 21
4792.54679856853
 31
0.0
  0
LINE
  5
1B69E
  8
KERABA
 10
7458.8738593810131
 20
4444.6397988408653
 30
0.0
 11
7464.8738593810158
 21
4444.6397988408653
 31
0.0
  0
LINE
  5
1B69F
  8
KERABA
 10
7458.8738593810131
 20
4792.54679856853
 30
0.0
 11
7464.8738593810158
 21
4792.54679856853
 31
0.0
  0
LINE
  5
1B6A0
  8
MOYA
 10
4863.6738593810242
 20
4661.8076642972064
 30
0.0
 11
7194.0738593810274
 21
4661.8076642972019
 31
0.0
  0
LINE
  5
1B6A1
  8
MOYA
 10
4863.6738593810242
 20
4703.7761062254513
 30
0.0
 11
7194.0738593810247
 21
4703.7761062254513
 31
0.0
  0
LINE
  5
1B6A2
  8
MOYA
 10
4863.6738593810242
 20
4736.5457773214612
 30
0.0
 11
7194.0738593810247
 21
4736.5457773214612
 31
0.0
  0
LINE
  5
1B6A3
  8
MOYA
 10
4861.373859381024
 20
4745.815801875141
 30
0.0
 11
7196.3738593810258
 21
4745.815801875141
 31
0.0
  0
LINE
  5
1B6A4
  8
MOYA
 10
4861.373859381024
 20
4778.5854759558451
 30
0.0
 11
7196.3738593810276
 21
4778.5854759558451
 31
0.0
  0
LINE
  5
1B6A5
  8
MOYA
 10
7261.373859381014
 20
4778.5854759558451
 30
0.0
 11
7458.8738593810131
 21
4778.5854759558451
 31
0.0
  0
LINE
  5
1B6A6
  8
MOYA
 10
7263.673859381016
 20
4661.8076642972019
 30
0.0
 11
7458.8738593810131
 21
4661.8076642972019
 31
0.0
  0
LINE
  5
1B6A7
  8
MOYA
 10
7263.673859381016
 20
4703.7761062254513
 30
0.0
 11
7458.8738593810131
 21
4703.7761062254513
 31
0.0
  0
LINE
  5
1B6A8
  8
MOYA
 10
7263.673859381016
 20
4736.5457773214621
 30
0.0
 11
7458.8738593810131
 21
4736.5457773214612
 31
0.0
  0
LINE
  5
1B6A9
  8
MOYA
 10
7261.373859381014
 20
4745.8158018751437
 30
0.0
 11
7458.8738593810131
 21
4745.8158018751437
 31
0.0
  0
LINE
  5
1B6AA
  8
MOYA
 10
4592.873859381024
 20
4736.5457773214621
 30
0.0
 11
4794.0738593810247
 21
4736.5457773214621
 31
0.0
  0
LINE
  5
1B6AB
  8
MOYA
 10
4592.873859381024
 20
4778.5854759558451
 30
0.0
 11
4796.3738593810258
 21
4778.5854759558451
 31
0.0
  0
LINE
  5
1B6AC
  8
MOYA
 10
4592.873859381024
 20
4661.8076642972019
 30
0.0
 11
4794.0738593810247
 21
4661.8076642972064
 31
0.0
  0
LINE
  5
1B6AD
  8
MOYA
 10
4592.873859381024
 20
4703.7761062254513
 30
0.0
 11
4794.0738593810247
 21
4703.7761062254513
 31
0.0
  0
LINE
  5
1B6AE
  8
MOYA
 10
4592.873859381024
 20
4745.815801875141
 30
0.0
 11
4796.373859381024
 21
4745.815801875141
 31
0.0
  0
LINE
  5
1B6AF
  8
MOYA
 10
4861.373859381024
 20
4787.8554975248326
 30
0.0
 11
7196.3738593810276
 21
4787.8554975248326
 31
0.0
  0
LINE
  5
1B6B0
  8
MOYA
 10
4592.873859381024
 20
4790.4641816830717
 30
0.0
 11
4592.873859381024
 21
4661.8076642972019
 31
0.0
  0
LINE
  5
1B6B1
  8
MOYA
 10
7261.373859381014
 20
4787.8554975248289
 30
0.0
 11
7458.8738593810131
 21
4787.8554975248289
 31
0.0
  0
LINE
  5
1B6B2
  8
MOYA
 10
7464.8738593810158
 20
4790.4641816830717
 30
0.0
 11
7464.8738593810158
 21
4661.8076642972019
 31
0.0
  0
LINE
  5
1B6B3
  8
MOYA
 10
4592.873859381024
 20
4787.8554975248326
 30
0.0
 11
4796.3738593810258
 21
4787.8554975248326
 31
0.0
  0
LINE
  5
1B6B4
  8
TOI
 10
4592.873859381024
 20
4430.6397988408671
 30
0.0
 11
4592.873859381024
 21
4491.0468919885607
 31
0.0
  0
LINE
  5
1B6B5
  8
TOI
 10
4794.0738593810247
 20
4491.0468919885607
 30
0.0
 11
4592.873859381024
 21
4491.0468919885607
 31
0.0
  0
LINE
  5
1B6B6
  8
TOI
 10
4794.0738593810247
 20
4463.8320957986207
 30
0.0
 11
4592.873859381024
 21
4463.8320957986207
 31
0.0
  0
LINE
  5
1B6B7
  8
TOI
 10
4796.373859381024
 20
4430.6397988408671
 30
0.0
 11
4592.873859381024
 21
4430.6397988408671
 31
0.0
  0
LINE
  5
1B6B8
  8
TOI
 10
4863.6738593810242
 20
4491.0468919885607
 30
0.0
 11
7194.0738593810283
 21
4491.0468919885607
 31
0.0
  0
LINE
  5
1B6B9
  8
TOI
 10
4863.6738593810242
 20
4463.8320957986207
 30
0.0
 11
7194.0738593810283
 21
4463.8320957986207
 31
0.0
  0
LINE
  5
1B6BA
  8
TOI
 10
4861.373859381024
 20
4430.6397988408671
 30
0.0
 11
7196.3738593810258
 21
4430.6397988408671
 31
0.0
  0
LINE
  5
1B6BB
  8
TOI
 10
7263.673859381016
 20
4463.8320957986207
 30
0.0
 11
7458.8738593810131
 21
4463.8320957986207
 31
0.0
  0
LINE
  5
1B6BC
  8
U2
 10
4796.373859381024
 20
4717.748876394191
 30
0.0
 11
4796.373859381024
 21
4675.5467985685309
 31
0.0
  0
LINE
  5
1B6BD
  8
U2
 10
4794.0738593810247
 20
4740.5467985685264
 30
0.0
 11
4794.0738593810247
 21
4675.5467985685355
 31
0.0
  0
LINE
  5
1B6BE
  8
U2
 10
4794.0738593810247
 20
4675.5467985685355
 30
0.0
 11
4796.3738593810267
 21
4675.5467985685355
 31
0.0
  0
LINE
  5
1B6BF
  8
U2
 10
4861.373859381024
 20
4717.748876394191
 30
0.0
 11
4861.373859381024
 21
4675.5467985685355
 31
0.0
  0
LINE
  5
1B6C0
  8
U2
 10
4863.6738593810242
 20
4740.5467985685264
 30
0.0
 11
4863.6738593810242
 21
4675.5467985685355
 31
0.0
  0
LINE
  5
1B6C1
  8
U2
 10
4863.6738593810242
 20
4675.5467985685355
 30
0.0
 11
4861.3738593810212
 21
4675.5467985685355
 31
0.0
  0
LINE
  5
1B6C2
  8
U2
 10
4861.373859381024
 20
4740.5467985685264
 30
0.0
 11
4863.6738593810242
 21
4740.5467985685264
 31
0.0
  0
LINE
  5
1B6C3
  8
1PL-S1
 10
4855.3738593810176
 20
4711.5467985685291
 30
0.0
 11
4869.673859381016
 21
4711.5467985685291
 31
0.0
  0
LINE
  5
1B6C4
  8
U2
 10
4796.373859381024
 20
4740.5467985685264
 30
0.0
 11
4794.0738593810247
 21
4740.5467985685264
 31
0.0
  0
LINE
  5
1B6C5
  8
1PL-S1
 10
4802.3738593810322
 20
4711.5467985685291
 30
0.0
 11
4788.0738593810311
 21
4711.5467985685291
 31
0.0
  0
LINE
  5
1B6C6
  8
U2
 10
4798.1933373503516
 20
4790.4641816830717
 30
0.0
 11
4861.373859381024
 21
4717.748876394191
 31
0.0
  0
LINE
  5
1B6C7
  8
U2
 10
4796.373859381024
 20
4717.748876394191
 30
0.0
 11
4859.5543814116991
 21
4790.4641816830717
 31
0.0
  0
LINE
  5
1B6C8
  8
U2
 10
7196.3738593810258
 20
4717.748876394191
 30
0.0
 11
7196.3738593810258
 21
4675.5467985685309
 31
0.0
  0
LINE
  5
1B6C9
  8
U2
 10
7194.0738593810247
 20
4740.5467985685264
 30
0.0
 11
7194.0738593810247
 21
4675.5467985685355
 31
0.0
  0
LINE
  5
1B6CA
  8
U2
 10
7194.0738593810247
 20
4675.5467985685355
 30
0.0
 11
7196.3738593810294
 21
4675.5467985685355
 31
0.0
  0
LINE
  5
1B6CB
  8
U2
 10
7261.3738593810249
 20
4717.748876394191
 30
0.0
 11
7261.3738593810249
 21
4675.5467985685355
 31
0.0
  0
LINE
  5
1B6CC
  8
U2
 10
7263.6738593810251
 20
4740.5467985685264
 30
0.0
 11
7263.6738593810251
 21
4675.5467985685355
 31
0.0
  0
LINE
  5
1B6CD
  8
U2
 10
7263.6738593810251
 20
4675.5467985685355
 30
0.0
 11
7261.3738593810212
 21
4675.5467985685355
 31
0.0
  0
LINE
  5
1B6CE
  8
U2
 10
7261.3738593810249
 20
4740.5467985685264
 30
0.0
 11
7263.6738593810251
 21
4740.5467985685264
 31
0.0
  0
LINE
  5
1B6CF
  8
1PL-S1
 10
7255.3738593810176
 20
4711.5467985685291
 30
0.0
 11
7269.6738593810178
 21
4711.5467985685291
 31
0.0
  0
LINE
  5
1B6D0
  8
U2
 10
7196.3738593810258
 20
4740.5467985685264
 30
0.0
 11
7194.0738593810247
 21
4740.5467985685264
 31
0.0
  0
LINE
  5
1B6D1
  8
1PL-S1
 10
7202.3738593810303
 20
4711.5467985685291
 30
0.0
 11
7188.0738593810311
 21
4711.5467985685291
 31
0.0
  0
LINE
  5
1B6D2
  8
U2
 10
7198.1933373503516
 20
4790.4641816830717
 30
0.0
 11
7261.3738593810249
 21
4717.748876394191
 31
0.0
  0
LINE
  5
1B6D3
  8
U2
 10
7196.3738593810258
 20
4717.748876394191
 30
0.0
 11
7259.5543814117
 21
4790.4641816830717
 31
0.0
  0
LINE
  5
1B6D4
  8
TOI
 10
7261.373859381014
 20
4430.6397988408671
 30
0.0
 11
7464.8738593810158
 21
4430.6397988408671
 31
0.0
  0
LINE
  5
1B6D5
  8
TOI
 10
7263.673859381016
 20
4491.0468919885607
 30
0.0
 11
7458.8738593810131
 21
4491.0468919885607
 31
0.0
  0
LINE
  5
1B6D6
  8
TOI
 10
7464.8738593810158
 20
4430.6397988408671
 30
0.0
 11
7464.8738593810158
 21
4491.0468919885607
 31
0.0
  0
LINE
  5
1B6D7
  8
HANAKAKUSHI
 10
4592.873859381024
 20
4892.54679856853
 30
0.0
 11
4592.873859381024
 21
4790.4641816830726
 31
0.0
  0
LINE
  5
1B6D8
  8
HANAKAKUSHI
 10
7464.8738593810158
 20
4892.54679856853
 30
0.0
 11
7464.8738593810158
 21
4790.4641816830717
 31
0.0
  0
LINE
  5
1B6D9
  8
HANAKAKUSHI
 10
4592.873859381024
 20
4790.4641816830717
 30
0.0
 11
7464.873859381014
 21
4790.4641816830717
 31
0.0
  0
LINE
  5
1B6DA
  8
HANAKAKUSHI
 10
4592.873859381024
 20
4892.54679856853
 30
0.0
 11
7464.873859381014
 21
4892.54679856853
 31
0.0
  0
LINE
  5
1B6DB
  8
1PL-S1
 10
4855.373859381024
 20
4608.8291780574291
 30
0.0
 11
4869.6738593810223
 21
4608.8291780574291
 31
0.0
  0
LINE
  5
1B6DC
  8
U1
 10
4863.6738593810242
 20
4667.0327886260147
 30
0.0
 11
4861.373859381024
 21
4667.0327886260138
 31
0.0
  0
LINE
  5
1B6DD
  8
1PL-S1
 10
4855.3738593810203
 20
4617.4545641655541
 30
0.0
 11
4869.6738593810223
 21
4617.4545641655541
 31
0.0
  0
LINE
  5
1B6DE
  8
1PL-S1
 10
4855.3738593810203
 20
4625.8954888309936
 30
0.0
 11
4869.6738593810223
 21
4625.8954888309936
 31
0.0
  0
LINE
  5
1B6DF
  8
U1
 10
4794.0738593810247
 20
4667.0327886260147
 30
0.0
 11
4796.3738593810258
 21
4667.0327886260138
 31
0.0
  0
LINE
  5
1B6E0
  8
1PL-S1
 10
4802.3738593810313
 20
4625.8954888309936
 30
0.0
 11
4788.0738593810293
 21
4625.8954888309936
 31
0.0
  0
LINE
  5
1B6E1
  8
1PL-S1
 10
4802.3738593810313
 20
4617.4545641655541
 30
0.0
 11
4788.0738593810293
 21
4617.4545641655541
 31
0.0
  0
LINE
  5
1B6E2
  8
1PL-S1
 10
4802.3738593810258
 20
4608.8291780574291
 30
0.0
 11
4788.0738593810283
 21
4608.8291780574291
 31
0.0
  0
LINE
  5
1B6E3
  8
1PL-S1
 10
4855.373859381024
 20
4465.5467985685309
 30
0.0
 11
4869.6738593810223
 21
4465.5467985685309
 31
0.0
  0
LINE
  5
1B6E4
  8
1PL-S1
 10
4855.373859381024
 20
4535.5467985685327
 30
0.0
 11
4869.6738593810223
 21
4535.5467985685327
 31
0.0
  0
LINE
  5
1B6E5
  8
U1
 10
4861.373859381024
 20
4435.5467985685327
 30
0.0
 11
4863.6738593810242
 21
4435.5467985685327
 31
0.0
  0
LINE
  5
1B6E6
  8
U1
 10
4796.3738593810258
 20
4435.5467985685327
 30
0.0
 11
4794.0738593810247
 21
4435.5467985685327
 31
0.0
  0
LINE
  5
1B6E7
  8
1PL-S1
 10
4802.3738593810258
 20
4535.5467985685327
 30
0.0
 11
4788.0738593810283
 21
4535.5467985685327
 31
0.0
  0
LINE
  5
1B6E8
  8
1PL-S1
 10
4802.3738593810258
 20
4465.5467985685309
 30
0.0
 11
4788.0738593810283
 21
4465.5467985685309
 31
0.0
  0
LINE
  5
1B6E9
  8
U1
 10
4863.6738593810242
 20
4667.0327886260147
 30
0.0
 11
4863.6738593810242
 21
4435.5467985685327
 31
0.0
  0
LINE
  5
1B6EA
  8
U1
 10
4794.0738593810247
 20
4667.0327886260147
 30
0.0
 11
4794.0738593810247
 21
4435.5467985685327
 31
0.0
  0
LINE
  5
1B6EB
  8
U1
 10
7194.0738593810283
 20
4667.0327886260147
 30
0.0
 11
7196.3738593810276
 21
4667.0327886260138
 31
0.0
  0
LINE
  5
1B6EC
  8
1PL-S1
 10
7202.3738593810303
 20
4625.8954888309936
 30
0.0
 11
7188.0738593810311
 21
4625.8954888309936
 31
0.0
  0
LINE
  5
1B6ED
  8
1PL-S1
 10
7202.3738593810303
 20
4617.4545641655541
 30
0.0
 11
7188.0738593810311
 21
4617.4545641655541
 31
0.0
  0
LINE
  5
1B6EE
  8
1PL-S1
 10
7202.3738593810258
 20
4608.8291780574291
 30
0.0
 11
7188.0738593810256
 21
4608.8291780574291
 31
0.0
  0
LINE
  5
1B6EF
  8
U1
 10
7196.3738593810276
 20
4435.5467985685327
 30
0.0
 11
7194.0738593810283
 21
4435.5467985685327
 31
0.0
  0
LINE
  5
1B6F0
  8
1PL-S1
 10
7202.3738593810258
 20
4535.5467985685327
 30
0.0
 11
7188.0738593810256
 21
4535.5467985685327
 31
0.0
  0
LINE
  5
1B6F1
  8
1PL-S1
 10
7202.3738593810258
 20
4465.5467985685309
 30
0.0
 11
7188.0738593810256
 21
4465.5467985685309
 31
0.0
  0
LINE
  5
1B6F2
  8
U1
 10
7194.0738593810283
 20
4667.0327886260147
 30
0.0
 11
7194.0738593810283
 21
4435.5467985685327
 31
0.0
  0
LINE
  5
1B6F3
  8
U1
 10
7196.3738593810276
 20
4435.5467985685327
 30
0.0
 11
7194.0738593810283
 21
4435.5467985685327
 31
0.0
  0
LINE
  5
1B6F4
  8
1PL-S1
 10
7255.3738593810158
 20
4625.8954888309936
 30
0.0
 11
7269.6738593810178
 21
4625.8954888309936
 31
0.0
  0
LINE
  5
1B6F5
  8
1PL-S1
 10
7255.3738593810158
 20
4617.4545641655541
 30
0.0
 11
7269.6738593810178
 21
4617.4545641655541
 31
0.0
  0
LINE
  5
1B6F6
  8
U1
 10
7263.673859381016
 20
4667.0327886260147
 30
0.0
 11
7261.373859381014
 21
4667.0327886260138
 31
0.0
  0
LINE
  5
1B6F7
  8
U1
 10
7263.673859381016
 20
4667.0327886260147
 30
0.0
 11
7263.673859381016
 21
4435.5467985685327
 31
0.0
  0
LINE
  5
1B6F8
  8
U1
 10
7261.373859381014
 20
4435.5467985685327
 30
0.0
 11
7263.673859381016
 21
4435.5467985685327
 31
0.0
  0
LINE
  5
1B6F9
  8
1PL-S1
 10
7255.3738593810158
 20
4608.8291780574291
 30
0.0
 11
7269.6738593810178
 21
4608.8291780574291
 31
0.0
  0
LINE
  5
1B6FA
  8
1PL-S1
 10
7255.3738593810158
 20
4535.5467985685327
 30
0.0
 11
7269.6738593810178
 21
4535.5467985685327
 31
0.0
  0
LINE
  5
1B6FB
  8
1PL-S1
 10
7255.3738593810158
 20
4465.5467985685309
 30
0.0
 11
7269.6738593810178
 21
4465.5467985685309
 31
0.0
  0
LINE
  5
1B6FC
  8
GAKU_FUCHI
 10
7171.3738593810258
 20
3594.5467985685309
 30
0.0
 11
7171.3738593810258
 21
2952.5467985685318
 31
0.0
  0
LINE
  5
1B6FD
  8
U1
 10
4886.3738593810231
 20
3376.7467985685312
 30
0.0
 11
6003.873859381024
 21
3376.7467985685312
 31
0.0
  0
LINE
  5
1B6FE
  8
U1
 10
4886.3738593810231
 20
3368.3467985685311
 30
0.0
 11
6003.873859381024
 21
3368.3467985685311
 31
0.0
  0
LINE
  5
1B6FF
  8
U1
 10
4886.3738593810231
 20
3168.3467985685302
 30
0.0
 11
6003.873859381024
 21
3168.3467985685302
 31
0.0
  0
LINE
  5
1B700
  8
U1
 10
4886.3738593810231
 20
3176.7467985685298
 30
0.0
 11
6003.873859381024
 21
3176.7467985685298
 31
0.0
  0
LINE
  5
1B701
  8
MABASHIRA
 10
6003.873859381024
 20
2952.5467985685318
 30
0.0
 11
6003.873859381024
 21
3594.5467985685309
 31
0.0
  0
LINE
  5
1B702
  8
MABASHIRA
 10
6053.873859381024
 20
2952.5467985685318
 30
0.0
 11
6053.873859381024
 21
3594.5467985685309
 31
0.0
  0
LINE
  5
1B703
  8
GAKU_FUCHI
 10
4886.3738593810258
 20
3594.5467985685309
 30
0.0
 11
4886.3738593810258
 21
2952.5467985685318
 31
0.0
  0
LINE
  5
1B704
  8
DOU_BUCHI
 10
4861.373859381024
 20
3664.54679856853
 30
0.0
 11
7196.3738593810258
 21
3664.54679856853
 31
0.0
  0
LINE
  5
1B705
  8
DOU_BUCHI
 10
4861.3738593810231
 20
3594.5467985685309
 30
0.0
 11
7196.3738593810258
 21
3594.5467985685309
 31
0.0
  0
LINE
  5
1B706
  8
DOU_BUCHI
 10
4861.3738593810231
 20
2882.5467985685318
 30
0.0
 11
7196.3738593810258
 21
2882.5467985685318
 31
0.0
  0
LINE
  5
1B707
  8
DOU_BUCHI
 10
4861.3738593810231
 20
2952.5467985685318
 30
0.0
 11
7196.3738593810258
 21
2952.5467985685318
 31
0.0
  0
LINE
  5
1B708
  8
U1
 10
6053.873859381024
 20
3376.7467985685312
 30
0.0
 11
7171.3738593810258
 21
3376.7467985685312
 31
0.0
  0
LINE
  5
1B709
  8
U1
 10
6053.873859381024
 20
3368.3467985685311
 30
0.0
 11
7171.3738593810258
 21
3368.3467985685311
 31
0.0
  0
LINE
  5
1B70A
  8
U1
 10
6053.873859381024
 20
3168.3467985685302
 30
0.0
 11
7171.3738593810258
 21
3168.3467985685302
 31
0.0
  0
LINE
  5
1B70B
  8
U1
 10
6053.873859381024
 20
3176.7467985685298
 30
0.0
 11
7171.3738593810258
 21
3176.7467985685298
 31
0.0
  0
LINE
  5
1B70C
  8
U1
 10
4796.373859381024
 20
2719.5467985685318
 30
0.0
 11
4796.373859381024
 21
4675.5467985685309
 31
0.0
  0
LINE
  5
1B70D
  8
U1
 10
4861.3738593810222
 20
2719.5467985685318
 30
0.0
 11
4861.373859381024
 21
4675.5467985685309
 31
0.0
  0
LINE
  5
1B70E
  8
U1
 10
4796.373859381024
 20
4675.5467985685309
 30
0.0
 11
4861.373859381024
 21
4675.5467985685355
 31
0.0
  0
LINE
  5
1B70F
  8
U1
 10
7196.3738593810258
 20
2719.5467985685318
 30
0.0
 11
7196.3738593810258
 21
4675.5467985685309
 31
0.0
  0
LINE
  5
1B710
  8
U1
 10
7261.3738593810231
 20
2719.5467985685318
 30
0.0
 11
7261.3738593810249
 21
4675.5467985685309
 31
0.0
  0
LINE
  5
1B711
  8
U1
 10
7196.3738593810258
 20
4675.5467985685309
 30
0.0
 11
7261.3738593810249
 21
4675.5467985685355
 31
0.0
  0
LINE
  5
1B712
  8
1PL-L1
 10
4828.873859381024
 20
2719.5467985685318
 30
0.0
 11
4828.873859381024
 21
5314.5463562856476
 31
0.0
  0
LINE
  5
1B713
  8
1PL-L1
 10
7228.8738593810258
 20
2719.5467985685318
 30
0.0
 11
7228.8738593810258
 21
5314.5463562856476
 31
0.0
  0
LINE
  5
1B714
  8
KISO
 10
4235.8368149084654
 20
2669.5467985685332
 30
0.0
 11
7766.4994172085599
 21
2669.5467985685332
 31
0.0
  0
LINE
  5
1B715
  8
KISO
 10
4428.873859381024
 20
2719.5467985685318
 30
0.0
 11
4428.873859381024
 21
2669.5467985685332
 31
0.0
  0
LINE
  5
1B716
  8
KISO
 10
7628.8738593810267
 20
2719.5467985685318
 30
0.0
 11
7628.8738593810267
 21
2669.5467985685332
 31
0.0
  0
TEXT
  5
1B717
  8
SUNPOU
 10
6250.3738593810203
 20
7816.757813420958
 30
0.0
 40
90.0
  1
屋根ピッチ
 41
0.7
  7
01
 72
     4
 11
6428.8738593810194
 21
7861.7578134209571
 31
0.0
  0
TEXT
  5
1B718
  8
SUNPOU
 10
5943.1595736667332
 20
7666.7578134209562
 30
0.0
 40
90.0
  1
400
 41
0.6666666666666666
  7
00
 72
     1
 11
6028.8738593810176
 21
7711.7578134209562
 31
0.0
 73
     2
  0
LINE
  5
1B719
  8
SUNPOU
 10
6213.8738593810203
 20
7621.7578134209571
 30
0.0
 11
5843.8738593810203
 21
7621.7578134209571
 31
0.0
  0
LINE
  5
1B71A
  8
SUNPOU
 10
5828.8738593810222
 20
8101.757813420958
 30
0.0
 11
5828.8738593810194
 21
7576.7578134209571
 31
0.0
  0
LINE
  5
1B71B
  8
SUNPOU
 10
6228.8738593810194
 20
8101.757813420958
 30
0.0
 11
6228.8738593810194
 21
7576.7578134209571
 31
0.0
  0
TEXT
  5
1B71C
  8
SUNPOU
 10
6343.1595736667341
 20
7666.7578134209562
 30
0.0
 40
90.0
  1
400
 41
0.6666666666666666
  7
00
 72
     1
 11
6428.8738593810194
 21
7711.7578134209562
 31
0.0
 73
     2
  0
LINE
  5
1B71D
  8
SUNPOU
 10
6613.8738593810194
 20
7621.7578134209571
 30
0.0
 11
6243.8738593810194
 21
7621.7578134209571
 31
0.0
  0
LINE
  5
1B71E
  8
SUNPOU
 10
6628.8738593810212
 20
8101.757813420958
 30
0.0
 11
6628.8738593810212
 21
7576.7578134209571
 31
0.0
  0
TEXT
  5
1B71F
  8
SUNPOU
 10
6743.1595736667341
 20
7666.7578134209562
 30
0.0
 40
90.0
  1
400
 41
0.6666666666666666
  7
00
 72
     1
 11
6828.8738593810176
 21
7711.7578134209562
 31
0.0
 73
     2
  0
LINE
  5
1B720
  8
SUNPOU
 10
7013.8738593810158
 20
7621.7578134209571
 30
0.0
 11
6643.8738593810203
 21
7621.7578134209571
 31
0.0
  0
LINE
  5
1B721
  8
SUNPOU
 10
7028.873859381014
 20
8101.757813420958
 30
0.0
 11
7028.873859381014
 21
7576.7578134209571
 31
0.0
  0
LINE
  5
1B722
  8
2PL-L2
 10
4592.8738593810158
 20
10540.75781342096
 30
0.0
 11
5118.08777999219
 21
10540.757813420951
 31
0.0
  0
LINE
  5
1B723
  8
2PL-L2
 10
4592.8738593810158
 20
8131.7578134209571
 30
0.0
 11
4592.8738593810158
 21
10540.75781342096
 31
0.0
  0
LINE
  5
1B724
  8
1PL-L1
 10
4828.8738593810194
 20
7621.6677514306848
 30
0.0
 11
4828.8738593810194
 21
10371.03745339208
 31
0.0
  0
LINE
  5
1B725
  8
TOI
 10
7464.8738593810194
 20
10519.26760135404
 30
0.0
 11
7464.8738593810194
 21
10540.75781342096
 31
0.0
  0
CIRCLE
  5
1B726
  8
TOI
 10
5828.8738593810194
 20
10522.62260972693
 30
0.0
 40
2.5
  0
CIRCLE
  5
1B727
  8
TOI
 10
5428.8738593810194
 20
10522.62260972693
 30
0.0
 40
2.5
  0
CIRCLE
  5
1B728
  8
YANE
 10
5828.8738593810194
 20
10136.75781342096
 30
0.0
 40
2.5
  0
CIRCLE
  5
1B729
  8
TOI
 10
7028.873859381014
 20
10522.62260972693
 30
0.0
 40
2.5
  0
CIRCLE
  5
1B72A
  8
TOI
 10
6628.8738593810212
 20
10522.62260972693
 30
0.0
 40
2.5
  0
CIRCLE
  5
1B72B
  8
TOI
 10
6228.8738593810194
 20
10522.62260972693
 30
0.0
 40
2.5
  0
CIRCLE
  5
1B72C
  8
YANE
 10
7028.873859381014
 20
10136.75781342096
 30
0.0
 40
2.5
  0
CIRCLE
  5
1B72D
  8
YANE
 10
6628.8738593810212
 20
10136.75781342096
 30
0.0
 40
2.5
  0
CIRCLE
  5
1B72E
  8
YANE
 10
6228.8738593810194
 20
10136.75781342096
 30
0.0
 40
2.5
  0
CIRCLE
  5
1B72F
  8
YANE
 10
7028.873859381014
 20
9546.757813420958
 30
0.0
 40
2.5
  0
CIRCLE
  5
1B730
  8
YANE
 10
6628.8738593810212
 20
9546.757813420958
 30
0.0
 40
2.5
  0
CIRCLE
  5
1B731
  8
YANE
 10
6228.8738593810194
 20
9546.757813420958
 30
0.0
 40
2.5
  0
CIRCLE
  5
1B732
  8
YANE
 10
7028.873859381014
 20
8956.7578134209543
 30
0.0
 40
2.5
  0
CIRCLE
  5
1B733
  8
YANE
 10
6628.8738593810212
 20
8956.7578134209543
 30
0.0
 40
2.5
  0
CIRCLE
  5
1B734
  8
YANE
 10
6228.8738593810194
 20
8956.7578134209543
 30
0.0
 40
2.5
  0
CIRCLE
  5
1B735
  8
YANE
 10
7028.873859381014
 20
8366.757813420958
 30
0.0
 40
2.5
  0
CIRCLE
  5
1B736
  8
YANE
 10
6628.8738593810212
 20
8366.757813420958
 30
0.0
 40
2.5
  0
CIRCLE
  5
1B737
  8
KERABA
 10
6628.8738593810131
 20
8192.7578134209598
 30
0.0
 40
2.5
  0
CIRCLE
  5
1B738
  8
KERABA
 10
7028.873859381014
 20
8192.7578134209598
 30
0.0
 40
2.5
  0
LINE
  5
1B739
  8
YANE
 10
6598.5657497121811
 20
8222.757813420958
 30
0.0
 11
6598.5657497121811
 21
10503.26760135404
 31
0.0
  0
LINE
  5
1B73A
  8
YANE
 10
6615.2157497121862
 20
8222.757813420958
 30
0.0
 11
6615.2157497121862
 21
10519.26760135404
 31
0.0
  0
LINE
  5
1B73B
  8
YANE
 10
6642.5319690498518
 20
8222.757813420958
 30
0.0
 11
6642.5319690498518
 21
10519.26760135404
 31
0.0
  0
LINE
  5
1B73C
  8
YANE
 10
6659.1819690498514
 20
8222.757813420958
 30
0.0
 11
6659.1819690498533
 21
10503.26760135404
 31
0.0
  0
LINE
  5
1B73D
  8
YANE
 10
6465.4657497121798
 20
8222.757813420958
 30
0.0
 11
6465.4657497121798
 21
10503.26760135404
 31
0.0
  0
LINE
  5
1B73E
  8
YANE
 10
6482.1157497121867
 20
8222.757813420958
 30
0.0
 11
6482.1157497121867
 21
10519.26760135404
 31
0.0
  0
LINE
  5
1B73F
  8
YANE
 10
6509.431969049856
 20
8222.757813420958
 30
0.0
 11
6509.4319690498523
 21
10519.26760135404
 31
0.0
  0
LINE
  5
1B740
  8
YANE
 10
6526.0819690498511
 20
8222.757813420958
 30
0.0
 11
6526.0819690498538
 21
10503.26760135404
 31
0.0
  0
LINE
  5
1B741
  8
YANE
 10
6332.1657497121851
 20
8222.757813420958
 30
0.0
 11
6332.1657497121814
 21
10503.26760135404
 31
0.0
  0
LINE
  5
1B742
  8
YANE
 10
6348.8157497121874
 20
8222.757813420958
 30
0.0
 11
6348.8157497121874
 21
10519.26760135404
 31
0.0
  0
LINE
  5
1B743
  8
YANE
 10
6376.1319690498594
 20
8222.757813420958
 30
0.0
 11
6376.1319690498594
 21
10519.26760135404
 31
0.0
  0
LINE
  5
1B744
  8
YANE
 10
6392.7819690498582
 20
8222.757813420958
 30
0.0
 11
6392.7819690498582
 21
10503.26760135404
 31
0.0
  0
LINE
  5
1B745
  8
YANE
 10
6198.865749712184
 20
8356.7588885071782
 30
0.0
 11
6198.865749712184
 21
10503.26760135404
 31
0.0
  0
LINE
  5
1B746
  8
YANE
 10
6215.5157497121882
 20
8323.1131415372911
 30
0.0
 11
6215.5157497121882
 21
10519.26760135404
 31
0.0
  0
LINE
  5
1B747
  8
YANE
 10
6242.8319690498538
 20
8267.9134656208553
 30
0.0
 11
6242.8319690498538
 21
10519.26760135404
 31
0.0
  0
LINE
  5
1B748
  8
YANE
 10
6259.481969049858
 20
8234.2677186509682
 30
0.0
 11
6259.481969049858
 21
10503.26760135404
 31
0.0
  0
LINE
  5
1B749
  8
YANE
 10
6065.5657497121847
 20
8626.1269408245553
 30
0.0
 11
6065.5657497121856
 21
10503.26760135404
 31
0.0
  0
LINE
  5
1B74A
  8
YANE
 10
6082.2157497121871
 20
8592.4811938546809
 30
0.0
 11
6082.2157497121871
 21
10519.26760135404
 31
0.0
  0
LINE
  5
1B74B
  8
YANE
 10
6109.5319690498536
 20
8537.2815179382342
 30
0.0
 11
6109.5319690498536
 21
10519.26760135404
 31
0.0
  0
LINE
  5
1B74C
  8
YANE
 10
6126.181969049856
 20
8503.6357709683543
 30
0.0
 11
6126.181969049856
 21
10503.26760135404
 31
0.0
  0
LINE
  5
1B74D
  8
YANE
 10
5932.26574971218
 20
8895.494993141936
 30
0.0
 11
5932.2657497121818
 21
10503.26760135404
 31
0.0
  0
LINE
  5
1B74E
  8
YANE
 10
5948.915749712186
 20
8861.8492461720616
 30
0.0
 11
5948.915749712186
 21
10519.26760135404
 31
0.0
  0
LINE
  5
1B74F
  8
YANE
 10
5976.2319690498534
 20
8806.6495702556167
 30
0.0
 11
5976.2319690498534
 21
10519.26760135404
 31
0.0
  0
LINE
  5
1B750
  8
YANE
 10
5992.8819690498531
 20
8773.0038232857387
 30
0.0
 11
5992.8819690498531
 21
10503.26760135404
 31
0.0
  0
LINE
  5
1B751
  8
YANE
 10
5798.9657497121816
 20
9164.8630454593258
 30
0.0
 11
5798.9657497121816
 21
10503.26760135404
 31
0.0
  0
LINE
  5
1B752
  8
YANE
 10
5815.6157497121858
 20
9131.2172984894387
 30
0.0
 11
5815.6157497121858
 21
10519.26760135404
 31
0.0
  0
LINE
  5
1B753
  8
YANE
 10
5842.9319690498587
 20
9076.017622572992
 30
0.0
 11
5842.931969049856
 21
10519.26760135404
 31
0.0
  0
LINE
  5
1B754
  8
YANE
 10
5859.5819690498547
 20
9042.3718756031194
 30
0.0
 11
5859.5819690498547
 21
10503.26760135404
 31
0.0
  0
LINE
  5
1B755
  8
YANE
 10
5665.665749712186
 20
9434.2310977766938
 30
0.0
 11
5665.665749712186
 21
10503.26760135404
 31
0.0
  0
LINE
  5
1B756
  8
YANE
 10
5682.3157497121883
 20
9400.5853508068139
 30
0.0
 11
5682.3157497121883
 21
10519.26760135404
 31
0.0
  0
LINE
  5
1B757
  8
YANE
 10
5709.6319690498576
 20
9345.3856748903727
 30
0.0
 11
5709.6319690498558
 21
10519.26760135404
 31
0.0
  0
LINE
  5
1B758
  8
YANE
 10
5726.2819690498582
 20
9311.7399279204928
 30
0.0
 11
5726.2819690498582
 21
10503.26760135404
 31
0.0
  0
LINE
  5
1B759
  8
YANE
 10
5532.3657497121867
 20
9703.5991500940781
 30
0.0
 11
5532.3657497121867
 21
10503.26760135404
 31
0.0
  0
LINE
  5
1B75A
  8
YANE
 10
5549.0157497121872
 20
9669.9534031242038
 30
0.0
 11
5549.0157497121872
 21
10519.26760135404
 31
0.0
  0
LINE
  5
1B75B
  8
YANE
 10
5576.3319690498538
 20
9614.7537272077625
 30
0.0
 11
5576.3319690498538
 21
10519.26760135404
 31
0.0
  0
LINE
  5
1B75C
  8
YANE
 10
5592.9819690498589
 20
9581.1079802378754
 30
0.0
 11
5592.9819690498589
 21
10503.26760135404
 31
0.0
  0
LINE
  5
1B75D
  8
YANE
 10
5399.0657497121847
 20
9972.9672024114589
 30
0.0
 11
5399.0657497121847
 21
10503.26760135404
 31
0.0
  0
LINE
  5
1B75E
  8
YANE
 10
5415.7157497121871
 20
9939.3214554415717
 30
0.0
 11
5415.7157497121898
 21
10519.26760135404
 31
0.0
  0
LINE
  5
1B75F
  8
YANE
 10
5443.0319690498582
 20
9884.121779525125
 30
0.0
 11
5443.0319690498582
 21
10519.26760135404
 31
0.0
  0
LINE
  5
1B760
  8
YANE
 10
5459.6819690498569
 20
9850.4760325552506
 30
0.0
 11
5459.6819690498569
 21
10503.26760135404
 31
0.0
  0
LINE
  5
1B761
  8
YANE
 10
5265.7657497121827
 20
10242.33525472884
 30
0.0
 11
5265.7657497121827
 21
10503.26760135404
 31
0.0
  0
LINE
  5
1B762
  8
YANE
 10
5282.4157497121923
 20
10208.689507758951
 30
0.0
 11
5282.4157497121887
 21
10519.26760135404
 31
0.0
  0
LINE
  5
1B763
  8
YANE
 10
5309.7319690498543
 20
10153.489831842509
 30
0.0
 11
5309.7319690498543
 21
10519.26760135404
 31
0.0
  0
LINE
  5
1B764
  8
YANE
 10
5326.3819690498576
 20
10119.84408487264
 30
0.0
 11
5326.3819690498576
 21
10503.26760135404
 31
0.0
  0
LINE
  5
1B765
  8
YANE
 10
5193.0819690498602
 20
10389.21213719001
 30
0.0
 11
5193.0819690498602
 21
10503.26760135404
 31
0.0
  0
LINE
  5
1B766
  8
YANE
 10
5176.4319690498569
 20
10422.857884159879
 30
0.0
 11
5176.4319690498578
 21
10519.26760135404
 31
0.0
  0
LINE
  5
1B767
  8
YANE
 10
5149.1157497121912
 20
10478.05756007633
 30
0.0
 11
5149.1157497121912
 21
10519.26760135404
 31
0.0
  0
LINE
  5
1B768
  8
YANE
 10
5149.1157497121912
 20
10519.26760135404
 30
0.0
 11
5135.2948842976693
 21
10505.986289244
 31
0.0
  0
LINE
  5
1B769
  8
YANE
 10
5176.4319690498578
 20
10519.26760135404
 30
0.0
 11
5149.1157497121912
 21
10519.26760135404
 31
0.0
  0
LINE
  5
1B76A
  8
YANE
 10
5193.0819690498602
 20
10503.26760135404
 30
0.0
 11
5176.4319690498578
 21
10519.26760135404
 31
0.0
  0
LINE
  5
1B76B
  8
YANE
 10
5265.7657497121872
 20
10503.26760135404
 30
0.0
 11
5193.0819690498602
 21
10503.26760135404
 31
0.0
  0
LINE
  5
1B76C
  8
YANE
 10
5282.4157497121887
 20
10519.26760135404
 30
0.0
 11
5265.7657497121872
 21
10503.26760135404
 31
0.0
  0
LINE
  5
1B76D
  8
YANE
 10
5309.7319690498543
 20
10519.26760135404
 30
0.0
 11
5282.4157497121887
 21
10519.26760135404
 31
0.0
  0
LINE
  5
1B76E
  8
YANE
 10
5326.3819690498576
 20
10503.26760135404
 30
0.0
 11
5309.7319690498543
 21
10519.26760135404
 31
0.0
  0
LINE
  5
1B76F
  8
YANE
 10
5399.0657497121847
 20
10503.26760135404
 30
0.0
 11
5326.3819690498576
 21
10503.26760135404
 31
0.0
  0
LINE
  5
1B770
  8
YANE
 10
5415.7157497121898
 20
10519.26760135404
 30
0.0
 11
5399.0657497121847
 21
10503.26760135404
 31
0.0
  0
LINE
  5
1B771
  8
YANE
 10
5443.0319690498582
 20
10519.26760135404
 30
0.0
 11
5415.7157497121898
 21
10519.26760135404
 31
0.0
  0
LINE
  5
1B772
  8
YANE
 10
5459.6819690498569
 20
10503.26760135404
 30
0.0
 11
5443.0319690498582
 21
10519.26760135404
 31
0.0
  0
LINE
  5
1B773
  8
YANE
 10
5532.3657497121867
 20
10503.26760135404
 30
0.0
 11
5459.6819690498569
 21
10503.26760135404
 31
0.0
  0
LINE
  5
1B774
  8
YANE
 10
5549.0157497121872
 20
10519.26760135404
 30
0.0
 11
5532.3657497121867
 21
10503.26760135404
 31
0.0
  0
LINE
  5
1B775
  8
YANE
 10
5576.3319690498538
 20
10519.26760135404
 30
0.0
 11
5549.0157497121872
 21
10519.26760135404
 31
0.0
  0
LINE
  5
1B776
  8
YANE
 10
5592.9819690498589
 20
10503.26760135404
 30
0.0
 11
5576.3319690498538
 21
10519.26760135404
 31
0.0
  0
LINE
  5
1B777
  8
YANE
 10
5665.665749712186
 20
10503.26760135404
 30
0.0
 11
5592.9819690498589
 21
10503.26760135404
 31
0.0
  0
LINE
  5
1B778
  8
YANE
 10
5682.3157497121883
 20
10519.26760135404
 30
0.0
 11
5665.665749712186
 21
10503.26760135404
 31
0.0
  0
LINE
  5
1B779
  8
YANE
 10
5709.6319690498576
 20
10519.26760135404
 30
0.0
 11
5682.3157497121883
 21
10519.26760135404
 31
0.0
  0
LINE
  5
1B77A
  8
YANE
 10
5726.28196904986
 20
10503.26760135404
 30
0.0
 11
5709.6319690498576
 21
10519.26760135404
 31
0.0
  0
LINE
  5
1B77B
  8
YANE
 10
5798.9657497121816
 20
10503.26760135404
 30
0.0
 11
5726.28196904986
 21
10503.26760135404
 31
0.0
  0
LINE
  5
1B77C
  8
YANE
 10
5815.6157497121858
 20
10519.26760135404
 30
0.0
 11
5798.9657497121816
 21
10503.26760135404
 31
0.0
  0
LINE
  5
1B77D
  8
YANE
 10
5842.931969049856
 20
10519.26760135404
 30
0.0
 11
5815.6157497121858
 21
10519.26760135404
 31
0.0
  0
LINE
  5
1B77E
  8
YANE
 10
5859.5819690498593
 20
10503.26760135404
 30
0.0
 11
5842.931969049856
 21
10519.26760135404
 31
0.0
  0
LINE
  5
1B77F
  8
YANE
 10
5932.2657497121863
 20
10503.26760135404
 30
0.0
 11
5859.5819690498593
 21
10503.26760135404
 31
0.0
  0
LINE
  5
1B780
  8
YANE
 10
5948.9157497121814
 20
10519.26760135404
 30
0.0
 11
5932.2657497121863
 21
10503.26760135404
 31
0.0
  0
LINE
  5
1B781
  8
YANE
 10
5976.2319690498534
 20
10519.26760135404
 30
0.0
 11
5948.9157497121814
 21
10519.26760135404
 31
0.0
  0
LINE
  5
1B782
  8
YANE
 10
5992.8819690498576
 20
10503.26760135404
 30
0.0
 11
5976.2319690498534
 21
10519.26760135404
 31
0.0
  0
LINE
  5
1B783
  8
YANE
 10
6065.5657497121811
 20
10503.26760135404
 30
0.0
 11
5992.8819690498576
 21
10503.26760135404
 31
0.0
  0
LINE
  5
1B784
  8
YANE
 10
6082.2157497121871
 20
10519.26760135404
 30
0.0
 11
6065.5657497121811
 21
10503.26760135404
 31
0.0
  0
LINE
  5
1B785
  8
YANE
 10
6109.5319690498536
 20
10519.26760135404
 30
0.0
 11
6082.2157497121871
 21
10519.26760135404
 31
0.0
  0
LINE
  5
1B786
  8
YANE
 10
6126.181969049856
 20
10503.26760135404
 30
0.0
 11
6109.5319690498536
 21
10519.26760135404
 31
0.0
  0
LINE
  5
1B787
  8
YANE
 10
6198.8657497121867
 20
10503.26760135404
 30
0.0
 11
6126.181969049856
 21
10503.26760135404
 31
0.0
  0
LINE
  5
1B788
  8
YANE
 10
6215.5157497121882
 20
10519.26760135404
 30
0.0
 11
6198.8657497121867
 21
10503.26760135404
 31
0.0
  0
LINE
  5
1B789
  8
YANE
 10
6242.8319690498538
 20
10519.26760135404
 30
0.0
 11
6215.5157497121882
 21
10519.26760135404
 31
0.0
  0
LINE
  5
1B78A
  8
YANE
 10
6259.481969049858
 20
10503.26760135404
 30
0.0
 11
6242.8319690498538
 21
10519.26760135404
 31
0.0
  0
LINE
  5
1B78B
  8
YANE
 10
6332.1657497121851
 20
10503.26760135404
 30
0.0
 11
6259.481969049858
 21
10503.26760135404
 31
0.0
  0
LINE
  5
1B78C
  8
YANE
 10
6348.8157497121874
 20
10519.26760135404
 30
0.0
 11
6332.1657497121851
 21
10503.26760135404
 31
0.0
  0
LINE
  5
1B78D
  8
YANE
 10
6376.1319690498594
 20
10519.26760135404
 30
0.0
 11
6348.8157497121874
 21
10519.26760135404
 31
0.0
  0
LINE
  5
1B78E
  8
YANE
 10
6392.7819690498582
 20
10503.26760135404
 30
0.0
 11
6376.1319690498594
 21
10519.26760135404
 31
0.0
  0
LINE
  5
1B78F
  8
YANE
 10
6465.4657497121862
 20
10503.26760135404
 30
0.0
 11
6392.7819690498582
 21
10503.26760135404
 31
0.0
  0
LINE
  5
1B790
  8
YANE
 10
6482.1157497121849
 20
10519.26760135404
 30
0.0
 11
6465.4657497121862
 21
10503.26760135404
 31
0.0
  0
LINE
  5
1B791
  8
YANE
 10
6509.431969049856
 20
10519.26760135404
 30
0.0
 11
6482.1157497121849
 21
10519.26760135404
 31
0.0
  0
LINE
  5
1B792
  8
YANE
 10
6526.0819690498583
 20
10503.26760135404
 30
0.0
 11
6509.431969049856
 21
10519.26760135404
 31
0.0
  0
LINE
  5
1B793
  8
YANE
 10
6598.7657497121827
 20
10503.26760135404
 30
0.0
 11
6526.0819690498583
 21
10503.26760135404
 31
0.0
  0
LINE
  5
1B794
  8
YANE
 10
6615.415749712186
 20
10519.26760135404
 30
0.0
 11
6598.7657497121827
 21
10503.26760135404
 31
0.0
  0
LINE
  5
1B795
  8
YANE
 10
6642.7319690498543
 20
10519.26760135404
 30
0.0
 11
6615.415749712186
 21
10519.26760135404
 31
0.0
  0
LINE
  5
1B796
  8
YANE
 10
6659.3819690498594
 20
10503.26760135404
 30
0.0
 11
6642.7319690498543
 21
10519.26760135404
 31
0.0
  0
LINE
  5
1B797
  8
YANE
 10
6732.0657497121811
 20
10503.26760135404
 30
0.0
 11
6659.3819690498594
 21
10503.26760135404
 31
0.0
  0
LINE
  5
1B798
  8
YANE
 10
6748.7157497121889
 20
10519.26760135404
 30
0.0
 11
6732.0657497121811
 21
10503.26760135404
 31
0.0
  0
LINE
  5
1B799
  8
YANE
 10
6776.0319690498563
 20
10519.26760135404
 30
0.0
 11
6748.7157497121889
 21
10519.26760135404
 31
0.0
  0
LINE
  5
1B79A
  8
YANE
 10
6792.681969049856
 20
10503.26760135404
 30
0.0
 11
6776.0319690498563
 21
10519.26760135404
 31
0.0
  0
LINE
  5
1B79B
  8
YANE
 10
6865.3657497121876
 20
10503.26760135404
 30
0.0
 11
6792.681969049856
 21
10503.26760135404
 31
0.0
  0
LINE
  5
1B79C
  8
YANE
 10
6882.0157497121872
 20
10519.26760135404
 30
0.0
 11
6865.3657497121876
 21
10503.26760135404
 31
0.0
  0
LINE
  5
1B79D
  8
YANE
 10
6909.3319690498547
 20
10519.26760135404
 30
0.0
 11
6882.0157497121872
 21
10519.26760135404
 31
0.0
  0
LINE
  5
1B79E
  8
YANE
 10
6925.9819690498562
 20
10503.26760135404
 30
0.0
 11
6909.3319690498547
 21
10519.26760135404
 31
0.0
  0
LINE
  5
1B79F
  8
YANE
 10
6998.6657497121878
 20
10503.26760135404
 30
0.0
 11
6925.9819690498562
 21
10503.26760135404
 31
0.0
  0
LINE
  5
1B7A0
  8
YANE
 10
7015.3157497121856
 20
10519.26760135404
 30
0.0
 11
6998.6657497121878
 21
10503.26760135404
 31
0.0
  0
LINE
  5
1B7A1
  8
YANE
 10
7042.6319690498531
 20
10519.26760135404
 30
0.0
 11
7015.3157497121856
 21
10519.26760135404
 31
0.0
  0
LINE
  5
1B7A2
  8
YANE
 10
7059.28196904986
 20
10503.26760135404
 30
0.0
 11
7042.6319690498531
 21
10519.26760135404
 31
0.0
  0
LINE
  5
1B7A3
  8
YANE
 10
7131.9657497121834
 20
10503.26760135404
 30
0.0
 11
7059.28196904986
 21
10503.26760135404
 31
0.0
  0
LINE
  5
1B7A4
  8
YANE
 10
7148.615749712184
 20
10519.26760135404
 30
0.0
 11
7131.9657497121834
 21
10503.26760135404
 31
0.0
  0
LINE
  5
1B7A5
  8
YANE
 10
7175.9319690498551
 20
10519.26760135404
 30
0.0
 11
7148.615749712184
 21
10519.26760135404
 31
0.0
  0
LINE
  5
1B7A6
  8
YANE
 10
7192.5819690498583
 20
10503.26760135404
 30
0.0
 11
7175.9319690498551
 21
10519.26760135404
 31
0.0
  0
LINE
  5
1B7A7
  8
YANE
 10
7265.2657497121818
 20
10503.26760135404
 30
0.0
 11
7192.5819690498583
 21
10503.26760135404
 31
0.0
  0
LINE
  5
1B7A8
  8
YANE
 10
7281.9157497121823
 20
10519.26760135404
 30
0.0
 11
7265.2657497121818
 21
10503.26760135404
 31
0.0
  0
LINE
  5
1B7A9
  8
YANE
 10
7309.2319690498543
 20
10519.26760135404
 30
0.0
 11
7281.9157497121823
 21
10519.26760135404
 31
0.0
  0
LINE
  5
1B7AA
  8
YANE
 10
7325.8819690498558
 20
10503.26760135404
 30
0.0
 11
7309.2319690498543
 21
10519.26760135404
 31
0.0
  0
LINE
  5
1B7AB
  8
YANE
 10
7398.5657497121792
 20
10503.26760135404
 30
0.0
 11
7325.8819690498558
 21
10503.26760135404
 31
0.0
  0
LINE
  5
1B7AC
  8
YANE
 10
7415.2157497121862
 20
10519.26760135404
 30
0.0
 11
7398.5657497121792
 21
10503.26760135404
 31
0.0
  0
LINE
  5
1B7AD
  8
YANE
 10
6732.0657497121811
 20
8222.757813420958
 30
0.0
 11
6732.0657497121811
 21
10503.26760135404
 31
0.0
  0
LINE
  5
1B7AE
  8
YANE
 10
6748.7157497121843
 20
10519.26760135404
 30
0.0
 11
6748.7157497121843
 21
8222.757813420958
 31
0.0
  0
LINE
  5
1B7AF
  8
YANE
 10
6776.0319690498563
 20
8222.757813420958
 30
0.0
 11
6776.0319690498563
 21
10519.26760135404
 31
0.0
  0
LINE
  5
1B7B0
  8
YANE
 10
6792.681969049856
 20
10503.26760135404
 30
0.0
 11
6792.681969049856
 21
8222.757813420958
 31
0.0
  0
LINE
  5
1B7B1
  8
YANE
 10
6865.365749712184
 20
8222.757813420958
 30
0.0
 11
6865.3657497121876
 21
10503.26760135404
 31
0.0
  0
LINE
  5
1B7B2
  8
YANE
 10
6882.0157497121872
 20
10519.26760135404
 30
0.0
 11
6882.0157497121872
 21
8222.757813420958
 31
0.0
  0
LINE
  5
1B7B3
  8
YANE
 10
6909.3319690498511
 20
8222.757813420958
 30
0.0
 11
6909.3319690498547
 21
10519.26760135404
 31
0.0
  0
LINE
  5
1B7B4
  8
YANE
 10
6925.9819690498562
 20
10503.26760135404
 30
0.0
 11
6925.9819690498562
 21
8222.757813420958
 31
0.0
  0
LINE
  5
1B7B5
  8
YANE
 10
6998.6657497121842
 20
8222.757813420958
 30
0.0
 11
6998.6657497121878
 21
10503.26760135404
 31
0.0
  0
LINE
  5
1B7B6
  8
YANE
 10
7015.3157497121856
 20
10519.26760135404
 30
0.0
 11
7015.3157497121856
 21
8222.757813420958
 31
0.0
  0
LINE
  5
1B7B7
  8
YANE
 10
7042.6319690498503
 20
8222.757813420958
 30
0.0
 11
7042.6319690498522
 21
10519.26760135404
 31
0.0
  0
LINE
  5
1B7B8
  8
YANE
 10
7059.2819690498536
 20
10503.26760135404
 30
0.0
 11
7059.2819690498536
 21
8222.757813420958
 31
0.0
  0
LINE
  5
1B7B9
  8
YANE
 10
7131.9657497121834
 20
8222.757813420958
 30
0.0
 11
7131.9657497121834
 21
10503.26760135404
 31
0.0
  0
LINE
  5
1B7BA
  8
YANE
 10
7148.615749712184
 20
10519.26760135404
 30
0.0
 11
7148.615749712184
 21
8222.757813420958
 31
0.0
  0
LINE
  5
1B7BB
  8
YANE
 10
7175.9319690498533
 20
8222.757813420958
 30
0.0
 11
7175.9319690498551
 21
10519.26760135404
 31
0.0
  0
LINE
  5
1B7BC
  8
YANE
 10
7325.8819690498558
 20
10503.26760135404
 30
0.0
 11
7325.8819690498558
 21
8222.757813420958
 31
0.0
  0
LINE
  5
1B7BD
  8
YANE
 10
7309.2319690498543
 20
8222.757813420958
 30
0.0
 11
7309.2319690498543
 21
10519.26760135404
 31
0.0
  0
LINE
  5
1B7BE
  8
YANE
 10
7281.9157497121823
 20
10519.26760135404
 30
0.0
 11
7281.9157497121823
 21
8222.757813420958
 31
0.0
  0
LINE
  5
1B7BF
  8
YANE
 10
7265.2657497121818
 20
8222.757813420958
 30
0.0
 11
7265.2657497121818
 21
10503.26760135404
 31
0.0
  0
LINE
  5
1B7C0
  8
YANE
 10
7192.5819690498583
 20
10503.26760135404
 30
0.0
 11
7192.5819690498583
 21
8222.757813420958
 31
0.0
  0
LINE
  5
1B7C1
  8
YANE
 10
7398.5657497121792
 20
8222.757813420958
 30
0.0
 11
7398.5657497121792
 21
10503.26760135404
 31
0.0
  0
CIRCLE
  5
1B7C2
  8
KERABA
 10
7428.8738593810194
 20
10522.62260972693
 30
0.0
 40
2.5
  0
CIRCLE
  5
1B7C3
  8
KERABA
 10
7428.8738593810194
 20
10136.75781342096
 30
0.0
 40
2.5
  0
CIRCLE
  5
1B7C4
  8
KERABA
 10
7428.8738593810194
 20
9546.757813420958
 30
0.0
 40
2.5
  0
CIRCLE
  5
1B7C5
  8
KERABA
 10
7428.8738593810194
 20
8956.7578134209543
 30
0.0
 40
2.5
  0
CIRCLE
  5
1B7C6
  8
KERABA
 10
7428.8738593810194
 20
8366.757813420958
 30
0.0
 40
2.5
  0
CIRCLE
  5
1B7C7
  8
KERABA
 10
7428.8738593810194
 20
8192.7578134209598
 30
0.0
 40
2.5
  0
LINE
  5
1B7C8
  8
HANAKAKUSHI
 10
7464.8738593810194
 20
8132.7578134209571
 30
0.0
 11
7464.8738593810194
 21
8176.7578134209571
 31
0.0
  0
LINE
  5
1B7C9
  8
KERABA
 10
7414.8738593810194
 20
8176.7578134209571
 30
0.0
 11
7464.8738593810194
 21
8176.7578134209571
 31
0.0
  0
LINE
  5
1B7CA
  8
KERABA
 10
7414.8738593810167
 20
8176.7578134209571
 30
0.0
 11
7414.8738593810167
 21
10519.26760135404
 31
0.0
  0
LINE
  5
1B7CB
  8
HANAKAKUSHI
 10
6265.1777832117859
 20
8222.757813420958
 30
0.0
 11
7414.8738593810167
 21
8222.757813420958
 31
0.0
  0
LINE
  5
1B7CC
  8
KERABA
 10
7464.8738593810194
 20
8176.7578134209571
 30
0.0
 11
7464.8738593810194
 21
10519.26760135404
 31
0.0
  0
LINE
  5
1B7CD
  8
TOI
 10
5128.72246827046
 20
10519.26760135404
 30
0.0
 11
7464.8738593810194
 21
10519.26760135404
 31
0.0
  0
LINE
  5
1B7CE
  8
TOI
 10
5118.08777999219
 20
10540.75781342096
 30
0.0
 11
7464.8738593810194
 21
10540.75781342096
 31
0.0
  0
LINE
  5
1B7CF
  8
HANAKAKUSHI
 10
6309.7153588329111
 20
8132.7578134209571
 30
0.0
 11
7464.8738593810194
 21
8132.7578134209571
 31
0.0
  0
LINE
  5
1B7D0
  8
SUNPOU
 10
5840.1238593810176
 20
7621.7578134209571
 30
0.0
 11
5851.3738593810222
 21
7621.7578134209571
 31
0.0
  0
LINE
  5
1B7D1
  8
SUNPOU
 10
6240.1238593810212
 20
7621.7578134209571
 30
0.0
 11
6251.3738593810194
 21
7621.7578134209571
 31
0.0
  0
LINE
  5
1B7D2
  8
SUNPOU
 10
6217.6238593810212
 20
7621.7578134209571
 30
0.0
 11
6206.3738593810194
 21
7621.7578134209571
 31
0.0
  0
LINE
  5
1B7D3
  8
SUNPOU
 10
6640.1238593810194
 20
7621.7578134209571
 30
0.0
 11
6651.3738593810194
 21
7621.7578134209571
 31
0.0
  0
LINE
  5
1B7D4
  8
SUNPOU
 10
6617.6238593810194
 20
7621.7578134209571
 30
0.0
 11
6606.3738593810203
 21
7621.7578134209571
 31
0.0
  0
LINE
  5
1B7D5
  8
SUNPOU
 10
7017.623859381014
 20
7621.7578134209571
 30
0.0
 11
7006.3738593810158
 21
7621.7578134209571
 31
0.0
  0
LINE
  5
1B7D6
  8
2PL-L2
 10
4592.8738593810158
 20
8131.7578134209571
 30
0.0
 11
6310.210220784259
 21
8131.7578134209571
 31
0.0
  0
LINE
  5
1B7D7
  8
YANE
 10
6376.2442248330972
 20
7998.3185706801223
 30
0.0
 11
5051.5589139920103
 21
10675.197056161791
 31
0.0
  0
TEXT
  5
1B7D8
  8
HIKIDASHI
 10
5423.5300369249771
 20
6909.2485509620983
 30
0.0
 40
120.0
  1
小 屋 伏 図
  7
01
 72
     2
 11
6175.5300369249771
 21
6909.2485509620983
 31
0.0
  0
TEXT
  5
1B7D9
  8
HIKIDASHI
 10
6265.5300369249753
 20
6933.0649927930672
 30
0.0
 40
80.0
  1
(S=
 41
0.6700000000000002
  7
00
  0
TEXT
  5
1B7DA
  8
HIKIDASHI
 10
6525.6702454895967
 20
6906.8971615927894
 30
0.0
 40
80.0
  1
40
 41
0.6700000000000002
  7
00
  0
TEXT
  5
1B7DB
  8
HIKIDASHI
 10
6647.09670155203
 20
6933.0649927930672
 30
0.0
 40
80.0
  1
)
 41
0.6700000000000002
  7
00
  0
TEXT
  5
1B7DC
  8
HIKIDASHI
 10
6479.3750907269578
 20
6933.0649927930672
 30
0.0
 40
80.0
  1
/
 41
0.6700000000000002
  7
00
  0
TEXT
  5
1B7DD
  8
HIKIDASHI
 10
6446.2379528626498
 20
6948.6264705412623
 30
0.0
 40
80.0
  1
1
 41
0.6700000000000002
  7
00
  0
CIRCLE
  5
1B7DE
  8
YANE
 10
5428.8738593810194
 20
10136.75781342096
 30
0.0
 40
2.5
  0
CIRCLE
  5
1B7DF
  8
YANE
 10
5828.8738593810194
 20
9546.757813420958
 30
0.0
 40
2.5
  0
LINE
  5
1B7E0
  8
1PL-L1
 10
12926.08862012218
 20
2595.0436256560261
 30
0.0
 11
12926.08862012218
 21
5337.5467985685309
 31
0.0
  0
LINE
  5
1B7E1
  8
1PL-L1
 10
11491.08862012218
 20
2595.0436256560261
 30
0.0
 11
11491.08862012218
 21
5337.5467985685309
 31
0.0
  0
LINE
  5
1B7E2
  8
U1
 10
11519.08862012218
 20
4671.8237216454581
 30
0.0
 11
11523.58862012218
 21
4671.5467985685355
 31
0.0
  0
LINE
  5
1B7E3
  8
U2
 10
11463.08862012218
 20
4681.465442678631
 30
0.0
 11
10960.15564269982
 21
4717.3926077869819
 31
0.0
  0
ARC
  5
1B7E4
  8
U1
 10
11468.08862012218
 20
4735.1769168372421
 30
0.0
 40
5.0
 50
85.914383220047384
 51
180.0
  0
CIRCLE
  5
1B7E5
  8
U1
 10
11491.08862012218
 20
4711.5467985685355
 30
0.0
 40
6.0
  0
CIRCLE
  5
1B7E6
  8
U1
 10
11491.08862012218
 20
4651.5467985685355
 30
0.0
 40
5.0
  0
LINE
  5
1B7E7
  8
U1
 10
11463.08862012218
 20
4621.5467985685364
 30
0.0
 11
11463.08862012218
 21
4735.1769168372421
 31
0.0
  0
ARC
  5
1B7E8
  8
U1
 10
11514.08862012218
 20
4731.8912025515292
 30
0.0
 40
5.0
 50
0.0
 51
85.914383220047384
  0
LINE
  5
1B7E9
  8
U1
 10
11519.08862012218
 20
4621.5467985685364
 30
0.0
 11
11519.08862012218
 21
4731.8912025515292
 31
0.0
  0
LINE
  5
1B7EA
  8
U1
 10
11519.08862012218
 20
4621.5467985685364
 30
0.0
 11
11463.08862012218
 21
4621.5467985685364
 31
0.0
  0
LINE
  5
1B7EB
  8
U1
 10
11463.08862012218
 20
4675.5467985685355
 30
0.0
 11
11519.08862012218
 21
4671.5467985685355
 31
0.0
  0
LINE
  5
1B7EC
  8
U1
 10
11514.44485537213
 20
4736.8784960506819
 30
0.0
 11
11468.44485537211
 21
4740.1642103363984
 31
0.0
  0
CIRCLE
  5
1B7ED
  8
U1
 10
10977.78953060295
 20
4753.7284853382307
 30
0.0
 40
1.5
  0
LINE
  5
1B7EE
  8
U1
 10
10954.954977748999
 20
4787.2407128062459
 30
0.0
 11
10950.13586279254
 21
4782.6296039434146
 31
0.0
  0
LINE
  5
1B7EF
  8
U1
 10
10960.15564269982
 20
4717.3926077869819
 30
0.0
 11
10957.379581750711
 21
4717.5909165170651
 31
0.0
  0
ARC
  5
1B7F0
  8
U1
 10
10957.735850357911
 20
4722.5782076334453
 30
0.0
 40
5.0
 50
218.09159026851489
 51
265.9139999999814
  0
LINE
  5
1B7F1
  8
U1
 10
10953.800722455549
 20
4719.4936058127641
 30
0.0
 11
10946.30850738417
 21
4729.0516707727747
 31
0.0
  0
ARC
  5
1B7F2
  8
U1
 10
10977.78953060295
 20
4753.7284853382307
 30
0.0
 40
40.0
 50
133.73640973157811
 51
218.09159026851489
  0
LINE
  5
1B7F3
  8
U1
 10
10965.09352559561
 20
4786.516462660009
 30
0.0
 11
10960.15564269982
 21
4717.3926077869819
 31
0.0
  0
LINE
  5
1B7F4
  8
U1
 10
12922.58845178724
 20
4739.0720796750484
 30
0.0
 11
12922.39518488913
 21
4738.2957756713877
 31
0.0
  0
CIRCLE
  5
1B7F5
  8
U1
 10
13190.094213972239
 20
4445.9474025377249
 30
0.0
 40
2.5
  0
LINE
  5
1B7F6
  8
1PL-S2
 10
13182.29656105385
 20
4444.1594962302406
 30
0.0
 11
13197.891866890621
 21
4447.7353088452128
 31
0.0
  0
LINE
  5
1B7F7
  8
1PL-S2
 10
13191.882120279721
 20
4438.1497496193369
 30
0.0
 11
13188.30630766475
 21
4453.7450554561146
 31
0.0
  0
ARC
  5
1B7F8
  8
U1
 10
13206.806961251201
 20
4444.6496820787088
 30
0.0
 40
4.0
 50
282.91399999994712
 51
12.91399999996073
  0
ARC
  5
1B7F9
  8
U1
 10
13126.43778834831
 20
4436.4815125247351
 30
0.0
 40
10.0
 50
202.5080682268495
 51
283.84139952823512
  0
LINE
  5
1B7FA
  8
U1
 10
13112.78440457857
 20
4433.3509588548186
 30
0.0
 11
13114.904904151779
 21
4433.8371634347877
 31
0.0
  0
ARC
  5
1B7FB
  8
U1
 10
13115.35188072864
 20
4431.8877502051901
 30
0.0
 40
2.0
 50
22.508068226849598
 51
102.91399999994699
  0
LINE
  5
1B7FC
  8
1PL-S2
 10
13135.349136621409
 20
4425.1874288900763
 30
0.0
 11
13131.773324006441
 21
4440.782734726854
 31
0.0
  0
CIRCLE
  5
1B7FD
  8
U1
 10
13133.561230313921
 20
4432.9850818084651
 30
0.0
 40
2.5
  0
ARC
  5
1B7FE
  8
U1
 10
13126.59554918295
 20
4436.5176851518427
 30
0.0
 40
10.0
 50
198.12990857046319
 51
282.91399999994712
  0
ARC
  5
1B7FF
  8
U1
 10
13126.59554918295
 20
4436.5176851518427
 30
0.0
 40
14.0
 50
192.91399999996059
 51
282.91399999994712
  0
ARC
  5
1B800
  8
U1
 10
13116.14166147389
 20
4433.0947869987567
 30
0.0
 40
1.0
 50
18.129908570463211
 51
102.91399999994699
  0
LINE
  5
1B801
  8
U1
 10
13112.949656575771
 20
4433.3888491137441
 30
0.0
 11
13115.91817318545
 21
4434.0694936135551
 31
0.0
  0
LINE
  5
1B802
  8
U1
 10
13128.672671232671
 20
4426.7344463767513
 30
0.0
 11
13210.705787710391
 21
4445.5436352324487
 31
0.0
  0
LINE
  5
1B803
  8
1PL-S2
 10
13125.76357739553
 20
4431.1971755009799
 30
0.0
 11
13141.3588832323
 21
4434.7729881159466
 31
0.0
  0
LINE
  5
1B804
  8
U1
 10
13210.705787710391
 20
4445.5436352324532
 30
0.0
 11
13128.830432067311
 21
4426.7706190038589
 31
0.0
  0
LINE
  5
1B805
  8
U1
 10
13207.70091440493
 20
4440.7508556195153
 30
0.0
 11
13129.72438522105
 21
4422.8717925446635
 31
0.0
  0
ARC
  5
1B806
  8
U1
 10
12827.64608809454
 20
4357.7127378772557
 30
0.0
 40
393.0
 50
12.91399999996073
 51
85.913999999981399
  0
ARC
  5
1B807
  8
U1
 10
12827.64608809454
 20
4357.7127378772557
 30
0.0
 40
295.0
 50
14.85660197426097
 51
85.913999999981399
  0
LINE
  5
1B808
  8
U1
 10
10860.40378397194
 20
4887.231992737401
 30
0.0
 11
10875.36565732109
 21
4886.1631869157991
 31
0.0
  0
ARC
  5
1B809
  8
U1
 10
10875.508164763971
 20
4888.1581033623497
 30
0.0
 40
2.0
 50
265.9139999999814
 51
355.91399999998742
  0
LINE
  5
1B80A
  8
U1
 10
10877.50308121052
 20
4888.015595919469
 30
0.0
 11
10877.716842374841
 21
4891.0079705892967
 31
0.0
  0
ARC
  5
1B80B
  8
U1
 10
10875.508164763971
 20
4888.1581033623497
 30
0.0
 40
2.0
 50
265.9139999999814
 51
355.91399999998742
  0
LINE
  5
1B80C
  8
U1
 10
10877.50308121052
 20
4888.015595919469
 30
0.0
 11
10877.78809609629
 21
4892.0054288125739
 31
0.0
  0
LINE
  5
1B80D
  8
U1
 10
10860.83130630059
 20
4893.2167420770566
 30
0.0
 11
10877.78809609629
 21
4892.0054288125739
 31
0.0
  0
LINE
  5
1B80E
  8
U1
 10
10860.40378397194
 20
4887.231992737401
 30
0.0
 11
10875.36565732109
 21
4886.1631869157991
 31
0.0
  0
LINE
  5
1B80F
  8
U1
 10
10854.13345648521
 20
4799.4556690891122
 30
0.0
 11
10869.095329834359
 21
4798.3868632675094
 31
0.0
  0
ARC
  5
1B810
  8
U1
 10
10868.952822391469
 20
4796.391946820956
 30
0.0
 40
2.0
 50
355.91399999998742
 51
85.913999999981399
  0
LINE
  5
1B811
  8
U1
 10
10870.947738838029
 20
4796.249439378078
 30
0.0
 11
10870.73397767371
 21
4793.2570647082493
 31
0.0
  0
ARC
  5
1B812
  8
U1
 10
10868.952822391469
 20
4796.391946820956
 30
0.0
 40
2.0
 50
355.91399999998742
 51
85.913999999981399
  0
LINE
  5
1B813
  8
U1
 10
10870.947738838029
 20
4796.249439378078
 30
0.0
 11
10870.66272395227
 21
4792.2596064849731
 31
0.0
  0
LINE
  5
1B814
  8
U1
 10
10870.66272395227
 20
4792.2596064849731
 30
0.0
 11
10853.70593415658
 21
4793.4709197494549
 31
0.0
  0
LINE
  5
1B815
  8
U1
 10
10854.13345648521
 20
4799.4556690891122
 30
0.0
 11
10869.095329834359
 21
4798.3868632675094
 31
0.0
  0
ARC
  5
1B816
  8
U1
 10
10857.26862022858
 20
4843.3438309132562
 30
0.0
 40
44.0
 50
85.913999999981399
 51
265.9139999999814
  0
ARC
  5
1B817
  8
U1
 10
10857.26862022858
 20
4843.3438309132562
 30
0.0
 40
50.0
 50
85.913999999981399
 51
265.9139999999814
  0
ARC
  5
1B818
  8
U1
 10
10857.26862022858
 20
4843.3438309132562
 30
0.0
 40
44.0
 50
85.913999999981399
 51
265.9139999999814
  0
LINE
  5
1B819
  8
U1
 10
10877.716842374841
 20
4891.0079705892967
 30
0.0
 11
12855.64880062052
 21
4749.713819624727
 31
0.0
  0
LINE
  5
1B81A
  8
U1
 10
10870.73397767371
 20
4793.2570647082493
 30
0.0
 11
12848.665935919391
 21
4651.9629137436787
 31
0.0
  0
CIRCLE
  5
1B81B
  8
U1
 10
12926.08862012218
 20
4608.8291780574309
 30
0.0
 40
6.0
  0
CIRCLE
  5
1B81C
  8
U1
 10
12926.08862012218
 20
4535.5467985685355
 30
0.0
 40
6.0
  0
CIRCLE
  5
1B81D
  8
U1
 10
12802.745598776301
 20
4617.4545641655577
 30
0.0
 40
6.0
  0
LINE
  5
1B81E
  8
U1
 10
12652.83896230097
 20
4656.309066673196
 30
0.0
 11
12652.83896230097
 21
4594.3641977536681
 31
0.0
  0
CIRCLE
  5
1B81F
  8
U1
 10
12682.040376060841
 20
4625.8954888309963
 30
0.0
 40
6.0
  0
ARC
  5
1B820
  8
U1
 10
12662.83896230097
 20
4656.309066673196
 30
0.0
 40
10.0
 50
112.9683160680015
 51
180.0
  0
LINE
  5
1B821
  8
U1
 10
12950.088620122169
 20
4435.5467985685364
 30
0.0
 11
12890.088620122169
 21
4435.5467985685364
 31
0.0
  0
CIRCLE
  5
1B822
  8
U1
 10
12926.08862012218
 20
4465.5467985685355
 30
0.0
 40
6.0
  0
ARC
  5
1B823
  8
U1
 10
12950.088620122169
 20
4445.5467985685355
 30
0.0
 40
10.0
 50
270.0
 51
0.0
  0
ARC
  5
1B824
  8
U1
 10
12624.68402955097
 20
4295.6882868370967
 30
0.0
 40
300.0
 50
27.78759037804042
 51
84.614878958384622
  0
LINE
  5
1B825
  8
U1
 10
12960.08862012218
 20
4445.5467985685355
 30
0.0
 11
12960.08862012218
 21
4621.3108708564323
 31
0.0
  0
CIRCLE
  5
1B826
  8
U2
 10
11491.08862012218
 20
4711.5467985685355
 30
0.0
 40
6.0
  0
LINE
  5
1B827
  8
U2
 10
12652.83896230097
 20
4596.475277189289
 30
0.0
 11
11519.08862012218
 21
4677.4650662141994
 31
0.0
  0
LINE
  5
1B828
  8
KISO
 10
13126.08862012218
 20
2719.546798568535
 30
0.0
 11
13126.08862012218
 21
2669.5467985685341
 31
0.0
  0
LINE
  5
1B829
  8
KISO
 10
10398.051575649621
 20
2669.5467985685341
 30
0.0
 11
13263.714177949711
 21
2669.5467985685341
 31
0.0
  0
CIRCLE
  5
1B82A
  8
U1
 10
12926.08862012218
 20
4535.5467985685355
 30
0.0
 40
6.0
  0
CIRCLE
  5
1B82B
  8
U1
 10
12926.08862012218
 20
4465.5467985685355
 30
0.0
 40
6.0
  0
LINE
  5
1B82C
  8
U1
 10
12893.58862012218
 20
2719.5467985685341
 30
0.0
 11
12893.58862012218
 21
4435.5467985685364
 31
0.0
  0
LINE
  5
1B82D
  8
U1
 10
12958.58862012218
 20
4440.2789716921097
 30
0.0
 11
12958.58862012218
 21
2719.5467985685341
 31
0.0
  0
CIRCLE
  5
1B82E
  8
U1
 10
11491.08862012218
 20
4651.5467985685355
 30
0.0
 40
6.0
  0
LINE
  5
1B82F
  8
U1
 10
11458.58862012218
 20
4675.5467985685355
 30
0.0
 11
11463.08862012218
 21
4675.2698754916128
 31
0.0
  0
LINE
  5
1B830
  8
U1
 10
11523.58862012218
 20
4671.5467985685355
 30
0.0
 11
11523.58862012218
 21
2719.5467985685341
 31
0.0
  0
LINE
  5
1B831
  8
U1
 10
11458.58862012218
 20
2719.5467985685341
 30
0.0
 11
11458.58862012218
 21
4675.5467985685355
 31
0.0
  0
LINE
  5
1B832
  8
KISO
 10
10791.08862012218
 20
2719.546798568535
 30
0.0
 11
10791.08862012218
 21
2669.5467985685341
 31
0.0
  0
LINE
  5
1B833
  8
KISO
 10
13126.08862012218
 20
2719.5467985685341
 30
0.0
 11
10791.08862012218
 21
2719.5467985685341
 31
0.0
  0
TEXT
  5
1B834
  8
HIKIDASHI
 10
11494.76554162235
 20
2201.2250168569481
 30
0.0
 40
120.0
  1
側 面 立 面 図
  7
01
 72
     2
 11
12462.76554162235
 21
2201.2250168569481
 31
0.0
  0
TEXT
  5
1B835
  8
HIKIDASHI
 10
12733.47345756002
 20
2240.602936436112
 30
0.0
 40
80.0
  1
1
 41
0.6700000000000002
  7
00
  0
TEXT
  5
1B836
  8
HIKIDASHI
 10
12766.610595424319
 20
2225.041458687916
 30
0.0
 40
80.0
  1
/
 41
0.6700000000000002
  7
00
  0
TEXT
  5
1B837
  8
HIKIDASHI
 10
12934.33220624941
 20
2225.041458687916
 30
0.0
 40
80.0
  1
)
 41
0.6700000000000002
  7
00
  0
TEXT
  5
1B838
  8
HIKIDASHI
 10
12552.76554162235
 20
2225.041458687916
 30
0.0
 40
80.0
  1
(S=
 41
0.6700000000000002
  7
00
  0
TEXT
  5
1B839
  8
HIKIDASHI
 10
12812.90575018697
 20
2198.8736274876401
 30
0.0
 40
80.0
  1
40
 41
0.6700000000000002
  7
00
  0
LINE
  5
1B83A
  8
SUNPOU
 10
11013.251970232281
 20
2809.5467985685359
 30
0.0
 11
10909.32892177814
 21
2809.5467985685359
 31
0.0
  0
LINE
  5
1B83B
  8
SUNPOU
 10
10961.29044600522
 20
2719.546798568535
 30
0.0
 11
11013.251970232281
 21
2809.5467985685359
 31
0.0
  0
LINE
  5
1B83C
  8
SUNPOU
 10
10909.32892177814
 20
2809.5467985685359
 30
0.0
 11
10961.29044600522
 21
2719.546798568535
 31
0.0
  0
TEXT
  5
1B83D
  8
SUNPOU
 10
10879.861874576651
 20
2854.5467985685359
 30
0.0
 40
90.0
  1
FL
  7
01
 72
     4
 11
10961.29044600522
 21
2899.5467985685359
 31
0.0
  0
ARC
  5
1B83E
  8
TATEDOISIJIKANAGU
 10
13193.16776227909
 20
4427.5985385378563
 30
0.0
 40
37.486935512444781
 50
233.98684999446789
 51
298.3686129611653
  0
ARC
  5
1B83F
  8
TATEDOISIJIKANAGU
 10
13242.19316009756
 20
4493.4229622133571
 30
0.0
 40
125.8540927673333
 50
233.6306292876705
 51
251.70111844297281
  0
ARC
  5
1B840
  8
TATEDOISIJIKANAGU
 10
13211.073070121431
 20
4406.7061255357121
 30
0.0
 40
51.530194846411959
 50
200.7635473240997
 51
245.6964523327737
  0
ARC
  5
1B841
  8
TATEDOISIJIKANAGU
 10
13163.962421477159
 20
4370.0942245943979
 30
0.0
 40
24.694355157952721
 50
152.0466699324954
 51
257.07840840638841
  0
ARC
  5
1B842
  8
TATEDOISIJIKANAGU
 10
13153.06044194507
 20
4405.8560226958562
 30
0.0
 40
59.0
 50
285.81804449474248
 51
14.83133728734097
  0
ARC
  5
1B843
  8
TATEDOISIJIKANAGU
 10
13153.06044194507
 20
4405.8560226958562
 30
0.0
 40
20.0
 50
285.81804449474248
 51
6.8001082172131788
  0
LINE
  5
1B844
  8
TATEDOISIJIKANAGU
 10
13169.342221744469
 20
4413.8694364348676
 30
0.0
 11
13171.44865090659
 21
4407.720212403744
 31
0.0
  0
LINE
  5
1B845
  8
TATEDOISIJIKANAGU
 10
13171.44865090659
 20
4407.720212403744
 30
0.0
 11
13212.12813295866
 21
4421.6550514762521
 31
0.0
  0
LINE
  5
1B846
  8
TATEDOISIJIKANAGU
 10
13212.12813295866
 20
4421.6550514762521
 30
0.0
 11
13210.02170379653
 21
4427.8042755073757
 31
0.0
  0
LINE
  5
1B847
  8
TATEDOISIJIKANAGU
 10
13165.12936342023
 20
4426.1678844971166
 30
0.0
 11
13163.509033295521
 21
4430.8980568287507
 31
0.0
  0
ARC
  5
1B848
  8
TATEDOISIJIKANAGU
 10
13186.94066608653
 20
4428.839426268125
 30
0.0
 40
24.576894201355628
 50
236.40195729717391
 51
341.41604270295392
  0
ARC
  5
1B849
  8
TATEDOISIJIKANAGU
 10
13104.674846113619
 20
4350.7853616525254
 30
0.0
 40
19.5
 50
105.81804449474249
 51
285.81804449474248
  0
ARC
  5
1B84A
  8
TATEDOISIJIKANAGU
 10
13123.43642391616
 20
4356.1007354266776
 30
0.0
 40
19.5
 50
105.81804449474249
 51
285.81804449474248
  0
ARC
  5
1B84B
  8
TATEDOISIJIKANAGU
 10
13085.91326831106
 20
4345.4699878783686
 30
0.0
 40
19.5
 50
105.81804449474249
 51
285.81804449474248
  0
ARC
  5
1B84C
  8
TATEDOISIJIKANAGU
 10
13142.198001718711
 20
4361.4161092008353
 30
0.0
 40
19.5
 50
105.81804449474249
 51
285.81804449474248
  0
LINE
  5
1B84D
  8
TATEDOISIJIKANAGU
 10
13020.00641531996
 20
4347.0652930488059
 30
0.0
 11
13142.51231550995
 21
4381.772643139625
 31
0.0
  0
LINE
  5
1B84E
  8
TATEDOISIJIKANAGU
 10
12977.08882827767
 20
4295.6606020105701
 30
0.0
 11
12977.336912821
 21
4295.7043460090554
 31
0.0
  0
ARC
  5
1B84F
  8
TATEDOISIJIKANAGU
 10
13011.2522985824
 20
4392.2421575550597
 30
0.0
 40
94.245569033579997
 50
249.76611340637601
 51
273.83770111369131
  0
LINE
  5
1B850
  8
TATEDOISIJIKANAGU
 10
13018.77030278544
 20
4300.3029266931026
 30
0.0
 11
13016.08882827767
 21
4295.6606020105701
 31
0.0
  0
ARC
  5
1B851
  8
TATEDOISIJIKANAGU
 10
12996.75307617695
 20
4331.2998189285436
 30
0.0
 40
40.546579286383761
 50
241.3889810305015
 51
298.4816655995578
  0
LINE
  5
1B852
  8
TATEDOISIJIKANAGU
 10
13016.08882827767
 20
4295.6606020105701
 30
0.0
 11
13016.08882827767
 21
4292.1606020105692
 31
0.0
  0
LINE
  5
1B853
  8
TATEDOISIJIKANAGU
 10
12977.08882827767
 20
4295.6606020105701
 30
0.0
 11
12977.08882827767
 21
4292.1606020105692
 31
0.0
  0
LINE
  5
1B854
  8
TATEDOISIJIKANAGU
 10
12977.08882827767
 20
4286.1606020105692
 30
0.0
 11
12981.8823589776
 21
4285.315373215316
 31
0.0
  0
LINE
  5
1B855
  8
TATEDOISIJIKANAGU
 10
12977.08882827767
 20
4283.6606020105692
 30
0.0
 11
12981.8823589776
 21
4284.5058308058242
 31
0.0
  0
LINE
  5
1B856
  8
TATEDOISIJIKANAGU
 10
12977.08882827767
 20
4292.1606020105692
 30
0.0
 11
12981.882358978781
 21
4291.3153732151077
 31
0.0
  0
LINE
  5
1B857
  8
TATEDOISIJIKANAGU
 10
12977.08882827767
 20
4289.6606020105692
 30
0.0
 11
12981.8823589776
 21
4290.5058308058242
 31
0.0
  0
ARC
  5
1B858
  8
TATEDOISIJIKANAGU
 10
12981.58882827767
 20
4284.9106020105692
 30
0.0
 40
0.5000000000000285
 50
305.94875234718882
 51
54.051247652811192
  0
ARC
  5
1B859
  8
TATEDOISIJIKANAGU
 10
12981.58882827767
 20
4290.9106020105683
 30
0.0
 40
0.5000000000000285
 50
305.94875234718882
 51
320.11879587224081
  0
LINE
  5
1B85A
  8
TATEDOISIJIKANAGU
 10
12977.08882827767
 20
4289.6606020105692
 30
0.0
 11
12977.08882827767
 21
4286.1606020105692
 31
0.0
  0
LINE
  5
1B85B
  8
TATEDOISIJIKANAGU
 10
12977.08882827767
 20
4280.1606020105692
 30
0.0
 11
12977.08882827767
 21
4283.6606020105692
 31
0.0
  0
ARC
  5
1B85C
  8
TATEDOISIJIKANAGU
 10
12981.58882827767
 20
4290.9106020105683
 30
0.0
 40
0.5000000000000285
 50
305.94875234718882
 51
54.051247652811192
  0
LINE
  5
1B85D
  8
TATEDOISIJIKANAGU
 10
13016.08882827767
 20
4289.6606020105692
 30
0.0
 11
13016.08882827767
 21
4286.1606020105692
 31
0.0
  0
LINE
  5
1B85E
  8
TATEDOISIJIKANAGU
 10
13016.08882827767
 20
4286.1606020105692
 30
0.0
 11
13011.29529757771
 21
4285.315373215316
 31
0.0
  0
LINE
  5
1B85F
  8
TATEDOISIJIKANAGU
 10
13016.08882827767
 20
4283.6606020105692
 30
0.0
 11
13011.29529757771
 21
4284.5058308058242
 31
0.0
  0
LINE
  5
1B860
  8
TATEDOISIJIKANAGU
 10
13016.08882827767
 20
4280.1606020105692
 30
0.0
 11
13016.08882827767
 21
4283.6606020105692
 31
0.0
  0
ARC
  5
1B861
  8
TATEDOISIJIKANAGU
 10
13011.58882827767
 20
4284.9106020105692
 30
0.0
 40
0.5000000000000285
 50
125.9487523471887
 51
234.05124765281121
  0
LINE
  5
1B862
  8
TATEDOISIJIKANAGU
 10
13016.08882827767
 20
4289.6606020105692
 30
0.0
 11
13011.29529757771
 21
4290.5058308058242
 31
0.0
  0
LINE
  5
1B863
  8
TATEDOISIJIKANAGU
 10
13016.08882827767
 20
4292.1606020105692
 30
0.0
 11
13011.29529757747
 21
4291.3153732152723
 31
0.0
  0
ARC
  5
1B864
  8
TATEDOISIJIKANAGU
 10
13011.58882827767
 20
4290.9106020105683
 30
0.0
 40
0.5000000000000285
 50
211.8394178467783
 51
234.05124765281121
  0
ARC
  5
1B865
  8
TATEDOISIJIKANAGU
 10
13011.58882827767
 20
4290.9106020105683
 30
0.0
 40
0.5000000000000285
 50
125.9487523471887
 51
234.05124765281121
  0
ARC
  5
1B866
  8
TATEDOISIJIKANAGU
 10
13035.563310770391
 20
4387.2613824206119
 30
0.0
 40
86.573362027127786
 50
233.35385023800799
 51
259.60800823948591
  0
LINE
  5
1B867
  8
TATEDOISIJIKANAGU
 10
13016.08882827767
 20
4280.1606020105692
 30
0.0
 11
13012.90429143485
 21
4277.9090033681123
 31
0.0
  0
LINE
  5
1B868
  8
TATEDOISIJIKANAGU
 10
13018.58882827767
 20
4273.148371630662
 30
0.0
 11
13012.88932957241
 21
4276.4389787423888
 31
0.0
  0
ARC
  5
1B869
  8
TATEDOISIJIKANAGU
 10
13013.620066403861
 20
4277.1666297804122
 30
0.0
 40
1.031238260528154
 50
133.95496272727411
 51
224.87876841269471
  0
ARC
  5
1B86A
  8
TATEDOISIJIKANAGU
 10
12979.55759015148
 20
4277.1666297804122
 30
0.0
 40
1.031238260528154
 50
315.12123158730532
 51
46.045037272725892
  0
LINE
  5
1B86B
  8
TATEDOISIJIKANAGU
 10
12977.08882827767
 20
4280.1606020105692
 30
0.0
 11
12980.273365120491
 21
4277.9090033681123
 31
0.0
  0
LINE
  5
1B86C
  8
TATEDOISIJIKANAGU
 10
12974.58882827767
 20
4273.148371630662
 30
0.0
 11
12980.288326982931
 21
4276.4389787423888
 31
0.0
  0
LINE
  5
1B86D
  8
TATEDOISIJIKANAGU
 10
12974.58882827767
 20
4273.148371630662
 30
0.0
 11
13018.58882827767
 21
4273.148371630662
 31
0.0
  0
LINE
  5
1B86E
  8
TATEDOISIJIKANAGU
 10
13012.588450180911
 20
4277.1755231219586
 30
0.0
 11
12980.588790063441
 21
4277.1755231219586
 31
0.0
  0
LINE
  5
1B86F
  8
TATEDOISIJIKANAGU
 10
13018.588411966701
 20
4273.148371630662
 30
0.0
 11
13018.588411966701
 21
4047.7967985685332
 31
0.0
  0
LINE
  5
1B870
  8
TATEDOISIJIKANAGU
 10
13018.588411966701
 20
4035.2967985685332
 30
0.0
 11
13018.588411966701
 21
3049.796798568535
 31
0.0
  0
LINE
  5
1B871
  8
TATEDOISIJIKANAGU
 10
13018.588411966701
 20
3037.2967985685332
 30
0.0
 11
13018.588411966701
 21
2871.6282470304718
 31
0.0
  0
LINE
  5
1B872
  8
TATEDOISIJIKANAGU
 10
12974.58882827767
 20
4273.148371630662
 30
0.0
 11
12974.58882827767
 21
4047.7967985685332
 31
0.0
  0
LINE
  5
1B873
  8
TATEDOISIJIKANAGU
 10
12974.58882827767
 20
4035.2967985685332
 30
0.0
 11
12974.58882827768
 21
3049.796798568535
 31
0.0
  0
LINE
  5
1B874
  8
TATEDOISIJIKANAGU
 10
12974.58882827768
 20
3037.2967985685332
 30
0.0
 11
12974.58882827768
 21
2871.6282470304718
 31
0.0
  0
ARC
  5
1B875
  8
TATEDOISIJIKANAGU
 10
13036.08882827767
 20
4290.2994935436618
 30
0.0
 40
20.0
 50
105.81804449474249
 51
146.89768707776321
  0
ARC
  5
1B876
  8
TATEDOISIJIKANAGU
 10
13079.50039653653
 20
4344.4808216681267
 30
0.0
 40
27.040289790158841
 50
152.0535121616571
 51
244.46007470091851
  0
ARC
  5
1B877
  8
TATEDOISIJIKANAGU
 10
13082.55210247389
 20
4346.7961733788443
 30
0.0
 40
43.6732808751661
 50
172.4708031053402
 51
225.5994203506807
  0
ARC
  5
1B878
  8
TATEDOISIJIKANAGU
 10
13088.89570027327
 20
4350.4372777412091
 30
0.0
 40
60.095389431160747
 50
180.8378434868761
 51
218.8026014089092
  0
ARC
  5
1B879
  8
TATEDOISIJIKANAGU
 10
13046.57914316246
 20
4339.1373860360809
 30
0.0
 40
31.45567389646946
 50
167.94361809630681
 51
245.91045626234381
  0
ARC
  5
1B87A
  8
TATEDOISIJIKANAGU
 10
13123.136187791
 20
4427.7483812909268
 30
0.0
 40
157.1885788544904
 50
216.48702539475249
 51
230.7606818470027
  0
ARC
  5
1B87B
  8
TATEDOISIJIKANAGU
 10
13036.08882827767
 20
4290.2994935436618
 30
0.0
 40
59.0
 50
105.81804449474249
 51
171.65294263599509
  0
LINE
  5
1B87C
  8
TATEDOISIJIKANAGU
 10
13030.63716286827
 20
4309.542137443711
 30
0.0
 11
13153.14306305826
 21
4344.2494875345319
 31
0.0
  0
LINE
  5
1B87D
  8
TATEDOISIJIKANAGU
 10
13068.620024188311
 20
2809.5205927851239
 30
0.0
 11
13051.51901702201
 21
2762.5359617458289
 31
0.0
  0
LINE
  5
1B87E
  8
TATEDOISIJIKANAGU
 10
12974.58882827767
 20
2871.6282470304718
 30
0.0
 11
13018.588411966701
 21
2871.6282470304718
 31
0.0
  0
LINE
  5
1B87F
  8
TATEDOISIJIKANAGU
 10
12971.58862012218
 20
2871.6282470304718
 30
0.0
 11
13021.588620122169
 21
2871.6282470304718
 31
0.0
  0
LINE
  5
1B880
  8
TATEDOISIJIKANAGU
 10
12971.58862012218
 20
2871.6282470304718
 30
0.0
 11
12971.58862012218
 21
2833.6406993230439
 31
0.0
  0
LINE
  5
1B881
  8
TATEDOISIJIKANAGU
 10
13021.588620122169
 20
2871.6282470304718
 30
0.0
 11
13021.588620122169
 21
2833.6406993230439
 31
0.0
  0
ARC
  5
1B882
  8
TATEDOISIJIKANAGU
 10
13031.58862012218
 20
2833.6406993230439
 30
0.0
 40
60.0
 50
180.0
 51
250.00000000002871
  0
ARC
  5
1B883
  8
TATEDOISIJIKANAGU
 10
13031.58862012218
 20
2833.6406993230439
 30
0.0
 40
10.0
 50
180.0
 51
250.00000000002871
  0
LINE
  5
1B884
  8
TATEDOISIJIKANAGU
 10
13028.16841868892
 20
2824.2437731151881
 30
0.0
 11
13068.620024188311
 21
2809.5205927851239
 31
0.0
  0
LINE
  5
1B885
  8
TATEDOISIJIKANAGU
 10
13011.067411522619
 20
2777.2591420758931
 30
0.0
 11
13051.51901702201
 21
2762.5359617458289
 31
0.0
  0
LINE
  5
1B886
  8
TATEDOISIJIKANAGU
 10
13142.51231550995
 20
4381.772643139625
 30
0.0
 11
13158.51210735446
 21
4386.6133787958061
 31
0.0
  0
LINE
  5
1B887
  8
TATEDOISIJIKANAGU
 10
13153.14306305826
 20
4344.2494875345319
 30
0.0
 11
13169.14285490275
 21
4349.0902231907075
 31
0.0
  0
ARC
  5
1B888
  8
TATEDOISIJIKANAGU
 10
13199.54193199853
 20
4380.9362958907923
 30
0.0
 40
43.466889548874903
 50
173.35744435499171
 51
226.76145292773651
  0
LINE
  5
1B889
  8
TATEDOISIJIKANAGU
 10
12961.188620122181
 20
4079.7967985685332
 30
0.0
 11
12961.188620122181
 21
4053.8967985685358
 31
0.0
  0
LINE
  5
1B88A
  8
TATEDOISIJIKANAGU
 10
12962.688620122181
 20
4052.3967985685358
 30
0.0
 11
12968.88882827767
 21
4052.3967985685358
 31
0.0
  0
ARC
  5
1B88B
  8
TATEDOISIJIKANAGU
 10
12962.688620122181
 20
4053.8967985685358
 30
0.0
 40
1.5
 50
180.0
 51
270.0
  0
ARC
  5
1B88C
  8
TATEDOISIJIKANAGU
 10
12962.688620122181
 20
4053.8967985685358
 30
0.0
 40
4.099999999999997
 50
180.0
 51
270.0
  0
LINE
  5
1B88D
  8
TATEDOISIJIKANAGU
 10
12972.98882827767
 20
4048.296798568535
 30
0.0
 11
12972.98882827767
 21
4033.2967985685341
 31
0.0
  0
LINE
  5
1B88E
  8
TATEDOISIJIKANAGU
 10
12972.98882827767
 20
4033.2967985685341
 30
0.0
 11
12970.38882827767
 21
4033.2967985685341
 31
0.0
  0
LINE
  5
1B88F
  8
TATEDOISIJIKANAGU
 10
12970.38882827767
 20
4033.2967985685341
 30
0.0
 11
12970.38882827767
 21
4048.296798568535
 31
0.0
  0
LINE
  5
1B890
  8
TATEDOISIJIKANAGU
 10
12968.88882827767
 20
4049.796798568535
 30
0.0
 11
12962.688620122181
 21
4049.796798568535
 31
0.0
  0
ARC
  5
1B891
  8
TATEDOISIJIKANAGU
 10
12968.88882827767
 20
4048.296798568535
 30
0.0
 40
1.5
 50
0.0
 51
90.0
  0
ARC
  5
1B892
  8
TATEDOISIJIKANAGU
 10
12968.88882827767
 20
4048.296798568535
 30
0.0
 40
4.099999999999997
 50
0.0
 51
90.0
  0
LINE
  5
1B893
  8
TATEDOISIJIKANAGU
 10
12958.58862012218
 20
4053.8967985685358
 30
0.0
 11
12958.58862012218
 21
4079.7967985685332
 31
0.0
  0
LINE
  5
1B894
  8
TATEDOISIJIKANAGU
 10
12958.58862012218
 20
4079.7967985685332
 30
0.0
 11
12961.188620122181
 21
4079.7967985685332
 31
0.0
  0
LINE
  5
1B895
  8
TATEDOISIJIKANAGU
  6
1PL-S
 62
     6
 10
12951.97862012217
 20
4064.796798568535
 30
0.0
 11
12967.79862012217
 21
4064.796798568535
 31
0.0
  0
LINE
  5
1B896
  8
TATEDOISIJIKANAGU
 10
12996.58862012218
 20
4047.7967985685332
 30
0.0
 11
12996.58862012218
 21
4035.2967985685332
 31
0.0
  0
ARC
  5
1B897
  8
TATEDOISIJIKANAGU
 10
13001.29158021757
 20
4041.546798568535
 30
0.0
 40
12.840388328775591
 50
150.8731100751736
 51
209.1268899248262
  0
LINE
  5
1B898
  8
TATEDOISIJIKANAGU
 10
12961.188620122181
 20
3081.796798568535
 30
0.0
 11
12961.188620122181
 21
3055.8967985685358
 31
0.0
  0
LINE
  5
1B899
  8
TATEDOISIJIKANAGU
 10
12962.688620122181
 20
3054.3967985685358
 30
0.0
 11
12968.88882827767
 21
3054.3967985685358
 31
0.0
  0
ARC
  5
1B89A
  8
TATEDOISIJIKANAGU
 10
12962.688620122181
 20
3055.8967985685358
 30
0.0
 40
1.5
 50
180.0
 51
270.0
  0
ARC
  5
1B89B
  8
TATEDOISIJIKANAGU
 10
12962.688620122181
 20
3055.8967985685358
 30
0.0
 40
4.099999999999997
 50
180.0
 51
270.0
  0
LINE
  5
1B89C
  8
TATEDOISIJIKANAGU
 10
12972.98882827767
 20
3050.2967985685341
 30
0.0
 11
12972.98882827767
 21
3035.296798568535
 31
0.0
  0
LINE
  5
1B89D
  8
TATEDOISIJIKANAGU
 10
12972.98882827767
 20
3035.296798568535
 30
0.0
 11
12970.38882827767
 21
3035.296798568535
 31
0.0
  0
LINE
  5
1B89E
  8
TATEDOISIJIKANAGU
 10
12970.38882827767
 20
3035.296798568535
 30
0.0
 11
12970.38882827767
 21
3050.2967985685341
 31
0.0
  0
LINE
  5
1B89F
  8
TATEDOISIJIKANAGU
 10
12968.88882827767
 20
3051.7967985685341
 30
0.0
 11
12962.688620122181
 21
3051.7967985685341
 31
0.0
  0
ARC
  5
1B8A0
  8
TATEDOISIJIKANAGU
 10
12968.88882827767
 20
3050.2967985685341
 30
0.0
 40
1.5
 50
0.0
 51
90.0
  0
ARC
  5
1B8A1
  8
TATEDOISIJIKANAGU
 10
12968.88882827767
 20
3050.2967985685341
 30
0.0
 40
4.099999999999997
 50
0.0
 51
90.0
  0
LINE
  5
1B8A2
  8
TATEDOISIJIKANAGU
 10
12958.58862012218
 20
3055.8967985685358
 30
0.0
 11
12958.58862012218
 21
3081.796798568535
 31
0.0
  0
LINE
  5
1B8A3
  8
TATEDOISIJIKANAGU
 10
12958.58862012218
 20
3081.796798568535
 30
0.0
 11
12961.188620122181
 21
3081.796798568535
 31
0.0
  0
LINE
  5
1B8A4
  8
TATEDOISIJIKANAGU
  6
1PL-S
 62
     6
 10
12951.97862012217
 20
3066.7967985685341
 30
0.0
 11
12967.79862012217
 21
3066.7967985685341
 31
0.0
  0
LINE
  5
1B8A5
  8
TATEDOISIJIKANAGU
 10
12996.58862012218
 20
3049.796798568535
 30
0.0
 11
12996.58862012218
 21
3037.2967985685332
 31
0.0
  0
ARC
  5
1B8A6
  8
TATEDOISIJIKANAGU
 10
13001.29158021757
 20
3043.5467985685341
 30
0.0
 40
12.840388328775591
 50
150.8731100751736
 51
209.1268899248262
  0
LINE
  5
1B8A7
  8
GAKU_BUCHI
 10
12893.58862012218
 20
3663.546798568535
 30
0.0
 11
12893.58862012218
 21
2881.546798568535
 31
0.0
  0
LINE
  5
1B8A8
  8
DOU_BUCHI
 10
11523.58862012218
 20
3626.546798568535
 30
0.0
 11
12893.58862012218
 21
3626.546798568535
 31
0.0
  0
LINE
  5
1B8A9
  8
DOU_BUCHI
 10
11523.58862012218
 20
2918.5467985685341
 30
0.0
 11
12893.58862012218
 21
2918.5467985685341
 31
0.0
  0
LINE
  5
1B8AA
  8
U1
 10
11523.58862012218
 20
3167.3467985685352
 30
0.0
 11
12893.58862012218
 21
3167.3467985685329
 31
0.0
  0
LINE
  5
1B8AB
  8
U1
 10
11523.58862012218
 20
3175.7467985685321
 30
0.0
 11
12893.58862012218
 21
3175.7467985685321
 31
0.0
  0
LINE
  5
1B8AC
  8
U1
 10
11523.58862012218
 20
3367.3467985685329
 30
0.0
 11
12893.58862012218
 21
3367.3467985685329
 31
0.0
  0
LINE
  5
1B8AD
  8
U1
 10
11523.58862012218
 20
3375.7467985685321
 30
0.0
 11
12893.58862012218
 21
3375.7467985685321
 31
0.0
  0
LINE
  5
1B8AE
  8
DOU_BUCHI
 10
11523.58862012218
 20
2881.546798568535
 30
0.0
 11
12893.58862012218
 21
2881.546798568535
 31
0.0
  0
LINE
  5
1B8AF
  8
DOU_BUCHI
 10
11523.58862012218
 20
3663.546798568535
 30
0.0
 11
12893.58862012218
 21
3663.546798568535
 31
0.0
  0
LINE
  5
1B8B0
  8
GAKU_BUCHI
 10
11523.58862012218
 20
3663.546798568535
 30
0.0
 11
11523.58862012218
 21
2881.546798568535
 31
0.0
  0
TEXT
  5
1B8B1
  8
HIKIDASHI
 10
5087.8460672583496
 20
9312.6929561227498
 30
0.0
 40
90.0
  1
母屋金具
  7
02
  0
LINE
  5
1B8B2
  8
HIKIDASHI
 10
5057.8460672583487
 20
9267.6929561227516
 30
0.0
 11
5511.1913995402647
 21
9267.6929561227516
 31
0.0
  0
LINE
  5
1B8B3
  8
HIKIDASHI
 10
5186.7922875560116
 20
8717.8076453950325
 30
0.0
 11
5648.6163956743057
 21
8717.8076453950325
 31
0.0
  0
TEXT
  5
1B8B4
  8
HIKIDASHI
 10
5216.7922875560098
 20
8762.8076453950325
 30
0.0
 40
90.0
  1
屋根受け
  7
02
  0
LINE
  5
1B8B5
  8
DOU_BUCHI
 10
4861.3738593810176
 20
10222.15781342095
 30
0.0
 11
5275.7507976909728
 21
10222.15781342095
 31
0.0
  0
LINE
  5
1B8B6
  8
DOU_BUCHI
 10
4861.3738593810176
 20
10272.15781342095
 30
0.0
 11
5251.0077001236832
 21
10272.15781342095
 31
0.0
  0
LINE
  5
1B8B7
  8
HARI
 10
4796.3738593810176
 20
10169.059250591121
 30
0.0
 11
4796.3738593810176
 21
10283.357843081871
 31
0.0
  0
LINE
  5
1B8B8
  8
HARI
 10
4861.3738593810176
 20
10169.059250591121
 30
0.0
 11
4861.3738593810176
 21
10283.357843081871
 31
0.0
  0
LINE
  5
1B8B9
  8
HARI
 10
4796.3738593810176
 20
9580.5592505911154
 30
0.0
 11
4796.3738593810194
 21
10098.458815591121
 31
0.0
  0
LINE
  5
1B8BA
  8
HARI
 10
4861.3738593810176
 20
9580.5592505911154
 30
0.0
 11
4861.3738593810176
 21
10098.458815591121
 31
0.0
  0
LINE
  5
1B8BB
  8
HARI
 10
4796.3738593810176
 20
8992.0592505911136
 30
0.0
 11
4796.3738593810194
 21
9509.958815591126
 31
0.0
  0
LINE
  5
1B8BC
  8
HARI
 10
4861.3738593810167
 20
8992.0592505911136
 30
0.0
 11
4861.3738593810176
 21
9509.958815591126
 31
0.0
  0
LINE
  5
1B8BD
  8
HARI
 10
4796.3738593810194
 20
8403.5592505911172
 30
0.0
 11
4796.3738593810176
 21
8921.4588155911279
 31
0.0
  0
LINE
  5
1B8BE
  8
HARI
 10
4861.3738593810167
 20
8403.5592505911172
 30
0.0
 11
4861.3738593810203
 21
8921.4588155911279
 31
0.0
  0
LINE
  5
1B8BF
  8
U1
 10
4796.3738593810203
 20
8283.3578430818816
 30
0.0
 11
4861.3738593810176
 21
8283.3578430818816
 31
0.0
  0
ARC
  5
1B8C0
  8
U1
 10
4828.8738593810203
 20
8294.3578430818816
 30
0.0
 40
36.0
 50
205.47436945126071
 51
334.52563054873917
  0
LINE
  5
1B8C1
  8
U1
 10
4796.3738593810203
 20
8278.8739805146779
 30
0.0
 11
4796.3738593810203
 21
8283.3578430818816
 31
0.0
  0
LINE
  5
1B8C2
  8
U1
 10
4861.3738593810176
 20
8283.3578430818816
 30
0.0
 11
4861.3738593810176
 21
8278.8739805146761
 31
0.0
  0
LINE
  5
1B8C3
  8
HARI
 10
4796.3738593810176
 20
8283.3578430818816
 30
0.0
 11
4796.3738593810194
 21
8332.9588155911279
 31
0.0
  0
LINE
  5
1B8C4
  8
HARI
 10
4861.3738593810167
 20
8283.3578430818816
 30
0.0
 11
4861.3738593810176
 21
8332.9588155911279
 31
0.0
  0
TEXT
  5
1B8C5
  8
HIKIDASHI
 10
3936.2267430357902
 20
9860.8293735595616
 30
0.0
 40
90.0
  1
母屋
  7
01
  0
CIRCLE
  5
1B8C6
  8
HIKIDASHI
 10
4238.8613416030157
 20
9905.8293735595616
 30
0.0
 40
60.0
  0
TEXT
  5
1B8C7
  8
HIKIDASHI
 10
4206.3613416030157
 20
9868.3293735595616
 30
0.0
 40
75.0
  1
ア
  7
01
 72
     1
 11
4238.8613416030157
 21
9905.8293735595616
 31
0.0
 73
     2
  0
TEXT
  5
1B8C8
  8
HIKIDASHI
 10
3936.2267430357902
 20
10747.989712302069
 30
0.0
 40
90.0
  1
胴縁
  7
01
  0
CIRCLE
  5
1B8C9
  8
HIKIDASHI
 10
4238.8613416030157
 20
10792.98971230208
 30
0.0
 40
60.0
  0
TEXT
  5
1B8CA
  8
HIKIDASHI
 10
4206.3613416030157
 20
10755.48971230208
 30
0.0
 40
75.0
  1
ア
  7
01
 72
     1
 11
4238.8613416030157
 21
10792.98971230208
 31
0.0
 73
     2
  0
LINE
  5
1B8CB
  8
HIKIDASHI
 10
4019.552340532332
 20
9125.3008998335445
 30
0.0
 11
4479.880818470122
 21
9125.3008998335445
 31
0.0
  0
TEXT
  5
1B8CC
  8
HIKIDASHI
 10
4330.7099542917986
 20
9170.3008998335463
 30
0.0
 40
90.0
  1
2.3
 41
0.6700000000000002
  7
00
  0
TEXT
  5
1B8CD
  8
HIKIDASHI
 10
4049.552340532332
 20
9170.3008998335463
 30
0.0
 40
90.0
  1
梁
  7
01
  0
CIRCLE
  5
1B8CE
  8
HIKIDASHI
 10
4238.8613416030157
 20
9215.3008998335481
 30
0.0
 40
60.0
  0
TEXT
  5
1B8CF
  8
HIKIDASHI
 10
4206.3613416030157
 20
9177.8008998335463
 30
0.0
 40
75.0
  1
ア
  7
01
 72
     1
 11
4238.8613416030157
 21
9215.3008998335481
 31
0.0
 73
     2
  0
LINE
  5
1B8D0
  8
HIKIDASHI
 10
3906.2267430357888
 20
10702.98971230208
 30
0.0
 11
4479.880818470122
 21
10702.98971230208
 31
0.0
  0
TEXT
  5
1B8D1
  8
HIKIDASHI
 10
4330.7099542917986
 20
10747.989712302069
 30
0.0
 40
90.0
  1
1.6
 41
0.6700000000000002
  7
00
  0
LINE
  5
1B8D2
  8
HIKIDASHI
 10
3906.2267430357888
 20
9815.8293735595616
 30
0.0
 11
4479.880818470122
 21
9815.8293735595616
 31
0.0
  0
TEXT
  5
1B8D3
  8
HIKIDASHI
 10
4330.7099542917986
 20
9860.8293735595616
 30
0.0
 40
90.0
  1
1.6
 41
0.6700000000000002
  7
00
  0
LINE
  5
1B8D4
  8
HIKIDASHI
 10
5036.2696622160329
 20
8513.8293968802882
 30
0.0
 11
5496.598140153822
 21
8513.8293968802882
 31
0.0
  0
TEXT
  5
1B8D5
  8
HIKIDASHI
 10
5347.4272759755013
 20
8558.8293968802882
 30
0.0
 40
90.0
  1
2.3
 41
0.6700000000000002
  7
00
  0
TEXT
  5
1B8D6
  8
HIKIDASHI
 10
5066.2696622160329
 20
8558.8293968802882
 30
0.0
 40
90.0
  1
柱
  7
01
  0
CIRCLE
  5
1B8D7
  8
HIKIDASHI
 10
5255.5786632867157
 20
8603.8293968802918
 30
0.0
 40
60.0
  0
TEXT
  5
1B8D8
  8
HIKIDASHI
 10
5223.0786632867157
 20
8566.32939688029
 30
0.0
 40
75.0
  1
ア
  7
01
 72
     1
 11
5255.5786632867157
 21
8603.8293968802918
 31
0.0
 73
     2
  0
LINE
  5
1B8D9
  8
MOYA
 10
4593.8736283810158
 20
8969.2578685911176
 30
0.0
 11
4773.8707223810179
 21
8969.2578685911176
 31
0.0
  0
LINE
  5
1B8DA
  8
MOYA
 10
4803.8726883810177
 20
9029.7629285911153
 30
0.0
 11
4853.874330381017
 21
9029.7629285911153
 31
0.0
  0
LINE
  5
1B8DB
  8
MOYA
 10
4798.8697943810157
 20
8992.0592505911136
 30
0.0
 11
4798.8697943810157
 21
9024.7586345911277
 31
0.0
  0
LINE
  5
1B8DC
  8
MOYA
 10
4858.8744243810079
 20
9024.7586345911277
 30
0.0
 11
4858.8744243810079
 21
8992.0592505911136
 31
0.0
  0
LINE
  5
1B8DD
  8
MOYA
 10
4773.8707223810179
 20
8992.0592505911136
 30
0.0
 11
4883.8720963810183
 21
8992.0592505911136
 31
0.0
  0
LINE
  5
1B8DE
  8
MOYA
 10
4798.8697943810157
 20
8921.4588155911279
 30
0.0
 11
4798.8697943810157
 21
8888.7636295911307
 31
0.0
  0
LINE
  5
1B8DF
  8
MOYA
 10
4858.8744243810079
 20
8888.7636295911307
 30
0.0
 11
4858.8744243810079
 21
8921.4588155911279
 31
0.0
  0
LINE
  5
1B8E0
  8
MOYA
 10
4803.8726883810177
 20
8883.7579365911297
 30
0.0
 11
4853.874330381017
 21
8883.7579365911297
 31
0.0
  0
LINE
  5
1B8E1
  8
MOYA
 10
4883.8720963810183
 20
8921.4588155911279
 30
0.0
 11
4773.8707223810179
 21
8921.4588155911279
 31
0.0
  0
LINE
  5
1B8E2
  8
MOYA
 10
4773.8707223810179
 20
8921.4588155911279
 30
0.0
 11
4773.8707223810179
 21
8992.0592505911136
 31
0.0
  0
LINE
  5
1B8E3
  8
MOYA
 10
4883.8720963810183
 20
8992.0592505911136
 30
0.0
 11
4883.8720963810183
 21
8921.4588155911279
 31
0.0
  0
LINE
  5
1B8E4
  8
MOYA
 10
4593.8736283810158
 20
8989.2596455911262
 30
0.0
 11
4593.8736283810158
 21
8924.2598195911196
 31
0.0
  0
LINE
  5
1B8E5
  8
MOYA
 10
4593.8736283810158
 20
8924.2598195911196
 30
0.0
 11
4773.8707223810179
 21
8924.2598195911196
 31
0.0
  0
LINE
  5
1B8E6
  8
MOYA
 10
4593.8736283810158
 20
8989.2596455911262
 30
0.0
 11
4773.8707223810179
 21
8989.2596455911262
 31
0.0
  0
CIRCLE
  5
1B8E7
  8
MOYA
 10
4828.8738593810194
 20
9006.7613755911261
 30
0.0
 40
9.0
  0
ARC
  5
1B8E8
  8
MOYA
 10
4803.8726883810177
 20
9024.7586345911277
 30
0.0
 40
5.0
 50
90.0
 51
180.0
  0
ARC
  5
1B8E9
  8
MOYA
 10
4853.874330381017
 20
9024.7586345911277
 30
0.0
 40
5.0
 50
0.0
 51
90.0
  0
ARC
  5
1B8EA
  8
MOYA
 10
4803.8726883810177
 20
8888.7636295911307
 30
0.0
 40
5.0
 50
180.0
 51
270.0
  0
ARC
  5
1B8EB
  8
MOYA
 10
4853.874330381017
 20
8888.7636295911307
 30
0.0
 40
5.0
 50
270.0
 51
0.0
  0
CIRCLE
  5
1B8EC
  8
MOYA
 10
4828.8738593810194
 20
8906.759489591117
 30
0.0
 40
9.0
  0
LINE
  5
1B8ED
  8
MOYA
 10
4883.8720963810183
 20
8969.2578685911176
 30
0.0
 11
5895.7633092305277
 21
8969.2578685911176
 31
0.0
  0
LINE
  5
1B8EE
  8
MOYA
 10
4883.8720963810183
 20
8924.259819591116
 30
0.0
 11
5918.0311315654199
 21
8924.2598195911196
 31
0.0
  0
LINE
  5
1B8EF
  8
MOYA
 10
4883.8720963810192
 20
8989.2596455911316
 30
0.0
 11
5885.8651908339207
 21
8989.2596455911262
 31
0.0
  0
LINE
  5
1B8F0
  8
MOYA
 10
4593.8736283810158
 20
8380.7578685911176
 30
0.0
 11
4773.8707223810179
 21
8380.7578685911176
 31
0.0
  0
LINE
  5
1B8F1
  8
MOYA
 10
4803.8726883810177
 20
8441.2629285911153
 30
0.0
 11
4853.874330381017
 21
8441.2629285911153
 31
0.0
  0
LINE
  5
1B8F2
  8
MOYA
 10
4798.8697943810157
 20
8403.5592505911172
 30
0.0
 11
4798.8697943810157
 21
8436.2586345911259
 31
0.0
  0
LINE
  5
1B8F3
  8
MOYA
 10
4858.8744243810079
 20
8436.2586345911259
 30
0.0
 11
4858.8744243810079
 21
8403.5592505911172
 31
0.0
  0
LINE
  5
1B8F4
  8
MOYA
 10
4773.8707223810179
 20
8403.5592505911172
 30
0.0
 11
4883.8720963810183
 21
8403.5592505911172
 31
0.0
  0
LINE
  5
1B8F5
  8
MOYA
 10
4798.8697943810157
 20
8332.9588155911279
 30
0.0
 11
4798.8697943810157
 21
8300.2636295911252
 31
0.0
  0
LINE
  5
1B8F6
  8
MOYA
 10
4858.8744243810079
 20
8300.2636295911252
 30
0.0
 11
4858.8744243810079
 21
8332.9588155911279
 31
0.0
  0
LINE
  5
1B8F7
  8
MOYA
 10
4803.8726883810177
 20
8295.2579365911224
 30
0.0
 11
4853.874330381017
 21
8295.2579365911224
 31
0.0
  0
LINE
  5
1B8F8
  8
MOYA
 10
4883.8720963810183
 20
8332.9588155911279
 30
0.0
 11
4773.8707223810179
 21
8332.9588155911279
 31
0.0
  0
LINE
  5
1B8F9
  8
MOYA
 10
4773.8707223810179
 20
8332.9588155911279
 30
0.0
 11
4773.8707223810179
 21
8403.5592505911172
 31
0.0
  0
LINE
  5
1B8FA
  8
MOYA
 10
4883.8720963810183
 20
8403.5592505911172
 30
0.0
 11
4883.8720963810183
 21
8332.9588155911279
 31
0.0
  0
LINE
  5
1B8FB
  8
MOYA
 10
4593.8736283810158
 20
8400.7596455911262
 30
0.0
 11
4593.8736283810158
 21
8335.7598195911178
 31
0.0
  0
LINE
  5
1B8FC
  8
MOYA
 10
4593.8736283810158
 20
8335.7598195911178
 30
0.0
 11
4773.8707223810179
 21
8335.7598195911178
 31
0.0
  0
LINE
  5
1B8FD
  8
MOYA
 10
4593.8736283810158
 20
8400.7596455911262
 30
0.0
 11
4773.8707223810179
 21
8400.7596455911262
 31
0.0
  0
CIRCLE
  5
1B8FE
  8
MOYA
 10
4828.8738593810194
 20
8418.2613755911261
 30
0.0
 40
9.0
  0
ARC
  5
1B8FF
  8
MOYA
 10
4803.8726883810177
 20
8436.2586345911259
 30
0.0
 40
5.0
 50
90.0
 51
180.0
  0
ARC
  5
1B900
  8
MOYA
 10
4853.874330381017
 20
8436.2586345911259
 30
0.0
 40
5.0
 50
0.0
 51
90.0
  0
ARC
  5
1B901
  8
MOYA
 10
4803.8726883810177
 20
8300.2636295911252
 30
0.0
 40
5.0
 50
180.0
 51
270.0
  0
ARC
  5
1B902
  8
MOYA
 10
4853.874330381017
 20
8300.2636295911252
 30
0.0
 40
5.0
 50
270.0
 51
0.0
  0
CIRCLE
  5
1B903
  8
MOYA
 10
4828.8738593810194
 20
8318.259489591117
 30
0.0
 40
9.0
  0
LINE
  5
1B904
  8
MOYA
 10
4883.8720963810183
 20
8380.7578685911176
 30
0.0
 11
6186.9895675975376
 21
8380.7578685911176
 31
0.0
  0
LINE
  5
1B905
  8
MOYA
 10
4883.8720963810183
 20
8335.759819591116
 30
0.0
 11
6209.2573899324316
 21
8335.7598195911178
 31
0.0
  0
LINE
  5
1B906
  8
MOYA
 10
4883.8720963810192
 20
8400.7596455911262
 30
0.0
 11
6177.0914492009333
 21
8400.7596455911262
 31
0.0
  0
LINE
  5
1B907
  8
MOYA
 10
4593.8736283810158
 20
9557.7578685911158
 30
0.0
 11
4773.8707223810179
 21
9557.7578685911158
 31
0.0
  0
LINE
  5
1B908
  8
MOYA
 10
4803.8726883810177
 20
9618.2629285911207
 30
0.0
 11
4853.874330381017
 21
9618.2629285911207
 31
0.0
  0
LINE
  5
1B909
  8
MOYA
 10
4798.8697943810157
 20
9580.5592505911154
 30
0.0
 11
4798.8697943810157
 21
9613.2586345911277
 31
0.0
  0
LINE
  5
1B90A
  8
MOYA
 10
4858.8744243810079
 20
9613.2586345911277
 30
0.0
 11
4858.8744243810079
 21
9580.5592505911154
 31
0.0
  0
LINE
  5
1B90B
  8
MOYA
 10
4773.8707223810179
 20
9580.5592505911154
 30
0.0
 11
4883.8720963810183
 21
9580.5592505911154
 31
0.0
  0
LINE
  5
1B90C
  8
MOYA
 10
4798.8697943810157
 20
9509.9588155911279
 30
0.0
 11
4798.8697943810157
 21
9477.2636295911234
 31
0.0
  0
LINE
  5
1B90D
  8
MOYA
 10
4858.8744243810079
 20
9477.2636295911234
 30
0.0
 11
4858.8744243810079
 21
9509.9588155911279
 31
0.0
  0
LINE
  5
1B90E
  8
MOYA
 10
4803.8726883810177
 20
9472.2579365911242
 30
0.0
 11
4853.874330381017
 21
9472.2579365911242
 31
0.0
  0
LINE
  5
1B90F
  8
MOYA
 10
4883.8720963810183
 20
9509.9588155911279
 30
0.0
 11
4773.8707223810179
 21
9509.9588155911279
 31
0.0
  0
LINE
  5
1B910
  8
MOYA
 10
4773.8707223810179
 20
9509.9588155911279
 30
0.0
 11
4773.8707223810179
 21
9580.5592505911154
 31
0.0
  0
LINE
  5
1B911
  8
MOYA
 10
4883.8720963810183
 20
9580.5592505911154
 30
0.0
 11
4883.8720963810183
 21
9509.9588155911279
 31
0.0
  0
LINE
  5
1B912
  8
MOYA
 10
4593.8736283810158
 20
9577.7596455911262
 30
0.0
 11
4593.8736283810158
 21
9512.7598195911141
 31
0.0
  0
LINE
  5
1B913
  8
MOYA
 10
4593.8736283810158
 20
9512.7598195911141
 30
0.0
 11
4773.8707223810179
 21
9512.7598195911141
 31
0.0
  0
LINE
  5
1B914
  8
MOYA
 10
4593.8736283810158
 20
9577.7596455911262
 30
0.0
 11
4773.8707223810179
 21
9577.7596455911262
 31
0.0
  0
CIRCLE
  5
1B915
  8
MOYA
 10
4828.8738593810194
 20
9595.2613755911261
 30
0.0
 40
9.0
  0
ARC
  5
1B916
  8
MOYA
 10
4803.8726883810177
 20
9613.2586345911277
 30
0.0
 40
5.0
 50
90.0
 51
180.0
  0
ARC
  5
1B917
  8
MOYA
 10
4853.874330381017
 20
9613.2586345911277
 30
0.0
 40
5.0
 50
0.0
 51
90.0
  0
ARC
  5
1B918
  8
MOYA
 10
4803.8726883810177
 20
9477.2636295911234
 30
0.0
 40
5.0
 50
180.0
 51
270.0
  0
ARC
  5
1B919
  8
MOYA
 10
4853.874330381017
 20
9477.2636295911234
 30
0.0
 40
5.0
 50
270.0
 51
0.0
  0
CIRCLE
  5
1B91A
  8
MOYA
 10
4828.8738593810194
 20
9495.2594895911207
 30
0.0
 40
9.0
  0
LINE
  5
1B91B
  8
MOYA
 10
4883.8720963810183
 20
9557.7578685911158
 30
0.0
 11
5604.5370508635178
 21
9557.7578685911158
 31
0.0
  0
LINE
  5
1B91C
  8
MOYA
 10
4883.8720963810183
 20
9512.7598195911141
 30
0.0
 11
5626.8048731984127
 21
9512.7598195911141
 31
0.0
  0
LINE
  5
1B91D
  8
MOYA
 10
4883.8720963810192
 20
9577.7596455911262
 30
0.0
 11
5594.638932466909
 21
9577.7596455911262
 31
0.0
  0
LINE
  5
1B91E
  8
MOYA
 10
4593.8736283810158
 20
10146.25786859111
 30
0.0
 11
4773.8707223810179
 21
10146.25786859111
 31
0.0
  0
LINE
  5
1B91F
  8
MOYA
 10
4803.8726883810177
 20
10206.76292859111
 30
0.0
 11
4853.874330381017
 21
10206.76292859111
 31
0.0
  0
LINE
  5
1B920
  8
MOYA
 10
4798.8697943810157
 20
10169.05925059111
 30
0.0
 11
4798.8697943810157
 21
10201.75863459112
 31
0.0
  0
LINE
  5
1B921
  8
MOYA
 10
4858.8744243810079
 20
10201.75863459112
 30
0.0
 11
4858.8744243810079
 21
10169.05925059111
 31
0.0
  0
LINE
  5
1B922
  8
MOYA
 10
4773.8707223810179
 20
10169.05925059111
 30
0.0
 11
4883.8720963810183
 21
10169.05925059111
 31
0.0
  0
LINE
  5
1B923
  8
MOYA
 10
4798.8697943810157
 20
10098.458815591121
 30
0.0
 11
4798.8697943810157
 21
10065.76362959112
 31
0.0
  0
LINE
  5
1B924
  8
MOYA
 10
4858.8744243810079
 20
10065.76362959112
 30
0.0
 11
4858.8744243810079
 21
10098.458815591121
 31
0.0
  0
LINE
  5
1B925
  8
MOYA
 10
4803.8726883810177
 20
10060.757936591121
 30
0.0
 11
4853.874330381017
 21
10060.757936591121
 31
0.0
  0
LINE
  5
1B926
  8
MOYA
 10
4883.8720963810183
 20
10098.458815591121
 30
0.0
 11
4773.8707223810179
 21
10098.458815591121
 31
0.0
  0
LINE
  5
1B927
  8
MOYA
 10
4773.8707223810179
 20
10098.458815591121
 30
0.0
 11
4773.8707223810179
 21
10169.05925059111
 31
0.0
  0
LINE
  5
1B928
  8
MOYA
 10
4883.8720963810183
 20
10169.05925059111
 30
0.0
 11
4883.8720963810183
 21
10098.458815591121
 31
0.0
  0
LINE
  5
1B929
  8
MOYA
 10
4593.8736283810158
 20
10166.259645591121
 30
0.0
 11
4593.8736283810158
 21
10101.25981959111
 31
0.0
  0
LINE
  5
1B92A
  8
MOYA
 10
4593.8736283810158
 20
10101.25981959111
 30
0.0
 11
4773.8707223810179
 21
10101.25981959111
 31
0.0
  0
LINE
  5
1B92B
  8
MOYA
 10
4593.8736283810158
 20
10166.259645591121
 30
0.0
 11
4773.8707223810179
 21
10166.259645591121
 31
0.0
  0
CIRCLE
  5
1B92C
  8
MOYA
 10
4828.8738593810194
 20
10183.761375591121
 30
0.0
 40
9.0
  0
ARC
  5
1B92D
  8
MOYA
 10
4803.8726883810177
 20
10201.75863459112
 30
0.0
 40
5.0
 50
90.0
 51
180.0
  0
ARC
  5
1B92E
  8
MOYA
 10
4853.874330381017
 20
10201.75863459112
 30
0.0
 40
5.0
 50
0.0
 51
90.0
  0
ARC
  5
1B92F
  8
MOYA
 10
4803.8726883810177
 20
10065.76362959112
 30
0.0
 40
5.0
 50
180.0
 51
270.0
  0
ARC
  5
1B930
  8
MOYA
 10
4853.874330381017
 20
10065.76362959112
 30
0.0
 40
5.0
 50
270.0
 51
0.0
  0
CIRCLE
  5
1B931
  8
MOYA
 10
4828.8738593810194
 20
10083.75948959111
 30
0.0
 40
9.0
  0
LINE
  5
1B932
  8
MOYA
 10
4883.8720963810183
 20
10146.25786859111
 30
0.0
 11
5313.310792496507
 21
10146.25786859111
 31
0.0
  0
LINE
  5
1B933
  8
MOYA
 10
4883.8720963810183
 20
10101.25981959111
 30
0.0
 11
5335.578614831401
 21
10101.25981959111
 31
0.0
  0
LINE
  5
1B934
  8
MOYA
 10
4883.8720963810192
 20
10166.25964559113
 30
0.0
 11
5303.412674099899
 21
10166.25964559113
 31
0.0
  0
TEXT
  5
1B935
  8
FILENAME
 10
13778.19047619047
 20
174.0
 30
0.0
 40
100.0
  1
＜YOKRS-240-A1_1_JIS_GL.DXF ＞
  7
FILENAME
 72
     2
 11
16382.0
 21
174.0
 31
0.0
  0
LINE
  5
1B936
  8
WAKUSEN-01
 10
434.0000000000008
 20
413.99999999999972
 30
0.0
 11
16382.0
 21
413.99999999999972
 31
0.0
  0
LINE
  5
1B937
  8
WAKUSEN-01
 10
434.0000000000008
 20
11242.0
 30
0.0
 11
16382.0
 21
11242.0
 31
0.0
  0
LINE
  5
1B938
  8
WAKUSEN-01
 10
434.0000000000008
 20
413.99999999999972
 30
0.0
 11
434.0000000000008
 21
11242.0
 31
0.0
  0
LINE
  5
1B939
  8
WAKUSEN-01
 10
16382.0
 20
413.99999999999972
 30
0.0
 11
16382.0
 21
11242.0
 31
0.0
  0
LINE
  5
1B93A
  8
WAKUSEN-01
 10
10280.0
 20
1242.0
 30
0.0
 11
16382.0
 21
1242.0
 31
0.0
  0
LINE
  5
1B93B
  8
WAKUSEN-02
 10
10280.0
 20
827.99999999999966
 30
0.0
 11
13434.0
 21
827.99999999999966
 31
0.0
  0
TEXT
  5
1B93C
  8
WAKUMOJI-01
 10
10335.130129981369
 20
1062.9515046696611
 30
0.0
 40
120.0
  1
名　称
  7
WAKUMOJI
  0
TEXT
  5
1B93D
  8
WAKUMOJI-01
 10
10328.252742545959
 20
659.56448748991068
 30
0.0
 40
120.0
  1
図面名
  7
WAKUMOJI
  0
LINE
  5
1B93E
  8
WAKUSEN-01
 10
10280.0
 20
413.99999999999841
 30
0.0
 11
10280.0
 21
1242.0
 31
0.0
  0
LINE
  5
1B93F
  8
WAKUSEN-02
 10
13434.0
 20
413.99999999999631
 30
0.0
 11
13434.0
 21
1242.0
 31
0.0
  0
LINE
  5
1B940
  8
YODOROGO
 10
14988.80217064596
 20
997.87474821464355
 30
0.0
 11
14914.80217064596
 21
997.87474821464355
 31
0.0
1001
AUTOCAD_POSTSCRIPT_FIGURE
1002
{
1000
PSFILL
1000
Grayscale
1000
Grayscale
1070
    25
1002
}
  0
LINE
  5
1B941
  8
YODOROGO
 10
14914.80217064596
 20
973.87474821464343
 30
0.0
 11
14988.80217064596
 21
973.87474821464343
 31
0.0
1001
AUTOCAD_POSTSCRIPT_FIGURE
1002
{
1000
PSFILL
1000
Grayscale
1000
Grayscale
1070
    25
1002
}
  0
LINE
  5
1B942
  8
YODOROGO
 10
14988.80217064596
 20
953.874748214644
 30
0.0
 11
14914.80217064596
 21
953.874748214644
 31
0.0
1001
AUTOCAD_POSTSCRIPT_FIGURE
1002
{
1000
PSFILL
1000
Grayscale
1000
Grayscale
1070
    25
1002
}
  0
LINE
  5
1B943
  8
YODOROGO
 10
14914.80217064596
 20
929.874748214644
 30
0.0
 11
14988.80217064596
 21
929.874748214644
 31
0.0
1001
AUTOCAD_POSTSCRIPT_FIGURE
1002
{
1000
PSFILL
1000
Grayscale
1000
Grayscale
1070
    25
1002
}
  0
LINE
  5
1B944
  8
YODOROGO
 10
14988.80217064596
 20
909.87474821464389
 30
0.0
 11
14914.80217064596
 21
909.87474821464389
 31
0.0
1001
AUTOCAD_POSTSCRIPT_FIGURE
1002
{
1000
PSFILL
1000
Grayscale
1000
Grayscale
1070
    25
1002
}
  0
LINE
  5
1B945
  8
YODOROGO
 10
14960.80217064594
 20
853.874748214644
 30
0.0
 11
14988.80217064596
 21
853.874748214644
 31
0.0
1001
AUTOCAD_POSTSCRIPT_FIGURE
1002
{
1000
PSFILL
1000
Grayscale
1000
Grayscale
1070
    25
1002
}
  0
LINE
  5
1B946
  8
YODOROGO
 10
14868.80217064596
 20
713.87474821464355
 30
0.0
 11
14968.80217064596
 21
740.66966745775528
 31
0.0
  0
LINE
  5
1B947
  8
YODOROGO
 10
14974.802170645949
 20
853.874748214644
 30
0.0
 11
14942.80217064596
 21
853.874748214644
 31
0.0
  0
ARC
  5
1B948
  8
YODOROGO
 10
15127.17387491394
 20
903.9323046166312
 30
0.0
 40
190.94343210282361
 50
213.96111677667841
 51
264.47872074317792
  0
ARC
  5
1B949
  8
YODOROGO
 10
15127.17387491396
 20
903.93230461665132
 30
0.0
 40
190.9434321028408
 50
208.14114420486601
 51
212.9210361185994
  0
LINE
  5
1B94A
  8
YODOROGO
 10
14885.704936492641
 20
778.403830673117
 30
0.0
 11
14966.89206625426
 21
800.15785652854356
 31
0.0
  0
LINE
  5
1B94B
  8
YODOROGO
 10
14868.80217064596
 20
713.87474821464355
 30
0.0
 11
14968.80217064596
 21
740.66966745775528
 31
0.0
  0
LINE
  5
1B94C
  8
YODOROGO
 10
14974.802170645949
 20
853.874748214644
 30
0.0
 11
14942.80217064596
 21
853.874748214644
 31
0.0
  0
ARC
  5
1B94D
  8
YODOROGO
 10
15127.17387491394
 20
903.9323046166312
 30
0.0
 40
190.94343210282361
 50
213.96111677667841
 51
264.47872074317792
  0
LINE
  5
1B94E
  8
YODOROGO
 10
14396.80217064594
 20
909.87474821464389
 30
0.0
 11
14216.80217064594
 21
909.87474821464389
 31
0.0
  0
LINE
  5
1B94F
  8
YODOROGO
 10
14256.80217064594
 20
713.87474821464355
 30
0.0
 11
14396.80217064594
 21
713.87474821464355
 31
0.0
  0
LINE
  5
1B950
  8
YODOROGO
 10
14364.80217064596
 20
961.8747482146432
 30
0.0
 11
14248.80217064594
 21
961.8747482146432
 31
0.0
  0
LINE
  5
1B951
  8
YODOROGO
 10
14292.80217064596
 20
1013.874748214644
 30
0.0
 11
14328.80217064596
 21
1013.874748214644
 31
0.0
  0
LINE
  5
1B952
  8
YODOROGO
 10
14216.80217064594
 20
853.874748214644
 30
0.0
 11
14216.80217064594
 21
753.87474821464389
 31
0.0
  0
LINE
  5
1B953
  8
YODOROGO
 10
14248.80217064594
 20
781.87474821464343
 30
0.0
 11
14248.80217064594
 21
853.874748214644
 31
0.0
  0
LINE
  5
1B954
  8
YODOROGO
 10
14292.80217064596
 20
873.87474821464491
 30
0.0
 11
14292.80217064596
 21
773.874748214644
 31
0.0
  0
LINE
  5
1B955
  8
YODOROGO
 10
13928.80217064596
 20
841.87474821464446
 30
0.0
 11
13888.80217064596
 21
809.98620702228561
 31
0.0
  0
LINE
  5
1B956
  8
YODOROGO
 10
13968.80217064596
 20
809.98620702228561
 30
0.0
 11
13928.80217064596
 21
841.87474821464446
 31
0.0
  0
LINE
  5
1B957
  8
YODOROGO
 10
13928.80217064596
 20
853.874748214644
 30
0.0
 11
13968.80217064596
 21
821.98620702228504
 31
0.0
  0
LINE
  5
1B958
  8
YODOROGO
 10
13888.80217064596
 20
821.98620702228504
 30
0.0
 11
13928.80217064596
 21
853.874748214644
 31
0.0
  0
LINE
  5
1B959
  8
YODOROGO
 10
14020.45660200844
 20
829.874748214644
 30
0.0
 11
14020.45660200844
 21
841.87474821464343
 31
0.0
  0
LINE
  5
1B95A
  8
YODOROGO
 10
13988.80217064596
 20
841.87474821464343
 30
0.0
 11
13988.80217064596
 21
833.87474821464275
 31
0.0
  0
LINE
  5
1B95B
  8
YODOROGO
 10
14049.067760115449
 20
853.874748214644
 30
0.0
 11
14049.067760115449
 21
827.75181863732803
 31
0.0
1001
AUTOCAD_POSTSCRIPT_FIGURE
1002
{
1000
PSFILL
1000
Grayscale
1000
Grayscale
1070
   100
1002
}
  0
LINE
  5
1B95C
  8
YODOROGO
 10
14041.06776011546
 20
827.75181863732803
 30
0.0
 11
14041.06776011546
 21
853.874748214644
 31
0.0
1001
AUTOCAD_POSTSCRIPT_FIGURE
1002
{
1000
PSFILL
1000
Grayscale
1000
Grayscale
1070
   100
1002
}
  0
LINE
  5
1B95D
  8
YODOROGO
 10
13904.80217064596
 20
804.38595202162924
 30
0.0
 11
13904.80217064596
 21
816.38595202162981
 31
0.0
  0
LINE
  5
1B95E
  8
YODOROGO
 10
13952.80217064596
 20
804.38595202162924
 30
0.0
 11
13904.80217064596
 21
804.38595202162924
 31
0.0
  0
LINE
  5
1B95F
  8
YODOROGO
 10
13952.80217064596
 20
816.38595202162981
 30
0.0
 11
13952.80217064596
 21
804.38595202162924
 31
0.0
  0
LINE
  5
1B960
  8
YODOROGO
 10
13904.80217064596
 20
816.38595202162981
 30
0.0
 11
13952.80217064596
 21
816.38595202162981
 31
0.0
  0
LINE
  5
1B961
  8
YODOROGO
 10
13912.254794457869
 20
784.25142868523744
 30
0.0
 11
13892.80217064596
 21
737.87474821464355
 31
0.0
1001
AUTOCAD_POSTSCRIPT_FIGURE
1002
{
1000
PSFILL
1000
Grayscale
1000
Grayscale
1070
   100
1002
}
  0
LINE
  5
1B962
  8
YODOROGO
 10
13888.80217064596
 20
784.25142868523744
 30
0.0
 11
13912.254794457869
 21
784.25142868523744
 31
0.0
1001
AUTOCAD_POSTSCRIPT_FIGURE
1002
{
1000
PSFILL
1000
Grayscale
1000
Grayscale
1070
   100
1002
}
  0
LINE
  5
1B963
  8
YODOROGO
 10
13888.80217064596
 20
794.25142868523744
 30
0.0
 11
13888.80217064596
 21
784.25142868523744
 31
0.0
1001
AUTOCAD_POSTSCRIPT_FIGURE
1002
{
1000
PSFILL
1000
Grayscale
1000
Grayscale
1070
   100
1002
}
  0
LINE
  5
1B964
  8
YODOROGO
 10
13968.80217064596
 20
794.25142868523744
 30
0.0
 11
13888.80217064596
 21
794.25142868523744
 31
0.0
1001
AUTOCAD_POSTSCRIPT_FIGURE
1002
{
1000
PSFILL
1000
Grayscale
1000
Grayscale
1070
   100
1002
}
  0
LINE
  5
1B965
  8
YODOROGO
 10
13968.80217064596
 20
784.25142868523744
 30
0.0
 11
13968.80217064596
 21
794.25142868523744
 31
0.0
1001
AUTOCAD_POSTSCRIPT_FIGURE
1002
{
1000
PSFILL
1000
Grayscale
1000
Grayscale
1070
   100
1002
}
  0
LINE
  5
1B966
  8
YODOROGO
 10
13922.25479445786
 20
784.25142868523744
 30
0.0
 11
13968.80217064596
 21
784.25142868523744
 31
0.0
1001
AUTOCAD_POSTSCRIPT_FIGURE
1002
{
1000
PSFILL
1000
Grayscale
1000
Grayscale
1070
   100
1002
}
  0
LINE
  5
1B967
  8
YODOROGO
 10
13907.77335914238
 20
747.87474821464355
 30
0.0
 11
13922.25479445786
 21
784.25142868523744
 31
0.0
1001
AUTOCAD_POSTSCRIPT_FIGURE
1002
{
1000
PSFILL
1000
Grayscale
1000
Grayscale
1070
   100
1002
}
  0
LINE
  5
1B968
  8
YODOROGO
 10
13951.02739540432
 20
747.87474821464355
 30
0.0
 11
13907.77335914238
 21
747.87474821464355
 31
0.0
1001
AUTOCAD_POSTSCRIPT_FIGURE
1002
{
1000
PSFILL
1000
Grayscale
1000
Grayscale
1070
   100
1002
}
  0
LINE
  5
1B969
  8
YODOROGO
 10
13942.53250239547
 20
768.11690534884644
 30
0.0
 11
13951.02739540432
 21
747.87474821464355
 31
0.0
1001
AUTOCAD_POSTSCRIPT_FIGURE
1002
{
1000
PSFILL
1000
Grayscale
1000
Grayscale
1070
   100
1002
}
  0
LINE
  5
1B96A
  8
YODOROGO
 10
13950.53250239547
 20
768.11690534884644
 30
0.0
 11
13942.53250239547
 21
768.11690534884644
 31
0.0
1001
AUTOCAD_POSTSCRIPT_FIGURE
1002
{
1000
PSFILL
1000
Grayscale
1000
Grayscale
1070
   100
1002
}
  0
LINE
  5
1B96B
  8
YODOROGO
 10
13964.80217064596
 20
737.87474821464355
 30
0.0
 11
13950.53250239547
 21
768.11690534884644
 31
0.0
1001
AUTOCAD_POSTSCRIPT_FIGURE
1002
{
1000
PSFILL
1000
Grayscale
1000
Grayscale
1070
   100
1002
}
  0
LINE
  5
1B96C
  8
YODOROGO
 10
13892.80217064596
 20
737.87474821464355
 30
0.0
 11
13964.80217064596
 21
737.87474821464355
 31
0.0
1001
AUTOCAD_POSTSCRIPT_FIGURE
1002
{
1000
PSFILL
1000
Grayscale
1000
Grayscale
1070
   100
1002
}
  0
LINE
  5
1B96D
  8
YODOROGO
 10
13888.80217064596
 20
809.98620702228561
 30
0.0
 11
13888.80217064596
 21
821.98620702228504
 31
0.0
  0
LINE
  5
1B96E
  8
YODOROGO
 10
13968.80217064596
 20
821.98620702228504
 30
0.0
 11
13968.80217064596
 21
809.98620702228561
 31
0.0
  0
ARC
  5
1B96F
  8
YODOROGO
 10
14112.970221073479
 20
800.43888266266299
 30
0.0
 40
87.999999999999943
 50
280.3644312771313
 51
3.5414836592180561
  0
ARC
  5
1B970
  8
YODOROGO
 10
14117.878015379651
 20
816.79890348095205
 30
0.0
 40
55.99999999999914
 50
281.24905825041549
 51
348.75094174958321
  0
LINE
  5
1B971
  8
YODOROGO
 10
14128.80217064596
 20
761.87474821464343
 30
0.0
 11
14128.80217064596
 21
713.87474821464355
 31
0.0
  0
LINE
  5
1B972
  8
YODOROGO
 10
14010.044451868451
 20
805.32528253095745
 30
0.0
 11
14020.45660200844
 21
829.874748214644
 31
0.0
  0
LINE
  5
1B973
  8
YODOROGO
 10
14020.80217064596
 20
791.5602449742006
 30
0.0
 11
14010.044451868451
 21
805.32528253095745
 31
0.0
  0
LINE
  5
1B974
  8
YODOROGO
 10
14020.80217064596
 20
781.56024497419935
 30
0.0
 11
14020.80217064596
 21
791.5602449742006
 31
0.0
  0
LINE
  5
1B975
  8
YODOROGO
 10
14008.80217064596
 20
792.61853187476515
 30
0.0
 11
14020.80217064596
 21
781.56024497419935
 31
0.0
  0
LINE
  5
1B976
  8
YODOROGO
 10
14008.80217064596
 20
737.87474821464355
 30
0.0
 11
14008.80217064596
 21
792.61853187476515
 31
0.0
  0
LINE
  5
1B977
  8
YODOROGO
 10
14000.80217064596
 20
737.87474821464355
 30
0.0
 11
14008.80217064596
 21
737.87474821464355
 31
0.0
  0
LINE
  5
1B978
  8
YODOROGO
 10
14000.80217064596
 20
790.00267484487381
 30
0.0
 11
14000.80217064596
 21
737.87474821464355
 31
0.0
  0
LINE
  5
1B979
  8
YODOROGO
 10
13988.80217064596
 20
766.38403951671421
 30
0.0
 11
14000.80217064596
 21
790.00267484487381
 31
0.0
  0
LINE
  5
1B97A
  8
YODOROGO
 10
13988.80217064596
 20
778.38403951671489
 30
0.0
 11
13988.80217064596
 21
766.38403951671421
 31
0.0
  0
LINE
  5
1B97B
  8
YODOROGO
 10
14012.914387145671
 20
833.87474821464275
 30
0.0
 11
13988.80217064596
 21
778.38403951671489
 31
0.0
  0
LINE
  5
1B97C
  8
YODOROGO
 10
13988.80217064596
 20
833.87474821464275
 30
0.0
 11
14012.914387145671
 21
833.87474821464275
 31
0.0
  0
LINE
  5
1B97D
  8
YODOROGO
 10
14025.067760115449
 20
827.75181863732803
 30
0.0
 11
14041.06776011546
 21
827.75181863732803
 31
0.0
1001
AUTOCAD_POSTSCRIPT_FIGURE
1002
{
1000
PSFILL
1000
Grayscale
1000
Grayscale
1070
   100
1002
}
  0
LINE
  5
1B97E
  8
YODOROGO
 10
14025.067760115449
 20
815.7518186373286
 30
0.0
 11
14025.067760115449
 21
827.75181863732803
 31
0.0
1001
AUTOCAD_POSTSCRIPT_FIGURE
1002
{
1000
PSFILL
1000
Grayscale
1000
Grayscale
1070
   100
1002
}
  0
LINE
  5
1B97F
  8
YODOROGO
 10
14041.06776011546
 20
815.7518186373286
 30
0.0
 11
14025.067760115449
 21
815.7518186373286
 31
0.0
1001
AUTOCAD_POSTSCRIPT_FIGURE
1002
{
1000
PSFILL
1000
Grayscale
1000
Grayscale
1070
   100
1002
}
  0
LINE
  5
1B980
  8
YODOROGO
 10
14041.06776011546
 20
749.87474821464411
 30
0.0
 11
14041.06776011546
 21
815.7518186373286
 31
0.0
1001
AUTOCAD_POSTSCRIPT_FIGURE
1002
{
1000
PSFILL
1000
Grayscale
1000
Grayscale
1070
   100
1002
}
  0
LINE
  5
1B981
  8
YODOROGO
 10
14025.067760115449
 20
749.87474821464411
 30
0.0
 11
14041.06776011546
 21
749.87474821464411
 31
0.0
1001
AUTOCAD_POSTSCRIPT_FIGURE
1002
{
1000
PSFILL
1000
Grayscale
1000
Grayscale
1070
   100
1002
}
  0
LINE
  5
1B982
  8
YODOROGO
 10
14025.067760115449
 20
737.87474821464355
 30
0.0
 11
14025.067760115449
 21
749.87474821464411
 31
0.0
1001
AUTOCAD_POSTSCRIPT_FIGURE
1002
{
1000
PSFILL
1000
Grayscale
1000
Grayscale
1070
   100
1002
}
  0
LINE
  5
1B983
  8
YODOROGO
 10
14068.80217064596
 20
737.87474821464355
 30
0.0
 11
14025.067760115449
 21
737.87474821464355
 31
0.0
1001
AUTOCAD_POSTSCRIPT_FIGURE
1002
{
1000
PSFILL
1000
Grayscale
1000
Grayscale
1070
   100
1002
}
  0
LINE
  5
1B984
  8
YODOROGO
 10
14068.80217064596
 20
749.87474821464411
 30
0.0
 11
14068.80217064596
 21
737.87474821464355
 31
0.0
1001
AUTOCAD_POSTSCRIPT_FIGURE
1002
{
1000
PSFILL
1000
Grayscale
1000
Grayscale
1070
   100
1002
}
  0
LINE
  5
1B985
  8
YODOROGO
 10
14049.067760115449
 20
749.87474821464411
 30
0.0
 11
14068.80217064596
 21
749.87474821464411
 31
0.0
1001
AUTOCAD_POSTSCRIPT_FIGURE
1002
{
1000
PSFILL
1000
Grayscale
1000
Grayscale
1070
   100
1002
}
  0
LINE
  5
1B986
  8
YODOROGO
 10
14049.067760115449
 20
815.7518186373286
 30
0.0
 11
14049.067760115449
 21
749.87474821464411
 31
0.0
1001
AUTOCAD_POSTSCRIPT_FIGURE
1002
{
1000
PSFILL
1000
Grayscale
1000
Grayscale
1070
   100
1002
}
  0
LINE
  5
1B987
  8
YODOROGO
 10
14068.80217064596
 20
815.7518186373286
 30
0.0
 11
14049.067760115449
 21
815.7518186373286
 31
0.0
1001
AUTOCAD_POSTSCRIPT_FIGURE
1002
{
1000
PSFILL
1000
Grayscale
1000
Grayscale
1070
   100
1002
}
  0
LINE
  5
1B988
  8
YODOROGO
 10
14068.80217064596
 20
827.75181863732803
 30
0.0
 11
14068.80217064596
 21
815.7518186373286
 31
0.0
1001
AUTOCAD_POSTSCRIPT_FIGURE
1002
{
1000
PSFILL
1000
Grayscale
1000
Grayscale
1070
   100
1002
}
  0
LINE
  5
1B989
  8
YODOROGO
 10
14049.067760115449
 20
827.75181863732803
 30
0.0
 11
14068.80217064596
 21
827.75181863732803
 31
0.0
1001
AUTOCAD_POSTSCRIPT_FIGURE
1002
{
1000
PSFILL
1000
Grayscale
1000
Grayscale
1070
   100
1002
}
  0
LINE
  5
1B98A
  8
YODOROGO
 10
14200.80217064594
 20
833.87474821464389
 30
0.0
 11
14172.80217064596
 21
833.87474821464389
 31
0.0
  0
LINE
  5
1B98B
  8
YODOROGO
 10
14200.80217064594
 20
805.87474821464434
 30
0.0
 11
14200.80217064594
 21
833.87474821464389
 31
0.0
  0
LINE
  5
1B98C
  8
YODOROGO
 10
14172.80217064596
 20
833.87474821464389
 30
0.0
 11
14172.80217064596
 21
805.87474821464434
 31
0.0
  0
ARC
  5
1B98D
  8
YODOROGO
 10
14256.80217064594
 20
753.87474821464389
 30
0.0
 40
40.0
 50
180.0
 51
270.0
  0
ARC
  5
1B98E
  8
YODOROGO
 10
14268.80217064594
 20
781.87474821464343
 30
0.0
 40
20.0
 50
180.0
 51
270.0
  0
LINE
  5
1B98F
  8
YODOROGO
 10
14280.80217064596
 20
761.87474821464343
 30
0.0
 11
14268.80217064594
 21
761.87474821464343
 31
0.0
  0
ARC
  5
1B990
  8
YODOROGO
 10
14280.80217064596
 20
773.87474821464275
 30
0.0
 40
11.999999999998179
 50
270.0
 51
0.0000000000054281
  0
LINE
  5
1B991
  8
YODOROGO
 10
13900.80217064596
 20
945.39329039685322
 30
0.0
 11
13888.80217064596
 21
921.8883739758362
 31
0.0
1001
AUTOCAD_POSTSCRIPT_FIGURE
1002
{
1000
PSFILL
1000
Grayscale
1000
Grayscale
1070
   100
1002
}
  0
LINE
  5
1B992
  8
YODOROGO
 10
13900.80217064596
 20
873.87474821464343
 30
0.0
 11
13900.80217064596
 21
945.39329039685322
 31
0.0
1001
AUTOCAD_POSTSCRIPT_FIGURE
1002
{
1000
PSFILL
1000
Grayscale
1000
Grayscale
1070
   100
1002
}
  0
LINE
  5
1B993
  8
YODOROGO
 10
13908.80217064596
 20
873.87474821464343
 30
0.0
 11
13900.80217064596
 21
873.87474821464343
 31
0.0
1001
AUTOCAD_POSTSCRIPT_FIGURE
1002
{
1000
PSFILL
1000
Grayscale
1000
Grayscale
1070
   100
1002
}
  0
LINE
  5
1B994
  8
YODOROGO
 10
13908.80217064596
 20
946.88566604263315
 30
0.0
 11
13908.80217064596
 21
873.87474821464343
 31
0.0
1001
AUTOCAD_POSTSCRIPT_FIGURE
1002
{
1000
PSFILL
1000
Grayscale
1000
Grayscale
1070
   100
1002
}
  0
LINE
  5
1B995
  8
YODOROGO
 10
13920.80217064596
 20
933.82737914206837
 30
0.0
 11
13908.80217064596
 21
946.88566604263315
 31
0.0
1001
AUTOCAD_POSTSCRIPT_FIGURE
1002
{
1000
PSFILL
1000
Grayscale
1000
Grayscale
1070
   100
1002
}
  0
LINE
  5
1B996
  8
YODOROGO
 10
13920.80217064596
 20
941.82737914206814
 30
0.0
 11
13920.80217064596
 21
933.82737914206837
 31
0.0
1001
AUTOCAD_POSTSCRIPT_FIGURE
1002
{
1000
PSFILL
1000
Grayscale
1000
Grayscale
1070
   100
1002
}
  0
LINE
  5
1B997
  8
YODOROGO
 10
13908.80217064596
 20
958.88566604263247
 30
0.0
 11
13920.80217064596
 21
941.82737914206814
 31
0.0
1001
AUTOCAD_POSTSCRIPT_FIGURE
1002
{
1000
PSFILL
1000
Grayscale
1000
Grayscale
1070
   100
1002
}
  0
LINE
  5
1B998
  8
YODOROGO
 10
13908.80217064596
 20
969.87474821464411
 30
0.0
 11
13908.80217064596
 21
958.88566604263247
 31
0.0
1001
AUTOCAD_POSTSCRIPT_FIGURE
1002
{
1000
PSFILL
1000
Grayscale
1000
Grayscale
1070
   100
1002
}
  0
LINE
  5
1B999
  8
YODOROGO
 10
13944.80217064596
 20
969.87474821464411
 30
0.0
 11
13908.80217064596
 21
969.87474821464411
 31
0.0
1001
AUTOCAD_POSTSCRIPT_FIGURE
1002
{
1000
PSFILL
1000
Grayscale
1000
Grayscale
1070
   100
1002
}
  0
LINE
  5
1B99A
  8
YODOROGO
 10
13944.80217064596
 20
950.28417446814944
 30
0.0
 11
13944.80217064596
 21
969.87474821464411
 31
0.0
1001
AUTOCAD_POSTSCRIPT_FIGURE
1002
{
1000
PSFILL
1000
Grayscale
1000
Grayscale
1070
   100
1002
}
  0
LINE
  5
1B99B
  8
YODOROGO
 10
13928.80217064596
 20
950.28417446814944
 30
0.0
 11
13944.80217064596
 21
950.28417446814944
 31
0.0
1001
AUTOCAD_POSTSCRIPT_FIGURE
1002
{
1000
PSFILL
1000
Grayscale
1000
Grayscale
1070
   100
1002
}
  0
LINE
  5
1B99C
  8
YODOROGO
 10
13928.80217064596
 20
942.2841744681491
 30
0.0
 11
13928.80217064596
 21
950.28417446814944
 31
0.0
1001
AUTOCAD_POSTSCRIPT_FIGURE
1002
{
1000
PSFILL
1000
Grayscale
1000
Grayscale
1070
   100
1002
}
  0
LINE
  5
1B99D
  8
YODOROGO
 10
13944.80217064596
 20
942.2841744681491
 30
0.0
 11
13928.80217064596
 21
942.2841744681491
 31
0.0
1001
AUTOCAD_POSTSCRIPT_FIGURE
1002
{
1000
PSFILL
1000
Grayscale
1000
Grayscale
1070
   100
1002
}
  0
LINE
  5
1B99E
  8
YODOROGO
 10
13944.80217064596
 20
939.80958898221968
 30
0.0
 11
13944.80217064596
 21
942.2841744681491
 31
0.0
1001
AUTOCAD_POSTSCRIPT_FIGURE
1002
{
1000
PSFILL
1000
Grayscale
1000
Grayscale
1070
   100
1002
}
  0
LINE
  5
1B99F
  8
YODOROGO
 10
13924.80217064596
 20
906.48749058070871
 30
0.0
 11
13944.80217064596
 21
939.80958898221968
 31
0.0
1001
AUTOCAD_POSTSCRIPT_FIGURE
1002
{
1000
PSFILL
1000
Grayscale
1000
Grayscale
1070
   100
1002
}
  0
LINE
  5
1B9A0
  8
YODOROGO
 10
13924.80217064596
 20
898.48749058070803
 30
0.0
 11
13924.80217064596
 21
906.48749058070871
 31
0.0
1001
AUTOCAD_POSTSCRIPT_FIGURE
1002
{
1000
PSFILL
1000
Grayscale
1000
Grayscale
1070
   100
1002
}
  0
LINE
  5
1B9A1
  8
YODOROGO
 10
13944.80217064596
 20
923.80958898221832
 30
0.0
 11
13924.80217064596
 21
898.48749058070803
 31
0.0
1001
AUTOCAD_POSTSCRIPT_FIGURE
1002
{
1000
PSFILL
1000
Grayscale
1000
Grayscale
1070
   100
1002
}
  0
LINE
  5
1B9A2
  8
YODOROGO
 10
13944.80217064596
 20
873.87474821464343
 30
0.0
 11
13944.80217064596
 21
923.80958898221832
 31
0.0
1001
AUTOCAD_POSTSCRIPT_FIGURE
1002
{
1000
PSFILL
1000
Grayscale
1000
Grayscale
1070
   100
1002
}
  0
LINE
  5
1B9A3
  8
YODOROGO
 10
13952.80217064596
 20
873.87474821464343
 30
0.0
 11
13944.80217064596
 21
873.87474821464343
 31
0.0
1001
AUTOCAD_POSTSCRIPT_FIGURE
1002
{
1000
PSFILL
1000
Grayscale
1000
Grayscale
1070
   100
1002
}
  0
LINE
  5
1B9A4
  8
YODOROGO
 10
13952.80217064596
 20
924.70450607940325
 30
0.0
 11
13952.80217064596
 21
873.87474821464343
 31
0.0
1001
AUTOCAD_POSTSCRIPT_FIGURE
1002
{
1000
PSFILL
1000
Grayscale
1000
Grayscale
1070
   100
1002
}
  0
LINE
  5
1B9A5
  8
YODOROGO
 10
13968.80217064596
 20
898.48749058070803
 30
0.0
 11
13952.80217064596
 21
924.70450607940325
 31
0.0
1001
AUTOCAD_POSTSCRIPT_FIGURE
1002
{
1000
PSFILL
1000
Grayscale
1000
Grayscale
1070
   100
1002
}
  0
LINE
  5
1B9A6
  8
YODOROGO
 10
13968.80217064596
 20
906.48749058070871
 30
0.0
 11
13968.80217064596
 21
898.48749058070803
 31
0.0
1001
AUTOCAD_POSTSCRIPT_FIGURE
1002
{
1000
PSFILL
1000
Grayscale
1000
Grayscale
1070
   100
1002
}
  0
LINE
  5
1B9A7
  8
YODOROGO
 10
13952.80217064596
 20
940.70450607940404
 30
0.0
 11
13968.80217064596
 21
906.48749058070871
 31
0.0
1001
AUTOCAD_POSTSCRIPT_FIGURE
1002
{
1000
PSFILL
1000
Grayscale
1000
Grayscale
1070
   100
1002
}
  0
LINE
  5
1B9A8
  8
YODOROGO
 10
13952.80217064596
 20
942.28417446815024
 30
0.0
 11
13952.80217064596
 21
940.70450607940404
 31
0.0
1001
AUTOCAD_POSTSCRIPT_FIGURE
1002
{
1000
PSFILL
1000
Grayscale
1000
Grayscale
1070
   100
1002
}
  0
LINE
  5
1B9A9
  8
YODOROGO
 10
13968.80217064596
 20
942.2841744681491
 30
0.0
 11
13952.80217064596
 21
942.28417446815024
 31
0.0
1001
AUTOCAD_POSTSCRIPT_FIGURE
1002
{
1000
PSFILL
1000
Grayscale
1000
Grayscale
1070
   100
1002
}
  0
LINE
  5
1B9AA
  8
YODOROGO
 10
13968.80217064596
 20
950.28417446814944
 30
0.0
 11
13968.80217064596
 21
942.2841744681491
 31
0.0
1001
AUTOCAD_POSTSCRIPT_FIGURE
1002
{
1000
PSFILL
1000
Grayscale
1000
Grayscale
1070
   100
1002
}
  0
LINE
  5
1B9AB
  8
YODOROGO
 10
13952.80217064596
 20
950.28417446814944
 30
0.0
 11
13968.80217064596
 21
950.28417446814944
 31
0.0
1001
AUTOCAD_POSTSCRIPT_FIGURE
1002
{
1000
PSFILL
1000
Grayscale
1000
Grayscale
1070
   100
1002
}
  0
LINE
  5
1B9AC
  8
YODOROGO
 10
13952.80217064596
 20
969.87474821464411
 30
0.0
 11
13952.80217064596
 21
950.28417446814944
 31
0.0
1001
AUTOCAD_POSTSCRIPT_FIGURE
1002
{
1000
PSFILL
1000
Grayscale
1000
Grayscale
1070
   100
1002
}
  0
LINE
  5
1B9AD
  8
YODOROGO
 10
13968.80217064596
 20
969.87474821464411
 30
0.0
 11
13952.80217064596
 21
969.87474821464411
 31
0.0
1001
AUTOCAD_POSTSCRIPT_FIGURE
1002
{
1000
PSFILL
1000
Grayscale
1000
Grayscale
1070
   100
1002
}
  0
LINE
  5
1B9AE
  8
YODOROGO
 10
13968.80217064596
 20
977.87474821464355
 30
0.0
 11
13968.80217064596
 21
969.87474821464411
 31
0.0
1001
AUTOCAD_POSTSCRIPT_FIGURE
1002
{
1000
PSFILL
1000
Grayscale
1000
Grayscale
1070
   100
1002
}
  0
LINE
  5
1B9AF
  8
YODOROGO
 10
13952.80217064596
 20
977.87474821464355
 30
0.0
 11
13968.80217064596
 21
977.87474821464355
 31
0.0
1001
AUTOCAD_POSTSCRIPT_FIGURE
1002
{
1000
PSFILL
1000
Grayscale
1000
Grayscale
1070
   100
1002
}
  0
LINE
  5
1B9B0
  8
YODOROGO
 10
13952.80217064596
 20
989.87474821464434
 30
0.0
 11
13952.80217064596
 21
977.87474821464355
 31
0.0
1001
AUTOCAD_POSTSCRIPT_FIGURE
1002
{
1000
PSFILL
1000
Grayscale
1000
Grayscale
1070
   100
1002
}
  0
LINE
  5
1B9B1
  8
YODOROGO
 10
13944.80217064596
 20
989.87474821464434
 30
0.0
 11
13952.80217064596
 21
989.87474821464434
 31
0.0
1001
AUTOCAD_POSTSCRIPT_FIGURE
1002
{
1000
PSFILL
1000
Grayscale
1000
Grayscale
1070
   100
1002
}
  0
LINE
  5
1B9B2
  8
YODOROGO
 10
13944.80217064596
 20
977.87474821464355
 30
0.0
 11
13944.80217064596
 21
989.87474821464434
 31
0.0
1001
AUTOCAD_POSTSCRIPT_FIGURE
1002
{
1000
PSFILL
1000
Grayscale
1000
Grayscale
1070
   100
1002
}
  0
LINE
  5
1B9B3
  8
YODOROGO
 10
13932.80217064596
 20
977.87474821464355
 30
0.0
 11
13944.80217064596
 21
977.87474821464355
 31
0.0
1001
AUTOCAD_POSTSCRIPT_FIGURE
1002
{
1000
PSFILL
1000
Grayscale
1000
Grayscale
1070
   100
1002
}
  0
LINE
  5
1B9B4
  8
YODOROGO
 10
13932.80217064596
 20
989.87474821464434
 30
0.0
 11
13932.80217064596
 21
977.87474821464355
 31
0.0
1001
AUTOCAD_POSTSCRIPT_FIGURE
1002
{
1000
PSFILL
1000
Grayscale
1000
Grayscale
1070
   100
1002
}
  0
LINE
  5
1B9B5
  8
YODOROGO
 10
13924.80217064596
 20
989.87474821464434
 30
0.0
 11
13932.80217064596
 21
989.87474821464434
 31
0.0
1001
AUTOCAD_POSTSCRIPT_FIGURE
1002
{
1000
PSFILL
1000
Grayscale
1000
Grayscale
1070
   100
1002
}
  0
LINE
  5
1B9B6
  8
YODOROGO
 10
13924.80217064596
 20
977.87474821464355
 30
0.0
 11
13924.80217064596
 21
989.87474821464434
 31
0.0
1001
AUTOCAD_POSTSCRIPT_FIGURE
1002
{
1000
PSFILL
1000
Grayscale
1000
Grayscale
1070
   100
1002
}
  0
LINE
  5
1B9B7
  8
YODOROGO
 10
13908.80217064596
 20
977.87474821464355
 30
0.0
 11
13924.80217064596
 21
977.87474821464355
 31
0.0
1001
AUTOCAD_POSTSCRIPT_FIGURE
1002
{
1000
PSFILL
1000
Grayscale
1000
Grayscale
1070
   100
1002
}
  0
LINE
  5
1B9B8
  8
YODOROGO
 10
13908.80217064596
 20
989.87474821464434
 30
0.0
 11
13908.80217064596
 21
977.87474821464355
 31
0.0
1001
AUTOCAD_POSTSCRIPT_FIGURE
1002
{
1000
PSFILL
1000
Grayscale
1000
Grayscale
1070
   100
1002
}
  0
LINE
  5
1B9B9
  8
YODOROGO
 10
13900.80217064596
 20
989.87474821464434
 30
0.0
 11
13908.80217064596
 21
989.87474821464434
 31
0.0
1001
AUTOCAD_POSTSCRIPT_FIGURE
1002
{
1000
PSFILL
1000
Grayscale
1000
Grayscale
1070
   100
1002
}
  0
LINE
  5
1B9BA
  8
YODOROGO
 10
13900.80217064596
 20
977.87474821464355
 30
0.0
 11
13900.80217064596
 21
989.87474821464434
 31
0.0
1001
AUTOCAD_POSTSCRIPT_FIGURE
1002
{
1000
PSFILL
1000
Grayscale
1000
Grayscale
1070
   100
1002
}
  0
LINE
  5
1B9BB
  8
YODOROGO
 10
13888.80217064596
 20
977.87474821464355
 30
0.0
 11
13900.80217064596
 21
977.87474821464355
 31
0.0
1001
AUTOCAD_POSTSCRIPT_FIGURE
1002
{
1000
PSFILL
1000
Grayscale
1000
Grayscale
1070
   100
1002
}
  0
LINE
  5
1B9BC
  8
YODOROGO
 10
13888.80217064596
 20
969.87474821464411
 30
0.0
 11
13888.80217064596
 21
977.87474821464355
 31
0.0
1001
AUTOCAD_POSTSCRIPT_FIGURE
1002
{
1000
PSFILL
1000
Grayscale
1000
Grayscale
1070
   100
1002
}
  0
LINE
  5
1B9BD
  8
YODOROGO
 10
13900.80217064596
 20
969.87474821464411
 30
0.0
 11
13888.80217064596
 21
969.87474821464411
 31
0.0
1001
AUTOCAD_POSTSCRIPT_FIGURE
1002
{
1000
PSFILL
1000
Grayscale
1000
Grayscale
1070
   100
1002
}
  0
LINE
  5
1B9BE
  8
YODOROGO
 10
13900.80217064596
 20
957.39329039685242
 30
0.0
 11
13900.80217064596
 21
969.87474821464411
 31
0.0
1001
AUTOCAD_POSTSCRIPT_FIGURE
1002
{
1000
PSFILL
1000
Grayscale
1000
Grayscale
1070
   100
1002
}
  0
LINE
  5
1B9BF
  8
YODOROGO
 10
13888.80217064596
 20
929.88837397583552
 30
0.0
 11
13900.80217064596
 21
957.39329039685242
 31
0.0
1001
AUTOCAD_POSTSCRIPT_FIGURE
1002
{
1000
PSFILL
1000
Grayscale
1000
Grayscale
1070
   100
1002
}
  0
LINE
  5
1B9C0
  8
YODOROGO
 10
13888.80217064596
 20
921.8883739758362
 30
0.0
 11
13888.80217064596
 21
929.88837397583552
 31
0.0
1001
AUTOCAD_POSTSCRIPT_FIGURE
1002
{
1000
PSFILL
1000
Grayscale
1000
Grayscale
1070
   100
1002
}
  0
LINE
  5
1B9C1
  8
YODOROGO
 10
14128.80217064596
 20
933.87474821464389
 30
0.0
 11
14200.80217064594
 21
912.4388128201532
 31
0.0
1001
AUTOCAD_POSTSCRIPT_FIGURE
1002
{
1000
PSFILL
1000
Grayscale
1000
Grayscale
1070
   100
1002
}
  0
LINE
  5
1B9C2
  8
YODOROGO
 10
14200.80217064594
 20
876.43881282015309
 30
0.0
 11
14128.80217064596
 21
897.87474821464355
 31
0.0
1001
AUTOCAD_POSTSCRIPT_FIGURE
1002
{
1000
PSFILL
1000
Grayscale
1000
Grayscale
1070
   100
1002
}
  0
LINE
  5
1B9C3
  8
YODOROGO
 10
14200.80217064594
 20
992.43881282015309
 30
0.0
 11
14128.80217064596
 21
1013.874748214644
 31
0.0
1001
AUTOCAD_POSTSCRIPT_FIGURE
1002
{
1000
PSFILL
1000
Grayscale
1000
Grayscale
1070
   100
1002
}
  0
LINE
  5
1B9C4
  8
YODOROGO
 10
14128.80217064596
 20
979.874748214644
 30
0.0
 11
14200.80217064594
 21
958.43881282015366
 31
0.0
1001
AUTOCAD_POSTSCRIPT_FIGURE
1002
{
1000
PSFILL
1000
Grayscale
1000
Grayscale
1070
   100
1002
}
  0
LINE
  5
1B9C5
  8
YODOROGO
 10
14128.80217064596
 20
897.87474821464355
 30
0.0
 11
14128.80217064596
 21
933.87474821464389
 31
0.0
1001
AUTOCAD_POSTSCRIPT_FIGURE
1002
{
1000
PSFILL
1000
Grayscale
1000
Grayscale
1070
   100
1002
}
  0
LINE
  5
1B9C6
  8
YODOROGO
 10
14128.80217064596
 20
1013.874748214644
 30
0.0
 11
14128.80217064596
 21
979.874748214644
 31
0.0
1001
AUTOCAD_POSTSCRIPT_FIGURE
1002
{
1000
PSFILL
1000
Grayscale
1000
Grayscale
1070
   100
1002
}
  0
LINE
  5
1B9C7
  8
YODOROGO
 10
14040.11816010337
 20
969.87474821464411
 30
0.0
 11
14064.802170645949
 21
873.87474821464343
 31
0.0
1001
AUTOCAD_POSTSCRIPT_FIGURE
1002
{
1000
PSFILL
1000
Grayscale
1000
Grayscale
1070
   100
1002
}
  0
LINE
  5
1B9C8
  8
YODOROGO
 10
13988.80217064596
 20
969.87474821464411
 30
0.0
 11
14040.11816010337
 21
969.87474821464411
 31
0.0
1001
AUTOCAD_POSTSCRIPT_FIGURE
1002
{
1000
PSFILL
1000
Grayscale
1000
Grayscale
1070
   100
1002
}
  0
LINE
  5
1B9C9
  8
YODOROGO
 10
13988.80217064596
 20
977.87474821464355
 30
0.0
 11
13988.80217064596
 21
969.87474821464411
 31
0.0
1001
AUTOCAD_POSTSCRIPT_FIGURE
1002
{
1000
PSFILL
1000
Grayscale
1000
Grayscale
1070
   100
1002
}
  0
LINE
  5
1B9CA
  8
YODOROGO
 10
14038.303439259949
 20
977.87474821464355
 30
0.0
 11
13988.80217064596
 21
977.87474821464355
 31
0.0
1001
AUTOCAD_POSTSCRIPT_FIGURE
1002
{
1000
PSFILL
1000
Grayscale
1000
Grayscale
1070
   100
1002
}
  0
LINE
  5
1B9CB
  8
YODOROGO
 10
14035.58135799485
 20
989.87474821464434
 30
0.0
 11
14038.303439259949
 21
977.87474821464355
 31
0.0
1001
AUTOCAD_POSTSCRIPT_FIGURE
1002
{
1000
PSFILL
1000
Grayscale
1000
Grayscale
1070
   100
1002
}
  0
LINE
  5
1B9CC
  8
YODOROGO
 10
14045.58135799485
 20
989.87474821464434
 30
0.0
 11
14035.58135799485
 21
989.87474821464434
 31
0.0
1001
AUTOCAD_POSTSCRIPT_FIGURE
1002
{
1000
PSFILL
1000
Grayscale
1000
Grayscale
1070
   100
1002
}
  0
LINE
  5
1B9CD
  8
YODOROGO
 10
14047.90343925997
 20
977.87474821464355
 30
0.0
 11
14045.58135799485
 21
989.87474821464434
 31
0.0
1001
AUTOCAD_POSTSCRIPT_FIGURE
1002
{
1000
PSFILL
1000
Grayscale
1000
Grayscale
1070
   100
1002
}
  0
LINE
  5
1B9CE
  8
YODOROGO
 10
14060.80217064596
 20
977.87474821464355
 30
0.0
 11
14047.90343925997
 21
977.87474821464355
 31
0.0
1001
AUTOCAD_POSTSCRIPT_FIGURE
1002
{
1000
PSFILL
1000
Grayscale
1000
Grayscale
1070
   100
1002
}
  0
LINE
  5
1B9CF
  8
YODOROGO
 10
14060.80217064596
 20
989.87474821464434
 30
0.0
 11
14060.80217064596
 21
977.87474821464355
 31
0.0
1001
AUTOCAD_POSTSCRIPT_FIGURE
1002
{
1000
PSFILL
1000
Grayscale
1000
Grayscale
1070
   100
1002
}
  0
LINE
  5
1B9D0
  8
YODOROGO
 10
14068.80217064596
 20
989.87474821464434
 30
0.0
 11
14060.80217064596
 21
989.87474821464434
 31
0.0
1001
AUTOCAD_POSTSCRIPT_FIGURE
1002
{
1000
PSFILL
1000
Grayscale
1000
Grayscale
1070
   100
1002
}
  0
LINE
  5
1B9D1
  8
YODOROGO
 10
14068.80217064596
 20
977.87474821464355
 30
0.0
 11
14068.80217064596
 21
989.87474821464434
 31
0.0
1001
AUTOCAD_POSTSCRIPT_FIGURE
1002
{
1000
PSFILL
1000
Grayscale
1000
Grayscale
1070
   100
1002
}
  0
LINE
  5
1B9D2
  8
YODOROGO
 10
14068.80217064596
 20
969.87474821464411
 30
0.0
 11
14068.80217064596
 21
977.87474821464355
 31
0.0
1001
AUTOCAD_POSTSCRIPT_FIGURE
1002
{
1000
PSFILL
1000
Grayscale
1000
Grayscale
1070
   100
1002
}
  0
LINE
  5
1B9D3
  8
YODOROGO
 10
14049.451493436711
 20
969.87474821464411
 30
0.0
 11
14068.80217064596
 21
969.87474821464411
 31
0.0
1001
AUTOCAD_POSTSCRIPT_FIGURE
1002
{
1000
PSFILL
1000
Grayscale
1000
Grayscale
1070
   100
1002
}
  0
LINE
  5
1B9D4
  8
YODOROGO
 10
14068.80217064596
 20
873.87474821464343
 30
0.0
 11
14049.451493436711
 21
969.87474821464411
 31
0.0
1001
AUTOCAD_POSTSCRIPT_FIGURE
1002
{
1000
PSFILL
1000
Grayscale
1000
Grayscale
1070
   100
1002
}
  0
LINE
  5
1B9D5
  8
YODOROGO
 10
14064.802170645949
 20
873.87474821464343
 30
0.0
 11
14068.80217064596
 21
873.87474821464343
 31
0.0
1001
AUTOCAD_POSTSCRIPT_FIGURE
1002
{
1000
PSFILL
1000
Grayscale
1000
Grayscale
1070
   100
1002
}
  0
LINE
  5
1B9D6
  8
YODOROGO
 10
14039.03460996689
 20
887.87038814939717
 30
0.0
 11
13988.80217064596
 21
873.87474821464343
 31
0.0
  0
LINE
  5
1B9D7
  8
YODOROGO
 10
14039.03460996689
 20
899.33448976453644
 30
0.0
 11
14039.03460996689
 21
887.87038814939717
 31
0.0
  0
LINE
  5
1B9D8
  8
YODOROGO
 10
14016.91839030643
 20
893.40846656688336
 30
0.0
 11
14039.03460996689
 21
899.33448976453644
 31
0.0
  0
LINE
  5
1B9D9
  8
YODOROGO
 10
14016.91839030643
 20
936.2841744681499
 30
0.0
 11
14016.91839030643
 21
893.40846656688336
 31
0.0
  0
LINE
  5
1B9DA
  8
YODOROGO
 10
14039.03460996689
 20
936.2841744681499
 30
0.0
 11
14016.91839030643
 21
936.2841744681499
 31
0.0
  0
LINE
  5
1B9DB
  8
YODOROGO
 10
14039.03460996689
 20
946.28417446814865
 30
0.0
 11
14039.03460996689
 21
936.2841744681499
 31
0.0
  0
LINE
  5
1B9DC
  8
YODOROGO
 10
13988.80217064596
 20
946.28417446814865
 30
0.0
 11
14039.03460996689
 21
946.28417446814865
 31
0.0
  0
LINE
  5
1B9DD
  8
YODOROGO
 10
13988.80217064596
 20
936.2841744681499
 30
0.0
 11
13988.80217064596
 21
946.28417446814865
 31
0.0
  0
LINE
  5
1B9DE
  8
YODOROGO
 10
14010.91839030643
 20
936.2841744681499
 30
0.0
 11
13988.80217064596
 21
936.2841744681499
 31
0.0
  0
LINE
  5
1B9DF
  8
YODOROGO
 10
14010.91839030643
 20
892.33666979715872
 30
0.0
 11
14010.91839030643
 21
936.2841744681499
 31
0.0
  0
LINE
  5
1B9E0
  8
YODOROGO
 10
13988.80217064596
 20
885.8747482146432
 30
0.0
 11
14010.91839030643
 21
892.33666979715872
 31
0.0
  0
LINE
  5
1B9E1
  8
YODOROGO
 10
13988.80217064596
 20
873.87474821464343
 30
0.0
 11
13988.80217064596
 21
885.8747482146432
 31
0.0
  0
LINE
  5
1B9E2
  8
YODOROGO
 10
14000.80217064596
 20
853.874748214644
 30
0.0
 11
14000.80217064596
 21
841.87474821464343
 31
0.0
  0
LINE
  5
1B9E3
  8
YODOROGO
 10
14008.80217064596
 20
853.874748214644
 30
0.0
 11
14000.80217064596
 21
853.874748214644
 31
0.0
  0
LINE
  5
1B9E4
  8
YODOROGO
 10
14008.80217064596
 20
841.87474821464343
 30
0.0
 11
14008.80217064596
 21
853.874748214644
 31
0.0
  0
LINE
  5
1B9E5
  8
YODOROGO
 10
14020.45660200844
 20
841.87474821464343
 30
0.0
 11
14008.80217064596
 21
841.87474821464343
 31
0.0
  0
LINE
  5
1B9E6
  8
YODOROGO
 10
14000.80217064596
 20
841.87474821464343
 30
0.0
 11
13988.80217064596
 21
841.87474821464343
 31
0.0
  0
LINE
  5
1B9E7
  8
YODOROGO
 10
14041.06776011546
 20
853.874748214644
 30
0.0
 11
14049.067760115449
 21
853.874748214644
 31
0.0
1001
AUTOCAD_POSTSCRIPT_FIGURE
1002
{
1000
PSFILL
1000
Grayscale
1000
Grayscale
1070
   100
1002
}
  0
LINE
  5
1B9E8
  8
YODOROGO
 10
14200.80217064594
 20
912.4388128201532
 30
0.0
 11
14200.80217064594
 21
876.43881282015309
 31
0.0
1001
AUTOCAD_POSTSCRIPT_FIGURE
1002
{
1000
PSFILL
1000
Grayscale
1000
Grayscale
1070
   100
1002
}
  0
LINE
  5
1B9E9
  8
YODOROGO
 10
14200.80217064594
 20
958.43881282015366
 30
0.0
 11
14200.80217064594
 21
992.43881282015309
 31
0.0
1001
AUTOCAD_POSTSCRIPT_FIGURE
1002
{
1000
PSFILL
1000
Grayscale
1000
Grayscale
1070
   100
1002
}
  0
LINE
  5
1B9EA
  8
YODOROGO
 10
14216.80217064594
 20
909.87474821464389
 30
0.0
 11
14216.80217064594
 21
873.87474821464491
 31
0.0
  0
LINE
  5
1B9EB
  8
YODOROGO
 10
14248.80217064594
 20
853.874748214644
 30
0.0
 11
14216.80217064594
 21
853.874748214644
 31
0.0
  0
LINE
  5
1B9EC
  8
YODOROGO
 10
14216.80217064594
 20
873.87474821464491
 30
0.0
 11
14292.80217064596
 21
873.87474821464491
 31
0.0
  0
LINE
  5
1B9ED
  8
YODOROGO
 10
14248.80217064594
 20
933.87474821464389
 30
0.0
 11
14216.80217064594
 21
933.87474821464389
 31
0.0
  0
LINE
  5
1B9EE
  8
YODOROGO
 10
14248.80217064594
 20
961.8747482146432
 30
0.0
 11
14248.80217064594
 21
933.87474821464389
 31
0.0
  0
LINE
  5
1B9EF
  8
YODOROGO
 10
14292.80217064596
 20
993.87474821464389
 30
0.0
 11
14292.80217064596
 21
1013.874748214644
 31
0.0
  0
LINE
  5
1B9F0
  8
YODOROGO
 10
14216.80217064594
 20
993.87474821464389
 30
0.0
 11
14292.80217064596
 21
993.87474821464389
 31
0.0
  0
LINE
  5
1B9F1
  8
YODOROGO
 10
14216.80217064594
 20
933.87474821464389
 30
0.0
 11
14216.80217064594
 21
993.87474821464389
 31
0.0
  0
LINE
  5
1B9F2
  8
YODOROGO
 10
14500.80217064594
 20
1013.874748214644
 30
0.0
 11
14500.80217064594
 21
809.87474821464411
 31
0.0
  0
LINE
  5
1B9F3
  8
YODOROGO
 10
14536.80217064596
 20
789.87474821464411
 30
0.0
 11
14536.80217064596
 21
1013.874748214644
 31
0.0
  0
LINE
  5
1B9F4
  8
YODOROGO
 10
14630.80217064596
 20
745.87474821464309
 30
0.0
 11
14630.80217064596
 21
1003.874748214644
 31
0.0
  0
LINE
  5
1B9F5
  8
YODOROGO
 10
14598.80217064596
 20
1003.874748214644
 30
0.0
 11
14598.80217064596
 21
745.87474821464309
 31
0.0
  0
LINE
  5
1B9F6
  8
YODOROGO
 10
14692.80217064596
 20
1013.874748214644
 30
0.0
 11
14692.80217064596
 21
713.87474821464355
 31
0.0
  0
LINE
  5
1B9F7
  8
YODOROGO
 10
14728.80217064596
 20
713.87474821464355
 30
0.0
 11
14728.80217064596
 21
1013.874748214644
 31
0.0
  0
LINE
  5
1B9F8
  8
YODOROGO
 10
14328.80217064594
 20
833.87474821464389
 30
0.0
 11
14328.80217064594
 21
873.87474821464491
 31
0.0
  0
LINE
  5
1B9F9
  8
YODOROGO
 10
14942.80217064596
 20
853.874748214644
 30
0.0
 11
14942.80217064596
 21
833.87474821464389
 31
0.0
  0
LINE
  5
1B9FA
  8
YODOROGO
 10
14942.80217064596
 20
853.874748214644
 30
0.0
 11
14942.80217064596
 21
833.87474821464389
 31
0.0
  0
ARC
  5
1B9FB
  8
YODOROGO
 10
14453.455788093421
 20
809.10893222113634
 30
0.0
 40
47.352575589370822
 50
274.05244162907098
 51
0.9266642149310712
  0
ARC
  5
1B9FC
  8
YODOROGO
 10
14454.5930853599
 20
796.30536430522
 30
0.0
 40
82.460211780427557
 50
271.53512106537772
 51
355.52727750585052
  0
LINE
  5
1B9FD
  8
YODOROGO
 10
14456.80217064596
 20
761.87474821464343
 30
0.0
 11
14456.80217064596
 21
713.87474821464355
 31
0.0
  0
LINE
  5
1B9FE
  8
YODOROGO
 10
14396.80217064594
 20
833.87474821464389
 30
0.0
 11
14328.80217064594
 21
833.87474821464389
 31
0.0
  0
LINE
  5
1B9FF
  8
YODOROGO
 10
14396.80217064594
 20
801.87474821464434
 30
0.0
 11
14396.80217064594
 21
833.87474821464389
 31
0.0
  0
LINE
  5
1BA00
  8
YODOROGO
 10
14328.80217064594
 20
801.87474821464434
 30
0.0
 11
14396.80217064594
 21
801.87474821464434
 31
0.0
  0
LINE
  5
1BA01
  8
YODOROGO
 10
14328.80217064594
 20
761.87474821464343
 30
0.0
 11
14328.80217064594
 21
801.87474821464434
 31
0.0
  0
LINE
  5
1BA02
  8
YODOROGO
 10
14396.80217064594
 20
761.87474821464343
 30
0.0
 11
14328.80217064594
 21
761.87474821464343
 31
0.0
  0
LINE
  5
1BA03
  8
YODOROGO
 10
14396.80217064594
 20
713.87474821464355
 30
0.0
 11
14396.80217064594
 21
761.87474821464343
 31
0.0
  0
LINE
  5
1BA04
  8
YODOROGO
 10
14598.80217064596
 20
745.87474821464309
 30
0.0
 11
14630.80217064596
 21
745.87474821464309
 31
0.0
  0
LINE
  5
1BA05
  8
YODOROGO
 10
14692.80217064596
 20
713.87474821464355
 30
0.0
 11
14728.80217064596
 21
713.87474821464355
 31
0.0
  0
LINE
  5
1BA06
  8
YODOROGO
 10
14868.80217064596
 20
764.22072608528163
 30
0.0
 11
14868.80217064596
 21
713.87474821464355
 31
0.0
  0
LINE
  5
1BA07
  8
YODOROGO
 10
14808.80217064596
 20
713.87474821464355
 30
0.0
 11
14868.80217064596
 21
764.22072608528163
 31
0.0
  0
LINE
  5
1BA08
  8
YODOROGO
 10
14808.80217064596
 20
773.874748214644
 30
0.0
 11
14808.80217064596
 21
713.87474821464355
 31
0.0
  0
LINE
  5
1BA09
  8
YODOROGO
 10
14856.47231434973
 20
813.87474821464355
 30
0.0
 11
14808.80217064596
 21
773.874748214644
 31
0.0
  0
LINE
  5
1BA0A
  8
YODOROGO
 10
14808.80217064596
 20
813.87474821464355
 30
0.0
 11
14856.47231434973
 21
813.87474821464355
 31
0.0
  0
LINE
  5
1BA0B
  8
YODOROGO
 10
14808.80217064596
 20
833.87474821464389
 30
0.0
 11
14808.80217064596
 21
813.87474821464355
 31
0.0
  0
LINE
  5
1BA0C
  8
YODOROGO
 10
14942.80217064596
 20
833.87474821464389
 30
0.0
 11
14808.80217064596
 21
833.87474821464389
 31
0.0
  0
LINE
  5
1BA0D
  8
YODOROGO
 10
14958.80217064596
 20
813.87474821464355
 30
0.0
 11
14888.80217064596
 21
813.87474821464355
 31
0.0
  0
LINE
  5
1BA0E
  8
YODOROGO
 10
14888.80217064596
 20
781.0027187088283
 30
0.0
 11
14885.704936492641
 21
778.403830673117
 31
0.0
  0
LINE
  5
1BA0F
  8
YODOROGO
 10
14888.80217064596
 20
813.87474821464355
 30
0.0
 11
14888.80217064596
 21
781.0027187088283
 31
0.0
  0
LINE
  5
1BA10
  8
YODOROGO
 10
14868.80217064596
 20
764.22072608528163
 30
0.0
 11
14868.80217064596
 21
713.87474821464355
 31
0.0
  0
LINE
  5
1BA11
  8
YODOROGO
 10
14808.80217064596
 20
713.87474821464355
 30
0.0
 11
14868.80217064596
 21
764.22072608528163
 31
0.0
  0
LINE
  5
1BA12
  8
YODOROGO
 10
14808.80217064596
 20
773.874748214644
 30
0.0
 11
14808.80217064596
 21
713.87474821464355
 31
0.0
  0
LINE
  5
1BA13
  8
YODOROGO
 10
14856.47231434973
 20
813.87474821464355
 30
0.0
 11
14808.80217064596
 21
773.874748214644
 31
0.0
  0
LINE
  5
1BA14
  8
YODOROGO
 10
14808.80217064596
 20
813.87474821464355
 30
0.0
 11
14856.47231434973
 21
813.87474821464355
 31
0.0
  0
LINE
  5
1BA15
  8
YODOROGO
 10
14808.80217064596
 20
833.87474821464389
 30
0.0
 11
14808.80217064596
 21
813.87474821464355
 31
0.0
  0
LINE
  5
1BA16
  8
YODOROGO
 10
14942.80217064596
 20
833.87474821464389
 30
0.0
 11
14808.80217064596
 21
833.87474821464389
 31
0.0
  0
LINE
  5
1BA17
  8
YODOROGO
 10
14396.80217064594
 20
873.87474821464491
 30
0.0
 11
14396.80217064594
 21
909.87474821464389
 31
0.0
  0
LINE
  5
1BA18
  8
YODOROGO
 10
14328.80217064594
 20
873.87474821464491
 30
0.0
 11
14396.80217064594
 21
873.87474821464491
 31
0.0
  0
LINE
  5
1BA19
  8
YODOROGO
 10
14364.80217064596
 20
933.87474821464389
 30
0.0
 11
14364.80217064596
 21
961.8747482146432
 31
0.0
  0
LINE
  5
1BA1A
  8
YODOROGO
 10
14396.80217064594
 20
933.87474821464389
 30
0.0
 11
14364.80217064596
 21
933.87474821464389
 31
0.0
  0
LINE
  5
1BA1B
  8
YODOROGO
 10
14396.80217064594
 20
973.87474821464343
 30
0.0
 11
14396.80217064594
 21
933.87474821464389
 31
0.0
  0
ARC
  5
1BA1C
  8
YODOROGO
 10
14376.80217064594
 20
973.87474821464343
 30
0.0
 40
20.0
 50
0.0
 51
90.0
  0
LINE
  5
1BA1D
  8
YODOROGO
 10
14328.80217064596
 20
993.87474821464389
 30
0.0
 11
14376.80217064594
 21
993.87474821464389
 31
0.0
  0
LINE
  5
1BA1E
  8
YODOROGO
 10
14328.80217064596
 20
1013.874748214644
 30
0.0
 11
14328.80217064596
 21
993.87474821464389
 31
0.0
  0
LINE
  5
1BA1F
  8
YODOROGO
 10
14536.80217064596
 20
1013.874748214644
 30
0.0
 11
14500.80217064594
 21
1013.874748214644
 31
0.0
  0
LINE
  5
1BA20
  8
YODOROGO
 10
14630.80217064596
 20
1003.874748214644
 30
0.0
 11
14598.80217064596
 21
1003.874748214644
 31
0.0
  0
LINE
  5
1BA21
  8
YODOROGO
 10
14728.80217064596
 20
1013.874748214644
 30
0.0
 11
14692.80217064596
 21
1013.874748214644
 31
0.0
  0
LINE
  5
1BA22
  8
YODOROGO
 10
14836.80217064596
 20
853.874748214644
 30
0.0
 11
14836.80217064596
 21
885.87474821464411
 31
0.0
1001
AUTOCAD_POSTSCRIPT_FIGURE
1002
{
1000
PSFILL
1000
Grayscale
1000
Grayscale
1070
    25
1002
}
  0
LINE
  5
1BA23
  8
YODOROGO
 10
14808.80217064596
 20
853.874748214644
 30
0.0
 11
14836.80217064596
 21
853.874748214644
 31
0.0
1001
AUTOCAD_POSTSCRIPT_FIGURE
1002
{
1000
PSFILL
1000
Grayscale
1000
Grayscale
1070
    25
1002
}
  0
LINE
  5
1BA24
  8
YODOROGO
 10
14808.80217064596
 20
909.87474821464389
 30
0.0
 11
14808.80217064596
 21
853.874748214644
 31
0.0
1001
AUTOCAD_POSTSCRIPT_FIGURE
1002
{
1000
PSFILL
1000
Grayscale
1000
Grayscale
1070
    25
1002
}
  0
LINE
  5
1BA25
  8
YODOROGO
 10
14882.80217064596
 20
909.87474821464389
 30
0.0
 11
14808.80217064596
 21
909.87474821464389
 31
0.0
1001
AUTOCAD_POSTSCRIPT_FIGURE
1002
{
1000
PSFILL
1000
Grayscale
1000
Grayscale
1070
    25
1002
}
  0
LINE
  5
1BA26
  8
YODOROGO
 10
14882.80217064596
 20
929.874748214644
 30
0.0
 11
14882.80217064596
 21
909.87474821464389
 31
0.0
1001
AUTOCAD_POSTSCRIPT_FIGURE
1002
{
1000
PSFILL
1000
Grayscale
1000
Grayscale
1070
    25
1002
}
  0
LINE
  5
1BA27
  8
YODOROGO
 10
14808.80217064596
 20
929.874748214644
 30
0.0
 11
14882.80217064596
 21
929.874748214644
 31
0.0
1001
AUTOCAD_POSTSCRIPT_FIGURE
1002
{
1000
PSFILL
1000
Grayscale
1000
Grayscale
1070
    25
1002
}
  0
LINE
  5
1BA28
  8
YODOROGO
 10
14808.80217064596
 20
953.874748214644
 30
0.0
 11
14808.80217064596
 21
929.874748214644
 31
0.0
1001
AUTOCAD_POSTSCRIPT_FIGURE
1002
{
1000
PSFILL
1000
Grayscale
1000
Grayscale
1070
    25
1002
}
  0
LINE
  5
1BA29
  8
YODOROGO
 10
14882.80217064596
 20
953.874748214644
 30
0.0
 11
14808.80217064596
 21
953.874748214644
 31
0.0
1001
AUTOCAD_POSTSCRIPT_FIGURE
1002
{
1000
PSFILL
1000
Grayscale
1000
Grayscale
1070
    25
1002
}
  0
LINE
  5
1BA2A
  8
YODOROGO
 10
14882.80217064596
 20
973.87474821464343
 30
0.0
 11
14882.80217064596
 21
953.874748214644
 31
0.0
1001
AUTOCAD_POSTSCRIPT_FIGURE
1002
{
1000
PSFILL
1000
Grayscale
1000
Grayscale
1070
    25
1002
}
  0
LINE
  5
1BA2B
  8
YODOROGO
 10
14808.80217064596
 20
973.87474821464343
 30
0.0
 11
14882.80217064596
 21
973.87474821464343
 31
0.0
1001
AUTOCAD_POSTSCRIPT_FIGURE
1002
{
1000
PSFILL
1000
Grayscale
1000
Grayscale
1070
    25
1002
}
  0
LINE
  5
1BA2C
  8
YODOROGO
 10
14808.80217064596
 20
1013.874748214644
 30
0.0
 11
14808.80217064596
 21
973.87474821464343
 31
0.0
1001
AUTOCAD_POSTSCRIPT_FIGURE
1002
{
1000
PSFILL
1000
Grayscale
1000
Grayscale
1070
    25
1002
}
  0
LINE
  5
1BA2D
  8
YODOROGO
 10
14832.80217064596
 20
1013.874748214644
 30
0.0
 11
14808.80217064596
 21
1013.874748214644
 31
0.0
1001
AUTOCAD_POSTSCRIPT_FIGURE
1002
{
1000
PSFILL
1000
Grayscale
1000
Grayscale
1070
    25
1002
}
  0
LINE
  5
1BA2E
  8
YODOROGO
 10
14832.80217064596
 20
997.87474821464355
 30
0.0
 11
14832.80217064596
 21
1013.874748214644
 31
0.0
1001
AUTOCAD_POSTSCRIPT_FIGURE
1002
{
1000
PSFILL
1000
Grayscale
1000
Grayscale
1070
    25
1002
}
  0
LINE
  5
1BA2F
  8
YODOROGO
 10
14882.80217064596
 20
997.87474821464355
 30
0.0
 11
14832.80217064596
 21
997.87474821464355
 31
0.0
1001
AUTOCAD_POSTSCRIPT_FIGURE
1002
{
1000
PSFILL
1000
Grayscale
1000
Grayscale
1070
    25
1002
}
  0
LINE
  5
1BA30
  8
YODOROGO
 10
14882.80217064596
 20
1013.874748214644
 30
0.0
 11
14882.80217064596
 21
997.87474821464355
 31
0.0
1001
AUTOCAD_POSTSCRIPT_FIGURE
1002
{
1000
PSFILL
1000
Grayscale
1000
Grayscale
1070
    25
1002
}
  0
LINE
  5
1BA31
  8
YODOROGO
 10
14914.80217064596
 20
1013.874748214644
 30
0.0
 11
14882.80217064596
 21
1013.874748214644
 31
0.0
1001
AUTOCAD_POSTSCRIPT_FIGURE
1002
{
1000
PSFILL
1000
Grayscale
1000
Grayscale
1070
    25
1002
}
  0
LINE
  5
1BA32
  8
YODOROGO
 10
14914.80217064596
 20
997.87474821464355
 30
0.0
 11
14914.80217064596
 21
1013.874748214644
 31
0.0
1001
AUTOCAD_POSTSCRIPT_FIGURE
1002
{
1000
PSFILL
1000
Grayscale
1000
Grayscale
1070
    25
1002
}
  0
LINE
  5
1BA33
  8
YODOROGO
 10
14914.80217064596
 20
953.874748214644
 30
0.0
 11
14914.80217064596
 21
973.87474821464343
 31
0.0
1001
AUTOCAD_POSTSCRIPT_FIGURE
1002
{
1000
PSFILL
1000
Grayscale
1000
Grayscale
1070
    25
1002
}
  0
LINE
  5
1BA34
  8
YODOROGO
 10
14914.80217064596
 20
909.87474821464389
 30
0.0
 11
14914.80217064596
 21
929.874748214644
 31
0.0
1001
AUTOCAD_POSTSCRIPT_FIGURE
1002
{
1000
PSFILL
1000
Grayscale
1000
Grayscale
1070
    25
1002
}
  0
LINE
  5
1BA35
  8
YODOROGO
 10
14960.80217064594
 20
885.87474821464411
 30
0.0
 11
14960.80217064594
 21
853.874748214644
 31
0.0
1001
AUTOCAD_POSTSCRIPT_FIGURE
1002
{
1000
PSFILL
1000
Grayscale
1000
Grayscale
1070
    25
1002
}
  0
LINE
  5
1BA36
  8
YODOROGO
 10
14914.80217064596
 20
885.87474821464411
 30
0.0
 11
14960.80217064594
 21
885.87474821464411
 31
0.0
1001
AUTOCAD_POSTSCRIPT_FIGURE
1002
{
1000
PSFILL
1000
Grayscale
1000
Grayscale
1070
    25
1002
}
  0
LINE
  5
1BA37
  8
YODOROGO
 10
14914.80217064596
 20
853.874748214644
 30
0.0
 11
14914.80217064596
 21
885.87474821464411
 31
0.0
1001
AUTOCAD_POSTSCRIPT_FIGURE
1002
{
1000
PSFILL
1000
Grayscale
1000
Grayscale
1070
    25
1002
}
  0
LINE
  5
1BA38
  8
YODOROGO
 10
14882.80217064596
 20
853.874748214644
 30
0.0
 11
14914.80217064596
 21
853.874748214644
 31
0.0
1001
AUTOCAD_POSTSCRIPT_FIGURE
1002
{
1000
PSFILL
1000
Grayscale
1000
Grayscale
1070
    25
1002
}
  0
LINE
  5
1BA39
  8
YODOROGO
 10
14882.80217064596
 20
885.87474821464411
 30
0.0
 11
14882.80217064596
 21
853.874748214644
 31
0.0
1001
AUTOCAD_POSTSCRIPT_FIGURE
1002
{
1000
PSFILL
1000
Grayscale
1000
Grayscale
1070
    25
1002
}
  0
LINE
  5
1BA3A
  8
YODOROGO
 10
14836.80217064596
 20
885.87474821464411
 30
0.0
 11
14882.80217064596
 21
885.87474821464411
 31
0.0
1001
AUTOCAD_POSTSCRIPT_FIGURE
1002
{
1000
PSFILL
1000
Grayscale
1000
Grayscale
1070
    25
1002
}
  0
ARC
  5
1BA3B
  8
YODOROGO
 10
15529.75894667896
 20
801.34036875778816
 30
0.0
 40
89.110640555360774
 50
281.02627495425349
 51
357.77113575573799
  0
LINE
  5
1BA3C
  8
YODOROGO
 10
15706.80217064596
 20
953.874748214644
 30
0.0
 11
15582.80217064596
 21
953.874748214644
 31
0.0
  0
LINE
  5
1BA3D
  8
YODOROGO
 10
15706.80217064596
 20
1013.874748214644
 30
0.0
 11
15582.80217064596
 21
1013.874748214644
 31
0.0
  0
LINE
  5
1BA3E
  8
YODOROGO
 10
15582.80217064596
 20
981.87474821464343
 30
0.0
 11
15706.80217064596
 21
981.87474821464343
 31
0.0
  0
LINE
  5
1BA3F
  8
YODOROGO
 10
15395.80217064596
 20
781.87474821464343
 30
0.0
 11
15395.80217064596
 21
877.87474821464355
 31
0.0
  0
LINE
  5
1BA40
  8
YODOROGO
 10
15381.80217064596
 20
845.87474821464446
 30
0.0
 11
15381.80217064596
 21
781.87474821464343
 31
0.0
  0
LINE
  5
1BA41
  8
YODOROGO
 10
15361.80217064596
 20
745.87474821464434
 30
0.0
 11
15361.80217064596
 21
845.87474821464446
 31
0.0
  0
LINE
  5
1BA42
  8
YODOROGO
 10
15449.80217064596
 20
845.87474821464446
 30
0.0
 11
15449.80217064596
 21
745.87474821464434
 31
0.0
  0
LINE
  5
1BA43
  8
YODOROGO
 10
15429.80217064596
 20
781.87474821464343
 30
0.0
 11
15429.80217064596
 21
845.87474821464446
 31
0.0
  0
LINE
  5
1BA44
  8
YODOROGO
 10
15415.80217064596
 20
877.87474821464355
 30
0.0
 11
15415.80217064596
 21
781.87474821464343
 31
0.0
  0
LINE
  5
1BA45
  8
YODOROGO
 10
15486.80217064596
 20
1013.874748214644
 30
0.0
 11
15486.80217064596
 21
733.87474821464355
 31
0.0
  0
LINE
  5
1BA46
  8
YODOROGO
 10
15322.80217064596
 20
713.87474821464355
 30
0.0
 11
15322.80217064596
 21
1013.874748214644
 31
0.0
  0
LINE
  5
1BA47
  8
YODOROGO
 10
15348.80217064596
 20
981.87474821464343
 30
0.0
 11
15348.80217064596
 21
713.87474821464355
 31
0.0
  0
LINE
  5
1BA48
  8
YODOROGO
 10
15462.80217064596
 20
773.874748214644
 30
0.0
 11
15462.80217064596
 21
981.87474821464343
 31
0.0
  0
LINE
  5
1BA49
  8
YODOROGO
 10
15190.80217064596
 20
813.87474821464355
 30
0.0
 11
15190.80217064596
 21
839.87474821464434
 31
0.0
  0
LINE
  5
1BA4A
  8
YODOROGO
 10
15308.80217064596
 20
839.87474821464434
 30
0.0
 11
15308.80217064596
 21
813.87474821464355
 31
0.0
  0
LINE
  5
1BA4B
  8
YODOROGO
 10
15582.80217064596
 20
953.874748214644
 30
0.0
 11
15582.80217064596
 21
817.87474821464355
 31
0.0
  0
LINE
  5
1BA4C
  8
YODOROGO
 10
14974.802170645949
 20
833.87474821464389
 30
0.0
 11
14974.802170645949
 21
853.874748214644
 31
0.0
  0
LINE
  5
1BA4D
  8
YODOROGO
 10
14974.802170645949
 20
833.87474821464389
 30
0.0
 11
14974.802170645949
 21
853.874748214644
 31
0.0
  0
ARC
  5
1BA4E
  8
YODOROGO
 10
15268.80217064596
 20
753.87474821464389
 30
0.0
 40
40.0
 50
270.0
 51
0.0
  0
LINE
  5
1BA4F
  8
YODOROGO
 10
15284.80217064596
 20
799.87474821464411
 30
0.0
 11
15308.80217064596
 21
799.87474821464411
 31
0.0
  0
LINE
  5
1BA50
  8
YODOROGO
 10
15308.80217064596
 20
813.87474821464355
 30
0.0
 11
15264.80217064596
 21
813.87474821464355
 31
0.0
  0
LINE
  5
1BA51
  8
YODOROGO
 10
15108.80217064596
 20
833.87474821464389
 30
0.0
 11
14974.802170645949
 21
833.87474821464389
 31
0.0
  0
LINE
  5
1BA52
  8
YODOROGO
 10
15108.80217064596
 20
813.87474821464355
 30
0.0
 11
15108.80217064596
 21
833.87474821464389
 31
0.0
  0
LINE
  5
1BA53
  8
YODOROGO
 10
15008.80217064596
 20
813.87474821464355
 30
0.0
 11
15108.80217064596
 21
813.87474821464355
 31
0.0
  0
ARC
  5
1BA54
  8
YODOROGO
 10
15115.02941435068
 20
934.44285747645131
 30
0.0
 40
160.68881814261411
 50
228.6181454618993
 51
245.660289248906
  0
LINE
  5
1BA55
  8
YODOROGO
 10
15052.80217064596
 20
801.87474821464434
 30
0.0
 11
15048.80217064598
 21
788.03640793495015
 31
0.0
  0
LINE
  5
1BA56
  8
YODOROGO
 10
15094.80217064596
 20
801.87474821464434
 30
0.0
 11
15052.80217064596
 21
801.87474821464434
 31
0.0
  0
LINE
  5
1BA57
  8
YODOROGO
 10
15088.80217064596
 20
775.90886123671339
 30
0.0
 11
15094.80217064596
 21
801.87474821464434
 31
0.0
  0
ARC
  5
1BA58
  8
YODOROGO
 10
15115.029414350231
 20
934.44285747650133
 30
0.0
 40
160.68881814264529
 50
260.60629297969911
 51
267.77903556555862
  0
LINE
  5
1BA59
  8
YODOROGO
 10
15108.80217064596
 20
713.87474821464275
 30
0.0
 11
15108.80217064596
 21
773.874748214644
 31
0.0
  0
LINE
  5
1BA5A
  8
YODOROGO
 10
14968.80217064596
 20
740.66966745775528
 30
0.0
 11
14968.80217064596
 21
797.26554526557049
 31
0.0
  0
LINE
  5
1BA5B
  8
YODOROGO
 10
15108.80217064596
 20
833.87474821464389
 30
0.0
 11
14974.802170645949
 21
833.87474821464389
 31
0.0
  0
LINE
  5
1BA5C
  8
YODOROGO
 10
15108.80217064596
 20
813.87474821464355
 30
0.0
 11
15108.80217064596
 21
833.87474821464389
 31
0.0
  0
LINE
  5
1BA5D
  8
YODOROGO
 10
15008.80217064596
 20
813.87474821464355
 30
0.0
 11
15108.80217064596
 21
813.87474821464355
 31
0.0
  0
ARC
  5
1BA5E
  8
YODOROGO
 10
15115.02941435068
 20
934.44285747645131
 30
0.0
 40
160.68881814261411
 50
228.6181454618993
 51
245.660289248906
  0
LINE
  5
1BA5F
  8
YODOROGO
 10
15052.80217064596
 20
801.87474821464434
 30
0.0
 11
15048.80217064598
 21
788.03640793495015
 31
0.0
  0
LINE
  5
1BA60
  8
YODOROGO
 10
15094.80217064596
 20
801.87474821464434
 30
0.0
 11
15052.80217064596
 21
801.87474821464434
 31
0.0
  0
LINE
  5
1BA61
  8
YODOROGO
 10
15088.80217064596
 20
775.90886123671339
 30
0.0
 11
15094.80217064596
 21
801.87474821464434
 31
0.0
  0
ARC
  5
1BA62
  8
YODOROGO
 10
15115.029414350231
 20
934.44285747650133
 30
0.0
 40
160.68881814264529
 50
260.60629297969911
 51
267.77903556555862
  0
LINE
  5
1BA63
  8
YODOROGO
 10
15108.80217064596
 20
713.87474821464275
 30
0.0
 11
15108.80217064596
 21
773.874748214644
 31
0.0
  0
LINE
  5
1BA64
  8
YODOROGO
 10
14968.80217064596
 20
740.66966745775528
 30
0.0
 11
14968.80217064596
 21
797.26554526557049
 31
0.0
  0
LINE
  5
1BA65
  8
YODOROGO
 10
15216.80217064596
 20
786.87474821464434
 30
0.0
 11
15190.80217064596
 21
786.87474821464434
 31
0.0
  0
LINE
  5
1BA66
  8
YODOROGO
 10
15216.80217064596
 20
800.8747482146432
 30
0.0
 11
15216.80217064596
 21
786.87474821464434
 31
0.0
  0
LINE
  5
1BA67
  8
YODOROGO
 10
15190.80217064596
 20
800.8747482146432
 30
0.0
 11
15216.80217064596
 21
800.8747482146432
 31
0.0
  0
LINE
  5
1BA68
  8
YODOROGO
 10
15190.80217064596
 20
786.87474821464434
 30
0.0
 11
15190.80217064596
 21
800.8747482146432
 31
0.0
  0
LINE
  5
1BA69
  8
YODOROGO
 10
15214.80217064596
 20
788.87474821464355
 30
0.0
 11
15192.802170645949
 21
788.87474821464355
 31
0.0
  0
LINE
  5
1BA6A
  8
YODOROGO
 10
15214.80217064596
 20
798.874748214644
 30
0.0
 11
15214.80217064596
 21
788.87474821464355
 31
0.0
  0
LINE
  5
1BA6B
  8
YODOROGO
 10
15192.802170645949
 20
798.874748214644
 30
0.0
 11
15214.80217064596
 21
798.874748214644
 31
0.0
  0
LINE
  5
1BA6C
  8
YODOROGO
 10
15192.802170645949
 20
788.87474821464355
 30
0.0
 11
15192.802170645949
 21
798.874748214644
 31
0.0
  0
LINE
  5
1BA6D
  8
YODOROGO
 10
15212.80217064596
 20
790.8747482146432
 30
0.0
 11
15194.80217064596
 21
790.8747482146432
 31
0.0
  0
LINE
  5
1BA6E
  8
YODOROGO
 10
15212.80217064596
 20
796.87474821464446
 30
0.0
 11
15212.80217064596
 21
790.8747482146432
 31
0.0
  0
LINE
  5
1BA6F
  8
YODOROGO
 10
15194.80217064596
 20
796.87474821464446
 30
0.0
 11
15212.80217064596
 21
796.87474821464446
 31
0.0
  0
LINE
  5
1BA70
  8
YODOROGO
 10
15194.80217064596
 20
790.8747482146432
 30
0.0
 11
15194.80217064596
 21
796.87474821464446
 31
0.0
  0
LINE
  5
1BA71
  8
YODOROGO
 10
15210.80217064596
 20
792.87474821464355
 30
0.0
 11
15196.80217064596
 21
792.87474821464355
 31
0.0
  0
LINE
  5
1BA72
  8
YODOROGO
 10
15210.80217064596
 20
794.87474821464411
 30
0.0
 11
15210.80217064596
 21
792.87474821464355
 31
0.0
  0
LINE
  5
1BA73
  8
YODOROGO
 10
15196.80217064596
 20
794.87474821464411
 30
0.0
 11
15210.80217064596
 21
794.87474821464411
 31
0.0
  0
LINE
  5
1BA74
  8
YODOROGO
 10
15196.80217064596
 20
792.87474821464355
 30
0.0
 11
15196.80217064596
 21
794.87474821464411
 31
0.0
  0
LINE
  5
1BA75
  8
YODOROGO
 10
15232.80217064596
 20
813.87474821464355
 30
0.0
 11
15190.80217064596
 21
813.87474821464355
 31
0.0
  0
LINE
  5
1BA76
  8
YODOROGO
 10
15232.80217064596
 20
773.874748214644
 30
0.0
 11
15232.80217064596
 21
813.87474821464355
 31
0.0
  0
LINE
  5
1BA77
  8
YODOROGO
 10
15190.80217064596
 20
773.874748214644
 30
0.0
 11
15232.80217064596
 21
773.874748214644
 31
0.0
  0
LINE
  5
1BA78
  8
YODOROGO
 10
15190.80217064596
 20
713.87474821464355
 30
0.0
 11
15190.80217064596
 21
773.874748214644
 31
0.0
  0
LINE
  5
1BA79
  8
YODOROGO
 10
15268.80217064596
 20
713.87474821464355
 30
0.0
 11
15190.80217064596
 21
713.87474821464355
 31
0.0
  0
LINE
  5
1BA7A
  8
YODOROGO
 10
15284.80217064596
 20
785.8747482146432
 30
0.0
 11
15284.80217064596
 21
799.87474821464411
 31
0.0
  0
ARC
  5
1BA7B
  8
YODOROGO
 10
15272.80217064594
 20
785.87474821464571
 30
0.0
 40
12.000000000001871
 50
270.0
 51
359.99999999998772
  0
LINE
  5
1BA7C
  8
YODOROGO
 10
15264.80217064596
 20
773.874748214644
 30
0.0
 11
15272.80217064594
 21
773.874748214644
 31
0.0
  0
LINE
  5
1BA7D
  8
YODOROGO
 10
15264.80217064596
 20
813.87474821464355
 30
0.0
 11
15264.80217064596
 21
773.874748214644
 31
0.0
  0
LINE
  5
1BA7E
  8
YODOROGO
 10
15449.80217064596
 20
773.874748214644
 30
0.0
 11
15462.80217064596
 21
773.874748214644
 31
0.0
  0
LINE
  5
1BA7F
  8
YODOROGO
 10
15466.80217064596
 20
713.87474821464355
 30
0.0
 11
15449.80217064596
 21
713.87474821464355
 31
0.0
  0
LINE
  5
1BA80
  8
YODOROGO
 10
15381.80217064596
 20
781.87474821464343
 30
0.0
 11
15395.80217064596
 21
781.87474821464343
 31
0.0
  0
LINE
  5
1BA81
  8
YODOROGO
 10
15449.80217064596
 20
745.87474821464434
 30
0.0
 11
15361.80217064596
 21
745.87474821464434
 31
0.0
  0
LINE
  5
1BA82
  8
YODOROGO
 10
15415.80217064596
 20
781.87474821464343
 30
0.0
 11
15429.80217064596
 21
781.87474821464343
 31
0.0
  0
LINE
  5
1BA83
  8
YODOROGO
 10
15449.80217064596
 20
713.87474821464355
 30
0.0
 11
15449.80217064596
 21
773.874748214644
 31
0.0
  0
LINE
  5
1BA84
  8
YODOROGO
 10
15348.80217064596
 20
713.87474821464355
 30
0.0
 11
15322.80217064596
 21
713.87474821464355
 31
0.0
  0
LINE
  5
1BA85
  8
YODOROGO
 10
15308.80217064596
 20
799.87474821464411
 30
0.0
 11
15308.80217064596
 21
753.87474821464389
 31
0.0
  0
ARC
  5
1BA86
  8
YODOROGO
 10
15466.80217064596
 20
733.87474821464355
 30
0.0
 40
20.0
 50
270.0
 51
0.0
  0
LINE
  5
1BA87
  8
YODOROGO
 10
15546.80217064596
 20
761.87474821464343
 30
0.0
 11
15546.80217064596
 21
713.87474821464355
 31
0.0
  0
ARC
  5
1BA88
  8
YODOROGO
 10
15519.86069778339
 20
818.76569505486646
 30
0.0
 40
62.947778295837708
 50
295.34052442160112
 51
359.18902303418679
  0
LINE
  5
1BA89
  8
YODOROGO
 10
15308.80217064596
 20
929.874748214644
 30
0.0
 11
15248.80217064596
 21
969.87474821464411
 31
0.0
  0
LINE
  5
1BA8A
  8
YODOROGO
 10
15248.80217064596
 20
1013.874748214644
 30
0.0
 11
15308.80217064596
 21
973.87474821464343
 31
0.0
  0
LINE
  5
1BA8B
  8
YODOROGO
 10
15264.80217064596
 20
839.87474821464434
 30
0.0
 11
15308.80217064596
 21
839.87474821464434
 31
0.0
  0
LINE
  5
1BA8C
  8
YODOROGO
 10
15308.80217064596
 20
867.87474821464355
 30
0.0
 11
15264.80217064596
 21
867.87474821464355
 31
0.0
  0
LINE
  5
1BA8D
  8
YODOROGO
 10
15190.80217064596
 20
897.87474821464355
 30
0.0
 11
15308.80217064596
 21
897.87474821464355
 31
0.0
  0
LINE
  5
1BA8E
  8
YODOROGO
 10
15040.80217064596
 20
1013.874748214644
 30
0.0
 11
15010.80217064596
 21
1013.874748214644
 31
0.0
  0
LINE
  5
1BA8F
  8
YODOROGO
 10
15040.80217064596
 20
913.87474821464355
 30
0.0
 11
15040.80217064596
 21
1013.874748214644
 31
0.0
  0
LINE
  5
1BA90
  8
YODOROGO
 10
15010.80217064596
 20
913.87474821464355
 30
0.0
 11
15040.80217064596
 21
913.87474821464355
 31
0.0
  0
LINE
  5
1BA91
  8
YODOROGO
 10
15010.80217064596
 20
1013.874748214644
 30
0.0
 11
15010.80217064596
 21
913.87474821464355
 31
0.0
  0
LINE
  5
1BA92
  8
YODOROGO
 10
15080.80217064596
 20
1013.874748214644
 30
0.0
 11
15108.80217064596
 21
1013.874748214644
 31
0.0
  0
LINE
  5
1BA93
  8
YODOROGO
 10
15080.80217064596
 20
905.87474821464434
 30
0.0
 11
15080.80217064596
 21
1013.874748214644
 31
0.0
  0
ARC
  5
1BA94
  8
YODOROGO
 10
15060.80217064596
 20
905.87474821464434
 30
0.0
 40
20.0
 50
270.0
 51
0.0
  0
LINE
  5
1BA95
  8
YODOROGO
 10
15010.80217064596
 20
885.87474821464411
 30
0.0
 11
15060.80217064596
 21
885.87474821464411
 31
0.0
  0
LINE
  5
1BA96
  8
YODOROGO
 10
15010.80217064596
 20
853.874748214644
 30
0.0
 11
15010.80217064596
 21
885.87474821464411
 31
0.0
  0
LINE
  5
1BA97
  8
YODOROGO
 10
15068.80217064596
 20
853.874748214644
 30
0.0
 11
15010.80217064596
 21
853.874748214644
 31
0.0
  0
ARC
  5
1BA98
  8
YODOROGO
 10
15068.80217064596
 20
893.87474821464389
 30
0.0
 40
40.0
 50
270.0
 51
0.0
  0
LINE
  5
1BA99
  8
YODOROGO
 10
15108.80217064596
 20
1013.874748214644
 30
0.0
 11
15108.80217064596
 21
893.87474821464389
 31
0.0
  0
LINE
  5
1BA9A
  8
YODOROGO
 10
14988.80217064596
 20
973.87474821464343
 30
0.0
 11
14988.80217064596
 21
997.87474821464355
 31
0.0
1001
AUTOCAD_POSTSCRIPT_FIGURE
1002
{
1000
PSFILL
1000
Grayscale
1000
Grayscale
1070
    25
1002
}
  0
LINE
  5
1BA9B
  8
YODOROGO
 10
14988.80217064596
 20
929.874748214644
 30
0.0
 11
14988.80217064596
 21
953.874748214644
 31
0.0
1001
AUTOCAD_POSTSCRIPT_FIGURE
1002
{
1000
PSFILL
1000
Grayscale
1000
Grayscale
1070
    25
1002
}
  0
LINE
  5
1BA9C
  8
YODOROGO
 10
14988.80217064596
 20
853.874748214644
 30
0.0
 11
14988.80217064596
 21
909.87474821464389
 31
0.0
1001
AUTOCAD_POSTSCRIPT_FIGURE
1002
{
1000
PSFILL
1000
Grayscale
1000
Grayscale
1070
    25
1002
}
  0
LINE
  5
1BA9D
  8
YODOROGO
 10
15190.80217064596
 20
953.874748214644
 30
0.0
 11
15248.80217064596
 21
1013.874748214644
 31
0.0
  0
LINE
  5
1BA9E
  8
YODOROGO
 10
15190.80217064596
 20
909.87474821464389
 30
0.0
 11
15190.80217064596
 21
953.874748214644
 31
0.0
  0
LINE
  5
1BA9F
  8
YODOROGO
 10
15248.80217064596
 20
969.87474821464411
 30
0.0
 11
15190.80217064596
 21
909.87474821464389
 31
0.0
  0
LINE
  5
1BAA0
  8
YODOROGO
 10
15232.80217064596
 20
839.87474821464434
 30
0.0
 11
15232.80217064596
 21
867.87474821464355
 31
0.0
  0
LINE
  5
1BAA1
  8
YODOROGO
 10
15190.80217064596
 20
839.87474821464434
 30
0.0
 11
15232.80217064596
 21
839.87474821464434
 31
0.0
  0
LINE
  5
1BAA2
  8
YODOROGO
 10
15264.80217064596
 20
867.87474821464355
 30
0.0
 11
15264.80217064596
 21
839.87474821464434
 31
0.0
  0
LINE
  5
1BAA3
  8
YODOROGO
 10
15190.80217064596
 20
867.87474821464355
 30
0.0
 11
15190.80217064596
 21
897.87474821464355
 31
0.0
  0
LINE
  5
1BAA4
  8
YODOROGO
 10
15232.80217064596
 20
867.87474821464355
 30
0.0
 11
15190.80217064596
 21
867.87474821464355
 31
0.0
  0
LINE
  5
1BAA5
  8
YODOROGO
 10
15322.80217064596
 20
1013.874748214644
 30
0.0
 11
15486.80217064596
 21
1013.874748214644
 31
0.0
  0
LINE
  5
1BAA6
  8
YODOROGO
 10
15462.80217064596
 20
981.87474821464343
 30
0.0
 11
15348.80217064596
 21
981.87474821464343
 31
0.0
  0
LINE
  5
1BAA7
  8
YODOROGO
 10
15436.802170645949
 20
909.87474821464389
 30
0.0
 11
15449.80217064596
 21
909.87474821464389
 31
0.0
  0
LINE
  5
1BAA8
  8
YODOROGO
 10
15449.80217064596
 20
969.87474821464411
 30
0.0
 11
15436.802170645949
 21
909.87474821464389
 31
0.0
  0
LINE
  5
1BAA9
  8
YODOROGO
 10
15425.80217064596
 20
969.87474821464411
 30
0.0
 11
15449.80217064596
 21
969.87474821464411
 31
0.0
  0
LINE
  5
1BAAA
  8
YODOROGO
 10
15412.80217064596
 20
909.87474821464389
 30
0.0
 11
15425.80217064596
 21
969.87474821464411
 31
0.0
  0
LINE
  5
1BAAB
  8
YODOROGO
 10
15398.80217064596
 20
909.87474821464389
 30
0.0
 11
15412.80217064596
 21
909.87474821464389
 31
0.0
  0
LINE
  5
1BAAC
  8
YODOROGO
 10
15385.80217064596
 20
969.87474821464411
 30
0.0
 11
15398.80217064596
 21
909.87474821464389
 31
0.0
  0
LINE
  5
1BAAD
  8
YODOROGO
 10
15361.80217064596
 20
969.87474821464411
 30
0.0
 11
15385.80217064596
 21
969.87474821464411
 31
0.0
  0
LINE
  5
1BAAE
  8
YODOROGO
 10
15374.80217064596
 20
909.87474821464389
 30
0.0
 11
15361.80217064596
 21
969.87474821464411
 31
0.0
  0
LINE
  5
1BAAF
  8
YODOROGO
 10
15361.80217064596
 20
909.87474821464389
 30
0.0
 11
15374.80217064596
 21
909.87474821464389
 31
0.0
  0
LINE
  5
1BAB0
  8
YODOROGO
 10
15361.80217064596
 20
877.87474821464355
 30
0.0
 11
15361.80217064596
 21
909.87474821464389
 31
0.0
  0
LINE
  5
1BAB1
  8
YODOROGO
 10
15449.80217064596
 20
877.87474821464355
 30
0.0
 11
15361.80217064596
 21
877.87474821464355
 31
0.0
  0
LINE
  5
1BAB2
  8
YODOROGO
 10
15449.80217064596
 20
909.87474821464389
 30
0.0
 11
15449.80217064596
 21
877.87474821464355
 31
0.0
  0
LINE
  5
1BAB3
  8
YODOROGO
 10
15308.80217064596
 20
973.87474821464343
 30
0.0
 11
15308.80217064596
 21
929.874748214644
 31
0.0
  0
LINE
  5
1BAB4
  8
YODOROGO
 10
15395.80217064596
 20
877.87474821464355
 30
0.0
 11
15415.80217064596
 21
877.87474821464355
 31
0.0
  0
LINE
  5
1BAB5
  8
YODOROGO
 10
15361.80217064596
 20
845.87474821464446
 30
0.0
 11
15381.80217064596
 21
845.87474821464446
 31
0.0
  0
LINE
  5
1BAB6
  8
YODOROGO
 10
15429.80217064596
 20
845.87474821464446
 30
0.0
 11
15449.80217064596
 21
845.87474821464446
 31
0.0
  0
LINE
  5
1BAB7
  8
YODOROGO
 10
15308.80217064596
 20
897.87474821464355
 30
0.0
 11
15308.80217064596
 21
867.87474821464355
 31
0.0
  0
LINE
  5
1BAB8
  8
YODOROGO
 10
15582.80217064596
 20
1013.874748214644
 30
0.0
 11
15582.80217064596
 21
981.87474821464343
 31
0.0
  0
LINE
  5
1BAB9
  8
YODOROGO
 10
15766.80217064596
 20
797.87474821464355
 30
0.0
 11
15766.80217064594
 21
905.87474821464434
 31
0.0
  0
LINE
  5
1BABA
  8
YODOROGO
 10
15730.80217064594
 20
993.87474821464389
 30
0.0
 11
15730.80217064594
 21
817.87474821464355
 31
0.0
  0
LINE
  5
1BABB
  8
YODOROGO
 10
15826.80217064596
 20
713.87474821464355
 30
0.0
 11
15826.80217064594
 21
905.87474821464434
 31
0.0
  0
LINE
  5
1BABC
  8
YODOROGO
 10
15794.80217064596
 20
905.87474821464434
 30
0.0
 11
15794.80217064596
 21
713.87474821464355
 31
0.0
  0
LINE
  5
1BABD
  8
YODOROGO
 10
15618.80217064596
 20
797.87474821464355
 30
0.0
 11
15618.80217064596
 21
853.874748214644
 31
0.0
  0
ARC
  5
1BABE
  8
YODOROGO
 10
15676.957432558031
 20
803.89517564427877
 30
0.0
 40
90.046224287994292
 50
268.62849102169793
 51
356.16638457330322
  0
LINE
  5
1BABF
  8
YODOROGO
 10
15674.80217064596
 20
763.87474821464355
 30
0.0
 11
15674.80217064596
 21
713.87474821464355
 31
0.0
  0
ARC
  5
1BAC0
  8
YODOROGO
 10
15675.759037862281
 20
818.91947850882752
 30
0.0
 40
55.053046491806079
 50
269.00410209305932
 51
358.91264455492478
  0
LINE
  5
1BAC1
  8
YODOROGO
 10
15794.80217064596
 20
713.87474821464355
 30
0.0
 11
15826.80217064596
 21
713.87474821464355
 31
0.0
  0
LINE
  5
1BAC2
  8
YODOROGO
 10
15766.80217064594
 20
905.87474821464434
 30
0.0
 11
15794.80217064596
 21
905.87474821464434
 31
0.0
  0
LINE
  5
1BAC3
  8
YODOROGO
 10
15810.80217064596
 20
993.87474821464389
 30
0.0
 11
15730.80217064594
 21
993.87474821464389
 31
0.0
  0
LINE
  5
1BAC4
  8
YODOROGO
 10
15766.80217064594
 20
957.87474821464355
 30
0.0
 11
15830.80217064596
 21
957.87474821464355
 31
0.0
  0
LINE
  5
1BAC5
  8
YODOROGO
 10
15850.80217064596
 20
937.87474821464355
 30
0.0
 11
15766.80217064594
 21
937.87474821464355
 31
0.0
  0
LINE
  5
1BAC6
  8
YODOROGO
 10
15618.80217064596
 20
889.87474821464434
 30
0.0
 11
15674.80217064596
 21
889.87474821464434
 31
0.0
  0
LINE
  5
1BAC7
  8
YODOROGO
 10
15618.80217064596
 20
917.87474821464355
 30
0.0
 11
15618.80217064596
 21
889.87474821464434
 31
0.0
  0
LINE
  5
1BAC8
  8
YODOROGO
 10
15674.80217064596
 20
917.87474821464355
 30
0.0
 11
15618.80217064596
 21
917.87474821464355
 31
0.0
  0
LINE
  5
1BAC9
  8
YODOROGO
 10
15674.80217064596
 20
889.87474821464434
 30
0.0
 11
15674.80217064596
 21
917.87474821464355
 31
0.0
  0
LINE
  5
1BACA
  8
YODOROGO
 10
15766.80217064594
 20
937.87474821464355
 30
0.0
 11
15766.80217064594
 21
957.87474821464355
 31
0.0
  0
LINE
  5
1BACB
  8
YODOROGO
 10
15706.80217064596
 20
853.874748214644
 30
0.0
 11
15706.80217064596
 21
953.874748214644
 31
0.0
  0
LINE
  5
1BACC
  8
YODOROGO
 10
15618.80217064596
 20
853.874748214644
 30
0.0
 11
15706.80217064596
 21
853.874748214644
 31
0.0
  0
LINE
  5
1BACD
  8
YODOROGO
 10
15706.80217064596
 20
981.87474821464343
 30
0.0
 11
15706.80217064596
 21
1013.874748214644
 31
0.0
  0
ARC
  5
1BACE
  8
YODOROGO
 10
15810.80217064596
 20
1001.874748214642
 30
0.0
 40
7.9999999999972689
 50
270.0
 51
0.0000000000081422
  0
LINE
  5
1BACF
  8
YODOROGO
 10
15818.80217064596
 20
1013.874748214644
 30
0.0
 11
15818.80217064596
 21
1001.874748214643
 31
0.0
  0
LINE
  5
1BAD0
  8
YODOROGO
 10
15850.80217064596
 20
1013.874748214644
 30
0.0
 11
15818.80217064596
 21
1013.874748214644
 31
0.0
  0
LINE
  5
1BAD1
  8
YODOROGO
 10
15850.80217064596
 20
977.87474821464355
 30
0.0
 11
15850.80217064596
 21
1013.874748214644
 31
0.0
  0
ARC
  5
1BAD2
  8
YODOROGO
 10
15830.80217064596
 20
977.87474821464355
 30
0.0
 40
20.0
 50
270.0
 51
0.0
  0
LINE
  5
1BAD3
  8
YODOROGO
 10
15850.80217064596
 20
905.87474821464434
 30
0.0
 11
15850.80217064596
 21
937.87474821464355
 31
0.0
  0
LINE
  5
1BAD4
  8
YODOROGO
 10
15826.80217064594
 20
905.87474821464434
 30
0.0
 11
15850.80217064596
 21
905.87474821464434
 31
0.0
  0
LINE
  5
1BAD5
  8
SUNPOU
 10
7494.8738593810194
 20
10256.75781342096
 30
0.0
 11
7809.8738593810212
 21
10256.75781342096
 31
0.0
  0
LINE
  5
1BAD6
  8
SUNPOU
 10
7494.8738593810194
 20
10536.75781342096
 30
0.0
 11
7809.8738593810212
 21
10536.75781342096
 31
0.0
  0
LINE
  5
1BAD7
  8
SUNPOU
 10
7764.8738593810194
 20
10271.75781342096
 30
0.0
 11
7764.8738593810194
 21
10521.757813420951
 31
0.0
  0
LINE
  5
1BAD8
  8
SUNPOU
 10
7494.8738593810194
 20
8821.7578134209562
 30
0.0
 11
7809.8738593810176
 21
8821.7578134209562
 31
0.0
  0
LINE
  5
1BAD9
  8
SUNPOU
 10
7494.8738593810194
 20
10256.75781342096
 30
0.0
 11
7809.8738593810212
 21
10256.75781342096
 31
0.0
  0
LINE
  5
1BADA
  8
SUNPOU
 10
7764.8738593810194
 20
8836.7578134209562
 30
0.0
 11
7764.8738593810194
 21
10241.757813420951
 31
0.0
  0
LINE
  5
1BADB
  8
SUNPOU
 10
7494.8738593810194
 20
8132.7578134209571
 30
0.0
 11
7809.8738593810212
 21
8132.7578134209571
 31
0.0
  0
LINE
  5
1BADC
  8
SUNPOU
 10
7494.8738593810194
 20
8821.7578134209562
 30
0.0
 11
7809.8738593810212
 21
8821.7578134209562
 31
0.0
  0
LINE
  5
1BADD
  8
SUNPOU
 10
7764.8738593810194
 20
8147.7578134209571
 30
0.0
 11
7764.8738593810194
 21
8806.757813420958
 31
0.0
  0
LINE
  5
1BADE
  8
SUNPOU
 10
7494.8738593810194
 20
8132.7578134209571
 30
0.0
 11
8019.8738593810131
 21
8132.7578134209571
 31
0.0
  0
LINE
  5
1BADF
  8
SUNPOU
 10
7494.8738593810194
 20
10536.75781342096
 30
0.0
 11
8019.873859381014
 21
10536.75781342096
 31
0.0
  0
LINE
  5
1BAE0
  8
SUNPOU
 10
7974.8738593810131
 20
8147.7578134209571
 30
0.0
 11
7974.873859381014
 21
10521.757813420951
 31
0.0
  0
LINE
  5
1BAE1
  8
SUNPOU
 10
10761.08862012218
 20
2719.546798568535
 30
0.0
 11
10262.219044526681
 21
2719.546798568535
 31
0.0
  0
LINE
  5
1BAE2
  8
SUNPOU
 10
10368.051575649621
 20
2669.5467985685359
 30
0.0
 11
10262.219044526681
 21
2669.5467985685359
 31
0.0
  0
LINE
  5
1BAE3
  8
SUNPOU
 10
10307.219044526681
 20
2734.5467985685359
 30
0.0
 11
10307.219044526681
 21
2749.5467985685359
 31
0.0
  0
LINE
  5
1BAE4
  8
SUNPOU
 10
10307.219044526681
 20
2654.5467985685359
 30
0.0
 11
10307.219044526681
 21
2452.4039414256781
 31
0.0
  0
LINE
  5
1BAE5
  8
SUNPOU
 10
10307.219044526681
 20
2719.546798568535
 30
0.0
 11
10307.219044526681
 21
2669.5467985685359
 31
0.0
  0
LINE
  5
1BAE6
  8
SUNPOU
 10
11491.08862012218
 20
5322.5467985685318
 30
0.0
 11
11491.08862012218
 21
5337.54679856853
 31
0.0
  0
LINE
  5
1BAE7
  8
SUNPOU
 10
10802.08862012218
 20
4917.5467985685327
 30
0.0
 11
10802.08862012218
 21
5337.54679856853
 31
0.0
  0
LINE
  5
1BAE8
  8
SUNPOU
 10
11476.08862012218
 20
5292.54679856853
 30
0.0
 11
10817.08862012218
 21
5292.54679856853
 31
0.0
  0
LINE
  5
1BAE9
  8
SUNPOU
 10
12926.08862012218
 20
5322.5467985685318
 30
0.0
 11
12926.08862012218
 21
5337.54679856853
 31
0.0
  0
LINE
  5
1BAEA
  8
SUNPOU
 10
11491.08862012218
 20
5322.5467985685318
 30
0.0
 11
11491.08862012218
 21
5337.54679856853
 31
0.0
  0
LINE
  5
1BAEB
  8
SUNPOU
 10
12911.08862012218
 20
5292.54679856853
 30
0.0
 11
11506.08862012218
 21
5292.54679856853
 31
0.0
  0
LINE
  5
1BAEC
  8
SUNPOU
 10
13206.08862012218
 20
4574.4176420139729
 30
0.0
 11
13206.08862012218
 21
5337.54679856853
 31
0.0
  0
LINE
  5
1BAED
  8
SUNPOU
 10
12926.08862012218
 20
5322.5467985685318
 30
0.0
 11
12926.08862012218
 21
5337.54679856853
 31
0.0
  0
LINE
  5
1BAEE
  8
SUNPOU
 10
13191.088620122169
 20
5292.54679856853
 30
0.0
 11
12941.08862012218
 21
5292.54679856853
 31
0.0
  0
LINE
  5
1BAEF
  8
SUNPOU
 10
10761.08862012218
 20
2719.546798568535
 30
0.0
 11
10262.21904452669
 21
2719.546798568535
 31
0.0
  0
LINE
  5
1BAF0
  8
SUNPOU
 10
10772.08862012218
 20
4887.5467985685318
 30
0.0
 11
10262.21904452669
 21
4887.5467985685318
 31
0.0
  0
LINE
  5
1BAF1
  8
SUNPOU
 10
10307.219044526681
 20
2734.5467985685359
 30
0.0
 11
10307.21904452669
 21
4872.5467985685318
 31
0.0
  0
LINE
  5
1BAF2
  8
SUNPOU
 10
13156.08862012218
 20
2719.5467985685341
 30
0.0
 11
13556.913772729191
 21
2719.5467985685332
 31
0.0
  0
LINE
  5
1BAF3
  8
SUNPOU
 10
13156.08862012218
 20
4746.5467985685327
 30
0.0
 11
13556.913772729191
 21
4746.5467985685327
 31
0.0
  0
LINE
  5
1BAF4
  8
SUNPOU
 10
13511.91377272918
 20
2734.5467985685332
 30
0.0
 11
13511.913772729191
 21
4731.5467985685309
 31
0.0
  0
LINE
  5
1BAF5
  8
SUNPOU
 10
4592.8738593810158
 20
8101.757813420958
 30
0.0
 11
4592.8738593810158
 21
7156.7578134209571
 31
0.0
  0
LINE
  5
1BAF6
  8
SUNPOU
 10
7464.8738593810194
 20
8102.7578134209571
 30
0.0
 11
7464.8738593810194
 21
7156.7578134209571
 31
0.0
  0
LINE
  5
1BAF7
  8
SUNPOU
 10
4607.8738593810176
 20
7201.7578134209571
 30
0.0
 11
7449.8738593810176
 21
7201.7578134209571
 31
0.0
  0
LINE
  5
1BAF8
  8
SUNPOU
 10
7228.8738593810176
 20
8102.7578134209571
 30
0.0
 11
7228.8738593810176
 21
7366.7578134209571
 31
0.0
  0
LINE
  5
1BAF9
  8
SUNPOU
 10
7464.8738593810194
 20
8102.7578134209571
 30
0.0
 11
7464.8738593810194
 21
7366.7578134209571
 31
0.0
  0
LINE
  5
1BAFA
  8
SUNPOU
 10
7243.8738593810176
 20
7411.7578134209562
 30
0.0
 11
7449.8738593810176
 21
7411.7578134209562
 31
0.0
  0
LINE
  5
1BAFB
  8
SUNPOU
 10
7464.8738593810194
 20
7411.7578134209562
 30
0.0
 11
7724.1595736667332
 21
7411.7578134209562
 31
0.0
  0
LINE
  5
1BAFC
  8
SUNPOU
 10
4828.8738593810194
 20
7591.6677514306848
 30
0.0
 11
4828.8738593810194
 21
7366.7578134209571
 31
0.0
  0
LINE
  5
1BAFD
  8
SUNPOU
 10
7228.8738593810176
 20
8102.7578134209571
 30
0.0
 11
7228.8738593810176
 21
7366.7578134209571
 31
0.0
  0
LINE
  5
1BAFE
  8
SUNPOU
 10
4843.8738593810194
 20
7411.7578134209562
 30
0.0
 11
7213.8738593810203
 21
7411.7578134209562
 31
0.0
  0
LINE
  5
1BAFF
  8
SUNPOU
 10
4828.8738593810194
 20
7591.6677514306848
 30
0.0
 11
4828.8738593810194
 21
7366.7578134209571
 31
0.0
  0
LINE
  5
1BB00
  8
SUNPOU
 10
4592.8738593810158
 20
8101.757813420958
 30
0.0
 11
4592.8738593810158
 21
7366.7578134209571
 31
0.0
  0
LINE
  5
1BB01
  8
SUNPOU
 10
4813.8738593810167
 20
7411.7578134209562
 30
0.0
 11
4607.8738593810176
 21
7411.7578134209562
 31
0.0
  0
LINE
  5
1BB02
  8
SUNPOU
 10
4592.8738593810158
 20
7411.7578134209562
 30
0.0
 11
4333.5881450953029
 21
7411.7578134209562
 31
0.0
  0
ARC
  5
1BB03
  8
SUNPOU
 10
7028.8738593810158
 20
7621.7578134209571
 30
0.0
 40
5.625
 50
180.0
 51
0.0
  0
ARC
  5
1BB04
  8
SUNPOU
 10
7028.8738593810158
 20
7621.7578134209571
 30
0.0
 40
5.625
 50
0.0
 51
180.0
  0
ARC
  5
1BB05
  8
SUNPOU
 10
6628.8738593810212
 20
7621.7578134209571
 30
0.0
 40
5.625
 50
180.0
 51
0.0
  0
ARC
  5
1BB06
  8
SUNPOU
 10
6628.8738593810212
 20
7621.7578134209571
 30
0.0
 40
5.625
 50
0.0
 51
180.0
  0
ARC
  5
1BB07
  8
SUNPOU
 10
6628.8738593810212
 20
7621.7578134209571
 30
0.0
 40
5.625
 50
0.0
 51
180.0
  0
ARC
  5
1BB08
  8
SUNPOU
 10
6628.8738593810212
 20
7621.7578134209571
 30
0.0
 40
5.625
 50
180.0
 51
0.0
  0
ARC
  5
1BB09
  8
SUNPOU
 10
6228.8738593810194
 20
7621.7578134209571
 30
0.0
 40
5.625
 50
180.0
 51
0.0
  0
ARC
  5
1BB0A
  8
SUNPOU
 10
6228.8738593810194
 20
7621.7578134209571
 30
0.0
 40
5.625
 50
0.0
 51
180.0
  0
ARC
  5
1BB0B
  8
SUNPOU
 10
6228.8738593810194
 20
7621.7578134209571
 30
0.0
 40
5.625
 50
0.0
 51
180.0
  0
ARC
  5
1BB0C
  8
SUNPOU
 10
6228.8738593810194
 20
7621.7578134209571
 30
0.0
 40
5.625
 50
180.0
 51
0.0
  0
ARC
  5
1BB0D
  8
SUNPOU
 10
5828.8738593810222
 20
7621.7578134209571
 30
0.0
 40
5.625
 50
0.0
 51
180.0
  0
ARC
  5
1BB0E
  8
SUNPOU
 10
5828.8738593810222
 20
7621.7578134209571
 30
0.0
 40
5.625
 50
180.0
 51
0.0
  0
LINE
  5
1BB0F
  8
SUNPOU
 10
7228.8738593810258
 20
5322.54679856853
 30
0.0
 11
7228.8738593810258
 21
5337.54679856853
 31
0.0
  0
LINE
  5
1BB10
  8
SUNPOU
 10
7464.8738593810258
 20
4922.54679856853
 30
0.0
 11
7464.8738593810258
 21
5337.54679856853
 31
0.0
  0
LINE
  5
1BB11
  8
SUNPOU
 10
7243.8738593810249
 20
5292.54679856853
 30
0.0
 11
7449.8738593810258
 21
5292.54679856853
 31
0.0
  0
LINE
  5
1BB12
  8
SUNPOU
 10
7228.8738593810258
 20
5322.54679856853
 30
0.0
 11
7228.8738593810258
 21
5337.54679856853
 31
0.0
  0
LINE
  5
1BB13
  8
SUNPOU
 10
4828.873859381024
 20
5322.54679856853
 30
0.0
 11
4828.873859381024
 21
5337.54679856853
 31
0.0
  0
LINE
  5
1BB14
  8
SUNPOU
 10
7213.8738593810276
 20
5292.54679856853
 30
0.0
 11
4843.873859381024
 21
5292.54679856853
 31
0.0
  0
LINE
  5
1BB15
  8
SUNPOU
 10
4828.873859381024
 20
5322.54679856853
 30
0.0
 11
4828.873859381024
 21
5337.54679856853
 31
0.0
  0
LINE
  5
1BB16
  8
SUNPOU
 10
4592.873859381024
 20
4922.54679856853
 30
0.0
 11
4592.873859381024
 21
5337.54679856853
 31
0.0
  0
LINE
  5
1BB17
  8
SUNPOU
 10
4813.873859381024
 20
5292.54679856853
 30
0.0
 11
4607.8738593810249
 21
5292.54679856853
 31
0.0
  0
TEXT
  5
1BB18
  8
SUNPOU
 10
7719.8738593810158
 20
10311.04352770667
 30
0.0
 40
90.0
  1
280
 50
90.0
 41
0.6666666666666666
  7
00
  0
LINE
  5
1BB19
  8
SUNPOU
 10
7764.8738593810194
 20
10525.50781342096
 30
0.0
 11
7764.8738593810194
 21
10514.257813420951
 31
0.0
  0
LINE
  5
1BB1A
  8
SUNPOU
 10
7764.8738593810194
 20
10268.00781342096
 30
0.0
 11
7764.8738593810194
 21
10279.25781342096
 31
0.0
  0
TEXT
  5
1BB1B
  8
SUNPOU
 10
7719.8738593810158
 20
9420.6863848495323
 30
0.0
 40
90.0
  1
1435
 50
90.0
 41
0.6666666666666666
  7
00
  0
LINE
  5
1BB1C
  8
SUNPOU
 10
7764.8738593810194
 20
10245.507813420951
 30
0.0
 11
7764.8738593810194
 21
10234.257813420951
 31
0.0
  0
LINE
  5
1BB1D
  8
SUNPOU
 10
7764.8738593810194
 20
8833.0078134209616
 30
0.0
 11
7764.8738593810194
 21
8844.2578134209562
 31
0.0
  0
TEXT
  5
1BB1E
  8
SUNPOU
 10
7719.8738593810194
 20
8391.5435277066754
 30
0.0
 40
90.0
  1
695
 50
90.0
 41
0.6666666666666666
  7
00
  0
LINE
  5
1BB1F
  8
SUNPOU
 10
7764.8738593810194
 20
8810.507813420958
 30
0.0
 11
7764.8738593810194
 21
8799.257813420958
 31
0.0
  0
LINE
  5
1BB20
  8
SUNPOU
 10
7764.8738593810194
 20
8144.0078134209571
 30
0.0
 11
7764.8738593810194
 21
8155.2578134209571
 31
0.0
  0
TEXT
  5
1BB21
  8
SUNPOU
 10
7929.8738593810131
 20
9219.0435277066717
 30
0.0
 40
90.0
  1
2410
 50
90.0
 41
0.6666666666666666
  7
00
  0
LINE
  5
1BB22
  8
SUNPOU
 10
7974.873859381014
 20
10525.50781342096
 30
0.0
 11
7974.873859381014
 21
10514.257813420951
 31
0.0
  0
LINE
  5
1BB23
  8
SUNPOU
 10
7974.8738593810131
 20
8144.0078134209571
 30
0.0
 11
7974.8738593810131
 21
8155.2578134209571
 31
0.0
  0
TEXT
  5
1BB24
  8
SUNPOU
 10
10262.219044526681
 20
2488.832512854251
 30
0.0
 40
90.0
  1
50
 50
90.0
 41
0.6666666666666666
  7
00
  0
LINE
  5
1BB25
  8
SUNPOU
 10
10307.219044526681
 20
2658.2967985685359
 30
0.0
 11
10307.219044526681
 21
2647.0467985685359
 31
0.0
  0
LINE
  5
1BB26
  8
SUNPOU
 10
10307.219044526681
 20
2730.796798568535
 30
0.0
 11
10307.219044526681
 21
2742.046798568535
 31
0.0
  0
TEXT
  5
1BB27
  8
SUNPOU
 10
11060.874334407899
 20
5337.54679856853
 30
0.0
 40
90.0
  1
695
 41
0.6666666666666666
  7
00
  0
LINE
  5
1BB28
  8
SUNPOU
 10
10813.33862012218
 20
5292.54679856853
 30
0.0
 11
10824.58862012218
 21
5292.54679856853
 31
0.0
  0
LINE
  5
1BB29
  8
SUNPOU
 10
11479.83862012218
 20
5292.54679856853
 30
0.0
 11
11468.58862012218
 21
5292.54679856853
 31
0.0
  0
TEXT
  5
1BB2A
  8
SUNPOU
 10
12090.01719155076
 20
5337.54679856853
 30
0.0
 40
90.0
  1
1435
 41
0.6666666666666666
  7
00
  0
LINE
  5
1BB2B
  8
SUNPOU
 10
11502.33862012218
 20
5292.54679856853
 30
0.0
 11
11513.58862012218
 21
5292.54679856853
 31
0.0
  0
LINE
  5
1BB2C
  8
SUNPOU
 10
12914.83862012218
 20
5292.54679856853
 30
0.0
 11
12903.58862012218
 21
5292.54679856853
 31
0.0
  0
TEXT
  5
1BB2D
  8
SUNPOU
 10
12980.374334407899
 20
5337.54679856853
 30
0.0
 40
90.0
  1
280
 41
0.6666666666666666
  7
00
  0
LINE
  5
1BB2E
  8
SUNPOU
 10
12937.33862012218
 20
5292.54679856853
 30
0.0
 11
12948.58862012218
 21
5292.54679856853
 31
0.0
  0
LINE
  5
1BB2F
  8
SUNPOU
 10
13194.83862012218
 20
5292.54679856853
 30
0.0
 11
13183.588620122169
 21
5292.54679856853
 31
0.0
  0
TEXT
  5
1BB30
  8
SUNPOU
 10
10262.21904452669
 20
3689.2610842828221
 30
0.0
 40
90.0
  1
2168
 50
90.0
 41
0.6666666666666666
  7
00
  0
LINE
  5
1BB31
  8
SUNPOU
 10
10307.21904452669
 20
4876.2967985685327
 30
0.0
 11
10307.21904452669
 21
4865.0467985685327
 31
0.0
  0
LINE
  5
1BB32
  8
SUNPOU
 10
10307.219044526681
 20
2730.796798568535
 30
0.0
 11
10307.219044526681
 21
2742.046798568535
 31
0.0
  0
TEXT
  5
1BB33
  8
SUNPOU
 10
13466.91377272918
 20
3618.7610842828221
 30
0.0
 40
90.0
  1
2027
 50
90.0
 41
0.6666666666666666
  7
00
  0
LINE
  5
1BB34
  8
SUNPOU
 10
13511.913772729191
 20
4735.2967985685327
 30
0.0
 11
13511.913772729191
 21
4724.0467985685318
 31
0.0
  0
LINE
  5
1BB35
  8
SUNPOU
 10
13511.91377272918
 20
2730.7967985685341
 30
0.0
 11
13511.91377272918
 21
2742.0467985685332
 31
0.0
  0
TEXT
  5
1BB36
  8
SUNPOU
 10
5914.5881450953038
 20
7246.7578134209571
 30
0.0
 40
90.0
  1
2872
 41
0.6666666666666666
  7
00
  0
LINE
  5
1BB37
  8
SUNPOU
 10
7453.6238593810176
 20
7201.7578134209571
 30
0.0
 11
7442.3738593810176
 21
7201.7578134209571
 31
0.0
  0
LINE
  5
1BB38
  8
SUNPOU
 10
4604.1238593810176
 20
7201.7578134209571
 30
0.0
 11
4615.3738593810158
 21
7201.7578134209571
 31
0.0
  0
TEXT
  5
1BB39
  8
SUNPOU
 10
7516.3024308095919
 20
7456.7578134209562
 30
0.0
 40
90.0
  1
236
 41
0.6666666666666666
  7
00
  0
LINE
  5
1BB3A
  8
SUNPOU
 10
7453.6238593810176
 20
7411.7578134209562
 30
0.0
 11
7442.3738593810176
 21
7411.7578134209562
 31
0.0
  0
LINE
  5
1BB3B
  8
SUNPOU
 10
7240.1238593810194
 20
7411.7578134209562
 30
0.0
 11
7251.3738593810176
 21
7411.7578134209562
 31
0.0
  0
TEXT
  5
1BB3C
  8
SUNPOU
 10
5914.5881450953038
 20
7456.7578134209562
 30
0.0
 40
90.0
  1
2400
 41
0.6666666666666666
  7
00
  0
LINE
  5
1BB3D
  8
SUNPOU
 10
7217.6238593810176
 20
7411.7578134209562
 30
0.0
 11
7206.3738593810176
 21
7411.7578134209562
 31
0.0
  0
LINE
  5
1BB3E
  8
SUNPOU
 10
4840.1238593810176
 20
7411.7578134209562
 30
0.0
 11
4851.3738593810158
 21
7411.7578134209562
 31
0.0
  0
TEXT
  5
1BB3F
  8
SUNPOU
 10
4370.0167165238754
 20
7456.7578134209562
 30
0.0
 40
90.0
  1
236
 41
0.6666666666666666
  7
00
  0
LINE
  5
1BB40
  8
SUNPOU
 10
4604.1238593810176
 20
7411.7578134209562
 30
0.0
 11
4615.3738593810158
 21
7411.7578134209562
 31
0.0
  0
LINE
  5
1BB41
  8
SUNPOU
 10
4817.6238593810194
 20
7411.7578134209562
 30
0.0
 11
4806.3738593810176
 21
7411.7578134209562
 31
0.0
  0
TEXT
  5
1BB42
  8
SUNPOU
 10
7261.1595736667414
 20
5337.54679856853
 30
0.0
 40
90.0
  1
236
 41
0.6666666666666666
  7
00
  0
LINE
  5
1BB43
  8
SUNPOU
 10
7453.6238593810249
 20
5292.54679856853
 30
0.0
 11
7442.3738593810249
 21
5292.54679856853
 31
0.0
  0
LINE
  5
1BB44
  8
SUNPOU
 10
7240.1238593810258
 20
5292.54679856853
 30
0.0
 11
7251.3738593810249
 21
5292.54679856853
 31
0.0
  0
TEXT
  5
1BB45
  8
SUNPOU
 10
5914.5881450953111
 20
5337.54679856853
 30
0.0
 40
90.0
  1
2400
 41
0.6666666666666666
  7
00
  0
LINE
  5
1BB46
  8
SUNPOU
 10
4840.123859381024
 20
5292.54679856853
 30
0.0
 11
4851.3738593810231
 21
5292.54679856853
 31
0.0
  0
LINE
  5
1BB47
  8
SUNPOU
 10
7217.6238593810249
 20
5292.54679856853
 30
0.0
 11
7206.3738593810267
 21
5292.54679856853
 31
0.0
  0
TEXT
  5
1BB48
  8
SUNPOU
 10
4625.1595736667387
 20
5337.54679856853
 30
0.0
 40
90.0
  1
236
 41
0.6666666666666666
  7
00
  0
LINE
  5
1BB49
  8
SUNPOU
 10
4604.1238593810249
 20
5292.54679856853
 30
0.0
 11
4615.3738593810249
 21
5292.54679856853
 31
0.0
  0
LINE
  5
1BB4A
  8
SUNPOU
 10
4817.623859381024
 20
5292.54679856853
 30
0.0
 11
4806.373859381024
 21
5292.54679856853
 31
0.0
  0
ARC
  5
1BB4B
  8
SUNPOU
 10
7764.8738593810194
 20
10536.75781342096
 30
0.0
 40
5.625
 50
270.0
 51
90.0
  0
ARC
  5
1BB4C
  8
SUNPOU
 10
7764.8738593810194
 20
10536.75781342096
 30
0.0
 40
5.625
 50
90.0
 51
270.0
  0
ARC
  5
1BB4D
  8
SUNPOU
 10
7764.8738593810194
 20
10256.75781342096
 30
0.0
 40
5.625
 50
90.0
 51
270.0
  0
ARC
  5
1BB4E
  8
SUNPOU
 10
7764.8738593810194
 20
10256.75781342096
 30
0.0
 40
5.625
 50
270.0
 51
90.0
  0
ARC
  5
1BB4F
  8
SUNPOU
 10
7764.8738593810194
 20
10256.75781342096
 30
0.0
 40
5.625
 50
270.0
 51
90.0
  0
ARC
  5
1BB50
  8
SUNPOU
 10
7764.8738593810194
 20
10256.75781342096
 30
0.0
 40
5.625
 50
90.0
 51
270.0
  0
ARC
  5
1BB51
  8
SUNPOU
 10
7764.8738593810194
 20
8821.7578134209562
 30
0.0
 40
5.625
 50
90.0
 51
270.0
  0
ARC
  5
1BB52
  8
SUNPOU
 10
7764.8738593810194
 20
8821.7578134209562
 30
0.0
 40
5.625
 50
270.0
 51
90.0
  0
ARC
  5
1BB53
  8
SUNPOU
 10
7764.8738593810194
 20
8821.7578134209562
 30
0.0
 40
5.625
 50
270.0
 51
90.0
  0
ARC
  5
1BB54
  8
SUNPOU
 10
7764.8738593810194
 20
8821.7578134209562
 30
0.0
 40
5.625
 50
90.0
 51
270.0
  0
ARC
  5
1BB55
  8
SUNPOU
 10
7764.8738593810194
 20
8132.7578134209571
 30
0.0
 40
5.625
 50
90.0
 51
270.0
  0
ARC
  5
1BB56
  8
SUNPOU
 10
7764.8738593810194
 20
8132.7578134209571
 30
0.0
 40
5.625
 50
270.0
 51
90.0
  0
ARC
  5
1BB57
  8
SUNPOU
 10
7974.873859381014
 20
10536.75781342096
 30
0.0
 40
5.625
 50
270.0
 51
90.0
  0
ARC
  5
1BB58
  8
SUNPOU
 10
7974.873859381014
 20
10536.75781342096
 30
0.0
 40
5.625
 50
90.0
 51
270.0
  0
ARC
  5
1BB59
  8
SUNPOU
 10
7974.8738593810131
 20
8132.7578134209571
 30
0.0
 40
5.625
 50
90.0
 51
270.0
  0
ARC
  5
1BB5A
  8
SUNPOU
 10
7974.8738593810131
 20
8132.7578134209571
 30
0.0
 40
5.625
 50
270.0
 51
90.0
  0
ARC
  5
1BB5B
  8
SUNPOU
 10
10307.219044526681
 20
2669.5467985685359
 30
0.0
 40
5.625
 50
270.0
 51
90.0
  0
ARC
  5
1BB5C
  8
SUNPOU
 10
10307.219044526681
 20
2669.5467985685359
 30
0.0
 40
5.625
 50
90.0
 51
270.0
  0
ARC
  5
1BB5D
  8
SUNPOU
 10
10307.219044526681
 20
2719.546798568535
 30
0.0
 40
5.625
 50
90.0
 51
270.0
  0
ARC
  5
1BB5E
  8
SUNPOU
 10
10307.219044526681
 20
2719.546798568535
 30
0.0
 40
5.625
 50
270.0
 51
90.0
  0
ARC
  5
1BB5F
  8
SUNPOU
 10
10802.08862012218
 20
5292.54679856853
 30
0.0
 40
5.625
 50
0.0
 51
180.0
  0
ARC
  5
1BB60
  8
SUNPOU
 10
10802.08862012218
 20
5292.54679856853
 30
0.0
 40
5.625
 50
180.0
 51
0.0
  0
ARC
  5
1BB61
  8
SUNPOU
 10
11491.08862012218
 20
5292.54679856853
 30
0.0
 40
5.625
 50
180.0
 51
0.0
  0
ARC
  5
1BB62
  8
SUNPOU
 10
11491.08862012218
 20
5292.54679856853
 30
0.0
 40
5.625
 50
0.0
 51
180.0
  0
ARC
  5
1BB63
  8
SUNPOU
 10
11491.08862012218
 20
5292.54679856853
 30
0.0
 40
5.625
 50
0.0
 51
180.0
  0
ARC
  5
1BB64
  8
SUNPOU
 10
11491.08862012218
 20
5292.54679856853
 30
0.0
 40
5.625
 50
180.0
 51
0.0
  0
ARC
  5
1BB65
  8
SUNPOU
 10
12926.08862012218
 20
5292.54679856853
 30
0.0
 40
5.625
 50
180.0
 51
0.0
  0
ARC
  5
1BB66
  8
SUNPOU
 10
12926.08862012218
 20
5292.54679856853
 30
0.0
 40
5.625
 50
0.0
 51
180.0
  0
ARC
  5
1BB67
  8
SUNPOU
 10
12926.08862012218
 20
5292.54679856853
 30
0.0
 40
5.625
 50
0.0
 51
180.0
  0
ARC
  5
1BB68
  8
SUNPOU
 10
12926.08862012218
 20
5292.54679856853
 30
0.0
 40
5.625
 50
180.0
 51
0.0
  0
ARC
  5
1BB69
  8
SUNPOU
 10
13206.08862012218
 20
5292.54679856853
 30
0.0
 40
5.625
 50
180.0
 51
0.0
  0
ARC
  5
1BB6A
  8
SUNPOU
 10
13206.08862012218
 20
5292.54679856853
 30
0.0
 40
5.625
 50
0.0
 51
180.0
  0
ARC
  5
1BB6B
  8
SUNPOU
 10
10307.21904452669
 20
4887.5467985685318
 30
0.0
 40
5.625
 50
270.0
 51
90.0
  0
ARC
  5
1BB6C
  8
SUNPOU
 10
10307.21904452669
 20
4887.5467985685318
 30
0.0
 40
5.625
 50
90.0
 51
270.0
  0
ARC
  5
1BB6D
  8
SUNPOU
 10
10307.219044526681
 20
2719.546798568535
 30
0.0
 40
5.625
 50
90.0
 51
270.0
  0
ARC
  5
1BB6E
  8
SUNPOU
 10
10307.219044526681
 20
2719.546798568535
 30
0.0
 40
5.625
 50
270.0
 51
90.0
  0
ARC
  5
1BB6F
  8
SUNPOU
 10
13511.913772729191
 20
4746.5467985685327
 30
0.0
 40
5.625
 50
270.0
 51
90.0
  0
ARC
  5
1BB70
  8
SUNPOU
 10
13511.913772729191
 20
4746.5467985685327
 30
0.0
 40
5.625
 50
90.0
 51
270.0
  0
ARC
  5
1BB71
  8
SUNPOU
 10
13511.91377272918
 20
2719.5467985685332
 30
0.0
 40
5.625
 50
90.0
 51
270.0
  0
ARC
  5
1BB72
  8
SUNPOU
 10
13511.91377272918
 20
2719.5467985685332
 30
0.0
 40
5.625
 50
270.0
 51
90.0
  0
ARC
  5
1BB73
  8
SUNPOU
 10
7464.8738593810194
 20
7201.7578134209571
 30
0.0
 40
5.625
 50
180.0
 51
0.0
  0
ARC
  5
1BB74
  8
SUNPOU
 10
7464.8738593810194
 20
7201.7578134209571
 30
0.0
 40
5.625
 50
0.0
 51
180.0
  0
ARC
  5
1BB75
  8
SUNPOU
 10
4592.8738593810158
 20
7201.7578134209571
 30
0.0
 40
5.625
 50
0.0
 51
180.0
  0
ARC
  5
1BB76
  8
SUNPOU
 10
4592.8738593810158
 20
7201.7578134209571
 30
0.0
 40
5.625
 50
180.0
 51
0.0
  0
ARC
  5
1BB77
  8
SUNPOU
 10
7464.8738593810194
 20
7411.7578134209562
 30
0.0
 40
5.625
 50
180.0
 51
0.0
  0
ARC
  5
1BB78
  8
SUNPOU
 10
7464.8738593810194
 20
7411.7578134209562
 30
0.0
 40
5.625
 50
0.0
 51
180.0
  0
ARC
  5
1BB79
  8
SUNPOU
 10
7228.8738593810176
 20
7411.7578134209562
 30
0.0
 40
5.625
 50
0.0
 51
180.0
  0
ARC
  5
1BB7A
  8
SUNPOU
 10
7228.8738593810176
 20
7411.7578134209562
 30
0.0
 40
5.625
 50
180.0
 51
0.0
  0
ARC
  5
1BB7B
  8
SUNPOU
 10
7228.8738593810176
 20
7411.7578134209562
 30
0.0
 40
5.625
 50
180.0
 51
0.0
  0
ARC
  5
1BB7C
  8
SUNPOU
 10
7228.8738593810176
 20
7411.7578134209562
 30
0.0
 40
5.625
 50
0.0
 51
180.0
  0
ARC
  5
1BB7D
  8
SUNPOU
 10
4828.8738593810194
 20
7411.7578134209562
 30
0.0
 40
5.625
 50
0.0
 51
180.0
  0
ARC
  5
1BB7E
  8
SUNPOU
 10
4828.8738593810194
 20
7411.7578134209562
 30
0.0
 40
5.625
 50
180.0
 51
0.0
  0
ARC
  5
1BB7F
  8
SUNPOU
 10
4592.8738593810158
 20
7411.7578134209562
 30
0.0
 40
5.625
 50
0.0
 51
180.0
  0
ARC
  5
1BB80
  8
SUNPOU
 10
4592.8738593810158
 20
7411.7578134209562
 30
0.0
 40
5.625
 50
180.0
 51
0.0
  0
ARC
  5
1BB81
  8
SUNPOU
 10
4828.8738593810194
 20
7411.7578134209562
 30
0.0
 40
5.625
 50
180.0
 51
0.0
  0
ARC
  5
1BB82
  8
SUNPOU
 10
4828.8738593810194
 20
7411.7578134209562
 30
0.0
 40
5.625
 50
0.0
 51
180.0
  0
ARC
  5
1BB83
  8
SUNPOU
 10
7464.8738593810258
 20
5292.54679856853
 30
0.0
 40
5.625
 50
180.0
 51
0.0
  0
ARC
  5
1BB84
  8
SUNPOU
 10
7464.8738593810258
 20
5292.54679856853
 30
0.0
 40
5.625
 50
0.0
 51
180.0
  0
ARC
  5
1BB85
  8
SUNPOU
 10
7228.8738593810258
 20
5292.54679856853
 30
0.0
 40
5.625
 50
0.0
 51
180.0
  0
ARC
  5
1BB86
  8
SUNPOU
 10
7228.8738593810258
 20
5292.54679856853
 30
0.0
 40
5.625
 50
180.0
 51
0.0
  0
ARC
  5
1BB87
  8
SUNPOU
 10
4828.873859381024
 20
5292.54679856853
 30
0.0
 40
5.625
 50
0.0
 51
180.0
  0
ARC
  5
1BB88
  8
SUNPOU
 10
4828.873859381024
 20
5292.54679856853
 30
0.0
 40
5.625
 50
180.0
 51
0.0
  0
ARC
  5
1BB89
  8
SUNPOU
 10
7228.8738593810258
 20
5292.54679856853
 30
0.0
 40
5.625
 50
180.0
 51
0.0
  0
ARC
  5
1BB8A
  8
SUNPOU
 10
7228.8738593810258
 20
5292.54679856853
 30
0.0
 40
5.625
 50
0.0
 51
180.0
  0
ARC
  5
1BB8B
  8
SUNPOU
 10
4592.873859381024
 20
5292.54679856853
 30
0.0
 40
5.625
 50
0.0
 51
180.0
  0
ARC
  5
1BB8C
  8
SUNPOU
 10
4592.873859381024
 20
5292.54679856853
 30
0.0
 40
5.625
 50
180.0
 51
0.0
  0
ARC
  5
1BB8D
  8
SUNPOU
 10
4828.873859381024
 20
5292.54679856853
 30
0.0
 40
5.625
 50
180.0
 51
0.0
  0
ARC
  5
1BB8E
  8
SUNPOU
 10
4828.873859381024
 20
5292.54679856853
 30
0.0
 40
5.625
 50
0.0
 51
180.0
  0
LINE
  5
1BB8F
  8
HIKIDASHI
 10
4920.1669178639668
 20
9409.2180016972652
 30
0.0
 11
5057.8460672583487
 21
9267.6929561227516
 31
0.0
1001
ACAD
1000
DSTYLE
1002
{
1070
    77
1070
     0
1002
}
  0
LINE
  5
1BB90
  8
HIKIDASHI
 10
4930.9186001952903
 20
9419.6775106267669
 30
0.0
 11
4857.4098642869503
 21
9473.7280956851919
 31
0.0
  0
LINE
  5
1BB91
  8
HIKIDASHI
 10
4857.4098642869503
 20
9473.7280956851919
 30
0.0
 11
4909.4152355326451
 21
9398.7584927677599
 31
0.0
  0
SOLID
  5
1BB92
  8
HIKIDASHI
 10
4930.9186001952903
 20
9419.6775106267669
 30
0.0
 11
4909.4152355326451
 21
9398.7584927677599
 31
0.0
 12
4857.4098642869503
 22
9473.7280956851919
 32
0.0
 13
4857.4098642869503
 23
9473.7280956851919
 33
0.0
  0
LINE
  5
1BB93
  8
HIKIDASHI
 10
4909.4152355326451
 20
9398.7584927677599
 30
0.0
 11
4930.9186001952903
 21
9419.6775106267669
 31
0.0
  0
LINE
  5
1BB94
  8
HIKIDASHI
 10
4720.0771146232382
 20
9275.5853493642335
 30
0.0
 11
4479.880818470122
 21
9125.3008998335445
 31
0.0
1001
ACAD
1000
DSTYLE
1002
{
1070
   147
1040
1.5
1070
    77
1070
     0
1002
}
  0
LINE
  5
1BB95
  8
HIKIDASHI
 10
4728.0332561003979
 20
9262.8692252379406
 30
0.0
 11
4796.3738593810176
 21
9323.322198227208
 31
0.0
  0
LINE
  5
1BB96
  8
HIKIDASHI
 10
4796.3738593810176
 20
9323.322198227208
 30
0.0
 11
4712.1209731460758
 21
9288.3014734905319
 31
0.0
  0
SOLID
  5
1BB97
  8
HIKIDASHI
 10
4728.0332561003979
 20
9262.8692252379406
 30
0.0
 11
4712.1209731460758
 21
9288.3014734905319
 31
0.0
 12
4796.3738593810176
 22
9323.322198227208
 32
0.0
 13
4796.3738593810176
 23
9323.322198227208
 33
0.0
  0
LINE
  5
1BB98
  8
HIKIDASHI
 10
4712.1209731460758
 20
9288.3014734905319
 30
0.0
 11
4728.0332561003979
 21
9262.8692252379406
 31
0.0
  0
LINE
  5
1BB99
  8
HIKIDASHI
 10
4906.373859381034
 20
8738.8155270803618
 30
0.0
 11
5036.2696622160329
 21
8513.8293968802882
 31
0.0
1001
ACAD
1000
DSTYLE
1002
{
1070
   147
1040
1.5
1070
    77
1070
     0
1002
}
  0
LINE
  5
1BB9A
  8
HIKIDASHI
 10
4919.3642404377988
 20
8746.3155270803654
 30
0.0
 11
4861.3738593810176
 21
8816.7578134209543
 31
0.0
  0
LINE
  5
1BB9B
  8
HIKIDASHI
 10
4861.3738593810176
 20
8816.7578134209543
 30
0.0
 11
4893.3834783242673
 21
8731.3155270803582
 31
0.0
  0
SOLID
  5
1BB9C
  8
HIKIDASHI
 10
4919.3642404377988
 20
8746.3155270803654
 30
0.0
 11
4893.3834783242673
 21
8731.3155270803582
 31
0.0
 12
4861.3738593810176
 22
8816.7578134209543
 32
0.0
 13
4861.3738593810176
 23
8816.7578134209543
 33
0.0
  0
LINE
  5
1BB9D
  8
HIKIDASHI
 10
4893.3834783242673
 20
8731.3155270803582
 30
0.0
 11
4919.3642404377988
 21
8746.3155270803654
 31
0.0
  0
LINE
  5
1BB9E
  8
HIKIDASHI
 10
4981.8216763882383
 20
10326.18943630869
 30
0.0
 11
4479.880818470122
 21
10702.98971230208
 31
0.0
1001
ACAD
1000
DSTYLE
1002
{
1070
   147
1040
1.5
1070
    77
1070
     0
1002
}
  0
LINE
  5
1BB9F
  8
HIKIDASHI
 10
4972.8164059069459
 20
10314.19339097872
 30
0.0
 11
5053.7979483680847
 21
10272.15781342095
 31
0.0
  0
LINE
  5
1BBA0
  8
HIKIDASHI
 10
5053.7979483680847
 20
10272.15781342095
 30
0.0
 11
4990.826946869528
 21
10338.18548163866
 31
0.0
  0
SOLID
  5
1BBA1
  8
HIKIDASHI
 10
4972.8164059069459
 20
10314.19339097872
 30
0.0
 11
4990.826946869528
 21
10338.18548163866
 31
0.0
 12
5053.7979483680847
 22
10272.15781342095
 32
0.0
 13
5053.7979483680847
 23
10272.15781342095
 33
0.0
  0
LINE
  5
1BBA2
  8
HIKIDASHI
 10
4990.826946869528
 20
10338.18548163866
 30
0.0
 11
4972.8164059069459
 21
10314.19339097872
 31
0.0
  0
LINE
  5
1BBA3
  8
HIKIDASHI
 10
4886.5144960803764
 20
10055.55329005434
 30
0.0
 11
4479.880818470122
 21
9815.8293735595616
 31
0.0
1001
ACAD
1000
DSTYLE
1002
{
1070
   147
1040
1.5
1070
    77
1070
     0
1002
}
  0
LINE
  5
1BBA4
  8
HIKIDASHI
 10
4894.1322510031714
 20
10042.63161021246
 30
0.0
 11
4964.0445751317038
 21
10101.25981959111
 31
0.0
  0
LINE
  5
1BBA5
  8
HIKIDASHI
 10
4964.0445751317038
 20
10101.25981959111
 30
0.0
 11
4878.8967411575813
 21
10068.474969896241
 31
0.0
  0
SOLID
  5
1BBA6
  8
HIKIDASHI
 10
4894.1322510031714
 20
10042.63161021246
 30
0.0
 11
4878.8967411575813
 21
10068.474969896241
 31
0.0
 12
4964.0445751317038
 22
10101.25981959111
 32
0.0
 13
4964.0445751317038
 23
10101.25981959111
 33
0.0
  0
LINE
  5
1BBA7
  8
HIKIDASHI
 10
4878.8967411575813
 20
10068.474969896241
 30
0.0
 11
4894.1322510031714
 21
10042.63161021246
 31
0.0
  0
LINE
  5
1BBA8
  8
HIKIDASHI
 10
5762.6015547456263
 20
8871.902060900813
 30
0.0
 11
5648.6163956743057
 21
8717.8076453950325
 31
0.0
1001
ACAD
1000
DSTYLE
1002
{
1070
   147
1040
1.5
1070
    77
1070
     0
1002
}
  0
LINE
  5
1BBA9
  8
HIKIDASHI
 10
5774.6608560273444
 20
8862.9816767949142
 30
0.0
 11
5816.1238593810176
 21
8944.2578685911176
 31
0.0
  0
LINE
  5
1BBAA
  8
HIKIDASHI
 10
5816.1238593810176
 20
8944.2578685911176
 30
0.0
 11
5750.5422534639074
 21
8880.8224450067119
 31
0.0
  0
SOLID
  5
1BBAB
  8
HIKIDASHI
 10
5774.6608560273444
 20
8862.9816767949142
 30
0.0
 11
5750.5422534639074
 21
8880.8224450067119
 31
0.0
 12
5816.1238593810176
 22
8944.2578685911176
 32
0.0
 13
5816.1238593810176
 23
8944.2578685911176
 33
0.0
  0
LINE
  5
1BBAC
  8
HIKIDASHI
 10
5750.5422534639074
 20
8880.8224450067119
 30
0.0
 11
5774.6608560273444
 21
8862.9816767949142
 31
0.0
  0
CIRCLE
  5
1BBAD
  8
HATCH
 10
10815.247802762011
 20
2694.5467985685341
 30
0.0
 40
3.75
  0
CIRCLE
  5
1BBAE
  8
HATCH
 10
10965.247802762011
 20
2694.5467985685341
 30
0.0
 40
3.75
  0
CIRCLE
  5
1BBAF
  8
HATCH
 10
11115.247802762011
 20
2694.5467985685341
 30
0.0
 40
3.75
  0
CIRCLE
  5
1BBB0
  8
HATCH
 10
11265.247802762011
 20
2694.5467985685341
 30
0.0
 40
3.75
  0
CIRCLE
  5
1BBB1
  8
HATCH
 10
11415.247802762011
 20
2694.5467985685341
 30
0.0
 40
3.75
  0
CIRCLE
  5
1BBB2
  8
HATCH
 10
11565.247802762011
 20
2694.5467985685341
 30
0.0
 40
3.75
  0
CIRCLE
  5
1BBB3
  8
HATCH
 10
11715.247802762011
 20
2694.5467985685341
 30
0.0
 40
3.75
  0
CIRCLE
  5
1BBB4
  8
HATCH
 10
11865.247802762011
 20
2694.5467985685341
 30
0.0
 40
3.75
  0
CIRCLE
  5
1BBB5
  8
HATCH
 10
12015.247802762011
 20
2694.5467985685341
 30
0.0
 40
3.75
  0
CIRCLE
  5
1BBB6
  8
HATCH
 10
12165.247802762011
 20
2694.5467985685341
 30
0.0
 40
3.75
  0
CIRCLE
  5
1BBB7
  8
HATCH
 10
12315.247802762011
 20
2694.5467985685341
 30
0.0
 40
3.75
  0
CIRCLE
  5
1BBB8
  8
HATCH
 10
12465.247802762011
 20
2694.5467985685341
 30
0.0
 40
3.75
  0
CIRCLE
  5
1BBB9
  8
HATCH
 10
12615.247802762011
 20
2694.5467985685341
 30
0.0
 40
3.75
  0
CIRCLE
  5
1BBBA
  8
HATCH
 10
12765.247802762011
 20
2694.5467985685341
 30
0.0
 40
3.75
  0
CIRCLE
  5
1BBBB
  8
HATCH
 10
12915.247802762011
 20
2694.5467985685341
 30
0.0
 40
3.75
  0
CIRCLE
  5
1BBBC
  8
HATCH
 10
13065.247802762011
 20
2694.5467985685341
 30
0.0
 40
3.75
  0
CIRCLE
  5
1BBBD
  8
HATCH
 10
4518.033042020852
 20
2694.5467985685318
 30
0.0
 40
3.75
  0
CIRCLE
  5
1BBBE
  8
HATCH
 10
7518.0330420208493
 20
2694.5467985685318
 30
0.0
 40
3.75
  0
CIRCLE
  5
1BBBF
  8
HATCH
 10
7368.0330420208511
 20
2694.5467985685318
 30
0.0
 40
3.75
  0
CIRCLE
  5
1BBC0
  8
HATCH
 10
7218.0330420208493
 20
2694.5467985685318
 30
0.0
 40
3.75
  0
CIRCLE
  5
1BBC1
  8
HATCH
 10
7068.0330420208493
 20
2694.5467985685318
 30
0.0
 40
3.75
  0
CIRCLE
  5
1BBC2
  8
HATCH
 10
6918.0330420208511
 20
2694.5467985685318
 30
0.0
 40
3.75
  0
CIRCLE
  5
1BBC3
  8
HATCH
 10
6768.0330420208493
 20
2694.5467985685318
 30
0.0
 40
3.75
  0
CIRCLE
  5
1BBC4
  8
HATCH
 10
6618.0330420208511
 20
2694.5467985685318
 30
0.0
 40
3.75
  0
CIRCLE
  5
1BBC5
  8
HATCH
 10
6468.0330420208493
 20
2694.5467985685318
 30
0.0
 40
3.75
  0
CIRCLE
  5
1BBC6
  8
HATCH
 10
6318.0330420208493
 20
2694.5467985685318
 30
0.0
 40
3.75
  0
CIRCLE
  5
1BBC7
  8
HATCH
 10
6168.033042020852
 20
2694.5467985685318
 30
0.0
 40
3.75
  0
CIRCLE
  5
1BBC8
  8
HATCH
 10
6018.0330420208493
 20
2694.5467985685318
 30
0.0
 40
3.75
  0
CIRCLE
  5
1BBC9
  8
HATCH
 10
5868.0330420208511
 20
2694.5467985685318
 30
0.0
 40
3.75
  0
CIRCLE
  5
1BBCA
  8
HATCH
 10
5718.0330420208493
 20
2694.5467985685318
 30
0.0
 40
3.75
  0
CIRCLE
  5
1BBCB
  8
HATCH
 10
5568.033042020852
 20
2694.5467985685318
 30
0.0
 40
3.75
  0
CIRCLE
  5
1BBCC
  8
HATCH
 10
5418.033042020852
 20
2694.5467985685318
 30
0.0
 40
3.75
  0
CIRCLE
  5
1BBCD
  8
HATCH
 10
5268.0330420208502
 20
2694.5467985685318
 30
0.0
 40
3.75
  0
CIRCLE
  5
1BBCE
  8
HATCH
 10
5118.033042020852
 20
2694.5467985685318
 30
0.0
 40
3.75
  0
CIRCLE
  5
1BBCF
  8
HATCH
 10
4968.033042020852
 20
2694.5467985685318
 30
0.0
 40
3.75
  0
CIRCLE
  5
1BBD0
  8
HATCH
 10
4818.033042020852
 20
2694.5467985685318
 30
0.0
 40
3.75
  0
CIRCLE
  5
1BBD1
  8
HATCH
 10
4668.033042020852
 20
2694.5467985685318
 30
0.0
 40
3.75
  0
ARC
  5
1BBD2
  8
HATCH
 10
10815.247802762011
 20
2694.5467985685341
 30
0.0
 40
1.875
 50
180.0
 51
0.0
  0
ARC
  5
1BBD3
  8
HATCH
 10
10815.247802762011
 20
2694.5467985685341
 30
0.0
 40
1.875
 50
0.0
 51
180.0
  0
ARC
  5
1BBD4
  8
HATCH
 10
10965.247802762011
 20
2694.5467985685341
 30
0.0
 40
1.875
 50
180.0
 51
0.0
  0
ARC
  5
1BBD5
  8
HATCH
 10
10965.247802762011
 20
2694.5467985685341
 30
0.0
 40
1.875
 50
0.0
 51
180.0
  0
ARC
  5
1BBD6
  8
HATCH
 10
11115.247802762011
 20
2694.5467985685341
 30
0.0
 40
1.875
 50
180.0
 51
0.0
  0
ARC
  5
1BBD7
  8
HATCH
 10
11115.247802762011
 20
2694.5467985685341
 30
0.0
 40
1.875
 50
0.0
 51
180.0
  0
ARC
  5
1BBD8
  8
HATCH
 10
11265.247802762011
 20
2694.5467985685341
 30
0.0
 40
1.875
 50
180.0
 51
0.0
  0
ARC
  5
1BBD9
  8
HATCH
 10
11265.247802762011
 20
2694.5467985685341
 30
0.0
 40
1.875
 50
0.0
 51
180.0
  0
ARC
  5
1BBDA
  8
HATCH
 10
11415.247802762011
 20
2694.5467985685341
 30
0.0
 40
1.875
 50
180.0
 51
0.0
  0
ARC
  5
1BBDB
  8
HATCH
 10
11415.247802762011
 20
2694.5467985685341
 30
0.0
 40
1.875
 50
0.0
 51
180.0
  0
ARC
  5
1BBDC
  8
HATCH
 10
11565.247802762011
 20
2694.5467985685341
 30
0.0
 40
1.875
 50
180.0
 51
0.0
  0
ARC
  5
1BBDD
  8
HATCH
 10
11565.247802762011
 20
2694.5467985685341
 30
0.0
 40
1.875
 50
0.0
 51
180.0
  0
ARC
  5
1BBDE
  8
HATCH
 10
11715.247802762011
 20
2694.5467985685341
 30
0.0
 40
1.875
 50
180.0
 51
0.0
  0
ARC
  5
1BBDF
  8
HATCH
 10
11715.247802762011
 20
2694.5467985685341
 30
0.0
 40
1.875
 50
0.0
 51
180.0
  0
ARC
  5
1BBE0
  8
HATCH
 10
11865.247802762011
 20
2694.5467985685341
 30
0.0
 40
1.875
 50
180.0
 51
0.0
  0
ARC
  5
1BBE1
  8
HATCH
 10
11865.247802762011
 20
2694.5467985685341
 30
0.0
 40
1.875
 50
0.0
 51
180.0
  0
ARC
  5
1BBE2
  8
HATCH
 10
12015.247802762011
 20
2694.5467985685341
 30
0.0
 40
1.875
 50
180.0
 51
0.0
  0
ARC
  5
1BBE3
  8
HATCH
 10
12015.247802762011
 20
2694.5467985685341
 30
0.0
 40
1.875
 50
0.0
 51
180.0
  0
ARC
  5
1BBE4
  8
HATCH
 10
12165.247802762011
 20
2694.5467985685341
 30
0.0
 40
1.875
 50
180.0
 51
0.0
  0
ARC
  5
1BBE5
  8
HATCH
 10
12165.247802762011
 20
2694.5467985685341
 30
0.0
 40
1.875
 50
0.0
 51
180.0
  0
ARC
  5
1BBE6
  8
HATCH
 10
12315.247802762011
 20
2694.5467985685341
 30
0.0
 40
1.875
 50
180.0
 51
0.0
  0
ARC
  5
1BBE7
  8
HATCH
 10
12315.247802762011
 20
2694.5467985685341
 30
0.0
 40
1.875
 50
0.0
 51
180.0
  0
ARC
  5
1BBE8
  8
HATCH
 10
12465.247802762011
 20
2694.5467985685341
 30
0.0
 40
1.875
 50
180.0
 51
0.0
  0
ARC
  5
1BBE9
  8
HATCH
 10
12465.247802762011
 20
2694.5467985685341
 30
0.0
 40
1.875
 50
0.0
 51
180.0
  0
ARC
  5
1BBEA
  8
HATCH
 10
12615.247802762011
 20
2694.5467985685341
 30
0.0
 40
1.875
 50
180.0
 51
0.0
  0
ARC
  5
1BBEB
  8
HATCH
 10
12615.247802762011
 20
2694.5467985685341
 30
0.0
 40
1.875
 50
0.0
 51
180.0
  0
ARC
  5
1BBEC
  8
HATCH
 10
12765.247802762011
 20
2694.5467985685341
 30
0.0
 40
1.875
 50
180.0
 51
0.0
  0
ARC
  5
1BBED
  8
HATCH
 10
12765.247802762011
 20
2694.5467985685341
 30
0.0
 40
1.875
 50
0.0
 51
180.0
  0
ARC
  5
1BBEE
  8
HATCH
 10
12915.247802762011
 20
2694.5467985685341
 30
0.0
 40
1.875
 50
180.0
 51
0.0
  0
ARC
  5
1BBEF
  8
HATCH
 10
12915.247802762011
 20
2694.5467985685341
 30
0.0
 40
1.875
 50
0.0
 51
180.0
  0
ARC
  5
1BBF0
  8
HATCH
 10
13065.247802762011
 20
2694.5467985685341
 30
0.0
 40
1.875
 50
180.0
 51
0.0
  0
ARC
  5
1BBF1
  8
HATCH
 10
13065.247802762011
 20
2694.5467985685341
 30
0.0
 40
1.875
 50
0.0
 51
180.0
  0
ARC
  5
1BBF2
  8
HATCH
 10
4518.033042020852
 20
2694.5467985685318
 30
0.0
 40
1.875
 50
180.0
 51
0.0
  0
ARC
  5
1BBF3
  8
HATCH
 10
4518.033042020852
 20
2694.5467985685318
 30
0.0
 40
1.875
 50
0.0
 51
180.0
  0
ARC
  5
1BBF4
  8
HATCH
 10
7518.0330420208493
 20
2694.5467985685318
 30
0.0
 40
1.875
 50
180.0
 51
0.0
  0
ARC
  5
1BBF5
  8
HATCH
 10
7518.0330420208493
 20
2694.5467985685318
 30
0.0
 40
1.875
 50
0.0
 51
180.0
  0
ARC
  5
1BBF6
  8
HATCH
 10
7368.0330420208511
 20
2694.5467985685318
 30
0.0
 40
1.875
 50
180.0
 51
0.0
  0
ARC
  5
1BBF7
  8
HATCH
 10
7368.0330420208511
 20
2694.5467985685318
 30
0.0
 40
1.875
 50
0.0
 51
180.0
  0
ARC
  5
1BBF8
  8
HATCH
 10
7218.0330420208493
 20
2694.5467985685318
 30
0.0
 40
1.875
 50
180.0
 51
0.0
  0
ARC
  5
1BBF9
  8
HATCH
 10
7218.0330420208493
 20
2694.5467985685318
 30
0.0
 40
1.875
 50
0.0
 51
180.0
  0
ARC
  5
1BBFA
  8
HATCH
 10
7068.0330420208493
 20
2694.5467985685318
 30
0.0
 40
1.875
 50
180.0
 51
0.0
  0
ARC
  5
1BBFB
  8
HATCH
 10
7068.0330420208493
 20
2694.5467985685318
 30
0.0
 40
1.875
 50
0.0
 51
180.0
  0
ARC
  5
1BBFC
  8
HATCH
 10
6918.0330420208511
 20
2694.5467985685318
 30
0.0
 40
1.875
 50
180.0
 51
0.0
  0
ARC
  5
1BBFD
  8
HATCH
 10
6918.0330420208511
 20
2694.5467985685318
 30
0.0
 40
1.875
 50
0.0
 51
180.0
  0
ARC
  5
1BBFE
  8
HATCH
 10
6768.0330420208493
 20
2694.5467985685318
 30
0.0
 40
1.875
 50
180.0
 51
0.0
  0
ARC
  5
1BBFF
  8
HATCH
 10
6768.0330420208493
 20
2694.5467985685318
 30
0.0
 40
1.875
 50
0.0
 51
180.0
  0
ARC
  5
1BC00
  8
HATCH
 10
6618.0330420208511
 20
2694.5467985685318
 30
0.0
 40
1.875
 50
180.0
 51
0.0
  0
ARC
  5
1BC01
  8
HATCH
 10
6618.0330420208511
 20
2694.5467985685318
 30
0.0
 40
1.875
 50
0.0
 51
180.0
  0
ARC
  5
1BC02
  8
HATCH
 10
6468.0330420208493
 20
2694.5467985685318
 30
0.0
 40
1.875
 50
180.0
 51
0.0
  0
ARC
  5
1BC03
  8
HATCH
 10
6468.0330420208493
 20
2694.5467985685318
 30
0.0
 40
1.875
 50
0.0
 51
180.0
  0
ARC
  5
1BC04
  8
HATCH
 10
6318.0330420208493
 20
2694.5467985685318
 30
0.0
 40
1.875
 50
180.0
 51
0.0
  0
ARC
  5
1BC05
  8
HATCH
 10
6318.0330420208493
 20
2694.5467985685318
 30
0.0
 40
1.875
 50
0.0
 51
180.0
  0
ARC
  5
1BC06
  8
HATCH
 10
6168.033042020852
 20
2694.5467985685318
 30
0.0
 40
1.875
 50
180.0
 51
0.0
  0
ARC
  5
1BC07
  8
HATCH
 10
6168.033042020852
 20
2694.5467985685318
 30
0.0
 40
1.875
 50
0.0
 51
180.0
  0
ARC
  5
1BC08
  8
HATCH
 10
6018.0330420208493
 20
2694.5467985685318
 30
0.0
 40
1.875
 50
180.0
 51
0.0
  0
ARC
  5
1BC09
  8
HATCH
 10
6018.0330420208493
 20
2694.5467985685318
 30
0.0
 40
1.875
 50
0.0
 51
180.0
  0
ARC
  5
1BC0A
  8
HATCH
 10
5868.0330420208511
 20
2694.5467985685318
 30
0.0
 40
1.875
 50
180.0
 51
0.0
  0
ARC
  5
1BC0B
  8
HATCH
 10
5868.0330420208511
 20
2694.5467985685318
 30
0.0
 40
1.875
 50
0.0
 51
180.0
  0
ARC
  5
1BC0C
  8
HATCH
 10
5718.0330420208493
 20
2694.5467985685318
 30
0.0
 40
1.875
 50
180.0
 51
0.0
  0
ARC
  5
1BC0D
  8
HATCH
 10
5718.0330420208493
 20
2694.5467985685318
 30
0.0
 40
1.875
 50
0.0
 51
180.0
  0
ARC
  5
1BC0E
  8
HATCH
 10
5568.033042020852
 20
2694.5467985685318
 30
0.0
 40
1.875
 50
180.0
 51
0.0
  0
ARC
  5
1BC0F
  8
HATCH
 10
5568.033042020852
 20
2694.5467985685318
 30
0.0
 40
1.875
 50
0.0
 51
180.0
  0
ARC
  5
1BC10
  8
HATCH
 10
5418.033042020852
 20
2694.5467985685318
 30
0.0
 40
1.875
 50
180.0
 51
0.0
  0
ARC
  5
1BC11
  8
HATCH
 10
5418.033042020852
 20
2694.5467985685318
 30
0.0
 40
1.875
 50
0.0
 51
180.0
  0
ARC
  5
1BC12
  8
HATCH
 10
5268.0330420208502
 20
2694.5467985685318
 30
0.0
 40
1.875
 50
180.0
 51
0.0
  0
ARC
  5
1BC13
  8
HATCH
 10
5268.0330420208502
 20
2694.5467985685318
 30
0.0
 40
1.875
 50
0.0
 51
180.0
  0
ARC
  5
1BC14
  8
HATCH
 10
5118.033042020852
 20
2694.5467985685318
 30
0.0
 40
1.875
 50
180.0
 51
0.0
  0
ARC
  5
1BC15
  8
HATCH
 10
5118.033042020852
 20
2694.5467985685318
 30
0.0
 40
1.875
 50
0.0
 51
180.0
  0
ARC
  5
1BC16
  8
HATCH
 10
4968.033042020852
 20
2694.5467985685318
 30
0.0
 40
1.875
 50
180.0
 51
0.0
  0
ARC
  5
1BC17
  8
HATCH
 10
4968.033042020852
 20
2694.5467985685318
 30
0.0
 40
1.875
 50
0.0
 51
180.0
  0
ARC
  5
1BC18
  8
HATCH
 10
4818.033042020852
 20
2694.5467985685318
 30
0.0
 40
1.875
 50
180.0
 51
0.0
  0
ARC
  5
1BC19
  8
HATCH
 10
4818.033042020852
 20
2694.5467985685318
 30
0.0
 40
1.875
 50
0.0
 51
180.0
  0
ARC
  5
1BC1A
  8
HATCH
 10
4668.033042020852
 20
2694.5467985685318
 30
0.0
 40
1.875
 50
180.0
 51
0.0
  0
ARC
  5
1BC1B
  8
HATCH
 10
4668.033042020852
 20
2694.5467985685318
 30
0.0
 40
1.875
 50
0.0
 51
180.0
  0
LINE
  5
1BC1C
  8
U3
 10
4999.6238593810176
 20
10146.25786859111
 30
0.0
 11
5058.1238593810176
 21
10146.25786859111
 31
0.0
  0
LINE
  5
1BC1D
  8
U3
 10
5058.1238593810176
 20
10121.257868591119
 30
0.0
 11
4999.6238593810176
 21
10121.257868591119
 31
0.0
  0
LINE
  5
1BC1E
  8
U3
 10
4999.6238593810176
 20
10121.257868591119
 30
0.0
 11
4999.6238593810176
 21
10146.25786859111
 31
0.0
  0
CIRCLE
  5
1BC1F
  8
U3
 10
5028.8738593810176
 20
10133.757868591119
 30
0.0
 40
8.0
  0
LINE
  5
1BC20
  8
U3
 10
5016.1238593810203
 20
10146.25786859111
 30
0.0
 11
5016.1238593810203
 21
10121.257868591119
 31
0.0
  0
LINE
  5
1BC21
  8
U3
 10
5041.6238593810194
 20
10146.25786859111
 30
0.0
 11
5041.6238593810194
 21
10121.257868591119
 31
0.0
  0
LINE
  5
1BC22
  8
U3
 10
5058.1238593810176
 20
10146.25786859111
 30
0.0
 11
5058.1238593810176
 21
10121.257868591119
 31
0.0
  0
LINE
  5
1BC23
  8
U3
 10
4999.6238593810176
 20
9557.7578685911158
 30
0.0
 11
5058.1238593810176
 21
9557.7578685911158
 31
0.0
  0
LINE
  5
1BC24
  8
U3
 10
5058.1238593810176
 20
9532.7578685911176
 30
0.0
 11
4999.6238593810176
 21
9532.7578685911176
 31
0.0
  0
LINE
  5
1BC25
  8
U3
 10
4999.6238593810176
 20
9532.7578685911176
 30
0.0
 11
4999.6238593810176
 21
9557.7578685911158
 31
0.0
  0
CIRCLE
  5
1BC26
  8
U3
 10
5028.8738593810176
 20
9545.2578685911158
 30
0.0
 40
8.0
  0
LINE
  5
1BC27
  8
U3
 10
5016.1238593810203
 20
9557.7578685911158
 30
0.0
 11
5016.1238593810203
 21
9532.7578685911176
 31
0.0
  0
LINE
  5
1BC28
  8
U3
 10
5041.6238593810194
 20
9557.7578685911158
 30
0.0
 11
5041.6238593810194
 21
9532.7578685911176
 31
0.0
  0
LINE
  5
1BC29
  8
U3
 10
5058.1238593810176
 20
9557.7578685911158
 30
0.0
 11
5058.1238593810176
 21
9532.7578685911176
 31
0.0
  0
LINE
  5
1BC2A
  8
U3
 10
4999.6238593810176
 20
8380.7578685911176
 30
0.0
 11
5058.1238593810176
 21
8380.7578685911176
 31
0.0
  0
LINE
  5
1BC2B
  8
U3
 10
5058.1238593810176
 20
8355.7578685911176
 30
0.0
 11
4999.6238593810176
 21
8355.7578685911176
 31
0.0
  0
LINE
  5
1BC2C
  8
U3
 10
4999.6238593810176
 20
8355.7578685911176
 30
0.0
 11
4999.6238593810176
 21
8380.7578685911176
 31
0.0
  0
CIRCLE
  5
1BC2D
  8
U3
 10
5028.8738593810176
 20
8368.2578685911176
 30
0.0
 40
8.0
  0
LINE
  5
1BC2E
  8
U3
 10
5016.1238593810203
 20
8380.7578685911176
 30
0.0
 11
5016.1238593810203
 21
8355.7578685911176
 31
0.0
  0
LINE
  5
1BC2F
  8
U3
 10
5041.6238593810194
 20
8380.7578685911176
 30
0.0
 11
5041.6238593810194
 21
8355.7578685911176
 31
0.0
  0
LINE
  5
1BC30
  8
U3
 10
5058.1238593810176
 20
8380.7578685911176
 30
0.0
 11
5058.1238593810176
 21
8355.7578685911176
 31
0.0
  0
LINE
  5
1BC31
  8
U3
 10
4999.6238593810176
 20
8969.2578685911176
 30
0.0
 11
5058.1238593810176
 21
8969.2578685911176
 31
0.0
  0
LINE
  5
1BC32
  8
U3
 10
5058.1238593810176
 20
8944.2578685911176
 30
0.0
 11
4999.6238593810176
 21
8944.2578685911176
 31
0.0
  0
LINE
  5
1BC33
  8
U3
 10
4999.6238593810176
 20
8944.2578685911176
 30
0.0
 11
4999.6238593810176
 21
8969.2578685911176
 31
0.0
  0
CIRCLE
  5
1BC34
  8
U3
 10
5028.8738593810176
 20
8956.7578685911158
 30
0.0
 40
8.0
  0
LINE
  5
1BC35
  8
U3
 10
5016.1238593810203
 20
8969.2578685911176
 30
0.0
 11
5016.1238593810203
 21
8944.2578685911176
 31
0.0
  0
LINE
  5
1BC36
  8
U3
 10
5041.6238593810194
 20
8969.2578685911176
 30
0.0
 11
5041.6238593810194
 21
8944.2578685911176
 31
0.0
  0
LINE
  5
1BC37
  8
U3
 10
5058.1238593810176
 20
8969.2578685911176
 30
0.0
 11
5058.1238593810176
 21
8944.2578685911176
 31
0.0
  0
LINE
  5
1BC38
  8
U3
 10
4599.6233163810184
 20
10146.25786859111
 30
0.0
 11
4658.1233163810184
 21
10146.25786859111
 31
0.0
  0
LINE
  5
1BC39
  8
U3
 10
4658.1233163810184
 20
10121.257868591119
 30
0.0
 11
4599.6233163810184
 21
10121.257868591119
 31
0.0
  0
LINE
  5
1BC3A
  8
U3
 10
4599.6233163810184
 20
10121.257868591119
 30
0.0
 11
4599.6233163810184
 21
10146.25786859111
 31
0.0
  0
CIRCLE
  5
1BC3B
  8
U3
 10
4628.8733163810184
 20
10133.757868591119
 30
0.0
 40
8.0
  0
LINE
  5
1BC3C
  8
U3
 10
4616.1233163810202
 20
10146.25786859111
 30
0.0
 11
4616.1233163810202
 21
10121.257868591119
 31
0.0
  0
LINE
  5
1BC3D
  8
U3
 10
4641.6233163810184
 20
10146.25786859111
 30
0.0
 11
4641.6233163810184
 21
10121.257868591119
 31
0.0
  0
LINE
  5
1BC3E
  8
U3
 10
4658.1233163810184
 20
10146.25786859111
 30
0.0
 11
4658.1233163810184
 21
10121.257868591119
 31
0.0
  0
LINE
  5
1BC3F
  8
U3
 10
4599.6233163810184
 20
9557.7578685911158
 30
0.0
 11
4658.1233163810184
 21
9557.7578685911158
 31
0.0
  0
LINE
  5
1BC40
  8
U3
 10
4658.1233163810184
 20
9532.7578685911176
 30
0.0
 11
4599.6233163810184
 21
9532.7578685911176
 31
0.0
  0
LINE
  5
1BC41
  8
U3
 10
4599.6233163810184
 20
9532.7578685911176
 30
0.0
 11
4599.6233163810184
 21
9557.7578685911158
 31
0.0
  0
CIRCLE
  5
1BC42
  8
U3
 10
4628.8733163810184
 20
9545.2578685911158
 30
0.0
 40
8.0
  0
LINE
  5
1BC43
  8
U3
 10
4616.1233163810202
 20
9557.7578685911158
 30
0.0
 11
4616.1233163810202
 21
9532.7578685911176
 31
0.0
  0
LINE
  5
1BC44
  8
U3
 10
4641.6233163810184
 20
9557.7578685911158
 30
0.0
 11
4641.6233163810184
 21
9532.7578685911176
 31
0.0
  0
LINE
  5
1BC45
  8
U3
 10
4658.1233163810184
 20
9557.7578685911158
 30
0.0
 11
4658.1233163810184
 21
9532.7578685911176
 31
0.0
  0
LINE
  5
1BC46
  8
U3
 10
5399.6238593810176
 20
9557.7578685911158
 30
0.0
 11
5458.1238593810176
 21
9557.7578685911158
 31
0.0
  0
LINE
  5
1BC47
  8
U3
 10
5458.1238593810176
 20
9532.7578685911176
 30
0.0
 11
5399.6238593810176
 21
9532.7578685911176
 31
0.0
  0
LINE
  5
1BC48
  8
U3
 10
5399.6238593810176
 20
9532.7578685911176
 30
0.0
 11
5399.6238593810176
 21
9557.7578685911158
 31
0.0
  0
CIRCLE
  5
1BC49
  8
U3
 10
5428.8738593810194
 20
9545.2578685911158
 30
0.0
 40
8.0
  0
LINE
  5
1BC4A
  8
U3
 10
5416.1238593810203
 20
9557.7578685911158
 30
0.0
 11
5416.1238593810203
 21
9532.7578685911176
 31
0.0
  0
LINE
  5
1BC4B
  8
U3
 10
5441.6238593810176
 20
9557.7578685911158
 30
0.0
 11
5441.6238593810176
 21
9532.7578685911176
 31
0.0
  0
LINE
  5
1BC4C
  8
U3
 10
5458.1238593810176
 20
9557.7578685911158
 30
0.0
 11
5458.1238593810176
 21
9532.7578685911176
 31
0.0
  0
LINE
  5
1BC4D
  8
U3
 10
4599.6233163810184
 20
8380.7578685911176
 30
0.0
 11
4658.1233163810184
 21
8380.7578685911176
 31
0.0
  0
LINE
  5
1BC4E
  8
U3
 10
4658.1233163810184
 20
8355.7578685911176
 30
0.0
 11
4599.6233163810184
 21
8355.7578685911176
 31
0.0
  0
LINE
  5
1BC4F
  8
U3
 10
4599.6233163810184
 20
8355.7578685911176
 30
0.0
 11
4599.6233163810184
 21
8380.7578685911176
 31
0.0
  0
CIRCLE
  5
1BC50
  8
U3
 10
4628.8733163810184
 20
8368.2578685911176
 30
0.0
 40
8.0
  0
LINE
  5
1BC51
  8
U3
 10
4616.1233163810202
 20
8380.7578685911176
 30
0.0
 11
4616.1233163810202
 21
8355.7578685911176
 31
0.0
  0
LINE
  5
1BC52
  8
U3
 10
4641.6233163810184
 20
8380.7578685911176
 30
0.0
 11
4641.6233163810184
 21
8355.7578685911176
 31
0.0
  0
LINE
  5
1BC53
  8
U3
 10
4658.1233163810184
 20
8380.7578685911176
 30
0.0
 11
4658.1233163810184
 21
8355.7578685911176
 31
0.0
  0
LINE
  5
1BC54
  8
U3
 10
5399.6238593810176
 20
8380.7578685911176
 30
0.0
 11
5458.1238593810176
 21
8380.7578685911176
 31
0.0
  0
LINE
  5
1BC55
  8
U3
 10
5458.1238593810176
 20
8355.7578685911176
 30
0.0
 11
5399.6238593810176
 21
8355.7578685911176
 31
0.0
  0
LINE
  5
1BC56
  8
U3
 10
5399.6238593810176
 20
8355.7578685911176
 30
0.0
 11
5399.6238593810176
 21
8380.7578685911176
 31
0.0
  0
CIRCLE
  5
1BC57
  8
U3
 10
5428.8738593810194
 20
8368.2578685911176
 30
0.0
 40
8.0
  0
LINE
  5
1BC58
  8
U3
 10
5416.1238593810203
 20
8380.7578685911176
 30
0.0
 11
5416.1238593810203
 21
8355.7578685911176
 31
0.0
  0
LINE
  5
1BC59
  8
U3
 10
5441.6238593810176
 20
8380.7578685911176
 30
0.0
 11
5441.6238593810176
 21
8355.7578685911176
 31
0.0
  0
LINE
  5
1BC5A
  8
U3
 10
5458.1238593810176
 20
8380.7578685911176
 30
0.0
 11
5458.1238593810176
 21
8355.7578685911176
 31
0.0
  0
LINE
  5
1BC5B
  8
U3
 10
5799.6238593810176
 20
8380.7578685911176
 30
0.0
 11
5858.1238593810176
 21
8380.7578685911176
 31
0.0
  0
LINE
  5
1BC5C
  8
U3
 10
5858.1238593810176
 20
8355.7578685911176
 30
0.0
 11
5799.6238593810176
 21
8355.7578685911176
 31
0.0
  0
LINE
  5
1BC5D
  8
U3
 10
5799.6238593810176
 20
8355.7578685911176
 30
0.0
 11
5799.6238593810176
 21
8380.7578685911176
 31
0.0
  0
CIRCLE
  5
1BC5E
  8
U3
 10
5828.8738593810194
 20
8368.2578685911176
 30
0.0
 40
8.0
  0
LINE
  5
1BC5F
  8
U3
 10
5816.1238593810176
 20
8380.7578685911176
 30
0.0
 11
5816.1238593810176
 21
8355.7578685911176
 31
0.0
  0
LINE
  5
1BC60
  8
U3
 10
5841.6238593810194
 20
8380.7578685911176
 30
0.0
 11
5841.6238593810194
 21
8355.7578685911176
 31
0.0
  0
LINE
  5
1BC61
  8
U3
 10
5858.1238593810176
 20
8380.7578685911176
 30
0.0
 11
5858.1238593810176
 21
8355.7578685911176
 31
0.0
  0
LINE
  5
1BC62
  8
U3
 10
4599.6233163810184
 20
8969.2578685911176
 30
0.0
 11
4658.1233163810184
 21
8969.2578685911176
 31
0.0
  0
LINE
  5
1BC63
  8
U3
 10
4658.1233163810184
 20
8944.2578685911176
 30
0.0
 11
4599.6233163810184
 21
8944.2578685911176
 31
0.0
  0
LINE
  5
1BC64
  8
U3
 10
4599.6233163810184
 20
8944.2578685911176
 30
0.0
 11
4599.6233163810184
 21
8969.2578685911176
 31
0.0
  0
CIRCLE
  5
1BC65
  8
U3
 10
4628.8733163810184
 20
8956.7578685911158
 30
0.0
 40
8.0
  0
LINE
  5
1BC66
  8
U3
 10
4616.1233163810202
 20
8969.2578685911176
 30
0.0
 11
4616.1233163810202
 21
8944.2578685911176
 31
0.0
  0
LINE
  5
1BC67
  8
U3
 10
4641.6233163810184
 20
8969.2578685911176
 30
0.0
 11
4641.6233163810184
 21
8944.2578685911176
 31
0.0
  0
LINE
  5
1BC68
  8
U3
 10
4658.1233163810184
 20
8969.2578685911176
 30
0.0
 11
4658.1233163810184
 21
8944.2578685911176
 31
0.0
  0
LINE
  5
1BC69
  8
HISHIRA
  6
KAKURE-05
 10
4796.3738593810176
 20
8784.2578134209543
 30
0.0
 11
4861.3738593810176
 21
8784.2578134209543
 31
0.0
  0
LINE
  5
1BC6A
  8
HISHIRA
  6
KAKURE-05
 10
4861.3738593810176
 20
8784.2578134209543
 30
0.0
 11
4861.3738593810176
 21
8849.257813420958
 31
0.0
  0
LINE
  5
1BC6B
  8
HISHIRA
  6
KAKURE-05
 10
4861.3738593810176
 20
8849.257813420958
 30
0.0
 11
4796.3738593810176
 21
8849.257813420958
 31
0.0
  0
LINE
  5
1BC6C
  8
HISHIRA
  6
KAKURE-05
 10
4796.3738593810176
 20
8849.257813420958
 30
0.0
 11
4796.3738593810176
 21
8784.2578134209543
 31
0.0
  0
LINE
  5
1BC6D
  8
HISHIRA
  6
KAKURE-05
 10
4796.3738593810176
 20
10219.257813420951
 30
0.0
 11
4861.3738593810176
 21
10219.257813420951
 31
0.0
  0
LINE
  5
1BC6E
  8
HISHIRA
  6
KAKURE-05
 10
4861.3738593810176
 20
10219.257813420951
 30
0.0
 11
4861.3738593810176
 21
10284.25781342096
 31
0.0
  0
LINE
  5
1BC6F
  8
HISHIRA
  6
KAKURE-05
 10
4861.3738593810176
 20
10284.25781342096
 30
0.0
 11
4796.3738593810176
 21
10284.25781342096
 31
0.0
  0
LINE
  5
1BC70
  8
HISHIRA
  6
KAKURE-05
 10
4796.3738593810176
 20
10284.25781342096
 30
0.0
 11
4796.3738593810176
 21
10219.257813420951
 31
0.0
  0
LINE
  5
1BC71
  8
U3
 10
5399.6238593810176
 20
8969.2578685911176
 30
0.0
 11
5458.1238593810176
 21
8969.2578685911176
 31
0.0
  0
LINE
  5
1BC72
  8
U3
 10
5458.1238593810176
 20
8944.2578685911176
 30
0.0
 11
5399.6238593810176
 21
8944.2578685911176
 31
0.0
  0
LINE
  5
1BC73
  8
U3
 10
5399.6238593810176
 20
8944.2578685911176
 30
0.0
 11
5399.6238593810176
 21
8969.2578685911176
 31
0.0
  0
CIRCLE
  5
1BC74
  8
U3
 10
5428.8738593810194
 20
8956.7578685911158
 30
0.0
 40
8.0
  0
LINE
  5
1BC75
  8
U3
 10
5416.1238593810203
 20
8969.2578685911176
 30
0.0
 11
5416.1238593810203
 21
8944.2578685911176
 31
0.0
  0
LINE
  5
1BC76
  8
U3
 10
5441.6238593810176
 20
8969.2578685911176
 30
0.0
 11
5441.6238593810176
 21
8944.2578685911176
 31
0.0
  0
LINE
  5
1BC77
  8
U3
 10
5458.1238593810176
 20
8969.2578685911176
 30
0.0
 11
5458.1238593810176
 21
8944.2578685911176
 31
0.0
  0
LINE
  5
1BC78
  8
U3
 10
5799.6238593810176
 20
8969.2578685911176
 30
0.0
 11
5858.1238593810176
 21
8969.2578685911176
 31
0.0
  0
LINE
  5
1BC79
  8
U3
 10
5858.1238593810176
 20
8944.2578685911176
 30
0.0
 11
5799.6238593810176
 21
8944.2578685911176
 31
0.0
  0
LINE
  5
1BC7A
  8
U3
 10
5799.6238593810176
 20
8944.2578685911176
 30
0.0
 11
5799.6238593810176
 21
8969.2578685911176
 31
0.0
  0
CIRCLE
  5
1BC7B
  8
U3
 10
5828.8738593810194
 20
8956.7578685911158
 30
0.0
 40
8.0
  0
LINE
  5
1BC7C
  8
U3
 10
5816.1238593810176
 20
8969.2578685911176
 30
0.0
 11
5816.1238593810176
 21
8944.2578685911176
 31
0.0
  0
LINE
  5
1BC7D
  8
U3
 10
5841.6238593810194
 20
8969.2578685911176
 30
0.0
 11
5841.6238593810194
 21
8944.2578685911176
 31
0.0
  0
LINE
  5
1BC7E
  8
U3
 10
5858.1238593810176
 20
8969.2578685911176
 30
0.0
 11
5858.1238593810176
 21
8944.2578685911176
 31
0.0
  0
LINE
  5
1BC7F
  8
TATEDOISIJIKANAGU
 10
13020.18841196669
 20
3049.796798568535
 30
0.0
 11
12972.98882827767
 21
3049.796798568535
 31
0.0
  0
LINE
  5
1BC80
  8
TATEDOISIJIKANAGU
 10
12972.98882827767
 20
3049.796798568535
 30
0.0
 11
12972.98882827767
 21
3037.2967985685332
 31
0.0
  0
LINE
  5
1BC81
  8
TATEDOISIJIKANAGU
 10
12972.98882827767
 20
3037.2967985685332
 30
0.0
 11
13020.18841196669
 21
3037.2967985685332
 31
0.0
  0
LINE
  5
1BC82
  8
TATEDOISIJIKANAGU
 10
13020.18841196669
 20
3037.2967985685332
 30
0.0
 11
13020.18841196669
 21
3049.796798568535
 31
0.0
  0
LINE
  5
1BC83
  8
TATEDOISIJIKANAGU
 10
13020.18841196669
 20
4047.7967985685332
 30
0.0
 11
12972.98882827767
 21
4047.7967985685332
 31
0.0
  0
LINE
  5
1BC84
  8
TATEDOISIJIKANAGU
 10
12972.98882827767
 20
4047.7967985685332
 30
0.0
 11
12972.98882827767
 21
4035.2967985685332
 31
0.0
  0
LINE
  5
1BC85
  8
TATEDOISIJIKANAGU
 10
12972.98882827767
 20
4035.2967985685332
 30
0.0
 11
13020.18841196669
 21
4035.2967985685332
 31
0.0
  0
LINE
  5
1BC86
  8
TATEDOISIJIKANAGU
 10
13020.18841196669
 20
4035.2967985685332
 30
0.0
 11
13020.18841196669
 21
4047.7967985685332
 31
0.0
  0
LINE
  5
1BC87
  8
TATEDOISIJIKANAGU
 10
13167.450152811831
 20
4413.221304384987
 30
0.0
 11
13211.913772729191
 21
4428.452407557259
 31
0.0
  0
LINE
  5
1BC88
  8
TATEDOISIJIKANAGU
 10
13211.913772729191
 20
4428.452407557259
 30
0.0
 11
13207.70091440493
 21
4440.7508556195107
 31
0.0
  0
LINE
  5
1BC89
  8
TATEDOISIJIKANAGU
 10
13207.70091440493
 20
4440.7508556195107
 30
0.0
 11
13163.237294487581
 21
4425.5197524472351
 31
0.0
  0
LINE
  5
1BC8A
  8
TATEDOISIJIKANAGU
 10
13163.237294487581
 20
4425.5197524472351
 30
0.0
 11
13167.450152811831
 21
4413.221304384987
 31
0.0
  0
ARC
  5
1BC8B
  8
U2
 10
10857.268620228569
 20
4843.3438309132562
 30
0.0
 40
44.000000000000561
 50
85.913999999999334
 51
265.91399999999919
  0
LINE
  5
1BC8C
  8
U2
 10
10860.40378397194
 20
4887.231992737401
 30
0.0
 11
10875.36565732109
 21
4886.1631869157991
 31
0.0
  0
ARC
  5
1BC8D
  8
U2
 10
10875.508164763971
 20
4888.1581033623543
 30
0.0
 40
2.0000000000005942
 50
265.91399999993638
 51
355.91399999993632
  0
LINE
  5
1BC8E
  8
U2
 10
10877.50308121052
 20
4888.015595919469
 30
0.0
 11
10877.78809609629
 21
4892.0054288125739
 31
0.0
  0
LINE
  5
1BC8F
  8
U2
 10
10877.78809609629
 20
4892.0054288125739
 30
0.0
 11
10860.83130630059
 21
4893.2167420770566
 31
0.0
  0
ARC
  5
1BC90
  8
U2
 10
10857.268620228569
 20
4843.3438309132562
 30
0.0
 40
50.000000000000021
 50
85.913999999999945
 51
265.91399999999982
  0
LINE
  5
1BC91
  8
U2
 10
10853.705934156569
 20
4793.4709197494549
 30
0.0
 11
10870.66272395227
 21
4792.2596064849731
 31
0.0
  0
LINE
  5
1BC92
  8
U2
 10
10870.66272395227
 20
4792.2596064849731
 30
0.0
 11
10870.947738838029
 21
4796.249439378078
 31
0.0
  0
ARC
  5
1BC93
  8
U2
 10
10868.952822391469
 20
4796.3919468209588
 30
0.0
 40
1.99999999999865
 50
355.91399999998458
 51
85.913999999984668
  0
LINE
  5
1BC94
  8
U2
 10
10869.095329834359
 20
4798.3868632675094
 30
0.0
 11
10854.13345648521
 21
4799.4556690891122
 31
0.0
  0
LINE
  5
1BC95
  8
U1
 10
13207.70091440485
 20
4440.7508556194689
 30
0.0
 11
13129.72438522105
 21
4422.8717925446726
 31
0.0
  0
LINE
  5
1BC96
  8
U1
 10
13112.806921748421
 20
4438.48587047617
 30
0.0
 11
13201.50522369499
 21
4458.8233047237491
 31
0.0
  0
LINE
  5
1BC97
  8
U1
 10
13210.705787710291
 20
4445.5436352323986
 30
0.0
 11
13128.830432067311
 21
4426.7706190038598
 31
0.0
  0
ARC
  5
1BC98
  8
U1
 10
13126.595549182961
 20
4436.5176851518363
 30
0.0
 40
13.99999999998272
 50
192.91399999997671
 51
282.91399999987499
  0
ARC
  5
1BC99
  8
U1
 10
13126.595549182961
 20
4436.5176851518363
 30
0.0
 40
9.9999999999876614
 50
198.12990857037221
 51
282.91400000007832
  0
CIRCLE
  5
1BC9A
  8
U1
 10
13133.561230313921
 20
4432.9850818084578
 30
0.0
 40
1.719999999997875
  0
LINE
  5
1BC9B
  8
U1
 10
13113.924363190599
 20
4433.6123374021827
 30
0.0
 11
13112.806921748421
 21
4438.48587047617
 31
0.0
  0
LINE
  5
1BC9C
  8
U1
 10
13112.9496565758
 20
4433.3888491137477
 30
0.0
 11
13115.918173185481
 21
4434.069493613556
 31
0.0
  0
ARC
  5
1BC9D
  8
U1
 10
13116.141661473919
 20
4433.0947869987604
 30
0.0
 40
0.9999999999987659
 50
18.129908570372269
 51
102.913999999875
  0
LINE
  5
1BC9E
  8
U1
 10
13203.901613501461
 20
4457.320868071025
 30
0.0
 11
13206.806961251101
 21
4444.6496820786606
 31
0.0
  0
CIRCLE
  5
1BC9F
  8
U1
 10
13190.094213972179
 20
4445.9474025376867
 30
0.0
 40
1.719999999997875
  0
ARC
  5
1BCA0
  8
U1
 10
13206.806961251101
 20
4444.6496820786606
 30
0.0
 40
3.9999999999950631
 50
282.91399999987499
 51
12.91399999997674
  0
ARC
  5
1BCA1
  8
U1
 10
13201.95220027186
 20
4456.8738914941569
 30
0.0
 40
1.99999999999753
 50
12.91399999997674
 51
102.913999999875
  0
LINE
  5
1BCA2
  8
U2
 10
7196.3738593810276
 20
4790.4641816830717
 30
0.0
 11
7196.3738593810258
 21
4717.748876394191
 31
0.0
  0
LINE
  5
1BCA3
  8
U2
 10
7196.3738593810258
 20
4717.748876394191
 30
0.0
 11
7261.3738593810249
 21
4717.748876394191
 31
0.0
  0
LINE
  5
1BCA4
  8
U2
 10
7261.3738593810249
 20
4717.748876394191
 30
0.0
 11
7261.3738593810249
 21
4790.4641816830717
 31
0.0
  0
LINE
  5
1BCA5
  8
U2
 10
4796.3738593810258
 20
4790.4641816830717
 30
0.0
 11
4796.373859381024
 21
4717.748876394191
 31
0.0
  0
LINE
  5
1BCA6
  8
U2
 10
4796.373859381024
 20
4717.748876394191
 30
0.0
 11
4861.373859381024
 21
4717.748876394191
 31
0.0
  0
LINE
  5
1BCA7
  8
U2
 10
4861.373859381024
 20
4717.748876394191
 30
0.0
 11
4861.373859381024
 21
4790.4641816830717
 31
0.0
  0
LINE
  5
1BCA8
  8
KERABA
 10
7458.8738593810131
 20
4892.54679856853
 30
0.0
 11
7464.8738593810158
 21
4892.54679856853
 31
0.0
  0
LINE
  5
1BCA9
  8
KERABA
 10
7464.8738593810158
 20
4892.54679856853
 30
0.0
 11
7464.8738593810158
 21
4430.6397988408671
 31
0.0
  0
LINE
  5
1BCAA
  8
KERABA
 10
7464.8738593810158
 20
4430.6397988408671
 30
0.0
 11
7458.8738593810131
 21
4430.6397988408671
 31
0.0
  0
LINE
  5
1BCAB
  8
KERABA
 10
7458.8738593810131
 20
4430.6397988408671
 30
0.0
 11
7458.8738593810131
 21
4892.54679856853
 31
0.0
  0
LINE
  5
1BCAC
  8
KERABA
 10
4598.8738593810258
 20
4892.54679856853
 30
0.0
 11
4592.873859381024
 21
4892.54679856853
 31
0.0
  0
LINE
  5
1BCAD
  8
KERABA
 10
4592.873859381024
 20
4892.54679856853
 30
0.0
 11
4592.873859381024
 21
4430.6397988408671
 31
0.0
  0
LINE
  5
1BCAE
  8
KERABA
 10
4592.873859381024
 20
4430.6397988408671
 30
0.0
 11
4598.8738593810258
 21
4430.6397988408671
 31
0.0
  0
LINE
  5
1BCAF
  8
KERABA
 10
4598.8738593810258
 20
4430.6397988408671
 30
0.0
 11
4598.8738593810258
 21
4892.54679856853
 31
0.0
  0
LINE
  5
1BCB0
  8
TATEDOISIJIKANAGU
 10
4941.3238593810238
 20
4428.6397988408671
 30
0.0
 11
4923.8238593810229
 21
4428.6397988408671
 31
0.0
  0
LINE
  5
1BCB1
  8
TATEDOISIJIKANAGU
 10
4923.8238593810229
 20
4428.6397988408671
 30
0.0
 11
4923.8238593810229
 21
4417.1397988408662
 31
0.0
  0
LINE
  5
1BCB2
  8
TATEDOISIJIKANAGU
 10
4924.3238593810238
 20
4430.6397988408671
 30
0.0
 11
4924.3238593810238
 21
4428.6397988408671
 31
0.0
  0
LINE
  5
1BCB3
  8
TATEDOISIJIKANAGU
 10
4924.3238593810238
 20
4428.6397988408671
 30
0.0
 11
4925.5238593810263
 21
4428.6397988408671
 31
0.0
  0
LINE
  5
1BCB4
  8
TATEDOISIJIKANAGU
 10
4968.1238593810222
 20
4428.6397988408671
 30
0.0
 11
4969.3238593810238
 21
4428.6397988408671
 31
0.0
  0
LINE
  5
1BCB5
  8
TATEDOISIJIKANAGU
 10
4969.3238593810238
 20
4428.6397988408671
 30
0.0
 11
4969.3238593810238
 21
4430.6397988408671
 31
0.0
  0
LINE
  5
1BCB6
  8
TATEDOISIJIKANAGU
 10
4969.3238593810238
 20
4430.6397988408671
 30
0.0
 11
4924.3238593810238
 21
4430.6397988408671
 31
0.0
  0
LINE
  5
1BCB7
  8
TATEDOISIJIKANAGU
 10
4927.8238593810238
 20
4428.6397988408671
 30
0.0
 11
4965.8238593810238
 21
4428.6397988408671
 31
0.0
  0
ENDSEC
  0
EOF
