  0
SECTION
  2
HEADER
  9
$ACADVER
  1
AC1015
  9
$ACADMAINTVER
 70
    13
  9
$DWGCODEPAGE
  3
ANSI_932
  9
$INSBASE
 10
267.0
 20
194.8999999999998
 30
0.0
  9
$EXTMIN
 10
434.0000000000008
 20
164.4761904761906
 30
0.0
  9
$EXTMAX
 10
16382.0
 20
11242.0
 30
0.0
  9
$LIMMIN
 10
0.0
 20
0.0
  9
$LIMMAX
 10
16800.0
 20
11880.0
  9
$ORTHOMODE
 70
     0
  9
$REGENMODE
 70
     1
  9
$FILLMODE
 70
     1
  9
$QTEXTMODE
 70
     0
  9
$MIRRTEXT
 70
     0
  9
$LTSCALE
 40
40.0
  9
$ATTMODE
 70
     1
  9
$TEXTSIZE
 40
0.2
  9
$TRACEWID
 40
0.05
  9
$TEXTSTYLE
  7
00
  9
$CLAYER
  8
SUNPOU
  9
$CELTYPE
  6
ByLayer
  9
$CECOLOR
 62
   256
  9
$CELTSCALE
 40
1.0
  9
$DISPSILH
 70
     0
  9
$DIMSCALE
 40
30.0
  9
$DIMASZ
 40
0.5
  9
$DIMEXO
 40
1.0
  9
$DIMDLI
 40
7.0
  9
$DIMRND
 40
0.0
  9
$DIMDLE
 40
3.0
  9
$DIMEXE
 40
1.5
  9
$DIMTP
 40
0.0
  9
$DIMTM
 40
0.0
  9
$DIMTXT
 40
3.0
  9
$DIMCEN
 40
0.0
  9
$DIMTSZ
 40
0.0
  9
$DIMTOL
 70
     0
  9
$DIMLIM
 70
     0
  9
$DIMTIH
 70
     0
  9
$DIMTOH
 70
     0
  9
$DIMSE1
 70
     0
  9
$DIMSE2
 70
     0
  9
$DIMTAD
 70
     1
  9
$DIMZIN
 70
     8
  9
$DIMBLK
  1
DOT
  9
$DIMASO
 70
     1
  9
$DIMSHO
 70
     0
  9
$DIMPOST
  1

  9
$DIMAPOST
  1

  9
$DIMALT
 70
     0
  9
$DIMALTD
 70
     2
  9
$DIMALTF
 40
25.4
  9
$DIMLFAC
 40
1.0
  9
$DIMTOFL
 70
     1
  9
$DIMTVP
 40
0.0
  9
$DIMTIX
 70
     0
  9
$DIMSOXD
 70
     0
  9
$DIMSAH
 70
     1
  9
$DIMBLK1
  1
DOT
  9
$DIMBLK2
  1
DOT
  9
$DIMSTYLE
  2
SUNPOU_図面名
  9
$DIMCLRD
 70
   256
  9
$DIMCLRE
 70
   256
  9
$DIMCLRT
 70
   256
  9
$DIMTFAC
 40
1.0
  9
$DIMGAP
 40
1.5
  9
$DIMJUST
 70
     0
  9
$DIMSD1
 70
     0
  9
$DIMSD2
 70
     0
  9
$DIMTOLJ
 70
     1
  9
$DIMTZIN
 70
     0
  9
$DIMALTZ
 70
     0
  9
$DIMALTTZ
 70
     0
  9
$DIMUPT
 70
     0
  9
$DIMDEC
 70
     2
  9
$DIMTDEC
 70
     2
  9
$DIMALTU
 70
     2
  9
$DIMALTTD
 70
     2
  9
$DIMTXSTY
  7
STANDARD
  9
$DIMAUNIT
 70
     0
  9
$DIMADEC
 70
     0
  9
$DIMALTRND
 40
0.0
  9
$DIMAZIN
 70
     0
  9
$DIMDSEP
 70
    46
  9
$DIMATFIT
 70
     3
  9
$DIMFRAC
 70
     0
  9
$DIMLDRBLK
  1

  9
$DIMLUNIT
 70
     2
  9
$DIMLWD
 70
    -2
  9
$DIMLWE
 70
    -2
  9
$DIMTMOVE
 70
     2
  9
$LUNITS
 70
     2
  9
$LUPREC
 70
     2
  9
$SKETCHINC
 40
0.1
  9
$FILLETRAD
 40
0.0
  9
$AUNITS
 70
     0
  9
$AUPREC
 70
     0
  9
$MENU
  1
A:\TIGER\MENU\TIGER
  9
$ELEVATION
 40
0.0
  9
$PELEVATION
 40
0.0
  9
$THICKNESS
 40
0.0
  9
$LIMCHECK
 70
     0
  9
$CHAMFERA
 40
0.0
  9
$CHAMFERB
 40
0.0
  9
$CHAMFERC
 40
1.0
  9
$CHAMFERD
 40
0.0
  9
$SKPOLY
 70
     0
  9
$TDCREATE
 40
2450266.571064815
  9
$TDUCREATE
 40
2450266.196064815
  9
$TDUPDATE
 40
2456331.620681053
  9
$TDUUPDATE
 40
2456331.245681052
  9
$TDINDWG
 40
0.1440983218
  9
$TDUSRTIMER
 40
0.1440981366
  9
$USRTIMER
 70
     1
  9
$ANGBASE
 50
0.0
  9
$ANGDIR
 70
     0
  9
$PDMODE
 70
     0
  9
$PDSIZE
 40
0.0
  9
$PLINEWID
 40
0.0
  9
$SPLFRAME
 70
     0
  9
$SPLINETYPE
 70
     6
  9
$SPLINESEGS
 70
     8
  9
$HANDSEED
  5
17332
  9
$SURFTAB1
 70
     6
  9
$SURFTAB2
 70
     6
  9
$SURFTYPE
 70
     6
  9
$SURFU
 70
     6
  9
$SURFV
 70
     6
  9
$UCSBASE
  2

  9
$UCSNAME
  2

  9
$UCSORG
 10
0.0
 20
0.0
 30
0.0
  9
$UCSXDIR
 10
1.0
 20
0.0
 30
0.0
  9
$UCSYDIR
 10
0.0
 20
1.0
 30
0.0
  9
$UCSORTHOREF
  2

  9
$UCSORTHOVIEW
 70
     0
  9
$UCSORGTOP
 10
0.0
 20
0.0
 30
0.0
  9
$UCSORGBOTTOM
 10
0.0
 20
0.0
 30
0.0
  9
$UCSORGLEFT
 10
0.0
 20
0.0
 30
0.0
  9
$UCSORGRIGHT
 10
0.0
 20
0.0
 30
0.0
  9
$UCSORGFRONT
 10
0.0
 20
0.0
 30
0.0
  9
$UCSORGBACK
 10
0.0
 20
0.0
 30
0.0
  9
$PUCSBASE
  2

  9
$PUCSNAME
  2

  9
$PUCSORG
 10
0.0
 20
0.0
 30
0.0
  9
$PUCSXDIR
 10
1.0
 20
0.0
 30
0.0
  9
$PUCSYDIR
 10
0.0
 20
1.0
 30
0.0
  9
$PUCSORTHOREF
  2

  9
$PUCSORTHOVIEW
 70
     0
  9
$PUCSORGTOP
 10
0.0
 20
0.0
 30
0.0
  9
$PUCSORGBOTTOM
 10
0.0
 20
0.0
 30
0.0
  9
$PUCSORGLEFT
 10
0.0
 20
0.0
 30
0.0
  9
$PUCSORGRIGHT
 10
0.0
 20
0.0
 30
0.0
  9
$PUCSORGFRONT
 10
0.0
 20
0.0
 30
0.0
  9
$PUCSORGBACK
 10
0.0
 20
0.0
 30
0.0
  9
$USERI1
 70
     3
  9
$USERI2
 70
     0
  9
$USERI3
 70
     0
  9
$USERI4
 70
     0
  9
$USERI5
 70
  1103
  9
$USERR1
 40
0.0
  9
$USERR2
 40
1.0
  9
$USERR3
 40
0.0
  9
$USERR4
 40
0.0
  9
$USERR5
 40
0.0
  9
$WORLDVIEW
 70
     1
  9
$SHADEDGE
 70
     3
  9
$SHADEDIF
 70
    70
  9
$TILEMODE
 70
     1
  9
$MAXACTVP
 70
    16
  9
$PINSBASE
 10
0.0
 20
0.0
 30
0.0
  9
$PLIMCHECK
 70
     0
  9
$PEXTMIN
 10
1.000000000000000E+20
 20
1.000000000000000E+20
 30
1.000000000000000E+20
  9
$PEXTMAX
 10
-1.000000000000000E+20
 20
-1.000000000000000E+20
 30
-1.000000000000000E+20
  9
$PLIMMIN
 10
0.0
 20
0.0
  9
$PLIMMAX
 10
12.0
 20
9.0
  9
$UNITMODE
 70
     0
  9
$VISRETAIN
 70
     0
  9
$PLINEGEN
 70
     1
  9
$PSLTSCALE
 70
     0
  9
$TREEDEPTH
 70
  3020
  9
$CMLSTYLE
  2
Standard
  9
$CMLJUST
 70
     0
  9
$CMLSCALE
 40
1.0
  9
$PROXYGRAPHICS
 70
     1
  9
$MEASUREMENT
 70
     0
  9
$CELWEIGHT
370
    -1
  9
$ENDCAPS
280
     0
  9
$JOINSTYLE
280
     0
  9
$LWDISPLAY
290
     0
  9
$INSUNITS
 70
     0
  9
$HYPERLINKBASE
  1

  9
$STYLESHEET
  1

  9
$XEDIT
290
     1
  9
$CEPSNTYPE
380
     0
  9
$PSTYLEMODE
290
     1
  9
$FINGERPRINTGUID
  2
{EFF0B21F-7715-4EA7-9003-35BEBC50DB74}
  9
$VERSIONGUID
  2
{B91A5CBD-FB83-4414-BAA2-AD55EC1F31A8}
  9
$EXTNAMES
290
     1
  9
$PSVPSCALE
 40
0.0
  9
$OLESTARTUP
290
     0
  0
ENDSEC
  0
SECTION
  2
CLASSES
  0
CLASS
  1
ACDBDICTIONARYWDFLT
  2
AcDbDictionaryWithDefault
  3
AutoCAD 2000
 90
        0
280
     0
281
     0
  0
CLASS
  1
ACDBPLACEHOLDER
  2
AcDbPlaceHolder
  3
AutoCAD 2000
 90
        0
280
     0
281
     0
  0
CLASS
  1
LAYOUT
  2
AcDbLayout
  3
AutoCAD 2000
 90
        0
280
     0
281
     0
  0
CLASS
  1
DICTIONARYVAR
  2
AcDbDictionaryVar
  3
AutoCAD 2000
 90
        0
280
     0
281
     0
  0
ENDSEC
  0
SECTION
  2
TABLES
  0
TABLE
  2
VPORT
  5
17291
330
0
100
AcDbSymbolTable
 70
     2
  0
VPORT
  5
17331
330
17291
100
AcDbSymbolTableRecord
100
AcDbViewportTableRecord
  2
*Active
 70
     0
 10
0.0
 20
0.0
 11
1.0
 21
1.0
 12
8399.999999999996
 22
7774.243416863818
 13
0.0
 23
0.0
 14
1.0
 24
1.0
 15
0.0
 25
0.0
 16
0.0
 26
0.0
 36
1.0
 17
0.0
 27
0.0
 37
0.0
 40
15652.67308365606
 41
1.236040609137055
 42
50.0
 43
0.0
 44
0.0
 50
0.0
 51
0.0
 71
     0
 72
 10000
 73
     1
 74
     0
 75
     0
 76
     0
 77
     0
 78
     0
281
     0
 65
     0
110
0.0
120
0.0
130
0.0
111
1.0
121
0.0
131
0.0
112
0.0
122
1.0
132
0.0
 79
     0
146
0.0
  0
ENDTAB
  0
TABLE
  2
LTYPE
  5
1728E
330
0
100
AcDbSymbolTable
 70
     5
  0
LTYPE
  5
1729C
330
1728E
100
AcDbSymbolTableRecord
100
AcDbLinetypeTableRecord
  2
ByBlock
 70
     0
  3

 72
    65
 73
     0
 40
0.0
  0
LTYPE
  5
1729D
330
1728E
100
AcDbSymbolTableRecord
100
AcDbLinetypeTableRecord
  2
ByLayer
 70
     0
  3

 72
    65
 73
     0
 40
0.0
  0
LTYPE
  5
1729E
330
1728E
100
AcDbSymbolTableRecord
100
AcDbLinetypeTableRecord
  2
CONTINUOUS
 70
     0
  3
実線
 72
    65
 73
     0
 40
0.0
  0
LTYPE
  5
172AA
330
1728E
100
AcDbSymbolTableRecord
100
AcDbLinetypeTableRecord
  2
1PL-LL
 70
     0
  3

 72
    65
 73
     4
 40
106.0
 49
100.0
 74
     0
 49
-2.0
 74
     0
 49
2.0
 74
     0
 49
-2.0
 74
     0
  0
LTYPE
  5
172AB
330
1728E
100
AcDbSymbolTableRecord
100
AcDbLinetypeTableRecord
  2
1PL-M
 70
     0
  3

 72
    65
 73
     4
 40
15.0
 49
12.0
 74
     0
 49
-1.0
 74
     0
 49
1.0
 74
     0
 49
-1.0
 74
     0
  0
LTYPE
  5
172AC
330
1728E
100
AcDbSymbolTableRecord
100
AcDbLinetypeTableRecord
  2
2PL-L
 70
     0
  3

 72
    65
 73
     6
 40
60.0
 49
50.0
 74
     0
 49
-2.0
 74
     0
 49
2.0
 74
     0
 49
-2.0
 74
     0
 49
2.0
 74
     0
 49
-2.0
 74
     0
  0
LTYPE
  5
172AD
330
1728E
100
AcDbSymbolTableRecord
100
AcDbLinetypeTableRecord
  2
1PL-12
 70
     0
  3

 72
    65
 73
     4
 40
15.0
 49
12.0
 74
     0
 49
-1.0
 74
     0
 49
1.0
 74
     0
 49
-1.0
 74
     0
  0
ENDTAB
  0
TABLE
  2
LAYER
  5
1728B
330
0
100
AcDbSymbolTable
 70
    19
  0
LAYER
  5
17299
330
1728B
100
AcDbSymbolTableRecord
100
AcDbLayerTableRecord
  2
0
 70
     0
 62
     7
  6
CONTINUOUS
370
    -3
390
17298
  0
LAYER
  5
172AF
330
1728B
100
AcDbSymbolTableRecord
100
AcDbLayerTableRecord
  2
U1
 70
     0
 62
     3
  6
CONTINUOUS
370
    -3
390
17298
  0
LAYER
  5
172B0
330
1728B
100
AcDbSymbolTableRecord
100
AcDbLayerTableRecord
  2
U3
 70
     0
 62
     6
  6
CONTINUOUS
370
    -3
390
17298
  0
LAYER
  5
172B1
330
1728B
100
AcDbSymbolTableRecord
100
AcDbLayerTableRecord
  2
SUNPOU
 70
     0
 62
     4
  6
CONTINUOUS
370
    -3
390
17298
  0
LAYER
  5
172B2
330
1728B
100
AcDbSymbolTableRecord
100
AcDbLayerTableRecord
  2
HIKIDASHI
 70
     0
 62
     6
  6
CONTINUOUS
370
    -3
390
17298
  0
LAYER
  5
172B3
330
1728B
100
AcDbSymbolTableRecord
100
AcDbLayerTableRecord
  2
1PL-M1
 70
     0
 62
     6
  6
1PL-M
370
    -3
390
17298
  0
LAYER
  5
172B4
330
1728B
100
AcDbSymbolTableRecord
100
AcDbLayerTableRecord
  2
NAME
 70
     0
 62
    20
  6
CONTINUOUS
370
    -3
390
17298
  0
LAYER
  5
172B5
330
1728B
100
AcDbSymbolTableRecord
100
AcDbLayerTableRecord
  2
FILENAME
 70
     0
 62
     7
  6
CONTINUOUS
370
    -3
390
17298
  0
LAYER
  5
172B6
330
1728B
100
AcDbSymbolTableRecord
100
AcDbLayerTableRecord
  2
CENTER
 70
     0
 62
     6
  6
1PL-LL
370
    -3
390
17298
  0
LAYER
  5
172B7
330
1728B
100
AcDbSymbolTableRecord
100
AcDbLayerTableRecord
  2
KISO
 70
     0
 62
     2
  6
CONTINUOUS
370
    -3
390
17298
  0
LAYER
  5
172B8
330
1728B
100
AcDbSymbolTableRecord
100
AcDbLayerTableRecord
  2
YANE
 70
     0
 62
     1
  6
1PL-12
370
    -3
390
17298
  0
LAYER
  5
172B9
330
1728B
100
AcDbSymbolTableRecord
100
AcDbLayerTableRecord
  2
HATCH
 70
     0
 62
     1
  6
CONTINUOUS
370
    -3
390
17298
  0
LAYER
  5
172BA
330
1728B
100
AcDbSymbolTableRecord
100
AcDbLayerTableRecord
  2
HASHIRA
 70
     0
 62
     3
  6
CONTINUOUS
370
    -3
390
17298
  0
LAYER
  5
172BB
330
1728B
100
AcDbSymbolTableRecord
100
AcDbLayerTableRecord
  2
TEKKIN
 70
     0
 62
     2
  6
CONTINUOUS
370
    -3
390
17298
  0
LAYER
  5
172BC
330
1728B
100
AcDbSymbolTableRecord
100
AcDbLayerTableRecord
  2
DOMAKON
 70
     0
 62
     2
  6
CONTINUOUS
370
    -3
390
17298
  0
LAYER
  5
172BD
330
1728B
100
AcDbSymbolTableRecord
100
AcDbLayerTableRecord
  2
YODOROGO
 70
     0
 62
   130
  6
CONTINUOUS
370
    -3
390
17298
  0
LAYER
  5
172BE
330
1728B
100
AcDbSymbolTableRecord
100
AcDbLayerTableRecord
  2
WAKUSEN-01
 70
     0
 62
    50
  6
CONTINUOUS
370
    -3
390
17298
  0
LAYER
  5
172BF
330
1728B
100
AcDbSymbolTableRecord
100
AcDbLayerTableRecord
  2
WAKUSEN-02
 70
     0
 62
   130
  6
CONTINUOUS
370
    -3
390
17298
  0
LAYER
  5
172C0
330
1728B
100
AcDbSymbolTableRecord
100
AcDbLayerTableRecord
  2
WAKUMOJI-01
 70
     0
 62
   130
  6
CONTINUOUS
370
    -3
390
17298
  0
ENDTAB
  0
TABLE
  2
STYLE
  5
1728C
330
0
100
AcDbSymbolTable
 70
     5
  0
STYLE
  5
1729A
330
1728C
100
AcDbSymbolTableRecord
100
AcDbTextStyleTableRecord
  2
STANDARD
 70
     0
 40
3.0
 41
1.0
 50
0.0
 71
     0
 42
0.2
  3
ROMANS
  4
EXTFONT
  0
STYLE
  5
172C2
330
1728C
100
AcDbSymbolTableRecord
100
AcDbTextStyleTableRecord
  2
01
 70
     0
 40
3.0
 41
1.0
 50
0.0
 71
     0
 42
0.2
  3
ROMANS
  4
BIGFONT
  0
STYLE
  5
172C3
330
1728C
100
AcDbSymbolTableRecord
100
AcDbTextStyleTableRecord
  2
00
 70
     0
 40
0.0
 41
0.6666666666666666
 50
0.0
 71
     0
 42
0.2
  3
ROMANS
  4
BIGFONT
  0
STYLE
  5
172C4
330
1728C
100
AcDbSymbolTableRecord
100
AcDbTextStyleTableRecord
  2
WAKUMOJI
 70
     0
 40
3.0
 41
1.0
 50
0.0
 71
     0
 42
3.0
  3
SIMPLEX
  4
BIGFONT
  0
STYLE
  5
172C5
330
1728C
100
AcDbSymbolTableRecord
100
AcDbTextStyleTableRecord
  2
FILENAME
 70
     0
 40
100.0
 41
1.0
 50
0.0
 71
     0
 42
100.0
  3
romans
  4
bigfont
  0
ENDTAB
  0
TABLE
  2
VIEW
  5
1728F
330
0
100
AcDbSymbolTable
 70
     0
  0
ENDTAB
  0
TABLE
  2
UCS
  5
17290
330
0
100
AcDbSymbolTable
 70
     0
  0
ENDTAB
  0
TABLE
  2
APPID
  5
17292
330
0
100
AcDbSymbolTable
 70
     3
  0
APPID
  5
1729B
330
17292
100
AcDbSymbolTableRecord
100
AcDbRegAppTableRecord
  2
ACAD
 70
     0
  0
APPID
  5
172C7
330
17292
100
AcDbSymbolTableRecord
100
AcDbRegAppTableRecord
  2
AUTOCAD_POSTSCRIPT_FIGURE
 70
     0
  0
APPID
  5
172C8
330
17292
100
AcDbSymbolTableRecord
100
AcDbRegAppTableRecord
  2
ACAD_PSEXT
 70
     0
  0
ENDTAB
  0
TABLE
  2
DIMSTYLE
  5
17293
330
0
100
AcDbSymbolTable
 70
     1
100
AcDbDimStyleTable
 71
     0
  0
DIMSTYLE
105
D00
330
17293
100
AcDbSymbolTableRecord
100
AcDbDimStyleTableRecord
  2
SUNPOU_図面名
 70
     0
 40
30.0
 41
0.5
 42
1.0
 43
7.0
 44
1.5
 46
3.0
 73
     0
 74
     0
 77
     1
 78
     8
140
3.0
141
0.0
147
1.5
172
     1
173
     1
176
   256
177
   256
178
   256
340
172C3
341
172CC
342
172CC
343
172CC
344
172CC
  0
ENDTAB
  0
TABLE
  2
BLOCK_RECORD
  5
1728A
330
0
100
AcDbSymbolTable
 70
    16
  0
BLOCK_RECORD
  5
172A5
330
1728A
100
AcDbSymbolTableRecord
100
AcDbBlockTableRecord
  2
*Model_Space
340
172A6
  0
BLOCK_RECORD
  5
172A3
330
1728A
100
AcDbSymbolTableRecord
100
AcDbBlockTableRecord
  2
*Paper_Space
340
172A4
  0
BLOCK_RECORD
  5
172CC
330
1728A
100
AcDbSymbolTableRecord
100
AcDbBlockTableRecord
  2
DOT
340
0
  0
BLOCK_RECORD
  5
172CE
330
1728A
100
AcDbSymbolTableRecord
100
AcDbBlockTableRecord
  2
*U1
340
0
  0
BLOCK_RECORD
  5
172D0
330
1728A
100
AcDbSymbolTableRecord
100
AcDbBlockTableRecord
  2
*U2
340
0
  0
BLOCK_RECORD
  5
172D2
330
1728A
100
AcDbSymbolTableRecord
100
AcDbBlockTableRecord
  2
*U3
340
0
  0
BLOCK_RECORD
  5
172D4
330
1728A
100
AcDbSymbolTableRecord
100
AcDbBlockTableRecord
  2
*U4
340
0
  0
BLOCK_RECORD
  5
172D6
330
1728A
100
AcDbSymbolTableRecord
100
AcDbBlockTableRecord
  2
*U5
340
0
  0
BLOCK_RECORD
  5
172D8
330
1728A
100
AcDbSymbolTableRecord
100
AcDbBlockTableRecord
  2
*U6
340
0
  0
BLOCK_RECORD
  5
172DA
330
1728A
100
AcDbSymbolTableRecord
100
AcDbBlockTableRecord
  2
*U7
340
0
  0
BLOCK_RECORD
  5
172DC
330
1728A
100
AcDbSymbolTableRecord
100
AcDbBlockTableRecord
  2
*U8
340
0
  0
BLOCK_RECORD
  5
172DE
330
1728A
100
AcDbSymbolTableRecord
100
AcDbBlockTableRecord
  2
*U9
340
0
  0
BLOCK_RECORD
  5
172E0
330
1728A
100
AcDbSymbolTableRecord
100
AcDbBlockTableRecord
  2
*U10
340
0
  0
BLOCK_RECORD
  5
172E2
330
1728A
100
AcDbSymbolTableRecord
100
AcDbBlockTableRecord
  2
*U11
340
0
  0
BLOCK_RECORD
  5
172E4
330
1728A
100
AcDbSymbolTableRecord
100
AcDbBlockTableRecord
  2
*U12
340
0
  0
BLOCK_RECORD
  5
172E6
330
1728A
100
AcDbSymbolTableRecord
100
AcDbBlockTableRecord
  2
*U13
340
0
  0
BLOCK_RECORD
  5
172E8
330
1728A
100
AcDbSymbolTableRecord
100
AcDbBlockTableRecord
  2
*U14
340
0
  0
ENDTAB
  0
ENDSEC
  0
SECTION
  2
BLOCKS
  0
BLOCK
  5
172C9
330
172A5
100
AcDbEntity
  8
0
100
AcDbBlockBegin
  2
*Model_Space
 70
     0
 10
0.0
 20
0.0
 30
0.0
  3
*Model_Space
  1

  0
ENDBLK
  5
125F7
330
172A5
100
AcDbEntity
  8
0
100
AcDbBlockEnd
  0
BLOCK
  5
172CA
330
172A3
100
AcDbEntity
 67
     1
  8
0
100
AcDbBlockBegin
  2
*Paper_Space
 70
     0
 10
0.0
 20
0.0
 30
0.0
  3
*Paper_Space
  1

  0
ENDBLK
  5
125F5
330
172A3
100
AcDbEntity
 67
     1
  8
0
100
AcDbBlockEnd
  0
BLOCK
  5
172CB
330
172CC
100
AcDbEntity
  8
0
100
AcDbBlockBegin
  2
DOT
 70
     0
 10
0.0
 20
0.0
 30
0.0
  3
DOT
  1

  0
LWPOLYLINE
  5
12987
330
172CC
100
AcDbEntity
  8
0
  6
ByBlock
 62
     0
100
AcDbPolyline
 90
        2
 70
     1
 43
0.75
 10
-0.375
 20
0.0
 42
1.0
 10
0.375
 20
0.0
 42
1.0
  0
LINE
  5
12988
330
172CC
100
AcDbEntity
  8
0
  6
ByBlock
 62
     0
100
AcDbLine
 10
-0.75
 20
0.0
 30
0.0
 11
-1.5
 21
0.0
 31
0.0
  0
ENDBLK
  5
12989
330
172CC
100
AcDbEntity
  8
0
100
AcDbBlockEnd
  0
BLOCK
  5
172CD
330
172CE
100
AcDbEntity
  8
0
100
AcDbBlockBegin
  2
*U1
 70
     1
 10
0.0
 20
0.0
 30
0.0
  3
*U1
  1

  0
TEXT
  5
17253
330
172CE
100
AcDbEntity
  8
SUNPOU
100
AcDbText
 10
9733.413222185355
 20
8053.243182432325
 30
0.0
 40
90.0
  1
800
 41
0.6666666666666666
  7
00
100
AcDbText
  0
ENDBLK
  5
17255
330
172CE
100
AcDbEntity
  8
0
100
AcDbBlockEnd
  0
BLOCK
  5
172CF
330
172D0
100
AcDbEntity
  8
0
100
AcDbBlockBegin
  2
*U2
 70
     1
 10
0.0
 20
0.0
 30
0.0
  3
*U2
  1

  0
TEXT
  5
17257
330
172D0
100
AcDbEntity
  8
SUNPOU
100
AcDbText
 10
9074.127507899641
 20
8622.528896718041
 30
0.0
 40
90.0
  1
800
 50
90.0
 41
0.6666666666666666
  7
00
100
AcDbText
  0
ENDBLK
  5
17259
330
172D0
100
AcDbEntity
  8
0
100
AcDbBlockEnd
  0
BLOCK
  5
172D1
330
172D2
100
AcDbEntity
  8
0
100
AcDbBlockBegin
  2
*U3
 70
     1
 10
0.0
 20
0.0
 30
0.0
  3
*U3
  1

  0
TEXT
  5
1725B
330
172D2
100
AcDbEntity
  8
SUNPOU
100
AcDbText
 10
9933.413222185357
 20
9453.243182432325
 30
0.0
 40
90.0
  1
400
 41
0.6666666666666666
  7
00
100
AcDbText
  0
ENDBLK
  5
1725D
330
172D2
100
AcDbEntity
  8
0
100
AcDbBlockEnd
  0
BLOCK
  5
172D3
330
172D4
100
AcDbEntity
  8
0
100
AcDbBlockBegin
  2
*U4
 70
     1
 10
0.0
 20
0.0
 30
0.0
  3
*U4
  1

  0
TEXT
  5
1725F
330
172D4
100
AcDbEntity
  8
SUNPOU
100
AcDbText
 10
6733.413222185355
 20
9453.243182432325
 30
0.0
 40
90.0
  1
400
 41
0.6666666666666666
  7
00
100
AcDbText
  0
ENDBLK
  5
17261
330
172D4
100
AcDbEntity
  8
0
100
AcDbBlockEnd
  0
BLOCK
  5
172D5
330
172D6
100
AcDbEntity
  8
0
100
AcDbBlockBegin
  2
*U5
 70
     1
 10
0.0
 20
0.0
 30
0.0
  3
*U5
  1

  0
TEXT
  5
17263
330
172D6
100
AcDbEntity
  8
SUNPOU
100
AcDbText
 10
8304.841793613924
 20
9453.243182432325
 30
0.0
 40
90.0
  1
2800
 41
0.6666666666666666
  7
00
100
AcDbText
  0
ENDBLK
  5
17265
330
172D6
100
AcDbEntity
  8
0
100
AcDbBlockEnd
  0
BLOCK
  5
172D7
330
172D8
100
AcDbEntity
  8
0
100
AcDbBlockBegin
  2
*U6
 70
     1
 10
0.0
 20
0.0
 30
0.0
  3
*U6
  1

  0
TEXT
  5
17267
330
172D8
100
AcDbEntity
  8
SUNPOU
100
AcDbText
 10
8304.841793613924
 20
9663.243182432324
 30
0.0
 40
90.0
  1
3600
 41
0.6666666666666666
  7
00
100
AcDbText
  0
ENDBLK
  5
17269
330
172D8
100
AcDbEntity
  8
0
100
AcDbBlockEnd
  0
BLOCK
  5
172D9
330
172DA
100
AcDbEntity
  8
0
100
AcDbBlockBegin
  2
*U7
 70
     1
 10
0.0
 20
0.0
 30
0.0
  3
*U7
  1

  0
TEXT
  5
1726B
330
172DA
100
AcDbEntity
  8
SUNPOU
100
AcDbText
 10
10574.12750789963
 20
9159.671753860896
 30
0.0
 40
90.0
  1
200
 50
90.0
 41
0.6666666666666666
  7
00
100
AcDbText
  0
ENDBLK
  5
1726D
330
172DA
100
AcDbEntity
  8
0
100
AcDbBlockEnd
  0
BLOCK
  5
172DB
330
172DC
100
AcDbEntity
  8
0
100
AcDbBlockBegin
  2
*U8
 70
     1
 10
0.0
 20
0.0
 30
0.0
  3
*U8
  1

  0
TEXT
  5
1726F
330
172DC
100
AcDbEntity
  8
SUNPOU
100
AcDbText
 10
10574.12750789963
 20
8485.386039575184
 30
0.0
 40
90.0
  1
200
 50
90.0
 41
0.6666666666666666
  7
00
100
AcDbText
  0
ENDBLK
  5
17271
330
172DC
100
AcDbEntity
  8
0
100
AcDbBlockEnd
  0
BLOCK
  5
172DD
330
172DE
100
AcDbEntity
  8
0
100
AcDbBlockBegin
  2
*U9
 70
     1
 10
0.0
 20
0.0
 30
0.0
  3
*U9
  1

  0
TEXT
  5
17273
330
172DE
100
AcDbEntity
  8
SUNPOU
100
AcDbText
 10
4771.285055024263
 20
2440.963733520729
 30
0.0
 40
90.0
  1
1000
 41
0.6666666666666666
  7
00
100
AcDbText
  0
ENDBLK
  5
17275
330
172DE
100
AcDbEntity
  8
0
100
AcDbBlockEnd
  0
BLOCK
  5
172DF
330
172E0
100
AcDbEntity
  8
0
100
AcDbBlockBegin
  2
*U10
 70
     1
 10
0.0
 20
0.0
 30
0.0
  3
*U10
  1

  0
TEXT
  5
17277
330
172E0
100
AcDbEntity
  8
SUNPOU
100
AcDbText
 10
4804.142197881406
 20
2650.963733520728
 30
0.0
 40
90.0
  1
800
 41
0.6666666666666666
  7
00
100
AcDbText
  0
ENDBLK
  5
17279
330
172E0
100
AcDbEntity
  8
0
100
AcDbBlockEnd
  0
BLOCK
  5
172E1
330
172E2
100
AcDbEntity
  8
0
100
AcDbBlockBegin
  2
*U11
 70
     1
 10
0.0
 20
0.0
 30
0.0
  3
*U11
  1

  0
TEXT
  5
1727B
330
172E2
100
AcDbEntity
  8
SUNPOU
100
AcDbText
 10
6979.437589004638
 20
3284.249447806444
 30
0.0
 40
90.0
  1
480
 50
90.0
 41
0.6666666666666666
  7
00
100
AcDbText
  0
ENDBLK
  5
1727D
330
172E2
100
AcDbEntity
  8
0
100
AcDbBlockEnd
  0
BLOCK
  5
172E3
330
172E4
100
AcDbEntity
  8
0
100
AcDbBlockBegin
  2
*U12
 70
     1
 10
0.0
 20
0.0
 30
0.0
  3
*U12
  1

  0
TEXT
  5
1727F
330
172E4
100
AcDbEntity
  8
SUNPOU
100
AcDbText
 10
6775.015821249391
 20
2760.243102996788
 30
0.0
 40
90.0
  1
100
 50
90.0
 41
0.6666666666666666
  7
00
100
AcDbText
  0
ENDBLK
  5
17281
330
172E4
100
AcDbEntity
  8
0
100
AcDbBlockEnd
  0
BLOCK
  5
172E5
330
172E6
100
AcDbEntity
  8
0
100
AcDbBlockBegin
  2
*U13
 70
     1
 10
0.0
 20
0.0
 30
0.0
  3
*U13
  1

  0
TEXT
  5
17283
330
172E6
100
AcDbEntity
  8
SUNPOU
100
AcDbText
 10
6773.187589004638
 20
3364.249447806444
 30
0.0
 40
90.0
  1
380
 50
90.0
 41
0.6666666666666666
  7
00
100
AcDbText
  0
ENDBLK
  5
17285
330
172E6
100
AcDbEntity
  8
0
100
AcDbBlockEnd
  0
BLOCK
  5
172E7
330
172E8
100
AcDbEntity
  8
0
100
AcDbBlockBegin
  2
*U14
 70
     1
 10
0.0
 20
0.0
 30
0.0
  3
*U14
  1

  0
TEXT
  5
17287
330
172E8
100
AcDbEntity
  8
SUNPOU
100
AcDbText
 10
4484.142197881406
 20
4601.963733520728
 30
0.0
 40
90.0
  1
400
 41
0.6666666666666666
  7
00
100
AcDbText
  0
ENDBLK
  5
17289
330
172E8
100
AcDbEntity
  8
0
100
AcDbBlockEnd
  0
ENDSEC
  0
SECTION
  2
ENTITIES
  0
TEXT
  5
12ADB
330
172A5
100
AcDbEntity
  8
NAME
100
AcDbText
 10
12303.32857318295
 20
1055.0
 30
0.0
 40
120.0
  1
Y O K C
 41
0.6666666666666666
  7
00
100
AcDbText
  0
TEXT
  5
12ADC
330
172A5
100
AcDbEntity
  8
NAME
100
AcDbText
 10
11227.73587134625
 20
1055.0
 30
0.0
 40
120.0
  1
ヨド自転車置場　　　  型
  7
01
100
AcDbText
  0
TEXT
  5
12ADD
330
172A5
100
AcDbEntity
  8
NAME
100
AcDbText
 10
11516.07508082364
 20
875.0
 30
0.0
 40
120.0
  1
（埋め込み方式）
  7
01
 72
     4
 11
12072.07508082364
 21
935.0
 31
0.0
100
AcDbText
  0
TEXT
  5
1546C
330
172A5
100
AcDbEntity
  8
HIKIDASHI
100
AcDbText
 10
9007.426279443023
 20
5992.059624263298
 30
0.0
 40
80.0
  1
)
 41
0.6700000000000001
  7
00
100
AcDbText
  0
TEXT
  5
1546D
330
172A5
100
AcDbEntity
  8
HIKIDASHI
100
AcDbText
 10
8806.567530753644
 20
6007.621102011493
 30
0.0
 40
80.0
  1
1
 41
0.6700000000000001
  7
00
100
AcDbText
  0
TEXT
  5
1546E
330
172A5
100
AcDbEntity
  8
HIKIDASHI
100
AcDbText
 10
8839.704668617953
 20
5992.059624263298
 30
0.0
 40
80.0
  1
/
 41
0.6700000000000001
  7
00
100
AcDbText
  0
TEXT
  5
1546F
330
172A5
100
AcDbEntity
  8
HIKIDASHI
100
AcDbText
 10
8885.999823380597
 20
5965.891793063018
 30
0.0
 40
80.0
  1
40
 41
0.6700000000000001
  7
00
100
AcDbText
  0
TEXT
  5
15470
330
172A5
100
AcDbEntity
  8
HIKIDASHI
100
AcDbText
 10
8625.85961481597
 20
5992.059624263298
 30
0.0
 40
80.0
  1
(S=
 41
0.6700000000000001
  7
00
100
AcDbText
  0
TEXT
  5
15471
330
172A5
100
AcDbEntity
  8
HIKIDASHI
100
AcDbText
 10
7783.859614815971
 20
5968.243182432328
 30
0.0
 40
120.0
  1
基 礎 伏 図
  7
01
 72
     2
 11
8535.85961481597
 21
5968.243182432328
 31
0.0
100
AcDbText
  0
TEXT
  5
159C6
330
172A5
100
AcDbEntity
  8
NAME
100
AcDbText
 10
12854.79999999999
 20
541.0000000000001
 30
0.0
 40
160.0
  1
<3／3>
 41
0.6
  7
01
 72
     2
 11
13354.0
 21
541.0000000000001
 31
0.0
100
AcDbText
  0
TEXT
  5
159C7
330
172A5
100
AcDbEntity
  8
NAME
100
AcDbText
 10
10896.04264730428
 20
541.0
 30
0.0
 40
160.0
  1
YOKC-280
 41
0.7
  7
01
 72
     2
 11
11776.04264730429
 21
541.0
 31
0.0
100
AcDbText
  0
TEXT
  5
159C8
330
172A5
100
AcDbEntity
  8
NAME
100
AcDbText
 10
11816.04264730429
 20
541.0
 30
0.0
 40
160.0
  1
型（一般地用）
 41
0.8
  7
01
100
AcDbText
  0
LINE
  5
166E7
330
172A5
100
AcDbEntity
  8
CENTER
  6
1PL-M
100
AcDbLine
 10
9167.877507899641
 20
8708.243182432324
 30
0.0
 11
10364.12750789964
 21
8708.243182432324
 31
0.0
  0
LINE
  5
166EE
330
172A5
100
AcDbEntity
  8
CENTER
  6
1PL-M
100
AcDbLine
 10
7019.127507899641
 20
6308.243182432326
 30
0.0
 11
7019.127507899641
 21
9308.243182432327
 31
0.0
  0
LINE
  5
166EF
330
172A5
100
AcDbEntity
  8
CENTER
  6
1PL-M
100
AcDbLine
 10
6474.127507899641
 20
8708.243182432324
 30
0.0
 11
8969.127507899642
 21
8708.243182432328
 31
0.0
  0
LINE
  5
166F0
330
172A5
100
AcDbEntity
  8
CENTER
  6
1PL-M
100
AcDbLine
 10
6596.977929614671
 20
6908.243182432326
 30
0.0
 11
10364.12750789964
 21
6908.243182432326
 31
0.0
  0
LINE
  5
166F1
330
172A5
100
AcDbEntity
  8
SUNPOU
100
AcDbLine
 10
10249.12750789964
 20
9108.243182432325
 30
0.0
 11
11084.12750789964
 21
9108.243182432325
 31
0.0
  0
LINE
  5
166F2
330
172A5
100
AcDbEntity
  8
SUNPOU
100
AcDbLine
 10
10249.12750789964
 20
6508.243182432327
 30
0.0
 11
11084.12750789964
 21
6508.243182432327
 31
0.0
  0
LINE
  5
166F3
330
172A5
100
AcDbEntity
  8
CENTER
  6
1PL-M
100
AcDbLine
 10
9819.127507899644
 20
6308.243182432326
 30
0.0
 11
9819.127507899644
 21
7963.243182432326
 31
0.0
  0
LINE
  5
166F4
330
172A5
100
AcDbEntity
  8
CENTER
  6
1PL-M
100
AcDbLine
 10
9819.127507899644
 20
8158.243182432327
 30
0.0
 11
9819.127507899644
 21
9308.243182432327
 31
0.0
  0
LINE
  5
166F5
330
172A5
100
AcDbEntity
  8
SUNPOU
100
AcDbLine
 10
11039.12750789964
 20
9093.243182432324
 30
0.0
 11
11039.12750789964
 21
6523.243182432326
 31
0.0
  0
LINE
  5
166F6
330
172A5
100
AcDbEntity
  8
SUNPOU
100
AcDbLine
 10
10829.12750789964
 20
8693.243182432324
 30
0.0
 11
10829.12750789964
 21
6923.243182432326
 31
0.0
  0
LINE
  5
166F7
330
172A5
100
AcDbEntity
  8
SUNPOU
100
AcDbLine
 10
10829.12750789964
 20
6893.243182432326
 30
0.0
 11
10829.12750789964
 21
6523.243182432326
 31
0.0
  0
LINE
  5
166F9
330
172A5
100
AcDbEntity
  8
SUNPOU
100
AcDbLine
 10
10799.12750789964
 20
6508.243182432327
 30
0.0
 11
10784.12750789964
 21
6508.243182432327
 31
0.0
  0
TEXT
  5
166FB
330
172A5
100
AcDbEntity
  8
SUNPOU
100
AcDbText
 10
10784.12750789964
 20
6622.528896718041
 30
0.0
 40
90.0
  1
400
 50
90.0
 41
0.6666666666666666
  7
00
 72
     4
 11
10739.12750789964
 21
6708.243182432326
 31
0.0
100
AcDbText
  0
TEXT
  5
166FC
330
172A5
100
AcDbEntity
  8
SUNPOU
100
AcDbText
 10
10994.12750789964
 20
7693.957468146613
 30
0.0
 40
90.0
  1
2600
 50
90.0
 41
0.6666666666666666
  7
00
 72
     4
 11
10949.12750789964
 21
7808.243182432327
 31
0.0
100
AcDbText
  0
TEXT
  5
166FF
330
172A5
100
AcDbEntity
  8
SUNPOU
100
AcDbText
 10
10784.12750789964
 20
7689.671753860898
 30
0.0
 40
90.0
  1
1800
 50
90.0
 41
0.6666666666666666
  7
00
 72
     4
 11
10739.12750789964
 21
7808.243182432327
 31
0.0
100
AcDbText
  0
LINE
  5
16700
330
172A5
100
AcDbEntity
  8
SUNPOU
100
AcDbLine
 10
10829.12750789964
 20
9093.243182432324
 30
0.0
 11
10829.12750789964
 21
8723.243182432325
 31
0.0
  0
TEXT
  5
16701
330
172A5
100
AcDbEntity
  8
SUNPOU
100
AcDbText
 10
10784.12750789964
 20
8822.528896718038
 30
0.0
 40
90.0
  1
400
 50
90.0
 41
0.6666666666666666
  7
00
 72
     1
 11
10739.12750789964
 21
8908.243182432325
 31
0.0
100
AcDbText
 73
     2
  0
LINE
  5
16705
330
172A5
100
AcDbEntity
  8
SUNPOU
100
AcDbLine
 10
10799.12750789964
 20
9108.243182432325
 30
0.0
 11
10784.12750789964
 21
9108.243182432325
 31
0.0
  0
LINE
  5
1670F
330
172A5
100
AcDbEntity
  8
SUNPOU
100
AcDbLine
 10
6409.127507899639
 20
7118.243182432326
 30
0.0
 11
6409.127507899639
 21
6908.243182432326
 31
0.0
  0
LINE
  5
16710
330
172A5
100
AcDbEntity
  8
SUNPOU
100
AcDbLine
 10
6409.12750789964
 20
6908.243182432326
 30
0.0
 11
6559.12750789964
 21
6908.243182432326
 31
0.0
  0
TEXT
  5
16712
330
172A5
100
AcDbEntity
  8
SUNPOU
100
AcDbText
 10
6383.284650756782
 20
7253.243182432325
 30
0.0
 40
90.0
  1
A
 41
0.6700000000000001
  7
00
 72
     4
 11
6409.127507899639
 21
7298.243182432326
 31
0.0
100
AcDbText
  0
LINE
  5
16713
330
172A5
100
AcDbEntity
  8
SUNPOU
100
AcDbLine
 10
7629.127507899642
 20
7118.243182432326
 30
0.0
 11
7629.127507899642
 21
6908.243182432326
 31
0.0
  0
LINE
  5
16714
330
172A5
100
AcDbEntity
  8
SUNPOU
100
AcDbLine
 10
7629.127507899642
 20
6908.243182432326
 30
0.0
 11
7479.127507899642
 21
6908.243182432326
 31
0.0
  0
TEXT
  5
16716
330
172A5
100
AcDbEntity
  8
SUNPOU
100
AcDbText
 10
7593.234650756784
 20
7244.671753860898
 30
0.0
 40
90.0
  1
A'
 41
0.6700000000000001
  7
00
 72
     4
 11
7629.127507899642
 21
7298.243182432326
 31
0.0
100
AcDbText
  0
TEXT
  5
16717
330
172A5
100
AcDbEntity
  8
HIKIDASHI
100
AcDbText
 10
7649.886391523253
 20
6545.457570974097
 30
0.0
 40
90.0
  1
（土間コン後面位置）
  7
01
100
AcDbText
  0
TEXT
  5
16718
330
172A5
100
AcDbEntity
  8
HIKIDASHI
100
AcDbText
 10
7607.824073304896
 20
9005.961209410227
 30
0.0
 40
90.0
  1
（屋根後面位置）
  7
01
100
AcDbText
  0
LINE
  5
16719
330
172A5
100
AcDbEntity
  8
SUNPOU
100
AcDbLine
 10
10394.12750789964
 20
8708.243182432324
 30
0.0
 11
10874.12750789964
 21
8708.243182432324
 31
0.0
  0
LINE
  5
1671A
330
172A5
100
AcDbEntity
  8
SUNPOU
100
AcDbLine
 10
10394.12750789964
 20
6908.243182432326
 30
0.0
 11
10874.12750789964
 21
6908.243182432326
 31
0.0
  0
TEXT
  5
1671C
330
172A5
100
AcDbEntity
  8
HIKIDASHI
100
AcDbText
 10
7724.659057818335
 20
6270.575351767093
 30
0.0
 40
90.0
  1
（鼻隠し外面）
  7
01
100
AcDbText
  0
TEXT
  5
16B65
330
172A5
100
AcDbEntity
  8
HIKIDASHI
100
AcDbText
 10
7523.285198871461
 20
8748.29898100082
 30
0.0
 40
90.0
  1
（土間コン前面位置）
  7
01
100
AcDbText
  0
LINE
  5
16D91
330
172A5
100
AcDbEntity
  8
HIKIDASHI
100
AcDbLine
 10
4186.816957180232
 20
4083.204154334509
 30
0.0
 11
3405.031576763642
 21
4083.204154334509
 31
0.0
  0
LINE
  5
16D94
330
172A5
100
AcDbEntity
  8
1PL-M1
100
AcDbLine
 10
4889.856483595693
 20
2873.96373352073
 30
0.0
 11
4889.856483595691
 21
4601.963733520728
 31
0.0
  0
LINE
  5
16D95
330
172A5
100
AcDbEntity
  8
HASHIRA
100
AcDbLine
 10
4837.856483595691
 20
3145.963733520729
 30
0.0
 11
4837.856483595691
 21
4233.963733520726
 31
0.0
  0
LINE
  5
16D96
330
172A5
100
AcDbEntity
  8
HASHIRA
100
AcDbLine
 10
4941.856483595691
 20
3145.963733520729
 30
0.0
 11
4941.856483595691
 21
4233.963733520726
 31
0.0
  0
LINE
  5
16D97
330
172A5
100
AcDbEntity
  8
HATCH
100
AcDbLine
 10
6088.042305995692
 20
3563.21910792073
 30
0.0
 11
6107.242305995693
 21
3529.963733520729
 31
0.0
  0
LINE
  5
16D98
330
172A5
100
AcDbEntity
  8
HATCH
100
AcDbLine
 10
6232.042305995692
 20
3563.21910792073
 30
0.0
 11
6251.242305995694
 21
3529.963733520729
 31
0.0
  0
LINE
  5
16D99
330
172A5
100
AcDbEntity
  8
HATCH
100
AcDbLine
 10
6229.867931595691
 20
3625.963733520729
 30
0.0
 11
6249.067931595693
 21
3592.708357520729
 31
0.0
  0
LINE
  5
16D9A
330
172A5
100
AcDbEntity
  8
HATCH
100
AcDbLine
 10
6212.842305995692
 20
3529.963733520729
 30
0.0
 11
6268.267931595691
 21
3625.963733520729
 31
0.0
  0
LINE
  5
16D9B
330
172A5
100
AcDbEntity
  8
HATCH
100
AcDbLine
 10
6336.250096395694
 20
3753.963733520729
 30
0.0
 11
6208.250096395694
 21
3625.963733520729
 31
0.0
  0
LINE
  5
16D9C
330
172A5
100
AcDbEntity
  8
HATCH
100
AcDbLine
 10
6241.21494439569
 20
3753.963733520729
 30
0.0
 11
6113.21494439569
 21
3625.963733520729
 31
0.0
  0
LINE
  5
16D9D
330
172A5
100
AcDbEntity
  8
HATCH
100
AcDbLine
 10
6288.732520395693
 20
3753.963733520729
 30
0.0
 11
6160.732520395693
 21
3625.963733520729
 31
0.0
  0
LINE
  5
16D9E
330
172A5
100
AcDbEntity
  8
HATCH
100
AcDbLine
 10
5960.042305995692
 20
3563.21910792073
 30
0.0
 11
5979.242305995693
 21
3529.963733520729
 31
0.0
  0
LINE
  5
16D9F
330
172A5
100
AcDbEntity
  8
HATCH
100
AcDbLine
 10
5957.867931595689
 20
3625.963733520729
 30
0.0
 11
5977.067931595691
 21
3592.708357520729
 31
0.0
  0
LINE
  5
16DA0
330
172A5
100
AcDbEntity
  8
HATCH
100
AcDbLine
 10
5940.842305995693
 20
3529.963733520729
 30
0.0
 11
5996.267931595689
 21
3625.963733520729
 31
0.0
  0
LINE
  5
16DA1
330
172A5
100
AcDbEntity
  8
HATCH
100
AcDbLine
 10
5717.016790795693
 20
3625.963733520729
 30
0.0
 11
5701.016790795693
 21
3625.963733520729
 31
0.0
  0
LINE
  5
16DA2
330
172A5
100
AcDbEntity
  8
HATCH
100
AcDbLine
 10
5816.042305995694
 20
3563.21910792073
 30
0.0
 11
5835.242305995691
 21
3529.963733520729
 31
0.0
  0
LINE
  5
16DA3
330
172A5
100
AcDbEntity
  8
HATCH
100
AcDbLine
 10
5796.842305995693
 20
3529.963733520729
 30
0.0
 11
5852.267931595689
 21
3625.963733520729
 31
0.0
  0
LINE
  5
16DA4
330
172A5
100
AcDbEntity
  8
HATCH
100
AcDbLine
 10
5813.867931595691
 20
3625.963733520729
 30
0.0
 11
5833.067931595691
 21
3592.708357520729
 31
0.0
  0
LINE
  5
16DA5
330
172A5
100
AcDbEntity
  8
HATCH
100
AcDbLine
 10
5856.250096395695
 20
3753.963733520729
 30
0.0
 11
5728.250096395695
 21
3625.963733520729
 31
0.0
  0
LINE
  5
16DA6
330
172A5
100
AcDbEntity
  8
HATCH
100
AcDbLine
 10
5672.042305995695
 20
3563.21910792073
 30
0.0
 11
5691.242305995693
 21
3529.963733520729
 31
0.0
  0
LINE
  5
16DA7
330
172A5
100
AcDbEntity
  8
HATCH
100
AcDbLine
 10
5669.867931595691
 20
3625.963733520729
 30
0.0
 11
5689.067931595691
 21
3592.708357520729
 31
0.0
  0
LINE
  5
16DA8
330
172A5
100
AcDbEntity
  8
HATCH
100
AcDbLine
 10
5529.856483595692
 20
3566.36135696226
 30
0.0
 11
5564.26793159569
 21
3625.963733520729
 31
0.0
  0
LINE
  5
16DA9
330
172A5
100
AcDbEntity
  8
HATCH
100
AcDbLine
 10
5529.856483595692
 20
3619.055358705336
 30
0.0
 11
5545.067931595691
 21
3592.708357520729
 31
0.0
  0
LINE
  5
16DAA
330
172A5
100
AcDbEntity
  8
HATCH
100
AcDbLine
 10
5529.856483595692
 20
3560.076860248017
 30
0.0
 11
5547.242305995694
 21
3529.963733520729
 31
0.0
  0
LINE
  5
16DAB
330
172A5
100
AcDbEntity
  8
HATCH
100
AcDbLine
 10
5573.016790795693
 20
3625.963733520729
 30
0.0
 11
5557.016790795692
 21
3625.963733520729
 31
0.0
  0
LINE
  5
16DAC
330
172A5
100
AcDbEntity
  8
HATCH
100
AcDbLine
 10
5808.73252039569
 20
3753.963733520729
 30
0.0
 11
5680.732520395693
 21
3625.963733520729
 31
0.0
  0
LINE
  5
16DAD
330
172A5
100
AcDbEntity
  8
HATCH
100
AcDbLine
 10
5761.214944395693
 20
3753.963733520729
 30
0.0
 11
5633.214944395693
 21
3625.963733520729
 31
0.0
  0
LINE
  5
16DAE
330
172A5
100
AcDbEntity
  8
HATCH
100
AcDbLine
 10
5652.842305995695
 20
3529.963733520729
 30
0.0
 11
5708.267931595689
 21
3625.963733520729
 31
0.0
  0
LINE
  5
16DAF
330
172A5
100
AcDbEntity
  8
HATCH
100
AcDbLine
 10
6085.867931595689
 20
3625.963733520729
 30
0.0
 11
6105.067931595691
 21
3592.708357520729
 31
0.0
  0
LINE
  5
16DB0
330
172A5
100
AcDbEntity
  8
HATCH
100
AcDbLine
 10
6068.842305995693
 20
3529.963733520729
 30
0.0
 11
6124.267931595689
 21
3625.963733520729
 31
0.0
  0
LINE
  5
16DB1
330
172A5
100
AcDbEntity
  8
KISO
100
AcDbLine
 10
5529.856483595692
 20
3529.963733520729
 30
0.0
 11
6367.249978138846
 21
3529.96373352073
 31
0.0
  0
LINE
  5
16DB2
330
172A5
100
AcDbEntity
  8
KISO
100
AcDbLine
 10
6367.249978138846
 20
3625.963733520729
 30
0.0
 11
5529.856483595692
 21
3625.963733520729
 31
0.0
  0
LINE
  5
16DB3
330
172A5
100
AcDbEntity
  8
KISO
100
AcDbLine
 10
5529.856483595692
 20
3753.963733520729
 30
0.0
 11
5529.856483595692
 21
3145.963733520729
 31
0.0
  0
LINE
  5
16DB4
330
172A5
100
AcDbEntity
  8
U3
100
AcDbLine
 10
4138.665683595692
 20
3673.963733520729
 30
0.0
 11
4249.856483595691
 21
3562.772931920729
 31
0.0
  0
LINE
  5
16DB5
330
172A5
100
AcDbEntity
  8
U3
100
AcDbLine
 10
4087.753993995693
 20
3623.052043920729
 30
0.0
 11
4204.842305995692
 21
3505.963733520729
 31
0.0
  0
LINE
  5
16DB6
330
172A5
100
AcDbEntity
  8
U3
100
AcDbLine
 10
3919.753993995694
 20
3556.875421520731
 30
0.0
 11
4036.842305995692
 21
3673.963733520729
 31
0.0
  0
LINE
  5
16DB7
330
172A5
100
AcDbEntity
  8
U3
100
AcDbLine
 10
4036.842305995692
 20
3572.140355920728
 30
0.0
 11
4103.01892999569
 21
3505.963733520729
 31
0.0
  0
LINE
  5
16DB8
330
172A5
100
AcDbEntity
  8
U3
100
AcDbLine
 10
3970.665683595692
 20
3505.963733520729
 30
0.0
 11
4138.665683595692
 21
3673.963733520729
 31
0.0
  0
LINE
  5
16DB9
330
172A5
100
AcDbEntity
  8
KISO
100
AcDbLine
 10
4837.856483595691
 20
3753.963733520729
 30
0.0
 11
4249.856483595691
 21
3753.963733520729
 31
0.0
  0
LINE
  5
16DBA
330
172A5
100
AcDbEntity
  8
HATCH
100
AcDbLine
 10
4799.916475201962
 20
3753.963733520729
 30
0.0
 11
4249.856483595691
 21
3203.903741914457
 31
0.0
  0
LINE
  5
16DBB
330
172A5
100
AcDbEntity
  8
HATCH
100
AcDbLine
 10
4752.398899201963
 20
3753.963733520729
 30
0.0
 11
4249.856483595691
 21
3251.421317914457
 31
0.0
  0
LINE
  5
16DBC
330
172A5
100
AcDbEntity
  8
HATCH
100
AcDbLine
 10
4704.881324801961
 20
3753.963733520729
 30
0.0
 11
4249.856483595691
 21
3298.938892314453
 31
0.0
  0
LINE
  5
16DBD
330
172A5
100
AcDbEntity
  8
U3
100
AcDbLine
 10
3700.842305995694
 20
3572.140355920728
 30
0.0
 11
3767.018929995692
 21
3505.963733520729
 31
0.0
  0
LINE
  5
16DBE
330
172A5
100
AcDbEntity
  8
U3
100
AcDbLine
 10
3751.753993995694
 20
3623.052043920729
 30
0.0
 11
3868.842305995693
 21
3505.963733520729
 31
0.0
  0
LINE
  5
16DBF
330
172A5
100
AcDbEntity
  8
U3
100
AcDbLine
 10
3532.842305995694
 20
3607.787109520728
 30
0.0
 11
3599.018929995692
 21
3673.963733520729
 31
0.0
  0
LINE
  5
16DC0
330
172A5
100
AcDbEntity
  8
U3
100
AcDbLine
 10
3634.665683595692
 20
3505.963733520729
 30
0.0
 11
3802.665683595693
 21
3673.963733520729
 31
0.0
  0
LINE
  5
16DC1
330
172A5
100
AcDbEntity
  8
U3
100
AcDbLine
 10
3583.753993995694
 20
3556.875421520731
 30
0.0
 11
3700.842305995694
 21
3673.963733520729
 31
0.0
  0
LINE
  5
16DC2
330
172A5
100
AcDbEntity
  8
U3
100
AcDbLine
 10
3466.665683595692
 20
3673.963733520729
 30
0.0
 11
3634.665683595692
 21
3505.963733520729
 31
0.0
  0
LINE
  5
16DC3
330
172A5
100
AcDbEntity
  8
U3
100
AcDbLine
 10
3868.842305995693
 20
3607.787109520728
 30
0.0
 11
3935.018929995692
 21
3673.963733520729
 31
0.0
  0
LINE
  5
16DC4
330
172A5
100
AcDbEntity
  8
U3
100
AcDbLine
 10
3802.665683595693
 20
3673.963733520729
 30
0.0
 11
3970.665683595692
 21
3505.963733520729
 31
0.0
  0
LINE
  5
16DC5
330
172A5
100
AcDbEntity
  8
U3
100
AcDbLine
 10
4249.856483595691
 20
3673.963733520729
 30
0.0
 11
3466.665683595692
 21
3673.963733520729
 31
0.0
  0
LINE
  5
16DC6
330
172A5
100
AcDbEntity
  8
HATCH
100
AcDbLine
 10
4837.856483595691
 20
3404.311689551324
 30
0.0
 11
4683.508527565098
 21
3249.963733520729
 31
0.0
  0
LINE
  5
16DC7
330
172A5
100
AcDbEntity
  8
KISO
100
AcDbLine
 10
4249.856483595691
 20
3753.963733520729
 30
0.0
 11
4249.856483595691
 21
3145.963733520729
 31
0.0
  0
LINE
  5
16DC8
330
172A5
100
AcDbEntity
  8
HATCH
100
AcDbLine
 10
4837.856483595691
 20
3499.346839951326
 30
0.0
 11
4484.473377165095
 21
3145.96373352073
 31
0.0
  0
LINE
  5
16DC9
330
172A5
100
AcDbEntity
  8
HATCH
100
AcDbLine
 10
4837.856483595691
 20
3451.829265551324
 30
0.0
 11
4635.990951565096
 21
3249.963733520729
 31
0.0
  0
LINE
  5
16DCA
330
172A5
100
AcDbEntity
  8
HATCH
100
AcDbLine
 10
5187.508527565098
 20
3753.963733520729
 30
0.0
 11
4941.856483595691
 21
3508.311689551324
 31
0.0
  0
LINE
  5
16DCB
330
172A5
100
AcDbEntity
  8
HATCH
100
AcDbLine
 10
5139.990951565096
 20
3753.963733520729
 30
0.0
 11
4941.856483595691
 21
3555.829265551323
 31
0.0
  0
LINE
  5
16DCC
330
172A5
100
AcDbEntity
  8
HATCH
100
AcDbLine
 10
5092.473377165095
 20
3753.963733520729
 30
0.0
 11
4941.856483595691
 21
3603.346839951324
 31
0.0
  0
LINE
  5
16DCD
330
172A5
100
AcDbEntity
  8
KISO
100
AcDbLine
 10
6367.249978138845
 20
3753.963733520729
 30
0.0
 11
4941.856483595691
 21
3753.963733520729
 31
0.0
  0
LINE
  5
16DCE
330
172A5
100
AcDbEntity
  8
HATCH
100
AcDbLine
 10
4364.80684683883
 20
3753.963733520729
 30
0.0
 11
4249.856483595693
 21
3639.013370277589
 31
0.0
  0
LINE
  5
16DCF
330
172A5
100
AcDbEntity
  8
HATCH
100
AcDbLine
 10
4412.324422838832
 20
3753.963733520729
 30
0.0
 11
4249.856483595691
 21
3591.49579427759
 31
0.0
  0
LINE
  5
16DD0
330
172A5
100
AcDbEntity
  8
HATCH
100
AcDbLine
 10
4317.289272438831
 20
3753.963733520729
 30
0.0
 11
4249.856483595691
 21
3686.530944677587
 31
0.0
  0
LINE
  5
16DD1
330
172A5
100
AcDbEntity
  8
HATCH
100
AcDbLine
 10
5529.856483595692
 20
3708.719637188189
 30
0.0
 11
5071.100579928232
 21
3249.963733520729
 31
0.0
  0
LINE
  5
16DD2
330
172A5
100
AcDbEntity
  8
HATCH
100
AcDbLine
 10
5527.583003928228
 20
3753.963733520729
 30
0.0
 11
5023.583003928232
 21
3249.963733520728
 31
0.0
  0
LINE
  5
16DD3
330
172A5
100
AcDbEntity
  8
HATCH
100
AcDbLine
 10
5480.065429528228
 20
3753.963733520729
 30
0.0
 11
4941.856483595691
 21
3215.754787588188
 31
0.0
  0
LINE
  5
16DD4
330
172A5
100
AcDbEntity
  8
HATCH
100
AcDbLine
 10
5529.856483595692
 20
3416.162735225057
 30
0.0
 11
5259.657481891365
 21
3145.963733520729
 31
0.0
  0
LINE
  5
16DD5
330
172A5
100
AcDbEntity
  8
HATCH
100
AcDbLine
 10
5529.856483595692
 20
3368.645160825057
 30
0.0
 11
5307.175056291369
 21
3145.963733520729
 31
0.0
  0
LINE
  5
16DD6
330
172A5
100
AcDbEntity
  8
HATCH
100
AcDbLine
 10
5529.856483595693
 20
3321.127584825055
 30
0.0
 11
5354.692632291366
 21
3145.963733520729
 31
0.0
  0
LINE
  5
16DD7
330
172A5
100
AcDbEntity
  8
HATCH
100
AcDbLine
 10
4619.990951565096
 20
3233.96373352073
 30
0.0
 11
4531.990951565096
 21
3145.963733520729
 31
0.0
  0
LINE
  5
16DD8
330
172A5
100
AcDbEntity
  8
HATCH
100
AcDbLine
 10
4667.508527565098
 20
3233.96373352073
 30
0.0
 11
4579.508527565098
 21
3145.963733520729
 31
0.0
  0
LINE
  5
16DD9
330
172A5
100
AcDbEntity
  8
HATCH
100
AcDbLine
 10
4960.065429528231
 20
3233.96373352073
 30
0.0
 11
4941.856483595691
 21
3215.754787588188
 31
0.0
  0
LINE
  5
16DDA
330
172A5
100
AcDbEntity
  8
HATCH
100
AcDbLine
 10
5007.583003928234
 20
3233.96373352073
 30
0.0
 11
4941.856483595691
 21
3168.237213188188
 31
0.0
  0
LINE
  5
16DDB
330
172A5
100
AcDbEntity
  8
HATCH
100
AcDbLine
 10
5055.100579928232
 20
3233.96373352073
 30
0.0
 11
4967.100579928231
 21
3145.963733520729
 31
0.0
  0
TEXT
  5
16DDE
330
172A5
100
AcDbEntity
  8
HIKIDASHI
100
AcDbText
 10
4966.060086474469
 20
2119.914714678058
 30
0.0
 40
90.0
  1
断 面
  7
01
100
AcDbText
  0
LINE
  5
16DDF
330
172A5
100
AcDbEntity
  8
HIKIDASHI
100
AcDbLine
 10
4542.042806977907
 20
2074.914714678058
 30
0.0
 11
5237.670160213478
 21
2074.914714678058
 31
0.0
  0
LINE
  5
16DE0
330
172A5
100
AcDbEntity
  8
HIKIDASHI
100
AcDbLine
 10
4542.042806977907
 20
2044.914714678057
 30
0.0
 11
5237.670160213478
 21
2044.914714678057
 31
0.0
  0
TEXT
  5
16DE1
330
172A5
100
AcDbEntity
  8
HIKIDASHI
100
AcDbText
 10
4572.042806977907
 20
2119.914714678058
 30
0.0
 40
90.0
  1
A  ~  A'
 41
0.6700000000000001
  7
00
100
AcDbText
  0
LINE
  5
16DE5
330
172A5
100
AcDbEntity
  8
SUNPOU
100
AcDbLine
 10
4889.856483595693
 20
4556.963733520728
 30
0.0
 11
6315.086990845943
 21
4556.963733520728
 31
0.0
  0
TEXT
  5
16DE6
330
172A5
100
AcDbEntity
  8
SUNPOU
100
AcDbText
 10
5675.684182736158
 20
4601.963733520728
 30
0.0
 40
90.0
  1
2450
 41
0.6666666666666666
  7
00
 72
     4
 11
5789.969897021872
 21
4646.963733520728
 31
0.0
100
AcDbText
  0
LINE
  5
16DEA
330
172A5
100
AcDbEntity
  8
HIKIDASHI
100
AcDbLine
 10
3864.689878611732
 20
2573.963733520729
 30
0.0
 11
3495.92350178411
 21
2573.963733520729
 31
0.0
  0
TEXT
  5
16DEB
330
172A5
100
AcDbEntity
  8
HIKIDASHI
100
AcDbText
 10
3522.991109376021
 20
2618.963733520729
 30
0.0
 40
90.0
  1
砕　石
  7
01
 72
     2
 11
3822.991109376021
 21
2663.963733520729
 31
0.0
100
AcDbText
 73
     2
  0
TEXT
  5
16DED
330
172A5
100
AcDbEntity
  8
SUNPOU
100
AcDbText
 10
6214.517344503915
 20
2588.570487822471
 30
0.0
 40
90.0
  1
5-D13×5-D13
 41
0.6700000000000001
  7
01
 72
     4
 11
6557.940201646772
 21
2633.570487822471
 31
0.0
100
AcDbText
  0
TEXT
  5
16DEE
330
172A5
100
AcDbEntity
  8
SUNPOU
100
AcDbText
 10
5727.69726306127
 20
2588.570487822471
 30
0.0
 40
90.0
  1
ベース筋
  7
01
 72
     4
 11
5931.69726306127
 21
2633.570487822471
 31
0.0
100
AcDbText
  0
LINE
  5
16DEF
330
172A5
100
AcDbEntity
  8
HIKIDASHI
100
AcDbLine
 10
6997.547440734263
 20
4083.963733520728
 30
0.0
 11
6196.483271007121
 21
4083.963733520728
 31
0.0
  0
TEXT
  5
16DF0
330
172A5
100
AcDbEntity
  8
HIKIDASHI
100
AcDbText
 10
6240.317140088584
 20
4128.963733520728
 30
0.0
 40
90.0
  1
敷砂利又は砕石
  7
01
 72
     2
 11
6972.317140088584
 21
4173.963733520728
 31
0.0
100
AcDbText
 73
     2
  0
TEXT
  5
16DF1
330
172A5
100
AcDbEntity
  8
HIKIDASHI
100
AcDbText
 10
6024.221954446723
 20
4338.963733520728
 30
0.0
 40
90.0
  1
土　間
  7
01
 72
     2
 11
6318.221954446722
 21
4383.963733520728
 31
0.0
100
AcDbText
 73
     2
  0
LINE
  5
16DF2
330
172A5
100
AcDbEntity
  8
HIKIDASHI
100
AcDbLine
 10
6359.920723682438
 20
4293.963733520728
 30
0.0
 11
5991.154346854814
 21
4293.963733520728
 31
0.0
  0
TEXT
  5
16DF3
330
172A5
100
AcDbEntity
  8
SUNPOU
100
AcDbText
 10
6200.509196873749
 20
3888.963733520728
 30
0.0
 40
90.0
  1
F.L
 41
0.6666666666666666
  7
00
 72
     4
 11
6269.080625445177
 21
3933.963733520729
 31
0.0
100
AcDbText
  0
LINE
  5
16DF4
330
172A5
100
AcDbEntity
  8
SUNPOU
100
AcDbLine
 10
6269.080625445177
 20
3753.963733520729
 30
0.0
 11
6321.042149672243
 21
3843.963733520729
 31
0.0
  0
LINE
  5
16DF5
330
172A5
100
AcDbEntity
  8
SUNPOU
100
AcDbLine
 10
6217.119101218109
 20
3843.963733520729
 30
0.0
 11
6269.080625445177
 21
3753.963733520729
 31
0.0
  0
LINE
  5
16DF6
330
172A5
100
AcDbEntity
  8
SUNPOU
100
AcDbLine
 10
6321.042149672243
 20
3843.963733520729
 30
0.0
 11
6217.119101218109
 21
3843.963733520729
 31
0.0
  0
TEXT
  5
16DFA
330
172A5
100
AcDbEntity
  8
HIKIDASHI
100
AcDbText
 10
3941.197894611569
 20
4128.754747320638
 30
0.0
 40
89.55223880597015
  1
350
 41
0.6700000000000001
  7
00
100
AcDbText
  0
TEXT
  5
16DFB
330
172A5
100
AcDbEntity
  8
HIKIDASHI
100
AcDbText
 10
3647.115610627791
 20
4128.963733520728
 30
0.0
 40
89.55223880597015
  1
10
 41
0.6700000000000001
  7
00
100
AcDbText
  0
TEXT
  5
16DFC
330
172A5
100
AcDbEntity
  8
HIKIDASHI
100
AcDbText
 10
3775.492365645627
 20
4155.393343159622
 30
0.0
 40
90.0
  1
%%c
 41
0.6700000000000001
  7
00
100
AcDbText
  0
TEXT
  5
16DFD
330
172A5
100
AcDbEntity
  8
HIKIDASHI
100
AcDbText
 10
3415.608897026134
 20
4128.963733520728
 30
0.0
 40
90.0
  1
鉄筋
  7
01
100
AcDbText
  0
TEXT
  5
16DFE
330
172A5
100
AcDbEntity
  8
HIKIDASHI
100
AcDbText
 10
3860.062515458436
 20
4140.157763371475
 30
0.0
 40
89.55223880597015
  1
x
 41
0.6700000000000001
  7
00
100
AcDbText
  0
LINE
  5
16E00
330
172A5
100
AcDbEntity
  8
KISO
100
AcDbLine
 10
4089.856483595691
 20
2985.963733520728
 30
0.0
 11
5689.856483595686
 21
2985.963733520732
 31
0.0
  0
LINE
  5
16E03
330
172A5
100
AcDbEntity
  8
KISO
100
AcDbLine
 10
4089.856483595691
 20
2985.963733520728
 30
0.0
 11
4089.856483595691
 21
3145.963733520729
 31
0.0
  0
LINE
  5
16E07
330
172A5
100
AcDbEntity
  8
KISO
100
AcDbLine
 10
5689.856483595686
 20
2985.963733520732
 30
0.0
 11
5689.856483595686
 21
3145.963733520728
 31
0.0
  0
LINE
  5
16E08
330
172A5
100
AcDbEntity
  8
KISO
100
AcDbLine
 10
4089.856483595691
 20
3145.963733520729
 30
0.0
 11
5689.856483595686
 21
3145.963733520728
 31
0.0
  0
TEXT
  5
16E85
330
172A5
100
AcDbEntity
  8
FILENAME
100
AcDbText
 10
13854.38095238095
 20
174.0
 30
0.0
 40
100.0
  1
＜YOKC-280-U1_3_JIS_GL.DXF ＞
  7
FILENAME
 72
     2
 11
16382.0
 21
174.0
 31
0.0
100
AcDbText
  0
LINE
  5
16E8C
330
172A5
100
AcDbEntity
  8
WAKUSEN-01
100
AcDbLine
 10
434.0000000000008
 20
413.9999999999997
 30
0.0
 11
16382.0
 21
413.9999999999997
 31
0.0
  0
LINE
  5
16E8D
330
172A5
100
AcDbEntity
  8
WAKUSEN-01
100
AcDbLine
 10
434.0000000000008
 20
11242.0
 30
0.0
 11
16382.0
 21
11242.0
 31
0.0
  0
LINE
  5
16E8E
330
172A5
100
AcDbEntity
  8
WAKUSEN-01
100
AcDbLine
 10
434.0000000000008
 20
413.9999999999997
 30
0.0
 11
434.0000000000008
 21
11242.0
 31
0.0
  0
LINE
  5
16E8F
330
172A5
100
AcDbEntity
  8
WAKUSEN-01
100
AcDbLine
 10
16382.0
 20
413.9999999999997
 30
0.0
 11
16382.0
 21
11242.0
 31
0.0
  0
LINE
  5
16E90
330
172A5
100
AcDbEntity
  8
WAKUSEN-01
100
AcDbLine
 10
10280.0
 20
1242.0
 30
0.0
 11
16382.0
 21
1242.0
 31
0.0
  0
LINE
  5
16E91
330
172A5
100
AcDbEntity
  8
WAKUSEN-02
100
AcDbLine
 10
10280.0
 20
827.9999999999997
 30
0.0
 11
13434.0
 21
827.9999999999997
 31
0.0
  0
TEXT
  5
16E92
330
172A5
100
AcDbEntity
  8
WAKUMOJI-01
100
AcDbText
 10
10335.13012998137
 20
1062.951504669661
 30
0.0
 40
120.0
  1
名　称
  7
WAKUMOJI
100
AcDbText
  0
TEXT
  5
16E93
330
172A5
100
AcDbEntity
  8
WAKUMOJI-01
100
AcDbText
 10
10328.25274254596
 20
659.5644874899107
 30
0.0
 40
120.0
  1
機種名
  7
WAKUMOJI
100
AcDbText
  0
LINE
  5
16E94
330
172A5
100
AcDbEntity
  8
WAKUSEN-01
100
AcDbLine
 10
10280.0
 20
413.9999999999986
 30
0.0
 11
10280.0
 21
1242.0
 31
0.0
  0
LINE
  5
16E95
330
172A5
100
AcDbEntity
  8
WAKUSEN-02
100
AcDbLine
 10
13434.0
 20
413.9999999999963
 30
0.0
 11
13434.0
 21
1242.0
 31
0.0
  0
LINE
  5
16E96
330
172A5
100
AcDbEntity
  8
YODOROGO
100
AcDbLine
 10
14988.80217064596
 20
997.8747482146435
 30
0.0
 11
14914.80217064596
 21
997.8747482146435
 31
0.0
1001
AUTOCAD_POSTSCRIPT_FIGURE
1002
{
1000
PSFILL
1000
Grayscale
1000
Grayscale
1070
    25
1002
}
  0
LINE
  5
16E97
330
172A5
100
AcDbEntity
  8
YODOROGO
100
AcDbLine
 10
14914.80217064596
 20
973.8747482146436
 30
0.0
 11
14988.80217064596
 21
973.8747482146436
 31
0.0
1001
AUTOCAD_POSTSCRIPT_FIGURE
1002
{
1000
PSFILL
1000
Grayscale
1000
Grayscale
1070
    25
1002
}
  0
LINE
  5
16E98
330
172A5
100
AcDbEntity
  8
YODOROGO
100
AcDbLine
 10
14988.80217064596
 20
953.874748214644
 30
0.0
 11
14914.80217064596
 21
953.874748214644
 31
0.0
1001
AUTOCAD_POSTSCRIPT_FIGURE
1002
{
1000
PSFILL
1000
Grayscale
1000
Grayscale
1070
    25
1002
}
  0
LINE
  5
16E99
330
172A5
100
AcDbEntity
  8
YODOROGO
100
AcDbLine
 10
14914.80217064596
 20
929.874748214644
 30
0.0
 11
14988.80217064596
 21
929.874748214644
 31
0.0
1001
AUTOCAD_POSTSCRIPT_FIGURE
1002
{
1000
PSFILL
1000
Grayscale
1000
Grayscale
1070
    25
1002
}
  0
LINE
  5
16E9A
330
172A5
100
AcDbEntity
  8
YODOROGO
100
AcDbLine
 10
14988.80217064596
 20
909.8747482146439
 30
0.0
 11
14914.80217064596
 21
909.8747482146439
 31
0.0
1001
AUTOCAD_POSTSCRIPT_FIGURE
1002
{
1000
PSFILL
1000
Grayscale
1000
Grayscale
1070
    25
1002
}
  0
LINE
  5
16E9B
330
172A5
100
AcDbEntity
  8
YODOROGO
100
AcDbLine
 10
14960.80217064594
 20
853.8747482146439
 30
0.0
 11
14988.80217064596
 21
853.8747482146439
 31
0.0
1001
AUTOCAD_POSTSCRIPT_FIGURE
1002
{
1000
PSFILL
1000
Grayscale
1000
Grayscale
1070
    25
1002
}
  0
LINE
  5
16E9C
330
172A5
100
AcDbEntity
  8
YODOROGO
100
AcDbLine
 10
14868.80217064596
 20
713.8747482146436
 30
0.0
 11
14968.80217064596
 21
740.6696674577553
 31
0.0
  0
LINE
  5
16E9D
330
172A5
100
AcDbEntity
  8
YODOROGO
100
AcDbLine
 10
14974.80217064595
 20
853.8747482146439
 30
0.0
 11
14942.80217064596
 21
853.8747482146439
 31
0.0
  0
ARC
  5
16E9E
330
172A5
100
AcDbEntity
  8
YODOROGO
100
AcDbCircle
 10
15127.17387491395
 20
903.9323046166312
 30
0.0
 40
190.9434321028236
100
AcDbArc
 50
213.9611167766784
 51
264.4787207431779
  0
ARC
  5
16E9F
330
172A5
100
AcDbEntity
  8
YODOROGO
100
AcDbCircle
 10
15127.17387491396
 20
903.9323046166513
 30
0.0
 40
190.9434321028408
100
AcDbArc
 50
208.141144204866
 51
212.9210361185995
  0
LINE
  5
16EA0
330
172A5
100
AcDbEntity
  8
YODOROGO
100
AcDbLine
 10
14885.70493649264
 20
778.403830673117
 30
0.0
 11
14966.89206625426
 21
800.1578565285436
 31
0.0
  0
LINE
  5
16EA1
330
172A5
100
AcDbEntity
  8
YODOROGO
100
AcDbLine
 10
14868.80217064596
 20
713.8747482146436
 30
0.0
 11
14968.80217064596
 21
740.6696674577553
 31
0.0
  0
LINE
  5
16EA2
330
172A5
100
AcDbEntity
  8
YODOROGO
100
AcDbLine
 10
14974.80217064595
 20
853.8747482146439
 30
0.0
 11
14942.80217064596
 21
853.8747482146439
 31
0.0
  0
ARC
  5
16EA3
330
172A5
100
AcDbEntity
  8
YODOROGO
100
AcDbCircle
 10
15127.17387491395
 20
903.9323046166312
 30
0.0
 40
190.9434321028236
100
AcDbArc
 50
213.9611167766784
 51
264.4787207431779
  0
LINE
  5
16EA4
330
172A5
100
AcDbEntity
  8
YODOROGO
100
AcDbLine
 10
14396.80217064594
 20
909.8747482146439
 30
0.0
 11
14216.80217064595
 21
909.8747482146439
 31
0.0
  0
LINE
  5
16EA5
330
172A5
100
AcDbEntity
  8
YODOROGO
100
AcDbLine
 10
14256.80217064595
 20
713.8747482146436
 30
0.0
 11
14396.80217064594
 21
713.8747482146436
 31
0.0
  0
LINE
  5
16EA6
330
172A5
100
AcDbEntity
  8
YODOROGO
100
AcDbLine
 10
14364.80217064596
 20
961.8747482146432
 30
0.0
 11
14248.80217064595
 21
961.8747482146432
 31
0.0
  0
LINE
  5
16EA7
330
172A5
100
AcDbEntity
  8
YODOROGO
100
AcDbLine
 10
14292.80217064596
 20
1013.874748214644
 30
0.0
 11
14328.80217064596
 21
1013.874748214644
 31
0.0
  0
LINE
  5
16EA8
330
172A5
100
AcDbEntity
  8
YODOROGO
100
AcDbLine
 10
14216.80217064595
 20
853.8747482146439
 30
0.0
 11
14216.80217064595
 21
753.8747482146439
 31
0.0
  0
LINE
  5
16EA9
330
172A5
100
AcDbEntity
  8
YODOROGO
100
AcDbLine
 10
14248.80217064595
 20
781.8747482146434
 30
0.0
 11
14248.80217064595
 21
853.8747482146439
 31
0.0
  0
LINE
  5
16EAA
330
172A5
100
AcDbEntity
  8
YODOROGO
100
AcDbLine
 10
14292.80217064596
 20
873.8747482146449
 30
0.0
 11
14292.80217064596
 21
773.8747482146439
 31
0.0
  0
LINE
  5
16EAB
330
172A5
100
AcDbEntity
  8
YODOROGO
100
AcDbLine
 10
13928.80217064596
 20
841.8747482146445
 30
0.0
 11
13888.80217064596
 21
809.9862070222856
 31
0.0
  0
LINE
  5
16EAC
330
172A5
100
AcDbEntity
  8
YODOROGO
100
AcDbLine
 10
13968.80217064596
 20
809.9862070222856
 30
0.0
 11
13928.80217064596
 21
841.8747482146445
 31
0.0
  0
LINE
  5
16EAD
330
172A5
100
AcDbEntity
  8
YODOROGO
100
AcDbLine
 10
13928.80217064596
 20
853.8747482146439
 30
0.0
 11
13968.80217064596
 21
821.986207022285
 31
0.0
  0
LINE
  5
16EAE
330
172A5
100
AcDbEntity
  8
YODOROGO
100
AcDbLine
 10
13888.80217064596
 20
821.986207022285
 30
0.0
 11
13928.80217064596
 21
853.8747482146439
 31
0.0
  0
LINE
  5
16EAF
330
172A5
100
AcDbEntity
  8
YODOROGO
100
AcDbLine
 10
14020.45660200845
 20
829.874748214644
 30
0.0
 11
14020.45660200845
 21
841.8747482146434
 31
0.0
  0
LINE
  5
16EB0
330
172A5
100
AcDbEntity
  8
YODOROGO
100
AcDbLine
 10
13988.80217064596
 20
841.8747482146434
 30
0.0
 11
13988.80217064596
 21
833.8747482146427
 31
0.0
  0
LINE
  5
16EB1
330
172A5
100
AcDbEntity
  8
YODOROGO
100
AcDbLine
 10
14049.06776011545
 20
853.8747482146439
 30
0.0
 11
14049.06776011545
 21
827.751818637328
 31
0.0
1001
AUTOCAD_POSTSCRIPT_FIGURE
1002
{
1000
PSFILL
1000
Grayscale
1000
Grayscale
1070
   100
1002
}
  0
LINE
  5
16EB2
330
172A5
100
AcDbEntity
  8
YODOROGO
100
AcDbLine
 10
14041.06776011546
 20
827.751818637328
 30
0.0
 11
14041.06776011546
 21
853.8747482146439
 31
0.0
1001
AUTOCAD_POSTSCRIPT_FIGURE
1002
{
1000
PSFILL
1000
Grayscale
1000
Grayscale
1070
   100
1002
}
  0
LINE
  5
16EB3
330
172A5
100
AcDbEntity
  8
YODOROGO
100
AcDbLine
 10
13904.80217064596
 20
804.3859520216292
 30
0.0
 11
13904.80217064596
 21
816.3859520216298
 31
0.0
  0
LINE
  5
16EB4
330
172A5
100
AcDbEntity
  8
YODOROGO
100
AcDbLine
 10
13952.80217064596
 20
804.3859520216292
 30
0.0
 11
13904.80217064596
 21
804.3859520216292
 31
0.0
  0
LINE
  5
16EB5
330
172A5
100
AcDbEntity
  8
YODOROGO
100
AcDbLine
 10
13952.80217064596
 20
816.3859520216298
 30
0.0
 11
13952.80217064596
 21
804.3859520216292
 31
0.0
  0
LINE
  5
16EB6
330
172A5
100
AcDbEntity
  8
YODOROGO
100
AcDbLine
 10
13904.80217064596
 20
816.3859520216298
 30
0.0
 11
13952.80217064596
 21
816.3859520216298
 31
0.0
  0
LINE
  5
16EB7
330
172A5
100
AcDbEntity
  8
YODOROGO
100
AcDbLine
 10
13912.25479445787
 20
784.2514286852374
 30
0.0
 11
13892.80217064596
 21
737.8747482146437
 31
0.0
1001
AUTOCAD_POSTSCRIPT_FIGURE
1002
{
1000
PSFILL
1000
Grayscale
1000
Grayscale
1070
   100
1002
}
  0
LINE
  5
16EB8
330
172A5
100
AcDbEntity
  8
YODOROGO
100
AcDbLine
 10
13888.80217064596
 20
784.2514286852374
 30
0.0
 11
13912.25479445787
 21
784.2514286852374
 31
0.0
1001
AUTOCAD_POSTSCRIPT_FIGURE
1002
{
1000
PSFILL
1000
Grayscale
1000
Grayscale
1070
   100
1002
}
  0
LINE
  5
16EB9
330
172A5
100
AcDbEntity
  8
YODOROGO
100
AcDbLine
 10
13888.80217064596
 20
794.2514286852374
 30
0.0
 11
13888.80217064596
 21
784.2514286852374
 31
0.0
1001
AUTOCAD_POSTSCRIPT_FIGURE
1002
{
1000
PSFILL
1000
Grayscale
1000
Grayscale
1070
   100
1002
}
  0
LINE
  5
16EBA
330
172A5
100
AcDbEntity
  8
YODOROGO
100
AcDbLine
 10
13968.80217064596
 20
794.2514286852374
 30
0.0
 11
13888.80217064596
 21
794.2514286852374
 31
0.0
1001
AUTOCAD_POSTSCRIPT_FIGURE
1002
{
1000
PSFILL
1000
Grayscale
1000
Grayscale
1070
   100
1002
}
  0
LINE
  5
16EBB
330
172A5
100
AcDbEntity
  8
YODOROGO
100
AcDbLine
 10
13968.80217064596
 20
784.2514286852374
 30
0.0
 11
13968.80217064596
 21
794.2514286852374
 31
0.0
1001
AUTOCAD_POSTSCRIPT_FIGURE
1002
{
1000
PSFILL
1000
Grayscale
1000
Grayscale
1070
   100
1002
}
  0
LINE
  5
16EBC
330
172A5
100
AcDbEntity
  8
YODOROGO
100
AcDbLine
 10
13922.25479445787
 20
784.2514286852374
 30
0.0
 11
13968.80217064596
 21
784.2514286852374
 31
0.0
1001
AUTOCAD_POSTSCRIPT_FIGURE
1002
{
1000
PSFILL
1000
Grayscale
1000
Grayscale
1070
   100
1002
}
  0
LINE
  5
16EBD
330
172A5
100
AcDbEntity
  8
YODOROGO
100
AcDbLine
 10
13907.77335914239
 20
747.8747482146435
 30
0.0
 11
13922.25479445787
 21
784.2514286852374
 31
0.0
1001
AUTOCAD_POSTSCRIPT_FIGURE
1002
{
1000
PSFILL
1000
Grayscale
1000
Grayscale
1070
   100
1002
}
  0
LINE
  5
16EBE
330
172A5
100
AcDbEntity
  8
YODOROGO
100
AcDbLine
 10
13951.02739540432
 20
747.8747482146435
 30
0.0
 11
13907.77335914239
 21
747.8747482146435
 31
0.0
1001
AUTOCAD_POSTSCRIPT_FIGURE
1002
{
1000
PSFILL
1000
Grayscale
1000
Grayscale
1070
   100
1002
}
  0
LINE
  5
16EBF
330
172A5
100
AcDbEntity
  8
YODOROGO
100
AcDbLine
 10
13942.53250239547
 20
768.1169053488464
 30
0.0
 11
13951.02739540432
 21
747.8747482146435
 31
0.0
1001
AUTOCAD_POSTSCRIPT_FIGURE
1002
{
1000
PSFILL
1000
Grayscale
1000
Grayscale
1070
   100
1002
}
  0
LINE
  5
16EC0
330
172A5
100
AcDbEntity
  8
YODOROGO
100
AcDbLine
 10
13950.53250239547
 20
768.1169053488464
 30
0.0
 11
13942.53250239547
 21
768.1169053488464
 31
0.0
1001
AUTOCAD_POSTSCRIPT_FIGURE
1002
{
1000
PSFILL
1000
Grayscale
1000
Grayscale
1070
   100
1002
}
  0
LINE
  5
16EC1
330
172A5
100
AcDbEntity
  8
YODOROGO
100
AcDbLine
 10
13964.80217064596
 20
737.8747482146437
 30
0.0
 11
13950.53250239547
 21
768.1169053488464
 31
0.0
1001
AUTOCAD_POSTSCRIPT_FIGURE
1002
{
1000
PSFILL
1000
Grayscale
1000
Grayscale
1070
   100
1002
}
  0
LINE
  5
16EC2
330
172A5
100
AcDbEntity
  8
YODOROGO
100
AcDbLine
 10
13892.80217064596
 20
737.8747482146437
 30
0.0
 11
13964.80217064596
 21
737.8747482146437
 31
0.0
1001
AUTOCAD_POSTSCRIPT_FIGURE
1002
{
1000
PSFILL
1000
Grayscale
1000
Grayscale
1070
   100
1002
}
  0
LINE
  5
16EC3
330
172A5
100
AcDbEntity
  8
YODOROGO
100
AcDbLine
 10
13888.80217064596
 20
809.9862070222856
 30
0.0
 11
13888.80217064596
 21
821.986207022285
 31
0.0
  0
LINE
  5
16EC4
330
172A5
100
AcDbEntity
  8
YODOROGO
100
AcDbLine
 10
13968.80217064596
 20
821.986207022285
 30
0.0
 11
13968.80217064596
 21
809.9862070222856
 31
0.0
  0
ARC
  5
16EC5
330
172A5
100
AcDbEntity
  8
YODOROGO
100
AcDbCircle
 10
14112.97022107348
 20
800.438882662663
 30
0.0
 40
87.99999999999995
100
AcDbArc
 50
280.3644312771313
 51
3.541483659218056
  0
ARC
  5
16EC6
330
172A5
100
AcDbEntity
  8
YODOROGO
100
AcDbCircle
 10
14117.87801537965
 20
816.7989034809522
 30
0.0
 40
55.99999999999916
100
AcDbArc
 50
281.2490582504155
 51
348.7509417495832
  0
LINE
  5
16EC7
330
172A5
100
AcDbEntity
  8
YODOROGO
100
AcDbLine
 10
14128.80217064596
 20
761.8747482146434
 30
0.0
 11
14128.80217064596
 21
713.8747482146436
 31
0.0
  0
LINE
  5
16EC8
330
172A5
100
AcDbEntity
  8
YODOROGO
100
AcDbLine
 10
14010.04445186844
 20
805.3252825309574
 30
0.0
 11
14020.45660200845
 21
829.874748214644
 31
0.0
  0
LINE
  5
16EC9
330
172A5
100
AcDbEntity
  8
YODOROGO
100
AcDbLine
 10
14020.80217064596
 20
791.5602449742006
 30
0.0
 11
14010.04445186844
 21
805.3252825309574
 31
0.0
  0
LINE
  5
16ECA
330
172A5
100
AcDbEntity
  8
YODOROGO
100
AcDbLine
 10
14020.80217064596
 20
781.5602449741995
 30
0.0
 11
14020.80217064596
 21
791.5602449742006
 31
0.0
  0
LINE
  5
16ECB
330
172A5
100
AcDbEntity
  8
YODOROGO
100
AcDbLine
 10
14008.80217064596
 20
792.6185318747652
 30
0.0
 11
14020.80217064596
 21
781.5602449741995
 31
0.0
  0
LINE
  5
16ECC
330
172A5
100
AcDbEntity
  8
YODOROGO
100
AcDbLine
 10
14008.80217064596
 20
737.8747482146437
 30
0.0
 11
14008.80217064596
 21
792.6185318747652
 31
0.0
  0
LINE
  5
16ECD
330
172A5
100
AcDbEntity
  8
YODOROGO
100
AcDbLine
 10
14000.80217064596
 20
737.8747482146437
 30
0.0
 11
14008.80217064596
 21
737.8747482146437
 31
0.0
  0
LINE
  5
16ECE
330
172A5
100
AcDbEntity
  8
YODOROGO
100
AcDbLine
 10
14000.80217064596
 20
790.0026748448738
 30
0.0
 11
14000.80217064596
 21
737.8747482146437
 31
0.0
  0
LINE
  5
16ECF
330
172A5
100
AcDbEntity
  8
YODOROGO
100
AcDbLine
 10
13988.80217064596
 20
766.3840395167142
 30
0.0
 11
14000.80217064596
 21
790.0026748448738
 31
0.0
  0
LINE
  5
16ED0
330
172A5
100
AcDbEntity
  8
YODOROGO
100
AcDbLine
 10
13988.80217064596
 20
778.3840395167149
 30
0.0
 11
13988.80217064596
 21
766.3840395167142
 31
0.0
  0
LINE
  5
16ED1
330
172A5
100
AcDbEntity
  8
YODOROGO
100
AcDbLine
 10
14012.91438714567
 20
833.8747482146427
 30
0.0
 11
13988.80217064596
 21
778.3840395167149
 31
0.0
  0
LINE
  5
16ED2
330
172A5
100
AcDbEntity
  8
YODOROGO
100
AcDbLine
 10
13988.80217064596
 20
833.8747482146427
 30
0.0
 11
14012.91438714567
 21
833.8747482146427
 31
0.0
  0
LINE
  5
16ED3
330
172A5
100
AcDbEntity
  8
YODOROGO
100
AcDbLine
 10
14025.06776011545
 20
827.751818637328
 30
0.0
 11
14041.06776011546
 21
827.751818637328
 31
0.0
1001
AUTOCAD_POSTSCRIPT_FIGURE
1002
{
1000
PSFILL
1000
Grayscale
1000
Grayscale
1070
   100
1002
}
  0
LINE
  5
16ED4
330
172A5
100
AcDbEntity
  8
YODOROGO
100
AcDbLine
 10
14025.06776011545
 20
815.7518186373286
 30
0.0
 11
14025.06776011545
 21
827.751818637328
 31
0.0
1001
AUTOCAD_POSTSCRIPT_FIGURE
1002
{
1000
PSFILL
1000
Grayscale
1000
Grayscale
1070
   100
1002
}
  0
LINE
  5
16ED5
330
172A5
100
AcDbEntity
  8
YODOROGO
100
AcDbLine
 10
14041.06776011546
 20
815.7518186373286
 30
0.0
 11
14025.06776011545
 21
815.7518186373286
 31
0.0
1001
AUTOCAD_POSTSCRIPT_FIGURE
1002
{
1000
PSFILL
1000
Grayscale
1000
Grayscale
1070
   100
1002
}
  0
LINE
  5
16ED6
330
172A5
100
AcDbEntity
  8
YODOROGO
100
AcDbLine
 10
14041.06776011546
 20
749.8747482146441
 30
0.0
 11
14041.06776011546
 21
815.7518186373286
 31
0.0
1001
AUTOCAD_POSTSCRIPT_FIGURE
1002
{
1000
PSFILL
1000
Grayscale
1000
Grayscale
1070
   100
1002
}
  0
LINE
  5
16ED7
330
172A5
100
AcDbEntity
  8
YODOROGO
100
AcDbLine
 10
14025.06776011545
 20
749.8747482146441
 30
0.0
 11
14041.06776011546
 21
749.8747482146441
 31
0.0
1001
AUTOCAD_POSTSCRIPT_FIGURE
1002
{
1000
PSFILL
1000
Grayscale
1000
Grayscale
1070
   100
1002
}
  0
LINE
  5
16ED8
330
172A5
100
AcDbEntity
  8
YODOROGO
100
AcDbLine
 10
14025.06776011545
 20
737.8747482146437
 30
0.0
 11
14025.06776011545
 21
749.8747482146441
 31
0.0
1001
AUTOCAD_POSTSCRIPT_FIGURE
1002
{
1000
PSFILL
1000
Grayscale
1000
Grayscale
1070
   100
1002
}
  0
LINE
  5
16ED9
330
172A5
100
AcDbEntity
  8
YODOROGO
100
AcDbLine
 10
14068.80217064596
 20
737.8747482146437
 30
0.0
 11
14025.06776011545
 21
737.8747482146437
 31
0.0
1001
AUTOCAD_POSTSCRIPT_FIGURE
1002
{
1000
PSFILL
1000
Grayscale
1000
Grayscale
1070
   100
1002
}
  0
LINE
  5
16EDA
330
172A5
100
AcDbEntity
  8
YODOROGO
100
AcDbLine
 10
14068.80217064596
 20
749.8747482146441
 30
0.0
 11
14068.80217064596
 21
737.8747482146437
 31
0.0
1001
AUTOCAD_POSTSCRIPT_FIGURE
1002
{
1000
PSFILL
1000
Grayscale
1000
Grayscale
1070
   100
1002
}
  0
LINE
  5
16EDB
330
172A5
100
AcDbEntity
  8
YODOROGO
100
AcDbLine
 10
14049.06776011545
 20
749.8747482146441
 30
0.0
 11
14068.80217064596
 21
749.8747482146441
 31
0.0
1001
AUTOCAD_POSTSCRIPT_FIGURE
1002
{
1000
PSFILL
1000
Grayscale
1000
Grayscale
1070
   100
1002
}
  0
LINE
  5
16EDC
330
172A5
100
AcDbEntity
  8
YODOROGO
100
AcDbLine
 10
14049.06776011545
 20
815.7518186373286
 30
0.0
 11
14049.06776011545
 21
749.8747482146441
 31
0.0
1001
AUTOCAD_POSTSCRIPT_FIGURE
1002
{
1000
PSFILL
1000
Grayscale
1000
Grayscale
1070
   100
1002
}
  0
LINE
  5
16EDD
330
172A5
100
AcDbEntity
  8
YODOROGO
100
AcDbLine
 10
14068.80217064596
 20
815.7518186373286
 30
0.0
 11
14049.06776011545
 21
815.7518186373286
 31
0.0
1001
AUTOCAD_POSTSCRIPT_FIGURE
1002
{
1000
PSFILL
1000
Grayscale
1000
Grayscale
1070
   100
1002
}
  0
LINE
  5
16EDE
330
172A5
100
AcDbEntity
  8
YODOROGO
100
AcDbLine
 10
14068.80217064596
 20
827.751818637328
 30
0.0
 11
14068.80217064596
 21
815.7518186373286
 31
0.0
1001
AUTOCAD_POSTSCRIPT_FIGURE
1002
{
1000
PSFILL
1000
Grayscale
1000
Grayscale
1070
   100
1002
}
  0
LINE
  5
16EDF
330
172A5
100
AcDbEntity
  8
YODOROGO
100
AcDbLine
 10
14049.06776011545
 20
827.751818637328
 30
0.0
 11
14068.80217064596
 21
827.751818637328
 31
0.0
1001
AUTOCAD_POSTSCRIPT_FIGURE
1002
{
1000
PSFILL
1000
Grayscale
1000
Grayscale
1070
   100
1002
}
  0
LINE
  5
16EE0
330
172A5
100
AcDbEntity
  8
YODOROGO
100
AcDbLine
 10
14200.80217064595
 20
833.8747482146439
 30
0.0
 11
14172.80217064596
 21
833.8747482146439
 31
0.0
  0
LINE
  5
16EE1
330
172A5
100
AcDbEntity
  8
YODOROGO
100
AcDbLine
 10
14200.80217064595
 20
805.8747482146443
 30
0.0
 11
14200.80217064595
 21
833.8747482146439
 31
0.0
  0
LINE
  5
16EE2
330
172A5
100
AcDbEntity
  8
YODOROGO
100
AcDbLine
 10
14172.80217064596
 20
833.8747482146439
 30
0.0
 11
14172.80217064596
 21
805.8747482146443
 31
0.0
  0
ARC
  5
16EE3
330
172A5
100
AcDbEntity
  8
YODOROGO
100
AcDbCircle
 10
14256.80217064595
 20
753.8747482146439
 30
0.0
 40
40.0
100
AcDbArc
 50
180.0
 51
270.0
  0
ARC
  5
16EE4
330
172A5
100
AcDbEntity
  8
YODOROGO
100
AcDbCircle
 10
14268.80217064595
 20
781.8747482146434
 30
0.0
 40
20.0
100
AcDbArc
 50
180.0
 51
270.0
  0
LINE
  5
16EE5
330
172A5
100
AcDbEntity
  8
YODOROGO
100
AcDbLine
 10
14280.80217064596
 20
761.8747482146434
 30
0.0
 11
14268.80217064595
 21
761.8747482146434
 31
0.0
  0
ARC
  5
16EE6
330
172A5
100
AcDbEntity
  8
YODOROGO
100
AcDbCircle
 10
14280.80217064596
 20
773.8747482146427
 30
0.0
 40
11.99999999999818
100
AcDbArc
 50
270.0
 51
0.0000000000054281
  0
LINE
  5
16EE7
330
172A5
100
AcDbEntity
  8
YODOROGO
100
AcDbLine
 10
13900.80217064596
 20
945.3932903968532
 30
0.0
 11
13888.80217064596
 21
921.8883739758362
 31
0.0
1001
AUTOCAD_POSTSCRIPT_FIGURE
1002
{
1000
PSFILL
1000
Grayscale
1000
Grayscale
1070
   100
1002
}
  0
LINE
  5
16EE8
330
172A5
100
AcDbEntity
  8
YODOROGO
100
AcDbLine
 10
13900.80217064596
 20
873.8747482146436
 30
0.0
 11
13900.80217064596
 21
945.3932903968532
 31
0.0
1001
AUTOCAD_POSTSCRIPT_FIGURE
1002
{
1000
PSFILL
1000
Grayscale
1000
Grayscale
1070
   100
1002
}
  0
LINE
  5
16EE9
330
172A5
100
AcDbEntity
  8
YODOROGO
100
AcDbLine
 10
13908.80217064596
 20
873.8747482146436
 30
0.0
 11
13900.80217064596
 21
873.8747482146436
 31
0.0
1001
AUTOCAD_POSTSCRIPT_FIGURE
1002
{
1000
PSFILL
1000
Grayscale
1000
Grayscale
1070
   100
1002
}
  0
LINE
  5
16EEA
330
172A5
100
AcDbEntity
  8
YODOROGO
100
AcDbLine
 10
13908.80217064596
 20
946.8856660426334
 30
0.0
 11
13908.80217064596
 21
873.8747482146436
 31
0.0
1001
AUTOCAD_POSTSCRIPT_FIGURE
1002
{
1000
PSFILL
1000
Grayscale
1000
Grayscale
1070
   100
1002
}
  0
LINE
  5
16EEB
330
172A5
100
AcDbEntity
  8
YODOROGO
100
AcDbLine
 10
13920.80217064596
 20
933.8273791420684
 30
0.0
 11
13908.80217064596
 21
946.8856660426334
 31
0.0
1001
AUTOCAD_POSTSCRIPT_FIGURE
1002
{
1000
PSFILL
1000
Grayscale
1000
Grayscale
1070
   100
1002
}
  0
LINE
  5
16EEC
330
172A5
100
AcDbEntity
  8
YODOROGO
100
AcDbLine
 10
13920.80217064596
 20
941.8273791420681
 30
0.0
 11
13920.80217064596
 21
933.8273791420684
 31
0.0
1001
AUTOCAD_POSTSCRIPT_FIGURE
1002
{
1000
PSFILL
1000
Grayscale
1000
Grayscale
1070
   100
1002
}
  0
LINE
  5
16EED
330
172A5
100
AcDbEntity
  8
YODOROGO
100
AcDbLine
 10
13908.80217064596
 20
958.8856660426326
 30
0.0
 11
13920.80217064596
 21
941.8273791420681
 31
0.0
1001
AUTOCAD_POSTSCRIPT_FIGURE
1002
{
1000
PSFILL
1000
Grayscale
1000
Grayscale
1070
   100
1002
}
  0
LINE
  5
16EEE
330
172A5
100
AcDbEntity
  8
YODOROGO
100
AcDbLine
 10
13908.80217064596
 20
969.8747482146441
 30
0.0
 11
13908.80217064596
 21
958.8856660426326
 31
0.0
1001
AUTOCAD_POSTSCRIPT_FIGURE
1002
{
1000
PSFILL
1000
Grayscale
1000
Grayscale
1070
   100
1002
}
  0
LINE
  5
16EEF
330
172A5
100
AcDbEntity
  8
YODOROGO
100
AcDbLine
 10
13944.80217064596
 20
969.8747482146441
 30
0.0
 11
13908.80217064596
 21
969.8747482146441
 31
0.0
1001
AUTOCAD_POSTSCRIPT_FIGURE
1002
{
1000
PSFILL
1000
Grayscale
1000
Grayscale
1070
   100
1002
}
  0
LINE
  5
16EF0
330
172A5
100
AcDbEntity
  8
YODOROGO
100
AcDbLine
 10
13944.80217064596
 20
950.2841744681497
 30
0.0
 11
13944.80217064596
 21
969.8747482146441
 31
0.0
1001
AUTOCAD_POSTSCRIPT_FIGURE
1002
{
1000
PSFILL
1000
Grayscale
1000
Grayscale
1070
   100
1002
}
  0
LINE
  5
16EF1
330
172A5
100
AcDbEntity
  8
YODOROGO
100
AcDbLine
 10
13928.80217064596
 20
950.2841744681497
 30
0.0
 11
13944.80217064596
 21
950.2841744681497
 31
0.0
1001
AUTOCAD_POSTSCRIPT_FIGURE
1002
{
1000
PSFILL
1000
Grayscale
1000
Grayscale
1070
   100
1002
}
  0
LINE
  5
16EF2
330
172A5
100
AcDbEntity
  8
YODOROGO
100
AcDbLine
 10
13928.80217064596
 20
942.2841744681491
 30
0.0
 11
13928.80217064596
 21
950.2841744681497
 31
0.0
1001
AUTOCAD_POSTSCRIPT_FIGURE
1002
{
1000
PSFILL
1000
Grayscale
1000
Grayscale
1070
   100
1002
}
  0
LINE
  5
16EF3
330
172A5
100
AcDbEntity
  8
YODOROGO
100
AcDbLine
 10
13944.80217064596
 20
942.2841744681491
 30
0.0
 11
13928.80217064596
 21
942.2841744681491
 31
0.0
1001
AUTOCAD_POSTSCRIPT_FIGURE
1002
{
1000
PSFILL
1000
Grayscale
1000
Grayscale
1070
   100
1002
}
  0
LINE
  5
16EF4
330
172A5
100
AcDbEntity
  8
YODOROGO
100
AcDbLine
 10
13944.80217064596
 20
939.8095889822197
 30
0.0
 11
13944.80217064596
 21
942.2841744681491
 31
0.0
1001
AUTOCAD_POSTSCRIPT_FIGURE
1002
{
1000
PSFILL
1000
Grayscale
1000
Grayscale
1070
   100
1002
}
  0
LINE
  5
16EF5
330
172A5
100
AcDbEntity
  8
YODOROGO
100
AcDbLine
 10
13924.80217064596
 20
906.4874905807087
 30
0.0
 11
13944.80217064596
 21
939.8095889822197
 31
0.0
1001
AUTOCAD_POSTSCRIPT_FIGURE
1002
{
1000
PSFILL
1000
Grayscale
1000
Grayscale
1070
   100
1002
}
  0
LINE
  5
16EF6
330
172A5
100
AcDbEntity
  8
YODOROGO
100
AcDbLine
 10
13924.80217064596
 20
898.487490580708
 30
0.0
 11
13924.80217064596
 21
906.4874905807087
 31
0.0
1001
AUTOCAD_POSTSCRIPT_FIGURE
1002
{
1000
PSFILL
1000
Grayscale
1000
Grayscale
1070
   100
1002
}
  0
LINE
  5
16EF7
330
172A5
100
AcDbEntity
  8
YODOROGO
100
AcDbLine
 10
13944.80217064596
 20
923.8095889822183
 30
0.0
 11
13924.80217064596
 21
898.487490580708
 31
0.0
1001
AUTOCAD_POSTSCRIPT_FIGURE
1002
{
1000
PSFILL
1000
Grayscale
1000
Grayscale
1070
   100
1002
}
  0
LINE
  5
16EF8
330
172A5
100
AcDbEntity
  8
YODOROGO
100
AcDbLine
 10
13944.80217064596
 20
873.8747482146436
 30
0.0
 11
13944.80217064596
 21
923.8095889822183
 31
0.0
1001
AUTOCAD_POSTSCRIPT_FIGURE
1002
{
1000
PSFILL
1000
Grayscale
1000
Grayscale
1070
   100
1002
}
  0
LINE
  5
16EF9
330
172A5
100
AcDbEntity
  8
YODOROGO
100
AcDbLine
 10
13952.80217064596
 20
873.8747482146436
 30
0.0
 11
13944.80217064596
 21
873.8747482146436
 31
0.0
1001
AUTOCAD_POSTSCRIPT_FIGURE
1002
{
1000
PSFILL
1000
Grayscale
1000
Grayscale
1070
   100
1002
}
  0
LINE
  5
16EFA
330
172A5
100
AcDbEntity
  8
YODOROGO
100
AcDbLine
 10
13952.80217064596
 20
924.7045060794032
 30
0.0
 11
13952.80217064596
 21
873.8747482146436
 31
0.0
1001
AUTOCAD_POSTSCRIPT_FIGURE
1002
{
1000
PSFILL
1000
Grayscale
1000
Grayscale
1070
   100
1002
}
  0
LINE
  5
16EFB
330
172A5
100
AcDbEntity
  8
YODOROGO
100
AcDbLine
 10
13968.80217064596
 20
898.487490580708
 30
0.0
 11
13952.80217064596
 21
924.7045060794032
 31
0.0
1001
AUTOCAD_POSTSCRIPT_FIGURE
1002
{
1000
PSFILL
1000
Grayscale
1000
Grayscale
1070
   100
1002
}
  0
LINE
  5
16EFC
330
172A5
100
AcDbEntity
  8
YODOROGO
100
AcDbLine
 10
13968.80217064596
 20
906.4874905807087
 30
0.0
 11
13968.80217064596
 21
898.487490580708
 31
0.0
1001
AUTOCAD_POSTSCRIPT_FIGURE
1002
{
1000
PSFILL
1000
Grayscale
1000
Grayscale
1070
   100
1002
}
  0
LINE
  5
16EFD
330
172A5
100
AcDbEntity
  8
YODOROGO
100
AcDbLine
 10
13952.80217064596
 20
940.7045060794045
 30
0.0
 11
13968.80217064596
 21
906.4874905807087
 31
0.0
1001
AUTOCAD_POSTSCRIPT_FIGURE
1002
{
1000
PSFILL
1000
Grayscale
1000
Grayscale
1070
   100
1002
}
  0
LINE
  5
16EFE
330
172A5
100
AcDbEntity
  8
YODOROGO
100
AcDbLine
 10
13952.80217064596
 20
942.2841744681502
 30
0.0
 11
13952.80217064596
 21
940.7045060794045
 31
0.0
1001
AUTOCAD_POSTSCRIPT_FIGURE
1002
{
1000
PSFILL
1000
Grayscale
1000
Grayscale
1070
   100
1002
}
  0
LINE
  5
16EFF
330
172A5
100
AcDbEntity
  8
YODOROGO
100
AcDbLine
 10
13968.80217064596
 20
942.2841744681491
 30
0.0
 11
13952.80217064596
 21
942.2841744681502
 31
0.0
1001
AUTOCAD_POSTSCRIPT_FIGURE
1002
{
1000
PSFILL
1000
Grayscale
1000
Grayscale
1070
   100
1002
}
  0
LINE
  5
16F00
330
172A5
100
AcDbEntity
  8
YODOROGO
100
AcDbLine
 10
13968.80217064596
 20
950.2841744681497
 30
0.0
 11
13968.80217064596
 21
942.2841744681491
 31
0.0
1001
AUTOCAD_POSTSCRIPT_FIGURE
1002
{
1000
PSFILL
1000
Grayscale
1000
Grayscale
1070
   100
1002
}
  0
LINE
  5
16F01
330
172A5
100
AcDbEntity
  8
YODOROGO
100
AcDbLine
 10
13952.80217064596
 20
950.2841744681497
 30
0.0
 11
13968.80217064596
 21
950.2841744681497
 31
0.0
1001
AUTOCAD_POSTSCRIPT_FIGURE
1002
{
1000
PSFILL
1000
Grayscale
1000
Grayscale
1070
   100
1002
}
  0
LINE
  5
16F02
330
172A5
100
AcDbEntity
  8
YODOROGO
100
AcDbLine
 10
13952.80217064596
 20
969.8747482146441
 30
0.0
 11
13952.80217064596
 21
950.2841744681497
 31
0.0
1001
AUTOCAD_POSTSCRIPT_FIGURE
1002
{
1000
PSFILL
1000
Grayscale
1000
Grayscale
1070
   100
1002
}
  0
LINE
  5
16F03
330
172A5
100
AcDbEntity
  8
YODOROGO
100
AcDbLine
 10
13968.80217064596
 20
969.8747482146441
 30
0.0
 11
13952.80217064596
 21
969.8747482146441
 31
0.0
1001
AUTOCAD_POSTSCRIPT_FIGURE
1002
{
1000
PSFILL
1000
Grayscale
1000
Grayscale
1070
   100
1002
}
  0
LINE
  5
16F04
330
172A5
100
AcDbEntity
  8
YODOROGO
100
AcDbLine
 10
13968.80217064596
 20
977.8747482146435
 30
0.0
 11
13968.80217064596
 21
969.8747482146441
 31
0.0
1001
AUTOCAD_POSTSCRIPT_FIGURE
1002
{
1000
PSFILL
1000
Grayscale
1000
Grayscale
1070
   100
1002
}
  0
LINE
  5
16F05
330
172A5
100
AcDbEntity
  8
YODOROGO
100
AcDbLine
 10
13952.80217064596
 20
977.8747482146435
 30
0.0
 11
13968.80217064596
 21
977.8747482146435
 31
0.0
1001
AUTOCAD_POSTSCRIPT_FIGURE
1002
{
1000
PSFILL
1000
Grayscale
1000
Grayscale
1070
   100
1002
}
  0
LINE
  5
16F06
330
172A5
100
AcDbEntity
  8
YODOROGO
100
AcDbLine
 10
13952.80217064596
 20
989.8747482146443
 30
0.0
 11
13952.80217064596
 21
977.8747482146435
 31
0.0
1001
AUTOCAD_POSTSCRIPT_FIGURE
1002
{
1000
PSFILL
1000
Grayscale
1000
Grayscale
1070
   100
1002
}
  0
LINE
  5
16F07
330
172A5
100
AcDbEntity
  8
YODOROGO
100
AcDbLine
 10
13944.80217064596
 20
989.8747482146443
 30
0.0
 11
13952.80217064596
 21
989.8747482146443
 31
0.0
1001
AUTOCAD_POSTSCRIPT_FIGURE
1002
{
1000
PSFILL
1000
Grayscale
1000
Grayscale
1070
   100
1002
}
  0
LINE
  5
16F08
330
172A5
100
AcDbEntity
  8
YODOROGO
100
AcDbLine
 10
13944.80217064596
 20
977.8747482146435
 30
0.0
 11
13944.80217064596
 21
989.8747482146443
 31
0.0
1001
AUTOCAD_POSTSCRIPT_FIGURE
1002
{
1000
PSFILL
1000
Grayscale
1000
Grayscale
1070
   100
1002
}
  0
LINE
  5
16F09
330
172A5
100
AcDbEntity
  8
YODOROGO
100
AcDbLine
 10
13932.80217064596
 20
977.8747482146435
 30
0.0
 11
13944.80217064596
 21
977.8747482146435
 31
0.0
1001
AUTOCAD_POSTSCRIPT_FIGURE
1002
{
1000
PSFILL
1000
Grayscale
1000
Grayscale
1070
   100
1002
}
  0
LINE
  5
16F0A
330
172A5
100
AcDbEntity
  8
YODOROGO
100
AcDbLine
 10
13932.80217064596
 20
989.8747482146443
 30
0.0
 11
13932.80217064596
 21
977.8747482146435
 31
0.0
1001
AUTOCAD_POSTSCRIPT_FIGURE
1002
{
1000
PSFILL
1000
Grayscale
1000
Grayscale
1070
   100
1002
}
  0
LINE
  5
16F0B
330
172A5
100
AcDbEntity
  8
YODOROGO
100
AcDbLine
 10
13924.80217064596
 20
989.8747482146443
 30
0.0
 11
13932.80217064596
 21
989.8747482146443
 31
0.0
1001
AUTOCAD_POSTSCRIPT_FIGURE
1002
{
1000
PSFILL
1000
Grayscale
1000
Grayscale
1070
   100
1002
}
  0
LINE
  5
16F0C
330
172A5
100
AcDbEntity
  8
YODOROGO
100
AcDbLine
 10
13924.80217064596
 20
977.8747482146435
 30
0.0
 11
13924.80217064596
 21
989.8747482146443
 31
0.0
1001
AUTOCAD_POSTSCRIPT_FIGURE
1002
{
1000
PSFILL
1000
Grayscale
1000
Grayscale
1070
   100
1002
}
  0
LINE
  5
16F0D
330
172A5
100
AcDbEntity
  8
YODOROGO
100
AcDbLine
 10
13908.80217064596
 20
977.8747482146435
 30
0.0
 11
13924.80217064596
 21
977.8747482146435
 31
0.0
1001
AUTOCAD_POSTSCRIPT_FIGURE
1002
{
1000
PSFILL
1000
Grayscale
1000
Grayscale
1070
   100
1002
}
  0
LINE
  5
16F0E
330
172A5
100
AcDbEntity
  8
YODOROGO
100
AcDbLine
 10
13908.80217064596
 20
989.8747482146443
 30
0.0
 11
13908.80217064596
 21
977.8747482146435
 31
0.0
1001
AUTOCAD_POSTSCRIPT_FIGURE
1002
{
1000
PSFILL
1000
Grayscale
1000
Grayscale
1070
   100
1002
}
  0
LINE
  5
16F0F
330
172A5
100
AcDbEntity
  8
YODOROGO
100
AcDbLine
 10
13900.80217064596
 20
989.8747482146443
 30
0.0
 11
13908.80217064596
 21
989.8747482146443
 31
0.0
1001
AUTOCAD_POSTSCRIPT_FIGURE
1002
{
1000
PSFILL
1000
Grayscale
1000
Grayscale
1070
   100
1002
}
  0
LINE
  5
16F10
330
172A5
100
AcDbEntity
  8
YODOROGO
100
AcDbLine
 10
13900.80217064596
 20
977.8747482146435
 30
0.0
 11
13900.80217064596
 21
989.8747482146443
 31
0.0
1001
AUTOCAD_POSTSCRIPT_FIGURE
1002
{
1000
PSFILL
1000
Grayscale
1000
Grayscale
1070
   100
1002
}
  0
LINE
  5
16F11
330
172A5
100
AcDbEntity
  8
YODOROGO
100
AcDbLine
 10
13888.80217064596
 20
977.8747482146435
 30
0.0
 11
13900.80217064596
 21
977.8747482146435
 31
0.0
1001
AUTOCAD_POSTSCRIPT_FIGURE
1002
{
1000
PSFILL
1000
Grayscale
1000
Grayscale
1070
   100
1002
}
  0
LINE
  5
16F12
330
172A5
100
AcDbEntity
  8
YODOROGO
100
AcDbLine
 10
13888.80217064596
 20
969.8747482146441
 30
0.0
 11
13888.80217064596
 21
977.8747482146435
 31
0.0
1001
AUTOCAD_POSTSCRIPT_FIGURE
1002
{
1000
PSFILL
1000
Grayscale
1000
Grayscale
1070
   100
1002
}
  0
LINE
  5
16F13
330
172A5
100
AcDbEntity
  8
YODOROGO
100
AcDbLine
 10
13900.80217064596
 20
969.8747482146441
 30
0.0
 11
13888.80217064596
 21
969.8747482146441
 31
0.0
1001
AUTOCAD_POSTSCRIPT_FIGURE
1002
{
1000
PSFILL
1000
Grayscale
1000
Grayscale
1070
   100
1002
}
  0
LINE
  5
16F14
330
172A5
100
AcDbEntity
  8
YODOROGO
100
AcDbLine
 10
13900.80217064596
 20
957.3932903968524
 30
0.0
 11
13900.80217064596
 21
969.8747482146441
 31
0.0
1001
AUTOCAD_POSTSCRIPT_FIGURE
1002
{
1000
PSFILL
1000
Grayscale
1000
Grayscale
1070
   100
1002
}
  0
LINE
  5
16F15
330
172A5
100
AcDbEntity
  8
YODOROGO
100
AcDbLine
 10
13888.80217064596
 20
929.8883739758355
 30
0.0
 11
13900.80217064596
 21
957.3932903968524
 31
0.0
1001
AUTOCAD_POSTSCRIPT_FIGURE
1002
{
1000
PSFILL
1000
Grayscale
1000
Grayscale
1070
   100
1002
}
  0
LINE
  5
16F16
330
172A5
100
AcDbEntity
  8
YODOROGO
100
AcDbLine
 10
13888.80217064596
 20
921.8883739758362
 30
0.0
 11
13888.80217064596
 21
929.8883739758355
 31
0.0
1001
AUTOCAD_POSTSCRIPT_FIGURE
1002
{
1000
PSFILL
1000
Grayscale
1000
Grayscale
1070
   100
1002
}
  0
LINE
  5
16F17
330
172A5
100
AcDbEntity
  8
YODOROGO
100
AcDbLine
 10
14128.80217064596
 20
933.8747482146439
 30
0.0
 11
14200.80217064595
 21
912.4388128201532
 31
0.0
1001
AUTOCAD_POSTSCRIPT_FIGURE
1002
{
1000
PSFILL
1000
Grayscale
1000
Grayscale
1070
   100
1002
}
  0
LINE
  5
16F18
330
172A5
100
AcDbEntity
  8
YODOROGO
100
AcDbLine
 10
14200.80217064595
 20
876.4388128201531
 30
0.0
 11
14128.80217064596
 21
897.8747482146435
 31
0.0
1001
AUTOCAD_POSTSCRIPT_FIGURE
1002
{
1000
PSFILL
1000
Grayscale
1000
Grayscale
1070
   100
1002
}
  0
LINE
  5
16F19
330
172A5
100
AcDbEntity
  8
YODOROGO
100
AcDbLine
 10
14200.80217064595
 20
992.4388128201531
 30
0.0
 11
14128.80217064596
 21
1013.874748214644
 31
0.0
1001
AUTOCAD_POSTSCRIPT_FIGURE
1002
{
1000
PSFILL
1000
Grayscale
1000
Grayscale
1070
   100
1002
}
  0
LINE
  5
16F1A
330
172A5
100
AcDbEntity
  8
YODOROGO
100
AcDbLine
 10
14128.80217064596
 20
979.874748214644
 30
0.0
 11
14200.80217064595
 21
958.4388128201537
 31
0.0
1001
AUTOCAD_POSTSCRIPT_FIGURE
1002
{
1000
PSFILL
1000
Grayscale
1000
Grayscale
1070
   100
1002
}
  0
LINE
  5
16F1B
330
172A5
100
AcDbEntity
  8
YODOROGO
100
AcDbLine
 10
14128.80217064596
 20
897.8747482146435
 30
0.0
 11
14128.80217064596
 21
933.8747482146439
 31
0.0
1001
AUTOCAD_POSTSCRIPT_FIGURE
1002
{
1000
PSFILL
1000
Grayscale
1000
Grayscale
1070
   100
1002
}
  0
LINE
  5
16F1C
330
172A5
100
AcDbEntity
  8
YODOROGO
100
AcDbLine
 10
14128.80217064596
 20
1013.874748214644
 30
0.0
 11
14128.80217064596
 21
979.874748214644
 31
0.0
1001
AUTOCAD_POSTSCRIPT_FIGURE
1002
{
1000
PSFILL
1000
Grayscale
1000
Grayscale
1070
   100
1002
}
  0
LINE
  5
16F1D
330
172A5
100
AcDbEntity
  8
YODOROGO
100
AcDbLine
 10
14040.11816010337
 20
969.8747482146441
 30
0.0
 11
14064.80217064595
 21
873.8747482146436
 31
0.0
1001
AUTOCAD_POSTSCRIPT_FIGURE
1002
{
1000
PSFILL
1000
Grayscale
1000
Grayscale
1070
   100
1002
}
  0
LINE
  5
16F1E
330
172A5
100
AcDbEntity
  8
YODOROGO
100
AcDbLine
 10
13988.80217064596
 20
969.8747482146441
 30
0.0
 11
14040.11816010337
 21
969.8747482146441
 31
0.0
1001
AUTOCAD_POSTSCRIPT_FIGURE
1002
{
1000
PSFILL
1000
Grayscale
1000
Grayscale
1070
   100
1002
}
  0
LINE
  5
16F1F
330
172A5
100
AcDbEntity
  8
YODOROGO
100
AcDbLine
 10
13988.80217064596
 20
977.8747482146435
 30
0.0
 11
13988.80217064596
 21
969.8747482146441
 31
0.0
1001
AUTOCAD_POSTSCRIPT_FIGURE
1002
{
1000
PSFILL
1000
Grayscale
1000
Grayscale
1070
   100
1002
}
  0
LINE
  5
16F20
330
172A5
100
AcDbEntity
  8
YODOROGO
100
AcDbLine
 10
14038.30343925995
 20
977.8747482146435
 30
0.0
 11
13988.80217064596
 21
977.8747482146435
 31
0.0
1001
AUTOCAD_POSTSCRIPT_FIGURE
1002
{
1000
PSFILL
1000
Grayscale
1000
Grayscale
1070
   100
1002
}
  0
LINE
  5
16F21
330
172A5
100
AcDbEntity
  8
YODOROGO
100
AcDbLine
 10
14035.58135799485
 20
989.8747482146443
 30
0.0
 11
14038.30343925995
 21
977.8747482146435
 31
0.0
1001
AUTOCAD_POSTSCRIPT_FIGURE
1002
{
1000
PSFILL
1000
Grayscale
1000
Grayscale
1070
   100
1002
}
  0
LINE
  5
16F22
330
172A5
100
AcDbEntity
  8
YODOROGO
100
AcDbLine
 10
14045.58135799485
 20
989.8747482146443
 30
0.0
 11
14035.58135799485
 21
989.8747482146443
 31
0.0
1001
AUTOCAD_POSTSCRIPT_FIGURE
1002
{
1000
PSFILL
1000
Grayscale
1000
Grayscale
1070
   100
1002
}
  0
LINE
  5
16F23
330
172A5
100
AcDbEntity
  8
YODOROGO
100
AcDbLine
 10
14047.90343925997
 20
977.8747482146435
 30
0.0
 11
14045.58135799485
 21
989.8747482146443
 31
0.0
1001
AUTOCAD_POSTSCRIPT_FIGURE
1002
{
1000
PSFILL
1000
Grayscale
1000
Grayscale
1070
   100
1002
}
  0
LINE
  5
16F24
330
172A5
100
AcDbEntity
  8
YODOROGO
100
AcDbLine
 10
14060.80217064596
 20
977.8747482146435
 30
0.0
 11
14047.90343925997
 21
977.8747482146435
 31
0.0
1001
AUTOCAD_POSTSCRIPT_FIGURE
1002
{
1000
PSFILL
1000
Grayscale
1000
Grayscale
1070
   100
1002
}
  0
LINE
  5
16F25
330
172A5
100
AcDbEntity
  8
YODOROGO
100
AcDbLine
 10
14060.80217064596
 20
989.8747482146443
 30
0.0
 11
14060.80217064596
 21
977.8747482146435
 31
0.0
1001
AUTOCAD_POSTSCRIPT_FIGURE
1002
{
1000
PSFILL
1000
Grayscale
1000
Grayscale
1070
   100
1002
}
  0
LINE
  5
16F26
330
172A5
100
AcDbEntity
  8
YODOROGO
100
AcDbLine
 10
14068.80217064596
 20
989.8747482146443
 30
0.0
 11
14060.80217064596
 21
989.8747482146443
 31
0.0
1001
AUTOCAD_POSTSCRIPT_FIGURE
1002
{
1000
PSFILL
1000
Grayscale
1000
Grayscale
1070
   100
1002
}
  0
LINE
  5
16F27
330
172A5
100
AcDbEntity
  8
YODOROGO
100
AcDbLine
 10
14068.80217064596
 20
977.8747482146435
 30
0.0
 11
14068.80217064596
 21
989.8747482146443
 31
0.0
1001
AUTOCAD_POSTSCRIPT_FIGURE
1002
{
1000
PSFILL
1000
Grayscale
1000
Grayscale
1070
   100
1002
}
  0
LINE
  5
16F28
330
172A5
100
AcDbEntity
  8
YODOROGO
100
AcDbLine
 10
14068.80217064596
 20
969.8747482146441
 30
0.0
 11
14068.80217064596
 21
977.8747482146435
 31
0.0
1001
AUTOCAD_POSTSCRIPT_FIGURE
1002
{
1000
PSFILL
1000
Grayscale
1000
Grayscale
1070
   100
1002
}
  0
LINE
  5
16F29
330
172A5
100
AcDbEntity
  8
YODOROGO
100
AcDbLine
 10
14049.4514934367
 20
969.8747482146441
 30
0.0
 11
14068.80217064596
 21
969.8747482146441
 31
0.0
1001
AUTOCAD_POSTSCRIPT_FIGURE
1002
{
1000
PSFILL
1000
Grayscale
1000
Grayscale
1070
   100
1002
}
  0
LINE
  5
16F2A
330
172A5
100
AcDbEntity
  8
YODOROGO
100
AcDbLine
 10
14068.80217064596
 20
873.8747482146436
 30
0.0
 11
14049.4514934367
 21
969.8747482146441
 31
0.0
1001
AUTOCAD_POSTSCRIPT_FIGURE
1002
{
1000
PSFILL
1000
Grayscale
1000
Grayscale
1070
   100
1002
}
  0
LINE
  5
16F2B
330
172A5
100
AcDbEntity
  8
YODOROGO
100
AcDbLine
 10
14064.80217064595
 20
873.8747482146436
 30
0.0
 11
14068.80217064596
 21
873.8747482146436
 31
0.0
1001
AUTOCAD_POSTSCRIPT_FIGURE
1002
{
1000
PSFILL
1000
Grayscale
1000
Grayscale
1070
   100
1002
}
  0
LINE
  5
16F2C
330
172A5
100
AcDbEntity
  8
YODOROGO
100
AcDbLine
 10
14039.03460996689
 20
887.8703881493972
 30
0.0
 11
13988.80217064596
 21
873.8747482146436
 31
0.0
  0
LINE
  5
16F2D
330
172A5
100
AcDbEntity
  8
YODOROGO
100
AcDbLine
 10
14039.03460996689
 20
899.3344897645366
 30
0.0
 11
14039.03460996689
 21
887.8703881493972
 31
0.0
  0
LINE
  5
16F2E
330
172A5
100
AcDbEntity
  8
YODOROGO
100
AcDbLine
 10
14016.91839030643
 20
893.4084665668834
 30
0.0
 11
14039.03460996689
 21
899.3344897645366
 31
0.0
  0
LINE
  5
16F2F
330
172A5
100
AcDbEntity
  8
YODOROGO
100
AcDbLine
 10
14016.91839030643
 20
936.2841744681499
 30
0.0
 11
14016.91839030643
 21
893.4084665668834
 31
0.0
  0
LINE
  5
16F30
330
172A5
100
AcDbEntity
  8
YODOROGO
100
AcDbLine
 10
14039.03460996689
 20
936.2841744681499
 30
0.0
 11
14016.91839030643
 21
936.2841744681499
 31
0.0
  0
LINE
  5
16F31
330
172A5
100
AcDbEntity
  8
YODOROGO
100
AcDbLine
 10
14039.03460996689
 20
946.2841744681487
 30
0.0
 11
14039.03460996689
 21
936.2841744681499
 31
0.0
  0
LINE
  5
16F32
330
172A5
100
AcDbEntity
  8
YODOROGO
100
AcDbLine
 10
13988.80217064596
 20
946.2841744681487
 30
0.0
 11
14039.03460996689
 21
946.2841744681487
 31
0.0
  0
LINE
  5
16F33
330
172A5
100
AcDbEntity
  8
YODOROGO
100
AcDbLine
 10
13988.80217064596
 20
936.2841744681499
 30
0.0
 11
13988.80217064596
 21
946.2841744681487
 31
0.0
  0
LINE
  5
16F34
330
172A5
100
AcDbEntity
  8
YODOROGO
100
AcDbLine
 10
14010.91839030643
 20
936.2841744681499
 30
0.0
 11
13988.80217064596
 21
936.2841744681499
 31
0.0
  0
LINE
  5
16F35
330
172A5
100
AcDbEntity
  8
YODOROGO
100
AcDbLine
 10
14010.91839030643
 20
892.3366697971587
 30
0.0
 11
14010.91839030643
 21
936.2841744681499
 31
0.0
  0
LINE
  5
16F36
330
172A5
100
AcDbEntity
  8
YODOROGO
100
AcDbLine
 10
13988.80217064596
 20
885.8747482146432
 30
0.0
 11
14010.91839030643
 21
892.3366697971587
 31
0.0
  0
LINE
  5
16F37
330
172A5
100
AcDbEntity
  8
YODOROGO
100
AcDbLine
 10
13988.80217064596
 20
873.8747482146436
 30
0.0
 11
13988.80217064596
 21
885.8747482146432
 31
0.0
  0
LINE
  5
16F38
330
172A5
100
AcDbEntity
  8
YODOROGO
100
AcDbLine
 10
14000.80217064596
 20
853.8747482146439
 30
0.0
 11
14000.80217064596
 21
841.8747482146434
 31
0.0
  0
LINE
  5
16F39
330
172A5
100
AcDbEntity
  8
YODOROGO
100
AcDbLine
 10
14000.80217064596
 20
853.8747482146439
 30
0.0
 11
14000.80217064596
 21
853.8747482146439
 31
0.0
  0
LINE
  5
16F3A
330
172A5
100
AcDbEntity
  8
YODOROGO
100
AcDbLine
 10
14008.80217064596
 20
853.8747482146439
 30
0.0
 11
14000.80217064596
 21
853.8747482146439
 31
0.0
  0
LINE
  5
16F3B
330
172A5
100
AcDbEntity
  8
YODOROGO
100
AcDbLine
 10
14008.80217064596
 20
841.8747482146434
 30
0.0
 11
14008.80217064596
 21
853.8747482146439
 31
0.0
  0
LINE
  5
16F3C
330
172A5
100
AcDbEntity
  8
YODOROGO
100
AcDbLine
 10
14020.45660200845
 20
841.8747482146434
 30
0.0
 11
14008.80217064596
 21
841.8747482146434
 31
0.0
  0
LINE
  5
16F3D
330
172A5
100
AcDbEntity
  8
YODOROGO
100
AcDbLine
 10
14000.80217064596
 20
841.8747482146434
 30
0.0
 11
13988.80217064596
 21
841.8747482146434
 31
0.0
  0
LINE
  5
16F3E
330
172A5
100
AcDbEntity
  8
YODOROGO
100
AcDbLine
 10
14041.06776011546
 20
853.8747482146439
 30
0.0
 11
14049.06776011545
 21
853.8747482146439
 31
0.0
1001
AUTOCAD_POSTSCRIPT_FIGURE
1002
{
1000
PSFILL
1000
Grayscale
1000
Grayscale
1070
   100
1002
}
  0
LINE
  5
16F3F
330
172A5
100
AcDbEntity
  8
YODOROGO
100
AcDbLine
 10
14200.80217064595
 20
912.4388128201532
 30
0.0
 11
14200.80217064595
 21
876.4388128201531
 31
0.0
1001
AUTOCAD_POSTSCRIPT_FIGURE
1002
{
1000
PSFILL
1000
Grayscale
1000
Grayscale
1070
   100
1002
}
  0
LINE
  5
16F40
330
172A5
100
AcDbEntity
  8
YODOROGO
100
AcDbLine
 10
14200.80217064595
 20
958.4388128201537
 30
0.0
 11
14200.80217064595
 21
992.4388128201531
 31
0.0
1001
AUTOCAD_POSTSCRIPT_FIGURE
1002
{
1000
PSFILL
1000
Grayscale
1000
Grayscale
1070
   100
1002
}
  0
LINE
  5
16F41
330
172A5
100
AcDbEntity
  8
YODOROGO
100
AcDbLine
 10
14216.80217064595
 20
909.8747482146439
 30
0.0
 11
14216.80217064595
 21
873.8747482146449
 31
0.0
  0
LINE
  5
16F42
330
172A5
100
AcDbEntity
  8
YODOROGO
100
AcDbLine
 10
14248.80217064595
 20
853.8747482146439
 30
0.0
 11
14216.80217064595
 21
853.8747482146439
 31
0.0
  0
LINE
  5
16F43
330
172A5
100
AcDbEntity
  8
YODOROGO
100
AcDbLine
 10
14216.80217064595
 20
873.8747482146449
 30
0.0
 11
14292.80217064596
 21
873.8747482146449
 31
0.0
  0
LINE
  5
16F44
330
172A5
100
AcDbEntity
  8
YODOROGO
100
AcDbLine
 10
14248.80217064595
 20
933.8747482146439
 30
0.0
 11
14216.80217064595
 21
933.8747482146439
 31
0.0
  0
LINE
  5
16F45
330
172A5
100
AcDbEntity
  8
YODOROGO
100
AcDbLine
 10
14248.80217064595
 20
961.8747482146432
 30
0.0
 11
14248.80217064595
 21
933.8747482146439
 31
0.0
  0
LINE
  5
16F46
330
172A5
100
AcDbEntity
  8
YODOROGO
100
AcDbLine
 10
14292.80217064596
 20
993.8747482146439
 30
0.0
 11
14292.80217064596
 21
1013.874748214644
 31
0.0
  0
LINE
  5
16F47
330
172A5
100
AcDbEntity
  8
YODOROGO
100
AcDbLine
 10
14216.80217064595
 20
993.8747482146439
 30
0.0
 11
14292.80217064596
 21
993.8747482146439
 31
0.0
  0
LINE
  5
16F48
330
172A5
100
AcDbEntity
  8
YODOROGO
100
AcDbLine
 10
14216.80217064595
 20
933.8747482146439
 30
0.0
 11
14216.80217064595
 21
993.8747482146439
 31
0.0
  0
LINE
  5
16F49
330
172A5
100
AcDbEntity
  8
YODOROGO
100
AcDbLine
 10
14500.80217064595
 20
1013.874748214644
 30
0.0
 11
14500.80217064595
 21
809.8747482146441
 31
0.0
  0
LINE
  5
16F4A
330
172A5
100
AcDbEntity
  8
YODOROGO
100
AcDbLine
 10
14536.80217064596
 20
789.8747482146441
 30
0.0
 11
14536.80217064596
 21
1013.874748214644
 31
0.0
  0
LINE
  5
16F4B
330
172A5
100
AcDbEntity
  8
YODOROGO
100
AcDbLine
 10
14630.80217064596
 20
745.8747482146431
 30
0.0
 11
14630.80217064596
 21
1003.874748214644
 31
0.0
  0
LINE
  5
16F4C
330
172A5
100
AcDbEntity
  8
YODOROGO
100
AcDbLine
 10
14598.80217064596
 20
1003.874748214644
 30
0.0
 11
14598.80217064596
 21
745.8747482146431
 31
0.0
  0
LINE
  5
16F4D
330
172A5
100
AcDbEntity
  8
YODOROGO
100
AcDbLine
 10
14692.80217064596
 20
1013.874748214644
 30
0.0
 11
14692.80217064596
 21
713.8747482146436
 31
0.0
  0
LINE
  5
16F4E
330
172A5
100
AcDbEntity
  8
YODOROGO
100
AcDbLine
 10
14728.80217064596
 20
713.8747482146436
 30
0.0
 11
14728.80217064596
 21
1013.874748214644
 31
0.0
  0
LINE
  5
16F4F
330
172A5
100
AcDbEntity
  8
YODOROGO
100
AcDbLine
 10
14328.80217064595
 20
833.8747482146439
 30
0.0
 11
14328.80217064595
 21
873.8747482146449
 31
0.0
  0
LINE
  5
16F50
330
172A5
100
AcDbEntity
  8
YODOROGO
100
AcDbLine
 10
14942.80217064596
 20
853.8747482146439
 30
0.0
 11
14942.80217064596
 21
833.8747482146439
 31
0.0
  0
LINE
  5
16F51
330
172A5
100
AcDbEntity
  8
YODOROGO
100
AcDbLine
 10
14942.80217064596
 20
853.8747482146439
 30
0.0
 11
14942.80217064596
 21
833.8747482146439
 31
0.0
  0
ARC
  5
16F52
330
172A5
100
AcDbEntity
  8
YODOROGO
100
AcDbCircle
 10
14453.45578809341
 20
809.1089322211365
 30
0.0
 40
47.35257558937083
100
AcDbArc
 50
274.052441629071
 51
0.9266642149310712
  0
ARC
  5
16F53
330
172A5
100
AcDbEntity
  8
YODOROGO
100
AcDbCircle
 10
14454.59308535991
 20
796.30536430522
 30
0.0
 40
82.46021178042756
100
AcDbArc
 50
271.5351210653778
 51
355.5272775058505
  0
LINE
  5
16F54
330
172A5
100
AcDbEntity
  8
YODOROGO
100
AcDbLine
 10
14456.80217064596
 20
761.8747482146434
 30
0.0
 11
14456.80217064596
 21
713.8747482146436
 31
0.0
  0
LINE
  5
16F55
330
172A5
100
AcDbEntity
  8
YODOROGO
100
AcDbLine
 10
14396.80217064594
 20
833.8747482146439
 30
0.0
 11
14328.80217064595
 21
833.8747482146439
 31
0.0
  0
LINE
  5
16F56
330
172A5
100
AcDbEntity
  8
YODOROGO
100
AcDbLine
 10
14396.80217064594
 20
801.8747482146446
 30
0.0
 11
14396.80217064594
 21
833.8747482146439
 31
0.0
  0
LINE
  5
16F57
330
172A5
100
AcDbEntity
  8
YODOROGO
100
AcDbLine
 10
14328.80217064595
 20
801.8747482146446
 30
0.0
 11
14396.80217064594
 21
801.8747482146446
 31
0.0
  0
LINE
  5
16F58
330
172A5
100
AcDbEntity
  8
YODOROGO
100
AcDbLine
 10
14328.80217064595
 20
761.8747482146434
 30
0.0
 11
14328.80217064595
 21
801.8747482146446
 31
0.0
  0
LINE
  5
16F59
330
172A5
100
AcDbEntity
  8
YODOROGO
100
AcDbLine
 10
14396.80217064594
 20
761.8747482146434
 30
0.0
 11
14328.80217064595
 21
761.8747482146434
 31
0.0
  0
LINE
  5
16F5A
330
172A5
100
AcDbEntity
  8
YODOROGO
100
AcDbLine
 10
14396.80217064594
 20
713.8747482146436
 30
0.0
 11
14396.80217064594
 21
761.8747482146434
 31
0.0
  0
LINE
  5
16F5B
330
172A5
100
AcDbEntity
  8
YODOROGO
100
AcDbLine
 10
14598.80217064596
 20
745.8747482146431
 30
0.0
 11
14630.80217064596
 21
745.8747482146431
 31
0.0
  0
LINE
  5
16F5C
330
172A5
100
AcDbEntity
  8
YODOROGO
100
AcDbLine
 10
14692.80217064596
 20
713.8747482146436
 30
0.0
 11
14728.80217064596
 21
713.8747482146436
 31
0.0
  0
LINE
  5
16F5D
330
172A5
100
AcDbEntity
  8
YODOROGO
100
AcDbLine
 10
14868.80217064596
 20
764.2207260852821
 30
0.0
 11
14868.80217064596
 21
713.8747482146436
 31
0.0
  0
LINE
  5
16F5E
330
172A5
100
AcDbEntity
  8
YODOROGO
100
AcDbLine
 10
14808.80217064596
 20
713.8747482146436
 30
0.0
 11
14868.80217064596
 21
764.2207260852821
 31
0.0
  0
LINE
  5
16F5F
330
172A5
100
AcDbEntity
  8
YODOROGO
100
AcDbLine
 10
14808.80217064596
 20
773.8747482146439
 30
0.0
 11
14808.80217064596
 21
713.8747482146436
 31
0.0
  0
LINE
  5
16F60
330
172A5
100
AcDbEntity
  8
YODOROGO
100
AcDbLine
 10
14856.47231434973
 20
813.8747482146436
 30
0.0
 11
14808.80217064596
 21
773.8747482146439
 31
0.0
  0
LINE
  5
16F61
330
172A5
100
AcDbEntity
  8
YODOROGO
100
AcDbLine
 10
14808.80217064596
 20
813.8747482146436
 30
0.0
 11
14856.47231434973
 21
813.8747482146436
 31
0.0
  0
LINE
  5
16F62
330
172A5
100
AcDbEntity
  8
YODOROGO
100
AcDbLine
 10
14808.80217064596
 20
833.8747482146439
 30
0.0
 11
14808.80217064596
 21
813.8747482146436
 31
0.0
  0
LINE
  5
16F63
330
172A5
100
AcDbEntity
  8
YODOROGO
100
AcDbLine
 10
14942.80217064596
 20
833.8747482146439
 30
0.0
 11
14808.80217064596
 21
833.8747482146439
 31
0.0
  0
LINE
  5
16F64
330
172A5
100
AcDbEntity
  8
YODOROGO
100
AcDbLine
 10
14958.80217064596
 20
813.8747482146436
 30
0.0
 11
14888.80217064596
 21
813.8747482146436
 31
0.0
  0
LINE
  5
16F65
330
172A5
100
AcDbEntity
  8
YODOROGO
100
AcDbLine
 10
14888.80217064596
 20
781.0027187088283
 30
0.0
 11
14885.70493649264
 21
778.403830673117
 31
0.0
  0
LINE
  5
16F66
330
172A5
100
AcDbEntity
  8
YODOROGO
100
AcDbLine
 10
14888.80217064596
 20
813.8747482146436
 30
0.0
 11
14888.80217064596
 21
781.0027187088283
 31
0.0
  0
LINE
  5
16F67
330
172A5
100
AcDbEntity
  8
YODOROGO
100
AcDbLine
 10
14868.80217064596
 20
764.2207260852821
 30
0.0
 11
14868.80217064596
 21
713.8747482146436
 31
0.0
  0
LINE
  5
16F68
330
172A5
100
AcDbEntity
  8
YODOROGO
100
AcDbLine
 10
14808.80217064596
 20
713.8747482146436
 30
0.0
 11
14868.80217064596
 21
764.2207260852821
 31
0.0
  0
LINE
  5
16F69
330
172A5
100
AcDbEntity
  8
YODOROGO
100
AcDbLine
 10
14808.80217064596
 20
773.8747482146439
 30
0.0
 11
14808.80217064596
 21
713.8747482146436
 31
0.0
  0
LINE
  5
16F6A
330
172A5
100
AcDbEntity
  8
YODOROGO
100
AcDbLine
 10
14856.47231434973
 20
813.8747482146436
 30
0.0
 11
14808.80217064596
 21
773.8747482146439
 31
0.0
  0
LINE
  5
16F6B
330
172A5
100
AcDbEntity
  8
YODOROGO
100
AcDbLine
 10
14808.80217064596
 20
813.8747482146436
 30
0.0
 11
14856.47231434973
 21
813.8747482146436
 31
0.0
  0
LINE
  5
16F6C
330
172A5
100
AcDbEntity
  8
YODOROGO
100
AcDbLine
 10
14808.80217064596
 20
833.8747482146439
 30
0.0
 11
14808.80217064596
 21
813.8747482146436
 31
0.0
  0
LINE
  5
16F6D
330
172A5
100
AcDbEntity
  8
YODOROGO
100
AcDbLine
 10
14942.80217064596
 20
833.8747482146439
 30
0.0
 11
14808.80217064596
 21
833.8747482146439
 31
0.0
  0
LINE
  5
16F6E
330
172A5
100
AcDbEntity
  8
YODOROGO
100
AcDbLine
 10
14396.80217064594
 20
873.8747482146449
 30
0.0
 11
14396.80217064594
 21
909.8747482146439
 31
0.0
  0
LINE
  5
16F6F
330
172A5
100
AcDbEntity
  8
YODOROGO
100
AcDbLine
 10
14328.80217064595
 20
873.8747482146449
 30
0.0
 11
14396.80217064594
 21
873.8747482146449
 31
0.0
  0
LINE
  5
16F70
330
172A5
100
AcDbEntity
  8
YODOROGO
100
AcDbLine
 10
14364.80217064596
 20
933.8747482146439
 30
0.0
 11
14364.80217064596
 21
961.8747482146432
 31
0.0
  0
LINE
  5
16F71
330
172A5
100
AcDbEntity
  8
YODOROGO
100
AcDbLine
 10
14396.80217064594
 20
933.8747482146439
 30
0.0
 11
14364.80217064596
 21
933.8747482146439
 31
0.0
  0
LINE
  5
16F72
330
172A5
100
AcDbEntity
  8
YODOROGO
100
AcDbLine
 10
14396.80217064594
 20
973.8747482146436
 30
0.0
 11
14396.80217064594
 21
933.8747482146439
 31
0.0
  0
ARC
  5
16F73
330
172A5
100
AcDbEntity
  8
YODOROGO
100
AcDbCircle
 10
14376.80217064595
 20
973.8747482146436
 30
0.0
 40
20.0
100
AcDbArc
 50
0.0
 51
90.0
  0
LINE
  5
16F74
330
172A5
100
AcDbEntity
  8
YODOROGO
100
AcDbLine
 10
14328.80217064596
 20
993.8747482146439
 30
0.0
 11
14376.80217064595
 21
993.8747482146439
 31
0.0
  0
LINE
  5
16F75
330
172A5
100
AcDbEntity
  8
YODOROGO
100
AcDbLine
 10
14328.80217064596
 20
1013.874748214644
 30
0.0
 11
14328.80217064596
 21
993.8747482146439
 31
0.0
  0
LINE
  5
16F76
330
172A5
100
AcDbEntity
  8
YODOROGO
100
AcDbLine
 10
14536.80217064596
 20
1013.874748214644
 30
0.0
 11
14500.80217064595
 21
1013.874748214644
 31
0.0
  0
LINE
  5
16F77
330
172A5
100
AcDbEntity
  8
YODOROGO
100
AcDbLine
 10
14630.80217064596
 20
1003.874748214644
 30
0.0
 11
14598.80217064596
 21
1003.874748214644
 31
0.0
  0
LINE
  5
16F78
330
172A5
100
AcDbEntity
  8
YODOROGO
100
AcDbLine
 10
14728.80217064596
 20
1013.874748214644
 30
0.0
 11
14692.80217064596
 21
1013.874748214644
 31
0.0
  0
LINE
  5
16F79
330
172A5
100
AcDbEntity
  8
YODOROGO
100
AcDbLine
 10
14836.80217064596
 20
853.8747482146439
 30
0.0
 11
14836.80217064596
 21
885.8747482146442
 31
0.0
1001
AUTOCAD_POSTSCRIPT_FIGURE
1002
{
1000
PSFILL
1000
Grayscale
1000
Grayscale
1070
    25
1002
}
  0
LINE
  5
16F7A
330
172A5
100
AcDbEntity
  8
YODOROGO
100
AcDbLine
 10
14808.80217064596
 20
853.8747482146439
 30
0.0
 11
14836.80217064596
 21
853.8747482146439
 31
0.0
1001
AUTOCAD_POSTSCRIPT_FIGURE
1002
{
1000
PSFILL
1000
Grayscale
1000
Grayscale
1070
    25
1002
}
  0
LINE
  5
16F7B
330
172A5
100
AcDbEntity
  8
YODOROGO
100
AcDbLine
 10
14808.80217064596
 20
909.8747482146439
 30
0.0
 11
14808.80217064596
 21
853.8747482146439
 31
0.0
1001
AUTOCAD_POSTSCRIPT_FIGURE
1002
{
1000
PSFILL
1000
Grayscale
1000
Grayscale
1070
    25
1002
}
  0
LINE
  5
16F7C
330
172A5
100
AcDbEntity
  8
YODOROGO
100
AcDbLine
 10
14882.80217064596
 20
909.8747482146439
 30
0.0
 11
14808.80217064596
 21
909.8747482146439
 31
0.0
1001
AUTOCAD_POSTSCRIPT_FIGURE
1002
{
1000
PSFILL
1000
Grayscale
1000
Grayscale
1070
    25
1002
}
  0
LINE
  5
16F7D
330
172A5
100
AcDbEntity
  8
YODOROGO
100
AcDbLine
 10
14882.80217064596
 20
929.874748214644
 30
0.0
 11
14882.80217064596
 21
909.8747482146439
 31
0.0
1001
AUTOCAD_POSTSCRIPT_FIGURE
1002
{
1000
PSFILL
1000
Grayscale
1000
Grayscale
1070
    25
1002
}
  0
LINE
  5
16F7E
330
172A5
100
AcDbEntity
  8
YODOROGO
100
AcDbLine
 10
14808.80217064596
 20
929.874748214644
 30
0.0
 11
14882.80217064596
 21
929.874748214644
 31
0.0
1001
AUTOCAD_POSTSCRIPT_FIGURE
1002
{
1000
PSFILL
1000
Grayscale
1000
Grayscale
1070
    25
1002
}
  0
LINE
  5
16F7F
330
172A5
100
AcDbEntity
  8
YODOROGO
100
AcDbLine
 10
14808.80217064596
 20
953.874748214644
 30
0.0
 11
14808.80217064596
 21
929.874748214644
 31
0.0
1001
AUTOCAD_POSTSCRIPT_FIGURE
1002
{
1000
PSFILL
1000
Grayscale
1000
Grayscale
1070
    25
1002
}
  0
LINE
  5
16F80
330
172A5
100
AcDbEntity
  8
YODOROGO
100
AcDbLine
 10
14882.80217064596
 20
953.874748214644
 30
0.0
 11
14808.80217064596
 21
953.874748214644
 31
0.0
1001
AUTOCAD_POSTSCRIPT_FIGURE
1002
{
1000
PSFILL
1000
Grayscale
1000
Grayscale
1070
    25
1002
}
  0
LINE
  5
16F81
330
172A5
100
AcDbEntity
  8
YODOROGO
100
AcDbLine
 10
14882.80217064596
 20
973.8747482146436
 30
0.0
 11
14882.80217064596
 21
953.874748214644
 31
0.0
1001
AUTOCAD_POSTSCRIPT_FIGURE
1002
{
1000
PSFILL
1000
Grayscale
1000
Grayscale
1070
    25
1002
}
  0
LINE
  5
16F82
330
172A5
100
AcDbEntity
  8
YODOROGO
100
AcDbLine
 10
14808.80217064596
 20
973.8747482146436
 30
0.0
 11
14882.80217064596
 21
973.8747482146436
 31
0.0
1001
AUTOCAD_POSTSCRIPT_FIGURE
1002
{
1000
PSFILL
1000
Grayscale
1000
Grayscale
1070
    25
1002
}
  0
LINE
  5
16F83
330
172A5
100
AcDbEntity
  8
YODOROGO
100
AcDbLine
 10
14808.80217064596
 20
1013.874748214644
 30
0.0
 11
14808.80217064596
 21
973.8747482146436
 31
0.0
1001
AUTOCAD_POSTSCRIPT_FIGURE
1002
{
1000
PSFILL
1000
Grayscale
1000
Grayscale
1070
    25
1002
}
  0
LINE
  5
16F84
330
172A5
100
AcDbEntity
  8
YODOROGO
100
AcDbLine
 10
14832.80217064596
 20
1013.874748214644
 30
0.0
 11
14808.80217064596
 21
1013.874748214644
 31
0.0
1001
AUTOCAD_POSTSCRIPT_FIGURE
1002
{
1000
PSFILL
1000
Grayscale
1000
Grayscale
1070
    25
1002
}
  0
LINE
  5
16F85
330
172A5
100
AcDbEntity
  8
YODOROGO
100
AcDbLine
 10
14832.80217064596
 20
997.8747482146435
 30
0.0
 11
14832.80217064596
 21
1013.874748214644
 31
0.0
1001
AUTOCAD_POSTSCRIPT_FIGURE
1002
{
1000
PSFILL
1000
Grayscale
1000
Grayscale
1070
    25
1002
}
  0
LINE
  5
16F86
330
172A5
100
AcDbEntity
  8
YODOROGO
100
AcDbLine
 10
14882.80217064596
 20
997.8747482146435
 30
0.0
 11
14832.80217064596
 21
997.8747482146435
 31
0.0
1001
AUTOCAD_POSTSCRIPT_FIGURE
1002
{
1000
PSFILL
1000
Grayscale
1000
Grayscale
1070
    25
1002
}
  0
LINE
  5
16F87
330
172A5
100
AcDbEntity
  8
YODOROGO
100
AcDbLine
 10
14882.80217064596
 20
1013.874748214644
 30
0.0
 11
14882.80217064596
 21
997.8747482146435
 31
0.0
1001
AUTOCAD_POSTSCRIPT_FIGURE
1002
{
1000
PSFILL
1000
Grayscale
1000
Grayscale
1070
    25
1002
}
  0
LINE
  5
16F88
330
172A5
100
AcDbEntity
  8
YODOROGO
100
AcDbLine
 10
14914.80217064596
 20
1013.874748214644
 30
0.0
 11
14882.80217064596
 21
1013.874748214644
 31
0.0
1001
AUTOCAD_POSTSCRIPT_FIGURE
1002
{
1000
PSFILL
1000
Grayscale
1000
Grayscale
1070
    25
1002
}
  0
LINE
  5
16F89
330
172A5
100
AcDbEntity
  8
YODOROGO
100
AcDbLine
 10
14914.80217064596
 20
997.8747482146435
 30
0.0
 11
14914.80217064596
 21
1013.874748214644
 31
0.0
1001
AUTOCAD_POSTSCRIPT_FIGURE
1002
{
1000
PSFILL
1000
Grayscale
1000
Grayscale
1070
    25
1002
}
  0
LINE
  5
16F8A
330
172A5
100
AcDbEntity
  8
YODOROGO
100
AcDbLine
 10
14914.80217064596
 20
953.874748214644
 30
0.0
 11
14914.80217064596
 21
973.8747482146436
 31
0.0
1001
AUTOCAD_POSTSCRIPT_FIGURE
1002
{
1000
PSFILL
1000
Grayscale
1000
Grayscale
1070
    25
1002
}
  0
LINE
  5
16F8B
330
172A5
100
AcDbEntity
  8
YODOROGO
100
AcDbLine
 10
14914.80217064596
 20
909.8747482146439
 30
0.0
 11
14914.80217064596
 21
929.874748214644
 31
0.0
1001
AUTOCAD_POSTSCRIPT_FIGURE
1002
{
1000
PSFILL
1000
Grayscale
1000
Grayscale
1070
    25
1002
}
  0
LINE
  5
16F8C
330
172A5
100
AcDbEntity
  8
YODOROGO
100
AcDbLine
 10
14960.80217064594
 20
885.8747482146442
 30
0.0
 11
14960.80217064594
 21
853.8747482146439
 31
0.0
1001
AUTOCAD_POSTSCRIPT_FIGURE
1002
{
1000
PSFILL
1000
Grayscale
1000
Grayscale
1070
    25
1002
}
  0
LINE
  5
16F8D
330
172A5
100
AcDbEntity
  8
YODOROGO
100
AcDbLine
 10
14914.80217064596
 20
885.8747482146442
 30
0.0
 11
14960.80217064594
 21
885.8747482146442
 31
0.0
1001
AUTOCAD_POSTSCRIPT_FIGURE
1002
{
1000
PSFILL
1000
Grayscale
1000
Grayscale
1070
    25
1002
}
  0
LINE
  5
16F8E
330
172A5
100
AcDbEntity
  8
YODOROGO
100
AcDbLine
 10
14914.80217064596
 20
853.8747482146439
 30
0.0
 11
14914.80217064596
 21
885.8747482146442
 31
0.0
1001
AUTOCAD_POSTSCRIPT_FIGURE
1002
{
1000
PSFILL
1000
Grayscale
1000
Grayscale
1070
    25
1002
}
  0
LINE
  5
16F8F
330
172A5
100
AcDbEntity
  8
YODOROGO
100
AcDbLine
 10
14882.80217064596
 20
853.8747482146439
 30
0.0
 11
14914.80217064596
 21
853.8747482146439
 31
0.0
1001
AUTOCAD_POSTSCRIPT_FIGURE
1002
{
1000
PSFILL
1000
Grayscale
1000
Grayscale
1070
    25
1002
}
  0
LINE
  5
16F90
330
172A5
100
AcDbEntity
  8
YODOROGO
100
AcDbLine
 10
14882.80217064596
 20
885.8747482146442
 30
0.0
 11
14882.80217064596
 21
853.8747482146439
 31
0.0
1001
AUTOCAD_POSTSCRIPT_FIGURE
1002
{
1000
PSFILL
1000
Grayscale
1000
Grayscale
1070
    25
1002
}
  0
LINE
  5
16F91
330
172A5
100
AcDbEntity
  8
YODOROGO
100
AcDbLine
 10
14836.80217064596
 20
885.8747482146442
 30
0.0
 11
14882.80217064596
 21
885.8747482146442
 31
0.0
1001
AUTOCAD_POSTSCRIPT_FIGURE
1002
{
1000
PSFILL
1000
Grayscale
1000
Grayscale
1070
    25
1002
}
  0
ARC
  5
16F92
330
172A5
100
AcDbEntity
  8
YODOROGO
100
AcDbCircle
 10
15529.75894667896
 20
801.3403687577882
 30
0.0
 40
89.11064055536078
100
AcDbArc
 50
281.0262749542535
 51
357.771135755738
  0
LINE
  5
16F93
330
172A5
100
AcDbEntity
  8
YODOROGO
100
AcDbLine
 10
15706.80217064596
 20
953.874748214644
 30
0.0
 11
15582.80217064596
 21
953.874748214644
 31
0.0
  0
LINE
  5
16F94
330
172A5
100
AcDbEntity
  8
YODOROGO
100
AcDbLine
 10
15706.80217064596
 20
1013.874748214644
 30
0.0
 11
15582.80217064596
 21
1013.874748214644
 31
0.0
  0
LINE
  5
16F95
330
172A5
100
AcDbEntity
  8
YODOROGO
100
AcDbLine
 10
15582.80217064596
 20
981.8747482146434
 30
0.0
 11
15706.80217064596
 21
981.8747482146434
 31
0.0
  0
LINE
  5
16F96
330
172A5
100
AcDbEntity
  8
YODOROGO
100
AcDbLine
 10
15395.80217064596
 20
781.8747482146434
 30
0.0
 11
15395.80217064596
 21
877.8747482146437
 31
0.0
  0
LINE
  5
16F97
330
172A5
100
AcDbEntity
  8
YODOROGO
100
AcDbLine
 10
15381.80217064596
 20
845.8747482146444
 30
0.0
 11
15381.80217064596
 21
781.8747482146434
 31
0.0
  0
LINE
  5
16F98
330
172A5
100
AcDbEntity
  8
YODOROGO
100
AcDbLine
 10
15361.80217064596
 20
745.8747482146443
 30
0.0
 11
15361.80217064596
 21
845.8747482146444
 31
0.0
  0
LINE
  5
16F99
330
172A5
100
AcDbEntity
  8
YODOROGO
100
AcDbLine
 10
15449.80217064596
 20
845.8747482146444
 30
0.0
 11
15449.80217064596
 21
745.8747482146443
 31
0.0
  0
LINE
  5
16F9A
330
172A5
100
AcDbEntity
  8
YODOROGO
100
AcDbLine
 10
15429.80217064596
 20
781.8747482146434
 30
0.0
 11
15429.80217064596
 21
845.8747482146444
 31
0.0
  0
LINE
  5
16F9B
330
172A5
100
AcDbEntity
  8
YODOROGO
100
AcDbLine
 10
15415.80217064596
 20
877.8747482146437
 30
0.0
 11
15415.80217064596
 21
781.8747482146434
 31
0.0
  0
LINE
  5
16F9C
330
172A5
100
AcDbEntity
  8
YODOROGO
100
AcDbLine
 10
15486.80217064596
 20
1013.874748214644
 30
0.0
 11
15486.80217064596
 21
733.8747482146437
 31
0.0
  0
LINE
  5
16F9D
330
172A5
100
AcDbEntity
  8
YODOROGO
100
AcDbLine
 10
15322.80217064596
 20
713.8747482146436
 30
0.0
 11
15322.80217064596
 21
1013.874748214644
 31
0.0
  0
LINE
  5
16F9E
330
172A5
100
AcDbEntity
  8
YODOROGO
100
AcDbLine
 10
15348.80217064596
 20
981.8747482146434
 30
0.0
 11
15348.80217064596
 21
713.8747482146436
 31
0.0
  0
LINE
  5
16F9F
330
172A5
100
AcDbEntity
  8
YODOROGO
100
AcDbLine
 10
15462.80217064596
 20
773.8747482146439
 30
0.0
 11
15462.80217064596
 21
981.8747482146434
 31
0.0
  0
LINE
  5
16FA0
330
172A5
100
AcDbEntity
  8
YODOROGO
100
AcDbLine
 10
15190.80217064596
 20
813.8747482146436
 30
0.0
 11
15190.80217064596
 21
839.8747482146443
 31
0.0
  0
LINE
  5
16FA1
330
172A5
100
AcDbEntity
  8
YODOROGO
100
AcDbLine
 10
15308.80217064596
 20
839.8747482146443
 30
0.0
 11
15308.80217064596
 21
813.8747482146436
 31
0.0
  0
LINE
  5
16FA2
330
172A5
100
AcDbEntity
  8
YODOROGO
100
AcDbLine
 10
15582.80217064596
 20
953.874748214644
 30
0.0
 11
15582.80217064596
 21
817.8747482146436
 31
0.0
  0
LINE
  5
16FA3
330
172A5
100
AcDbEntity
  8
YODOROGO
100
AcDbLine
 10
14974.80217064595
 20
833.8747482146439
 30
0.0
 11
14974.80217064595
 21
853.8747482146439
 31
0.0
  0
LINE
  5
16FA4
330
172A5
100
AcDbEntity
  8
YODOROGO
100
AcDbLine
 10
14974.80217064595
 20
833.8747482146439
 30
0.0
 11
14974.80217064595
 21
853.8747482146439
 31
0.0
  0
ARC
  5
16FA5
330
172A5
100
AcDbEntity
  8
YODOROGO
100
AcDbCircle
 10
15268.80217064596
 20
753.8747482146439
 30
0.0
 40
40.0
100
AcDbArc
 50
270.0
 51
0.0
  0
LINE
  5
16FA6
330
172A5
100
AcDbEntity
  8
YODOROGO
100
AcDbLine
 10
15284.80217064596
 20
799.8747482146441
 30
0.0
 11
15308.80217064596
 21
799.8747482146441
 31
0.0
  0
LINE
  5
16FA7
330
172A5
100
AcDbEntity
  8
YODOROGO
100
AcDbLine
 10
15308.80217064596
 20
813.8747482146436
 30
0.0
 11
15264.80217064596
 21
813.8747482146436
 31
0.0
  0
LINE
  5
16FA8
330
172A5
100
AcDbEntity
  8
YODOROGO
100
AcDbLine
 10
15108.80217064596
 20
833.8747482146439
 30
0.0
 11
14974.80217064595
 21
833.8747482146439
 31
0.0
  0
LINE
  5
16FA9
330
172A5
100
AcDbEntity
  8
YODOROGO
100
AcDbLine
 10
15108.80217064596
 20
813.8747482146436
 30
0.0
 11
15108.80217064596
 21
833.8747482146439
 31
0.0
  0
LINE
  5
16FAA
330
172A5
100
AcDbEntity
  8
YODOROGO
100
AcDbLine
 10
15008.80217064596
 20
813.8747482146436
 30
0.0
 11
15108.80217064596
 21
813.8747482146436
 31
0.0
  0
ARC
  5
16FAB
330
172A5
100
AcDbEntity
  8
YODOROGO
100
AcDbCircle
 10
15115.02941435068
 20
934.4428574764513
 30
0.0
 40
160.6888181426141
100
AcDbArc
 50
228.6181454618993
 51
245.660289248906
  0
LINE
  5
16FAC
330
172A5
100
AcDbEntity
  8
YODOROGO
100
AcDbLine
 10
15052.80217064596
 20
801.8747482146446
 30
0.0
 11
15048.80217064598
 21
788.0364079349501
 31
0.0
  0
LINE
  5
16FAD
330
172A5
100
AcDbEntity
  8
YODOROGO
100
AcDbLine
 10
15094.80217064596
 20
801.8747482146446
 30
0.0
 11
15052.80217064596
 21
801.8747482146446
 31
0.0
  0
LINE
  5
16FAE
330
172A5
100
AcDbEntity
  8
YODOROGO
100
AcDbLine
 10
15088.80217064596
 20
775.9088612367134
 30
0.0
 11
15094.80217064596
 21
801.8747482146446
 31
0.0
  0
ARC
  5
16FAF
330
172A5
100
AcDbEntity
  8
YODOROGO
100
AcDbCircle
 10
15115.02941435023
 20
934.4428574765013
 30
0.0
 40
160.6888181426453
100
AcDbArc
 50
260.6062929796993
 51
267.7790355655585
  0
LINE
  5
16FB0
330
172A5
100
AcDbEntity
  8
YODOROGO
100
AcDbLine
 10
15108.80217064596
 20
713.8747482146428
 30
0.0
 11
15108.80217064596
 21
773.8747482146439
 31
0.0
  0
LINE
  5
16FB1
330
172A5
100
AcDbEntity
  8
YODOROGO
100
AcDbLine
 10
14968.80217064596
 20
740.6696674577553
 30
0.0
 11
14968.80217064596
 21
797.2655452655707
 31
0.0
  0
LINE
  5
16FB2
330
172A5
100
AcDbEntity
  8
YODOROGO
100
AcDbLine
 10
15108.80217064596
 20
833.8747482146439
 30
0.0
 11
14974.80217064595
 21
833.8747482146439
 31
0.0
  0
LINE
  5
16FB3
330
172A5
100
AcDbEntity
  8
YODOROGO
100
AcDbLine
 10
15108.80217064596
 20
813.8747482146436
 30
0.0
 11
15108.80217064596
 21
833.8747482146439
 31
0.0
  0
LINE
  5
16FB4
330
172A5
100
AcDbEntity
  8
YODOROGO
100
AcDbLine
 10
15008.80217064596
 20
813.8747482146436
 30
0.0
 11
15108.80217064596
 21
813.8747482146436
 31
0.0
  0
ARC
  5
16FB5
330
172A5
100
AcDbEntity
  8
YODOROGO
100
AcDbCircle
 10
15115.02941435068
 20
934.4428574764513
 30
0.0
 40
160.6888181426141
100
AcDbArc
 50
228.6181454618993
 51
245.660289248906
  0
LINE
  5
16FB6
330
172A5
100
AcDbEntity
  8
YODOROGO
100
AcDbLine
 10
15052.80217064596
 20
801.8747482146446
 30
0.0
 11
15048.80217064598
 21
788.0364079349501
 31
0.0
  0
LINE
  5
16FB7
330
172A5
100
AcDbEntity
  8
YODOROGO
100
AcDbLine
 10
15094.80217064596
 20
801.8747482146446
 30
0.0
 11
15052.80217064596
 21
801.8747482146446
 31
0.0
  0
LINE
  5
16FB8
330
172A5
100
AcDbEntity
  8
YODOROGO
100
AcDbLine
 10
15088.80217064596
 20
775.9088612367134
 30
0.0
 11
15094.80217064596
 21
801.8747482146446
 31
0.0
  0
ARC
  5
16FB9
330
172A5
100
AcDbEntity
  8
YODOROGO
100
AcDbCircle
 10
15115.02941435023
 20
934.4428574765013
 30
0.0
 40
160.6888181426453
100
AcDbArc
 50
260.6062929796993
 51
267.7790355655585
  0
LINE
  5
16FBA
330
172A5
100
AcDbEntity
  8
YODOROGO
100
AcDbLine
 10
15108.80217064596
 20
713.8747482146428
 30
0.0
 11
15108.80217064596
 21
773.8747482146439
 31
0.0
  0
LINE
  5
16FBB
330
172A5
100
AcDbEntity
  8
YODOROGO
100
AcDbLine
 10
14968.80217064596
 20
740.6696674577553
 30
0.0
 11
14968.80217064596
 21
797.2655452655707
 31
0.0
  0
LINE
  5
16FBC
330
172A5
100
AcDbEntity
  8
YODOROGO
100
AcDbLine
 10
15216.80217064596
 20
786.8747482146446
 30
0.0
 11
15190.80217064596
 21
786.8747482146446
 31
0.0
  0
LINE
  5
16FBD
330
172A5
100
AcDbEntity
  8
YODOROGO
100
AcDbLine
 10
15216.80217064596
 20
800.8747482146432
 30
0.0
 11
15216.80217064596
 21
786.8747482146446
 31
0.0
  0
LINE
  5
16FBE
330
172A5
100
AcDbEntity
  8
YODOROGO
100
AcDbLine
 10
15190.80217064596
 20
800.8747482146432
 30
0.0
 11
15216.80217064596
 21
800.8747482146432
 31
0.0
  0
LINE
  5
16FBF
330
172A5
100
AcDbEntity
  8
YODOROGO
100
AcDbLine
 10
15190.80217064596
 20
786.8747482146446
 30
0.0
 11
15190.80217064596
 21
800.8747482146432
 31
0.0
  0
LINE
  5
16FC0
330
172A5
100
AcDbEntity
  8
YODOROGO
100
AcDbLine
 10
15214.80217064596
 20
788.8747482146436
 30
0.0
 11
15192.80217064595
 21
788.8747482146436
 31
0.0
  0
LINE
  5
16FC1
330
172A5
100
AcDbEntity
  8
YODOROGO
100
AcDbLine
 10
15214.80217064596
 20
798.8747482146439
 30
0.0
 11
15214.80217064596
 21
788.8747482146436
 31
0.0
  0
LINE
  5
16FC2
330
172A5
100
AcDbEntity
  8
YODOROGO
100
AcDbLine
 10
15192.80217064595
 20
798.8747482146439
 30
0.0
 11
15214.80217064596
 21
798.8747482146439
 31
0.0
  0
LINE
  5
16FC3
330
172A5
100
AcDbEntity
  8
YODOROGO
100
AcDbLine
 10
15192.80217064595
 20
788.8747482146436
 30
0.0
 11
15192.80217064595
 21
798.8747482146439
 31
0.0
  0
LINE
  5
16FC4
330
172A5
100
AcDbEntity
  8
YODOROGO
100
AcDbLine
 10
15212.80217064596
 20
790.8747482146432
 30
0.0
 11
15194.80217064596
 21
790.8747482146432
 31
0.0
  0
LINE
  5
16FC5
330
172A5
100
AcDbEntity
  8
YODOROGO
100
AcDbLine
 10
15212.80217064596
 20
796.8747482146445
 30
0.0
 11
15212.80217064596
 21
790.8747482146432
 31
0.0
  0
LINE
  5
16FC6
330
172A5
100
AcDbEntity
  8
YODOROGO
100
AcDbLine
 10
15194.80217064596
 20
796.8747482146445
 30
0.0
 11
15212.80217064596
 21
796.8747482146445
 31
0.0
  0
LINE
  5
16FC7
330
172A5
100
AcDbEntity
  8
YODOROGO
100
AcDbLine
 10
15194.80217064596
 20
790.8747482146432
 30
0.0
 11
15194.80217064596
 21
796.8747482146445
 31
0.0
  0
LINE
  5
16FC8
330
172A5
100
AcDbEntity
  8
YODOROGO
100
AcDbLine
 10
15210.80217064596
 20
792.8747482146435
 30
0.0
 11
15196.80217064596
 21
792.8747482146435
 31
0.0
  0
LINE
  5
16FC9
330
172A5
100
AcDbEntity
  8
YODOROGO
100
AcDbLine
 10
15210.80217064596
 20
794.8747482146441
 30
0.0
 11
15210.80217064596
 21
792.8747482146435
 31
0.0
  0
LINE
  5
16FCA
330
172A5
100
AcDbEntity
  8
YODOROGO
100
AcDbLine
 10
15196.80217064596
 20
794.8747482146441
 30
0.0
 11
15210.80217064596
 21
794.8747482146441
 31
0.0
  0
LINE
  5
16FCB
330
172A5
100
AcDbEntity
  8
YODOROGO
100
AcDbLine
 10
15196.80217064596
 20
792.8747482146435
 30
0.0
 11
15196.80217064596
 21
794.8747482146441
 31
0.0
  0
LINE
  5
16FCC
330
172A5
100
AcDbEntity
  8
YODOROGO
100
AcDbLine
 10
15232.80217064596
 20
813.8747482146436
 30
0.0
 11
15190.80217064596
 21
813.8747482146436
 31
0.0
  0
LINE
  5
16FCD
330
172A5
100
AcDbEntity
  8
YODOROGO
100
AcDbLine
 10
15232.80217064596
 20
773.8747482146439
 30
0.0
 11
15232.80217064596
 21
813.8747482146436
 31
0.0
  0
LINE
  5
16FCE
330
172A5
100
AcDbEntity
  8
YODOROGO
100
AcDbLine
 10
15190.80217064596
 20
773.8747482146439
 30
0.0
 11
15232.80217064596
 21
773.8747482146439
 31
0.0
  0
LINE
  5
16FCF
330
172A5
100
AcDbEntity
  8
YODOROGO
100
AcDbLine
 10
15190.80217064596
 20
713.8747482146436
 30
0.0
 11
15190.80217064596
 21
773.8747482146439
 31
0.0
  0
LINE
  5
16FD0
330
172A5
100
AcDbEntity
  8
YODOROGO
100
AcDbLine
 10
15268.80217064596
 20
713.8747482146436
 30
0.0
 11
15190.80217064596
 21
713.8747482146436
 31
0.0
  0
LINE
  5
16FD1
330
172A5
100
AcDbEntity
  8
YODOROGO
100
AcDbLine
 10
15284.80217064596
 20
785.8747482146432
 30
0.0
 11
15284.80217064596
 21
799.8747482146441
 31
0.0
  0
ARC
  5
16FD2
330
172A5
100
AcDbEntity
  8
YODOROGO
100
AcDbCircle
 10
15272.80217064594
 20
785.8747482146457
 30
0.0
 40
12.00000000000186
100
AcDbArc
 50
270.0
 51
359.9999999999877
  0
LINE
  5
16FD3
330
172A5
100
AcDbEntity
  8
YODOROGO
100
AcDbLine
 10
15264.80217064596
 20
773.8747482146439
 30
0.0
 11
15272.80217064594
 21
773.8747482146439
 31
0.0
  0
LINE
  5
16FD4
330
172A5
100
AcDbEntity
  8
YODOROGO
100
AcDbLine
 10
15264.80217064596
 20
813.8747482146436
 30
0.0
 11
15264.80217064596
 21
773.8747482146439
 31
0.0
  0
LINE
  5
16FD5
330
172A5
100
AcDbEntity
  8
YODOROGO
100
AcDbLine
 10
15449.80217064597
 20
773.8747482146439
 30
0.0
 11
15462.80217064596
 21
773.8747482146439
 31
0.0
  0
LINE
  5
16FD6
330
172A5
100
AcDbEntity
  8
YODOROGO
100
AcDbLine
 10
15466.80217064596
 20
713.8747482146436
 30
0.0
 11
15449.80217064596
 21
713.8747482146436
 31
0.0
  0
LINE
  5
16FD7
330
172A5
100
AcDbEntity
  8
YODOROGO
100
AcDbLine
 10
15381.80217064596
 20
781.8747482146434
 30
0.0
 11
15395.80217064596
 21
781.8747482146434
 31
0.0
  0
LINE
  5
16FD8
330
172A5
100
AcDbEntity
  8
YODOROGO
100
AcDbLine
 10
15449.80217064596
 20
745.8747482146443
 30
0.0
 11
15361.80217064596
 21
745.8747482146443
 31
0.0
  0
LINE
  5
16FD9
330
172A5
100
AcDbEntity
  8
YODOROGO
100
AcDbLine
 10
15415.80217064596
 20
781.8747482146434
 30
0.0
 11
15429.80217064596
 21
781.8747482146434
 31
0.0
  0
LINE
  5
16FDA
330
172A5
100
AcDbEntity
  8
YODOROGO
100
AcDbLine
 10
15449.80217064596
 20
713.8747482146436
 30
0.0
 11
15449.80217064597
 21
773.8747482146439
 31
0.0
  0
LINE
  5
16FDB
330
172A5
100
AcDbEntity
  8
YODOROGO
100
AcDbLine
 10
15348.80217064596
 20
713.8747482146436
 30
0.0
 11
15322.80217064596
 21
713.8747482146436
 31
0.0
  0
LINE
  5
16FDC
330
172A5
100
AcDbEntity
  8
YODOROGO
100
AcDbLine
 10
15308.80217064596
 20
799.8747482146441
 30
0.0
 11
15308.80217064596
 21
753.8747482146439
 31
0.0
  0
ARC
  5
16FDD
330
172A5
100
AcDbEntity
  8
YODOROGO
100
AcDbCircle
 10
15466.80217064596
 20
733.8747482146437
 30
0.0
 40
20.0
100
AcDbArc
 50
270.0
 51
0.0
  0
LINE
  5
16FDE
330
172A5
100
AcDbEntity
  8
YODOROGO
100
AcDbLine
 10
15546.80217064596
 20
761.8747482146434
 30
0.0
 11
15546.80217064596
 21
713.8747482146436
 31
0.0
  0
ARC
  5
16FDF
330
172A5
100
AcDbEntity
  8
YODOROGO
100
AcDbCircle
 10
15519.86069778339
 20
818.7656950548667
 30
0.0
 40
62.94777829583771
100
AcDbArc
 50
295.3405244216011
 51
359.1890230341867
  0
LINE
  5
16FE0
330
172A5
100
AcDbEntity
  8
YODOROGO
100
AcDbLine
 10
15308.80217064596
 20
929.874748214644
 30
0.0
 11
15248.80217064596
 21
969.8747482146441
 31
0.0
  0
LINE
  5
16FE1
330
172A5
100
AcDbEntity
  8
YODOROGO
100
AcDbLine
 10
15248.80217064596
 20
1013.874748214644
 30
0.0
 11
15308.80217064596
 21
973.8747482146436
 31
0.0
  0
LINE
  5
16FE2
330
172A5
100
AcDbEntity
  8
YODOROGO
100
AcDbLine
 10
15264.80217064596
 20
839.8747482146443
 30
0.0
 11
15308.80217064596
 21
839.8747482146443
 31
0.0
  0
LINE
  5
16FE3
330
172A5
100
AcDbEntity
  8
YODOROGO
100
AcDbLine
 10
15308.80217064596
 20
867.8747482146436
 30
0.0
 11
15264.80217064596
 21
867.8747482146436
 31
0.0
  0
LINE
  5
16FE4
330
172A5
100
AcDbEntity
  8
YODOROGO
100
AcDbLine
 10
15190.80217064596
 20
897.8747482146435
 30
0.0
 11
15308.80217064596
 21
897.8747482146435
 31
0.0
  0
LINE
  5
16FE5
330
172A5
100
AcDbEntity
  8
YODOROGO
100
AcDbLine
 10
15040.80217064596
 20
1013.874748214644
 30
0.0
 11
15010.80217064596
 21
1013.874748214644
 31
0.0
  0
LINE
  5
16FE6
330
172A5
100
AcDbEntity
  8
YODOROGO
100
AcDbLine
 10
15040.80217064596
 20
913.8747482146436
 30
0.0
 11
15040.80217064596
 21
1013.874748214644
 31
0.0
  0
LINE
  5
16FE7
330
172A5
100
AcDbEntity
  8
YODOROGO
100
AcDbLine
 10
15010.80217064596
 20
913.8747482146436
 30
0.0
 11
15040.80217064596
 21
913.8747482146436
 31
0.0
  0
LINE
  5
16FE8
330
172A5
100
AcDbEntity
  8
YODOROGO
100
AcDbLine
 10
15010.80217064596
 20
1013.874748214644
 30
0.0
 11
15010.80217064596
 21
913.8747482146436
 31
0.0
  0
LINE
  5
16FE9
330
172A5
100
AcDbEntity
  8
YODOROGO
100
AcDbLine
 10
15080.80217064596
 20
1013.874748214644
 30
0.0
 11
15108.80217064596
 21
1013.874748214644
 31
0.0
  0
LINE
  5
16FEA
330
172A5
100
AcDbEntity
  8
YODOROGO
100
AcDbLine
 10
15080.80217064596
 20
905.8747482146443
 30
0.0
 11
15080.80217064596
 21
1013.874748214644
 31
0.0
  0
ARC
  5
16FEB
330
172A5
100
AcDbEntity
  8
YODOROGO
100
AcDbCircle
 10
15060.80217064596
 20
905.8747482146443
 30
0.0
 40
20.0
100
AcDbArc
 50
270.0
 51
0.0
  0
LINE
  5
16FEC
330
172A5
100
AcDbEntity
  8
YODOROGO
100
AcDbLine
 10
15010.80217064596
 20
885.8747482146442
 30
0.0
 11
15060.80217064596
 21
885.8747482146442
 31
0.0
  0
LINE
  5
16FED
330
172A5
100
AcDbEntity
  8
YODOROGO
100
AcDbLine
 10
15010.80217064596
 20
853.8747482146439
 30
0.0
 11
15010.80217064596
 21
885.8747482146442
 31
0.0
  0
LINE
  5
16FEE
330
172A5
100
AcDbEntity
  8
YODOROGO
100
AcDbLine
 10
15068.80217064596
 20
853.8747482146439
 30
0.0
 11
15010.80217064596
 21
853.8747482146439
 31
0.0
  0
ARC
  5
16FEF
330
172A5
100
AcDbEntity
  8
YODOROGO
100
AcDbCircle
 10
15068.80217064596
 20
893.8747482146439
 30
0.0
 40
40.0
100
AcDbArc
 50
270.0
 51
0.0
  0
LINE
  5
16FF0
330
172A5
100
AcDbEntity
  8
YODOROGO
100
AcDbLine
 10
15108.80217064596
 20
1013.874748214644
 30
0.0
 11
15108.80217064596
 21
893.8747482146439
 31
0.0
  0
LINE
  5
16FF1
330
172A5
100
AcDbEntity
  8
YODOROGO
100
AcDbLine
 10
14988.80217064596
 20
973.8747482146436
 30
0.0
 11
14988.80217064596
 21
997.8747482146435
 31
0.0
1001
AUTOCAD_POSTSCRIPT_FIGURE
1002
{
1000
PSFILL
1000
Grayscale
1000
Grayscale
1070
    25
1002
}
  0
LINE
  5
16FF2
330
172A5
100
AcDbEntity
  8
YODOROGO
100
AcDbLine
 10
14988.80217064596
 20
929.874748214644
 30
0.0
 11
14988.80217064596
 21
953.874748214644
 31
0.0
1001
AUTOCAD_POSTSCRIPT_FIGURE
1002
{
1000
PSFILL
1000
Grayscale
1000
Grayscale
1070
    25
1002
}
  0
LINE
  5
16FF3
330
172A5
100
AcDbEntity
  8
YODOROGO
100
AcDbLine
 10
14988.80217064596
 20
853.8747482146439
 30
0.0
 11
14988.80217064596
 21
909.8747482146439
 31
0.0
1001
AUTOCAD_POSTSCRIPT_FIGURE
1002
{
1000
PSFILL
1000
Grayscale
1000
Grayscale
1070
    25
1002
}
  0
LINE
  5
16FF4
330
172A5
100
AcDbEntity
  8
YODOROGO
100
AcDbLine
 10
15190.80217064596
 20
953.874748214644
 30
0.0
 11
15248.80217064596
 21
1013.874748214644
 31
0.0
  0
LINE
  5
16FF5
330
172A5
100
AcDbEntity
  8
YODOROGO
100
AcDbLine
 10
15190.80217064596
 20
909.8747482146439
 30
0.0
 11
15190.80217064596
 21
953.874748214644
 31
0.0
  0
LINE
  5
16FF6
330
172A5
100
AcDbEntity
  8
YODOROGO
100
AcDbLine
 10
15248.80217064596
 20
969.8747482146441
 30
0.0
 11
15190.80217064596
 21
909.8747482146439
 31
0.0
  0
LINE
  5
16FF7
330
172A5
100
AcDbEntity
  8
YODOROGO
100
AcDbLine
 10
15232.80217064596
 20
839.8747482146443
 30
0.0
 11
15232.80217064596
 21
867.8747482146436
 31
0.0
  0
LINE
  5
16FF8
330
172A5
100
AcDbEntity
  8
YODOROGO
100
AcDbLine
 10
15190.80217064596
 20
839.8747482146443
 30
0.0
 11
15232.80217064596
 21
839.8747482146443
 31
0.0
  0
LINE
  5
16FF9
330
172A5
100
AcDbEntity
  8
YODOROGO
100
AcDbLine
 10
15264.80217064596
 20
867.8747482146436
 30
0.0
 11
15264.80217064596
 21
839.8747482146443
 31
0.0
  0
LINE
  5
16FFA
330
172A5
100
AcDbEntity
  8
YODOROGO
100
AcDbLine
 10
15190.80217064596
 20
867.8747482146436
 30
0.0
 11
15190.80217064596
 21
897.8747482146435
 31
0.0
  0
LINE
  5
16FFB
330
172A5
100
AcDbEntity
  8
YODOROGO
100
AcDbLine
 10
15232.80217064596
 20
867.8747482146436
 30
0.0
 11
15190.80217064596
 21
867.8747482146436
 31
0.0
  0
LINE
  5
16FFC
330
172A5
100
AcDbEntity
  8
YODOROGO
100
AcDbLine
 10
15322.80217064596
 20
1013.874748214644
 30
0.0
 11
15486.80217064596
 21
1013.874748214644
 31
0.0
  0
LINE
  5
16FFD
330
172A5
100
AcDbEntity
  8
YODOROGO
100
AcDbLine
 10
15462.80217064596
 20
981.8747482146434
 30
0.0
 11
15348.80217064596
 21
981.8747482146434
 31
0.0
  0
LINE
  5
16FFE
330
172A5
100
AcDbEntity
  8
YODOROGO
100
AcDbLine
 10
15436.80217064595
 20
909.8747482146439
 30
0.0
 11
15449.80217064596
 21
909.8747482146439
 31
0.0
  0
LINE
  5
16FFF
330
172A5
100
AcDbEntity
  8
YODOROGO
100
AcDbLine
 10
15449.80217064596
 20
969.8747482146441
 30
0.0
 11
15436.80217064595
 21
909.8747482146439
 31
0.0
  0
LINE
  5
17000
330
172A5
100
AcDbEntity
  8
YODOROGO
100
AcDbLine
 10
15425.80217064596
 20
969.8747482146441
 30
0.0
 11
15449.80217064596
 21
969.8747482146441
 31
0.0
  0
LINE
  5
17001
330
172A5
100
AcDbEntity
  8
YODOROGO
100
AcDbLine
 10
15412.80217064596
 20
909.8747482146439
 30
0.0
 11
15425.80217064596
 21
969.8747482146441
 31
0.0
  0
LINE
  5
17002
330
172A5
100
AcDbEntity
  8
YODOROGO
100
AcDbLine
 10
15398.80217064596
 20
909.8747482146439
 30
0.0
 11
15412.80217064596
 21
909.8747482146439
 31
0.0
  0
LINE
  5
17003
330
172A5
100
AcDbEntity
  8
YODOROGO
100
AcDbLine
 10
15385.80217064596
 20
969.8747482146441
 30
0.0
 11
15398.80217064596
 21
909.8747482146439
 31
0.0
  0
LINE
  5
17004
330
172A5
100
AcDbEntity
  8
YODOROGO
100
AcDbLine
 10
15361.80217064596
 20
969.8747482146441
 30
0.0
 11
15385.80217064596
 21
969.8747482146441
 31
0.0
  0
LINE
  5
17005
330
172A5
100
AcDbEntity
  8
YODOROGO
100
AcDbLine
 10
15374.80217064596
 20
909.8747482146439
 30
0.0
 11
15361.80217064596
 21
969.8747482146441
 31
0.0
  0
LINE
  5
17006
330
172A5
100
AcDbEntity
  8
YODOROGO
100
AcDbLine
 10
15361.80217064596
 20
909.8747482146439
 30
0.0
 11
15374.80217064596
 21
909.8747482146439
 31
0.0
  0
LINE
  5
17007
330
172A5
100
AcDbEntity
  8
YODOROGO
100
AcDbLine
 10
15361.80217064596
 20
877.8747482146437
 30
0.0
 11
15361.80217064596
 21
909.8747482146439
 31
0.0
  0
LINE
  5
17008
330
172A5
100
AcDbEntity
  8
YODOROGO
100
AcDbLine
 10
15449.80217064596
 20
877.8747482146437
 30
0.0
 11
15361.80217064596
 21
877.8747482146437
 31
0.0
  0
LINE
  5
17009
330
172A5
100
AcDbEntity
  8
YODOROGO
100
AcDbLine
 10
15449.80217064596
 20
909.8747482146439
 30
0.0
 11
15449.80217064596
 21
877.8747482146437
 31
0.0
  0
LINE
  5
1700A
330
172A5
100
AcDbEntity
  8
YODOROGO
100
AcDbLine
 10
15308.80217064596
 20
973.8747482146436
 30
0.0
 11
15308.80217064596
 21
929.874748214644
 31
0.0
  0
LINE
  5
1700B
330
172A5
100
AcDbEntity
  8
YODOROGO
100
AcDbLine
 10
15395.80217064596
 20
877.8747482146437
 30
0.0
 11
15415.80217064596
 21
877.8747482146437
 31
0.0
  0
LINE
  5
1700C
330
172A5
100
AcDbEntity
  8
YODOROGO
100
AcDbLine
 10
15361.80217064596
 20
845.8747482146444
 30
0.0
 11
15381.80217064596
 21
845.8747482146444
 31
0.0
  0
LINE
  5
1700D
330
172A5
100
AcDbEntity
  8
YODOROGO
100
AcDbLine
 10
15429.80217064596
 20
845.8747482146444
 30
0.0
 11
15449.80217064596
 21
845.8747482146444
 31
0.0
  0
LINE
  5
1700E
330
172A5
100
AcDbEntity
  8
YODOROGO
100
AcDbLine
 10
15308.80217064596
 20
897.8747482146435
 30
0.0
 11
15308.80217064596
 21
867.8747482146436
 31
0.0
  0
LINE
  5
1700F
330
172A5
100
AcDbEntity
  8
YODOROGO
100
AcDbLine
 10
15582.80217064596
 20
1013.874748214644
 30
0.0
 11
15582.80217064596
 21
981.8747482146434
 31
0.0
  0
LINE
  5
17010
330
172A5
100
AcDbEntity
  8
YODOROGO
100
AcDbLine
 10
15766.80217064596
 20
797.8747482146435
 30
0.0
 11
15766.80217064595
 21
905.8747482146443
 31
0.0
  0
LINE
  5
17011
330
172A5
100
AcDbEntity
  8
YODOROGO
100
AcDbLine
 10
15730.80217064594
 20
993.8747482146439
 30
0.0
 11
15730.80217064594
 21
817.8747482146436
 31
0.0
  0
LINE
  5
17012
330
172A5
100
AcDbEntity
  8
YODOROGO
100
AcDbLine
 10
15826.80217064596
 20
713.8747482146436
 30
0.0
 11
15826.80217064595
 21
905.8747482146443
 31
0.0
  0
LINE
  5
17013
330
172A5
100
AcDbEntity
  8
YODOROGO
100
AcDbLine
 10
15794.80217064596
 20
905.8747482146443
 30
0.0
 11
15794.80217064596
 21
713.8747482146436
 31
0.0
  0
LINE
  5
17014
330
172A5
100
AcDbEntity
  8
YODOROGO
100
AcDbLine
 10
15618.80217064596
 20
797.8747482146435
 30
0.0
 11
15618.80217064596
 21
853.8747482146439
 31
0.0
  0
ARC
  5
17015
330
172A5
100
AcDbEntity
  8
YODOROGO
100
AcDbCircle
 10
15676.95743255803
 20
803.8951756442788
 30
0.0
 40
90.04622428799429
100
AcDbArc
 50
268.6284910216979
 51
356.1663845733032
  0
LINE
  5
17016
330
172A5
100
AcDbEntity
  8
YODOROGO
100
AcDbLine
 10
15674.80217064596
 20
763.8747482146436
 30
0.0
 11
15674.80217064596
 21
713.8747482146436
 31
0.0
  0
ARC
  5
17017
330
172A5
100
AcDbEntity
  8
YODOROGO
100
AcDbCircle
 10
15675.75903786228
 20
818.9194785088275
 30
0.0
 40
55.05304649180608
100
AcDbArc
 50
269.0041020930593
 51
358.9126445549248
  0
LINE
  5
17018
330
172A5
100
AcDbEntity
  8
YODOROGO
100
AcDbLine
 10
15794.80217064596
 20
713.8747482146436
 30
0.0
 11
15826.80217064596
 21
713.8747482146436
 31
0.0
  0
LINE
  5
17019
330
172A5
100
AcDbEntity
  8
YODOROGO
100
AcDbLine
 10
15766.80217064595
 20
905.8747482146443
 30
0.0
 11
15794.80217064596
 21
905.8747482146443
 31
0.0
  0
LINE
  5
1701A
330
172A5
100
AcDbEntity
  8
YODOROGO
100
AcDbLine
 10
15810.80217064596
 20
993.8747482146439
 30
0.0
 11
15730.80217064594
 21
993.8747482146439
 31
0.0
  0
LINE
  5
1701B
330
172A5
100
AcDbEntity
  8
YODOROGO
100
AcDbLine
 10
15766.80217064595
 20
957.8747482146436
 30
0.0
 11
15830.80217064596
 21
957.8747482146436
 31
0.0
  0
LINE
  5
1701C
330
172A5
100
AcDbEntity
  8
YODOROGO
100
AcDbLine
 10
15850.80217064596
 20
937.8747482146435
 30
0.0
 11
15766.80217064595
 21
937.8747482146435
 31
0.0
  0
LINE
  5
1701D
330
172A5
100
AcDbEntity
  8
YODOROGO
100
AcDbLine
 10
15618.80217064596
 20
889.8747482146443
 30
0.0
 11
15674.80217064596
 21
889.8747482146443
 31
0.0
  0
LINE
  5
1701E
330
172A5
100
AcDbEntity
  8
YODOROGO
100
AcDbLine
 10
15618.80217064596
 20
917.8747482146436
 30
0.0
 11
15618.80217064596
 21
889.8747482146443
 31
0.0
  0
LINE
  5
1701F
330
172A5
100
AcDbEntity
  8
YODOROGO
100
AcDbLine
 10
15674.80217064596
 20
917.8747482146436
 30
0.0
 11
15618.80217064596
 21
917.8747482146436
 31
0.0
  0
LINE
  5
17020
330
172A5
100
AcDbEntity
  8
YODOROGO
100
AcDbLine
 10
15674.80217064596
 20
889.8747482146443
 30
0.0
 11
15674.80217064596
 21
917.8747482146436
 31
0.0
  0
LINE
  5
17021
330
172A5
100
AcDbEntity
  8
YODOROGO
100
AcDbLine
 10
15766.80217064595
 20
937.8747482146435
 30
0.0
 11
15766.80217064595
 21
957.8747482146436
 31
0.0
  0
LINE
  5
17022
330
172A5
100
AcDbEntity
  8
YODOROGO
100
AcDbLine
 10
15706.80217064596
 20
853.8747482146439
 30
0.0
 11
15706.80217064596
 21
953.874748214644
 31
0.0
  0
LINE
  5
17023
330
172A5
100
AcDbEntity
  8
YODOROGO
100
AcDbLine
 10
15618.80217064596
 20
853.8747482146439
 30
0.0
 11
15706.80217064596
 21
853.8747482146439
 31
0.0
  0
LINE
  5
17024
330
172A5
100
AcDbEntity
  8
YODOROGO
100
AcDbLine
 10
15706.80217064596
 20
981.8747482146434
 30
0.0
 11
15706.80217064596
 21
1013.874748214644
 31
0.0
  0
ARC
  5
17025
330
172A5
100
AcDbEntity
  8
YODOROGO
100
AcDbCircle
 10
15810.80217064596
 20
1001.874748214642
 30
0.0
 40
7.999999999997271
100
AcDbArc
 50
270.0
 51
0.0000000000081422
  0
LINE
  5
17026
330
172A5
100
AcDbEntity
  8
YODOROGO
100
AcDbLine
 10
15818.80217064596
 20
1013.874748214644
 30
0.0
 11
15818.80217064596
 21
1001.874748214643
 31
0.0
  0
LINE
  5
17027
330
172A5
100
AcDbEntity
  8
YODOROGO
100
AcDbLine
 10
15850.80217064596
 20
1013.874748214644
 30
0.0
 11
15818.80217064596
 21
1013.874748214644
 31
0.0
  0
LINE
  5
17028
330
172A5
100
AcDbEntity
  8
YODOROGO
100
AcDbLine
 10
15850.80217064596
 20
977.8747482146435
 30
0.0
 11
15850.80217064596
 21
1013.874748214644
 31
0.0
  0
ARC
  5
17029
330
172A5
100
AcDbEntity
  8
YODOROGO
100
AcDbCircle
 10
15830.80217064596
 20
977.8747482146435
 30
0.0
 40
20.0
100
AcDbArc
 50
270.0
 51
0.0
  0
LINE
  5
1702A
330
172A5
100
AcDbEntity
  8
YODOROGO
100
AcDbLine
 10
15850.80217064596
 20
905.8747482146443
 30
0.0
 11
15850.80217064596
 21
937.8747482146435
 31
0.0
  0
LINE
  5
1702B
330
172A5
100
AcDbEntity
  8
YODOROGO
100
AcDbLine
 10
15826.80217064595
 20
905.8747482146443
 30
0.0
 11
15850.80217064596
 21
905.8747482146443
 31
0.0
  0
LINE
  5
1702C
330
172A5
100
AcDbEntity
  8
SUNPOU
100
AcDbLine
 10
4889.856483595693
 20
4586.963733520728
 30
0.0
 11
4889.856483595693
 21
4601.963733520728
 31
0.0
  0
LINE
  5
1702D
330
172A5
100
AcDbEntity
  8
SUNPOU
100
AcDbLine
 10
4249.856483595691
 20
3783.963733520729
 30
0.0
 11
4249.856483595691
 21
4601.963733520728
 31
0.0
  0
LINE
  5
1702E
330
172A5
100
AcDbEntity
  8
SUNPOU
100
AcDbLine
 10
4874.856483595692
 20
4556.963733520728
 30
0.0
 11
4264.856483595691
 21
4556.963733520728
 31
0.0
  0
LINE
  5
17033
330
172A5
100
AcDbEntity
  8
SUNPOU
100
AcDbLine
 10
6435.086990845943
 20
4556.963733520728
 30
0.0
 11
6375.086990845929
 21
4556.963733520728
 31
0.0
  0
LINE
  5
17034
330
172A5
100
AcDbEntity
  8
SUNPOU
100
AcDbLine
 10
6435.086990845936
 20
4556.963733520728
 30
0.0
 11
6375.086990845936
 21
4573.040685066597
 31
0.0
  0
LINE
  5
17035
330
172A5
100
AcDbEntity
  8
SUNPOU
100
AcDbLine
 10
6435.086990845943
 20
4556.963733520728
 30
0.0
 11
6375.086990845929
 21
4540.886781974857
 31
0.0
  0
LINE
  5
17036
330
172A5
100
AcDbEntity
  8
SUNPOU
100
AcDbLine
 10
6375.086990845943
 20
4556.963733520728
 30
0.0
 11
6315.086990845929
 21
4556.963733520728
 31
0.0
  0
LINE
  5
17037
330
172A5
100
AcDbEntity
  8
SUNPOU
100
AcDbLine
 10
6375.086990845936
 20
4556.963733520728
 30
0.0
 11
6315.086990845935
 21
4573.040685066597
 31
0.0
  0
LINE
  5
17038
330
172A5
100
AcDbEntity
  8
SUNPOU
100
AcDbLine
 10
6375.086990845943
 20
4556.963733520728
 30
0.0
 11
6315.086990845929
 21
4540.886781974857
 31
0.0
  0
LINE
  5
17039
330
172A5
100
AcDbEntity
  8
SUNPOU
100
AcDbLine
 10
6397.249978138844
 20
3753.963733520729
 30
0.0
 11
6863.18758900464
 21
3753.963733520729
 31
0.0
  0
LINE
  5
1703A
330
172A5
100
AcDbEntity
  8
SUNPOU
100
AcDbLine
 10
5719.856483595691
 20
3145.963733520729
 30
0.0
 11
6863.18758900464
 21
3145.963733520729
 31
0.0
  0
LINE
  5
1703B
330
172A5
100
AcDbEntity
  8
SUNPOU
100
AcDbLine
 10
6818.18758900464
 20
3738.963733520729
 30
0.0
 11
6818.18758900464
 21
3160.963733520729
 31
0.0
  0
LINE
  5
1703F
330
172A5
100
AcDbEntity
  8
SUNPOU
100
AcDbLine
 10
5719.856483595692
 20
3145.963733520728
 30
0.0
 11
6863.18758900464
 21
3145.963733520728
 31
0.0
  0
LINE
  5
17040
330
172A5
100
AcDbEntity
  8
SUNPOU
100
AcDbLine
 10
5719.856483595692
 20
2985.963733520732
 30
0.0
 11
6863.18758900464
 21
2985.963733520732
 31
0.0
  0
LINE
  5
17041
330
172A5
100
AcDbEntity
  8
SUNPOU
100
AcDbLine
 10
6818.18758900464
 20
3130.963733520728
 30
0.0
 11
6818.18758900464
 21
3000.963733520731
 31
0.0
  0
LINE
  5
17045
330
172A5
100
AcDbEntity
  8
SUNPOU
100
AcDbLine
 10
6397.249978138844
 20
3753.963733520729
 30
0.0
 11
7069.437589004642
 21
3753.963733520729
 31
0.0
  0
LINE
  5
17046
330
172A5
100
AcDbEntity
  8
SUNPOU
100
AcDbLine
 10
5719.856483595692
 20
2985.963733520732
 30
0.0
 11
7069.437589004642
 21
2985.963733520732
 31
0.0
  0
LINE
  5
17047
330
172A5
100
AcDbEntity
  8
SUNPOU
100
AcDbLine
 10
7024.43758900464
 20
3738.963733520729
 30
0.0
 11
7024.43758900464
 21
3000.963733520731
 31
0.0
  0
LINE
  5
1704B
330
172A5
100
AcDbEntity
  8
SUNPOU
100
AcDbLine
 10
4249.856483595691
 20
3115.963733520729
 30
0.0
 11
4249.856483595691
 21
2560.963733520728
 31
0.0
  0
LINE
  5
1704C
330
172A5
100
AcDbEntity
  8
SUNPOU
100
AcDbLine
 10
5529.856483595692
 20
3115.963733520729
 30
0.0
 11
5529.856483595692
 21
2560.963733520728
 31
0.0
  0
LINE
  5
1704D
330
172A5
100
AcDbEntity
  8
SUNPOU
100
AcDbLine
 10
4264.856483595691
 20
2605.963733520728
 30
0.0
 11
5514.856483595691
 21
2605.963733520728
 31
0.0
  0
LINE
  5
17051
330
172A5
100
AcDbEntity
  8
SUNPOU
100
AcDbLine
 10
4089.856483595691
 20
2955.963733520729
 30
0.0
 11
4089.856483595691
 21
2350.963733520728
 31
0.0
  0
LINE
  5
17052
330
172A5
100
AcDbEntity
  8
SUNPOU
100
AcDbLine
 10
5689.856483595693
 20
2955.963733520731
 30
0.0
 11
5689.856483595693
 21
2350.963733520728
 31
0.0
  0
LINE
  5
17053
330
172A5
100
AcDbEntity
  8
SUNPOU
100
AcDbLine
 10
4104.856483595692
 20
2395.963733520728
 30
0.0
 11
5674.856483595693
 21
2395.963733520728
 31
0.0
  0
LINE
  5
17057
330
172A5
100
AcDbEntity
  8
SUNPOU
100
AcDbLine
 10
10249.12750789964
 20
8908.243182432325
 30
0.0
 11
10664.12750789964
 21
8908.243182432325
 31
0.0
  0
LINE
  5
17058
330
172A5
100
AcDbEntity
  8
SUNPOU
100
AcDbLine
 10
10394.12750789964
 20
8708.243182432324
 30
0.0
 11
10664.12750789964
 21
8708.243182432324
 31
0.0
  0
LINE
  5
17059
330
172A5
100
AcDbEntity
  8
SUNPOU
100
AcDbLine
 10
10619.12750789964
 20
8893.243182432325
 30
0.0
 11
10619.12750789964
 21
8723.243182432325
 31
0.0
  0
LINE
  5
1705A
330
172A5
100
AcDbEntity
  8
SUNPOU
100
AcDbLine
 10
10619.12750789964
 20
8708.243182432324
 30
0.0
 11
10619.12750789964
 21
8448.957468146611
 31
0.0
  0
LINE
  5
1705E
330
172A5
100
AcDbEntity
  8
SUNPOU
100
AcDbLine
 10
10249.12750789964
 20
8908.243182432325
 30
0.0
 11
10664.12750789964
 21
8908.243182432325
 31
0.0
  0
LINE
  5
1705F
330
172A5
100
AcDbEntity
  8
SUNPOU
100
AcDbLine
 10
10249.12750789964
 20
9108.243182432325
 30
0.0
 11
10664.12750789964
 21
9108.243182432325
 31
0.0
  0
LINE
  5
17060
330
172A5
100
AcDbEntity
  8
SUNPOU
100
AcDbLine
 10
10619.12750789964
 20
8923.243182432328
 30
0.0
 11
10619.12750789964
 21
9093.243182432324
 31
0.0
  0
LINE
  5
17061
330
172A5
100
AcDbEntity
  8
SUNPOU
100
AcDbLine
 10
10619.12750789964
 20
9108.243182432325
 30
0.0
 11
10619.12750789964
 21
9367.52889671804
 31
0.0
  0
LINE
  5
17065
330
172A5
100
AcDbEntity
  8
SUNPOU
100
AcDbLine
 10
7644.127507899641
 20
7118.243182432326
 30
0.0
 11
7629.127507899642
 21
7208.243182432326
 31
0.0
  0
LINE
  5
17066
330
172A5
100
AcDbEntity
  8
SUNPOU
100
AcDbLine
 10
7629.127507899642
 20
7208.243182432326
 30
0.0
 11
7614.127507899642
 21
7118.243182432326
 31
0.0
  0
SOLID
  5
17067
330
172A5
100
AcDbEntity
  8
SUNPOU
100
AcDbTrace
 10
7644.127507899641
 20
7118.243182432326
 30
0.0
 11
7614.127507899642
 21
7118.243182432326
 31
0.0
 12
7629.127507899642
 22
7208.243182432326
 32
0.0
 13
7629.127507899642
 23
7208.243182432326
 33
0.0
  0
LINE
  5
17068
330
172A5
100
AcDbEntity
  8
SUNPOU
100
AcDbLine
 10
7614.127507899642
 20
7118.243182432326
 30
0.0
 11
7644.127507899641
 21
7118.243182432326
 31
0.0
  0
LINE
  5
17069
330
172A5
100
AcDbEntity
  8
SUNPOU
100
AcDbLine
 10
6394.127507899639
 20
7118.243182432326
 30
0.0
 11
6409.127507899639
 21
7208.243182432326
 31
0.0
  0
LINE
  5
1706A
330
172A5
100
AcDbEntity
  8
SUNPOU
100
AcDbLine
 10
6409.127507899639
 20
7208.243182432326
 30
0.0
 11
6424.127507899638
 21
7118.243182432326
 31
0.0
  0
SOLID
  5
1706B
330
172A5
100
AcDbEntity
  8
SUNPOU
100
AcDbTrace
 10
6394.127507899639
 20
7118.243182432326
 30
0.0
 11
6424.127507899638
 21
7118.243182432326
 31
0.0
 12
6409.127507899639
 22
7208.243182432326
 32
0.0
 13
6409.127507899639
 23
7208.243182432326
 33
0.0
  0
LINE
  5
1706C
330
172A5
100
AcDbEntity
  8
SUNPOU
100
AcDbLine
 10
6424.127507899638
 20
7118.243182432326
 30
0.0
 11
6394.127507899639
 21
7118.243182432326
 31
0.0
  0
LINE
  5
1706D
330
172A5
100
AcDbEntity
  8
SUNPOU
100
AcDbLine
 10
6619.127507899641
 20
9138.243182432324
 30
0.0
 11
6619.127507899641
 21
9663.243182432324
 31
0.0
  0
LINE
  5
1706E
330
172A5
100
AcDbEntity
  8
SUNPOU
100
AcDbLine
 10
10219.12750789964
 20
9138.243182432324
 30
0.0
 11
10219.12750789964
 21
9663.243182432324
 31
0.0
  0
LINE
  5
1706F
330
172A5
100
AcDbEntity
  8
SUNPOU
100
AcDbLine
 10
6634.12750789964
 20
9618.243182432324
 30
0.0
 11
10204.12750789964
 21
9618.243182432324
 31
0.0
  0
LINE
  5
17073
330
172A5
100
AcDbEntity
  8
SUNPOU
100
AcDbLine
 10
9819.127507899644
 20
9338.243182432325
 30
0.0
 11
9819.127507899644
 21
9453.243182432325
 31
0.0
  0
LINE
  5
17074
330
172A5
100
AcDbEntity
  8
SUNPOU
100
AcDbLine
 10
7019.127507899641
 20
9338.243182432325
 30
0.0
 11
7019.127507899641
 21
9453.243182432325
 31
0.0
  0
LINE
  5
17075
330
172A5
100
AcDbEntity
  8
SUNPOU
100
AcDbLine
 10
9804.127507899641
 20
9408.243182432325
 30
0.0
 11
7034.12750789964
 21
9408.243182432325
 31
0.0
  0
LINE
  5
17079
330
172A5
100
AcDbEntity
  8
SUNPOU
100
AcDbLine
 10
7019.127507899641
 20
9338.243182432325
 30
0.0
 11
7019.127507899641
 21
9453.243182432325
 31
0.0
  0
LINE
  5
1707A
330
172A5
100
AcDbEntity
  8
SUNPOU
100
AcDbLine
 10
6619.127507899641
 20
9138.243182432324
 30
0.0
 11
6619.127507899641
 21
9453.243182432325
 31
0.0
  0
LINE
  5
1707B
330
172A5
100
AcDbEntity
  8
SUNPOU
100
AcDbLine
 10
7004.127507899642
 20
9408.243182432325
 30
0.0
 11
6634.12750789964
 21
9408.243182432325
 31
0.0
  0
LINE
  5
1707F
330
172A5
100
AcDbEntity
  8
SUNPOU
100
AcDbLine
 10
9819.127507899644
 20
9338.243182432325
 30
0.0
 11
9819.127507899644
 21
9453.243182432325
 31
0.0
  0
LINE
  5
17080
330
172A5
100
AcDbEntity
  8
SUNPOU
100
AcDbLine
 10
10219.12750789964
 20
9138.243182432324
 30
0.0
 11
10219.12750789964
 21
9453.243182432325
 31
0.0
  0
LINE
  5
17081
330
172A5
100
AcDbEntity
  8
SUNPOU
100
AcDbLine
 10
9834.127507899641
 20
9408.243182432325
 30
0.0
 11
10204.12750789964
 21
9408.243182432325
 31
0.0
  0
LINE
  5
17086
330
172A5
100
AcDbEntity
  8
SUNPOU
100
AcDbLine
 10
11039.12750789964
 20
9096.993182432328
 30
0.0
 11
11039.12750789964
 21
9085.743182432329
 31
0.0
  0
LINE
  5
17088
330
172A5
100
AcDbEntity
  8
SUNPOU
100
AcDbLine
 10
10829.12750789964
 20
9096.993182432328
 30
0.0
 11
10829.12750789964
 21
9085.743182432329
 31
0.0
  0
LINE
  5
1708A
330
172A5
100
AcDbEntity
  8
SUNPOU
100
AcDbLine
 10
10829.12750789964
 20
8696.993182432327
 30
0.0
 11
10829.12750789964
 21
8685.743182432325
 31
0.0
  0
LINE
  5
1708C
330
172A5
100
AcDbEntity
  8
SUNPOU
100
AcDbLine
 10
10829.12750789964
 20
8719.493182432325
 30
0.0
 11
10829.12750789964
 21
8730.743182432325
 31
0.0
  0
LINE
  5
1708E
330
172A5
100
AcDbEntity
  8
SUNPOU
100
AcDbLine
 10
10829.12750789964
 20
6896.993182432325
 30
0.0
 11
10829.12750789964
 21
6885.743182432325
 31
0.0
  0
LINE
  5
17090
330
172A5
100
AcDbEntity
  8
SUNPOU
100
AcDbLine
 10
10829.12750789964
 20
6919.493182432326
 30
0.0
 11
10829.12750789964
 21
6930.743182432326
 31
0.0
  0
LINE
  5
17092
330
172A5
100
AcDbEntity
  8
SUNPOU
100
AcDbLine
 10
11039.12750789964
 20
6519.493182432326
 30
0.0
 11
11039.12750789964
 21
6530.743182432326
 31
0.0
  0
LINE
  5
17094
330
172A5
100
AcDbEntity
  8
SUNPOU
100
AcDbLine
 10
10829.12750789964
 20
6519.493182432326
 30
0.0
 11
10829.12750789964
 21
6530.743182432326
 31
0.0
  0
LINE
  5
17095
330
172A5
100
AcDbEntity
  8
SUNPOU
100
AcDbLine
 10
9389.12750789964
 20
9108.243182432325
 30
0.0
 11
9074.127507899641
 21
9108.243182432325
 31
0.0
  0
LINE
  5
17096
330
172A5
100
AcDbEntity
  8
SUNPOU
100
AcDbLine
 10
9389.12750789964
 20
8308.243182432326
 30
0.0
 11
9074.127507899641
 21
8308.243182432326
 31
0.0
  0
LINE
  5
17097
330
172A5
100
AcDbEntity
  8
SUNPOU
100
AcDbLine
 10
9119.127507899641
 20
9093.243182432324
 30
0.0
 11
9119.127507899641
 21
8323.243182432326
 31
0.0
  0
LINE
  5
1709B
330
172A5
100
AcDbEntity
  8
SUNPOU
100
AcDbLine
 10
9419.127507899641
 20
8278.243182432325
 30
0.0
 11
9419.127507899641
 21
7963.243182432326
 31
0.0
  0
LINE
  5
1709C
330
172A5
100
AcDbEntity
  8
SUNPOU
100
AcDbLine
 10
10219.12750789964
 20
8278.243182432325
 30
0.0
 11
10219.12750789964
 21
7963.243182432326
 31
0.0
  0
LINE
  5
1709D
330
172A5
100
AcDbEntity
  8
SUNPOU
100
AcDbLine
 10
9434.12750789964
 20
8008.243182432327
 30
0.0
 11
10204.12750789964
 21
8008.243182432327
 31
0.0
  0
TEXT
  5
170A1
330
172A5
100
AcDbEntity
  8
SUNPOU
100
AcDbText
 10
4484.142197881406
 20
4601.963733520728
 30
0.0
 40
90.0
  1
400
 41
0.6666666666666666
  7
00
100
AcDbText
  0
LINE
  5
170A3
330
172A5
100
AcDbEntity
  8
SUNPOU
100
AcDbLine
 10
4261.106483595692
 20
4556.963733520728
 30
0.0
 11
4272.356483595691
 21
4556.963733520728
 31
0.0
  0
LINE
  5
170A5
330
172A5
100
AcDbEntity
  8
SUNPOU
100
AcDbLine
 10
4878.606483595692
 20
4556.963733520728
 30
0.0
 11
4867.356483595692
 21
4556.963733520728
 31
0.0
  0
TEXT
  5
170A6
330
172A5
100
AcDbEntity
  8
SUNPOU
100
AcDbText
 10
6773.187589004638
 20
3364.249447806444
 30
0.0
 40
90.0
  1
380
 50
90.0
 41
0.6666666666666666
  7
00
100
AcDbText
  0
LINE
  5
170A8
330
172A5
100
AcDbEntity
  8
SUNPOU
100
AcDbLine
 10
6818.18758900464
 20
3157.213733520729
 30
0.0
 11
6818.18758900464
 21
3168.463733520729
 31
0.0
  0
LINE
  5
170AA
330
172A5
100
AcDbEntity
  8
SUNPOU
100
AcDbLine
 10
6818.18758900464
 20
3742.713733520729
 30
0.0
 11
6818.18758900464
 21
3731.463733520728
 31
0.0
  0
LINE
  5
170AC
330
172A5
100
AcDbEntity
  8
SUNPOU
100
AcDbLine
 10
6818.18758900464
 20
2997.213733520732
 30
0.0
 11
6818.18758900464
 21
3008.463733520732
 31
0.0
  0
LINE
  5
170AE
330
172A5
100
AcDbEntity
  8
SUNPOU
100
AcDbLine
 10
6818.18758900464
 20
3134.713733520728
 30
0.0
 11
6818.18758900464
 21
3123.463733520728
 31
0.0
  0
TEXT
  5
170AF
330
172A5
100
AcDbEntity
  8
SUNPOU
100
AcDbText
 10
6775.015821249391
 20
2760.243102996788
 30
0.0
 40
90.0
  1
100
 50
90.0
 41
0.6666666666666666
  7
00
100
AcDbText
  0
TEXT
  5
170B0
330
172A5
100
AcDbEntity
  8
SUNPOU
100
AcDbText
 10
6979.437589004638
 20
3284.249447806444
 30
0.0
 40
90.0
  1
480
 50
90.0
 41
0.6666666666666666
  7
00
100
AcDbText
  0
LINE
  5
170B2
330
172A5
100
AcDbEntity
  8
SUNPOU
100
AcDbLine
 10
7024.43758900464
 20
2997.213733520732
 30
0.0
 11
7024.43758900464
 21
3008.463733520732
 31
0.0
  0
LINE
  5
170B4
330
172A5
100
AcDbEntity
  8
SUNPOU
100
AcDbLine
 10
7024.43758900464
 20
3742.713733520729
 30
0.0
 11
7024.43758900464
 21
3731.463733520728
 31
0.0
  0
TEXT
  5
170B5
330
172A5
100
AcDbEntity
  8
SUNPOU
100
AcDbText
 10
4804.142197881406
 20
2650.963733520728
 30
0.0
 40
90.0
  1
800
 41
0.6666666666666666
  7
00
100
AcDbText
  0
LINE
  5
170B7
330
172A5
100
AcDbEntity
  8
SUNPOU
100
AcDbLine
 10
5518.606483595691
 20
2605.963733520728
 30
0.0
 11
5507.356483595692
 21
2605.963733520728
 31
0.0
  0
LINE
  5
170B9
330
172A5
100
AcDbEntity
  8
SUNPOU
100
AcDbLine
 10
4261.106483595692
 20
2605.963733520728
 30
0.0
 11
4272.356483595691
 21
2605.963733520728
 31
0.0
  0
TEXT
  5
170BA
330
172A5
100
AcDbEntity
  8
SUNPOU
100
AcDbText
 10
4771.285055024263
 20
2440.963733520729
 30
0.0
 40
90.0
  1
1000
 41
0.6666666666666666
  7
00
100
AcDbText
  0
LINE
  5
170BC
330
172A5
100
AcDbEntity
  8
SUNPOU
100
AcDbLine
 10
5678.606483595692
 20
2395.963733520728
 30
0.0
 11
5667.356483595693
 21
2395.963733520728
 31
0.0
  0
LINE
  5
170BE
330
172A5
100
AcDbEntity
  8
SUNPOU
100
AcDbLine
 10
4101.106483595692
 20
2395.963733520728
 30
0.0
 11
4112.356483595691
 21
2395.963733520728
 31
0.0
  0
TEXT
  5
170BF
330
172A5
100
AcDbEntity
  8
SUNPOU
100
AcDbText
 10
10574.12750789963
 20
8485.386039575184
 30
0.0
 40
90.0
  1
200
 50
90.0
 41
0.6666666666666666
  7
00
100
AcDbText
  0
LINE
  5
170C1
330
172A5
100
AcDbEntity
  8
SUNPOU
100
AcDbLine
 10
10619.12750789964
 20
8719.493182432325
 30
0.0
 11
10619.12750789964
 21
8730.743182432325
 31
0.0
  0
LINE
  5
170C3
330
172A5
100
AcDbEntity
  8
SUNPOU
100
AcDbLine
 10
10619.12750789964
 20
8896.993182432325
 30
0.0
 11
10619.12750789964
 21
8885.743182432326
 31
0.0
  0
TEXT
  5
170C4
330
172A5
100
AcDbEntity
  8
SUNPOU
100
AcDbText
 10
10574.12750789963
 20
9159.671753860896
 30
0.0
 40
90.0
  1
200
 50
90.0
 41
0.6666666666666666
  7
00
100
AcDbText
  0
LINE
  5
170C6
330
172A5
100
AcDbEntity
  8
SUNPOU
100
AcDbLine
 10
10619.12750789964
 20
9096.993182432328
 30
0.0
 11
10619.12750789964
 21
9085.743182432329
 31
0.0
  0
LINE
  5
170C8
330
172A5
100
AcDbEntity
  8
SUNPOU
100
AcDbLine
 10
10619.12750789964
 20
8919.493182432324
 30
0.0
 11
10619.12750789964
 21
8930.743182432324
 31
0.0
  0
TEXT
  5
170C9
330
172A5
100
AcDbEntity
  8
SUNPOU
100
AcDbText
 10
8304.841793613924
 20
9663.243182432324
 30
0.0
 40
90.0
  1
3600
 41
0.6666666666666666
  7
00
100
AcDbText
  0
LINE
  5
170CB
330
172A5
100
AcDbEntity
  8
SUNPOU
100
AcDbLine
 10
10207.87750789964
 20
9618.243182432324
 30
0.0
 11
10196.62750789964
 21
9618.243182432324
 31
0.0
  0
LINE
  5
170CD
330
172A5
100
AcDbEntity
  8
SUNPOU
100
AcDbLine
 10
6630.377507899641
 20
9618.243182432324
 30
0.0
 11
6641.627507899642
 21
9618.243182432324
 31
0.0
  0
TEXT
  5
170CE
330
172A5
100
AcDbEntity
  8
SUNPOU
100
AcDbText
 10
8304.841793613924
 20
9453.243182432325
 30
0.0
 40
90.0
  1
2800
 41
0.6666666666666666
  7
00
100
AcDbText
  0
LINE
  5
170D0
330
172A5
100
AcDbEntity
  8
SUNPOU
100
AcDbLine
 10
7030.377507899641
 20
9408.243182432325
 30
0.0
 11
7041.627507899642
 21
9408.243182432325
 31
0.0
  0
LINE
  5
170D2
330
172A5
100
AcDbEntity
  8
SUNPOU
100
AcDbLine
 10
9807.87750789964
 20
9408.243182432325
 30
0.0
 11
9796.627507899641
 21
9408.243182432325
 31
0.0
  0
TEXT
  5
170D3
330
172A5
100
AcDbEntity
  8
SUNPOU
100
AcDbText
 10
6733.413222185355
 20
9453.243182432325
 30
0.0
 40
90.0
  1
400
 41
0.6666666666666666
  7
00
100
AcDbText
  0
LINE
  5
170D5
330
172A5
100
AcDbEntity
  8
SUNPOU
100
AcDbLine
 10
6630.377507899641
 20
9408.243182432325
 30
0.0
 11
6641.627507899642
 21
9408.243182432325
 31
0.0
  0
LINE
  5
170D7
330
172A5
100
AcDbEntity
  8
SUNPOU
100
AcDbLine
 10
7007.87750789964
 20
9408.243182432325
 30
0.0
 11
6996.62750789964
 21
9408.243182432325
 31
0.0
  0
TEXT
  5
170D8
330
172A5
100
AcDbEntity
  8
SUNPOU
100
AcDbText
 10
9933.413222185357
 20
9453.243182432325
 30
0.0
 40
90.0
  1
400
 41
0.6666666666666666
  7
00
100
AcDbText
  0
LINE
  5
170DA
330
172A5
100
AcDbEntity
  8
SUNPOU
100
AcDbLine
 10
10207.87750789964
 20
9408.243182432325
 30
0.0
 11
10196.62750789964
 21
9408.243182432325
 31
0.0
  0
LINE
  5
170DC
330
172A5
100
AcDbEntity
  8
SUNPOU
100
AcDbLine
 10
9830.37750789964
 20
9408.243182432325
 30
0.0
 11
9841.627507899641
 21
9408.243182432325
 31
0.0
  0
ARC
  5
170DD
330
172A5
100
AcDbEntity
  8
SUNPOU
100
AcDbCircle
 10
11039.12750789964
 20
9108.243182432325
 30
0.0
 40
5.625
100
AcDbArc
 50
270.0
 51
90.0
  0
ARC
  5
170DE
330
172A5
100
AcDbEntity
  8
SUNPOU
100
AcDbCircle
 10
11039.12750789964
 20
9108.243182432325
 30
0.0
 40
5.625
100
AcDbArc
 50
90.0
 51
270.0
  0
ARC
  5
170DF
330
172A5
100
AcDbEntity
  8
SUNPOU
100
AcDbCircle
 10
10829.12750789964
 20
9108.243182432325
 30
0.0
 40
5.625
100
AcDbArc
 50
270.0
 51
90.0
  0
ARC
  5
170E0
330
172A5
100
AcDbEntity
  8
SUNPOU
100
AcDbCircle
 10
10829.12750789964
 20
9108.243182432325
 30
0.0
 40
5.625
100
AcDbArc
 50
90.0
 51
270.0
  0
ARC
  5
170E1
330
172A5
100
AcDbEntity
  8
SUNPOU
100
AcDbCircle
 10
10829.12750789964
 20
8708.243182432324
 30
0.0
 40
5.625
100
AcDbArc
 50
270.0
 51
90.0
  0
ARC
  5
170E2
330
172A5
100
AcDbEntity
  8
SUNPOU
100
AcDbCircle
 10
10829.12750789964
 20
8708.243182432324
 30
0.0
 40
5.625
100
AcDbArc
 50
90.0
 51
270.0
  0
ARC
  5
170E3
330
172A5
100
AcDbEntity
  8
SUNPOU
100
AcDbCircle
 10
10829.12750789964
 20
8708.243182432324
 30
0.0
 40
5.625
100
AcDbArc
 50
90.0
 51
270.0
  0
ARC
  5
170E4
330
172A5
100
AcDbEntity
  8
SUNPOU
100
AcDbCircle
 10
10829.12750789964
 20
8708.243182432324
 30
0.0
 40
5.625
100
AcDbArc
 50
270.0
 51
90.0
  0
ARC
  5
170E5
330
172A5
100
AcDbEntity
  8
SUNPOU
100
AcDbCircle
 10
10829.12750789964
 20
6908.243182432326
 30
0.0
 40
5.625
100
AcDbArc
 50
270.0
 51
90.0
  0
ARC
  5
170E6
330
172A5
100
AcDbEntity
  8
SUNPOU
100
AcDbCircle
 10
10829.12750789964
 20
6908.243182432326
 30
0.0
 40
5.625
100
AcDbArc
 50
90.0
 51
270.0
  0
ARC
  5
170E7
330
172A5
100
AcDbEntity
  8
SUNPOU
100
AcDbCircle
 10
10829.12750789964
 20
6908.243182432326
 30
0.0
 40
5.625
100
AcDbArc
 50
90.0
 51
270.0
  0
ARC
  5
170E8
330
172A5
100
AcDbEntity
  8
SUNPOU
100
AcDbCircle
 10
10829.12750789964
 20
6908.243182432326
 30
0.0
 40
5.625
100
AcDbArc
 50
270.0
 51
90.0
  0
ARC
  5
170E9
330
172A5
100
AcDbEntity
  8
SUNPOU
100
AcDbCircle
 10
11039.12750789964
 20
6508.243182432327
 30
0.0
 40
5.625
100
AcDbArc
 50
90.0
 51
270.0
  0
ARC
  5
170EA
330
172A5
100
AcDbEntity
  8
SUNPOU
100
AcDbCircle
 10
11039.12750789964
 20
6508.243182432327
 30
0.0
 40
5.625
100
AcDbArc
 50
270.0
 51
90.0
  0
ARC
  5
170EB
330
172A5
100
AcDbEntity
  8
SUNPOU
100
AcDbCircle
 10
10829.12750789964
 20
6508.243182432327
 30
0.0
 40
5.625
100
AcDbArc
 50
90.0
 51
270.0
  0
ARC
  5
170EC
330
172A5
100
AcDbEntity
  8
SUNPOU
100
AcDbCircle
 10
10829.12750789964
 20
6508.243182432327
 30
0.0
 40
5.625
100
AcDbArc
 50
270.0
 51
90.0
  0
TEXT
  5
170ED
330
172A5
100
AcDbEntity
  8
SUNPOU
100
AcDbText
 10
9074.127507899641
 20
8622.528896718041
 30
0.0
 40
90.0
  1
800
 50
90.0
 41
0.6666666666666666
  7
00
100
AcDbText
  0
LINE
  5
170EF
330
172A5
100
AcDbEntity
  8
SUNPOU
100
AcDbLine
 10
9119.127507899641
 20
8319.493182432324
 30
0.0
 11
9119.127507899641
 21
8330.743182432325
 31
0.0
  0
LINE
  5
170F1
330
172A5
100
AcDbEntity
  8
SUNPOU
100
AcDbLine
 10
9119.127507899641
 20
9096.993182432328
 30
0.0
 11
9119.127507899641
 21
9085.743182432329
 31
0.0
  0
TEXT
  5
170F2
330
172A5
100
AcDbEntity
  8
SUNPOU
100
AcDbText
 10
9733.413222185355
 20
8053.243182432325
 30
0.0
 40
90.0
  1
800
 41
0.6666666666666666
  7
00
100
AcDbText
  0
LINE
  5
170F4
330
172A5
100
AcDbEntity
  8
SUNPOU
100
AcDbLine
 10
10207.87750789964
 20
8008.243182432327
 30
0.0
 11
10196.62750789964
 21
8008.243182432327
 31
0.0
  0
LINE
  5
170F6
330
172A5
100
AcDbEntity
  8
SUNPOU
100
AcDbLine
 10
9430.37750789964
 20
8008.243182432327
 30
0.0
 11
9441.627507899641
 21
8008.243182432327
 31
0.0
  0
ARC
  5
170F7
330
172A5
100
AcDbEntity
  8
SUNPOU
100
AcDbCircle
 10
4249.856483595691
 20
4556.963733520728
 30
0.0
 40
5.625
100
AcDbArc
 50
0.0
 51
180.0
  0
ARC
  5
170F8
330
172A5
100
AcDbEntity
  8
SUNPOU
100
AcDbCircle
 10
4249.856483595691
 20
4556.963733520728
 30
0.0
 40
5.625
100
AcDbArc
 50
180.0
 51
0.0
  0
ARC
  5
170F9
330
172A5
100
AcDbEntity
  8
SUNPOU
100
AcDbCircle
 10
4889.856483595693
 20
4556.963733520728
 30
0.0
 40
5.625
100
AcDbArc
 50
180.0
 51
0.0
  0
ARC
  5
170FA
330
172A5
100
AcDbEntity
  8
SUNPOU
100
AcDbCircle
 10
4889.856483595693
 20
4556.963733520728
 30
0.0
 40
5.625
100
AcDbArc
 50
0.0
 51
180.0
  0
ARC
  5
170FB
330
172A5
100
AcDbEntity
  8
SUNPOU
100
AcDbCircle
 10
6818.18758900464
 20
3145.963733520729
 30
0.0
 40
5.625
100
AcDbArc
 50
90.0
 51
270.0
  0
ARC
  5
170FC
330
172A5
100
AcDbEntity
  8
SUNPOU
100
AcDbCircle
 10
6818.18758900464
 20
3145.963733520729
 30
0.0
 40
5.625
100
AcDbArc
 50
270.0
 51
90.0
  0
ARC
  5
170FD
330
172A5
100
AcDbEntity
  8
SUNPOU
100
AcDbCircle
 10
6818.18758900464
 20
3753.963733520729
 30
0.0
 40
5.625
100
AcDbArc
 50
270.0
 51
90.0
  0
ARC
  5
170FE
330
172A5
100
AcDbEntity
  8
SUNPOU
100
AcDbCircle
 10
6818.18758900464
 20
3753.963733520729
 30
0.0
 40
5.625
100
AcDbArc
 50
90.0
 51
270.0
  0
ARC
  5
170FF
330
172A5
100
AcDbEntity
  8
SUNPOU
100
AcDbCircle
 10
6818.18758900464
 20
2985.963733520732
 30
0.0
 40
5.625
100
AcDbArc
 50
90.0
 51
270.0
  0
ARC
  5
17100
330
172A5
100
AcDbEntity
  8
SUNPOU
100
AcDbCircle
 10
6818.18758900464
 20
2985.963733520732
 30
0.0
 40
5.625
100
AcDbArc
 50
270.0
 51
90.0
  0
ARC
  5
17101
330
172A5
100
AcDbEntity
  8
SUNPOU
100
AcDbCircle
 10
6818.18758900464
 20
3145.963733520728
 30
0.0
 40
5.625
100
AcDbArc
 50
270.0
 51
90.0
  0
ARC
  5
17102
330
172A5
100
AcDbEntity
  8
SUNPOU
100
AcDbCircle
 10
6818.18758900464
 20
3145.963733520728
 30
0.0
 40
5.625
100
AcDbArc
 50
90.0
 51
270.0
  0
ARC
  5
17103
330
172A5
100
AcDbEntity
  8
SUNPOU
100
AcDbCircle
 10
7024.43758900464
 20
2985.963733520732
 30
0.0
 40
5.625
100
AcDbArc
 50
90.0
 51
270.0
  0
ARC
  5
17104
330
172A5
100
AcDbEntity
  8
SUNPOU
100
AcDbCircle
 10
7024.43758900464
 20
2985.963733520732
 30
0.0
 40
5.625
100
AcDbArc
 50
270.0
 51
90.0
  0
ARC
  5
17105
330
172A5
100
AcDbEntity
  8
SUNPOU
100
AcDbCircle
 10
7024.43758900464
 20
3753.963733520729
 30
0.0
 40
5.625
100
AcDbArc
 50
270.0
 51
90.0
  0
ARC
  5
17106
330
172A5
100
AcDbEntity
  8
SUNPOU
100
AcDbCircle
 10
7024.43758900464
 20
3753.963733520729
 30
0.0
 40
5.625
100
AcDbArc
 50
90.0
 51
270.0
  0
ARC
  5
17107
330
172A5
100
AcDbEntity
  8
SUNPOU
100
AcDbCircle
 10
5529.856483595692
 20
2605.963733520728
 30
0.0
 40
5.625
100
AcDbArc
 50
180.0
 51
0.0
  0
ARC
  5
17108
330
172A5
100
AcDbEntity
  8
SUNPOU
100
AcDbCircle
 10
5529.856483595692
 20
2605.963733520728
 30
0.0
 40
5.625
100
AcDbArc
 50
0.0
 51
180.0
  0
ARC
  5
17109
330
172A5
100
AcDbEntity
  8
SUNPOU
100
AcDbCircle
 10
4249.856483595691
 20
2605.963733520728
 30
0.0
 40
5.625
100
AcDbArc
 50
0.0
 51
180.0
  0
ARC
  5
1710A
330
172A5
100
AcDbEntity
  8
SUNPOU
100
AcDbCircle
 10
4249.856483595691
 20
2605.963733520728
 30
0.0
 40
5.625
100
AcDbArc
 50
180.0
 51
0.0
  0
ARC
  5
1710B
330
172A5
100
AcDbEntity
  8
SUNPOU
100
AcDbCircle
 10
5689.856483595693
 20
2395.963733520728
 30
0.0
 40
5.625
100
AcDbArc
 50
180.0
 51
0.0
  0
ARC
  5
1710C
330
172A5
100
AcDbEntity
  8
SUNPOU
100
AcDbCircle
 10
5689.856483595693
 20
2395.963733520728
 30
0.0
 40
5.625
100
AcDbArc
 50
0.0
 51
180.0
  0
ARC
  5
1710D
330
172A5
100
AcDbEntity
  8
SUNPOU
100
AcDbCircle
 10
4089.856483595691
 20
2395.963733520728
 30
0.0
 40
5.625
100
AcDbArc
 50
0.0
 51
180.0
  0
ARC
  5
1710E
330
172A5
100
AcDbEntity
  8
SUNPOU
100
AcDbCircle
 10
4089.856483595691
 20
2395.963733520728
 30
0.0
 40
5.625
100
AcDbArc
 50
180.0
 51
0.0
  0
ARC
  5
1710F
330
172A5
100
AcDbEntity
  8
SUNPOU
100
AcDbCircle
 10
10619.12750789964
 20
8708.243182432324
 30
0.0
 40
5.625
100
AcDbArc
 50
90.0
 51
270.0
  0
ARC
  5
17110
330
172A5
100
AcDbEntity
  8
SUNPOU
100
AcDbCircle
 10
10619.12750789964
 20
8708.243182432324
 30
0.0
 40
5.625
100
AcDbArc
 50
270.0
 51
90.0
  0
ARC
  5
17111
330
172A5
100
AcDbEntity
  8
SUNPOU
100
AcDbCircle
 10
10619.12750789964
 20
8908.243182432325
 30
0.0
 40
5.625
100
AcDbArc
 50
270.0
 51
90.0
  0
ARC
  5
17112
330
172A5
100
AcDbEntity
  8
SUNPOU
100
AcDbCircle
 10
10619.12750789964
 20
8908.243182432325
 30
0.0
 40
5.625
100
AcDbArc
 50
90.0
 51
270.0
  0
ARC
  5
17113
330
172A5
100
AcDbEntity
  8
SUNPOU
100
AcDbCircle
 10
10619.12750789964
 20
9108.243182432325
 30
0.0
 40
5.625
100
AcDbArc
 50
270.0
 51
90.0
  0
ARC
  5
17114
330
172A5
100
AcDbEntity
  8
SUNPOU
100
AcDbCircle
 10
10619.12750789964
 20
9108.243182432325
 30
0.0
 40
5.625
100
AcDbArc
 50
90.0
 51
270.0
  0
ARC
  5
17115
330
172A5
100
AcDbEntity
  8
SUNPOU
100
AcDbCircle
 10
10619.12750789964
 20
8908.243182432325
 30
0.0
 40
5.625
100
AcDbArc
 50
90.0
 51
270.0
  0
ARC
  5
17116
330
172A5
100
AcDbEntity
  8
SUNPOU
100
AcDbCircle
 10
10619.12750789964
 20
8908.243182432325
 30
0.0
 40
5.625
100
AcDbArc
 50
270.0
 51
90.0
  0
ARC
  5
17117
330
172A5
100
AcDbEntity
  8
SUNPOU
100
AcDbCircle
 10
10219.12750789964
 20
9618.243182432324
 30
0.0
 40
5.625
100
AcDbArc
 50
180.0
 51
0.0
  0
ARC
  5
17118
330
172A5
100
AcDbEntity
  8
SUNPOU
100
AcDbCircle
 10
10219.12750789964
 20
9618.243182432324
 30
0.0
 40
5.625
100
AcDbArc
 50
0.0
 51
180.0
  0
ARC
  5
17119
330
172A5
100
AcDbEntity
  8
SUNPOU
100
AcDbCircle
 10
6619.127507899641
 20
9618.243182432324
 30
0.0
 40
5.625
100
AcDbArc
 50
0.0
 51
180.0
  0
ARC
  5
1711A
330
172A5
100
AcDbEntity
  8
SUNPOU
100
AcDbCircle
 10
6619.127507899641
 20
9618.243182432324
 30
0.0
 40
5.625
100
AcDbArc
 50
180.0
 51
0.0
  0
ARC
  5
1711B
330
172A5
100
AcDbEntity
  8
SUNPOU
100
AcDbCircle
 10
7019.127507899641
 20
9408.243182432325
 30
0.0
 40
5.625
100
AcDbArc
 50
0.0
 51
180.0
  0
ARC
  5
1711C
330
172A5
100
AcDbEntity
  8
SUNPOU
100
AcDbCircle
 10
7019.127507899641
 20
9408.243182432325
 30
0.0
 40
5.625
100
AcDbArc
 50
180.0
 51
0.0
  0
ARC
  5
1711D
330
172A5
100
AcDbEntity
  8
SUNPOU
100
AcDbCircle
 10
9819.127507899644
 20
9408.243182432325
 30
0.0
 40
5.625
100
AcDbArc
 50
180.0
 51
0.0
  0
ARC
  5
1711E
330
172A5
100
AcDbEntity
  8
SUNPOU
100
AcDbCircle
 10
9819.127507899644
 20
9408.243182432325
 30
0.0
 40
5.625
100
AcDbArc
 50
0.0
 51
180.0
  0
ARC
  5
1711F
330
172A5
100
AcDbEntity
  8
SUNPOU
100
AcDbCircle
 10
6619.127507899641
 20
9408.243182432325
 30
0.0
 40
5.625
100
AcDbArc
 50
0.0
 51
180.0
  0
ARC
  5
17120
330
172A5
100
AcDbEntity
  8
SUNPOU
100
AcDbCircle
 10
6619.127507899641
 20
9408.243182432325
 30
0.0
 40
5.625
100
AcDbArc
 50
180.0
 51
0.0
  0
ARC
  5
17121
330
172A5
100
AcDbEntity
  8
SUNPOU
100
AcDbCircle
 10
7019.127507899641
 20
9408.243182432325
 30
0.0
 40
5.625
100
AcDbArc
 50
180.0
 51
0.0
  0
ARC
  5
17122
330
172A5
100
AcDbEntity
  8
SUNPOU
100
AcDbCircle
 10
7019.127507899641
 20
9408.243182432325
 30
0.0
 40
5.625
100
AcDbArc
 50
0.0
 51
180.0
  0
ARC
  5
17123
330
172A5
100
AcDbEntity
  8
SUNPOU
100
AcDbCircle
 10
10219.12750789964
 20
9408.243182432325
 30
0.0
 40
5.625
100
AcDbArc
 50
180.0
 51
0.0
  0
ARC
  5
17124
330
172A5
100
AcDbEntity
  8
SUNPOU
100
AcDbCircle
 10
10219.12750789964
 20
9408.243182432325
 30
0.0
 40
5.625
100
AcDbArc
 50
0.0
 51
180.0
  0
ARC
  5
17125
330
172A5
100
AcDbEntity
  8
SUNPOU
100
AcDbCircle
 10
9819.127507899644
 20
9408.243182432325
 30
0.0
 40
5.625
100
AcDbArc
 50
0.0
 51
180.0
  0
ARC
  5
17126
330
172A5
100
AcDbEntity
  8
SUNPOU
100
AcDbCircle
 10
9819.127507899644
 20
9408.243182432325
 30
0.0
 40
5.625
100
AcDbArc
 50
180.0
 51
0.0
  0
ARC
  5
17127
330
172A5
100
AcDbEntity
  8
SUNPOU
100
AcDbCircle
 10
9119.127507899641
 20
8308.243182432326
 30
0.0
 40
5.625
100
AcDbArc
 50
90.0
 51
270.0
  0
ARC
  5
17128
330
172A5
100
AcDbEntity
  8
SUNPOU
100
AcDbCircle
 10
9119.127507899641
 20
8308.243182432326
 30
0.0
 40
5.625
100
AcDbArc
 50
270.0
 51
90.0
  0
ARC
  5
17129
330
172A5
100
AcDbEntity
  8
SUNPOU
100
AcDbCircle
 10
9119.127507899641
 20
9108.243182432325
 30
0.0
 40
5.625
100
AcDbArc
 50
270.0
 51
90.0
  0
ARC
  5
1712A
330
172A5
100
AcDbEntity
  8
SUNPOU
100
AcDbCircle
 10
9119.127507899641
 20
9108.243182432325
 30
0.0
 40
5.625
100
AcDbArc
 50
90.0
 51
270.0
  0
ARC
  5
1712B
330
172A5
100
AcDbEntity
  8
SUNPOU
100
AcDbCircle
 10
10219.12750789964
 20
8008.243182432327
 30
0.0
 40
5.625
100
AcDbArc
 50
180.0
 51
0.0
  0
ARC
  5
1712C
330
172A5
100
AcDbEntity
  8
SUNPOU
100
AcDbCircle
 10
10219.12750789964
 20
8008.243182432327
 30
0.0
 40
5.625
100
AcDbArc
 50
0.0
 51
180.0
  0
ARC
  5
1712D
330
172A5
100
AcDbEntity
  8
SUNPOU
100
AcDbCircle
 10
9419.127507899641
 20
8008.243182432327
 30
0.0
 40
5.625
100
AcDbArc
 50
0.0
 51
180.0
  0
ARC
  5
1712E
330
172A5
100
AcDbEntity
  8
SUNPOU
100
AcDbCircle
 10
9419.127507899641
 20
8008.243182432327
 30
0.0
 40
5.625
100
AcDbArc
 50
180.0
 51
0.0
  0
ARC
  5
17132
330
172A5
100
AcDbEntity
  8
HIKIDASHI
100
AcDbCircle
 10
4217.388914848876
 20
4214.34846204352
 30
0.0
 40
74.66417910446155
100
AcDbArc
 50
164.8596129851117
 51
237.5045002941574
  0
ARC
  5
17133
330
172A5
100
AcDbEntity
  8
HIKIDASHI
100
AcDbCircle
 10
4153.965120802623
 20
4231.50948552799
 30
0.0
 40
8.959701492535391
100
AcDbArc
 50
15.14038701506339
 51
164.8596129849366
  0
LINE
  5
1713A
330
172A5
100
AcDbEntity
  8
HIKIDASHI
100
AcDbLine
 10
4627.888538436751
 20
3319.245765823483
 30
0.0
 11
4186.816957180232
 21
4083.204154334509
 31
0.0
1001
ACAD
1000
DSTYLE
1002
{
1070
   147
1040
1.0
1070
    77
1070
     0
1002
}
  0
LINE
  5
1713B
330
172A5
100
AcDbEntity
  8
HIKIDASHI
100
AcDbLine
 10
4616.341533052959
 20
3312.579099156816
 30
0.0
 11
4667.888538436751
 21
3249.963733520729
 31
0.0
  0
LINE
  5
1713C
330
172A5
100
AcDbEntity
  8
HIKIDASHI
100
AcDbLine
 10
4667.888538436751
 20
3249.963733520729
 30
0.0
 11
4639.435543820545
 21
3325.912432490151
 31
0.0
  0
SOLID
  5
1713D
330
172A5
100
AcDbEntity
  8
HIKIDASHI
100
AcDbTrace
 10
4616.341533052959
 20
3312.579099156816
 30
0.0
 11
4639.435543820545
 21
3325.912432490151
 31
0.0
 12
4667.888538436751
 22
3249.963733520729
 32
0.0
 13
4667.888538436751
 23
3249.963733520729
 33
0.0
  0
LINE
  5
1713E
330
172A5
100
AcDbEntity
  8
HIKIDASHI
100
AcDbLine
 10
4639.435543820545
 20
3325.912432490151
 30
0.0
 11
4616.341533052959
 21
3312.579099156816
 31
0.0
  0
ARC
  5
1713F
330
172A5
100
AcDbEntity
  8
HIKIDASHI
100
AcDbCircle
 10
4091.720853292108
 20
4215.528589403109
 30
0.0
 40
74.66417910446081
100
AcDbArc
 50
301.7712278330701
 51
15.1403870149094
  0
LINE
  5
17140
330
172A5
100
AcDbEntity
  8
HIKIDASHI
100
AcDbLine
 10
5936.424512455826
 20
3642.477924325876
 30
0.0
 11
6196.483271007117
 21
4083.963733520728
 31
0.0
1001
ACAD
1000
DSTYLE
1002
{
1070
   147
1040
1.0
1070
    77
1070
     0
1070
   173
1070
     0
1070
   341
1005
125B0
1002
}
  0
ARC
  5
17141
330
172A5
100
AcDbEntity
  8
HIKIDASHI
100
AcDbCircle
 10
5906.320199686221
 20
3551.966211169526
 30
0.0
 40
24.0
100
AcDbArc
 50
3.056949146300892
 51
115.9423296224592
  0
ARC
  5
17142
330
172A5
100
AcDbEntity
  8
HIKIDASHI
100
AcDbCircle
 10
5885.321819467964
 20
3595.129482920051
 30
0.0
 40
24.0
100
AcDbArc
 50
183.0569491463009
 51
295.9423296224593
  0
LINE
  5
17143
330
172A5
100
AcDbEntity
  8
HIKIDASHI
100
AcDbLine
 10
5895.821009577092
 20
3573.547847044789
 30
0.0
 11
5936.424512455836
 21
3642.477924325891
 31
0.0
  0
LINE
  5
17144
330
172A5
100
AcDbEntity
  8
HIKIDASHI
100
AcDbLine
 10
5719.385201492448
 20
3823.245765823486
 30
0.0
 11
5991.154346854814
 21
4293.963733520728
 31
0.0
1001
ACAD
1000
DSTYLE
1002
{
1070
   147
1040
1.0
1070
    77
1070
     0
1002
}
  0
LINE
  5
17145
330
172A5
100
AcDbEntity
  8
HIKIDASHI
100
AcDbLine
 10
5707.838196108657
 20
3829.912432490152
 30
0.0
 11
5679.385201492451
 21
3753.963733520729
 31
0.0
  0
LINE
  5
17146
330
172A5
100
AcDbEntity
  8
HIKIDASHI
100
AcDbLine
 10
5679.385201492451
 20
3753.963733520729
 30
0.0
 11
5730.932206876241
 21
3816.57909915682
 31
0.0
  0
SOLID
  5
17147
330
172A5
100
AcDbEntity
  8
HIKIDASHI
100
AcDbTrace
 10
5707.838196108657
 20
3829.912432490152
 30
0.0
 11
5730.932206876241
 21
3816.57909915682
 31
0.0
 12
5679.385201492451
 22
3753.963733520729
 32
0.0
 13
5679.385201492451
 23
3753.963733520729
 33
0.0
  0
LINE
  5
17148
330
172A5
100
AcDbEntity
  8
HIKIDASHI
100
AcDbLine
 10
5730.932206876241
 20
3816.57909915682
 30
0.0
 11
5707.838196108657
 21
3829.912432490152
 31
0.0
  0
LINE
  5
17149
330
172A5
100
AcDbEntity
  8
HIKIDASHI
100
AcDbLine
 10
4058.272423574408
 20
3024.462392359007
 30
0.0
 11
3864.689878611732
 21
2573.963733520729
 31
0.0
  0
LINE
  5
1714A
330
172A5
100
AcDbEntity
  8
HIKIDASHI
100
AcDbLine
 10
4070.522647101362
 20
3019.198382355458
 30
0.0
 11
4089.856483595691
 21
3097.963733520729
 31
0.0
  0
LINE
  5
1714B
330
172A5
100
AcDbEntity
  8
HIKIDASHI
100
AcDbLine
 10
4089.856483595691
 20
3097.963733520729
 30
0.0
 11
4046.022200047453
 21
3029.726402362554
 31
0.0
  0
SOLID
  5
1714C
330
172A5
100
AcDbEntity
  8
HIKIDASHI
100
AcDbTrace
 10
4070.522647101362
 20
3019.198382355458
 30
0.0
 11
4046.022200047453
 21
3029.726402362554
 31
0.0
 12
4089.856483595691
 22
3097.963733520729
 32
0.0
 13
4089.856483595691
 23
3097.963733520729
 33
0.0
  0
LINE
  5
1714D
330
172A5
100
AcDbEntity
  8
HIKIDASHI
100
AcDbLine
 10
4046.022200047453
 20
3029.726402362554
 30
0.0
 11
4070.522647101362
 21
3019.198382355458
 31
0.0
  0
LINE
  5
1714E
330
172A5
100
AcDbEntity
  8
HATCH
100
AcDbLine
 10
5353.544817397462
 20
2985.963733520728
 30
0.0
 11
5445.920860467789
 21
3145.963733520705
 31
0.0
  0
LINE
  5
1714F
330
172A5
100
AcDbEntity
  8
HATCH
100
AcDbLine
 10
5381.920860467798
 20
3145.963733520704
 30
0.0
 11
5413.920860467793
 21
3090.538107678512
 31
0.0
  0
LINE
  5
17150
330
172A5
100
AcDbEntity
  8
HATCH
100
AcDbLine
 10
5385.544817397457
 20
3041.389359362927
 30
0.0
 11
5417.544817397452
 21
2985.963733520728
 31
0.0
  0
LINE
  5
17151
330
172A5
100
AcDbEntity
  8
HATCH
100
AcDbLine
 10
5153.544817397462
 20
2985.963733520728
 30
0.0
 11
5245.920860467789
 21
3145.963733520705
 31
0.0
  0
LINE
  5
17152
330
172A5
100
AcDbEntity
  8
HATCH
100
AcDbLine
 10
5181.920860467798
 20
3145.963733520704
 30
0.0
 11
5213.920860467793
 21
3090.538107678512
 31
0.0
  0
LINE
  5
17153
330
172A5
100
AcDbEntity
  8
HATCH
100
AcDbLine
 10
5185.544817397457
 20
3041.389359362927
 30
0.0
 11
5217.544817397453
 21
2985.963733520728
 31
0.0
  0
LINE
  5
17154
330
172A5
100
AcDbEntity
  8
HATCH
100
AcDbLine
 10
4953.544817397462
 20
2985.963733520728
 30
0.0
 11
5045.920860467789
 21
3145.963733520705
 31
0.0
  0
LINE
  5
17155
330
172A5
100
AcDbEntity
  8
HATCH
100
AcDbLine
 10
4981.920860467798
 20
3145.963733520704
 30
0.0
 11
5013.920860467793
 21
3090.538107678512
 31
0.0
  0
LINE
  5
17156
330
172A5
100
AcDbEntity
  8
HATCH
100
AcDbLine
 10
4985.544817397457
 20
3041.389359362927
 30
0.0
 11
5017.544817397452
 21
2985.963733520728
 31
0.0
  0
LINE
  5
17157
330
172A5
100
AcDbEntity
  8
HATCH
100
AcDbLine
 10
4553.544817397462
 20
2985.963733520728
 30
0.0
 11
4645.920860467787
 21
3145.963733520705
 31
0.0
  0
LINE
  5
17158
330
172A5
100
AcDbEntity
  8
HATCH
100
AcDbLine
 10
4581.920860467798
 20
3145.963733520704
 30
0.0
 11
4613.920860467793
 21
3090.538107678512
 31
0.0
  0
LINE
  5
17159
330
172A5
100
AcDbEntity
  8
HATCH
100
AcDbLine
 10
4585.544817397457
 20
3041.389359362927
 30
0.0
 11
4617.544817397452
 21
2985.963733520728
 31
0.0
  0
LINE
  5
1715A
330
172A5
100
AcDbEntity
  8
HATCH
100
AcDbLine
 10
4353.544817397462
 20
2985.963733520728
 30
0.0
 11
4445.920860467789
 21
3145.963733520705
 31
0.0
  0
LINE
  5
1715B
330
172A5
100
AcDbEntity
  8
HATCH
100
AcDbLine
 10
4381.920860467798
 20
3145.963733520704
 30
0.0
 11
4413.920860467793
 21
3090.538107678512
 31
0.0
  0
LINE
  5
1715C
330
172A5
100
AcDbEntity
  8
HATCH
100
AcDbLine
 10
4385.544817397457
 20
3041.389359362927
 30
0.0
 11
4417.544817397452
 21
2985.963733520728
 31
0.0
  0
LINE
  5
1715D
330
172A5
100
AcDbEntity
  8
HATCH
100
AcDbLine
 10
4753.544817397462
 20
2985.963733520728
 30
0.0
 11
4845.920860467789
 21
3145.963733520705
 31
0.0
  0
LINE
  5
1715E
330
172A5
100
AcDbEntity
  8
HATCH
100
AcDbLine
 10
4781.920860467798
 20
3145.963733520704
 30
0.0
 11
4813.920860467793
 21
3090.538107678512
 31
0.0
  0
LINE
  5
1715F
330
172A5
100
AcDbEntity
  8
HATCH
100
AcDbLine
 10
4785.544817397457
 20
3041.389359362927
 30
0.0
 11
4817.544817397452
 21
2985.963733520728
 31
0.0
  0
LINE
  5
17160
330
172A5
100
AcDbEntity
  8
HATCH
100
AcDbLine
 10
5553.544817397463
 20
2985.96373352073
 30
0.0
 11
5645.920860467789
 21
3145.963733520706
 31
0.0
  0
LINE
  5
17161
330
172A5
100
AcDbEntity
  8
HATCH
100
AcDbLine
 10
5581.920860467799
 20
3145.963733520704
 30
0.0
 11
5613.920860467795
 21
3090.538107678512
 31
0.0
  0
LINE
  5
17162
330
172A5
100
AcDbEntity
  8
HATCH
100
AcDbLine
 10
5585.544817397458
 20
3041.389359362927
 30
0.0
 11
5617.544817397453
 21
2985.96373352073
 31
0.0
  0
LINE
  5
17163
330
172A5
100
AcDbEntity
  8
HATCH
100
AcDbLine
 10
4153.544817397462
 20
2985.963733520728
 30
0.0
 11
4245.92086046779
 21
3145.963733520704
 31
0.0
  0
LINE
  5
17164
330
172A5
100
AcDbEntity
  8
HATCH
100
AcDbLine
 10
4181.920860467799
 20
3145.963733520703
 30
0.0
 11
4213.920860467793
 21
3090.538107678511
 31
0.0
  0
LINE
  5
17165
330
172A5
100
AcDbEntity
  8
HATCH
100
AcDbLine
 10
4185.544817397459
 20
3041.389359362926
 30
0.0
 11
4217.544817397453
 21
2985.963733520728
 31
0.0
  0
LINE
  5
17166
330
172A5
100
AcDbEntity
  8
TEKKIN
100
AcDbLine
 10
4837.856483595691
 20
3249.963733520729
 30
0.0
 11
4609.856483595691
 21
3249.963733520729
 31
0.0
  0
LINE
  5
17167
330
172A5
100
AcDbEntity
  8
TEKKIN
100
AcDbLine
 10
4609.856483595691
 20
3249.963733520729
 30
0.0
 11
4609.856483595691
 21
3233.96373352073
 31
0.0
  0
LINE
  5
17168
330
172A5
100
AcDbEntity
  8
TEKKIN
100
AcDbLine
 10
4609.856483595691
 20
3233.96373352073
 30
0.0
 11
4837.856483595691
 21
3233.96373352073
 31
0.0
  0
LINE
  5
17169
330
172A5
100
AcDbEntity
  8
TEKKIN
100
AcDbLine
 10
4941.856483595691
 20
3233.96373352073
 30
0.0
 11
5169.856483595691
 21
3233.96373352073
 31
0.0
  0
LINE
  5
1716A
330
172A5
100
AcDbEntity
  8
TEKKIN
100
AcDbLine
 10
5169.856483595691
 20
3233.96373352073
 30
0.0
 11
5169.856483595691
 21
3249.963733520729
 31
0.0
  0
LINE
  5
1716B
330
172A5
100
AcDbEntity
  8
TEKKIN
100
AcDbLine
 10
5169.856483595691
 20
3249.963733520729
 30
0.0
 11
4941.856483595691
 21
3249.963733520729
 31
0.0
  0
LINE
  5
1716C
330
172A5
100
AcDbEntity
  8
DOMAKON
100
AcDbLine
 10
10219.12750789964
 20
6508.243182432327
 30
0.0
 11
6619.127507899641
 21
6508.243182432327
 31
0.0
  0
LINE
  5
1716D
330
172A5
100
AcDbEntity
  8
DOMAKON
100
AcDbLine
 10
6619.127507899641
 20
6508.243182432327
 30
0.0
 11
6619.127507899641
 21
8908.243182432325
 31
0.0
  0
LINE
  5
1716E
330
172A5
100
AcDbEntity
  8
DOMAKON
100
AcDbLine
 10
6619.127507899641
 20
8908.243182432325
 30
0.0
 11
10219.12750789964
 21
8908.243182432325
 31
0.0
  0
LINE
  5
1716F
330
172A5
100
AcDbEntity
  8
DOMAKON
100
AcDbLine
 10
10219.12750789964
 20
8908.243182432325
 30
0.0
 11
10219.12750789964
 21
6508.243182432327
 31
0.0
  0
LINE
  5
17170
330
172A5
100
AcDbEntity
  8
YANE
  6
2PL-L
 62
     6
100
AcDbLine
 10
10215.12750789964
 20
6408.243182432326
 30
0.0
 11
6623.127507899638
 21
6408.243182432326
 31
0.0
  0
LINE
  5
17171
330
172A5
100
AcDbEntity
  8
YANE
  6
2PL-L
 62
     6
100
AcDbLine
 10
6623.127507899638
 20
6408.243182432326
 30
0.0
 11
6623.127507899638
 21
8958.243182432324
 31
0.0
  0
LINE
  5
17172
330
172A5
100
AcDbEntity
  8
YANE
  6
2PL-L
 62
     6
100
AcDbLine
 10
6623.127507899638
 20
8958.243182432324
 30
0.0
 11
10215.12750789964
 21
8958.243182432324
 31
0.0
  0
LINE
  5
17173
330
172A5
100
AcDbEntity
  8
YANE
  6
2PL-L
 62
     6
100
AcDbLine
 10
10215.12750789964
 20
8958.243182432324
 30
0.0
 11
10215.12750789964
 21
6408.243182432326
 31
0.0
  0
LINE
  5
17174
330
172A5
100
AcDbEntity
  8
KISO
100
AcDbLine
 10
7419.127507899641
 20
6508.243182432327
 30
0.0
 11
6619.127507899641
 21
6508.243182432327
 31
0.0
  0
LINE
  5
17175
330
172A5
100
AcDbEntity
  8
KISO
100
AcDbLine
 10
6619.127507899641
 20
6508.243182432327
 30
0.0
 11
6619.127507899641
 21
7308.243182432327
 31
0.0
  0
LINE
  5
17176
330
172A5
100
AcDbEntity
  8
KISO
100
AcDbLine
 10
6619.127507899641
 20
7308.243182432327
 30
0.0
 11
7419.127507899641
 21
7308.243182432327
 31
0.0
  0
LINE
  5
17177
330
172A5
100
AcDbEntity
  8
KISO
100
AcDbLine
 10
7419.127507899641
 20
7308.243182432327
 30
0.0
 11
7419.127507899641
 21
6508.243182432327
 31
0.0
  0
LINE
  5
17178
330
172A5
100
AcDbEntity
  8
KISO
100
AcDbLine
 10
7419.127507899641
 20
8308.243182432326
 30
0.0
 11
6619.127507899641
 21
8308.243182432326
 31
0.0
  0
LINE
  5
17179
330
172A5
100
AcDbEntity
  8
KISO
100
AcDbLine
 10
6619.127507899641
 20
8308.243182432326
 30
0.0
 11
6619.127507899641
 21
9108.243182432325
 31
0.0
  0
LINE
  5
1717A
330
172A5
100
AcDbEntity
  8
KISO
100
AcDbLine
 10
6619.127507899641
 20
9108.243182432325
 30
0.0
 11
7419.127507899641
 21
9108.243182432325
 31
0.0
  0
LINE
  5
1717B
330
172A5
100
AcDbEntity
  8
KISO
100
AcDbLine
 10
7419.127507899641
 20
9108.243182432325
 30
0.0
 11
7419.127507899641
 21
8308.243182432326
 31
0.0
  0
LINE
  5
1717C
330
172A5
100
AcDbEntity
  8
KISO
100
AcDbLine
 10
10219.12750789964
 20
6508.243182432327
 30
0.0
 11
9419.127507899641
 21
6508.243182432327
 31
0.0
  0
LINE
  5
1717D
330
172A5
100
AcDbEntity
  8
KISO
100
AcDbLine
 10
9419.127507899641
 20
6508.243182432327
 30
0.0
 11
9419.127507899641
 21
7308.243182432327
 31
0.0
  0
LINE
  5
1717E
330
172A5
100
AcDbEntity
  8
KISO
100
AcDbLine
 10
9419.127507899641
 20
7308.243182432327
 30
0.0
 11
10219.12750789964
 21
7308.243182432327
 31
0.0
  0
LINE
  5
1717F
330
172A5
100
AcDbEntity
  8
KISO
100
AcDbLine
 10
10219.12750789964
 20
7308.243182432327
 30
0.0
 11
10219.12750789964
 21
6508.243182432327
 31
0.0
  0
LINE
  5
17180
330
172A5
100
AcDbEntity
  8
KISO
100
AcDbLine
 10
10219.12750789964
 20
8308.243182432326
 30
0.0
 11
9419.127507899641
 21
8308.243182432326
 31
0.0
  0
LINE
  5
17181
330
172A5
100
AcDbEntity
  8
KISO
100
AcDbLine
 10
9419.127507899641
 20
8308.243182432326
 30
0.0
 11
9419.127507899641
 21
9108.243182432325
 31
0.0
  0
LINE
  5
17182
330
172A5
100
AcDbEntity
  8
KISO
100
AcDbLine
 10
9419.127507899641
 20
9108.243182432325
 30
0.0
 11
10219.12750789964
 21
9108.243182432325
 31
0.0
  0
LINE
  5
17183
330
172A5
100
AcDbEntity
  8
KISO
100
AcDbLine
 10
10219.12750789964
 20
9108.243182432325
 30
0.0
 11
10219.12750789964
 21
8308.243182432326
 31
0.0
  0
LINE
  5
17184
330
172A5
100
AcDbEntity
  8
U1
100
AcDbLine
 10
9825.32750789964
 20
8678.043182432324
 30
0.0
 11
9792.927507899641
 21
8678.043182432324
 31
0.0
  0
LINE
  5
17185
330
172A5
100
AcDbEntity
  8
U1
100
AcDbLine
 10
9792.927507899641
 20
8738.443182432325
 30
0.0
 11
9845.327507899639
 21
8738.443182432325
 31
0.0
  0
ARC
  5
17187
330
172A5
100
AcDbEntity
  8
U1
100
AcDbCircle
 10
9792.927507899641
 20
8734.443182432325
 30
0.0
 40
4.0
100
AcDbArc
 50
90.0
 51
180.0
  0
ARC
  5
17188
330
172A5
100
AcDbEntity
  8
U1
100
AcDbCircle
 10
9792.927507899641
 20
8682.043182432328
 30
0.0
 40
4.0
100
AcDbArc
 50
180.0
 51
270.0
  0
LINE
  5
17189
330
172A5
100
AcDbEntity
  8
U1
100
AcDbLine
 10
9788.927507899643
 20
8682.043182432328
 30
0.0
 11
9788.927507899643
 21
8734.443182432325
 31
0.0
  0
ARC
  5
1718A
330
172A5
100
AcDbEntity
  8
U1
100
AcDbCircle
 10
9845.327507899639
 20
8734.443182432325
 30
0.0
 40
4.0
100
AcDbArc
 50
0.0
 51
90.0
  0
ARC
  5
1718B
330
172A5
100
AcDbEntity
  8
U1
100
AcDbCircle
 10
9825.32750789964
 20
8682.043182432321
 30
0.0
 40
4.0
100
AcDbArc
 50
270.0
 51
0.0
  0
ARC
  5
1718C
330
172A5
100
AcDbEntity
  8
U1
100
AcDbCircle
 10
9832.777507899642
 20
8691.293182432323
 30
0.0
 40
1.149999999999977
100
AcDbArc
 50
0.0
 51
180.0
  0
LINE
  5
1718D
330
172A5
100
AcDbEntity
  8
U1
100
AcDbLine
 10
9836.227507899641
 20
8683.743182432325
 30
0.0
 11
9836.227507899641
 21
8691.293182432323
 31
0.0
  0
LINE
  5
1718E
330
172A5
100
AcDbEntity
  8
U1
100
AcDbLine
 10
9833.927507899643
 20
8683.743182432325
 30
0.0
 11
9836.227507899641
 21
8683.743182432325
 31
0.0
  0
LINE
  5
1718F
330
172A5
100
AcDbEntity
  8
U1
100
AcDbLine
 10
9831.627507899641
 20
8690.743182432326
 30
0.0
 11
9833.927507899643
 21
8690.743182432326
 31
0.0
  0
ARC
  5
17190
330
172A5
100
AcDbEntity
  8
U1
100
AcDbCircle
 10
9832.777507899642
 20
8691.293182432323
 30
0.0
 40
3.450000000000044
100
AcDbArc
 50
0.0
 51
180.0
  0
LINE
  5
17191
330
172A5
100
AcDbEntity
  8
U1
100
AcDbLine
 10
9831.627507899641
 20
8691.293182432323
 30
0.0
 11
9831.627507899641
 21
8682.043182432328
 31
0.0
  0
LINE
  5
17192
330
172A5
100
AcDbEntity
  8
U1
100
AcDbLine
 10
9833.927507899643
 20
8682.043182432321
 30
0.0
 11
9833.927507899643
 21
8691.293182432323
 31
0.0
  0
LINE
  5
17193
330
172A5
100
AcDbEntity
  8
U1
100
AcDbLine
 10
9829.327507899641
 20
8691.293182432323
 30
0.0
 11
9829.327507899641
 21
8682.043182432321
 31
0.0
  0
ARC
  5
17194
330
172A5
100
AcDbEntity
  8
U1
100
AcDbCircle
 10
9845.327507899641
 20
8682.043182432321
 30
0.0
 40
4.0
100
AcDbArc
 50
270.0
 51
0.0
  0
LINE
  5
17195
330
172A5
100
AcDbEntity
  8
U1
100
AcDbLine
 10
9845.327507899641
 20
8678.043182432324
 30
0.0
 11
9837.927507899642
 21
8678.043182432324
 31
0.0
  0
ARC
  5
17196
330
172A5
100
AcDbEntity
  8
U1
100
AcDbCircle
 10
9837.927507899642
 20
8682.043182432321
 30
0.0
 40
4.0
100
AcDbArc
 50
180.0
 51
270.0
  0
LINE
  5
17197
330
172A5
100
AcDbEntity
  8
U1
100
AcDbLine
 10
9849.327507899639
 20
8734.443182432325
 30
0.0
 11
9849.327507899642
 21
8682.043182432321
 31
0.0
  0
LINE
  5
17198
330
172A5
100
AcDbEntity
  8
U1
100
AcDbLine
 10
7012.92750789964
 20
8678.043182432324
 30
0.0
 11
7045.327507899641
 21
8678.043182432324
 31
0.0
  0
LINE
  5
17199
330
172A5
100
AcDbEntity
  8
U1
100
AcDbLine
 10
7045.327507899641
 20
8738.443182432325
 30
0.0
 11
6992.92750789964
 21
8738.443182432325
 31
0.0
  0
ARC
  5
1719B
330
172A5
100
AcDbEntity
  8
U1
100
AcDbCircle
 10
7045.327507899641
 20
8734.443182432325
 30
0.0
 40
4.0
100
AcDbArc
 50
0.0
 51
90.0
  0
ARC
  5
1719C
330
172A5
100
AcDbEntity
  8
U1
100
AcDbCircle
 10
7045.327507899641
 20
8682.043182432321
 30
0.0
 40
4.0
100
AcDbArc
 50
270.0
 51
0.0
  0
LINE
  5
1719D
330
172A5
100
AcDbEntity
  8
U1
100
AcDbLine
 10
7049.327507899642
 20
8682.043182432321
 30
0.0
 11
7049.327507899642
 21
8734.443182432325
 31
0.0
  0
ARC
  5
1719E
330
172A5
100
AcDbEntity
  8
U1
100
AcDbCircle
 10
6992.92750789964
 20
8734.443182432325
 30
0.0
 40
4.0
100
AcDbArc
 50
90.0
 51
180.0
  0
ARC
  5
1719F
330
172A5
100
AcDbEntity
  8
U1
100
AcDbCircle
 10
7012.92750789964
 20
8682.043182432321
 30
0.0
 40
4.0
100
AcDbArc
 50
180.0
 51
270.0
  0
ARC
  5
171A0
330
172A5
100
AcDbEntity
  8
U1
100
AcDbCircle
 10
7005.47750789964
 20
8691.293182432323
 30
0.0
 40
1.149999999999977
100
AcDbArc
 50
0.0
 51
180.0
  0
LINE
  5
171A1
330
172A5
100
AcDbEntity
  8
U1
100
AcDbLine
 10
7002.02750789964
 20
8683.743182432325
 30
0.0
 11
7002.02750789964
 21
8691.293182432326
 31
0.0
  0
LINE
  5
171A2
330
172A5
100
AcDbEntity
  8
U1
100
AcDbLine
 10
7004.32750789964
 20
8683.743182432325
 30
0.0
 11
7002.02750789964
 21
8683.743182432325
 31
0.0
  0
LINE
  5
171A3
330
172A5
100
AcDbEntity
  8
U1
100
AcDbLine
 10
7006.62750789964
 20
8690.743182432326
 30
0.0
 11
7004.32750789964
 21
8690.743182432326
 31
0.0
  0
ARC
  5
171A4
330
172A5
100
AcDbEntity
  8
U1
100
AcDbCircle
 10
7005.47750789964
 20
8691.293182432323
 30
0.0
 40
3.450000000000044
100
AcDbArc
 50
0.0
 51
180.0
  0
LINE
  5
171A5
330
172A5
100
AcDbEntity
  8
U1
100
AcDbLine
 10
7006.62750789964
 20
8691.293182432323
 30
0.0
 11
7006.627507899641
 21
8682.043182432328
 31
0.0
  0
LINE
  5
171A6
330
172A5
100
AcDbEntity
  8
U1
100
AcDbLine
 10
7004.32750789964
 20
8682.043182432328
 30
0.0
 11
7004.32750789964
 21
8691.293182432326
 31
0.0
  0
LINE
  5
171A7
330
172A5
100
AcDbEntity
  8
U1
100
AcDbLine
 10
7008.927507899639
 20
8691.293182432323
 30
0.0
 11
7008.927507899639
 21
8682.043182432321
 31
0.0
  0
ARC
  5
171A8
330
172A5
100
AcDbEntity
  8
U1
100
AcDbCircle
 10
6992.927507899641
 20
8682.043182432328
 30
0.0
 40
4.0
100
AcDbArc
 50
180.0
 51
270.0
  0
LINE
  5
171A9
330
172A5
100
AcDbEntity
  8
U1
100
AcDbLine
 10
6992.927507899641
 20
8678.043182432324
 30
0.0
 11
7000.32750789964
 21
8678.043182432324
 31
0.0
  0
ARC
  5
171AA
330
172A5
100
AcDbEntity
  8
U1
100
AcDbCircle
 10
7000.32750789964
 20
8682.043182432328
 30
0.0
 40
4.0
100
AcDbArc
 50
270.0
 51
0.0
  0
LINE
  5
171AB
330
172A5
100
AcDbEntity
  8
U1
100
AcDbLine
 10
6988.92750789964
 20
8734.443182432325
 30
0.0
 11
6988.92750789964
 21
8682.043182432328
 31
0.0
  0
LINE
  5
171AC
330
172A5
100
AcDbEntity
  8
U1
100
AcDbLine
 10
7012.92750789964
 20
6938.443182432326
 30
0.0
 11
7045.327507899641
 21
6938.443182432326
 31
0.0
  0
LINE
  5
171AD
330
172A5
100
AcDbEntity
  8
U1
100
AcDbLine
 10
7045.327507899641
 20
6878.043182432326
 30
0.0
 11
6992.92750789964
 21
6878.043182432326
 31
0.0
  0
ARC
  5
171AF
330
172A5
100
AcDbEntity
  8
U1
100
AcDbCircle
 10
7045.327507899641
 20
6882.043182432325
 30
0.0
 40
4.0
100
AcDbArc
 50
270.0
 51
0.0
  0
ARC
  5
171B0
330
172A5
100
AcDbEntity
  8
U1
100
AcDbCircle
 10
7045.327507899641
 20
6934.443182432325
 30
0.0
 40
4.0
100
AcDbArc
 50
0.0
 51
90.0
  0
LINE
  5
171B1
330
172A5
100
AcDbEntity
  8
U1
100
AcDbLine
 10
7049.327507899642
 20
6934.443182432325
 30
0.0
 11
7049.327507899642
 21
6882.043182432325
 31
0.0
  0
ARC
  5
171B2
330
172A5
100
AcDbEntity
  8
U1
100
AcDbCircle
 10
6992.92750789964
 20
6882.043182432325
 30
0.0
 40
4.0
100
AcDbArc
 50
180.0
 51
270.0
  0
ARC
  5
171B3
330
172A5
100
AcDbEntity
  8
U1
100
AcDbCircle
 10
7012.92750789964
 20
6934.443182432325
 30
0.0
 40
4.0
100
AcDbArc
 50
90.0
 51
180.0
  0
ARC
  5
171B4
330
172A5
100
AcDbEntity
  8
U1
100
AcDbCircle
 10
7005.47750789964
 20
6925.193182432325
 30
0.0
 40
1.149999999999977
100
AcDbArc
 50
180.0
 51
0.0
  0
LINE
  5
171B5
330
172A5
100
AcDbEntity
  8
U1
100
AcDbLine
 10
7002.02750789964
 20
6932.743182432325
 30
0.0
 11
7002.02750789964
 21
6925.193182432325
 31
0.0
  0
LINE
  5
171B6
330
172A5
100
AcDbEntity
  8
U1
100
AcDbLine
 10
7004.32750789964
 20
6932.743182432325
 30
0.0
 11
7002.02750789964
 21
6932.743182432325
 31
0.0
  0
LINE
  5
171B7
330
172A5
100
AcDbEntity
  8
U1
100
AcDbLine
 10
7006.62750789964
 20
6925.743182432326
 30
0.0
 11
7004.32750789964
 21
6925.743182432326
 31
0.0
  0
ARC
  5
171B8
330
172A5
100
AcDbEntity
  8
U1
100
AcDbCircle
 10
7005.47750789964
 20
6925.193182432325
 30
0.0
 40
3.450000000000044
100
AcDbArc
 50
180.0
 51
0.0
  0
LINE
  5
171B9
330
172A5
100
AcDbEntity
  8
U1
100
AcDbLine
 10
7006.62750789964
 20
6925.193182432325
 30
0.0
 11
7006.627507899641
 21
6934.443182432325
 31
0.0
  0
LINE
  5
171BA
330
172A5
100
AcDbEntity
  8
U1
100
AcDbLine
 10
7004.32750789964
 20
6934.443182432325
 30
0.0
 11
7004.32750789964
 21
6925.193182432325
 31
0.0
  0
LINE
  5
171BB
330
172A5
100
AcDbEntity
  8
U1
100
AcDbLine
 10
7008.927507899639
 20
6925.193182432325
 30
0.0
 11
7008.927507899639
 21
6934.443182432325
 31
0.0
  0
ARC
  5
171BC
330
172A5
100
AcDbEntity
  8
U1
100
AcDbCircle
 10
6992.927507899641
 20
6934.443182432325
 30
0.0
 40
4.0
100
AcDbArc
 50
90.0
 51
180.0
  0
LINE
  5
171BD
330
172A5
100
AcDbEntity
  8
U1
100
AcDbLine
 10
6992.927507899641
 20
6938.443182432326
 30
0.0
 11
7000.32750789964
 21
6938.443182432326
 31
0.0
  0
ARC
  5
171BE
330
172A5
100
AcDbEntity
  8
U1
100
AcDbCircle
 10
7000.32750789964
 20
6934.443182432325
 30
0.0
 40
4.0
100
AcDbArc
 50
0.0
 51
90.0
  0
LINE
  5
171BF
330
172A5
100
AcDbEntity
  8
U1
100
AcDbLine
 10
6988.92750789964
 20
6882.043182432325
 30
0.0
 11
6988.92750789964
 21
6934.443182432325
 31
0.0
  0
LINE
  5
171C0
330
172A5
100
AcDbEntity
  8
U1
100
AcDbLine
 10
9825.32750789964
 20
6938.443182432326
 30
0.0
 11
9792.927507899641
 21
6938.443182432326
 31
0.0
  0
LINE
  5
171C1
330
172A5
100
AcDbEntity
  8
U1
100
AcDbLine
 10
9792.927507899641
 20
6878.043182432326
 30
0.0
 11
9845.327507899639
 21
6878.043182432326
 31
0.0
  0
ARC
  5
171C3
330
172A5
100
AcDbEntity
  8
U1
100
AcDbCircle
 10
9792.927507899641
 20
6882.043182432325
 30
0.0
 40
4.0
100
AcDbArc
 50
180.0
 51
270.0
  0
ARC
  5
171C4
330
172A5
100
AcDbEntity
  8
U1
100
AcDbCircle
 10
9792.927507899641
 20
6934.443182432325
 30
0.0
 40
4.0
100
AcDbArc
 50
90.0
 51
180.0
  0
LINE
  5
171C5
330
172A5
100
AcDbEntity
  8
U1
100
AcDbLine
 10
9788.927507899643
 20
6934.443182432325
 30
0.0
 11
9788.927507899643
 21
6882.043182432325
 31
0.0
  0
ARC
  5
171C6
330
172A5
100
AcDbEntity
  8
U1
100
AcDbCircle
 10
9845.327507899639
 20
6882.043182432325
 30
0.0
 40
4.0
100
AcDbArc
 50
270.0
 51
0.0
  0
ARC
  5
171C7
330
172A5
100
AcDbEntity
  8
U1
100
AcDbCircle
 10
9825.32750789964
 20
6934.443182432325
 30
0.0
 40
4.0
100
AcDbArc
 50
0.0
 51
90.0
  0
ARC
  5
171C8
330
172A5
100
AcDbEntity
  8
U1
100
AcDbCircle
 10
9832.777507899642
 20
6925.193182432325
 30
0.0
 40
1.149999999999977
100
AcDbArc
 50
180.0
 51
0.0
  0
LINE
  5
171C9
330
172A5
100
AcDbEntity
  8
U1
100
AcDbLine
 10
9836.227507899641
 20
6932.743182432325
 30
0.0
 11
9836.227507899641
 21
6925.193182432325
 31
0.0
  0
LINE
  5
171CA
330
172A5
100
AcDbEntity
  8
U1
100
AcDbLine
 10
9833.927507899643
 20
6932.743182432325
 30
0.0
 11
9836.227507899641
 21
6932.743182432325
 31
0.0
  0
LINE
  5
171CB
330
172A5
100
AcDbEntity
  8
U1
100
AcDbLine
 10
9831.627507899641
 20
6925.743182432326
 30
0.0
 11
9833.927507899643
 21
6925.743182432326
 31
0.0
  0
ARC
  5
171CC
330
172A5
100
AcDbEntity
  8
U1
100
AcDbCircle
 10
9832.777507899642
 20
6925.193182432325
 30
0.0
 40
3.450000000000044
100
AcDbArc
 50
180.0
 51
0.0
  0
LINE
  5
171CD
330
172A5
100
AcDbEntity
  8
U1
100
AcDbLine
 10
9831.627507899641
 20
6925.193182432325
 30
0.0
 11
9831.627507899641
 21
6934.443182432325
 31
0.0
  0
LINE
  5
171CE
330
172A5
100
AcDbEntity
  8
U1
100
AcDbLine
 10
9833.927507899643
 20
6934.443182432325
 30
0.0
 11
9833.927507899643
 21
6925.193182432325
 31
0.0
  0
LINE
  5
171CF
330
172A5
100
AcDbEntity
  8
U1
100
AcDbLine
 10
9829.327507899641
 20
6925.193182432325
 30
0.0
 11
9829.327507899641
 21
6934.443182432325
 31
0.0
  0
ARC
  5
171D0
330
172A5
100
AcDbEntity
  8
U1
100
AcDbCircle
 10
9845.327507899639
 20
6934.443182432325
 30
0.0
 40
4.0
100
AcDbArc
 50
0.0
 51
90.0
  0
LINE
  5
171D1
330
172A5
100
AcDbEntity
  8
U1
100
AcDbLine
 10
9845.327507899639
 20
6938.443182432326
 30
0.0
 11
9837.927507899642
 21
6938.443182432326
 31
0.0
  0
ARC
  5
171D2
330
172A5
100
AcDbEntity
  8
U1
100
AcDbCircle
 10
9837.927507899642
 20
6934.443182432325
 30
0.0
 40
4.0
100
AcDbArc
 50
90.0
 51
180.0
  0
LINE
  5
171D3
330
172A5
100
AcDbEntity
  8
U1
100
AcDbLine
 10
9849.327507899639
 20
6882.043182432325
 30
0.0
 11
9849.327507899639
 21
6934.443182432325
 31
0.0
  0
ARC
  5
171D4
330
172A5
100
AcDbEntity
  8
U1
100
AcDbCircle
 10
9845.327507899641
 20
8682.043182432321
 30
0.0
 40
6.30000000000109
100
AcDbArc
 50
270.0
 51
0.0
  0
LINE
  5
171D5
330
172A5
100
AcDbEntity
  8
U1
100
AcDbLine
 10
9845.327507899641
 20
8675.743182432325
 30
0.0
 11
9837.927507899642
 21
8675.743182432325
 31
0.0
  0
ARC
  5
171D6
330
172A5
100
AcDbEntity
  8
U1
100
AcDbCircle
 10
9837.927507899642
 20
8682.043182432321
 30
0.0
 40
6.299999999999272
100
AcDbArc
 50
180.0
 51
270.0
  0
ARC
  5
171D7
330
172A5
100
AcDbEntity
  8
U1
100
AcDbCircle
 10
9825.327507899642
 20
8682.043182432328
 30
0.0
 40
6.30000000000109
100
AcDbArc
 50
270.0
 51
359.9999999999833
  0
LINE
  5
171D8
330
172A5
100
AcDbEntity
  8
U1
100
AcDbLine
 10
9825.327507899642
 20
8675.743182432325
 30
0.0
 11
9792.927507899641
 21
8675.743182432325
 31
0.0
  0
ARC
  5
171D9
330
172A5
100
AcDbEntity
  8
U1
100
AcDbCircle
 10
9792.927507899641
 20
8682.043182432328
 30
0.0
 40
6.30000000000109
100
AcDbArc
 50
180.0
 51
270.0
  0
LINE
  5
171DA
330
172A5
100
AcDbEntity
  8
U1
100
AcDbLine
 10
9786.627507899641
 20
8682.043182432328
 30
0.0
 11
9786.627507899641
 21
8734.443182432325
 31
0.0
  0
ARC
  5
171DB
330
172A5
100
AcDbEntity
  8
U1
100
AcDbCircle
 10
9792.927507899641
 20
8734.443182432325
 30
0.0
 40
6.30000000000109
100
AcDbArc
 50
90.0
 51
180.0
  0
LINE
  5
171DC
330
172A5
100
AcDbEntity
  8
U1
100
AcDbLine
 10
9792.927507899641
 20
8740.743182432325
 30
0.0
 11
9845.327507899639
 21
8740.743182432325
 31
0.0
  0
ARC
  5
171DD
330
172A5
100
AcDbEntity
  8
U1
100
AcDbCircle
 10
9845.327507899639
 20
8734.443182432325
 30
0.0
 40
6.299999999999272
100
AcDbArc
 50
0.0
 51
90.0
  0
LINE
  5
171DE
330
172A5
100
AcDbEntity
  8
U1
100
AcDbLine
 10
9851.627507899641
 20
8734.443182432325
 30
0.0
 11
9851.627507899641
 21
8682.043182432321
 31
0.0
  0
ARC
  5
171DF
330
172A5
100
AcDbEntity
  8
U1
100
AcDbCircle
 10
6992.927507899641
 20
8682.043182432328
 30
0.0
 40
6.300000000000181
100
AcDbArc
 50
180.0
 51
270.0
  0
LINE
  5
171E0
330
172A5
100
AcDbEntity
  8
U1
100
AcDbLine
 10
6992.927507899641
 20
8675.743182432325
 30
0.0
 11
7000.32750789964
 21
8675.743182432325
 31
0.0
  0
ARC
  5
171E1
330
172A5
100
AcDbEntity
  8
U1
100
AcDbCircle
 10
7000.32750789964
 20
8682.043182432321
 30
0.0
 40
6.299999999999272
100
AcDbArc
 50
269.9999999999918
 51
0.0
  0
ARC
  5
171E2
330
172A5
100
AcDbEntity
  8
U1
100
AcDbCircle
 10
7012.92750789964
 20
8682.043182432321
 30
0.0
 40
6.299999999999272
100
AcDbArc
 50
180.0
 51
270.0000000000081
  0
LINE
  5
171E3
330
172A5
100
AcDbEntity
  8
U1
100
AcDbLine
 10
7012.927507899641
 20
8675.743182432325
 30
0.0
 11
7045.327507899641
 21
8675.743182432325
 31
0.0
  0
ARC
  5
171E4
330
172A5
100
AcDbEntity
  8
U1
100
AcDbCircle
 10
7045.327507899641
 20
8682.043182432321
 30
0.0
 40
6.299999999999272
100
AcDbArc
 50
269.9999999999918
 51
0.0
  0
LINE
  5
171E5
330
172A5
100
AcDbEntity
  8
U1
100
AcDbLine
 10
7051.627507899642
 20
8682.043182432321
 30
0.0
 11
7051.627507899642
 21
8734.443182432325
 31
0.0
  0
ARC
  5
171E6
330
172A5
100
AcDbEntity
  8
U1
100
AcDbCircle
 10
7045.327507899641
 20
8734.443182432325
 30
0.0
 40
6.299999999999272
100
AcDbArc
 50
0.0
 51
90.00000000000826
  0
LINE
  5
171E7
330
172A5
100
AcDbEntity
  8
U1
100
AcDbLine
 10
7045.327507899641
 20
8740.743182432325
 30
0.0
 11
6992.927507899641
 21
8740.743182432325
 31
0.0
  0
ARC
  5
171E8
330
172A5
100
AcDbEntity
  8
U1
100
AcDbCircle
 10
6992.92750789964
 20
8734.443182432325
 30
0.0
 40
6.299999999999272
100
AcDbArc
 50
89.99999999999173
 51
180.0
  0
LINE
  5
171E9
330
172A5
100
AcDbEntity
  8
U1
100
AcDbLine
 10
6986.62750789964
 20
8734.443182432325
 30
0.0
 11
6986.62750789964
 21
8682.043182432328
 31
0.0
  0
ARC
  5
171EA
330
172A5
100
AcDbEntity
  8
U1
100
AcDbCircle
 10
6992.92750789964
 20
6934.443182432325
 30
0.0
 40
6.299999999999272
100
AcDbArc
 50
89.99999999999173
 51
180.0
  0
LINE
  5
171EB
330
172A5
100
AcDbEntity
  8
U1
100
AcDbLine
 10
6992.927507899641
 20
6940.743182432325
 30
0.0
 11
7000.32750789964
 21
6940.743182432325
 31
0.0
  0
ARC
  5
171EC
330
172A5
100
AcDbEntity
  8
U1
100
AcDbCircle
 10
7000.32750789964
 20
6934.443182432325
 30
0.0
 40
6.300000000000181
100
AcDbArc
 50
0.0
 51
90.00000000000826
  0
ARC
  5
171ED
330
172A5
100
AcDbEntity
  8
U1
100
AcDbCircle
 10
7012.927507899641
 20
6934.443182432325
 30
0.0
 40
6.300000000000181
100
AcDbArc
 50
90.0
 51
179.9999999999916
  0
LINE
  5
171EE
330
172A5
100
AcDbEntity
  8
U1
100
AcDbLine
 10
7012.927507899641
 20
6940.743182432325
 30
0.0
 11
7045.327507899641
 21
6940.743182432325
 31
0.0
  0
ARC
  5
171EF
330
172A5
100
AcDbEntity
  8
U1
100
AcDbCircle
 10
7045.327507899641
 20
6934.443182432325
 30
0.0
 40
6.300000000000181
100
AcDbArc
 50
0.0
 51
90.00000000000826
  0
LINE
  5
171F0
330
172A5
100
AcDbEntity
  8
U1
100
AcDbLine
 10
7051.627507899642
 20
6934.443182432325
 30
0.0
 11
7051.627507899642
 21
6882.043182432325
 31
0.0
  0
ARC
  5
171F1
330
172A5
100
AcDbEntity
  8
U1
100
AcDbCircle
 10
7045.327507899641
 20
6882.043182432325
 30
0.0
 40
6.299999999999272
100
AcDbArc
 50
269.9999999999918
 51
0.0
  0
LINE
  5
171F2
330
172A5
100
AcDbEntity
  8
U1
100
AcDbLine
 10
7045.327507899641
 20
6875.743182432326
 30
0.0
 11
6992.927507899641
 21
6875.743182432326
 31
0.0
  0
ARC
  5
171F3
330
172A5
100
AcDbEntity
  8
U1
100
AcDbCircle
 10
6992.92750789964
 20
6882.043182432325
 30
0.0
 40
6.299999999999272
100
AcDbArc
 50
180.0
 51
270.0000000000081
  0
LINE
  5
171F4
330
172A5
100
AcDbEntity
  8
U1
100
AcDbLine
 10
6986.62750789964
 20
6882.043182432325
 30
0.0
 11
6986.62750789964
 21
6934.443182432325
 31
0.0
  0
ARC
  5
171F5
330
172A5
100
AcDbEntity
  8
U1
100
AcDbCircle
 10
9845.327507899639
 20
6934.443182432325
 30
0.0
 40
6.299999999999272
100
AcDbArc
 50
0.0
 51
90.0
  0
LINE
  5
171F6
330
172A5
100
AcDbEntity
  8
U1
100
AcDbLine
 10
9845.327507899639
 20
6940.743182432325
 30
0.0
 11
9837.927507899642
 21
6940.743182432325
 31
0.0
  0
ARC
  5
171F7
330
172A5
100
AcDbEntity
  8
U1
100
AcDbCircle
 10
9837.927507899642
 20
6934.443182432325
 30
0.0
 40
6.300000000000181
100
AcDbArc
 50
90.0
 51
180.0
  0
ARC
  5
171F8
330
172A5
100
AcDbEntity
  8
U1
100
AcDbCircle
 10
9825.32750789964
 20
6934.443182432325
 30
0.0
 40
6.299999999999272
100
AcDbArc
 50
0.0
 51
90.0
  0
LINE
  5
171F9
330
172A5
100
AcDbEntity
  8
U1
100
AcDbLine
 10
9825.32750789964
 20
6940.743182432325
 30
0.0
 11
9792.927507899641
 21
6940.743182432325
 31
0.0
  0
ARC
  5
171FA
330
172A5
100
AcDbEntity
  8
U1
100
AcDbCircle
 10
9792.927507899641
 20
6934.443182432325
 30
0.0
 40
6.300000000000181
100
AcDbArc
 50
90.0
 51
180.0
  0
LINE
  5
171FB
330
172A5
100
AcDbEntity
  8
U1
100
AcDbLine
 10
9786.627507899641
 20
6934.443182432325
 30
0.0
 11
9786.627507899641
 21
6882.043182432325
 31
0.0
  0
ARC
  5
171FC
330
172A5
100
AcDbEntity
  8
U1
100
AcDbCircle
 10
9792.927507899641
 20
6882.043182432325
 30
0.0
 40
6.299999999999272
100
AcDbArc
 50
180.0
 51
270.0
  0
LINE
  5
171FD
330
172A5
100
AcDbEntity
  8
U1
100
AcDbLine
 10
9792.927507899641
 20
6875.743182432326
 30
0.0
 11
9845.327507899639
 21
6875.743182432326
 31
0.0
  0
ARC
  5
171FE
330
172A5
100
AcDbEntity
  8
U1
100
AcDbCircle
 10
9845.327507899639
 20
6882.043182432325
 30
0.0
 40
6.299999999999272
100
AcDbArc
 50
270.0
 51
0.0
  0
LINE
  5
171FF
330
172A5
100
AcDbEntity
  8
U1
100
AcDbLine
 10
9851.627507899641
 20
6882.043182432325
 30
0.0
 11
9851.627507899641
 21
6934.443182432325
 31
0.0
  0
TEXT
  5
17312
330
172A5
100
AcDbEntity
  8
SUNPOU
100
AcDbText
 10
8663.659547419703
 20
2675.717441025446
 30
0.0
 40
90.0
  1
その他現地の実情にあわせて設計して下さい。
  7
01
100
AcDbText
  0
TEXT
  5
17313
330
172A5
100
AcDbEntity
  8
SUNPOU
100
AcDbText
 10
8663.659547419703
 20
2984.288869596873
 30
0.0
 40
90.0
  1
寒冷地の場合、凍結深度等を考慮し、実情に
  7
01
100
AcDbText
  0
TEXT
  5
17314
330
172A5
100
AcDbEntity
  8
SUNPOU
100
AcDbText
 10
8354.673324527816
 20
3327.827383267111
 30
0.0
 40
89.9993750043402
  1
地耐力   　　　 以上,コンクリート設計基準強度　　　　　以上
  7
01
100
AcDbText
  0
TEXT
  5
17315
330
172A5
100
AcDbEntity
  8
SUNPOU
100
AcDbText
 10
8457.453802330309
 20
2675.717441025446
 30
0.0
 40
90.0
  1
2
 41
0.6700000000000001
  7
01
100
AcDbText
  0
TEXT
  5
17316
330
172A5
100
AcDbEntity
  8
SUNPOU
100
AcDbText
 10
8346.819882117571
 20
2675.717441025446
 30
0.0
 40
90.0
  1
注　）
  7
01
100
AcDbText
  0
TEXT
  5
17317
330
172A5
100
AcDbEntity
  8
SUNPOU
100
AcDbText
 10
8838.436753192977
 20
3173.541668981394
 30
0.0
 40
89.9993750043402
  1
34 m/s
 41
0.6700000000000001
  7
01
100
AcDbText
  0
TEXT
  5
17318
330
172A5
100
AcDbEntity
  8
SUNPOU
100
AcDbText
 10
8663.659547419703
 20
2830.003155311154
 30
0.0
 40
90.0
  1
あわせて設計して下さい。
  7
01
100
AcDbText
  0
TEXT
  5
17319
330
172A5
100
AcDbEntity
  8
SUNPOU
100
AcDbText
 10
8354.673324527816
 20
3173.541668981394
 30
0.0
 40
89.9993750043402
  1
基準風速   　　 , 地表面粗度区分
  7
01
100
AcDbText
  0
TEXT
  5
1731A
330
172A5
100
AcDbEntity
  8
SUNPOU
100
AcDbText
 10
8224.109695811582
 20
3517.081385713065
 30
0.0
 40
90.0
  1
<下記条件での参考図>
  7
01
 72
     4
 11
8812.966838668726
 21
3562.081385713065
 31
0.0
100
AcDbText
  0
TEXT
  5
1731B
330
172A5
100
AcDbEntity
  8
SUNPOU
100
AcDbText
 10
8349.466838668726
 20
3674.581385713063
 30
0.0
 40
120.0
  1
基礎断面図
  7
01
 72
     4
 11
8689.466838668726
 21
3734.581385713063
 31
0.0
100
AcDbText
  0
TEXT
  5
1731C
330
172A5
100
AcDbEntity
  8
SUNPOU
100
AcDbText
 10
8728.931731952888
 20
3327.827383267111
 30
0.0
 40
89.9993750043402
  1
50  N/m
 41
0.6700000000000001
  7
01
100
AcDbText
  0
TEXT
  5
1731D
330
172A5
100
AcDbEntity
  8
SUNPOU
100
AcDbText
 10
8346.819882117571
 20
2984.288869596873
 30
0.0
 40
90.0
  1
注　）
  7
01
100
AcDbText
  0
ARC
  5
1731E
330
172A5
100
AcDbEntity
  8
SUNPOU
100
AcDbCircle
 10
8507.631598435015
 20
3291.614806708941
 30
0.0
 40
225.0
100
AcDbArc
 50
148.3472725282761
 51
211.6527274717238
  0
TEXT
  5
1731F
330
172A5
100
AcDbEntity
  8
SUNPOU
100
AcDbText
 10
8457.453802330309
 20
2984.288869596873
 30
0.0
 40
90.0
  1
1
 41
0.6700000000000001
  7
01
100
AcDbText
  0
TEXT
  5
17320
330
172A5
100
AcDbEntity
  8
SUNPOU
100
AcDbText
 10
8864.768184738835
 20
3327.827383267111
 30
0.0
 40
71.99950000347218
  1
K
 41
0.6700000000000001
  7
01
100
AcDbText
  0
TEXT
  5
17321
330
172A5
100
AcDbEntity
  8
SUNPOU
100
AcDbText
 10
9132.408341467238
 20
3378.015809624594
 30
0.0
 40
46.28539285937498
  1
2
 41
0.6700000000000001
  7
00
100
AcDbText
  0
LINE
  5
17322
330
172A5
100
AcDbEntity
  8
SUNPOU
100
AcDbLine
 10
10146.48888609441
 20
3173.541668981394
 30
0.0
 11
10202.73888609441
 21
3173.541668981394
 31
0.0
  0
LINE
  5
17323
330
172A5
100
AcDbEntity
  8
SUNPOU
100
AcDbLine
 10
10146.48888609441
 20
3257.034032680176
 30
0.0
 11
10202.73888609441
 21
3257.034032680176
 31
0.0
  0
LINE
  5
17324
330
172A5
100
AcDbEntity
  8
SUNPOU
100
AcDbLine
 10
10174.61388609441
 20
3173.541668981394
 30
0.0
 11
10174.61388609441
 21
3257.034032680176
 31
0.0
  0
LINE
  5
17325
330
172A5
100
AcDbEntity
  8
SUNPOU
100
AcDbLine
 10
10157.73888609441
 20
3173.541668981394
 30
0.0
 11
10157.73888609441
 21
3257.034032680176
 31
0.0
  0
LINE
  5
17326
330
172A5
100
AcDbEntity
  8
SUNPOU
100
AcDbLine
 10
10191.48888609441
 20
3173.541668981394
 30
0.0
 11
10191.48888609441
 21
3257.034032680176
 31
0.0
  0
TEXT
  5
17327
330
172A5
100
AcDbEntity
  8
SUNPOU
100
AcDbText
 10
9066.317176031697
 20
3686.889078020759
 30
0.0
 40
92.30769230769228
  1
（ S = 　　  ）
 41
0.6700000000000001
  7
00
 11
9066.317176031697
 21
3674.581385713067
 31
0.0
100
AcDbText
 73
     1
  0
TEXT
  5
17328
330
172A5
100
AcDbEntity
  8
SUNPOU
100
AcDbText
 10
9498.375448154519
 20
3665.96600109768
 30
0.0
 40
73.84615384615384
  1
25
 41
0.6700000000000001
  7
00
 11
9498.375448154519
 21
3656.119847251526
 31
0.0
100
AcDbText
 73
     1
  0
TEXT
  5
17329
330
172A5
100
AcDbEntity
  8
SUNPOU
100
AcDbText
 10
9386.019877884766
 20
3702.889078020759
 30
0.0
 40
73.84615384615384
  1
1
 41
0.6700000000000001
  7
00
 11
9386.019877884766
 21
3693.042924174605
 31
0.0
100
AcDbText
 73
     1
  0
TEXT
  5
1732A
330
172A5
100
AcDbEntity
  8
SUNPOU
100
AcDbText
 10
9434.426005200135
 20
3684.42753955922
 30
0.0
 40
73.84615384615384
  1
/
 41
0.6700000000000001
  7
00
 11
9434.426005200135
 21
3674.581385713067
 31
0.0
100
AcDbText
 73
     1
  0
TEXT
  5
1732B
330
172A5
100
AcDbEntity
  8
SUNPOU
100
AcDbText
 10
10909.52025560047
 20
3327.827383267111
 30
0.0
 40
89.9993750043402
  1
N/mm
 41
0.6700000000000001
  7
01
100
AcDbText
  0
TEXT
  5
1732C
330
172A5
100
AcDbEntity
  8
SUNPOU
100
AcDbText
 10
10773.68380281452
 20
3327.827383267111
 30
0.0
 40
89.9993750043402
  1
18
 41
0.6700000000000001
  7
01
100
AcDbText
  0
TEXT
  5
1732D
330
172A5
100
AcDbEntity
  8
SUNPOU
100
AcDbText
 10
11213.98473763187
 20
3378.015809624594
 30
0.0
 40
46.28539285937498
  1
2
 41
0.6700000000000001
  7
00
100
AcDbText
  0
ARC
  5
1732E
330
172A5
100
AcDbEntity
  8
SUNPOU
100
AcDbCircle
 10
11362.86200216549
 20
3314.099087494731
 30
0.0
 40
225.0
100
AcDbArc
 50
328.3472725282761
 51
31.65272747172387
  0
ENDSEC
  0
SECTION
  2
OBJECTS
  0
DICTIONARY
  5
17295
330
0
100
AcDbDictionary
281
     1
  3
ACAD_GROUP
350
17296
  3
ACAD_LAYOUT
350
172A2
  3
ACAD_MLEADERSTYLE
350
172EA
  3
ACAD_MLINESTYLE
350
1729F
  3
ACAD_PLOTSETTINGS
350
172A1
  3
ACAD_PLOTSTYLENAME
350
17297
  3
ACAD_TABLESTYLE
350
172E9
  3
AcDbVariableDictionary
350
1732F
  0
DICTIONARY
  5
17296
102
{ACAD_REACTORS
330
17295
102
}
330
17295
100
AcDbDictionary
281
     1
  0
DICTIONARY
  5
172A2
102
{ACAD_REACTORS
330
17295
102
}
330
17295
100
AcDbDictionary
281
     1
  3
Layout1
350
172A4
  3
Model
350
172A6
  0
DICTIONARY
  5
172EA
102
{ACAD_REACTORS
330
17295
102
}
330
17295
100
AcDbDictionary
281
     1
  0
DICTIONARY
  5
1729F
102
{ACAD_REACTORS
330
17295
102
}
330
17295
100
AcDbDictionary
281
     1
  3
Standard
350
172A0
  0
DICTIONARY
  5
172A1
102
{ACAD_REACTORS
330
17295
102
}
330
17295
100
AcDbDictionary
281
     1
  0
ACDBDICTIONARYWDFLT
  5
17297
102
{ACAD_REACTORS
330
17295
102
}
330
17295
100
AcDbDictionary
281
     1
  3
Normal
350
17298
100
AcDbDictionaryWithDefault
340
17298
  0
DICTIONARY
  5
172E9
102
{ACAD_REACTORS
330
17295
102
}
330
17295
100
AcDbDictionary
281
     1
  0
DICTIONARY
  5
1732F
102
{ACAD_REACTORS
330
17295
102
}
330
17295
100
AcDbDictionary
281
     1
  3
DIMASSOC
350
17330
  0
LAYOUT
  5
172A4
102
{ACAD_REACTORS
330
172A2
102
}
330
172A2
100
AcDbPlotSettings
  1

  2
none_device
  4

  6

 40
0.0
 41
0.0
 42
0.0
 43
0.0
 44
0.0
 45
0.0
 46
0.0
 47
0.0
 48
0.0
 49
0.0
140
0.0
141
0.0
142
1.0
143
1.0
 70
   688
 72
     0
 73
     0
 74
     5
  7

 75
    16
147
1.0
148
0.0
149
0.0
100
AcDbLayout
  1
Layout1
 70
     0
 71
     1
 10
0.0
 20
0.0
 11
12.0
 21
9.0
 12
0.0
 22
0.0
 32
0.0
 14
1.000000000000000E+20
 24
1.000000000000000E+20
 34
1.000000000000000E+20
 15
-1.000000000000000E+20
 25
-1.000000000000000E+20
 35
-1.000000000000000E+20
146
0.0
 13
0.0
 23
0.0
 33
0.0
 16
1.0
 26
0.0
 36
0.0
 17
0.0
 27
1.0
 37
0.0
 76
     0
330
172A3
  0
LAYOUT
  5
172A6
102
{ACAD_REACTORS
330
172A2
102
}
330
172A2
100
AcDbPlotSettings
  1

  2
none_device
  4

  6

 40
0.0
 41
0.0
 42
0.0
 43
0.0
 44
0.0
 45
0.0
 46
0.0
 47
0.0
 48
0.0
 49
0.0
140
0.0
141
0.0
142
1.0
143
1.0
 70
  1712
 72
     0
 73
     0
 74
     0
  7

 75
     0
147
1.0
148
0.0
149
0.0
100
AcDbLayout
  1
Model
 70
     1
 71
     0
 10
0.0
 20
0.0
 11
12.0
 21
9.0
 12
267.0
 22
194.8999999999998
 32
0.0
 14
433.9966216520332
 24
163.6908237492789
 34
-0.0000000000000053
 15
16382.66605425469
 25
11242.27663824599
 35
0.0000000000000099
146
0.0
 13
0.0
 23
0.0
 33
0.0
 16
1.0
 26
0.0
 36
0.0
 17
0.0
 27
1.0
 37
0.0
 76
     0
330
172A5
331
172A8
  0
MLINESTYLE
  5
172A0
102
{ACAD_REACTORS
330
1729F
102
}
330
1729F
100
AcDbMlineStyle
  2
STANDARD
 70
     0
  3

 62
   256
 51
90.0
 52
90.0
 71
     2
 49
0.5
 62
   256
  6
BYLAYER
 49
-0.5
 62
   256
  6
BYLAYER
  0
ACDBPLACEHOLDER
  5
17298
102
{ACAD_REACTORS
330
17297
102
}
330
17297
  0
DICTIONARYVAR
  5
17330
102
{ACAD_REACTORS
330
1732F
102
}
330
1732F
100
DictionaryVariables
280
     0
  1
1
  0
ENDSEC
  0
EOF
