  0
SECTION
  2
HEADER
  9
$ACADVER
  1
AC1015
  9
$ACADMAINTVER
 70
    13
  9
$DWGCODEPAGE
  3
ANSI_932
  9
$INSBASE
 10
267.0
 20
194.8999999999998
 30
0.0
  9
$EXTMIN
 10
433.9966216520333
 20
163.6908237492789
 30
-0.0000000000000053
  9
$EXTMAX
 10
16382.6660542547
 20
11242.27663824599
 30
0.0000000000000099
  9
$LIMMIN
 10
0.0
 20
0.0
  9
$LIMMAX
 10
16800.0
 20
11880.0
  9
$ORTHOMODE
 70
     0
  9
$REGENMODE
 70
     1
  9
$FILLMODE
 70
     1
  9
$QTEXTMODE
 70
     0
  9
$MIRRTEXT
 70
     0
  9
$LTSCALE
 40
40.0
  9
$ATTMODE
 70
     1
  9
$TEXTSIZE
 40
0.2
  9
$TRACEWID
 40
0.05
  9
$TEXTSTYLE
  7
00
  9
$CLAYER
  8
SUNPOU
  9
$CELTYPE
  6
ByLayer
  9
$CECOLOR
 62
   256
  9
$CELTSCALE
 40
1.0
  9
$DISPSILH
 70
     0
  9
$DIMSCALE
 40
40.0
  9
$DIMASZ
 40
0.5
  9
$DIMEXO
 40
1.0
  9
$DIMDLI
 40
7.0
  9
$DIMRND
 40
0.0
  9
$DIMDLE
 40
3.0
  9
$DIMEXE
 40
1.5
  9
$DIMTP
 40
0.0
  9
$DIMTM
 40
0.0
  9
$DIMTXT
 40
3.0
  9
$DIMCEN
 40
0.0
  9
$DIMTSZ
 40
0.0
  9
$DIMTOL
 70
     0
  9
$DIMLIM
 70
     0
  9
$DIMTIH
 70
     0
  9
$DIMTOH
 70
     0
  9
$DIMSE1
 70
     0
  9
$DIMSE2
 70
     0
  9
$DIMTAD
 70
     1
  9
$DIMZIN
 70
     8
  9
$DIMBLK
  1

  9
$DIMASO
 70
     1
  9
$DIMSHO
 70
     0
  9
$DIMPOST
  1

  9
$DIMAPOST
  1

  9
$DIMALT
 70
     0
  9
$DIMALTD
 70
     2
  9
$DIMALTF
 40
25.4
  9
$DIMLFAC
 40
0.625
  9
$DIMTOFL
 70
     1
  9
$DIMTVP
 40
0.0
  9
$DIMTIX
 70
     0
  9
$DIMSOXD
 70
     0
  9
$DIMSAH
 70
     1
  9
$DIMBLK1
  1
DOT
  9
$DIMBLK2
  1
DOT
  9
$DIMSTYLE
  2
SUNPOU_図面名
  9
$DIMCLRD
 70
   256
  9
$DIMCLRE
 70
   256
  9
$DIMCLRT
 70
   256
  9
$DIMTFAC
 40
1.0
  9
$DIMGAP
 40
1.5
  9
$DIMJUST
 70
     0
  9
$DIMSD1
 70
     0
  9
$DIMSD2
 70
     0
  9
$DIMTOLJ
 70
     1
  9
$DIMTZIN
 70
     0
  9
$DIMALTZ
 70
     0
  9
$DIMALTTZ
 70
     0
  9
$DIMUPT
 70
     0
  9
$DIMDEC
 70
     4
  9
$DIMTDEC
 70
     4
  9
$DIMALTU
 70
     2
  9
$DIMALTTD
 70
     2
  9
$DIMTXSTY
  7
STANDARD
  9
$DIMAUNIT
 70
     0
  9
$DIMADEC
 70
     0
  9
$DIMALTRND
 40
0.0
  9
$DIMAZIN
 70
     0
  9
$DIMDSEP
 70
    46
  9
$DIMATFIT
 70
     3
  9
$DIMFRAC
 70
     0
  9
$DIMLDRBLK
  1
DOT
  9
$DIMLUNIT
 70
     2
  9
$DIMLWD
 70
    -2
  9
$DIMLWE
 70
    -2
  9
$DIMTMOVE
 70
     0
  9
$LUNITS
 70
     2
  9
$LUPREC
 70
     2
  9
$SKETCHINC
 40
0.1
  9
$FILLETRAD
 40
0.0
  9
$AUNITS
 70
     0
  9
$AUPREC
 70
     0
  9
$MENU
  1
A:\TIGER\MENU\TIGER
  9
$ELEVATION
 40
0.0
  9
$PELEVATION
 40
0.0
  9
$THICKNESS
 40
0.0
  9
$LIMCHECK
 70
     0
  9
$CHAMFERA
 40
0.0
  9
$CHAMFERB
 40
0.0
  9
$CHAMFERC
 40
0.0
  9
$CHAMFERD
 40
0.0
  9
$SKPOLY
 70
     0
  9
$TDCREATE
 40
2450266.571064815
  9
$TDUCREATE
 40
2450266.196064815
  9
$TDUPDATE
 40
2456332.422244826
  9
$TDUUPDATE
 40
2456332.047244826
  9
$TDINDWG
 40
0.2255030903
  9
$TDUSRTIMER
 40
0.2255029167
  9
$USRTIMER
 70
     1
  9
$ANGBASE
 50
0.0
  9
$ANGDIR
 70
     0
  9
$PDMODE
 70
     0
  9
$PDSIZE
 40
0.0
  9
$PLINEWID
 40
0.0
  9
$SPLFRAME
 70
     0
  9
$SPLINETYPE
 70
     6
  9
$SPLINESEGS
 70
     8
  9
$HANDSEED
  5
1D249
  9
$SURFTAB1
 70
     6
  9
$SURFTAB2
 70
     6
  9
$SURFTYPE
 70
     6
  9
$SURFU
 70
     6
  9
$SURFV
 70
     6
  9
$UCSBASE
  2

  9
$UCSNAME
  2

  9
$UCSORG
 10
0.0
 20
0.0
 30
0.0
  9
$UCSXDIR
 10
1.0
 20
0.0
 30
0.0
  9
$UCSYDIR
 10
0.0
 20
1.0
 30
0.0
  9
$UCSORTHOREF
  2

  9
$UCSORTHOVIEW
 70
     0
  9
$UCSORGTOP
 10
0.0
 20
0.0
 30
0.0
  9
$UCSORGBOTTOM
 10
0.0
 20
0.0
 30
0.0
  9
$UCSORGLEFT
 10
0.0
 20
0.0
 30
0.0
  9
$UCSORGRIGHT
 10
0.0
 20
0.0
 30
0.0
  9
$UCSORGFRONT
 10
0.0
 20
0.0
 30
0.0
  9
$UCSORGBACK
 10
0.0
 20
0.0
 30
0.0
  9
$PUCSBASE
  2

  9
$PUCSNAME
  2

  9
$PUCSORG
 10
0.0
 20
0.0
 30
0.0
  9
$PUCSXDIR
 10
1.0
 20
0.0
 30
0.0
  9
$PUCSYDIR
 10
0.0
 20
1.0
 30
0.0
  9
$PUCSORTHOREF
  2

  9
$PUCSORTHOVIEW
 70
     0
  9
$PUCSORGTOP
 10
0.0
 20
0.0
 30
0.0
  9
$PUCSORGBOTTOM
 10
0.0
 20
0.0
 30
0.0
  9
$PUCSORGLEFT
 10
0.0
 20
0.0
 30
0.0
  9
$PUCSORGRIGHT
 10
0.0
 20
0.0
 30
0.0
  9
$PUCSORGFRONT
 10
0.0
 20
0.0
 30
0.0
  9
$PUCSORGBACK
 10
0.0
 20
0.0
 30
0.0
  9
$USERI1
 70
     3
  9
$USERI2
 70
     0
  9
$USERI3
 70
     0
  9
$USERI4
 70
     0
  9
$USERI5
 70
  1103
  9
$USERR1
 40
0.0
  9
$USERR2
 40
1.0
  9
$USERR3
 40
0.0
  9
$USERR4
 40
0.0
  9
$USERR5
 40
0.0
  9
$WORLDVIEW
 70
     1
  9
$SHADEDGE
 70
     3
  9
$SHADEDIF
 70
    70
  9
$TILEMODE
 70
     1
  9
$MAXACTVP
 70
    16
  9
$PINSBASE
 10
0.0
 20
0.0
 30
0.0
  9
$PLIMCHECK
 70
     0
  9
$PEXTMIN
 10
1.000000000000000E+20
 20
1.000000000000000E+20
 30
1.000000000000000E+20
  9
$PEXTMAX
 10
-1.000000000000000E+20
 20
-1.000000000000000E+20
 30
-1.000000000000000E+20
  9
$PLIMMIN
 10
0.0
 20
0.0
  9
$PLIMMAX
 10
12.0
 20
9.0
  9
$UNITMODE
 70
     0
  9
$VISRETAIN
 70
     0
  9
$PLINEGEN
 70
     1
  9
$PSLTSCALE
 70
     0
  9
$TREEDEPTH
 70
  3020
  9
$CMLSTYLE
  2
Standard
  9
$CMLJUST
 70
     0
  9
$CMLSCALE
 40
1.0
  9
$PROXYGRAPHICS
 70
     1
  9
$MEASUREMENT
 70
     0
  9
$CELWEIGHT
370
    -1
  9
$ENDCAPS
280
     0
  9
$JOINSTYLE
280
     0
  9
$LWDISPLAY
290
     0
  9
$INSUNITS
 70
     0
  9
$HYPERLINKBASE
  1

  9
$STYLESHEET
  1

  9
$XEDIT
290
     1
  9
$CEPSNTYPE
380
     0
  9
$PSTYLEMODE
290
     1
  9
$FINGERPRINTGUID
  2
{87A6AE46-326E-45A9-B6C9-57C0C6B3455B}
  9
$VERSIONGUID
  2
{E061F317-2739-4531-B8E0-F6F2B8A0C057}
  9
$EXTNAMES
290
     1
  9
$PSVPSCALE
 40
0.0
  9
$OLESTARTUP
290
     0
  0
ENDSEC
  0
SECTION
  2
CLASSES
  0
CLASS
  1
ACDBDICTIONARYWDFLT
  2
AcDbDictionaryWithDefault
  3
AutoCAD 2000
 90
        0
280
     0
281
     0
  0
CLASS
  1
ACDBPLACEHOLDER
  2
AcDbPlaceHolder
  3
AutoCAD 2000
 90
        0
280
     0
281
     0
  0
CLASS
  1
LAYOUT
  2
AcDbLayout
  3
AutoCAD 2000
 90
        0
280
     0
281
     0
  0
CLASS
  1
DICTIONARYVAR
  2
AcDbDictionaryVar
  3
AutoCAD 2000
 90
        0
280
     0
281
     0
  0
ENDSEC
  0
SECTION
  2
TABLES
  0
TABLE
  2
VPORT
  5
1C9A2
330
0
100
AcDbSymbolTable
 70
     2
  0
VPORT
  5
1D248
330
1C9A2
100
AcDbSymbolTableRecord
100
AcDbViewportTableRecord
  2
*Active
 70
     0
 10
0.0
 20
0.0
 11
1.0
 21
1.0
 12
8408.331337953367
 22
5702.983730997637
 13
0.0
 23
0.0
 14
1.0
 24
1.0
 15
0.0
 25
0.0
 16
0.0
 26
0.0
 36
1.0
 17
0.0
 27
0.0
 37
0.0
 40
11164.17719300493
 41
1.527918781725888
 42
50.0
 43
0.0
 44
0.0
 50
0.0
 51
0.0
 71
     0
 72
 10000
 73
     1
 74
     0
 75
     0
 76
     0
 77
     0
 78
     0
281
     0
 65
     1
110
0.0
120
0.0
130
0.0
111
1.0
121
0.0
131
0.0
112
0.0
122
1.0
132
0.0
 79
     0
146
0.0
  0
ENDTAB
  0
TABLE
  2
LTYPE
  5
1C99F
330
0
100
AcDbSymbolTable
 70
     7
  0
LTYPE
  5
1C9AD
330
1C99F
100
AcDbSymbolTableRecord
100
AcDbLinetypeTableRecord
  2
ByBlock
 70
     0
  3

 72
    65
 73
     0
 40
0.0
  0
LTYPE
  5
1C9AE
330
1C99F
100
AcDbSymbolTableRecord
100
AcDbLinetypeTableRecord
  2
ByLayer
 70
     0
  3

 72
    65
 73
     0
 40
0.0
  0
LTYPE
  5
1C9AF
330
1C99F
100
AcDbSymbolTableRecord
100
AcDbLinetypeTableRecord
  2
CONTINUOUS
 70
     0
  3
実線
 72
    65
 73
     0
 40
0.0
  0
LTYPE
  5
1C9BF
330
1C99F
100
AcDbSymbolTableRecord
100
AcDbLinetypeTableRecord
  2
TENSEN-
 70
     0
  3

 72
    65
 73
     2
 40
0.6000000000000001
 49
0.2
 74
     0
 49
-0.4
 74
     0
  0
LTYPE
  5
1C9C0
330
1C99F
100
AcDbSymbolTableRecord
100
AcDbLinetypeTableRecord
  2
1PL-LL
 70
     0
  3

 72
    65
 73
     4
 40
106.0
 49
100.0
 74
     0
 49
-2.0
 74
     0
 49
2.0
 74
     0
 49
-2.0
 74
     0
  0
LTYPE
  5
1C9C1
330
1C99F
100
AcDbSymbolTableRecord
100
AcDbLinetypeTableRecord
  2
1PL-M
 70
     0
  3

 72
    65
 73
     4
 40
15.0
 49
12.0
 74
     0
 49
-1.0
 74
     0
 49
1.0
 74
     0
 49
-1.0
 74
     0
  0
LTYPE
  5
1C9C2
330
1C99F
100
AcDbSymbolTableRecord
100
AcDbLinetypeTableRecord
  2
1PL-S
 70
     0
  3

 72
    65
 73
     4
 40
4.0
 49
2.5
 74
     0
 49
-0.5
 74
     0
 49
0.5
 74
     0
 49
-0.5
 74
     0
  0
LTYPE
  5
1C9C3
330
1C99F
100
AcDbSymbolTableRecord
100
AcDbLinetypeTableRecord
  2
2PL-L
 70
     0
  3

 72
    65
 73
     6
 40
60.0
 49
50.0
 74
     0
 49
-2.0
 74
     0
 49
2.0
 74
     0
 49
-2.0
 74
     0
 49
2.0
 74
     0
 49
-2.0
 74
     0
  0
LTYPE
  5
1C9C4
330
1C99F
100
AcDbSymbolTableRecord
100
AcDbLinetypeTableRecord
  2
1PL-12
 70
     0
  3

 72
    65
 73
     4
 40
15.0
 49
12.0
 74
     0
 49
-1.0
 74
     0
 49
1.0
 74
     0
 49
-1.0
 74
     0
  0
ENDTAB
  0
TABLE
  2
LAYER
  5
1C99C
330
0
100
AcDbSymbolTable
 70
    21
  0
LAYER
  5
1C9AA
330
1C99C
100
AcDbSymbolTableRecord
100
AcDbLayerTableRecord
  2
0
 70
     0
 62
     7
  6
CONTINUOUS
370
    -3
390
1C9A9
  0
LAYER
  5
1C9BC
330
1C99C
100
AcDbSymbolTableRecord
100
AcDbLayerTableRecord
  2
SUNPOU
 70
     0
 62
     4
  6
CONTINUOUS
370
    -3
390
1C9A9
  0
LAYER
  5
1C9C5
330
1C99C
100
AcDbSymbolTableRecord
100
AcDbLayerTableRecord
  2
U1
 70
     0
 62
     3
  6
CONTINUOUS
370
    -3
390
1C9A9
  0
LAYER
  5
1C9C6
330
1C99C
100
AcDbSymbolTableRecord
100
AcDbLayerTableRecord
  2
U3
 70
     0
 62
     6
  6
CONTINUOUS
370
    -3
390
1C9A9
  0
LAYER
  5
1C9C7
330
1C99C
100
AcDbSymbolTableRecord
100
AcDbLayerTableRecord
  2
HIKIDASHI
 70
     0
 62
     6
  6
CONTINUOUS
370
    -3
390
1C9A9
  0
LAYER
  5
1C9C8
330
1C99C
100
AcDbSymbolTableRecord
100
AcDbLayerTableRecord
  2
TENSEN-1
 70
     0
 62
     6
  6
TENSEN-
370
    -3
390
1C9A9
  0
LAYER
  5
1C9C9
330
1C99C
100
AcDbSymbolTableRecord
100
AcDbLayerTableRecord
  2
1PL-S1
 70
     0
 62
     6
  6
1PL-S
370
    -3
390
1C9A9
  0
LAYER
  5
1C9CA
330
1C99C
100
AcDbSymbolTableRecord
100
AcDbLayerTableRecord
  2
1PL-M1
 70
     0
 62
     6
  6
1PL-M
370
    -3
390
1C9A9
  0
LAYER
  5
1C9CB
330
1C99C
100
AcDbSymbolTableRecord
100
AcDbLayerTableRecord
  2
NAME
 70
     0
 62
    20
  6
CONTINUOUS
370
    -3
390
1C9A9
  0
LAYER
  5
1C9CC
330
1C99C
100
AcDbSymbolTableRecord
100
AcDbLayerTableRecord
  2
FILENAME
 70
     0
 62
     7
  6
CONTINUOUS
370
    -3
390
1C9A9
  0
LAYER
  5
1C9CD
330
1C99C
100
AcDbSymbolTableRecord
100
AcDbLayerTableRecord
  2
CENTER
 70
     0
 62
     6
  6
1PL-LL
370
    -3
390
1C9A9
  0
LAYER
  5
1C9CE
330
1C99C
100
AcDbSymbolTableRecord
100
AcDbLayerTableRecord
  2
KISO
 70
     0
 62
     2
  6
CONTINUOUS
370
    -3
390
1C9A9
  0
LAYER
  5
1C9CF
330
1C99C
100
AcDbSymbolTableRecord
100
AcDbLayerTableRecord
  2
BOLT
 70
     0
 62
     4
  6
CONTINUOUS
370
    -3
390
1C9A9
  0
LAYER
  5
1C9D0
330
1C99C
100
AcDbSymbolTableRecord
100
AcDbLayerTableRecord
  2
YANE
 70
     0
 62
     1
  6
1PL-12
370
    -3
390
1C9A9
  0
LAYER
  5
1C9D1
330
1C99C
100
AcDbSymbolTableRecord
100
AcDbLayerTableRecord
  2
HATCH
 70
     0
 62
     1
  6
CONTINUOUS
370
    -3
390
1C9A9
  0
LAYER
  5
1C9D2
330
1C99C
100
AcDbSymbolTableRecord
100
AcDbLayerTableRecord
  2
HASHIRA
 70
     0
 62
     3
  6
CONTINUOUS
370
    -3
390
1C9A9
  0
LAYER
  5
1C9D3
330
1C99C
100
AcDbSymbolTableRecord
100
AcDbLayerTableRecord
  2
DOMAKON
 70
     0
 62
     2
  6
CONTINUOUS
370
    -3
390
1C9A9
  0
LAYER
  5
1C9D4
330
1C99C
100
AcDbSymbolTableRecord
100
AcDbLayerTableRecord
  2
YODOROGO
 70
     0
 62
   130
  6
CONTINUOUS
370
    -3
390
1C9A9
  0
LAYER
  5
1C9D5
330
1C99C
100
AcDbSymbolTableRecord
100
AcDbLayerTableRecord
  2
WAKUSEN-01
 70
     0
 62
    50
  6
CONTINUOUS
370
    -3
390
1C9A9
  0
LAYER
  5
1C9D6
330
1C99C
100
AcDbSymbolTableRecord
100
AcDbLayerTableRecord
  2
WAKUSEN-02
 70
     0
 62
   130
  6
CONTINUOUS
370
    -3
390
1C9A9
  0
LAYER
  5
1C9D7
330
1C99C
100
AcDbSymbolTableRecord
100
AcDbLayerTableRecord
  2
WAKUMOJI-01
 70
     0
 62
   130
  6
CONTINUOUS
370
    -3
390
1C9A9
  0
ENDTAB
  0
TABLE
  2
STYLE
  5
1C99D
330
0
100
AcDbSymbolTable
 70
     5
  0
STYLE
  5
1C9AB
330
1C99D
100
AcDbSymbolTableRecord
100
AcDbTextStyleTableRecord
  2
STANDARD
 70
     0
 40
3.0
 41
1.0
 50
0.0
 71
     0
 42
0.2
  3
ROMANS
  4
EXTFONT
  0
STYLE
  5
1C9BD
330
1C99D
100
AcDbSymbolTableRecord
100
AcDbTextStyleTableRecord
  2
00
 70
     0
 40
0.0
 41
0.6666666666666666
 50
0.0
 71
     0
 42
0.2
  3
ROMANS
  4
BIGFONT
  0
STYLE
  5
1C9D8
330
1C99D
100
AcDbSymbolTableRecord
100
AcDbTextStyleTableRecord
  2
01
 70
     0
 40
3.0
 41
1.0
 50
0.0
 71
     0
 42
0.2
  3
ROMANS
  4
BIGFONT
  0
STYLE
  5
1C9D9
330
1C99D
100
AcDbSymbolTableRecord
100
AcDbTextStyleTableRecord
  2
WAKUMOJI
 70
     0
 40
3.0
 41
1.0
 50
0.0
 71
     0
 42
3.0
  3
SIMPLEX
  4
BIGFONT
  0
STYLE
  5
1C9DA
330
1C99D
100
AcDbSymbolTableRecord
100
AcDbTextStyleTableRecord
  2
FILENAME
 70
     0
 40
100.0
 41
1.0
 50
0.0
 71
     0
 42
100.0
  3
romans
  4
bigfont
  0
ENDTAB
  0
TABLE
  2
VIEW
  5
1C9A0
330
0
100
AcDbSymbolTable
 70
     0
  0
ENDTAB
  0
TABLE
  2
UCS
  5
1C9A1
330
0
100
AcDbSymbolTable
 70
     0
  0
ENDTAB
  0
TABLE
  2
APPID
  5
1C9A3
330
0
100
AcDbSymbolTable
 70
     5
  0
APPID
  5
1C9AC
330
1C9A3
100
AcDbSymbolTableRecord
100
AcDbRegAppTableRecord
  2
ACAD
 70
     0
  0
APPID
  5
1C9DB
330
1C9A3
100
AcDbSymbolTableRecord
100
AcDbRegAppTableRecord
  2
AUTOCAD_POSTSCRIPT_FIGURE
 70
     0
  0
APPID
  5
1C9DC
330
1C9A3
100
AcDbSymbolTableRecord
100
AcDbRegAppTableRecord
  2
ACAD_EXEMPT_FROM_CAD_STANDARDS
 70
     0
  0
APPID
  5
1C9DD
330
1C9A3
100
AcDbSymbolTableRecord
100
AcDbRegAppTableRecord
  2
ACAD_PSEXT
 70
     0
  0
APPID
  5
1C9DE
330
1C9A3
100
AcDbSymbolTableRecord
100
AcDbRegAppTableRecord
  2
ACLAYERTOOLS
 70
     0
  0
ENDTAB
  0
TABLE
  2
DIMSTYLE
  5
1C9A4
330
0
100
AcDbSymbolTable
 70
     1
100
AcDbDimStyleTable
 71
     0
  0
DIMSTYLE
105
1C9DF
330
1C9A4
100
AcDbSymbolTableRecord
100
AcDbDimStyleTableRecord
  2
SUNPOU_図面名
 70
     0
 40
30.0
 41
0.5
 42
1.0
 43
7.0
 44
1.5
 46
3.0
 73
     0
 74
     0
 77
     1
 78
     8
140
3.0
141
0.0
147
1.5
172
     1
173
     1
176
   256
177
   256
178
   256
271
     2
272
     2
279
     2
284
     8
285
     8
286
     8
340
1C9BD
  0
ENDTAB
  0
TABLE
  2
BLOCK_RECORD
  5
1C99B
330
0
100
AcDbSymbolTable
 70
    48
  0
BLOCK_RECORD
  5
1C9B8
330
1C99B
100
AcDbSymbolTableRecord
100
AcDbBlockTableRecord
  2
*Model_Space
340
1C9BB
  0
BLOCK_RECORD
  5
1C9B4
330
1C99B
100
AcDbSymbolTableRecord
100
AcDbBlockTableRecord
  2
*Paper_Space
340
1C9B7
  0
BLOCK_RECORD
  5
1C9E4
330
1C99B
100
AcDbSymbolTableRecord
100
AcDbBlockTableRecord
  2
$MODEL_SPACE
340
0
  0
BLOCK_RECORD
  5
1C9E7
330
1C99B
100
AcDbSymbolTableRecord
100
AcDbBlockTableRecord
  2
$PAPER_SPACE
340
0
  0
BLOCK_RECORD
  5
1C9EA
330
1C99B
100
AcDbSymbolTableRecord
100
AcDbBlockTableRecord
  2
DOT
340
0
  0
BLOCK_RECORD
  5
1C9F2
330
1C99B
100
AcDbSymbolTableRecord
100
AcDbBlockTableRecord
  2
*U3
340
0
  0
BLOCK_RECORD
  5
1C9F6
330
1C99B
100
AcDbSymbolTableRecord
100
AcDbBlockTableRecord
  2
*U4
340
0
  0
BLOCK_RECORD
  5
1C9FA
330
1C99B
100
AcDbSymbolTableRecord
100
AcDbBlockTableRecord
  2
*U5
340
0
  0
BLOCK_RECORD
  5
1C9FE
330
1C99B
100
AcDbSymbolTableRecord
100
AcDbBlockTableRecord
  2
*U6
340
0
  0
BLOCK_RECORD
  5
1CA02
330
1C99B
100
AcDbSymbolTableRecord
100
AcDbBlockTableRecord
  2
*U7
340
0
  0
BLOCK_RECORD
  5
1CA06
330
1C99B
100
AcDbSymbolTableRecord
100
AcDbBlockTableRecord
  2
*U8
340
0
  0
BLOCK_RECORD
  5
1CA0A
330
1C99B
100
AcDbSymbolTableRecord
100
AcDbBlockTableRecord
  2
*U9
340
0
  0
BLOCK_RECORD
  5
1CA0E
330
1C99B
100
AcDbSymbolTableRecord
100
AcDbBlockTableRecord
  2
*U10
340
0
  0
BLOCK_RECORD
  5
1CA12
330
1C99B
100
AcDbSymbolTableRecord
100
AcDbBlockTableRecord
  2
*U11
340
0
  0
BLOCK_RECORD
  5
1CA16
330
1C99B
100
AcDbSymbolTableRecord
100
AcDbBlockTableRecord
  2
*U12
340
0
  0
BLOCK_RECORD
  5
1CA1A
330
1C99B
100
AcDbSymbolTableRecord
100
AcDbBlockTableRecord
  2
*U13
340
0
  0
BLOCK_RECORD
  5
1CA1E
330
1C99B
100
AcDbSymbolTableRecord
100
AcDbBlockTableRecord
  2
*U14
340
0
  0
BLOCK_RECORD
  5
1CA22
330
1C99B
100
AcDbSymbolTableRecord
100
AcDbBlockTableRecord
  2
*U15
340
0
  0
BLOCK_RECORD
  5
1CA26
330
1C99B
100
AcDbSymbolTableRecord
100
AcDbBlockTableRecord
  2
*U16
340
0
  0
BLOCK_RECORD
  5
1CA2A
330
1C99B
100
AcDbSymbolTableRecord
100
AcDbBlockTableRecord
  2
*U17
340
0
  0
BLOCK_RECORD
  5
1CA2E
330
1C99B
100
AcDbSymbolTableRecord
100
AcDbBlockTableRecord
  2
*U18
340
0
  0
BLOCK_RECORD
  5
1CA32
330
1C99B
100
AcDbSymbolTableRecord
100
AcDbBlockTableRecord
  2
*U19
340
0
  0
BLOCK_RECORD
  5
1CA36
330
1C99B
100
AcDbSymbolTableRecord
100
AcDbBlockTableRecord
  2
*U20
340
0
  0
BLOCK_RECORD
  5
1CA3A
330
1C99B
100
AcDbSymbolTableRecord
100
AcDbBlockTableRecord
  2
*U21
340
0
  0
BLOCK_RECORD
  5
1CA3E
330
1C99B
100
AcDbSymbolTableRecord
100
AcDbBlockTableRecord
  2
*U22
340
0
  0
BLOCK_RECORD
  5
1CA42
330
1C99B
100
AcDbSymbolTableRecord
100
AcDbBlockTableRecord
  2
*U23
340
0
  0
BLOCK_RECORD
  5
1CA46
330
1C99B
100
AcDbSymbolTableRecord
100
AcDbBlockTableRecord
  2
*U24
340
0
  0
BLOCK_RECORD
  5
1CA4A
330
1C99B
100
AcDbSymbolTableRecord
100
AcDbBlockTableRecord
  2
*U25
340
0
  0
BLOCK_RECORD
  5
1CA4E
330
1C99B
100
AcDbSymbolTableRecord
100
AcDbBlockTableRecord
  2
*U26
340
0
  0
BLOCK_RECORD
  5
1CA52
330
1C99B
100
AcDbSymbolTableRecord
100
AcDbBlockTableRecord
  2
*U27
340
0
  0
BLOCK_RECORD
  5
1CA56
330
1C99B
100
AcDbSymbolTableRecord
100
AcDbBlockTableRecord
  2
*U28
340
0
  0
BLOCK_RECORD
  5
1CA5A
330
1C99B
100
AcDbSymbolTableRecord
100
AcDbBlockTableRecord
  2
*U29
340
0
  0
BLOCK_RECORD
  5
1CA5E
330
1C99B
100
AcDbSymbolTableRecord
100
AcDbBlockTableRecord
  2
*U30
340
0
  0
BLOCK_RECORD
  5
1CA62
330
1C99B
100
AcDbSymbolTableRecord
100
AcDbBlockTableRecord
  2
*U31
340
0
  0
BLOCK_RECORD
  5
1CA66
330
1C99B
100
AcDbSymbolTableRecord
100
AcDbBlockTableRecord
  2
*U32
340
0
  0
BLOCK_RECORD
  5
1CA6A
330
1C99B
100
AcDbSymbolTableRecord
100
AcDbBlockTableRecord
  2
*U33
340
0
  0
BLOCK_RECORD
  5
1CA6E
330
1C99B
100
AcDbSymbolTableRecord
100
AcDbBlockTableRecord
  2
*U34
340
0
  0
BLOCK_RECORD
  5
1CA72
330
1C99B
100
AcDbSymbolTableRecord
100
AcDbBlockTableRecord
  2
*U35
340
0
  0
BLOCK_RECORD
  5
1CA76
330
1C99B
100
AcDbSymbolTableRecord
100
AcDbBlockTableRecord
  2
*U36
340
0
  0
BLOCK_RECORD
  5
1CA7A
330
1C99B
100
AcDbSymbolTableRecord
100
AcDbBlockTableRecord
  2
*U37
340
0
  0
BLOCK_RECORD
  5
1CA7E
330
1C99B
100
AcDbSymbolTableRecord
100
AcDbBlockTableRecord
  2
*U38
340
0
  0
BLOCK_RECORD
  5
1CA82
330
1C99B
100
AcDbSymbolTableRecord
100
AcDbBlockTableRecord
  2
*U39
340
0
  0
BLOCK_RECORD
  5
1CA86
330
1C99B
100
AcDbSymbolTableRecord
100
AcDbBlockTableRecord
  2
*U40
340
0
  0
BLOCK_RECORD
  5
1CA8A
330
1C99B
100
AcDbSymbolTableRecord
100
AcDbBlockTableRecord
  2
*U41
340
0
  0
BLOCK_RECORD
  5
1CA8E
330
1C99B
100
AcDbSymbolTableRecord
100
AcDbBlockTableRecord
  2
*U42
340
0
  0
BLOCK_RECORD
  5
1CA92
330
1C99B
100
AcDbSymbolTableRecord
100
AcDbBlockTableRecord
  2
*U43
340
0
  0
BLOCK_RECORD
  5
1CA96
330
1C99B
100
AcDbSymbolTableRecord
100
AcDbBlockTableRecord
  2
*U44
340
0
  0
BLOCK_RECORD
  5
1CA9A
330
1C99B
100
AcDbSymbolTableRecord
100
AcDbBlockTableRecord
  2
*U45
340
0
  0
BLOCK_RECORD
  5
1CA9E
330
1C99B
100
AcDbSymbolTableRecord
100
AcDbBlockTableRecord
  2
*U46
340
0
  0
ENDTAB
  0
ENDSEC
  0
SECTION
  2
BLOCKS
  0
BLOCK
  5
1C9B9
330
1C9B8
100
AcDbEntity
  8
0
100
AcDbBlockBegin
  2
*Model_Space
 70
     0
 10
0.0
 20
0.0
 30
0.0
  3
*Model_Space
  1

  0
ENDBLK
  5
1C9BA
330
1C9B8
100
AcDbEntity
  8
0
100
AcDbBlockEnd
  0
BLOCK
  5
1C9B5
330
1C9B4
100
AcDbEntity
 67
     1
  8
0
100
AcDbBlockBegin
  2
*Paper_Space
 70
     0
 10
0.0
 20
0.0
 30
0.0
  3
*Paper_Space
  1

  0
ENDBLK
  5
1C9B6
330
1C9B4
100
AcDbEntity
 67
     1
  8
0
100
AcDbBlockEnd
  0
BLOCK
  5
1C9E5
330
1C9E4
100
AcDbEntity
  8
0
100
AcDbBlockBegin
  2
$MODEL_SPACE
 70
     0
 10
0.0
 20
0.0
 30
0.0
  3
$MODEL_SPACE
  1

  0
ENDBLK
  5
1C9E6
330
1C9E4
100
AcDbEntity
  8
0
100
AcDbBlockEnd
  0
BLOCK
  5
1C9E8
330
1C9E7
100
AcDbEntity
  8
0
100
AcDbBlockBegin
  2
$PAPER_SPACE
 70
     0
 10
0.0
 20
0.0
 30
0.0
  3
$PAPER_SPACE
  1

  0
ENDBLK
  5
1C9E9
330
1C9E7
100
AcDbEntity
  8
0
100
AcDbBlockEnd
  0
BLOCK
  5
1C9EB
330
1C9EA
100
AcDbEntity
  8
0
100
AcDbBlockBegin
  2
DOT
 70
     0
 10
0.0
 20
0.0
 30
0.0
  3
DOT
  1

  0
LWPOLYLINE
  5
1C9EC
330
1C9EA
100
AcDbEntity
  8
0
  6
ByBlock
 62
     0
100
AcDbPolyline
 90
        2
 70
     1
 43
0.75
 10
-0.375
 20
0.0
 42
1.0
 10
0.375
 20
0.0
 42
1.0
  0
LINE
  5
1C9F0
330
1C9EA
100
AcDbEntity
  8
0
  6
ByBlock
 62
     0
100
AcDbLine
 10
-0.75
 20
0.0
 30
0.0
 11
-1.5
 21
0.0
 31
0.0
  0
ENDBLK
  5
1C9F1
330
1C9EA
100
AcDbEntity
  8
0
100
AcDbBlockEnd
  0
BLOCK
  5
1C9F3
330
1C9F2
100
AcDbEntity
  8
0
100
AcDbBlockBegin
  2
*U3
 70
     1
 10
0.0
 20
0.0
 30
0.0
  3
*U3
  1

  0
TEXT
  5
1C9F4
330
1C9F2
100
AcDbEntity
  8
SUNPOU
100
AcDbText
 10
11855.58860891543
 20
3076.790768968928
 30
0.0
 40
90.0
  1
160
 41
0.6666666666666666
  7
00
100
AcDbText
  0
ENDBLK
  5
1C9F5
330
1C9F2
100
AcDbEntity
  8
0
100
AcDbBlockEnd
  0
BLOCK
  5
1C9F7
330
1C9F6
100
AcDbEntity
  8
0
100
AcDbBlockBegin
  2
*U4
 70
     1
 10
0.0
 20
0.0
 30
0.0
  3
*U4
  1

  0
TEXT
  5
1C9F8
330
1C9F6
100
AcDbEntity
  8
SUNPOU
100
AcDbText
 10
11444.87432320114
 20
3286.790768968928
 30
0.0
 40
90.0
  1
20
 41
0.6666666666666666
  7
00
100
AcDbText
  0
ENDBLK
  5
1C9F9
330
1C9F6
100
AcDbEntity
  8
0
100
AcDbBlockEnd
  0
BLOCK
  5
1C9FB
330
1C9FA
100
AcDbEntity
  8
0
100
AcDbBlockBegin
  2
*U5
 70
     1
 10
0.0
 20
0.0
 30
0.0
  3
*U5
  1

  0
TEXT
  5
1C9FC
330
1C9FA
100
AcDbEntity
  8
SUNPOU
100
AcDbText
 10
11855.58860891545
 20
3286.790768968928
 30
0.0
 40
90.0
  1
120
 41
0.6666666666666666
  7
00
100
AcDbText
  0
ENDBLK
  5
1C9FD
330
1C9FA
100
AcDbEntity
  8
0
100
AcDbBlockEnd
  0
BLOCK
  5
1C9FF
330
1C9FE
100
AcDbEntity
  8
0
100
AcDbBlockBegin
  2
*U6
 70
     1
 10
0.0
 20
0.0
 30
0.0
  3
*U6
  1

  0
TEXT
  5
1CA00
330
1C9FE
100
AcDbEntity
  8
SUNPOU
100
AcDbText
 10
12332.017180344
 20
3286.790768968928
 30
0.0
 40
90.0
  1
20
 41
0.6666666666666666
  7
00
100
AcDbText
  0
ENDBLK
  5
1CA01
330
1C9FE
100
AcDbEntity
  8
0
100
AcDbBlockEnd
  0
BLOCK
  5
1CA03
330
1CA02
100
AcDbEntity
  8
0
100
AcDbBlockBegin
  2
*U7
 70
     1
 10
0.0
 20
0.0
 30
0.0
  3
*U7
  1

  0
TEXT
  5
1CA04
330
1CA02
100
AcDbEntity
  8
SUNPOU
100
AcDbText
 10
11067.58860891543
 20
2490.621393224165
 30
0.0
 40
90.0
  1
80
 50
90.0
 41
0.6666666666666666
  7
00
100
AcDbText
  0
ENDBLK
  5
1CA05
330
1CA02
100
AcDbEntity
  8
0
100
AcDbBlockEnd
  0
BLOCK
  5
1CA07
330
1CA06
100
AcDbEntity
  8
0
100
AcDbBlockBegin
  2
*U8
 70
     1
 10
0.0
 20
0.0
 30
0.0
  3
*U8
  1

  0
TEXT
  5
1CA08
330
1CA06
100
AcDbEntity
  8
SUNPOU
100
AcDbText
 10
11277.58860891543
 20
2759.192821795593
 30
0.0
 40
90.0
  1
40
 50
90.0
 41
0.6666666666666666
  7
00
100
AcDbText
  0
ENDBLK
  5
1CA09
330
1CA06
100
AcDbEntity
  8
0
100
AcDbBlockEnd
  0
BLOCK
  5
1CA0B
330
1CA0A
100
AcDbEntity
  8
0
100
AcDbBlockBegin
  2
*U9
 70
     1
 10
0.0
 20
0.0
 30
0.0
  3
*U9
  1

  0
TEXT
  5
1CA0C
330
1CA0A
100
AcDbEntity
  8
SUNPOU
100
AcDbText
 10
11277.58860891543
 20
2222.049964652736
 30
0.0
 40
90.0
  1
40
 50
90.0
 41
0.6666666666666666
  7
00
100
AcDbText
  0
ENDBLK
  5
1CA0D
330
1CA0A
100
AcDbEntity
  8
0
100
AcDbBlockEnd
  0
BLOCK
  5
1CA0F
330
1CA0E
100
AcDbEntity
  8
0
100
AcDbBlockBegin
  2
*U10
 70
     1
 10
0.0
 20
0.0
 30
0.0
  3
*U10
  1

  0
TEXT
  5
1CA10
330
1CA0E
100
AcDbEntity
  8
SUNPOU
100
AcDbText
 10
11855.58860891543
 20
1928.424883029956
 30
0.0
 40
90.0
  1
160
 41
0.6666666666666666
  7
00
100
AcDbText
  0
ENDBLK
  5
1CA11
330
1CA0E
100
AcDbEntity
  8
0
100
AcDbBlockEnd
  0
BLOCK
  5
1CA13
330
1CA12
100
AcDbEntity
  8
0
100
AcDbBlockBegin
  2
*U11
 70
     1
 10
0.0
 20
0.0
 30
0.0
  3
*U11
  1

  0
TEXT
  5
1CA14
330
1CA12
100
AcDbEntity
  8
SUNPOU
100
AcDbText
 10
11444.87432320114
 20
2138.424883029956
 30
0.0
 40
90.0
  1
20
 41
0.6666666666666666
  7
00
100
AcDbText
  0
ENDBLK
  5
1CA15
330
1CA12
100
AcDbEntity
  8
0
100
AcDbBlockEnd
  0
BLOCK
  5
1CA17
330
1CA16
100
AcDbEntity
  8
0
100
AcDbBlockBegin
  2
*U12
 70
     1
 10
0.0
 20
0.0
 30
0.0
  3
*U12
  1

  0
TEXT
  5
1CA18
330
1CA16
100
AcDbEntity
  8
SUNPOU
100
AcDbText
 10
11855.58860891545
 20
2138.424883029956
 30
0.0
 40
90.0
  1
120
 41
0.6666666666666666
  7
00
100
AcDbText
  0
ENDBLK
  5
1CA19
330
1CA16
100
AcDbEntity
  8
0
100
AcDbBlockEnd
  0
BLOCK
  5
1CA1B
330
1CA1A
100
AcDbEntity
  8
0
100
AcDbBlockBegin
  2
*U13
 70
     1
 10
0.0
 20
0.0
 30
0.0
  3
*U13
  1

  0
TEXT
  5
1CA1C
330
1CA1A
100
AcDbEntity
  8
SUNPOU
100
AcDbText
 10
12332.017180344
 20
2138.424883029956
 30
0.0
 40
90.0
  1
20
 41
0.6666666666666666
  7
00
100
AcDbText
  0
ENDBLK
  5
1CA1D
330
1CA1A
100
AcDbEntity
  8
0
100
AcDbBlockEnd
  0
BLOCK
  5
1CA1F
330
1CA1E
100
AcDbEntity
  8
0
100
AcDbBlockBegin
  2
*U14
 70
     1
 10
0.0
 20
0.0
 30
0.0
  3
*U14
  1

  0
TEXT
  5
1CA20
330
1CA1E
100
AcDbEntity
  8
SUNPOU
100
AcDbText
 10
9389.21703198606
 20
7410.001074758969
 30
0.0
 40
90.0
  1
800
 50
90.0
 41
0.6666666666666666
  7
00
100
AcDbText
  0
ENDBLK
  5
1CA21
330
1CA1E
100
AcDbEntity
  8
0
100
AcDbBlockEnd
  0
BLOCK
  5
1CA23
330
1CA22
100
AcDbEntity
  8
0
100
AcDbBlockBegin
  2
*U15
 70
     1
 10
0.0
 20
0.0
 30
0.0
  3
*U15
  1

  0
TEXT
  5
1CA24
330
1CA22
100
AcDbEntity
  8
SUNPOU
100
AcDbText
 10
8748.502746271773
 20
8110.715360473252
 30
0.0
 40
90.0
  1
800
 41
0.6666666666666666
  7
00
100
AcDbText
  0
ENDBLK
  5
1CA25
330
1CA22
100
AcDbEntity
  8
0
100
AcDbBlockEnd
  0
BLOCK
  5
1CA27
330
1CA26
100
AcDbEntity
  8
0
100
AcDbBlockBegin
  2
*U16
 70
     1
 10
0.0
 20
0.0
 30
0.0
  3
*U16
  1

  0
TEXT
  5
1CA28
330
1CA26
100
AcDbEntity
  8
SUNPOU
100
AcDbText
 10
8747.074174843204
 20
6290.715360473253
 30
0.0
 40
90.0
  1
600
 41
0.6666666666666666
  7
00
100
AcDbText
  0
ENDBLK
  5
1CA29
330
1CA26
100
AcDbEntity
  8
0
100
AcDbBlockEnd
  0
BLOCK
  5
1CA2B
330
1CA2A
100
AcDbEntity
  8
0
100
AcDbBlockBegin
  2
*U17
 70
     1
 10
0.0
 20
0.0
 30
0.0
  3
*U17
  1

  0
TEXT
  5
1CA2C
330
1CA2A
100
AcDbEntity
  8
SUNPOU
100
AcDbText
 10
7447.074174843203
 20
8740.715360473251
 30
0.0
 40
90.0
  1
600
 41
0.6666666666666666
  7
00
100
AcDbText
  0
ENDBLK
  5
1CA2D
330
1CA2A
100
AcDbEntity
  8
0
100
AcDbBlockEnd
  0
BLOCK
  5
1CA2F
330
1CA2E
100
AcDbEntity
  8
0
100
AcDbBlockBegin
  2
*U18
 70
     1
 10
0.0
 20
0.0
 30
0.0
  3
*U18
  1

  0
TEXT
  5
1CA30
330
1CA2E
100
AcDbEntity
  8
SUNPOU
100
AcDbText
 10
6889.21703198606
 20
9208.572503330399
 30
0.0
 40
90.0
  1
600
 50
90.0
 41
0.6666666666666666
  7
00
100
AcDbText
  0
ENDBLK
  5
1CA31
330
1CA2E
100
AcDbEntity
  8
0
100
AcDbBlockEnd
  0
BLOCK
  5
1CA33
330
1CA32
100
AcDbEntity
  8
0
100
AcDbBlockBegin
  2
*U19
 70
     1
 10
0.0
 20
0.0
 30
0.0
  3
*U19
  1

  0
TEXT
  5
1CA34
330
1CA32
100
AcDbEntity
  8
SUNPOU
100
AcDbText
 10
9389.21703198606
 20
5608.572503330398
 30
0.0
 40
90.0
  1
600
 50
90.0
 41
0.6666666666666666
  7
00
100
AcDbText
  0
ENDBLK
  5
1CA35
330
1CA32
100
AcDbEntity
  8
0
100
AcDbBlockEnd
  0
BLOCK
  5
1CA37
330
1CA36
100
AcDbEntity
  8
0
100
AcDbBlockBegin
  2
*U20
 70
     1
 10
0.0
 20
0.0
 30
0.0
  3
*U20
  1

  0
TEXT
  5
1CA38
330
1CA36
100
AcDbEntity
  8
SUNPOU
100
AcDbText
 10
6019.931317700345
 20
10040.71536047325
 30
0.0
 40
90.0
  1
2800
 41
0.6666666666666666
  7
00
100
AcDbText
  0
ENDBLK
  5
1CA39
330
1CA36
100
AcDbEntity
  8
0
100
AcDbBlockEnd
  0
BLOCK
  5
1CA3B
330
1CA3A
100
AcDbEntity
  8
0
100
AcDbBlockBegin
  2
*U21
 70
     1
 10
0.0
 20
0.0
 30
0.0
  3
*U21
  1

  0
TEXT
  5
1CA3C
330
1CA3A
100
AcDbEntity
  8
SUNPOU
100
AcDbText
 10
4448.502746271774
 20
10040.71536047325
 30
0.0
 40
90.0
  1
400
 41
0.6666666666666666
  7
00
100
AcDbText
  0
ENDBLK
  5
1CA3D
330
1CA3A
100
AcDbEntity
  8
0
100
AcDbBlockEnd
  0
BLOCK
  5
1CA3F
330
1CA3E
100
AcDbEntity
  8
0
100
AcDbBlockBegin
  2
*U22
 70
     1
 10
0.0
 20
0.0
 30
0.0
  3
*U22
  1

  0
TEXT
  5
1CA40
330
1CA3E
100
AcDbEntity
  8
SUNPOU
100
AcDbText
 10
12389.21703198605
 20
9360.001074758967
 30
0.0
 40
90.0
  1
300
 50
90.0
 41
0.6666666666666666
  7
00
100
AcDbText
  0
ENDBLK
  5
1CA41
330
1CA3E
100
AcDbEntity
  8
0
100
AcDbBlockEnd
  0
BLOCK
  5
1CA43
330
1CA42
100
AcDbEntity
  8
0
100
AcDbBlockBegin
  2
*U23
 70
     1
 10
0.0
 20
0.0
 30
0.0
  3
*U23
  1

  0
TEXT
  5
1CA44
330
1CA42
100
AcDbEntity
  8
SUNPOU
100
AcDbText
 10
12389.21703198605
 20
8277.143931901829
 30
0.0
 40
90.0
  1
1800
 50
90.0
 41
0.6666666666666666
  7
00
100
AcDbText
  0
ENDBLK
  5
1CA45
330
1CA42
100
AcDbEntity
  8
0
100
AcDbBlockEnd
  0
BLOCK
  5
1CA47
330
1CA46
100
AcDbEntity
  8
0
100
AcDbBlockBegin
  2
*U24
 70
     1
 10
0.0
 20
0.0
 30
0.0
  3
*U24
  1

  0
TEXT
  5
1CA48
330
1CA46
100
AcDbEntity
  8
SUNPOU
100
AcDbText
 10
12389.21703198605
 20
6477.143931901827
 30
0.0
 40
90.0
  1
1800
 50
90.0
 41
0.6666666666666666
  7
00
100
AcDbText
  0
ENDBLK
  5
1CA49
330
1CA46
100
AcDbEntity
  8
0
100
AcDbBlockEnd
  0
BLOCK
  5
1CA4B
330
1CA4A
100
AcDbEntity
  8
0
100
AcDbBlockBegin
  2
*U25
 70
     1
 10
0.0
 20
0.0
 30
0.0
  3
*U25
  1

  0
TEXT
  5
1CA4C
330
1CA4A
100
AcDbEntity
  8
SUNPOU
100
AcDbText
 10
12389.21703198605
 20
5460.001074758969
 30
0.0
 40
90.0
  1
300
 50
90.0
 41
0.6666666666666666
  7
00
100
AcDbText
  0
ENDBLK
  5
1CA4D
330
1CA4A
100
AcDbEntity
  8
0
100
AcDbBlockEnd
  0
BLOCK
  5
1CA4F
330
1CA4E
100
AcDbEntity
  8
0
100
AcDbBlockBegin
  2
*U26
 70
     1
 10
0.0
 20
0.0
 30
0.0
  3
*U26
  1

  0
TEXT
  5
1CA50
330
1CA4E
100
AcDbEntity
  8
SUNPOU
100
AcDbText
 10
12599.21703198606
 20
7381.42964618754
 30
0.0
 40
90.0
  1
4200
 50
90.0
 41
0.6666666666666666
  7
00
100
AcDbText
  0
ENDBLK
  5
1CA51
330
1CA4E
100
AcDbEntity
  8
0
100
AcDbBlockEnd
  0
BLOCK
  5
1CA53
330
1CA52
100
AcDbEntity
  8
0
100
AcDbBlockBegin
  2
*U27
 70
     1
 10
0.0
 20
0.0
 30
0.0
  3
*U27
  1

  0
TEXT
  5
1CA54
330
1CA52
100
AcDbEntity
  8
SUNPOU
100
AcDbText
 10
10119.93131770034
 20
10040.71536047325
 30
0.0
 40
90.0
  1
2800
 41
0.6666666666666666
  7
00
100
AcDbText
  0
ENDBLK
  5
1CA55
330
1CA52
100
AcDbEntity
  8
0
100
AcDbBlockEnd
  0
BLOCK
  5
1CA57
330
1CA56
100
AcDbEntity
  8
0
100
AcDbBlockBegin
  2
*U28
 70
     1
 10
0.0
 20
0.0
 30
0.0
  3
*U28
  1

  0
TEXT
  5
1CA58
330
1CA56
100
AcDbEntity
  8
SUNPOU
100
AcDbText
 10
11748.50274627176
 20
10040.71536047325
 30
0.0
 40
90.0
  1
400
 41
0.6666666666666666
  7
00
100
AcDbText
  0
ENDBLK
  5
1CA59
330
1CA56
100
AcDbEntity
  8
0
100
AcDbBlockEnd
  0
BLOCK
  5
1CA5B
330
1CA5A
100
AcDbEntity
  8
0
100
AcDbBlockBegin
  2
*U29
 70
     1
 10
0.0
 20
0.0
 30
0.0
  3
*U29
  1

  0
TEXT
  5
1CA5C
330
1CA5A
100
AcDbEntity
  8
SUNPOU
100
AcDbText
 10
7776.482360557491
 20
10040.71536047325
 30
0.0
 40
90.0
  1
2800 × （ N - 2 ）
 41
0.6667
  7
00
100
AcDbText
  0
ENDBLK
  5
1CA5D
330
1CA5A
100
AcDbEntity
  8
0
100
AcDbBlockEnd
  0
BLOCK
  5
1CA5F
330
1CA5E
100
AcDbEntity
  8
0
100
AcDbBlockBegin
  2
*U30
 70
     1
 10
0.0
 20
0.0
 30
0.0
  3
*U30
  1

  0
TEXT
  5
1CA60
330
1CA5E
100
AcDbEntity
  8
SUNPOU
100
AcDbText
 10
7720.502746271773
 20
10250.71536047325
 30
0.0
 40
90.0
  1
L = 2800 x N + 800
 41
0.6666666666666666
  7
00
100
AcDbText
  0
ENDBLK
  5
1CA61
330
1CA5E
100
AcDbEntity
  8
0
100
AcDbBlockEnd
  0
BLOCK
  5
1CA63
330
1CA62
100
AcDbEntity
  8
0
100
AcDbBlockBegin
  2
*U31
 70
     1
 10
0.0
 20
0.0
 30
0.0
  3
*U31
  1

  0
TEXT
  5
1CA64
330
1CA62
100
AcDbEntity
  8
SUNPOU
100
AcDbText
 10
3186.201707025588
 20
3409.184504159606
 30
0.0
 40
90.0
  1
400
 41
0.6666666666666666
  7
00
100
AcDbText
  0
ENDBLK
  5
1CA65
330
1CA62
100
AcDbEntity
  8
0
100
AcDbBlockEnd
  0
BLOCK
  5
1CA67
330
1CA66
100
AcDbEntity
  8
0
100
AcDbBlockBegin
  2
*U32
 70
     1
 10
0.0
 20
0.0
 30
0.0
  3
*U32
  1

  0
TEXT
  5
1CA68
330
1CA66
100
AcDbEntity
  8
SUNPOU
100
AcDbText
 10
2417.562596739115
 20
2148.841074880162
 30
0.0
 40
90.0
  1
564
 50
90.0
 41
0.6666666666666666
  7
00
100
AcDbText
  0
ENDBLK
  5
1CA69
330
1CA66
100
AcDbEntity
  8
0
100
AcDbBlockEnd
  0
BLOCK
  5
1CA6B
330
1CA6A
100
AcDbEntity
  8
0
100
AcDbBlockBegin
  2
*U33
 70
     1
 10
0.0
 20
0.0
 30
0.0
  3
*U33
  1

  0
TEXT
  5
1CA6C
330
1CA6A
100
AcDbEntity
  8
SUNPOU
100
AcDbText
 10
2627.562596739115
 20
1561.926789165875
 30
0.0
 40
90.0
  1
100
 50
90.0
 41
0.6666666666666666
  7
00
100
AcDbText
  0
ENDBLK
  5
1CA6D
330
1CA6A
100
AcDbEntity
  8
0
100
AcDbBlockEnd
  0
BLOCK
  5
1CA6F
330
1CA6E
100
AcDbEntity
  8
0
100
AcDbBlockBegin
  2
*U34
 70
     1
 10
0.0
 20
0.0
 30
0.0
  3
*U34
  1

  0
TEXT
  5
1CA70
330
1CA6E
100
AcDbEntity
  8
SUNPOU
100
AcDbText
 10
2627.562596739115
 20
2099.069646308731
 30
0.0
 40
90.0
  1
300
 50
90.0
 41
0.6666666666666666
  7
00
100
AcDbText
  0
ENDBLK
  5
1CA71
330
1CA6E
100
AcDbEntity
  8
0
100
AcDbBlockEnd
  0
BLOCK
  5
1CA73
330
1CA72
100
AcDbEntity
  8
0
100
AcDbBlockBegin
  2
*U35
 70
     1
 10
0.0
 20
0.0
 30
0.0
  3
*U35
  1

  0
TEXT
  5
1CA74
330
1CA72
100
AcDbEntity
  8
SUNPOU
100
AcDbText
 10
2627.562596739115
 20
2738.612503451589
 30
0.0
 40
90.0
  1
84
 50
90.0
 41
0.6666666666666666
  7
00
100
AcDbText
  0
ENDBLK
  5
1CA75
330
1CA72
100
AcDbEntity
  8
0
100
AcDbBlockEnd
  0
BLOCK
  5
1CA77
330
1CA76
100
AcDbEntity
  8
0
100
AcDbBlockBegin
  2
*U36
 70
     1
 10
0.0
 20
0.0
 30
0.0
  3
*U36
  1

  0
TEXT
  5
1CA78
330
1CA76
100
AcDbEntity
  8
SUNPOU
100
AcDbText
 10
2627.562596739117
 20
2431.641074880156
 30
0.0
 40
90.0
  1
80
 50
90.0
 41
0.6666666666666666
  7
00
100
AcDbText
  0
ENDBLK
  5
1CA79
330
1CA76
100
AcDbEntity
  8
0
100
AcDbBlockEnd
  0
BLOCK
  5
1CA7B
330
1CA7A
100
AcDbEntity
  8
0
100
AcDbBlockBegin
  2
*U37
 70
     1
 10
0.0
 20
0.0
 30
0.0
  3
*U37
  1

  0
TEXT
  5
1CA7C
330
1CA7A
100
AcDbEntity
  8
SUNPOU
100
AcDbText
 10
2207.562596739115
 20
2753.612503451591
 30
0.0
 40
90.0
  1
50
 50
90.0
 41
0.6666666666666666
  7
00
100
AcDbText
  0
ENDBLK
  5
1CA7D
330
1CA7A
100
AcDbEntity
  8
0
100
AcDbBlockEnd
  0
BLOCK
  5
1CA7F
330
1CA7E
100
AcDbEntity
  8
0
100
AcDbBlockBegin
  2
*U38
 70
     1
 10
0.0
 20
0.0
 30
0.0
  3
*U38
  1

  0
TEXT
  5
1CA80
330
1CA7E
100
AcDbEntity
  8
SUNPOU
100
AcDbText
 10
3506.201707025587
 20
1217.383932023014
 30
0.0
 40
90.0
  1
800
 41
0.6666666666666666
  7
00
100
AcDbText
  0
ENDBLK
  5
1CA81
330
1CA7E
100
AcDbEntity
  8
0
100
AcDbBlockEnd
  0
BLOCK
  5
1CA83
330
1CA82
100
AcDbEntity
  8
0
100
AcDbBlockBegin
  2
*U39
 70
     1
 10
0.0
 20
0.0
 30
0.0
  3
*U39
  1

  0
TEXT
  5
1CA84
330
1CA82
100
AcDbEntity
  8
SUNPOU
100
AcDbText
 10
3504.773135597017
 20
1427.383932023013
 30
0.0
 40
90.0
  1
600
 41
0.6666666666666666
  7
00
100
AcDbText
  0
ENDBLK
  5
1CA85
330
1CA82
100
AcDbEntity
  8
0
100
AcDbBlockEnd
  0
BLOCK
  5
1CA87
330
1CA86
100
AcDbEntity
  8
0
100
AcDbBlockBegin
  2
*U40
 70
     1
 10
0.0
 20
0.0
 30
0.0
  3
*U40
  1

  0
TEXT
  5
1CA88
330
1CA86
100
AcDbEntity
  8
SUNPOU
100
AcDbText
 10
6576.405305211823
 20
2148.841074880162
 30
0.0
 40
90.0
  1
564
 50
90.0
 41
0.6666666666666666
  7
00
100
AcDbText
  0
ENDBLK
  5
1CA89
330
1CA86
100
AcDbEntity
  8
0
100
AcDbBlockEnd
  0
BLOCK
  5
1CA8B
330
1CA8A
100
AcDbEntity
  8
0
100
AcDbBlockBegin
  2
*U41
 70
     1
 10
0.0
 20
0.0
 30
0.0
  3
*U41
  1

  0
TEXT
  5
1CA8C
330
1CA8A
100
AcDbEntity
  8
SUNPOU
100
AcDbText
 10
6786.405305211824
 20
1561.926789165875
 30
0.0
 40
90.0
  1
100
 50
90.0
 41
0.6666666666666666
  7
00
100
AcDbText
  0
ENDBLK
  5
1CA8D
330
1CA8A
100
AcDbEntity
  8
0
100
AcDbBlockEnd
  0
BLOCK
  5
1CA8F
330
1CA8E
100
AcDbEntity
  8
0
100
AcDbBlockBegin
  2
*U42
 70
     1
 10
0.0
 20
0.0
 30
0.0
  3
*U42
  1

  0
TEXT
  5
1CA90
330
1CA8E
100
AcDbEntity
  8
SUNPOU
100
AcDbText
 10
6786.405305211822
 20
2099.069646308733
 30
0.0
 40
90.0
  1
300
 50
90.0
 41
0.6666666666666666
  7
00
100
AcDbText
  0
ENDBLK
  5
1CA91
330
1CA8E
100
AcDbEntity
  8
0
100
AcDbBlockEnd
  0
BLOCK
  5
1CA93
330
1CA92
100
AcDbEntity
  8
0
100
AcDbBlockBegin
  2
*U43
 70
     1
 10
0.0
 20
0.0
 30
0.0
  3
*U43
  1

  0
TEXT
  5
1CA94
330
1CA92
100
AcDbEntity
  8
SUNPOU
100
AcDbText
 10
6786.405305211822
 20
2738.612503451591
 30
0.0
 40
90.0
  1
84
 50
90.0
 41
0.6666666666666666
  7
00
100
AcDbText
  0
ENDBLK
  5
1CA95
330
1CA92
100
AcDbEntity
  8
0
100
AcDbBlockEnd
  0
BLOCK
  5
1CA97
330
1CA96
100
AcDbEntity
  8
0
100
AcDbBlockBegin
  2
*U44
 70
     1
 10
0.0
 20
0.0
 30
0.0
  3
*U44
  1

  0
TEXT
  5
1CA98
330
1CA96
100
AcDbEntity
  8
SUNPOU
100
AcDbText
 10
6786.405305211824
 20
2431.641074880161
 30
0.0
 40
90.0
  1
80
 50
90.0
 41
0.6666666666666666
  7
00
100
AcDbText
  0
ENDBLK
  5
1CA99
330
1CA96
100
AcDbEntity
  8
0
100
AcDbBlockEnd
  0
BLOCK
  5
1CA9B
330
1CA9A
100
AcDbEntity
  8
0
100
AcDbBlockBegin
  2
*U45
 70
     1
 10
0.0
 20
0.0
 30
0.0
  3
*U45
  1

  0
TEXT
  5
1CA9C
330
1CA9A
100
AcDbEntity
  8
SUNPOU
100
AcDbText
 10
7632.187272641154
 20
1217.38393202302
 30
0.0
 40
90.0
  1
1000
 41
0.6666666666666666
  7
00
100
AcDbText
  0
ENDBLK
  5
1CA9D
330
1CA9A
100
AcDbEntity
  8
0
100
AcDbBlockEnd
  0
BLOCK
  5
1CA9F
330
1CA9E
100
AcDbEntity
  8
0
100
AcDbBlockBegin
  2
*U46
 70
     1
 10
0.0
 20
0.0
 30
0.0
  3
*U46
  1

  0
TEXT
  5
1CAA0
330
1CA9E
100
AcDbEntity
  8
SUNPOU
100
AcDbText
 10
7665.044415498297
 20
1427.383932023019
 30
0.0
 40
90.0
  1
800
 41
0.6666666666666666
  7
00
100
AcDbText
  0
ENDBLK
  5
1CAA1
330
1CA9E
100
AcDbEntity
  8
0
100
AcDbBlockEnd
  0
ENDSEC
  0
SECTION
  2
ENTITIES
  0
TEXT
  5
1CAA2
330
1C9B8
100
AcDbEntity
  8
NAME
100
AcDbText
 10
12153.32857318294
 20
1055.0
 30
0.0
 40
120.0
  1
Y O K C S
 41
0.6666666666666666
  7
00
100
AcDbText
  0
TEXT
  5
1CAA3
330
1C9B8
100
AcDbEntity
  8
NAME
100
AcDbText
 10
11077.73587134625
 20
1055.0
 30
0.0
 40
120.0
  1
ヨド自転車置場　　　    型
  7
01
100
AcDbText
  0
TEXT
  5
1CAA4
330
1C9B8
100
AcDbEntity
  8
NAME
100
AcDbText
 10
10824.07508082364
 20
875.0
 30
0.0
 40
120.0
  1
棟合せタイプ（アンカープレート方式）
  7
01
 72
     4
 11
12072.07508082364
 21
935.0
 31
0.0
100
AcDbText
  0
TEXT
  5
1CAA5
330
1C9B8
100
AcDbEntity
  8
NAME
100
AcDbText
 10
12854.79999999999
 20
541.0000000000001
 30
0.0
 40
160.0
  1
<3／3>
 41
0.6
  7
01
 72
     2
 11
13354.0
 21
541.0000000000001
 31
0.0
100
AcDbText
  0
TEXT
  5
1CAA6
330
1C9B8
100
AcDbEntity
  8
NAME
100
AcDbText
 10
10789.37598063762
 20
541.0
 30
0.0
 40
160.0
  1
YOKCS-280
 41
0.7
  7
01
 72
     2
 11
11776.04264730429
 21
541.0
 31
0.0
100
AcDbText
  0
TEXT
  5
1CAA7
330
1C9B8
100
AcDbEntity
  8
NAME
100
AcDbText
 10
11816.04264730429
 20
541.0
 30
0.0
 40
160.0
  1
型（積雪地用）
 41
0.8
  7
01
100
AcDbText
  0
LINE
  5
1CAA8
330
1C9B8
100
AcDbEntity
  8
1PL-S1
100
AcDbLine
 10
11629.58860891543
 20
2547.76425036702
 30
0.0
 11
12261.58860891543
 21
2547.76425036702
 31
0.0
  0
LINE
  5
1CAA9
330
1C9B8
100
AcDbEntity
  8
U1
100
AcDbLine
 10
11795.58860891545
 20
3489.95694289843
 30
0.0
 11
11795.58860891545
 21
3874.021482077699
 31
0.0
  0
LINE
  5
1CAAA
330
1C9B8
100
AcDbEntity
  8
U1
100
AcDbLine
 10
12095.58860891543
 20
3489.95694289843
 30
0.0
 11
12095.58860891543
 21
3874.021482077699
 31
0.0
  0
LINE
  5
1CAAB
330
1C9B8
100
AcDbEntity
  8
1PL-S1
100
AcDbLine
 10
11945.58860891544
 20
3425.956942898431
 30
0.0
 11
11945.58860891544
 21
3914.021482077697
 31
0.0
  0
CIRCLE
  5
1CAAC
330
1C9B8
100
AcDbEntity
  8
U1
100
AcDbCircle
 10
11945.58860891544
 20
3729.956942898431
 30
0.0
 40
24.0
  0
LINE
  5
1CAAD
330
1C9B8
100
AcDbEntity
  8
1PL-S1
100
AcDbLine
 10
11705.58860891544
 20
2471.764250367019
 30
0.0
 11
11705.58860891544
 21
2623.764250367019
 31
0.0
  0
LINE
  5
1CAAE
330
1C9B8
100
AcDbEntity
  8
1PL-S1
100
AcDbLine
 10
12185.58860891544
 20
2471.764250367019
 30
0.0
 11
12185.58860891544
 21
2623.764250367019
 31
0.0
  0
LINE
  5
1CAAF
330
1C9B8
100
AcDbEntity
  8
1PL-S1
100
AcDbLine
 10
11945.58860891544
 20
2347.76425036702
 30
0.0
 11
11945.58860891544
 21
2747.76425036702
 31
0.0
  0
CIRCLE
  5
1CAB0
330
1C9B8
100
AcDbEntity
  8
U1
100
AcDbCircle
 10
11705.58860891544
 20
2547.76425036702
 30
0.0
 40
36.0
  0
LINE
  5
1CAB1
330
1C9B8
100
AcDbEntity
  8
U1
100
AcDbLine
 10
12095.58860891543
 20
2547.76425036702
 30
0.0
 11
12016.56153015709
 21
2547.76425036702
 31
0.0
  0
CIRCLE
  5
1CAB2
330
1C9B8
100
AcDbEntity
  8
U1
100
AcDbCircle
 10
12185.58860891544
 20
2547.76425036702
 30
0.0
 40
36.0
  0
LINE
  5
1CAB3
330
1C9B8
100
AcDbEntity
  8
1PL-S1
100
AcDbLine
 10
11881.58860891543
 20
3569.956942898431
 30
0.0
 11
12009.58860891544
 21
3569.956942898431
 31
0.0
  0
LINE
  5
1CAB4
330
1C9B8
100
AcDbEntity
  8
1PL-S1
100
AcDbLine
 10
11705.58860891545
 20
3425.956942898431
 30
0.0
 11
11705.58860891544
 21
3529.956942898431
 31
0.0
  0
LINE
  5
1CAB5
330
1C9B8
100
AcDbEntity
  8
1PL-S1
100
AcDbLine
 10
12185.58860891544
 20
3425.956942898431
 30
0.0
 11
12185.58860891544
 21
3529.956942898431
 31
0.0
  0
CIRCLE
  5
1CAB6
330
1C9B8
100
AcDbEntity
  8
U1
100
AcDbCircle
 10
11945.58860891544
 20
3569.956942898431
 30
0.0
 40
24.0
  0
LINE
  5
1CAB7
330
1C9B8
100
AcDbEntity
  8
1PL-S1
100
AcDbLine
 10
11881.58860891543
 20
3729.956942898431
 30
0.0
 11
12009.58860891544
 21
3729.956942898431
 31
0.0
  0
TEXT
  5
1CAB8
330
1C9B8
100
AcDbEntity
  8
SUNPOU
100
AcDbText
 10
11154.30164503282
 20
1522.206168148942
 30
0.0
 40
120.0
  1
柱脚金具詳細図
  7
01
 72
     4
 11
11638.30164503282
 21
1582.206168148942
 31
0.0
100
AcDbText
  0
TEXT
  5
1CAB9
330
1C9B8
100
AcDbEntity
  8
SUNPOU
100
AcDbText
 10
12550.41047420127
 20
1519.744629687403
 30
0.0
 40
73.84615384615384
  1
/
 41
0.6700000000000001
  7
00
 11
12550.41047420127
 21
1509.89847584125
 31
0.0
100
AcDbText
 73
     1
  0
TEXT
  5
1CABA
330
1C9B8
100
AcDbEntity
  8
SUNPOU
100
AcDbText
 10
12614.35991715563
 20
1501.283091225865
 30
0.0
 40
73.84615384615384
  1
10
 41
0.6700000000000001
  7
00
 11
12614.35991715563
 21
1491.436937379711
 31
0.0
100
AcDbText
 73
     1
  0
TEXT
  5
1CABB
330
1C9B8
100
AcDbEntity
  8
SUNPOU
100
AcDbText
 10
12502.00434688589
 20
1538.206168148943
 30
0.0
 40
73.84615384615384
  1
1
 41
0.6700000000000001
  7
00
 11
12502.00434688589
 21
1528.360014302789
 31
0.0
100
AcDbText
 73
     1
  0
TEXT
  5
1CABC
330
1C9B8
100
AcDbEntity
  8
SUNPOU
100
AcDbText
 10
12182.30164503282
 20
1522.206168148942
 30
0.0
 40
92.30769230769228
  1
（ S = 　　  ）
 41
0.6700000000000001
  7
00
 11
12182.30164503282
 21
1509.89847584125
 31
0.0
100
AcDbText
 73
     1
  0
LINE
  5
1CABD
330
1C9B8
100
AcDbEntity
  8
HIKIDASHI
100
AcDbLine
 10
12477.48386709142
 20
2915.281506478704
 30
0.0
 11
13061.52466265539
 21
2915.281506478704
 31
0.0
  0
TEXT
  5
1CABE
330
1C9B8
100
AcDbEntity
  8
HIKIDASHI
100
AcDbText
 10
12496.77386488815
 20
2960.281506478704
 30
0.0
 40
90.0
  1
プレ－ト
  7
01
 72
     2
 11
12886.77386488815
 21
2960.281506478704
 31
0.0
100
AcDbText
  0
TEXT
  5
1CABF
330
1C9B8
100
AcDbEntity
  8
HIKIDASHI
100
AcDbText
 10
12925.22904557056
 20
2960.281506478704
 30
0.0
 40
90.0
  1
6
 41
0.6666666666666666
  7
00
 72
     2
 11
12973.80047414199
 21
2960.281506478704
 31
0.0
100
AcDbText
  0
TEXT
  5
1CAC0
330
1C9B8
100
AcDbEntity
  8
HIKIDASHI
100
AcDbText
 10
13011.22669604257
 20
2974.26725491467
 30
0.0
 40
89.99999909999997
  1
t
 41
0.6700000000000001
  7
00
100
AcDbText
  0
LINE
  5
1CADE
330
1C9B8
100
AcDbEntity
  8
CENTER
  6
1PL-M
100
AcDbLine
 10
8834.21703198606
 20
8245.715360473253
 30
0.0
 11
8834.21703198606
 21
9695.715360473252
 31
0.0
  0
LINE
  5
1CADF
330
1C9B8
100
AcDbEntity
  8
CENTER
  6
1PL-M
100
AcDbLine
 10
9454.217031986059
 20
7495.715360473251
 30
0.0
 11
12479.21703198606
 21
7495.715360473251
 31
0.0
  0
LINE
  5
1CAE0
330
1C9B8
100
AcDbEntity
  8
CENTER
  6
1PL-M
100
AcDbLine
 10
8244.217031986062
 20
7495.715360473251
 30
0.0
 11
9189.217031986059
 21
7495.715360473251
 31
0.0
  0
LINE
  5
1CAE1
330
1C9B8
100
AcDbEntity
  8
CENTER
  6
1PL-M
100
AcDbLine
 10
4264.217031986058
 20
7495.715360473251
 30
0.0
 11
8124.217031986061
 21
7495.715360473251
 31
0.0
  0
LINE
  5
1CAE2
330
1C9B8
100
AcDbEntity
  8
CENTER
  6
1PL-M
100
AcDbLine
 10
8244.217031986062
 20
5695.715360473253
 30
0.0
 11
9274.217031986065
 21
5695.715360473253
 31
0.0
  0
LINE
  5
1CAE3
330
1C9B8
100
AcDbEntity
  8
CENTER
  6
1PL-M
100
AcDbLine
 10
8244.217031986062
 20
9295.715360473252
 30
0.0
 11
12479.21703198606
 21
9295.715360473252
 31
0.0
  0
TEXT
  5
1CAE4
330
1C9B8
100
AcDbEntity
  8
SUNPOU
100
AcDbText
 10
10881.34907160025
 20
4902.649361983672
 30
0.0
 40
90.0
  1
（  ：スパン数）
  7
01
 11
10881.34907160025
 21
4947.649361983672
 31
0.0
100
AcDbText
 73
     2
  0
TEXT
  5
1CAE5
330
1C9B8
100
AcDbEntity
  8
SUNPOU
100
AcDbText
 10
11011.81028265175
 20
4902.649361983672
 30
0.0
 40
90.0
  1
N
 41
0.6666666666666666
  7
00
 72
     4
 11
11043.23885408032
 21
4947.649361983672
 31
0.0
100
AcDbText
  0
LINE
  5
1CAE6
330
1C9B8
100
AcDbEntity
  8
CENTER
  6
1PL-M
100
AcDbLine
 10
4264.217031986058
 20
5695.715360473253
 30
0.0
 11
8124.217031986061
 21
5695.715360473253
 31
0.0
  0
LINE
  5
1CAE7
330
1C9B8
100
AcDbEntity
  8
CENTER
  6
1PL-M
100
AcDbLine
 10
6982.96703198606
 20
9295.715360473252
 30
0.0
 11
8124.217031986061
 21
9295.715360473252
 31
0.0
  0
LINE
  5
1CAE8
330
1C9B8
100
AcDbEntity
  8
SUNPOU
100
AcDbLine
 10
8124.217031986061
 20
9685.715360473253
 30
0.0
 11
8124.217031986061
 21
5275.715360473252
 31
0.0
  0
LINE
  5
1CAE9
330
1C9B8
100
AcDbEntity
  8
CENTER
  6
1PL-M
100
AcDbLine
 10
4734.21703198606
 20
5295.715360473253
 30
0.0
 11
4734.21703198606
 21
9695.715360473252
 31
0.0
  0
LINE
  5
1CAEA
330
1C9B8
100
AcDbEntity
  8
CENTER
  6
1PL-M
100
AcDbLine
 10
7534.217031986059
 20
8845.715360473255
 30
0.0
 11
7534.217031986059
 21
9695.715360473252
 31
0.0
  0
LINE
  5
1CAEB
330
1C9B8
100
AcDbEntity
  8
CENTER
  6
1PL-M
100
AcDbLine
 10
7534.217031986059
 20
5295.715360473253
 30
0.0
 11
7534.217031986059
 21
8650.715360473251
 31
0.0
  0
LINE
  5
1CAEC
330
1C9B8
100
AcDbEntity
  8
CENTER
  6
1PL-M
100
AcDbLine
 10
4264.217031986058
 20
9295.715360473252
 30
0.0
 11
6784.217031986064
 21
9295.715360473252
 31
0.0
  0
LINE
  5
1CAED
330
1C9B8
100
AcDbEntity
  8
CENTER
  6
1PL-M
100
AcDbLine
 10
9469.217031986065
 20
5695.715360473253
 30
0.0
 11
12479.21703198606
 21
5695.715360473253
 31
0.0
  0
LINE
  5
1CAEE
330
1C9B8
100
AcDbEntity
  8
SUNPOU
100
AcDbLine
 10
8244.217031986062
 20
9685.715360473253
 30
0.0
 11
8244.217031986062
 21
5275.715360473252
 31
0.0
  0
LINE
  5
1CAEF
330
1C9B8
100
AcDbEntity
  8
CENTER
  6
1PL-M
100
AcDbLine
 10
11634.21703198606
 20
5295.715360473253
 30
0.0
 11
11634.21703198606
 21
9695.715360473252
 31
0.0
  0
LINE
  5
1CAF0
330
1C9B8
100
AcDbEntity
  8
CENTER
  6
1PL-M
100
AcDbLine
 10
8834.21703198606
 20
5295.715360473253
 30
0.0
 11
8834.21703198606
 21
6200.715360473253
 31
0.0
  0
LINE
  5
1CAF1
330
1C9B8
100
AcDbEntity
  8
CENTER
  6
1PL-M
100
AcDbLine
 10
8834.21703198606
 20
6395.715360473253
 30
0.0
 11
8834.21703198606
 21
8020.715360473252
 31
0.0
  0
TEXT
  5
1CAF2
330
1C9B8
100
AcDbEntity
  8
HIKIDASHI
100
AcDbText
 10
5574.264373012014
 20
9691.715360473253
 30
0.0
 40
90.0
  1
（屋根前面位置）
  7
01
100
AcDbText
  0
TEXT
  5
1CAF3
330
1C9B8
100
AcDbEntity
  8
HIKIDASHI
100
AcDbText
 10
5490.155771095993
 20
9455.715360473243
 30
0.0
 40
90.0
  1
（土間コン後面位置）
  7
01
100
AcDbText
  0
SOLID
  5
1CAF4
330
1C9B8
100
AcDbEntity
  8
SUNPOU
100
AcDbTrace
 10
4099.471366614859
 20
5905.715360473253
 30
0.0
 11
4129.47136661486
 21
5905.715360473253
 31
0.0
 12
4114.47136661486
 22
5995.715360473253
 32
0.0
 13
4114.47136661486
 23
5995.715360473253
 33
0.0
  0
TEXT
  5
1CAF5
330
1C9B8
100
AcDbEntity
  8
SUNPOU
100
AcDbText
 10
4088.628509471999
 20
6040.715360473253
 30
0.0
 40
90.0
  1
A
 41
0.6700000000000001
  7
00
 72
     4
 11
4114.471366614856
 21
6085.715360473253
 31
0.0
100
AcDbText
  0
LINE
  5
1CAF6
330
1C9B8
100
AcDbEntity
  8
SUNPOU
100
AcDbLine
 10
4114.47136661486
 20
5905.715360473253
 30
0.0
 11
4114.47136661486
 21
5695.715360473253
 31
0.0
  0
LINE
  5
1CAF7
330
1C9B8
100
AcDbEntity
  8
SUNPOU
100
AcDbLine
 10
4114.47136661486
 20
5695.715360473253
 30
0.0
 11
4264.47136661486
 21
5695.715360473253
 31
0.0
  0
LINE
  5
1CAF8
330
1C9B8
100
AcDbEntity
  8
SUNPOU
100
AcDbLine
 10
5219.630294679762
 20
5695.715360473253
 30
0.0
 11
5069.630294679758
 21
5695.715360473253
 31
0.0
  0
LINE
  5
1CAF9
330
1C9B8
100
AcDbEntity
  8
SUNPOU
100
AcDbLine
 10
5219.630294679762
 20
5905.715360473253
 30
0.0
 11
5219.630294679762
 21
5695.715360473253
 31
0.0
  0
TEXT
  5
1CAFA
330
1C9B8
100
AcDbEntity
  8
SUNPOU
100
AcDbText
 10
5183.737437536905
 20
6032.143931901824
 30
0.0
 40
90.0
  1
A'
 41
0.6700000000000001
  7
00
 72
     4
 11
5219.630294679762
 21
6085.715360473253
 31
0.0
100
AcDbText
  0
SOLID
  5
1CAFB
330
1C9B8
100
AcDbEntity
  8
SUNPOU
100
AcDbTrace
 10
5234.630294679762
 20
5905.715360473253
 30
0.0
 11
5204.630294679763
 21
5905.715360473253
 31
0.0
 12
5219.630294679762
 22
5995.715360473253
 32
0.0
 13
5219.630294679762
 23
5995.715360473253
 33
0.0
  0
TEXT
  5
1CAFC
330
1C9B8
100
AcDbEntity
  8
HIKIDASHI
100
AcDbText
 10
5574.264373012014
 20
5209.715360473254
 30
0.0
 40
90.0
  1
（屋根前面位置）
  7
01
100
AcDbText
  0
TEXT
  5
1CAFD
330
1C9B8
100
AcDbEntity
  8
HIKIDASHI
100
AcDbText
 10
5490.155771095993
 20
5445.71536047326
 30
0.0
 40
90.0
  1
（土間コン前面位置）
  7
01
100
AcDbText
  0
TEXT
  5
1CAFE
330
1C9B8
100
AcDbEntity
  8
HIKIDASHI
100
AcDbText
 10
8772.515803529449
 20
4879.531802304223
 30
0.0
 40
80.0
  1
)
 41
0.6700000000000001
  7
00
100
AcDbText
  0
TEXT
  5
1CAFF
330
1C9B8
100
AcDbEntity
  8
HIKIDASHI
100
AcDbText
 10
8571.657054840066
 20
4895.09328005242
 30
0.0
 40
80.0
  1
1
 41
0.6700000000000001
  7
00
100
AcDbText
  0
TEXT
  5
1CB00
330
1C9B8
100
AcDbEntity
  8
HIKIDASHI
100
AcDbText
 10
8604.794192704373
 20
4879.531802304223
 30
0.0
 40
80.0
  1
/
 41
0.6700000000000001
  7
00
100
AcDbText
  0
TEXT
  5
1CB01
330
1C9B8
100
AcDbEntity
  8
HIKIDASHI
100
AcDbText
 10
8651.089347467019
 20
4853.363971103946
 30
0.0
 40
80.0
  1
40
 41
0.6700000000000001
  7
00
100
AcDbText
  0
TEXT
  5
1CB02
330
1C9B8
100
AcDbEntity
  8
HIKIDASHI
100
AcDbText
 10
8390.949138902394
 20
4879.531802304223
 30
0.0
 40
80.0
  1
(S=
 41
0.6700000000000001
  7
00
100
AcDbText
  0
TEXT
  5
1CB03
330
1C9B8
100
AcDbEntity
  8
HIKIDASHI
100
AcDbText
 10
7548.949138902393
 20
4855.715360473254
 30
0.0
 40
120.0
  1
基 礎 伏 図
  7
01
 72
     2
 11
8300.949138902394
 21
4855.715360473254
 31
0.0
100
AcDbText
  0
CIRCLE
  5
1CB04
330
1C9B8
100
AcDbEntity
  8
HASHIRA
100
AcDbCircle
 10
4734.21703198606
 20
5755.715360473253
 30
0.0
 40
9.0
  0
CIRCLE
  5
1CB05
330
1C9B8
100
AcDbEntity
  8
HASHIRA
100
AcDbCircle
 10
4734.21703198606
 20
5635.715360473253
 30
0.0
 40
9.0
  0
CIRCLE
  5
1CB06
330
1C9B8
100
AcDbEntity
  8
HASHIRA
100
AcDbCircle
 10
4734.21703198606
 20
7555.715360473254
 30
0.0
 40
9.0
  0
CIRCLE
  5
1CB07
330
1C9B8
100
AcDbEntity
  8
HASHIRA
100
AcDbCircle
 10
4734.21703198606
 20
7435.715360473253
 30
0.0
 40
9.0
  0
CIRCLE
  5
1CB08
330
1C9B8
100
AcDbEntity
  8
HASHIRA
100
AcDbCircle
 10
4734.21703198606
 20
9355.715360473253
 30
0.0
 40
9.0
  0
CIRCLE
  5
1CB09
330
1C9B8
100
AcDbEntity
  8
HASHIRA
100
AcDbCircle
 10
4734.21703198606
 20
9235.715360473252
 30
0.0
 40
9.0
  0
CIRCLE
  5
1CB0A
330
1C9B8
100
AcDbEntity
  8
HASHIRA
100
AcDbCircle
 10
7534.217031986059
 20
5755.715360473253
 30
0.0
 40
9.0
  0
CIRCLE
  5
1CB0B
330
1C9B8
100
AcDbEntity
  8
HASHIRA
100
AcDbCircle
 10
7534.217031986059
 20
5635.715360473253
 30
0.0
 40
9.0
  0
CIRCLE
  5
1CB0C
330
1C9B8
100
AcDbEntity
  8
HASHIRA
100
AcDbCircle
 10
7534.217031986059
 20
7555.715360473254
 30
0.0
 40
9.0
  0
CIRCLE
  5
1CB0D
330
1C9B8
100
AcDbEntity
  8
HASHIRA
100
AcDbCircle
 10
7534.217031986059
 20
7435.715360473253
 30
0.0
 40
9.0
  0
CIRCLE
  5
1CB0E
330
1C9B8
100
AcDbEntity
  8
HASHIRA
100
AcDbCircle
 10
7534.217031986059
 20
9355.715360473253
 30
0.0
 40
9.0
  0
CIRCLE
  5
1CB0F
330
1C9B8
100
AcDbEntity
  8
HASHIRA
100
AcDbCircle
 10
7534.217031986059
 20
9235.715360473252
 30
0.0
 40
9.0
  0
CIRCLE
  5
1CB10
330
1C9B8
100
AcDbEntity
  8
HASHIRA
100
AcDbCircle
 10
8834.21703198606
 20
5755.715360473253
 30
0.0
 40
9.0
  0
CIRCLE
  5
1CB11
330
1C9B8
100
AcDbEntity
  8
HASHIRA
100
AcDbCircle
 10
8834.21703198606
 20
5635.715360473253
 30
0.0
 40
9.0
  0
CIRCLE
  5
1CB12
330
1C9B8
100
AcDbEntity
  8
HASHIRA
100
AcDbCircle
 10
8834.21703198606
 20
7555.715360473254
 30
0.0
 40
9.0
  0
CIRCLE
  5
1CB13
330
1C9B8
100
AcDbEntity
  8
HASHIRA
100
AcDbCircle
 10
8834.21703198606
 20
7435.715360473253
 30
0.0
 40
9.0
  0
CIRCLE
  5
1CB14
330
1C9B8
100
AcDbEntity
  8
HASHIRA
100
AcDbCircle
 10
8834.21703198606
 20
9355.715360473253
 30
0.0
 40
9.0
  0
CIRCLE
  5
1CB15
330
1C9B8
100
AcDbEntity
  8
HASHIRA
100
AcDbCircle
 10
8834.21703198606
 20
9235.715360473252
 30
0.0
 40
9.0
  0
CIRCLE
  5
1CB16
330
1C9B8
100
AcDbEntity
  8
HASHIRA
100
AcDbCircle
 10
11634.21703198606
 20
5755.715360473253
 30
0.0
 40
9.0
  0
CIRCLE
  5
1CB17
330
1C9B8
100
AcDbEntity
  8
HASHIRA
100
AcDbCircle
 10
11634.21703198606
 20
5635.715360473253
 30
0.0
 40
9.0
  0
CIRCLE
  5
1CB18
330
1C9B8
100
AcDbEntity
  8
HASHIRA
100
AcDbCircle
 10
11634.21703198606
 20
7555.715360473254
 30
0.0
 40
9.0
  0
CIRCLE
  5
1CB19
330
1C9B8
100
AcDbEntity
  8
HASHIRA
100
AcDbCircle
 10
11634.21703198606
 20
7435.715360473253
 30
0.0
 40
9.0
  0
CIRCLE
  5
1CB1A
330
1C9B8
100
AcDbEntity
  8
HASHIRA
100
AcDbCircle
 10
11634.21703198606
 20
9355.715360473253
 30
0.0
 40
9.0
  0
CIRCLE
  5
1CB1B
330
1C9B8
100
AcDbEntity
  8
HASHIRA
100
AcDbCircle
 10
11634.21703198606
 20
9235.715360473252
 30
0.0
 40
9.0
  0
TEXT
  5
1CB1C
330
1C9B8
100
AcDbEntity
  8
SUNPOU
100
AcDbText
 10
5092.19781972598
 20
8040.715360473251
 30
0.0
 40
90.0
  1
B
 41
0.6700000000000001
  7
00
 72
     4
 11
5123.783534011693
 21
8085.715360473251
 31
0.0
100
AcDbText
  0
LINE
  5
1CB1D
330
1C9B8
100
AcDbEntity
  8
SUNPOU
100
AcDbLine
 10
4734.21703198606
 20
8085.715360473251
 30
0.0
 11
4734.21703198606
 21
7935.715360473252
 31
0.0
  0
LINE
  5
1CB1E
330
1C9B8
100
AcDbEntity
  8
SUNPOU
100
AcDbLine
 10
4944.21703198606
 20
8085.715360473251
 30
0.0
 11
4734.21703198606
 21
8085.715360473251
 31
0.0
  0
SOLID
  5
1CB1F
330
1C9B8
100
AcDbEntity
  8
SUNPOU
100
AcDbTrace
 10
4944.21703198606
 20
8100.71536047325
 30
0.0
 11
4944.21703198606
 21
8070.715360473251
 31
0.0
 12
5034.217031986058
 22
8085.715360473251
 32
0.0
 13
5034.217031986058
 23
8085.715360473251
 33
0.0
  0
TEXT
  5
1CB20
330
1C9B8
100
AcDbEntity
  8
SUNPOU
100
AcDbText
 10
5079.27639115455
 20
6852.143931901823
 30
0.0
 40
90.0
  1
B'
 41
0.6700000000000001
  7
00
 72
     4
 11
5123.783534011693
 21
6905.715360473251
 31
0.0
100
AcDbText
  0
LINE
  5
1CB21
330
1C9B8
100
AcDbEntity
  8
SUNPOU
100
AcDbLine
 10
4734.21703198606
 20
6905.715360473251
 30
0.0
 11
4734.21703198606
 21
7055.715360473252
 31
0.0
  0
LINE
  5
1CB22
330
1C9B8
100
AcDbEntity
  8
SUNPOU
100
AcDbLine
 10
4944.21703198606
 20
6905.715360473251
 30
0.0
 11
4734.21703198606
 21
6905.715360473251
 31
0.0
  0
SOLID
  5
1CB23
330
1C9B8
100
AcDbEntity
  8
SUNPOU
100
AcDbTrace
 10
4944.21703198606
 20
6890.715360473253
 30
0.0
 11
4944.21703198606
 21
6920.715360473252
 31
0.0
 12
5034.217031986058
 22
6905.715360473251
 32
0.0
 13
5034.217031986058
 23
6905.715360473251
 33
0.0
  0
LINE
  5
1CB24
330
1C9B8
100
AcDbEntity
  8
1PL-M1
100
AcDbLine
 10
3591.915992739874
 20
1661.8712184822
 30
0.0
 11
3591.915992739874
 21
3409.184504159606
 31
0.0
  0
LINE
  5
1CB25
330
1C9B8
100
AcDbEntity
  8
KISO
100
AcDbLine
 10
4874.312715479185
 20
2687.183932023017
 30
0.0
 11
3643.915992739866
 21
2687.183932023017
 31
0.0
  0
LINE
  5
1CB26
330
1C9B8
100
AcDbEntity
  8
KISO
100
AcDbLine
 10
4874.312715479187
 20
2552.78393202302
 30
0.0
 11
3111.915992739875
 21
2552.783932023016
 31
0.0
  0
LINE
  5
1CB27
330
1C9B8
100
AcDbEntity
  8
HATCH
100
AcDbLine
 10
3820.074452931295
 20
2687.183932023017
 30
0.0
 11
3685.674452931305
 21
2552.783932023021
 31
0.0
  0
LINE
  5
1CB28
330
1C9B8
100
AcDbEntity
  8
U3
100
AcDbLine
 10
2146.080599495376
 20
2607.183932023017
 30
0.0
 11
2314.080599495376
 21
2439.183932023021
 31
0.0
  0
LINE
  5
1CB29
330
1C9B8
100
AcDbEntity
  8
U3
100
AcDbLine
 10
2095.168911249944
 20
2556.272243777586
 30
0.0
 11
2212.257223004511
 21
2439.183932023017
 31
0.0
  0
LINE
  5
1CB2A
330
1C9B8
100
AcDbEntity
  8
U3
100
AcDbLine
 10
2381.939037005733
 20
2607.183932023017
 30
0.0
 11
1810.080599495376
 21
2607.183932023017
 31
0.0
  0
LINE
  5
1CB2B
330
1C9B8
100
AcDbEntity
  8
U3
100
AcDbLine
 10
1876.25722300451
 20
2541.00730851388
 30
0.0
 11
1942.433846513645
 21
2607.183932023015
 31
0.0
  0
LINE
  5
1CB2C
330
1C9B8
100
AcDbEntity
  8
U3
100
AcDbLine
 10
1810.080599495376
 20
2607.183932023015
 30
0.0
 11
1978.080599495376
 21
2439.183932023019
 31
0.0
  0
LINE
  5
1CB2D
330
1C9B8
100
AcDbEntity
  8
U3
100
AcDbLine
 10
1927.168911249944
 20
2490.09562026845
 30
0.0
 11
2044.25722300451
 21
2607.183932023015
 31
0.0
  0
LINE
  5
1CB2E
330
1C9B8
100
AcDbEntity
  8
U3
100
AcDbLine
 10
1978.080599495376
 20
2439.183932023019
 30
0.0
 11
2146.080599495376
 21
2607.183932023017
 31
0.0
  0
LINE
  5
1CB2F
330
1C9B8
100
AcDbEntity
  8
U3
100
AcDbLine
 10
2044.25722300451
 20
2505.360555532154
 30
0.0
 11
2110.433846513648
 21
2439.183932023017
 31
0.0
  0
LINE
  5
1CB30
330
1C9B8
100
AcDbEntity
  8
U3
100
AcDbLine
 10
2314.080599495376
 20
2439.183932023021
 30
0.0
 11
2381.939037005733
 21
2507.042369533377
 31
0.0
  0
LINE
  5
1CB31
330
1C9B8
100
AcDbEntity
  8
U3
100
AcDbLine
 10
2212.257223004511
 20
2541.007308513882
 30
0.0
 11
2278.433846513645
 21
2607.183932023017
 31
0.0
  0
LINE
  5
1CB32
330
1C9B8
100
AcDbEntity
  8
U3
100
AcDbLine
 10
2263.168911249942
 20
2490.095620268451
 30
0.0
 11
2380.257223004513
 21
2607.183932023017
 31
0.0
  0
LINE
  5
1CB33
330
1C9B8
100
AcDbEntity
  8
HASHIRA
100
AcDbLine
 10
3643.915992739866
 20
2562.383932023022
 30
0.0
 11
3643.915992739866
 21
2952.617137223765
 31
0.0
  0
LINE
  5
1CB34
330
1C9B8
100
AcDbEntity
  8
HASHIRA
100
AcDbLine
 10
3539.915992739867
 20
2952.617137223765
 30
0.0
 11
3539.915992739867
 21
2562.383932023022
 31
0.0
  0
LINE
  5
1CB35
330
1C9B8
100
AcDbEntity
  8
U3
100
AcDbLine
 10
2951.915992739875
 20
2607.183932023017
 30
0.0
 11
2701.939037005733
 21
2607.183932023017
 31
0.0
  0
LINE
  5
1CB36
330
1C9B8
100
AcDbEntity
  8
U3
100
AcDbLine
 10
2767.884284372259
 20
2562.201462532761
 30
0.0
 11
2890.901814882006
 21
2439.183932023017
 31
0.0
  0
LINE
  5
1CB37
330
1C9B8
100
AcDbEntity
  8
KISO
100
AcDbLine
 10
3539.915992739867
 20
2687.183932023017
 30
0.0
 11
2951.915992739875
 21
2687.183932023017
 31
0.0
  0
LINE
  5
1CB38
330
1C9B8
100
AcDbEntity
  8
HATCH
100
AcDbLine
 10
3623.433568435618
 20
2552.783932023024
 30
0.0
 11
3602.315992739876
 21
2531.666356327281
 31
0.0
  0
LINE
  5
1CB39
330
1C9B8
100
AcDbEntity
  8
KISO
100
AcDbLine
 10
4071.915992739881
 20
2424.783932023017
 30
0.0
 11
4874.312715479187
 21
2424.783932023019
 31
0.0
  0
LINE
  5
1CB3A
330
1C9B8
100
AcDbEntity
  8
HATCH
100
AcDbLine
 10
4827.592028627032
 20
2687.183932023017
 30
0.0
 11
4693.192028627045
 21
2552.78393202302
 31
0.0
  0
LINE
  5
1CB3B
330
1C9B8
100
AcDbEntity
  8
HATCH
100
AcDbLine
 10
4875.109604322773
 20
2687.183932023017
 30
0.0
 11
4740.709604322776
 21
2552.78393202302
 31
0.0
  0
LINE
  5
1CB3C
330
1C9B8
100
AcDbEntity
  8
HATCH
100
AcDbLine
 10
4300.074452931294
 20
2687.183932023017
 30
0.0
 11
4165.674452931301
 21
2552.783932023021
 31
0.0
  0
LINE
  5
1CB3D
330
1C9B8
100
AcDbEntity
  8
HATCH
100
AcDbLine
 10
4347.592028627032
 20
2687.183932023017
 30
0.0
 11
4213.192028627045
 21
2552.78393202302
 31
0.0
  0
LINE
  5
1CB3E
330
1C9B8
100
AcDbEntity
  8
HATCH
100
AcDbLine
 10
3915.109604322772
 20
2687.183932023017
 30
0.0
 11
3780.709604322776
 21
2552.78393202302
 31
0.0
  0
LINE
  5
1CB3F
330
1C9B8
100
AcDbEntity
  8
HATCH
100
AcDbLine
 10
3867.592028627031
 20
2687.183932023017
 30
0.0
 11
3733.192028627045
 21
2552.78393202302
 31
0.0
  0
LINE
  5
1CB40
330
1C9B8
100
AcDbEntity
  8
HATCH
100
AcDbLine
 10
4395.109604322771
 20
2687.183932023017
 30
0.0
 11
4260.709604322777
 21
2552.78393202302
 31
0.0
  0
LINE
  5
1CB41
330
1C9B8
100
AcDbEntity
  8
HATCH
100
AcDbLine
 10
4780.074452931294
 20
2687.183932023017
 30
0.0
 11
4645.674452931301
 21
2552.783932023021
 31
0.0
  0
LINE
  5
1CB42
330
1C9B8
100
AcDbEntity
  8
KISO
100
AcDbLine
 10
3111.915992739875
 20
2552.783932023016
 30
0.0
 11
3111.915992739875
 21
1944.783932023019
 31
0.0
  0
LINE
  5
1CB43
330
1C9B8
100
AcDbEntity
  8
KISO
100
AcDbLine
 10
4071.915992739874
 20
2552.783932023016
 30
0.0
 11
4071.915992739874
 21
1944.783932023019
 31
0.0
  0
LINE
  5
1CB44
330
1C9B8
100
AcDbEntity
  8
HATCH
100
AcDbLine
 10
4071.915992739874
 20
2137.266356327276
 30
0.0
 11
3879.433568435618
 21
1944.783932023019
 31
0.0
  0
LINE
  5
1CB45
330
1C9B8
100
AcDbEntity
  8
HATCH
100
AcDbLine
 10
4071.915992739874
 20
2521.748780631543
 30
0.0
 11
3494.951144131358
 21
1944.783932023019
 31
0.0
  0
LINE
  5
1CB46
330
1C9B8
100
AcDbEntity
  8
HATCH
100
AcDbLine
 10
4055.433568435613
 20
2552.783932023016
 30
0.0
 11
3602.315992739876
 21
2099.666356327273
 31
0.0
  0
LINE
  5
1CB47
330
1C9B8
100
AcDbEntity
  8
HATCH
100
AcDbLine
 10
4007.915992739873
 20
2552.783932023016
 30
0.0
 11
3602.315992739876
 21
2147.183932023012
 31
0.0
  0
LINE
  5
1CB48
330
1C9B8
100
AcDbEntity
  8
HATCH
100
AcDbLine
 10
4071.915992739874
 20
2089.748780631539
 30
0.0
 11
3926.951144131358
 21
1944.783932023019
 31
0.0
  0
LINE
  5
1CB49
330
1C9B8
100
AcDbEntity
  8
HATCH
100
AcDbLine
 10
4071.915992739874
 20
2042.231204935805
 30
0.0
 11
3974.468719827089
 21
1944.783932023019
 31
0.0
  0
LINE
  5
1CB4A
330
1C9B8
100
AcDbEntity
  8
HATCH
100
AcDbLine
 10
3575.915992739894
 20
2552.783932023024
 30
0.0
 11
3111.915992739875
 21
2088.783932023008
 31
0.0
  0
LINE
  5
1CB4B
330
1C9B8
100
AcDbEntity
  8
HATCH
100
AcDbLine
 10
3528.398417044143
 20
2552.783932023018
 30
0.0
 11
3111.915992739875
 21
2136.301507718747
 31
0.0
  0
LINE
  5
1CB4C
330
1C9B8
100
AcDbEntity
  8
HATCH
100
AcDbLine
 10
3581.515992739874
 20
2510.866356327278
 30
0.0
 11
3111.915992739875
 21
2041.266356327276
 31
0.0
  0
LINE
  5
1CB4D
330
1C9B8
100
AcDbEntity
  8
HATCH
100
AcDbLine
 10
3143.915992739881
 20
2552.783932023016
 30
0.0
 11
3111.915992739875
 21
2520.783932023011
 31
0.0
  0
LINE
  5
1CB4E
330
1C9B8
100
AcDbEntity
  8
HATCH
100
AcDbLine
 10
3581.515992739874
 20
2126.38393202301
 30
0.0
 11
3558.315992739891
 21
2103.183932023023
 31
0.0
  0
LINE
  5
1CB4F
330
1C9B8
100
AcDbEntity
  8
HATCH
100
AcDbLine
 10
3537.515992739892
 20
2082.383932023024
 30
0.0
 11
3399.915992739885
 21
1944.783932023019
 31
0.0
  0
LINE
  5
1CB50
330
1C9B8
100
AcDbEntity
  8
U3
100
AcDbLine
 10
2716.972596126825
 20
2511.289774287332
 30
0.0
 11
2789.078438391143
 21
2439.183932023016
 31
0.0
  0
LINE
  5
1CB51
330
1C9B8
100
AcDbEntity
  8
U3
100
AcDbLine
 10
2701.939037005733
 20
2496.256215166237
 30
0.0
 11
2812.866753862511
 21
2607.183932023015
 31
0.0
  0
LINE
  5
1CB52
330
1C9B8
100
AcDbEntity
  8
HATCH
100
AcDbLine
 10
3585.033568435632
 20
2082.383932023024
 30
0.0
 11
3447.433568435626
 21
1944.783932023019
 31
0.0
  0
LINE
  5
1CB53
330
1C9B8
100
AcDbEntity
  8
HATCH
100
AcDbLine
 10
3435.109604322772
 20
2687.183932023017
 30
0.0
 11
3300.709604322777
 21
2552.78393202302
 31
0.0
  0
LINE
  5
1CB54
330
1C9B8
100
AcDbEntity
  8
HATCH
100
AcDbLine
 10
3387.592028627032
 20
2687.183932023017
 30
0.0
 11
3253.192028627044
 21
2552.78393202302
 31
0.0
  0
LINE
  5
1CB55
330
1C9B8
100
AcDbEntity
  8
HATCH
100
AcDbLine
 10
3340.074452931296
 20
2687.183932023017
 30
0.0
 11
3205.674452931307
 21
2552.783932023021
 31
0.0
  0
LINE
  5
1CB56
330
1C9B8
100
AcDbEntity
  8
SUNPOU
100
AcDbLine
 10
3591.915992739874
 20
3364.184504159605
 30
0.0
 11
5017.146499990126
 21
3364.184504159605
 31
0.0
  0
TEXT
  5
1CB57
330
1C9B8
100
AcDbEntity
  8
SUNPOU
100
AcDbText
 10
4377.743691880338
 20
3409.184504159606
 30
0.0
 40
90.0
  1
2800
 41
0.6666666666666666
  7
00
 72
     4
 11
4492.029406166053
 21
3454.184504159605
 31
0.0
100
AcDbText
  0
LINE
  5
1CB58
330
1C9B8
100
AcDbEntity
  8
HATCH
100
AcDbLine
 10
3646.512454632716
 20
1784.783932023017
 30
0.0
 11
3738.888497299381
 21
1944.783932023019
 31
0.0
  0
LINE
  5
1CB59
330
1C9B8
100
AcDbEntity
  8
HATCH
100
AcDbLine
 10
3685.555163966046
 20
1944.783932023019
 30
0.0
 11
3712.221830632715
 21
1898.595909356354
 31
0.0
  0
LINE
  5
1CB5A
330
1C9B8
100
AcDbEntity
  8
HATCH
100
AcDbLine
 10
3673.179121299382
 20
1830.971953356348
 30
0.0
 11
3699.84578796605
 21
1784.783932023017
 31
0.0
  0
LINE
  5
1CB5B
330
1C9B8
100
AcDbEntity
  8
HATCH
100
AcDbLine
 10
3473.179121299382
 20
1830.971953356348
 30
0.0
 11
3499.84578796605
 21
1784.783932023017
 31
0.0
  0
LINE
  5
1CB5C
330
1C9B8
100
AcDbEntity
  8
HATCH
100
AcDbLine
 10
3485.555163966047
 20
1944.783932023019
 30
0.0
 11
3512.221830632714
 21
1898.595909356354
 31
0.0
  0
LINE
  5
1CB5D
330
1C9B8
100
AcDbEntity
  8
HATCH
100
AcDbLine
 10
3273.179121299381
 20
1830.971953356348
 30
0.0
 11
3299.84578796605
 21
1784.783932023017
 31
0.0
  0
LINE
  5
1CB5E
330
1C9B8
100
AcDbEntity
  8
HATCH
100
AcDbLine
 10
3246.512454632716
 20
1784.783932023017
 30
0.0
 11
3338.888497299381
 21
1944.783932023019
 31
0.0
  0
LINE
  5
1CB5F
330
1C9B8
100
AcDbEntity
  8
HATCH
100
AcDbLine
 10
3285.555163966046
 20
1944.783932023019
 30
0.0
 11
3312.221830632715
 21
1898.595909356354
 31
0.0
  0
LINE
  5
1CB60
330
1C9B8
100
AcDbEntity
  8
HATCH
100
AcDbLine
 10
3073.179121299383
 20
1830.971953356348
 30
0.0
 11
3099.845787966049
 21
1784.783932023017
 31
0.0
  0
LINE
  5
1CB61
330
1C9B8
100
AcDbEntity
  8
HATCH
100
AcDbLine
 10
3085.555163966046
 20
1944.783932023019
 30
0.0
 11
3112.221830632714
 21
1898.595909356354
 31
0.0
  0
LINE
  5
1CB62
330
1C9B8
100
AcDbEntity
  8
HATCH
100
AcDbLine
 10
3046.512454632716
 20
1784.783932023017
 30
0.0
 11
3138.888497299381
 21
1944.783932023019
 31
0.0
  0
LINE
  5
1CB63
330
1C9B8
100
AcDbEntity
  8
HATCH
100
AcDbLine
 10
3446.512454632716
 20
1784.783932023017
 30
0.0
 11
3538.888497299382
 21
1944.783932023019
 31
0.0
  0
LINE
  5
1CB64
330
1C9B8
100
AcDbEntity
  8
HATCH
100
AcDbLine
 10
3885.555163966047
 20
1944.783932023019
 30
0.0
 11
3912.221830632715
 21
1898.595909356354
 31
0.0
  0
LINE
  5
1CB65
330
1C9B8
100
AcDbEntity
  8
HATCH
100
AcDbLine
 10
3846.512454632716
 20
1784.783932023017
 30
0.0
 11
3938.888497299382
 21
1944.783932023019
 31
0.0
  0
LINE
  5
1CB66
330
1C9B8
100
AcDbEntity
  8
HATCH
100
AcDbLine
 10
3873.179121299381
 20
1830.971953356348
 30
0.0
 11
3899.84578796605
 21
1784.783932023017
 31
0.0
  0
TEXT
  5
1CB67
330
1C9B8
100
AcDbEntity
  8
SUNPOU
100
AcDbText
 10
1862.18045760488
 20
2742.183932023017
 30
0.0
 40
90.0
  1
G.L
 41
0.6700000000000001
  7
01
 72
     4
 11
1933.966171890595
 21
2787.183932023017
 31
0.0
100
AcDbText
  0
LINE
  5
1CB68
330
1C9B8
100
AcDbEntity
  8
SUNPOU
100
AcDbLine
 10
1985.92769611766
 20
2697.183932023017
 30
0.0
 11
1882.004647663528
 21
2697.183932023017
 31
0.0
  0
LINE
  5
1CB69
330
1C9B8
100
AcDbEntity
  8
SUNPOU
100
AcDbLine
 10
1882.004647663528
 20
2697.183932023017
 30
0.0
 11
1933.966171890595
 21
2607.183932023017
 31
0.0
  0
LINE
  5
1CB6A
330
1C9B8
100
AcDbEntity
  8
SUNPOU
100
AcDbLine
 10
1933.966171890595
 20
2607.183932023017
 30
0.0
 11
1985.92769611766
 21
2697.183932023017
 31
0.0
  0
TEXT
  5
1CB6B
330
1C9B8
100
AcDbEntity
  8
HIKIDASHI
100
AcDbText
 10
3668.119595618649
 20
898.3349131803498
 30
0.0
 40
90.0
  1
断 面
  7
01
100
AcDbText
  0
LINE
  5
1CB6C
330
1C9B8
100
AcDbEntity
  8
HIKIDASHI
100
AcDbLine
 10
3244.102316122087
 20
853.3349131803495
 30
0.0
 11
3939.729669357657
 21
853.3349131803495
 31
0.0
  0
LINE
  5
1CB6D
330
1C9B8
100
AcDbEntity
  8
HIKIDASHI
100
AcDbLine
 10
3244.102316122087
 20
823.3349131803498
 30
0.0
 11
3939.729669357657
 21
823.3349131803498
 31
0.0
  0
TEXT
  5
1CB6E
330
1C9B8
100
AcDbEntity
  8
HIKIDASHI
100
AcDbText
 10
3274.102316122088
 20
898.3349131803498
 30
0.0
 40
90.0
  1
A  ~  A'
 41
0.6700000000000001
  7
00
100
AcDbText
  0
TEXT
  5
1CB6F
330
1C9B8
100
AcDbEntity
  8
HIKIDASHI
100
AcDbText
 10
4510.824473165036
 20
2182.813799624294
 30
0.0
 40
90.0
  1
敷砂利又は砕石
  7
01
 72
     2
 11
5242.824473165036
 21
2227.813799624294
 31
0.0
100
AcDbText
 73
     2
  0
LINE
  5
1CB70
330
1C9B8
100
AcDbEntity
  8
HIKIDASHI
100
AcDbLine
 10
5268.054773810714
 20
2137.813799624294
 30
0.0
 11
4466.990604083568
 21
2137.813799624294
 31
0.0
  0
TEXT
  5
1CB71
330
1C9B8
100
AcDbEntity
  8
HIKIDASHI
100
AcDbText
 10
4475.524645866981
 20
1627.003331156296
 30
0.0
 40
90.0
  1
砕　石
  7
01
 72
     2
 11
4775.524645866981
 21
1672.003331156296
 31
0.0
100
AcDbText
 73
     2
  0
LINE
  5
1CB72
330
1C9B8
100
AcDbEntity
  8
HIKIDASHI
100
AcDbLine
 10
4817.223415102695
 20
1582.003331156295
 30
0.0
 11
4448.457038275068
 21
1582.003331156295
 31
0.0
  0
TEXT
  5
1CB73
330
1C9B8
100
AcDbEntity
  8
SUNPOU
100
AcDbText
 10
4389.610702028725
 20
1812.583798459791
 30
0.0
 40
90.0
  1
4-D13×4-D13
 41
0.6700000000000001
  7
01
 72
     4
 11
4733.033559171583
 21
1857.583798459792
 31
0.0
100
AcDbText
  0
TEXT
  5
1CB74
330
1C9B8
100
AcDbEntity
  8
SUNPOU
100
AcDbText
 10
4524.72641631444
 20
1947.583798459792
 30
0.0
 40
90.0
  1
ベース筋
  7
01
 72
     4
 11
4728.726416314439
 21
1992.583798459792
 31
0.0
100
AcDbText
  0
TEXT
  5
1CB75
330
1C9B8
100
AcDbEntity
  8
HIKIDASHI
100
AcDbText
 10
2115.963976636491
 20
1048.577961873762
 30
0.0
 40
89.55223880597014
  1
x
 41
0.6700000000000001
  7
00
100
AcDbText
  0
TEXT
  5
1CB76
330
1C9B8
100
AcDbEntity
  8
HIKIDASHI
100
AcDbText
 10
2044.129039446116
 20
1036.787486631349
 30
0.0
 40
67.16417910447761
  1
2
 41
0.6700000000000001
  7
00
100
AcDbText
  0
TEXT
  5
1CB77
330
1C9B8
100
AcDbEntity
  8
HIKIDASHI
100
AcDbText
 10
1956.237002887194
 20
1063.81354166191
 30
0.0
 40
67.16417910447761
  1
1
 41
0.6700000000000001
  7
00
100
AcDbText
  0
TEXT
  5
1CB78
330
1C9B8
100
AcDbEntity
  8
HIKIDASHI
100
AcDbText
 10
1881.63619220397
 20
1037.383932023014
 30
0.0
 40
89.55223880597014
  1
W ／
 41
0.6700000000000001
  7
00
100
AcDbText
  0
TEXT
  5
1CB79
330
1C9B8
100
AcDbEntity
  8
HIKIDASHI
100
AcDbText
 10
2197.099355789624
 20
1037.174945822925
 30
0.0
 40
89.55223880597014
  1
300
 41
0.6700000000000001
  7
00
100
AcDbText
  0
TEXT
  5
1CB7A
330
1C9B8
100
AcDbEntity
  8
HIKIDASHI
100
AcDbText
 10
1881.63619220397
 20
1217.383932023014
 30
0.0
 40
90.0
  1
アンカーボルト
  7
01
100
AcDbText
  0
LINE
  5
1CB7B
330
1C9B8
100
AcDbEntity
  8
HIKIDASHI
100
AcDbLine
 10
1852.556583342265
 20
1172.383932023014
 30
0.0
 11
2672.562596739116
 21
1172.383932023014
 31
0.0
  0
LINE
  5
1CB7C
330
1C9B8
100
AcDbEntity
  8
HATCH
100
AcDbLine
 10
4085.555163966047
 20
1944.783932023019
 30
0.0
 11
4112.221830632716
 21
1898.595909356354
 31
0.0
  0
LINE
  5
1CB7D
330
1C9B8
100
AcDbEntity
  8
HATCH
100
AcDbLine
 10
4046.512454632716
 20
1784.783932023017
 30
0.0
 11
4138.888497299382
 21
1944.783932023019
 31
0.0
  0
LINE
  5
1CB7E
330
1C9B8
100
AcDbEntity
  8
HATCH
100
AcDbLine
 10
4073.179121299381
 20
1830.971953356348
 30
0.0
 11
4099.845787966049
 21
1784.783932023017
 31
0.0
  0
CIRCLE
  5
1CB7F
330
1C9B8
100
AcDbEntity
  8
BOLT
100
AcDbCircle
 10
7750.758701212581
 20
2659.983932023015
 30
0.0
 40
13.2
  0
CIRCLE
  5
1CB80
330
1C9B8
100
AcDbEntity
  8
BOLT
100
AcDbCircle
 10
7750.758701212581
 20
2659.983932023015
 30
0.0
 40
16.8
  0
CIRCLE
  5
1CB81
330
1C9B8
100
AcDbEntity
  8
BOLT
100
AcDbCircle
 10
7750.758701212581
 20
2595.983932023015
 30
0.0
 40
16.8
  0
CIRCLE
  5
1CB82
330
1C9B8
100
AcDbEntity
  8
BOLT
100
AcDbCircle
 10
7750.758701212581
 20
2595.983932023015
 30
0.0
 40
13.2
  0
LINE
  5
1CB83
330
1C9B8
100
AcDbEntity
  8
KISO
100
AcDbLine
 10
9033.155423951882
 20
2687.183932023017
 30
0.0
 11
7802.758701212576
 21
2687.183932023017
 31
0.0
  0
LINE
  5
1CB84
330
1C9B8
100
AcDbEntity
  8
KISO
100
AcDbLine
 10
6468.361978473277
 20
2424.783932023014
 30
0.0
 11
7110.758701212581
 21
2424.783932023014
 31
0.0
  0
LINE
  5
1CB85
330
1C9B8
100
AcDbEntity
  8
KISO
100
AcDbLine
 10
8390.758701212579
 20
2424.783932023016
 30
0.0
 11
9033.155423951887
 21
2424.783932023017
 31
0.0
  0
LINE
  5
1CB86
330
1C9B8
100
AcDbEntity
  8
KISO
100
AcDbLine
 10
7698.758701212579
 20
2687.183932023017
 30
0.0
 11
6468.361978473271
 21
2687.18393202302
 31
0.0
  0
LINE
  5
1CB87
330
1C9B8
100
AcDbEntity
  8
HASHIRA
100
AcDbLine
 10
7802.758701212581
 20
2567.183932023016
 30
0.0
 11
7802.758701212574
 21
2817.184504159605
 31
0.0
  0
LINE
  5
1CB88
330
1C9B8
100
AcDbEntity
  8
HASHIRA
100
AcDbLine
 10
7698.758701212581
 20
2817.184504159605
 30
0.0
 11
7698.758701212581
 21
2567.183932023016
 31
0.0
  0
LINE
  5
1CB89
330
1C9B8
100
AcDbEntity
  8
HATCH
100
AcDbLine
 10
7502.117161404007
 20
2690.383932023017
 30
0.0
 11
7364.517161404008
 21
2552.783932023018
 31
0.0
  0
LINE
  5
1CB8A
330
1C9B8
100
AcDbEntity
  8
HATCH
100
AcDbLine
 10
7597.152312795479
 20
2690.383932023017
 30
0.0
 11
7459.552312795479
 21
2552.783932023016
 31
0.0
  0
LINE
  5
1CB8B
330
1C9B8
100
AcDbEntity
  8
HATCH
100
AcDbLine
 10
7549.634737099747
 20
2690.383932023017
 30
0.0
 11
7412.034737099746
 21
2552.783932023016
 31
0.0
  0
LINE
  5
1CB8C
330
1C9B8
100
AcDbEntity
  8
1PL-S1
100
AcDbLine
 10
7638.758701212582
 20
2543.183932023016
 30
0.0
 11
7638.758701212582
 21
2571.983932023019
 31
0.0
  0
LINE
  5
1CB8D
330
1C9B8
100
AcDbEntity
  8
HATCH
100
AcDbLine
 10
7978.917161404005
 20
2687.183932023017
 30
0.0
 11
7844.517161404003
 21
2552.783932023016
 31
0.0
  0
LINE
  5
1CB8E
330
1C9B8
100
AcDbEntity
  8
HATCH
100
AcDbLine
 10
8026.434737099746
 20
2687.183932023017
 30
0.0
 11
7892.034737099746
 21
2552.783932023016
 31
0.0
  0
LINE
  5
1CB8F
330
1C9B8
100
AcDbEntity
  8
1PL-S1
100
AcDbLine
 10
7862.75870121258
 20
2543.183932023012
 30
0.0
 11
7862.75870121258
 21
2571.983932023013
 31
0.0
  0
LINE
  5
1CB90
330
1C9B8
100
AcDbEntity
  8
HATCH
100
AcDbLine
 10
8073.952312795478
 20
2687.183932023017
 30
0.0
 11
7939.552312795479
 21
2552.783932023016
 31
0.0
  0
LINE
  5
1CB91
330
1C9B8
100
AcDbEntity
  8
HATCH
100
AcDbLine
 10
8458.917161404007
 20
2687.183932023017
 30
0.0
 11
8324.517161404003
 21
2552.783932023016
 31
0.0
  0
LINE
  5
1CB92
330
1C9B8
100
AcDbEntity
  8
HATCH
100
AcDbLine
 10
8506.434737099745
 20
2687.183932023017
 30
0.0
 11
8372.034737099744
 21
2552.783932023016
 31
0.0
  0
LINE
  5
1CB93
330
1C9B8
100
AcDbEntity
  8
HATCH
100
AcDbLine
 10
8553.952312795479
 20
2687.183932023017
 30
0.0
 11
8419.552312795474
 21
2552.783932023016
 31
0.0
  0
LINE
  5
1CB94
330
1C9B8
100
AcDbEntity
  8
HATCH
100
AcDbLine
 10
9033.155423951882
 20
2686.387043179423
 30
0.0
 11
8899.552312795469
 21
2552.783932023016
 31
0.0
  0
LINE
  5
1CB95
330
1C9B8
100
AcDbEntity
  8
HATCH
100
AcDbLine
 10
8986.434737099742
 20
2687.183932023017
 30
0.0
 11
8852.034737099748
 21
2552.783932023016
 31
0.0
  0
LINE
  5
1CB96
330
1C9B8
100
AcDbEntity
  8
HATCH
100
AcDbLine
 10
8938.917161404006
 20
2687.183932023017
 30
0.0
 11
8804.517161404003
 21
2552.783932023016
 31
0.0
  0
LINE
  5
1CB97
330
1C9B8
100
AcDbEntity
  8
KISO
100
AcDbLine
 10
9033.155423951887
 20
2552.783932023016
 30
0.0
 11
6468.361978473277
 21
2552.783932023016
 31
0.0
  0
LINE
  5
1CB98
330
1C9B8
100
AcDbEntity
  8
HATCH
100
AcDbLine
 10
8390.758701212579
 20
2518.935094678731
 30
0.0
 11
8410.301336565062
 21
2552.783932023016
 31
0.0
  0
LINE
  5
1CB99
330
1C9B8
100
AcDbEntity
  8
HATCH
100
AcDbLine
 10
8390.758701212579
 20
2306.86635632728
 30
0.0
 11
8028.676276908322
 21
1944.78393202302
 31
0.0
  0
LINE
  5
1CB9A
330
1C9B8
100
AcDbEntity
  8
HATCH
100
AcDbLine
 10
8390.758701212579
 20
2259.348780631543
 30
0.0
 11
8076.193852604058
 21
1944.78393202302
 31
0.0
  0
LINE
  5
1CB9B
330
1C9B8
100
AcDbEntity
  8
HATCH
100
AcDbLine
 10
8390.758701212579
 20
2211.831204935808
 30
0.0
 11
8123.711428299797
 21
1944.783932023021
 31
0.0
  0
LINE
  5
1CB9C
330
1C9B8
100
AcDbEntity
  8
HATCH
100
AcDbLine
 10
8204.676276908314
 20
2552.783932023016
 30
0.0
 11
7873.15870121258
 21
2221.266356327276
 31
0.0
  0
LINE
  5
1CB9D
330
1C9B8
100
AcDbEntity
  8
HATCH
100
AcDbLine
 10
8252.193852604044
 20
2552.783932023016
 30
0.0
 11
7873.15870121258
 21
2173.748780631548
 31
0.0
  0
LINE
  5
1CB9E
330
1C9B8
100
AcDbEntity
  8
HATCH
100
AcDbLine
 10
8157.158701212578
 20
2552.783932023016
 30
0.0
 11
7873.15870121258
 21
2268.783932023016
 31
0.0
  0
LINE
  5
1CB9F
330
1C9B8
100
AcDbEntity
  8
KISO
100
AcDbLine
 10
8390.758701212579
 20
2552.78393202302
 30
0.0
 11
8390.758701212579
 21
1944.78393202302
 31
0.0
  0
LINE
  5
1CBA0
330
1C9B8
100
AcDbEntity
  8
KISO
100
AcDbLine
 10
7110.758701212581
 20
2552.78393202302
 30
0.0
 11
7110.758701212581
 21
1944.78393202302
 31
0.0
  0
LINE
  5
1CBA1
330
1C9B8
100
AcDbEntity
  8
HATCH
100
AcDbLine
 10
7293.158701212582
 20
2552.783932023016
 30
0.0
 11
7110.758701212581
 21
2370.383932023016
 31
0.0
  0
LINE
  5
1CBA2
330
1C9B8
100
AcDbEntity
  8
HATCH
100
AcDbLine
 10
7240.841125516855
 20
2547.983932023017
 30
0.0
 11
7110.758701212581
 21
2417.901507718748
 31
0.0
  0
LINE
  5
1CBA3
330
1C9B8
100
AcDbEntity
  8
HATCH
100
AcDbLine
 10
7852.358701212581
 20
2247.983932023016
 30
0.0
 11
7549.158701212602
 21
1944.78393202302
 31
0.0
  0
LINE
  5
1CBA4
330
1C9B8
100
AcDbEntity
  8
HATCH
100
AcDbLine
 10
7852.358701212579
 20
2200.466356327277
 30
0.0
 11
7596.676276908333
 21
1944.78393202302
 31
0.0
  0
LINE
  5
1CBA5
330
1C9B8
100
AcDbEntity
  8
HATCH
100
AcDbLine
 10
7852.358701212579
 20
2152.948780631545
 30
0.0
 11
7644.193852604061
 21
1944.78393202302
 31
0.0
  0
LINE
  5
1CBA6
330
1C9B8
100
AcDbEntity
  8
HATCH
100
AcDbLine
 10
7677.641125516848
 20
2552.783932023016
 30
0.0
 11
7649.158701212584
 21
2524.30150771875
 31
0.0
  0
LINE
  5
1CBA7
330
1C9B8
100
AcDbEntity
  8
HATCH
100
AcDbLine
 10
7628.358701212585
 20
2503.501507718751
 30
0.0
 11
7110.758701212581
 21
1985.901507718751
 31
0.0
  0
LINE
  5
1CBA8
330
1C9B8
100
AcDbEntity
  8
HATCH
100
AcDbLine
 10
7725.158701212589
 20
2552.783932023016
 30
0.0
 11
7649.158701212584
 21
2476.783932023013
 31
0.0
  0
LINE
  5
1CBA9
330
1C9B8
100
AcDbEntity
  8
HATCH
100
AcDbLine
 10
7628.358701212585
 20
2455.983932023012
 30
0.0
 11
7117.158701212598
 21
1944.78393202302
 31
0.0
  0
LINE
  5
1CBAA
330
1C9B8
100
AcDbEntity
  8
HATCH
100
AcDbLine
 10
7772.676276908322
 20
2552.783932023016
 30
0.0
 11
7649.158701212584
 21
2429.266356327278
 31
0.0
  0
LINE
  5
1CBAB
330
1C9B8
100
AcDbEntity
  8
HATCH
100
AcDbLine
 10
7628.358701212585
 20
2408.466356327279
 30
0.0
 11
7164.676276908325
 21
1944.78393202302
 31
0.0
  0
LINE
  5
1CBAC
330
1C9B8
100
AcDbEntity
  8
HATCH
100
AcDbLine
 10
7198.123549821115
 20
2552.783932023016
 30
0.0
 11
7110.758701212581
 21
2465.419083414488
 31
0.0
  0
LINE
  5
1CBAD
330
1C9B8
100
AcDbEntity
  8
1PL-M1
100
AcDbLine
 10
7750.758701212581
 20
1661.871218482205
 30
0.0
 11
7750.758701212581
 21
3409.184504159609
 31
0.0
  0
LINE
  5
1CBAE
330
1C9B8
100
AcDbEntity
  8
KISO
100
AcDbLine
 10
8550.758701212577
 20
1944.78393202302
 30
0.0
 11
8550.758701212577
 21
1784.783932023017
 31
0.0
  0
LINE
  5
1CBAF
330
1C9B8
100
AcDbEntity
  8
HATCH
100
AcDbLine
 10
7778.688496438757
 20
1784.783932023021
 30
0.0
 11
7871.064539105423
 21
1944.78393202302
 31
0.0
  0
LINE
  5
1CBB0
330
1C9B8
100
AcDbEntity
  8
HATCH
100
AcDbLine
 10
7817.731205772087
 20
1944.78393202302
 30
0.0
 11
7844.397872438753
 21
1898.595909356358
 31
0.0
  0
LINE
  5
1CBB1
330
1C9B8
100
AcDbEntity
  8
HATCH
100
AcDbLine
 10
7805.355163105422
 20
1830.971953356351
 30
0.0
 11
7832.02182977209
 21
1784.783932023021
 31
0.0
  0
LINE
  5
1CBB2
330
1C9B8
100
AcDbEntity
  8
HATCH
100
AcDbLine
 10
7605.355163105421
 20
1830.971953356351
 30
0.0
 11
7632.02182977209
 21
1784.783932023021
 31
0.0
  0
LINE
  5
1CBB3
330
1C9B8
100
AcDbEntity
  8
HATCH
100
AcDbLine
 10
7617.731205772087
 20
1944.78393202302
 30
0.0
 11
7644.397872438755
 21
1898.595909356358
 31
0.0
  0
LINE
  5
1CBB4
330
1C9B8
100
AcDbEntity
  8
HATCH
100
AcDbLine
 10
7405.355163105422
 20
1830.971953356351
 30
0.0
 11
7432.021829772089
 21
1784.783932023021
 31
0.0
  0
LINE
  5
1CBB5
330
1C9B8
100
AcDbEntity
  8
HATCH
100
AcDbLine
 10
7378.688496438757
 20
1784.783932023021
 30
0.0
 11
7471.064539105423
 21
1944.78393202302
 31
0.0
  0
LINE
  5
1CBB6
330
1C9B8
100
AcDbEntity
  8
HATCH
100
AcDbLine
 10
7417.731205772087
 20
1944.78393202302
 30
0.0
 11
7444.397872438755
 21
1898.595909356358
 31
0.0
  0
LINE
  5
1CBB7
330
1C9B8
100
AcDbEntity
  8
KISO
100
AcDbLine
 10
6950.758701212581
 20
1944.78393202302
 30
0.0
 11
6950.758701212581
 21
1784.783932023017
 31
0.0
  0
LINE
  5
1CBB8
330
1C9B8
100
AcDbEntity
  8
HATCH
100
AcDbLine
 10
7205.355163105423
 20
1830.971953356351
 30
0.0
 11
7232.02182977209
 21
1784.783932023021
 31
0.0
  0
LINE
  5
1CBB9
330
1C9B8
100
AcDbEntity
  8
HATCH
100
AcDbLine
 10
7217.731205772087
 20
1944.78393202302
 30
0.0
 11
7244.397872438755
 21
1898.595909356358
 31
0.0
  0
LINE
  5
1CBBA
330
1C9B8
100
AcDbEntity
  8
HATCH
100
AcDbLine
 10
7178.688496438756
 20
1784.783932023021
 30
0.0
 11
7271.064539105421
 21
1944.78393202302
 31
0.0
  0
LINE
  5
1CBBB
330
1C9B8
100
AcDbEntity
  8
HATCH
100
AcDbLine
 10
7578.688496438757
 20
1784.783932023021
 30
0.0
 11
7671.064539105422
 21
1944.78393202302
 31
0.0
  0
LINE
  5
1CBBC
330
1C9B8
100
AcDbEntity
  8
KISO
100
AcDbLine
 10
6950.758701212581
 20
1784.783932023017
 30
0.0
 11
8550.758701212577
 21
1784.783932023017
 31
0.0
  0
LINE
  5
1CBBD
330
1C9B8
100
AcDbEntity
  8
HATCH
100
AcDbLine
 10
8017.731205772086
 20
1944.78393202302
 30
0.0
 11
8044.397872438755
 21
1898.595909356358
 31
0.0
  0
LINE
  5
1CBBE
330
1C9B8
100
AcDbEntity
  8
HATCH
100
AcDbLine
 10
7978.688496438755
 20
1784.783932023021
 30
0.0
 11
8071.064539105423
 21
1944.78393202302
 31
0.0
  0
LINE
  5
1CBBF
330
1C9B8
100
AcDbEntity
  8
HATCH
100
AcDbLine
 10
8005.355163105424
 20
1830.971953356351
 30
0.0
 11
8032.021829772089
 21
1784.783932023021
 31
0.0
  0
LINE
  5
1CBC0
330
1C9B8
100
AcDbEntity
  8
HATCH
100
AcDbLine
 10
8178.688496438757
 20
1784.783932023021
 30
0.0
 11
8271.064539105422
 21
1944.78393202302
 31
0.0
  0
LINE
  5
1CBC1
330
1C9B8
100
AcDbEntity
  8
HATCH
100
AcDbLine
 10
8217.731205772087
 20
1944.78393202302
 30
0.0
 11
8244.397872438755
 21
1898.595909356358
 31
0.0
  0
LINE
  5
1CBC2
330
1C9B8
100
AcDbEntity
  8
HATCH
100
AcDbLine
 10
8205.355163105421
 20
1830.971953356351
 30
0.0
 11
8232.02182977209
 21
1784.783932023021
 31
0.0
  0
LINE
  5
1CBC3
330
1C9B8
100
AcDbEntity
  8
HATCH
100
AcDbLine
 10
7017.731205772086
 20
1944.78393202302
 30
0.0
 11
7044.397872438755
 21
1898.595909356358
 31
0.0
  0
LINE
  5
1CBC4
330
1C9B8
100
AcDbEntity
  8
HATCH
100
AcDbLine
 10
6978.688496438756
 20
1784.783932023021
 30
0.0
 11
7071.064539105421
 21
1944.78393202302
 31
0.0
  0
LINE
  5
1CBC5
330
1C9B8
100
AcDbEntity
  8
HATCH
100
AcDbLine
 10
7005.355163105424
 20
1830.971953356351
 30
0.0
 11
7032.02182977209
 21
1784.783932023021
 31
0.0
  0
LINE
  5
1CBC6
330
1C9B8
100
AcDbEntity
  8
SUNPOU
100
AcDbLine
 10
7750.758701212581
 20
3364.184504159609
 30
0.0
 11
8871.999660394948
 21
3364.184504159609
 31
0.0
  0
TEXT
  5
1CBC7
330
1C9B8
100
AcDbEntity
  8
SUNPOU
100
AcDbText
 10
8260.65655596852
 20
3409.184504159609
 30
0.0
 40
90.0
  1
1800
 41
0.6666666666666666
  7
00
 72
     4
 11
8379.227984539948
 21
3454.184504159609
 31
0.0
100
AcDbText
  0
LINE
  5
1CBC8
330
1C9B8
100
AcDbEntity
  8
HIKIDASHI
100
AcDbLine
 10
8897.25547140607
 20
3154.184504159609
 30
0.0
 11
8528.48909457845
 21
3154.184504159609
 31
0.0
  0
TEXT
  5
1CBC9
330
1C9B8
100
AcDbEntity
  8
HIKIDASHI
100
AcDbText
 10
8561.556702170356
 20
3199.184504159609
 30
0.0
 40
90.0
  1
土　間
  7
01
 72
     2
 11
8855.556702170359
 21
3244.184504159609
 31
0.0
100
AcDbText
 73
     2
  0
TEXT
  5
1CBCA
330
1C9B8
100
AcDbEntity
  8
SUNPOU
100
AcDbText
 10
8649.223035703865
 20
2822.183932023017
 30
0.0
 40
90.0
  1
F.L
 41
0.6666666666666666
  7
00
 72
     4
 11
8717.794464275293
 21
2867.183932023017
 31
0.0
100
AcDbText
  0
LINE
  5
1CBCB
330
1C9B8
100
AcDbEntity
  8
SUNPOU
100
AcDbLine
 10
8717.794464275293
 20
2687.183932023017
 30
0.0
 11
8769.755988502362
 21
2777.183932023017
 31
0.0
  0
LINE
  5
1CBCC
330
1C9B8
100
AcDbEntity
  8
SUNPOU
100
AcDbLine
 10
8665.832940048229
 20
2777.183932023017
 30
0.0
 11
8717.794464275293
 21
2687.183932023017
 31
0.0
  0
LINE
  5
1CBCD
330
1C9B8
100
AcDbEntity
  8
SUNPOU
100
AcDbLine
 10
8769.755988502362
 20
2777.183932023017
 30
0.0
 11
8665.832940048229
 21
2777.183932023017
 31
0.0
  0
TEXT
  5
1CBCE
330
1C9B8
100
AcDbEntity
  8
HIKIDASHI
100
AcDbText
 10
6182.062236208849
 20
1048.577961873766
 30
0.0
 40
89.55223880597014
  1
x
 41
0.6700000000000001
  7
00
100
AcDbText
  0
TEXT
  5
1CBCF
330
1C9B8
100
AcDbEntity
  8
HIKIDASHI
100
AcDbText
 10
6110.227299018474
 20
1036.787486631354
 30
0.0
 40
67.16417910447761
  1
2
 41
0.6700000000000001
  7
00
100
AcDbText
  0
TEXT
  5
1CBD0
330
1C9B8
100
AcDbEntity
  8
HIKIDASHI
100
AcDbText
 10
6022.335262459553
 20
1063.813541661914
 30
0.0
 40
67.16417910447761
  1
1
 41
0.6700000000000001
  7
00
100
AcDbText
  0
TEXT
  5
1CBD1
330
1C9B8
100
AcDbEntity
  8
HIKIDASHI
100
AcDbText
 10
5947.73445177633
 20
1037.38393202302
 30
0.0
 40
89.55223880597014
  1
W ／
 41
0.6700000000000001
  7
00
100
AcDbText
  0
TEXT
  5
1CBD2
330
1C9B8
100
AcDbEntity
  8
HIKIDASHI
100
AcDbText
 10
6263.197615361984
 20
1037.17494582293
 30
0.0
 40
89.55223880597014
  1
300
 41
0.6700000000000001
  7
00
100
AcDbText
  0
TEXT
  5
1CBD3
330
1C9B8
100
AcDbEntity
  8
HIKIDASHI
100
AcDbText
 10
5947.73445177633
 20
1217.38393202302
 30
0.0
 40
90.0
  1
アンカーボルト
  7
01
100
AcDbText
  0
LINE
  5
1CBD4
330
1C9B8
100
AcDbEntity
  8
HIKIDASHI
100
AcDbLine
 10
5918.654842914624
 20
1172.38393202302
 30
0.0
 11
6738.660856311475
 21
1172.38393202302
 31
0.0
  0
TEXT
  5
1CBD5
330
1C9B8
100
AcDbEntity
  8
HIKIDASHI
100
AcDbText
 10
7432.945024594793
 20
898.3349131803533
 30
0.0
 40
90.0
  1
B  ~  B'
 41
0.6700000000000001
  7
00
100
AcDbText
  0
LINE
  5
1CBD6
330
1C9B8
100
AcDbEntity
  8
HIKIDASHI
100
AcDbLine
 10
7402.945024594792
 20
823.3349131803532
 30
0.0
 11
8098.572377830363
 21
823.3349131803532
 31
0.0
  0
LINE
  5
1CBD7
330
1C9B8
100
AcDbEntity
  8
HIKIDASHI
100
AcDbLine
 10
7402.945024594792
 20
853.3349131803534
 30
0.0
 11
8098.572377830363
 21
853.3349131803534
 31
0.0
  0
TEXT
  5
1CBD8
330
1C9B8
100
AcDbEntity
  8
HIKIDASHI
100
AcDbText
 10
7826.962304091354
 20
898.3349131803533
 30
0.0
 40
90.0
  1
断 面
  7
01
100
AcDbText
  0
TEXT
  5
1CBD9
330
1C9B8
100
AcDbEntity
  8
SUNPOU
100
AcDbText
 10
8708.45341050143
 20
1812.583798459796
 30
0.0
 40
90.0
  1
5-D13×5-D13
 41
0.6700000000000001
  7
01
 72
     4
 11
9051.876267644287
 21
1857.583798459796
 31
0.0
100
AcDbText
  0
TEXT
  5
1CBDA
330
1C9B8
100
AcDbEntity
  8
SUNPOU
100
AcDbText
 10
8843.569124787149
 20
1947.583798459796
 30
0.0
 40
90.0
  1
ベース筋
  7
01
 72
     4
 11
9047.56912478715
 21
1992.583798459796
 31
0.0
100
AcDbText
  0
LINE
  5
1CBDB
330
1C9B8
100
AcDbEntity
  8
KISO
100
AcDbLine
 10
6950.758701212581
 20
1944.78393202302
 30
0.0
 11
8550.758701212577
 21
1944.78393202302
 31
0.0
  0
LINE
  5
1CBDC
330
1C9B8
100
AcDbEntity
  8
HATCH
100
AcDbLine
 10
8378.688496438755
 20
1784.783932023024
 30
0.0
 11
8471.06453910542
 21
1944.783932023024
 31
0.0
  0
LINE
  5
1CBDD
330
1C9B8
100
AcDbEntity
  8
HATCH
100
AcDbLine
 10
8417.731205772087
 20
1944.783932023024
 30
0.0
 11
8444.397872438752
 21
1898.59590935636
 31
0.0
  0
LINE
  5
1CBDE
330
1C9B8
100
AcDbEntity
  8
HATCH
100
AcDbLine
 10
8405.355163105422
 20
1830.971953356355
 30
0.0
 11
8432.021829772086
 21
1784.783932023024
 31
0.0
  0
LINE
  5
1CBDF
330
1C9B8
100
AcDbEntity
  8
HATCH
100
AcDbLine
 10
7018.917161404012
 20
2687.183932023017
 30
0.0
 11
6884.517161404009
 21
2552.783932023018
 31
0.0
  0
LINE
  5
1CBE0
330
1C9B8
100
AcDbEntity
  8
HATCH
100
AcDbLine
 10
7113.952312795483
 20
2687.183932023017
 30
0.0
 11
6979.552312795481
 21
2552.783932023016
 31
0.0
  0
LINE
  5
1CBE1
330
1C9B8
100
AcDbEntity
  8
HATCH
100
AcDbLine
 10
7066.434737099749
 20
2687.183932023017
 30
0.0
 11
6932.034737099749
 21
2552.783932023016
 31
0.0
  0
LINE
  5
1CBE2
330
1C9B8
100
AcDbEntity
  8
HATCH
100
AcDbLine
 10
6542.117161404012
 20
2690.383932023017
 30
0.0
 11
6468.361978473277
 21
2616.628749092284
 31
0.0
  0
LINE
  5
1CBE3
330
1C9B8
100
AcDbEntity
  8
HATCH
100
AcDbLine
 10
6637.152312795485
 20
2690.383932023017
 30
0.0
 11
6499.552312795483
 21
2552.783932023016
 31
0.0
  0
LINE
  5
1CBE4
330
1C9B8
100
AcDbEntity
  8
HATCH
100
AcDbLine
 10
6589.634737099752
 20
2690.383932023017
 30
0.0
 11
6468.361978473277
 21
2569.111173396545
 31
0.0
  0
LINE
  5
1CBE5
330
1C9B8
100
AcDbEntity
  8
SUNPOU
100
AcDbLine
 10
7750.758701212581
 20
3364.184504159609
 30
0.0
 11
6629.517742030216
 21
3364.184504159609
 31
0.0
  0
TEXT
  5
1CBE6
330
1C9B8
100
AcDbEntity
  8
SUNPOU
100
AcDbText
 10
7003.717989313786
 20
3409.184504159609
 30
0.0
 40
90.0
  1
1800
 41
0.6666666666666666
  7
00
 72
     4
 11
7122.289417885214
 21
3454.184504159609
 31
0.0
100
AcDbText
  0
LINE
  5
1CBE7
330
1C9B8
100
AcDbEntity
  8
HIKIDASHI
100
AcDbLine
 10
4494.745366139386
 20
3154.184504159605
 30
0.0
 11
4125.978989311763
 21
3154.184504159605
 31
0.0
  0
TEXT
  5
1CBE8
330
1C9B8
100
AcDbEntity
  8
HIKIDASHI
100
AcDbText
 10
4159.046596903675
 20
3199.184504159605
 30
0.0
 40
90.0
  1
土　間
  7
01
 72
     2
 11
4453.046596903676
 21
3244.184504159606
 31
0.0
100
AcDbText
 73
     2
  0
LINE
  5
1CBE9
330
1C9B8
100
AcDbEntity
  8
KISO
100
AcDbLine
 10
2951.915992739875
 20
2687.183932023017
 30
0.0
 11
2951.915992739874
 21
2424.783932023015
 31
0.0
  0
LINE
  5
1CBEA
330
1C9B8
100
AcDbEntity
  8
KISO
100
AcDbLine
 10
2951.915992739874
 20
2424.783932023015
 30
0.0
 11
3111.915992739875
 21
2424.783932023015
 31
0.0
  0
LINE
  5
1CBEB
330
1C9B8
100
AcDbEntity
  8
KISO
100
AcDbLine
 10
3111.915992739875
 20
2552.783932023016
 30
0.0
 11
2951.915992739875
 21
2552.783932023016
 31
0.0
  0
LINE
  5
1CBEC
330
1C9B8
100
AcDbEntity
  8
HATCH
100
AcDbLine
 10
3088.191137728982
 20
2687.183932023017
 30
0.0
 11
2953.79113772898
 21
2552.783932023016
 31
0.0
  0
LINE
  5
1CBED
330
1C9B8
100
AcDbEntity
  8
HATCH
100
AcDbLine
 10
3040.67356172898
 20
2687.183932023017
 30
0.0
 11
2951.915992739875
 21
2598.426363033911
 31
0.0
  0
LINE
  5
1CBEE
330
1C9B8
100
AcDbEntity
  8
HATCH
100
AcDbLine
 10
2993.155985728983
 20
2687.183932023017
 30
0.0
 11
2951.915992739875
 21
2645.943939033911
 31
0.0
  0
TEXT
  5
1CBEF
330
1C9B8
100
AcDbEntity
  8
HIKIDASHI
100
AcDbText
 10
8794.367354339684
 20
1627.003331156298
 30
0.0
 40
90.0
  1
砕　石
  7
01
 72
     2
 11
9094.367354339684
 21
1672.003331156298
 31
0.0
100
AcDbText
 73
     2
  0
LINE
  5
1CBF0
330
1C9B8
100
AcDbEntity
  8
HIKIDASHI
100
AcDbLine
 10
9136.0661235754
 20
1582.003331156298
 30
0.0
 11
8767.299746747777
 21
1582.003331156298
 31
0.0
  0
TEXT
  5
1CBF1
330
1C9B8
100
AcDbEntity
  8
HIKIDASHI
100
AcDbText
 10
8829.667181637743
 20
2182.813799624292
 30
0.0
 40
90.0
  1
敷砂利又は砕石
  7
01
 72
     2
 11
9561.667181637742
 21
2227.813799624292
 31
0.0
100
AcDbText
 73
     2
  0
LINE
  5
1CBF2
330
1C9B8
100
AcDbEntity
  8
HIKIDASHI
100
AcDbLine
 10
9586.89748228342
 20
2137.813799624292
 30
0.0
 11
8785.833312556276
 21
2137.813799624292
 31
0.0
  0
TEXT
  5
1CBF3
330
1C9B8
100
AcDbEntity
  8
SUNPOU
100
AcDbText
 10
4490.380327231169
 20
2822.183932023017
 30
0.0
 40
90.0
  1
F.L
 41
0.6666666666666666
  7
00
 72
     4
 11
4558.951755802597
 21
2867.183932023017
 31
0.0
100
AcDbText
  0
LINE
  5
1CBF4
330
1C9B8
100
AcDbEntity
  8
SUNPOU
100
AcDbLine
 10
4558.951755802597
 20
2687.183932023017
 30
0.0
 11
4610.913280029662
 21
2777.183932023016
 31
0.0
  0
LINE
  5
1CBF5
330
1C9B8
100
AcDbEntity
  8
SUNPOU
100
AcDbLine
 10
4506.99023157553
 20
2777.183932023016
 30
0.0
 11
4558.951755802597
 21
2687.183932023017
 31
0.0
  0
LINE
  5
1CBF6
330
1C9B8
100
AcDbEntity
  8
SUNPOU
100
AcDbLine
 10
4610.913280029662
 20
2777.183932023016
 30
0.0
 11
4506.99023157553
 21
2777.183932023016
 31
0.0
  0
TEXT
  5
1CBF7
330
1C9B8
100
AcDbEntity
  8
HIKIDASHI
100
AcDbText
 10
12690.89263360978
 20
2138.424883029956
 30
0.0
 40
90.0
  1
2
 41
0.6666666666666666
  7
00
100
AcDbText
  0
TEXT
  5
1CBF8
330
1C9B8
100
AcDbEntity
  8
HIKIDASHI
100
AcDbText
 10
12769.4640621812
 20
2153.424883029956
 30
0.0
 40
90.0
  1
ｹ
  7
01
100
AcDbText
  0
TEXT
  5
1CBF9
330
1C9B8
100
AcDbEntity
  8
HIKIDASHI
100
AcDbText
 10
12850.4640621812
 20
2138.424883029956
 30
0.0
 40
90.0
  1
-
 41
0.6666666666666666
  7
00
100
AcDbText
  0
TEXT
  5
1CBFA
330
1C9B8
100
AcDbEntity
  8
HIKIDASHI
100
AcDbText
 10
12958.32120503835
 20
2138.424883029956
 30
0.0
 40
90.0
  1
18
 41
0.6666666666666666
  7
00
100
AcDbText
  0
TEXT
  5
1CBFB
330
1C9B8
100
AcDbEntity
  8
HIKIDASHI
100
AcDbText
 10
13094.03549075264
 20
2153.424883029956
 30
0.0
 40
90.0
  1
%%c
 41
0.6666666666666666
  7
00
100
AcDbText
  0
TEXT
  5
1CBFC
330
1C9B8
100
AcDbEntity
  8
HIKIDASHI
100
AcDbText
 10
13169.74977646692
 20
2138.424883029956
 30
0.0
 40
90.0
  1
孔
  7
01
100
AcDbText
  0
LINE
  5
1CBFD
330
1C9B8
100
AcDbEntity
  8
HIKIDASHI
100
AcDbLine
 10
12660.89263360979
 20
2093.424883029956
 30
0.0
 11
13283.74977646692
 21
2093.424883029956
 31
0.0
  0
TEXT
  5
1CBFE
330
1C9B8
100
AcDbEntity
  8
FILENAME
100
AcDbText
 10
13549.61904761904
 20
174.0
 30
0.0
 40
100.0
  1
＜YOKCS-280-MA-A_3_JIS_GL.DXF ＞
  7
FILENAME
 72
     2
 11
16382.0
 21
174.0
 31
0.0
100
AcDbText
  0
LINE
  5
1CBFF
330
1C9B8
100
AcDbEntity
  8
WAKUSEN-01
100
AcDbLine
 10
434.0000000000008
 20
413.9999999999997
 30
0.0
 11
16382.0
 21
413.9999999999997
 31
0.0
  0
LINE
  5
1CC00
330
1C9B8
100
AcDbEntity
  8
WAKUSEN-01
100
AcDbLine
 10
434.0000000000008
 20
11242.0
 30
0.0
 11
16382.0
 21
11242.0
 31
0.0
  0
LINE
  5
1CC01
330
1C9B8
100
AcDbEntity
  8
WAKUSEN-01
100
AcDbLine
 10
434.0000000000008
 20
413.9999999999997
 30
0.0
 11
434.0000000000008
 21
11242.0
 31
0.0
  0
LINE
  5
1CC02
330
1C9B8
100
AcDbEntity
  8
WAKUSEN-01
100
AcDbLine
 10
16382.0
 20
413.9999999999997
 30
0.0
 11
16382.0
 21
11242.0
 31
0.0
  0
LINE
  5
1CC03
330
1C9B8
100
AcDbEntity
  8
WAKUSEN-01
100
AcDbLine
 10
10280.0
 20
1242.0
 30
0.0
 11
16382.0
 21
1242.0
 31
0.0
  0
LINE
  5
1CC04
330
1C9B8
100
AcDbEntity
  8
WAKUSEN-02
100
AcDbLine
 10
10280.0
 20
827.9999999999997
 30
0.0
 11
13434.0
 21
827.9999999999997
 31
0.0
  0
TEXT
  5
1CC05
330
1C9B8
100
AcDbEntity
  8
WAKUMOJI-01
100
AcDbText
 10
10335.13012998137
 20
1062.951504669661
 30
0.0
 40
120.0
  1
名　称
  7
WAKUMOJI
100
AcDbText
  0
TEXT
  5
1CC06
330
1C9B8
100
AcDbEntity
  8
WAKUMOJI-01
100
AcDbText
 10
10328.25274254596
 20
659.5644874899107
 30
0.0
 40
120.0
  1
機種名
  7
WAKUMOJI
100
AcDbText
  0
LINE
  5
1CC07
330
1C9B8
100
AcDbEntity
  8
WAKUSEN-01
100
AcDbLine
 10
10280.0
 20
413.9999999999985
 30
0.0
 11
10280.0
 21
1242.0
 31
0.0
  0
LINE
  5
1CC08
330
1C9B8
100
AcDbEntity
  8
WAKUSEN-02
100
AcDbLine
 10
13434.0
 20
413.9999999999963
 30
0.0
 11
13434.0
 21
1242.0
 31
0.0
  0
LINE
  5
1CC09
330
1C9B8
100
AcDbEntity
  8
YODOROGO
100
AcDbLine
 10
14988.80217064596
 20
997.8747482146435
 30
0.0
 11
14914.80217064596
 21
997.8747482146435
 31
0.0
1001
AUTOCAD_POSTSCRIPT_FIGURE
1002
{
1000
PSFILL
1000
Grayscale
1000
Grayscale
1070
    25
1002
}
  0
LINE
  5
1CC0A
330
1C9B8
100
AcDbEntity
  8
YODOROGO
100
AcDbLine
 10
14914.80217064596
 20
973.8747482146434
 30
0.0
 11
14988.80217064596
 21
973.8747482146434
 31
0.0
1001
AUTOCAD_POSTSCRIPT_FIGURE
1002
{
1000
PSFILL
1000
Grayscale
1000
Grayscale
1070
    25
1002
}
  0
LINE
  5
1CC0B
330
1C9B8
100
AcDbEntity
  8
YODOROGO
100
AcDbLine
 10
14988.80217064596
 20
953.874748214644
 30
0.0
 11
14914.80217064596
 21
953.874748214644
 31
0.0
1001
AUTOCAD_POSTSCRIPT_FIGURE
1002
{
1000
PSFILL
1000
Grayscale
1000
Grayscale
1070
    25
1002
}
  0
LINE
  5
1CC0C
330
1C9B8
100
AcDbEntity
  8
YODOROGO
100
AcDbLine
 10
14914.80217064596
 20
929.874748214644
 30
0.0
 11
14988.80217064596
 21
929.874748214644
 31
0.0
1001
AUTOCAD_POSTSCRIPT_FIGURE
1002
{
1000
PSFILL
1000
Grayscale
1000
Grayscale
1070
    25
1002
}
  0
LINE
  5
1CC0D
330
1C9B8
100
AcDbEntity
  8
YODOROGO
100
AcDbLine
 10
14988.80217064596
 20
909.8747482146439
 30
0.0
 11
14914.80217064596
 21
909.8747482146439
 31
0.0
1001
AUTOCAD_POSTSCRIPT_FIGURE
1002
{
1000
PSFILL
1000
Grayscale
1000
Grayscale
1070
    25
1002
}
  0
LINE
  5
1CC0E
330
1C9B8
100
AcDbEntity
  8
YODOROGO
100
AcDbLine
 10
14960.80217064594
 20
853.874748214644
 30
0.0
 11
14988.80217064596
 21
853.874748214644
 31
0.0
1001
AUTOCAD_POSTSCRIPT_FIGURE
1002
{
1000
PSFILL
1000
Grayscale
1000
Grayscale
1070
    25
1002
}
  0
LINE
  5
1CC0F
330
1C9B8
100
AcDbEntity
  8
YODOROGO
100
AcDbLine
 10
14868.80217064596
 20
713.8747482146436
 30
0.0
 11
14968.80217064596
 21
740.6696674577553
 31
0.0
  0
LINE
  5
1CC10
330
1C9B8
100
AcDbEntity
  8
YODOROGO
100
AcDbLine
 10
14974.80217064595
 20
853.874748214644
 30
0.0
 11
14942.80217064596
 21
853.874748214644
 31
0.0
  0
ARC
  5
1CC11
330
1C9B8
100
AcDbEntity
  8
YODOROGO
100
AcDbCircle
 10
15127.17387491394
 20
903.9323046166312
 30
0.0
 40
190.9434321028236
100
AcDbArc
 50
213.9611167766784
 51
264.4787207431779
  0
ARC
  5
1CC12
330
1C9B8
100
AcDbEntity
  8
YODOROGO
100
AcDbCircle
 10
15127.17387491396
 20
903.9323046166513
 30
0.0
 40
190.9434321028408
100
AcDbArc
 50
208.141144204866
 51
212.9210361185994
  0
LINE
  5
1CC13
330
1C9B8
100
AcDbEntity
  8
YODOROGO
100
AcDbLine
 10
14885.70493649264
 20
778.403830673117
 30
0.0
 11
14966.89206625426
 21
800.1578565285436
 31
0.0
  0
LINE
  5
1CC14
330
1C9B8
100
AcDbEntity
  8
YODOROGO
100
AcDbLine
 10
14868.80217064596
 20
713.8747482146436
 30
0.0
 11
14968.80217064596
 21
740.6696674577553
 31
0.0
  0
LINE
  5
1CC15
330
1C9B8
100
AcDbEntity
  8
YODOROGO
100
AcDbLine
 10
14974.80217064595
 20
853.874748214644
 30
0.0
 11
14942.80217064596
 21
853.874748214644
 31
0.0
  0
ARC
  5
1CC16
330
1C9B8
100
AcDbEntity
  8
YODOROGO
100
AcDbCircle
 10
15127.17387491394
 20
903.9323046166312
 30
0.0
 40
190.9434321028236
100
AcDbArc
 50
213.9611167766784
 51
264.4787207431779
  0
LINE
  5
1CC17
330
1C9B8
100
AcDbEntity
  8
YODOROGO
100
AcDbLine
 10
14396.80217064594
 20
909.8747482146439
 30
0.0
 11
14216.80217064594
 21
909.8747482146439
 31
0.0
  0
LINE
  5
1CC18
330
1C9B8
100
AcDbEntity
  8
YODOROGO
100
AcDbLine
 10
14256.80217064594
 20
713.8747482146436
 30
0.0
 11
14396.80217064594
 21
713.8747482146436
 31
0.0
  0
LINE
  5
1CC19
330
1C9B8
100
AcDbEntity
  8
YODOROGO
100
AcDbLine
 10
14364.80217064596
 20
961.8747482146432
 30
0.0
 11
14248.80217064594
 21
961.8747482146432
 31
0.0
  0
LINE
  5
1CC1A
330
1C9B8
100
AcDbEntity
  8
YODOROGO
100
AcDbLine
 10
14292.80217064596
 20
1013.874748214644
 30
0.0
 11
14328.80217064596
 21
1013.874748214644
 31
0.0
  0
LINE
  5
1CC1B
330
1C9B8
100
AcDbEntity
  8
YODOROGO
100
AcDbLine
 10
14216.80217064594
 20
853.874748214644
 30
0.0
 11
14216.80217064594
 21
753.8747482146439
 31
0.0
  0
LINE
  5
1CC1C
330
1C9B8
100
AcDbEntity
  8
YODOROGO
100
AcDbLine
 10
14248.80217064594
 20
781.8747482146434
 30
0.0
 11
14248.80217064594
 21
853.874748214644
 31
0.0
  0
LINE
  5
1CC1D
330
1C9B8
100
AcDbEntity
  8
YODOROGO
100
AcDbLine
 10
14292.80217064596
 20
873.8747482146449
 30
0.0
 11
14292.80217064596
 21
773.874748214644
 31
0.0
  0
LINE
  5
1CC1E
330
1C9B8
100
AcDbEntity
  8
YODOROGO
100
AcDbLine
 10
13928.80217064596
 20
841.8747482146445
 30
0.0
 11
13888.80217064596
 21
809.9862070222856
 31
0.0
  0
LINE
  5
1CC1F
330
1C9B8
100
AcDbEntity
  8
YODOROGO
100
AcDbLine
 10
13968.80217064596
 20
809.9862070222856
 30
0.0
 11
13928.80217064596
 21
841.8747482146445
 31
0.0
  0
LINE
  5
1CC20
330
1C9B8
100
AcDbEntity
  8
YODOROGO
100
AcDbLine
 10
13928.80217064596
 20
853.874748214644
 30
0.0
 11
13968.80217064596
 21
821.986207022285
 31
0.0
  0
LINE
  5
1CC21
330
1C9B8
100
AcDbEntity
  8
YODOROGO
100
AcDbLine
 10
13888.80217064596
 20
821.986207022285
 30
0.0
 11
13928.80217064596
 21
853.874748214644
 31
0.0
  0
LINE
  5
1CC22
330
1C9B8
100
AcDbEntity
  8
YODOROGO
100
AcDbLine
 10
14020.45660200844
 20
829.874748214644
 30
0.0
 11
14020.45660200844
 21
841.8747482146434
 31
0.0
  0
LINE
  5
1CC23
330
1C9B8
100
AcDbEntity
  8
YODOROGO
100
AcDbLine
 10
13988.80217064596
 20
841.8747482146434
 30
0.0
 11
13988.80217064596
 21
833.8747482146427
 31
0.0
  0
LINE
  5
1CC24
330
1C9B8
100
AcDbEntity
  8
YODOROGO
100
AcDbLine
 10
14049.06776011545
 20
853.874748214644
 30
0.0
 11
14049.06776011545
 21
827.751818637328
 31
0.0
1001
AUTOCAD_POSTSCRIPT_FIGURE
1002
{
1000
PSFILL
1000
Grayscale
1000
Grayscale
1070
   100
1002
}
  0
LINE
  5
1CC25
330
1C9B8
100
AcDbEntity
  8
YODOROGO
100
AcDbLine
 10
14041.06776011546
 20
827.751818637328
 30
0.0
 11
14041.06776011546
 21
853.874748214644
 31
0.0
1001
AUTOCAD_POSTSCRIPT_FIGURE
1002
{
1000
PSFILL
1000
Grayscale
1000
Grayscale
1070
   100
1002
}
  0
LINE
  5
1CC26
330
1C9B8
100
AcDbEntity
  8
YODOROGO
100
AcDbLine
 10
13904.80217064596
 20
804.3859520216292
 30
0.0
 11
13904.80217064596
 21
816.3859520216298
 31
0.0
  0
LINE
  5
1CC27
330
1C9B8
100
AcDbEntity
  8
YODOROGO
100
AcDbLine
 10
13952.80217064596
 20
804.3859520216292
 30
0.0
 11
13904.80217064596
 21
804.3859520216292
 31
0.0
  0
LINE
  5
1CC28
330
1C9B8
100
AcDbEntity
  8
YODOROGO
100
AcDbLine
 10
13952.80217064596
 20
816.3859520216298
 30
0.0
 11
13952.80217064596
 21
804.3859520216292
 31
0.0
  0
LINE
  5
1CC29
330
1C9B8
100
AcDbEntity
  8
YODOROGO
100
AcDbLine
 10
13904.80217064596
 20
816.3859520216298
 30
0.0
 11
13952.80217064596
 21
816.3859520216298
 31
0.0
  0
LINE
  5
1CC2A
330
1C9B8
100
AcDbEntity
  8
YODOROGO
100
AcDbLine
 10
13912.25479445787
 20
784.2514286852374
 30
0.0
 11
13892.80217064596
 21
737.8747482146435
 31
0.0
1001
AUTOCAD_POSTSCRIPT_FIGURE
1002
{
1000
PSFILL
1000
Grayscale
1000
Grayscale
1070
   100
1002
}
  0
LINE
  5
1CC2B
330
1C9B8
100
AcDbEntity
  8
YODOROGO
100
AcDbLine
 10
13888.80217064596
 20
784.2514286852374
 30
0.0
 11
13912.25479445787
 21
784.2514286852374
 31
0.0
1001
AUTOCAD_POSTSCRIPT_FIGURE
1002
{
1000
PSFILL
1000
Grayscale
1000
Grayscale
1070
   100
1002
}
  0
LINE
  5
1CC2C
330
1C9B8
100
AcDbEntity
  8
YODOROGO
100
AcDbLine
 10
13888.80217064596
 20
794.2514286852374
 30
0.0
 11
13888.80217064596
 21
784.2514286852374
 31
0.0
1001
AUTOCAD_POSTSCRIPT_FIGURE
1002
{
1000
PSFILL
1000
Grayscale
1000
Grayscale
1070
   100
1002
}
  0
LINE
  5
1CC2D
330
1C9B8
100
AcDbEntity
  8
YODOROGO
100
AcDbLine
 10
13968.80217064596
 20
794.2514286852374
 30
0.0
 11
13888.80217064596
 21
794.2514286852374
 31
0.0
1001
AUTOCAD_POSTSCRIPT_FIGURE
1002
{
1000
PSFILL
1000
Grayscale
1000
Grayscale
1070
   100
1002
}
  0
LINE
  5
1CC2E
330
1C9B8
100
AcDbEntity
  8
YODOROGO
100
AcDbLine
 10
13968.80217064596
 20
784.2514286852374
 30
0.0
 11
13968.80217064596
 21
794.2514286852374
 31
0.0
1001
AUTOCAD_POSTSCRIPT_FIGURE
1002
{
1000
PSFILL
1000
Grayscale
1000
Grayscale
1070
   100
1002
}
  0
LINE
  5
1CC2F
330
1C9B8
100
AcDbEntity
  8
YODOROGO
100
AcDbLine
 10
13922.25479445786
 20
784.2514286852374
 30
0.0
 11
13968.80217064596
 21
784.2514286852374
 31
0.0
1001
AUTOCAD_POSTSCRIPT_FIGURE
1002
{
1000
PSFILL
1000
Grayscale
1000
Grayscale
1070
   100
1002
}
  0
LINE
  5
1CC30
330
1C9B8
100
AcDbEntity
  8
YODOROGO
100
AcDbLine
 10
13907.77335914238
 20
747.8747482146435
 30
0.0
 11
13922.25479445786
 21
784.2514286852374
 31
0.0
1001
AUTOCAD_POSTSCRIPT_FIGURE
1002
{
1000
PSFILL
1000
Grayscale
1000
Grayscale
1070
   100
1002
}
  0
LINE
  5
1CC31
330
1C9B8
100
AcDbEntity
  8
YODOROGO
100
AcDbLine
 10
13951.02739540432
 20
747.8747482146435
 30
0.0
 11
13907.77335914238
 21
747.8747482146435
 31
0.0
1001
AUTOCAD_POSTSCRIPT_FIGURE
1002
{
1000
PSFILL
1000
Grayscale
1000
Grayscale
1070
   100
1002
}
  0
LINE
  5
1CC32
330
1C9B8
100
AcDbEntity
  8
YODOROGO
100
AcDbLine
 10
13942.53250239547
 20
768.1169053488464
 30
0.0
 11
13951.02739540432
 21
747.8747482146435
 31
0.0
1001
AUTOCAD_POSTSCRIPT_FIGURE
1002
{
1000
PSFILL
1000
Grayscale
1000
Grayscale
1070
   100
1002
}
  0
LINE
  5
1CC33
330
1C9B8
100
AcDbEntity
  8
YODOROGO
100
AcDbLine
 10
13950.53250239547
 20
768.1169053488464
 30
0.0
 11
13942.53250239547
 21
768.1169053488464
 31
0.0
1001
AUTOCAD_POSTSCRIPT_FIGURE
1002
{
1000
PSFILL
1000
Grayscale
1000
Grayscale
1070
   100
1002
}
  0
LINE
  5
1CC34
330
1C9B8
100
AcDbEntity
  8
YODOROGO
100
AcDbLine
 10
13964.80217064596
 20
737.8747482146435
 30
0.0
 11
13950.53250239547
 21
768.1169053488464
 31
0.0
1001
AUTOCAD_POSTSCRIPT_FIGURE
1002
{
1000
PSFILL
1000
Grayscale
1000
Grayscale
1070
   100
1002
}
  0
LINE
  5
1CC35
330
1C9B8
100
AcDbEntity
  8
YODOROGO
100
AcDbLine
 10
13892.80217064596
 20
737.8747482146435
 30
0.0
 11
13964.80217064596
 21
737.8747482146435
 31
0.0
1001
AUTOCAD_POSTSCRIPT_FIGURE
1002
{
1000
PSFILL
1000
Grayscale
1000
Grayscale
1070
   100
1002
}
  0
LINE
  5
1CC36
330
1C9B8
100
AcDbEntity
  8
YODOROGO
100
AcDbLine
 10
13888.80217064596
 20
809.9862070222856
 30
0.0
 11
13888.80217064596
 21
821.986207022285
 31
0.0
  0
LINE
  5
1CC37
330
1C9B8
100
AcDbEntity
  8
YODOROGO
100
AcDbLine
 10
13968.80217064596
 20
821.986207022285
 30
0.0
 11
13968.80217064596
 21
809.9862070222856
 31
0.0
  0
ARC
  5
1CC38
330
1C9B8
100
AcDbEntity
  8
YODOROGO
100
AcDbCircle
 10
14112.97022107348
 20
800.438882662663
 30
0.0
 40
87.99999999999995
100
AcDbArc
 50
280.3644312771313
 51
3.541483659218056
  0
ARC
  5
1CC39
330
1C9B8
100
AcDbEntity
  8
YODOROGO
100
AcDbCircle
 10
14117.87801537965
 20
816.798903480952
 30
0.0
 40
55.99999999999914
100
AcDbArc
 50
281.2490582504155
 51
348.7509417495832
  0
LINE
  5
1CC3A
330
1C9B8
100
AcDbEntity
  8
YODOROGO
100
AcDbLine
 10
14128.80217064596
 20
761.8747482146434
 30
0.0
 11
14128.80217064596
 21
713.8747482146436
 31
0.0
  0
LINE
  5
1CC3B
330
1C9B8
100
AcDbEntity
  8
YODOROGO
100
AcDbLine
 10
14010.04445186845
 20
805.3252825309574
 30
0.0
 11
14020.45660200844
 21
829.874748214644
 31
0.0
  0
LINE
  5
1CC3C
330
1C9B8
100
AcDbEntity
  8
YODOROGO
100
AcDbLine
 10
14020.80217064596
 20
791.5602449742006
 30
0.0
 11
14010.04445186845
 21
805.3252825309574
 31
0.0
  0
LINE
  5
1CC3D
330
1C9B8
100
AcDbEntity
  8
YODOROGO
100
AcDbLine
 10
14020.80217064596
 20
781.5602449741994
 30
0.0
 11
14020.80217064596
 21
791.5602449742006
 31
0.0
  0
LINE
  5
1CC3E
330
1C9B8
100
AcDbEntity
  8
YODOROGO
100
AcDbLine
 10
14008.80217064596
 20
792.6185318747651
 30
0.0
 11
14020.80217064596
 21
781.5602449741994
 31
0.0
  0
LINE
  5
1CC3F
330
1C9B8
100
AcDbEntity
  8
YODOROGO
100
AcDbLine
 10
14008.80217064596
 20
737.8747482146435
 30
0.0
 11
14008.80217064596
 21
792.6185318747651
 31
0.0
  0
LINE
  5
1CC40
330
1C9B8
100
AcDbEntity
  8
YODOROGO
100
AcDbLine
 10
14000.80217064596
 20
737.8747482146435
 30
0.0
 11
14008.80217064596
 21
737.8747482146435
 31
0.0
  0
LINE
  5
1CC41
330
1C9B8
100
AcDbEntity
  8
YODOROGO
100
AcDbLine
 10
14000.80217064596
 20
790.0026748448738
 30
0.0
 11
14000.80217064596
 21
737.8747482146435
 31
0.0
  0
LINE
  5
1CC42
330
1C9B8
100
AcDbEntity
  8
YODOROGO
100
AcDbLine
 10
13988.80217064596
 20
766.3840395167142
 30
0.0
 11
14000.80217064596
 21
790.0026748448738
 31
0.0
  0
LINE
  5
1CC43
330
1C9B8
100
AcDbEntity
  8
YODOROGO
100
AcDbLine
 10
13988.80217064596
 20
778.3840395167149
 30
0.0
 11
13988.80217064596
 21
766.3840395167142
 31
0.0
  0
LINE
  5
1CC44
330
1C9B8
100
AcDbEntity
  8
YODOROGO
100
AcDbLine
 10
14012.91438714567
 20
833.8747482146427
 30
0.0
 11
13988.80217064596
 21
778.3840395167149
 31
0.0
  0
LINE
  5
1CC45
330
1C9B8
100
AcDbEntity
  8
YODOROGO
100
AcDbLine
 10
13988.80217064596
 20
833.8747482146427
 30
0.0
 11
14012.91438714567
 21
833.8747482146427
 31
0.0
  0
LINE
  5
1CC46
330
1C9B8
100
AcDbEntity
  8
YODOROGO
100
AcDbLine
 10
14025.06776011545
 20
827.751818637328
 30
0.0
 11
14041.06776011546
 21
827.751818637328
 31
0.0
1001
AUTOCAD_POSTSCRIPT_FIGURE
1002
{
1000
PSFILL
1000
Grayscale
1000
Grayscale
1070
   100
1002
}
  0
LINE
  5
1CC47
330
1C9B8
100
AcDbEntity
  8
YODOROGO
100
AcDbLine
 10
14025.06776011545
 20
815.7518186373286
 30
0.0
 11
14025.06776011545
 21
827.751818637328
 31
0.0
1001
AUTOCAD_POSTSCRIPT_FIGURE
1002
{
1000
PSFILL
1000
Grayscale
1000
Grayscale
1070
   100
1002
}
  0
LINE
  5
1CC48
330
1C9B8
100
AcDbEntity
  8
YODOROGO
100
AcDbLine
 10
14041.06776011546
 20
815.7518186373286
 30
0.0
 11
14025.06776011545
 21
815.7518186373286
 31
0.0
1001
AUTOCAD_POSTSCRIPT_FIGURE
1002
{
1000
PSFILL
1000
Grayscale
1000
Grayscale
1070
   100
1002
}
  0
LINE
  5
1CC49
330
1C9B8
100
AcDbEntity
  8
YODOROGO
100
AcDbLine
 10
14041.06776011546
 20
749.8747482146441
 30
0.0
 11
14041.06776011546
 21
815.7518186373286
 31
0.0
1001
AUTOCAD_POSTSCRIPT_FIGURE
1002
{
1000
PSFILL
1000
Grayscale
1000
Grayscale
1070
   100
1002
}
  0
LINE
  5
1CC4A
330
1C9B8
100
AcDbEntity
  8
YODOROGO
100
AcDbLine
 10
14025.06776011545
 20
749.8747482146441
 30
0.0
 11
14041.06776011546
 21
749.8747482146441
 31
0.0
1001
AUTOCAD_POSTSCRIPT_FIGURE
1002
{
1000
PSFILL
1000
Grayscale
1000
Grayscale
1070
   100
1002
}
  0
LINE
  5
1CC4B
330
1C9B8
100
AcDbEntity
  8
YODOROGO
100
AcDbLine
 10
14025.06776011545
 20
737.8747482146435
 30
0.0
 11
14025.06776011545
 21
749.8747482146441
 31
0.0
1001
AUTOCAD_POSTSCRIPT_FIGURE
1002
{
1000
PSFILL
1000
Grayscale
1000
Grayscale
1070
   100
1002
}
  0
LINE
  5
1CC4C
330
1C9B8
100
AcDbEntity
  8
YODOROGO
100
AcDbLine
 10
14068.80217064596
 20
737.8747482146435
 30
0.0
 11
14025.06776011545
 21
737.8747482146435
 31
0.0
1001
AUTOCAD_POSTSCRIPT_FIGURE
1002
{
1000
PSFILL
1000
Grayscale
1000
Grayscale
1070
   100
1002
}
  0
LINE
  5
1CC4D
330
1C9B8
100
AcDbEntity
  8
YODOROGO
100
AcDbLine
 10
14068.80217064596
 20
749.8747482146441
 30
0.0
 11
14068.80217064596
 21
737.8747482146435
 31
0.0
1001
AUTOCAD_POSTSCRIPT_FIGURE
1002
{
1000
PSFILL
1000
Grayscale
1000
Grayscale
1070
   100
1002
}
  0
LINE
  5
1CC4E
330
1C9B8
100
AcDbEntity
  8
YODOROGO
100
AcDbLine
 10
14049.06776011545
 20
749.8747482146441
 30
0.0
 11
14068.80217064596
 21
749.8747482146441
 31
0.0
1001
AUTOCAD_POSTSCRIPT_FIGURE
1002
{
1000
PSFILL
1000
Grayscale
1000
Grayscale
1070
   100
1002
}
  0
LINE
  5
1CC4F
330
1C9B8
100
AcDbEntity
  8
YODOROGO
100
AcDbLine
 10
14049.06776011545
 20
815.7518186373286
 30
0.0
 11
14049.06776011545
 21
749.8747482146441
 31
0.0
1001
AUTOCAD_POSTSCRIPT_FIGURE
1002
{
1000
PSFILL
1000
Grayscale
1000
Grayscale
1070
   100
1002
}
  0
LINE
  5
1CC50
330
1C9B8
100
AcDbEntity
  8
YODOROGO
100
AcDbLine
 10
14068.80217064596
 20
815.7518186373286
 30
0.0
 11
14049.06776011545
 21
815.7518186373286
 31
0.0
1001
AUTOCAD_POSTSCRIPT_FIGURE
1002
{
1000
PSFILL
1000
Grayscale
1000
Grayscale
1070
   100
1002
}
  0
LINE
  5
1CC51
330
1C9B8
100
AcDbEntity
  8
YODOROGO
100
AcDbLine
 10
14068.80217064596
 20
827.751818637328
 30
0.0
 11
14068.80217064596
 21
815.7518186373286
 31
0.0
1001
AUTOCAD_POSTSCRIPT_FIGURE
1002
{
1000
PSFILL
1000
Grayscale
1000
Grayscale
1070
   100
1002
}
  0
LINE
  5
1CC52
330
1C9B8
100
AcDbEntity
  8
YODOROGO
100
AcDbLine
 10
14049.06776011545
 20
827.751818637328
 30
0.0
 11
14068.80217064596
 21
827.751818637328
 31
0.0
1001
AUTOCAD_POSTSCRIPT_FIGURE
1002
{
1000
PSFILL
1000
Grayscale
1000
Grayscale
1070
   100
1002
}
  0
LINE
  5
1CC53
330
1C9B8
100
AcDbEntity
  8
YODOROGO
100
AcDbLine
 10
14200.80217064594
 20
833.8747482146439
 30
0.0
 11
14172.80217064596
 21
833.8747482146439
 31
0.0
  0
LINE
  5
1CC54
330
1C9B8
100
AcDbEntity
  8
YODOROGO
100
AcDbLine
 10
14200.80217064594
 20
805.8747482146443
 30
0.0
 11
14200.80217064594
 21
833.8747482146439
 31
0.0
  0
LINE
  5
1CC55
330
1C9B8
100
AcDbEntity
  8
YODOROGO
100
AcDbLine
 10
14172.80217064596
 20
833.8747482146439
 30
0.0
 11
14172.80217064596
 21
805.8747482146443
 31
0.0
  0
ARC
  5
1CC56
330
1C9B8
100
AcDbEntity
  8
YODOROGO
100
AcDbCircle
 10
14256.80217064594
 20
753.8747482146439
 30
0.0
 40
40.0
100
AcDbArc
 50
180.0
 51
270.0
  0
ARC
  5
1CC57
330
1C9B8
100
AcDbEntity
  8
YODOROGO
100
AcDbCircle
 10
14268.80217064594
 20
781.8747482146434
 30
0.0
 40
20.0
100
AcDbArc
 50
180.0
 51
270.0
  0
LINE
  5
1CC58
330
1C9B8
100
AcDbEntity
  8
YODOROGO
100
AcDbLine
 10
14280.80217064596
 20
761.8747482146434
 30
0.0
 11
14268.80217064594
 21
761.8747482146434
 31
0.0
  0
ARC
  5
1CC59
330
1C9B8
100
AcDbEntity
  8
YODOROGO
100
AcDbCircle
 10
14280.80217064596
 20
773.8747482146427
 30
0.0
 40
11.99999999999818
100
AcDbArc
 50
270.0
 51
0.0000000000054281
  0
LINE
  5
1CC5A
330
1C9B8
100
AcDbEntity
  8
YODOROGO
100
AcDbLine
 10
13900.80217064596
 20
945.3932903968532
 30
0.0
 11
13888.80217064596
 21
921.8883739758362
 31
0.0
1001
AUTOCAD_POSTSCRIPT_FIGURE
1002
{
1000
PSFILL
1000
Grayscale
1000
Grayscale
1070
   100
1002
}
  0
LINE
  5
1CC5B
330
1C9B8
100
AcDbEntity
  8
YODOROGO
100
AcDbLine
 10
13900.80217064596
 20
873.8747482146434
 30
0.0
 11
13900.80217064596
 21
945.3932903968532
 31
0.0
1001
AUTOCAD_POSTSCRIPT_FIGURE
1002
{
1000
PSFILL
1000
Grayscale
1000
Grayscale
1070
   100
1002
}
  0
LINE
  5
1CC5C
330
1C9B8
100
AcDbEntity
  8
YODOROGO
100
AcDbLine
 10
13908.80217064596
 20
873.8747482146434
 30
0.0
 11
13900.80217064596
 21
873.8747482146434
 31
0.0
1001
AUTOCAD_POSTSCRIPT_FIGURE
1002
{
1000
PSFILL
1000
Grayscale
1000
Grayscale
1070
   100
1002
}
  0
LINE
  5
1CC5D
330
1C9B8
100
AcDbEntity
  8
YODOROGO
100
AcDbLine
 10
13908.80217064596
 20
946.8856660426332
 30
0.0
 11
13908.80217064596
 21
873.8747482146434
 31
0.0
1001
AUTOCAD_POSTSCRIPT_FIGURE
1002
{
1000
PSFILL
1000
Grayscale
1000
Grayscale
1070
   100
1002
}
  0
LINE
  5
1CC5E
330
1C9B8
100
AcDbEntity
  8
YODOROGO
100
AcDbLine
 10
13920.80217064596
 20
933.8273791420684
 30
0.0
 11
13908.80217064596
 21
946.8856660426332
 31
0.0
1001
AUTOCAD_POSTSCRIPT_FIGURE
1002
{
1000
PSFILL
1000
Grayscale
1000
Grayscale
1070
   100
1002
}
  0
LINE
  5
1CC5F
330
1C9B8
100
AcDbEntity
  8
YODOROGO
100
AcDbLine
 10
13920.80217064596
 20
941.8273791420681
 30
0.0
 11
13920.80217064596
 21
933.8273791420684
 31
0.0
1001
AUTOCAD_POSTSCRIPT_FIGURE
1002
{
1000
PSFILL
1000
Grayscale
1000
Grayscale
1070
   100
1002
}
  0
LINE
  5
1CC60
330
1C9B8
100
AcDbEntity
  8
YODOROGO
100
AcDbLine
 10
13908.80217064596
 20
958.8856660426325
 30
0.0
 11
13920.80217064596
 21
941.8273791420681
 31
0.0
1001
AUTOCAD_POSTSCRIPT_FIGURE
1002
{
1000
PSFILL
1000
Grayscale
1000
Grayscale
1070
   100
1002
}
  0
LINE
  5
1CC61
330
1C9B8
100
AcDbEntity
  8
YODOROGO
100
AcDbLine
 10
13908.80217064596
 20
969.8747482146441
 30
0.0
 11
13908.80217064596
 21
958.8856660426325
 31
0.0
1001
AUTOCAD_POSTSCRIPT_FIGURE
1002
{
1000
PSFILL
1000
Grayscale
1000
Grayscale
1070
   100
1002
}
  0
LINE
  5
1CC62
330
1C9B8
100
AcDbEntity
  8
YODOROGO
100
AcDbLine
 10
13944.80217064596
 20
969.8747482146441
 30
0.0
 11
13908.80217064596
 21
969.8747482146441
 31
0.0
1001
AUTOCAD_POSTSCRIPT_FIGURE
1002
{
1000
PSFILL
1000
Grayscale
1000
Grayscale
1070
   100
1002
}
  0
LINE
  5
1CC63
330
1C9B8
100
AcDbEntity
  8
YODOROGO
100
AcDbLine
 10
13944.80217064596
 20
950.2841744681497
 30
0.0
 11
13944.80217064596
 21
969.8747482146441
 31
0.0
1001
AUTOCAD_POSTSCRIPT_FIGURE
1002
{
1000
PSFILL
1000
Grayscale
1000
Grayscale
1070
   100
1002
}
  0
LINE
  5
1CC64
330
1C9B8
100
AcDbEntity
  8
YODOROGO
100
AcDbLine
 10
13928.80217064596
 20
950.2841744681497
 30
0.0
 11
13944.80217064596
 21
950.2841744681497
 31
0.0
1001
AUTOCAD_POSTSCRIPT_FIGURE
1002
{
1000
PSFILL
1000
Grayscale
1000
Grayscale
1070
   100
1002
}
  0
LINE
  5
1CC65
330
1C9B8
100
AcDbEntity
  8
YODOROGO
100
AcDbLine
 10
13928.80217064596
 20
942.2841744681491
 30
0.0
 11
13928.80217064596
 21
950.2841744681497
 31
0.0
1001
AUTOCAD_POSTSCRIPT_FIGURE
1002
{
1000
PSFILL
1000
Grayscale
1000
Grayscale
1070
   100
1002
}
  0
LINE
  5
1CC66
330
1C9B8
100
AcDbEntity
  8
YODOROGO
100
AcDbLine
 10
13944.80217064596
 20
942.2841744681491
 30
0.0
 11
13928.80217064596
 21
942.2841744681491
 31
0.0
1001
AUTOCAD_POSTSCRIPT_FIGURE
1002
{
1000
PSFILL
1000
Grayscale
1000
Grayscale
1070
   100
1002
}
  0
LINE
  5
1CC67
330
1C9B8
100
AcDbEntity
  8
YODOROGO
100
AcDbLine
 10
13944.80217064596
 20
939.8095889822196
 30
0.0
 11
13944.80217064596
 21
942.2841744681491
 31
0.0
1001
AUTOCAD_POSTSCRIPT_FIGURE
1002
{
1000
PSFILL
1000
Grayscale
1000
Grayscale
1070
   100
1002
}
  0
LINE
  5
1CC68
330
1C9B8
100
AcDbEntity
  8
YODOROGO
100
AcDbLine
 10
13924.80217064596
 20
906.4874905807087
 30
0.0
 11
13944.80217064596
 21
939.8095889822196
 31
0.0
1001
AUTOCAD_POSTSCRIPT_FIGURE
1002
{
1000
PSFILL
1000
Grayscale
1000
Grayscale
1070
   100
1002
}
  0
LINE
  5
1CC69
330
1C9B8
100
AcDbEntity
  8
YODOROGO
100
AcDbLine
 10
13924.80217064596
 20
898.487490580708
 30
0.0
 11
13924.80217064596
 21
906.4874905807087
 31
0.0
1001
AUTOCAD_POSTSCRIPT_FIGURE
1002
{
1000
PSFILL
1000
Grayscale
1000
Grayscale
1070
   100
1002
}
  0
LINE
  5
1CC6A
330
1C9B8
100
AcDbEntity
  8
YODOROGO
100
AcDbLine
 10
13944.80217064596
 20
923.8095889822183
 30
0.0
 11
13924.80217064596
 21
898.487490580708
 31
0.0
1001
AUTOCAD_POSTSCRIPT_FIGURE
1002
{
1000
PSFILL
1000
Grayscale
1000
Grayscale
1070
   100
1002
}
  0
LINE
  5
1CC6B
330
1C9B8
100
AcDbEntity
  8
YODOROGO
100
AcDbLine
 10
13944.80217064596
 20
873.8747482146434
 30
0.0
 11
13944.80217064596
 21
923.8095889822183
 31
0.0
1001
AUTOCAD_POSTSCRIPT_FIGURE
1002
{
1000
PSFILL
1000
Grayscale
1000
Grayscale
1070
   100
1002
}
  0
LINE
  5
1CC6C
330
1C9B8
100
AcDbEntity
  8
YODOROGO
100
AcDbLine
 10
13952.80217064596
 20
873.8747482146434
 30
0.0
 11
13944.80217064596
 21
873.8747482146434
 31
0.0
1001
AUTOCAD_POSTSCRIPT_FIGURE
1002
{
1000
PSFILL
1000
Grayscale
1000
Grayscale
1070
   100
1002
}
  0
LINE
  5
1CC6D
330
1C9B8
100
AcDbEntity
  8
YODOROGO
100
AcDbLine
 10
13952.80217064596
 20
924.7045060794032
 30
0.0
 11
13952.80217064596
 21
873.8747482146434
 31
0.0
1001
AUTOCAD_POSTSCRIPT_FIGURE
1002
{
1000
PSFILL
1000
Grayscale
1000
Grayscale
1070
   100
1002
}
  0
LINE
  5
1CC6E
330
1C9B8
100
AcDbEntity
  8
YODOROGO
100
AcDbLine
 10
13968.80217064596
 20
898.487490580708
 30
0.0
 11
13952.80217064596
 21
924.7045060794032
 31
0.0
1001
AUTOCAD_POSTSCRIPT_FIGURE
1002
{
1000
PSFILL
1000
Grayscale
1000
Grayscale
1070
   100
1002
}
  0
LINE
  5
1CC6F
330
1C9B8
100
AcDbEntity
  8
YODOROGO
100
AcDbLine
 10
13968.80217064596
 20
906.4874905807087
 30
0.0
 11
13968.80217064596
 21
898.487490580708
 31
0.0
1001
AUTOCAD_POSTSCRIPT_FIGURE
1002
{
1000
PSFILL
1000
Grayscale
1000
Grayscale
1070
   100
1002
}
  0
LINE
  5
1CC70
330
1C9B8
100
AcDbEntity
  8
YODOROGO
100
AcDbLine
 10
13952.80217064596
 20
940.7045060794041
 30
0.0
 11
13968.80217064596
 21
906.4874905807087
 31
0.0
1001
AUTOCAD_POSTSCRIPT_FIGURE
1002
{
1000
PSFILL
1000
Grayscale
1000
Grayscale
1070
   100
1002
}
  0
LINE
  5
1CC71
330
1C9B8
100
AcDbEntity
  8
YODOROGO
100
AcDbLine
 10
13952.80217064596
 20
942.2841744681502
 30
0.0
 11
13952.80217064596
 21
940.7045060794041
 31
0.0
1001
AUTOCAD_POSTSCRIPT_FIGURE
1002
{
1000
PSFILL
1000
Grayscale
1000
Grayscale
1070
   100
1002
}
  0
LINE
  5
1CC72
330
1C9B8
100
AcDbEntity
  8
YODOROGO
100
AcDbLine
 10
13968.80217064596
 20
942.2841744681491
 30
0.0
 11
13952.80217064596
 21
942.2841744681502
 31
0.0
1001
AUTOCAD_POSTSCRIPT_FIGURE
1002
{
1000
PSFILL
1000
Grayscale
1000
Grayscale
1070
   100
1002
}
  0
LINE
  5
1CC73
330
1C9B8
100
AcDbEntity
  8
YODOROGO
100
AcDbLine
 10
13968.80217064596
 20
950.2841744681497
 30
0.0
 11
13968.80217064596
 21
942.2841744681491
 31
0.0
1001
AUTOCAD_POSTSCRIPT_FIGURE
1002
{
1000
PSFILL
1000
Grayscale
1000
Grayscale
1070
   100
1002
}
  0
LINE
  5
1CC74
330
1C9B8
100
AcDbEntity
  8
YODOROGO
100
AcDbLine
 10
13952.80217064596
 20
950.2841744681497
 30
0.0
 11
13968.80217064596
 21
950.2841744681497
 31
0.0
1001
AUTOCAD_POSTSCRIPT_FIGURE
1002
{
1000
PSFILL
1000
Grayscale
1000
Grayscale
1070
   100
1002
}
  0
LINE
  5
1CC75
330
1C9B8
100
AcDbEntity
  8
YODOROGO
100
AcDbLine
 10
13952.80217064596
 20
969.8747482146441
 30
0.0
 11
13952.80217064596
 21
950.2841744681497
 31
0.0
1001
AUTOCAD_POSTSCRIPT_FIGURE
1002
{
1000
PSFILL
1000
Grayscale
1000
Grayscale
1070
   100
1002
}
  0
LINE
  5
1CC76
330
1C9B8
100
AcDbEntity
  8
YODOROGO
100
AcDbLine
 10
13968.80217064596
 20
969.8747482146441
 30
0.0
 11
13952.80217064596
 21
969.8747482146441
 31
0.0
1001
AUTOCAD_POSTSCRIPT_FIGURE
1002
{
1000
PSFILL
1000
Grayscale
1000
Grayscale
1070
   100
1002
}
  0
LINE
  5
1CC77
330
1C9B8
100
AcDbEntity
  8
YODOROGO
100
AcDbLine
 10
13968.80217064596
 20
977.8747482146435
 30
0.0
 11
13968.80217064596
 21
969.8747482146441
 31
0.0
1001
AUTOCAD_POSTSCRIPT_FIGURE
1002
{
1000
PSFILL
1000
Grayscale
1000
Grayscale
1070
   100
1002
}
  0
LINE
  5
1CC78
330
1C9B8
100
AcDbEntity
  8
YODOROGO
100
AcDbLine
 10
13952.80217064596
 20
977.8747482146435
 30
0.0
 11
13968.80217064596
 21
977.8747482146435
 31
0.0
1001
AUTOCAD_POSTSCRIPT_FIGURE
1002
{
1000
PSFILL
1000
Grayscale
1000
Grayscale
1070
   100
1002
}
  0
LINE
  5
1CC79
330
1C9B8
100
AcDbEntity
  8
YODOROGO
100
AcDbLine
 10
13952.80217064596
 20
989.8747482146442
 30
0.0
 11
13952.80217064596
 21
977.8747482146435
 31
0.0
1001
AUTOCAD_POSTSCRIPT_FIGURE
1002
{
1000
PSFILL
1000
Grayscale
1000
Grayscale
1070
   100
1002
}
  0
LINE
  5
1CC7A
330
1C9B8
100
AcDbEntity
  8
YODOROGO
100
AcDbLine
 10
13944.80217064596
 20
989.8747482146442
 30
0.0
 11
13952.80217064596
 21
989.8747482146442
 31
0.0
1001
AUTOCAD_POSTSCRIPT_FIGURE
1002
{
1000
PSFILL
1000
Grayscale
1000
Grayscale
1070
   100
1002
}
  0
LINE
  5
1CC7B
330
1C9B8
100
AcDbEntity
  8
YODOROGO
100
AcDbLine
 10
13944.80217064596
 20
977.8747482146435
 30
0.0
 11
13944.80217064596
 21
989.8747482146442
 31
0.0
1001
AUTOCAD_POSTSCRIPT_FIGURE
1002
{
1000
PSFILL
1000
Grayscale
1000
Grayscale
1070
   100
1002
}
  0
LINE
  5
1CC7C
330
1C9B8
100
AcDbEntity
  8
YODOROGO
100
AcDbLine
 10
13932.80217064596
 20
977.8747482146435
 30
0.0
 11
13944.80217064596
 21
977.8747482146435
 31
0.0
1001
AUTOCAD_POSTSCRIPT_FIGURE
1002
{
1000
PSFILL
1000
Grayscale
1000
Grayscale
1070
   100
1002
}
  0
LINE
  5
1CC7D
330
1C9B8
100
AcDbEntity
  8
YODOROGO
100
AcDbLine
 10
13932.80217064596
 20
989.8747482146442
 30
0.0
 11
13932.80217064596
 21
977.8747482146435
 31
0.0
1001
AUTOCAD_POSTSCRIPT_FIGURE
1002
{
1000
PSFILL
1000
Grayscale
1000
Grayscale
1070
   100
1002
}
  0
LINE
  5
1CC7E
330
1C9B8
100
AcDbEntity
  8
YODOROGO
100
AcDbLine
 10
13924.80217064596
 20
989.8747482146442
 30
0.0
 11
13932.80217064596
 21
989.8747482146442
 31
0.0
1001
AUTOCAD_POSTSCRIPT_FIGURE
1002
{
1000
PSFILL
1000
Grayscale
1000
Grayscale
1070
   100
1002
}
  0
LINE
  5
1CC7F
330
1C9B8
100
AcDbEntity
  8
YODOROGO
100
AcDbLine
 10
13924.80217064596
 20
977.8747482146435
 30
0.0
 11
13924.80217064596
 21
989.8747482146442
 31
0.0
1001
AUTOCAD_POSTSCRIPT_FIGURE
1002
{
1000
PSFILL
1000
Grayscale
1000
Grayscale
1070
   100
1002
}
  0
LINE
  5
1CC80
330
1C9B8
100
AcDbEntity
  8
YODOROGO
100
AcDbLine
 10
13908.80217064596
 20
977.8747482146435
 30
0.0
 11
13924.80217064596
 21
977.8747482146435
 31
0.0
1001
AUTOCAD_POSTSCRIPT_FIGURE
1002
{
1000
PSFILL
1000
Grayscale
1000
Grayscale
1070
   100
1002
}
  0
LINE
  5
1CC81
330
1C9B8
100
AcDbEntity
  8
YODOROGO
100
AcDbLine
 10
13908.80217064596
 20
989.8747482146442
 30
0.0
 11
13908.80217064596
 21
977.8747482146435
 31
0.0
1001
AUTOCAD_POSTSCRIPT_FIGURE
1002
{
1000
PSFILL
1000
Grayscale
1000
Grayscale
1070
   100
1002
}
  0
LINE
  5
1CC82
330
1C9B8
100
AcDbEntity
  8
YODOROGO
100
AcDbLine
 10
13900.80217064596
 20
989.8747482146442
 30
0.0
 11
13908.80217064596
 21
989.8747482146442
 31
0.0
1001
AUTOCAD_POSTSCRIPT_FIGURE
1002
{
1000
PSFILL
1000
Grayscale
1000
Grayscale
1070
   100
1002
}
  0
LINE
  5
1CC83
330
1C9B8
100
AcDbEntity
  8
YODOROGO
100
AcDbLine
 10
13900.80217064596
 20
977.8747482146435
 30
0.0
 11
13900.80217064596
 21
989.8747482146442
 31
0.0
1001
AUTOCAD_POSTSCRIPT_FIGURE
1002
{
1000
PSFILL
1000
Grayscale
1000
Grayscale
1070
   100
1002
}
  0
LINE
  5
1CC84
330
1C9B8
100
AcDbEntity
  8
YODOROGO
100
AcDbLine
 10
13888.80217064596
 20
977.8747482146435
 30
0.0
 11
13900.80217064596
 21
977.8747482146435
 31
0.0
1001
AUTOCAD_POSTSCRIPT_FIGURE
1002
{
1000
PSFILL
1000
Grayscale
1000
Grayscale
1070
   100
1002
}
  0
LINE
  5
1CC85
330
1C9B8
100
AcDbEntity
  8
YODOROGO
100
AcDbLine
 10
13888.80217064596
 20
969.8747482146441
 30
0.0
 11
13888.80217064596
 21
977.8747482146435
 31
0.0
1001
AUTOCAD_POSTSCRIPT_FIGURE
1002
{
1000
PSFILL
1000
Grayscale
1000
Grayscale
1070
   100
1002
}
  0
LINE
  5
1CC86
330
1C9B8
100
AcDbEntity
  8
YODOROGO
100
AcDbLine
 10
13900.80217064596
 20
969.8747482146441
 30
0.0
 11
13888.80217064596
 21
969.8747482146441
 31
0.0
1001
AUTOCAD_POSTSCRIPT_FIGURE
1002
{
1000
PSFILL
1000
Grayscale
1000
Grayscale
1070
   100
1002
}
  0
LINE
  5
1CC87
330
1C9B8
100
AcDbEntity
  8
YODOROGO
100
AcDbLine
 10
13900.80217064596
 20
957.3932903968525
 30
0.0
 11
13900.80217064596
 21
969.8747482146441
 31
0.0
1001
AUTOCAD_POSTSCRIPT_FIGURE
1002
{
1000
PSFILL
1000
Grayscale
1000
Grayscale
1070
   100
1002
}
  0
LINE
  5
1CC88
330
1C9B8
100
AcDbEntity
  8
YODOROGO
100
AcDbLine
 10
13888.80217064596
 20
929.8883739758355
 30
0.0
 11
13900.80217064596
 21
957.3932903968525
 31
0.0
1001
AUTOCAD_POSTSCRIPT_FIGURE
1002
{
1000
PSFILL
1000
Grayscale
1000
Grayscale
1070
   100
1002
}
  0
LINE
  5
1CC89
330
1C9B8
100
AcDbEntity
  8
YODOROGO
100
AcDbLine
 10
13888.80217064596
 20
921.8883739758362
 30
0.0
 11
13888.80217064596
 21
929.8883739758355
 31
0.0
1001
AUTOCAD_POSTSCRIPT_FIGURE
1002
{
1000
PSFILL
1000
Grayscale
1000
Grayscale
1070
   100
1002
}
  0
LINE
  5
1CC8A
330
1C9B8
100
AcDbEntity
  8
YODOROGO
100
AcDbLine
 10
14128.80217064596
 20
933.8747482146439
 30
0.0
 11
14200.80217064594
 21
912.4388128201532
 31
0.0
1001
AUTOCAD_POSTSCRIPT_FIGURE
1002
{
1000
PSFILL
1000
Grayscale
1000
Grayscale
1070
   100
1002
}
  0
LINE
  5
1CC8B
330
1C9B8
100
AcDbEntity
  8
YODOROGO
100
AcDbLine
 10
14200.80217064594
 20
876.4388128201531
 30
0.0
 11
14128.80217064596
 21
897.8747482146435
 31
0.0
1001
AUTOCAD_POSTSCRIPT_FIGURE
1002
{
1000
PSFILL
1000
Grayscale
1000
Grayscale
1070
   100
1002
}
  0
LINE
  5
1CC8C
330
1C9B8
100
AcDbEntity
  8
YODOROGO
100
AcDbLine
 10
14200.80217064594
 20
992.4388128201531
 30
0.0
 11
14128.80217064596
 21
1013.874748214644
 31
0.0
1001
AUTOCAD_POSTSCRIPT_FIGURE
1002
{
1000
PSFILL
1000
Grayscale
1000
Grayscale
1070
   100
1002
}
  0
LINE
  5
1CC8D
330
1C9B8
100
AcDbEntity
  8
YODOROGO
100
AcDbLine
 10
14128.80217064596
 20
979.874748214644
 30
0.0
 11
14200.80217064594
 21
958.4388128201537
 31
0.0
1001
AUTOCAD_POSTSCRIPT_FIGURE
1002
{
1000
PSFILL
1000
Grayscale
1000
Grayscale
1070
   100
1002
}
  0
LINE
  5
1CC8E
330
1C9B8
100
AcDbEntity
  8
YODOROGO
100
AcDbLine
 10
14128.80217064596
 20
897.8747482146435
 30
0.0
 11
14128.80217064596
 21
933.8747482146439
 31
0.0
1001
AUTOCAD_POSTSCRIPT_FIGURE
1002
{
1000
PSFILL
1000
Grayscale
1000
Grayscale
1070
   100
1002
}
  0
LINE
  5
1CC8F
330
1C9B8
100
AcDbEntity
  8
YODOROGO
100
AcDbLine
 10
14128.80217064596
 20
1013.874748214644
 30
0.0
 11
14128.80217064596
 21
979.874748214644
 31
0.0
1001
AUTOCAD_POSTSCRIPT_FIGURE
1002
{
1000
PSFILL
1000
Grayscale
1000
Grayscale
1070
   100
1002
}
  0
LINE
  5
1CC90
330
1C9B8
100
AcDbEntity
  8
YODOROGO
100
AcDbLine
 10
14040.11816010337
 20
969.8747482146441
 30
0.0
 11
14064.80217064595
 21
873.8747482146434
 31
0.0
1001
AUTOCAD_POSTSCRIPT_FIGURE
1002
{
1000
PSFILL
1000
Grayscale
1000
Grayscale
1070
   100
1002
}
  0
LINE
  5
1CC91
330
1C9B8
100
AcDbEntity
  8
YODOROGO
100
AcDbLine
 10
13988.80217064596
 20
969.8747482146441
 30
0.0
 11
14040.11816010337
 21
969.8747482146441
 31
0.0
1001
AUTOCAD_POSTSCRIPT_FIGURE
1002
{
1000
PSFILL
1000
Grayscale
1000
Grayscale
1070
   100
1002
}
  0
LINE
  5
1CC92
330
1C9B8
100
AcDbEntity
  8
YODOROGO
100
AcDbLine
 10
13988.80217064596
 20
977.8747482146435
 30
0.0
 11
13988.80217064596
 21
969.8747482146441
 31
0.0
1001
AUTOCAD_POSTSCRIPT_FIGURE
1002
{
1000
PSFILL
1000
Grayscale
1000
Grayscale
1070
   100
1002
}
  0
LINE
  5
1CC93
330
1C9B8
100
AcDbEntity
  8
YODOROGO
100
AcDbLine
 10
14038.30343925995
 20
977.8747482146435
 30
0.0
 11
13988.80217064596
 21
977.8747482146435
 31
0.0
1001
AUTOCAD_POSTSCRIPT_FIGURE
1002
{
1000
PSFILL
1000
Grayscale
1000
Grayscale
1070
   100
1002
}
  0
LINE
  5
1CC94
330
1C9B8
100
AcDbEntity
  8
YODOROGO
100
AcDbLine
 10
14035.58135799485
 20
989.8747482146442
 30
0.0
 11
14038.30343925995
 21
977.8747482146435
 31
0.0
1001
AUTOCAD_POSTSCRIPT_FIGURE
1002
{
1000
PSFILL
1000
Grayscale
1000
Grayscale
1070
   100
1002
}
  0
LINE
  5
1CC95
330
1C9B8
100
AcDbEntity
  8
YODOROGO
100
AcDbLine
 10
14045.58135799485
 20
989.8747482146442
 30
0.0
 11
14035.58135799485
 21
989.8747482146442
 31
0.0
1001
AUTOCAD_POSTSCRIPT_FIGURE
1002
{
1000
PSFILL
1000
Grayscale
1000
Grayscale
1070
   100
1002
}
  0
LINE
  5
1CC96
330
1C9B8
100
AcDbEntity
  8
YODOROGO
100
AcDbLine
 10
14047.90343925997
 20
977.8747482146435
 30
0.0
 11
14045.58135799485
 21
989.8747482146442
 31
0.0
1001
AUTOCAD_POSTSCRIPT_FIGURE
1002
{
1000
PSFILL
1000
Grayscale
1000
Grayscale
1070
   100
1002
}
  0
LINE
  5
1CC97
330
1C9B8
100
AcDbEntity
  8
YODOROGO
100
AcDbLine
 10
14060.80217064596
 20
977.8747482146435
 30
0.0
 11
14047.90343925997
 21
977.8747482146435
 31
0.0
1001
AUTOCAD_POSTSCRIPT_FIGURE
1002
{
1000
PSFILL
1000
Grayscale
1000
Grayscale
1070
   100
1002
}
  0
LINE
  5
1CC98
330
1C9B8
100
AcDbEntity
  8
YODOROGO
100
AcDbLine
 10
14060.80217064596
 20
989.8747482146442
 30
0.0
 11
14060.80217064596
 21
977.8747482146435
 31
0.0
1001
AUTOCAD_POSTSCRIPT_FIGURE
1002
{
1000
PSFILL
1000
Grayscale
1000
Grayscale
1070
   100
1002
}
  0
LINE
  5
1CC99
330
1C9B8
100
AcDbEntity
  8
YODOROGO
100
AcDbLine
 10
14068.80217064596
 20
989.8747482146442
 30
0.0
 11
14060.80217064596
 21
989.8747482146442
 31
0.0
1001
AUTOCAD_POSTSCRIPT_FIGURE
1002
{
1000
PSFILL
1000
Grayscale
1000
Grayscale
1070
   100
1002
}
  0
LINE
  5
1CC9A
330
1C9B8
100
AcDbEntity
  8
YODOROGO
100
AcDbLine
 10
14068.80217064596
 20
977.8747482146435
 30
0.0
 11
14068.80217064596
 21
989.8747482146442
 31
0.0
1001
AUTOCAD_POSTSCRIPT_FIGURE
1002
{
1000
PSFILL
1000
Grayscale
1000
Grayscale
1070
   100
1002
}
  0
LINE
  5
1CC9B
330
1C9B8
100
AcDbEntity
  8
YODOROGO
100
AcDbLine
 10
14068.80217064596
 20
969.8747482146441
 30
0.0
 11
14068.80217064596
 21
977.8747482146435
 31
0.0
1001
AUTOCAD_POSTSCRIPT_FIGURE
1002
{
1000
PSFILL
1000
Grayscale
1000
Grayscale
1070
   100
1002
}
  0
LINE
  5
1CC9C
330
1C9B8
100
AcDbEntity
  8
YODOROGO
100
AcDbLine
 10
14049.45149343671
 20
969.8747482146441
 30
0.0
 11
14068.80217064596
 21
969.8747482146441
 31
0.0
1001
AUTOCAD_POSTSCRIPT_FIGURE
1002
{
1000
PSFILL
1000
Grayscale
1000
Grayscale
1070
   100
1002
}
  0
LINE
  5
1CC9D
330
1C9B8
100
AcDbEntity
  8
YODOROGO
100
AcDbLine
 10
14068.80217064596
 20
873.8747482146434
 30
0.0
 11
14049.45149343671
 21
969.8747482146441
 31
0.0
1001
AUTOCAD_POSTSCRIPT_FIGURE
1002
{
1000
PSFILL
1000
Grayscale
1000
Grayscale
1070
   100
1002
}
  0
LINE
  5
1CC9E
330
1C9B8
100
AcDbEntity
  8
YODOROGO
100
AcDbLine
 10
14064.80217064595
 20
873.8747482146434
 30
0.0
 11
14068.80217064596
 21
873.8747482146434
 31
0.0
1001
AUTOCAD_POSTSCRIPT_FIGURE
1002
{
1000
PSFILL
1000
Grayscale
1000
Grayscale
1070
   100
1002
}
  0
LINE
  5
1CC9F
330
1C9B8
100
AcDbEntity
  8
YODOROGO
100
AcDbLine
 10
14039.03460996689
 20
887.8703881493972
 30
0.0
 11
13988.80217064596
 21
873.8747482146434
 31
0.0
  0
LINE
  5
1CCA0
330
1C9B8
100
AcDbEntity
  8
YODOROGO
100
AcDbLine
 10
14039.03460996689
 20
899.3344897645364
 30
0.0
 11
14039.03460996689
 21
887.8703881493972
 31
0.0
  0
LINE
  5
1CCA1
330
1C9B8
100
AcDbEntity
  8
YODOROGO
100
AcDbLine
 10
14016.91839030643
 20
893.4084665668834
 30
0.0
 11
14039.03460996689
 21
899.3344897645364
 31
0.0
  0
LINE
  5
1CCA2
330
1C9B8
100
AcDbEntity
  8
YODOROGO
100
AcDbLine
 10
14016.91839030643
 20
936.2841744681499
 30
0.0
 11
14016.91839030643
 21
893.4084665668834
 31
0.0
  0
LINE
  5
1CCA3
330
1C9B8
100
AcDbEntity
  8
YODOROGO
100
AcDbLine
 10
14039.03460996689
 20
936.2841744681499
 30
0.0
 11
14016.91839030643
 21
936.2841744681499
 31
0.0
  0
LINE
  5
1CCA4
330
1C9B8
100
AcDbEntity
  8
YODOROGO
100
AcDbLine
 10
14039.03460996689
 20
946.2841744681487
 30
0.0
 11
14039.03460996689
 21
936.2841744681499
 31
0.0
  0
LINE
  5
1CCA5
330
1C9B8
100
AcDbEntity
  8
YODOROGO
100
AcDbLine
 10
13988.80217064596
 20
946.2841744681487
 30
0.0
 11
14039.03460996689
 21
946.2841744681487
 31
0.0
  0
LINE
  5
1CCA6
330
1C9B8
100
AcDbEntity
  8
YODOROGO
100
AcDbLine
 10
13988.80217064596
 20
936.2841744681499
 30
0.0
 11
13988.80217064596
 21
946.2841744681487
 31
0.0
  0
LINE
  5
1CCA7
330
1C9B8
100
AcDbEntity
  8
YODOROGO
100
AcDbLine
 10
14010.91839030643
 20
936.2841744681499
 30
0.0
 11
13988.80217064596
 21
936.2841744681499
 31
0.0
  0
LINE
  5
1CCA8
330
1C9B8
100
AcDbEntity
  8
YODOROGO
100
AcDbLine
 10
14010.91839030643
 20
892.3366697971587
 30
0.0
 11
14010.91839030643
 21
936.2841744681499
 31
0.0
  0
LINE
  5
1CCA9
330
1C9B8
100
AcDbEntity
  8
YODOROGO
100
AcDbLine
 10
13988.80217064596
 20
885.8747482146432
 30
0.0
 11
14010.91839030643
 21
892.3366697971587
 31
0.0
  0
LINE
  5
1CCAA
330
1C9B8
100
AcDbEntity
  8
YODOROGO
100
AcDbLine
 10
13988.80217064596
 20
873.8747482146434
 30
0.0
 11
13988.80217064596
 21
885.8747482146432
 31
0.0
  0
LINE
  5
1CCAB
330
1C9B8
100
AcDbEntity
  8
YODOROGO
100
AcDbLine
 10
14000.80217064596
 20
853.874748214644
 30
0.0
 11
14000.80217064596
 21
841.8747482146434
 31
0.0
  0
LINE
  5
1CCAC
330
1C9B8
100
AcDbEntity
  8
YODOROGO
100
AcDbLine
 10
14000.80217064596
 20
853.874748214644
 30
0.0
 11
14000.80217064596
 21
853.874748214644
 31
0.0
  0
LINE
  5
1CCAD
330
1C9B8
100
AcDbEntity
  8
YODOROGO
100
AcDbLine
 10
14008.80217064596
 20
853.874748214644
 30
0.0
 11
14000.80217064596
 21
853.874748214644
 31
0.0
  0
LINE
  5
1CCAE
330
1C9B8
100
AcDbEntity
  8
YODOROGO
100
AcDbLine
 10
14008.80217064596
 20
841.8747482146434
 30
0.0
 11
14008.80217064596
 21
853.874748214644
 31
0.0
  0
LINE
  5
1CCAF
330
1C9B8
100
AcDbEntity
  8
YODOROGO
100
AcDbLine
 10
14020.45660200844
 20
841.8747482146434
 30
0.0
 11
14008.80217064596
 21
841.8747482146434
 31
0.0
  0
LINE
  5
1CCB0
330
1C9B8
100
AcDbEntity
  8
YODOROGO
100
AcDbLine
 10
14000.80217064596
 20
841.8747482146434
 30
0.0
 11
13988.80217064596
 21
841.8747482146434
 31
0.0
  0
LINE
  5
1CCB1
330
1C9B8
100
AcDbEntity
  8
YODOROGO
100
AcDbLine
 10
14041.06776011546
 20
853.874748214644
 30
0.0
 11
14049.06776011545
 21
853.874748214644
 31
0.0
1001
AUTOCAD_POSTSCRIPT_FIGURE
1002
{
1000
PSFILL
1000
Grayscale
1000
Grayscale
1070
   100
1002
}
  0
LINE
  5
1CCB2
330
1C9B8
100
AcDbEntity
  8
YODOROGO
100
AcDbLine
 10
14200.80217064594
 20
912.4388128201532
 30
0.0
 11
14200.80217064594
 21
876.4388128201531
 31
0.0
1001
AUTOCAD_POSTSCRIPT_FIGURE
1002
{
1000
PSFILL
1000
Grayscale
1000
Grayscale
1070
   100
1002
}
  0
LINE
  5
1CCB3
330
1C9B8
100
AcDbEntity
  8
YODOROGO
100
AcDbLine
 10
14200.80217064594
 20
958.4388128201537
 30
0.0
 11
14200.80217064594
 21
992.4388128201531
 31
0.0
1001
AUTOCAD_POSTSCRIPT_FIGURE
1002
{
1000
PSFILL
1000
Grayscale
1000
Grayscale
1070
   100
1002
}
  0
LINE
  5
1CCB4
330
1C9B8
100
AcDbEntity
  8
YODOROGO
100
AcDbLine
 10
14216.80217064594
 20
909.8747482146439
 30
0.0
 11
14216.80217064594
 21
873.8747482146449
 31
0.0
  0
LINE
  5
1CCB5
330
1C9B8
100
AcDbEntity
  8
YODOROGO
100
AcDbLine
 10
14248.80217064594
 20
853.874748214644
 30
0.0
 11
14216.80217064594
 21
853.874748214644
 31
0.0
  0
LINE
  5
1CCB6
330
1C9B8
100
AcDbEntity
  8
YODOROGO
100
AcDbLine
 10
14216.80217064594
 20
873.8747482146449
 30
0.0
 11
14292.80217064596
 21
873.8747482146449
 31
0.0
  0
LINE
  5
1CCB7
330
1C9B8
100
AcDbEntity
  8
YODOROGO
100
AcDbLine
 10
14248.80217064594
 20
933.8747482146439
 30
0.0
 11
14216.80217064594
 21
933.8747482146439
 31
0.0
  0
LINE
  5
1CCB8
330
1C9B8
100
AcDbEntity
  8
YODOROGO
100
AcDbLine
 10
14248.80217064594
 20
961.8747482146432
 30
0.0
 11
14248.80217064594
 21
933.8747482146439
 31
0.0
  0
LINE
  5
1CCB9
330
1C9B8
100
AcDbEntity
  8
YODOROGO
100
AcDbLine
 10
14292.80217064596
 20
993.8747482146439
 30
0.0
 11
14292.80217064596
 21
1013.874748214644
 31
0.0
  0
LINE
  5
1CCBA
330
1C9B8
100
AcDbEntity
  8
YODOROGO
100
AcDbLine
 10
14216.80217064594
 20
993.8747482146439
 30
0.0
 11
14292.80217064596
 21
993.8747482146439
 31
0.0
  0
LINE
  5
1CCBB
330
1C9B8
100
AcDbEntity
  8
YODOROGO
100
AcDbLine
 10
14216.80217064594
 20
933.8747482146439
 30
0.0
 11
14216.80217064594
 21
993.8747482146439
 31
0.0
  0
LINE
  5
1CCBC
330
1C9B8
100
AcDbEntity
  8
YODOROGO
100
AcDbLine
 10
14500.80217064594
 20
1013.874748214644
 30
0.0
 11
14500.80217064594
 21
809.8747482146441
 31
0.0
  0
LINE
  5
1CCBD
330
1C9B8
100
AcDbEntity
  8
YODOROGO
100
AcDbLine
 10
14536.80217064596
 20
789.8747482146441
 30
0.0
 11
14536.80217064596
 21
1013.874748214644
 31
0.0
  0
LINE
  5
1CCBE
330
1C9B8
100
AcDbEntity
  8
YODOROGO
100
AcDbLine
 10
14630.80217064596
 20
745.8747482146431
 30
0.0
 11
14630.80217064596
 21
1003.874748214644
 31
0.0
  0
LINE
  5
1CCBF
330
1C9B8
100
AcDbEntity
  8
YODOROGO
100
AcDbLine
 10
14598.80217064596
 20
1003.874748214644
 30
0.0
 11
14598.80217064596
 21
745.8747482146431
 31
0.0
  0
LINE
  5
1CCC0
330
1C9B8
100
AcDbEntity
  8
YODOROGO
100
AcDbLine
 10
14692.80217064596
 20
1013.874748214644
 30
0.0
 11
14692.80217064596
 21
713.8747482146436
 31
0.0
  0
LINE
  5
1CCC1
330
1C9B8
100
AcDbEntity
  8
YODOROGO
100
AcDbLine
 10
14728.80217064596
 20
713.8747482146436
 30
0.0
 11
14728.80217064596
 21
1013.874748214644
 31
0.0
  0
LINE
  5
1CCC2
330
1C9B8
100
AcDbEntity
  8
YODOROGO
100
AcDbLine
 10
14328.80217064594
 20
833.8747482146439
 30
0.0
 11
14328.80217064594
 21
873.8747482146449
 31
0.0
  0
LINE
  5
1CCC3
330
1C9B8
100
AcDbEntity
  8
YODOROGO
100
AcDbLine
 10
14942.80217064596
 20
853.874748214644
 30
0.0
 11
14942.80217064596
 21
833.8747482146439
 31
0.0
  0
LINE
  5
1CCC4
330
1C9B8
100
AcDbEntity
  8
YODOROGO
100
AcDbLine
 10
14942.80217064596
 20
853.874748214644
 30
0.0
 11
14942.80217064596
 21
833.8747482146439
 31
0.0
  0
ARC
  5
1CCC5
330
1C9B8
100
AcDbEntity
  8
YODOROGO
100
AcDbCircle
 10
14453.45578809342
 20
809.1089322211363
 30
0.0
 40
47.35257558937082
100
AcDbArc
 50
274.052441629071
 51
0.9266642149310712
  0
ARC
  5
1CCC6
330
1C9B8
100
AcDbEntity
  8
YODOROGO
100
AcDbCircle
 10
14454.5930853599
 20
796.30536430522
 30
0.0
 40
82.46021178042756
100
AcDbArc
 50
271.5351210653777
 51
355.5272775058505
  0
LINE
  5
1CCC7
330
1C9B8
100
AcDbEntity
  8
YODOROGO
100
AcDbLine
 10
14456.80217064596
 20
761.8747482146434
 30
0.0
 11
14456.80217064596
 21
713.8747482146436
 31
0.0
  0
LINE
  5
1CCC8
330
1C9B8
100
AcDbEntity
  8
YODOROGO
100
AcDbLine
 10
14396.80217064594
 20
833.8747482146439
 30
0.0
 11
14328.80217064594
 21
833.8747482146439
 31
0.0
  0
LINE
  5
1CCC9
330
1C9B8
100
AcDbEntity
  8
YODOROGO
100
AcDbLine
 10
14396.80217064594
 20
801.8747482146444
 30
0.0
 11
14396.80217064594
 21
833.8747482146439
 31
0.0
  0
LINE
  5
1CCCA
330
1C9B8
100
AcDbEntity
  8
YODOROGO
100
AcDbLine
 10
14328.80217064594
 20
801.8747482146444
 30
0.0
 11
14396.80217064594
 21
801.8747482146444
 31
0.0
  0
LINE
  5
1CCCB
330
1C9B8
100
AcDbEntity
  8
YODOROGO
100
AcDbLine
 10
14328.80217064594
 20
761.8747482146434
 30
0.0
 11
14328.80217064594
 21
801.8747482146444
 31
0.0
  0
LINE
  5
1CCCC
330
1C9B8
100
AcDbEntity
  8
YODOROGO
100
AcDbLine
 10
14396.80217064594
 20
761.8747482146434
 30
0.0
 11
14328.80217064594
 21
761.8747482146434
 31
0.0
  0
LINE
  5
1CCCD
330
1C9B8
100
AcDbEntity
  8
YODOROGO
100
AcDbLine
 10
14396.80217064594
 20
713.8747482146436
 30
0.0
 11
14396.80217064594
 21
761.8747482146434
 31
0.0
  0
LINE
  5
1CCCE
330
1C9B8
100
AcDbEntity
  8
YODOROGO
100
AcDbLine
 10
14598.80217064596
 20
745.8747482146431
 30
0.0
 11
14630.80217064596
 21
745.8747482146431
 31
0.0
  0
LINE
  5
1CCCF
330
1C9B8
100
AcDbEntity
  8
YODOROGO
100
AcDbLine
 10
14692.80217064596
 20
713.8747482146436
 30
0.0
 11
14728.80217064596
 21
713.8747482146436
 31
0.0
  0
LINE
  5
1CCD0
330
1C9B8
100
AcDbEntity
  8
YODOROGO
100
AcDbLine
 10
14868.80217064596
 20
764.2207260852818
 30
0.0
 11
14868.80217064596
 21
713.8747482146436
 31
0.0
  0
LINE
  5
1CCD1
330
1C9B8
100
AcDbEntity
  8
YODOROGO
100
AcDbLine
 10
14808.80217064596
 20
713.8747482146436
 30
0.0
 11
14868.80217064596
 21
764.2207260852818
 31
0.0
  0
LINE
  5
1CCD2
330
1C9B8
100
AcDbEntity
  8
YODOROGO
100
AcDbLine
 10
14808.80217064596
 20
773.874748214644
 30
0.0
 11
14808.80217064596
 21
713.8747482146436
 31
0.0
  0
LINE
  5
1CCD3
330
1C9B8
100
AcDbEntity
  8
YODOROGO
100
AcDbLine
 10
14856.47231434973
 20
813.8747482146435
 30
0.0
 11
14808.80217064596
 21
773.874748214644
 31
0.0
  0
LINE
  5
1CCD4
330
1C9B8
100
AcDbEntity
  8
YODOROGO
100
AcDbLine
 10
14808.80217064596
 20
813.8747482146435
 30
0.0
 11
14856.47231434973
 21
813.8747482146435
 31
0.0
  0
LINE
  5
1CCD5
330
1C9B8
100
AcDbEntity
  8
YODOROGO
100
AcDbLine
 10
14808.80217064596
 20
833.8747482146439
 30
0.0
 11
14808.80217064596
 21
813.8747482146435
 31
0.0
  0
LINE
  5
1CCD6
330
1C9B8
100
AcDbEntity
  8
YODOROGO
100
AcDbLine
 10
14942.80217064596
 20
833.8747482146439
 30
0.0
 11
14808.80217064596
 21
833.8747482146439
 31
0.0
  0
LINE
  5
1CCD7
330
1C9B8
100
AcDbEntity
  8
YODOROGO
100
AcDbLine
 10
14958.80217064596
 20
813.8747482146435
 30
0.0
 11
14888.80217064596
 21
813.8747482146435
 31
0.0
  0
LINE
  5
1CCD8
330
1C9B8
100
AcDbEntity
  8
YODOROGO
100
AcDbLine
 10
14888.80217064596
 20
781.0027187088283
 30
0.0
 11
14885.70493649264
 21
778.403830673117
 31
0.0
  0
LINE
  5
1CCD9
330
1C9B8
100
AcDbEntity
  8
YODOROGO
100
AcDbLine
 10
14888.80217064596
 20
813.8747482146435
 30
0.0
 11
14888.80217064596
 21
781.0027187088283
 31
0.0
  0
LINE
  5
1CCDA
330
1C9B8
100
AcDbEntity
  8
YODOROGO
100
AcDbLine
 10
14868.80217064596
 20
764.2207260852818
 30
0.0
 11
14868.80217064596
 21
713.8747482146436
 31
0.0
  0
LINE
  5
1CCDB
330
1C9B8
100
AcDbEntity
  8
YODOROGO
100
AcDbLine
 10
14808.80217064596
 20
713.8747482146436
 30
0.0
 11
14868.80217064596
 21
764.2207260852818
 31
0.0
  0
LINE
  5
1CCDC
330
1C9B8
100
AcDbEntity
  8
YODOROGO
100
AcDbLine
 10
14808.80217064596
 20
773.874748214644
 30
0.0
 11
14808.80217064596
 21
713.8747482146436
 31
0.0
  0
LINE
  5
1CCDD
330
1C9B8
100
AcDbEntity
  8
YODOROGO
100
AcDbLine
 10
14856.47231434973
 20
813.8747482146435
 30
0.0
 11
14808.80217064596
 21
773.874748214644
 31
0.0
  0
LINE
  5
1CCDE
330
1C9B8
100
AcDbEntity
  8
YODOROGO
100
AcDbLine
 10
14808.80217064596
 20
813.8747482146435
 30
0.0
 11
14856.47231434973
 21
813.8747482146435
 31
0.0
  0
LINE
  5
1CCDF
330
1C9B8
100
AcDbEntity
  8
YODOROGO
100
AcDbLine
 10
14808.80217064596
 20
833.8747482146439
 30
0.0
 11
14808.80217064596
 21
813.8747482146435
 31
0.0
  0
LINE
  5
1CCE0
330
1C9B8
100
AcDbEntity
  8
YODOROGO
100
AcDbLine
 10
14942.80217064596
 20
833.8747482146439
 30
0.0
 11
14808.80217064596
 21
833.8747482146439
 31
0.0
  0
LINE
  5
1CCE1
330
1C9B8
100
AcDbEntity
  8
YODOROGO
100
AcDbLine
 10
14396.80217064594
 20
873.8747482146449
 30
0.0
 11
14396.80217064594
 21
909.8747482146439
 31
0.0
  0
LINE
  5
1CCE2
330
1C9B8
100
AcDbEntity
  8
YODOROGO
100
AcDbLine
 10
14328.80217064594
 20
873.8747482146449
 30
0.0
 11
14396.80217064594
 21
873.8747482146449
 31
0.0
  0
LINE
  5
1CCE3
330
1C9B8
100
AcDbEntity
  8
YODOROGO
100
AcDbLine
 10
14364.80217064596
 20
933.8747482146439
 30
0.0
 11
14364.80217064596
 21
961.8747482146432
 31
0.0
  0
LINE
  5
1CCE4
330
1C9B8
100
AcDbEntity
  8
YODOROGO
100
AcDbLine
 10
14396.80217064594
 20
933.8747482146439
 30
0.0
 11
14364.80217064596
 21
933.8747482146439
 31
0.0
  0
LINE
  5
1CCE5
330
1C9B8
100
AcDbEntity
  8
YODOROGO
100
AcDbLine
 10
14396.80217064594
 20
973.8747482146434
 30
0.0
 11
14396.80217064594
 21
933.8747482146439
 31
0.0
  0
ARC
  5
1CCE6
330
1C9B8
100
AcDbEntity
  8
YODOROGO
100
AcDbCircle
 10
14376.80217064594
 20
973.8747482146434
 30
0.0
 40
20.0
100
AcDbArc
 50
0.0
 51
90.0
  0
LINE
  5
1CCE7
330
1C9B8
100
AcDbEntity
  8
YODOROGO
100
AcDbLine
 10
14328.80217064596
 20
993.8747482146439
 30
0.0
 11
14376.80217064594
 21
993.8747482146439
 31
0.0
  0
LINE
  5
1CCE8
330
1C9B8
100
AcDbEntity
  8
YODOROGO
100
AcDbLine
 10
14328.80217064596
 20
1013.874748214644
 30
0.0
 11
14328.80217064596
 21
993.8747482146439
 31
0.0
  0
LINE
  5
1CCE9
330
1C9B8
100
AcDbEntity
  8
YODOROGO
100
AcDbLine
 10
14536.80217064596
 20
1013.874748214644
 30
0.0
 11
14500.80217064594
 21
1013.874748214644
 31
0.0
  0
LINE
  5
1CCEA
330
1C9B8
100
AcDbEntity
  8
YODOROGO
100
AcDbLine
 10
14630.80217064596
 20
1003.874748214644
 30
0.0
 11
14598.80217064596
 21
1003.874748214644
 31
0.0
  0
LINE
  5
1CCEB
330
1C9B8
100
AcDbEntity
  8
YODOROGO
100
AcDbLine
 10
14728.80217064596
 20
1013.874748214644
 30
0.0
 11
14692.80217064596
 21
1013.874748214644
 31
0.0
  0
LINE
  5
1CCEC
330
1C9B8
100
AcDbEntity
  8
YODOROGO
100
AcDbLine
 10
14836.80217064596
 20
853.874748214644
 30
0.0
 11
14836.80217064596
 21
885.8747482146441
 31
0.0
1001
AUTOCAD_POSTSCRIPT_FIGURE
1002
{
1000
PSFILL
1000
Grayscale
1000
Grayscale
1070
    25
1002
}
  0
LINE
  5
1CCED
330
1C9B8
100
AcDbEntity
  8
YODOROGO
100
AcDbLine
 10
14808.80217064596
 20
853.874748214644
 30
0.0
 11
14836.80217064596
 21
853.874748214644
 31
0.0
1001
AUTOCAD_POSTSCRIPT_FIGURE
1002
{
1000
PSFILL
1000
Grayscale
1000
Grayscale
1070
    25
1002
}
  0
LINE
  5
1CCEE
330
1C9B8
100
AcDbEntity
  8
YODOROGO
100
AcDbLine
 10
14808.80217064596
 20
909.8747482146439
 30
0.0
 11
14808.80217064596
 21
853.874748214644
 31
0.0
1001
AUTOCAD_POSTSCRIPT_FIGURE
1002
{
1000
PSFILL
1000
Grayscale
1000
Grayscale
1070
    25
1002
}
  0
LINE
  5
1CCEF
330
1C9B8
100
AcDbEntity
  8
YODOROGO
100
AcDbLine
 10
14882.80217064596
 20
909.8747482146439
 30
0.0
 11
14808.80217064596
 21
909.8747482146439
 31
0.0
1001
AUTOCAD_POSTSCRIPT_FIGURE
1002
{
1000
PSFILL
1000
Grayscale
1000
Grayscale
1070
    25
1002
}
  0
LINE
  5
1CCF0
330
1C9B8
100
AcDbEntity
  8
YODOROGO
100
AcDbLine
 10
14882.80217064596
 20
929.874748214644
 30
0.0
 11
14882.80217064596
 21
909.8747482146439
 31
0.0
1001
AUTOCAD_POSTSCRIPT_FIGURE
1002
{
1000
PSFILL
1000
Grayscale
1000
Grayscale
1070
    25
1002
}
  0
LINE
  5
1CCF1
330
1C9B8
100
AcDbEntity
  8
YODOROGO
100
AcDbLine
 10
14808.80217064596
 20
929.874748214644
 30
0.0
 11
14882.80217064596
 21
929.874748214644
 31
0.0
1001
AUTOCAD_POSTSCRIPT_FIGURE
1002
{
1000
PSFILL
1000
Grayscale
1000
Grayscale
1070
    25
1002
}
  0
LINE
  5
1CCF2
330
1C9B8
100
AcDbEntity
  8
YODOROGO
100
AcDbLine
 10
14808.80217064596
 20
953.874748214644
 30
0.0
 11
14808.80217064596
 21
929.874748214644
 31
0.0
1001
AUTOCAD_POSTSCRIPT_FIGURE
1002
{
1000
PSFILL
1000
Grayscale
1000
Grayscale
1070
    25
1002
}
  0
LINE
  5
1CCF3
330
1C9B8
100
AcDbEntity
  8
YODOROGO
100
AcDbLine
 10
14882.80217064596
 20
953.874748214644
 30
0.0
 11
14808.80217064596
 21
953.874748214644
 31
0.0
1001
AUTOCAD_POSTSCRIPT_FIGURE
1002
{
1000
PSFILL
1000
Grayscale
1000
Grayscale
1070
    25
1002
}
  0
LINE
  5
1CCF4
330
1C9B8
100
AcDbEntity
  8
YODOROGO
100
AcDbLine
 10
14882.80217064596
 20
973.8747482146434
 30
0.0
 11
14882.80217064596
 21
953.874748214644
 31
0.0
1001
AUTOCAD_POSTSCRIPT_FIGURE
1002
{
1000
PSFILL
1000
Grayscale
1000
Grayscale
1070
    25
1002
}
  0
LINE
  5
1CCF5
330
1C9B8
100
AcDbEntity
  8
YODOROGO
100
AcDbLine
 10
14808.80217064596
 20
973.8747482146434
 30
0.0
 11
14882.80217064596
 21
973.8747482146434
 31
0.0
1001
AUTOCAD_POSTSCRIPT_FIGURE
1002
{
1000
PSFILL
1000
Grayscale
1000
Grayscale
1070
    25
1002
}
  0
LINE
  5
1CCF6
330
1C9B8
100
AcDbEntity
  8
YODOROGO
100
AcDbLine
 10
14808.80217064596
 20
1013.874748214644
 30
0.0
 11
14808.80217064596
 21
973.8747482146434
 31
0.0
1001
AUTOCAD_POSTSCRIPT_FIGURE
1002
{
1000
PSFILL
1000
Grayscale
1000
Grayscale
1070
    25
1002
}
  0
LINE
  5
1CCF7
330
1C9B8
100
AcDbEntity
  8
YODOROGO
100
AcDbLine
 10
14832.80217064596
 20
1013.874748214644
 30
0.0
 11
14808.80217064596
 21
1013.874748214644
 31
0.0
1001
AUTOCAD_POSTSCRIPT_FIGURE
1002
{
1000
PSFILL
1000
Grayscale
1000
Grayscale
1070
    25
1002
}
  0
LINE
  5
1CCF8
330
1C9B8
100
AcDbEntity
  8
YODOROGO
100
AcDbLine
 10
14832.80217064596
 20
997.8747482146435
 30
0.0
 11
14832.80217064596
 21
1013.874748214644
 31
0.0
1001
AUTOCAD_POSTSCRIPT_FIGURE
1002
{
1000
PSFILL
1000
Grayscale
1000
Grayscale
1070
    25
1002
}
  0
LINE
  5
1CCF9
330
1C9B8
100
AcDbEntity
  8
YODOROGO
100
AcDbLine
 10
14882.80217064596
 20
997.8747482146435
 30
0.0
 11
14832.80217064596
 21
997.8747482146435
 31
0.0
1001
AUTOCAD_POSTSCRIPT_FIGURE
1002
{
1000
PSFILL
1000
Grayscale
1000
Grayscale
1070
    25
1002
}
  0
LINE
  5
1CCFA
330
1C9B8
100
AcDbEntity
  8
YODOROGO
100
AcDbLine
 10
14882.80217064596
 20
1013.874748214644
 30
0.0
 11
14882.80217064596
 21
997.8747482146435
 31
0.0
1001
AUTOCAD_POSTSCRIPT_FIGURE
1002
{
1000
PSFILL
1000
Grayscale
1000
Grayscale
1070
    25
1002
}
  0
LINE
  5
1CCFB
330
1C9B8
100
AcDbEntity
  8
YODOROGO
100
AcDbLine
 10
14914.80217064596
 20
1013.874748214644
 30
0.0
 11
14882.80217064596
 21
1013.874748214644
 31
0.0
1001
AUTOCAD_POSTSCRIPT_FIGURE
1002
{
1000
PSFILL
1000
Grayscale
1000
Grayscale
1070
    25
1002
}
  0
LINE
  5
1CCFC
330
1C9B8
100
AcDbEntity
  8
YODOROGO
100
AcDbLine
 10
14914.80217064596
 20
997.8747482146435
 30
0.0
 11
14914.80217064596
 21
1013.874748214644
 31
0.0
1001
AUTOCAD_POSTSCRIPT_FIGURE
1002
{
1000
PSFILL
1000
Grayscale
1000
Grayscale
1070
    25
1002
}
  0
LINE
  5
1CCFD
330
1C9B8
100
AcDbEntity
  8
YODOROGO
100
AcDbLine
 10
14914.80217064596
 20
953.874748214644
 30
0.0
 11
14914.80217064596
 21
973.8747482146434
 31
0.0
1001
AUTOCAD_POSTSCRIPT_FIGURE
1002
{
1000
PSFILL
1000
Grayscale
1000
Grayscale
1070
    25
1002
}
  0
LINE
  5
1CCFE
330
1C9B8
100
AcDbEntity
  8
YODOROGO
100
AcDbLine
 10
14914.80217064596
 20
909.8747482146439
 30
0.0
 11
14914.80217064596
 21
929.874748214644
 31
0.0
1001
AUTOCAD_POSTSCRIPT_FIGURE
1002
{
1000
PSFILL
1000
Grayscale
1000
Grayscale
1070
    25
1002
}
  0
LINE
  5
1CCFF
330
1C9B8
100
AcDbEntity
  8
YODOROGO
100
AcDbLine
 10
14960.80217064594
 20
885.8747482146441
 30
0.0
 11
14960.80217064594
 21
853.874748214644
 31
0.0
1001
AUTOCAD_POSTSCRIPT_FIGURE
1002
{
1000
PSFILL
1000
Grayscale
1000
Grayscale
1070
    25
1002
}
  0
LINE
  5
1CD00
330
1C9B8
100
AcDbEntity
  8
YODOROGO
100
AcDbLine
 10
14914.80217064596
 20
885.8747482146441
 30
0.0
 11
14960.80217064594
 21
885.8747482146441
 31
0.0
1001
AUTOCAD_POSTSCRIPT_FIGURE
1002
{
1000
PSFILL
1000
Grayscale
1000
Grayscale
1070
    25
1002
}
  0
LINE
  5
1CD01
330
1C9B8
100
AcDbEntity
  8
YODOROGO
100
AcDbLine
 10
14914.80217064596
 20
853.874748214644
 30
0.0
 11
14914.80217064596
 21
885.8747482146441
 31
0.0
1001
AUTOCAD_POSTSCRIPT_FIGURE
1002
{
1000
PSFILL
1000
Grayscale
1000
Grayscale
1070
    25
1002
}
  0
LINE
  5
1CD02
330
1C9B8
100
AcDbEntity
  8
YODOROGO
100
AcDbLine
 10
14882.80217064596
 20
853.874748214644
 30
0.0
 11
14914.80217064596
 21
853.874748214644
 31
0.0
1001
AUTOCAD_POSTSCRIPT_FIGURE
1002
{
1000
PSFILL
1000
Grayscale
1000
Grayscale
1070
    25
1002
}
  0
LINE
  5
1CD03
330
1C9B8
100
AcDbEntity
  8
YODOROGO
100
AcDbLine
 10
14882.80217064596
 20
885.8747482146441
 30
0.0
 11
14882.80217064596
 21
853.874748214644
 31
0.0
1001
AUTOCAD_POSTSCRIPT_FIGURE
1002
{
1000
PSFILL
1000
Grayscale
1000
Grayscale
1070
    25
1002
}
  0
LINE
  5
1CD04
330
1C9B8
100
AcDbEntity
  8
YODOROGO
100
AcDbLine
 10
14836.80217064596
 20
885.8747482146441
 30
0.0
 11
14882.80217064596
 21
885.8747482146441
 31
0.0
1001
AUTOCAD_POSTSCRIPT_FIGURE
1002
{
1000
PSFILL
1000
Grayscale
1000
Grayscale
1070
    25
1002
}
  0
ARC
  5
1CD05
330
1C9B8
100
AcDbEntity
  8
YODOROGO
100
AcDbCircle
 10
15529.75894667896
 20
801.3403687577881
 30
0.0
 40
89.11064055536078
100
AcDbArc
 50
281.0262749542535
 51
357.771135755738
  0
LINE
  5
1CD06
330
1C9B8
100
AcDbEntity
  8
YODOROGO
100
AcDbLine
 10
15706.80217064596
 20
953.874748214644
 30
0.0
 11
15582.80217064596
 21
953.874748214644
 31
0.0
  0
LINE
  5
1CD07
330
1C9B8
100
AcDbEntity
  8
YODOROGO
100
AcDbLine
 10
15706.80217064596
 20
1013.874748214644
 30
0.0
 11
15582.80217064596
 21
1013.874748214644
 31
0.0
  0
LINE
  5
1CD08
330
1C9B8
100
AcDbEntity
  8
YODOROGO
100
AcDbLine
 10
15582.80217064596
 20
981.8747482146434
 30
0.0
 11
15706.80217064596
 21
981.8747482146434
 31
0.0
  0
LINE
  5
1CD09
330
1C9B8
100
AcDbEntity
  8
YODOROGO
100
AcDbLine
 10
15395.80217064596
 20
781.8747482146434
 30
0.0
 11
15395.80217064596
 21
877.8747482146435
 31
0.0
  0
LINE
  5
1CD0A
330
1C9B8
100
AcDbEntity
  8
YODOROGO
100
AcDbLine
 10
15381.80217064596
 20
845.8747482146444
 30
0.0
 11
15381.80217064596
 21
781.8747482146434
 31
0.0
  0
LINE
  5
1CD0B
330
1C9B8
100
AcDbEntity
  8
YODOROGO
100
AcDbLine
 10
15361.80217064596
 20
745.8747482146443
 30
0.0
 11
15361.80217064596
 21
845.8747482146444
 31
0.0
  0
LINE
  5
1CD0C
330
1C9B8
100
AcDbEntity
  8
YODOROGO
100
AcDbLine
 10
15449.80217064596
 20
845.8747482146444
 30
0.0
 11
15449.80217064596
 21
745.8747482146443
 31
0.0
  0
LINE
  5
1CD0D
330
1C9B8
100
AcDbEntity
  8
YODOROGO
100
AcDbLine
 10
15429.80217064596
 20
781.8747482146434
 30
0.0
 11
15429.80217064596
 21
845.8747482146444
 31
0.0
  0
LINE
  5
1CD0E
330
1C9B8
100
AcDbEntity
  8
YODOROGO
100
AcDbLine
 10
15415.80217064596
 20
877.8747482146435
 30
0.0
 11
15415.80217064596
 21
781.8747482146434
 31
0.0
  0
LINE
  5
1CD0F
330
1C9B8
100
AcDbEntity
  8
YODOROGO
100
AcDbLine
 10
15486.80217064596
 20
1013.874748214644
 30
0.0
 11
15486.80217064596
 21
733.8747482146435
 31
0.0
  0
LINE
  5
1CD10
330
1C9B8
100
AcDbEntity
  8
YODOROGO
100
AcDbLine
 10
15322.80217064596
 20
713.8747482146436
 30
0.0
 11
15322.80217064596
 21
1013.874748214644
 31
0.0
  0
LINE
  5
1CD11
330
1C9B8
100
AcDbEntity
  8
YODOROGO
100
AcDbLine
 10
15348.80217064596
 20
981.8747482146434
 30
0.0
 11
15348.80217064596
 21
713.8747482146436
 31
0.0
  0
LINE
  5
1CD12
330
1C9B8
100
AcDbEntity
  8
YODOROGO
100
AcDbLine
 10
15462.80217064596
 20
773.874748214644
 30
0.0
 11
15462.80217064596
 21
981.8747482146434
 31
0.0
  0
LINE
  5
1CD13
330
1C9B8
100
AcDbEntity
  8
YODOROGO
100
AcDbLine
 10
15190.80217064596
 20
813.8747482146435
 30
0.0
 11
15190.80217064596
 21
839.8747482146442
 31
0.0
  0
LINE
  5
1CD14
330
1C9B8
100
AcDbEntity
  8
YODOROGO
100
AcDbLine
 10
15308.80217064596
 20
839.8747482146442
 30
0.0
 11
15308.80217064596
 21
813.8747482146435
 31
0.0
  0
LINE
  5
1CD15
330
1C9B8
100
AcDbEntity
  8
YODOROGO
100
AcDbLine
 10
15582.80217064596
 20
953.874748214644
 30
0.0
 11
15582.80217064596
 21
817.8747482146436
 31
0.0
  0
LINE
  5
1CD16
330
1C9B8
100
AcDbEntity
  8
YODOROGO
100
AcDbLine
 10
14974.80217064595
 20
833.8747482146439
 30
0.0
 11
14974.80217064595
 21
853.874748214644
 31
0.0
  0
LINE
  5
1CD17
330
1C9B8
100
AcDbEntity
  8
YODOROGO
100
AcDbLine
 10
14974.80217064595
 20
833.8747482146439
 30
0.0
 11
14974.80217064595
 21
853.874748214644
 31
0.0
  0
ARC
  5
1CD18
330
1C9B8
100
AcDbEntity
  8
YODOROGO
100
AcDbCircle
 10
15268.80217064596
 20
753.8747482146439
 30
0.0
 40
40.0
100
AcDbArc
 50
270.0
 51
0.0
  0
LINE
  5
1CD19
330
1C9B8
100
AcDbEntity
  8
YODOROGO
100
AcDbLine
 10
15284.80217064596
 20
799.8747482146441
 30
0.0
 11
15308.80217064596
 21
799.8747482146441
 31
0.0
  0
LINE
  5
1CD1A
330
1C9B8
100
AcDbEntity
  8
YODOROGO
100
AcDbLine
 10
15308.80217064596
 20
813.8747482146435
 30
0.0
 11
15264.80217064596
 21
813.8747482146435
 31
0.0
  0
LINE
  5
1CD1B
330
1C9B8
100
AcDbEntity
  8
YODOROGO
100
AcDbLine
 10
15108.80217064596
 20
833.8747482146439
 30
0.0
 11
14974.80217064595
 21
833.8747482146439
 31
0.0
  0
LINE
  5
1CD1C
330
1C9B8
100
AcDbEntity
  8
YODOROGO
100
AcDbLine
 10
15108.80217064596
 20
813.8747482146435
 30
0.0
 11
15108.80217064596
 21
833.8747482146439
 31
0.0
  0
LINE
  5
1CD1D
330
1C9B8
100
AcDbEntity
  8
YODOROGO
100
AcDbLine
 10
15008.80217064596
 20
813.8747482146435
 30
0.0
 11
15108.80217064596
 21
813.8747482146435
 31
0.0
  0
ARC
  5
1CD1E
330
1C9B8
100
AcDbEntity
  8
YODOROGO
100
AcDbCircle
 10
15115.02941435068
 20
934.4428574764513
 30
0.0
 40
160.6888181426141
100
AcDbArc
 50
228.6181454618993
 51
245.660289248906
  0
LINE
  5
1CD1F
330
1C9B8
100
AcDbEntity
  8
YODOROGO
100
AcDbLine
 10
15052.80217064596
 20
801.8747482146444
 30
0.0
 11
15048.80217064598
 21
788.0364079349501
 31
0.0
  0
LINE
  5
1CD20
330
1C9B8
100
AcDbEntity
  8
YODOROGO
100
AcDbLine
 10
15094.80217064596
 20
801.8747482146444
 30
0.0
 11
15052.80217064596
 21
801.8747482146444
 31
0.0
  0
LINE
  5
1CD21
330
1C9B8
100
AcDbEntity
  8
YODOROGO
100
AcDbLine
 10
15088.80217064596
 20
775.9088612367134
 30
0.0
 11
15094.80217064596
 21
801.8747482146444
 31
0.0
  0
ARC
  5
1CD22
330
1C9B8
100
AcDbEntity
  8
YODOROGO
100
AcDbCircle
 10
15115.02941435023
 20
934.4428574765014
 30
0.0
 40
160.6888181426453
100
AcDbArc
 50
260.6062929796992
 51
267.7790355655586
  0
LINE
  5
1CD23
330
1C9B8
100
AcDbEntity
  8
YODOROGO
100
AcDbLine
 10
15108.80217064596
 20
713.8747482146428
 30
0.0
 11
15108.80217064596
 21
773.874748214644
 31
0.0
  0
LINE
  5
1CD24
330
1C9B8
100
AcDbEntity
  8
YODOROGO
100
AcDbLine
 10
14968.80217064596
 20
740.6696674577553
 30
0.0
 11
14968.80217064596
 21
797.2655452655705
 31
0.0
  0
LINE
  5
1CD25
330
1C9B8
100
AcDbEntity
  8
YODOROGO
100
AcDbLine
 10
15108.80217064596
 20
833.8747482146439
 30
0.0
 11
14974.80217064595
 21
833.8747482146439
 31
0.0
  0
LINE
  5
1CD26
330
1C9B8
100
AcDbEntity
  8
YODOROGO
100
AcDbLine
 10
15108.80217064596
 20
813.8747482146435
 30
0.0
 11
15108.80217064596
 21
833.8747482146439
 31
0.0
  0
LINE
  5
1CD27
330
1C9B8
100
AcDbEntity
  8
YODOROGO
100
AcDbLine
 10
15008.80217064596
 20
813.8747482146435
 30
0.0
 11
15108.80217064596
 21
813.8747482146435
 31
0.0
  0
ARC
  5
1CD28
330
1C9B8
100
AcDbEntity
  8
YODOROGO
100
AcDbCircle
 10
15115.02941435068
 20
934.4428574764513
 30
0.0
 40
160.6888181426141
100
AcDbArc
 50
228.6181454618993
 51
245.660289248906
  0
LINE
  5
1CD29
330
1C9B8
100
AcDbEntity
  8
YODOROGO
100
AcDbLine
 10
15052.80217064596
 20
801.8747482146444
 30
0.0
 11
15048.80217064598
 21
788.0364079349501
 31
0.0
  0
LINE
  5
1CD2A
330
1C9B8
100
AcDbEntity
  8
YODOROGO
100
AcDbLine
 10
15094.80217064596
 20
801.8747482146444
 30
0.0
 11
15052.80217064596
 21
801.8747482146444
 31
0.0
  0
LINE
  5
1CD2B
330
1C9B8
100
AcDbEntity
  8
YODOROGO
100
AcDbLine
 10
15088.80217064596
 20
775.9088612367134
 30
0.0
 11
15094.80217064596
 21
801.8747482146444
 31
0.0
  0
ARC
  5
1CD2C
330
1C9B8
100
AcDbEntity
  8
YODOROGO
100
AcDbCircle
 10
15115.02941435023
 20
934.4428574765014
 30
0.0
 40
160.6888181426453
100
AcDbArc
 50
260.6062929796992
 51
267.7790355655586
  0
LINE
  5
1CD2D
330
1C9B8
100
AcDbEntity
  8
YODOROGO
100
AcDbLine
 10
15108.80217064596
 20
713.8747482146428
 30
0.0
 11
15108.80217064596
 21
773.874748214644
 31
0.0
  0
LINE
  5
1CD2E
330
1C9B8
100
AcDbEntity
  8
YODOROGO
100
AcDbLine
 10
14968.80217064596
 20
740.6696674577553
 30
0.0
 11
14968.80217064596
 21
797.2655452655705
 31
0.0
  0
LINE
  5
1CD2F
330
1C9B8
100
AcDbEntity
  8
YODOROGO
100
AcDbLine
 10
15216.80217064596
 20
786.8747482146444
 30
0.0
 11
15190.80217064596
 21
786.8747482146444
 31
0.0
  0
LINE
  5
1CD30
330
1C9B8
100
AcDbEntity
  8
YODOROGO
100
AcDbLine
 10
15216.80217064596
 20
800.8747482146432
 30
0.0
 11
15216.80217064596
 21
786.8747482146444
 31
0.0
  0
LINE
  5
1CD31
330
1C9B8
100
AcDbEntity
  8
YODOROGO
100
AcDbLine
 10
15190.80217064596
 20
800.8747482146432
 30
0.0
 11
15216.80217064596
 21
800.8747482146432
 31
0.0
  0
LINE
  5
1CD32
330
1C9B8
100
AcDbEntity
  8
YODOROGO
100
AcDbLine
 10
15190.80217064596
 20
786.8747482146444
 30
0.0
 11
15190.80217064596
 21
800.8747482146432
 31
0.0
  0
LINE
  5
1CD33
330
1C9B8
100
AcDbEntity
  8
YODOROGO
100
AcDbLine
 10
15214.80217064596
 20
788.8747482146436
 30
0.0
 11
15192.80217064595
 21
788.8747482146436
 31
0.0
  0
LINE
  5
1CD34
330
1C9B8
100
AcDbEntity
  8
YODOROGO
100
AcDbLine
 10
15214.80217064596
 20
798.874748214644
 30
0.0
 11
15214.80217064596
 21
788.8747482146436
 31
0.0
  0
LINE
  5
1CD35
330
1C9B8
100
AcDbEntity
  8
YODOROGO
100
AcDbLine
 10
15192.80217064595
 20
798.874748214644
 30
0.0
 11
15214.80217064596
 21
798.874748214644
 31
0.0
  0
LINE
  5
1CD36
330
1C9B8
100
AcDbEntity
  8
YODOROGO
100
AcDbLine
 10
15192.80217064595
 20
788.8747482146436
 30
0.0
 11
15192.80217064595
 21
798.874748214644
 31
0.0
  0
LINE
  5
1CD37
330
1C9B8
100
AcDbEntity
  8
YODOROGO
100
AcDbLine
 10
15212.80217064596
 20
790.8747482146432
 30
0.0
 11
15194.80217064596
 21
790.8747482146432
 31
0.0
  0
LINE
  5
1CD38
330
1C9B8
100
AcDbEntity
  8
YODOROGO
100
AcDbLine
 10
15212.80217064596
 20
796.8747482146445
 30
0.0
 11
15212.80217064596
 21
790.8747482146432
 31
0.0
  0
LINE
  5
1CD39
330
1C9B8
100
AcDbEntity
  8
YODOROGO
100
AcDbLine
 10
15194.80217064596
 20
796.8747482146445
 30
0.0
 11
15212.80217064596
 21
796.8747482146445
 31
0.0
  0
LINE
  5
1CD3A
330
1C9B8
100
AcDbEntity
  8
YODOROGO
100
AcDbLine
 10
15194.80217064596
 20
790.8747482146432
 30
0.0
 11
15194.80217064596
 21
796.8747482146445
 31
0.0
  0
LINE
  5
1CD3B
330
1C9B8
100
AcDbEntity
  8
YODOROGO
100
AcDbLine
 10
15210.80217064596
 20
792.8747482146435
 30
0.0
 11
15196.80217064596
 21
792.8747482146435
 31
0.0
  0
LINE
  5
1CD3C
330
1C9B8
100
AcDbEntity
  8
YODOROGO
100
AcDbLine
 10
15210.80217064596
 20
794.8747482146441
 30
0.0
 11
15210.80217064596
 21
792.8747482146435
 31
0.0
  0
LINE
  5
1CD3D
330
1C9B8
100
AcDbEntity
  8
YODOROGO
100
AcDbLine
 10
15196.80217064596
 20
794.8747482146441
 30
0.0
 11
15210.80217064596
 21
794.8747482146441
 31
0.0
  0
LINE
  5
1CD3E
330
1C9B8
100
AcDbEntity
  8
YODOROGO
100
AcDbLine
 10
15196.80217064596
 20
792.8747482146435
 30
0.0
 11
15196.80217064596
 21
794.8747482146441
 31
0.0
  0
LINE
  5
1CD3F
330
1C9B8
100
AcDbEntity
  8
YODOROGO
100
AcDbLine
 10
15232.80217064596
 20
813.8747482146435
 30
0.0
 11
15190.80217064596
 21
813.8747482146435
 31
0.0
  0
LINE
  5
1CD40
330
1C9B8
100
AcDbEntity
  8
YODOROGO
100
AcDbLine
 10
15232.80217064596
 20
773.874748214644
 30
0.0
 11
15232.80217064596
 21
813.8747482146435
 31
0.0
  0
LINE
  5
1CD41
330
1C9B8
100
AcDbEntity
  8
YODOROGO
100
AcDbLine
 10
15190.80217064596
 20
773.874748214644
 30
0.0
 11
15232.80217064596
 21
773.874748214644
 31
0.0
  0
LINE
  5
1CD42
330
1C9B8
100
AcDbEntity
  8
YODOROGO
100
AcDbLine
 10
15190.80217064596
 20
713.8747482146436
 30
0.0
 11
15190.80217064596
 21
773.874748214644
 31
0.0
  0
LINE
  5
1CD43
330
1C9B8
100
AcDbEntity
  8
YODOROGO
100
AcDbLine
 10
15268.80217064596
 20
713.8747482146436
 30
0.0
 11
15190.80217064596
 21
713.8747482146436
 31
0.0
  0
LINE
  5
1CD44
330
1C9B8
100
AcDbEntity
  8
YODOROGO
100
AcDbLine
 10
15284.80217064596
 20
785.8747482146432
 30
0.0
 11
15284.80217064596
 21
799.8747482146441
 31
0.0
  0
ARC
  5
1CD45
330
1C9B8
100
AcDbEntity
  8
YODOROGO
100
AcDbCircle
 10
15272.80217064594
 20
785.8747482146457
 30
0.0
 40
12.00000000000187
100
AcDbArc
 50
270.0
 51
359.9999999999877
  0
LINE
  5
1CD46
330
1C9B8
100
AcDbEntity
  8
YODOROGO
100
AcDbLine
 10
15264.80217064596
 20
773.874748214644
 30
0.0
 11
15272.80217064594
 21
773.874748214644
 31
0.0
  0
LINE
  5
1CD47
330
1C9B8
100
AcDbEntity
  8
YODOROGO
100
AcDbLine
 10
15264.80217064596
 20
813.8747482146435
 30
0.0
 11
15264.80217064596
 21
773.874748214644
 31
0.0
  0
LINE
  5
1CD48
330
1C9B8
100
AcDbEntity
  8
YODOROGO
100
AcDbLine
 10
15449.80217064596
 20
773.874748214644
 30
0.0
 11
15462.80217064596
 21
773.874748214644
 31
0.0
  0
LINE
  5
1CD49
330
1C9B8
100
AcDbEntity
  8
YODOROGO
100
AcDbLine
 10
15466.80217064596
 20
713.8747482146436
 30
0.0
 11
15449.80217064596
 21
713.8747482146436
 31
0.0
  0
LINE
  5
1CD4A
330
1C9B8
100
AcDbEntity
  8
YODOROGO
100
AcDbLine
 10
15381.80217064596
 20
781.8747482146434
 30
0.0
 11
15395.80217064596
 21
781.8747482146434
 31
0.0
  0
LINE
  5
1CD4B
330
1C9B8
100
AcDbEntity
  8
YODOROGO
100
AcDbLine
 10
15449.80217064596
 20
745.8747482146443
 30
0.0
 11
15361.80217064596
 21
745.8747482146443
 31
0.0
  0
LINE
  5
1CD4C
330
1C9B8
100
AcDbEntity
  8
YODOROGO
100
AcDbLine
 10
15415.80217064596
 20
781.8747482146434
 30
0.0
 11
15429.80217064596
 21
781.8747482146434
 31
0.0
  0
LINE
  5
1CD4D
330
1C9B8
100
AcDbEntity
  8
YODOROGO
100
AcDbLine
 10
15449.80217064596
 20
713.8747482146436
 30
0.0
 11
15449.80217064596
 21
773.874748214644
 31
0.0
  0
LINE
  5
1CD4E
330
1C9B8
100
AcDbEntity
  8
YODOROGO
100
AcDbLine
 10
15348.80217064596
 20
713.8747482146436
 30
0.0
 11
15322.80217064596
 21
713.8747482146436
 31
0.0
  0
LINE
  5
1CD4F
330
1C9B8
100
AcDbEntity
  8
YODOROGO
100
AcDbLine
 10
15308.80217064596
 20
799.8747482146441
 30
0.0
 11
15308.80217064596
 21
753.8747482146439
 31
0.0
  0
ARC
  5
1CD50
330
1C9B8
100
AcDbEntity
  8
YODOROGO
100
AcDbCircle
 10
15466.80217064596
 20
733.8747482146435
 30
0.0
 40
20.0
100
AcDbArc
 50
270.0
 51
0.0
  0
LINE
  5
1CD51
330
1C9B8
100
AcDbEntity
  8
YODOROGO
100
AcDbLine
 10
15546.80217064596
 20
761.8747482146434
 30
0.0
 11
15546.80217064596
 21
713.8747482146436
 31
0.0
  0
ARC
  5
1CD52
330
1C9B8
100
AcDbEntity
  8
YODOROGO
100
AcDbCircle
 10
15519.86069778339
 20
818.7656950548664
 30
0.0
 40
62.94777829583771
100
AcDbArc
 50
295.3405244216011
 51
359.1890230341867
  0
LINE
  5
1CD53
330
1C9B8
100
AcDbEntity
  8
YODOROGO
100
AcDbLine
 10
15308.80217064596
 20
929.874748214644
 30
0.0
 11
15248.80217064596
 21
969.8747482146441
 31
0.0
  0
LINE
  5
1CD54
330
1C9B8
100
AcDbEntity
  8
YODOROGO
100
AcDbLine
 10
15248.80217064596
 20
1013.874748214644
 30
0.0
 11
15308.80217064596
 21
973.8747482146434
 31
0.0
  0
LINE
  5
1CD55
330
1C9B8
100
AcDbEntity
  8
YODOROGO
100
AcDbLine
 10
15264.80217064596
 20
839.8747482146442
 30
0.0
 11
15308.80217064596
 21
839.8747482146442
 31
0.0
  0
LINE
  5
1CD56
330
1C9B8
100
AcDbEntity
  8
YODOROGO
100
AcDbLine
 10
15308.80217064596
 20
867.8747482146436
 30
0.0
 11
15264.80217064596
 21
867.8747482146436
 31
0.0
  0
LINE
  5
1CD57
330
1C9B8
100
AcDbEntity
  8
YODOROGO
100
AcDbLine
 10
15190.80217064596
 20
897.8747482146435
 30
0.0
 11
15308.80217064596
 21
897.8747482146435
 31
0.0
  0
LINE
  5
1CD58
330
1C9B8
100
AcDbEntity
  8
YODOROGO
100
AcDbLine
 10
15040.80217064596
 20
1013.874748214644
 30
0.0
 11
15010.80217064596
 21
1013.874748214644
 31
0.0
  0
LINE
  5
1CD59
330
1C9B8
100
AcDbEntity
  8
YODOROGO
100
AcDbLine
 10
15040.80217064596
 20
913.8747482146435
 30
0.0
 11
15040.80217064596
 21
1013.874748214644
 31
0.0
  0
LINE
  5
1CD5A
330
1C9B8
100
AcDbEntity
  8
YODOROGO
100
AcDbLine
 10
15010.80217064596
 20
913.8747482146435
 30
0.0
 11
15040.80217064596
 21
913.8747482146435
 31
0.0
  0
LINE
  5
1CD5B
330
1C9B8
100
AcDbEntity
  8
YODOROGO
100
AcDbLine
 10
15010.80217064596
 20
1013.874748214644
 30
0.0
 11
15010.80217064596
 21
913.8747482146435
 31
0.0
  0
LINE
  5
1CD5C
330
1C9B8
100
AcDbEntity
  8
YODOROGO
100
AcDbLine
 10
15080.80217064596
 20
1013.874748214644
 30
0.0
 11
15108.80217064596
 21
1013.874748214644
 31
0.0
  0
LINE
  5
1CD5D
330
1C9B8
100
AcDbEntity
  8
YODOROGO
100
AcDbLine
 10
15080.80217064596
 20
905.8747482146443
 30
0.0
 11
15080.80217064596
 21
1013.874748214644
 31
0.0
  0
ARC
  5
1CD5E
330
1C9B8
100
AcDbEntity
  8
YODOROGO
100
AcDbCircle
 10
15060.80217064596
 20
905.8747482146443
 30
0.0
 40
20.0
100
AcDbArc
 50
270.0
 51
0.0
  0
LINE
  5
1CD5F
330
1C9B8
100
AcDbEntity
  8
YODOROGO
100
AcDbLine
 10
15010.80217064596
 20
885.8747482146441
 30
0.0
 11
15060.80217064596
 21
885.8747482146441
 31
0.0
  0
LINE
  5
1CD60
330
1C9B8
100
AcDbEntity
  8
YODOROGO
100
AcDbLine
 10
15010.80217064596
 20
853.874748214644
 30
0.0
 11
15010.80217064596
 21
885.8747482146441
 31
0.0
  0
LINE
  5
1CD61
330
1C9B8
100
AcDbEntity
  8
YODOROGO
100
AcDbLine
 10
15068.80217064596
 20
853.874748214644
 30
0.0
 11
15010.80217064596
 21
853.874748214644
 31
0.0
  0
ARC
  5
1CD62
330
1C9B8
100
AcDbEntity
  8
YODOROGO
100
AcDbCircle
 10
15068.80217064596
 20
893.8747482146439
 30
0.0
 40
40.0
100
AcDbArc
 50
270.0
 51
0.0
  0
LINE
  5
1CD63
330
1C9B8
100
AcDbEntity
  8
YODOROGO
100
AcDbLine
 10
15108.80217064596
 20
1013.874748214644
 30
0.0
 11
15108.80217064596
 21
893.8747482146439
 31
0.0
  0
LINE
  5
1CD64
330
1C9B8
100
AcDbEntity
  8
YODOROGO
100
AcDbLine
 10
14988.80217064596
 20
973.8747482146434
 30
0.0
 11
14988.80217064596
 21
997.8747482146435
 31
0.0
1001
AUTOCAD_POSTSCRIPT_FIGURE
1002
{
1000
PSFILL
1000
Grayscale
1000
Grayscale
1070
    25
1002
}
  0
LINE
  5
1CD65
330
1C9B8
100
AcDbEntity
  8
YODOROGO
100
AcDbLine
 10
14988.80217064596
 20
929.874748214644
 30
0.0
 11
14988.80217064596
 21
953.874748214644
 31
0.0
1001
AUTOCAD_POSTSCRIPT_FIGURE
1002
{
1000
PSFILL
1000
Grayscale
1000
Grayscale
1070
    25
1002
}
  0
LINE
  5
1CD66
330
1C9B8
100
AcDbEntity
  8
YODOROGO
100
AcDbLine
 10
14988.80217064596
 20
853.874748214644
 30
0.0
 11
14988.80217064596
 21
909.8747482146439
 31
0.0
1001
AUTOCAD_POSTSCRIPT_FIGURE
1002
{
1000
PSFILL
1000
Grayscale
1000
Grayscale
1070
    25
1002
}
  0
LINE
  5
1CD67
330
1C9B8
100
AcDbEntity
  8
YODOROGO
100
AcDbLine
 10
15190.80217064596
 20
953.874748214644
 30
0.0
 11
15248.80217064596
 21
1013.874748214644
 31
0.0
  0
LINE
  5
1CD68
330
1C9B8
100
AcDbEntity
  8
YODOROGO
100
AcDbLine
 10
15190.80217064596
 20
909.8747482146439
 30
0.0
 11
15190.80217064596
 21
953.874748214644
 31
0.0
  0
LINE
  5
1CD69
330
1C9B8
100
AcDbEntity
  8
YODOROGO
100
AcDbLine
 10
15248.80217064596
 20
969.8747482146441
 30
0.0
 11
15190.80217064596
 21
909.8747482146439
 31
0.0
  0
LINE
  5
1CD6A
330
1C9B8
100
AcDbEntity
  8
YODOROGO
100
AcDbLine
 10
15232.80217064596
 20
839.8747482146442
 30
0.0
 11
15232.80217064596
 21
867.8747482146436
 31
0.0
  0
LINE
  5
1CD6B
330
1C9B8
100
AcDbEntity
  8
YODOROGO
100
AcDbLine
 10
15190.80217064596
 20
839.8747482146442
 30
0.0
 11
15232.80217064596
 21
839.8747482146442
 31
0.0
  0
LINE
  5
1CD6C
330
1C9B8
100
AcDbEntity
  8
YODOROGO
100
AcDbLine
 10
15264.80217064596
 20
867.8747482146436
 30
0.0
 11
15264.80217064596
 21
839.8747482146442
 31
0.0
  0
LINE
  5
1CD6D
330
1C9B8
100
AcDbEntity
  8
YODOROGO
100
AcDbLine
 10
15190.80217064596
 20
867.8747482146436
 30
0.0
 11
15190.80217064596
 21
897.8747482146435
 31
0.0
  0
LINE
  5
1CD6E
330
1C9B8
100
AcDbEntity
  8
YODOROGO
100
AcDbLine
 10
15232.80217064596
 20
867.8747482146436
 30
0.0
 11
15190.80217064596
 21
867.8747482146436
 31
0.0
  0
LINE
  5
1CD6F
330
1C9B8
100
AcDbEntity
  8
YODOROGO
100
AcDbLine
 10
15322.80217064596
 20
1013.874748214644
 30
0.0
 11
15486.80217064596
 21
1013.874748214644
 31
0.0
  0
LINE
  5
1CD70
330
1C9B8
100
AcDbEntity
  8
YODOROGO
100
AcDbLine
 10
15462.80217064596
 20
981.8747482146434
 30
0.0
 11
15348.80217064596
 21
981.8747482146434
 31
0.0
  0
LINE
  5
1CD71
330
1C9B8
100
AcDbEntity
  8
YODOROGO
100
AcDbLine
 10
15436.80217064595
 20
909.8747482146439
 30
0.0
 11
15449.80217064596
 21
909.8747482146439
 31
0.0
  0
LINE
  5
1CD72
330
1C9B8
100
AcDbEntity
  8
YODOROGO
100
AcDbLine
 10
15449.80217064596
 20
969.8747482146441
 30
0.0
 11
15436.80217064595
 21
909.8747482146439
 31
0.0
  0
LINE
  5
1CD73
330
1C9B8
100
AcDbEntity
  8
YODOROGO
100
AcDbLine
 10
15425.80217064596
 20
969.8747482146441
 30
0.0
 11
15449.80217064596
 21
969.8747482146441
 31
0.0
  0
LINE
  5
1CD74
330
1C9B8
100
AcDbEntity
  8
YODOROGO
100
AcDbLine
 10
15412.80217064596
 20
909.8747482146439
 30
0.0
 11
15425.80217064596
 21
969.8747482146441
 31
0.0
  0
LINE
  5
1CD75
330
1C9B8
100
AcDbEntity
  8
YODOROGO
100
AcDbLine
 10
15398.80217064596
 20
909.8747482146439
 30
0.0
 11
15412.80217064596
 21
909.8747482146439
 31
0.0
  0
LINE
  5
1CD76
330
1C9B8
100
AcDbEntity
  8
YODOROGO
100
AcDbLine
 10
15385.80217064596
 20
969.8747482146441
 30
0.0
 11
15398.80217064596
 21
909.8747482146439
 31
0.0
  0
LINE
  5
1CD77
330
1C9B8
100
AcDbEntity
  8
YODOROGO
100
AcDbLine
 10
15361.80217064596
 20
969.8747482146441
 30
0.0
 11
15385.80217064596
 21
969.8747482146441
 31
0.0
  0
LINE
  5
1CD78
330
1C9B8
100
AcDbEntity
  8
YODOROGO
100
AcDbLine
 10
15374.80217064596
 20
909.8747482146439
 30
0.0
 11
15361.80217064596
 21
969.8747482146441
 31
0.0
  0
LINE
  5
1CD79
330
1C9B8
100
AcDbEntity
  8
YODOROGO
100
AcDbLine
 10
15361.80217064596
 20
909.8747482146439
 30
0.0
 11
15374.80217064596
 21
909.8747482146439
 31
0.0
  0
LINE
  5
1CD7A
330
1C9B8
100
AcDbEntity
  8
YODOROGO
100
AcDbLine
 10
15361.80217064596
 20
877.8747482146435
 30
0.0
 11
15361.80217064596
 21
909.8747482146439
 31
0.0
  0
LINE
  5
1CD7B
330
1C9B8
100
AcDbEntity
  8
YODOROGO
100
AcDbLine
 10
15449.80217064596
 20
877.8747482146435
 30
0.0
 11
15361.80217064596
 21
877.8747482146435
 31
0.0
  0
LINE
  5
1CD7C
330
1C9B8
100
AcDbEntity
  8
YODOROGO
100
AcDbLine
 10
15449.80217064596
 20
909.8747482146439
 30
0.0
 11
15449.80217064596
 21
877.8747482146435
 31
0.0
  0
LINE
  5
1CD7D
330
1C9B8
100
AcDbEntity
  8
YODOROGO
100
AcDbLine
 10
15308.80217064596
 20
973.8747482146434
 30
0.0
 11
15308.80217064596
 21
929.874748214644
 31
0.0
  0
LINE
  5
1CD7E
330
1C9B8
100
AcDbEntity
  8
YODOROGO
100
AcDbLine
 10
15395.80217064596
 20
877.8747482146435
 30
0.0
 11
15415.80217064596
 21
877.8747482146435
 31
0.0
  0
LINE
  5
1CD7F
330
1C9B8
100
AcDbEntity
  8
YODOROGO
100
AcDbLine
 10
15361.80217064596
 20
845.8747482146444
 30
0.0
 11
15381.80217064596
 21
845.8747482146444
 31
0.0
  0
LINE
  5
1CD80
330
1C9B8
100
AcDbEntity
  8
YODOROGO
100
AcDbLine
 10
15429.80217064596
 20
845.8747482146444
 30
0.0
 11
15449.80217064596
 21
845.8747482146444
 31
0.0
  0
LINE
  5
1CD81
330
1C9B8
100
AcDbEntity
  8
YODOROGO
100
AcDbLine
 10
15308.80217064596
 20
897.8747482146435
 30
0.0
 11
15308.80217064596
 21
867.8747482146436
 31
0.0
  0
LINE
  5
1CD82
330
1C9B8
100
AcDbEntity
  8
YODOROGO
100
AcDbLine
 10
15582.80217064596
 20
1013.874748214644
 30
0.0
 11
15582.80217064596
 21
981.8747482146434
 31
0.0
  0
LINE
  5
1CD83
330
1C9B8
100
AcDbEntity
  8
YODOROGO
100
AcDbLine
 10
15766.80217064596
 20
797.8747482146435
 30
0.0
 11
15766.80217064594
 21
905.8747482146443
 31
0.0
  0
LINE
  5
1CD84
330
1C9B8
100
AcDbEntity
  8
YODOROGO
100
AcDbLine
 10
15730.80217064594
 20
993.8747482146439
 30
0.0
 11
15730.80217064594
 21
817.8747482146436
 31
0.0
  0
LINE
  5
1CD85
330
1C9B8
100
AcDbEntity
  8
YODOROGO
100
AcDbLine
 10
15826.80217064596
 20
713.8747482146436
 30
0.0
 11
15826.80217064594
 21
905.8747482146443
 31
0.0
  0
LINE
  5
1CD86
330
1C9B8
100
AcDbEntity
  8
YODOROGO
100
AcDbLine
 10
15794.80217064596
 20
905.8747482146443
 30
0.0
 11
15794.80217064596
 21
713.8747482146436
 31
0.0
  0
LINE
  5
1CD87
330
1C9B8
100
AcDbEntity
  8
YODOROGO
100
AcDbLine
 10
15618.80217064596
 20
797.8747482146435
 30
0.0
 11
15618.80217064596
 21
853.874748214644
 31
0.0
  0
ARC
  5
1CD88
330
1C9B8
100
AcDbEntity
  8
YODOROGO
100
AcDbCircle
 10
15676.95743255803
 20
803.8951756442788
 30
0.0
 40
90.04622428799429
100
AcDbArc
 50
268.6284910216979
 51
356.1663845733032
  0
LINE
  5
1CD89
330
1C9B8
100
AcDbEntity
  8
YODOROGO
100
AcDbLine
 10
15674.80217064596
 20
763.8747482146435
 30
0.0
 11
15674.80217064596
 21
713.8747482146436
 31
0.0
  0
ARC
  5
1CD8A
330
1C9B8
100
AcDbEntity
  8
YODOROGO
100
AcDbCircle
 10
15675.75903786228
 20
818.9194785088275
 30
0.0
 40
55.05304649180608
100
AcDbArc
 50
269.0041020930593
 51
358.9126445549248
  0
LINE
  5
1CD8B
330
1C9B8
100
AcDbEntity
  8
YODOROGO
100
AcDbLine
 10
15794.80217064596
 20
713.8747482146436
 30
0.0
 11
15826.80217064596
 21
713.8747482146436
 31
0.0
  0
LINE
  5
1CD8C
330
1C9B8
100
AcDbEntity
  8
YODOROGO
100
AcDbLine
 10
15766.80217064594
 20
905.8747482146443
 30
0.0
 11
15794.80217064596
 21
905.8747482146443
 31
0.0
  0
LINE
  5
1CD8D
330
1C9B8
100
AcDbEntity
  8
YODOROGO
100
AcDbLine
 10
15810.80217064596
 20
993.8747482146439
 30
0.0
 11
15730.80217064594
 21
993.8747482146439
 31
0.0
  0
LINE
  5
1CD8E
330
1C9B8
100
AcDbEntity
  8
YODOROGO
100
AcDbLine
 10
15766.80217064594
 20
957.8747482146436
 30
0.0
 11
15830.80217064596
 21
957.8747482146436
 31
0.0
  0
LINE
  5
1CD8F
330
1C9B8
100
AcDbEntity
  8
YODOROGO
100
AcDbLine
 10
15850.80217064596
 20
937.8747482146435
 30
0.0
 11
15766.80217064594
 21
937.8747482146435
 31
0.0
  0
LINE
  5
1CD90
330
1C9B8
100
AcDbEntity
  8
YODOROGO
100
AcDbLine
 10
15618.80217064596
 20
889.8747482146442
 30
0.0
 11
15674.80217064596
 21
889.8747482146442
 31
0.0
  0
LINE
  5
1CD91
330
1C9B8
100
AcDbEntity
  8
YODOROGO
100
AcDbLine
 10
15618.80217064596
 20
917.8747482146436
 30
0.0
 11
15618.80217064596
 21
889.8747482146442
 31
0.0
  0
LINE
  5
1CD92
330
1C9B8
100
AcDbEntity
  8
YODOROGO
100
AcDbLine
 10
15674.80217064596
 20
917.8747482146436
 30
0.0
 11
15618.80217064596
 21
917.8747482146436
 31
0.0
  0
LINE
  5
1CD93
330
1C9B8
100
AcDbEntity
  8
YODOROGO
100
AcDbLine
 10
15674.80217064596
 20
889.8747482146442
 30
0.0
 11
15674.80217064596
 21
917.8747482146436
 31
0.0
  0
LINE
  5
1CD94
330
1C9B8
100
AcDbEntity
  8
YODOROGO
100
AcDbLine
 10
15766.80217064594
 20
937.8747482146435
 30
0.0
 11
15766.80217064594
 21
957.8747482146436
 31
0.0
  0
LINE
  5
1CD95
330
1C9B8
100
AcDbEntity
  8
YODOROGO
100
AcDbLine
 10
15706.80217064596
 20
853.874748214644
 30
0.0
 11
15706.80217064596
 21
953.874748214644
 31
0.0
  0
LINE
  5
1CD96
330
1C9B8
100
AcDbEntity
  8
YODOROGO
100
AcDbLine
 10
15618.80217064596
 20
853.874748214644
 30
0.0
 11
15706.80217064596
 21
853.874748214644
 31
0.0
  0
LINE
  5
1CD97
330
1C9B8
100
AcDbEntity
  8
YODOROGO
100
AcDbLine
 10
15706.80217064596
 20
981.8747482146434
 30
0.0
 11
15706.80217064596
 21
1013.874748214644
 31
0.0
  0
ARC
  5
1CD98
330
1C9B8
100
AcDbEntity
  8
YODOROGO
100
AcDbCircle
 10
15810.80217064596
 20
1001.874748214642
 30
0.0
 40
7.99999999999727
100
AcDbArc
 50
270.0
 51
0.0000000000081422
  0
LINE
  5
1CD99
330
1C9B8
100
AcDbEntity
  8
YODOROGO
100
AcDbLine
 10
15818.80217064596
 20
1013.874748214644
 30
0.0
 11
15818.80217064596
 21
1001.874748214643
 31
0.0
  0
LINE
  5
1CD9A
330
1C9B8
100
AcDbEntity
  8
YODOROGO
100
AcDbLine
 10
15850.80217064596
 20
1013.874748214644
 30
0.0
 11
15818.80217064596
 21
1013.874748214644
 31
0.0
  0
LINE
  5
1CD9B
330
1C9B8
100
AcDbEntity
  8
YODOROGO
100
AcDbLine
 10
15850.80217064596
 20
977.8747482146435
 30
0.0
 11
15850.80217064596
 21
1013.874748214644
 31
0.0
  0
ARC
  5
1CD9C
330
1C9B8
100
AcDbEntity
  8
YODOROGO
100
AcDbCircle
 10
15830.80217064596
 20
977.8747482146435
 30
0.0
 40
20.0
100
AcDbArc
 50
270.0
 51
0.0
  0
LINE
  5
1CD9D
330
1C9B8
100
AcDbEntity
  8
YODOROGO
100
AcDbLine
 10
15850.80217064596
 20
905.8747482146443
 30
0.0
 11
15850.80217064596
 21
937.8747482146435
 31
0.0
  0
LINE
  5
1CD9E
330
1C9B8
100
AcDbEntity
  8
YODOROGO
100
AcDbLine
 10
15826.80217064594
 20
905.8747482146443
 30
0.0
 11
15850.80217064596
 21
905.8747482146443
 31
0.0
  0
LINE
  5
1CD9F
330
1C9B8
100
AcDbEntity
  8
SUNPOU
100
AcDbLine
 10
6509.517742030221
 20
3364.184504159609
 30
0.0
 11
6569.517742030234
 21
3364.184504159609
 31
0.0
  0
LINE
  5
1CDA0
330
1C9B8
100
AcDbEntity
  8
SUNPOU
100
AcDbLine
 10
6509.517742030228
 20
3364.184504159609
 30
0.0
 11
6569.517742030228
 21
3380.261455705479
 31
0.0
  0
LINE
  5
1CDA1
330
1C9B8
100
AcDbEntity
  8
SUNPOU
100
AcDbLine
 10
6509.517742030221
 20
3364.184504159609
 30
0.0
 11
6569.517742030234
 21
3348.10755261374
 31
0.0
  0
LINE
  5
1CDA2
330
1C9B8
100
AcDbEntity
  8
SUNPOU
100
AcDbLine
 10
6569.51774203022
 20
3364.184504159609
 30
0.0
 11
6629.517742030234
 21
3364.184504159609
 31
0.0
  0
LINE
  5
1CDA3
330
1C9B8
100
AcDbEntity
  8
SUNPOU
100
AcDbLine
 10
6569.517742030228
 20
3364.184504159609
 30
0.0
 11
6629.517742030228
 21
3380.261455705479
 31
0.0
  0
LINE
  5
1CDA4
330
1C9B8
100
AcDbEntity
  8
SUNPOU
100
AcDbLine
 10
6569.51774203022
 20
3364.184504159609
 30
0.0
 11
6629.517742030234
 21
3348.10755261374
 31
0.0
  0
LINE
  5
1CDA5
330
1C9B8
100
AcDbEntity
  8
SUNPOU
100
AcDbLine
 10
7750.758701212581
 20
3375.434504159609
 30
0.0
 11
7750.758701212581
 21
3386.684504159609
 31
0.0
  0
LINE
  5
1CDA6
330
1C9B8
100
AcDbEntity
  8
SUNPOU
100
AcDbLine
 10
7110.758701212581
 20
1914.783932023021
 30
0.0
 11
7110.758701212581
 21
1337.383932023019
 31
0.0
  0
LINE
  5
1CDA7
330
1C9B8
100
AcDbEntity
  8
SUNPOU
100
AcDbLine
 10
8390.758701212579
 20
1914.783932023021
 30
0.0
 11
8390.758701212579
 21
1337.383932023019
 31
0.0
  0
LINE
  5
1CDA8
330
1C9B8
100
AcDbEntity
  8
SUNPOU
100
AcDbLine
 10
7125.758701212581
 20
1382.383932023019
 30
0.0
 11
8375.758701212578
 21
1382.383932023019
 31
0.0
  0
LINE
  5
1CDA9
330
1C9B8
100
AcDbEntity
  8
SUNPOU
100
AcDbLine
 10
6950.758701212581
 20
1754.783932023018
 30
0.0
 11
6950.758701212581
 21
1127.38393202302
 31
0.0
  0
LINE
  5
1CDAA
330
1C9B8
100
AcDbEntity
  8
SUNPOU
100
AcDbLine
 10
8550.758701212577
 20
1754.783932023018
 30
0.0
 11
8550.758701212577
 21
1127.38393202302
 31
0.0
  0
LINE
  5
1CDAB
330
1C9B8
100
AcDbEntity
  8
SUNPOU
100
AcDbLine
 10
6965.75870121258
 20
1172.38393202302
 30
0.0
 11
8535.758701212579
 21
1172.38393202302
 31
0.0
  0
LINE
  5
1CDAC
330
1C9B8
100
AcDbEntity
  8
SUNPOU
100
AcDbLine
 10
7080.758701212582
 20
2552.78393202302
 30
0.0
 11
6786.405305211824
 21
2552.78393202302
 31
0.0
  0
LINE
  5
1CDAD
330
1C9B8
100
AcDbEntity
  8
SUNPOU
100
AcDbLine
 10
7080.758701212582
 20
2424.783932023015
 30
0.0
 11
6786.405305211824
 21
2424.783932023015
 31
0.0
  0
LINE
  5
1CDAE
330
1C9B8
100
AcDbEntity
  8
SUNPOU
100
AcDbLine
 10
6831.405305211823
 20
2537.78393202302
 30
0.0
 11
6831.405305211823
 21
2439.783932023015
 31
0.0
  0
LINE
  5
1CDAF
330
1C9B8
100
AcDbEntity
  8
SUNPOU
100
AcDbLine
 10
7080.758701212582
 20
2552.783932023016
 30
0.0
 11
6786.405305211824
 21
2552.783932023016
 31
0.0
  0
LINE
  5
1CDB0
330
1C9B8
100
AcDbEntity
  8
SUNPOU
100
AcDbLine
 10
6988.917161404009
 20
2687.183932023017
 30
0.0
 11
6786.405305211824
 21
2687.183932023017
 31
0.0
  0
LINE
  5
1CDB1
330
1C9B8
100
AcDbEntity
  8
SUNPOU
100
AcDbLine
 10
6831.405305211823
 20
2567.783932023017
 30
0.0
 11
6831.405305211823
 21
2672.183932023019
 31
0.0
  0
LINE
  5
1CDB2
330
1C9B8
100
AcDbEntity
  8
SUNPOU
100
AcDbLine
 10
6831.405305211823
 20
2687.183932023017
 30
0.0
 11
6831.405305211823
 21
2892.183932023017
 31
0.0
  0
LINE
  5
1CDB3
330
1C9B8
100
AcDbEntity
  8
SUNPOU
100
AcDbLine
 10
6920.758701212581
 20
1944.78393202302
 30
0.0
 11
6786.405305211822
 21
1944.78393202302
 31
0.0
  0
LINE
  5
1CDB4
330
1C9B8
100
AcDbEntity
  8
SUNPOU
100
AcDbLine
 10
7080.758701212582
 20
2424.783932023015
 30
0.0
 11
6786.405305211824
 21
2424.783932023015
 31
0.0
  0
LINE
  5
1CDB5
330
1C9B8
100
AcDbEntity
  8
SUNPOU
100
AcDbLine
 10
6831.405305211823
 20
1959.783932023021
 30
0.0
 11
6831.405305211823
 21
2409.783932023015
 31
0.0
  0
LINE
  5
1CDB6
330
1C9B8
100
AcDbEntity
  8
SUNPOU
100
AcDbLine
 10
6920.758701212581
 20
1944.78393202302
 30
0.0
 11
6786.405305211824
 21
1944.78393202302
 31
0.0
  0
LINE
  5
1CDB7
330
1C9B8
100
AcDbEntity
  8
SUNPOU
100
AcDbLine
 10
6920.758701212581
 20
1784.783932023017
 30
0.0
 11
6786.405305211824
 21
1784.783932023017
 31
0.0
  0
LINE
  5
1CDB8
330
1C9B8
100
AcDbEntity
  8
SUNPOU
100
AcDbLine
 10
6831.405305211823
 20
1929.783932023021
 30
0.0
 11
6831.405305211823
 21
1799.783932023018
 31
0.0
  0
LINE
  5
1CDB9
330
1C9B8
100
AcDbEntity
  8
SUNPOU
100
AcDbLine
 10
6831.405305211823
 20
1784.783932023017
 30
0.0
 11
6831.405305211823
 21
1534.069646308732
 31
0.0
  0
LINE
  5
1CDBA
330
1C9B8
100
AcDbEntity
  8
SUNPOU
100
AcDbLine
 10
6988.917161404009
 20
2687.183932023017
 30
0.0
 11
6576.405305211823
 21
2687.183932023017
 31
0.0
  0
LINE
  5
1CDBB
330
1C9B8
100
AcDbEntity
  8
SUNPOU
100
AcDbLine
 10
6920.758701212581
 20
1784.783932023017
 30
0.0
 11
6576.405305211823
 21
1784.783932023017
 31
0.0
  0
LINE
  5
1CDBC
330
1C9B8
100
AcDbEntity
  8
SUNPOU
100
AcDbLine
 10
6621.405305211823
 20
2672.183932023019
 30
0.0
 11
6621.405305211823
 21
1799.783932023018
 31
0.0
  0
LINE
  5
1CDBD
330
1C9B8
100
AcDbEntity
  8
SUNPOU
100
AcDbLine
 10
8991.999660394943
 20
3364.184504159609
 30
0.0
 11
8931.999660394932
 21
3364.184504159609
 31
0.0
  0
LINE
  5
1CDBE
330
1C9B8
100
AcDbEntity
  8
SUNPOU
100
AcDbLine
 10
8991.999660394936
 20
3364.184504159609
 30
0.0
 11
8931.999660394936
 21
3380.261455705479
 31
0.0
  0
LINE
  5
1CDBF
330
1C9B8
100
AcDbEntity
  8
SUNPOU
100
AcDbLine
 10
8991.999660394943
 20
3364.184504159609
 30
0.0
 11
8931.999660394932
 21
3348.10755261374
 31
0.0
  0
LINE
  5
1CDC0
330
1C9B8
100
AcDbEntity
  8
SUNPOU
100
AcDbLine
 10
8931.999660394941
 20
3364.184504159609
 30
0.0
 11
8871.999660394932
 21
3364.184504159609
 31
0.0
  0
LINE
  5
1CDC1
330
1C9B8
100
AcDbEntity
  8
SUNPOU
100
AcDbLine
 10
8931.999660394936
 20
3364.184504159609
 30
0.0
 11
8871.999660394937
 21
3380.261455705479
 31
0.0
  0
LINE
  5
1CDC2
330
1C9B8
100
AcDbEntity
  8
SUNPOU
100
AcDbLine
 10
8931.999660394941
 20
3364.184504159609
 30
0.0
 11
8871.999660394932
 21
3348.10755261374
 31
0.0
  0
LINE
  5
1CDC3
330
1C9B8
100
AcDbEntity
  8
SUNPOU
100
AcDbLine
 10
3111.915992739874
 20
1924.383932023016
 30
0.0
 11
3111.915992739874
 21
1337.383932023014
 31
0.0
  0
LINE
  5
1CDC4
330
1C9B8
100
AcDbEntity
  8
SUNPOU
100
AcDbLine
 10
4071.915992739874
 20
1924.383932023016
 30
0.0
 11
4071.915992739874
 21
1337.383932023014
 31
0.0
  0
LINE
  5
1CDC5
330
1C9B8
100
AcDbEntity
  8
SUNPOU
100
AcDbLine
 10
3126.915992739875
 20
1382.383932023014
 30
0.0
 11
4056.915992739873
 21
1382.383932023014
 31
0.0
  0
LINE
  5
1CDC6
330
1C9B8
100
AcDbEntity
  8
SUNPOU
100
AcDbLine
 10
2951.915992739873
 20
1764.383932023016
 30
0.0
 11
2951.915992739873
 21
1127.383932023014
 31
0.0
  0
LINE
  5
1CDC7
330
1C9B8
100
AcDbEntity
  8
SUNPOU
100
AcDbLine
 10
4231.915992739871
 20
1764.383932023016
 30
0.0
 11
4231.915992739871
 21
1127.383932023014
 31
0.0
  0
LINE
  5
1CDC8
330
1C9B8
100
AcDbEntity
  8
SUNPOU
100
AcDbLine
 10
2966.915992739873
 20
1172.383932023014
 30
0.0
 11
4216.915992739871
 21
1172.383932023014
 31
0.0
  0
LINE
  5
1CDC9
330
1C9B8
100
AcDbEntity
  8
SUNPOU
100
AcDbLine
 10
2282.562596739113
 20
2607.183932023017
 30
0.0
 11
2297.562596739116
 21
2607.183932023017
 31
0.0
  0
LINE
  5
1CDCA
330
1C9B8
100
AcDbEntity
  8
SUNPOU
100
AcDbLine
 10
2921.915992739874
 20
2687.183932023017
 30
0.0
 11
2207.562596739115
 21
2687.183932023017
 31
0.0
  0
LINE
  5
1CDCB
330
1C9B8
100
AcDbEntity
  8
SUNPOU
100
AcDbLine
 10
2252.562596739116
 20
2592.183932023017
 30
0.0
 11
2252.562596739116
 21
2577.183932023017
 31
0.0
  0
LINE
  5
1CDCC
330
1C9B8
100
AcDbEntity
  8
SUNPOU
100
AcDbLine
 10
2252.562596739116
 20
2702.183932023017
 30
0.0
 11
2252.562596739116
 21
2904.326789165875
 31
0.0
  0
LINE
  5
1CDCD
330
1C9B8
100
AcDbEntity
  8
SUNPOU
100
AcDbLine
 10
2252.562596739116
 20
2607.183932023017
 30
0.0
 11
2252.562596739116
 21
2687.183932023017
 31
0.0
  0
LINE
  5
1CDCE
330
1C9B8
100
AcDbEntity
  8
SUNPOU
100
AcDbLine
 10
2921.915992739874
 20
2552.783932023015
 30
0.0
 11
2627.562596739117
 21
2552.783932023015
 31
0.0
  0
LINE
  5
1CDCF
330
1C9B8
100
AcDbEntity
  8
SUNPOU
100
AcDbLine
 10
2921.915992739874
 20
2424.783932023011
 30
0.0
 11
2627.562596739117
 21
2424.783932023011
 31
0.0
  0
LINE
  5
1CDD0
330
1C9B8
100
AcDbEntity
  8
SUNPOU
100
AcDbLine
 10
2672.562596739117
 20
2537.783932023015
 30
0.0
 11
2672.562596739117
 21
2439.783932023011
 31
0.0
  0
LINE
  5
1CDD1
330
1C9B8
100
AcDbEntity
  8
SUNPOU
100
AcDbLine
 10
2921.915992739874
 20
2552.783932023016
 30
0.0
 11
2627.562596739116
 21
2552.783932023016
 31
0.0
  0
LINE
  5
1CDD2
330
1C9B8
100
AcDbEntity
  8
SUNPOU
100
AcDbLine
 10
2921.915992739874
 20
2687.183932023017
 30
0.0
 11
2627.562596739116
 21
2687.183932023017
 31
0.0
  0
LINE
  5
1CDD3
330
1C9B8
100
AcDbEntity
  8
SUNPOU
100
AcDbLine
 10
2672.562596739116
 20
2567.783932023017
 30
0.0
 11
2672.562596739116
 21
2672.183932023019
 31
0.0
  0
LINE
  5
1CDD4
330
1C9B8
100
AcDbEntity
  8
SUNPOU
100
AcDbLine
 10
2672.562596739116
 20
2687.183932023017
 30
0.0
 11
2672.562596739116
 21
2892.183932023017
 31
0.0
  0
LINE
  5
1CDD5
330
1C9B8
100
AcDbEntity
  8
SUNPOU
100
AcDbLine
 10
2921.915992739873
 20
1944.783932023019
 30
0.0
 11
2627.562596739116
 21
1944.783932023019
 31
0.0
  0
LINE
  5
1CDD6
330
1C9B8
100
AcDbEntity
  8
SUNPOU
100
AcDbLine
 10
2921.915992739873
 20
2424.783932023013
 30
0.0
 11
2627.562596739116
 21
2424.783932023013
 31
0.0
  0
LINE
  5
1CDD7
330
1C9B8
100
AcDbEntity
  8
SUNPOU
100
AcDbLine
 10
2672.562596739116
 20
1959.783932023017
 30
0.0
 11
2672.562596739116
 21
2409.783932023012
 31
0.0
  0
LINE
  5
1CDD8
330
1C9B8
100
AcDbEntity
  8
SUNPOU
100
AcDbLine
 10
2921.915992739873
 20
1944.783932023019
 30
0.0
 11
2627.562596739116
 21
1944.783932023019
 31
0.0
  0
LINE
  5
1CDD9
330
1C9B8
100
AcDbEntity
  8
SUNPOU
100
AcDbLine
 10
2921.915992739873
 20
1784.783932023017
 30
0.0
 11
2627.562596739116
 21
1784.783932023017
 31
0.0
  0
LINE
  5
1CDDA
330
1C9B8
100
AcDbEntity
  8
SUNPOU
100
AcDbLine
 10
2672.562596739116
 20
1929.783932023019
 30
0.0
 11
2672.562596739116
 21
1799.783932023018
 31
0.0
  0
LINE
  5
1CDDB
330
1C9B8
100
AcDbEntity
  8
SUNPOU
100
AcDbLine
 10
2672.562596739116
 20
1784.783932023017
 30
0.0
 11
2672.562596739116
 21
1534.069646308732
 31
0.0
  0
LINE
  5
1CDDC
330
1C9B8
100
AcDbEntity
  8
SUNPOU
100
AcDbLine
 10
2921.915992739874
 20
2687.183932023017
 30
0.0
 11
2417.562596739115
 21
2687.183932023017
 31
0.0
  0
LINE
  5
1CDDD
330
1C9B8
100
AcDbEntity
  8
SUNPOU
100
AcDbLine
 10
2921.915992739873
 20
1784.783932023017
 30
0.0
 11
2417.562596739115
 21
1784.783932023018
 31
0.0
  0
LINE
  5
1CDDE
330
1C9B8
100
AcDbEntity
  8
SUNPOU
100
AcDbLine
 10
2462.562596739115
 20
2672.183932023019
 30
0.0
 11
2462.562596739115
 21
1799.783932023018
 31
0.0
  0
LINE
  5
1CDDF
330
1C9B8
100
AcDbEntity
  8
SUNPOU
100
AcDbLine
 10
5137.146499990122
 20
3364.184504159605
 30
0.0
 11
5077.14649999011
 21
3364.184504159605
 31
0.0
  0
LINE
  5
1CDE0
330
1C9B8
100
AcDbEntity
  8
SUNPOU
100
AcDbLine
 10
5137.146499990117
 20
3364.184504159605
 30
0.0
 11
5077.146499990117
 21
3380.261455705475
 31
0.0
  0
LINE
  5
1CDE1
330
1C9B8
100
AcDbEntity
  8
SUNPOU
100
AcDbLine
 10
5137.146499990122
 20
3364.184504159605
 30
0.0
 11
5077.14649999011
 21
3348.107552613736
 31
0.0
  0
LINE
  5
1CDE2
330
1C9B8
100
AcDbEntity
  8
SUNPOU
100
AcDbLine
 10
5077.146499990124
 20
3364.184504159605
 30
0.0
 11
5017.14649999011
 21
3364.184504159605
 31
0.0
  0
LINE
  5
1CDE3
330
1C9B8
100
AcDbEntity
  8
SUNPOU
100
AcDbLine
 10
5077.146499990117
 20
3364.184504159605
 30
0.0
 11
5017.146499990118
 21
3380.261455705475
 31
0.0
  0
LINE
  5
1CDE4
330
1C9B8
100
AcDbEntity
  8
SUNPOU
100
AcDbLine
 10
5077.146499990124
 20
3364.184504159605
 30
0.0
 11
5017.14649999011
 21
3348.107552613736
 31
0.0
  0
LINE
  5
1CDE5
330
1C9B8
100
AcDbEntity
  8
SUNPOU
100
AcDbLine
 10
3591.915992739874
 20
3394.184504159606
 30
0.0
 11
3591.915992739874
 21
3409.184504159606
 31
0.0
  0
LINE
  5
1CDE6
330
1C9B8
100
AcDbEntity
  8
SUNPOU
100
AcDbLine
 10
2951.915992739875
 20
2717.183932023017
 30
0.0
 11
2951.915992739875
 21
3409.184504159606
 31
0.0
  0
LINE
  5
1CDE7
330
1C9B8
100
AcDbEntity
  8
SUNPOU
100
AcDbLine
 10
3576.915992739873
 20
3364.184504159605
 30
0.0
 11
2966.915992739875
 21
3364.184504159605
 31
0.0
  0
LINE
  5
1CDE8
330
1C9B8
100
AcDbEntity
  8
SUNPOU
100
AcDbLine
 10
12404.21703198606
 20
9295.715360473252
 30
0.0
 11
12389.21703198605
 21
9295.715360473252
 31
0.0
  0
LINE
  5
1CDE9
330
1C9B8
100
AcDbEntity
  8
SUNPOU
100
AcDbLine
 10
12064.21703198605
 20
9595.715360473253
 30
0.0
 11
12479.21703198606
 21
9595.715360473251
 31
0.0
  0
LINE
  5
1CDEA
330
1C9B8
100
AcDbEntity
  8
SUNPOU
100
AcDbLine
 10
12434.21703198606
 20
9310.715360473251
 30
0.0
 11
12434.21703198606
 21
9580.71536047325
 31
0.0
  0
LINE
  5
1CDEB
330
1C9B8
100
AcDbEntity
  8
SUNPOU
100
AcDbLine
 10
12404.21703198606
 20
7495.715360473251
 30
0.0
 11
12389.21703198605
 21
7495.715360473251
 31
0.0
  0
LINE
  5
1CDEC
330
1C9B8
100
AcDbEntity
  8
SUNPOU
100
AcDbLine
 10
12404.21703198606
 20
9295.715360473252
 30
0.0
 11
12389.21703198605
 21
9295.715360473252
 31
0.0
  0
LINE
  5
1CDED
330
1C9B8
100
AcDbEntity
  8
SUNPOU
100
AcDbLine
 10
12434.21703198606
 20
7510.715360473253
 30
0.0
 11
12434.21703198606
 21
9280.71536047325
 31
0.0
  0
LINE
  5
1CDEE
330
1C9B8
100
AcDbEntity
  8
SUNPOU
100
AcDbLine
 10
12404.21703198606
 20
5695.715360473253
 30
0.0
 11
12389.21703198605
 21
5695.715360473253
 31
0.0
  0
LINE
  5
1CDEF
330
1C9B8
100
AcDbEntity
  8
SUNPOU
100
AcDbLine
 10
12404.21703198606
 20
7495.715360473251
 30
0.0
 11
12389.21703198605
 21
7495.715360473251
 31
0.0
  0
LINE
  5
1CDF0
330
1C9B8
100
AcDbEntity
  8
SUNPOU
100
AcDbLine
 10
12434.21703198606
 20
5710.715360473253
 30
0.0
 11
12434.21703198606
 21
7480.715360473253
 31
0.0
  0
LINE
  5
1CDF1
330
1C9B8
100
AcDbEntity
  8
SUNPOU
100
AcDbLine
 10
12064.21703198605
 20
5395.715360473253
 30
0.0
 11
12479.21703198606
 21
5395.715360473253
 31
0.0
  0
LINE
  5
1CDF2
330
1C9B8
100
AcDbEntity
  8
SUNPOU
100
AcDbLine
 10
12404.21703198606
 20
5695.715360473253
 30
0.0
 11
12389.21703198605
 21
5695.715360473253
 31
0.0
  0
LINE
  5
1CDF3
330
1C9B8
100
AcDbEntity
  8
SUNPOU
100
AcDbLine
 10
12434.21703198606
 20
5410.715360473253
 30
0.0
 11
12434.21703198606
 21
5680.715360473254
 31
0.0
  0
LINE
  5
1CDF4
330
1C9B8
100
AcDbEntity
  8
SUNPOU
100
AcDbLine
 10
12064.21703198605
 20
5395.715360473253
 30
0.0
 11
12689.21703198605
 21
5395.715360473253
 31
0.0
  0
LINE
  5
1CDF5
330
1C9B8
100
AcDbEntity
  8
SUNPOU
100
AcDbLine
 10
12064.21703198605
 20
9595.715360473253
 30
0.0
 11
12689.21703198605
 21
9595.715360473251
 31
0.0
  0
LINE
  5
1CDF6
330
1C9B8
100
AcDbEntity
  8
SUNPOU
100
AcDbLine
 10
12644.21703198606
 20
5410.715360473253
 30
0.0
 11
12644.21703198606
 21
9580.71536047325
 31
0.0
  0
LINE
  5
1CDF7
330
1C9B8
100
AcDbEntity
  8
SUNPOU
100
AcDbLine
 10
7534.217031986059
 20
9725.715360473252
 30
0.0
 11
7534.217031986059
 21
10040.71536047325
 31
0.0
  0
LINE
  5
1CDF8
330
1C9B8
100
AcDbEntity
  8
SUNPOU
100
AcDbLine
 10
8834.21703198606
 20
9725.715360473252
 30
0.0
 11
8834.21703198606
 21
10040.71536047325
 31
0.0
  0
LINE
  5
1CDF9
330
1C9B8
100
AcDbEntity
  8
SUNPOU
100
AcDbLine
 10
7549.21703198606
 20
9995.715360473253
 30
0.0
 11
8819.21703198606
 21
9995.715360473253
 31
0.0
  0
LINE
  5
1CDFA
330
1C9B8
100
AcDbEntity
  8
SUNPOU
100
AcDbLine
 10
9164.21703198606
 20
5995.715360473255
 30
0.0
 11
9479.21703198606
 21
5995.715360473255
 31
0.0
  0
LINE
  5
1CDFB
330
1C9B8
100
AcDbEntity
  8
SUNPOU
100
AcDbLine
 10
9164.21703198606
 20
5395.715360473253
 30
0.0
 11
9479.21703198606
 21
5395.715360473253
 31
0.0
  0
LINE
  5
1CDFC
330
1C9B8
100
AcDbEntity
  8
SUNPOU
100
AcDbLine
 10
9434.21703198606
 20
5980.715360473254
 30
0.0
 11
9434.21703198606
 21
5410.715360473254
 31
0.0
  0
LINE
  5
1CDFD
330
1C9B8
100
AcDbEntity
  8
SUNPOU
100
AcDbLine
 10
4334.217031986058
 20
9625.715360473252
 30
0.0
 11
4334.217031986058
 21
10250.71536047325
 31
0.0
  0
LINE
  5
1CDFE
330
1C9B8
100
AcDbEntity
  8
SUNPOU
100
AcDbLine
 10
12034.21703198606
 20
9625.715360473252
 30
0.0
 11
12034.21703198606
 21
10250.71536047325
 31
0.0
  0
LINE
  5
1CDFF
330
1C9B8
100
AcDbEntity
  8
SUNPOU
100
AcDbLine
 10
4349.21703198606
 20
10205.71536047325
 30
0.0
 11
12019.21703198606
 21
10205.71536047325
 31
0.0
  0
LINE
  5
1CE00
330
1C9B8
100
AcDbEntity
  8
SUNPOU
100
AcDbLine
 10
7534.217031986059
 20
9725.715360473252
 30
0.0
 11
7534.217031986059
 21
10040.71536047325
 31
0.0
  0
LINE
  5
1CE01
330
1C9B8
100
AcDbEntity
  8
SUNPOU
100
AcDbLine
 10
4734.21703198606
 20
9725.715360473252
 30
0.0
 11
4734.21703198606
 21
10040.71536047325
 31
0.0
  0
LINE
  5
1CE02
330
1C9B8
100
AcDbEntity
  8
SUNPOU
100
AcDbLine
 10
7519.217031986058
 20
9995.715360473253
 30
0.0
 11
4749.217031986058
 21
9995.715360473253
 31
0.0
  0
LINE
  5
1CE03
330
1C9B8
100
AcDbEntity
  8
SUNPOU
100
AcDbLine
 10
11634.21703198606
 20
9725.715360473252
 30
0.0
 11
11634.21703198606
 21
10040.71536047325
 31
0.0
  0
LINE
  5
1CE04
330
1C9B8
100
AcDbEntity
  8
SUNPOU
100
AcDbLine
 10
8834.21703198606
 20
9725.715360473252
 30
0.0
 11
8834.21703198606
 21
10040.71536047325
 31
0.0
  0
LINE
  5
1CE05
330
1C9B8
100
AcDbEntity
  8
SUNPOU
100
AcDbLine
 10
11619.21703198605
 20
9995.715360473253
 30
0.0
 11
8849.217031986063
 21
9995.715360473253
 31
0.0
  0
LINE
  5
1CE06
330
1C9B8
100
AcDbEntity
  8
SUNPOU
100
AcDbLine
 10
4734.21703198606
 20
9725.715360473252
 30
0.0
 11
4734.21703198606
 21
10040.71536047325
 31
0.0
  0
LINE
  5
1CE07
330
1C9B8
100
AcDbEntity
  8
SUNPOU
100
AcDbLine
 10
4334.217031986058
 20
9625.715360473252
 30
0.0
 11
4334.217031986058
 21
10040.71536047325
 31
0.0
  0
LINE
  5
1CE08
330
1C9B8
100
AcDbEntity
  8
SUNPOU
100
AcDbLine
 10
4719.21703198606
 20
9995.715360473253
 30
0.0
 11
4349.21703198606
 21
9995.715360473253
 31
0.0
  0
LINE
  5
1CE09
330
1C9B8
100
AcDbEntity
  8
SUNPOU
100
AcDbLine
 10
11634.21703198606
 20
9725.715360473252
 30
0.0
 11
11634.21703198606
 21
10040.71536047325
 31
0.0
  0
LINE
  5
1CE0A
330
1C9B8
100
AcDbEntity
  8
SUNPOU
100
AcDbLine
 10
12034.21703198606
 20
9625.715360473252
 30
0.0
 11
12034.21703198606
 21
10040.71536047325
 31
0.0
  0
LINE
  5
1CE0B
330
1C9B8
100
AcDbEntity
  8
SUNPOU
100
AcDbLine
 10
11649.21703198606
 20
9995.715360473253
 30
0.0
 11
12019.21703198606
 21
9995.715360473253
 31
0.0
  0
LINE
  5
1CE0C
330
1C9B8
100
AcDbEntity
  8
SUNPOU
100
AcDbLine
 10
7204.21703198606
 20
9595.715360473253
 30
0.0
 11
6889.21703198606
 21
9595.715360473253
 31
0.0
  0
LINE
  5
1CE0D
330
1C9B8
100
AcDbEntity
  8
SUNPOU
100
AcDbLine
 10
7204.21703198606
 20
8995.715360473253
 30
0.0
 11
6889.21703198606
 21
8995.715360473253
 31
0.0
  0
LINE
  5
1CE0E
330
1C9B8
100
AcDbEntity
  8
SUNPOU
100
AcDbLine
 10
6934.21703198606
 20
9580.715360473252
 30
0.0
 11
6934.21703198606
 21
9010.715360473252
 31
0.0
  0
LINE
  5
1CE0F
330
1C9B8
100
AcDbEntity
  8
SUNPOU
100
AcDbLine
 10
7234.21703198606
 20
8965.71536047325
 30
0.0
 11
7234.21703198606
 21
8650.715360473251
 31
0.0
  0
LINE
  5
1CE10
330
1C9B8
100
AcDbEntity
  8
SUNPOU
100
AcDbLine
 10
7834.21703198606
 20
8965.71536047325
 30
0.0
 11
7834.21703198606
 21
8650.715360473251
 31
0.0
  0
LINE
  5
1CE11
330
1C9B8
100
AcDbEntity
  8
SUNPOU
100
AcDbLine
 10
7249.21703198606
 20
8695.715360473251
 30
0.0
 11
7819.21703198606
 21
8695.715360473251
 31
0.0
  0
LINE
  5
1CE12
330
1C9B8
100
AcDbEntity
  8
SUNPOU
100
AcDbLine
 10
8534.217031986059
 20
6025.715360473252
 30
0.0
 11
8534.217031986059
 21
6290.715360473253
 31
0.0
  0
LINE
  5
1CE13
330
1C9B8
100
AcDbEntity
  8
SUNPOU
100
AcDbLine
 10
9134.217031986059
 20
6025.715360473252
 30
0.0
 11
9134.217031986059
 21
6290.715360473253
 31
0.0
  0
LINE
  5
1CE14
330
1C9B8
100
AcDbEntity
  8
SUNPOU
100
AcDbLine
 10
8549.21703198606
 20
6245.715360473253
 30
0.0
 11
9119.217031986059
 21
6245.715360473253
 31
0.0
  0
LINE
  5
1CE15
330
1C9B8
100
AcDbEntity
  8
SUNPOU
100
AcDbLine
 10
8434.21703198606
 20
7925.715360473255
 30
0.0
 11
8434.21703198606
 21
8110.715360473252
 31
0.0
  0
LINE
  5
1CE16
330
1C9B8
100
AcDbEntity
  8
SUNPOU
100
AcDbLine
 10
9234.217031986061
 20
7925.715360473255
 30
0.0
 11
9234.217031986061
 21
8110.715360473252
 31
0.0
  0
LINE
  5
1CE17
330
1C9B8
100
AcDbEntity
  8
SUNPOU
100
AcDbLine
 10
8449.21703198606
 20
8065.715360473253
 30
0.0
 11
9219.21703198606
 21
8065.715360473253
 31
0.0
  0
LINE
  5
1CE18
330
1C9B8
100
AcDbEntity
  8
SUNPOU
100
AcDbLine
 10
9264.21703198606
 20
7895.715360473253
 30
0.0
 11
9479.21703198606
 21
7895.715360473253
 31
0.0
  0
LINE
  5
1CE19
330
1C9B8
100
AcDbEntity
  8
SUNPOU
100
AcDbLine
 10
9264.21703198606
 20
7095.715360473253
 30
0.0
 11
9479.21703198606
 21
7095.715360473253
 31
0.0
  0
LINE
  5
1CE1A
330
1C9B8
100
AcDbEntity
  8
SUNPOU
100
AcDbLine
 10
9434.21703198606
 20
7880.715360473253
 30
0.0
 11
9434.21703198606
 21
7110.715360473253
 31
0.0
  0
LINE
  5
1CE1B
330
1C9B8
100
AcDbEntity
  8
SUNPOU
100
AcDbLine
 10
12185.58860891544
 20
2317.764250367019
 30
0.0
 11
12185.58860891544
 21
2048.424883029956
 31
0.0
  0
LINE
  5
1CE1C
330
1C9B8
100
AcDbEntity
  8
SUNPOU
100
AcDbLine
 10
12265.58860891543
 20
2357.764250367019
 30
0.0
 11
12265.58860891543
 21
2048.424883029956
 31
0.0
  0
LINE
  5
1CE1D
330
1C9B8
100
AcDbEntity
  8
SUNPOU
100
AcDbLine
 10
12170.58860891544
 20
2093.424883029956
 30
0.0
 11
12155.58860891543
 21
2093.424883029956
 31
0.0
  0
LINE
  5
1CE1E
330
1C9B8
100
AcDbEntity
  8
SUNPOU
100
AcDbLine
 10
12280.58860891543
 20
2093.424883029956
 30
0.0
 11
12482.7314660583
 21
2093.424883029956
 31
0.0
  0
LINE
  5
1CE1F
330
1C9B8
100
AcDbEntity
  8
SUNPOU
100
AcDbLine
 10
12185.58860891544
 20
2093.424883029956
 30
0.0
 11
12265.58860891543
 21
2093.424883029956
 31
0.0
  0
LINE
  5
1CE20
330
1C9B8
100
AcDbEntity
  8
SUNPOU
100
AcDbLine
 10
11705.58860891545
 20
2317.764250367019
 30
0.0
 11
11705.58860891545
 21
2048.424883029956
 31
0.0
  0
LINE
  5
1CE21
330
1C9B8
100
AcDbEntity
  8
SUNPOU
100
AcDbLine
 10
12185.58860891544
 20
2317.764250367019
 30
0.0
 11
12185.58860891544
 21
2048.424883029956
 31
0.0
  0
LINE
  5
1CE22
330
1C9B8
100
AcDbEntity
  8
SUNPOU
100
AcDbLine
 10
11720.58860891544
 20
2093.424883029956
 30
0.0
 11
12170.58860891544
 21
2093.424883029956
 31
0.0
  0
LINE
  5
1CE23
330
1C9B8
100
AcDbEntity
  8
SUNPOU
100
AcDbLine
 10
11705.58860891545
 20
2317.764250367019
 30
0.0
 11
11705.58860891545
 21
2048.424883029956
 31
0.0
  0
LINE
  5
1CE24
330
1C9B8
100
AcDbEntity
  8
SUNPOU
100
AcDbLine
 10
11625.58860891544
 20
2357.764250367019
 30
0.0
 11
11625.58860891544
 21
2048.424883029956
 31
0.0
  0
LINE
  5
1CE25
330
1C9B8
100
AcDbEntity
  8
SUNPOU
100
AcDbLine
 10
11720.58860891544
 20
2093.424883029956
 30
0.0
 11
11735.58860891545
 21
2093.424883029956
 31
0.0
  0
LINE
  5
1CE26
330
1C9B8
100
AcDbEntity
  8
SUNPOU
100
AcDbLine
 10
11610.58860891543
 20
2093.424883029956
 30
0.0
 11
11408.44575177258
 21
2093.424883029956
 31
0.0
  0
LINE
  5
1CE27
330
1C9B8
100
AcDbEntity
  8
SUNPOU
100
AcDbLine
 10
11705.58860891545
 20
2093.424883029956
 30
0.0
 11
11625.58860891544
 21
2093.424883029956
 31
0.0
  0
LINE
  5
1CE28
330
1C9B8
100
AcDbEntity
  8
SUNPOU
100
AcDbLine
 10
11625.58860891544
 20
2357.764250367019
 30
0.0
 11
11625.58860891544
 21
1838.424883029956
 31
0.0
  0
LINE
  5
1CE29
330
1C9B8
100
AcDbEntity
  8
SUNPOU
100
AcDbLine
 10
12265.58860891543
 20
2357.764250367019
 30
0.0
 11
12265.58860891543
 21
1838.424883029956
 31
0.0
  0
LINE
  5
1CE2A
330
1C9B8
100
AcDbEntity
  8
SUNPOU
100
AcDbLine
 10
11640.58860891543
 20
1883.424883029956
 30
0.0
 11
12250.58860891544
 21
1883.424883029956
 31
0.0
  0
LINE
  5
1CE2B
330
1C9B8
100
AcDbEntity
  8
SUNPOU
100
AcDbLine
 10
11599.58860891543
 20
2547.76425036702
 30
0.0
 11
11277.58860891543
 21
2547.76425036702
 31
0.0
  0
LINE
  5
1CE2C
330
1C9B8
100
AcDbEntity
  8
SUNPOU
100
AcDbLine
 10
11595.58860891543
 20
2387.764250367019
 30
0.0
 11
11277.58860891543
 21
2387.764250367019
 31
0.0
  0
LINE
  5
1CE2D
330
1C9B8
100
AcDbEntity
  8
SUNPOU
100
AcDbLine
 10
11322.58860891544
 20
2532.76425036702
 30
0.0
 11
11322.58860891544
 21
2402.764250367019
 31
0.0
  0
LINE
  5
1CE2E
330
1C9B8
100
AcDbEntity
  8
SUNPOU
100
AcDbLine
 10
11322.58860891544
 20
2387.764250367019
 30
0.0
 11
11322.58860891544
 21
2185.621393224163
 31
0.0
  0
LINE
  5
1CE2F
330
1C9B8
100
AcDbEntity
  8
SUNPOU
100
AcDbLine
 10
11599.58860891543
 20
2547.76425036702
 30
0.0
 11
11277.58860891543
 21
2547.76425036702
 31
0.0
  0
LINE
  5
1CE30
330
1C9B8
100
AcDbEntity
  8
SUNPOU
100
AcDbLine
 10
11595.58860891543
 20
2707.76425036702
 30
0.0
 11
11277.58860891543
 21
2707.76425036702
 31
0.0
  0
LINE
  5
1CE31
330
1C9B8
100
AcDbEntity
  8
SUNPOU
100
AcDbLine
 10
11322.58860891544
 20
2562.76425036702
 30
0.0
 11
11322.58860891544
 21
2692.764250367019
 31
0.0
  0
LINE
  5
1CE32
330
1C9B8
100
AcDbEntity
  8
SUNPOU
100
AcDbLine
 10
11322.58860891544
 20
2707.76425036702
 30
0.0
 11
11322.58860891544
 21
2909.907107509877
 31
0.0
  0
LINE
  5
1CE33
330
1C9B8
100
AcDbEntity
  8
SUNPOU
100
AcDbLine
 10
11595.58860891543
 20
2387.764250367019
 30
0.0
 11
11067.58860891543
 21
2387.764250367019
 31
0.0
  0
LINE
  5
1CE34
330
1C9B8
100
AcDbEntity
  8
SUNPOU
100
AcDbLine
 10
11595.58860891543
 20
2707.76425036702
 30
0.0
 11
11067.58860891543
 21
2707.76425036702
 31
0.0
  0
LINE
  5
1CE35
330
1C9B8
100
AcDbEntity
  8
SUNPOU
100
AcDbLine
 10
11112.58860891543
 20
2402.76425036702
 30
0.0
 11
11112.58860891543
 21
2692.764250367019
 31
0.0
  0
LINE
  5
1CE36
330
1C9B8
100
AcDbEntity
  8
SUNPOU
100
AcDbLine
 10
12185.58860891544
 20
3395.95694289843
 30
0.0
 11
12185.58860891544
 21
3196.790768968928
 31
0.0
  0
LINE
  5
1CE37
330
1C9B8
100
AcDbEntity
  8
SUNPOU
100
AcDbLine
 10
12265.58860891543
 20
3435.95694289843
 30
0.0
 11
12265.58860891543
 21
3196.790768968928
 31
0.0
  0
LINE
  5
1CE38
330
1C9B8
100
AcDbEntity
  8
SUNPOU
100
AcDbLine
 10
12170.58860891544
 20
3241.790768968928
 30
0.0
 11
12155.58860891543
 21
3241.790768968928
 31
0.0
  0
LINE
  5
1CE39
330
1C9B8
100
AcDbEntity
  8
SUNPOU
100
AcDbLine
 10
12280.58860891543
 20
3241.790768968928
 30
0.0
 11
12482.7314660583
 21
3241.790768968928
 31
0.0
  0
LINE
  5
1CE3A
330
1C9B8
100
AcDbEntity
  8
SUNPOU
100
AcDbLine
 10
12185.58860891544
 20
3241.790768968928
 30
0.0
 11
12265.58860891543
 21
3241.790768968928
 31
0.0
  0
LINE
  5
1CE3B
330
1C9B8
100
AcDbEntity
  8
SUNPOU
100
AcDbLine
 10
11705.58860891545
 20
3395.95694289843
 30
0.0
 11
11705.58860891545
 21
3196.790768968928
 31
0.0
  0
LINE
  5
1CE3C
330
1C9B8
100
AcDbEntity
  8
SUNPOU
100
AcDbLine
 10
12185.58860891544
 20
3395.95694289843
 30
0.0
 11
12185.58860891544
 21
3196.790768968928
 31
0.0
  0
LINE
  5
1CE3D
330
1C9B8
100
AcDbEntity
  8
SUNPOU
100
AcDbLine
 10
11720.58860891544
 20
3241.790768968928
 30
0.0
 11
12170.58860891544
 21
3241.790768968928
 31
0.0
  0
LINE
  5
1CE3E
330
1C9B8
100
AcDbEntity
  8
SUNPOU
100
AcDbLine
 10
11705.58860891545
 20
3395.95694289843
 30
0.0
 11
11705.58860891545
 21
3196.790768968928
 31
0.0
  0
LINE
  5
1CE3F
330
1C9B8
100
AcDbEntity
  8
SUNPOU
100
AcDbLine
 10
11625.58860891544
 20
3435.95694289843
 30
0.0
 11
11625.58860891544
 21
3196.790768968928
 31
0.0
  0
LINE
  5
1CE40
330
1C9B8
100
AcDbEntity
  8
SUNPOU
100
AcDbLine
 10
11720.58860891544
 20
3241.790768968928
 30
0.0
 11
11735.58860891545
 21
3241.790768968928
 31
0.0
  0
LINE
  5
1CE41
330
1C9B8
100
AcDbEntity
  8
SUNPOU
100
AcDbLine
 10
11610.58860891543
 20
3241.790768968928
 30
0.0
 11
11408.44575177258
 21
3241.790768968928
 31
0.0
  0
LINE
  5
1CE42
330
1C9B8
100
AcDbEntity
  8
SUNPOU
100
AcDbLine
 10
11705.58860891545
 20
3241.790768968928
 30
0.0
 11
11625.58860891544
 21
3241.790768968928
 31
0.0
  0
LINE
  5
1CE43
330
1C9B8
100
AcDbEntity
  8
SUNPOU
100
AcDbLine
 10
11625.58860891544
 20
3435.95694289843
 30
0.0
 11
11625.58860891544
 21
2986.790768968928
 31
0.0
  0
LINE
  5
1CE44
330
1C9B8
100
AcDbEntity
  8
SUNPOU
100
AcDbLine
 10
12265.58860891543
 20
3435.95694289843
 30
0.0
 11
12265.58860891543
 21
2986.790768968928
 31
0.0
  0
LINE
  5
1CE45
330
1C9B8
100
AcDbEntity
  8
SUNPOU
100
AcDbLine
 10
11640.58860891543
 20
3031.790768968928
 30
0.0
 11
12250.58860891544
 21
3031.790768968928
 31
0.0
  0
ARC
  5
1CE46
330
1C9B8
100
AcDbEntity
  8
SUNPOU
100
AcDbCircle
 10
7750.758701212581
 20
3364.184504159609
 30
0.0
 40
5.625
100
AcDbArc
 50
90.0
 51
270.0
  0
ARC
  5
1CE47
330
1C9B8
100
AcDbEntity
  8
SUNPOU
100
AcDbCircle
 10
7750.758701212581
 20
3364.184504159609
 30
0.0
 40
5.625
100
AcDbArc
 50
270.0
 51
90.0
  0
TEXT
  5
1CE48
330
1C9B8
100
AcDbEntity
  8
SUNPOU
100
AcDbText
 10
7665.044415498297
 20
1427.383932023019
 30
0.0
 40
90.0
  1
800
 41
0.6666666666666666
  7
00
100
AcDbText
  0
LINE
  5
1CE49
330
1C9B8
100
AcDbEntity
  8
SUNPOU
100
AcDbLine
 10
8379.508701212579
 20
1382.383932023019
 30
0.0
 11
8368.25870121258
 21
1382.383932023019
 31
0.0
  0
LINE
  5
1CE4A
330
1C9B8
100
AcDbEntity
  8
SUNPOU
100
AcDbLine
 10
7122.008701212583
 20
1382.383932023019
 30
0.0
 11
7133.258701212581
 21
1382.383932023019
 31
0.0
  0
TEXT
  5
1CE4B
330
1C9B8
100
AcDbEntity
  8
SUNPOU
100
AcDbText
 10
7632.187272641154
 20
1217.38393202302
 30
0.0
 40
90.0
  1
1000
 41
0.6666666666666666
  7
00
100
AcDbText
  0
LINE
  5
1CE4C
330
1C9B8
100
AcDbEntity
  8
SUNPOU
100
AcDbLine
 10
8539.508701212579
 20
1172.38393202302
 30
0.0
 11
8528.258701212578
 21
1172.38393202302
 31
0.0
  0
LINE
  5
1CE4D
330
1C9B8
100
AcDbEntity
  8
SUNPOU
100
AcDbLine
 10
6962.008701212581
 20
1172.38393202302
 30
0.0
 11
6973.25870121258
 21
1172.38393202302
 31
0.0
  0
TEXT
  5
1CE4E
330
1C9B8
100
AcDbEntity
  8
SUNPOU
100
AcDbText
 10
6786.405305211824
 20
2431.641074880161
 30
0.0
 40
90.0
  1
80
 50
90.0
 41
0.6666666666666666
  7
00
100
AcDbText
  0
LINE
  5
1CE4F
330
1C9B8
100
AcDbEntity
  8
SUNPOU
100
AcDbLine
 10
6831.405305211823
 20
2436.033932023015
 30
0.0
 11
6831.405305211823
 21
2447.283932023015
 31
0.0
  0
LINE
  5
1CE50
330
1C9B8
100
AcDbEntity
  8
SUNPOU
100
AcDbLine
 10
6831.405305211823
 20
2541.53393202302
 30
0.0
 11
6831.405305211823
 21
2530.283932023019
 31
0.0
  0
TEXT
  5
1CE51
330
1C9B8
100
AcDbEntity
  8
SUNPOU
100
AcDbText
 10
6786.405305211822
 20
2738.612503451591
 30
0.0
 40
90.0
  1
84
 50
90.0
 41
0.6666666666666666
  7
00
100
AcDbText
  0
LINE
  5
1CE52
330
1C9B8
100
AcDbEntity
  8
SUNPOU
100
AcDbLine
 10
6831.405305211823
 20
2675.933932023017
 30
0.0
 11
6831.405305211823
 21
2664.683932023019
 31
0.0
  0
LINE
  5
1CE53
330
1C9B8
100
AcDbEntity
  8
SUNPOU
100
AcDbLine
 10
6831.405305211823
 20
2564.033932023017
 30
0.0
 11
6831.405305211823
 21
2575.283932023017
 31
0.0
  0
TEXT
  5
1CE54
330
1C9B8
100
AcDbEntity
  8
SUNPOU
100
AcDbText
 10
6786.405305211822
 20
2099.069646308733
 30
0.0
 40
90.0
  1
300
 50
90.0
 41
0.6666666666666666
  7
00
100
AcDbText
  0
LINE
  5
1CE55
330
1C9B8
100
AcDbEntity
  8
SUNPOU
100
AcDbLine
 10
6831.405305211823
 20
2413.533932023015
 30
0.0
 11
6831.405305211823
 21
2402.283932023015
 31
0.0
  0
LINE
  5
1CE56
330
1C9B8
100
AcDbEntity
  8
SUNPOU
100
AcDbLine
 10
6831.405305211823
 20
1956.033932023021
 30
0.0
 11
6831.405305211823
 21
1967.283932023021
 31
0.0
  0
TEXT
  5
1CE57
330
1C9B8
100
AcDbEntity
  8
SUNPOU
100
AcDbText
 10
6786.405305211824
 20
1561.926789165875
 30
0.0
 40
90.0
  1
100
 50
90.0
 41
0.6666666666666666
  7
00
100
AcDbText
  0
LINE
  5
1CE58
330
1C9B8
100
AcDbEntity
  8
SUNPOU
100
AcDbLine
 10
6831.405305211823
 20
1796.033932023018
 30
0.0
 11
6831.405305211823
 21
1807.283932023018
 31
0.0
  0
LINE
  5
1CE59
330
1C9B8
100
AcDbEntity
  8
SUNPOU
100
AcDbLine
 10
6831.405305211823
 20
1933.533932023021
 30
0.0
 11
6831.405305211823
 21
1922.283932023021
 31
0.0
  0
TEXT
  5
1CE5A
330
1C9B8
100
AcDbEntity
  8
SUNPOU
100
AcDbText
 10
6576.405305211823
 20
2148.841074880162
 30
0.0
 40
90.0
  1
564
 50
90.0
 41
0.6666666666666666
  7
00
100
AcDbText
  0
LINE
  5
1CE5B
330
1C9B8
100
AcDbEntity
  8
SUNPOU
100
AcDbLine
 10
6621.405305211823
 20
1796.033932023018
 30
0.0
 11
6621.405305211823
 21
1807.283932023018
 31
0.0
  0
LINE
  5
1CE5C
330
1C9B8
100
AcDbEntity
  8
SUNPOU
100
AcDbLine
 10
6621.405305211823
 20
2675.933932023017
 30
0.0
 11
6621.405305211823
 21
2664.683932023019
 31
0.0
  0
TEXT
  5
1CE5D
330
1C9B8
100
AcDbEntity
  8
SUNPOU
100
AcDbText
 10
3504.773135597017
 20
1427.383932023013
 30
0.0
 40
90.0
  1
600
 41
0.6666666666666666
  7
00
100
AcDbText
  0
LINE
  5
1CE5E
330
1C9B8
100
AcDbEntity
  8
SUNPOU
100
AcDbLine
 10
4060.665992739873
 20
1382.383932023014
 30
0.0
 11
4049.415992739874
 21
1382.383932023014
 31
0.0
  0
LINE
  5
1CE5F
330
1C9B8
100
AcDbEntity
  8
SUNPOU
100
AcDbLine
 10
3123.165992739874
 20
1382.383932023014
 30
0.0
 11
3134.415992739874
 21
1382.383932023014
 31
0.0
  0
TEXT
  5
1CE60
330
1C9B8
100
AcDbEntity
  8
SUNPOU
100
AcDbText
 10
3506.201707025587
 20
1217.383932023014
 30
0.0
 40
90.0
  1
800
 41
0.6666666666666666
  7
00
100
AcDbText
  0
LINE
  5
1CE61
330
1C9B8
100
AcDbEntity
  8
SUNPOU
100
AcDbLine
 10
4220.665992739871
 20
1172.383932023014
 30
0.0
 11
4209.415992739871
 21
1172.383932023014
 31
0.0
  0
LINE
  5
1CE62
330
1C9B8
100
AcDbEntity
  8
SUNPOU
100
AcDbLine
 10
2963.165992739872
 20
1172.383932023014
 30
0.0
 11
2974.415992739873
 21
1172.383932023014
 31
0.0
  0
TEXT
  5
1CE63
330
1C9B8
100
AcDbEntity
  8
SUNPOU
100
AcDbText
 10
2207.562596739115
 20
2753.612503451591
 30
0.0
 40
90.0
  1
50
 50
90.0
 41
0.6666666666666666
  7
00
100
AcDbText
  0
LINE
  5
1CE64
330
1C9B8
100
AcDbEntity
  8
SUNPOU
100
AcDbLine
 10
2252.562596739116
 20
2698.433932023017
 30
0.0
 11
2252.562596739116
 21
2709.683932023019
 31
0.0
  0
LINE
  5
1CE65
330
1C9B8
100
AcDbEntity
  8
SUNPOU
100
AcDbLine
 10
2252.562596739116
 20
2595.933932023017
 30
0.0
 11
2252.562596739116
 21
2584.683932023017
 31
0.0
  0
TEXT
  5
1CE66
330
1C9B8
100
AcDbEntity
  8
SUNPOU
100
AcDbText
 10
2627.562596739117
 20
2431.641074880156
 30
0.0
 40
90.0
  1
80
 50
90.0
 41
0.6666666666666666
  7
00
100
AcDbText
  0
LINE
  5
1CE67
330
1C9B8
100
AcDbEntity
  8
SUNPOU
100
AcDbLine
 10
2672.562596739117
 20
2436.033932023011
 30
0.0
 11
2672.562596739117
 21
2447.28393202301
 31
0.0
  0
LINE
  5
1CE68
330
1C9B8
100
AcDbEntity
  8
SUNPOU
100
AcDbLine
 10
2672.562596739117
 20
2541.533932023015
 30
0.0
 11
2672.562596739117
 21
2530.283932023015
 31
0.0
  0
TEXT
  5
1CE69
330
1C9B8
100
AcDbEntity
  8
SUNPOU
100
AcDbText
 10
2627.562596739115
 20
2738.612503451589
 30
0.0
 40
90.0
  1
84
 50
90.0
 41
0.6666666666666666
  7
00
100
AcDbText
  0
LINE
  5
1CE6A
330
1C9B8
100
AcDbEntity
  8
SUNPOU
100
AcDbLine
 10
2672.562596739116
 20
2675.933932023017
 30
0.0
 11
2672.562596739116
 21
2664.683932023019
 31
0.0
  0
LINE
  5
1CE6B
330
1C9B8
100
AcDbEntity
  8
SUNPOU
100
AcDbLine
 10
2672.562596739116
 20
2564.033932023017
 30
0.0
 11
2672.562596739116
 21
2575.283932023017
 31
0.0
  0
TEXT
  5
1CE6C
330
1C9B8
100
AcDbEntity
  8
SUNPOU
100
AcDbText
 10
2627.562596739115
 20
2099.069646308731
 30
0.0
 40
90.0
  1
300
 50
90.0
 41
0.6666666666666666
  7
00
100
AcDbText
  0
LINE
  5
1CE6D
330
1C9B8
100
AcDbEntity
  8
SUNPOU
100
AcDbLine
 10
2672.562596739116
 20
2413.533932023013
 30
0.0
 11
2672.562596739116
 21
2402.283932023012
 31
0.0
  0
LINE
  5
1CE6E
330
1C9B8
100
AcDbEntity
  8
SUNPOU
100
AcDbLine
 10
2672.562596739116
 20
1956.033932023018
 30
0.0
 11
2672.562596739116
 21
1967.283932023018
 31
0.0
  0
TEXT
  5
1CE6F
330
1C9B8
100
AcDbEntity
  8
SUNPOU
100
AcDbText
 10
2627.562596739115
 20
1561.926789165875
 30
0.0
 40
90.0
  1
100
 50
90.0
 41
0.6666666666666666
  7
00
100
AcDbText
  0
LINE
  5
1CE70
330
1C9B8
100
AcDbEntity
  8
SUNPOU
100
AcDbLine
 10
2672.562596739116
 20
1796.033932023019
 30
0.0
 11
2672.562596739116
 21
1807.283932023018
 31
0.0
  0
LINE
  5
1CE71
330
1C9B8
100
AcDbEntity
  8
SUNPOU
100
AcDbLine
 10
2672.562596739116
 20
1933.533932023019
 30
0.0
 11
2672.562596739116
 21
1922.283932023018
 31
0.0
  0
TEXT
  5
1CE72
330
1C9B8
100
AcDbEntity
  8
SUNPOU
100
AcDbText
 10
2417.562596739115
 20
2148.841074880162
 30
0.0
 40
90.0
  1
564
 50
90.0
 41
0.6666666666666666
  7
00
100
AcDbText
  0
LINE
  5
1CE73
330
1C9B8
100
AcDbEntity
  8
SUNPOU
100
AcDbLine
 10
2462.562596739115
 20
1796.033932023019
 30
0.0
 11
2462.562596739115
 21
1807.283932023019
 31
0.0
  0
LINE
  5
1CE74
330
1C9B8
100
AcDbEntity
  8
SUNPOU
100
AcDbLine
 10
2462.562596739115
 20
2675.933932023017
 30
0.0
 11
2462.562596739115
 21
2664.683932023019
 31
0.0
  0
TEXT
  5
1CE75
330
1C9B8
100
AcDbEntity
  8
SUNPOU
100
AcDbText
 10
3186.201707025588
 20
3409.184504159606
 30
0.0
 40
90.0
  1
400
 41
0.6666666666666666
  7
00
100
AcDbText
  0
LINE
  5
1CE76
330
1C9B8
100
AcDbEntity
  8
SUNPOU
100
AcDbLine
 10
2963.165992739875
 20
3364.184504159605
 30
0.0
 11
2974.415992739875
 21
3364.184504159605
 31
0.0
  0
LINE
  5
1CE77
330
1C9B8
100
AcDbEntity
  8
SUNPOU
100
AcDbLine
 10
3580.665992739874
 20
3364.184504159605
 30
0.0
 11
3569.415992739874
 21
3364.184504159605
 31
0.0
  0
TEXT
  5
1CE78
330
1C9B8
100
AcDbEntity
  8
SUNPOU
100
AcDbText
 10
12389.21703198605
 20
9360.001074758967
 30
0.0
 40
90.0
  1
300
 50
90.0
 41
0.6666666666666666
  7
00
100
AcDbText
  0
LINE
  5
1CE79
330
1C9B8
100
AcDbEntity
  8
SUNPOU
100
AcDbLine
 10
12434.21703198606
 20
9584.465360473251
 30
0.0
 11
12434.21703198606
 21
9573.21536047325
 31
0.0
  0
LINE
  5
1CE7A
330
1C9B8
100
AcDbEntity
  8
SUNPOU
100
AcDbLine
 10
12434.21703198606
 20
9306.965360473252
 30
0.0
 11
12434.21703198606
 21
9318.215360473251
 31
0.0
  0
TEXT
  5
1CE7B
330
1C9B8
100
AcDbEntity
  8
SUNPOU
100
AcDbText
 10
12389.21703198605
 20
8277.143931901829
 30
0.0
 40
90.0
  1
1800
 50
90.0
 41
0.6666666666666666
  7
00
100
AcDbText
  0
LINE
  5
1CE7C
330
1C9B8
100
AcDbEntity
  8
SUNPOU
100
AcDbLine
 10
12434.21703198606
 20
9284.465360473253
 30
0.0
 11
12434.21703198606
 21
9273.215360473249
 31
0.0
  0
LINE
  5
1CE7D
330
1C9B8
100
AcDbEntity
  8
SUNPOU
100
AcDbLine
 10
12434.21703198606
 20
7506.965360473255
 30
0.0
 11
12434.21703198606
 21
7518.215360473253
 31
0.0
  0
TEXT
  5
1CE7E
330
1C9B8
100
AcDbEntity
  8
SUNPOU
100
AcDbText
 10
12389.21703198605
 20
6477.143931901827
 30
0.0
 40
90.0
  1
1800
 50
90.0
 41
0.6666666666666666
  7
00
100
AcDbText
  0
LINE
  5
1CE7F
330
1C9B8
100
AcDbEntity
  8
SUNPOU
100
AcDbLine
 10
12434.21703198606
 20
7484.465360473253
 30
0.0
 11
12434.21703198606
 21
7473.215360473253
 31
0.0
  0
LINE
  5
1CE80
330
1C9B8
100
AcDbEntity
  8
SUNPOU
100
AcDbLine
 10
12434.21703198606
 20
5706.965360473253
 30
0.0
 11
12434.21703198606
 21
5718.215360473253
 31
0.0
  0
TEXT
  5
1CE81
330
1C9B8
100
AcDbEntity
  8
SUNPOU
100
AcDbText
 10
12389.21703198605
 20
5460.001074758969
 30
0.0
 40
90.0
  1
300
 50
90.0
 41
0.6666666666666666
  7
00
100
AcDbText
  0
LINE
  5
1CE82
330
1C9B8
100
AcDbEntity
  8
SUNPOU
100
AcDbLine
 10
12434.21703198606
 20
5684.465360473253
 30
0.0
 11
12434.21703198606
 21
5673.215360473253
 31
0.0
  0
LINE
  5
1CE83
330
1C9B8
100
AcDbEntity
  8
SUNPOU
100
AcDbLine
 10
12434.21703198606
 20
5406.965360473253
 30
0.0
 11
12434.21703198606
 21
5418.215360473253
 31
0.0
  0
TEXT
  5
1CE84
330
1C9B8
100
AcDbEntity
  8
SUNPOU
100
AcDbText
 10
12599.21703198606
 20
7381.42964618754
 30
0.0
 40
90.0
  1
4200
 50
90.0
 41
0.6666666666666666
  7
00
100
AcDbText
  0
LINE
  5
1CE85
330
1C9B8
100
AcDbEntity
  8
SUNPOU
100
AcDbLine
 10
12644.21703198606
 20
9584.465360473251
 30
0.0
 11
12644.21703198606
 21
9573.21536047325
 31
0.0
  0
LINE
  5
1CE86
330
1C9B8
100
AcDbEntity
  8
SUNPOU
100
AcDbLine
 10
12644.21703198606
 20
5406.965360473253
 30
0.0
 11
12644.21703198606
 21
5418.215360473253
 31
0.0
  0
TEXT
  5
1CE87
330
1C9B8
100
AcDbEntity
  8
SUNPOU
100
AcDbText
 10
7776.482360557491
 20
10040.71536047325
 30
0.0
 40
90.0
  1
2800 × （ N - 2 ）
 41
0.6667
  7
00
100
AcDbText
  0
LINE
  5
1CE88
330
1C9B8
100
AcDbEntity
  8
SUNPOU
100
AcDbLine
 10
8822.96703198606
 20
9995.715360473253
 30
0.0
 11
8811.717031986061
 21
9995.715360473253
 31
0.0
  0
LINE
  5
1CE89
330
1C9B8
100
AcDbEntity
  8
SUNPOU
100
AcDbLine
 10
7545.46703198606
 20
9995.715360473253
 30
0.0
 11
7556.717031986058
 21
9995.715360473253
 31
0.0
  0
TEXT
  5
1CE8A
330
1C9B8
100
AcDbEntity
  8
SUNPOU
100
AcDbText
 10
9389.21703198606
 20
5608.572503330398
 30
0.0
 40
90.0
  1
600
 50
90.0
 41
0.6666666666666666
  7
00
100
AcDbText
  0
LINE
  5
1CE8B
330
1C9B8
100
AcDbEntity
  8
SUNPOU
100
AcDbLine
 10
9434.21703198606
 20
5406.965360473254
 30
0.0
 11
9434.21703198606
 21
5418.215360473254
 31
0.0
  0
LINE
  5
1CE8C
330
1C9B8
100
AcDbEntity
  8
SUNPOU
100
AcDbLine
 10
9434.21703198606
 20
5984.465360473254
 30
0.0
 11
9434.21703198606
 21
5973.215360473255
 31
0.0
  0
TEXT
  5
1CE8D
330
1C9B8
100
AcDbEntity
  8
SUNPOU
100
AcDbText
 10
7720.502746271773
 20
10250.71536047325
 30
0.0
 40
90.0
  1
L = 2800 x N + 800
 41
0.6666666666666666
  7
00
100
AcDbText
  0
LINE
  5
1CE8E
330
1C9B8
100
AcDbEntity
  8
SUNPOU
100
AcDbLine
 10
12022.96703198606
 20
10205.71536047325
 30
0.0
 11
12011.71703198606
 21
10205.71536047325
 31
0.0
  0
LINE
  5
1CE8F
330
1C9B8
100
AcDbEntity
  8
SUNPOU
100
AcDbLine
 10
4345.46703198606
 20
10205.71536047325
 30
0.0
 11
4356.71703198606
 21
10205.71536047325
 31
0.0
  0
TEXT
  5
1CE90
330
1C9B8
100
AcDbEntity
  8
SUNPOU
100
AcDbText
 10
6019.931317700345
 20
10040.71536047325
 30
0.0
 40
90.0
  1
2800
 41
0.6666666666666666
  7
00
100
AcDbText
  0
LINE
  5
1CE91
330
1C9B8
100
AcDbEntity
  8
SUNPOU
100
AcDbLine
 10
4745.467031986058
 20
9995.715360473253
 30
0.0
 11
4756.71703198606
 21
9995.715360473253
 31
0.0
  0
LINE
  5
1CE92
330
1C9B8
100
AcDbEntity
  8
SUNPOU
100
AcDbLine
 10
7522.96703198606
 20
9995.715360473253
 30
0.0
 11
7511.71703198606
 21
9995.715360473253
 31
0.0
  0
TEXT
  5
1CE93
330
1C9B8
100
AcDbEntity
  8
SUNPOU
100
AcDbText
 10
10119.93131770034
 20
10040.71536047325
 30
0.0
 40
90.0
  1
2800
 41
0.6666666666666666
  7
00
100
AcDbText
  0
LINE
  5
1CE94
330
1C9B8
100
AcDbEntity
  8
SUNPOU
100
AcDbLine
 10
8845.467031986059
 20
9995.715360473253
 30
0.0
 11
8856.717031986059
 21
9995.715360473253
 31
0.0
  0
LINE
  5
1CE95
330
1C9B8
100
AcDbEntity
  8
SUNPOU
100
AcDbLine
 10
11622.96703198606
 20
9995.715360473253
 30
0.0
 11
11611.71703198605
 21
9995.715360473253
 31
0.0
  0
TEXT
  5
1CE96
330
1C9B8
100
AcDbEntity
  8
SUNPOU
100
AcDbText
 10
4448.502746271774
 20
10040.71536047325
 30
0.0
 40
90.0
  1
400
 41
0.6666666666666666
  7
00
100
AcDbText
  0
LINE
  5
1CE97
330
1C9B8
100
AcDbEntity
  8
SUNPOU
100
AcDbLine
 10
4345.46703198606
 20
9995.715360473253
 30
0.0
 11
4356.71703198606
 21
9995.715360473253
 31
0.0
  0
LINE
  5
1CE98
330
1C9B8
100
AcDbEntity
  8
SUNPOU
100
AcDbLine
 10
4722.967031986057
 20
9995.715360473253
 30
0.0
 11
4711.71703198606
 21
9995.715360473253
 31
0.0
  0
TEXT
  5
1CE99
330
1C9B8
100
AcDbEntity
  8
SUNPOU
100
AcDbText
 10
11748.50274627176
 20
10040.71536047325
 30
0.0
 40
90.0
  1
400
 41
0.6666666666666666
  7
00
100
AcDbText
  0
LINE
  5
1CE9A
330
1C9B8
100
AcDbEntity
  8
SUNPOU
100
AcDbLine
 10
12022.96703198606
 20
9995.715360473253
 30
0.0
 11
12011.71703198606
 21
9995.715360473253
 31
0.0
  0
LINE
  5
1CE9B
330
1C9B8
100
AcDbEntity
  8
SUNPOU
100
AcDbLine
 10
11645.46703198606
 20
9995.715360473253
 30
0.0
 11
11656.71703198606
 21
9995.715360473253
 31
0.0
  0
TEXT
  5
1CE9C
330
1C9B8
100
AcDbEntity
  8
SUNPOU
100
AcDbText
 10
6889.21703198606
 20
9208.572503330399
 30
0.0
 40
90.0
  1
600
 50
90.0
 41
0.6666666666666666
  7
00
100
AcDbText
  0
LINE
  5
1CE9D
330
1C9B8
100
AcDbEntity
  8
SUNPOU
100
AcDbLine
 10
6934.21703198606
 20
9006.96536047325
 30
0.0
 11
6934.21703198606
 21
9018.215360473252
 31
0.0
  0
LINE
  5
1CE9E
330
1C9B8
100
AcDbEntity
  8
SUNPOU
100
AcDbLine
 10
6934.21703198606
 20
9584.465360473252
 30
0.0
 11
6934.21703198606
 21
9573.215360473252
 31
0.0
  0
TEXT
  5
1CE9F
330
1C9B8
100
AcDbEntity
  8
SUNPOU
100
AcDbText
 10
7447.074174843203
 20
8740.715360473251
 30
0.0
 40
90.0
  1
600
 41
0.6666666666666666
  7
00
100
AcDbText
  0
LINE
  5
1CEA0
330
1C9B8
100
AcDbEntity
  8
SUNPOU
100
AcDbLine
 10
7822.96703198606
 20
8695.715360473251
 30
0.0
 11
7811.71703198606
 21
8695.715360473251
 31
0.0
  0
LINE
  5
1CEA1
330
1C9B8
100
AcDbEntity
  8
SUNPOU
100
AcDbLine
 10
7245.467031986058
 20
8695.715360473251
 30
0.0
 11
7256.71703198606
 21
8695.715360473251
 31
0.0
  0
TEXT
  5
1CEA2
330
1C9B8
100
AcDbEntity
  8
SUNPOU
100
AcDbText
 10
8747.074174843204
 20
6290.715360473253
 30
0.0
 40
90.0
  1
600
 41
0.6666666666666666
  7
00
100
AcDbText
  0
LINE
  5
1CEA3
330
1C9B8
100
AcDbEntity
  8
SUNPOU
100
AcDbLine
 10
9122.96703198606
 20
6245.715360473253
 30
0.0
 11
9111.71703198606
 21
6245.715360473253
 31
0.0
  0
LINE
  5
1CEA4
330
1C9B8
100
AcDbEntity
  8
SUNPOU
100
AcDbLine
 10
8545.46703198606
 20
6245.715360473253
 30
0.0
 11
8556.717031986059
 21
6245.715360473253
 31
0.0
  0
TEXT
  5
1CEA5
330
1C9B8
100
AcDbEntity
  8
SUNPOU
100
AcDbText
 10
8748.502746271773
 20
8110.715360473252
 30
0.0
 40
90.0
  1
800
 41
0.6666666666666666
  7
00
100
AcDbText
  0
LINE
  5
1CEA6
330
1C9B8
100
AcDbEntity
  8
SUNPOU
100
AcDbLine
 10
9222.96703198606
 20
8065.715360473253
 30
0.0
 11
9211.71703198606
 21
8065.715360473253
 31
0.0
  0
LINE
  5
1CEA7
330
1C9B8
100
AcDbEntity
  8
SUNPOU
100
AcDbLine
 10
8445.46703198606
 20
8065.715360473253
 30
0.0
 11
8456.717031986059
 21
8065.715360473253
 31
0.0
  0
TEXT
  5
1CEA8
330
1C9B8
100
AcDbEntity
  8
SUNPOU
100
AcDbText
 10
9389.21703198606
 20
7410.001074758969
 30
0.0
 40
90.0
  1
800
 50
90.0
 41
0.6666666666666666
  7
00
100
AcDbText
  0
LINE
  5
1CEA9
330
1C9B8
100
AcDbEntity
  8
SUNPOU
100
AcDbLine
 10
9434.21703198606
 20
7106.965360473253
 30
0.0
 11
9434.21703198606
 21
7118.215360473254
 31
0.0
  0
LINE
  5
1CEAA
330
1C9B8
100
AcDbEntity
  8
SUNPOU
100
AcDbLine
 10
9434.21703198606
 20
7884.465360473253
 30
0.0
 11
9434.21703198606
 21
7873.215360473253
 31
0.0
  0
TEXT
  5
1CEAB
330
1C9B8
100
AcDbEntity
  8
SUNPOU
100
AcDbText
 10
12332.017180344
 20
2138.424883029956
 30
0.0
 40
90.0
  1
20
 41
0.6666666666666666
  7
00
100
AcDbText
  0
LINE
  5
1CEAC
330
1C9B8
100
AcDbEntity
  8
SUNPOU
100
AcDbLine
 10
12276.83860891543
 20
2093.424883029956
 30
0.0
 11
12288.08860891543
 21
2093.424883029956
 31
0.0
  0
LINE
  5
1CEAD
330
1C9B8
100
AcDbEntity
  8
SUNPOU
100
AcDbLine
 10
12174.33860891544
 20
2093.424883029956
 30
0.0
 11
12163.08860891543
 21
2093.424883029956
 31
0.0
  0
TEXT
  5
1CEAE
330
1C9B8
100
AcDbEntity
  8
SUNPOU
100
AcDbText
 10
11855.58860891545
 20
2138.424883029956
 30
0.0
 40
90.0
  1
120
 41
0.6666666666666666
  7
00
100
AcDbText
  0
LINE
  5
1CEAF
330
1C9B8
100
AcDbEntity
  8
SUNPOU
100
AcDbLine
 10
12174.33860891544
 20
2093.424883029956
 30
0.0
 11
12163.08860891543
 21
2093.424883029956
 31
0.0
  0
LINE
  5
1CEB0
330
1C9B8
100
AcDbEntity
  8
SUNPOU
100
AcDbLine
 10
11716.83860891544
 20
2093.424883029956
 30
0.0
 11
11728.08860891545
 21
2093.424883029956
 31
0.0
  0
TEXT
  5
1CEB1
330
1C9B8
100
AcDbEntity
  8
SUNPOU
100
AcDbText
 10
11444.87432320114
 20
2138.424883029956
 30
0.0
 40
90.0
  1
20
 41
0.6666666666666666
  7
00
100
AcDbText
  0
LINE
  5
1CEB2
330
1C9B8
100
AcDbEntity
  8
SUNPOU
100
AcDbLine
 10
11614.33860891543
 20
2093.424883029956
 30
0.0
 11
11603.08860891543
 21
2093.424883029956
 31
0.0
  0
LINE
  5
1CEB3
330
1C9B8
100
AcDbEntity
  8
SUNPOU
100
AcDbLine
 10
11716.83860891544
 20
2093.424883029956
 30
0.0
 11
11728.08860891545
 21
2093.424883029956
 31
0.0
  0
TEXT
  5
1CEB4
330
1C9B8
100
AcDbEntity
  8
SUNPOU
100
AcDbText
 10
11855.58860891543
 20
1928.424883029956
 30
0.0
 40
90.0
  1
160
 41
0.6666666666666666
  7
00
100
AcDbText
  0
LINE
  5
1CEB5
330
1C9B8
100
AcDbEntity
  8
SUNPOU
100
AcDbLine
 10
12254.33860891544
 20
1883.424883029956
 30
0.0
 11
12243.08860891544
 21
1883.424883029956
 31
0.0
  0
LINE
  5
1CEB6
330
1C9B8
100
AcDbEntity
  8
SUNPOU
100
AcDbLine
 10
11636.83860891544
 20
1883.424883029956
 30
0.0
 11
11648.08860891543
 21
1883.424883029956
 31
0.0
  0
TEXT
  5
1CEB7
330
1C9B8
100
AcDbEntity
  8
SUNPOU
100
AcDbText
 10
11277.58860891543
 20
2222.049964652736
 30
0.0
 40
90.0
  1
40
 50
90.0
 41
0.6666666666666666
  7
00
100
AcDbText
  0
LINE
  5
1CEB8
330
1C9B8
100
AcDbEntity
  8
SUNPOU
100
AcDbLine
 10
11322.58860891544
 20
2399.01425036702
 30
0.0
 11
11322.58860891544
 21
2410.26425036702
 31
0.0
  0
LINE
  5
1CEB9
330
1C9B8
100
AcDbEntity
  8
SUNPOU
100
AcDbLine
 10
11322.58860891544
 20
2536.514250367019
 30
0.0
 11
11322.58860891544
 21
2525.264250367019
 31
0.0
  0
TEXT
  5
1CEBA
330
1C9B8
100
AcDbEntity
  8
SUNPOU
100
AcDbText
 10
11277.58860891543
 20
2759.192821795593
 30
0.0
 40
90.0
  1
40
 50
90.0
 41
0.6666666666666666
  7
00
100
AcDbText
  0
LINE
  5
1CEBB
330
1C9B8
100
AcDbEntity
  8
SUNPOU
100
AcDbLine
 10
11322.58860891544
 20
2696.51425036702
 30
0.0
 11
11322.58860891544
 21
2685.26425036702
 31
0.0
  0
LINE
  5
1CEBC
330
1C9B8
100
AcDbEntity
  8
SUNPOU
100
AcDbLine
 10
11322.58860891544
 20
2559.014250367019
 30
0.0
 11
11322.58860891544
 21
2570.264250367019
 31
0.0
  0
TEXT
  5
1CEBD
330
1C9B8
100
AcDbEntity
  8
SUNPOU
100
AcDbText
 10
11067.58860891543
 20
2490.621393224165
 30
0.0
 40
90.0
  1
80
 50
90.0
 41
0.6666666666666666
  7
00
100
AcDbText
  0
LINE
  5
1CEBE
330
1C9B8
100
AcDbEntity
  8
SUNPOU
100
AcDbLine
 10
11112.58860891543
 20
2696.51425036702
 30
0.0
 11
11112.58860891543
 21
2685.26425036702
 31
0.0
  0
LINE
  5
1CEBF
330
1C9B8
100
AcDbEntity
  8
SUNPOU
100
AcDbLine
 10
11112.58860891543
 20
2399.01425036702
 30
0.0
 11
11112.58860891543
 21
2410.26425036702
 31
0.0
  0
TEXT
  5
1CEC0
330
1C9B8
100
AcDbEntity
  8
SUNPOU
100
AcDbText
 10
12332.017180344
 20
3286.790768968928
 30
0.0
 40
90.0
  1
20
 41
0.6666666666666666
  7
00
100
AcDbText
  0
LINE
  5
1CEC1
330
1C9B8
100
AcDbEntity
  8
SUNPOU
100
AcDbLine
 10
12276.83860891543
 20
3241.790768968928
 30
0.0
 11
12288.08860891543
 21
3241.790768968928
 31
0.0
  0
LINE
  5
1CEC2
330
1C9B8
100
AcDbEntity
  8
SUNPOU
100
AcDbLine
 10
12174.33860891544
 20
3241.790768968928
 30
0.0
 11
12163.08860891543
 21
3241.790768968928
 31
0.0
  0
TEXT
  5
1CEC3
330
1C9B8
100
AcDbEntity
  8
SUNPOU
100
AcDbText
 10
11855.58860891545
 20
3286.790768968928
 30
0.0
 40
90.0
  1
120
 41
0.6666666666666666
  7
00
100
AcDbText
  0
LINE
  5
1CEC4
330
1C9B8
100
AcDbEntity
  8
SUNPOU
100
AcDbLine
 10
12174.33860891544
 20
3241.790768968928
 30
0.0
 11
12163.08860891543
 21
3241.790768968928
 31
0.0
  0
LINE
  5
1CEC5
330
1C9B8
100
AcDbEntity
  8
SUNPOU
100
AcDbLine
 10
11716.83860891544
 20
3241.790768968928
 30
0.0
 11
11728.08860891545
 21
3241.790768968928
 31
0.0
  0
TEXT
  5
1CEC6
330
1C9B8
100
AcDbEntity
  8
SUNPOU
100
AcDbText
 10
11444.87432320114
 20
3286.790768968928
 30
0.0
 40
90.0
  1
20
 41
0.6666666666666666
  7
00
100
AcDbText
  0
LINE
  5
1CEC7
330
1C9B8
100
AcDbEntity
  8
SUNPOU
100
AcDbLine
 10
11614.33860891543
 20
3241.790768968928
 30
0.0
 11
11603.08860891543
 21
3241.790768968928
 31
0.0
  0
LINE
  5
1CEC8
330
1C9B8
100
AcDbEntity
  8
SUNPOU
100
AcDbLine
 10
11716.83860891544
 20
3241.790768968928
 30
0.0
 11
11728.08860891545
 21
3241.790768968928
 31
0.0
  0
TEXT
  5
1CEC9
330
1C9B8
100
AcDbEntity
  8
SUNPOU
100
AcDbText
 10
11855.58860891543
 20
3076.790768968928
 30
0.0
 40
90.0
  1
160
 41
0.6666666666666666
  7
00
100
AcDbText
  0
LINE
  5
1CECA
330
1C9B8
100
AcDbEntity
  8
SUNPOU
100
AcDbLine
 10
12254.33860891544
 20
3031.790768968928
 30
0.0
 11
12243.08860891544
 21
3031.790768968928
 31
0.0
  0
LINE
  5
1CECB
330
1C9B8
100
AcDbEntity
  8
SUNPOU
100
AcDbLine
 10
11636.83860891544
 20
3031.790768968928
 30
0.0
 11
11648.08860891543
 21
3031.790768968928
 31
0.0
  0
ARC
  5
1CECC
330
1C9B8
100
AcDbEntity
  8
SUNPOU
100
AcDbCircle
 10
8390.758701212579
 20
1382.383932023019
 30
0.0
 40
5.625
100
AcDbArc
 50
180.0
 51
0.0
  0
ARC
  5
1CECD
330
1C9B8
100
AcDbEntity
  8
SUNPOU
100
AcDbCircle
 10
8390.758701212579
 20
1382.383932023019
 30
0.0
 40
5.625
100
AcDbArc
 50
0.0
 51
180.0
  0
ARC
  5
1CECE
330
1C9B8
100
AcDbEntity
  8
SUNPOU
100
AcDbCircle
 10
7110.758701212581
 20
1382.383932023019
 30
0.0
 40
5.625
100
AcDbArc
 50
0.0
 51
180.0
  0
ARC
  5
1CECF
330
1C9B8
100
AcDbEntity
  8
SUNPOU
100
AcDbCircle
 10
7110.758701212581
 20
1382.383932023019
 30
0.0
 40
5.625
100
AcDbArc
 50
180.0
 51
0.0
  0
ARC
  5
1CED0
330
1C9B8
100
AcDbEntity
  8
SUNPOU
100
AcDbCircle
 10
8550.758701212577
 20
1172.38393202302
 30
0.0
 40
5.625
100
AcDbArc
 50
180.0
 51
0.0
  0
ARC
  5
1CED1
330
1C9B8
100
AcDbEntity
  8
SUNPOU
100
AcDbCircle
 10
8550.758701212577
 20
1172.38393202302
 30
0.0
 40
5.625
100
AcDbArc
 50
0.0
 51
180.0
  0
ARC
  5
1CED2
330
1C9B8
100
AcDbEntity
  8
SUNPOU
100
AcDbCircle
 10
6950.758701212581
 20
1172.38393202302
 30
0.0
 40
5.625
100
AcDbArc
 50
0.0
 51
180.0
  0
ARC
  5
1CED3
330
1C9B8
100
AcDbEntity
  8
SUNPOU
100
AcDbCircle
 10
6950.758701212581
 20
1172.38393202302
 30
0.0
 40
5.625
100
AcDbArc
 50
180.0
 51
0.0
  0
ARC
  5
1CED4
330
1C9B8
100
AcDbEntity
  8
SUNPOU
100
AcDbCircle
 10
6831.405305211823
 20
2424.783932023015
 30
0.0
 40
5.625
100
AcDbArc
 50
90.0
 51
270.0
  0
ARC
  5
1CED5
330
1C9B8
100
AcDbEntity
  8
SUNPOU
100
AcDbCircle
 10
6831.405305211823
 20
2424.783932023015
 30
0.0
 40
5.625
100
AcDbArc
 50
270.0
 51
90.0
  0
ARC
  5
1CED6
330
1C9B8
100
AcDbEntity
  8
SUNPOU
100
AcDbCircle
 10
6831.405305211823
 20
2552.78393202302
 30
0.0
 40
5.625
100
AcDbArc
 50
270.0
 51
90.0
  0
ARC
  5
1CED7
330
1C9B8
100
AcDbEntity
  8
SUNPOU
100
AcDbCircle
 10
6831.405305211823
 20
2552.78393202302
 30
0.0
 40
5.625
100
AcDbArc
 50
90.0
 51
270.0
  0
ARC
  5
1CED8
330
1C9B8
100
AcDbEntity
  8
SUNPOU
100
AcDbCircle
 10
6831.405305211823
 20
2687.183932023017
 30
0.0
 40
5.625
100
AcDbArc
 50
270.0
 51
90.0
  0
ARC
  5
1CED9
330
1C9B8
100
AcDbEntity
  8
SUNPOU
100
AcDbCircle
 10
6831.405305211823
 20
2687.183932023017
 30
0.0
 40
5.625
100
AcDbArc
 50
90.0
 51
270.0
  0
ARC
  5
1CEDA
330
1C9B8
100
AcDbEntity
  8
SUNPOU
100
AcDbCircle
 10
6831.405305211823
 20
2552.783932023016
 30
0.0
 40
5.625
100
AcDbArc
 50
90.0
 51
270.0
  0
ARC
  5
1CEDB
330
1C9B8
100
AcDbEntity
  8
SUNPOU
100
AcDbCircle
 10
6831.405305211823
 20
2552.783932023016
 30
0.0
 40
5.625
100
AcDbArc
 50
270.0
 51
90.0
  0
ARC
  5
1CEDC
330
1C9B8
100
AcDbEntity
  8
SUNPOU
100
AcDbCircle
 10
6831.405305211823
 20
2424.783932023015
 30
0.0
 40
5.625
100
AcDbArc
 50
270.0
 51
90.0
  0
ARC
  5
1CEDD
330
1C9B8
100
AcDbEntity
  8
SUNPOU
100
AcDbCircle
 10
6831.405305211823
 20
2424.783932023015
 30
0.0
 40
5.625
100
AcDbArc
 50
90.0
 51
270.0
  0
ARC
  5
1CEDE
330
1C9B8
100
AcDbEntity
  8
SUNPOU
100
AcDbCircle
 10
6831.405305211823
 20
1944.78393202302
 30
0.0
 40
5.625
100
AcDbArc
 50
90.0
 51
270.0
  0
ARC
  5
1CEDF
330
1C9B8
100
AcDbEntity
  8
SUNPOU
100
AcDbCircle
 10
6831.405305211823
 20
1944.78393202302
 30
0.0
 40
5.625
100
AcDbArc
 50
270.0
 51
90.0
  0
ARC
  5
1CEE0
330
1C9B8
100
AcDbEntity
  8
SUNPOU
100
AcDbCircle
 10
6831.405305211823
 20
1784.783932023017
 30
0.0
 40
5.625
100
AcDbArc
 50
90.0
 51
270.0
  0
ARC
  5
1CEE1
330
1C9B8
100
AcDbEntity
  8
SUNPOU
100
AcDbCircle
 10
6831.405305211823
 20
1784.783932023017
 30
0.0
 40
5.625
100
AcDbArc
 50
270.0
 51
90.0
  0
ARC
  5
1CEE2
330
1C9B8
100
AcDbEntity
  8
SUNPOU
100
AcDbCircle
 10
6831.405305211823
 20
1944.78393202302
 30
0.0
 40
5.625
100
AcDbArc
 50
270.0
 51
90.0
  0
ARC
  5
1CEE3
330
1C9B8
100
AcDbEntity
  8
SUNPOU
100
AcDbCircle
 10
6831.405305211823
 20
1944.78393202302
 30
0.0
 40
5.625
100
AcDbArc
 50
90.0
 51
270.0
  0
ARC
  5
1CEE4
330
1C9B8
100
AcDbEntity
  8
SUNPOU
100
AcDbCircle
 10
6621.405305211823
 20
1784.783932023017
 30
0.0
 40
5.625
100
AcDbArc
 50
90.0
 51
270.0
  0
ARC
  5
1CEE5
330
1C9B8
100
AcDbEntity
  8
SUNPOU
100
AcDbCircle
 10
6621.405305211823
 20
1784.783932023017
 30
0.0
 40
5.625
100
AcDbArc
 50
270.0
 51
90.0
  0
ARC
  5
1CEE6
330
1C9B8
100
AcDbEntity
  8
SUNPOU
100
AcDbCircle
 10
6621.405305211823
 20
2687.183932023017
 30
0.0
 40
5.625
100
AcDbArc
 50
270.0
 51
90.0
  0
ARC
  5
1CEE7
330
1C9B8
100
AcDbEntity
  8
SUNPOU
100
AcDbCircle
 10
6621.405305211823
 20
2687.183932023017
 30
0.0
 40
5.625
100
AcDbArc
 50
90.0
 51
270.0
  0
ARC
  5
1CEE8
330
1C9B8
100
AcDbEntity
  8
SUNPOU
100
AcDbCircle
 10
4071.915992739874
 20
1382.383932023014
 30
0.0
 40
5.625
100
AcDbArc
 50
180.0
 51
0.0
  0
ARC
  5
1CEE9
330
1C9B8
100
AcDbEntity
  8
SUNPOU
100
AcDbCircle
 10
4071.915992739874
 20
1382.383932023014
 30
0.0
 40
5.625
100
AcDbArc
 50
0.0
 51
180.0
  0
ARC
  5
1CEEA
330
1C9B8
100
AcDbEntity
  8
SUNPOU
100
AcDbCircle
 10
3111.915992739874
 20
1382.383932023014
 30
0.0
 40
5.625
100
AcDbArc
 50
0.0
 51
180.0
  0
ARC
  5
1CEEB
330
1C9B8
100
AcDbEntity
  8
SUNPOU
100
AcDbCircle
 10
3111.915992739874
 20
1382.383932023014
 30
0.0
 40
5.625
100
AcDbArc
 50
180.0
 51
0.0
  0
ARC
  5
1CEEC
330
1C9B8
100
AcDbEntity
  8
SUNPOU
100
AcDbCircle
 10
4231.915992739871
 20
1172.383932023014
 30
0.0
 40
5.625
100
AcDbArc
 50
180.0
 51
0.0
  0
ARC
  5
1CEED
330
1C9B8
100
AcDbEntity
  8
SUNPOU
100
AcDbCircle
 10
4231.915992739871
 20
1172.383932023014
 30
0.0
 40
5.625
100
AcDbArc
 50
0.0
 51
180.0
  0
ARC
  5
1CEEE
330
1C9B8
100
AcDbEntity
  8
SUNPOU
100
AcDbCircle
 10
2951.915992739873
 20
1172.383932023014
 30
0.0
 40
5.625
100
AcDbArc
 50
0.0
 51
180.0
  0
ARC
  5
1CEEF
330
1C9B8
100
AcDbEntity
  8
SUNPOU
100
AcDbCircle
 10
2951.915992739873
 20
1172.383932023014
 30
0.0
 40
5.625
100
AcDbArc
 50
180.0
 51
0.0
  0
ARC
  5
1CEF0
330
1C9B8
100
AcDbEntity
  8
SUNPOU
100
AcDbCircle
 10
2252.562596739116
 20
2687.183932023017
 30
0.0
 40
5.625
100
AcDbArc
 50
90.0
 51
270.0
  0
ARC
  5
1CEF1
330
1C9B8
100
AcDbEntity
  8
SUNPOU
100
AcDbCircle
 10
2252.562596739116
 20
2687.183932023017
 30
0.0
 40
5.625
100
AcDbArc
 50
270.0
 51
90.0
  0
ARC
  5
1CEF2
330
1C9B8
100
AcDbEntity
  8
SUNPOU
100
AcDbCircle
 10
2252.562596739116
 20
2607.183932023017
 30
0.0
 40
5.625
100
AcDbArc
 50
270.0
 51
90.0
  0
ARC
  5
1CEF3
330
1C9B8
100
AcDbEntity
  8
SUNPOU
100
AcDbCircle
 10
2252.562596739116
 20
2607.183932023017
 30
0.0
 40
5.625
100
AcDbArc
 50
90.0
 51
270.0
  0
ARC
  5
1CEF4
330
1C9B8
100
AcDbEntity
  8
SUNPOU
100
AcDbCircle
 10
2672.562596739117
 20
2424.783932023011
 30
0.0
 40
5.625
100
AcDbArc
 50
90.0
 51
270.0
  0
ARC
  5
1CEF5
330
1C9B8
100
AcDbEntity
  8
SUNPOU
100
AcDbCircle
 10
2672.562596739117
 20
2424.783932023011
 30
0.0
 40
5.625
100
AcDbArc
 50
270.0
 51
90.0
  0
ARC
  5
1CEF6
330
1C9B8
100
AcDbEntity
  8
SUNPOU
100
AcDbCircle
 10
2672.562596739117
 20
2552.783932023015
 30
0.0
 40
5.625
100
AcDbArc
 50
270.0
 51
90.0
  0
ARC
  5
1CEF7
330
1C9B8
100
AcDbEntity
  8
SUNPOU
100
AcDbCircle
 10
2672.562596739117
 20
2552.783932023015
 30
0.0
 40
5.625
100
AcDbArc
 50
90.0
 51
270.0
  0
ARC
  5
1CEF8
330
1C9B8
100
AcDbEntity
  8
SUNPOU
100
AcDbCircle
 10
2672.562596739116
 20
2687.183932023017
 30
0.0
 40
5.625
100
AcDbArc
 50
270.0
 51
90.0
  0
ARC
  5
1CEF9
330
1C9B8
100
AcDbEntity
  8
SUNPOU
100
AcDbCircle
 10
2672.562596739116
 20
2687.183932023017
 30
0.0
 40
5.625
100
AcDbArc
 50
90.0
 51
270.0
  0
ARC
  5
1CEFA
330
1C9B8
100
AcDbEntity
  8
SUNPOU
100
AcDbCircle
 10
2672.562596739116
 20
2552.783932023016
 30
0.0
 40
5.625
100
AcDbArc
 50
90.0
 51
270.0
  0
ARC
  5
1CEFB
330
1C9B8
100
AcDbEntity
  8
SUNPOU
100
AcDbCircle
 10
2672.562596739116
 20
2552.783932023016
 30
0.0
 40
5.625
100
AcDbArc
 50
270.0
 51
90.0
  0
ARC
  5
1CEFC
330
1C9B8
100
AcDbEntity
  8
SUNPOU
100
AcDbCircle
 10
2672.562596739116
 20
2424.783932023013
 30
0.0
 40
5.625
100
AcDbArc
 50
270.0
 51
90.0
  0
ARC
  5
1CEFD
330
1C9B8
100
AcDbEntity
  8
SUNPOU
100
AcDbCircle
 10
2672.562596739116
 20
2424.783932023013
 30
0.0
 40
5.625
100
AcDbArc
 50
90.0
 51
270.0
  0
ARC
  5
1CEFE
330
1C9B8
100
AcDbEntity
  8
SUNPOU
100
AcDbCircle
 10
2672.562596739116
 20
1944.783932023019
 30
0.0
 40
5.625
100
AcDbArc
 50
90.0
 51
270.0
  0
ARC
  5
1CEFF
330
1C9B8
100
AcDbEntity
  8
SUNPOU
100
AcDbCircle
 10
2672.562596739116
 20
1944.783932023019
 30
0.0
 40
5.625
100
AcDbArc
 50
270.0
 51
90.0
  0
ARC
  5
1CF00
330
1C9B8
100
AcDbEntity
  8
SUNPOU
100
AcDbCircle
 10
2672.562596739116
 20
1784.783932023017
 30
0.0
 40
5.625
100
AcDbArc
 50
90.0
 51
270.0
  0
ARC
  5
1CF01
330
1C9B8
100
AcDbEntity
  8
SUNPOU
100
AcDbCircle
 10
2672.562596739116
 20
1784.783932023017
 30
0.0
 40
5.625
100
AcDbArc
 50
270.0
 51
90.0
  0
ARC
  5
1CF02
330
1C9B8
100
AcDbEntity
  8
SUNPOU
100
AcDbCircle
 10
2672.562596739116
 20
1944.783932023019
 30
0.0
 40
5.625
100
AcDbArc
 50
270.0
 51
90.0
  0
ARC
  5
1CF03
330
1C9B8
100
AcDbEntity
  8
SUNPOU
100
AcDbCircle
 10
2672.562596739116
 20
1944.783932023019
 30
0.0
 40
5.625
100
AcDbArc
 50
90.0
 51
270.0
  0
ARC
  5
1CF04
330
1C9B8
100
AcDbEntity
  8
SUNPOU
100
AcDbCircle
 10
2462.562596739115
 20
1784.783932023018
 30
0.0
 40
5.625
100
AcDbArc
 50
90.0
 51
270.0
  0
ARC
  5
1CF05
330
1C9B8
100
AcDbEntity
  8
SUNPOU
100
AcDbCircle
 10
2462.562596739115
 20
1784.783932023018
 30
0.0
 40
5.625
100
AcDbArc
 50
270.0
 51
90.0
  0
ARC
  5
1CF06
330
1C9B8
100
AcDbEntity
  8
SUNPOU
100
AcDbCircle
 10
2462.562596739115
 20
2687.183932023017
 30
0.0
 40
5.625
100
AcDbArc
 50
270.0
 51
90.0
  0
ARC
  5
1CF07
330
1C9B8
100
AcDbEntity
  8
SUNPOU
100
AcDbCircle
 10
2462.562596739115
 20
2687.183932023017
 30
0.0
 40
5.625
100
AcDbArc
 50
90.0
 51
270.0
  0
ARC
  5
1CF08
330
1C9B8
100
AcDbEntity
  8
SUNPOU
100
AcDbCircle
 10
2951.915992739875
 20
3364.184504159605
 30
0.0
 40
5.625
100
AcDbArc
 50
0.0
 51
180.0
  0
ARC
  5
1CF09
330
1C9B8
100
AcDbEntity
  8
SUNPOU
100
AcDbCircle
 10
2951.915992739875
 20
3364.184504159605
 30
0.0
 40
5.625
100
AcDbArc
 50
180.0
 51
0.0
  0
ARC
  5
1CF0A
330
1C9B8
100
AcDbEntity
  8
SUNPOU
100
AcDbCircle
 10
3591.915992739874
 20
3364.184504159605
 30
0.0
 40
5.625
100
AcDbArc
 50
180.0
 51
0.0
  0
ARC
  5
1CF0B
330
1C9B8
100
AcDbEntity
  8
SUNPOU
100
AcDbCircle
 10
3591.915992739874
 20
3364.184504159605
 30
0.0
 40
5.625
100
AcDbArc
 50
0.0
 51
180.0
  0
ARC
  5
1CF0C
330
1C9B8
100
AcDbEntity
  8
SUNPOU
100
AcDbCircle
 10
12434.21703198606
 20
9595.715360473251
 30
0.0
 40
5.625
100
AcDbArc
 50
270.0
 51
90.0
  0
ARC
  5
1CF0D
330
1C9B8
100
AcDbEntity
  8
SUNPOU
100
AcDbCircle
 10
12434.21703198606
 20
9595.715360473251
 30
0.0
 40
5.625
100
AcDbArc
 50
90.0
 51
270.0
  0
ARC
  5
1CF0E
330
1C9B8
100
AcDbEntity
  8
SUNPOU
100
AcDbCircle
 10
12434.21703198606
 20
9295.715360473252
 30
0.0
 40
5.625
100
AcDbArc
 50
90.0
 51
270.0
  0
ARC
  5
1CF0F
330
1C9B8
100
AcDbEntity
  8
SUNPOU
100
AcDbCircle
 10
12434.21703198606
 20
9295.715360473252
 30
0.0
 40
5.625
100
AcDbArc
 50
270.0
 51
90.0
  0
ARC
  5
1CF10
330
1C9B8
100
AcDbEntity
  8
SUNPOU
100
AcDbCircle
 10
12434.21703198606
 20
9295.715360473252
 30
0.0
 40
5.625
100
AcDbArc
 50
270.0
 51
90.0
  0
ARC
  5
1CF11
330
1C9B8
100
AcDbEntity
  8
SUNPOU
100
AcDbCircle
 10
12434.21703198606
 20
9295.715360473252
 30
0.0
 40
5.625
100
AcDbArc
 50
90.0
 51
270.0
  0
ARC
  5
1CF12
330
1C9B8
100
AcDbEntity
  8
SUNPOU
100
AcDbCircle
 10
12434.21703198606
 20
7495.715360473251
 30
0.0
 40
5.625
100
AcDbArc
 50
90.0
 51
270.0
  0
ARC
  5
1CF13
330
1C9B8
100
AcDbEntity
  8
SUNPOU
100
AcDbCircle
 10
12434.21703198606
 20
7495.715360473251
 30
0.0
 40
5.625
100
AcDbArc
 50
270.0
 51
90.0
  0
ARC
  5
1CF14
330
1C9B8
100
AcDbEntity
  8
SUNPOU
100
AcDbCircle
 10
12434.21703198606
 20
7495.715360473251
 30
0.0
 40
5.625
100
AcDbArc
 50
270.0
 51
90.0
  0
ARC
  5
1CF15
330
1C9B8
100
AcDbEntity
  8
SUNPOU
100
AcDbCircle
 10
12434.21703198606
 20
7495.715360473251
 30
0.0
 40
5.625
100
AcDbArc
 50
90.0
 51
270.0
  0
ARC
  5
1CF16
330
1C9B8
100
AcDbEntity
  8
SUNPOU
100
AcDbCircle
 10
12434.21703198606
 20
5695.715360473253
 30
0.0
 40
5.625
100
AcDbArc
 50
90.0
 51
270.0
  0
ARC
  5
1CF17
330
1C9B8
100
AcDbEntity
  8
SUNPOU
100
AcDbCircle
 10
12434.21703198606
 20
5695.715360473253
 30
0.0
 40
5.625
100
AcDbArc
 50
270.0
 51
90.0
  0
ARC
  5
1CF18
330
1C9B8
100
AcDbEntity
  8
SUNPOU
100
AcDbCircle
 10
12434.21703198606
 20
5695.715360473253
 30
0.0
 40
5.625
100
AcDbArc
 50
270.0
 51
90.0
  0
ARC
  5
1CF19
330
1C9B8
100
AcDbEntity
  8
SUNPOU
100
AcDbCircle
 10
12434.21703198606
 20
5695.715360473253
 30
0.0
 40
5.625
100
AcDbArc
 50
90.0
 51
270.0
  0
ARC
  5
1CF1A
330
1C9B8
100
AcDbEntity
  8
SUNPOU
100
AcDbCircle
 10
12434.21703198606
 20
5395.715360473253
 30
0.0
 40
5.625
100
AcDbArc
 50
90.0
 51
270.0
  0
ARC
  5
1CF1B
330
1C9B8
100
AcDbEntity
  8
SUNPOU
100
AcDbCircle
 10
12434.21703198606
 20
5395.715360473253
 30
0.0
 40
5.625
100
AcDbArc
 50
270.0
 51
90.0
  0
ARC
  5
1CF1C
330
1C9B8
100
AcDbEntity
  8
SUNPOU
100
AcDbCircle
 10
12644.21703198606
 20
9595.715360473251
 30
0.0
 40
5.625
100
AcDbArc
 50
270.0
 51
90.0
  0
ARC
  5
1CF1D
330
1C9B8
100
AcDbEntity
  8
SUNPOU
100
AcDbCircle
 10
12644.21703198606
 20
9595.715360473251
 30
0.0
 40
5.625
100
AcDbArc
 50
90.0
 51
270.0
  0
ARC
  5
1CF1E
330
1C9B8
100
AcDbEntity
  8
SUNPOU
100
AcDbCircle
 10
12644.21703198606
 20
5395.715360473253
 30
0.0
 40
5.625
100
AcDbArc
 50
90.0
 51
270.0
  0
ARC
  5
1CF1F
330
1C9B8
100
AcDbEntity
  8
SUNPOU
100
AcDbCircle
 10
12644.21703198606
 20
5395.715360473253
 30
0.0
 40
5.625
100
AcDbArc
 50
270.0
 51
90.0
  0
ARC
  5
1CF20
330
1C9B8
100
AcDbEntity
  8
SUNPOU
100
AcDbCircle
 10
8834.21703198606
 20
9995.715360473253
 30
0.0
 40
5.625
100
AcDbArc
 50
180.0
 51
0.0
  0
ARC
  5
1CF21
330
1C9B8
100
AcDbEntity
  8
SUNPOU
100
AcDbCircle
 10
8834.21703198606
 20
9995.715360473253
 30
0.0
 40
5.625
100
AcDbArc
 50
0.0
 51
180.0
  0
ARC
  5
1CF22
330
1C9B8
100
AcDbEntity
  8
SUNPOU
100
AcDbCircle
 10
7534.217031986059
 20
9995.715360473253
 30
0.0
 40
5.625
100
AcDbArc
 50
0.0
 51
180.0
  0
ARC
  5
1CF23
330
1C9B8
100
AcDbEntity
  8
SUNPOU
100
AcDbCircle
 10
7534.217031986059
 20
9995.715360473253
 30
0.0
 40
5.625
100
AcDbArc
 50
180.0
 51
0.0
  0
ARC
  5
1CF24
330
1C9B8
100
AcDbEntity
  8
SUNPOU
100
AcDbCircle
 10
9434.21703198606
 20
5395.715360473253
 30
0.0
 40
5.625
100
AcDbArc
 50
90.0
 51
270.0
  0
ARC
  5
1CF25
330
1C9B8
100
AcDbEntity
  8
SUNPOU
100
AcDbCircle
 10
9434.21703198606
 20
5395.715360473253
 30
0.0
 40
5.625
100
AcDbArc
 50
270.0
 51
90.0
  0
ARC
  5
1CF26
330
1C9B8
100
AcDbEntity
  8
SUNPOU
100
AcDbCircle
 10
9434.21703198606
 20
5995.715360473255
 30
0.0
 40
5.625
100
AcDbArc
 50
270.0
 51
90.0
  0
ARC
  5
1CF27
330
1C9B8
100
AcDbEntity
  8
SUNPOU
100
AcDbCircle
 10
9434.21703198606
 20
5995.715360473255
 30
0.0
 40
5.625
100
AcDbArc
 50
90.0
 51
270.0
  0
ARC
  5
1CF28
330
1C9B8
100
AcDbEntity
  8
SUNPOU
100
AcDbCircle
 10
12034.21703198606
 20
10205.71536047325
 30
0.0
 40
5.625
100
AcDbArc
 50
180.0
 51
0.0
  0
ARC
  5
1CF29
330
1C9B8
100
AcDbEntity
  8
SUNPOU
100
AcDbCircle
 10
12034.21703198606
 20
10205.71536047325
 30
0.0
 40
5.625
100
AcDbArc
 50
0.0
 51
180.0
  0
ARC
  5
1CF2A
330
1C9B8
100
AcDbEntity
  8
SUNPOU
100
AcDbCircle
 10
4334.217031986058
 20
10205.71536047325
 30
0.0
 40
5.625
100
AcDbArc
 50
0.0
 51
180.0
  0
ARC
  5
1CF2B
330
1C9B8
100
AcDbEntity
  8
SUNPOU
100
AcDbCircle
 10
4334.217031986058
 20
10205.71536047325
 30
0.0
 40
5.625
100
AcDbArc
 50
180.0
 51
0.0
  0
ARC
  5
1CF2C
330
1C9B8
100
AcDbEntity
  8
SUNPOU
100
AcDbCircle
 10
4734.21703198606
 20
9995.715360473253
 30
0.0
 40
5.625
100
AcDbArc
 50
0.0
 51
180.0
  0
ARC
  5
1CF2D
330
1C9B8
100
AcDbEntity
  8
SUNPOU
100
AcDbCircle
 10
4734.21703198606
 20
9995.715360473253
 30
0.0
 40
5.625
100
AcDbArc
 50
180.0
 51
0.0
  0
ARC
  5
1CF2E
330
1C9B8
100
AcDbEntity
  8
SUNPOU
100
AcDbCircle
 10
7534.217031986059
 20
9995.715360473253
 30
0.0
 40
5.625
100
AcDbArc
 50
180.0
 51
0.0
  0
ARC
  5
1CF2F
330
1C9B8
100
AcDbEntity
  8
SUNPOU
100
AcDbCircle
 10
7534.217031986059
 20
9995.715360473253
 30
0.0
 40
5.625
100
AcDbArc
 50
0.0
 51
180.0
  0
ARC
  5
1CF30
330
1C9B8
100
AcDbEntity
  8
SUNPOU
100
AcDbCircle
 10
8834.21703198606
 20
9995.715360473253
 30
0.0
 40
5.625
100
AcDbArc
 50
0.0
 51
180.0
  0
ARC
  5
1CF31
330
1C9B8
100
AcDbEntity
  8
SUNPOU
100
AcDbCircle
 10
8834.21703198606
 20
9995.715360473253
 30
0.0
 40
5.625
100
AcDbArc
 50
180.0
 51
0.0
  0
ARC
  5
1CF32
330
1C9B8
100
AcDbEntity
  8
SUNPOU
100
AcDbCircle
 10
11634.21703198606
 20
9995.715360473253
 30
0.0
 40
5.625
100
AcDbArc
 50
180.0
 51
0.0
  0
ARC
  5
1CF33
330
1C9B8
100
AcDbEntity
  8
SUNPOU
100
AcDbCircle
 10
11634.21703198606
 20
9995.715360473253
 30
0.0
 40
5.625
100
AcDbArc
 50
0.0
 51
180.0
  0
ARC
  5
1CF34
330
1C9B8
100
AcDbEntity
  8
SUNPOU
100
AcDbCircle
 10
4334.217031986058
 20
9995.715360473253
 30
0.0
 40
5.625
100
AcDbArc
 50
0.0
 51
180.0
  0
ARC
  5
1CF35
330
1C9B8
100
AcDbEntity
  8
SUNPOU
100
AcDbCircle
 10
4334.217031986058
 20
9995.715360473253
 30
0.0
 40
5.625
100
AcDbArc
 50
180.0
 51
0.0
  0
ARC
  5
1CF36
330
1C9B8
100
AcDbEntity
  8
SUNPOU
100
AcDbCircle
 10
4734.21703198606
 20
9995.715360473253
 30
0.0
 40
5.625
100
AcDbArc
 50
180.0
 51
0.0
  0
ARC
  5
1CF37
330
1C9B8
100
AcDbEntity
  8
SUNPOU
100
AcDbCircle
 10
4734.21703198606
 20
9995.715360473253
 30
0.0
 40
5.625
100
AcDbArc
 50
0.0
 51
180.0
  0
ARC
  5
1CF38
330
1C9B8
100
AcDbEntity
  8
SUNPOU
100
AcDbCircle
 10
12034.21703198606
 20
9995.715360473253
 30
0.0
 40
5.625
100
AcDbArc
 50
180.0
 51
0.0
  0
ARC
  5
1CF39
330
1C9B8
100
AcDbEntity
  8
SUNPOU
100
AcDbCircle
 10
12034.21703198606
 20
9995.715360473253
 30
0.0
 40
5.625
100
AcDbArc
 50
0.0
 51
180.0
  0
ARC
  5
1CF3A
330
1C9B8
100
AcDbEntity
  8
SUNPOU
100
AcDbCircle
 10
11634.21703198606
 20
9995.715360473253
 30
0.0
 40
5.625
100
AcDbArc
 50
0.0
 51
180.0
  0
ARC
  5
1CF3B
330
1C9B8
100
AcDbEntity
  8
SUNPOU
100
AcDbCircle
 10
11634.21703198606
 20
9995.715360473253
 30
0.0
 40
5.625
100
AcDbArc
 50
180.0
 51
0.0
  0
ARC
  5
1CF3C
330
1C9B8
100
AcDbEntity
  8
SUNPOU
100
AcDbCircle
 10
6934.21703198606
 20
8995.715360473253
 30
0.0
 40
5.625
100
AcDbArc
 50
90.0
 51
270.0
  0
ARC
  5
1CF3D
330
1C9B8
100
AcDbEntity
  8
SUNPOU
100
AcDbCircle
 10
6934.21703198606
 20
8995.715360473253
 30
0.0
 40
5.625
100
AcDbArc
 50
270.0
 51
90.0
  0
ARC
  5
1CF3E
330
1C9B8
100
AcDbEntity
  8
SUNPOU
100
AcDbCircle
 10
6934.21703198606
 20
9595.715360473253
 30
0.0
 40
5.625
100
AcDbArc
 50
270.0
 51
90.0
  0
ARC
  5
1CF3F
330
1C9B8
100
AcDbEntity
  8
SUNPOU
100
AcDbCircle
 10
6934.21703198606
 20
9595.715360473253
 30
0.0
 40
5.625
100
AcDbArc
 50
90.0
 51
270.0
  0
ARC
  5
1CF40
330
1C9B8
100
AcDbEntity
  8
SUNPOU
100
AcDbCircle
 10
7834.21703198606
 20
8695.715360473251
 30
0.0
 40
5.625
100
AcDbArc
 50
180.0
 51
0.0
  0
ARC
  5
1CF41
330
1C9B8
100
AcDbEntity
  8
SUNPOU
100
AcDbCircle
 10
7834.21703198606
 20
8695.715360473251
 30
0.0
 40
5.625
100
AcDbArc
 50
0.0
 51
180.0
  0
ARC
  5
1CF42
330
1C9B8
100
AcDbEntity
  8
SUNPOU
100
AcDbCircle
 10
7234.21703198606
 20
8695.715360473251
 30
0.0
 40
5.625
100
AcDbArc
 50
0.0
 51
180.0
  0
ARC
  5
1CF43
330
1C9B8
100
AcDbEntity
  8
SUNPOU
100
AcDbCircle
 10
7234.21703198606
 20
8695.715360473251
 30
0.0
 40
5.625
100
AcDbArc
 50
180.0
 51
0.0
  0
ARC
  5
1CF44
330
1C9B8
100
AcDbEntity
  8
SUNPOU
100
AcDbCircle
 10
9134.217031986059
 20
6245.715360473253
 30
0.0
 40
5.625
100
AcDbArc
 50
180.0
 51
0.0
  0
ARC
  5
1CF45
330
1C9B8
100
AcDbEntity
  8
SUNPOU
100
AcDbCircle
 10
9134.217031986059
 20
6245.715360473253
 30
0.0
 40
5.625
100
AcDbArc
 50
0.0
 51
180.0
  0
ARC
  5
1CF46
330
1C9B8
100
AcDbEntity
  8
SUNPOU
100
AcDbCircle
 10
8534.217031986059
 20
6245.715360473253
 30
0.0
 40
5.625
100
AcDbArc
 50
0.0
 51
180.0
  0
ARC
  5
1CF47
330
1C9B8
100
AcDbEntity
  8
SUNPOU
100
AcDbCircle
 10
8534.217031986059
 20
6245.715360473253
 30
0.0
 40
5.625
100
AcDbArc
 50
180.0
 51
0.0
  0
ARC
  5
1CF48
330
1C9B8
100
AcDbEntity
  8
SUNPOU
100
AcDbCircle
 10
9234.217031986061
 20
8065.715360473253
 30
0.0
 40
5.625
100
AcDbArc
 50
180.0
 51
0.0
  0
ARC
  5
1CF49
330
1C9B8
100
AcDbEntity
  8
SUNPOU
100
AcDbCircle
 10
9234.217031986061
 20
8065.715360473253
 30
0.0
 40
5.625
100
AcDbArc
 50
0.0
 51
180.0
  0
ARC
  5
1CF4A
330
1C9B8
100
AcDbEntity
  8
SUNPOU
100
AcDbCircle
 10
8434.21703198606
 20
8065.715360473253
 30
0.0
 40
5.625
100
AcDbArc
 50
0.0
 51
180.0
  0
ARC
  5
1CF4B
330
1C9B8
100
AcDbEntity
  8
SUNPOU
100
AcDbCircle
 10
8434.21703198606
 20
8065.715360473253
 30
0.0
 40
5.625
100
AcDbArc
 50
180.0
 51
0.0
  0
ARC
  5
1CF4C
330
1C9B8
100
AcDbEntity
  8
SUNPOU
100
AcDbCircle
 10
9434.21703198606
 20
7095.715360473253
 30
0.0
 40
5.625
100
AcDbArc
 50
90.0
 51
270.0
  0
ARC
  5
1CF4D
330
1C9B8
100
AcDbEntity
  8
SUNPOU
100
AcDbCircle
 10
9434.21703198606
 20
7095.715360473253
 30
0.0
 40
5.625
100
AcDbArc
 50
270.0
 51
90.0
  0
ARC
  5
1CF4E
330
1C9B8
100
AcDbEntity
  8
SUNPOU
100
AcDbCircle
 10
9434.21703198606
 20
7895.715360473253
 30
0.0
 40
5.625
100
AcDbArc
 50
270.0
 51
90.0
  0
ARC
  5
1CF4F
330
1C9B8
100
AcDbEntity
  8
SUNPOU
100
AcDbCircle
 10
9434.21703198606
 20
7895.715360473253
 30
0.0
 40
5.625
100
AcDbArc
 50
90.0
 51
270.0
  0
ARC
  5
1CF50
330
1C9B8
100
AcDbEntity
  8
SUNPOU
100
AcDbCircle
 10
12265.58860891543
 20
2093.424883029956
 30
0.0
 40
5.625
100
AcDbArc
 50
0.0
 51
180.0
  0
ARC
  5
1CF51
330
1C9B8
100
AcDbEntity
  8
SUNPOU
100
AcDbCircle
 10
12265.58860891543
 20
2093.424883029956
 30
0.0
 40
5.625
100
AcDbArc
 50
180.0
 51
0.0
  0
ARC
  5
1CF52
330
1C9B8
100
AcDbEntity
  8
SUNPOU
100
AcDbCircle
 10
12185.58860891544
 20
2093.424883029956
 30
0.0
 40
5.625
100
AcDbArc
 50
180.0
 51
0.0
  0
ARC
  5
1CF53
330
1C9B8
100
AcDbEntity
  8
SUNPOU
100
AcDbCircle
 10
12185.58860891544
 20
2093.424883029956
 30
0.0
 40
5.625
100
AcDbArc
 50
0.0
 51
180.0
  0
ARC
  5
1CF54
330
1C9B8
100
AcDbEntity
  8
SUNPOU
100
AcDbCircle
 10
12185.58860891544
 20
2093.424883029956
 30
0.0
 40
5.625
100
AcDbArc
 50
180.0
 51
0.0
  0
ARC
  5
1CF55
330
1C9B8
100
AcDbEntity
  8
SUNPOU
100
AcDbCircle
 10
12185.58860891544
 20
2093.424883029956
 30
0.0
 40
5.625
100
AcDbArc
 50
0.0
 51
180.0
  0
ARC
  5
1CF56
330
1C9B8
100
AcDbEntity
  8
SUNPOU
100
AcDbCircle
 10
11705.58860891545
 20
2093.424883029956
 30
0.0
 40
5.625
100
AcDbArc
 50
0.0
 51
180.0
  0
ARC
  5
1CF57
330
1C9B8
100
AcDbEntity
  8
SUNPOU
100
AcDbCircle
 10
11705.58860891545
 20
2093.424883029956
 30
0.0
 40
5.625
100
AcDbArc
 50
180.0
 51
0.0
  0
ARC
  5
1CF58
330
1C9B8
100
AcDbEntity
  8
SUNPOU
100
AcDbCircle
 10
11625.58860891544
 20
2093.424883029956
 30
0.0
 40
5.625
100
AcDbArc
 50
180.0
 51
0.0
  0
ARC
  5
1CF59
330
1C9B8
100
AcDbEntity
  8
SUNPOU
100
AcDbCircle
 10
11625.58860891544
 20
2093.424883029956
 30
0.0
 40
5.625
100
AcDbArc
 50
0.0
 51
180.0
  0
ARC
  5
1CF5A
330
1C9B8
100
AcDbEntity
  8
SUNPOU
100
AcDbCircle
 10
11705.58860891545
 20
2093.424883029956
 30
0.0
 40
5.625
100
AcDbArc
 50
0.0
 51
180.0
  0
ARC
  5
1CF5B
330
1C9B8
100
AcDbEntity
  8
SUNPOU
100
AcDbCircle
 10
11705.58860891545
 20
2093.424883029956
 30
0.0
 40
5.625
100
AcDbArc
 50
180.0
 51
0.0
  0
ARC
  5
1CF5C
330
1C9B8
100
AcDbEntity
  8
SUNPOU
100
AcDbCircle
 10
12265.58860891543
 20
1883.424883029956
 30
0.0
 40
5.625
100
AcDbArc
 50
180.0
 51
0.0
  0
ARC
  5
1CF5D
330
1C9B8
100
AcDbEntity
  8
SUNPOU
100
AcDbCircle
 10
12265.58860891543
 20
1883.424883029956
 30
0.0
 40
5.625
100
AcDbArc
 50
0.0
 51
180.0
  0
ARC
  5
1CF5E
330
1C9B8
100
AcDbEntity
  8
SUNPOU
100
AcDbCircle
 10
11625.58860891544
 20
1883.424883029956
 30
0.0
 40
5.625
100
AcDbArc
 50
0.0
 51
180.0
  0
ARC
  5
1CF5F
330
1C9B8
100
AcDbEntity
  8
SUNPOU
100
AcDbCircle
 10
11625.58860891544
 20
1883.424883029956
 30
0.0
 40
5.625
100
AcDbArc
 50
180.0
 51
0.0
  0
ARC
  5
1CF60
330
1C9B8
100
AcDbEntity
  8
SUNPOU
100
AcDbCircle
 10
11322.58860891544
 20
2387.764250367019
 30
0.0
 40
5.625
100
AcDbArc
 50
90.0
 51
270.0
  0
ARC
  5
1CF61
330
1C9B8
100
AcDbEntity
  8
SUNPOU
100
AcDbCircle
 10
11322.58860891544
 20
2387.764250367019
 30
0.0
 40
5.625
100
AcDbArc
 50
270.0
 51
90.0
  0
ARC
  5
1CF62
330
1C9B8
100
AcDbEntity
  8
SUNPOU
100
AcDbCircle
 10
11322.58860891544
 20
2547.76425036702
 30
0.0
 40
5.625
100
AcDbArc
 50
270.0
 51
90.0
  0
ARC
  5
1CF63
330
1C9B8
100
AcDbEntity
  8
SUNPOU
100
AcDbCircle
 10
11322.58860891544
 20
2547.76425036702
 30
0.0
 40
5.625
100
AcDbArc
 50
90.0
 51
270.0
  0
ARC
  5
1CF64
330
1C9B8
100
AcDbEntity
  8
SUNPOU
100
AcDbCircle
 10
11322.58860891544
 20
2707.76425036702
 30
0.0
 40
5.625
100
AcDbArc
 50
270.0
 51
90.0
  0
ARC
  5
1CF65
330
1C9B8
100
AcDbEntity
  8
SUNPOU
100
AcDbCircle
 10
11322.58860891544
 20
2707.76425036702
 30
0.0
 40
5.625
100
AcDbArc
 50
90.0
 51
270.0
  0
ARC
  5
1CF66
330
1C9B8
100
AcDbEntity
  8
SUNPOU
100
AcDbCircle
 10
11322.58860891544
 20
2547.76425036702
 30
0.0
 40
5.625
100
AcDbArc
 50
90.0
 51
270.0
  0
ARC
  5
1CF67
330
1C9B8
100
AcDbEntity
  8
SUNPOU
100
AcDbCircle
 10
11322.58860891544
 20
2547.76425036702
 30
0.0
 40
5.625
100
AcDbArc
 50
270.0
 51
90.0
  0
ARC
  5
1CF68
330
1C9B8
100
AcDbEntity
  8
SUNPOU
100
AcDbCircle
 10
11112.58860891543
 20
2707.76425036702
 30
0.0
 40
5.625
100
AcDbArc
 50
270.0
 51
90.0
  0
ARC
  5
1CF69
330
1C9B8
100
AcDbEntity
  8
SUNPOU
100
AcDbCircle
 10
11112.58860891543
 20
2707.76425036702
 30
0.0
 40
5.625
100
AcDbArc
 50
90.0
 51
270.0
  0
ARC
  5
1CF6A
330
1C9B8
100
AcDbEntity
  8
SUNPOU
100
AcDbCircle
 10
11112.58860891543
 20
2387.764250367019
 30
0.0
 40
5.625
100
AcDbArc
 50
90.0
 51
270.0
  0
ARC
  5
1CF6B
330
1C9B8
100
AcDbEntity
  8
SUNPOU
100
AcDbCircle
 10
11112.58860891543
 20
2387.764250367019
 30
0.0
 40
5.625
100
AcDbArc
 50
270.0
 51
90.0
  0
ARC
  5
1CF6C
330
1C9B8
100
AcDbEntity
  8
SUNPOU
100
AcDbCircle
 10
12265.58860891543
 20
3241.790768968928
 30
0.0
 40
5.625
100
AcDbArc
 50
0.0
 51
180.0
  0
ARC
  5
1CF6D
330
1C9B8
100
AcDbEntity
  8
SUNPOU
100
AcDbCircle
 10
12265.58860891543
 20
3241.790768968928
 30
0.0
 40
5.625
100
AcDbArc
 50
180.0
 51
0.0
  0
ARC
  5
1CF6E
330
1C9B8
100
AcDbEntity
  8
SUNPOU
100
AcDbCircle
 10
12185.58860891544
 20
3241.790768968928
 30
0.0
 40
5.625
100
AcDbArc
 50
180.0
 51
0.0
  0
ARC
  5
1CF6F
330
1C9B8
100
AcDbEntity
  8
SUNPOU
100
AcDbCircle
 10
12185.58860891544
 20
3241.790768968928
 30
0.0
 40
5.625
100
AcDbArc
 50
0.0
 51
180.0
  0
ARC
  5
1CF70
330
1C9B8
100
AcDbEntity
  8
SUNPOU
100
AcDbCircle
 10
12185.58860891544
 20
3241.790768968928
 30
0.0
 40
5.625
100
AcDbArc
 50
180.0
 51
0.0
  0
ARC
  5
1CF71
330
1C9B8
100
AcDbEntity
  8
SUNPOU
100
AcDbCircle
 10
12185.58860891544
 20
3241.790768968928
 30
0.0
 40
5.625
100
AcDbArc
 50
0.0
 51
180.0
  0
ARC
  5
1CF72
330
1C9B8
100
AcDbEntity
  8
SUNPOU
100
AcDbCircle
 10
11705.58860891545
 20
3241.790768968928
 30
0.0
 40
5.625
100
AcDbArc
 50
0.0
 51
180.0
  0
ARC
  5
1CF73
330
1C9B8
100
AcDbEntity
  8
SUNPOU
100
AcDbCircle
 10
11705.58860891545
 20
3241.790768968928
 30
0.0
 40
5.625
100
AcDbArc
 50
180.0
 51
0.0
  0
ARC
  5
1CF74
330
1C9B8
100
AcDbEntity
  8
SUNPOU
100
AcDbCircle
 10
11625.58860891544
 20
3241.790768968928
 30
0.0
 40
5.625
100
AcDbArc
 50
180.0
 51
0.0
  0
ARC
  5
1CF75
330
1C9B8
100
AcDbEntity
  8
SUNPOU
100
AcDbCircle
 10
11625.58860891544
 20
3241.790768968928
 30
0.0
 40
5.625
100
AcDbArc
 50
0.0
 51
180.0
  0
ARC
  5
1CF76
330
1C9B8
100
AcDbEntity
  8
SUNPOU
100
AcDbCircle
 10
11705.58860891545
 20
3241.790768968928
 30
0.0
 40
5.625
100
AcDbArc
 50
0.0
 51
180.0
  0
ARC
  5
1CF77
330
1C9B8
100
AcDbEntity
  8
SUNPOU
100
AcDbCircle
 10
11705.58860891545
 20
3241.790768968928
 30
0.0
 40
5.625
100
AcDbArc
 50
180.0
 51
0.0
  0
ARC
  5
1CF78
330
1C9B8
100
AcDbEntity
  8
SUNPOU
100
AcDbCircle
 10
12265.58860891543
 20
3031.790768968928
 30
0.0
 40
5.625
100
AcDbArc
 50
180.0
 51
0.0
  0
ARC
  5
1CF79
330
1C9B8
100
AcDbEntity
  8
SUNPOU
100
AcDbCircle
 10
12265.58860891543
 20
3031.790768968928
 30
0.0
 40
5.625
100
AcDbArc
 50
0.0
 51
180.0
  0
ARC
  5
1CF7A
330
1C9B8
100
AcDbEntity
  8
SUNPOU
100
AcDbCircle
 10
11625.58860891544
 20
3031.790768968928
 30
0.0
 40
5.625
100
AcDbArc
 50
0.0
 51
180.0
  0
ARC
  5
1CF7B
330
1C9B8
100
AcDbEntity
  8
SUNPOU
100
AcDbCircle
 10
11625.58860891544
 20
3031.790768968928
 30
0.0
 40
5.625
100
AcDbArc
 50
180.0
 51
0.0
  0
ARC
  5
1CF7C
330
1C9B8
100
AcDbEntity
  8
HIKIDASHI
100
AcDbCircle
 10
6539.388635599518
 20
1122.768660545881
 30
0.0
 40
74.66417910452284
100
AcDbArc
 50
164.8596129850915
 51
237.504500294165
  0
ARC
  5
1CF7D
330
1C9B8
100
AcDbEntity
  8
HIKIDASHI
100
AcDbCircle
 10
6475.964841553213
 20
1139.929684030366
 30
0.0
 40
8.959701492542745
100
AcDbArc
 50
15.14038701503429
 51
164.8596129849655
  0
ARC
  5
1CF7E
330
1C9B8
100
AcDbEntity
  8
HIKIDASHI
100
AcDbCircle
 10
2473.290376027156
 20
1122.768660545877
 30
0.0
 40
74.66417910452284
100
AcDbArc
 50
164.859612985099
 51
237.5045002941407
  0
ARC
  5
1CF7F
330
1C9B8
100
AcDbEntity
  8
HIKIDASHI
100
AcDbCircle
 10
2409.866581980852
 20
1139.92968403036
 30
0.0
 40
8.959701492542745
100
AcDbArc
 50
15.14038701503429
 51
164.8596129849655
  0
LINE
  5
1CF80
330
1C9B8
100
AcDbEntity
  8
HIKIDASHI
100
AcDbLine
 10
8628.919960752318
 20
2438.13875160345
 30
0.0
 11
8785.833312556276
 21
2137.813799624292
 31
0.0
1001
ACAD
1000
DSTYLE
1002
{
1070
    41
1040
2.0
1070
   173
1070
     0
1070
   341
1005
125B0
1002
}
  0
ARC
  5
1CF81
330
1C9B8
100
AcDbEntity
  8
HIKIDASHI
100
AcDbCircle
 10
8583.232758726479
 20
2493.190222933271
 30
0.0
 40
18.0
100
AcDbArc
 50
241.1434129563086
 51
354.0287934324676
  0
ARC
  5
1CF82
330
1C9B8
100
AcDbEntity
  8
HIKIDASHI
100
AcDbCircle
 10
8619.037433509891
 20
2489.44519107039
 30
0.0
 40
18.0
100
AcDbArc
 50
61.14341295630873
 51
174.0287934324676
  0
LINE
  5
1CF83
330
1C9B8
100
AcDbEntity
  8
HIKIDASHI
100
AcDbLine
 10
8601.135096118182
 20
2491.317707001829
 30
0.0
 11
8628.919960752323
 21
2438.138751603437
 31
0.0
  0
LINE
  5
1CF84
330
1C9B8
100
AcDbEntity
  8
HIKIDASHI
100
AcDbLine
 10
8600.097717874611
 20
1795.41043414634
 30
0.0
 11
8767.299746747777
 21
1582.003331156298
 31
0.0
1001
ACAD
1000
DSTYLE
1002
{
1070
   147
1040
1.0
1070
    77
1070
     0
1002
}
  0
LINE
  5
1CF85
330
1C9B8
100
AcDbEntity
  8
HIKIDASHI
100
AcDbLine
 10
8610.593300854056
 20
1803.633603590012
 30
0.0
 11
8550.758701212577
 21
1858.383932023019
 31
0.0
  0
LINE
  5
1CF86
330
1C9B8
100
AcDbEntity
  8
HIKIDASHI
100
AcDbLine
 10
8550.758701212577
 20
1858.383932023019
 30
0.0
 11
8589.602134895162
 21
1787.187264702668
 31
0.0
  0
SOLID
  5
1CF87
330
1C9B8
100
AcDbEntity
  8
HIKIDASHI
100
AcDbTrace
 10
8610.593300854056
 20
1803.633603590012
 30
0.0
 11
8589.602134895162
 21
1787.187264702668
 31
0.0
 12
8550.758701212577
 22
1858.383932023019
 32
0.0
 13
8550.758701212577
 23
1858.383932023019
 33
0.0
  0
LINE
  5
1CF88
330
1C9B8
100
AcDbEntity
  8
HIKIDASHI
100
AcDbLine
 10
8589.602134895162
 20
1787.187264702668
 30
0.0
 11
8610.593300854056
 21
1803.633603590012
 31
0.0
  0
LINE
  5
1CF89
330
1C9B8
100
AcDbEntity
  8
HIKIDASHI
100
AcDbLine
 10
7520.632832867663
 20
2023.473912706196
 30
0.0
 11
6738.660856311475
 21
1172.38393202302
 31
0.0
1001
ACAD
1000
DSTYLE
1002
{
1070
   147
1040
1.0
1070
    77
1070
     0
1002
}
  0
LINE
  5
1CF8A
330
1C9B8
100
AcDbEntity
  8
HIKIDASHI
100
AcDbLine
 10
7530.451169420466
 20
2014.452934648709
 30
0.0
 11
7574.758701212582
 21
2082.383932023016
 31
0.0
  0
LINE
  5
1CF8B
330
1C9B8
100
AcDbEntity
  8
HIKIDASHI
100
AcDbLine
 10
7574.758701212582
 20
2082.383932023016
 30
0.0
 11
7510.814496314857
 21
2032.494890763683
 31
0.0
  0
SOLID
  5
1CF8C
330
1C9B8
100
AcDbEntity
  8
HIKIDASHI
100
AcDbTrace
 10
7530.451169420466
 20
2014.452934648709
 30
0.0
 11
7510.814496314857
 21
2032.494890763683
 31
0.0
 12
7574.758701212582
 22
2082.383932023016
 32
0.0
 13
7574.758701212582
 23
2082.383932023016
 33
0.0
  0
LINE
  5
1CF8D
330
1C9B8
100
AcDbEntity
  8
HIKIDASHI
100
AcDbLine
 10
7510.814496314857
 20
2032.494890763683
 30
0.0
 11
7530.451169420466
 21
2014.452934648709
 31
0.0
  0
ARC
  5
1CF8E
330
1C9B8
100
AcDbEntity
  8
HIKIDASHI
100
AcDbCircle
 10
6413.720574042645
 20
1123.948787905472
 30
0.0
 40
74.66417910452232
100
AcDbArc
 50
301.7712278330705
 51
15.14038701490951
  0
LINE
  5
1CF8F
330
1C9B8
100
AcDbEntity
  8
HIKIDASHI
100
AcDbLine
 10
3531.263001732123
 20
2236.025390518661
 30
0.0
 11
2672.562596739116
 21
1172.383932023014
 31
0.0
1001
ACAD
1000
DSTYLE
1002
{
1070
   147
1040
1.0
1070
    77
1070
     0
1002
}
  0
LINE
  5
1CF90
330
1C9B8
100
AcDbEntity
  8
HIKIDASHI
100
AcDbLine
 10
3541.637431963835
 20
2227.649892017369
 30
0.0
 11
3581.515992739872
 21
2298.271971908927
 31
0.0
  0
LINE
  5
1CF91
330
1C9B8
100
AcDbEntity
  8
HIKIDASHI
100
AcDbLine
 10
3581.515992739872
 20
2298.271971908927
 30
0.0
 11
3520.888571500412
 21
2244.400889019952
 31
0.0
  0
SOLID
  5
1CF92
330
1C9B8
100
AcDbEntity
  8
HIKIDASHI
100
AcDbTrace
 10
3541.637431963835
 20
2227.649892017369
 30
0.0
 11
3520.888571500412
 21
2244.400889019952
 31
0.0
 12
3581.515992739872
 22
2298.271971908927
 32
0.0
 13
3581.515992739872
 23
2298.271971908927
 33
0.0
  0
LINE
  5
1CF93
330
1C9B8
100
AcDbEntity
  8
HIKIDASHI
100
AcDbLine
 10
3520.888571500412
 20
2244.400889019952
 30
0.0
 11
3541.637431963835
 21
2227.649892017369
 31
0.0
  0
ARC
  5
1CF94
330
1C9B8
100
AcDbEntity
  8
HIKIDASHI
100
AcDbCircle
 10
2347.622314470285
 20
1123.948787905467
 30
0.0
 40
74.66417910452256
100
AcDbArc
 50
301.7712278330707
 51
15.14038701490941
  0
LINE
  5
1CF95
330
1C9B8
100
AcDbEntity
  8
HIKIDASHI
100
AcDbLine
 10
3897.99750841665
 20
2756.584545725607
 30
0.0
 11
4125.978989311763
 21
3154.184504159605
 31
0.0
1001
ACAD
1000
DSTYLE
1002
{
1070
   147
1040
1.0
1070
    77
1070
     0
1002
}
  0
LINE
  5
1CF96
330
1C9B8
100
AcDbEntity
  8
HIKIDASHI
100
AcDbLine
 10
3886.430739466219
 20
2763.21686310531
 30
0.0
 11
3858.203604138433
 21
2687.183932023017
 31
0.0
  0
LINE
  5
1CF97
330
1C9B8
100
AcDbEntity
  8
HIKIDASHI
100
AcDbLine
 10
3858.203604138433
 20
2687.183932023017
 30
0.0
 11
3909.564277367082
 21
2749.952228345904
 31
0.0
  0
SOLID
  5
1CF98
330
1C9B8
100
AcDbEntity
  8
HIKIDASHI
100
AcDbTrace
 10
3886.430739466219
 20
2763.21686310531
 30
0.0
 11
3909.564277367082
 21
2749.952228345904
 31
0.0
 12
3858.203604138433
 22
2687.183932023017
 32
0.0
 13
3858.203604138433
 23
2687.183932023017
 33
0.0
  0
LINE
  5
1CF99
330
1C9B8
100
AcDbEntity
  8
HIKIDASHI
100
AcDbLine
 10
3909.564277367082
 20
2749.952228345904
 30
0.0
 11
3886.430739466219
 21
2763.21686310531
 31
0.0
  0
LINE
  5
1CF9A
330
1C9B8
100
AcDbEntity
  8
HIKIDASHI
100
AcDbLine
 10
4281.255009401902
 20
1795.410434146337
 30
0.0
 11
4448.457038275068
 21
1582.003331156295
 31
0.0
1001
ACAD
1000
DSTYLE
1002
{
1070
   147
1040
1.0
1070
    77
1070
     0
1002
}
  0
LINE
  5
1CF9B
330
1C9B8
100
AcDbEntity
  8
HIKIDASHI
100
AcDbLine
 10
4291.750592381346
 20
1803.633603590008
 30
0.0
 11
4231.915992739871
 21
1858.383932023016
 31
0.0
  0
LINE
  5
1CF9C
330
1C9B8
100
AcDbEntity
  8
HIKIDASHI
100
AcDbLine
 10
4231.915992739871
 20
1858.383932023016
 30
0.0
 11
4270.759426422454
 21
1787.187264702666
 31
0.0
  0
SOLID
  5
1CF9D
330
1C9B8
100
AcDbEntity
  8
HIKIDASHI
100
AcDbTrace
 10
4291.750592381346
 20
1803.633603590008
 30
0.0
 11
4270.759426422454
 21
1787.187264702666
 31
0.0
 12
4231.915992739871
 22
1858.383932023016
 32
0.0
 13
4231.915992739871
 23
1858.383932023016
 33
0.0
  0
LINE
  5
1CF9E
330
1C9B8
100
AcDbEntity
  8
HIKIDASHI
100
AcDbLine
 10
4270.759426422454
 20
1787.187264702666
 30
0.0
 11
4291.750592381346
 21
1803.633603590008
 31
0.0
  0
LINE
  5
1CF9F
330
1C9B8
100
AcDbEntity
  8
HIKIDASHI
100
AcDbLine
 10
4310.077252279611
 20
2438.13875160345
 30
0.0
 11
4466.990604083568
 21
2137.813799624294
 31
0.0
1001
ACAD
1000
DSTYLE
1002
{
1070
    41
1040
2.0
1070
   173
1070
     0
1070
   341
1005
125B0
1002
}
  0
ARC
  5
1CFA0
330
1C9B8
100
AcDbEntity
  8
HIKIDASHI
100
AcDbCircle
 10
4264.390050253772
 20
2493.190222933272
 30
0.0
 40
18.0
100
AcDbArc
 50
241.1434129563095
 51
354.0287934324676
  0
ARC
  5
1CFA1
330
1C9B8
100
AcDbEntity
  8
HIKIDASHI
100
AcDbCircle
 10
4300.194725037186
 20
2489.44519107039
 30
0.0
 40
18.0
100
AcDbArc
 50
61.1434129563095
 51
174.0287934324675
  0
LINE
  5
1CFA2
330
1C9B8
100
AcDbEntity
  8
HIKIDASHI
100
AcDbLine
 10
4282.292387645479
 20
2491.317707001831
 30
0.0
 11
4310.077252279617
 21
2438.138751603437
 31
0.0
  0
LINE
  5
1CFA3
330
1C9B8
100
AcDbEntity
  8
HIKIDASHI
100
AcDbLine
 10
12269.44143181648
 20
2467.609998505205
 30
0.0
 11
12660.89263360979
 21
2093.424883029956
 31
0.0
1001
ACAD
1000
DSTYLE
1002
{
1070
   147
1040
1.0
1070
    77
1070
     0
1002
}
  0
LINE
  5
1CFA4
330
1C9B8
100
AcDbEntity
  8
HIKIDASHI
100
AcDbLine
 10
12278.65456421439
 20
2477.248254011072
 30
0.0
 11
12211.61189878127
 21
2522.888792892663
 31
0.0
  0
LINE
  5
1CFA5
330
1C9B8
100
AcDbEntity
  8
HIKIDASHI
100
AcDbLine
 10
12211.61189878127
 20
2522.888792892663
 30
0.0
 11
12260.22829941856
 21
2457.971742999339
 31
0.0
  0
SOLID
  5
1CFA6
330
1C9B8
100
AcDbEntity
  8
HIKIDASHI
100
AcDbTrace
 10
12278.65456421439
 20
2477.248254011072
 30
0.0
 11
12260.22829941856
 21
2457.971742999339
 31
0.0
 12
12211.61189878127
 22
2522.888792892663
 32
0.0
 13
12211.61189878127
 23
2522.888792892663
 33
0.0
  0
LINE
  5
1CFA7
330
1C9B8
100
AcDbEntity
  8
HIKIDASHI
100
AcDbLine
 10
12260.22829941856
 20
2457.971742999339
 30
0.0
 11
12278.65456421439
 21
2477.248254011072
 31
0.0
  0
LINE
  5
1CFA8
330
1C9B8
100
AcDbEntity
  8
HIKIDASHI
100
AcDbLine
 10
12322.7445235735
 20
2763.739257464837
 30
0.0
 11
12477.48386709142
 21
2915.281506478704
 31
0.0
1001
ACAD
1000
DSTYLE
1002
{
1070
   147
1040
1.0
1070
    77
1070
     0
1002
}
  0
LINE
  5
1CFA9
330
1C9B8
100
AcDbEntity
  8
HIKIDASHI
100
AcDbLine
 10
12313.41535572386
 20
2773.265243241179
 30
0.0
 11
12265.58860891543
 21
2707.76425036702
 31
0.0
  0
LINE
  5
1CFAA
330
1C9B8
100
AcDbEntity
  8
HIKIDASHI
100
AcDbLine
 10
12265.58860891543
 20
2707.76425036702
 30
0.0
 11
12332.07369142312
 21
2754.213271688493
 31
0.0
  0
SOLID
  5
1CFAB
330
1C9B8
100
AcDbEntity
  8
HIKIDASHI
100
AcDbTrace
 10
12313.41535572386
 20
2773.265243241179
 30
0.0
 11
12332.07369142312
 21
2754.213271688493
 31
0.0
 12
12265.58860891543
 22
2707.76425036702
 32
0.0
 13
12265.58860891543
 23
2707.76425036702
 33
0.0
  0
LINE
  5
1CFAC
330
1C9B8
100
AcDbEntity
  8
HIKIDASHI
100
AcDbLine
 10
12332.07369142312
 20
2754.213271688493
 30
0.0
 11
12313.41535572386
 21
2773.265243241179
 31
0.0
  0
LINE
  5
1CFAD
330
1C9B8
100
AcDbEntity
  8
HATCH
100
AcDbLine
 10
2995.716279290155
 20
2424.783932023638
 30
0.0
 11
3069.617113746422
 21
2552.783932023631
 31
0.0
  0
LINE
  5
1CFAE
330
1C9B8
100
AcDbEntity
  8
HATCH
100
AcDbLine
 10
3031.217113746425
 20
2552.783932023629
 30
0.0
 11
3050.417113746424
 21
2519.528556518313
 31
0.0
  0
LINE
  5
1CFAF
330
1C9B8
100
AcDbEntity
  8
HATCH
100
AcDbLine
 10
6566.457866754373
 20
2424.783932023719
 30
0.0
 11
6640.358701210641
 21
2552.783932023711
 31
0.0
  0
LINE
  5
1CFB0
330
1C9B8
100
AcDbEntity
  8
HATCH
100
AcDbLine
 10
6601.958701210645
 20
2552.783932023709
 30
0.0
 11
6621.158701210642
 21
2519.528556518393
 31
0.0
  0
LINE
  5
1CFB1
330
1C9B8
100
AcDbEntity
  8
HATCH
100
AcDbLine
 10
6566.457866756292
 20
2424.783932024337
 30
0.0
 11
6640.358701212581
 21
2552.783932024366
 31
0.0
  0
LINE
  5
1CFB2
330
1C9B8
100
AcDbEntity
  8
HATCH
100
AcDbLine
 10
6601.958701212571
 20
2552.783932024365
 30
0.0
 11
6621.158701212576
 21
2519.528556519037
 31
0.0
  0
LINE
  5
1CFB3
330
1C9B8
100
AcDbEntity
  8
HATCH
100
AcDbLine
 10
6854.457866754373
 20
2424.783932022442
 30
0.0
 11
6928.35870121064
 21
2552.783932022435
 31
0.0
  0
LINE
  5
1CFB4
330
1C9B8
100
AcDbEntity
  8
HATCH
100
AcDbLine
 10
6889.958701210642
 20
2552.783932022433
 30
0.0
 11
6909.158701210642
 21
2519.528556517116
 31
0.0
  0
LINE
  5
1CFB5
330
1C9B8
100
AcDbEntity
  8
HATCH
100
AcDbLine
 10
6998.457866754371
 20
2424.783932022442
 30
0.0
 11
7072.358701210641
 21
2552.783932022435
 31
0.0
  0
LINE
  5
1CFB6
330
1C9B8
100
AcDbEntity
  8
HATCH
100
AcDbLine
 10
7033.958701210642
 20
2552.783932022433
 30
0.0
 11
7053.158701210641
 21
2519.528556517116
 31
0.0
  0
LINE
  5
1CFB7
330
1C9B8
100
AcDbEntity
  8
HATCH
100
AcDbLine
 10
6854.457866756288
 20
2424.78393202306
 30
0.0
 11
6928.358701212578
 21
2552.78393202309
 31
0.0
  0
LINE
  5
1CFB8
330
1C9B8
100
AcDbEntity
  8
HATCH
100
AcDbLine
 10
6889.958701212569
 20
2552.783932023088
 30
0.0
 11
6909.158701212574
 21
2519.52855651776
 31
0.0
  0
LINE
  5
1CFB9
330
1C9B8
100
AcDbEntity
  8
HATCH
100
AcDbLine
 10
6998.45786675629
 20
2424.78393202306
 30
0.0
 11
7072.358701212578
 21
2552.78393202309
 31
0.0
  0
LINE
  5
1CFBA
330
1C9B8
100
AcDbEntity
  8
HATCH
100
AcDbLine
 10
7033.958701212569
 20
2552.783932023088
 30
0.0
 11
7053.158701212575
 21
2519.52855651776
 31
0.0
  0
LINE
  5
1CFBB
330
1C9B8
100
AcDbEntity
  8
HATCH
100
AcDbLine
 10
8768.400502108404
 20
2424.783932023682
 30
0.0
 11
8842.301336564672
 21
2552.783932023676
 31
0.0
  0
LINE
  5
1CFBC
330
1C9B8
100
AcDbEntity
  8
HATCH
100
AcDbLine
 10
8803.901336564676
 20
2552.783932023674
 30
0.0
 11
8823.101336564674
 21
2519.528556518356
 31
0.0
  0
LINE
  5
1CFBD
330
1C9B8
100
AcDbEntity
  8
HATCH
100
AcDbLine
 10
8480.400502108405
 20
2424.783932023682
 30
0.0
 11
8554.301336564673
 21
2552.783932023676
 31
0.0
  0
LINE
  5
1CFBE
330
1C9B8
100
AcDbEntity
  8
HATCH
100
AcDbLine
 10
8515.901336564676
 20
2552.783932023674
 30
0.0
 11
8535.101336564672
 21
2519.528556518356
 31
0.0
  0
LINE
  5
1CFBF
330
1C9B8
100
AcDbEntity
  8
HATCH
100
AcDbLine
 10
8624.400502108406
 20
2424.783932023682
 30
0.0
 11
8698.301336564673
 21
2552.783932023676
 31
0.0
  0
LINE
  5
1CFC0
330
1C9B8
100
AcDbEntity
  8
HATCH
100
AcDbLine
 10
8659.901336564676
 20
2552.783932023674
 30
0.0
 11
8679.101336564675
 21
2519.528556518356
 31
0.0
  0
LINE
  5
1CFC1
330
1C9B8
100
AcDbEntity
  8
HATCH
100
AcDbLine
 10
8912.400502108404
 20
2424.783932023682
 30
0.0
 11
8986.301336564675
 21
2552.783932023676
 31
0.0
  0
LINE
  5
1CFC2
330
1C9B8
100
AcDbEntity
  8
HATCH
100
AcDbLine
 10
8947.901336564674
 20
2552.783932023674
 30
0.0
 11
8967.101336564674
 21
2519.528556518356
 31
0.0
  0
LINE
  5
1CFC3
330
1C9B8
100
AcDbEntity
  8
HATCH
100
AcDbLine
 10
8768.400502110322
 20
2424.7839320243
 30
0.0
 11
8842.301336566611
 21
2552.78393202433
 31
0.0
  0
LINE
  5
1CFC4
330
1C9B8
100
AcDbEntity
  8
HATCH
100
AcDbLine
 10
8803.901336566601
 20
2552.783932024329
 30
0.0
 11
8823.101336566606
 21
2519.528556519002
 31
0.0
  0
LINE
  5
1CFC5
330
1C9B8
100
AcDbEntity
  8
HATCH
100
AcDbLine
 10
8912.400502110322
 20
2424.7839320243
 30
0.0
 11
8986.301336566612
 21
2552.78393202433
 31
0.0
  0
LINE
  5
1CFC6
330
1C9B8
100
AcDbEntity
  8
HATCH
100
AcDbLine
 10
8947.901336566603
 20
2552.783932024329
 30
0.0
 11
8967.101336566605
 21
2519.528556519002
 31
0.0
  0
LINE
  5
1CFC7
330
1C9B8
100
AcDbEntity
  8
HATCH
100
AcDbLine
 10
8624.400502110322
 20
2424.7839320243
 30
0.0
 11
8698.301336566611
 21
2552.78393202433
 31
0.0
  0
LINE
  5
1CFC8
330
1C9B8
100
AcDbEntity
  8
HATCH
100
AcDbLine
 10
8659.901336566601
 20
2552.783932024329
 30
0.0
 11
8679.101336566606
 21
2519.528556519002
 31
0.0
  0
LINE
  5
1CFC9
330
1C9B8
100
AcDbEntity
  8
HATCH
100
AcDbLine
 10
8480.400502110322
 20
2424.7839320243
 30
0.0
 11
8554.301336566608
 21
2552.78393202433
 31
0.0
  0
LINE
  5
1CFCA
330
1C9B8
100
AcDbEntity
  8
HATCH
100
AcDbLine
 10
8515.901336566601
 20
2552.783932024329
 30
0.0
 11
8535.101336566606
 21
2519.528556519002
 31
0.0
  0
LINE
  5
1CFCB
330
1C9B8
100
AcDbEntity
  8
HATCH
100
AcDbLine
 10
4177.557793635696
 20
2424.783932023638
 30
0.0
 11
4251.458628091965
 21
2552.783932023631
 31
0.0
  0
LINE
  5
1CFCC
330
1C9B8
100
AcDbEntity
  8
HATCH
100
AcDbLine
 10
4213.058628091967
 20
2552.783932023629
 30
0.0
 11
4232.258628091964
 21
2519.528556518313
 31
0.0
  0
LINE
  5
1CFCD
330
1C9B8
100
AcDbEntity
  8
HATCH
100
AcDbLine
 10
4609.557793635697
 20
2424.783932023638
 30
0.0
 11
4683.458628091965
 21
2552.783932023631
 31
0.0
  0
LINE
  5
1CFCE
330
1C9B8
100
AcDbEntity
  8
HATCH
100
AcDbLine
 10
4645.058628091967
 20
2552.783932023629
 30
0.0
 11
4664.258628091966
 21
2519.528556518313
 31
0.0
  0
LINE
  5
1CFCF
330
1C9B8
100
AcDbEntity
  8
HATCH
100
AcDbLine
 10
4321.557793635697
 20
2424.783932023638
 30
0.0
 11
4395.458628091964
 21
2552.783932023631
 31
0.0
  0
LINE
  5
1CFD0
330
1C9B8
100
AcDbEntity
  8
HATCH
100
AcDbLine
 10
4357.058628091967
 20
2552.783932023629
 30
0.0
 11
4376.258628091965
 21
2519.528556518313
 31
0.0
  0
LINE
  5
1CFD1
330
1C9B8
100
AcDbEntity
  8
HATCH
100
AcDbLine
 10
4465.557793635697
 20
2424.783932023638
 30
0.0
 11
4539.458628091963
 21
2552.783932023631
 31
0.0
  0
LINE
  5
1CFD2
330
1C9B8
100
AcDbEntity
  8
HATCH
100
AcDbLine
 10
4501.058628091967
 20
2552.783932023629
 30
0.0
 11
4520.258628091966
 21
2519.528556518313
 31
0.0
  0
LINE
  5
1CFD3
330
1C9B8
100
AcDbEntity
  8
HATCH
100
AcDbLine
 10
4753.557793635695
 20
2424.783932023638
 30
0.0
 11
4827.458628091965
 21
2552.783932023631
 31
0.0
  0
LINE
  5
1CFD4
330
1C9B8
100
AcDbEntity
  8
HATCH
100
AcDbLine
 10
4789.058628091967
 20
2552.783932023629
 30
0.0
 11
4808.258628091966
 21
2519.528556518313
 31
0.0
  0
LINE
  5
1CFD5
330
1C9B8
100
AcDbEntity
  8
HATCH
100
AcDbLine
 10
3034.116279290147
 20
2424.783932023639
 30
0.0
 11
3014.916279290149
 21
2458.039307528957
 31
0.0
  0
LINE
  5
1CFD6
330
1C9B8
100
AcDbEntity
  8
HATCH
100
AcDbLine
 10
6604.857866754366
 20
2424.783932023719
 30
0.0
 11
6585.657866754369
 21
2458.039307529036
 31
0.0
  0
LINE
  5
1CFD7
330
1C9B8
100
AcDbEntity
  8
HATCH
100
AcDbLine
 10
6604.857866756295
 20
2424.783932024337
 30
0.0
 11
6585.65786675629
 21
2458.039307529665
 31
0.0
  0
LINE
  5
1CFD8
330
1C9B8
100
AcDbEntity
  8
HATCH
100
AcDbLine
 10
6892.857866754365
 20
2424.783932022442
 30
0.0
 11
6873.657866754367
 21
2458.03930752776
 31
0.0
  0
LINE
  5
1CFD9
330
1C9B8
100
AcDbEntity
  8
HATCH
100
AcDbLine
 10
7036.857866754366
 20
2424.783932022442
 30
0.0
 11
7017.657866754366
 21
2458.03930752776
 31
0.0
  0
LINE
  5
1CFDA
330
1C9B8
100
AcDbEntity
  8
HATCH
100
AcDbLine
 10
6892.857866756293
 20
2424.78393202306
 30
0.0
 11
6873.657866756289
 21
2458.039307528388
 31
0.0
  0
LINE
  5
1CFDB
330
1C9B8
100
AcDbEntity
  8
HATCH
100
AcDbLine
 10
7036.857866756292
 20
2424.78393202306
 30
0.0
 11
7017.657866756289
 21
2458.039307528388
 31
0.0
  0
LINE
  5
1CFDC
330
1C9B8
100
AcDbEntity
  8
HATCH
100
AcDbLine
 10
8806.800502108398
 20
2424.783932023683
 30
0.0
 11
8787.600502108398
 21
2458.039307529
 31
0.0
  0
LINE
  5
1CFDD
330
1C9B8
100
AcDbEntity
  8
HATCH
100
AcDbLine
 10
8518.800502108398
 20
2424.783932023683
 30
0.0
 11
8499.600502108398
 21
2458.039307529
 31
0.0
  0
LINE
  5
1CFDE
330
1C9B8
100
AcDbEntity
  8
HATCH
100
AcDbLine
 10
8662.800502108398
 20
2424.783932023683
 30
0.0
 11
8643.600502108398
 21
2458.039307529
 31
0.0
  0
LINE
  5
1CFDF
330
1C9B8
100
AcDbEntity
  8
HATCH
100
AcDbLine
 10
8950.800502108398
 20
2424.783932023683
 30
0.0
 11
8931.600502108398
 21
2458.039307529
 31
0.0
  0
LINE
  5
1CFE0
330
1C9B8
100
AcDbEntity
  8
HATCH
100
AcDbLine
 10
8806.800502110325
 20
2424.7839320243
 30
0.0
 11
8787.60050211032
 21
2458.039307529629
 31
0.0
  0
LINE
  5
1CFE1
330
1C9B8
100
AcDbEntity
  8
HATCH
100
AcDbLine
 10
8950.800502110325
 20
2424.7839320243
 30
0.0
 11
8931.600502110324
 21
2458.039307529629
 31
0.0
  0
LINE
  5
1CFE2
330
1C9B8
100
AcDbEntity
  8
HATCH
100
AcDbLine
 10
8662.800502110325
 20
2424.7839320243
 30
0.0
 11
8643.600502110322
 21
2458.039307529629
 31
0.0
  0
LINE
  5
1CFE3
330
1C9B8
100
AcDbEntity
  8
HATCH
100
AcDbLine
 10
8518.800502110325
 20
2424.7839320243
 30
0.0
 11
8499.600502110324
 21
2458.039307529629
 31
0.0
  0
LINE
  5
1CFE4
330
1C9B8
100
AcDbEntity
  8
TENSEN-1
100
AcDbLine
 10
7926.75870121258
 20
2103.183932023013
 30
0.0
 11
7873.15870121258
 21
2103.183932023013
 31
0.0
  0
LINE
  5
1CFE5
330
1C9B8
100
AcDbEntity
  8
TENSEN-1
100
AcDbLine
 10
7873.15870121258
 20
2103.183932023013
 30
0.0
 11
7873.15870121258
 21
2594.383932023013
 31
0.0
  0
LINE
  5
1CFE6
330
1C9B8
100
AcDbEntity
  8
TENSEN-1
100
AcDbLine
 10
7873.15870121258
 20
2594.383932023013
 30
0.0
 11
7852.358701212581
 21
2594.383932023013
 31
0.0
  0
LINE
  5
1CFE7
330
1C9B8
100
AcDbEntity
  8
TENSEN-1
100
AcDbLine
 10
7852.358701212581
 20
2594.383932023013
 30
0.0
 11
7852.358701212579
 21
2082.383932023013
 31
0.0
  0
LINE
  5
1CFE8
330
1C9B8
100
AcDbEntity
  8
TENSEN-1
100
AcDbLine
 10
7852.358701212579
 20
2082.383932023013
 30
0.0
 11
7926.75870121258
 21
2082.383932023013
 31
0.0
  0
LINE
  5
1CFE9
330
1C9B8
100
AcDbEntity
  8
TENSEN-1
100
AcDbLine
 10
7926.75870121258
 20
2082.383932023013
 30
0.0
 11
7926.75870121258
 21
2103.183932023013
 31
0.0
  0
LINE
  5
1CFEA
330
1C9B8
100
AcDbEntity
  8
TENSEN-1
100
AcDbLine
 10
7574.758701212582
 20
2103.183932023017
 30
0.0
 11
7628.358701212585
 21
2103.183932023017
 31
0.0
  0
LINE
  5
1CFEB
330
1C9B8
100
AcDbEntity
  8
TENSEN-1
100
AcDbLine
 10
7628.358701212585
 20
2103.183932023017
 30
0.0
 11
7628.358701212585
 21
2594.383932023017
 31
0.0
  0
LINE
  5
1CFEC
330
1C9B8
100
AcDbEntity
  8
TENSEN-1
100
AcDbLine
 10
7628.358701212585
 20
2594.383932023017
 30
0.0
 11
7649.158701212584
 21
2594.383932023017
 31
0.0
  0
LINE
  5
1CFED
330
1C9B8
100
AcDbEntity
  8
TENSEN-1
100
AcDbLine
 10
7649.158701212584
 20
2594.383932023017
 30
0.0
 11
7649.158701212584
 21
2082.383932023016
 31
0.0
  0
LINE
  5
1CFEE
330
1C9B8
100
AcDbEntity
  8
TENSEN-1
100
AcDbLine
 10
7649.158701212584
 20
2082.383932023016
 30
0.0
 11
7574.758701212582
 21
2082.383932023016
 31
0.0
  0
LINE
  5
1CFEF
330
1C9B8
100
AcDbEntity
  8
TENSEN-1
100
AcDbLine
 10
7574.758701212582
 20
2082.383932023016
 30
0.0
 11
7574.758701212582
 21
2103.183932023017
 31
0.0
  0
LINE
  5
1CFF0
330
1C9B8
100
AcDbEntity
  8
HASHIRA
100
AcDbLine
 10
7606.758701212581
 20
2552.783932023013
 30
0.0
 11
7894.758701212579
 21
2552.783932023016
 31
0.0
  0
LINE
  5
1CFF1
330
1C9B8
100
AcDbEntity
  8
HASHIRA
100
AcDbLine
 10
7894.758701212579
 20
2552.783932023016
 30
0.0
 11
7894.758701212579
 21
2567.183932023016
 31
0.0
  0
LINE
  5
1CFF2
330
1C9B8
100
AcDbEntity
  8
HASHIRA
100
AcDbLine
 10
7894.758701212579
 20
2567.183932023016
 30
0.0
 11
7606.758701212581
 21
2567.183932023013
 31
0.0
  0
LINE
  5
1CFF3
330
1C9B8
100
AcDbEntity
  8
HASHIRA
100
AcDbLine
 10
7606.758701212581
 20
2567.183932023013
 30
0.0
 11
7606.758701212581
 21
2552.783932023013
 31
0.0
  0
LINE
  5
1CFF4
330
1C9B8
100
AcDbEntity
  8
BOLT
100
AcDbLine
 10
7764.35870121258
 20
2595.983932023015
 30
0.0
 11
7764.35870121258
 21
2603.835895683991
 31
0.0
  0
LINE
  5
1CFF5
330
1C9B8
100
AcDbEntity
  8
BOLT
100
AcDbLine
 10
7764.35870121258
 20
2603.835895683991
 30
0.0
 11
7750.758701212581
 21
2611.687859344974
 31
0.0
  0
LINE
  5
1CFF6
330
1C9B8
100
AcDbEntity
  8
BOLT
100
AcDbLine
 10
7750.758701212581
 20
2611.687859344974
 30
0.0
 11
7737.15870121258
 21
2603.835895683991
 31
0.0
  0
LINE
  5
1CFF7
330
1C9B8
100
AcDbEntity
  8
BOLT
100
AcDbLine
 10
7737.15870121258
 20
2603.835895683991
 30
0.0
 11
7737.15870121258
 21
2595.983932023015
 31
0.0
  0
LINE
  5
1CFF8
330
1C9B8
100
AcDbEntity
  8
BOLT
100
AcDbLine
 10
7737.15870121258
 20
2595.983932023015
 30
0.0
 11
7737.15870121258
 21
2588.131968362035
 31
0.0
  0
LINE
  5
1CFF9
330
1C9B8
100
AcDbEntity
  8
BOLT
100
AcDbLine
 10
7737.15870121258
 20
2588.131968362035
 30
0.0
 11
7750.758701212581
 21
2580.280004701055
 31
0.0
  0
LINE
  5
1CFFA
330
1C9B8
100
AcDbEntity
  8
BOLT
100
AcDbLine
 10
7750.758701212581
 20
2580.280004701055
 30
0.0
 11
7764.35870121258
 21
2588.131968362035
 31
0.0
  0
LINE
  5
1CFFB
330
1C9B8
100
AcDbEntity
  8
BOLT
100
AcDbLine
 10
7764.35870121258
 20
2588.131968362035
 30
0.0
 11
7764.35870121258
 21
2595.983932023015
 31
0.0
  0
LINE
  5
1CFFC
330
1C9B8
100
AcDbEntity
  8
BOLT
100
AcDbLine
 10
7764.35870121258
 20
2659.983932023015
 30
0.0
 11
7764.35870121258
 21
2667.835895683991
 31
0.0
  0
LINE
  5
1CFFD
330
1C9B8
100
AcDbEntity
  8
BOLT
100
AcDbLine
 10
7764.35870121258
 20
2667.835895683991
 30
0.0
 11
7750.758701212581
 21
2675.687859344974
 31
0.0
  0
LINE
  5
1CFFE
330
1C9B8
100
AcDbEntity
  8
BOLT
100
AcDbLine
 10
7750.758701212581
 20
2675.687859344974
 30
0.0
 11
7737.15870121258
 21
2667.835895683991
 31
0.0
  0
LINE
  5
1CFFF
330
1C9B8
100
AcDbEntity
  8
BOLT
100
AcDbLine
 10
7737.15870121258
 20
2667.835895683991
 30
0.0
 11
7737.15870121258
 21
2659.983932023015
 31
0.0
  0
LINE
  5
1D000
330
1C9B8
100
AcDbEntity
  8
BOLT
100
AcDbLine
 10
7737.15870121258
 20
2659.983932023015
 30
0.0
 11
7737.15870121258
 21
2652.131968362035
 31
0.0
  0
LINE
  5
1D001
330
1C9B8
100
AcDbEntity
  8
BOLT
100
AcDbLine
 10
7737.15870121258
 20
2652.131968362035
 30
0.0
 11
7750.758701212581
 21
2644.280004701055
 31
0.0
  0
LINE
  5
1D002
330
1C9B8
100
AcDbEntity
  8
BOLT
100
AcDbLine
 10
7750.758701212581
 20
2644.280004701055
 30
0.0
 11
7764.35870121258
 21
2652.131968362035
 31
0.0
  0
LINE
  5
1D003
330
1C9B8
100
AcDbEntity
  8
BOLT
100
AcDbLine
 10
7764.35870121258
 20
2652.131968362035
 30
0.0
 11
7764.35870121258
 21
2659.983932023015
 31
0.0
  0
LINE
  5
1D004
330
1C9B8
100
AcDbEntity
  8
KISO
100
AcDbLine
 10
2951.915992739873
 20
1784.783932023017
 30
0.0
 11
4231.915992739874
 21
1784.783932023017
 31
0.0
  0
LINE
  5
1D005
330
1C9B8
100
AcDbEntity
  8
KISO
100
AcDbLine
 10
4231.915992739874
 20
1784.783932023017
 30
0.0
 11
4231.915992739874
 21
1944.783932023019
 31
0.0
  0
LINE
  5
1D006
330
1C9B8
100
AcDbEntity
  8
KISO
100
AcDbLine
 10
4231.915992739874
 20
1944.783932023019
 30
0.0
 11
2951.915992739873
 21
1944.783932023019
 31
0.0
  0
LINE
  5
1D007
330
1C9B8
100
AcDbEntity
  8
KISO
100
AcDbLine
 10
2951.915992739873
 20
1944.783932023019
 30
0.0
 11
2951.915992739873
 21
1784.783932023017
 31
0.0
  0
LINE
  5
1D008
330
1C9B8
100
AcDbEntity
  8
HATCH
100
AcDbLine
 10
4215.95779363569
 20
2424.783932023639
 30
0.0
 11
4196.757793635691
 21
2458.039307528957
 31
0.0
  0
LINE
  5
1D009
330
1C9B8
100
AcDbEntity
  8
HATCH
100
AcDbLine
 10
4647.95779363569
 20
2424.783932023639
 30
0.0
 11
4628.757793635691
 21
2458.039307528957
 31
0.0
  0
LINE
  5
1D00A
330
1C9B8
100
AcDbEntity
  8
HATCH
100
AcDbLine
 10
4359.95779363569
 20
2424.783932023639
 30
0.0
 11
4340.757793635691
 21
2458.039307528957
 31
0.0
  0
LINE
  5
1D00B
330
1C9B8
100
AcDbEntity
  8
HATCH
100
AcDbLine
 10
4503.95779363569
 20
2424.783932023639
 30
0.0
 11
4484.757793635691
 21
2458.039307528957
 31
0.0
  0
LINE
  5
1D00C
330
1C9B8
100
AcDbEntity
  8
HATCH
100
AcDbLine
 10
4791.95779363569
 20
2424.783932023639
 30
0.0
 11
4772.757793635689
 21
2458.039307528957
 31
0.0
  0
LINE
  5
1D00D
330
1C9B8
100
AcDbEntity
  8
HASHIRA
100
AcDbLine
 10
3527.915992739874
 20
2552.783932023023
 30
0.0
 11
3655.915992739874
 21
2552.783932023023
 31
0.0
  0
LINE
  5
1D00E
330
1C9B8
100
AcDbEntity
  8
HASHIRA
100
AcDbLine
 10
3655.915992739874
 20
2552.783932023023
 30
0.0
 11
3655.915992739874
 21
2562.383932023022
 31
0.0
  0
LINE
  5
1D00F
330
1C9B8
100
AcDbEntity
  8
HASHIRA
100
AcDbLine
 10
3655.915992739874
 20
2562.383932023022
 30
0.0
 11
3527.915992739874
 21
2562.383932023022
 31
0.0
  0
LINE
  5
1D010
330
1C9B8
100
AcDbEntity
  8
HASHIRA
100
AcDbLine
 10
3527.915992739874
 20
2562.383932023022
 30
0.0
 11
3527.915992739874
 21
2552.783932023023
 31
0.0
  0
LINE
  5
1D011
330
1C9B8
100
AcDbEntity
  8
TENSEN-1
100
AcDbLine
 10
3527.915992739874
 20
2103.183932023021
 30
0.0
 11
3581.515992739872
 21
2103.183932023021
 31
0.0
  0
LINE
  5
1D012
330
1C9B8
100
AcDbEntity
  8
TENSEN-1
100
AcDbLine
 10
3581.515992739872
 20
2103.183932023021
 30
0.0
 11
3581.515992739872
 21
2594.383932023022
 31
0.0
  0
LINE
  5
1D013
330
1C9B8
100
AcDbEntity
  8
TENSEN-1
100
AcDbLine
 10
3581.515992739872
 20
2594.383932023022
 30
0.0
 11
3602.315992739876
 21
2594.383932023022
 31
0.0
  0
LINE
  5
1D014
330
1C9B8
100
AcDbEntity
  8
TENSEN-1
100
AcDbLine
 10
3602.315992739876
 20
2594.383932023022
 30
0.0
 11
3602.315992739876
 21
2082.383932023022
 31
0.0
  0
LINE
  5
1D015
330
1C9B8
100
AcDbEntity
  8
TENSEN-1
100
AcDbLine
 10
3602.315992739876
 20
2082.383932023022
 30
0.0
 11
3527.915992739874
 21
2082.383932023022
 31
0.0
  0
LINE
  5
1D016
330
1C9B8
100
AcDbEntity
  8
TENSEN-1
100
AcDbLine
 10
3527.915992739874
 20
2082.383932023022
 30
0.0
 11
3527.915992739874
 21
2103.183932023021
 31
0.0
  0
LINE
  5
1D017
330
1C9B8
100
AcDbEntity
  8
DOMAKON
100
AcDbLine
 10
8244.217031986062
 20
5395.715360473253
 30
0.0
 11
12034.21703198606
 21
5395.715360473253
 31
0.0
  0
LINE
  5
1D018
330
1C9B8
100
AcDbEntity
  8
DOMAKON
100
AcDbLine
 10
12034.21703198606
 20
5395.715360473253
 30
0.0
 11
12034.21703198606
 21
9595.715360473253
 31
0.0
  0
LINE
  5
1D019
330
1C9B8
100
AcDbEntity
  8
DOMAKON
100
AcDbLine
 10
12034.21703198606
 20
9595.715360473253
 30
0.0
 11
8244.217031986062
 21
9595.715360473253
 31
0.0
  0
LINE
  5
1D01A
330
1C9B8
100
AcDbEntity
  8
DOMAKON
100
AcDbLine
 10
8124.217031986061
 20
9595.715360473253
 30
0.0
 11
4334.217031986058
 21
9595.715360473253
 31
0.0
  0
LINE
  5
1D01B
330
1C9B8
100
AcDbEntity
  8
DOMAKON
100
AcDbLine
 10
4334.217031986058
 20
9595.715360473253
 30
0.0
 11
4334.217031986058
 21
5395.715360473253
 31
0.0
  0
LINE
  5
1D01C
330
1C9B8
100
AcDbEntity
  8
DOMAKON
100
AcDbLine
 10
4334.217031986058
 20
5395.715360473253
 30
0.0
 11
8124.217031986061
 21
5395.715360473253
 31
0.0
  0
LINE
  5
1D01D
330
1C9B8
100
AcDbEntity
  8
U1
100
AcDbLine
 10
11640.41703198606
 20
9325.915360473253
 30
0.0
 11
11608.01703198605
 21
9325.915360473253
 31
0.0
  0
LINE
  5
1D01E
330
1C9B8
100
AcDbEntity
  8
U1
100
AcDbLine
 10
11608.01703198605
 20
9265.515360473251
 30
0.0
 11
11660.41703198606
 21
9265.515360473251
 31
0.0
  0
ARC
  5
1D01F
330
1C9B8
100
AcDbEntity
  8
U1
100
AcDbCircle
 10
11608.01703198605
 20
9269.515360473251
 30
0.0
 40
4.0
100
AcDbArc
 50
180.0
 51
270.0
  0
ARC
  5
1D020
330
1C9B8
100
AcDbEntity
  8
U1
100
AcDbCircle
 10
11608.01703198605
 20
9321.915360473253
 30
0.0
 40
4.0
100
AcDbArc
 50
90.0
 51
180.0
  0
LINE
  5
1D021
330
1C9B8
100
AcDbEntity
  8
U1
100
AcDbLine
 10
11604.01703198606
 20
9321.915360473253
 30
0.0
 11
11604.01703198606
 21
9269.515360473251
 31
0.0
  0
ARC
  5
1D022
330
1C9B8
100
AcDbEntity
  8
U1
100
AcDbCircle
 10
11660.41703198606
 20
9269.515360473251
 30
0.0
 40
4.0
100
AcDbArc
 50
270.0
 51
0.0
  0
ARC
  5
1D023
330
1C9B8
100
AcDbEntity
  8
U1
100
AcDbCircle
 10
11640.41703198606
 20
9321.915360473253
 30
0.0
 40
4.0
100
AcDbArc
 50
0.0
 51
90.0
  0
ARC
  5
1D024
330
1C9B8
100
AcDbEntity
  8
U1
100
AcDbCircle
 10
11647.86703198605
 20
9312.665360473252
 30
0.0
 40
1.149999999999977
100
AcDbArc
 50
180.0
 51
0.0
  0
LINE
  5
1D025
330
1C9B8
100
AcDbEntity
  8
U1
100
AcDbLine
 10
11651.31703198606
 20
9320.215360473252
 30
0.0
 11
11651.31703198606
 21
9312.665360473252
 31
0.0
  0
LINE
  5
1D026
330
1C9B8
100
AcDbEntity
  8
U1
100
AcDbLine
 10
11649.01703198605
 20
9320.215360473252
 30
0.0
 11
11651.31703198606
 21
9320.215360473252
 31
0.0
  0
LINE
  5
1D027
330
1C9B8
100
AcDbEntity
  8
U1
100
AcDbLine
 10
11646.71703198606
 20
9313.215360473252
 30
0.0
 11
11649.01703198605
 21
9313.215360473252
 31
0.0
  0
ARC
  5
1D028
330
1C9B8
100
AcDbEntity
  8
U1
100
AcDbCircle
 10
11647.86703198605
 20
9312.665360473252
 30
0.0
 40
3.450000000000044
100
AcDbArc
 50
180.0
 51
0.0
  0
LINE
  5
1D029
330
1C9B8
100
AcDbEntity
  8
U1
100
AcDbLine
 10
11646.71703198606
 20
9312.665360473252
 30
0.0
 11
11646.71703198606
 21
9321.915360473253
 31
0.0
  0
LINE
  5
1D02A
330
1C9B8
100
AcDbEntity
  8
U1
100
AcDbLine
 10
11649.01703198605
 20
9321.915360473253
 30
0.0
 11
11649.01703198605
 21
9312.665360473252
 31
0.0
  0
LINE
  5
1D02B
330
1C9B8
100
AcDbEntity
  8
U1
100
AcDbLine
 10
11644.41703198606
 20
9312.665360473252
 30
0.0
 11
11644.41703198606
 21
9321.915360473253
 31
0.0
  0
ARC
  5
1D02C
330
1C9B8
100
AcDbEntity
  8
U1
100
AcDbCircle
 10
11660.41703198606
 20
9321.915360473253
 30
0.0
 40
4.0
100
AcDbArc
 50
0.0
 51
90.0
  0
LINE
  5
1D02D
330
1C9B8
100
AcDbEntity
  8
U1
100
AcDbLine
 10
11660.41703198606
 20
9325.915360473253
 30
0.0
 11
11653.01703198605
 21
9325.915360473253
 31
0.0
  0
ARC
  5
1D02E
330
1C9B8
100
AcDbEntity
  8
U1
100
AcDbCircle
 10
11653.01703198605
 20
9321.915360473253
 30
0.0
 40
4.0
100
AcDbArc
 50
90.0
 51
180.0
  0
LINE
  5
1D02F
330
1C9B8
100
AcDbEntity
  8
U1
100
AcDbLine
 10
11664.41703198606
 20
9269.515360473251
 30
0.0
 11
11664.41703198606
 21
9321.915360473253
 31
0.0
  0
LINE
  5
1D030
330
1C9B8
100
AcDbEntity
  8
U1
100
AcDbLine
 10
11640.41703198606
 20
7525.915360473252
 30
0.0
 11
11608.01703198605
 21
7525.915360473252
 31
0.0
  0
LINE
  5
1D031
330
1C9B8
100
AcDbEntity
  8
U1
100
AcDbLine
 10
11608.01703198605
 20
7465.515360473251
 30
0.0
 11
11660.41703198606
 21
7465.515360473251
 31
0.0
  0
ARC
  5
1D032
330
1C9B8
100
AcDbEntity
  8
U1
100
AcDbCircle
 10
11608.01703198605
 20
7469.515360473251
 30
0.0
 40
4.0
100
AcDbArc
 50
180.0
 51
270.0
  0
ARC
  5
1D033
330
1C9B8
100
AcDbEntity
  8
U1
100
AcDbCircle
 10
11608.01703198605
 20
7521.915360473252
 30
0.0
 40
4.0
100
AcDbArc
 50
90.0
 51
180.0
  0
LINE
  5
1D034
330
1C9B8
100
AcDbEntity
  8
U1
100
AcDbLine
 10
11604.01703198606
 20
7521.915360473252
 30
0.0
 11
11604.01703198606
 21
7469.515360473251
 31
0.0
  0
ARC
  5
1D035
330
1C9B8
100
AcDbEntity
  8
U1
100
AcDbCircle
 10
11660.41703198606
 20
7469.515360473251
 30
0.0
 40
4.0
100
AcDbArc
 50
270.0
 51
0.0
  0
ARC
  5
1D036
330
1C9B8
100
AcDbEntity
  8
U1
100
AcDbCircle
 10
11640.41703198606
 20
7521.915360473252
 30
0.0
 40
4.0
100
AcDbArc
 50
0.0
 51
90.0
  0
ARC
  5
1D037
330
1C9B8
100
AcDbEntity
  8
U1
100
AcDbCircle
 10
11647.86703198605
 20
7512.665360473251
 30
0.0
 40
1.149999999999977
100
AcDbArc
 50
180.0
 51
0.0
  0
LINE
  5
1D038
330
1C9B8
100
AcDbEntity
  8
U1
100
AcDbLine
 10
11651.31703198606
 20
7520.215360473253
 30
0.0
 11
11651.31703198606
 21
7512.665360473251
 31
0.0
  0
LINE
  5
1D039
330
1C9B8
100
AcDbEntity
  8
U1
100
AcDbLine
 10
11649.01703198605
 20
7520.215360473253
 30
0.0
 11
11651.31703198606
 21
7520.215360473253
 31
0.0
  0
LINE
  5
1D03A
330
1C9B8
100
AcDbEntity
  8
U1
100
AcDbLine
 10
11646.71703198606
 20
7513.215360473253
 30
0.0
 11
11649.01703198605
 21
7513.215360473253
 31
0.0
  0
ARC
  5
1D03B
330
1C9B8
100
AcDbEntity
  8
U1
100
AcDbCircle
 10
11647.86703198605
 20
7512.665360473251
 30
0.0
 40
3.450000000000044
100
AcDbArc
 50
180.0
 51
0.0
  0
LINE
  5
1D03C
330
1C9B8
100
AcDbEntity
  8
U1
100
AcDbLine
 10
11646.71703198606
 20
7512.665360473251
 30
0.0
 11
11646.71703198606
 21
7521.915360473252
 31
0.0
  0
LINE
  5
1D03D
330
1C9B8
100
AcDbEntity
  8
U1
100
AcDbLine
 10
11649.01703198605
 20
7521.915360473252
 30
0.0
 11
11649.01703198605
 21
7512.665360473251
 31
0.0
  0
LINE
  5
1D03E
330
1C9B8
100
AcDbEntity
  8
U1
100
AcDbLine
 10
11644.41703198606
 20
7512.665360473251
 30
0.0
 11
11644.41703198606
 21
7521.915360473252
 31
0.0
  0
ARC
  5
1D03F
330
1C9B8
100
AcDbEntity
  8
U1
100
AcDbCircle
 10
11660.41703198606
 20
7521.915360473252
 30
0.0
 40
4.0
100
AcDbArc
 50
0.0
 51
90.0
  0
LINE
  5
1D040
330
1C9B8
100
AcDbEntity
  8
U1
100
AcDbLine
 10
11660.41703198606
 20
7525.915360473252
 30
0.0
 11
11653.01703198605
 21
7525.915360473252
 31
0.0
  0
ARC
  5
1D041
330
1C9B8
100
AcDbEntity
  8
U1
100
AcDbCircle
 10
11653.01703198605
 20
7521.915360473252
 30
0.0
 40
4.0
100
AcDbArc
 50
90.0
 51
180.0
  0
LINE
  5
1D042
330
1C9B8
100
AcDbEntity
  8
U1
100
AcDbLine
 10
11664.41703198606
 20
7469.515360473251
 30
0.0
 11
11664.41703198606
 21
7521.915360473252
 31
0.0
  0
LINE
  5
1D043
330
1C9B8
100
AcDbEntity
  8
U1
100
AcDbLine
 10
11640.41703198606
 20
5725.915360473253
 30
0.0
 11
11608.01703198605
 21
5725.915360473253
 31
0.0
  0
LINE
  5
1D044
330
1C9B8
100
AcDbEntity
  8
U1
100
AcDbLine
 10
11608.01703198605
 20
5665.515360473253
 30
0.0
 11
11660.41703198606
 21
5665.515360473253
 31
0.0
  0
ARC
  5
1D045
330
1C9B8
100
AcDbEntity
  8
U1
100
AcDbCircle
 10
11608.01703198605
 20
5669.515360473252
 30
0.0
 40
4.0
100
AcDbArc
 50
180.0
 51
270.0
  0
ARC
  5
1D046
330
1C9B8
100
AcDbEntity
  8
U1
100
AcDbCircle
 10
11608.01703198605
 20
5721.915360473253
 30
0.0
 40
4.0
100
AcDbArc
 50
90.0
 51
180.0
  0
LINE
  5
1D047
330
1C9B8
100
AcDbEntity
  8
U1
100
AcDbLine
 10
11604.01703198606
 20
5721.915360473253
 30
0.0
 11
11604.01703198606
 21
5669.515360473252
 31
0.0
  0
ARC
  5
1D048
330
1C9B8
100
AcDbEntity
  8
U1
100
AcDbCircle
 10
11660.41703198606
 20
5669.515360473252
 30
0.0
 40
4.0
100
AcDbArc
 50
270.0
 51
0.0
  0
ARC
  5
1D049
330
1C9B8
100
AcDbEntity
  8
U1
100
AcDbCircle
 10
11640.41703198606
 20
5721.915360473253
 30
0.0
 40
4.0
100
AcDbArc
 50
0.0
 51
90.0
  0
ARC
  5
1D04A
330
1C9B8
100
AcDbEntity
  8
U1
100
AcDbCircle
 10
11647.86703198605
 20
5712.665360473253
 30
0.0
 40
1.149999999999977
100
AcDbArc
 50
180.0
 51
0.0
  0
LINE
  5
1D04B
330
1C9B8
100
AcDbEntity
  8
U1
100
AcDbLine
 10
11651.31703198606
 20
5720.215360473253
 30
0.0
 11
11651.31703198606
 21
5712.665360473253
 31
0.0
  0
LINE
  5
1D04C
330
1C9B8
100
AcDbEntity
  8
U1
100
AcDbLine
 10
11649.01703198605
 20
5720.215360473253
 30
0.0
 11
11651.31703198606
 21
5720.215360473253
 31
0.0
  0
LINE
  5
1D04D
330
1C9B8
100
AcDbEntity
  8
U1
100
AcDbLine
 10
11646.71703198606
 20
5713.215360473252
 30
0.0
 11
11649.01703198605
 21
5713.215360473252
 31
0.0
  0
ARC
  5
1D04E
330
1C9B8
100
AcDbEntity
  8
U1
100
AcDbCircle
 10
11647.86703198605
 20
5712.665360473253
 30
0.0
 40
3.450000000000044
100
AcDbArc
 50
180.0
 51
0.0
  0
LINE
  5
1D04F
330
1C9B8
100
AcDbEntity
  8
U1
100
AcDbLine
 10
11646.71703198606
 20
5712.665360473253
 30
0.0
 11
11646.71703198606
 21
5721.915360473252
 31
0.0
  0
LINE
  5
1D050
330
1C9B8
100
AcDbEntity
  8
U1
100
AcDbLine
 10
11649.01703198605
 20
5721.915360473253
 30
0.0
 11
11649.01703198605
 21
5712.665360473253
 31
0.0
  0
LINE
  5
1D051
330
1C9B8
100
AcDbEntity
  8
U1
100
AcDbLine
 10
11644.41703198606
 20
5712.665360473253
 30
0.0
 11
11644.41703198606
 21
5721.915360473253
 31
0.0
  0
ARC
  5
1D052
330
1C9B8
100
AcDbEntity
  8
U1
100
AcDbCircle
 10
11660.41703198606
 20
5721.915360473253
 30
0.0
 40
4.0
100
AcDbArc
 50
0.0
 51
90.0
  0
LINE
  5
1D053
330
1C9B8
100
AcDbEntity
  8
U1
100
AcDbLine
 10
11660.41703198606
 20
5725.915360473253
 30
0.0
 11
11653.01703198605
 21
5725.915360473253
 31
0.0
  0
ARC
  5
1D054
330
1C9B8
100
AcDbEntity
  8
U1
100
AcDbCircle
 10
11653.01703198605
 20
5721.915360473253
 30
0.0
 40
4.0
100
AcDbArc
 50
90.0
 51
180.0
  0
LINE
  5
1D055
330
1C9B8
100
AcDbEntity
  8
U1
100
AcDbLine
 10
11664.41703198606
 20
5669.515360473252
 30
0.0
 11
11664.41703198606
 21
5721.915360473253
 31
0.0
  0
LINE
  5
1D056
330
1C9B8
100
AcDbEntity
  8
U1
100
AcDbLine
 10
8840.417031986062
 20
9325.915360473253
 30
0.0
 11
8808.017031986059
 21
9325.915360473253
 31
0.0
  0
LINE
  5
1D057
330
1C9B8
100
AcDbEntity
  8
U1
100
AcDbLine
 10
8808.017031986059
 20
9265.515360473251
 30
0.0
 11
8860.41703198606
 21
9265.515360473251
 31
0.0
  0
ARC
  5
1D058
330
1C9B8
100
AcDbEntity
  8
U1
100
AcDbCircle
 10
8808.017031986059
 20
9269.515360473251
 30
0.0
 40
4.0
100
AcDbArc
 50
180.0
 51
270.0
  0
ARC
  5
1D059
330
1C9B8
100
AcDbEntity
  8
U1
100
AcDbCircle
 10
8808.017031986059
 20
9321.915360473253
 30
0.0
 40
4.0
100
AcDbArc
 50
90.0
 51
180.0
  0
LINE
  5
1D05A
330
1C9B8
100
AcDbEntity
  8
U1
100
AcDbLine
 10
8804.017031986061
 20
9321.915360473253
 30
0.0
 11
8804.017031986061
 21
9269.515360473251
 31
0.0
  0
ARC
  5
1D05B
330
1C9B8
100
AcDbEntity
  8
U1
100
AcDbCircle
 10
8860.41703198606
 20
9269.515360473251
 30
0.0
 40
4.0
100
AcDbArc
 50
270.0
 51
0.0
  0
ARC
  5
1D05C
330
1C9B8
100
AcDbEntity
  8
U1
100
AcDbCircle
 10
8840.417031986062
 20
9321.915360473253
 30
0.0
 40
4.0
100
AcDbArc
 50
0.0
 51
90.0
  0
ARC
  5
1D05D
330
1C9B8
100
AcDbEntity
  8
U1
100
AcDbCircle
 10
8847.86703198606
 20
9312.665360473252
 30
0.0
 40
1.149999999999977
100
AcDbArc
 50
180.0
 51
0.0
  0
LINE
  5
1D05E
330
1C9B8
100
AcDbEntity
  8
U1
100
AcDbLine
 10
8851.317031986061
 20
9320.215360473252
 30
0.0
 11
8851.317031986061
 21
9312.665360473252
 31
0.0
  0
LINE
  5
1D05F
330
1C9B8
100
AcDbEntity
  8
U1
100
AcDbLine
 10
8849.017031986059
 20
9320.215360473252
 30
0.0
 11
8851.317031986061
 21
9320.215360473252
 31
0.0
  0
LINE
  5
1D060
330
1C9B8
100
AcDbEntity
  8
U1
100
AcDbLine
 10
8846.717031986059
 20
9313.215360473252
 30
0.0
 11
8849.017031986059
 21
9313.215360473252
 31
0.0
  0
ARC
  5
1D061
330
1C9B8
100
AcDbEntity
  8
U1
100
AcDbCircle
 10
8847.86703198606
 20
9312.665360473252
 30
0.0
 40
3.450000000000044
100
AcDbArc
 50
180.0
 51
0.0
  0
LINE
  5
1D062
330
1C9B8
100
AcDbEntity
  8
U1
100
AcDbLine
 10
8846.717031986059
 20
9312.665360473252
 30
0.0
 11
8846.717031986059
 21
9321.915360473253
 31
0.0
  0
LINE
  5
1D063
330
1C9B8
100
AcDbEntity
  8
U1
100
AcDbLine
 10
8849.017031986059
 20
9321.915360473253
 30
0.0
 11
8849.017031986059
 21
9312.665360473252
 31
0.0
  0
LINE
  5
1D064
330
1C9B8
100
AcDbEntity
  8
U1
100
AcDbLine
 10
8844.417031986059
 20
9312.665360473252
 30
0.0
 11
8844.417031986059
 21
9321.915360473253
 31
0.0
  0
ARC
  5
1D065
330
1C9B8
100
AcDbEntity
  8
U1
100
AcDbCircle
 10
8860.41703198606
 20
9321.915360473253
 30
0.0
 40
4.0
100
AcDbArc
 50
0.0
 51
90.0
  0
LINE
  5
1D066
330
1C9B8
100
AcDbEntity
  8
U1
100
AcDbLine
 10
8860.41703198606
 20
9325.915360473253
 30
0.0
 11
8853.017031986059
 21
9325.915360473253
 31
0.0
  0
ARC
  5
1D067
330
1C9B8
100
AcDbEntity
  8
U1
100
AcDbCircle
 10
8853.017031986059
 20
9321.915360473253
 30
0.0
 40
4.0
100
AcDbArc
 50
90.0
 51
180.0
  0
LINE
  5
1D068
330
1C9B8
100
AcDbEntity
  8
U1
100
AcDbLine
 10
8864.417031986061
 20
9269.515360473251
 30
0.0
 11
8864.417031986061
 21
9321.915360473253
 31
0.0
  0
LINE
  5
1D069
330
1C9B8
100
AcDbEntity
  8
U1
100
AcDbLine
 10
8840.417031986062
 20
7525.915360473252
 30
0.0
 11
8808.017031986059
 21
7525.915360473252
 31
0.0
  0
LINE
  5
1D06A
330
1C9B8
100
AcDbEntity
  8
U1
100
AcDbLine
 10
8808.017031986059
 20
7465.515360473251
 30
0.0
 11
8860.41703198606
 21
7465.515360473251
 31
0.0
  0
ARC
  5
1D06B
330
1C9B8
100
AcDbEntity
  8
U1
100
AcDbCircle
 10
8808.017031986059
 20
7469.515360473251
 30
0.0
 40
4.0
100
AcDbArc
 50
180.0
 51
270.0
  0
ARC
  5
1D06C
330
1C9B8
100
AcDbEntity
  8
U1
100
AcDbCircle
 10
8808.017031986059
 20
7521.915360473252
 30
0.0
 40
4.0
100
AcDbArc
 50
90.0
 51
180.0
  0
LINE
  5
1D06D
330
1C9B8
100
AcDbEntity
  8
U1
100
AcDbLine
 10
8804.017031986061
 20
7521.915360473252
 30
0.0
 11
8804.017031986061
 21
7469.515360473251
 31
0.0
  0
ARC
  5
1D06E
330
1C9B8
100
AcDbEntity
  8
U1
100
AcDbCircle
 10
8860.41703198606
 20
7469.515360473251
 30
0.0
 40
4.0
100
AcDbArc
 50
270.0
 51
0.0
  0
ARC
  5
1D06F
330
1C9B8
100
AcDbEntity
  8
U1
100
AcDbCircle
 10
8840.417031986062
 20
7521.915360473252
 30
0.0
 40
4.0
100
AcDbArc
 50
0.0
 51
90.0
  0
ARC
  5
1D070
330
1C9B8
100
AcDbEntity
  8
U1
100
AcDbCircle
 10
8847.86703198606
 20
7512.665360473251
 30
0.0
 40
1.149999999999977
100
AcDbArc
 50
180.0
 51
0.0
  0
LINE
  5
1D071
330
1C9B8
100
AcDbEntity
  8
U1
100
AcDbLine
 10
8851.317031986061
 20
7520.215360473253
 30
0.0
 11
8851.317031986061
 21
7512.665360473251
 31
0.0
  0
LINE
  5
1D072
330
1C9B8
100
AcDbEntity
  8
U1
100
AcDbLine
 10
8849.017031986059
 20
7520.215360473253
 30
0.0
 11
8851.317031986061
 21
7520.215360473253
 31
0.0
  0
LINE
  5
1D073
330
1C9B8
100
AcDbEntity
  8
U1
100
AcDbLine
 10
8846.717031986059
 20
7513.215360473253
 30
0.0
 11
8849.017031986059
 21
7513.215360473253
 31
0.0
  0
ARC
  5
1D074
330
1C9B8
100
AcDbEntity
  8
U1
100
AcDbCircle
 10
8847.86703198606
 20
7512.665360473251
 30
0.0
 40
3.450000000000044
100
AcDbArc
 50
180.0
 51
0.0
  0
LINE
  5
1D075
330
1C9B8
100
AcDbEntity
  8
U1
100
AcDbLine
 10
8846.717031986059
 20
7512.665360473251
 30
0.0
 11
8846.717031986059
 21
7521.915360473252
 31
0.0
  0
LINE
  5
1D076
330
1C9B8
100
AcDbEntity
  8
U1
100
AcDbLine
 10
8849.017031986059
 20
7521.915360473252
 30
0.0
 11
8849.017031986059
 21
7512.665360473251
 31
0.0
  0
LINE
  5
1D077
330
1C9B8
100
AcDbEntity
  8
U1
100
AcDbLine
 10
8844.417031986059
 20
7512.665360473251
 30
0.0
 11
8844.417031986059
 21
7521.915360473252
 31
0.0
  0
ARC
  5
1D078
330
1C9B8
100
AcDbEntity
  8
U1
100
AcDbCircle
 10
8860.41703198606
 20
7521.915360473252
 30
0.0
 40
4.0
100
AcDbArc
 50
0.0
 51
90.0
  0
LINE
  5
1D079
330
1C9B8
100
AcDbEntity
  8
U1
100
AcDbLine
 10
8860.41703198606
 20
7525.915360473252
 30
0.0
 11
8853.017031986059
 21
7525.915360473252
 31
0.0
  0
ARC
  5
1D07A
330
1C9B8
100
AcDbEntity
  8
U1
100
AcDbCircle
 10
8853.017031986059
 20
7521.915360473252
 30
0.0
 40
4.0
100
AcDbArc
 50
90.0
 51
180.0
  0
LINE
  5
1D07B
330
1C9B8
100
AcDbEntity
  8
U1
100
AcDbLine
 10
8864.417031986061
 20
7469.515360473251
 30
0.0
 11
8864.417031986061
 21
7521.915360473252
 31
0.0
  0
LINE
  5
1D07C
330
1C9B8
100
AcDbEntity
  8
U1
100
AcDbLine
 10
8840.417031986062
 20
5725.915360473253
 30
0.0
 11
8808.017031986059
 21
5725.915360473253
 31
0.0
  0
LINE
  5
1D07D
330
1C9B8
100
AcDbEntity
  8
U1
100
AcDbLine
 10
8808.017031986059
 20
5665.515360473253
 30
0.0
 11
8860.41703198606
 21
5665.515360473253
 31
0.0
  0
ARC
  5
1D07E
330
1C9B8
100
AcDbEntity
  8
U1
100
AcDbCircle
 10
8808.017031986059
 20
5669.515360473252
 30
0.0
 40
4.0
100
AcDbArc
 50
180.0
 51
270.0
  0
ARC
  5
1D07F
330
1C9B8
100
AcDbEntity
  8
U1
100
AcDbCircle
 10
8808.017031986059
 20
5721.915360473253
 30
0.0
 40
4.0
100
AcDbArc
 50
90.0
 51
180.0
  0
LINE
  5
1D080
330
1C9B8
100
AcDbEntity
  8
U1
100
AcDbLine
 10
8804.017031986061
 20
5721.915360473253
 30
0.0
 11
8804.017031986061
 21
5669.515360473252
 31
0.0
  0
ARC
  5
1D081
330
1C9B8
100
AcDbEntity
  8
U1
100
AcDbCircle
 10
8860.41703198606
 20
5669.515360473252
 30
0.0
 40
4.0
100
AcDbArc
 50
270.0
 51
0.0
  0
ARC
  5
1D082
330
1C9B8
100
AcDbEntity
  8
U1
100
AcDbCircle
 10
8840.417031986062
 20
5721.915360473253
 30
0.0
 40
4.0
100
AcDbArc
 50
0.0
 51
90.0
  0
ARC
  5
1D083
330
1C9B8
100
AcDbEntity
  8
U1
100
AcDbCircle
 10
8847.86703198606
 20
5712.665360473253
 30
0.0
 40
1.149999999999977
100
AcDbArc
 50
180.0
 51
0.0
  0
LINE
  5
1D084
330
1C9B8
100
AcDbEntity
  8
U1
100
AcDbLine
 10
8851.317031986061
 20
5720.215360473253
 30
0.0
 11
8851.317031986061
 21
5712.665360473253
 31
0.0
  0
LINE
  5
1D085
330
1C9B8
100
AcDbEntity
  8
U1
100
AcDbLine
 10
8849.017031986059
 20
5720.215360473253
 30
0.0
 11
8851.317031986061
 21
5720.215360473253
 31
0.0
  0
LINE
  5
1D086
330
1C9B8
100
AcDbEntity
  8
U1
100
AcDbLine
 10
8846.717031986059
 20
5713.215360473252
 30
0.0
 11
8849.017031986059
 21
5713.215360473252
 31
0.0
  0
ARC
  5
1D087
330
1C9B8
100
AcDbEntity
  8
U1
100
AcDbCircle
 10
8847.86703198606
 20
5712.665360473253
 30
0.0
 40
3.450000000000044
100
AcDbArc
 50
180.0
 51
0.0
  0
LINE
  5
1D088
330
1C9B8
100
AcDbEntity
  8
U1
100
AcDbLine
 10
8846.717031986059
 20
5712.665360473253
 30
0.0
 11
8846.717031986059
 21
5721.915360473252
 31
0.0
  0
LINE
  5
1D089
330
1C9B8
100
AcDbEntity
  8
U1
100
AcDbLine
 10
8849.017031986059
 20
5721.915360473253
 30
0.0
 11
8849.017031986059
 21
5712.665360473253
 31
0.0
  0
LINE
  5
1D08A
330
1C9B8
100
AcDbEntity
  8
U1
100
AcDbLine
 10
8844.417031986059
 20
5712.665360473253
 30
0.0
 11
8844.417031986059
 21
5721.915360473253
 31
0.0
  0
ARC
  5
1D08B
330
1C9B8
100
AcDbEntity
  8
U1
100
AcDbCircle
 10
8860.41703198606
 20
5721.915360473253
 30
0.0
 40
4.0
100
AcDbArc
 50
0.0
 51
90.0
  0
LINE
  5
1D08C
330
1C9B8
100
AcDbEntity
  8
U1
100
AcDbLine
 10
8860.41703198606
 20
5725.915360473253
 30
0.0
 11
8853.017031986059
 21
5725.915360473253
 31
0.0
  0
ARC
  5
1D08D
330
1C9B8
100
AcDbEntity
  8
U1
100
AcDbCircle
 10
8853.017031986059
 20
5721.915360473253
 30
0.0
 40
4.0
100
AcDbArc
 50
90.0
 51
180.0
  0
LINE
  5
1D08E
330
1C9B8
100
AcDbEntity
  8
U1
100
AcDbLine
 10
8864.417031986061
 20
5669.515360473252
 30
0.0
 11
8864.417031986061
 21
5721.915360473253
 31
0.0
  0
LINE
  5
1D08F
330
1C9B8
100
AcDbEntity
  8
U1
100
AcDbLine
 10
7540.417031986061
 20
9325.915360473253
 30
0.0
 11
7508.017031986061
 21
9325.915360473253
 31
0.0
  0
LINE
  5
1D090
330
1C9B8
100
AcDbEntity
  8
U1
100
AcDbLine
 10
7508.017031986061
 20
9265.515360473251
 30
0.0
 11
7560.41703198606
 21
9265.515360473251
 31
0.0
  0
ARC
  5
1D091
330
1C9B8
100
AcDbEntity
  8
U1
100
AcDbCircle
 10
7508.017031986061
 20
9269.515360473251
 30
0.0
 40
4.0
100
AcDbArc
 50
180.0
 51
270.0
  0
ARC
  5
1D092
330
1C9B8
100
AcDbEntity
  8
U1
100
AcDbCircle
 10
7508.017031986061
 20
9321.915360473253
 30
0.0
 40
4.0
100
AcDbArc
 50
90.0
 51
180.0
  0
LINE
  5
1D093
330
1C9B8
100
AcDbEntity
  8
U1
100
AcDbLine
 10
7504.017031986061
 20
9321.915360473253
 30
0.0
 11
7504.017031986061
 21
9269.515360473251
 31
0.0
  0
ARC
  5
1D094
330
1C9B8
100
AcDbEntity
  8
U1
100
AcDbCircle
 10
7560.41703198606
 20
9269.515360473251
 30
0.0
 40
4.0
100
AcDbArc
 50
270.0
 51
0.0
  0
ARC
  5
1D095
330
1C9B8
100
AcDbEntity
  8
U1
100
AcDbCircle
 10
7540.417031986061
 20
9321.915360473253
 30
0.0
 40
4.0
100
AcDbArc
 50
0.0
 51
90.0
  0
ARC
  5
1D096
330
1C9B8
100
AcDbEntity
  8
U1
100
AcDbCircle
 10
7547.867031986061
 20
9312.665360473252
 30
0.0
 40
1.149999999999977
100
AcDbArc
 50
180.0
 51
0.0
  0
LINE
  5
1D097
330
1C9B8
100
AcDbEntity
  8
U1
100
AcDbLine
 10
7551.31703198606
 20
9320.215360473252
 30
0.0
 11
7551.31703198606
 21
9312.665360473252
 31
0.0
  0
LINE
  5
1D098
330
1C9B8
100
AcDbEntity
  8
U1
100
AcDbLine
 10
7549.01703198606
 20
9320.215360473252
 30
0.0
 11
7551.31703198606
 21
9320.215360473252
 31
0.0
  0
LINE
  5
1D099
330
1C9B8
100
AcDbEntity
  8
U1
100
AcDbLine
 10
7546.717031986061
 20
9313.215360473252
 30
0.0
 11
7549.01703198606
 21
9313.215360473252
 31
0.0
  0
ARC
  5
1D09A
330
1C9B8
100
AcDbEntity
  8
U1
100
AcDbCircle
 10
7547.867031986061
 20
9312.665360473252
 30
0.0
 40
3.450000000000044
100
AcDbArc
 50
180.0
 51
0.0
  0
LINE
  5
1D09B
330
1C9B8
100
AcDbEntity
  8
U1
100
AcDbLine
 10
7546.717031986061
 20
9312.665360473252
 30
0.0
 11
7546.71703198606
 21
9321.915360473253
 31
0.0
  0
LINE
  5
1D09C
330
1C9B8
100
AcDbEntity
  8
U1
100
AcDbLine
 10
7549.01703198606
 20
9321.915360473253
 30
0.0
 11
7549.01703198606
 21
9312.665360473252
 31
0.0
  0
LINE
  5
1D09D
330
1C9B8
100
AcDbEntity
  8
U1
100
AcDbLine
 10
7544.417031986061
 20
9312.665360473252
 30
0.0
 11
7544.417031986061
 21
9321.915360473253
 31
0.0
  0
ARC
  5
1D09E
330
1C9B8
100
AcDbEntity
  8
U1
100
AcDbCircle
 10
7560.41703198606
 20
9321.915360473253
 30
0.0
 40
4.0
100
AcDbArc
 50
0.0
 51
90.0
  0
LINE
  5
1D09F
330
1C9B8
100
AcDbEntity
  8
U1
100
AcDbLine
 10
7560.41703198606
 20
9325.915360473253
 30
0.0
 11
7553.017031986062
 21
9325.915360473253
 31
0.0
  0
ARC
  5
1D0A0
330
1C9B8
100
AcDbEntity
  8
U1
100
AcDbCircle
 10
7553.017031986062
 20
9321.915360473253
 30
0.0
 40
4.0
100
AcDbArc
 50
90.0
 51
180.0
  0
LINE
  5
1D0A1
330
1C9B8
100
AcDbEntity
  8
U1
100
AcDbLine
 10
7564.417031986059
 20
9269.515360473251
 30
0.0
 11
7564.417031986059
 21
9321.915360473253
 31
0.0
  0
LINE
  5
1D0A2
330
1C9B8
100
AcDbEntity
  8
U1
100
AcDbLine
 10
7540.417031986061
 20
7525.915360473252
 30
0.0
 11
7508.017031986061
 21
7525.915360473252
 31
0.0
  0
LINE
  5
1D0A3
330
1C9B8
100
AcDbEntity
  8
U1
100
AcDbLine
 10
7508.017031986061
 20
7465.515360473251
 30
0.0
 11
7560.41703198606
 21
7465.515360473251
 31
0.0
  0
ARC
  5
1D0A4
330
1C9B8
100
AcDbEntity
  8
U1
100
AcDbCircle
 10
7508.017031986061
 20
7469.515360473251
 30
0.0
 40
4.0
100
AcDbArc
 50
180.0
 51
270.0
  0
ARC
  5
1D0A5
330
1C9B8
100
AcDbEntity
  8
U1
100
AcDbCircle
 10
7508.017031986061
 20
7521.915360473252
 30
0.0
 40
4.0
100
AcDbArc
 50
90.0
 51
180.0
  0
LINE
  5
1D0A6
330
1C9B8
100
AcDbEntity
  8
U1
100
AcDbLine
 10
7504.017031986061
 20
7521.915360473252
 30
0.0
 11
7504.017031986061
 21
7469.515360473251
 31
0.0
  0
ARC
  5
1D0A7
330
1C9B8
100
AcDbEntity
  8
U1
100
AcDbCircle
 10
7560.41703198606
 20
7469.515360473251
 30
0.0
 40
4.0
100
AcDbArc
 50
270.0
 51
0.0
  0
ARC
  5
1D0A8
330
1C9B8
100
AcDbEntity
  8
U1
100
AcDbCircle
 10
7540.417031986061
 20
7521.915360473252
 30
0.0
 40
4.0
100
AcDbArc
 50
0.0
 51
90.0
  0
ARC
  5
1D0A9
330
1C9B8
100
AcDbEntity
  8
U1
100
AcDbCircle
 10
7547.867031986061
 20
7512.665360473251
 30
0.0
 40
1.149999999999977
100
AcDbArc
 50
180.0
 51
0.0
  0
LINE
  5
1D0AA
330
1C9B8
100
AcDbEntity
  8
U1
100
AcDbLine
 10
7551.31703198606
 20
7520.215360473253
 30
0.0
 11
7551.31703198606
 21
7512.665360473251
 31
0.0
  0
LINE
  5
1D0AB
330
1C9B8
100
AcDbEntity
  8
U1
100
AcDbLine
 10
7549.01703198606
 20
7520.215360473253
 30
0.0
 11
7551.31703198606
 21
7520.215360473253
 31
0.0
  0
LINE
  5
1D0AC
330
1C9B8
100
AcDbEntity
  8
U1
100
AcDbLine
 10
7546.717031986061
 20
7513.215360473253
 30
0.0
 11
7549.01703198606
 21
7513.215360473253
 31
0.0
  0
ARC
  5
1D0AD
330
1C9B8
100
AcDbEntity
  8
U1
100
AcDbCircle
 10
7547.867031986061
 20
7512.665360473251
 30
0.0
 40
3.450000000000044
100
AcDbArc
 50
180.0
 51
0.0
  0
LINE
  5
1D0AE
330
1C9B8
100
AcDbEntity
  8
U1
100
AcDbLine
 10
7546.717031986061
 20
7512.665360473251
 30
0.0
 11
7546.71703198606
 21
7521.915360473252
 31
0.0
  0
LINE
  5
1D0AF
330
1C9B8
100
AcDbEntity
  8
U1
100
AcDbLine
 10
7549.01703198606
 20
7521.915360473252
 30
0.0
 11
7549.01703198606
 21
7512.665360473251
 31
0.0
  0
LINE
  5
1D0B0
330
1C9B8
100
AcDbEntity
  8
U1
100
AcDbLine
 10
7544.417031986061
 20
7512.665360473251
 30
0.0
 11
7544.417031986061
 21
7521.915360473252
 31
0.0
  0
ARC
  5
1D0B1
330
1C9B8
100
AcDbEntity
  8
U1
100
AcDbCircle
 10
7560.41703198606
 20
7521.915360473252
 30
0.0
 40
4.0
100
AcDbArc
 50
0.0
 51
90.0
  0
LINE
  5
1D0B2
330
1C9B8
100
AcDbEntity
  8
U1
100
AcDbLine
 10
7560.41703198606
 20
7525.915360473252
 30
0.0
 11
7553.017031986062
 21
7525.915360473252
 31
0.0
  0
ARC
  5
1D0B3
330
1C9B8
100
AcDbEntity
  8
U1
100
AcDbCircle
 10
7553.017031986062
 20
7521.915360473252
 30
0.0
 40
4.0
100
AcDbArc
 50
90.0
 51
180.0
  0
LINE
  5
1D0B4
330
1C9B8
100
AcDbEntity
  8
U1
100
AcDbLine
 10
7564.417031986059
 20
7469.515360473251
 30
0.0
 11
7564.417031986059
 21
7521.915360473252
 31
0.0
  0
LINE
  5
1D0B5
330
1C9B8
100
AcDbEntity
  8
U1
100
AcDbLine
 10
7540.417031986061
 20
5725.915360473253
 30
0.0
 11
7508.017031986061
 21
5725.915360473253
 31
0.0
  0
LINE
  5
1D0B6
330
1C9B8
100
AcDbEntity
  8
U1
100
AcDbLine
 10
7508.017031986061
 20
5665.515360473253
 30
0.0
 11
7560.41703198606
 21
5665.515360473253
 31
0.0
  0
ARC
  5
1D0B7
330
1C9B8
100
AcDbEntity
  8
U1
100
AcDbCircle
 10
7508.017031986061
 20
5669.515360473252
 30
0.0
 40
4.0
100
AcDbArc
 50
180.0
 51
270.0
  0
ARC
  5
1D0B8
330
1C9B8
100
AcDbEntity
  8
U1
100
AcDbCircle
 10
7508.017031986061
 20
5721.915360473253
 30
0.0
 40
4.0
100
AcDbArc
 50
90.0
 51
180.0
  0
LINE
  5
1D0B9
330
1C9B8
100
AcDbEntity
  8
U1
100
AcDbLine
 10
7504.017031986061
 20
5721.915360473253
 30
0.0
 11
7504.017031986061
 21
5669.515360473252
 31
0.0
  0
ARC
  5
1D0BA
330
1C9B8
100
AcDbEntity
  8
U1
100
AcDbCircle
 10
7560.41703198606
 20
5669.515360473252
 30
0.0
 40
4.0
100
AcDbArc
 50
270.0
 51
0.0
  0
ARC
  5
1D0BB
330
1C9B8
100
AcDbEntity
  8
U1
100
AcDbCircle
 10
7540.417031986061
 20
5721.915360473253
 30
0.0
 40
4.0
100
AcDbArc
 50
0.0
 51
90.0
  0
ARC
  5
1D0BC
330
1C9B8
100
AcDbEntity
  8
U1
100
AcDbCircle
 10
7547.867031986061
 20
5712.665360473253
 30
0.0
 40
1.149999999999977
100
AcDbArc
 50
180.0
 51
0.0
  0
LINE
  5
1D0BD
330
1C9B8
100
AcDbEntity
  8
U1
100
AcDbLine
 10
7551.31703198606
 20
5720.215360473253
 30
0.0
 11
7551.31703198606
 21
5712.665360473253
 31
0.0
  0
LINE
  5
1D0BE
330
1C9B8
100
AcDbEntity
  8
U1
100
AcDbLine
 10
7549.01703198606
 20
5720.215360473253
 30
0.0
 11
7551.31703198606
 21
5720.215360473253
 31
0.0
  0
LINE
  5
1D0BF
330
1C9B8
100
AcDbEntity
  8
U1
100
AcDbLine
 10
7546.717031986061
 20
5713.215360473252
 30
0.0
 11
7549.01703198606
 21
5713.215360473252
 31
0.0
  0
ARC
  5
1D0C0
330
1C9B8
100
AcDbEntity
  8
U1
100
AcDbCircle
 10
7547.867031986061
 20
5712.665360473253
 30
0.0
 40
3.450000000000044
100
AcDbArc
 50
180.0
 51
0.0
  0
LINE
  5
1D0C1
330
1C9B8
100
AcDbEntity
  8
U1
100
AcDbLine
 10
7546.717031986061
 20
5712.665360473253
 30
0.0
 11
7546.71703198606
 21
5721.915360473252
 31
0.0
  0
LINE
  5
1D0C2
330
1C9B8
100
AcDbEntity
  8
U1
100
AcDbLine
 10
7549.01703198606
 20
5721.915360473253
 30
0.0
 11
7549.01703198606
 21
5712.665360473253
 31
0.0
  0
LINE
  5
1D0C3
330
1C9B8
100
AcDbEntity
  8
U1
100
AcDbLine
 10
7544.417031986061
 20
5712.665360473253
 30
0.0
 11
7544.417031986061
 21
5721.915360473253
 31
0.0
  0
ARC
  5
1D0C4
330
1C9B8
100
AcDbEntity
  8
U1
100
AcDbCircle
 10
7560.41703198606
 20
5721.915360473253
 30
0.0
 40
4.0
100
AcDbArc
 50
0.0
 51
90.0
  0
LINE
  5
1D0C5
330
1C9B8
100
AcDbEntity
  8
U1
100
AcDbLine
 10
7560.41703198606
 20
5725.915360473253
 30
0.0
 11
7553.017031986062
 21
5725.915360473253
 31
0.0
  0
ARC
  5
1D0C6
330
1C9B8
100
AcDbEntity
  8
U1
100
AcDbCircle
 10
7553.017031986062
 20
5721.915360473253
 30
0.0
 40
4.0
100
AcDbArc
 50
90.0
 51
180.0
  0
LINE
  5
1D0C7
330
1C9B8
100
AcDbEntity
  8
U1
100
AcDbLine
 10
7564.417031986059
 20
5669.515360473252
 30
0.0
 11
7564.417031986059
 21
5721.915360473253
 31
0.0
  0
LINE
  5
1D0C8
330
1C9B8
100
AcDbEntity
  8
U1
100
AcDbLine
 10
4740.41703198606
 20
9325.915360473253
 30
0.0
 11
4708.017031986059
 21
9325.915360473253
 31
0.0
  0
LINE
  5
1D0C9
330
1C9B8
100
AcDbEntity
  8
U1
100
AcDbLine
 10
4708.017031986059
 20
9265.515360473251
 30
0.0
 11
4760.417031986061
 21
9265.515360473251
 31
0.0
  0
ARC
  5
1D0CA
330
1C9B8
100
AcDbEntity
  8
U1
100
AcDbCircle
 10
4708.017031986059
 20
9269.515360473251
 30
0.0
 40
4.0
100
AcDbArc
 50
180.0
 51
270.0
  0
ARC
  5
1D0CB
330
1C9B8
100
AcDbEntity
  8
U1
100
AcDbCircle
 10
4708.017031986059
 20
9321.915360473253
 30
0.0
 40
4.0
100
AcDbArc
 50
90.0
 51
180.0
  0
LINE
  5
1D0CC
330
1C9B8
100
AcDbEntity
  8
U1
100
AcDbLine
 10
4704.01703198606
 20
9321.915360473253
 30
0.0
 11
4704.01703198606
 21
9269.515360473251
 31
0.0
  0
ARC
  5
1D0CD
330
1C9B8
100
AcDbEntity
  8
U1
100
AcDbCircle
 10
4760.417031986061
 20
9269.515360473251
 30
0.0
 40
4.0
100
AcDbArc
 50
270.0
 51
0.0
  0
ARC
  5
1D0CE
330
1C9B8
100
AcDbEntity
  8
U1
100
AcDbCircle
 10
4740.41703198606
 20
9321.915360473253
 30
0.0
 40
4.0
100
AcDbArc
 50
0.0
 51
90.0
  0
ARC
  5
1D0CF
330
1C9B8
100
AcDbEntity
  8
U1
100
AcDbCircle
 10
4747.86703198606
 20
9312.665360473252
 30
0.0
 40
1.149999999999977
100
AcDbArc
 50
180.0
 51
0.0
  0
LINE
  5
1D0D0
330
1C9B8
100
AcDbEntity
  8
U1
100
AcDbLine
 10
4751.31703198606
 20
9320.215360473252
 30
0.0
 11
4751.31703198606
 21
9312.665360473252
 31
0.0
  0
LINE
  5
1D0D1
330
1C9B8
100
AcDbEntity
  8
U1
100
AcDbLine
 10
4749.01703198606
 20
9320.215360473252
 30
0.0
 11
4751.31703198606
 21
9320.215360473252
 31
0.0
  0
LINE
  5
1D0D2
330
1C9B8
100
AcDbEntity
  8
U1
100
AcDbLine
 10
4746.717031986061
 20
9313.215360473252
 30
0.0
 11
4749.01703198606
 21
9313.215360473252
 31
0.0
  0
ARC
  5
1D0D3
330
1C9B8
100
AcDbEntity
  8
U1
100
AcDbCircle
 10
4747.86703198606
 20
9312.665360473252
 30
0.0
 40
3.450000000000044
100
AcDbArc
 50
180.0
 51
0.0
  0
LINE
  5
1D0D4
330
1C9B8
100
AcDbEntity
  8
U1
100
AcDbLine
 10
4746.717031986061
 20
9312.665360473252
 30
0.0
 11
4746.71703198606
 21
9321.915360473253
 31
0.0
  0
LINE
  5
1D0D5
330
1C9B8
100
AcDbEntity
  8
U1
100
AcDbLine
 10
4749.01703198606
 20
9321.915360473253
 30
0.0
 11
4749.01703198606
 21
9312.665360473252
 31
0.0
  0
LINE
  5
1D0D6
330
1C9B8
100
AcDbEntity
  8
U1
100
AcDbLine
 10
4744.41703198606
 20
9312.665360473252
 30
0.0
 11
4744.41703198606
 21
9321.915360473253
 31
0.0
  0
ARC
  5
1D0D7
330
1C9B8
100
AcDbEntity
  8
U1
100
AcDbCircle
 10
4760.417031986057
 20
9321.915360473253
 30
0.0
 40
4.0
100
AcDbArc
 50
0.0
 51
90.0
  0
LINE
  5
1D0D8
330
1C9B8
100
AcDbEntity
  8
U1
100
AcDbLine
 10
4760.417031986057
 20
9325.915360473253
 30
0.0
 11
4753.01703198606
 21
9325.915360473253
 31
0.0
  0
ARC
  5
1D0D9
330
1C9B8
100
AcDbEntity
  8
U1
100
AcDbCircle
 10
4753.01703198606
 20
9321.915360473253
 30
0.0
 40
4.0
100
AcDbArc
 50
90.0
 51
180.0
  0
LINE
  5
1D0DA
330
1C9B8
100
AcDbEntity
  8
U1
100
AcDbLine
 10
4764.41703198606
 20
9269.515360473251
 30
0.0
 11
4764.417031986058
 21
9321.915360473253
 31
0.0
  0
LINE
  5
1D0DB
330
1C9B8
100
AcDbEntity
  8
U1
100
AcDbLine
 10
4740.41703198606
 20
7525.915360473252
 30
0.0
 11
4708.017031986059
 21
7525.915360473252
 31
0.0
  0
LINE
  5
1D0DC
330
1C9B8
100
AcDbEntity
  8
U1
100
AcDbLine
 10
4708.017031986059
 20
7465.515360473251
 30
0.0
 11
4760.417031986061
 21
7465.515360473251
 31
0.0
  0
ARC
  5
1D0DD
330
1C9B8
100
AcDbEntity
  8
U1
100
AcDbCircle
 10
4708.017031986059
 20
7469.515360473251
 30
0.0
 40
4.0
100
AcDbArc
 50
180.0
 51
270.0
  0
ARC
  5
1D0DE
330
1C9B8
100
AcDbEntity
  8
U1
100
AcDbCircle
 10
4708.017031986059
 20
7521.915360473252
 30
0.0
 40
4.0
100
AcDbArc
 50
90.0
 51
180.0
  0
LINE
  5
1D0DF
330
1C9B8
100
AcDbEntity
  8
U1
100
AcDbLine
 10
4704.01703198606
 20
7521.915360473252
 30
0.0
 11
4704.01703198606
 21
7469.515360473251
 31
0.0
  0
ARC
  5
1D0E0
330
1C9B8
100
AcDbEntity
  8
U1
100
AcDbCircle
 10
4760.417031986061
 20
7469.515360473251
 30
0.0
 40
4.0
100
AcDbArc
 50
270.0
 51
0.0
  0
ARC
  5
1D0E1
330
1C9B8
100
AcDbEntity
  8
U1
100
AcDbCircle
 10
4740.41703198606
 20
7521.915360473252
 30
0.0
 40
4.0
100
AcDbArc
 50
0.0
 51
90.0
  0
ARC
  5
1D0E2
330
1C9B8
100
AcDbEntity
  8
U1
100
AcDbCircle
 10
4747.86703198606
 20
7512.665360473251
 30
0.0
 40
1.149999999999977
100
AcDbArc
 50
180.0
 51
0.0
  0
LINE
  5
1D0E3
330
1C9B8
100
AcDbEntity
  8
U1
100
AcDbLine
 10
4751.31703198606
 20
7520.215360473253
 30
0.0
 11
4751.31703198606
 21
7512.665360473251
 31
0.0
  0
LINE
  5
1D0E4
330
1C9B8
100
AcDbEntity
  8
U1
100
AcDbLine
 10
4749.01703198606
 20
7520.215360473253
 30
0.0
 11
4751.31703198606
 21
7520.215360473253
 31
0.0
  0
LINE
  5
1D0E5
330
1C9B8
100
AcDbEntity
  8
U1
100
AcDbLine
 10
4746.717031986061
 20
7513.215360473253
 30
0.0
 11
4749.01703198606
 21
7513.215360473253
 31
0.0
  0
ARC
  5
1D0E6
330
1C9B8
100
AcDbEntity
  8
U1
100
AcDbCircle
 10
4747.86703198606
 20
7512.665360473251
 30
0.0
 40
3.450000000000044
100
AcDbArc
 50
180.0
 51
0.0
  0
LINE
  5
1D0E7
330
1C9B8
100
AcDbEntity
  8
U1
100
AcDbLine
 10
4746.717031986061
 20
7512.665360473251
 30
0.0
 11
4746.71703198606
 21
7521.915360473252
 31
0.0
  0
LINE
  5
1D0E8
330
1C9B8
100
AcDbEntity
  8
U1
100
AcDbLine
 10
4749.01703198606
 20
7521.915360473252
 30
0.0
 11
4749.01703198606
 21
7512.665360473251
 31
0.0
  0
LINE
  5
1D0E9
330
1C9B8
100
AcDbEntity
  8
U1
100
AcDbLine
 10
4744.41703198606
 20
7512.665360473251
 30
0.0
 11
4744.41703198606
 21
7521.915360473252
 31
0.0
  0
ARC
  5
1D0EA
330
1C9B8
100
AcDbEntity
  8
U1
100
AcDbCircle
 10
4760.417031986057
 20
7521.915360473252
 30
0.0
 40
4.0
100
AcDbArc
 50
0.0
 51
90.0
  0
LINE
  5
1D0EB
330
1C9B8
100
AcDbEntity
  8
U1
100
AcDbLine
 10
4760.417031986057
 20
7525.915360473252
 30
0.0
 11
4753.01703198606
 21
7525.915360473252
 31
0.0
  0
ARC
  5
1D0EC
330
1C9B8
100
AcDbEntity
  8
U1
100
AcDbCircle
 10
4753.01703198606
 20
7521.915360473252
 30
0.0
 40
4.0
100
AcDbArc
 50
90.0
 51
180.0
  0
LINE
  5
1D0ED
330
1C9B8
100
AcDbEntity
  8
U1
100
AcDbLine
 10
4764.41703198606
 20
7469.515360473251
 30
0.0
 11
4764.417031986058
 21
7521.915360473252
 31
0.0
  0
LINE
  5
1D0EE
330
1C9B8
100
AcDbEntity
  8
U1
100
AcDbLine
 10
4740.41703198606
 20
5725.915360473253
 30
0.0
 11
4708.017031986059
 21
5725.915360473253
 31
0.0
  0
LINE
  5
1D0EF
330
1C9B8
100
AcDbEntity
  8
U1
100
AcDbLine
 10
4708.017031986059
 20
5665.515360473253
 30
0.0
 11
4760.417031986061
 21
5665.515360473253
 31
0.0
  0
ARC
  5
1D0F0
330
1C9B8
100
AcDbEntity
  8
U1
100
AcDbCircle
 10
4708.017031986059
 20
5669.515360473252
 30
0.0
 40
4.0
100
AcDbArc
 50
180.0
 51
270.0
  0
ARC
  5
1D0F1
330
1C9B8
100
AcDbEntity
  8
U1
100
AcDbCircle
 10
4708.017031986059
 20
5721.915360473253
 30
0.0
 40
4.0
100
AcDbArc
 50
90.0
 51
180.0
  0
LINE
  5
1D0F2
330
1C9B8
100
AcDbEntity
  8
U1
100
AcDbLine
 10
4704.01703198606
 20
5721.915360473253
 30
0.0
 11
4704.01703198606
 21
5669.515360473252
 31
0.0
  0
ARC
  5
1D0F3
330
1C9B8
100
AcDbEntity
  8
U1
100
AcDbCircle
 10
4760.417031986061
 20
5669.515360473252
 30
0.0
 40
4.0
100
AcDbArc
 50
270.0
 51
0.0
  0
ARC
  5
1D0F4
330
1C9B8
100
AcDbEntity
  8
U1
100
AcDbCircle
 10
4740.41703198606
 20
5721.915360473253
 30
0.0
 40
4.0
100
AcDbArc
 50
0.0
 51
90.0
  0
ARC
  5
1D0F5
330
1C9B8
100
AcDbEntity
  8
U1
100
AcDbCircle
 10
4747.86703198606
 20
5712.665360473253
 30
0.0
 40
1.149999999999977
100
AcDbArc
 50
180.0
 51
0.0
  0
LINE
  5
1D0F6
330
1C9B8
100
AcDbEntity
  8
U1
100
AcDbLine
 10
4751.31703198606
 20
5720.215360473253
 30
0.0
 11
4751.31703198606
 21
5712.665360473253
 31
0.0
  0
LINE
  5
1D0F7
330
1C9B8
100
AcDbEntity
  8
U1
100
AcDbLine
 10
4749.01703198606
 20
5720.215360473253
 30
0.0
 11
4751.31703198606
 21
5720.215360473253
 31
0.0
  0
LINE
  5
1D0F8
330
1C9B8
100
AcDbEntity
  8
U1
100
AcDbLine
 10
4746.717031986061
 20
5713.215360473252
 30
0.0
 11
4749.01703198606
 21
5713.215360473252
 31
0.0
  0
ARC
  5
1D0F9
330
1C9B8
100
AcDbEntity
  8
U1
100
AcDbCircle
 10
4747.86703198606
 20
5712.665360473253
 30
0.0
 40
3.450000000000044
100
AcDbArc
 50
180.0
 51
0.0
  0
LINE
  5
1D0FA
330
1C9B8
100
AcDbEntity
  8
U1
100
AcDbLine
 10
4746.717031986061
 20
5712.665360473253
 30
0.0
 11
4746.71703198606
 21
5721.915360473252
 31
0.0
  0
LINE
  5
1D0FB
330
1C9B8
100
AcDbEntity
  8
U1
100
AcDbLine
 10
4749.01703198606
 20
5721.915360473253
 30
0.0
 11
4749.01703198606
 21
5712.665360473253
 31
0.0
  0
LINE
  5
1D0FC
330
1C9B8
100
AcDbEntity
  8
U1
100
AcDbLine
 10
4744.41703198606
 20
5712.665360473253
 30
0.0
 11
4744.41703198606
 21
5721.915360473253
 31
0.0
  0
ARC
  5
1D0FD
330
1C9B8
100
AcDbEntity
  8
U1
100
AcDbCircle
 10
4760.417031986057
 20
5721.915360473253
 30
0.0
 40
4.0
100
AcDbArc
 50
0.0
 51
90.0
  0
LINE
  5
1D0FE
330
1C9B8
100
AcDbEntity
  8
U1
100
AcDbLine
 10
4760.417031986057
 20
5725.915360473253
 30
0.0
 11
4753.01703198606
 21
5725.915360473253
 31
0.0
  0
ARC
  5
1D0FF
330
1C9B8
100
AcDbEntity
  8
U1
100
AcDbCircle
 10
4753.01703198606
 20
5721.915360473253
 30
0.0
 40
4.0
100
AcDbArc
 50
90.0
 51
180.0
  0
LINE
  5
1D100
330
1C9B8
100
AcDbEntity
  8
U1
100
AcDbLine
 10
4764.41703198606
 20
5669.515360473252
 30
0.0
 11
4764.417031986058
 21
5721.915360473253
 31
0.0
  0
LINE
  5
1D101
330
1C9B8
100
AcDbEntity
  8
KISO
100
AcDbLine
 10
4334.217031986058
 20
7095.715360473253
 30
0.0
 11
5134.21703198606
 21
7095.715360473253
 31
0.0
  0
LINE
  5
1D102
330
1C9B8
100
AcDbEntity
  8
KISO
100
AcDbLine
 10
5134.21703198606
 20
7095.715360473253
 30
0.0
 11
5134.21703198606
 21
7895.715360473253
 31
0.0
  0
LINE
  5
1D103
330
1C9B8
100
AcDbEntity
  8
KISO
100
AcDbLine
 10
5134.21703198606
 20
7895.715360473253
 30
0.0
 11
4334.217031986058
 21
7895.715360473253
 31
0.0
  0
LINE
  5
1D104
330
1C9B8
100
AcDbEntity
  8
KISO
100
AcDbLine
 10
4334.217031986058
 20
7895.715360473253
 30
0.0
 11
4334.217031986058
 21
7095.715360473253
 31
0.0
  0
LINE
  5
1D105
330
1C9B8
100
AcDbEntity
  8
KISO
100
AcDbLine
 10
11234.21703198606
 20
7095.715360473253
 30
0.0
 11
12034.21703198606
 21
7095.715360473253
 31
0.0
  0
LINE
  5
1D106
330
1C9B8
100
AcDbEntity
  8
KISO
100
AcDbLine
 10
12034.21703198606
 20
7095.715360473253
 30
0.0
 11
12034.21703198606
 21
7895.715360473253
 31
0.0
  0
LINE
  5
1D107
330
1C9B8
100
AcDbEntity
  8
KISO
100
AcDbLine
 10
12034.21703198606
 20
7895.715360473253
 30
0.0
 11
11234.21703198606
 21
7895.715360473253
 31
0.0
  0
LINE
  5
1D108
330
1C9B8
100
AcDbEntity
  8
KISO
100
AcDbLine
 10
11234.21703198606
 20
7895.715360473253
 30
0.0
 11
11234.21703198606
 21
7095.715360473253
 31
0.0
  0
LINE
  5
1D109
330
1C9B8
100
AcDbEntity
  8
KISO
100
AcDbLine
 10
8434.21703198606
 20
7095.715360473253
 30
0.0
 11
9234.217031986061
 21
7095.715360473253
 31
0.0
  0
LINE
  5
1D10A
330
1C9B8
100
AcDbEntity
  8
KISO
100
AcDbLine
 10
9234.217031986061
 20
7095.715360473253
 30
0.0
 11
9234.217031986061
 21
7895.715360473253
 31
0.0
  0
LINE
  5
1D10B
330
1C9B8
100
AcDbEntity
  8
KISO
100
AcDbLine
 10
9234.217031986061
 20
7895.715360473253
 30
0.0
 11
8434.21703198606
 21
7895.715360473253
 31
0.0
  0
LINE
  5
1D10C
330
1C9B8
100
AcDbEntity
  8
KISO
100
AcDbLine
 10
8434.21703198606
 20
7895.715360473253
 30
0.0
 11
8434.21703198606
 21
7095.715360473253
 31
0.0
  0
LINE
  5
1D10D
330
1C9B8
100
AcDbEntity
  8
KISO
100
AcDbLine
 10
7134.21703198606
 20
7095.715360473253
 30
0.0
 11
7934.21703198606
 21
7095.715360473253
 31
0.0
  0
LINE
  5
1D10E
330
1C9B8
100
AcDbEntity
  8
KISO
100
AcDbLine
 10
7934.21703198606
 20
7095.715360473253
 30
0.0
 11
7934.21703198606
 21
7895.715360473253
 31
0.0
  0
LINE
  5
1D10F
330
1C9B8
100
AcDbEntity
  8
KISO
100
AcDbLine
 10
7934.21703198606
 20
7895.715360473253
 30
0.0
 11
7134.21703198606
 21
7895.715360473253
 31
0.0
  0
LINE
  5
1D110
330
1C9B8
100
AcDbEntity
  8
KISO
100
AcDbLine
 10
7134.21703198606
 20
7895.715360473253
 30
0.0
 11
7134.21703198606
 21
7095.715360473253
 31
0.0
  0
LINE
  5
1D111
330
1C9B8
100
AcDbEntity
  8
YANE
  6
2PL-L
 62
     6
100
AcDbLine
 10
12030.21703198606
 20
5344.715360473253
 30
0.0
 11
4338.21703198606
 21
5344.715360473253
 31
0.0
  0
LINE
  5
1D112
330
1C9B8
100
AcDbEntity
  8
YANE
  6
2PL-L
 62
     6
100
AcDbLine
 10
4338.21703198606
 20
5344.715360473253
 30
0.0
 11
4338.21703198606
 21
9646.715360473251
 31
0.0
  0
LINE
  5
1D113
330
1C9B8
100
AcDbEntity
  8
YANE
  6
2PL-L
 62
     6
100
AcDbLine
 10
4338.21703198606
 20
9646.715360473251
 30
0.0
 11
12030.21703198606
 21
9646.715360473251
 31
0.0
  0
LINE
  5
1D114
330
1C9B8
100
AcDbEntity
  8
YANE
  6
2PL-L
 62
     6
100
AcDbLine
 10
12030.21703198606
 20
9646.715360473251
 30
0.0
 11
12030.21703198606
 21
5344.715360473253
 31
0.0
  0
LINE
  5
1D115
330
1C9B8
100
AcDbEntity
  8
KISO
100
AcDbLine
 10
9134.217031986059
 20
8995.715360473253
 30
0.0
 11
8534.217031986059
 21
8995.715360473253
 31
0.0
  0
LINE
  5
1D116
330
1C9B8
100
AcDbEntity
  8
KISO
100
AcDbLine
 10
8534.217031986059
 20
8995.715360473253
 30
0.0
 11
8534.217031986059
 21
9595.715360473253
 31
0.0
  0
LINE
  5
1D117
330
1C9B8
100
AcDbEntity
  8
KISO
100
AcDbLine
 10
8534.217031986059
 20
9595.715360473253
 30
0.0
 11
9134.217031986059
 21
9595.715360473253
 31
0.0
  0
LINE
  5
1D118
330
1C9B8
100
AcDbEntity
  8
KISO
100
AcDbLine
 10
9134.217031986059
 20
9595.715360473253
 30
0.0
 11
9134.217031986059
 21
8995.715360473253
 31
0.0
  0
LINE
  5
1D119
330
1C9B8
100
AcDbEntity
  8
KISO
100
AcDbLine
 10
7234.21703198606
 20
5395.715360473253
 30
0.0
 11
7834.21703198606
 21
5395.715360473253
 31
0.0
  0
LINE
  5
1D11A
330
1C9B8
100
AcDbEntity
  8
KISO
100
AcDbLine
 10
7834.21703198606
 20
5395.715360473253
 30
0.0
 11
7834.21703198606
 21
5995.715360473253
 31
0.0
  0
LINE
  5
1D11B
330
1C9B8
100
AcDbEntity
  8
KISO
100
AcDbLine
 10
7834.21703198606
 20
5995.715360473253
 30
0.0
 11
7234.21703198606
 21
5995.715360473253
 31
0.0
  0
LINE
  5
1D11C
330
1C9B8
100
AcDbEntity
  8
KISO
100
AcDbLine
 10
7234.21703198606
 20
5995.715360473253
 30
0.0
 11
7234.21703198606
 21
5395.715360473253
 31
0.0
  0
LINE
  5
1D11D
330
1C9B8
100
AcDbEntity
  8
KISO
100
AcDbLine
 10
4434.21703198606
 20
5395.715360473253
 30
0.0
 11
5034.217031986058
 21
5395.715360473253
 31
0.0
  0
LINE
  5
1D11E
330
1C9B8
100
AcDbEntity
  8
KISO
100
AcDbLine
 10
5034.217031986058
 20
5395.715360473253
 30
0.0
 11
5034.217031986058
 21
5995.715360473253
 31
0.0
  0
LINE
  5
1D11F
330
1C9B8
100
AcDbEntity
  8
KISO
100
AcDbLine
 10
5034.217031986058
 20
5995.715360473253
 30
0.0
 11
4434.21703198606
 21
5995.715360473253
 31
0.0
  0
LINE
  5
1D120
330
1C9B8
100
AcDbEntity
  8
KISO
100
AcDbLine
 10
4434.21703198606
 20
5995.715360473253
 30
0.0
 11
4434.21703198606
 21
5395.715360473253
 31
0.0
  0
LINE
  5
1D121
330
1C9B8
100
AcDbEntity
  8
KISO
100
AcDbLine
 10
4434.21703198606
 20
8995.715360473253
 30
0.0
 11
5034.217031986058
 21
8995.715360473253
 31
0.0
  0
LINE
  5
1D122
330
1C9B8
100
AcDbEntity
  8
KISO
100
AcDbLine
 10
5034.217031986058
 20
8995.715360473253
 30
0.0
 11
5034.217031986058
 21
9595.715360473253
 31
0.0
  0
LINE
  5
1D123
330
1C9B8
100
AcDbEntity
  8
KISO
100
AcDbLine
 10
5034.217031986058
 20
9595.715360473253
 30
0.0
 11
4434.21703198606
 21
9595.715360473253
 31
0.0
  0
LINE
  5
1D124
330
1C9B8
100
AcDbEntity
  8
KISO
100
AcDbLine
 10
4434.21703198606
 20
9595.715360473253
 30
0.0
 11
4434.21703198606
 21
8995.715360473253
 31
0.0
  0
LINE
  5
1D125
330
1C9B8
100
AcDbEntity
  8
KISO
100
AcDbLine
 10
11934.21703198606
 20
8995.715360473253
 30
0.0
 11
11334.21703198606
 21
8995.715360473253
 31
0.0
  0
LINE
  5
1D126
330
1C9B8
100
AcDbEntity
  8
KISO
100
AcDbLine
 10
11334.21703198606
 20
8995.715360473253
 30
0.0
 11
11334.21703198606
 21
9595.715360473253
 31
0.0
  0
LINE
  5
1D127
330
1C9B8
100
AcDbEntity
  8
KISO
100
AcDbLine
 10
11334.21703198606
 20
9595.715360473253
 30
0.0
 11
11934.21703198606
 21
9595.715360473253
 31
0.0
  0
LINE
  5
1D128
330
1C9B8
100
AcDbEntity
  8
KISO
100
AcDbLine
 10
11934.21703198606
 20
9595.715360473253
 30
0.0
 11
11934.21703198606
 21
8995.715360473253
 31
0.0
  0
LINE
  5
1D129
330
1C9B8
100
AcDbEntity
  8
KISO
100
AcDbLine
 10
11934.21703198606
 20
5395.715360473253
 30
0.0
 11
11334.21703198606
 21
5395.715360473253
 31
0.0
  0
LINE
  5
1D12A
330
1C9B8
100
AcDbEntity
  8
KISO
100
AcDbLine
 10
11334.21703198606
 20
5395.715360473253
 30
0.0
 11
11334.21703198606
 21
5995.715360473253
 31
0.0
  0
LINE
  5
1D12B
330
1C9B8
100
AcDbEntity
  8
KISO
100
AcDbLine
 10
11334.21703198606
 20
5995.715360473253
 30
0.0
 11
11934.21703198606
 21
5995.715360473253
 31
0.0
  0
LINE
  5
1D12C
330
1C9B8
100
AcDbEntity
  8
KISO
100
AcDbLine
 10
11934.21703198606
 20
5995.715360473253
 30
0.0
 11
11934.21703198606
 21
5395.715360473253
 31
0.0
  0
LINE
  5
1D12D
330
1C9B8
100
AcDbEntity
  8
KISO
100
AcDbLine
 10
9134.217031986059
 20
5395.715360473253
 30
0.0
 11
8534.217031986059
 21
5395.715360473253
 31
0.0
  0
LINE
  5
1D12E
330
1C9B8
100
AcDbEntity
  8
KISO
100
AcDbLine
 10
8534.217031986059
 20
5395.715360473253
 30
0.0
 11
8534.217031986059
 21
5995.715360473253
 31
0.0
  0
LINE
  5
1D12F
330
1C9B8
100
AcDbEntity
  8
KISO
100
AcDbLine
 10
8534.217031986059
 20
5995.715360473253
 30
0.0
 11
9134.217031986059
 21
5995.715360473253
 31
0.0
  0
LINE
  5
1D130
330
1C9B8
100
AcDbEntity
  8
KISO
100
AcDbLine
 10
9134.217031986059
 20
5995.715360473253
 30
0.0
 11
9134.217031986059
 21
5395.715360473253
 31
0.0
  0
LINE
  5
1D131
330
1C9B8
100
AcDbEntity
  8
KISO
100
AcDbLine
 10
7834.21703198606
 20
8995.715360473253
 30
0.0
 11
7234.21703198606
 21
8995.715360473253
 31
0.0
  0
LINE
  5
1D132
330
1C9B8
100
AcDbEntity
  8
KISO
100
AcDbLine
 10
7234.21703198606
 20
8995.715360473253
 30
0.0
 11
7234.21703198606
 21
9595.715360473253
 31
0.0
  0
LINE
  5
1D133
330
1C9B8
100
AcDbEntity
  8
KISO
100
AcDbLine
 10
7234.21703198606
 20
9595.715360473253
 30
0.0
 11
7834.21703198606
 21
9595.715360473253
 31
0.0
  0
LINE
  5
1D134
330
1C9B8
100
AcDbEntity
  8
KISO
100
AcDbLine
 10
7834.21703198606
 20
9595.715360473253
 30
0.0
 11
7834.21703198606
 21
8995.715360473253
 31
0.0
  0
LINE
  5
1D135
330
1C9B8
100
AcDbEntity
  8
U1
100
AcDbLine
 10
11795.58860891543
 20
2397.76425036702
 30
0.0
 11
12095.58860891543
 21
2397.76425036702
 31
0.0
  0
LINE
  5
1D136
330
1C9B8
100
AcDbEntity
  8
U1
100
AcDbLine
 10
12095.58860891543
 20
2397.76425036702
 30
0.0
 11
12095.58860891543
 21
2697.76425036702
 31
0.0
  0
LINE
  5
1D137
330
1C9B8
100
AcDbEntity
  8
U1
100
AcDbLine
 10
12095.58860891543
 20
2697.76425036702
 30
0.0
 11
11795.58860891543
 21
2697.76425036702
 31
0.0
  0
LINE
  5
1D138
330
1C9B8
100
AcDbEntity
  8
U1
100
AcDbLine
 10
11795.58860891543
 20
2697.76425036702
 30
0.0
 11
11795.58860891543
 21
2397.76425036702
 31
0.0
  0
LINE
  5
1D139
330
1C9B8
100
AcDbEntity
  8
U1
100
AcDbLine
 10
11625.58860891544
 20
2387.764250367019
 30
0.0
 11
12265.58860891543
 21
2387.764250367019
 31
0.0
  0
LINE
  5
1D13A
330
1C9B8
100
AcDbEntity
  8
U1
100
AcDbLine
 10
12265.58860891543
 20
2387.764250367019
 30
0.0
 11
12265.58860891543
 21
2707.76425036702
 31
0.0
  0
LINE
  5
1D13B
330
1C9B8
100
AcDbEntity
  8
U1
100
AcDbLine
 10
12265.58860891543
 20
2707.76425036702
 30
0.0
 11
11625.58860891544
 21
2707.76425036702
 31
0.0
  0
LINE
  5
1D13C
330
1C9B8
100
AcDbEntity
  8
U1
100
AcDbLine
 10
11625.58860891544
 20
2707.76425036702
 30
0.0
 11
11625.58860891544
 21
2387.764250367019
 31
0.0
  0
LINE
  5
1D13D
330
1C9B8
100
AcDbEntity
  8
U1
100
AcDbLine
 10
11625.58860891544
 20
3465.956942898431
 30
0.0
 11
12265.58860891543
 21
3465.956942898431
 31
0.0
  0
LINE
  5
1D13E
330
1C9B8
100
AcDbEntity
  8
U1
100
AcDbLine
 10
12265.58860891543
 20
3465.956942898431
 30
0.0
 11
12265.58860891543
 21
3489.95694289843
 31
0.0
  0
LINE
  5
1D13F
330
1C9B8
100
AcDbEntity
  8
U1
100
AcDbLine
 10
12265.58860891543
 20
3489.95694289843
 30
0.0
 11
11625.58860891544
 21
3489.95694289843
 31
0.0
  0
LINE
  5
1D140
330
1C9B8
100
AcDbEntity
  8
U1
100
AcDbLine
 10
11625.58860891544
 20
3489.95694289843
 30
0.0
 11
11625.58860891544
 21
3465.956942898431
 31
0.0
  0
LINE
  5
1D141
330
1C9B8
100
AcDbEntity
  8
U3
100
AcDbLine
 10
8300.71370940511
 20
2759.665964325775
 30
0.0
 11
8528.48909457845
 21
3154.184504159609
 31
0.0
1001
ACAD
1000
DSTYLE
1002
{
1070
   147
1040
1.0
1070
    77
1070
     0
1002
}
  0
LINE
  5
1D142
330
1C9B8
100
AcDbEntity
  8
0
100
AcDbLine
 10
8289.166704021317
 20
2766.332630992441
 30
0.0
 11
8260.713709405118
 21
2690.383932023017
 31
0.0
  0
LINE
  5
1D143
330
1C9B8
100
AcDbEntity
  8
0
100
AcDbLine
 10
8260.713709405118
 20
2690.383932023017
 30
0.0
 11
8312.260714788907
 21
2752.999297659108
 31
0.0
  0
SOLID
  5
1D144
330
1C9B8
100
AcDbEntity
  8
0
100
AcDbTrace
 10
8289.166704021317
 20
2766.332630992441
 30
0.0
 11
8312.260714788907
 21
2752.999297659108
 31
0.0
 12
8260.713709405118
 22
2690.383932023017
 32
0.0
 13
8260.713709405118
 23
2690.383932023017
 33
0.0
  0
LINE
  5
1D145
330
1C9B8
100
AcDbEntity
  8
0
100
AcDbLine
 10
8312.260714788907
 20
2752.999297659108
 30
0.0
 11
8289.166704021317
 21
2766.332630992441
 31
0.0
  0
ARC
  5
1D146
330
1C9B8
100
AcDbEntity
  8
U1
100
AcDbCircle
 10
11660.41703198606
 20
9321.915360473253
 30
0.0
 40
6.299999999999272
100
AcDbArc
 50
0.0
 51
90.0
  0
LINE
  5
1D147
330
1C9B8
100
AcDbEntity
  8
U1
100
AcDbLine
 10
11660.41703198606
 20
9328.215360473253
 30
0.0
 11
11653.01703198605
 21
9328.215360473253
 31
0.0
  0
ARC
  5
1D148
330
1C9B8
100
AcDbEntity
  8
U1
100
AcDbCircle
 10
11653.01703198605
 20
9321.915360473253
 30
0.0
 40
6.299999999999272
100
AcDbArc
 50
90.0
 51
180.0
  0
ARC
  5
1D149
330
1C9B8
100
AcDbEntity
  8
U1
100
AcDbCircle
 10
11640.41703198606
 20
9321.915360473253
 30
0.0
 40
6.299999999999272
100
AcDbArc
 50
0.0
 51
90.0
  0
LINE
  5
1D14A
330
1C9B8
100
AcDbEntity
  8
U1
100
AcDbLine
 10
11640.41703198606
 20
9328.215360473253
 30
0.0
 11
11608.01703198605
 21
9328.215360473253
 31
0.0
  0
ARC
  5
1D14B
330
1C9B8
100
AcDbEntity
  8
U1
100
AcDbCircle
 10
11608.01703198605
 20
9321.915360473253
 30
0.0
 40
6.299999999999272
100
AcDbArc
 50
90.0
 51
180.0
  0
LINE
  5
1D14C
330
1C9B8
100
AcDbEntity
  8
U1
100
AcDbLine
 10
11601.71703198606
 20
9321.915360473253
 30
0.0
 11
11601.71703198606
 21
9269.515360473251
 31
0.0
  0
ARC
  5
1D14D
330
1C9B8
100
AcDbEntity
  8
U1
100
AcDbCircle
 10
11608.01703198605
 20
9269.515360473251
 30
0.0
 40
6.299999999999272
100
AcDbArc
 50
180.0
 51
270.0
  0
LINE
  5
1D14E
330
1C9B8
100
AcDbEntity
  8
U1
100
AcDbLine
 10
11608.01703198605
 20
9263.215360473251
 30
0.0
 11
11660.41703198606
 21
9263.215360473251
 31
0.0
  0
ARC
  5
1D14F
330
1C9B8
100
AcDbEntity
  8
U1
100
AcDbCircle
 10
11660.41703198606
 20
9269.515360473251
 30
0.0
 40
6.299999999999272
100
AcDbArc
 50
270.0
 51
0.0
  0
LINE
  5
1D150
330
1C9B8
100
AcDbEntity
  8
U1
100
AcDbLine
 10
11666.71703198606
 20
9269.515360473251
 30
0.0
 11
11666.71703198606
 21
9321.915360473253
 31
0.0
  0
ARC
  5
1D151
330
1C9B8
100
AcDbEntity
  8
U1
100
AcDbCircle
 10
11660.41703198606
 20
7521.915360473252
 30
0.0
 40
6.299999999999272
100
AcDbArc
 50
0.0
 51
90.0
  0
LINE
  5
1D152
330
1C9B8
100
AcDbEntity
  8
U1
100
AcDbLine
 10
11660.41703198606
 20
7528.215360473253
 30
0.0
 11
11653.01703198605
 21
7528.215360473253
 31
0.0
  0
ARC
  5
1D153
330
1C9B8
100
AcDbEntity
  8
U1
100
AcDbCircle
 10
11653.01703198605
 20
7521.915360473252
 30
0.0
 40
6.300000000000181
100
AcDbArc
 50
90.0
 51
180.0
  0
ARC
  5
1D154
330
1C9B8
100
AcDbEntity
  8
U1
100
AcDbCircle
 10
11640.41703198606
 20
7521.915360473252
 30
0.0
 40
6.299999999999272
100
AcDbArc
 50
0.0
 51
90.0
  0
LINE
  5
1D155
330
1C9B8
100
AcDbEntity
  8
U1
100
AcDbLine
 10
11640.41703198606
 20
7528.215360473253
 30
0.0
 11
11608.01703198605
 21
7528.215360473253
 31
0.0
  0
ARC
  5
1D156
330
1C9B8
100
AcDbEntity
  8
U1
100
AcDbCircle
 10
11608.01703198605
 20
7521.915360473252
 30
0.0
 40
6.300000000000181
100
AcDbArc
 50
90.0
 51
180.0
  0
LINE
  5
1D157
330
1C9B8
100
AcDbEntity
  8
U1
100
AcDbLine
 10
11601.71703198606
 20
7521.915360473252
 30
0.0
 11
11601.71703198606
 21
7469.515360473251
 31
0.0
  0
ARC
  5
1D158
330
1C9B8
100
AcDbEntity
  8
U1
100
AcDbCircle
 10
11608.01703198605
 20
7469.515360473251
 30
0.0
 40
6.299999999999272
100
AcDbArc
 50
180.0
 51
270.0
  0
LINE
  5
1D159
330
1C9B8
100
AcDbEntity
  8
U1
100
AcDbLine
 10
11608.01703198605
 20
7463.215360473253
 30
0.0
 11
11660.41703198606
 21
7463.215360473253
 31
0.0
  0
ARC
  5
1D15A
330
1C9B8
100
AcDbEntity
  8
U1
100
AcDbCircle
 10
11660.41703198606
 20
7469.515360473251
 30
0.0
 40
6.299999999999272
100
AcDbArc
 50
270.0
 51
0.0
  0
LINE
  5
1D15B
330
1C9B8
100
AcDbEntity
  8
U1
100
AcDbLine
 10
11666.71703198606
 20
7469.515360473251
 30
0.0
 11
11666.71703198606
 21
7521.915360473252
 31
0.0
  0
ARC
  5
1D15C
330
1C9B8
100
AcDbEntity
  8
U1
100
AcDbCircle
 10
11660.41703198606
 20
5721.915360473253
 30
0.0
 40
6.299999999999272
100
AcDbArc
 50
0.0
 51
90.0
  0
LINE
  5
1D15D
330
1C9B8
100
AcDbEntity
  8
U1
100
AcDbLine
 10
11660.41703198606
 20
5728.215360473253
 30
0.0
 11
11653.01703198605
 21
5728.215360473253
 31
0.0
  0
ARC
  5
1D15E
330
1C9B8
100
AcDbEntity
  8
U1
100
AcDbCircle
 10
11653.01703198605
 20
5721.915360473253
 30
0.0
 40
6.300000000000181
100
AcDbArc
 50
90.0
 51
180.0
  0
ARC
  5
1D15F
330
1C9B8
100
AcDbEntity
  8
U1
100
AcDbCircle
 10
11640.41703198606
 20
5721.915360473253
 30
0.0
 40
6.299999999999272
100
AcDbArc
 50
0.0
 51
90.0
  0
LINE
  5
1D160
330
1C9B8
100
AcDbEntity
  8
U1
100
AcDbLine
 10
11640.41703198606
 20
5728.215360473253
 30
0.0
 11
11608.01703198605
 21
5728.215360473253
 31
0.0
  0
ARC
  5
1D161
330
1C9B8
100
AcDbEntity
  8
U1
100
AcDbCircle
 10
11608.01703198605
 20
5721.915360473253
 30
0.0
 40
6.300000000000181
100
AcDbArc
 50
90.0
 51
180.0
  0
LINE
  5
1D162
330
1C9B8
100
AcDbEntity
  8
U1
100
AcDbLine
 10
11601.71703198606
 20
5721.915360473253
 30
0.0
 11
11601.71703198606
 21
5669.515360473252
 31
0.0
  0
ARC
  5
1D163
330
1C9B8
100
AcDbEntity
  8
U1
100
AcDbCircle
 10
11608.01703198605
 20
5669.515360473252
 30
0.0
 40
6.299999999999272
100
AcDbArc
 50
180.0
 51
270.0
  0
LINE
  5
1D164
330
1C9B8
100
AcDbEntity
  8
U1
100
AcDbLine
 10
11608.01703198605
 20
5663.215360473253
 30
0.0
 11
11660.41703198606
 21
5663.215360473253
 31
0.0
  0
ARC
  5
1D165
330
1C9B8
100
AcDbEntity
  8
U1
100
AcDbCircle
 10
11660.41703198606
 20
5669.515360473252
 30
0.0
 40
6.299999999999272
100
AcDbArc
 50
270.0
 51
0.0
  0
LINE
  5
1D166
330
1C9B8
100
AcDbEntity
  8
U1
100
AcDbLine
 10
11666.71703198606
 20
5669.515360473252
 30
0.0
 11
11666.71703198606
 21
5721.915360473253
 31
0.0
  0
ARC
  5
1D167
330
1C9B8
100
AcDbEntity
  8
U1
100
AcDbCircle
 10
8860.41703198606
 20
9321.915360473253
 30
0.0
 40
6.299999999999272
100
AcDbArc
 50
0.0
 51
90.0
  0
LINE
  5
1D168
330
1C9B8
100
AcDbEntity
  8
U1
100
AcDbLine
 10
8860.41703198606
 20
9328.215360473253
 30
0.0
 11
8853.017031986059
 21
9328.215360473253
 31
0.0
  0
ARC
  5
1D169
330
1C9B8
100
AcDbEntity
  8
U1
100
AcDbCircle
 10
8853.017031986059
 20
9321.915360473253
 30
0.0
 40
6.299999999999272
100
AcDbArc
 50
90.0
 51
180.0
  0
ARC
  5
1D16A
330
1C9B8
100
AcDbEntity
  8
U1
100
AcDbCircle
 10
8840.417031986062
 20
9321.915360473253
 30
0.0
 40
6.299999999999272
100
AcDbArc
 50
0.0
 51
90.0
  0
LINE
  5
1D16B
330
1C9B8
100
AcDbEntity
  8
U1
100
AcDbLine
 10
8840.417031986062
 20
9328.215360473253
 30
0.0
 11
8808.017031986059
 21
9328.215360473253
 31
0.0
  0
ARC
  5
1D16C
330
1C9B8
100
AcDbEntity
  8
U1
100
AcDbCircle
 10
8808.017031986059
 20
9321.915360473253
 30
0.0
 40
6.299999999999272
100
AcDbArc
 50
90.0
 51
180.0
  0
LINE
  5
1D16D
330
1C9B8
100
AcDbEntity
  8
U1
100
AcDbLine
 10
8801.71703198606
 20
9321.915360473253
 30
0.0
 11
8801.71703198606
 21
9269.515360473251
 31
0.0
  0
ARC
  5
1D16E
330
1C9B8
100
AcDbEntity
  8
U1
100
AcDbCircle
 10
8808.017031986059
 20
9269.515360473251
 30
0.0
 40
6.299999999999272
100
AcDbArc
 50
180.0
 51
270.0
  0
LINE
  5
1D16F
330
1C9B8
100
AcDbEntity
  8
U1
100
AcDbLine
 10
8808.017031986059
 20
9263.215360473251
 30
0.0
 11
8860.41703198606
 21
9263.215360473251
 31
0.0
  0
ARC
  5
1D170
330
1C9B8
100
AcDbEntity
  8
U1
100
AcDbCircle
 10
8860.41703198606
 20
9269.515360473251
 30
0.0
 40
6.299999999999272
100
AcDbArc
 50
270.0
 51
0.0
  0
LINE
  5
1D171
330
1C9B8
100
AcDbEntity
  8
U1
100
AcDbLine
 10
8866.717031986061
 20
9269.515360473251
 30
0.0
 11
8866.717031986061
 21
9321.915360473253
 31
0.0
  0
ARC
  5
1D172
330
1C9B8
100
AcDbEntity
  8
U1
100
AcDbCircle
 10
8860.41703198606
 20
7521.915360473252
 30
0.0
 40
6.299999999999272
100
AcDbArc
 50
0.0
 51
90.0
  0
LINE
  5
1D173
330
1C9B8
100
AcDbEntity
  8
U1
100
AcDbLine
 10
8860.41703198606
 20
7528.215360473253
 30
0.0
 11
8853.017031986059
 21
7528.215360473253
 31
0.0
  0
ARC
  5
1D174
330
1C9B8
100
AcDbEntity
  8
U1
100
AcDbCircle
 10
8853.017031986059
 20
7521.915360473252
 30
0.0
 40
6.300000000000181
100
AcDbArc
 50
90.0
 51
180.0
  0
ARC
  5
1D175
330
1C9B8
100
AcDbEntity
  8
U1
100
AcDbCircle
 10
8840.417031986062
 20
7521.915360473252
 30
0.0
 40
6.299999999999272
100
AcDbArc
 50
0.0
 51
90.0
  0
LINE
  5
1D176
330
1C9B8
100
AcDbEntity
  8
U1
100
AcDbLine
 10
8840.417031986062
 20
7528.215360473253
 30
0.0
 11
8808.017031986059
 21
7528.215360473253
 31
0.0
  0
ARC
  5
1D177
330
1C9B8
100
AcDbEntity
  8
U1
100
AcDbCircle
 10
8808.017031986059
 20
7521.915360473252
 30
0.0
 40
6.300000000000181
100
AcDbArc
 50
90.0
 51
180.0
  0
LINE
  5
1D178
330
1C9B8
100
AcDbEntity
  8
U1
100
AcDbLine
 10
8801.71703198606
 20
7521.915360473252
 30
0.0
 11
8801.71703198606
 21
7469.515360473251
 31
0.0
  0
ARC
  5
1D179
330
1C9B8
100
AcDbEntity
  8
U1
100
AcDbCircle
 10
8808.017031986059
 20
7469.515360473251
 30
0.0
 40
6.299999999999272
100
AcDbArc
 50
180.0
 51
270.0
  0
LINE
  5
1D17A
330
1C9B8
100
AcDbEntity
  8
U1
100
AcDbLine
 10
8808.017031986059
 20
7463.215360473253
 30
0.0
 11
8860.41703198606
 21
7463.215360473253
 31
0.0
  0
ARC
  5
1D17B
330
1C9B8
100
AcDbEntity
  8
U1
100
AcDbCircle
 10
8860.41703198606
 20
7469.515360473251
 30
0.0
 40
6.299999999999272
100
AcDbArc
 50
270.0
 51
0.0
  0
LINE
  5
1D17C
330
1C9B8
100
AcDbEntity
  8
U1
100
AcDbLine
 10
8866.717031986061
 20
7469.515360473251
 30
0.0
 11
8866.717031986061
 21
7521.915360473252
 31
0.0
  0
ARC
  5
1D17D
330
1C9B8
100
AcDbEntity
  8
U1
100
AcDbCircle
 10
8860.41703198606
 20
5721.915360473253
 30
0.0
 40
6.299999999999272
100
AcDbArc
 50
0.0
 51
90.0
  0
LINE
  5
1D17E
330
1C9B8
100
AcDbEntity
  8
U1
100
AcDbLine
 10
8860.41703198606
 20
5728.215360473253
 30
0.0
 11
8853.017031986059
 21
5728.215360473253
 31
0.0
  0
ARC
  5
1D17F
330
1C9B8
100
AcDbEntity
  8
U1
100
AcDbCircle
 10
8853.017031986059
 20
5721.915360473253
 30
0.0
 40
6.300000000000181
100
AcDbArc
 50
90.0
 51
180.0
  0
ARC
  5
1D180
330
1C9B8
100
AcDbEntity
  8
U1
100
AcDbCircle
 10
8840.417031986062
 20
5721.915360473253
 30
0.0
 40
6.299999999999272
100
AcDbArc
 50
0.0
 51
90.0
  0
LINE
  5
1D181
330
1C9B8
100
AcDbEntity
  8
U1
100
AcDbLine
 10
8840.417031986062
 20
5728.215360473253
 30
0.0
 11
8808.017031986059
 21
5728.215360473253
 31
0.0
  0
ARC
  5
1D182
330
1C9B8
100
AcDbEntity
  8
U1
100
AcDbCircle
 10
8808.017031986059
 20
5721.915360473253
 30
0.0
 40
6.300000000000181
100
AcDbArc
 50
90.0
 51
180.0
  0
LINE
  5
1D183
330
1C9B8
100
AcDbEntity
  8
U1
100
AcDbLine
 10
8801.71703198606
 20
5721.915360473253
 30
0.0
 11
8801.71703198606
 21
5669.515360473252
 31
0.0
  0
ARC
  5
1D184
330
1C9B8
100
AcDbEntity
  8
U1
100
AcDbCircle
 10
8808.017031986059
 20
5669.515360473252
 30
0.0
 40
6.299999999999272
100
AcDbArc
 50
180.0
 51
270.0
  0
LINE
  5
1D185
330
1C9B8
100
AcDbEntity
  8
U1
100
AcDbLine
 10
8808.017031986059
 20
5663.215360473253
 30
0.0
 11
8860.41703198606
 21
5663.215360473253
 31
0.0
  0
ARC
  5
1D186
330
1C9B8
100
AcDbEntity
  8
U1
100
AcDbCircle
 10
8860.41703198606
 20
5669.515360473252
 30
0.0
 40
6.299999999999272
100
AcDbArc
 50
270.0
 51
0.0
  0
LINE
  5
1D187
330
1C9B8
100
AcDbEntity
  8
U1
100
AcDbLine
 10
8866.717031986061
 20
5669.515360473252
 30
0.0
 11
8866.717031986061
 21
5721.915360473253
 31
0.0
  0
ARC
  5
1D188
330
1C9B8
100
AcDbEntity
  8
U1
100
AcDbCircle
 10
7560.41703198606
 20
9321.915360473253
 30
0.0
 40
6.299999999999272
100
AcDbArc
 50
0.0
 51
90.00000000000826
  0
LINE
  5
1D189
330
1C9B8
100
AcDbEntity
  8
U1
100
AcDbLine
 10
7560.41703198606
 20
9328.215360473253
 30
0.0
 11
7553.017031986062
 21
9328.215360473253
 31
0.0
  0
ARC
  5
1D18A
330
1C9B8
100
AcDbEntity
  8
U1
100
AcDbCircle
 10
7553.017031986058
 20
9321.915360473253
 30
0.0
 40
6.299999999999272
100
AcDbArc
 50
89.99999999999173
 51
180.0
  0
ARC
  5
1D18B
330
1C9B8
100
AcDbEntity
  8
U1
100
AcDbCircle
 10
7540.417031986061
 20
9321.915360473253
 30
0.0
 40
6.299999999999272
100
AcDbArc
 50
0.0
 51
90.00000000000826
  0
LINE
  5
1D18C
330
1C9B8
100
AcDbEntity
  8
U1
100
AcDbLine
 10
7540.417031986058
 20
9328.215360473253
 30
0.0
 11
7508.017031986061
 21
9328.215360473253
 31
0.0
  0
ARC
  5
1D18D
330
1C9B8
100
AcDbEntity
  8
U1
100
AcDbCircle
 10
7508.017031986058
 20
9321.915360473253
 30
0.0
 40
6.299999999999272
100
AcDbArc
 50
89.99999999999173
 51
180.0
  0
LINE
  5
1D18E
330
1C9B8
100
AcDbEntity
  8
U1
100
AcDbLine
 10
7501.71703198606
 20
9321.915360473253
 30
0.0
 11
7501.71703198606
 21
9269.515360473251
 31
0.0
  0
ARC
  5
1D18F
330
1C9B8
100
AcDbEntity
  8
U1
100
AcDbCircle
 10
7508.017031986058
 20
9269.515360473251
 30
0.0
 40
6.299999999999272
100
AcDbArc
 50
180.0
 51
270.0000000000081
  0
LINE
  5
1D190
330
1C9B8
100
AcDbEntity
  8
U1
100
AcDbLine
 10
7508.017031986061
 20
9263.215360473251
 30
0.0
 11
7560.41703198606
 21
9263.215360473251
 31
0.0
  0
ARC
  5
1D191
330
1C9B8
100
AcDbEntity
  8
U1
100
AcDbCircle
 10
7560.41703198606
 20
9269.515360473251
 30
0.0
 40
6.299999999999272
100
AcDbArc
 50
269.9999999999918
 51
0.0
  0
LINE
  5
1D192
330
1C9B8
100
AcDbEntity
  8
U1
100
AcDbLine
 10
7566.71703198606
 20
9269.515360473251
 30
0.0
 11
7566.71703198606
 21
9321.915360473253
 31
0.0
  0
ARC
  5
1D193
330
1C9B8
100
AcDbEntity
  8
U1
100
AcDbCircle
 10
7560.41703198606
 20
7521.915360473252
 30
0.0
 40
6.299999999999272
100
AcDbArc
 50
0.0
 51
90.00000000000826
  0
LINE
  5
1D194
330
1C9B8
100
AcDbEntity
  8
U1
100
AcDbLine
 10
7560.41703198606
 20
7528.215360473253
 30
0.0
 11
7553.017031986062
 21
7528.215360473253
 31
0.0
  0
ARC
  5
1D195
330
1C9B8
100
AcDbEntity
  8
U1
100
AcDbCircle
 10
7553.017031986058
 20
7521.915360473252
 30
0.0
 40
6.300000000000181
100
AcDbArc
 50
89.99999999999173
 51
180.0
  0
ARC
  5
1D196
330
1C9B8
100
AcDbEntity
  8
U1
100
AcDbCircle
 10
7540.417031986058
 20
7521.915360473252
 30
0.0
 40
6.300000000000181
100
AcDbArc
 50
0.0000000000082715
 51
90.0
  0
LINE
  5
1D197
330
1C9B8
100
AcDbEntity
  8
U1
100
AcDbLine
 10
7540.417031986058
 20
7528.215360473253
 30
0.0
 11
7508.017031986061
 21
7528.215360473253
 31
0.0
  0
ARC
  5
1D198
330
1C9B8
100
AcDbEntity
  8
U1
100
AcDbCircle
 10
7508.017031986058
 20
7521.915360473252
 30
0.0
 40
6.300000000000181
100
AcDbArc
 50
89.99999999999173
 51
180.0
  0
LINE
  5
1D199
330
1C9B8
100
AcDbEntity
  8
U1
100
AcDbLine
 10
7501.71703198606
 20
7521.915360473252
 30
0.0
 11
7501.71703198606
 21
7469.515360473251
 31
0.0
  0
ARC
  5
1D19A
330
1C9B8
100
AcDbEntity
  8
U1
100
AcDbCircle
 10
7508.017031986058
 20
7469.515360473251
 30
0.0
 40
6.299999999999272
100
AcDbArc
 50
180.0
 51
270.0000000000081
  0
LINE
  5
1D19B
330
1C9B8
100
AcDbEntity
  8
U1
100
AcDbLine
 10
7508.017031986061
 20
7463.215360473253
 30
0.0
 11
7560.41703198606
 21
7463.215360473253
 31
0.0
  0
ARC
  5
1D19C
330
1C9B8
100
AcDbEntity
  8
U1
100
AcDbCircle
 10
7560.41703198606
 20
7469.515360473251
 30
0.0
 40
6.299999999999272
100
AcDbArc
 50
269.9999999999918
 51
0.0
  0
LINE
  5
1D19D
330
1C9B8
100
AcDbEntity
  8
U1
100
AcDbLine
 10
7566.71703198606
 20
7469.515360473251
 30
0.0
 11
7566.71703198606
 21
7521.915360473252
 31
0.0
  0
ARC
  5
1D19E
330
1C9B8
100
AcDbEntity
  8
U1
100
AcDbCircle
 10
7560.41703198606
 20
5721.915360473253
 30
0.0
 40
6.299999999999272
100
AcDbArc
 50
0.0
 51
90.00000000000826
  0
LINE
  5
1D19F
330
1C9B8
100
AcDbEntity
  8
U1
100
AcDbLine
 10
7560.41703198606
 20
5728.215360473253
 30
0.0
 11
7553.017031986062
 21
5728.215360473253
 31
0.0
  0
ARC
  5
1D1A0
330
1C9B8
100
AcDbEntity
  8
U1
100
AcDbCircle
 10
7553.017031986058
 20
5721.915360473253
 30
0.0
 40
6.300000000000181
100
AcDbArc
 50
89.99999999999173
 51
180.0
  0
ARC
  5
1D1A1
330
1C9B8
100
AcDbEntity
  8
U1
100
AcDbCircle
 10
7540.417031986058
 20
5721.915360473252
 30
0.0
 40
6.300000000000181
100
AcDbArc
 50
0.0000000000082715
 51
90.0
  0
LINE
  5
1D1A2
330
1C9B8
100
AcDbEntity
  8
U1
100
AcDbLine
 10
7540.417031986058
 20
5728.215360473253
 30
0.0
 11
7508.017031986061
 21
5728.215360473253
 31
0.0
  0
ARC
  5
1D1A3
330
1C9B8
100
AcDbEntity
  8
U1
100
AcDbCircle
 10
7508.017031986058
 20
5721.915360473253
 30
0.0
 40
6.300000000000181
100
AcDbArc
 50
89.99999999999173
 51
180.0
  0
LINE
  5
1D1A4
330
1C9B8
100
AcDbEntity
  8
U1
100
AcDbLine
 10
7501.71703198606
 20
5721.915360473253
 30
0.0
 11
7501.71703198606
 21
5669.515360473252
 31
0.0
  0
ARC
  5
1D1A5
330
1C9B8
100
AcDbEntity
  8
U1
100
AcDbCircle
 10
7508.017031986058
 20
5669.515360473252
 30
0.0
 40
6.299999999999272
100
AcDbArc
 50
180.0
 51
270.0000000000081
  0
LINE
  5
1D1A6
330
1C9B8
100
AcDbEntity
  8
U1
100
AcDbLine
 10
7508.017031986061
 20
5663.215360473253
 30
0.0
 11
7560.41703198606
 21
5663.215360473253
 31
0.0
  0
ARC
  5
1D1A7
330
1C9B8
100
AcDbEntity
  8
U1
100
AcDbCircle
 10
7560.41703198606
 20
5669.515360473252
 30
0.0
 40
6.299999999999272
100
AcDbArc
 50
269.9999999999918
 51
0.0
  0
LINE
  5
1D1A8
330
1C9B8
100
AcDbEntity
  8
U1
100
AcDbLine
 10
7566.71703198606
 20
5669.515360473252
 30
0.0
 11
7566.71703198606
 21
5721.915360473253
 31
0.0
  0
ARC
  5
1D1A9
330
1C9B8
100
AcDbEntity
  8
U1
100
AcDbCircle
 10
4760.417031986061
 20
9321.915360473253
 30
0.0
 40
6.299999999999272
100
AcDbArc
 50
0.0
 51
90.00000000000826
  0
LINE
  5
1D1AA
330
1C9B8
100
AcDbEntity
  8
U1
100
AcDbLine
 10
4760.417031986057
 20
9328.215360473253
 30
0.0
 11
4753.01703198606
 21
9328.215360473253
 31
0.0
  0
ARC
  5
1D1AB
330
1C9B8
100
AcDbEntity
  8
U1
100
AcDbCircle
 10
4753.017031986058
 20
9321.915360473253
 30
0.0
 40
6.299999999999272
100
AcDbArc
 50
89.99999999999173
 51
180.0
  0
ARC
  5
1D1AC
330
1C9B8
100
AcDbEntity
  8
U1
100
AcDbCircle
 10
4740.41703198606
 20
9321.915360473253
 30
0.0
 40
6.299999999999272
100
AcDbArc
 50
0.0
 51
90.00000000000826
  0
LINE
  5
1D1AD
330
1C9B8
100
AcDbEntity
  8
U1
100
AcDbLine
 10
4740.417031986058
 20
9328.215360473253
 30
0.0
 11
4708.017031986059
 21
9328.215360473253
 31
0.0
  0
ARC
  5
1D1AE
330
1C9B8
100
AcDbEntity
  8
U1
100
AcDbCircle
 10
4708.017031986059
 20
9321.915360473253
 30
0.0
 40
6.299999999999272
100
AcDbArc
 50
89.99999999999173
 51
180.0
  0
LINE
  5
1D1AF
330
1C9B8
100
AcDbEntity
  8
U1
100
AcDbLine
 10
4701.717031986058
 20
9321.915360473253
 30
0.0
 11
4701.717031986058
 21
9269.515360473251
 31
0.0
  0
ARC
  5
1D1B0
330
1C9B8
100
AcDbEntity
  8
U1
100
AcDbCircle
 10
4708.017031986059
 20
9269.515360473251
 30
0.0
 40
6.299999999999272
100
AcDbArc
 50
180.0
 51
270.0000000000081
  0
LINE
  5
1D1B1
330
1C9B8
100
AcDbEntity
  8
U1
100
AcDbLine
 10
4708.017031986059
 20
9263.215360473251
 30
0.0
 11
4760.417031986057
 21
9263.215360473251
 31
0.0
  0
ARC
  5
1D1B2
330
1C9B8
100
AcDbEntity
  8
U1
100
AcDbCircle
 10
4760.417031986061
 20
9269.515360473251
 30
0.0
 40
6.299999999999272
100
AcDbArc
 50
269.9999999999918
 51
0.0
  0
LINE
  5
1D1B3
330
1C9B8
100
AcDbEntity
  8
U1
100
AcDbLine
 10
4766.717031986058
 20
9269.515360473251
 30
0.0
 11
4766.717031986058
 21
9321.915360473253
 31
0.0
  0
ARC
  5
1D1B4
330
1C9B8
100
AcDbEntity
  8
U1
100
AcDbCircle
 10
4760.417031986061
 20
7521.915360473252
 30
0.0
 40
6.299999999999272
100
AcDbArc
 50
0.0
 51
90.00000000000826
  0
LINE
  5
1D1B5
330
1C9B8
100
AcDbEntity
  8
U1
100
AcDbLine
 10
4760.417031986057
 20
7528.215360473253
 30
0.0
 11
4753.01703198606
 21
7528.215360473253
 31
0.0
  0
ARC
  5
1D1B6
330
1C9B8
100
AcDbEntity
  8
U1
100
AcDbCircle
 10
4753.017031986058
 20
7521.915360473252
 30
0.0
 40
6.300000000000181
100
AcDbArc
 50
89.99999999999173
 51
180.0
  0
ARC
  5
1D1B7
330
1C9B8
100
AcDbEntity
  8
U1
100
AcDbCircle
 10
4740.417031986058
 20
7521.915360473252
 30
0.0
 40
6.300000000000181
100
AcDbArc
 50
0.0000000000082715
 51
90.0
  0
LINE
  5
1D1B8
330
1C9B8
100
AcDbEntity
  8
U1
100
AcDbLine
 10
4740.417031986058
 20
7528.215360473253
 30
0.0
 11
4708.017031986059
 21
7528.215360473253
 31
0.0
  0
ARC
  5
1D1B9
330
1C9B8
100
AcDbEntity
  8
U1
100
AcDbCircle
 10
4708.017031986059
 20
7521.915360473252
 30
0.0
 40
6.300000000000181
100
AcDbArc
 50
89.99999999999173
 51
180.0
  0
LINE
  5
1D1BA
330
1C9B8
100
AcDbEntity
  8
U1
100
AcDbLine
 10
4701.717031986058
 20
7521.915360473252
 30
0.0
 11
4701.717031986058
 21
7469.515360473251
 31
0.0
  0
ARC
  5
1D1BB
330
1C9B8
100
AcDbEntity
  8
U1
100
AcDbCircle
 10
4708.017031986059
 20
7469.515360473251
 30
0.0
 40
6.299999999999272
100
AcDbArc
 50
180.0
 51
270.0000000000081
  0
LINE
  5
1D1BC
330
1C9B8
100
AcDbEntity
  8
U1
100
AcDbLine
 10
4708.017031986059
 20
7463.215360473253
 30
0.0
 11
4760.417031986057
 21
7463.215360473253
 31
0.0
  0
ARC
  5
1D1BD
330
1C9B8
100
AcDbEntity
  8
U1
100
AcDbCircle
 10
4760.417031986061
 20
7469.515360473251
 30
0.0
 40
6.299999999999272
100
AcDbArc
 50
269.9999999999918
 51
0.0
  0
LINE
  5
1D1BE
330
1C9B8
100
AcDbEntity
  8
U1
100
AcDbLine
 10
4766.717031986058
 20
7469.515360473251
 30
0.0
 11
4766.717031986058
 21
7521.915360473252
 31
0.0
  0
ARC
  5
1D1BF
330
1C9B8
100
AcDbEntity
  8
U1
100
AcDbCircle
 10
4760.417031986061
 20
5721.915360473253
 30
0.0
 40
6.299999999999272
100
AcDbArc
 50
0.0
 51
90.00000000000826
  0
LINE
  5
1D1C0
330
1C9B8
100
AcDbEntity
  8
U1
100
AcDbLine
 10
4760.417031986057
 20
5728.215360473253
 30
0.0
 11
4753.01703198606
 21
5728.215360473253
 31
0.0
  0
ARC
  5
1D1C1
330
1C9B8
100
AcDbEntity
  8
U1
100
AcDbCircle
 10
4753.017031986058
 20
5721.915360473253
 30
0.0
 40
6.300000000000181
100
AcDbArc
 50
89.99999999999173
 51
180.0
  0
ARC
  5
1D1C2
330
1C9B8
100
AcDbEntity
  8
U1
100
AcDbCircle
 10
4740.417031986058
 20
5721.915360473252
 30
0.0
 40
6.300000000000181
100
AcDbArc
 50
0.0000000000082715
 51
90.0
  0
LINE
  5
1D1C3
330
1C9B8
100
AcDbEntity
  8
U1
100
AcDbLine
 10
4740.417031986058
 20
5728.215360473253
 30
0.0
 11
4708.017031986059
 21
5728.215360473253
 31
0.0
  0
ARC
  5
1D1C4
330
1C9B8
100
AcDbEntity
  8
U1
100
AcDbCircle
 10
4708.017031986059
 20
5721.915360473253
 30
0.0
 40
6.300000000000181
100
AcDbArc
 50
89.99999999999173
 51
180.0
  0
LINE
  5
1D1C5
330
1C9B8
100
AcDbEntity
  8
U1
100
AcDbLine
 10
4701.717031986058
 20
5721.915360473253
 30
0.0
 11
4701.717031986058
 21
5669.515360473252
 31
0.0
  0
ARC
  5
1D1C6
330
1C9B8
100
AcDbEntity
  8
U1
100
AcDbCircle
 10
4708.017031986059
 20
5669.515360473252
 30
0.0
 40
6.299999999999272
100
AcDbArc
 50
180.0
 51
270.0000000000081
  0
LINE
  5
1D1C7
330
1C9B8
100
AcDbEntity
  8
U1
100
AcDbLine
 10
4708.017031986059
 20
5663.215360473253
 30
0.0
 11
4760.417031986057
 21
5663.215360473253
 31
0.0
  0
ARC
  5
1D1C8
330
1C9B8
100
AcDbEntity
  8
U1
100
AcDbCircle
 10
4760.417031986061
 20
5669.515360473252
 30
0.0
 40
6.299999999999272
100
AcDbArc
 50
269.9999999999918
 51
0.0
  0
LINE
  5
1D1C9
330
1C9B8
100
AcDbEntity
  8
U1
100
AcDbLine
 10
4766.717031986058
 20
5669.515360473252
 30
0.0
 11
4766.717031986058
 21
5721.915360473253
 31
0.0
  0
TEXT
  5
1D229
330
1C9B8
100
AcDbEntity
  8
SUNPOU
100
AcDbText
 10
1549.75414969234
 20
4214.532949651697
 30
0.0
 40
90.0
  1
寒冷地の場合、凍結深度等を考慮し、実情に
  7
01
100
AcDbText
  0
TEXT
  5
1D22A
330
1C9B8
100
AcDbEntity
  8
SUNPOU
100
AcDbText
 10
1549.75414969234
 20
3905.961521080264
 30
0.0
 40
90.0
  1
その他現地の実情にあわせて設計して下さい。
  7
01
100
AcDbText
  0
TEXT
  5
1D22B
330
1C9B8
100
AcDbEntity
  8
SUNPOU
100
AcDbText
 10
1174.798404602945
 20
4593.818663937407
 30
0.0
 40
89.9993750043402
  1
地耐力   　　　 以上,コンクリート設計基準強度　　　　　以上
  7
01
100
AcDbText
  0
TEXT
  5
1D22C
330
1C9B8
100
AcDbEntity
  8
SUNPOU
100
AcDbText
 10
1343.548404602944
 20
3905.961521080264
 30
0.0
 40
90.0
  1
2
 41
0.6700000000000001
  7
01
100
AcDbText
  0
TEXT
  5
1D22D
330
1C9B8
100
AcDbEntity
  8
SUNPOU
100
AcDbText
 10
1232.914484390203
 20
3905.961521080264
 30
0.0
 40
90.0
  1
注　）
  7
01
100
AcDbText
  0
TEXT
  5
1D22E
330
1C9B8
100
AcDbEntity
  8
SUNPOU
100
AcDbText
 10
1658.561833268114
 20
4439.532949651694
 30
0.0
 40
89.9993750043402
  1
34 m/s
 41
0.6700000000000001
  7
01
100
AcDbText
  0
TEXT
  5
1D22F
330
1C9B8
100
AcDbEntity
  8
SUNPOU
100
AcDbText
 10
1044.234775886714
 20
4783.072666383365
 30
0.0
 40
90.0
  1
<下記条件での参考図>
  7
01
 72
     4
 11
1633.091918743857
 21
4828.072666383365
 31
0.0
100
AcDbText
  0
TEXT
  5
1D230
330
1C9B8
100
AcDbEntity
  8
SUNPOU
100
AcDbText
 10
1549.75414969234
 20
4060.247235365977
 30
0.0
 40
90.0
  1
あわせて設計して下さい。
  7
01
100
AcDbText
  0
TEXT
  5
1D231
330
1C9B8
100
AcDbEntity
  8
SUNPOU
100
AcDbText
 10
1174.798404602945
 20
4439.532949651694
 30
0.0
 40
89.9993750043402
  1
基準風速   　　 , 地表面粗度区分
  7
01
100
AcDbText
  0
TEXT
  5
1D232
330
1C9B8
100
AcDbEntity
  8
SUNPOU
100
AcDbText
 10
1549.056812028028
 20
4593.818663937407
 30
0.0
 40
89.9993750043402
  1
50  N/m
 41
0.6700000000000001
  7
01
100
AcDbText
  0
TEXT
  5
1D233
330
1C9B8
100
AcDbEntity
  8
SUNPOU
100
AcDbText
 10
1169.591918743857
 20
4940.572666383367
 30
0.0
 40
120.0
  1
基礎断面図
  7
01
 72
     4
 11
1509.591918743857
 21
5000.572666383367
 31
0.0
100
AcDbText
  0
ARC
  5
1D234
330
1C9B8
100
AcDbEntity
  8
SUNPOU
100
AcDbCircle
 10
1327.75667851015
 20
4557.606087379239
 30
0.0
 40
225.0
100
AcDbArc
 50
148.3472725282829
 51
211.652727471717
  0
TEXT
  5
1D235
330
1C9B8
100
AcDbEntity
  8
SUNPOU
100
AcDbText
 10
1343.548404602944
 20
4214.532949651697
 30
0.0
 40
90.0
  1
1
 41
0.6700000000000001
  7
01
100
AcDbText
  0
TEXT
  5
1D236
330
1C9B8
100
AcDbEntity
  8
SUNPOU
100
AcDbText
 10
1232.914484390203
 20
4214.532949651697
 30
0.0
 40
90.0
  1
注　）
  7
01
100
AcDbText
  0
TEXT
  5
1D237
330
1C9B8
100
AcDbEntity
  8
SUNPOU
100
AcDbText
 10
1684.893264813981
 20
4593.818663937407
 30
0.0
 40
71.99950000347218
  1
K
 41
0.6700000000000001
  7
01
100
AcDbText
  0
TEXT
  5
1D238
330
1C9B8
100
AcDbEntity
  8
SUNPOU
100
AcDbText
 10
2318.500528229651
 20
4931.957281767981
 30
0.0
 40
73.84615384615384
  1
25
 41
0.6700000000000001
  7
00
 11
2318.500528229651
 21
4922.111127921827
 31
0.0
100
AcDbText
 73
     1
  0
TEXT
  5
1D239
330
1C9B8
100
AcDbEntity
  8
SUNPOU
100
AcDbText
 10
2254.551085275285
 20
4950.418820229518
 30
0.0
 40
73.84615384615384
  1
/
 41
0.6700000000000001
  7
00
 11
2254.551085275285
 21
4940.572666383364
 31
0.0
100
AcDbText
 73
     1
  0
TEXT
  5
1D23A
330
1C9B8
100
AcDbEntity
  8
SUNPOU
100
AcDbText
 10
2206.144957959913
 20
4968.880358691059
 30
0.0
 40
73.84615384615384
  1
1
 41
0.6700000000000001
  7
00
 11
2206.144957959913
 21
4959.034204844904
 31
0.0
100
AcDbText
 73
     1
  0
TEXT
  5
1D23B
330
1C9B8
100
AcDbEntity
  8
SUNPOU
100
AcDbText
 10
1886.442256106826
 20
4952.880358691057
 30
0.0
 40
92.30769230769228
  1
（ S = 　　  ）
 41
0.6700000000000001
  7
00
 11
1886.442256106826
 21
4940.572666383364
 31
0.0
100
AcDbText
 73
     1
  0
TEXT
  5
1D23C
330
1C9B8
100
AcDbEntity
  8
SUNPOU
100
AcDbText
 10
1952.533421542364
 20
4644.007090294895
 30
0.0
 40
46.28539285937498
  1
2
 41
0.6700000000000001
  7
00
100
AcDbText
  0
LINE
  5
1D23D
330
1C9B8
100
AcDbEntity
  8
SUNPOU
100
AcDbLine
 10
2977.863966169554
 20
4439.532949651694
 30
0.0
 11
2977.863966169554
 21
4523.025313350475
 31
0.0
  0
LINE
  5
1D23E
330
1C9B8
100
AcDbEntity
  8
SUNPOU
100
AcDbLine
 10
2994.738966169554
 20
4439.532949651694
 30
0.0
 11
2994.738966169554
 21
4523.025313350475
 31
0.0
  0
LINE
  5
1D23F
330
1C9B8
100
AcDbEntity
  8
SUNPOU
100
AcDbLine
 10
3011.613966169553
 20
4439.532949651694
 30
0.0
 11
3011.613966169553
 21
4523.025313350475
 31
0.0
  0
LINE
  5
1D240
330
1C9B8
100
AcDbEntity
  8
SUNPOU
100
AcDbLine
 10
2966.613966169552
 20
4439.532949651692
 30
0.0
 11
3022.863966169552
 21
4439.532949651692
 31
0.0
  0
LINE
  5
1D241
330
1C9B8
100
AcDbEntity
  8
SUNPOU
100
AcDbLine
 10
2966.613966169552
 20
4523.025313350475
 30
0.0
 11
3022.863966169552
 21
4523.025313350475
 31
0.0
  0
TEXT
  5
1D242
330
1C9B8
100
AcDbEntity
  8
SUNPOU
100
AcDbText
 10
3754.982082279592
 20
4593.818663937407
 30
0.0
 40
89.9993750043402
  1
N/mm
 41
0.6700000000000001
  7
01
100
AcDbText
  0
TEXT
  5
1D243
330
1C9B8
100
AcDbEntity
  8
SUNPOU
100
AcDbText
 10
3619.145629493642
 20
4593.818663937407
 30
0.0
 40
89.9993750043402
  1
18
 41
0.6700000000000001
  7
01
100
AcDbText
  0
ARC
  5
1D244
330
1C9B8
100
AcDbEntity
  8
SUNPOU
100
AcDbCircle
 10
4229.196961761711
 20
4557.606087379239
 30
0.0
 40
225.0
100
AcDbArc
 50
328.3472725282829
 51
31.65272747171703
  0
TEXT
  5
1D245
330
1C9B8
100
AcDbEntity
  8
SUNPOU
100
AcDbText
 10
4059.446564310998
 20
4644.007090294895
 30
0.0
 40
46.28539285937498
  1
2
 41
0.6700000000000001
  7
00
100
AcDbText
  0
ENDSEC
  0
SECTION
  2
OBJECTS
  0
DICTIONARY
  5
1C9A6
330
0
100
AcDbDictionary
281
     1
  3
ACAD_GROUP
350
1C9A7
  3
ACAD_LAYOUT
350
1C9B3
  3
ACAD_MLINESTYLE
350
1C9B0
  3
ACAD_PLOTSETTINGS
350
1C9B2
  3
ACAD_PLOTSTYLENAME
350
1C9A8
  3
AcDbVariableDictionary
350
1D246
  0
DICTIONARY
  5
1C9A7
102
{ACAD_REACTORS
330
1C9A6
102
}
330
1C9A6
100
AcDbDictionary
281
     1
  0
DICTIONARY
  5
1C9B3
102
{ACAD_REACTORS
330
1C9A6
102
}
330
1C9A6
100
AcDbDictionary
281
     1
  3
Model
350
1C9BB
  3
ﾚｲｱｳﾄ1
350
1C9B7
  0
DICTIONARY
  5
1C9B0
102
{ACAD_REACTORS
330
1C9A6
102
}
330
1C9A6
100
AcDbDictionary
281
     1
  3
Standard
350
1C9B1
  0
DICTIONARY
  5
1C9B2
102
{ACAD_REACTORS
330
1C9A6
102
}
330
1C9A6
100
AcDbDictionary
281
     1
  0
ACDBDICTIONARYWDFLT
  5
1C9A8
102
{ACAD_REACTORS
330
1C9A6
102
}
330
1C9A6
100
AcDbDictionary
281
     1
  3
Normal
350
1C9A9
100
AcDbDictionaryWithDefault
340
1C9A9
  0
DICTIONARY
  5
1D246
102
{ACAD_REACTORS
330
1C9A6
102
}
330
1C9A6
100
AcDbDictionary
281
     1
  3
DIMASSOC
350
1D247
  0
LAYOUT
  5
1C9BB
102
{ACAD_REACTORS
330
1C9B3
102
}
330
1C9B3
100
AcDbPlotSettings
  1

  2
Muratec V-1200 Is@Web Printer
  4

  6

 40
0.0
 41
0.0
 42
0.0
 43
0.0
 44
0.0
 45
0.0
 46
0.0
 47
0.0
 48
0.0
 49
0.0
140
0.0
141
0.0
142
1.0
143
1.0
 70
  1712
 72
     0
 73
     0
 74
     0
  7

 75
     0
147
1.0
148
0.0
149
0.0
100
AcDbLayout
  1
Model
 70
     1
 71
     0
 10
0.0
 20
0.0
 11
12.0
 21
9.0
 12
0.0
 22
0.0
 32
0.0
 14
0.0
 24
0.0
 34
0.0
 15
0.0
 25
0.0
 35
0.0
146
0.0
 13
0.0
 23
0.0
 33
0.0
 16
1.0
 26
0.0
 36
0.0
 17
0.0
 27
1.0
 37
0.0
 76
     0
330
1C9B8
  0
LAYOUT
  5
1C9B7
102
{ACAD_REACTORS
330
1C9B3
102
}
330
1C9B3
100
AcDbPlotSettings
  1

  2
Muratec V-1200 Is@Web Printer
  4

  6

 40
0.0
 41
0.0
 42
0.0
 43
0.0
 44
0.0
 45
0.0
 46
0.0
 47
0.0
 48
0.0
 49
0.0
140
0.0
141
0.0
142
1.0
143
1.0
 70
   688
 72
     0
 73
     0
 74
     5
  7

 75
    16
147
1.0
148
0.0
149
0.0
100
AcDbLayout
  1
ﾚｲｱｳﾄ1
 70
     0
 71
     1
 10
0.0
 20
0.0
 11
12.0
 21
9.0
 12
0.0
 22
0.0
 32
0.0
 14
1.000000000000000E+20
 24
1.000000000000000E+20
 34
1.000000000000000E+20
 15
-1.000000000000000E+20
 25
-1.000000000000000E+20
 35
-1.000000000000000E+20
146
0.0
 13
0.0
 23
0.0
 33
0.0
 16
1.0
 26
0.0
 36
0.0
 17
0.0
 27
1.0
 37
0.0
 76
     0
330
1C9B4
  0
MLINESTYLE
  5
1C9B1
102
{ACAD_REACTORS
330
1C9B0
102
}
330
1C9B0
100
AcDbMlineStyle
  2
STANDARD
 70
     0
  3

 62
   256
 51
90.0
 52
90.0
 71
     2
 49
0.5
 62
   256
  6
BYLAYER
 49
-0.5
 62
   256
  6
BYLAYER
  0
ACDBPLACEHOLDER
  5
1C9A9
102
{ACAD_REACTORS
330
1C9A8
102
}
330
1C9A8
  0
DICTIONARYVAR
  5
1D247
102
{ACAD_REACTORS
330
1D246
102
}
330
1D246
100
DictionaryVariables
280
     0
  1
1
  0
ENDSEC
  0
EOF
