  0
SECTION
  2
HEADER
  9
$ACADVER
  1
AC1015
  9
$ACADMAINTVER
 70
    13
  9
$DWGCODEPAGE
  3
ANSI_932
  9
$INSBASE
 10
267.0
 20
194.8999999999998
 30
0.0
  9
$EXTMIN
 10
433.9966216520333
 20
163.6908237492789
 30
-0.000000000000013
  9
$EXTMAX
 10
16382.6660542547
 20
11242.27663824599
 30
0.0000000000000023
  9
$LIMMIN
 10
0.0
 20
0.0
  9
$LIMMAX
 10
16800.0
 20
11880.0
  9
$ORTHOMODE
 70
     0
  9
$REGENMODE
 70
     1
  9
$FILLMODE
 70
     1
  9
$QTEXTMODE
 70
     0
  9
$MIRRTEXT
 70
     0
  9
$LTSCALE
 40
40.0
  9
$ATTMODE
 70
     1
  9
$TEXTSIZE
 40
0.2
  9
$TRACEWID
 40
0.05
  9
$TEXTSTYLE
  7
00
  9
$CLAYER
  8
SUNPOU
  9
$CELTYPE
  6
ByLayer
  9
$CECOLOR
 62
   256
  9
$CELTSCALE
 40
1.0
  9
$DISPSILH
 70
     0
  9
$DIMSCALE
 40
40.0
  9
$DIMASZ
 40
0.5
  9
$DIMEXO
 40
1.0
  9
$DIMDLI
 40
7.0
  9
$DIMRND
 40
0.0
  9
$DIMDLE
 40
3.0
  9
$DIMEXE
 40
1.125
  9
$DIMTP
 40
0.0
  9
$DIMTM
 40
0.0
  9
$DIMTXT
 40
2.25
  9
$DIMCEN
 40
0.0
  9
$DIMTSZ
 40
0.0
  9
$DIMTOL
 70
     0
  9
$DIMLIM
 70
     0
  9
$DIMTIH
 70
     0
  9
$DIMTOH
 70
     0
  9
$DIMSE1
 70
     0
  9
$DIMSE2
 70
     0
  9
$DIMTAD
 70
     1
  9
$DIMZIN
 70
     8
  9
$DIMBLK
  1
DOT
  9
$DIMASO
 70
     1
  9
$DIMSHO
 70
     0
  9
$DIMPOST
  1

  9
$DIMAPOST
  1

  9
$DIMALT
 70
     0
  9
$DIMALTD
 70
     2
  9
$DIMALTF
 40
25.4
  9
$DIMLFAC
 40
1.0
  9
$DIMTOFL
 70
     1
  9
$DIMTVP
 40
0.0
  9
$DIMTIX
 70
     0
  9
$DIMSOXD
 70
     0
  9
$DIMSAH
 70
     1
  9
$DIMBLK1
  1
DOT
  9
$DIMBLK2
  1
DOT
  9
$DIMSTYLE
  2
SUNPOU_図面名
  9
$DIMCLRD
 70
   256
  9
$DIMCLRE
 70
   256
  9
$DIMCLRT
 70
   256
  9
$DIMTFAC
 40
1.0
  9
$DIMGAP
 40
1.125
  9
$DIMJUST
 70
     0
  9
$DIMSD1
 70
     0
  9
$DIMSD2
 70
     0
  9
$DIMTOLJ
 70
     1
  9
$DIMTZIN
 70
     0
  9
$DIMALTZ
 70
     0
  9
$DIMALTTZ
 70
     0
  9
$DIMUPT
 70
     0
  9
$DIMDEC
 70
     4
  9
$DIMTDEC
 70
     4
  9
$DIMALTU
 70
     2
  9
$DIMALTTD
 70
     2
  9
$DIMTXSTY
  7
STANDARD
  9
$DIMAUNIT
 70
     0
  9
$DIMADEC
 70
     0
  9
$DIMALTRND
 40
0.0
  9
$DIMAZIN
 70
     0
  9
$DIMDSEP
 70
    46
  9
$DIMATFIT
 70
     3
  9
$DIMFRAC
 70
     0
  9
$DIMLDRBLK
  1
DOT
  9
$DIMLUNIT
 70
     2
  9
$DIMLWD
 70
    -2
  9
$DIMLWE
 70
    -2
  9
$DIMTMOVE
 70
     0
  9
$LUNITS
 70
     2
  9
$LUPREC
 70
     2
  9
$SKETCHINC
 40
0.1
  9
$FILLETRAD
 40
0.0
  9
$AUNITS
 70
     0
  9
$AUPREC
 70
     0
  9
$MENU
  1
A:\TIGER\MENU\TIGER
  9
$ELEVATION
 40
0.0
  9
$PELEVATION
 40
0.0
  9
$THICKNESS
 40
0.0
  9
$LIMCHECK
 70
     0
  9
$CHAMFERA
 40
0.0
  9
$CHAMFERB
 40
0.0
  9
$CHAMFERC
 40
0.0
  9
$CHAMFERD
 40
0.0
  9
$SKPOLY
 70
     0
  9
$TDCREATE
 40
2450266.571064815
  9
$TDUCREATE
 40
2450266.196064815
  9
$TDUPDATE
 40
2456330.662801458
  9
$TDUUPDATE
 40
2456330.287801458
  9
$TDINDWG
 40
0.1221691204
  9
$TDUSRTIMER
 40
0.1221691204
  9
$USRTIMER
 70
     1
  9
$ANGBASE
 50
0.0
  9
$ANGDIR
 70
     0
  9
$PDMODE
 70
     0
  9
$PDSIZE
 40
0.0
  9
$PLINEWID
 40
0.0
  9
$SPLFRAME
 70
     0
  9
$SPLINETYPE
 70
     6
  9
$SPLINESEGS
 70
     8
  9
$HANDSEED
  5
15A17
  9
$SURFTAB1
 70
     6
  9
$SURFTAB2
 70
     6
  9
$SURFTYPE
 70
     6
  9
$SURFU
 70
     6
  9
$SURFV
 70
     6
  9
$UCSBASE
  2

  9
$UCSNAME
  2

  9
$UCSORG
 10
0.0
 20
0.0
 30
0.0
  9
$UCSXDIR
 10
1.0
 20
0.0
 30
0.0
  9
$UCSYDIR
 10
0.0
 20
1.0
 30
0.0
  9
$UCSORTHOREF
  2

  9
$UCSORTHOVIEW
 70
     0
  9
$UCSORGTOP
 10
0.0
 20
0.0
 30
0.0
  9
$UCSORGBOTTOM
 10
0.0
 20
0.0
 30
0.0
  9
$UCSORGLEFT
 10
0.0
 20
0.0
 30
0.0
  9
$UCSORGRIGHT
 10
0.0
 20
0.0
 30
0.0
  9
$UCSORGFRONT
 10
0.0
 20
0.0
 30
0.0
  9
$UCSORGBACK
 10
0.0
 20
0.0
 30
0.0
  9
$PUCSBASE
  2

  9
$PUCSNAME
  2

  9
$PUCSORG
 10
0.0
 20
0.0
 30
0.0
  9
$PUCSXDIR
 10
1.0
 20
0.0
 30
0.0
  9
$PUCSYDIR
 10
0.0
 20
1.0
 30
0.0
  9
$PUCSORTHOREF
  2

  9
$PUCSORTHOVIEW
 70
     0
  9
$PUCSORGTOP
 10
0.0
 20
0.0
 30
0.0
  9
$PUCSORGBOTTOM
 10
0.0
 20
0.0
 30
0.0
  9
$PUCSORGLEFT
 10
0.0
 20
0.0
 30
0.0
  9
$PUCSORGRIGHT
 10
0.0
 20
0.0
 30
0.0
  9
$PUCSORGFRONT
 10
0.0
 20
0.0
 30
0.0
  9
$PUCSORGBACK
 10
0.0
 20
0.0
 30
0.0
  9
$USERI1
 70
     3
  9
$USERI2
 70
     0
  9
$USERI3
 70
     0
  9
$USERI4
 70
     0
  9
$USERI5
 70
  1103
  9
$USERR1
 40
0.0
  9
$USERR2
 40
1.0
  9
$USERR3
 40
0.0
  9
$USERR4
 40
0.0
  9
$USERR5
 40
0.0
  9
$WORLDVIEW
 70
     1
  9
$SHADEDGE
 70
     3
  9
$SHADEDIF
 70
    70
  9
$TILEMODE
 70
     1
  9
$MAXACTVP
 70
    16
  9
$PINSBASE
 10
0.0
 20
0.0
 30
0.0
  9
$PLIMCHECK
 70
     0
  9
$PEXTMIN
 10
1.000000000000000E+20
 20
1.000000000000000E+20
 30
1.000000000000000E+20
  9
$PEXTMAX
 10
-1.000000000000000E+20
 20
-1.000000000000000E+20
 30
-1.000000000000000E+20
  9
$PLIMMIN
 10
0.0
 20
0.0
  9
$PLIMMAX
 10
12.0
 20
9.0
  9
$UNITMODE
 70
     0
  9
$VISRETAIN
 70
     0
  9
$PLINEGEN
 70
     1
  9
$PSLTSCALE
 70
     0
  9
$TREEDEPTH
 70
  3020
  9
$CMLSTYLE
  2
Standard
  9
$CMLJUST
 70
     0
  9
$CMLSCALE
 40
1.0
  9
$PROXYGRAPHICS
 70
     1
  9
$MEASUREMENT
 70
     0
  9
$CELWEIGHT
370
    -1
  9
$ENDCAPS
280
     0
  9
$JOINSTYLE
280
     0
  9
$LWDISPLAY
290
     0
  9
$INSUNITS
 70
     0
  9
$HYPERLINKBASE
  1

  9
$STYLESHEET
  1

  9
$XEDIT
290
     1
  9
$CEPSNTYPE
380
     0
  9
$PSTYLEMODE
290
     1
  9
$FINGERPRINTGUID
  2
{79B7741C-1D2D-4662-8366-651A56AB921C}
  9
$VERSIONGUID
  2
{B7A1C35C-3395-4A92-83AB-8AE16D9B23EF}
  9
$EXTNAMES
290
     1
  9
$PSVPSCALE
 40
0.0
  9
$OLESTARTUP
290
     0
  0
ENDSEC
  0
SECTION
  2
CLASSES
  0
CLASS
  1
ACDBDICTIONARYWDFLT
  2
AcDbDictionaryWithDefault
  3
AutoCAD 2000
 90
        0
280
     0
281
     0
  0
CLASS
  1
ACDBPLACEHOLDER
  2
AcDbPlaceHolder
  3
AutoCAD 2000
 90
        0
280
     0
281
     0
  0
CLASS
  1
LAYOUT
  2
AcDbLayout
  3
AutoCAD 2000
 90
        0
280
     0
281
     0
  0
CLASS
  1
DICTIONARYVAR
  2
AcDbDictionaryVar
  3
AutoCAD 2000
 90
        0
280
     0
281
     0
  0
ENDSEC
  0
SECTION
  2
TABLES
  0
TABLE
  2
VPORT
  5
155A2
330
0
100
AcDbSymbolTable
 70
     2
  0
VPORT
  5
15A16
330
155A2
100
AcDbSymbolTableRecord
100
AcDbViewportTableRecord
  2
*Active
 70
     0
 10
0.0
 20
0.0
 11
1.0
 21
1.0
 12
8408.331337953367
 22
5702.983730997637
 13
0.0
 23
0.0
 14
1.0
 24
1.0
 15
0.0
 25
0.0
 16
0.0
 26
0.0
 36
1.0
 17
0.0
 27
0.0
 37
0.0
 40
11163.50538397298
 41
1.527918781725888
 42
50.0
 43
0.0
 44
0.0
 50
0.0
 51
0.0
 71
     0
 72
 10000
 73
     1
 74
     0
 75
     0
 76
     0
 77
     0
 78
     0
281
     0
 65
     1
110
0.0
120
0.0
130
0.0
111
1.0
121
0.0
131
0.0
112
0.0
122
1.0
132
0.0
 79
     0
146
0.0
  0
ENDTAB
  0
TABLE
  2
LTYPE
  5
1559F
330
0
100
AcDbSymbolTable
 70
     6
  0
LTYPE
  5
155AD
330
1559F
100
AcDbSymbolTableRecord
100
AcDbLinetypeTableRecord
  2
ByBlock
 70
     0
  3

 72
    65
 73
     0
 40
0.0
  0
LTYPE
  5
155AE
330
1559F
100
AcDbSymbolTableRecord
100
AcDbLinetypeTableRecord
  2
ByLayer
 70
     0
  3

 72
    65
 73
     0
 40
0.0
  0
LTYPE
  5
155AF
330
1559F
100
AcDbSymbolTableRecord
100
AcDbLinetypeTableRecord
  2
CONTINUOUS
 70
     0
  3
実線
 72
    65
 73
     0
 40
0.0
  0
LTYPE
  5
155BF
330
1559F
100
AcDbSymbolTableRecord
100
AcDbLinetypeTableRecord
  2
1PL-M
 70
     0
  3

 72
    65
 73
     4
 40
15.0
 49
12.0
 74
     0
 49
-1.0
 74
     0
 49
1.0
 74
     0
 49
-1.0
 74
     0
  0
LTYPE
  5
155C0
330
1559F
100
AcDbSymbolTableRecord
100
AcDbLinetypeTableRecord
  2
2PL-M
 70
     0
  3

 72
    65
 73
     6
 40
17.0
 49
12.0
 74
     0
 49
-1.0
 74
     0
 49
1.0
 74
     0
 49
-1.0
 74
     0
 49
1.0
 74
     0
 49
-1.0
 74
     0
  0
LTYPE
  5
155C1
330
1559F
100
AcDbSymbolTableRecord
100
AcDbLinetypeTableRecord
  2
1PL-12
 70
     0
  3

 72
    65
 73
     4
 40
15.0
 49
12.0
 74
     0
 49
-1.0
 74
     0
 49
1.0
 74
     0
 49
-1.0
 74
     0
  0
LTYPE
  5
155C2
330
1559F
100
AcDbSymbolTableRecord
100
AcDbLinetypeTableRecord
  2
KAKURE-1
 70
     0
  3

 72
    65
 73
     2
 40
2.0
 49
1.0
 74
     0
 49
-1.0
 74
     0
  0
LTYPE
  5
155C3
330
1559F
100
AcDbSymbolTableRecord
100
AcDbLinetypeTableRecord
  2
2PL-12
 70
     0
  3

 72
    65
 73
     6
 40
17.0
 49
12.0
 74
     0
 49
-1.0
 74
     0
 49
1.0
 74
     0
 49
-1.0
 74
     0
 49
1.0
 74
     0
 49
-1.0
 74
     0
  0
ENDTAB
  0
TABLE
  2
LAYER
  5
1559C
330
0
100
AcDbSymbolTable
 70
    21
  0
LAYER
  5
155AA
330
1559C
100
AcDbSymbolTableRecord
100
AcDbLayerTableRecord
  2
0
 70
     0
 62
     7
  6
CONTINUOUS
370
    -3
390
155A9
  0
LAYER
  5
155BC
330
1559C
100
AcDbSymbolTableRecord
100
AcDbLayerTableRecord
  2
SUNPOU
 70
     0
 62
     4
  6
CONTINUOUS
370
    -3
390
155A9
  0
LAYER
  5
155C4
330
1559C
100
AcDbSymbolTableRecord
100
AcDbLayerTableRecord
  2
HIKIDASHI
 70
     0
 62
     6
  6
CONTINUOUS
370
    -3
390
155A9
  0
LAYER
  5
155C5
330
1559C
100
AcDbSymbolTableRecord
100
AcDbLayerTableRecord
  2
1PL-M1
 70
     0
 62
     6
  6
1PL-M
370
    -3
390
155A9
  0
LAYER
  5
155C6
330
1559C
100
AcDbSymbolTableRecord
100
AcDbLayerTableRecord
  2
NAME
 70
     0
 62
    20
  6
CONTINUOUS
370
    -3
390
155A9
  0
LAYER
  5
155C7
330
1559C
100
AcDbSymbolTableRecord
100
AcDbLayerTableRecord
  2
FILENAME
 70
     0
 62
     7
  6
CONTINUOUS
370
    -3
390
155A9
  0
LAYER
  5
155C8
330
1559C
100
AcDbSymbolTableRecord
100
AcDbLayerTableRecord
  2
KISO
 70
     0
 62
     2
  6
CONTINUOUS
370
    -3
390
155A9
  0
LAYER
  5
155C9
330
1559C
100
AcDbSymbolTableRecord
100
AcDbLayerTableRecord
  2
YANE
 70
     0
 62
     1
  6
1PL-12
370
    -3
390
155A9
  0
LAYER
  5
155CA
330
1559C
100
AcDbSymbolTableRecord
100
AcDbLayerTableRecord
  2
HATCH
 70
     0
 62
     1
  6
CONTINUOUS
370
    -3
390
155A9
  0
LAYER
  5
155CB
330
1559C
100
AcDbSymbolTableRecord
100
AcDbLayerTableRecord
  2
DOMAKON
 70
     0
 62
     2
  6
CONTINUOUS
370
    -3
390
155A9
  0
LAYER
  5
155CC
330
1559C
100
AcDbSymbolTableRecord
100
AcDbLayerTableRecord
  2
KISO-1
 70
     0
 62
     6
  6
2PL-12
370
    -3
390
155A9
  0
LAYER
  5
155CD
330
1559C
100
AcDbSymbolTableRecord
100
AcDbLayerTableRecord
  2
KISO-2
 70
     0
 62
     1
  6
KAKURE-1
370
    -3
390
155A9
  0
LAYER
  5
155CE
330
1559C
100
AcDbSymbolTableRecord
100
AcDbLayerTableRecord
  2
SIN
 70
     0
 62
     6
  6
1PL-12
370
    -3
390
155A9
  0
LAYER
  5
155CF
330
1559C
100
AcDbSymbolTableRecord
100
AcDbLayerTableRecord
  2
AQU_HOKYOU
 70
     0
 62
     2
  6
CONTINUOUS
370
    -3
390
155A9
  0
LAYER
  5
155D0
330
1559C
100
AcDbSymbolTableRecord
100
AcDbLayerTableRecord
  2
CF-101
 70
     0
 62
     3
  6
CONTINUOUS
370
    -3
390
155A9
  0
LAYER
  5
155D1
330
1559C
100
AcDbSymbolTableRecord
100
AcDbLayerTableRecord
  2
KIN
 70
     0
 62
     7
  6
CONTINUOUS
370
    -3
390
155A9
  0
LAYER
  5
155D2
330
1559C
100
AcDbSymbolTableRecord
100
AcDbLayerTableRecord
  2
KIN-T
 70
     0
 62
     3
  6
CONTINUOUS
370
    -3
390
155A9
  0
LAYER
  5
155D3
330
1559C
100
AcDbSymbolTableRecord
100
AcDbLayerTableRecord
  2
YODOROGO
 70
     0
 62
   130
  6
CONTINUOUS
370
    -3
390
155A9
  0
LAYER
  5
155D4
330
1559C
100
AcDbSymbolTableRecord
100
AcDbLayerTableRecord
  2
WAKUSEN-01
 70
     0
 62
    50
  6
CONTINUOUS
370
    -3
390
155A9
  0
LAYER
  5
155D5
330
1559C
100
AcDbSymbolTableRecord
100
AcDbLayerTableRecord
  2
WAKUSEN-02
 70
     0
 62
   130
  6
CONTINUOUS
370
    -3
390
155A9
  0
LAYER
  5
155D6
330
1559C
100
AcDbSymbolTableRecord
100
AcDbLayerTableRecord
  2
WAKUMOJI-01
 70
     0
 62
   130
  6
CONTINUOUS
370
    -3
390
155A9
  0
ENDTAB
  0
TABLE
  2
STYLE
  5
1559D
330
0
100
AcDbSymbolTable
 70
     5
  0
STYLE
  5
155AB
330
1559D
100
AcDbSymbolTableRecord
100
AcDbTextStyleTableRecord
  2
STANDARD
 70
     0
 40
3.0
 41
1.0
 50
0.0
 71
     0
 42
0.2
  3
ROMANS
  4
EXTFONT
  0
STYLE
  5
155BD
330
1559D
100
AcDbSymbolTableRecord
100
AcDbTextStyleTableRecord
  2
00
 70
     0
 40
0.0
 41
0.6666666666666666
 50
0.0
 71
     0
 42
0.2
  3
ROMANS
  4
BIGFONT
  0
STYLE
  5
155D7
330
1559D
100
AcDbSymbolTableRecord
100
AcDbTextStyleTableRecord
  2
01
 70
     0
 40
3.0
 41
1.0
 50
0.0
 71
     0
 42
0.2
  3
ROMANS
  4
BIGFONT
  0
STYLE
  5
155D8
330
1559D
100
AcDbSymbolTableRecord
100
AcDbTextStyleTableRecord
  2
WAKUMOJI
 70
     0
 40
3.0
 41
1.0
 50
0.0
 71
     0
 42
3.0
  3
SIMPLEX
  4
BIGFONT
  0
STYLE
  5
155D9
330
1559D
100
AcDbSymbolTableRecord
100
AcDbTextStyleTableRecord
  2
FILENAME
 70
     0
 40
100.0
 41
1.0
 50
0.0
 71
     0
 42
100.0
  3
romans
  4
bigfont
  0
ENDTAB
  0
TABLE
  2
VIEW
  5
155A0
330
0
100
AcDbSymbolTable
 70
     0
  0
ENDTAB
  0
TABLE
  2
UCS
  5
155A1
330
0
100
AcDbSymbolTable
 70
     0
  0
ENDTAB
  0
TABLE
  2
APPID
  5
155A3
330
0
100
AcDbSymbolTable
 70
     3
  0
APPID
  5
155AC
330
155A3
100
AcDbSymbolTableRecord
100
AcDbRegAppTableRecord
  2
ACAD
 70
     0
  0
APPID
  5
155DA
330
155A3
100
AcDbSymbolTableRecord
100
AcDbRegAppTableRecord
  2
AUTOCAD_POSTSCRIPT_FIGURE
 70
     0
  0
APPID
  5
155DB
330
155A3
100
AcDbSymbolTableRecord
100
AcDbRegAppTableRecord
  2
ACAD_PSEXT
 70
     0
  0
ENDTAB
  0
TABLE
  2
DIMSTYLE
  5
155A4
330
0
100
AcDbSymbolTable
 70
     1
100
AcDbDimStyleTable
 71
     0
  0
DIMSTYLE
105
155DC
330
155A4
100
AcDbSymbolTableRecord
100
AcDbDimStyleTableRecord
  2
SUNPOU_図面名
 70
     0
 40
40.0
 41
0.5
 42
1.0
 43
7.0
 44
1.125
 46
3.0
 73
     0
 74
     0
 77
     1
 78
     8
140
2.25
141
0.0
147
1.125
172
     1
173
     1
176
   256
177
   256
178
   256
271
     2
272
     2
279
     2
284
     8
285
     8
286
     8
340
155BD
  0
ENDTAB
  0
TABLE
  2
BLOCK_RECORD
  5
1559B
330
0
100
AcDbSymbolTable
 70
    22
  0
BLOCK_RECORD
  5
155B8
330
1559B
100
AcDbSymbolTableRecord
100
AcDbBlockTableRecord
  2
*Model_Space
340
155BB
  0
BLOCK_RECORD
  5
155B4
330
1559B
100
AcDbSymbolTableRecord
100
AcDbBlockTableRecord
  2
*Paper_Space
340
155B7
  0
BLOCK_RECORD
  5
155E1
330
1559B
100
AcDbSymbolTableRecord
100
AcDbBlockTableRecord
  2
$MODEL_SPACE
340
0
  0
BLOCK_RECORD
  5
155E4
330
1559B
100
AcDbSymbolTableRecord
100
AcDbBlockTableRecord
  2
$PAPER_SPACE
340
0
  0
BLOCK_RECORD
  5
155E7
330
1559B
100
AcDbSymbolTableRecord
100
AcDbBlockTableRecord
  2
DOT
340
0
  0
BLOCK_RECORD
  5
155EF
330
1559B
100
AcDbSymbolTableRecord
100
AcDbBlockTableRecord
  2
*U3
340
0
  0
BLOCK_RECORD
  5
155F3
330
1559B
100
AcDbSymbolTableRecord
100
AcDbBlockTableRecord
  2
*U4
340
0
  0
BLOCK_RECORD
  5
155F7
330
1559B
100
AcDbSymbolTableRecord
100
AcDbBlockTableRecord
  2
*U5
340
0
  0
BLOCK_RECORD
  5
155FB
330
1559B
100
AcDbSymbolTableRecord
100
AcDbBlockTableRecord
  2
*U6
340
0
  0
BLOCK_RECORD
  5
155FF
330
1559B
100
AcDbSymbolTableRecord
100
AcDbBlockTableRecord
  2
*U7
340
0
  0
BLOCK_RECORD
  5
15603
330
1559B
100
AcDbSymbolTableRecord
100
AcDbBlockTableRecord
  2
*U8
340
0
  0
BLOCK_RECORD
  5
15607
330
1559B
100
AcDbSymbolTableRecord
100
AcDbBlockTableRecord
  2
*U9
340
0
  0
BLOCK_RECORD
  5
1560B
330
1559B
100
AcDbSymbolTableRecord
100
AcDbBlockTableRecord
  2
*U10
340
0
  0
BLOCK_RECORD
  5
1560F
330
1559B
100
AcDbSymbolTableRecord
100
AcDbBlockTableRecord
  2
*U11
340
0
  0
BLOCK_RECORD
  5
15613
330
1559B
100
AcDbSymbolTableRecord
100
AcDbBlockTableRecord
  2
*U12
340
0
  0
BLOCK_RECORD
  5
15617
330
1559B
100
AcDbSymbolTableRecord
100
AcDbBlockTableRecord
  2
*U13
340
0
  0
BLOCK_RECORD
  5
1561B
330
1559B
100
AcDbSymbolTableRecord
100
AcDbBlockTableRecord
  2
*U14
340
0
  0
BLOCK_RECORD
  5
1561F
330
1559B
100
AcDbSymbolTableRecord
100
AcDbBlockTableRecord
  2
*U15
340
0
  0
BLOCK_RECORD
  5
15623
330
1559B
100
AcDbSymbolTableRecord
100
AcDbBlockTableRecord
  2
*U16
340
0
  0
BLOCK_RECORD
  5
15627
330
1559B
100
AcDbSymbolTableRecord
100
AcDbBlockTableRecord
  2
*U17
340
0
  0
BLOCK_RECORD
  5
1562B
330
1559B
100
AcDbSymbolTableRecord
100
AcDbBlockTableRecord
  2
*U18
340
0
  0
BLOCK_RECORD
  5
1562F
330
1559B
100
AcDbSymbolTableRecord
100
AcDbBlockTableRecord
  2
*U19
340
0
  0
BLOCK_RECORD
  5
15633
330
1559B
100
AcDbSymbolTableRecord
100
AcDbBlockTableRecord
  2
*U20
340
0
  0
ENDTAB
  0
ENDSEC
  0
SECTION
  2
BLOCKS
  0
BLOCK
  5
155B9
330
155B8
100
AcDbEntity
  8
0
100
AcDbBlockBegin
  2
*Model_Space
 70
     0
 10
0.0
 20
0.0
 30
0.0
  3
*Model_Space
  1

  0
ENDBLK
  5
155BA
330
155B8
100
AcDbEntity
  8
0
100
AcDbBlockEnd
  0
BLOCK
  5
155B5
330
155B4
100
AcDbEntity
 67
     1
  8
0
100
AcDbBlockBegin
  2
*Paper_Space
 70
     0
 10
0.0
 20
0.0
 30
0.0
  3
*Paper_Space
  1

  0
ENDBLK
  5
155B6
330
155B4
100
AcDbEntity
 67
     1
  8
0
100
AcDbBlockEnd
  0
BLOCK
  5
155E2
330
155E1
100
AcDbEntity
  8
0
100
AcDbBlockBegin
  2
$MODEL_SPACE
 70
     0
 10
0.0
 20
0.0
 30
0.0
  3
$MODEL_SPACE
  1

  0
ENDBLK
  5
155E3
330
155E1
100
AcDbEntity
  8
0
100
AcDbBlockEnd
  0
BLOCK
  5
155E5
330
155E4
100
AcDbEntity
  8
0
100
AcDbBlockBegin
  2
$PAPER_SPACE
 70
     0
 10
0.0
 20
0.0
 30
0.0
  3
$PAPER_SPACE
  1

  0
ENDBLK
  5
155E6
330
155E4
100
AcDbEntity
  8
0
100
AcDbBlockEnd
  0
BLOCK
  5
155E8
330
155E7
100
AcDbEntity
  8
0
100
AcDbBlockBegin
  2
DOT
 70
     0
 10
0.0
 20
0.0
 30
0.0
  3
DOT
  1

  0
LWPOLYLINE
  5
155E9
330
155E7
100
AcDbEntity
  8
0
  6
ByBlock
 62
     0
100
AcDbPolyline
 90
        2
 70
     1
 43
0.75
 10
-0.375
 20
0.0
 42
1.0
 10
0.375
 20
0.0
 42
1.0
  0
LINE
  5
155ED
330
155E7
100
AcDbEntity
  8
0
  6
ByBlock
 62
     0
100
AcDbLine
 10
-0.75
 20
0.0
 30
0.0
 11
-1.5
 21
0.0
 31
0.0
  0
ENDBLK
  5
155EE
330
155E7
100
AcDbEntity
  8
0
100
AcDbBlockEnd
  0
BLOCK
  5
155F0
330
155EF
100
AcDbEntity
  8
0
100
AcDbBlockBegin
  2
*U3
 70
     1
 10
0.0
 20
0.0
 30
0.0
  3
*U3
  1

  0
TEXT
  5
155F1
330
155EF
100
AcDbEntity
  8
SUNPOU
100
AcDbText
 10
6290.58306842693
 20
3390.575846379987
 30
0.0
 40
90.0
  1
600
 50
90.0
 41
0.6666666666666666
  7
00
100
AcDbText
  0
ENDBLK
  5
155F2
330
155EF
100
AcDbEntity
  8
0
100
AcDbBlockEnd
  0
BLOCK
  5
155F4
330
155F3
100
AcDbEntity
  8
0
100
AcDbBlockBegin
  2
*U4
 70
     1
 10
0.0
 20
0.0
 30
0.0
  3
*U4
  1

  0
TEXT
  5
155F5
330
155F3
100
AcDbEntity
  8
SUNPOU
100
AcDbText
 10
6080.58306842693
 20
3472.004417808559
 30
0.0
 40
90.0
  1
500
 50
90.0
 41
0.6666666666666666
  7
00
100
AcDbText
  0
ENDBLK
  5
155F6
330
155F3
100
AcDbEntity
  8
0
100
AcDbBlockEnd
  0
BLOCK
  5
155F8
330
155F7
100
AcDbEntity
  8
0
100
AcDbBlockBegin
  2
*U5
 70
     1
 10
0.0
 20
0.0
 30
0.0
  3
*U5
  1

  0
TEXT
  5
155F9
330
155F7
100
AcDbEntity
  8
SUNPOU
100
AcDbText
 10
6324.127507899647
 20
8877.978896718046
 30
0.0
 40
90.0
  1
240
 50
90.0
 41
0.6666666666666666
  7
00
100
AcDbText
  0
ENDBLK
  5
155FA
330
155F7
100
AcDbEntity
  8
0
100
AcDbBlockEnd
  0
BLOCK
  5
155FC
330
155FB
100
AcDbEntity
  8
0
100
AcDbBlockBegin
  2
*U6
 70
     1
 10
0.0
 20
0.0
 30
0.0
  3
*U6
  1

  0
TEXT
  5
155FD
330
155FB
100
AcDbEntity
  8
SUNPOU
100
AcDbText
 10
6324.127507899647
 20
7729.407468146617
 30
0.0
 40
90.0
  1
2000
 50
90.0
 41
0.6666666666666666
  7
00
100
AcDbText
  0
ENDBLK
  5
155FE
330
155FB
100
AcDbEntity
  8
0
100
AcDbBlockEnd
  0
BLOCK
  5
15600
330
155FF
100
AcDbEntity
  8
0
100
AcDbBlockBegin
  2
*U7
 70
     1
 10
0.0
 20
0.0
 30
0.0
  3
*U7
  1

  0
TEXT
  5
15601
330
155FF
100
AcDbEntity
  8
SUNPOU
100
AcDbText
 10
6933.413222185362
 20
6438.693182432328
 30
0.0
 40
90.0
  1
400
 41
0.6666666666666666
  7
00
100
AcDbText
  0
ENDBLK
  5
15602
330
155FF
100
AcDbEntity
  8
0
100
AcDbBlockEnd
  0
BLOCK
  5
15604
330
15603
100
AcDbEntity
  8
0
100
AcDbBlockBegin
  2
*U8
 70
     1
 10
0.0
 20
0.0
 30
0.0
  3
*U8
  1

  0
TEXT
  5
15605
330
15603
100
AcDbEntity
  8
SUNPOU
100
AcDbText
 10
10424.12750789964
 20
8907.978896718045
 30
0.0
 40
90.0
  1
300
 50
90.0
 41
0.6666666666666666
  7
00
100
AcDbText
  0
ENDBLK
  5
15606
330
15603
100
AcDbEntity
  8
0
100
AcDbBlockEnd
  0
BLOCK
  5
15608
330
15607
100
AcDbEntity
  8
0
100
AcDbBlockBegin
  2
*U9
 70
     1
 10
0.0
 20
0.0
 30
0.0
  3
*U9
  1

  0
TEXT
  5
15609
330
15607
100
AcDbEntity
  8
SUNPOU
100
AcDbText
 10
10424.12750789964
 20
8332.978896718044
 30
0.0
 40
90.0
  1
850
 50
90.0
 41
0.6666666666666666
  7
00
100
AcDbText
  0
ENDBLK
  5
1560A
330
15607
100
AcDbEntity
  8
0
100
AcDbBlockEnd
  0
BLOCK
  5
1560C
330
1560B
100
AcDbEntity
  8
0
100
AcDbBlockBegin
  2
*U10
 70
     1
 10
0.0
 20
0.0
 30
0.0
  3
*U10
  1

  0
TEXT
  5
1560D
330
1560B
100
AcDbEntity
  8
SUNPOU
100
AcDbText
 10
10634.12750789964
 20
8450.121753860905
 30
0.0
 40
90.0
  1
1150
 50
90.0
 41
0.6666666666666666
  7
00
100
AcDbText
  0
ENDBLK
  5
1560E
330
1560B
100
AcDbEntity
  8
0
100
AcDbBlockEnd
  0
BLOCK
  5
15610
330
1560F
100
AcDbEntity
  8
0
100
AcDbBlockBegin
  2
*U11
 70
     1
 10
0.0
 20
0.0
 30
0.0
  3
*U11
  1

  0
TEXT
  5
15611
330
1560F
100
AcDbEntity
  8
SUNPOU
100
AcDbText
 10
9533.413222185359
 20
9488.693182432331
 30
0.0
 40
90.0
  1
800
 41
0.6666666666666666
  7
00
100
AcDbText
  0
ENDBLK
  5
15612
330
1560F
100
AcDbEntity
  8
0
100
AcDbBlockEnd
  0
BLOCK
  5
15614
330
15613
100
AcDbEntity
  8
0
100
AcDbBlockBegin
  2
*U12
 70
     1
 10
0.0
 20
0.0
 30
0.0
  3
*U12
  1

  0
TEXT
  5
15615
330
15613
100
AcDbEntity
  8
SUNPOU
100
AcDbText
 10
9733.41322218536
 20
6438.693182432328
 30
0.0
 40
90.0
  1
400
 41
0.6666666666666666
  7
00
100
AcDbText
  0
ENDBLK
  5
15616
330
15613
100
AcDbEntity
  8
0
100
AcDbBlockEnd
  0
BLOCK
  5
15618
330
15617
100
AcDbEntity
  8
0
100
AcDbBlockBegin
  2
*U13
 70
     1
 10
0.0
 20
0.0
 30
0.0
  3
*U13
  1

  0
TEXT
  5
15619
330
15617
100
AcDbEntity
  8
SUNPOU
100
AcDbText
 10
8304.841793613935
 20
6438.693182432328
 30
0.0
 40
90.0
  1
2400
 41
0.6666666666666666
  7
00
100
AcDbText
  0
ENDBLK
  5
1561A
330
15617
100
AcDbEntity
  8
0
100
AcDbBlockEnd
  0
BLOCK
  5
1561C
330
1561B
100
AcDbEntity
  8
0
100
AcDbBlockBegin
  2
*U14
 70
     1
 10
0.0
 20
0.0
 30
0.0
  3
*U14
  1

  0
TEXT
  5
1561D
330
1561B
100
AcDbEntity
  8
SUNPOU
100
AcDbText
 10
8517.532477756718
 20
2293.731788496597
 30
0.0
 40
90.0
  1
1150
 41
0.6666666666666666
  7
00
100
AcDbText
  0
ENDBLK
  5
1561E
330
1561B
100
AcDbEntity
  8
0
100
AcDbBlockEnd
  0
BLOCK
  5
15620
330
1561F
100
AcDbEntity
  8
0
100
AcDbBlockBegin
  2
*U15
 70
     1
 10
0.0
 20
0.0
 30
0.0
  3
*U15
  1

  0
TEXT
  5
15621
330
1561F
100
AcDbEntity
  8
SUNPOU
100
AcDbText
 10
10171.96981489397
 20
3293.45219862106
 30
0.0
 40
90.0
  1
800
 50
90.0
 41
0.6666666666666666
  7
00
100
AcDbText
  0
ENDBLK
  5
15622
330
1561F
100
AcDbEntity
  8
0
100
AcDbBlockEnd
  0
BLOCK
  5
15624
330
15623
100
AcDbEntity
  8
0
100
AcDbBlockBegin
  2
*U16
 70
     1
 10
0.0
 20
0.0
 30
0.0
  3
*U16
  1

  0
TEXT
  5
15625
330
15623
100
AcDbEntity
  8
SUNPOU
100
AcDbText
 10
5158.290800872318
 20
2503.731788496597
 30
0.0
 40
90.0
  1
300
 41
0.6666666666666666
  7
00
100
AcDbText
  0
ENDBLK
  5
15626
330
15623
100
AcDbEntity
  8
0
100
AcDbBlockEnd
  0
BLOCK
  5
15628
330
15627
100
AcDbEntity
  8
0
100
AcDbBlockBegin
  2
*U17
 70
     1
 10
0.0
 20
0.0
 30
0.0
  3
*U17
  1

  0
TEXT
  5
15629
330
15627
100
AcDbEntity
  8
SUNPOU
100
AcDbText
 10
4238.290800872317
 20
2503.731788496597
 30
0.0
 40
90.0
  1
850
 41
0.6666666666666666
  7
00
100
AcDbText
  0
ENDBLK
  5
1562A
330
15627
100
AcDbEntity
  8
0
100
AcDbBlockEnd
  0
BLOCK
  5
1562C
330
1562B
100
AcDbEntity
  8
0
100
AcDbBlockBegin
  2
*U18
 70
     1
 10
0.0
 20
0.0
 30
0.0
  3
*U18
  1

  0
TEXT
  5
1562D
330
1562B
100
AcDbEntity
  8
SUNPOU
100
AcDbText
 10
4445.433658015176
 20
2293.731788496597
 30
0.0
 40
90.0
  1
1150
 41
0.6666666666666666
  7
00
100
AcDbText
  0
ENDBLK
  5
1562E
330
1562B
100
AcDbEntity
  8
0
100
AcDbBlockEnd
  0
BLOCK
  5
15630
330
1562F
100
AcDbEntity
  8
0
100
AcDbBlockBegin
  2
*U19
 70
     1
 10
0.0
 20
0.0
 30
0.0
  3
*U19
  1

  0
TEXT
  5
15631
330
1562F
100
AcDbEntity
  8
SUNPOU
100
AcDbText
 10
6290.58306842693
 20
2609.861560665699
 30
0.0
 40
90.0
  1
100
 50
90.0
 41
0.6666666666666666
  7
00
100
AcDbText
  0
ENDBLK
  5
15632
330
1562F
100
AcDbEntity
  8
0
100
AcDbBlockEnd
  0
BLOCK
  5
15634
330
15633
100
AcDbEntity
  8
0
100
AcDbBlockBegin
  2
*U20
 70
     1
 10
0.0
 20
0.0
 30
0.0
  3
*U20
  1

  0
TEXT
  5
15635
330
15633
100
AcDbEntity
  8
SUNPOU
100
AcDbText
 10
8304.841793613935
 20
6228.693182432328
 30
0.0
 40
90.0
  1
3200
 41
0.6666666666666666
  7
00
100
AcDbText
  0
ENDBLK
  5
15636
330
15633
100
AcDbEntity
  8
0
100
AcDbBlockEnd
  0
ENDSEC
  0
SECTION
  2
ENTITIES
  0
TEXT
  5
15637
330
155B8
100
AcDbEntity
  8
HIKIDASHI
100
AcDbText
 10
7437.050177551384
 20
5782.138246625836
 30
0.0
 40
135.0
  1
基 礎 平 面 図　縮尺
  7
01
 72
     4
 11
8229.050177551384
 21
5849.638246625836
 31
0.0
100
AcDbText
  0
LINE
  5
15638
330
155B8
100
AcDbEntity
  8
KISO-1
100
AcDbLine
 10
7619.127507899648
 20
9143.693182432331
 30
0.0
 11
6819.127507899647
 21
9143.693182432331
 31
0.0
  0
LINE
  5
15639
330
155B8
100
AcDbEntity
  8
KISO-1
100
AcDbLine
 10
6819.127507899647
 20
7993.69318243233
 30
0.0
 11
7619.127507899648
 21
7993.69318243233
 31
0.0
  0
TEXT
  5
1563A
330
155B8
100
AcDbEntity
  8
HIKIDASHI
100
AcDbText
 10
6774.127507899644
 20
6928.168187707528
 30
0.0
 40
90.0
  1
（土間コン側面位置）
 50
90.0
  7
01
100
AcDbText
  0
LINE
  5
1563B
330
155B8
100
AcDbEntity
  8
KISO-1
100
AcDbLine
 10
6819.127507899647
 20
9143.693182432331
 30
0.0
 11
6819.127507899647
 21
9083.693182432327
 31
0.0
  0
TEXT
  5
1563C
330
155B8
100
AcDbEntity
  8
HIKIDASHI
100
AcDbText
 10
7908.666308047364
 20
9128.693182432334
 30
0.0
 40
90.0
  1
（土間コン後面位置）
  7
01
100
AcDbText
  0
LINE
  5
1563D
330
155B8
100
AcDbEntity
  8
SIN
100
AcDbLine
 10
7219.127507899648
 20
9210.693182432331
 30
0.0
 11
7219.127507899648
 21
7926.693182432328
 31
0.0
  0
TEXT
  5
1563E
330
155B8
100
AcDbEntity
  8
HIKIDASHI
100
AcDbText
 10
7132.326854848416
 20
7036.814277369064
 30
0.0
 40
90.0
  1
（ケラバ外面）
 50
90.0
  7
01
100
AcDbText
  0
TEXT
  5
1563F
330
155B8
100
AcDbEntity
  8
HIKIDASHI
100
AcDbText
 10
7926.575500939491
 20
6708.693182432321
 30
0.0
 40
90.0
  1
（土間コン前面位置）
  7
01
100
AcDbText
  0
TEXT
  5
15640
330
155B8
100
AcDbEntity
  8
HIKIDASHI
100
AcDbText
 10
8035.221590601031
 20
7000.143910050988
 30
0.0
 40
90.0
  1
（鼻隠し外面）
  7
01
100
AcDbText
  0
LINE
  5
15641
330
155B8
100
AcDbEntity
  8
KISO-1
100
AcDbLine
 10
7619.127507899648
 20
7993.69318243233
 30
0.0
 11
7619.127507899648
 21
9143.693182432331
 31
0.0
  0
CIRCLE
  5
15642
330
155B8
100
AcDbEntity
  8
KISO-2
100
AcDbCircle
 10
7219.127507899648
 20
8843.69318243233
 30
0.0
 40
44.55
  0
LINE
  5
15643
330
155B8
100
AcDbEntity
  8
SIN
100
AcDbLine
 10
7338.67750789965
 20
8843.69318243233
 30
0.0
 11
7099.57750789965
 21
8843.69318243233
 31
0.0
  0
TEXT
  5
15644
330
155B8
100
AcDbEntity
  8
HIKIDASHI
100
AcDbText
 10
8017.312397708899
 20
8837.242454813669
 30
0.0
 40
90.0
  1
（屋根後面位置）
  7
01
100
AcDbText
  0
LINE
  5
15645
330
155B8
100
AcDbEntity
  8
HIKIDASHI
100
AcDbLine
 10
9362.771711688244
 20
5917.138246625839
 30
0.0
 11
9227.771711688246
 21
5782.138246625836
 31
0.0
  0
TEXT
  5
15646
330
155B8
100
AcDbEntity
  8
HIKIDASHI
100
AcDbText
 10
9083.536143415292
 20
5791.781103768693
 30
0.0
 40
135.0
  1
=
 41
0.6666666666666666
  7
00
 72
     4
 11
9139.250429129578
 21
5849.638246625836
 31
0.0
100
AcDbText
  0
TEXT
  5
15647
330
155B8
100
AcDbEntity
  8
HIKIDASHI
100
AcDbText
 10
9313.923774851756
 20
5782.138246625838
 30
0.0
 40
67.5
  1
40
 41
0.6666666666666666
  7
00
 72
     4
 11
9356.780917708901
 21
5815.888246625839
 31
0.0
100
AcDbText
  0
TEXT
  5
15648
330
155B8
100
AcDbEntity
  8
HIKIDASHI
100
AcDbText
 10
9230.181807712936
 20
5849.552103177039
 30
0.0
 40
67.5
  1
1
 41
0.6666666666666666
  7
00
 72
     4
 11
9248.396093427222
 21
5883.302103177039
 31
0.0
100
AcDbText
  0
LINE
  5
15649
330
155B8
100
AcDbEntity
  8
HIKIDASHI
100
AcDbLine
 10
9686.161227501166
 20
8923.925239220036
 30
0.0
 11
10120.4262826192
 21
9443.693182432332
 31
0.0
  0
LINE
  5
1564A
330
155B8
100
AcDbEntity
  8
SIN
100
AcDbLine
 10
9619.127507899648
 20
9210.693182432331
 30
0.0
 11
9619.127507899648
 21
7926.693182432328
 31
0.0
  0
TEXT
  5
1564B
330
155B8
100
AcDbEntity
  8
HIKIDASHI
100
AcDbText
 10
9795.928160950884
 20
7036.814277369064
 30
0.0
 40
90.0
  1
（ケラバ外面）
 50
90.0
  7
01
100
AcDbText
  0
LINE
  5
1564C
330
155B8
100
AcDbEntity
  8
KISO-1
100
AcDbLine
 10
9219.127507899647
 20
7993.69318243233
 30
0.0
 11
9219.127507899647
 21
9143.693182432331
 31
0.0
  0
LINE
  5
1564D
330
155B8
100
AcDbEntity
  8
KISO-1
100
AcDbLine
 10
10019.12750789964
 20
7993.69318243233
 30
0.0
 11
9219.127507899647
 21
7993.69318243233
 31
0.0
  0
LINE
  5
1564E
330
155B8
100
AcDbEntity
  8
KISO-1
100
AcDbLine
 10
9219.127507899647
 20
9143.693182432331
 30
0.0
 11
10019.12750789964
 21
9143.693182432331
 31
0.0
  0
LINE
  5
1564F
330
155B8
100
AcDbEntity
  8
SIN
100
AcDbLine
 10
9738.67750789965
 20
8843.69318243233
 30
0.0
 11
9499.577507899649
 21
8843.69318243233
 31
0.0
  0
CIRCLE
  5
15650
330
155B8
100
AcDbEntity
  8
KISO-2
100
AcDbCircle
 10
9619.127507899648
 20
8843.69318243233
 30
0.0
 40
44.55
  0
LINE
  5
15651
330
155B8
100
AcDbEntity
  8
KISO-1
100
AcDbLine
 10
10019.12750789964
 20
9143.693182432331
 30
0.0
 11
10019.12750789964
 21
9083.693182432327
 31
0.0
  0
TEXT
  5
15652
330
155B8
100
AcDbEntity
  8
HIKIDASHI
100
AcDbText
 10
10154.12750789964
 20
6928.168187707528
 30
0.0
 40
90.0
  1
（土間コン側面位置）
 50
90.0
  7
01
100
AcDbText
  0
TEXT
  5
15653
330
155B8
100
AcDbEntity
  8
HIKIDASHI
100
AcDbText
 10
10130.4262826192
 20
9488.693182432324
 30
0.0
 40
90.0
  1
柱
  7
01
100
AcDbText
  0
LINE
  5
15654
330
155B8
100
AcDbEntity
  8
HIKIDASHI
100
AcDbLine
 10
10120.4262826192
 20
9443.693182432332
 30
0.0
 11
10236.11139086725
 21
9443.693182432332
 31
0.0
  0
LINE
  5
15655
330
155B8
100
AcDbEntity
  8
SUNPOU
100
AcDbLine
 10
9496.763321353304
 20
9306.243960487019
 30
0.0
 11
9619.127507899644
 21
9306.243960487019
 31
0.0
  0
LINE
  5
15656
330
155B8
100
AcDbEntity
  8
SUNPOU
100
AcDbLine
 10
9619.127507899644
 20
9306.243960487019
 30
0.0
 11
9619.127507899644
 21
9203.693182432331
 31
0.0
  0
TEXT
  5
15657
330
155B8
100
AcDbEntity
  8
SUNPOU
100
AcDbText
 10
9280.870464210446
 20
9252.672531915591
 30
0.0
 40
90.0
  1
A'
 41
0.6700000000000001
  7
00
 72
     4
 11
9316.763321353302
 21
9306.243960487019
 31
0.0
100
AcDbText
  0
LINE
  5
15658
330
155B8
100
AcDbEntity
  8
SUNPOU
100
AcDbLine
 10
9496.763321353304
 20
7831.142404377641
 30
0.0
 11
9619.127507899644
 21
7831.142404377641
 31
0.0
  0
TEXT
  5
15659
330
155B8
100
AcDbEntity
  8
SUNPOU
100
AcDbText
 10
9290.920464210445
 20
7786.142404377635
 30
0.0
 40
90.0
  1
A
 41
0.6700000000000001
  7
00
 72
     4
 11
9316.763321353302
 21
7831.142404377636
 31
0.0
100
AcDbText
  0
LINE
  5
1565A
330
155B8
100
AcDbEntity
  8
SUNPOU
100
AcDbLine
 10
9496.763321353304
 20
7816.142404377635
 30
0.0
 11
9406.763321353299
 21
7831.142404377636
 31
0.0
  0
LINE
  5
1565B
330
155B8
100
AcDbEntity
  8
SUNPOU
100
AcDbLine
 10
9406.763321353299
 20
7831.142404377636
 30
0.0
 11
9496.763321353304
 21
7846.142404377637
 31
0.0
  0
SOLID
  5
1565C
330
155B8
100
AcDbEntity
  8
SUNPOU
100
AcDbTrace
 10
9496.763321353304
 20
7816.142404377635
 30
0.0
 11
9496.763321353304
 21
7846.142404377637
 31
0.0
 12
9406.763321353299
 22
7831.142404377636
 32
0.0
 13
9406.763321353299
 23
7831.142404377636
 33
0.0
  0
LINE
  5
1565D
330
155B8
100
AcDbEntity
  8
SUNPOU
100
AcDbLine
 10
9496.763321353304
 20
7846.142404377637
 30
0.0
 11
9496.763321353304
 21
7816.142404377635
 31
0.0
  0
LINE
  5
1565E
330
155B8
100
AcDbEntity
  8
SUNPOU
100
AcDbLine
 10
9496.763321353304
 20
9321.24396048702
 30
0.0
 11
9406.763321353299
 21
9306.243960487019
 31
0.0
  0
LINE
  5
1565F
330
155B8
100
AcDbEntity
  8
SUNPOU
100
AcDbLine
 10
9406.763321353299
 20
9306.243960487019
 30
0.0
 11
9496.763321353304
 21
9291.243960487021
 31
0.0
  0
SOLID
  5
15660
330
155B8
100
AcDbEntity
  8
SUNPOU
100
AcDbTrace
 10
9496.763321353304
 20
9321.24396048702
 30
0.0
 11
9496.763321353304
 21
9291.243960487021
 31
0.0
 12
9406.763321353299
 22
9306.243960487019
 32
0.0
 13
9406.763321353299
 23
9306.243960487019
 33
0.0
  0
LINE
  5
15661
330
155B8
100
AcDbEntity
  8
SUNPOU
100
AcDbLine
 10
9496.763321353304
 20
9291.243960487021
 30
0.0
 11
9496.763321353304
 21
9321.24396048702
 31
0.0
  0
LINE
  5
15662
330
155B8
100
AcDbEntity
  8
AQU_HOKYOU
100
AcDbLine
 10
5601.09339834117
 20
3858.807015277413
 30
0.0
 11
5718.181710095739
 21
3741.718703522844
 31
0.0
  0
LINE
  5
15663
330
155B8
100
AcDbEntity
  8
AQU_HOKYOU
100
AcDbLine
 10
5484.005086586602
 20
3741.718703522848
 30
0.0
 11
5652.005086586601
 21
3909.718703522845
 31
0.0
  0
LINE
  5
15664
330
155B8
100
AcDbEntity
  8
AQU_HOKYOU
100
AcDbLine
 10
5958.555937625614
 20
3909.718703522846
 30
0.0
 11
5484.005086586602
 21
3909.718703522845
 31
0.0
  0
LINE
  5
15665
330
155B8
100
AcDbEntity
  8
KISO
100
AcDbLine
 10
5644.005086586606
 20
2997.718703522841
 30
0.0
 11
3484.005086586604
 21
2997.718703522841
 31
0.0
  0
LINE
  5
15666
330
155B8
100
AcDbEntity
  8
KISO
100
AcDbLine
 10
3484.005086586604
 20
2837.718703522838
 30
0.0
 11
5644.005086586606
 21
2837.718703522841
 31
0.0
  0
LINE
  5
15667
330
155B8
100
AcDbEntity
  8
HATCH
100
AcDbLine
 10
4124.487510890872
 20
3957.718703522843
 30
0.0
 11
3644.005086586601
 21
3477.236279218566
 31
0.0
  0
LINE
  5
15668
330
155B8
100
AcDbEntity
  8
HATCH
100
AcDbLine
 10
4076.969935195132
 20
3957.718703522843
 30
0.0
 11
3644.005086586601
 21
3524.753854914303
 31
0.0
  0
LINE
  5
15669
330
155B8
100
AcDbEntity
  8
HATCH
100
AcDbLine
 10
4172.005086586607
 20
3957.718703522843
 30
0.0
 11
3644.005086586601
 21
3429.718703522832
 31
0.0
  0
LINE
  5
1566A
330
155B8
100
AcDbEntity
  8
HATCH
100
AcDbLine
 10
4108.005086586585
 20
3029.718703522844
 30
0.0
 11
4076.00508658658
 21
2997.718703522841
 31
0.0
  0
LINE
  5
1566B
330
155B8
100
AcDbEntity
  8
KIN
100
AcDbLine
 10
3756.005086586605
 20
3077.718703522843
 30
0.0
 11
5372.005086586607
 21
3077.718703522844
 31
0.0
  0
LINE
  5
1566C
330
155B8
100
AcDbEntity
  8
HATCH
100
AcDbLine
 10
4604.005086586608
 20
3957.718703522846
 30
0.0
 11
3772.005086586613
 21
3125.718703522844
 31
0.0
  0
LINE
  5
1566D
330
155B8
100
AcDbEntity
  8
HATCH
100
AcDbLine
 10
4556.48751089087
 20
3957.718703522843
 30
0.0
 11
3724.487510890873
 21
3125.718703522844
 31
0.0
  0
LINE
  5
1566E
330
155B8
100
AcDbEntity
  8
HATCH
100
AcDbLine
 10
4651.522662282339
 20
3957.718703522846
 30
0.0
 11
3819.52266228234
 21
3125.718703522843
 31
0.0
  0
LINE
  5
1566F
330
155B8
100
AcDbEntity
  8
KISO
100
AcDbLine
 10
4932.725086586598
 20
3957.718703522846
 30
0.0
 11
3022.21185189781
 21
3957.718703522843
 31
0.0
  0
LINE
  5
15670
330
155B8
100
AcDbEntity
  8
KISO
100
AcDbLine
 10
3644.005086586604
 20
3957.718703522843
 30
0.0
 11
3644.005086586604
 21
2997.718703522841
 31
0.0
  0
LINE
  5
15671
330
155B8
100
AcDbEntity
  8
KISO
100
AcDbLine
 10
3484.005086586604
 20
2837.718703522838
 30
0.0
 11
3484.005086586604
 21
2997.718703522841
 31
0.0
  0
CIRCLE
  5
15672
330
155B8
100
AcDbEntity
  8
KIN
100
AcDbCircle
 10
3756.005086586605
 20
3088.118703522841
 30
0.0
 40
10.4
  0
LINE
  5
15673
330
155B8
100
AcDbEntity
  8
KISO
100
AcDbLine
 10
3022.21185189781
 20
3717.718703522843
 30
0.0
 11
3644.005086586601
 21
3717.718703522844
 31
0.0
  0
LINE
  5
15674
330
155B8
100
AcDbEntity
  8
KISO
100
AcDbLine
 10
3022.21185189781
 20
3813.718703522841
 30
0.0
 11
3644.005086586601
 21
3813.718703522843
 31
0.0
  0
LINE
  5
15675
330
155B8
100
AcDbEntity
  8
CF-101
100
AcDbLine
 10
4932.725086586599
 20
3157.718703522843
 30
0.0
 11
4932.725086586607
 21
4384.918703522841
 31
0.0
  0
LINE
  5
15676
330
155B8
100
AcDbEntity
  8
CF-101
100
AcDbLine
 10
5075.2850865866
 20
3157.718703522843
 30
0.0
 11
5075.285086586609
 21
4384.918703522841
 31
0.0
  0
LINE
  5
15677
330
155B8
100
AcDbEntity
  8
HATCH
100
AcDbLine
 10
5484.005086586606
 20
3446.683552131379
 30
0.0
 11
5372.005086586604
 21
3334.683552131377
 31
0.0
  0
LINE
  5
15678
330
155B8
100
AcDbEntity
  8
HATCH
100
AcDbLine
 10
5484.005086586602
 20
3399.165976435639
 30
0.0
 11
5372.005086586605
 21
3287.165976435639
 31
0.0
  0
LINE
  5
15679
330
155B8
100
AcDbEntity
  8
KIN-T
100
AcDbLine
 10
4684.005086586604
 20
3861.718703522843
 30
0.0
 11
4684.005086586602
 21
3325.718703522845
 31
0.0
  0
LINE
  5
1567A
330
155B8
100
AcDbEntity
  8
KIN-T
100
AcDbLine
 10
5324.005086586602
 20
3861.718703522843
 30
0.0
 11
5324.005086586602
 21
3325.718703522843
 31
0.0
  0
LINE
  5
1567B
330
155B8
100
AcDbEntity
  8
KISO
100
AcDbLine
 10
5484.005086586606
 20
2997.718703522844
 30
0.0
 11
5484.005086586602
 21
3957.718703522846
 31
0.0
  0
LINE
  5
1567C
330
155B8
100
AcDbEntity
  8
KIN
100
AcDbLine
 10
4724.005086586602
 20
3317.718703522842
 30
0.0
 11
4932.725086586602
 21
3317.718703522842
 31
0.0
  0
LINE
  5
1567D
330
155B8
100
AcDbEntity
  8
KIN-T
100
AcDbLine
 10
4403.285086586601
 20
3277.718703522845
 30
0.0
 11
4636.005086586602
 21
3277.718703522845
 31
0.0
  0
LINE
  5
1567E
330
155B8
100
AcDbEntity
  8
HATCH
100
AcDbLine
 10
4203.040237978071
 20
3029.718703522844
 30
0.0
 11
4171.040237978071
 21
2997.718703522841
 31
0.0
  0
LINE
  5
1567F
330
155B8
100
AcDbEntity
  8
HATCH
100
AcDbLine
 10
4155.522662282341
 20
3029.718703522844
 30
0.0
 11
4123.522662282337
 21
2997.718703522841
 31
0.0
  0
LINE
  5
15680
330
155B8
100
AcDbEntity
  8
HATCH
100
AcDbLine
 10
4634.557813673801
 20
3029.718703522844
 30
0.0
 11
4602.557813673801
 21
2997.718703522842
 31
0.0
  0
LINE
  5
15681
330
155B8
100
AcDbEntity
  8
HATCH
100
AcDbLine
 10
4587.04023797807
 20
3029.718703522844
 30
0.0
 11
4555.040237978067
 21
2997.718703522842
 31
0.0
  0
LINE
  5
15682
330
155B8
100
AcDbEntity
  8
HATCH
100
AcDbLine
 10
4539.522662282313
 20
3029.718703522844
 30
0.0
 11
4507.522662282311
 21
2997.718703522842
 31
0.0
  0
ARC
  5
15683
330
155B8
100
AcDbEntity
  8
KIN-T
100
AcDbCircle
 10
4636.005086586602
 20
3325.718703522845
 30
0.0
 40
48.0
100
AcDbArc
 50
270.0
 51
0.0
  0
LINE
  5
15684
330
155B8
100
AcDbEntity
  8
KIN
100
AcDbLine
 10
5075.2850865866
 20
3317.718703522842
 30
0.0
 11
5284.005086586603
 21
3317.718703522842
 31
0.0
  0
LINE
  5
15685
330
155B8
100
AcDbEntity
  8
KIN-T
100
AcDbLine
 10
5043.2850865866
 20
3277.718703522843
 30
0.0
 11
5276.0050865866
 21
3277.718703522843
 31
0.0
  0
LINE
  5
15686
330
155B8
100
AcDbEntity
  8
HATCH
100
AcDbLine
 10
5066.557813673814
 20
3029.718703522844
 30
0.0
 11
5034.557813673816
 21
2997.718703522842
 31
0.0
  0
LINE
  5
15687
330
155B8
100
AcDbEntity
  8
HATCH
100
AcDbLine
 10
5019.040237978082
 20
3029.718703522844
 30
0.0
 11
4987.040237978082
 21
2997.718703522842
 31
0.0
  0
LINE
  5
15688
330
155B8
100
AcDbEntity
  8
HATCH
100
AcDbLine
 10
5114.075389369535
 20
3029.718703522844
 30
0.0
 11
5082.075389369531
 21
2997.718703522844
 31
0.0
  0
LINE
  5
15689
330
155B8
100
AcDbEntity
  8
CF-101
100
AcDbLine
 10
5075.2850865866
 20
3157.718703522843
 30
0.0
 11
4932.725086586599
 21
3157.718703522843
 31
0.0
  0
CIRCLE
  5
1568A
330
155B8
100
AcDbEntity
  8
KIN
100
AcDbCircle
 10
5372.005086586605
 20
3088.118703522844
 30
0.0
 40
10.4
  0
LINE
  5
1568B
330
155B8
100
AcDbEntity
  8
HATCH
100
AcDbLine
 10
5484.005086586606
 20
3351.648400739902
 30
0.0
 11
5372.005086586605
 21
3239.648400739907
 31
0.0
  0
ARC
  5
1568C
330
155B8
100
AcDbEntity
  8
KIN-T
100
AcDbCircle
 10
5276.0050865866
 20
3325.718703522843
 30
0.0
 40
48.0
100
AcDbArc
 50
270.0
 51
0.0
  0
LINE
  5
1568D
330
155B8
100
AcDbEntity
  8
KIN
100
AcDbLine
 10
4684.005086586604
 20
3861.718703522843
 30
0.0
 11
5324.005086586602
 21
3861.718703522843
 31
0.0
  0
LINE
  5
1568E
330
155B8
100
AcDbEntity
  8
KIN
100
AcDbLine
 10
4684.005086586602
 20
3701.718703522841
 30
0.0
 11
5324.005086586602
 21
3701.718703522843
 31
0.0
  0
LINE
  5
1568F
330
155B8
100
AcDbEntity
  8
KIN
100
AcDbLine
 10
4684.005086586602
 20
3541.718703522843
 30
0.0
 11
5324.005086586605
 21
3541.718703522843
 31
0.0
  0
LINE
  5
15690
330
155B8
100
AcDbEntity
  8
KIN
100
AcDbLine
 10
4684.005086586604
 20
3381.718703522845
 30
0.0
 11
5324.005086586605
 21
3381.718703522845
 31
0.0
  0
CIRCLE
  5
15691
330
155B8
100
AcDbEntity
  8
KIN
100
AcDbCircle
 10
4676.805086586602
 20
3541.718703522843
 30
0.0
 40
7.2
  0
CIRCLE
  5
15692
330
155B8
100
AcDbEntity
  8
KIN
100
AcDbCircle
 10
4676.805086586602
 20
3381.718703522845
 30
0.0
 40
7.2
  0
CIRCLE
  5
15693
330
155B8
100
AcDbEntity
  8
KIN
100
AcDbCircle
 10
4676.805086586602
 20
3861.718703522843
 30
0.0
 40
7.2
  0
CIRCLE
  5
15694
330
155B8
100
AcDbEntity
  8
KIN
100
AcDbCircle
 10
4676.805086586602
 20
3701.718703522841
 30
0.0
 40
7.2
  0
LINE
  5
15695
330
155B8
100
AcDbEntity
  8
HATCH
100
AcDbLine
 10
5484.005086586602
 20
3926.201127827106
 30
0.0
 11
5372.005086586605
 21
3814.201127827113
 31
0.0
  0
CIRCLE
  5
15696
330
155B8
100
AcDbEntity
  8
KIN
100
AcDbCircle
 10
5331.205086586603
 20
3541.718703522843
 30
0.0
 40
7.2
  0
CIRCLE
  5
15697
330
155B8
100
AcDbEntity
  8
KIN
100
AcDbCircle
 10
5331.205086586603
 20
3381.718703522845
 30
0.0
 40
7.2
  0
LINE
  5
15698
330
155B8
100
AcDbEntity
  8
HATCH
100
AcDbLine
 10
5484.005086586602
 20
3831.165976435634
 30
0.0
 11
5372.005086586605
 21
3719.165976435637
 31
0.0
  0
LINE
  5
15699
330
155B8
100
AcDbEntity
  8
HATCH
100
AcDbLine
 10
5484.005086586602
 20
3878.683552131373
 30
0.0
 11
5372.005086586605
 21
3766.683552131375
 31
0.0
  0
CIRCLE
  5
1569A
330
155B8
100
AcDbEntity
  8
KIN
100
AcDbCircle
 10
5331.205086586603
 20
3861.718703522843
 30
0.0
 40
7.2
  0
CIRCLE
  5
1569B
330
155B8
100
AcDbEntity
  8
KIN
100
AcDbCircle
 10
5331.205086586603
 20
3701.718703522843
 30
0.0
 40
7.2
  0
LINE
  5
1569C
330
155B8
100
AcDbEntity
  8
AQU_HOKYOU
100
AcDbLine
 10
5550.181710095738
 20
3807.895327031983
 30
0.0
 11
5616.358333604875
 21
3741.718703522844
 31
0.0
  0
LINE
  5
1569D
330
155B8
100
AcDbEntity
  8
AQU_HOKYOU
100
AcDbLine
 10
5484.005086586606
 20
3843.542080013704
 30
0.0
 11
5550.181710095746
 21
3909.718703522845
 31
0.0
  0
LINE
  5
1569E
330
155B8
100
AcDbEntity
  8
KISO
100
AcDbLine
 10
5484.005086586602
 20
3957.718703522846
 30
0.0
 11
5075.2850865866
 21
3957.718703522846
 31
0.0
  0
LINE
  5
1569F
330
155B8
100
AcDbEntity
  8
KISO
100
AcDbLine
 10
5644.005086586606
 20
2837.718703522841
 30
0.0
 11
5644.005086586606
 21
2997.718703522844
 31
0.0
  0
LINE
  5
156A0
330
155B8
100
AcDbEntity
  8
AQU_HOKYOU
100
AcDbLine
 10
5937.093398341169
 20
3858.807015277413
 30
0.0
 11
5958.555937625614
 21
3837.344475992971
 31
0.0
  0
LINE
  5
156A1
330
155B8
100
AcDbEntity
  8
AQU_HOKYOU
100
AcDbLine
 10
5820.005086586601
 20
3741.718703522848
 30
0.0
 11
5958.555937625614
 21
3880.269554561857
 31
0.0
  0
LINE
  5
156A2
330
155B8
100
AcDbEntity
  8
AQU_HOKYOU
100
AcDbLine
 10
5769.093398341169
 20
3792.63039176828
 30
0.0
 11
5886.18171009574
 21
3909.718703522845
 31
0.0
  0
LINE
  5
156A3
330
155B8
100
AcDbEntity
  8
AQU_HOKYOU
100
AcDbLine
 10
5652.005086586601
 20
3909.718703522845
 30
0.0
 11
5820.005086586601
 21
3741.718703522848
 31
0.0
  0
LINE
  5
156A4
330
155B8
100
AcDbEntity
  8
AQU_HOKYOU
100
AcDbLine
 10
5718.181710095739
 20
3843.54208001371
 30
0.0
 11
5784.35833360487
 21
3909.718703522845
 31
0.0
  0
LINE
  5
156A5
330
155B8
100
AcDbEntity
  8
AQU_HOKYOU
100
AcDbLine
 10
5886.181710095739
 20
3807.895327031983
 30
0.0
 11
5952.358333604875
 21
3741.718703522844
 31
0.0
  0
LINE
  5
156AB
330
155B8
100
AcDbEntity
  8
HATCH
100
AcDbLine
 10
3388.762045930064
 20
3957.718703522843
 30
0.0
 11
3244.762045930068
 21
3813.718703522843
 31
0.0
  0
LINE
  5
156AC
330
155B8
100
AcDbEntity
  8
HATCH
100
AcDbLine
 10
3436.279621625857
 20
3957.718703522843
 30
0.0
 11
3292.27962162585
 21
3813.718703522843
 31
0.0
  0
LINE
  5
156AD
330
155B8
100
AcDbEntity
  8
HATCH
100
AcDbLine
 10
3341.244470234325
 20
3957.718703522843
 30
0.0
 11
3197.244470234327
 21
3813.718703522843
 31
0.0
  0
LINE
  5
156AE
330
155B8
100
AcDbEntity
  8
HATCH
100
AcDbLine
 10
4636.005086586602
 20
3510.201127827107
 30
0.0
 11
4251.52266228234
 21
3125.718703522844
 31
0.0
  0
LINE
  5
156AF
330
155B8
100
AcDbEntity
  8
HATCH
100
AcDbLine
 10
4636.0050865866
 20
3557.718703522843
 30
0.0
 11
4204.005086586601
 21
3125.718703522844
 31
0.0
  0
LINE
  5
156B0
330
155B8
100
AcDbEntity
  8
HATCH
100
AcDbLine
 10
4636.005086586602
 20
3462.683552131375
 30
0.0
 11
4299.040237978071
 21
3125.718703522844
 31
0.0
  0
LINE
  5
156B1
330
155B8
100
AcDbEntity
  8
HATCH
100
AcDbLine
 10
3723.522662282344
 20
3029.718703522844
 30
0.0
 11
3691.52266228234
 21
2997.718703522842
 31
0.0
  0
LINE
  5
156B2
330
155B8
100
AcDbEntity
  8
HATCH
100
AcDbLine
 10
3676.005086586613
 20
3029.718703522844
 30
0.0
 11
3644.005086586604
 21
2997.718703522835
 31
0.0
  0
CIRCLE
  5
156B3
330
155B8
100
AcDbEntity
  8
KIN
100
AcDbCircle
 10
4025.285086586603
 20
3088.118703522841
 30
0.0
 40
10.4
  0
CIRCLE
  5
156B4
330
155B8
100
AcDbEntity
  8
KIN
100
AcDbCircle
 10
4294.565086586603
 20
3088.118703522841
 30
0.0
 40
10.4
  0
CIRCLE
  5
156B5
330
155B8
100
AcDbEntity
  8
KIN
100
AcDbCircle
 10
4563.845086586602
 20
3088.118703522841
 30
0.0
 40
10.4
  0
CIRCLE
  5
156B6
330
155B8
100
AcDbEntity
  8
KIN
100
AcDbCircle
 10
4833.125086586604
 20
3088.118703522841
 30
0.0
 40
10.4
  0
CIRCLE
  5
156B7
330
155B8
100
AcDbEntity
  8
KIN
100
AcDbCircle
 10
5102.405086586606
 20
3088.118703522841
 30
0.0
 40
10.4
  0
CIRCLE
  5
156B8
330
155B8
100
AcDbEntity
  8
KIN
100
AcDbCircle
 10
5371.685086586603
 20
3088.118703522841
 30
0.0
 40
10.4
  0
LINE
  5
156D6
330
155B8
100
AcDbEntity
  8
SUNPOU
100
AcDbLine
 10
5773.242036333173
 20
3999.718703522847
 30
0.0
 11
5669.318987879041
 21
3999.718703522847
 31
0.0
  0
TEXT
  5
156D7
330
155B8
100
AcDbEntity
  8
SUNPOU
100
AcDbText
 10
5649.851940677535
 20
4044.718703522843
 30
0.0
 40
90.0
  1
G.L
 41
0.6666666666666666
  7
00
 72
     4
 11
5721.280512106107
 21
4089.718703522843
 31
0.0
100
AcDbText
  0
LINE
  5
156D8
330
155B8
100
AcDbEntity
  8
SUNPOU
100
AcDbLine
 10
5721.280512106107
 20
3909.718703522845
 30
0.0
 11
5773.242036333173
 21
3999.718703522847
 31
0.0
  0
LINE
  5
156D9
330
155B8
100
AcDbEntity
  8
SUNPOU
100
AcDbLine
 10
5669.318987879041
 20
3999.718703522847
 30
0.0
 11
5721.280512106107
 21
3909.718703522845
 31
0.0
  0
LINE
  5
156DA
330
155B8
100
AcDbEntity
  8
SUNPOU
100
AcDbLine
 10
3128.884608664479
 20
4047.718703522843
 30
0.0
 11
3180.846132891545
 21
3957.718703522843
 31
0.0
  0
LINE
  5
156DB
330
155B8
100
AcDbEntity
  8
SUNPOU
100
AcDbLine
 10
3232.807657118613
 20
4047.718703522843
 30
0.0
 11
3128.884608664479
 21
4047.718703522843
 31
0.0
  0
TEXT
  5
156DC
330
155B8
100
AcDbEntity
  8
SUNPOU
100
AcDbText
 10
3112.274704320117
 20
4092.718703522842
 30
0.0
 40
90.0
  1
F.L
 41
0.6666666666666666
  7
00
 72
     4
 11
3180.846132891545
 21
4137.718703522842
 31
0.0
100
AcDbText
  0
LINE
  5
156DD
330
155B8
100
AcDbEntity
  8
SUNPOU
100
AcDbLine
 10
3180.846132891545
 20
3957.718703522843
 30
0.0
 11
3232.807657118613
 21
4047.718703522843
 31
0.0
  0
LINE
  5
156DE
330
155B8
100
AcDbEntity
  8
HIKIDASHI
100
AcDbLine
 10
5786.076085165333
 20
2125.147386988718
 30
0.0
 11
6635.370169837578
 21
2125.147386988718
 31
0.0
  0
CIRCLE
  5
156DF
330
155B8
100
AcDbEntity
  8
HIKIDASHI
100
AcDbCircle
 10
6323.22656444951
 20
2215.147386988718
 30
0.0
 40
60.0
  0
TEXT
  5
156E0
330
155B8
100
AcDbEntity
  8
HIKIDASHI
100
AcDbText
 10
6290.72656444951
 20
2177.647386988718
 30
0.0
 40
75.0
  1
ア
  7
01
 72
     1
 11
6323.22656444951
 21
2215.147386988718
 31
0.0
100
AcDbText
 73
     2
  0
TEXT
  5
156E1
330
155B8
100
AcDbEntity
  8
HIKIDASHI
100
AcDbText
 10
5816.076085165332
 20
2170.147386988718
 30
0.0
 40
90.0
  1
帯筋
  7
01
100
AcDbText
  0
TEXT
  5
156E2
330
155B8
100
AcDbEntity
  8
HIKIDASHI
100
AcDbText
 10
6065.34003819912
 20
2170.147386988718
 30
0.0
 40
90.0
  1
9 %%c
 41
0.6700000000000001
  7
00
100
AcDbText
  0
TEXT
  5
156E3
330
155B8
100
AcDbEntity
  8
HIKIDASHI
100
AcDbText
 10
6441.69874126615
 20
2170.147386988718
 30
0.0
 40
90.0
  1
100
 41
0.6700000000000001
  7
00
100
AcDbText
  0
TEXT
  5
156E4
330
155B8
100
AcDbEntity
  8
HIKIDASHI
100
AcDbText
 10
6152.255647035612
 20
2375.351403224569
 30
0.0
 40
90.0
  1
4-D13
 41
0.6700000000000001
  7
00
100
AcDbText
  0
TEXT
  5
156E5
330
155B8
100
AcDbEntity
  8
HIKIDASHI
100
AcDbText
 10
5902.991694001824
 20
2375.351403224569
 30
0.0
 40
90.0
  1
主筋
  7
01
100
AcDbText
  0
LINE
  5
156E6
330
155B8
100
AcDbEntity
  8
HIKIDASHI
100
AcDbLine
 10
5862.991694001824
 20
2335.351403224569
 30
0.0
 11
6507.106834568978
 21
2335.351403224569
 31
0.0
  0
LINE
  5
156E7
330
155B8
100
AcDbEntity
  8
HIKIDASHI
100
AcDbLine
 10
4229.882224948849
 20
1774.430061310486
 30
0.0
 11
5157.385362596274
 21
1774.430061310486
 31
0.0
  0
LINE
  5
156E8
330
155B8
100
AcDbEntity
  8
HIKIDASHI
100
AcDbLine
 10
4229.882224948849
 20
1814.430061310486
 30
0.0
 11
5157.385362596274
 21
1814.430061310486
 31
0.0
  0
TEXT
  5
156E9
330
155B8
100
AcDbEntity
  8
HIKIDASHI
100
AcDbText
 10
4269.882224948849
 20
1874.430061310486
 30
0.0
 40
120.0
  1
A  ~  A'
 41
0.6700000000000001
  7
00
100
AcDbText
  0
TEXT
  5
156EA
330
155B8
100
AcDbEntity
  8
HIKIDASHI
100
AcDbText
 10
4755.238597610929
 20
1874.430061310486
 30
0.0
 40
120.0
  1
断  面
  7
01
100
AcDbText
  0
TEXT
  5
156EB
330
155B8
100
AcDbEntity
  8
HIKIDASHI
100
AcDbText
 10
2887.801890967452
 20
2503.731788496597
 30
0.0
 40
90.0
  1
10 %%c x 350
 41
0.6700000000000001
  7
00
100
AcDbText
  0
LINE
  5
156EC
330
155B8
100
AcDbEntity
  8
HIKIDASHI
100
AcDbLine
 10
2650.580494997001
 20
2458.731788496597
 30
0.0
 11
3458.578019690164
 21
2458.731788496597
 31
0.0
  0
TEXT
  5
156ED
330
155B8
100
AcDbEntity
  8
HIKIDASHI
100
AcDbText
 10
2672.610962982009
 20
2503.731788496597
 30
0.0
 40
90.0
  1
鉄筋
  7
01
100
AcDbText
  0
LINE
  5
156EE
330
155B8
100
AcDbEntity
  8
KIN
100
AcDbLine
 10
7828.103906328145
 20
3379.166484335344
 30
0.0
 11
9443.783906328143
 21
3379.166484335344
 31
0.0
  0
LINE
  5
156EF
330
155B8
100
AcDbEntity
  8
KIN
100
AcDbLine
 10
7828.103906328145
 20
3643.166484335344
 30
0.0
 11
9443.783906328143
 21
3643.166484335344
 31
0.0
  0
LINE
  5
156F0
330
155B8
100
AcDbEntity
  8
HATCH
100
AcDbLine
 10
9063.390303915204
 20
4019.166484335345
 30
0.0
 11
8423.390303915203
 21
3379.166484335344
 31
0.0
  0
LINE
  5
156F1
330
155B8
100
AcDbEntity
  8
HATCH
100
AcDbLine
 10
9110.907879610941
 20
4019.166484335345
 30
0.0
 11
8470.907879610933
 21
3379.166484335344
 31
0.0
  0
LINE
  5
156F2
330
155B8
100
AcDbEntity
  8
1PL-M1
100
AcDbLine
 10
9676.103906328144
 20
3379.166484335344
 30
0.0
 11
7596.103906328146
 21
3379.166484335344
 31
0.0
  0
LINE
  5
156F3
330
155B8
100
AcDbEntity
  8
KIN
100
AcDbLine
 10
7838.503906328146
 20
3907.166484335344
 30
0.0
 11
9433.703906328146
 21
3907.166484335344
 31
0.0
  0
LINE
  5
156F4
330
155B8
100
AcDbEntity
  8
HATCH
100
AcDbLine
 10
9495.390303915201
 20
4019.166484335345
 30
0.0
 11
8855.390303915198
 21
3379.166484335344
 31
0.0
  0
LINE
  5
156F5
330
155B8
100
AcDbEntity
  8
HATCH
100
AcDbLine
 10
9542.907879610936
 20
4019.166484335345
 30
0.0
 11
8902.907879610937
 21
3379.166484335344
 31
0.0
  0
LINE
  5
156F6
330
155B8
100
AcDbEntity
  8
HATCH
100
AcDbLine
 10
9556.103906328148
 20
3984.844935356815
 30
0.0
 11
8950.425455306669
 21
3379.166484335344
 31
0.0
  0
LINE
  5
156F7
330
155B8
100
AcDbEntity
  8
KIN
100
AcDbLine
 10
8097.383906328145
 20
3379.166484335344
 30
0.0
 11
8097.383906328145
 21
3907.166484335344
 31
0.0
  0
LINE
  5
156F8
330
155B8
100
AcDbEntity
  8
KIN
100
AcDbLine
 10
8366.663906328145
 20
3379.166484335344
 30
0.0
 11
8366.663906328145
 21
3907.166484335344
 31
0.0
  0
LINE
  5
156F9
330
155B8
100
AcDbEntity
  8
KIN
100
AcDbLine
 10
8635.943906328142
 20
3379.166484335344
 30
0.0
 11
8635.943906328142
 21
3907.166484335344
 31
0.0
  0
LINE
  5
156FA
330
155B8
100
AcDbEntity
  8
KIN
100
AcDbLine
 10
8905.223906328142
 20
3379.166484335344
 30
0.0
 11
8905.223906328142
 21
3907.166484335344
 31
0.0
  0
LINE
  5
156FB
330
155B8
100
AcDbEntity
  8
HATCH
100
AcDbLine
 10
8536.355152523734
 20
4019.166484335345
 30
0.0
 11
7896.355152523735
 21
3379.166484335344
 31
0.0
  0
LINE
  5
156FC
330
155B8
100
AcDbEntity
  8
HATCH
100
AcDbLine
 10
8583.872728219471
 20
4019.166484335345
 30
0.0
 11
7943.872728219478
 21
3379.166484335344
 31
0.0
  0
LINE
  5
156FD
330
155B8
100
AcDbEntity
  8
HATCH
100
AcDbLine
 10
8627.621482023881
 20
4015.397662444023
 30
0.0
 11
7991.39030391521
 21
3379.166484335344
 31
0.0
  0
LINE
  5
156FE
330
155B8
100
AcDbEntity
  8
HATCH
100
AcDbLine
 10
9015.872728219468
 20
4019.166484335345
 30
0.0
 11
8375.872728219468
 21
3379.166484335344
 31
0.0
  0
LINE
  5
156FF
330
155B8
100
AcDbEntity
  8
KIN
100
AcDbLine
 10
7828.103906328144
 20
3379.166484335344
 30
0.0
 11
7828.103906328144
 21
3896.766484335344
 31
0.0
  0
LINE
  5
15700
330
155B8
100
AcDbEntity
  8
HATCH
100
AcDbLine
 10
8151.872728219471
 20
4019.166484335346
 30
0.0
 11
7716.103906328147
 21
3583.397662444012
 31
0.0
  0
LINE
  5
15701
330
155B8
100
AcDbEntity
  8
HATCH
100
AcDbLine
 10
8104.355152523737
 20
4019.166484335346
 30
0.0
 11
7716.103906328147
 21
3630.915238139744
 31
0.0
  0
LINE
  5
15702
330
155B8
100
AcDbEntity
  8
HATCH
100
AcDbLine
 10
8056.837576828
 20
4019.166484335345
 30
0.0
 11
7716.103906328147
 21
3678.432813835494
 31
0.0
  0
ARC
  5
15703
330
155B8
100
AcDbEntity
  8
KIN
100
AcDbCircle
 10
7838.503906328146
 20
3896.766484335344
 30
0.0
 40
10.4
100
AcDbArc
 50
90.0
 51
180.0
  0
LINE
  5
15704
330
155B8
100
AcDbEntity
  8
KIN
100
AcDbLine
 10
9174.503906328144
 20
3379.166484335344
 30
0.0
 11
9174.503906328144
 21
3907.166484335344
 31
0.0
  0
LINE
  5
15705
330
155B8
100
AcDbEntity
  8
KIN
100
AcDbLine
 10
9443.783906328143
 20
3379.166484335344
 30
0.0
 11
9443.783906328143
 21
3896.766484335344
 31
0.0
  0
LINE
  5
15706
330
155B8
100
AcDbEntity
  8
KIN
100
AcDbLine
 10
9444.103906328143
 20
3896.766484335344
 30
0.0
 11
9444.103906328143
 21
3379.166484335344
 31
0.0
  0
LINE
  5
15707
330
155B8
100
AcDbEntity
  8
1PL-M1
100
AcDbLine
 10
9076.103906328143
 20
4139.166484335344
 30
0.0
 11
9076.103906328143
 21
2619.166484335346
 31
0.0
  0
LINE
  5
15708
330
155B8
100
AcDbEntity
  8
HATCH
100
AcDbLine
 10
9556.103906328148
 20
3505.327359661088
 30
0.0
 11
9429.943031002402
 21
3379.166484335344
 31
0.0
  0
LINE
  5
15709
330
155B8
100
AcDbEntity
  8
HATCH
100
AcDbLine
 10
9556.103906328148
 20
3552.844935356822
 30
0.0
 11
9382.425455306668
 21
3379.166484335344
 31
0.0
  0
LINE
  5
1570A
330
155B8
100
AcDbEntity
  8
HATCH
100
AcDbLine
 10
9556.103906328148
 20
3600.362511052559
 30
0.0
 11
9334.907879610929
 21
3379.166484335344
 31
0.0
  0
ARC
  5
1570B
330
155B8
100
AcDbEntity
  8
KIN
100
AcDbCircle
 10
9433.703906328146
 20
3896.766484335344
 30
0.0
 40
10.4
100
AcDbArc
 50
0.0
 51
90.0
  0
LINE
  5
1570C
330
155B8
100
AcDbEntity
  8
SUNPOU
100
AcDbLine
 10
7798.503906328145
 20
3907.166484335344
 30
0.0
 11
7257.842823771877
 21
3907.166484335344
 31
0.0
  0
LINE
  5
1570D
330
155B8
100
AcDbEntity
  8
SUNPOU
100
AcDbLine
 10
7798.503906328145
 20
2851.166484335342
 30
0.0
 11
7257.842823771877
 21
2851.166484335342
 31
0.0
  0
LINE
  5
1570E
330
155B8
100
AcDbEntity
  8
SUNPOU
100
AcDbLine
 10
7302.842823771877
 20
3887.166484335345
 30
0.0
 11
7302.842823771877
 21
2871.166484335343
 31
0.0
  0
LINE
  5
1570F
330
155B8
100
AcDbEntity
  8
SUNPOU
100
AcDbLine
 10
7828.103906328144
 20
3936.766484335345
 30
0.0
 11
7828.103906328144
 21
4335.544568577748
 31
0.0
  0
LINE
  5
15710
330
155B8
100
AcDbEntity
  8
SUNPOU
100
AcDbLine
 10
9444.103906328143
 20
3936.766484335345
 30
0.0
 11
9444.103906328143
 21
4335.544568577748
 31
0.0
  0
LINE
  5
15711
330
155B8
100
AcDbEntity
  8
SUNPOU
100
AcDbLine
 10
7848.103906328145
 20
4290.544568577749
 30
0.0
 11
9424.103906328145
 21
4290.544568577749
 31
0.0
  0
TEXT
  5
15712
330
155B8
100
AcDbEntity
  8
SUNPOU
100
AcDbText
 10
8731.185008598812
 20
4335.544568577748
 30
0.0
 40
90.0
  1
7-D13
 41
0.6666666666666666
  7
00
 72
     4
 11
8884.042151455956
 21
4380.544568577747
 31
0.0
100
AcDbText
  0
TEXT
  5
15713
330
155B8
100
AcDbEntity
  8
SUNPOU
100
AcDbText
 10
8276.382523415895
 20
4335.544568577748
 30
0.0
 40
90.0
  1
ベース筋
  7
01
 72
     4
 11
8480.382523415894
 21
4380.544568577747
 31
0.0
100
AcDbText
  0
TEXT
  5
15714
330
155B8
100
AcDbEntity
  8
SUNPOU
100
AcDbText
 10
7257.842823771875
 20
3473.165146684181
 30
0.0
 40
90.0
  1
5-D13
 50
90.0
 41
0.6666666666666666
  7
00
 72
     4
 11
7212.842823771875
 21
3626.022289541324
 31
0.0
100
AcDbText
  0
TEXT
  5
15715
330
155B8
100
AcDbEntity
  8
SUNPOU
100
AcDbText
 10
7257.842823771875
 20
3010.530109148717
 30
0.0
 40
90.0
  1
ベース筋
 50
90.0
  7
01
 72
     4
 11
7212.842823771875
 21
3214.530109148717
 31
0.0
100
AcDbText
  0
TEXT
  5
15716
330
155B8
100
AcDbEntity
  8
NAME
100
AcDbText
 10
12536.92663601099
 20
954.9999999999991
 30
0.0
 40
160.0
  1
YOCF
 41
0.7
  7
01
100
AcDbText
  0
TEXT
  5
15717
330
155B8
100
AcDbEntity
  8
NAME
100
AcDbText
 10
11103.68799031879
 20
954.9999999999991
 30
0.0
 40
160.0
  1
ヨド自転車置場      型
  7
01
100
AcDbText
  0
TEXT
  5
15718
330
155B8
100
AcDbEntity
  8
NAME
100
AcDbText
 10
11816.04264730429
 20
541.0000000000001
 30
0.0
 40
160.0
  1
型（一般地用）
 41
0.8
  7
01
100
AcDbText
  0
TEXT
  5
15719
330
155B8
100
AcDbEntity
  8
NAME
100
AcDbText
 10
10912.04264730428
 20
541.0000000000001
 30
0.0
 40
160.0
  1
YOCF-240
 41
0.7
  7
01
 72
     2
 11
11776.04264730429
 21
541.0000000000001
 31
0.0
100
AcDbText
  0
TEXT
  5
1571A
330
155B8
100
AcDbEntity
  8
NAME
100
AcDbText
 10
12854.79999999999
 20
541.0000000000003
 30
0.0
 40
160.0
  1
<3／3>
 41
0.6
  7
01
 72
     2
 11
13354.0
 21
541.0000000000003
 31
0.0
100
AcDbText
  0
TEXT
  5
1571B
330
155B8
100
AcDbEntity
  8
FILENAME
100
AcDbText
 10
13868.66666666666
 20
174.0
 30
0.0
 40
100.0
  1
＜YOCF-240-U1_3_JIS_GL.DXF ＞
  7
FILENAME
 72
     2
 11
16382.0
 21
174.0
 31
0.0
100
AcDbText
  0
LINE
  5
1571C
330
155B8
100
AcDbEntity
  8
WAKUSEN-01
100
AcDbLine
 10
434.0000000000008
 20
413.9999999999997
 30
0.0
 11
16382.0
 21
413.9999999999997
 31
0.0
  0
LINE
  5
1571D
330
155B8
100
AcDbEntity
  8
WAKUSEN-01
100
AcDbLine
 10
434.0000000000008
 20
11242.0
 30
0.0
 11
16382.0
 21
11242.0
 31
0.0
  0
LINE
  5
1571E
330
155B8
100
AcDbEntity
  8
WAKUSEN-01
100
AcDbLine
 10
434.0000000000008
 20
413.9999999999997
 30
0.0
 11
434.0000000000008
 21
11242.0
 31
0.0
  0
LINE
  5
1571F
330
155B8
100
AcDbEntity
  8
WAKUSEN-01
100
AcDbLine
 10
16382.0
 20
413.9999999999997
 30
0.0
 11
16382.0
 21
11242.0
 31
0.0
  0
LINE
  5
15720
330
155B8
100
AcDbEntity
  8
WAKUSEN-01
100
AcDbLine
 10
10280.0
 20
1242.0
 30
0.0
 11
16382.0
 21
1242.0
 31
0.0
  0
LINE
  5
15721
330
155B8
100
AcDbEntity
  8
WAKUSEN-02
100
AcDbLine
 10
10280.0
 20
827.9999999999997
 30
0.0
 11
13434.0
 21
827.9999999999997
 31
0.0
  0
TEXT
  5
15722
330
155B8
100
AcDbEntity
  8
WAKUMOJI-01
100
AcDbText
 10
10335.13012998137
 20
1062.951504669661
 30
0.0
 40
120.0
  1
名　称
  7
WAKUMOJI
100
AcDbText
  0
TEXT
  5
15723
330
155B8
100
AcDbEntity
  8
WAKUMOJI-01
100
AcDbText
 10
10328.25274254596
 20
659.5644874899107
 30
0.0
 40
120.0
  1
機種名
  7
WAKUMOJI
100
AcDbText
  0
LINE
  5
15724
330
155B8
100
AcDbEntity
  8
WAKUSEN-01
100
AcDbLine
 10
10280.0
 20
413.9999999999985
 30
0.0
 11
10280.0
 21
1242.0
 31
0.0
  0
LINE
  5
15725
330
155B8
100
AcDbEntity
  8
WAKUSEN-02
100
AcDbLine
 10
13434.0
 20
413.9999999999963
 30
0.0
 11
13434.0
 21
1242.0
 31
0.0
  0
LINE
  5
15726
330
155B8
100
AcDbEntity
  8
YODOROGO
100
AcDbLine
 10
14988.80217064596
 20
997.8747482146435
 30
0.0
 11
14914.80217064596
 21
997.8747482146435
 31
0.0
1001
AUTOCAD_POSTSCRIPT_FIGURE
1002
{
1000
PSFILL
1000
Grayscale
1000
Grayscale
1070
    25
1002
}
  0
LINE
  5
15727
330
155B8
100
AcDbEntity
  8
YODOROGO
100
AcDbLine
 10
14914.80217064596
 20
973.8747482146434
 30
0.0
 11
14988.80217064596
 21
973.8747482146434
 31
0.0
1001
AUTOCAD_POSTSCRIPT_FIGURE
1002
{
1000
PSFILL
1000
Grayscale
1000
Grayscale
1070
    25
1002
}
  0
LINE
  5
15728
330
155B8
100
AcDbEntity
  8
YODOROGO
100
AcDbLine
 10
14988.80217064596
 20
953.874748214644
 30
0.0
 11
14914.80217064596
 21
953.874748214644
 31
0.0
1001
AUTOCAD_POSTSCRIPT_FIGURE
1002
{
1000
PSFILL
1000
Grayscale
1000
Grayscale
1070
    25
1002
}
  0
LINE
  5
15729
330
155B8
100
AcDbEntity
  8
YODOROGO
100
AcDbLine
 10
14914.80217064596
 20
929.874748214644
 30
0.0
 11
14988.80217064596
 21
929.874748214644
 31
0.0
1001
AUTOCAD_POSTSCRIPT_FIGURE
1002
{
1000
PSFILL
1000
Grayscale
1000
Grayscale
1070
    25
1002
}
  0
LINE
  5
1572A
330
155B8
100
AcDbEntity
  8
YODOROGO
100
AcDbLine
 10
14988.80217064596
 20
909.8747482146439
 30
0.0
 11
14914.80217064596
 21
909.8747482146439
 31
0.0
1001
AUTOCAD_POSTSCRIPT_FIGURE
1002
{
1000
PSFILL
1000
Grayscale
1000
Grayscale
1070
    25
1002
}
  0
LINE
  5
1572B
330
155B8
100
AcDbEntity
  8
YODOROGO
100
AcDbLine
 10
14960.80217064594
 20
853.874748214644
 30
0.0
 11
14988.80217064596
 21
853.874748214644
 31
0.0
1001
AUTOCAD_POSTSCRIPT_FIGURE
1002
{
1000
PSFILL
1000
Grayscale
1000
Grayscale
1070
    25
1002
}
  0
LINE
  5
1572C
330
155B8
100
AcDbEntity
  8
YODOROGO
100
AcDbLine
 10
14868.80217064596
 20
713.8747482146436
 30
0.0
 11
14968.80217064596
 21
740.6696674577553
 31
0.0
  0
LINE
  5
1572D
330
155B8
100
AcDbEntity
  8
YODOROGO
100
AcDbLine
 10
14974.80217064595
 20
853.874748214644
 30
0.0
 11
14942.80217064596
 21
853.874748214644
 31
0.0
  0
ARC
  5
1572E
330
155B8
100
AcDbEntity
  8
YODOROGO
100
AcDbCircle
 10
15127.17387491394
 20
903.9323046166312
 30
0.0
 40
190.9434321028236
100
AcDbArc
 50
213.9611167766784
 51
264.4787207431779
  0
ARC
  5
1572F
330
155B8
100
AcDbEntity
  8
YODOROGO
100
AcDbCircle
 10
15127.17387491396
 20
903.9323046166513
 30
0.0
 40
190.9434321028408
100
AcDbArc
 50
208.141144204866
 51
212.9210361185994
  0
LINE
  5
15730
330
155B8
100
AcDbEntity
  8
YODOROGO
100
AcDbLine
 10
14885.70493649264
 20
778.403830673117
 30
0.0
 11
14966.89206625426
 21
800.1578565285436
 31
0.0
  0
LINE
  5
15731
330
155B8
100
AcDbEntity
  8
YODOROGO
100
AcDbLine
 10
14868.80217064596
 20
713.8747482146436
 30
0.0
 11
14968.80217064596
 21
740.6696674577553
 31
0.0
  0
LINE
  5
15732
330
155B8
100
AcDbEntity
  8
YODOROGO
100
AcDbLine
 10
14974.80217064595
 20
853.874748214644
 30
0.0
 11
14942.80217064596
 21
853.874748214644
 31
0.0
  0
ARC
  5
15733
330
155B8
100
AcDbEntity
  8
YODOROGO
100
AcDbCircle
 10
15127.17387491394
 20
903.9323046166312
 30
0.0
 40
190.9434321028236
100
AcDbArc
 50
213.9611167766784
 51
264.4787207431779
  0
LINE
  5
15734
330
155B8
100
AcDbEntity
  8
YODOROGO
100
AcDbLine
 10
14396.80217064594
 20
909.8747482146439
 30
0.0
 11
14216.80217064594
 21
909.8747482146439
 31
0.0
  0
LINE
  5
15735
330
155B8
100
AcDbEntity
  8
YODOROGO
100
AcDbLine
 10
14256.80217064594
 20
713.8747482146436
 30
0.0
 11
14396.80217064594
 21
713.8747482146436
 31
0.0
  0
LINE
  5
15736
330
155B8
100
AcDbEntity
  8
YODOROGO
100
AcDbLine
 10
14364.80217064596
 20
961.8747482146432
 30
0.0
 11
14248.80217064594
 21
961.8747482146432
 31
0.0
  0
LINE
  5
15737
330
155B8
100
AcDbEntity
  8
YODOROGO
100
AcDbLine
 10
14292.80217064596
 20
1013.874748214644
 30
0.0
 11
14328.80217064596
 21
1013.874748214644
 31
0.0
  0
LINE
  5
15738
330
155B8
100
AcDbEntity
  8
YODOROGO
100
AcDbLine
 10
14216.80217064594
 20
853.874748214644
 30
0.0
 11
14216.80217064594
 21
753.8747482146439
 31
0.0
  0
LINE
  5
15739
330
155B8
100
AcDbEntity
  8
YODOROGO
100
AcDbLine
 10
14248.80217064594
 20
781.8747482146434
 30
0.0
 11
14248.80217064594
 21
853.874748214644
 31
0.0
  0
LINE
  5
1573A
330
155B8
100
AcDbEntity
  8
YODOROGO
100
AcDbLine
 10
14292.80217064596
 20
873.8747482146449
 30
0.0
 11
14292.80217064596
 21
773.874748214644
 31
0.0
  0
LINE
  5
1573B
330
155B8
100
AcDbEntity
  8
YODOROGO
100
AcDbLine
 10
13928.80217064596
 20
841.8747482146445
 30
0.0
 11
13888.80217064596
 21
809.9862070222856
 31
0.0
  0
LINE
  5
1573C
330
155B8
100
AcDbEntity
  8
YODOROGO
100
AcDbLine
 10
13968.80217064596
 20
809.9862070222856
 30
0.0
 11
13928.80217064596
 21
841.8747482146445
 31
0.0
  0
LINE
  5
1573D
330
155B8
100
AcDbEntity
  8
YODOROGO
100
AcDbLine
 10
13928.80217064596
 20
853.874748214644
 30
0.0
 11
13968.80217064596
 21
821.986207022285
 31
0.0
  0
LINE
  5
1573E
330
155B8
100
AcDbEntity
  8
YODOROGO
100
AcDbLine
 10
13888.80217064596
 20
821.986207022285
 30
0.0
 11
13928.80217064596
 21
853.874748214644
 31
0.0
  0
LINE
  5
1573F
330
155B8
100
AcDbEntity
  8
YODOROGO
100
AcDbLine
 10
14020.45660200844
 20
829.874748214644
 30
0.0
 11
14020.45660200844
 21
841.8747482146434
 31
0.0
  0
LINE
  5
15740
330
155B8
100
AcDbEntity
  8
YODOROGO
100
AcDbLine
 10
13988.80217064596
 20
841.8747482146434
 30
0.0
 11
13988.80217064596
 21
833.8747482146427
 31
0.0
  0
LINE
  5
15741
330
155B8
100
AcDbEntity
  8
YODOROGO
100
AcDbLine
 10
14049.06776011545
 20
853.874748214644
 30
0.0
 11
14049.06776011545
 21
827.751818637328
 31
0.0
1001
AUTOCAD_POSTSCRIPT_FIGURE
1002
{
1000
PSFILL
1000
Grayscale
1000
Grayscale
1070
   100
1002
}
  0
LINE
  5
15742
330
155B8
100
AcDbEntity
  8
YODOROGO
100
AcDbLine
 10
14041.06776011546
 20
827.751818637328
 30
0.0
 11
14041.06776011546
 21
853.874748214644
 31
0.0
1001
AUTOCAD_POSTSCRIPT_FIGURE
1002
{
1000
PSFILL
1000
Grayscale
1000
Grayscale
1070
   100
1002
}
  0
LINE
  5
15743
330
155B8
100
AcDbEntity
  8
YODOROGO
100
AcDbLine
 10
13904.80217064596
 20
804.3859520216292
 30
0.0
 11
13904.80217064596
 21
816.3859520216298
 31
0.0
  0
LINE
  5
15744
330
155B8
100
AcDbEntity
  8
YODOROGO
100
AcDbLine
 10
13952.80217064596
 20
804.3859520216292
 30
0.0
 11
13904.80217064596
 21
804.3859520216292
 31
0.0
  0
LINE
  5
15745
330
155B8
100
AcDbEntity
  8
YODOROGO
100
AcDbLine
 10
13952.80217064596
 20
816.3859520216298
 30
0.0
 11
13952.80217064596
 21
804.3859520216292
 31
0.0
  0
LINE
  5
15746
330
155B8
100
AcDbEntity
  8
YODOROGO
100
AcDbLine
 10
13904.80217064596
 20
816.3859520216298
 30
0.0
 11
13952.80217064596
 21
816.3859520216298
 31
0.0
  0
LINE
  5
15747
330
155B8
100
AcDbEntity
  8
YODOROGO
100
AcDbLine
 10
13912.25479445787
 20
784.2514286852374
 30
0.0
 11
13892.80217064596
 21
737.8747482146435
 31
0.0
1001
AUTOCAD_POSTSCRIPT_FIGURE
1002
{
1000
PSFILL
1000
Grayscale
1000
Grayscale
1070
   100
1002
}
  0
LINE
  5
15748
330
155B8
100
AcDbEntity
  8
YODOROGO
100
AcDbLine
 10
13888.80217064596
 20
784.2514286852374
 30
0.0
 11
13912.25479445787
 21
784.2514286852374
 31
0.0
1001
AUTOCAD_POSTSCRIPT_FIGURE
1002
{
1000
PSFILL
1000
Grayscale
1000
Grayscale
1070
   100
1002
}
  0
LINE
  5
15749
330
155B8
100
AcDbEntity
  8
YODOROGO
100
AcDbLine
 10
13888.80217064596
 20
794.2514286852374
 30
0.0
 11
13888.80217064596
 21
784.2514286852374
 31
0.0
1001
AUTOCAD_POSTSCRIPT_FIGURE
1002
{
1000
PSFILL
1000
Grayscale
1000
Grayscale
1070
   100
1002
}
  0
LINE
  5
1574A
330
155B8
100
AcDbEntity
  8
YODOROGO
100
AcDbLine
 10
13968.80217064596
 20
794.2514286852374
 30
0.0
 11
13888.80217064596
 21
794.2514286852374
 31
0.0
1001
AUTOCAD_POSTSCRIPT_FIGURE
1002
{
1000
PSFILL
1000
Grayscale
1000
Grayscale
1070
   100
1002
}
  0
LINE
  5
1574B
330
155B8
100
AcDbEntity
  8
YODOROGO
100
AcDbLine
 10
13968.80217064596
 20
784.2514286852374
 30
0.0
 11
13968.80217064596
 21
794.2514286852374
 31
0.0
1001
AUTOCAD_POSTSCRIPT_FIGURE
1002
{
1000
PSFILL
1000
Grayscale
1000
Grayscale
1070
   100
1002
}
  0
LINE
  5
1574C
330
155B8
100
AcDbEntity
  8
YODOROGO
100
AcDbLine
 10
13922.25479445786
 20
784.2514286852374
 30
0.0
 11
13968.80217064596
 21
784.2514286852374
 31
0.0
1001
AUTOCAD_POSTSCRIPT_FIGURE
1002
{
1000
PSFILL
1000
Grayscale
1000
Grayscale
1070
   100
1002
}
  0
LINE
  5
1574D
330
155B8
100
AcDbEntity
  8
YODOROGO
100
AcDbLine
 10
13907.77335914238
 20
747.8747482146435
 30
0.0
 11
13922.25479445786
 21
784.2514286852374
 31
0.0
1001
AUTOCAD_POSTSCRIPT_FIGURE
1002
{
1000
PSFILL
1000
Grayscale
1000
Grayscale
1070
   100
1002
}
  0
LINE
  5
1574E
330
155B8
100
AcDbEntity
  8
YODOROGO
100
AcDbLine
 10
13951.02739540432
 20
747.8747482146435
 30
0.0
 11
13907.77335914238
 21
747.8747482146435
 31
0.0
1001
AUTOCAD_POSTSCRIPT_FIGURE
1002
{
1000
PSFILL
1000
Grayscale
1000
Grayscale
1070
   100
1002
}
  0
LINE
  5
1574F
330
155B8
100
AcDbEntity
  8
YODOROGO
100
AcDbLine
 10
13942.53250239547
 20
768.1169053488464
 30
0.0
 11
13951.02739540432
 21
747.8747482146435
 31
0.0
1001
AUTOCAD_POSTSCRIPT_FIGURE
1002
{
1000
PSFILL
1000
Grayscale
1000
Grayscale
1070
   100
1002
}
  0
LINE
  5
15750
330
155B8
100
AcDbEntity
  8
YODOROGO
100
AcDbLine
 10
13950.53250239547
 20
768.1169053488464
 30
0.0
 11
13942.53250239547
 21
768.1169053488464
 31
0.0
1001
AUTOCAD_POSTSCRIPT_FIGURE
1002
{
1000
PSFILL
1000
Grayscale
1000
Grayscale
1070
   100
1002
}
  0
LINE
  5
15751
330
155B8
100
AcDbEntity
  8
YODOROGO
100
AcDbLine
 10
13964.80217064596
 20
737.8747482146435
 30
0.0
 11
13950.53250239547
 21
768.1169053488464
 31
0.0
1001
AUTOCAD_POSTSCRIPT_FIGURE
1002
{
1000
PSFILL
1000
Grayscale
1000
Grayscale
1070
   100
1002
}
  0
LINE
  5
15752
330
155B8
100
AcDbEntity
  8
YODOROGO
100
AcDbLine
 10
13892.80217064596
 20
737.8747482146435
 30
0.0
 11
13964.80217064596
 21
737.8747482146435
 31
0.0
1001
AUTOCAD_POSTSCRIPT_FIGURE
1002
{
1000
PSFILL
1000
Grayscale
1000
Grayscale
1070
   100
1002
}
  0
LINE
  5
15753
330
155B8
100
AcDbEntity
  8
YODOROGO
100
AcDbLine
 10
13888.80217064596
 20
809.9862070222856
 30
0.0
 11
13888.80217064596
 21
821.986207022285
 31
0.0
  0
LINE
  5
15754
330
155B8
100
AcDbEntity
  8
YODOROGO
100
AcDbLine
 10
13968.80217064596
 20
821.986207022285
 30
0.0
 11
13968.80217064596
 21
809.9862070222856
 31
0.0
  0
ARC
  5
15755
330
155B8
100
AcDbEntity
  8
YODOROGO
100
AcDbCircle
 10
14112.97022107348
 20
800.438882662663
 30
0.0
 40
87.99999999999995
100
AcDbArc
 50
280.3644312771313
 51
3.541483659218056
  0
ARC
  5
15756
330
155B8
100
AcDbEntity
  8
YODOROGO
100
AcDbCircle
 10
14117.87801537965
 20
816.798903480952
 30
0.0
 40
55.99999999999914
100
AcDbArc
 50
281.2490582504155
 51
348.7509417495832
  0
LINE
  5
15757
330
155B8
100
AcDbEntity
  8
YODOROGO
100
AcDbLine
 10
14128.80217064596
 20
761.8747482146434
 30
0.0
 11
14128.80217064596
 21
713.8747482146436
 31
0.0
  0
LINE
  5
15758
330
155B8
100
AcDbEntity
  8
YODOROGO
100
AcDbLine
 10
14010.04445186845
 20
805.3252825309574
 30
0.0
 11
14020.45660200844
 21
829.874748214644
 31
0.0
  0
LINE
  5
15759
330
155B8
100
AcDbEntity
  8
YODOROGO
100
AcDbLine
 10
14020.80217064596
 20
791.5602449742006
 30
0.0
 11
14010.04445186845
 21
805.3252825309574
 31
0.0
  0
LINE
  5
1575A
330
155B8
100
AcDbEntity
  8
YODOROGO
100
AcDbLine
 10
14020.80217064596
 20
781.5602449741994
 30
0.0
 11
14020.80217064596
 21
791.5602449742006
 31
0.0
  0
LINE
  5
1575B
330
155B8
100
AcDbEntity
  8
YODOROGO
100
AcDbLine
 10
14008.80217064596
 20
792.6185318747651
 30
0.0
 11
14020.80217064596
 21
781.5602449741994
 31
0.0
  0
LINE
  5
1575C
330
155B8
100
AcDbEntity
  8
YODOROGO
100
AcDbLine
 10
14008.80217064596
 20
737.8747482146435
 30
0.0
 11
14008.80217064596
 21
792.6185318747651
 31
0.0
  0
LINE
  5
1575D
330
155B8
100
AcDbEntity
  8
YODOROGO
100
AcDbLine
 10
14000.80217064596
 20
737.8747482146435
 30
0.0
 11
14008.80217064596
 21
737.8747482146435
 31
0.0
  0
LINE
  5
1575E
330
155B8
100
AcDbEntity
  8
YODOROGO
100
AcDbLine
 10
14000.80217064596
 20
790.0026748448738
 30
0.0
 11
14000.80217064596
 21
737.8747482146435
 31
0.0
  0
LINE
  5
1575F
330
155B8
100
AcDbEntity
  8
YODOROGO
100
AcDbLine
 10
13988.80217064596
 20
766.3840395167142
 30
0.0
 11
14000.80217064596
 21
790.0026748448738
 31
0.0
  0
LINE
  5
15760
330
155B8
100
AcDbEntity
  8
YODOROGO
100
AcDbLine
 10
13988.80217064596
 20
778.3840395167149
 30
0.0
 11
13988.80217064596
 21
766.3840395167142
 31
0.0
  0
LINE
  5
15761
330
155B8
100
AcDbEntity
  8
YODOROGO
100
AcDbLine
 10
14012.91438714567
 20
833.8747482146427
 30
0.0
 11
13988.80217064596
 21
778.3840395167149
 31
0.0
  0
LINE
  5
15762
330
155B8
100
AcDbEntity
  8
YODOROGO
100
AcDbLine
 10
13988.80217064596
 20
833.8747482146427
 30
0.0
 11
14012.91438714567
 21
833.8747482146427
 31
0.0
  0
LINE
  5
15763
330
155B8
100
AcDbEntity
  8
YODOROGO
100
AcDbLine
 10
14025.06776011545
 20
827.751818637328
 30
0.0
 11
14041.06776011546
 21
827.751818637328
 31
0.0
1001
AUTOCAD_POSTSCRIPT_FIGURE
1002
{
1000
PSFILL
1000
Grayscale
1000
Grayscale
1070
   100
1002
}
  0
LINE
  5
15764
330
155B8
100
AcDbEntity
  8
YODOROGO
100
AcDbLine
 10
14025.06776011545
 20
815.7518186373286
 30
0.0
 11
14025.06776011545
 21
827.751818637328
 31
0.0
1001
AUTOCAD_POSTSCRIPT_FIGURE
1002
{
1000
PSFILL
1000
Grayscale
1000
Grayscale
1070
   100
1002
}
  0
LINE
  5
15765
330
155B8
100
AcDbEntity
  8
YODOROGO
100
AcDbLine
 10
14041.06776011546
 20
815.7518186373286
 30
0.0
 11
14025.06776011545
 21
815.7518186373286
 31
0.0
1001
AUTOCAD_POSTSCRIPT_FIGURE
1002
{
1000
PSFILL
1000
Grayscale
1000
Grayscale
1070
   100
1002
}
  0
LINE
  5
15766
330
155B8
100
AcDbEntity
  8
YODOROGO
100
AcDbLine
 10
14041.06776011546
 20
749.8747482146441
 30
0.0
 11
14041.06776011546
 21
815.7518186373286
 31
0.0
1001
AUTOCAD_POSTSCRIPT_FIGURE
1002
{
1000
PSFILL
1000
Grayscale
1000
Grayscale
1070
   100
1002
}
  0
LINE
  5
15767
330
155B8
100
AcDbEntity
  8
YODOROGO
100
AcDbLine
 10
14025.06776011545
 20
749.8747482146441
 30
0.0
 11
14041.06776011546
 21
749.8747482146441
 31
0.0
1001
AUTOCAD_POSTSCRIPT_FIGURE
1002
{
1000
PSFILL
1000
Grayscale
1000
Grayscale
1070
   100
1002
}
  0
LINE
  5
15768
330
155B8
100
AcDbEntity
  8
YODOROGO
100
AcDbLine
 10
14025.06776011545
 20
737.8747482146435
 30
0.0
 11
14025.06776011545
 21
749.8747482146441
 31
0.0
1001
AUTOCAD_POSTSCRIPT_FIGURE
1002
{
1000
PSFILL
1000
Grayscale
1000
Grayscale
1070
   100
1002
}
  0
LINE
  5
15769
330
155B8
100
AcDbEntity
  8
YODOROGO
100
AcDbLine
 10
14068.80217064596
 20
737.8747482146435
 30
0.0
 11
14025.06776011545
 21
737.8747482146435
 31
0.0
1001
AUTOCAD_POSTSCRIPT_FIGURE
1002
{
1000
PSFILL
1000
Grayscale
1000
Grayscale
1070
   100
1002
}
  0
LINE
  5
1576A
330
155B8
100
AcDbEntity
  8
YODOROGO
100
AcDbLine
 10
14068.80217064596
 20
749.8747482146441
 30
0.0
 11
14068.80217064596
 21
737.8747482146435
 31
0.0
1001
AUTOCAD_POSTSCRIPT_FIGURE
1002
{
1000
PSFILL
1000
Grayscale
1000
Grayscale
1070
   100
1002
}
  0
LINE
  5
1576B
330
155B8
100
AcDbEntity
  8
YODOROGO
100
AcDbLine
 10
14049.06776011545
 20
749.8747482146441
 30
0.0
 11
14068.80217064596
 21
749.8747482146441
 31
0.0
1001
AUTOCAD_POSTSCRIPT_FIGURE
1002
{
1000
PSFILL
1000
Grayscale
1000
Grayscale
1070
   100
1002
}
  0
LINE
  5
1576C
330
155B8
100
AcDbEntity
  8
YODOROGO
100
AcDbLine
 10
14049.06776011545
 20
815.7518186373286
 30
0.0
 11
14049.06776011545
 21
749.8747482146441
 31
0.0
1001
AUTOCAD_POSTSCRIPT_FIGURE
1002
{
1000
PSFILL
1000
Grayscale
1000
Grayscale
1070
   100
1002
}
  0
LINE
  5
1576D
330
155B8
100
AcDbEntity
  8
YODOROGO
100
AcDbLine
 10
14068.80217064596
 20
815.7518186373286
 30
0.0
 11
14049.06776011545
 21
815.7518186373286
 31
0.0
1001
AUTOCAD_POSTSCRIPT_FIGURE
1002
{
1000
PSFILL
1000
Grayscale
1000
Grayscale
1070
   100
1002
}
  0
LINE
  5
1576E
330
155B8
100
AcDbEntity
  8
YODOROGO
100
AcDbLine
 10
14068.80217064596
 20
827.751818637328
 30
0.0
 11
14068.80217064596
 21
815.7518186373286
 31
0.0
1001
AUTOCAD_POSTSCRIPT_FIGURE
1002
{
1000
PSFILL
1000
Grayscale
1000
Grayscale
1070
   100
1002
}
  0
LINE
  5
1576F
330
155B8
100
AcDbEntity
  8
YODOROGO
100
AcDbLine
 10
14049.06776011545
 20
827.751818637328
 30
0.0
 11
14068.80217064596
 21
827.751818637328
 31
0.0
1001
AUTOCAD_POSTSCRIPT_FIGURE
1002
{
1000
PSFILL
1000
Grayscale
1000
Grayscale
1070
   100
1002
}
  0
LINE
  5
15770
330
155B8
100
AcDbEntity
  8
YODOROGO
100
AcDbLine
 10
14200.80217064594
 20
833.8747482146439
 30
0.0
 11
14172.80217064596
 21
833.8747482146439
 31
0.0
  0
LINE
  5
15771
330
155B8
100
AcDbEntity
  8
YODOROGO
100
AcDbLine
 10
14200.80217064594
 20
805.8747482146443
 30
0.0
 11
14200.80217064594
 21
833.8747482146439
 31
0.0
  0
LINE
  5
15772
330
155B8
100
AcDbEntity
  8
YODOROGO
100
AcDbLine
 10
14172.80217064596
 20
833.8747482146439
 30
0.0
 11
14172.80217064596
 21
805.8747482146443
 31
0.0
  0
ARC
  5
15773
330
155B8
100
AcDbEntity
  8
YODOROGO
100
AcDbCircle
 10
14256.80217064594
 20
753.8747482146439
 30
0.0
 40
40.0
100
AcDbArc
 50
180.0
 51
270.0
  0
ARC
  5
15774
330
155B8
100
AcDbEntity
  8
YODOROGO
100
AcDbCircle
 10
14268.80217064594
 20
781.8747482146434
 30
0.0
 40
20.0
100
AcDbArc
 50
180.0
 51
270.0
  0
LINE
  5
15775
330
155B8
100
AcDbEntity
  8
YODOROGO
100
AcDbLine
 10
14280.80217064596
 20
761.8747482146434
 30
0.0
 11
14268.80217064594
 21
761.8747482146434
 31
0.0
  0
ARC
  5
15776
330
155B8
100
AcDbEntity
  8
YODOROGO
100
AcDbCircle
 10
14280.80217064596
 20
773.8747482146427
 30
0.0
 40
11.99999999999818
100
AcDbArc
 50
270.0
 51
0.0000000000054281
  0
LINE
  5
15777
330
155B8
100
AcDbEntity
  8
YODOROGO
100
AcDbLine
 10
13900.80217064596
 20
945.3932903968532
 30
0.0
 11
13888.80217064596
 21
921.8883739758362
 31
0.0
1001
AUTOCAD_POSTSCRIPT_FIGURE
1002
{
1000
PSFILL
1000
Grayscale
1000
Grayscale
1070
   100
1002
}
  0
LINE
  5
15778
330
155B8
100
AcDbEntity
  8
YODOROGO
100
AcDbLine
 10
13900.80217064596
 20
873.8747482146434
 30
0.0
 11
13900.80217064596
 21
945.3932903968532
 31
0.0
1001
AUTOCAD_POSTSCRIPT_FIGURE
1002
{
1000
PSFILL
1000
Grayscale
1000
Grayscale
1070
   100
1002
}
  0
LINE
  5
15779
330
155B8
100
AcDbEntity
  8
YODOROGO
100
AcDbLine
 10
13908.80217064596
 20
873.8747482146434
 30
0.0
 11
13900.80217064596
 21
873.8747482146434
 31
0.0
1001
AUTOCAD_POSTSCRIPT_FIGURE
1002
{
1000
PSFILL
1000
Grayscale
1000
Grayscale
1070
   100
1002
}
  0
LINE
  5
1577A
330
155B8
100
AcDbEntity
  8
YODOROGO
100
AcDbLine
 10
13908.80217064596
 20
946.8856660426332
 30
0.0
 11
13908.80217064596
 21
873.8747482146434
 31
0.0
1001
AUTOCAD_POSTSCRIPT_FIGURE
1002
{
1000
PSFILL
1000
Grayscale
1000
Grayscale
1070
   100
1002
}
  0
LINE
  5
1577B
330
155B8
100
AcDbEntity
  8
YODOROGO
100
AcDbLine
 10
13920.80217064596
 20
933.8273791420684
 30
0.0
 11
13908.80217064596
 21
946.8856660426332
 31
0.0
1001
AUTOCAD_POSTSCRIPT_FIGURE
1002
{
1000
PSFILL
1000
Grayscale
1000
Grayscale
1070
   100
1002
}
  0
LINE
  5
1577C
330
155B8
100
AcDbEntity
  8
YODOROGO
100
AcDbLine
 10
13920.80217064596
 20
941.8273791420681
 30
0.0
 11
13920.80217064596
 21
933.8273791420684
 31
0.0
1001
AUTOCAD_POSTSCRIPT_FIGURE
1002
{
1000
PSFILL
1000
Grayscale
1000
Grayscale
1070
   100
1002
}
  0
LINE
  5
1577D
330
155B8
100
AcDbEntity
  8
YODOROGO
100
AcDbLine
 10
13908.80217064596
 20
958.8856660426325
 30
0.0
 11
13920.80217064596
 21
941.8273791420681
 31
0.0
1001
AUTOCAD_POSTSCRIPT_FIGURE
1002
{
1000
PSFILL
1000
Grayscale
1000
Grayscale
1070
   100
1002
}
  0
LINE
  5
1577E
330
155B8
100
AcDbEntity
  8
YODOROGO
100
AcDbLine
 10
13908.80217064596
 20
969.8747482146441
 30
0.0
 11
13908.80217064596
 21
958.8856660426325
 31
0.0
1001
AUTOCAD_POSTSCRIPT_FIGURE
1002
{
1000
PSFILL
1000
Grayscale
1000
Grayscale
1070
   100
1002
}
  0
LINE
  5
1577F
330
155B8
100
AcDbEntity
  8
YODOROGO
100
AcDbLine
 10
13944.80217064596
 20
969.8747482146441
 30
0.0
 11
13908.80217064596
 21
969.8747482146441
 31
0.0
1001
AUTOCAD_POSTSCRIPT_FIGURE
1002
{
1000
PSFILL
1000
Grayscale
1000
Grayscale
1070
   100
1002
}
  0
LINE
  5
15780
330
155B8
100
AcDbEntity
  8
YODOROGO
100
AcDbLine
 10
13944.80217064596
 20
950.2841744681497
 30
0.0
 11
13944.80217064596
 21
969.8747482146441
 31
0.0
1001
AUTOCAD_POSTSCRIPT_FIGURE
1002
{
1000
PSFILL
1000
Grayscale
1000
Grayscale
1070
   100
1002
}
  0
LINE
  5
15781
330
155B8
100
AcDbEntity
  8
YODOROGO
100
AcDbLine
 10
13928.80217064596
 20
950.2841744681497
 30
0.0
 11
13944.80217064596
 21
950.2841744681497
 31
0.0
1001
AUTOCAD_POSTSCRIPT_FIGURE
1002
{
1000
PSFILL
1000
Grayscale
1000
Grayscale
1070
   100
1002
}
  0
LINE
  5
15782
330
155B8
100
AcDbEntity
  8
YODOROGO
100
AcDbLine
 10
13928.80217064596
 20
942.2841744681491
 30
0.0
 11
13928.80217064596
 21
950.2841744681497
 31
0.0
1001
AUTOCAD_POSTSCRIPT_FIGURE
1002
{
1000
PSFILL
1000
Grayscale
1000
Grayscale
1070
   100
1002
}
  0
LINE
  5
15783
330
155B8
100
AcDbEntity
  8
YODOROGO
100
AcDbLine
 10
13944.80217064596
 20
942.2841744681491
 30
0.0
 11
13928.80217064596
 21
942.2841744681491
 31
0.0
1001
AUTOCAD_POSTSCRIPT_FIGURE
1002
{
1000
PSFILL
1000
Grayscale
1000
Grayscale
1070
   100
1002
}
  0
LINE
  5
15784
330
155B8
100
AcDbEntity
  8
YODOROGO
100
AcDbLine
 10
13944.80217064596
 20
939.8095889822196
 30
0.0
 11
13944.80217064596
 21
942.2841744681491
 31
0.0
1001
AUTOCAD_POSTSCRIPT_FIGURE
1002
{
1000
PSFILL
1000
Grayscale
1000
Grayscale
1070
   100
1002
}
  0
LINE
  5
15785
330
155B8
100
AcDbEntity
  8
YODOROGO
100
AcDbLine
 10
13924.80217064596
 20
906.4874905807087
 30
0.0
 11
13944.80217064596
 21
939.8095889822196
 31
0.0
1001
AUTOCAD_POSTSCRIPT_FIGURE
1002
{
1000
PSFILL
1000
Grayscale
1000
Grayscale
1070
   100
1002
}
  0
LINE
  5
15786
330
155B8
100
AcDbEntity
  8
YODOROGO
100
AcDbLine
 10
13924.80217064596
 20
898.487490580708
 30
0.0
 11
13924.80217064596
 21
906.4874905807087
 31
0.0
1001
AUTOCAD_POSTSCRIPT_FIGURE
1002
{
1000
PSFILL
1000
Grayscale
1000
Grayscale
1070
   100
1002
}
  0
LINE
  5
15787
330
155B8
100
AcDbEntity
  8
YODOROGO
100
AcDbLine
 10
13944.80217064596
 20
923.8095889822183
 30
0.0
 11
13924.80217064596
 21
898.487490580708
 31
0.0
1001
AUTOCAD_POSTSCRIPT_FIGURE
1002
{
1000
PSFILL
1000
Grayscale
1000
Grayscale
1070
   100
1002
}
  0
LINE
  5
15788
330
155B8
100
AcDbEntity
  8
YODOROGO
100
AcDbLine
 10
13944.80217064596
 20
873.8747482146434
 30
0.0
 11
13944.80217064596
 21
923.8095889822183
 31
0.0
1001
AUTOCAD_POSTSCRIPT_FIGURE
1002
{
1000
PSFILL
1000
Grayscale
1000
Grayscale
1070
   100
1002
}
  0
LINE
  5
15789
330
155B8
100
AcDbEntity
  8
YODOROGO
100
AcDbLine
 10
13952.80217064596
 20
873.8747482146434
 30
0.0
 11
13944.80217064596
 21
873.8747482146434
 31
0.0
1001
AUTOCAD_POSTSCRIPT_FIGURE
1002
{
1000
PSFILL
1000
Grayscale
1000
Grayscale
1070
   100
1002
}
  0
LINE
  5
1578A
330
155B8
100
AcDbEntity
  8
YODOROGO
100
AcDbLine
 10
13952.80217064596
 20
924.7045060794032
 30
0.0
 11
13952.80217064596
 21
873.8747482146434
 31
0.0
1001
AUTOCAD_POSTSCRIPT_FIGURE
1002
{
1000
PSFILL
1000
Grayscale
1000
Grayscale
1070
   100
1002
}
  0
LINE
  5
1578B
330
155B8
100
AcDbEntity
  8
YODOROGO
100
AcDbLine
 10
13968.80217064596
 20
898.487490580708
 30
0.0
 11
13952.80217064596
 21
924.7045060794032
 31
0.0
1001
AUTOCAD_POSTSCRIPT_FIGURE
1002
{
1000
PSFILL
1000
Grayscale
1000
Grayscale
1070
   100
1002
}
  0
LINE
  5
1578C
330
155B8
100
AcDbEntity
  8
YODOROGO
100
AcDbLine
 10
13968.80217064596
 20
906.4874905807087
 30
0.0
 11
13968.80217064596
 21
898.487490580708
 31
0.0
1001
AUTOCAD_POSTSCRIPT_FIGURE
1002
{
1000
PSFILL
1000
Grayscale
1000
Grayscale
1070
   100
1002
}
  0
LINE
  5
1578D
330
155B8
100
AcDbEntity
  8
YODOROGO
100
AcDbLine
 10
13952.80217064596
 20
940.7045060794041
 30
0.0
 11
13968.80217064596
 21
906.4874905807087
 31
0.0
1001
AUTOCAD_POSTSCRIPT_FIGURE
1002
{
1000
PSFILL
1000
Grayscale
1000
Grayscale
1070
   100
1002
}
  0
LINE
  5
1578E
330
155B8
100
AcDbEntity
  8
YODOROGO
100
AcDbLine
 10
13952.80217064596
 20
942.2841744681502
 30
0.0
 11
13952.80217064596
 21
940.7045060794041
 31
0.0
1001
AUTOCAD_POSTSCRIPT_FIGURE
1002
{
1000
PSFILL
1000
Grayscale
1000
Grayscale
1070
   100
1002
}
  0
LINE
  5
1578F
330
155B8
100
AcDbEntity
  8
YODOROGO
100
AcDbLine
 10
13968.80217064596
 20
942.2841744681491
 30
0.0
 11
13952.80217064596
 21
942.2841744681502
 31
0.0
1001
AUTOCAD_POSTSCRIPT_FIGURE
1002
{
1000
PSFILL
1000
Grayscale
1000
Grayscale
1070
   100
1002
}
  0
LINE
  5
15790
330
155B8
100
AcDbEntity
  8
YODOROGO
100
AcDbLine
 10
13968.80217064596
 20
950.2841744681497
 30
0.0
 11
13968.80217064596
 21
942.2841744681491
 31
0.0
1001
AUTOCAD_POSTSCRIPT_FIGURE
1002
{
1000
PSFILL
1000
Grayscale
1000
Grayscale
1070
   100
1002
}
  0
LINE
  5
15791
330
155B8
100
AcDbEntity
  8
YODOROGO
100
AcDbLine
 10
13952.80217064596
 20
950.2841744681497
 30
0.0
 11
13968.80217064596
 21
950.2841744681497
 31
0.0
1001
AUTOCAD_POSTSCRIPT_FIGURE
1002
{
1000
PSFILL
1000
Grayscale
1000
Grayscale
1070
   100
1002
}
  0
LINE
  5
15792
330
155B8
100
AcDbEntity
  8
YODOROGO
100
AcDbLine
 10
13952.80217064596
 20
969.8747482146441
 30
0.0
 11
13952.80217064596
 21
950.2841744681497
 31
0.0
1001
AUTOCAD_POSTSCRIPT_FIGURE
1002
{
1000
PSFILL
1000
Grayscale
1000
Grayscale
1070
   100
1002
}
  0
LINE
  5
15793
330
155B8
100
AcDbEntity
  8
YODOROGO
100
AcDbLine
 10
13968.80217064596
 20
969.8747482146441
 30
0.0
 11
13952.80217064596
 21
969.8747482146441
 31
0.0
1001
AUTOCAD_POSTSCRIPT_FIGURE
1002
{
1000
PSFILL
1000
Grayscale
1000
Grayscale
1070
   100
1002
}
  0
LINE
  5
15794
330
155B8
100
AcDbEntity
  8
YODOROGO
100
AcDbLine
 10
13968.80217064596
 20
977.8747482146435
 30
0.0
 11
13968.80217064596
 21
969.8747482146441
 31
0.0
1001
AUTOCAD_POSTSCRIPT_FIGURE
1002
{
1000
PSFILL
1000
Grayscale
1000
Grayscale
1070
   100
1002
}
  0
LINE
  5
15795
330
155B8
100
AcDbEntity
  8
YODOROGO
100
AcDbLine
 10
13952.80217064596
 20
977.8747482146435
 30
0.0
 11
13968.80217064596
 21
977.8747482146435
 31
0.0
1001
AUTOCAD_POSTSCRIPT_FIGURE
1002
{
1000
PSFILL
1000
Grayscale
1000
Grayscale
1070
   100
1002
}
  0
LINE
  5
15796
330
155B8
100
AcDbEntity
  8
YODOROGO
100
AcDbLine
 10
13952.80217064596
 20
989.8747482146442
 30
0.0
 11
13952.80217064596
 21
977.8747482146435
 31
0.0
1001
AUTOCAD_POSTSCRIPT_FIGURE
1002
{
1000
PSFILL
1000
Grayscale
1000
Grayscale
1070
   100
1002
}
  0
LINE
  5
15797
330
155B8
100
AcDbEntity
  8
YODOROGO
100
AcDbLine
 10
13944.80217064596
 20
989.8747482146442
 30
0.0
 11
13952.80217064596
 21
989.8747482146442
 31
0.0
1001
AUTOCAD_POSTSCRIPT_FIGURE
1002
{
1000
PSFILL
1000
Grayscale
1000
Grayscale
1070
   100
1002
}
  0
LINE
  5
15798
330
155B8
100
AcDbEntity
  8
YODOROGO
100
AcDbLine
 10
13944.80217064596
 20
977.8747482146435
 30
0.0
 11
13944.80217064596
 21
989.8747482146442
 31
0.0
1001
AUTOCAD_POSTSCRIPT_FIGURE
1002
{
1000
PSFILL
1000
Grayscale
1000
Grayscale
1070
   100
1002
}
  0
LINE
  5
15799
330
155B8
100
AcDbEntity
  8
YODOROGO
100
AcDbLine
 10
13932.80217064596
 20
977.8747482146435
 30
0.0
 11
13944.80217064596
 21
977.8747482146435
 31
0.0
1001
AUTOCAD_POSTSCRIPT_FIGURE
1002
{
1000
PSFILL
1000
Grayscale
1000
Grayscale
1070
   100
1002
}
  0
LINE
  5
1579A
330
155B8
100
AcDbEntity
  8
YODOROGO
100
AcDbLine
 10
13932.80217064596
 20
989.8747482146442
 30
0.0
 11
13932.80217064596
 21
977.8747482146435
 31
0.0
1001
AUTOCAD_POSTSCRIPT_FIGURE
1002
{
1000
PSFILL
1000
Grayscale
1000
Grayscale
1070
   100
1002
}
  0
LINE
  5
1579B
330
155B8
100
AcDbEntity
  8
YODOROGO
100
AcDbLine
 10
13924.80217064596
 20
989.8747482146442
 30
0.0
 11
13932.80217064596
 21
989.8747482146442
 31
0.0
1001
AUTOCAD_POSTSCRIPT_FIGURE
1002
{
1000
PSFILL
1000
Grayscale
1000
Grayscale
1070
   100
1002
}
  0
LINE
  5
1579C
330
155B8
100
AcDbEntity
  8
YODOROGO
100
AcDbLine
 10
13924.80217064596
 20
977.8747482146435
 30
0.0
 11
13924.80217064596
 21
989.8747482146442
 31
0.0
1001
AUTOCAD_POSTSCRIPT_FIGURE
1002
{
1000
PSFILL
1000
Grayscale
1000
Grayscale
1070
   100
1002
}
  0
LINE
  5
1579D
330
155B8
100
AcDbEntity
  8
YODOROGO
100
AcDbLine
 10
13908.80217064596
 20
977.8747482146435
 30
0.0
 11
13924.80217064596
 21
977.8747482146435
 31
0.0
1001
AUTOCAD_POSTSCRIPT_FIGURE
1002
{
1000
PSFILL
1000
Grayscale
1000
Grayscale
1070
   100
1002
}
  0
LINE
  5
1579E
330
155B8
100
AcDbEntity
  8
YODOROGO
100
AcDbLine
 10
13908.80217064596
 20
989.8747482146442
 30
0.0
 11
13908.80217064596
 21
977.8747482146435
 31
0.0
1001
AUTOCAD_POSTSCRIPT_FIGURE
1002
{
1000
PSFILL
1000
Grayscale
1000
Grayscale
1070
   100
1002
}
  0
LINE
  5
1579F
330
155B8
100
AcDbEntity
  8
YODOROGO
100
AcDbLine
 10
13900.80217064596
 20
989.8747482146442
 30
0.0
 11
13908.80217064596
 21
989.8747482146442
 31
0.0
1001
AUTOCAD_POSTSCRIPT_FIGURE
1002
{
1000
PSFILL
1000
Grayscale
1000
Grayscale
1070
   100
1002
}
  0
LINE
  5
157A0
330
155B8
100
AcDbEntity
  8
YODOROGO
100
AcDbLine
 10
13900.80217064596
 20
977.8747482146435
 30
0.0
 11
13900.80217064596
 21
989.8747482146442
 31
0.0
1001
AUTOCAD_POSTSCRIPT_FIGURE
1002
{
1000
PSFILL
1000
Grayscale
1000
Grayscale
1070
   100
1002
}
  0
LINE
  5
157A1
330
155B8
100
AcDbEntity
  8
YODOROGO
100
AcDbLine
 10
13888.80217064596
 20
977.8747482146435
 30
0.0
 11
13900.80217064596
 21
977.8747482146435
 31
0.0
1001
AUTOCAD_POSTSCRIPT_FIGURE
1002
{
1000
PSFILL
1000
Grayscale
1000
Grayscale
1070
   100
1002
}
  0
LINE
  5
157A2
330
155B8
100
AcDbEntity
  8
YODOROGO
100
AcDbLine
 10
13888.80217064596
 20
969.8747482146441
 30
0.0
 11
13888.80217064596
 21
977.8747482146435
 31
0.0
1001
AUTOCAD_POSTSCRIPT_FIGURE
1002
{
1000
PSFILL
1000
Grayscale
1000
Grayscale
1070
   100
1002
}
  0
LINE
  5
157A3
330
155B8
100
AcDbEntity
  8
YODOROGO
100
AcDbLine
 10
13900.80217064596
 20
969.8747482146441
 30
0.0
 11
13888.80217064596
 21
969.8747482146441
 31
0.0
1001
AUTOCAD_POSTSCRIPT_FIGURE
1002
{
1000
PSFILL
1000
Grayscale
1000
Grayscale
1070
   100
1002
}
  0
LINE
  5
157A4
330
155B8
100
AcDbEntity
  8
YODOROGO
100
AcDbLine
 10
13900.80217064596
 20
957.3932903968525
 30
0.0
 11
13900.80217064596
 21
969.8747482146441
 31
0.0
1001
AUTOCAD_POSTSCRIPT_FIGURE
1002
{
1000
PSFILL
1000
Grayscale
1000
Grayscale
1070
   100
1002
}
  0
LINE
  5
157A5
330
155B8
100
AcDbEntity
  8
YODOROGO
100
AcDbLine
 10
13888.80217064596
 20
929.8883739758355
 30
0.0
 11
13900.80217064596
 21
957.3932903968525
 31
0.0
1001
AUTOCAD_POSTSCRIPT_FIGURE
1002
{
1000
PSFILL
1000
Grayscale
1000
Grayscale
1070
   100
1002
}
  0
LINE
  5
157A6
330
155B8
100
AcDbEntity
  8
YODOROGO
100
AcDbLine
 10
13888.80217064596
 20
921.8883739758362
 30
0.0
 11
13888.80217064596
 21
929.8883739758355
 31
0.0
1001
AUTOCAD_POSTSCRIPT_FIGURE
1002
{
1000
PSFILL
1000
Grayscale
1000
Grayscale
1070
   100
1002
}
  0
LINE
  5
157A7
330
155B8
100
AcDbEntity
  8
YODOROGO
100
AcDbLine
 10
14128.80217064596
 20
933.8747482146439
 30
0.0
 11
14200.80217064594
 21
912.4388128201532
 31
0.0
1001
AUTOCAD_POSTSCRIPT_FIGURE
1002
{
1000
PSFILL
1000
Grayscale
1000
Grayscale
1070
   100
1002
}
  0
LINE
  5
157A8
330
155B8
100
AcDbEntity
  8
YODOROGO
100
AcDbLine
 10
14200.80217064594
 20
876.4388128201531
 30
0.0
 11
14128.80217064596
 21
897.8747482146435
 31
0.0
1001
AUTOCAD_POSTSCRIPT_FIGURE
1002
{
1000
PSFILL
1000
Grayscale
1000
Grayscale
1070
   100
1002
}
  0
LINE
  5
157A9
330
155B8
100
AcDbEntity
  8
YODOROGO
100
AcDbLine
 10
14200.80217064594
 20
992.4388128201531
 30
0.0
 11
14128.80217064596
 21
1013.874748214644
 31
0.0
1001
AUTOCAD_POSTSCRIPT_FIGURE
1002
{
1000
PSFILL
1000
Grayscale
1000
Grayscale
1070
   100
1002
}
  0
LINE
  5
157AA
330
155B8
100
AcDbEntity
  8
YODOROGO
100
AcDbLine
 10
14128.80217064596
 20
979.874748214644
 30
0.0
 11
14200.80217064594
 21
958.4388128201537
 31
0.0
1001
AUTOCAD_POSTSCRIPT_FIGURE
1002
{
1000
PSFILL
1000
Grayscale
1000
Grayscale
1070
   100
1002
}
  0
LINE
  5
157AB
330
155B8
100
AcDbEntity
  8
YODOROGO
100
AcDbLine
 10
14128.80217064596
 20
897.8747482146435
 30
0.0
 11
14128.80217064596
 21
933.8747482146439
 31
0.0
1001
AUTOCAD_POSTSCRIPT_FIGURE
1002
{
1000
PSFILL
1000
Grayscale
1000
Grayscale
1070
   100
1002
}
  0
LINE
  5
157AC
330
155B8
100
AcDbEntity
  8
YODOROGO
100
AcDbLine
 10
14128.80217064596
 20
1013.874748214644
 30
0.0
 11
14128.80217064596
 21
979.874748214644
 31
0.0
1001
AUTOCAD_POSTSCRIPT_FIGURE
1002
{
1000
PSFILL
1000
Grayscale
1000
Grayscale
1070
   100
1002
}
  0
LINE
  5
157AD
330
155B8
100
AcDbEntity
  8
YODOROGO
100
AcDbLine
 10
14040.11816010337
 20
969.8747482146441
 30
0.0
 11
14064.80217064595
 21
873.8747482146434
 31
0.0
1001
AUTOCAD_POSTSCRIPT_FIGURE
1002
{
1000
PSFILL
1000
Grayscale
1000
Grayscale
1070
   100
1002
}
  0
LINE
  5
157AE
330
155B8
100
AcDbEntity
  8
YODOROGO
100
AcDbLine
 10
13988.80217064596
 20
969.8747482146441
 30
0.0
 11
14040.11816010337
 21
969.8747482146441
 31
0.0
1001
AUTOCAD_POSTSCRIPT_FIGURE
1002
{
1000
PSFILL
1000
Grayscale
1000
Grayscale
1070
   100
1002
}
  0
LINE
  5
157AF
330
155B8
100
AcDbEntity
  8
YODOROGO
100
AcDbLine
 10
13988.80217064596
 20
977.8747482146435
 30
0.0
 11
13988.80217064596
 21
969.8747482146441
 31
0.0
1001
AUTOCAD_POSTSCRIPT_FIGURE
1002
{
1000
PSFILL
1000
Grayscale
1000
Grayscale
1070
   100
1002
}
  0
LINE
  5
157B0
330
155B8
100
AcDbEntity
  8
YODOROGO
100
AcDbLine
 10
14038.30343925995
 20
977.8747482146435
 30
0.0
 11
13988.80217064596
 21
977.8747482146435
 31
0.0
1001
AUTOCAD_POSTSCRIPT_FIGURE
1002
{
1000
PSFILL
1000
Grayscale
1000
Grayscale
1070
   100
1002
}
  0
LINE
  5
157B1
330
155B8
100
AcDbEntity
  8
YODOROGO
100
AcDbLine
 10
14035.58135799485
 20
989.8747482146442
 30
0.0
 11
14038.30343925995
 21
977.8747482146435
 31
0.0
1001
AUTOCAD_POSTSCRIPT_FIGURE
1002
{
1000
PSFILL
1000
Grayscale
1000
Grayscale
1070
   100
1002
}
  0
LINE
  5
157B2
330
155B8
100
AcDbEntity
  8
YODOROGO
100
AcDbLine
 10
14045.58135799485
 20
989.8747482146442
 30
0.0
 11
14035.58135799485
 21
989.8747482146442
 31
0.0
1001
AUTOCAD_POSTSCRIPT_FIGURE
1002
{
1000
PSFILL
1000
Grayscale
1000
Grayscale
1070
   100
1002
}
  0
LINE
  5
157B3
330
155B8
100
AcDbEntity
  8
YODOROGO
100
AcDbLine
 10
14047.90343925997
 20
977.8747482146435
 30
0.0
 11
14045.58135799485
 21
989.8747482146442
 31
0.0
1001
AUTOCAD_POSTSCRIPT_FIGURE
1002
{
1000
PSFILL
1000
Grayscale
1000
Grayscale
1070
   100
1002
}
  0
LINE
  5
157B4
330
155B8
100
AcDbEntity
  8
YODOROGO
100
AcDbLine
 10
14060.80217064596
 20
977.8747482146435
 30
0.0
 11
14047.90343925997
 21
977.8747482146435
 31
0.0
1001
AUTOCAD_POSTSCRIPT_FIGURE
1002
{
1000
PSFILL
1000
Grayscale
1000
Grayscale
1070
   100
1002
}
  0
LINE
  5
157B5
330
155B8
100
AcDbEntity
  8
YODOROGO
100
AcDbLine
 10
14060.80217064596
 20
989.8747482146442
 30
0.0
 11
14060.80217064596
 21
977.8747482146435
 31
0.0
1001
AUTOCAD_POSTSCRIPT_FIGURE
1002
{
1000
PSFILL
1000
Grayscale
1000
Grayscale
1070
   100
1002
}
  0
LINE
  5
157B6
330
155B8
100
AcDbEntity
  8
YODOROGO
100
AcDbLine
 10
14068.80217064596
 20
989.8747482146442
 30
0.0
 11
14060.80217064596
 21
989.8747482146442
 31
0.0
1001
AUTOCAD_POSTSCRIPT_FIGURE
1002
{
1000
PSFILL
1000
Grayscale
1000
Grayscale
1070
   100
1002
}
  0
LINE
  5
157B7
330
155B8
100
AcDbEntity
  8
YODOROGO
100
AcDbLine
 10
14068.80217064596
 20
977.8747482146435
 30
0.0
 11
14068.80217064596
 21
989.8747482146442
 31
0.0
1001
AUTOCAD_POSTSCRIPT_FIGURE
1002
{
1000
PSFILL
1000
Grayscale
1000
Grayscale
1070
   100
1002
}
  0
LINE
  5
157B8
330
155B8
100
AcDbEntity
  8
YODOROGO
100
AcDbLine
 10
14068.80217064596
 20
969.8747482146441
 30
0.0
 11
14068.80217064596
 21
977.8747482146435
 31
0.0
1001
AUTOCAD_POSTSCRIPT_FIGURE
1002
{
1000
PSFILL
1000
Grayscale
1000
Grayscale
1070
   100
1002
}
  0
LINE
  5
157B9
330
155B8
100
AcDbEntity
  8
YODOROGO
100
AcDbLine
 10
14049.45149343671
 20
969.8747482146441
 30
0.0
 11
14068.80217064596
 21
969.8747482146441
 31
0.0
1001
AUTOCAD_POSTSCRIPT_FIGURE
1002
{
1000
PSFILL
1000
Grayscale
1000
Grayscale
1070
   100
1002
}
  0
LINE
  5
157BA
330
155B8
100
AcDbEntity
  8
YODOROGO
100
AcDbLine
 10
14068.80217064596
 20
873.8747482146434
 30
0.0
 11
14049.45149343671
 21
969.8747482146441
 31
0.0
1001
AUTOCAD_POSTSCRIPT_FIGURE
1002
{
1000
PSFILL
1000
Grayscale
1000
Grayscale
1070
   100
1002
}
  0
LINE
  5
157BB
330
155B8
100
AcDbEntity
  8
YODOROGO
100
AcDbLine
 10
14064.80217064595
 20
873.8747482146434
 30
0.0
 11
14068.80217064596
 21
873.8747482146434
 31
0.0
1001
AUTOCAD_POSTSCRIPT_FIGURE
1002
{
1000
PSFILL
1000
Grayscale
1000
Grayscale
1070
   100
1002
}
  0
LINE
  5
157BC
330
155B8
100
AcDbEntity
  8
YODOROGO
100
AcDbLine
 10
14039.03460996689
 20
887.8703881493972
 30
0.0
 11
13988.80217064596
 21
873.8747482146434
 31
0.0
  0
LINE
  5
157BD
330
155B8
100
AcDbEntity
  8
YODOROGO
100
AcDbLine
 10
14039.03460996689
 20
899.3344897645364
 30
0.0
 11
14039.03460996689
 21
887.8703881493972
 31
0.0
  0
LINE
  5
157BE
330
155B8
100
AcDbEntity
  8
YODOROGO
100
AcDbLine
 10
14016.91839030643
 20
893.4084665668834
 30
0.0
 11
14039.03460996689
 21
899.3344897645364
 31
0.0
  0
LINE
  5
157BF
330
155B8
100
AcDbEntity
  8
YODOROGO
100
AcDbLine
 10
14016.91839030643
 20
936.2841744681499
 30
0.0
 11
14016.91839030643
 21
893.4084665668834
 31
0.0
  0
LINE
  5
157C0
330
155B8
100
AcDbEntity
  8
YODOROGO
100
AcDbLine
 10
14039.03460996689
 20
936.2841744681499
 30
0.0
 11
14016.91839030643
 21
936.2841744681499
 31
0.0
  0
LINE
  5
157C1
330
155B8
100
AcDbEntity
  8
YODOROGO
100
AcDbLine
 10
14039.03460996689
 20
946.2841744681487
 30
0.0
 11
14039.03460996689
 21
936.2841744681499
 31
0.0
  0
LINE
  5
157C2
330
155B8
100
AcDbEntity
  8
YODOROGO
100
AcDbLine
 10
13988.80217064596
 20
946.2841744681487
 30
0.0
 11
14039.03460996689
 21
946.2841744681487
 31
0.0
  0
LINE
  5
157C3
330
155B8
100
AcDbEntity
  8
YODOROGO
100
AcDbLine
 10
13988.80217064596
 20
936.2841744681499
 30
0.0
 11
13988.80217064596
 21
946.2841744681487
 31
0.0
  0
LINE
  5
157C4
330
155B8
100
AcDbEntity
  8
YODOROGO
100
AcDbLine
 10
14010.91839030643
 20
936.2841744681499
 30
0.0
 11
13988.80217064596
 21
936.2841744681499
 31
0.0
  0
LINE
  5
157C5
330
155B8
100
AcDbEntity
  8
YODOROGO
100
AcDbLine
 10
14010.91839030643
 20
892.3366697971587
 30
0.0
 11
14010.91839030643
 21
936.2841744681499
 31
0.0
  0
LINE
  5
157C6
330
155B8
100
AcDbEntity
  8
YODOROGO
100
AcDbLine
 10
13988.80217064596
 20
885.8747482146432
 30
0.0
 11
14010.91839030643
 21
892.3366697971587
 31
0.0
  0
LINE
  5
157C7
330
155B8
100
AcDbEntity
  8
YODOROGO
100
AcDbLine
 10
13988.80217064596
 20
873.8747482146434
 30
0.0
 11
13988.80217064596
 21
885.8747482146432
 31
0.0
  0
LINE
  5
157C8
330
155B8
100
AcDbEntity
  8
YODOROGO
100
AcDbLine
 10
14000.80217064596
 20
853.874748214644
 30
0.0
 11
14000.80217064596
 21
841.8747482146434
 31
0.0
  0
LINE
  5
157C9
330
155B8
100
AcDbEntity
  8
YODOROGO
100
AcDbLine
 10
14000.80217064596
 20
853.874748214644
 30
0.0
 11
14000.80217064596
 21
853.874748214644
 31
0.0
  0
LINE
  5
157CA
330
155B8
100
AcDbEntity
  8
YODOROGO
100
AcDbLine
 10
14008.80217064596
 20
853.874748214644
 30
0.0
 11
14000.80217064596
 21
853.874748214644
 31
0.0
  0
LINE
  5
157CB
330
155B8
100
AcDbEntity
  8
YODOROGO
100
AcDbLine
 10
14008.80217064596
 20
841.8747482146434
 30
0.0
 11
14008.80217064596
 21
853.874748214644
 31
0.0
  0
LINE
  5
157CC
330
155B8
100
AcDbEntity
  8
YODOROGO
100
AcDbLine
 10
14020.45660200844
 20
841.8747482146434
 30
0.0
 11
14008.80217064596
 21
841.8747482146434
 31
0.0
  0
LINE
  5
157CD
330
155B8
100
AcDbEntity
  8
YODOROGO
100
AcDbLine
 10
14000.80217064596
 20
841.8747482146434
 30
0.0
 11
13988.80217064596
 21
841.8747482146434
 31
0.0
  0
LINE
  5
157CE
330
155B8
100
AcDbEntity
  8
YODOROGO
100
AcDbLine
 10
14041.06776011546
 20
853.874748214644
 30
0.0
 11
14049.06776011545
 21
853.874748214644
 31
0.0
1001
AUTOCAD_POSTSCRIPT_FIGURE
1002
{
1000
PSFILL
1000
Grayscale
1000
Grayscale
1070
   100
1002
}
  0
LINE
  5
157CF
330
155B8
100
AcDbEntity
  8
YODOROGO
100
AcDbLine
 10
14200.80217064594
 20
912.4388128201532
 30
0.0
 11
14200.80217064594
 21
876.4388128201531
 31
0.0
1001
AUTOCAD_POSTSCRIPT_FIGURE
1002
{
1000
PSFILL
1000
Grayscale
1000
Grayscale
1070
   100
1002
}
  0
LINE
  5
157D0
330
155B8
100
AcDbEntity
  8
YODOROGO
100
AcDbLine
 10
14200.80217064594
 20
958.4388128201537
 30
0.0
 11
14200.80217064594
 21
992.4388128201531
 31
0.0
1001
AUTOCAD_POSTSCRIPT_FIGURE
1002
{
1000
PSFILL
1000
Grayscale
1000
Grayscale
1070
   100
1002
}
  0
LINE
  5
157D1
330
155B8
100
AcDbEntity
  8
YODOROGO
100
AcDbLine
 10
14216.80217064594
 20
909.8747482146439
 30
0.0
 11
14216.80217064594
 21
873.8747482146449
 31
0.0
  0
LINE
  5
157D2
330
155B8
100
AcDbEntity
  8
YODOROGO
100
AcDbLine
 10
14248.80217064594
 20
853.874748214644
 30
0.0
 11
14216.80217064594
 21
853.874748214644
 31
0.0
  0
LINE
  5
157D3
330
155B8
100
AcDbEntity
  8
YODOROGO
100
AcDbLine
 10
14216.80217064594
 20
873.8747482146449
 30
0.0
 11
14292.80217064596
 21
873.8747482146449
 31
0.0
  0
LINE
  5
157D4
330
155B8
100
AcDbEntity
  8
YODOROGO
100
AcDbLine
 10
14248.80217064594
 20
933.8747482146439
 30
0.0
 11
14216.80217064594
 21
933.8747482146439
 31
0.0
  0
LINE
  5
157D5
330
155B8
100
AcDbEntity
  8
YODOROGO
100
AcDbLine
 10
14248.80217064594
 20
961.8747482146432
 30
0.0
 11
14248.80217064594
 21
933.8747482146439
 31
0.0
  0
LINE
  5
157D6
330
155B8
100
AcDbEntity
  8
YODOROGO
100
AcDbLine
 10
14292.80217064596
 20
993.8747482146439
 30
0.0
 11
14292.80217064596
 21
1013.874748214644
 31
0.0
  0
LINE
  5
157D7
330
155B8
100
AcDbEntity
  8
YODOROGO
100
AcDbLine
 10
14216.80217064594
 20
993.8747482146439
 30
0.0
 11
14292.80217064596
 21
993.8747482146439
 31
0.0
  0
LINE
  5
157D8
330
155B8
100
AcDbEntity
  8
YODOROGO
100
AcDbLine
 10
14216.80217064594
 20
933.8747482146439
 30
0.0
 11
14216.80217064594
 21
993.8747482146439
 31
0.0
  0
LINE
  5
157D9
330
155B8
100
AcDbEntity
  8
YODOROGO
100
AcDbLine
 10
14500.80217064594
 20
1013.874748214644
 30
0.0
 11
14500.80217064594
 21
809.8747482146441
 31
0.0
  0
LINE
  5
157DA
330
155B8
100
AcDbEntity
  8
YODOROGO
100
AcDbLine
 10
14536.80217064596
 20
789.8747482146441
 30
0.0
 11
14536.80217064596
 21
1013.874748214644
 31
0.0
  0
LINE
  5
157DB
330
155B8
100
AcDbEntity
  8
YODOROGO
100
AcDbLine
 10
14630.80217064596
 20
745.8747482146431
 30
0.0
 11
14630.80217064596
 21
1003.874748214644
 31
0.0
  0
LINE
  5
157DC
330
155B8
100
AcDbEntity
  8
YODOROGO
100
AcDbLine
 10
14598.80217064596
 20
1003.874748214644
 30
0.0
 11
14598.80217064596
 21
745.8747482146431
 31
0.0
  0
LINE
  5
157DD
330
155B8
100
AcDbEntity
  8
YODOROGO
100
AcDbLine
 10
14692.80217064596
 20
1013.874748214644
 30
0.0
 11
14692.80217064596
 21
713.8747482146436
 31
0.0
  0
LINE
  5
157DE
330
155B8
100
AcDbEntity
  8
YODOROGO
100
AcDbLine
 10
14728.80217064596
 20
713.8747482146436
 30
0.0
 11
14728.80217064596
 21
1013.874748214644
 31
0.0
  0
LINE
  5
157DF
330
155B8
100
AcDbEntity
  8
YODOROGO
100
AcDbLine
 10
14328.80217064594
 20
833.8747482146439
 30
0.0
 11
14328.80217064594
 21
873.8747482146449
 31
0.0
  0
LINE
  5
157E0
330
155B8
100
AcDbEntity
  8
YODOROGO
100
AcDbLine
 10
14942.80217064596
 20
853.874748214644
 30
0.0
 11
14942.80217064596
 21
833.8747482146439
 31
0.0
  0
LINE
  5
157E1
330
155B8
100
AcDbEntity
  8
YODOROGO
100
AcDbLine
 10
14942.80217064596
 20
853.874748214644
 30
0.0
 11
14942.80217064596
 21
833.8747482146439
 31
0.0
  0
ARC
  5
157E2
330
155B8
100
AcDbEntity
  8
YODOROGO
100
AcDbCircle
 10
14453.45578809342
 20
809.1089322211363
 30
0.0
 40
47.35257558937082
100
AcDbArc
 50
274.052441629071
 51
0.9266642149310712
  0
ARC
  5
157E3
330
155B8
100
AcDbEntity
  8
YODOROGO
100
AcDbCircle
 10
14454.5930853599
 20
796.30536430522
 30
0.0
 40
82.46021178042756
100
AcDbArc
 50
271.5351210653777
 51
355.5272775058505
  0
LINE
  5
157E4
330
155B8
100
AcDbEntity
  8
YODOROGO
100
AcDbLine
 10
14456.80217064596
 20
761.8747482146434
 30
0.0
 11
14456.80217064596
 21
713.8747482146436
 31
0.0
  0
LINE
  5
157E5
330
155B8
100
AcDbEntity
  8
YODOROGO
100
AcDbLine
 10
14396.80217064594
 20
833.8747482146439
 30
0.0
 11
14328.80217064594
 21
833.8747482146439
 31
0.0
  0
LINE
  5
157E6
330
155B8
100
AcDbEntity
  8
YODOROGO
100
AcDbLine
 10
14396.80217064594
 20
801.8747482146444
 30
0.0
 11
14396.80217064594
 21
833.8747482146439
 31
0.0
  0
LINE
  5
157E7
330
155B8
100
AcDbEntity
  8
YODOROGO
100
AcDbLine
 10
14328.80217064594
 20
801.8747482146444
 30
0.0
 11
14396.80217064594
 21
801.8747482146444
 31
0.0
  0
LINE
  5
157E8
330
155B8
100
AcDbEntity
  8
YODOROGO
100
AcDbLine
 10
14328.80217064594
 20
761.8747482146434
 30
0.0
 11
14328.80217064594
 21
801.8747482146444
 31
0.0
  0
LINE
  5
157E9
330
155B8
100
AcDbEntity
  8
YODOROGO
100
AcDbLine
 10
14396.80217064594
 20
761.8747482146434
 30
0.0
 11
14328.80217064594
 21
761.8747482146434
 31
0.0
  0
LINE
  5
157EA
330
155B8
100
AcDbEntity
  8
YODOROGO
100
AcDbLine
 10
14396.80217064594
 20
713.8747482146436
 30
0.0
 11
14396.80217064594
 21
761.8747482146434
 31
0.0
  0
LINE
  5
157EB
330
155B8
100
AcDbEntity
  8
YODOROGO
100
AcDbLine
 10
14598.80217064596
 20
745.8747482146431
 30
0.0
 11
14630.80217064596
 21
745.8747482146431
 31
0.0
  0
LINE
  5
157EC
330
155B8
100
AcDbEntity
  8
YODOROGO
100
AcDbLine
 10
14692.80217064596
 20
713.8747482146436
 30
0.0
 11
14728.80217064596
 21
713.8747482146436
 31
0.0
  0
LINE
  5
157ED
330
155B8
100
AcDbEntity
  8
YODOROGO
100
AcDbLine
 10
14868.80217064596
 20
764.2207260852818
 30
0.0
 11
14868.80217064596
 21
713.8747482146436
 31
0.0
  0
LINE
  5
157EE
330
155B8
100
AcDbEntity
  8
YODOROGO
100
AcDbLine
 10
14808.80217064596
 20
713.8747482146436
 30
0.0
 11
14868.80217064596
 21
764.2207260852818
 31
0.0
  0
LINE
  5
157EF
330
155B8
100
AcDbEntity
  8
YODOROGO
100
AcDbLine
 10
14808.80217064596
 20
773.874748214644
 30
0.0
 11
14808.80217064596
 21
713.8747482146436
 31
0.0
  0
LINE
  5
157F0
330
155B8
100
AcDbEntity
  8
YODOROGO
100
AcDbLine
 10
14856.47231434973
 20
813.8747482146435
 30
0.0
 11
14808.80217064596
 21
773.874748214644
 31
0.0
  0
LINE
  5
157F1
330
155B8
100
AcDbEntity
  8
YODOROGO
100
AcDbLine
 10
14808.80217064596
 20
813.8747482146435
 30
0.0
 11
14856.47231434973
 21
813.8747482146435
 31
0.0
  0
LINE
  5
157F2
330
155B8
100
AcDbEntity
  8
YODOROGO
100
AcDbLine
 10
14808.80217064596
 20
833.8747482146439
 30
0.0
 11
14808.80217064596
 21
813.8747482146435
 31
0.0
  0
LINE
  5
157F3
330
155B8
100
AcDbEntity
  8
YODOROGO
100
AcDbLine
 10
14942.80217064596
 20
833.8747482146439
 30
0.0
 11
14808.80217064596
 21
833.8747482146439
 31
0.0
  0
LINE
  5
157F4
330
155B8
100
AcDbEntity
  8
YODOROGO
100
AcDbLine
 10
14958.80217064596
 20
813.8747482146435
 30
0.0
 11
14888.80217064596
 21
813.8747482146435
 31
0.0
  0
LINE
  5
157F5
330
155B8
100
AcDbEntity
  8
YODOROGO
100
AcDbLine
 10
14888.80217064596
 20
781.0027187088283
 30
0.0
 11
14885.70493649264
 21
778.403830673117
 31
0.0
  0
LINE
  5
157F6
330
155B8
100
AcDbEntity
  8
YODOROGO
100
AcDbLine
 10
14888.80217064596
 20
813.8747482146435
 30
0.0
 11
14888.80217064596
 21
781.0027187088283
 31
0.0
  0
LINE
  5
157F7
330
155B8
100
AcDbEntity
  8
YODOROGO
100
AcDbLine
 10
14868.80217064596
 20
764.2207260852818
 30
0.0
 11
14868.80217064596
 21
713.8747482146436
 31
0.0
  0
LINE
  5
157F8
330
155B8
100
AcDbEntity
  8
YODOROGO
100
AcDbLine
 10
14808.80217064596
 20
713.8747482146436
 30
0.0
 11
14868.80217064596
 21
764.2207260852818
 31
0.0
  0
LINE
  5
157F9
330
155B8
100
AcDbEntity
  8
YODOROGO
100
AcDbLine
 10
14808.80217064596
 20
773.874748214644
 30
0.0
 11
14808.80217064596
 21
713.8747482146436
 31
0.0
  0
LINE
  5
157FA
330
155B8
100
AcDbEntity
  8
YODOROGO
100
AcDbLine
 10
14856.47231434973
 20
813.8747482146435
 30
0.0
 11
14808.80217064596
 21
773.874748214644
 31
0.0
  0
LINE
  5
157FB
330
155B8
100
AcDbEntity
  8
YODOROGO
100
AcDbLine
 10
14808.80217064596
 20
813.8747482146435
 30
0.0
 11
14856.47231434973
 21
813.8747482146435
 31
0.0
  0
LINE
  5
157FC
330
155B8
100
AcDbEntity
  8
YODOROGO
100
AcDbLine
 10
14808.80217064596
 20
833.8747482146439
 30
0.0
 11
14808.80217064596
 21
813.8747482146435
 31
0.0
  0
LINE
  5
157FD
330
155B8
100
AcDbEntity
  8
YODOROGO
100
AcDbLine
 10
14942.80217064596
 20
833.8747482146439
 30
0.0
 11
14808.80217064596
 21
833.8747482146439
 31
0.0
  0
LINE
  5
157FE
330
155B8
100
AcDbEntity
  8
YODOROGO
100
AcDbLine
 10
14396.80217064594
 20
873.8747482146449
 30
0.0
 11
14396.80217064594
 21
909.8747482146439
 31
0.0
  0
LINE
  5
157FF
330
155B8
100
AcDbEntity
  8
YODOROGO
100
AcDbLine
 10
14328.80217064594
 20
873.8747482146449
 30
0.0
 11
14396.80217064594
 21
873.8747482146449
 31
0.0
  0
LINE
  5
15800
330
155B8
100
AcDbEntity
  8
YODOROGO
100
AcDbLine
 10
14364.80217064596
 20
933.8747482146439
 30
0.0
 11
14364.80217064596
 21
961.8747482146432
 31
0.0
  0
LINE
  5
15801
330
155B8
100
AcDbEntity
  8
YODOROGO
100
AcDbLine
 10
14396.80217064594
 20
933.8747482146439
 30
0.0
 11
14364.80217064596
 21
933.8747482146439
 31
0.0
  0
LINE
  5
15802
330
155B8
100
AcDbEntity
  8
YODOROGO
100
AcDbLine
 10
14396.80217064594
 20
973.8747482146434
 30
0.0
 11
14396.80217064594
 21
933.8747482146439
 31
0.0
  0
ARC
  5
15803
330
155B8
100
AcDbEntity
  8
YODOROGO
100
AcDbCircle
 10
14376.80217064594
 20
973.8747482146434
 30
0.0
 40
20.0
100
AcDbArc
 50
0.0
 51
90.0
  0
LINE
  5
15804
330
155B8
100
AcDbEntity
  8
YODOROGO
100
AcDbLine
 10
14328.80217064596
 20
993.8747482146439
 30
0.0
 11
14376.80217064594
 21
993.8747482146439
 31
0.0
  0
LINE
  5
15805
330
155B8
100
AcDbEntity
  8
YODOROGO
100
AcDbLine
 10
14328.80217064596
 20
1013.874748214644
 30
0.0
 11
14328.80217064596
 21
993.8747482146439
 31
0.0
  0
LINE
  5
15806
330
155B8
100
AcDbEntity
  8
YODOROGO
100
AcDbLine
 10
14536.80217064596
 20
1013.874748214644
 30
0.0
 11
14500.80217064594
 21
1013.874748214644
 31
0.0
  0
LINE
  5
15807
330
155B8
100
AcDbEntity
  8
YODOROGO
100
AcDbLine
 10
14630.80217064596
 20
1003.874748214644
 30
0.0
 11
14598.80217064596
 21
1003.874748214644
 31
0.0
  0
LINE
  5
15808
330
155B8
100
AcDbEntity
  8
YODOROGO
100
AcDbLine
 10
14728.80217064596
 20
1013.874748214644
 30
0.0
 11
14692.80217064596
 21
1013.874748214644
 31
0.0
  0
LINE
  5
15809
330
155B8
100
AcDbEntity
  8
YODOROGO
100
AcDbLine
 10
14836.80217064596
 20
853.874748214644
 30
0.0
 11
14836.80217064596
 21
885.8747482146441
 31
0.0
1001
AUTOCAD_POSTSCRIPT_FIGURE
1002
{
1000
PSFILL
1000
Grayscale
1000
Grayscale
1070
    25
1002
}
  0
LINE
  5
1580A
330
155B8
100
AcDbEntity
  8
YODOROGO
100
AcDbLine
 10
14808.80217064596
 20
853.874748214644
 30
0.0
 11
14836.80217064596
 21
853.874748214644
 31
0.0
1001
AUTOCAD_POSTSCRIPT_FIGURE
1002
{
1000
PSFILL
1000
Grayscale
1000
Grayscale
1070
    25
1002
}
  0
LINE
  5
1580B
330
155B8
100
AcDbEntity
  8
YODOROGO
100
AcDbLine
 10
14808.80217064596
 20
909.8747482146439
 30
0.0
 11
14808.80217064596
 21
853.874748214644
 31
0.0
1001
AUTOCAD_POSTSCRIPT_FIGURE
1002
{
1000
PSFILL
1000
Grayscale
1000
Grayscale
1070
    25
1002
}
  0
LINE
  5
1580C
330
155B8
100
AcDbEntity
  8
YODOROGO
100
AcDbLine
 10
14882.80217064596
 20
909.8747482146439
 30
0.0
 11
14808.80217064596
 21
909.8747482146439
 31
0.0
1001
AUTOCAD_POSTSCRIPT_FIGURE
1002
{
1000
PSFILL
1000
Grayscale
1000
Grayscale
1070
    25
1002
}
  0
LINE
  5
1580D
330
155B8
100
AcDbEntity
  8
YODOROGO
100
AcDbLine
 10
14882.80217064596
 20
929.874748214644
 30
0.0
 11
14882.80217064596
 21
909.8747482146439
 31
0.0
1001
AUTOCAD_POSTSCRIPT_FIGURE
1002
{
1000
PSFILL
1000
Grayscale
1000
Grayscale
1070
    25
1002
}
  0
LINE
  5
1580E
330
155B8
100
AcDbEntity
  8
YODOROGO
100
AcDbLine
 10
14808.80217064596
 20
929.874748214644
 30
0.0
 11
14882.80217064596
 21
929.874748214644
 31
0.0
1001
AUTOCAD_POSTSCRIPT_FIGURE
1002
{
1000
PSFILL
1000
Grayscale
1000
Grayscale
1070
    25
1002
}
  0
LINE
  5
1580F
330
155B8
100
AcDbEntity
  8
YODOROGO
100
AcDbLine
 10
14808.80217064596
 20
953.874748214644
 30
0.0
 11
14808.80217064596
 21
929.874748214644
 31
0.0
1001
AUTOCAD_POSTSCRIPT_FIGURE
1002
{
1000
PSFILL
1000
Grayscale
1000
Grayscale
1070
    25
1002
}
  0
LINE
  5
15810
330
155B8
100
AcDbEntity
  8
YODOROGO
100
AcDbLine
 10
14882.80217064596
 20
953.874748214644
 30
0.0
 11
14808.80217064596
 21
953.874748214644
 31
0.0
1001
AUTOCAD_POSTSCRIPT_FIGURE
1002
{
1000
PSFILL
1000
Grayscale
1000
Grayscale
1070
    25
1002
}
  0
LINE
  5
15811
330
155B8
100
AcDbEntity
  8
YODOROGO
100
AcDbLine
 10
14882.80217064596
 20
973.8747482146434
 30
0.0
 11
14882.80217064596
 21
953.874748214644
 31
0.0
1001
AUTOCAD_POSTSCRIPT_FIGURE
1002
{
1000
PSFILL
1000
Grayscale
1000
Grayscale
1070
    25
1002
}
  0
LINE
  5
15812
330
155B8
100
AcDbEntity
  8
YODOROGO
100
AcDbLine
 10
14808.80217064596
 20
973.8747482146434
 30
0.0
 11
14882.80217064596
 21
973.8747482146434
 31
0.0
1001
AUTOCAD_POSTSCRIPT_FIGURE
1002
{
1000
PSFILL
1000
Grayscale
1000
Grayscale
1070
    25
1002
}
  0
LINE
  5
15813
330
155B8
100
AcDbEntity
  8
YODOROGO
100
AcDbLine
 10
14808.80217064596
 20
1013.874748214644
 30
0.0
 11
14808.80217064596
 21
973.8747482146434
 31
0.0
1001
AUTOCAD_POSTSCRIPT_FIGURE
1002
{
1000
PSFILL
1000
Grayscale
1000
Grayscale
1070
    25
1002
}
  0
LINE
  5
15814
330
155B8
100
AcDbEntity
  8
YODOROGO
100
AcDbLine
 10
14832.80217064596
 20
1013.874748214644
 30
0.0
 11
14808.80217064596
 21
1013.874748214644
 31
0.0
1001
AUTOCAD_POSTSCRIPT_FIGURE
1002
{
1000
PSFILL
1000
Grayscale
1000
Grayscale
1070
    25
1002
}
  0
LINE
  5
15815
330
155B8
100
AcDbEntity
  8
YODOROGO
100
AcDbLine
 10
14832.80217064596
 20
997.8747482146435
 30
0.0
 11
14832.80217064596
 21
1013.874748214644
 31
0.0
1001
AUTOCAD_POSTSCRIPT_FIGURE
1002
{
1000
PSFILL
1000
Grayscale
1000
Grayscale
1070
    25
1002
}
  0
LINE
  5
15816
330
155B8
100
AcDbEntity
  8
YODOROGO
100
AcDbLine
 10
14882.80217064596
 20
997.8747482146435
 30
0.0
 11
14832.80217064596
 21
997.8747482146435
 31
0.0
1001
AUTOCAD_POSTSCRIPT_FIGURE
1002
{
1000
PSFILL
1000
Grayscale
1000
Grayscale
1070
    25
1002
}
  0
LINE
  5
15817
330
155B8
100
AcDbEntity
  8
YODOROGO
100
AcDbLine
 10
14882.80217064596
 20
1013.874748214644
 30
0.0
 11
14882.80217064596
 21
997.8747482146435
 31
0.0
1001
AUTOCAD_POSTSCRIPT_FIGURE
1002
{
1000
PSFILL
1000
Grayscale
1000
Grayscale
1070
    25
1002
}
  0
LINE
  5
15818
330
155B8
100
AcDbEntity
  8
YODOROGO
100
AcDbLine
 10
14914.80217064596
 20
1013.874748214644
 30
0.0
 11
14882.80217064596
 21
1013.874748214644
 31
0.0
1001
AUTOCAD_POSTSCRIPT_FIGURE
1002
{
1000
PSFILL
1000
Grayscale
1000
Grayscale
1070
    25
1002
}
  0
LINE
  5
15819
330
155B8
100
AcDbEntity
  8
YODOROGO
100
AcDbLine
 10
14914.80217064596
 20
997.8747482146435
 30
0.0
 11
14914.80217064596
 21
1013.874748214644
 31
0.0
1001
AUTOCAD_POSTSCRIPT_FIGURE
1002
{
1000
PSFILL
1000
Grayscale
1000
Grayscale
1070
    25
1002
}
  0
LINE
  5
1581A
330
155B8
100
AcDbEntity
  8
YODOROGO
100
AcDbLine
 10
14914.80217064596
 20
953.874748214644
 30
0.0
 11
14914.80217064596
 21
973.8747482146434
 31
0.0
1001
AUTOCAD_POSTSCRIPT_FIGURE
1002
{
1000
PSFILL
1000
Grayscale
1000
Grayscale
1070
    25
1002
}
  0
LINE
  5
1581B
330
155B8
100
AcDbEntity
  8
YODOROGO
100
AcDbLine
 10
14914.80217064596
 20
909.8747482146439
 30
0.0
 11
14914.80217064596
 21
929.874748214644
 31
0.0
1001
AUTOCAD_POSTSCRIPT_FIGURE
1002
{
1000
PSFILL
1000
Grayscale
1000
Grayscale
1070
    25
1002
}
  0
LINE
  5
1581C
330
155B8
100
AcDbEntity
  8
YODOROGO
100
AcDbLine
 10
14960.80217064594
 20
885.8747482146441
 30
0.0
 11
14960.80217064594
 21
853.874748214644
 31
0.0
1001
AUTOCAD_POSTSCRIPT_FIGURE
1002
{
1000
PSFILL
1000
Grayscale
1000
Grayscale
1070
    25
1002
}
  0
LINE
  5
1581D
330
155B8
100
AcDbEntity
  8
YODOROGO
100
AcDbLine
 10
14914.80217064596
 20
885.8747482146441
 30
0.0
 11
14960.80217064594
 21
885.8747482146441
 31
0.0
1001
AUTOCAD_POSTSCRIPT_FIGURE
1002
{
1000
PSFILL
1000
Grayscale
1000
Grayscale
1070
    25
1002
}
  0
LINE
  5
1581E
330
155B8
100
AcDbEntity
  8
YODOROGO
100
AcDbLine
 10
14914.80217064596
 20
853.874748214644
 30
0.0
 11
14914.80217064596
 21
885.8747482146441
 31
0.0
1001
AUTOCAD_POSTSCRIPT_FIGURE
1002
{
1000
PSFILL
1000
Grayscale
1000
Grayscale
1070
    25
1002
}
  0
LINE
  5
1581F
330
155B8
100
AcDbEntity
  8
YODOROGO
100
AcDbLine
 10
14882.80217064596
 20
853.874748214644
 30
0.0
 11
14914.80217064596
 21
853.874748214644
 31
0.0
1001
AUTOCAD_POSTSCRIPT_FIGURE
1002
{
1000
PSFILL
1000
Grayscale
1000
Grayscale
1070
    25
1002
}
  0
LINE
  5
15820
330
155B8
100
AcDbEntity
  8
YODOROGO
100
AcDbLine
 10
14882.80217064596
 20
885.8747482146441
 30
0.0
 11
14882.80217064596
 21
853.874748214644
 31
0.0
1001
AUTOCAD_POSTSCRIPT_FIGURE
1002
{
1000
PSFILL
1000
Grayscale
1000
Grayscale
1070
    25
1002
}
  0
LINE
  5
15821
330
155B8
100
AcDbEntity
  8
YODOROGO
100
AcDbLine
 10
14836.80217064596
 20
885.8747482146441
 30
0.0
 11
14882.80217064596
 21
885.8747482146441
 31
0.0
1001
AUTOCAD_POSTSCRIPT_FIGURE
1002
{
1000
PSFILL
1000
Grayscale
1000
Grayscale
1070
    25
1002
}
  0
ARC
  5
15822
330
155B8
100
AcDbEntity
  8
YODOROGO
100
AcDbCircle
 10
15529.75894667896
 20
801.3403687577881
 30
0.0
 40
89.11064055536078
100
AcDbArc
 50
281.0262749542535
 51
357.771135755738
  0
LINE
  5
15823
330
155B8
100
AcDbEntity
  8
YODOROGO
100
AcDbLine
 10
15706.80217064596
 20
953.874748214644
 30
0.0
 11
15582.80217064596
 21
953.874748214644
 31
0.0
  0
LINE
  5
15824
330
155B8
100
AcDbEntity
  8
YODOROGO
100
AcDbLine
 10
15706.80217064596
 20
1013.874748214644
 30
0.0
 11
15582.80217064596
 21
1013.874748214644
 31
0.0
  0
LINE
  5
15825
330
155B8
100
AcDbEntity
  8
YODOROGO
100
AcDbLine
 10
15582.80217064596
 20
981.8747482146434
 30
0.0
 11
15706.80217064596
 21
981.8747482146434
 31
0.0
  0
LINE
  5
15826
330
155B8
100
AcDbEntity
  8
YODOROGO
100
AcDbLine
 10
15395.80217064596
 20
781.8747482146434
 30
0.0
 11
15395.80217064596
 21
877.8747482146435
 31
0.0
  0
LINE
  5
15827
330
155B8
100
AcDbEntity
  8
YODOROGO
100
AcDbLine
 10
15381.80217064596
 20
845.8747482146444
 30
0.0
 11
15381.80217064596
 21
781.8747482146434
 31
0.0
  0
LINE
  5
15828
330
155B8
100
AcDbEntity
  8
YODOROGO
100
AcDbLine
 10
15361.80217064596
 20
745.8747482146443
 30
0.0
 11
15361.80217064596
 21
845.8747482146444
 31
0.0
  0
LINE
  5
15829
330
155B8
100
AcDbEntity
  8
YODOROGO
100
AcDbLine
 10
15449.80217064596
 20
845.8747482146444
 30
0.0
 11
15449.80217064596
 21
745.8747482146443
 31
0.0
  0
LINE
  5
1582A
330
155B8
100
AcDbEntity
  8
YODOROGO
100
AcDbLine
 10
15429.80217064596
 20
781.8747482146434
 30
0.0
 11
15429.80217064596
 21
845.8747482146444
 31
0.0
  0
LINE
  5
1582B
330
155B8
100
AcDbEntity
  8
YODOROGO
100
AcDbLine
 10
15415.80217064596
 20
877.8747482146435
 30
0.0
 11
15415.80217064596
 21
781.8747482146434
 31
0.0
  0
LINE
  5
1582C
330
155B8
100
AcDbEntity
  8
YODOROGO
100
AcDbLine
 10
15486.80217064596
 20
1013.874748214644
 30
0.0
 11
15486.80217064596
 21
733.8747482146435
 31
0.0
  0
LINE
  5
1582D
330
155B8
100
AcDbEntity
  8
YODOROGO
100
AcDbLine
 10
15322.80217064596
 20
713.8747482146436
 30
0.0
 11
15322.80217064596
 21
1013.874748214644
 31
0.0
  0
LINE
  5
1582E
330
155B8
100
AcDbEntity
  8
YODOROGO
100
AcDbLine
 10
15348.80217064596
 20
981.8747482146434
 30
0.0
 11
15348.80217064596
 21
713.8747482146436
 31
0.0
  0
LINE
  5
1582F
330
155B8
100
AcDbEntity
  8
YODOROGO
100
AcDbLine
 10
15462.80217064596
 20
773.874748214644
 30
0.0
 11
15462.80217064596
 21
981.8747482146434
 31
0.0
  0
LINE
  5
15830
330
155B8
100
AcDbEntity
  8
YODOROGO
100
AcDbLine
 10
15190.80217064596
 20
813.8747482146435
 30
0.0
 11
15190.80217064596
 21
839.8747482146442
 31
0.0
  0
LINE
  5
15831
330
155B8
100
AcDbEntity
  8
YODOROGO
100
AcDbLine
 10
15308.80217064596
 20
839.8747482146442
 30
0.0
 11
15308.80217064596
 21
813.8747482146435
 31
0.0
  0
LINE
  5
15832
330
155B8
100
AcDbEntity
  8
YODOROGO
100
AcDbLine
 10
15582.80217064596
 20
953.874748214644
 30
0.0
 11
15582.80217064596
 21
817.8747482146436
 31
0.0
  0
LINE
  5
15833
330
155B8
100
AcDbEntity
  8
YODOROGO
100
AcDbLine
 10
14974.80217064595
 20
833.8747482146439
 30
0.0
 11
14974.80217064595
 21
853.874748214644
 31
0.0
  0
LINE
  5
15834
330
155B8
100
AcDbEntity
  8
YODOROGO
100
AcDbLine
 10
14974.80217064595
 20
833.8747482146439
 30
0.0
 11
14974.80217064595
 21
853.874748214644
 31
0.0
  0
ARC
  5
15835
330
155B8
100
AcDbEntity
  8
YODOROGO
100
AcDbCircle
 10
15268.80217064596
 20
753.8747482146439
 30
0.0
 40
40.0
100
AcDbArc
 50
270.0
 51
0.0
  0
LINE
  5
15836
330
155B8
100
AcDbEntity
  8
YODOROGO
100
AcDbLine
 10
15284.80217064596
 20
799.8747482146441
 30
0.0
 11
15308.80217064596
 21
799.8747482146441
 31
0.0
  0
LINE
  5
15837
330
155B8
100
AcDbEntity
  8
YODOROGO
100
AcDbLine
 10
15308.80217064596
 20
813.8747482146435
 30
0.0
 11
15264.80217064596
 21
813.8747482146435
 31
0.0
  0
LINE
  5
15838
330
155B8
100
AcDbEntity
  8
YODOROGO
100
AcDbLine
 10
15108.80217064596
 20
833.8747482146439
 30
0.0
 11
14974.80217064595
 21
833.8747482146439
 31
0.0
  0
LINE
  5
15839
330
155B8
100
AcDbEntity
  8
YODOROGO
100
AcDbLine
 10
15108.80217064596
 20
813.8747482146435
 30
0.0
 11
15108.80217064596
 21
833.8747482146439
 31
0.0
  0
LINE
  5
1583A
330
155B8
100
AcDbEntity
  8
YODOROGO
100
AcDbLine
 10
15008.80217064596
 20
813.8747482146435
 30
0.0
 11
15108.80217064596
 21
813.8747482146435
 31
0.0
  0
ARC
  5
1583B
330
155B8
100
AcDbEntity
  8
YODOROGO
100
AcDbCircle
 10
15115.02941435068
 20
934.4428574764513
 30
0.0
 40
160.6888181426141
100
AcDbArc
 50
228.6181454618993
 51
245.660289248906
  0
LINE
  5
1583C
330
155B8
100
AcDbEntity
  8
YODOROGO
100
AcDbLine
 10
15052.80217064596
 20
801.8747482146444
 30
0.0
 11
15048.80217064598
 21
788.0364079349501
 31
0.0
  0
LINE
  5
1583D
330
155B8
100
AcDbEntity
  8
YODOROGO
100
AcDbLine
 10
15094.80217064596
 20
801.8747482146444
 30
0.0
 11
15052.80217064596
 21
801.8747482146444
 31
0.0
  0
LINE
  5
1583E
330
155B8
100
AcDbEntity
  8
YODOROGO
100
AcDbLine
 10
15088.80217064596
 20
775.9088612367134
 30
0.0
 11
15094.80217064596
 21
801.8747482146444
 31
0.0
  0
ARC
  5
1583F
330
155B8
100
AcDbEntity
  8
YODOROGO
100
AcDbCircle
 10
15115.02941435023
 20
934.4428574765014
 30
0.0
 40
160.6888181426453
100
AcDbArc
 50
260.6062929796992
 51
267.7790355655586
  0
LINE
  5
15840
330
155B8
100
AcDbEntity
  8
YODOROGO
100
AcDbLine
 10
15108.80217064596
 20
713.8747482146428
 30
0.0
 11
15108.80217064596
 21
773.874748214644
 31
0.0
  0
LINE
  5
15841
330
155B8
100
AcDbEntity
  8
YODOROGO
100
AcDbLine
 10
14968.80217064596
 20
740.6696674577553
 30
0.0
 11
14968.80217064596
 21
797.2655452655705
 31
0.0
  0
LINE
  5
15842
330
155B8
100
AcDbEntity
  8
YODOROGO
100
AcDbLine
 10
15108.80217064596
 20
833.8747482146439
 30
0.0
 11
14974.80217064595
 21
833.8747482146439
 31
0.0
  0
LINE
  5
15843
330
155B8
100
AcDbEntity
  8
YODOROGO
100
AcDbLine
 10
15108.80217064596
 20
813.8747482146435
 30
0.0
 11
15108.80217064596
 21
833.8747482146439
 31
0.0
  0
LINE
  5
15844
330
155B8
100
AcDbEntity
  8
YODOROGO
100
AcDbLine
 10
15008.80217064596
 20
813.8747482146435
 30
0.0
 11
15108.80217064596
 21
813.8747482146435
 31
0.0
  0
ARC
  5
15845
330
155B8
100
AcDbEntity
  8
YODOROGO
100
AcDbCircle
 10
15115.02941435068
 20
934.4428574764513
 30
0.0
 40
160.6888181426141
100
AcDbArc
 50
228.6181454618993
 51
245.660289248906
  0
LINE
  5
15846
330
155B8
100
AcDbEntity
  8
YODOROGO
100
AcDbLine
 10
15052.80217064596
 20
801.8747482146444
 30
0.0
 11
15048.80217064598
 21
788.0364079349501
 31
0.0
  0
LINE
  5
15847
330
155B8
100
AcDbEntity
  8
YODOROGO
100
AcDbLine
 10
15094.80217064596
 20
801.8747482146444
 30
0.0
 11
15052.80217064596
 21
801.8747482146444
 31
0.0
  0
LINE
  5
15848
330
155B8
100
AcDbEntity
  8
YODOROGO
100
AcDbLine
 10
15088.80217064596
 20
775.9088612367134
 30
0.0
 11
15094.80217064596
 21
801.8747482146444
 31
0.0
  0
ARC
  5
15849
330
155B8
100
AcDbEntity
  8
YODOROGO
100
AcDbCircle
 10
15115.02941435023
 20
934.4428574765014
 30
0.0
 40
160.6888181426453
100
AcDbArc
 50
260.6062929796992
 51
267.7790355655586
  0
LINE
  5
1584A
330
155B8
100
AcDbEntity
  8
YODOROGO
100
AcDbLine
 10
15108.80217064596
 20
713.8747482146428
 30
0.0
 11
15108.80217064596
 21
773.874748214644
 31
0.0
  0
LINE
  5
1584B
330
155B8
100
AcDbEntity
  8
YODOROGO
100
AcDbLine
 10
14968.80217064596
 20
740.6696674577553
 30
0.0
 11
14968.80217064596
 21
797.2655452655705
 31
0.0
  0
LINE
  5
1584C
330
155B8
100
AcDbEntity
  8
YODOROGO
100
AcDbLine
 10
15216.80217064596
 20
786.8747482146444
 30
0.0
 11
15190.80217064596
 21
786.8747482146444
 31
0.0
  0
LINE
  5
1584D
330
155B8
100
AcDbEntity
  8
YODOROGO
100
AcDbLine
 10
15216.80217064596
 20
800.8747482146432
 30
0.0
 11
15216.80217064596
 21
786.8747482146444
 31
0.0
  0
LINE
  5
1584E
330
155B8
100
AcDbEntity
  8
YODOROGO
100
AcDbLine
 10
15190.80217064596
 20
800.8747482146432
 30
0.0
 11
15216.80217064596
 21
800.8747482146432
 31
0.0
  0
LINE
  5
1584F
330
155B8
100
AcDbEntity
  8
YODOROGO
100
AcDbLine
 10
15190.80217064596
 20
786.8747482146444
 30
0.0
 11
15190.80217064596
 21
800.8747482146432
 31
0.0
  0
LINE
  5
15850
330
155B8
100
AcDbEntity
  8
YODOROGO
100
AcDbLine
 10
15214.80217064596
 20
788.8747482146436
 30
0.0
 11
15192.80217064595
 21
788.8747482146436
 31
0.0
  0
LINE
  5
15851
330
155B8
100
AcDbEntity
  8
YODOROGO
100
AcDbLine
 10
15214.80217064596
 20
798.874748214644
 30
0.0
 11
15214.80217064596
 21
788.8747482146436
 31
0.0
  0
LINE
  5
15852
330
155B8
100
AcDbEntity
  8
YODOROGO
100
AcDbLine
 10
15192.80217064595
 20
798.874748214644
 30
0.0
 11
15214.80217064596
 21
798.874748214644
 31
0.0
  0
LINE
  5
15853
330
155B8
100
AcDbEntity
  8
YODOROGO
100
AcDbLine
 10
15192.80217064595
 20
788.8747482146436
 30
0.0
 11
15192.80217064595
 21
798.874748214644
 31
0.0
  0
LINE
  5
15854
330
155B8
100
AcDbEntity
  8
YODOROGO
100
AcDbLine
 10
15212.80217064596
 20
790.8747482146432
 30
0.0
 11
15194.80217064596
 21
790.8747482146432
 31
0.0
  0
LINE
  5
15855
330
155B8
100
AcDbEntity
  8
YODOROGO
100
AcDbLine
 10
15212.80217064596
 20
796.8747482146445
 30
0.0
 11
15212.80217064596
 21
790.8747482146432
 31
0.0
  0
LINE
  5
15856
330
155B8
100
AcDbEntity
  8
YODOROGO
100
AcDbLine
 10
15194.80217064596
 20
796.8747482146445
 30
0.0
 11
15212.80217064596
 21
796.8747482146445
 31
0.0
  0
LINE
  5
15857
330
155B8
100
AcDbEntity
  8
YODOROGO
100
AcDbLine
 10
15194.80217064596
 20
790.8747482146432
 30
0.0
 11
15194.80217064596
 21
796.8747482146445
 31
0.0
  0
LINE
  5
15858
330
155B8
100
AcDbEntity
  8
YODOROGO
100
AcDbLine
 10
15210.80217064596
 20
792.8747482146435
 30
0.0
 11
15196.80217064596
 21
792.8747482146435
 31
0.0
  0
LINE
  5
15859
330
155B8
100
AcDbEntity
  8
YODOROGO
100
AcDbLine
 10
15210.80217064596
 20
794.8747482146441
 30
0.0
 11
15210.80217064596
 21
792.8747482146435
 31
0.0
  0
LINE
  5
1585A
330
155B8
100
AcDbEntity
  8
YODOROGO
100
AcDbLine
 10
15196.80217064596
 20
794.8747482146441
 30
0.0
 11
15210.80217064596
 21
794.8747482146441
 31
0.0
  0
LINE
  5
1585B
330
155B8
100
AcDbEntity
  8
YODOROGO
100
AcDbLine
 10
15196.80217064596
 20
792.8747482146435
 30
0.0
 11
15196.80217064596
 21
794.8747482146441
 31
0.0
  0
LINE
  5
1585C
330
155B8
100
AcDbEntity
  8
YODOROGO
100
AcDbLine
 10
15232.80217064596
 20
813.8747482146435
 30
0.0
 11
15190.80217064596
 21
813.8747482146435
 31
0.0
  0
LINE
  5
1585D
330
155B8
100
AcDbEntity
  8
YODOROGO
100
AcDbLine
 10
15232.80217064596
 20
773.874748214644
 30
0.0
 11
15232.80217064596
 21
813.8747482146435
 31
0.0
  0
LINE
  5
1585E
330
155B8
100
AcDbEntity
  8
YODOROGO
100
AcDbLine
 10
15190.80217064596
 20
773.874748214644
 30
0.0
 11
15232.80217064596
 21
773.874748214644
 31
0.0
  0
LINE
  5
1585F
330
155B8
100
AcDbEntity
  8
YODOROGO
100
AcDbLine
 10
15190.80217064596
 20
713.8747482146436
 30
0.0
 11
15190.80217064596
 21
773.874748214644
 31
0.0
  0
LINE
  5
15860
330
155B8
100
AcDbEntity
  8
YODOROGO
100
AcDbLine
 10
15268.80217064596
 20
713.8747482146436
 30
0.0
 11
15190.80217064596
 21
713.8747482146436
 31
0.0
  0
LINE
  5
15861
330
155B8
100
AcDbEntity
  8
YODOROGO
100
AcDbLine
 10
15284.80217064596
 20
785.8747482146432
 30
0.0
 11
15284.80217064596
 21
799.8747482146441
 31
0.0
  0
ARC
  5
15862
330
155B8
100
AcDbEntity
  8
YODOROGO
100
AcDbCircle
 10
15272.80217064594
 20
785.8747482146457
 30
0.0
 40
12.00000000000187
100
AcDbArc
 50
270.0
 51
359.9999999999877
  0
LINE
  5
15863
330
155B8
100
AcDbEntity
  8
YODOROGO
100
AcDbLine
 10
15264.80217064596
 20
773.874748214644
 30
0.0
 11
15272.80217064594
 21
773.874748214644
 31
0.0
  0
LINE
  5
15864
330
155B8
100
AcDbEntity
  8
YODOROGO
100
AcDbLine
 10
15264.80217064596
 20
813.8747482146435
 30
0.0
 11
15264.80217064596
 21
773.874748214644
 31
0.0
  0
LINE
  5
15865
330
155B8
100
AcDbEntity
  8
YODOROGO
100
AcDbLine
 10
15449.80217064596
 20
773.874748214644
 30
0.0
 11
15462.80217064596
 21
773.874748214644
 31
0.0
  0
LINE
  5
15866
330
155B8
100
AcDbEntity
  8
YODOROGO
100
AcDbLine
 10
15466.80217064596
 20
713.8747482146436
 30
0.0
 11
15449.80217064596
 21
713.8747482146436
 31
0.0
  0
LINE
  5
15867
330
155B8
100
AcDbEntity
  8
YODOROGO
100
AcDbLine
 10
15381.80217064596
 20
781.8747482146434
 30
0.0
 11
15395.80217064596
 21
781.8747482146434
 31
0.0
  0
LINE
  5
15868
330
155B8
100
AcDbEntity
  8
YODOROGO
100
AcDbLine
 10
15449.80217064596
 20
745.8747482146443
 30
0.0
 11
15361.80217064596
 21
745.8747482146443
 31
0.0
  0
LINE
  5
15869
330
155B8
100
AcDbEntity
  8
YODOROGO
100
AcDbLine
 10
15415.80217064596
 20
781.8747482146434
 30
0.0
 11
15429.80217064596
 21
781.8747482146434
 31
0.0
  0
LINE
  5
1586A
330
155B8
100
AcDbEntity
  8
YODOROGO
100
AcDbLine
 10
15449.80217064596
 20
713.8747482146436
 30
0.0
 11
15449.80217064596
 21
773.874748214644
 31
0.0
  0
LINE
  5
1586B
330
155B8
100
AcDbEntity
  8
YODOROGO
100
AcDbLine
 10
15348.80217064596
 20
713.8747482146436
 30
0.0
 11
15322.80217064596
 21
713.8747482146436
 31
0.0
  0
LINE
  5
1586C
330
155B8
100
AcDbEntity
  8
YODOROGO
100
AcDbLine
 10
15308.80217064596
 20
799.8747482146441
 30
0.0
 11
15308.80217064596
 21
753.8747482146439
 31
0.0
  0
ARC
  5
1586D
330
155B8
100
AcDbEntity
  8
YODOROGO
100
AcDbCircle
 10
15466.80217064596
 20
733.8747482146435
 30
0.0
 40
20.0
100
AcDbArc
 50
270.0
 51
0.0
  0
LINE
  5
1586E
330
155B8
100
AcDbEntity
  8
YODOROGO
100
AcDbLine
 10
15546.80217064596
 20
761.8747482146434
 30
0.0
 11
15546.80217064596
 21
713.8747482146436
 31
0.0
  0
ARC
  5
1586F
330
155B8
100
AcDbEntity
  8
YODOROGO
100
AcDbCircle
 10
15519.86069778339
 20
818.7656950548664
 30
0.0
 40
62.94777829583771
100
AcDbArc
 50
295.3405244216011
 51
359.1890230341867
  0
LINE
  5
15870
330
155B8
100
AcDbEntity
  8
YODOROGO
100
AcDbLine
 10
15308.80217064596
 20
929.874748214644
 30
0.0
 11
15248.80217064596
 21
969.8747482146441
 31
0.0
  0
LINE
  5
15871
330
155B8
100
AcDbEntity
  8
YODOROGO
100
AcDbLine
 10
15248.80217064596
 20
1013.874748214644
 30
0.0
 11
15308.80217064596
 21
973.8747482146434
 31
0.0
  0
LINE
  5
15872
330
155B8
100
AcDbEntity
  8
YODOROGO
100
AcDbLine
 10
15264.80217064596
 20
839.8747482146442
 30
0.0
 11
15308.80217064596
 21
839.8747482146442
 31
0.0
  0
LINE
  5
15873
330
155B8
100
AcDbEntity
  8
YODOROGO
100
AcDbLine
 10
15308.80217064596
 20
867.8747482146436
 30
0.0
 11
15264.80217064596
 21
867.8747482146436
 31
0.0
  0
LINE
  5
15874
330
155B8
100
AcDbEntity
  8
YODOROGO
100
AcDbLine
 10
15190.80217064596
 20
897.8747482146435
 30
0.0
 11
15308.80217064596
 21
897.8747482146435
 31
0.0
  0
LINE
  5
15875
330
155B8
100
AcDbEntity
  8
YODOROGO
100
AcDbLine
 10
15040.80217064596
 20
1013.874748214644
 30
0.0
 11
15010.80217064596
 21
1013.874748214644
 31
0.0
  0
LINE
  5
15876
330
155B8
100
AcDbEntity
  8
YODOROGO
100
AcDbLine
 10
15040.80217064596
 20
913.8747482146435
 30
0.0
 11
15040.80217064596
 21
1013.874748214644
 31
0.0
  0
LINE
  5
15877
330
155B8
100
AcDbEntity
  8
YODOROGO
100
AcDbLine
 10
15010.80217064596
 20
913.8747482146435
 30
0.0
 11
15040.80217064596
 21
913.8747482146435
 31
0.0
  0
LINE
  5
15878
330
155B8
100
AcDbEntity
  8
YODOROGO
100
AcDbLine
 10
15010.80217064596
 20
1013.874748214644
 30
0.0
 11
15010.80217064596
 21
913.8747482146435
 31
0.0
  0
LINE
  5
15879
330
155B8
100
AcDbEntity
  8
YODOROGO
100
AcDbLine
 10
15080.80217064596
 20
1013.874748214644
 30
0.0
 11
15108.80217064596
 21
1013.874748214644
 31
0.0
  0
LINE
  5
1587A
330
155B8
100
AcDbEntity
  8
YODOROGO
100
AcDbLine
 10
15080.80217064596
 20
905.8747482146443
 30
0.0
 11
15080.80217064596
 21
1013.874748214644
 31
0.0
  0
ARC
  5
1587B
330
155B8
100
AcDbEntity
  8
YODOROGO
100
AcDbCircle
 10
15060.80217064596
 20
905.8747482146443
 30
0.0
 40
20.0
100
AcDbArc
 50
270.0
 51
0.0
  0
LINE
  5
1587C
330
155B8
100
AcDbEntity
  8
YODOROGO
100
AcDbLine
 10
15010.80217064596
 20
885.8747482146441
 30
0.0
 11
15060.80217064596
 21
885.8747482146441
 31
0.0
  0
LINE
  5
1587D
330
155B8
100
AcDbEntity
  8
YODOROGO
100
AcDbLine
 10
15010.80217064596
 20
853.874748214644
 30
0.0
 11
15010.80217064596
 21
885.8747482146441
 31
0.0
  0
LINE
  5
1587E
330
155B8
100
AcDbEntity
  8
YODOROGO
100
AcDbLine
 10
15068.80217064596
 20
853.874748214644
 30
0.0
 11
15010.80217064596
 21
853.874748214644
 31
0.0
  0
ARC
  5
1587F
330
155B8
100
AcDbEntity
  8
YODOROGO
100
AcDbCircle
 10
15068.80217064596
 20
893.8747482146439
 30
0.0
 40
40.0
100
AcDbArc
 50
270.0
 51
0.0
  0
LINE
  5
15880
330
155B8
100
AcDbEntity
  8
YODOROGO
100
AcDbLine
 10
15108.80217064596
 20
1013.874748214644
 30
0.0
 11
15108.80217064596
 21
893.8747482146439
 31
0.0
  0
LINE
  5
15881
330
155B8
100
AcDbEntity
  8
YODOROGO
100
AcDbLine
 10
14988.80217064596
 20
973.8747482146434
 30
0.0
 11
14988.80217064596
 21
997.8747482146435
 31
0.0
1001
AUTOCAD_POSTSCRIPT_FIGURE
1002
{
1000
PSFILL
1000
Grayscale
1000
Grayscale
1070
    25
1002
}
  0
LINE
  5
15882
330
155B8
100
AcDbEntity
  8
YODOROGO
100
AcDbLine
 10
14988.80217064596
 20
929.874748214644
 30
0.0
 11
14988.80217064596
 21
953.874748214644
 31
0.0
1001
AUTOCAD_POSTSCRIPT_FIGURE
1002
{
1000
PSFILL
1000
Grayscale
1000
Grayscale
1070
    25
1002
}
  0
LINE
  5
15883
330
155B8
100
AcDbEntity
  8
YODOROGO
100
AcDbLine
 10
14988.80217064596
 20
853.874748214644
 30
0.0
 11
14988.80217064596
 21
909.8747482146439
 31
0.0
1001
AUTOCAD_POSTSCRIPT_FIGURE
1002
{
1000
PSFILL
1000
Grayscale
1000
Grayscale
1070
    25
1002
}
  0
LINE
  5
15884
330
155B8
100
AcDbEntity
  8
YODOROGO
100
AcDbLine
 10
15190.80217064596
 20
953.874748214644
 30
0.0
 11
15248.80217064596
 21
1013.874748214644
 31
0.0
  0
LINE
  5
15885
330
155B8
100
AcDbEntity
  8
YODOROGO
100
AcDbLine
 10
15190.80217064596
 20
909.8747482146439
 30
0.0
 11
15190.80217064596
 21
953.874748214644
 31
0.0
  0
LINE
  5
15886
330
155B8
100
AcDbEntity
  8
YODOROGO
100
AcDbLine
 10
15248.80217064596
 20
969.8747482146441
 30
0.0
 11
15190.80217064596
 21
909.8747482146439
 31
0.0
  0
LINE
  5
15887
330
155B8
100
AcDbEntity
  8
YODOROGO
100
AcDbLine
 10
15232.80217064596
 20
839.8747482146442
 30
0.0
 11
15232.80217064596
 21
867.8747482146436
 31
0.0
  0
LINE
  5
15888
330
155B8
100
AcDbEntity
  8
YODOROGO
100
AcDbLine
 10
15190.80217064596
 20
839.8747482146442
 30
0.0
 11
15232.80217064596
 21
839.8747482146442
 31
0.0
  0
LINE
  5
15889
330
155B8
100
AcDbEntity
  8
YODOROGO
100
AcDbLine
 10
15264.80217064596
 20
867.8747482146436
 30
0.0
 11
15264.80217064596
 21
839.8747482146442
 31
0.0
  0
LINE
  5
1588A
330
155B8
100
AcDbEntity
  8
YODOROGO
100
AcDbLine
 10
15190.80217064596
 20
867.8747482146436
 30
0.0
 11
15190.80217064596
 21
897.8747482146435
 31
0.0
  0
LINE
  5
1588B
330
155B8
100
AcDbEntity
  8
YODOROGO
100
AcDbLine
 10
15232.80217064596
 20
867.8747482146436
 30
0.0
 11
15190.80217064596
 21
867.8747482146436
 31
0.0
  0
LINE
  5
1588C
330
155B8
100
AcDbEntity
  8
YODOROGO
100
AcDbLine
 10
15322.80217064596
 20
1013.874748214644
 30
0.0
 11
15486.80217064596
 21
1013.874748214644
 31
0.0
  0
LINE
  5
1588D
330
155B8
100
AcDbEntity
  8
YODOROGO
100
AcDbLine
 10
15462.80217064596
 20
981.8747482146434
 30
0.0
 11
15348.80217064596
 21
981.8747482146434
 31
0.0
  0
LINE
  5
1588E
330
155B8
100
AcDbEntity
  8
YODOROGO
100
AcDbLine
 10
15436.80217064595
 20
909.8747482146439
 30
0.0
 11
15449.80217064596
 21
909.8747482146439
 31
0.0
  0
LINE
  5
1588F
330
155B8
100
AcDbEntity
  8
YODOROGO
100
AcDbLine
 10
15449.80217064596
 20
969.8747482146441
 30
0.0
 11
15436.80217064595
 21
909.8747482146439
 31
0.0
  0
LINE
  5
15890
330
155B8
100
AcDbEntity
  8
YODOROGO
100
AcDbLine
 10
15425.80217064596
 20
969.8747482146441
 30
0.0
 11
15449.80217064596
 21
969.8747482146441
 31
0.0
  0
LINE
  5
15891
330
155B8
100
AcDbEntity
  8
YODOROGO
100
AcDbLine
 10
15412.80217064596
 20
909.8747482146439
 30
0.0
 11
15425.80217064596
 21
969.8747482146441
 31
0.0
  0
LINE
  5
15892
330
155B8
100
AcDbEntity
  8
YODOROGO
100
AcDbLine
 10
15398.80217064596
 20
909.8747482146439
 30
0.0
 11
15412.80217064596
 21
909.8747482146439
 31
0.0
  0
LINE
  5
15893
330
155B8
100
AcDbEntity
  8
YODOROGO
100
AcDbLine
 10
15385.80217064596
 20
969.8747482146441
 30
0.0
 11
15398.80217064596
 21
909.8747482146439
 31
0.0
  0
LINE
  5
15894
330
155B8
100
AcDbEntity
  8
YODOROGO
100
AcDbLine
 10
15361.80217064596
 20
969.8747482146441
 30
0.0
 11
15385.80217064596
 21
969.8747482146441
 31
0.0
  0
LINE
  5
15895
330
155B8
100
AcDbEntity
  8
YODOROGO
100
AcDbLine
 10
15374.80217064596
 20
909.8747482146439
 30
0.0
 11
15361.80217064596
 21
969.8747482146441
 31
0.0
  0
LINE
  5
15896
330
155B8
100
AcDbEntity
  8
YODOROGO
100
AcDbLine
 10
15361.80217064596
 20
909.8747482146439
 30
0.0
 11
15374.80217064596
 21
909.8747482146439
 31
0.0
  0
LINE
  5
15897
330
155B8
100
AcDbEntity
  8
YODOROGO
100
AcDbLine
 10
15361.80217064596
 20
877.8747482146435
 30
0.0
 11
15361.80217064596
 21
909.8747482146439
 31
0.0
  0
LINE
  5
15898
330
155B8
100
AcDbEntity
  8
YODOROGO
100
AcDbLine
 10
15449.80217064596
 20
877.8747482146435
 30
0.0
 11
15361.80217064596
 21
877.8747482146435
 31
0.0
  0
LINE
  5
15899
330
155B8
100
AcDbEntity
  8
YODOROGO
100
AcDbLine
 10
15449.80217064596
 20
909.8747482146439
 30
0.0
 11
15449.80217064596
 21
877.8747482146435
 31
0.0
  0
LINE
  5
1589A
330
155B8
100
AcDbEntity
  8
YODOROGO
100
AcDbLine
 10
15308.80217064596
 20
973.8747482146434
 30
0.0
 11
15308.80217064596
 21
929.874748214644
 31
0.0
  0
LINE
  5
1589B
330
155B8
100
AcDbEntity
  8
YODOROGO
100
AcDbLine
 10
15395.80217064596
 20
877.8747482146435
 30
0.0
 11
15415.80217064596
 21
877.8747482146435
 31
0.0
  0
LINE
  5
1589C
330
155B8
100
AcDbEntity
  8
YODOROGO
100
AcDbLine
 10
15361.80217064596
 20
845.8747482146444
 30
0.0
 11
15381.80217064596
 21
845.8747482146444
 31
0.0
  0
LINE
  5
1589D
330
155B8
100
AcDbEntity
  8
YODOROGO
100
AcDbLine
 10
15429.80217064596
 20
845.8747482146444
 30
0.0
 11
15449.80217064596
 21
845.8747482146444
 31
0.0
  0
LINE
  5
1589E
330
155B8
100
AcDbEntity
  8
YODOROGO
100
AcDbLine
 10
15308.80217064596
 20
897.8747482146435
 30
0.0
 11
15308.80217064596
 21
867.8747482146436
 31
0.0
  0
LINE
  5
1589F
330
155B8
100
AcDbEntity
  8
YODOROGO
100
AcDbLine
 10
15582.80217064596
 20
1013.874748214644
 30
0.0
 11
15582.80217064596
 21
981.8747482146434
 31
0.0
  0
LINE
  5
158A0
330
155B8
100
AcDbEntity
  8
YODOROGO
100
AcDbLine
 10
15766.80217064596
 20
797.8747482146435
 30
0.0
 11
15766.80217064594
 21
905.8747482146443
 31
0.0
  0
LINE
  5
158A1
330
155B8
100
AcDbEntity
  8
YODOROGO
100
AcDbLine
 10
15730.80217064594
 20
993.8747482146439
 30
0.0
 11
15730.80217064594
 21
817.8747482146436
 31
0.0
  0
LINE
  5
158A2
330
155B8
100
AcDbEntity
  8
YODOROGO
100
AcDbLine
 10
15826.80217064596
 20
713.8747482146436
 30
0.0
 11
15826.80217064594
 21
905.8747482146443
 31
0.0
  0
LINE
  5
158A3
330
155B8
100
AcDbEntity
  8
YODOROGO
100
AcDbLine
 10
15794.80217064596
 20
905.8747482146443
 30
0.0
 11
15794.80217064596
 21
713.8747482146436
 31
0.0
  0
LINE
  5
158A4
330
155B8
100
AcDbEntity
  8
YODOROGO
100
AcDbLine
 10
15618.80217064596
 20
797.8747482146435
 30
0.0
 11
15618.80217064596
 21
853.874748214644
 31
0.0
  0
ARC
  5
158A5
330
155B8
100
AcDbEntity
  8
YODOROGO
100
AcDbCircle
 10
15676.95743255803
 20
803.8951756442788
 30
0.0
 40
90.04622428799429
100
AcDbArc
 50
268.6284910216979
 51
356.1663845733032
  0
LINE
  5
158A6
330
155B8
100
AcDbEntity
  8
YODOROGO
100
AcDbLine
 10
15674.80217064596
 20
763.8747482146435
 30
0.0
 11
15674.80217064596
 21
713.8747482146436
 31
0.0
  0
ARC
  5
158A7
330
155B8
100
AcDbEntity
  8
YODOROGO
100
AcDbCircle
 10
15675.75903786228
 20
818.9194785088275
 30
0.0
 40
55.05304649180608
100
AcDbArc
 50
269.0041020930593
 51
358.9126445549248
  0
LINE
  5
158A8
330
155B8
100
AcDbEntity
  8
YODOROGO
100
AcDbLine
 10
15794.80217064596
 20
713.8747482146436
 30
0.0
 11
15826.80217064596
 21
713.8747482146436
 31
0.0
  0
LINE
  5
158A9
330
155B8
100
AcDbEntity
  8
YODOROGO
100
AcDbLine
 10
15766.80217064594
 20
905.8747482146443
 30
0.0
 11
15794.80217064596
 21
905.8747482146443
 31
0.0
  0
LINE
  5
158AA
330
155B8
100
AcDbEntity
  8
YODOROGO
100
AcDbLine
 10
15810.80217064596
 20
993.8747482146439
 30
0.0
 11
15730.80217064594
 21
993.8747482146439
 31
0.0
  0
LINE
  5
158AB
330
155B8
100
AcDbEntity
  8
YODOROGO
100
AcDbLine
 10
15766.80217064594
 20
957.8747482146436
 30
0.0
 11
15830.80217064596
 21
957.8747482146436
 31
0.0
  0
LINE
  5
158AC
330
155B8
100
AcDbEntity
  8
YODOROGO
100
AcDbLine
 10
15850.80217064596
 20
937.8747482146435
 30
0.0
 11
15766.80217064594
 21
937.8747482146435
 31
0.0
  0
LINE
  5
158AD
330
155B8
100
AcDbEntity
  8
YODOROGO
100
AcDbLine
 10
15618.80217064596
 20
889.8747482146442
 30
0.0
 11
15674.80217064596
 21
889.8747482146442
 31
0.0
  0
LINE
  5
158AE
330
155B8
100
AcDbEntity
  8
YODOROGO
100
AcDbLine
 10
15618.80217064596
 20
917.8747482146436
 30
0.0
 11
15618.80217064596
 21
889.8747482146442
 31
0.0
  0
LINE
  5
158AF
330
155B8
100
AcDbEntity
  8
YODOROGO
100
AcDbLine
 10
15674.80217064596
 20
917.8747482146436
 30
0.0
 11
15618.80217064596
 21
917.8747482146436
 31
0.0
  0
LINE
  5
158B0
330
155B8
100
AcDbEntity
  8
YODOROGO
100
AcDbLine
 10
15674.80217064596
 20
889.8747482146442
 30
0.0
 11
15674.80217064596
 21
917.8747482146436
 31
0.0
  0
LINE
  5
158B1
330
155B8
100
AcDbEntity
  8
YODOROGO
100
AcDbLine
 10
15766.80217064594
 20
937.8747482146435
 30
0.0
 11
15766.80217064594
 21
957.8747482146436
 31
0.0
  0
LINE
  5
158B2
330
155B8
100
AcDbEntity
  8
YODOROGO
100
AcDbLine
 10
15706.80217064596
 20
853.874748214644
 30
0.0
 11
15706.80217064596
 21
953.874748214644
 31
0.0
  0
LINE
  5
158B3
330
155B8
100
AcDbEntity
  8
YODOROGO
100
AcDbLine
 10
15618.80217064596
 20
853.874748214644
 30
0.0
 11
15706.80217064596
 21
853.874748214644
 31
0.0
  0
LINE
  5
158B4
330
155B8
100
AcDbEntity
  8
YODOROGO
100
AcDbLine
 10
15706.80217064596
 20
981.8747482146434
 30
0.0
 11
15706.80217064596
 21
1013.874748214644
 31
0.0
  0
ARC
  5
158B5
330
155B8
100
AcDbEntity
  8
YODOROGO
100
AcDbCircle
 10
15810.80217064596
 20
1001.874748214642
 30
0.0
 40
7.99999999999727
100
AcDbArc
 50
270.0
 51
0.0000000000081422
  0
LINE
  5
158B6
330
155B8
100
AcDbEntity
  8
YODOROGO
100
AcDbLine
 10
15818.80217064596
 20
1013.874748214644
 30
0.0
 11
15818.80217064596
 21
1001.874748214643
 31
0.0
  0
LINE
  5
158B7
330
155B8
100
AcDbEntity
  8
YODOROGO
100
AcDbLine
 10
15850.80217064596
 20
1013.874748214644
 30
0.0
 11
15818.80217064596
 21
1013.874748214644
 31
0.0
  0
LINE
  5
158B8
330
155B8
100
AcDbEntity
  8
YODOROGO
100
AcDbLine
 10
15850.80217064596
 20
977.8747482146435
 30
0.0
 11
15850.80217064596
 21
1013.874748214644
 31
0.0
  0
ARC
  5
158B9
330
155B8
100
AcDbEntity
  8
YODOROGO
100
AcDbCircle
 10
15830.80217064596
 20
977.8747482146435
 30
0.0
 40
20.0
100
AcDbArc
 50
270.0
 51
0.0
  0
LINE
  5
158BA
330
155B8
100
AcDbEntity
  8
YODOROGO
100
AcDbLine
 10
15850.80217064596
 20
905.8747482146443
 30
0.0
 11
15850.80217064596
 21
937.8747482146435
 31
0.0
  0
LINE
  5
158BB
330
155B8
100
AcDbEntity
  8
YODOROGO
100
AcDbLine
 10
15826.80217064594
 20
905.8747482146443
 30
0.0
 11
15850.80217064596
 21
905.8747482146443
 31
0.0
  0
LINE
  5
158BC
330
155B8
100
AcDbEntity
  8
SUNPOU
100
AcDbLine
 10
6819.127507899648
 20
6803.693182432329
 30
0.0
 11
6819.127507899648
 21
6138.693182432328
 31
0.0
  0
LINE
  5
158BD
330
155B8
100
AcDbEntity
  8
SUNPOU
100
AcDbLine
 10
10019.12750789964
 20
6803.693182432329
 30
0.0
 11
10019.12750789964
 21
6138.693182432328
 31
0.0
  0
LINE
  5
158BE
330
155B8
100
AcDbEntity
  8
SUNPOU
100
AcDbLine
 10
6839.127507899648
 20
6183.693182432328
 30
0.0
 11
9999.127507899649
 21
6183.693182432328
 31
0.0
  0
LINE
  5
158BF
330
155B8
100
AcDbEntity
  8
SUNPOU
100
AcDbLine
 10
9596.103906328144
 20
4019.166484335345
 30
0.0
 11
10261.96981489396
 21
4019.166484335345
 31
0.0
  0
LINE
  5
158C0
330
155B8
100
AcDbEntity
  8
SUNPOU
100
AcDbLine
 10
9596.103906328144
 20
2739.166484335346
 30
0.0
 11
10261.96981489396
 21
2739.166484335346
 31
0.0
  0
LINE
  5
158C1
330
155B8
100
AcDbEntity
  8
SUNPOU
100
AcDbLine
 10
10216.96981489397
 20
3999.166484335344
 30
0.0
 11
10216.96981489397
 21
2759.166484335346
 31
0.0
  0
LINE
  5
158C2
330
155B8
100
AcDbEntity
  8
SUNPOU
100
AcDbLine
 10
9429.103906328144
 20
4290.544568577749
 30
0.0
 11
9414.103906328142
 21
4290.544568577749
 31
0.0
  0
LINE
  5
158C3
330
155B8
100
AcDbEntity
  8
SUNPOU
100
AcDbLine
 10
7843.103906328146
 20
4290.544568577749
 30
0.0
 11
7858.103906328143
 21
4290.544568577749
 31
0.0
  0
LINE
  5
158C4
330
155B8
100
AcDbEntity
  8
SUNPOU
100
AcDbLine
 10
7716.103906328147
 20
2699.166484335346
 30
0.0
 11
7716.103906328147
 21
2203.731788496596
 31
0.0
  0
LINE
  5
158C5
330
155B8
100
AcDbEntity
  8
SUNPOU
100
AcDbLine
 10
9556.103906328145
 20
2699.166484335346
 30
0.0
 11
9556.103906328145
 21
2203.731788496596
 31
0.0
  0
LINE
  5
158C6
330
155B8
100
AcDbEntity
  8
SUNPOU
100
AcDbLine
 10
7736.103906328144
 20
2248.731788496596
 30
0.0
 11
9536.103906328142
 21
2248.731788496596
 31
0.0
  0
LINE
  5
158C7
330
155B8
100
AcDbEntity
  8
SUNPOU
100
AcDbLine
 10
7302.842823771877
 20
2866.166484335343
 30
0.0
 11
7302.842823771877
 21
2881.166484335343
 31
0.0
  0
LINE
  5
158C8
330
155B8
100
AcDbEntity
  8
SUNPOU
100
AcDbLine
 10
7302.842823771877
 20
3892.166484335344
 30
0.0
 11
7302.842823771877
 21
3877.166484335345
 31
0.0
  0
LINE
  5
158C9
330
155B8
100
AcDbEntity
  8
SUNPOU
100
AcDbLine
 10
9778.677507899649
 20
8843.69318243233
 30
0.0
 11
10514.12750789963
 21
8843.69318243233
 31
0.0
  0
LINE
  5
158CA
330
155B8
100
AcDbEntity
  8
SUNPOU
100
AcDbLine
 10
10059.12750789964
 20
9143.693182432331
 30
0.0
 11
10514.12750789963
 21
9143.693182432331
 31
0.0
  0
LINE
  5
158CB
330
155B8
100
AcDbEntity
  8
SUNPOU
100
AcDbLine
 10
10469.12750789964
 20
8863.693182432331
 30
0.0
 11
10469.12750789964
 21
9123.693182432331
 31
0.0
  0
LINE
  5
158CC
330
155B8
100
AcDbEntity
  8
SUNPOU
100
AcDbLine
 10
10059.12750789964
 20
7993.69318243233
 30
0.0
 11
10514.12750789963
 21
7993.69318243233
 31
0.0
  0
LINE
  5
158CD
330
155B8
100
AcDbEntity
  8
SUNPOU
100
AcDbLine
 10
9778.677507899649
 20
8843.69318243233
 30
0.0
 11
10514.12750789963
 21
8843.69318243233
 31
0.0
  0
LINE
  5
158CE
330
155B8
100
AcDbEntity
  8
SUNPOU
100
AcDbLine
 10
10469.12750789964
 20
8013.69318243233
 30
0.0
 11
10469.12750789964
 21
8823.693182432331
 31
0.0
  0
LINE
  5
158CF
330
155B8
100
AcDbEntity
  8
SUNPOU
100
AcDbLine
 10
10059.12750789964
 20
9143.693182432331
 30
0.0
 11
10724.12750789964
 21
9143.693182432331
 31
0.0
  0
LINE
  5
158D0
330
155B8
100
AcDbEntity
  8
SUNPOU
100
AcDbLine
 10
10059.12750789964
 20
7993.69318243233
 30
0.0
 11
10724.12750789964
 21
7993.69318243233
 31
0.0
  0
LINE
  5
158D1
330
155B8
100
AcDbEntity
  8
SUNPOU
100
AcDbLine
 10
10679.12750789964
 20
9123.693182432331
 30
0.0
 11
10679.12750789964
 21
8013.69318243233
 31
0.0
  0
LINE
  5
158D2
330
155B8
100
AcDbEntity
  8
SUNPOU
100
AcDbLine
 10
9219.127507899647
 20
9183.693182432332
 30
0.0
 11
9219.127507899647
 21
9488.693182432331
 31
0.0
  0
LINE
  5
158D3
330
155B8
100
AcDbEntity
  8
SUNPOU
100
AcDbLine
 10
10019.12750789964
 20
9183.693182432332
 30
0.0
 11
10019.12750789964
 21
9488.693182432331
 31
0.0
  0
LINE
  5
158D4
330
155B8
100
AcDbEntity
  8
SUNPOU
100
AcDbLine
 10
9239.127507899649
 20
9443.693182432332
 30
0.0
 11
9999.127507899649
 21
9443.693182432332
 31
0.0
  0
LINE
  5
158D5
330
155B8
100
AcDbEntity
  8
SUNPOU
100
AcDbLine
 10
7059.577507899648
 20
8843.69318243233
 30
0.0
 11
6324.127507899649
 21
8843.69318243233
 31
0.0
  0
LINE
  5
158D6
330
155B8
100
AcDbEntity
  8
SUNPOU
100
AcDbLine
 10
6779.127507899649
 20
9083.693182432327
 30
0.0
 11
6324.127507899649
 21
9083.693182432327
 31
0.0
  0
LINE
  5
158D7
330
155B8
100
AcDbEntity
  8
SUNPOU
100
AcDbLine
 10
6369.127507899649
 20
8823.693182432331
 30
0.0
 11
6369.127507899649
 21
8803.693182432331
 31
0.0
  0
LINE
  5
158D8
330
155B8
100
AcDbEntity
  8
SUNPOU
100
AcDbLine
 10
6369.127507899649
 20
9103.693182432328
 30
0.0
 11
6369.127507899649
 21
9123.693182432328
 31
0.0
  0
LINE
  5
158D9
330
155B8
100
AcDbEntity
  8
SUNPOU
100
AcDbLine
 10
6369.127507899649
 20
8843.69318243233
 30
0.0
 11
6369.127507899649
 21
9083.693182432327
 31
0.0
  0
LINE
  5
158DA
330
155B8
100
AcDbEntity
  8
SUNPOU
100
AcDbLine
 10
6779.127507899649
 20
6843.693182432328
 30
0.0
 11
6324.127507899649
 21
6843.693182432328
 31
0.0
  0
LINE
  5
158DB
330
155B8
100
AcDbEntity
  8
SUNPOU
100
AcDbLine
 10
7059.577507899648
 20
8843.69318243233
 30
0.0
 11
6324.127507899649
 21
8843.69318243233
 31
0.0
  0
LINE
  5
158DC
330
155B8
100
AcDbEntity
  8
SUNPOU
100
AcDbLine
 10
6369.127507899649
 20
6863.693182432328
 30
0.0
 11
6369.127507899649
 21
8823.693182432331
 31
0.0
  0
LINE
  5
158DD
330
155B8
100
AcDbEntity
  8
SUNPOU
100
AcDbLine
 10
9619.127507899648
 20
7886.693182432328
 30
0.0
 11
9619.127507899648
 21
6348.693182432328
 31
0.0
  0
LINE
  5
158DE
330
155B8
100
AcDbEntity
  8
SUNPOU
100
AcDbLine
 10
10019.12750789964
 20
6803.693182432329
 30
0.0
 11
10019.12750789964
 21
6348.693182432328
 31
0.0
  0
LINE
  5
158DF
330
155B8
100
AcDbEntity
  8
SUNPOU
100
AcDbLine
 10
9639.127507899649
 20
6393.693182432328
 30
0.0
 11
9999.127507899649
 21
6393.693182432328
 31
0.0
  0
LINE
  5
158E0
330
155B8
100
AcDbEntity
  8
SUNPOU
100
AcDbLine
 10
7219.127507899648
 20
7886.693182432328
 30
0.0
 11
7219.127507899648
 21
6348.693182432328
 31
0.0
  0
LINE
  5
158E1
330
155B8
100
AcDbEntity
  8
SUNPOU
100
AcDbLine
 10
9619.127507899648
 20
7886.693182432328
 30
0.0
 11
9619.127507899648
 21
6348.693182432328
 31
0.0
  0
LINE
  5
158E2
330
155B8
100
AcDbEntity
  8
SUNPOU
100
AcDbLine
 10
7239.127507899649
 20
6393.693182432328
 30
0.0
 11
9599.127507899648
 21
6393.693182432328
 31
0.0
  0
LINE
  5
158E3
330
155B8
100
AcDbEntity
  8
SUNPOU
100
AcDbLine
 10
6819.127507899648
 20
6803.693182432329
 30
0.0
 11
6819.127507899648
 21
6348.693182432328
 31
0.0
  0
LINE
  5
158E4
330
155B8
100
AcDbEntity
  8
SUNPOU
100
AcDbLine
 10
7219.127507899648
 20
7886.693182432328
 30
0.0
 11
7219.127507899648
 21
6348.693182432328
 31
0.0
  0
LINE
  5
158E5
330
155B8
100
AcDbEntity
  8
SUNPOU
100
AcDbLine
 10
6839.127507899648
 20
6393.693182432328
 30
0.0
 11
7199.12750789965
 21
6393.693182432328
 31
0.0
  0
LINE
  5
158E6
330
155B8
100
AcDbEntity
  8
SUNPOU
100
AcDbLine
 10
5004.005086586602
 20
2498.731788496597
 30
0.0
 11
5004.005086586602
 21
2503.731788496597
 31
0.0
  0
LINE
  5
158E7
330
155B8
100
AcDbEntity
  8
SUNPOU
100
AcDbLine
 10
5484.005086586606
 20
2797.718703522841
 30
0.0
 11
5484.005086586606
 21
2413.731788496597
 31
0.0
  0
LINE
  5
158E8
330
155B8
100
AcDbEntity
  8
SUNPOU
100
AcDbLine
 10
5024.005086586602
 20
2458.731788496597
 30
0.0
 11
5464.005086586605
 21
2458.731788496597
 31
0.0
  0
LINE
  5
158E9
330
155B8
100
AcDbEntity
  8
SUNPOU
100
AcDbLine
 10
3644.005086586604
 20
2797.718703522839
 30
0.0
 11
3644.005086586604
 21
2413.731788496597
 31
0.0
  0
LINE
  5
158EA
330
155B8
100
AcDbEntity
  8
SUNPOU
100
AcDbLine
 10
5004.005086586602
 20
2498.731788496597
 30
0.0
 11
5004.005086586602
 21
2503.731788496597
 31
0.0
  0
LINE
  5
158EB
330
155B8
100
AcDbEntity
  8
SUNPOU
100
AcDbLine
 10
3664.005086586604
 20
2458.731788496597
 30
0.0
 11
4984.005086586602
 21
2458.731788496597
 31
0.0
  0
LINE
  5
158EC
330
155B8
100
AcDbEntity
  8
SUNPOU
100
AcDbLine
 10
3644.005086586604
 20
2797.718703522839
 30
0.0
 11
3644.005086586604
 21
2203.731788496596
 31
0.0
  0
LINE
  5
158ED
330
155B8
100
AcDbEntity
  8
SUNPOU
100
AcDbLine
 10
5484.005086586606
 20
2797.718703522841
 30
0.0
 11
5484.005086586606
 21
2203.731788496596
 31
0.0
  0
LINE
  5
158EE
330
155B8
100
AcDbEntity
  8
SUNPOU
100
AcDbLine
 10
3664.005086586604
 20
2248.731788496596
 30
0.0
 11
5464.005086586605
 21
2248.731788496596
 31
0.0
  0
LINE
  5
158EF
330
155B8
100
AcDbEntity
  8
SUNPOU
100
AcDbLine
 10
5524.005086586601
 20
3957.718703522846
 30
0.0
 11
6170.583068426932
 21
3957.718703522846
 31
0.0
  0
LINE
  5
158F0
330
155B8
100
AcDbEntity
  8
SUNPOU
100
AcDbLine
 10
5115.285086586599
 20
3157.718703522843
 30
0.0
 11
6170.583068426932
 21
3157.718703522843
 31
0.0
  0
LINE
  5
158F1
330
155B8
100
AcDbEntity
  8
SUNPOU
100
AcDbLine
 10
6125.583068426931
 20
3937.718703522845
 30
0.0
 11
6125.583068426931
 21
3177.718703522842
 31
0.0
  0
LINE
  5
158F2
330
155B8
100
AcDbEntity
  8
SUNPOU
100
AcDbLine
 10
5684.005086586605
 20
2997.718703522841
 30
0.0
 11
6380.583068426933
 21
2997.718703522841
 31
0.0
  0
LINE
  5
158F3
330
155B8
100
AcDbEntity
  8
SUNPOU
100
AcDbLine
 10
5684.005086586605
 20
2837.718703522841
 30
0.0
 11
6380.583068426933
 21
2837.718703522841
 31
0.0
  0
LINE
  5
158F4
330
155B8
100
AcDbEntity
  8
SUNPOU
100
AcDbLine
 10
6335.583068426931
 20
2977.718703522841
 30
0.0
 11
6335.583068426931
 21
2857.718703522841
 31
0.0
  0
LINE
  5
158F5
330
155B8
100
AcDbEntity
  8
SUNPOU
100
AcDbLine
 10
6335.583068426931
 20
2837.718703522841
 30
0.0
 11
6335.583068426931
 21
2582.004417808555
 31
0.0
  0
LINE
  5
158F6
330
155B8
100
AcDbEntity
  8
SUNPOU
100
AcDbLine
 10
5524.005086586601
 20
3957.718703522846
 30
0.0
 11
6380.583068426933
 21
3957.718703522846
 31
0.0
  0
LINE
  5
158F7
330
155B8
100
AcDbEntity
  8
SUNPOU
100
AcDbLine
 10
5684.005086586605
 20
2997.718703522844
 30
0.0
 11
6380.583068426933
 21
2997.718703522844
 31
0.0
  0
LINE
  5
158F8
330
155B8
100
AcDbEntity
  8
SUNPOU
100
AcDbLine
 10
6335.583068426931
 20
3937.718703522845
 30
0.0
 11
6335.583068426931
 21
3017.718703522845
 31
0.0
  0
TEXT
  5
158F9
330
155B8
100
AcDbEntity
  8
SUNPOU
100
AcDbText
 10
8304.841793613935
 20
6228.693182432328
 30
0.0
 40
90.0
  1
3200
 41
0.6666666666666666
  7
00
100
AcDbText
  0
LINE
  5
158FA
330
155B8
100
AcDbEntity
  8
SUNPOU
100
AcDbLine
 10
10004.12750789964
 20
6183.693182432328
 30
0.0
 11
9989.127507899645
 21
6183.693182432328
 31
0.0
  0
LINE
  5
158FB
330
155B8
100
AcDbEntity
  8
SUNPOU
100
AcDbLine
 10
6834.127507899649
 20
6183.693182432328
 30
0.0
 11
6849.127507899649
 21
6183.693182432328
 31
0.0
  0
TEXT
  5
158FC
330
155B8
100
AcDbEntity
  8
SUNPOU
100
AcDbText
 10
10171.96981489397
 20
3293.45219862106
 30
0.0
 40
90.0
  1
800
 50
90.0
 41
0.6666666666666666
  7
00
100
AcDbText
  0
LINE
  5
158FD
330
155B8
100
AcDbEntity
  8
SUNPOU
100
AcDbLine
 10
10216.96981489397
 20
2754.166484335346
 30
0.0
 11
10216.96981489397
 21
2769.166484335346
 31
0.0
  0
LINE
  5
158FE
330
155B8
100
AcDbEntity
  8
SUNPOU
100
AcDbLine
 10
10216.96981489397
 20
4004.166484335344
 30
0.0
 11
10216.96981489397
 21
3989.166484335344
 31
0.0
  0
ARC
  5
158FF
330
155B8
100
AcDbEntity
  8
SUNPOU
100
AcDbCircle
 10
9444.103906328143
 20
4290.544568577749
 30
0.0
 40
7.5
100
AcDbArc
 50
180.0
 51
0.0
  0
ARC
  5
15900
330
155B8
100
AcDbEntity
  8
SUNPOU
100
AcDbCircle
 10
9444.103906328143
 20
4290.544568577749
 30
0.0
 40
7.5
100
AcDbArc
 50
0.0
 51
180.0
  0
ARC
  5
15901
330
155B8
100
AcDbEntity
  8
SUNPOU
100
AcDbCircle
 10
7828.103906328144
 20
4290.544568577749
 30
0.0
 40
7.5
100
AcDbArc
 50
0.0
 51
180.0
  0
ARC
  5
15902
330
155B8
100
AcDbEntity
  8
SUNPOU
100
AcDbCircle
 10
7828.103906328144
 20
4290.544568577749
 30
0.0
 40
7.5
100
AcDbArc
 50
180.0
 51
0.0
  0
TEXT
  5
15903
330
155B8
100
AcDbEntity
  8
SUNPOU
100
AcDbText
 10
8517.532477756718
 20
2293.731788496597
 30
0.0
 40
90.0
  1
1150
 41
0.6666666666666666
  7
00
100
AcDbText
  0
LINE
  5
15904
330
155B8
100
AcDbEntity
  8
SUNPOU
100
AcDbLine
 10
9541.103906328144
 20
2248.731788496596
 30
0.0
 11
9526.103906328144
 21
2248.731788496596
 31
0.0
  0
LINE
  5
15905
330
155B8
100
AcDbEntity
  8
SUNPOU
100
AcDbLine
 10
7731.103906328144
 20
2248.731788496596
 30
0.0
 11
7746.103906328144
 21
2248.731788496596
 31
0.0
  0
ARC
  5
15906
330
155B8
100
AcDbEntity
  8
SUNPOU
100
AcDbCircle
 10
7302.842823771877
 20
2851.166484335342
 30
0.0
 40
7.5
100
AcDbArc
 50
90.0
 51
270.0
  0
ARC
  5
15907
330
155B8
100
AcDbEntity
  8
SUNPOU
100
AcDbCircle
 10
7302.842823771877
 20
2851.166484335342
 30
0.0
 40
7.5
100
AcDbArc
 50
270.0
 51
90.0
  0
ARC
  5
15908
330
155B8
100
AcDbEntity
  8
SUNPOU
100
AcDbCircle
 10
7302.842823771877
 20
3907.166484335344
 30
0.0
 40
7.5
100
AcDbArc
 50
270.0
 51
90.0
  0
ARC
  5
15909
330
155B8
100
AcDbEntity
  8
SUNPOU
100
AcDbCircle
 10
7302.842823771877
 20
3907.166484335344
 30
0.0
 40
7.5
100
AcDbArc
 50
90.0
 51
270.0
  0
TEXT
  5
1590A
330
155B8
100
AcDbEntity
  8
SUNPOU
100
AcDbText
 10
10424.12750789964
 20
8907.978896718045
 30
0.0
 40
90.0
  1
300
 50
90.0
 41
0.6666666666666666
  7
00
100
AcDbText
  0
LINE
  5
1590B
330
155B8
100
AcDbEntity
  8
SUNPOU
100
AcDbLine
 10
10469.12750789964
 20
9128.693182432332
 30
0.0
 11
10469.12750789964
 21
9113.693182432331
 31
0.0
  0
LINE
  5
1590C
330
155B8
100
AcDbEntity
  8
SUNPOU
100
AcDbLine
 10
10469.12750789964
 20
8858.693182432331
 30
0.0
 11
10469.12750789964
 21
8873.693182432331
 31
0.0
  0
TEXT
  5
1590D
330
155B8
100
AcDbEntity
  8
SUNPOU
100
AcDbText
 10
10424.12750789964
 20
8332.978896718044
 30
0.0
 40
90.0
  1
850
 50
90.0
 41
0.6666666666666666
  7
00
100
AcDbText
  0
LINE
  5
1590E
330
155B8
100
AcDbEntity
  8
SUNPOU
100
AcDbLine
 10
10469.12750789964
 20
8828.693182432331
 30
0.0
 11
10469.12750789964
 21
8813.693182432331
 31
0.0
  0
LINE
  5
1590F
330
155B8
100
AcDbEntity
  8
SUNPOU
100
AcDbLine
 10
10469.12750789964
 20
8008.693182432329
 30
0.0
 11
10469.12750789964
 21
8023.69318243233
 31
0.0
  0
TEXT
  5
15910
330
155B8
100
AcDbEntity
  8
SUNPOU
100
AcDbText
 10
10634.12750789964
 20
8450.121753860905
 30
0.0
 40
90.0
  1
1150
 50
90.0
 41
0.6666666666666666
  7
00
100
AcDbText
  0
LINE
  5
15911
330
155B8
100
AcDbEntity
  8
SUNPOU
100
AcDbLine
 10
10679.12750789964
 20
8008.693182432329
 30
0.0
 11
10679.12750789964
 21
8023.69318243233
 31
0.0
  0
LINE
  5
15912
330
155B8
100
AcDbEntity
  8
SUNPOU
100
AcDbLine
 10
10679.12750789964
 20
9128.693182432332
 30
0.0
 11
10679.12750789964
 21
9113.693182432331
 31
0.0
  0
TEXT
  5
15913
330
155B8
100
AcDbEntity
  8
SUNPOU
100
AcDbText
 10
9533.413222185359
 20
9488.693182432331
 30
0.0
 40
90.0
  1
800
 41
0.6666666666666666
  7
00
100
AcDbText
  0
LINE
  5
15914
330
155B8
100
AcDbEntity
  8
SUNPOU
100
AcDbLine
 10
10004.12750789964
 20
9443.693182432332
 30
0.0
 11
9989.127507899645
 21
9443.693182432332
 31
0.0
  0
LINE
  5
15915
330
155B8
100
AcDbEntity
  8
SUNPOU
100
AcDbLine
 10
9234.127507899648
 20
9443.693182432332
 30
0.0
 11
9249.127507899649
 21
9443.693182432332
 31
0.0
  0
TEXT
  5
15916
330
155B8
100
AcDbEntity
  8
SUNPOU
100
AcDbText
 10
6324.127507899647
 20
8877.978896718046
 30
0.0
 40
90.0
  1
240
 50
90.0
 41
0.6666666666666666
  7
00
100
AcDbText
  0
LINE
  5
15917
330
155B8
100
AcDbEntity
  8
SUNPOU
100
AcDbLine
 10
6369.127507899649
 20
9098.693182432327
 30
0.0
 11
6369.127507899649
 21
9113.693182432324
 31
0.0
  0
LINE
  5
15918
330
155B8
100
AcDbEntity
  8
SUNPOU
100
AcDbLine
 10
6369.127507899649
 20
8828.693182432331
 30
0.0
 11
6369.127507899649
 21
8813.693182432331
 31
0.0
  0
TEXT
  5
15919
330
155B8
100
AcDbEntity
  8
SUNPOU
100
AcDbText
 10
6324.127507899647
 20
7729.407468146617
 30
0.0
 40
90.0
  1
2000
 50
90.0
 41
0.6666666666666666
  7
00
100
AcDbText
  0
LINE
  5
1591A
330
155B8
100
AcDbEntity
  8
SUNPOU
100
AcDbLine
 10
6369.127507899649
 20
8828.693182432331
 30
0.0
 11
6369.127507899649
 21
8813.693182432331
 31
0.0
  0
LINE
  5
1591B
330
155B8
100
AcDbEntity
  8
SUNPOU
100
AcDbLine
 10
6369.127507899649
 20
6858.693182432329
 30
0.0
 11
6369.127507899649
 21
6873.693182432328
 31
0.0
  0
TEXT
  5
1591C
330
155B8
100
AcDbEntity
  8
SUNPOU
100
AcDbText
 10
9733.41322218536
 20
6438.693182432328
 30
0.0
 40
90.0
  1
400
 41
0.6666666666666666
  7
00
100
AcDbText
  0
LINE
  5
1591D
330
155B8
100
AcDbEntity
  8
SUNPOU
100
AcDbLine
 10
10004.12750789964
 20
6393.693182432328
 30
0.0
 11
9989.127507899645
 21
6393.693182432328
 31
0.0
  0
LINE
  5
1591E
330
155B8
100
AcDbEntity
  8
SUNPOU
100
AcDbLine
 10
9634.127507899648
 20
6393.693182432328
 30
0.0
 11
9649.127507899649
 21
6393.693182432328
 31
0.0
  0
TEXT
  5
1591F
330
155B8
100
AcDbEntity
  8
SUNPOU
100
AcDbText
 10
8304.841793613935
 20
6438.693182432328
 30
0.0
 40
90.0
  1
2400
 41
0.6666666666666666
  7
00
100
AcDbText
  0
LINE
  5
15920
330
155B8
100
AcDbEntity
  8
SUNPOU
100
AcDbLine
 10
9604.127507899647
 20
6393.693182432328
 30
0.0
 11
9589.127507899648
 21
6393.693182432328
 31
0.0
  0
LINE
  5
15921
330
155B8
100
AcDbEntity
  8
SUNPOU
100
AcDbLine
 10
7234.127507899649
 20
6393.693182432328
 30
0.0
 11
7249.127507899649
 21
6393.693182432328
 31
0.0
  0
TEXT
  5
15922
330
155B8
100
AcDbEntity
  8
SUNPOU
100
AcDbText
 10
6933.413222185362
 20
6438.693182432328
 30
0.0
 40
90.0
  1
400
 41
0.6666666666666666
  7
00
100
AcDbText
  0
LINE
  5
15923
330
155B8
100
AcDbEntity
  8
SUNPOU
100
AcDbLine
 10
7204.127507899649
 20
6393.693182432328
 30
0.0
 11
7189.127507899648
 21
6393.693182432328
 31
0.0
  0
LINE
  5
15924
330
155B8
100
AcDbEntity
  8
SUNPOU
100
AcDbLine
 10
6834.127507899649
 20
6393.693182432328
 30
0.0
 11
6849.127507899649
 21
6393.693182432328
 31
0.0
  0
TEXT
  5
15925
330
155B8
100
AcDbEntity
  8
SUNPOU
100
AcDbText
 10
5158.290800872318
 20
2503.731788496597
 30
0.0
 40
90.0
  1
300
 41
0.6666666666666666
  7
00
100
AcDbText
  0
LINE
  5
15926
330
155B8
100
AcDbEntity
  8
SUNPOU
100
AcDbLine
 10
5469.005086586605
 20
2458.731788496597
 30
0.0
 11
5454.005086586604
 21
2458.731788496597
 31
0.0
  0
LINE
  5
15927
330
155B8
100
AcDbEntity
  8
SUNPOU
100
AcDbLine
 10
5019.005086586602
 20
2458.731788496597
 30
0.0
 11
5034.005086586603
 21
2458.731788496597
 31
0.0
  0
TEXT
  5
15928
330
155B8
100
AcDbEntity
  8
SUNPOU
100
AcDbText
 10
4238.290800872317
 20
2503.731788496597
 30
0.0
 40
90.0
  1
850
 41
0.6666666666666666
  7
00
100
AcDbText
  0
LINE
  5
15929
330
155B8
100
AcDbEntity
  8
SUNPOU
100
AcDbLine
 10
4989.005086586605
 20
2458.731788496597
 30
0.0
 11
4974.005086586602
 21
2458.731788496597
 31
0.0
  0
LINE
  5
1592A
330
155B8
100
AcDbEntity
  8
SUNPOU
100
AcDbLine
 10
3659.005086586604
 20
2458.731788496597
 30
0.0
 11
3674.005086586605
 21
2458.731788496597
 31
0.0
  0
TEXT
  5
1592B
330
155B8
100
AcDbEntity
  8
SUNPOU
100
AcDbText
 10
4445.433658015176
 20
2293.731788496597
 30
0.0
 40
90.0
  1
1150
 41
0.6666666666666666
  7
00
100
AcDbText
  0
LINE
  5
1592C
330
155B8
100
AcDbEntity
  8
SUNPOU
100
AcDbLine
 10
5469.005086586605
 20
2248.731788496596
 30
0.0
 11
5454.005086586604
 21
2248.731788496596
 31
0.0
  0
LINE
  5
1592D
330
155B8
100
AcDbEntity
  8
SUNPOU
100
AcDbLine
 10
3659.005086586604
 20
2248.731788496596
 30
0.0
 11
3674.005086586605
 21
2248.731788496596
 31
0.0
  0
TEXT
  5
1592E
330
155B8
100
AcDbEntity
  8
SUNPOU
100
AcDbText
 10
6080.58306842693
 20
3472.004417808559
 30
0.0
 40
90.0
  1
500
 50
90.0
 41
0.6666666666666666
  7
00
100
AcDbText
  0
LINE
  5
1592F
330
155B8
100
AcDbEntity
  8
SUNPOU
100
AcDbLine
 10
6125.583068426931
 20
3172.718703522841
 30
0.0
 11
6125.583068426931
 21
3187.718703522842
 31
0.0
  0
LINE
  5
15930
330
155B8
100
AcDbEntity
  8
SUNPOU
100
AcDbLine
 10
6125.583068426931
 20
3942.718703522847
 30
0.0
 11
6125.583068426931
 21
3927.718703522845
 31
0.0
  0
TEXT
  5
15931
330
155B8
100
AcDbEntity
  8
SUNPOU
100
AcDbText
 10
6290.58306842693
 20
2609.861560665699
 30
0.0
 40
90.0
  1
100
 50
90.0
 41
0.6666666666666666
  7
00
100
AcDbText
  0
LINE
  5
15932
330
155B8
100
AcDbEntity
  8
SUNPOU
100
AcDbLine
 10
6335.583068426931
 20
2852.718703522841
 30
0.0
 11
6335.583068426931
 21
2867.718703522841
 31
0.0
  0
LINE
  5
15933
330
155B8
100
AcDbEntity
  8
SUNPOU
100
AcDbLine
 10
6335.583068426931
 20
2982.718703522841
 30
0.0
 11
6335.583068426931
 21
2967.718703522841
 31
0.0
  0
TEXT
  5
15934
330
155B8
100
AcDbEntity
  8
SUNPOU
100
AcDbText
 10
6290.58306842693
 20
3390.575846379987
 30
0.0
 40
90.0
  1
600
 50
90.0
 41
0.6666666666666666
  7
00
100
AcDbText
  0
LINE
  5
15935
330
155B8
100
AcDbEntity
  8
SUNPOU
100
AcDbLine
 10
6335.583068426931
 20
3012.718703522844
 30
0.0
 11
6335.583068426931
 21
3027.718703522845
 31
0.0
  0
LINE
  5
15936
330
155B8
100
AcDbEntity
  8
SUNPOU
100
AcDbLine
 10
6335.583068426931
 20
3942.718703522847
 30
0.0
 11
6335.583068426931
 21
3927.718703522845
 31
0.0
  0
ARC
  5
15937
330
155B8
100
AcDbEntity
  8
SUNPOU
100
AcDbCircle
 10
10019.12750789964
 20
6183.693182432328
 30
0.0
 40
7.5
100
AcDbArc
 50
180.0
 51
0.0
  0
ARC
  5
15938
330
155B8
100
AcDbEntity
  8
SUNPOU
100
AcDbCircle
 10
10019.12750789964
 20
6183.693182432328
 30
0.0
 40
7.5
100
AcDbArc
 50
0.0
 51
180.0
  0
ARC
  5
15939
330
155B8
100
AcDbEntity
  8
SUNPOU
100
AcDbCircle
 10
6819.127507899648
 20
6183.693182432328
 30
0.0
 40
7.5
100
AcDbArc
 50
0.0
 51
180.0
  0
ARC
  5
1593A
330
155B8
100
AcDbEntity
  8
SUNPOU
100
AcDbCircle
 10
6819.127507899648
 20
6183.693182432328
 30
0.0
 40
7.5
100
AcDbArc
 50
180.0
 51
0.0
  0
ARC
  5
1593B
330
155B8
100
AcDbEntity
  8
SUNPOU
100
AcDbCircle
 10
10216.96981489397
 20
2739.166484335346
 30
0.0
 40
7.5
100
AcDbArc
 50
90.0
 51
270.0
  0
ARC
  5
1593C
330
155B8
100
AcDbEntity
  8
SUNPOU
100
AcDbCircle
 10
10216.96981489397
 20
2739.166484335346
 30
0.0
 40
7.5
100
AcDbArc
 50
270.0
 51
90.0
  0
ARC
  5
1593D
330
155B8
100
AcDbEntity
  8
SUNPOU
100
AcDbCircle
 10
10216.96981489397
 20
4019.166484335345
 30
0.0
 40
7.5
100
AcDbArc
 50
270.0
 51
90.0
  0
ARC
  5
1593E
330
155B8
100
AcDbEntity
  8
SUNPOU
100
AcDbCircle
 10
10216.96981489397
 20
4019.166484335345
 30
0.0
 40
7.5
100
AcDbArc
 50
90.0
 51
270.0
  0
ARC
  5
1593F
330
155B8
100
AcDbEntity
  8
SUNPOU
100
AcDbCircle
 10
9556.103906328145
 20
2248.731788496596
 30
0.0
 40
7.5
100
AcDbArc
 50
180.0
 51
0.0
  0
ARC
  5
15940
330
155B8
100
AcDbEntity
  8
SUNPOU
100
AcDbCircle
 10
9556.103906328145
 20
2248.731788496596
 30
0.0
 40
7.5
100
AcDbArc
 50
0.0
 51
180.0
  0
ARC
  5
15941
330
155B8
100
AcDbEntity
  8
SUNPOU
100
AcDbCircle
 10
7716.103906328147
 20
2248.731788496596
 30
0.0
 40
7.5
100
AcDbArc
 50
0.0
 51
180.0
  0
ARC
  5
15942
330
155B8
100
AcDbEntity
  8
SUNPOU
100
AcDbCircle
 10
7716.103906328147
 20
2248.731788496596
 30
0.0
 40
7.5
100
AcDbArc
 50
180.0
 51
0.0
  0
ARC
  5
15943
330
155B8
100
AcDbEntity
  8
SUNPOU
100
AcDbCircle
 10
10469.12750789964
 20
9143.693182432331
 30
0.0
 40
7.5
100
AcDbArc
 50
270.0
 51
90.0
  0
ARC
  5
15944
330
155B8
100
AcDbEntity
  8
SUNPOU
100
AcDbCircle
 10
10469.12750789964
 20
9143.693182432331
 30
0.0
 40
7.5
100
AcDbArc
 50
90.0
 51
270.0
  0
ARC
  5
15945
330
155B8
100
AcDbEntity
  8
SUNPOU
100
AcDbCircle
 10
10469.12750789964
 20
8843.69318243233
 30
0.0
 40
7.5
100
AcDbArc
 50
90.0
 51
270.0
  0
ARC
  5
15946
330
155B8
100
AcDbEntity
  8
SUNPOU
100
AcDbCircle
 10
10469.12750789964
 20
8843.69318243233
 30
0.0
 40
7.5
100
AcDbArc
 50
270.0
 51
90.0
  0
ARC
  5
15947
330
155B8
100
AcDbEntity
  8
SUNPOU
100
AcDbCircle
 10
10469.12750789964
 20
8843.69318243233
 30
0.0
 40
7.5
100
AcDbArc
 50
270.0
 51
90.0
  0
ARC
  5
15948
330
155B8
100
AcDbEntity
  8
SUNPOU
100
AcDbCircle
 10
10469.12750789964
 20
8843.69318243233
 30
0.0
 40
7.5
100
AcDbArc
 50
90.0
 51
270.0
  0
ARC
  5
15949
330
155B8
100
AcDbEntity
  8
SUNPOU
100
AcDbCircle
 10
10469.12750789964
 20
7993.69318243233
 30
0.0
 40
7.5
100
AcDbArc
 50
90.0
 51
270.0
  0
ARC
  5
1594A
330
155B8
100
AcDbEntity
  8
SUNPOU
100
AcDbCircle
 10
10469.12750789964
 20
7993.69318243233
 30
0.0
 40
7.5
100
AcDbArc
 50
270.0
 51
90.0
  0
ARC
  5
1594B
330
155B8
100
AcDbEntity
  8
SUNPOU
100
AcDbCircle
 10
10679.12750789964
 20
7993.69318243233
 30
0.0
 40
7.5
100
AcDbArc
 50
90.0
 51
270.0
  0
ARC
  5
1594C
330
155B8
100
AcDbEntity
  8
SUNPOU
100
AcDbCircle
 10
10679.12750789964
 20
7993.69318243233
 30
0.0
 40
7.5
100
AcDbArc
 50
270.0
 51
90.0
  0
ARC
  5
1594D
330
155B8
100
AcDbEntity
  8
SUNPOU
100
AcDbCircle
 10
10679.12750789964
 20
9143.693182432331
 30
0.0
 40
7.5
100
AcDbArc
 50
270.0
 51
90.0
  0
ARC
  5
1594E
330
155B8
100
AcDbEntity
  8
SUNPOU
100
AcDbCircle
 10
10679.12750789964
 20
9143.693182432331
 30
0.0
 40
7.5
100
AcDbArc
 50
90.0
 51
270.0
  0
ARC
  5
1594F
330
155B8
100
AcDbEntity
  8
SUNPOU
100
AcDbCircle
 10
10019.12750789964
 20
9443.693182432332
 30
0.0
 40
7.5
100
AcDbArc
 50
180.0
 51
0.0
  0
ARC
  5
15950
330
155B8
100
AcDbEntity
  8
SUNPOU
100
AcDbCircle
 10
10019.12750789964
 20
9443.693182432332
 30
0.0
 40
7.5
100
AcDbArc
 50
0.0
 51
180.0
  0
ARC
  5
15951
330
155B8
100
AcDbEntity
  8
SUNPOU
100
AcDbCircle
 10
9219.127507899647
 20
9443.693182432332
 30
0.0
 40
7.5
100
AcDbArc
 50
0.0
 51
180.0
  0
ARC
  5
15952
330
155B8
100
AcDbEntity
  8
SUNPOU
100
AcDbCircle
 10
9219.127507899647
 20
9443.693182432332
 30
0.0
 40
7.5
100
AcDbArc
 50
180.0
 51
0.0
  0
ARC
  5
15953
330
155B8
100
AcDbEntity
  8
SUNPOU
100
AcDbCircle
 10
6369.127507899649
 20
9083.693182432327
 30
0.0
 40
7.5
100
AcDbArc
 50
90.0
 51
270.0
  0
ARC
  5
15954
330
155B8
100
AcDbEntity
  8
SUNPOU
100
AcDbCircle
 10
6369.127507899649
 20
9083.693182432327
 30
0.0
 40
7.5
100
AcDbArc
 50
270.0
 51
90.0
  0
ARC
  5
15955
330
155B8
100
AcDbEntity
  8
SUNPOU
100
AcDbCircle
 10
6369.127507899649
 20
8843.69318243233
 30
0.0
 40
7.5
100
AcDbArc
 50
270.0
 51
90.0
  0
ARC
  5
15956
330
155B8
100
AcDbEntity
  8
SUNPOU
100
AcDbCircle
 10
6369.127507899649
 20
8843.69318243233
 30
0.0
 40
7.5
100
AcDbArc
 50
90.0
 51
270.0
  0
ARC
  5
15957
330
155B8
100
AcDbEntity
  8
SUNPOU
100
AcDbCircle
 10
6369.127507899649
 20
8843.69318243233
 30
0.0
 40
7.5
100
AcDbArc
 50
270.0
 51
90.0
  0
ARC
  5
15958
330
155B8
100
AcDbEntity
  8
SUNPOU
100
AcDbCircle
 10
6369.127507899649
 20
8843.69318243233
 30
0.0
 40
7.5
100
AcDbArc
 50
90.0
 51
270.0
  0
ARC
  5
15959
330
155B8
100
AcDbEntity
  8
SUNPOU
100
AcDbCircle
 10
6369.127507899649
 20
6843.693182432328
 30
0.0
 40
7.5
100
AcDbArc
 50
90.0
 51
270.0
  0
ARC
  5
1595A
330
155B8
100
AcDbEntity
  8
SUNPOU
100
AcDbCircle
 10
6369.127507899649
 20
6843.693182432328
 30
0.0
 40
7.5
100
AcDbArc
 50
270.0
 51
90.0
  0
ARC
  5
1595B
330
155B8
100
AcDbEntity
  8
SUNPOU
100
AcDbCircle
 10
10019.12750789964
 20
6393.693182432328
 30
0.0
 40
7.5
100
AcDbArc
 50
180.0
 51
0.0
  0
ARC
  5
1595C
330
155B8
100
AcDbEntity
  8
SUNPOU
100
AcDbCircle
 10
10019.12750789964
 20
6393.693182432328
 30
0.0
 40
7.5
100
AcDbArc
 50
0.0
 51
180.0
  0
ARC
  5
1595D
330
155B8
100
AcDbEntity
  8
SUNPOU
100
AcDbCircle
 10
9619.127507899648
 20
6393.693182432328
 30
0.0
 40
7.5
100
AcDbArc
 50
0.0
 51
180.0
  0
ARC
  5
1595E
330
155B8
100
AcDbEntity
  8
SUNPOU
100
AcDbCircle
 10
9619.127507899648
 20
6393.693182432328
 30
0.0
 40
7.5
100
AcDbArc
 50
180.0
 51
0.0
  0
ARC
  5
1595F
330
155B8
100
AcDbEntity
  8
SUNPOU
100
AcDbCircle
 10
9619.127507899648
 20
6393.693182432328
 30
0.0
 40
7.5
100
AcDbArc
 50
180.0
 51
0.0
  0
ARC
  5
15960
330
155B8
100
AcDbEntity
  8
SUNPOU
100
AcDbCircle
 10
9619.127507899648
 20
6393.693182432328
 30
0.0
 40
7.5
100
AcDbArc
 50
0.0
 51
180.0
  0
ARC
  5
15961
330
155B8
100
AcDbEntity
  8
SUNPOU
100
AcDbCircle
 10
7219.127507899648
 20
6393.693182432328
 30
0.0
 40
7.5
100
AcDbArc
 50
0.0
 51
180.0
  0
ARC
  5
15962
330
155B8
100
AcDbEntity
  8
SUNPOU
100
AcDbCircle
 10
7219.127507899648
 20
6393.693182432328
 30
0.0
 40
7.5
100
AcDbArc
 50
180.0
 51
0.0
  0
ARC
  5
15963
330
155B8
100
AcDbEntity
  8
SUNPOU
100
AcDbCircle
 10
7219.127507899648
 20
6393.693182432328
 30
0.0
 40
7.5
100
AcDbArc
 50
180.0
 51
0.0
  0
ARC
  5
15964
330
155B8
100
AcDbEntity
  8
SUNPOU
100
AcDbCircle
 10
7219.127507899648
 20
6393.693182432328
 30
0.0
 40
7.5
100
AcDbArc
 50
0.0
 51
180.0
  0
ARC
  5
15965
330
155B8
100
AcDbEntity
  8
SUNPOU
100
AcDbCircle
 10
6819.127507899648
 20
6393.693182432328
 30
0.0
 40
7.5
100
AcDbArc
 50
0.0
 51
180.0
  0
ARC
  5
15966
330
155B8
100
AcDbEntity
  8
SUNPOU
100
AcDbCircle
 10
6819.127507899648
 20
6393.693182432328
 30
0.0
 40
7.5
100
AcDbArc
 50
180.0
 51
0.0
  0
ARC
  5
15967
330
155B8
100
AcDbEntity
  8
SUNPOU
100
AcDbCircle
 10
5484.005086586606
 20
2458.731788496597
 30
0.0
 40
7.5
100
AcDbArc
 50
180.0
 51
0.0
  0
ARC
  5
15968
330
155B8
100
AcDbEntity
  8
SUNPOU
100
AcDbCircle
 10
5484.005086586606
 20
2458.731788496597
 30
0.0
 40
7.5
100
AcDbArc
 50
0.0
 51
180.0
  0
ARC
  5
15969
330
155B8
100
AcDbEntity
  8
SUNPOU
100
AcDbCircle
 10
5004.005086586602
 20
2458.731788496597
 30
0.0
 40
7.5
100
AcDbArc
 50
0.0
 51
180.0
  0
ARC
  5
1596A
330
155B8
100
AcDbEntity
  8
SUNPOU
100
AcDbCircle
 10
5004.005086586602
 20
2458.731788496597
 30
0.0
 40
7.5
100
AcDbArc
 50
180.0
 51
0.0
  0
ARC
  5
1596B
330
155B8
100
AcDbEntity
  8
SUNPOU
100
AcDbCircle
 10
5004.005086586602
 20
2458.731788496597
 30
0.0
 40
7.5
100
AcDbArc
 50
180.0
 51
0.0
  0
ARC
  5
1596C
330
155B8
100
AcDbEntity
  8
SUNPOU
100
AcDbCircle
 10
5004.005086586602
 20
2458.731788496597
 30
0.0
 40
7.5
100
AcDbArc
 50
0.0
 51
180.0
  0
ARC
  5
1596D
330
155B8
100
AcDbEntity
  8
SUNPOU
100
AcDbCircle
 10
3644.005086586604
 20
2458.731788496597
 30
0.0
 40
7.5
100
AcDbArc
 50
0.0
 51
180.0
  0
ARC
  5
1596E
330
155B8
100
AcDbEntity
  8
SUNPOU
100
AcDbCircle
 10
3644.005086586604
 20
2458.731788496597
 30
0.0
 40
7.5
100
AcDbArc
 50
180.0
 51
0.0
  0
ARC
  5
1596F
330
155B8
100
AcDbEntity
  8
SUNPOU
100
AcDbCircle
 10
5484.005086586606
 20
2248.731788496596
 30
0.0
 40
7.5
100
AcDbArc
 50
180.0
 51
0.0
  0
ARC
  5
15970
330
155B8
100
AcDbEntity
  8
SUNPOU
100
AcDbCircle
 10
5484.005086586606
 20
2248.731788496596
 30
0.0
 40
7.5
100
AcDbArc
 50
0.0
 51
180.0
  0
ARC
  5
15971
330
155B8
100
AcDbEntity
  8
SUNPOU
100
AcDbCircle
 10
3644.005086586604
 20
2248.731788496596
 30
0.0
 40
7.5
100
AcDbArc
 50
0.0
 51
180.0
  0
ARC
  5
15972
330
155B8
100
AcDbEntity
  8
SUNPOU
100
AcDbCircle
 10
3644.005086586604
 20
2248.731788496596
 30
0.0
 40
7.5
100
AcDbArc
 50
180.0
 51
0.0
  0
ARC
  5
15973
330
155B8
100
AcDbEntity
  8
SUNPOU
100
AcDbCircle
 10
6125.583068426931
 20
3157.718703522843
 30
0.0
 40
7.5
100
AcDbArc
 50
90.0
 51
270.0
  0
ARC
  5
15974
330
155B8
100
AcDbEntity
  8
SUNPOU
100
AcDbCircle
 10
6125.583068426931
 20
3157.718703522843
 30
0.0
 40
7.5
100
AcDbArc
 50
270.0
 51
90.0
  0
ARC
  5
15975
330
155B8
100
AcDbEntity
  8
SUNPOU
100
AcDbCircle
 10
6125.583068426931
 20
3957.718703522846
 30
0.0
 40
7.5
100
AcDbArc
 50
270.0
 51
90.0
  0
ARC
  5
15976
330
155B8
100
AcDbEntity
  8
SUNPOU
100
AcDbCircle
 10
6125.583068426931
 20
3957.718703522846
 30
0.0
 40
7.5
100
AcDbArc
 50
90.0
 51
270.0
  0
ARC
  5
15977
330
155B8
100
AcDbEntity
  8
SUNPOU
100
AcDbCircle
 10
6335.583068426931
 20
2837.718703522841
 30
0.0
 40
7.5
100
AcDbArc
 50
90.0
 51
270.0
  0
ARC
  5
15978
330
155B8
100
AcDbEntity
  8
SUNPOU
100
AcDbCircle
 10
6335.583068426931
 20
2837.718703522841
 30
0.0
 40
7.5
100
AcDbArc
 50
270.0
 51
90.0
  0
ARC
  5
15979
330
155B8
100
AcDbEntity
  8
SUNPOU
100
AcDbCircle
 10
6335.583068426931
 20
2997.718703522841
 30
0.0
 40
7.5
100
AcDbArc
 50
270.0
 51
90.0
  0
ARC
  5
1597A
330
155B8
100
AcDbEntity
  8
SUNPOU
100
AcDbCircle
 10
6335.583068426931
 20
2997.718703522841
 30
0.0
 40
7.5
100
AcDbArc
 50
90.0
 51
270.0
  0
ARC
  5
1597B
330
155B8
100
AcDbEntity
  8
SUNPOU
100
AcDbCircle
 10
6335.583068426931
 20
2997.718703522844
 30
0.0
 40
7.5
100
AcDbArc
 50
90.0
 51
270.0
  0
ARC
  5
1597C
330
155B8
100
AcDbEntity
  8
SUNPOU
100
AcDbCircle
 10
6335.583068426931
 20
2997.718703522844
 30
0.0
 40
7.5
100
AcDbArc
 50
270.0
 51
90.0
  0
ARC
  5
1597D
330
155B8
100
AcDbEntity
  8
SUNPOU
100
AcDbCircle
 10
6335.583068426931
 20
3957.718703522846
 30
0.0
 40
7.5
100
AcDbArc
 50
270.0
 51
90.0
  0
ARC
  5
1597E
330
155B8
100
AcDbEntity
  8
SUNPOU
100
AcDbCircle
 10
6335.583068426931
 20
3957.718703522846
 30
0.0
 40
7.5
100
AcDbArc
 50
90.0
 51
270.0
  0
ARC
  5
1597F
330
155B8
100
AcDbEntity
  8
HIKIDASHI
100
AcDbCircle
 10
3363.786549296427
 20
2566.721081302862
 30
0.0
 40
75.00000000001334
100
AcDbArc
 50
301.7712278330566
 51
15.14038701489555
  0
ARC
  5
15980
330
155B8
100
AcDbEntity
  8
HIKIDASHI
100
AcDbCircle
 10
3427.495607783707
 20
2583.959290799997
 30
0.0
 40
8.999999999992452
100
AcDbArc
 50
15.14038701506128
 51
164.8596129849863
  0
ARC
  5
15981
330
155B8
100
AcDbEntity
  8
HIKIDASHI
100
AcDbCircle
 10
3491.204666270965
 20
2566.721081302839
 30
0.0
 40
74.99999999999909
100
AcDbArc
 50
164.8596129850878
 51
238.2287721669164
  0
LINE
  5
15982
330
155B8
100
AcDbEntity
  8
HIKIDASHI
100
AcDbLine
 10
9678.487190505684
 20
8930.336881458343
 30
0.0
 11
9647.691374071312
 21
8877.881017247176
 31
0.0
  0
LINE
  5
15983
330
155B8
100
AcDbEntity
  8
HIKIDASHI
100
AcDbLine
 10
9647.691374071312
 20
8877.881017247176
 30
0.0
 11
9693.835264496641
 21
8917.513596981725
 31
0.0
  0
SOLID
  5
15984
330
155B8
100
AcDbEntity
  8
HIKIDASHI
100
AcDbTrace
 10
9678.487190505684
 20
8930.336881458343
 30
0.0
 11
9693.835264496641
 21
8917.513596981725
 31
0.0
 12
9647.691374071312
 22
8877.881017247176
 32
0.0
 13
9647.691374071312
 23
8877.881017247176
 33
0.0
  0
LINE
  5
15985
330
155B8
100
AcDbEntity
  8
HIKIDASHI
100
AcDbLine
 10
9693.835264496641
 20
8917.513596981725
 30
0.0
 11
9678.487190505684
 21
8930.336881458343
 31
0.0
  0
LINE
  5
15986
330
155B8
100
AcDbEntity
  8
HIKIDASHI
100
AcDbLine
 10
4777.533112912054
 20
3285.842216069705
 30
0.0
 11
3458.578019690166
 21
2458.731788496597
 31
0.0
1001
ACAD
1000
DSTYLE
1002
{
1070
   147
1040
1.125
1070
    77
1070
     0
1002
}
  0
LINE
  5
15987
330
155B8
100
AcDbEntity
  8
HIKIDASHI
100
AcDbLine
 10
4782.84586082091
 20
3277.37022045728
 30
0.0
 11
4828.365086586602
 21
3317.718703522842
 31
0.0
  0
LINE
  5
15988
330
155B8
100
AcDbEntity
  8
HIKIDASHI
100
AcDbLine
 10
4828.365086586602
 20
3317.718703522842
 30
0.0
 11
4772.220365003198
 21
3294.31421168213
 31
0.0
  0
SOLID
  5
15989
330
155B8
100
AcDbEntity
  8
HIKIDASHI
100
AcDbTrace
 10
4782.84586082091
 20
3277.37022045728
 30
0.0
 11
4772.220365003198
 21
3294.31421168213
 31
0.0
 12
4828.365086586602
 22
3317.718703522842
 32
0.0
 13
4828.365086586602
 23
3317.718703522842
 33
0.0
  0
LINE
  5
1598A
330
155B8
100
AcDbEntity
  8
HIKIDASHI
100
AcDbLine
 10
4772.220365003198
 20
3294.31421168213
 30
0.0
 11
4782.84586082091
 21
3277.37022045728
 31
0.0
  0
LINE
  5
1598B
330
155B8
100
AcDbEntity
  8
HIKIDASHI
100
AcDbLine
 10
5198.797646112944
 20
3327.803499266863
 30
0.0
 11
5786.076085165333
 21
2125.147386988718
 31
0.0
1001
ACAD
1000
DSTYLE
1002
{
1070
   147
1040
1.125
1070
    77
1070
     0
1002
}
  0
LINE
  5
1598C
330
155B8
100
AcDbEntity
  8
HIKIDASHI
100
AcDbLine
 10
5207.783513488941
 20
3332.191458644635
 30
0.0
 11
5172.469889846303
 21
3381.718703522845
 31
0.0
  0
LINE
  5
1598D
330
155B8
100
AcDbEntity
  8
HIKIDASHI
100
AcDbLine
 10
5172.469889846303
 20
3381.718703522845
 30
0.0
 11
5189.811778736945
 21
3323.415539889087
 31
0.0
  0
SOLID
  5
1598E
330
155B8
100
AcDbEntity
  8
HIKIDASHI
100
AcDbTrace
 10
5207.783513488941
 20
3332.191458644635
 30
0.0
 11
5189.811778736945
 21
3323.415539889087
 31
0.0
 12
5172.469889846303
 22
3381.718703522845
 32
0.0
 13
5172.469889846303
 23
3381.718703522845
 33
0.0
  0
LINE
  5
1598F
330
155B8
100
AcDbEntity
  8
HIKIDASHI
100
AcDbLine
 10
5189.811778736945
 20
3323.415539889087
 30
0.0
 11
5207.783513488941
 21
3332.191458644635
 31
0.0
  0
LINE
  5
15990
330
155B8
100
AcDbEntity
  8
HIKIDASHI
100
AcDbLine
 10
5349.859266689735
 20
3409.954743201093
 30
0.0
 11
5862.991694001824
 21
2335.351403224569
 31
0.0
1001
ACAD
1000
DSTYLE
1002
{
1070
   147
1040
1.125
1070
    77
1070
     0
1002
}
  0
LINE
  5
15991
330
155B8
100
AcDbEntity
  8
HIKIDASHI
100
AcDbLine
 10
5358.883249198083
 20
3414.263773218282
 30
0.0
 11
5324.005086586602
 21
3464.098638251181
 31
0.0
  0
LINE
  5
15992
330
155B8
100
AcDbEntity
  8
HIKIDASHI
100
AcDbLine
 10
5324.005086586602
 20
3464.098638251181
 30
0.0
 11
5340.835284181386
 21
3405.645713183905
 31
0.0
  0
SOLID
  5
15993
330
155B8
100
AcDbEntity
  8
HIKIDASHI
100
AcDbTrace
 10
5358.883249198083
 20
3414.263773218282
 30
0.0
 11
5340.835284181386
 21
3405.645713183905
 31
0.0
 12
5324.005086586602
 22
3464.098638251181
 32
0.0
 13
5324.005086586602
 23
3464.098638251181
 33
0.0
  0
LINE
  5
15994
330
155B8
100
AcDbEntity
  8
HIKIDASHI
100
AcDbLine
 10
5340.835284181386
 20
3405.645713183905
 30
0.0
 11
5358.883249198083
 21
3414.263773218282
 31
0.0
  0
LINE
  5
15995
330
155B8
100
AcDbEntity
  8
HATCH
100
AcDbLine
 10
3564.491681375264
 20
2837.718703522838
 30
0.0
 11
3656.867724445599
 21
2997.718703522829
 31
0.0
  0
LINE
  5
15996
330
155B8
100
AcDbEntity
  8
HATCH
100
AcDbLine
 10
3592.867724445602
 20
2997.718703522829
 30
0.0
 11
3624.8677244456
 21
2942.293077680631
 31
0.0
  0
LINE
  5
15997
330
155B8
100
AcDbEntity
  8
HATCH
100
AcDbLine
 10
3596.491681375262
 20
2893.144329365041
 30
0.0
 11
3628.49168137526
 21
2837.718703522838
 31
0.0
  0
LINE
  5
15998
330
155B8
100
AcDbEntity
  8
HATCH
100
AcDbLine
 10
5228.508134460113
 20
2837.718703522838
 30
0.0
 11
5320.884177530449
 21
2997.718703522829
 31
0.0
  0
LINE
  5
15999
330
155B8
100
AcDbEntity
  8
HATCH
100
AcDbLine
 10
5256.884177530452
 20
2997.718703522829
 30
0.0
 11
5288.884177530452
 21
2942.293077680631
 31
0.0
  0
LINE
  5
1599A
330
155B8
100
AcDbEntity
  8
HATCH
100
AcDbLine
 10
5260.508134460113
 20
2893.144329365041
 30
0.0
 11
5292.50813446011
 21
2837.718703522838
 31
0.0
  0
LINE
  5
1599B
330
155B8
100
AcDbEntity
  8
HATCH
100
AcDbLine
 10
5020.506077824506
 20
2837.718703522838
 30
0.0
 11
5112.882120894843
 21
2997.718703522829
 31
0.0
  0
LINE
  5
1599C
330
155B8
100
AcDbEntity
  8
HATCH
100
AcDbLine
 10
5048.882120894846
 20
2997.718703522829
 30
0.0
 11
5080.882120894845
 21
2942.293077680631
 31
0.0
  0
LINE
  5
1599D
330
155B8
100
AcDbEntity
  8
HATCH
100
AcDbLine
 10
5052.506077824507
 20
2893.144329365041
 30
0.0
 11
5084.506077824503
 21
2837.718703522838
 31
0.0
  0
LINE
  5
1599E
330
155B8
100
AcDbEntity
  8
HATCH
100
AcDbLine
 10
5436.51019109572
 20
2837.718703522838
 30
0.0
 11
5528.886234166055
 21
2997.718703522829
 31
0.0
  0
LINE
  5
1599F
330
155B8
100
AcDbEntity
  8
HATCH
100
AcDbLine
 10
5464.886234166058
 20
2997.718703522829
 30
0.0
 11
5496.886234166057
 21
2942.293077680631
 31
0.0
  0
LINE
  5
159A0
330
155B8
100
AcDbEntity
  8
HATCH
100
AcDbLine
 10
5468.510191095719
 20
2893.144329365041
 30
0.0
 11
5500.510191095717
 21
2837.718703522838
 31
0.0
  0
LINE
  5
159A1
330
155B8
100
AcDbEntity
  8
HATCH
100
AcDbLine
 10
4188.497851282082
 20
2837.718703522838
 30
0.0
 11
4280.873894352416
 21
2997.718703522829
 31
0.0
  0
LINE
  5
159A2
330
155B8
100
AcDbEntity
  8
HATCH
100
AcDbLine
 10
4216.873894352421
 20
2997.718703522829
 30
0.0
 11
4248.873894352421
 21
2942.293077680631
 31
0.0
  0
LINE
  5
159A3
330
155B8
100
AcDbEntity
  8
HATCH
100
AcDbLine
 10
4220.497851282082
 20
2893.144329365041
 30
0.0
 11
4252.497851282078
 21
2837.718703522838
 31
0.0
  0
LINE
  5
159A4
330
155B8
100
AcDbEntity
  8
HATCH
100
AcDbLine
 10
4396.499907917687
 20
2837.718703522838
 30
0.0
 11
4488.87595098802
 21
2997.718703522829
 31
0.0
  0
LINE
  5
159A5
330
155B8
100
AcDbEntity
  8
HATCH
100
AcDbLine
 10
4424.875950988026
 20
2997.718703522829
 30
0.0
 11
4456.875950988023
 21
2942.293077680631
 31
0.0
  0
LINE
  5
159A6
330
155B8
100
AcDbEntity
  8
HATCH
100
AcDbLine
 10
4428.499907917685
 20
2893.144329365041
 30
0.0
 11
4460.499907917683
 21
2837.718703522838
 31
0.0
  0
LINE
  5
159A7
330
155B8
100
AcDbEntity
  8
HATCH
100
AcDbLine
 10
4604.501964553294
 20
2837.718703522838
 30
0.0
 11
4696.878007623629
 21
2997.718703522829
 31
0.0
  0
LINE
  5
159A8
330
155B8
100
AcDbEntity
  8
HATCH
100
AcDbLine
 10
4632.878007623633
 20
2997.718703522829
 30
0.0
 11
4664.87800762363
 21
2942.293077680631
 31
0.0
  0
LINE
  5
159A9
330
155B8
100
AcDbEntity
  8
HATCH
100
AcDbLine
 10
4636.501964553292
 20
2893.144329365041
 30
0.0
 11
4668.50196455329
 21
2837.718703522838
 31
0.0
  0
LINE
  5
159AA
330
155B8
100
AcDbEntity
  8
HATCH
100
AcDbLine
 10
4812.5040211889
 20
2837.718703522838
 30
0.0
 11
4904.880064259235
 21
2997.718703522829
 31
0.0
  0
LINE
  5
159AB
330
155B8
100
AcDbEntity
  8
HATCH
100
AcDbLine
 10
4840.880064259239
 20
2997.718703522829
 30
0.0
 11
4872.880064259237
 21
2942.293077680631
 31
0.0
  0
LINE
  5
159AC
330
155B8
100
AcDbEntity
  8
HATCH
100
AcDbLine
 10
4844.504021188898
 20
2893.144329365041
 30
0.0
 11
4876.504021188896
 21
2837.718703522838
 31
0.0
  0
LINE
  5
159AD
330
155B8
100
AcDbEntity
  8
HATCH
100
AcDbLine
 10
3532.005086586607
 20
3717.718703522843
 30
0.0
 11
3587.430712428814
 21
3813.718703522847
 31
0.0
  0
LINE
  5
159AE
330
155B8
100
AcDbEntity
  8
HATCH
100
AcDbLine
 10
3549.030712428812
 20
3813.718703522846
 30
0.0
 11
3568.230712428813
 21
3780.463328017523
 31
0.0
  0
LINE
  5
159AF
330
155B8
100
AcDbEntity
  8
HATCH
100
AcDbLine
 10
3551.205086586608
 20
3750.974079028167
 30
0.0
 11
3570.405086586609
 21
3717.718703522843
 31
0.0
  0
LINE
  5
159B0
330
155B8
100
AcDbEntity
  8
HATCH
100
AcDbLine
 10
3388.005086586606
 20
3717.718703522843
 30
0.0
 11
3443.430712428813
 21
3813.718703522847
 31
0.0
  0
LINE
  5
159B1
330
155B8
100
AcDbEntity
  8
HATCH
100
AcDbLine
 10
3405.030712428812
 20
3813.718703522846
 30
0.0
 11
3424.230712428812
 21
3780.463328017523
 31
0.0
  0
LINE
  5
159B2
330
155B8
100
AcDbEntity
  8
HATCH
100
AcDbLine
 10
3407.205086586607
 20
3750.974079028167
 30
0.0
 11
3426.405086586608
 21
3717.718703522843
 31
0.0
  0
LINE
  5
159B3
330
155B8
100
AcDbEntity
  8
HATCH
100
AcDbLine
 10
3100.005086586606
 20
3717.718703522843
 30
0.0
 11
3155.430712428813
 21
3813.718703522847
 31
0.0
  0
LINE
  5
159B4
330
155B8
100
AcDbEntity
  8
HATCH
100
AcDbLine
 10
3117.030712428811
 20
3813.718703522846
 30
0.0
 11
3136.230712428812
 21
3780.463328017523
 31
0.0
  0
LINE
  5
159B5
330
155B8
100
AcDbEntity
  8
HATCH
100
AcDbLine
 10
3119.205086586607
 20
3750.974079028167
 30
0.0
 11
3138.405086586608
 21
3717.718703522843
 31
0.0
  0
LINE
  5
159B6
330
155B8
100
AcDbEntity
  8
HATCH
100
AcDbLine
 10
3244.005086586606
 20
3717.718703522843
 30
0.0
 11
3299.430712428812
 21
3813.718703522847
 31
0.0
  0
LINE
  5
159B7
330
155B8
100
AcDbEntity
  8
HATCH
100
AcDbLine
 10
3261.030712428811
 20
3813.718703522846
 30
0.0
 11
3280.230712428812
 21
3780.463328017523
 31
0.0
  0
LINE
  5
159B8
330
155B8
100
AcDbEntity
  8
HATCH
100
AcDbLine
 10
3263.205086586607
 20
3750.974079028167
 30
0.0
 11
3282.405086586608
 21
3717.718703522843
 31
0.0
  0
LINE
  5
159B9
330
155B8
100
AcDbEntity
  8
HATCH
100
AcDbLine
 10
3772.49373801087
 20
2837.718703522838
 30
0.0
 11
3864.869781081205
 21
2997.718703522829
 31
0.0
  0
LINE
  5
159BA
330
155B8
100
AcDbEntity
  8
HATCH
100
AcDbLine
 10
3800.869781081209
 20
2997.718703522829
 30
0.0
 11
3832.869781081207
 21
2942.293077680631
 31
0.0
  0
LINE
  5
159BB
330
155B8
100
AcDbEntity
  8
HATCH
100
AcDbLine
 10
3804.493738010869
 20
2893.144329365041
 30
0.0
 11
3836.493738010867
 21
2837.718703522838
 31
0.0
  0
LINE
  5
159BC
330
155B8
100
AcDbEntity
  8
HATCH
100
AcDbLine
 10
3980.495794646475
 20
2837.718703522838
 30
0.0
 11
4072.871837716809
 21
2997.718703522829
 31
0.0
  0
LINE
  5
159BD
330
155B8
100
AcDbEntity
  8
HATCH
100
AcDbLine
 10
4008.871837716813
 20
2997.718703522829
 30
0.0
 11
4040.871837716811
 21
2942.293077680631
 31
0.0
  0
LINE
  5
159BE
330
155B8
100
AcDbEntity
  8
HATCH
100
AcDbLine
 10
4012.495794646473
 20
2893.144329365041
 30
0.0
 11
4044.495794646471
 21
2837.718703522838
 31
0.0
  0
LINE
  5
159BF
330
155B8
100
AcDbEntity
  8
KISO
100
AcDbLine
 10
7716.103906328147
 20
2739.166484335346
 30
0.0
 11
9556.103906328145
 21
2739.166484335346
 31
0.0
  0
LINE
  5
159C0
330
155B8
100
AcDbEntity
  8
KISO
100
AcDbLine
 10
9556.103906328145
 20
2739.166484335346
 30
0.0
 11
9556.103906328145
 21
4019.166484335345
 31
0.0
  0
LINE
  5
159C1
330
155B8
100
AcDbEntity
  8
KISO
100
AcDbLine
 10
9556.103906328145
 20
4019.166484335345
 30
0.0
 11
7716.103906328147
 21
4019.166484335345
 31
0.0
  0
LINE
  5
159C2
330
155B8
100
AcDbEntity
  8
KISO
100
AcDbLine
 10
7716.103906328147
 20
4019.166484335345
 30
0.0
 11
7716.103906328147
 21
2739.166484335346
 31
0.0
  0
LINE
  5
159C3
330
155B8
100
AcDbEntity
  8
DOMAKON
100
AcDbLine
 10
6819.127507899648
 20
6843.693182432328
 30
0.0
 11
10019.12750789964
 21
6843.693182432328
 31
0.0
  0
LINE
  5
159C4
330
155B8
100
AcDbEntity
  8
DOMAKON
100
AcDbLine
 10
10019.12750789964
 20
6843.693182432328
 30
0.0
 11
10019.12750789964
 21
9083.693182432327
 31
0.0
  0
LINE
  5
159C5
330
155B8
100
AcDbEntity
  8
DOMAKON
100
AcDbLine
 10
10019.12750789964
 20
9083.693182432327
 30
0.0
 11
6819.127507899648
 21
9083.693182432327
 31
0.0
  0
LINE
  5
159C6
330
155B8
100
AcDbEntity
  8
DOMAKON
100
AcDbLine
 10
6819.127507899648
 20
9083.693182432327
 30
0.0
 11
6819.127507899648
 21
6843.693182432328
 31
0.0
  0
LINE
  5
159C7
330
155B8
100
AcDbEntity
  8
1PL-M1
100
AcDbLine
 10
5004.005086586602
 20
2413.731788496597
 30
0.0
 11
5004.005086586602
 21
4384.918703522841
 31
0.0
  0
LINE
  5
159C8
330
155B8
100
AcDbEntity
  8
YANE
  6
2PL-M
100
AcDbLine
 10
9840.928160950877
 20
6970.143910050989
 30
0.0
 11
6997.326854848409
 21
6970.143910050989
 31
0.0
  0
LINE
  5
159C9
330
155B8
100
AcDbEntity
  8
YANE
  6
2PL-M
100
AcDbLine
 10
6997.326854848409
 20
6970.143910050989
 30
0.0
 11
6997.326854848409
 21
8958.243182432324
 31
0.0
  0
LINE
  5
159CA
330
155B8
100
AcDbEntity
  8
YANE
  6
2PL-M
100
AcDbLine
 10
6997.326854848409
 20
8958.243182432324
 30
0.0
 11
9840.928160950877
 21
8958.243182432324
 31
0.0
  0
LINE
  5
159CB
330
155B8
100
AcDbEntity
  8
YANE
  6
2PL-M
100
AcDbLine
 10
9840.928160950877
 20
8958.243182432324
 30
0.0
 11
9840.928160950877
 21
6970.143910050989
 31
0.0
  0
TEXT
  5
159F2
330
155B8
100
AcDbEntity
  8
SUNPOU
100
AcDbText
 10
11192.41291698229
 20
3968.866694881108
 30
0.0
 40
119.9991666724536
  1
地耐力   　　　 以上,コンクリート設計基準強度   　　　 以上
  7
01
100
AcDbText
  0
TEXT
  5
159F3
330
155B8
100
AcDbEntity
  8
SUNPOU
100
AcDbText
 10
11692.35391043482
 20
3463.152409166823
 30
0.0
 40
120.0
  1
寒冷地の場合、凍結深度等を考慮し、実情に
  7
01
100
AcDbText
  0
TEXT
  5
159F4
330
155B8
100
AcDbEntity
  8
SUNPOU
100
AcDbText
 10
11692.35391043482
 20
3051.723837738252
 30
0.0
 40
120.0
  1
その他現地の実情にあわせて設計して下さい。
  7
01
100
AcDbText
  0
TEXT
  5
159F5
330
155B8
100
AcDbEntity
  8
SUNPOU
100
AcDbText
 10
11692.35391043482
 20
2434.580980595392
 30
0.0
 40
120.0
  1
所もありますので、ご注意願います。
  7
01
100
AcDbText
  0
TEXT
  5
159F6
330
155B8
100
AcDbEntity
  8
SUNPOU
100
AcDbText
 10
11692.35391043482
 20
2640.295266309681
 30
0.0
 40
120.0
  1
地域によっては、フックをつける様指導している
  7
01
100
AcDbText
  0
TEXT
  5
159F7
330
155B8
100
AcDbEntity
  8
SUNPOU
100
AcDbText
 10
11692.35391043482
 20
2846.009552023966
 30
0.0
 40
120.0
  1
異形鉄筋の場合、原則としてフックは不要ですが、
  7
01
100
AcDbText
  0
TEXT
  5
159F8
330
155B8
100
AcDbEntity
  8
SUNPOU
100
AcDbText
 10
11192.41291698229
 20
3763.152409166823
 30
0.0
 40
119.9991666724536
  1
基準風速   　　 , 地表面粗度区分
  7
01
100
AcDbText
  0
TEXT
  5
159F9
330
155B8
100
AcDbEntity
  8
SUNPOU
100
AcDbText
 10
11185.47093583684
 20
4431.205364809048
 30
0.0
 40
160.0
  1
基礎断面図
  7
01
 72
     4
 11
11638.80426917018
 21
4511.205364809048
 31
0.0
100
AcDbText
  0
TEXT
  5
159FA
330
155B8
100
AcDbEntity
  8
SUNPOU
100
AcDbText
 10
11018.32807869398
 20
4221.205364809048
 30
0.0
 40
120.0
  1
<下記条件での参考図>
  7
01
 72
     4
 11
11803.47093583683
 21
4281.205364809047
 31
0.0
100
AcDbText
  0
ARC
  5
159FB
330
155B8
100
AcDbEntity
  8
SUNPOU
100
AcDbCircle
 10
11396.35728219191
 20
3920.583259470217
 30
0.0
 40
300.0
100
AcDbArc
 50
148.3472725282539
 51
211.652727471746
  0
TEXT
  5
159FC
330
155B8
100
AcDbEntity
  8
SUNPOU
100
AcDbText
 10
11692.35391043482
 20
3257.438123452536
 30
0.0
 40
120.0
  1
あわせて設計して下さい。
  7
01
100
AcDbText
  0
TEXT
  5
159FD
330
155B8
100
AcDbEntity
  8
SUNPOU
100
AcDbText
 10
11269.90102336531
 20
3051.723837738252
 30
0.0
 40
120.0
  1
注　）
  7
01
100
AcDbText
  0
TEXT
  5
159FE
330
155B8
100
AcDbEntity
  8
SUNPOU
100
AcDbText
 10
11269.90102336531
 20
2846.009552023966
 30
0.0
 40
120.0
  1
注　）
  7
01
100
AcDbText
  0
TEXT
  5
159FF
330
155B8
100
AcDbEntity
  8
SUNPOU
100
AcDbText
 10
11417.41291698229
 20
2846.009552023966
 30
0.0
 40
120.0
  1
3
 41
0.6700000000000001
  7
01
100
AcDbText
  0
TEXT
  5
15A00
330
155B8
100
AcDbEntity
  8
SUNPOU
100
AcDbText
 10
11417.41291698229
 20
3051.723837738252
 30
0.0
 40
120.0
  1
2
 41
0.6700000000000001
  7
01
100
AcDbText
  0
TEXT
  5
15A01
330
155B8
100
AcDbEntity
  8
SUNPOU
100
AcDbText
 10
11837.43082186919
 20
3763.152409166823
 30
0.0
 40
119.9991666724536
  1
34 m/s
 41
0.6700000000000001
  7
01
100
AcDbText
  0
TEXT
  5
15A02
330
155B8
100
AcDbEntity
  8
SUNPOU
100
AcDbText
 10
11691.42412688241
 20
3968.866694881108
 30
0.0
 40
119.9991666724536
  1
50  N/m
 41
0.6700000000000001
  7
01
100
AcDbText
  0
TEXT
  5
15A03
330
155B8
100
AcDbEntity
  8
SUNPOU
100
AcDbText
 10
11872.53939726367
 20
3968.866694881108
 30
0.0
 40
95.99933333796291
  1
K
 41
0.6700000000000001
  7
01
100
AcDbText
  0
TEXT
  5
15A04
330
155B8
100
AcDbEntity
  8
SUNPOU
100
AcDbText
 10
11269.90102336531
 20
3463.152409166823
 30
0.0
 40
120.0
  1
注　）
  7
01
100
AcDbText
  0
TEXT
  5
15A05
330
155B8
100
AcDbEntity
  8
SUNPOU
100
AcDbText
 10
11417.41291698229
 20
3463.152409166823
 30
0.0
 40
120.0
  1
1
 41
0.6700000000000001
  7
01
100
AcDbText
  0
TEXT
  5
15A06
330
155B8
100
AcDbEntity
  8
SUNPOU
100
AcDbText
 10
12229.39293956819
 20
4035.78459669109
 30
0.0
 40
61.7138571458333
  1
2
 41
0.6700000000000001
  7
00
100
AcDbText
  0
LINE
  5
15A07
330
155B8
100
AcDbEntity
  8
SUNPOU
100
AcDbLine
 10
13581.50033240445
 20
3874.475560765196
 30
0.0
 11
13656.50033240445
 21
3874.475560765196
 31
0.0
  0
LINE
  5
15A08
330
155B8
100
AcDbEntity
  8
SUNPOU
100
AcDbLine
 10
13581.50033240445
 20
3763.152409166823
 30
0.0
 11
13656.50033240445
 21
3763.152409166823
 31
0.0
  0
LINE
  5
15A09
330
155B8
100
AcDbEntity
  8
SUNPOU
100
AcDbLine
 10
13596.50033240445
 20
3763.152409166823
 30
0.0
 11
13596.50033240445
 21
3874.475560765196
 31
0.0
  0
LINE
  5
15A0A
330
155B8
100
AcDbEntity
  8
SUNPOU
100
AcDbLine
 10
13619.00033240445
 20
3763.152409166823
 30
0.0
 11
13619.00033240445
 21
3874.475560765196
 31
0.0
  0
LINE
  5
15A0B
330
155B8
100
AcDbEntity
  8
SUNPOU
100
AcDbLine
 10
13641.50033240445
 20
3763.152409166823
 30
0.0
 11
13641.50033240445
 21
3874.475560765196
 31
0.0
  0
TEXT
  5
15A0C
330
155B8
100
AcDbEntity
  8
SUNPOU
100
AcDbText
 10
12141.27138565413
 20
4447.615621219305
 30
0.0
 40
123.076923076923
  1
（ S = 　　  ）
 41
0.6700000000000001
  7
00
 11
12141.27138565413
 21
4431.205364809048
 31
0.0
100
AcDbText
 73
     1
  0
TEXT
  5
15A0D
330
155B8
100
AcDbEntity
  8
SUNPOU
100
AcDbText
 10
12567.54165479158
 20
4468.948954552637
 30
0.0
 40
98.46153846153846
  1
1
 41
0.6700000000000001
  7
00
 11
12567.54165479158
 21
4455.820749424431
 31
0.0
100
AcDbText
 73
     1
  0
TEXT
  5
15A0E
330
155B8
100
AcDbEntity
  8
SUNPOU
100
AcDbText
 10
12632.08315787874
 20
4444.333569937253
 30
0.0
 40
98.46153846153846
  1
/
 41
0.6700000000000001
  7
00
 11
12632.08315787874
 21
4431.205364809048
 31
0.0
100
AcDbText
 73
     1
  0
TEXT
  5
15A0F
330
155B8
100
AcDbEntity
  8
SUNPOU
100
AcDbText
 10
12717.34908181791
 20
4419.718185321868
 30
0.0
 40
98.46153846153846
  1
25
 41
0.6700000000000001
  7
00
 11
12717.34908181791
 21
4406.589980193663
 31
0.0
100
AcDbText
 73
     1
  0
TEXT
  5
15A10
330
155B8
100
AcDbEntity
  8
SUNPOU
100
AcDbText
 10
14443.2084140245
 20
3968.866694881108
 30
0.0
 40
119.9991666724536
  1
18
 41
0.6700000000000001
  7
01
100
AcDbText
  0
TEXT
  5
15A11
330
155B8
100
AcDbEntity
  8
SUNPOU
100
AcDbText
 10
14624.32368440578
 20
3968.866694881108
 30
0.0
 40
119.9991666724536
  1
N/mm
 41
0.6700000000000001
  7
01
100
AcDbText
  0
TEXT
  5
15A12
330
155B8
100
AcDbEntity
  8
SUNPOU
100
AcDbText
 10
15030.27632711432
 20
4035.78459669109
 30
0.0
 40
61.7138571458333
  1
2
 41
0.6700000000000001
  7
00
100
AcDbText
  0
ARC
  5
15A13
330
155B8
100
AcDbEntity
  8
SUNPOU
100
AcDbCircle
 10
15210.0298544298
 20
3920.583259470217
 30
0.0
 40
300.0
100
AcDbArc
 50
328.3472725282539
 51
31.65272747174605
  0
ENDSEC
  0
SECTION
  2
OBJECTS
  0
DICTIONARY
  5
155A6
330
0
100
AcDbDictionary
281
     1
  3
ACAD_GROUP
350
155A7
  3
ACAD_LAYOUT
350
155B3
  3
ACAD_MLINESTYLE
350
155B0
  3
ACAD_PLOTSETTINGS
350
155B2
  3
ACAD_PLOTSTYLENAME
350
155A8
  3
AcDbVariableDictionary
350
15A14
  0
DICTIONARY
  5
155A7
102
{ACAD_REACTORS
330
155A6
102
}
330
155A6
100
AcDbDictionary
281
     1
  0
DICTIONARY
  5
155B3
102
{ACAD_REACTORS
330
155A6
102
}
330
155A6
100
AcDbDictionary
281
     1
  3
Model
350
155BB
  3
ﾚｲｱｳﾄ1
350
155B7
  0
DICTIONARY
  5
155B0
102
{ACAD_REACTORS
330
155A6
102
}
330
155A6
100
AcDbDictionary
281
     1
  3
Standard
350
155B1
  0
DICTIONARY
  5
155B2
102
{ACAD_REACTORS
330
155A6
102
}
330
155A6
100
AcDbDictionary
281
     1
  0
ACDBDICTIONARYWDFLT
  5
155A8
102
{ACAD_REACTORS
330
155A6
102
}
330
155A6
100
AcDbDictionary
281
     1
  3
Normal
350
155A9
100
AcDbDictionaryWithDefault
340
155A9
  0
DICTIONARY
  5
15A14
102
{ACAD_REACTORS
330
155A6
102
}
330
155A6
100
AcDbDictionary
281
     1
  3
DIMASSOC
350
15A15
  0
LAYOUT
  5
155BB
102
{ACAD_REACTORS
330
155B3
102
}
330
155B3
100
AcDbPlotSettings
  1

  2
Muratec V-1200 Is@Web Printer
  4

  6

 40
0.0
 41
0.0
 42
0.0
 43
0.0
 44
0.0
 45
0.0
 46
0.0
 47
0.0
 48
0.0
 49
0.0
140
0.0
141
0.0
142
1.0
143
1.0
 70
  1712
 72
     0
 73
     0
 74
     0
  7

 75
     0
147
1.0
148
0.0
149
0.0
100
AcDbLayout
  1
Model
 70
     1
 71
     0
 10
0.0
 20
0.0
 11
12.0
 21
9.0
 12
0.0
 22
0.0
 32
0.0
 14
0.0
 24
0.0
 34
0.0
 15
0.0
 25
0.0
 35
0.0
146
0.0
 13
0.0
 23
0.0
 33
0.0
 16
1.0
 26
0.0
 36
0.0
 17
0.0
 27
1.0
 37
0.0
 76
     0
330
155B8
  0
LAYOUT
  5
155B7
102
{ACAD_REACTORS
330
155B3
102
}
330
155B3
100
AcDbPlotSettings
  1

  2
Muratec V-1200 Is@Web Printer
  4

  6

 40
0.0
 41
0.0
 42
0.0
 43
0.0
 44
0.0
 45
0.0
 46
0.0
 47
0.0
 48
0.0
 49
0.0
140
0.0
141
0.0
142
1.0
143
1.0
 70
   688
 72
     0
 73
     0
 74
     5
  7

 75
    16
147
1.0
148
0.0
149
0.0
100
AcDbLayout
  1
ﾚｲｱｳﾄ1
 70
     0
 71
     1
 10
0.0
 20
0.0
 11
12.0
 21
9.0
 12
0.0
 22
0.0
 32
0.0
 14
1.000000000000000E+20
 24
1.000000000000000E+20
 34
1.000000000000000E+20
 15
-1.000000000000000E+20
 25
-1.000000000000000E+20
 35
-1.000000000000000E+20
146
0.0
 13
0.0
 23
0.0
 33
0.0
 16
1.0
 26
0.0
 36
0.0
 17
0.0
 27
1.0
 37
0.0
 76
     0
330
155B4
  0
MLINESTYLE
  5
155B1
102
{ACAD_REACTORS
330
155B0
102
}
330
155B0
100
AcDbMlineStyle
  2
STANDARD
 70
     0
  3

 62
   256
 51
90.0
 52
90.0
 71
     2
 49
0.5
 62
   256
  6
BYLAYER
 49
-0.5
 62
   256
  6
BYLAYER
  0
ACDBPLACEHOLDER
  5
155A9
102
{ACAD_REACTORS
330
155A8
102
}
330
155A8
  0
DICTIONARYVAR
  5
15A15
102
{ACAD_REACTORS
330
15A14
102
}
330
15A14
100
DictionaryVariables
280
     0
  1
1
  0
ENDSEC
  0
EOF
